  0
SECTION
  2
HEADER
  9
$ACADVER
  1
AC1018
  9
$ACADMAINTVER
 70
     0
  9
$DWGCODEPAGE
  3
ANSI_936
  9
$INSBASE
 10
0.0
 20
0.0
 30
0.0
  9
$EXTMIN
 10
528.115569589325
 20
0.0000000468701273
 30
0.0
  9
$EXTMAX
 10
587.7752201076836
 20
205.8766055699451
 30
0.0
  9
$LIMMIN
 10
0.0
 20
0.0
  9
$LIMMAX
 10
12.0
 20
9.0
  9
$ORTHOMODE
 70
     0
  9
$REGENMODE
 70
     1
  9
$FILLMODE
 70
     1
  9
$QTEXTMODE
 70
     0
  9
$MIRRTEXT
 70
     1
  9
$LTSCALE
 40
1.0
  9
$ATTMODE
 70
     1
  9
$TEXTSIZE
 40
0.2
  9
$TRACEWID
 40
0.05
  9
$TEXTSTYLE
  7
Standard
  9
$CLAYER
  8
0
  9
$CELTYPE
  6
ByLayer
  9
$CECOLOR
 62
   256
  9
$CELTSCALE
 40
1.0
  9
$DISPSILH
 70
     0
  9
$DIMSCALE
 40
1.0
  9
$DIMASZ
 40
0.18
  9
$DIMEXO
 40
0.0625
  9
$DIMDLI
 40
0.38
  9
$DIMRND
 40
0.0
  9
$DIMDLE
 40
0.0
  9
$DIMEXE
 40
0.18
  9
$DIMTP
 40
0.0
  9
$DIMTM
 40
0.0
  9
$DIMTXT
 40
0.18
  9
$DIMCEN
 40
0.09
  9
$DIMTSZ
 40
0.0
  9
$DIMTOL
 70
     0
  9
$DIMLIM
 70
     0
  9
$DIMTIH
 70
     1
  9
$DIMTOH
 70
     1
  9
$DIMSE1
 70
     0
  9
$DIMSE2
 70
     0
  9
$DIMTAD
 70
     0
  9
$DIMZIN
 70
     0
  9
$DIMBLK
  1

  9
$DIMASO
 70
     1
  9
$DIMSHO
 70
     1
  9
$DIMPOST
  1

  9
$DIMAPOST
  1

  9
$DIMALT
 70
     0
  9
$DIMALTD
 70
     2
  9
$DIMALTF
 40
25.4
  9
$DIMLFAC
 40
1.0
  9
$DIMTOFL
 70
     0
  9
$DIMTVP
 40
0.0
  9
$DIMTIX
 70
     0
  9
$DIMSOXD
 70
     0
  9
$DIMSAH
 70
     0
  9
$DIMBLK1
  1

  9
$DIMBLK2
  1

  9
$DIMSTYLE
  2
Standard
  9
$DIMCLRD
 70
     0
  9
$DIMCLRE
 70
     0
  9
$DIMCLRT
 70
     0
  9
$DIMTFAC
 40
1.0
  9
$DIMGAP
 40
0.09
  9
$DIMJUST
 70
     0
  9
$DIMSD1
 70
     0
  9
$DIMSD2
 70
     0
  9
$DIMTOLJ
 70
     1
  9
$DIMTZIN
 70
     0
  9
$DIMALTZ
 70
     0
  9
$DIMALTTZ
 70
     0
  9
$DIMUPT
 70
     0
  9
$DIMDEC
 70
     4
  9
$DIMTDEC
 70
     4
  9
$DIMALTU
 70
     2
  9
$DIMALTTD
 70
     2
  9
$DIMTXSTY
  7
Standard
  9
$DIMAUNIT
 70
     0
  9
$DIMADEC
 70
     0
  9
$DIMALTRND
 40
0.0
  9
$DIMAZIN
 70
     0
  9
$DIMDSEP
 70
    46
  9
$DIMATFIT
 70
     3
  9
$DIMFRAC
 70
     0
  9
$DIMLDRBLK
  1

  9
$DIMLUNIT
 70
     2
  9
$DIMLWD
 70
    -2
  9
$DIMLWE
 70
    -2
  9
$DIMTMOVE
 70
     2
  9
$LUNITS
 70
     2
  9
$LUPREC
 70
     3
  9
$SKETCHINC
 40
0.1
  9
$FILLETRAD
 40
0.5
  9
$AUNITS
 70
     0
  9
$AUPREC
 70
     0
  9
$MENU
  1
.
  9
$ELEVATION
 40
0.0
  9
$PELEVATION
 40
0.0
  9
$THICKNESS
 40
0.0
  9
$LIMCHECK
 70
     0
  9
$CHAMFERA
 40
0.5
  9
$CHAMFERB
 40
0.5
  9
$CHAMFERC
 40
1.0
  9
$CHAMFERD
 40
0.0
  9
$SKPOLY
 70
     0
  9
$TDCREATE
 40
2457487.039413842
  9
$TDUCREATE
 40
2457486.706080509
  9
$TDUPDATE
 40
2457487.039414074
  9
$TDUUPDATE
 40
2457486.706080741
  9
$TDINDWG
 40
0.0000000116
  9
$TDUSRTIMER
 40
0.0000000116
  9
$USRTIMER
 70
     1
  9
$ANGBASE
 50
0.0
  9
$ANGDIR
 70
     0
  9
$PDMODE
 70
     0
  9
$PDSIZE
 40
0.0
  9
$PLINEWID
 40
0.0
  9
$SPLFRAME
 70
     0
  9
$SPLINETYPE
 70
     6
  9
$SPLINESEGS
 70
     8
  9
$HANDSEED
  5
584
  9
$SURFTAB1
 70
     6
  9
$SURFTAB2
 70
     6
  9
$SURFTYPE
 70
     6
  9
$SURFU
 70
     6
  9
$SURFV
 70
     6
  9
$UCSBASE
  2

  9
$UCSNAME
  2

  9
$UCSORG
 10
0.0
 20
0.0
 30
0.0
  9
$UCSXDIR
 10
1.0
 20
0.0
 30
0.0
  9
$UCSYDIR
 10
0.0
 20
1.0
 30
0.0
  9
$UCSORTHOREF
  2

  9
$UCSORTHOVIEW
 70
     0
  9
$UCSORGTOP
 10
0.0
 20
0.0
 30
0.0
  9
$UCSORGBOTTOM
 10
0.0
 20
0.0
 30
0.0
  9
$UCSORGLEFT
 10
0.0
 20
0.0
 30
0.0
  9
$UCSORGRIGHT
 10
0.0
 20
0.0
 30
0.0
  9
$UCSORGFRONT
 10
0.0
 20
0.0
 30
0.0
  9
$UCSORGBACK
 10
0.0
 20
0.0
 30
0.0
  9
$PUCSBASE
  2

  9
$PUCSNAME
  2

  9
$PUCSORG
 10
0.0
 20
0.0
 30
0.0
  9
$PUCSXDIR
 10
1.0
 20
0.0
 30
0.0
  9
$PUCSYDIR
 10
0.0
 20
1.0
 30
0.0
  9
$PUCSORTHOREF
  2

  9
$PUCSORTHOVIEW
 70
     0
  9
$PUCSORGTOP
 10
0.0
 20
0.0
 30
0.0
  9
$PUCSORGBOTTOM
 10
0.0
 20
0.0
 30
0.0
  9
$PUCSORGLEFT
 10
0.0
 20
0.0
 30
0.0
  9
$PUCSORGRIGHT
 10
0.0
 20
0.0
 30
0.0
  9
$PUCSORGFRONT
 10
0.0
 20
0.0
 30
0.0
  9
$PUCSORGBACK
 10
0.0
 20
0.0
 30
0.0
  9
$USERI1
 70
     0
  9
$USERI2
 70
     0
  9
$USERI3
 70
     0
  9
$USERI4
 70
     0
  9
$USERI5
 70
     0
  9
$USERR1
 40
0.0
  9
$USERR2
 40
0.0
  9
$USERR3
 40
0.0
  9
$USERR4
 40
0.0
  9
$USERR5
 40
0.0
  9
$WORLDVIEW
 70
     1
  9
$SHADEDGE
 70
     3
  9
$SHADEDIF
 70
    70
  9
$TILEMODE
 70
     1
  9
$MAXACTVP
 70
    64
  9
$PINSBASE
 10
0.0
 20
0.0
 30
0.0
  9
$PLIMCHECK
 70
     0
  9
$PEXTMIN
 10
1.000000000000000E+20
 20
1.000000000000000E+20
 30
1.000000000000000E+20
  9
$PEXTMAX
 10
-1.000000000000000E+20
 20
-1.000000000000000E+20
 30
-1.000000000000000E+20
  9
$PLIMMIN
 10
0.0
 20
0.0
  9
$PLIMMAX
 10
12.0
 20
9.0
  9
$UNITMODE
 70
     0
  9
$VISRETAIN
 70
     1
  9
$PLINEGEN
 70
     0
  9
$PSLTSCALE
 70
     1
  9
$TREEDEPTH
 70
  3020
  9
$CMLSTYLE
  2
Standard
  9
$CMLJUST
 70
     0
  9
$CMLSCALE
 40
1.0
  9
$PROXYGRAPHICS
 70
     1
  9
$MEASUREMENT
 70
     0
  9
$CELWEIGHT
370
    -1
  9
$ENDCAPS
280
     0
  9
$JOINSTYLE
280
     0
  9
$LWDISPLAY
290
     0
  9
$INSUNITS
 70
     4
  9
$HYPERLINKBASE
  1

  9
$STYLESHEET
  1

  9
$XEDIT
290
     1
  9
$CEPSNTYPE
380
     0
  9
$PSTYLEMODE
290
     1
  9
$FINGERPRINTGUID
  2
{70BF6F21-ABC5-4BAE-B1D4-D3B9E99896CE}
  9
$VERSIONGUID
  2
{FAEB1C32-E019-11D5-929B-00C0DF256EC4}
  9
$EXTNAMES
290
     1
  9
$PSVPSCALE
 40
0.0
  9
$OLESTARTUP
290
     0
  9
$SORTENTS
280
   127
  9
$INDEXCTL
280
     0
  9
$HIDETEXT
280
     1
  9
$XCLIPFRAME
290
     0
  9
$HALOGAP
280
     0
  9
$OBSCOLOR
 70
   257
  9
$OBSLTYPE
280
     0
  9
$INTERSECTIONDISPLAY
280
     0
  9
$INTERSECTIONCOLOR
 70
   257
  9
$DIMASSOC
280
     2
  9
$PROJECTNAME
  1

  0
ENDSEC
  0
SECTION
  2
CLASSES
  0
CLASS
  1
ACDBDICTIONARYWDFLT
  2
AcDbDictionaryWithDefault
  3
ObjectDBX Classes
 90
        0
 91
        4
280
     0
281
     0
  0
CLASS
  1
VISUALSTYLE
  2
AcDbVisualStyle
  3
ObjectDBX Classes
 90
     4095
 91
        4
280
     0
281
     0
  0
CLASS
  1
MATERIAL
  2
AcDbMaterial
  3
ObjectDBX Classes
 90
     1153
 91
        4
280
     0
281
     0
  0
CLASS
  1
SCALE
  2
AcDbScale
  3
ObjectDBX Classes
 90
     1153
 91
        4
280
     0
281
     0
  0
CLASS
  1
SUN
  2
AcDbSun
  3
SCENEOE
 90
     1153
 91
        4
280
     0
281
     0
  0
CLASS
  1
DICTIONARYVAR
  2
AcDbDictionaryVar
  3
ObjectDBX Classes
 90
        0
 91
        4
280
     0
281
     0
  0
ENDSEC
  0
SECTION
  2
TABLES
  0
TABLE
  2
VPORT
  5
8
330
0
100
AcDbSymbolTable
 70
     1
  0
VPORT
  5
29
330
8
100
AcDbSymbolTableRecord
100
AcDbViewportTableRecord
  2
*Active
 70
     0
 10
0.0
 20
0.0
 11
1.0
 21
1.0
 12
557.9453948485043
 22
102.9383028084076
 13
0.0
 23
0.0
 14
0.5
 24
0.5
 15
0.5
 25
0.5
 16
0.0
 26
0.0
 36
1.0
 17
0.0
 27
0.0
 37
0.0
 40
209.9941376335364
 41
0.2897835349809664
 42
50.0
 43
0.0
 44
0.0
 50
0.0
 51
0.0
 71
     0
 72
   100
 73
     1
 74
     3
 75
     0
 76
     0
 77
     0
 78
     0
281
     0
 65
     1
110
0.0
120
0.0
130
0.0
111
1.0
121
0.0
131
0.0
112
0.0
122
1.0
132
0.0
 79
     0
146
0.0
  0
ENDTAB
  0
TABLE
  2
LTYPE
  5
5
330
0
100
AcDbSymbolTable
 70
     1
  0
LTYPE
  5
14
330
5
100
AcDbSymbolTableRecord
100
AcDbLinetypeTableRecord
  2
ByBlock
 70
     0
  3

 72
    65
 73
     0
 40
0.0
  0
LTYPE
  5
15
330
5
100
AcDbSymbolTableRecord
100
AcDbLinetypeTableRecord
  2
ByLayer
 70
     0
  3

 72
    65
 73
     0
 40
0.0
  0
LTYPE
  5
16
330
5
100
AcDbSymbolTableRecord
100
AcDbLinetypeTableRecord
  2
Continuous
 70
     0
  3
Solid line
 72
    65
 73
     0
 40
0.0
  0
ENDTAB
  0
TABLE
  2
LAYER
  5
2
330
0
100
AcDbSymbolTable
 70
     2
  0
LAYER
  5
10
330
2
100
AcDbSymbolTableRecord
100
AcDbLayerTableRecord
  2
0
 70
     0
 62
     7
  6
Continuous
370
    -3
390
F
  0
LAYER
  5
62
330
2
100
AcDbSymbolTableRecord
100
AcDbLayerTableRecord
  2
Make2D$可见线$普通线
 70
     0
 62
    18
420
        0
  6
Continuous
370
    -3
390
F
  0
ENDTAB
  0
TABLE
  2
STYLE
  5
3
330
0
100
AcDbSymbolTable
 70
     1
  0
STYLE
  5
11
330
3
100
AcDbSymbolTableRecord
100
AcDbTextStyleTableRecord
  2
Standard
 70
     0
 40
0.0
 41
1.0
 50
0.0
 71
     0
 42
0.2
  3
txt
  4

  0
ENDTAB
  0
TABLE
  2
VIEW
  5
6
330
0
100
AcDbSymbolTable
 70
     0
  0
ENDTAB
  0
TABLE
  2
UCS
  5
7
330
0
100
AcDbSymbolTable
 70
     0
  0
ENDTAB
  0
TABLE
  2
APPID
  5
9
330
0
100
AcDbSymbolTable
 70
     1
  0
APPID
  5
12
330
9
100
AcDbSymbolTableRecord
100
AcDbRegAppTableRecord
  2
ACAD
 70
     0
  0
ENDTAB
  0
TABLE
  2
DIMSTYLE
  5
A
330
0
100
AcDbSymbolTable
 70
     1
100
AcDbDimStyleTable
  0
DIMSTYLE
105
27
330
A
100
AcDbSymbolTableRecord
100
AcDbDimStyleTableRecord
  2
Standard
 70
     0
178
     0
340
11
  0
ENDTAB
  0
TABLE
  2
BLOCK_RECORD
  5
1
330
0
100
AcDbSymbolTable
 70
     1
  0
BLOCK_RECORD
  5
1F
330
1
100
AcDbSymbolTableRecord
100
AcDbBlockTableRecord
  2
*Model_Space
340
22
  0
BLOCK_RECORD
  5
1B
330
1
100
AcDbSymbolTableRecord
100
AcDbBlockTableRecord
  2
*Paper_Space
340
1E
  0
BLOCK_RECORD
  5
23
330
1
100
AcDbSymbolTableRecord
100
AcDbBlockTableRecord
  2
*Paper_Space0
340
26
  0
ENDTAB
  0
ENDSEC
  0
SECTION
  2
BLOCKS
  0
BLOCK
  5
20
330
1F
100
AcDbEntity
  8
0
100
AcDbBlockBegin
  2
*Model_Space
 70
     0
 10
0.0
 20
0.0
 30
0.0
  3
*Model_Space
  1
*Model_Space
  0
ENDBLK
  5
21
330
1F
100
AcDbEntity
  8
0
100
AcDbBlockEnd
  0
BLOCK
  5
1C
330
1B
100
AcDbEntity
 67
     1
  8
0
100
AcDbBlockBegin
  2
*Paper_Space
 70
     0
 10
0.0
 20
0.0
 30
0.0
  3
*Paper_Space
  1
*Paper_Space
  0
ENDBLK
  5
1D
330
1B
100
AcDbEntity
 67
     1
  8
0
100
AcDbBlockEnd
  0
BLOCK
  5
24
330
23
100
AcDbEntity
  8
0
100
AcDbBlockBegin
  2
*Paper_Space0
 70
     0
 10
0.0
 20
0.0
 30
0.0
  3
*Paper_Space0
  1
*Paper_Space0
  0
ENDBLK
  5
25
330
23
100
AcDbEntity
  8
0
100
AcDbBlockEnd
  0
ENDSEC
  0
SECTION
  2
ENTITIES
  0
LINE
  5
63
330
1F
100
AcDbEntity
  8
Make2D$可见线$普通线
100
AcDbLine
 10
587.3118422299802
 20
202.3451917709011
 30
0.0
 11
578.1995911297818
 21
196.5464865253203
 31
0.0
  0
LINE
  5
64
330
1F
100
AcDbEntity
  8
Make2D$可见线$普通线
100
AcDbLine
 10
578.1995911297818
 20
196.5464865253203
 30
0.0
 11
574.3695393041419
 21
194.1091808180949
 31
0.0
  0
LINE
  5
65
330
1F
100
AcDbEntity
  8
Make2D$可见线$普通线
100
AcDbLine
 10
574.3695393041419
 20
194.1091808180949
 30
0.0
 11
570.8014660213348
 21
191.8385887290358
 31
0.0
  0
LINE
  5
66
330
1F
100
AcDbEntity
  8
Make2D$可见线$普通线
100
AcDbLine
 10
586.8093906065099
 20
204.9973878664127
 30
0.0
 11
587.0817527364226
 21
204.5693902336924
 31
0.0
  0
LINE
  5
67
330
1F
100
AcDbEntity
  8
Make2D$可见线$普通线
100
AcDbLine
 10
586.7875374317717
 20
205.0317285695726
 30
0.0
 11
586.8059399797468
 21
205.0028102798973
 31
0.0
  0
LINE
  5
68
330
1F
100
AcDbEntity
  8
Make2D$可见线$普通线
100
AcDbLine
 10
586.7663477107391
 20
205.0650267026235
 30
0.0
 11
586.7838838440036
 21
205.0374699217793
 31
0.0
  0
LINE
  5
69
330
1F
100
AcDbEntity
  8
Make2D$可见线$普通线
100
AcDbLine
 10
586.7458627396948
 20
205.0972173714075
 30
0.0
 11
586.7625173381822
 21
205.0710458594988
 31
0.0
  0
LINE
  5
6A
330
1F
100
AcDbEntity
  8
Make2D$可见线$普通线
100
AcDbLine
 10
586.7261238149209
 20
205.1282356817668
 30
0.0
 11
586.74188354025
 21
205.1034703991066
 31
0.0
  0
LINE
  5
6B
330
1F
100
AcDbEntity
  8
Make2D$可见线$普通线
100
AcDbLine
 10
586.7071722326998
 20
205.1580167395427
 30
0.0
 11
586.7220255327189
 21
205.1346758395127
 31
0.0
  0
LINE
  5
6C
330
1F
100
AcDbEntity
  8
Make2D$可见线$普通线
100
AcDbLine
 10
586.689049289314
 20
205.1864956505773
 30
0.0
 11
586.7029863841385
 21
205.1645945015673
 31
0.0
  0
LINE
  5
6D
330
1F
100
AcDbEntity
  8
Make2D$可见线$普通线
100
AcDbLine
 10
586.6717962810462
 20
205.2136075207126
 30
0.0
 11
586.6848091793577
 21
205.193158680509
 31
0.0
  0
LINE
  5
6E
330
1F
100
AcDbEntity
  8
Make2D$可见线$普通线
100
AcDbLine
 10
586.6554545041785
 20
205.2392874557905
 30
0.0
 11
586.6675369949148
 21
205.2203006846332
 31
0.0
  0
LINE
  5
6F
330
1F
100
AcDbEntity
  8
Make2D$可见线$普通线
100
AcDbLine
 10
586.6400652549935
 20
205.2634705616527
 30
0.0
 11
586.6512129087713
 21
205.2459528200017
 31
0.0
  0
LINE
  5
70
330
1F
100
AcDbEntity
  8
Make2D$可见线$普通线
100
AcDbLine
 10
586.6256698297734
 20
205.2860919441412
 30
0.0
 11
586.6358799989644
 21
205.2700473925556
 31
0.0
  0
LINE
  5
71
330
1F
100
AcDbEntity
  8
Make2D$可见线$普通线
100
AcDbLine
 10
586.612309524801
 20
205.3070867090979
 30
0.0
 11
586.6215813435313
 21
205.292516708236
 31
0.0
  0
LINE
  5
72
330
1F
100
AcDbEntity
  8
Make2D$可见线$普通线
100
AcDbLine
 10
586.6000256363584
 20
205.3263899623646
 30
0.0
 11
586.60836002051
 21
205.3132930729838
 31
0.0
  0
LINE
  5
73
330
1F
100
AcDbEntity
  8
Make2D$可见线$普通线
100
AcDbLine
 10
586.5888594607283
 20
205.3439368097835
 30
0.0
 11
586.5962591079381
 21
205.3323087927398
 31
0.0
  0
LINE
  5
74
330
1F
100
AcDbEntity
  8
Make2D$可见线$普通线
100
AcDbLine
 10
586.5788522941931
 20
205.3596623571961
 30
0.0
 11
586.5853216838545
 21
205.3494961734423
 31
0.0
  0
LINE
  5
75
330
1F
100
AcDbEntity
  8
Make2D$可见线$普通线
100
AcDbLine
 10
586.5700454330351
 20
205.3735017104444
 30
0.0
 11
586.5755908263013
 21
205.364787521026
 31
0.0
  0
LINE
  5
76
330
1F
100
AcDbEntity
  8
Make2D$可见线$普通线
100
AcDbLine
 10
586.5624801735366
 20
205.3853899753705
 30
0.0
 11
586.5671096133308
 21
205.3781151414083
 31
0.0
  0
LINE
  5
77
330
1F
100
AcDbEntity
  8
Make2D$可见线$普通线
100
AcDbLine
 10
586.5561978119804
 20
205.395262257816
 30
0.0
 11
586.5599211230415
 21
205.3894113404342
 31
0.0
  0
LINE
  5
78
330
1F
100
AcDbEntity
  8
Make2D$可见线$普通线
100
AcDbLine
 10
586.5512396446488
 20
205.4030536636229
 30
0.0
 11
586.5540684325683
 21
205.3986084254638
 31
0.0
  0
LINE
  5
79
330
1F
100
AcDbEntity
  8
Make2D$可见线$普通线
100
AcDbLine
 10
586.5476469678241
 20
205.4086992986332
 30
0.0
 11
586.5495946220096
 21
205.4056386991987
 31
0.0
  0
LINE
  5
7A
330
1F
100
AcDbEntity
  8
Make2D$可见线$普通线
100
AcDbLine
 10
586.5448772410903
 20
205.4130517263575
 30
0.0
 11
586.546191027939
 21
205.410987204167
 31
0.0
  0
ARC
  5
7B
330
1F
100
AcDbEntity
  8
Make2D$可见线$普通线
100
AcDbCircle
 10
585.700863809956
 20
204.8764621279362
 30
0.0
 40
1.000143442008937
100
AcDbArc
 50
32.46297967014932
 51
122.4629754364117
  0
ARC
  5
7C
330
1F
100
AcDbEntity
  8
Make2D$可见线$普通线
100
AcDbCircle
 10
586.7750766656164
 20
203.1884133546472
 30
0.0
 40
1.000143442067184
100
AcDbArc
 50
302.4794091486103
 51
32.47940491467676
  0
LINE
  5
7D
330
1F
100
AcDbEntity
  8
Make2D$可见线$普通线
100
AcDbLine
 10
587.6169626994113
 20
203.7283460061387
 30
0.0
 11
587.6181209805311
 21
203.7265258500933
 31
0.0
  0
LINE
  5
7E
330
1F
100
AcDbEntity
  8
Make2D$可见线$普通线
100
AcDbLine
 10
587.6139108451271
 20
203.7331417771565
 30
0.0
 11
587.6158584989422
 21
203.7300811783043
 31
0.0
  0
LINE
  5
7F
330
1F
100
AcDbEntity
  8
Make2D$可见线$普通线
100
AcDbLine
 10
587.6094370347507
 20
203.7401720506051
 30
0.0
 11
587.612265822176
 21
203.7357268132226
 31
0.0
  0
LINE
  5
80
330
1F
100
AcDbEntity
  8
Make2D$可见线$普通线
100
AcDbLine
 10
587.6035843444686
 20
203.7493691353342
 30
0.0
 11
587.607307654924
 21
203.7435182189041
 31
0.0
  0
LINE
  5
81
330
1F
100
AcDbEntity
  8
Make2D$可见线$普通线
100
AcDbLine
 10
587.5963958543784
 20
203.7606653340473
 30
0.0
 11
587.6010252934677
 21
203.7533905011927
 31
0.0
  0
LINE
  5
82
330
1F
100
AcDbEntity
  8
Make2D$可见线$普通线
100
AcDbLine
 10
587.5879146416144
 20
203.7739929541054
 30
0.0
 11
587.5934600340881
 21
203.7652787659322
 31
0.0
  0
LINE
  5
83
330
1F
100
AcDbEntity
  8
Make2D$可见线$普通线
100
AcDbLine
 10
587.5781837842737
 20
203.7892843013551
 30
0.0
 11
587.5846531730665
 21
203.7791181189663
 31
0.0
  0
LINE
  5
84
330
1F
100
AcDbEntity
  8
Make2D$可见线$普通线
100
AcDbLine
 10
587.567246360408
 20
203.8064716817152
 30
0.0
 11
587.574646006684
 21
203.7948436661388
 31
0.0
  0
LINE
  5
85
330
1F
100
AcDbEntity
  8
Make2D$可见线$普通线
100
AcDbLine
 10
587.5551454480586
 20
203.8254874011213
 30
0.0
 11
587.5634798312219
 21
203.8123905132935
 31
0.0
  0
LINE
  5
86
330
1F
100
AcDbEntity
  8
Make2D$可见线$普通线
100
AcDbLine
 10
587.5419241252634
 20
203.8462637655138
 30
0.0
 11
587.5511959429614
 21
203.8316937662743
 31
0.0
  0
LINE
  5
87
330
1F
100
AcDbEntity
  8
Make2D$可见线$普通线
100
AcDbLine
 10
587.5276254700595
 20
203.8687330808346
 30
0.0
 11
587.5378356381838
 21
203.8526885309249
 31
0.0
  0
LINE
  5
88
330
1F
100
AcDbEntity
  8
Make2D$可见线$普通线
100
AcDbLine
 10
587.5122925604833
 20
203.8928276530257
 30
0.0
 11
587.5234402131701
 21
203.8753099130892
 31
0.0
  0
LINE
  5
89
330
1F
100
AcDbEntity
  8
Make2D$可见线$普通线
100
AcDbLine
 10
587.4959684745716
 20
203.9184797880298
 30
0.0
 11
587.5080509642017
 21
203.8994930186109
 31
0.0
  0
LINE
  5
8A
330
1F
100
AcDbEntity
  8
Make2D$可见线$普通线
100
AcDbLine
 10
587.478696290361
 20
203.9456217917895
 30
0.0
 11
587.4917091875599
 21
203.9251729533339
 31
0.0
  0
LINE
  5
8B
330
1F
100
AcDbEntity
  8
Make2D$可见线$普通线
100
AcDbLine
 10
587.4605190858113
 20
203.9741859703675
 30
0.0
 11
587.4744561795258
 21
203.9522848231019
 31
0.0
  0
LINE
  5
8C
330
1F
100
AcDbEntity
  8
Make2D$可见线$普通线
100
AcDbLine
 10
587.4414799374607
 20
204.0041046320613
 30
0.0
 11
587.4563332363804
 21
203.9807637337587
 31
0.0
  0
LINE
  5
8D
330
1F
100
AcDbEntity
  8
Make2D$可见线$普通线
100
AcDbLine
 10
587.4216219301569
 20
204.03531007211
 30
0.0
 11
587.4373816544053
 21
204.0105447911482
 31
0.0
  0
LINE
  5
8E
330
1F
100
AcDbEntity
  8
Make2D$可见线$普通线
100
AcDbLine
 10
587.4009881324487
 20
204.0677346113657
 30
0.0
 11
587.4176427298814
 21
204.0415631011141
 31
0.0
  0
LINE
  5
8F
330
1F
100
AcDbEntity
  8
Make2D$可见线$普通线
100
AcDbLine
 10
587.379621626847
 20
204.1013105487398
 30
0.0
 11
587.3971577590903
 21
204.0737537695003
 31
0.0
  0
LINE
  5
90
330
1F
100
AcDbEntity
  8
Make2D$可见线$普通线
100
AcDbLine
 10
587.3575654913186
 20
204.1359701902845
 30
0.0
 11
587.3759680383129
 21
204.1070519021506
 31
0.0
  0
LINE
  5
91
330
1F
100
AcDbEntity
  8
Make2D$可见线$普通线
100
AcDbLine
 10
587.0817527364226
 20
204.5693902336924
 30
0.0
 11
587.3541148638303
 21
204.1413926049086
 31
0.0
  0
ARC
  5
92
330
1F
100
AcDbEntity
  8
Make2D$可见线$普通线
100
AcDbCircle
 10
565.5276829238836
 20
194.4090925775965
 30
0.0
 40
1.00000000635239
100
AcDbArc
 50
56.93186735839085
 51
57.68721182747313
  0
POLYLINE
  5
93
330
1F
100
AcDbEntity
  8
Make2D$可见线$普通线
100
AcDb2dPolyline
 66
     1
 10
0.0
 20
0.0
 30
0.0
  0
VERTEX
  5
94
330
93
100
AcDbEntity
  8
Make2D$可见线$普通线
100
AcDbVertex
100
AcDb2dVertex
 10
538.475901482175
 20
145.5010362342284
 30
0.0
 42
0.0017823024185492
  0
VERTEX
  5
95
330
93
100
AcDbEntity
  8
Make2D$可见线$普通线
100
AcDbVertex
100
AcDb2dVertex
 10
538.4134509440619
 20
146.15545386339
 30
0.0
 42
0.0119002210134253
  0
VERTEX
  5
96
330
93
100
AcDbEntity
  8
Make2D$可见线$普通线
100
AcDbVertex
100
AcDb2dVertex
 10
537.9612987539789
 20
149.8592459886104
 30
0.0
 42
0.0262778877603842
  0
VERTEX
  5
97
330
93
100
AcDbEntity
  8
Make2D$可见线$普通线
100
AcDbVertex
100
AcDb2dVertex
 10
537.0552524345414
 20
154.4870190828743
 30
0.0
 42
0.0029225752798467
  0
VERTEX
  5
98
330
93
100
AcDbEntity
  8
Make2D$可见线$普通线
100
AcDbVertex
100
AcDb2dVertex
 10
536.9870441189859
 20
154.7396863078938
 30
0.0
 42
0.0110668753703999
  0
VERTEX
  5
99
330
93
100
AcDbEntity
  8
Make2D$可见线$普通线
100
AcDbVertex
100
AcDb2dVertex
 10
536.7827390816905
 20
155.4248680050747
 30
0.0
 42
0.0095796138973178
  0
VERTEX
  5
9A
330
93
100
AcDbEntity
  8
Make2D$可见线$普通线
100
AcDbVertex
100
AcDb2dVertex
 10
536.6735894030797
 20
155.7423215569665
 30
0.0
  0
VERTEX
  5
9B
330
93
100
AcDbEntity
  8
Make2D$可见线$普通线
100
AcDbVertex
100
AcDb2dVertex
 10
536.6201545661883
 20
155.8804493514525
 30
0.0
  0
SEQEND
  5
9C
330
93
100
AcDbEntity
  8
Make2D$可见线$普通线
  0
LINE
  5
9D
330
1F
100
AcDbEntity
  8
Make2D$可见线$普通线
100
AcDbLine
 10
538.4759013874277
 20
145.5010362255261
 30
0.0
 11
538.476781693862
 21
145.4914470931194
 31
0.0
  0
POLYLINE
  5
9E
330
1F
100
AcDbEntity
  8
Make2D$可见线$普通线
100
AcDb2dPolyline
 66
     1
 10
0.0
 20
0.0
 30
0.0
  0
VERTEX
  5
9F
330
9E
100
AcDbEntity
  8
Make2D$可见线$普通线
100
AcDbVertex
100
AcDb2dVertex
 10
539.4214351645113
 20
125.8376217056804
 30
0.0
  0
VERTEX
  5
A0
330
9E
100
AcDbEntity
  8
Make2D$可见线$普通线
100
AcDbVertex
100
AcDb2dVertex
 10
539.2786666302839
 20
131.2161218435737
 30
0.0
  0
VERTEX
  5
A1
330
9E
100
AcDbEntity
  8
Make2D$可见线$普通线
100
AcDbVertex
100
AcDb2dVertex
 10
539.1413350075017
 20
134.839300869468
 30
0.0
 42
0.0074213789987589
  0
VERTEX
  5
A2
330
9E
100
AcDbEntity
  8
Make2D$可见线$普通线
100
AcDbVertex
100
AcDb2dVertex
 10
538.6447043399539
 20
143.3518547427109
 30
0.0
 42
-0.0001627020264181
  0
VERTEX
  5
A3
330
9E
100
AcDbEntity
  8
Make2D$可见线$普通线
100
AcDbVertex
100
AcDb2dVertex
 10
538.5328130212883
 20
144.8514781424548
 30
0.0
  0
VERTEX
  5
A4
330
9E
100
AcDbEntity
  8
Make2D$可见线$普通线
100
AcDbVertex
100
AcDb2dVertex
 10
538.5151504472287
 20
145.0627747337351
 30
0.0
  0
VERTEX
  5
A5
330
9E
100
AcDbEntity
  8
Make2D$可见线$普通线
100
AcDbVertex
100
AcDb2dVertex
 10
538.5068252951592
 20
145.1570723584023
 30
0.0
  0
VERTEX
  5
A6
330
9E
100
AcDbEntity
  8
Make2D$可见线$普通线
100
AcDbVertex
100
AcDb2dVertex
 10
538.4767818291875
 20
145.491447105233
 30
0.0
  0
SEQEND
  5
A7
330
9E
100
AcDbEntity
  8
Make2D$可见线$普通线
  0
ARC
  5
A8
330
1F
100
AcDbEntity
  8
Make2D$可见线$普通线
100
AcDbCircle
 10
548.1581503824741
 20
162.692227935795
 30
0.0
 40
13.47338737729731
100
AcDbArc
 50
190.3586394904357
 51
212.1452923853262
  0
ARC
  5
A9
330
1F
100
AcDbEntity
  8
Make2D$可见线$普通线
100
AcDbCircle
 10
-2559.38567632312
 20
62.52299641169084
 30
0.0
 40
3099.454789520958
100
AcDbArc
 50
1.025589380698945
 51
1.141144688329023
  0
LINE
  5
AA
330
1F
100
AcDbEntity
  8
Make2D$可见线$普通线
100
AcDbLine
 10
536.622774778328
 20
169.9809148273835
 30
0.0
 11
536.6187924725419
 21
169.9745004792756
 31
0.0
  0
LINE
  5
AB
330
1F
100
AcDbEntity
  8
Make2D$可见线$普通线
100
AcDbLine
 10
536.6215100787143
 20
169.9804640630709
 30
0.0
 11
536.622774778328
 21
169.9809148273835
 31
0.0
  0
LINE
  5
AC
330
1F
100
AcDbEntity
  8
Make2D$可见线$普通线
100
AcDbLine
 10
536.6187924725419
 20
169.9745004792756
 30
0.0
 11
536.6206364082256
 21
169.9763027123238
 31
0.0
  0
LINE
  5
AD
330
1F
100
AcDbEntity
  8
Make2D$可见线$普通线
100
AcDbLine
 10
536.6263704220135
 20
169.9888997881281
 30
0.0
 11
536.6215100787143
 21
169.9804640630709
 31
0.0
  0
POLYLINE
  5
AE
330
1F
100
AcDbEntity
  8
Make2D$可见线$普通线
100
AcDb2dPolyline
 66
     1
 10
0.0
 20
0.0
 30
0.0
  0
VERTEX
  5
AF
330
AE
100
AcDbEntity
  8
Make2D$可见线$普通线
100
AcDbVertex
100
AcDb2dVertex
 10
568.7543824365324
 20
145.4917205256379
 30
0.0
  0
VERTEX
  5
B0
330
AE
100
AcDbEntity
  8
Make2D$可见线$普通线
100
AcDbVertex
100
AcDb2dVertex
 10
568.7243138830306
 20
145.1570723584024
 30
0.0
  0
VERTEX
  5
B1
330
AE
100
AcDbEntity
  8
Make2D$可见线$普通线
100
AcDbVertex
100
AcDb2dVertex
 10
568.715988730961
 20
145.0627747337351
 30
0.0
  0
VERTEX
  5
B2
330
AE
100
AcDbEntity
  8
Make2D$可见线$普通线
100
AcDbVertex
100
AcDb2dVertex
 10
568.6983261569014
 20
144.8514781424548
 30
0.0
 42
-0.0001627020263455
  0
VERTEX
  5
B3
330
AE
100
AcDbEntity
  8
Make2D$可见线$普通线
100
AcDbVertex
100
AcDb2dVertex
 10
568.5864348382361
 20
143.3518547427109
 30
0.0
 42
0.0074213789987983
  0
VERTEX
  5
B4
330
AE
100
AcDbEntity
  8
Make2D$可见线$普通线
100
AcDbVertex
100
AcDb2dVertex
 10
568.0898041706881
 20
134.839300869468
 30
0.0
  0
VERTEX
  5
B5
330
AE
100
AcDbEntity
  8
Make2D$可见线$普通线
100
AcDbVertex
100
AcDb2dVertex
 10
567.9524725479059
 20
131.2161218435737
 30
0.0
  0
VERTEX
  5
B6
330
AE
100
AcDbEntity
  8
Make2D$可见线$普通线
100
AcDbVertex
100
AcDb2dVertex
 10
567.8097040127574
 20
125.8376216632665
 30
0.0
  0
SEQEND
  5
B7
330
AE
100
AcDbEntity
  8
Make2D$可见线$普通线
  0
POLYLINE
  5
B8
330
1F
100
AcDbEntity
  8
Make2D$可见线$普通线
100
AcDb2dPolyline
 66
     1
 10
0.0
 20
0.0
 30
0.0
  0
VERTEX
  5
B9
330
B8
100
AcDbEntity
  8
Make2D$可见线$普通线
100
AcDbVertex
100
AcDb2dVertex
 10
570.6109846120015
 20
155.8804493514525
 30
0.0
  0
VERTEX
  5
BA
330
B8
100
AcDbEntity
  8
Make2D$可见线$普通线
100
AcDbVertex
100
AcDb2dVertex
 10
570.4484000964993
 20
155.4248680050747
 30
0.0
 42
0.0110668719543957
  0
VERTEX
  5
BB
330
B8
100
AcDbEntity
  8
Make2D$可见线$普通线
100
AcDbVertex
100
AcDb2dVertex
 10
570.2440950592039
 20
154.7396863078938
 30
0.0
 42
0.0029225752790501
  0
VERTEX
  5
BC
330
B8
100
AcDbEntity
  8
Make2D$可见线$普通线
100
AcDbVertex
100
AcDb2dVertex
 10
570.1758867436484
 20
154.4870190828743
 30
0.0
 42
0.02627788776022
  0
VERTEX
  5
BD
330
B8
100
AcDbEntity
  8
Make2D$可见线$普通线
100
AcDbVertex
100
AcDb2dVertex
 10
569.2698404242111
 20
149.8592459886104
 30
0.0
 42
0.011900221013406
  0
VERTEX
  5
BE
330
B8
100
AcDbEntity
  8
Make2D$可见线$普通线
100
AcDbVertex
100
AcDb2dVertex
 10
568.8176882341279
 20
146.15545386339
 30
0.0
  0
VERTEX
  5
BF
330
B8
100
AcDbEntity
  8
Make2D$可见线$普通线
100
AcDbVertex
100
AcDb2dVertex
 10
568.7543825502714
 20
145.4917205152016
 30
0.0
  0
SEQEND
  5
C0
330
B8
100
AcDbEntity
  8
Make2D$可见线$普通线
  0
ARC
  5
C1
330
1F
100
AcDbEntity
  8
Make2D$可见线$普通线
100
AcDbCircle
 10
559.0729887957133
 20
162.6922279357957
 30
0.0
 40
13.4733873772999
100
AcDbArc
 50
327.8547076146753
 51
349.6413605095632
  0
ARC
  5
C2
330
1F
100
AcDbEntity
  8
Make2D$可见线$普通线
100
AcDbCircle
 10
3666.616558680137
 20
62.52300122792582
 30
0.0
 40
3099.454532654721
100
AcDbArc
 50
178.8588553671705
 51
178.9744106233503
  0
LINE
  5
C3
330
1F
100
AcDbEntity
  8
Make2D$可见线$普通线
100
AcDbLine
 10
570.6083643998618
 20
169.9809148273835
 30
0.0
 11
570.6123467056478
 21
169.9745004792756
 31
0.0
  0
LINE
  5
C4
330
1F
100
AcDbEntity
  8
Make2D$可见线$普通线
100
AcDbLine
 10
570.6096290994755
 20
169.9804640630709
 30
0.0
 11
570.6083643998618
 21
169.9809148273835
 31
0.0
  0
LINE
  5
C5
330
1F
100
AcDbEntity
  8
Make2D$可见线$普通线
100
AcDbLine
 10
570.6123467056478
 20
169.9745004792756
 30
0.0
 11
570.6105027699642
 21
169.9763027123237
 31
0.0
  0
LINE
  5
C6
330
1F
100
AcDbEntity
  8
Make2D$可见线$普通线
100
AcDbLine
 10
570.6047687561763
 20
169.9888997881281
 30
0.0
 11
570.6096290994755
 21
169.9804640630709
 31
0.0
  0
ARC
  5
C7
330
1F
100
AcDbEntity
  8
Make2D$可见线$普通线
100
AcDbCircle
 10
-89062.79851577093
 20
-1463.690782525201
 30
0.0
 40
89616.33027690469
100
AcDbArc
 50
0.9590948332069825
 51
1.011298997021108
  0
LINE
  5
C8
330
1F
100
AcDbEntity
  8
Make2D$可见线$普通线
100
AcDbLine
 10
541.4768518189535
 20
7.981705593790015
 30
0.0
 11
541.1847768714383
 21
24.32780823636126
 31
0.0
  0
ARC
  5
C9
330
1F
100
AcDbEntity
  8
Make2D$可见线$普通线
100
AcDbCircle
 10
979.959607264078
 20
15.87706825321896
 30
0.0
 40
438.5538320144094
100
AcDbArc
 50
181.0315618517859
 51
181.2438033475136
  0
ARC
  5
CA
330
1F
100
AcDbEntity
  8
Make2D$可见线$普通线
100
AcDbCircle
 10
633.1921221530243
 20
8.076469607989972
 30
0.0
 40
91.69912841765316
100
AcDbArc
 50
181.0741327599511
 51
182.6234238156168
  0
POLYLINE
  5
CB
330
1F
100
AcDbEntity
  8
Make2D$可见线$普通线
100
AcDb2dPolyline
 66
     1
 10
0.0
 20
0.0
 30
0.0
  0
VERTEX
  5
CC
330
CB
100
AcDbEntity
  8
Make2D$可见线$普通线
100
AcDbVertex
100
AcDb2dVertex
 10
543.4251035375141
 20
0.0003407094896559
 30
0.0
  0
VERTEX
  5
CD
330
CB
100
AcDbEntity
  8
Make2D$可见线$普通线
100
AcDbVertex
100
AcDb2dVertex
 10
543.3897493713577
 20
0.0014932882535902
 30
0.0
  0
VERTEX
  5
CE
330
CB
100
AcDbEntity
  8
Make2D$可见线$普通线
100
AcDbVertex
100
AcDb2dVertex
 10
543.3546066725548
 20
0.0034610910588615
 30
0.0
  0
VERTEX
  5
CF
330
CB
100
AcDbEntity
  8
Make2D$可见线$普通线
100
AcDbVertex
100
AcDb2dVertex
 10
543.3196831306468
 20
0.006238815597832
 30
0.0
  0
VERTEX
  5
D0
330
CB
100
AcDbEntity
  8
Make2D$可见线$普通线
100
AcDbVertex
100
AcDb2dVertex
 10
543.2849864351749
 20
0.0098211595628642
 30
0.0
  0
VERTEX
  5
D1
330
CB
100
AcDbEntity
  8
Make2D$可见线$普通线
100
AcDbVertex
100
AcDb2dVertex
 10
543.2505242756806
 20
0.0142028206463206
 30
0.0
  0
VERTEX
  5
D2
330
CB
100
AcDbEntity
  8
Make2D$可见线$普通线
100
AcDbVertex
100
AcDb2dVertex
 10
543.2163043417054
 20
0.0193784965405636
 30
0.0
  0
VERTEX
  5
D3
330
CB
100
AcDbEntity
  8
Make2D$可见线$普通线
100
AcDbVertex
100
AcDb2dVertex
 10
543.1823343227902
 20
0.0253428849379556
 30
0.0
  0
VERTEX
  5
D4
330
CB
100
AcDbEntity
  8
Make2D$可见线$普通线
100
AcDbVertex
100
AcDb2dVertex
 10
543.1486219084768
 20
0.0320906835308591
 30
0.0
  0
VERTEX
  5
D5
330
CB
100
AcDbEntity
  8
Make2D$可见线$普通线
100
AcDbVertex
100
AcDb2dVertex
 10
543.1151747883063
 20
0.0396165900116366
 30
0.0
  0
VERTEX
  5
D6
330
CB
100
AcDbEntity
  8
Make2D$可见线$普通线
100
AcDbVertex
100
AcDb2dVertex
 10
543.0820006518202
 20
0.0479153020726505
 30
0.0
  0
VERTEX
  5
D7
330
CB
100
AcDbEntity
  8
Make2D$可见线$普通线
100
AcDbVertex
100
AcDb2dVertex
 10
543.0491071885597
 20
0.0569815174062631
 30
0.0
  0
VERTEX
  5
D8
330
CB
100
AcDbEntity
  8
Make2D$可见线$普通线
100
AcDbVertex
100
AcDb2dVertex
 10
543.0165020880663
 20
0.0668099337048371
 30
0.0
  0
VERTEX
  5
D9
330
CB
100
AcDbEntity
  8
Make2D$可见线$普通线
100
AcDbVertex
100
AcDb2dVertex
 10
542.9841930398813
 20
0.0773952486607347
 30
0.0
  0
VERTEX
  5
DA
330
CB
100
AcDbEntity
  8
Make2D$可见线$普通线
100
AcDbVertex
100
AcDb2dVertex
 10
542.952187733546
 20
0.0887321599663185
 30
0.0
  0
VERTEX
  5
DB
330
CB
100
AcDbEntity
  8
Make2D$可见线$普通线
100
AcDbVertex
100
AcDb2dVertex
 10
542.9204938586016
 20
0.1008153653139509
 30
0.0
  0
VERTEX
  5
DC
330
CB
100
AcDbEntity
  8
Make2D$可见线$普通线
100
AcDbVertex
100
AcDb2dVertex
 10
542.8891191045898
 20
0.1136395623959943
 30
0.0
  0
VERTEX
  5
DD
330
CB
100
AcDbEntity
  8
Make2D$可见线$普通线
100
AcDbVertex
100
AcDb2dVertex
 10
542.8580711610516
 20
0.1271994489048111
 30
0.0
  0
VERTEX
  5
DE
330
CB
100
AcDbEntity
  8
Make2D$可见线$普通线
100
AcDbVertex
100
AcDb2dVertex
 10
542.8273577175287
 20
0.1414897225327639
 30
0.0
  0
VERTEX
  5
DF
330
CB
100
AcDbEntity
  8
Make2D$可见线$普通线
100
AcDbVertex
100
AcDb2dVertex
 10
542.796986463562
 20
0.156505080972215
 30
0.0
  0
VERTEX
  5
E0
330
CB
100
AcDbEntity
  8
Make2D$可见线$普通线
100
AcDbVertex
100
AcDb2dVertex
 10
542.7669650886934
 20
0.172240221915527
 30
0.0
  0
VERTEX
  5
E1
330
CB
100
AcDbEntity
  8
Make2D$可见线$普通线
100
AcDbVertex
100
AcDb2dVertex
 10
542.7373012824639
 20
0.1886898430550622
 30
0.0
  0
VERTEX
  5
E2
330
CB
100
AcDbEntity
  8
Make2D$可见线$普通线
100
AcDbVertex
100
AcDb2dVertex
 10
542.7080027344149
 20
0.205848642083183
 30
0.0
  0
VERTEX
  5
E3
330
CB
100
AcDbEntity
  8
Make2D$可见线$普通线
100
AcDbVertex
100
AcDb2dVertex
 10
542.6790771340877
 20
0.223711316692252
 30
0.0
  0
VERTEX
  5
E4
330
CB
100
AcDbEntity
  8
Make2D$可见线$普通线
100
AcDbVertex
100
AcDb2dVertex
 10
542.6505321710238
 20
0.2422725645746316
 30
0.0
  0
VERTEX
  5
E5
330
CB
100
AcDbEntity
  8
Make2D$可见线$普通线
100
AcDbVertex
100
AcDb2dVertex
 10
542.6223755347644
 20
0.2615270834226841
 30
0.0
  0
VERTEX
  5
E6
330
CB
100
AcDbEntity
  8
Make2D$可见线$普通线
100
AcDbVertex
100
AcDb2dVertex
 10
542.594614914851
 20
0.2814695709287721
 30
0.0
  0
VERTEX
  5
E7
330
CB
100
AcDbEntity
  8
Make2D$可见线$普通线
100
AcDbVertex
100
AcDb2dVertex
 10
542.567258000825
 20
0.302094724785258
 30
0.0
  0
VERTEX
  5
E8
330
CB
100
AcDbEntity
  8
Make2D$可见线$普通线
100
AcDbVertex
100
AcDb2dVertex
 10
542.5403124822274
 20
0.3233972426845043
 30
0.0
  0
VERTEX
  5
E9
330
CB
100
AcDbEntity
  8
Make2D$可见线$普通线
100
AcDbVertex
100
AcDb2dVertex
 10
542.5137860486
 20
0.3453718223188733
 30
0.0
  0
VERTEX
  5
EA
330
CB
100
AcDbEntity
  8
Make2D$可见线$普通线
100
AcDbVertex
100
AcDb2dVertex
 10
542.4876863894837
 20
0.3680131613807275
 30
0.0
  0
VERTEX
  5
EB
330
CB
100
AcDbEntity
  8
Make2D$可见线$普通线
100
AcDbVertex
100
AcDb2dVertex
 10
542.46202119442
 20
0.3913159575624294
 30
0.0
  0
VERTEX
  5
EC
330
CB
100
AcDbEntity
  8
Make2D$可见线$普通线
100
AcDbVertex
100
AcDb2dVertex
 10
542.4367981529506
 20
0.4152749085563414
 30
0.0
  0
VERTEX
  5
ED
330
CB
100
AcDbEntity
  8
Make2D$可见线$普通线
100
AcDbVertex
100
AcDb2dVertex
 10
542.4132369483675
 20
0.4386947153691874
 30
0.0
  0
VERTEX
  5
EE
330
CB
100
AcDbEntity
  8
Make2D$可见线$普通线
100
AcDbVertex
100
AcDb2dVertex
 10
542.3901384691106
 20
0.4625992148118342
 30
0.0
  0
VERTEX
  5
EF
330
CB
100
AcDbEntity
  8
Make2D$可见线$普通线
100
AcDbVertex
100
AcDb2dVertex
 10
542.367517523245
 20
0.4869745527540777
 30
0.0
  0
VERTEX
  5
F0
330
CB
100
AcDbEntity
  8
Make2D$可见线$普通线
100
AcDbVertex
100
AcDb2dVertex
 10
542.3453883598105
 20
0.5118062775481553
 30
0.0
  0
VERTEX
  5
F1
330
CB
100
AcDbEntity
  8
Make2D$可见线$普通线
100
AcDbVertex
100
AcDb2dVertex
 10
542.3237646389705
 20
0.5370793685262913
 30
0.0
  0
VERTEX
  5
F2
330
CB
100
AcDbEntity
  8
Make2D$可见线$普通线
100
AcDbVertex
100
AcDb2dVertex
 10
542.3026594039222
 20
0.562778266269453
 30
0.0
  0
VERTEX
  5
F3
330
CB
100
AcDbEntity
  8
Make2D$可见线$普通线
100
AcDbVertex
100
AcDb2dVertex
 10
542.2820850546904
 20
0.5888869045193335
 30
0.0
  0
VERTEX
  5
F4
330
CB
100
AcDbEntity
  8
Make2D$可见线$普通线
100
AcDbVertex
100
AcDb2dVertex
 10
542.2620533239088
 20
0.6153887435962162
 30
0.0
  0
VERTEX
  5
F5
330
CB
100
AcDbEntity
  8
Make2D$可见线$普通线
100
AcDbVertex
100
AcDb2dVertex
 10
542.2384104593818
 20
0.6479648341463183
 30
0.0
  0
VERTEX
  5
F6
330
CB
100
AcDbEntity
  8
Make2D$可见线$普通线
100
AcDbVertex
100
AcDb2dVertex
 10
542.2156125249613
 20
0.6808819207220416
 30
0.0
  0
VERTEX
  5
F7
330
CB
100
AcDbEntity
  8
Make2D$可见线$普通线
100
AcDbVertex
100
AcDb2dVertex
 10
542.1936368598831
 20
0.7141172457641856
 30
0.0
  0
VERTEX
  5
F8
330
CB
100
AcDbEntity
  8
Make2D$可见线$普通线
100
AcDbVertex
100
AcDb2dVertex
 10
542.1724608033833
 20
0.7476480517135501
 30
0.0
  0
VERTEX
  5
F9
330
CB
100
AcDbEntity
  8
Make2D$可见线$普通线
100
AcDbVertex
100
AcDb2dVertex
 10
542.1520616946975
 20
0.7814515810109348
 30
0.0
  0
VERTEX
  5
FA
330
CB
100
AcDbEntity
  8
Make2D$可见线$普通线
100
AcDbVertex
100
AcDb2dVertex
 10
542.1324168730616
 20
0.8155050760971396
 30
0.0
  0
VERTEX
  5
FB
330
CB
100
AcDbEntity
  8
Make2D$可见线$普通线
100
AcDbVertex
100
AcDb2dVertex
 10
542.1135036777116
 20
0.8497857794129641
 30
0.0
  0
VERTEX
  5
FC
330
CB
100
AcDbEntity
  8
Make2D$可见线$普通线
100
AcDbVertex
100
AcDb2dVertex
 10
542.0952994478835
 20
0.8842709333992079
 30
0.0
  0
VERTEX
  5
FD
330
CB
100
AcDbEntity
  8
Make2D$可见线$普通线
100
AcDbVertex
100
AcDb2dVertex
 10
542.0609272417363
 20
0.9537635631461527
 30
0.0
  0
VERTEX
  5
FE
330
CB
100
AcDbEntity
  8
Make2D$可见线$普通线
100
AcDbVertex
100
AcDb2dVertex
 10
542.0291189685072
 20
1.023800904864371
 30
0.0
  0
VERTEX
  5
FF
330
CB
100
AcDbEntity
  8
Make2D$可见线$普通线
100
AcDbVertex
100
AcDb2dVertex
 10
541.9996933420832
 20
1.094200898080262
 30
0.0
  0
VERTEX
  5
100
330
CB
100
AcDbEntity
  8
Make2D$可见线$普通线
100
AcDbVertex
100
AcDb2dVertex
 10
541.9724690763518
 20
1.164781482320222
 30
0.0
  0
VERTEX
  5
101
330
CB
100
AcDbEntity
  8
Make2D$可见线$普通线
100
AcDbVertex
100
AcDb2dVertex
 10
541.9449611102868
 20
1.242106146282607
 30
0.0
  0
VERTEX
  5
102
330
CB
100
AcDbEntity
  8
Make2D$可见线$普通线
100
AcDbVertex
100
AcDb2dVertex
 10
541.919244429037
 20
1.320684713296021
 30
0.0
  0
VERTEX
  5
103
330
CB
100
AcDbEntity
  8
Make2D$可见线$普通线
100
AcDbVertex
100
AcDb2dVertex
 10
541.895203905771
 20
1.400514788658427
 30
0.0
  0
VERTEX
  5
104
330
CB
100
AcDbEntity
  8
Make2D$可见线$普通线
100
AcDbVertex
100
AcDb2dVertex
 10
541.8727244136578
 20
1.481593977667785
 30
0.0
  0
VERTEX
  5
105
330
CB
100
AcDbEntity
  8
Make2D$可见线$普通线
100
AcDbVertex
100
AcDb2dVertex
 10
541.8516908258662
 20
1.563919885622056
 30
0.0
  0
VERTEX
  5
106
330
CB
100
AcDbEntity
  8
Make2D$可见线$普通线
100
AcDbVertex
100
AcDb2dVertex
 10
541.8319880155652
 20
1.647490117819199
 30
0.0
  0
VERTEX
  5
107
330
CB
100
AcDbEntity
  8
Make2D$可见线$普通线
100
AcDbVertex
100
AcDb2dVertex
 10
541.7961142201107
 20
1.818353976133949
 30
0.0
  0
VERTEX
  5
108
330
CB
100
AcDbEntity
  8
Make2D$可见线$普通线
100
AcDbVertex
100
AcDb2dVertex
 10
541.7594980012076
 20
2.025985077639647
 30
0.0
  0
VERTEX
  5
109
330
CB
100
AcDbEntity
  8
Make2D$可见线$普通线
100
AcDbVertex
100
AcDb2dVertex
 10
541.7275339165977
 20
2.234436593651648
 30
0.0
  0
VERTEX
  5
10A
330
CB
100
AcDbEntity
  8
Make2D$可见线$普通线
100
AcDbVertex
100
AcDb2dVertex
 10
541.7002477844729
 20
2.443551882969131
 30
0.0
  0
VERTEX
  5
10B
330
CB
100
AcDbEntity
  8
Make2D$可见线$普通线
100
AcDbVertex
100
AcDb2dVertex
 10
541.6776583813057
 20
2.653173305213556
 30
0.0
 42
-0.0127852351227535
  0
VERTEX
  5
10C
330
CB
100
AcDbEntity
  8
Make2D$可见线$普通线
100
AcDbVertex
100
AcDb2dVertex
 10
541.5891042832422
 20
3.879185356425296
 30
0.0
  0
SEQEND
  5
10D
330
CB
100
AcDbEntity
  8
Make2D$可见线$普通线
  0
LINE
  5
10E
330
1F
100
AcDbEntity
  8
Make2D$可见线$普通线
100
AcDbLine
 10
566.0463623062606
 20
24.32780820830669
 30
0.0
 11
565.7542873592234
 21
7.981705593089865
 31
0.0
  0
ARC
  5
10F
330
1F
100
AcDbEntity
  8
Make2D$可见线$普通线
100
AcDbCircle
 10
90170.0296028297
 20
-1463.6907816237
 30
0.0
 40
89616.33022477748
100
AcDbArc
 50
178.9887010029674
 51
179.0409051668128
  0
ARC
  5
110
330
1F
100
AcDbEntity
  8
Make2D$可见线$普通线
100
AcDbCircle
 10
127.271531781595
 20
15.8770682558506
 30
0.0
 40
438.5538321469521
100
AcDbArc
 50
358.7561966525184
 51
358.968438148182
  0
ARC
  5
111
330
1F
100
AcDbEntity
  8
Make2D$可见线$普通线
100
AcDbCircle
 10
474.0390170251655
 20
8.076469607989974
 30
0.0
 40
91.69912841765311
100
AcDbArc
 50
357.3765761843832
 51
358.9258672400488
  0
POLYLINE
  5
112
330
1F
100
AcDbEntity
  8
Make2D$可见线$普通线
100
AcDb2dPolyline
 66
     1
 10
0.0
 20
0.0
 30
0.0
  0
VERTEX
  5
113
330
112
100
AcDbEntity
  8
Make2D$可见线$普通线
100
AcDbVertex
100
AcDb2dVertex
 10
565.6420348949475
 20
3.879185356425296
 30
0.0
 42
-0.0127852351227488
  0
VERTEX
  5
114
330
112
100
AcDbEntity
  8
Make2D$可见线$普通线
100
AcDbVertex
100
AcDb2dVertex
 10
565.553480796884
 20
2.653173305213556
 30
0.0
  0
VERTEX
  5
115
330
112
100
AcDbEntity
  8
Make2D$可见线$普通线
100
AcDbVertex
100
AcDb2dVertex
 10
565.5308913937168
 20
2.443551882969131
 30
0.0
  0
VERTEX
  5
116
330
112
100
AcDbEntity
  8
Make2D$可见线$普通线
100
AcDbVertex
100
AcDb2dVertex
 10
565.503605261592
 20
2.234436593651648
 30
0.0
  0
VERTEX
  5
117
330
112
100
AcDbEntity
  8
Make2D$可见线$普通线
100
AcDbVertex
100
AcDb2dVertex
 10
565.4716411769821
 20
2.025985077639647
 30
0.0
  0
VERTEX
  5
118
330
112
100
AcDbEntity
  8
Make2D$可见线$普通线
100
AcDbVertex
100
AcDb2dVertex
 10
565.4350249580791
 20
1.818353976133949
 30
0.0
  0
VERTEX
  5
119
330
112
100
AcDbEntity
  8
Make2D$可见线$普通线
100
AcDbVertex
100
AcDb2dVertex
 10
565.3991511626245
 20
1.647490117819215
 30
0.0
  0
VERTEX
  5
11A
330
112
100
AcDbEntity
  8
Make2D$可见线$普通线
100
AcDbVertex
100
AcDb2dVertex
 10
565.3794483523236
 20
1.563919885622066
 30
0.0
  0
VERTEX
  5
11B
330
112
100
AcDbEntity
  8
Make2D$可见线$普通线
100
AcDbVertex
100
AcDb2dVertex
 10
565.358414764532
 20
1.481593977667785
 30
0.0
  0
VERTEX
  5
11C
330
112
100
AcDbEntity
  8
Make2D$可见线$普通线
100
AcDbVertex
100
AcDb2dVertex
 10
565.3359352724187
 20
1.400514788658417
 30
0.0
  0
VERTEX
  5
11D
330
112
100
AcDbEntity
  8
Make2D$可见线$普通线
100
AcDbVertex
100
AcDb2dVertex
 10
565.3118947491527
 20
1.320684713296005
 30
0.0
  0
VERTEX
  5
11E
330
112
100
AcDbEntity
  8
Make2D$可见线$普通线
100
AcDbVertex
100
AcDb2dVertex
 10
565.2861780679028
 20
1.242106146282593
 30
0.0
  0
VERTEX
  5
11F
330
112
100
AcDbEntity
  8
Make2D$可见线$普通线
100
AcDbVertex
100
AcDb2dVertex
 10
565.258670101838
 20
1.164781482320222
 30
0.0
  0
VERTEX
  5
120
330
112
100
AcDbEntity
  8
Make2D$可见线$普通线
100
AcDbVertex
100
AcDb2dVertex
 10
565.2314458361066
 20
1.094200898080246
 30
0.0
  0
VERTEX
  5
121
330
112
100
AcDbEntity
  8
Make2D$可见线$普通线
100
AcDbVertex
100
AcDb2dVertex
 10
565.2020202096826
 20
1.023800904864347
 30
0.0
  0
VERTEX
  5
122
330
112
100
AcDbEntity
  8
Make2D$可见线$普通线
100
AcDbVertex
100
AcDb2dVertex
 10
565.1702119364535
 20
0.9537635631461275
 30
0.0
  0
VERTEX
  5
123
330
112
100
AcDbEntity
  8
Make2D$可见线$普通线
100
AcDbVertex
100
AcDb2dVertex
 10
565.1358397303063
 20
0.8842709333991863
 30
0.0
  0
VERTEX
  5
124
330
112
100
AcDbEntity
  8
Make2D$可见线$普通线
100
AcDbVertex
100
AcDb2dVertex
 10
565.1176355004782
 20
0.8497857794129453
 30
0.0
  0
VERTEX
  5
125
330
112
100
AcDbEntity
  8
Make2D$可见线$普通线
100
AcDbVertex
100
AcDb2dVertex
 10
565.0987223051281
 20
0.815505076097124
 30
0.0
  0
VERTEX
  5
126
330
112
100
AcDbEntity
  8
Make2D$可见线$普通线
100
AcDbVertex
100
AcDb2dVertex
 10
565.0790774834923
 20
0.7814515810109225
 30
0.0
  0
VERTEX
  5
127
330
112
100
AcDbEntity
  8
Make2D$可见线$普通线
100
AcDbVertex
100
AcDb2dVertex
 10
565.0586783748065
 20
0.7476480517135409
 30
0.0
  0
VERTEX
  5
128
330
112
100
AcDbEntity
  8
Make2D$可见线$普通线
100
AcDbVertex
100
AcDb2dVertex
 10
565.0375023183067
 20
0.7141172457641791
 30
0.0
  0
VERTEX
  5
129
330
112
100
AcDbEntity
  8
Make2D$可见线$普通线
100
AcDbVertex
100
AcDb2dVertex
 10
565.0155266532284
 20
0.6808819207220372
 30
0.0
  0
VERTEX
  5
12A
330
112
100
AcDbEntity
  8
Make2D$可见线$普通线
100
AcDbVertex
100
AcDb2dVertex
 10
564.9927287188079
 20
0.6479648341463153
 30
0.0
  0
VERTEX
  5
12B
330
112
100
AcDbEntity
  8
Make2D$可见线$普通线
100
AcDbVertex
100
AcDb2dVertex
 10
564.9690858542809
 20
0.6153887435962133
 30
0.0
  0
VERTEX
  5
12C
330
112
100
AcDbEntity
  8
Make2D$可见线$普通线
100
AcDbVertex
100
AcDb2dVertex
 10
564.9490541234993
 20
0.588886904519335
 30
0.0
  0
VERTEX
  5
12D
330
112
100
AcDbEntity
  8
Make2D$可见线$普通线
100
AcDbVertex
100
AcDb2dVertex
 10
564.9284797742673
 20
0.5627782662694581
 30
0.0
  0
VERTEX
  5
12E
330
112
100
AcDbEntity
  8
Make2D$可见线$普通线
100
AcDbVertex
100
AcDb2dVertex
 10
564.9073745392194
 20
0.5370793685262988
 30
0.0
  0
VERTEX
  5
12F
330
112
100
AcDbEntity
  8
Make2D$可见线$普通线
100
AcDbVertex
100
AcDb2dVertex
 10
564.8857508183792
 20
0.5118062775481642
 30
0.0
  0
VERTEX
  5
130
330
112
100
AcDbEntity
  8
Make2D$可见线$普通线
100
AcDbVertex
100
AcDb2dVertex
 10
564.8636216549447
 20
0.4869745527540869
 30
0.0
  0
VERTEX
  5
131
330
112
100
AcDbEntity
  8
Make2D$可见线$普通线
100
AcDbVertex
100
AcDb2dVertex
 10
564.8410007090791
 20
0.4625992148118425
 30
0.0
  0
VERTEX
  5
132
330
112
100
AcDbEntity
  8
Make2D$可见线$普通线
100
AcDbVertex
100
AcDb2dVertex
 10
564.8179022298223
 20
0.4386947153691932
 30
0.0
  0
VERTEX
  5
133
330
112
100
AcDbEntity
  8
Make2D$可见线$普通线
100
AcDbVertex
100
AcDb2dVertex
 10
564.7943410252392
 20
0.4152749085563439
 30
0.0
  0
VERTEX
  5
134
330
112
100
AcDbEntity
  8
Make2D$可见线$普通线
100
AcDbVertex
100
AcDb2dVertex
 10
564.7691179837698
 20
0.3913159575624389
 30
0.0
  0
VERTEX
  5
135
330
112
100
AcDbEntity
  8
Make2D$可见线$普通线
100
AcDbVertex
100
AcDb2dVertex
 10
564.7434527887061
 20
0.3680131613807434
 30
0.0
  0
VERTEX
  5
136
330
112
100
AcDbEntity
  8
Make2D$可见线$普通线
100
AcDbVertex
100
AcDb2dVertex
 10
564.7173531295898
 20
0.3453718223188947
 30
0.0
  0
VERTEX
  5
137
330
112
100
AcDbEntity
  8
Make2D$可见线$普通线
100
AcDbVertex
100
AcDb2dVertex
 10
564.6908266959624
 20
0.3233972426845306
 30
0.0
  0
VERTEX
  5
138
330
112
100
AcDbEntity
  8
Make2D$可见线$普通线
100
AcDbVertex
100
AcDb2dVertex
 10
564.6638811773648
 20
0.3020947247852888
 30
0.0
  0
VERTEX
  5
139
330
112
100
AcDbEntity
  8
Make2D$可见线$普通线
100
AcDbVertex
100
AcDb2dVertex
 10
564.6365242633387
 20
0.2814695709288065
 30
0.0
  0
VERTEX
  5
13A
330
112
100
AcDbEntity
  8
Make2D$可见线$普通线
100
AcDbVertex
100
AcDb2dVertex
 10
564.6087636434254
 20
0.2615270834227216
 30
0.0
  0
VERTEX
  5
13B
330
112
100
AcDbEntity
  8
Make2D$可见线$普通线
100
AcDbVertex
100
AcDb2dVertex
 10
564.580607007166
 20
0.2422725645746716
 30
0.0
  0
VERTEX
  5
13C
330
112
100
AcDbEntity
  8
Make2D$可见线$普通线
100
AcDbVertex
100
AcDb2dVertex
 10
564.5520620441021
 20
0.223711316692294
 30
0.0
  0
VERTEX
  5
13D
330
112
100
AcDbEntity
  8
Make2D$可见线$普通线
100
AcDbVertex
100
AcDb2dVertex
 10
564.5231364437749
 20
0.2058486420832265
 30
0.0
  0
VERTEX
  5
13E
330
112
100
AcDbEntity
  8
Make2D$可见线$普通线
100
AcDbVertex
100
AcDb2dVertex
 10
564.4938378957258
 20
0.1886898430551066
 30
0.0
  0
VERTEX
  5
13F
330
112
100
AcDbEntity
  8
Make2D$可见线$普通线
100
AcDbVertex
100
AcDb2dVertex
 10
564.4641740894964
 20
0.172240221915572
 30
0.0
  0
VERTEX
  5
140
330
112
100
AcDbEntity
  8
Make2D$可见线$普通线
100
AcDbVertex
100
AcDb2dVertex
 10
564.4341527146278
 20
0.1565050809722602
 30
0.0
  0
VERTEX
  5
141
330
112
100
AcDbEntity
  8
Make2D$可见线$普通线
100
AcDbVertex
100
AcDb2dVertex
 10
564.4037814606611
 20
0.1414897225328088
 30
0.0
  0
VERTEX
  5
142
330
112
100
AcDbEntity
  8
Make2D$可见线$普通线
100
AcDbVertex
100
AcDb2dVertex
 10
564.3730680171382
 20
0.1271994489048553
 30
0.0
  0
VERTEX
  5
143
330
112
100
AcDbEntity
  8
Make2D$可见线$普通线
100
AcDbVertex
100
AcDb2dVertex
 10
564.3420200736001
 20
0.1136395623960374
 30
0.0
  0
VERTEX
  5
144
330
112
100
AcDbEntity
  8
Make2D$可见线$普通线
100
AcDbVertex
100
AcDb2dVertex
 10
564.3106453195883
 20
0.1008153653139927
 30
0.0
  0
VERTEX
  5
145
330
112
100
AcDbEntity
  8
Make2D$可见线$普通线
100
AcDbVertex
100
AcDb2dVertex
 10
564.278951444644
 20
0.0887321599663587
 30
0.0
  0
VERTEX
  5
146
330
112
100
AcDbEntity
  8
Make2D$可见线$普通线
100
AcDbVertex
100
AcDb2dVertex
 10
564.2469461383087
 20
0.0773952486607731
 30
0.0
  0
VERTEX
  5
147
330
112
100
AcDbEntity
  8
Make2D$可见线$普通线
100
AcDbVertex
100
AcDb2dVertex
 10
564.2146370901235
 20
0.0668099337048733
 30
0.0
  0
VERTEX
  5
148
330
112
100
AcDbEntity
  8
Make2D$可见线$普通线
100
AcDbVertex
100
AcDb2dVertex
 10
564.1820319896301
 20
0.0569815174062971
 30
0.0
  0
VERTEX
  5
149
330
112
100
AcDbEntity
  8
Make2D$可见线$普通线
100
AcDbVertex
100
AcDb2dVertex
 10
564.1491385263696
 20
0.0479153020726819
 30
0.0
  0
VERTEX
  5
14A
330
112
100
AcDbEntity
  8
Make2D$可见线$普通线
100
AcDbVertex
100
AcDb2dVertex
 10
564.1159643898835
 20
0.0396165900116654
 30
0.0
  0
VERTEX
  5
14B
330
112
100
AcDbEntity
  8
Make2D$可见线$普通线
100
AcDbVertex
100
AcDb2dVertex
 10
564.082517269713
 20
0.0320906835308852
 30
0.0
  0
VERTEX
  5
14C
330
112
100
AcDbEntity
  8
Make2D$可见线$普通线
100
AcDbVertex
100
AcDb2dVertex
 10
564.0488048553996
 20
0.0253428849379787
 30
0.0
  0
VERTEX
  5
14D
330
112
100
AcDbEntity
  8
Make2D$可见线$普通线
100
AcDbVertex
100
AcDb2dVertex
 10
564.0148348364844
 20
0.0193784965405837
 30
0.0
  0
VERTEX
  5
14E
330
112
100
AcDbEntity
  8
Make2D$可见线$普通线
100
AcDbVertex
100
AcDb2dVertex
 10
563.9806149025092
 20
0.0142028206463377
 30
0.0
  0
VERTEX
  5
14F
330
112
100
AcDbEntity
  8
Make2D$可见线$普通线
100
AcDbVertex
100
AcDb2dVertex
 10
563.9461527430149
 20
0.0098211595628783
 30
0.0
  0
VERTEX
  5
150
330
112
100
AcDbEntity
  8
Make2D$可见线$普通线
100
AcDbVertex
100
AcDb2dVertex
 10
563.911456047543
 20
0.0062388155978431
 30
0.0
  0
VERTEX
  5
151
330
112
100
AcDbEntity
  8
Make2D$可见线$普通线
100
AcDbVertex
100
AcDb2dVertex
 10
563.8765325056349
 20
0.0034610910588696
 30
0.0
  0
VERTEX
  5
152
330
112
100
AcDbEntity
  8
Make2D$可见线$普通线
100
AcDbVertex
100
AcDb2dVertex
 10
563.8413898068321
 20
0.0014932882535955
 30
0.0
  0
VERTEX
  5
153
330
112
100
AcDbEntity
  8
Make2D$可见线$普通线
100
AcDbVertex
100
AcDb2dVertex
 10
563.8060356406756
 20
0.0003407094896583
 30
0.0
  0
SEQEND
  5
154
330
112
100
AcDbEntity
  8
Make2D$可见线$普通线
  0
POLYLINE
  5
155
330
1F
100
AcDbEntity
  8
Make2D$可见线$普通线
100
AcDb2dPolyline
 66
     1
 10
0.0
 20
0.0
 30
0.0
  0
VERTEX
  5
156
330
155
100
AcDbEntity
  8
Make2D$可见线$普通线
100
AcDbVertex
100
AcDb2dVertex
 10
568.4952103222693
 20
179.0788661947639
 30
0.0
 42
-0.0503536635430193
  0
VERTEX
  5
157
330
155
100
AcDbEntity
  8
Make2D$可见线$普通线
100
AcDbVertex
100
AcDb2dVertex
 10
568.858988232585
 20
173.0726723324769
 30
0.0
 42
-0.0000969060253256
  0
VERTEX
  5
158
330
155
100
AcDbEntity
  8
Make2D$可见线$普通线
100
AcDbVertex
100
AcDb2dVertex
 10
568.3236898751559
 20
149.6269269120226
 30
0.0
 42
0.0009529227320894
  0
VERTEX
  5
159
330
155
100
AcDbEntity
  8
Make2D$可见线$普通线
100
AcDbVertex
100
AcDb2dVertex
 10
567.2904360840057
 20
101.6088327819107
 30
0.0
  0
SEQEND
  5
15A
330
155
100
AcDbEntity
  8
Make2D$可见线$普通线
  0
POLYLINE
  5
15B
330
1F
100
AcDbEntity
  8
Make2D$可见线$普通线
100
AcDb2dPolyline
 66
     1
 10
0.0
 20
0.0
 30
0.0
  0
VERTEX
  5
15C
330
15B
100
AcDbEntity
  8
Make2D$可见线$普通线
100
AcDbVertex
100
AcDb2dVertex
 10
539.9407104472211
 20
101.6087888874258
 30
0.0
 42
0.0009529508031116
  0
VERTEX
  5
15D
330
15B
100
AcDbEntity
  8
Make2D$可见线$普通线
100
AcDbVertex
100
AcDb2dVertex
 10
538.9074511906891
 20
149.6269803587198
 30
0.0
 42
-0.0000969378887595
  0
VERTEX
  5
15E
330
15B
100
AcDbEntity
  8
Make2D$可见线$普通线
100
AcDbVertex
100
AcDb2dVertex
 10
538.3721487026487
 20
173.0727813073361
 30
0.0
 42
-0.0503526709863997
  0
VERTEX
  5
15F
330
15B
100
AcDbEntity
  8
Make2D$可见线$普通线
100
AcDbVertex
100
AcDb2dVertex
 10
538.7358913748334
 20
179.0787163821719
 30
0.0
  0
SEQEND
  5
160
330
15B
100
AcDbEntity
  8
Make2D$可见线$普通线
  0
LINE
  5
161
330
1F
100
AcDbEntity
  8
Make2D$可见线$普通线
100
AcDbLine
 10
560.5061932518569
 20
6.798582961999156
 30
0.0
 11
546.7249529451458
 21
6.798583620444589
 31
0.0
  0
LINE
  5
162
330
1F
100
AcDbEntity
  8
Make2D$可见线$普通线
100
AcDbLine
 10
566.7706354117356
 20
73.97534707243206
 30
0.0
 11
565.5922178346543
 21
11.64450937060749
 31
0.0
  0
ARC
  5
163
330
1F
100
AcDbEntity
  8
Make2D$可见线$普通线
100
AcDbCircle
 10
546.5317391282099
 20
11.75626733825894
 30
0.0
 40
4.894105734214349
100
AcDbArc
 50
181.3608667916809
 51
236.2576216686643
  0
ARC
  5
164
330
1F
100
AcDbEntity
  8
Make2D$可见线$普通线
100
AcDbCircle
 10
546.7186731389346
 20
11.99550690496825
 30
0.0
 40
5.196927078577322
100
AcDbArc
 50
236.0089441926858
 51
270.069234467635
  0
ARC
  5
165
330
1F
100
AcDbEntity
  8
Make2D$可见线$普通线
100
AcDbCircle
 10
560.6994067030716
 20
11.75626687860972
 30
0.0
 40
4.89410670123057
100
AcDbArc
 50
303.7420187841884
 51
358.6391233883845
  0
ARC
  5
166
330
1F
100
AcDbEntity
  8
Make2D$可见线$普通线
100
AcDbCircle
 10
560.510720517287
 20
12.00125524980421
 30
0.0
 40
5.20267425789149
100
AcDbArc
 50
269.9501423264737
 51
303.9713221628269
  0
SPLINE
  5
167
330
1F
100
AcDbEntity
  8
Make2D$可见线$普通线
100
AcDbSpline
210
0.0
220
0.0
230
1.0
 70
    12
 71
     2
 72
    36
 73
    33
 74
     0
 42
0.000000001
 43
0.0000000001
 12
1.0
 22
0.0
 32
0.0
 13
1.0
 23
0.0
 33
0.0
 40
0.0
 40
0.0
 40
0.0
 40
1.677304106452424
 40
1.677304106452424
 40
4.692509634307328
 40
4.692509634307328
 40
7.734981256116818
 40
7.734981256116818
 40
10.80043127074103
 40
10.80043127074103
 40
13.88382957943426
 40
13.88382957943426
 40
16.9785188147124
 40
16.9785188147124
 40
18.52855960124075
 40
18.52855960124075
 40
20.07951957865397
 40
20.07951957865397
 40
21.6303231207069
 40
21.6303231207069
 40
23.1802796829729
 40
23.1802796829729
 40
26.2751117537672
 40
26.2751117537672
 40
29.35856814654352
 40
29.35856814654352
 40
32.42422964309728
 40
32.42422964309728
 40
35.46642562041167
 40
35.46642562041167
 40
38.4818517154547
 40
38.4818517154547
 40
40.15915670732333
 40
40.15915670732333
 40
40.15915670732333
 10
538.9358174673913
 20
180.0894322052733
 30
0.0
 41
1.0
 10
539.128142918156
 20
180.9066950649706
 30
0.0
 41
0.998329055270198
 10
539.4134771037156
 20
181.6963102012259
 30
0.0
 41
1.0
 10
539.9282238360972
 20
183.1190114652147
 30
0.0
 41
0.994698694306263
 10
540.7231326627895
 20
184.4063199139945
 30
0.0
 41
1.0
 10
541.5254015184452
 20
185.7051053477236
 30
0.0
 41
0.9947467586322158
 10
542.5753638067413
 20
186.8132831821787
 30
0.0
 41
1.0
 10
543.6333499116774
 20
187.9296710344595
 30
0.0
 41
0.9947963580372244
 10
544.8956705997351
 20
188.8084218042797
 30
0.0
 41
1.0
 10
546.165446589018
 20
189.6921400131699
 30
0.0
 41
0.9948432304363293
 10
547.5874354405512
 20
190.3014319315454
 30
0.0
 41
1.0
 10
549.0146439737397
 20
190.9128339933294
 30
0.0
 41
0.9948778642080772
 10
550.535659140785
 20
191.2246825783468
 30
0.0
 41
1.0
 10
551.2955272199251
 20
191.3805167322251
 30
0.0
 41
0.9987195742330648
 10
552.0672526642505
 20
191.4587702931151
 30
0.0
 41
1.0
 10
552.8394317025158
 20
191.537089261563
 30
0.0
 41
0.9987236448182752
 10
553.6155723648278
 20
191.5371054004964
 30
0.0
 41
1.0
 10
554.39163479975
 20
191.5370952106716
 30
0.0
 41
0.9987235351585554
 10
555.1637362699239
 20
191.4587867005592
 30
0.0
 41
1.0
 10
555.9354201091551
 20
191.3805427014804
 30
0.0
 41
0.998719978382398
 10
556.6952502521302
 20
191.224734405974
 30
0.0
 41
1.0
 10
558.2163385759729
 20
190.9128871792133
 30
0.0
 41
0.9948781229057831
 10
559.6436221736345
 20
190.3014790392486
 30
0.0
 41
1.0
 10
561.0656328639051
 20
189.6921673328224
 30
0.0
 41
0.9948444588244749
 10
562.3354476568336
 20
188.8084560957707
 30
0.0
 41
1.0
 10
563.597844221354
 20
187.92962972681
 30
0.0
 41
0.9947969819434919
 10
564.6559029774572
 20
186.8131654230695
 30
0.0
 41
1.0
 10
565.7057479697771
 20
185.7050689559051
 30
0.0
 41
0.9947481567934133
 10
566.5079540366427
 20
184.4064089870426
 30
0.0
 41
1.0
 10
567.3029389626093
 20
183.1190152888905
 30
0.0
 41
0.9946968802574441
 10
567.8176925502081
 20
181.696196849802
 30
0.0
 41
1.0
 10
568.1030363731822
 20
180.9065842411592
 30
0.0
 41
0.9983282441508233
 10
568.2953487477505
 20
180.0893173816664
 30
0.0
 41
1.0
  0
LINE
  5
168
330
1F
100
AcDbEntity
  8
Make2D$可见线$普通线
100
AcDbLine
 10
541.6389289447718
 20
11.64451056192966
 30
0.0
 11
540.4605148764863
 21
73.97510311123264
 31
0.0
  0
LINE
  5
169
330
1F
100
AcDbEntity
  8
Make2D$可见线$普通线
100
AcDbLine
 10
548.2597765846186
 20
171.6980746253302
 30
0.0
 11
548.3236760774853
 21
171.7808161102566
 31
0.0
  0
LINE
  5
16A
330
1F
100
AcDbEntity
  8
Make2D$可见线$普通线
100
AcDbLine
 10
548.3236760774853
 20
171.7808161102566
 30
0.0
 11
548.3457558918046
 21
171.8676458096499
 31
0.0
  0
ARC
  5
16B
330
1F
100
AcDbEntity
  8
Make2D$可见线$普通线
100
AcDbCircle
 10
641.1157872423186
 20
258.4109924260767
 30
0.0
 40
126.8701287157317
100
AcDbArc
 50
222.9900265050877
 51
223.0111943450102
  0
LINE
  5
16C
330
1F
100
AcDbEntity
  8
Make2D$可见线$普通线
100
AcDbLine
 10
548.3137889139432
 20
171.9019254642458
 30
0.0
 11
548.2335023326799
 21
171.8429464050241
 31
0.0
  0
LINE
  5
16D
330
1F
100
AcDbEntity
  8
Make2D$可见线$普通线
100
AcDbLine
 10
548.2335023326799
 20
171.8429464050241
 30
0.0
 11
548.1470975287709
 21
171.7376376601632
 31
0.0
  0
LINE
  5
16E
330
1F
100
AcDbEntity
  8
Make2D$可见线$普通线
100
AcDbLine
 10
548.1470975287709
 20
171.7376376601632
 30
0.0
 11
548.1297125806979
 21
171.6720004710788
 31
0.0
  0
ARC
  5
16F
330
1F
100
AcDbEntity
  8
Make2D$可见线$普通线
100
AcDbCircle
 10
764.9497763706701
 20
219.734065867777
 30
0.0
 40
222.0830974929972
100
AcDbArc
 50
192.4985427653296
 51
192.5027707723979
  0
ARC
  5
170
330
1F
100
AcDbEntity
  8
Make2D$可见线$普通线
100
AcDbCircle
 10
665.4566840957771
 20
415.8749387460941
 30
0.0
 40
270.9385087124093
100
AcDbArc
 50
244.3402471238795
 51
244.3484560833002
  0
ARC
  5
171
330
1F
100
AcDbEntity
  8
Make2D$可见线$普通线
100
AcDbCircle
 10
404.6388024717502
 20
570.0555494134982
 30
0.0
 40
423.4811623064382
100
AcDbArc
 50
289.8115503638657
 51
289.8167609214319
  0
LINE
  5
172
330
1F
100
AcDbEntity
  8
Make2D$可见线$普通线
100
AcDbLine
 10
548.2044830139703
 20
171.6522484747873
 30
0.0
 11
548.2597765846186
 21
171.6980746253302
 31
0.0
  0
LINE
  5
173
330
1F
100
AcDbEntity
  8
Make2D$可见线$普通线
100
AcDbLine
 10
550.2599436483678
 20
172.0332873373985
 30
0.0
 11
550.2326302112092
 21
172.0804200777937
 31
0.0
  0
ARC
  5
174
330
1F
100
AcDbEntity
  8
Make2D$可见线$普通线
100
AcDbCircle
 10
812.0220298697242
 20
1592.8715683558
 30
0.0
 40
1444.707990148426
100
AcDbArc
 50
259.5577744146465
 51
259.5600006014545
  0
LINE
  5
175
330
1F
100
AcDbEntity
  8
Make2D$可见线$普通线
100
AcDbLine
 10
550.1774265781447
 20
172.0905927913829
 30
0.0
 11
550.0687428657709
 21
172.0168768752264
 31
0.0
  0
LINE
  5
176
330
1F
100
AcDbEntity
  8
Make2D$可见线$普通线
100
AcDbLine
 10
550.0687428657709
 20
172.0168768752264
 30
0.0
 11
550.0091221916488
 21
171.9617083629214
 31
0.0
  0
LINE
  5
177
330
1F
100
AcDbEntity
  8
Make2D$可见线$普通线
100
AcDbLine
 10
550.0091221916488
 20
171.9617083629214
 30
0.0
 11
549.8737358083317
 21
171.8125794195092
 31
0.0
  0
ARC
  5
178
330
1F
100
AcDbEntity
  8
Make2D$可见线$普通线
100
AcDbCircle
 10
352.7899749727802
 20
220.7276757459726
 30
0.0
 40
203.0632793828369
100
AcDbArc
 50
346.0497201415282
 51
346.0611627050694
  0
ARC
  5
179
330
1F
100
AcDbEntity
  8
Make2D$可见线$普通线
100
AcDbCircle
 10
651.3006068889962
 20
236.5581860115804
 30
0.0
 40
120.3598124241889
100
AcDbArc
 50
212.5653202209551
 51
212.583952132286
  0
ARC
  5
17A
330
1F
100
AcDbEntity
  8
Make2D$可见线$普通线
100
AcDbCircle
 10
811.8390355480408
 20
1616.577256605494
 30
0.0
 40
1468.39160579135
100
AcDbArc
 50
259.7237018869619
 51
259.7252013550396
  0
ARC
  5
17B
330
1F
100
AcDbEntity
  8
Make2D$可见线$普通线
100
AcDbCircle
 10
363.3711736845621
 20
879.6102898447479
 30
0.0
 40
732.0459290864371
100
AcDbArc
 50
284.7638690617628
 51
284.768938397534
  0
LINE
  5
17C
330
1F
100
AcDbEntity
  8
Make2D$可见线$普通线
100
AcDbLine
 10
549.9854779259339
 20
171.7498913589069
 30
0.0
 11
550.0729003599014
 21
171.8079318595808
 31
0.0
  0
LINE
  5
17D
330
1F
100
AcDbEntity
  8
Make2D$可见线$普通线
100
AcDbLine
 10
550.0729003599014
 20
171.8079318595808
 30
0.0
 11
550.162491352849
 21
171.8577583051369
 31
0.0
  0
LINE
  5
17E
330
1F
100
AcDbEntity
  8
Make2D$可见线$普通线
100
AcDbLine
 10
550.162491352849
 20
171.8577583051369
 30
0.0
 11
550.2537567210259
 21
171.9863176655214
 31
0.0
  0
ARC
  5
17F
330
1F
100
AcDbEntity
  8
Make2D$可见线$普通线
100
AcDbCircle
 10
190.9434545630796
 20
219.3391915059146
 30
0.0
 40
362.4171462524625
100
AcDbArc
 50
352.4923549364694
 51
352.4998446766033
  0
LINE
  5
180
330
1F
100
AcDbEntity
  8
Make2D$可见线$普通线
100
AcDbLine
 10
551.0922073762899
 20
171.7322076663037
 30
0.0
 11
551.2551894523787
 21
171.8517819141705
 31
0.0
  0
LINE
  5
181
330
1F
100
AcDbEntity
  8
Make2D$可见线$普通线
100
AcDbLine
 10
551.2551894523787
 20
171.8517819141705
 30
0.0
 11
551.3292188072227
 21
171.9838059714343
 31
0.0
  0
LINE
  5
182
330
1F
100
AcDbEntity
  8
Make2D$可见线$普通线
100
AcDbLine
 10
551.3292188072227
 20
171.9838059714343
 30
0.0
 11
551.3436980988212
 21
172.1335506696992
 31
0.0
  0
LINE
  5
183
330
1F
100
AcDbEntity
  8
Make2D$可见线$普通线
100
AcDbLine
 10
551.3436980988212
 20
172.1335506696992
 30
0.0
 11
551.3325468110276
 21
172.2268516008131
 31
0.0
  0
LINE
  5
184
330
1F
100
AcDbEntity
  8
Make2D$可见线$普通线
100
AcDbLine
 10
551.3325468110276
 20
172.2268516008131
 30
0.0
 11
551.2604768591683
 21
172.3042500665341
 31
0.0
  0
ARC
  5
185
330
1F
100
AcDbEntity
  8
Make2D$可见线$普通线
100
AcDbCircle
 10
1021.626528604657
 20
4828.65358178825
 30
0.0
 40
4680.04629482016
100
AcDbArc
 50
264.230265634154
 51
264.2317732685666
  0
ARC
  5
186
330
1F
100
AcDbEntity
  8
Make2D$可见线$普通线
100
AcDbCircle
 10
451.7595213186494
 20
311.1047778351955
 30
0.0
 40
170.6992185254769
100
AcDbArc
 50
305.5751875165902
 51
305.6043330326068
  0
LINE
  5
187
330
1F
100
AcDbEntity
  8
Make2D$可见线$普通线
100
AcDbLine
 10
551.0673413089644
 20
172.2660941264405
 30
0.0
 11
551.0284649848654
 21
172.2219928657665
 31
0.0
  0
LINE
  5
188
330
1F
100
AcDbEntity
  8
Make2D$可见线$普通线
100
AcDbLine
 10
551.0284649848654
 20
172.2219928657665
 30
0.0
 11
550.9478936223942
 21
172.0566117510479
 31
0.0
  0
LINE
  5
189
330
1F
100
AcDbEntity
  8
Make2D$可见线$普通线
100
AcDbLine
 10
550.9478936223942
 20
172.0566117510479
 30
0.0
 11
550.8763173645568
 21
171.8985480553569
 31
0.0
  0
LINE
  5
18A
330
1F
100
AcDbEntity
  8
Make2D$可见线$普通线
100
AcDbLine
 10
550.8763173645568
 20
171.8985480553569
 30
0.0
 11
550.8786677083423
 21
171.784780874372
 31
0.0
  0
LINE
  5
18B
330
1F
100
AcDbEntity
  8
Make2D$可见线$普通线
100
AcDbLine
 10
550.8786677083423
 20
171.784780874372
 30
0.0
 11
550.8956262879561
 21
171.7261003031738
 31
0.0
  0
ARC
  5
18C
330
1F
100
AcDbEntity
  8
Make2D$可见线$普通线
100
AcDbCircle
 10
647.9038674473575
 20
307.0253520337297
 30
0.0
 40
166.4826909071597
100
AcDbArc
 50
234.3598466438661
 51
234.3741455603258
  0
ARC
  5
18D
330
1F
100
AcDbEntity
  8
Make2D$可见线$普通线
100
AcDbCircle
 10
749.8415785182328
 20
985.1087333389478
 30
0.0
 40
837.3749110605413
100
AcDbArc
 50
256.2584542341877
 51
256.263063263363
  0
ARC
  5
18E
330
1F
100
AcDbEntity
  8
Make2D$可见线$普通线
100
AcDbCircle
 10
432.6597615905191
 20
420.6355859525913
 30
0.0
 40
275.6431314891164
100
AcDbArc
 50
295.4234829971685
 51
295.4458968718591
  0
ARC
  5
18F
330
1F
100
AcDbEntity
  8
Make2D$可见线$普通线
100
AcDbCircle
 10
439.4005445851077
 20
380.5511228673615
 30
0.0
 40
235.5223537706835
100
AcDbArc
 50
296.9870389167656
 51
296.9897962379596
  0
ARC
  5
190
330
1F
100
AcDbEntity
  8
Make2D$可见线$普通线
100
AcDbCircle
 10
1101.178699184481
 20
214.2475702194261
 30
0.0
 40
556.5983464845018
100
AcDbArc
 50
184.4857809720043
 51
184.4893890331492
  0
ARC
  5
191
330
1F
100
AcDbEntity
  8
Make2D$可见线$普通线
100
AcDbCircle
 10
676.6093380487977
 20
512.9530122264268
 30
0.0
 40
366.2118944174752
100
AcDbArc
 50
249.1495813176846
 51
249.1531971113155
  0
LINE
  5
192
330
1F
100
AcDbEntity
  8
Make2D$可见线$普通线
100
AcDbLine
 10
546.2637416271672
 20
170.723298282232
 30
0.0
 11
546.2199535442682
 21
170.7240632251167
 31
0.0
  0
ARC
  5
193
330
1F
100
AcDbEntity
  8
Make2D$可见线$普通线
100
AcDbCircle
 10
459.5288562580666
 20
256.2206229451405
 30
0.0
 40
121.7579897692355
100
AcDbArc
 50
315.3858758084742
 51
315.3974783340893
  0
LINE
  5
194
330
1F
100
AcDbEntity
  8
Make2D$可见线$普通线
100
AcDbLine
 10
546.2026385191858
 20
170.7065098339274
 30
0.0
 11
546.1159888910476
 21
170.6705991318761
 31
0.0
  0
LINE
  5
195
330
1F
100
AcDbEntity
  8
Make2D$可见线$普通线
100
AcDbLine
 10
546.1159888910476
 20
170.6705991318761
 30
0.0
 11
545.9966466862297
 21
170.5759688036868
 31
0.0
  0
LINE
  5
196
330
1F
100
AcDbEntity
  8
Make2D$可见线$普通线
100
AcDbLine
 10
545.9966466862297
 20
170.5759688036868
 30
0.0
 11
545.7862246719744
 21
170.4299772958755
 31
0.0
  0
LINE
  5
197
330
1F
100
AcDbEntity
  8
Make2D$可见线$普通线
100
AcDbLine
 10
545.7862246719744
 20
170.4299772958755
 30
0.0
 11
545.5769005889134
 21
170.2398860796312
 31
0.0
  0
ARC
  5
198
330
1F
100
AcDbEntity
  8
Make2D$可见线$普通线
100
AcDbCircle
 10
502.7662330826898
 20
210.480254315245
 30
0.0
 40
58.7540678427139
100
AcDbArc
 50
316.3271259209091
 51
316.77264868732
  0
LINE
  5
199
330
1F
100
AcDbEntity
  8
Make2D$可见线$普通线
100
AcDbLine
 10
545.262706872095
 20
169.9082171032362
 30
0.0
 11
545.1981700762412
 21
169.8234889590855
 31
0.0
  0
LINE
  5
19A
330
1F
100
AcDbEntity
  8
Make2D$可见线$普通线
100
AcDbLine
 10
545.1981700762412
 20
169.8234889590855
 30
0.0
 11
545.1361048817497
 21
169.7593062812894
 31
0.0
  0
LINE
  5
19B
330
1F
100
AcDbEntity
  8
Make2D$可见线$普通线
100
AcDbLine
 10
545.1361048817497
 20
169.7593062812894
 30
0.0
 11
544.9838851993444
 21
169.5045344740904
 31
0.0
  0
LINE
  5
19C
330
1F
100
AcDbEntity
  8
Make2D$可见线$普通线
100
AcDbLine
 10
544.9838851993444
 20
169.5045344740904
 30
0.0
 11
544.9380491653292
 21
169.4081702236735
 31
0.0
  0
LINE
  5
19D
330
1F
100
AcDbEntity
  8
Make2D$可见线$普通线
100
AcDbLine
 10
544.9380491653292
 20
169.4081702236735
 30
0.0
 11
544.8933335459536
 21
169.3463975349884
 31
0.0
  0
LINE
  5
19E
330
1F
100
AcDbEntity
  8
Make2D$可见线$普通线
100
AcDbLine
 10
544.8933335459536
 20
169.3463975349884
 30
0.0
 11
544.8923672963288
 21
169.2441096207364
 31
0.0
  0
LINE
  5
19F
330
1F
100
AcDbEntity
  8
Make2D$可见线$普通线
100
AcDbLine
 10
544.8923672963288
 20
169.2441096207364
 30
0.0
 11
544.843383382674
 21
169.1624649669118
 31
0.0
  0
LINE
  5
1A0
330
1F
100
AcDbEntity
  8
Make2D$可见线$普通线
100
AcDbLine
 10
544.843383382674
 20
169.1624649669118
 30
0.0
 11
544.8285341466245
 21
169.0990793486867
 31
0.0
  0
ARC
  5
1A1
330
1F
100
AcDbEntity
  8
Make2D$可见线$普通线
100
AcDbCircle
 10
689.955433236859
 20
209.2292678669623
 30
0.0
 40
150.5730682096219
100
AcDbArc
 50
195.4570756166096
 51
195.4665708304076
  0
ARC
  5
1A2
330
1F
100
AcDbEntity
  8
Make2D$可见线$普通线
100
AcDbCircle
 10
706.3074405373252
 20
830.0852778905207
 30
0.0
 40
680.4467927964165
100
AcDbArc
 50
256.2725679241985
 51
256.2762546685802
  0
ARC
  5
1A3
330
1F
100
AcDbEntity
  8
Make2D$可见线$普通线
100
AcDbCircle
 10
131.2762543647719
 20
4730.485457560244
 30
0.0
 40
4580.133845643125
100
AcDbArc
 50
275.1810592821793
 51
275.1817401292605
  0
LINE
  5
1A4
330
1F
100
AcDbEntity
  8
Make2D$可见线$普通线
100
AcDbLine
 10
544.9319236510636
 20
169.0695555323451
 30
0.0
 11
544.9922351498112
 21
169.1185456829342
 31
0.0
  0
LINE
  5
1A5
330
1F
100
AcDbEntity
  8
Make2D$可见线$普通线
100
AcDbLine
 10
544.9922351498112
 20
169.1185456829342
 30
0.0
 11
545.0870247263682
 21
169.2328246327481
 31
0.0
  0
LINE
  5
1A6
330
1F
100
AcDbEntity
  8
Make2D$可见线$普通线
100
AcDbLine
 10
545.0870247263682
 20
169.2328246327481
 30
0.0
 11
545.4427747184654
 21
169.6022695819494
 31
0.0
  0
LINE
  5
1A7
330
1F
100
AcDbEntity
  8
Make2D$可见线$普通线
100
AcDbLine
 10
545.4427747184654
 20
169.6022695819494
 30
0.0
 11
545.5043020062673
 21
169.6907669437583
 31
0.0
  0
LINE
  5
1A8
330
1F
100
AcDbEntity
  8
Make2D$可见线$普通线
100
AcDbLine
 10
545.5043020062673
 20
169.6907669437583
 30
0.0
 11
545.548718623716
 21
169.7201420816981
 31
0.0
  0
LINE
  5
1A9
330
1F
100
AcDbEntity
  8
Make2D$可见线$普通线
100
AcDbLine
 10
545.548718623716
 20
169.7201420816981
 30
0.0
 11
545.6107065227644
 21
169.8266107837438
 31
0.0
  0
LINE
  5
1AA
330
1F
100
AcDbEntity
  8
Make2D$可见线$普通线
100
AcDbLine
 10
545.6107065227644
 20
169.8266107837438
 30
0.0
 11
545.7188356320733
 21
169.9283641592935
 31
0.0
  0
LINE
  5
1AB
330
1F
100
AcDbEntity
  8
Make2D$可见线$普通线
100
AcDbLine
 10
545.7188356320733
 20
169.9283641592935
 30
0.0
 11
545.7668723076225
 21
170.0084324856768
 31
0.0
  0
LINE
  5
1AC
330
1F
100
AcDbEntity
  8
Make2D$可见线$普通线
100
AcDbLine
 10
545.7668723076225
 20
170.0084324856768
 30
0.0
 11
545.9032090203443
 21
170.1394670839805
 31
0.0
  0
ARC
  5
1AD
330
1F
100
AcDbEntity
  8
Make2D$可见线$普通线
100
AcDbCircle
 10
555.2287736704037
 20
163.4164101804816
 30
0.0
 40
11.49633203113594
100
AcDbArc
 50
143.1997160414828
 51
144.2111259459874
  0
LINE
  5
1AE
330
1F
100
AcDbEntity
  8
Make2D$可见线$普通线
100
AcDbLine
 10
546.0233340922813
 20
170.3030299858476
 30
0.0
 11
546.0734757487478
 21
170.3852186199746
 31
0.0
  0
ARC
  5
1AF
330
1F
100
AcDbEntity
  8
Make2D$可见线$普通线
100
AcDbCircle
 10
532.452283349309
 20
181.6494794430726
 30
0.0
 40
17.67541949355964
100
AcDbArc
 50
320.4104140351066
 51
321.3200413099548
  0
ARC
  5
1B0
330
1F
100
AcDbEntity
  8
Make2D$可见线$普通线
100
AcDbCircle
 10
805.2146084573993
 20
214.9201040597384
 30
0.0
 40
262.7287249746079
100
AcDbArc
 50
189.7039430865434
 51
189.711112139
  0
LINE
  5
1B1
330
1F
100
AcDbEntity
  8
Make2D$可见线$普通线
100
AcDbLine
 10
546.245039881879
 20
170.6352818449877
 30
0.0
 11
546.2779815767643
 21
170.6749865684067
 31
0.0
  0
ARC
  5
1B2
330
1F
100
AcDbEntity
  8
Make2D$可见线$普通线
100
AcDbCircle
 10
391.8833357223524
 20
228.711012493302
 30
0.0
 40
166.0024420353925
100
AcDbArc
 50
341.0187822794611
 51
341.0357009118796
  0
ARC
  5
1B3
330
1F
100
AcDbEntity
  8
Make2D$可见线$普通线
100
AcDbCircle
 10
1796.831095085292
 20
223.1178832046376
 30
0.0
 40
1248.892152810641
100
AcDbArc
 50
182.2103611676693
 51
182.2189125121969
  0
ARC
  5
1B4
330
1F
100
AcDbEntity
  8
Make2D$可见线$普通线
100
AcDbCircle
 10
645.1405734877823
 20
275.3805594008766
 30
0.0
 40
139.1210931968144
100
AcDbArc
 50
226.186323593962
 51
226.2110184257492
  0
ARC
  5
1B5
330
1F
100
AcDbEntity
  8
Make2D$可见线$普通线
100
AcDbCircle
 10
1435.25859329756
 20
16468.58373362404
 30
0.0
 40
16317.68713378659
100
AcDbArc
 50
266.8857234253061
 51
266.8859604497117
  0
LINE
  5
1B6
330
1F
100
AcDbEntity
  8
Make2D$可见线$普通线
100
AcDbLine
 10
548.6046113731167
 20
174.9176919601749
 30
0.0
 11
548.7574887992982
 21
174.9951421605979
 31
0.0
  0
LINE
  5
1B7
330
1F
100
AcDbEntity
  8
Make2D$可见线$普通线
100
AcDbLine
 10
548.5208159167187
 20
174.8558139880475
 30
0.0
 11
548.6046113731167
 21
174.9176919601749
 31
0.0
  0
LINE
  5
1B8
330
1F
100
AcDbEntity
  8
Make2D$可见线$普通线
100
AcDbLine
 10
548.4300453210928
 20
174.797201855781
 30
0.0
 11
548.5208159167187
 21
174.8558139880475
 31
0.0
  0
LINE
  5
1B9
330
1F
100
AcDbEntity
  8
Make2D$可见线$普通线
100
AcDbLine
 10
548.3141721749341
 20
174.7104130404721
 30
0.0
 11
548.4300453210928
 21
174.797201855781
 31
0.0
  0
LINE
  5
1BA
330
1F
100
AcDbEntity
  8
Make2D$可见线$普通线
100
AcDbLine
 10
547.3206697678718
 20
173.8239370833991
 30
0.0
 11
548.3141721749341
 21
174.7104130404721
 31
0.0
  0
ARC
  5
1BB
330
1F
100
AcDbEntity
  8
Make2D$可见线$普通线
100
AcDbCircle
 10
566.8806656058002
 20
152.9098339139821
 30
0.0
 40
28.63552249498503
100
AcDbArc
 50
133.0838188063765
 51
135.6082604040226
  0
LINE
  5
1BC
330
1F
100
AcDbEntity
  8
Make2D$可见线$普通线
100
AcDbLine
 10
546.2662730054726
 20
172.8046676548079
 30
0.0
 11
546.4184788253257
 21
172.9421093893685
 31
0.0
  0
ARC
  5
1BD
330
1F
100
AcDbEntity
  8
Make2D$可见线$普通线
100
AcDbCircle
 10
445.1494933423216
 20
315.2965789510379
 30
0.0
 40
174.7242052902198
100
AcDbArc
 50
305.3185203971128
 51
305.3607203741821
  0
LINE
  5
1BE
330
1F
100
AcDbEntity
  8
Make2D$可见线$普通线
100
AcDbLine
 10
546.0743689859212
 20
172.6438115707228
 30
0.0
 11
546.1612962283591
 21
172.7302309161275
 31
0.0
  0
LINE
  5
1BF
330
1F
100
AcDbEntity
  8
Make2D$可见线$普通线
100
AcDbLine
 10
545.93228938362
 20
172.535422591686
 30
0.0
 11
546.0743689859212
 21
172.6438115707228
 31
0.0
  0
LINE
  5
1C0
330
1F
100
AcDbEntity
  8
Make2D$可见线$普通线
100
AcDbLine
 10
545.7312855209685
 20
172.339506279921
 30
0.0
 11
545.93228938362
 21
172.535422591686
 31
0.0
  0
LINE
  5
1C1
330
1F
100
AcDbEntity
  8
Make2D$可见线$普通线
100
AcDbLine
 10
545.2063025572568
 20
171.7632263102208
 30
0.0
 11
545.7312855209685
 21
172.339506279921
 31
0.0
  0
LINE
  5
1C2
330
1F
100
AcDbEntity
  8
Make2D$可见线$普通线
100
AcDbLine
 10
545.1671881164823
 20
171.6518068370806
 30
0.0
 11
545.2063025572568
 21
171.7632263102208
 31
0.0
  0
LINE
  5
1C3
330
1F
100
AcDbEntity
  8
Make2D$可见线$普通线
100
AcDbLine
 10
545.1550800644674
 20
171.5262639602328
 30
0.0
 11
545.1671881164823
 21
171.6518068370806
 31
0.0
  0
LINE
  5
1C4
330
1F
100
AcDbEntity
  8
Make2D$可见线$普通线
100
AcDbLine
 10
545.0565558975946
 20
171.4519298004587
 30
0.0
 11
545.1550800644674
 21
171.5262639602328
 31
0.0
  0
ARC
  5
1C5
330
1F
100
AcDbEntity
  8
Make2D$可见线$普通线
100
AcDbCircle
 10
-362.0936963574475
 20
18279.28185356942
 30
0.0
 40
18130.53849526563
100
AcDbArc
 50
272.8676849612682
 51
272.8679562787765
  0
ARC
  5
1C6
330
1F
100
AcDbEntity
  8
Make2D$可见线$普通线
100
AcDbCircle
 10
653.6384444388603
 20
373.4090628193939
 30
0.0
 40
229.3405191860836
100
AcDbArc
 50
241.6966688537605
 51
241.7170231386638
  0
LINE
  5
1C7
330
1F
100
AcDbEntity
  8
Make2D$可见线$普通线
100
AcDbLine
 10
544.8707412112014
 20
171.5453174574086
 30
0.0
 11
544.8990685670202
 21
171.4862511423943
 31
0.0
  0
ARC
  5
1C8
330
1F
100
AcDbEntity
  8
Make2D$可见线$普通线
100
AcDbCircle
 10
1077.530799984169
 20
217.5226787403127
 30
0.0
 40
534.6406793001822
100
AcDbArc
 50
184.9276718944232
 51
184.9333443742597
  0
LINE
  5
1C9
330
1F
100
AcDbEntity
  8
Make2D$可见线$普通线
100
AcDbLine
 10
545.0788247884178
 20
171.8936914983564
 30
0.0
 11
544.8661919043071
 21
171.5980528660926
 31
0.0
  0
LINE
  5
1CA
330
1F
100
AcDbEntity
  8
Make2D$可见线$普通线
100
AcDbLine
 10
545.2001288089809
 20
171.994946307149
 30
0.0
 11
545.0788247884178
 21
171.8936914983564
 31
0.0
  0
LINE
  5
1CB
330
1F
100
AcDbEntity
  8
Make2D$可见线$普通线
100
AcDbLine
 10
545.2361278533282
 20
172.0598306627386
 30
0.0
 11
545.2001288089809
 21
171.994946307149
 31
0.0
  0
LINE
  5
1CC
330
1F
100
AcDbEntity
  8
Make2D$可见线$普通线
100
AcDbLine
 10
545.3174141430433
 20
172.1247848479224
 30
0.0
 11
545.2361278533282
 21
172.0598306627386
 31
0.0
  0
LINE
  5
1CD
330
1F
100
AcDbEntity
  8
Make2D$可见线$普通线
100
AcDbLine
 10
545.407943410811
 20
172.2234752563087
 30
0.0
 11
545.3174141430433
 21
172.1247848479224
 31
0.0
  0
LINE
  5
1CE
330
1F
100
AcDbEntity
  8
Make2D$可见线$普通线
100
AcDbLine
 10
545.560556838524
 20
172.336597685552
 30
0.0
 11
545.407943410811
 21
172.2234752563087
 31
0.0
  0
LINE
  5
1CF
330
1F
100
AcDbEntity
  8
Make2D$可见线$普通线
100
AcDbLine
 10
545.6706214985226
 20
172.4431756346836
 30
0.0
 11
545.560556838524
 21
172.336597685552
 31
0.0
  0
LINE
  5
1D0
330
1F
100
AcDbEntity
  8
Make2D$可见线$普通线
100
AcDbLine
 10
546.0001490329282
 20
172.731425293348
 30
0.0
 11
545.6706214985226
 21
172.4431756346836
 31
0.0
  0
LINE
  5
1D1
330
1F
100
AcDbEntity
  8
Make2D$可见线$普通线
100
AcDbLine
 10
546.1614570161693
 20
172.8405772475919
 30
0.0
 11
546.0001490329282
 21
172.731425293348
 31
0.0
  0
LINE
  5
1D2
330
1F
100
AcDbEntity
  8
Make2D$可见线$普通线
100
AcDbLine
 10
546.5746748499478
 20
173.2534896104215
 30
0.0
 11
546.1614570161693
 21
172.8405772475919
 31
0.0
  0
LINE
  5
1D3
330
1F
100
AcDbEntity
  8
Make2D$可见线$普通线
100
AcDbLine
 10
546.7273139324373
 20
173.379314439823
 30
0.0
 11
546.5746748499478
 21
173.2534896104215
 31
0.0
  0
ARC
  5
1D4
330
1F
100
AcDbEntity
  8
Make2D$可见线$普通线
100
AcDbCircle
 10
436.992070332911
 20
357.6863305765225
 30
0.0
 40
214.5015148782427
100
AcDbArc
 50
300.7693038274284
 51
300.7836308314198
  0
LINE
  5
1D5
330
1F
100
AcDbEntity
  8
Make2D$可见线$普通线
100
AcDbLine
 10
546.9050972302346
 20
173.5693321359336
 30
0.0
 11
546.773397095746
 21
173.4067598714315
 31
0.0
  0
LINE
  5
1D6
330
1F
100
AcDbEntity
  8
Make2D$可见线$普通线
100
AcDbLine
 10
547.0908602613958
 20
173.6964933104513
 30
0.0
 11
546.9050972302346
 21
173.5693321359336
 31
0.0
  0
ARC
  5
1D7
330
1F
100
AcDbEntity
  8
Make2D$可见线$普通线
100
AcDbCircle
 10
442.3209610810542
 20
243.7583409515506
 30
0.0
 40
126.0372733327072
100
AcDbArc
 50
326.2285158929257
 51
326.2651635112903
  0
LINE
  5
1D8
330
1F
100
AcDbEntity
  8
Make2D$可见线$普通线
100
AcDbLine
 10
547.2943689083659
 20
173.8929194614
 30
0.0
 11
547.1356518981613
 21
173.7635207284955
 31
0.0
  0
LINE
  5
1D9
330
1F
100
AcDbEntity
  8
Make2D$可见线$普通线
100
AcDbLine
 10
547.410275586073
 20
173.9986348098629
 30
0.0
 11
547.2943689083659
 21
173.8929194614
 31
0.0
  0
ARC
  5
1DA
330
1F
100
AcDbEntity
  8
Make2D$可见线$普通线
100
AcDbCircle
 10
445.7133301967879
 20
248.3955640213567
 30
0.0
 40
126.0046498253586
100
AcDbArc
 50
323.8124696059659
 51
323.8526918348455
  0
LINE
  5
1DB
330
1F
100
AcDbEntity
  8
Make2D$可见线$普通线
100
AcDbLine
 10
547.5909660736194
 20
174.160691392134
 30
0.0
 11
547.4624779352781
 21
174.0700454419203
 31
0.0
  0
LINE
  5
1DC
330
1F
100
AcDbEntity
  8
Make2D$可见线$普通线
100
AcDbLine
 10
547.6891480391341
 20
174.2743710758183
 30
0.0
 11
547.5909660736194
 21
174.160691392134
 31
0.0
  0
LINE
  5
1DD
330
1F
100
AcDbEntity
  8
Make2D$可见线$普通线
100
AcDbLine
 10
547.7950250361724
 20
174.3594595571533
 30
0.0
 11
547.6891480391341
 21
174.2743710758183
 31
0.0
  0
LINE
  5
1DE
330
1F
100
AcDbEntity
  8
Make2D$可见线$普通线
100
AcDbLine
 10
547.8642129696534
 20
174.4464419218061
 30
0.0
 11
547.7950250361724
 21
174.3594595571533
 31
0.0
  0
LINE
  5
1DF
330
1F
100
AcDbEntity
  8
Make2D$可见线$普通线
100
AcDbLine
 10
548.2783409606442
 20
174.7878086753321
 30
0.0
 11
547.8642129696534
 21
174.4464419218061
 31
0.0
  0
LINE
  5
1E0
330
1F
100
AcDbEntity
  8
Make2D$可见线$普通线
100
AcDbLine
 10
548.379473201517
 20
174.8507556718955
 30
0.0
 11
548.2783409606442
 21
174.7878086753321
 31
0.0
  0
ARC
  5
1E1
330
1F
100
AcDbEntity
  8
Make2D$可见线$普通线
100
AcDbCircle
 10
556.2692237697282
 20
166.9496281127833
 30
0.0
 40
11.16583990275477
100
AcDbArc
 50
133.9011965271596
 51
134.9587196200148
  0
LINE
  5
1E2
330
1F
100
AcDbEntity
  8
Make2D$可见线$普通线
100
AcDbLine
 10
548.6492283571749
 20
175.0750068234234
 30
0.0
 11
548.5266419504926
 21
174.995024778355
 31
0.0
  0
ARC
  5
1E3
330
1F
100
AcDbEntity
  8
Make2D$可见线$普通线
100
AcDbCircle
 10
376.8642071646055
 20
737.4738414297129
 30
0.0
 40
588.0497790771153
100
AcDbArc
 50
286.9853193708436
 51
286.9910884742217
  0
ARC
  5
1E4
330
1F
100
AcDbEntity
  8
Make2D$可见线$普通线
100
AcDbCircle
 10
435.2370288539705
 20
380.9329785751221
 30
0.0
 40
235.0437337804417
100
AcDbArc
 50
298.8655709165158
 51
298.8789634270101
  0
ARC
  5
1E5
330
1F
100
AcDbEntity
  8
Make2D$可见线$普通线
100
AcDbCircle
 10
248.1560368802715
 20
2009.910265047743
 30
0.0
 40
1859.252190327494
100
AcDbArc
 50
279.3042366250266
 51
279.3064559742309
  0
ARC
  5
1E6
330
1F
100
AcDbEntity
  8
Make2D$可见线$普通线
100
AcDbCircle
 10
1454.521747675864
 20
17225.69888827006
 30
0.0
 40
17074.60598610146
100
AcDbArc
 50
266.9594048467039
 51
266.9597321793919
  0
LINE
  5
1E7
330
1F
100
AcDbEntity
  8
Make2D$可见线$普通线
100
AcDbLine
 10
548.9928398878005
 20
175.0839443976695
 30
0.0
 11
548.9224469466482
 21
175.1253059201015
 31
0.0
  0
ARC
  5
1E8
330
1F
100
AcDbEntity
  8
Make2D$可见线$普通线
100
AcDbCircle
 10
666.5485724854773
 20
236.0103581517673
 30
0.0
 40
132.4061107332739
100
AcDbArc
 50
207.3966613552747
 51
207.4293575464328
  0
ARC
  5
1E9
330
1F
100
AcDbEntity
  8
Make2D$可见线$普通线
100
AcDbCircle
 10
3171.465134672559
 20
223.0859405887874
 30
0.0
 40
2622.878021721671
100
AcDbArc
 50
181.0501094679159
 51
181.0532023958778
  0
ARC
  5
1EA
330
1F
100
AcDbEntity
  8
Make2D$可见线$普通线
100
AcDbCircle
 10
402.0665970278449
 20
229.7791360290821
 30
0.0
 40
156.8844754707442
100
AcDbArc
 50
339.4865025199309
 51
339.5149215633995
  0
ARC
  5
1EB
330
1F
100
AcDbEntity
  8
Make2D$可见线$普通线
100
AcDbCircle
 10
-123.4177261037112
 20
223.2609257795851
 30
0.0
 40
674.1645394433899
100
AcDbArc
 50
355.8692603370577
 51
355.8780621162419
  0
LINE
  5
1EC
330
1F
100
AcDbEntity
  8
Make2D$可见线$普通线
100
AcDbLine
 10
548.9312169923751
 20
174.4950558829937
 30
0.0
 11
548.9955229060608
 21
174.6991218690999
 31
0.0
  0
ARC
  5
1ED
330
1F
100
AcDbEntity
  8
Make2D$可见线$普通线
100
AcDbCircle
 10
428.7554338524338
 20
235.2425056129071
 30
0.0
 40
134.6568657810903
100
AcDbArc
 50
333.1619359866849
 51
333.1839373274881
  0
LINE
  5
1EE
330
1F
100
AcDbEntity
  8
Make2D$可见线$普通线
100
AcDbLine
 10
548.869543253397
 20
174.3371506566215
 30
0.0
 11
548.9078813650237
 21
174.4489133624004
 31
0.0
  0
LINE
  5
1EF
330
1F
100
AcDbEntity
  8
Make2D$可见线$普通线
100
AcDbLine
 10
548.5196551486349
 20
173.7177539633307
 30
0.0
 11
548.869543253397
 21
174.3371506566215
 31
0.0
  0
LINE
  5
1F0
330
1F
100
AcDbEntity
  8
Make2D$可见线$普通线
100
AcDbLine
 10
548.462699963295
 20
173.6012183356451
 30
0.0
 11
548.5196551486349
 21
173.7177539633307
 31
0.0
  0
ARC
  5
1F1
330
1F
100
AcDbEntity
  8
Make2D$可见线$普通线
100
AcDbCircle
 10
451.7133886729923
 20
272.2928300748665
 30
0.0
 40
138.2044263503637
100
AcDbArc
 50
314.3872711290889
 51
314.4306107796459
  0
LINE
  5
1F2
330
1F
100
AcDbEntity
  8
Make2D$可见线$普通线
100
AcDbLine
 10
548.301278173887
 20
173.3914620469119
 30
0.0
 11
548.3880200224942
 21
173.528063501604
 31
0.0
  0
ARC
  5
1F3
330
1F
100
AcDbEntity
  8
Make2D$可见线$普通线
100
AcDbCircle
 10
450.4210255184367
 20
289.2240798274127
 30
0.0
 40
151.6500550668491
100
AcDbArc
 50
310.1749976447671
 51
310.1982977981221
  0
ARC
  5
1F4
330
1F
100
AcDbEntity
  8
Make2D$可见线$普通线
100
AcDbCircle
 10
279.9351156170212
 20
223.1940365924506
 30
0.0
 40
272.9090949206702
100
AcDbArc
 50
349.4641655002217
 51
349.4768029481736
  0
LINE
  5
1F5
330
1F
100
AcDbEntity
  8
Make2D$可见线$普通线
100
AcDbLine
 10
548.0757489304921
 20
173.0167646895283
 30
0.0
 11
548.2431650679406
 21
173.2924866138947
 31
0.0
  0
LINE
  5
1F6
330
1F
100
AcDbEntity
  8
Make2D$可见线$普通线
100
AcDbLine
 10
547.9531186524456
 20
172.8425996118403
 30
0.0
 11
548.0757489304921
 21
173.0167646895283
 31
0.0
  0
LINE
  5
1F7
330
1F
100
AcDbEntity
  8
Make2D$可见线$普通线
100
AcDbLine
 10
547.9117583984795
 20
172.7749984665835
 30
0.0
 11
547.9531186524456
 21
172.8425996118403
 31
0.0
  0
LINE
  5
1F8
330
1F
100
AcDbEntity
  8
Make2D$可见线$普通线
100
AcDbLine
 10
547.8460899520329
 20
172.6549032668333
 30
0.0
 11
547.9117583984795
 21
172.7749984665835
 31
0.0
  0
LINE
  5
1F9
330
1F
100
AcDbEntity
  8
Make2D$可见线$普通线
100
AcDbLine
 10
547.7945257531763
 20
172.5990966483732
 30
0.0
 11
547.8460899520329
 21
172.6549032668333
 31
0.0
  0
LINE
  5
1FA
330
1F
100
AcDbEntity
  8
Make2D$可见线$普通线
100
AcDbLine
 10
547.7174630778455
 20
172.5006561649324
 30
0.0
 11
547.7945257531763
 21
172.5990966483732
 31
0.0
  0
LINE
  5
1FB
330
1F
100
AcDbEntity
  8
Make2D$可见线$普通线
100
AcDbLine
 10
547.6906144550525
 20
172.4148541858522
 30
0.0
 11
547.7174630778455
 21
172.5006561649324
 31
0.0
  0
LINE
  5
1FC
330
1F
100
AcDbEntity
  8
Make2D$可见线$普通线
100
AcDbLine
 10
547.5968193974345
 20
172.2827916598858
 30
0.0
 11
547.6906144550525
 21
172.4148541858522
 31
0.0
  0
LINE
  5
1FD
330
1F
100
AcDbEntity
  8
Make2D$可见线$普通线
100
AcDbLine
 10
547.5246190590058
 20
172.1531066174859
 30
0.0
 11
547.5968193974345
 21
172.2827916598858
 31
0.0
  0
LINE
  5
1FE
330
1F
100
AcDbEntity
  8
Make2D$可见线$普通线
100
AcDbLine
 10
547.4210152097437
 20
172.0422849884287
 30
0.0
 11
547.5246190590058
 21
172.1531066174859
 31
0.0
  0
LINE
  5
1FF
330
1F
100
AcDbEntity
  8
Make2D$可见线$普通线
100
AcDbLine
 10
547.3725837620908
 20
171.9483701481381
 30
0.0
 11
547.4210152097437
 21
172.0422849884287
 31
0.0
  0
LINE
  5
200
330
1F
100
AcDbEntity
  8
Make2D$可见线$普通线
100
AcDbLine
 10
547.272831099702
 20
171.8145140053411
 30
0.0
 11
547.3725837620908
 21
171.9483701481381
 31
0.0
  0
ARC
  5
201
330
1F
100
AcDbEntity
  8
Make2D$可见线$普通线
100
AcDbCircle
 10
528.691381104005
 20
183.5885900293893
 30
0.0
 40
21.99770783883295
100
AcDbArc
 50
326.4526081703274
 51
327.6397403637023
  0
LINE
  5
202
330
1F
100
AcDbEntity
  8
Make2D$可见线$普通线
100
AcDbLine
 10
546.9984116008468
 20
171.36024214657
 30
0.0
 11
547.0249088777763
 21
171.4320728665251
 31
0.0
  0
ARC
  5
203
330
1F
100
AcDbEntity
  8
Make2D$可见线$普通线
100
AcDbCircle
 10
788.9787708246538
 20
218.077454617307
 30
0.0
 40
246.4487617966839
100
AcDbArc
 50
190.9271986258355
 51
190.9373098380487
  0
ARC
  5
204
330
1F
100
AcDbEntity
  8
Make2D$可见线$普通线
100
AcDbCircle
 10
693.5414123364948
 20
598.2047379539268
 30
0.0
 40
451.3370290570352
100
AcDbArc
 50
251.0545295838212
 51
251.0606818054185
  0
ARC
  5
205
330
1F
100
AcDbEntity
  8
Make2D$可见线$普通线
100
AcDbCircle
 10
286.6443903294469
 20
1632.88203094785
 30
0.0
 40
1484.59729610972
100
AcDbArc
 50
280.1023183748233
 51
280.1053668806343
  0
LINE
  5
206
330
1F
100
AcDbEntity
  8
Make2D$可见线$普通线
100
AcDbLine
 10
547.2487847736655
 20
171.3696264982834
 30
0.0
 11
547.1302633937903
 21
171.3156651778245
 31
0.0
  0
ARC
  5
207
330
1F
100
AcDbEntity
  8
Make2D$可见线$普通线
100
AcDbCircle
 10
554.2023642276472
 20
135.1003505090354
 30
0.0
 40
36.92983411832603
100
AcDbArc
 50
100.2542664978885
 51
100.8531036915005
  0
ARC
  5
208
330
1F
100
AcDbEntity
  8
Make2D$可见线$普通线
100
AcDbCircle
 10
409.4899450702734
 20
540.8665980011059
 30
0.0
 40
394.4083680097408
100
AcDbArc
 50
290.5021039558418
 51
290.5156777810683
  0
ARC
  5
209
330
1F
100
AcDbEntity
  8
Make2D$可见线$普通线
100
AcDbCircle
 10
-42.51821631490895
 20
7802.104877349163
 30
0.0
 40
7653.425253293524
100
AcDbArc
 50
274.423055850144
 51
274.4233712284249
  0
LINE
  5
20A
330
1F
100
AcDbEntity
  8
Make2D$可见线$普通线
100
AcDbLine
 10
547.8483773251949
 20
171.521130853824
 30
0.0
 11
547.7577506589763
 21
171.4763062179431
 31
0.0
  0
LINE
  5
20B
330
1F
100
AcDbEntity
  8
Make2D$可见线$普通线
100
AcDbLine
 10
547.8905932989104
 20
171.6164470267732
 30
0.0
 11
547.8483773251949
 21
171.521130853824
 31
0.0
  0
LINE
  5
20C
330
1F
100
AcDbEntity
  8
Make2D$可见线$普通线
100
AcDbLine
 10
548.11312095951
 20
171.8533918995043
 30
0.0
 11
547.8905932989104
 21
171.6164470267732
 31
0.0
  0
LINE
  5
20D
330
1F
100
AcDbEntity
  8
Make2D$可见线$普通线
100
AcDbLine
 10
548.2351244825159
 20
172.0048849378477
 30
0.0
 11
548.11312095951
 21
171.8533918995043
 31
0.0
  0
LINE
  5
20E
330
1F
100
AcDbEntity
  8
Make2D$可见线$普通线
100
AcDbLine
 10
548.4271597691754
 20
172.1417224516653
 30
0.0
 11
548.2351244825159
 21
172.0048849378477
 31
0.0
  0
ARC
  5
20F
330
1F
100
AcDbEntity
  8
Make2D$可见线$普通线
100
AcDbCircle
 10
399.7456135122172
 20
592.2310473056945
 30
0.0
 40
445.6245539169426
100
AcDbArc
 50
289.4903178983208
 51
289.5105706427165
  0
LINE
  5
210
330
1F
100
AcDbEntity
  8
Make2D$可见线$普通线
100
AcDbLine
 10
548.6359869002063
 20
172.194162073233
 30
0.0
 11
548.575642422139
 21
172.1943042124909
 31
0.0
  0
LINE
  5
211
330
1F
100
AcDbEntity
  8
Make2D$可见线$普通线
100
AcDbLine
 10
548.6941287337809
 20
172.121917850659
 30
0.0
 11
548.6359869002063
 21
172.194162073233
 31
0.0
  0
LINE
  5
212
330
1F
100
AcDbEntity
  8
Make2D$可见线$普通线
100
AcDbLine
 10
548.7165355948712
 20
172.0547702635769
 30
0.0
 11
548.6941287337809
 21
172.121917850659
 31
0.0
  0
LINE
  5
213
330
1F
100
AcDbEntity
  8
Make2D$可见线$普通线
100
AcDbLine
 10
548.6913876680258
 20
171.9815520586427
 30
0.0
 11
548.7165355948712
 21
172.0547702635769
 31
0.0
  0
LINE
  5
214
330
1F
100
AcDbEntity
  8
Make2D$可见线$普通线
100
AcDbLine
 10
548.5777560754071
 20
171.8706829538061
 30
0.0
 11
548.6913876680258
 21
171.9815520586427
 31
0.0
  0
LINE
  5
215
330
1F
100
AcDbEntity
  8
Make2D$可见线$普通线
100
AcDbLine
 10
548.5424748769664
 20
171.8296140900426
 30
0.0
 11
548.5777560754071
 21
171.8706829538061
 31
0.0
  0
ARC
  5
216
330
1F
100
AcDbEntity
  8
Make2D$可见线$普通线
100
AcDbCircle
 10
678.0964141990571
 20
226.0171041793471
 30
0.0
 40
140.4297236202167
100
AcDbArc
 50
202.6977052218312
 51
202.714477711468
  0
ARC
  5
217
330
1F
100
AcDbEntity
  8
Make2D$可见线$普通线
100
AcDbCircle
 10
709.0748350953561
 20
680.1631781244728
 30
0.0
 40
533.1107884171973
100
AcDbArc
 50
252.47667320902
 51
252.4823304355603
  0
LINE
  5
218
330
1F
100
AcDbEntity
  8
Make2D$可见线$普通线
100
AcDbLine
 10
548.9028586910289
 20
171.9283531043502
 30
0.0
 11
548.6085389863351
 21
171.7758449425201
 31
0.0
  0
LINE
  5
219
330
1F
100
AcDbEntity
  8
Make2D$可见线$普通线
100
AcDbLine
 10
549.1267811200181
 20
172.0634918034064
 30
0.0
 11
548.9028586910289
 21
171.9283531043502
 31
0.0
  0
LINE
  5
21A
330
1F
100
AcDbEntity
  8
Make2D$可见线$普通线
100
AcDbLine
 10
549.2872984571851
 20
172.1934410872647
 30
0.0
 11
549.1267811200181
 21
172.0634918034064
 31
0.0
  0
LINE
  5
21B
330
1F
100
AcDbEntity
  8
Make2D$可见线$普通线
100
AcDbLine
 10
549.4321651923806
 20
172.293628672801
 30
0.0
 11
549.2872984571851
 21
172.1934410872647
 31
0.0
  0
ARC
  5
21C
330
1F
100
AcDbEntity
  8
Make2D$可见线$普通线
100
AcDbCircle
 10
394.5408676519151
 20
630.1668633646235
 30
0.0
 40
483.3624034830613
100
AcDbArc
 50
288.6898677772552
 51
288.7131764928592
  0
ARC
  5
21D
330
1F
100
AcDbEntity
  8
Make2D$可见线$普通线
100
AcDbCircle
 10
-19.27204386531378
 20
6993.48704611722
 30
0.0
 40
6844.812331532724
100
AcDbArc
 50
274.7675033871312
 51
274.7683488603887
  0
ARC
  5
21E
330
1F
100
AcDbEntity
  8
Make2D$可见线$普通线
100
AcDbCircle
 10
662.9126376687436
 20
383.564863302242
 30
0.0
 40
239.6208117335834
100
AcDbArc
 50
241.8106990842208
 51
241.8289676756151
  0
LINE
  5
21F
330
1F
100
AcDbEntity
  8
Make2D$可见线$普通线
100
AcDbLine
 10
549.8135552745713
 20
172.2673108442853
 30
0.0
 11
549.7864222519113
 21
172.328993239116
 31
0.0
  0
LINE
  5
220
330
1F
100
AcDbEntity
  8
Make2D$可见线$普通线
100
AcDbLine
 10
549.796067065334
 20
172.2029506419578
 30
0.0
 11
549.8135552745713
 21
172.2673108442853
 31
0.0
  0
LINE
  5
221
330
1F
100
AcDbEntity
  8
Make2D$可见线$普通线
100
AcDbLine
 10
549.7157315689789
 20
172.1129000998965
 30
0.0
 11
549.796067065334
 21
172.2029506419578
 31
0.0
  0
ARC
  5
222
330
1F
100
AcDbEntity
  8
Make2D$可见线$普通线
100
AcDbCircle
 10
445.9704742510772
 20
337.4944793216172
 30
0.0
 40
195.2284435266233
100
AcDbArc
 50
302.0846034007405
 51
302.100394859654
  0
ARC
  5
223
330
1F
100
AcDbEntity
  8
Make2D$可见线$普通线
100
AcDbCircle
 10
771.2783248007524
 20
1175.671179100374
 30
0.0
 40
1027.762999376782
100
AcDbArc
 50
257.5441142575543
 51
257.5479864798361
  0
ARC
  5
224
330
1F
100
AcDbEntity
  8
Make2D$可见线$普通线
100
AcDbCircle
 10
654.0965495694611
 20
236.648707129632
 30
0.0
 40
122.8237383603303
100
AcDbArc
 50
211.6859202202331
 51
211.7049470171563
  0
LINE
  5
225
330
1F
100
AcDbEntity
  8
Make2D$可见线$普通线
100
AcDbLine
 10
549.5660574248947
 20
172.1836295407064
 30
0.0
 11
549.5808915666706
 21
172.1339961169443
 31
0.0
  0
ARC
  5
226
330
1F
100
AcDbEntity
  8
Make2D$可见线$普通线
100
AcDbCircle
 10
697.4076519982314
 20
586.0459948063425
 30
0.0
 40
439.4760453872926
100
AcDbArc
 50
250.3375941520391
 51
250.342049756039
  0
ARC
  5
227
330
1F
100
AcDbEntity
  8
Make2D$可见线$普通线
100
AcDbCircle
 10
384.1024419411922
 20
704.905336031512
 30
0.0
 40
557.8061713064092
100
AcDbArc
 50
287.2450120944139
 51
287.25201249512
  0
LINE
  5
228
330
1F
100
AcDbEntity
  8
Make2D$可见线$普通线
100
AcDbLine
 10
549.3090622108174
 20
172.0457056480126
 30
0.0
 11
549.4687860918285
 21
172.174919244777
 31
0.0
  0
LINE
  5
229
330
1F
100
AcDbEntity
  8
Make2D$可见线$普通线
100
AcDbLine
 10
549.1164336139345
 20
171.814944879047
 30
0.0
 11
549.3090622108174
 21
172.0457056480126
 31
0.0
  0
LINE
  5
22A
330
1F
100
AcDbEntity
  8
Make2D$可见线$普通线
100
AcDbLine
 10
549.1023685719732
 20
171.7485617201955
 30
0.0
 11
549.1164336139345
 21
171.814944879047
 31
0.0
  0
LINE
  5
22B
330
1F
100
AcDbEntity
  8
Make2D$可见线$普通线
100
AcDbLine
 10
549.1217177671017
 20
171.6916872367514
 30
0.0
 11
549.1023685719732
 21
171.7485617201955
 31
0.0
  0
ARC
  5
22C
330
1F
100
AcDbEntity
  8
Make2D$可见线$普通线
100
AcDbCircle
 10
641.8524400943243
 20
279.2869920568269
 30
0.0
 40
142.0413196314841
100
AcDbArc
 50
229.2436816817959
 51
229.2612388819105
  0
ARC
  5
22D
330
1F
100
AcDbEntity
  8
Make2D$可见线$普通线
100
AcDbCircle
 10
1430.029389333208
 20
17061.85977031049
 30
0.0
 40
16913.15103176118
100
AcDbArc
 50
267.0145570433808
 51
267.0149715217432
  0
ARC
  5
22E
330
1F
100
AcDbEntity
  8
Make2D$可见线$普通线
100
AcDbCircle
 10
280.4479528677177
 20
1702.235432560528
 30
0.0
 40
1554.007599569921
100
AcDbArc
 50
279.9617527141344
 51
279.9639472645983
  0
LINE
  5
22F
330
1F
100
AcDbEntity
  8
Make2D$可见线$普通线
100
AcDbLine
 10
549.6611169787981
 20
171.8395284025957
 30
0.0
 11
549.3355007829371
 21
171.6672027526538
 31
0.0
  0
LINE
  5
230
330
1F
100
AcDbEntity
  8
Make2D$可见线$普通线
100
AcDbLine
 10
549.9372601022243
 20
172.0593748539677
 30
0.0
 11
549.6611169787981
 21
171.8395284025957
 31
0.0
  0
LINE
  5
231
330
1F
100
AcDbEntity
  8
Make2D$可见线$普通线
100
AcDbLine
 10
549.9675714428545
 20
172.1118958005383
 30
0.0
 11
549.9372601022243
 21
172.0593748539677
 31
0.0
  0
LINE
  5
232
330
1F
100
AcDbEntity
  8
Make2D$可见线$普通线
100
AcDbLine
 10
550.1145054465462
 20
172.2083728008524
 30
0.0
 11
549.9675714428545
 21
172.1118958005383
 31
0.0
  0
LINE
  5
233
330
1F
100
AcDbEntity
  8
Make2D$可见线$普通线
100
AcDbLine
 10
550.2006701940314
 20
172.2804826233601
 30
0.0
 11
550.1145054465462
 21
172.2083728008524
 31
0.0
  0
ARC
  5
234
330
1F
100
AcDbEntity
  8
Make2D$可见线$普通线
100
AcDbCircle
 10
436.7551446386112
 20
385.8211567189073
 30
0.0
 40
241.8046872203395
100
AcDbArc
 50
297.9799017794081
 51
297.9970380021116
  0
LINE
  5
235
330
1F
100
AcDbEntity
  8
Make2D$可见线$普通线
100
AcDbLine
 10
550.4837243307122
 20
172.3138469936189
 30
0.0
 11
550.2645316129837
 21
172.3144218592585
 31
0.0
  0
ARC
  5
236
330
1F
100
AcDbEntity
  8
Make2D$可见线$普通线
100
AcDbCircle
 10
450.8915458005106
 20
312.1050563355207
 30
0.0
 40
171.6396930598017
100
AcDbArc
 50
305.4674095775225
 51
305.4910951790358
  0
ARC
  5
237
330
1F
100
AcDbEntity
  8
Make2D$可见线$普通线
100
AcDbCircle
 10
52.55363688619207
 20
5388.287015018138
 30
0.0
 40
5239.650598415941
100
AcDbArc
 50
275.4537481060754
 51
275.4548459938804
  0
ARC
  5
238
330
1F
100
AcDbEntity
  8
Make2D$可见线$普通线
100
AcDbCircle
 10
547.9729482806007
 20
179.4729596928205
 30
0.0
 40
7.592764270343754
100
AcDbArc
 50
290.5762339611395
 51
293.0148413188789
  0
LINE
  5
239
330
1F
100
AcDbEntity
  8
Make2D$可见线$普通线
100
AcDbLine
 10
551.2821543683934
 20
172.7321687369613
 30
0.0
 11
550.9414879382691
 21
172.4845520368621
 31
0.0
  0
ARC
  5
23A
330
1F
100
AcDbEntity
  8
Make2D$可见线$普通线
100
AcDbCircle
 10
-187.4039345633321
 20
924.8743496787538
 30
0.0
 40
1054.217718658307
100
AcDbArc
 50
314.4828671007438
 51
314.5331735945095
  0
ARC
  5
23B
330
1F
100
AcDbEntity
  8
Make2D$可见线$普通线
100
AcDbCircle
 10
421.6491599869755
 20
467.6557884024362
 30
0.0
 40
321.8290267780129
100
AcDbArc
 50
293.8818483108006
 51
293.8940577517422
  0
ARC
  5
23C
330
1F
100
AcDbEntity
  8
Make2D$可见线$普通线
100
AcDbCircle
 10
1182.711496732035
 20
8366.74634362087
 30
0.0
 40
8217.576937310445
100
AcDbArc
 50
265.5981677445944
 51
265.5984114818426
  0
ARC
  5
23D
330
1F
100
AcDbEntity
  8
Make2D$可见线$普通线
100
AcDbCircle
 10
654.0430122083667
 20
316.0206456256209
 30
0.0
 40
175.338395279093
100
AcDbArc
 50
234.4262452753105
 51
234.4401777525879
  0
ARC
  5
23E
330
1F
100
AcDbEntity
  8
Make2D$可见线$普通线
100
AcDbCircle
 10
-473.0945145811555
 20
221.679887537634
 30
0.0
 40
1026.306127003984
100
AcDbArc
 50
357.2989387091346
 51
357.3026310145734
  0
LINE
  5
23F
330
1F
100
AcDbEntity
  8
Make2D$可见线$普通线
100
AcDbLine
 10
551.9769273337832
 20
173.2015079476778
 30
0.0
 11
552.071388611455
 21
173.3152593761725
 31
0.0
  0
ARC
  5
240
330
1F
100
AcDbEntity
  8
Make2D$可见线$普通线
100
AcDbCircle
 10
543.6930289165138
 20
181.4697545223668
 30
0.0
 40
11.70413919976587
100
AcDbArc
 50
310.7994676738882
 51
315.05417933776
  0
LINE
  5
241
330
1F
100
AcDbEntity
  8
Make2D$可见线$普通线
100
AcDbLine
 10
551.2921396719635
 20
172.5509927647054
 30
0.0
 11
551.3406723046345
 21
172.6097079640451
 31
0.0
  0
ARC
  5
242
330
1F
100
AcDbEntity
  8
Make2D$可见线$普通线
100
AcDbCircle
 10
380.199981511223
 20
224.2363091526608
 30
0.0
 40
178.7285609918652
100
AcDbArc
 50
343.1771704286752
 51
343.1909318518694
  0
LINE
  5
243
330
1F
100
AcDbEntity
  8
Make2D$可见线$普通线
100
AcDbLine
 10
551.29723131286
 20
172.4613842718254
 30
0.0
 11
551.2797208470174
 21
172.5099009744437
 31
0.0
  0
LINE
  5
244
330
1F
100
AcDbEntity
  8
Make2D$可见线$普通线
100
AcDbLine
 10
551.3726235177528
 20
172.3869362315338
 30
0.0
 11
551.29723131286
 21
172.4613842718254
 31
0.0
  0
LINE
  5
245
330
1F
100
AcDbEntity
  8
Make2D$可见线$普通线
100
AcDbLine
 10
551.4516874593844
 20
172.2797616915779
 30
0.0
 11
551.3726235177528
 21
172.3869362315338
 31
0.0
  0
LINE
  5
246
330
1F
100
AcDbEntity
  8
Make2D$可见线$普通线
100
AcDbLine
 10
551.4821857814239
 20
172.2116457736986
 30
0.0
 11
551.4516874593844
 21
172.2797616915779
 31
0.0
  0
LINE
  5
247
330
1F
100
AcDbEntity
  8
Make2D$可见线$普通线
100
AcDbLine
 10
551.4698460079829
 20
172.0081764046903
 30
0.0
 11
551.4821857814239
 21
172.2116457736986
 31
0.0
  0
LINE
  5
248
330
1F
100
AcDbEntity
  8
Make2D$可见线$普通线
100
AcDbLine
 10
551.3707797318003
 20
171.8067428745707
 30
0.0
 11
551.4698460079829
 21
172.0081764046903
 31
0.0
  0
LINE
  5
249
330
1F
100
AcDbEntity
  8
Make2D$可见线$普通线
100
AcDbLine
 10
551.1776184460653
 20
171.6286010815235
 30
0.0
 11
551.3707797318003
 21
171.8067428745707
 31
0.0
  0
LINE
  5
24A
330
1F
100
AcDbEntity
  8
Make2D$可见线$普通线
100
AcDbLine
 10
551.0639585330343
 20
171.5523827421771
 30
0.0
 11
551.1776184460653
 21
171.6286010815235
 31
0.0
  0
LINE
  5
24B
330
1F
100
AcDbEntity
  8
Make2D$可见线$普通线
100
AcDbLine
 10
550.9536840665728
 20
171.5506375720261
 30
0.0
 11
551.0639585330343
 21
171.5523827421771
 31
0.0
  0
ARC
  5
24C
330
1F
100
AcDbEntity
  8
Make2D$可见线$普通线
100
AcDbCircle
 10
761.4984976951876
 20
1096.384984052343
 30
0.0
 40
948.4975946071676
100
AcDbArc
 50
257.1664881446306
 51
257.1748115959678
  0
LINE
  5
24D
330
1F
100
AcDbEntity
  8
Make2D$可见线$普通线
100
AcDbLine
 10
550.7444374262848
 20
171.6507514237292
 30
0.0
 11
550.8193340948142
 21
171.5812335191663
 31
0.0
  0
LINE
  5
24E
330
1F
100
AcDbEntity
  8
Make2D$可见线$普通线
100
AcDbLine
 10
550.7268129871885
 20
171.7443564395877
 30
0.0
 11
550.7444374262848
 21
171.6507514237292
 31
0.0
  0
LINE
  5
24F
330
1F
100
AcDbEntity
  8
Make2D$可见线$普通线
100
AcDbLine
 10
550.7230858529919
 20
171.8643873812311
 30
0.0
 11
550.7268129871885
 21
171.7443564395877
 31
0.0
  0
LINE
  5
250
330
1F
100
AcDbEntity
  8
Make2D$可见线$普通线
100
AcDbLine
 10
550.779779733035
 20
172.0079994400272
 30
0.0
 11
550.7230858529919
 21
171.8643873812311
 31
0.0
  0
LINE
  5
251
330
1F
100
AcDbEntity
  8
Make2D$可见线$普通线
100
AcDbLine
 10
550.8611052782928
 20
172.1532851573758
 30
0.0
 11
550.779779733035
 21
172.0079994400272
 31
0.0
  0
LINE
  5
252
330
1F
100
AcDbEntity
  8
Make2D$可见线$普通线
100
AcDbLine
 10
550.9055630512997
 20
172.2400100517251
 30
0.0
 11
550.8611052782928
 21
172.1532851573758
 31
0.0
  0
LINE
  5
253
330
1F
100
AcDbEntity
  8
Make2D$可见线$普通线
100
AcDbLine
 10
550.8932164009178
 20
172.3010136213669
 30
0.0
 11
550.9055630512997
 21
172.2400100517251
 31
0.0
  0
ARC
  5
254
330
1F
100
AcDbEntity
  8
Make2D$可见线$普通线
100
AcDbCircle
 10
740.3736859256788
 20
885.3501216046969
 30
0.0
 40
737.795282396917
100
AcDbArc
 50
255.1140996115001
 51
255.1185537275034
  0
ARC
  5
255
330
1F
100
AcDbEntity
  8
Make2D$可见线$普通线
100
AcDbCircle
 10
420.8917562887029
 20
475.4983255055075
 30
0.0
 40
329.8570100568825
100
AcDbArc
 50
293.1687980854384
 51
293.2002888637188
  0
ARC
  5
256
330
1F
100
AcDbEntity
  8
Make2D$可见线$普通线
100
AcDbCircle
 10
390.2522437423982
 20
668.64575046796
 30
0.0
 40
521.6785878429648
100
AcDbArc
 50
287.8884489571587
 51
287.9089474278554
  0
LINE
  5
257
330
1F
100
AcDbEntity
  8
Make2D$可见线$普通线
100
AcDbLine
 10
550.4224269485959
 20
172.131775828969
 30
0.0
 11
550.4935254038827
 21
172.1870103240134
 31
0.0
  0
LINE
  5
258
330
1F
100
AcDbEntity
  8
Make2D$可见线$普通线
100
AcDbLine
 10
550.4121159633895
 20
172.0329144710796
 30
0.0
 11
550.4224269485959
 21
172.131775828969
 31
0.0
  0
LINE
  5
259
330
1F
100
AcDbEntity
  8
Make2D$可见线$普通线
100
AcDbLine
 10
550.3247550597373
 20
171.8454402356376
 30
0.0
 11
550.4121159633895
 21
172.0329144710796
 31
0.0
  0
LINE
  5
25A
330
1F
100
AcDbEntity
  8
Make2D$可见线$普通线
100
AcDbLine
 10
550.0533846019288
 20
171.6192455237625
 30
0.0
 11
550.3247550597373
 21
171.8454402356376
 31
0.0
  0
ARC
  5
25B
330
1F
100
AcDbEntity
  8
Make2D$可见线$普通线
100
AcDbCircle
 10
400.8604625918865
 20
607.5407781244627
 30
0.0
 40
460.7451687894707
100
AcDbArc
 50
288.8771807486185
 51
288.8933671468407
  0
LINE
  5
25C
330
1F
100
AcDbEntity
  8
Make2D$可见线$普通线
100
AcDbLine
 10
549.7959018837295
 20
171.5763402748167
 30
0.0
 11
549.930228226404
 21
171.5771150325625
 31
0.0
  0
LINE
  5
25D
330
1F
100
AcDbEntity
  8
Make2D$可见线$普通线
100
AcDbLine
 10
549.6954056697426
 20
171.6342580760503
 30
0.0
 11
549.7959018837295
 21
171.5763402748167
 31
0.0
  0
ARC
  5
25E
330
1F
100
AcDbEntity
  8
Make2D$可见线$普通线
100
AcDbCircle
 10
720.7556723796527
 20
761.5370412183852
 30
0.0
 40
614.2042888208597
100
AcDbArc
 50
253.822495740186
 51
253.8288749258647
  0
ARC
  5
25F
330
1F
100
AcDbEntity
  8
Make2D$可见线$普通线
100
AcDbCircle
 10
336.9326069510709
 20
1111.48038922285
 30
0.0
 40
963.5948367989489
100
AcDbArc
 50
282.7472677065167
 51
282.7520857234476
  0
LINE
  5
260
330
1F
100
AcDbEntity
  8
Make2D$可见线$普通线
100
AcDbLine
 10
549.29889474271
 20
171.5297372101291
 30
0.0
 11
549.550697201225
 21
171.6354247718131
 31
0.0
  0
ARC
  5
261
330
1F
100
AcDbEntity
  8
Make2D$可见线$普通线
100
AcDbCircle
 10
229.6448201377619
 20
2370.127480957655
 30
0.0
 40
2221.713475276067
100
AcDbArc
 50
278.2694977991279
 51
278.2722699223962
  0
ARC
  5
262
330
1F
100
AcDbEntity
  8
Make2D$可见线$普通线
100
AcDbCircle
 10
719.7288757522681
 20
761.5555217292293
 30
0.0
 40
614.1916007818468
100
AcDbArc
 50
253.8674871574615
 51
253.8794124830922
  0
LINE
  5
263
330
1F
100
AcDbEntity
  8
Make2D$可见线$普通线
100
AcDbLine
 10
548.9751549258334
 20
171.633641214625
 30
0.0
 11
549.0697150748819
 21
171.549781631849
 31
0.0
  0
LINE
  5
264
330
1F
100
AcDbEntity
  8
Make2D$可见线$普通线
100
AcDbLine
 10
548.9371769207312
 20
171.7391916586077
 30
0.0
 11
548.9751549258334
 21
171.633641214625
 31
0.0
  0
ARC
  5
265
330
1F
100
AcDbEntity
  8
Make2D$可见线$普通线
100
AcDbCircle
 10
643.5704021815181
 20
291.9538496004742
 30
0.0
 40
152.9935008663401
100
AcDbArc
 50
231.777194201927
 51
231.7901062544018
  0
ARC
  5
266
330
1F
100
AcDbEntity
  8
Make2D$可见线$普通线
100
AcDbCircle
 10
-484.8276255178927
 20
23343.66937263176
 30
0.0
 40
23194.9557767722
100
AcDbArc
 50
272.5542354105347
 51
272.5543671397847
  0
LINE
  5
267
330
1F
100
AcDbEntity
  8
Make2D$可见线$普通线
100
AcDbLine
 10
548.6117646925397
 20
171.6062126516713
 30
0.0
 11
548.8568132596453
 21
171.758144434654
 31
0.0
  0
LINE
  5
268
330
1F
100
AcDbEntity
  8
Make2D$可见线$普通线
100
AcDbLine
 10
548.5246451430356
 20
171.5620570446218
 30
0.0
 11
548.6117646925397
 21
171.6062126516713
 31
0.0
  0
ARC
  5
269
330
1F
100
AcDbEntity
  8
Make2D$可见线$普通线
100
AcDbCircle
 10
104.2252856498529
 20
4455.583759732733
 30
0.0
 40
4306.999404451873
100
AcDbArc
 50
275.9199049261723
 51
275.9210235244702
  0
ARC
  5
26A
330
1F
100
AcDbEntity
  8
Make2D$可见线$普通线
100
AcDbCircle
 10
898.8500494953248
 20
2819.525472372216
 30
0.0
 40
2671.056472506407
100
AcDbArc
 50
262.4597235229558
 51
262.4617850869938
  0
ARC
  5
26B
330
1F
100
AcDbEntity
  8
Make2D$可见线$普通线
100
AcDbCircle
 10
432.1287132799226
 20
411.5887276172409
 30
0.0
 40
266.6782855274483
100
AcDbArc
 50
295.8195630373138
 51
295.8358807161515
  0
LINE
  5
26C
330
1F
100
AcDbEntity
  8
Make2D$可见线$普通线
100
AcDbLine
 10
548.093087875618
 20
171.3908159527682
 30
0.0
 11
548.2773679566536
 21
171.5329049662485
 31
0.0
  0
ARC
  5
26D
330
1F
100
AcDbEntity
  8
Make2D$可见线$普通线
100
AcDbCircle
 10
426.0310844708717
 20
447.2526241209644
 30
0.0
 40
301.6601894201602
100
AcDbArc
 50
293.8493475618231
 51
293.8682008613477
  0
ARC
  5
26E
330
1F
100
AcDbEntity
  8
Make2D$可见线$普通线
100
AcDbCircle
 10
547.6014870618881
 20
166.5882187991685
 30
0.0
 40
4.779284697197772
100
AcDbArc
 50
85.1891597904814
 51
88.32006723989254
  0
ARC
  5
26F
330
1F
100
AcDbEntity
  8
Make2D$可见线$普通线
100
AcDbCircle
 10
358.0550711313228
 20
920.9821644912812
 30
0.0
 40
773.2439446262013
100
AcDbArc
 50
284.1886139183554
 51
284.2003115033521
  0
ARC
  5
270
330
1F
100
AcDbEntity
  8
Make2D$可见线$普通线
100
AcDbCircle
 10
193.9725328354919
 20
2902.786349376339
 30
0.0
 40
2754.254144977278
100
AcDbArc
 50
277.3749060079617
 51
277.3765104236176
  0
ARC
  5
271
330
1F
100
AcDbEntity
  8
Make2D$可见线$普通线
100
AcDbCircle
 10
371.3924253034762
 20
812.3928027591667
 30
0.0
 40
664.8281886232687
100
AcDbArc
 50
285.3493430101472
 51
285.3616052726559
  0
ARC
  5
272
330
1F
100
AcDbEntity
  8
Make2D$可见线$普通线
100
AcDbCircle
 10
280.7570851984522
 20
1708.19491610343
 30
0.0
 40
1559.87021258437
100
AcDbArc
 50
279.8365977115193
 51
279.8414914063393
  0
ARC
  5
273
330
1F
100
AcDbEntity
  8
Make2D$可见线$普通线
100
AcDbCircle
 10
553.0121576361022
 20
156.4935844332402
 30
0.0
 40
15.84982379712639
100
AcDbArc
 50
111.3430820968146
 51
112.9647760765684
  0
LINE
  5
274
330
1F
100
AcDbEntity
  8
Make2D$可见线$普通线
100
AcDbLine
 10
546.6215226682641
 20
170.8769439066806
 30
0.0
 11
546.8281087131959
 21
171.0872287114545
 31
0.0
  0
LINE
  5
275
330
1F
100
AcDbEntity
  8
Make2D$可见线$普通线
100
AcDbLine
 10
546.4906397060997
 20
170.7303286683168
 30
0.0
 11
546.6215226682641
 21
170.8769439066806
 31
0.0
  0
ARC
  5
276
330
1F
100
AcDbEntity
  8
Make2D$可见线$普通线
100
AcDbCircle
 10
457.6824351156872
 20
235.137468720581
 30
0.0
 40
109.704953818342
100
AcDbArc
 50
323.5764492648267
 51
324.0489274935537
  0
LINE
  5
277
330
1F
100
AcDbEntity
  8
Make2D$可见线$普通线
100
AcDbLine
 10
545.7547411551764
 20
169.7906673700815
 30
0.0
 11
545.9565055518299
 21
170.0001876833787
 31
0.0
  0
ARC
  5
278
330
1F
100
AcDbEntity
  8
Make2D$可见线$普通线
100
AcDbCircle
 10
533.2040850951903
 20
180.3355721357963
 30
0.0
 40
16.39249779789701
100
AcDbArc
 50
315.9161699827192
 51
319.9634415271991
  0
LINE
  5
279
330
1F
100
AcDbEntity
  8
Make2D$可见线$普通线
100
AcDbLine
 10
544.8829953311114
 20
168.8592035302794
 30
0.0
 11
544.9791878695528
 21
168.9311458588081
 31
0.0
  0
ARC
  5
27A
330
1F
100
AcDbEntity
  8
Make2D$可见线$普通线
100
AcDbCircle
 10
452.0929938006019
 20
361.7491965855198
 30
0.0
 40
214.0479708030016
100
AcDbArc
 50
295.6798242028871
 51
295.6899461410378
  0
ARC
  5
27B
330
1F
100
AcDbEntity
  8
Make2D$可见线$普通线
100
AcDbCircle
 10
2032.861256018698
 20
61293.62266947918
 30
0.0
 40
61142.88914568177
100
AcDbArc
 50
268.6053853097937
 51
268.6054756954692
  0
ARC
  5
27C
330
1F
100
AcDbEntity
  8
Make2D$可见线$普通线
100
AcDbCircle
 10
642.7803433253463
 20
390.7053449389522
 30
0.0
 40
242.5518514541336
100
AcDbArc
 50
246.1511049019904
 51
246.1619927539145
  0
LINE
  5
27D
330
1F
100
AcDbEntity
  8
Make2D$可见线$普通线
100
AcDbLine
 10
544.6724609088129
 20
168.909477193886
 30
0.0
 11
544.7103336198749
 21
168.8637937358541
 31
0.0
  0
LINE
  5
27E
330
1F
100
AcDbEntity
  8
Make2D$可见线$普通线
100
AcDbLine
 10
544.6572624586358
 20
168.9928938039583
 30
0.0
 11
544.6724609088129
 21
168.909477193886
 31
0.0
  0
LINE
  5
27F
330
1F
100
AcDbEntity
  8
Make2D$可见线$普通线
100
AcDbLine
 10
544.7417153390609
 20
169.2877384127227
 30
0.0
 11
544.6572624586358
 21
168.9928938039583
 31
0.0
  0
LINE
  5
280
330
1F
100
AcDbEntity
  8
Make2D$可见线$普通线
100
AcDbLine
 10
544.7994072233695
 20
169.3866217751234
 30
0.0
 11
544.7417153390609
 21
169.2877384127227
 31
0.0
  0
ARC
  5
281
330
1F
100
AcDbEntity
  8
Make2D$可见线$普通线
100
AcDbCircle
 10
-1284.127136447394
 20
208.0884391998671
 30
0.0
 40
1829.335981392009
100
AcDbArc
 50
358.7877479751202
 51
358.789229789933
  0
LINE
  5
282
330
1F
100
AcDbEntity
  8
Make2D$可见线$普通线
100
AcDbLine
 10
545.057488965454
 20
169.8311700998482
 30
0.0
 11
544.8004075392982
 21
169.433922487467
 31
0.0
  0
LINE
  5
283
330
1F
100
AcDbEntity
  8
Make2D$可见线$普通线
100
AcDbLine
 10
545.0785190379522
 20
169.8941258058722
 30
0.0
 11
545.057488965454
 21
169.8311700998482
 31
0.0
  0
LINE
  5
284
330
1F
100
AcDbEntity
  8
Make2D$可见线$普通线
100
AcDbLine
 10
545.2330359819026
 20
170.0499617203835
 30
0.0
 11
545.0785190379522
 21
169.8941258058722
 31
0.0
  0
LINE
  5
285
330
1F
100
AcDbEntity
  8
Make2D$可见线$普通线
100
AcDbLine
 10
545.4491179805271
 20
170.2945047853636
 30
0.0
 11
545.2330359819026
 21
170.0499617203835
 31
0.0
  0
ARC
  5
286
330
1F
100
AcDbEntity
  8
Make2D$可见线$普通线
100
AcDbCircle
 10
457.4588648057878
 20
283.8465089108279
 30
0.0
 40
143.6535495372954
100
AcDbArc
 50
307.771727853258
 51
308.1110885488508
  0
LINE
  5
287
330
1F
100
AcDbEntity
  8
Make2D$可见线$普通线
100
AcDbLine
 10
546.7186484325175
 20
171.167036380209
 30
0.0
 11
546.1201347863278
 21
170.8176563991706
 31
0.0
  0
LINE
  5
288
330
1F
100
AcDbEntity
  8
Make2D$可见线$普通线
100
AcDbLine
 10
547.2218894906453
 20
171.9865150813911
 30
0.0
 11
546.7186484325175
 21
171.167036380209
 31
0.0
  0
LINE
  5
289
330
1F
100
AcDbEntity
  8
Make2D$可见线$普通线
100
AcDbLine
 10
547.307142128869
 20
172.0647774563428
 30
0.0
 11
547.2223223050609
 21
171.9872262113504
 31
0.0
  0
LINE
  5
28A
330
1F
100
AcDbEntity
  8
Make2D$可见线$普通线
100
AcDbLine
 10
547.459997692379
 20
172.293685852703
 30
0.0
 11
547.307142128869
 21
172.0647774563428
 31
0.0
  0
LINE
  5
28B
330
1F
100
AcDbEntity
  8
Make2D$可见线$普通线
100
AcDbLine
 10
547.5514163438451
 20
172.4744938539708
 30
0.0
 11
547.459997692379
 21
172.293685852703
 31
0.0
  0
LINE
  5
28C
330
1F
100
AcDbEntity
  8
Make2D$可见线$普通线
100
AcDbLine
 10
547.6591545152389
 20
172.6059025602865
 30
0.0
 11
547.5514163438451
 21
172.4744938539708
 31
0.0
  0
LINE
  5
28D
330
1F
100
AcDbEntity
  8
Make2D$可见线$普通线
100
AcDbLine
 10
547.7111069498598
 20
172.7097380718067
 30
0.0
 11
547.6591545152389
 21
172.6059025602865
 31
0.0
  0
LINE
  5
28E
330
1F
100
AcDbEntity
  8
Make2D$可见线$普通线
100
AcDbLine
 10
547.8810313119566
 20
172.9378450147338
 30
0.0
 11
547.7111069498598
 21
172.7097380718067
 31
0.0
  0
LINE
  5
28F
330
1F
100
AcDbEntity
  8
Make2D$可见线$普通线
100
AcDbLine
 10
547.9339375621279
 20
173.0565109927799
 30
0.0
 11
547.8810313119566
 21
172.9378450147338
 31
0.0
  0
ARC
  5
290
330
1F
100
AcDbEntity
  8
Make2D$可见线$普通线
100
AcDbCircle
 10
510.4165260362233
 20
197.7911648933078
 30
0.0
 40
44.93728152862583
100
AcDbArc
 50
326.6037479182057
 51
327.3131875122104
  0
LINE
  5
291
330
1F
100
AcDbEntity
  8
Make2D$可见线$普通线
100
AcDbLine
 10
548.2562270146689
 20
173.5932620087918
 30
0.0
 11
548.2373196644198
 21
173.5229379181794
 31
0.0
  0
ARC
  5
292
330
1F
100
AcDbEntity
  8
Make2D$可见线$普通线
100
AcDbCircle
 10
451.4226776069189
 20
265.7632917545892
 30
0.0
 40
133.6863892632468
100
AcDbArc
 50
316.4134430146926
 51
316.4737984583763
  0
LINE
  5
293
330
1F
100
AcDbEntity
  8
Make2D$可见线$普通线
100
AcDbLine
 10
548.452755835924
 20
173.8877116470655
 30
0.0
 11
548.3532652920525
 21
173.6953177068295
 31
0.0
  0
ARC
  5
294
330
1F
100
AcDbEntity
  8
Make2D$可见线$普通线
100
AcDbCircle
 10
446.8761059264883
 20
248.4395279190173
 30
0.0
 40
125.9991631570263
100
AcDbArc
 50
323.7233268944759
 51
323.7658116742485
  0
LINE
  5
295
330
1F
100
AcDbEntity
  8
Make2D$可见线$普通线
100
AcDbLine
 10
548.5996119186832
 20
174.1246235373575
 30
0.0
 11
548.5080080251226
 21
173.9630511489356
 31
0.0
  0
ARC
  5
296
330
1F
100
AcDbEntity
  8
Make2D$可见线$普通线
100
AcDbCircle
 10
445.6892280855663
 20
246.6551553832219
 30
0.0
 40
125.9016487204334
100
AcDbArc
 50
324.8240815881806
 51
324.884324967919
  0
LINE
  5
297
330
1F
100
AcDbEntity
  8
Make2D$可见线$普通线
100
AcDbLine
 10
548.7306754687913
 20
174.3925937610736
 30
0.0
 11
548.6758169079204
 21
174.2328682524031
 31
0.0
  0
ARC
  5
298
330
1F
100
AcDbEntity
  8
Make2D$可见线$普通线
100
AcDbCircle
 10
432.5669657707625
 20
236.7769669696619
 30
0.0
 40
131.8552898879539
100
AcDbArc
 50
331.7624936920477
 51
331.8070628276762
  0
ARC
  5
299
330
1F
100
AcDbEntity
  8
Make2D$可见线$普通线
100
AcDbCircle
 10
351.7319951411487
 20
226.2283826746087
 30
0.0
 40
203.7281904224483
100
AcDbArc
 50
345.286112600489
 51
345.3110015607794
  0
ARC
  5
29A
330
1F
100
AcDbEntity
  8
Make2D$可见线$普通线
100
AcDbCircle
 10
431.7139896668618
 20
236.402864592607
 30
0.0
 40
132.4122132512975
100
AcDbArc
 50
332.1613477573445
 51
332.2014228507255
  0
ARC
  5
29B
330
1F
100
AcDbEntity
  8
Make2D$可见线$普通线
100
AcDbCircle
 10
226.6125818826159
 20
224.1135865093794
 30
0.0
 40
326.006490126034
100
AcDbArc
 50
351.2731355719866
 51
351.2809888464818
  0
ARC
  5
29C
330
1F
100
AcDbEntity
  8
Make2D$可见线$普通线
100
AcDbCircle
 10
391.8956864996487
 20
228.7067646327872
 30
0.0
 40
165.9893811771251
100
AcDbArc
 50
341.0104936230832
 51
341.0187821734112
  0
LINE
  5
29D
330
1F
100
AcDbEntity
  8
Make2D$可见线$普通线
100
AcDbLine
 10
558.9138308090863
 20
171.5987376643092
 30
0.0
 11
558.94357793254
 21
171.6571745785686
 31
0.0
  0
LINE
  5
29E
330
1F
100
AcDbEntity
  8
Make2D$可见线$普通线
100
AcDbLine
 10
558.94357793254
 20
171.6571745785686
 30
0.0
 11
558.9544743499005
 21
171.9326557318741
 31
0.0
  0
ARC
  5
29F
330
1F
100
AcDbEntity
  8
Make2D$可见线$普通线
100
AcDbCircle
 10
688.6628967890573
 20
480.1157690268572
 30
0.0
 40
334.3667240797791
100
AcDbArc
 50
247.1700409714416
 51
247.1746983767759
  0
ARC
  5
2A0
330
1F
100
AcDbEntity
  8
Make2D$可见线$普通线
100
AcDbCircle
 10
1235.969702223429
 20
10005.35124389746
 30
0.0
 40
9856.687947258415
100
AcDbArc
 50
266.0611140491645
 51
266.0613423685435
  0
ARC
  5
2A1
330
1F
100
AcDbEntity
  8
Make2D$可见线$普通线
100
AcDbCircle
 10
466.1182689231746
 20
263.5141480997542
 30
0.0
 40
130.350997759437
100
AcDbArc
 50
315.35875746757
 51
315.374129234857
  0
LINE
  5
2A2
330
1F
100
AcDbEntity
  8
Make2D$可见线$普通线
100
AcDbLine
 10
558.8656680960775
 20
171.921012093048
 30
0.0
 11
558.7981625139673
 21
171.8419108048037
 31
0.0
  0
LINE
  5
2A3
330
1F
100
AcDbEntity
  8
Make2D$可见线$普通线
100
AcDbLine
 10
558.7981625139673
 20
171.8419108048037
 30
0.0
 11
558.7682569919444
 21
171.7897279034789
 31
0.0
  0
LINE
  5
2A4
330
1F
100
AcDbEntity
  8
Make2D$可见线$普通线
100
AcDbLine
 10
558.7682569919444
 20
171.7897279034789
 30
0.0
 11
558.6343223840618
 21
171.6354498231074
 31
0.0
  0
LINE
  5
2A5
330
1F
100
AcDbEntity
  8
Make2D$可见线$普通线
100
AcDbLine
 10
558.6343223840618
 20
171.6354498231074
 30
0.0
 11
558.5695187592211
 21
171.5444125894869
 31
0.0
  0
LINE
  5
2A6
330
1F
100
AcDbEntity
  8
Make2D$可见线$普通线
100
AcDbLine
 10
558.5695187592211
 20
171.5444125894869
 30
0.0
 11
558.4979978529842
 21
171.4738586178889
 31
0.0
  0
LINE
  5
2A7
330
1F
100
AcDbEntity
  8
Make2D$可见线$普通线
100
AcDbLine
 10
558.4979978529842
 20
171.4738586178889
 30
0.0
 11
558.4662729328429
 21
171.4217430612476
 31
0.0
  0
LINE
  5
2A8
330
1F
100
AcDbEntity
  8
Make2D$可见线$普通线
100
AcDbLine
 10
558.4662729328429
 20
171.4217430612476
 30
0.0
 11
558.3297583896547
 21
171.244720007466
 31
0.0
  0
LINE
  5
2A9
330
1F
100
AcDbEntity
  8
Make2D$可见线$普通线
100
AcDbLine
 10
558.3297583896547
 20
171.244720007466
 30
0.0
 11
558.2315770043414
 21
171.1300902849563
 31
0.0
  0
LINE
  5
2AA
330
1F
100
AcDbEntity
  8
Make2D$可见线$普通线
100
AcDbLine
 10
558.2315770043414
 20
171.1300902849563
 30
0.0
 11
558.0423657509061
 21
170.8732488700248
 31
0.0
  0
LINE
  5
2AB
330
1F
100
AcDbEntity
  8
Make2D$可见线$普通线
100
AcDbLine
 10
558.0423657509061
 20
170.8732488700248
 30
0.0
 11
557.8519993185752
 21
170.5831308177077
 31
0.0
  0
LINE
  5
2AC
330
1F
100
AcDbEntity
  8
Make2D$可见线$普通线
100
AcDbLine
 10
557.8519993185752
 20
170.5831308177077
 30
0.0
 11
557.7354265774901
 21
170.4179395601654
 31
0.0
  0
LINE
  5
2AD
330
1F
100
AcDbEntity
  8
Make2D$可见线$普通线
100
AcDbLine
 10
557.7354265774901
 20
170.4179395601654
 30
0.0
 11
557.6800135000179
 21
170.315543112937
 31
0.0
  0
LINE
  5
2AE
330
1F
100
AcDbEntity
  8
Make2D$可见线$普通线
100
AcDbLine
 10
557.6800135000179
 20
170.315543112937
 30
0.0
 11
557.6328168905547
 21
170.2092307817846
 31
0.0
  0
LINE
  5
2AF
330
1F
100
AcDbEntity
  8
Make2D$可见线$普通线
100
AcDbLine
 10
557.6328168905547
 20
170.2092307817846
 30
0.0
 11
557.6068890579448
 21
170.1670395505831
 31
0.0
  0
LINE
  5
2B0
330
1F
100
AcDbEntity
  8
Make2D$可见线$普通线
100
AcDbLine
 10
557.6068890579448
 20
170.1670395505831
 30
0.0
 11
557.556428354202
 21
169.9451100572344
 31
0.0
  0
LINE
  5
2B1
330
1F
100
AcDbEntity
  8
Make2D$可见线$普通线
100
AcDbLine
 10
557.556428354202
 20
169.9451100572344
 30
0.0
 11
557.5286298567828
 21
169.8357655998772
 31
0.0
  0
LINE
  5
2B2
330
1F
100
AcDbEntity
  8
Make2D$可见线$普通线
100
AcDbLine
 10
557.5286298567828
 20
169.8357655998772
 30
0.0
 11
557.5362590437816
 21
169.7469447281868
 31
0.0
  0
LINE
  5
2B3
330
1F
100
AcDbEntity
  8
Make2D$可见线$普通线
100
AcDbLine
 10
557.5362590437816
 20
169.7469447281868
 30
0.0
 11
557.5886809356314
 21
169.7180755823603
 31
0.0
  0
ARC
  5
2B4
330
1F
100
AcDbEntity
  8
Make2D$可见线$普通线
100
AcDbCircle
 10
907.2711558766564
 20
3195.163371113031
 30
0.0
 40
3045.586490239531
100
AcDbArc
 50
263.4069797846692
 51
263.4081996269569
  0
LINE
  5
2B5
330
1F
100
AcDbEntity
  8
Make2D$可见线$普通线
100
AcDbLine
 10
557.6530935447729
 20
169.7106314357364
 30
0.0
 11
557.7475279438603
 21
169.7551785829892
 31
0.0
  0
LINE
  5
2B6
330
1F
100
AcDbEntity
  8
Make2D$可见线$普通线
100
AcDbLine
 10
557.7475279438603
 20
169.7551785829892
 30
0.0
 11
557.8645121526483
 21
169.8443186422143
 31
0.0
  0
LINE
  5
2B7
330
1F
100
AcDbEntity
  8
Make2D$可见线$普通线
100
AcDbLine
 10
557.8645121526483
 20
169.8443186422143
 30
0.0
 11
557.9961057561183
 21
169.9338339566767
 31
0.0
  0
LINE
  5
2B8
330
1F
100
AcDbEntity
  8
Make2D$可见线$普通线
100
AcDbLine
 10
557.9961057561183
 20
169.9338339566767
 30
0.0
 11
558.0956217759327
 21
170.0267065936366
 31
0.0
  0
LINE
  5
2B9
330
1F
100
AcDbEntity
  8
Make2D$可见线$普通线
100
AcDbLine
 10
558.0956217759327
 20
170.0267065936366
 30
0.0
 11
558.1915649315845
 21
170.1328040257343
 31
0.0
  0
LINE
  5
2BA
330
1F
100
AcDbEntity
  8
Make2D$可见线$普通线
100
AcDbLine
 10
558.1915649315845
 20
170.1328040257343
 30
0.0
 11
558.3312808423937
 21
170.3214422058909
 31
0.0
  0
LINE
  5
2BB
330
1F
100
AcDbEntity
  8
Make2D$可见线$普通线
100
AcDbLine
 10
558.3312808423937
 20
170.3214422058909
 30
0.0
 11
558.4045976624564
 21
170.4111817102004
 31
0.0
  0
LINE
  5
2BC
330
1F
100
AcDbEntity
  8
Make2D$可见线$普通线
100
AcDbLine
 10
558.4045976624564
 20
170.4111817102004
 30
0.0
 11
558.4378036607195
 21
170.5101300065851
 31
0.0
  0
LINE
  5
2BD
330
1F
100
AcDbEntity
  8
Make2D$可见线$普通线
100
AcDbLine
 10
558.4378036607195
 20
170.5101300065851
 30
0.0
 11
558.4988861368331
 21
170.6050741331362
 31
0.0
  0
LINE
  5
2BE
330
1F
100
AcDbEntity
  8
Make2D$可见线$普通线
100
AcDbLine
 10
558.4988861368331
 20
170.6050741331362
 30
0.0
 11
558.5388702688844
 21
170.644460106114
 31
0.0
  0
LINE
  5
2BF
330
1F
100
AcDbEntity
  8
Make2D$可见线$普通线
100
AcDbLine
 10
558.5388702688844
 20
170.644460106114
 30
0.0
 11
558.6453746566294
 21
170.8267709728125
 31
0.0
  0
LINE
  5
2C0
330
1F
100
AcDbEntity
  8
Make2D$可见线$普通线
100
AcDbLine
 10
558.6453746566294
 20
170.8267709728125
 30
0.0
 11
558.6770776870977
 21
170.8922302986556
 31
0.0
  0
LINE
  5
2C1
330
1F
100
AcDbEntity
  8
Make2D$可见线$普通线
100
AcDbLine
 10
558.6770776870977
 20
170.8922302986556
 30
0.0
 11
558.705396354261
 21
170.9406905164019
 31
0.0
  0
LINE
  5
2C2
330
1F
100
AcDbEntity
  8
Make2D$可见线$普通线
100
AcDbLine
 10
558.705396354261
 20
170.9406905164019
 30
0.0
 11
558.7353723573697
 21
171.0095093552877
 31
0.0
  0
LINE
  5
2C3
330
1F
100
AcDbEntity
  8
Make2D$可见线$普通线
100
AcDbLine
 10
558.7353723573697
 20
171.0095093552877
 30
0.0
 11
558.7613182190905
 21
171.0775625713745
 31
0.0
  0
LINE
  5
2C4
330
1F
100
AcDbEntity
  8
Make2D$可见线$普通线
100
AcDbLine
 10
558.7613182190905
 20
171.0775625713745
 30
0.0
 11
558.8125675963967
 21
171.1578750130824
 31
0.0
  0
LINE
  5
2C5
330
1F
100
AcDbEntity
  8
Make2D$可见线$普通线
100
AcDbLine
 10
558.8125675963967
 20
171.1578750130824
 30
0.0
 11
558.8431052922514
 21
171.2988414462803
 31
0.0
  0
LINE
  5
2C6
330
1F
100
AcDbEntity
  8
Make2D$可见线$普通线
100
AcDbLine
 10
558.8431052922514
 20
171.2988414462803
 30
0.0
 11
558.8532434858678
 21
171.3532871731613
 31
0.0
  0
LINE
  5
2C7
330
1F
100
AcDbEntity
  8
Make2D$可见线$普通线
100
AcDbLine
 10
558.8532434858678
 20
171.3532871731613
 30
0.0
 11
558.8919766606431
 21
171.4485711080424
 31
0.0
  0
LINE
  5
2C8
330
1F
100
AcDbEntity
  8
Make2D$可见线$普通线
100
AcDbLine
 10
558.8919766606431
 20
171.4485711080424
 30
0.0
 11
558.9138308090863
 21
171.5987376643092
 31
0.0
  0
ARC
  5
2C9
330
1F
100
AcDbEntity
  8
Make2D$可见线$普通线
100
AcDbCircle
 10
658.9170868630828
 20
300.0021237383548
 30
0.0
 40
160.825966384049
100
AcDbArc
 50
232.4017189076069
 51
232.4294748466281
  0
ARC
  5
2CA
330
1F
100
AcDbEntity
  8
Make2D$可见线$普通线
100
AcDbCircle
 10
670.982638402555
 20
365.5655790993138
 30
0.0
 40
222.2287912529469
100
AcDbArc
 50
240.2587105758978
 51
240.2751435400464
  0
ARC
  5
2CB
330
1F
100
AcDbEntity
  8
Make2D$可见线$普通线
100
AcDbCircle
 10
771.6768351281869
 20
1059.457679806544
 30
0.0
 40
911.5885928875769
100
AcDbArc
 50
256.6186297769714
 51
256.6206934606019
  0
ARC
  5
2CC
330
1F
100
AcDbEntity
  8
Make2D$可见线$普通线
100
AcDbCircle
 10
217.5080500309564
 20
2603.853803321373
 30
0.0
 40
2455.339977574523
100
AcDbArc
 50
278.0336333760529
 51
278.0349030410292
  0
LINE
  5
2CD
330
1F
100
AcDbEntity
  8
Make2D$可见线$普通线
100
AcDbLine
 10
560.6525597236916
 20
172.6100370685127
 30
0.0
 11
560.5761757463937
 21
172.5356377220028
 31
0.0
  0
ARC
  5
2CE
330
1F
100
AcDbEntity
  8
Make2D$可见线$普通线
100
AcDbCircle
 10
568.8499223235073
 20
156.990794578821
 30
0.0
 40
17.60957213473469
100
AcDbArc
 50
118.0241514271813
 51
119.2484848610689
  0
LINE
  5
2CF
330
1F
100
AcDbEntity
  8
Make2D$可见线$普通线
100
AcDbLine
 10
560.2459176233721
 20
172.355303483712
 30
0.0
 11
560.2459134992098
 21
172.2683939337227
 31
0.0
  0
LINE
  5
2D0
330
1F
100
AcDbEntity
  8
Make2D$可见线$普通线
100
AcDbLine
 10
560.2459134992098
 20
172.2683939337227
 30
0.0
 11
560.3061107164253
 21
172.2054390116508
 31
0.0
  0
ARC
  5
2D1
330
1F
100
AcDbEntity
  8
Make2D$可见线$普通线
100
AcDbCircle
 10
726.9028222007134
 20
712.9990218046505
 30
0.0
 40
565.8729216595086
100
AcDbArc
 50
252.8780432793189
 51
252.89152727403
  0
ARC
  5
2D2
330
1F
100
AcDbEntity
  8
Make2D$可见线$普通线
100
AcDbCircle
 10
33.95720619302767
 20
6047.109013022912
 30
0.0
 40
5898.485370881356
100
AcDbArc
 50
275.1208162250029
 51
275.122417976115
  0
ARC
  5
2D3
330
1F
100
AcDbEntity
  8
Make2D$可见线$普通线
100
AcDbCircle
 10
424.5994503314614
 20
512.8092309098245
 30
0.0
 40
366.7739320250189
100
AcDbArc
 50
291.7646947016835
 51
291.7764510989044
  0
ARC
  5
2D4
330
1F
100
AcDbEntity
  8
Make2D$可见线$普通线
100
AcDbCircle
 10
155.9881673845332
 20
3618.189519842501
 30
0.0
 40
3469.661070666519
100
AcDbArc
 50
276.6978623216085
 51
276.6996607500643
  0
LINE
  5
2D5
330
1F
100
AcDbEntity
  8
Make2D$可见线$普通线
100
AcDbLine
 10
560.7756783172564
 20
172.2215837914957
 30
0.0
 11
560.8635355727957
 21
172.2949724059217
 31
0.0
  0
LINE
  5
2D6
330
1F
100
AcDbEntity
  8
Make2D$可见线$普通线
100
AcDbLine
 10
560.8635355727957
 20
172.2949724059217
 30
0.0
 11
560.8808701661368
 21
172.449400884416
 31
0.0
  0
LINE
  5
2D7
330
1F
100
AcDbEntity
  8
Make2D$可见线$普通线
100
AcDbLine
 10
560.8808701661368
 20
172.449400884416
 30
0.0
 11
560.8554636782128
 21
172.5309131780411
 31
0.0
  0
LINE
  5
2D8
330
1F
100
AcDbEntity
  8
Make2D$可见线$普通线
100
AcDbLine
 10
557.55223356172
 20
172.2179804210394
 30
0.0
 11
557.7386116474378
 21
172.3841596659885
 31
0.0
  0
LINE
  5
2D9
330
1F
100
AcDbEntity
  8
Make2D$可见线$普通线
100
AcDbLine
 10
557.7386116474378
 20
172.3841596659885
 30
0.0
 11
557.7839522954456
 21
172.4409569167349
 31
0.0
  0
ARC
  5
2DA
330
1F
100
AcDbEntity
  8
Make2D$可见线$普通线
100
AcDbCircle
 10
24.57537509435653
 20
220.11306379974
 30
0.0
 40
535.3354243607221
100
AcDbArc
 50
354.8909909791388
 51
354.8949489529738
  0
LINE
  5
2DB
330
1F
100
AcDbEntity
  8
Make2D$可见线$普通线
100
AcDbLine
 10
557.7872441968632
 20
172.4777909057412
 30
0.0
 11
557.7765133664473
 21
172.4767895855489
 31
0.0
  0
ARC
  5
2DC
330
1F
100
AcDbEntity
  8
Make2D$可见线$普通线
100
AcDbCircle
 10
1099.618755867289
 20
6331.723654966262
 30
0.0
 40
6183.034446326535
100
AcDbArc
 50
264.9721716779437
 51
264.9725093547982
  0
ARC
  5
2DD
330
1F
100
AcDbEntity
  8
Make2D$可见线$普通线
100
AcDbCircle
 10
551.5430377463281
 20
180.0298627893799
 30
0.0
 40
9.767582596810843
100
AcDbArc
 50
307.6049131040569
 51
309.3802123403186
  0
LINE
  5
2DE
330
1F
100
AcDbEntity
  8
Make2D$可见线$普通线
100
AcDbLine
 10
557.5033446058475
 20
172.291619324233
 30
0.0
 11
557.4758504474029
 21
172.2396903451462
 31
0.0
  0
ARC
  5
2DF
330
1F
100
AcDbEntity
  8
Make2D$可见线$普通线
100
AcDbCircle
 10
657.8750390160767
 20
241.4089362768347
 30
0.0
 40
121.9195704060941
100
AcDbArc
 50
214.5645991800087
 51
214.5811835916647
  0
ARC
  5
2E0
330
1F
100
AcDbEntity
  8
Make2D$可见线$普通线
100
AcDbCircle
 10
191.7883326031204
 20
2977.340751231889
 30
0.0
 40
2828.868500048383
100
AcDbArc
 50
277.4278130864855
 51
277.4289642138693
  0
ARC
  5
2E1
330
1F
100
AcDbEntity
  8
Make2D$可见线$普通线
100
AcDbCircle
 10
-110.4180820755
 20
220.3935242712507
 30
0.0
 40
668.1193537160506
100
AcDbArc
 50
355.8982244350956
 51
355.903093617388
  0
ARC
  5
2E2
330
1F
100
AcDbEntity
  8
Make2D$可见线$普通线
100
AcDbCircle
 10
658.322943692956
 20
242.1649175065038
 30
0.0
 40
123.7014725706735
100
AcDbArc
 50
214.1787416489161
 51
214.185270603626
  0
ARC
  5
2E3
330
1F
100
AcDbEntity
  8
Make2D$可见线$普通线
100
AcDbCircle
 10
213.5087231175729
 20
2589.7559649368
 30
0.0
 40
2441.225916753901
100
AcDbArc
 50
278.0637381269417
 51
278.0645745645393
  0
LINE
  5
2E4
330
1F
100
AcDbEntity
  8
Make2D$可见线$普通线
100
AcDbLine
 10
555.9507819208189
 20
172.6673416146184
 30
0.0
 11
555.891568908481
 21
172.5894872775436
 31
0.0
  0
LINE
  5
2E5
330
1F
100
AcDbEntity
  8
Make2D$可见线$普通线
100
AcDbLine
 10
555.891568908481
 20
172.5894872775436
 30
0.0
 11
555.8090957531998
 21
172.5022333260503
 31
0.0
  0
LINE
  5
2E6
330
1F
100
AcDbEntity
  8
Make2D$可见线$普通线
100
AcDbLine
 10
555.8090957531998
 20
172.5022333260503
 30
0.0
 11
555.784233722958
 21
172.446076977332
 31
0.0
  0
ARC
  5
2E7
330
1F
100
AcDbEntity
  8
Make2D$可见线$普通线
100
AcDbCircle
 10
1753.259166935817
 20
219.7488907114313
 30
0.0
 40
1198.408850042549
100
AcDbArc
 50
182.2621293526928
 51
182.2631824148025
  0
ARC
  5
2E8
330
1F
100
AcDbEntity
  8
Make2D$可见线$普通线
100
AcDbCircle
 10
714.3945351522013
 20
652.7590423125893
 30
0.0
 40
505.8444813421943
100
AcDbArc
 50
251.7264732009755
 51
251.7300982292273
  0
ARC
  5
2E9
330
1F
100
AcDbEntity
  8
Make2D$可见线$普通线
100
AcDbCircle
 10
450.0155175038018
 20
344.4553155111543
 30
0.0
 40
201.9698925719734
100
AcDbArc
 50
301.590207973781
 51
301.5940370578093
  0
LINE
  5
2EA
330
1F
100
AcDbEntity
  8
Make2D$可见线$普通线
100
AcDbLine
 10
555.8269911029035
 20
172.4211050752033
 30
0.0
 11
555.9720139720501
 21
172.5709593542512
 31
0.0
  0
ARC
  5
2EB
330
1F
100
AcDbEntity
  8
Make2D$可见线$普通线
100
AcDbCircle
 10
442.6354654272782
 20
233.9571334964704
 30
0.0
 40
128.8931170073107
100
AcDbArc
 50
331.5588131918753
 51
331.5755385480235
  0
ARC
  5
2EC
330
1F
100
AcDbEntity
  8
Make2D$可见线$普通线
100
AcDbCircle
 10
558.5860157047273
 20
162.0810869611428
 30
0.0
 40
10.881609863283
100
AcDbArc
 50
109.8011826328901
 51
112.4785401948805
  0
LINE
  5
2ED
330
1F
100
AcDbEntity
  8
Make2D$可见线$普通线
100
AcDbLine
 10
554.8997904844665
 20
172.3193083321726
 30
0.0
 11
555.174479130707
 21
172.487876783492
 31
0.0
  0
ARC
  5
2EE
330
1F
100
AcDbEntity
  8
Make2D$可见线$普通线
100
AcDbCircle
 10
455.0126077217365
 20
243.8798540790708
 30
0.0
 40
123.0008735998228
100
AcDbArc
 50
324.5200199232254
 51
324.5387149073428
  0
ARC
  5
2EF
330
1F
100
AcDbEntity
  8
Make2D$可见线$普通线
100
AcDbCircle
 10
659.2121890087361
 20
239.596304089672
 30
0.0
 40
123.7665337191632
100
AcDbArc
 50
212.8094577211039
 51
212.8167409655101
  0
ARC
  5
2F0
330
1F
100
AcDbEntity
  8
Make2D$可见线$普通线
100
AcDbCircle
 10
554.9584777920844
 20
152.9683013920801
 30
0.0
 40
19.56684424056301
100
AcDbArc
 50
89.32425704778841
 51
92.9267806677654
  0
ARC
  5
2F1
330
1F
100
AcDbEntity
  8
Make2D$可见线$普通线
100
AcDbCircle
 10
377.968523780019
 20
775.1530128234979
 30
0.0
 40
627.8151353075388
100
AcDbArc
 50
286.2649128058974
 51
286.2794693901918
  0
ARC
  5
2F2
330
1F
100
AcDbEntity
  8
Make2D$可见线$普通线
100
AcDbCircle
 10
206.7743275065494
 20
2670.54973998076
 30
0.0
 40
2522.07432468406
100
AcDbArc
 50
277.9000086278643
 51
277.908866873116
  0
ARC
  5
2F3
330
1F
100
AcDbEntity
  8
Make2D$可见线$普通线
100
AcDbCircle
 10
555.8073675109101
 20
164.1197902850183
 30
0.0
 40
8.628352055042399
100
AcDbArc
 50
106.0622305162735
 51
111.3854185121599
  0
LINE
  5
2F4
330
1F
100
AcDbEntity
  8
Make2D$可见线$普通线
100
AcDbLine
 10
552.6611267404664
 20
172.154068609806
 30
0.0
 11
552.4020088803366
 21
172.013725390025
 31
0.0
  0
LINE
  5
2F5
330
1F
100
AcDbEntity
  8
Make2D$可见线$普通线
100
AcDbLine
 10
552.4020088803366
 20
172.013725390025
 30
0.0
 11
552.2593385796624
 21
171.9222896834986
 31
0.0
  0
LINE
  5
2F6
330
1F
100
AcDbEntity
  8
Make2D$可见线$普通线
100
AcDbLine
 10
552.2593385796624
 20
171.9222896834986
 30
0.0
 11
552.194575706588
 21
171.8395789052267
 31
0.0
  0
ARC
  5
2F7
330
1F
100
AcDbEntity
  8
Make2D$可见线$普通线
100
AcDbCircle
 10
-278.0221282672287
 20
218.0729305782467
 30
0.0
 40
831.5030356914334
100
AcDbArc
 50
356.8081197523502
 51
356.8125879996038
  0
LINE
  5
2F8
330
1F
100
AcDbEntity
  8
Make2D$可见线$普通线
100
AcDbLine
 10
552.1909676451138
 20
171.7748340762009
 30
0.0
 11
552.2170634407087
 21
171.7226472389679
 31
0.0
  0
ARC
  5
2F9
330
1F
100
AcDbEntity
  8
Make2D$可见线$普通线
100
AcDbCircle
 10
700.496671720364
 20
598.8888139809529
 30
0.0
 40
452.1700744638121
100
AcDbArc
 50
250.856887334246
 51
250.8709908763487
  0
ARC
  5
2FA
330
1F
100
AcDbEntity
  8
Make2D$可见线$普通线
100
AcDbCircle
 10
553.1867415419122
 20
153.9136872663896
 30
0.0
 40
17.79348799310923
100
AcDbArc
 50
91.13938871040592
 51
92.78490416084117
  0
ARC
  5
2FB
330
1F
100
AcDbEntity
  8
Make2D$可见线$普通线
100
AcDbCircle
 10
189.7169393498801
 20
2997.225846595691
 30
0.0
 40
2848.7591790501
100
AcDbArc
 50
277.3231063745179
 51
277.3275068920694
  0
LINE
  5
2FC
330
1F
100
AcDbEntity
  8
Make2D$可见线$普通线
100
AcDbLine
 10
553.0499310369948
 20
171.7315540206926
 30
0.0
 11
553.297140639487
 21
171.7970758551538
 31
0.0
  0
ARC
  5
2FD
330
1F
100
AcDbEntity
  8
Make2D$可见线$普通线
100
AcDbCircle
 10
-362.8986102047945
 20
18333.36332059404
 30
0.0
 40
18184.66120432009
100
AcDbArc
 50
272.8879495407355
 51
272.888303142237
  0
ARC
  5
2FE
330
1F
100
AcDbEntity
  8
Make2D$可见线$普通线
100
AcDbCircle
 10
408.4621506751704
 20
575.2727633396406
 30
0.0
 40
428.7163651190408
100
AcDbArc
 50
289.7608841057902
 51
289.7739568934572
  0
ARC
  5
2FF
330
1F
100
AcDbEntity
  8
Make2D$可见线$普通线
100
AcDbCircle
 10
335.3836546603626
 20
1153.467355442411
 30
0.0
 40
1005.57236615746
100
AcDbArc
 50
282.5275440252064
 51
282.5398595536327
  0
LINE
  5
300
330
1F
100
AcDbEntity
  8
Make2D$可见线$普通线
100
AcDbLine
 10
553.7122713965559
 20
171.8827189012862
 30
0.0
 11
554.1874455160126
 21
172.0340949585095
 31
0.0
  0
ARC
  5
301
330
1F
100
AcDbEntity
  8
Make2D$可见线$普通线
100
AcDbCircle
 10
558.601939717094
 20
162.0421146908586
 30
0.0
 40
10.92370947620382
100
AcDbArc
 50
112.4775624854022
 51
113.8360206711625
  0
LINE
  5
302
330
1F
100
AcDbEntity
  8
Make2D$可见线$普通线
100
AcDbLine
 10
557.9020726796883
 20
174.0109280456347
 30
0.0
 11
558.0150087040336
 21
174.1766350529709
 31
0.0
  0
ARC
  5
303
330
1F
100
AcDbEntity
  8
Make2D$可见线$普通线
100
AcDbCircle
 10
-429.9438039874198
 20
222.7729960564629
 30
0.0
 40
989.1532853291687
100
AcDbArc
 50
357.18396760002
 51
357.1865178225301
  0
LINE
  5
304
330
1F
100
AcDbEntity
  8
Make2D$可见线$普通线
100
AcDbLine
 10
558.017170738711
 20
174.2206089299633
 30
0.0
 11
558.0169858466468
 21
174.2347370299401
 31
0.0
  0
LINE
  5
305
330
1F
100
AcDbEntity
  8
Make2D$可见线$普通线
100
AcDbLine
 10
558.0169858466468
 20
174.2347370299401
 30
0.0
 11
557.9627831105502
 21
174.2332781684994
 31
0.0
  0
ARC
  5
306
330
1F
100
AcDbEntity
  8
Make2D$可见线$普通线
100
AcDbCircle
 10
440.5766601531002
 20
396.4481714427784
 30
0.0
 40
251.3144656717571
100
AcDbArc
 50
297.8269151455924
 51
297.8454768786123
  0
ARC
  5
307
330
1F
100
AcDbEntity
  8
Make2D$可见线$普通线
100
AcDbCircle
 10
459.7403584018978
 20
257.9995941878674
 30
0.0
 40
129.0607336973929
100
AcDbArc
 50
319.4714551552611
 51
319.5081196184268
  0
LINE
  5
308
330
1F
100
AcDbEntity
  8
Make2D$可见线$普通线
100
AcDbLine
 10
557.8371396768026
 20
174.1324701999015
 30
0.0
 11
557.7595904814207
 21
174.0572222374103
 31
0.0
  0
LINE
  5
309
330
1F
100
AcDbEntity
  8
Make2D$可见线$普通线
100
AcDbLine
 10
557.7595904814207
 20
174.0572222374103
 30
0.0
 11
557.5804248018543
 21
173.8288790099616
 31
0.0
  0
LINE
  5
30A
330
1F
100
AcDbEntity
  8
Make2D$可见线$普通线
100
AcDbLine
 10
557.5804248018543
 20
173.8288790099616
 30
0.0
 11
557.4876407979558
 21
173.732609426992
 31
0.0
  0
LINE
  5
30B
330
1F
100
AcDbEntity
  8
Make2D$可见线$普通线
100
AcDbLine
 10
557.4876407979558
 20
173.732609426992
 30
0.0
 11
557.3249727333202
 21
173.5136008216792
 31
0.0
  0
LINE
  5
30C
330
1F
100
AcDbEntity
  8
Make2D$可见线$普通线
100
AcDbLine
 10
557.3249727333202
 20
173.5136008216792
 30
0.0
 11
557.1180628983834
 21
173.2023552196591
 31
0.0
  0
LINE
  5
30D
330
1F
100
AcDbEntity
  8
Make2D$可见线$普通线
100
AcDbLine
 10
557.1180628983834
 20
173.2023552196591
 30
0.0
 11
557.0725171799363
 21
173.1395116371991
 31
0.0
  0
ARC
  5
30E
330
1F
100
AcDbEntity
  8
Make2D$可见线$普通线
100
AcDbCircle
 10
460.8476054885206
 20
264.8176746565661
 30
0.0
 40
132.9064302606401
100
AcDbArc
 50
316.358150332163
 51
316.3861331649406
  0
LINE
  5
30F
330
1F
100
AcDbEntity
  8
Make2D$可见线$普通线
100
AcDbLine
 10
557.0277307722989
 20
173.092527041405
 30
0.0
 11
556.9678472796221
 21
172.9718658727261
 31
0.0
  0
ARC
  5
310
330
1F
100
AcDbEntity
  8
Make2D$可见线$普通线
100
AcDbCircle
 10
879.9321933227213
 20
221.9230934815204
 30
0.0
 40
326.6530139145432
100
AcDbArc
 50
188.6186372697642
 51
188.6293291966234
  0
ARC
  5
311
330
1F
100
AcDbEntity
  8
Make2D$可见线$普通线
100
AcDbCircle
 10
819.5453460136683
 20
1564.117406998213
 30
0.0
 40
1415.766839640112
100
AcDbArc
 50
259.3120375299707
 51
259.3133732612039
  0
LINE
  5
312
330
1F
100
AcDbEntity
  8
Make2D$可见线$普通线
100
AcDbLine
 10
557.0094207828024
 20
172.9054777121952
 30
0.0
 11
557.121610465157
 21
172.9996674790272
 31
0.0
  0
LINE
  5
313
330
1F
100
AcDbEntity
  8
Make2D$可见线$普通线
100
AcDbLine
 10
557.121610465157
 20
172.9996674790272
 30
0.0
 11
557.2607891384057
 21
173.1548919707663
 31
0.0
  0
LINE
  5
314
330
1F
100
AcDbEntity
  8
Make2D$可见线$普通线
100
AcDbLine
 10
557.2607891384057
 20
173.1548919707663
 30
0.0
 11
557.2885437501029
 21
173.2083366184427
 31
0.0
  0
ARC
  5
315
330
1F
100
AcDbEntity
  8
Make2D$可见线$普通线
100
AcDbCircle
 10
452.4794157834145
 20
332.5706784932582
 30
0.0
 40
190.7388510843117
100
AcDbArc
 50
303.3320450609969
 51
303.3496716724418
  0
LINE
  5
316
330
1F
100
AcDbEntity
  8
Make2D$可见线$普通线
100
AcDbLine
 10
557.3375654037895
 20
173.240587891532
 30
0.0
 11
557.4765995131069
 21
173.442797566613
 31
0.0
  0
LINE
  5
317
330
1F
100
AcDbEntity
  8
Make2D$可见线$普通线
100
AcDbLine
 10
557.4765995131069
 20
173.442797566613
 30
0.0
 11
557.7591433110422
 21
173.7929411139418
 31
0.0
  0
LINE
  5
318
330
1F
100
AcDbEntity
  8
Make2D$可见线$普通线
100
AcDbLine
 10
557.7591433110422
 20
173.7929411139418
 30
0.0
 11
557.9020726796883
 21
174.0109280456347
 31
0.0
  0
ARC
  5
319
330
1F
100
AcDbEntity
  8
Make2D$可见线$普通线
100
AcDbCircle
 10
887.1312504369395
 20
2427.477727830725
 30
0.0
 40
2276.883762753372
100
AcDbArc
 50
261.5976698339647
 51
261.6027326080277
  0
LINE
  5
31A
330
1F
100
AcDbEntity
  8
Make2D$可见线$普通线
100
AcDbLine
 10
554.6731108113821
 20
175.0046813222452
 30
0.0
 11
554.6246015686513
 21
175.0037551623757
 31
0.0
  0
ARC
  5
31B
330
1F
100
AcDbEntity
  8
Make2D$可见线$普通线
100
AcDbCircle
 10
703.6352570660738
 20
581.690243722941
 30
0.0
 40
433.1083786790257
100
AcDbArc
 50
249.8830590912321
 51
249.8926399824296
  0
ARC
  5
31C
330
1F
100
AcDbEntity
  8
Make2D$可见线$普通线
100
AcDbCircle
 10
740.4870288355576
 20
840.2770312243749
 30
0.0
 40
690.7401672997266
100
AcDbArc
 50
254.4006726997211
 51
254.4033397864787
  0
ARC
  5
31D
330
1F
100
AcDbEntity
  8
Make2D$可见线$普通线
100
AcDbCircle
 10
1413.285755621901
 20
15447.44435322951
 30
0.0
 40
15296.5840633006
100
AcDbArc
 50
266.782610395668
 51
266.7827517639532
  0
LINE
  5
31E
330
1F
100
AcDbEntity
  8
Make2D$可见线$普通线
100
AcDbLine
 10
554.9094841170764
 20
174.9293154968474
 30
0.0
 11
554.8097699165388
 21
174.9690139929434
 31
0.0
  0
LINE
  5
31F
330
1F
100
AcDbEntity
  8
Make2D$可见线$普通线
100
AcDbLine
 10
554.9393927242867
 20
174.9290612879442
 30
0.0
 11
554.9094841170764
 21
174.9293154968474
 31
0.0
  0
ARC
  5
320
330
1F
100
AcDbEntity
  8
Make2D$可见线$普通线
100
AcDbCircle
 10
675.6566399227921
 20
417.3424212852579
 30
0.0
 40
270.807848624024
100
AcDbArc
 50
243.5275677272376
 51
243.5416876253752
  0
ARC
  5
321
330
1F
100
AcDbEntity
  8
Make2D$可见线$普通线
100
AcDbCircle
 10
876.6418649839239
 20
2273.329813182514
 30
0.0
 40
2122.937724643698
100
AcDbArc
 50
261.2856539580558
 51
261.2868867588963
  0
LINE
  5
322
330
1F
100
AcDbEntity
  8
Make2D$可见线$普通线
100
AcDbLine
 10
555.0737121568156
 20
174.8916117466395
 30
0.0
 11
555.0442872407475
 21
174.892399127694
 31
0.0
  0
LINE
  5
323
330
1F
100
AcDbEntity
  8
Make2D$可见线$普通线
100
AcDbLine
 10
555.2707587691367
 20
174.8017714864307
 30
0.0
 11
555.0737121568156
 21
174.8916117466395
 31
0.0
  0
LINE
  5
324
330
1F
100
AcDbEntity
  8
Make2D$可见线$普通线
100
AcDbLine
 10
555.620693850544
 20
174.5416309318745
 30
0.0
 11
555.2707587691367
 21
174.8017714864307
 31
0.0
  0
LINE
  5
325
330
1F
100
AcDbEntity
  8
Make2D$可见线$普通线
100
AcDbLine
 10
555.7523328664048
 20
174.408415036045
 30
0.0
 11
555.620693850544
 21
174.5416309318745
 31
0.0
  0
LINE
  5
326
330
1F
100
AcDbEntity
  8
Make2D$可见线$普通线
100
AcDbLine
 10
555.8662117442724
 20
174.2583881533191
 30
0.0
 11
555.7523328664048
 21
174.408415036045
 31
0.0
  0
LINE
  5
327
330
1F
100
AcDbEntity
  8
Make2D$可见线$普通线
100
AcDbLine
 10
556.0681018563945
 20
173.8615316498848
 30
0.0
 11
555.8662117442724
 21
174.2583881533191
 31
0.0
  0
LINE
  5
328
330
1F
100
AcDbEntity
  8
Make2D$可见线$普通线
100
AcDbLine
 10
556.1329311001233
 20
173.5955507573183
 30
0.0
 11
556.0681018563945
 21
173.8615316498848
 31
0.0
  0
LINE
  5
329
330
1F
100
AcDbEntity
  8
Make2D$可见线$普通线
100
AcDbLine
 10
556.1480754431755
 20
173.4203365980782
 30
0.0
 11
556.1329311001233
 21
173.5955507573183
 31
0.0
  0
LINE
  5
32A
330
1F
100
AcDbEntity
  8
Make2D$可见线$普通线
100
AcDbLine
 10
556.1146762281235
 20
173.2523610620407
 30
0.0
 11
556.1480754431755
 21
173.4203365980782
 31
0.0
  0
LINE
  5
32B
330
1F
100
AcDbEntity
  8
Make2D$可见线$普通线
100
AcDbLine
 10
556.0490237923293
 20
173.0920953788815
 30
0.0
 11
556.1146762281235
 21
173.2523610620407
 31
0.0
  0
LINE
  5
32C
330
1F
100
AcDbEntity
  8
Make2D$可见线$普通线
100
AcDbLine
 10
555.7756513411836
 20
172.7257522329888
 30
0.0
 11
556.0490237923293
 21
173.0920953788815
 31
0.0
  0
ARC
  5
32D
330
1F
100
AcDbEntity
  8
Make2D$可见线$普通线
100
AcDbCircle
 10
460.5046192445983
 20
269.6486515426152
 30
0.0
 40
135.90665166699
100
AcDbArc
 50
314.4948458191666
 51
314.5075667137714
  0
ARC
  5
32E
330
1F
100
AcDbEntity
  8
Make2D$可见线$普通线
100
AcDbCircle
 10
-3023.575244595613
 20
220.2950732818196
 30
0.0
 40
3579.645740146547
100
AcDbArc
 50
359.2378497013785
 51
359.2382448835119
  0
ARC
  5
32F
330
1F
100
AcDbEntity
  8
Make2D$可见线$普通线
100
AcDbCircle
 10
658.2964872075434
 20
324.3672933907666
 30
0.0
 40
183.0957758372468
100
AcDbArc
 50
235.9407835423334
 51
235.9466173400157
  0
ARC
  5
330
330
1F
100
AcDbEntity
  8
Make2D$可见线$普通线
100
AcDbCircle
 10
346.7423460122244
 20
1040.966888475085
 30
0.0
 40
893.1028180620665
100
AcDbArc
 50
283.5353784995908
 51
283.5376007313775
  0
ARC
  5
331
330
1F
100
AcDbEntity
  8
Make2D$可见线$普通线
100
AcDbCircle
 10
458.3476331398413
 20
293.9344674517891
 30
0.0
 40
155.5659531385162
100
AcDbArc
 50
308.7891651357183
 51
308.8195891047009
  0
LINE
  5
332
330
1F
100
AcDbEntity
  8
Make2D$可见线$普通线
100
AcDbLine
 10
555.9211448345934
 20
172.7842957502019
 30
0.0
 11
555.8672973421457
 21
172.7293484602019
 31
0.0
  0
ARC
  5
333
330
1F
100
AcDbEntity
  8
Make2D$可见线$普通线
100
AcDbCircle
 10
379.1347076004627
 20
776.1967488191278
 30
0.0
 40
628.7766160637624
100
AcDbArc
 50
286.3294117150251
 51
286.3362702482979
  0
ARC
  5
334
330
1F
100
AcDbEntity
  8
Make2D$可见线$普通线
100
AcDbCircle
 10
324.4424158817002
 20
1246.301415340613
 30
0.0
 40
1098.184596506259
100
AcDbArc
 50
282.1721016145852
 51
282.176532246359
  0
ARC
  5
335
330
1F
100
AcDbEntity
  8
Make2D$可见线$普通线
100
AcDbCircle
 10
723.4880624864044
 20
707.2423738926502
 30
0.0
 40
560.0270886703349
100
AcDbArc
 50
252.6063543161637
 51
252.6123933205799
  0
ARC
  5
336
330
1F
100
AcDbEntity
  8
Make2D$可见线$普通线
100
AcDbCircle
 10
655.6709782293917
 20
306.020020572043
 30
0.0
 40
166.2946582985832
100
AcDbArc
 50
233.2327642868529
 51
233.2484443037405
  0
ARC
  5
337
330
1F
100
AcDbEntity
  8
Make2D$可见线$普通线
100
AcDbCircle
 10
797.2910962153325
 20
222.4785157982934
 30
0.0
 40
246.1907247184518
100
AcDbArc
 50
191.6466895530884
 51
191.6524424362811
  0
LINE
  5
338
330
1F
100
AcDbEntity
  8
Make2D$可见线$普通线
100
AcDbLine
 10
556.1366000983837
 20
172.6414778714093
 30
0.0
 11
556.1741668456436
 21
172.754283187533
 31
0.0
  0
LINE
  5
339
330
1F
100
AcDbEntity
  8
Make2D$可见线$普通线
100
AcDbLine
 10
556.0618216646841
 20
172.5108377836316
 30
0.0
 11
556.1366000983837
 21
172.6414778714093
 31
0.0
  0
LINE
  5
33A
330
1F
100
AcDbEntity
  8
Make2D$可见线$普通线
100
AcDbLine
 10
555.930587730823
 20
172.3559222583753
 30
0.0
 11
556.0618216646841
 21
172.5108377836316
 31
0.0
  0
LINE
  5
33B
330
1F
100
AcDbEntity
  8
Make2D$可见线$普通线
100
AcDbLine
 10
555.8430254562613
 20
172.2868938644231
 30
0.0
 11
555.930587730823
 21
172.3559222583753
 31
0.0
  0
LINE
  5
33C
330
1F
100
AcDbEntity
  8
Make2D$可见线$普通线
100
AcDbLine
 10
555.7456743953514
 20
172.2014169855432
 30
0.0
 11
555.8430254562613
 21
172.2868938644231
 31
0.0
  0
LINE
  5
33D
330
1F
100
AcDbEntity
  8
Make2D$可见线$普通线
100
AcDbLine
 10
555.7229569978803
 20
172.1575044021117
 30
0.0
 11
555.7456743953514
 21
172.2014169855432
 31
0.0
  0
ARC
  5
33E
330
1F
100
AcDbEntity
  8
Make2D$可见线$普通线
100
AcDbCircle
 10
164.1625191510173
 20
219.5872829260184
 30
0.0
 40
394.4225657561365
100
AcDbArc
 50
353.0884075344827
 51
353.0934009555218
  0
ARC
  5
33F
330
1F
100
AcDbEntity
  8
Make2D$可见线$普通线
100
AcDbCircle
 10
659.2640798271728
 20
336.286358838313
 30
0.0
 40
194.0904537463981
100
AcDbArc
 50
237.7584555630406
 51
237.7713711250682
  0
ARC
  5
340
330
1F
100
AcDbEntity
  8
Make2D$可见线$普通线
100
AcDbCircle
 10
1034.606928204562
 20
5036.144252018992
 30
0.0
 40
4887.558127118825
100
AcDbArc
 50
264.3775134183451
 51
264.3784328282941
  0
ARC
  5
341
330
1F
100
AcDbEntity
  8
Make2D$可见线$普通线
100
AcDbCircle
 10
430.8409395978298
 20
450.723616677977
 30
0.0
 40
305.382732538087
100
AcDbArc
 50
294.1608263110522
 51
294.1713398013525
  0
ARC
  5
342
330
1F
100
AcDbEntity
  8
Make2D$可见线$普通线
100
AcDbCircle
 10
241.1323049588004
 20
2245.034816689075
 30
0.0
 40
2096.679419625083
100
AcDbArc
 50
278.6338583522133
 51
278.6353189265376
  0
ARC
  5
343
330
1F
100
AcDbEntity
  8
Make2D$可见线$普通线
100
AcDbCircle
 10
415.7274555780461
 20
539.2450506850239
 30
0.0
 40
392.9851359206827
100
AcDbArc
 50
290.9027566145829
 51
290.9159908629965
  0
LINE
  5
344
330
1F
100
AcDbEntity
  8
Make2D$可见线$普通线
100
AcDbLine
 10
556.1773325373878
 20
172.2356340287054
 30
0.0
 11
556.0226443310409
 21
172.1557195034176
 31
0.0
  0
LINE
  5
345
330
1F
100
AcDbEntity
  8
Make2D$可见线$普通线
100
AcDbLine
 10
556.511378353235
 20
172.4385744801845
 30
0.0
 11
556.1773325373878
 21
172.2356340287054
 31
0.0
  0
LINE
  5
346
330
1F
100
AcDbEntity
  8
Make2D$可见线$普通线
100
AcDbLine
 10
556.6324020497992
 20
172.5370723939351
 30
0.0
 11
556.511378353235
 21
172.4385744801845
 31
0.0
  0
LINE
  5
347
330
1F
100
AcDbEntity
  8
Make2D$可见线$普通线
100
AcDbLine
 10
556.7375541265269
 20
172.7580188079414
 30
0.0
 11
556.6324020497992
 21
172.5370723939351
 31
0.0
  0
LINE
  5
348
330
1F
100
AcDbEntity
  8
Make2D$可见线$普通线
100
AcDbLine
 10
556.775547645227
 20
172.8331794616303
 30
0.0
 11
556.7375541265269
 21
172.7580188079414
 31
0.0
  0
LINE
  5
349
330
1F
100
AcDbEntity
  8
Make2D$可见线$普通线
100
AcDbLine
 10
556.7890571607272
 20
172.8985815349973
 30
0.0
 11
556.775547645227
 21
172.8331794616303
 31
0.0
  0
LINE
  5
34A
330
1F
100
AcDbEntity
  8
Make2D$可见线$普通线
100
AcDbLine
 10
556.8608030901966
 20
172.9778266265645
 30
0.0
 11
556.7890571607272
 21
172.8985815349973
 31
0.0
  0
LINE
  5
34B
330
1F
100
AcDbEntity
  8
Make2D$可见线$普通线
100
AcDbLine
 10
556.9292746601825
 20
173.1253145385664
 30
0.0
 11
556.8608030901966
 21
172.9778266265645
 31
0.0
  0
LINE
  5
34C
330
1F
100
AcDbEntity
  8
Make2D$可见线$普通线
100
AcDbLine
 10
557.0427625550473
 20
173.2728672682115
 30
0.0
 11
556.9292746601825
 21
173.1253145385664
 31
0.0
  0
LINE
  5
34D
330
1F
100
AcDbEntity
  8
Make2D$可见线$普通线
100
AcDbLine
 10
557.1166468152534
 20
173.4185401599954
 30
0.0
 11
557.0427625550473
 21
173.2728672682115
 31
0.0
  0
LINE
  5
34E
330
1F
100
AcDbEntity
  8
Make2D$可见线$普通线
100
AcDbLine
 10
557.175095022593
 20
173.4915785778544
 30
0.0
 11
557.1166468152534
 21
173.4185401599954
 31
0.0
  0
LINE
  5
34F
330
1F
100
AcDbEntity
  8
Make2D$可见线$普通线
100
AcDbLine
 10
557.2653190628364
 20
173.6532018952804
 30
0.0
 11
557.175095022593
 21
173.4915785778544
 31
0.0
  0
ARC
  5
350
330
1F
100
AcDbEntity
  8
Make2D$可见线$普通线
100
AcDbCircle
 10
538.862438926376
 20
189.7912136138874
 30
0.0
 40
24.47654835851713
100
AcDbArc
 50
318.7515505285556
 51
320.6055870996919
  0
LINE
  5
351
330
1F
100
AcDbEntity
  8
Make2D$可见线$普通线
100
AcDbLine
 10
558.122271124096
 20
174.5499756469418
 30
0.0
 11
557.7778044839866
 21
174.2570459384443
 31
0.0
  0
LINE
  5
352
330
1F
100
AcDbEntity
  8
Make2D$可见线$普通线
100
AcDbLine
 10
558.2479004040005
 20
174.6446694996493
 30
0.0
 11
558.122271124096
 21
174.5499756469418
 31
0.0
  0
ARC
  5
353
330
1F
100
AcDbEntity
  8
Make2D$可见线$普通线
100
AcDbCircle
 10
378.5792848473406
 20
790.6460310552466
 30
0.0
 40
641.6685194509674
100
AcDbArc
 50
286.2603377263001
 51
286.2668428727355
  0
ARC
  5
354
330
1F
100
AcDbEntity
  8
Make2D$可见线$普通线
100
AcDbCircle
 10
728.14871518606
 20
718.4333259597346
 30
0.0
 40
569.6722220358434
100
AcDbArc
 50
252.6552585884854
 51
252.6611949510439
  0
ARC
  5
355
330
1F
100
AcDbEntity
  8
Make2D$可见线$普通线
100
AcDbCircle
 10
763.3576846548749
 20
225.9849371406579
 30
0.0
 40
211.3143927947227
100
AcDbArc
 50
194.0603333916384
 51
194.0768464214375
  0
ARC
  5
356
330
1F
100
AcDbEntity
  8
Make2D$可见线$普通线
100
AcDbCircle
 10
298.570944517526
 20
224.7119470889169
 30
0.0
 40
264.6087344239774
100
AcDbArc
 50
349.0607216216724
 51
349.0807627800681
  0
LINE
  5
357
330
1F
100
AcDbEntity
  8
Make2D$可见线$普通线
100
AcDbLine
 10
558.2468968573227
 20
174.3164596335272
 30
0.0
 11
558.3714339469528
 21
174.4975265935129
 31
0.0
  0
LINE
  5
358
330
1F
100
AcDbEntity
  8
Make2D$可见线$普通线
100
AcDbLine
 10
558.1184871911571
 20
174.1644480189237
 30
0.0
 11
558.2468968573227
 21
174.3164596335272
 31
0.0
  0
LINE
  5
359
330
1F
100
AcDbEntity
  8
Make2D$可见线$普通线
100
AcDbLine
 10
558.0291316144126
 20
174.0068264861775
 30
0.0
 11
558.1184871911571
 21
174.1644480189237
 31
0.0
  0
ARC
  5
35A
330
1F
100
AcDbEntity
  8
Make2D$可见线$普通线
100
AcDbCircle
 10
456.1569419368859
 20
248.1013039651016
 30
0.0
 40
125.9679904680898
100
AcDbArc
 50
323.9128459435446
 51
323.9705621526275
  0
LINE
  5
35B
330
1F
100
AcDbEntity
  8
Make2D$可见线$普通线
100
AcDbLine
 10
557.824665214994
 20
173.7372912269815
 30
0.0
 11
557.9544417667935
 21
173.9042443808517
 31
0.0
  0
ARC
  5
35C
330
1F
100
AcDbEntity
  8
Make2D$可见线$普通线
100
AcDbCircle
 10
451.4102468826414
 20
242.121097516487
 30
0.0
 40
126.4925823582298
100
AcDbArc
 50
327.2391350980754
 51
327.2744754566858
  0
ARC
  5
35D
330
1F
100
AcDbEntity
  8
Make2D$可见线$普通线
100
AcDbCircle
 10
459.7667063888085
 20
257.1914754291666
 30
0.0
 40
128.7736284649336
100
AcDbArc
 50
319.5322578591887
 51
319.5654867654612
  0
ARC
  5
35E
330
1F
100
AcDbEntity
  8
Make2D$可见线$普通线
100
AcDbCircle
 10
397.2104258354169
 20
227.3783070773883
 30
0.0
 40
169.2877203350833
100
AcDbArc
 50
341.4657998533095
 51
341.4829793689744
  0
ARC
  5
35F
330
1F
100
AcDbEntity
  8
Make2D$可见线$普通线
100
AcDbCircle
 10
586.8757622994108
 20
148.1206117002094
 30
0.0
 40
38.69994432084601
100
AcDbArc
 50
138.8887792841979
 51
139.372288056144
  0
LINE
  5
360
330
1F
100
AcDbEntity
  8
Make2D$可见线$普通线
100
AcDbLine
 10
557.4357929073192
 20
173.1990113823595
 30
0.0
 11
557.5041894762722
 21
173.319746612576
 31
0.0
  0
LINE
  5
361
330
1F
100
AcDbEntity
  8
Make2D$可见线$普通线
100
AcDbLine
 10
557.267782314423
 20
173.0009441446721
 30
0.0
 11
557.4357929073192
 21
173.1990113823595
 31
0.0
  0
LINE
  5
362
330
1F
100
AcDbEntity
  8
Make2D$可见线$普通线
100
AcDbLine
 10
557.134550817948
 20
172.8567931724175
 30
0.0
 11
557.267782314423
 21
173.0009441446721
 31
0.0
  0
LINE
  5
363
330
1F
100
AcDbEntity
  8
Make2D$可见线$普通线
100
AcDbLine
 10
556.7882921594833
 20
172.5137209448516
 30
0.0
 11
557.134550817948
 21
172.8567931724175
 31
0.0
  0
LINE
  5
364
330
1F
100
AcDbEntity
  8
Make2D$可见线$普通线
100
AcDbLine
 10
556.7704716030324
 20
172.4469105101008
 30
0.0
 11
556.7882921594833
 21
172.5137209448516
 31
0.0
  0
LINE
  5
365
330
1F
100
AcDbEntity
  8
Make2D$可见线$普通线
100
AcDbLine
 10
556.7845731101851
 20
172.3144921813197
 30
0.0
 11
556.7704716030324
 21
172.4469105101008
 31
0.0
  0
LINE
  5
366
330
1F
100
AcDbEntity
  8
Make2D$可见线$普通线
100
AcDbLine
 10
556.8663939404421
 20
172.2240131513745
 30
0.0
 11
556.7845731101851
 21
172.3144921813197
 31
0.0
  0
ARC
  5
367
330
1F
100
AcDbEntity
  8
Make2D$可见线$普通线
100
AcDbCircle
 10
721.0297108741959
 20
695.2552096614467
 30
0.0
 40
548.1890432592118
100
AcDbArc
 50
252.5745399609873
 51
252.5867212027152
  0
ARC
  5
368
330
1F
100
AcDbEntity
  8
Make2D$可见线$普通线
100
AcDbCircle
 10
257.528000710722
 20
2038.433844745817
 30
0.0
 40
1890.116245051599
100
AcDbArc
 50
279.1157328234866
 51
279.1204279855892
  0
ARC
  5
369
330
1F
100
AcDbEntity
  8
Make2D$可见线$普通线
100
AcDbCircle
 10
443.9946340595818
 20
385.0300065396265
 30
0.0
 40
241.0197581363665
100
AcDbArc
 50
297.9956840294581
 51
298.0110437042612
  0
ARC
  5
36A
330
1F
100
AcDbEntity
  8
Make2D$可见线$普通线
100
AcDbCircle
 10
107.255440313254
 20
4437.765245152468
 30
0.0
 40
4289.185280800528
100
AcDbArc
 50
276.0213594506606
 51
276.0220491256744
  0
LINE
  5
36B
330
1F
100
AcDbEntity
  8
Make2D$可见线$普通线
100
AcDbLine
 10
557.4426885715028
 20
172.3586431048677
 30
0.0
 11
557.2389174378557
 21
172.2494213216909
 31
0.0
  0
LINE
  5
36C
330
1F
100
AcDbEntity
  8
Make2D$可见线$普通线
100
AcDbLine
 10
557.6656287130145
 20
172.5410479053025
 30
0.0
 11
557.4426885715028
 21
172.3586431048677
 31
0.0
  0
LINE
  5
36D
330
1F
100
AcDbEntity
  8
Make2D$可见线$普通线
100
AcDbLine
 10
557.791996006031
 20
172.6530913392154
 30
0.0
 11
557.6656287130145
 21
172.5410479053025
 31
0.0
  0
ARC
  5
36E
330
1F
100
AcDbEntity
  8
Make2D$可见线$普通线
100
AcDbCircle
 10
405.9011865516512
 20
604.5453660963835
 30
0.0
 40
457.8228423655027
100
AcDbArc
 50
289.3760999377799
 51
289.3878415932476
  0
LINE
  5
36F
330
1F
100
AcDbEntity
  8
Make2D$可见线$普通线
100
AcDbLine
 10
557.9229857314123
 20
172.6847783321098
 30
0.0
 11
557.880500736314
 21
172.6842274747341
 31
0.0
  0
ARC
  5
370
330
1F
100
AcDbEntity
  8
Make2D$可见线$普通线
100
AcDbCircle
 10
666.0488500032212
 20
353.8512351725703
 30
0.0
 40
210.9798274922323
100
AcDbArc
 50
239.1699128594102
 51
239.1932866290804
  0
LINE
  5
371
330
1F
100
AcDbEntity
  8
Make2D$可见线$普通线
100
AcDbLine
 10
558.0236506437049
 20
172.5891121191927
 30
0.0
 11
557.9969014449182
 21
172.6406835443444
 31
0.0
  0
LINE
  5
372
330
1F
100
AcDbEntity
  8
Make2D$可见线$普通线
100
AcDbLine
 10
558.0107366937403
 20
172.5289065415955
 30
0.0
 11
558.0236506437049
 21
172.5891121191927
 31
0.0
  0
ARC
  5
373
330
1F
100
AcDbEntity
  8
Make2D$可见线$普通线
100
AcDbCircle
 10
450.1439411218682
 20
236.5514003751239
 30
0.0
 40
125.4357417310083
100
AcDbArc
 50
329.2885695668159
 51
329.3094743144561
  0
LINE
  5
374
330
1F
100
AcDbEntity
  8
Make2D$可见线$普通线
100
AcDbLine
 10
557.9692017881679
 20
172.3819742118869
 30
0.0
 11
557.9873704803585
 21
172.4895548833763
 31
0.0
  0
LINE
  5
375
330
1F
100
AcDbEntity
  8
Make2D$可见线$普通线
100
AcDbLine
 10
557.9866025407651
 20
172.3291148647903
 30
0.0
 11
557.9692017881679
 21
172.3819742118869
 31
0.0
  0
ARC
  5
376
330
1F
100
AcDbEntity
  8
Make2D$可见线$普通线
100
AcDbCircle
 10
655.3366021468345
 20
298.6656618872958
 30
0.0
 40
159.492775814052
100
AcDbArc
 50
232.3835601157992
 51
232.3989884304277
  0
ARC
  5
377
330
1F
100
AcDbEntity
  8
Make2D$可见线$普通线
100
AcDbCircle
 10
1547.433606900476
 20
20938.006026598
 30
0.0
 40
20789.26078917245
100
AcDbArc
 50
267.2721199149656
 51
267.2723184880311
  0
ARC
  5
378
330
1F
100
AcDbEntity
  8
Make2D$可见线$普通线
100
AcDbCircle
 10
186.5696395755497
 20
3059.584181898567
 30
0.0
 40
2911.089534047012
100
AcDbArc
 50
277.3322754268424
 51
277.333938204501
  0
ARC
  5
379
330
1F
100
AcDbEntity
  8
Make2D$可见线$普通线
100
AcDbCircle
 10
317.1943264557668
 20
1357.726867138204
 30
0.0
 40
1209.663129112605
100
AcDbArc
 50
281.4910107163235
 51
281.4939164415858
  0
ARC
  5
37A
330
1F
100
AcDbEntity
  8
Make2D$可见线$普通线
100
AcDbCircle
 10
432.1717083717573
 20
453.4191533503776
 30
0.0
 40
308.0708860319577
100
AcDbArc
 50
294.155035985448
 51
294.2057561417371
  0
ARC
  5
37B
330
1F
100
AcDbEntity
  8
Make2D$可见线$普通线
100
AcDbCircle
 10
444.9020874115259
 20
384.7531268422497
 30
0.0
 40
240.7913517345523
100
AcDbArc
 50
298.1452225725163
 51
298.1724915431558
  0
LINE
  5
37C
330
1F
100
AcDbEntity
  8
Make2D$可见线$普通线
100
AcDbLine
 10
558.7715560469973
 20
172.6077182405858
 30
0.0
 11
558.5863268070156
 21
172.4882715712419
 31
0.0
  0
ARC
  5
37D
330
1F
100
AcDbEntity
  8
Make2D$可见线$普通线
100
AcDbCircle
 10
450.034314202553
 20
357.7289438620457
 30
0.0
 40
214.6943314098642
100
AcDbArc
 50
300.4292936283339
 51
300.4535241686938
  0
ARC
  5
37E
330
1F
100
AcDbEntity
  8
Make2D$可见线$普通线
100
AcDbCircle
 10
396.0608284067506
 20
677.5850140253901
 30
0.0
 40
530.5241485094954
100
AcDbArc
 50
287.8692347602872
 51
287.8752482785748
  0
LINE
  5
37F
330
1F
100
AcDbEntity
  8
Make2D$可见线$普通线
100
AcDbLine
 10
558.9872332561567
 20
172.7479896359548
 30
0.0
 11
558.9028291063274
 21
172.6708084816323
 31
0.0
  0
ARC
  5
380
330
1F
100
AcDbEntity
  8
Make2D$可见线$普通线
100
AcDbCircle
 10
459.1717151316667
 20
308.1863964368141
 30
0.0
 40
168.2459500113314
100
AcDbArc
 50
306.3895052892685
 51
306.4233368018749
  0
ARC
  5
381
330
1F
100
AcDbEntity
  8
Make2D$可见线$普通线
100
AcDbCircle
 10
444.0155818767648
 20
388.8961966885572
 30
0.0
 40
244.808974635023
100
AcDbArc
 50
298.0320131524773
 51
298.0610765785227
  0
ARC
  5
382
330
1F
100
AcDbEntity
  8
Make2D$可见线$普通线
100
AcDbCircle
 10
459.1632563401736
 20
308.1950014389139
 30
0.0
 40
168.2760333401812
100
AcDbArc
 50
306.4657452372088
 51
306.5114322630008
  0
LINE
  5
383
330
1F
100
AcDbEntity
  8
Make2D$可见线$普通线
100
AcDbLine
 10
559.4368979981167
 20
173.0759053332577
 30
0.0
 11
559.2846639195715
 21
172.9451321560718
 31
0.0
  0
LINE
  5
384
330
1F
100
AcDbEntity
  8
Make2D$可见线$普通线
100
AcDbLine
 10
559.6112654963024
 20
173.2008713786528
 30
0.0
 11
559.4368979981167
 21
173.0759053332577
 31
0.0
  0
LINE
  5
385
330
1F
100
AcDbEntity
  8
Make2D$可见线$普通线
100
AcDbLine
 10
559.7620963654425
 20
173.349799927038
 30
0.0
 11
559.6112654963024
 21
173.2008713786528
 31
0.0
  0
ARC
  5
386
330
1F
100
AcDbEntity
  8
Make2D$可见线$普通线
100
AcDbCircle
 10
463.0159381245715
 20
262.9649249211116
 30
0.0
 40
131.8737644949559
100
AcDbArc
 50
317.1913289408432
 51
317.2203352226482
  0
LINE
  5
387
330
1F
100
AcDbEntity
  8
Make2D$可见线$普通线
100
AcDbLine
 10
560.0088573517831
 20
173.587678209836
 30
0.0
 11
559.8074520817335
 21
173.3987896469377
 31
0.0
  0
LINE
  5
388
330
1F
100
AcDbEntity
  8
Make2D$可见线$普通线
100
AcDbLine
 10
560.192641138032
 20
173.8069209470275
 30
0.0
 11
560.0088573517831
 21
173.587678209836
 31
0.0
  0
LINE
  5
389
330
1F
100
AcDbEntity
  8
Make2D$可见线$普通线
100
AcDbLine
 10
560.3632396621488
 20
173.9732967029876
 30
0.0
 11
560.192641138032
 21
173.8069209470275
 31
0.0
  0
LINE
  5
38A
330
1F
100
AcDbEntity
  8
Make2D$可见线$普通线
100
AcDbLine
 10
560.51481652896
 20
174.147498316674
 30
0.0
 11
560.3632396621488
 21
173.9732967029876
 31
0.0
  0
LINE
  5
38B
330
1F
100
AcDbEntity
  8
Make2D$可见线$普通线
100
AcDbLine
 10
560.803301965962
 20
174.4283145960866
 30
0.0
 11
560.51481652896
 21
174.147498316674
 31
0.0
  0
LINE
  5
38C
330
1F
100
AcDbEntity
  8
Make2D$可见线$普通线
100
AcDbLine
 10
560.9534531250123
 20
174.5939618022192
 30
0.0
 11
560.803301965962
 21
174.4283145960866
 31
0.0
  0
LINE
  5
38D
330
1F
100
AcDbEntity
  8
Make2D$可见线$普通线
100
AcDbLine
 10
561.0549869025252
 20
174.7267177625965
 30
0.0
 11
560.9534531250123
 21
174.5939618022192
 31
0.0
  0
LINE
  5
38E
330
1F
100
AcDbEntity
  8
Make2D$可见线$普通线
100
AcDbLine
 10
561.1316246588844
 20
174.7715683611572
 30
0.0
 11
561.0549869025252
 21
174.7267177625965
 31
0.0
  0
ARC
  5
38F
330
1F
100
AcDbEntity
  8
Make2D$可见线$普通线
100
AcDbCircle
 10
149.9282097597814
 20
3631.153358549048
 30
0.0
 40
3480.756143134295
100
AcDbArc
 50
276.7845514070738
 51
276.7854955923667
  0
ARC
  5
390
330
1F
100
AcDbEntity
  8
Make2D$可见线$普通线
100
AcDbCircle
 10
672.5779351365915
 20
367.4796050014866
 30
0.0
 40
222.5788924753837
100
AcDbArc
 50
239.9702994155751
 51
239.9810114503021
  0
ARC
  5
391
330
1F
100
AcDbEntity
  8
Make2D$可见线$普通线
100
AcDbCircle
 10
672.452023232999
 20
239.2411420732523
 30
0.0
 40
128.5677800755387
100
AcDbArc
 50
210.1028314962666
 51
210.123522770466
  0
LINE
  5
392
330
1F
100
AcDbEntity
  8
Make2D$可见线$普通线
100
AcDbLine
 10
561.2254585000471
 20
174.6401365552151
 30
0.0
 11
561.2479065141903
 21
174.7173596489271
 31
0.0
  0
LINE
  5
393
330
1F
100
AcDbEntity
  8
Make2D$可见线$普通线
100
AcDbLine
 10
561.1668793771128
 20
174.5776225212829
 30
0.0
 11
561.2254585000471
 21
174.6401365552151
 31
0.0
  0
LINE
  5
394
330
1F
100
AcDbEntity
  8
Make2D$可见线$普通线
100
AcDbLine
 10
561.0837900201291
 20
174.5158062382291
 30
0.0
 11
561.1668793771128
 21
174.5776225212829
 31
0.0
  0
LINE
  5
395
330
1F
100
AcDbEntity
  8
Make2D$可见线$普通线
100
AcDbLine
 10
561.0027526529313
 20
174.4295156063964
 30
0.0
 11
561.0837900201291
 21
174.5158062382291
 31
0.0
  0
ARC
  5
396
330
1F
100
AcDbEntity
  8
Make2D$可见线$普通线
100
AcDbCircle
 10
462.3615792133599
 20
255.8059454419661
 30
0.0
 40
127.8757382395856
100
AcDbArc
 50
320.4472478038101
 51
320.4782459999214
  0
LINE
  5
397
330
1F
100
AcDbEntity
  8
Make2D$可见线$普通线
100
AcDbLine
 10
560.7300656631253
 20
174.1626626543246
 30
0.0
 11
560.9587118951628
 21
174.3761606132808
 31
0.0
  0
LINE
  5
398
330
1F
100
AcDbEntity
  8
Make2D$可见线$普通线
100
AcDbLine
 10
560.5746372921483
 20
174.0067960458986
 30
0.0
 11
560.7300656631253
 21
174.1626626543246
 31
0.0
  0
LINE
  5
399
330
1F
100
AcDbEntity
  8
Make2D$可见线$普通线
100
AcDbLine
 10
560.4827161080514
 20
173.9212260637865
 30
0.0
 11
560.5746372921483
 21
174.0067960458986
 31
0.0
  0
LINE
  5
39A
330
1F
100
AcDbEntity
  8
Make2D$可见线$普通线
100
AcDbLine
 10
560.3753435166544
 20
173.7771538094643
 30
0.0
 11
560.4827161080514
 21
173.9212260637865
 31
0.0
  0
LINE
  5
39B
330
1F
100
AcDbEntity
  8
Make2D$可见线$普通线
100
AcDbLine
 10
560.2206633027473
 20
173.6208572830138
 30
0.0
 11
560.3753435166544
 21
173.7771538094643
 31
0.0
  0
LINE
  5
39C
330
1F
100
AcDbEntity
  8
Make2D$可见线$普通线
100
AcDbLine
 10
560.1057793277593
 20
173.5154652836907
 30
0.0
 11
560.2206633027473
 21
173.6208572830138
 31
0.0
  0
LINE
  5
39D
330
1F
100
AcDbEntity
  8
Make2D$可见线$普通线
100
AcDbLine
 10
559.9726280868861
 20
173.328251254106
 30
0.0
 11
560.1057793277593
 21
173.5154652836907
 31
0.0
  0
LINE
  5
39E
330
1F
100
AcDbEntity
  8
Make2D$可见线$普通线
100
AcDbLine
 10
559.8586778830388
 20
173.2029542480031
 30
0.0
 11
559.9726280868861
 21
173.328251254106
 31
0.0
  0
LINE
  5
39F
330
1F
100
AcDbEntity
  8
Make2D$可见线$普通线
100
AcDbLine
 10
559.7384260194902
 20
173.0551634102627
 30
0.0
 11
559.8586778830388
 21
173.2029542480031
 31
0.0
  0
LINE
  5
3A0
330
1F
100
AcDbEntity
  8
Make2D$可见线$普通线
100
AcDbLine
 10
559.6344571300176
 20
172.8943713984219
 30
0.0
 11
559.7384260194902
 21
173.0551634102627
 31
0.0
  0
LINE
  5
3A1
330
1F
100
AcDbEntity
  8
Make2D$可见线$普通线
100
AcDbLine
 10
559.5358992268052
 20
172.8053820558621
 30
0.0
 11
559.6344571300176
 21
172.8943713984219
 31
0.0
  0
LINE
  5
3A2
330
1F
100
AcDbEntity
  8
Make2D$可见线$普通线
100
AcDbLine
 10
559.4133591948403
 20
172.6073878263498
 30
0.0
 11
559.5358992268052
 21
172.8053820558621
 31
0.0
  0
LINE
  5
3A3
330
1F
100
AcDbEntity
  8
Make2D$可见线$普通线
100
AcDbLine
 10
559.2725035362587
 20
172.4652884955939
 30
0.0
 11
559.4133591948403
 21
172.6073878263498
 31
0.0
  0
LINE
  5
3A4
330
1F
100
AcDbEntity
  8
Make2D$可见线$普通线
100
AcDbLine
 10
559.2276039774767
 20
172.3707291219052
 30
0.0
 11
559.2725035362587
 21
172.4652884955939
 31
0.0
  0
ARC
  5
3A5
330
1F
100
AcDbEntity
  8
Make2D$可见线$普通线
100
AcDbCircle
 10
189.3071058531621
 20
220.2247569599138
 30
0.0
 40
373.0029261451738
100
AcDbArc
 50
352.6196880265787
 51
352.6289812742827
  0
ARC
  5
3A6
330
1F
100
AcDbEntity
  8
Make2D$可见线$普通线
100
AcDbCircle
 10
681.6572650836727
 20
229.6251411916603
 30
0.0
 40
135.1882595285158
100
AcDbArc
 50
205.0848512384969
 51
205.100444753514
  0
ARC
  5
3A7
330
1F
100
AcDbEntity
  8
Make2D$可见线$普通线
100
AcDbCircle
 10
719.2069637265068
 20
664.8857087742034
 30
0.0
 40
517.9322591164323
100
AcDbArc
 50
252.0091128197879
 51
252.0163135132183
  0
ARC
  5
3A8
330
1F
100
AcDbEntity
  8
Make2D$可见线$普通线
100
AcDbCircle
 10
311.3297212866605
 20
1432.911208891829
 30
0.0
 40
1284.809791974507
100
AcDbArc
 50
281.1278827646111
 51
281.1321767881931
  0
ARC
  5
3A9
330
1F
100
AcDbEntity
  8
Make2D$可见线$普通线
100
AcDbCircle
 10
164.7293002976505
 20
3439.404623995755
 30
0.0
 40
3290.879614487865
100
AcDbArc
 50
276.8878406273064
 51
276.8895728453606
  0
LINE
  5
3AA
330
1F
100
AcDbEntity
  8
Make2D$可见线$普通线
100
AcDbLine
 10
559.543118811557
 20
172.2876919329765
 30
0.0
 11
559.4906040685311
 21
172.2878293131842
 31
0.0
  0
ARC
  5
3AB
330
1F
100
AcDbEntity
  8
Make2D$可见线$普通线
100
AcDbCircle
 10
443.1420757013809
 20
401.3417405681076
 30
0.0
 40
256.9337658488702
100
AcDbArc
 50
296.9388375513
 51
296.9475220560362
  0
ARC
  5
3AC
330
1F
100
AcDbEntity
  8
Make2D$可见线$普通线
100
AcDbCircle
 10
170.2076707720713
 20
3347.905399012504
 30
0.0
 40
3199.381951880006
100
AcDbArc
 50
276.9903216724243
 51
276.9935159520633
  0
ARC
  5
3AD
330
1F
100
AcDbEntity
  8
Make2D$可见线$普通线
100
AcDbCircle
 10
448.7269334673534
 20
372.6361052358566
 30
0.0
 40
229.0216621488829
100
AcDbArc
 50
298.9988669213467
 51
299.013116703998
  0
ARC
  5
3AE
330
1F
100
AcDbEntity
  8
Make2D$可见线$普通线
100
AcDbCircle
 10
155.2153015481634
 20
3598.960932330481
 30
0.0
 40
3450.409113771137
100
AcDbArc
 50
276.7339022808566
 51
276.7358951696186
  0
ARC
  5
3AF
330
1F
100
AcDbEntity
  8
Make2D$可见线$普通线
100
AcDbCircle
 10
445.8165669312029
 20
388.2602451214105
 30
0.0
 40
244.1917654167419
100
AcDbArc
 50
297.8582466651322
 51
297.8691156632253
  0
ARC
  5
3B0
330
1F
100
AcDbEntity
  8
Make2D$可见线$普通线
100
AcDbCircle
 10
369.6316170235858
 20
889.9384231193795
 30
0.0
 40
742.362381277428
100
AcDbArc
 50
284.8558787159145
 51
284.8653131329294
  0
LINE
  5
3B1
330
1F
100
AcDbEntity
  8
Make2D$可见线$普通线
100
AcDbLine
 10
560.1660277903914
 20
172.4919468300454
 30
0.0
 11
560.0829799580973
 21
172.4217449213878
 31
0.0
  0
LINE
  5
3B2
330
1F
100
AcDbEntity
  8
Make2D$可见线$普通线
100
AcDbLine
 10
560.2514075775523
 20
172.5902467989644
 30
0.0
 11
560.1660277903914
 21
172.4919468300454
 31
0.0
  0
LINE
  5
3B3
330
1F
100
AcDbEntity
  8
Make2D$可见线$普通线
100
AcDbLine
 10
560.3648432399355
 20
172.6729825841413
 30
0.0
 11
560.2514075775523
 21
172.5902467989644
 31
0.0
  0
ARC
  5
3B4
330
1F
100
AcDbEntity
  8
Make2D$可见线$普通线
100
AcDbCircle
 10
400.445581857745
 20
657.6517074970789
 30
0.0
 40
510.6647959074564
100
AcDbArc
 50
288.2497081988725
 51
288.2638518539005
  0
ARC
  5
3B5
330
1F
100
AcDbEntity
  8
Make2D$可见线$普通线
100
AcDbCircle
 10
239.3106968523024
 20
2290.309396882078
 30
0.0
 40
2141.814505595908
100
AcDbArc
 50
278.6242664232063
 51
278.6257070741357
  0
ARC
  5
3B6
330
1F
100
AcDbEntity
  8
Make2D$可见线$普通线
100
AcDbCircle
 10
419.2450233785852
 20
537.1188712783643
 30
0.0
 40
390.8321706794838
100
AcDbArc
 50
291.1934373637564
 51
291.2030173797984
  0
LINE
  5
3B7
330
1F
100
AcDbEntity
  8
Make2D$可见线$普通线
100
AcDbLine
 10
560.6428914045736
 20
172.743522221711
 30
0.0
 11
560.5987284125274
 21
172.7441799080464
 31
0.0
  0
ARC
  5
3B8
330
1F
100
AcDbEntity
  8
Make2D$可见线$普通线
100
AcDbCircle
 10
220.8244958074194
 20
2547.279203160916
 30
0.0
 40
2398.72804670301
100
AcDbArc
 50
278.1442665076196
 51
278.1454105850895
  0
ARC
  5
3B9
330
1F
100
AcDbEntity
  8
Make2D$可见线$普通线
100
AcDbCircle
 10
559.8830736555669
 20
169.0481644597369
 30
0.0
 40
3.789128110551664
100
AcDbArc
 50
74.97818118003639
 51
77.69949250277034
  0
LINE
  5
3BA
330
1F
100
AcDbEntity
  8
Make2D$可见线$普通线
100
AcDbLine
 10
560.9418145432128
 20
172.6467469583441
 30
0.0
 11
560.8651658756336
 21
172.7078074354187
 31
0.0
  0
ARC
  5
3BB
330
1F
100
AcDbEntity
  8
Make2D$可见线$普通线
100
AcDbCircle
 10
678.0676916220254
 20
401.2145989547883
 30
0.0
 40
256.830165766698
100
AcDbArc
 50
242.8678675802474
 51
242.8772076794996
  0
ARC
  5
3BC
330
1F
100
AcDbEntity
  8
Make2D$可见线$普通线
100
AcDbCircle
 10
850.6215580169849
 20
1889.387009535251
 30
0.0
 40
1741.021379232758
100
AcDbArc
 50
260.42354549443
 51
260.4258404524124
  0
LINE
  5
3BD
330
1F
100
AcDbEntity
  8
Make2D$可见线$普通线
100
AcDbLine
 10
561.225477399329
 20
172.548651373354
 30
0.0
 11
561.0478404935436
 21
172.6160565350587
 31
0.0
  0
ARC
  5
3BE
330
1F
100
AcDbEntity
  8
Make2D$可见线$普通线
100
AcDbCircle
 10
681.9385241612456
 20
421.3766337231608
 30
0.0
 40
276.5628399818392
100
AcDbArc
 50
244.1207476404085
 51
244.1466303494598
  0
LINE
  5
3BF
330
1F
100
AcDbEntity
  8
Make2D$可见线$普通线
100
AcDbLine
 10
561.4313388103333
 20
172.3936072170827
 30
0.0
 11
561.3378948899045
 21
172.4941460343381
 31
0.0
  0
ARC
  5
3C0
330
1F
100
AcDbEntity
  8
Make2D$可见线$普通线
100
AcDbCircle
 10
741.0190375590288
 20
804.9971364365991
 30
0.0
 40
657.6009175197673
100
AcDbArc
 50
254.1514633278309
 51
254.1591972951783
  0
ARC
  5
3C1
330
1F
100
AcDbEntity
  8
Make2D$可见线$普通线
100
AcDbCircle
 10
422.9007223580779
 20
525.5823928603324
 30
0.0
 40
379.4388439244486
100
AcDbArc
 50
291.4271817438647
 51
291.4419469955361
  0
LINE
  5
3C2
330
1F
100
AcDbEntity
  8
Make2D$可见线$普通线
100
AcDbLine
 10
561.856367453284
 20
172.5447983052456
 30
0.0
 11
561.6077504801802
 21
172.4051050454782
 31
0.0
  0
ARC
  5
3C3
330
1F
100
AcDbEntity
  8
Make2D$可见线$普通线
100
AcDbCircle
 10
1763.254530376944
 20
30575.71452467176
 30
0.0
 40
30426.8974257338
100
AcDbArc
 50
267.7371027351375
 51
267.7373114480401
  0
LINE
  5
3C4
330
1F
100
AcDbEntity
  8
Make2D$可见线$普通线
100
AcDbLine
 10
562.1419826922343
 20
172.4095599191216
 30
0.0
 11
561.9671179189344
 21
172.5404221410244
 31
0.0
  0
ARC
  5
3C5
330
1F
100
AcDbEntity
  8
Make2D$可见线$普通线
100
AcDbCircle
 10
837.5758826405447
 20
1730.664508976572
 30
0.0
 40
1582.410287979313
100
AcDbArc
 50
259.9760554192935
 51
259.9853494326174
  0
ARC
  5
3C6
330
1F
100
AcDbEntity
  8
Make2D$可见线$普通线
100
AcDbCircle
 10
767.968512601442
 20
1019.012009469612
 30
0.0
 40
871.247321616265
100
AcDbArc
 50
256.3521714324683
 51
256.3589225972746
  0
ARC
  5
3C7
330
1F
100
AcDbEntity
  8
Make2D$可见线$普通线
100
AcDbCircle
 10
1015.811220915227
 20
4487.727403620687
 30
0.0
 40
4339.131084308463
100
AcDbArc
 50
264.0032661442993
 51
264.0063689759347
  0
ARC
  5
3C8
330
1F
100
AcDbEntity
  8
Make2D$可见线$普通线
100
AcDbCircle
 10
-77.03546676464418
 20
8823.732520753634
 30
0.0
 40
8675.039073181542
100
AcDbArc
 50
274.22926821808
 51
274.2308157908892
  0
ARC
  5
3C9
330
1F
100
AcDbEntity
  8
Make2D$可见线$普通线
100
AcDbCircle
 10
1103.716269759551
 20
6335.036994195673
 30
0.0
 40
6186.382672804198
100
AcDbArc
 50
264.9853514952287
 51
264.9870926786785
  0
ARC
  5
3CA
330
1F
100
AcDbEntity
  8
Make2D$可见线$普通线
100
AcDbCircle
 10
-605.5565286456148
 20
29151.6169562251
 30
0.0
 40
29002.85674280442
100
AcDbArc
 50
272.3094290295401
 51
272.3097031287511
  0
ARC
  5
3CB
330
1F
100
AcDbEntity
  8
Make2D$可见线$普通线
100
AcDbCircle
 10
777.3657864330385
 20
1096.372081700725
 30
0.0
 40
948.5235111557795
100
AcDbArc
 50
256.9561900492392
 51
256.9642641850052
  0
ARC
  5
3CC
330
1F
100
AcDbEntity
  8
Make2D$可见线$普通线
100
AcDbCircle
 10
-1393.857578711322
 20
81606.0637445324
 30
0.0
 40
81457.28965941636
100
AcDbArc
 50
271.3768494615574
 51
271.377058813771
  0
ARC
  5
3CD
330
1F
100
AcDbEntity
  8
Make2D$可见线$普通线
100
AcDbCircle
 10
1235.694988685107
 20
9726.029838220431
 30
0.0
 40
9577.333563119912
100
AcDbArc
 50
265.9766208115516
 51
265.9780276284869
  0
ARC
  5
3CE
330
1F
100
AcDbEntity
  8
Make2D$可见线$普通线
100
AcDbCircle
 10
424.8438317772923
 20
529.8572824184237
 30
0.0
 40
383.6793929903889
100
AcDbArc
 50
291.257421133716
 51
291.2697806622419
  0
ARC
  5
3CF
330
1F
100
AcDbEntity
  8
Make2D$可见线$普通线
100
AcDbCircle
 10
214.3988334671515
 20
2722.555930964354
 30
0.0
 40
2574.097619743404
100
AcDbArc
 50
277.8063652185457
 51
277.8088654869967
  0
ARC
  5
3D0
330
1F
100
AcDbEntity
  8
Make2D$可见线$普通线
100
AcDbCircle
 10
762.4402704125158
 20
957.5548675711591
 30
0.0
 40
809.8791481183032
100
AcDbArc
 50
255.8268270704731
 51
255.8304633812963
  0
ARC
  5
3D1
330
1F
100
AcDbEntity
  8
Make2D$可见线$普通线
100
AcDbCircle
 10
753.7725995576384
 20
222.6631553835838
 30
0.0
 40
196.1556142131764
100
AcDbArc
 50
194.8725990859389
 51
194.8788229273686
  0
ARC
  5
3D2
330
1F
100
AcDbEntity
  8
Make2D$可见线$普通线
100
AcDbCircle
 10
454.8725173850167
 20
234.4910365923351
 30
0.0
 40
125.7755304039947
100
AcDbArc
 50
330.3439889473088
 51
330.3632904431039
  0
ARC
  5
3D3
330
1F
100
AcDbEntity
  8
Make2D$可见线$普通线
100
AcDbCircle
 10
420.1842786894056
 20
560.31623169803
 30
0.0
 40
413.9101864359088
100
AcDbArc
 50
290.345061676283
 51
290.3573414730561
  0
ARC
  5
3D4
330
1F
100
AcDbEntity
  8
Make2D$可见线$普通线
100
AcDbCircle
 10
562.7480237262972
 20
196.4640774978173
 30
0.0
 40
24.27368164818785
100
AcDbArc
 50
269.6585330938005
 51
273.168624587872
  0
ARC
  5
3D5
330
1F
100
AcDbEntity
  8
Make2D$可见线$普通线
100
AcDbCircle
 10
1005.527860994198
 20
4313.004032002016
 30
0.0
 40
4164.434669042656
100
AcDbArc
 50
263.8884495787624
 51
263.8945383763371
  0
ARC
  5
3D6
330
1F
100
AcDbEntity
  8
Make2D$可见线$普通线
100
AcDbCircle
 10
767.959294893556
 20
1025.159884323396
 30
0.0
 40
877.3983479010539
100
AcDbArc
 50
256.4209103834962
 51
256.434754435464
  0
ARC
  5
3D7
330
1F
100
AcDbEntity
  8
Make2D$可见线$普通线
100
AcDbCircle
 10
674.5433972125585
 20
381.2216203470615
 30
0.0
 40
237.3373938666111
100
AcDbArc
 50
241.6599284631501
 51
241.6815466396088
  0
ARC
  5
3D8
330
1F
100
AcDbEntity
  8
Make2D$可见线$普通线
100
AcDbCircle
 10
1107.964820675442
 20
6459.435604199894
 30
0.0
 40
6310.776907207498
100
AcDbArc
 50
265.0350885153064
 51
265.0358527797234
  0
ARC
  5
3D9
330
1F
100
AcDbEntity
  8
Make2D$可见线$普通线
100
AcDbCircle
 10
444.7794860989731
 20
404.0520052916229
 30
0.0
 40
259.5845933574092
100
AcDbArc
 50
296.768884712635
 51
296.7936209647974
  0
LINE
  5
3DA
330
1F
100
AcDbEntity
  8
Make2D$可见线$普通线
100
AcDbLine
 10
561.48354327137
 20
172.132981227155
 30
0.0
 11
561.6945030931622
 21
172.2869520377297
 31
0.0
  0
LINE
  5
3DB
330
1F
100
AcDbEntity
  8
Make2D$可见线$普通线
100
AcDbLine
 10
561.4096006441856
 20
172.0688266495968
 30
0.0
 11
561.48354327137
 21
172.132981227155
 31
0.0
  0
ARC
  5
3DC
330
1F
100
AcDbEntity
  8
Make2D$可见线$普通线
100
AcDbCircle
 10
232.2050508576407
 20
2448.502355343944
 30
0.0
 40
2300.114181114485
100
AcDbArc
 50
278.2265793394491
 51
278.2287349399965
  0
ARC
  5
3DD
330
1F
100
AcDbEntity
  8
Make2D$可见线$普通线
100
AcDbCircle
 10
668.0650953408667
 20
353.7460432356083
 30
0.0
 40
210.724421447641
100
AcDbArc
 50
239.5480578892514
 51
239.566116036149
  0
LINE
  5
3DE
330
1F
100
AcDbEntity
  8
Make2D$可见线$普通线
100
AcDbLine
 10
561.257403716261
 20
172.153117832691
 30
0.0
 11
561.2666971273602
 21
172.0900938877481
 31
0.0
  0
LINE
  5
3DF
330
1F
100
AcDbEntity
  8
Make2D$可见线$普通线
100
AcDbLine
 10
561.2931402015818
 20
172.245742203087
 30
0.0
 11
561.257403716261
 21
172.153117832691
 31
0.0
  0
LINE
  5
3E0
330
1F
100
AcDbEntity
  8
Make2D$可见线$普通线
100
AcDbLine
 10
561.2720011505155
 20
172.3120447470443
 30
0.0
 11
561.2931402015818
 21
172.245742203087
 31
0.0
  0
LINE
  5
3E1
330
1F
100
AcDbEntity
  8
Make2D$可见线$普通线
100
AcDbLine
 10
561.1658991622957
 20
172.3943648231997
 30
0.0
 11
561.2720011505155
 21
172.3120447470443
 31
0.0
  0
ARC
  5
3E2
330
1F
100
AcDbEntity
  8
Make2D$可见线$普通线
100
AcDbCircle
 10
559.8254280599683
 20
168.8440780486441
 30
0.0
 40
3.794917516595004
100
AcDbArc
 50
69.31511874245415
 51
71.23655738340643
  0
ARC
  5
3E3
330
1F
100
AcDbEntity
  8
Make2D$可见线$普通线
100
AcDbCircle
 10
437.137947541266
 20
440.0482360916534
 30
0.0
 40
294.9047947602111
100
AcDbArc
 50
294.8387586798556
 51
294.8448951798445
  0
ARC
  5
3E4
330
1F
100
AcDbEntity
  8
Make2D$可见线$普通线
100
AcDbCircle
 10
390.8310649218067
 20
223.926672357536
 30
0.0
 40
177.808674321959
100
AcDbArc
 50
343.1504154775595
 51
343.1628804369905
  0
ARC
  5
3E5
330
1F
100
AcDbEntity
  8
Make2D$可见线$普通线
100
AcDbCircle
 10
4458.442212691486
 20
219.417188576188
 30
0.0
 40
3897.71972140528
100
AcDbArc
 50
180.6913517947918
 51
180.6929963735182
  0
LINE
  5
3E6
330
1F
100
AcDbEntity
  8
Make2D$可见线$普通线
100
AcDbLine
 10
560.9913352823305
 20
172.2204689507452
 30
0.0
 11
561.0075878451182
 21
172.2751512813468
 31
0.0
  0
LINE
  5
3E7
330
1F
100
AcDbEntity
  8
Make2D$可见线$普通线
100
AcDbLine
 10
560.9392344001163
 20
172.1677551990685
 30
0.0
 11
560.9913352823305
 21
172.2204689507452
 31
0.0
  0
ARC
  5
3E8
330
1F
100
AcDbEntity
  8
Make2D$可见线$普通线
100
AcDbCircle
 10
450.8583391623108
 20
369.8034335551309
 30
0.0
 40
226.2248104333777
100
AcDbArc
 50
299.0901780083011
 51
299.1173250648803
  0
ARC
  5
3E9
330
1F
100
AcDbEntity
  8
Make2D$可见线$普通线
100
AcDbCircle
 10
367.5616456479041
 20
921.9836081746228
 30
0.0
 40
774.3776073385549
100
AcDbArc
 50
284.4347015601534
 51
284.453788864838
  0
ARC
  5
3EA
330
1F
100
AcDbEntity
  8
Make2D$可见线$普通线
100
AcDbCircle
 10
-75.39945221100606
 20
8805.186137610137
 30
0.0
 40
8656.52976184737
100
AcDbArc
 50
274.2123342838811
 51
274.2133170228908
  0
ARC
  5
3EB
330
1F
100
AcDbEntity
  8
Make2D$可见线$普通线
100
AcDbCircle
 10
763.1680229287736
 20
1004.968064897415
 30
0.0
 40
857.2421410743054
100
AcDbArc
 50
256.3065581933555
 51
256.32113982297
  0
LINE
  5
3EC
330
1F
100
AcDbEntity
  8
Make2D$可见线$普通线
100
AcDbLine
 10
560.1485123664102
 20
172.1685428062157
 30
0.0
 11
560.2357148956899
 21
172.0919836043902
 31
0.0
  0
LINE
  5
3ED
330
1F
100
AcDbEntity
  8
Make2D$可见线$普通线
100
AcDbLine
 10
560.1239261644938
 20
172.2339037564681
 30
0.0
 11
560.1485123664102
 21
172.1685428062157
 31
0.0
  0
ARC
  5
3EE
330
1F
100
AcDbEntity
  8
Make2D$可见线$普通线
100
AcDbCircle
 10
654.1167234364831
 20
261.7546601383352
 30
0.0
 40
129.8022024551004
100
AcDbArc
 50
223.5848128623384
 51
223.6040357161038
  0
ARC
  5
3EF
330
1F
100
AcDbEntity
  8
Make2D$可见线$普通线
100
AcDbCircle
 10
847.8769174752522
 20
1887.102469117204
 30
0.0
 40
1738.817152841611
100
AcDbArc
 50
260.4722961769012
 51
260.4734248818101
  0
LINE
  5
3F0
330
1F
100
AcDbEntity
  8
Make2D$可见线$普通线
100
AcDbLine
 10
559.7109039920504
 20
172.185971021978
 30
0.0
 11
560.0601154775209
 21
172.2711131220997
 31
0.0
  0
LINE
  5
3F1
330
1F
100
AcDbEntity
  8
Make2D$可见线$普通线
100
AcDbLine
 10
559.6539384994778
 20
172.1861073642123
 30
0.0
 11
559.7109039920504
 21
172.185971021978
 31
0.0
  0
ARC
  5
3F2
330
1F
100
AcDbEntity
  8
Make2D$可见线$普通线
100
AcDbCircle
 10
415.9677584199351
 20
559.6993079274184
 30
0.0
 40
413.2943248540807
100
AcDbArc
 50
290.328394782634
 51
290.3442975591768
  0
ARC
  5
3F3
330
1F
100
AcDbEntity
  8
Make2D$可见线$普通线
100
AcDbCircle
 10
244.9304352046636
 20
2240.54302287083
 30
0.0
 40
2092.187476362303
100
AcDbArc
 50
278.6435307608865
 51
278.648748987365
  0
LINE
  5
3F4
330
1F
100
AcDbEntity
  8
Make2D$可见线$普通线
100
AcDbLine
 10
559.1886852589182
 20
172.1187628288611
 30
0.0
 11
559.3579954019439
 21
172.1175962151706
 31
0.0
  0
ARC
  5
3F5
330
1F
100
AcDbEntity
  8
Make2D$可见线$普通线
100
AcDbCircle
 10
316.1416618058428
 20
1387.848181104971
 30
0.0
 40
1239.786221116918
100
AcDbArc
 50
281.3035808084962
 51
281.3054524468072
  0
ARC
  5
3F6
330
1F
100
AcDbEntity
  8
Make2D$可见线$普通线
100
AcDbCircle
 10
449.5893461902849
 20
367.774693655754
 30
0.0
 40
224.2491057670654
100
AcDbArc
 50
299.237703450478
 51
299.2461197125996
  0
ARC
  5
3F7
330
1F
100
AcDbEntity
  8
Make2D$可见线$普通线
100
AcDbCircle
 10
459.7082839354342
 20
241.4822618735691
 30
0.0
 40
121.2326856464105
100
AcDbArc
 50
325.0721609332473
 51
325.0857376429527
  0
ARC
  5
3F8
330
1F
100
AcDbEntity
  8
Make2D$可见线$普通线
100
AcDbCircle
 10
-119.0941719459698
 20
218.8489335826896
 30
0.0
 40
679.8092574835186
100
AcDbArc
 50
356.0495888076376
 51
356.0543527906963
  0
LINE
  5
3F9
330
1F
100
AcDbEntity
  8
Make2D$可见线$普通线
100
AcDbLine
 10
559.1075285691804
 20
171.880851819642
 30
0.0
 11
559.0998927447964
 21
172.0147881489402
 31
0.0
  0
LINE
  5
3FA
330
1F
100
AcDbEntity
  8
Make2D$可见线$普通线
100
AcDbLine
 10
559.0864223470085
 20
171.7007808144508
 30
0.0
 11
559.1075285691804
 21
171.880851819642
 31
0.0
  0
LINE
  5
3FB
330
1F
100
AcDbEntity
  8
Make2D$可见线$普通线
100
AcDbLine
 10
559.050462246851
 20
171.5199869986882
 30
0.0
 11
559.0864223470085
 21
171.7007808144508
 31
0.0
  0
ARC
  5
3FC
330
1F
100
AcDbEntity
  8
Make2D$可见线$普通线
100
AcDbCircle
 10
466.8206669623975
 20
249.3724253994694
 30
0.0
 40
120.6952248564939
100
AcDbArc
 50
319.8125891170618
 51
319.8318282515411
  0
LINE
  5
3FD
330
1F
100
AcDbEntity
  8
Make2D$可见线$普通线
100
AcDbLine
 10
559.011454494823
 20
171.3692657126771
 30
0.0
 11
559.0243152700638
 21
171.4890218919452
 31
0.0
  0
LINE
  5
3FE
330
1F
100
AcDbEntity
  8
Make2D$可见线$普通线
100
AcDbLine
 10
558.985707347142
 20
171.316537767018
 30
0.0
 11
559.011454494823
 21
171.3692657126771
 31
0.0
  0
LINE
  5
3FF
330
1F
100
AcDbEntity
  8
Make2D$可见线$普通线
100
AcDbLine
 10
558.9258602246246
 20
171.1649256741447
 30
0.0
 11
558.985707347142
 21
171.316537767018
 31
0.0
  0
LINE
  5
400
330
1F
100
AcDbEntity
  8
Make2D$可见线$普通线
100
AcDbLine
 10
558.8790329639328
 20
171.0274262645834
 30
0.0
 11
558.9258602246246
 21
171.1649256741447
 31
0.0
  0
LINE
  5
401
330
1F
100
AcDbEntity
  8
Make2D$可见线$普通线
100
AcDbLine
 10
558.8194636209345
 20
170.9230868940452
 30
0.0
 11
558.8790329639328
 21
171.0274262645834
 31
0.0
  0
LINE
  5
402
330
1F
100
AcDbEntity
  8
Make2D$可见线$普通线
100
AcDbLine
 10
558.7558338369206
 20
170.7874084751762
 30
0.0
 11
558.8194636209345
 21
170.9230868940452
 31
0.0
  0
LINE
  5
403
330
1F
100
AcDbEntity
  8
Make2D$可见线$普通线
100
AcDbLine
 10
558.6657494380725
 20
170.6763312030765
 30
0.0
 11
558.7558338369206
 21
170.7874084751762
 31
0.0
  0
LINE
  5
404
330
1F
100
AcDbEntity
  8
Make2D$可见线$普通线
100
AcDbLine
 10
558.6366987285206
 20
170.5935445950576
 30
0.0
 11
558.6657494380725
 21
170.6763312030765
 31
0.0
  0
LINE
  5
405
330
1F
100
AcDbEntity
  8
Make2D$可见线$普通线
100
AcDbLine
 10
558.522263586637
 20
170.4255251729308
 30
0.0
 11
558.6366987285206
 21
170.5935445950576
 31
0.0
  0
LINE
  5
406
330
1F
100
AcDbEntity
  8
Make2D$可见线$普通线
100
AcDbLine
 10
558.353417561841
 20
170.2137264192675
 30
0.0
 11
558.522263586637
 21
170.4255251729308
 31
0.0
  0
LINE
  5
407
330
1F
100
AcDbEntity
  8
Make2D$可见线$普通线
100
AcDbLine
 10
558.324751211688
 20
170.1660241681842
 30
0.0
 11
558.353417561841
 21
170.2137264192675
 31
0.0
  0
LINE
  5
408
330
1F
100
AcDbEntity
  8
Make2D$可见线$普通线
100
AcDbLine
 10
558.304633684362
 20
170.1253913315667
 30
0.0
 11
558.324751211688
 21
170.1660241681842
 31
0.0
  0
LINE
  5
409
330
1F
100
AcDbEntity
  8
Make2D$可见线$普通线
100
AcDbLine
 10
558.1026168538795
 20
169.9061257469596
 30
0.0
 11
558.304633684362
 21
170.1253913315667
 31
0.0
  0
LINE
  5
40A
330
1F
100
AcDbEntity
  8
Make2D$可见线$普通线
100
AcDbLine
 10
557.8555920146198
 20
169.6906443805271
 30
0.0
 11
558.1026168538795
 21
169.9061257469596
 31
0.0
  0
LINE
  5
40B
330
1F
100
AcDbEntity
  8
Make2D$可见线$普通线
100
AcDbLine
 10
557.7061223491991
 20
169.6082779774163
 30
0.0
 11
557.8555920146198
 21
169.6906443805271
 31
0.0
  0
LINE
  5
40C
330
1F
100
AcDbEntity
  8
Make2D$可见线$普通线
100
AcDbLine
 10
557.6075455516736
 20
169.5748653306329
 30
0.0
 11
557.7061223491991
 21
169.6082779774163
 31
0.0
  0
LINE
  5
40D
330
1F
100
AcDbEntity
  8
Make2D$可见线$普通线
100
AcDbLine
 10
557.5289811337761
 20
169.5755124700607
 30
0.0
 11
557.6075455516736
 21
169.5748653306329
 31
0.0
  0
LINE
  5
40E
330
1F
100
AcDbEntity
  8
Make2D$可见线$普通线
100
AcDbLine
 10
557.4675202391725
 20
169.6165423070469
 30
0.0
 11
557.5289811337761
 21
169.5755124700607
 31
0.0
  0
LINE
  5
40F
330
1F
100
AcDbEntity
  8
Make2D$可见线$普通线
100
AcDbLine
 10
557.410540181723
 20
169.7017810273238
 30
0.0
 11
557.4675202391725
 21
169.6165423070469
 31
0.0
  0
LINE
  5
410
330
1F
100
AcDbEntity
  8
Make2D$可见线$普通线
100
AcDbLine
 10
557.3970508810229
 20
169.805616403475
 30
0.0
 11
557.410540181723
 21
169.7017810273238
 31
0.0
  0
ARC
  5
411
330
1F
100
AcDbEntity
  8
Make2D$可见线$普通线
100
AcDbCircle
 10
136.8255566794987
 20
210.4692209287866
 30
0.0
 40
422.5327330135426
100
AcDbArc
 50
354.4774352107262
 51
354.4808925272786
  0
LINE
  5
412
330
1F
100
AcDbEntity
  8
Make2D$可见线$普通线
100
AcDbLine
 10
557.3919017819015
 20
169.8872647125361
 30
0.0
 11
557.3995038205645
 21
169.8309944163315
 31
0.0
  0
LINE
  5
413
330
1F
100
AcDbEntity
  8
Make2D$可见线$普通线
100
AcDbLine
 10
557.4144887914925
 20
169.949231410763
 30
0.0
 11
557.3919017819015
 21
169.8872647125361
 31
0.0
  0
LINE
  5
414
330
1F
100
AcDbEntity
  8
Make2D$可见线$普通线
100
AcDbLine
 10
557.4779133855309
 20
170.1558808290238
 30
0.0
 11
557.4144887914925
 21
169.949231410763
 31
0.0
  0
LINE
  5
415
330
1F
100
AcDbEntity
  8
Make2D$可见线$普通线
100
AcDbLine
 10
557.5011797743017
 20
170.1913304131201
 30
0.0
 11
557.4779133855309
 21
170.1558808290238
 31
0.0
  0
LINE
  5
416
330
1F
100
AcDbEntity
  8
Make2D$可见线$普通线
100
AcDbLine
 10
557.5047217391839
 20
170.2557422402411
 30
0.0
 11
557.5011797743017
 21
170.1913304131201
 31
0.0
  0
LINE
  5
417
330
1F
100
AcDbEntity
  8
Make2D$可见线$普通线
100
AcDbLine
 10
557.5868333151891
 20
170.3892318273915
 30
0.0
 11
557.5047217391839
 21
170.2557422402411
 31
0.0
  0
LINE
  5
418
330
1F
100
AcDbEntity
  8
Make2D$可见线$普通线
100
AcDbLine
 10
557.6001039981912
 20
170.4356546908241
 30
0.0
 11
557.5868333151891
 21
170.3892318273915
 31
0.0
  0
LINE
  5
419
330
1F
100
AcDbEntity
  8
Make2D$可见线$普通线
100
AcDbLine
 10
557.70672263802
 20
170.5523311846379
 30
0.0
 11
557.6001039981912
 21
170.4356546908241
 31
0.0
  0
LINE
  5
41A
330
1F
100
AcDbEntity
  8
Make2D$可见线$普通线
100
AcDbLine
 10
557.7577152779438
 20
170.6456094966188
 30
0.0
 11
557.70672263802
 21
170.5523311846379
 31
0.0
  0
LINE
  5
41B
330
1F
100
AcDbEntity
  8
Make2D$可见线$普通线
100
AcDbLine
 10
557.8728019378852
 20
170.813015695222
 30
0.0
 11
557.7577152779438
 21
170.6456094966188
 31
0.0
  0
LINE
  5
41C
330
1F
100
AcDbEntity
  8
Make2D$可见线$普通线
100
AcDbLine
 10
557.9083953755749
 20
170.8817547949392
 30
0.0
 11
557.8728019378852
 21
170.813015695222
 31
0.0
  0
LINE
  5
41D
330
1F
100
AcDbEntity
  8
Make2D$可见线$普通线
100
AcDbLine
 10
558.1861164174936
 20
171.2202164518546
 30
0.0
 11
557.9083953755749
 21
170.8817547949392
 31
0.0
  0
LINE
  5
41E
330
1F
100
AcDbEntity
  8
Make2D$可见线$普通线
100
AcDbLine
 10
558.2760603737521
 20
171.366735213221
 30
0.0
 11
558.1861164174936
 21
171.2202164518546
 31
0.0
  0
LINE
  5
41F
330
1F
100
AcDbEntity
  8
Make2D$可见线$普通线
100
AcDbLine
 10
558.3882375538193
 20
171.4802830242076
 30
0.0
 11
558.2760603737521
 21
171.366735213221
 31
0.0
  0
LINE
  5
420
330
1F
100
AcDbEntity
  8
Make2D$可见线$普通线
100
AcDbLine
 10
558.4649612531651
 20
171.6111910040378
 30
0.0
 11
558.3882375538193
 21
171.4802830242076
 31
0.0
  0
LINE
  5
421
330
1F
100
AcDbEntity
  8
Make2D$可见线$普通线
100
AcDbLine
 10
558.6065251544036
 20
171.7764484587213
 30
0.0
 11
558.4649612531651
 21
171.6111910040378
 31
0.0
  0
LINE
  5
422
330
1F
100
AcDbEntity
  8
Make2D$可见线$普通线
100
AcDbLine
 10
558.6987842066986
 20
171.9134516749033
 30
0.0
 11
558.6065251544036
 21
171.7764484587213
 31
0.0
  0
LINE
  5
423
330
1F
100
AcDbEntity
  8
Make2D$可见线$普通线
100
AcDbLine
 10
558.8536806590195
 20
172.0769551556199
 30
0.0
 11
558.6987842066986
 21
171.9134516749033
 31
0.0
  0
LINE
  5
424
330
1F
100
AcDbEntity
  8
Make2D$可见线$普通线
100
AcDbLine
 10
558.8893703698169
 20
172.1363098025826
 30
0.0
 11
558.8536806590195
 21
172.0769551556199
 31
0.0
  0
ARC
  5
425
330
1F
100
AcDbEntity
  8
Make2D$可见线$普通线
100
AcDbCircle
 10
-12099.37020838335
 20
218.984990778939
 30
0.0
 40
12658.34627279589
100
AcDbArc
 50
359.7879471958058
 51
359.7882604449518
  0
LINE
  5
426
330
1F
100
AcDbEntity
  8
Make2D$可见线$普通线
100
AcDbLine
 10
558.8566291498322
 20
172.2556962460749
 30
0.0
 11
558.8896263131016
 21
172.205515406854
 31
0.0
  0
ARC
  5
427
330
1F
100
AcDbEntity
  8
Make2D$可见线$普通线
100
AcDbCircle
 10
835.8124937573334
 20
220.716894591981
 30
0.0
 40
281.1637222075597
100
AcDbArc
 50
189.9146300951238
 51
189.9250254756163
  0
ARC
  5
428
330
1F
100
AcDbEntity
  8
Make2D$可见线$普通线
100
AcDbCircle
 10
330.8723529218372
 20
221.5940523210738
 30
0.0
 40
233.2426647806313
100
AcDbArc
 50
347.8004655751481
 51
347.810171396173
  0
ARC
  5
429
330
1F
100
AcDbEntity
  8
Make2D$可见线$普通线
100
AcDbCircle
 10
464.6209356558088
 20
267.3560481790645
 30
0.0
 40
133.8187747537022
100
AcDbArc
 50
314.7649919283261
 51
314.7821766613709
  0
ARC
  5
42A
330
1F
100
AcDbEntity
  8
Make2D$可见线$普通线
100
AcDbCircle
 10
-75.03991971604034
 20
8649.043271200979
 30
0.0
 40
8500.341293243911
100
AcDbArc
 50
274.2768819413448
 51
274.2773633176826
  0
ARC
  5
42B
330
1F
100
AcDbEntity
  8
Make2D$可见线$普通线
100
AcDbCircle
 10
2090.828178373953
 20
49890.37438415526
 30
0.0
 40
49741.59005518925
100
AcDbArc
 50
268.2352052635404
 51
268.2352991897869
  0
ARC
  5
42C
330
1F
100
AcDbEntity
  8
Make2D$可见线$普通线
100
AcDbCircle
 10
442.6252240660993
 20
400.3319034022015
 30
0.0
 40
255.9606394387626
100
AcDbArc
 50
297.0523879304484
 51
297.0678483834669
  0
LINE
  5
42D
330
1F
100
AcDbEntity
  8
Make2D$可见线$普通线
100
AcDbLine
 10
559.1598098865593
 20
172.4912166966419
 30
0.0
 11
559.0989077815855
 21
172.4070694247582
 31
0.0
  0
LINE
  5
42E
330
1F
100
AcDbEntity
  8
Make2D$可见线$普通线
100
AcDbLine
 10
559.3174520403769
 20
172.7275907902775
 30
0.0
 11
559.1598098865593
 21
172.4912166966419
 31
0.0
  0
LINE
  5
42F
330
1F
100
AcDbEntity
  8
Make2D$可见线$普通线
100
AcDbLine
 10
559.4192988670095
 20
172.8234111176627
 30
0.0
 11
559.3174520403769
 21
172.7275907902775
 31
0.0
  0
ARC
  5
430
330
1F
100
AcDbEntity
  8
Make2D$可见线$普通线
100
AcDbCircle
 10
-5170.271802113323
 20
220.6321657900906
 30
0.0
 40
5729.890556518209
100
AcDbArc
 50
359.5219329891327
 51
359.5224387736178
  0
ARC
  5
431
330
1F
100
AcDbEntity
  8
Make2D$可见线$普通线
100
AcDbCircle
 10
1015.524251309496
 20
4476.094247289531
 30
0.0
 40
4327.324337362349
100
AcDbArc
 50
263.9491438666724
 51
263.9497267252765
  0
ARC
  5
432
330
1F
100
AcDbEntity
  8
Make2D$可见线$普通线
100
AcDbCircle
 10
442.1423501686232
 20
399.6861219909504
 30
0.0
 40
255.3142257322646
100
AcDbArc
 50
297.3078043132946
 51
297.3338050217812
  0
LINE
  5
433
330
1F
100
AcDbEntity
  8
Make2D$可见线$普通线
100
AcDbLine
 10
559.1177782135843
 20
172.7075064528336
 30
0.0
 11
559.2730080507947
 21
172.8254536384229
 31
0.0
  0
LINE
  5
434
330
1F
100
AcDbEntity
  8
Make2D$可见线$普通线
100
AcDbLine
 10
558.9548247624373
 20
172.5740044195447
 30
0.0
 11
559.1177782135843
 21
172.7075064528336
 31
0.0
  0
ARC
  5
435
330
1F
100
AcDbEntity
  8
Make2D$可见线$普通线
100
AcDbCircle
 10
445.7454427865179
 20
381.3819686245347
 30
0.0
 40
237.5229043330391
100
AcDbArc
 50
298.4167467611446
 51
298.4652140457046
  0
LINE
  5
436
330
1F
100
AcDbEntity
  8
Make2D$可见线$普通线
100
AcDbLine
 10
558.6184552970578
 20
172.370273618626
 30
0.0
 11
558.7781507623265
 21
172.4783137726926
 31
0.0
  0
LINE
  5
437
330
1F
100
AcDbEntity
  8
Make2D$可见线$普通线
100
AcDbLine
 10
558.2894913345756
 20
172.1952806638745
 30
0.0
 11
558.6184552970578
 21
172.370273618626
 31
0.0
  0
ARC
  5
438
330
1F
100
AcDbEntity
  8
Make2D$可见线$普通线
100
AcDbCircle
 10
367.9329422929353
 20
895.409878526511
 30
0.0
 40
747.8468896269192
100
AcDbArc
 50
284.7331316416751
 51
284.746298157793
  0
ARC
  5
439
330
1F
100
AcDbEntity
  8
Make2D$可见线$普通线
100
AcDbCircle
 10
161.7175542973961
 20
3483.656259994712
 30
0.0
 40
3335.146310681657
100
AcDbArc
 50
276.8235136875995
 51
276.8261457787383
  0
ARC
  5
43A
330
1F
100
AcDbEntity
  8
Make2D$可见线$普通线
100
AcDbCircle
 10
704.6014430617421
 20
579.2241062936597
 30
0.0
 40
432.693104597042
100
AcDbArc
 50
250.1768550357085
 51
250.1914549386125
  0
LINE
  5
43B
330
1F
100
AcDbEntity
  8
Make2D$可见线$普通线
100
AcDbLine
 10
557.804821713735
 20
172.2243765220072
 30
0.0
 11
557.8674371515865
 21
172.1707261635038
 31
0.0
  0
ARC
  5
43C
330
1F
100
AcDbEntity
  8
Make2D$可见线$普通线
100
AcDbCircle
 10
704.1215066689996
 20
575.5681636366519
 30
0.0
 40
429.062679454042
100
AcDbArc
 50
250.0549213155444
 51
250.061292295587
  0
ARC
  5
43D
330
1F
100
AcDbEntity
  8
Make2D$可见线$普通线
100
AcDbCircle
 10
348.4675827690783
 20
1055.975968494943
 30
0.0
 40
908.1802795491363
100
AcDbArc
 50
283.3190971317818
 51
283.3237121048666
  0
ARC
  5
43E
330
1F
100
AcDbEntity
  8
Make2D$可见线$普通线
100
AcDbCircle
 10
563.8779816260072
 20
164.83830224861
 30
0.0
 40
9.635952000990768
100
AcDbArc
 50
129.9636876515751
 51
131.0277519044394
  0
ARC
  5
43F
330
1F
100
AcDbEntity
  8
Make2D$可见线$普通线
100
AcDbCircle
 10
442.6684744239014
 20
395.7382725416644
 30
0.0
 40
251.4141431246455
100
AcDbArc
 50
297.1751621204693
 51
297.1906092353541
  0
ARC
  5
440
330
1F
100
AcDbEntity
  8
Make2D$可见线$普通线
100
AcDbCircle
 10
-214.4129718324116
 20
12898.78276825904
 30
0.0
 40
12750.09361976278
100
AcDbArc
 50
273.4705547822049
 51
273.4708750834111
  0
LINE
  5
441
330
1F
100
AcDbEntity
  8
Make2D$可见线$普通线
100
AcDbLine
 10
557.2978474296191
 20
172.1094007320077
 30
0.0
 11
557.4212646710039
 21
172.0723046680367
 31
0.0
  0
ARC
  5
442
330
1F
100
AcDbEntity
  8
Make2D$可见线$普通线
100
AcDbCircle
 10
-186.7133079904835
 20
11977.20104093988
 30
0.0
 40
11828.51390636606
100
AcDbArc
 50
273.6059918934424
 51
273.6062736936567
  0
ARC
  5
443
330
1F
100
AcDbEntity
  8
Make2D$可见线$普通线
100
AcDbCircle
 10
555.7219051502009
 20
176.8469101990721
 30
0.0
 40
4.978216753872125
100
AcDbArc
 50
285.3143989279021
 51
287.7524197874652
  0
ARC
  5
444
330
1F
100
AcDbEntity
  8
Make2D$可见线$普通线
100
AcDbCircle
 10
1045.993814066914
 20
5256.770314085877
 30
0.0
 40
5108.180285210421
100
AcDbArc
 50
264.5062120488185
 51
264.5072150651799
  0
ARC
  5
445
330
1F
100
AcDbEntity
  8
Make2D$可见线$普通线
100
AcDbCircle
 10
730.5011149372542
 20
767.7835735772173
 30
0.0
 40
620.4953482744492
100
AcDbArc
 50
253.7473946852287
 51
253.7576176800956
  0
LINE
  5
446
330
1F
100
AcDbEntity
  8
Make2D$可见线$普通线
100
AcDbLine
 10
556.7552347425247
 20
172.1541393268957
 30
0.0
 11
556.8414260383627
 21
172.0850007387639
 31
0.0
  0
LINE
  5
447
330
1F
100
AcDbEntity
  8
Make2D$可见线$普通线
100
AcDbLine
 10
556.7068694787819
 20
172.2014235469447
 30
0.0
 11
556.7552347425247
 21
172.1541393268957
 31
0.0
  0
LINE
  5
448
330
1F
100
AcDbEntity
  8
Make2D$可见线$普通线
100
AcDbLine
 10
556.6588993668979
 20
172.281478506009
 30
0.0
 11
556.7068694787819
 21
172.2014235469447
 31
0.0
  0
ARC
  5
449
330
1F
100
AcDbEntity
  8
Make2D$可见线$普通线
100
AcDbCircle
 10
650.7661652910183
 20
270.0347940858809
 30
0.0
 40
135.6904130975035
100
AcDbArc
 50
226.0660440698765
 51
226.0886973932774
  0
ARC
  5
44A
330
1F
100
AcDbEntity
  8
Make2D$可见线$普通线
100
AcDbCircle
 10
770.8546424571698
 20
1098.037280269118
 30
0.0
 40
950.184862544347
100
AcDbArc
 50
256.9671550127081
 51
256.9697175629278
  0
ARC
  5
44B
330
1F
100
AcDbEntity
  8
Make2D$可见线$普通线
100
AcDbCircle
 10
322.8260768199738
 20
1283.846612719323
 30
0.0
 40
1135.831577908942
100
AcDbArc
 50
281.8745002755269
 51
281.8762641570737
  0
ARC
  5
44C
330
1F
100
AcDbEntity
  8
Make2D$可见线$普通线
100
AcDbCircle
 10
446.7638218434001
 20
366.3237819412399
 30
0.0
 40
222.9100161454252
100
AcDbArc
 50
299.4759643715942
 51
299.5043326559239
  0
LINE
  5
44D
330
1F
100
AcDbEntity
  8
Make2D$可见线$普通线
100
AcDbLine
 10
556.3095330481459
 20
172.1601605226662
 30
0.0
 11
556.4485681394438
 21
172.2667497885085
 31
0.0
  0
LINE
  5
44E
330
1F
100
AcDbEntity
  8
Make2D$可见线$普通线
100
AcDbLine
 10
556.059068054929
 20
172.0369945678931
 30
0.0
 11
556.3095330481459
 21
172.1601605226662
 31
0.0
  0
LINE
  5
44F
330
1F
100
AcDbEntity
  8
Make2D$可见线$普通线
100
AcDbLine
 10
555.8557725132338
 20
171.9561129854407
 30
0.0
 11
556.059068054929
 21
172.0369945678931
 31
0.0
  0
LINE
  5
450
330
1F
100
AcDbEntity
  8
Make2D$可见线$普通线
100
AcDbLine
 10
555.769086823666
 20
171.9580918072189
 30
0.0
 11
555.8557725132338
 21
171.9561129854407
 31
0.0
  0
ARC
  5
451
330
1F
100
AcDbEntity
  8
Make2D$可见线$普通线
100
AcDbCircle
 10
767.8803974426729
 20
1092.188816508487
 30
0.0
 40
944.3599921516868
100
AcDbArc
 50
257.0135445127639
 51
257.0201405441008
  0
ARC
  5
452
330
1F
100
AcDbEntity
  8
Make2D$可见线$普通线
100
AcDbCircle
 10
553.7430938381129
 20
166.6133755306483
 30
0.0
 40
5.702130174755764
100
AcDbArc
 50
70.32247410350544
 51
71.84844882507524
  0
ARC
  5
453
330
1F
100
AcDbEntity
  8
Make2D$可见线$普通线
100
AcDbCircle
 10
392.3711521290715
 20
692.5641705878412
 30
0.0
 40
545.5010416774846
100
AcDbArc
 50
287.3902618132664
 51
287.4023413489105
  0
LINE
  5
454
330
1F
100
AcDbEntity
  8
Make2D$可见线$普通线
100
AcDbLine
 10
555.0339382523799
 20
171.8240390337912
 30
0.0
 11
555.4097408476828
 21
171.9973592563231
 31
0.0
  0
ARC
  5
455
330
1F
100
AcDbEntity
  8
Make2D$可见线$普通线
100
AcDbCircle
 10
66.01142451180954
 20
5306.352850041044
 30
0.0
 40
5157.763966100882
100
AcDbArc
 50
275.4389487282387
 51
275.4405506578594
  0
ARC
  5
456
330
1F
100
AcDbEntity
  8
Make2D$可见线$普通线
100
AcDbCircle
 10
686.8563915279587
 20
495.455690961863
 30
0.0
 40
349.5158400112563
100
AcDbArc
 50
247.8007185679755
 51
247.8168776244506
  0
LINE
  5
457
330
1F
100
AcDbEntity
  8
Make2D$可见线$普通线
100
AcDbLine
 10
554.7800327796269
 20
171.910356056472
 30
0.0
 11
554.7991100133006
 21
171.8475995646724
 31
0.0
  0
LINE
  5
458
330
1F
100
AcDbEntity
  8
Make2D$可见线$普通线
100
AcDbLine
 10
554.9033420164081
 20
172.0337320712216
 30
0.0
 11
554.7800327796269
 21
171.910356056472
 31
0.0
  0
LINE
  5
459
330
1F
100
AcDbEntity
  8
Make2D$可见线$普通线
100
AcDbLine
 10
555.0230060653125
 20
172.1037228258319
 30
0.0
 11
554.9033420164081
 21
172.0337320712216
 31
0.0
  0
ARC
  5
45A
330
1F
100
AcDbEntity
  8
Make2D$可见线$普通线
100
AcDbCircle
 10
1132.976088796876
 20
7278.489043990569
 30
0.0
 40
7129.848672917579
100
AcDbArc
 50
265.3504419741968
 51
265.3507620346738
  0
LINE
  5
45B
330
1F
100
AcDbEntity
  8
Make2D$可见线$普通线
100
AcDbLine
 10
555.1024168121581
 20
172.0482522692253
 30
0.0
 11
555.062703118247
 21
172.1004944277163
 31
0.0
  0
ARC
  5
45C
330
1F
100
AcDbEntity
  8
Make2D$可见线$普通线
100
AcDbCircle
 10
675.273833893094
 20
424.8930726792974
 30
0.0
 40
279.9494109503391
100
AcDbArc
 50
244.579317505911
 51
244.5875006779864
  0
ARC
  5
45D
330
1F
100
AcDbEntity
  8
Make2D$可见线$普通线
100
AcDbCircle
 10
287.4363498529619
 20
1663.092178551625
 30
0.0
 40
1514.90185241675
100
AcDbArc
 50
280.1783337841564
 51
280.1809155473068
  0
LINE
  5
45E
330
1F
100
AcDbEntity
  8
Make2D$可见线$普通线
100
AcDbLine
 10
555.363442511265
 20
172.1365584321193
 30
0.0
 11
555.2057175079254
 21
172.0431558158328
 31
0.0
  0
LINE
  5
45F
330
1F
100
AcDbEntity
  8
Make2D$可见线$普通线
100
AcDbLine
 10
555.498353909523
 20
172.2057532613243
 30
0.0
 11
555.363442511265
 21
172.1365584321193
 31
0.0
  0
LINE
  5
460
330
1F
100
AcDbEntity
  8
Make2D$可见线$普通线
100
AcDbLine
 10
555.5411527088429
 20
172.2791168080765
 30
0.0
 11
555.498353909523
 21
172.2057532613243
 31
0.0
  0
LINE
  5
461
330
1F
100
AcDbEntity
  8
Make2D$可见线$普通线
100
AcDbLine
 10
555.5664027078363
 20
172.3574965175727
 30
0.0
 11
555.5411527088429
 21
172.2791168080765
 31
0.0
  0
LINE
  5
462
330
1F
100
AcDbEntity
  8
Make2D$可见线$普通线
100
AcDbLine
 10
555.6226148637513
 20
172.448984699418
 30
0.0
 11
555.5664027078363
 21
172.3574965175727
 31
0.0
  0
LINE
  5
463
330
1F
100
AcDbEntity
  8
Make2D$可见线$普通线
100
AcDbLine
 10
555.66999563388
 20
172.4995146771846
 30
0.0
 11
555.6226148637513
 21
172.448984699418
 31
0.0
  0
ARC
  5
464
330
1F
100
AcDbEntity
  8
Make2D$可见线$普通线
100
AcDbCircle
 10
-954.1187162779228
 20
219.9507037962174
 30
0.0
 40
1510.534200197106
100
AcDbArc
 50
358.1998420055668
 51
358.2020381013381
  0
ARC
  5
465
330
1F
100
AcDbEntity
  8
Make2D$可见线$普通线
100
AcDbCircle
 10
840.6467409099156
 20
1836.584063388651
 30
0.0
 40
1688.25220289039
100
AcDbArc
 50
260.2798335949453
 51
260.2820145310508
  0
ARC
  5
466
330
1F
100
AcDbEntity
  8
Make2D$可见线$普通线
100
AcDbCircle
 10
396.0401677332292
 20
656.7191777243972
 30
0.0
 40
509.7687535946083
100
AcDbArc
 50
288.225396970749
 51
288.2413823105667
  0
ARC
  5
467
330
1F
100
AcDbEntity
  8
Make2D$可见线$普通线
100
AcDbCircle
 10
438.5379740154549
 20
401.4678501970533
 30
0.0
 40
257.078394372733
100
AcDbArc
 50
297.0457573064868
 51
297.0561114037139
  0
ARC
  5
468
330
1F
100
AcDbEntity
  8
Make2D$可见线$普通线
100
AcDbCircle
 10
459.9962650861653
 20
281.1287984097202
 30
0.0
 40
144.5947181795431
100
AcDbArc
 50
311.2726437611319
 51
311.3015797042016
  0
ARC
  5
469
330
1F
100
AcDbEntity
  8
Make2D$可见线$普通线
100
AcDbCircle
 10
572.6862905012622
 20
137.3445716821293
 30
0.0
 40
39.14470611558475
100
AcDbArc
 50
116.2432859215297
 51
117.3044889149827
  0
ARC
  5
46A
330
1F
100
AcDbEntity
  8
Make2D$可见线$普通线
100
AcDbCircle
 10
546.8847500871558
 20
193.9168202573451
 30
0.0
 40
23.1582835810106
100
AcDbArc
 50
286.3850402273756
 51
289.8013788931741
  0
LINE
  5
46B
330
1F
100
AcDbEntity
  8
Make2D$可见线$普通线
100
AcDbLine
 10
553.0246542666644
 20
171.6308764865861
 30
0.0
 11
553.4174928342618
 21
171.6990487530147
 31
0.0
  0
ARC
  5
46C
330
1F
100
AcDbEntity
  8
Make2D$可见线$普通线
100
AcDbCircle
 10
42.23701790061716
 20
5829.693655974813
 30
0.0
 40
5681.071943400686
100
AcDbArc
 50
275.1535941194218
 51
275.1584543697967
  0
ARC
  5
46D
330
1F
100
AcDbEntity
  8
Make2D$可见线$普通线
100
AcDbCircle
 10
-3518.245457093343
 20
363155.8790308799
 30
0.0
 40
363007.1172597177
100
AcDbArc
 50
270.6424928272667
 51
270.6425328117184
  0
ARC
  5
46E
330
1F
100
AcDbEntity
  8
Make2D$可见线$普通线
100
AcDbCircle
 10
706.4567302774278
 20
641.6015287343735
 30
0.0
 40
494.6541704865713
100
AcDbArc
 50
251.822303470819
 51
251.8405273724284
  0
LINE
  5
46F
330
1F
100
AcDbEntity
  8
Make2D$可见线$普通线
100
AcDbLine
 10
552.031646850793
 20
171.7402489769034
 30
0.0
 11
552.1418924238931
 21
171.633786013668
 31
0.0
  0
LINE
  5
470
330
1F
100
AcDbEntity
  8
Make2D$可见线$普通线
100
AcDbLine
 10
552.0094762224554
 20
171.8018543899266
 30
0.0
 11
552.031646850793
 21
171.7402489769034
 31
0.0
  0
LINE
  5
471
330
1F
100
AcDbEntity
  8
Make2D$可见线$普通线
100
AcDbLine
 10
552.04438758831
 20
171.8988571469978
 30
0.0
 11
552.0094762224554
 21
171.8018543899266
 31
0.0
  0
LINE
  5
472
330
1F
100
AcDbEntity
  8
Make2D$可见线$普通线
100
AcDbLine
 10
552.1287444141717
 20
171.9897999966242
 30
0.0
 11
552.04438758831
 21
171.8988571469978
 31
0.0
  0
LINE
  5
473
330
1F
100
AcDbEntity
  8
Make2D$可见线$普通线
100
AcDbLine
 10
552.3894370731343
 20
172.1527282581845
 30
0.0
 11
552.1287444141717
 21
171.9897999966242
 31
0.0
  0
LINE
  5
474
330
1F
100
AcDbEntity
  8
Make2D$可见线$普通线
100
AcDbLine
 10
552.6395903502226
 20
172.2610838332561
 30
0.0
 11
552.3894370731343
 21
172.1527282581845
 31
0.0
  0
ARC
  5
475
330
1F
100
AcDbEntity
  8
Make2D$可见线$普通线
100
AcDbCircle
 10
440.0428831577119
 20
381.5839725914661
 30
0.0
 40
237.6848548575991
100
AcDbArc
 50
298.2762165940431
 51
298.3041763339641
  0
ARC
  5
476
330
1F
100
AcDbEntity
  8
Make2D$可见线$普通线
100
AcDbCircle
 10
556.8570889174637
 20
158.0048966697014
 30
0.0
 40
14.89112057262003
100
AcDbArc
 50
104.7917962818179
 51
106.0432959623665
  0
ARC
  5
477
330
1F
100
AcDbEntity
  8
Make2D$可见线$普通线
100
AcDbCircle
 10
429.2083970829411
 20
440.1244456520643
 30
0.0
 40
294.9797899923156
100
AcDbArc
 50
294.8250353031021
 51
294.8593858095046
  0
LINE
  5
478
330
1F
100
AcDbEntity
  8
Make2D$可见线$普通线
100
AcDbLine
 10
553.2370845949325
 20
172.5560399708805
 30
0.0
 11
553.2157616821776
 21
172.4768227800076
 31
0.0
  0
LINE
  5
479
330
1F
100
AcDbEntity
  8
Make2D$可见线$普通线
100
AcDbLine
 10
553.2940783508353
 20
172.8284247373895
 30
0.0
 11
553.2370845949325
 21
172.5560399708805
 31
0.0
  0
LINE
  5
47A
330
1F
100
AcDbEntity
  8
Make2D$可见线$普通线
100
AcDbLine
 10
553.5286598808945
 20
173.2810171900455
 30
0.0
 11
553.2940783508353
 21
172.8284247373895
 31
0.0
  0
LINE
  5
47B
330
1F
100
AcDbEntity
  8
Make2D$可见线$普通线
100
AcDbLine
 10
553.8406881163626
 20
173.7693088879421
 30
0.0
 11
553.5286598808945
 21
173.2810171900455
 31
0.0
  0
LINE
  5
47C
330
1F
100
AcDbEntity
  8
Make2D$可见线$普通线
100
AcDbLine
 10
554.050791009768
 20
174.0778558467167
 30
0.0
 11
553.8406881163626
 21
173.7693088879421
 31
0.0
  0
LINE
  5
47D
330
1F
100
AcDbEntity
  8
Make2D$可见线$普通线
100
AcDbLine
 10
554.1516326847757
 20
174.1669805181403
 30
0.0
 11
554.050791009768
 21
174.0778558467167
 31
0.0
  0
ARC
  5
47E
330
1F
100
AcDbEntity
  8
Make2D$可见线$普通线
100
AcDbCircle
 10
2199.455400129615
 20
55983.60070504474
 30
0.0
 40
55833.68084892394
100
AcDbArc
 50
268.3113667410044
 51
268.3114446539568
  0
ARC
  5
47F
330
1F
100
AcDbEntity
  8
Make2D$可见线$普通线
100
AcDbCircle
 10
715.3662513028378
 20
228.0117626557611
 30
0.0
 40
169.8975891338208
100
AcDbArc
 50
198.4778549615152
 51
198.5028689981601
  0
LINE
  5
480
330
1F
100
AcDbEntity
  8
Make2D$可见线$普通线
100
AcDbLine
 10
554.2119866781519
 20
174.0056091825184
 30
0.0
 11
554.2510481919269
 21
174.0943988476658
 31
0.0
  0
LINE
  5
481
330
1F
100
AcDbEntity
  8
Make2D$可见线$普通线
100
AcDbLine
 10
554.116032985407
 20
173.9022226015491
 30
0.0
 11
554.2119866781519
 21
174.0056091825184
 31
0.0
  0
ARC
  5
482
330
1F
100
AcDbEntity
  8
Make2D$可见线$普通线
100
AcDbCircle
 10
455.3361342599164
 20
255.0613107790431
 30
0.0
 40
127.8446947902823
100
AcDbArc
 50
320.5294348777423
 51
320.5929474563863
  0
LINE
  5
483
330
1F
100
AcDbEntity
  8
Make2D$可见线$普通线
100
AcDbLine
 10
553.9734174241231
 20
173.6869109801699
 30
0.0
 11
554.0260071719078
 21
173.7927746126066
 31
0.0
  0
ARC
  5
484
330
1F
100
AcDbEntity
  8
Make2D$可见线$普通线
100
AcDbCircle
 10
456.5521717949388
 20
260.5633343433661
 30
0.0
 40
130.5312684237887
100
AcDbArc
 50
318.2101768398211
 51
318.2746795566425
  0
LINE
  5
485
330
1F
100
AcDbEntity
  8
Make2D$可见线$普通线
100
AcDbLine
 10
553.7305242035047
 20
173.3173938267945
 30
0.0
 11
553.8755515537666
 21
173.5772907004796
 31
0.0
  0
LINE
  5
486
330
1F
100
AcDbEntity
  8
Make2D$可见线$普通线
100
AcDbLine
 10
553.6817148209806
 20
173.2204818151336
 30
0.0
 11
553.7305242035047
 21
173.3173938267945
 31
0.0
  0
LINE
  5
487
330
1F
100
AcDbEntity
  8
Make2D$可见线$普通线
100
AcDbLine
 10
553.5803752859322
 20
173.052397727891
 30
0.0
 11
553.6817148209806
 21
173.2204818151336
 31
0.0
  0
LINE
  5
488
330
1F
100
AcDbEntity
  8
Make2D$可见线$普通线
100
AcDbLine
 10
553.5043880093413
 20
172.9044723405075
 30
0.0
 11
553.5803752859322
 21
173.052397727891
 31
0.0
  0
LINE
  5
489
330
1F
100
AcDbEntity
  8
Make2D$可见线$普通线
100
AcDbLine
 10
553.449791743701
 20
172.8170068569406
 30
0.0
 11
553.5043880093413
 21
172.9044723405075
 31
0.0
  0
LINE
  5
48A
330
1F
100
AcDbEntity
  8
Make2D$可见线$普通线
100
AcDbLine
 10
553.4220684603887
 20
172.7280103966264
 30
0.0
 11
553.449791743701
 21
172.8170068569406
 31
0.0
  0
LINE
  5
48B
330
1F
100
AcDbEntity
  8
Make2D$可见线$普通线
100
AcDbLine
 10
553.3800026878266
 20
172.6625133097021
 30
0.0
 11
553.4220684603887
 21
172.7280103966264
 31
0.0
  0
LINE
  5
48C
330
1F
100
AcDbEntity
  8
Make2D$可见线$普通线
100
AcDbLine
 10
553.3730952973267
 20
172.5663244091767
 30
0.0
 11
553.3800026878266
 21
172.6625133097021
 31
0.0
  0
ARC
  5
48D
330
1F
100
AcDbEntity
  8
Make2D$可见线$普通线
100
AcDbCircle
 10
745.7720763308049
 20
223.2292714107288
 30
0.0
 40
198.9575384387402
100
AcDbArc
 50
194.7523734578976
 51
194.7660966808995
  0
ARC
  5
48E
330
1F
100
AcDbEntity
  8
Make2D$可见线$普通线
100
AcDbCircle
 10
822.2501915183705
 20
1649.720752334876
 30
0.0
 40
1501.46918330696
100
AcDbArc
 50
259.6845267920833
 51
259.6870189707164
  0
ARC
  5
48F
330
1F
100
AcDbEntity
  8
Make2D$可见线$普通线
100
AcDbCircle
 10
229.2136664087589
 20
2344.798068791712
 30
0.0
 40
2196.35393826768
100
AcDbArc
 50
278.4892923577548
 51
278.4938971907666
  0
ARC
  5
490
330
1F
100
AcDbEntity
  8
Make2D$可见线$普通线
100
AcDbCircle
 10
422.6928322277579
 20
478.2657044568586
 30
0.0
 40
332.5875654019279
100
AcDbArc
 50
293.1833312637335
 51
293.1973990310639
  0
ARC
  5
491
330
1F
100
AcDbEntity
  8
Make2D$可见线$普通线
100
AcDbCircle
 10
72.33240727406832
 20
5010.614849386276
 30
0.0
 40
4861.936149668948
100
AcDbArc
 50
275.6820040332639
 51
275.6837481961081
  0
ARC
  5
492
330
1F
100
AcDbEntity
  8
Make2D$可见线$普通线
100
AcDbCircle
 10
355.2724305095231
 20
953.2032094084527
 30
0.0
 40
805.4824590562504
100
AcDbArc
 50
284.2721519279623
 51
284.2795430084972
  0
ARC
  5
493
330
1F
100
AcDbEntity
  8
Make2D$可见线$普通线
100
AcDbCircle
 10
554.8409503525985
 20
150.5271035559323
 30
0.0
 40
22.09803154724718
100
AcDbArc
 50
89.09901489317491
 51
92.3181822706728
  0
ARC
  5
494
330
1F
100
AcDbEntity
  8
Make2D$可见线$普通线
100
AcDbCircle
 10
279.1985034200713
 20
1727.446046005092
 30
0.0
 40
1579.128557509272
100
AcDbArc
 50
280.0654812647286
 51
280.0729618066418
  0
ARC
  5
495
330
1F
100
AcDbEntity
  8
Make2D$可见线$普通线
100
AcDbCircle
 10
400.2645537565355
 20
625.7291874624353
 30
0.0
 40
478.891887902357
100
AcDbArc
 50
288.9006890735372
 51
288.9196677377057
  0
ARC
  5
496
330
1F
100
AcDbEntity
  8
Make2D$可见线$普通线
100
AcDbCircle
 10
451.9598344580869
 20
329.6424396487441
 30
0.0
 40
188.0345581320146
100
AcDbArc
 50
303.4263765669669
 51
303.4705053616574
  0
LINE
  5
497
330
1F
100
AcDbEntity
  8
Make2D$可见线$普通线
100
AcDbLine
 10
555.8432171240536
 20
173.0015272506415
 30
0.0
 11
555.6623309171746
 21
172.7896829625611
 31
0.0
  0
LINE
  5
498
330
1F
100
AcDbEntity
  8
Make2D$可见线$普通线
100
AcDbLine
 10
555.9773191533238
 20
173.2643390912385
 30
0.0
 11
555.8432171240536
 21
173.0015272506415
 31
0.0
  0
LINE
  5
499
330
1F
100
AcDbEntity
  8
Make2D$可见线$普通线
100
AcDbLine
 10
555.9780638698242
 20
173.7659195430212
 30
0.0
 11
555.9773191533238
 21
173.2643390912385
 31
0.0
  0
LINE
  5
49A
330
1F
100
AcDbEntity
  8
Make2D$可见线$普通线
100
AcDbLine
 10
555.8474797083106
 20
174.052312810941
 30
0.0
 11
555.9780638698242
 21
173.7659195430212
 31
0.0
  0
LINE
  5
49B
330
1F
100
AcDbEntity
  8
Make2D$可见线$普通线
100
AcDbLine
 10
555.5589664095456
 20
174.4296653487349
 30
0.0
 11
555.8474797083106
 21
174.052312810941
 31
0.0
  0
LINE
  5
49C
330
1F
100
AcDbEntity
  8
Make2D$可见线$普通线
100
AcDbLine
 10
555.2157467235468
 20
174.7056403608372
 30
0.0
 11
555.5589664095456
 21
174.4296653487349
 31
0.0
  0
LINE
  5
49D
330
1F
100
AcDbEntity
  8
Make2D$可见线$普通线
100
AcDbLine
 10
554.7360704674427
 20
174.8718144192657
 30
0.0
 11
555.2157467235468
 21
174.7056403608372
 31
0.0
  0
LINE
  5
49E
330
1F
100
AcDbEntity
  8
Make2D$可见线$普通线
100
AcDbLine
 10
554.3266951012284
 20
174.9282266361583
 30
0.0
 11
554.7360704674427
 21
174.8718144192657
 31
0.0
  0
LINE
  5
49F
330
1F
100
AcDbEntity
  8
Make2D$可见线$普通线
100
AcDbLine
 10
553.6623013567248
 20
174.8872630956583
 30
0.0
 11
554.3266951012284
 21
174.9282266361583
 31
0.0
  0
LINE
  5
4A0
330
1F
100
AcDbEntity
  8
Make2D$可见线$普通线
100
AcDbLine
 10
553.0874351338797
 20
174.7985635566934
 30
0.0
 11
553.6623013567248
 21
174.8872630956583
 31
0.0
  0
LINE
  5
4A1
330
1F
100
AcDbEntity
  8
Make2D$可见线$普通线
100
AcDbLine
 10
552.7391901940825
 20
174.6736047547287
 30
0.0
 11
553.0874351338797
 21
174.7985635566934
 31
0.0
  0
LINE
  5
4A2
330
1F
100
AcDbEntity
  8
Make2D$可见线$普通线
100
AcDbLine
 10
552.6429267911242
 20
174.5914184589181
 30
0.0
 11
552.7391901940825
 21
174.6736047547287
 31
0.0
  0
ARC
  5
4A3
330
1F
100
AcDbEntity
  8
Make2D$可见线$普通线
100
AcDbCircle
 10
57.37855797240223
 20
223.3891404300851
 30
0.0
 40
497.6625490138698
100
AcDbArc
 50
354.3658876226937
 51
354.3728873151993
  0
ARC
  5
4A4
330
1F
100
AcDbEntity
  8
Make2D$可见线$普通线
100
AcDbCircle
 10
731.3104830758097
 20
227.0713356704236
 30
0.0
 40
186.2383506134565
100
AcDbArc
 50
196.3864077719336
 51
196.4072059936534
  0
ARC
  5
4A5
330
1F
100
AcDbEntity
  8
Make2D$可见线$普通线
100
AcDbCircle
 10
658.4670638730377
 20
243.4238943572881
 30
0.0
 40
126.2978807957449
100
AcDbArc
 50
213.0925893901219
 51
213.1176787690056
  0
ARC
  5
4A6
330
1F
100
AcDbEntity
  8
Make2D$可见线$普通线
100
AcDbCircle
 10
1005.458316759312
 20
223.3896344636984
 30
0.0
 40
455.4125539751108
100
AcDbArc
 50
186.1728732817149
 51
186.1755837885402
  0
ARC
  5
4A7
330
1F
100
AcDbEntity
  8
Make2D$可见线$普通线
100
AcDbCircle
 10
453.2822924643502
 20
253.4119647913159
 30
0.0
 40
126.9833258296796
100
AcDbArc
 50
321.5099134032181
 51
321.5203643800808
  0
LINE
  5
4A8
330
1F
100
AcDbEntity
  8
Make2D$可见线$普通线
100
AcDbLine
 10
552.6368266653325
 20
174.3796228345274
 30
0.0
 11
552.6741547303053
 21
174.3801816020699
 31
0.0
  0
ARC
  5
4A9
330
1F
100
AcDbEntity
  8
Make2D$可见线$普通线
100
AcDbCircle
 10
673.2624169071313
 20
414.3967331764651
 30
0.0
 40
268.6238006545144
100
AcDbArc
 50
243.3036509882592
 51
243.3172334206794
  0
LINE
  5
4AA
330
1F
100
AcDbEntity
  8
Make2D$可见线$普通线
100
AcDbLine
 10
552.4557337172433
 20
174.5632734478124
 30
0.0
 11
552.5799320392128
 21
174.408224859544
 31
0.0
  0
ARC
  5
4AB
330
1F
100
AcDbEntity
  8
Make2D$可见线$普通线
100
AcDbCircle
 10
681.4528612388488
 20
232.7656180605239
 30
0.0
 40
141.5195104119646
100
AcDbArc
 50
204.2684350588534
 51
204.284468463471
  0
ARC
  5
4AC
330
1F
100
AcDbEntity
  8
Make2D$可见线$普通线
100
AcDbCircle
 10
206.8596147177881
 20
223.9335471362265
 30
0.0
 40
349.0834919855022
100
AcDbArc
 50
351.8754829346188
 51
351.881310787045
  0
ARC
  5
4AD
330
1F
100
AcDbEntity
  8
Make2D$可见线$普通线
100
AcDbCircle
 10
450.3006825499822
 20
247.5831417871017
 30
0.0
 40
125.5183397904399
100
AcDbArc
 50
324.4664934231035
 51
324.4978568527011
  0
LINE
  5
4AE
330
1F
100
AcDbEntity
  8
Make2D$可见线$普通线
100
AcDbLine
 10
552.5814632979321
 20
174.7527697227933
 30
0.0
 11
552.4843843336956
 21
174.6904486448844
 31
0.0
  0
LINE
  5
4AF
330
1F
100
AcDbEntity
  8
Make2D$可见线$普通线
100
AcDbLine
 10
552.7050683205849
 20
174.8116313434746
 30
0.0
 11
552.5814632979321
 21
174.7527697227933
 31
0.0
  0
LINE
  5
4B0
330
1F
100
AcDbEntity
  8
Make2D$可见线$普通线
100
AcDbLine
 10
552.878299691505
 20
174.8685252395387
 30
0.0
 11
552.7050683205849
 21
174.8116313434746
 31
0.0
  0
ARC
  5
4B1
330
1F
100
AcDbEntity
  8
Make2D$可见线$普通线
100
AcDbCircle
 10
142.9050362690734
 20
3615.098506850427
 30
0.0
 40
3464.572181827893
100
AcDbArc
 50
276.79590575014
 51
276.7969009747719
  0
ARC
  5
4B2
330
1F
100
AcDbEntity
  8
Make2D$可见线$普通线
100
AcDbCircle
 10
427.9944719937777
 20
440.2617938998485
 30
0.0
 40
293.3269613001591
100
AcDbArc
 50
295.2110184968951
 51
295.2220858396377
  0
ARC
  5
4B3
330
1F
100
AcDbEntity
  8
Make2D$可见线$普通线
100
AcDbCircle
 10
286.4042025736127
 20
1601.548070160585
 30
0.0
 40
1451.341775369679
100
AcDbArc
 50
280.5842899347871
 51
280.5884734624431
  0
ARC
  5
4B4
330
1F
100
AcDbEntity
  8
Make2D$可见线$普通线
100
AcDbCircle
 10
1006.663681609546
 20
4398.856457094293
 30
0.0
 40
4248.219793091022
100
AcDbArc
 50
263.8710124584492
 51
263.8714523141442
  0
ARC
  5
4B5
330
1F
100
AcDbEntity
  8
Make2D$可见线$普通线
100
AcDbCircle
 10
402.3743749355399
 20
592.6797812160937
 30
0.0
 40
444.1315031179732
100
AcDbArc
 50
289.842147671077
 51
289.8471341201982
  0
ARC
  5
4B6
330
1F
100
AcDbEntity
  8
Make2D$可见线$普通线
100
AcDbCircle
 10
2353.398632828118
 20
67446.52103758391
 30
0.0
 40
67295.67564420264
100
AcDbArc
 50
268.4670894369085
 51
268.4671648287098
  0
ARC
  5
4B7
330
1F
100
AcDbEntity
  8
Make2D$可见线$普通线
100
AcDbCircle
 10
447.5094084307397
 20
339.24286795023
 30
0.0
 40
195.3998448571806
100
AcDbArc
 50
302.7622210376156
 51
302.7735727710964
  0
ARC
  5
4B8
330
1F
100
AcDbEntity
  8
Make2D$可见线$普通线
100
AcDbCircle
 10
553.7870683980044
 20
172.5316984774978
 30
0.0
 40
2.467739583521491
100
AcDbArc
 50
97.93162712203295
 51
101.7783078686953
  0
LINE
  5
4B9
330
1F
100
AcDbEntity
  8
Make2D$可见线$普通线
100
AcDbLine
 10
553.5924136111298
 20
174.9745787416065
 30
0.0
 11
553.4465418449622
 21
174.9758302903819
 31
0.0
  0
ARC
  5
4BA
330
1F
100
AcDbEntity
  8
Make2D$可见线$普通线
100
AcDbCircle
 10
425.011836018121
 20
460.9522168121867
 30
0.0
 40
313.5541012498154
100
AcDbArc
 50
294.2095221330691
 51
294.2139820247701
  0
ARC
  5
4BB
330
1F
100
AcDbEntity
  8
Make2D$可见线$普通线
100
AcDbCircle
 10
444.7842234697923
 20
355.832197485671
 30
0.0
 40
211.068530670775
100
AcDbArc
 50
301.0386821129148
 51
301.0457452579425
  0
ARC
  5
4BC
330
1F
100
AcDbEntity
  8
Make2D$可见线$普通线
100
AcDbCircle
 10
208.4121148175636
 20
2605.640519010878
 30
0.0
 40
2455.036298244909
100
AcDbArc
 50
278.0836691055994
 51
278.0860645477129
  0
ARC
  5
4BD
330
1F
100
AcDbEntity
  8
Make2D$可见线$普通线
100
AcDbCircle
 10
-400.4722946715591
 20
19070.93148468495
 30
0.0
 40
18919.99669416959
100
AcDbArc
 50
272.8908810637524
 51
272.8911959501055
  0
ARC
  5
4BE
330
1F
100
AcDbEntity
  8
Make2D$可见线$普通线
100
AcDbCircle
 10
268.1621243809077
 20
1824.031184488614
 30
0.0
 40
1673.576637003211
100
AcDbArc
 50
279.8285481073985
 51
279.8309351832928
  0
ARC
  5
4BF
330
1F
100
AcDbEntity
  8
Make2D$可见线$普通线
100
AcDbCircle
 10
554.2594013852615
 20
163.8053070803229
 30
0.0
 40
11.22968368203948
100
AcDbArc
 50
89.17577639498893
 51
91.77718749688988
  0
LINE
  5
4C0
330
1F
100
AcDbEntity
  8
Make2D$可见线$普通线
100
AcDbLine
 10
554.4255695890948
 20
175.033144933839
 30
0.0
 11
554.4209394813953
 21
175.0338288459945
 31
0.0
  0
LINE
  5
4C1
330
1F
100
AcDbEntity
  8
Make2D$可见线$普通线
100
AcDbLine
 10
585.1643402612076
 20
205.7198377218295
 30
0.0
 11
576.0520891610091
 21
199.9211324762487
 31
0.0
  0
LINE
  5
4C2
330
1F
100
AcDbEntity
  8
Make2D$可见线$普通线
100
AcDbLine
 10
578.1995911297818
 20
196.5464865253203
 30
0.0
 11
576.0520891610091
 21
199.9211324762487
 31
0.0
  0
LINE
  5
4C3
330
1F
100
AcDbEntity
  8
Make2D$可见线$普通线
100
AcDbLine
 10
576.0520891610091
 20
199.9211324762487
 30
0.0
 11
572.2220373353691
 21
197.4838267690233
 31
0.0
  0
SPLINE
  5
4C4
330
1F
100
AcDbEntity
  8
Make2D$可见线$普通线
100
AcDbSpline
210
0.0
220
0.0
230
1.0
 70
    12
 71
     2
 72
     8
 73
     5
 74
     0
 42
0.000000001
 43
0.0000000001
 12
1.0
 22
0.0
 32
0.0
 13
1.0
 23
0.0
 33
0.0
 40
6.283185307179586
 40
6.283185307179586
 40
6.283185307179586
 40
9.42477796076938
 40
9.42477796076938
 40
12.56637061435917
 40
12.56637061435917
 40
12.56637061435917
 10
574.3695393041419
 20
194.1091808180949
 30
0.0
 41
1.0
 10
572.8375185738859
 20
193.1342585352047
 30
0.0
 41
0.7071067811865476
 10
571.7637675894996
 20
194.8215815106689
 30
0.0
 41
1.0
 10
570.6900166051133
 20
196.5089044861331
 30
0.0
 41
0.7071067811865476
 10
572.2220373353691
 20
197.4838267690233
 30
0.0
 41
1.0
  0
LINE
  5
4C5
330
1F
100
AcDbEntity
  8
Make2D$可见线$普通线
100
AcDbLine
 10
572.2220373353691
 20
197.4838267690233
 30
0.0
 11
567.4296378978336
 21
194.434118036046
 31
0.0
  0
LINE
  5
4C6
330
1F
100
AcDbEntity
  8
Make2D$可见线$普通线
100
AcDbLine
 10
586.8059399802016
 20
205.0028102791823
 30
0.0
 11
586.8093906065096
 21
204.9973878664127
 31
0.0
  0
LINE
  5
4C7
330
1F
100
AcDbEntity
  8
Make2D$可见线$普通线
100
AcDbLine
 10
586.7838838447494
 20
205.0374699206075
 30
0.0
 11
586.7875374317715
 21
205.0317285695726
 31
0.0
  0
LINE
  5
4C8
330
1F
100
AcDbEntity
  8
Make2D$可见线$普通线
100
AcDbLine
 10
586.7625173393719
 20
205.0710458576293
 30
0.0
 11
586.7663477107392
 21
205.0650267026236
 31
0.0
  0
LINE
  5
4C9
330
1F
100
AcDbEntity
  8
Make2D$可见线$普通线
100
AcDbLine
 10
586.7418835421066
 20
205.1034703961891
 30
0.0
 11
586.7458627396948
 21
205.0972173714077
 31
0.0
  0
LINE
  5
4CA
330
1F
100
AcDbEntity
  8
Make2D$可见线$普通线
100
AcDbLine
 10
586.7220255309908
 20
205.1346758422281
 30
0.0
 11
586.7261238149209
 21
205.1282356817666
 31
0.0
  0
LINE
  5
4CB
330
1F
100
AcDbEntity
  8
Make2D$可见线$普通线
100
AcDbLine
 10
586.702986384062
 20
205.1645945016877
 30
0.0
 11
586.7071722327
 21
205.1580167395422
 31
0.0
  0
LINE
  5
4CC
330
1F
100
AcDbEntity
  8
Make2D$可见线$普通线
100
AcDbLine
 10
586.6848091793574
 20
205.193158680509
 30
0.0
 11
586.6890492893145
 21
205.1864956505765
 31
0.0
  0
LINE
  5
4CD
330
1F
100
AcDbEntity
  8
Make2D$可见线$普通线
100
AcDbLine
 10
586.6675369949146
 20
205.2203006846333
 30
0.0
 11
586.6717962810469
 21
205.2136075207112
 31
0.0
  0
LINE
  5
4CE
330
1F
100
AcDbEntity
  8
Make2D$可见线$普通线
100
AcDbLine
 10
586.6512129087712
 20
205.2459528200018
 30
0.0
 11
586.6554545041799
 21
205.239287455788
 31
0.0
  0
LINE
  5
4CF
330
1F
100
AcDbEntity
  8
Make2D$可见线$普通线
100
AcDbLine
 10
586.6358799989641
 20
205.2700473925559
 30
0.0
 11
586.6400652549962
 21
205.2634705616482
 31
0.0
  0
LINE
  5
4D0
330
1F
100
AcDbEntity
  8
Make2D$可见线$普通线
100
AcDbLine
 10
586.6215813435308
 20
205.2925167082367
 30
0.0
 11
586.6256698297786
 21
205.2860919441331
 31
0.0
  0
LINE
  5
4D1
330
1F
100
AcDbEntity
  8
Make2D$可见线$普通线
100
AcDbLine
 10
586.6083600205087
 20
205.3132930729856
 30
0.0
 11
586.6123095248105
 21
205.3070867090828
 31
0.0
  0
LINE
  5
4D2
330
1F
100
AcDbEntity
  8
Make2D$可见线$普通线
100
AcDbLine
 10
586.5962591079355
 20
205.3323087927437
 30
0.0
 11
586.6000256363768
 21
205.3263899623359
 31
0.0
  0
LINE
  5
4D3
330
1F
100
AcDbEntity
  8
Make2D$可见线$普通线
100
AcDbLine
 10
586.585321683848
 20
205.3494961734522
 30
0.0
 11
586.5888594607648
 21
205.343936809726
 31
0.0
  0
LINE
  5
4D4
330
1F
100
AcDbEntity
  8
Make2D$可见线$普通线
100
AcDbLine
 10
586.5755908262843
 20
205.3647875210528
 30
0.0
 11
586.5788522942703
 21
205.3596623570747
 31
0.0
  0
LINE
  5
4D5
330
1F
100
AcDbEntity
  8
Make2D$可见线$普通线
100
AcDbLine
 10
586.5671096132812
 20
205.3781151414862
 30
0.0
 11
586.5700454332123
 21
205.3735017101659
 31
0.0
  0
LINE
  5
4D6
330
1F
100
AcDbEntity
  8
Make2D$可见线$普通线
100
AcDbLine
 10
586.5599211228761
 20
205.3894113406939
 30
0.0
 11
586.5624801739932
 21
205.3853899746526
 31
0.0
  0
LINE
  5
4D7
330
1F
100
AcDbEntity
  8
Make2D$可见线$普通线
100
AcDbLine
 10
586.5540684331069
 20
205.3986084246172
 30
0.0
 11
586.5561978119802
 21
205.3952622578162
 31
0.0
  0
LINE
  5
4D8
330
1F
100
AcDbEntity
  8
Make2D$可见线$普通线
100
AcDbLine
 10
586.5495946220105
 20
205.4056386991973
 30
0.0
 11
586.5512396446471
 21
205.4030536636254
 31
0.0
  0
LINE
  5
4D9
330
1F
100
AcDbEntity
  8
Make2D$可见线$普通线
100
AcDbLine
 10
586.5461910279757
 20
205.4109872041089
 30
0.0
 11
586.5476469677794
 21
205.4086992987033
 31
0.0
  0
LINE
  5
4DA
330
1F
100
AcDbEntity
  8
Make2D$可见线$普通线
100
AcDbLine
 10
586.2380912517872
 20
204.0325147366332
 30
0.0
 11
587.0817527364226
 21
204.5693902336924
 31
0.0
  0
SPLINE
  5
4DB
330
1F
100
AcDbEntity
  8
Make2D$可见线$普通线
100
AcDbSpline
210
0.0
220
0.0
230
1.0
 70
    24
 71
     3
 72
     8
 73
     4
 74
     0
 42
0.000000001
 43
0.0000000001
 12
1.0
 22
0.0
 32
0.0
 13
1.0
 23
0.0
 33
0.0
 40
3.073744182510348
 40
3.073744182510348
 40
3.073744182510348
 40
3.073744182510348
 40
3.1415132767967
 40
3.1415132767967
 40
3.1415132767967
 40
3.1415132767967
 10
587.6181209806491
 20
203.7265258499081
 30
0.0
 10
587.6187702535778
 20
203.7255055638769
 30
0.0
 10
587.618945633187
 20
203.7252299673485
 30
0.0
 10
587.6186282255192
 20
203.7257287508264
 30
0.0
  0
LINE
  5
4DC
330
1F
100
AcDbEntity
  8
Make2D$可见线$普通线
100
AcDbLine
 10
587.6158584989867
 20
203.7300811782344
 30
0.0
 11
587.6169626993405
 21
203.7283460062498
 31
0.0
  0
LINE
  5
4DD
330
1F
100
AcDbEntity
  8
Make2D$可见线$普通线
100
AcDbLine
 10
587.6122658221775
 20
203.7357268132202
 30
0.0
 11
587.6139108451273
 21
203.7331417771564
 31
0.0
  0
LINE
  5
4DE
330
1F
100
AcDbEntity
  8
Make2D$可见线$普通线
100
AcDbLine
 10
587.6073076549243
 20
203.7435182189038
 30
0.0
 11
587.6094370342134
 21
203.7401720514496
 31
0.0
  0
LINE
  5
4DF
330
1F
100
AcDbEntity
  8
Make2D$可见线$普通线
100
AcDbLine
 10
587.6010252930112
 20
203.7533905019104
 30
0.0
 11
587.6035843446352
 21
203.7493691350723
 31
0.0
  0
LINE
  5
4E0
330
1F
100
AcDbEntity
  8
Make2D$可见线$普通线
100
AcDbLine
 10
587.5934600339112
 20
203.7652787662103
 30
0.0
 11
587.5963958544297
 21
203.7606653339669
 31
0.0
  0
LINE
  5
4E1
330
1F
100
AcDbEntity
  8
Make2D$可见线$普通线
100
AcDbLine
 10
587.5846531729896
 20
203.779118119087
 30
0.0
 11
587.587914641633
 21
203.7739929540761
 31
0.0
  0
LINE
  5
4E2
330
1F
100
AcDbEntity
  8
Make2D$可见线$普通线
100
AcDbLine
 10
587.574646006648
 20
203.7948436661955
 30
0.0
 11
587.5781837842818
 21
203.7892843013424
 31
0.0
  0
LINE
  5
4E3
330
1F
100
AcDbEntity
  8
Make2D$可见线$普通线
100
AcDbLine
 10
587.5634798312042
 20
203.8123905133214
 30
0.0
 11
587.5672463604124
 21
203.8064716817086
 31
0.0
  0
LINE
  5
4E4
330
1F
100
AcDbEntity
  8
Make2D$可见线$普通线
100
AcDbLine
 10
587.5511959429525
 20
203.8316937662881
 30
0.0
 11
587.5551454480615
 21
203.8254874011171
 31
0.0
  0
LINE
  5
4E5
330
1F
100
AcDbEntity
  8
Make2D$可见线$普通线
100
AcDbLine
 10
587.5378356381793
 20
203.8526885309316
 30
0.0
 11
587.5419241252655
 21
203.8462637655107
 31
0.0
  0
LINE
  5
4E6
330
1F
100
AcDbEntity
  8
Make2D$可见线$普通线
100
AcDbLine
 10
587.5234402131683
 20
203.875309913092
 30
0.0
 11
587.5276254700611
 21
203.8687330808319
 31
0.0
  0
LINE
  5
4E7
330
1F
100
AcDbEntity
  8
Make2D$可见线$普通线
100
AcDbLine
 10
587.5080509642014
 20
203.8994930186114
 30
0.0
 11
587.5122925604846
 21
203.8928276530234
 31
0.0
  0
LINE
  5
4E8
330
1F
100
AcDbEntity
  8
Make2D$可见线$普通线
100
AcDbLine
 10
587.4917091875603
 20
203.925172953333
 30
0.0
 11
587.4959684745728
 21
203.9184797880278
 31
0.0
  0
LINE
  5
4E9
330
1F
100
AcDbEntity
  8
Make2D$可见线$普通线
100
AcDbLine
 10
587.4744561795267
 20
203.9522848231002
 30
0.0
 11
587.4786962903619
 21
203.9456217917877
 31
0.0
  0
LINE
  5
4EA
330
1F
100
AcDbEntity
  8
Make2D$可见线$普通线
100
AcDbLine
 10
587.4563332363819
 20
203.9807637337566
 30
0.0
 11
587.4605190858887
 21
203.9741859702457
 31
0.0
  0
LINE
  5
4EB
330
1F
100
AcDbEntity
  8
Make2D$可见线$普通线
100
AcDbLine
 10
587.4373816544067
 20
204.0105447911457
 30
0.0
 11
587.4414799391893
 21
204.0041046293445
 31
0.0
  0
LINE
  5
4EC
330
1F
100
AcDbEntity
  8
Make2D$可见线$普通线
100
AcDbLine
 10
587.4176427298833
 20
204.0415631011114
 30
0.0
 11
587.4216219283009
 21
204.0353100750266
 31
0.0
  0
LINE
  5
4ED
330
1F
100
AcDbEntity
  8
Make2D$可见线$普通线
100
AcDbLine
 10
587.3971577590921
 20
204.0737537694974
 30
0.0
 11
587.4009881312593
 21
204.0677346132346
 31
0.0
  0
LINE
  5
4EE
330
1F
100
AcDbEntity
  8
Make2D$可见线$普通线
100
AcDbLine
 10
587.3759680383146
 20
204.1070519021476
 30
0.0
 11
587.3796216261014
 21
204.1013105499112
 31
0.0
  0
LINE
  5
4EF
330
1F
100
AcDbEntity
  8
Make2D$可见线$普通线
100
AcDbLine
 10
587.3541148638323
 20
204.1413926049056
 30
0.0
 11
587.3575654908636
 21
204.135970190999
 31
0.0
  0
ARC
  5
4F0
330
1F
100
AcDbEntity
  8
Make2D$可见线$普通线
100
AcDbCircle
 10
553.6155695890767
 20
173.0000009651017
 30
0.0
 40
25.49999999975168
100
AcDbArc
 50
89.99999999995913
 51
180.0000000003255
  0
POLYLINE
  5
4F1
330
1F
100
AcDbEntity
  8
Make2D$可见线$普通线
100
AcDb2dPolyline
 66
     1
 10
0.0
 20
0.0
 30
0.0
  0
VERTEX
  5
4F2
330
4F1
100
AcDbEntity
  8
Make2D$可见线$普通线
100
AcDbVertex
100
AcDb2dVertex
 10
536.6636030440493
 20
169.556491457981
 30
0.0
  0
VERTEX
  5
4F3
330
4F1
100
AcDbEntity
  8
Make2D$可见线$普通线
100
AcDbVertex
100
AcDb2dVertex
 10
536.7160242197797
 20
169.1941323300683
 30
0.0
  0
VERTEX
  5
4F4
330
4F1
100
AcDbEntity
  8
Make2D$可见线$普通线
100
AcDbVertex
100
AcDb2dVertex
 10
537.0291615756042
 20
167.0039824447
 30
0.0
 42
-0.0026557324908164
  0
VERTEX
  5
4F5
330
4F1
100
AcDbEntity
  8
Make2D$可见线$普通线
100
AcDbVertex
100
AcDb2dVertex
 10
537.4283599088587
 20
164.0438019390096
 30
0.0
 42
-0.0154469963268598
  0
VERTEX
  5
4F6
330
4F1
100
AcDbEntity
  8
Make2D$可见线$普通线
100
AcDbVertex
100
AcDb2dVertex
 10
538.6504022108531
 20
151.7350899198553
 30
0.0
  0
VERTEX
  5
4F7
330
4F1
100
AcDbEntity
  8
Make2D$可见线$普通线
100
AcDbVertex
100
AcDb2dVertex
 10
538.8447281093879
 20
148.5644451063176
 30
0.0
  0
SEQEND
  5
4F8
330
4F1
100
AcDbEntity
  8
Make2D$可见线$普通线
  0
ARC
  5
4F9
330
1F
100
AcDbEntity
  8
Make2D$可见线$普通线
100
AcDbCircle
 10
541.085477359288
 20
170.3619308758965
 30
0.0
 40
4.494630698477898
100
AcDbArc
 50
185.1476603468971
 51
190.3231862344591
  0
ARC
  5
4FA
330
1F
100
AcDbEntity
  8
Make2D$可见线$普通线
100
AcDbCircle
 10
538.9980482070498
 20
148.4190267893569
 30
0.0
 40
0.2113138406605841
100
AcDbArc
 50
108.6317151104678
 51
136.5151487854398
  0
ARC
  5
4FB
330
1F
100
AcDbEntity
  8
Make2D$可见线$普通线
100
AcDbCircle
 10
374.3511785134843
 20
140.0463799369084
 30
0.0
 40
164.7139499037356
100
AcDbArc
 50
1.230025197601233
 51
2.964332914762348
  0
LINE
  5
4FC
330
1F
100
AcDbEntity
  8
Make2D$可见线$普通线
100
AcDbLine
 10
539.027173638989
 20
143.5821856887933
 30
0.0
 11
539.0455435336102
 21
143.5826237985854
 31
0.0
  0
LINE
  5
4FD
330
1F
100
AcDbEntity
  8
Make2D$可见线$普通线
100
AcDbLine
 10
539.4543935201896
 20
124.2499258460499
 30
0.0
 11
539.0271736389893
 21
143.5821856887933
 31
0.0
  0
ARC
  5
4FE
330
1F
100
AcDbEntity
  8
Make2D$可见线$普通线
100
AcDbCircle
 10
553.6105923936457
 20
174.2663089300863
 30
0.0
 40
17.51482387402096
100
AcDbArc
 50
89.9837182321135
 51
184.1460571041036
  0
ARC
  5
4FF
330
1F
100
AcDbEntity
  8
Make2D$可见线$普通线
100
AcDbCircle
 10
553.6027425621937
 20
174.4275505458803
 30
0.0
 40
16.59156082225258
100
AcDbArc
 50
131.3482293850969
 51
184.339882995383
  0
ARC
  5
500
330
1F
100
AcDbEntity
  8
Make2D$可见线$普通线
100
AcDbCircle
 10
553.6204935417331
 20
174.4298677472027
 30
0.0
 40
16.60943628177726
100
AcDbArc
 50
184.3432197519716
 51
194.6579498691653
  0
LINE
  5
501
330
1F
100
AcDbEntity
  8
Make2D$可见线$普通线
100
AcDbLine
 10
537.5922536920932
 20
169.8108440792494
 30
0.0
 11
537.5516324814176
 21
170.2268833524309
 31
0.0
  0
ARC
  5
502
330
1F
100
AcDbEntity
  8
Make2D$可见线$普通线
100
AcDbCircle
 10
250.6653798576887
 20
126.2255651035707
 30
0.0
 40
290.2183789351943
100
AcDbArc
 50
7.171509312133855
 51
8.637414439541072
  0
ARC
  5
503
330
1F
100
AcDbEntity
  8
Make2D$可见线$普通线
100
AcDbCircle
 10
553.6248556936944
 20
174.270103702448
 30
0.0
 40
17.52932442216569
100
AcDbArc
 50
184.1550574839464
 51
194.1310946631301
  0
ARC
  5
504
330
1F
100
AcDbEntity
  8
Make2D$可见线$普通线
100
AcDbCircle
 10
553.6156995784125
 20
173.0002024878085
 30
0.0
 40
25.50012998988385
100
AcDbArc
 50
180.0004527980397
 51
230.284820338912
  0
SPLINE
  5
505
330
1F
100
AcDbEntity
  8
Make2D$可见线$普通线
100
AcDbSpline
210
0.0
220
0.0
230
1.0
 70
    12
 71
     3
 72
    31
 73
    27
 74
     0
 42
0.000000001
 43
0.0000000001
 12
1.0
 22
0.0
 32
0.0
 13
1.0
 23
0.0
 33
0.0
 40
0.0
 40
0.0
 40
0.0
 40
0.0
 40
0.4541593354693659
 40
0.4541593354693659
 40
0.4541593354693659
 40
1.860285497363959
 40
1.860285497363959
 40
1.860285497363959
 40
6.472784637629417
 40
6.472784637629417
 40
17.18165126091969
 40
17.18165126091969
 40
17.18165126091969
 40
17.68281725266848
 40
17.68281725266848
 40
17.68281725266848
 40
19.66071467675855
 40
19.66071467675855
 40
19.66071467675855
 40
21.6220323552562
 40
21.6220323552562
 40
21.6220323552562
 40
21.86071167280278
 40
21.86071167280278
 40
21.86071167280278
 40
22.391383151127
 40
22.391383151127
 40
22.391383151127
 40
22.391383151127
 10
534.9043583415628
 20
160.2695904823424
 30
0.0
 41
1.0
 10
534.8763539158824
 20
160.4183722417385
 30
0.0
 41
0.9998951158570595
 10
534.8509929492748
 20
160.5676273292883
 30
0.0
 41
0.9998951158570594
 10
534.82828342163
 20
160.7173087815156
 30
0.0
 41
1.0
 10
534.7580420954561
 20
161.1809562032867
 30
0.0
 41
0.999022843970697
 10
534.7129978019543
 20
161.6477257258997
 30
0.0
 41
0.9990228439706986
 10
534.6932825870342
 20
162.1162490293953
 30
0.0
 41
1.0
 10
534.6783230355674
 20
162.4695953949696
 30
0.0
 41
1.0
 10
534.6776059080942
 20
162.8230773738283
 30
0.0
 41
1.0
 10
534.721008673315
 20
163.995812133865
 30
0.0
 41
1.0
 10
534.8257384470514
 20
164.8159896645645
 30
0.0
 41
1.0
 10
535.0006238633706
 20
165.6305105709797
 30
0.0
 41
1.0
 10
535.0357056787428
 20
165.793848605445
 30
0.0
 41
0.9999081419923128
 10
535.0734940472561
 20
165.956581781159
 30
0.0
 41
0.9999081419923119
 10
535.1139785554165
 20
166.1186652530858
 30
0.0
 41
1.0
 10
535.274444545761
 20
166.7585698160082
 30
0.0
 41
0.9987323379550404
 10
535.4740485099707
 20
167.3873666362752
 30
0.0
 41
0.9987323379550402
 10
535.7120313569371
 20
168.0026644082978
 30
0.0
 41
1.0
 10
535.9479114814861
 20
168.6127637300368
 30
0.0
 41
0.9989669825183882
 10
536.2173766448371
 20
169.2087915324786
 30
0.0
 41
0.9989669825183883
 10
536.5195917603169
 20
169.7889006942053
 30
0.0
 41
1.0
 10
536.5287276272917
 20
169.8064727762643
 30
0.0
 41
1.0
 10
536.5378961305864
 20
169.8240383902942
 30
0.0
 41
1.0
 10
536.54709723712
 20
169.8415974590873
 30
0.0
 41
1.0
 10
536.5675510898084
 20
169.8806308737236
 30
0.0
 41
1.0
 10
536.5881769285571
 20
169.9196521895022
 30
0.0
 41
1.0
 10
536.6089745137645
 20
169.958660011936
 30
0.0
 41
1.0
  0
ARC
  5
506
330
1F
100
AcDbEntity
  8
Make2D$可见线$普通线
100
AcDbCircle
 10
553.5981568988144
 20
174.2643618507854
 30
0.0
 40
17.5020317443481
100
AcDbArc
 50
194.1342052270644
 51
194.1660338552084
  0
LINE
  5
507
330
1F
100
AcDbEntity
  8
Make2D$可见线$普通线
100
AcDbLine
 10
536.6145874642948
 20
169.9691796123853
 30
0.0
 11
536.6259745611426
 21
169.9904711318983
 31
0.0
  0
LINE
  5
508
330
1F
100
AcDbEntity
  8
Make2D$可见线$普通线
100
AcDbLine
 10
536.6089745137645
 20
169.958660011936
 30
0.0
 11
536.6116468832631
 21
169.9636705040272
 31
0.0
  0
ARC
  5
509
330
1F
100
AcDbEntity
  8
Make2D$可见线$普通线
100
AcDbCircle
 10
536.655276243129
 20
169.9389326942954
 30
0.0
 40
0.0499826758340788
100
AcDbArc
 50
122.5940814591435
 51
150.4417406160753
  0
ARC
  5
50A
330
1F
100
AcDbEntity
  8
Make2D$可见线$普通线
100
AcDbCircle
 10
553.6155695891131
 20
173.0000009651018
 30
0.0
 40
25.49999999975165
100
AcDbArc
 50
359.9999999996745
 51
90.00000000004087
  0
POLYLINE
  5
50B
330
1F
100
AcDbEntity
  8
Make2D$可见线$普通线
100
AcDb2dPolyline
 66
     1
 10
0.0
 20
0.0
 30
0.0
  0
VERTEX
  5
50C
330
50B
100
AcDbEntity
  8
Make2D$可见线$普通线
100
AcDbVertex
100
AcDb2dVertex
 10
570.5675361341405
 20
169.556491457981
 30
0.0
  0
VERTEX
  5
50D
330
50B
100
AcDbEntity
  8
Make2D$可见线$普通线
100
AcDbVertex
100
AcDb2dVertex
 10
570.5151149584101
 20
169.1941323300683
 30
0.0
  0
VERTEX
  5
50E
330
50B
100
AcDbEntity
  8
Make2D$可见线$普通线
100
AcDbVertex
100
AcDb2dVertex
 10
570.2019776025857
 20
167.0039824447
 30
0.0
 42
0.0026557324908957
  0
VERTEX
  5
50F
330
50B
100
AcDbEntity
  8
Make2D$可见线$普通线
100
AcDbVertex
100
AcDb2dVertex
 10
569.8027792693312
 20
164.0438019390096
 30
0.0
 42
0.0154469963267974
  0
VERTEX
  5
510
330
50B
100
AcDbEntity
  8
Make2D$可见线$普通线
100
AcDbVertex
100
AcDb2dVertex
 10
568.5807369673366
 20
151.7350899198554
 30
0.0
  0
VERTEX
  5
511
330
50B
100
AcDbEntity
  8
Make2D$可见线$普通线
100
AcDbVertex
100
AcDb2dVertex
 10
568.3864110688019
 20
148.5644451063176
 30
0.0
  0
SEQEND
  5
512
330
50B
100
AcDbEntity
  8
Make2D$可见线$普通线
  0
ARC
  5
513
330
1F
100
AcDbEntity
  8
Make2D$可见线$普通线
100
AcDbCircle
 10
566.145661818786
 20
170.3619308759122
 30
0.0
 40
4.494630698594574
100
AcDbArc
 50
349.6768137656082
 51
354.8523396530356
  0
ARC
  5
514
330
1F
100
AcDbEntity
  8
Make2D$可见线$普通线
100
AcDbCircle
 10
568.2330943215055
 20
148.4190310664316
 30
0.0
 40
0.2113084664595682
100
AcDbArc
 50
43.48463493047393
 51
71.36784693436189
  0
ARC
  5
515
330
1F
100
AcDbEntity
  8
Make2D$可见线$普通线
100
AcDbCircle
 10
732.8799606651813
 20
140.0463799368947
 30
0.0
 40
164.7139499042115
100
AcDbArc
 50
177.0356670852415
 51
178.7699748023975
  0
LINE
  5
516
330
1F
100
AcDbEntity
  8
Make2D$可见线$普通线
100
AcDbLine
 10
568.2039655392008
 20
143.5821856887933
 30
0.0
 11
568.1855992974283
 21
143.5826237108359
 31
0.0
  0
LINE
  5
517
330
1F
100
AcDbEntity
  8
Make2D$可见线$普通线
100
AcDbLine
 10
567.7767455706394
 20
124.2499225454282
 30
0.0
 11
568.2039655392006
 21
143.5821856887933
 31
0.0
  0
ARC
  5
518
330
1F
100
AcDbEntity
  8
Make2D$可见线$普通线
100
AcDbCircle
 10
553.6205467845439
 20
174.2663089300861
 30
0.0
 40
17.51482387402117
100
AcDbArc
 50
355.853942895897
 51
90.01628176788574
  0
ARC
  5
519
330
1F
100
AcDbEntity
  8
Make2D$可见线$普通线
100
AcDbCircle
 10
553.6283966624266
 20
174.4275505557619
 30
0.0
 40
16.59156077670298
100
AcDbArc
 50
355.6601169584575
 51
48.65132961546046
  0
ARC
  5
51A
330
1F
100
AcDbEntity
  8
Make2D$可见线$普通线
100
AcDbCircle
 10
553.6106456364843
 20
174.4298677471981
 30
0.0
 40
16.60943628174936
100
AcDbArc
 50
345.342050130826
 51
355.6567802480371
  0
LINE
  5
51B
330
1F
100
AcDbEntity
  8
Make2D$可见线$普通线
100
AcDbLine
 10
569.6388854860966
 20
169.8108440792494
 30
0.0
 11
569.6795066967721
 21
170.2268833524309
 31
0.0
  0
ARC
  5
51C
330
1F
100
AcDbEntity
  8
Make2D$可见线$普通线
100
AcDbCircle
 10
856.5659122692884
 20
126.2255431918976
 30
0.0
 40
290.2185334400329
100
AcDbArc
 50
171.3625858184582
 51
172.8284879705066
  0
ARC
  5
51D
330
1F
100
AcDbEntity
  8
Make2D$可见线$普通线
100
AcDbCircle
 10
553.606283484436
 20
174.2701037024576
 30
0.0
 40
17.52932442222568
100
AcDbArc
 50
345.8689053368869
 51
355.8449425160365
  0
ARC
  5
51E
330
1F
100
AcDbEntity
  8
Make2D$可见线$普通线
100
AcDbCircle
 10
553.6154395997777
 20
173.0002024878082
 30
0.0
 40
25.50012998988331
100
AcDbArc
 50
309.715179661087
 51
359.9995472019609
  0
SPLINE
  5
51F
330
1F
100
AcDbEntity
  8
Make2D$可见线$普通线
100
AcDbSpline
210
0.0
220
0.0
230
1.0
 70
    12
 71
     3
 72
    31
 73
    27
 74
     0
 42
0.000000001
 43
0.0000000001
 12
1.0
 22
0.0
 32
0.0
 13
1.0
 23
0.0
 33
0.0
 40
0.0
 40
0.0
 40
0.0
 40
0.0
 40
0.4541593354693608
 40
0.4541593354693608
 40
0.4541593354693608
 40
1.860285497363953
 40
1.860285497363953
 40
1.860285497363953
 40
6.472784637629417
 40
6.472784637629417
 40
17.18165126091969
 40
17.18165126091969
 40
17.18165126091969
 40
17.68281725266847
 40
17.68281725266847
 40
17.68281725266847
 40
19.66071467675853
 40
19.66071467675853
 40
19.66071467675853
 40
21.62203235525617
 40
21.62203235525617
 40
21.62203235525617
 40
21.86071167280278
 40
21.86071167280278
 40
21.86071167280278
 40
22.391383151127
 40
22.391383151127
 40
22.391383151127
 40
22.391383151127
 10
572.326780836627
 20
160.2695904823424
 30
0.0
 41
1.0
 10
572.3547852623072
 20
160.4183722417386
 30
0.0
 41
0.9998951158570828
 10
572.3801462289149
 20
160.5676273292884
 30
0.0
 41
0.9998951158570826
 10
572.4028557565598
 20
160.7173087815156
 30
0.0
 41
1.0
 10
572.4730970827336
 20
161.1809562032867
 30
0.0
 41
0.999022843970698
 10
572.5181413762356
 20
161.6477257258999
 30
0.0
 41
0.9990228439706973
 10
572.5378565911556
 20
162.1162490293953
 30
0.0
 41
1.0
 10
572.5528161426224
 20
162.4695953949696
 30
0.0
 41
1.0
 10
572.5535332700956
 20
162.8230773738283
 30
0.0
 41
1.0
 10
572.5101305048747
 20
163.995812133865
 30
0.0
 41
1.0
 10
572.4054007311383
 20
164.8159896645645
 30
0.0
 41
1.0
 10
572.2305153148192
 20
165.6305105709797
 30
0.0
 41
1.0
 10
572.1954334994465
 20
165.793848605445
 30
0.0
 41
0.9999081419923128
 10
572.1576451309339
 20
165.956581781159
 30
0.0
 41
0.9999081419923119
 10
572.1171606227733
 20
166.1186652530858
 30
0.0
 41
1.0
 10
571.9566946324281
 20
166.7585698160082
 30
0.0
 41
0.9987323379550577
 10
571.7570906682189
 20
167.3873666362751
 30
0.0
 41
0.9987323379550581
 10
571.5191078212526
 20
168.0026644082978
 30
0.0
 41
1.0
 10
571.2832276967034
 20
168.6127637300368
 30
0.0
 41
0.9989669825183887
 10
571.0137625333527
 20
169.2087915324788
 30
0.0
 41
0.9989669825183882
 10
570.7115474178729
 20
169.7889006942053
 30
0.0
 41
1.0
 10
570.7024115508981
 20
169.8064727762643
 30
0.0
 41
1.0
 10
570.6932430476033
 20
169.8240383902942
 30
0.0
 41
1.0
 10
570.6840419410697
 20
169.8415974590873
 30
0.0
 41
1.0
 10
570.6635880883814
 20
169.8806308737236
 30
0.0
 41
1.0
 10
570.6429622496327
 20
169.9196521895022
 30
0.0
 41
1.0
 10
570.6221646644253
 20
169.958660011936
 30
0.0
 41
1.0
  0
ARC
  5
520
330
1F
100
AcDbEntity
  8
Make2D$可见线$普通线
100
AcDbCircle
 10
553.6329739660486
 20
174.2643639466814
 30
0.0
 40
17.5020403178058
100
AcDbArc
 50
345.8339661525874
 51
345.8657947651399
  0
LINE
  5
521
330
1F
100
AcDbEntity
  8
Make2D$可见线$普通线
100
AcDbLine
 10
570.6165517138949
 20
169.9691796123854
 30
0.0
 11
570.6051646170472
 21
169.9904711318983
 31
0.0
  0
LINE
  5
522
330
1F
100
AcDbEntity
  8
Make2D$可见线$普通线
100
AcDbLine
 10
570.6221646644253
 20
169.958660011936
 30
0.0
 11
570.6194922949265
 21
169.9636705040273
 31
0.0
  0
ARC
  5
523
330
1F
100
AcDbEntity
  8
Make2D$可见线$普通线
100
AcDbCircle
 10
570.575862935063
 20
169.9389326942976
 30
0.0
 40
0.0499826758309384
100
AcDbArc
 50
29.55825938309262
 51
57.40591854164842
  0
ARC
  5
524
330
1F
100
AcDbEntity
  8
Make2D$可见线$普通线
100
AcDbCircle
 10
539.6015358374038
 20
118.1345254624131
 30
0.0
 40
0.1375945943785638
100
AcDbArc
 50
257.8738253745884
 51
273.9377723382467
  0
LINE
  5
525
330
1F
100
AcDbEntity
  8
Make2D$可见线$普通线
100
AcDbLine
 10
553.6155695890949
 20
0.0000009649568824
 30
0.0
 11
543.4578539732105
 21
0.0000000468701273
 31
0.0
  0
ARC
  5
526
330
1F
100
AcDbEntity
  8
Make2D$可见线$普通线
100
AcDbCircle
 10
567.6296077931486
 20
118.1344914345606
 30
0.0
 40
0.1375603844870854
100
AcDbArc
 50
266.0619483540154
 51
282.1273271105215
  0
LINE
  5
527
330
1F
100
AcDbEntity
  8
Make2D$可见线$普通线
100
AcDbLine
 10
553.6155695890949
 20
0.0000009649568824
 30
0.0
 11
563.7732852049793
 21
0.0000000468701273
 31
0.0
  0
ARC
  5
528
330
1F
100
AcDbEntity
  8
Make2D$可见线$普通线
100
AcDbCircle
 10
553.1628722140855
 20
173.7322624194034
 30
0.0
 40
14.97063001028508
100
AcDbArc
 50
170.0390632929624
 51
189.9049823219623
  0
ARC
  5
529
330
1F
100
AcDbEntity
  8
Make2D$可见线$普通线
100
AcDbCircle
 10
554.0682667682579
 20
173.7322624307696
 30
0.0
 40
14.97063020512713
100
AcDbArc
 50
350.0950223578103
 51
9.961371381097841
  0
LINE
  5
52A
330
1F
100
AcDbEntity
  8
Make2D$可见线$普通线
100
AcDbLine
 10
560.3920654197703
 20
6.905736112096804
 30
0.0
 11
560.5061933039597
 21
6.806036384516972
 31
0.0
  0
LINE
  5
52B
330
1F
100
AcDbEntity
  8
Make2D$可见线$普通线
100
AcDbLine
 10
565.3881010959259
 20
11.81543489874537
 30
0.0
 11
565.582656631775
 21
11.65748248622816
 31
0.0
  0
LINE
  5
52C
330
1F
100
AcDbEntity
  8
Make2D$可见线$普通线
100
AcDbLine
 10
560.3920648908311
 20
9.142281106101166
 30
0.0
 11
546.839078748618
 21
9.14228048248458
 31
0.0
  0
LINE
  5
52D
330
1F
100
AcDbEntity
  8
Make2D$可见线$普通线
100
AcDbLine
 10
560.3920654197703
 20
6.905736112096747
 30
0.0
 11
546.839079331064
 21
6.905735464026577
 31
0.0
  0
POLYLINE
  5
52E
330
1F
100
AcDbEntity
  8
Make2D$可见线$普通线
100
AcDb2dPolyline
 66
     1
 10
0.0
 20
0.0
 30
0.0
  0
VERTEX
  5
52F
330
52E
100
AcDbEntity
  8
Make2D$可见线$普通线
100
AcDbVertex
100
AcDb2dVertex
 10
541.8430433204732
 20
11.81543401097565
 30
0.0
  0
VERTEX
  5
530
330
52E
100
AcDbEntity
  8
Make2D$可见线$普通线
100
AcDbVertex
100
AcDb2dVertex
 10
541.6683380635432
 20
23.46817621476281
 30
0.0
  0
VERTEX
  5
531
330
52E
100
AcDbEntity
  8
Make2D$可见线$普通线
100
AcDbVertex
100
AcDb2dVertex
 10
541.3403762066503
 20
43.61402878061608
 30
0.0
  0
VERTEX
  5
532
330
52E
100
AcDbEntity
  8
Make2D$可见线$普通线
100
AcDbVertex
100
AcDb2dVertex
 10
540.9852268075922
 20
63.76452308174359
 30
0.0
  0
VERTEX
  5
533
330
52E
100
AcDbEntity
  8
Make2D$可见线$普通线
100
AcDbVertex
100
AcDb2dVertex
 10
540.6420785885178
 20
82.14747515494722
 30
0.0
  0
VERTEX
  5
534
330
52E
100
AcDbEntity
  8
Make2D$可见线$普通线
100
AcDbVertex
100
AcDb2dVertex
 10
540.2831959492557
 20
100.5330649025767
 30
0.0
  0
VERTEX
  5
535
330
52E
100
AcDbEntity
  8
Make2D$可见线$普通线
100
AcDbVertex
100
AcDb2dVertex
 10
539.3577440598986
 20
146.8193742349309
 30
0.0
  0
VERTEX
  5
536
330
52E
100
AcDbEntity
  8
Make2D$可见线$普通线
100
AcDbVertex
100
AcDb2dVertex
 10
538.9110802493904
 20
169.9172007713365
 30
0.0
  0
VERTEX
  5
537
330
52E
100
AcDbEntity
  8
Make2D$可见线$普通线
100
AcDbVertex
100
AcDb2dVertex
 10
538.8962663753202
 20
170.6448686519483
 30
0.0
  0
SEQEND
  5
538
330
52E
100
AcDbEntity
  8
Make2D$可见线$普通线
  0
SPLINE
  5
539
330
1F
100
AcDbEntity
  8
Make2D$可见线$普通线
100
AcDbSpline
210
0.0
220
0.0
230
1.0
 70
     8
 71
     3
 72
    20
 73
    16
 74
     0
 42
0.000000001
 43
0.0000000001
 12
1.0
 22
0.0
 32
0.0
 13
1.0
 23
0.0
 33
0.0
 40
-0.0463420403189208
 40
-0.0463420403189208
 40
-0.0463420403189208
 40
-0.0463420403189208
 40
11.72149045321019
 40
52.40192143918226
 40
89.50768065367207
 40
89.50768065367207
 40
89.50768065367207
 40
113.7234977635426
 40
136.2033324469466
 40
136.2033324469466
 40
136.2033324469466
 40
159.2950776028542
 40
159.2950776028542
 40
159.2950776028542
 40
160.0330835266273
 40
160.0330835266273
 40
160.0330835266273
 40
160.0330835266273
 10
543.8049063310456
 20
12.05615487011869
 30
0.0
 10
543.7524185027876
 20
15.94347584134653
 30
0.0
 10
543.5044572943477
 20
33.26875805610484
 30
0.0
 10
543.0031369297915
 20
62.85004648113451
 30
0.0
 10
542.5081612258924
 20
88.54312535127379
 30
0.0
 10
542.2606277511513
 20
100.7990785706034
 30
0.0
 10
542.0991525763867
 20
108.7975116173528
 30
0.0
 10
541.7823609493066
 20
124.2208779901648
 30
0.0
 10
541.4646563572644
 20
139.64422570163
 30
0.0
 10
541.3131306483613
 20
147.0692349619775
 30
0.0
 10
541.1556890063193
 20
154.7648732769578
 30
0.0
 10
541.0018133989954
 20
162.4605837212974
 30
0.0
 10
540.8515038594301
 20
170.1563646425529
 30
0.0
 10
540.8467586034091
 20
170.4001297990729
 30
0.0
 10
540.8422427604718
 20
170.6438995802299
 30
0.0
 10
540.8370535679053
 20
170.8876560261975
 30
0.0
  0
ARC
  5
53A
330
1F
100
AcDbEntity
  8
Make2D$可见线$普通线
100
AcDbCircle
 10
560.352741583991
 20
11.94254624803506
 30
0.0
 40
5.036963639887758
100
AcDbArc
 50
270.4473156595503
 51
358.5539468620863
  0
ARC
  5
53B
330
1F
100
AcDbEntity
  8
Make2D$可见线$普通线
100
AcDbCircle
 10
560.4362590487583
 20
12.13291770335147
 30
0.0
 40
2.990963119198862
100
AcDbArc
 50
269.1533727513253
 51
358.5293642203612
  0
ARC
  5
53C
330
1F
100
AcDbEntity
  8
Make2D$可见线$普通线
100
AcDbCircle
 10
546.7948840666127
 20
12.13291688571183
 30
0.0
 40
2.990962932940755
100
AcDbArc
 50
181.4706375791756
 51
270.8466373418945
  0
SPLINE
  5
53D
330
1F
100
AcDbEntity
  8
Make2D$可见线$普通线
100
AcDbSpline
210
0.0
220
0.0
230
1.0
 70
    12
 71
     2
 72
    44
 73
    41
 74
     0
 42
0.000000001
 43
0.0000000001
 12
1.0
 22
0.0
 32
0.0
 13
1.0
 23
0.0
 33
0.0
 40
0.0
 40
0.0
 40
0.0
 40
0.6794489135323274
 40
0.6794489135323274
 40
2.044196553056147
 40
2.044196553056147
 40
4.804237766425747
 40
4.804237766425747
 40
7.614406865362279
 40
7.614406865362279
 40
10.47123515888079
 40
10.47123515888079
 40
13.36324220068878
 40
13.36324220068878
 40
16.27972322276569
 40
16.27972322276569
 40
19.21056779947567
 40
19.21056779947567
 40
20.6791790754429
 40
20.6791790754429
 40
22.14883406694381
 40
22.14883406694381
 40
23.61833991654355
 40
23.61833991654355
 40
25.0868724151621
 40
25.0868724151621
 40
28.01785285827909
 40
28.01785285827909
 40
30.93438947110981
 40
30.93438947110981
 40
33.82659303376317
 40
33.82659303376317
 40
36.68316470433217
 40
36.68316470433217
 40
39.49353173450878
 40
39.49353173450878
 40
42.2535907262125
 40
42.2535907262125
 40
43.6182711159388
 40
43.6182711159388
 40
44.29761945851235
 40
44.29761945851235
 40
44.29761945851235
 10
538.8962663753204
 20
170.6448686519483
 30
0.0
 41
1.0
 10
538.9008606680825
 20
170.9846665214112
 30
0.0
 41
0.9995389337300632
 10
538.9260716328229
 20
171.3235589923727
 30
0.0
 41
1.0
 10
538.9763682112831
 20
172.0047970792183
 30
0.0
 41
0.9984230599694782
 10
539.1027128635061
 20
172.6761033473467
 30
0.0
 41
1.0
 10
539.3616184603657
 20
174.0368978340445
 30
0.0
 41
0.9943950778481476
 10
539.9008713397461
 20
175.3128288961291
 30
0.0
 41
1.0
 10
540.4496330451834
 20
176.6113989590265
 30
0.0
 41
0.9950325509888124
 10
541.2447792976179
 20
177.775514956188
 30
0.0
 41
1.0
 10
542.0530111454502
 20
178.9587481228758
 30
0.0
 41
0.9952827192905518
 10
543.0745328999068
 20
179.9636226184087
 30
0.0
 41
1.0
 10
544.1088375941239
 20
180.9806001863962
 30
0.0
 41
0.9953284435783809
 10
545.3193147295349
 20
181.7798339938121
 30
0.0
 41
1.0
 10
546.540287886544
 20
182.5854828109499
 30
0.0
 41
0.9953096392615064
 10
547.8935541433854
 20
183.140924891446
 30
0.0
 41
1.0
 10
549.2536340298469
 20
183.6988119573727
 30
0.0
 41
0.9952818339623146
 10
550.6958546061779
 20
183.9835137049838
 30
0.0
 41
1.0
 10
551.4168374207508
 20
184.1257911466815
 30
0.0
 41
0.9988135281031814
 10
552.1482414935567
 20
184.1972556246271
 30
0.0
 41
1.0
 10
552.8801639094348
 20
184.2687800071836
 30
0.0
 41
0.9988146669044401
 10
553.6155727480199
 20
184.2687971974099
 30
0.0
 41
1.0
 10
554.3509070073048
 20
184.2687848322308
 30
0.0
 41
0.9988145639455859
 10
555.0827553639107
 20
184.1972694075694
 30
0.0
 41
1.0
 10
555.8141203896779
 20
184.1258125391997
 30
0.0
 41
0.9988138992420251
 10
556.5350672512373
 20
183.9835574592881
 30
0.0
 41
1.0
 10
557.977357620335
 20
183.6988577316862
 30
0.0
 41
0.9952819025228012
 10
559.3375071640776
 20
183.1409610904118
 30
0.0
 41
1.0
 10
560.6907961923046
 20
182.5855032831545
 30
0.0
 41
0.9953105007368902
 10
561.9118030153642
 20
181.7798563954892
 30
0.0
 41
1.0
 10
563.122351600549
 20
180.9805534963771
 30
0.0
 41
0.9953293410397143
 10
564.1567320427787
 20
179.963513623828
 30
0.0
 41
1.0
 10
565.1781337215788
 20
178.9587032745385
 30
0.0
 41
0.9952846629020662
 10
565.9863075518509
 20
177.77558861925
 30
0.0
 41
1.0
 10
566.7815150173653
 20
176.6113936270949
 30
0.0
 41
0.9950320630288687
 10
567.330308341951
 20
175.3127286280058
 30
0.0
 41
1.0
 10
567.8695593026572
 20
174.0367855893176
 30
0.0
 41
0.9943936130927971
 10
568.1284228025972
 20
172.6759726245799
 30
0.0
 41
1.0
 10
568.2547993226968
 20
172.004705039847
 30
0.0
 41
0.9984196855252181
 10
568.3050500528078
 20
171.3234957773814
 30
0.0
 41
1.0
 10
568.3302878837823
 20
170.9846552781719
 30
0.0
 41
0.9995368736486185
 10
568.3348660966943
 20
170.6449070302245
 30
0.0
 41
1.0
  0
SPLINE
  5
53E
330
1F
100
AcDbEntity
  8
Make2D$可见线$普通线
100
AcDbSpline
210
0.0
220
0.0
230
1.0
 70
    12
 71
     2
 72
    44
 73
    41
 74
     0
 42
0.000000001
 43
0.0000000001
 12
1.0
 22
0.0
 32
0.0
 13
1.0
 23
0.0
 33
0.0
 40
0.0
 40
0.0
 40
0.0
 40
0.5691660073372029
 40
0.5691660073372029
 40
1.71537537298665
 40
1.71537537298665
 40
4.068508416455826
 40
4.068508416455826
 40
6.520002687659364
 40
6.520002687659364
 40
9.061700569456937
 40
9.061700569456937
 40
11.67214428294841
 40
11.67214428294841
 40
14.33050267642965
 40
14.33050267642965
 40
17.01787813501054
 40
17.01787813501054
 40
18.36772580310733
 40
18.36772580310733
 40
19.71959594405596
 40
19.71959594405596
 40
21.07131616378432
 40
21.07131616378432
 40
22.42110274446093
 40
22.42110274446093
 40
25.10860334643432
 40
25.10860334643432
 40
27.76701107579592
 40
27.76701107579592
 40
30.37760692090776
 40
30.37760692090776
 40
32.91908748084367
 40
32.91908748084367
 40
35.37072920059855
 40
35.37072920059855
 40
37.72394509422614
 40
37.72394509422614
 40
38.87011910251182
 40
38.87011910251182
 40
39.43915371331818
 40
39.43915371331818
 40
39.43915371331818
 10
540.8370535679053
 20
170.8876560261975
 30
0.0
 41
1.0
 10
540.8309125061335
 20
171.1722332980335
 30
0.0
 41
0.9996810986347242
 10
540.8391474066639
 20
171.45675767783
 30
0.0
 41
1.0
 10
540.8562760071194
 20
172.0301209942935
 30
0.0
 41
0.9986553321421658
 10
540.9326804817592
 20
172.5986288991414
 30
0.0
 41
1.0
 10
541.0910678014976
 20
173.7687751881196
 30
0.0
 41
0.9946092740530356
 10
541.4874145417257
 20
174.8810872586169
 30
0.0
 41
1.0
 10
541.9006340263594
 20
176.0397465585452
 30
0.0
 41
0.9946533866595051
 10
542.5430692472432
 20
177.0888026594091
 30
0.0
 41
1.0
 10
543.2092573515662
 20
178.1763348582427
 30
0.0
 41
0.9947075020780067
 10
544.0836785607374
 20
179.1047315529767
 30
0.0
 41
1.0
 10
544.9817940144679
 20
180.058133375493
 30
0.0
 41
0.9947607873375837
 10
546.0550483742877
 20
180.8089405961129
 30
0.0
 41
1.0
 10
547.1480491236199
 20
181.5733894899485
 30
0.0
 41
0.9948071896306866
 10
548.3732051612466
 20
182.1006706604769
 30
0.0
 41
1.0
 10
549.6117492019309
 20
182.6336003051132
 30
0.0
 41
0.994838788268101
 10
550.9323822560772
 20
182.9055077951595
 30
0.0
 41
1.0
 10
551.5939976390198
 20
183.0417902802264
 30
0.0
 41
0.9987086302346306
 10
552.266027245122
 20
183.1102303211695
 30
0.0
 41
1.0
 10
552.93906015134
 20
183.1787903874605
 30
0.0
 41
0.998712636746367
 10
553.6155760604693
 20
183.1788057684842
 30
0.0
 41
1.0
 10
554.2920170003415
 20
183.1787949854578
 30
0.0
 41
0.9987125134808846
 10
554.9649754558247
 20
183.1102438188344
 30
0.0
 41
1.0
 10
555.6369748954526
 20
183.0418110541871
 30
0.0
 41
0.9987090257606354
 10
556.2985631279432
 20
182.9055491711555
 30
0.0
 41
1.0
 10
557.6192598520374
 20
182.6336408190557
 30
0.0
 41
0.9948390671166082
 10
558.8578690067912
 20
182.1007042836833
 30
0.0
 41
1.0
 10
560.083042659531
 20
181.5734043238948
 30
0.0
 41
0.9948084695945056
 10
561.1760760832129
 20
180.8089609566825
 30
0.0
 41
1.0
 10
562.249381910908
 20
180.0580953874229
 30
0.0
 41
0.9947615986757317
 10
563.1475510239719
 20
179.1046402247634
 30
0.0
 41
1.0
 10
564.0218801774889
 20
178.1763081621355
 30
0.0
 41
0.9947088089533475
 10
564.6880190458199
 20
177.0888749939402
 30
0.0
 41
1.0
 10
565.3305104155538
 20
176.0397646309867
 30
0.0
 41
0.9946514372613381
 10
565.7437299618548
 20
174.8810250914896
 30
0.0
 41
1.0
 10
566.1401106049077
 20
173.7686786333153
 30
0.0
 41
0.9946065013695874
 10
566.2984614334363
 20
172.5984832341172
 30
0.0
 41
1.0
 10
566.3748795250825
 20
172.0299943774985
 30
0.0
 41
0.9986536874096864
 10
566.391987272517
 20
171.4566475105775
 30
0.0
 41
1.0
 10
566.4002256010982
 20
171.1721888874439
 30
0.0
 41
0.999680664883548
 10
566.394081512567
 20
170.8876773261516
 30
0.0
 41
1.0
  0
POLYLINE
  5
53F
330
1F
100
AcDbEntity
  8
Make2D$可见线$普通线
100
AcDb2dPolyline
 66
     1
 10
0.0
 20
0.0
 30
0.0
  0
VERTEX
  5
540
330
53F
100
AcDbEntity
  8
Make2D$可见线$普通线
100
AcDbVertex
100
AcDb2dVertex
 10
566.394081512567
 20
170.8876773261516
 30
0.0
  0
VERTEX
  5
541
330
53F
100
AcDbEntity
  8
Make2D$可见线$普通线
100
AcDbVertex
100
AcDb2dVertex
 10
565.4608059122487
 20
124.7943619080897
 30
0.0
 42
0.0017513509769782
  0
VERTEX
  5
542
330
53F
100
AcDbEntity
  8
Make2D$可见线$普通线
100
AcDbVertex
100
AcDb2dVertex
 10
563.4262369729331
 20
12.05615577688678
 30
0.0
  0
SEQEND
  5
543
330
53F
100
AcDbEntity
  8
Make2D$可见线$普通线
  0
POLYLINE
  5
544
330
1F
100
AcDbEntity
  8
Make2D$可见线$普通线
100
AcDb2dPolyline
 66
     1
 10
0.0
 20
0.0
 30
0.0
  0
VERTEX
  5
545
330
544
100
AcDbEntity
  8
Make2D$可见线$普通线
100
AcDbVertex
100
AcDb2dVertex
 10
568.3348660966943
 20
170.6449070302245
 30
0.0
 42
0.0016898268373726
  0
VERTEX
  5
546
330
544
100
AcDbEntity
  8
Make2D$可见线$普通线
100
AcDbVertex
100
AcDb2dVertex
 10
568.3200545055622
 20
169.9170890623477
 30
0.0
 42
-0.0002237761351574
  0
VERTEX
  5
547
330
544
100
AcDbEntity
  8
Make2D$可见线$普通线
100
AcDbVertex
100
AcDb2dVertex
 10
567.873395007272
 20
146.8193153615303
 30
0.0
 42
-0.0000788950518853
  0
VERTEX
  5
548
330
544
100
AcDbEntity
  8
Make2D$可见线$普通线
100
AcDbVertex
100
AcDb2dVertex
 10
567.4288968735304
 20
124.5353268224521
 30
0.0
 42
0.0000436467143047
  0
VERTEX
  5
549
330
544
100
AcDbEntity
  8
Make2D$可见线$普通线
100
AcDbVertex
100
AcDb2dVertex
 10
566.9479519650896
 20
100.5332480841303
 30
0.0
 42
0.0004264135434872
  0
VERTEX
  5
54A
330
544
100
AcDbEntity
  8
Make2D$可见线$普通线
100
AcDbVertex
100
AcDb2dVertex
 10
566.2459231287364
 20
63.76484833546592
 30
0.0
 42
0.0006725441316413
  0
VERTEX
  5
54B
330
544
100
AcDbEntity
  8
Make2D$可见线$普通线
100
AcDbVertex
100
AcDb2dVertex
 10
565.5628083979991
 20
23.46830705446001
 30
0.0
  0
VERTEX
  5
54C
330
544
100
AcDbEntity
  8
Make2D$可见线$普通线
100
AcDbVertex
100
AcDb2dVertex
 10
565.3881010959248
 20
11.81543489874544
 30
0.0
  0
SEQEND
  5
54D
330
544
100
AcDbEntity
  8
Make2D$可见线$普通线
  0
ARC
  5
54E
330
1F
100
AcDbEntity
  8
Make2D$可见线$普通线
100
AcDbCircle
 10
546.8784026486445
 20
11.94254542185431
 30
0.0
 40
5.036963457737028
100
AcDbArc
 50
181.4460538910198
 51
269.5526902189972
  0
LINE
  5
54F
330
1F
100
AcDbEntity
  8
Make2D$可见线$普通线
100
AcDbLine
 10
546.7249529409811
 20
6.806037042956973
 30
0.0
 11
560.5061933039597
 21
6.806036384516972
 31
0.0
  0
LINE
  5
550
330
1F
100
AcDbEntity
  8
Make2D$可见线$普通线
100
AcDbLine
 10
565.582656631775
 20
11.65748248622816
 30
0.0
 11
567.2904325363163
 21
101.6088328486031
 31
0.0
  0
SPLINE
  5
551
330
1F
100
AcDbEntity
  8
Make2D$可见线$普通线
100
AcDbSpline
210
0.0
220
0.0
230
1.0
 70
    12
 71
     3
 72
    12
 73
     8
 74
     0
 42
0.000000001
 43
0.0000000001
 12
1.0
 22
0.0
 32
0.0
 13
1.0
 23
0.0
 33
0.0
 40
0.0
 40
0.0
 40
0.0
 40
0.0
 40
3.094383015277724
 40
3.094383015277724
 40
3.094383015277724
 40
5.319011388716594
 40
7.351928105075974
 40
7.351928105075974
 40
7.351928105075974
 40
7.351928105075974
 10
546.7249529409811
 20
6.806037042956973
 30
0.0
 41
1.0
 10
545.6779744169536
 20
6.808484468550731
 30
0.0
 41
0.9707009973051167
 10
544.6777266150724
 20
7.117797181670642
 30
0.0
 41
0.9707009973051164
 10
543.8121283244651
 20
7.706787520270924
 30
0.0
 41
1.0
 10
543.1348901776183
 20
8.167490735748995
 30
0.0
 41
1.0
 10
542.0613531229671
 20
9.369540164281931
 30
0.0
 41
0.9999999999999982
 10
541.6615131091157
 20
10.91576692902263
 30
0.0
 41
1.000000000000002
 10
541.6484901495132
 20
11.65748325354087
 30
0.0
 41
1.0
  0
SPLINE
  5
552
330
1F
100
AcDbEntity
  8
Make2D$可见线$普通线
100
AcDbSpline
210
0.0
220
0.0
230
1.0
 70
    12
 71
     2
 72
     6
 73
     3
 74
     0
 42
0.000000001
 43
0.0000000001
 12
1.0
 22
0.0
 32
0.0
 13
1.0
 23
0.0
 33
0.0
 40
0.84375
 40
0.84375
 40
0.84375
 40
1.0
 40
1.0
 40
1.0
 10
560.506193268631
 20
6.799413909801242
 30
0.0
 41
0.9227723092589067
 10
560.5061932862468
 20
6.796077682291514
 30
0.0
 41
0.9542354425237966
 10
560.5061933039597
 20
6.806036384516972
 30
0.0
 41
1.0
  0
ARC
  5
553
330
1F
100
AcDbEntity
  8
Make2D$可见线$普通线
100
AcDbCircle
 10
565.5689943267248
 20
11.63876086202691
 30
0.0
 40
0.0231766648165224
100
AcDbArc
 50
3.34777937604759
 51
53.8795023447213
  0
SPLINE
  5
554
330
1F
100
AcDbEntity
  8
Make2D$可见线$普通线
100
AcDbSpline
210
0.0
220
0.0
230
1.0
 70
     8
 71
     3
 72
    12
 73
     8
 74
     0
 42
0.000000001
 43
0.0000000001
 12
1.0
 22
0.0
 32
0.0
 13
1.0
 23
0.0
 33
0.0
 40
-0.0986342339331083
 40
-0.0986342339331083
 40
-0.0986342339331083
 40
-0.0986342339331083
 40
2.697823008595415
 40
2.697823008595415
 40
2.697823008595415
 40
4.922485714695252
 40
6.955402242125203
 40
6.955402242125203
 40
6.955402242125203
 40
6.955402242125203
 10
560.5061933039597
 20
6.806036384516972
 30
0.0
 10
561.5383345023065
 20
6.807687934768856
 30
0.0
 10
562.5690051173258
 20
7.124347649049008
 30
0.0
 10
563.4189872412737
 20
7.70676539475528
 30
0.0
 10
564.096239335417
 20
8.167470606934693
 30
0.0
 10
565.1697904763215
 20
9.369526657916587
 30
0.0
 10
565.5696336382409
 20
10.91576582558423
 30
0.0
 10
565.582656631775
 20
11.65748248622816
 30
0.0
  0
LINE
  5
555
330
1F
100
AcDbEntity
  8
Make2D$可见线$普通线
100
AcDbLine
 10
538.7211396203456
 20
178.9848884516551
 30
0.0
 11
538.6884528995024
 21
178.7603123551419
 31
0.0
  0
SPLINE
  5
556
330
1F
100
AcDbEntity
  8
Make2D$可见线$普通线
100
AcDbSpline
210
0.0
220
0.0
230
1.0
 70
    12
 71
     2
 72
    36
 73
    33
 74
     0
 42
0.000000001
 43
0.0000000001
 12
1.0
 22
0.0
 32
0.0
 13
1.0
 23
0.0
 33
0.0
 40
0.0
 40
0.0
 40
0.0
 40
2.717371803884488
 40
2.717371803884488
 40
5.738351134610346
 40
5.738351134610346
 40
8.778783223726098
 40
8.778783223726098
 40
11.83608557848531
 40
11.83608557848531
 40
14.90615106415768
 40
14.90615106415768
 40
17.98430369229118
 40
17.98430369229118
 40
19.52521136717656
 40
19.52521136717656
 40
21.06677480971425
 40
21.06677480971425
 40
22.60849475943307
 40
22.60849475943307
 40
24.14948540556926
 40
24.14948540556926
 40
27.22749647483329
 40
27.22749647483329
 40
30.2975048751339
 40
30.2975048751339
 40
33.35459667101411
 40
33.35459667101411
 40
36.39530371066021
 40
36.39530371066021
 40
39.41606096285532
 40
39.41606096285532
 40
42.13371230007833
 40
42.13371230007833
 40
42.13371230007833
 10
568.4951299976892
 20
179.0793557532927
 30
0.0
 41
1.0
 10
568.2781887699219
 20
180.4247997153794
 30
0.0
 41
0.9954541267854837
 10
567.8100622158884
 20
181.7046983366886
 30
0.0
 41
1.0
 10
567.2889409085021
 20
183.1282587292472
 30
0.0
 41
0.9946100100123456
 10
566.4854073404047
 20
184.4137257312407
 30
0.0
 41
1.0
 10
565.6765798110289
 20
185.707220792077
 30
0.0
 41
0.9947544513049964
 10
564.6214393763098
 20
186.8090420605708
 30
0.0
 41
1.0
 10
563.5603198999002
 20
187.9167201478956
 30
0.0
 41
0.9948509811310344
 10
562.2976320277847
 20
188.7876648223544
 30
0.0
 41
1.0
 10
561.0295507777944
 20
189.6619484402558
 30
0.0
 41
0.9949168162556942
 10
559.6120015519539
 20
190.2644068151059
 30
0.0
 41
1.0
 10
558.1906626188983
 20
190.868219270283
 30
0.0
 41
0.9949553263446544
 10
556.6773955539842
 20
191.1761423676515
 30
0.0
 41
1.0
 10
555.9217780705864
 20
191.3298983036377
 30
0.0
 41
0.9987391551183673
 10
555.1545512346479
 20
191.4071100338549
 30
0.0
 41
1.0
 10
554.3870013758104
 20
191.4843715516041
 30
0.0
 41
0.9987426006521014
 10
553.6155727480199
 20
191.484383863404
 30
0.0
 41
1.0
 10
552.8440658579584
 20
191.4843656261286
 30
0.0
 41
0.998742711063764
 10
552.0764383832101
 20
191.4070937570136
 30
0.0
 41
1.0
 10
551.3091705730611
 20
191.3298725269929
 30
0.0
 41
0.9987387686641287
 10
550.5535156419652
 20
191.1760913969184
 30
0.0
 41
1.0
 10
549.0403213765326
 20
190.8681657833312
 30
0.0
 41
0.9949551498470532
 10
547.6190564045669
 20
190.2643603942324
 30
0.0
 41
1.0
 10
546.2015297423524
 20
189.6619193451284
 30
0.0
 41
0.9949157546876022
 10
544.9334855587321
 20
188.787630488902
 30
0.0
 41
1.0
 10
543.6708746371402
 20
187.9167593113136
 30
0.0
 41
0.9948504289369974
 10
542.6098277786432
 20
186.8091571664305
 30
0.0
 41
1.0
 10
541.5545697570482
 20
185.7072555128652
 30
0.0
 41
0.9947530574857018
 10
540.7456787116531
 20
184.4136357762541
 30
0.0
 41
1.0
 10
539.9422219996294
 20
183.1282543117082
 30
0.0
 41
0.9946118086037479
 10
539.4211088655306
 20
181.7048115489096
 30
0.0
 41
1.0
 10
538.9529415349082
 20
180.4247788973595
 30
0.0
 41
0.9954544664917814
 10
538.7359760860226
 20
179.079197152356
 30
0.0
 41
1.0
  0
LINE
  5
557
330
1F
100
AcDbEntity
  8
Make2D$可见线$普通线
100
AcDbLine
 10
568.5426694676778
 20
178.7603559185747
 30
0.0
 11
568.5100085923402
 21
178.9847700436276
 31
0.0
  0
LINE
  5
558
330
1F
100
AcDbEntity
  8
Make2D$可见线$普通线
100
AcDbLine
 10
539.940713987191
 20
101.6087889539731
 30
0.0
 11
541.6484901495133
 21
11.65748325354093
 31
0.0
  0
ENDSEC
  0
SECTION
  2
OBJECTS
  0
DICTIONARY
  5
C
330
0
100
AcDbDictionary
281
     1
  3
ACAD_GROUP
350
D
  3
ACAD_LAYOUT
350
1A
  3
ACAD_MATERIAL
350
3B
  3
ACAD_MLEADERSTYLE
350
583
  3
ACAD_MLINESTYLE
350
17
  3
ACAD_PLOTSETTINGS
350
19
  3
ACAD_PLOTSTYLENAME
350
E
  3
ACAD_SCALELIST
350
3F
  3
ACAD_TABLESTYLE
350
582
  3
ACAD_VISUALSTYLE
350
2A
  3
AcDbVariableDictionary
350
559
  0
DICTIONARY
  5
D
102
{ACAD_REACTORS
330
C
102
}
330
C
100
AcDbDictionary
281
     1
  0
DICTIONARY
  5
1A
102
{ACAD_REACTORS
330
C
102
}
330
C
100
AcDbDictionary
281
     1
  3
Layout1
350
1E
  3
Layout2
350
26
  3
Model
350
22
  0
DICTIONARY
  5
3B
102
{ACAD_REACTORS
330
C
102
}
330
C
100
AcDbDictionary
281
     1
  3
ByBlock
350
3D
  3
ByLayer
350
3C
  3
Global
350
3E
  0
DICTIONARY
  5
583
102
{ACAD_REACTORS
330
C
102
}
330
C
100
AcDbDictionary
281
     1
  0
DICTIONARY
  5
17
102
{ACAD_REACTORS
330
C
102
}
330
C
100
AcDbDictionary
281
     1
  3
Standard
350
18
  0
DICTIONARY
  5
19
102
{ACAD_REACTORS
330
C
102
}
330
C
100
AcDbDictionary
281
     1
  0
ACDBDICTIONARYWDFLT
  5
E
102
{ACAD_REACTORS
330
C
102
}
330
C
100
AcDbDictionary
281
     1
  3
Normal
350
F
100
AcDbDictionaryWithDefault
340
F
  0
DICTIONARY
  5
3F
102
{ACAD_REACTORS
330
C
102
}
330
C
100
AcDbDictionary
281
     1
  3
A0
350
40
  3
A1
350
41
  3
A2
350
42
  3
A3
350
43
  3
A4
350
44
  3
A5
350
45
  3
A6
350
46
  3
A7
350
47
  3
A8
350
48
  3
A9
350
49
  3
B0
350
4A
  3
B1
350
4B
  3
B2
350
4C
  3
B3
350
4D
  3
B4
350
4E
  3
B5
350
4F
  3
B6
350
50
  3
B7
350
51
  3
B8
350
52
  3
B9
350
53
  3
C0
350
54
  3
C1
350
55
  3
C2
350
56
  3
C3
350
57
  3
C4
350
58
  3
C5
350
59
  3
C6
350
5A
  3
C7
350
5B
  3
C8
350
5C
  3
C9
350
5D
  3
D0
350
5E
  3
D1
350
5F
  3
D2
350
60
  0
DICTIONARY
  5
582
102
{ACAD_REACTORS
330
C
102
}
330
C
100
AcDbDictionary
281
     1
  0
DICTIONARY
  5
2A
102
{ACAD_REACTORS
330
C
102
}
330
C
100
AcDbDictionary
281
     1
  3
2dWireframe
350
2F
  3
3D Hidden
350
31
  3
3dWireframe
350
30
  3
Basic
350
32
  3
Brighten
350
36
  3
ColorChange
350
3A
  3
Conceptual
350
34
  3
Dim
350
35
  3
Facepattern
350
39
  3
Flat
350
2B
  3
FlatWithEdges
350
2C
  3
Gouraud
350
2D
  3
GouraudWithEdges
350
2E
  3
Linepattern
350
38
  3
Realistic
350
33
  3
Thicken
350
37
  0
DICTIONARY
  5
559
102
{ACAD_REACTORS
330
C
102
}
330
C
100
AcDbDictionary
281
     1
  3
CANNOSCALE
350
55A
  3
MSLTSCALE
350
55B
  0
LAYOUT
  5
1E
102
{ACAD_REACTORS
330
1A
102
}
330
1A
100
AcDbPlotSettings
  1

  2
none_device
  4

  6

 40
0.0
 41
0.0
 42
0.0
 43
0.0
 44
0.0
 45
0.0
 46
0.0
 47
0.0
 48
0.0
 49
0.0
140
0.0
141
0.0
142
1.0
143
1.0
 70
   688
 72
     0
 73
     0
 74
     5
  7

 75
    16
 76
     0
 77
     2
 78
   300
147
1.0
148
0.0
149
0.0
100
AcDbLayout
  1
Layout1
 70
     1
 71
     1
 10
0.0
 20
0.0
 11
12.0
 21
9.0
 12
0.0
 22
0.0
 32
0.0
 14
1.000000000000000E+20
 24
1.000000000000000E+20
 34
1.000000000000000E+20
 15
-1.000000000000000E+20
 25
-1.000000000000000E+20
 35
-1.000000000000000E+20
146
0.0
 13
0.0
 23
0.0
 33
0.0
 16
1.0
 26
0.0
 36
0.0
 17
0.0
 27
1.0
 37
0.0
 76
     0
330
1B
  0
LAYOUT
  5
26
102
{ACAD_REACTORS
330
1A
102
}
330
1A
100
AcDbPlotSettings
  1

  2
none_device
  4

  6

 40
0.0
 41
0.0
 42
0.0
 43
0.0
 44
0.0
 45
0.0
 46
0.0
 47
0.0
 48
0.0
 49
0.0
140
0.0
141
0.0
142
1.0
143
1.0
 70
   688
 72
     0
 73
     0
 74
     5
  7

 75
    16
 76
     0
 77
     2
 78
   300
147
1.0
148
0.0
149
0.0
100
AcDbLayout
  1
Layout2
 70
     1
 71
     2
 10
0.0
 20
0.0
 11
0.0
 21
0.0
 12
0.0
 22
0.0
 32
0.0
 14
0.0
 24
0.0
 34
0.0
 15
0.0
 25
0.0
 35
0.0
146
0.0
 13
0.0
 23
0.0
 33
0.0
 16
1.0
 26
0.0
 36
0.0
 17
0.0
 27
1.0
 37
0.0
 76
     0
330
23
  0
LAYOUT
  5
22
102
{ACAD_REACTORS
330
1A
102
}
330
1A
100
AcDbPlotSettings
  1

  2
none_device
  4
Letter_(8.50_x_11.00_Inches)
  6

 40
6.35
 41
6.35
 42
6.35000508
 43
6.35000508
 44
215.9
 45
279.4
 46
0.0
 47
0.0
 48
0.0
 49
0.0
140
0.0
141
0.0
142
1.0
143
1.0
 70
  1712
 72
     0
 73
     0
 74
     0
  7

 75
     0
 76
     0
 77
     2
 78
   300
147
1.0
148
0.0
149
0.0
100
AcDbLayout
  1
Model
 70
     1
 71
     0
 10
0.0
 20
0.0
 11
12.0
 21
9.0
 12
0.0
 22
0.0
 32
0.0
 14
528.115569589325
 24
0.0000000468701273
 34
0.0
 15
587.7752201076836
 25
205.8766055699451
 35
0.0
146
0.0
 13
0.0
 23
0.0
 33
0.0
 16
1.0
 26
0.0
 36
0.0
 17
0.0
 27
1.0
 37
0.0
 76
     0
330
1F
331
29
  0
MATERIAL
  5
3D
102
{ACAD_REACTORS
330
3B
102
}
102
{ACAD_XDICTIONARY
360
57E
102
}
330
3B
100
AcDbMaterial
  1
ByBlock
  0
MATERIAL
  5
3C
102
{ACAD_REACTORS
330
3B
102
}
102
{ACAD_XDICTIONARY
360
57C
102
}
330
3B
100
AcDbMaterial
  1
ByLayer
  0
MATERIAL
  5
3E
102
{ACAD_REACTORS
330
3B
102
}
102
{ACAD_XDICTIONARY
360
580
102
}
330
3B
100
AcDbMaterial
  1
Global
  0
MLINESTYLE
  5
18
102
{ACAD_REACTORS
330
17
102
}
330
17
100
AcDbMlineStyle
  2
Standard
 70
     0
  3

 62
   256
 51
90.0
 52
90.0
 71
     2
 49
0.5
 62
   256
  6
BYLAYER
 49
-0.5
 62
   256
  6
BYLAYER
  0
ACDBPLACEHOLDER
  5
F
102
{ACAD_REACTORS
330
E
102
}
330
E
  0
SCALE
  5
40
102
{ACAD_REACTORS
330
3F
102
}
330
3F
100
AcDbScale
 70
     0
300
1:1
140
1.0
141
1.0
290
     1
  0
SCALE
  5
41
102
{ACAD_REACTORS
330
3F
102
}
330
3F
100
AcDbScale
 70
     0
300
1:2
140
1.0
141
2.0
290
     0
  0
SCALE
  5
42
102
{ACAD_REACTORS
330
3F
102
}
330
3F
100
AcDbScale
 70
     0
300
1:4
140
1.0
141
4.0
290
     0
  0
SCALE
  5
43
102
{ACAD_REACTORS
330
3F
102
}
330
3F
100
AcDbScale
 70
     0
300
1:5
140
1.0
141
5.0
290
     0
  0
SCALE
  5
44
102
{ACAD_REACTORS
330
3F
102
}
330
3F
100
AcDbScale
 70
     0
300
1:8
140
1.0
141
8.0
290
     0
  0
SCALE
  5
45
102
{ACAD_REACTORS
330
3F
102
}
330
3F
100
AcDbScale
 70
     0
300
1:10
140
1.0
141
10.0
290
     0
  0
SCALE
  5
46
102
{ACAD_REACTORS
330
3F
102
}
330
3F
100
AcDbScale
 70
     0
300
1:16
140
1.0
141
16.0
290
     0
  0
SCALE
  5
47
102
{ACAD_REACTORS
330
3F
102
}
330
3F
100
AcDbScale
 70
     0
300
1:20
140
1.0
141
20.0
290
     0
  0
SCALE
  5
48
102
{ACAD_REACTORS
330
3F
102
}
330
3F
100
AcDbScale
 70
     0
300
1:30
140
1.0
141
30.0
290
     0
  0
SCALE
  5
49
102
{ACAD_REACTORS
330
3F
102
}
330
3F
100
AcDbScale
 70
     0
300
1:40
140
1.0
141
40.0
290
     0
  0
SCALE
  5
4A
102
{ACAD_REACTORS
330
3F
102
}
330
3F
100
AcDbScale
 70
     0
300
1:50
140
1.0
141
50.0
290
     0
  0
SCALE
  5
4B
102
{ACAD_REACTORS
330
3F
102
}
330
3F
100
AcDbScale
 70
     0
300
1:100
140
1.0
141
100.0
290
     0
  0
SCALE
  5
4C
102
{ACAD_REACTORS
330
3F
102
}
330
3F
100
AcDbScale
 70
     0
300
2:1
140
2.0
141
1.0
290
     0
  0
SCALE
  5
4D
102
{ACAD_REACTORS
330
3F
102
}
330
3F
100
AcDbScale
 70
     0
300
4:1
140
4.0
141
1.0
290
     0
  0
SCALE
  5
4E
102
{ACAD_REACTORS
330
3F
102
}
330
3F
100
AcDbScale
 70
     0
300
8:1
140
8.0
141
1.0
290
     0
  0
SCALE
  5
4F
102
{ACAD_REACTORS
330
3F
102
}
330
3F
100
AcDbScale
 70
     0
300
10:1
140
10.0
141
1.0
290
     0
  0
SCALE
  5
50
102
{ACAD_REACTORS
330
3F
102
}
330
3F
100
AcDbScale
 70
     0
300
100:1
140
100.0
141
1.0
290
     0
  0
SCALE
  5
51
102
{ACAD_REACTORS
330
3F
102
}
330
3F
100
AcDbScale
 70
     0
300
1/128" = 1'-0"
140
0.0078125
141
12.0
290
     0
  0
SCALE
  5
52
102
{ACAD_REACTORS
330
3F
102
}
330
3F
100
AcDbScale
 70
     0
300
1/64" = 1'-0"
140
0.015625
141
12.0
290
     0
  0
SCALE
  5
53
102
{ACAD_REACTORS
330
3F
102
}
330
3F
100
AcDbScale
 70
     0
300
1/32" = 1'-0"
140
0.03125
141
12.0
290
     0
  0
SCALE
  5
54
102
{ACAD_REACTORS
330
3F
102
}
330
3F
100
AcDbScale
 70
     0
300
1/16" = 1'-0"
140
0.0625
141
12.0
290
     0
  0
SCALE
  5
55
102
{ACAD_REACTORS
330
3F
102
}
330
3F
100
AcDbScale
 70
     0
300
3/32" = 1'-0"
140
0.09375
141
12.0
290
     0
  0
SCALE
  5
56
102
{ACAD_REACTORS
330
3F
102
}
330
3F
100
AcDbScale
 70
     0
300
1/8" = 1'-0"
140
0.125
141
12.0
290
     0
  0
SCALE
  5
57
102
{ACAD_REACTORS
330
3F
102
}
330
3F
100
AcDbScale
 70
     0
300
3/16" = 1'-0"
140
0.1875
141
12.0
290
     0
  0
SCALE
  5
58
102
{ACAD_REACTORS
330
3F
102
}
330
3F
100
AcDbScale
 70
     0
300
1/4" = 1'-0"
140
0.25
141
12.0
290
     0
  0
SCALE
  5
59
102
{ACAD_REACTORS
330
3F
102
}
330
3F
100
AcDbScale
 70
     0
300
3/8" = 1'-0"
140
0.375
141
12.0
290
     0
  0
SCALE
  5
5A
102
{ACAD_REACTORS
330
3F
102
}
330
3F
100
AcDbScale
 70
     0
300
1/2" = 1'-0"
140
0.5
141
12.0
290
     0
  0
SCALE
  5
5B
102
{ACAD_REACTORS
330
3F
102
}
330
3F
100
AcDbScale
 70
     0
300
3/4" = 1'-0"
140
0.75
141
12.0
290
     0
  0
SCALE
  5
5C
102
{ACAD_REACTORS
330
3F
102
}
330
3F
100
AcDbScale
 70
     0
300
1" = 1'-0"
140
1.0
141
12.0
290
     0
  0
SCALE
  5
5D
102
{ACAD_REACTORS
330
3F
102
}
330
3F
100
AcDbScale
 70
     0
300
1-1/2" = 1'-0"
140
1.5
141
12.0
290
     0
  0
SCALE
  5
5E
102
{ACAD_REACTORS
330
3F
102
}
330
3F
100
AcDbScale
 70
     0
300
3" = 1'-0"
140
3.0
141
12.0
290
     0
  0
SCALE
  5
5F
102
{ACAD_REACTORS
330
3F
102
}
330
3F
100
AcDbScale
 70
     0
300
6" = 1'-0"
140
6.0
141
12.0
290
     0
  0
SCALE
  5
60
102
{ACAD_REACTORS
330
3F
102
}
330
3F
100
AcDbScale
 70
     0
300
1'-0" = 1'-0"
140
12.0
141
12.0
290
     0
  0
VISUALSTYLE
  5
2F
102
{ACAD_REACTORS
330
2A
102
}
102
{ACAD_XDICTIONARY
360
564
102
}
330
2A
100
AcDbVisualStyle
  2
2dWireframe
 70
     4
 71
     0
 72
     2
 73
     0
 90
        0
 40
0.6
 41
30.0
 62
     5
 63
     7
421
 16777215
 74
     1
 91
        4
 64
     7
 65
   257
 75
     1
175
     1
 42
1.0
 92
        0
 66
   257
 43
1.0
 76
     1
 77
     6
 78
     2
 67
     7
 79
     5
170
     0
171
     0
290
     0
174
     0
 93
        1
 44
0.0
173
     0
291
     0
 45
0.0
1001
ACAD
1000
AcDbSavedByObjectVersion
1070
     0
  0
VISUALSTYLE
  5
31
102
{ACAD_REACTORS
330
2A
102
}
102
{ACAD_XDICTIONARY
360
568
102
}
330
2A
100
AcDbVisualStyle
  2
3D Hidden
 70
     6
 71
     1
 72
     2
 73
     2
 90
        0
 40
0.6
 41
30.0
 62
     5
 63
     7
421
 16777215
 74
     2
 91
        2
 64
     7
 65
   257
 75
     2
175
     1
 42
40.0
 92
        0
 66
   257
 43
1.0
 76
     1
 77
     6
 78
     2
 67
     7
 79
     3
170
     0
171
     0
290
     0
174
     0
 93
        1
 44
0.0
173
     0
291
     0
 45
0.0
1001
ACAD
1000
AcDbSavedByObjectVersion
1070
     0
  0
VISUALSTYLE
  5
30
102
{ACAD_REACTORS
330
2A
102
}
102
{ACAD_XDICTIONARY
360
566
102
}
330
2A
100
AcDbVisualStyle
  2
3dWireframe
 70
     5
 71
     0
 72
     2
 73
     0
 90
        0
 40
0.6
 41
30.0
 62
     5
 63
     7
421
 16777215
 74
     1
 91
        4
 64
     7
 65
   257
 75
     1
175
     1
 42
1.0
 92
        0
 66
   257
 43
1.0
 76
     1
 77
     6
 78
     2
 67
     7
 79
     5
170
     0
171
     0
290
     0
174
     0
 93
        1
 44
0.0
173
     0
291
     0
 45
0.0
1001
ACAD
1000
AcDbSavedByObjectVersion
1070
     0
  0
VISUALSTYLE
  5
32
102
{ACAD_REACTORS
330
2A
102
}
102
{ACAD_XDICTIONARY
360
56A
102
}
330
2A
100
AcDbVisualStyle
  2
Basic
 70
     7
 71
     1
 72
     0
 73
     1
 90
        0
 40
0.6
 41
30.0
 62
     5
 63
     7
421
 16777215
 74
     0
 91
        4
 64
     7
 65
   257
 75
     1
175
     1
 42
1.0
 92
        8
 66
     7
 43
1.0
 76
     1
 77
     6
 78
     2
 67
     7
 79
     5
170
     0
171
     0
290
     0
174
     0
 93
        1
 44
0.0
173
     0
291
     1
 45
0.0
1001
ACAD
1000
AcDbSavedByObjectVersion
1070
     0
  0
VISUALSTYLE
  5
36
102
{ACAD_REACTORS
330
2A
102
}
102
{ACAD_XDICTIONARY
360
572
102
}
330
2A
100
AcDbVisualStyle
  2
Brighten
 70
    12
 71
     2
 72
     2
 73
     0
 90
        0
 40
0.6
 41
30.0
 62
     5
 63
     7
421
 16777215
 74
     1
 91
        4
 64
     7
 65
   257
 75
     1
175
     1
 42
1.0
 92
        8
 66
     7
 43
1.0
 76
     1
 77
     6
 78
     2
 67
     7
 79
     5
170
     0
171
     0
290
     0
174
     0
 93
        1
 44
50.0
173
     0
291
     1
 45
0.0
1001
ACAD
1000
AcDbSavedByObjectVersion
1070
     0
  0
VISUALSTYLE
  5
3A
102
{ACAD_REACTORS
330
2A
102
}
102
{ACAD_XDICTIONARY
360
57A
102
}
330
2A
100
AcDbVisualStyle
  2
ColorChange
 70
    16
 71
     2
 72
     2
 73
     3
 90
        0
 40
0.6
 41
30.0
 62
     5
 63
     8
421
  8421504
 74
     1
 91
        4
 64
     7
 65
   257
 75
     1
175
     1
 42
1.0
 92
        8
 66
     8
424
  8421504
 43
1.0
 76
     1
 77
     6
 78
     2
 67
     7
 79
     5
170
     0
171
     0
290
     0
174
     0
 93
        1
 44
0.0
173
     0
291
     1
 45
0.0
1001
ACAD
1000
AcDbSavedByObjectVersion
1070
     0
  0
VISUALSTYLE
  5
34
102
{ACAD_REACTORS
330
2A
102
}
102
{ACAD_XDICTIONARY
360
56E
102
}
330
2A
100
AcDbVisualStyle
  2
Conceptual
 70
     9
 71
     3
 72
     2
 73
     0
 90
        0
 40
0.6
 41
30.0
 62
     5
 63
     7
421
 16777215
 74
     2
 91
        2
 64
     7
 65
   257
 75
     1
175
     1
 42
40.0
 92
        8
 66
     7
 43
1.0
 76
     1
 77
     6
 78
     2
 67
     7
 79
     3
170
     0
171
     0
290
     0
174
     0
 93
        1
 44
0.0
173
     0
291
     0
 45
0.0
1001
ACAD
1000
AcDbSavedByObjectVersion
1070
     0
  0
VISUALSTYLE
  5
35
102
{ACAD_REACTORS
330
2A
102
}
102
{ACAD_XDICTIONARY
360
570
102
}
330
2A
100
AcDbVisualStyle
  2
Dim
 70
    11
 71
     2
 72
     2
 73
     0
 90
        0
 40
0.6
 41
30.0
 62
     5
 63
     7
421
 16777215
 74
     1
 91
        4
 64
     7
 65
   257
 75
     1
175
     1
 42
1.0
 92
        8
 66
     7
 43
1.0
 76
     1
 77
     6
 78
     2
 67
     7
 79
     5
170
     0
171
     0
290
     0
174
     0
 93
        1
 44
-50.0
173
     0
291
     1
 45
0.0
1001
ACAD
1000
AcDbSavedByObjectVersion
1070
     0
  0
VISUALSTYLE
  5
39
102
{ACAD_REACTORS
330
2A
102
}
102
{ACAD_XDICTIONARY
360
578
102
}
330
2A
100
AcDbVisualStyle
  2
Facepattern
 70
    15
 71
     2
 72
     2
 73
     0
 90
        0
 40
0.6
 41
30.0
 62
     5
 63
     7
421
 16777215
 74
     1
 91
        4
 64
     7
 65
   257
 75
     1
175
     1
 42
1.0
 92
        8
 66
     7
 43
1.0
 76
     1
 77
     6
 78
     2
 67
     7
 79
     5
170
     0
171
     0
290
     0
174
     0
 93
        1
 44
0.0
173
     0
291
     1
 45
0.0
1001
ACAD
1000
AcDbSavedByObjectVersion
1070
     0
  0
VISUALSTYLE
  5
2B
102
{ACAD_REACTORS
330
2A
102
}
102
{ACAD_XDICTIONARY
360
55C
102
}
330
2A
100
AcDbVisualStyle
  2
Flat
 70
     0
 71
     2
 72
     1
 73
     1
 90
        2
 40
0.6
 41
30.0
 62
     5
 63
     7
421
 16777215
 74
     0
 91
        4
 64
     7
 65
   257
 75
     1
175
     1
 42
1.0
 92
        8
 66
     7
 43
1.0
 76
     1
 77
     6
 78
     2
 67
     7
 79
     5
170
     0
171
     0
290
     0
174
     0
 93
       13
 44
0.0
173
     0
291
     1
 45
0.0
1001
ACAD
1000
AcDbSavedByObjectVersion
1070
     0
  0
VISUALSTYLE
  5
2C
102
{ACAD_REACTORS
330
2A
102
}
102
{ACAD_XDICTIONARY
360
55E
102
}
330
2A
100
AcDbVisualStyle
  2
FlatWithEdges
 70
     1
 71
     2
 72
     1
 73
     1
 90
        2
 40
0.6
 41
30.0
 62
     5
 63
     7
421
 16777215
 74
     1
 91
        4
 64
     7
 65
   257
 75
     1
175
     1
 42
1.0
 92
        0
 66
   257
 43
1.0
 76
     1
 77
     6
 78
     2
 67
     7
 79
     5
170
     0
171
     0
290
     0
174
     0
 93
       13
 44
0.0
173
     0
291
     1
 45
0.0
1001
ACAD
1000
AcDbSavedByObjectVersion
1070
     0
  0
VISUALSTYLE
  5
2D
102
{ACAD_REACTORS
330
2A
102
}
102
{ACAD_XDICTIONARY
360
560
102
}
330
2A
100
AcDbVisualStyle
  2
Gouraud
 70
     2
 71
     2
 72
     2
 73
     1
 90
        2
 40
0.6
 41
30.0
 62
     5
 63
     7
421
 16777215
 74
     0
 91
        4
 64
     7
 65
   257
 75
     1
175
     1
 42
1.0
 92
        0
 66
     7
 43
1.0
 76
     1
 77
     6
 78
     2
 67
     7
 79
     5
170
     0
171
     0
290
     0
174
     0
 93
       13
 44
0.0
173
     0
291
     1
 45
0.0
1001
ACAD
1000
AcDbSavedByObjectVersion
1070
     0
  0
VISUALSTYLE
  5
2E
102
{ACAD_REACTORS
330
2A
102
}
102
{ACAD_XDICTIONARY
360
562
102
}
330
2A
100
AcDbVisualStyle
  2
GouraudWithEdges
 70
     3
 71
     2
 72
     2
 73
     1
 90
        2
 40
0.6
 41
30.0
 62
     5
 63
     7
421
 16777215
 74
     1
 91
        4
 64
     7
 65
   257
 75
     1
175
     1
 42
1.0
 92
        0
 66
   257
 43
1.0
 76
     1
 77
     6
 78
     2
 67
     7
 79
     5
170
     0
171
     0
290
     0
174
     0
 93
       13
 44
0.0
173
     0
291
     1
 45
0.0
1001
ACAD
1000
AcDbSavedByObjectVersion
1070
     0
  0
VISUALSTYLE
  5
38
102
{ACAD_REACTORS
330
2A
102
}
102
{ACAD_XDICTIONARY
360
576
102
}
330
2A
100
AcDbVisualStyle
  2
Linepattern
 70
    14
 71
     2
 72
     2
 73
     0
 90
        0
 40
0.6
 41
30.0
 62
     5
 63
     7
421
 16777215
 74
     1
 91
        4
 64
     7
 65
   257
 75
     7
175
     7
 42
1.0
 92
        8
 66
     7
 43
1.0
 76
     1
 77
     6
 78
     2
 67
     7
 79
     5
170
     0
171
     0
290
     0
174
     0
 93
        1
 44
0.0
173
     0
291
     1
 45
0.0
1001
ACAD
1000
AcDbSavedByObjectVersion
1070
     0
  0
VISUALSTYLE
  5
33
102
{ACAD_REACTORS
330
2A
102
}
102
{ACAD_XDICTIONARY
360
56C
102
}
330
2A
100
AcDbVisualStyle
  2
Realistic
 70
     8
 71
     2
 72
     3
 73
     0
 90
        2
 40
0.6
 41
30.0
 62
     5
 63
     7
421
 16777215
 74
     0
 91
        0
 64
     7
 65
   257
 75
     1
175
     1
 42
1.0
 92
        8
 66
   257
 43
1.0
 76
     1
 77
     6
 78
     2
 67
     7
 79
     3
170
     0
171
     0
290
     0
174
     0
 93
       13
 44
0.0
173
     0
291
     0
 45
0.0
1001
ACAD
1000
AcDbSavedByObjectVersion
1070
     0
  0
VISUALSTYLE
  5
37
102
{ACAD_REACTORS
330
2A
102
}
102
{ACAD_XDICTIONARY
360
574
102
}
330
2A
100
AcDbVisualStyle
  2
Thicken
 70
    13
 71
     2
 72
     2
 73
     0
 90
        0
 40
0.6
 41
30.0
 62
     5
 63
     7
421
 16777215
 74
     1
 91
        4
 64
     7
 65
   257
 75
     1
175
     1
 42
1.0
 92
       12
 66
     7
 43
1.0
 76
     1
 77
     6
 78
     2
 67
     7
 79
     5
170
     0
171
     0
290
     0
174
     0
 93
        1
 44
0.0
173
     0
291
     1
 45
0.0
1001
ACAD
1000
AcDbSavedByObjectVersion
1070
     0
  0
DICTIONARYVAR
  5
55A
102
{ACAD_REACTORS
330
559
102
}
330
559
100
DictionaryVariables
280
     0
  1
1:1
  0
DICTIONARYVAR
  5
55B
102
{ACAD_REACTORS
330
559
102
}
330
559
100
DictionaryVariables
280
     0
  1
1
  0
DICTIONARY
  5
57E
330
3D
100
AcDbDictionary
280
     1
281
     1
  3
ACAD_XREC_ROUNDTRIP
360
57F
  0
DICTIONARY
  5
57C
330
3C
100
AcDbDictionary
280
     1
281
     1
  3
ACAD_XREC_ROUNDTRIP
360
57D
  0
DICTIONARY
  5
580
330
3E
100
AcDbDictionary
280
     1
281
     1
  3
ACAD_XREC_ROUNDTRIP
360
581
  0
DICTIONARY
  5
564
330
2F
100
AcDbDictionary
280
     1
281
     1
  3
ACAD_XREC_ROUNDTRIP
360
565
  0
DICTIONARY
  5
568
330
31
100
AcDbDictionary
280
     1
281
     1
  3
ACAD_XREC_ROUNDTRIP
360
569
  0
DICTIONARY
  5
566
330
30
100
AcDbDictionary
280
     1
281
     1
  3
ACAD_XREC_ROUNDTRIP
360
567
  0
DICTIONARY
  5
56A
330
32
100
AcDbDictionary
280
     1
281
     1
  3
ACAD_XREC_ROUNDTRIP
360
56B
  0
DICTIONARY
  5
572
330
36
100
AcDbDictionary
280
     1
281
     1
  3
ACAD_XREC_ROUNDTRIP
360
573
  0
DICTIONARY
  5
57A
330
3A
100
AcDbDictionary
280
     1
281
     1
  3
ACAD_XREC_ROUNDTRIP
360
57B
  0
DICTIONARY
  5
56E
330
34
100
AcDbDictionary
280
     1
281
     1
  3
ACAD_XREC_ROUNDTRIP
360
56F
  0
DICTIONARY
  5
570
330
35
100
AcDbDictionary
280
     1
281
     1
  3
ACAD_XREC_ROUNDTRIP
360
571
  0
DICTIONARY
  5
578
330
39
100
AcDbDictionary
280
     1
281
     1
  3
ACAD_XREC_ROUNDTRIP
360
579
  0
DICTIONARY
  5
55C
330
2B
100
AcDbDictionary
280
     1
281
     1
  3
ACAD_XREC_ROUNDTRIP
360
55D
  0
DICTIONARY
  5
55E
330
2C
100
AcDbDictionary
280
     1
281
     1
  3
ACAD_XREC_ROUNDTRIP
360
55F
  0
DICTIONARY
  5
560
330
2D
100
AcDbDictionary
280
     1
281
     1
  3
ACAD_XREC_ROUNDTRIP
360
561
  0
DICTIONARY
  5
562
330
2E
100
AcDbDictionary
280
     1
281
     1
  3
ACAD_XREC_ROUNDTRIP
360
563
  0
DICTIONARY
  5
576
330
38
100
AcDbDictionary
280
     1
281
     1
  3
ACAD_XREC_ROUNDTRIP
360
577
  0
DICTIONARY
  5
56C
330
33
100
AcDbDictionary
280
     1
281
     1
  3
ACAD_XREC_ROUNDTRIP
360
56D
  0
DICTIONARY
  5
574
330
37
100
AcDbDictionary
280
     1
281
     1
  3
ACAD_XREC_ROUNDTRIP
360
575
  0
XRECORD
  5
57F
102
{ACAD_REACTORS
330
57E
102
}
330
57E
100
AcDbXrecord
280
     1
102
MATERIAL
148
0.0
149
0.0
149
0.0
 93
        0
 94
      127
282
     0
 72
     1
 77
     1
171
     1
175
     1
179
     1
273
     0
  0
XRECORD
  5
57D
102
{ACAD_REACTORS
330
57C
102
}
330
57C
100
AcDbXrecord
280
     1
102
MATERIAL
148
0.0
149
0.0
149
0.0
 93
        0
 94
      127
282
     0
 72
     1
 77
     1
171
     1
175
     1
179
     1
273
     0
  0
XRECORD
  5
581
102
{ACAD_REACTORS
330
580
102
}
330
580
100
AcDbXrecord
280
     1
102
MATERIAL
148
0.0
149
0.0
149
0.0
 93
        0
 94
      127
282
     0
 72
     1
 77
     1
171
     1
175
     1
179
     1
273
     0
  0
XRECORD
  5
565
102
{ACAD_REACTORS
330
564
102
}
330
564
100
AcDbXrecord
280
     1
102
RTVSPropertyOp0
 70
     1
102
RTVSPropertyOp1
 70
     1
102
RTVSPropertyOp2
 70
     1
102
RTVSPropertyOp3
 70
     1
102
RTVSPropertyOp4
 70
     1
102
RTVSPropertyOp5
 70
     1
102
RTVSPropertyOp6
 70
     1
102
RTVSPropertyOp7
 70
     1
102
RTVSPropertyOp8
 70
     1
102
RTVSPropertyOp9
 70
     1
102
RTVSPropertyOp10
 70
     1
102
RTVSPropertyOp11
 70
     1
102
RTVSPropertyOp12
 70
     1
102
RTVSPropertyOp13
 70
     1
102
RTVSPropertyOp14
 70
     1
102
RTVSPropertyOp15
 70
     1
102
RTVSPropertyOp16
 70
     1
102
RTVSPropertyOp17
 70
     1
102
RTVSPropertyOp18
 70
     1
102
RTVSPropertyOp19
 70
     1
102
RTVSPropertyOp20
 70
     1
102
RTVSPropertyOp21
 70
     1
102
RTVSPropertyOp22
 70
     1
102
RTVSPropertyOp23
 70
     1
102
RTVSPropertyOp24
 70
     1
102
RTVSPropertyOp25
 70
     1
102
RTVSPropertyOp26
 70
     1
102
RTVSPropertyOp27
 70
     1
102
RTVSPropertyOp28
 70
     1
102
RTVSPropertyOp29
 70
     1
102
RTVSPropertyOp30
 70
     1
102
RTVSPropertyOp31
 70
     1
102
RTVSPropertyOp32
 70
     1
102
RTVSPropertyOp33
 70
     1
102
RTVSPropertyOp34
 70
     1
102
RTVSPropertyOp35
 70
     1
102
RTVSPropertyOp36
 70
     1
102
RTVSPropertyOp37
 70
     1
102
RTVSPropertyOp38
 70
     1
102
RTVSPropertyOp39
 70
     1
102
RTVSPropertyOp40
 70
     1
102
RTVSPropertyOp41
 70
     1
102
RTVSPropertyOp42
 70
     1
102
RTVSPropertyOp43
 70
     1
102
RTVSPropertyOp44
 70
     1
102
RTVSPropertyOp45
 70
     1
102
RTVSPropertyOp46
 70
     1
102
RTVSPropertyOp47
 70
     1
102
RTVSPropertyOp48
 70
     1
102
RTVSPropertyOp49
 70
     1
102
RTVSPropertyOp50
 70
     1
102
RTVSPropertyOp51
 70
     0
102
RTVSPropertyOp52
 70
     0
102
RTVSPropertyOp53
 70
     1
102
RTVSPropertyOp54
 70
     1
102
RTVSPropertyOp55
 70
     1
102
RTVSPropertyOp56
 70
     1
102
RTVSPropertyOp57
 70
     1
102
RTVSPost2010Prop28
280
     1
102
RTVSPost2010PropOp28
 70
     1
102
RTVSPost2010Prop29
280
     1
102
RTVSPost2010PropOp29
 70
     1
102
RTVSPost2010Prop30
280
     0
102
RTVSPost2010PropOp30
 70
     1
102
RTVSPost2010Prop31
280
     0
102
RTVSPost2010PropOp31
 70
     1
102
RTVSPost2010Prop32
280
     0
102
RTVSPost2010PropOp32
 70
     1
102
RTVSPost2010Prop33
280
     0
102
RTVSPost2010PropOp33
 70
     1
102
RTVSPost2010Prop34
280
     0
102
RTVSPost2010PropOp34
 70
     1
102
RTVSPost2010Prop35
280
     0
102
RTVSPost2010PropOp35
 70
     1
102
RTVSPost2010Prop36
280
     0
102
RTVSPost2010PropOp36
 70
     1
102
RTVSPost2010Prop37
 90
       50
102
RTVSPost2010PropOp37
 70
     1
102
RTVSPost2010Prop38
140
0.0
102
RTVSPost2010PropOp38
 70
     1
102
RTVSPost2010Prop39
140
1.0
102
RTVSPost2010PropOp39
 70
     1
102
RTVSPost2010Prop40
 90
        0
102
RTVSPost2010PropOp40
 70
     1
102
RTVSPost2010Prop41ColorIndex
 90
       18
102
RTVSPost2010Prop41ColorRGB
 90
        0
102
RTVSPost2010PropOp41
 70
     1
102
RTVSPost2010Prop42
 90
       50
102
RTVSPost2010PropOp42
 70
     1
102
RTVSPost2010Prop43
 90
        3
102
RTVSPost2010PropOp43
 70
     1
102
RTVSPost2010Prop44ColorIndex
 90
        5
102
RTVSPost2010Prop44ColorRGB
 90
      255
102
RTVSPost2010PropOp44
 70
     1
102
RTVSPost2010Prop45
280
     0
102
RTVSPost2010PropOp45
 70
     1
102
RTVSPost2010Prop46
 90
       50
102
RTVSPost2010PropOp46
 70
     1
102
RTVSPost2010Prop47
 90
       50
102
RTVSPost2010PropOp47
 70
     1
102
RTVSPost2010Prop48
 90
       50
102
RTVSPost2010PropOp48
 70
     1
102
RTVSPost2010Prop49
280
     0
102
RTVSPost2010PropOp49
 70
     1
102
RTVSPost2010Prop50
 90
       50
102
RTVSPost2010PropOp50
 70
     1
102
RTVSPost2010Prop51ColorIndex
 90
      256
102
RTVSPost2010Prop51ColorRGB
 90
-16777216
102
RTVSPost2010PropOp51
 70
     0
102
RTVSPost2010Prop52
140
1.0
102
RTVSPost2010PropOp52
 70
     0
102
RTVSPost2010Prop53
 90
        2
102
RTVSPost2010PropOp53
 70
     1
102
RTVSPost2010Prop54
  1
strokes_ogs.tif
102
RTVSPost2010PropOp54
 70
     1
102
RTVSPost2010Prop55
280
     0
102
RTVSPost2010PropOp55
 70
     1
102
RTVSPost2010Prop56
140
1.0
102
RTVSPost2010PropOp56
 70
     1
102
RTVSPost2010Prop57
140
1.0
102
RTVSPost2010PropOp57
 70
     1
  0
XRECORD
  5
569
102
{ACAD_REACTORS
330
568
102
}
330
568
100
AcDbXrecord
280
     1
102
RTVSPropertyOp0
 70
     1
102
RTVSPropertyOp1
 70
     1
102
RTVSPropertyOp2
 70
     1
102
RTVSPropertyOp3
 70
     1
102
RTVSPropertyOp4
 70
     1
102
RTVSPropertyOp5
 70
     1
102
RTVSPropertyOp6
 70
     1
102
RTVSPropertyOp7
 70
     1
102
RTVSPropertyOp8
 70
     1
102
RTVSPropertyOp9
 70
     1
102
RTVSPropertyOp10
 70
     1
102
RTVSPropertyOp11
 70
     1
102
RTVSPropertyOp12
 70
     1
102
RTVSPropertyOp13
 70
     1
102
RTVSPropertyOp14
 70
     1
102
RTVSPropertyOp15
 70
     1
102
RTVSPropertyOp16
 70
     1
102
RTVSPropertyOp17
 70
     1
102
RTVSPropertyOp18
 70
     1
102
RTVSPropertyOp19
 70
     1
102
RTVSPropertyOp20
 70
     1
102
RTVSPropertyOp21
 70
     1
102
RTVSPropertyOp22
 70
     1
102
RTVSPropertyOp23
 70
     1
102
RTVSPropertyOp24
 70
     1
102
RTVSPropertyOp25
 70
     1
102
RTVSPropertyOp26
 70
     1
102
RTVSPropertyOp27
 70
     1
102
RTVSPropertyOp28
 70
     1
102
RTVSPropertyOp29
 70
     1
102
RTVSPropertyOp30
 70
     1
102
RTVSPropertyOp31
 70
     1
102
RTVSPropertyOp32
 70
     1
102
RTVSPropertyOp33
 70
     1
102
RTVSPropertyOp34
 70
     1
102
RTVSPropertyOp35
 70
     1
102
RTVSPropertyOp36
 70
     1
102
RTVSPropertyOp37
 70
     1
102
RTVSPropertyOp38
 70
     1
102
RTVSPropertyOp39
 70
     1
102
RTVSPropertyOp40
 70
     1
102
RTVSPropertyOp41
 70
     1
102
RTVSPropertyOp42
 70
     1
102
RTVSPropertyOp43
 70
     1
102
RTVSPropertyOp44
 70
     1
102
RTVSPropertyOp45
 70
     1
102
RTVSPropertyOp46
 70
     1
102
RTVSPropertyOp47
 70
     1
102
RTVSPropertyOp48
 70
     1
102
RTVSPropertyOp49
 70
     1
102
RTVSPropertyOp50
 70
     1
102
RTVSPropertyOp51
 70
     0
102
RTVSPropertyOp52
 70
     0
102
RTVSPropertyOp53
 70
     1
102
RTVSPropertyOp54
 70
     1
102
RTVSPropertyOp55
 70
     1
102
RTVSPropertyOp56
 70
     1
102
RTVSPropertyOp57
 70
     1
102
RTVSPost2010Prop28
280
     0
102
RTVSPost2010PropOp28
 70
     1
102
RTVSPost2010Prop29
280
     1
102
RTVSPost2010PropOp29
 70
     1
102
RTVSPost2010Prop30
280
     1
102
RTVSPost2010PropOp30
 70
     1
102
RTVSPost2010Prop31
280
     0
102
RTVSPost2010PropOp31
 70
     1
102
RTVSPost2010Prop32
280
     0
102
RTVSPost2010PropOp32
 70
     1
102
RTVSPost2010Prop33
280
     0
102
RTVSPost2010PropOp33
 70
     1
102
RTVSPost2010Prop34
280
     0
102
RTVSPost2010PropOp34
 70
     1
102
RTVSPost2010Prop35
280
     0
102
RTVSPost2010PropOp35
 70
     1
102
RTVSPost2010Prop36
280
     0
102
RTVSPost2010PropOp36
 70
     1
102
RTVSPost2010Prop37
 90
       50
102
RTVSPost2010PropOp37
 70
     1
102
RTVSPost2010Prop38
140
0.0
102
RTVSPost2010PropOp38
 70
     1
102
RTVSPost2010Prop39
140
1.0
102
RTVSPost2010PropOp39
 70
     1
102
RTVSPost2010Prop40
 90
        0
102
RTVSPost2010PropOp40
 70
     1
102
RTVSPost2010Prop41ColorIndex
 90
       18
102
RTVSPost2010Prop41ColorRGB
 90
        0
102
RTVSPost2010PropOp41
 70
     1
102
RTVSPost2010Prop42
 90
       50
102
RTVSPost2010PropOp42
 70
     1
102
RTVSPost2010Prop43
 90
        3
102
RTVSPost2010PropOp43
 70
     1
102
RTVSPost2010Prop44ColorIndex
 90
        5
102
RTVSPost2010Prop44ColorRGB
 90
      255
102
RTVSPost2010PropOp44
 70
     1
102
RTVSPost2010Prop45
280
     0
102
RTVSPost2010PropOp45
 70
     1
102
RTVSPost2010Prop46
 90
       50
102
RTVSPost2010PropOp46
 70
     1
102
RTVSPost2010Prop47
 90
       50
102
RTVSPost2010PropOp47
 70
     1
102
RTVSPost2010Prop48
 90
       50
102
RTVSPost2010PropOp48
 70
     1
102
RTVSPost2010Prop49
280
     0
102
RTVSPost2010PropOp49
 70
     1
102
RTVSPost2010Prop50
 90
       50
102
RTVSPost2010PropOp50
 70
     1
102
RTVSPost2010Prop51ColorIndex
 90
      256
102
RTVSPost2010Prop51ColorRGB
 90
-16777216
102
RTVSPost2010PropOp51
 70
     0
102
RTVSPost2010Prop52
140
1.0
102
RTVSPost2010PropOp52
 70
     0
102
RTVSPost2010Prop53
 90
        2
102
RTVSPost2010PropOp53
 70
     1
102
RTVSPost2010Prop54
  1
strokes_ogs.tif
102
RTVSPost2010PropOp54
 70
     1
102
RTVSPost2010Prop55
280
     0
102
RTVSPost2010PropOp55
 70
     1
102
RTVSPost2010Prop56
140
1.0
102
RTVSPost2010PropOp56
 70
     1
102
RTVSPost2010Prop57
140
1.0
102
RTVSPost2010PropOp57
 70
     1
  0
XRECORD
  5
567
102
{ACAD_REACTORS
330
566
102
}
330
566
100
AcDbXrecord
280
     1
102
RTVSPropertyOp0
 70
     1
102
RTVSPropertyOp1
 70
     1
102
RTVSPropertyOp2
 70
     1
102
RTVSPropertyOp3
 70
     1
102
RTVSPropertyOp4
 70
     1
102
RTVSPropertyOp5
 70
     1
102
RTVSPropertyOp6
 70
     1
102
RTVSPropertyOp7
 70
     1
102
RTVSPropertyOp8
 70
     1
102
RTVSPropertyOp9
 70
     1
102
RTVSPropertyOp10
 70
     1
102
RTVSPropertyOp11
 70
     1
102
RTVSPropertyOp12
 70
     1
102
RTVSPropertyOp13
 70
     1
102
RTVSPropertyOp14
 70
     1
102
RTVSPropertyOp15
 70
     1
102
RTVSPropertyOp16
 70
     1
102
RTVSPropertyOp17
 70
     1
102
RTVSPropertyOp18
 70
     1
102
RTVSPropertyOp19
 70
     1
102
RTVSPropertyOp20
 70
     1
102
RTVSPropertyOp21
 70
     1
102
RTVSPropertyOp22
 70
     1
102
RTVSPropertyOp23
 70
     1
102
RTVSPropertyOp24
 70
     1
102
RTVSPropertyOp25
 70
     1
102
RTVSPropertyOp26
 70
     1
102
RTVSPropertyOp27
 70
     1
102
RTVSPropertyOp28
 70
     1
102
RTVSPropertyOp29
 70
     1
102
RTVSPropertyOp30
 70
     1
102
RTVSPropertyOp31
 70
     1
102
RTVSPropertyOp32
 70
     1
102
RTVSPropertyOp33
 70
     1
102
RTVSPropertyOp34
 70
     1
102
RTVSPropertyOp35
 70
     1
102
RTVSPropertyOp36
 70
     1
102
RTVSPropertyOp37
 70
     1
102
RTVSPropertyOp38
 70
     1
102
RTVSPropertyOp39
 70
     1
102
RTVSPropertyOp40
 70
     1
102
RTVSPropertyOp41
 70
     1
102
RTVSPropertyOp42
 70
     1
102
RTVSPropertyOp43
 70
     1
102
RTVSPropertyOp44
 70
     1
102
RTVSPropertyOp45
 70
     1
102
RTVSPropertyOp46
 70
     1
102
RTVSPropertyOp47
 70
     1
102
RTVSPropertyOp48
 70
     1
102
RTVSPropertyOp49
 70
     1
102
RTVSPropertyOp50
 70
     1
102
RTVSPropertyOp51
 70
     0
102
RTVSPropertyOp52
 70
     0
102
RTVSPropertyOp53
 70
     1
102
RTVSPropertyOp54
 70
     1
102
RTVSPropertyOp55
 70
     1
102
RTVSPropertyOp56
 70
     1
102
RTVSPropertyOp57
 70
     1
102
RTVSPost2010Prop28
280
     0
102
RTVSPost2010PropOp28
 70
     1
102
RTVSPost2010Prop29
280
     1
102
RTVSPost2010PropOp29
 70
     1
102
RTVSPost2010Prop30
280
     1
102
RTVSPost2010PropOp30
 70
     1
102
RTVSPost2010Prop31
280
     0
102
RTVSPost2010PropOp31
 70
     1
102
RTVSPost2010Prop32
280
     0
102
RTVSPost2010PropOp32
 70
     1
102
RTVSPost2010Prop33
280
     0
102
RTVSPost2010PropOp33
 70
     1
102
RTVSPost2010Prop34
280
     0
102
RTVSPost2010PropOp34
 70
     1
102
RTVSPost2010Prop35
280
     0
102
RTVSPost2010PropOp35
 70
     1
102
RTVSPost2010Prop36
280
     0
102
RTVSPost2010PropOp36
 70
     1
102
RTVSPost2010Prop37
 90
       50
102
RTVSPost2010PropOp37
 70
     1
102
RTVSPost2010Prop38
140
0.0
102
RTVSPost2010PropOp38
 70
     1
102
RTVSPost2010Prop39
140
1.0
102
RTVSPost2010PropOp39
 70
     1
102
RTVSPost2010Prop40
 90
        0
102
RTVSPost2010PropOp40
 70
     1
102
RTVSPost2010Prop41ColorIndex
 90
       18
102
RTVSPost2010Prop41ColorRGB
 90
        0
102
RTVSPost2010PropOp41
 70
     1
102
RTVSPost2010Prop42
 90
       50
102
RTVSPost2010PropOp42
 70
     1
102
RTVSPost2010Prop43
 90
        3
102
RTVSPost2010PropOp43
 70
     1
102
RTVSPost2010Prop44ColorIndex
 90
        5
102
RTVSPost2010Prop44ColorRGB
 90
      255
102
RTVSPost2010PropOp44
 70
     1
102
RTVSPost2010Prop45
280
     0
102
RTVSPost2010PropOp45
 70
     1
102
RTVSPost2010Prop46
 90
       50
102
RTVSPost2010PropOp46
 70
     1
102
RTVSPost2010Prop47
 90
       50
102
RTVSPost2010PropOp47
 70
     1
102
RTVSPost2010Prop48
 90
       50
102
RTVSPost2010PropOp48
 70
     1
102
RTVSPost2010Prop49
280
     0
102
RTVSPost2010PropOp49
 70
     1
102
RTVSPost2010Prop50
 90
       50
102
RTVSPost2010PropOp50
 70
     1
102
RTVSPost2010Prop51ColorIndex
 90
      256
102
RTVSPost2010Prop51ColorRGB
 90
-16777216
102
RTVSPost2010PropOp51
 70
     0
102
RTVSPost2010Prop52
140
1.0
102
RTVSPost2010PropOp52
 70
     0
102
RTVSPost2010Prop53
 90
        2
102
RTVSPost2010PropOp53
 70
     1
102
RTVSPost2010Prop54
  1
strokes_ogs.tif
102
RTVSPost2010PropOp54
 70
     1
102
RTVSPost2010Prop55
280
     0
102
RTVSPost2010PropOp55
 70
     1
102
RTVSPost2010Prop56
140
1.0
102
RTVSPost2010PropOp56
 70
     1
102
RTVSPost2010Prop57
140
1.0
102
RTVSPost2010PropOp57
 70
     1
  0
XRECORD
  5
56B
102
{ACAD_REACTORS
330
56A
102
}
330
56A
100
AcDbXrecord
280
     1
102
RTVSPropertyOp0
 70
     1
102
RTVSPropertyOp1
 70
     1
102
RTVSPropertyOp2
 70
     1
102
RTVSPropertyOp3
 70
     1
102
RTVSPropertyOp4
 70
     1
102
RTVSPropertyOp5
 70
     1
102
RTVSPropertyOp6
 70
     1
102
RTVSPropertyOp7
 70
     1
102
RTVSPropertyOp8
 70
     1
102
RTVSPropertyOp9
 70
     1
102
RTVSPropertyOp10
 70
     1
102
RTVSPropertyOp11
 70
     1
102
RTVSPropertyOp12
 70
     1
102
RTVSPropertyOp13
 70
     1
102
RTVSPropertyOp14
 70
     1
102
RTVSPropertyOp15
 70
     1
102
RTVSPropertyOp16
 70
     1
102
RTVSPropertyOp17
 70
     1
102
RTVSPropertyOp18
 70
     1
102
RTVSPropertyOp19
 70
     1
102
RTVSPropertyOp20
 70
     1
102
RTVSPropertyOp21
 70
     1
102
RTVSPropertyOp22
 70
     1
102
RTVSPropertyOp23
 70
     1
102
RTVSPropertyOp24
 70
     1
102
RTVSPropertyOp25
 70
     1
102
RTVSPropertyOp26
 70
     1
102
RTVSPropertyOp27
 70
     1
102
RTVSPropertyOp28
 70
     1
102
RTVSPropertyOp29
 70
     1
102
RTVSPropertyOp30
 70
     1
102
RTVSPropertyOp31
 70
     1
102
RTVSPropertyOp32
 70
     1
102
RTVSPropertyOp33
 70
     1
102
RTVSPropertyOp34
 70
     1
102
RTVSPropertyOp35
 70
     1
102
RTVSPropertyOp36
 70
     1
102
RTVSPropertyOp37
 70
     1
102
RTVSPropertyOp38
 70
     1
102
RTVSPropertyOp39
 70
     1
102
RTVSPropertyOp40
 70
     1
102
RTVSPropertyOp41
 70
     1
102
RTVSPropertyOp42
 70
     1
102
RTVSPropertyOp43
 70
     1
102
RTVSPropertyOp44
 70
     1
102
RTVSPropertyOp45
 70
     1
102
RTVSPropertyOp46
 70
     1
102
RTVSPropertyOp47
 70
     1
102
RTVSPropertyOp48
 70
     1
102
RTVSPropertyOp49
 70
     1
102
RTVSPropertyOp50
 70
     1
102
RTVSPropertyOp51
 70
     0
102
RTVSPropertyOp52
 70
     0
102
RTVSPropertyOp53
 70
     1
102
RTVSPropertyOp54
 70
     1
102
RTVSPropertyOp55
 70
     1
102
RTVSPropertyOp56
 70
     1
102
RTVSPropertyOp57
 70
     1
102
RTVSPost2010Prop28
280
     0
102
RTVSPost2010PropOp28
 70
     1
102
RTVSPost2010Prop29
280
     1
102
RTVSPost2010PropOp29
 70
     1
102
RTVSPost2010Prop30
280
     1
102
RTVSPost2010PropOp30
 70
     1
102
RTVSPost2010Prop31
280
     0
102
RTVSPost2010PropOp31
 70
     1
102
RTVSPost2010Prop32
280
     0
102
RTVSPost2010PropOp32
 70
     1
102
RTVSPost2010Prop33
280
     0
102
RTVSPost2010PropOp33
 70
     1
102
RTVSPost2010Prop34
280
     0
102
RTVSPost2010PropOp34
 70
     1
102
RTVSPost2010Prop35
280
     0
102
RTVSPost2010PropOp35
 70
     1
102
RTVSPost2010Prop36
280
     0
102
RTVSPost2010PropOp36
 70
     1
102
RTVSPost2010Prop37
 90
       50
102
RTVSPost2010PropOp37
 70
     1
102
RTVSPost2010Prop38
140
0.0
102
RTVSPost2010PropOp38
 70
     1
102
RTVSPost2010Prop39
140
1.0
102
RTVSPost2010PropOp39
 70
     1
102
RTVSPost2010Prop40
 90
        0
102
RTVSPost2010PropOp40
 70
     1
102
RTVSPost2010Prop41ColorIndex
 90
       18
102
RTVSPost2010Prop41ColorRGB
 90
        0
102
RTVSPost2010PropOp41
 70
     1
102
RTVSPost2010Prop42
 90
       50
102
RTVSPost2010PropOp42
 70
     1
102
RTVSPost2010Prop43
 90
        3
102
RTVSPost2010PropOp43
 70
     1
102
RTVSPost2010Prop44ColorIndex
 90
        5
102
RTVSPost2010Prop44ColorRGB
 90
      255
102
RTVSPost2010PropOp44
 70
     1
102
RTVSPost2010Prop45
280
     0
102
RTVSPost2010PropOp45
 70
     1
102
RTVSPost2010Prop46
 90
       50
102
RTVSPost2010PropOp46
 70
     1
102
RTVSPost2010Prop47
 90
       50
102
RTVSPost2010PropOp47
 70
     1
102
RTVSPost2010Prop48
 90
       50
102
RTVSPost2010PropOp48
 70
     1
102
RTVSPost2010Prop49
280
     0
102
RTVSPost2010PropOp49
 70
     1
102
RTVSPost2010Prop50
 90
       50
102
RTVSPost2010PropOp50
 70
     1
102
RTVSPost2010Prop51ColorIndex
 90
      256
102
RTVSPost2010Prop51ColorRGB
 90
-16777216
102
RTVSPost2010PropOp51
 70
     0
102
RTVSPost2010Prop52
140
1.0
102
RTVSPost2010PropOp52
 70
     0
102
RTVSPost2010Prop53
 90
        2
102
RTVSPost2010PropOp53
 70
     1
102
RTVSPost2010Prop54
  1
strokes_ogs.tif
102
RTVSPost2010PropOp54
 70
     1
102
RTVSPost2010Prop55
280
     0
102
RTVSPost2010PropOp55
 70
     1
102
RTVSPost2010Prop56
140
1.0
102
RTVSPost2010PropOp56
 70
     1
102
RTVSPost2010Prop57
140
1.0
102
RTVSPost2010PropOp57
 70
     1
  0
XRECORD
  5
573
102
{ACAD_REACTORS
330
572
102
}
330
572
100
AcDbXrecord
280
     1
102
RTVSPropertyOp0
 70
     1
102
RTVSPropertyOp1
 70
     1
102
RTVSPropertyOp2
 70
     1
102
RTVSPropertyOp3
 70
     1
102
RTVSPropertyOp4
 70
     1
102
RTVSPropertyOp5
 70
     1
102
RTVSPropertyOp6
 70
     1
102
RTVSPropertyOp7
 70
     1
102
RTVSPropertyOp8
 70
     1
102
RTVSPropertyOp9
 70
     1
102
RTVSPropertyOp10
 70
     1
102
RTVSPropertyOp11
 70
     1
102
RTVSPropertyOp12
 70
     1
102
RTVSPropertyOp13
 70
     1
102
RTVSPropertyOp14
 70
     1
102
RTVSPropertyOp15
 70
     1
102
RTVSPropertyOp16
 70
     1
102
RTVSPropertyOp17
 70
     1
102
RTVSPropertyOp18
 70
     1
102
RTVSPropertyOp19
 70
     1
102
RTVSPropertyOp20
 70
     1
102
RTVSPropertyOp21
 70
     1
102
RTVSPropertyOp22
 70
     1
102
RTVSPropertyOp23
 70
     1
102
RTVSPropertyOp24
 70
     1
102
RTVSPropertyOp25
 70
     1
102
RTVSPropertyOp26
 70
     1
102
RTVSPropertyOp27
 70
     1
102
RTVSPropertyOp28
 70
     1
102
RTVSPropertyOp29
 70
     1
102
RTVSPropertyOp30
 70
     1
102
RTVSPropertyOp31
 70
     1
102
RTVSPropertyOp32
 70
     1
102
RTVSPropertyOp33
 70
     1
102
RTVSPropertyOp34
 70
     1
102
RTVSPropertyOp35
 70
     1
102
RTVSPropertyOp36
 70
     1
102
RTVSPropertyOp37
 70
     1
102
RTVSPropertyOp38
 70
     1
102
RTVSPropertyOp39
 70
     1
102
RTVSPropertyOp40
 70
     1
102
RTVSPropertyOp41
 70
     1
102
RTVSPropertyOp42
 70
     1
102
RTVSPropertyOp43
 70
     1
102
RTVSPropertyOp44
 70
     1
102
RTVSPropertyOp45
 70
     1
102
RTVSPropertyOp46
 70
     1
102
RTVSPropertyOp47
 70
     1
102
RTVSPropertyOp48
 70
     1
102
RTVSPropertyOp49
 70
     1
102
RTVSPropertyOp50
 70
     1
102
RTVSPropertyOp51
 70
     0
102
RTVSPropertyOp52
 70
     0
102
RTVSPropertyOp53
 70
     1
102
RTVSPropertyOp54
 70
     1
102
RTVSPropertyOp55
 70
     1
102
RTVSPropertyOp56
 70
     1
102
RTVSPropertyOp57
 70
     1
102
RTVSPost2010Prop28
280
     0
102
RTVSPost2010PropOp28
 70
     1
102
RTVSPost2010Prop29
280
     1
102
RTVSPost2010PropOp29
 70
     1
102
RTVSPost2010Prop30
280
     1
102
RTVSPost2010PropOp30
 70
     1
102
RTVSPost2010Prop31
280
     0
102
RTVSPost2010PropOp31
 70
     1
102
RTVSPost2010Prop32
280
     0
102
RTVSPost2010PropOp32
 70
     1
102
RTVSPost2010Prop33
280
     0
102
RTVSPost2010PropOp33
 70
     1
102
RTVSPost2010Prop34
280
     0
102
RTVSPost2010PropOp34
 70
     1
102
RTVSPost2010Prop35
280
     0
102
RTVSPost2010PropOp35
 70
     1
102
RTVSPost2010Prop36
280
     0
102
RTVSPost2010PropOp36
 70
     1
102
RTVSPost2010Prop37
 90
       50
102
RTVSPost2010PropOp37
 70
     1
102
RTVSPost2010Prop38
140
0.0
102
RTVSPost2010PropOp38
 70
     1
102
RTVSPost2010Prop39
140
1.0
102
RTVSPost2010PropOp39
 70
     1
102
RTVSPost2010Prop40
 90
        0
102
RTVSPost2010PropOp40
 70
     1
102
RTVSPost2010Prop41ColorIndex
 90
       18
102
RTVSPost2010Prop41ColorRGB
 90
        0
102
RTVSPost2010PropOp41
 70
     1
102
RTVSPost2010Prop42
 90
       50
102
RTVSPost2010PropOp42
 70
     1
102
RTVSPost2010Prop43
 90
        3
102
RTVSPost2010PropOp43
 70
     1
102
RTVSPost2010Prop44ColorIndex
 90
        5
102
RTVSPost2010Prop44ColorRGB
 90
      255
102
RTVSPost2010PropOp44
 70
     1
102
RTVSPost2010Prop45
280
     0
102
RTVSPost2010PropOp45
 70
     1
102
RTVSPost2010Prop46
 90
       50
102
RTVSPost2010PropOp46
 70
     1
102
RTVSPost2010Prop47
 90
       50
102
RTVSPost2010PropOp47
 70
     1
102
RTVSPost2010Prop48
 90
       50
102
RTVSPost2010PropOp48
 70
     1
102
RTVSPost2010Prop49
280
     0
102
RTVSPost2010PropOp49
 70
     1
102
RTVSPost2010Prop50
 90
       50
102
RTVSPost2010PropOp50
 70
     1
102
RTVSPost2010Prop51ColorIndex
 90
      256
102
RTVSPost2010Prop51ColorRGB
 90
-16777216
102
RTVSPost2010PropOp51
 70
     0
102
RTVSPost2010Prop52
140
1.0
102
RTVSPost2010PropOp52
 70
     0
102
RTVSPost2010Prop53
 90
        2
102
RTVSPost2010PropOp53
 70
     1
102
RTVSPost2010Prop54
  1
strokes_ogs.tif
102
RTVSPost2010PropOp54
 70
     1
102
RTVSPost2010Prop55
280
     0
102
RTVSPost2010PropOp55
 70
     1
102
RTVSPost2010Prop56
140
1.0
102
RTVSPost2010PropOp56
 70
     1
102
RTVSPost2010Prop57
140
1.0
102
RTVSPost2010PropOp57
 70
     1
  0
XRECORD
  5
57B
102
{ACAD_REACTORS
330
57A
102
}
330
57A
100
AcDbXrecord
280
     1
102
RTVSPropertyOp0
 70
     1
102
RTVSPropertyOp1
 70
     1
102
RTVSPropertyOp2
 70
     1
102
RTVSPropertyOp3
 70
     1
102
RTVSPropertyOp4
 70
     1
102
RTVSPropertyOp5
 70
     1
102
RTVSPropertyOp6
 70
     1
102
RTVSPropertyOp7
 70
     1
102
RTVSPropertyOp8
 70
     1
102
RTVSPropertyOp9
 70
     1
102
RTVSPropertyOp10
 70
     1
102
RTVSPropertyOp11
 70
     1
102
RTVSPropertyOp12
 70
     1
102
RTVSPropertyOp13
 70
     1
102
RTVSPropertyOp14
 70
     1
102
RTVSPropertyOp15
 70
     1
102
RTVSPropertyOp16
 70
     1
102
RTVSPropertyOp17
 70
     1
102
RTVSPropertyOp18
 70
     1
102
RTVSPropertyOp19
 70
     1
102
RTVSPropertyOp20
 70
     1
102
RTVSPropertyOp21
 70
     1
102
RTVSPropertyOp22
 70
     1
102
RTVSPropertyOp23
 70
     1
102
RTVSPropertyOp24
 70
     1
102
RTVSPropertyOp25
 70
     1
102
RTVSPropertyOp26
 70
     1
102
RTVSPropertyOp27
 70
     1
102
RTVSPropertyOp28
 70
     1
102
RTVSPropertyOp29
 70
     1
102
RTVSPropertyOp30
 70
     1
102
RTVSPropertyOp31
 70
     1
102
RTVSPropertyOp32
 70
     1
102
RTVSPropertyOp33
 70
     1
102
RTVSPropertyOp34
 70
     1
102
RTVSPropertyOp35
 70
     1
102
RTVSPropertyOp36
 70
     1
102
RTVSPropertyOp37
 70
     1
102
RTVSPropertyOp38
 70
     1
102
RTVSPropertyOp39
 70
     1
102
RTVSPropertyOp40
 70
     1
102
RTVSPropertyOp41
 70
     1
102
RTVSPropertyOp42
 70
     1
102
RTVSPropertyOp43
 70
     1
102
RTVSPropertyOp44
 70
     1
102
RTVSPropertyOp45
 70
     1
102
RTVSPropertyOp46
 70
     1
102
RTVSPropertyOp47
 70
     1
102
RTVSPropertyOp48
 70
     1
102
RTVSPropertyOp49
 70
     1
102
RTVSPropertyOp50
 70
     1
102
RTVSPropertyOp51
 70
     0
102
RTVSPropertyOp52
 70
     0
102
RTVSPropertyOp53
 70
     1
102
RTVSPropertyOp54
 70
     1
102
RTVSPropertyOp55
 70
     1
102
RTVSPropertyOp56
 70
     1
102
RTVSPropertyOp57
 70
     1
102
RTVSPost2010Prop28
280
     0
102
RTVSPost2010PropOp28
 70
     1
102
RTVSPost2010Prop29
280
     1
102
RTVSPost2010PropOp29
 70
     1
102
RTVSPost2010Prop30
280
     1
102
RTVSPost2010PropOp30
 70
     1
102
RTVSPost2010Prop31
280
     0
102
RTVSPost2010PropOp31
 70
     1
102
RTVSPost2010Prop32
280
     0
102
RTVSPost2010PropOp32
 70
     1
102
RTVSPost2010Prop33
280
     0
102
RTVSPost2010PropOp33
 70
     1
102
RTVSPost2010Prop34
280
     0
102
RTVSPost2010PropOp34
 70
     1
102
RTVSPost2010Prop35
280
     0
102
RTVSPost2010PropOp35
 70
     1
102
RTVSPost2010Prop36
280
     0
102
RTVSPost2010PropOp36
 70
     1
102
RTVSPost2010Prop37
 90
       50
102
RTVSPost2010PropOp37
 70
     1
102
RTVSPost2010Prop38
140
0.0
102
RTVSPost2010PropOp38
 70
     1
102
RTVSPost2010Prop39
140
1.0
102
RTVSPost2010PropOp39
 70
     1
102
RTVSPost2010Prop40
 90
        0
102
RTVSPost2010PropOp40
 70
     1
102
RTVSPost2010Prop41ColorIndex
 90
       18
102
RTVSPost2010Prop41ColorRGB
 90
        0
102
RTVSPost2010PropOp41
 70
     1
102
RTVSPost2010Prop42
 90
       50
102
RTVSPost2010PropOp42
 70
     1
102
RTVSPost2010Prop43
 90
        3
102
RTVSPost2010PropOp43
 70
     1
102
RTVSPost2010Prop44ColorIndex
 90
        5
102
RTVSPost2010Prop44ColorRGB
 90
      255
102
RTVSPost2010PropOp44
 70
     1
102
RTVSPost2010Prop45
280
     0
102
RTVSPost2010PropOp45
 70
     1
102
RTVSPost2010Prop46
 90
       50
102
RTVSPost2010PropOp46
 70
     1
102
RTVSPost2010Prop47
 90
       50
102
RTVSPost2010PropOp47
 70
     1
102
RTVSPost2010Prop48
 90
       50
102
RTVSPost2010PropOp48
 70
     1
102
RTVSPost2010Prop49
280
     0
102
RTVSPost2010PropOp49
 70
     1
102
RTVSPost2010Prop50
 90
       50
102
RTVSPost2010PropOp50
 70
     1
102
RTVSPost2010Prop51ColorIndex
 90
      256
102
RTVSPost2010Prop51ColorRGB
 90
-16777216
102
RTVSPost2010PropOp51
 70
     0
102
RTVSPost2010Prop52
140
1.0
102
RTVSPost2010PropOp52
 70
     0
102
RTVSPost2010Prop53
 90
        2
102
RTVSPost2010PropOp53
 70
     1
102
RTVSPost2010Prop54
  1
strokes_ogs.tif
102
RTVSPost2010PropOp54
 70
     1
102
RTVSPost2010Prop55
280
     0
102
RTVSPost2010PropOp55
 70
     1
102
RTVSPost2010Prop56
140
1.0
102
RTVSPost2010PropOp56
 70
     1
102
RTVSPost2010Prop57
140
1.0
102
RTVSPost2010PropOp57
 70
     1
  0
XRECORD
  5
56F
102
{ACAD_REACTORS
330
56E
102
}
330
56E
100
AcDbXrecord
280
     1
102
RTVSPropertyOp0
 70
     1
102
RTVSPropertyOp1
 70
     1
102
RTVSPropertyOp2
 70
     1
102
RTVSPropertyOp3
 70
     1
102
RTVSPropertyOp4
 70
     1
102
RTVSPropertyOp5
 70
     1
102
RTVSPropertyOp6
 70
     1
102
RTVSPropertyOp7
 70
     1
102
RTVSPropertyOp8
 70
     1
102
RTVSPropertyOp9
 70
     1
102
RTVSPropertyOp10
 70
     1
102
RTVSPropertyOp11
 70
     1
102
RTVSPropertyOp12
 70
     1
102
RTVSPropertyOp13
 70
     1
102
RTVSPropertyOp14
 70
     1
102
RTVSPropertyOp15
 70
     1
102
RTVSPropertyOp16
 70
     1
102
RTVSPropertyOp17
 70
     1
102
RTVSPropertyOp18
 70
     1
102
RTVSPropertyOp19
 70
     1
102
RTVSPropertyOp20
 70
     1
102
RTVSPropertyOp21
 70
     1
102
RTVSPropertyOp22
 70
     1
102
RTVSPropertyOp23
 70
     1
102
RTVSPropertyOp24
 70
     1
102
RTVSPropertyOp25
 70
     1
102
RTVSPropertyOp26
 70
     1
102
RTVSPropertyOp27
 70
     1
102
RTVSPropertyOp28
 70
     1
102
RTVSPropertyOp29
 70
     1
102
RTVSPropertyOp30
 70
     1
102
RTVSPropertyOp31
 70
     1
102
RTVSPropertyOp32
 70
     1
102
RTVSPropertyOp33
 70
     1
102
RTVSPropertyOp34
 70
     1
102
RTVSPropertyOp35
 70
     1
102
RTVSPropertyOp36
 70
     1
102
RTVSPropertyOp37
 70
     1
102
RTVSPropertyOp38
 70
     1
102
RTVSPropertyOp39
 70
     1
102
RTVSPropertyOp40
 70
     1
102
RTVSPropertyOp41
 70
     1
102
RTVSPropertyOp42
 70
     1
102
RTVSPropertyOp43
 70
     1
102
RTVSPropertyOp44
 70
     1
102
RTVSPropertyOp45
 70
     1
102
RTVSPropertyOp46
 70
     1
102
RTVSPropertyOp47
 70
     1
102
RTVSPropertyOp48
 70
     1
102
RTVSPropertyOp49
 70
     1
102
RTVSPropertyOp50
 70
     1
102
RTVSPropertyOp51
 70
     0
102
RTVSPropertyOp52
 70
     0
102
RTVSPropertyOp53
 70
     1
102
RTVSPropertyOp54
 70
     1
102
RTVSPropertyOp55
 70
     1
102
RTVSPropertyOp56
 70
     1
102
RTVSPropertyOp57
 70
     1
102
RTVSPost2010Prop28
280
     0
102
RTVSPost2010PropOp28
 70
     1
102
RTVSPost2010Prop29
280
     1
102
RTVSPost2010PropOp29
 70
     1
102
RTVSPost2010Prop30
280
     1
102
RTVSPost2010PropOp30
 70
     1
102
RTVSPost2010Prop31
280
     0
102
RTVSPost2010PropOp31
 70
     1
102
RTVSPost2010Prop32
280
     0
102
RTVSPost2010PropOp32
 70
     1
102
RTVSPost2010Prop33
280
     0
102
RTVSPost2010PropOp33
 70
     1
102
RTVSPost2010Prop34
280
     0
102
RTVSPost2010PropOp34
 70
     1
102
RTVSPost2010Prop35
280
     0
102
RTVSPost2010PropOp35
 70
     1
102
RTVSPost2010Prop36
280
     0
102
RTVSPost2010PropOp36
 70
     1
102
RTVSPost2010Prop37
 90
       50
102
RTVSPost2010PropOp37
 70
     1
102
RTVSPost2010Prop38
140
0.0
102
RTVSPost2010PropOp38
 70
     1
102
RTVSPost2010Prop39
140
1.0
102
RTVSPost2010PropOp39
 70
     1
102
RTVSPost2010Prop40
 90
        0
102
RTVSPost2010PropOp40
 70
     1
102
RTVSPost2010Prop41ColorIndex
 90
       18
102
RTVSPost2010Prop41ColorRGB
 90
        0
102
RTVSPost2010PropOp41
 70
     1
102
RTVSPost2010Prop42
 90
       50
102
RTVSPost2010PropOp42
 70
     1
102
RTVSPost2010Prop43
 90
        3
102
RTVSPost2010PropOp43
 70
     1
102
RTVSPost2010Prop44ColorIndex
 90
        5
102
RTVSPost2010Prop44ColorRGB
 90
      255
102
RTVSPost2010PropOp44
 70
     1
102
RTVSPost2010Prop45
280
     0
102
RTVSPost2010PropOp45
 70
     1
102
RTVSPost2010Prop46
 90
       50
102
RTVSPost2010PropOp46
 70
     1
102
RTVSPost2010Prop47
 90
       50
102
RTVSPost2010PropOp47
 70
     1
102
RTVSPost2010Prop48
 90
       50
102
RTVSPost2010PropOp48
 70
     1
102
RTVSPost2010Prop49
280
     0
102
RTVSPost2010PropOp49
 70
     1
102
RTVSPost2010Prop50
 90
       50
102
RTVSPost2010PropOp50
 70
     1
102
RTVSPost2010Prop51ColorIndex
 90
      256
102
RTVSPost2010Prop51ColorRGB
 90
-16777216
102
RTVSPost2010PropOp51
 70
     0
102
RTVSPost2010Prop52
140
1.0
102
RTVSPost2010PropOp52
 70
     0
102
RTVSPost2010Prop53
 90
        2
102
RTVSPost2010PropOp53
 70
     1
102
RTVSPost2010Prop54
  1
strokes_ogs.tif
102
RTVSPost2010PropOp54
 70
     1
102
RTVSPost2010Prop55
280
     0
102
RTVSPost2010PropOp55
 70
     1
102
RTVSPost2010Prop56
140
1.0
102
RTVSPost2010PropOp56
 70
     1
102
RTVSPost2010Prop57
140
1.0
102
RTVSPost2010PropOp57
 70
     1
  0
XRECORD
  5
571
102
{ACAD_REACTORS
330
570
102
}
330
570
100
AcDbXrecord
280
     1
102
RTVSPropertyOp0
 70
     1
102
RTVSPropertyOp1
 70
     1
102
RTVSPropertyOp2
 70
     1
102
RTVSPropertyOp3
 70
     1
102
RTVSPropertyOp4
 70
     1
102
RTVSPropertyOp5
 70
     1
102
RTVSPropertyOp6
 70
     1
102
RTVSPropertyOp7
 70
     1
102
RTVSPropertyOp8
 70
     1
102
RTVSPropertyOp9
 70
     1
102
RTVSPropertyOp10
 70
     1
102
RTVSPropertyOp11
 70
     1
102
RTVSPropertyOp12
 70
     1
102
RTVSPropertyOp13
 70
     1
102
RTVSPropertyOp14
 70
     1
102
RTVSPropertyOp15
 70
     1
102
RTVSPropertyOp16
 70
     1
102
RTVSPropertyOp17
 70
     1
102
RTVSPropertyOp18
 70
     1
102
RTVSPropertyOp19
 70
     1
102
RTVSPropertyOp20
 70
     1
102
RTVSPropertyOp21
 70
     1
102
RTVSPropertyOp22
 70
     1
102
RTVSPropertyOp23
 70
     1
102
RTVSPropertyOp24
 70
     1
102
RTVSPropertyOp25
 70
     1
102
RTVSPropertyOp26
 70
     1
102
RTVSPropertyOp27
 70
     1
102
RTVSPropertyOp28
 70
     1
102
RTVSPropertyOp29
 70
     1
102
RTVSPropertyOp30
 70
     1
102
RTVSPropertyOp31
 70
     1
102
RTVSPropertyOp32
 70
     1
102
RTVSPropertyOp33
 70
     1
102
RTVSPropertyOp34
 70
     1
102
RTVSPropertyOp35
 70
     1
102
RTVSPropertyOp36
 70
     1
102
RTVSPropertyOp37
 70
     1
102
RTVSPropertyOp38
 70
     1
102
RTVSPropertyOp39
 70
     1
102
RTVSPropertyOp40
 70
     1
102
RTVSPropertyOp41
 70
     1
102
RTVSPropertyOp42
 70
     1
102
RTVSPropertyOp43
 70
     1
102
RTVSPropertyOp44
 70
     1
102
RTVSPropertyOp45
 70
     1
102
RTVSPropertyOp46
 70
     1
102
RTVSPropertyOp47
 70
     1
102
RTVSPropertyOp48
 70
     1
102
RTVSPropertyOp49
 70
     1
102
RTVSPropertyOp50
 70
     1
102
RTVSPropertyOp51
 70
     0
102
RTVSPropertyOp52
 70
     0
102
RTVSPropertyOp53
 70
     1
102
RTVSPropertyOp54
 70
     1
102
RTVSPropertyOp55
 70
     1
102
RTVSPropertyOp56
 70
     1
102
RTVSPropertyOp57
 70
     1
102
RTVSPost2010Prop28
280
     0
102
RTVSPost2010PropOp28
 70
     1
102
RTVSPost2010Prop29
280
     1
102
RTVSPost2010PropOp29
 70
     1
102
RTVSPost2010Prop30
280
     1
102
RTVSPost2010PropOp30
 70
     1
102
RTVSPost2010Prop31
280
     0
102
RTVSPost2010PropOp31
 70
     1
102
RTVSPost2010Prop32
280
     0
102
RTVSPost2010PropOp32
 70
     1
102
RTVSPost2010Prop33
280
     0
102
RTVSPost2010PropOp33
 70
     1
102
RTVSPost2010Prop34
280
     0
102
RTVSPost2010PropOp34
 70
     1
102
RTVSPost2010Prop35
280
     0
102
RTVSPost2010PropOp35
 70
     1
102
RTVSPost2010Prop36
280
     0
102
RTVSPost2010PropOp36
 70
     1
102
RTVSPost2010Prop37
 90
       50
102
RTVSPost2010PropOp37
 70
     1
102
RTVSPost2010Prop38
140
0.0
102
RTVSPost2010PropOp38
 70
     1
102
RTVSPost2010Prop39
140
1.0
102
RTVSPost2010PropOp39
 70
     1
102
RTVSPost2010Prop40
 90
        0
102
RTVSPost2010PropOp40
 70
     1
102
RTVSPost2010Prop41ColorIndex
 90
       18
102
RTVSPost2010Prop41ColorRGB
 90
        0
102
RTVSPost2010PropOp41
 70
     1
102
RTVSPost2010Prop42
 90
       50
102
RTVSPost2010PropOp42
 70
     1
102
RTVSPost2010Prop43
 90
        3
102
RTVSPost2010PropOp43
 70
     1
102
RTVSPost2010Prop44ColorIndex
 90
        5
102
RTVSPost2010Prop44ColorRGB
 90
      255
102
RTVSPost2010PropOp44
 70
     1
102
RTVSPost2010Prop45
280
     0
102
RTVSPost2010PropOp45
 70
     1
102
RTVSPost2010Prop46
 90
       50
102
RTVSPost2010PropOp46
 70
     1
102
RTVSPost2010Prop47
 90
       50
102
RTVSPost2010PropOp47
 70
     1
102
RTVSPost2010Prop48
 90
       50
102
RTVSPost2010PropOp48
 70
     1
102
RTVSPost2010Prop49
280
     0
102
RTVSPost2010PropOp49
 70
     1
102
RTVSPost2010Prop50
 90
       50
102
RTVSPost2010PropOp50
 70
     1
102
RTVSPost2010Prop51ColorIndex
 90
      256
102
RTVSPost2010Prop51ColorRGB
 90
-16777216
102
RTVSPost2010PropOp51
 70
     0
102
RTVSPost2010Prop52
140
1.0
102
RTVSPost2010PropOp52
 70
     0
102
RTVSPost2010Prop53
 90
        2
102
RTVSPost2010PropOp53
 70
     1
102
RTVSPost2010Prop54
  1
strokes_ogs.tif
102
RTVSPost2010PropOp54
 70
     1
102
RTVSPost2010Prop55
280
     0
102
RTVSPost2010PropOp55
 70
     1
102
RTVSPost2010Prop56
140
1.0
102
RTVSPost2010PropOp56
 70
     1
102
RTVSPost2010Prop57
140
1.0
102
RTVSPost2010PropOp57
 70
     1
  0
XRECORD
  5
579
102
{ACAD_REACTORS
330
578
102
}
330
578
100
AcDbXrecord
280
     1
102
RTVSPropertyOp0
 70
     1
102
RTVSPropertyOp1
 70
     1
102
RTVSPropertyOp2
 70
     1
102
RTVSPropertyOp3
 70
     1
102
RTVSPropertyOp4
 70
     1
102
RTVSPropertyOp5
 70
     1
102
RTVSPropertyOp6
 70
     1
102
RTVSPropertyOp7
 70
     1
102
RTVSPropertyOp8
 70
     1
102
RTVSPropertyOp9
 70
     1
102
RTVSPropertyOp10
 70
     1
102
RTVSPropertyOp11
 70
     1
102
RTVSPropertyOp12
 70
     1
102
RTVSPropertyOp13
 70
     1
102
RTVSPropertyOp14
 70
     1
102
RTVSPropertyOp15
 70
     1
102
RTVSPropertyOp16
 70
     1
102
RTVSPropertyOp17
 70
     1
102
RTVSPropertyOp18
 70
     1
102
RTVSPropertyOp19
 70
     1
102
RTVSPropertyOp20
 70
     1
102
RTVSPropertyOp21
 70
     1
102
RTVSPropertyOp22
 70
     1
102
RTVSPropertyOp23
 70
     1
102
RTVSPropertyOp24
 70
     1
102
RTVSPropertyOp25
 70
     1
102
RTVSPropertyOp26
 70
     1
102
RTVSPropertyOp27
 70
     1
102
RTVSPropertyOp28
 70
     1
102
RTVSPropertyOp29
 70
     1
102
RTVSPropertyOp30
 70
     1
102
RTVSPropertyOp31
 70
     1
102
RTVSPropertyOp32
 70
     1
102
RTVSPropertyOp33
 70
     1
102
RTVSPropertyOp34
 70
     1
102
RTVSPropertyOp35
 70
     1
102
RTVSPropertyOp36
 70
     1
102
RTVSPropertyOp37
 70
     1
102
RTVSPropertyOp38
 70
     1
102
RTVSPropertyOp39
 70
     1
102
RTVSPropertyOp40
 70
     1
102
RTVSPropertyOp41
 70
     1
102
RTVSPropertyOp42
 70
     1
102
RTVSPropertyOp43
 70
     1
102
RTVSPropertyOp44
 70
     1
102
RTVSPropertyOp45
 70
     1
102
RTVSPropertyOp46
 70
     1
102
RTVSPropertyOp47
 70
     1
102
RTVSPropertyOp48
 70
     1
102
RTVSPropertyOp49
 70
     1
102
RTVSPropertyOp50
 70
     1
102
RTVSPropertyOp51
 70
     0
102
RTVSPropertyOp52
 70
     0
102
RTVSPropertyOp53
 70
     1
102
RTVSPropertyOp54
 70
     1
102
RTVSPropertyOp55
 70
     1
102
RTVSPropertyOp56
 70
     1
102
RTVSPropertyOp57
 70
     1
102
RTVSPost2010Prop28
280
     0
102
RTVSPost2010PropOp28
 70
     1
102
RTVSPost2010Prop29
280
     1
102
RTVSPost2010PropOp29
 70
     1
102
RTVSPost2010Prop30
280
     1
102
RTVSPost2010PropOp30
 70
     1
102
RTVSPost2010Prop31
280
     0
102
RTVSPost2010PropOp31
 70
     1
102
RTVSPost2010Prop32
280
     0
102
RTVSPost2010PropOp32
 70
     1
102
RTVSPost2010Prop33
280
     0
102
RTVSPost2010PropOp33
 70
     1
102
RTVSPost2010Prop34
280
     0
102
RTVSPost2010PropOp34
 70
     1
102
RTVSPost2010Prop35
280
     0
102
RTVSPost2010PropOp35
 70
     1
102
RTVSPost2010Prop36
280
     0
102
RTVSPost2010PropOp36
 70
     1
102
RTVSPost2010Prop37
 90
       50
102
RTVSPost2010PropOp37
 70
     1
102
RTVSPost2010Prop38
140
0.0
102
RTVSPost2010PropOp38
 70
     1
102
RTVSPost2010Prop39
140
1.0
102
RTVSPost2010PropOp39
 70
     1
102
RTVSPost2010Prop40
 90
        0
102
RTVSPost2010PropOp40
 70
     1
102
RTVSPost2010Prop41ColorIndex
 90
       18
102
RTVSPost2010Prop41ColorRGB
 90
        0
102
RTVSPost2010PropOp41
 70
     1
102
RTVSPost2010Prop42
 90
       50
102
RTVSPost2010PropOp42
 70
     1
102
RTVSPost2010Prop43
 90
        3
102
RTVSPost2010PropOp43
 70
     1
102
RTVSPost2010Prop44ColorIndex
 90
        5
102
RTVSPost2010Prop44ColorRGB
 90
      255
102
RTVSPost2010PropOp44
 70
     1
102
RTVSPost2010Prop45
280
     0
102
RTVSPost2010PropOp45
 70
     1
102
RTVSPost2010Prop46
 90
       50
102
RTVSPost2010PropOp46
 70
     1
102
RTVSPost2010Prop47
 90
       50
102
RTVSPost2010PropOp47
 70
     1
102
RTVSPost2010Prop48
 90
       50
102
RTVSPost2010PropOp48
 70
     1
102
RTVSPost2010Prop49
280
     0
102
RTVSPost2010PropOp49
 70
     1
102
RTVSPost2010Prop50
 90
       50
102
RTVSPost2010PropOp50
 70
     1
102
RTVSPost2010Prop51ColorIndex
 90
      256
102
RTVSPost2010Prop51ColorRGB
 90
-16777216
102
RTVSPost2010PropOp51
 70
     0
102
RTVSPost2010Prop52
140
1.0
102
RTVSPost2010PropOp52
 70
     0
102
RTVSPost2010Prop53
 90
        2
102
RTVSPost2010PropOp53
 70
     1
102
RTVSPost2010Prop54
  1
strokes_ogs.tif
102
RTVSPost2010PropOp54
 70
     1
102
RTVSPost2010Prop55
280
     0
102
RTVSPost2010PropOp55
 70
     1
102
RTVSPost2010Prop56
140
1.0
102
RTVSPost2010PropOp56
 70
     1
102
RTVSPost2010Prop57
140
1.0
102
RTVSPost2010PropOp57
 70
     1
  0
XRECORD
  5
55D
102
{ACAD_REACTORS
330
55C
102
}
330
55C
100
AcDbXrecord
280
     1
102
RTVSPropertyOp0
 70
     1
102
RTVSPropertyOp1
 70
     1
102
RTVSPropertyOp2
 70
     1
102
RTVSPropertyOp3
 70
     1
102
RTVSPropertyOp4
 70
     1
102
RTVSPropertyOp5
 70
     1
102
RTVSPropertyOp6
 70
     1
102
RTVSPropertyOp7
 70
     1
102
RTVSPropertyOp8
 70
     1
102
RTVSPropertyOp9
 70
     1
102
RTVSPropertyOp10
 70
     1
102
RTVSPropertyOp11
 70
     1
102
RTVSPropertyOp12
 70
     1
102
RTVSPropertyOp13
 70
     1
102
RTVSPropertyOp14
 70
     1
102
RTVSPropertyOp15
 70
     1
102
RTVSPropertyOp16
 70
     1
102
RTVSPropertyOp17
 70
     1
102
RTVSPropertyOp18
 70
     1
102
RTVSPropertyOp19
 70
     1
102
RTVSPropertyOp20
 70
     1
102
RTVSPropertyOp21
 70
     1
102
RTVSPropertyOp22
 70
     1
102
RTVSPropertyOp23
 70
     1
102
RTVSPropertyOp24
 70
     1
102
RTVSPropertyOp25
 70
     1
102
RTVSPropertyOp26
 70
     1
102
RTVSPropertyOp27
 70
     1
102
RTVSPropertyOp28
 70
     1
102
RTVSPropertyOp29
 70
     1
102
RTVSPropertyOp30
 70
     1
102
RTVSPropertyOp31
 70
     1
102
RTVSPropertyOp32
 70
     1
102
RTVSPropertyOp33
 70
     1
102
RTVSPropertyOp34
 70
     1
102
RTVSPropertyOp35
 70
     1
102
RTVSPropertyOp36
 70
     1
102
RTVSPropertyOp37
 70
     1
102
RTVSPropertyOp38
 70
     1
102
RTVSPropertyOp39
 70
     1
102
RTVSPropertyOp40
 70
     1
102
RTVSPropertyOp41
 70
     1
102
RTVSPropertyOp42
 70
     1
102
RTVSPropertyOp43
 70
     1
102
RTVSPropertyOp44
 70
     1
102
RTVSPropertyOp45
 70
     1
102
RTVSPropertyOp46
 70
     1
102
RTVSPropertyOp47
 70
     1
102
RTVSPropertyOp48
 70
     1
102
RTVSPropertyOp49
 70
     1
102
RTVSPropertyOp50
 70
     1
102
RTVSPropertyOp51
 70
     0
102
RTVSPropertyOp52
 70
     0
102
RTVSPropertyOp53
 70
     1
102
RTVSPropertyOp54
 70
     1
102
RTVSPropertyOp55
 70
     1
102
RTVSPropertyOp56
 70
     1
102
RTVSPropertyOp57
 70
     1
102
RTVSPost2010Prop28
280
     0
102
RTVSPost2010PropOp28
 70
     1
102
RTVSPost2010Prop29
280
     1
102
RTVSPost2010PropOp29
 70
     1
102
RTVSPost2010Prop30
280
     1
102
RTVSPost2010PropOp30
 70
     1
102
RTVSPost2010Prop31
280
     0
102
RTVSPost2010PropOp31
 70
     1
102
RTVSPost2010Prop32
280
     0
102
RTVSPost2010PropOp32
 70
     1
102
RTVSPost2010Prop33
280
     0
102
RTVSPost2010PropOp33
 70
     1
102
RTVSPost2010Prop34
280
     0
102
RTVSPost2010PropOp34
 70
     1
102
RTVSPost2010Prop35
280
     0
102
RTVSPost2010PropOp35
 70
     1
102
RTVSPost2010Prop36
280
     0
102
RTVSPost2010PropOp36
 70
     1
102
RTVSPost2010Prop37
 90
       50
102
RTVSPost2010PropOp37
 70
     1
102
RTVSPost2010Prop38
140
0.0
102
RTVSPost2010PropOp38
 70
     1
102
RTVSPost2010Prop39
140
1.0
102
RTVSPost2010PropOp39
 70
     1
102
RTVSPost2010Prop40
 90
        0
102
RTVSPost2010PropOp40
 70
     1
102
RTVSPost2010Prop41ColorIndex
 90
       18
102
RTVSPost2010Prop41ColorRGB
 90
        0
102
RTVSPost2010PropOp41
 70
     1
102
RTVSPost2010Prop42
 90
       50
102
RTVSPost2010PropOp42
 70
     1
102
RTVSPost2010Prop43
 90
        3
102
RTVSPost2010PropOp43
 70
     1
102
RTVSPost2010Prop44ColorIndex
 90
        5
102
RTVSPost2010Prop44ColorRGB
 90
      255
102
RTVSPost2010PropOp44
 70
     1
102
RTVSPost2010Prop45
280
     0
102
RTVSPost2010PropOp45
 70
     1
102
RTVSPost2010Prop46
 90
       50
102
RTVSPost2010PropOp46
 70
     1
102
RTVSPost2010Prop47
 90
       50
102
RTVSPost2010PropOp47
 70
     1
102
RTVSPost2010Prop48
 90
       50
102
RTVSPost2010PropOp48
 70
     1
102
RTVSPost2010Prop49
280
     0
102
RTVSPost2010PropOp49
 70
     1
102
RTVSPost2010Prop50
 90
       50
102
RTVSPost2010PropOp50
 70
     1
102
RTVSPost2010Prop51ColorIndex
 90
      256
102
RTVSPost2010Prop51ColorRGB
 90
-16777216
102
RTVSPost2010PropOp51
 70
     0
102
RTVSPost2010Prop52
140
1.0
102
RTVSPost2010PropOp52
 70
     0
102
RTVSPost2010Prop53
 90
        2
102
RTVSPost2010PropOp53
 70
     1
102
RTVSPost2010Prop54
  1
strokes_ogs.tif
102
RTVSPost2010PropOp54
 70
     1
102
RTVSPost2010Prop55
280
     0
102
RTVSPost2010PropOp55
 70
     1
102
RTVSPost2010Prop56
140
1.0
102
RTVSPost2010PropOp56
 70
     1
102
RTVSPost2010Prop57
140
1.0
102
RTVSPost2010PropOp57
 70
     1
  0
XRECORD
  5
55F
102
{ACAD_REACTORS
330
55E
102
}
330
55E
100
AcDbXrecord
280
     1
102
RTVSPropertyOp0
 70
     1
102
RTVSPropertyOp1
 70
     1
102
RTVSPropertyOp2
 70
     1
102
RTVSPropertyOp3
 70
     1
102
RTVSPropertyOp4
 70
     1
102
RTVSPropertyOp5
 70
     1
102
RTVSPropertyOp6
 70
     1
102
RTVSPropertyOp7
 70
     1
102
RTVSPropertyOp8
 70
     1
102
RTVSPropertyOp9
 70
     1
102
RTVSPropertyOp10
 70
     1
102
RTVSPropertyOp11
 70
     1
102
RTVSPropertyOp12
 70
     1
102
RTVSPropertyOp13
 70
     1
102
RTVSPropertyOp14
 70
     1
102
RTVSPropertyOp15
 70
     1
102
RTVSPropertyOp16
 70
     1
102
RTVSPropertyOp17
 70
     1
102
RTVSPropertyOp18
 70
     1
102
RTVSPropertyOp19
 70
     1
102
RTVSPropertyOp20
 70
     1
102
RTVSPropertyOp21
 70
     1
102
RTVSPropertyOp22
 70
     1
102
RTVSPropertyOp23
 70
     1
102
RTVSPropertyOp24
 70
     1
102
RTVSPropertyOp25
 70
     1
102
RTVSPropertyOp26
 70
     1
102
RTVSPropertyOp27
 70
     1
102
RTVSPropertyOp28
 70
     1
102
RTVSPropertyOp29
 70
     1
102
RTVSPropertyOp30
 70
     1
102
RTVSPropertyOp31
 70
     1
102
RTVSPropertyOp32
 70
     1
102
RTVSPropertyOp33
 70
     1
102
RTVSPropertyOp34
 70
     1
102
RTVSPropertyOp35
 70
     1
102
RTVSPropertyOp36
 70
     1
102
RTVSPropertyOp37
 70
     1
102
RTVSPropertyOp38
 70
     1
102
RTVSPropertyOp39
 70
     1
102
RTVSPropertyOp40
 70
     1
102
RTVSPropertyOp41
 70
     1
102
RTVSPropertyOp42
 70
     1
102
RTVSPropertyOp43
 70
     1
102
RTVSPropertyOp44
 70
     1
102
RTVSPropertyOp45
 70
     1
102
RTVSPropertyOp46
 70
     1
102
RTVSPropertyOp47
 70
     1
102
RTVSPropertyOp48
 70
     1
102
RTVSPropertyOp49
 70
     1
102
RTVSPropertyOp50
 70
     1
102
RTVSPropertyOp51
 70
     0
102
RTVSPropertyOp52
 70
     0
102
RTVSPropertyOp53
 70
     1
102
RTVSPropertyOp54
 70
     1
102
RTVSPropertyOp55
 70
     1
102
RTVSPropertyOp56
 70
     1
102
RTVSPropertyOp57
 70
     1
102
RTVSPost2010Prop28
280
     0
102
RTVSPost2010PropOp28
 70
     1
102
RTVSPost2010Prop29
280
     1
102
RTVSPost2010PropOp29
 70
     1
102
RTVSPost2010Prop30
280
     1
102
RTVSPost2010PropOp30
 70
     1
102
RTVSPost2010Prop31
280
     0
102
RTVSPost2010PropOp31
 70
     1
102
RTVSPost2010Prop32
280
     0
102
RTVSPost2010PropOp32
 70
     1
102
RTVSPost2010Prop33
280
     0
102
RTVSPost2010PropOp33
 70
     1
102
RTVSPost2010Prop34
280
     0
102
RTVSPost2010PropOp34
 70
     1
102
RTVSPost2010Prop35
280
     0
102
RTVSPost2010PropOp35
 70
     1
102
RTVSPost2010Prop36
280
     0
102
RTVSPost2010PropOp36
 70
     1
102
RTVSPost2010Prop37
 90
       50
102
RTVSPost2010PropOp37
 70
     1
102
RTVSPost2010Prop38
140
0.0
102
RTVSPost2010PropOp38
 70
     1
102
RTVSPost2010Prop39
140
1.0
102
RTVSPost2010PropOp39
 70
     1
102
RTVSPost2010Prop40
 90
        0
102
RTVSPost2010PropOp40
 70
     1
102
RTVSPost2010Prop41ColorIndex
 90
       18
102
RTVSPost2010Prop41ColorRGB
 90
        0
102
RTVSPost2010PropOp41
 70
     1
102
RTVSPost2010Prop42
 90
       50
102
RTVSPost2010PropOp42
 70
     1
102
RTVSPost2010Prop43
 90
        3
102
RTVSPost2010PropOp43
 70
     1
102
RTVSPost2010Prop44ColorIndex
 90
        5
102
RTVSPost2010Prop44ColorRGB
 90
      255
102
RTVSPost2010PropOp44
 70
     1
102
RTVSPost2010Prop45
280
     0
102
RTVSPost2010PropOp45
 70
     1
102
RTVSPost2010Prop46
 90
       50
102
RTVSPost2010PropOp46
 70
     1
102
RTVSPost2010Prop47
 90
       50
102
RTVSPost2010PropOp47
 70
     1
102
RTVSPost2010Prop48
 90
       50
102
RTVSPost2010PropOp48
 70
     1
102
RTVSPost2010Prop49
280
     0
102
RTVSPost2010PropOp49
 70
     1
102
RTVSPost2010Prop50
 90
       50
102
RTVSPost2010PropOp50
 70
     1
102
RTVSPost2010Prop51ColorIndex
 90
      256
102
RTVSPost2010Prop51ColorRGB
 90
-16777216
102
RTVSPost2010PropOp51
 70
     0
102
RTVSPost2010Prop52
140
1.0
102
RTVSPost2010PropOp52
 70
     0
102
RTVSPost2010Prop53
 90
        2
102
RTVSPost2010PropOp53
 70
     1
102
RTVSPost2010Prop54
  1
strokes_ogs.tif
102
RTVSPost2010PropOp54
 70
     1
102
RTVSPost2010Prop55
280
     0
102
RTVSPost2010PropOp55
 70
     1
102
RTVSPost2010Prop56
140
1.0
102
RTVSPost2010PropOp56
 70
     1
102
RTVSPost2010Prop57
140
1.0
102
RTVSPost2010PropOp57
 70
     1
  0
XRECORD
  5
561
102
{ACAD_REACTORS
330
560
102
}
330
560
100
AcDbXrecord
280
     1
102
RTVSPropertyOp0
 70
     1
102
RTVSPropertyOp1
 70
     1
102
RTVSPropertyOp2
 70
     1
102
RTVSPropertyOp3
 70
     1
102
RTVSPropertyOp4
 70
     1
102
RTVSPropertyOp5
 70
     1
102
RTVSPropertyOp6
 70
     1
102
RTVSPropertyOp7
 70
     1
102
RTVSPropertyOp8
 70
     1
102
RTVSPropertyOp9
 70
     1
102
RTVSPropertyOp10
 70
     1
102
RTVSPropertyOp11
 70
     1
102
RTVSPropertyOp12
 70
     1
102
RTVSPropertyOp13
 70
     1
102
RTVSPropertyOp14
 70
     1
102
RTVSPropertyOp15
 70
     1
102
RTVSPropertyOp16
 70
     1
102
RTVSPropertyOp17
 70
     1
102
RTVSPropertyOp18
 70
     1
102
RTVSPropertyOp19
 70
     1
102
RTVSPropertyOp20
 70
     1
102
RTVSPropertyOp21
 70
     1
102
RTVSPropertyOp22
 70
     1
102
RTVSPropertyOp23
 70
     1
102
RTVSPropertyOp24
 70
     1
102
RTVSPropertyOp25
 70
     1
102
RTVSPropertyOp26
 70
     1
102
RTVSPropertyOp27
 70
     1
102
RTVSPropertyOp28
 70
     1
102
RTVSPropertyOp29
 70
     1
102
RTVSPropertyOp30
 70
     1
102
RTVSPropertyOp31
 70
     1
102
RTVSPropertyOp32
 70
     1
102
RTVSPropertyOp33
 70
     1
102
RTVSPropertyOp34
 70
     1
102
RTVSPropertyOp35
 70
     1
102
RTVSPropertyOp36
 70
     1
102
RTVSPropertyOp37
 70
     1
102
RTVSPropertyOp38
 70
     1
102
RTVSPropertyOp39
 70
     1
102
RTVSPropertyOp40
 70
     1
102
RTVSPropertyOp41
 70
     1
102
RTVSPropertyOp42
 70
     1
102
RTVSPropertyOp43
 70
     1
102
RTVSPropertyOp44
 70
     1
102
RTVSPropertyOp45
 70
     1
102
RTVSPropertyOp46
 70
     1
102
RTVSPropertyOp47
 70
     1
102
RTVSPropertyOp48
 70
     1
102
RTVSPropertyOp49
 70
     1
102
RTVSPropertyOp50
 70
     1
102
RTVSPropertyOp51
 70
     0
102
RTVSPropertyOp52
 70
     0
102
RTVSPropertyOp53
 70
     1
102
RTVSPropertyOp54
 70
     1
102
RTVSPropertyOp55
 70
     1
102
RTVSPropertyOp56
 70
     1
102
RTVSPropertyOp57
 70
     1
102
RTVSPost2010Prop28
280
     0
102
RTVSPost2010PropOp28
 70
     1
102
RTVSPost2010Prop29
280
     1
102
RTVSPost2010PropOp29
 70
     1
102
RTVSPost2010Prop30
280
     1
102
RTVSPost2010PropOp30
 70
     1
102
RTVSPost2010Prop31
280
     0
102
RTVSPost2010PropOp31
 70
     1
102
RTVSPost2010Prop32
280
     0
102
RTVSPost2010PropOp32
 70
     1
102
RTVSPost2010Prop33
280
     0
102
RTVSPost2010PropOp33
 70
     1
102
RTVSPost2010Prop34
280
     0
102
RTVSPost2010PropOp34
 70
     1
102
RTVSPost2010Prop35
280
     0
102
RTVSPost2010PropOp35
 70
     1
102
RTVSPost2010Prop36
280
     0
102
RTVSPost2010PropOp36
 70
     1
102
RTVSPost2010Prop37
 90
       50
102
RTVSPost2010PropOp37
 70
     1
102
RTVSPost2010Prop38
140
0.0
102
RTVSPost2010PropOp38
 70
     1
102
RTVSPost2010Prop39
140
1.0
102
RTVSPost2010PropOp39
 70
     1
102
RTVSPost2010Prop40
 90
        0
102
RTVSPost2010PropOp40
 70
     1
102
RTVSPost2010Prop41ColorIndex
 90
       18
102
RTVSPost2010Prop41ColorRGB
 90
        0
102
RTVSPost2010PropOp41
 70
     1
102
RTVSPost2010Prop42
 90
       50
102
RTVSPost2010PropOp42
 70
     1
102
RTVSPost2010Prop43
 90
        3
102
RTVSPost2010PropOp43
 70
     1
102
RTVSPost2010Prop44ColorIndex
 90
        5
102
RTVSPost2010Prop44ColorRGB
 90
      255
102
RTVSPost2010PropOp44
 70
     1
102
RTVSPost2010Prop45
280
     0
102
RTVSPost2010PropOp45
 70
     1
102
RTVSPost2010Prop46
 90
       50
102
RTVSPost2010PropOp46
 70
     1
102
RTVSPost2010Prop47
 90
       50
102
RTVSPost2010PropOp47
 70
     1
102
RTVSPost2010Prop48
 90
       50
102
RTVSPost2010PropOp48
 70
     1
102
RTVSPost2010Prop49
280
     0
102
RTVSPost2010PropOp49
 70
     1
102
RTVSPost2010Prop50
 90
       50
102
RTVSPost2010PropOp50
 70
     1
102
RTVSPost2010Prop51ColorIndex
 90
      256
102
RTVSPost2010Prop51ColorRGB
 90
-16777216
102
RTVSPost2010PropOp51
 70
     0
102
RTVSPost2010Prop52
140
1.0
102
RTVSPost2010PropOp52
 70
     0
102
RTVSPost2010Prop53
 90
        2
102
RTVSPost2010PropOp53
 70
     1
102
RTVSPost2010Prop54
  1
strokes_ogs.tif
102
RTVSPost2010PropOp54
 70
     1
102
RTVSPost2010Prop55
280
     0
102
RTVSPost2010PropOp55
 70
     1
102
RTVSPost2010Prop56
140
1.0
102
RTVSPost2010PropOp56
 70
     1
102
RTVSPost2010Prop57
140
1.0
102
RTVSPost2010PropOp57
 70
     1
  0
XRECORD
  5
563
102
{ACAD_REACTORS
330
562
102
}
330
562
100
AcDbXrecord
280
     1
102
RTVSPropertyOp0
 70
     1
102
RTVSPropertyOp1
 70
     1
102
RTVSPropertyOp2
 70
     1
102
RTVSPropertyOp3
 70
     1
102
RTVSPropertyOp4
 70
     1
102
RTVSPropertyOp5
 70
     1
102
RTVSPropertyOp6
 70
     1
102
RTVSPropertyOp7
 70
     1
102
RTVSPropertyOp8
 70
     1
102
RTVSPropertyOp9
 70
     1
102
RTVSPropertyOp10
 70
     1
102
RTVSPropertyOp11
 70
     1
102
RTVSPropertyOp12
 70
     1
102
RTVSPropertyOp13
 70
     1
102
RTVSPropertyOp14
 70
     1
102
RTVSPropertyOp15
 70
     1
102
RTVSPropertyOp16
 70
     1
102
RTVSPropertyOp17
 70
     1
102
RTVSPropertyOp18
 70
     1
102
RTVSPropertyOp19
 70
     1
102
RTVSPropertyOp20
 70
     1
102
RTVSPropertyOp21
 70
     1
102
RTVSPropertyOp22
 70
     1
102
RTVSPropertyOp23
 70
     1
102
RTVSPropertyOp24
 70
     1
102
RTVSPropertyOp25
 70
     1
102
RTVSPropertyOp26
 70
     1
102
RTVSPropertyOp27
 70
     1
102
RTVSPropertyOp28
 70
     1
102
RTVSPropertyOp29
 70
     1
102
RTVSPropertyOp30
 70
     1
102
RTVSPropertyOp31
 70
     1
102
RTVSPropertyOp32
 70
     1
102
RTVSPropertyOp33
 70
     1
102
RTVSPropertyOp34
 70
     1
102
RTVSPropertyOp35
 70
     1
102
RTVSPropertyOp36
 70
     1
102
RTVSPropertyOp37
 70
     1
102
RTVSPropertyOp38
 70
     1
102
RTVSPropertyOp39
 70
     1
102
RTVSPropertyOp40
 70
     1
102
RTVSPropertyOp41
 70
     1
102
RTVSPropertyOp42
 70
     1
102
RTVSPropertyOp43
 70
     1
102
RTVSPropertyOp44
 70
     1
102
RTVSPropertyOp45
 70
     1
102
RTVSPropertyOp46
 70
     1
102
RTVSPropertyOp47
 70
     1
102
RTVSPropertyOp48
 70
     1
102
RTVSPropertyOp49
 70
     1
102
RTVSPropertyOp50
 70
     1
102
RTVSPropertyOp51
 70
     0
102
RTVSPropertyOp52
 70
     0
102
RTVSPropertyOp53
 70
     1
102
RTVSPropertyOp54
 70
     1
102
RTVSPropertyOp55
 70
     1
102
RTVSPropertyOp56
 70
     1
102
RTVSPropertyOp57
 70
     1
102
RTVSPost2010Prop28
280
     0
102
RTVSPost2010PropOp28
 70
     1
102
RTVSPost2010Prop29
280
     1
102
RTVSPost2010PropOp29
 70
     1
102
RTVSPost2010Prop30
280
     1
102
RTVSPost2010PropOp30
 70
     1
102
RTVSPost2010Prop31
280
     0
102
RTVSPost2010PropOp31
 70
     1
102
RTVSPost2010Prop32
280
     0
102
RTVSPost2010PropOp32
 70
     1
102
RTVSPost2010Prop33
280
     0
102
RTVSPost2010PropOp33
 70
     1
102
RTVSPost2010Prop34
280
     0
102
RTVSPost2010PropOp34
 70
     1
102
RTVSPost2010Prop35
280
     0
102
RTVSPost2010PropOp35
 70
     1
102
RTVSPost2010Prop36
280
     0
102
RTVSPost2010PropOp36
 70
     1
102
RTVSPost2010Prop37
 90
       50
102
RTVSPost2010PropOp37
 70
     1
102
RTVSPost2010Prop38
140
0.0
102
RTVSPost2010PropOp38
 70
     1
102
RTVSPost2010Prop39
140
1.0
102
RTVSPost2010PropOp39
 70
     1
102
RTVSPost2010Prop40
 90
        0
102
RTVSPost2010PropOp40
 70
     1
102
RTVSPost2010Prop41ColorIndex
 90
       18
102
RTVSPost2010Prop41ColorRGB
 90
        0
102
RTVSPost2010PropOp41
 70
     1
102
RTVSPost2010Prop42
 90
       50
102
RTVSPost2010PropOp42
 70
     1
102
RTVSPost2010Prop43
 90
        3
102
RTVSPost2010PropOp43
 70
     1
102
RTVSPost2010Prop44ColorIndex
 90
        5
102
RTVSPost2010Prop44ColorRGB
 90
      255
102
RTVSPost2010PropOp44
 70
     1
102
RTVSPost2010Prop45
280
     0
102
RTVSPost2010PropOp45
 70
     1
102
RTVSPost2010Prop46
 90
       50
102
RTVSPost2010PropOp46
 70
     1
102
RTVSPost2010Prop47
 90
       50
102
RTVSPost2010PropOp47
 70
     1
102
RTVSPost2010Prop48
 90
       50
102
RTVSPost2010PropOp48
 70
     1
102
RTVSPost2010Prop49
280
     0
102
RTVSPost2010PropOp49
 70
     1
102
RTVSPost2010Prop50
 90
       50
102
RTVSPost2010PropOp50
 70
     1
102
RTVSPost2010Prop51ColorIndex
 90
      256
102
RTVSPost2010Prop51ColorRGB
 90
-16777216
102
RTVSPost2010PropOp51
 70
     0
102
RTVSPost2010Prop52
140
1.0
102
RTVSPost2010PropOp52
 70
     0
102
RTVSPost2010Prop53
 90
        2
102
RTVSPost2010PropOp53
 70
     1
102
RTVSPost2010Prop54
  1
strokes_ogs.tif
102
RTVSPost2010PropOp54
 70
     1
102
RTVSPost2010Prop55
280
     0
102
RTVSPost2010PropOp55
 70
     1
102
RTVSPost2010Prop56
140
1.0
102
RTVSPost2010PropOp56
 70
     1
102
RTVSPost2010Prop57
140
1.0
102
RTVSPost2010PropOp57
 70
     1
  0
XRECORD
  5
577
102
{ACAD_REACTORS
330
576
102
}
330
576
100
AcDbXrecord
280
     1
102
RTVSPropertyOp0
 70
     1
102
RTVSPropertyOp1
 70
     1
102
RTVSPropertyOp2
 70
     1
102
RTVSPropertyOp3
 70
     1
102
RTVSPropertyOp4
 70
     1
102
RTVSPropertyOp5
 70
     1
102
RTVSPropertyOp6
 70
     1
102
RTVSPropertyOp7
 70
     1
102
RTVSPropertyOp8
 70
     1
102
RTVSPropertyOp9
 70
     1
102
RTVSPropertyOp10
 70
     1
102
RTVSPropertyOp11
 70
     1
102
RTVSPropertyOp12
 70
     1
102
RTVSPropertyOp13
 70
     1
102
RTVSPropertyOp14
 70
     1
102
RTVSPropertyOp15
 70
     1
102
RTVSPropertyOp16
 70
     1
102
RTVSPropertyOp17
 70
     1
102
RTVSPropertyOp18
 70
     1
102
RTVSPropertyOp19
 70
     1
102
RTVSPropertyOp20
 70
     1
102
RTVSPropertyOp21
 70
     1
102
RTVSPropertyOp22
 70
     1
102
RTVSPropertyOp23
 70
     1
102
RTVSPropertyOp24
 70
     1
102
RTVSPropertyOp25
 70
     1
102
RTVSPropertyOp26
 70
     1
102
RTVSPropertyOp27
 70
     1
102
RTVSPropertyOp28
 70
     1
102
RTVSPropertyOp29
 70
     1
102
RTVSPropertyOp30
 70
     1
102
RTVSPropertyOp31
 70
     1
102
RTVSPropertyOp32
 70
     1
102
RTVSPropertyOp33
 70
     1
102
RTVSPropertyOp34
 70
     1
102
RTVSPropertyOp35
 70
     1
102
RTVSPropertyOp36
 70
     1
102
RTVSPropertyOp37
 70
     1
102
RTVSPropertyOp38
 70
     1
102
RTVSPropertyOp39
 70
     1
102
RTVSPropertyOp40
 70
     1
102
RTVSPropertyOp41
 70
     1
102
RTVSPropertyOp42
 70
     1
102
RTVSPropertyOp43
 70
     1
102
RTVSPropertyOp44
 70
     1
102
RTVSPropertyOp45
 70
     1
102
RTVSPropertyOp46
 70
     1
102
RTVSPropertyOp47
 70
     1
102
RTVSPropertyOp48
 70
     1
102
RTVSPropertyOp49
 70
     1
102
RTVSPropertyOp50
 70
     1
102
RTVSPropertyOp51
 70
     0
102
RTVSPropertyOp52
 70
     0
102
RTVSPropertyOp53
 70
     1
102
RTVSPropertyOp54
 70
     1
102
RTVSPropertyOp55
 70
     1
102
RTVSPropertyOp56
 70
     1
102
RTVSPropertyOp57
 70
     1
102
RTVSPost2010Prop28
280
     0
102
RTVSPost2010PropOp28
 70
     1
102
RTVSPost2010Prop29
280
     1
102
RTVSPost2010PropOp29
 70
     1
102
RTVSPost2010Prop30
280
     1
102
RTVSPost2010PropOp30
 70
     1
102
RTVSPost2010Prop31
280
     0
102
RTVSPost2010PropOp31
 70
     1
102
RTVSPost2010Prop32
280
     0
102
RTVSPost2010PropOp32
 70
     1
102
RTVSPost2010Prop33
280
     0
102
RTVSPost2010PropOp33
 70
     1
102
RTVSPost2010Prop34
280
     0
102
RTVSPost2010PropOp34
 70
     1
102
RTVSPost2010Prop35
280
     0
102
RTVSPost2010PropOp35
 70
     1
102
RTVSPost2010Prop36
280
     0
102
RTVSPost2010PropOp36
 70
     1
102
RTVSPost2010Prop37
 90
       50
102
RTVSPost2010PropOp37
 70
     1
102
RTVSPost2010Prop38
140
0.0
102
RTVSPost2010PropOp38
 70
     1
102
RTVSPost2010Prop39
140
1.0
102
RTVSPost2010PropOp39
 70
     1
102
RTVSPost2010Prop40
 90
        0
102
RTVSPost2010PropOp40
 70
     1
102
RTVSPost2010Prop41ColorIndex
 90
       18
102
RTVSPost2010Prop41ColorRGB
 90
        0
102
RTVSPost2010PropOp41
 70
     1
102
RTVSPost2010Prop42
 90
       50
102
RTVSPost2010PropOp42
 70
     1
102
RTVSPost2010Prop43
 90
        3
102
RTVSPost2010PropOp43
 70
     1
102
RTVSPost2010Prop44ColorIndex
 90
        5
102
RTVSPost2010Prop44ColorRGB
 90
      255
102
RTVSPost2010PropOp44
 70
     1
102
RTVSPost2010Prop45
280
     0
102
RTVSPost2010PropOp45
 70
     1
102
RTVSPost2010Prop46
 90
       50
102
RTVSPost2010PropOp46
 70
     1
102
RTVSPost2010Prop47
 90
       50
102
RTVSPost2010PropOp47
 70
     1
102
RTVSPost2010Prop48
 90
       50
102
RTVSPost2010PropOp48
 70
     1
102
RTVSPost2010Prop49
280
     0
102
RTVSPost2010PropOp49
 70
     1
102
RTVSPost2010Prop50
 90
       50
102
RTVSPost2010PropOp50
 70
     1
102
RTVSPost2010Prop51ColorIndex
 90
      256
102
RTVSPost2010Prop51ColorRGB
 90
-16777216
102
RTVSPost2010PropOp51
 70
     0
102
RTVSPost2010Prop52
140
1.0
102
RTVSPost2010PropOp52
 70
     0
102
RTVSPost2010Prop53
 90
        2
102
RTVSPost2010PropOp53
 70
     1
102
RTVSPost2010Prop54
  1
strokes_ogs.tif
102
RTVSPost2010PropOp54
 70
     1
102
RTVSPost2010Prop55
280
     0
102
RTVSPost2010PropOp55
 70
     1
102
RTVSPost2010Prop56
140
1.0
102
RTVSPost2010PropOp56
 70
     1
102
RTVSPost2010Prop57
140
1.0
102
RTVSPost2010PropOp57
 70
     1
  0
XRECORD
  5
56D
102
{ACAD_REACTORS
330
56C
102
}
330
56C
100
AcDbXrecord
280
     1
102
RTVSPropertyOp0
 70
     1
102
RTVSPropertyOp1
 70
     1
102
RTVSPropertyOp2
 70
     1
102
RTVSPropertyOp3
 70
     1
102
RTVSPropertyOp4
 70
     1
102
RTVSPropertyOp5
 70
     1
102
RTVSPropertyOp6
 70
     1
102
RTVSPropertyOp7
 70
     1
102
RTVSPropertyOp8
 70
     1
102
RTVSPropertyOp9
 70
     1
102
RTVSPropertyOp10
 70
     1
102
RTVSPropertyOp11
 70
     1
102
RTVSPropertyOp12
 70
     1
102
RTVSPropertyOp13
 70
     1
102
RTVSPropertyOp14
 70
     1
102
RTVSPropertyOp15
 70
     1
102
RTVSPropertyOp16
 70
     1
102
RTVSPropertyOp17
 70
     1
102
RTVSPropertyOp18
 70
     1
102
RTVSPropertyOp19
 70
     1
102
RTVSPropertyOp20
 70
     1
102
RTVSPropertyOp21
 70
     1
102
RTVSPropertyOp22
 70
     1
102
RTVSPropertyOp23
 70
     1
102
RTVSPropertyOp24
 70
     1
102
RTVSPropertyOp25
 70
     1
102
RTVSPropertyOp26
 70
     1
102
RTVSPropertyOp27
 70
     1
102
RTVSPropertyOp28
 70
     1
102
RTVSPropertyOp29
 70
     1
102
RTVSPropertyOp30
 70
     1
102
RTVSPropertyOp31
 70
     1
102
RTVSPropertyOp32
 70
     1
102
RTVSPropertyOp33
 70
     1
102
RTVSPropertyOp34
 70
     1
102
RTVSPropertyOp35
 70
     1
102
RTVSPropertyOp36
 70
     1
102
RTVSPropertyOp37
 70
     1
102
RTVSPropertyOp38
 70
     1
102
RTVSPropertyOp39
 70
     1
102
RTVSPropertyOp40
 70
     1
102
RTVSPropertyOp41
 70
     1
102
RTVSPropertyOp42
 70
     1
102
RTVSPropertyOp43
 70
     1
102
RTVSPropertyOp44
 70
     1
102
RTVSPropertyOp45
 70
     1
102
RTVSPropertyOp46
 70
     1
102
RTVSPropertyOp47
 70
     1
102
RTVSPropertyOp48
 70
     1
102
RTVSPropertyOp49
 70
     1
102
RTVSPropertyOp50
 70
     1
102
RTVSPropertyOp51
 70
     0
102
RTVSPropertyOp52
 70
     0
102
RTVSPropertyOp53
 70
     1
102
RTVSPropertyOp54
 70
     1
102
RTVSPropertyOp55
 70
     1
102
RTVSPropertyOp56
 70
     1
102
RTVSPropertyOp57
 70
     1
102
RTVSPost2010Prop28
280
     0
102
RTVSPost2010PropOp28
 70
     1
102
RTVSPost2010Prop29
280
     1
102
RTVSPost2010PropOp29
 70
     1
102
RTVSPost2010Prop30
280
     1
102
RTVSPost2010PropOp30
 70
     1
102
RTVSPost2010Prop31
280
     0
102
RTVSPost2010PropOp31
 70
     1
102
RTVSPost2010Prop32
280
     0
102
RTVSPost2010PropOp32
 70
     1
102
RTVSPost2010Prop33
280
     0
102
RTVSPost2010PropOp33
 70
     1
102
RTVSPost2010Prop34
280
     0
102
RTVSPost2010PropOp34
 70
     1
102
RTVSPost2010Prop35
280
     0
102
RTVSPost2010PropOp35
 70
     1
102
RTVSPost2010Prop36
280
     0
102
RTVSPost2010PropOp36
 70
     1
102
RTVSPost2010Prop37
 90
       50
102
RTVSPost2010PropOp37
 70
     1
102
RTVSPost2010Prop38
140
0.0
102
RTVSPost2010PropOp38
 70
     1
102
RTVSPost2010Prop39
140
1.0
102
RTVSPost2010PropOp39
 70
     1
102
RTVSPost2010Prop40
 90
        0
102
RTVSPost2010PropOp40
 70
     1
102
RTVSPost2010Prop41ColorIndex
 90
       18
102
RTVSPost2010Prop41ColorRGB
 90
        0
102
RTVSPost2010PropOp41
 70
     1
102
RTVSPost2010Prop42
 90
       50
102
RTVSPost2010PropOp42
 70
     1
102
RTVSPost2010Prop43
 90
        3
102
RTVSPost2010PropOp43
 70
     1
102
RTVSPost2010Prop44ColorIndex
 90
        5
102
RTVSPost2010Prop44ColorRGB
 90
      255
102
RTVSPost2010PropOp44
 70
     1
102
RTVSPost2010Prop45
280
     0
102
RTVSPost2010PropOp45
 70
     1
102
RTVSPost2010Prop46
 90
       50
102
RTVSPost2010PropOp46
 70
     1
102
RTVSPost2010Prop47
 90
       50
102
RTVSPost2010PropOp47
 70
     1
102
RTVSPost2010Prop48
 90
       50
102
RTVSPost2010PropOp48
 70
     1
102
RTVSPost2010Prop49
280
     0
102
RTVSPost2010PropOp49
 70
     1
102
RTVSPost2010Prop50
 90
       50
102
RTVSPost2010PropOp50
 70
     1
102
RTVSPost2010Prop51ColorIndex
 90
      256
102
RTVSPost2010Prop51ColorRGB
 90
-16777216
102
RTVSPost2010PropOp51
 70
     0
102
RTVSPost2010Prop52
140
1.0
102
RTVSPost2010PropOp52
 70
     0
102
RTVSPost2010Prop53
 90
        2
102
RTVSPost2010PropOp53
 70
     1
102
RTVSPost2010Prop54
  1
strokes_ogs.tif
102
RTVSPost2010PropOp54
 70
     1
102
RTVSPost2010Prop55
280
     0
102
RTVSPost2010PropOp55
 70
     1
102
RTVSPost2010Prop56
140
1.0
102
RTVSPost2010PropOp56
 70
     1
102
RTVSPost2010Prop57
140
1.0
102
RTVSPost2010PropOp57
 70
     1
  0
XRECORD
  5
575
102
{ACAD_REACTORS
330
574
102
}
330
574
100
AcDbXrecord
280
     1
102
RTVSPropertyOp0
 70
     1
102
RTVSPropertyOp1
 70
     1
102
RTVSPropertyOp2
 70
     1
102
RTVSPropertyOp3
 70
     1
102
RTVSPropertyOp4
 70
     1
102
RTVSPropertyOp5
 70
     1
102
RTVSPropertyOp6
 70
     1
102
RTVSPropertyOp7
 70
     1
102
RTVSPropertyOp8
 70
     1
102
RTVSPropertyOp9
 70
     1
102
RTVSPropertyOp10
 70
     1
102
RTVSPropertyOp11
 70
     1
102
RTVSPropertyOp12
 70
     1
102
RTVSPropertyOp13
 70
     1
102
RTVSPropertyOp14
 70
     1
102
RTVSPropertyOp15
 70
     1
102
RTVSPropertyOp16
 70
     1
102
RTVSPropertyOp17
 70
     1
102
RTVSPropertyOp18
 70
     1
102
RTVSPropertyOp19
 70
     1
102
RTVSPropertyOp20
 70
     1
102
RTVSPropertyOp21
 70
     1
102
RTVSPropertyOp22
 70
     1
102
RTVSPropertyOp23
 70
     1
102
RTVSPropertyOp24
 70
     1
102
RTVSPropertyOp25
 70
     1
102
RTVSPropertyOp26
 70
     1
102
RTVSPropertyOp27
 70
     1
102
RTVSPropertyOp28
 70
     1
102
RTVSPropertyOp29
 70
     1
102
RTVSPropertyOp30
 70
     1
102
RTVSPropertyOp31
 70
     1
102
RTVSPropertyOp32
 70
     1
102
RTVSPropertyOp33
 70
     1
102
RTVSPropertyOp34
 70
     1
102
RTVSPropertyOp35
 70
     1
102
RTVSPropertyOp36
 70
     1
102
RTVSPropertyOp37
 70
     1
102
RTVSPropertyOp38
 70
     1
102
RTVSPropertyOp39
 70
     1
102
RTVSPropertyOp40
 70
     1
102
RTVSPropertyOp41
 70
     1
102
RTVSPropertyOp42
 70
     1
102
RTVSPropertyOp43
 70
     1
102
RTVSPropertyOp44
 70
     1
102
RTVSPropertyOp45
 70
     1
102
RTVSPropertyOp46
 70
     1
102
RTVSPropertyOp47
 70
     1
102
RTVSPropertyOp48
 70
     1
102
RTVSPropertyOp49
 70
     1
102
RTVSPropertyOp50
 70
     1
102
RTVSPropertyOp51
 70
     0
102
RTVSPropertyOp52
 70
     0
102
RTVSPropertyOp53
 70
     1
102
RTVSPropertyOp54
 70
     1
102
RTVSPropertyOp55
 70
     1
102
RTVSPropertyOp56
 70
     1
102
RTVSPropertyOp57
 70
     1
102
RTVSPost2010Prop28
280
     0
102
RTVSPost2010PropOp28
 70
     1
102
RTVSPost2010Prop29
280
     1
102
RTVSPost2010PropOp29
 70
     1
102
RTVSPost2010Prop30
280
     1
102
RTVSPost2010PropOp30
 70
     1
102
RTVSPost2010Prop31
280
     0
102
RTVSPost2010PropOp31
 70
     1
102
RTVSPost2010Prop32
280
     0
102
RTVSPost2010PropOp32
 70
     1
102
RTVSPost2010Prop33
280
     0
102
RTVSPost2010PropOp33
 70
     1
102
RTVSPost2010Prop34
280
     0
102
RTVSPost2010PropOp34
 70
     1
102
RTVSPost2010Prop35
280
     0
102
RTVSPost2010PropOp35
 70
     1
102
RTVSPost2010Prop36
280
     0
102
RTVSPost2010PropOp36
 70
     1
102
RTVSPost2010Prop37
 90
       50
102
RTVSPost2010PropOp37
 70
     1
102
RTVSPost2010Prop38
140
0.0
102
RTVSPost2010PropOp38
 70
     1
102
RTVSPost2010Prop39
140
1.0
102
RTVSPost2010PropOp39
 70
     1
102
RTVSPost2010Prop40
 90
        0
102
RTVSPost2010PropOp40
 70
     1
102
RTVSPost2010Prop41ColorIndex
 90
       18
102
RTVSPost2010Prop41ColorRGB
 90
        0
102
RTVSPost2010PropOp41
 70
     1
102
RTVSPost2010Prop42
 90
       50
102
RTVSPost2010PropOp42
 70
     1
102
RTVSPost2010Prop43
 90
        3
102
RTVSPost2010PropOp43
 70
     1
102
RTVSPost2010Prop44ColorIndex
 90
        5
102
RTVSPost2010Prop44ColorRGB
 90
      255
102
RTVSPost2010PropOp44
 70
     1
102
RTVSPost2010Prop45
280
     0
102
RTVSPost2010PropOp45
 70
     1
102
RTVSPost2010Prop46
 90
       50
102
RTVSPost2010PropOp46
 70
     1
102
RTVSPost2010Prop47
 90
       50
102
RTVSPost2010PropOp47
 70
     1
102
RTVSPost2010Prop48
 90
       50
102
RTVSPost2010PropOp48
 70
     1
102
RTVSPost2010Prop49
280
     0
102
RTVSPost2010PropOp49
 70
     1
102
RTVSPost2010Prop50
 90
       50
102
RTVSPost2010PropOp50
 70
     1
102
RTVSPost2010Prop51ColorIndex
 90
      256
102
RTVSPost2010Prop51ColorRGB
 90
-16777216
102
RTVSPost2010PropOp51
 70
     0
102
RTVSPost2010Prop52
140
1.0
102
RTVSPost2010PropOp52
 70
     0
102
RTVSPost2010Prop53
 90
        2
102
RTVSPost2010PropOp53
 70
     1
102
RTVSPost2010Prop54
  1
strokes_ogs.tif
102
RTVSPost2010PropOp54
 70
     1
102
RTVSPost2010Prop55
280
     0
102
RTVSPost2010PropOp55
 70
     1
102
RTVSPost2010Prop56
140
1.0
102
RTVSPost2010PropOp56
 70
     1
102
RTVSPost2010Prop57
140
1.0
102
RTVSPost2010PropOp57
 70
     1
  0
ENDSEC
  0
EOF
