  0
SECTION
  2
HEADER
  9
$ACADVER
  1
AC1018
  9
$ACADMAINTVER
 70
     0
  9
$DWGCODEPAGE
  3
ANSI_936
  9
$INSBASE
 10
0.0
 20
0.0
 30
0.0
  9
$EXTMIN
 10
0.0
 20
251.0
 30
0.0
  9
$EXTMAX
 10
1142.0
 20
371.0
 30
0.0
  9
$LIMMIN
 10
0.0
 20
0.0
  9
$LIMMAX
 10
12.0
 20
9.0
  9
$ORTHOMODE
 70
     0
  9
$REGENMODE
 70
     1
  9
$FILLMODE
 70
     1
  9
$QTEXTMODE
 70
     0
  9
$MIRRTEXT
 70
     1
  9
$LTSCALE
 40
1.0
  9
$ATTMODE
 70
     1
  9
$TEXTSIZE
 40
0.2
  9
$TRACEWID
 40
0.05
  9
$TEXTSTYLE
  7
Standard
  9
$CLAYER
  8
2D
  9
$CELTYPE
  6
ByLayer
  9
$CECOLOR
 62
   256
  9
$CELTSCALE
 40
1.0
  9
$DISPSILH
 70
     0
  9
$DIMSCALE
 40
1.0
  9
$DIMASZ
 40
0.18
  9
$DIMEXO
 40
0.0625
  9
$DIMDLI
 40
0.38
  9
$DIMRND
 40
0.0
  9
$DIMDLE
 40
0.0
  9
$DIMEXE
 40
0.18
  9
$DIMTP
 40
0.0
  9
$DIMTM
 40
0.0
  9
$DIMTXT
 40
0.18
  9
$DIMCEN
 40
0.09
  9
$DIMTSZ
 40
0.0
  9
$DIMTOL
 70
     0
  9
$DIMLIM
 70
     0
  9
$DIMTIH
 70
     1
  9
$DIMTOH
 70
     1
  9
$DIMSE1
 70
     0
  9
$DIMSE2
 70
     0
  9
$DIMTAD
 70
     0
  9
$DIMZIN
 70
     0
  9
$DIMBLK
  1

  9
$DIMASO
 70
     1
  9
$DIMSHO
 70
     1
  9
$DIMPOST
  1

  9
$DIMAPOST
  1

  9
$DIMALT
 70
     0
  9
$DIMALTD
 70
     2
  9
$DIMALTF
 40
25.4
  9
$DIMLFAC
 40
1.0
  9
$DIMTOFL
 70
     0
  9
$DIMTVP
 40
0.0
  9
$DIMTIX
 70
     0
  9
$DIMSOXD
 70
     0
  9
$DIMSAH
 70
     0
  9
$DIMBLK1
  1

  9
$DIMBLK2
  1

  9
$DIMSTYLE
  2
Standard
  9
$DIMCLRD
 70
     0
  9
$DIMCLRE
 70
     0
  9
$DIMCLRT
 70
     0
  9
$DIMTFAC
 40
1.0
  9
$DIMGAP
 40
0.09
  9
$DIMJUST
 70
     0
  9
$DIMSD1
 70
     0
  9
$DIMSD2
 70
     0
  9
$DIMTOLJ
 70
     1
  9
$DIMTZIN
 70
     0
  9
$DIMALTZ
 70
     0
  9
$DIMALTTZ
 70
     0
  9
$DIMUPT
 70
     0
  9
$DIMDEC
 70
     4
  9
$DIMTDEC
 70
     4
  9
$DIMALTU
 70
     2
  9
$DIMALTTD
 70
     2
  9
$DIMTXSTY
  7
Standard
  9
$DIMAUNIT
 70
     0
  9
$DIMADEC
 70
     0
  9
$DIMALTRND
 40
0.0
  9
$DIMAZIN
 70
     0
  9
$DIMDSEP
 70
    46
  9
$DIMATFIT
 70
     3
  9
$DIMFRAC
 70
     0
  9
$DIMLDRBLK
  1

  9
$DIMLUNIT
 70
     2
  9
$DIMLWD
 70
    -2
  9
$DIMLWE
 70
    -2
  9
$DIMTMOVE
 70
     2
  9
$LUNITS
 70
     2
  9
$LUPREC
 70
     3
  9
$SKETCHINC
 40
0.1
  9
$FILLETRAD
 40
0.5
  9
$AUNITS
 70
     0
  9
$AUPREC
 70
     0
  9
$MENU
  1
.
  9
$ELEVATION
 40
0.0
  9
$PELEVATION
 40
0.0
  9
$THICKNESS
 40
0.0
  9
$LIMCHECK
 70
     0
  9
$CHAMFERA
 40
0.5
  9
$CHAMFERB
 40
0.5
  9
$CHAMFERC
 40
1.0
  9
$CHAMFERD
 40
0.0
  9
$SKPOLY
 70
     0
  9
$TDCREATE
 40
2458131.685381308
  9
$TDUCREATE
 40
2458131.352047975
  9
$TDUPDATE
 40
2458131.685381354
  9
$TDUUPDATE
 40
2458131.352048021
  9
$TDINDWG
 40
0.0000000116
  9
$TDUSRTIMER
 40
0.0000000116
  9
$USRTIMER
 70
     1
  9
$ANGBASE
 50
0.0
  9
$ANGDIR
 70
     0
  9
$PDMODE
 70
     0
  9
$PDSIZE
 40
0.0
  9
$PLINEWID
 40
0.0
  9
$SPLFRAME
 70
     0
  9
$SPLINETYPE
 70
     6
  9
$SPLINESEGS
 70
     8
  9
$HANDSEED
  5
37D
  9
$SURFTAB1
 70
     6
  9
$SURFTAB2
 70
     6
  9
$SURFTYPE
 70
     6
  9
$SURFU
 70
     6
  9
$SURFV
 70
     6
  9
$UCSBASE
  2

  9
$UCSNAME
  2

  9
$UCSORG
 10
0.0
 20
0.0
 30
0.0
  9
$UCSXDIR
 10
1.0
 20
0.0
 30
0.0
  9
$UCSYDIR
 10
0.0
 20
1.0
 30
0.0
  9
$UCSORTHOREF
  2

  9
$UCSORTHOVIEW
 70
     0
  9
$UCSORGTOP
 10
0.0
 20
0.0
 30
0.0
  9
$UCSORGBOTTOM
 10
0.0
 20
0.0
 30
0.0
  9
$UCSORGLEFT
 10
0.0
 20
0.0
 30
0.0
  9
$UCSORGRIGHT
 10
0.0
 20
0.0
 30
0.0
  9
$UCSORGFRONT
 10
0.0
 20
0.0
 30
0.0
  9
$UCSORGBACK
 10
0.0
 20
0.0
 30
0.0
  9
$PUCSBASE
  2

  9
$PUCSNAME
  2

  9
$PUCSORG
 10
0.0
 20
0.0
 30
0.0
  9
$PUCSXDIR
 10
1.0
 20
0.0
 30
0.0
  9
$PUCSYDIR
 10
0.0
 20
1.0
 30
0.0
  9
$PUCSORTHOREF
  2

  9
$PUCSORTHOVIEW
 70
     0
  9
$PUCSORGTOP
 10
0.0
 20
0.0
 30
0.0
  9
$PUCSORGBOTTOM
 10
0.0
 20
0.0
 30
0.0
  9
$PUCSORGLEFT
 10
0.0
 20
0.0
 30
0.0
  9
$PUCSORGRIGHT
 10
0.0
 20
0.0
 30
0.0
  9
$PUCSORGFRONT
 10
0.0
 20
0.0
 30
0.0
  9
$PUCSORGBACK
 10
0.0
 20
0.0
 30
0.0
  9
$USERI1
 70
     0
  9
$USERI2
 70
     0
  9
$USERI3
 70
     0
  9
$USERI4
 70
     0
  9
$USERI5
 70
     0
  9
$USERR1
 40
0.0
  9
$USERR2
 40
0.0
  9
$USERR3
 40
0.0
  9
$USERR4
 40
0.0
  9
$USERR5
 40
0.0
  9
$WORLDVIEW
 70
     1
  9
$SHADEDGE
 70
     3
  9
$SHADEDIF
 70
    70
  9
$TILEMODE
 70
     1
  9
$MAXACTVP
 70
    64
  9
$PINSBASE
 10
0.0
 20
0.0
 30
0.0
  9
$PLIMCHECK
 70
     0
  9
$PEXTMIN
 10
1.000000000000000E+20
 20
1.000000000000000E+20
 30
1.000000000000000E+20
  9
$PEXTMAX
 10
-1.000000000000000E+20
 20
-1.000000000000000E+20
 30
-1.000000000000000E+20
  9
$PLIMMIN
 10
0.0
 20
0.0
  9
$PLIMMAX
 10
12.0
 20
9.0
  9
$UNITMODE
 70
     0
  9
$VISRETAIN
 70
     1
  9
$PLINEGEN
 70
     0
  9
$PSLTSCALE
 70
     1
  9
$TREEDEPTH
 70
  3020
  9
$CMLSTYLE
  2
Standard
  9
$CMLJUST
 70
     0
  9
$CMLSCALE
 40
1.0
  9
$PROXYGRAPHICS
 70
     1
  9
$MEASUREMENT
 70
     0
  9
$CELWEIGHT
370
    -1
  9
$ENDCAPS
280
     0
  9
$JOINSTYLE
280
     0
  9
$LWDISPLAY
290
     0
  9
$INSUNITS
 70
     4
  9
$HYPERLINKBASE
  1

  9
$STYLESHEET
  1

  9
$XEDIT
290
     1
  9
$CEPSNTYPE
380
     0
  9
$PSTYLEMODE
290
     1
  9
$FINGERPRINTGUID
  2
{958EC530-23A8-4917-9565-06C20A818FB3}
  9
$VERSIONGUID
  2
{FAEB1C32-E019-11D5-929B-00C0DF256EC4}
  9
$EXTNAMES
290
     1
  9
$PSVPSCALE
 40
0.0
  9
$OLESTARTUP
290
     0
  9
$SORTENTS
280
   127
  9
$INDEXCTL
280
     0
  9
$HIDETEXT
280
     1
  9
$XCLIPFRAME
290
     0
  9
$HALOGAP
280
     0
  9
$OBSCOLOR
 70
   257
  9
$OBSLTYPE
280
     0
  9
$INTERSECTIONDISPLAY
280
     0
  9
$INTERSECTIONCOLOR
 70
   257
  9
$DIMASSOC
280
     2
  9
$PROJECTNAME
  1

  0
ENDSEC
  0
SECTION
  2
CLASSES
  0
CLASS
  1
ACDBDICTIONARYWDFLT
  2
AcDbDictionaryWithDefault
  3
ObjectDBX Classes
 90
        0
 91
        4
280
     0
281
     0
  0
CLASS
  1
VISUALSTYLE
  2
AcDbVisualStyle
  3
ObjectDBX Classes
 90
     4095
 91
        4
280
     0
281
     0
  0
CLASS
  1
MATERIAL
  2
AcDbMaterial
  3
ObjectDBX Classes
 90
     1153
 91
        4
280
     0
281
     0
  0
CLASS
  1
SCALE
  2
AcDbScale
  3
ObjectDBX Classes
 90
     1153
 91
        4
280
     0
281
     0
  0
CLASS
  1
SUN
  2
AcDbSun
  3
SCENEOE
 90
     1153
 91
        4
280
     0
281
     0
  0
CLASS
  1
DICTIONARYVAR
  2
AcDbDictionaryVar
  3
ObjectDBX Classes
 90
        0
 91
        4
280
     0
281
     0
  0
ENDSEC
  0
SECTION
  2
TABLES
  0
TABLE
  2
VPORT
  5
8
330
0
100
AcDbSymbolTable
 70
     1
  0
VPORT
  5
29
330
8
100
AcDbSymbolTableRecord
100
AcDbViewportTableRecord
  2
*Active
 70
     0
 10
0.0
 20
0.0
 11
1.0
 21
1.0
 12
571.0
 22
311.0
 13
0.0
 23
0.0
 14
0.5
 24
0.5
 15
0.5
 25
0.5
 16
0.0
 26
0.0
 36
1.0
 17
0.0
 27
0.0
 37
0.0
 40
122.4
 41
9.516666666666666
 42
50.0
 43
0.0
 44
0.0
 50
0.0
 51
0.0
 71
     0
 72
   100
 73
     1
 74
     3
 75
     0
 76
     0
 77
     0
 78
     0
281
     0
 65
     1
110
0.0
120
0.0
130
0.0
111
1.0
121
0.0
131
0.0
112
0.0
122
1.0
132
0.0
 79
     0
146
0.0
  0
ENDTAB
  0
TABLE
  2
LTYPE
  5
5
330
0
100
AcDbSymbolTable
 70
     1
  0
LTYPE
  5
14
330
5
100
AcDbSymbolTableRecord
100
AcDbLinetypeTableRecord
  2
ByBlock
 70
     0
  3

 72
    65
 73
     0
 40
0.0
  0
LTYPE
  5
15
330
5
100
AcDbSymbolTableRecord
100
AcDbLinetypeTableRecord
  2
ByLayer
 70
     0
  3

 72
    65
 73
     0
 40
0.0
  0
LTYPE
  5
16
330
5
100
AcDbSymbolTableRecord
100
AcDbLinetypeTableRecord
  2
Continuous
 70
     0
  3
Solid line
 72
    65
 73
     0
 40
0.0
  0
ENDTAB
  0
TABLE
  2
LAYER
  5
2
330
0
100
AcDbSymbolTable
 70
     2
  0
LAYER
  5
10
330
2
100
AcDbSymbolTableRecord
100
AcDbLayerTableRecord
  2
0
 70
     0
 62
     7
  6
Continuous
370
    -3
390
F
  0
LAYER
  5
62
330
2
100
AcDbSymbolTableRecord
100
AcDbLayerTableRecord
  2
2D
 70
     0
 62
    18
420
        0
  6
Continuous
370
    -3
390
F
  0
ENDTAB
  0
TABLE
  2
STYLE
  5
3
330
0
100
AcDbSymbolTable
 70
     1
  0
STYLE
  5
11
330
3
100
AcDbSymbolTableRecord
100
AcDbTextStyleTableRecord
  2
Standard
 70
     0
 40
0.0
 41
1.0
 50
0.0
 71
     0
 42
0.2
  3
txt
  4

  0
ENDTAB
  0
TABLE
  2
VIEW
  5
6
330
0
100
AcDbSymbolTable
 70
     0
  0
ENDTAB
  0
TABLE
  2
UCS
  5
7
330
0
100
AcDbSymbolTable
 70
     0
  0
ENDTAB
  0
TABLE
  2
APPID
  5
9
330
0
100
AcDbSymbolTable
 70
     1
  0
APPID
  5
12
330
9
100
AcDbSymbolTableRecord
100
AcDbRegAppTableRecord
  2
ACAD
 70
     0
  0
ENDTAB
  0
TABLE
  2
DIMSTYLE
  5
A
330
0
100
AcDbSymbolTable
 70
     1
100
AcDbDimStyleTable
  0
DIMSTYLE
105
27
330
A
100
AcDbSymbolTableRecord
100
AcDbDimStyleTableRecord
  2
Standard
 70
     0
178
     0
340
11
  0
ENDTAB
  0
TABLE
  2
BLOCK_RECORD
  5
1
330
0
100
AcDbSymbolTable
 70
     1
  0
BLOCK_RECORD
  5
1F
330
1
100
AcDbSymbolTableRecord
100
AcDbBlockTableRecord
  2
*Model_Space
340
22
  0
BLOCK_RECORD
  5
1B
330
1
100
AcDbSymbolTableRecord
100
AcDbBlockTableRecord
  2
*Paper_Space
340
1E
  0
BLOCK_RECORD
  5
23
330
1
100
AcDbSymbolTableRecord
100
AcDbBlockTableRecord
  2
*Paper_Space0
340
26
  0
ENDTAB
  0
ENDSEC
  0
SECTION
  2
BLOCKS
  0
BLOCK
  5
20
330
1F
100
AcDbEntity
  8
0
100
AcDbBlockBegin
  2
*Model_Space
 70
     0
 10
0.0
 20
0.0
 30
0.0
  3
*Model_Space
  1
*Model_Space
  0
ENDBLK
  5
21
330
1F
100
AcDbEntity
  8
0
100
AcDbBlockEnd
  0
BLOCK
  5
1C
330
1B
100
AcDbEntity
 67
     1
  8
0
100
AcDbBlockBegin
  2
*Paper_Space
 70
     0
 10
0.0
 20
0.0
 30
0.0
  3
*Paper_Space
  1
*Paper_Space
  0
ENDBLK
  5
1D
330
1B
100
AcDbEntity
 67
     1
  8
0
100
AcDbBlockEnd
  0
BLOCK
  5
24
330
23
100
AcDbEntity
  8
0
100
AcDbBlockBegin
  2
*Paper_Space0
 70
     0
 10
0.0
 20
0.0
 30
0.0
  3
*Paper_Space0
  1
*Paper_Space0
  0
ENDBLK
  5
25
330
23
100
AcDbEntity
  8
0
100
AcDbBlockEnd
  0
ENDSEC
  0
SECTION
  2
ENTITIES
  0
LINE
  5
63
330
1F
100
AcDbEntity
  8
2D
100
AcDbLine
 10
910.5
 20
315.6433105468732
 30
0.0
 11
910.5
 21
316.0915664442764
 31
0.0
  0
LINE
  5
64
330
1F
100
AcDbEntity
  8
2D
100
AcDbLine
 10
946.5
 20
315.6433105468732
 30
0.0
 11
946.5
 21
316.0915000171542
 31
0.0
  0
LINE
  5
65
330
1F
100
AcDbEntity
  8
2D
100
AcDbLine
 10
941.0
 20
315.6433105468732
 30
0.0
 11
978.5
 21
315.6433105468732
 31
0.0
  0
LINE
  5
66
330
1F
100
AcDbEntity
  8
2D
100
AcDbLine
 10
878.5
 20
315.6433105468732
 30
0.0
 11
916.0
 21
315.6433105468732
 31
0.0
  0
LINE
  5
67
330
1F
100
AcDbEntity
  8
2D
100
AcDbLine
 10
915.9999999999995
 20
310.6433105468732
 30
0.0
 11
878.5000000000005
 21
310.6433105468732
 31
0.0
  0
LINE
  5
68
330
1F
100
AcDbEntity
  8
2D
100
AcDbLine
 10
978.5
 20
310.6433105468732
 30
0.0
 11
941.0
 21
310.6433105468732
 31
0.0
  0
LINE
  5
69
330
1F
100
AcDbEntity
  8
2D
100
AcDbLine
 10
916.0
 20
313.6433105468732
 30
0.0
 11
878.5
 21
313.6433105468732
 31
0.0
  0
LINE
  5
6A
330
1F
100
AcDbEntity
  8
2D
100
AcDbLine
 10
978.5
 20
313.6433105468732
 30
0.0
 11
941.0
 21
313.6433105468732
 31
0.0
  0
LINE
  5
6B
330
1F
100
AcDbEntity
  8
2D
100
AcDbLine
 10
1063.5
 20
313.6433105468732
 30
0.0
 11
1013.5
 21
313.6433105468732
 31
0.0
  0
POLYLINE
  5
6C
330
1F
100
AcDbEntity
  8
2D
100
AcDb2dPolyline
 66
     1
 10
0.0
 20
0.0
 30
0.0
  0
VERTEX
  5
6D
330
6C
100
AcDbEntity
  8
2D
100
AcDbVertex
100
AcDb2dVertex
 10
843.4999999999986
 20
303.6416582297911
 30
0.0
  0
VERTEX
  5
6E
330
6C
100
AcDbEntity
  8
2D
100
AcDbVertex
100
AcDb2dVertex
 10
805.9847817434643
 20
303.6416582297911
 30
0.0
  0
VERTEX
  5
6F
330
6C
100
AcDbEntity
  8
2D
100
AcDbVertex
100
AcDb2dVertex
 10
805.9823181403999
 20
310.6433105468732
 30
0.0
  0
SEQEND
  5
70
330
6C
100
AcDbEntity
  8
2D
  0
POLYLINE
  5
71
330
1F
100
AcDbEntity
  8
2D
100
AcDb2dPolyline
 66
     1
 10
0.0
 20
0.0
 30
0.0
  0
VERTEX
  5
72
330
71
100
AcDbEntity
  8
2D
100
AcDbVertex
100
AcDb2dVertex
 10
915.9999999999981
 20
317.689946774383
 30
0.0
  0
VERTEX
  5
73
330
71
100
AcDbEntity
  8
2D
100
AcDbVertex
100
AcDb2dVertex
 10
914.9194613897835
 20
317.7291797526815
 30
0.0
  0
VERTEX
  5
74
330
71
100
AcDbEntity
  8
2D
100
AcDbVertex
100
AcDb2dVertex
 10
913.8496444718708
 20
317.7850384776113
 30
0.0
  0
VERTEX
  5
75
330
71
100
AcDbEntity
  8
2D
100
AcDbVertex
100
AcDb2dVertex
 10
913.4156318837177
 20
317.8160712105432
 30
0.0
  0
VERTEX
  5
76
330
71
100
AcDbEntity
  8
2D
100
AcDbVertex
100
AcDb2dVertex
 10
913.0546247936628
 20
317.8487789336349
 30
0.0
  0
VERTEX
  5
77
330
71
100
AcDbEntity
  8
2D
100
AcDbVertex
100
AcDb2dVertex
 10
912.9026743697639
 20
317.8656640067967
 30
0.0
  0
VERTEX
  5
78
330
71
100
AcDbEntity
  8
2D
100
AcDbVertex
100
AcDb2dVertex
 10
912.7702385665356
 20
317.8828488680762
 30
0.0
  0
VERTEX
  5
79
330
71
100
AcDbEntity
  8
2D
100
AcDbVertex
100
AcDb2dVertex
 10
912.6576151118065
 20
317.9002916411746
 30
0.0
  0
VERTEX
  5
7A
330
71
100
AcDbEntity
  8
2D
100
AcDbVertex
100
AcDb2dVertex
 10
912.6088260550757
 20
317.9090966583127
 30
0.0
  0
VERTEX
  5
7B
330
71
100
AcDbEntity
  8
2D
100
AcDbVertex
100
AcDb2dVertex
 10
912.5651017334055
 20
317.9179504497935
 30
0.0
  0
VERTEX
  5
7C
330
71
100
AcDbEntity
  8
2D
100
AcDbVertex
100
AcDb2dVertex
 10
912.5264752545703
 20
317.92684774567
 30
0.0
  0
VERTEX
  5
7D
330
71
100
AcDbEntity
  8
2D
100
AcDbVertex
100
AcDb2dVertex
 10
912.5090791739026
 20
317.9313110188491
 30
0.0
  0
VERTEX
  5
7E
330
71
100
AcDbEntity
  8
2D
100
AcDbVertex
100
AcDb2dVertex
 10
912.4929632935268
 20
317.9357831343562
 30
0.0
  0
VERTEX
  5
7F
330
71
100
AcDbEntity
  8
2D
100
AcDbVertex
100
AcDb2dVertex
 10
912.4781291842875
 20
317.9402634113168
 30
0.0
  0
VERTEX
  5
80
330
71
100
AcDbEntity
  8
2D
100
AcDbVertex
100
AcDb2dVertex
 10
912.4645784170282
 20
317.9447511688564
 30
0.0
  0
VERTEX
  5
81
330
71
100
AcDbEntity
  8
2D
100
AcDbVertex
100
AcDb2dVertex
 10
912.4523125625933
 20
317.9492457261006
 30
0.0
  0
VERTEX
  5
82
330
71
100
AcDbEntity
  8
2D
100
AcDbVertex
100
AcDb2dVertex
 10
912.4466619685738
 20
317.9514953418386
 30
0.0
  0
VERTEX
  5
83
330
71
100
AcDbEntity
  8
2D
100
AcDbVertex
100
AcDb2dVertex
 10
912.441333191827
 20
317.9537464021747
 30
0.0
  0
VERTEX
  5
84
330
71
100
AcDbEntity
  8
2D
100
AcDbVertex
100
AcDb2dVertex
 10
912.4363264287083
 20
317.9559988219998
 30
0.0
  0
VERTEX
  5
85
330
71
100
AcDbEntity
  8
2D
100
AcDbVertex
100
AcDb2dVertex
 10
912.4316418755732
 20
317.9582525162045
 30
0.0
  0
VERTEX
  5
86
330
71
100
AcDbEntity
  8
2D
100
AcDbVertex
100
AcDb2dVertex
 10
912.4272797287772
 20
317.9605073996795
 30
0.0
  0
VERTEX
  5
87
330
71
100
AcDbEntity
  8
2D
100
AcDbVertex
100
AcDb2dVertex
 10
912.4232401846759
 20
317.9627633873155
 30
0.0
  0
VERTEX
  5
88
330
71
100
AcDbEntity
  8
2D
100
AcDbVertex
100
AcDb2dVertex
 10
912.4213414499968
 20
317.9638917685971
 30
0.0
  0
VERTEX
  5
89
330
71
100
AcDbEntity
  8
2D
100
AcDbVertex
100
AcDb2dVertex
 10
912.4195234396248
 20
317.9650203940031
 30
0.0
  0
VERTEX
  5
8A
330
71
100
AcDbEntity
  8
2D
100
AcDbVertex
100
AcDb2dVertex
 10
912.4177861781042
 20
317.9661492528946
 30
0.0
  0
VERTEX
  5
8B
330
71
100
AcDbEntity
  8
2D
100
AcDbVertex
100
AcDb2dVertex
 10
912.4161296899794
 20
317.9672783346331
 30
0.0
  0
VERTEX
  5
8C
330
71
100
AcDbEntity
  8
2D
100
AcDbVertex
100
AcDb2dVertex
 10
912.4145539997949
 20
317.9684076285798
 30
0.0
  0
VERTEX
  5
8D
330
71
100
AcDbEntity
  8
2D
100
AcDbVertex
100
AcDb2dVertex
 10
912.4130591320951
 20
317.9695371240962
 30
0.0
  0
VERTEX
  5
8E
330
71
100
AcDbEntity
  8
2D
100
AcDbVertex
100
AcDb2dVertex
 10
912.4116451114246
 20
317.9706668105434
 30
0.0
  0
VERTEX
  5
8F
330
71
100
AcDbEntity
  8
2D
100
AcDbVertex
100
AcDb2dVertex
 10
912.4103119623277
 20
317.9717966772829
 30
0.0
  0
VERTEX
  5
90
330
71
100
AcDbEntity
  8
2D
100
AcDbVertex
100
AcDb2dVertex
 10
912.4090597093489
 20
317.972926713676
 30
0.0
  0
VERTEX
  5
91
330
71
100
AcDbEntity
  8
2D
100
AcDbVertex
100
AcDb2dVertex
 10
912.4078883770325
 20
317.9740569090841
 30
0.0
  0
VERTEX
  5
92
330
71
100
AcDbEntity
  8
2D
100
AcDbVertex
100
AcDb2dVertex
 10
912.4073330637929
 20
317.9746220630941
 30
0.0
  0
VERTEX
  5
93
330
71
100
AcDbEntity
  8
2D
100
AcDbVertex
100
AcDb2dVertex
 10
912.406797989923
 20
317.9751872528684
 30
0.0
  0
VERTEX
  5
94
330
71
100
AcDbEntity
  8
2D
100
AcDbVertex
100
AcDb2dVertex
 10
912.4062831584911
 20
317.9757524770771
 30
0.0
  0
VERTEX
  5
95
330
71
100
AcDbEntity
  8
2D
100
AcDbVertex
100
AcDb2dVertex
 10
912.4057885725649
 20
317.9763177343904
 30
0.0
  0
VERTEX
  5
96
330
71
100
AcDbEntity
  8
2D
100
AcDbVertex
100
AcDb2dVertex
 10
912.4053142352129
 20
317.9768830234784
 30
0.0
  0
VERTEX
  5
97
330
71
100
AcDbEntity
  8
2D
100
AcDbVertex
100
AcDb2dVertex
 10
912.4048601495027
 20
317.9774483430112
 30
0.0
  0
VERTEX
  5
98
330
71
100
AcDbEntity
  8
2D
100
AcDbVertex
100
AcDb2dVertex
 10
912.4044263185026
 20
317.9780136916593
 30
0.0
  0
VERTEX
  5
99
330
71
100
AcDbEntity
  8
2D
100
AcDbVertex
100
AcDb2dVertex
 10
912.4040127452807
 20
317.9785790680925
 30
0.0
  0
VERTEX
  5
9A
330
71
100
AcDbEntity
  8
2D
100
AcDbVertex
100
AcDb2dVertex
 10
912.4036194329049
 20
317.9791444709811
 30
0.0
  0
VERTEX
  5
9B
330
71
100
AcDbEntity
  8
2D
100
AcDbVertex
100
AcDb2dVertex
 10
912.4032463844434
 20
317.9797098989953
 30
0.0
  0
VERTEX
  5
9C
330
71
100
AcDbEntity
  8
2D
100
AcDbVertex
100
AcDb2dVertex
 10
912.4028936029641
 20
317.9802753508053
 30
0.0
  0
VERTEX
  5
9D
330
71
100
AcDbEntity
  8
2D
100
AcDbVertex
100
AcDb2dVertex
 10
912.4025610915352
 20
317.9808408250811
 30
0.0
  0
VERTEX
  5
9E
330
71
100
AcDbEntity
  8
2D
100
AcDbVertex
100
AcDb2dVertex
 10
912.4022488532246
 20
317.9814063204931
 30
0.0
  0
VERTEX
  5
9F
330
71
100
AcDbEntity
  8
2D
100
AcDbVertex
100
AcDb2dVertex
 10
912.4019568911006
 20
317.9819718357113
 30
0.0
  0
VERTEX
  5
A0
330
71
100
AcDbEntity
  8
2D
100
AcDbVertex
100
AcDb2dVertex
 10
912.401685208231
 20
317.9825373694058
 30
0.0
  0
VERTEX
  5
A1
330
71
100
AcDbEntity
  8
2D
100
AcDbVertex
100
AcDb2dVertex
 10
912.4014338076839
 20
317.983102920247
 30
0.0
  0
VERTEX
  5
A2
330
71
100
AcDbEntity
  8
2D
100
AcDbVertex
100
AcDb2dVertex
 10
912.4012026925275
 20
317.9836684869049
 30
0.0
  0
VERTEX
  5
A3
330
71
100
AcDbEntity
  8
2D
100
AcDbVertex
100
AcDb2dVertex
 10
912.4009918658298
 20
317.9842340680497
 30
0.0
  0
VERTEX
  5
A4
330
71
100
AcDbEntity
  8
2D
100
AcDbVertex
100
AcDb2dVertex
 10
912.4008013306589
 20
317.9847996623516
 30
0.0
  0
VERTEX
  5
A5
330
71
100
AcDbEntity
  8
2D
100
AcDbVertex
100
AcDb2dVertex
 10
912.4006310900826
 20
317.9853652684807
 30
0.0
  0
VERTEX
  5
A6
330
71
100
AcDbEntity
  8
2D
100
AcDbVertex
100
AcDb2dVertex
 10
912.4004811471691
 20
317.9859308851072
 30
0.0
  0
VERTEX
  5
A7
330
71
100
AcDbEntity
  8
2D
100
AcDbVertex
100
AcDb2dVertex
 10
912.4003515049866
 20
317.9864965109014
 30
0.0
  0
VERTEX
  5
A8
330
71
100
AcDbEntity
  8
2D
100
AcDbVertex
100
AcDb2dVertex
 10
912.400242166603
 20
317.9870621445333
 30
0.0
  0
VERTEX
  5
A9
330
71
100
AcDbEntity
  8
2D
100
AcDbVertex
100
AcDb2dVertex
 10
912.4001951122946
 20
317.9873449638728
 30
0.0
  0
VERTEX
  5
AA
330
71
100
AcDbEntity
  8
2D
100
AcDbVertex
100
AcDb2dVertex
 10
912.4001531350864
 20
317.9876277846731
 30
0.0
  0
VERTEX
  5
AB
330
71
100
AcDbEntity
  8
2D
100
AcDbVertex
100
AcDb2dVertex
 10
912.400116235362
 20
317.9879106067679
 30
0.0
  0
VERTEX
  5
AC
330
71
100
AcDbEntity
  8
2D
100
AcDbVertex
100
AcDb2dVertex
 10
912.4000844135048
 20
317.9881934299909
 30
0.0
  0
VERTEX
  5
AD
330
71
100
AcDbEntity
  8
2D
100
AcDbVertex
100
AcDb2dVertex
 10
912.4000576698984
 20
317.9884762541761
 30
0.0
  0
VERTEX
  5
AE
330
71
100
AcDbEntity
  8
2D
100
AcDbVertex
100
AcDb2dVertex
 10
912.4000360049264
 20
317.988759079157
 30
0.0
  0
VERTEX
  5
AF
330
71
100
AcDbEntity
  8
2D
100
AcDbVertex
100
AcDb2dVertex
 10
912.4000194189721
 20
317.9890419047676
 30
0.0
  0
VERTEX
  5
B0
330
71
100
AcDbEntity
  8
2D
100
AcDbVertex
100
AcDb2dVertex
 10
912.4000079124191
 20
317.9893247308415
 30
0.0
  0
VERTEX
  5
B1
330
71
100
AcDbEntity
  8
2D
100
AcDbVertex
100
AcDb2dVertex
 10
912.400001485651
 20
317.9896075572126
 30
0.0
  0
VERTEX
  5
B2
330
71
100
AcDbEntity
  8
2D
100
AcDbVertex
100
AcDb2dVertex
 10
912.400000139051
 20
317.9898903837146
 30
0.0
  0
VERTEX
  5
B3
330
71
100
AcDbEntity
  8
2D
100
AcDbVertex
100
AcDb2dVertex
 10
912.4000116157886
 20
317.9904283862986
 30
0.0
  0
VERTEX
  5
B4
330
71
100
AcDbEntity
  8
2D
100
AcDbVertex
100
AcDb2dVertex
 10
912.4000415639644
 20
317.9909664685625
 30
0.0
  0
VERTEX
  5
B5
330
71
100
AcDbEntity
  8
2D
100
AcDbVertex
100
AcDb2dVertex
 10
912.4000900719477
 20
317.9915047103143
 30
0.0
  0
VERTEX
  5
B6
330
71
100
AcDbEntity
  8
2D
100
AcDbVertex
100
AcDb2dVertex
 10
912.4001572281082
 20
317.9920431913615
 30
0.0
  0
VERTEX
  5
B7
330
71
100
AcDbEntity
  8
2D
100
AcDbVertex
100
AcDb2dVertex
 10
912.4002431208157
 20
317.992581991512
 30
0.0
  0
VERTEX
  5
B8
330
71
100
AcDbEntity
  8
2D
100
AcDbVertex
100
AcDb2dVertex
 10
912.40034783844
 20
317.9931211905735
 30
0.0
  0
VERTEX
  5
B9
330
71
100
AcDbEntity
  8
2D
100
AcDbVertex
100
AcDb2dVertex
 10
912.4004714693504
 20
317.9936608683537
 30
0.0
  0
VERTEX
  5
BA
330
71
100
AcDbEntity
  8
2D
100
AcDbVertex
100
AcDb2dVertex
 10
912.4006141019165
 20
317.9942011046605
 30
0.0
  0
VERTEX
  5
BB
330
71
100
AcDbEntity
  8
2D
100
AcDbVertex
100
AcDb2dVertex
 10
912.4007758245083
 20
317.9947419793016
 30
0.0
  0
VERTEX
  5
BC
330
71
100
AcDbEntity
  8
2D
100
AcDbVertex
100
AcDb2dVertex
 10
912.4009567254952
 20
317.9952835720848
 30
0.0
  0
VERTEX
  5
BD
330
71
100
AcDbEntity
  8
2D
100
AcDbVertex
100
AcDb2dVertex
 10
912.4011568932472
 20
317.9958259628178
 30
0.0
  0
VERTEX
  5
BE
330
71
100
AcDbEntity
  8
2D
100
AcDbVertex
100
AcDb2dVertex
 10
912.4013764161334
 20
317.9963692313083
 30
0.0
  0
VERTEX
  5
BF
330
71
100
AcDbEntity
  8
2D
100
AcDbVertex
100
AcDb2dVertex
 10
912.4016153825239
 20
317.9969134573641
 30
0.0
  0
VERTEX
  5
C0
330
71
100
AcDbEntity
  8
2D
100
AcDbVertex
100
AcDb2dVertex
 10
912.4018738807883
 20
317.9974587207931
 30
0.0
  0
VERTEX
  5
C1
330
71
100
AcDbEntity
  8
2D
100
AcDbVertex
100
AcDb2dVertex
 10
912.4021519992962
 20
317.9980051014029
 30
0.0
  0
VERTEX
  5
C2
330
71
100
AcDbEntity
  8
2D
100
AcDbVertex
100
AcDb2dVertex
 10
912.4024498264171
 20
317.9985526790012
 30
0.0
  0
VERTEX
  5
C3
330
71
100
AcDbEntity
  8
2D
100
AcDbVertex
100
AcDb2dVertex
 10
912.4027674505207
 20
317.999101533396
 30
0.0
  0
VERTEX
  5
C4
330
71
100
AcDbEntity
  8
2D
100
AcDbVertex
100
AcDb2dVertex
 10
912.4031049599768
 20
317.9996517443948
 30
0.0
  0
VERTEX
  5
C5
330
71
100
AcDbEntity
  8
2D
100
AcDbVertex
100
AcDb2dVertex
 10
912.4034624431549
 20
318.0002033918056
 30
0.0
  0
VERTEX
  5
C6
330
71
100
AcDbEntity
  8
2D
100
AcDbVertex
100
AcDb2dVertex
 10
912.4038399884248
 20
318.0007565554359
 30
0.0
  0
VERTEX
  5
C7
330
71
100
AcDbEntity
  8
2D
100
AcDbVertex
100
AcDb2dVertex
 10
912.4042376841562
 20
318.0013113150937
 30
0.0
  0
VERTEX
  5
C8
330
71
100
AcDbEntity
  8
2D
100
AcDbVertex
100
AcDb2dVertex
 10
912.4046556187185
 20
318.0018677505867
 30
0.0
  0
VERTEX
  5
C9
330
71
100
AcDbEntity
  8
2D
100
AcDbVertex
100
AcDb2dVertex
 10
912.4050938804814
 20
318.0024259417224
 30
0.0
  0
VERTEX
  5
CA
330
71
100
AcDbEntity
  8
2D
100
AcDbVertex
100
AcDb2dVertex
 10
912.4055525578148
 20
318.002985968309
 30
0.0
  0
VERTEX
  5
CB
330
71
100
AcDbEntity
  8
2D
100
AcDbVertex
100
AcDb2dVertex
 10
912.406031739088
 20
318.0035479101539
 30
0.0
  0
VERTEX
  5
CC
330
71
100
AcDbEntity
  8
2D
100
AcDbVertex
100
AcDb2dVertex
 10
912.406531512671
 20
318.004111847065
 30
0.0
  0
VERTEX
  5
CD
330
71
100
AcDbEntity
  8
2D
100
AcDbVertex
100
AcDb2dVertex
 10
912.4070519669333
 20
318.0046778588501
 30
0.0
  0
VERTEX
  5
CE
330
71
100
AcDbEntity
  8
2D
100
AcDbVertex
100
AcDb2dVertex
 10
912.4075931902444
 20
318.0052460253168
 30
0.0
  0
VERTEX
  5
CF
330
71
100
AcDbEntity
  8
2D
100
AcDbVertex
100
AcDb2dVertex
 10
912.4087382974922
 20
318.0063891415264
 30
0.0
  0
VERTEX
  5
D0
330
71
100
AcDbEntity
  8
2D
100
AcDbVertex
100
AcDb2dVertex
 10
912.4099675413718
 20
318.007541834156
 30
0.0
  0
VERTEX
  5
D1
330
71
100
AcDbEntity
  8
2D
100
AcDbVertex
100
AcDb2dVertex
 10
912.4109899084935
 20
318.0084096380175
 30
0.0
  0
VERTEX
  5
D2
330
71
100
AcDbEntity
  8
2D
100
AcDbVertex
100
AcDb2dVertex
 10
912.4120570512418
 20
318.0092767037787
 30
0.0
  0
VERTEX
  5
D3
330
71
100
AcDbEntity
  8
2D
100
AcDbVertex
100
AcDb2dVertex
 10
912.4131689705832
 20
318.0101430370686
 30
0.0
  0
VERTEX
  5
D4
330
71
100
AcDbEntity
  8
2D
100
AcDbVertex
100
AcDb2dVertex
 10
912.4143256674839
 20
318.011008643516
 30
0.0
  0
VERTEX
  5
D5
330
71
100
AcDbEntity
  8
2D
100
AcDbVertex
100
AcDb2dVertex
 10
912.4155271429102
 20
318.0118735287496
 30
0.0
  0
VERTEX
  5
D6
330
71
100
AcDbEntity
  8
2D
100
AcDbVertex
100
AcDb2dVertex
 10
912.4167733978281
 20
318.0127376983983
 30
0.0
  0
VERTEX
  5
D7
330
71
100
AcDbEntity
  8
2D
100
AcDbVertex
100
AcDb2dVertex
 10
912.4194002500049
 20
318.014463913456
 30
0.0
  0
VERTEX
  5
D8
330
71
100
AcDbEntity
  8
2D
100
AcDbVertex
100
AcDb2dVertex
 10
912.4222062317442
 20
318.0161873337194
 30
0.0
  0
VERTEX
  5
D9
330
71
100
AcDbEntity
  8
2D
100
AcDbVertex
100
AcDb2dVertex
 10
912.4251913507767
 20
318.017908004219
 30
0.0
  0
VERTEX
  5
DA
330
71
100
AcDbEntity
  8
2D
100
AcDbVertex
100
AcDb2dVertex
 10
912.4283556148325
 20
318.0196259699851
 30
0.0
  0
VERTEX
  5
DB
330
71
100
AcDbEntity
  8
2D
100
AcDbVertex
100
AcDb2dVertex
 10
912.4316990316421
 20
318.0213412760482
 30
0.0
  0
VERTEX
  5
DC
330
71
100
AcDbEntity
  8
2D
100
AcDbVertex
100
AcDb2dVertex
 10
912.4352216089355
 20
318.0230539674387
 30
0.0
  0
VERTEX
  5
DD
330
71
100
AcDbEntity
  8
2D
100
AcDbVertex
100
AcDb2dVertex
 10
912.438923354443
 20
318.024764089187
 30
0.0
  0
VERTEX
  5
DE
330
71
100
AcDbEntity
  8
2D
100
AcDbVertex
100
AcDb2dVertex
 10
912.446864381022
 20
318.0281768038783
 30
0.0
  0
VERTEX
  5
DF
330
71
100
AcDbEntity
  8
2D
100
AcDbVertex
100
AcDb2dVertex
 10
912.4555221732213
 20
318.0315797803654
 30
0.0
  0
VERTEX
  5
E0
330
71
100
AcDbEntity
  8
2D
100
AcDbVertex
100
AcDb2dVertex
 10
912.4648967928831
 20
318.0349733788916
 30
0.0
  0
VERTEX
  5
E1
330
71
100
AcDbEntity
  8
2D
100
AcDbVertex
100
AcDb2dVertex
 10
912.47498830185
 20
318.0383579596999
 30
0.0
  0
VERTEX
  5
E2
330
71
100
AcDbEntity
  8
2D
100
AcDbVertex
100
AcDb2dVertex
 10
912.485796761964
 20
318.0417338830337
 30
0.0
  0
VERTEX
  5
E3
330
71
100
AcDbEntity
  8
2D
100
AcDbVertex
100
AcDb2dVertex
 10
912.5095647830034
 20
318.0484611982503
 30
0.0
  0
VERTEX
  5
E4
330
71
100
AcDbEntity
  8
2D
100
AcDbVertex
100
AcDb2dVertex
 10
912.5362013507397
 20
318.0551582064869
 30
0.0
  0
VERTEX
  5
E5
330
71
100
AcDbEntity
  8
2D
100
AcDbVertex
100
AcDb2dVertex
 10
912.5657069599115
 20
318.061827789689
 30
0.0
  0
VERTEX
  5
E6
330
71
100
AcDbEntity
  8
2D
100
AcDbVertex
100
AcDb2dVertex
 10
912.6095051925979
 20
318.0706808773739
 30
0.0
  0
VERTEX
  5
E7
330
71
100
AcDbEntity
  8
2D
100
AcDbVertex
100
AcDb2dVertex
 10
912.6583676676992
 20
318.0794851048167
 30
0.0
  0
VERTEX
  5
E8
330
71
100
AcDbEntity
  8
2D
100
AcDbVertex
100
AcDb2dVertex
 10
912.771136724233
 20
318.0969260666404
 30
0.0
  0
VERTEX
  5
E9
330
71
100
AcDbEntity
  8
2D
100
AcDbVertex
100
AcDb2dVertex
 10
912.903716887688
 20
318.1141088504882
 30
0.0
  0
VERTEX
  5
EA
330
71
100
AcDbEntity
  8
2D
100
AcDbVertex
100
AcDb2dVertex
 10
913.0558109162388
 20
318.1309916316883
 30
0.0
  0
VERTEX
  5
EB
330
71
100
AcDbEntity
  8
2D
100
AcDbVertex
100
AcDb2dVertex
 10
913.41710038198
 20
318.1636941220799
 30
0.0
  0
VERTEX
  5
EC
330
71
100
AcDbEntity
  8
2D
100
AcDbVertex
100
AcDb2dVertex
 10
913.8513710901179
 20
318.1947201135489
 30
0.0
  0
VERTEX
  5
ED
330
71
100
AcDbEntity
  8
2D
100
AcDbVertex
100
AcDb2dVertex
 10
914.9216358468353
 20
318.2505612901953
 30
0.0
  0
VERTEX
  5
EE
330
71
100
AcDbEntity
  8
2D
100
AcDbVertex
100
AcDb2dVertex
 10
915.9999999999986
 20
318.2897010398287
 30
0.0
  0
SEQEND
  5
EF
330
71
100
AcDbEntity
  8
2D
  0
POLYLINE
  5
F0
330
1F
100
AcDbEntity
  8
2D
100
AcDb2dPolyline
 66
     1
 10
0.0
 20
0.0
 30
0.0
  0
VERTEX
  5
F1
330
F0
100
AcDbEntity
  8
2D
100
AcDbVertex
100
AcDb2dVertex
 10
940.9999999999995
 20
317.6899468630954
 30
0.0
  0
VERTEX
  5
F2
330
F0
100
AcDbEntity
  8
2D
100
AcDbVertex
100
AcDb2dVertex
 10
942.0783641530784
 20
317.729086612727
 30
0.0
  0
VERTEX
  5
F3
330
F0
100
AcDbEntity
  8
2D
100
AcDbVertex
100
AcDb2dVertex
 10
943.1486289098141
 20
317.7849277893736
 30
0.0
  0
VERTEX
  5
F4
330
F0
100
AcDbEntity
  8
2D
100
AcDbVertex
100
AcDb2dVertex
 10
943.5828996179669
 20
317.8159537808425
 30
0.0
  0
VERTEX
  5
F5
330
F0
100
AcDbEntity
  8
2D
100
AcDbVertex
100
AcDb2dVertex
 10
943.9441890837161
 20
317.8486562712342
 30
0.0
  0
VERTEX
  5
F6
330
F0
100
AcDbEntity
  8
2D
100
AcDbVertex
100
AcDb2dVertex
 10
944.0962831122713
 20
317.8655390524343
 30
0.0
  0
VERTEX
  5
F7
330
F0
100
AcDbEntity
  8
2D
100
AcDbVertex
100
AcDb2dVertex
 10
944.2288632757313
 20
317.8827218362821
 30
0.0
  0
VERTEX
  5
F8
330
F0
100
AcDbEntity
  8
2D
100
AcDbVertex
100
AcDb2dVertex
 10
944.3416323322706
 20
317.9001627981058
 30
0.0
  0
VERTEX
  5
F9
330
F0
100
AcDbEntity
  8
2D
100
AcDbVertex
100
AcDb2dVertex
 10
944.3904948073747
 20
317.9089670255487
 30
0.0
  0
VERTEX
  5
FA
330
F0
100
AcDbEntity
  8
2D
100
AcDbVertex
100
AcDb2dVertex
 10
944.4342930400641
 20
317.9178201132336
 30
0.0
  0
VERTEX
  5
FB
330
F0
100
AcDbEntity
  8
2D
100
AcDbVertex
100
AcDb2dVertex
 10
944.4729939616609
 20
317.9267167961739
 30
0.0
  0
VERTEX
  5
FC
330
F0
100
AcDbEntity
  8
2D
100
AcDbVertex
100
AcDb2dVertex
 10
944.4904274496159
 20
317.9311797967346
 30
0.0
  0
VERTEX
  5
FD
330
F0
100
AcDbEntity
  8
2D
100
AcDbVertex
100
AcDb2dVertex
 10
944.5065808496875
 20
317.9356516617725
 30
0.0
  0
VERTEX
  5
FE
330
F0
100
AcDbEntity
  8
2D
100
AcDbVertex
100
AcDb2dVertex
 10
944.5214525823847
 20
317.9401317101001
 30
0.0
  0
VERTEX
  5
FF
330
F0
100
AcDbEntity
  8
2D
100
AcDbVertex
100
AcDb2dVertex
 10
944.5350410682167
 20
317.9446192605299
 30
0.0
  0
VERTEX
  5
100
330
F0
100
AcDbEntity
  8
2D
100
AcDbVertex
100
AcDb2dVertex
 10
944.5473447276925
 20
317.9491136318744
 30
0.0
  0
VERTEX
  5
101
330
F0
100
AcDbEntity
  8
2D
100
AcDbVertex
100
AcDb2dVertex
 10
944.553014253956
 20
317.9513631625186
 30
0.0
  0
VERTEX
  5
102
330
F0
100
AcDbEntity
  8
2D
100
AcDbVertex
100
AcDb2dVertex
 10
944.5583619813212
 20
317.9536141429462
 30
0.0
  0
VERTEX
  5
103
330
F0
100
AcDbEntity
  8
2D
100
AcDbVertex
100
AcDb2dVertex
 10
944.5633877123521
 20
317.9558664880088
 30
0.0
  0
VERTEX
  5
104
330
F0
100
AcDbEntity
  8
2D
100
AcDbVertex
100
AcDb2dVertex
 10
944.568091249612
 20
317.9581201125579
 30
0.0
  0
VERTEX
  5
105
330
F0
100
AcDbEntity
  8
2D
100
AcDbVertex
100
AcDb2dVertex
 10
944.5724723956647
 20
317.960374931445
 30
0.0
  0
VERTEX
  5
106
330
F0
100
AcDbEntity
  8
2D
100
AcDbVertex
100
AcDb2dVertex
 10
944.5765309530739
 20
317.9626308595218
 30
0.0
  0
VERTEX
  5
107
330
F0
100
AcDbEntity
  8
2D
100
AcDbVertex
100
AcDb2dVertex
 10
944.5784391993382
 20
317.9637592128975
 30
0.0
  0
VERTEX
  5
108
330
F0
100
AcDbEntity
  8
2D
100
AcDbVertex
100
AcDb2dVertex
 10
944.5802667244031
 20
317.9648878116399
 30
0.0
  0
VERTEX
  5
109
330
F0
100
AcDbEntity
  8
2D
100
AcDbVertex
100
AcDb2dVertex
 10
944.5820135035889
 20
317.9660166451055
 30
0.0
  0
VERTEX
  5
10A
330
F0
100
AcDbEntity
  8
2D
100
AcDbVertex
100
AcDb2dVertex
 10
944.583679512216
 20
317.9671457026508
 30
0.0
  0
VERTEX
  5
10B
330
F0
100
AcDbEntity
  8
2D
100
AcDbVertex
100
AcDb2dVertex
 10
944.5852647256049
 20
317.9682749736321
 30
0.0
  0
VERTEX
  5
10C
330
F0
100
AcDbEntity
  8
2D
100
AcDbVertex
100
AcDb2dVertex
 10
944.5867691190762
 20
317.969404447406
 30
0.0
  0
VERTEX
  5
10D
330
F0
100
AcDbEntity
  8
2D
100
AcDbVertex
100
AcDb2dVertex
 10
944.5881926679501
 20
317.9705341133289
 30
0.0
  0
VERTEX
  5
10E
330
F0
100
AcDbEntity
  8
2D
100
AcDbVertex
100
AcDb2dVertex
 10
944.5895353475472
 20
317.9716639607572
 30
0.0
  0
VERTEX
  5
10F
330
F0
100
AcDbEntity
  8
2D
100
AcDbVertex
100
AcDb2dVertex
 10
944.590797133188
 20
317.9727939790474
 30
0.0
  0
VERTEX
  5
110
330
F0
100
AcDbEntity
  8
2D
100
AcDbVertex
100
AcDb2dVertex
 10
944.5919780001929
 20
317.9739241575559
 30
0.0
  0
VERTEX
  5
111
330
F0
100
AcDbEntity
  8
2D
100
AcDbVertex
100
AcDb2dVertex
 10
944.5925380814945
 20
317.9744893035659
 30
0.0
  0
VERTEX
  5
112
330
F0
100
AcDbEntity
  8
2D
100
AcDbVertex
100
AcDb2dVertex
 10
944.5930779238824
 20
317.9750544856391
 30
0.0
  0
VERTEX
  5
113
330
F0
100
AcDbEntity
  8
2D
100
AcDbVertex
100
AcDb2dVertex
 10
944.5935975242716
 20
317.9756197024451
 30
0.0
  0
VERTEX
  5
114
330
F0
100
AcDbEntity
  8
2D
100
AcDbVertex
100
AcDb2dVertex
 10
944.5940968795769
 20
317.9761849526535
 30
0.0
  0
VERTEX
  5
115
330
F0
100
AcDbEntity
  8
2D
100
AcDbVertex
100
AcDb2dVertex
 10
944.5945759867136
 20
317.9767502349338
 30
0.0
  0
VERTEX
  5
116
330
F0
100
AcDbEntity
  8
2D
100
AcDbVertex
100
AcDb2dVertex
 10
944.5950348425969
 20
317.9773155479556
 30
0.0
  0
VERTEX
  5
117
330
F0
100
AcDbEntity
  8
2D
100
AcDbVertex
100
AcDb2dVertex
 10
944.5954734441416
 20
317.9778808903885
 30
0.0
  0
VERTEX
  5
118
330
F0
100
AcDbEntity
  8
2D
100
AcDbVertex
100
AcDb2dVertex
 10
944.5958917882627
 20
317.9784462609019
 30
0.0
  0
VERTEX
  5
119
330
F0
100
AcDbEntity
  8
2D
100
AcDbVertex
100
AcDb2dVertex
 10
944.5962898718756
 20
317.9790116581654
 30
0.0
  0
VERTEX
  5
11A
330
F0
100
AcDbEntity
  8
2D
100
AcDbVertex
100
AcDb2dVertex
 10
944.5966676918949
 20
317.9795770808487
 30
0.0
  0
VERTEX
  5
11B
330
F0
100
AcDbEntity
  8
2D
100
AcDbVertex
100
AcDb2dVertex
 10
944.5970252452362
 20
317.9801425276212
 30
0.0
  0
VERTEX
  5
11C
330
F0
100
AcDbEntity
  8
2D
100
AcDbVertex
100
AcDb2dVertex
 10
944.5973625288141
 20
317.9807079971524
 30
0.0
  0
VERTEX
  5
11D
330
F0
100
AcDbEntity
  8
2D
100
AcDbVertex
100
AcDb2dVertex
 10
944.5976795395438
 20
317.981273488112
 30
0.0
  0
VERTEX
  5
11E
330
F0
100
AcDbEntity
  8
2D
100
AcDbVertex
100
AcDb2dVertex
 10
944.5979762743405
 20
317.9818389991697
 30
0.0
  0
VERTEX
  5
11F
330
F0
100
AcDbEntity
  8
2D
100
AcDbVertex
100
AcDb2dVertex
 10
944.5982527301189
 20
317.9824045289947
 30
0.0
  0
VERTEX
  5
120
330
F0
100
AcDbEntity
  8
2D
100
AcDbVertex
100
AcDb2dVertex
 10
944.5985089037945
 20
317.9829700762567
 30
0.0
  0
VERTEX
  5
121
330
F0
100
AcDbEntity
  8
2D
100
AcDbVertex
100
AcDb2dVertex
 10
944.5987447922821
 20
317.9835356396254
 30
0.0
  0
VERTEX
  5
122
330
F0
100
AcDbEntity
  8
2D
100
AcDbVertex
100
AcDb2dVertex
 10
944.5989603924968
 20
317.9841012177702
 30
0.0
  0
VERTEX
  5
123
330
F0
100
AcDbEntity
  8
2D
100
AcDbVertex
100
AcDb2dVertex
 10
944.5991557013535
 20
317.9846668093608
 30
0.0
  0
VERTEX
  5
124
330
F0
100
AcDbEntity
  8
2D
100
AcDbVertex
100
AcDb2dVertex
 10
944.5993307157677
 20
317.9852324130664
 30
0.0
  0
VERTEX
  5
125
330
F0
100
AcDbEntity
  8
2D
100
AcDbVertex
100
AcDb2dVertex
 10
944.599485432654
 20
317.9857980275569
 30
0.0
  0
VERTEX
  5
126
330
F0
100
AcDbEntity
  8
2D
100
AcDbVertex
100
AcDb2dVertex
 10
944.5996198489277
 20
317.9863636515018
 30
0.0
  0
VERTEX
  5
127
330
F0
100
AcDbEntity
  8
2D
100
AcDbVertex
100
AcDb2dVertex
 10
944.5997339615037
 20
317.9869292835706
 30
0.0
  0
VERTEX
  5
128
330
F0
100
AcDbEntity
  8
2D
100
AcDbVertex
100
AcDb2dVertex
 10
944.5997834029411
 20
317.9872121022357
 30
0.0
  0
VERTEX
  5
129
330
F0
100
AcDbEntity
  8
2D
100
AcDbVertex
100
AcDb2dVertex
 10
944.5998277672973
 20
317.9874949224329
 30
0.0
  0
VERTEX
  5
12A
330
F0
100
AcDbEntity
  8
2D
100
AcDbVertex
100
AcDb2dVertex
 10
944.5998670541865
 20
317.9877777439959
 30
0.0
  0
VERTEX
  5
12B
330
F0
100
AcDbEntity
  8
2D
100
AcDbVertex
100
AcDb2dVertex
 10
944.5999012632233
 20
317.9880605667583
 30
0.0
  0
VERTEX
  5
12C
330
F0
100
AcDbEntity
  8
2D
100
AcDbVertex
100
AcDb2dVertex
 10
944.5999303940218
 20
317.9883433905538
 30
0.0
  0
VERTEX
  5
12D
330
F0
100
AcDbEntity
  8
2D
100
AcDbVertex
100
AcDb2dVertex
 10
944.5999544461969
 20
317.9886262152162
 30
0.0
  0
VERTEX
  5
12E
330
F0
100
AcDbEntity
  8
2D
100
AcDbVertex
100
AcDb2dVertex
 10
944.5999734193624
 20
317.9889090405791
 30
0.0
  0
VERTEX
  5
12F
330
F0
100
AcDbEntity
  8
2D
100
AcDbVertex
100
AcDb2dVertex
 10
944.5999873131332
 20
317.9891918664762
 30
0.0
  0
VERTEX
  5
130
330
F0
100
AcDbEntity
  8
2D
100
AcDbVertex
100
AcDb2dVertex
 10
944.5999961271232
 20
317.9894746927413
 30
0.0
  0
VERTEX
  5
131
330
F0
100
AcDbEntity
  8
2D
100
AcDbVertex
100
AcDb2dVertex
 10
944.599999860947
 20
317.989757519208
 30
0.0
  0
VERTEX
  5
132
330
F0
100
AcDbEntity
  8
2D
100
AcDbVertex
100
AcDb2dVertex
 10
944.5999929074947
 20
317.9902961255506
 30
0.0
  0
VERTEX
  5
133
330
F0
100
AcDbEntity
  8
2D
100
AcDbVertex
100
AcDb2dVertex
 10
944.5999674439099
 20
317.9908348100596
 30
0.0
  0
VERTEX
  5
134
330
F0
100
AcDbEntity
  8
2D
100
AcDbVertex
100
AcDb2dVertex
 10
944.5999233844243
 20
317.9913736507733
 30
0.0
  0
VERTEX
  5
135
330
F0
100
AcDbEntity
  8
2D
100
AcDbVertex
100
AcDb2dVertex
 10
944.5998606432693
 20
317.99191272573
 30
0.0
  0
VERTEX
  5
136
330
F0
100
AcDbEntity
  8
2D
100
AcDbVertex
100
AcDb2dVertex
 10
944.5997791346762
 20
317.9924521129682
 30
0.0
  0
VERTEX
  5
137
330
F0
100
AcDbEntity
  8
2D
100
AcDbVertex
100
AcDb2dVertex
 10
944.5996787728765
 20
317.992991890526
 30
0.0
  0
VERTEX
  5
138
330
F0
100
AcDbEntity
  8
2D
100
AcDbVertex
100
AcDb2dVertex
 10
944.5995594721015
 20
317.993532136442
 30
0.0
  0
VERTEX
  5
139
330
F0
100
AcDbEntity
  8
2D
100
AcDbVertex
100
AcDb2dVertex
 10
944.5994211465829
 20
317.9940729287543
 30
0.0
  0
VERTEX
  5
13A
330
F0
100
AcDbEntity
  8
2D
100
AcDbVertex
100
AcDb2dVertex
 10
944.5992637105519
 20
317.9946143455014
 30
0.0
  0
VERTEX
  5
13B
330
F0
100
AcDbEntity
  8
2D
100
AcDbVertex
100
AcDb2dVertex
 10
944.59908707824
 20
317.9951564647216
 30
0.0
  0
VERTEX
  5
13C
330
F0
100
AcDbEntity
  8
2D
100
AcDbVertex
100
AcDb2dVertex
 10
944.5988911638785
 20
317.9956993644532
 30
0.0
  0
VERTEX
  5
13D
330
F0
100
AcDbEntity
  8
2D
100
AcDbVertex
100
AcDb2dVertex
 10
944.598675881699
 20
317.9962431227346
 30
0.0
  0
VERTEX
  5
13E
330
F0
100
AcDbEntity
  8
2D
100
AcDbVertex
100
AcDb2dVertex
 10
944.5984411459328
 20
317.9967878176041
 30
0.0
  0
VERTEX
  5
13F
330
F0
100
AcDbEntity
  8
2D
100
AcDbVertex
100
AcDb2dVertex
 10
944.5981868708112
 20
317.9973335270999
 30
0.0
  0
VERTEX
  5
140
330
F0
100
AcDbEntity
  8
2D
100
AcDbVertex
100
AcDb2dVertex
 10
944.5979129705659
 20
317.9978803292605
 30
0.0
  0
VERTEX
  5
141
330
F0
100
AcDbEntity
  8
2D
100
AcDbVertex
100
AcDb2dVertex
 10
944.597619359428
 20
317.9984283021242
 30
0.0
  0
VERTEX
  5
142
330
F0
100
AcDbEntity
  8
2D
100
AcDbVertex
100
AcDb2dVertex
 10
944.5973059516291
 20
317.9989775237294
 30
0.0
  0
VERTEX
  5
143
330
F0
100
AcDbEntity
  8
2D
100
AcDbVertex
100
AcDb2dVertex
 10
944.5969726614007
 20
317.9995280721142
 30
0.0
  0
VERTEX
  5
144
330
F0
100
AcDbEntity
  8
2D
100
AcDbVertex
100
AcDb2dVertex
 10
944.596619402974
 20
318.0000800253173
 30
0.0
  0
VERTEX
  5
145
330
F0
100
AcDbEntity
  8
2D
100
AcDbVertex
100
AcDb2dVertex
 10
944.5962460905807
 20
318.0006334613767
 30
0.0
  0
VERTEX
  5
146
330
F0
100
AcDbEntity
  8
2D
100
AcDbVertex
100
AcDb2dVertex
 10
944.595852638452
 20
318.0011884583309
 30
0.0
  0
VERTEX
  5
147
330
F0
100
AcDbEntity
  8
2D
100
AcDbVertex
100
AcDb2dVertex
 10
944.5954389608194
 20
318.0017450942182
 30
0.0
  0
VERTEX
  5
148
330
F0
100
AcDbEntity
  8
2D
100
AcDbVertex
100
AcDb2dVertex
 10
944.5950049719141
 20
318.002303447077
 30
0.0
  0
VERTEX
  5
149
330
F0
100
AcDbEntity
  8
2D
100
AcDbVertex
100
AcDb2dVertex
 10
944.5945505859678
 20
318.0028635949454
 30
0.0
  0
VERTEX
  5
14A
330
F0
100
AcDbEntity
  8
2D
100
AcDbVertex
100
AcDb2dVertex
 10
944.5940757172119
 20
318.0034256158621
 30
0.0
  0
VERTEX
  5
14B
330
F0
100
AcDbEntity
  8
2D
100
AcDbVertex
100
AcDb2dVertex
 10
944.5935802798776
 20
318.0039895878651
 30
0.0
  0
VERTEX
  5
14C
330
F0
100
AcDbEntity
  8
2D
100
AcDbVertex
100
AcDb2dVertex
 10
944.5930641881966
 20
318.004555588993
 30
0.0
  0
VERTEX
  5
14D
330
F0
100
AcDbEntity
  8
2D
100
AcDbVertex
100
AcDb2dVertex
 10
944.5925273564001
 20
318.0051236972839
 30
0.0
  0
VERTEX
  5
14E
330
F0
100
AcDbEntity
  8
2D
100
AcDbVertex
100
AcDb2dVertex
 10
944.5913911293866
 20
318.0062665475085
 30
0.0
  0
VERTEX
  5
14F
330
F0
100
AcDbEntity
  8
2D
100
AcDbVertex
100
AcDb2dVertex
 10
944.5901709126883
 20
318.0074187628456
 30
0.0
  0
VERTEX
  5
150
330
F0
100
AcDbEntity
  8
2D
100
AcDbVertex
100
AcDb2dVertex
 10
944.5891563505947
 20
318.0082861359851
 30
0.0
  0
VERTEX
  5
151
330
F0
100
AcDbEntity
  8
2D
100
AcDbVertex
100
AcDb2dVertex
 10
944.5880969910737
 20
318.0091527856141
 30
0.0
  0
VERTEX
  5
152
330
F0
100
AcDbEntity
  8
2D
100
AcDbVertex
100
AcDb2dVertex
 10
944.5869928334278
 20
318.0100187171427
 30
0.0
  0
VERTEX
  5
153
330
F0
100
AcDbEntity
  8
2D
100
AcDbVertex
100
AcDb2dVertex
 10
944.5858438769596
 20
318.010883935981
 30
0.0
  0
VERTEX
  5
154
330
F0
100
AcDbEntity
  8
2D
100
AcDbVertex
100
AcDb2dVertex
 10
944.5846501209717
 20
318.0117484475392
 30
0.0
  0
VERTEX
  5
155
330
F0
100
AcDbEntity
  8
2D
100
AcDbVertex
100
AcDb2dVertex
 10
944.5834115647665
 20
318.0126122572273
 30
0.0
  0
VERTEX
  5
156
330
F0
100
AcDbEntity
  8
2D
100
AcDbVertex
100
AcDb2dVertex
 10
944.5808000489149
 20
318.0143377926336
 30
0.0
  0
VERTEX
  5
157
330
F0
100
AcDbEntity
  8
2D
100
AcDbVertex
100
AcDb2dVertex
 10
944.578009323825
 20
318.016060585481
 30
0.0
  0
VERTEX
  5
158
330
F0
100
AcDbEntity
  8
2D
100
AcDbVertex
100
AcDb2dVertex
 10
944.5750393839174
 20
318.01778067905
 30
0.0
  0
VERTEX
  5
159
330
F0
100
AcDbEntity
  8
2D
100
AcDbVertex
100
AcDb2dVertex
 10
944.5718902236126
 20
318.0194981166217
 30
0.0
  0
VERTEX
  5
15A
330
F0
100
AcDbEntity
  8
2D
100
AcDbVertex
100
AcDb2dVertex
 10
944.5685618373309
 20
318.0212129414767
 30
0.0
  0
VERTEX
  5
15B
330
F0
100
AcDbEntity
  8
2D
100
AcDbVertex
100
AcDb2dVertex
 10
944.5650542194928
 20
318.022925196896
 30
0.0
  0
VERTEX
  5
15C
330
F0
100
AcDbEntity
  8
2D
100
AcDbVertex
100
AcDb2dVertex
 10
944.5613673645184
 20
318.0246349261603
 30
0.0
  0
VERTEX
  5
15D
330
F0
100
AcDbEntity
  8
2D
100
AcDbVertex
100
AcDb2dVertex
 10
944.5534559208437
 20
318.0280469793472
 30
0.0
  0
VERTEX
  5
15E
330
F0
100
AcDbEntity
  8
2D
100
AcDbVertex
100
AcDb2dVertex
 10
944.5448274616699
 20
318.0314494472838
 30
0.0
  0
VERTEX
  5
15F
330
F0
100
AcDbEntity
  8
2D
100
AcDbVertex
100
AcDb2dVertex
 10
944.5354819423607
 20
318.0348426762168
 30
0.0
  0
VERTEX
  5
160
330
F0
100
AcDbEntity
  8
2D
100
AcDbVertex
100
AcDb2dVertex
 10
944.5254193182791
 20
318.0382270123927
 30
0.0
  0
VERTEX
  5
161
330
F0
100
AcDbEntity
  8
2D
100
AcDbVertex
100
AcDb2dVertex
 10
944.514639544789
 20
318.0416028020578
 30
0.0
  0
VERTEX
  5
162
330
F0
100
AcDbEntity
  8
2D
100
AcDbVertex
100
AcDb2dVertex
 10
944.490928371036
 20
318.0483301268422
 30
0.0
  0
VERTEX
  5
163
330
F0
100
AcDbEntity
  8
2D
100
AcDbVertex
100
AcDb2dVertex
 10
944.4643480640088
 20
318.0550274205418
 30
0.0
  0
VERTEX
  5
164
330
F0
100
AcDbEntity
  8
2D
100
AcDbVertex
100
AcDb2dVertex
 10
944.4348982666149
 20
318.061697453129
 30
0.0
  0
VERTEX
  5
165
330
F0
100
AcDbEntity
  8
2D
100
AcDbVertex
100
AcDb2dVertex
 10
944.3911739449475
 20
318.0705512446098
 30
0.0
  0
VERTEX
  5
166
330
F0
100
AcDbEntity
  8
2D
100
AcDbVertex
100
AcDb2dVertex
 10
944.3423848882194
 20
318.0793562617479
 30
0.0
  0
VERTEX
  5
167
330
F0
100
AcDbEntity
  8
2D
100
AcDbVertex
100
AcDb2dVertex
 10
944.2297614334954
 20
318.0967990348464
 30
0.0
  0
VERTEX
  5
168
330
F0
100
AcDbEntity
  8
2D
100
AcDbVertex
100
AcDb2dVertex
 10
944.0973256302714
 20
318.1139838961258
 30
0.0
  0
VERTEX
  5
169
330
F0
100
AcDbEntity
  8
2D
100
AcDbVertex
100
AcDb2dVertex
 10
943.945375206376
 20
318.1308689692876
 30
0.0
  0
VERTEX
  5
16A
330
F0
100
AcDbEntity
  8
2D
100
AcDbVertex
100
AcDb2dVertex
 10
943.5843681163257
 20
318.1635766923794
 30
0.0
  0
VERTEX
  5
16B
330
F0
100
AcDbEntity
  8
2D
100
AcDbVertex
100
AcDb2dVertex
 10
943.150355528184
 20
318.1946094253112
 30
0.0
  0
VERTEX
  5
16C
330
F0
100
AcDbEntity
  8
2D
100
AcDbVertex
100
AcDb2dVertex
 10
942.0805386102904
 20
318.2504681502409
 30
0.0
  0
VERTEX
  5
16D
330
F0
100
AcDbEntity
  8
2D
100
AcDbVertex
100
AcDb2dVertex
 10
940.9999999999995
 20
318.2897011285413
 30
0.0
  0
SEQEND
  5
16E
330
F0
100
AcDbEntity
  8
2D
  0
POLYLINE
  5
16F
330
1F
100
AcDbEntity
  8
2D
100
AcDb2dPolyline
 66
     1
 10
0.0
 20
0.0
 30
0.0
  0
VERTEX
  5
170
330
16F
100
AcDbEntity
  8
2D
100
AcDbVertex
100
AcDb2dVertex
 10
916.0000000000018
 20
315.7674683011835
 30
0.0
  0
VERTEX
  5
171
330
16F
100
AcDbEntity
  8
2D
100
AcDbVertex
100
AcDb2dVertex
 10
913.6493320416148
 20
315.8283041306886
 30
0.0
  0
VERTEX
  5
172
330
16F
100
AcDbEntity
  8
2D
100
AcDbVertex
100
AcDb2dVertex
 10
912.7693499757986
 20
315.8627575565232
 30
0.0
  0
VERTEX
  5
173
330
16F
100
AcDbEntity
  8
2D
100
AcDbVertex
100
AcDb2dVertex
 10
911.8898431846584
 20
315.9083904789358
 30
0.0
  0
VERTEX
  5
174
330
16F
100
AcDbEntity
  8
2D
100
AcDbVertex
100
AcDb2dVertex
 10
911.3513116809893
 20
315.945735585992
 30
0.0
  0
VERTEX
  5
175
330
16F
100
AcDbEntity
  8
2D
100
AcDbVertex
100
AcDb2dVertex
 10
911.082620198215
 20
315.9708058110033
 30
0.0
  0
VERTEX
  5
176
330
16F
100
AcDbEntity
  8
2D
100
AcDbVertex
100
AcDb2dVertex
 10
910.8145707830345
 20
316.0024106584879
 30
0.0
  0
VERTEX
  5
177
330
16F
100
AcDbEntity
  8
2D
100
AcDbVertex
100
AcDb2dVertex
 10
910.7505237488456
 20
316.0113193944183
 30
0.0
  0
VERTEX
  5
178
330
16F
100
AcDbEntity
  8
2D
100
AcDbVertex
100
AcDb2dVertex
 10
910.6867610944887
 20
316.021804888629
 30
0.0
  0
VERTEX
  5
179
330
16F
100
AcDbEntity
  8
2D
100
AcDbVertex
100
AcDb2dVertex
 10
910.6550602820687
 20
316.0279839895658
 30
0.0
  0
VERTEX
  5
17A
330
16F
100
AcDbEntity
  8
2D
100
AcDbVertex
100
AcDb2dVertex
 10
910.6235192113925
 20
316.0349713634442
 30
0.0
  0
VERTEX
  5
17B
330
16F
100
AcDbEntity
  8
2D
100
AcDbVertex
100
AcDb2dVertex
 10
910.5921674313886
 20
316.0429050380549
 30
0.0
  0
VERTEX
  5
17C
330
16F
100
AcDbEntity
  8
2D
100
AcDbVertex
100
AcDb2dVertex
 10
910.5765717594288
 20
316.0472698718193
 30
0.0
  0
VERTEX
  5
17D
330
16F
100
AcDbEntity
  8
2D
100
AcDbVertex
100
AcDb2dVertex
 10
910.5539626374259
 20
316.0541614990415
 30
0.0
  0
VERTEX
  5
17E
330
16F
100
AcDbEntity
  8
2D
100
AcDbVertex
100
AcDb2dVertex
 10
910.5469449075633
 20
316.0565356979283
 30
0.0
  0
VERTEX
  5
17F
330
16F
100
AcDbEntity
  8
2D
100
AcDbVertex
100
AcDb2dVertex
 10
910.5434692015187
 20
316.0577961830051
 30
0.0
  0
VERTEX
  5
180
330
16F
100
AcDbEntity
  8
2D
100
AcDbVertex
100
AcDb2dVertex
 10
910.5400224613986
 20
316.0591175826349
 30
0.0
  0
VERTEX
  5
181
330
16F
100
AcDbEntity
  8
2D
100
AcDbVertex
100
AcDb2dVertex
 10
910.5366098322031
 20
316.0605088899163
 30
0.0
  0
VERTEX
  5
182
330
16F
100
AcDbEntity
  8
2D
100
AcDbVertex
100
AcDb2dVertex
 10
910.5332364589325
 20
316.0619790979475
 30
0.0
  0
VERTEX
  5
183
330
16F
100
AcDbEntity
  8
2D
100
AcDbVertex
100
AcDb2dVertex
 10
910.5299074865866
 20
316.0635371998266
 30
0.0
  0
VERTEX
  5
184
330
16F
100
AcDbEntity
  8
2D
100
AcDbVertex
100
AcDb2dVertex
 10
910.5266280601654
 20
316.0651921886519
 30
0.0
  0
VERTEX
  5
185
330
16F
100
AcDbEntity
  8
2D
100
AcDbVertex
100
AcDb2dVertex
 10
910.5234033246693
 20
316.0669530575217
 30
0.0
  0
VERTEX
  5
186
330
16F
100
AcDbEntity
  8
2D
100
AcDbVertex
100
AcDb2dVertex
 10
910.5218130738306
 20
316.0678760073165
 30
0.0
  0
VERTEX
  5
187
330
16F
100
AcDbEntity
  8
2D
100
AcDbVertex
100
AcDb2dVertex
 10
910.5202384250983
 20
316.0688287995343
 30
0.0
  0
VERTEX
  5
188
330
16F
100
AcDbEntity
  8
2D
100
AcDbVertex
100
AcDb2dVertex
 10
910.5186800215972
 20
316.0698125583124
 30
0.0
  0
VERTEX
  5
189
330
16F
100
AcDbEntity
  8
2D
100
AcDbVertex
100
AcDb2dVertex
 10
910.5171385064524
 20
316.070828407788
 30
0.0
  0
VERTEX
  5
18A
330
16F
100
AcDbEntity
  8
2D
100
AcDbVertex
100
AcDb2dVertex
 10
910.5156145227888
 20
316.0718774720984
 30
0.0
  0
VERTEX
  5
18B
330
16F
100
AcDbEntity
  8
2D
100
AcDbVertex
100
AcDb2dVertex
 10
910.5141087137317
 20
316.0729608753809
 30
0.0
  0
VERTEX
  5
18C
330
16F
100
AcDbEntity
  8
2D
100
AcDbVertex
100
AcDb2dVertex
 10
910.5126217224059
 20
316.0740797417728
 30
0.0
  0
VERTEX
  5
18D
330
16F
100
AcDbEntity
  8
2D
100
AcDbVertex
100
AcDb2dVertex
 10
910.5111541919364
 20
316.0752351954113
 30
0.0
  0
VERTEX
  5
18E
330
16F
100
AcDbEntity
  8
2D
100
AcDbVertex
100
AcDb2dVertex
 10
910.5097067654481
 20
316.0764283604339
 30
0.0
  0
VERTEX
  5
18F
330
16F
100
AcDbEntity
  8
2D
100
AcDbVertex
100
AcDb2dVertex
 10
910.5082800860664
 20
316.0776603609776
 30
0.0
  0
VERTEX
  5
190
330
16F
100
AcDbEntity
  8
2D
100
AcDbVertex
100
AcDb2dVertex
 10
910.5066680022512
 20
316.0791321149258
 30
0.0
  0
VERTEX
  5
191
330
16F
100
AcDbEntity
  8
2D
100
AcDbVertex
100
AcDb2dVertex
 10
910.5058865833514
 20
316.0798897280643
 30
0.0
  0
VERTEX
  5
192
330
16F
100
AcDbEntity
  8
2D
100
AcDbVertex
100
AcDb2dVertex
 10
910.5051290177911
 20
316.0806627869831
 30
0.0
  0
VERTEX
  5
193
330
16F
100
AcDbEntity
  8
2D
100
AcDbVertex
100
AcDb2dVertex
 10
910.5044008840708
 20
316.0814520079355
 30
0.0
  0
VERTEX
  5
194
330
16F
100
AcDbEntity
  8
2D
100
AcDbVertex
100
AcDb2dVertex
 10
910.5040495974323
 20
316.0818529030033
 30
0.0
  0
VERTEX
  5
195
330
16F
100
AcDbEntity
  8
2D
100
AcDbVertex
100
AcDb2dVertex
 10
910.5037077606916
 20
316.0822581071744
 30
0.0
  0
VERTEX
  5
196
330
16F
100
AcDbEntity
  8
2D
100
AcDbVertex
100
AcDb2dVertex
 10
910.5033760711611
 20
316.0826677099803
 30
0.0
  0
VERTEX
  5
197
330
16F
100
AcDbEntity
  8
2D
100
AcDbVertex
100
AcDb2dVertex
 10
910.5030552261537
 20
316.083081800953
 30
0.0
  0
VERTEX
  5
198
330
16F
100
AcDbEntity
  8
2D
100
AcDbVertex
100
AcDb2dVertex
 10
910.5027459229816
 20
316.0835004696238
 30
0.0
  0
VERTEX
  5
199
330
16F
100
AcDbEntity
  8
2D
100
AcDbVertex
100
AcDb2dVertex
 10
910.5024488589577
 20
316.0839238055244
 30
0.0
  0
VERTEX
  5
19A
330
16F
100
AcDbEntity
  8
2D
100
AcDbVertex
100
AcDb2dVertex
 10
910.5021647313945
 20
316.0843518981865
 30
0.0
  0
VERTEX
  5
19B
330
16F
100
AcDbEntity
  8
2D
100
AcDbVertex
100
AcDb2dVertex
 10
910.5018942376043
 20
316.0847848371417
 30
0.0
  0
VERTEX
  5
19C
330
16F
100
AcDbEntity
  8
2D
100
AcDbVertex
100
AcDb2dVertex
 10
910.5016380749003
 20
316.0852227119217
 30
0.0
  0
VERTEX
  5
19D
330
16F
100
AcDbEntity
  8
2D
100
AcDbVertex
100
AcDb2dVertex
 10
910.5013969405945
 20
316.0856656120581
 30
0.0
  0
VERTEX
  5
19E
330
16F
100
AcDbEntity
  8
2D
100
AcDbVertex
100
AcDb2dVertex
 10
910.5011715319998
 20
316.0861136270825
 30
0.0
  0
VERTEX
  5
19F
330
16F
100
AcDbEntity
  8
2D
100
AcDbVertex
100
AcDb2dVertex
 10
910.5010649427543
 20
316.0863395806563
 30
0.0
  0
VERTEX
  5
1A0
330
16F
100
AcDbEntity
  8
2D
100
AcDbVertex
100
AcDb2dVertex
 10
910.5009625464287
 20
316.0865668465265
 30
0.0
  0
VERTEX
  5
1A1
330
16F
100
AcDbEntity
  8
2D
100
AcDbVertex
100
AcDb2dVertex
 10
910.5008644301872
 20
316.0867954358845
 30
0.0
  0
VERTEX
  5
1A2
330
16F
100
AcDbEntity
  8
2D
100
AcDbVertex
100
AcDb2dVertex
 10
910.5007706811937
 20
316.0870253599218
 30
0.0
  0
VERTEX
  5
1A3
330
16F
100
AcDbEntity
  8
2D
100
AcDbVertex
100
AcDb2dVertex
 10
910.5006813866125
 20
316.0872566298298
 30
0.0
  0
VERTEX
  5
1A4
330
16F
100
AcDbEntity
  8
2D
100
AcDbVertex
100
AcDb2dVertex
 10
910.5005966336075
 20
316.0874892568
 30
0.0
  0
VERTEX
  5
1A5
330
16F
100
AcDbEntity
  8
2D
100
AcDbVertex
100
AcDb2dVertex
 10
910.5005165093429
 20
316.0877232520238
 30
0.0
  0
VERTEX
  5
1A6
330
16F
100
AcDbEntity
  8
2D
100
AcDbVertex
100
AcDb2dVertex
 10
910.5004411009827
 20
316.0879586266928
 30
0.0
  0
VERTEX
  5
1A7
330
16F
100
AcDbEntity
  8
2D
100
AcDbVertex
100
AcDb2dVertex
 10
910.5003704956908
 20
316.0881953919983
 30
0.0
  0
VERTEX
  5
1A8
330
16F
100
AcDbEntity
  8
2D
100
AcDbVertex
100
AcDb2dVertex
 10
910.5003047806317
 20
316.0884335591318
 30
0.0
  0
VERTEX
  5
1A9
330
16F
100
AcDbEntity
  8
2D
100
AcDbVertex
100
AcDb2dVertex
 10
910.5002440429691
 20
316.0886731392848
 30
0.0
  0
VERTEX
  5
1AA
330
16F
100
AcDbEntity
  8
2D
100
AcDbVertex
100
AcDb2dVertex
 10
910.5001883698674
 20
316.0889141436487
 30
0.0
  0
VERTEX
  5
1AB
330
16F
100
AcDbEntity
  8
2D
100
AcDbVertex
100
AcDb2dVertex
 10
910.5001378484901
 20
316.089156583415
 30
0.0
  0
VERTEX
  5
1AC
330
16F
100
AcDbEntity
  8
2D
100
AcDbVertex
100
AcDb2dVertex
 10
910.5000925660019
 20
316.0894004697751
 30
0.0
  0
VERTEX
  5
1AD
330
16F
100
AcDbEntity
  8
2D
100
AcDbVertex
100
AcDb2dVertex
 10
910.5000526095664
 20
316.0896458139205
 30
0.0
  0
VERTEX
  5
1AE
330
16F
100
AcDbEntity
  8
2D
100
AcDbVertex
100
AcDb2dVertex
 10
910.500018066348
 20
316.0898926270426
 30
0.0
  0
VERTEX
  5
1AF
330
16F
100
AcDbEntity
  8
2D
100
AcDbVertex
100
AcDb2dVertex
 10
910.4999890235108
 20
316.0901409203329
 30
0.0
  0
VERTEX
  5
1B0
330
16F
100
AcDbEntity
  8
2D
100
AcDbVertex
100
AcDb2dVertex
 10
910.4999655682185
 20
316.0903907049828
 30
0.0
  0
VERTEX
  5
1B1
330
16F
100
AcDbEntity
  8
2D
100
AcDbVertex
100
AcDb2dVertex
 10
910.4999477876356
 20
316.0906419921839
 30
0.0
  0
VERTEX
  5
1B2
330
16F
100
AcDbEntity
  8
2D
100
AcDbVertex
100
AcDb2dVertex
 10
910.4999357689258
 20
316.0908947931275
 30
0.0
  0
VERTEX
  5
1B3
330
16F
100
AcDbEntity
  8
2D
100
AcDbVertex
100
AcDb2dVertex
 10
910.4999295992534
 20
316.0911491190051
 30
0.0
  0
VERTEX
  5
1B4
330
16F
100
AcDbEntity
  8
2D
100
AcDbVertex
100
AcDb2dVertex
 10
910.4999293657825
 20
316.0914049810082
 30
0.0
  0
VERTEX
  5
1B5
330
16F
100
AcDbEntity
  8
2D
100
AcDbVertex
100
AcDb2dVertex
 10
910.4999344586845
 20
316.0916421681649
 30
0.0
  0
VERTEX
  5
1B6
330
16F
100
AcDbEntity
  8
2D
100
AcDbVertex
100
AcDb2dVertex
 10
910.4999445902782
 20
316.0918805763156
 30
0.0
  0
VERTEX
  5
1B7
330
16F
100
AcDbEntity
  8
2D
100
AcDbVertex
100
AcDb2dVertex
 10
910.4999596819569
 20
316.092120111893
 30
0.0
  0
VERTEX
  5
1B8
330
16F
100
AcDbEntity
  8
2D
100
AcDbVertex
100
AcDb2dVertex
 10
910.4999796551131
 20
316.0923606813298
 30
0.0
  0
VERTEX
  5
1B9
330
16F
100
AcDbEntity
  8
2D
100
AcDbVertex
100
AcDb2dVertex
 10
910.5000044311398
 20
316.0926021910586
 30
0.0
  0
VERTEX
  5
1BA
330
16F
100
AcDbEntity
  8
2D
100
AcDbVertex
100
AcDb2dVertex
 10
910.50003393143
 20
316.0928445475122
 30
0.0
  0
VERTEX
  5
1BB
330
16F
100
AcDbEntity
  8
2D
100
AcDbVertex
100
AcDb2dVertex
 10
910.5000680773766
 20
316.0930876571231
 30
0.0
  0
VERTEX
  5
1BC
330
16F
100
AcDbEntity
  8
2D
100
AcDbVertex
100
AcDb2dVertex
 10
910.5001067903723
 20
316.0933314263242
 30
0.0
  0
VERTEX
  5
1BD
330
16F
100
AcDbEntity
  8
2D
100
AcDbVertex
100
AcDb2dVertex
 10
910.5001976030828
 20
316.0938205692274
 30
0.0
  0
VERTEX
  5
1BE
330
16F
100
AcDbEntity
  8
2D
100
AcDbVertex
100
AcDb2dVertex
 10
910.5003057407048
 20
316.0943112276832
 30
0.0
  0
VERTEX
  5
1BF
330
16F
100
AcDbEntity
  8
2D
100
AcDbVertex
100
AcDb2dVertex
 10
910.5004305743812
 20
316.0948026531532
 30
0.0
  0
VERTEX
  5
1C0
330
16F
100
AcDbEntity
  8
2D
100
AcDbVertex
100
AcDb2dVertex
 10
910.5005714752551
 20
316.0952940970987
 30
0.0
  0
VERTEX
  5
1C1
330
16F
100
AcDbEntity
  8
2D
100
AcDbVertex
100
AcDb2dVertex
 10
910.5007278144697
 20
316.0957848109812
 30
0.0
  0
VERTEX
  5
1C2
330
16F
100
AcDbEntity
  8
2D
100
AcDbVertex
100
AcDb2dVertex
 10
910.5008989631679
 20
316.0962740462622
 30
0.0
  0
VERTEX
  5
1C3
330
16F
100
AcDbEntity
  8
2D
100
AcDbVertex
100
AcDb2dVertex
 10
910.5010842924929
 20
316.096761054403
 30
0.0
  0
VERTEX
  5
1C4
330
16F
100
AcDbEntity
  8
2D
100
AcDbVertex
100
AcDb2dVertex
 10
910.5012831735878
 20
316.0972450868653
 30
0.0
  0
VERTEX
  5
1C5
330
16F
100
AcDbEntity
  8
2D
100
AcDbVertex
100
AcDb2dVertex
 10
910.5014949775955
 20
316.0977253951105
 30
0.0
  0
VERTEX
  5
1C6
330
16F
100
AcDbEntity
  8
2D
100
AcDbVertex
100
AcDb2dVertex
 10
910.5017190756594
 20
316.0982012306
 30
0.0
  0
VERTEX
  5
1C7
330
16F
100
AcDbEntity
  8
2D
100
AcDbVertex
100
AcDb2dVertex
 10
910.5019548389223
 20
316.0986718447953
 30
0.0
  0
VERTEX
  5
1C8
330
16F
100
AcDbEntity
  8
2D
100
AcDbVertex
100
AcDb2dVertex
 10
910.5022016385274
 20
316.0991364891579
 30
0.0
  0
VERTEX
  5
1C9
330
16F
100
AcDbEntity
  8
2D
100
AcDbVertex
100
AcDb2dVertex
 10
910.5024588456176
 20
316.0995944151492
 30
0.0
  0
VERTEX
  5
1CA
330
16F
100
AcDbEntity
  8
2D
100
AcDbVertex
100
AcDb2dVertex
 10
910.5027258313363
 20
316.1000448742307
 30
0.0
  0
VERTEX
  5
1CB
330
16F
100
AcDbEntity
  8
2D
100
AcDbVertex
100
AcDb2dVertex
 10
910.5030019668263
 20
316.1004871178638
 30
0.0
  0
VERTEX
  5
1CC
330
16F
100
AcDbEntity
  8
2D
100
AcDbVertex
100
AcDb2dVertex
 10
910.503286623231
 20
316.1009203975102
 30
0.0
  0
VERTEX
  5
1CD
330
16F
100
AcDbEntity
  8
2D
100
AcDbVertex
100
AcDb2dVertex
 10
910.5035791716932
 20
316.101343964631
 30
0.0
  0
VERTEX
  5
1CE
330
16F
100
AcDbEntity
  8
2D
100
AcDbVertex
100
AcDb2dVertex
 10
910.503878983356
 20
316.101757070688
 30
0.0
  0
VERTEX
  5
1CF
330
16F
100
AcDbEntity
  8
2D
100
AcDbVertex
100
AcDb2dVertex
 10
910.5041854293625
 20
316.1021589671425
 30
0.0
  0
VERTEX
  5
1D0
330
16F
100
AcDbEntity
  8
2D
100
AcDbVertex
100
AcDb2dVertex
 10
910.5044978808558
 20
316.1025489054559
 30
0.0
  0
VERTEX
  5
1D1
330
16F
100
AcDbEntity
  8
2D
100
AcDbVertex
100
AcDb2dVertex
 10
910.504815708979
 20
316.1029261370899
 30
0.0
  0
VERTEX
  5
1D2
330
16F
100
AcDbEntity
  8
2D
100
AcDbVertex
100
AcDb2dVertex
 10
910.5051382848752
 20
316.1032899135056
 30
0.0
  0
VERTEX
  5
1D3
330
16F
100
AcDbEntity
  8
2D
100
AcDbVertex
100
AcDb2dVertex
 10
910.5054649796874
 20
316.1036394861648
 30
0.0
  0
VERTEX
  5
1D4
330
16F
100
AcDbEntity
  8
2D
100
AcDbVertex
100
AcDb2dVertex
 10
910.5057951645588
 20
316.1039741065288
 30
0.0
  0
VERTEX
  5
1D5
330
16F
100
AcDbEntity
  8
2D
100
AcDbVertex
100
AcDb2dVertex
 10
910.5061282106323
 20
316.1042930260592
 30
0.0
  0
VERTEX
  5
1D6
330
16F
100
AcDbEntity
  8
2D
100
AcDbVertex
100
AcDb2dVertex
 10
910.506463489051
 20
316.1045954962173
 30
0.0
  0
VERTEX
  5
1D7
330
16F
100
AcDbEntity
  8
2D
100
AcDbVertex
100
AcDb2dVertex
 10
910.5068003709582
 20
316.1048807684646
 30
0.0
  0
VERTEX
  5
1D8
330
16F
100
AcDbEntity
  8
2D
100
AcDbVertex
100
AcDb2dVertex
 10
910.5071382274969
 20
316.1051480942626
 30
0.0
  0
VERTEX
  5
1D9
330
16F
100
AcDbEntity
  8
2D
100
AcDbVertex
100
AcDb2dVertex
 10
912.3960940667725
 20
317.9937964702181
 30
0.0
  0
SEQEND
  5
1DA
330
16F
100
AcDbEntity
  8
2D
  0
POLYLINE
  5
1DB
330
1F
100
AcDbEntity
  8
2D
100
AcDb2dPolyline
 66
     1
 10
0.0
 20
0.0
 30
0.0
  0
VERTEX
  5
1DC
330
1DB
100
AcDbEntity
  8
2D
100
AcDbVertex
100
AcDb2dVertex
 10
944.6039724848665
 20
317.993730157503
 30
0.0
  0
VERTEX
  5
1DD
330
1DB
100
AcDbEntity
  8
2D
100
AcDbVertex
100
AcDb2dVertex
 10
946.4928716460731
 20
316.1051386913027
 30
0.0
  0
VERTEX
  5
1DE
330
1DB
100
AcDbEntity
  8
2D
100
AcDbVertex
100
AcDb2dVertex
 10
946.4934549084567
 20
316.1045849466399
 30
0.0
  0
VERTEX
  5
1DF
330
1DB
100
AcDbEntity
  8
2D
100
AcDbVertex
100
AcDb2dVertex
 10
946.4940474294647
 20
316.1039854850125
 30
0.0
  0
VERTEX
  5
1E0
330
1DB
100
AcDbEntity
  8
2D
100
AcDbVertex
100
AcDb2dVertex
 10
946.4946433722719
 20
316.1033438308536
 30
0.0
  0
VERTEX
  5
1E1
330
1DB
100
AcDbEntity
  8
2D
100
AcDbVertex
100
AcDb2dVertex
 10
946.4952369000533
 20
316.1026635085967
 30
0.0
  0
VERTEX
  5
1E2
330
1DB
100
AcDbEntity
  8
2D
100
AcDbVertex
100
AcDb2dVertex
 10
946.4958221759838
 20
316.1019480426746
 30
0.0
  0
VERTEX
  5
1E3
330
1DB
100
AcDbEntity
  8
2D
100
AcDbVertex
100
AcDb2dVertex
 10
946.4963933632383
 20
316.1012009575206
 30
0.0
  0
VERTEX
  5
1E4
330
1DB
100
AcDbEntity
  8
2D
100
AcDbVertex
100
AcDb2dVertex
 10
946.4966718496041
 20
316.100816659117
 30
0.0
  0
VERTEX
  5
1E5
330
1DB
100
AcDbEntity
  8
2D
100
AcDbVertex
100
AcDb2dVertex
 10
946.4969446249917
 20
316.1004257775678
 30
0.0
  0
VERTEX
  5
1E6
330
1DB
100
AcDbEntity
  8
2D
100
AcDbVertex
100
AcDb2dVertex
 10
946.4972109597977
 20
316.1000287534272
 30
0.0
  0
VERTEX
  5
1E7
330
1DB
100
AcDbEntity
  8
2D
100
AcDbVertex
100
AcDb2dVertex
 10
946.4974701244189
 20
316.0996260272494
 30
0.0
  0
VERTEX
  5
1E8
330
1DB
100
AcDbEntity
  8
2D
100
AcDbVertex
100
AcDb2dVertex
 10
946.4977213892523
 20
316.0992180395885
 30
0.0
  0
VERTEX
  5
1E9
330
1DB
100
AcDbEntity
  8
2D
100
AcDbVertex
100
AcDb2dVertex
 10
946.4979640246947
 20
316.0988052309986
 30
0.0
  0
VERTEX
  5
1EA
330
1DB
100
AcDbEntity
  8
2D
100
AcDbVertex
100
AcDb2dVertex
 10
946.4981973011431
 20
316.0983880420338
 30
0.0
  0
VERTEX
  5
1EB
330
1DB
100
AcDbEntity
  8
2D
100
AcDbVertex
100
AcDb2dVertex
 10
946.4984204889943
 20
316.0979669132483
 30
0.0
  0
VERTEX
  5
1EC
330
1DB
100
AcDbEntity
  8
2D
100
AcDbVertex
100
AcDb2dVertex
 10
946.498632858645
 20
316.0975422851964
 30
0.0
  0
VERTEX
  5
1ED
330
1DB
100
AcDbEntity
  8
2D
100
AcDbVertex
100
AcDb2dVertex
 10
946.4988336804922
 20
316.097114598432
 30
0.0
  0
VERTEX
  5
1EE
330
1DB
100
AcDbEntity
  8
2D
100
AcDbVertex
100
AcDb2dVertex
 10
946.499022224933
 20
316.0966842935093
 30
0.0
  0
VERTEX
  5
1EF
330
1DB
100
AcDbEntity
  8
2D
100
AcDbVertex
100
AcDb2dVertex
 10
946.4991977623638
 20
316.0962518109826
 30
0.0
  0
VERTEX
  5
1F0
330
1DB
100
AcDbEntity
  8
2D
100
AcDbVertex
100
AcDb2dVertex
 10
946.4993595631817
 20
316.0958175914059
 30
0.0
  0
VERTEX
  5
1F1
330
1DB
100
AcDbEntity
  8
2D
100
AcDbVertex
100
AcDb2dVertex
 10
946.4995068977835
 20
316.0953820753334
 30
0.0
  0
VERTEX
  5
1F2
330
1DB
100
AcDbEntity
  8
2D
100
AcDbVertex
100
AcDb2dVertex
 10
946.4996390365661
 20
316.0949457033192
 30
0.0
  0
VERTEX
  5
1F3
330
1DB
100
AcDbEntity
  8
2D
100
AcDbVertex
100
AcDb2dVertex
 10
946.4996991795244
 20
316.0947273340071
 30
0.0
  0
VERTEX
  5
1F4
330
1DB
100
AcDbEntity
  8
2D
100
AcDbVertex
100
AcDb2dVertex
 10
946.4997552499266
 20
316.0945089159173
 30
0.0
  0
VERTEX
  5
1F5
330
1DB
100
AcDbEntity
  8
2D
100
AcDbVertex
100
AcDb2dVertex
 10
946.4998071565724
 20
316.0942905041193
 30
0.0
  0
VERTEX
  5
1F6
330
1DB
100
AcDbEntity
  8
2D
100
AcDbVertex
100
AcDb2dVertex
 10
946.4998548082615
 20
316.0940721536822
 30
0.0
  0
VERTEX
  5
1F7
330
1DB
100
AcDbEntity
  8
2D
100
AcDbVertex
100
AcDb2dVertex
 10
946.4998981137933
 20
316.0938539196752
 30
0.0
  0
VERTEX
  5
1F8
330
1DB
100
AcDbEntity
  8
2D
100
AcDbVertex
100
AcDb2dVertex
 10
946.4999369819677
 20
316.0936358571678
 30
0.0
  0
VERTEX
  5
1F9
330
1DB
100
AcDbEntity
  8
2D
100
AcDbVertex
100
AcDb2dVertex
 10
946.4999713215842
 20
316.093418021229
 30
0.0
  0
VERTEX
  5
1FA
330
1DB
100
AcDbEntity
  8
2D
100
AcDbVertex
100
AcDb2dVertex
 10
946.5000010414424
 20
316.0932004669282
 30
0.0
  0
VERTEX
  5
1FB
330
1DB
100
AcDbEntity
  8
2D
100
AcDbVertex
100
AcDb2dVertex
 10
946.5000260503418
 20
316.0929832493348
 30
0.0
  0
VERTEX
  5
1FC
330
1DB
100
AcDbEntity
  8
2D
100
AcDbVertex
100
AcDb2dVertex
 10
946.500046257082
 20
316.0927664235178
 30
0.0
  0
VERTEX
  5
1FD
330
1DB
100
AcDbEntity
  8
2D
100
AcDbVertex
100
AcDb2dVertex
 10
946.5000606300238
 20
316.0925660080765
 30
0.0
  0
VERTEX
  5
1FE
330
1DB
100
AcDbEntity
  8
2D
100
AcDbVertex
100
AcDb2dVertex
 10
946.5000708626183
 20
316.0923659819091
 30
0.0
  0
VERTEX
  5
1FF
330
1DB
100
AcDbEntity
  8
2D
100
AcDbVertex
100
AcDb2dVertex
 10
946.5000770115341
 20
316.0921663510312
 30
0.0
  0
VERTEX
  5
200
330
1DB
100
AcDbEntity
  8
2D
100
AcDbVertex
100
AcDb2dVertex
 10
946.5000791334401
 20
316.0919671214588
 30
0.0
  0
VERTEX
  5
201
330
1DB
100
AcDbEntity
  8
2D
100
AcDbVertex
100
AcDb2dVertex
 10
946.5000772850049
 20
316.0917682992077
 30
0.0
  0
VERTEX
  5
202
330
1DB
100
AcDbEntity
  8
2D
100
AcDbVertex
100
AcDb2dVertex
 10
946.5000715228974
 20
316.0915698902938
 30
0.0
  0
VERTEX
  5
203
330
1DB
100
AcDbEntity
  8
2D
100
AcDbVertex
100
AcDb2dVertex
 10
946.5000619037862
 20
316.0913719007328
 30
0.0
  0
VERTEX
  5
204
330
1DB
100
AcDbEntity
  8
2D
100
AcDbVertex
100
AcDb2dVertex
 10
946.5000484843401
 20
316.0911743365407
 30
0.0
  0
VERTEX
  5
205
330
1DB
100
AcDbEntity
  8
2D
100
AcDbVertex
100
AcDb2dVertex
 10
946.5000313212277
 20
316.0909772037331
 30
0.0
  0
VERTEX
  5
206
330
1DB
100
AcDbEntity
  8
2D
100
AcDbVertex
100
AcDb2dVertex
 10
946.5000104711178
 20
316.0907805083261
 30
0.0
  0
VERTEX
  5
207
330
1DB
100
AcDbEntity
  8
2D
100
AcDbVertex
100
AcDb2dVertex
 10
946.499985990679
 20
316.0905842563354
 30
0.0
  0
VERTEX
  5
208
330
1DB
100
AcDbEntity
  8
2D
100
AcDbVertex
100
AcDb2dVertex
 10
946.4999579365801
 20
316.0903884537769
 30
0.0
  0
VERTEX
  5
209
330
1DB
100
AcDbEntity
  8
2D
100
AcDbVertex
100
AcDb2dVertex
 10
946.49992636549
 20
316.0901931066664
 30
0.0
  0
VERTEX
  5
20A
330
1DB
100
AcDbEntity
  8
2D
100
AcDbVertex
100
AcDb2dVertex
 10
946.499891334077
 20
316.0899982210198
 30
0.0
  0
VERTEX
  5
20B
330
1DB
100
AcDbEntity
  8
2D
100
AcDbVertex
100
AcDb2dVertex
 10
946.4998111169582
 20
316.0896098581811
 30
0.0
  0
VERTEX
  5
20C
330
1DB
100
AcDbEntity
  8
2D
100
AcDbVertex
100
AcDb2dVertex
 10
946.4997177385735
 20
316.089223413388
 30
0.0
  0
VERTEX
  5
20D
330
1DB
100
AcDbEntity
  8
2D
100
AcDbVertex
100
AcDb2dVertex
 10
946.4996116522725
 20
316.0888389347668
 30
0.0
  0
VERTEX
  5
20E
330
1DB
100
AcDbEntity
  8
2D
100
AcDbVertex
100
AcDb2dVertex
 10
946.4994933114053
 20
316.0884564704446
 30
0.0
  0
VERTEX
  5
20F
330
1DB
100
AcDbEntity
  8
2D
100
AcDbVertex
100
AcDb2dVertex
 10
946.4993631693212
 20
316.0880760685477
 30
0.0
  0
VERTEX
  5
210
330
1DB
100
AcDbEntity
  8
2D
100
AcDbVertex
100
AcDb2dVertex
 10
946.4992216793703
 20
316.0876977772029
 30
0.0
  0
VERTEX
  5
211
330
1DB
100
AcDbEntity
  8
2D
100
AcDbVertex
100
AcDb2dVertex
 10
946.4990692949021
 20
316.0873216445372
 30
0.0
  0
VERTEX
  5
212
330
1DB
100
AcDbEntity
  8
2D
100
AcDbVertex
100
AcDb2dVertex
 10
946.4989064692667
 20
316.0869477186769
 30
0.0
  0
VERTEX
  5
213
330
1DB
100
AcDbEntity
  8
2D
100
AcDbVertex
100
AcDb2dVertex
 10
946.4987336558137
 20
316.0865760477488
 30
0.0
  0
VERTEX
  5
214
330
1DB
100
AcDbEntity
  8
2D
100
AcDbVertex
100
AcDb2dVertex
 10
946.4985513078927
 20
316.0862066798796
 30
0.0
  0
VERTEX
  5
215
330
1DB
100
AcDbEntity
  8
2D
100
AcDbVertex
100
AcDb2dVertex
 10
946.4983598788538
 20
316.0858396631962
 30
0.0
  0
VERTEX
  5
216
330
1DB
100
AcDbEntity
  8
2D
100
AcDbVertex
100
AcDb2dVertex
 10
946.4981598220463
 20
316.085475045825
 30
0.0
  0
VERTEX
  5
217
330
1DB
100
AcDbEntity
  8
2D
100
AcDbVertex
100
AcDb2dVertex
 10
946.4979515908204
 20
316.0851128758929
 30
0.0
  0
VERTEX
  5
218
330
1DB
100
AcDbEntity
  8
2D
100
AcDbVertex
100
AcDb2dVertex
 10
946.4977356385257
 20
316.0847532015266
 30
0.0
  0
VERTEX
  5
219
330
1DB
100
AcDbEntity
  8
2D
100
AcDbVertex
100
AcDb2dVertex
 10
946.4975124185119
 20
316.0843960708526
 30
0.0
  0
VERTEX
  5
21A
330
1DB
100
AcDbEntity
  8
2D
100
AcDbVertex
100
AcDb2dVertex
 10
946.4970459887263
 20
316.0836896330886
 30
0.0
  0
VERTEX
  5
21B
330
1DB
100
AcDbEntity
  8
2D
100
AcDbVertex
100
AcDb2dVertex
 10
946.4965559282616
 20
316.0829939476147
 30
0.0
  0
VERTEX
  5
21C
330
1DB
100
AcDbEntity
  8
2D
100
AcDbVertex
100
AcDb2dVertex
 10
946.4960458639159
 20
316.0823093994444
 30
0.0
  0
VERTEX
  5
21D
330
1DB
100
AcDbEntity
  8
2D
100
AcDbVertex
100
AcDb2dVertex
 10
946.4955194224874
 20
316.0816363735912
 30
0.0
  0
VERTEX
  5
21E
330
1DB
100
AcDbEntity
  8
2D
100
AcDbVertex
100
AcDb2dVertex
 10
946.4949802307741
 20
316.0809752550687
 30
0.0
  0
VERTEX
  5
21F
330
1DB
100
AcDbEntity
  8
2D
100
AcDbVertex
100
AcDb2dVertex
 10
946.4940970723595
 20
316.0799420803195
 30
0.0
  0
VERTEX
  5
220
330
1DB
100
AcDbEntity
  8
2D
100
AcDbVertex
100
AcDb2dVertex
 10
946.4931912217592
 20
316.0789395689035
 30
0.0
  0
VERTEX
  5
221
330
1DB
100
AcDbEntity
  8
2D
100
AcDbVertex
100
AcDb2dVertex
 10
946.4922633755045
 20
316.0779668718409
 30
0.0
  0
VERTEX
  5
222
330
1DB
100
AcDbEntity
  8
2D
100
AcDbVertex
100
AcDb2dVertex
 10
946.4913142301273
 20
316.0770231401525
 30
0.0
  0
VERTEX
  5
223
330
1DB
100
AcDbEntity
  8
2D
100
AcDbVertex
100
AcDb2dVertex
 10
946.4903444821585
 20
316.0761075248587
 30
0.0
  0
VERTEX
  5
224
330
1DB
100
AcDbEntity
  8
2D
100
AcDbVertex
100
AcDb2dVertex
 10
946.48935482813
 20
316.0752191769802
 30
0.0
  0
VERTEX
  5
225
330
1DB
100
AcDbEntity
  8
2D
100
AcDbVertex
100
AcDb2dVertex
 10
946.4883459645731
 20
316.0743572475374
 30
0.0
  0
VERTEX
  5
226
330
1DB
100
AcDbEntity
  8
2D
100
AcDbVertex
100
AcDb2dVertex
 10
946.4873185880192
 20
316.073520887551
 30
0.0
  0
VERTEX
  5
227
330
1DB
100
AcDbEntity
  8
2D
100
AcDbVertex
100
AcDb2dVertex
 10
946.4862733949999
 20
316.0727092480414
 30
0.0
  0
VERTEX
  5
228
330
1DB
100
AcDbEntity
  8
2D
100
AcDbVertex
100
AcDb2dVertex
 10
946.4852110820465
 20
316.0719214800293
 30
0.0
  0
VERTEX
  5
229
330
1DB
100
AcDbEntity
  8
2D
100
AcDbVertex
100
AcDb2dVertex
 10
946.4841323456906
 20
316.0711567345352
 30
0.0
  0
VERTEX
  5
22A
330
1DB
100
AcDbEntity
  8
2D
100
AcDbVertex
100
AcDb2dVertex
 10
946.4830378824636
 20
316.0704141625797
 30
0.0
  0
VERTEX
  5
22B
330
1DB
100
AcDbEntity
  8
2D
100
AcDbVertex
100
AcDb2dVertex
 10
946.481928388897
 20
316.0696929151832
 30
0.0
  0
VERTEX
  5
22C
330
1DB
100
AcDbEntity
  8
2D
100
AcDbVertex
100
AcDb2dVertex
 10
946.4808045615223
 20
316.0689921433664
 30
0.0
  0
VERTEX
  5
22D
330
1DB
100
AcDbEntity
  8
2D
100
AcDbVertex
100
AcDb2dVertex
 10
946.478516691474
 20
316.0676486305541
 30
0.0
  0
VERTEX
  5
22E
330
1DB
100
AcDbEntity
  8
2D
100
AcDbVertex
100
AcDb2dVertex
 10
946.4761798445709
 20
316.066376832307
 30
0.0
  0
VERTEX
  5
22F
330
1DB
100
AcDbEntity
  8
2D
100
AcDbVertex
100
AcDb2dVertex
 10
946.4737995930643
 20
316.0651699567898
 30
0.0
  0
VERTEX
  5
230
330
1DB
100
AcDbEntity
  8
2D
100
AcDbVertex
100
AcDb2dVertex
 10
946.4713815092061
 20
316.0640212121667
 30
0.0
  0
VERTEX
  5
231
330
1DB
100
AcDbEntity
  8
2D
100
AcDbVertex
100
AcDb2dVertex
 10
946.468931165248
 20
316.0629238066023
 30
0.0
  0
VERTEX
  5
232
330
1DB
100
AcDbEntity
  8
2D
100
AcDbVertex
100
AcDb2dVertex
 10
946.4639559860391
 20
316.0608558453073
 30
0.0
  0
VERTEX
  5
233
330
1DB
100
AcDbEntity
  8
2D
100
AcDbVertex
100
AcDb2dVertex
 10
946.4589186334508
 20
316.0589117382202
 30
0.0
  0
VERTEX
  5
234
330
1DB
100
AcDbEntity
  8
2D
100
AcDbVertex
100
AcDb2dVertex
 10
946.4480257407973
 20
316.0549857067166
 30
0.0
  0
VERTEX
  5
235
330
1DB
100
AcDbEntity
  8
2D
100
AcDbVertex
100
AcDb2dVertex
 10
946.4370600086859
 20
316.0513499565649
 30
0.0
  0
VERTEX
  5
236
330
1DB
100
AcDbEntity
  8
2D
100
AcDbVertex
100
AcDb2dVertex
 10
946.426029760179
 20
316.047974094918
 30
0.0
  0
VERTEX
  5
237
330
1DB
100
AcDbEntity
  8
2D
100
AcDbVertex
100
AcDb2dVertex
 10
946.414943318339
 20
316.0448277289287
 30
0.0
  0
VERTEX
  5
238
330
1DB
100
AcDbEntity
  8
2D
100
AcDbVertex
100
AcDb2dVertex
 10
946.3926351469098
 20
316.0391019125333
 30
0.0
  0
VERTEX
  5
239
330
1DB
100
AcDbEntity
  8
2D
100
AcDbVertex
100
AcDb2dVertex
 10
946.370202078898
 20
316.0339293646002
 30
0.0
  0
VERTEX
  5
23A
330
1DB
100
AcDbEntity
  8
2D
100
AcDbVertex
100
AcDb2dVertex
 10
946.333816240746
 20
316.0262781008543
 30
0.0
  0
VERTEX
  5
23B
330
1DB
100
AcDbEntity
  8
2D
100
AcDbVertex
100
AcDb2dVertex
 10
946.297295836729
 20
316.0193508750199
 30
0.0
  0
VERTEX
  5
23C
330
1DB
100
AcDbEntity
  8
2D
100
AcDbVertex
100
AcDb2dVertex
 10
946.2239220436775
 20
316.0073259241254
 30
0.0
  0
VERTEX
  5
23D
330
1DB
100
AcDbEntity
  8
2D
100
AcDbVertex
100
AcDb2dVertex
 10
946.0763375055465
 20
315.9881957347074
 30
0.0
  0
VERTEX
  5
23E
330
1DB
100
AcDbEntity
  8
2D
100
AcDbVertex
100
AcDb2dVertex
 10
945.7954442920011
 20
315.958855404582
 30
0.0
  0
VERTEX
  5
23F
330
1DB
100
AcDbEntity
  8
2D
100
AcDbVertex
100
AcDb2dVertex
 10
945.514068955715
 20
315.9352165351365
 30
0.0
  0
VERTEX
  5
240
330
1DB
100
AcDbEntity
  8
2D
100
AcDbVertex
100
AcDb2dVertex
 10
944.9504371734945
 20
315.8991597445327
 30
0.0
  0
VERTEX
  5
241
330
1DB
100
AcDbEntity
  8
2D
100
AcDbVertex
100
AcDb2dVertex
 10
943.9633914720637
 20
315.851320568907
 30
0.0
  0
VERTEX
  5
242
330
1DB
100
AcDbEntity
  8
2D
100
AcDbVertex
100
AcDb2dVertex
 10
942.9758353534794
 20
315.81576134125
 30
0.0
  0
VERTEX
  5
243
330
1DB
100
AcDbEntity
  8
2D
100
AcDbVertex
100
AcDb2dVertex
 10
940.9999999999986
 20
315.7674683614896
 30
0.0
  0
SEQEND
  5
244
330
1DB
100
AcDbEntity
  8
2D
  0
POLYLINE
  5
245
330
1F
100
AcDbEntity
  8
2D
100
AcDb2dPolyline
 66
     1
 10
0.0
 20
0.0
 30
0.0
  0
VERTEX
  5
246
330
245
100
AcDbEntity
  8
2D
100
AcDbVertex
100
AcDb2dVertex
 10
100.5
 20
293.5
 30
0.0
  0
VERTEX
  5
247
330
245
100
AcDbEntity
  8
2D
100
AcDbVertex
100
AcDb2dVertex
 10
507.5
 20
293.5
 30
0.0
  0
VERTEX
  5
248
330
245
100
AcDbEntity
  8
2D
100
AcDbVertex
100
AcDb2dVertex
 10
507.5
 20
328.5
 30
0.0
  0
VERTEX
  5
249
330
245
100
AcDbEntity
  8
2D
100
AcDbVertex
100
AcDb2dVertex
 10
100.5
 20
328.5
 30
0.0
  0
VERTEX
  5
24A
330
245
100
AcDbEntity
  8
2D
100
AcDbVertex
100
AcDb2dVertex
 10
100.5
 20
293.5
 30
0.0
  0
SEQEND
  5
24B
330
245
100
AcDbEntity
  8
2D
  0
POLYLINE
  5
24C
330
1F
100
AcDbEntity
  8
2D
100
AcDb2dPolyline
 66
     1
 10
0.0
 20
0.0
 30
0.0
  0
VERTEX
  5
24D
330
24C
100
AcDbEntity
  8
2D
100
AcDbVertex
100
AcDb2dVertex
 10
715.0
 20
363.0916730868
 30
0.0
  0
VERTEX
  5
24E
330
24C
100
AcDbEntity
  8
2D
100
AcDbVertex
100
AcDb2dVertex
 10
715.0
 20
251.0
 30
0.0
  0
VERTEX
  5
24F
330
24C
100
AcDbEntity
  8
2D
100
AcDbVertex
100
AcDb2dVertex
 10
1142.0
 20
251.0
 30
0.0
  0
VERTEX
  5
250
330
24C
100
AcDbEntity
  8
2D
100
AcDbVertex
100
AcDb2dVertex
 10
1142.0
 20
371.0
 30
0.0
  0
VERTEX
  5
251
330
24C
100
AcDbEntity
  8
2D
100
AcDbVertex
100
AcDb2dVertex
 10
715.0
 20
371.0
 30
0.0
  0
VERTEX
  5
252
330
24C
100
AcDbEntity
  8
2D
100
AcDbVertex
100
AcDb2dVertex
 10
715.0
 20
363.0916730868
 30
0.0
  0
SEQEND
  5
253
330
24C
100
AcDbEntity
  8
2D
  0
POLYLINE
  5
254
330
1F
100
AcDbEntity
  8
2D
100
AcDb2dPolyline
 66
     1
 10
0.0
 20
0.0
 30
0.0
  0
VERTEX
  5
255
330
254
100
AcDbEntity
  8
2D
100
AcDbVertex
100
AcDb2dVertex
 10
878.5
 20
299.25
 30
0.0
  0
VERTEX
  5
256
330
254
100
AcDbEntity
  8
2D
100
AcDbVertex
100
AcDb2dVertex
 10
843.5
 20
299.25
 30
0.0
  0
VERTEX
  5
257
330
254
100
AcDbEntity
  8
2D
100
AcDbVertex
100
AcDb2dVertex
 10
843.5
 20
322.75
 30
0.0
  0
VERTEX
  5
258
330
254
100
AcDbEntity
  8
2D
100
AcDbVertex
100
AcDb2dVertex
 10
878.5
 20
322.75
 30
0.0
  0
VERTEX
  5
259
330
254
100
AcDbEntity
  8
2D
100
AcDbVertex
100
AcDb2dVertex
 10
878.5
 20
299.25
 30
0.0
  0
SEQEND
  5
25A
330
254
100
AcDbEntity
  8
2D
  0
POLYLINE
  5
25B
330
1F
100
AcDbEntity
  8
2D
100
AcDb2dPolyline
 66
     1
 10
0.0
 20
0.0
 30
0.0
  0
VERTEX
  5
25C
330
25B
100
AcDbEntity
  8
2D
100
AcDbVertex
100
AcDb2dVertex
 10
1013.5
 20
299.25
 30
0.0
  0
VERTEX
  5
25D
330
25B
100
AcDbEntity
  8
2D
100
AcDbVertex
100
AcDb2dVertex
 10
978.5
 20
299.25
 30
0.0
  0
VERTEX
  5
25E
330
25B
100
AcDbEntity
  8
2D
100
AcDbVertex
100
AcDb2dVertex
 10
978.5
 20
322.75
 30
0.0
  0
VERTEX
  5
25F
330
25B
100
AcDbEntity
  8
2D
100
AcDbVertex
100
AcDb2dVertex
 10
1013.5
 20
322.75
 30
0.0
  0
VERTEX
  5
260
330
25B
100
AcDbEntity
  8
2D
100
AcDbVertex
100
AcDb2dVertex
 10
1013.5
 20
299.25
 30
0.0
  0
SEQEND
  5
261
330
25B
100
AcDbEntity
  8
2D
  0
LINE
  5
262
330
1F
100
AcDbEntity
  8
2D
100
AcDbLine
 10
916.0
 20
300.0
 30
0.0
 11
916.0
 21
280.0
 31
0.0
  0
POLYLINE
  5
263
330
1F
100
AcDbEntity
  8
2D
100
AcDb2dPolyline
 66
     1
 10
0.0
 20
0.0
 30
0.0
  0
VERTEX
  5
264
330
263
100
AcDbEntity
  8
2D
100
AcDbVertex
100
AcDb2dVertex
 10
941.0
 20
300.0
 30
0.0
  0
VERTEX
  5
265
330
263
100
AcDbEntity
  8
2D
100
AcDbVertex
100
AcDb2dVertex
 10
941.0
 20
348.0
 30
0.0
  0
VERTEX
  5
266
330
263
100
AcDbEntity
  8
2D
100
AcDbVertex
100
AcDb2dVertex
 10
916.0
 20
348.0
 30
0.0
  0
VERTEX
  5
267
330
263
100
AcDbEntity
  8
2D
100
AcDbVertex
100
AcDb2dVertex
 10
916.0
 20
300.0
 30
0.0
  0
VERTEX
  5
268
330
263
100
AcDbEntity
  8
2D
100
AcDbVertex
100
AcDb2dVertex
 10
941.0
 20
300.0
 30
0.0
  0
VERTEX
  5
269
330
263
100
AcDbEntity
  8
2D
100
AcDbVertex
100
AcDb2dVertex
 10
941.0
 20
274.0
 30
0.0
  0
VERTEX
  5
26A
330
263
100
AcDbEntity
  8
2D
100
AcDbVertex
100
AcDb2dVertex
 10
916.0
 20
274.0
 30
0.0
  0
VERTEX
  5
26B
330
263
100
AcDbEntity
  8
2D
100
AcDbVertex
100
AcDb2dVertex
 10
916.0
 20
280.0
 30
0.0
  0
VERTEX
  5
26C
330
263
100
AcDbEntity
  8
2D
100
AcDbVertex
100
AcDb2dVertex
 10
941.0
 20
280.0
 30
0.0
  0
SEQEND
  5
26D
330
263
100
AcDbEntity
  8
2D
  0
POLYLINE
  5
26E
330
1F
100
AcDbEntity
  8
2D
100
AcDb2dPolyline
 66
     1
 10
0.0
 20
0.0
 30
0.0
  0
VERTEX
  5
26F
330
26E
100
AcDbEntity
  8
2D
100
AcDbVertex
100
AcDb2dVertex
 10
7.0
 20
328.5
 30
0.0
  0
VERTEX
  5
270
330
26E
100
AcDbEntity
  8
2D
100
AcDbVertex
100
AcDb2dVertex
 10
0.0
 20
328.5
 30
0.0
  0
VERTEX
  5
271
330
26E
100
AcDbEntity
  8
2D
100
AcDbVertex
100
AcDb2dVertex
 10
0.0
 20
293.5
 30
0.0
  0
VERTEX
  5
272
330
26E
100
AcDbEntity
  8
2D
100
AcDbVertex
100
AcDb2dVertex
 10
7.0
 20
293.5
 30
0.0
  0
VERTEX
  5
273
330
26E
100
AcDbEntity
  8
2D
100
AcDbVertex
100
AcDb2dVertex
 10
7.0
 20
328.5
 30
0.0
  0
SEQEND
  5
274
330
26E
100
AcDbEntity
  8
2D
  0
POLYLINE
  5
275
330
1F
100
AcDbEntity
  8
2D
100
AcDb2dPolyline
 66
     1
 10
0.0
 20
0.0
 30
0.0
  0
VERTEX
  5
276
330
275
100
AcDbEntity
  8
2D
100
AcDbVertex
100
AcDb2dVertex
 10
608.0
 20
328.5
 30
0.0
  0
VERTEX
  5
277
330
275
100
AcDbEntity
  8
2D
100
AcDbVertex
100
AcDb2dVertex
 10
615.0
 20
328.5
 30
0.0
  0
VERTEX
  5
278
330
275
100
AcDbEntity
  8
2D
100
AcDbVertex
100
AcDb2dVertex
 10
615.0
 20
293.5
 30
0.0
  0
VERTEX
  5
279
330
275
100
AcDbEntity
  8
2D
100
AcDbVertex
100
AcDb2dVertex
 10
608.0
 20
293.5
 30
0.0
  0
VERTEX
  5
27A
330
275
100
AcDbEntity
  8
2D
100
AcDbVertex
100
AcDb2dVertex
 10
608.0
 20
328.5
 30
0.0
  0
SEQEND
  5
27B
330
275
100
AcDbEntity
  8
2D
  0
POLYLINE
  5
27C
330
1F
100
AcDbEntity
  8
2D
100
AcDb2dPolyline
 66
     1
 10
0.0
 20
0.0
 30
0.0
  0
VERTEX
  5
27D
330
27C
100
AcDbEntity
  8
2D
100
AcDbVertex
100
AcDb2dVertex
 10
793.5
 20
313.6433105468732
 30
0.0
  0
VERTEX
  5
27E
330
27C
100
AcDbEntity
  8
2D
100
AcDbVertex
100
AcDb2dVertex
 10
792.038715646012
 20
311.23078736249
 30
0.0
  0
VERTEX
  5
27F
330
27C
100
AcDbEntity
  8
2D
100
AcDbVertex
100
AcDb2dVertex
 10
792.0369893280524
 20
311.2276011167891
 30
0.0
  0
VERTEX
  5
280
330
27C
100
AcDbEntity
  8
2D
100
AcDbVertex
100
AcDb2dVertex
 10
792.0353605172509
 20
311.2243746139573
 30
0.0
  0
VERTEX
  5
281
330
27C
100
AcDbEntity
  8
2D
100
AcDbVertex
100
AcDb2dVertex
 10
792.0338242850792
 20
311.2211102656829
 30
0.0
  0
VERTEX
  5
282
330
27C
100
AcDbEntity
  8
2D
100
AcDbVertex
100
AcDb2dVertex
 10
792.0323757030089
 20
311.2178104836544
 30
0.0
  0
VERTEX
  5
283
330
27C
100
AcDbEntity
  8
2D
100
AcDbVertex
100
AcDb2dVertex
 10
792.0310098425117
 20
311.2144776795602
 30
0.0
  0
VERTEX
  5
284
330
27C
100
AcDbEntity
  8
2D
100
AcDbVertex
100
AcDb2dVertex
 10
792.0297217750592
 20
311.2111142650887
 30
0.0
  0
VERTEX
  5
285
330
27C
100
AcDbEntity
  8
2D
100
AcDbVertex
100
AcDb2dVertex
 10
792.0285065721229
 20
311.2077226519283
 30
0.0
  0
VERTEX
  5
286
330
27C
100
AcDbEntity
  8
2D
100
AcDbVertex
100
AcDb2dVertex
 10
792.0273593051745
 20
311.2043052517674
 30
0.0
  0
VERTEX
  5
287
330
27C
100
AcDbEntity
  8
2D
100
AcDbVertex
100
AcDb2dVertex
 10
792.0252488651275
 20
311.1974027371978
 30
0.0
  0
VERTEX
  5
288
330
27C
100
AcDbEntity
  8
2D
100
AcDbVertex
100
AcDb2dVertex
 10
792.0233510266911
 20
311.1904260148872
 30
0.0
  0
VERTEX
  5
289
330
27C
100
AcDbEntity
  8
2D
100
AcDbVertex
100
AcDb2dVertex
 10
792.021626361638
 20
311.1833943783429
 30
0.0
  0
VERTEX
  5
28A
330
27C
100
AcDbEntity
  8
2D
100
AcDbVertex
100
AcDb2dVertex
 10
792.0200354417414
 20
311.1763271210721
 30
0.0
  0
VERTEX
  5
28B
330
27C
100
AcDbEntity
  8
2D
100
AcDbVertex
100
AcDb2dVertex
 10
792.0163909358832
 20
311.158128605406
 30
0.0
  0
VERTEX
  5
28C
330
27C
100
AcDbEntity
  8
2D
100
AcDbVertex
100
AcDb2dVertex
 10
792.013285753977
 20
311.1398427579938
 30
0.0
  0
VERTEX
  5
28D
330
27C
100
AcDbEntity
  8
2D
100
AcDbVertex
100
AcDb2dVertex
 10
792.0106392695931
 20
311.1214895668023
 30
0.0
  0
VERTEX
  5
28E
330
27C
100
AcDbEntity
  8
2D
100
AcDbVertex
100
AcDb2dVertex
 10
792.0083708563017
 20
311.1030890197985
 30
0.0
  0
VERTEX
  5
28F
330
27C
100
AcDbEntity
  8
2D
100
AcDbVertex
100
AcDb2dVertex
 10
792.0057564804546
 20
311.0777995106128
 30
0.0
  0
VERTEX
  5
290
330
27C
100
AcDbEntity
  8
2D
100
AcDbVertex
100
AcDb2dVertex
 10
792.0036723707015
 20
311.0524657719504
 30
0.0
  0
VERTEX
  5
291
330
27C
100
AcDbEntity
  8
2D
100
AcDbVertex
100
AcDb2dVertex
 10
792.0020890619763
 20
311.0270950751271
 30
0.0
  0
VERTEX
  5
292
330
27C
100
AcDbEntity
  8
2D
100
AcDbVertex
100
AcDb2dVertex
 10
792.0009770892129
 20
311.001694691459
 30
0.0
  0
VERTEX
  5
293
330
27C
100
AcDbEntity
  8
2D
100
AcDbVertex
100
AcDb2dVertex
 10
792.0000492913078
 20
310.9508339488509
 30
0.0
  0
VERTEX
  5
294
330
27C
100
AcDbEntity
  8
2D
100
AcDbVertex
100
AcDb2dVertex
 10
792.0006532564577
 20
310.8999417146531
 30
0.0
  0
VERTEX
  5
295
330
27C
100
AcDbEntity
  8
2D
100
AcDbVertex
100
AcDb2dVertex
 10
792.0024197416348
 20
310.8540847418494
 30
0.0
  0
VERTEX
  5
296
330
27C
100
AcDbEntity
  8
2D
100
AcDbVertex
100
AcDb2dVertex
 10
792.0038394425765
 20
310.8311943276881
 30
0.0
  0
VERTEX
  5
297
330
27C
100
AcDbEntity
  8
2D
100
AcDbVertex
100
AcDb2dVertex
 10
792.0056921632913
 20
310.8083452623491
 30
0.0
  0
VERTEX
  5
298
330
27C
100
AcDbEntity
  8
2D
100
AcDbVertex
100
AcDb2dVertex
 10
792.0080344394324
 20
310.7855495213289
 30
0.0
  0
VERTEX
  5
299
330
27C
100
AcDbEntity
  8
2D
100
AcDbVertex
100
AcDb2dVertex
 10
792.0109228066532
 20
310.7628190801242
 30
0.0
  0
VERTEX
  5
29A
330
27C
100
AcDbEntity
  8
2D
100
AcDbVertex
100
AcDb2dVertex
 10
792.0144138006068
 20
310.7401659142315
 30
0.0
  0
VERTEX
  5
29B
330
27C
100
AcDbEntity
  8
2D
100
AcDbVertex
100
AcDb2dVertex
 10
792.0185639569465
 20
310.7176019991473
 30
0.0
  0
VERTEX
  5
29C
330
27C
100
AcDbEntity
  8
2D
100
AcDbVertex
100
AcDb2dVertex
 10
792.0213681764488
 20
310.7044116208681
 30
0.0
  0
VERTEX
  5
29D
330
27C
100
AcDbEntity
  8
2D
100
AcDbVertex
100
AcDb2dVertex
 10
792.0229355652708
 20
310.6978583543845
 30
0.0
  0
VERTEX
  5
29E
330
27C
100
AcDbEntity
  8
2D
100
AcDbVertex
100
AcDb2dVertex
 10
792.0246519172506
 20
310.6913484120907
 30
0.0
  0
VERTEX
  5
29F
330
27C
100
AcDbEntity
  8
2D
100
AcDbVertex
100
AcDb2dVertex
 10
792.026546315221
 20
310.6848933258013
 30
0.0
  0
VERTEX
  5
2A0
330
27C
100
AcDbEntity
  8
2D
100
AcDbVertex
100
AcDb2dVertex
 10
792.0286478420152
 20
310.6785046273305
 30
0.0
  0
VERTEX
  5
2A1
330
27C
100
AcDbEntity
  8
2D
100
AcDbVertex
100
AcDb2dVertex
 10
792.0297853671065
 20
310.6753387772192
 30
0.0
  0
VERTEX
  5
2A2
330
27C
100
AcDbEntity
  8
2D
100
AcDbVertex
100
AcDb2dVertex
 10
792.0309855804658
 20
310.6721938484928
 30
0.0
  0
VERTEX
  5
2A3
330
27C
100
AcDbEntity
  8
2D
100
AcDbVertex
100
AcDb2dVertex
 10
792.0322521174476
 20
310.6690712826284
 30
0.0
  0
VERTEX
  5
2A4
330
27C
100
AcDbEntity
  8
2D
100
AcDbVertex
100
AcDb2dVertex
 10
792.0335886134059
 20
310.6659725211027
 30
0.0
  0
VERTEX
  5
2A5
330
27C
100
AcDbEntity
  8
2D
100
AcDbVertex
100
AcDb2dVertex
 10
792.0347433678733
 20
310.6634462766812
 30
0.0
  0
VERTEX
  5
2A6
330
27C
100
AcDbEntity
  8
2D
100
AcDbVertex
100
AcDb2dVertex
 10
792.035957967806
 20
310.6609485887544
 30
0.0
  0
VERTEX
  5
2A7
330
27C
100
AcDbEntity
  8
2D
100
AcDbVertex
100
AcDb2dVertex
 10
792.037242544503
 20
310.6584909598583
 30
0.0
  0
VERTEX
  5
2A8
330
27C
100
AcDbEntity
  8
2D
100
AcDbVertex
100
AcDb2dVertex
 10
792.0379142401691
 20
310.6572807620894
 30
0.0
  0
VERTEX
  5
2A9
330
27C
100
AcDbEntity
  8
2D
100
AcDbVertex
100
AcDb2dVertex
 10
792.0386072292633
 20
310.6560848925292
 30
0.0
  0
VERTEX
  5
2AA
330
27C
100
AcDbEntity
  8
2D
100
AcDbVertex
100
AcDb2dVertex
 10
792.0393227781981
 20
310.6549047889946
 30
0.0
  0
VERTEX
  5
2AB
330
27C
100
AcDbEntity
  8
2D
100
AcDbVertex
100
AcDb2dVertex
 10
792.0400621533855
 20
310.6537418893028
 30
0.0
  0
VERTEX
  5
2AC
330
27C
100
AcDbEntity
  8
2D
100
AcDbVertex
100
AcDb2dVertex
 10
792.0408266212382
 20
310.6525976312705
 30
0.0
  0
VERTEX
  5
2AD
330
27C
100
AcDbEntity
  8
2D
100
AcDbVertex
100
AcDb2dVertex
 10
792.0416174481686
 20
310.6514734527151
 30
0.0
  0
VERTEX
  5
2AE
330
27C
100
AcDbEntity
  8
2D
100
AcDbVertex
100
AcDb2dVertex
 10
792.0424359005888
 20
310.6503707914533
 30
0.0
  0
VERTEX
  5
2AF
330
27C
100
AcDbEntity
  8
2D
100
AcDbVertex
100
AcDb2dVertex
 10
792.0432832449112
 20
310.6492910853023
 30
0.0
  0
VERTEX
  5
2B0
330
27C
100
AcDbEntity
  8
2D
100
AcDbVertex
100
AcDb2dVertex
 10
792.0441607475483
 20
310.6482357720789
 30
0.0
  0
VERTEX
  5
2B1
330
27C
100
AcDbEntity
  8
2D
100
AcDbVertex
100
AcDb2dVertex
 10
792.0450696749123
 20
310.6472062896003
 30
0.0
  0
VERTEX
  5
2B2
330
27C
100
AcDbEntity
  8
2D
100
AcDbVertex
100
AcDb2dVertex
 10
792.0455080626145
 20
310.6467327989168
 30
0.0
  0
VERTEX
  5
2B3
330
27C
100
AcDbEntity
  8
2D
100
AcDbVertex
100
AcDb2dVertex
 10
792.0459555257464
 20
310.6462696737709
 30
0.0
  0
VERTEX
  5
2B4
330
27C
100
AcDbEntity
  8
2D
100
AcDbVertex
100
AcDb2dVertex
 10
792.0464139284825
 20
310.6458212645976
 30
0.0
  0
VERTEX
  5
2B5
330
27C
100
AcDbEntity
  8
2D
100
AcDbVertex
100
AcDb2dVertex
 10
792.0466478147566
 20
310.6456039380117
 30
0.0
  0
VERTEX
  5
2B6
330
27C
100
AcDbEntity
  8
2D
100
AcDbVertex
100
AcDb2dVertex
 10
792.0468851349974
 20
310.6453919218322
 30
0.0
  0
VERTEX
  5
2B7
330
27C
100
AcDbEntity
  8
2D
100
AcDbVertex
100
AcDb2dVertex
 10
792.0471261222265
 20
310.6451857598635
 30
0.0
  0
VERTEX
  5
2B8
330
27C
100
AcDbEntity
  8
2D
100
AcDbVertex
100
AcDb2dVertex
 10
792.0473710094657
 20
310.64498599591
 30
0.0
  0
VERTEX
  5
2B9
330
27C
100
AcDbEntity
  8
2D
100
AcDbVertex
100
AcDb2dVertex
 10
792.0476200297369
 20
310.644793173776
 30
0.0
  0
VERTEX
  5
2BA
330
27C
100
AcDbEntity
  8
2D
100
AcDbVertex
100
AcDb2dVertex
 10
792.0478734160621
 20
310.644607837266
 30
0.0
  0
VERTEX
  5
2BB
330
27C
100
AcDbEntity
  8
2D
100
AcDbVertex
100
AcDb2dVertex
 10
792.048131401463
 20
310.6444305301844
 30
0.0
  0
VERTEX
  5
2BC
330
27C
100
AcDbEntity
  8
2D
100
AcDbVertex
100
AcDb2dVertex
 10
792.0483942189612
 20
310.6442617963355
 30
0.0
  0
VERTEX
  5
2BD
330
27C
100
AcDbEntity
  8
2D
100
AcDbVertex
100
AcDb2dVertex
 10
792.0486621015788
 20
310.6441021795238
 30
0.0
  0
VERTEX
  5
2BE
330
27C
100
AcDbEntity
  8
2D
100
AcDbVertex
100
AcDb2dVertex
 10
792.0487980151266
 20
310.6440259599458
 30
0.0
  0
VERTEX
  5
2BF
330
27C
100
AcDbEntity
  8
2D
100
AcDbVertex
100
AcDb2dVertex
 10
792.0489352823375
 20
310.6439522235537
 30
0.0
  0
VERTEX
  5
2C0
330
27C
100
AcDbEntity
  8
2D
100
AcDbVertex
100
AcDb2dVertex
 10
792.0490739323391
 20
310.6438810383231
 30
0.0
  0
VERTEX
  5
2C1
330
27C
100
AcDbEntity
  8
2D
100
AcDbVertex
100
AcDb2dVertex
 10
792.0492139942593
 20
310.6438124722295
 30
0.0
  0
VERTEX
  5
2C2
330
27C
100
AcDbEntity
  8
2D
100
AcDbVertex
100
AcDb2dVertex
 10
792.0493554972256
 20
310.6437465932485
 30
0.0
  0
VERTEX
  5
2C3
330
27C
100
AcDbEntity
  8
2D
100
AcDbVertex
100
AcDb2dVertex
 10
792.049498470366
 20
310.6436834693557
 30
0.0
  0
VERTEX
  5
2C4
330
27C
100
AcDbEntity
  8
2D
100
AcDbVertex
100
AcDb2dVertex
 10
792.0496429428078
 20
310.6436231685266
 30
0.0
  0
VERTEX
  5
2C5
330
27C
100
AcDbEntity
  8
2D
100
AcDbVertex
100
AcDb2dVertex
 10
792.0497889436792
 20
310.6435657587367
 30
0.0
  0
VERTEX
  5
2C6
330
27C
100
AcDbEntity
  8
2D
100
AcDbVertex
100
AcDb2dVertex
 10
792.0499365021076
 20
310.6435113079615
 30
0.0
  0
VERTEX
  5
2C7
330
27C
100
AcDbEntity
  8
2D
100
AcDbVertex
100
AcDb2dVertex
 10
792.050085647221
 20
310.6434598841768
 30
0.0
  0
VERTEX
  5
2C8
330
27C
100
AcDbEntity
  8
2D
100
AcDbVertex
100
AcDb2dVertex
 10
792.0502364081469
 20
310.6434115553578
 30
0.0
  0
VERTEX
  5
2C9
330
27C
100
AcDbEntity
  8
2D
100
AcDbVertex
100
AcDb2dVertex
 10
792.0503888140131
 20
310.6433663894804
 30
0.0
  0
VERTEX
  5
2CA
330
27C
100
AcDbEntity
  8
2D
100
AcDbVertex
100
AcDb2dVertex
 10
792.0505428939473
 20
310.6433244545199
 30
0.0
  0
VERTEX
  5
2CB
330
27C
100
AcDbEntity
  8
2D
100
AcDbVertex
100
AcDb2dVertex
 10
792.0506986770773
 20
310.643285818452
 30
0.0
  0
VERTEX
  5
2CC
330
27C
100
AcDbEntity
  8
2D
100
AcDbVertex
100
AcDb2dVertex
 10
792.0508561925308
 20
310.6432505492522
 30
0.0
  0
VERTEX
  5
2CD
330
27C
100
AcDbEntity
  8
2D
100
AcDbVertex
100
AcDb2dVertex
 10
792.0510154694355
 20
310.643218714896
 30
0.0
  0
VERTEX
  5
2CE
330
27C
100
AcDbEntity
  8
2D
100
AcDbVertex
100
AcDb2dVertex
 10
792.0511765369191
 20
310.643190383359
 30
0.0
  0
VERTEX
  5
2CF
330
27C
100
AcDbEntity
  8
2D
100
AcDbVertex
100
AcDb2dVertex
 10
792.0513394241095
 20
310.6431656226167
 30
0.0
  0
VERTEX
  5
2D0
330
27C
100
AcDbEntity
  8
2D
100
AcDbVertex
100
AcDb2dVertex
 10
792.0515041601343
 20
310.6431445006448
 30
0.0
  0
VERTEX
  5
2D1
330
27C
100
AcDbEntity
  8
2D
100
AcDbVertex
100
AcDb2dVertex
 10
792.0516707741212
 20
310.6431270854185
 30
0.0
  0
VERTEX
  5
2D2
330
27C
100
AcDbEntity
  8
2D
100
AcDbVertex
100
AcDb2dVertex
 10
792.051839295198
 20
310.6431134449138
 30
0.0
  0
VERTEX
  5
2D3
330
27C
100
AcDbEntity
  8
2D
100
AcDbVertex
100
AcDb2dVertex
 10
792.0520097524923
 20
310.6431036471059
 30
0.0
  0
VERTEX
  5
2D4
330
27C
100
AcDbEntity
  8
2D
100
AcDbVertex
100
AcDb2dVertex
 10
792.052182175132
 20
310.6430977599706
 30
0.0
  0
VERTEX
  5
2D5
330
27C
100
AcDbEntity
  8
2D
100
AcDbVertex
100
AcDb2dVertex
 10
792.0523565922447
 20
310.6430958514833
 30
0.0
  0
VERTEX
  5
2D6
330
27C
100
AcDbEntity
  8
2D
100
AcDbVertex
100
AcDb2dVertex
 10
792.0525330329582
 20
310.6430979896195
 30
0.0
  0
VERTEX
  5
2D7
330
27C
100
AcDbEntity
  8
2D
100
AcDbVertex
100
AcDb2dVertex
 10
792.0527115264002
 20
310.643104242355
 30
0.0
  0
VERTEX
  5
2D8
330
27C
100
AcDbEntity
  8
2D
100
AcDbVertex
100
AcDb2dVertex
 10
792.0528921016985
 20
310.6431146776651
 30
0.0
  0
VERTEX
  5
2D9
330
27C
100
AcDbEntity
  8
2D
100
AcDbVertex
100
AcDb2dVertex
 10
792.0530747879807
 20
310.6431293635254
 30
0.0
  0
VERTEX
  5
2DA
330
27C
100
AcDbEntity
  8
2D
100
AcDbVertex
100
AcDb2dVertex
 10
792.0532596143746
 20
310.6431483679115
 30
0.0
  0
VERTEX
  5
2DB
330
27C
100
AcDbEntity
  8
2D
100
AcDbVertex
100
AcDb2dVertex
 10
792.053446610008
 20
310.643171758799
 30
0.0
  0
VERTEX
  5
2DC
330
27C
100
AcDbEntity
  8
2D
100
AcDbVertex
100
AcDb2dVertex
 10
792.0536358040085
 20
310.6431996041633
 30
0.0
  0
VERTEX
  5
2DD
330
27C
100
AcDbEntity
  8
2D
100
AcDbVertex
100
AcDb2dVertex
 10
792.0538272255038
 20
310.6432319719801
 30
0.0
  0
VERTEX
  5
2DE
330
27C
100
AcDbEntity
  8
2D
100
AcDbVertex
100
AcDb2dVertex
 10
792.0540209036218
 20
310.6432689302249
 30
0.0
  0
VERTEX
  5
2DF
330
27C
100
AcDbEntity
  8
2D
100
AcDbVertex
100
AcDb2dVertex
 10
792.0542168674901
 20
310.6433105468732
 30
0.0
  0
VERTEX
  5
2E0
330
27C
100
AcDbEntity
  8
2D
100
AcDbVertex
100
AcDb2dVertex
 10
843.5000000000018
 20
310.6433105468732
 30
0.0
  0
SEQEND
  5
2E1
330
27C
100
AcDbEntity
  8
2D
  0
POLYLINE
  5
2E2
330
1F
100
AcDbEntity
  8
2D
100
AcDb2dPolyline
 66
     1
 10
0.0
 20
0.0
 30
0.0
  0
VERTEX
  5
2E3
330
2E2
100
AcDbEntity
  8
2D
100
AcDbVertex
100
AcDb2dVertex
 10
843.4999999999995
 20
313.6433105468732
 30
0.0
  0
VERTEX
  5
2E4
330
2E2
100
AcDbEntity
  8
2D
100
AcDbVertex
100
AcDb2dVertex
 10
793.5
 20
313.6433105468732
 30
0.0
  0
VERTEX
  5
2E5
330
2E2
100
AcDbEntity
  8
2D
100
AcDbVertex
100
AcDb2dVertex
 10
793.5
 20
315.5788595284487
 30
0.0
  0
VERTEX
  5
2E6
330
2E2
100
AcDbEntity
  8
2D
100
AcDbVertex
100
AcDb2dVertex
 10
814.9146755872007
 20
315.6433105468732
 30
0.0
  0
VERTEX
  5
2E7
330
2E2
100
AcDbEntity
  8
2D
100
AcDbVertex
100
AcDb2dVertex
 10
843.4999999999995
 20
315.6433105468732
 30
0.0
  0
SEQEND
  5
2E8
330
2E2
100
AcDbEntity
  8
2D
  0
POLYLINE
  5
2E9
330
1F
100
AcDbEntity
  8
2D
100
AcDb2dPolyline
 66
     1
 10
0.0
 20
0.0
 30
0.0
  0
VERTEX
  5
2EA
330
2E9
100
AcDbEntity
  8
2D
100
AcDbVertex
100
AcDb2dVertex
 10
1013.5
 20
310.6433105468732
 30
0.0
  0
VERTEX
  5
2EB
330
2E9
100
AcDbEntity
  8
2D
100
AcDbVertex
100
AcDb2dVertex
 10
1064.94578313251
 20
310.6433105468732
 30
0.0
  0
VERTEX
  5
2EC
330
2E9
100
AcDbEntity
  8
2D
100
AcDbVertex
100
AcDb2dVertex
 10
1064.945979096378
 20
310.6432689302249
 30
0.0
  0
VERTEX
  5
2ED
330
2E9
100
AcDbEntity
  8
2D
100
AcDbVertex
100
AcDb2dVertex
 10
1064.946172774497
 20
310.6432319719801
 30
0.0
  0
VERTEX
  5
2EE
330
2E9
100
AcDbEntity
  8
2D
100
AcDbVertex
100
AcDb2dVertex
 10
1064.946364195992
 20
310.6431996041633
 30
0.0
  0
VERTEX
  5
2EF
330
2E9
100
AcDbEntity
  8
2D
100
AcDbVertex
100
AcDb2dVertex
 10
1064.946553389993
 20
310.643171758799
 30
0.0
  0
VERTEX
  5
2F0
330
2E9
100
AcDbEntity
  8
2D
100
AcDbVertex
100
AcDb2dVertex
 10
1064.946740385626
 20
310.6431483679115
 30
0.0
  0
VERTEX
  5
2F1
330
2E9
100
AcDbEntity
  8
2D
100
AcDbVertex
100
AcDb2dVertex
 10
1064.94692521202
 20
310.6431293635253
 30
0.0
  0
VERTEX
  5
2F2
330
2E9
100
AcDbEntity
  8
2D
100
AcDbVertex
100
AcDb2dVertex
 10
1064.947107898302
 20
310.643114677665
 30
0.0
  0
VERTEX
  5
2F3
330
2E9
100
AcDbEntity
  8
2D
100
AcDbVertex
100
AcDb2dVertex
 10
1064.947288473601
 20
310.6431042423549
 30
0.0
  0
VERTEX
  5
2F4
330
2E9
100
AcDbEntity
  8
2D
100
AcDbVertex
100
AcDb2dVertex
 10
1064.947466967043
 20
310.6430979896194
 30
0.0
  0
VERTEX
  5
2F5
330
2E9
100
AcDbEntity
  8
2D
100
AcDbVertex
100
AcDb2dVertex
 10
1064.947643407756
 20
310.6430958514832
 30
0.0
  0
VERTEX
  5
2F6
330
2E9
100
AcDbEntity
  8
2D
100
AcDbVertex
100
AcDb2dVertex
 10
1064.947817824869
 20
310.6430977599705
 30
0.0
  0
VERTEX
  5
2F7
330
2E9
100
AcDbEntity
  8
2D
100
AcDbVertex
100
AcDb2dVertex
 10
1064.947990247509
 20
310.6431036471058
 30
0.0
  0
VERTEX
  5
2F8
330
2E9
100
AcDbEntity
  8
2D
100
AcDbVertex
100
AcDb2dVertex
 10
1064.948160704804
 20
310.6431134449136
 30
0.0
  0
VERTEX
  5
2F9
330
2E9
100
AcDbEntity
  8
2D
100
AcDbVertex
100
AcDb2dVertex
 10
1064.94832922588
 20
310.6431270854184
 30
0.0
  0
VERTEX
  5
2FA
330
2E9
100
AcDbEntity
  8
2D
100
AcDbVertex
100
AcDb2dVertex
 10
1064.948495839867
 20
310.6431445006446
 30
0.0
  0
VERTEX
  5
2FB
330
2E9
100
AcDbEntity
  8
2D
100
AcDbVertex
100
AcDb2dVertex
 10
1064.948660575892
 20
310.6431656226165
 30
0.0
  0
VERTEX
  5
2FC
330
2E9
100
AcDbEntity
  8
2D
100
AcDbVertex
100
AcDb2dVertex
 10
1064.948823463083
 20
310.6431903833587
 30
0.0
  0
VERTEX
  5
2FD
330
2E9
100
AcDbEntity
  8
2D
100
AcDbVertex
100
AcDb2dVertex
 10
1064.948984530566
 20
310.6432187148957
 30
0.0
  0
VERTEX
  5
2FE
330
2E9
100
AcDbEntity
  8
2D
100
AcDbVertex
100
AcDb2dVertex
 10
1064.949143807471
 20
310.6432505492519
 30
0.0
  0
VERTEX
  5
2FF
330
2E9
100
AcDbEntity
  8
2D
100
AcDbVertex
100
AcDb2dVertex
 10
1064.949301322925
 20
310.6432858184518
 30
0.0
  0
VERTEX
  5
300
330
2E9
100
AcDbEntity
  8
2D
100
AcDbVertex
100
AcDb2dVertex
 10
1064.949457106055
 20
310.6433244545197
 30
0.0
  0
VERTEX
  5
301
330
2E9
100
AcDbEntity
  8
2D
100
AcDbVertex
100
AcDb2dVertex
 10
1064.949611185989
 20
310.6433663894802
 30
0.0
  0
VERTEX
  5
302
330
2E9
100
AcDbEntity
  8
2D
100
AcDbVertex
100
AcDb2dVertex
 10
1064.949763591856
 20
310.6434115553576
 30
0.0
  0
VERTEX
  5
303
330
2E9
100
AcDbEntity
  8
2D
100
AcDbVertex
100
AcDb2dVertex
 10
1064.949914352781
 20
310.6434598841765
 30
0.0
  0
VERTEX
  5
304
330
2E9
100
AcDbEntity
  8
2D
100
AcDbVertex
100
AcDb2dVertex
 10
1064.950063497895
 20
310.6435113079613
 30
0.0
  0
VERTEX
  5
305
330
2E9
100
AcDbEntity
  8
2D
100
AcDbVertex
100
AcDb2dVertex
 10
1064.950211056323
 20
310.6435657587364
 30
0.0
  0
VERTEX
  5
306
330
2E9
100
AcDbEntity
  8
2D
100
AcDbVertex
100
AcDb2dVertex
 10
1064.950357057195
 20
310.6436231685263
 30
0.0
  0
VERTEX
  5
307
330
2E9
100
AcDbEntity
  8
2D
100
AcDbVertex
100
AcDb2dVertex
 10
1064.950501529637
 20
310.6436834693554
 30
0.0
  0
VERTEX
  5
308
330
2E9
100
AcDbEntity
  8
2D
100
AcDbVertex
100
AcDb2dVertex
 10
1064.950644502777
 20
310.6437465932483
 30
0.0
  0
VERTEX
  5
309
330
2E9
100
AcDbEntity
  8
2D
100
AcDbVertex
100
AcDb2dVertex
 10
1064.950786005743
 20
310.6438124722292
 30
0.0
  0
VERTEX
  5
30A
330
2E9
100
AcDbEntity
  8
2D
100
AcDbVertex
100
AcDb2dVertex
 10
1064.950926067664
 20
310.6438810383228
 30
0.0
  0
VERTEX
  5
30B
330
2E9
100
AcDbEntity
  8
2D
100
AcDbVertex
100
AcDb2dVertex
 10
1064.951064717665
 20
310.6439522235535
 30
0.0
  0
VERTEX
  5
30C
330
2E9
100
AcDbEntity
  8
2D
100
AcDbVertex
100
AcDb2dVertex
 10
1064.951201984876
 20
310.6440259599456
 30
0.0
  0
VERTEX
  5
30D
330
2E9
100
AcDbEntity
  8
2D
100
AcDbVertex
100
AcDb2dVertex
 10
1064.951337898424
 20
310.6441021795236
 30
0.0
  0
VERTEX
  5
30E
330
2E9
100
AcDbEntity
  8
2D
100
AcDbVertex
100
AcDb2dVertex
 10
1064.951605781042
 20
310.6442617963353
 30
0.0
  0
VERTEX
  5
30F
330
2E9
100
AcDbEntity
  8
2D
100
AcDbVertex
100
AcDb2dVertex
 10
1064.95186859854
 20
310.6444305301842
 30
0.0
  0
VERTEX
  5
310
330
2E9
100
AcDbEntity
  8
2D
100
AcDbVertex
100
AcDb2dVertex
 10
1064.952126583941
 20
310.6446078372659
 30
0.0
  0
VERTEX
  5
311
330
2E9
100
AcDbEntity
  8
2D
100
AcDbVertex
100
AcDb2dVertex
 10
1064.952379970267
 20
310.6447931737758
 30
0.0
  0
VERTEX
  5
312
330
2E9
100
AcDbEntity
  8
2D
100
AcDbVertex
100
AcDb2dVertex
 10
1064.952628990538
 20
310.6449859959098
 30
0.0
  0
VERTEX
  5
313
330
2E9
100
AcDbEntity
  8
2D
100
AcDbVertex
100
AcDb2dVertex
 10
1064.952873877777
 20
310.6451857598634
 30
0.0
  0
VERTEX
  5
314
330
2E9
100
AcDbEntity
  8
2D
100
AcDbVertex
100
AcDb2dVertex
 10
1064.953114865006
 20
310.6453919218321
 30
0.0
  0
VERTEX
  5
315
330
2E9
100
AcDbEntity
  8
2D
100
AcDbVertex
100
AcDb2dVertex
 10
1064.953352185247
 20
310.6456039380116
 30
0.0
  0
VERTEX
  5
316
330
2E9
100
AcDbEntity
  8
2D
100
AcDbVertex
100
AcDb2dVertex
 10
1064.953586071521
 20
310.6458212645975
 30
0.0
  0
VERTEX
  5
317
330
2E9
100
AcDbEntity
  8
2D
100
AcDbVertex
100
AcDb2dVertex
 10
1064.954044474257
 20
310.6462696737708
 30
0.0
  0
VERTEX
  5
318
330
2E9
100
AcDbEntity
  8
2D
100
AcDbVertex
100
AcDb2dVertex
 10
1064.954491937389
 20
310.6467327989168
 30
0.0
  0
VERTEX
  5
319
330
2E9
100
AcDbEntity
  8
2D
100
AcDbVertex
100
AcDb2dVertex
 10
1064.954930325092
 20
310.6472062896004
 30
0.0
  0
VERTEX
  5
31A
330
2E9
100
AcDbEntity
  8
2D
100
AcDbVertex
100
AcDb2dVertex
 10
1064.955839252456
 20
310.6482357720789
 30
0.0
  0
VERTEX
  5
31B
330
2E9
100
AcDbEntity
  8
2D
100
AcDbVertex
100
AcDb2dVertex
 10
1064.956716755093
 20
310.6492910853023
 30
0.0
  0
VERTEX
  5
31C
330
2E9
100
AcDbEntity
  8
2D
100
AcDbVertex
100
AcDb2dVertex
 10
1064.957564099415
 20
310.6503707914533
 30
0.0
  0
VERTEX
  5
31D
330
2E9
100
AcDbEntity
  8
2D
100
AcDbVertex
100
AcDb2dVertex
 10
1064.958382551835
 20
310.6514734527151
 30
0.0
  0
VERTEX
  5
31E
330
2E9
100
AcDbEntity
  8
2D
100
AcDbVertex
100
AcDb2dVertex
 10
1064.959173378765
 20
310.6525976312705
 30
0.0
  0
VERTEX
  5
31F
330
2E9
100
AcDbEntity
  8
2D
100
AcDbVertex
100
AcDb2dVertex
 10
1064.959937846618
 20
310.6537418893027
 30
0.0
  0
VERTEX
  5
320
330
2E9
100
AcDbEntity
  8
2D
100
AcDbVertex
100
AcDb2dVertex
 10
1064.960677221805
 20
310.6549047889945
 30
0.0
  0
VERTEX
  5
321
330
2E9
100
AcDbEntity
  8
2D
100
AcDbVertex
100
AcDb2dVertex
 10
1064.961392770739
 20
310.6560848925291
 30
0.0
  0
VERTEX
  5
322
330
2E9
100
AcDbEntity
  8
2D
100
AcDbVertex
100
AcDb2dVertex
 10
1064.962085759833
 20
310.6572807620894
 30
0.0
  0
VERTEX
  5
323
330
2E9
100
AcDbEntity
  8
2D
100
AcDbVertex
100
AcDb2dVertex
 10
1064.962757455499
 20
310.6584909598583
 30
0.0
  0
VERTEX
  5
324
330
2E9
100
AcDbEntity
  8
2D
100
AcDbVertex
100
AcDb2dVertex
 10
1064.964042032195
 20
310.6609485887544
 30
0.0
  0
VERTEX
  5
325
330
2E9
100
AcDbEntity
  8
2D
100
AcDbVertex
100
AcDb2dVertex
 10
1064.965256632127
 20
310.6634462766811
 30
0.0
  0
VERTEX
  5
326
330
2E9
100
AcDbEntity
  8
2D
100
AcDbVertex
100
AcDb2dVertex
 10
1064.966411386594
 20
310.6659725211026
 30
0.0
  0
VERTEX
  5
327
330
2E9
100
AcDbEntity
  8
2D
100
AcDbVertex
100
AcDb2dVertex
 10
1064.967747882551
 20
310.6690712826284
 30
0.0
  0
VERTEX
  5
328
330
2E9
100
AcDbEntity
  8
2D
100
AcDbVertex
100
AcDb2dVertex
 10
1064.969014419532
 20
310.6721938484927
 30
0.0
  0
VERTEX
  5
329
330
2E9
100
AcDbEntity
  8
2D
100
AcDbVertex
100
AcDb2dVertex
 10
1064.970214632891
 20
310.6753387772191
 30
0.0
  0
VERTEX
  5
32A
330
2E9
100
AcDbEntity
  8
2D
100
AcDbVertex
100
AcDb2dVertex
 10
1064.971352157982
 20
310.6785046273304
 30
0.0
  0
VERTEX
  5
32B
330
2E9
100
AcDbEntity
  8
2D
100
AcDbVertex
100
AcDb2dVertex
 10
1064.973453684775
 20
310.6848933258012
 30
0.0
  0
VERTEX
  5
32C
330
2E9
100
AcDbEntity
  8
2D
100
AcDbVertex
100
AcDb2dVertex
 10
1064.975348082745
 20
310.6913484120906
 30
0.0
  0
VERTEX
  5
32D
330
2E9
100
AcDbEntity
  8
2D
100
AcDbVertex
100
AcDb2dVertex
 10
1064.977064434725
 20
310.6978583543844
 30
0.0
  0
VERTEX
  5
32E
330
2E9
100
AcDbEntity
  8
2D
100
AcDbVertex
100
AcDb2dVertex
 10
1064.978631823547
 20
310.7044116208681
 30
0.0
  0
VERTEX
  5
32F
330
2E9
100
AcDbEntity
  8
2D
100
AcDbVertex
100
AcDb2dVertex
 10
1064.98143604305
 20
310.7176019991474
 30
0.0
  0
VERTEX
  5
330
330
2E9
100
AcDbEntity
  8
2D
100
AcDbVertex
100
AcDb2dVertex
 10
1064.985586199391
 20
310.7401659142316
 30
0.0
  0
VERTEX
  5
331
330
2E9
100
AcDbEntity
  8
2D
100
AcDbVertex
100
AcDb2dVertex
 10
1064.989077193345
 20
310.7628190801244
 30
0.0
  0
VERTEX
  5
332
330
2E9
100
AcDbEntity
  8
2D
100
AcDbVertex
100
AcDb2dVertex
 10
1064.991965560566
 20
310.7855495213291
 30
0.0
  0
VERTEX
  5
333
330
2E9
100
AcDbEntity
  8
2D
100
AcDbVertex
100
AcDb2dVertex
 10
1064.994307836706
 20
310.8083452623492
 30
0.0
  0
VERTEX
  5
334
330
2E9
100
AcDbEntity
  8
2D
100
AcDbVertex
100
AcDb2dVertex
 10
1064.99616055742
 20
310.8311943276883
 30
0.0
  0
VERTEX
  5
335
330
2E9
100
AcDbEntity
  8
2D
100
AcDbVertex
100
AcDb2dVertex
 10
1064.997580258361
 20
310.8540847418496
 30
0.0
  0
VERTEX
  5
336
330
2E9
100
AcDbEntity
  8
2D
100
AcDbVertex
100
AcDb2dVertex
 10
1064.999346743537
 20
310.8999417146532
 30
0.0
  0
VERTEX
  5
337
330
2E9
100
AcDbEntity
  8
2D
100
AcDbVertex
100
AcDb2dVertex
 10
1064.999950708685
 20
310.950833948851
 30
0.0
  0
VERTEX
  5
338
330
2E9
100
AcDbEntity
  8
2D
100
AcDbVertex
100
AcDb2dVertex
 10
1064.99902291078
 20
311.0016946914591
 30
0.0
  0
VERTEX
  5
339
330
2E9
100
AcDbEntity
  8
2D
100
AcDbVertex
100
AcDb2dVertex
 10
1064.997910938017
 20
311.0270950751272
 30
0.0
  0
VERTEX
  5
33A
330
2E9
100
AcDbEntity
  8
2D
100
AcDbVertex
100
AcDb2dVertex
 10
1064.996327629292
 20
311.0524657719506
 30
0.0
  0
VERTEX
  5
33B
330
2E9
100
AcDbEntity
  8
2D
100
AcDbVertex
100
AcDb2dVertex
 10
1064.994243519539
 20
311.0777995106129
 30
0.0
  0
VERTEX
  5
33C
330
2E9
100
AcDbEntity
  8
2D
100
AcDbVertex
100
AcDb2dVertex
 10
1064.991629143693
 20
311.1030890197985
 30
0.0
  0
VERTEX
  5
33D
330
2E9
100
AcDbEntity
  8
2D
100
AcDbVertex
100
AcDb2dVertex
 10
1064.989360730402
 20
311.1214895668023
 30
0.0
  0
VERTEX
  5
33E
330
2E9
100
AcDbEntity
  8
2D
100
AcDbVertex
100
AcDb2dVertex
 10
1064.986714246018
 20
311.1398427579938
 30
0.0
  0
VERTEX
  5
33F
330
2E9
100
AcDbEntity
  8
2D
100
AcDbVertex
100
AcDb2dVertex
 10
1064.983609064113
 20
311.1581286054061
 30
0.0
  0
VERTEX
  5
340
330
2E9
100
AcDbEntity
  8
2D
100
AcDbVertex
100
AcDb2dVertex
 10
1064.979964558256
 20
311.1763271210722
 30
0.0
  0
VERTEX
  5
341
330
2E9
100
AcDbEntity
  8
2D
100
AcDbVertex
100
AcDb2dVertex
 10
1064.97837363836
 20
311.1833943783429
 30
0.0
  0
VERTEX
  5
342
330
2E9
100
AcDbEntity
  8
2D
100
AcDbVertex
100
AcDb2dVertex
 10
1064.976648973307
 20
311.1904260148873
 30
0.0
  0
VERTEX
  5
343
330
2E9
100
AcDbEntity
  8
2D
100
AcDbVertex
100
AcDb2dVertex
 10
1064.974751134872
 20
311.1974027371979
 30
0.0
  0
VERTEX
  5
344
330
2E9
100
AcDbEntity
  8
2D
100
AcDbVertex
100
AcDb2dVertex
 10
1064.972640694825
 20
311.2043052517674
 30
0.0
  0
VERTEX
  5
345
330
2E9
100
AcDbEntity
  8
2D
100
AcDbVertex
100
AcDb2dVertex
 10
1064.971493427877
 20
311.2077226519283
 30
0.0
  0
VERTEX
  5
346
330
2E9
100
AcDbEntity
  8
2D
100
AcDbVertex
100
AcDb2dVertex
 10
1064.970278224941
 20
311.2111142650887
 30
0.0
  0
VERTEX
  5
347
330
2E9
100
AcDbEntity
  8
2D
100
AcDbVertex
100
AcDb2dVertex
 10
1064.968990157489
 20
311.2144776795602
 30
0.0
  0
VERTEX
  5
348
330
2E9
100
AcDbEntity
  8
2D
100
AcDbVertex
100
AcDb2dVertex
 10
1064.967624296992
 20
311.2178104836544
 30
0.0
  0
VERTEX
  5
349
330
2E9
100
AcDbEntity
  8
2D
100
AcDbVertex
100
AcDb2dVertex
 10
1064.966175714921
 20
311.2211102656829
 30
0.0
  0
VERTEX
  5
34A
330
2E9
100
AcDbEntity
  8
2D
100
AcDbVertex
100
AcDb2dVertex
 10
1064.96463948275
 20
311.2243746139573
 30
0.0
  0
VERTEX
  5
34B
330
2E9
100
AcDbEntity
  8
2D
100
AcDbVertex
100
AcDb2dVertex
 10
1064.963010671949
 20
311.2276011167891
 30
0.0
  0
VERTEX
  5
34C
330
2E9
100
AcDbEntity
  8
2D
100
AcDbVertex
100
AcDb2dVertex
 10
1064.961284353989
 20
311.23078736249
 30
0.0
  0
VERTEX
  5
34D
330
2E9
100
AcDbEntity
  8
2D
100
AcDbVertex
100
AcDb2dVertex
 10
1063.5
 20
313.6433105468732
 30
0.0
  0
VERTEX
  5
34E
330
2E9
100
AcDbEntity
  8
2D
100
AcDbVertex
100
AcDb2dVertex
 10
1063.5
 20
315.5788595284487
 30
0.0
  0
VERTEX
  5
34F
330
2E9
100
AcDbEntity
  8
2D
100
AcDbVertex
100
AcDb2dVertex
 10
1042.0853244128
 20
315.6433105468732
 30
0.0
  0
VERTEX
  5
350
330
2E9
100
AcDbEntity
  8
2D
100
AcDbVertex
100
AcDb2dVertex
 10
1013.5
 20
315.6433105468732
 30
0.0
  0
SEQEND
  5
351
330
2E9
100
AcDbEntity
  8
2D
  0
ENDSEC
  0
SECTION
  2
OBJECTS
  0
DICTIONARY
  5
C
330
0
100
AcDbDictionary
281
     1
  3
ACAD_GROUP
350
D
  3
ACAD_LAYOUT
350
1A
  3
ACAD_MATERIAL
350
3B
  3
ACAD_MLEADERSTYLE
350
37C
  3
ACAD_MLINESTYLE
350
17
  3
ACAD_PLOTSETTINGS
350
19
  3
ACAD_PLOTSTYLENAME
350
E
  3
ACAD_SCALELIST
350
3F
  3
ACAD_TABLESTYLE
350
37B
  3
ACAD_VISUALSTYLE
350
2A
  3
AcDbVariableDictionary
350
352
  0
DICTIONARY
  5
D
102
{ACAD_REACTORS
330
C
102
}
330
C
100
AcDbDictionary
281
     1
  0
DICTIONARY
  5
1A
102
{ACAD_REACTORS
330
C
102
}
330
C
100
AcDbDictionary
281
     1
  3
Layout1
350
1E
  3
Layout2
350
26
  3
Model
350
22
  0
DICTIONARY
  5
3B
102
{ACAD_REACTORS
330
C
102
}
330
C
100
AcDbDictionary
281
     1
  3
ByBlock
350
3D
  3
ByLayer
350
3C
  3
Global
350
3E
  0
DICTIONARY
  5
37C
102
{ACAD_REACTORS
330
C
102
}
330
C
100
AcDbDictionary
281
     1
  0
DICTIONARY
  5
17
102
{ACAD_REACTORS
330
C
102
}
330
C
100
AcDbDictionary
281
     1
  3
Standard
350
18
  0
DICTIONARY
  5
19
102
{ACAD_REACTORS
330
C
102
}
330
C
100
AcDbDictionary
281
     1
  0
ACDBDICTIONARYWDFLT
  5
E
102
{ACAD_REACTORS
330
C
102
}
330
C
100
AcDbDictionary
281
     1
  3
Normal
350
F
100
AcDbDictionaryWithDefault
340
F
  0
DICTIONARY
  5
3F
102
{ACAD_REACTORS
330
C
102
}
330
C
100
AcDbDictionary
281
     1
  3
A0
350
40
  3
A1
350
41
  3
A2
350
42
  3
A3
350
43
  3
A4
350
44
  3
A5
350
45
  3
A6
350
46
  3
A7
350
47
  3
A8
350
48
  3
A9
350
49
  3
B0
350
4A
  3
B1
350
4B
  3
B2
350
4C
  3
B3
350
4D
  3
B4
350
4E
  3
B5
350
4F
  3
B6
350
50
  3
B7
350
51
  3
B8
350
52
  3
B9
350
53
  3
C0
350
54
  3
C1
350
55
  3
C2
350
56
  3
C3
350
57
  3
C4
350
58
  3
C5
350
59
  3
C6
350
5A
  3
C7
350
5B
  3
C8
350
5C
  3
C9
350
5D
  3
D0
350
5E
  3
D1
350
5F
  3
D2
350
60
  0
DICTIONARY
  5
37B
102
{ACAD_REACTORS
330
C
102
}
330
C
100
AcDbDictionary
281
     1
  0
DICTIONARY
  5
2A
102
{ACAD_REACTORS
330
C
102
}
330
C
100
AcDbDictionary
281
     1
  3
2dWireframe
350
2F
  3
3D Hidden
350
31
  3
3dWireframe
350
30
  3
Basic
350
32
  3
Brighten
350
36
  3
ColorChange
350
3A
  3
Conceptual
350
34
  3
Dim
350
35
  3
Facepattern
350
39
  3
Flat
350
2B
  3
FlatWithEdges
350
2C
  3
Gouraud
350
2D
  3
GouraudWithEdges
350
2E
  3
Linepattern
350
38
  3
Realistic
350
33
  3
Thicken
350
37
  0
DICTIONARY
  5
352
102
{ACAD_REACTORS
330
C
102
}
330
C
100
AcDbDictionary
281
     1
  3
CANNOSCALE
350
353
  3
MSLTSCALE
350
354
  0
LAYOUT
  5
1E
102
{ACAD_REACTORS
330
1A
102
}
330
1A
100
AcDbPlotSettings
  1

  2
none_device
  4

  6

 40
0.0
 41
0.0
 42
0.0
 43
0.0
 44
0.0
 45
0.0
 46
0.0
 47
0.0
 48
0.0
 49
0.0
140
0.0
141
0.0
142
1.0
143
1.0
 70
   688
 72
     0
 73
     0
 74
     5
  7

 75
    16
 76
     0
 77
     2
 78
   300
147
1.0
148
0.0
149
0.0
100
AcDbLayout
  1
Layout1
 70
     1
 71
     1
 10
0.0
 20
0.0
 11
12.0
 21
9.0
 12
0.0
 22
0.0
 32
0.0
 14
1.000000000000000E+20
 24
1.000000000000000E+20
 34
1.000000000000000E+20
 15
-1.000000000000000E+20
 25
-1.000000000000000E+20
 35
-1.000000000000000E+20
146
0.0
 13
0.0
 23
0.0
 33
0.0
 16
1.0
 26
0.0
 36
0.0
 17
0.0
 27
1.0
 37
0.0
 76
     0
330
1B
  0
LAYOUT
  5
26
102
{ACAD_REACTORS
330
1A
102
}
330
1A
100
AcDbPlotSettings
  1

  2
none_device
  4

  6

 40
0.0
 41
0.0
 42
0.0
 43
0.0
 44
0.0
 45
0.0
 46
0.0
 47
0.0
 48
0.0
 49
0.0
140
0.0
141
0.0
142
1.0
143
1.0
 70
   688
 72
     0
 73
     0
 74
     5
  7

 75
    16
 76
     0
 77
     2
 78
   300
147
1.0
148
0.0
149
0.0
100
AcDbLayout
  1
Layout2
 70
     1
 71
     2
 10
0.0
 20
0.0
 11
0.0
 21
0.0
 12
0.0
 22
0.0
 32
0.0
 14
0.0
 24
0.0
 34
0.0
 15
0.0
 25
0.0
 35
0.0
146
0.0
 13
0.0
 23
0.0
 33
0.0
 16
1.0
 26
0.0
 36
0.0
 17
0.0
 27
1.0
 37
0.0
 76
     0
330
23
  0
LAYOUT
  5
22
102
{ACAD_REACTORS
330
1A
102
}
330
1A
100
AcDbPlotSettings
  1

  2
none_device
  4
Letter_(8.50_x_11.00_Inches)
  6

 40
6.35
 41
6.35
 42
6.35000508
 43
6.35000508
 44
215.9
 45
279.4
 46
0.0
 47
0.0
 48
0.0
 49
0.0
140
0.0
141
0.0
142
1.0
143
1.0
 70
  1712
 72
     0
 73
     0
 74
     0
  7

 75
     0
 76
     0
 77
     2
 78
   300
147
1.0
148
0.0
149
0.0
100
AcDbLayout
  1
Model
 70
     1
 71
     0
 10
0.0
 20
0.0
 11
12.0
 21
9.0
 12
0.0
 22
0.0
 32
0.0
 14
0.0
 24
251.0
 34
0.0
 15
1142.0
 25
371.0
 35
0.0
146
0.0
 13
0.0
 23
0.0
 33
0.0
 16
1.0
 26
0.0
 36
0.0
 17
0.0
 27
1.0
 37
0.0
 76
     0
330
1F
331
29
  0
MATERIAL
  5
3D
102
{ACAD_REACTORS
330
3B
102
}
102
{ACAD_XDICTIONARY
360
377
102
}
330
3B
100
AcDbMaterial
  1
ByBlock
  0
MATERIAL
  5
3C
102
{ACAD_REACTORS
330
3B
102
}
102
{ACAD_XDICTIONARY
360
375
102
}
330
3B
100
AcDbMaterial
  1
ByLayer
  0
MATERIAL
  5
3E
102
{ACAD_REACTORS
330
3B
102
}
102
{ACAD_XDICTIONARY
360
379
102
}
330
3B
100
AcDbMaterial
  1
Global
  0
MLINESTYLE
  5
18
102
{ACAD_REACTORS
330
17
102
}
330
17
100
AcDbMlineStyle
  2
Standard
 70
     0
  3

 62
   256
 51
90.0
 52
90.0
 71
     2
 49
0.5
 62
   256
  6
BYLAYER
 49
-0.5
 62
   256
  6
BYLAYER
  0
ACDBPLACEHOLDER
  5
F
102
{ACAD_REACTORS
330
E
102
}
330
E
  0
SCALE
  5
40
102
{ACAD_REACTORS
330
3F
102
}
330
3F
100
AcDbScale
 70
     0
300
1:1
140
1.0
141
1.0
290
     1
  0
SCALE
  5
41
102
{ACAD_REACTORS
330
3F
102
}
330
3F
100
AcDbScale
 70
     0
300
1:2
140
1.0
141
2.0
290
     0
  0
SCALE
  5
42
102
{ACAD_REACTORS
330
3F
102
}
330
3F
100
AcDbScale
 70
     0
300
1:4
140
1.0
141
4.0
290
     0
  0
SCALE
  5
43
102
{ACAD_REACTORS
330
3F
102
}
330
3F
100
AcDbScale
 70
     0
300
1:5
140
1.0
141
5.0
290
     0
  0
SCALE
  5
44
102
{ACAD_REACTORS
330
3F
102
}
330
3F
100
AcDbScale
 70
     0
300
1:8
140
1.0
141
8.0
290
     0
  0
SCALE
  5
45
102
{ACAD_REACTORS
330
3F
102
}
330
3F
100
AcDbScale
 70
     0
300
1:10
140
1.0
141
10.0
290
     0
  0
SCALE
  5
46
102
{ACAD_REACTORS
330
3F
102
}
330
3F
100
AcDbScale
 70
     0
300
1:16
140
1.0
141
16.0
290
     0
  0
SCALE
  5
47
102
{ACAD_REACTORS
330
3F
102
}
330
3F
100
AcDbScale
 70
     0
300
1:20
140
1.0
141
20.0
290
     0
  0
SCALE
  5
48
102
{ACAD_REACTORS
330
3F
102
}
330
3F
100
AcDbScale
 70
     0
300
1:30
140
1.0
141
30.0
290
     0
  0
SCALE
  5
49
102
{ACAD_REACTORS
330
3F
102
}
330
3F
100
AcDbScale
 70
     0
300
1:40
140
1.0
141
40.0
290
     0
  0
SCALE
  5
4A
102
{ACAD_REACTORS
330
3F
102
}
330
3F
100
AcDbScale
 70
     0
300
1:50
140
1.0
141
50.0
290
     0
  0
SCALE
  5
4B
102
{ACAD_REACTORS
330
3F
102
}
330
3F
100
AcDbScale
 70
     0
300
1:100
140
1.0
141
100.0
290
     0
  0
SCALE
  5
4C
102
{ACAD_REACTORS
330
3F
102
}
330
3F
100
AcDbScale
 70
     0
300
2:1
140
2.0
141
1.0
290
     0
  0
SCALE
  5
4D
102
{ACAD_REACTORS
330
3F
102
}
330
3F
100
AcDbScale
 70
     0
300
4:1
140
4.0
141
1.0
290
     0
  0
SCALE
  5
4E
102
{ACAD_REACTORS
330
3F
102
}
330
3F
100
AcDbScale
 70
     0
300
8:1
140
8.0
141
1.0
290
     0
  0
SCALE
  5
4F
102
{ACAD_REACTORS
330
3F
102
}
330
3F
100
AcDbScale
 70
     0
300
10:1
140
10.0
141
1.0
290
     0
  0
SCALE
  5
50
102
{ACAD_REACTORS
330
3F
102
}
330
3F
100
AcDbScale
 70
     0
300
100:1
140
100.0
141
1.0
290
     0
  0
SCALE
  5
51
102
{ACAD_REACTORS
330
3F
102
}
330
3F
100
AcDbScale
 70
     0
300
1/128" = 1'-0"
140
0.0078125
141
12.0
290
     0
  0
SCALE
  5
52
102
{ACAD_REACTORS
330
3F
102
}
330
3F
100
AcDbScale
 70
     0
300
1/64" = 1'-0"
140
0.015625
141
12.0
290
     0
  0
SCALE
  5
53
102
{ACAD_REACTORS
330
3F
102
}
330
3F
100
AcDbScale
 70
     0
300
1/32" = 1'-0"
140
0.03125
141
12.0
290
     0
  0
SCALE
  5
54
102
{ACAD_REACTORS
330
3F
102
}
330
3F
100
AcDbScale
 70
     0
300
1/16" = 1'-0"
140
0.0625
141
12.0
290
     0
  0
SCALE
  5
55
102
{ACAD_REACTORS
330
3F
102
}
330
3F
100
AcDbScale
 70
     0
300
3/32" = 1'-0"
140
0.09375
141
12.0
290
     0
  0
SCALE
  5
56
102
{ACAD_REACTORS
330
3F
102
}
330
3F
100
AcDbScale
 70
     0
300
1/8" = 1'-0"
140
0.125
141
12.0
290
     0
  0
SCALE
  5
57
102
{ACAD_REACTORS
330
3F
102
}
330
3F
100
AcDbScale
 70
     0
300
3/16" = 1'-0"
140
0.1875
141
12.0
290
     0
  0
SCALE
  5
58
102
{ACAD_REACTORS
330
3F
102
}
330
3F
100
AcDbScale
 70
     0
300
1/4" = 1'-0"
140
0.25
141
12.0
290
     0
  0
SCALE
  5
59
102
{ACAD_REACTORS
330
3F
102
}
330
3F
100
AcDbScale
 70
     0
300
3/8" = 1'-0"
140
0.375
141
12.0
290
     0
  0
SCALE
  5
5A
102
{ACAD_REACTORS
330
3F
102
}
330
3F
100
AcDbScale
 70
     0
300
1/2" = 1'-0"
140
0.5
141
12.0
290
     0
  0
SCALE
  5
5B
102
{ACAD_REACTORS
330
3F
102
}
330
3F
100
AcDbScale
 70
     0
300
3/4" = 1'-0"
140
0.75
141
12.0
290
     0
  0
SCALE
  5
5C
102
{ACAD_REACTORS
330
3F
102
}
330
3F
100
AcDbScale
 70
     0
300
1" = 1'-0"
140
1.0
141
12.0
290
     0
  0
SCALE
  5
5D
102
{ACAD_REACTORS
330
3F
102
}
330
3F
100
AcDbScale
 70
     0
300
1-1/2" = 1'-0"
140
1.5
141
12.0
290
     0
  0
SCALE
  5
5E
102
{ACAD_REACTORS
330
3F
102
}
330
3F
100
AcDbScale
 70
     0
300
3" = 1'-0"
140
3.0
141
12.0
290
     0
  0
SCALE
  5
5F
102
{ACAD_REACTORS
330
3F
102
}
330
3F
100
AcDbScale
 70
     0
300
6" = 1'-0"
140
6.0
141
12.0
290
     0
  0
SCALE
  5
60
102
{ACAD_REACTORS
330
3F
102
}
330
3F
100
AcDbScale
 70
     0
300
1'-0" = 1'-0"
140
12.0
141
12.0
290
     0
  0
VISUALSTYLE
  5
2F
102
{ACAD_REACTORS
330
2A
102
}
102
{ACAD_XDICTIONARY
360
35D
102
}
330
2A
100
AcDbVisualStyle
  2
2dWireframe
 70
     4
 71
     0
 72
     2
 73
     0
 90
        0
 40
0.6
 41
30.0
 62
     5
 63
     7
421
 16777215
 74
     1
 91
        4
 64
     7
 65
   257
 75
     1
175
     1
 42
1.0
 92
        0
 66
   257
 43
1.0
 76
     1
 77
     6
 78
     2
 67
     7
 79
     5
170
     0
171
     0
290
     0
174
     0
 93
        1
 44
0.0
173
     0
291
     0
 45
0.0
1001
ACAD
1000
AcDbSavedByObjectVersion
1070
     0
  0
VISUALSTYLE
  5
31
102
{ACAD_REACTORS
330
2A
102
}
102
{ACAD_XDICTIONARY
360
361
102
}
330
2A
100
AcDbVisualStyle
  2
3D Hidden
 70
     6
 71
     1
 72
     2
 73
     2
 90
        0
 40
0.6
 41
30.0
 62
     5
 63
     7
421
 16777215
 74
     2
 91
        2
 64
     7
 65
   257
 75
     2
175
     1
 42
40.0
 92
        0
 66
   257
 43
1.0
 76
     1
 77
     6
 78
     2
 67
     7
 79
     3
170
     0
171
     0
290
     0
174
     0
 93
        1
 44
0.0
173
     0
291
     0
 45
0.0
1001
ACAD
1000
AcDbSavedByObjectVersion
1070
     0
  0
VISUALSTYLE
  5
30
102
{ACAD_REACTORS
330
2A
102
}
102
{ACAD_XDICTIONARY
360
35F
102
}
330
2A
100
AcDbVisualStyle
  2
3dWireframe
 70
     5
 71
     0
 72
     2
 73
     0
 90
        0
 40
0.6
 41
30.0
 62
     5
 63
     7
421
 16777215
 74
     1
 91
        4
 64
     7
 65
   257
 75
     1
175
     1
 42
1.0
 92
        0
 66
   257
 43
1.0
 76
     1
 77
     6
 78
     2
 67
     7
 79
     5
170
     0
171
     0
290
     0
174
     0
 93
        1
 44
0.0
173
     0
291
     0
 45
0.0
1001
ACAD
1000
AcDbSavedByObjectVersion
1070
     0
  0
VISUALSTYLE
  5
32
102
{ACAD_REACTORS
330
2A
102
}
102
{ACAD_XDICTIONARY
360
363
102
}
330
2A
100
AcDbVisualStyle
  2
Basic
 70
     7
 71
     1
 72
     0
 73
     1
 90
        0
 40
0.6
 41
30.0
 62
     5
 63
     7
421
 16777215
 74
     0
 91
        4
 64
     7
 65
   257
 75
     1
175
     1
 42
1.0
 92
        8
 66
     7
 43
1.0
 76
     1
 77
     6
 78
     2
 67
     7
 79
     5
170
     0
171
     0
290
     0
174
     0
 93
        1
 44
0.0
173
     0
291
     1
 45
0.0
1001
ACAD
1000
AcDbSavedByObjectVersion
1070
     0
  0
VISUALSTYLE
  5
36
102
{ACAD_REACTORS
330
2A
102
}
102
{ACAD_XDICTIONARY
360
36B
102
}
330
2A
100
AcDbVisualStyle
  2
Brighten
 70
    12
 71
     2
 72
     2
 73
     0
 90
        0
 40
0.6
 41
30.0
 62
     5
 63
     7
421
 16777215
 74
     1
 91
        4
 64
     7
 65
   257
 75
     1
175
     1
 42
1.0
 92
        8
 66
     7
 43
1.0
 76
     1
 77
     6
 78
     2
 67
     7
 79
     5
170
     0
171
     0
290
     0
174
     0
 93
        1
 44
50.0
173
     0
291
     1
 45
0.0
1001
ACAD
1000
AcDbSavedByObjectVersion
1070
     0
  0
VISUALSTYLE
  5
3A
102
{ACAD_REACTORS
330
2A
102
}
102
{ACAD_XDICTIONARY
360
373
102
}
330
2A
100
AcDbVisualStyle
  2
ColorChange
 70
    16
 71
     2
 72
     2
 73
     3
 90
        0
 40
0.6
 41
30.0
 62
     5
 63
     8
421
  8421504
 74
     1
 91
        4
 64
     7
 65
   257
 75
     1
175
     1
 42
1.0
 92
        8
 66
     8
424
  8421504
 43
1.0
 76
     1
 77
     6
 78
     2
 67
     7
 79
     5
170
     0
171
     0
290
     0
174
     0
 93
        1
 44
0.0
173
     0
291
     1
 45
0.0
1001
ACAD
1000
AcDbSavedByObjectVersion
1070
     0
  0
VISUALSTYLE
  5
34
102
{ACAD_REACTORS
330
2A
102
}
102
{ACAD_XDICTIONARY
360
367
102
}
330
2A
100
AcDbVisualStyle
  2
Conceptual
 70
     9
 71
     3
 72
     2
 73
     0
 90
        0
 40
0.6
 41
30.0
 62
     5
 63
     7
421
 16777215
 74
     2
 91
        2
 64
     7
 65
   257
 75
     1
175
     1
 42
40.0
 92
        8
 66
     7
 43
1.0
 76
     1
 77
     6
 78
     2
 67
     7
 79
     3
170
     0
171
     0
290
     0
174
     0
 93
        1
 44
0.0
173
     0
291
     0
 45
0.0
1001
ACAD
1000
AcDbSavedByObjectVersion
1070
     0
  0
VISUALSTYLE
  5
35
102
{ACAD_REACTORS
330
2A
102
}
102
{ACAD_XDICTIONARY
360
369
102
}
330
2A
100
AcDbVisualStyle
  2
Dim
 70
    11
 71
     2
 72
     2
 73
     0
 90
        0
 40
0.6
 41
30.0
 62
     5
 63
     7
421
 16777215
 74
     1
 91
        4
 64
     7
 65
   257
 75
     1
175
     1
 42
1.0
 92
        8
 66
     7
 43
1.0
 76
     1
 77
     6
 78
     2
 67
     7
 79
     5
170
     0
171
     0
290
     0
174
     0
 93
        1
 44
-50.0
173
     0
291
     1
 45
0.0
1001
ACAD
1000
AcDbSavedByObjectVersion
1070
     0
  0
VISUALSTYLE
  5
39
102
{ACAD_REACTORS
330
2A
102
}
102
{ACAD_XDICTIONARY
360
371
102
}
330
2A
100
AcDbVisualStyle
  2
Facepattern
 70
    15
 71
     2
 72
     2
 73
     0
 90
        0
 40
0.6
 41
30.0
 62
     5
 63
     7
421
 16777215
 74
     1
 91
        4
 64
     7
 65
   257
 75
     1
175
     1
 42
1.0
 92
        8
 66
     7
 43
1.0
 76
     1
 77
     6
 78
     2
 67
     7
 79
     5
170
     0
171
     0
290
     0
174
     0
 93
        1
 44
0.0
173
     0
291
     1
 45
0.0
1001
ACAD
1000
AcDbSavedByObjectVersion
1070
     0
  0
VISUALSTYLE
  5
2B
102
{ACAD_REACTORS
330
2A
102
}
102
{ACAD_XDICTIONARY
360
355
102
}
330
2A
100
AcDbVisualStyle
  2
Flat
 70
     0
 71
     2
 72
     1
 73
     1
 90
        2
 40
0.6
 41
30.0
 62
     5
 63
     7
421
 16777215
 74
     0
 91
        4
 64
     7
 65
   257
 75
     1
175
     1
 42
1.0
 92
        8
 66
     7
 43
1.0
 76
     1
 77
     6
 78
     2
 67
     7
 79
     5
170
     0
171
     0
290
     0
174
     0
 93
       13
 44
0.0
173
     0
291
     1
 45
0.0
1001
ACAD
1000
AcDbSavedByObjectVersion
1070
     0
  0
VISUALSTYLE
  5
2C
102
{ACAD_REACTORS
330
2A
102
}
102
{ACAD_XDICTIONARY
360
357
102
}
330
2A
100
AcDbVisualStyle
  2
FlatWithEdges
 70
     1
 71
     2
 72
     1
 73
     1
 90
        2
 40
0.6
 41
30.0
 62
     5
 63
     7
421
 16777215
 74
     1
 91
        4
 64
     7
 65
   257
 75
     1
175
     1
 42
1.0
 92
        0
 66
   257
 43
1.0
 76
     1
 77
     6
 78
     2
 67
     7
 79
     5
170
     0
171
     0
290
     0
174
     0
 93
       13
 44
0.0
173
     0
291
     1
 45
0.0
1001
ACAD
1000
AcDbSavedByObjectVersion
1070
     0
  0
VISUALSTYLE
  5
2D
102
{ACAD_REACTORS
330
2A
102
}
102
{ACAD_XDICTIONARY
360
359
102
}
330
2A
100
AcDbVisualStyle
  2
Gouraud
 70
     2
 71
     2
 72
     2
 73
     1
 90
        2
 40
0.6
 41
30.0
 62
     5
 63
     7
421
 16777215
 74
     0
 91
        4
 64
     7
 65
   257
 75
     1
175
     1
 42
1.0
 92
        0
 66
     7
 43
1.0
 76
     1
 77
     6
 78
     2
 67
     7
 79
     5
170
     0
171
     0
290
     0
174
     0
 93
       13
 44
0.0
173
     0
291
     1
 45
0.0
1001
ACAD
1000
AcDbSavedByObjectVersion
1070
     0
  0
VISUALSTYLE
  5
2E
102
{ACAD_REACTORS
330
2A
102
}
102
{ACAD_XDICTIONARY
360
35B
102
}
330
2A
100
AcDbVisualStyle
  2
GouraudWithEdges
 70
     3
 71
     2
 72
     2
 73
     1
 90
        2
 40
0.6
 41
30.0
 62
     5
 63
     7
421
 16777215
 74
     1
 91
        4
 64
     7
 65
   257
 75
     1
175
     1
 42
1.0
 92
        0
 66
   257
 43
1.0
 76
     1
 77
     6
 78
     2
 67
     7
 79
     5
170
     0
171
     0
290
     0
174
     0
 93
       13
 44
0.0
173
     0
291
     1
 45
0.0
1001
ACAD
1000
AcDbSavedByObjectVersion
1070
     0
  0
VISUALSTYLE
  5
38
102
{ACAD_REACTORS
330
2A
102
}
102
{ACAD_XDICTIONARY
360
36F
102
}
330
2A
100
AcDbVisualStyle
  2
Linepattern
 70
    14
 71
     2
 72
     2
 73
     0
 90
        0
 40
0.6
 41
30.0
 62
     5
 63
     7
421
 16777215
 74
     1
 91
        4
 64
     7
 65
   257
 75
     7
175
     7
 42
1.0
 92
        8
 66
     7
 43
1.0
 76
     1
 77
     6
 78
     2
 67
     7
 79
     5
170
     0
171
     0
290
     0
174
     0
 93
        1
 44
0.0
173
     0
291
     1
 45
0.0
1001
ACAD
1000
AcDbSavedByObjectVersion
1070
     0
  0
VISUALSTYLE
  5
33
102
{ACAD_REACTORS
330
2A
102
}
102
{ACAD_XDICTIONARY
360
365
102
}
330
2A
100
AcDbVisualStyle
  2
Realistic
 70
     8
 71
     2
 72
     3
 73
     0
 90
        2
 40
0.6
 41
30.0
 62
     5
 63
     7
421
 16777215
 74
     0
 91
        0
 64
     7
 65
   257
 75
     1
175
     1
 42
1.0
 92
        8
 66
   257
 43
1.0
 76
     1
 77
     6
 78
     2
 67
     7
 79
     3
170
     0
171
     0
290
     0
174
     0
 93
       13
 44
0.0
173
     0
291
     0
 45
0.0
1001
ACAD
1000
AcDbSavedByObjectVersion
1070
     0
  0
VISUALSTYLE
  5
37
102
{ACAD_REACTORS
330
2A
102
}
102
{ACAD_XDICTIONARY
360
36D
102
}
330
2A
100
AcDbVisualStyle
  2
Thicken
 70
    13
 71
     2
 72
     2
 73
     0
 90
        0
 40
0.6
 41
30.0
 62
     5
 63
     7
421
 16777215
 74
     1
 91
        4
 64
     7
 65
   257
 75
     1
175
     1
 42
1.0
 92
       12
 66
     7
 43
1.0
 76
     1
 77
     6
 78
     2
 67
     7
 79
     5
170
     0
171
     0
290
     0
174
     0
 93
        1
 44
0.0
173
     0
291
     1
 45
0.0
1001
ACAD
1000
AcDbSavedByObjectVersion
1070
     0
  0
DICTIONARYVAR
  5
353
102
{ACAD_REACTORS
330
352
102
}
330
352
100
DictionaryVariables
280
     0
  1
1:1
  0
DICTIONARYVAR
  5
354
102
{ACAD_REACTORS
330
352
102
}
330
352
100
DictionaryVariables
280
     0
  1
1
  0
DICTIONARY
  5
377
330
3D
100
AcDbDictionary
280
     1
281
     1
  3
ACAD_XREC_ROUNDTRIP
360
378
  0
DICTIONARY
  5
375
330
3C
100
AcDbDictionary
280
     1
281
     1
  3
ACAD_XREC_ROUNDTRIP
360
376
  0
DICTIONARY
  5
379
330
3E
100
AcDbDictionary
280
     1
281
     1
  3
ACAD_XREC_ROUNDTRIP
360
37A
  0
DICTIONARY
  5
35D
330
2F
100
AcDbDictionary
280
     1
281
     1
  3
ACAD_XREC_ROUNDTRIP
360
35E
  0
DICTIONARY
  5
361
330
31
100
AcDbDictionary
280
     1
281
     1
  3
ACAD_XREC_ROUNDTRIP
360
362
  0
DICTIONARY
  5
35F
330
30
100
AcDbDictionary
280
     1
281
     1
  3
ACAD_XREC_ROUNDTRIP
360
360
  0
DICTIONARY
  5
363
330
32
100
AcDbDictionary
280
     1
281
     1
  3
ACAD_XREC_ROUNDTRIP
360
364
  0
DICTIONARY
  5
36B
330
36
100
AcDbDictionary
280
     1
281
     1
  3
ACAD_XREC_ROUNDTRIP
360
36C
  0
DICTIONARY
  5
373
330
3A
100
AcDbDictionary
280
     1
281
     1
  3
ACAD_XREC_ROUNDTRIP
360
374
  0
DICTIONARY
  5
367
330
34
100
AcDbDictionary
280
     1
281
     1
  3
ACAD_XREC_ROUNDTRIP
360
368
  0
DICTIONARY
  5
369
330
35
100
AcDbDictionary
280
     1
281
     1
  3
ACAD_XREC_ROUNDTRIP
360
36A
  0
DICTIONARY
  5
371
330
39
100
AcDbDictionary
280
     1
281
     1
  3
ACAD_XREC_ROUNDTRIP
360
372
  0
DICTIONARY
  5
355
330
2B
100
AcDbDictionary
280
     1
281
     1
  3
ACAD_XREC_ROUNDTRIP
360
356
  0
DICTIONARY
  5
357
330
2C
100
AcDbDictionary
280
     1
281
     1
  3
ACAD_XREC_ROUNDTRIP
360
358
  0
DICTIONARY
  5
359
330
2D
100
AcDbDictionary
280
     1
281
     1
  3
ACAD_XREC_ROUNDTRIP
360
35A
  0
DICTIONARY
  5
35B
330
2E
100
AcDbDictionary
280
     1
281
     1
  3
ACAD_XREC_ROUNDTRIP
360
35C
  0
DICTIONARY
  5
36F
330
38
100
AcDbDictionary
280
     1
281
     1
  3
ACAD_XREC_ROUNDTRIP
360
370
  0
DICTIONARY
  5
365
330
33
100
AcDbDictionary
280
     1
281
     1
  3
ACAD_XREC_ROUNDTRIP
360
366
  0
DICTIONARY
  5
36D
330
37
100
AcDbDictionary
280
     1
281
     1
  3
ACAD_XREC_ROUNDTRIP
360
36E
  0
XRECORD
  5
378
102
{ACAD_REACTORS
330
377
102
}
330
377
100
AcDbXrecord
280
     1
102
MATERIAL
148
0.0
149
0.0
149
0.0
 93
        0
 94
      127
282
     0
 72
     1
 77
     1
171
     1
175
     1
179
     1
273
     0
  0
XRECORD
  5
376
102
{ACAD_REACTORS
330
375
102
}
330
375
100
AcDbXrecord
280
     1
102
MATERIAL
148
0.0
149
0.0
149
0.0
 93
        0
 94
      127
282
     0
 72
     1
 77
     1
171
     1
175
     1
179
     1
273
     0
  0
XRECORD
  5
37A
102
{ACAD_REACTORS
330
379
102
}
330
379
100
AcDbXrecord
280
     1
102
MATERIAL
148
0.0
149
0.0
149
0.0
 93
        0
 94
      127
282
     0
 72
     1
 77
     1
171
     1
175
     1
179
     1
273
     0
  0
XRECORD
  5
35E
102
{ACAD_REACTORS
330
35D
102
}
330
35D
100
AcDbXrecord
280
     1
102
RTVSPropertyOp0
 70
     1
102
RTVSPropertyOp1
 70
     1
102
RTVSPropertyOp2
 70
     1
102
RTVSPropertyOp3
 70
     1
102
RTVSPropertyOp4
 70
     1
102
RTVSPropertyOp5
 70
     1
102
RTVSPropertyOp6
 70
     1
102
RTVSPropertyOp7
 70
     1
102
RTVSPropertyOp8
 70
     1
102
RTVSPropertyOp9
 70
     1
102
RTVSPropertyOp10
 70
     1
102
RTVSPropertyOp11
 70
     1
102
RTVSPropertyOp12
 70
     1
102
RTVSPropertyOp13
 70
     1
102
RTVSPropertyOp14
 70
     1
102
RTVSPropertyOp15
 70
     1
102
RTVSPropertyOp16
 70
     1
102
RTVSPropertyOp17
 70
     1
102
RTVSPropertyOp18
 70
     1
102
RTVSPropertyOp19
 70
     1
102
RTVSPropertyOp20
 70
     1
102
RTVSPropertyOp21
 70
     1
102
RTVSPropertyOp22
 70
     1
102
RTVSPropertyOp23
 70
     1
102
RTVSPropertyOp24
 70
     1
102
RTVSPropertyOp25
 70
     1
102
RTVSPropertyOp26
 70
     1
102
RTVSPropertyOp27
 70
     1
102
RTVSPropertyOp28
 70
     1
102
RTVSPropertyOp29
 70
     1
102
RTVSPropertyOp30
 70
     1
102
RTVSPropertyOp31
 70
     1
102
RTVSPropertyOp32
 70
     1
102
RTVSPropertyOp33
 70
     1
102
RTVSPropertyOp34
 70
     1
102
RTVSPropertyOp35
 70
     1
102
RTVSPropertyOp36
 70
     1
102
RTVSPropertyOp37
 70
     1
102
RTVSPropertyOp38
 70
     1
102
RTVSPropertyOp39
 70
     1
102
RTVSPropertyOp40
 70
     1
102
RTVSPropertyOp41
 70
     1
102
RTVSPropertyOp42
 70
     1
102
RTVSPropertyOp43
 70
     1
102
RTVSPropertyOp44
 70
     1
102
RTVSPropertyOp45
 70
     1
102
RTVSPropertyOp46
 70
     1
102
RTVSPropertyOp47
 70
     1
102
RTVSPropertyOp48
 70
     1
102
RTVSPropertyOp49
 70
     1
102
RTVSPropertyOp50
 70
     1
102
RTVSPropertyOp51
 70
     0
102
RTVSPropertyOp52
 70
     0
102
RTVSPropertyOp53
 70
     1
102
RTVSPropertyOp54
 70
     1
102
RTVSPropertyOp55
 70
     1
102
RTVSPropertyOp56
 70
     1
102
RTVSPropertyOp57
 70
     1
102
RTVSPost2010Prop28
280
     1
102
RTVSPost2010PropOp28
 70
     1
102
RTVSPost2010Prop29
280
     1
102
RTVSPost2010PropOp29
 70
     1
102
RTVSPost2010Prop30
280
     0
102
RTVSPost2010PropOp30
 70
     1
102
RTVSPost2010Prop31
280
     0
102
RTVSPost2010PropOp31
 70
     1
102
RTVSPost2010Prop32
280
     0
102
RTVSPost2010PropOp32
 70
     1
102
RTVSPost2010Prop33
280
     0
102
RTVSPost2010PropOp33
 70
     1
102
RTVSPost2010Prop34
280
     0
102
RTVSPost2010PropOp34
 70
     1
102
RTVSPost2010Prop35
280
     0
102
RTVSPost2010PropOp35
 70
     1
102
RTVSPost2010Prop36
280
     0
102
RTVSPost2010PropOp36
 70
     1
102
RTVSPost2010Prop37
 90
       50
102
RTVSPost2010PropOp37
 70
     1
102
RTVSPost2010Prop38
140
0.0
102
RTVSPost2010PropOp38
 70
     1
102
RTVSPost2010Prop39
140
1.0
102
RTVSPost2010PropOp39
 70
     1
102
RTVSPost2010Prop40
 90
        0
102
RTVSPost2010PropOp40
 70
     1
102
RTVSPost2010Prop41ColorIndex
 90
       18
102
RTVSPost2010Prop41ColorRGB
 90
        0
102
RTVSPost2010PropOp41
 70
     1
102
RTVSPost2010Prop42
 90
       50
102
RTVSPost2010PropOp42
 70
     1
102
RTVSPost2010Prop43
 90
        3
102
RTVSPost2010PropOp43
 70
     1
102
RTVSPost2010Prop44ColorIndex
 90
        5
102
RTVSPost2010Prop44ColorRGB
 90
      255
102
RTVSPost2010PropOp44
 70
     1
102
RTVSPost2010Prop45
280
     0
102
RTVSPost2010PropOp45
 70
     1
102
RTVSPost2010Prop46
 90
       50
102
RTVSPost2010PropOp46
 70
     1
102
RTVSPost2010Prop47
 90
       50
102
RTVSPost2010PropOp47
 70
     1
102
RTVSPost2010Prop48
 90
       50
102
RTVSPost2010PropOp48
 70
     1
102
RTVSPost2010Prop49
280
     0
102
RTVSPost2010PropOp49
 70
     1
102
RTVSPost2010Prop50
 90
       50
102
RTVSPost2010PropOp50
 70
     1
102
RTVSPost2010Prop51ColorIndex
 90
      256
102
RTVSPost2010Prop51ColorRGB
 90
-16777216
102
RTVSPost2010PropOp51
 70
     0
102
RTVSPost2010Prop52
140
1.0
102
RTVSPost2010PropOp52
 70
     0
102
RTVSPost2010Prop53
 90
        2
102
RTVSPost2010PropOp53
 70
     1
102
RTVSPost2010Prop54
  1
strokes_ogs.tif
102
RTVSPost2010PropOp54
 70
     1
102
RTVSPost2010Prop55
280
     0
102
RTVSPost2010PropOp55
 70
     1
102
RTVSPost2010Prop56
140
1.0
102
RTVSPost2010PropOp56
 70
     1
102
RTVSPost2010Prop57
140
1.0
102
RTVSPost2010PropOp57
 70
     1
  0
XRECORD
  5
362
102
{ACAD_REACTORS
330
361
102
}
330
361
100
AcDbXrecord
280
     1
102
RTVSPropertyOp0
 70
     1
102
RTVSPropertyOp1
 70
     1
102
RTVSPropertyOp2
 70
     1
102
RTVSPropertyOp3
 70
     1
102
RTVSPropertyOp4
 70
     1
102
RTVSPropertyOp5
 70
     1
102
RTVSPropertyOp6
 70
     1
102
RTVSPropertyOp7
 70
     1
102
RTVSPropertyOp8
 70
     1
102
RTVSPropertyOp9
 70
     1
102
RTVSPropertyOp10
 70
     1
102
RTVSPropertyOp11
 70
     1
102
RTVSPropertyOp12
 70
     1
102
RTVSPropertyOp13
 70
     1
102
RTVSPropertyOp14
 70
     1
102
RTVSPropertyOp15
 70
     1
102
RTVSPropertyOp16
 70
     1
102
RTVSPropertyOp17
 70
     1
102
RTVSPropertyOp18
 70
     1
102
RTVSPropertyOp19
 70
     1
102
RTVSPropertyOp20
 70
     1
102
RTVSPropertyOp21
 70
     1
102
RTVSPropertyOp22
 70
     1
102
RTVSPropertyOp23
 70
     1
102
RTVSPropertyOp24
 70
     1
102
RTVSPropertyOp25
 70
     1
102
RTVSPropertyOp26
 70
     1
102
RTVSPropertyOp27
 70
     1
102
RTVSPropertyOp28
 70
     1
102
RTVSPropertyOp29
 70
     1
102
RTVSPropertyOp30
 70
     1
102
RTVSPropertyOp31
 70
     1
102
RTVSPropertyOp32
 70
     1
102
RTVSPropertyOp33
 70
     1
102
RTVSPropertyOp34
 70
     1
102
RTVSPropertyOp35
 70
     1
102
RTVSPropertyOp36
 70
     1
102
RTVSPropertyOp37
 70
     1
102
RTVSPropertyOp38
 70
     1
102
RTVSPropertyOp39
 70
     1
102
RTVSPropertyOp40
 70
     1
102
RTVSPropertyOp41
 70
     1
102
RTVSPropertyOp42
 70
     1
102
RTVSPropertyOp43
 70
     1
102
RTVSPropertyOp44
 70
     1
102
RTVSPropertyOp45
 70
     1
102
RTVSPropertyOp46
 70
     1
102
RTVSPropertyOp47
 70
     1
102
RTVSPropertyOp48
 70
     1
102
RTVSPropertyOp49
 70
     1
102
RTVSPropertyOp50
 70
     1
102
RTVSPropertyOp51
 70
     0
102
RTVSPropertyOp52
 70
     0
102
RTVSPropertyOp53
 70
     1
102
RTVSPropertyOp54
 70
     1
102
RTVSPropertyOp55
 70
     1
102
RTVSPropertyOp56
 70
     1
102
RTVSPropertyOp57
 70
     1
102
RTVSPost2010Prop28
280
     0
102
RTVSPost2010PropOp28
 70
     1
102
RTVSPost2010Prop29
280
     1
102
RTVSPost2010PropOp29
 70
     1
102
RTVSPost2010Prop30
280
     1
102
RTVSPost2010PropOp30
 70
     1
102
RTVSPost2010Prop31
280
     0
102
RTVSPost2010PropOp31
 70
     1
102
RTVSPost2010Prop32
280
     0
102
RTVSPost2010PropOp32
 70
     1
102
RTVSPost2010Prop33
280
     0
102
RTVSPost2010PropOp33
 70
     1
102
RTVSPost2010Prop34
280
     0
102
RTVSPost2010PropOp34
 70
     1
102
RTVSPost2010Prop35
280
     0
102
RTVSPost2010PropOp35
 70
     1
102
RTVSPost2010Prop36
280
     0
102
RTVSPost2010PropOp36
 70
     1
102
RTVSPost2010Prop37
 90
       50
102
RTVSPost2010PropOp37
 70
     1
102
RTVSPost2010Prop38
140
0.0
102
RTVSPost2010PropOp38
 70
     1
102
RTVSPost2010Prop39
140
1.0
102
RTVSPost2010PropOp39
 70
     1
102
RTVSPost2010Prop40
 90
        0
102
RTVSPost2010PropOp40
 70
     1
102
RTVSPost2010Prop41ColorIndex
 90
       18
102
RTVSPost2010Prop41ColorRGB
 90
        0
102
RTVSPost2010PropOp41
 70
     1
102
RTVSPost2010Prop42
 90
       50
102
RTVSPost2010PropOp42
 70
     1
102
RTVSPost2010Prop43
 90
        3
102
RTVSPost2010PropOp43
 70
     1
102
RTVSPost2010Prop44ColorIndex
 90
        5
102
RTVSPost2010Prop44ColorRGB
 90
      255
102
RTVSPost2010PropOp44
 70
     1
102
RTVSPost2010Prop45
280
     0
102
RTVSPost2010PropOp45
 70
     1
102
RTVSPost2010Prop46
 90
       50
102
RTVSPost2010PropOp46
 70
     1
102
RTVSPost2010Prop47
 90
       50
102
RTVSPost2010PropOp47
 70
     1
102
RTVSPost2010Prop48
 90
       50
102
RTVSPost2010PropOp48
 70
     1
102
RTVSPost2010Prop49
280
     0
102
RTVSPost2010PropOp49
 70
     1
102
RTVSPost2010Prop50
 90
       50
102
RTVSPost2010PropOp50
 70
     1
102
RTVSPost2010Prop51ColorIndex
 90
      256
102
RTVSPost2010Prop51ColorRGB
 90
-16777216
102
RTVSPost2010PropOp51
 70
     0
102
RTVSPost2010Prop52
140
1.0
102
RTVSPost2010PropOp52
 70
     0
102
RTVSPost2010Prop53
 90
        2
102
RTVSPost2010PropOp53
 70
     1
102
RTVSPost2010Prop54
  1
strokes_ogs.tif
102
RTVSPost2010PropOp54
 70
     1
102
RTVSPost2010Prop55
280
     0
102
RTVSPost2010PropOp55
 70
     1
102
RTVSPost2010Prop56
140
1.0
102
RTVSPost2010PropOp56
 70
     1
102
RTVSPost2010Prop57
140
1.0
102
RTVSPost2010PropOp57
 70
     1
  0
XRECORD
  5
360
102
{ACAD_REACTORS
330
35F
102
}
330
35F
100
AcDbXrecord
280
     1
102
RTVSPropertyOp0
 70
     1
102
RTVSPropertyOp1
 70
     1
102
RTVSPropertyOp2
 70
     1
102
RTVSPropertyOp3
 70
     1
102
RTVSPropertyOp4
 70
     1
102
RTVSPropertyOp5
 70
     1
102
RTVSPropertyOp6
 70
     1
102
RTVSPropertyOp7
 70
     1
102
RTVSPropertyOp8
 70
     1
102
RTVSPropertyOp9
 70
     1
102
RTVSPropertyOp10
 70
     1
102
RTVSPropertyOp11
 70
     1
102
RTVSPropertyOp12
 70
     1
102
RTVSPropertyOp13
 70
     1
102
RTVSPropertyOp14
 70
     1
102
RTVSPropertyOp15
 70
     1
102
RTVSPropertyOp16
 70
     1
102
RTVSPropertyOp17
 70
     1
102
RTVSPropertyOp18
 70
     1
102
RTVSPropertyOp19
 70
     1
102
RTVSPropertyOp20
 70
     1
102
RTVSPropertyOp21
 70
     1
102
RTVSPropertyOp22
 70
     1
102
RTVSPropertyOp23
 70
     1
102
RTVSPropertyOp24
 70
     1
102
RTVSPropertyOp25
 70
     1
102
RTVSPropertyOp26
 70
     1
102
RTVSPropertyOp27
 70
     1
102
RTVSPropertyOp28
 70
     1
102
RTVSPropertyOp29
 70
     1
102
RTVSPropertyOp30
 70
     1
102
RTVSPropertyOp31
 70
     1
102
RTVSPropertyOp32
 70
     1
102
RTVSPropertyOp33
 70
     1
102
RTVSPropertyOp34
 70
     1
102
RTVSPropertyOp35
 70
     1
102
RTVSPropertyOp36
 70
     1
102
RTVSPropertyOp37
 70
     1
102
RTVSPropertyOp38
 70
     1
102
RTVSPropertyOp39
 70
     1
102
RTVSPropertyOp40
 70
     1
102
RTVSPropertyOp41
 70
     1
102
RTVSPropertyOp42
 70
     1
102
RTVSPropertyOp43
 70
     1
102
RTVSPropertyOp44
 70
     1
102
RTVSPropertyOp45
 70
     1
102
RTVSPropertyOp46
 70
     1
102
RTVSPropertyOp47
 70
     1
102
RTVSPropertyOp48
 70
     1
102
RTVSPropertyOp49
 70
     1
102
RTVSPropertyOp50
 70
     1
102
RTVSPropertyOp51
 70
     0
102
RTVSPropertyOp52
 70
     0
102
RTVSPropertyOp53
 70
     1
102
RTVSPropertyOp54
 70
     1
102
RTVSPropertyOp55
 70
     1
102
RTVSPropertyOp56
 70
     1
102
RTVSPropertyOp57
 70
     1
102
RTVSPost2010Prop28
280
     0
102
RTVSPost2010PropOp28
 70
     1
102
RTVSPost2010Prop29
280
     1
102
RTVSPost2010PropOp29
 70
     1
102
RTVSPost2010Prop30
280
     1
102
RTVSPost2010PropOp30
 70
     1
102
RTVSPost2010Prop31
280
     0
102
RTVSPost2010PropOp31
 70
     1
102
RTVSPost2010Prop32
280
     0
102
RTVSPost2010PropOp32
 70
     1
102
RTVSPost2010Prop33
280
     0
102
RTVSPost2010PropOp33
 70
     1
102
RTVSPost2010Prop34
280
     0
102
RTVSPost2010PropOp34
 70
     1
102
RTVSPost2010Prop35
280
     0
102
RTVSPost2010PropOp35
 70
     1
102
RTVSPost2010Prop36
280
     0
102
RTVSPost2010PropOp36
 70
     1
102
RTVSPost2010Prop37
 90
       50
102
RTVSPost2010PropOp37
 70
     1
102
RTVSPost2010Prop38
140
0.0
102
RTVSPost2010PropOp38
 70
     1
102
RTVSPost2010Prop39
140
1.0
102
RTVSPost2010PropOp39
 70
     1
102
RTVSPost2010Prop40
 90
        0
102
RTVSPost2010PropOp40
 70
     1
102
RTVSPost2010Prop41ColorIndex
 90
       18
102
RTVSPost2010Prop41ColorRGB
 90
        0
102
RTVSPost2010PropOp41
 70
     1
102
RTVSPost2010Prop42
 90
       50
102
RTVSPost2010PropOp42
 70
     1
102
RTVSPost2010Prop43
 90
        3
102
RTVSPost2010PropOp43
 70
     1
102
RTVSPost2010Prop44ColorIndex
 90
        5
102
RTVSPost2010Prop44ColorRGB
 90
      255
102
RTVSPost2010PropOp44
 70
     1
102
RTVSPost2010Prop45
280
     0
102
RTVSPost2010PropOp45
 70
     1
102
RTVSPost2010Prop46
 90
       50
102
RTVSPost2010PropOp46
 70
     1
102
RTVSPost2010Prop47
 90
       50
102
RTVSPost2010PropOp47
 70
     1
102
RTVSPost2010Prop48
 90
       50
102
RTVSPost2010PropOp48
 70
     1
102
RTVSPost2010Prop49
280
     0
102
RTVSPost2010PropOp49
 70
     1
102
RTVSPost2010Prop50
 90
       50
102
RTVSPost2010PropOp50
 70
     1
102
RTVSPost2010Prop51ColorIndex
 90
      256
102
RTVSPost2010Prop51ColorRGB
 90
-16777216
102
RTVSPost2010PropOp51
 70
     0
102
RTVSPost2010Prop52
140
1.0
102
RTVSPost2010PropOp52
 70
     0
102
RTVSPost2010Prop53
 90
        2
102
RTVSPost2010PropOp53
 70
     1
102
RTVSPost2010Prop54
  1
strokes_ogs.tif
102
RTVSPost2010PropOp54
 70
     1
102
RTVSPost2010Prop55
280
     0
102
RTVSPost2010PropOp55
 70
     1
102
RTVSPost2010Prop56
140
1.0
102
RTVSPost2010PropOp56
 70
     1
102
RTVSPost2010Prop57
140
1.0
102
RTVSPost2010PropOp57
 70
     1
  0
XRECORD
  5
364
102
{ACAD_REACTORS
330
363
102
}
330
363
100
AcDbXrecord
280
     1
102
RTVSPropertyOp0
 70
     1
102
RTVSPropertyOp1
 70
     1
102
RTVSPropertyOp2
 70
     1
102
RTVSPropertyOp3
 70
     1
102
RTVSPropertyOp4
 70
     1
102
RTVSPropertyOp5
 70
     1
102
RTVSPropertyOp6
 70
     1
102
RTVSPropertyOp7
 70
     1
102
RTVSPropertyOp8
 70
     1
102
RTVSPropertyOp9
 70
     1
102
RTVSPropertyOp10
 70
     1
102
RTVSPropertyOp11
 70
     1
102
RTVSPropertyOp12
 70
     1
102
RTVSPropertyOp13
 70
     1
102
RTVSPropertyOp14
 70
     1
102
RTVSPropertyOp15
 70
     1
102
RTVSPropertyOp16
 70
     1
102
RTVSPropertyOp17
 70
     1
102
RTVSPropertyOp18
 70
     1
102
RTVSPropertyOp19
 70
     1
102
RTVSPropertyOp20
 70
     1
102
RTVSPropertyOp21
 70
     1
102
RTVSPropertyOp22
 70
     1
102
RTVSPropertyOp23
 70
     1
102
RTVSPropertyOp24
 70
     1
102
RTVSPropertyOp25
 70
     1
102
RTVSPropertyOp26
 70
     1
102
RTVSPropertyOp27
 70
     1
102
RTVSPropertyOp28
 70
     1
102
RTVSPropertyOp29
 70
     1
102
RTVSPropertyOp30
 70
     1
102
RTVSPropertyOp31
 70
     1
102
RTVSPropertyOp32
 70
     1
102
RTVSPropertyOp33
 70
     1
102
RTVSPropertyOp34
 70
     1
102
RTVSPropertyOp35
 70
     1
102
RTVSPropertyOp36
 70
     1
102
RTVSPropertyOp37
 70
     1
102
RTVSPropertyOp38
 70
     1
102
RTVSPropertyOp39
 70
     1
102
RTVSPropertyOp40
 70
     1
102
RTVSPropertyOp41
 70
     1
102
RTVSPropertyOp42
 70
     1
102
RTVSPropertyOp43
 70
     1
102
RTVSPropertyOp44
 70
     1
102
RTVSPropertyOp45
 70
     1
102
RTVSPropertyOp46
 70
     1
102
RTVSPropertyOp47
 70
     1
102
RTVSPropertyOp48
 70
     1
102
RTVSPropertyOp49
 70
     1
102
RTVSPropertyOp50
 70
     1
102
RTVSPropertyOp51
 70
     0
102
RTVSPropertyOp52
 70
     0
102
RTVSPropertyOp53
 70
     1
102
RTVSPropertyOp54
 70
     1
102
RTVSPropertyOp55
 70
     1
102
RTVSPropertyOp56
 70
     1
102
RTVSPropertyOp57
 70
     1
102
RTVSPost2010Prop28
280
     0
102
RTVSPost2010PropOp28
 70
     1
102
RTVSPost2010Prop29
280
     1
102
RTVSPost2010PropOp29
 70
     1
102
RTVSPost2010Prop30
280
     1
102
RTVSPost2010PropOp30
 70
     1
102
RTVSPost2010Prop31
280
     0
102
RTVSPost2010PropOp31
 70
     1
102
RTVSPost2010Prop32
280
     0
102
RTVSPost2010PropOp32
 70
     1
102
RTVSPost2010Prop33
280
     0
102
RTVSPost2010PropOp33
 70
     1
102
RTVSPost2010Prop34
280
     0
102
RTVSPost2010PropOp34
 70
     1
102
RTVSPost2010Prop35
280
     0
102
RTVSPost2010PropOp35
 70
     1
102
RTVSPost2010Prop36
280
     0
102
RTVSPost2010PropOp36
 70
     1
102
RTVSPost2010Prop37
 90
       50
102
RTVSPost2010PropOp37
 70
     1
102
RTVSPost2010Prop38
140
0.0
102
RTVSPost2010PropOp38
 70
     1
102
RTVSPost2010Prop39
140
1.0
102
RTVSPost2010PropOp39
 70
     1
102
RTVSPost2010Prop40
 90
        0
102
RTVSPost2010PropOp40
 70
     1
102
RTVSPost2010Prop41ColorIndex
 90
       18
102
RTVSPost2010Prop41ColorRGB
 90
        0
102
RTVSPost2010PropOp41
 70
     1
102
RTVSPost2010Prop42
 90
       50
102
RTVSPost2010PropOp42
 70
     1
102
RTVSPost2010Prop43
 90
        3
102
RTVSPost2010PropOp43
 70
     1
102
RTVSPost2010Prop44ColorIndex
 90
        5
102
RTVSPost2010Prop44ColorRGB
 90
      255
102
RTVSPost2010PropOp44
 70
     1
102
RTVSPost2010Prop45
280
     0
102
RTVSPost2010PropOp45
 70
     1
102
RTVSPost2010Prop46
 90
       50
102
RTVSPost2010PropOp46
 70
     1
102
RTVSPost2010Prop47
 90
       50
102
RTVSPost2010PropOp47
 70
     1
102
RTVSPost2010Prop48
 90
       50
102
RTVSPost2010PropOp48
 70
     1
102
RTVSPost2010Prop49
280
     0
102
RTVSPost2010PropOp49
 70
     1
102
RTVSPost2010Prop50
 90
       50
102
RTVSPost2010PropOp50
 70
     1
102
RTVSPost2010Prop51ColorIndex
 90
      256
102
RTVSPost2010Prop51ColorRGB
 90
-16777216
102
RTVSPost2010PropOp51
 70
     0
102
RTVSPost2010Prop52
140
1.0
102
RTVSPost2010PropOp52
 70
     0
102
RTVSPost2010Prop53
 90
        2
102
RTVSPost2010PropOp53
 70
     1
102
RTVSPost2010Prop54
  1
strokes_ogs.tif
102
RTVSPost2010PropOp54
 70
     1
102
RTVSPost2010Prop55
280
     0
102
RTVSPost2010PropOp55
 70
     1
102
RTVSPost2010Prop56
140
1.0
102
RTVSPost2010PropOp56
 70
     1
102
RTVSPost2010Prop57
140
1.0
102
RTVSPost2010PropOp57
 70
     1
  0
XRECORD
  5
36C
102
{ACAD_REACTORS
330
36B
102
}
330
36B
100
AcDbXrecord
280
     1
102
RTVSPropertyOp0
 70
     1
102
RTVSPropertyOp1
 70
     1
102
RTVSPropertyOp2
 70
     1
102
RTVSPropertyOp3
 70
     1
102
RTVSPropertyOp4
 70
     1
102
RTVSPropertyOp5
 70
     1
102
RTVSPropertyOp6
 70
     1
102
RTVSPropertyOp7
 70
     1
102
RTVSPropertyOp8
 70
     1
102
RTVSPropertyOp9
 70
     1
102
RTVSPropertyOp10
 70
     1
102
RTVSPropertyOp11
 70
     1
102
RTVSPropertyOp12
 70
     1
102
RTVSPropertyOp13
 70
     1
102
RTVSPropertyOp14
 70
     1
102
RTVSPropertyOp15
 70
     1
102
RTVSPropertyOp16
 70
     1
102
RTVSPropertyOp17
 70
     1
102
RTVSPropertyOp18
 70
     1
102
RTVSPropertyOp19
 70
     1
102
RTVSPropertyOp20
 70
     1
102
RTVSPropertyOp21
 70
     1
102
RTVSPropertyOp22
 70
     1
102
RTVSPropertyOp23
 70
     1
102
RTVSPropertyOp24
 70
     1
102
RTVSPropertyOp25
 70
     1
102
RTVSPropertyOp26
 70
     1
102
RTVSPropertyOp27
 70
     1
102
RTVSPropertyOp28
 70
     1
102
RTVSPropertyOp29
 70
     1
102
RTVSPropertyOp30
 70
     1
102
RTVSPropertyOp31
 70
     1
102
RTVSPropertyOp32
 70
     1
102
RTVSPropertyOp33
 70
     1
102
RTVSPropertyOp34
 70
     1
102
RTVSPropertyOp35
 70
     1
102
RTVSPropertyOp36
 70
     1
102
RTVSPropertyOp37
 70
     1
102
RTVSPropertyOp38
 70
     1
102
RTVSPropertyOp39
 70
     1
102
RTVSPropertyOp40
 70
     1
102
RTVSPropertyOp41
 70
     1
102
RTVSPropertyOp42
 70
     1
102
RTVSPropertyOp43
 70
     1
102
RTVSPropertyOp44
 70
     1
102
RTVSPropertyOp45
 70
     1
102
RTVSPropertyOp46
 70
     1
102
RTVSPropertyOp47
 70
     1
102
RTVSPropertyOp48
 70
     1
102
RTVSPropertyOp49
 70
     1
102
RTVSPropertyOp50
 70
     1
102
RTVSPropertyOp51
 70
     0
102
RTVSPropertyOp52
 70
     0
102
RTVSPropertyOp53
 70
     1
102
RTVSPropertyOp54
 70
     1
102
RTVSPropertyOp55
 70
     1
102
RTVSPropertyOp56
 70
     1
102
RTVSPropertyOp57
 70
     1
102
RTVSPost2010Prop28
280
     0
102
RTVSPost2010PropOp28
 70
     1
102
RTVSPost2010Prop29
280
     1
102
RTVSPost2010PropOp29
 70
     1
102
RTVSPost2010Prop30
280
     1
102
RTVSPost2010PropOp30
 70
     1
102
RTVSPost2010Prop31
280
     0
102
RTVSPost2010PropOp31
 70
     1
102
RTVSPost2010Prop32
280
     0
102
RTVSPost2010PropOp32
 70
     1
102
RTVSPost2010Prop33
280
     0
102
RTVSPost2010PropOp33
 70
     1
102
RTVSPost2010Prop34
280
     0
102
RTVSPost2010PropOp34
 70
     1
102
RTVSPost2010Prop35
280
     0
102
RTVSPost2010PropOp35
 70
     1
102
RTVSPost2010Prop36
280
     0
102
RTVSPost2010PropOp36
 70
     1
102
RTVSPost2010Prop37
 90
       50
102
RTVSPost2010PropOp37
 70
     1
102
RTVSPost2010Prop38
140
0.0
102
RTVSPost2010PropOp38
 70
     1
102
RTVSPost2010Prop39
140
1.0
102
RTVSPost2010PropOp39
 70
     1
102
RTVSPost2010Prop40
 90
        0
102
RTVSPost2010PropOp40
 70
     1
102
RTVSPost2010Prop41ColorIndex
 90
       18
102
RTVSPost2010Prop41ColorRGB
 90
        0
102
RTVSPost2010PropOp41
 70
     1
102
RTVSPost2010Prop42
 90
       50
102
RTVSPost2010PropOp42
 70
     1
102
RTVSPost2010Prop43
 90
        3
102
RTVSPost2010PropOp43
 70
     1
102
RTVSPost2010Prop44ColorIndex
 90
        5
102
RTVSPost2010Prop44ColorRGB
 90
      255
102
RTVSPost2010PropOp44
 70
     1
102
RTVSPost2010Prop45
280
     0
102
RTVSPost2010PropOp45
 70
     1
102
RTVSPost2010Prop46
 90
       50
102
RTVSPost2010PropOp46
 70
     1
102
RTVSPost2010Prop47
 90
       50
102
RTVSPost2010PropOp47
 70
     1
102
RTVSPost2010Prop48
 90
       50
102
RTVSPost2010PropOp48
 70
     1
102
RTVSPost2010Prop49
280
     0
102
RTVSPost2010PropOp49
 70
     1
102
RTVSPost2010Prop50
 90
       50
102
RTVSPost2010PropOp50
 70
     1
102
RTVSPost2010Prop51ColorIndex
 90
      256
102
RTVSPost2010Prop51ColorRGB
 90
-16777216
102
RTVSPost2010PropOp51
 70
     0
102
RTVSPost2010Prop52
140
1.0
102
RTVSPost2010PropOp52
 70
     0
102
RTVSPost2010Prop53
 90
        2
102
RTVSPost2010PropOp53
 70
     1
102
RTVSPost2010Prop54
  1
strokes_ogs.tif
102
RTVSPost2010PropOp54
 70
     1
102
RTVSPost2010Prop55
280
     0
102
RTVSPost2010PropOp55
 70
     1
102
RTVSPost2010Prop56
140
1.0
102
RTVSPost2010PropOp56
 70
     1
102
RTVSPost2010Prop57
140
1.0
102
RTVSPost2010PropOp57
 70
     1
  0
XRECORD
  5
374
102
{ACAD_REACTORS
330
373
102
}
330
373
100
AcDbXrecord
280
     1
102
RTVSPropertyOp0
 70
     1
102
RTVSPropertyOp1
 70
     1
102
RTVSPropertyOp2
 70
     1
102
RTVSPropertyOp3
 70
     1
102
RTVSPropertyOp4
 70
     1
102
RTVSPropertyOp5
 70
     1
102
RTVSPropertyOp6
 70
     1
102
RTVSPropertyOp7
 70
     1
102
RTVSPropertyOp8
 70
     1
102
RTVSPropertyOp9
 70
     1
102
RTVSPropertyOp10
 70
     1
102
RTVSPropertyOp11
 70
     1
102
RTVSPropertyOp12
 70
     1
102
RTVSPropertyOp13
 70
     1
102
RTVSPropertyOp14
 70
     1
102
RTVSPropertyOp15
 70
     1
102
RTVSPropertyOp16
 70
     1
102
RTVSPropertyOp17
 70
     1
102
RTVSPropertyOp18
 70
     1
102
RTVSPropertyOp19
 70
     1
102
RTVSPropertyOp20
 70
     1
102
RTVSPropertyOp21
 70
     1
102
RTVSPropertyOp22
 70
     1
102
RTVSPropertyOp23
 70
     1
102
RTVSPropertyOp24
 70
     1
102
RTVSPropertyOp25
 70
     1
102
RTVSPropertyOp26
 70
     1
102
RTVSPropertyOp27
 70
     1
102
RTVSPropertyOp28
 70
     1
102
RTVSPropertyOp29
 70
     1
102
RTVSPropertyOp30
 70
     1
102
RTVSPropertyOp31
 70
     1
102
RTVSPropertyOp32
 70
     1
102
RTVSPropertyOp33
 70
     1
102
RTVSPropertyOp34
 70
     1
102
RTVSPropertyOp35
 70
     1
102
RTVSPropertyOp36
 70
     1
102
RTVSPropertyOp37
 70
     1
102
RTVSPropertyOp38
 70
     1
102
RTVSPropertyOp39
 70
     1
102
RTVSPropertyOp40
 70
     1
102
RTVSPropertyOp41
 70
     1
102
RTVSPropertyOp42
 70
     1
102
RTVSPropertyOp43
 70
     1
102
RTVSPropertyOp44
 70
     1
102
RTVSPropertyOp45
 70
     1
102
RTVSPropertyOp46
 70
     1
102
RTVSPropertyOp47
 70
     1
102
RTVSPropertyOp48
 70
     1
102
RTVSPropertyOp49
 70
     1
102
RTVSPropertyOp50
 70
     1
102
RTVSPropertyOp51
 70
     0
102
RTVSPropertyOp52
 70
     0
102
RTVSPropertyOp53
 70
     1
102
RTVSPropertyOp54
 70
     1
102
RTVSPropertyOp55
 70
     1
102
RTVSPropertyOp56
 70
     1
102
RTVSPropertyOp57
 70
     1
102
RTVSPost2010Prop28
280
     0
102
RTVSPost2010PropOp28
 70
     1
102
RTVSPost2010Prop29
280
     1
102
RTVSPost2010PropOp29
 70
     1
102
RTVSPost2010Prop30
280
     1
102
RTVSPost2010PropOp30
 70
     1
102
RTVSPost2010Prop31
280
     0
102
RTVSPost2010PropOp31
 70
     1
102
RTVSPost2010Prop32
280
     0
102
RTVSPost2010PropOp32
 70
     1
102
RTVSPost2010Prop33
280
     0
102
RTVSPost2010PropOp33
 70
     1
102
RTVSPost2010Prop34
280
     0
102
RTVSPost2010PropOp34
 70
     1
102
RTVSPost2010Prop35
280
     0
102
RTVSPost2010PropOp35
 70
     1
102
RTVSPost2010Prop36
280
     0
102
RTVSPost2010PropOp36
 70
     1
102
RTVSPost2010Prop37
 90
       50
102
RTVSPost2010PropOp37
 70
     1
102
RTVSPost2010Prop38
140
0.0
102
RTVSPost2010PropOp38
 70
     1
102
RTVSPost2010Prop39
140
1.0
102
RTVSPost2010PropOp39
 70
     1
102
RTVSPost2010Prop40
 90
        0
102
RTVSPost2010PropOp40
 70
     1
102
RTVSPost2010Prop41ColorIndex
 90
       18
102
RTVSPost2010Prop41ColorRGB
 90
        0
102
RTVSPost2010PropOp41
 70
     1
102
RTVSPost2010Prop42
 90
       50
102
RTVSPost2010PropOp42
 70
     1
102
RTVSPost2010Prop43
 90
        3
102
RTVSPost2010PropOp43
 70
     1
102
RTVSPost2010Prop44ColorIndex
 90
        5
102
RTVSPost2010Prop44ColorRGB
 90
      255
102
RTVSPost2010PropOp44
 70
     1
102
RTVSPost2010Prop45
280
     0
102
RTVSPost2010PropOp45
 70
     1
102
RTVSPost2010Prop46
 90
       50
102
RTVSPost2010PropOp46
 70
     1
102
RTVSPost2010Prop47
 90
       50
102
RTVSPost2010PropOp47
 70
     1
102
RTVSPost2010Prop48
 90
       50
102
RTVSPost2010PropOp48
 70
     1
102
RTVSPost2010Prop49
280
     0
102
RTVSPost2010PropOp49
 70
     1
102
RTVSPost2010Prop50
 90
       50
102
RTVSPost2010PropOp50
 70
     1
102
RTVSPost2010Prop51ColorIndex
 90
      256
102
RTVSPost2010Prop51ColorRGB
 90
-16777216
102
RTVSPost2010PropOp51
 70
     0
102
RTVSPost2010Prop52
140
1.0
102
RTVSPost2010PropOp52
 70
     0
102
RTVSPost2010Prop53
 90
        2
102
RTVSPost2010PropOp53
 70
     1
102
RTVSPost2010Prop54
  1
strokes_ogs.tif
102
RTVSPost2010PropOp54
 70
     1
102
RTVSPost2010Prop55
280
     0
102
RTVSPost2010PropOp55
 70
     1
102
RTVSPost2010Prop56
140
1.0
102
RTVSPost2010PropOp56
 70
     1
102
RTVSPost2010Prop57
140
1.0
102
RTVSPost2010PropOp57
 70
     1
  0
XRECORD
  5
368
102
{ACAD_REACTORS
330
367
102
}
330
367
100
AcDbXrecord
280
     1
102
RTVSPropertyOp0
 70
     1
102
RTVSPropertyOp1
 70
     1
102
RTVSPropertyOp2
 70
     1
102
RTVSPropertyOp3
 70
     1
102
RTVSPropertyOp4
 70
     1
102
RTVSPropertyOp5
 70
     1
102
RTVSPropertyOp6
 70
     1
102
RTVSPropertyOp7
 70
     1
102
RTVSPropertyOp8
 70
     1
102
RTVSPropertyOp9
 70
     1
102
RTVSPropertyOp10
 70
     1
102
RTVSPropertyOp11
 70
     1
102
RTVSPropertyOp12
 70
     1
102
RTVSPropertyOp13
 70
     1
102
RTVSPropertyOp14
 70
     1
102
RTVSPropertyOp15
 70
     1
102
RTVSPropertyOp16
 70
     1
102
RTVSPropertyOp17
 70
     1
102
RTVSPropertyOp18
 70
     1
102
RTVSPropertyOp19
 70
     1
102
RTVSPropertyOp20
 70
     1
102
RTVSPropertyOp21
 70
     1
102
RTVSPropertyOp22
 70
     1
102
RTVSPropertyOp23
 70
     1
102
RTVSPropertyOp24
 70
     1
102
RTVSPropertyOp25
 70
     1
102
RTVSPropertyOp26
 70
     1
102
RTVSPropertyOp27
 70
     1
102
RTVSPropertyOp28
 70
     1
102
RTVSPropertyOp29
 70
     1
102
RTVSPropertyOp30
 70
     1
102
RTVSPropertyOp31
 70
     1
102
RTVSPropertyOp32
 70
     1
102
RTVSPropertyOp33
 70
     1
102
RTVSPropertyOp34
 70
     1
102
RTVSPropertyOp35
 70
     1
102
RTVSPropertyOp36
 70
     1
102
RTVSPropertyOp37
 70
     1
102
RTVSPropertyOp38
 70
     1
102
RTVSPropertyOp39
 70
     1
102
RTVSPropertyOp40
 70
     1
102
RTVSPropertyOp41
 70
     1
102
RTVSPropertyOp42
 70
     1
102
RTVSPropertyOp43
 70
     1
102
RTVSPropertyOp44
 70
     1
102
RTVSPropertyOp45
 70
     1
102
RTVSPropertyOp46
 70
     1
102
RTVSPropertyOp47
 70
     1
102
RTVSPropertyOp48
 70
     1
102
RTVSPropertyOp49
 70
     1
102
RTVSPropertyOp50
 70
     1
102
RTVSPropertyOp51
 70
     0
102
RTVSPropertyOp52
 70
     0
102
RTVSPropertyOp53
 70
     1
102
RTVSPropertyOp54
 70
     1
102
RTVSPropertyOp55
 70
     1
102
RTVSPropertyOp56
 70
     1
102
RTVSPropertyOp57
 70
     1
102
RTVSPost2010Prop28
280
     0
102
RTVSPost2010PropOp28
 70
     1
102
RTVSPost2010Prop29
280
     1
102
RTVSPost2010PropOp29
 70
     1
102
RTVSPost2010Prop30
280
     1
102
RTVSPost2010PropOp30
 70
     1
102
RTVSPost2010Prop31
280
     0
102
RTVSPost2010PropOp31
 70
     1
102
RTVSPost2010Prop32
280
     0
102
RTVSPost2010PropOp32
 70
     1
102
RTVSPost2010Prop33
280
     0
102
RTVSPost2010PropOp33
 70
     1
102
RTVSPost2010Prop34
280
     0
102
RTVSPost2010PropOp34
 70
     1
102
RTVSPost2010Prop35
280
     0
102
RTVSPost2010PropOp35
 70
     1
102
RTVSPost2010Prop36
280
     0
102
RTVSPost2010PropOp36
 70
     1
102
RTVSPost2010Prop37
 90
       50
102
RTVSPost2010PropOp37
 70
     1
102
RTVSPost2010Prop38
140
0.0
102
RTVSPost2010PropOp38
 70
     1
102
RTVSPost2010Prop39
140
1.0
102
RTVSPost2010PropOp39
 70
     1
102
RTVSPost2010Prop40
 90
        0
102
RTVSPost2010PropOp40
 70
     1
102
RTVSPost2010Prop41ColorIndex
 90
       18
102
RTVSPost2010Prop41ColorRGB
 90
        0
102
RTVSPost2010PropOp41
 70
     1
102
RTVSPost2010Prop42
 90
       50
102
RTVSPost2010PropOp42
 70
     1
102
RTVSPost2010Prop43
 90
        3
102
RTVSPost2010PropOp43
 70
     1
102
RTVSPost2010Prop44ColorIndex
 90
        5
102
RTVSPost2010Prop44ColorRGB
 90
      255
102
RTVSPost2010PropOp44
 70
     1
102
RTVSPost2010Prop45
280
     0
102
RTVSPost2010PropOp45
 70
     1
102
RTVSPost2010Prop46
 90
       50
102
RTVSPost2010PropOp46
 70
     1
102
RTVSPost2010Prop47
 90
       50
102
RTVSPost2010PropOp47
 70
     1
102
RTVSPost2010Prop48
 90
       50
102
RTVSPost2010PropOp48
 70
     1
102
RTVSPost2010Prop49
280
     0
102
RTVSPost2010PropOp49
 70
     1
102
RTVSPost2010Prop50
 90
       50
102
RTVSPost2010PropOp50
 70
     1
102
RTVSPost2010Prop51ColorIndex
 90
      256
102
RTVSPost2010Prop51ColorRGB
 90
-16777216
102
RTVSPost2010PropOp51
 70
     0
102
RTVSPost2010Prop52
140
1.0
102
RTVSPost2010PropOp52
 70
     0
102
RTVSPost2010Prop53
 90
        2
102
RTVSPost2010PropOp53
 70
     1
102
RTVSPost2010Prop54
  1
strokes_ogs.tif
102
RTVSPost2010PropOp54
 70
     1
102
RTVSPost2010Prop55
280
     0
102
RTVSPost2010PropOp55
 70
     1
102
RTVSPost2010Prop56
140
1.0
102
RTVSPost2010PropOp56
 70
     1
102
RTVSPost2010Prop57
140
1.0
102
RTVSPost2010PropOp57
 70
     1
  0
XRECORD
  5
36A
102
{ACAD_REACTORS
330
369
102
}
330
369
100
AcDbXrecord
280
     1
102
RTVSPropertyOp0
 70
     1
102
RTVSPropertyOp1
 70
     1
102
RTVSPropertyOp2
 70
     1
102
RTVSPropertyOp3
 70
     1
102
RTVSPropertyOp4
 70
     1
102
RTVSPropertyOp5
 70
     1
102
RTVSPropertyOp6
 70
     1
102
RTVSPropertyOp7
 70
     1
102
RTVSPropertyOp8
 70
     1
102
RTVSPropertyOp9
 70
     1
102
RTVSPropertyOp10
 70
     1
102
RTVSPropertyOp11
 70
     1
102
RTVSPropertyOp12
 70
     1
102
RTVSPropertyOp13
 70
     1
102
RTVSPropertyOp14
 70
     1
102
RTVSPropertyOp15
 70
     1
102
RTVSPropertyOp16
 70
     1
102
RTVSPropertyOp17
 70
     1
102
RTVSPropertyOp18
 70
     1
102
RTVSPropertyOp19
 70
     1
102
RTVSPropertyOp20
 70
     1
102
RTVSPropertyOp21
 70
     1
102
RTVSPropertyOp22
 70
     1
102
RTVSPropertyOp23
 70
     1
102
RTVSPropertyOp24
 70
     1
102
RTVSPropertyOp25
 70
     1
102
RTVSPropertyOp26
 70
     1
102
RTVSPropertyOp27
 70
     1
102
RTVSPropertyOp28
 70
     1
102
RTVSPropertyOp29
 70
     1
102
RTVSPropertyOp30
 70
     1
102
RTVSPropertyOp31
 70
     1
102
RTVSPropertyOp32
 70
     1
102
RTVSPropertyOp33
 70
     1
102
RTVSPropertyOp34
 70
     1
102
RTVSPropertyOp35
 70
     1
102
RTVSPropertyOp36
 70
     1
102
RTVSPropertyOp37
 70
     1
102
RTVSPropertyOp38
 70
     1
102
RTVSPropertyOp39
 70
     1
102
RTVSPropertyOp40
 70
     1
102
RTVSPropertyOp41
 70
     1
102
RTVSPropertyOp42
 70
     1
102
RTVSPropertyOp43
 70
     1
102
RTVSPropertyOp44
 70
     1
102
RTVSPropertyOp45
 70
     1
102
RTVSPropertyOp46
 70
     1
102
RTVSPropertyOp47
 70
     1
102
RTVSPropertyOp48
 70
     1
102
RTVSPropertyOp49
 70
     1
102
RTVSPropertyOp50
 70
     1
102
RTVSPropertyOp51
 70
     0
102
RTVSPropertyOp52
 70
     0
102
RTVSPropertyOp53
 70
     1
102
RTVSPropertyOp54
 70
     1
102
RTVSPropertyOp55
 70
     1
102
RTVSPropertyOp56
 70
     1
102
RTVSPropertyOp57
 70
     1
102
RTVSPost2010Prop28
280
     0
102
RTVSPost2010PropOp28
 70
     1
102
RTVSPost2010Prop29
280
     1
102
RTVSPost2010PropOp29
 70
     1
102
RTVSPost2010Prop30
280
     1
102
RTVSPost2010PropOp30
 70
     1
102
RTVSPost2010Prop31
280
     0
102
RTVSPost2010PropOp31
 70
     1
102
RTVSPost2010Prop32
280
     0
102
RTVSPost2010PropOp32
 70
     1
102
RTVSPost2010Prop33
280
     0
102
RTVSPost2010PropOp33
 70
     1
102
RTVSPost2010Prop34
280
     0
102
RTVSPost2010PropOp34
 70
     1
102
RTVSPost2010Prop35
280
     0
102
RTVSPost2010PropOp35
 70
     1
102
RTVSPost2010Prop36
280
     0
102
RTVSPost2010PropOp36
 70
     1
102
RTVSPost2010Prop37
 90
       50
102
RTVSPost2010PropOp37
 70
     1
102
RTVSPost2010Prop38
140
0.0
102
RTVSPost2010PropOp38
 70
     1
102
RTVSPost2010Prop39
140
1.0
102
RTVSPost2010PropOp39
 70
     1
102
RTVSPost2010Prop40
 90
        0
102
RTVSPost2010PropOp40
 70
     1
102
RTVSPost2010Prop41ColorIndex
 90
       18
102
RTVSPost2010Prop41ColorRGB
 90
        0
102
RTVSPost2010PropOp41
 70
     1
102
RTVSPost2010Prop42
 90
       50
102
RTVSPost2010PropOp42
 70
     1
102
RTVSPost2010Prop43
 90
        3
102
RTVSPost2010PropOp43
 70
     1
102
RTVSPost2010Prop44ColorIndex
 90
        5
102
RTVSPost2010Prop44ColorRGB
 90
      255
102
RTVSPost2010PropOp44
 70
     1
102
RTVSPost2010Prop45
280
     0
102
RTVSPost2010PropOp45
 70
     1
102
RTVSPost2010Prop46
 90
       50
102
RTVSPost2010PropOp46
 70
     1
102
RTVSPost2010Prop47
 90
       50
102
RTVSPost2010PropOp47
 70
     1
102
RTVSPost2010Prop48
 90
       50
102
RTVSPost2010PropOp48
 70
     1
102
RTVSPost2010Prop49
280
     0
102
RTVSPost2010PropOp49
 70
     1
102
RTVSPost2010Prop50
 90
       50
102
RTVSPost2010PropOp50
 70
     1
102
RTVSPost2010Prop51ColorIndex
 90
      256
102
RTVSPost2010Prop51ColorRGB
 90
-16777216
102
RTVSPost2010PropOp51
 70
     0
102
RTVSPost2010Prop52
140
1.0
102
RTVSPost2010PropOp52
 70
     0
102
RTVSPost2010Prop53
 90
        2
102
RTVSPost2010PropOp53
 70
     1
102
RTVSPost2010Prop54
  1
strokes_ogs.tif
102
RTVSPost2010PropOp54
 70
     1
102
RTVSPost2010Prop55
280
     0
102
RTVSPost2010PropOp55
 70
     1
102
RTVSPost2010Prop56
140
1.0
102
RTVSPost2010PropOp56
 70
     1
102
RTVSPost2010Prop57
140
1.0
102
RTVSPost2010PropOp57
 70
     1
  0
XRECORD
  5
372
102
{ACAD_REACTORS
330
371
102
}
330
371
100
AcDbXrecord
280
     1
102
RTVSPropertyOp0
 70
     1
102
RTVSPropertyOp1
 70
     1
102
RTVSPropertyOp2
 70
     1
102
RTVSPropertyOp3
 70
     1
102
RTVSPropertyOp4
 70
     1
102
RTVSPropertyOp5
 70
     1
102
RTVSPropertyOp6
 70
     1
102
RTVSPropertyOp7
 70
     1
102
RTVSPropertyOp8
 70
     1
102
RTVSPropertyOp9
 70
     1
102
RTVSPropertyOp10
 70
     1
102
RTVSPropertyOp11
 70
     1
102
RTVSPropertyOp12
 70
     1
102
RTVSPropertyOp13
 70
     1
102
RTVSPropertyOp14
 70
     1
102
RTVSPropertyOp15
 70
     1
102
RTVSPropertyOp16
 70
     1
102
RTVSPropertyOp17
 70
     1
102
RTVSPropertyOp18
 70
     1
102
RTVSPropertyOp19
 70
     1
102
RTVSPropertyOp20
 70
     1
102
RTVSPropertyOp21
 70
     1
102
RTVSPropertyOp22
 70
     1
102
RTVSPropertyOp23
 70
     1
102
RTVSPropertyOp24
 70
     1
102
RTVSPropertyOp25
 70
     1
102
RTVSPropertyOp26
 70
     1
102
RTVSPropertyOp27
 70
     1
102
RTVSPropertyOp28
 70
     1
102
RTVSPropertyOp29
 70
     1
102
RTVSPropertyOp30
 70
     1
102
RTVSPropertyOp31
 70
     1
102
RTVSPropertyOp32
 70
     1
102
RTVSPropertyOp33
 70
     1
102
RTVSPropertyOp34
 70
     1
102
RTVSPropertyOp35
 70
     1
102
RTVSPropertyOp36
 70
     1
102
RTVSPropertyOp37
 70
     1
102
RTVSPropertyOp38
 70
     1
102
RTVSPropertyOp39
 70
     1
102
RTVSPropertyOp40
 70
     1
102
RTVSPropertyOp41
 70
     1
102
RTVSPropertyOp42
 70
     1
102
RTVSPropertyOp43
 70
     1
102
RTVSPropertyOp44
 70
     1
102
RTVSPropertyOp45
 70
     1
102
RTVSPropertyOp46
 70
     1
102
RTVSPropertyOp47
 70
     1
102
RTVSPropertyOp48
 70
     1
102
RTVSPropertyOp49
 70
     1
102
RTVSPropertyOp50
 70
     1
102
RTVSPropertyOp51
 70
     0
102
RTVSPropertyOp52
 70
     0
102
RTVSPropertyOp53
 70
     1
102
RTVSPropertyOp54
 70
     1
102
RTVSPropertyOp55
 70
     1
102
RTVSPropertyOp56
 70
     1
102
RTVSPropertyOp57
 70
     1
102
RTVSPost2010Prop28
280
     0
102
RTVSPost2010PropOp28
 70
     1
102
RTVSPost2010Prop29
280
     1
102
RTVSPost2010PropOp29
 70
     1
102
RTVSPost2010Prop30
280
     1
102
RTVSPost2010PropOp30
 70
     1
102
RTVSPost2010Prop31
280
     0
102
RTVSPost2010PropOp31
 70
     1
102
RTVSPost2010Prop32
280
     0
102
RTVSPost2010PropOp32
 70
     1
102
RTVSPost2010Prop33
280
     0
102
RTVSPost2010PropOp33
 70
     1
102
RTVSPost2010Prop34
280
     0
102
RTVSPost2010PropOp34
 70
     1
102
RTVSPost2010Prop35
280
     0
102
RTVSPost2010PropOp35
 70
     1
102
RTVSPost2010Prop36
280
     0
102
RTVSPost2010PropOp36
 70
     1
102
RTVSPost2010Prop37
 90
       50
102
RTVSPost2010PropOp37
 70
     1
102
RTVSPost2010Prop38
140
0.0
102
RTVSPost2010PropOp38
 70
     1
102
RTVSPost2010Prop39
140
1.0
102
RTVSPost2010PropOp39
 70
     1
102
RTVSPost2010Prop40
 90
        0
102
RTVSPost2010PropOp40
 70
     1
102
RTVSPost2010Prop41ColorIndex
 90
       18
102
RTVSPost2010Prop41ColorRGB
 90
        0
102
RTVSPost2010PropOp41
 70
     1
102
RTVSPost2010Prop42
 90
       50
102
RTVSPost2010PropOp42
 70
     1
102
RTVSPost2010Prop43
 90
        3
102
RTVSPost2010PropOp43
 70
     1
102
RTVSPost2010Prop44ColorIndex
 90
        5
102
RTVSPost2010Prop44ColorRGB
 90
      255
102
RTVSPost2010PropOp44
 70
     1
102
RTVSPost2010Prop45
280
     0
102
RTVSPost2010PropOp45
 70
     1
102
RTVSPost2010Prop46
 90
       50
102
RTVSPost2010PropOp46
 70
     1
102
RTVSPost2010Prop47
 90
       50
102
RTVSPost2010PropOp47
 70
     1
102
RTVSPost2010Prop48
 90
       50
102
RTVSPost2010PropOp48
 70
     1
102
RTVSPost2010Prop49
280
     0
102
RTVSPost2010PropOp49
 70
     1
102
RTVSPost2010Prop50
 90
       50
102
RTVSPost2010PropOp50
 70
     1
102
RTVSPost2010Prop51ColorIndex
 90
      256
102
RTVSPost2010Prop51ColorRGB
 90
-16777216
102
RTVSPost2010PropOp51
 70
     0
102
RTVSPost2010Prop52
140
1.0
102
RTVSPost2010PropOp52
 70
     0
102
RTVSPost2010Prop53
 90
        2
102
RTVSPost2010PropOp53
 70
     1
102
RTVSPost2010Prop54
  1
strokes_ogs.tif
102
RTVSPost2010PropOp54
 70
     1
102
RTVSPost2010Prop55
280
     0
102
RTVSPost2010PropOp55
 70
     1
102
RTVSPost2010Prop56
140
1.0
102
RTVSPost2010PropOp56
 70
     1
102
RTVSPost2010Prop57
140
1.0
102
RTVSPost2010PropOp57
 70
     1
  0
XRECORD
  5
356
102
{ACAD_REACTORS
330
355
102
}
330
355
100
AcDbXrecord
280
     1
102
RTVSPropertyOp0
 70
     1
102
RTVSPropertyOp1
 70
     1
102
RTVSPropertyOp2
 70
     1
102
RTVSPropertyOp3
 70
     1
102
RTVSPropertyOp4
 70
     1
102
RTVSPropertyOp5
 70
     1
102
RTVSPropertyOp6
 70
     1
102
RTVSPropertyOp7
 70
     1
102
RTVSPropertyOp8
 70
     1
102
RTVSPropertyOp9
 70
     1
102
RTVSPropertyOp10
 70
     1
102
RTVSPropertyOp11
 70
     1
102
RTVSPropertyOp12
 70
     1
102
RTVSPropertyOp13
 70
     1
102
RTVSPropertyOp14
 70
     1
102
RTVSPropertyOp15
 70
     1
102
RTVSPropertyOp16
 70
     1
102
RTVSPropertyOp17
 70
     1
102
RTVSPropertyOp18
 70
     1
102
RTVSPropertyOp19
 70
     1
102
RTVSPropertyOp20
 70
     1
102
RTVSPropertyOp21
 70
     1
102
RTVSPropertyOp22
 70
     1
102
RTVSPropertyOp23
 70
     1
102
RTVSPropertyOp24
 70
     1
102
RTVSPropertyOp25
 70
     1
102
RTVSPropertyOp26
 70
     1
102
RTVSPropertyOp27
 70
     1
102
RTVSPropertyOp28
 70
     1
102
RTVSPropertyOp29
 70
     1
102
RTVSPropertyOp30
 70
     1
102
RTVSPropertyOp31
 70
     1
102
RTVSPropertyOp32
 70
     1
102
RTVSPropertyOp33
 70
     1
102
RTVSPropertyOp34
 70
     1
102
RTVSPropertyOp35
 70
     1
102
RTVSPropertyOp36
 70
     1
102
RTVSPropertyOp37
 70
     1
102
RTVSPropertyOp38
 70
     1
102
RTVSPropertyOp39
 70
     1
102
RTVSPropertyOp40
 70
     1
102
RTVSPropertyOp41
 70
     1
102
RTVSPropertyOp42
 70
     1
102
RTVSPropertyOp43
 70
     1
102
RTVSPropertyOp44
 70
     1
102
RTVSPropertyOp45
 70
     1
102
RTVSPropertyOp46
 70
     1
102
RTVSPropertyOp47
 70
     1
102
RTVSPropertyOp48
 70
     1
102
RTVSPropertyOp49
 70
     1
102
RTVSPropertyOp50
 70
     1
102
RTVSPropertyOp51
 70
     0
102
RTVSPropertyOp52
 70
     0
102
RTVSPropertyOp53
 70
     1
102
RTVSPropertyOp54
 70
     1
102
RTVSPropertyOp55
 70
     1
102
RTVSPropertyOp56
 70
     1
102
RTVSPropertyOp57
 70
     1
102
RTVSPost2010Prop28
280
     0
102
RTVSPost2010PropOp28
 70
     1
102
RTVSPost2010Prop29
280
     1
102
RTVSPost2010PropOp29
 70
     1
102
RTVSPost2010Prop30
280
     1
102
RTVSPost2010PropOp30
 70
     1
102
RTVSPost2010Prop31
280
     0
102
RTVSPost2010PropOp31
 70
     1
102
RTVSPost2010Prop32
280
     0
102
RTVSPost2010PropOp32
 70
     1
102
RTVSPost2010Prop33
280
     0
102
RTVSPost2010PropOp33
 70
     1
102
RTVSPost2010Prop34
280
     0
102
RTVSPost2010PropOp34
 70
     1
102
RTVSPost2010Prop35
280
     0
102
RTVSPost2010PropOp35
 70
     1
102
RTVSPost2010Prop36
280
     0
102
RTVSPost2010PropOp36
 70
     1
102
RTVSPost2010Prop37
 90
       50
102
RTVSPost2010PropOp37
 70
     1
102
RTVSPost2010Prop38
140
0.0
102
RTVSPost2010PropOp38
 70
     1
102
RTVSPost2010Prop39
140
1.0
102
RTVSPost2010PropOp39
 70
     1
102
RTVSPost2010Prop40
 90
        0
102
RTVSPost2010PropOp40
 70
     1
102
RTVSPost2010Prop41ColorIndex
 90
       18
102
RTVSPost2010Prop41ColorRGB
 90
        0
102
RTVSPost2010PropOp41
 70
     1
102
RTVSPost2010Prop42
 90
       50
102
RTVSPost2010PropOp42
 70
     1
102
RTVSPost2010Prop43
 90
        3
102
RTVSPost2010PropOp43
 70
     1
102
RTVSPost2010Prop44ColorIndex
 90
        5
102
RTVSPost2010Prop44ColorRGB
 90
      255
102
RTVSPost2010PropOp44
 70
     1
102
RTVSPost2010Prop45
280
     0
102
RTVSPost2010PropOp45
 70
     1
102
RTVSPost2010Prop46
 90
       50
102
RTVSPost2010PropOp46
 70
     1
102
RTVSPost2010Prop47
 90
       50
102
RTVSPost2010PropOp47
 70
     1
102
RTVSPost2010Prop48
 90
       50
102
RTVSPost2010PropOp48
 70
     1
102
RTVSPost2010Prop49
280
     0
102
RTVSPost2010PropOp49
 70
     1
102
RTVSPost2010Prop50
 90
       50
102
RTVSPost2010PropOp50
 70
     1
102
RTVSPost2010Prop51ColorIndex
 90
      256
102
RTVSPost2010Prop51ColorRGB
 90
-16777216
102
RTVSPost2010PropOp51
 70
     0
102
RTVSPost2010Prop52
140
1.0
102
RTVSPost2010PropOp52
 70
     0
102
RTVSPost2010Prop53
 90
        2
102
RTVSPost2010PropOp53
 70
     1
102
RTVSPost2010Prop54
  1
strokes_ogs.tif
102
RTVSPost2010PropOp54
 70
     1
102
RTVSPost2010Prop55
280
     0
102
RTVSPost2010PropOp55
 70
     1
102
RTVSPost2010Prop56
140
1.0
102
RTVSPost2010PropOp56
 70
     1
102
RTVSPost2010Prop57
140
1.0
102
RTVSPost2010PropOp57
 70
     1
  0
XRECORD
  5
358
102
{ACAD_REACTORS
330
357
102
}
330
357
100
AcDbXrecord
280
     1
102
RTVSPropertyOp0
 70
     1
102
RTVSPropertyOp1
 70
     1
102
RTVSPropertyOp2
 70
     1
102
RTVSPropertyOp3
 70
     1
102
RTVSPropertyOp4
 70
     1
102
RTVSPropertyOp5
 70
     1
102
RTVSPropertyOp6
 70
     1
102
RTVSPropertyOp7
 70
     1
102
RTVSPropertyOp8
 70
     1
102
RTVSPropertyOp9
 70
     1
102
RTVSPropertyOp10
 70
     1
102
RTVSPropertyOp11
 70
     1
102
RTVSPropertyOp12
 70
     1
102
RTVSPropertyOp13
 70
     1
102
RTVSPropertyOp14
 70
     1
102
RTVSPropertyOp15
 70
     1
102
RTVSPropertyOp16
 70
     1
102
RTVSPropertyOp17
 70
     1
102
RTVSPropertyOp18
 70
     1
102
RTVSPropertyOp19
 70
     1
102
RTVSPropertyOp20
 70
     1
102
RTVSPropertyOp21
 70
     1
102
RTVSPropertyOp22
 70
     1
102
RTVSPropertyOp23
 70
     1
102
RTVSPropertyOp24
 70
     1
102
RTVSPropertyOp25
 70
     1
102
RTVSPropertyOp26
 70
     1
102
RTVSPropertyOp27
 70
     1
102
RTVSPropertyOp28
 70
     1
102
RTVSPropertyOp29
 70
     1
102
RTVSPropertyOp30
 70
     1
102
RTVSPropertyOp31
 70
     1
102
RTVSPropertyOp32
 70
     1
102
RTVSPropertyOp33
 70
     1
102
RTVSPropertyOp34
 70
     1
102
RTVSPropertyOp35
 70
     1
102
RTVSPropertyOp36
 70
     1
102
RTVSPropertyOp37
 70
     1
102
RTVSPropertyOp38
 70
     1
102
RTVSPropertyOp39
 70
     1
102
RTVSPropertyOp40
 70
     1
102
RTVSPropertyOp41
 70
     1
102
RTVSPropertyOp42
 70
     1
102
RTVSPropertyOp43
 70
     1
102
RTVSPropertyOp44
 70
     1
102
RTVSPropertyOp45
 70
     1
102
RTVSPropertyOp46
 70
     1
102
RTVSPropertyOp47
 70
     1
102
RTVSPropertyOp48
 70
     1
102
RTVSPropertyOp49
 70
     1
102
RTVSPropertyOp50
 70
     1
102
RTVSPropertyOp51
 70
     0
102
RTVSPropertyOp52
 70
     0
102
RTVSPropertyOp53
 70
     1
102
RTVSPropertyOp54
 70
     1
102
RTVSPropertyOp55
 70
     1
102
RTVSPropertyOp56
 70
     1
102
RTVSPropertyOp57
 70
     1
102
RTVSPost2010Prop28
280
     0
102
RTVSPost2010PropOp28
 70
     1
102
RTVSPost2010Prop29
280
     1
102
RTVSPost2010PropOp29
 70
     1
102
RTVSPost2010Prop30
280
     1
102
RTVSPost2010PropOp30
 70
     1
102
RTVSPost2010Prop31
280
     0
102
RTVSPost2010PropOp31
 70
     1
102
RTVSPost2010Prop32
280
     0
102
RTVSPost2010PropOp32
 70
     1
102
RTVSPost2010Prop33
280
     0
102
RTVSPost2010PropOp33
 70
     1
102
RTVSPost2010Prop34
280
     0
102
RTVSPost2010PropOp34
 70
     1
102
RTVSPost2010Prop35
280
     0
102
RTVSPost2010PropOp35
 70
     1
102
RTVSPost2010Prop36
280
     0
102
RTVSPost2010PropOp36
 70
     1
102
RTVSPost2010Prop37
 90
       50
102
RTVSPost2010PropOp37
 70
     1
102
RTVSPost2010Prop38
140
0.0
102
RTVSPost2010PropOp38
 70
     1
102
RTVSPost2010Prop39
140
1.0
102
RTVSPost2010PropOp39
 70
     1
102
RTVSPost2010Prop40
 90
        0
102
RTVSPost2010PropOp40
 70
     1
102
RTVSPost2010Prop41ColorIndex
 90
       18
102
RTVSPost2010Prop41ColorRGB
 90
        0
102
RTVSPost2010PropOp41
 70
     1
102
RTVSPost2010Prop42
 90
       50
102
RTVSPost2010PropOp42
 70
     1
102
RTVSPost2010Prop43
 90
        3
102
RTVSPost2010PropOp43
 70
     1
102
RTVSPost2010Prop44ColorIndex
 90
        5
102
RTVSPost2010Prop44ColorRGB
 90
      255
102
RTVSPost2010PropOp44
 70
     1
102
RTVSPost2010Prop45
280
     0
102
RTVSPost2010PropOp45
 70
     1
102
RTVSPost2010Prop46
 90
       50
102
RTVSPost2010PropOp46
 70
     1
102
RTVSPost2010Prop47
 90
       50
102
RTVSPost2010PropOp47
 70
     1
102
RTVSPost2010Prop48
 90
       50
102
RTVSPost2010PropOp48
 70
     1
102
RTVSPost2010Prop49
280
     0
102
RTVSPost2010PropOp49
 70
     1
102
RTVSPost2010Prop50
 90
       50
102
RTVSPost2010PropOp50
 70
     1
102
RTVSPost2010Prop51ColorIndex
 90
      256
102
RTVSPost2010Prop51ColorRGB
 90
-16777216
102
RTVSPost2010PropOp51
 70
     0
102
RTVSPost2010Prop52
140
1.0
102
RTVSPost2010PropOp52
 70
     0
102
RTVSPost2010Prop53
 90
        2
102
RTVSPost2010PropOp53
 70
     1
102
RTVSPost2010Prop54
  1
strokes_ogs.tif
102
RTVSPost2010PropOp54
 70
     1
102
RTVSPost2010Prop55
280
     0
102
RTVSPost2010PropOp55
 70
     1
102
RTVSPost2010Prop56
140
1.0
102
RTVSPost2010PropOp56
 70
     1
102
RTVSPost2010Prop57
140
1.0
102
RTVSPost2010PropOp57
 70
     1
  0
XRECORD
  5
35A
102
{ACAD_REACTORS
330
359
102
}
330
359
100
AcDbXrecord
280
     1
102
RTVSPropertyOp0
 70
     1
102
RTVSPropertyOp1
 70
     1
102
RTVSPropertyOp2
 70
     1
102
RTVSPropertyOp3
 70
     1
102
RTVSPropertyOp4
 70
     1
102
RTVSPropertyOp5
 70
     1
102
RTVSPropertyOp6
 70
     1
102
RTVSPropertyOp7
 70
     1
102
RTVSPropertyOp8
 70
     1
102
RTVSPropertyOp9
 70
     1
102
RTVSPropertyOp10
 70
     1
102
RTVSPropertyOp11
 70
     1
102
RTVSPropertyOp12
 70
     1
102
RTVSPropertyOp13
 70
     1
102
RTVSPropertyOp14
 70
     1
102
RTVSPropertyOp15
 70
     1
102
RTVSPropertyOp16
 70
     1
102
RTVSPropertyOp17
 70
     1
102
RTVSPropertyOp18
 70
     1
102
RTVSPropertyOp19
 70
     1
102
RTVSPropertyOp20
 70
     1
102
RTVSPropertyOp21
 70
     1
102
RTVSPropertyOp22
 70
     1
102
RTVSPropertyOp23
 70
     1
102
RTVSPropertyOp24
 70
     1
102
RTVSPropertyOp25
 70
     1
102
RTVSPropertyOp26
 70
     1
102
RTVSPropertyOp27
 70
     1
102
RTVSPropertyOp28
 70
     1
102
RTVSPropertyOp29
 70
     1
102
RTVSPropertyOp30
 70
     1
102
RTVSPropertyOp31
 70
     1
102
RTVSPropertyOp32
 70
     1
102
RTVSPropertyOp33
 70
     1
102
RTVSPropertyOp34
 70
     1
102
RTVSPropertyOp35
 70
     1
102
RTVSPropertyOp36
 70
     1
102
RTVSPropertyOp37
 70
     1
102
RTVSPropertyOp38
 70
     1
102
RTVSPropertyOp39
 70
     1
102
RTVSPropertyOp40
 70
     1
102
RTVSPropertyOp41
 70
     1
102
RTVSPropertyOp42
 70
     1
102
RTVSPropertyOp43
 70
     1
102
RTVSPropertyOp44
 70
     1
102
RTVSPropertyOp45
 70
     1
102
RTVSPropertyOp46
 70
     1
102
RTVSPropertyOp47
 70
     1
102
RTVSPropertyOp48
 70
     1
102
RTVSPropertyOp49
 70
     1
102
RTVSPropertyOp50
 70
     1
102
RTVSPropertyOp51
 70
     0
102
RTVSPropertyOp52
 70
     0
102
RTVSPropertyOp53
 70
     1
102
RTVSPropertyOp54
 70
     1
102
RTVSPropertyOp55
 70
     1
102
RTVSPropertyOp56
 70
     1
102
RTVSPropertyOp57
 70
     1
102
RTVSPost2010Prop28
280
     0
102
RTVSPost2010PropOp28
 70
     1
102
RTVSPost2010Prop29
280
     1
102
RTVSPost2010PropOp29
 70
     1
102
RTVSPost2010Prop30
280
     1
102
RTVSPost2010PropOp30
 70
     1
102
RTVSPost2010Prop31
280
     0
102
RTVSPost2010PropOp31
 70
     1
102
RTVSPost2010Prop32
280
     0
102
RTVSPost2010PropOp32
 70
     1
102
RTVSPost2010Prop33
280
     0
102
RTVSPost2010PropOp33
 70
     1
102
RTVSPost2010Prop34
280
     0
102
RTVSPost2010PropOp34
 70
     1
102
RTVSPost2010Prop35
280
     0
102
RTVSPost2010PropOp35
 70
     1
102
RTVSPost2010Prop36
280
     0
102
RTVSPost2010PropOp36
 70
     1
102
RTVSPost2010Prop37
 90
       50
102
RTVSPost2010PropOp37
 70
     1
102
RTVSPost2010Prop38
140
0.0
102
RTVSPost2010PropOp38
 70
     1
102
RTVSPost2010Prop39
140
1.0
102
RTVSPost2010PropOp39
 70
     1
102
RTVSPost2010Prop40
 90
        0
102
RTVSPost2010PropOp40
 70
     1
102
RTVSPost2010Prop41ColorIndex
 90
       18
102
RTVSPost2010Prop41ColorRGB
 90
        0
102
RTVSPost2010PropOp41
 70
     1
102
RTVSPost2010Prop42
 90
       50
102
RTVSPost2010PropOp42
 70
     1
102
RTVSPost2010Prop43
 90
        3
102
RTVSPost2010PropOp43
 70
     1
102
RTVSPost2010Prop44ColorIndex
 90
        5
102
RTVSPost2010Prop44ColorRGB
 90
      255
102
RTVSPost2010PropOp44
 70
     1
102
RTVSPost2010Prop45
280
     0
102
RTVSPost2010PropOp45
 70
     1
102
RTVSPost2010Prop46
 90
       50
102
RTVSPost2010PropOp46
 70
     1
102
RTVSPost2010Prop47
 90
       50
102
RTVSPost2010PropOp47
 70
     1
102
RTVSPost2010Prop48
 90
       50
102
RTVSPost2010PropOp48
 70
     1
102
RTVSPost2010Prop49
280
     0
102
RTVSPost2010PropOp49
 70
     1
102
RTVSPost2010Prop50
 90
       50
102
RTVSPost2010PropOp50
 70
     1
102
RTVSPost2010Prop51ColorIndex
 90
      256
102
RTVSPost2010Prop51ColorRGB
 90
-16777216
102
RTVSPost2010PropOp51
 70
     0
102
RTVSPost2010Prop52
140
1.0
102
RTVSPost2010PropOp52
 70
     0
102
RTVSPost2010Prop53
 90
        2
102
RTVSPost2010PropOp53
 70
     1
102
RTVSPost2010Prop54
  1
strokes_ogs.tif
102
RTVSPost2010PropOp54
 70
     1
102
RTVSPost2010Prop55
280
     0
102
RTVSPost2010PropOp55
 70
     1
102
RTVSPost2010Prop56
140
1.0
102
RTVSPost2010PropOp56
 70
     1
102
RTVSPost2010Prop57
140
1.0
102
RTVSPost2010PropOp57
 70
     1
  0
XRECORD
  5
35C
102
{ACAD_REACTORS
330
35B
102
}
330
35B
100
AcDbXrecord
280
     1
102
RTVSPropertyOp0
 70
     1
102
RTVSPropertyOp1
 70
     1
102
RTVSPropertyOp2
 70
     1
102
RTVSPropertyOp3
 70
     1
102
RTVSPropertyOp4
 70
     1
102
RTVSPropertyOp5
 70
     1
102
RTVSPropertyOp6
 70
     1
102
RTVSPropertyOp7
 70
     1
102
RTVSPropertyOp8
 70
     1
102
RTVSPropertyOp9
 70
     1
102
RTVSPropertyOp10
 70
     1
102
RTVSPropertyOp11
 70
     1
102
RTVSPropertyOp12
 70
     1
102
RTVSPropertyOp13
 70
     1
102
RTVSPropertyOp14
 70
     1
102
RTVSPropertyOp15
 70
     1
102
RTVSPropertyOp16
 70
     1
102
RTVSPropertyOp17
 70
     1
102
RTVSPropertyOp18
 70
     1
102
RTVSPropertyOp19
 70
     1
102
RTVSPropertyOp20
 70
     1
102
RTVSPropertyOp21
 70
     1
102
RTVSPropertyOp22
 70
     1
102
RTVSPropertyOp23
 70
     1
102
RTVSPropertyOp24
 70
     1
102
RTVSPropertyOp25
 70
     1
102
RTVSPropertyOp26
 70
     1
102
RTVSPropertyOp27
 70
     1
102
RTVSPropertyOp28
 70
     1
102
RTVSPropertyOp29
 70
     1
102
RTVSPropertyOp30
 70
     1
102
RTVSPropertyOp31
 70
     1
102
RTVSPropertyOp32
 70
     1
102
RTVSPropertyOp33
 70
     1
102
RTVSPropertyOp34
 70
     1
102
RTVSPropertyOp35
 70
     1
102
RTVSPropertyOp36
 70
     1
102
RTVSPropertyOp37
 70
     1
102
RTVSPropertyOp38
 70
     1
102
RTVSPropertyOp39
 70
     1
102
RTVSPropertyOp40
 70
     1
102
RTVSPropertyOp41
 70
     1
102
RTVSPropertyOp42
 70
     1
102
RTVSPropertyOp43
 70
     1
102
RTVSPropertyOp44
 70
     1
102
RTVSPropertyOp45
 70
     1
102
RTVSPropertyOp46
 70
     1
102
RTVSPropertyOp47
 70
     1
102
RTVSPropertyOp48
 70
     1
102
RTVSPropertyOp49
 70
     1
102
RTVSPropertyOp50
 70
     1
102
RTVSPropertyOp51
 70
     0
102
RTVSPropertyOp52
 70
     0
102
RTVSPropertyOp53
 70
     1
102
RTVSPropertyOp54
 70
     1
102
RTVSPropertyOp55
 70
     1
102
RTVSPropertyOp56
 70
     1
102
RTVSPropertyOp57
 70
     1
102
RTVSPost2010Prop28
280
     0
102
RTVSPost2010PropOp28
 70
     1
102
RTVSPost2010Prop29
280
     1
102
RTVSPost2010PropOp29
 70
     1
102
RTVSPost2010Prop30
280
     1
102
RTVSPost2010PropOp30
 70
     1
102
RTVSPost2010Prop31
280
     0
102
RTVSPost2010PropOp31
 70
     1
102
RTVSPost2010Prop32
280
     0
102
RTVSPost2010PropOp32
 70
     1
102
RTVSPost2010Prop33
280
     0
102
RTVSPost2010PropOp33
 70
     1
102
RTVSPost2010Prop34
280
     0
102
RTVSPost2010PropOp34
 70
     1
102
RTVSPost2010Prop35
280
     0
102
RTVSPost2010PropOp35
 70
     1
102
RTVSPost2010Prop36
280
     0
102
RTVSPost2010PropOp36
 70
     1
102
RTVSPost2010Prop37
 90
       50
102
RTVSPost2010PropOp37
 70
     1
102
RTVSPost2010Prop38
140
0.0
102
RTVSPost2010PropOp38
 70
     1
102
RTVSPost2010Prop39
140
1.0
102
RTVSPost2010PropOp39
 70
     1
102
RTVSPost2010Prop40
 90
        0
102
RTVSPost2010PropOp40
 70
     1
102
RTVSPost2010Prop41ColorIndex
 90
       18
102
RTVSPost2010Prop41ColorRGB
 90
        0
102
RTVSPost2010PropOp41
 70
     1
102
RTVSPost2010Prop42
 90
       50
102
RTVSPost2010PropOp42
 70
     1
102
RTVSPost2010Prop43
 90
        3
102
RTVSPost2010PropOp43
 70
     1
102
RTVSPost2010Prop44ColorIndex
 90
        5
102
RTVSPost2010Prop44ColorRGB
 90
      255
102
RTVSPost2010PropOp44
 70
     1
102
RTVSPost2010Prop45
280
     0
102
RTVSPost2010PropOp45
 70
     1
102
RTVSPost2010Prop46
 90
       50
102
RTVSPost2010PropOp46
 70
     1
102
RTVSPost2010Prop47
 90
       50
102
RTVSPost2010PropOp47
 70
     1
102
RTVSPost2010Prop48
 90
       50
102
RTVSPost2010PropOp48
 70
     1
102
RTVSPost2010Prop49
280
     0
102
RTVSPost2010PropOp49
 70
     1
102
RTVSPost2010Prop50
 90
       50
102
RTVSPost2010PropOp50
 70
     1
102
RTVSPost2010Prop51ColorIndex
 90
      256
102
RTVSPost2010Prop51ColorRGB
 90
-16777216
102
RTVSPost2010PropOp51
 70
     0
102
RTVSPost2010Prop52
140
1.0
102
RTVSPost2010PropOp52
 70
     0
102
RTVSPost2010Prop53
 90
        2
102
RTVSPost2010PropOp53
 70
     1
102
RTVSPost2010Prop54
  1
strokes_ogs.tif
102
RTVSPost2010PropOp54
 70
     1
102
RTVSPost2010Prop55
280
     0
102
RTVSPost2010PropOp55
 70
     1
102
RTVSPost2010Prop56
140
1.0
102
RTVSPost2010PropOp56
 70
     1
102
RTVSPost2010Prop57
140
1.0
102
RTVSPost2010PropOp57
 70
     1
  0
XRECORD
  5
370
102
{ACAD_REACTORS
330
36F
102
}
330
36F
100
AcDbXrecord
280
     1
102
RTVSPropertyOp0
 70
     1
102
RTVSPropertyOp1
 70
     1
102
RTVSPropertyOp2
 70
     1
102
RTVSPropertyOp3
 70
     1
102
RTVSPropertyOp4
 70
     1
102
RTVSPropertyOp5
 70
     1
102
RTVSPropertyOp6
 70
     1
102
RTVSPropertyOp7
 70
     1
102
RTVSPropertyOp8
 70
     1
102
RTVSPropertyOp9
 70
     1
102
RTVSPropertyOp10
 70
     1
102
RTVSPropertyOp11
 70
     1
102
RTVSPropertyOp12
 70
     1
102
RTVSPropertyOp13
 70
     1
102
RTVSPropertyOp14
 70
     1
102
RTVSPropertyOp15
 70
     1
102
RTVSPropertyOp16
 70
     1
102
RTVSPropertyOp17
 70
     1
102
RTVSPropertyOp18
 70
     1
102
RTVSPropertyOp19
 70
     1
102
RTVSPropertyOp20
 70
     1
102
RTVSPropertyOp21
 70
     1
102
RTVSPropertyOp22
 70
     1
102
RTVSPropertyOp23
 70
     1
102
RTVSPropertyOp24
 70
     1
102
RTVSPropertyOp25
 70
     1
102
RTVSPropertyOp26
 70
     1
102
RTVSPropertyOp27
 70
     1
102
RTVSPropertyOp28
 70
     1
102
RTVSPropertyOp29
 70
     1
102
RTVSPropertyOp30
 70
     1
102
RTVSPropertyOp31
 70
     1
102
RTVSPropertyOp32
 70
     1
102
RTVSPropertyOp33
 70
     1
102
RTVSPropertyOp34
 70
     1
102
RTVSPropertyOp35
 70
     1
102
RTVSPropertyOp36
 70
     1
102
RTVSPropertyOp37
 70
     1
102
RTVSPropertyOp38
 70
     1
102
RTVSPropertyOp39
 70
     1
102
RTVSPropertyOp40
 70
     1
102
RTVSPropertyOp41
 70
     1
102
RTVSPropertyOp42
 70
     1
102
RTVSPropertyOp43
 70
     1
102
RTVSPropertyOp44
 70
     1
102
RTVSPropertyOp45
 70
     1
102
RTVSPropertyOp46
 70
     1
102
RTVSPropertyOp47
 70
     1
102
RTVSPropertyOp48
 70
     1
102
RTVSPropertyOp49
 70
     1
102
RTVSPropertyOp50
 70
     1
102
RTVSPropertyOp51
 70
     0
102
RTVSPropertyOp52
 70
     0
102
RTVSPropertyOp53
 70
     1
102
RTVSPropertyOp54
 70
     1
102
RTVSPropertyOp55
 70
     1
102
RTVSPropertyOp56
 70
     1
102
RTVSPropertyOp57
 70
     1
102
RTVSPost2010Prop28
280
     0
102
RTVSPost2010PropOp28
 70
     1
102
RTVSPost2010Prop29
280
     1
102
RTVSPost2010PropOp29
 70
     1
102
RTVSPost2010Prop30
280
     1
102
RTVSPost2010PropOp30
 70
     1
102
RTVSPost2010Prop31
280
     0
102
RTVSPost2010PropOp31
 70
     1
102
RTVSPost2010Prop32
280
     0
102
RTVSPost2010PropOp32
 70
     1
102
RTVSPost2010Prop33
280
     0
102
RTVSPost2010PropOp33
 70
     1
102
RTVSPost2010Prop34
280
     0
102
RTVSPost2010PropOp34
 70
     1
102
RTVSPost2010Prop35
280
     0
102
RTVSPost2010PropOp35
 70
     1
102
RTVSPost2010Prop36
280
     0
102
RTVSPost2010PropOp36
 70
     1
102
RTVSPost2010Prop37
 90
       50
102
RTVSPost2010PropOp37
 70
     1
102
RTVSPost2010Prop38
140
0.0
102
RTVSPost2010PropOp38
 70
     1
102
RTVSPost2010Prop39
140
1.0
102
RTVSPost2010PropOp39
 70
     1
102
RTVSPost2010Prop40
 90
        0
102
RTVSPost2010PropOp40
 70
     1
102
RTVSPost2010Prop41ColorIndex
 90
       18
102
RTVSPost2010Prop41ColorRGB
 90
        0
102
RTVSPost2010PropOp41
 70
     1
102
RTVSPost2010Prop42
 90
       50
102
RTVSPost2010PropOp42
 70
     1
102
RTVSPost2010Prop43
 90
        3
102
RTVSPost2010PropOp43
 70
     1
102
RTVSPost2010Prop44ColorIndex
 90
        5
102
RTVSPost2010Prop44ColorRGB
 90
      255
102
RTVSPost2010PropOp44
 70
     1
102
RTVSPost2010Prop45
280
     0
102
RTVSPost2010PropOp45
 70
     1
102
RTVSPost2010Prop46
 90
       50
102
RTVSPost2010PropOp46
 70
     1
102
RTVSPost2010Prop47
 90
       50
102
RTVSPost2010PropOp47
 70
     1
102
RTVSPost2010Prop48
 90
       50
102
RTVSPost2010PropOp48
 70
     1
102
RTVSPost2010Prop49
280
     0
102
RTVSPost2010PropOp49
 70
     1
102
RTVSPost2010Prop50
 90
       50
102
RTVSPost2010PropOp50
 70
     1
102
RTVSPost2010Prop51ColorIndex
 90
      256
102
RTVSPost2010Prop51ColorRGB
 90
-16777216
102
RTVSPost2010PropOp51
 70
     0
102
RTVSPost2010Prop52
140
1.0
102
RTVSPost2010PropOp52
 70
     0
102
RTVSPost2010Prop53
 90
        2
102
RTVSPost2010PropOp53
 70
     1
102
RTVSPost2010Prop54
  1
strokes_ogs.tif
102
RTVSPost2010PropOp54
 70
     1
102
RTVSPost2010Prop55
280
     0
102
RTVSPost2010PropOp55
 70
     1
102
RTVSPost2010Prop56
140
1.0
102
RTVSPost2010PropOp56
 70
     1
102
RTVSPost2010Prop57
140
1.0
102
RTVSPost2010PropOp57
 70
     1
  0
XRECORD
  5
366
102
{ACAD_REACTORS
330
365
102
}
330
365
100
AcDbXrecord
280
     1
102
RTVSPropertyOp0
 70
     1
102
RTVSPropertyOp1
 70
     1
102
RTVSPropertyOp2
 70
     1
102
RTVSPropertyOp3
 70
     1
102
RTVSPropertyOp4
 70
     1
102
RTVSPropertyOp5
 70
     1
102
RTVSPropertyOp6
 70
     1
102
RTVSPropertyOp7
 70
     1
102
RTVSPropertyOp8
 70
     1
102
RTVSPropertyOp9
 70
     1
102
RTVSPropertyOp10
 70
     1
102
RTVSPropertyOp11
 70
     1
102
RTVSPropertyOp12
 70
     1
102
RTVSPropertyOp13
 70
     1
102
RTVSPropertyOp14
 70
     1
102
RTVSPropertyOp15
 70
     1
102
RTVSPropertyOp16
 70
     1
102
RTVSPropertyOp17
 70
     1
102
RTVSPropertyOp18
 70
     1
102
RTVSPropertyOp19
 70
     1
102
RTVSPropertyOp20
 70
     1
102
RTVSPropertyOp21
 70
     1
102
RTVSPropertyOp22
 70
     1
102
RTVSPropertyOp23
 70
     1
102
RTVSPropertyOp24
 70
     1
102
RTVSPropertyOp25
 70
     1
102
RTVSPropertyOp26
 70
     1
102
RTVSPropertyOp27
 70
     1
102
RTVSPropertyOp28
 70
     1
102
RTVSPropertyOp29
 70
     1
102
RTVSPropertyOp30
 70
     1
102
RTVSPropertyOp31
 70
     1
102
RTVSPropertyOp32
 70
     1
102
RTVSPropertyOp33
 70
     1
102
RTVSPropertyOp34
 70
     1
102
RTVSPropertyOp35
 70
     1
102
RTVSPropertyOp36
 70
     1
102
RTVSPropertyOp37
 70
     1
102
RTVSPropertyOp38
 70
     1
102
RTVSPropertyOp39
 70
     1
102
RTVSPropertyOp40
 70
     1
102
RTVSPropertyOp41
 70
     1
102
RTVSPropertyOp42
 70
     1
102
RTVSPropertyOp43
 70
     1
102
RTVSPropertyOp44
 70
     1
102
RTVSPropertyOp45
 70
     1
102
RTVSPropertyOp46
 70
     1
102
RTVSPropertyOp47
 70
     1
102
RTVSPropertyOp48
 70
     1
102
RTVSPropertyOp49
 70
     1
102
RTVSPropertyOp50
 70
     1
102
RTVSPropertyOp51
 70
     0
102
RTVSPropertyOp52
 70
     0
102
RTVSPropertyOp53
 70
     1
102
RTVSPropertyOp54
 70
     1
102
RTVSPropertyOp55
 70
     1
102
RTVSPropertyOp56
 70
     1
102
RTVSPropertyOp57
 70
     1
102
RTVSPost2010Prop28
280
     0
102
RTVSPost2010PropOp28
 70
     1
102
RTVSPost2010Prop29
280
     1
102
RTVSPost2010PropOp29
 70
     1
102
RTVSPost2010Prop30
280
     1
102
RTVSPost2010PropOp30
 70
     1
102
RTVSPost2010Prop31
280
     0
102
RTVSPost2010PropOp31
 70
     1
102
RTVSPost2010Prop32
280
     0
102
RTVSPost2010PropOp32
 70
     1
102
RTVSPost2010Prop33
280
     0
102
RTVSPost2010PropOp33
 70
     1
102
RTVSPost2010Prop34
280
     0
102
RTVSPost2010PropOp34
 70
     1
102
RTVSPost2010Prop35
280
     0
102
RTVSPost2010PropOp35
 70
     1
102
RTVSPost2010Prop36
280
     0
102
RTVSPost2010PropOp36
 70
     1
102
RTVSPost2010Prop37
 90
       50
102
RTVSPost2010PropOp37
 70
     1
102
RTVSPost2010Prop38
140
0.0
102
RTVSPost2010PropOp38
 70
     1
102
RTVSPost2010Prop39
140
1.0
102
RTVSPost2010PropOp39
 70
     1
102
RTVSPost2010Prop40
 90
        0
102
RTVSPost2010PropOp40
 70
     1
102
RTVSPost2010Prop41ColorIndex
 90
       18
102
RTVSPost2010Prop41ColorRGB
 90
        0
102
RTVSPost2010PropOp41
 70
     1
102
RTVSPost2010Prop42
 90
       50
102
RTVSPost2010PropOp42
 70
     1
102
RTVSPost2010Prop43
 90
        3
102
RTVSPost2010PropOp43
 70
     1
102
RTVSPost2010Prop44ColorIndex
 90
        5
102
RTVSPost2010Prop44ColorRGB
 90
      255
102
RTVSPost2010PropOp44
 70
     1
102
RTVSPost2010Prop45
280
     0
102
RTVSPost2010PropOp45
 70
     1
102
RTVSPost2010Prop46
 90
       50
102
RTVSPost2010PropOp46
 70
     1
102
RTVSPost2010Prop47
 90
       50
102
RTVSPost2010PropOp47
 70
     1
102
RTVSPost2010Prop48
 90
       50
102
RTVSPost2010PropOp48
 70
     1
102
RTVSPost2010Prop49
280
     0
102
RTVSPost2010PropOp49
 70
     1
102
RTVSPost2010Prop50
 90
       50
102
RTVSPost2010PropOp50
 70
     1
102
RTVSPost2010Prop51ColorIndex
 90
      256
102
RTVSPost2010Prop51ColorRGB
 90
-16777216
102
RTVSPost2010PropOp51
 70
     0
102
RTVSPost2010Prop52
140
1.0
102
RTVSPost2010PropOp52
 70
     0
102
RTVSPost2010Prop53
 90
        2
102
RTVSPost2010PropOp53
 70
     1
102
RTVSPost2010Prop54
  1
strokes_ogs.tif
102
RTVSPost2010PropOp54
 70
     1
102
RTVSPost2010Prop55
280
     0
102
RTVSPost2010PropOp55
 70
     1
102
RTVSPost2010Prop56
140
1.0
102
RTVSPost2010PropOp56
 70
     1
102
RTVSPost2010Prop57
140
1.0
102
RTVSPost2010PropOp57
 70
     1
  0
XRECORD
  5
36E
102
{ACAD_REACTORS
330
36D
102
}
330
36D
100
AcDbXrecord
280
     1
102
RTVSPropertyOp0
 70
     1
102
RTVSPropertyOp1
 70
     1
102
RTVSPropertyOp2
 70
     1
102
RTVSPropertyOp3
 70
     1
102
RTVSPropertyOp4
 70
     1
102
RTVSPropertyOp5
 70
     1
102
RTVSPropertyOp6
 70
     1
102
RTVSPropertyOp7
 70
     1
102
RTVSPropertyOp8
 70
     1
102
RTVSPropertyOp9
 70
     1
102
RTVSPropertyOp10
 70
     1
102
RTVSPropertyOp11
 70
     1
102
RTVSPropertyOp12
 70
     1
102
RTVSPropertyOp13
 70
     1
102
RTVSPropertyOp14
 70
     1
102
RTVSPropertyOp15
 70
     1
102
RTVSPropertyOp16
 70
     1
102
RTVSPropertyOp17
 70
     1
102
RTVSPropertyOp18
 70
     1
102
RTVSPropertyOp19
 70
     1
102
RTVSPropertyOp20
 70
     1
102
RTVSPropertyOp21
 70
     1
102
RTVSPropertyOp22
 70
     1
102
RTVSPropertyOp23
 70
     1
102
RTVSPropertyOp24
 70
     1
102
RTVSPropertyOp25
 70
     1
102
RTVSPropertyOp26
 70
     1
102
RTVSPropertyOp27
 70
     1
102
RTVSPropertyOp28
 70
     1
102
RTVSPropertyOp29
 70
     1
102
RTVSPropertyOp30
 70
     1
102
RTVSPropertyOp31
 70
     1
102
RTVSPropertyOp32
 70
     1
102
RTVSPropertyOp33
 70
     1
102
RTVSPropertyOp34
 70
     1
102
RTVSPropertyOp35
 70
     1
102
RTVSPropertyOp36
 70
     1
102
RTVSPropertyOp37
 70
     1
102
RTVSPropertyOp38
 70
     1
102
RTVSPropertyOp39
 70
     1
102
RTVSPropertyOp40
 70
     1
102
RTVSPropertyOp41
 70
     1
102
RTVSPropertyOp42
 70
     1
102
RTVSPropertyOp43
 70
     1
102
RTVSPropertyOp44
 70
     1
102
RTVSPropertyOp45
 70
     1
102
RTVSPropertyOp46
 70
     1
102
RTVSPropertyOp47
 70
     1
102
RTVSPropertyOp48
 70
     1
102
RTVSPropertyOp49
 70
     1
102
RTVSPropertyOp50
 70
     1
102
RTVSPropertyOp51
 70
     0
102
RTVSPropertyOp52
 70
     0
102
RTVSPropertyOp53
 70
     1
102
RTVSPropertyOp54
 70
     1
102
RTVSPropertyOp55
 70
     1
102
RTVSPropertyOp56
 70
     1
102
RTVSPropertyOp57
 70
     1
102
RTVSPost2010Prop28
280
     0
102
RTVSPost2010PropOp28
 70
     1
102
RTVSPost2010Prop29
280
     1
102
RTVSPost2010PropOp29
 70
     1
102
RTVSPost2010Prop30
280
     1
102
RTVSPost2010PropOp30
 70
     1
102
RTVSPost2010Prop31
280
     0
102
RTVSPost2010PropOp31
 70
     1
102
RTVSPost2010Prop32
280
     0
102
RTVSPost2010PropOp32
 70
     1
102
RTVSPost2010Prop33
280
     0
102
RTVSPost2010PropOp33
 70
     1
102
RTVSPost2010Prop34
280
     0
102
RTVSPost2010PropOp34
 70
     1
102
RTVSPost2010Prop35
280
     0
102
RTVSPost2010PropOp35
 70
     1
102
RTVSPost2010Prop36
280
     0
102
RTVSPost2010PropOp36
 70
     1
102
RTVSPost2010Prop37
 90
       50
102
RTVSPost2010PropOp37
 70
     1
102
RTVSPost2010Prop38
140
0.0
102
RTVSPost2010PropOp38
 70
     1
102
RTVSPost2010Prop39
140
1.0
102
RTVSPost2010PropOp39
 70
     1
102
RTVSPost2010Prop40
 90
        0
102
RTVSPost2010PropOp40
 70
     1
102
RTVSPost2010Prop41ColorIndex
 90
       18
102
RTVSPost2010Prop41ColorRGB
 90
        0
102
RTVSPost2010PropOp41
 70
     1
102
RTVSPost2010Prop42
 90
       50
102
RTVSPost2010PropOp42
 70
     1
102
RTVSPost2010Prop43
 90
        3
102
RTVSPost2010PropOp43
 70
     1
102
RTVSPost2010Prop44ColorIndex
 90
        5
102
RTVSPost2010Prop44ColorRGB
 90
      255
102
RTVSPost2010PropOp44
 70
     1
102
RTVSPost2010Prop45
280
     0
102
RTVSPost2010PropOp45
 70
     1
102
RTVSPost2010Prop46
 90
       50
102
RTVSPost2010PropOp46
 70
     1
102
RTVSPost2010Prop47
 90
       50
102
RTVSPost2010PropOp47
 70
     1
102
RTVSPost2010Prop48
 90
       50
102
RTVSPost2010PropOp48
 70
     1
102
RTVSPost2010Prop49
280
     0
102
RTVSPost2010PropOp49
 70
     1
102
RTVSPost2010Prop50
 90
       50
102
RTVSPost2010PropOp50
 70
     1
102
RTVSPost2010Prop51ColorIndex
 90
      256
102
RTVSPost2010Prop51ColorRGB
 90
-16777216
102
RTVSPost2010PropOp51
 70
     0
102
RTVSPost2010Prop52
140
1.0
102
RTVSPost2010PropOp52
 70
     0
102
RTVSPost2010Prop53
 90
        2
102
RTVSPost2010PropOp53
 70
     1
102
RTVSPost2010Prop54
  1
strokes_ogs.tif
102
RTVSPost2010PropOp54
 70
     1
102
RTVSPost2010Prop55
280
     0
102
RTVSPost2010PropOp55
 70
     1
102
RTVSPost2010Prop56
140
1.0
102
RTVSPost2010PropOp56
 70
     1
102
RTVSPost2010Prop57
140
1.0
102
RTVSPost2010PropOp57
 70
     1
  0
ENDSEC
  0
EOF
