  0
SECTION
  2
HEADER
  9
$ACADVER
  1
AC1018
  9
$ACADMAINTVER
 70
     0
  9
$DWGCODEPAGE
  3
ANSI_936
  9
$INSBASE
 10
0.0
 20
0.0
 30
0.0
  9
$EXTMIN
 10
-0.0000000021431322
 20
1046.680706456217
 30
0.0
  9
$EXTMAX
 10
315.0000000021432
 20
1122.032577058933
 30
0.0
  9
$LIMMIN
 10
0.0
 20
0.0
  9
$LIMMAX
 10
12.0
 20
9.0
  9
$ORTHOMODE
 70
     0
  9
$REGENMODE
 70
     1
  9
$FILLMODE
 70
     1
  9
$QTEXTMODE
 70
     0
  9
$MIRRTEXT
 70
     1
  9
$LTSCALE
 40
1.0
  9
$ATTMODE
 70
     1
  9
$TEXTSIZE
 40
0.2
  9
$TRACEWID
 40
0.05
  9
$TEXTSTYLE
  7
Standard
  9
$CLAYER
  8
E9127
  9
$CELTYPE
  6
ByLayer
  9
$CECOLOR
 62
   256
  9
$CELTSCALE
 40
1.0
  9
$DISPSILH
 70
     0
  9
$DIMSCALE
 40
1.0
  9
$DIMASZ
 40
0.18
  9
$DIMEXO
 40
0.0625
  9
$DIMDLI
 40
0.38
  9
$DIMRND
 40
0.0
  9
$DIMDLE
 40
0.0
  9
$DIMEXE
 40
0.18
  9
$DIMTP
 40
0.0
  9
$DIMTM
 40
0.0
  9
$DIMTXT
 40
0.18
  9
$DIMCEN
 40
0.09
  9
$DIMTSZ
 40
0.0
  9
$DIMTOL
 70
     0
  9
$DIMLIM
 70
     0
  9
$DIMTIH
 70
     1
  9
$DIMTOH
 70
     1
  9
$DIMSE1
 70
     0
  9
$DIMSE2
 70
     0
  9
$DIMTAD
 70
     0
  9
$DIMZIN
 70
     0
  9
$DIMBLK
  1

  9
$DIMASO
 70
     1
  9
$DIMSHO
 70
     1
  9
$DIMPOST
  1

  9
$DIMAPOST
  1

  9
$DIMALT
 70
     0
  9
$DIMALTD
 70
     2
  9
$DIMALTF
 40
25.4
  9
$DIMLFAC
 40
1.0
  9
$DIMTOFL
 70
     0
  9
$DIMTVP
 40
0.0
  9
$DIMTIX
 70
     0
  9
$DIMSOXD
 70
     0
  9
$DIMSAH
 70
     0
  9
$DIMBLK1
  1

  9
$DIMBLK2
  1

  9
$DIMSTYLE
  2
Standard
  9
$DIMCLRD
 70
     0
  9
$DIMCLRE
 70
     0
  9
$DIMCLRT
 70
     0
  9
$DIMTFAC
 40
1.0
  9
$DIMGAP
 40
0.09
  9
$DIMJUST
 70
     0
  9
$DIMSD1
 70
     0
  9
$DIMSD2
 70
     0
  9
$DIMTOLJ
 70
     1
  9
$DIMTZIN
 70
     0
  9
$DIMALTZ
 70
     0
  9
$DIMALTTZ
 70
     0
  9
$DIMUPT
 70
     0
  9
$DIMDEC
 70
     4
  9
$DIMTDEC
 70
     4
  9
$DIMALTU
 70
     2
  9
$DIMALTTD
 70
     2
  9
$DIMTXSTY
  7
Standard
  9
$DIMAUNIT
 70
     0
  9
$DIMADEC
 70
     0
  9
$DIMALTRND
 40
0.0
  9
$DIMAZIN
 70
     0
  9
$DIMDSEP
 70
    46
  9
$DIMATFIT
 70
     3
  9
$DIMFRAC
 70
     0
  9
$DIMLDRBLK
  1

  9
$DIMLUNIT
 70
     2
  9
$DIMLWD
 70
    -2
  9
$DIMLWE
 70
    -2
  9
$DIMTMOVE
 70
     2
  9
$LUNITS
 70
     2
  9
$LUPREC
 70
     2
  9
$SKETCHINC
 40
0.1
  9
$FILLETRAD
 40
0.5
  9
$AUNITS
 70
     0
  9
$AUPREC
 70
     0
  9
$MENU
  1
.
  9
$ELEVATION
 40
0.0
  9
$PELEVATION
 40
0.0
  9
$THICKNESS
 40
0.0
  9
$LIMCHECK
 70
     0
  9
$CHAMFERA
 40
0.5
  9
$CHAMFERB
 40
0.5
  9
$CHAMFERC
 40
1.0
  9
$CHAMFERD
 40
0.0
  9
$SKPOLY
 70
     0
  9
$TDCREATE
 40
2456749.42870728
  9
$TDUCREATE
 40
2456749.095373947
  9
$TDUPDATE
 40
2456749.428708183
  9
$TDUUPDATE
 40
2456749.09537485
  9
$TDINDWG
 40
0.0000000116
  9
$TDUSRTIMER
 40
0.0000000116
  9
$USRTIMER
 70
     1
  9
$ANGBASE
 50
0.0
  9
$ANGDIR
 70
     0
  9
$PDMODE
 70
     0
  9
$PDSIZE
 40
0.0
  9
$PLINEWID
 40
0.0
  9
$SPLFRAME
 70
     0
  9
$SPLINETYPE
 70
     6
  9
$SPLINESEGS
 70
     8
  9
$HANDSEED
  5
56A
  9
$SURFTAB1
 70
     6
  9
$SURFTAB2
 70
     6
  9
$SURFTYPE
 70
     6
  9
$SURFU
 70
     6
  9
$SURFV
 70
     6
  9
$UCSBASE
  2

  9
$UCSNAME
  2

  9
$UCSORG
 10
0.0
 20
0.0
 30
0.0
  9
$UCSXDIR
 10
1.0
 20
0.0
 30
0.0
  9
$UCSYDIR
 10
0.0
 20
1.0
 30
0.0
  9
$UCSORTHOREF
  2

  9
$UCSORTHOVIEW
 70
     0
  9
$UCSORGTOP
 10
0.0
 20
0.0
 30
0.0
  9
$UCSORGBOTTOM
 10
0.0
 20
0.0
 30
0.0
  9
$UCSORGLEFT
 10
0.0
 20
0.0
 30
0.0
  9
$UCSORGRIGHT
 10
0.0
 20
0.0
 30
0.0
  9
$UCSORGFRONT
 10
0.0
 20
0.0
 30
0.0
  9
$UCSORGBACK
 10
0.0
 20
0.0
 30
0.0
  9
$PUCSBASE
  2

  9
$PUCSNAME
  2

  9
$PUCSORG
 10
0.0
 20
0.0
 30
0.0
  9
$PUCSXDIR
 10
1.0
 20
0.0
 30
0.0
  9
$PUCSYDIR
 10
0.0
 20
1.0
 30
0.0
  9
$PUCSORTHOREF
  2

  9
$PUCSORTHOVIEW
 70
     0
  9
$PUCSORGTOP
 10
0.0
 20
0.0
 30
0.0
  9
$PUCSORGBOTTOM
 10
0.0
 20
0.0
 30
0.0
  9
$PUCSORGLEFT
 10
0.0
 20
0.0
 30
0.0
  9
$PUCSORGRIGHT
 10
0.0
 20
0.0
 30
0.0
  9
$PUCSORGFRONT
 10
0.0
 20
0.0
 30
0.0
  9
$PUCSORGBACK
 10
0.0
 20
0.0
 30
0.0
  9
$USERI1
 70
     0
  9
$USERI2
 70
     0
  9
$USERI3
 70
     0
  9
$USERI4
 70
     0
  9
$USERI5
 70
     0
  9
$USERR1
 40
0.0
  9
$USERR2
 40
0.0
  9
$USERR3
 40
0.0
  9
$USERR4
 40
0.0
  9
$USERR5
 40
0.0
  9
$WORLDVIEW
 70
     1
  9
$SHADEDGE
 70
     3
  9
$SHADEDIF
 70
    70
  9
$TILEMODE
 70
     1
  9
$MAXACTVP
 70
    64
  9
$PINSBASE
 10
0.0
 20
0.0
 30
0.0
  9
$PLIMCHECK
 70
     0
  9
$PEXTMIN
 10
1.000000000000000E+20
 20
1.000000000000000E+20
 30
1.000000000000000E+20
  9
$PEXTMAX
 10
-1.000000000000000E+20
 20
-1.000000000000000E+20
 30
-1.000000000000000E+20
  9
$PLIMMIN
 10
0.0
 20
0.0
  9
$PLIMMAX
 10
12.0
 20
9.0
  9
$UNITMODE
 70
     0
  9
$VISRETAIN
 70
     1
  9
$PLINEGEN
 70
     0
  9
$PSLTSCALE
 70
     1
  9
$TREEDEPTH
 70
  3020
  9
$CMLSTYLE
  2
Standard
  9
$CMLJUST
 70
     0
  9
$CMLSCALE
 40
1.0
  9
$PROXYGRAPHICS
 70
     1
  9
$MEASUREMENT
 70
     0
  9
$CELWEIGHT
370
    -1
  9
$ENDCAPS
280
     0
  9
$JOINSTYLE
280
     0
  9
$LWDISPLAY
290
     0
  9
$INSUNITS
 70
     4
  9
$HYPERLINKBASE
  1

  9
$STYLESHEET
  1

  9
$XEDIT
290
     1
  9
$CEPSNTYPE
380
     0
  9
$PSTYLEMODE
290
     1
  9
$FINGERPRINTGUID
  2
{ABFF5433-5E87-403A-A179-776B885A9F1E}
  9
$VERSIONGUID
  2
{FAEB1C32-E019-11D5-929B-00C0DF256EC4}
  9
$EXTNAMES
290
     1
  9
$PSVPSCALE
 40
0.0
  9
$OLESTARTUP
290
     0
  9
$SORTENTS
280
   127
  9
$INDEXCTL
280
     0
  9
$HIDETEXT
280
     1
  9
$XCLIPFRAME
290
     0
  9
$HALOGAP
280
     0
  9
$OBSCOLOR
 70
   257
  9
$OBSLTYPE
280
     0
  9
$INTERSECTIONDISPLAY
280
     0
  9
$INTERSECTIONCOLOR
 70
   257
  9
$DIMASSOC
280
     2
  9
$PROJECTNAME
  1

  0
ENDSEC
  0
SECTION
  2
CLASSES
  0
CLASS
  1
ACDBDICTIONARYWDFLT
  2
AcDbDictionaryWithDefault
  3
ObjectDBX Classes
 90
        0
 91
        4
280
     0
281
     0
  0
CLASS
  1
VISUALSTYLE
  2
AcDbVisualStyle
  3
ObjectDBX Classes
 90
     4095
 91
        4
280
     0
281
     0
  0
CLASS
  1
MATERIAL
  2
AcDbMaterial
  3
ObjectDBX Classes
 90
     1153
 91
        4
280
     0
281
     0
  0
CLASS
  1
SCALE
  2
AcDbScale
  3
ObjectDBX Classes
 90
     1153
 91
        4
280
     0
281
     0
  0
CLASS
  1
SUN
  2
AcDbSun
  3
SCENEOE
 90
     1153
 91
        4
280
     0
281
     0
  0
CLASS
  1
DICTIONARYVAR
  2
AcDbDictionaryVar
  3
ObjectDBX Classes
 90
        0
 91
        4
280
     0
281
     0
  0
ENDSEC
  0
SECTION
  2
TABLES
  0
TABLE
  2
VPORT
  5
8
330
0
100
AcDbSymbolTable
 70
     1
  0
VPORT
  5
29
330
8
100
AcDbSymbolTableRecord
100
AcDbViewportTableRecord
  2
*Active
 70
     0
 10
0.0
 20
0.0
 11
1.0
 21
1.0
 12
157.5000000000001
 22
1084.356641757575
 13
0.0
 23
0.0
 14
0.5
 24
0.5
 15
0.5
 25
0.5
 16
0.0
 26
0.0
 36
1.0
 17
0.0
 27
0.0
 37
0.0
 40
76.85890801477098
 41
4.18038726152929
 42
50.0
 43
0.0
 44
0.0
 50
0.0
 51
0.0
 71
     0
 72
   100
 73
     1
 74
     3
 75
     0
 76
     0
 77
     0
 78
     0
281
     0
 65
     1
110
0.0
120
0.0
130
0.0
111
1.0
121
0.0
131
0.0
112
0.0
122
1.0
132
0.0
 79
     0
146
0.0
  0
ENDTAB
  0
TABLE
  2
LTYPE
  5
5
330
0
100
AcDbSymbolTable
 70
     1
  0
LTYPE
  5
14
330
5
100
AcDbSymbolTableRecord
100
AcDbLinetypeTableRecord
  2
ByBlock
 70
     0
  3

 72
    65
 73
     0
 40
0.0
  0
LTYPE
  5
15
330
5
100
AcDbSymbolTableRecord
100
AcDbLinetypeTableRecord
  2
ByLayer
 70
     0
  3

 72
    65
 73
     0
 40
0.0
  0
LTYPE
  5
16
330
5
100
AcDbSymbolTableRecord
100
AcDbLinetypeTableRecord
  2
Continuous
 70
     0
  3
Solid line
 72
    65
 73
     0
 40
0.0
  0
ENDTAB
  0
TABLE
  2
LAYER
  5
2
330
0
100
AcDbSymbolTable
 70
     3
  0
LAYER
  5
10
330
2
100
AcDbSymbolTableRecord
100
AcDbLayerTableRecord
  2
0
 70
     0
 62
     7
  6
Continuous
370
    -3
390
F
  0
LAYER
  5
62
330
2
100
AcDbSymbolTableRecord
100
AcDbLayerTableRecord
  2
Make2D$可见线$普通线
 70
     0
 62
    18
420
        0
  6
Continuous
370
    -3
390
F
  0
LAYER
  5
346
330
2
100
AcDbSymbolTableRecord
100
AcDbLayerTableRecord
  2
E9127
 70
     0
 62
    18
420
        0
  6
Continuous
370
    -3
390
F
  0
ENDTAB
  0
TABLE
  2
STYLE
  5
3
330
0
100
AcDbSymbolTable
 70
     1
  0
STYLE
  5
11
330
3
100
AcDbSymbolTableRecord
100
AcDbTextStyleTableRecord
  2
Standard
 70
     0
 40
0.0
 41
1.0
 50
0.0
 71
     0
 42
0.2
  3
txt
  4

  0
ENDTAB
  0
TABLE
  2
VIEW
  5
6
330
0
100
AcDbSymbolTable
 70
     0
  0
ENDTAB
  0
TABLE
  2
UCS
  5
7
330
0
100
AcDbSymbolTable
 70
     0
  0
ENDTAB
  0
TABLE
  2
APPID
  5
9
330
0
100
AcDbSymbolTable
 70
     1
  0
APPID
  5
12
330
9
100
AcDbSymbolTableRecord
100
AcDbRegAppTableRecord
  2
ACAD
 70
     0
  0
ENDTAB
  0
TABLE
  2
DIMSTYLE
  5
A
330
0
100
AcDbSymbolTable
 70
     1
100
AcDbDimStyleTable
  0
DIMSTYLE
105
27
330
A
100
AcDbSymbolTableRecord
100
AcDbDimStyleTableRecord
  2
Standard
 70
     0
178
     0
340
11
  0
ENDTAB
  0
TABLE
  2
BLOCK_RECORD
  5
1
330
0
100
AcDbSymbolTable
 70
     1
  0
BLOCK_RECORD
  5
1F
330
1
100
AcDbSymbolTableRecord
100
AcDbBlockTableRecord
  2
*Model_Space
340
22
  0
BLOCK_RECORD
  5
1B
330
1
100
AcDbSymbolTableRecord
100
AcDbBlockTableRecord
  2
*Paper_Space
340
1E
  0
BLOCK_RECORD
  5
23
330
1
100
AcDbSymbolTableRecord
100
AcDbBlockTableRecord
  2
*Paper_Space0
340
26
  0
ENDTAB
  0
ENDSEC
  0
SECTION
  2
BLOCKS
  0
BLOCK
  5
20
330
1F
100
AcDbEntity
  8
0
100
AcDbBlockBegin
  2
*Model_Space
 70
     0
 10
0.0
 20
0.0
 30
0.0
  3
*Model_Space
  1
*Model_Space
  0
ENDBLK
  5
21
330
1F
100
AcDbEntity
  8
0
100
AcDbBlockEnd
  0
BLOCK
  5
1C
330
1B
100
AcDbEntity
 67
     1
  8
0
100
AcDbBlockBegin
  2
*Paper_Space
 70
     0
 10
0.0
 20
0.0
 30
0.0
  3
*Paper_Space
  1
*Paper_Space
  0
ENDBLK
  5
1D
330
1B
100
AcDbEntity
 67
     1
  8
0
100
AcDbBlockEnd
  0
BLOCK
  5
24
330
23
100
AcDbEntity
  8
0
100
AcDbBlockBegin
  2
*Paper_Space0
 70
     0
 10
0.0
 20
0.0
 30
0.0
  3
*Paper_Space0
  1
*Paper_Space0
  0
ENDBLK
  5
25
330
23
100
AcDbEntity
  8
0
100
AcDbBlockEnd
  0
ENDSEC
  0
SECTION
  2
ENTITIES
  0
LINE
  5
63
330
1F
100
AcDbEntity
  8
Make2D$可见线$普通线
100
AcDbLine
 10
175.9494206008154
 20
1068.551137869575
 30
0.0
 11
175.722948500502
 21
1068.536394962709
 31
0.0
  0
LINE
  5
64
330
1F
100
AcDbEntity
  8
Make2D$可见线$普通线
100
AcDbLine
 10
139.2770515028895
 20
1068.53639496257
 30
0.0
 11
139.0505793995525
 21
1068.551137869542
 31
0.0
  0
ARC
  5
65
330
1F
100
AcDbEntity
  8
Make2D$可见线$普通线
100
AcDbCircle
 10
147.0135170991227
 20
1048.556707460005
 30
0.0
 40
0.4872838700220426
100
AcDbArc
 50
297.024264398464
 51
70.44051815479682
  0
ARC
  5
66
330
1F
100
AcDbEntity
  8
Make2D$可见线$普通线
100
AcDbCircle
 10
167.9858453410526
 20
1051.024832480869
 30
0.0
 40
0.487047500208786
100
AcDbArc
 50
119.4809452589
 51
250.7400854599793
  0
ARC
  5
67
330
1F
100
AcDbEntity
  8
Make2D$可见线$普通线
100
AcDbCircle
 10
167.9870865000049
 20
1049.381037142454
 30
0.0
 40
0.4875686538399867
100
AcDbArc
 50
119.3853832314158
 51
250.715270157108
  0
ARC
  5
68
330
1F
100
AcDbEntity
  8
Make2D$可见线$普通线
100
AcDbCircle
 10
167.988410608813
 20
1047.735400977674
 30
0.0
 40
0.4893108975286994
100
AcDbArc
 50
117.1513542927983
 51
235.8019319214987
  0
POLYLINE
  5
69
330
1F
100
AcDbEntity
  8
Make2D$可见线$普通线
100
AcDb2dPolyline
 66
     1
 10
0.0
 20
0.0
 30
0.0
  0
VERTEX
  5
6A
330
69
100
AcDbEntity
  8
Make2D$可见线$普通线
100
AcDbVertex
100
AcDb2dVertex
 10
147.866522433561
 20
1056.750645533272
 30
0.0
 42
-0.3628268635502332
  0
VERTEX
  5
6B
330
69
100
AcDbEntity
  8
Make2D$可见线$普通线
100
AcDbVertex
100
AcDb2dVertex
 10
148.281372063597
 20
1056.255058659551
 30
0.0
  0
VERTEX
  5
6C
330
69
100
AcDbEntity
  8
Make2D$可见线$普通线
100
AcDbVertex
100
AcDb2dVertex
 10
148.2813720635972
 20
1055.24493597704
 30
0.0
 42
-0.358981840769888
  0
VERTEX
  5
6D
330
69
100
AcDbEntity
  8
Make2D$可见线$普通线
100
AcDbVertex
100
AcDb2dVertex
 10
147.8680503429083
 20
1054.748915788081
 30
0.0
  0
SEQEND
  5
6E
330
69
100
AcDbEntity
  8
Make2D$可见线$普通线
  0
SPLINE
  5
6F
330
1F
100
AcDbEntity
  8
Make2D$可见线$普通线
100
AcDbSpline
210
0.0
220
0.0
230
1.0
 70
     8
 71
     3
 72
    14
 73
    10
 74
     0
 42
0.000000001
 43
0.0000000001
 12
1.0
 22
0.0
 32
0.0
 13
1.0
 23
0.0
 33
0.0
 40
47.34935474017718
 40
47.34935474017718
 40
47.34935474017718
 40
47.34935474017718
 40
49.86250989549032
 40
49.86250989549032
 40
49.86250989549032
 40
49.87488673006036
 40
49.87488673006036
 40
49.87488673006036
 40
52.10883219427323
 40
52.10883219427323
 40
52.10883219427323
 40
52.10883219427323
 10
147.2413105809038
 20
1052.280114017836
 30
0.0
 10
147.0437305486005
 20
1052.3008377488
 30
0.0
 10
146.9433597158241
 20
1052.321491660527
 30
0.0
 10
146.9423794789419
 20
1052.342221066928
 30
0.0
 10
146.9423746454088
 20
1052.342323283316
 30
0.0
 10
146.9423722286406
 20
1052.342425498259
 30
0.0
 10
146.9423722286406
 20
1052.342527711657
 30
0.0
 10
146.9423722286406
 20
1052.360953784346
 30
0.0
 10
147.0209099736894
 20
1052.379318445976
 30
0.0
 10
147.1764749209883
 20
1052.397729188832
 30
0.0
  0
POLYLINE
  5
70
330
1F
100
AcDbEntity
  8
Make2D$可见线$普通线
100
AcDb2dPolyline
 66
     1
 10
0.0
 20
0.0
 30
0.0
  0
VERTEX
  5
71
330
70
100
AcDbEntity
  8
Make2D$可见线$普通线
100
AcDbVertex
100
AcDb2dVertex
 10
147.2440527001335
 20
1049.767603757106
 30
0.0
 42
0.6097573656041273
  0
VERTEX
  5
72
330
70
100
AcDbEntity
  8
Make2D$可见线$普通线
100
AcDbVertex
100
AcDb2dVertex
 10
147.2243309426223
 20
1050.641852965076
 30
0.0
  0
VERTEX
  5
73
330
70
100
AcDbEntity
  8
Make2D$可见线$普通线
100
AcDbVertex
100
AcDb2dVertex
 10
147.173847695137
 20
1050.660609717378
 30
0.0
  0
SEQEND
  5
74
330
70
100
AcDbEntity
  8
Make2D$可见线$普通线
  0
POLYLINE
  5
75
330
1F
100
AcDbEntity
  8
Make2D$可见线$普通线
100
AcDb2dPolyline
 66
     1
 10
0.0
 20
0.0
 30
0.0
  0
VERTEX
  5
76
330
75
100
AcDbEntity
  8
Make2D$可见线$普通线
100
AcDbVertex
100
AcDb2dVertex
 10
268.5
 20
1112.532642259505
 30
0.0
 42
-0.4142327249767528
  0
VERTEX
  5
77
330
75
100
AcDbEntity
  8
Make2D$可见线$普通线
100
AcDbVertex
100
AcDb2dVertex
 10
270.5
 20
1114.532631392736
 30
0.0
  0
VERTEX
  5
78
330
75
100
AcDbEntity
  8
Make2D$可见线$普通线
100
AcDbVertex
100
AcDb2dVertex
 10
312.9999999999999
 20
1114.532631392736
 30
0.0
 42
-0.4142327722618911
  0
VERTEX
  5
79
330
75
100
AcDbEntity
  8
Make2D$可见线$普通线
100
AcDbVertex
100
AcDb2dVertex
 10
315.0000000000001
 20
1112.532642259505
 30
0.0
  0
VERTEX
  5
7A
330
75
100
AcDbEntity
  8
Make2D$可见线$普通线
100
AcDbVertex
100
AcDb2dVertex
 10
315.0
 20
1070.532544458644
 30
0.0
 42
-0.4142374989789607
  0
VERTEX
  5
7B
330
75
100
AcDbEntity
  8
Make2D$可见线$普通线
100
AcDbVertex
100
AcDb2dVertex
 10
313.0
 20
1068.532522725131
 30
0.0
  0
VERTEX
  5
7C
330
75
100
AcDbEntity
  8
Make2D$可见线$普通线
100
AcDbVertex
100
AcDb2dVertex
 10
270.5
 20
1068.532522725131
 30
0.0
 42
-0.4142375462642793
  0
VERTEX
  5
7D
330
75
100
AcDbEntity
  8
Make2D$可见线$普通线
100
AcDbVertex
100
AcDb2dVertex
 10
268.4999999999998
 20
1070.532544458647
 30
0.0
  0
VERTEX
  5
7E
330
75
100
AcDbEntity
  8
Make2D$可见线$普通线
100
AcDbVertex
100
AcDb2dVertex
 10
267.5000000000001
 20
1070.532577058932
 30
0.0
  0
VERTEX
  5
7F
330
75
100
AcDbEntity
  8
Make2D$可见线$普通线
100
AcDbVertex
100
AcDb2dVertex
 10
267.4999999999999
 20
1112.532642259505
 30
0.0
 42
0.4142327722596491
  0
VERTEX
  5
80
330
75
100
AcDbEntity
  8
Make2D$可见线$普通线
100
AcDbVertex
100
AcDb2dVertex
 10
265.4999999999999
 20
1114.532631392736
 30
0.0
  0
VERTEX
  5
81
330
75
100
AcDbEntity
  8
Make2D$可见线$普通线
100
AcDbVertex
100
AcDb2dVertex
 10
49.49999999999997
 20
1114.532631392736
 30
0.0
 42
0.4142327722582262
  0
VERTEX
  5
82
330
75
100
AcDbEntity
  8
Make2D$可见线$普通线
100
AcDbVertex
100
AcDb2dVertex
 10
47.49999999999978
 20
1112.532642259505
 30
0.0
  0
SEQEND
  5
83
330
75
100
AcDbEntity
  8
Make2D$可见线$普通线
  0
POLYLINE
  5
84
330
1F
100
AcDbEntity
  8
Make2D$可见线$普通线
100
AcDb2dPolyline
 66
     1
 10
0.0
 20
0.0
 30
0.0
  0
VERTEX
  5
85
330
84
100
AcDbEntity
  8
Make2D$可见线$普通线
100
AcDbVertex
100
AcDb2dVertex
 10
46.49999999999998
 20
1112.532642259505
 30
0.0
 42
0.4142327249767682
  0
VERTEX
  5
86
330
84
100
AcDbEntity
  8
Make2D$可见线$普通线
100
AcDbVertex
100
AcDb2dVertex
 10
44.5
 20
1114.532631392736
 30
0.0
  0
VERTEX
  5
87
330
84
100
AcDbEntity
  8
Make2D$可见线$普通线
100
AcDbVertex
100
AcDb2dVertex
 10
2.000000000000076
 20
1114.532631392736
 30
0.0
 42
0.41423277226236
  0
VERTEX
  5
88
330
84
100
AcDbEntity
  8
Make2D$可见线$普通线
100
AcDbVertex
100
AcDb2dVertex
 10
0.0000000000000648
 20
1112.532642259505
 30
0.0
  0
VERTEX
  5
89
330
84
100
AcDbEntity
  8
Make2D$可见线$普通线
100
AcDbVertex
100
AcDb2dVertex
 10
0.0000000000000508
 20
1070.532544458644
 30
0.0
 42
0.4142374989790647
  0
VERTEX
  5
8A
330
84
100
AcDbEntity
  8
Make2D$可见线$普通线
100
AcDbVertex
100
AcDb2dVertex
 10
2.000000000000043
 20
1068.532522725131
 30
0.0
  0
VERTEX
  5
8B
330
84
100
AcDbEntity
  8
Make2D$可见线$普通线
100
AcDbVertex
100
AcDb2dVertex
 10
44.50000000000002
 20
1068.532522725131
 30
0.0
 42
0.4142375462640638
  0
VERTEX
  5
8C
330
84
100
AcDbEntity
  8
Make2D$可见线$普通线
100
AcDbVertex
100
AcDb2dVertex
 10
46.50000000000004
 20
1070.532544458647
 30
0.0
  0
VERTEX
  5
8D
330
84
100
AcDbEntity
  8
Make2D$可见线$普通线
100
AcDbVertex
100
AcDb2dVertex
 10
47.50000000000003
 20
1070.532577058933
 30
0.0
  0
SEQEND
  5
8E
330
84
100
AcDbEntity
  8
Make2D$可见线$普通线
  0
POLYLINE
  5
8F
330
1F
100
AcDbEntity
  8
Make2D$可见线$普通线
100
AcDb2dPolyline
 66
     1
 10
0.0
 20
0.0
 30
0.0
  0
VERTEX
  5
90
330
8F
100
AcDbEntity
  8
Make2D$可见线$普通线
100
AcDbVertex
100
AcDb2dVertex
 10
139.052365448914
 20
1068.532577058933
 30
0.0
  0
VERTEX
  5
91
330
8F
100
AcDbEntity
  8
Make2D$可见线$普通线
100
AcDbVertex
100
AcDb2dVertex
 10
139.2088994688265
 20
1068.532577058933
 30
0.0
  0
VERTEX
  5
92
330
8F
100
AcDbEntity
  8
Make2D$可见线$普通线
100
AcDbVertex
100
AcDb2dVertex
 10
52.49999999999986
 20
1068.532577058933
 30
0.0
  0
VERTEX
  5
93
330
8F
100
AcDbEntity
  8
Make2D$可见线$普通线
100
AcDbVertex
100
AcDb2dVertex
 10
49.49999999999997
 20
1068.532522725131
 30
0.0
 42
-0.4142327722620983
  0
VERTEX
  5
94
330
8F
100
AcDbEntity
  8
Make2D$可见线$普通线
100
AcDbVertex
100
AcDb2dVertex
 10
47.50000000000012
 20
1070.532511858362
 30
0.0
  0
VERTEX
  5
95
330
8F
100
AcDbEntity
  8
Make2D$可见线$普通线
100
AcDbVertex
100
AcDb2dVertex
 10
47.5
 20
1112.532577058935
 30
0.0
  0
VERTEX
  5
96
330
8F
100
AcDbEntity
  8
Make2D$可见线$普通线
100
AcDbVertex
100
AcDb2dVertex
 10
46.5
 20
1112.532577058935
 30
0.0
  0
VERTEX
  5
97
330
8F
100
AcDbEntity
  8
Make2D$可见线$普通线
100
AcDbVertex
100
AcDb2dVertex
 10
46.49999999999996
 20
1070.537750624864
 30
0.0
  0
SEQEND
  5
98
330
8F
100
AcDbEntity
  8
Make2D$可见线$普通线
  0
POLYLINE
  5
99
330
1F
100
AcDbEntity
  8
Make2D$可见线$普通线
100
AcDb2dPolyline
 66
     1
 10
0.0
 20
0.0
 30
0.0
  0
VERTEX
  5
9A
330
99
100
AcDbEntity
  8
Make2D$可见线$普通线
100
AcDbVertex
100
AcDb2dVertex
 10
168.3781352887489
 20
1056.758442056151
 30
0.0
  0
VERTEX
  5
9B
330
99
100
AcDbEntity
  8
Make2D$可见线$普通线
100
AcDbVertex
100
AcDb2dVertex
 10
168.5946525817438
 20
1056.758442056151
 30
0.0
 42
0.4157412292150249
  0
VERTEX
  5
9C
330
99
100
AcDbEntity
  8
Make2D$可见线$普通线
100
AcDbVertex
100
AcDb2dVertex
 10
169.5949576320458
 20
1057.758442056151
 30
0.0
  0
VERTEX
  5
9D
330
99
100
AcDbEntity
  8
Make2D$可见线$普通线
100
AcDbVertex
100
AcDb2dVertex
 10
169.5912691863344
 20
1068.532577058933
 30
0.0
  0
SEQEND
  5
9E
330
99
100
AcDbEntity
  8
Make2D$可见线$普通线
  0
POLYLINE
  5
9F
330
1F
100
AcDbEntity
  8
Make2D$可见线$普通线
100
AcDb2dPolyline
 66
     1
 10
0.0
 20
0.0
 30
0.0
  0
VERTEX
  5
A0
330
9F
100
AcDbEntity
  8
Make2D$可见线$普通线
100
AcDbVertex
100
AcDb2dVertex
 10
145.4087308136656
 20
1068.532577058933
 30
0.0
  0
VERTEX
  5
A1
330
9F
100
AcDbEntity
  8
Make2D$可见线$普通线
100
AcDbVertex
100
AcDb2dVertex
 10
145.4050423679545
 20
1057.758442056151
 30
0.0
 42
0.4157412308029986
  0
VERTEX
  5
A2
330
9F
100
AcDbEntity
  8
Make2D$可见线$普通线
100
AcDbVertex
100
AcDb2dVertex
 10
146.4053474182891
 20
1056.758442056151
 30
0.0
  0
VERTEX
  5
A3
330
9F
100
AcDbEntity
  8
Make2D$可见线$普通线
100
AcDbVertex
100
AcDb2dVertex
 10
166.4595717259193
 20
1056.758442056151
 30
0.0
  0
VERTEX
  5
A4
330
9F
100
AcDbEntity
  8
Make2D$可见线$普通线
100
AcDbVertex
100
AcDb2dVertex
 10
167.1327830864162
 20
1056.754543794679
 30
0.0
 42
0.3580563948204097
  0
VERTEX
  5
A5
330
9F
100
AcDbEntity
  8
Make2D$可见线$普通线
100
AcDbVertex
100
AcDb2dVertex
 10
166.718627936403
 20
1056.255058659551
 30
0.0
  0
VERTEX
  5
A6
330
9F
100
AcDbEntity
  8
Make2D$可见线$普通线
100
AcDbVertex
100
AcDb2dVertex
 10
166.7186279364029
 20
1055.24493597704
 30
0.0
 42
0.3589818407703128
  0
VERTEX
  5
A7
330
9F
100
AcDbEntity
  8
Make2D$可见线$普通线
100
AcDbVertex
100
AcDb2dVertex
 10
167.1319496570917
 20
1054.748915788081
 30
0.0
  0
SEQEND
  5
A8
330
9F
100
AcDbEntity
  8
Make2D$可见线$普通线
  0
POLYLINE
  5
A9
330
1F
100
AcDbEntity
  8
Make2D$可见线$普通线
100
AcDb2dPolyline
 66
     1
 10
0.0
 20
0.0
 30
0.0
  0
VERTEX
  5
AA
330
A9
100
AcDbEntity
  8
Make2D$可见线$普通线
100
AcDbVertex
100
AcDb2dVertex
 10
147.2584532155461
 20
1051.419968586962
 30
0.0
 42
0.5488765403992054
  0
VERTEX
  5
AB
330
A9
100
AcDbEntity
  8
Make2D$可见线$普通线
100
AcDbVertex
100
AcDb2dVertex
 10
147.2840914867367
 20
1052.252364254051
 30
0.0
  0
VERTEX
  5
AC
330
A9
100
AcDbEntity
  8
Make2D$可见线$普通线
100
AcDbVertex
100
AcDb2dVertex
 10
147.1796554144348
 20
1052.311137245123
 30
0.0
  0
SEQEND
  5
AD
330
A9
100
AcDbEntity
  8
Make2D$可见线$普通线
  0
POLYLINE
  5
AE
330
1F
100
AcDbEntity
  8
Make2D$可见线$普通线
100
AcDb2dPolyline
 66
     1
 10
0.0
 20
0.0
 30
0.0
  0
VERTEX
  5
AF
330
AE
100
AcDbEntity
  8
Make2D$可见线$普通线
100
AcDbVertex
100
AcDb2dVertex
 10
147.2439717467942
 20
1053.058537802186
 30
0.0
 42
0.5130765308061385
  0
VERTEX
  5
B0
330
AE
100
AcDbEntity
  8
Make2D$可见线$普通线
100
AcDbVertex
100
AcDb2dVertex
 10
147.3424419281802
 20
1053.850780871557
 30
0.0
 42
0.1723451244467247
  0
VERTEX
  5
B1
330
AE
100
AcDbEntity
  8
Make2D$可见线$普通线
100
AcDbVertex
100
AcDb2dVertex
 10
147.1786245823268
 20
1053.947321999033
 30
0.0
  0
SEQEND
  5
B2
330
AE
100
AcDbEntity
  8
Make2D$可见线$普通线
  0
POLYLINE
  5
B3
330
1F
100
AcDbEntity
  8
Make2D$可见线$普通线
100
AcDb2dPolyline
 66
     1
 10
0.0
 20
0.0
 30
0.0
  0
VERTEX
  5
B4
330
B3
100
AcDbEntity
  8
Make2D$可见线$普通线
100
AcDbVertex
100
AcDb2dVertex
 10
147.4389254734481
 20
1047.170784668745
 30
0.0
  0
VERTEX
  5
B5
330
B3
100
AcDbEntity
  8
Make2D$可见线$普通线
100
AcDbVertex
100
AcDb2dVertex
 10
147.9337613961548
 20
1046.680706456217
 30
0.0
  0
VERTEX
  5
B6
330
B3
100
AcDbEntity
  8
Make2D$可见线$普通线
100
AcDbVertex
100
AcDb2dVertex
 10
167.0662386038452
 20
1046.680706456217
 30
0.0
  0
VERTEX
  5
B7
330
B3
100
AcDbEntity
  8
Make2D$可见线$普通线
100
AcDbVertex
100
AcDb2dVertex
 10
167.7151001533938
 20
1047.324812860528
 30
0.0
  0
VERTEX
  5
B8
330
B3
100
AcDbEntity
  8
Make2D$可见线$普通线
100
AcDbVertex
100
AcDb2dVertex
 10
167.7150252951629
 20
1047.324735437357
 30
0.0
 42
-0.0604087459023028
  0
VERTEX
  5
B9
330
B3
100
AcDbEntity
  8
Make2D$可见线$普通线
100
AcDbVertex
100
AcDb2dVertex
 10
167.3759525137201
 20
1047.288457201554
 30
0.0
 42
-0.0065193176323692
  0
VERTEX
  5
BA
330
B3
100
AcDbEntity
  8
Make2D$可见线$普通线
100
AcDbVertex
100
AcDb2dVertex
 10
157.5
 20
1047.143444296485
 30
0.0
  0
VERTEX
  5
BB
330
B3
100
AcDbEntity
  8
Make2D$可见线$普通线
100
AcDbVertex
100
AcDb2dVertex
 10
151.5425827001867
 20
1047.111707709258
 30
0.0
  0
VERTEX
  5
BC
330
B3
100
AcDbEntity
  8
Make2D$可见线$普通线
100
AcDbVertex
100
AcDb2dVertex
 10
148.6182661304723
 20
1047.115469675067
 30
0.0
  0
VERTEX
  5
BD
330
B3
100
AcDbEntity
  8
Make2D$可见线$普通线
100
AcDbVertex
100
AcDb2dVertex
 10
147.9803720969123
 20
1047.126799237353
 30
0.0
  0
VERTEX
  5
BE
330
B3
100
AcDbEntity
  8
Make2D$可见线$普通线
100
AcDbVertex
100
AcDb2dVertex
 10
147.8033685001854
 20
1047.133461610716
 30
0.0
  0
VERTEX
  5
BF
330
B3
100
AcDbEntity
  8
Make2D$可见线$普通线
100
AcDbVertex
100
AcDb2dVertex
 10
147.6596593037952
 20
1047.142004515958
 30
0.0
  0
VERTEX
  5
C0
330
B3
100
AcDbEntity
  8
Make2D$可见线$普通线
100
AcDbVertex
100
AcDb2dVertex
 10
147.6096902373005
 20
1047.146192729668
 30
0.0
  0
VERTEX
  5
C1
330
B3
100
AcDbEntity
  8
Make2D$可见线$普通线
100
AcDbVertex
100
AcDb2dVertex
 10
147.5654976204803
 20
1047.150859280692
 30
0.0
  0
VERTEX
  5
C2
330
B3
100
AcDbEntity
  8
Make2D$可见线$普通线
100
AcDbVertex
100
AcDb2dVertex
 10
147.5455087131363
 20
1047.15341832843
 30
0.0
  0
VERTEX
  5
C3
330
B3
100
AcDbEntity
  8
Make2D$可见线$普通线
100
AcDbVertex
100
AcDb2dVertex
 10
147.5268933971365
 20
1047.156152635378
 30
0.0
  0
VERTEX
  5
C4
330
B3
100
AcDbEntity
  8
Make2D$可见线$普通线
100
AcDbVertex
100
AcDb2dVertex
 10
147.5096281654563
 20
1047.159080759829
 30
0.0
  0
VERTEX
  5
C5
330
B3
100
AcDbEntity
  8
Make2D$可见线$普通线
100
AcDbVertex
100
AcDb2dVertex
 10
147.4936895110707
 20
1047.162221260076
 30
0.0
 42
-0.1531945855342536
  0
VERTEX
  5
C6
330
B3
100
AcDbEntity
  8
Make2D$可见线$普通线
100
AcDbVertex
100
AcDb2dVertex
 10
147.4108989976046
 20
1047.198811144589
 30
0.0
  0
VERTEX
  5
C7
330
B3
100
AcDbEntity
  8
Make2D$可见线$普通线
100
AcDbVertex
100
AcDb2dVertex
 10
147.3987798211891
 20
1047.215377693963
 30
0.0
  0
VERTEX
  5
C8
330
B3
100
AcDbEntity
  8
Make2D$可见线$普通线
100
AcDbVertex
100
AcDb2dVertex
 10
147.328966797601
 20
1047.287378014921
 30
0.0
  0
VERTEX
  5
C9
330
B3
100
AcDbEntity
  8
Make2D$可见线$普通线
100
AcDbVertex
100
AcDb2dVertex
 10
147.2849688899292
 20
1047.324741252264
 30
0.0
 42
-0.4662625356437531
  0
VERTEX
  5
CA
330
B3
100
AcDbEntity
  8
Make2D$可见线$普通线
100
AcDbVertex
100
AcDb2dVertex
 10
147.270583519182
 20
1047.386357365627
 30
0.0
 42
-0.127470642096104
  0
VERTEX
  5
CB
330
B3
100
AcDbEntity
  8
Make2D$可见线$普通线
100
AcDbVertex
100
AcDb2dVertex
 10
147.3733165906161
 20
1047.432515213454
 30
0.0
 42
-0.0317069624130637
  0
VERTEX
  5
CC
330
B3
100
AcDbEntity
  8
Make2D$可见线$普通线
100
AcDbVertex
100
AcDb2dVertex
 10
148.4225858916109
 20
1047.544578016503
 30
0.0
 42
-0.0074758777766465
  0
VERTEX
  5
CD
330
B3
100
AcDbEntity
  8
Make2D$可见线$普通线
100
AcDbVertex
100
AcDb2dVertex
 10
151.2077561244185
 20
1047.655468183889
 30
0.0
  0
SEQEND
  5
CE
330
B3
100
AcDbEntity
  8
Make2D$可见线$普通线
  0
POLYLINE
  5
CF
330
1F
100
AcDbEntity
  8
Make2D$可见线$普通线
100
AcDb2dPolyline
 66
     1
 10
0.0
 20
0.0
 30
0.0
  0
VERTEX
  5
D0
330
CF
100
AcDbEntity
  8
Make2D$可见线$普通线
100
AcDbVertex
100
AcDb2dVertex
 10
167.7983512582211
 20
1048.941002333953
 30
0.0
  0
VERTEX
  5
D1
330
CF
100
AcDbEntity
  8
Make2D$可见线$普通线
100
AcDbVertex
100
AcDb2dVertex
 10
168.0055376459211
 20
1048.908900888366
 30
0.0
 42
-0.2356105405087935
  0
VERTEX
  5
D2
330
CF
100
AcDbEntity
  8
Make2D$可见线$普通线
100
AcDbVertex
100
AcDb2dVertex
 10
168.0576277713595
 20
1048.882915727909
 30
0.0
 42
-0.1889041730922214
  0
VERTEX
  5
D3
330
CF
100
AcDbEntity
  8
Make2D$可见线$普通线
100
AcDbVertex
100
AcDb2dVertex
 10
167.9451243939576
 20
1048.844668323591
 30
0.0
  0
VERTEX
  5
D4
330
CF
100
AcDbEntity
  8
Make2D$可见线$普通线
100
AcDbVertex
100
AcDb2dVertex
 10
167.7741240492512
 20
1048.823024037493
 30
0.0
  0
VERTEX
  5
D5
330
CF
100
AcDbEntity
  8
Make2D$可见线$普通线
100
AcDbVertex
100
AcDb2dVertex
 10
167.6026528445107
 20
1048.80509977375
 30
0.0
  0
VERTEX
  5
D6
330
CF
100
AcDbEntity
  8
Make2D$可见线$普通线
100
AcDbVertex
100
AcDb2dVertex
 10
167.4308323231722
 20
1048.790909575272
 30
0.0
  0
VERTEX
  5
D7
330
CF
100
AcDbEntity
  8
Make2D$可见线$普通线
100
AcDbVertex
100
AcDb2dVertex
 10
165.9871926392019
 20
1048.716231907096
 30
0.0
  0
VERTEX
  5
D8
330
CF
100
AcDbEntity
  8
Make2D$可见线$普通线
100
AcDbVertex
100
AcDb2dVertex
 10
164.2070157707412
 20
1048.652010011747
 30
0.0
  0
VERTEX
  5
D9
330
CF
100
AcDbEntity
  8
Make2D$可见线$普通线
100
AcDbVertex
100
AcDb2dVertex
 10
159.5719865288743
 20
1048.52357914854
 30
0.0
  0
VERTEX
  5
DA
330
CF
100
AcDbEntity
  8
Make2D$可见线$普通线
100
AcDbVertex
100
AcDb2dVertex
 10
157.5
 20
1048.471894997238
 30
0.0
  0
VERTEX
  5
DB
330
CF
100
AcDbEntity
  8
Make2D$可见线$普通线
100
AcDbVertex
100
AcDb2dVertex
 10
152.0830090867231
 20
1048.330914108792
 30
0.0
  0
VERTEX
  5
DC
330
CF
100
AcDbEntity
  8
Make2D$可见线$普通线
100
AcDbVertex
100
AcDb2dVertex
 10
150.0346298096283
 20
1048.266385161981
 30
0.0
  0
VERTEX
  5
DD
330
CF
100
AcDbEntity
  8
Make2D$可见线$普通线
100
AcDbVertex
100
AcDb2dVertex
 10
148.4506597104222
 20
1048.202467829206
 30
0.0
  0
VERTEX
  5
DE
330
CF
100
AcDbEntity
  8
Make2D$可见线$普通线
100
AcDbVertex
100
AcDb2dVertex
 10
147.4006085535352
 20
1048.138259932522
 30
0.0
 42
0.0563761133440379
  0
VERTEX
  5
DF
330
CF
100
AcDbEntity
  8
Make2D$可见线$普通线
100
AcDbVertex
100
AcDb2dVertex
 10
146.9557126182158
 20
1048.074045825744
 30
0.0
  0
VERTEX
  5
E0
330
CF
100
AcDbEntity
  8
Make2D$可见线$普通线
100
AcDbVertex
100
AcDb2dVertex
 10
146.9423722286406
 20
1048.060897542274
 30
0.0
  0
VERTEX
  5
E1
330
CF
100
AcDbEntity
  8
Make2D$可见线$普通线
100
AcDbVertex
100
AcDb2dVertex
 10
146.9446714116394
 20
1047.665038730554
 30
0.0
  0
VERTEX
  5
E2
330
CF
100
AcDbEntity
  8
Make2D$可见线$普通线
100
AcDbVertex
100
AcDb2dVertex
 10
147.2563146549305
 20
1047.353395487263
 30
0.0
  0
SEQEND
  5
E3
330
CF
100
AcDbEntity
  8
Make2D$可见线$普通线
  0
POLYLINE
  5
E4
330
1F
100
AcDbEntity
  8
Make2D$可见线$普通线
100
AcDb2dPolyline
 66
     1
 10
0.0
 20
0.0
 30
0.0
  0
VERTEX
  5
E5
330
E4
100
AcDbEntity
  8
Make2D$可见线$普通线
100
AcDbVertex
100
AcDb2dVertex
 10
167.7650721424699
 20
1052.232630017276
 30
0.0
 42
-0.0603669138939486
  0
VERTEX
  5
E6
330
E4
100
AcDbEntity
  8
Make2D$可见线$普通线
100
AcDbVertex
100
AcDb2dVertex
 10
168.0443128358301
 20
1052.184033241807
 30
0.0
  0
VERTEX
  5
E7
330
E4
100
AcDbEntity
  8
Make2D$可见线$普通线
100
AcDbVertex
100
AcDb2dVertex
 10
168.0459249603445
 20
1052.183211786492
 30
0.0
  0
VERTEX
  5
E8
330
E4
100
AcDbEntity
  8
Make2D$可见线$普通线
100
AcDbVertex
100
AcDb2dVertex
 10
168.0474331214613
 20
1052.182390402221
 30
0.0
  0
VERTEX
  5
E9
330
E4
100
AcDbEntity
  8
Make2D$可见线$普通线
100
AcDbVertex
100
AcDb2dVertex
 10
168.0488373130217
 20
1052.181569083366
 30
0.0
  0
VERTEX
  5
EA
330
E4
100
AcDbEntity
  8
Make2D$可见线$普通线
100
AcDbVertex
100
AcDb2dVertex
 10
168.0495004182935
 20
1052.181158446709
 30
0.0
  0
VERTEX
  5
EB
330
E4
100
AcDbEntity
  8
Make2D$可见线$普通线
100
AcDbVertex
100
AcDb2dVertex
 10
168.0501375288667
 20
1052.180747824296
 30
0.0
  0
VERTEX
  5
EC
330
E4
100
AcDbEntity
  8
Make2D$可见线$普通线
100
AcDbVertex
100
AcDb2dVertex
 10
168.0507486439713
 20
1052.180337215422
 30
0.0
  0
VERTEX
  5
ED
330
E4
100
AcDbEntity
  8
Make2D$可见线$普通线
100
AcDbVertex
100
AcDb2dVertex
 10
168.0513337628375
 20
1052.179926619383
 30
0.0
  0
VERTEX
  5
EE
330
E4
100
AcDbEntity
  8
Make2D$可见线$普通线
100
AcDbVertex
100
AcDb2dVertex
 10
168.0518928846953
 20
1052.179516035477
 30
0.0
  0
VERTEX
  5
EF
330
E4
100
AcDbEntity
  8
Make2D$可见线$普通线
100
AcDbVertex
100
AcDb2dVertex
 10
168.0524260087751
 20
1052.179105462998
 30
0.0
  0
VERTEX
  5
F0
330
E4
100
AcDbEntity
  8
Make2D$可见线$普通线
100
AcDbVertex
100
AcDb2dVertex
 10
168.0529331343067
 20
1052.178694901245
 30
0.0
  0
VERTEX
  5
F1
330
E4
100
AcDbEntity
  8
Make2D$可见线$普通线
100
AcDbVertex
100
AcDb2dVertex
 10
168.0534142605205
 20
1052.178284349513
 30
0.0
  0
VERTEX
  5
F2
330
E4
100
AcDbEntity
  8
Make2D$可见线$普通线
100
AcDbVertex
100
AcDb2dVertex
 10
168.0538693866465
 20
1052.177873807098
 30
0.0
  0
VERTEX
  5
F3
330
E4
100
AcDbEntity
  8
Make2D$可见线$普通线
100
AcDbVertex
100
AcDb2dVertex
 10
168.0542985119149
 20
1052.177463273296
 30
0.0
  0
VERTEX
  5
F4
330
E4
100
AcDbEntity
  8
Make2D$可见线$普通线
100
AcDbVertex
100
AcDb2dVertex
 10
168.0547016355558
 20
1052.177052747405
 30
0.0
  0
VERTEX
  5
F5
330
E4
100
AcDbEntity
  8
Make2D$可见线$普通线
100
AcDbVertex
100
AcDb2dVertex
 10
168.0550787567992
 20
1052.17664222872
 30
0.0
  0
VERTEX
  5
F6
330
E4
100
AcDbEntity
  8
Make2D$可见线$普通线
100
AcDbVertex
100
AcDb2dVertex
 10
168.0552575662814
 20
1052.17643697186
 30
0.0
  0
VERTEX
  5
F7
330
E4
100
AcDbEntity
  8
Make2D$可见线$普通线
100
AcDbVertex
100
AcDb2dVertex
 10
168.0554298748755
 20
1052.176231716538
 30
0.0
  0
VERTEX
  5
F8
330
E4
100
AcDbEntity
  8
Make2D$可见线$普通线
100
AcDbVertex
100
AcDb2dVertex
 10
168.0555956824853
 20
1052.176026462666
 30
0.0
  0
VERTEX
  5
F9
330
E4
100
AcDbEntity
  8
Make2D$可见线$普通线
100
AcDbVertex
100
AcDb2dVertex
 10
168.0557549890147
 20
1052.175821210156
 30
0.0
  0
VERTEX
  5
FA
330
E4
100
AcDbEntity
  8
Make2D$可见线$普通线
100
AcDbVertex
100
AcDb2dVertex
 10
168.0559077943673
 20
1052.175615958919
 30
0.0
  0
VERTEX
  5
FB
330
E4
100
AcDbEntity
  8
Make2D$可见线$普通线
100
AcDbVertex
100
AcDb2dVertex
 10
168.0560540984469
 20
1052.175410708869
 30
0.0
  0
VERTEX
  5
FC
330
E4
100
AcDbEntity
  8
Make2D$可见线$普通线
100
AcDbVertex
100
AcDb2dVertex
 10
168.0561939011573
 20
1052.175205459916
 30
0.0
  0
VERTEX
  5
FD
330
E4
100
AcDbEntity
  8
Make2D$可见线$普通线
100
AcDbVertex
100
AcDb2dVertex
 10
168.0563272024023
 20
1052.175000211973
 30
0.0
  0
VERTEX
  5
FE
330
E4
100
AcDbEntity
  8
Make2D$可见线$普通线
100
AcDbVertex
100
AcDb2dVertex
 10
168.0564540020855
 20
1052.174794964953
 30
0.0
  0
VERTEX
  5
FF
330
E4
100
AcDbEntity
  8
Make2D$可见线$普通线
100
AcDbVertex
100
AcDb2dVertex
 10
168.0565743001109
 20
1052.174589718767
 30
0.0
  0
VERTEX
  5
100
330
E4
100
AcDbEntity
  8
Make2D$可见线$普通线
100
AcDbVertex
100
AcDb2dVertex
 10
168.0566880963822
 20
1052.174384473327
 30
0.0
  0
VERTEX
  5
101
330
E4
100
AcDbEntity
  8
Make2D$可见线$普通线
100
AcDbVertex
100
AcDb2dVertex
 10
168.056795390803
 20
1052.174179228545
 30
0.0
  0
VERTEX
  5
102
330
E4
100
AcDbEntity
  8
Make2D$可见线$普通线
100
AcDbVertex
100
AcDb2dVertex
 10
168.0568961832773
 20
1052.173973984333
 30
0.0
  0
VERTEX
  5
103
330
E4
100
AcDbEntity
  8
Make2D$可见线$普通线
100
AcDbVertex
100
AcDb2dVertex
 10
168.0569904737087
 20
1052.173768740603
 30
0.0
  0
VERTEX
  5
104
330
E4
100
AcDbEntity
  8
Make2D$可见线$普通线
100
AcDbVertex
100
AcDb2dVertex
 10
168.057078262001
 20
1052.173563497269
 30
0.0
  0
VERTEX
  5
105
330
E4
100
AcDbEntity
  8
Make2D$可见线$普通线
100
AcDbVertex
100
AcDb2dVertex
 10
168.0571595480581
 20
1052.17335825424
 30
0.0
  0
VERTEX
  5
106
330
E4
100
AcDbEntity
  8
Make2D$可见线$普通线
100
AcDbVertex
100
AcDb2dVertex
 10
168.0572343317835
 20
1052.17315301143
 30
0.0
  0
VERTEX
  5
107
330
E4
100
AcDbEntity
  8
Make2D$可见线$普通线
100
AcDbVertex
100
AcDb2dVertex
 10
168.0573026130812
 20
1052.17294776875
 30
0.0
  0
VERTEX
  5
108
330
E4
100
AcDbEntity
  8
Make2D$可见线$普通线
100
AcDbVertex
100
AcDb2dVertex
 10
168.0573643918549
 20
1052.172742526113
 30
0.0
  0
VERTEX
  5
109
330
E4
100
AcDbEntity
  8
Make2D$可见线$普通线
100
AcDbVertex
100
AcDb2dVertex
 10
168.0574196680084
 20
1052.17253728343
 30
0.0
  0
VERTEX
  5
10A
330
E4
100
AcDbEntity
  8
Make2D$可见线$普通线
100
AcDbVertex
100
AcDb2dVertex
 10
168.0574684414454
 20
1052.172332040614
 30
0.0
  0
VERTEX
  5
10B
330
E4
100
AcDbEntity
  8
Make2D$可见线$普通线
100
AcDbVertex
100
AcDb2dVertex
 10
168.0575107120697
 20
1052.172126797577
 30
0.0
  0
VERTEX
  5
10C
330
E4
100
AcDbEntity
  8
Make2D$可见线$普通线
100
AcDbVertex
100
AcDb2dVertex
 10
168.057546479785
 20
1052.17192155423
 30
0.0
  0
VERTEX
  5
10D
330
E4
100
AcDbEntity
  8
Make2D$可见线$普通线
100
AcDbVertex
100
AcDb2dVertex
 10
168.0575757444952
 20
1052.171716310487
 30
0.0
  0
VERTEX
  5
10E
330
E4
100
AcDbEntity
  8
Make2D$可见线$普通线
100
AcDbVertex
100
AcDb2dVertex
 10
168.0575985061039
 20
1052.171511066258
 30
0.0
  0
VERTEX
  5
10F
330
E4
100
AcDbEntity
  8
Make2D$可见线$普通线
100
AcDbVertex
100
AcDb2dVertex
 10
168.057614764515
 20
1052.171305821455
 30
0.0
  0
VERTEX
  5
110
330
E4
100
AcDbEntity
  8
Make2D$可见线$普通线
100
AcDbVertex
100
AcDb2dVertex
 10
168.0576245196323
 20
1052.171100575992
 30
0.0
  0
VERTEX
  5
111
330
E4
100
AcDbEntity
  8
Make2D$可见线$普通线
100
AcDbVertex
100
AcDb2dVertex
 10
168.0576277713594
 20
1052.17089532978
 30
0.0
  0
VERTEX
  5
112
330
E4
100
AcDbEntity
  8
Make2D$可见线$普通线
100
AcDbVertex
100
AcDb2dVertex
 10
168.0576246971434
 20
1052.170695762905
 30
0.0
  0
VERTEX
  5
113
330
E4
100
AcDbEntity
  8
Make2D$可见线$普通线
100
AcDbVertex
100
AcDb2dVertex
 10
168.0576154747235
 20
1052.170496197747
 30
0.0
  0
VERTEX
  5
114
330
E4
100
AcDbEntity
  8
Make2D$可见线$普通线
100
AcDbVertex
100
AcDb2dVertex
 10
168.0576001044419
 20
1052.170296634288
 30
0.0
  0
VERTEX
  5
115
330
E4
100
AcDbEntity
  8
Make2D$可见线$普通线
100
AcDbVertex
100
AcDb2dVertex
 10
168.0575785866406
 20
1052.170097072513
 30
0.0
  0
VERTEX
  5
116
330
E4
100
AcDbEntity
  8
Make2D$可见线$普通线
100
AcDbVertex
100
AcDb2dVertex
 10
168.0575509216619
 20
1052.169897512406
 30
0.0
  0
VERTEX
  5
117
330
E4
100
AcDbEntity
  8
Make2D$可见线$普通线
100
AcDbVertex
100
AcDb2dVertex
 10
168.0575171098478
 20
1052.16969795395
 30
0.0
  0
VERTEX
  5
118
330
E4
100
AcDbEntity
  8
Make2D$可见线$普通线
100
AcDbVertex
100
AcDb2dVertex
 10
168.0574771515406
 20
1052.169498397129
 30
0.0
  0
VERTEX
  5
119
330
E4
100
AcDbEntity
  8
Make2D$可见线$普通线
100
AcDbVertex
100
AcDb2dVertex
 10
168.0574310470823
 20
1052.169298841927
 30
0.0
  0
VERTEX
  5
11A
330
E4
100
AcDbEntity
  8
Make2D$可见线$普通线
100
AcDbVertex
100
AcDb2dVertex
 10
168.0573787968151
 20
1052.169099288327
 30
0.0
  0
VERTEX
  5
11B
330
E4
100
AcDbEntity
  8
Make2D$可见线$普通线
100
AcDbVertex
100
AcDb2dVertex
 10
168.0573204010812
 20
1052.168899736314
 30
0.0
  0
VERTEX
  5
11C
330
E4
100
AcDbEntity
  8
Make2D$可见线$普通线
100
AcDbVertex
100
AcDb2dVertex
 10
168.0572558602227
 20
1052.168700185871
 30
0.0
  0
VERTEX
  5
11D
330
E4
100
AcDbEntity
  8
Make2D$可见线$普通线
100
AcDbVertex
100
AcDb2dVertex
 10
168.0571851745817
 20
1052.168500636982
 30
0.0
  0
VERTEX
  5
11E
330
E4
100
AcDbEntity
  8
Make2D$可见线$普通线
100
AcDbVertex
100
AcDb2dVertex
 10
168.0571083445004
 20
1052.16830108963
 30
0.0
  0
VERTEX
  5
11F
330
E4
100
AcDbEntity
  8
Make2D$可见线$普通线
100
AcDbVertex
100
AcDb2dVertex
 10
168.057025370321
 20
1052.168101543801
 30
0.0
  0
VERTEX
  5
120
330
E4
100
AcDbEntity
  8
Make2D$可见线$普通线
100
AcDbVertex
100
AcDb2dVertex
 10
168.0569362523855
 20
1052.167901999476
 30
0.0
  0
VERTEX
  5
121
330
E4
100
AcDbEntity
  8
Make2D$可见线$普通线
100
AcDbVertex
100
AcDb2dVertex
 10
168.0568409910361
 20
1052.167702456641
 30
0.0
  0
VERTEX
  5
122
330
E4
100
AcDbEntity
  8
Make2D$可见线$普通线
100
AcDbVertex
100
AcDb2dVertex
 10
168.0567395866149
 20
1052.167502915279
 30
0.0
  0
VERTEX
  5
123
330
E4
100
AcDbEntity
  8
Make2D$可见线$普通线
100
AcDbVertex
100
AcDb2dVertex
 10
168.0566320394642
 20
1052.167303375374
 30
0.0
  0
VERTEX
  5
124
330
E4
100
AcDbEntity
  8
Make2D$可见线$普通线
100
AcDbVertex
100
AcDb2dVertex
 10
168.056518349926
 20
1052.167103836909
 30
0.0
  0
VERTEX
  5
125
330
E4
100
AcDbEntity
  8
Make2D$可见线$普通线
100
AcDbVertex
100
AcDb2dVertex
 10
168.0563985183425
 20
1052.166904299868
 30
0.0
  0
VERTEX
  5
126
330
E4
100
AcDbEntity
  8
Make2D$可见线$普通线
100
AcDbVertex
100
AcDb2dVertex
 10
168.0562725450558
 20
1052.166704764235
 30
0.0
  0
VERTEX
  5
127
330
E4
100
AcDbEntity
  8
Make2D$可见线$普通线
100
AcDbVertex
100
AcDb2dVertex
 10
168.0561404304082
 20
1052.166505229995
 30
0.0
  0
VERTEX
  5
128
330
E4
100
AcDbEntity
  8
Make2D$可见线$普通线
100
AcDbVertex
100
AcDb2dVertex
 10
168.0560021747416
 20
1052.16630569713
 30
0.0
  0
VERTEX
  5
129
330
E4
100
AcDbEntity
  8
Make2D$可见线$普通线
100
AcDbVertex
100
AcDb2dVertex
 10
168.0558577783983
 20
1052.166106165625
 30
0.0
  0
VERTEX
  5
12A
330
E4
100
AcDbEntity
  8
Make2D$可见线$普通线
100
AcDbVertex
100
AcDb2dVertex
 10
168.0557072417203
 20
1052.165906635462
 30
0.0
  0
VERTEX
  5
12B
330
E4
100
AcDbEntity
  8
Make2D$可见线$普通线
100
AcDbVertex
100
AcDb2dVertex
 10
168.05555056505
 20
1052.165707106627
 30
0.0
  0
VERTEX
  5
12C
330
E4
100
AcDbEntity
  8
Make2D$可见线$普通线
100
AcDbVertex
100
AcDb2dVertex
 10
168.0553877487293
 20
1052.165507579103
 30
0.0
  0
VERTEX
  5
12D
330
E4
100
AcDbEntity
  8
Make2D$可见线$普通线
100
AcDbVertex
100
AcDb2dVertex
 10
168.0552187931006
 20
1052.165308052874
 30
0.0
  0
VERTEX
  5
12E
330
E4
100
AcDbEntity
  8
Make2D$可见线$普通线
100
AcDbVertex
100
AcDb2dVertex
 10
168.054862465287
 20
1052.164909004234
 30
0.0
  0
VERTEX
  5
12F
330
E4
100
AcDbEntity
  8
Make2D$可见线$普通线
100
AcDbVertex
100
AcDb2dVertex
 10
168.0544815843465
 20
1052.164509960578
 30
0.0
  0
VERTEX
  5
130
330
E4
100
AcDbEntity
  8
Make2D$可见线$普通线
100
AcDbVertex
100
AcDb2dVertex
 10
168.0540761530163
 20
1052.164110921776
 30
0.0
  0
VERTEX
  5
131
330
E4
100
AcDbEntity
  8
Make2D$可见线$普通线
100
AcDbVertex
100
AcDb2dVertex
 10
168.0536461740334
 20
1052.163711887699
 30
0.0
  0
VERTEX
  5
132
330
E4
100
AcDbEntity
  8
Make2D$可见线$普通线
100
AcDbVertex
100
AcDb2dVertex
 10
168.0531916501351
 20
1052.163312858218
 30
0.0
  0
VERTEX
  5
133
330
E4
100
AcDbEntity
  8
Make2D$可见线$普通线
100
AcDbVertex
100
AcDb2dVertex
 10
168.0527125840584
 20
1052.162913833202
 30
0.0
  0
VERTEX
  5
134
330
E4
100
AcDbEntity
  8
Make2D$可见线$普通线
100
AcDbVertex
100
AcDb2dVertex
 10
168.0522089785406
 20
1052.162514812521
 30
0.0
  0
VERTEX
  5
135
330
E4
100
AcDbEntity
  8
Make2D$可见线$普通线
100
AcDbVertex
100
AcDb2dVertex
 10
168.0516808363188
 20
1052.162115796047
 30
0.0
  0
VERTEX
  5
136
330
E4
100
AcDbEntity
  8
Make2D$可见线$普通线
100
AcDbVertex
100
AcDb2dVertex
 10
168.0511281601301
 20
1052.161716783648
 30
0.0
  0
VERTEX
  5
137
330
E4
100
AcDbEntity
  8
Make2D$可见线$普通线
100
AcDbVertex
100
AcDb2dVertex
 10
168.0505509527117
 20
1052.161317775197
 30
0.0
  0
VERTEX
  5
138
330
E4
100
AcDbEntity
  8
Make2D$可见线$普通线
100
AcDbVertex
100
AcDb2dVertex
 10
168.0499492168007
 20
1052.160918770563
 30
0.0
  0
VERTEX
  5
139
330
E4
100
AcDbEntity
  8
Make2D$可见线$普通线
100
AcDbVertex
100
AcDb2dVertex
 10
168.0493229551342
 20
1052.160519769616
 30
0.0
  0
VERTEX
  5
13A
330
E4
100
AcDbEntity
  8
Make2D$可见线$普通线
100
AcDbVertex
100
AcDb2dVertex
 10
168.0479968654838
 20
1052.159721778265
 30
0.0
  0
VERTEX
  5
13B
330
E4
100
AcDbEntity
  8
Make2D$可见线$普通线
100
AcDbVertex
100
AcDb2dVertex
 10
168.0465727056574
 20
1052.158923800107
 30
0.0
  0
VERTEX
  5
13C
330
E4
100
AcDbEntity
  8
Make2D$可见线$普通线
100
AcDbVertex
100
AcDb2dVertex
 10
168.0450504975523
 20
1052.158125834106
 30
0.0
  0
VERTEX
  5
13D
330
E4
100
AcDbEntity
  8
Make2D$可见线$普通线
100
AcDbVertex
100
AcDb2dVertex
 10
168.0434302630657
 20
1052.157327879223
 30
0.0
  0
VERTEX
  5
13E
330
E4
100
AcDbEntity
  8
Make2D$可见线$普通线
100
AcDbVertex
100
AcDb2dVertex
 10
168.0417120240949
 20
1052.156529934422
 30
0.0
  0
VERTEX
  5
13F
330
E4
100
AcDbEntity
  8
Make2D$可见线$普通线
100
AcDbVertex
100
AcDb2dVertex
 10
168.0398958025369
 20
1052.155731998664
 30
0.0
  0
VERTEX
  5
140
330
E4
100
AcDbEntity
  8
Make2D$可见线$普通线
100
AcDbVertex
100
AcDb2dVertex
 10
168.0379816202891
 20
1052.154934070913
 30
0.0
  0
VERTEX
  5
141
330
E4
100
AcDbEntity
  8
Make2D$可见线$普通线
100
AcDbVertex
100
AcDb2dVertex
 10
168.0338594613126
 20
1052.15333823528
 30
0.0
  0
VERTEX
  5
142
330
E4
100
AcDbEntity
  8
Make2D$可见线$普通线
100
AcDbVertex
100
AcDb2dVertex
 10
168.029345722343
 20
1052.151742419225
 30
0.0
  0
VERTEX
  5
143
330
E4
100
AcDbEntity
  8
Make2D$可见线$普通线
100
AcDbVertex
100
AcDb2dVertex
 10
168.0244405785579
 20
1052.150146614447
 30
0.0
  0
VERTEX
  5
144
330
E4
100
AcDbEntity
  8
Make2D$可见线$普通线
100
AcDbVertex
100
AcDb2dVertex
 10
168.0191442051348
 20
1052.148550812649
 30
0.0
  0
VERTEX
  5
145
330
E4
100
AcDbEntity
  8
Make2D$可见线$普通线
100
AcDbVertex
100
AcDb2dVertex
 10
168.0073784700853
 20
1052.145359184793
 30
0.0
  0
VERTEX
  5
146
330
E4
100
AcDbEntity
  8
Make2D$可见线$普通线
100
AcDbVertex
100
AcDb2dVertex
 10
167.9940499186152
 20
1052.142167469264
 30
0.0
  0
VERTEX
  5
147
330
E4
100
AcDbEntity
  8
Make2D$可见线$普通线
100
AcDbVertex
100
AcDb2dVertex
 10
167.9791599521454
 20
1052.138975599671
 30
0.0
  0
VERTEX
  5
148
330
E4
100
AcDbEntity
  8
Make2D$可见线$普通线
100
AcDbVertex
100
AcDb2dVertex
 10
167.94470137989
 20
1052.132591132718
 30
0.0
  0
VERTEX
  5
149
330
E4
100
AcDbEntity
  8
Make2D$可见线$普通线
100
AcDbVertex
100
AcDb2dVertex
 10
167.9040139646854
 20
1052.126205252795
 30
0.0
  0
VERTEX
  5
14A
330
E4
100
AcDbEntity
  8
Make2D$可见线$普通线
100
AcDbVertex
100
AcDb2dVertex
 10
167.857108917898
 20
1052.119817428761
 30
0.0
  0
VERTEX
  5
14B
330
E4
100
AcDbEntity
  8
Make2D$可见线$普通线
100
AcDbVertex
100
AcDb2dVertex
 10
167.4536674335447
 20
1052.081547173047
 30
0.0
  0
VERTEX
  5
14C
330
E4
100
AcDbEntity
  8
Make2D$可见线$普通线
100
AcDbVertex
100
AcDb2dVertex
 10
167.049245847945
 20
1052.055608305096
 30
0.0
  0
VERTEX
  5
14D
330
E4
100
AcDbEntity
  8
Make2D$可见线$普通线
100
AcDbVertex
100
AcDb2dVertex
 10
164.9653701903717
 20
1051.965416143517
 30
0.0
  0
VERTEX
  5
14E
330
E4
100
AcDbEntity
  8
Make2D$可见线$普通线
100
AcDbVertex
100
AcDb2dVertex
 10
161.5518513863728
 20
1051.862962173378
 30
0.0
  0
VERTEX
  5
14F
330
E4
100
AcDbEntity
  8
Make2D$可见线$普通线
100
AcDbVertex
100
AcDb2dVertex
 10
157.5
 20
1051.759906958031
 30
0.0
  0
VERTEX
  5
150
330
E4
100
AcDbEntity
  8
Make2D$可见线$普通线
100
AcDbVertex
100
AcDb2dVertex
 10
151.6449252910022
 20
1051.606079135957
 30
0.0
  0
VERTEX
  5
151
330
E4
100
AcDbEntity
  8
Make2D$可见线$普通线
100
AcDbVertex
100
AcDb2dVertex
 10
149.6858213284546
 20
1051.541860520297
 30
0.0
  0
VERTEX
  5
152
330
E4
100
AcDbEntity
  8
Make2D$可见线$普通线
100
AcDbVertex
100
AcDb2dVertex
 10
148.194753996722
 20
1051.477627348265
 30
0.0
  0
VERTEX
  5
153
330
E4
100
AcDbEntity
  8
Make2D$可见线$普通线
100
AcDbVertex
100
AcDb2dVertex
 10
147.7279254011521
 20
1051.450719289229
 30
0.0
  0
VERTEX
  5
154
330
E4
100
AcDbEntity
  8
Make2D$可见线$普通线
100
AcDbVertex
100
AcDb2dVertex
 10
147.2618124278756
 20
1051.413414096209
 30
0.0
  0
VERTEX
  5
155
330
E4
100
AcDbEntity
  8
Make2D$可见线$普通线
100
AcDbVertex
100
AcDb2dVertex
 10
147.122969720501
 20
1051.397349319576
 30
0.0
  0
VERTEX
  5
156
330
E4
100
AcDbEntity
  8
Make2D$可见线$普通线
100
AcDbVertex
100
AcDb2dVertex
 10
147.0682237131936
 20
1051.389318750396
 30
0.0
  0
VERTEX
  5
157
330
E4
100
AcDbEntity
  8
Make2D$可见线$普通线
100
AcDbVertex
100
AcDb2dVertex
 10
147.0445318914371
 20
1051.385302327832
 30
0.0
  0
VERTEX
  5
158
330
E4
100
AcDbEntity
  8
Make2D$可见线$普通线
100
AcDbVertex
100
AcDb2dVertex
 10
147.0232988939175
 20
1051.381284539854
 30
0.0
  0
VERTEX
  5
159
330
E4
100
AcDbEntity
  8
Make2D$可见线$普通线
100
AcDbVertex
100
AcDb2dVertex
 10
147.004528247864
 20
1051.377264931388
 30
0.0
  0
VERTEX
  5
15A
330
E4
100
AcDbEntity
  8
Make2D$可见线$普通线
100
AcDbVertex
100
AcDb2dVertex
 10
146.9960674088961
 20
1051.375254302262
 30
0.0
  0
VERTEX
  5
15B
330
E4
100
AcDbEntity
  8
Make2D$可见线$普通线
100
AcDbVertex
100
AcDb2dVertex
 10
146.9882234805058
 20
1051.373243047361
 30
0.0
  0
VERTEX
  5
15C
330
E4
100
AcDbEntity
  8
Make2D$可见线$普通线
100
AcDbVertex
100
AcDb2dVertex
 10
146.9809969035965
 20
1051.371231109802
 30
0.0
  0
VERTEX
  5
15D
330
E4
100
AcDbEntity
  8
Make2D$可见线$普通线
100
AcDbVertex
100
AcDb2dVertex
 10
146.974388119072
 20
1051.369218432699
 30
0.0
  0
VERTEX
  5
15E
330
E4
100
AcDbEntity
  8
Make2D$可见线$普通线
100
AcDbVertex
100
AcDb2dVertex
 10
146.968397567836
 20
1051.36720495917
 30
0.0
  0
VERTEX
  5
15F
330
E4
100
AcDbEntity
  8
Make2D$可见线$普通线
100
AcDbVertex
100
AcDb2dVertex
 10
146.9656342674835
 20
1051.366197905968
 30
0.0
  0
VERTEX
  5
160
330
E4
100
AcDbEntity
  8
Make2D$可见线$普通线
100
AcDbVertex
100
AcDb2dVertex
 10
146.9630256907919
 20
1051.365190632328
 30
0.0
  0
VERTEX
  5
161
330
E4
100
AcDbEntity
  8
Make2D$可见线$普通线
100
AcDbVertex
100
AcDb2dVertex
 10
146.9605718928743
 20
1051.36418313114
 30
0.0
  0
VERTEX
  5
162
330
E4
100
AcDbEntity
  8
Make2D$可见线$普通线
100
AcDbVertex
100
AcDb2dVertex
 10
146.9582729288436
 20
1051.363175395292
 30
0.0
  0
VERTEX
  5
163
330
E4
100
AcDbEntity
  8
Make2D$可见线$普通线
100
AcDbVertex
100
AcDb2dVertex
 10
146.9561288538127
 20
1051.362167417674
 30
0.0
  0
VERTEX
  5
164
330
E4
100
AcDbEntity
  8
Make2D$可见线$普通线
100
AcDbVertex
100
AcDb2dVertex
 10
146.9541397228946
 20
1051.361159191176
 30
0.0
  0
VERTEX
  5
165
330
E4
100
AcDbEntity
  8
Make2D$可见线$普通线
100
AcDbVertex
100
AcDb2dVertex
 10
146.9532032787007
 20
1051.360654982374
 30
0.0
  0
VERTEX
  5
166
330
E4
100
AcDbEntity
  8
Make2D$可见线$普通线
100
AcDbVertex
100
AcDb2dVertex
 10
146.9523055912023
 20
1051.360150708686
 30
0.0
  0
VERTEX
  5
167
330
E4
100
AcDbEntity
  8
Make2D$可见线$普通线
100
AcDbVertex
100
AcDb2dVertex
 10
146.9514466672886
 20
1051.359646369223
 30
0.0
  0
VERTEX
  5
168
330
E4
100
AcDbEntity
  8
Make2D$可见线$普通线
100
AcDbVertex
100
AcDb2dVertex
 10
146.9506265138486
 20
1051.359141963095
 30
0.0
  0
VERTEX
  5
169
330
E4
100
AcDbEntity
  8
Make2D$可见线$普通线
100
AcDbVertex
100
AcDb2dVertex
 10
146.9498451377717
 20
1051.358637489415
 30
0.0
  0
VERTEX
  5
16A
330
E4
100
AcDbEntity
  8
Make2D$可见线$普通线
100
AcDbVertex
100
AcDb2dVertex
 10
146.9491025459467
 20
1051.358132947292
 30
0.0
  0
VERTEX
  5
16B
330
E4
100
AcDbEntity
  8
Make2D$可见线$普通线
100
AcDbVertex
100
AcDb2dVertex
 10
146.9483987452629
 20
1051.357628335839
 30
0.0
  0
VERTEX
  5
16C
330
E4
100
AcDbEntity
  8
Make2D$可见线$普通线
100
AcDbVertex
100
AcDb2dVertex
 10
146.9477337426093
 20
1051.357123654167
 30
0.0
  0
VERTEX
  5
16D
330
E4
100
AcDbEntity
  8
Make2D$可见线$普通线
100
AcDbVertex
100
AcDb2dVertex
 10
146.9471075448751
 20
1051.356618901386
 30
0.0
  0
VERTEX
  5
16E
330
E4
100
AcDbEntity
  8
Make2D$可见线$普通线
100
AcDbVertex
100
AcDb2dVertex
 10
146.9465201589495
 20
1051.356114076608
 30
0.0
  0
VERTEX
  5
16F
330
E4
100
AcDbEntity
  8
Make2D$可见线$普通线
100
AcDbVertex
100
AcDb2dVertex
 10
146.9462410225677
 20
1051.355861636942
 30
0.0
  0
VERTEX
  5
170
330
E4
100
AcDbEntity
  8
Make2D$可见线$普通线
100
AcDbVertex
100
AcDb2dVertex
 10
146.9459715917215
 20
1051.355609178944
 30
0.0
  0
VERTEX
  5
171
330
E4
100
AcDbEntity
  8
Make2D$可见线$普通线
100
AcDbVertex
100
AcDb2dVertex
 10
146.945711867272
 20
1051.355356702502
 30
0.0
  0
VERTEX
  5
172
330
E4
100
AcDbEntity
  8
Make2D$可见线$普通线
100
AcDbVertex
100
AcDb2dVertex
 10
146.9454618500802
 20
1051.355104207506
 30
0.0
  0
VERTEX
  5
173
330
E4
100
AcDbEntity
  8
Make2D$可见线$普通线
100
AcDbVertex
100
AcDb2dVertex
 10
146.9452215410075
 20
1051.354851693843
 30
0.0
  0
VERTEX
  5
174
330
E4
100
AcDbEntity
  8
Make2D$可见线$普通线
100
AcDbVertex
100
AcDb2dVertex
 10
146.9449909409149
 20
1051.354599161404
 30
0.0
  0
VERTEX
  5
175
330
E4
100
AcDbEntity
  8
Make2D$可见线$普通线
100
AcDbVertex
100
AcDb2dVertex
 10
146.9447700506635
 20
1051.354346610076
 30
0.0
  0
VERTEX
  5
176
330
E4
100
AcDbEntity
  8
Make2D$可见线$普通线
100
AcDbVertex
100
AcDb2dVertex
 10
146.9445588711145
 20
1051.354094039749
 30
0.0
  0
VERTEX
  5
177
330
E4
100
AcDbEntity
  8
Make2D$可见线$普通线
100
AcDbVertex
100
AcDb2dVertex
 10
146.944357403129
 20
1051.353841450312
 30
0.0
  0
VERTEX
  5
178
330
E4
100
AcDbEntity
  8
Make2D$可见线$普通线
100
AcDbVertex
100
AcDb2dVertex
 10
146.9441656475682
 20
1051.353588841654
 30
0.0
  0
VERTEX
  5
179
330
E4
100
AcDbEntity
  8
Make2D$可见线$普通线
100
AcDbVertex
100
AcDb2dVertex
 10
146.9439836052932
 20
1051.353336213663
 30
0.0
  0
VERTEX
  5
17A
330
E4
100
AcDbEntity
  8
Make2D$可见线$普通线
100
AcDbVertex
100
AcDb2dVertex
 10
146.9438112771651
 20
1051.353083566228
 30
0.0
  0
VERTEX
  5
17B
330
E4
100
AcDbEntity
  8
Make2D$可见线$普通线
100
AcDbVertex
100
AcDb2dVertex
 10
146.9436486640452
 20
1051.352830899239
 30
0.0
  0
VERTEX
  5
17C
330
E4
100
AcDbEntity
  8
Make2D$可见线$普通线
100
AcDbVertex
100
AcDb2dVertex
 10
146.9434957667944
 20
1051.352578212584
 30
0.0
  0
VERTEX
  5
17D
330
E4
100
AcDbEntity
  8
Make2D$可见线$普通线
100
AcDbVertex
100
AcDb2dVertex
 10
146.943352586274
 20
1051.352325506152
 30
0.0
  0
VERTEX
  5
17E
330
E4
100
AcDbEntity
  8
Make2D$可见线$普通线
100
AcDbVertex
100
AcDb2dVertex
 10
146.9432191233452
 20
1051.352072779832
 30
0.0
  0
VERTEX
  5
17F
330
E4
100
AcDbEntity
  8
Make2D$可见线$普通线
100
AcDbVertex
100
AcDb2dVertex
 10
146.943095378869
 20
1051.351820033513
 30
0.0
  0
VERTEX
  5
180
330
E4
100
AcDbEntity
  8
Make2D$可见线$普通线
100
AcDbVertex
100
AcDb2dVertex
 10
146.9429813537065
 20
1051.351567267084
 30
0.0
  0
VERTEX
  5
181
330
E4
100
AcDbEntity
  8
Make2D$可见线$普通线
100
AcDbVertex
100
AcDb2dVertex
 10
146.942877048719
 20
1051.351314480433
 30
0.0
  0
VERTEX
  5
182
330
E4
100
AcDbEntity
  8
Make2D$可见线$普通线
100
AcDbVertex
100
AcDb2dVertex
 10
146.9427824647676
 20
1051.35106167345
 30
0.0
  0
VERTEX
  5
183
330
E4
100
AcDbEntity
  8
Make2D$可见线$普通线
100
AcDbVertex
100
AcDb2dVertex
 10
146.9426976027134
 20
1051.350808846023
 30
0.0
  0
VERTEX
  5
184
330
E4
100
AcDbEntity
  8
Make2D$可见线$普通线
100
AcDbVertex
100
AcDb2dVertex
 10
146.9426224634175
 20
1051.350555998042
 30
0.0
  0
VERTEX
  5
185
330
E4
100
AcDbEntity
  8
Make2D$可见线$普通线
100
AcDbVertex
100
AcDb2dVertex
 10
146.942557047741
 20
1051.350303129395
 30
0.0
  0
VERTEX
  5
186
330
E4
100
AcDbEntity
  8
Make2D$可见线$普通线
100
AcDbVertex
100
AcDb2dVertex
 10
146.9425013565453
 20
1051.350050239972
 30
0.0
  0
VERTEX
  5
187
330
E4
100
AcDbEntity
  8
Make2D$可见线$普通线
100
AcDbVertex
100
AcDb2dVertex
 10
146.9424553906913
 20
1051.34979732966
 30
0.0
  0
VERTEX
  5
188
330
E4
100
AcDbEntity
  8
Make2D$可见线$普通线
100
AcDbVertex
100
AcDb2dVertex
 10
146.9424191510402
 20
1051.34954439835
 30
0.0
  0
VERTEX
  5
189
330
E4
100
AcDbEntity
  8
Make2D$可见线$普通线
100
AcDbVertex
100
AcDb2dVertex
 10
146.9423926384531
 20
1051.349291445929
 30
0.0
  0
VERTEX
  5
18A
330
E4
100
AcDbEntity
  8
Make2D$可见线$普通线
100
AcDbVertex
100
AcDb2dVertex
 10
146.9423758537912
 20
1051.349038472287
 30
0.0
  0
VERTEX
  5
18B
330
E4
100
AcDbEntity
  8
Make2D$可见线$普通线
100
AcDbVertex
100
AcDb2dVertex
 10
146.9423722286406
 20
1050.708061934357
 30
0.0
  0
SEQEND
  5
18C
330
E4
100
AcDbEntity
  8
Make2D$可见线$普通线
  0
POLYLINE
  5
18D
330
1F
100
AcDbEntity
  8
Make2D$可见线$普通线
100
AcDb2dPolyline
 66
     1
 10
0.0
 20
0.0
 30
0.0
  0
VERTEX
  5
18E
330
18D
100
AcDbEntity
  8
Make2D$可见线$普通线
100
AcDbVertex
100
AcDb2dVertex
 10
134.5000000000122
 20
1087.532577058915
 30
0.0
 42
-0.4142135623725921
  0
VERTEX
  5
18F
330
18D
100
AcDbEntity
  8
Make2D$可见线$普通线
100
AcDbVertex
100
AcDb2dVertex
 10
139.5000000000269
 20
1092.532577058921
 30
0.0
  0
VERTEX
  5
190
330
18D
100
AcDbEntity
  8
Make2D$可见线$普通线
100
AcDbVertex
100
AcDb2dVertex
 10
175.4999999999988
 20
1092.532577058933
 30
0.0
 42
-0.4142135623730546
  0
VERTEX
  5
191
330
18D
100
AcDbEntity
  8
Make2D$可见线$普通线
100
AcDbVertex
100
AcDb2dVertex
 10
180.4999999999991
 20
1087.532577058932
 30
0.0
  0
VERTEX
  5
192
330
18D
100
AcDbEntity
  8
Make2D$可见线$普通线
100
AcDbVertex
100
AcDb2dVertex
 10
180.5
 20
1073.532577058933
 30
0.0
 42
-0.4142135623730828
  0
VERTEX
  5
193
330
18D
100
AcDbEntity
  8
Make2D$可见线$普通线
100
AcDbVertex
100
AcDb2dVertex
 10
175.4999999999939
 20
1068.532577058933
 30
0.0
  0
VERTEX
  5
194
330
18D
100
AcDbEntity
  8
Make2D$可见线$普通线
100
AcDbVertex
100
AcDb2dVertex
 10
139.5000000000076
 20
1068.532577058933
 30
0.0
 42
-0.4142135623731001
  0
VERTEX
  5
195
330
18D
100
AcDbEntity
  8
Make2D$可见线$普通线
100
AcDbVertex
100
AcDb2dVertex
 10
134.4999999999999
 20
1073.532577058939
 30
0.0
  0
VERTEX
  5
196
330
18D
100
AcDbEntity
  8
Make2D$可见线$普通线
100
AcDbVertex
100
AcDb2dVertex
 10
134.5000000000122
 20
1087.532577058915
 30
0.0
  0
SEQEND
  5
197
330
18D
100
AcDbEntity
  8
Make2D$可见线$普通线
  0
POLYLINE
  5
198
330
1F
100
AcDbEntity
  8
Make2D$可见线$普通线
100
AcDb2dPolyline
 66
     1
 10
0.0
 20
0.0
 30
0.0
  0
VERTEX
  5
199
330
198
100
AcDbEntity
  8
Make2D$可见线$普通线
100
AcDbVertex
100
AcDb2dVertex
 10
167.793683198684
 20
1050.585523621167
 30
0.0
  0
VERTEX
  5
19A
330
198
100
AcDbEntity
  8
Make2D$可见线$普通线
100
AcDbVertex
100
AcDb2dVertex
 10
167.9003373450939
 20
1050.572115166195
 30
0.0
  0
VERTEX
  5
19B
330
198
100
AcDbEntity
  8
Make2D$可见线$普通线
100
AcDbVertex
100
AcDb2dVertex
 10
167.9419969339361
 20
1050.56565498302
 30
0.0
  0
VERTEX
  5
19C
330
198
100
AcDbEntity
  8
Make2D$可见线$普通线
100
AcDbVertex
100
AcDb2dVertex
 10
167.9772796035316
 20
1050.559197188813
 30
0.0
  0
VERTEX
  5
19D
330
198
100
AcDbEntity
  8
Make2D$可见线$普通线
100
AcDbVertex
100
AcDb2dVertex
 10
167.992525920474
 20
1050.555968749507
 30
0.0
  0
VERTEX
  5
19E
330
198
100
AcDbEntity
  8
Make2D$可见线$普通线
100
AcDbVertex
100
AcDb2dVertex
 10
168.0061735998391
 20
1050.552740381763
 30
0.0
  0
VERTEX
  5
19F
330
198
100
AcDbEntity
  8
Make2D$可见线$普通线
100
AcDbVertex
100
AcDb2dVertex
 10
168.0182211723719
 20
1050.549511910354
 30
0.0
  0
VERTEX
  5
1A0
330
198
100
AcDbEntity
  8
Make2D$可见线$普通线
100
AcDbVertex
100
AcDb2dVertex
 10
168.0236444594339
 20
1050.547897581017
 30
0.0
  0
VERTEX
  5
1A1
330
198
100
AcDbEntity
  8
Make2D$可见线$普通线
100
AcDbVertex
100
AcDb2dVertex
 10
168.028667168817
 20
1050.546283160054
 30
0.0
  0
VERTEX
  5
1A2
330
198
100
AcDbEntity
  8
Make2D$可见线$普通线
100
AcDbVertex
100
AcDb2dVertex
 10
168.0332891168646
 20
1050.544668625562
 30
0.0
  0
VERTEX
  5
1A3
330
198
100
AcDbEntity
  8
Make2D$可见线$普通线
100
AcDbVertex
100
AcDb2dVertex
 10
168.0375101199195
 20
1050.543053955637
 30
0.0
  0
VERTEX
  5
1A4
330
198
100
AcDbEntity
  8
Make2D$可见线$普通线
100
AcDbVertex
100
AcDb2dVertex
 10
168.039470209682
 20
1050.542246563042
 30
0.0
  0
VERTEX
  5
1A5
330
198
100
AcDbEntity
  8
Make2D$可见线$普通线
100
AcDbVertex
100
AcDb2dVertex
 10
168.0413299943249
 20
1050.541439128376
 30
0.0
  0
VERTEX
  5
1A6
330
198
100
AcDbEntity
  8
Make2D$可见线$普通线
100
AcDbVertex
100
AcDb2dVertex
 10
168.0430894508914
 20
1050.540631648899
 30
0.0
  0
VERTEX
  5
1A7
330
198
100
AcDbEntity
  8
Make2D$可见线$普通线
100
AcDbVertex
100
AcDb2dVertex
 10
168.0447485564241
 20
1050.539824121875
 30
0.0
  0
VERTEX
  5
1A8
330
198
100
AcDbEntity
  8
Make2D$可见线$普通线
100
AcDbVertex
100
AcDb2dVertex
 10
168.0463072879659
 20
1050.539016544565
 30
0.0
  0
VERTEX
  5
1A9
330
198
100
AcDbEntity
  8
Make2D$可见线$普通线
100
AcDbVertex
100
AcDb2dVertex
 10
168.0477656225599
 20
1050.538208914232
 30
0.0
  0
VERTEX
  5
1AA
330
198
100
AcDbEntity
  8
Make2D$可见线$普通线
100
AcDbVertex
100
AcDb2dVertex
 10
168.0491235372488
 20
1050.537401228136
 30
0.0
  0
VERTEX
  5
1AB
330
198
100
AcDbEntity
  8
Make2D$可见线$普通线
100
AcDbVertex
100
AcDb2dVertex
 10
168.0497648299547
 20
1050.536997363322
 30
0.0
  0
VERTEX
  5
1AC
330
198
100
AcDbEntity
  8
Make2D$可见线$普通线
100
AcDbVertex
100
AcDb2dVertex
 10
168.0503810090755
 20
1050.536593483542
 30
0.0
  0
VERTEX
  5
1AD
330
198
100
AcDbEntity
  8
Make2D$可见线$普通线
100
AcDbVertex
100
AcDb2dVertex
 10
168.0509720717415
 20
1050.536189588452
 30
0.0
  0
VERTEX
  5
1AE
330
198
100
AcDbEntity
  8
Make2D$可见线$普通线
100
AcDbVertex
100
AcDb2dVertex
 10
168.051538015083
 20
1050.53578567771
 30
0.0
  0
VERTEX
  5
1AF
330
198
100
AcDbEntity
  8
Make2D$可见线$普通线
100
AcDbVertex
100
AcDb2dVertex
 10
168.0520788362304
 20
1050.535381750974
 30
0.0
  0
VERTEX
  5
1B0
330
198
100
AcDbEntity
  8
Make2D$可见线$普通线
100
AcDbVertex
100
AcDb2dVertex
 10
168.0525945323141
 20
1050.534977807903
 30
0.0
  0
VERTEX
  5
1B1
330
198
100
AcDbEntity
  8
Make2D$可见线$普通线
100
AcDbVertex
100
AcDb2dVertex
 10
168.0530851004644
 20
1050.534573848153
 30
0.0
  0
VERTEX
  5
1B2
330
198
100
AcDbEntity
  8
Make2D$可见线$普通线
100
AcDbVertex
100
AcDb2dVertex
 10
168.0535505378117
 20
1050.534169871382
 30
0.0
  0
VERTEX
  5
1B3
330
198
100
AcDbEntity
  8
Make2D$可见线$普通线
100
AcDbVertex
100
AcDb2dVertex
 10
168.0539908414863
 20
1050.533765877249
 30
0.0
  0
VERTEX
  5
1B4
330
198
100
AcDbEntity
  8
Make2D$可见线$普通线
100
AcDbVertex
100
AcDb2dVertex
 10
168.0544060086187
 20
1050.533361865411
 30
0.0
  0
VERTEX
  5
1B5
330
198
100
AcDbEntity
  8
Make2D$可见线$普通线
100
AcDbVertex
100
AcDb2dVertex
 10
168.0547960363391
 20
1050.532957835525
 30
0.0
  0
VERTEX
  5
1B6
330
198
100
AcDbEntity
  8
Make2D$可见线$普通线
100
AcDbVertex
100
AcDb2dVertex
 10
168.0551609217779
 20
1050.53255378725
 30
0.0
  0
VERTEX
  5
1B7
330
198
100
AcDbEntity
  8
Make2D$可见线$普通线
100
AcDbVertex
100
AcDb2dVertex
 10
168.055333935245
 20
1050.53235175611
 30
0.0
  0
VERTEX
  5
1B8
330
198
100
AcDbEntity
  8
Make2D$可见线$普通线
100
AcDbVertex
100
AcDb2dVertex
 10
168.0555006620656
 20
1050.532149720244
 30
0.0
  0
VERTEX
  5
1B9
330
198
100
AcDbEntity
  8
Make2D$可见线$普通线
100
AcDbVertex
100
AcDb2dVertex
 10
168.055661101881
 20
1050.531947679609
 30
0.0
  0
VERTEX
  5
1BA
330
198
100
AcDbEntity
  8
Make2D$可见线$普通线
100
AcDbVertex
100
AcDb2dVertex
 10
168.0558152543324
 20
1050.531745634163
 30
0.0
  0
VERTEX
  5
1BB
330
198
100
AcDbEntity
  8
Make2D$可见线$普通线
100
AcDbVertex
100
AcDb2dVertex
 10
168.0559631190612
 20
1050.531543583863
 30
0.0
  0
VERTEX
  5
1BC
330
198
100
AcDbEntity
  8
Make2D$可见线$普通线
100
AcDbVertex
100
AcDb2dVertex
 10
168.0561046957087
 20
1050.531341528666
 30
0.0
  0
VERTEX
  5
1BD
330
198
100
AcDbEntity
  8
Make2D$可见线$普通线
100
AcDbVertex
100
AcDb2dVertex
 10
168.0562399839162
 20
1050.53113946853
 30
0.0
  0
VERTEX
  5
1BE
330
198
100
AcDbEntity
  8
Make2D$可见线$普通线
100
AcDbVertex
100
AcDb2dVertex
 10
168.0563689833249
 20
1050.530937403411
 30
0.0
  0
VERTEX
  5
1BF
330
198
100
AcDbEntity
  8
Make2D$可见线$普通线
100
AcDbVertex
100
AcDb2dVertex
 10
168.0564916935762
 20
1050.530735333267
 30
0.0
  0
VERTEX
  5
1C0
330
198
100
AcDbEntity
  8
Make2D$可见线$普通线
100
AcDbVertex
100
AcDb2dVertex
 10
168.0566081143113
 20
1050.530533258055
 30
0.0
  0
VERTEX
  5
1C1
330
198
100
AcDbEntity
  8
Make2D$可见线$普通线
100
AcDbVertex
100
AcDb2dVertex
 10
168.0567182451716
 20
1050.530331177732
 30
0.0
  0
VERTEX
  5
1C2
330
198
100
AcDbEntity
  8
Make2D$可见线$普通线
100
AcDbVertex
100
AcDb2dVertex
 10
168.0568220857983
 20
1050.530129092256
 30
0.0
  0
VERTEX
  5
1C3
330
198
100
AcDbEntity
  8
Make2D$可见线$普通线
100
AcDbVertex
100
AcDb2dVertex
 10
168.0569196358328
 20
1050.529927001583
 30
0.0
  0
VERTEX
  5
1C4
330
198
100
AcDbEntity
  8
Make2D$可见线$普通线
100
AcDbVertex
100
AcDb2dVertex
 10
168.0570108949163
 20
1050.529724905672
 30
0.0
  0
VERTEX
  5
1C5
330
198
100
AcDbEntity
  8
Make2D$可见线$普通线
100
AcDbVertex
100
AcDb2dVertex
 10
168.0570958626902
 20
1050.529522804479
 30
0.0
  0
VERTEX
  5
1C6
330
198
100
AcDbEntity
  8
Make2D$可见线$普通线
100
AcDbVertex
100
AcDb2dVertex
 10
168.0571745387956
 20
1050.52932069796
 30
0.0
  0
VERTEX
  5
1C7
330
198
100
AcDbEntity
  8
Make2D$可见线$普通线
100
AcDbVertex
100
AcDb2dVertex
 10
168.057246922874
 20
1050.529118586075
 30
0.0
  0
VERTEX
  5
1C8
330
198
100
AcDbEntity
  8
Make2D$可见线$普通线
100
AcDbVertex
100
AcDb2dVertex
 10
168.0573130145666
 20
1050.528916468779
 30
0.0
  0
VERTEX
  5
1C9
330
198
100
AcDbEntity
  8
Make2D$可见线$普通线
100
AcDbVertex
100
AcDb2dVertex
 10
168.0573728135147
 20
1050.52871434603
 30
0.0
  0
VERTEX
  5
1CA
330
198
100
AcDbEntity
  8
Make2D$可见线$普通线
100
AcDbVertex
100
AcDb2dVertex
 10
168.0574263193596
 20
1050.528512217786
 30
0.0
  0
VERTEX
  5
1CB
330
198
100
AcDbEntity
  8
Make2D$可见线$普通线
100
AcDbVertex
100
AcDb2dVertex
 10
168.0574735317427
 20
1050.528310084003
 30
0.0
  0
VERTEX
  5
1CC
330
198
100
AcDbEntity
  8
Make2D$可见线$普通线
100
AcDbVertex
100
AcDb2dVertex
 10
168.0575144503051
 20
1050.528107944639
 30
0.0
  0
VERTEX
  5
1CD
330
198
100
AcDbEntity
  8
Make2D$可见线$普通线
100
AcDbVertex
100
AcDb2dVertex
 10
168.0575490746882
 20
1050.52790579965
 30
0.0
  0
VERTEX
  5
1CE
330
198
100
AcDbEntity
  8
Make2D$可见线$普通线
100
AcDbVertex
100
AcDb2dVertex
 10
168.0575774045333
 20
1050.527703648995
 30
0.0
  0
VERTEX
  5
1CF
330
198
100
AcDbEntity
  8
Make2D$可见线$普通线
100
AcDbVertex
100
AcDb2dVertex
 10
168.0575994394816
 20
1050.52750149263
 30
0.0
  0
VERTEX
  5
1D0
330
198
100
AcDbEntity
  8
Make2D$可见线$普通线
100
AcDbVertex
100
AcDb2dVertex
 10
168.0576151791746
 20
1050.527299330513
 30
0.0
  0
VERTEX
  5
1D1
330
198
100
AcDbEntity
  8
Make2D$可见线$普通线
100
AcDbVertex
100
AcDb2dVertex
 10
168.0576246232534
 20
1050.5270971626
 30
0.0
  0
VERTEX
  5
1D2
330
198
100
AcDbEntity
  8
Make2D$可见线$普通线
100
AcDbVertex
100
AcDb2dVertex
 10
168.0576277713594
 20
1050.52689498885
 30
0.0
  0
VERTEX
  5
1D3
330
198
100
AcDbEntity
  8
Make2D$可见线$普通线
100
AcDbVertex
100
AcDb2dVertex
 10
168.0576248155672
 20
1050.52669908737
 30
0.0
  0
VERTEX
  5
1D4
330
198
100
AcDbEntity
  8
Make2D$可见线$普通线
100
AcDbVertex
100
AcDb2dVertex
 10
168.0576159482436
 20
1050.526503186975
 30
0.0
  0
VERTEX
  5
1D5
330
198
100
AcDbEntity
  8
Make2D$可见线$普通线
100
AcDbVertex
100
AcDb2dVertex
 10
168.0576011694677
 20
1050.52630728769
 30
0.0
  0
VERTEX
  5
1D6
330
198
100
AcDbEntity
  8
Make2D$可见线$普通线
100
AcDbVertex
100
AcDb2dVertex
 10
168.0575804793191
 20
1050.526111389539
 30
0.0
  0
VERTEX
  5
1D7
330
198
100
AcDbEntity
  8
Make2D$可见线$普通线
100
AcDbVertex
100
AcDb2dVertex
 10
168.0575538778769
 20
1050.525915492549
 30
0.0
  0
VERTEX
  5
1D8
330
198
100
AcDbEntity
  8
Make2D$可见线$普通线
100
AcDbVertex
100
AcDb2dVertex
 10
168.0575213652205
 20
1050.525719596743
 30
0.0
  0
VERTEX
  5
1D9
330
198
100
AcDbEntity
  8
Make2D$可见线$普通线
100
AcDbVertex
100
AcDb2dVertex
 10
168.0574829414292
 20
1050.525523702147
 30
0.0
  0
VERTEX
  5
1DA
330
198
100
AcDbEntity
  8
Make2D$可见线$普通线
100
AcDbVertex
100
AcDb2dVertex
 10
168.0574386065823
 20
1050.525327808786
 30
0.0
  0
VERTEX
  5
1DB
330
198
100
AcDbEntity
  8
Make2D$可见线$普通线
100
AcDbVertex
100
AcDb2dVertex
 10
168.0573883607591
 20
1050.525131916686
 30
0.0
  0
VERTEX
  5
1DC
330
198
100
AcDbEntity
  8
Make2D$可见线$普通线
100
AcDbVertex
100
AcDb2dVertex
 10
168.057332204039
 20
1050.52493602587
 30
0.0
  0
VERTEX
  5
1DD
330
198
100
AcDbEntity
  8
Make2D$可见线$普通线
100
AcDbVertex
100
AcDb2dVertex
 10
168.0572701365013
 20
1050.524740136365
 30
0.0
  0
VERTEX
  5
1DE
330
198
100
AcDbEntity
  8
Make2D$可见线$普通线
100
AcDbVertex
100
AcDb2dVertex
 10
168.0572021582253
 20
1050.524544248195
 30
0.0
  0
VERTEX
  5
1DF
330
198
100
AcDbEntity
  8
Make2D$可见线$普通线
100
AcDbVertex
100
AcDb2dVertex
 10
168.0571282692903
 20
1050.524348361384
 30
0.0
  0
VERTEX
  5
1E0
330
198
100
AcDbEntity
  8
Make2D$可见线$普通线
100
AcDbVertex
100
AcDb2dVertex
 10
168.0570484697756
 20
1050.52415247596
 30
0.0
  0
VERTEX
  5
1E1
330
198
100
AcDbEntity
  8
Make2D$可见线$普通线
100
AcDbVertex
100
AcDb2dVertex
 10
168.0569627597606
 20
1050.523956591946
 30
0.0
  0
VERTEX
  5
1E2
330
198
100
AcDbEntity
  8
Make2D$可见线$普通线
100
AcDbVertex
100
AcDb2dVertex
 10
168.0568711393246
 20
1050.523760709366
 30
0.0
  0
VERTEX
  5
1E3
330
198
100
AcDbEntity
  8
Make2D$可见线$普通线
100
AcDbVertex
100
AcDb2dVertex
 10
168.0567736085469
 20
1050.523564828248
 30
0.0
  0
VERTEX
  5
1E4
330
198
100
AcDbEntity
  8
Make2D$可见线$普通线
100
AcDbVertex
100
AcDb2dVertex
 10
168.0566701675068
 20
1050.523368948614
 30
0.0
  0
VERTEX
  5
1E5
330
198
100
AcDbEntity
  8
Make2D$可见线$普通线
100
AcDbVertex
100
AcDb2dVertex
 10
168.0565608162835
 20
1050.523173070492
 30
0.0
  0
VERTEX
  5
1E6
330
198
100
AcDbEntity
  8
Make2D$可见线$普通线
100
AcDbVertex
100
AcDb2dVertex
 10
168.0564455549565
 20
1050.522977193905
 30
0.0
  0
VERTEX
  5
1E7
330
198
100
AcDbEntity
  8
Make2D$可见线$普通线
100
AcDbVertex
100
AcDb2dVertex
 10
168.0563243836051
 20
1050.522781318879
 30
0.0
  0
VERTEX
  5
1E8
330
198
100
AcDbEntity
  8
Make2D$可见线$普通线
100
AcDbVertex
100
AcDb2dVertex
 10
168.0561973023085
 20
1050.522585445438
 30
0.0
  0
VERTEX
  5
1E9
330
198
100
AcDbEntity
  8
Make2D$可见线$普通线
100
AcDbVertex
100
AcDb2dVertex
 10
168.0560643111461
 20
1050.522389573608
 30
0.0
  0
VERTEX
  5
1EA
330
198
100
AcDbEntity
  8
Make2D$可见线$普通线
100
AcDbVertex
100
AcDb2dVertex
 10
168.0559254101973
 20
1050.522193703413
 30
0.0
  0
VERTEX
  5
1EB
330
198
100
AcDbEntity
  8
Make2D$可见线$普通线
100
AcDbVertex
100
AcDb2dVertex
 10
168.0557805995413
 20
1050.52199783488
 30
0.0
  0
VERTEX
  5
1EC
330
198
100
AcDbEntity
  8
Make2D$可见线$普通线
100
AcDbVertex
100
AcDb2dVertex
 10
168.0556298792574
 20
1050.521801968032
 30
0.0
  0
VERTEX
  5
1ED
330
198
100
AcDbEntity
  8
Make2D$可见线$普通线
100
AcDbVertex
100
AcDb2dVertex
 10
168.0554732494249
 20
1050.521606102895
 30
0.0
  0
VERTEX
  5
1EE
330
198
100
AcDbEntity
  8
Make2D$可见线$普通线
100
AcDbVertex
100
AcDb2dVertex
 10
168.0553107101233
 20
1050.521410239494
 30
0.0
  0
VERTEX
  5
1EF
330
198
100
AcDbEntity
  8
Make2D$可见线$普通线
100
AcDbVertex
100
AcDb2dVertex
 10
168.0549679034297
 20
1050.521018518001
 30
0.0
  0
VERTEX
  5
1F0
330
198
100
AcDbEntity
  8
Make2D$可见线$普通线
100
AcDbVertex
100
AcDb2dVertex
 10
168.054601459811
 20
1050.520626803751
 30
0.0
  0
VERTEX
  5
1F1
330
198
100
AcDbEntity
  8
Make2D$可见线$普通线
100
AcDbVertex
100
AcDb2dVertex
 10
168.0542113799018
 20
1050.520235096947
 30
0.0
  0
VERTEX
  5
1F2
330
198
100
AcDbEntity
  8
Make2D$可见线$普通线
100
AcDbVertex
100
AcDb2dVertex
 10
168.0537976643366
 20
1050.519843397787
 30
0.0
  0
VERTEX
  5
1F3
330
198
100
AcDbEntity
  8
Make2D$可见线$普通线
100
AcDbVertex
100
AcDb2dVertex
 10
168.05336031375
 20
1050.519451706473
 30
0.0
  0
VERTEX
  5
1F4
330
198
100
AcDbEntity
  8
Make2D$可见线$普通线
100
AcDbVertex
100
AcDb2dVertex
 10
168.0528993287766
 20
1050.519060023204
 30
0.0
  0
VERTEX
  5
1F5
330
198
100
AcDbEntity
  8
Make2D$可见线$普通线
100
AcDbVertex
100
AcDb2dVertex
 10
168.0524147100508
 20
1050.518668348182
 30
0.0
  0
VERTEX
  5
1F6
330
198
100
AcDbEntity
  8
Make2D$可见线$普通线
100
AcDbVertex
100
AcDb2dVertex
 10
168.0519064582071
 20
1050.518276681606
 30
0.0
  0
VERTEX
  5
1F7
330
198
100
AcDbEntity
  8
Make2D$可见线$普通线
100
AcDbVertex
100
AcDb2dVertex
 10
168.0513745738803
 20
1050.517885023677
 30
0.0
  0
VERTEX
  5
1F8
330
198
100
AcDbEntity
  8
Make2D$可见线$普通线
100
AcDbVertex
100
AcDb2dVertex
 10
168.0508190577046
 20
1050.517493374596
 30
0.0
  0
VERTEX
  5
1F9
330
198
100
AcDbEntity
  8
Make2D$可见线$普通线
100
AcDbVertex
100
AcDb2dVertex
 10
168.0502399103149
 20
1050.517101734562
 30
0.0
  0
VERTEX
  5
1FA
330
198
100
AcDbEntity
  8
Make2D$可见线$普通线
100
AcDbVertex
100
AcDb2dVertex
 10
168.0496371323455
 20
1050.516710103776
 30
0.0
  0
VERTEX
  5
1FB
330
198
100
AcDbEntity
  8
Make2D$可见线$普通线
100
AcDbVertex
100
AcDb2dVertex
 10
168.0483606872061
 20
1050.51592687075
 30
0.0
  0
VERTEX
  5
1FC
330
198
100
AcDbEntity
  8
Make2D$可见线$普通线
100
AcDbVertex
100
AcDb2dVertex
 10
168.0469897273626
 20
1050.515143677121
 30
0.0
  0
VERTEX
  5
1FD
330
198
100
AcDbEntity
  8
Make2D$可见线$普通线
100
AcDbVertex
100
AcDb2dVertex
 10
168.0455242578915
 20
1050.514360524492
 30
0.0
 42
-0.0581472172595657
  0
VERTEX
  5
1FE
330
198
100
AcDbEntity
  8
Make2D$可见线$普通线
100
AcDbVertex
100
AcDb2dVertex
 10
167.6065504124353
 20
1050.45012735246
 30
0.0
  0
VERTEX
  5
1FF
330
198
100
AcDbEntity
  8
Make2D$可见线$普通线
100
AcDbVertex
100
AcDb2dVertex
 10
166.5619928053412
 20
1050.385914100404
 30
0.0
  0
VERTEX
  5
200
330
198
100
AcDbEntity
  8
Make2D$可见线$普通线
100
AcDbVertex
100
AcDb2dVertex
 10
164.9653701903717
 20
1050.321385153592
 30
0.0
  0
VERTEX
  5
201
330
198
100
AcDbEntity
  8
Make2D$可见线$普通线
100
AcDbVertex
100
AcDb2dVertex
 10
160.5766534692184
 20
1050.193259924133
 30
0.0
  0
VERTEX
  5
202
330
198
100
AcDbEntity
  8
Make2D$可见线$普通线
100
AcDbVertex
100
AcDb2dVertex
 10
157.5
 20
1050.115897533885
 30
0.0
  0
VERTEX
  5
203
330
198
100
AcDbEntity
  8
Make2D$可见线$普通线
100
AcDbVertex
100
AcDb2dVertex
 10
152.9971777856454
 20
1050.000608313484
 30
0.0
  0
VERTEX
  5
204
330
198
100
AcDbEntity
  8
Make2D$可见线$普通线
100
AcDbVertex
100
AcDb2dVertex
 10
150.0346298096283
 20
1049.910415723715
 30
0.0
  0
VERTEX
  5
205
330
198
100
AcDbEntity
  8
Make2D$可见线$普通线
100
AcDbVertex
100
AcDb2dVertex
 10
149.0272409226737
 20
1049.872168319397
 30
0.0
  0
VERTEX
  5
206
330
198
100
AcDbEntity
  8
Make2D$可见线$普通线
100
AcDbVertex
100
AcDb2dVertex
 10
147.5772868760232
 20
1049.797457396508
 30
0.0
  0
VERTEX
  5
207
330
198
100
AcDbEntity
  8
Make2D$可见线$普通线
100
AcDbVertex
100
AcDb2dVertex
 10
147.4039522423376
 20
1049.783244269252
 30
0.0
  0
VERTEX
  5
208
330
198
100
AcDbEntity
  8
Make2D$可见线$普通线
100
AcDbVertex
100
AcDb2dVertex
 10
147.2309608194197
 20
1049.7653312623
 30
0.0
  0
VERTEX
  5
209
330
198
100
AcDbEntity
  8
Make2D$可见线$普通线
100
AcDbVertex
100
AcDb2dVertex
 10
147.0584308981982
 20
1049.743731902902
 30
0.0
 42
0.1868772489235127
  0
VERTEX
  5
20A
330
198
100
AcDbEntity
  8
Make2D$可见线$普通线
100
AcDbVertex
100
AcDb2dVertex
 10
146.9423722286406
 20
1049.704906976342
 30
0.0
  0
VERTEX
  5
20B
330
198
100
AcDbEntity
  8
Make2D$可见线$普通线
100
AcDbVertex
100
AcDb2dVertex
 10
146.9423722286406
 20
1049.054515875697
 30
0.0
  0
SEQEND
  5
20C
330
198
100
AcDbEntity
  8
Make2D$可见线$普通线
  0
POLYLINE
  5
20D
330
1F
100
AcDbEntity
  8
Make2D$可见线$普通线
100
AcDb2dPolyline
 66
     1
 10
0.0
 20
0.0
 30
0.0
  0
VERTEX
  5
20E
330
20D
100
AcDbEntity
  8
Make2D$可见线$普通线
100
AcDbVertex
100
AcDb2dVertex
 10
167.7547135652573
 20
1053.101689296069
 30
0.0
  0
VERTEX
  5
20F
330
20D
100
AcDbEntity
  8
Make2D$可见线$普通线
100
AcDbVertex
100
AcDb2dVertex
 10
167.6861408725513
 20
1053.05292263547
 30
0.0
 42
0.5837846776071697
  0
VERTEX
  5
210
330
20D
100
AcDbEntity
  8
Make2D$可见线$普通线
100
AcDbVertex
100
AcDb2dVertex
 10
167.8238377363443
 20
1052.203827434722
 30
0.0
  0
SEQEND
  5
211
330
20D
100
AcDbEntity
  8
Make2D$可见线$普通线
  0
POLYLINE
  5
212
330
1F
100
AcDbEntity
  8
Make2D$可见线$普通线
100
AcDb2dPolyline
 66
     1
 10
0.0
 20
0.0
 30
0.0
  0
VERTEX
  5
213
330
212
100
AcDbEntity
  8
Make2D$可见线$普通线
100
AcDbVertex
100
AcDb2dVertex
 10
147.2248076276795
 20
1053.92585957312
 30
0.0
  0
VERTEX
  5
214
330
212
100
AcDbEntity
  8
Make2D$可见线$普通线
100
AcDbVertex
100
AcDb2dVertex
 10
147.0585070681959
 20
1053.947667989726
 30
0.0
 42
-0.186872058156823
  0
VERTEX
  5
215
330
212
100
AcDbEntity
  8
Make2D$可见线$普通线
100
AcDbVertex
100
AcDb2dVertex
 10
146.9423722286404
 20
1053.986496833021
 30
0.0
 42
-0.2382759034106072
  0
VERTEX
  5
216
330
212
100
AcDbEntity
  8
Make2D$可见线$普通线
100
AcDbVertex
100
AcDb2dVertex
 10
146.9920360903729
 20
1054.011904209735
 30
0.0
 42
-0.0334232395679775
  0
VERTEX
  5
217
330
212
100
AcDbEntity
  8
Make2D$可见线$普通线
100
AcDbVertex
100
AcDb2dVertex
 10
147.5553612916123
 20
1054.076113651072
 30
0.0
  0
VERTEX
  5
218
330
212
100
AcDbEntity
  8
Make2D$可见线$普通线
100
AcDbVertex
100
AcDb2dVertex
 10
148.7148967862373
 20
1054.140349035227
 30
0.0
  0
VERTEX
  5
219
330
212
100
AcDbEntity
  8
Make2D$可见线$普通线
100
AcDbVertex
100
AcDb2dVertex
 10
150.4008467228208
 20
1054.204547826538
 30
0.0
  0
VERTEX
  5
21A
330
212
100
AcDbEntity
  8
Make2D$可见线$普通线
100
AcDbVertex
100
AcDb2dVertex
 10
154.9235330689154
 20
1054.333000107726
 30
0.0
  0
VERTEX
  5
21B
330
212
100
AcDbEntity
  8
Make2D$可见线$普通线
100
AcDbVertex
100
AcDb2dVertex
 10
157.4876272936433
 20
1054.397221066603
 30
0.0
  0
VERTEX
  5
21C
330
212
100
AcDbEntity
  8
Make2D$可见线$普通线
100
AcDbVertex
100
AcDb2dVertex
 10
157.5
 20
1054.397374348022
 30
0.0
 42
-0.9900794816893191
  0
VERTEX
  5
21D
330
212
100
AcDbEntity
  8
Make2D$可见线$普通线
100
AcDbVertex
100
AcDb2dVertex
 10
157.5123727063569
 20
1053.404191778724
 30
0.0
  0
VERTEX
  5
21E
330
212
100
AcDbEntity
  8
Make2D$可见线$普通线
100
AcDbVertex
100
AcDb2dVertex
 10
157.5
 20
1053.403887049892
 30
0.0
  0
VERTEX
  5
21F
330
212
100
AcDbEntity
  8
Make2D$可见线$普通线
100
AcDbVertex
100
AcDb2dVertex
 10
152.5337837023295
 20
1053.27572158955
 30
0.0
  0
VERTEX
  5
220
330
212
100
AcDbEntity
  8
Make2D$可见线$普通线
100
AcDbVertex
100
AcDb2dVertex
 10
150.0346298096283
 20
1053.198411167013
 30
0.0
  0
VERTEX
  5
221
330
212
100
AcDbEntity
  8
Make2D$可见线$普通线
100
AcDbVertex
100
AcDb2dVertex
 10
148.7286443267991
 20
1053.147322633208
 30
0.0
  0
VERTEX
  5
222
330
212
100
AcDbEntity
  8
Make2D$可见线$普通线
100
AcDbVertex
100
AcDb2dVertex
 10
147.563697652813
 20
1053.083112173234
 30
0.0
 42
0.0326446189888946
  0
VERTEX
  5
223
330
212
100
AcDbEntity
  8
Make2D$可见线$普通线
100
AcDbVertex
100
AcDb2dVertex
 10
146.9944622321469
 20
1053.018899748652
 30
0.0
  0
VERTEX
  5
224
330
212
100
AcDbEntity
  8
Make2D$可见线$普通线
100
AcDbVertex
100
AcDb2dVertex
 10
146.9423722286406
 20
1052.992915674227
 30
0.0
  0
VERTEX
  5
225
330
212
100
AcDbEntity
  8
Make2D$可见线$普通线
100
AcDbVertex
100
AcDb2dVertex
 10
146.9423722286406
 20
1052.342527711633
 30
0.0
  0
SEQEND
  5
226
330
212
100
AcDbEntity
  8
Make2D$可见线$普通线
  0
POLYLINE
  5
227
330
1F
100
AcDbEntity
  8
Make2D$可见线$普通线
100
AcDb2dPolyline
 66
     1
 10
0.0
 20
0.0
 30
0.0
  0
VERTEX
  5
228
330
227
100
AcDbEntity
  8
Make2D$可见线$普通线
100
AcDbVertex
100
AcDb2dVertex
 10
147.2557993872409
 20
1052.406441713437
 30
0.0
  0
VERTEX
  5
229
330
227
100
AcDbEntity
  8
Make2D$可见线$普通线
100
AcDbVertex
100
AcDb2dVertex
 10
147.7190814573054
 20
1052.443787125375
 30
0.0
  0
VERTEX
  5
22A
330
227
100
AcDbEntity
  8
Make2D$可见线$普通线
100
AcDbVertex
100
AcDb2dVertex
 10
148.1830893207616
 20
1052.470650834853
 30
0.0
  0
VERTEX
  5
22B
330
227
100
AcDbEntity
  8
Make2D$可见线$普通线
100
AcDbVertex
100
AcDb2dVertex
 10
150.0346298096283
 20
1052.548017559856
 30
0.0
  0
VERTEX
  5
22C
330
227
100
AcDbEntity
  8
Make2D$可见线$普通线
100
AcDbVertex
100
AcDb2dVertex
 10
153.9313230334935
 20
1052.663296211266
 30
0.0
  0
VERTEX
  5
22D
330
227
100
AcDbEntity
  8
Make2D$可见线$普通线
100
AcDbVertex
100
AcDb2dVertex
 10
157.5
 20
1052.753505455895
 30
0.0
  0
VERTEX
  5
22E
330
227
100
AcDbEntity
  8
Make2D$可见线$普通线
100
AcDbVertex
100
AcDb2dVertex
 10
163.779002180269
 20
1052.920168209183
 30
0.0
  0
VERTEX
  5
22F
330
227
100
AcDbEntity
  8
Make2D$可见线$普通线
100
AcDbVertex
100
AcDb2dVertex
 10
165.6535092997578
 20
1052.984403505088
 30
0.0
  0
VERTEX
  5
230
330
227
100
AcDbEntity
  8
Make2D$可见线$普通线
100
AcDbVertex
100
AcDb2dVertex
 10
167.0386659699761
 20
1053.048615210194
 30
0.0
  0
VERTEX
  5
231
330
227
100
AcDbEntity
  8
Make2D$可见线$普通线
100
AcDbVertex
100
AcDb2dVertex
 10
167.4459562446504
 20
1053.074603403593
 30
0.0
  0
VERTEX
  5
232
330
227
100
AcDbEntity
  8
Make2D$可见线$普通线
100
AcDbVertex
100
AcDb2dVertex
 10
167.8522806288247
 20
1053.112829688606
 30
0.0
  0
VERTEX
  5
233
330
227
100
AcDbEntity
  8
Make2D$可见线$普通线
100
AcDbVertex
100
AcDb2dVertex
 10
167.9003128426085
 20
1053.119294651543
 30
0.0
  0
VERTEX
  5
234
330
227
100
AcDbEntity
  8
Make2D$可见线$普通线
100
AcDbVertex
100
AcDb2dVertex
 10
167.9419789090338
 20
1053.125755604719
 30
0.0
  0
VERTEX
  5
235
330
227
100
AcDbEntity
  8
Make2D$可见线$普通线
100
AcDbVertex
100
AcDb2dVertex
 10
167.9772670702132
 20
1053.132213991971
 30
0.0
  0
VERTEX
  5
236
330
227
100
AcDbEntity
  8
Make2D$可见线$普通线
100
AcDbVertex
100
AcDb2dVertex
 10
167.9925157619959
 20
1053.135442674575
 30
0.0
  0
VERTEX
  5
237
330
227
100
AcDbEntity
  8
Make2D$可见线$普通线
100
AcDbVertex
100
AcDb2dVertex
 10
168.0061655682592
 20
1053.138671257138
 30
0.0
  0
VERTEX
  5
238
330
227
100
AcDbEntity
  8
Make2D$可见线$普通线
100
AcDbVertex
100
AcDb2dVertex
 10
168.0182150192673
 20
1053.141899920138
 30
0.0
  0
VERTEX
  5
239
330
227
100
AcDbEntity
  8
Make2D$可见线$普通线
100
AcDbVertex
100
AcDb2dVertex
 10
168.0236391522582
 20
1053.143514338203
 30
0.0
  0
VERTEX
  5
23A
330
227
100
AcDbEntity
  8
Make2D$可见线$普通线
100
AcDbVertex
100
AcDb2dVertex
 10
168.0286626452843
 20
1053.145128844056
 30
0.0
  0
VERTEX
  5
23B
330
227
100
AcDbEntity
  8
Make2D$可见线$普通线
100
AcDbVertex
100
AcDb2dVertex
 10
168.0332853146286
 20
1053.146743460259
 30
0.0
  0
VERTEX
  5
23C
330
227
100
AcDbEntity
  8
Make2D$可见线$普通线
100
AcDbVertex
100
AcDb2dVertex
 10
168.0375069765742
 20
1053.148358209372
 30
0.0
  0
VERTEX
  5
23D
330
227
100
AcDbEntity
  8
Make2D$可见线$普通线
100
AcDbVertex
100
AcDb2dVertex
 10
168.0394673723609
 20
1053.149165640818
 30
0.0
  0
VERTEX
  5
23E
330
227
100
AcDbEntity
  8
Make2D$可见线$普通线
100
AcDbVertex
100
AcDb2dVertex
 10
168.041327447404
 20
1053.149973113953
 30
0.0
  0
VERTEX
  5
23F
330
227
100
AcDbEntity
  8
Make2D$可见线$普通线
100
AcDbVertex
100
AcDb2dVertex
 10
168.0430871787389
 20
1053.150780631595
 30
0.0
  0
VERTEX
  5
240
330
227
100
AcDbEntity
  8
Make2D$可见线$普通线
100
AcDbVertex
100
AcDb2dVertex
 10
168.0447465434011
 20
1053.151588196564
 30
0.0
  0
VERTEX
  5
241
330
227
100
AcDbEntity
  8
Make2D$可见线$普通线
100
AcDbVertex
100
AcDb2dVertex
 10
168.0463055184258
 20
1053.15239581168
 30
0.0
  0
VERTEX
  5
242
330
227
100
AcDbEntity
  8
Make2D$可见线$普通线
100
AcDbVertex
100
AcDb2dVertex
 10
168.0477640808484
 20
1053.153203479764
 30
0.0
  0
VERTEX
  5
243
330
227
100
AcDbEntity
  8
Make2D$可见线$普通线
100
AcDbVertex
100
AcDb2dVertex
 10
168.0491222077043
 20
1053.154011203634
 30
0.0
  0
VERTEX
  5
244
330
227
100
AcDbEntity
  8
Make2D$可见线$普通线
100
AcDbVertex
100
AcDb2dVertex
 10
168.0497636006183
 20
1053.154415087371
 30
0.0
  0
VERTEX
  5
245
330
227
100
AcDbEntity
  8
Make2D$可见线$普通线
100
AcDbVertex
100
AcDb2dVertex
 10
168.050379876029
 20
1053.154818986113
 30
0.0
  0
VERTEX
  5
246
330
227
100
AcDbEntity
  8
Make2D$可见线$普通线
100
AcDbVertex
100
AcDb2dVertex
 10
168.0509710310656
 20
1053.155222900211
 30
0.0
  0
VERTEX
  5
247
330
227
100
AcDbEntity
  8
Make2D$可见线$普通线
100
AcDbVertex
100
AcDb2dVertex
 10
168.0515370628576
 20
1053.155626830018
 30
0.0
  0
VERTEX
  5
248
330
227
100
AcDbEntity
  8
Make2D$可见线$普通线
100
AcDbVertex
100
AcDb2dVertex
 10
168.0520779685345
 20
1053.156030775887
 30
0.0
  0
VERTEX
  5
249
330
227
100
AcDbEntity
  8
Make2D$可见线$普通线
100
AcDbVertex
100
AcDb2dVertex
 10
168.0525937452258
 20
1053.156434738171
 30
0.0
  0
VERTEX
  5
24A
330
227
100
AcDbEntity
  8
Make2D$可见线$普通线
100
AcDbVertex
100
AcDb2dVertex
 10
168.0530843900607
 20
1053.156838717221
 30
0.0
  0
VERTEX
  5
24B
330
227
100
AcDbEntity
  8
Make2D$可见线$普通线
100
AcDbVertex
100
AcDb2dVertex
 10
168.0535499001687
 20
1053.157242713391
 30
0.0
  0
VERTEX
  5
24C
330
227
100
AcDbEntity
  8
Make2D$可见线$普通线
100
AcDbVertex
100
AcDb2dVertex
 10
168.0539902726793
 20
1053.157646727032
 30
0.0
  0
VERTEX
  5
24D
330
227
100
AcDbEntity
  8
Make2D$可见线$普通线
100
AcDbVertex
100
AcDb2dVertex
 10
168.0544055047219
 20
1053.158050758498
 30
0.0
  0
VERTEX
  5
24E
330
227
100
AcDbEntity
  8
Make2D$可见线$普通线
100
AcDbVertex
100
AcDb2dVertex
 10
168.0547955934259
 20
1053.158454808141
 30
0.0
  0
VERTEX
  5
24F
330
227
100
AcDbEntity
  8
Make2D$可见线$普通线
100
AcDbVertex
100
AcDb2dVertex
 10
168.0551605359206
 20
1053.158858876313
 30
0.0
  0
VERTEX
  5
250
330
227
100
AcDbEntity
  8
Make2D$可见线$普通线
100
AcDbVertex
100
AcDb2dVertex
 10
168.0553335764425
 20
1053.159060917457
 30
0.0
  0
VERTEX
  5
251
330
227
100
AcDbEntity
  8
Make2D$可见线$普通线
100
AcDbVertex
100
AcDb2dVertex
 10
168.0555003293356
 20
1053.159262963366
 30
0.0
  0
VERTEX
  5
252
330
227
100
AcDbEntity
  8
Make2D$可见线$普通线
100
AcDbVertex
100
AcDb2dVertex
 10
168.0556607942412
 20
1053.159465014084
 30
0.0
  0
VERTEX
  5
253
330
227
100
AcDbEntity
  8
Make2D$可见线$普通线
100
AcDbVertex
100
AcDb2dVertex
 10
168.0558149708003
 20
1053.159667069654
 30
0.0
  0
VERTEX
  5
254
330
227
100
AcDbEntity
  8
Make2D$可见线$普通线
100
AcDbVertex
100
AcDb2dVertex
 10
168.0559628586542
 20
1053.159869130121
 30
0.0
  0
VERTEX
  5
255
330
227
100
AcDbEntity
  8
Make2D$可见线$普通线
100
AcDbVertex
100
AcDb2dVertex
 10
168.056104457444
 20
1053.160071195529
 30
0.0
  0
VERTEX
  5
256
330
227
100
AcDbEntity
  8
Make2D$可见线$普通线
100
AcDbVertex
100
AcDb2dVertex
 10
168.056239766811
 20
1053.160273265922
 30
0.0
  0
VERTEX
  5
257
330
227
100
AcDbEntity
  8
Make2D$可见线$普通线
100
AcDbVertex
100
AcDb2dVertex
 10
168.0563687863963
 20
1053.160475341343
 30
0.0
  0
VERTEX
  5
258
330
227
100
AcDbEntity
  8
Make2D$可见线$普通线
100
AcDbVertex
100
AcDb2dVertex
 10
168.0564915158411
 20
1053.160677421838
 30
0.0
  0
VERTEX
  5
259
330
227
100
AcDbEntity
  8
Make2D$可见线$普通线
100
AcDbVertex
100
AcDb2dVertex
 10
168.0566079547865
 20
1053.160879507449
 30
0.0
  0
VERTEX
  5
25A
330
227
100
AcDbEntity
  8
Make2D$可见线$普通线
100
AcDbVertex
100
AcDb2dVertex
 10
168.0567181028738
 20
1053.161081598222
 30
0.0
  0
VERTEX
  5
25B
330
227
100
AcDbEntity
  8
Make2D$可见线$普通线
100
AcDbVertex
100
AcDb2dVertex
 10
168.056821959744
 20
1053.1612836942
 30
0.0
  0
VERTEX
  5
25C
330
227
100
AcDbEntity
  8
Make2D$可见线$普通线
100
AcDbVertex
100
AcDb2dVertex
 10
168.0569195250385
 20
1053.161485795427
 30
0.0
  0
VERTEX
  5
25D
330
227
100
AcDbEntity
  8
Make2D$可见线$普通线
100
AcDbVertex
100
AcDb2dVertex
 10
168.0570107983984
 20
1053.161687901947
 30
0.0
  0
VERTEX
  5
25E
330
227
100
AcDbEntity
  8
Make2D$可见线$普通线
100
AcDbVertex
100
AcDb2dVertex
 10
168.0570957794648
 20
1053.161890013804
 30
0.0
  0
VERTEX
  5
25F
330
227
100
AcDbEntity
  8
Make2D$可见线$普通线
100
AcDbVertex
100
AcDb2dVertex
 10
168.0571744678788
 20
1053.162092131043
 30
0.0
  0
VERTEX
  5
260
330
227
100
AcDbEntity
  8
Make2D$可见线$普通线
100
AcDbVertex
100
AcDb2dVertex
 10
168.0572468632818
 20
1053.162294253708
 30
0.0
  0
VERTEX
  5
261
330
227
100
AcDbEntity
  8
Make2D$可见线$普通线
100
AcDbVertex
100
AcDb2dVertex
 10
168.0573129653149
 20
1053.162496381841
 30
0.0
  0
VERTEX
  5
262
330
227
100
AcDbEntity
  8
Make2D$可见线$普通线
100
AcDbVertex
100
AcDb2dVertex
 10
168.0573727736193
 20
1053.162698515489
 30
0.0
  0
VERTEX
  5
263
330
227
100
AcDbEntity
  8
Make2D$可见线$普通线
100
AcDbVertex
100
AcDb2dVertex
 10
168.0574262878361
 20
1053.162900654694
 30
0.0
  0
VERTEX
  5
264
330
227
100
AcDbEntity
  8
Make2D$可见线$普通线
100
AcDbVertex
100
AcDb2dVertex
 10
168.0574735076065
 20
1053.163102799501
 30
0.0
  0
VERTEX
  5
265
330
227
100
AcDbEntity
  8
Make2D$可见线$普通线
100
AcDbVertex
100
AcDb2dVertex
 10
168.0575144325717
 20
1053.163304949953
 30
0.0
  0
VERTEX
  5
266
330
227
100
AcDbEntity
  8
Make2D$可见线$普通线
100
AcDbVertex
100
AcDb2dVertex
 10
168.0575490623729
 20
1053.163507106096
 30
0.0
  0
VERTEX
  5
267
330
227
100
AcDbEntity
  8
Make2D$可见线$普通线
100
AcDbVertex
100
AcDb2dVertex
 10
168.0575773966511
 20
1053.163709267972
 30
0.0
  0
VERTEX
  5
268
330
227
100
AcDbEntity
  8
Make2D$可见线$普通线
100
AcDbVertex
100
AcDb2dVertex
 10
168.0575994350478
 20
1053.163911435626
 30
0.0
  0
VERTEX
  5
269
330
227
100
AcDbEntity
  8
Make2D$可见线$普通线
100
AcDbVertex
100
AcDb2dVertex
 10
168.0576151772039
 20
1053.164113609103
 30
0.0
  0
VERTEX
  5
26A
330
227
100
AcDbEntity
  8
Make2D$可见线$普通线
100
AcDbVertex
100
AcDb2dVertex
 10
168.0576246227607
 20
1053.164315788445
 30
0.0
  0
VERTEX
  5
26B
330
227
100
AcDbEntity
  8
Make2D$可见线$普通线
100
AcDbVertex
100
AcDb2dVertex
 10
168.0576277713594
 20
1053.164517973697
 30
0.0
  0
VERTEX
  5
26C
330
227
100
AcDbEntity
  8
Make2D$可见线$普通线
100
AcDbVertex
100
AcDb2dVertex
 10
168.0576277713595
 20
1054.74155258044
 30
0.0
  0
VERTEX
  5
26D
330
227
100
AcDbEntity
  8
Make2D$可见线$普通线
100
AcDbVertex
100
AcDb2dVertex
 10
146.9423722286406
 20
1054.74155258044
 30
0.0
  0
VERTEX
  5
26E
330
227
100
AcDbEntity
  8
Make2D$可见线$普通线
100
AcDbVertex
100
AcDb2dVertex
 10
146.9423722286406
 20
1053.98649683302
 30
0.0
  0
SEQEND
  5
26F
330
227
100
AcDbEntity
  8
Make2D$可见线$普通线
  0
POLYLINE
  5
270
330
1F
100
AcDbEntity
  8
Make2D$可见线$普通线
100
AcDb2dPolyline
 66
     1
 10
0.0
 20
0.0
 30
0.0
  0
VERTEX
  5
271
330
270
100
AcDbEntity
  8
Make2D$可见线$普通线
100
AcDbVertex
100
AcDb2dVertex
 10
147.2016828941518
 20
1050.640402797313
 30
0.0
  0
VERTEX
  5
272
330
270
100
AcDbEntity
  8
Make2D$可见线$普通线
100
AcDbVertex
100
AcDb2dVertex
 10
146.9944597654878
 20
1050.672512637395
 30
0.0
 42
-0.2356274959052279
  0
VERTEX
  5
273
330
270
100
AcDbEntity
  8
Make2D$可见线$普通线
100
AcDbVertex
100
AcDb2dVertex
 10
146.9423722286405
 20
1050.698505457829
 30
0.0
 42
-0.1889798312851211
  0
VERTEX
  5
274
330
270
100
AcDbEntity
  8
Make2D$可见线$普通线
100
AcDbVertex
100
AcDb2dVertex
 10
147.0548006710179
 20
1050.736731795496
 30
0.0
  0
VERTEX
  5
275
330
270
100
AcDbEntity
  8
Make2D$可见线$普通线
100
AcDbVertex
100
AcDb2dVertex
 10
147.2258602538035
 20
1050.758379258532
 30
0.0
  0
VERTEX
  5
276
330
270
100
AcDbEntity
  8
Make2D$可见线$普通线
100
AcDbVertex
100
AcDb2dVertex
 10
147.3973903828044
 20
1050.776308436468
 30
0.0
  0
VERTEX
  5
277
330
270
100
AcDbEntity
  8
Make2D$可见线$普通线
100
AcDbVertex
100
AcDb2dVertex
 10
147.5692696702768
 20
1050.790505306351
 30
0.0
  0
VERTEX
  5
278
330
270
100
AcDbEntity
  8
Make2D$可见线$普通线
100
AcDbVertex
100
AcDb2dVertex
 10
149.0125012059644
 20
1050.865168217571
 30
0.0
  0
VERTEX
  5
279
330
270
100
AcDbEntity
  8
Make2D$可见线$普通线
100
AcDbVertex
100
AcDb2dVertex
 10
150.7930043792065
 20
1050.929403513477
 30
0.0
  0
VERTEX
  5
27A
330
270
100
AcDbEntity
  8
Make2D$可见线$普通线
100
AcDbVertex
100
AcDb2dVertex
 10
155.427853783962
 20
1051.057829696994
 30
0.0
  0
VERTEX
  5
27B
330
270
100
AcDbEntity
  8
Make2D$可见线$普通线
100
AcDbVertex
100
AcDb2dVertex
 10
157.5
 20
1051.109515867309
 30
0.0
  0
VERTEX
  5
27C
330
270
100
AcDbEntity
  8
Make2D$可见线$普通线
100
AcDbVertex
100
AcDb2dVertex
 10
162.9168755554249
 20
1051.250495440451
 30
0.0
  0
VERTEX
  5
27D
330
270
100
AcDbEntity
  8
Make2D$可见线$普通线
100
AcDbVertex
100
AcDb2dVertex
 10
164.9653701903717
 20
1051.315027715852
 30
0.0
  0
VERTEX
  5
27E
330
270
100
AcDbEntity
  8
Make2D$可见线$普通线
100
AcDbVertex
100
AcDb2dVertex
 10
166.5492710629383
 20
1051.378941717632
 30
0.0
  0
VERTEX
  5
27F
330
270
100
AcDbEntity
  8
Make2D$可见线$普通线
100
AcDbVertex
100
AcDb2dVertex
 10
167.5993666818369
 20
1051.443150839047
 30
0.0
 42
0.0564179540722445
  0
VERTEX
  5
280
330
270
100
AcDbEntity
  8
Make2D$可见线$普通线
100
AcDbVertex
100
AcDb2dVertex
 10
168.0443107287782
 20
1051.507378579548
 30
0.0
  0
VERTEX
  5
281
330
270
100
AcDbEntity
  8
Make2D$可见线$普通线
100
AcDbVertex
100
AcDb2dVertex
 10
168.0576277713594
 20
1051.520517564075
 30
0.0
  0
VERTEX
  5
282
330
270
100
AcDbEntity
  8
Make2D$可见线$普通线
100
AcDbVertex
100
AcDb2dVertex
 10
168.0576277713594
 20
1052.17089532978
 30
0.0
  0
SEQEND
  5
283
330
270
100
AcDbEntity
  8
Make2D$可见线$普通线
  0
POLYLINE
  5
284
330
1F
100
AcDbEntity
  8
Make2D$可见线$普通线
100
AcDb2dPolyline
 66
     1
 10
0.0
 20
0.0
 30
0.0
  0
VERTEX
  5
285
330
284
100
AcDbEntity
  8
Make2D$可见线$普通线
100
AcDbVertex
100
AcDb2dVertex
 10
147.2504651431647
 20
1048.99115315037
 30
0.0
  0
VERTEX
  5
286
330
284
100
AcDbEntity
  8
Make2D$可见线$普通线
100
AcDbVertex
100
AcDb2dVertex
 10
147.1477193711753
 20
1049.002829705382
 30
0.0
  0
VERTEX
  5
287
330
284
100
AcDbEntity
  8
Make2D$可见线$普通线
100
AcDbVertex
100
AcDb2dVertex
 10
147.0996871536551
 20
1049.009293731173
 30
0.0
  0
VERTEX
  5
288
330
284
100
AcDbEntity
  8
Make2D$可见线$普通线
100
AcDbVertex
100
AcDb2dVertex
 10
147.0580210854758
 20
1049.015753846448
 30
0.0
  0
VERTEX
  5
289
330
284
100
AcDbEntity
  8
Make2D$可见线$普通线
100
AcDbVertex
100
AcDb2dVertex
 10
147.0227329240677
 20
1049.022211541538
 30
0.0
  0
VERTEX
  5
28A
330
284
100
AcDbEntity
  8
Make2D$可见线$普通线
100
AcDbVertex
100
AcDb2dVertex
 10
147.0074842325996
 20
1049.025439947241
 30
0.0
  0
VERTEX
  5
28B
330
284
100
AcDbEntity
  8
Make2D$可见线$普通线
100
AcDbVertex
100
AcDb2dVertex
 10
146.9938344268605
 20
1049.02866830677
 30
0.0
  0
VERTEX
  5
28C
330
284
100
AcDbEntity
  8
Make2D$可见线$普通线
100
AcDbVertex
100
AcDb2dVertex
 10
146.9817849765291
 20
1049.031896806418
 30
0.0
  0
VERTEX
  5
28D
330
284
100
AcDbEntity
  8
Make2D$可见线$普通线
100
AcDbVertex
100
AcDb2dVertex
 10
146.9763608439159
 20
1049.033511167001
 30
0.0
  0
VERTEX
  5
28E
330
284
100
AcDbEntity
  8
Make2D$可见线$普通线
100
AcDbVertex
100
AcDb2dVertex
 10
146.9713373512842
 20
1049.035125632473
 30
0.0
  0
VERTEX
  5
28F
330
284
100
AcDbEntity
  8
Make2D$可见线$普通线
100
AcDbVertex
100
AcDb2dVertex
 10
146.9667146823438
 20
1049.036740226121
 30
0.0
  0
VERTEX
  5
290
330
284
100
AcDbEntity
  8
Make2D$可见线$普通线
100
AcDbVertex
100
AcDb2dVertex
 10
146.9624930208045
 20
1049.03835497123
 30
0.0
  0
VERTEX
  5
291
330
284
100
AcDbEntity
  8
Make2D$可见线$普通线
100
AcDbVertex
100
AcDb2dVertex
 10
146.9605326252196
 20
1049.039162407859
 30
0.0
  0
VERTEX
  5
292
330
284
100
AcDbEntity
  8
Make2D$可见线$普通线
100
AcDbVertex
100
AcDb2dVertex
 10
146.9586725503762
 20
1049.039969891086
 30
0.0
  0
VERTEX
  5
293
330
284
100
AcDbEntity
  8
Make2D$可见线$普通线
100
AcDbVertex
100
AcDb2dVertex
 10
146.9569128192381
 20
1049.040777423822
 30
0.0
  0
VERTEX
  5
294
330
284
100
AcDbEntity
  8
Make2D$可见线$普通线
100
AcDbVertex
100
AcDb2dVertex
 10
146.9552534547688
 20
1049.041585008977
 30
0.0
  0
VERTEX
  5
295
330
284
100
AcDbEntity
  8
Make2D$可见线$普通线
100
AcDbVertex
100
AcDb2dVertex
 10
146.9536944799322
 20
1049.042392649462
 30
0.0
  0
VERTEX
  5
296
330
284
100
AcDbEntity
  8
Make2D$可见线$普通线
100
AcDbVertex
100
AcDb2dVertex
 10
146.952235917692
 20
1049.043200348188
 30
0.0
  0
VERTEX
  5
297
330
284
100
AcDbEntity
  8
Make2D$可见线$普通线
100
AcDbVertex
100
AcDb2dVertex
 10
146.950877791012
 20
1049.044008108066
 30
0.0
  0
VERTEX
  5
298
330
284
100
AcDbEntity
  8
Make2D$可见线$普通线
100
AcDbVertex
100
AcDb2dVertex
 10
146.9502363981832
 20
1049.044412011846
 30
0.0
  0
VERTEX
  5
299
330
284
100
AcDbEntity
  8
Make2D$可见线$普通线
100
AcDbVertex
100
AcDb2dVertex
 10
146.9496201228558
 20
1049.044815932006
 30
0.0
  0
VERTEX
  5
29A
330
284
100
AcDbEntity
  8
Make2D$可见线$普通线
100
AcDbVertex
100
AcDb2dVertex
 10
146.9490289679003
 20
1049.045219868909
 30
0.0
  0
VERTEX
  5
29B
330
284
100
AcDbEntity
  8
Make2D$可见线$普通线
100
AcDbVertex
100
AcDb2dVertex
 10
146.9484629361872
 20
1049.045623822919
 30
0.0
  0
VERTEX
  5
29C
330
284
100
AcDbEntity
  8
Make2D$可见线$普通线
100
AcDbVertex
100
AcDb2dVertex
 10
146.9479220305869
 20
1049.046027794401
 30
0.0
  0
VERTEX
  5
29D
330
284
100
AcDbEntity
  8
Make2D$可见线$普通线
100
AcDbVertex
100
AcDb2dVertex
 10
146.9474062539699
 20
1049.046431783717
 30
0.0
  0
VERTEX
  5
29E
330
284
100
AcDbEntity
  8
Make2D$可见线$普通线
100
AcDbVertex
100
AcDb2dVertex
 10
146.9469156092067
 20
1049.046835791232
 30
0.0
  0
VERTEX
  5
29F
330
284
100
AcDbEntity
  8
Make2D$可见线$普通线
100
AcDbVertex
100
AcDb2dVertex
 10
146.9464500991677
 20
1049.04723981731
 30
0.0
  0
VERTEX
  5
2A0
330
284
100
AcDbEntity
  8
Make2D$可见线$普通线
100
AcDbVertex
100
AcDb2dVertex
 10
146.9460097267234
 20
1049.047643862314
 30
0.0
  0
VERTEX
  5
2A1
330
284
100
AcDbEntity
  8
Make2D$可见线$普通线
100
AcDbVertex
100
AcDb2dVertex
 10
146.9455944947443
 20
1049.048047926608
 30
0.0
  0
VERTEX
  5
2A2
330
284
100
AcDbEntity
  8
Make2D$可见线$普通线
100
AcDbVertex
100
AcDb2dVertex
 10
146.9452044061008
 20
1049.048452010557
 30
0.0
  0
VERTEX
  5
2A3
330
284
100
AcDbEntity
  8
Make2D$可见线$普通线
100
AcDbVertex
100
AcDb2dVertex
 10
146.9448394636634
 20
1049.048856114523
 30
0.0
  0
VERTEX
  5
2A4
330
284
100
AcDbEntity
  8
Make2D$可见线$普通线
100
AcDbVertex
100
AcDb2dVertex
 10
146.9446664231689
 20
1049.049058174127
 30
0.0
  0
VERTEX
  5
2A5
330
284
100
AcDbEntity
  8
Make2D$可见线$普通线
100
AcDbVertex
100
AcDb2dVertex
 10
146.9444996703025
 20
1049.049260238871
 30
0.0
  0
VERTEX
  5
2A6
330
284
100
AcDbEntity
  8
Make2D$可见线$普通线
100
AcDbVertex
100
AcDb2dVertex
 10
146.9443392054228
 20
1049.049462308802
 30
0.0
  0
VERTEX
  5
2A7
330
284
100
AcDbEntity
  8
Make2D$可见线$普通线
100
AcDbVertex
100
AcDb2dVertex
 10
146.9441850288887
 20
1049.049664383965
 30
0.0
  0
VERTEX
  5
2A8
330
284
100
AcDbEntity
  8
Make2D$可见线$普通线
100
AcDbVertex
100
AcDb2dVertex
 10
146.9440371410589
 20
1049.049866464406
 30
0.0
  0
VERTEX
  5
2A9
330
284
100
AcDbEntity
  8
Make2D$可见线$普通线
100
AcDbVertex
100
AcDb2dVertex
 10
146.9438955422923
 20
1049.050068550169
 30
0.0
  0
VERTEX
  5
2AA
330
284
100
AcDbEntity
  8
Make2D$可见线$普通线
100
AcDbVertex
100
AcDb2dVertex
 10
146.9437602329477
 20
1049.0502706413
 30
0.0
  0
VERTEX
  5
2AB
330
284
100
AcDbEntity
  8
Make2D$可见线$普通线
100
AcDbVertex
100
AcDb2dVertex
 10
146.9436312133839
 20
1049.050472737846
 30
0.0
  0
VERTEX
  5
2AC
330
284
100
AcDbEntity
  8
Make2D$可见线$普通线
100
AcDbVertex
100
AcDb2dVertex
 10
146.9435084839597
 20
1049.05067483985
 30
0.0
  0
VERTEX
  5
2AD
330
284
100
AcDbEntity
  8
Make2D$可见线$普通线
100
AcDbVertex
100
AcDb2dVertex
 10
146.943392045034
 20
1049.05087694736
 30
0.0
  0
VERTEX
  5
2AE
330
284
100
AcDbEntity
  8
Make2D$可见线$普通线
100
AcDbVertex
100
AcDb2dVertex
 10
146.9432818969654
 20
1049.051079060419
 30
0.0
  0
VERTEX
  5
2AF
330
284
100
AcDbEntity
  8
Make2D$可见线$普通线
100
AcDbVertex
100
AcDb2dVertex
 10
146.9431780401129
 20
1049.051281179075
 30
0.0
  0
VERTEX
  5
2B0
330
284
100
AcDbEntity
  8
Make2D$可见线$普通线
100
AcDbVertex
100
AcDb2dVertex
 10
146.9430804748353
 20
1049.051483303371
 30
0.0
  0
VERTEX
  5
2B1
330
284
100
AcDbEntity
  8
Make2D$可见线$普通线
100
AcDbVertex
100
AcDb2dVertex
 10
146.9429892014913
 20
1049.051685433355
 30
0.0
  0
VERTEX
  5
2B2
330
284
100
AcDbEntity
  8
Make2D$可见线$普通线
100
AcDbVertex
100
AcDb2dVertex
 10
146.9429042204397
 20
1049.05188756907
 30
0.0
  0
VERTEX
  5
2B3
330
284
100
AcDbEntity
  8
Make2D$可见线$普通线
100
AcDbVertex
100
AcDb2dVertex
 10
146.9428255320394
 20
1049.052089710563
 30
0.0
  0
VERTEX
  5
2B4
330
284
100
AcDbEntity
  8
Make2D$可见线$普通线
100
AcDbVertex
100
AcDb2dVertex
 10
146.9427531366492
 20
1049.05229185788
 30
0.0
  0
VERTEX
  5
2B5
330
284
100
AcDbEntity
  8
Make2D$可见线$普通线
100
AcDbVertex
100
AcDb2dVertex
 10
146.9426870346278
 20
1049.052494011065
 30
0.0
  0
VERTEX
  5
2B6
330
284
100
AcDbEntity
  8
Make2D$可见线$普通线
100
AcDbVertex
100
AcDb2dVertex
 10
146.9426272263341
 20
1049.052696170164
 30
0.0
  0
VERTEX
  5
2B7
330
284
100
AcDbEntity
  8
Make2D$可见线$普通线
100
AcDbVertex
100
AcDb2dVertex
 10
146.9425737121269
 20
1049.052898335223
 30
0.0
  0
VERTEX
  5
2B8
330
284
100
AcDbEntity
  8
Make2D$可见线$普通线
100
AcDbVertex
100
AcDb2dVertex
 10
146.9425264923651
 20
1049.053100506287
 30
0.0
  0
VERTEX
  5
2B9
330
284
100
AcDbEntity
  8
Make2D$可见线$普通线
100
AcDbVertex
100
AcDb2dVertex
 10
146.9424855674073
 20
1049.053302683401
 30
0.0
  0
VERTEX
  5
2BA
330
284
100
AcDbEntity
  8
Make2D$可见线$普通线
100
AcDbVertex
100
AcDb2dVertex
 10
146.9424509376125
 20
1049.053504866612
 30
0.0
  0
VERTEX
  5
2BB
330
284
100
AcDbEntity
  8
Make2D$可见线$普通线
100
AcDbVertex
100
AcDb2dVertex
 10
146.9424226033394
 20
1049.053707055964
 30
0.0
  0
VERTEX
  5
2BC
330
284
100
AcDbEntity
  8
Make2D$可见线$普通线
100
AcDbVertex
100
AcDb2dVertex
 10
146.9424005649469
 20
1049.053909251503
 30
0.0
  0
VERTEX
  5
2BD
330
284
100
AcDbEntity
  8
Make2D$可见线$普通线
100
AcDbVertex
100
AcDb2dVertex
 10
146.9423848227937
 20
1049.054111453275
 30
0.0
  0
VERTEX
  5
2BE
330
284
100
AcDbEntity
  8
Make2D$可见线$普通线
100
AcDbVertex
100
AcDb2dVertex
 10
146.9423753772386
 20
1049.054313661324
 30
0.0
  0
VERTEX
  5
2BF
330
284
100
AcDbEntity
  8
Make2D$可见线$普通线
100
AcDbVertex
100
AcDb2dVertex
 10
146.9423722286406
 20
1049.054515875697
 30
0.0
  0
VERTEX
  5
2C0
330
284
100
AcDbEntity
  8
Make2D$可见线$普通线
100
AcDbVertex
100
AcDb2dVertex
 10
146.9423751898702
 20
1049.054711981732
 30
0.0
  0
VERTEX
  5
2C1
330
284
100
AcDbEntity
  8
Make2D$可见线$普通线
100
AcDbVertex
100
AcDb2dVertex
 10
146.9423840735062
 20
1049.054908086961
 30
0.0
  0
VERTEX
  5
2C2
330
284
100
AcDbEntity
  8
Make2D$可见线$普通线
100
AcDbVertex
100
AcDb2dVertex
 10
146.9423988794688
 20
1049.055104191355
 30
0.0
  0
VERTEX
  5
2C3
330
284
100
AcDbEntity
  8
Make2D$可见线$普通线
100
AcDbVertex
100
AcDb2dVertex
 10
146.9424196076785
 20
1049.055300294887
 30
0.0
  0
VERTEX
  5
2C4
330
284
100
AcDbEntity
  8
Make2D$可见线$普通线
100
AcDbVertex
100
AcDb2dVertex
 10
146.9424462580556
 20
1049.055496397527
 30
0.0
  0
VERTEX
  5
2C5
330
284
100
AcDbEntity
  8
Make2D$可见线$普通线
100
AcDbVertex
100
AcDb2dVertex
 10
146.9424788305204
 20
1049.055692499248
 30
0.0
  0
VERTEX
  5
2C6
330
284
100
AcDbEntity
  8
Make2D$可见线$普通线
100
AcDbVertex
100
AcDb2dVertex
 10
146.9425173249935
 20
1049.055888600023
 30
0.0
  0
VERTEX
  5
2C7
330
284
100
AcDbEntity
  8
Make2D$可见线$普通线
100
AcDbVertex
100
AcDb2dVertex
 10
146.9425617413951
 20
1049.056084699822
 30
0.0
  0
VERTEX
  5
2C8
330
284
100
AcDbEntity
  8
Make2D$可见线$普通线
100
AcDbVertex
100
AcDb2dVertex
 10
146.9426120796457
 20
1049.056280798618
 30
0.0
  0
VERTEX
  5
2C9
330
284
100
AcDbEntity
  8
Make2D$可见线$普通线
100
AcDbVertex
100
AcDb2dVertex
 10
146.9426683396655
 20
1049.056476896382
 30
0.0
  0
VERTEX
  5
2CA
330
284
100
AcDbEntity
  8
Make2D$可见线$普通线
100
AcDbVertex
100
AcDb2dVertex
 10
146.9427305213751
 20
1049.056672993087
 30
0.0
  0
VERTEX
  5
2CB
330
284
100
AcDbEntity
  8
Make2D$可见线$普通线
100
AcDbVertex
100
AcDb2dVertex
 10
146.9427986246947
 20
1049.056869088704
 30
0.0
  0
VERTEX
  5
2CC
330
284
100
AcDbEntity
  8
Make2D$可见线$普通线
100
AcDbVertex
100
AcDb2dVertex
 10
146.9428726495448
 20
1049.057065183206
 30
0.0
  0
VERTEX
  5
2CD
330
284
100
AcDbEntity
  8
Make2D$可见线$普通线
100
AcDbVertex
100
AcDb2dVertex
 10
146.9429525958458
 20
1049.057261276564
 30
0.0
  0
VERTEX
  5
2CE
330
284
100
AcDbEntity
  8
Make2D$可见线$普通线
100
AcDbVertex
100
AcDb2dVertex
 10
146.9430384635179
 20
1049.05745736875
 30
0.0
  0
VERTEX
  5
2CF
330
284
100
AcDbEntity
  8
Make2D$可见线$普通线
100
AcDbVertex
100
AcDb2dVertex
 10
146.9431302524816
 20
1049.057653459736
 30
0.0
  0
VERTEX
  5
2D0
330
284
100
AcDbEntity
  8
Make2D$可见线$普通线
100
AcDbVertex
100
AcDb2dVertex
 10
146.9432279626573
 20
1049.057849549494
 30
0.0
  0
VERTEX
  5
2D1
330
284
100
AcDbEntity
  8
Make2D$可见线$普通线
100
AcDbVertex
100
AcDb2dVertex
 10
146.9433315939654
 20
1049.058045637996
 30
0.0
  0
VERTEX
  5
2D2
330
284
100
AcDbEntity
  8
Make2D$可见线$普通线
100
AcDbVertex
100
AcDb2dVertex
 10
146.9434411463262
 20
1049.058241725214
 30
0.0
  0
VERTEX
  5
2D3
330
284
100
AcDbEntity
  8
Make2D$可见线$普通线
100
AcDbVertex
100
AcDb2dVertex
 10
146.9435566196601
 20
1049.058437811119
 30
0.0
  0
VERTEX
  5
2D4
330
284
100
AcDbEntity
  8
Make2D$可见线$普通线
100
AcDbVertex
100
AcDb2dVertex
 10
146.9436780138875
 20
1049.058633895684
 30
0.0
  0
VERTEX
  5
2D5
330
284
100
AcDbEntity
  8
Make2D$可见线$普通线
100
AcDbVertex
100
AcDb2dVertex
 10
146.9438053289288
 20
1049.05882997888
 30
0.0
  0
VERTEX
  5
2D6
330
284
100
AcDbEntity
  8
Make2D$可见线$普通线
100
AcDbVertex
100
AcDb2dVertex
 10
146.9439385647043
 20
1049.05902606068
 30
0.0
  0
VERTEX
  5
2D7
330
284
100
AcDbEntity
  8
Make2D$可见线$普通线
100
AcDbVertex
100
AcDb2dVertex
 10
146.9440777211345
 20
1049.059222141055
 30
0.0
  0
VERTEX
  5
2D8
330
284
100
AcDbEntity
  8
Make2D$可见线$普通线
100
AcDbVertex
100
AcDb2dVertex
 10
146.9442227981397
 20
1049.059418219977
 30
0.0
  0
VERTEX
  5
2D9
330
284
100
AcDbEntity
  8
Make2D$可见线$普通线
100
AcDbVertex
100
AcDb2dVertex
 10
146.9443737956402
 20
1049.059614297419
 30
0.0
  0
VERTEX
  5
2DA
330
284
100
AcDbEntity
  8
Make2D$可见线$普通线
100
AcDbVertex
100
AcDb2dVertex
 10
146.9445307135566
 20
1049.059810373351
 30
0.0
  0
VERTEX
  5
2DB
330
284
100
AcDbEntity
  8
Make2D$可见线$普通线
100
AcDbVertex
100
AcDb2dVertex
 10
146.9446935518091
 20
1049.060006447747
 30
0.0
  0
VERTEX
  5
2DC
330
284
100
AcDbEntity
  8
Make2D$可见线$普通线
100
AcDbVertex
100
AcDb2dVertex
 10
146.945036989004
 20
1049.060398591814
 30
0.0
  0
VERTEX
  5
2DD
330
284
100
AcDbEntity
  8
Make2D$可见线$普通线
100
AcDbVertex
100
AcDb2dVertex
 10
146.9454041065881
 20
1049.060790729395
 30
0.0
  0
VERTEX
  5
2DE
330
284
100
AcDbEntity
  8
Make2D$可见线$普通线
100
AcDbVertex
100
AcDb2dVertex
 10
146.9457949039243
 20
1049.061182860267
 30
0.0
  0
VERTEX
  5
2DF
330
284
100
AcDbEntity
  8
Make2D$可见线$普通线
100
AcDbVertex
100
AcDb2dVertex
 10
146.9462093803758
 20
1049.061574984203
 30
0.0
  0
VERTEX
  5
2E0
330
284
100
AcDbEntity
  8
Make2D$可见线$普通线
100
AcDbVertex
100
AcDb2dVertex
 10
146.9466475353056
 20
1049.06196710098
 30
0.0
  0
VERTEX
  5
2E1
330
284
100
AcDbEntity
  8
Make2D$可见线$普通线
100
AcDbVertex
100
AcDb2dVertex
 10
146.9471093680767
 20
1049.062359210372
 30
0.0
  0
VERTEX
  5
2E2
330
284
100
AcDbEntity
  8
Make2D$可见线$普通线
100
AcDbVertex
100
AcDb2dVertex
 10
146.9475948780521
 20
1049.062751312155
 30
0.0
  0
VERTEX
  5
2E3
330
284
100
AcDbEntity
  8
Make2D$可见线$普通线
100
AcDbVertex
100
AcDb2dVertex
 10
146.9481040645948
 20
1049.063143406104
 30
0.0
  0
VERTEX
  5
2E4
330
284
100
AcDbEntity
  8
Make2D$可见线$普通线
100
AcDbVertex
100
AcDb2dVertex
 10
146.948636927068
 20
1049.063535491995
 30
0.0
  0
VERTEX
  5
2E5
330
284
100
AcDbEntity
  8
Make2D$可见线$普通线
100
AcDbVertex
100
AcDb2dVertex
 10
146.9491934648346
 20
1049.063927569601
 30
0.0
  0
VERTEX
  5
2E6
330
284
100
AcDbEntity
  8
Make2D$可见线$普通线
100
AcDbVertex
100
AcDb2dVertex
 10
146.9497736772577
 20
1049.0643196387
 30
0.0
  0
VERTEX
  5
2E7
330
284
100
AcDbEntity
  8
Make2D$可见线$普通线
100
AcDbVertex
100
AcDb2dVertex
 10
146.9503775637004
 20
1049.064711699065
 30
0.0
  0
VERTEX
  5
2E8
330
284
100
AcDbEntity
  8
Make2D$可见线$普通线
100
AcDbVertex
100
AcDb2dVertex
 10
146.9516563560963
 20
1049.065495792698
 30
0.0
  0
VERTEX
  5
2E9
330
284
100
AcDbEntity
  8
Make2D$可见线$普通线
100
AcDbVertex
100
AcDb2dVertex
 10
146.9530298369268
 20
1049.066279848702
 30
0.0
  0
VERTEX
  5
2EA
330
284
100
AcDbEntity
  8
Make2D$可见线$普通线
100
AcDbVertex
100
AcDb2dVertex
 10
146.9544980010961
 20
1049.067063865278
 30
0.0
 42
-0.0581314772550322
  0
VERTEX
  5
2EB
330
284
100
AcDbEntity
  8
Make2D$可见线$普通线
100
AcDbVertex
100
AcDb2dVertex
 10
147.3934250135015
 20
1049.13128342155
 30
0.0
  0
VERTEX
  5
2EC
330
284
100
AcDbEntity
  8
Make2D$可见线$普通线
100
AcDbVertex
100
AcDb2dVertex
 10
148.437938238148
 20
1049.195495448839
 30
0.0
  0
VERTEX
  5
2ED
330
284
100
AcDbEntity
  8
Make2D$可见线$普通线
100
AcDbVertex
100
AcDb2dVertex
 10
150.0346298096283
 20
1049.26002772424
 30
0.0
  0
VERTEX
  5
2EE
330
284
100
AcDbEntity
  8
Make2D$可见线$普通线
100
AcDbVertex
100
AcDb2dVertex
 10
154.4232652398393
 20
1049.388150847435
 30
0.0
  0
VERTEX
  5
2EF
330
284
100
AcDbEntity
  8
Make2D$可见线$普通线
100
AcDbVertex
100
AcDb2dVertex
 10
157.5
 20
1049.465517572464
 30
0.0
  0
VERTEX
  5
2F0
330
284
100
AcDbEntity
  8
Make2D$可见线$普通线
100
AcDbVertex
100
AcDb2dVertex
 10
162.0025179487374
 20
1049.580796223848
 30
0.0
  0
VERTEX
  5
2F1
330
284
100
AcDbEntity
  8
Make2D$可见线$普通线
100
AcDbVertex
100
AcDb2dVertex
 10
164.9653701903717
 20
1049.671005462023
 30
0.0
  0
VERTEX
  5
2F2
330
284
100
AcDbEntity
  8
Make2D$可见线$普通线
100
AcDbVertex
100
AcDb2dVertex
 10
165.9724519536338
 20
1049.70923179969
 30
0.0
  0
VERTEX
  5
2F3
330
284
100
AcDbEntity
  8
Make2D$可见线$普通线
100
AcDbVertex
100
AcDb2dVertex
 10
167.4228145007486
 20
1049.783971550255
 30
0.0
  0
VERTEX
  5
2F4
330
284
100
AcDbEntity
  8
Make2D$可见线$普通线
100
AcDbVertex
100
AcDb2dVertex
 10
167.5960891054061
 20
1049.798182664544
 30
0.0
  0
VERTEX
  5
2F5
330
284
100
AcDbEntity
  8
Make2D$可见线$普通线
100
AcDbVertex
100
AcDb2dVertex
 10
167.7690212115452
 20
1049.816086045644
 30
0.0
  0
VERTEX
  5
2F6
330
284
100
AcDbEntity
  8
Make2D$可见线$普通线
100
AcDbVertex
100
AcDb2dVertex
 10
167.9414929733286
 20
1049.837668221765
 30
0.0
 42
0.1868687718688695
  0
VERTEX
  5
2F7
330
284
100
AcDbEntity
  8
Make2D$可见线$普通线
100
AcDbVertex
100
AcDb2dVertex
 10
168.0576277713594
 20
1049.876497244138
 30
0.0
  0
VERTEX
  5
2F8
330
284
100
AcDbEntity
  8
Make2D$可见线$普通线
100
AcDbVertex
100
AcDb2dVertex
 10
168.0576277713594
 20
1050.52689498885
 30
0.0
  0
SEQEND
  5
2F9
330
284
100
AcDbEntity
  8
Make2D$可见线$普通线
  0
POLYLINE
  5
2FA
330
1F
100
AcDbEntity
  8
Make2D$可见线$普通线
100
AcDb2dPolyline
 66
     1
 10
0.0
 20
0.0
 30
0.0
  0
VERTEX
  5
2FB
330
2FA
100
AcDbEntity
  8
Make2D$可见线$普通线
100
AcDbVertex
100
AcDb2dVertex
 10
146.9515689606356
 20
1047.667337913553
 30
0.0
  0
VERTEX
  5
2FC
330
2FA
100
AcDbEntity
  8
Make2D$可见线$普通线
100
AcDbVertex
100
AcDb2dVertex
 10
151.6330739036687
 20
1047.667337913553
 30
0.0
  0
VERTEX
  5
2FD
330
2FA
100
AcDbEntity
  8
Make2D$可见线$普通线
100
AcDbVertex
100
AcDb2dVertex
 10
157.5
 20
1047.821497252529
 30
0.0
  0
VERTEX
  5
2FE
330
2FA
100
AcDbEntity
  8
Make2D$可见线$普通线
100
AcDbVertex
100
AcDb2dVertex
 10
163.3549391924177
 20
1047.975329709577
 30
0.0
  0
VERTEX
  5
2FF
330
2FA
100
AcDbEntity
  8
Make2D$可见线$普通线
100
AcDbVertex
100
AcDb2dVertex
 10
165.3144912006425
 20
1048.039563869472
 30
0.0
  0
VERTEX
  5
300
330
2FA
100
AcDbEntity
  8
Make2D$可见线$普通线
100
AcDbVertex
100
AcDb2dVertex
 10
166.8052058574109
 20
1048.103783425744
 30
0.0
  0
VERTEX
  5
301
330
2FA
100
AcDbEntity
  8
Make2D$可见线$普通线
100
AcDbVertex
100
AcDb2dVertex
 10
167.272038204281
 20
1048.13068951601
 30
0.0
  0
VERTEX
  5
302
330
2FA
100
AcDbEntity
  8
Make2D$可见线$普通线
100
AcDbVertex
100
AcDb2dVertex
 10
167.7381547614214
 20
1048.167995453033
 30
0.0
  0
VERTEX
  5
303
330
2FA
100
AcDbEntity
  8
Make2D$可见线$普通线
100
AcDbVertex
100
AcDb2dVertex
 10
167.8770117220336
 20
1048.184061570407
 30
0.0
  0
VERTEX
  5
304
330
2FA
100
AcDbEntity
  8
Make2D$可见线$普通线
100
AcDbVertex
100
AcDb2dVertex
 10
167.9317633582757
 20
1048.192092585045
 30
0.0
  0
VERTEX
  5
305
330
2FA
100
AcDbEntity
  8
Make2D$可见线$普通线
100
AcDbVertex
100
AcDb2dVertex
 10
167.9554576174613
 20
1048.196109191223
 30
0.0
  0
VERTEX
  5
306
330
2FA
100
AcDbEntity
  8
Make2D$可见线$普通线
100
AcDbVertex
100
AcDb2dVertex
 10
167.9766928000539
 20
1048.20012714326
 30
0.0
  0
VERTEX
  5
307
330
2FA
100
AcDbEntity
  8
Make2D$可见线$普通线
100
AcDbVertex
100
AcDb2dVertex
 10
167.9954653780766
 20
1048.204146901118
 30
0.0
  0
VERTEX
  5
308
330
2FA
100
AcDbEntity
  8
Make2D$可见线$普通线
100
AcDbVertex
100
AcDb2dVertex
 10
168.0039270878814
 20
1048.206157600969
 30
0.0
  0
VERTEX
  5
309
330
2FA
100
AcDbEntity
  8
Make2D$可见线$普通线
100
AcDbVertex
100
AcDb2dVertex
 10
168.0117718235524
 20
1048.208168924762
 30
0.0
  0
VERTEX
  5
30A
330
2FA
100
AcDbEntity
  8
Make2D$可见线$普通线
100
AcDbVertex
100
AcDb2dVertex
 10
168.0189991440923
 20
1048.210180929992
 30
0.0
  0
VERTEX
  5
30B
330
2FA
100
AcDbEntity
  8
Make2D$可见线$普通线
100
AcDbVertex
100
AcDb2dVertex
 10
168.0256086085041
 20
1048.212193674154
 30
0.0
  0
VERTEX
  5
30C
330
2FA
100
AcDbEntity
  8
Make2D$可见线$普通线
100
AcDbVertex
100
AcDb2dVertex
 10
168.0315997757907
 20
1048.214207214744
 30
0.0
  0
VERTEX
  5
30D
330
2FA
100
AcDbEntity
  8
Make2D$可见线$普通线
100
AcDbVertex
100
AcDb2dVertex
 10
168.0343633602004
 20
1048.215214301667
 30
0.0
  0
VERTEX
  5
30E
330
2FA
100
AcDbEntity
  8
Make2D$可见线$普通线
100
AcDbVertex
100
AcDb2dVertex
 10
168.0369722049549
 20
1048.216221609258
 30
0.0
  0
VERTEX
  5
30F
330
2FA
100
AcDbEntity
  8
Make2D$可见线$普通线
100
AcDbVertex
100
AcDb2dVertex
 10
168.0394262549295
 20
1048.217229144704
 30
0.0
  0
VERTEX
  5
310
330
2FA
100
AcDbEntity
  8
Make2D$可见线$普通线
100
AcDbVertex
100
AcDb2dVertex
 10
168.0417254549997
 20
1048.218236915191
 30
0.0
  0
VERTEX
  5
311
330
2FA
100
AcDbEntity
  8
Make2D$可见线$普通线
100
AcDbVertex
100
AcDb2dVertex
 10
168.0438697500406
 20
1048.219244927907
 30
0.0
  0
VERTEX
  5
312
330
2FA
100
AcDbEntity
  8
Make2D$可见线$普通线
100
AcDbVertex
100
AcDb2dVertex
 10
168.0458590849278
 20
1048.220253190038
 30
0.0
  0
VERTEX
  5
313
330
2FA
100
AcDbEntity
  8
Make2D$可见线$普通线
100
AcDbVertex
100
AcDb2dVertex
 10
168.0467956250872
 20
1048.220757416881
 30
0.0
  0
VERTEX
  5
314
330
2FA
100
AcDbEntity
  8
Make2D$可见线$普通线
100
AcDbVertex
100
AcDb2dVertex
 10
168.0476934045365
 20
1048.221261708772
 30
0.0
  0
VERTEX
  5
315
330
2FA
100
AcDbEntity
  8
Make2D$可见线$普通线
100
AcDbVertex
100
AcDb2dVertex
 10
168.048552416385
 20
1048.221766066611
 30
0.0
  0
VERTEX
  5
316
330
2FA
100
AcDbEntity
  8
Make2D$可见线$普通线
100
AcDbVertex
100
AcDb2dVertex
 10
168.0493726537422
 20
1048.222270491296
 30
0.0
  0
VERTEX
  5
317
330
2FA
100
AcDbEntity
  8
Make2D$可见线$普通线
100
AcDbVertex
100
AcDb2dVertex
 10
168.0501541097174
 20
1048.222774983724
 30
0.0
  0
VERTEX
  5
318
330
2FA
100
AcDbEntity
  8
Make2D$可见线$普通线
100
AcDbVertex
100
AcDb2dVertex
 10
168.0508967774201
 20
1048.223279544795
 30
0.0
  0
VERTEX
  5
319
330
2FA
100
AcDbEntity
  8
Make2D$可见线$普通线
100
AcDbVertex
100
AcDb2dVertex
 10
168.0516006499597
 20
1048.223784175407
 30
0.0
  0
VERTEX
  5
31A
330
2FA
100
AcDbEntity
  8
Make2D$可见线$普通线
100
AcDbVertex
100
AcDb2dVertex
 10
168.0522657204457
 20
1048.224288876458
 30
0.0
  0
VERTEX
  5
31B
330
2FA
100
AcDbEntity
  8
Make2D$可见线$普通线
100
AcDbVertex
100
AcDb2dVertex
 10
168.0528919819874
 20
1048.224793648847
 30
0.0
  0
VERTEX
  5
31C
330
2FA
100
AcDbEntity
  8
Make2D$可见线$普通线
100
AcDbVertex
100
AcDb2dVertex
 10
168.0534794276943
 20
1048.225298493471
 30
0.0
  0
VERTEX
  5
31D
330
2FA
100
AcDbEntity
  8
Make2D$可见线$普通线
100
AcDbVertex
100
AcDb2dVertex
 10
168.0537585924563
 20
1048.225550943152
 30
0.0
  0
VERTEX
  5
31E
330
2FA
100
AcDbEntity
  8
Make2D$可见线$普通线
100
AcDbVertex
100
AcDb2dVertex
 10
168.0540280506758
 20
1048.22580341123
 30
0.0
  0
VERTEX
  5
31F
330
2FA
100
AcDbEntity
  8
Make2D$可见线$普通线
100
AcDbVertex
100
AcDb2dVertex
 10
168.0542878014912
 20
1048.226055897816
 30
0.0
  0
VERTEX
  5
320
330
2FA
100
AcDbEntity
  8
Make2D$可见线$普通线
100
AcDbVertex
100
AcDb2dVertex
 10
168.0545378440412
 20
1048.226308403021
 30
0.0
  0
VERTEX
  5
321
330
2FA
100
AcDbEntity
  8
Make2D$可见线$普通线
100
AcDbVertex
100
AcDb2dVertex
 10
168.0547781774646
 20
1048.22656092696
 30
0.0
  0
VERTEX
  5
322
330
2FA
100
AcDbEntity
  8
Make2D$可见线$普通线
100
AcDbVertex
100
AcDb2dVertex
 10
168.0550088009001
 20
1048.226813469744
 30
0.0
  0
VERTEX
  5
323
330
2FA
100
AcDbEntity
  8
Make2D$可见线$普通线
100
AcDbVertex
100
AcDb2dVertex
 10
168.0552297134863
 20
1048.227066031485
 30
0.0
  0
VERTEX
  5
324
330
2FA
100
AcDbEntity
  8
Make2D$可见线$普通线
100
AcDbVertex
100
AcDb2dVertex
 10
168.0554409143619
 20
1048.227318612296
 30
0.0
  0
VERTEX
  5
325
330
2FA
100
AcDbEntity
  8
Make2D$可见线$普通线
100
AcDbVertex
100
AcDb2dVertex
 10
168.0556424026656
 20
1048.227571212288
 30
0.0
  0
VERTEX
  5
326
330
2FA
100
AcDbEntity
  8
Make2D$可见线$普通线
100
AcDbVertex
100
AcDb2dVertex
 10
168.0558341775359
 20
1048.227823831575
 30
0.0
  0
VERTEX
  5
327
330
2FA
100
AcDbEntity
  8
Make2D$可见线$普通线
100
AcDbVertex
100
AcDb2dVertex
 10
168.0560162381117
 20
1048.228076470269
 30
0.0
  0
VERTEX
  5
328
330
2FA
100
AcDbEntity
  8
Make2D$可见线$普通线
100
AcDbVertex
100
AcDb2dVertex
 10
168.0561885835317
 20
1048.228329128481
 30
0.0
  0
VERTEX
  5
329
330
2FA
100
AcDbEntity
  8
Make2D$可见线$普通线
100
AcDbVertex
100
AcDb2dVertex
 10
168.0563512129343
 20
1048.228581806324
 30
0.0
  0
VERTEX
  5
32A
330
2FA
100
AcDbEntity
  8
Make2D$可见线$普通线
100
AcDbVertex
100
AcDb2dVertex
 10
168.0565041254585
 20
1048.228834503911
 30
0.0
  0
VERTEX
  5
32B
330
2FA
100
AcDbEntity
  8
Make2D$可见线$普通线
100
AcDbVertex
100
AcDb2dVertex
 10
168.0566473202428
 20
1048.229087221353
 30
0.0
  0
VERTEX
  5
32C
330
2FA
100
AcDbEntity
  8
Make2D$可见线$普通线
100
AcDbVertex
100
AcDb2dVertex
 10
168.0567807964259
 20
1048.229339958764
 30
0.0
  0
VERTEX
  5
32D
330
2FA
100
AcDbEntity
  8
Make2D$可见线$普通线
100
AcDbVertex
100
AcDb2dVertex
 10
168.0569045531465
 20
1048.229592716255
 30
0.0
  0
VERTEX
  5
32E
330
2FA
100
AcDbEntity
  8
Make2D$可见线$普通线
100
AcDbVertex
100
AcDb2dVertex
 10
168.0570185895432
 20
1048.229845493938
 30
0.0
  0
VERTEX
  5
32F
330
2FA
100
AcDbEntity
  8
Make2D$可见线$普通线
100
AcDbVertex
100
AcDb2dVertex
 10
168.0571229047548
 20
1048.230098291926
 30
0.0
  0
VERTEX
  5
330
330
2FA
100
AcDbEntity
  8
Make2D$可见线$普通线
100
AcDbVertex
100
AcDb2dVertex
 10
168.0572174979199
 20
1048.230351110332
 30
0.0
  0
VERTEX
  5
331
330
2FA
100
AcDbEntity
  8
Make2D$可见线$普通线
100
AcDbVertex
100
AcDb2dVertex
 10
168.0573023681772
 20
1048.230603949266
 30
0.0
  0
VERTEX
  5
332
330
2FA
100
AcDbEntity
  8
Make2D$可见线$普通线
100
AcDbVertex
100
AcDb2dVertex
 10
168.0573775146654
 20
1048.230856808843
 30
0.0
  0
VERTEX
  5
333
330
2FA
100
AcDbEntity
  8
Make2D$可见线$普通线
100
AcDbVertex
100
AcDb2dVertex
 10
168.0574429365231
 20
1048.231109689174
 30
0.0
  0
VERTEX
  5
334
330
2FA
100
AcDbEntity
  8
Make2D$可见线$普通线
100
AcDbVertex
100
AcDb2dVertex
 10
168.0574986328891
 20
1048.231362590371
 30
0.0
  0
VERTEX
  5
335
330
2FA
100
AcDbEntity
  8
Make2D$可见线$普通线
100
AcDbVertex
100
AcDb2dVertex
 10
168.0575446029019
 20
1048.231615512547
 30
0.0
  0
VERTEX
  5
336
330
2FA
100
AcDbEntity
  8
Make2D$可见线$普通线
100
AcDbVertex
100
AcDb2dVertex
 10
168.0575808457004
 20
1048.231868455814
 30
0.0
  0
VERTEX
  5
337
330
2FA
100
AcDbEntity
  8
Make2D$可见线$普通线
100
AcDbVertex
100
AcDb2dVertex
 10
168.0576073604231
 20
1048.232121420284
 30
0.0
  0
VERTEX
  5
338
330
2FA
100
AcDbEntity
  8
Make2D$可见线$普通线
100
AcDbVertex
100
AcDb2dVertex
 10
168.0576241462088
 20
1048.23237440607
 30
0.0
  0
VERTEX
  5
339
330
2FA
100
AcDbEntity
  8
Make2D$可见线$普通线
100
AcDbVertex
100
AcDb2dVertex
 10
168.0576277713594
 20
1048.873356590664
 30
0.0
  0
SEQEND
  5
33A
330
2FA
100
AcDbEntity
  8
Make2D$可见线$普通线
  0
POLYLINE
  5
33B
330
1F
100
AcDbEntity
  8
Make2D$可见线$普通线
100
AcDb2dPolyline
 66
     1
 10
0.0
 20
0.0
 30
0.0
  0
VERTEX
  5
33C
330
33B
100
AcDbEntity
  8
Make2D$可见线$普通线
100
AcDbVertex
100
AcDb2dVertex
 10
267.5
 20
1070.532511858362
 30
0.0
 42
-0.4142327722609498
  0
VERTEX
  5
33D
330
33B
100
AcDbEntity
  8
Make2D$可见线$普通线
100
AcDbVertex
100
AcDb2dVertex
 10
265.5
 20
1068.532522725131
 30
0.0
  0
VERTEX
  5
33E
330
33B
100
AcDbEntity
  8
Make2D$可见线$普通线
100
AcDbVertex
100
AcDb2dVertex
 10
262.5
 20
1068.532577058933
 30
0.0
  0
VERTEX
  5
33F
330
33B
100
AcDbEntity
  8
Make2D$可见线$普通线
100
AcDbVertex
100
AcDb2dVertex
 10
175.7845860941362
 20
1068.532577058933
 30
0.0
  0
SEQEND
  5
340
330
33B
100
AcDbEntity
  8
Make2D$可见线$普通线
  0
POLYLINE
  5
341
330
1F
100
AcDbEntity
  8
Make2D$可见线$普通线
100
AcDb2dPolyline
 66
     1
 10
0.0
 20
0.0
 30
0.0
  0
VERTEX
  5
342
330
341
100
AcDbEntity
  8
Make2D$可见线$普通线
100
AcDbVertex
100
AcDb2dVertex
 10
267.5
 20
1112.532577058933
 30
0.0
  0
VERTEX
  5
343
330
341
100
AcDbEntity
  8
Make2D$可见线$普通线
100
AcDbVertex
100
AcDb2dVertex
 10
268.5
 20
1112.532577058935
 30
0.0
  0
VERTEX
  5
344
330
341
100
AcDbEntity
  8
Make2D$可见线$普通线
100
AcDbVertex
100
AcDb2dVertex
 10
268.4999999999999
 20
1070.537750624864
 30
0.0
  0
SEQEND
  5
345
330
341
100
AcDbEntity
  8
Make2D$可见线$普通线
  0
POLYLINE
  5
347
330
1F
100
AcDbEntity
  8
E9127
100
AcDb2dPolyline
 66
     1
 10
0.0
 20
0.0
 30
0.0
  0
VERTEX
  5
348
330
347
100
AcDbEntity
  8
E9127
100
AcDbVertex
100
AcDb2dVertex
 10
113.4999999999999
 20
1068.532577058933
 30
0.0
  0
VERTEX
  5
349
330
347
100
AcDbEntity
  8
E9127
100
AcDbVertex
100
AcDb2dVertex
 10
113.4999999999999
 20
1066.032577058933
 30
0.0
  0
VERTEX
  5
34A
330
347
100
AcDbEntity
  8
E9127
100
AcDbVertex
100
AcDb2dVertex
 10
113.4951171874999
 20
1065.724959871433
 30
0.0
  0
VERTEX
  5
34B
330
347
100
AcDbEntity
  8
E9127
100
AcDbVertex
100
AcDb2dVertex
 10
113.4804687499999
 20
1065.427108308933
 30
0.0
  0
VERTEX
  5
34C
330
347
100
AcDbEntity
  8
E9127
100
AcDbVertex
100
AcDb2dVertex
 10
113.4694824218749
 20
1065.281844637058
 30
0.0
  0
VERTEX
  5
34D
330
347
100
AcDbEntity
  8
E9127
100
AcDbVertex
100
AcDb2dVertex
 10
113.4560546874999
 20
1065.139022371433
 30
0.0
  0
VERTEX
  5
34E
330
347
100
AcDbEntity
  8
E9127
100
AcDbVertex
100
AcDb2dVertex
 10
113.4401855468749
 20
1064.998641512058
 30
0.0
  0
VERTEX
  5
34F
330
347
100
AcDbEntity
  8
E9127
100
AcDbVertex
100
AcDb2dVertex
 10
113.4218749999999
 20
1064.860702058933
 30
0.0
  0
VERTEX
  5
350
330
347
100
AcDbEntity
  8
E9127
100
AcDbVertex
100
AcDb2dVertex
 10
113.4011230468749
 20
1064.725204012058
 30
0.0
  0
VERTEX
  5
351
330
347
100
AcDbEntity
  8
E9127
100
AcDbVertex
100
AcDb2dVertex
 10
113.3779296874999
 20
1064.592147371433
 30
0.0
  0
VERTEX
  5
352
330
347
100
AcDbEntity
  8
E9127
100
AcDbVertex
100
AcDb2dVertex
 10
113.3522949218749
 20
1064.461532137058
 30
0.0
  0
VERTEX
  5
353
330
347
100
AcDbEntity
  8
E9127
100
AcDbVertex
100
AcDb2dVertex
 10
113.3242187499999
 20
1064.333358308933
 30
0.0
  0
VERTEX
  5
354
330
347
100
AcDbEntity
  8
E9127
100
AcDbVertex
100
AcDb2dVertex
 10
113.2937011718749
 20
1064.207625887058
 30
0.0
  0
VERTEX
  5
355
330
347
100
AcDbEntity
  8
E9127
100
AcDbVertex
100
AcDb2dVertex
 10
113.2607421874999
 20
1064.084334871433
 30
0.0
  0
VERTEX
  5
356
330
347
100
AcDbEntity
  8
E9127
100
AcDbVertex
100
AcDb2dVertex
 10
113.2253417968749
 20
1063.963485262058
 30
0.0
  0
VERTEX
  5
357
330
347
100
AcDbEntity
  8
E9127
100
AcDbVertex
100
AcDb2dVertex
 10
113.1874999999999
 20
1063.845077058933
 30
0.0
  0
VERTEX
  5
358
330
347
100
AcDbEntity
  8
E9127
100
AcDbVertex
100
AcDb2dVertex
 10
113.1472167968749
 20
1063.729110262058
 30
0.0
  0
VERTEX
  5
359
330
347
100
AcDbEntity
  8
E9127
100
AcDbVertex
100
AcDb2dVertex
 10
113.1044921874999
 20
1063.615584871433
 30
0.0
  0
VERTEX
  5
35A
330
347
100
AcDbEntity
  8
E9127
100
AcDbVertex
100
AcDb2dVertex
 10
113.0593261718749
 20
1063.504500887058
 30
0.0
  0
VERTEX
  5
35B
330
347
100
AcDbEntity
  8
E9127
100
AcDbVertex
100
AcDb2dVertex
 10
113.0117187499999
 20
1063.395858308933
 30
0.0
  0
VERTEX
  5
35C
330
347
100
AcDbEntity
  8
E9127
100
AcDbVertex
100
AcDb2dVertex
 10
112.9616699218749
 20
1063.289657137058
 30
0.0
  0
VERTEX
  5
35D
330
347
100
AcDbEntity
  8
E9127
100
AcDbVertex
100
AcDb2dVertex
 10
112.9091796874999
 20
1063.185897371433
 30
0.0
  0
VERTEX
  5
35E
330
347
100
AcDbEntity
  8
E9127
100
AcDbVertex
100
AcDb2dVertex
 10
112.8542480468749
 20
1063.084579012058
 30
0.0
  0
VERTEX
  5
35F
330
347
100
AcDbEntity
  8
E9127
100
AcDbVertex
100
AcDb2dVertex
 10
112.7968749999999
 20
1062.985702058933
 30
0.0
  0
VERTEX
  5
360
330
347
100
AcDbEntity
  8
E9127
100
AcDbVertex
100
AcDb2dVertex
 10
112.7370605468749
 20
1062.889266512058
 30
0.0
  0
VERTEX
  5
361
330
347
100
AcDbEntity
  8
E9127
100
AcDbVertex
100
AcDb2dVertex
 10
112.6748046874999
 20
1062.795272371433
 30
0.0
  0
VERTEX
  5
362
330
347
100
AcDbEntity
  8
E9127
100
AcDbVertex
100
AcDb2dVertex
 10
112.6101074218749
 20
1062.703719637058
 30
0.0
  0
VERTEX
  5
363
330
347
100
AcDbEntity
  8
E9127
100
AcDbVertex
100
AcDb2dVertex
 10
112.5429687499999
 20
1062.614608308933
 30
0.0
  0
VERTEX
  5
364
330
347
100
AcDbEntity
  8
E9127
100
AcDbVertex
100
AcDb2dVertex
 10
112.4733886718749
 20
1062.527938387058
 30
0.0
  0
VERTEX
  5
365
330
347
100
AcDbEntity
  8
E9127
100
AcDbVertex
100
AcDb2dVertex
 10
112.4013671874999
 20
1062.443709871433
 30
0.0
  0
VERTEX
  5
366
330
347
100
AcDbEntity
  8
E9127
100
AcDbVertex
100
AcDb2dVertex
 10
112.3269042968749
 20
1062.361922762058
 30
0.0
  0
VERTEX
  5
367
330
347
100
AcDbEntity
  8
E9127
100
AcDbVertex
100
AcDb2dVertex
 10
112.2499999999999
 20
1062.282577058933
 30
0.0
  0
VERTEX
  5
368
330
347
100
AcDbEntity
  8
E9127
100
AcDbVertex
100
AcDb2dVertex
 10
112.1706542968749
 20
1062.205672762058
 30
0.0
  0
VERTEX
  5
369
330
347
100
AcDbEntity
  8
E9127
100
AcDbVertex
100
AcDb2dVertex
 10
112.0888671874999
 20
1062.131209871433
 30
0.0
  0
VERTEX
  5
36A
330
347
100
AcDbEntity
  8
E9127
100
AcDbVertex
100
AcDb2dVertex
 10
112.0046386718749
 20
1062.059188387058
 30
0.0
  0
VERTEX
  5
36B
330
347
100
AcDbEntity
  8
E9127
100
AcDbVertex
100
AcDb2dVertex
 10
111.9179687499999
 20
1061.989608308933
 30
0.0
  0
VERTEX
  5
36C
330
347
100
AcDbEntity
  8
E9127
100
AcDbVertex
100
AcDb2dVertex
 10
111.8288574218749
 20
1061.922469637058
 30
0.0
  0
VERTEX
  5
36D
330
347
100
AcDbEntity
  8
E9127
100
AcDbVertex
100
AcDb2dVertex
 10
111.7373046874999
 20
1061.857772371433
 30
0.0
  0
VERTEX
  5
36E
330
347
100
AcDbEntity
  8
E9127
100
AcDbVertex
100
AcDb2dVertex
 10
111.6433105468749
 20
1061.795516512058
 30
0.0
  0
VERTEX
  5
36F
330
347
100
AcDbEntity
  8
E9127
100
AcDbVertex
100
AcDb2dVertex
 10
111.5468749999999
 20
1061.735702058933
 30
0.0
  0
VERTEX
  5
370
330
347
100
AcDbEntity
  8
E9127
100
AcDbVertex
100
AcDb2dVertex
 10
111.4479980468749
 20
1061.678329012058
 30
0.0
  0
VERTEX
  5
371
330
347
100
AcDbEntity
  8
E9127
100
AcDbVertex
100
AcDb2dVertex
 10
111.3466796874999
 20
1061.623397371433
 30
0.0
  0
VERTEX
  5
372
330
347
100
AcDbEntity
  8
E9127
100
AcDbVertex
100
AcDb2dVertex
 10
111.2429199218749
 20
1061.570907137058
 30
0.0
  0
VERTEX
  5
373
330
347
100
AcDbEntity
  8
E9127
100
AcDbVertex
100
AcDb2dVertex
 10
111.1367187499999
 20
1061.520858308933
 30
0.0
  0
VERTEX
  5
374
330
347
100
AcDbEntity
  8
E9127
100
AcDbVertex
100
AcDb2dVertex
 10
111.0280761718749
 20
1061.473250887058
 30
0.0
  0
VERTEX
  5
375
330
347
100
AcDbEntity
  8
E9127
100
AcDbVertex
100
AcDb2dVertex
 10
110.9169921874999
 20
1061.428084871433
 30
0.0
  0
VERTEX
  5
376
330
347
100
AcDbEntity
  8
E9127
100
AcDbVertex
100
AcDb2dVertex
 10
110.8034667968749
 20
1061.385360262058
 30
0.0
  0
VERTEX
  5
377
330
347
100
AcDbEntity
  8
E9127
100
AcDbVertex
100
AcDb2dVertex
 10
110.6874999999999
 20
1061.345077058933
 30
0.0
  0
VERTEX
  5
378
330
347
100
AcDbEntity
  8
E9127
100
AcDbVertex
100
AcDb2dVertex
 10
110.5690917968749
 20
1061.307235262058
 30
0.0
  0
VERTEX
  5
379
330
347
100
AcDbEntity
  8
E9127
100
AcDbVertex
100
AcDb2dVertex
 10
110.4482421874999
 20
1061.271834871433
 30
0.0
  0
VERTEX
  5
37A
330
347
100
AcDbEntity
  8
E9127
100
AcDbVertex
100
AcDb2dVertex
 10
110.3249511718749
 20
1061.238875887058
 30
0.0
  0
VERTEX
  5
37B
330
347
100
AcDbEntity
  8
E9127
100
AcDbVertex
100
AcDb2dVertex
 10
110.1992187499999
 20
1061.208358308933
 30
0.0
  0
VERTEX
  5
37C
330
347
100
AcDbEntity
  8
E9127
100
AcDbVertex
100
AcDb2dVertex
 10
110.0710449218749
 20
1061.180282137058
 30
0.0
  0
VERTEX
  5
37D
330
347
100
AcDbEntity
  8
E9127
100
AcDbVertex
100
AcDb2dVertex
 10
109.9404296874999
 20
1061.154647371433
 30
0.0
  0
VERTEX
  5
37E
330
347
100
AcDbEntity
  8
E9127
100
AcDbVertex
100
AcDb2dVertex
 10
109.8073730468749
 20
1061.131454012058
 30
0.0
  0
VERTEX
  5
37F
330
347
100
AcDbEntity
  8
E9127
100
AcDbVertex
100
AcDb2dVertex
 10
109.6718749999999
 20
1061.110702058933
 30
0.0
  0
VERTEX
  5
380
330
347
100
AcDbEntity
  8
E9127
100
AcDbVertex
100
AcDb2dVertex
 10
109.5339355468749
 20
1061.092391512058
 30
0.0
  0
VERTEX
  5
381
330
347
100
AcDbEntity
  8
E9127
100
AcDbVertex
100
AcDb2dVertex
 10
109.3935546874999
 20
1061.076522371433
 30
0.0
  0
VERTEX
  5
382
330
347
100
AcDbEntity
  8
E9127
100
AcDbVertex
100
AcDb2dVertex
 10
109.2507324218749
 20
1061.063094637058
 30
0.0
  0
VERTEX
  5
383
330
347
100
AcDbEntity
  8
E9127
100
AcDbVertex
100
AcDb2dVertex
 10
109.1054687499999
 20
1061.052108308933
 30
0.0
  0
VERTEX
  5
384
330
347
100
AcDbEntity
  8
E9127
100
AcDbVertex
100
AcDb2dVertex
 10
108.8076171874999
 20
1061.037459871433
 30
0.0
  0
VERTEX
  5
385
330
347
100
AcDbEntity
  8
E9127
100
AcDbVertex
100
AcDb2dVertex
 10
108.4999999999999
 20
1061.032577058933
 30
0.0
  0
VERTEX
  5
386
330
347
100
AcDbEntity
  8
E9127
100
AcDbVertex
100
AcDb2dVertex
 10
57.49999999999986
 20
1061.032577058933
 30
0.0
  0
VERTEX
  5
387
330
347
100
AcDbEntity
  8
E9127
100
AcDbVertex
100
AcDb2dVertex
 10
57.19238281249986
 20
1061.037459871433
 30
0.0
  0
VERTEX
  5
388
330
347
100
AcDbEntity
  8
E9127
100
AcDbVertex
100
AcDb2dVertex
 10
56.89453124999986
 20
1061.052108308933
 30
0.0
  0
VERTEX
  5
389
330
347
100
AcDbEntity
  8
E9127
100
AcDbVertex
100
AcDb2dVertex
 10
56.74926757812486
 20
1061.063094637058
 30
0.0
  0
VERTEX
  5
38A
330
347
100
AcDbEntity
  8
E9127
100
AcDbVertex
100
AcDb2dVertex
 10
56.60644531249986
 20
1061.076522371433
 30
0.0
  0
VERTEX
  5
38B
330
347
100
AcDbEntity
  8
E9127
100
AcDbVertex
100
AcDb2dVertex
 10
56.46606445312486
 20
1061.092391512058
 30
0.0
  0
VERTEX
  5
38C
330
347
100
AcDbEntity
  8
E9127
100
AcDbVertex
100
AcDb2dVertex
 10
56.32812499999986
 20
1061.110702058933
 30
0.0
  0
VERTEX
  5
38D
330
347
100
AcDbEntity
  8
E9127
100
AcDbVertex
100
AcDb2dVertex
 10
56.19262695312486
 20
1061.131454012058
 30
0.0
  0
VERTEX
  5
38E
330
347
100
AcDbEntity
  8
E9127
100
AcDbVertex
100
AcDb2dVertex
 10
56.05957031249986
 20
1061.154647371433
 30
0.0
  0
VERTEX
  5
38F
330
347
100
AcDbEntity
  8
E9127
100
AcDbVertex
100
AcDb2dVertex
 10
55.92895507812486
 20
1061.180282137058
 30
0.0
  0
VERTEX
  5
390
330
347
100
AcDbEntity
  8
E9127
100
AcDbVertex
100
AcDb2dVertex
 10
55.80078124999986
 20
1061.208358308933
 30
0.0
  0
VERTEX
  5
391
330
347
100
AcDbEntity
  8
E9127
100
AcDbVertex
100
AcDb2dVertex
 10
55.67504882812486
 20
1061.238875887058
 30
0.0
  0
VERTEX
  5
392
330
347
100
AcDbEntity
  8
E9127
100
AcDbVertex
100
AcDb2dVertex
 10
55.55175781249986
 20
1061.271834871433
 30
0.0
  0
VERTEX
  5
393
330
347
100
AcDbEntity
  8
E9127
100
AcDbVertex
100
AcDb2dVertex
 10
55.43090820312486
 20
1061.307235262058
 30
0.0
  0
VERTEX
  5
394
330
347
100
AcDbEntity
  8
E9127
100
AcDbVertex
100
AcDb2dVertex
 10
55.31249999999986
 20
1061.345077058933
 30
0.0
  0
VERTEX
  5
395
330
347
100
AcDbEntity
  8
E9127
100
AcDbVertex
100
AcDb2dVertex
 10
55.19653320312486
 20
1061.385360262058
 30
0.0
  0
VERTEX
  5
396
330
347
100
AcDbEntity
  8
E9127
100
AcDbVertex
100
AcDb2dVertex
 10
55.08300781249986
 20
1061.428084871433
 30
0.0
  0
VERTEX
  5
397
330
347
100
AcDbEntity
  8
E9127
100
AcDbVertex
100
AcDb2dVertex
 10
54.97192382812486
 20
1061.473250887058
 30
0.0
  0
VERTEX
  5
398
330
347
100
AcDbEntity
  8
E9127
100
AcDbVertex
100
AcDb2dVertex
 10
54.86328124999986
 20
1061.520858308933
 30
0.0
  0
VERTEX
  5
399
330
347
100
AcDbEntity
  8
E9127
100
AcDbVertex
100
AcDb2dVertex
 10
54.75708007812486
 20
1061.570907137058
 30
0.0
  0
VERTEX
  5
39A
330
347
100
AcDbEntity
  8
E9127
100
AcDbVertex
100
AcDb2dVertex
 10
54.65332031249986
 20
1061.623397371433
 30
0.0
  0
VERTEX
  5
39B
330
347
100
AcDbEntity
  8
E9127
100
AcDbVertex
100
AcDb2dVertex
 10
54.55200195312486
 20
1061.678329012058
 30
0.0
  0
VERTEX
  5
39C
330
347
100
AcDbEntity
  8
E9127
100
AcDbVertex
100
AcDb2dVertex
 10
54.45312499999986
 20
1061.735702058933
 30
0.0
  0
VERTEX
  5
39D
330
347
100
AcDbEntity
  8
E9127
100
AcDbVertex
100
AcDb2dVertex
 10
54.35668945312486
 20
1061.795516512058
 30
0.0
  0
VERTEX
  5
39E
330
347
100
AcDbEntity
  8
E9127
100
AcDbVertex
100
AcDb2dVertex
 10
54.26269531249986
 20
1061.857772371433
 30
0.0
  0
VERTEX
  5
39F
330
347
100
AcDbEntity
  8
E9127
100
AcDbVertex
100
AcDb2dVertex
 10
54.17114257812486
 20
1061.922469637058
 30
0.0
  0
VERTEX
  5
3A0
330
347
100
AcDbEntity
  8
E9127
100
AcDbVertex
100
AcDb2dVertex
 10
54.08203124999986
 20
1061.989608308933
 30
0.0
  0
VERTEX
  5
3A1
330
347
100
AcDbEntity
  8
E9127
100
AcDbVertex
100
AcDb2dVertex
 10
53.99536132812486
 20
1062.059188387058
 30
0.0
  0
VERTEX
  5
3A2
330
347
100
AcDbEntity
  8
E9127
100
AcDbVertex
100
AcDb2dVertex
 10
53.91113281249986
 20
1062.131209871433
 30
0.0
  0
VERTEX
  5
3A3
330
347
100
AcDbEntity
  8
E9127
100
AcDbVertex
100
AcDb2dVertex
 10
53.82934570312486
 20
1062.205672762058
 30
0.0
  0
VERTEX
  5
3A4
330
347
100
AcDbEntity
  8
E9127
100
AcDbVertex
100
AcDb2dVertex
 10
53.74999999999986
 20
1062.282577058933
 30
0.0
  0
VERTEX
  5
3A5
330
347
100
AcDbEntity
  8
E9127
100
AcDbVertex
100
AcDb2dVertex
 10
53.67309570312486
 20
1062.361922762058
 30
0.0
  0
VERTEX
  5
3A6
330
347
100
AcDbEntity
  8
E9127
100
AcDbVertex
100
AcDb2dVertex
 10
53.59863281249986
 20
1062.443709871433
 30
0.0
  0
VERTEX
  5
3A7
330
347
100
AcDbEntity
  8
E9127
100
AcDbVertex
100
AcDb2dVertex
 10
53.52661132812486
 20
1062.527938387058
 30
0.0
  0
VERTEX
  5
3A8
330
347
100
AcDbEntity
  8
E9127
100
AcDbVertex
100
AcDb2dVertex
 10
53.45703124999986
 20
1062.614608308933
 30
0.0
  0
VERTEX
  5
3A9
330
347
100
AcDbEntity
  8
E9127
100
AcDbVertex
100
AcDb2dVertex
 10
53.38989257812486
 20
1062.703719637058
 30
0.0
  0
VERTEX
  5
3AA
330
347
100
AcDbEntity
  8
E9127
100
AcDbVertex
100
AcDb2dVertex
 10
53.32519531249986
 20
1062.795272371433
 30
0.0
  0
VERTEX
  5
3AB
330
347
100
AcDbEntity
  8
E9127
100
AcDbVertex
100
AcDb2dVertex
 10
53.26293945312486
 20
1062.889266512058
 30
0.0
  0
VERTEX
  5
3AC
330
347
100
AcDbEntity
  8
E9127
100
AcDbVertex
100
AcDb2dVertex
 10
53.20312499999986
 20
1062.985702058933
 30
0.0
  0
VERTEX
  5
3AD
330
347
100
AcDbEntity
  8
E9127
100
AcDbVertex
100
AcDb2dVertex
 10
53.14575195312486
 20
1063.084579012058
 30
0.0
  0
VERTEX
  5
3AE
330
347
100
AcDbEntity
  8
E9127
100
AcDbVertex
100
AcDb2dVertex
 10
53.09082031249986
 20
1063.185897371433
 30
0.0
  0
VERTEX
  5
3AF
330
347
100
AcDbEntity
  8
E9127
100
AcDbVertex
100
AcDb2dVertex
 10
53.03833007812486
 20
1063.289657137058
 30
0.0
  0
VERTEX
  5
3B0
330
347
100
AcDbEntity
  8
E9127
100
AcDbVertex
100
AcDb2dVertex
 10
52.98828124999986
 20
1063.395858308933
 30
0.0
  0
VERTEX
  5
3B1
330
347
100
AcDbEntity
  8
E9127
100
AcDbVertex
100
AcDb2dVertex
 10
52.94067382812486
 20
1063.504500887058
 30
0.0
  0
VERTEX
  5
3B2
330
347
100
AcDbEntity
  8
E9127
100
AcDbVertex
100
AcDb2dVertex
 10
52.89550781249986
 20
1063.615584871433
 30
0.0
  0
VERTEX
  5
3B3
330
347
100
AcDbEntity
  8
E9127
100
AcDbVertex
100
AcDb2dVertex
 10
52.85278320312486
 20
1063.729110262058
 30
0.0
  0
VERTEX
  5
3B4
330
347
100
AcDbEntity
  8
E9127
100
AcDbVertex
100
AcDb2dVertex
 10
52.81249999999986
 20
1063.845077058933
 30
0.0
  0
VERTEX
  5
3B5
330
347
100
AcDbEntity
  8
E9127
100
AcDbVertex
100
AcDb2dVertex
 10
52.77465820312486
 20
1063.963485262058
 30
0.0
  0
VERTEX
  5
3B6
330
347
100
AcDbEntity
  8
E9127
100
AcDbVertex
100
AcDb2dVertex
 10
52.73925781249986
 20
1064.084334871433
 30
0.0
  0
VERTEX
  5
3B7
330
347
100
AcDbEntity
  8
E9127
100
AcDbVertex
100
AcDb2dVertex
 10
52.70629882812486
 20
1064.207625887058
 30
0.0
  0
VERTEX
  5
3B8
330
347
100
AcDbEntity
  8
E9127
100
AcDbVertex
100
AcDb2dVertex
 10
52.67578124999986
 20
1064.333358308933
 30
0.0
  0
VERTEX
  5
3B9
330
347
100
AcDbEntity
  8
E9127
100
AcDbVertex
100
AcDb2dVertex
 10
52.64770507812486
 20
1064.461532137058
 30
0.0
  0
VERTEX
  5
3BA
330
347
100
AcDbEntity
  8
E9127
100
AcDbVertex
100
AcDb2dVertex
 10
52.62207031249986
 20
1064.592147371433
 30
0.0
  0
VERTEX
  5
3BB
330
347
100
AcDbEntity
  8
E9127
100
AcDbVertex
100
AcDb2dVertex
 10
52.59887695312486
 20
1064.725204012058
 30
0.0
  0
VERTEX
  5
3BC
330
347
100
AcDbEntity
  8
E9127
100
AcDbVertex
100
AcDb2dVertex
 10
52.57812499999986
 20
1064.860702058933
 30
0.0
  0
VERTEX
  5
3BD
330
347
100
AcDbEntity
  8
E9127
100
AcDbVertex
100
AcDb2dVertex
 10
52.55981445312486
 20
1064.998641512058
 30
0.0
  0
VERTEX
  5
3BE
330
347
100
AcDbEntity
  8
E9127
100
AcDbVertex
100
AcDb2dVertex
 10
52.54394531249986
 20
1065.139022371433
 30
0.0
  0
VERTEX
  5
3BF
330
347
100
AcDbEntity
  8
E9127
100
AcDbVertex
100
AcDb2dVertex
 10
52.53051757812486
 20
1065.281844637058
 30
0.0
  0
VERTEX
  5
3C0
330
347
100
AcDbEntity
  8
E9127
100
AcDbVertex
100
AcDb2dVertex
 10
52.51953124999986
 20
1065.427108308933
 30
0.0
  0
VERTEX
  5
3C1
330
347
100
AcDbEntity
  8
E9127
100
AcDbVertex
100
AcDb2dVertex
 10
52.50488281249986
 20
1065.724959871433
 30
0.0
  0
VERTEX
  5
3C2
330
347
100
AcDbEntity
  8
E9127
100
AcDbVertex
100
AcDb2dVertex
 10
52.49999999999986
 20
1066.032577058933
 30
0.0
  0
VERTEX
  5
3C3
330
347
100
AcDbEntity
  8
E9127
100
AcDbVertex
100
AcDb2dVertex
 10
52.49999999999986
 20
1068.532660114075
 30
0.0
  0
SEQEND
  5
3C4
330
347
100
AcDbEntity
  8
E9127
  0
POLYLINE
  5
3C5
330
1F
100
AcDbEntity
  8
E9127
100
AcDb2dPolyline
 66
     1
 10
0.0
 20
0.0
 30
0.0
  0
VERTEX
  5
3C6
330
3C5
100
AcDbEntity
  8
E9127
100
AcDbVertex
100
AcDb2dVertex
 10
201.5
 20
1068.532577058933
 30
0.0
  0
VERTEX
  5
3C7
330
3C5
100
AcDbEntity
  8
E9127
100
AcDbVertex
100
AcDb2dVertex
 10
201.5
 20
1066.032577058933
 30
0.0
  0
VERTEX
  5
3C8
330
3C5
100
AcDbEntity
  8
E9127
100
AcDbVertex
100
AcDb2dVertex
 10
201.5048828125
 20
1065.724959871433
 30
0.0
  0
VERTEX
  5
3C9
330
3C5
100
AcDbEntity
  8
E9127
100
AcDbVertex
100
AcDb2dVertex
 10
201.51953125
 20
1065.427108308933
 30
0.0
  0
VERTEX
  5
3CA
330
3C5
100
AcDbEntity
  8
E9127
100
AcDbVertex
100
AcDb2dVertex
 10
201.530517578125
 20
1065.281844637058
 30
0.0
  0
VERTEX
  5
3CB
330
3C5
100
AcDbEntity
  8
E9127
100
AcDbVertex
100
AcDb2dVertex
 10
201.5439453125
 20
1065.139022371433
 30
0.0
  0
VERTEX
  5
3CC
330
3C5
100
AcDbEntity
  8
E9127
100
AcDbVertex
100
AcDb2dVertex
 10
201.559814453125
 20
1064.998641512058
 30
0.0
  0
VERTEX
  5
3CD
330
3C5
100
AcDbEntity
  8
E9127
100
AcDbVertex
100
AcDb2dVertex
 10
201.578125
 20
1064.860702058933
 30
0.0
  0
VERTEX
  5
3CE
330
3C5
100
AcDbEntity
  8
E9127
100
AcDbVertex
100
AcDb2dVertex
 10
201.598876953125
 20
1064.725204012058
 30
0.0
  0
VERTEX
  5
3CF
330
3C5
100
AcDbEntity
  8
E9127
100
AcDbVertex
100
AcDb2dVertex
 10
201.6220703125
 20
1064.592147371433
 30
0.0
  0
VERTEX
  5
3D0
330
3C5
100
AcDbEntity
  8
E9127
100
AcDbVertex
100
AcDb2dVertex
 10
201.647705078125
 20
1064.461532137058
 30
0.0
  0
VERTEX
  5
3D1
330
3C5
100
AcDbEntity
  8
E9127
100
AcDbVertex
100
AcDb2dVertex
 10
201.67578125
 20
1064.333358308933
 30
0.0
  0
VERTEX
  5
3D2
330
3C5
100
AcDbEntity
  8
E9127
100
AcDbVertex
100
AcDb2dVertex
 10
201.706298828125
 20
1064.207625887058
 30
0.0
  0
VERTEX
  5
3D3
330
3C5
100
AcDbEntity
  8
E9127
100
AcDbVertex
100
AcDb2dVertex
 10
201.7392578125
 20
1064.084334871433
 30
0.0
  0
VERTEX
  5
3D4
330
3C5
100
AcDbEntity
  8
E9127
100
AcDbVertex
100
AcDb2dVertex
 10
201.774658203125
 20
1063.963485262058
 30
0.0
  0
VERTEX
  5
3D5
330
3C5
100
AcDbEntity
  8
E9127
100
AcDbVertex
100
AcDb2dVertex
 10
201.8125
 20
1063.845077058933
 30
0.0
  0
VERTEX
  5
3D6
330
3C5
100
AcDbEntity
  8
E9127
100
AcDbVertex
100
AcDb2dVertex
 10
201.852783203125
 20
1063.729110262058
 30
0.0
  0
VERTEX
  5
3D7
330
3C5
100
AcDbEntity
  8
E9127
100
AcDbVertex
100
AcDb2dVertex
 10
201.8955078125
 20
1063.615584871433
 30
0.0
  0
VERTEX
  5
3D8
330
3C5
100
AcDbEntity
  8
E9127
100
AcDbVertex
100
AcDb2dVertex
 10
201.940673828125
 20
1063.504500887058
 30
0.0
  0
VERTEX
  5
3D9
330
3C5
100
AcDbEntity
  8
E9127
100
AcDbVertex
100
AcDb2dVertex
 10
201.98828125
 20
1063.395858308933
 30
0.0
  0
VERTEX
  5
3DA
330
3C5
100
AcDbEntity
  8
E9127
100
AcDbVertex
100
AcDb2dVertex
 10
202.038330078125
 20
1063.289657137058
 30
0.0
  0
VERTEX
  5
3DB
330
3C5
100
AcDbEntity
  8
E9127
100
AcDbVertex
100
AcDb2dVertex
 10
202.0908203125
 20
1063.185897371433
 30
0.0
  0
VERTEX
  5
3DC
330
3C5
100
AcDbEntity
  8
E9127
100
AcDbVertex
100
AcDb2dVertex
 10
202.145751953125
 20
1063.084579012058
 30
0.0
  0
VERTEX
  5
3DD
330
3C5
100
AcDbEntity
  8
E9127
100
AcDbVertex
100
AcDb2dVertex
 10
202.203125
 20
1062.985702058933
 30
0.0
  0
VERTEX
  5
3DE
330
3C5
100
AcDbEntity
  8
E9127
100
AcDbVertex
100
AcDb2dVertex
 10
202.262939453125
 20
1062.889266512058
 30
0.0
  0
VERTEX
  5
3DF
330
3C5
100
AcDbEntity
  8
E9127
100
AcDbVertex
100
AcDb2dVertex
 10
202.3251953125
 20
1062.795272371433
 30
0.0
  0
VERTEX
  5
3E0
330
3C5
100
AcDbEntity
  8
E9127
100
AcDbVertex
100
AcDb2dVertex
 10
202.389892578125
 20
1062.703719637058
 30
0.0
  0
VERTEX
  5
3E1
330
3C5
100
AcDbEntity
  8
E9127
100
AcDbVertex
100
AcDb2dVertex
 10
202.45703125
 20
1062.614608308933
 30
0.0
  0
VERTEX
  5
3E2
330
3C5
100
AcDbEntity
  8
E9127
100
AcDbVertex
100
AcDb2dVertex
 10
202.526611328125
 20
1062.527938387058
 30
0.0
  0
VERTEX
  5
3E3
330
3C5
100
AcDbEntity
  8
E9127
100
AcDbVertex
100
AcDb2dVertex
 10
202.5986328125
 20
1062.443709871433
 30
0.0
  0
VERTEX
  5
3E4
330
3C5
100
AcDbEntity
  8
E9127
100
AcDbVertex
100
AcDb2dVertex
 10
202.673095703125
 20
1062.361922762058
 30
0.0
  0
VERTEX
  5
3E5
330
3C5
100
AcDbEntity
  8
E9127
100
AcDbVertex
100
AcDb2dVertex
 10
202.75
 20
1062.282577058933
 30
0.0
  0
VERTEX
  5
3E6
330
3C5
100
AcDbEntity
  8
E9127
100
AcDbVertex
100
AcDb2dVertex
 10
202.829345703125
 20
1062.205672762058
 30
0.0
  0
VERTEX
  5
3E7
330
3C5
100
AcDbEntity
  8
E9127
100
AcDbVertex
100
AcDb2dVertex
 10
202.9111328125
 20
1062.131209871433
 30
0.0
  0
VERTEX
  5
3E8
330
3C5
100
AcDbEntity
  8
E9127
100
AcDbVertex
100
AcDb2dVertex
 10
202.995361328125
 20
1062.059188387058
 30
0.0
  0
VERTEX
  5
3E9
330
3C5
100
AcDbEntity
  8
E9127
100
AcDbVertex
100
AcDb2dVertex
 10
203.08203125
 20
1061.989608308933
 30
0.0
  0
VERTEX
  5
3EA
330
3C5
100
AcDbEntity
  8
E9127
100
AcDbVertex
100
AcDb2dVertex
 10
203.171142578125
 20
1061.922469637058
 30
0.0
  0
VERTEX
  5
3EB
330
3C5
100
AcDbEntity
  8
E9127
100
AcDbVertex
100
AcDb2dVertex
 10
203.2626953125
 20
1061.857772371433
 30
0.0
  0
VERTEX
  5
3EC
330
3C5
100
AcDbEntity
  8
E9127
100
AcDbVertex
100
AcDb2dVertex
 10
203.356689453125
 20
1061.795516512058
 30
0.0
  0
VERTEX
  5
3ED
330
3C5
100
AcDbEntity
  8
E9127
100
AcDbVertex
100
AcDb2dVertex
 10
203.453125
 20
1061.735702058933
 30
0.0
  0
VERTEX
  5
3EE
330
3C5
100
AcDbEntity
  8
E9127
100
AcDbVertex
100
AcDb2dVertex
 10
203.552001953125
 20
1061.678329012058
 30
0.0
  0
VERTEX
  5
3EF
330
3C5
100
AcDbEntity
  8
E9127
100
AcDbVertex
100
AcDb2dVertex
 10
203.6533203125
 20
1061.623397371433
 30
0.0
  0
VERTEX
  5
3F0
330
3C5
100
AcDbEntity
  8
E9127
100
AcDbVertex
100
AcDb2dVertex
 10
203.757080078125
 20
1061.570907137058
 30
0.0
  0
VERTEX
  5
3F1
330
3C5
100
AcDbEntity
  8
E9127
100
AcDbVertex
100
AcDb2dVertex
 10
203.86328125
 20
1061.520858308933
 30
0.0
  0
VERTEX
  5
3F2
330
3C5
100
AcDbEntity
  8
E9127
100
AcDbVertex
100
AcDb2dVertex
 10
203.971923828125
 20
1061.473250887058
 30
0.0
  0
VERTEX
  5
3F3
330
3C5
100
AcDbEntity
  8
E9127
100
AcDbVertex
100
AcDb2dVertex
 10
204.0830078125
 20
1061.428084871433
 30
0.0
  0
VERTEX
  5
3F4
330
3C5
100
AcDbEntity
  8
E9127
100
AcDbVertex
100
AcDb2dVertex
 10
204.196533203125
 20
1061.385360262058
 30
0.0
  0
VERTEX
  5
3F5
330
3C5
100
AcDbEntity
  8
E9127
100
AcDbVertex
100
AcDb2dVertex
 10
204.3125
 20
1061.345077058933
 30
0.0
  0
VERTEX
  5
3F6
330
3C5
100
AcDbEntity
  8
E9127
100
AcDbVertex
100
AcDb2dVertex
 10
204.430908203125
 20
1061.307235262058
 30
0.0
  0
VERTEX
  5
3F7
330
3C5
100
AcDbEntity
  8
E9127
100
AcDbVertex
100
AcDb2dVertex
 10
204.5517578125
 20
1061.271834871433
 30
0.0
  0
VERTEX
  5
3F8
330
3C5
100
AcDbEntity
  8
E9127
100
AcDbVertex
100
AcDb2dVertex
 10
204.675048828125
 20
1061.238875887058
 30
0.0
  0
VERTEX
  5
3F9
330
3C5
100
AcDbEntity
  8
E9127
100
AcDbVertex
100
AcDb2dVertex
 10
204.80078125
 20
1061.208358308933
 30
0.0
  0
VERTEX
  5
3FA
330
3C5
100
AcDbEntity
  8
E9127
100
AcDbVertex
100
AcDb2dVertex
 10
204.928955078125
 20
1061.180282137058
 30
0.0
  0
VERTEX
  5
3FB
330
3C5
100
AcDbEntity
  8
E9127
100
AcDbVertex
100
AcDb2dVertex
 10
205.0595703125
 20
1061.154647371433
 30
0.0
  0
VERTEX
  5
3FC
330
3C5
100
AcDbEntity
  8
E9127
100
AcDbVertex
100
AcDb2dVertex
 10
205.192626953125
 20
1061.131454012058
 30
0.0
  0
VERTEX
  5
3FD
330
3C5
100
AcDbEntity
  8
E9127
100
AcDbVertex
100
AcDb2dVertex
 10
205.328125
 20
1061.110702058933
 30
0.0
  0
VERTEX
  5
3FE
330
3C5
100
AcDbEntity
  8
E9127
100
AcDbVertex
100
AcDb2dVertex
 10
205.466064453125
 20
1061.092391512058
 30
0.0
  0
VERTEX
  5
3FF
330
3C5
100
AcDbEntity
  8
E9127
100
AcDbVertex
100
AcDb2dVertex
 10
205.6064453125
 20
1061.076522371433
 30
0.0
  0
VERTEX
  5
400
330
3C5
100
AcDbEntity
  8
E9127
100
AcDbVertex
100
AcDb2dVertex
 10
205.749267578125
 20
1061.063094637058
 30
0.0
  0
VERTEX
  5
401
330
3C5
100
AcDbEntity
  8
E9127
100
AcDbVertex
100
AcDb2dVertex
 10
205.89453125
 20
1061.052108308933
 30
0.0
  0
VERTEX
  5
402
330
3C5
100
AcDbEntity
  8
E9127
100
AcDbVertex
100
AcDb2dVertex
 10
206.1923828125
 20
1061.037459871433
 30
0.0
  0
VERTEX
  5
403
330
3C5
100
AcDbEntity
  8
E9127
100
AcDbVertex
100
AcDb2dVertex
 10
206.5
 20
1061.032577058933
 30
0.0
  0
VERTEX
  5
404
330
3C5
100
AcDbEntity
  8
E9127
100
AcDbVertex
100
AcDb2dVertex
 10
257.5
 20
1061.032577058933
 30
0.0
  0
VERTEX
  5
405
330
3C5
100
AcDbEntity
  8
E9127
100
AcDbVertex
100
AcDb2dVertex
 10
257.8076171875
 20
1061.037459871433
 30
0.0
  0
VERTEX
  5
406
330
3C5
100
AcDbEntity
  8
E9127
100
AcDbVertex
100
AcDb2dVertex
 10
258.10546875
 20
1061.052108308933
 30
0.0
  0
VERTEX
  5
407
330
3C5
100
AcDbEntity
  8
E9127
100
AcDbVertex
100
AcDb2dVertex
 10
258.250732421875
 20
1061.063094637058
 30
0.0
  0
VERTEX
  5
408
330
3C5
100
AcDbEntity
  8
E9127
100
AcDbVertex
100
AcDb2dVertex
 10
258.3935546875
 20
1061.076522371433
 30
0.0
  0
VERTEX
  5
409
330
3C5
100
AcDbEntity
  8
E9127
100
AcDbVertex
100
AcDb2dVertex
 10
258.533935546875
 20
1061.092391512058
 30
0.0
  0
VERTEX
  5
40A
330
3C5
100
AcDbEntity
  8
E9127
100
AcDbVertex
100
AcDb2dVertex
 10
258.671875
 20
1061.110702058933
 30
0.0
  0
VERTEX
  5
40B
330
3C5
100
AcDbEntity
  8
E9127
100
AcDbVertex
100
AcDb2dVertex
 10
258.807373046875
 20
1061.131454012058
 30
0.0
  0
VERTEX
  5
40C
330
3C5
100
AcDbEntity
  8
E9127
100
AcDbVertex
100
AcDb2dVertex
 10
258.9404296875
 20
1061.154647371433
 30
0.0
  0
VERTEX
  5
40D
330
3C5
100
AcDbEntity
  8
E9127
100
AcDbVertex
100
AcDb2dVertex
 10
259.071044921875
 20
1061.180282137058
 30
0.0
  0
VERTEX
  5
40E
330
3C5
100
AcDbEntity
  8
E9127
100
AcDbVertex
100
AcDb2dVertex
 10
259.19921875
 20
1061.208358308933
 30
0.0
  0
VERTEX
  5
40F
330
3C5
100
AcDbEntity
  8
E9127
100
AcDbVertex
100
AcDb2dVertex
 10
259.324951171875
 20
1061.238875887058
 30
0.0
  0
VERTEX
  5
410
330
3C5
100
AcDbEntity
  8
E9127
100
AcDbVertex
100
AcDb2dVertex
 10
259.4482421875
 20
1061.271834871433
 30
0.0
  0
VERTEX
  5
411
330
3C5
100
AcDbEntity
  8
E9127
100
AcDbVertex
100
AcDb2dVertex
 10
259.569091796875
 20
1061.307235262058
 30
0.0
  0
VERTEX
  5
412
330
3C5
100
AcDbEntity
  8
E9127
100
AcDbVertex
100
AcDb2dVertex
 10
259.6875
 20
1061.345077058933
 30
0.0
  0
VERTEX
  5
413
330
3C5
100
AcDbEntity
  8
E9127
100
AcDbVertex
100
AcDb2dVertex
 10
259.803466796875
 20
1061.385360262058
 30
0.0
  0
VERTEX
  5
414
330
3C5
100
AcDbEntity
  8
E9127
100
AcDbVertex
100
AcDb2dVertex
 10
259.9169921875
 20
1061.428084871433
 30
0.0
  0
VERTEX
  5
415
330
3C5
100
AcDbEntity
  8
E9127
100
AcDbVertex
100
AcDb2dVertex
 10
260.028076171875
 20
1061.473250887058
 30
0.0
  0
VERTEX
  5
416
330
3C5
100
AcDbEntity
  8
E9127
100
AcDbVertex
100
AcDb2dVertex
 10
260.13671875
 20
1061.520858308933
 30
0.0
  0
VERTEX
  5
417
330
3C5
100
AcDbEntity
  8
E9127
100
AcDbVertex
100
AcDb2dVertex
 10
260.242919921875
 20
1061.570907137058
 30
0.0
  0
VERTEX
  5
418
330
3C5
100
AcDbEntity
  8
E9127
100
AcDbVertex
100
AcDb2dVertex
 10
260.3466796875
 20
1061.623397371433
 30
0.0
  0
VERTEX
  5
419
330
3C5
100
AcDbEntity
  8
E9127
100
AcDbVertex
100
AcDb2dVertex
 10
260.447998046875
 20
1061.678329012058
 30
0.0
  0
VERTEX
  5
41A
330
3C5
100
AcDbEntity
  8
E9127
100
AcDbVertex
100
AcDb2dVertex
 10
260.546875
 20
1061.735702058933
 30
0.0
  0
VERTEX
  5
41B
330
3C5
100
AcDbEntity
  8
E9127
100
AcDbVertex
100
AcDb2dVertex
 10
260.643310546875
 20
1061.795516512058
 30
0.0
  0
VERTEX
  5
41C
330
3C5
100
AcDbEntity
  8
E9127
100
AcDbVertex
100
AcDb2dVertex
 10
260.7373046875
 20
1061.857772371433
 30
0.0
  0
VERTEX
  5
41D
330
3C5
100
AcDbEntity
  8
E9127
100
AcDbVertex
100
AcDb2dVertex
 10
260.828857421875
 20
1061.922469637058
 30
0.0
  0
VERTEX
  5
41E
330
3C5
100
AcDbEntity
  8
E9127
100
AcDbVertex
100
AcDb2dVertex
 10
260.91796875
 20
1061.989608308933
 30
0.0
  0
VERTEX
  5
41F
330
3C5
100
AcDbEntity
  8
E9127
100
AcDbVertex
100
AcDb2dVertex
 10
261.004638671875
 20
1062.059188387058
 30
0.0
  0
VERTEX
  5
420
330
3C5
100
AcDbEntity
  8
E9127
100
AcDbVertex
100
AcDb2dVertex
 10
261.0888671875
 20
1062.131209871433
 30
0.0
  0
VERTEX
  5
421
330
3C5
100
AcDbEntity
  8
E9127
100
AcDbVertex
100
AcDb2dVertex
 10
261.170654296875
 20
1062.205672762058
 30
0.0
  0
VERTEX
  5
422
330
3C5
100
AcDbEntity
  8
E9127
100
AcDbVertex
100
AcDb2dVertex
 10
261.25
 20
1062.282577058933
 30
0.0
  0
VERTEX
  5
423
330
3C5
100
AcDbEntity
  8
E9127
100
AcDbVertex
100
AcDb2dVertex
 10
261.326904296875
 20
1062.361922762058
 30
0.0
  0
VERTEX
  5
424
330
3C5
100
AcDbEntity
  8
E9127
100
AcDbVertex
100
AcDb2dVertex
 10
261.4013671875
 20
1062.443709871433
 30
0.0
  0
VERTEX
  5
425
330
3C5
100
AcDbEntity
  8
E9127
100
AcDbVertex
100
AcDb2dVertex
 10
261.473388671875
 20
1062.527938387058
 30
0.0
  0
VERTEX
  5
426
330
3C5
100
AcDbEntity
  8
E9127
100
AcDbVertex
100
AcDb2dVertex
 10
261.54296875
 20
1062.614608308933
 30
0.0
  0
VERTEX
  5
427
330
3C5
100
AcDbEntity
  8
E9127
100
AcDbVertex
100
AcDb2dVertex
 10
261.610107421875
 20
1062.703719637058
 30
0.0
  0
VERTEX
  5
428
330
3C5
100
AcDbEntity
  8
E9127
100
AcDbVertex
100
AcDb2dVertex
 10
261.6748046875
 20
1062.795272371433
 30
0.0
  0
VERTEX
  5
429
330
3C5
100
AcDbEntity
  8
E9127
100
AcDbVertex
100
AcDb2dVertex
 10
261.737060546875
 20
1062.889266512058
 30
0.0
  0
VERTEX
  5
42A
330
3C5
100
AcDbEntity
  8
E9127
100
AcDbVertex
100
AcDb2dVertex
 10
261.796875
 20
1062.985702058933
 30
0.0
  0
VERTEX
  5
42B
330
3C5
100
AcDbEntity
  8
E9127
100
AcDbVertex
100
AcDb2dVertex
 10
261.854248046875
 20
1063.084579012058
 30
0.0
  0
VERTEX
  5
42C
330
3C5
100
AcDbEntity
  8
E9127
100
AcDbVertex
100
AcDb2dVertex
 10
261.9091796875
 20
1063.185897371433
 30
0.0
  0
VERTEX
  5
42D
330
3C5
100
AcDbEntity
  8
E9127
100
AcDbVertex
100
AcDb2dVertex
 10
261.961669921875
 20
1063.289657137058
 30
0.0
  0
VERTEX
  5
42E
330
3C5
100
AcDbEntity
  8
E9127
100
AcDbVertex
100
AcDb2dVertex
 10
262.01171875
 20
1063.395858308933
 30
0.0
  0
VERTEX
  5
42F
330
3C5
100
AcDbEntity
  8
E9127
100
AcDbVertex
100
AcDb2dVertex
 10
262.059326171875
 20
1063.504500887058
 30
0.0
  0
VERTEX
  5
430
330
3C5
100
AcDbEntity
  8
E9127
100
AcDbVertex
100
AcDb2dVertex
 10
262.1044921875
 20
1063.615584871433
 30
0.0
  0
VERTEX
  5
431
330
3C5
100
AcDbEntity
  8
E9127
100
AcDbVertex
100
AcDb2dVertex
 10
262.147216796875
 20
1063.729110262058
 30
0.0
  0
VERTEX
  5
432
330
3C5
100
AcDbEntity
  8
E9127
100
AcDbVertex
100
AcDb2dVertex
 10
262.1875
 20
1063.845077058933
 30
0.0
  0
VERTEX
  5
433
330
3C5
100
AcDbEntity
  8
E9127
100
AcDbVertex
100
AcDb2dVertex
 10
262.225341796875
 20
1063.963485262058
 30
0.0
  0
VERTEX
  5
434
330
3C5
100
AcDbEntity
  8
E9127
100
AcDbVertex
100
AcDb2dVertex
 10
262.2607421875
 20
1064.084334871433
 30
0.0
  0
VERTEX
  5
435
330
3C5
100
AcDbEntity
  8
E9127
100
AcDbVertex
100
AcDb2dVertex
 10
262.293701171875
 20
1064.207625887058
 30
0.0
  0
VERTEX
  5
436
330
3C5
100
AcDbEntity
  8
E9127
100
AcDbVertex
100
AcDb2dVertex
 10
262.32421875
 20
1064.333358308933
 30
0.0
  0
VERTEX
  5
437
330
3C5
100
AcDbEntity
  8
E9127
100
AcDbVertex
100
AcDb2dVertex
 10
262.352294921875
 20
1064.461532137058
 30
0.0
  0
VERTEX
  5
438
330
3C5
100
AcDbEntity
  8
E9127
100
AcDbVertex
100
AcDb2dVertex
 10
262.3779296875
 20
1064.592147371433
 30
0.0
  0
VERTEX
  5
439
330
3C5
100
AcDbEntity
  8
E9127
100
AcDbVertex
100
AcDb2dVertex
 10
262.401123046875
 20
1064.725204012058
 30
0.0
  0
VERTEX
  5
43A
330
3C5
100
AcDbEntity
  8
E9127
100
AcDbVertex
100
AcDb2dVertex
 10
262.421875
 20
1064.860702058933
 30
0.0
  0
VERTEX
  5
43B
330
3C5
100
AcDbEntity
  8
E9127
100
AcDbVertex
100
AcDb2dVertex
 10
262.440185546875
 20
1064.998641512058
 30
0.0
  0
VERTEX
  5
43C
330
3C5
100
AcDbEntity
  8
E9127
100
AcDbVertex
100
AcDb2dVertex
 10
262.4560546875
 20
1065.139022371433
 30
0.0
  0
VERTEX
  5
43D
330
3C5
100
AcDbEntity
  8
E9127
100
AcDbVertex
100
AcDb2dVertex
 10
262.469482421875
 20
1065.281844637058
 30
0.0
  0
VERTEX
  5
43E
330
3C5
100
AcDbEntity
  8
E9127
100
AcDbVertex
100
AcDb2dVertex
 10
262.48046875
 20
1065.427108308933
 30
0.0
  0
VERTEX
  5
43F
330
3C5
100
AcDbEntity
  8
E9127
100
AcDbVertex
100
AcDb2dVertex
 10
262.4951171875
 20
1065.724959871433
 30
0.0
  0
VERTEX
  5
440
330
3C5
100
AcDbEntity
  8
E9127
100
AcDbVertex
100
AcDb2dVertex
 10
262.5
 20
1066.032577058933
 30
0.0
  0
VERTEX
  5
441
330
3C5
100
AcDbEntity
  8
E9127
100
AcDbVertex
100
AcDb2dVertex
 10
262.5
 20
1068.532660114075
 30
0.0
  0
SEQEND
  5
442
330
3C5
100
AcDbEntity
  8
E9127
  0
POLYLINE
  5
443
330
1F
100
AcDbEntity
  8
E9127
100
AcDb2dPolyline
 66
     1
 10
0.0
 20
0.0
 30
0.0
  0
VERTEX
  5
444
330
443
100
AcDbEntity
  8
E9127
100
AcDbVertex
100
AcDb2dVertex
 10
113.4999999999999
 20
1114.532577058933
 30
0.0
  0
VERTEX
  5
445
330
443
100
AcDbEntity
  8
E9127
100
AcDbVertex
100
AcDb2dVertex
 10
113.4999999999999
 20
1117.032577058933
 30
0.0
  0
VERTEX
  5
446
330
443
100
AcDbEntity
  8
E9127
100
AcDbVertex
100
AcDb2dVertex
 10
113.4951171874999
 20
1117.340194246433
 30
0.0
  0
VERTEX
  5
447
330
443
100
AcDbEntity
  8
E9127
100
AcDbVertex
100
AcDb2dVertex
 10
113.4804687499999
 20
1117.638045808933
 30
0.0
  0
VERTEX
  5
448
330
443
100
AcDbEntity
  8
E9127
100
AcDbVertex
100
AcDb2dVertex
 10
113.4694824218749
 20
1117.783309480808
 30
0.0
  0
VERTEX
  5
449
330
443
100
AcDbEntity
  8
E9127
100
AcDbVertex
100
AcDb2dVertex
 10
113.4560546874999
 20
1117.926131746433
 30
0.0
  0
VERTEX
  5
44A
330
443
100
AcDbEntity
  8
E9127
100
AcDbVertex
100
AcDb2dVertex
 10
113.4401855468749
 20
1118.066512605808
 30
0.0
  0
VERTEX
  5
44B
330
443
100
AcDbEntity
  8
E9127
100
AcDbVertex
100
AcDb2dVertex
 10
113.4218749999999
 20
1118.204452058933
 30
0.0
  0
VERTEX
  5
44C
330
443
100
AcDbEntity
  8
E9127
100
AcDbVertex
100
AcDb2dVertex
 10
113.4011230468749
 20
1118.339950105808
 30
0.0
  0
VERTEX
  5
44D
330
443
100
AcDbEntity
  8
E9127
100
AcDbVertex
100
AcDb2dVertex
 10
113.3779296874999
 20
1118.473006746433
 30
0.0
  0
VERTEX
  5
44E
330
443
100
AcDbEntity
  8
E9127
100
AcDbVertex
100
AcDb2dVertex
 10
113.3522949218749
 20
1118.603621980808
 30
0.0
  0
VERTEX
  5
44F
330
443
100
AcDbEntity
  8
E9127
100
AcDbVertex
100
AcDb2dVertex
 10
113.3242187499999
 20
1118.731795808933
 30
0.0
  0
VERTEX
  5
450
330
443
100
AcDbEntity
  8
E9127
100
AcDbVertex
100
AcDb2dVertex
 10
113.2937011718749
 20
1118.857528230808
 30
0.0
  0
VERTEX
  5
451
330
443
100
AcDbEntity
  8
E9127
100
AcDbVertex
100
AcDb2dVertex
 10
113.2607421874999
 20
1118.980819246433
 30
0.0
  0
VERTEX
  5
452
330
443
100
AcDbEntity
  8
E9127
100
AcDbVertex
100
AcDb2dVertex
 10
113.2253417968749
 20
1119.101668855808
 30
0.0
  0
VERTEX
  5
453
330
443
100
AcDbEntity
  8
E9127
100
AcDbVertex
100
AcDb2dVertex
 10
113.1874999999999
 20
1119.220077058933
 30
0.0
  0
VERTEX
  5
454
330
443
100
AcDbEntity
  8
E9127
100
AcDbVertex
100
AcDb2dVertex
 10
113.1472167968749
 20
1119.336043855808
 30
0.0
  0
VERTEX
  5
455
330
443
100
AcDbEntity
  8
E9127
100
AcDbVertex
100
AcDb2dVertex
 10
113.1044921874999
 20
1119.449569246433
 30
0.0
  0
VERTEX
  5
456
330
443
100
AcDbEntity
  8
E9127
100
AcDbVertex
100
AcDb2dVertex
 10
113.0593261718749
 20
1119.560653230808
 30
0.0
  0
VERTEX
  5
457
330
443
100
AcDbEntity
  8
E9127
100
AcDbVertex
100
AcDb2dVertex
 10
113.0117187499999
 20
1119.669295808933
 30
0.0
  0
VERTEX
  5
458
330
443
100
AcDbEntity
  8
E9127
100
AcDbVertex
100
AcDb2dVertex
 10
112.9616699218749
 20
1119.775496980808
 30
0.0
  0
VERTEX
  5
459
330
443
100
AcDbEntity
  8
E9127
100
AcDbVertex
100
AcDb2dVertex
 10
112.9091796874999
 20
1119.879256746433
 30
0.0
  0
VERTEX
  5
45A
330
443
100
AcDbEntity
  8
E9127
100
AcDbVertex
100
AcDb2dVertex
 10
112.8542480468749
 20
1119.980575105808
 30
0.0
  0
VERTEX
  5
45B
330
443
100
AcDbEntity
  8
E9127
100
AcDbVertex
100
AcDb2dVertex
 10
112.7968749999999
 20
1120.079452058933
 30
0.0
  0
VERTEX
  5
45C
330
443
100
AcDbEntity
  8
E9127
100
AcDbVertex
100
AcDb2dVertex
 10
112.7370605468749
 20
1120.175887605808
 30
0.0
  0
VERTEX
  5
45D
330
443
100
AcDbEntity
  8
E9127
100
AcDbVertex
100
AcDb2dVertex
 10
112.6748046874999
 20
1120.269881746433
 30
0.0
  0
VERTEX
  5
45E
330
443
100
AcDbEntity
  8
E9127
100
AcDbVertex
100
AcDb2dVertex
 10
112.6101074218749
 20
1120.361434480808
 30
0.0
  0
VERTEX
  5
45F
330
443
100
AcDbEntity
  8
E9127
100
AcDbVertex
100
AcDb2dVertex
 10
112.5429687499999
 20
1120.450545808933
 30
0.0
  0
VERTEX
  5
460
330
443
100
AcDbEntity
  8
E9127
100
AcDbVertex
100
AcDb2dVertex
 10
112.4733886718749
 20
1120.537215730808
 30
0.0
  0
VERTEX
  5
461
330
443
100
AcDbEntity
  8
E9127
100
AcDbVertex
100
AcDb2dVertex
 10
112.4013671874999
 20
1120.621444246433
 30
0.0
  0
VERTEX
  5
462
330
443
100
AcDbEntity
  8
E9127
100
AcDbVertex
100
AcDb2dVertex
 10
112.3269042968749
 20
1120.703231355808
 30
0.0
  0
VERTEX
  5
463
330
443
100
AcDbEntity
  8
E9127
100
AcDbVertex
100
AcDb2dVertex
 10
112.2499999999999
 20
1120.782577058933
 30
0.0
  0
VERTEX
  5
464
330
443
100
AcDbEntity
  8
E9127
100
AcDbVertex
100
AcDb2dVertex
 10
112.1706542968749
 20
1120.859481355808
 30
0.0
  0
VERTEX
  5
465
330
443
100
AcDbEntity
  8
E9127
100
AcDbVertex
100
AcDb2dVertex
 10
112.0888671874999
 20
1120.933944246433
 30
0.0
  0
VERTEX
  5
466
330
443
100
AcDbEntity
  8
E9127
100
AcDbVertex
100
AcDb2dVertex
 10
112.0046386718749
 20
1121.005965730808
 30
0.0
  0
VERTEX
  5
467
330
443
100
AcDbEntity
  8
E9127
100
AcDbVertex
100
AcDb2dVertex
 10
111.9179687499999
 20
1121.075545808933
 30
0.0
  0
VERTEX
  5
468
330
443
100
AcDbEntity
  8
E9127
100
AcDbVertex
100
AcDb2dVertex
 10
111.8288574218749
 20
1121.142684480808
 30
0.0
  0
VERTEX
  5
469
330
443
100
AcDbEntity
  8
E9127
100
AcDbVertex
100
AcDb2dVertex
 10
111.7373046874999
 20
1121.207381746433
 30
0.0
  0
VERTEX
  5
46A
330
443
100
AcDbEntity
  8
E9127
100
AcDbVertex
100
AcDb2dVertex
 10
111.6433105468749
 20
1121.269637605808
 30
0.0
  0
VERTEX
  5
46B
330
443
100
AcDbEntity
  8
E9127
100
AcDbVertex
100
AcDb2dVertex
 10
111.5468749999999
 20
1121.329452058933
 30
0.0
  0
VERTEX
  5
46C
330
443
100
AcDbEntity
  8
E9127
100
AcDbVertex
100
AcDb2dVertex
 10
111.4479980468749
 20
1121.386825105808
 30
0.0
  0
VERTEX
  5
46D
330
443
100
AcDbEntity
  8
E9127
100
AcDbVertex
100
AcDb2dVertex
 10
111.3466796874999
 20
1121.441756746433
 30
0.0
  0
VERTEX
  5
46E
330
443
100
AcDbEntity
  8
E9127
100
AcDbVertex
100
AcDb2dVertex
 10
111.2429199218749
 20
1121.494246980808
 30
0.0
  0
VERTEX
  5
46F
330
443
100
AcDbEntity
  8
E9127
100
AcDbVertex
100
AcDb2dVertex
 10
111.1367187499999
 20
1121.544295808933
 30
0.0
  0
VERTEX
  5
470
330
443
100
AcDbEntity
  8
E9127
100
AcDbVertex
100
AcDb2dVertex
 10
111.0280761718749
 20
1121.591903230808
 30
0.0
  0
VERTEX
  5
471
330
443
100
AcDbEntity
  8
E9127
100
AcDbVertex
100
AcDb2dVertex
 10
110.9169921874999
 20
1121.637069246433
 30
0.0
  0
VERTEX
  5
472
330
443
100
AcDbEntity
  8
E9127
100
AcDbVertex
100
AcDb2dVertex
 10
110.8034667968749
 20
1121.679793855808
 30
0.0
  0
VERTEX
  5
473
330
443
100
AcDbEntity
  8
E9127
100
AcDbVertex
100
AcDb2dVertex
 10
110.6874999999999
 20
1121.720077058933
 30
0.0
  0
VERTEX
  5
474
330
443
100
AcDbEntity
  8
E9127
100
AcDbVertex
100
AcDb2dVertex
 10
110.5690917968749
 20
1121.757918855808
 30
0.0
  0
VERTEX
  5
475
330
443
100
AcDbEntity
  8
E9127
100
AcDbVertex
100
AcDb2dVertex
 10
110.4482421874999
 20
1121.793319246433
 30
0.0
  0
VERTEX
  5
476
330
443
100
AcDbEntity
  8
E9127
100
AcDbVertex
100
AcDb2dVertex
 10
110.3249511718749
 20
1121.826278230808
 30
0.0
  0
VERTEX
  5
477
330
443
100
AcDbEntity
  8
E9127
100
AcDbVertex
100
AcDb2dVertex
 10
110.1992187499999
 20
1121.856795808933
 30
0.0
  0
VERTEX
  5
478
330
443
100
AcDbEntity
  8
E9127
100
AcDbVertex
100
AcDb2dVertex
 10
110.0710449218749
 20
1121.884871980808
 30
0.0
  0
VERTEX
  5
479
330
443
100
AcDbEntity
  8
E9127
100
AcDbVertex
100
AcDb2dVertex
 10
109.9404296874999
 20
1121.910506746433
 30
0.0
  0
VERTEX
  5
47A
330
443
100
AcDbEntity
  8
E9127
100
AcDbVertex
100
AcDb2dVertex
 10
109.8073730468749
 20
1121.933700105808
 30
0.0
  0
VERTEX
  5
47B
330
443
100
AcDbEntity
  8
E9127
100
AcDbVertex
100
AcDb2dVertex
 10
109.6718749999999
 20
1121.954452058933
 30
0.0
  0
VERTEX
  5
47C
330
443
100
AcDbEntity
  8
E9127
100
AcDbVertex
100
AcDb2dVertex
 10
109.5339355468749
 20
1121.972762605808
 30
0.0
  0
VERTEX
  5
47D
330
443
100
AcDbEntity
  8
E9127
100
AcDbVertex
100
AcDb2dVertex
 10
109.3935546874999
 20
1121.988631746433
 30
0.0
  0
VERTEX
  5
47E
330
443
100
AcDbEntity
  8
E9127
100
AcDbVertex
100
AcDb2dVertex
 10
109.2507324218749
 20
1122.002059480808
 30
0.0
  0
VERTEX
  5
47F
330
443
100
AcDbEntity
  8
E9127
100
AcDbVertex
100
AcDb2dVertex
 10
109.1054687499999
 20
1122.013045808933
 30
0.0
  0
VERTEX
  5
480
330
443
100
AcDbEntity
  8
E9127
100
AcDbVertex
100
AcDb2dVertex
 10
108.8076171874999
 20
1122.027694246433
 30
0.0
  0
VERTEX
  5
481
330
443
100
AcDbEntity
  8
E9127
100
AcDbVertex
100
AcDb2dVertex
 10
108.4999999999999
 20
1122.032577058933
 30
0.0
  0
VERTEX
  5
482
330
443
100
AcDbEntity
  8
E9127
100
AcDbVertex
100
AcDb2dVertex
 10
57.49999999999986
 20
1122.032577058933
 30
0.0
  0
VERTEX
  5
483
330
443
100
AcDbEntity
  8
E9127
100
AcDbVertex
100
AcDb2dVertex
 10
57.19238281249986
 20
1122.027694246433
 30
0.0
  0
VERTEX
  5
484
330
443
100
AcDbEntity
  8
E9127
100
AcDbVertex
100
AcDb2dVertex
 10
56.89453124999986
 20
1122.013045808933
 30
0.0
  0
VERTEX
  5
485
330
443
100
AcDbEntity
  8
E9127
100
AcDbVertex
100
AcDb2dVertex
 10
56.74926757812486
 20
1122.002059480808
 30
0.0
  0
VERTEX
  5
486
330
443
100
AcDbEntity
  8
E9127
100
AcDbVertex
100
AcDb2dVertex
 10
56.60644531249986
 20
1121.988631746433
 30
0.0
  0
VERTEX
  5
487
330
443
100
AcDbEntity
  8
E9127
100
AcDbVertex
100
AcDb2dVertex
 10
56.46606445312486
 20
1121.972762605808
 30
0.0
  0
VERTEX
  5
488
330
443
100
AcDbEntity
  8
E9127
100
AcDbVertex
100
AcDb2dVertex
 10
56.32812499999986
 20
1121.954452058933
 30
0.0
  0
VERTEX
  5
489
330
443
100
AcDbEntity
  8
E9127
100
AcDbVertex
100
AcDb2dVertex
 10
56.19262695312486
 20
1121.933700105808
 30
0.0
  0
VERTEX
  5
48A
330
443
100
AcDbEntity
  8
E9127
100
AcDbVertex
100
AcDb2dVertex
 10
56.05957031249986
 20
1121.910506746433
 30
0.0
  0
VERTEX
  5
48B
330
443
100
AcDbEntity
  8
E9127
100
AcDbVertex
100
AcDb2dVertex
 10
55.92895507812486
 20
1121.884871980808
 30
0.0
  0
VERTEX
  5
48C
330
443
100
AcDbEntity
  8
E9127
100
AcDbVertex
100
AcDb2dVertex
 10
55.80078124999986
 20
1121.856795808933
 30
0.0
  0
VERTEX
  5
48D
330
443
100
AcDbEntity
  8
E9127
100
AcDbVertex
100
AcDb2dVertex
 10
55.67504882812486
 20
1121.826278230808
 30
0.0
  0
VERTEX
  5
48E
330
443
100
AcDbEntity
  8
E9127
100
AcDbVertex
100
AcDb2dVertex
 10
55.55175781249986
 20
1121.793319246433
 30
0.0
  0
VERTEX
  5
48F
330
443
100
AcDbEntity
  8
E9127
100
AcDbVertex
100
AcDb2dVertex
 10
55.43090820312486
 20
1121.757918855808
 30
0.0
  0
VERTEX
  5
490
330
443
100
AcDbEntity
  8
E9127
100
AcDbVertex
100
AcDb2dVertex
 10
55.31249999999986
 20
1121.720077058933
 30
0.0
  0
VERTEX
  5
491
330
443
100
AcDbEntity
  8
E9127
100
AcDbVertex
100
AcDb2dVertex
 10
55.19653320312486
 20
1121.679793855808
 30
0.0
  0
VERTEX
  5
492
330
443
100
AcDbEntity
  8
E9127
100
AcDbVertex
100
AcDb2dVertex
 10
55.08300781249986
 20
1121.637069246433
 30
0.0
  0
VERTEX
  5
493
330
443
100
AcDbEntity
  8
E9127
100
AcDbVertex
100
AcDb2dVertex
 10
54.97192382812486
 20
1121.591903230808
 30
0.0
  0
VERTEX
  5
494
330
443
100
AcDbEntity
  8
E9127
100
AcDbVertex
100
AcDb2dVertex
 10
54.86328124999986
 20
1121.544295808933
 30
0.0
  0
VERTEX
  5
495
330
443
100
AcDbEntity
  8
E9127
100
AcDbVertex
100
AcDb2dVertex
 10
54.75708007812486
 20
1121.494246980808
 30
0.0
  0
VERTEX
  5
496
330
443
100
AcDbEntity
  8
E9127
100
AcDbVertex
100
AcDb2dVertex
 10
54.65332031249986
 20
1121.441756746433
 30
0.0
  0
VERTEX
  5
497
330
443
100
AcDbEntity
  8
E9127
100
AcDbVertex
100
AcDb2dVertex
 10
54.55200195312486
 20
1121.386825105808
 30
0.0
  0
VERTEX
  5
498
330
443
100
AcDbEntity
  8
E9127
100
AcDbVertex
100
AcDb2dVertex
 10
54.45312499999986
 20
1121.329452058933
 30
0.0
  0
VERTEX
  5
499
330
443
100
AcDbEntity
  8
E9127
100
AcDbVertex
100
AcDb2dVertex
 10
54.35668945312486
 20
1121.269637605808
 30
0.0
  0
VERTEX
  5
49A
330
443
100
AcDbEntity
  8
E9127
100
AcDbVertex
100
AcDb2dVertex
 10
54.26269531249986
 20
1121.207381746433
 30
0.0
  0
VERTEX
  5
49B
330
443
100
AcDbEntity
  8
E9127
100
AcDbVertex
100
AcDb2dVertex
 10
54.17114257812486
 20
1121.142684480808
 30
0.0
  0
VERTEX
  5
49C
330
443
100
AcDbEntity
  8
E9127
100
AcDbVertex
100
AcDb2dVertex
 10
54.08203124999986
 20
1121.075545808933
 30
0.0
  0
VERTEX
  5
49D
330
443
100
AcDbEntity
  8
E9127
100
AcDbVertex
100
AcDb2dVertex
 10
53.99536132812486
 20
1121.005965730808
 30
0.0
  0
VERTEX
  5
49E
330
443
100
AcDbEntity
  8
E9127
100
AcDbVertex
100
AcDb2dVertex
 10
53.91113281249986
 20
1120.933944246433
 30
0.0
  0
VERTEX
  5
49F
330
443
100
AcDbEntity
  8
E9127
100
AcDbVertex
100
AcDb2dVertex
 10
53.82934570312486
 20
1120.859481355808
 30
0.0
  0
VERTEX
  5
4A0
330
443
100
AcDbEntity
  8
E9127
100
AcDbVertex
100
AcDb2dVertex
 10
53.74999999999986
 20
1120.782577058933
 30
0.0
  0
VERTEX
  5
4A1
330
443
100
AcDbEntity
  8
E9127
100
AcDbVertex
100
AcDb2dVertex
 10
53.67309570312486
 20
1120.703231355808
 30
0.0
  0
VERTEX
  5
4A2
330
443
100
AcDbEntity
  8
E9127
100
AcDbVertex
100
AcDb2dVertex
 10
53.59863281249986
 20
1120.621444246433
 30
0.0
  0
VERTEX
  5
4A3
330
443
100
AcDbEntity
  8
E9127
100
AcDbVertex
100
AcDb2dVertex
 10
53.52661132812486
 20
1120.537215730808
 30
0.0
  0
VERTEX
  5
4A4
330
443
100
AcDbEntity
  8
E9127
100
AcDbVertex
100
AcDb2dVertex
 10
53.45703124999986
 20
1120.450545808933
 30
0.0
  0
VERTEX
  5
4A5
330
443
100
AcDbEntity
  8
E9127
100
AcDbVertex
100
AcDb2dVertex
 10
53.38989257812486
 20
1120.361434480808
 30
0.0
  0
VERTEX
  5
4A6
330
443
100
AcDbEntity
  8
E9127
100
AcDbVertex
100
AcDb2dVertex
 10
53.32519531249986
 20
1120.269881746433
 30
0.0
  0
VERTEX
  5
4A7
330
443
100
AcDbEntity
  8
E9127
100
AcDbVertex
100
AcDb2dVertex
 10
53.26293945312486
 20
1120.175887605808
 30
0.0
  0
VERTEX
  5
4A8
330
443
100
AcDbEntity
  8
E9127
100
AcDbVertex
100
AcDb2dVertex
 10
53.20312499999986
 20
1120.079452058933
 30
0.0
  0
VERTEX
  5
4A9
330
443
100
AcDbEntity
  8
E9127
100
AcDbVertex
100
AcDb2dVertex
 10
53.14575195312486
 20
1119.980575105808
 30
0.0
  0
VERTEX
  5
4AA
330
443
100
AcDbEntity
  8
E9127
100
AcDbVertex
100
AcDb2dVertex
 10
53.09082031249986
 20
1119.879256746433
 30
0.0
  0
VERTEX
  5
4AB
330
443
100
AcDbEntity
  8
E9127
100
AcDbVertex
100
AcDb2dVertex
 10
53.03833007812486
 20
1119.775496980808
 30
0.0
  0
VERTEX
  5
4AC
330
443
100
AcDbEntity
  8
E9127
100
AcDbVertex
100
AcDb2dVertex
 10
52.98828124999986
 20
1119.669295808933
 30
0.0
  0
VERTEX
  5
4AD
330
443
100
AcDbEntity
  8
E9127
100
AcDbVertex
100
AcDb2dVertex
 10
52.94067382812486
 20
1119.560653230808
 30
0.0
  0
VERTEX
  5
4AE
330
443
100
AcDbEntity
  8
E9127
100
AcDbVertex
100
AcDb2dVertex
 10
52.89550781249986
 20
1119.449569246433
 30
0.0
  0
VERTEX
  5
4AF
330
443
100
AcDbEntity
  8
E9127
100
AcDbVertex
100
AcDb2dVertex
 10
52.85278320312486
 20
1119.336043855808
 30
0.0
  0
VERTEX
  5
4B0
330
443
100
AcDbEntity
  8
E9127
100
AcDbVertex
100
AcDb2dVertex
 10
52.81249999999986
 20
1119.220077058933
 30
0.0
  0
VERTEX
  5
4B1
330
443
100
AcDbEntity
  8
E9127
100
AcDbVertex
100
AcDb2dVertex
 10
52.77465820312486
 20
1119.101668855808
 30
0.0
  0
VERTEX
  5
4B2
330
443
100
AcDbEntity
  8
E9127
100
AcDbVertex
100
AcDb2dVertex
 10
52.73925781249986
 20
1118.980819246433
 30
0.0
  0
VERTEX
  5
4B3
330
443
100
AcDbEntity
  8
E9127
100
AcDbVertex
100
AcDb2dVertex
 10
52.70629882812486
 20
1118.857528230808
 30
0.0
  0
VERTEX
  5
4B4
330
443
100
AcDbEntity
  8
E9127
100
AcDbVertex
100
AcDb2dVertex
 10
52.67578124999986
 20
1118.731795808933
 30
0.0
  0
VERTEX
  5
4B5
330
443
100
AcDbEntity
  8
E9127
100
AcDbVertex
100
AcDb2dVertex
 10
52.64770507812486
 20
1118.603621980808
 30
0.0
  0
VERTEX
  5
4B6
330
443
100
AcDbEntity
  8
E9127
100
AcDbVertex
100
AcDb2dVertex
 10
52.62207031249986
 20
1118.473006746433
 30
0.0
  0
VERTEX
  5
4B7
330
443
100
AcDbEntity
  8
E9127
100
AcDbVertex
100
AcDb2dVertex
 10
52.59887695312486
 20
1118.339950105808
 30
0.0
  0
VERTEX
  5
4B8
330
443
100
AcDbEntity
  8
E9127
100
AcDbVertex
100
AcDb2dVertex
 10
52.57812499999986
 20
1118.204452058933
 30
0.0
  0
VERTEX
  5
4B9
330
443
100
AcDbEntity
  8
E9127
100
AcDbVertex
100
AcDb2dVertex
 10
52.55981445312486
 20
1118.066512605808
 30
0.0
  0
VERTEX
  5
4BA
330
443
100
AcDbEntity
  8
E9127
100
AcDbVertex
100
AcDb2dVertex
 10
52.54394531249986
 20
1117.926131746433
 30
0.0
  0
VERTEX
  5
4BB
330
443
100
AcDbEntity
  8
E9127
100
AcDbVertex
100
AcDb2dVertex
 10
52.53051757812486
 20
1117.783309480808
 30
0.0
  0
VERTEX
  5
4BC
330
443
100
AcDbEntity
  8
E9127
100
AcDbVertex
100
AcDb2dVertex
 10
52.51953124999986
 20
1117.638045808933
 30
0.0
  0
VERTEX
  5
4BD
330
443
100
AcDbEntity
  8
E9127
100
AcDbVertex
100
AcDb2dVertex
 10
52.50488281249986
 20
1117.340194246433
 30
0.0
  0
VERTEX
  5
4BE
330
443
100
AcDbEntity
  8
E9127
100
AcDbVertex
100
AcDb2dVertex
 10
52.49999999999986
 20
1117.032577058933
 30
0.0
  0
VERTEX
  5
4BF
330
443
100
AcDbEntity
  8
E9127
100
AcDbVertex
100
AcDb2dVertex
 10
52.49999999999985
 20
1114.532577058933
 30
0.0
  0
SEQEND
  5
4C0
330
443
100
AcDbEntity
  8
E9127
  0
POLYLINE
  5
4C1
330
1F
100
AcDbEntity
  8
E9127
100
AcDb2dPolyline
 66
     1
 10
0.0
 20
0.0
 30
0.0
  0
VERTEX
  5
4C2
330
4C1
100
AcDbEntity
  8
E9127
100
AcDbVertex
100
AcDb2dVertex
 10
201.5
 20
1114.532577058933
 30
0.0
  0
VERTEX
  5
4C3
330
4C1
100
AcDbEntity
  8
E9127
100
AcDbVertex
100
AcDb2dVertex
 10
201.5
 20
1117.032577058933
 30
0.0
  0
VERTEX
  5
4C4
330
4C1
100
AcDbEntity
  8
E9127
100
AcDbVertex
100
AcDb2dVertex
 10
201.5048828125
 20
1117.340194246433
 30
0.0
  0
VERTEX
  5
4C5
330
4C1
100
AcDbEntity
  8
E9127
100
AcDbVertex
100
AcDb2dVertex
 10
201.51953125
 20
1117.638045808933
 30
0.0
  0
VERTEX
  5
4C6
330
4C1
100
AcDbEntity
  8
E9127
100
AcDbVertex
100
AcDb2dVertex
 10
201.530517578125
 20
1117.783309480808
 30
0.0
  0
VERTEX
  5
4C7
330
4C1
100
AcDbEntity
  8
E9127
100
AcDbVertex
100
AcDb2dVertex
 10
201.5439453125
 20
1117.926131746433
 30
0.0
  0
VERTEX
  5
4C8
330
4C1
100
AcDbEntity
  8
E9127
100
AcDbVertex
100
AcDb2dVertex
 10
201.559814453125
 20
1118.066512605808
 30
0.0
  0
VERTEX
  5
4C9
330
4C1
100
AcDbEntity
  8
E9127
100
AcDbVertex
100
AcDb2dVertex
 10
201.578125
 20
1118.204452058933
 30
0.0
  0
VERTEX
  5
4CA
330
4C1
100
AcDbEntity
  8
E9127
100
AcDbVertex
100
AcDb2dVertex
 10
201.598876953125
 20
1118.339950105808
 30
0.0
  0
VERTEX
  5
4CB
330
4C1
100
AcDbEntity
  8
E9127
100
AcDbVertex
100
AcDb2dVertex
 10
201.6220703125
 20
1118.473006746433
 30
0.0
  0
VERTEX
  5
4CC
330
4C1
100
AcDbEntity
  8
E9127
100
AcDbVertex
100
AcDb2dVertex
 10
201.647705078125
 20
1118.603621980808
 30
0.0
  0
VERTEX
  5
4CD
330
4C1
100
AcDbEntity
  8
E9127
100
AcDbVertex
100
AcDb2dVertex
 10
201.67578125
 20
1118.731795808933
 30
0.0
  0
VERTEX
  5
4CE
330
4C1
100
AcDbEntity
  8
E9127
100
AcDbVertex
100
AcDb2dVertex
 10
201.706298828125
 20
1118.857528230808
 30
0.0
  0
VERTEX
  5
4CF
330
4C1
100
AcDbEntity
  8
E9127
100
AcDbVertex
100
AcDb2dVertex
 10
201.7392578125
 20
1118.980819246433
 30
0.0
  0
VERTEX
  5
4D0
330
4C1
100
AcDbEntity
  8
E9127
100
AcDbVertex
100
AcDb2dVertex
 10
201.774658203125
 20
1119.101668855808
 30
0.0
  0
VERTEX
  5
4D1
330
4C1
100
AcDbEntity
  8
E9127
100
AcDbVertex
100
AcDb2dVertex
 10
201.8125
 20
1119.220077058933
 30
0.0
  0
VERTEX
  5
4D2
330
4C1
100
AcDbEntity
  8
E9127
100
AcDbVertex
100
AcDb2dVertex
 10
201.852783203125
 20
1119.336043855808
 30
0.0
  0
VERTEX
  5
4D3
330
4C1
100
AcDbEntity
  8
E9127
100
AcDbVertex
100
AcDb2dVertex
 10
201.8955078125
 20
1119.449569246433
 30
0.0
  0
VERTEX
  5
4D4
330
4C1
100
AcDbEntity
  8
E9127
100
AcDbVertex
100
AcDb2dVertex
 10
201.940673828125
 20
1119.560653230808
 30
0.0
  0
VERTEX
  5
4D5
330
4C1
100
AcDbEntity
  8
E9127
100
AcDbVertex
100
AcDb2dVertex
 10
201.98828125
 20
1119.669295808933
 30
0.0
  0
VERTEX
  5
4D6
330
4C1
100
AcDbEntity
  8
E9127
100
AcDbVertex
100
AcDb2dVertex
 10
202.038330078125
 20
1119.775496980808
 30
0.0
  0
VERTEX
  5
4D7
330
4C1
100
AcDbEntity
  8
E9127
100
AcDbVertex
100
AcDb2dVertex
 10
202.0908203125
 20
1119.879256746433
 30
0.0
  0
VERTEX
  5
4D8
330
4C1
100
AcDbEntity
  8
E9127
100
AcDbVertex
100
AcDb2dVertex
 10
202.145751953125
 20
1119.980575105808
 30
0.0
  0
VERTEX
  5
4D9
330
4C1
100
AcDbEntity
  8
E9127
100
AcDbVertex
100
AcDb2dVertex
 10
202.203125
 20
1120.079452058933
 30
0.0
  0
VERTEX
  5
4DA
330
4C1
100
AcDbEntity
  8
E9127
100
AcDbVertex
100
AcDb2dVertex
 10
202.262939453125
 20
1120.175887605808
 30
0.0
  0
VERTEX
  5
4DB
330
4C1
100
AcDbEntity
  8
E9127
100
AcDbVertex
100
AcDb2dVertex
 10
202.3251953125
 20
1120.269881746433
 30
0.0
  0
VERTEX
  5
4DC
330
4C1
100
AcDbEntity
  8
E9127
100
AcDbVertex
100
AcDb2dVertex
 10
202.389892578125
 20
1120.361434480808
 30
0.0
  0
VERTEX
  5
4DD
330
4C1
100
AcDbEntity
  8
E9127
100
AcDbVertex
100
AcDb2dVertex
 10
202.45703125
 20
1120.450545808933
 30
0.0
  0
VERTEX
  5
4DE
330
4C1
100
AcDbEntity
  8
E9127
100
AcDbVertex
100
AcDb2dVertex
 10
202.526611328125
 20
1120.537215730808
 30
0.0
  0
VERTEX
  5
4DF
330
4C1
100
AcDbEntity
  8
E9127
100
AcDbVertex
100
AcDb2dVertex
 10
202.5986328125
 20
1120.621444246433
 30
0.0
  0
VERTEX
  5
4E0
330
4C1
100
AcDbEntity
  8
E9127
100
AcDbVertex
100
AcDb2dVertex
 10
202.673095703125
 20
1120.703231355808
 30
0.0
  0
VERTEX
  5
4E1
330
4C1
100
AcDbEntity
  8
E9127
100
AcDbVertex
100
AcDb2dVertex
 10
202.75
 20
1120.782577058933
 30
0.0
  0
VERTEX
  5
4E2
330
4C1
100
AcDbEntity
  8
E9127
100
AcDbVertex
100
AcDb2dVertex
 10
202.829345703125
 20
1120.859481355808
 30
0.0
  0
VERTEX
  5
4E3
330
4C1
100
AcDbEntity
  8
E9127
100
AcDbVertex
100
AcDb2dVertex
 10
202.9111328125
 20
1120.933944246433
 30
0.0
  0
VERTEX
  5
4E4
330
4C1
100
AcDbEntity
  8
E9127
100
AcDbVertex
100
AcDb2dVertex
 10
202.995361328125
 20
1121.005965730808
 30
0.0
  0
VERTEX
  5
4E5
330
4C1
100
AcDbEntity
  8
E9127
100
AcDbVertex
100
AcDb2dVertex
 10
203.08203125
 20
1121.075545808933
 30
0.0
  0
VERTEX
  5
4E6
330
4C1
100
AcDbEntity
  8
E9127
100
AcDbVertex
100
AcDb2dVertex
 10
203.171142578125
 20
1121.142684480808
 30
0.0
  0
VERTEX
  5
4E7
330
4C1
100
AcDbEntity
  8
E9127
100
AcDbVertex
100
AcDb2dVertex
 10
203.2626953125
 20
1121.207381746433
 30
0.0
  0
VERTEX
  5
4E8
330
4C1
100
AcDbEntity
  8
E9127
100
AcDbVertex
100
AcDb2dVertex
 10
203.356689453125
 20
1121.269637605808
 30
0.0
  0
VERTEX
  5
4E9
330
4C1
100
AcDbEntity
  8
E9127
100
AcDbVertex
100
AcDb2dVertex
 10
203.453125
 20
1121.329452058933
 30
0.0
  0
VERTEX
  5
4EA
330
4C1
100
AcDbEntity
  8
E9127
100
AcDbVertex
100
AcDb2dVertex
 10
203.552001953125
 20
1121.386825105808
 30
0.0
  0
VERTEX
  5
4EB
330
4C1
100
AcDbEntity
  8
E9127
100
AcDbVertex
100
AcDb2dVertex
 10
203.6533203125
 20
1121.441756746433
 30
0.0
  0
VERTEX
  5
4EC
330
4C1
100
AcDbEntity
  8
E9127
100
AcDbVertex
100
AcDb2dVertex
 10
203.757080078125
 20
1121.494246980808
 30
0.0
  0
VERTEX
  5
4ED
330
4C1
100
AcDbEntity
  8
E9127
100
AcDbVertex
100
AcDb2dVertex
 10
203.86328125
 20
1121.544295808933
 30
0.0
  0
VERTEX
  5
4EE
330
4C1
100
AcDbEntity
  8
E9127
100
AcDbVertex
100
AcDb2dVertex
 10
203.971923828125
 20
1121.591903230808
 30
0.0
  0
VERTEX
  5
4EF
330
4C1
100
AcDbEntity
  8
E9127
100
AcDbVertex
100
AcDb2dVertex
 10
204.0830078125
 20
1121.637069246433
 30
0.0
  0
VERTEX
  5
4F0
330
4C1
100
AcDbEntity
  8
E9127
100
AcDbVertex
100
AcDb2dVertex
 10
204.196533203125
 20
1121.679793855808
 30
0.0
  0
VERTEX
  5
4F1
330
4C1
100
AcDbEntity
  8
E9127
100
AcDbVertex
100
AcDb2dVertex
 10
204.3125
 20
1121.720077058933
 30
0.0
  0
VERTEX
  5
4F2
330
4C1
100
AcDbEntity
  8
E9127
100
AcDbVertex
100
AcDb2dVertex
 10
204.430908203125
 20
1121.757918855808
 30
0.0
  0
VERTEX
  5
4F3
330
4C1
100
AcDbEntity
  8
E9127
100
AcDbVertex
100
AcDb2dVertex
 10
204.5517578125
 20
1121.793319246433
 30
0.0
  0
VERTEX
  5
4F4
330
4C1
100
AcDbEntity
  8
E9127
100
AcDbVertex
100
AcDb2dVertex
 10
204.675048828125
 20
1121.826278230808
 30
0.0
  0
VERTEX
  5
4F5
330
4C1
100
AcDbEntity
  8
E9127
100
AcDbVertex
100
AcDb2dVertex
 10
204.80078125
 20
1121.856795808933
 30
0.0
  0
VERTEX
  5
4F6
330
4C1
100
AcDbEntity
  8
E9127
100
AcDbVertex
100
AcDb2dVertex
 10
204.928955078125
 20
1121.884871980808
 30
0.0
  0
VERTEX
  5
4F7
330
4C1
100
AcDbEntity
  8
E9127
100
AcDbVertex
100
AcDb2dVertex
 10
205.0595703125
 20
1121.910506746433
 30
0.0
  0
VERTEX
  5
4F8
330
4C1
100
AcDbEntity
  8
E9127
100
AcDbVertex
100
AcDb2dVertex
 10
205.192626953125
 20
1121.933700105808
 30
0.0
  0
VERTEX
  5
4F9
330
4C1
100
AcDbEntity
  8
E9127
100
AcDbVertex
100
AcDb2dVertex
 10
205.328125
 20
1121.954452058933
 30
0.0
  0
VERTEX
  5
4FA
330
4C1
100
AcDbEntity
  8
E9127
100
AcDbVertex
100
AcDb2dVertex
 10
205.466064453125
 20
1121.972762605808
 30
0.0
  0
VERTEX
  5
4FB
330
4C1
100
AcDbEntity
  8
E9127
100
AcDbVertex
100
AcDb2dVertex
 10
205.6064453125
 20
1121.988631746433
 30
0.0
  0
VERTEX
  5
4FC
330
4C1
100
AcDbEntity
  8
E9127
100
AcDbVertex
100
AcDb2dVertex
 10
205.749267578125
 20
1122.002059480808
 30
0.0
  0
VERTEX
  5
4FD
330
4C1
100
AcDbEntity
  8
E9127
100
AcDbVertex
100
AcDb2dVertex
 10
205.89453125
 20
1122.013045808933
 30
0.0
  0
VERTEX
  5
4FE
330
4C1
100
AcDbEntity
  8
E9127
100
AcDbVertex
100
AcDb2dVertex
 10
206.1923828125
 20
1122.027694246433
 30
0.0
  0
VERTEX
  5
4FF
330
4C1
100
AcDbEntity
  8
E9127
100
AcDbVertex
100
AcDb2dVertex
 10
206.5
 20
1122.032577058933
 30
0.0
  0
VERTEX
  5
500
330
4C1
100
AcDbEntity
  8
E9127
100
AcDbVertex
100
AcDb2dVertex
 10
257.5
 20
1122.032577058933
 30
0.0
  0
VERTEX
  5
501
330
4C1
100
AcDbEntity
  8
E9127
100
AcDbVertex
100
AcDb2dVertex
 10
257.8076171875
 20
1122.027694246433
 30
0.0
  0
VERTEX
  5
502
330
4C1
100
AcDbEntity
  8
E9127
100
AcDbVertex
100
AcDb2dVertex
 10
258.10546875
 20
1122.013045808933
 30
0.0
  0
VERTEX
  5
503
330
4C1
100
AcDbEntity
  8
E9127
100
AcDbVertex
100
AcDb2dVertex
 10
258.250732421875
 20
1122.002059480808
 30
0.0
  0
VERTEX
  5
504
330
4C1
100
AcDbEntity
  8
E9127
100
AcDbVertex
100
AcDb2dVertex
 10
258.3935546875
 20
1121.988631746433
 30
0.0
  0
VERTEX
  5
505
330
4C1
100
AcDbEntity
  8
E9127
100
AcDbVertex
100
AcDb2dVertex
 10
258.533935546875
 20
1121.972762605808
 30
0.0
  0
VERTEX
  5
506
330
4C1
100
AcDbEntity
  8
E9127
100
AcDbVertex
100
AcDb2dVertex
 10
258.671875
 20
1121.954452058933
 30
0.0
  0
VERTEX
  5
507
330
4C1
100
AcDbEntity
  8
E9127
100
AcDbVertex
100
AcDb2dVertex
 10
258.807373046875
 20
1121.933700105808
 30
0.0
  0
VERTEX
  5
508
330
4C1
100
AcDbEntity
  8
E9127
100
AcDbVertex
100
AcDb2dVertex
 10
258.9404296875
 20
1121.910506746433
 30
0.0
  0
VERTEX
  5
509
330
4C1
100
AcDbEntity
  8
E9127
100
AcDbVertex
100
AcDb2dVertex
 10
259.071044921875
 20
1121.884871980808
 30
0.0
  0
VERTEX
  5
50A
330
4C1
100
AcDbEntity
  8
E9127
100
AcDbVertex
100
AcDb2dVertex
 10
259.19921875
 20
1121.856795808933
 30
0.0
  0
VERTEX
  5
50B
330
4C1
100
AcDbEntity
  8
E9127
100
AcDbVertex
100
AcDb2dVertex
 10
259.324951171875
 20
1121.826278230808
 30
0.0
  0
VERTEX
  5
50C
330
4C1
100
AcDbEntity
  8
E9127
100
AcDbVertex
100
AcDb2dVertex
 10
259.4482421875
 20
1121.793319246433
 30
0.0
  0
VERTEX
  5
50D
330
4C1
100
AcDbEntity
  8
E9127
100
AcDbVertex
100
AcDb2dVertex
 10
259.569091796875
 20
1121.757918855808
 30
0.0
  0
VERTEX
  5
50E
330
4C1
100
AcDbEntity
  8
E9127
100
AcDbVertex
100
AcDb2dVertex
 10
259.6875
 20
1121.720077058933
 30
0.0
  0
VERTEX
  5
50F
330
4C1
100
AcDbEntity
  8
E9127
100
AcDbVertex
100
AcDb2dVertex
 10
259.803466796875
 20
1121.679793855808
 30
0.0
  0
VERTEX
  5
510
330
4C1
100
AcDbEntity
  8
E9127
100
AcDbVertex
100
AcDb2dVertex
 10
259.9169921875
 20
1121.637069246433
 30
0.0
  0
VERTEX
  5
511
330
4C1
100
AcDbEntity
  8
E9127
100
AcDbVertex
100
AcDb2dVertex
 10
260.028076171875
 20
1121.591903230808
 30
0.0
  0
VERTEX
  5
512
330
4C1
100
AcDbEntity
  8
E9127
100
AcDbVertex
100
AcDb2dVertex
 10
260.13671875
 20
1121.544295808933
 30
0.0
  0
VERTEX
  5
513
330
4C1
100
AcDbEntity
  8
E9127
100
AcDbVertex
100
AcDb2dVertex
 10
260.242919921875
 20
1121.494246980808
 30
0.0
  0
VERTEX
  5
514
330
4C1
100
AcDbEntity
  8
E9127
100
AcDbVertex
100
AcDb2dVertex
 10
260.3466796875
 20
1121.441756746433
 30
0.0
  0
VERTEX
  5
515
330
4C1
100
AcDbEntity
  8
E9127
100
AcDbVertex
100
AcDb2dVertex
 10
260.447998046875
 20
1121.386825105808
 30
0.0
  0
VERTEX
  5
516
330
4C1
100
AcDbEntity
  8
E9127
100
AcDbVertex
100
AcDb2dVertex
 10
260.546875
 20
1121.329452058933
 30
0.0
  0
VERTEX
  5
517
330
4C1
100
AcDbEntity
  8
E9127
100
AcDbVertex
100
AcDb2dVertex
 10
260.643310546875
 20
1121.269637605808
 30
0.0
  0
VERTEX
  5
518
330
4C1
100
AcDbEntity
  8
E9127
100
AcDbVertex
100
AcDb2dVertex
 10
260.7373046875
 20
1121.207381746433
 30
0.0
  0
VERTEX
  5
519
330
4C1
100
AcDbEntity
  8
E9127
100
AcDbVertex
100
AcDb2dVertex
 10
260.828857421875
 20
1121.142684480808
 30
0.0
  0
VERTEX
  5
51A
330
4C1
100
AcDbEntity
  8
E9127
100
AcDbVertex
100
AcDb2dVertex
 10
260.91796875
 20
1121.075545808933
 30
0.0
  0
VERTEX
  5
51B
330
4C1
100
AcDbEntity
  8
E9127
100
AcDbVertex
100
AcDb2dVertex
 10
261.004638671875
 20
1121.005965730808
 30
0.0
  0
VERTEX
  5
51C
330
4C1
100
AcDbEntity
  8
E9127
100
AcDbVertex
100
AcDb2dVertex
 10
261.0888671875
 20
1120.933944246433
 30
0.0
  0
VERTEX
  5
51D
330
4C1
100
AcDbEntity
  8
E9127
100
AcDbVertex
100
AcDb2dVertex
 10
261.170654296875
 20
1120.859481355808
 30
0.0
  0
VERTEX
  5
51E
330
4C1
100
AcDbEntity
  8
E9127
100
AcDbVertex
100
AcDb2dVertex
 10
261.25
 20
1120.782577058933
 30
0.0
  0
VERTEX
  5
51F
330
4C1
100
AcDbEntity
  8
E9127
100
AcDbVertex
100
AcDb2dVertex
 10
261.326904296875
 20
1120.703231355808
 30
0.0
  0
VERTEX
  5
520
330
4C1
100
AcDbEntity
  8
E9127
100
AcDbVertex
100
AcDb2dVertex
 10
261.4013671875
 20
1120.621444246433
 30
0.0
  0
VERTEX
  5
521
330
4C1
100
AcDbEntity
  8
E9127
100
AcDbVertex
100
AcDb2dVertex
 10
261.473388671875
 20
1120.537215730808
 30
0.0
  0
VERTEX
  5
522
330
4C1
100
AcDbEntity
  8
E9127
100
AcDbVertex
100
AcDb2dVertex
 10
261.54296875
 20
1120.450545808933
 30
0.0
  0
VERTEX
  5
523
330
4C1
100
AcDbEntity
  8
E9127
100
AcDbVertex
100
AcDb2dVertex
 10
261.610107421875
 20
1120.361434480808
 30
0.0
  0
VERTEX
  5
524
330
4C1
100
AcDbEntity
  8
E9127
100
AcDbVertex
100
AcDb2dVertex
 10
261.6748046875
 20
1120.269881746433
 30
0.0
  0
VERTEX
  5
525
330
4C1
100
AcDbEntity
  8
E9127
100
AcDbVertex
100
AcDb2dVertex
 10
261.737060546875
 20
1120.175887605808
 30
0.0
  0
VERTEX
  5
526
330
4C1
100
AcDbEntity
  8
E9127
100
AcDbVertex
100
AcDb2dVertex
 10
261.796875
 20
1120.079452058933
 30
0.0
  0
VERTEX
  5
527
330
4C1
100
AcDbEntity
  8
E9127
100
AcDbVertex
100
AcDb2dVertex
 10
261.854248046875
 20
1119.980575105808
 30
0.0
  0
VERTEX
  5
528
330
4C1
100
AcDbEntity
  8
E9127
100
AcDbVertex
100
AcDb2dVertex
 10
261.9091796875
 20
1119.879256746433
 30
0.0
  0
VERTEX
  5
529
330
4C1
100
AcDbEntity
  8
E9127
100
AcDbVertex
100
AcDb2dVertex
 10
261.961669921875
 20
1119.775496980808
 30
0.0
  0
VERTEX
  5
52A
330
4C1
100
AcDbEntity
  8
E9127
100
AcDbVertex
100
AcDb2dVertex
 10
262.01171875
 20
1119.669295808933
 30
0.0
  0
VERTEX
  5
52B
330
4C1
100
AcDbEntity
  8
E9127
100
AcDbVertex
100
AcDb2dVertex
 10
262.059326171875
 20
1119.560653230808
 30
0.0
  0
VERTEX
  5
52C
330
4C1
100
AcDbEntity
  8
E9127
100
AcDbVertex
100
AcDb2dVertex
 10
262.1044921875
 20
1119.449569246433
 30
0.0
  0
VERTEX
  5
52D
330
4C1
100
AcDbEntity
  8
E9127
100
AcDbVertex
100
AcDb2dVertex
 10
262.147216796875
 20
1119.336043855808
 30
0.0
  0
VERTEX
  5
52E
330
4C1
100
AcDbEntity
  8
E9127
100
AcDbVertex
100
AcDb2dVertex
 10
262.1875
 20
1119.220077058933
 30
0.0
  0
VERTEX
  5
52F
330
4C1
100
AcDbEntity
  8
E9127
100
AcDbVertex
100
AcDb2dVertex
 10
262.225341796875
 20
1119.101668855808
 30
0.0
  0
VERTEX
  5
530
330
4C1
100
AcDbEntity
  8
E9127
100
AcDbVertex
100
AcDb2dVertex
 10
262.2607421875
 20
1118.980819246433
 30
0.0
  0
VERTEX
  5
531
330
4C1
100
AcDbEntity
  8
E9127
100
AcDbVertex
100
AcDb2dVertex
 10
262.293701171875
 20
1118.857528230808
 30
0.0
  0
VERTEX
  5
532
330
4C1
100
AcDbEntity
  8
E9127
100
AcDbVertex
100
AcDb2dVertex
 10
262.32421875
 20
1118.731795808933
 30
0.0
  0
VERTEX
  5
533
330
4C1
100
AcDbEntity
  8
E9127
100
AcDbVertex
100
AcDb2dVertex
 10
262.352294921875
 20
1118.603621980808
 30
0.0
  0
VERTEX
  5
534
330
4C1
100
AcDbEntity
  8
E9127
100
AcDbVertex
100
AcDb2dVertex
 10
262.3779296875
 20
1118.473006746433
 30
0.0
  0
VERTEX
  5
535
330
4C1
100
AcDbEntity
  8
E9127
100
AcDbVertex
100
AcDb2dVertex
 10
262.401123046875
 20
1118.339950105808
 30
0.0
  0
VERTEX
  5
536
330
4C1
100
AcDbEntity
  8
E9127
100
AcDbVertex
100
AcDb2dVertex
 10
262.421875
 20
1118.204452058933
 30
0.0
  0
VERTEX
  5
537
330
4C1
100
AcDbEntity
  8
E9127
100
AcDbVertex
100
AcDb2dVertex
 10
262.440185546875
 20
1118.066512605808
 30
0.0
  0
VERTEX
  5
538
330
4C1
100
AcDbEntity
  8
E9127
100
AcDbVertex
100
AcDb2dVertex
 10
262.4560546875
 20
1117.926131746433
 30
0.0
  0
VERTEX
  5
539
330
4C1
100
AcDbEntity
  8
E9127
100
AcDbVertex
100
AcDb2dVertex
 10
262.469482421875
 20
1117.783309480808
 30
0.0
  0
VERTEX
  5
53A
330
4C1
100
AcDbEntity
  8
E9127
100
AcDbVertex
100
AcDb2dVertex
 10
262.48046875
 20
1117.638045808933
 30
0.0
  0
VERTEX
  5
53B
330
4C1
100
AcDbEntity
  8
E9127
100
AcDbVertex
100
AcDb2dVertex
 10
262.4951171875
 20
1117.340194246433
 30
0.0
  0
VERTEX
  5
53C
330
4C1
100
AcDbEntity
  8
E9127
100
AcDbVertex
100
AcDb2dVertex
 10
262.5
 20
1117.032577058933
 30
0.0
  0
VERTEX
  5
53D
330
4C1
100
AcDbEntity
  8
E9127
100
AcDbVertex
100
AcDb2dVertex
 10
262.5
 20
1114.532577058933
 30
0.0
  0
SEQEND
  5
53E
330
4C1
100
AcDbEntity
  8
E9127
  0
ENDSEC
  0
SECTION
  2
OBJECTS
  0
DICTIONARY
  5
C
330
0
100
AcDbDictionary
281
     1
  3
ACAD_GROUP
350
D
  3
ACAD_LAYOUT
350
1A
  3
ACAD_MATERIAL
350
3B
  3
ACAD_MLEADERSTYLE
350
569
  3
ACAD_MLINESTYLE
350
17
  3
ACAD_PLOTSETTINGS
350
19
  3
ACAD_PLOTSTYLENAME
350
E
  3
ACAD_SCALELIST
350
3F
  3
ACAD_TABLESTYLE
350
568
  3
ACAD_VISUALSTYLE
350
2A
  3
AcDbVariableDictionary
350
53F
  0
DICTIONARY
  5
D
102
{ACAD_REACTORS
330
C
102
}
330
C
100
AcDbDictionary
281
     1
  0
DICTIONARY
  5
1A
102
{ACAD_REACTORS
330
C
102
}
330
C
100
AcDbDictionary
281
     1
  3
Layout1
350
1E
  3
Layout2
350
26
  3
Model
350
22
  0
DICTIONARY
  5
3B
102
{ACAD_REACTORS
330
C
102
}
330
C
100
AcDbDictionary
281
     1
  3
ByBlock
350
3D
  3
ByLayer
350
3C
  3
Global
350
3E
  0
DICTIONARY
  5
569
102
{ACAD_REACTORS
330
C
102
}
330
C
100
AcDbDictionary
281
     1
  0
DICTIONARY
  5
17
102
{ACAD_REACTORS
330
C
102
}
330
C
100
AcDbDictionary
281
     1
  3
Standard
350
18
  0
DICTIONARY
  5
19
102
{ACAD_REACTORS
330
C
102
}
330
C
100
AcDbDictionary
281
     1
  0
ACDBDICTIONARYWDFLT
  5
E
102
{ACAD_REACTORS
330
C
102
}
330
C
100
AcDbDictionary
281
     1
  3
Normal
350
F
100
AcDbDictionaryWithDefault
340
F
  0
DICTIONARY
  5
3F
102
{ACAD_REACTORS
330
C
102
}
330
C
100
AcDbDictionary
281
     1
  3
A0
350
40
  3
A1
350
41
  3
A2
350
42
  3
A3
350
43
  3
A4
350
44
  3
A5
350
45
  3
A6
350
46
  3
A7
350
47
  3
A8
350
48
  3
A9
350
49
  3
B0
350
4A
  3
B1
350
4B
  3
B2
350
4C
  3
B3
350
4D
  3
B4
350
4E
  3
B5
350
4F
  3
B6
350
50
  3
B7
350
51
  3
B8
350
52
  3
B9
350
53
  3
C0
350
54
  3
C1
350
55
  3
C2
350
56
  3
C3
350
57
  3
C4
350
58
  3
C5
350
59
  3
C6
350
5A
  3
C7
350
5B
  3
C8
350
5C
  3
C9
350
5D
  3
D0
350
5E
  3
D1
350
5F
  3
D2
350
60
  0
DICTIONARY
  5
568
102
{ACAD_REACTORS
330
C
102
}
330
C
100
AcDbDictionary
281
     1
  0
DICTIONARY
  5
2A
102
{ACAD_REACTORS
330
C
102
}
330
C
100
AcDbDictionary
281
     1
  3
2dWireframe
350
2F
  3
3D Hidden
350
31
  3
3dWireframe
350
30
  3
Basic
350
32
  3
Brighten
350
36
  3
ColorChange
350
3A
  3
Conceptual
350
34
  3
Dim
350
35
  3
Facepattern
350
39
  3
Flat
350
2B
  3
FlatWithEdges
350
2C
  3
Gouraud
350
2D
  3
GouraudWithEdges
350
2E
  3
Linepattern
350
38
  3
Realistic
350
33
  3
Thicken
350
37
  0
DICTIONARY
  5
53F
102
{ACAD_REACTORS
330
C
102
}
330
C
100
AcDbDictionary
281
     1
  3
CANNOSCALE
350
540
  3
MSLTSCALE
350
541
  0
LAYOUT
  5
1E
102
{ACAD_REACTORS
330
1A
102
}
330
1A
100
AcDbPlotSettings
  1

  2
none_device
  4

  6

 40
0.0
 41
0.0
 42
0.0
 43
0.0
 44
0.0
 45
0.0
 46
0.0
 47
0.0
 48
0.0
 49
0.0
140
0.0
141
0.0
142
1.0
143
1.0
 70
   688
 72
     0
 73
     0
 74
     5
  7

 75
    16
 76
     0
 77
     2
 78
   300
147
1.0
148
0.0
149
0.0
100
AcDbLayout
  1
Layout1
 70
     1
 71
     1
 10
0.0
 20
0.0
 11
12.0
 21
9.0
 12
0.0
 22
0.0
 32
0.0
 14
1.000000000000000E+20
 24
1.000000000000000E+20
 34
1.000000000000000E+20
 15
-1.000000000000000E+20
 25
-1.000000000000000E+20
 35
-1.000000000000000E+20
146
0.0
 13
0.0
 23
0.0
 33
0.0
 16
1.0
 26
0.0
 36
0.0
 17
0.0
 27
1.0
 37
0.0
 76
     0
330
1B
  0
LAYOUT
  5
26
102
{ACAD_REACTORS
330
1A
102
}
330
1A
100
AcDbPlotSettings
  1

  2
none_device
  4

  6

 40
0.0
 41
0.0
 42
0.0
 43
0.0
 44
0.0
 45
0.0
 46
0.0
 47
0.0
 48
0.0
 49
0.0
140
0.0
141
0.0
142
1.0
143
1.0
 70
   688
 72
     0
 73
     0
 74
     5
  7

 75
    16
 76
     0
 77
     2
 78
   300
147
1.0
148
0.0
149
0.0
100
AcDbLayout
  1
Layout2
 70
     1
 71
     2
 10
0.0
 20
0.0
 11
0.0
 21
0.0
 12
0.0
 22
0.0
 32
0.0
 14
0.0
 24
0.0
 34
0.0
 15
0.0
 25
0.0
 35
0.0
146
0.0
 13
0.0
 23
0.0
 33
0.0
 16
1.0
 26
0.0
 36
0.0
 17
0.0
 27
1.0
 37
0.0
 76
     0
330
23
  0
LAYOUT
  5
22
102
{ACAD_REACTORS
330
1A
102
}
330
1A
100
AcDbPlotSettings
  1

  2
none_device
  4
Letter_(8.50_x_11.00_Inches)
  6

 40
6.35
 41
6.35
 42
6.35000508
 43
6.35000508
 44
215.9
 45
279.4
 46
0.0
 47
0.0
 48
0.0
 49
0.0
140
0.0
141
0.0
142
1.0
143
1.0
 70
  1712
 72
     0
 73
     0
 74
     0
  7

 75
     0
 76
     0
 77
     2
 78
   300
147
1.0
148
0.0
149
0.0
100
AcDbLayout
  1
Model
 70
     1
 71
     0
 10
0.0
 20
0.0
 11
12.0
 21
9.0
 12
0.0
 22
0.0
 32
0.0
 14
-0.0000000021431322
 24
1046.680706456217
 34
0.0
 15
315.0000000021432
 25
1122.032577058933
 35
0.0
146
0.0
 13
0.0
 23
0.0
 33
0.0
 16
1.0
 26
0.0
 36
0.0
 17
0.0
 27
1.0
 37
0.0
 76
     0
330
1F
331
29
  0
MATERIAL
  5
3D
102
{ACAD_REACTORS
330
3B
102
}
102
{ACAD_XDICTIONARY
360
564
102
}
330
3B
100
AcDbMaterial
  1
ByBlock
  0
MATERIAL
  5
3C
102
{ACAD_REACTORS
330
3B
102
}
102
{ACAD_XDICTIONARY
360
562
102
}
330
3B
100
AcDbMaterial
  1
ByLayer
  0
MATERIAL
  5
3E
102
{ACAD_REACTORS
330
3B
102
}
102
{ACAD_XDICTIONARY
360
566
102
}
330
3B
100
AcDbMaterial
  1
Global
  0
MLINESTYLE
  5
18
102
{ACAD_REACTORS
330
17
102
}
330
17
100
AcDbMlineStyle
  2
Standard
 70
     0
  3

 62
   256
 51
90.0
 52
90.0
 71
     2
 49
0.5
 62
   256
  6
BYLAYER
 49
-0.5
 62
   256
  6
BYLAYER
  0
ACDBPLACEHOLDER
  5
F
102
{ACAD_REACTORS
330
E
102
}
330
E
  0
SCALE
  5
40
102
{ACAD_REACTORS
330
3F
102
}
330
3F
100
AcDbScale
 70
     0
300
1:1
140
1.0
141
1.0
290
     1
  0
SCALE
  5
41
102
{ACAD_REACTORS
330
3F
102
}
330
3F
100
AcDbScale
 70
     0
300
1:2
140
1.0
141
2.0
290
     0
  0
SCALE
  5
42
102
{ACAD_REACTORS
330
3F
102
}
330
3F
100
AcDbScale
 70
     0
300
1:4
140
1.0
141
4.0
290
     0
  0
SCALE
  5
43
102
{ACAD_REACTORS
330
3F
102
}
330
3F
100
AcDbScale
 70
     0
300
1:5
140
1.0
141
5.0
290
     0
  0
SCALE
  5
44
102
{ACAD_REACTORS
330
3F
102
}
330
3F
100
AcDbScale
 70
     0
300
1:8
140
1.0
141
8.0
290
     0
  0
SCALE
  5
45
102
{ACAD_REACTORS
330
3F
102
}
330
3F
100
AcDbScale
 70
     0
300
1:10
140
1.0
141
10.0
290
     0
  0
SCALE
  5
46
102
{ACAD_REACTORS
330
3F
102
}
330
3F
100
AcDbScale
 70
     0
300
1:16
140
1.0
141
16.0
290
     0
  0
SCALE
  5
47
102
{ACAD_REACTORS
330
3F
102
}
330
3F
100
AcDbScale
 70
     0
300
1:20
140
1.0
141
20.0
290
     0
  0
SCALE
  5
48
102
{ACAD_REACTORS
330
3F
102
}
330
3F
100
AcDbScale
 70
     0
300
1:30
140
1.0
141
30.0
290
     0
  0
SCALE
  5
49
102
{ACAD_REACTORS
330
3F
102
}
330
3F
100
AcDbScale
 70
     0
300
1:40
140
1.0
141
40.0
290
     0
  0
SCALE
  5
4A
102
{ACAD_REACTORS
330
3F
102
}
330
3F
100
AcDbScale
 70
     0
300
1:50
140
1.0
141
50.0
290
     0
  0
SCALE
  5
4B
102
{ACAD_REACTORS
330
3F
102
}
330
3F
100
AcDbScale
 70
     0
300
1:100
140
1.0
141
100.0
290
     0
  0
SCALE
  5
4C
102
{ACAD_REACTORS
330
3F
102
}
330
3F
100
AcDbScale
 70
     0
300
2:1
140
2.0
141
1.0
290
     0
  0
SCALE
  5
4D
102
{ACAD_REACTORS
330
3F
102
}
330
3F
100
AcDbScale
 70
     0
300
4:1
140
4.0
141
1.0
290
     0
  0
SCALE
  5
4E
102
{ACAD_REACTORS
330
3F
102
}
330
3F
100
AcDbScale
 70
     0
300
8:1
140
8.0
141
1.0
290
     0
  0
SCALE
  5
4F
102
{ACAD_REACTORS
330
3F
102
}
330
3F
100
AcDbScale
 70
     0
300
10:1
140
10.0
141
1.0
290
     0
  0
SCALE
  5
50
102
{ACAD_REACTORS
330
3F
102
}
330
3F
100
AcDbScale
 70
     0
300
100:1
140
100.0
141
1.0
290
     0
  0
SCALE
  5
51
102
{ACAD_REACTORS
330
3F
102
}
330
3F
100
AcDbScale
 70
     0
300
1/128" = 1'-0"
140
0.0078125
141
12.0
290
     0
  0
SCALE
  5
52
102
{ACAD_REACTORS
330
3F
102
}
330
3F
100
AcDbScale
 70
     0
300
1/64" = 1'-0"
140
0.015625
141
12.0
290
     0
  0
SCALE
  5
53
102
{ACAD_REACTORS
330
3F
102
}
330
3F
100
AcDbScale
 70
     0
300
1/32" = 1'-0"
140
0.03125
141
12.0
290
     0
  0
SCALE
  5
54
102
{ACAD_REACTORS
330
3F
102
}
330
3F
100
AcDbScale
 70
     0
300
1/16" = 1'-0"
140
0.0625
141
12.0
290
     0
  0
SCALE
  5
55
102
{ACAD_REACTORS
330
3F
102
}
330
3F
100
AcDbScale
 70
     0
300
3/32" = 1'-0"
140
0.09375
141
12.0
290
     0
  0
SCALE
  5
56
102
{ACAD_REACTORS
330
3F
102
}
330
3F
100
AcDbScale
 70
     0
300
1/8" = 1'-0"
140
0.125
141
12.0
290
     0
  0
SCALE
  5
57
102
{ACAD_REACTORS
330
3F
102
}
330
3F
100
AcDbScale
 70
     0
300
3/16" = 1'-0"
140
0.1875
141
12.0
290
     0
  0
SCALE
  5
58
102
{ACAD_REACTORS
330
3F
102
}
330
3F
100
AcDbScale
 70
     0
300
1/4" = 1'-0"
140
0.25
141
12.0
290
     0
  0
SCALE
  5
59
102
{ACAD_REACTORS
330
3F
102
}
330
3F
100
AcDbScale
 70
     0
300
3/8" = 1'-0"
140
0.375
141
12.0
290
     0
  0
SCALE
  5
5A
102
{ACAD_REACTORS
330
3F
102
}
330
3F
100
AcDbScale
 70
     0
300
1/2" = 1'-0"
140
0.5
141
12.0
290
     0
  0
SCALE
  5
5B
102
{ACAD_REACTORS
330
3F
102
}
330
3F
100
AcDbScale
 70
     0
300
3/4" = 1'-0"
140
0.75
141
12.0
290
     0
  0
SCALE
  5
5C
102
{ACAD_REACTORS
330
3F
102
}
330
3F
100
AcDbScale
 70
     0
300
1" = 1'-0"
140
1.0
141
12.0
290
     0
  0
SCALE
  5
5D
102
{ACAD_REACTORS
330
3F
102
}
330
3F
100
AcDbScale
 70
     0
300
1-1/2" = 1'-0"
140
1.5
141
12.0
290
     0
  0
SCALE
  5
5E
102
{ACAD_REACTORS
330
3F
102
}
330
3F
100
AcDbScale
 70
     0
300
3" = 1'-0"
140
3.0
141
12.0
290
     0
  0
SCALE
  5
5F
102
{ACAD_REACTORS
330
3F
102
}
330
3F
100
AcDbScale
 70
     0
300
6" = 1'-0"
140
6.0
141
12.0
290
     0
  0
SCALE
  5
60
102
{ACAD_REACTORS
330
3F
102
}
330
3F
100
AcDbScale
 70
     0
300
1'-0" = 1'-0"
140
12.0
141
12.0
290
     0
  0
VISUALSTYLE
  5
2F
102
{ACAD_REACTORS
330
2A
102
}
102
{ACAD_XDICTIONARY
360
54A
102
}
330
2A
100
AcDbVisualStyle
  2
2dWireframe
 70
     4
 71
     0
 72
     2
 73
     0
 90
        0
 40
0.6
 41
30.0
 62
     5
 63
     7
421
 16777215
 74
     1
 91
        4
 64
     7
 65
   257
 75
     1
175
     1
 42
1.0
 92
        0
 66
   257
 43
1.0
 76
     1
 77
     6
 78
     2
 67
     7
 79
     5
170
     0
171
     0
290
     0
174
     0
 93
        1
 44
0.0
173
     0
291
     0
 45
0.0
1001
ACAD
1000
AcDbSavedByObjectVersion
1070
     0
  0
VISUALSTYLE
  5
31
102
{ACAD_REACTORS
330
2A
102
}
102
{ACAD_XDICTIONARY
360
54E
102
}
330
2A
100
AcDbVisualStyle
  2
3D Hidden
 70
     6
 71
     1
 72
     2
 73
     2
 90
        0
 40
0.6
 41
30.0
 62
     5
 63
     7
421
 16777215
 74
     2
 91
        2
 64
     7
 65
   257
 75
     2
175
     1
 42
40.0
 92
        0
 66
   257
 43
1.0
 76
     1
 77
     6
 78
     2
 67
     7
 79
     3
170
     0
171
     0
290
     0
174
     0
 93
        1
 44
0.0
173
     0
291
     0
 45
0.0
1001
ACAD
1000
AcDbSavedByObjectVersion
1070
     0
  0
VISUALSTYLE
  5
30
102
{ACAD_REACTORS
330
2A
102
}
102
{ACAD_XDICTIONARY
360
54C
102
}
330
2A
100
AcDbVisualStyle
  2
3dWireframe
 70
     5
 71
     0
 72
     2
 73
     0
 90
        0
 40
0.6
 41
30.0
 62
     5
 63
     7
421
 16777215
 74
     1
 91
        4
 64
     7
 65
   257
 75
     1
175
     1
 42
1.0
 92
        0
 66
   257
 43
1.0
 76
     1
 77
     6
 78
     2
 67
     7
 79
     5
170
     0
171
     0
290
     0
174
     0
 93
        1
 44
0.0
173
     0
291
     0
 45
0.0
1001
ACAD
1000
AcDbSavedByObjectVersion
1070
     0
  0
VISUALSTYLE
  5
32
102
{ACAD_REACTORS
330
2A
102
}
102
{ACAD_XDICTIONARY
360
550
102
}
330
2A
100
AcDbVisualStyle
  2
Basic
 70
     7
 71
     1
 72
     0
 73
     1
 90
        0
 40
0.6
 41
30.0
 62
     5
 63
     7
421
 16777215
 74
     0
 91
        4
 64
     7
 65
   257
 75
     1
175
     1
 42
1.0
 92
        8
 66
     7
 43
1.0
 76
     1
 77
     6
 78
     2
 67
     7
 79
     5
170
     0
171
     0
290
     0
174
     0
 93
        1
 44
0.0
173
     0
291
     1
 45
0.0
1001
ACAD
1000
AcDbSavedByObjectVersion
1070
     0
  0
VISUALSTYLE
  5
36
102
{ACAD_REACTORS
330
2A
102
}
102
{ACAD_XDICTIONARY
360
558
102
}
330
2A
100
AcDbVisualStyle
  2
Brighten
 70
    12
 71
     2
 72
     2
 73
     0
 90
        0
 40
0.6
 41
30.0
 62
     5
 63
     7
421
 16777215
 74
     1
 91
        4
 64
     7
 65
   257
 75
     1
175
     1
 42
1.0
 92
        8
 66
     7
 43
1.0
 76
     1
 77
     6
 78
     2
 67
     7
 79
     5
170
     0
171
     0
290
     0
174
     0
 93
        1
 44
50.0
173
     0
291
     1
 45
0.0
1001
ACAD
1000
AcDbSavedByObjectVersion
1070
     0
  0
VISUALSTYLE
  5
3A
102
{ACAD_REACTORS
330
2A
102
}
102
{ACAD_XDICTIONARY
360
560
102
}
330
2A
100
AcDbVisualStyle
  2
ColorChange
 70
    16
 71
     2
 72
     2
 73
     3
 90
        0
 40
0.6
 41
30.0
 62
     5
 63
     8
421
  8421504
 74
     1
 91
        4
 64
     7
 65
   257
 75
     1
175
     1
 42
1.0
 92
        8
 66
     8
424
  8421504
 43
1.0
 76
     1
 77
     6
 78
     2
 67
     7
 79
     5
170
     0
171
     0
290
     0
174
     0
 93
        1
 44
0.0
173
     0
291
     1
 45
0.0
1001
ACAD
1000
AcDbSavedByObjectVersion
1070
     0
  0
VISUALSTYLE
  5
34
102
{ACAD_REACTORS
330
2A
102
}
102
{ACAD_XDICTIONARY
360
554
102
}
330
2A
100
AcDbVisualStyle
  2
Conceptual
 70
     9
 71
     3
 72
     2
 73
     0
 90
        0
 40
0.6
 41
30.0
 62
     5
 63
     7
421
 16777215
 74
     2
 91
        2
 64
     7
 65
   257
 75
     1
175
     1
 42
40.0
 92
        8
 66
     7
 43
1.0
 76
     1
 77
     6
 78
     2
 67
     7
 79
     3
170
     0
171
     0
290
     0
174
     0
 93
        1
 44
0.0
173
     0
291
     0
 45
0.0
1001
ACAD
1000
AcDbSavedByObjectVersion
1070
     0
  0
VISUALSTYLE
  5
35
102
{ACAD_REACTORS
330
2A
102
}
102
{ACAD_XDICTIONARY
360
556
102
}
330
2A
100
AcDbVisualStyle
  2
Dim
 70
    11
 71
     2
 72
     2
 73
     0
 90
        0
 40
0.6
 41
30.0
 62
     5
 63
     7
421
 16777215
 74
     1
 91
        4
 64
     7
 65
   257
 75
     1
175
     1
 42
1.0
 92
        8
 66
     7
 43
1.0
 76
     1
 77
     6
 78
     2
 67
     7
 79
     5
170
     0
171
     0
290
     0
174
     0
 93
        1
 44
-50.0
173
     0
291
     1
 45
0.0
1001
ACAD
1000
AcDbSavedByObjectVersion
1070
     0
  0
VISUALSTYLE
  5
39
102
{ACAD_REACTORS
330
2A
102
}
102
{ACAD_XDICTIONARY
360
55E
102
}
330
2A
100
AcDbVisualStyle
  2
Facepattern
 70
    15
 71
     2
 72
     2
 73
     0
 90
        0
 40
0.6
 41
30.0
 62
     5
 63
     7
421
 16777215
 74
     1
 91
        4
 64
     7
 65
   257
 75
     1
175
     1
 42
1.0
 92
        8
 66
     7
 43
1.0
 76
     1
 77
     6
 78
     2
 67
     7
 79
     5
170
     0
171
     0
290
     0
174
     0
 93
        1
 44
0.0
173
     0
291
     1
 45
0.0
1001
ACAD
1000
AcDbSavedByObjectVersion
1070
     0
  0
VISUALSTYLE
  5
2B
102
{ACAD_REACTORS
330
2A
102
}
102
{ACAD_XDICTIONARY
360
542
102
}
330
2A
100
AcDbVisualStyle
  2
Flat
 70
     0
 71
     2
 72
     1
 73
     1
 90
        2
 40
0.6
 41
30.0
 62
     5
 63
     7
421
 16777215
 74
     0
 91
        4
 64
     7
 65
   257
 75
     1
175
     1
 42
1.0
 92
        8
 66
     7
 43
1.0
 76
     1
 77
     6
 78
     2
 67
     7
 79
     5
170
     0
171
     0
290
     0
174
     0
 93
       13
 44
0.0
173
     0
291
     1
 45
0.0
1001
ACAD
1000
AcDbSavedByObjectVersion
1070
     0
  0
VISUALSTYLE
  5
2C
102
{ACAD_REACTORS
330
2A
102
}
102
{ACAD_XDICTIONARY
360
544
102
}
330
2A
100
AcDbVisualStyle
  2
FlatWithEdges
 70
     1
 71
     2
 72
     1
 73
     1
 90
        2
 40
0.6
 41
30.0
 62
     5
 63
     7
421
 16777215
 74
     1
 91
        4
 64
     7
 65
   257
 75
     1
175
     1
 42
1.0
 92
        0
 66
   257
 43
1.0
 76
     1
 77
     6
 78
     2
 67
     7
 79
     5
170
     0
171
     0
290
     0
174
     0
 93
       13
 44
0.0
173
     0
291
     1
 45
0.0
1001
ACAD
1000
AcDbSavedByObjectVersion
1070
     0
  0
VISUALSTYLE
  5
2D
102
{ACAD_REACTORS
330
2A
102
}
102
{ACAD_XDICTIONARY
360
546
102
}
330
2A
100
AcDbVisualStyle
  2
Gouraud
 70
     2
 71
     2
 72
     2
 73
     1
 90
        2
 40
0.6
 41
30.0
 62
     5
 63
     7
421
 16777215
 74
     0
 91
        4
 64
     7
 65
   257
 75
     1
175
     1
 42
1.0
 92
        0
 66
     7
 43
1.0
 76
     1
 77
     6
 78
     2
 67
     7
 79
     5
170
     0
171
     0
290
     0
174
     0
 93
       13
 44
0.0
173
     0
291
     1
 45
0.0
1001
ACAD
1000
AcDbSavedByObjectVersion
1070
     0
  0
VISUALSTYLE
  5
2E
102
{ACAD_REACTORS
330
2A
102
}
102
{ACAD_XDICTIONARY
360
548
102
}
330
2A
100
AcDbVisualStyle
  2
GouraudWithEdges
 70
     3
 71
     2
 72
     2
 73
     1
 90
        2
 40
0.6
 41
30.0
 62
     5
 63
     7
421
 16777215
 74
     1
 91
        4
 64
     7
 65
   257
 75
     1
175
     1
 42
1.0
 92
        0
 66
   257
 43
1.0
 76
     1
 77
     6
 78
     2
 67
     7
 79
     5
170
     0
171
     0
290
     0
174
     0
 93
       13
 44
0.0
173
     0
291
     1
 45
0.0
1001
ACAD
1000
AcDbSavedByObjectVersion
1070
     0
  0
VISUALSTYLE
  5
38
102
{ACAD_REACTORS
330
2A
102
}
102
{ACAD_XDICTIONARY
360
55C
102
}
330
2A
100
AcDbVisualStyle
  2
Linepattern
 70
    14
 71
     2
 72
     2
 73
     0
 90
        0
 40
0.6
 41
30.0
 62
     5
 63
     7
421
 16777215
 74
     1
 91
        4
 64
     7
 65
   257
 75
     7
175
     7
 42
1.0
 92
        8
 66
     7
 43
1.0
 76
     1
 77
     6
 78
     2
 67
     7
 79
     5
170
     0
171
     0
290
     0
174
     0
 93
        1
 44
0.0
173
     0
291
     1
 45
0.0
1001
ACAD
1000
AcDbSavedByObjectVersion
1070
     0
  0
VISUALSTYLE
  5
33
102
{ACAD_REACTORS
330
2A
102
}
102
{ACAD_XDICTIONARY
360
552
102
}
330
2A
100
AcDbVisualStyle
  2
Realistic
 70
     8
 71
     2
 72
     3
 73
     0
 90
        2
 40
0.6
 41
30.0
 62
     5
 63
     7
421
 16777215
 74
     0
 91
        0
 64
     7
 65
   257
 75
     1
175
     1
 42
1.0
 92
        8
 66
   257
 43
1.0
 76
     1
 77
     6
 78
     2
 67
     7
 79
     3
170
     0
171
     0
290
     0
174
     0
 93
       13
 44
0.0
173
     0
291
     0
 45
0.0
1001
ACAD
1000
AcDbSavedByObjectVersion
1070
     0
  0
VISUALSTYLE
  5
37
102
{ACAD_REACTORS
330
2A
102
}
102
{ACAD_XDICTIONARY
360
55A
102
}
330
2A
100
AcDbVisualStyle
  2
Thicken
 70
    13
 71
     2
 72
     2
 73
     0
 90
        0
 40
0.6
 41
30.0
 62
     5
 63
     7
421
 16777215
 74
     1
 91
        4
 64
     7
 65
   257
 75
     1
175
     1
 42
1.0
 92
       12
 66
     7
 43
1.0
 76
     1
 77
     6
 78
     2
 67
     7
 79
     5
170
     0
171
     0
290
     0
174
     0
 93
        1
 44
0.0
173
     0
291
     1
 45
0.0
1001
ACAD
1000
AcDbSavedByObjectVersion
1070
     0
  0
DICTIONARYVAR
  5
540
102
{ACAD_REACTORS
330
53F
102
}
330
53F
100
DictionaryVariables
280
     0
  1
1:1
  0
DICTIONARYVAR
  5
541
102
{ACAD_REACTORS
330
53F
102
}
330
53F
100
DictionaryVariables
280
     0
  1
1
  0
DICTIONARY
  5
564
330
3D
100
AcDbDictionary
280
     1
281
     1
  3
ACAD_XREC_ROUNDTRIP
360
565
  0
DICTIONARY
  5
562
330
3C
100
AcDbDictionary
280
     1
281
     1
  3
ACAD_XREC_ROUNDTRIP
360
563
  0
DICTIONARY
  5
566
330
3E
100
AcDbDictionary
280
     1
281
     1
  3
ACAD_XREC_ROUNDTRIP
360
567
  0
DICTIONARY
  5
54A
330
2F
100
AcDbDictionary
280
     1
281
     1
  3
ACAD_XREC_ROUNDTRIP
360
54B
  0
DICTIONARY
  5
54E
330
31
100
AcDbDictionary
280
     1
281
     1
  3
ACAD_XREC_ROUNDTRIP
360
54F
  0
DICTIONARY
  5
54C
330
30
100
AcDbDictionary
280
     1
281
     1
  3
ACAD_XREC_ROUNDTRIP
360
54D
  0
DICTIONARY
  5
550
330
32
100
AcDbDictionary
280
     1
281
     1
  3
ACAD_XREC_ROUNDTRIP
360
551
  0
DICTIONARY
  5
558
330
36
100
AcDbDictionary
280
     1
281
     1
  3
ACAD_XREC_ROUNDTRIP
360
559
  0
DICTIONARY
  5
560
330
3A
100
AcDbDictionary
280
     1
281
     1
  3
ACAD_XREC_ROUNDTRIP
360
561
  0
DICTIONARY
  5
554
330
34
100
AcDbDictionary
280
     1
281
     1
  3
ACAD_XREC_ROUNDTRIP
360
555
  0
DICTIONARY
  5
556
330
35
100
AcDbDictionary
280
     1
281
     1
  3
ACAD_XREC_ROUNDTRIP
360
557
  0
DICTIONARY
  5
55E
330
39
100
AcDbDictionary
280
     1
281
     1
  3
ACAD_XREC_ROUNDTRIP
360
55F
  0
DICTIONARY
  5
542
330
2B
100
AcDbDictionary
280
     1
281
     1
  3
ACAD_XREC_ROUNDTRIP
360
543
  0
DICTIONARY
  5
544
330
2C
100
AcDbDictionary
280
     1
281
     1
  3
ACAD_XREC_ROUNDTRIP
360
545
  0
DICTIONARY
  5
546
330
2D
100
AcDbDictionary
280
     1
281
     1
  3
ACAD_XREC_ROUNDTRIP
360
547
  0
DICTIONARY
  5
548
330
2E
100
AcDbDictionary
280
     1
281
     1
  3
ACAD_XREC_ROUNDTRIP
360
549
  0
DICTIONARY
  5
55C
330
38
100
AcDbDictionary
280
     1
281
     1
  3
ACAD_XREC_ROUNDTRIP
360
55D
  0
DICTIONARY
  5
552
330
33
100
AcDbDictionary
280
     1
281
     1
  3
ACAD_XREC_ROUNDTRIP
360
553
  0
DICTIONARY
  5
55A
330
37
100
AcDbDictionary
280
     1
281
     1
  3
ACAD_XREC_ROUNDTRIP
360
55B
  0
XRECORD
  5
565
102
{ACAD_REACTORS
330
564
102
}
330
564
100
AcDbXrecord
280
     1
102
MATERIAL
148
0.0
149
0.0
149
0.0
 93
        0
 94
      127
282
     0
 72
     1
 77
     1
171
     1
175
     1
179
     1
273
     0
  0
XRECORD
  5
563
102
{ACAD_REACTORS
330
562
102
}
330
562
100
AcDbXrecord
280
     1
102
MATERIAL
148
0.0
149
0.0
149
0.0
 93
        0
 94
      127
282
     0
 72
     1
 77
     1
171
     1
175
     1
179
     1
273
     0
  0
XRECORD
  5
567
102
{ACAD_REACTORS
330
566
102
}
330
566
100
AcDbXrecord
280
     1
102
MATERIAL
148
0.0
149
0.0
149
0.0
 93
        0
 94
      127
282
     0
 72
     1
 77
     1
171
     1
175
     1
179
     1
273
     0
  0
XRECORD
  5
54B
102
{ACAD_REACTORS
330
54A
102
}
330
54A
100
AcDbXrecord
280
     1
102
RTVSPropertyOp0
 70
     1
102
RTVSPropertyOp1
 70
     1
102
RTVSPropertyOp2
 70
     1
102
RTVSPropertyOp3
 70
     1
102
RTVSPropertyOp4
 70
     1
102
RTVSPropertyOp5
 70
     1
102
RTVSPropertyOp6
 70
     1
102
RTVSPropertyOp7
 70
     1
102
RTVSPropertyOp8
 70
     1
102
RTVSPropertyOp9
 70
     1
102
RTVSPropertyOp10
 70
     1
102
RTVSPropertyOp11
 70
     1
102
RTVSPropertyOp12
 70
     1
102
RTVSPropertyOp13
 70
     1
102
RTVSPropertyOp14
 70
     1
102
RTVSPropertyOp15
 70
     1
102
RTVSPropertyOp16
 70
     1
102
RTVSPropertyOp17
 70
     1
102
RTVSPropertyOp18
 70
     1
102
RTVSPropertyOp19
 70
     1
102
RTVSPropertyOp20
 70
     1
102
RTVSPropertyOp21
 70
     1
102
RTVSPropertyOp22
 70
     1
102
RTVSPropertyOp23
 70
     1
102
RTVSPropertyOp24
 70
     1
102
RTVSPropertyOp25
 70
     1
102
RTVSPropertyOp26
 70
     1
102
RTVSPropertyOp27
 70
     1
102
RTVSPropertyOp28
 70
     1
102
RTVSPropertyOp29
 70
     1
102
RTVSPropertyOp30
 70
     1
102
RTVSPropertyOp31
 70
     1
102
RTVSPropertyOp32
 70
     1
102
RTVSPropertyOp33
 70
     1
102
RTVSPropertyOp34
 70
     1
102
RTVSPropertyOp35
 70
     1
102
RTVSPropertyOp36
 70
     1
102
RTVSPropertyOp37
 70
     1
102
RTVSPropertyOp38
 70
     1
102
RTVSPropertyOp39
 70
     1
102
RTVSPropertyOp40
 70
     1
102
RTVSPropertyOp41
 70
     1
102
RTVSPropertyOp42
 70
     1
102
RTVSPropertyOp43
 70
     1
102
RTVSPropertyOp44
 70
     1
102
RTVSPropertyOp45
 70
     1
102
RTVSPropertyOp46
 70
     1
102
RTVSPropertyOp47
 70
     1
102
RTVSPropertyOp48
 70
     1
102
RTVSPropertyOp49
 70
     1
102
RTVSPropertyOp50
 70
     1
102
RTVSPropertyOp51
 70
     0
102
RTVSPropertyOp52
 70
     0
102
RTVSPropertyOp53
 70
     1
102
RTVSPropertyOp54
 70
     1
102
RTVSPropertyOp55
 70
     1
102
RTVSPropertyOp56
 70
     1
102
RTVSPropertyOp57
 70
     1
102
RTVSPost2010Prop28
280
     1
102
RTVSPost2010PropOp28
 70
     1
102
RTVSPost2010Prop29
280
     1
102
RTVSPost2010PropOp29
 70
     1
102
RTVSPost2010Prop30
280
     0
102
RTVSPost2010PropOp30
 70
     1
102
RTVSPost2010Prop31
280
     0
102
RTVSPost2010PropOp31
 70
     1
102
RTVSPost2010Prop32
280
     0
102
RTVSPost2010PropOp32
 70
     1
102
RTVSPost2010Prop33
280
     0
102
RTVSPost2010PropOp33
 70
     1
102
RTVSPost2010Prop34
280
     0
102
RTVSPost2010PropOp34
 70
     1
102
RTVSPost2010Prop35
280
     0
102
RTVSPost2010PropOp35
 70
     1
102
RTVSPost2010Prop36
280
     0
102
RTVSPost2010PropOp36
 70
     1
102
RTVSPost2010Prop37
 90
       50
102
RTVSPost2010PropOp37
 70
     1
102
RTVSPost2010Prop38
140
0.0
102
RTVSPost2010PropOp38
 70
     1
102
RTVSPost2010Prop39
140
1.0
102
RTVSPost2010PropOp39
 70
     1
102
RTVSPost2010Prop40
 90
        0
102
RTVSPost2010PropOp40
 70
     1
102
RTVSPost2010Prop41ColorIndex
 90
       18
102
RTVSPost2010Prop41ColorRGB
 90
        0
102
RTVSPost2010PropOp41
 70
     1
102
RTVSPost2010Prop42
 90
       50
102
RTVSPost2010PropOp42
 70
     1
102
RTVSPost2010Prop43
 90
        3
102
RTVSPost2010PropOp43
 70
     1
102
RTVSPost2010Prop44ColorIndex
 90
        5
102
RTVSPost2010Prop44ColorRGB
 90
      255
102
RTVSPost2010PropOp44
 70
     1
102
RTVSPost2010Prop45
280
     0
102
RTVSPost2010PropOp45
 70
     1
102
RTVSPost2010Prop46
 90
       50
102
RTVSPost2010PropOp46
 70
     1
102
RTVSPost2010Prop47
 90
       50
102
RTVSPost2010PropOp47
 70
     1
102
RTVSPost2010Prop48
 90
       50
102
RTVSPost2010PropOp48
 70
     1
102
RTVSPost2010Prop49
280
     0
102
RTVSPost2010PropOp49
 70
     1
102
RTVSPost2010Prop50
 90
       50
102
RTVSPost2010PropOp50
 70
     1
102
RTVSPost2010Prop51ColorIndex
 90
      256
102
RTVSPost2010Prop51ColorRGB
 90
-16777216
102
RTVSPost2010PropOp51
 70
     0
102
RTVSPost2010Prop52
140
1.0
102
RTVSPost2010PropOp52
 70
     0
102
RTVSPost2010Prop53
 90
        2
102
RTVSPost2010PropOp53
 70
     1
102
RTVSPost2010Prop54
  1
strokes_ogs.tif
102
RTVSPost2010PropOp54
 70
     1
102
RTVSPost2010Prop55
280
     0
102
RTVSPost2010PropOp55
 70
     1
102
RTVSPost2010Prop56
140
1.0
102
RTVSPost2010PropOp56
 70
     1
102
RTVSPost2010Prop57
140
1.0
102
RTVSPost2010PropOp57
 70
     1
  0
XRECORD
  5
54F
102
{ACAD_REACTORS
330
54E
102
}
330
54E
100
AcDbXrecord
280
     1
102
RTVSPropertyOp0
 70
     1
102
RTVSPropertyOp1
 70
     1
102
RTVSPropertyOp2
 70
     1
102
RTVSPropertyOp3
 70
     1
102
RTVSPropertyOp4
 70
     1
102
RTVSPropertyOp5
 70
     1
102
RTVSPropertyOp6
 70
     1
102
RTVSPropertyOp7
 70
     1
102
RTVSPropertyOp8
 70
     1
102
RTVSPropertyOp9
 70
     1
102
RTVSPropertyOp10
 70
     1
102
RTVSPropertyOp11
 70
     1
102
RTVSPropertyOp12
 70
     1
102
RTVSPropertyOp13
 70
     1
102
RTVSPropertyOp14
 70
     1
102
RTVSPropertyOp15
 70
     1
102
RTVSPropertyOp16
 70
     1
102
RTVSPropertyOp17
 70
     1
102
RTVSPropertyOp18
 70
     1
102
RTVSPropertyOp19
 70
     1
102
RTVSPropertyOp20
 70
     1
102
RTVSPropertyOp21
 70
     1
102
RTVSPropertyOp22
 70
     1
102
RTVSPropertyOp23
 70
     1
102
RTVSPropertyOp24
 70
     1
102
RTVSPropertyOp25
 70
     1
102
RTVSPropertyOp26
 70
     1
102
RTVSPropertyOp27
 70
     1
102
RTVSPropertyOp28
 70
     1
102
RTVSPropertyOp29
 70
     1
102
RTVSPropertyOp30
 70
     1
102
RTVSPropertyOp31
 70
     1
102
RTVSPropertyOp32
 70
     1
102
RTVSPropertyOp33
 70
     1
102
RTVSPropertyOp34
 70
     1
102
RTVSPropertyOp35
 70
     1
102
RTVSPropertyOp36
 70
     1
102
RTVSPropertyOp37
 70
     1
102
RTVSPropertyOp38
 70
     1
102
RTVSPropertyOp39
 70
     1
102
RTVSPropertyOp40
 70
     1
102
RTVSPropertyOp41
 70
     1
102
RTVSPropertyOp42
 70
     1
102
RTVSPropertyOp43
 70
     1
102
RTVSPropertyOp44
 70
     1
102
RTVSPropertyOp45
 70
     1
102
RTVSPropertyOp46
 70
     1
102
RTVSPropertyOp47
 70
     1
102
RTVSPropertyOp48
 70
     1
102
RTVSPropertyOp49
 70
     1
102
RTVSPropertyOp50
 70
     1
102
RTVSPropertyOp51
 70
     0
102
RTVSPropertyOp52
 70
     0
102
RTVSPropertyOp53
 70
     1
102
RTVSPropertyOp54
 70
     1
102
RTVSPropertyOp55
 70
     1
102
RTVSPropertyOp56
 70
     1
102
RTVSPropertyOp57
 70
     1
102
RTVSPost2010Prop28
280
     0
102
RTVSPost2010PropOp28
 70
     1
102
RTVSPost2010Prop29
280
     1
102
RTVSPost2010PropOp29
 70
     1
102
RTVSPost2010Prop30
280
     1
102
RTVSPost2010PropOp30
 70
     1
102
RTVSPost2010Prop31
280
     0
102
RTVSPost2010PropOp31
 70
     1
102
RTVSPost2010Prop32
280
     0
102
RTVSPost2010PropOp32
 70
     1
102
RTVSPost2010Prop33
280
     0
102
RTVSPost2010PropOp33
 70
     1
102
RTVSPost2010Prop34
280
     0
102
RTVSPost2010PropOp34
 70
     1
102
RTVSPost2010Prop35
280
     0
102
RTVSPost2010PropOp35
 70
     1
102
RTVSPost2010Prop36
280
     0
102
RTVSPost2010PropOp36
 70
     1
102
RTVSPost2010Prop37
 90
       50
102
RTVSPost2010PropOp37
 70
     1
102
RTVSPost2010Prop38
140
0.0
102
RTVSPost2010PropOp38
 70
     1
102
RTVSPost2010Prop39
140
1.0
102
RTVSPost2010PropOp39
 70
     1
102
RTVSPost2010Prop40
 90
        0
102
RTVSPost2010PropOp40
 70
     1
102
RTVSPost2010Prop41ColorIndex
 90
       18
102
RTVSPost2010Prop41ColorRGB
 90
        0
102
RTVSPost2010PropOp41
 70
     1
102
RTVSPost2010Prop42
 90
       50
102
RTVSPost2010PropOp42
 70
     1
102
RTVSPost2010Prop43
 90
        3
102
RTVSPost2010PropOp43
 70
     1
102
RTVSPost2010Prop44ColorIndex
 90
        5
102
RTVSPost2010Prop44ColorRGB
 90
      255
102
RTVSPost2010PropOp44
 70
     1
102
RTVSPost2010Prop45
280
     0
102
RTVSPost2010PropOp45
 70
     1
102
RTVSPost2010Prop46
 90
       50
102
RTVSPost2010PropOp46
 70
     1
102
RTVSPost2010Prop47
 90
       50
102
RTVSPost2010PropOp47
 70
     1
102
RTVSPost2010Prop48
 90
       50
102
RTVSPost2010PropOp48
 70
     1
102
RTVSPost2010Prop49
280
     0
102
RTVSPost2010PropOp49
 70
     1
102
RTVSPost2010Prop50
 90
       50
102
RTVSPost2010PropOp50
 70
     1
102
RTVSPost2010Prop51ColorIndex
 90
      256
102
RTVSPost2010Prop51ColorRGB
 90
-16777216
102
RTVSPost2010PropOp51
 70
     0
102
RTVSPost2010Prop52
140
1.0
102
RTVSPost2010PropOp52
 70
     0
102
RTVSPost2010Prop53
 90
        2
102
RTVSPost2010PropOp53
 70
     1
102
RTVSPost2010Prop54
  1
strokes_ogs.tif
102
RTVSPost2010PropOp54
 70
     1
102
RTVSPost2010Prop55
280
     0
102
RTVSPost2010PropOp55
 70
     1
102
RTVSPost2010Prop56
140
1.0
102
RTVSPost2010PropOp56
 70
     1
102
RTVSPost2010Prop57
140
1.0
102
RTVSPost2010PropOp57
 70
     1
  0
XRECORD
  5
54D
102
{ACAD_REACTORS
330
54C
102
}
330
54C
100
AcDbXrecord
280
     1
102
RTVSPropertyOp0
 70
     1
102
RTVSPropertyOp1
 70
     1
102
RTVSPropertyOp2
 70
     1
102
RTVSPropertyOp3
 70
     1
102
RTVSPropertyOp4
 70
     1
102
RTVSPropertyOp5
 70
     1
102
RTVSPropertyOp6
 70
     1
102
RTVSPropertyOp7
 70
     1
102
RTVSPropertyOp8
 70
     1
102
RTVSPropertyOp9
 70
     1
102
RTVSPropertyOp10
 70
     1
102
RTVSPropertyOp11
 70
     1
102
RTVSPropertyOp12
 70
     1
102
RTVSPropertyOp13
 70
     1
102
RTVSPropertyOp14
 70
     1
102
RTVSPropertyOp15
 70
     1
102
RTVSPropertyOp16
 70
     1
102
RTVSPropertyOp17
 70
     1
102
RTVSPropertyOp18
 70
     1
102
RTVSPropertyOp19
 70
     1
102
RTVSPropertyOp20
 70
     1
102
RTVSPropertyOp21
 70
     1
102
RTVSPropertyOp22
 70
     1
102
RTVSPropertyOp23
 70
     1
102
RTVSPropertyOp24
 70
     1
102
RTVSPropertyOp25
 70
     1
102
RTVSPropertyOp26
 70
     1
102
RTVSPropertyOp27
 70
     1
102
RTVSPropertyOp28
 70
     1
102
RTVSPropertyOp29
 70
     1
102
RTVSPropertyOp30
 70
     1
102
RTVSPropertyOp31
 70
     1
102
RTVSPropertyOp32
 70
     1
102
RTVSPropertyOp33
 70
     1
102
RTVSPropertyOp34
 70
     1
102
RTVSPropertyOp35
 70
     1
102
RTVSPropertyOp36
 70
     1
102
RTVSPropertyOp37
 70
     1
102
RTVSPropertyOp38
 70
     1
102
RTVSPropertyOp39
 70
     1
102
RTVSPropertyOp40
 70
     1
102
RTVSPropertyOp41
 70
     1
102
RTVSPropertyOp42
 70
     1
102
RTVSPropertyOp43
 70
     1
102
RTVSPropertyOp44
 70
     1
102
RTVSPropertyOp45
 70
     1
102
RTVSPropertyOp46
 70
     1
102
RTVSPropertyOp47
 70
     1
102
RTVSPropertyOp48
 70
     1
102
RTVSPropertyOp49
 70
     1
102
RTVSPropertyOp50
 70
     1
102
RTVSPropertyOp51
 70
     0
102
RTVSPropertyOp52
 70
     0
102
RTVSPropertyOp53
 70
     1
102
RTVSPropertyOp54
 70
     1
102
RTVSPropertyOp55
 70
     1
102
RTVSPropertyOp56
 70
     1
102
RTVSPropertyOp57
 70
     1
102
RTVSPost2010Prop28
280
     0
102
RTVSPost2010PropOp28
 70
     1
102
RTVSPost2010Prop29
280
     1
102
RTVSPost2010PropOp29
 70
     1
102
RTVSPost2010Prop30
280
     1
102
RTVSPost2010PropOp30
 70
     1
102
RTVSPost2010Prop31
280
     0
102
RTVSPost2010PropOp31
 70
     1
102
RTVSPost2010Prop32
280
     0
102
RTVSPost2010PropOp32
 70
     1
102
RTVSPost2010Prop33
280
     0
102
RTVSPost2010PropOp33
 70
     1
102
RTVSPost2010Prop34
280
     0
102
RTVSPost2010PropOp34
 70
     1
102
RTVSPost2010Prop35
280
     0
102
RTVSPost2010PropOp35
 70
     1
102
RTVSPost2010Prop36
280
     0
102
RTVSPost2010PropOp36
 70
     1
102
RTVSPost2010Prop37
 90
       50
102
RTVSPost2010PropOp37
 70
     1
102
RTVSPost2010Prop38
140
0.0
102
RTVSPost2010PropOp38
 70
     1
102
RTVSPost2010Prop39
140
1.0
102
RTVSPost2010PropOp39
 70
     1
102
RTVSPost2010Prop40
 90
        0
102
RTVSPost2010PropOp40
 70
     1
102
RTVSPost2010Prop41ColorIndex
 90
       18
102
RTVSPost2010Prop41ColorRGB
 90
        0
102
RTVSPost2010PropOp41
 70
     1
102
RTVSPost2010Prop42
 90
       50
102
RTVSPost2010PropOp42
 70
     1
102
RTVSPost2010Prop43
 90
        3
102
RTVSPost2010PropOp43
 70
     1
102
RTVSPost2010Prop44ColorIndex
 90
        5
102
RTVSPost2010Prop44ColorRGB
 90
      255
102
RTVSPost2010PropOp44
 70
     1
102
RTVSPost2010Prop45
280
     0
102
RTVSPost2010PropOp45
 70
     1
102
RTVSPost2010Prop46
 90
       50
102
RTVSPost2010PropOp46
 70
     1
102
RTVSPost2010Prop47
 90
       50
102
RTVSPost2010PropOp47
 70
     1
102
RTVSPost2010Prop48
 90
       50
102
RTVSPost2010PropOp48
 70
     1
102
RTVSPost2010Prop49
280
     0
102
RTVSPost2010PropOp49
 70
     1
102
RTVSPost2010Prop50
 90
       50
102
RTVSPost2010PropOp50
 70
     1
102
RTVSPost2010Prop51ColorIndex
 90
      256
102
RTVSPost2010Prop51ColorRGB
 90
-16777216
102
RTVSPost2010PropOp51
 70
     0
102
RTVSPost2010Prop52
140
1.0
102
RTVSPost2010PropOp52
 70
     0
102
RTVSPost2010Prop53
 90
        2
102
RTVSPost2010PropOp53
 70
     1
102
RTVSPost2010Prop54
  1
strokes_ogs.tif
102
RTVSPost2010PropOp54
 70
     1
102
RTVSPost2010Prop55
280
     0
102
RTVSPost2010PropOp55
 70
     1
102
RTVSPost2010Prop56
140
1.0
102
RTVSPost2010PropOp56
 70
     1
102
RTVSPost2010Prop57
140
1.0
102
RTVSPost2010PropOp57
 70
     1
  0
XRECORD
  5
551
102
{ACAD_REACTORS
330
550
102
}
330
550
100
AcDbXrecord
280
     1
102
RTVSPropertyOp0
 70
     1
102
RTVSPropertyOp1
 70
     1
102
RTVSPropertyOp2
 70
     1
102
RTVSPropertyOp3
 70
     1
102
RTVSPropertyOp4
 70
     1
102
RTVSPropertyOp5
 70
     1
102
RTVSPropertyOp6
 70
     1
102
RTVSPropertyOp7
 70
     1
102
RTVSPropertyOp8
 70
     1
102
RTVSPropertyOp9
 70
     1
102
RTVSPropertyOp10
 70
     1
102
RTVSPropertyOp11
 70
     1
102
RTVSPropertyOp12
 70
     1
102
RTVSPropertyOp13
 70
     1
102
RTVSPropertyOp14
 70
     1
102
RTVSPropertyOp15
 70
     1
102
RTVSPropertyOp16
 70
     1
102
RTVSPropertyOp17
 70
     1
102
RTVSPropertyOp18
 70
     1
102
RTVSPropertyOp19
 70
     1
102
RTVSPropertyOp20
 70
     1
102
RTVSPropertyOp21
 70
     1
102
RTVSPropertyOp22
 70
     1
102
RTVSPropertyOp23
 70
     1
102
RTVSPropertyOp24
 70
     1
102
RTVSPropertyOp25
 70
     1
102
RTVSPropertyOp26
 70
     1
102
RTVSPropertyOp27
 70
     1
102
RTVSPropertyOp28
 70
     1
102
RTVSPropertyOp29
 70
     1
102
RTVSPropertyOp30
 70
     1
102
RTVSPropertyOp31
 70
     1
102
RTVSPropertyOp32
 70
     1
102
RTVSPropertyOp33
 70
     1
102
RTVSPropertyOp34
 70
     1
102
RTVSPropertyOp35
 70
     1
102
RTVSPropertyOp36
 70
     1
102
RTVSPropertyOp37
 70
     1
102
RTVSPropertyOp38
 70
     1
102
RTVSPropertyOp39
 70
     1
102
RTVSPropertyOp40
 70
     1
102
RTVSPropertyOp41
 70
     1
102
RTVSPropertyOp42
 70
     1
102
RTVSPropertyOp43
 70
     1
102
RTVSPropertyOp44
 70
     1
102
RTVSPropertyOp45
 70
     1
102
RTVSPropertyOp46
 70
     1
102
RTVSPropertyOp47
 70
     1
102
RTVSPropertyOp48
 70
     1
102
RTVSPropertyOp49
 70
     1
102
RTVSPropertyOp50
 70
     1
102
RTVSPropertyOp51
 70
     0
102
RTVSPropertyOp52
 70
     0
102
RTVSPropertyOp53
 70
     1
102
RTVSPropertyOp54
 70
     1
102
RTVSPropertyOp55
 70
     1
102
RTVSPropertyOp56
 70
     1
102
RTVSPropertyOp57
 70
     1
102
RTVSPost2010Prop28
280
     0
102
RTVSPost2010PropOp28
 70
     1
102
RTVSPost2010Prop29
280
     1
102
RTVSPost2010PropOp29
 70
     1
102
RTVSPost2010Prop30
280
     1
102
RTVSPost2010PropOp30
 70
     1
102
RTVSPost2010Prop31
280
     0
102
RTVSPost2010PropOp31
 70
     1
102
RTVSPost2010Prop32
280
     0
102
RTVSPost2010PropOp32
 70
     1
102
RTVSPost2010Prop33
280
     0
102
RTVSPost2010PropOp33
 70
     1
102
RTVSPost2010Prop34
280
     0
102
RTVSPost2010PropOp34
 70
     1
102
RTVSPost2010Prop35
280
     0
102
RTVSPost2010PropOp35
 70
     1
102
RTVSPost2010Prop36
280
     0
102
RTVSPost2010PropOp36
 70
     1
102
RTVSPost2010Prop37
 90
       50
102
RTVSPost2010PropOp37
 70
     1
102
RTVSPost2010Prop38
140
0.0
102
RTVSPost2010PropOp38
 70
     1
102
RTVSPost2010Prop39
140
1.0
102
RTVSPost2010PropOp39
 70
     1
102
RTVSPost2010Prop40
 90
        0
102
RTVSPost2010PropOp40
 70
     1
102
RTVSPost2010Prop41ColorIndex
 90
       18
102
RTVSPost2010Prop41ColorRGB
 90
        0
102
RTVSPost2010PropOp41
 70
     1
102
RTVSPost2010Prop42
 90
       50
102
RTVSPost2010PropOp42
 70
     1
102
RTVSPost2010Prop43
 90
        3
102
RTVSPost2010PropOp43
 70
     1
102
RTVSPost2010Prop44ColorIndex
 90
        5
102
RTVSPost2010Prop44ColorRGB
 90
      255
102
RTVSPost2010PropOp44
 70
     1
102
RTVSPost2010Prop45
280
     0
102
RTVSPost2010PropOp45
 70
     1
102
RTVSPost2010Prop46
 90
       50
102
RTVSPost2010PropOp46
 70
     1
102
RTVSPost2010Prop47
 90
       50
102
RTVSPost2010PropOp47
 70
     1
102
RTVSPost2010Prop48
 90
       50
102
RTVSPost2010PropOp48
 70
     1
102
RTVSPost2010Prop49
280
     0
102
RTVSPost2010PropOp49
 70
     1
102
RTVSPost2010Prop50
 90
       50
102
RTVSPost2010PropOp50
 70
     1
102
RTVSPost2010Prop51ColorIndex
 90
      256
102
RTVSPost2010Prop51ColorRGB
 90
-16777216
102
RTVSPost2010PropOp51
 70
     0
102
RTVSPost2010Prop52
140
1.0
102
RTVSPost2010PropOp52
 70
     0
102
RTVSPost2010Prop53
 90
        2
102
RTVSPost2010PropOp53
 70
     1
102
RTVSPost2010Prop54
  1
strokes_ogs.tif
102
RTVSPost2010PropOp54
 70
     1
102
RTVSPost2010Prop55
280
     0
102
RTVSPost2010PropOp55
 70
     1
102
RTVSPost2010Prop56
140
1.0
102
RTVSPost2010PropOp56
 70
     1
102
RTVSPost2010Prop57
140
1.0
102
RTVSPost2010PropOp57
 70
     1
  0
XRECORD
  5
559
102
{ACAD_REACTORS
330
558
102
}
330
558
100
AcDbXrecord
280
     1
102
RTVSPropertyOp0
 70
     1
102
RTVSPropertyOp1
 70
     1
102
RTVSPropertyOp2
 70
     1
102
RTVSPropertyOp3
 70
     1
102
RTVSPropertyOp4
 70
     1
102
RTVSPropertyOp5
 70
     1
102
RTVSPropertyOp6
 70
     1
102
RTVSPropertyOp7
 70
     1
102
RTVSPropertyOp8
 70
     1
102
RTVSPropertyOp9
 70
     1
102
RTVSPropertyOp10
 70
     1
102
RTVSPropertyOp11
 70
     1
102
RTVSPropertyOp12
 70
     1
102
RTVSPropertyOp13
 70
     1
102
RTVSPropertyOp14
 70
     1
102
RTVSPropertyOp15
 70
     1
102
RTVSPropertyOp16
 70
     1
102
RTVSPropertyOp17
 70
     1
102
RTVSPropertyOp18
 70
     1
102
RTVSPropertyOp19
 70
     1
102
RTVSPropertyOp20
 70
     1
102
RTVSPropertyOp21
 70
     1
102
RTVSPropertyOp22
 70
     1
102
RTVSPropertyOp23
 70
     1
102
RTVSPropertyOp24
 70
     1
102
RTVSPropertyOp25
 70
     1
102
RTVSPropertyOp26
 70
     1
102
RTVSPropertyOp27
 70
     1
102
RTVSPropertyOp28
 70
     1
102
RTVSPropertyOp29
 70
     1
102
RTVSPropertyOp30
 70
     1
102
RTVSPropertyOp31
 70
     1
102
RTVSPropertyOp32
 70
     1
102
RTVSPropertyOp33
 70
     1
102
RTVSPropertyOp34
 70
     1
102
RTVSPropertyOp35
 70
     1
102
RTVSPropertyOp36
 70
     1
102
RTVSPropertyOp37
 70
     1
102
RTVSPropertyOp38
 70
     1
102
RTVSPropertyOp39
 70
     1
102
RTVSPropertyOp40
 70
     1
102
RTVSPropertyOp41
 70
     1
102
RTVSPropertyOp42
 70
     1
102
RTVSPropertyOp43
 70
     1
102
RTVSPropertyOp44
 70
     1
102
RTVSPropertyOp45
 70
     1
102
RTVSPropertyOp46
 70
     1
102
RTVSPropertyOp47
 70
     1
102
RTVSPropertyOp48
 70
     1
102
RTVSPropertyOp49
 70
     1
102
RTVSPropertyOp50
 70
     1
102
RTVSPropertyOp51
 70
     0
102
RTVSPropertyOp52
 70
     0
102
RTVSPropertyOp53
 70
     1
102
RTVSPropertyOp54
 70
     1
102
RTVSPropertyOp55
 70
     1
102
RTVSPropertyOp56
 70
     1
102
RTVSPropertyOp57
 70
     1
102
RTVSPost2010Prop28
280
     0
102
RTVSPost2010PropOp28
 70
     1
102
RTVSPost2010Prop29
280
     1
102
RTVSPost2010PropOp29
 70
     1
102
RTVSPost2010Prop30
280
     1
102
RTVSPost2010PropOp30
 70
     1
102
RTVSPost2010Prop31
280
     0
102
RTVSPost2010PropOp31
 70
     1
102
RTVSPost2010Prop32
280
     0
102
RTVSPost2010PropOp32
 70
     1
102
RTVSPost2010Prop33
280
     0
102
RTVSPost2010PropOp33
 70
     1
102
RTVSPost2010Prop34
280
     0
102
RTVSPost2010PropOp34
 70
     1
102
RTVSPost2010Prop35
280
     0
102
RTVSPost2010PropOp35
 70
     1
102
RTVSPost2010Prop36
280
     0
102
RTVSPost2010PropOp36
 70
     1
102
RTVSPost2010Prop37
 90
       50
102
RTVSPost2010PropOp37
 70
     1
102
RTVSPost2010Prop38
140
0.0
102
RTVSPost2010PropOp38
 70
     1
102
RTVSPost2010Prop39
140
1.0
102
RTVSPost2010PropOp39
 70
     1
102
RTVSPost2010Prop40
 90
        0
102
RTVSPost2010PropOp40
 70
     1
102
RTVSPost2010Prop41ColorIndex
 90
       18
102
RTVSPost2010Prop41ColorRGB
 90
        0
102
RTVSPost2010PropOp41
 70
     1
102
RTVSPost2010Prop42
 90
       50
102
RTVSPost2010PropOp42
 70
     1
102
RTVSPost2010Prop43
 90
        3
102
RTVSPost2010PropOp43
 70
     1
102
RTVSPost2010Prop44ColorIndex
 90
        5
102
RTVSPost2010Prop44ColorRGB
 90
      255
102
RTVSPost2010PropOp44
 70
     1
102
RTVSPost2010Prop45
280
     0
102
RTVSPost2010PropOp45
 70
     1
102
RTVSPost2010Prop46
 90
       50
102
RTVSPost2010PropOp46
 70
     1
102
RTVSPost2010Prop47
 90
       50
102
RTVSPost2010PropOp47
 70
     1
102
RTVSPost2010Prop48
 90
       50
102
RTVSPost2010PropOp48
 70
     1
102
RTVSPost2010Prop49
280
     0
102
RTVSPost2010PropOp49
 70
     1
102
RTVSPost2010Prop50
 90
       50
102
RTVSPost2010PropOp50
 70
     1
102
RTVSPost2010Prop51ColorIndex
 90
      256
102
RTVSPost2010Prop51ColorRGB
 90
-16777216
102
RTVSPost2010PropOp51
 70
     0
102
RTVSPost2010Prop52
140
1.0
102
RTVSPost2010PropOp52
 70
     0
102
RTVSPost2010Prop53
 90
        2
102
RTVSPost2010PropOp53
 70
     1
102
RTVSPost2010Prop54
  1
strokes_ogs.tif
102
RTVSPost2010PropOp54
 70
     1
102
RTVSPost2010Prop55
280
     0
102
RTVSPost2010PropOp55
 70
     1
102
RTVSPost2010Prop56
140
1.0
102
RTVSPost2010PropOp56
 70
     1
102
RTVSPost2010Prop57
140
1.0
102
RTVSPost2010PropOp57
 70
     1
  0
XRECORD
  5
561
102
{ACAD_REACTORS
330
560
102
}
330
560
100
AcDbXrecord
280
     1
102
RTVSPropertyOp0
 70
     1
102
RTVSPropertyOp1
 70
     1
102
RTVSPropertyOp2
 70
     1
102
RTVSPropertyOp3
 70
     1
102
RTVSPropertyOp4
 70
     1
102
RTVSPropertyOp5
 70
     1
102
RTVSPropertyOp6
 70
     1
102
RTVSPropertyOp7
 70
     1
102
RTVSPropertyOp8
 70
     1
102
RTVSPropertyOp9
 70
     1
102
RTVSPropertyOp10
 70
     1
102
RTVSPropertyOp11
 70
     1
102
RTVSPropertyOp12
 70
     1
102
RTVSPropertyOp13
 70
     1
102
RTVSPropertyOp14
 70
     1
102
RTVSPropertyOp15
 70
     1
102
RTVSPropertyOp16
 70
     1
102
RTVSPropertyOp17
 70
     1
102
RTVSPropertyOp18
 70
     1
102
RTVSPropertyOp19
 70
     1
102
RTVSPropertyOp20
 70
     1
102
RTVSPropertyOp21
 70
     1
102
RTVSPropertyOp22
 70
     1
102
RTVSPropertyOp23
 70
     1
102
RTVSPropertyOp24
 70
     1
102
RTVSPropertyOp25
 70
     1
102
RTVSPropertyOp26
 70
     1
102
RTVSPropertyOp27
 70
     1
102
RTVSPropertyOp28
 70
     1
102
RTVSPropertyOp29
 70
     1
102
RTVSPropertyOp30
 70
     1
102
RTVSPropertyOp31
 70
     1
102
RTVSPropertyOp32
 70
     1
102
RTVSPropertyOp33
 70
     1
102
RTVSPropertyOp34
 70
     1
102
RTVSPropertyOp35
 70
     1
102
RTVSPropertyOp36
 70
     1
102
RTVSPropertyOp37
 70
     1
102
RTVSPropertyOp38
 70
     1
102
RTVSPropertyOp39
 70
     1
102
RTVSPropertyOp40
 70
     1
102
RTVSPropertyOp41
 70
     1
102
RTVSPropertyOp42
 70
     1
102
RTVSPropertyOp43
 70
     1
102
RTVSPropertyOp44
 70
     1
102
RTVSPropertyOp45
 70
     1
102
RTVSPropertyOp46
 70
     1
102
RTVSPropertyOp47
 70
     1
102
RTVSPropertyOp48
 70
     1
102
RTVSPropertyOp49
 70
     1
102
RTVSPropertyOp50
 70
     1
102
RTVSPropertyOp51
 70
     0
102
RTVSPropertyOp52
 70
     0
102
RTVSPropertyOp53
 70
     1
102
RTVSPropertyOp54
 70
     1
102
RTVSPropertyOp55
 70
     1
102
RTVSPropertyOp56
 70
     1
102
RTVSPropertyOp57
 70
     1
102
RTVSPost2010Prop28
280
     0
102
RTVSPost2010PropOp28
 70
     1
102
RTVSPost2010Prop29
280
     1
102
RTVSPost2010PropOp29
 70
     1
102
RTVSPost2010Prop30
280
     1
102
RTVSPost2010PropOp30
 70
     1
102
RTVSPost2010Prop31
280
     0
102
RTVSPost2010PropOp31
 70
     1
102
RTVSPost2010Prop32
280
     0
102
RTVSPost2010PropOp32
 70
     1
102
RTVSPost2010Prop33
280
     0
102
RTVSPost2010PropOp33
 70
     1
102
RTVSPost2010Prop34
280
     0
102
RTVSPost2010PropOp34
 70
     1
102
RTVSPost2010Prop35
280
     0
102
RTVSPost2010PropOp35
 70
     1
102
RTVSPost2010Prop36
280
     0
102
RTVSPost2010PropOp36
 70
     1
102
RTVSPost2010Prop37
 90
       50
102
RTVSPost2010PropOp37
 70
     1
102
RTVSPost2010Prop38
140
0.0
102
RTVSPost2010PropOp38
 70
     1
102
RTVSPost2010Prop39
140
1.0
102
RTVSPost2010PropOp39
 70
     1
102
RTVSPost2010Prop40
 90
        0
102
RTVSPost2010PropOp40
 70
     1
102
RTVSPost2010Prop41ColorIndex
 90
       18
102
RTVSPost2010Prop41ColorRGB
 90
        0
102
RTVSPost2010PropOp41
 70
     1
102
RTVSPost2010Prop42
 90
       50
102
RTVSPost2010PropOp42
 70
     1
102
RTVSPost2010Prop43
 90
        3
102
RTVSPost2010PropOp43
 70
     1
102
RTVSPost2010Prop44ColorIndex
 90
        5
102
RTVSPost2010Prop44ColorRGB
 90
      255
102
RTVSPost2010PropOp44
 70
     1
102
RTVSPost2010Prop45
280
     0
102
RTVSPost2010PropOp45
 70
     1
102
RTVSPost2010Prop46
 90
       50
102
RTVSPost2010PropOp46
 70
     1
102
RTVSPost2010Prop47
 90
       50
102
RTVSPost2010PropOp47
 70
     1
102
RTVSPost2010Prop48
 90
       50
102
RTVSPost2010PropOp48
 70
     1
102
RTVSPost2010Prop49
280
     0
102
RTVSPost2010PropOp49
 70
     1
102
RTVSPost2010Prop50
 90
       50
102
RTVSPost2010PropOp50
 70
     1
102
RTVSPost2010Prop51ColorIndex
 90
      256
102
RTVSPost2010Prop51ColorRGB
 90
-16777216
102
RTVSPost2010PropOp51
 70
     0
102
RTVSPost2010Prop52
140
1.0
102
RTVSPost2010PropOp52
 70
     0
102
RTVSPost2010Prop53
 90
        2
102
RTVSPost2010PropOp53
 70
     1
102
RTVSPost2010Prop54
  1
strokes_ogs.tif
102
RTVSPost2010PropOp54
 70
     1
102
RTVSPost2010Prop55
280
     0
102
RTVSPost2010PropOp55
 70
     1
102
RTVSPost2010Prop56
140
1.0
102
RTVSPost2010PropOp56
 70
     1
102
RTVSPost2010Prop57
140
1.0
102
RTVSPost2010PropOp57
 70
     1
  0
XRECORD
  5
555
102
{ACAD_REACTORS
330
554
102
}
330
554
100
AcDbXrecord
280
     1
102
RTVSPropertyOp0
 70
     1
102
RTVSPropertyOp1
 70
     1
102
RTVSPropertyOp2
 70
     1
102
RTVSPropertyOp3
 70
     1
102
RTVSPropertyOp4
 70
     1
102
RTVSPropertyOp5
 70
     1
102
RTVSPropertyOp6
 70
     1
102
RTVSPropertyOp7
 70
     1
102
RTVSPropertyOp8
 70
     1
102
RTVSPropertyOp9
 70
     1
102
RTVSPropertyOp10
 70
     1
102
RTVSPropertyOp11
 70
     1
102
RTVSPropertyOp12
 70
     1
102
RTVSPropertyOp13
 70
     1
102
RTVSPropertyOp14
 70
     1
102
RTVSPropertyOp15
 70
     1
102
RTVSPropertyOp16
 70
     1
102
RTVSPropertyOp17
 70
     1
102
RTVSPropertyOp18
 70
     1
102
RTVSPropertyOp19
 70
     1
102
RTVSPropertyOp20
 70
     1
102
RTVSPropertyOp21
 70
     1
102
RTVSPropertyOp22
 70
     1
102
RTVSPropertyOp23
 70
     1
102
RTVSPropertyOp24
 70
     1
102
RTVSPropertyOp25
 70
     1
102
RTVSPropertyOp26
 70
     1
102
RTVSPropertyOp27
 70
     1
102
RTVSPropertyOp28
 70
     1
102
RTVSPropertyOp29
 70
     1
102
RTVSPropertyOp30
 70
     1
102
RTVSPropertyOp31
 70
     1
102
RTVSPropertyOp32
 70
     1
102
RTVSPropertyOp33
 70
     1
102
RTVSPropertyOp34
 70
     1
102
RTVSPropertyOp35
 70
     1
102
RTVSPropertyOp36
 70
     1
102
RTVSPropertyOp37
 70
     1
102
RTVSPropertyOp38
 70
     1
102
RTVSPropertyOp39
 70
     1
102
RTVSPropertyOp40
 70
     1
102
RTVSPropertyOp41
 70
     1
102
RTVSPropertyOp42
 70
     1
102
RTVSPropertyOp43
 70
     1
102
RTVSPropertyOp44
 70
     1
102
RTVSPropertyOp45
 70
     1
102
RTVSPropertyOp46
 70
     1
102
RTVSPropertyOp47
 70
     1
102
RTVSPropertyOp48
 70
     1
102
RTVSPropertyOp49
 70
     1
102
RTVSPropertyOp50
 70
     1
102
RTVSPropertyOp51
 70
     0
102
RTVSPropertyOp52
 70
     0
102
RTVSPropertyOp53
 70
     1
102
RTVSPropertyOp54
 70
     1
102
RTVSPropertyOp55
 70
     1
102
RTVSPropertyOp56
 70
     1
102
RTVSPropertyOp57
 70
     1
102
RTVSPost2010Prop28
280
     0
102
RTVSPost2010PropOp28
 70
     1
102
RTVSPost2010Prop29
280
     1
102
RTVSPost2010PropOp29
 70
     1
102
RTVSPost2010Prop30
280
     1
102
RTVSPost2010PropOp30
 70
     1
102
RTVSPost2010Prop31
280
     0
102
RTVSPost2010PropOp31
 70
     1
102
RTVSPost2010Prop32
280
     0
102
RTVSPost2010PropOp32
 70
     1
102
RTVSPost2010Prop33
280
     0
102
RTVSPost2010PropOp33
 70
     1
102
RTVSPost2010Prop34
280
     0
102
RTVSPost2010PropOp34
 70
     1
102
RTVSPost2010Prop35
280
     0
102
RTVSPost2010PropOp35
 70
     1
102
RTVSPost2010Prop36
280
     0
102
RTVSPost2010PropOp36
 70
     1
102
RTVSPost2010Prop37
 90
       50
102
RTVSPost2010PropOp37
 70
     1
102
RTVSPost2010Prop38
140
0.0
102
RTVSPost2010PropOp38
 70
     1
102
RTVSPost2010Prop39
140
1.0
102
RTVSPost2010PropOp39
 70
     1
102
RTVSPost2010Prop40
 90
        0
102
RTVSPost2010PropOp40
 70
     1
102
RTVSPost2010Prop41ColorIndex
 90
       18
102
RTVSPost2010Prop41ColorRGB
 90
        0
102
RTVSPost2010PropOp41
 70
     1
102
RTVSPost2010Prop42
 90
       50
102
RTVSPost2010PropOp42
 70
     1
102
RTVSPost2010Prop43
 90
        3
102
RTVSPost2010PropOp43
 70
     1
102
RTVSPost2010Prop44ColorIndex
 90
        5
102
RTVSPost2010Prop44ColorRGB
 90
      255
102
RTVSPost2010PropOp44
 70
     1
102
RTVSPost2010Prop45
280
     0
102
RTVSPost2010PropOp45
 70
     1
102
RTVSPost2010Prop46
 90
       50
102
RTVSPost2010PropOp46
 70
     1
102
RTVSPost2010Prop47
 90
       50
102
RTVSPost2010PropOp47
 70
     1
102
RTVSPost2010Prop48
 90
       50
102
RTVSPost2010PropOp48
 70
     1
102
RTVSPost2010Prop49
280
     0
102
RTVSPost2010PropOp49
 70
     1
102
RTVSPost2010Prop50
 90
       50
102
RTVSPost2010PropOp50
 70
     1
102
RTVSPost2010Prop51ColorIndex
 90
      256
102
RTVSPost2010Prop51ColorRGB
 90
-16777216
102
RTVSPost2010PropOp51
 70
     0
102
RTVSPost2010Prop52
140
1.0
102
RTVSPost2010PropOp52
 70
     0
102
RTVSPost2010Prop53
 90
        2
102
RTVSPost2010PropOp53
 70
     1
102
RTVSPost2010Prop54
  1
strokes_ogs.tif
102
RTVSPost2010PropOp54
 70
     1
102
RTVSPost2010Prop55
280
     0
102
RTVSPost2010PropOp55
 70
     1
102
RTVSPost2010Prop56
140
1.0
102
RTVSPost2010PropOp56
 70
     1
102
RTVSPost2010Prop57
140
1.0
102
RTVSPost2010PropOp57
 70
     1
  0
XRECORD
  5
557
102
{ACAD_REACTORS
330
556
102
}
330
556
100
AcDbXrecord
280
     1
102
RTVSPropertyOp0
 70
     1
102
RTVSPropertyOp1
 70
     1
102
RTVSPropertyOp2
 70
     1
102
RTVSPropertyOp3
 70
     1
102
RTVSPropertyOp4
 70
     1
102
RTVSPropertyOp5
 70
     1
102
RTVSPropertyOp6
 70
     1
102
RTVSPropertyOp7
 70
     1
102
RTVSPropertyOp8
 70
     1
102
RTVSPropertyOp9
 70
     1
102
RTVSPropertyOp10
 70
     1
102
RTVSPropertyOp11
 70
     1
102
RTVSPropertyOp12
 70
     1
102
RTVSPropertyOp13
 70
     1
102
RTVSPropertyOp14
 70
     1
102
RTVSPropertyOp15
 70
     1
102
RTVSPropertyOp16
 70
     1
102
RTVSPropertyOp17
 70
     1
102
RTVSPropertyOp18
 70
     1
102
RTVSPropertyOp19
 70
     1
102
RTVSPropertyOp20
 70
     1
102
RTVSPropertyOp21
 70
     1
102
RTVSPropertyOp22
 70
     1
102
RTVSPropertyOp23
 70
     1
102
RTVSPropertyOp24
 70
     1
102
RTVSPropertyOp25
 70
     1
102
RTVSPropertyOp26
 70
     1
102
RTVSPropertyOp27
 70
     1
102
RTVSPropertyOp28
 70
     1
102
RTVSPropertyOp29
 70
     1
102
RTVSPropertyOp30
 70
     1
102
RTVSPropertyOp31
 70
     1
102
RTVSPropertyOp32
 70
     1
102
RTVSPropertyOp33
 70
     1
102
RTVSPropertyOp34
 70
     1
102
RTVSPropertyOp35
 70
     1
102
RTVSPropertyOp36
 70
     1
102
RTVSPropertyOp37
 70
     1
102
RTVSPropertyOp38
 70
     1
102
RTVSPropertyOp39
 70
     1
102
RTVSPropertyOp40
 70
     1
102
RTVSPropertyOp41
 70
     1
102
RTVSPropertyOp42
 70
     1
102
RTVSPropertyOp43
 70
     1
102
RTVSPropertyOp44
 70
     1
102
RTVSPropertyOp45
 70
     1
102
RTVSPropertyOp46
 70
     1
102
RTVSPropertyOp47
 70
     1
102
RTVSPropertyOp48
 70
     1
102
RTVSPropertyOp49
 70
     1
102
RTVSPropertyOp50
 70
     1
102
RTVSPropertyOp51
 70
     0
102
RTVSPropertyOp52
 70
     0
102
RTVSPropertyOp53
 70
     1
102
RTVSPropertyOp54
 70
     1
102
RTVSPropertyOp55
 70
     1
102
RTVSPropertyOp56
 70
     1
102
RTVSPropertyOp57
 70
     1
102
RTVSPost2010Prop28
280
     0
102
RTVSPost2010PropOp28
 70
     1
102
RTVSPost2010Prop29
280
     1
102
RTVSPost2010PropOp29
 70
     1
102
RTVSPost2010Prop30
280
     1
102
RTVSPost2010PropOp30
 70
     1
102
RTVSPost2010Prop31
280
     0
102
RTVSPost2010PropOp31
 70
     1
102
RTVSPost2010Prop32
280
     0
102
RTVSPost2010PropOp32
 70
     1
102
RTVSPost2010Prop33
280
     0
102
RTVSPost2010PropOp33
 70
     1
102
RTVSPost2010Prop34
280
     0
102
RTVSPost2010PropOp34
 70
     1
102
RTVSPost2010Prop35
280
     0
102
RTVSPost2010PropOp35
 70
     1
102
RTVSPost2010Prop36
280
     0
102
RTVSPost2010PropOp36
 70
     1
102
RTVSPost2010Prop37
 90
       50
102
RTVSPost2010PropOp37
 70
     1
102
RTVSPost2010Prop38
140
0.0
102
RTVSPost2010PropOp38
 70
     1
102
RTVSPost2010Prop39
140
1.0
102
RTVSPost2010PropOp39
 70
     1
102
RTVSPost2010Prop40
 90
        0
102
RTVSPost2010PropOp40
 70
     1
102
RTVSPost2010Prop41ColorIndex
 90
       18
102
RTVSPost2010Prop41ColorRGB
 90
        0
102
RTVSPost2010PropOp41
 70
     1
102
RTVSPost2010Prop42
 90
       50
102
RTVSPost2010PropOp42
 70
     1
102
RTVSPost2010Prop43
 90
        3
102
RTVSPost2010PropOp43
 70
     1
102
RTVSPost2010Prop44ColorIndex
 90
        5
102
RTVSPost2010Prop44ColorRGB
 90
      255
102
RTVSPost2010PropOp44
 70
     1
102
RTVSPost2010Prop45
280
     0
102
RTVSPost2010PropOp45
 70
     1
102
RTVSPost2010Prop46
 90
       50
102
RTVSPost2010PropOp46
 70
     1
102
RTVSPost2010Prop47
 90
       50
102
RTVSPost2010PropOp47
 70
     1
102
RTVSPost2010Prop48
 90
       50
102
RTVSPost2010PropOp48
 70
     1
102
RTVSPost2010Prop49
280
     0
102
RTVSPost2010PropOp49
 70
     1
102
RTVSPost2010Prop50
 90
       50
102
RTVSPost2010PropOp50
 70
     1
102
RTVSPost2010Prop51ColorIndex
 90
      256
102
RTVSPost2010Prop51ColorRGB
 90
-16777216
102
RTVSPost2010PropOp51
 70
     0
102
RTVSPost2010Prop52
140
1.0
102
RTVSPost2010PropOp52
 70
     0
102
RTVSPost2010Prop53
 90
        2
102
RTVSPost2010PropOp53
 70
     1
102
RTVSPost2010Prop54
  1
strokes_ogs.tif
102
RTVSPost2010PropOp54
 70
     1
102
RTVSPost2010Prop55
280
     0
102
RTVSPost2010PropOp55
 70
     1
102
RTVSPost2010Prop56
140
1.0
102
RTVSPost2010PropOp56
 70
     1
102
RTVSPost2010Prop57
140
1.0
102
RTVSPost2010PropOp57
 70
     1
  0
XRECORD
  5
55F
102
{ACAD_REACTORS
330
55E
102
}
330
55E
100
AcDbXrecord
280
     1
102
RTVSPropertyOp0
 70
     1
102
RTVSPropertyOp1
 70
     1
102
RTVSPropertyOp2
 70
     1
102
RTVSPropertyOp3
 70
     1
102
RTVSPropertyOp4
 70
     1
102
RTVSPropertyOp5
 70
     1
102
RTVSPropertyOp6
 70
     1
102
RTVSPropertyOp7
 70
     1
102
RTVSPropertyOp8
 70
     1
102
RTVSPropertyOp9
 70
     1
102
RTVSPropertyOp10
 70
     1
102
RTVSPropertyOp11
 70
     1
102
RTVSPropertyOp12
 70
     1
102
RTVSPropertyOp13
 70
     1
102
RTVSPropertyOp14
 70
     1
102
RTVSPropertyOp15
 70
     1
102
RTVSPropertyOp16
 70
     1
102
RTVSPropertyOp17
 70
     1
102
RTVSPropertyOp18
 70
     1
102
RTVSPropertyOp19
 70
     1
102
RTVSPropertyOp20
 70
     1
102
RTVSPropertyOp21
 70
     1
102
RTVSPropertyOp22
 70
     1
102
RTVSPropertyOp23
 70
     1
102
RTVSPropertyOp24
 70
     1
102
RTVSPropertyOp25
 70
     1
102
RTVSPropertyOp26
 70
     1
102
RTVSPropertyOp27
 70
     1
102
RTVSPropertyOp28
 70
     1
102
RTVSPropertyOp29
 70
     1
102
RTVSPropertyOp30
 70
     1
102
RTVSPropertyOp31
 70
     1
102
RTVSPropertyOp32
 70
     1
102
RTVSPropertyOp33
 70
     1
102
RTVSPropertyOp34
 70
     1
102
RTVSPropertyOp35
 70
     1
102
RTVSPropertyOp36
 70
     1
102
RTVSPropertyOp37
 70
     1
102
RTVSPropertyOp38
 70
     1
102
RTVSPropertyOp39
 70
     1
102
RTVSPropertyOp40
 70
     1
102
RTVSPropertyOp41
 70
     1
102
RTVSPropertyOp42
 70
     1
102
RTVSPropertyOp43
 70
     1
102
RTVSPropertyOp44
 70
     1
102
RTVSPropertyOp45
 70
     1
102
RTVSPropertyOp46
 70
     1
102
RTVSPropertyOp47
 70
     1
102
RTVSPropertyOp48
 70
     1
102
RTVSPropertyOp49
 70
     1
102
RTVSPropertyOp50
 70
     1
102
RTVSPropertyOp51
 70
     0
102
RTVSPropertyOp52
 70
     0
102
RTVSPropertyOp53
 70
     1
102
RTVSPropertyOp54
 70
     1
102
RTVSPropertyOp55
 70
     1
102
RTVSPropertyOp56
 70
     1
102
RTVSPropertyOp57
 70
     1
102
RTVSPost2010Prop28
280
     0
102
RTVSPost2010PropOp28
 70
     1
102
RTVSPost2010Prop29
280
     1
102
RTVSPost2010PropOp29
 70
     1
102
RTVSPost2010Prop30
280
     1
102
RTVSPost2010PropOp30
 70
     1
102
RTVSPost2010Prop31
280
     0
102
RTVSPost2010PropOp31
 70
     1
102
RTVSPost2010Prop32
280
     0
102
RTVSPost2010PropOp32
 70
     1
102
RTVSPost2010Prop33
280
     0
102
RTVSPost2010PropOp33
 70
     1
102
RTVSPost2010Prop34
280
     0
102
RTVSPost2010PropOp34
 70
     1
102
RTVSPost2010Prop35
280
     0
102
RTVSPost2010PropOp35
 70
     1
102
RTVSPost2010Prop36
280
     0
102
RTVSPost2010PropOp36
 70
     1
102
RTVSPost2010Prop37
 90
       50
102
RTVSPost2010PropOp37
 70
     1
102
RTVSPost2010Prop38
140
0.0
102
RTVSPost2010PropOp38
 70
     1
102
RTVSPost2010Prop39
140
1.0
102
RTVSPost2010PropOp39
 70
     1
102
RTVSPost2010Prop40
 90
        0
102
RTVSPost2010PropOp40
 70
     1
102
RTVSPost2010Prop41ColorIndex
 90
       18
102
RTVSPost2010Prop41ColorRGB
 90
        0
102
RTVSPost2010PropOp41
 70
     1
102
RTVSPost2010Prop42
 90
       50
102
RTVSPost2010PropOp42
 70
     1
102
RTVSPost2010Prop43
 90
        3
102
RTVSPost2010PropOp43
 70
     1
102
RTVSPost2010Prop44ColorIndex
 90
        5
102
RTVSPost2010Prop44ColorRGB
 90
      255
102
RTVSPost2010PropOp44
 70
     1
102
RTVSPost2010Prop45
280
     0
102
RTVSPost2010PropOp45
 70
     1
102
RTVSPost2010Prop46
 90
       50
102
RTVSPost2010PropOp46
 70
     1
102
RTVSPost2010Prop47
 90
       50
102
RTVSPost2010PropOp47
 70
     1
102
RTVSPost2010Prop48
 90
       50
102
RTVSPost2010PropOp48
 70
     1
102
RTVSPost2010Prop49
280
     0
102
RTVSPost2010PropOp49
 70
     1
102
RTVSPost2010Prop50
 90
       50
102
RTVSPost2010PropOp50
 70
     1
102
RTVSPost2010Prop51ColorIndex
 90
      256
102
RTVSPost2010Prop51ColorRGB
 90
-16777216
102
RTVSPost2010PropOp51
 70
     0
102
RTVSPost2010Prop52
140
1.0
102
RTVSPost2010PropOp52
 70
     0
102
RTVSPost2010Prop53
 90
        2
102
RTVSPost2010PropOp53
 70
     1
102
RTVSPost2010Prop54
  1
strokes_ogs.tif
102
RTVSPost2010PropOp54
 70
     1
102
RTVSPost2010Prop55
280
     0
102
RTVSPost2010PropOp55
 70
     1
102
RTVSPost2010Prop56
140
1.0
102
RTVSPost2010PropOp56
 70
     1
102
RTVSPost2010Prop57
140
1.0
102
RTVSPost2010PropOp57
 70
     1
  0
XRECORD
  5
543
102
{ACAD_REACTORS
330
542
102
}
330
542
100
AcDbXrecord
280
     1
102
RTVSPropertyOp0
 70
     1
102
RTVSPropertyOp1
 70
     1
102
RTVSPropertyOp2
 70
     1
102
RTVSPropertyOp3
 70
     1
102
RTVSPropertyOp4
 70
     1
102
RTVSPropertyOp5
 70
     1
102
RTVSPropertyOp6
 70
     1
102
RTVSPropertyOp7
 70
     1
102
RTVSPropertyOp8
 70
     1
102
RTVSPropertyOp9
 70
     1
102
RTVSPropertyOp10
 70
     1
102
RTVSPropertyOp11
 70
     1
102
RTVSPropertyOp12
 70
     1
102
RTVSPropertyOp13
 70
     1
102
RTVSPropertyOp14
 70
     1
102
RTVSPropertyOp15
 70
     1
102
RTVSPropertyOp16
 70
     1
102
RTVSPropertyOp17
 70
     1
102
RTVSPropertyOp18
 70
     1
102
RTVSPropertyOp19
 70
     1
102
RTVSPropertyOp20
 70
     1
102
RTVSPropertyOp21
 70
     1
102
RTVSPropertyOp22
 70
     1
102
RTVSPropertyOp23
 70
     1
102
RTVSPropertyOp24
 70
     1
102
RTVSPropertyOp25
 70
     1
102
RTVSPropertyOp26
 70
     1
102
RTVSPropertyOp27
 70
     1
102
RTVSPropertyOp28
 70
     1
102
RTVSPropertyOp29
 70
     1
102
RTVSPropertyOp30
 70
     1
102
RTVSPropertyOp31
 70
     1
102
RTVSPropertyOp32
 70
     1
102
RTVSPropertyOp33
 70
     1
102
RTVSPropertyOp34
 70
     1
102
RTVSPropertyOp35
 70
     1
102
RTVSPropertyOp36
 70
     1
102
RTVSPropertyOp37
 70
     1
102
RTVSPropertyOp38
 70
     1
102
RTVSPropertyOp39
 70
     1
102
RTVSPropertyOp40
 70
     1
102
RTVSPropertyOp41
 70
     1
102
RTVSPropertyOp42
 70
     1
102
RTVSPropertyOp43
 70
     1
102
RTVSPropertyOp44
 70
     1
102
RTVSPropertyOp45
 70
     1
102
RTVSPropertyOp46
 70
     1
102
RTVSPropertyOp47
 70
     1
102
RTVSPropertyOp48
 70
     1
102
RTVSPropertyOp49
 70
     1
102
RTVSPropertyOp50
 70
     1
102
RTVSPropertyOp51
 70
     0
102
RTVSPropertyOp52
 70
     0
102
RTVSPropertyOp53
 70
     1
102
RTVSPropertyOp54
 70
     1
102
RTVSPropertyOp55
 70
     1
102
RTVSPropertyOp56
 70
     1
102
RTVSPropertyOp57
 70
     1
102
RTVSPost2010Prop28
280
     0
102
RTVSPost2010PropOp28
 70
     1
102
RTVSPost2010Prop29
280
     1
102
RTVSPost2010PropOp29
 70
     1
102
RTVSPost2010Prop30
280
     1
102
RTVSPost2010PropOp30
 70
     1
102
RTVSPost2010Prop31
280
     0
102
RTVSPost2010PropOp31
 70
     1
102
RTVSPost2010Prop32
280
     0
102
RTVSPost2010PropOp32
 70
     1
102
RTVSPost2010Prop33
280
     0
102
RTVSPost2010PropOp33
 70
     1
102
RTVSPost2010Prop34
280
     0
102
RTVSPost2010PropOp34
 70
     1
102
RTVSPost2010Prop35
280
     0
102
RTVSPost2010PropOp35
 70
     1
102
RTVSPost2010Prop36
280
     0
102
RTVSPost2010PropOp36
 70
     1
102
RTVSPost2010Prop37
 90
       50
102
RTVSPost2010PropOp37
 70
     1
102
RTVSPost2010Prop38
140
0.0
102
RTVSPost2010PropOp38
 70
     1
102
RTVSPost2010Prop39
140
1.0
102
RTVSPost2010PropOp39
 70
     1
102
RTVSPost2010Prop40
 90
        0
102
RTVSPost2010PropOp40
 70
     1
102
RTVSPost2010Prop41ColorIndex
 90
       18
102
RTVSPost2010Prop41ColorRGB
 90
        0
102
RTVSPost2010PropOp41
 70
     1
102
RTVSPost2010Prop42
 90
       50
102
RTVSPost2010PropOp42
 70
     1
102
RTVSPost2010Prop43
 90
        3
102
RTVSPost2010PropOp43
 70
     1
102
RTVSPost2010Prop44ColorIndex
 90
        5
102
RTVSPost2010Prop44ColorRGB
 90
      255
102
RTVSPost2010PropOp44
 70
     1
102
RTVSPost2010Prop45
280
     0
102
RTVSPost2010PropOp45
 70
     1
102
RTVSPost2010Prop46
 90
       50
102
RTVSPost2010PropOp46
 70
     1
102
RTVSPost2010Prop47
 90
       50
102
RTVSPost2010PropOp47
 70
     1
102
RTVSPost2010Prop48
 90
       50
102
RTVSPost2010PropOp48
 70
     1
102
RTVSPost2010Prop49
280
     0
102
RTVSPost2010PropOp49
 70
     1
102
RTVSPost2010Prop50
 90
       50
102
RTVSPost2010PropOp50
 70
     1
102
RTVSPost2010Prop51ColorIndex
 90
      256
102
RTVSPost2010Prop51ColorRGB
 90
-16777216
102
RTVSPost2010PropOp51
 70
     0
102
RTVSPost2010Prop52
140
1.0
102
RTVSPost2010PropOp52
 70
     0
102
RTVSPost2010Prop53
 90
        2
102
RTVSPost2010PropOp53
 70
     1
102
RTVSPost2010Prop54
  1
strokes_ogs.tif
102
RTVSPost2010PropOp54
 70
     1
102
RTVSPost2010Prop55
280
     0
102
RTVSPost2010PropOp55
 70
     1
102
RTVSPost2010Prop56
140
1.0
102
RTVSPost2010PropOp56
 70
     1
102
RTVSPost2010Prop57
140
1.0
102
RTVSPost2010PropOp57
 70
     1
  0
XRECORD
  5
545
102
{ACAD_REACTORS
330
544
102
}
330
544
100
AcDbXrecord
280
     1
102
RTVSPropertyOp0
 70
     1
102
RTVSPropertyOp1
 70
     1
102
RTVSPropertyOp2
 70
     1
102
RTVSPropertyOp3
 70
     1
102
RTVSPropertyOp4
 70
     1
102
RTVSPropertyOp5
 70
     1
102
RTVSPropertyOp6
 70
     1
102
RTVSPropertyOp7
 70
     1
102
RTVSPropertyOp8
 70
     1
102
RTVSPropertyOp9
 70
     1
102
RTVSPropertyOp10
 70
     1
102
RTVSPropertyOp11
 70
     1
102
RTVSPropertyOp12
 70
     1
102
RTVSPropertyOp13
 70
     1
102
RTVSPropertyOp14
 70
     1
102
RTVSPropertyOp15
 70
     1
102
RTVSPropertyOp16
 70
     1
102
RTVSPropertyOp17
 70
     1
102
RTVSPropertyOp18
 70
     1
102
RTVSPropertyOp19
 70
     1
102
RTVSPropertyOp20
 70
     1
102
RTVSPropertyOp21
 70
     1
102
RTVSPropertyOp22
 70
     1
102
RTVSPropertyOp23
 70
     1
102
RTVSPropertyOp24
 70
     1
102
RTVSPropertyOp25
 70
     1
102
RTVSPropertyOp26
 70
     1
102
RTVSPropertyOp27
 70
     1
102
RTVSPropertyOp28
 70
     1
102
RTVSPropertyOp29
 70
     1
102
RTVSPropertyOp30
 70
     1
102
RTVSPropertyOp31
 70
     1
102
RTVSPropertyOp32
 70
     1
102
RTVSPropertyOp33
 70
     1
102
RTVSPropertyOp34
 70
     1
102
RTVSPropertyOp35
 70
     1
102
RTVSPropertyOp36
 70
     1
102
RTVSPropertyOp37
 70
     1
102
RTVSPropertyOp38
 70
     1
102
RTVSPropertyOp39
 70
     1
102
RTVSPropertyOp40
 70
     1
102
RTVSPropertyOp41
 70
     1
102
RTVSPropertyOp42
 70
     1
102
RTVSPropertyOp43
 70
     1
102
RTVSPropertyOp44
 70
     1
102
RTVSPropertyOp45
 70
     1
102
RTVSPropertyOp46
 70
     1
102
RTVSPropertyOp47
 70
     1
102
RTVSPropertyOp48
 70
     1
102
RTVSPropertyOp49
 70
     1
102
RTVSPropertyOp50
 70
     1
102
RTVSPropertyOp51
 70
     0
102
RTVSPropertyOp52
 70
     0
102
RTVSPropertyOp53
 70
     1
102
RTVSPropertyOp54
 70
     1
102
RTVSPropertyOp55
 70
     1
102
RTVSPropertyOp56
 70
     1
102
RTVSPropertyOp57
 70
     1
102
RTVSPost2010Prop28
280
     0
102
RTVSPost2010PropOp28
 70
     1
102
RTVSPost2010Prop29
280
     1
102
RTVSPost2010PropOp29
 70
     1
102
RTVSPost2010Prop30
280
     1
102
RTVSPost2010PropOp30
 70
     1
102
RTVSPost2010Prop31
280
     0
102
RTVSPost2010PropOp31
 70
     1
102
RTVSPost2010Prop32
280
     0
102
RTVSPost2010PropOp32
 70
     1
102
RTVSPost2010Prop33
280
     0
102
RTVSPost2010PropOp33
 70
     1
102
RTVSPost2010Prop34
280
     0
102
RTVSPost2010PropOp34
 70
     1
102
RTVSPost2010Prop35
280
     0
102
RTVSPost2010PropOp35
 70
     1
102
RTVSPost2010Prop36
280
     0
102
RTVSPost2010PropOp36
 70
     1
102
RTVSPost2010Prop37
 90
       50
102
RTVSPost2010PropOp37
 70
     1
102
RTVSPost2010Prop38
140
0.0
102
RTVSPost2010PropOp38
 70
     1
102
RTVSPost2010Prop39
140
1.0
102
RTVSPost2010PropOp39
 70
     1
102
RTVSPost2010Prop40
 90
        0
102
RTVSPost2010PropOp40
 70
     1
102
RTVSPost2010Prop41ColorIndex
 90
       18
102
RTVSPost2010Prop41ColorRGB
 90
        0
102
RTVSPost2010PropOp41
 70
     1
102
RTVSPost2010Prop42
 90
       50
102
RTVSPost2010PropOp42
 70
     1
102
RTVSPost2010Prop43
 90
        3
102
RTVSPost2010PropOp43
 70
     1
102
RTVSPost2010Prop44ColorIndex
 90
        5
102
RTVSPost2010Prop44ColorRGB
 90
      255
102
RTVSPost2010PropOp44
 70
     1
102
RTVSPost2010Prop45
280
     0
102
RTVSPost2010PropOp45
 70
     1
102
RTVSPost2010Prop46
 90
       50
102
RTVSPost2010PropOp46
 70
     1
102
RTVSPost2010Prop47
 90
       50
102
RTVSPost2010PropOp47
 70
     1
102
RTVSPost2010Prop48
 90
       50
102
RTVSPost2010PropOp48
 70
     1
102
RTVSPost2010Prop49
280
     0
102
RTVSPost2010PropOp49
 70
     1
102
RTVSPost2010Prop50
 90
       50
102
RTVSPost2010PropOp50
 70
     1
102
RTVSPost2010Prop51ColorIndex
 90
      256
102
RTVSPost2010Prop51ColorRGB
 90
-16777216
102
RTVSPost2010PropOp51
 70
     0
102
RTVSPost2010Prop52
140
1.0
102
RTVSPost2010PropOp52
 70
     0
102
RTVSPost2010Prop53
 90
        2
102
RTVSPost2010PropOp53
 70
     1
102
RTVSPost2010Prop54
  1
strokes_ogs.tif
102
RTVSPost2010PropOp54
 70
     1
102
RTVSPost2010Prop55
280
     0
102
RTVSPost2010PropOp55
 70
     1
102
RTVSPost2010Prop56
140
1.0
102
RTVSPost2010PropOp56
 70
     1
102
RTVSPost2010Prop57
140
1.0
102
RTVSPost2010PropOp57
 70
     1
  0
XRECORD
  5
547
102
{ACAD_REACTORS
330
546
102
}
330
546
100
AcDbXrecord
280
     1
102
RTVSPropertyOp0
 70
     1
102
RTVSPropertyOp1
 70
     1
102
RTVSPropertyOp2
 70
     1
102
RTVSPropertyOp3
 70
     1
102
RTVSPropertyOp4
 70
     1
102
RTVSPropertyOp5
 70
     1
102
RTVSPropertyOp6
 70
     1
102
RTVSPropertyOp7
 70
     1
102
RTVSPropertyOp8
 70
     1
102
RTVSPropertyOp9
 70
     1
102
RTVSPropertyOp10
 70
     1
102
RTVSPropertyOp11
 70
     1
102
RTVSPropertyOp12
 70
     1
102
RTVSPropertyOp13
 70
     1
102
RTVSPropertyOp14
 70
     1
102
RTVSPropertyOp15
 70
     1
102
RTVSPropertyOp16
 70
     1
102
RTVSPropertyOp17
 70
     1
102
RTVSPropertyOp18
 70
     1
102
RTVSPropertyOp19
 70
     1
102
RTVSPropertyOp20
 70
     1
102
RTVSPropertyOp21
 70
     1
102
RTVSPropertyOp22
 70
     1
102
RTVSPropertyOp23
 70
     1
102
RTVSPropertyOp24
 70
     1
102
RTVSPropertyOp25
 70
     1
102
RTVSPropertyOp26
 70
     1
102
RTVSPropertyOp27
 70
     1
102
RTVSPropertyOp28
 70
     1
102
RTVSPropertyOp29
 70
     1
102
RTVSPropertyOp30
 70
     1
102
RTVSPropertyOp31
 70
     1
102
RTVSPropertyOp32
 70
     1
102
RTVSPropertyOp33
 70
     1
102
RTVSPropertyOp34
 70
     1
102
RTVSPropertyOp35
 70
     1
102
RTVSPropertyOp36
 70
     1
102
RTVSPropertyOp37
 70
     1
102
RTVSPropertyOp38
 70
     1
102
RTVSPropertyOp39
 70
     1
102
RTVSPropertyOp40
 70
     1
102
RTVSPropertyOp41
 70
     1
102
RTVSPropertyOp42
 70
     1
102
RTVSPropertyOp43
 70
     1
102
RTVSPropertyOp44
 70
     1
102
RTVSPropertyOp45
 70
     1
102
RTVSPropertyOp46
 70
     1
102
RTVSPropertyOp47
 70
     1
102
RTVSPropertyOp48
 70
     1
102
RTVSPropertyOp49
 70
     1
102
RTVSPropertyOp50
 70
     1
102
RTVSPropertyOp51
 70
     0
102
RTVSPropertyOp52
 70
     0
102
RTVSPropertyOp53
 70
     1
102
RTVSPropertyOp54
 70
     1
102
RTVSPropertyOp55
 70
     1
102
RTVSPropertyOp56
 70
     1
102
RTVSPropertyOp57
 70
     1
102
RTVSPost2010Prop28
280
     0
102
RTVSPost2010PropOp28
 70
     1
102
RTVSPost2010Prop29
280
     1
102
RTVSPost2010PropOp29
 70
     1
102
RTVSPost2010Prop30
280
     1
102
RTVSPost2010PropOp30
 70
     1
102
RTVSPost2010Prop31
280
     0
102
RTVSPost2010PropOp31
 70
     1
102
RTVSPost2010Prop32
280
     0
102
RTVSPost2010PropOp32
 70
     1
102
RTVSPost2010Prop33
280
     0
102
RTVSPost2010PropOp33
 70
     1
102
RTVSPost2010Prop34
280
     0
102
RTVSPost2010PropOp34
 70
     1
102
RTVSPost2010Prop35
280
     0
102
RTVSPost2010PropOp35
 70
     1
102
RTVSPost2010Prop36
280
     0
102
RTVSPost2010PropOp36
 70
     1
102
RTVSPost2010Prop37
 90
       50
102
RTVSPost2010PropOp37
 70
     1
102
RTVSPost2010Prop38
140
0.0
102
RTVSPost2010PropOp38
 70
     1
102
RTVSPost2010Prop39
140
1.0
102
RTVSPost2010PropOp39
 70
     1
102
RTVSPost2010Prop40
 90
        0
102
RTVSPost2010PropOp40
 70
     1
102
RTVSPost2010Prop41ColorIndex
 90
       18
102
RTVSPost2010Prop41ColorRGB
 90
        0
102
RTVSPost2010PropOp41
 70
     1
102
RTVSPost2010Prop42
 90
       50
102
RTVSPost2010PropOp42
 70
     1
102
RTVSPost2010Prop43
 90
        3
102
RTVSPost2010PropOp43
 70
     1
102
RTVSPost2010Prop44ColorIndex
 90
        5
102
RTVSPost2010Prop44ColorRGB
 90
      255
102
RTVSPost2010PropOp44
 70
     1
102
RTVSPost2010Prop45
280
     0
102
RTVSPost2010PropOp45
 70
     1
102
RTVSPost2010Prop46
 90
       50
102
RTVSPost2010PropOp46
 70
     1
102
RTVSPost2010Prop47
 90
       50
102
RTVSPost2010PropOp47
 70
     1
102
RTVSPost2010Prop48
 90
       50
102
RTVSPost2010PropOp48
 70
     1
102
RTVSPost2010Prop49
280
     0
102
RTVSPost2010PropOp49
 70
     1
102
RTVSPost2010Prop50
 90
       50
102
RTVSPost2010PropOp50
 70
     1
102
RTVSPost2010Prop51ColorIndex
 90
      256
102
RTVSPost2010Prop51ColorRGB
 90
-16777216
102
RTVSPost2010PropOp51
 70
     0
102
RTVSPost2010Prop52
140
1.0
102
RTVSPost2010PropOp52
 70
     0
102
RTVSPost2010Prop53
 90
        2
102
RTVSPost2010PropOp53
 70
     1
102
RTVSPost2010Prop54
  1
strokes_ogs.tif
102
RTVSPost2010PropOp54
 70
     1
102
RTVSPost2010Prop55
280
     0
102
RTVSPost2010PropOp55
 70
     1
102
RTVSPost2010Prop56
140
1.0
102
RTVSPost2010PropOp56
 70
     1
102
RTVSPost2010Prop57
140
1.0
102
RTVSPost2010PropOp57
 70
     1
  0
XRECORD
  5
549
102
{ACAD_REACTORS
330
548
102
}
330
548
100
AcDbXrecord
280
     1
102
RTVSPropertyOp0
 70
     1
102
RTVSPropertyOp1
 70
     1
102
RTVSPropertyOp2
 70
     1
102
RTVSPropertyOp3
 70
     1
102
RTVSPropertyOp4
 70
     1
102
RTVSPropertyOp5
 70
     1
102
RTVSPropertyOp6
 70
     1
102
RTVSPropertyOp7
 70
     1
102
RTVSPropertyOp8
 70
     1
102
RTVSPropertyOp9
 70
     1
102
RTVSPropertyOp10
 70
     1
102
RTVSPropertyOp11
 70
     1
102
RTVSPropertyOp12
 70
     1
102
RTVSPropertyOp13
 70
     1
102
RTVSPropertyOp14
 70
     1
102
RTVSPropertyOp15
 70
     1
102
RTVSPropertyOp16
 70
     1
102
RTVSPropertyOp17
 70
     1
102
RTVSPropertyOp18
 70
     1
102
RTVSPropertyOp19
 70
     1
102
RTVSPropertyOp20
 70
     1
102
RTVSPropertyOp21
 70
     1
102
RTVSPropertyOp22
 70
     1
102
RTVSPropertyOp23
 70
     1
102
RTVSPropertyOp24
 70
     1
102
RTVSPropertyOp25
 70
     1
102
RTVSPropertyOp26
 70
     1
102
RTVSPropertyOp27
 70
     1
102
RTVSPropertyOp28
 70
     1
102
RTVSPropertyOp29
 70
     1
102
RTVSPropertyOp30
 70
     1
102
RTVSPropertyOp31
 70
     1
102
RTVSPropertyOp32
 70
     1
102
RTVSPropertyOp33
 70
     1
102
RTVSPropertyOp34
 70
     1
102
RTVSPropertyOp35
 70
     1
102
RTVSPropertyOp36
 70
     1
102
RTVSPropertyOp37
 70
     1
102
RTVSPropertyOp38
 70
     1
102
RTVSPropertyOp39
 70
     1
102
RTVSPropertyOp40
 70
     1
102
RTVSPropertyOp41
 70
     1
102
RTVSPropertyOp42
 70
     1
102
RTVSPropertyOp43
 70
     1
102
RTVSPropertyOp44
 70
     1
102
RTVSPropertyOp45
 70
     1
102
RTVSPropertyOp46
 70
     1
102
RTVSPropertyOp47
 70
     1
102
RTVSPropertyOp48
 70
     1
102
RTVSPropertyOp49
 70
     1
102
RTVSPropertyOp50
 70
     1
102
RTVSPropertyOp51
 70
     0
102
RTVSPropertyOp52
 70
     0
102
RTVSPropertyOp53
 70
     1
102
RTVSPropertyOp54
 70
     1
102
RTVSPropertyOp55
 70
     1
102
RTVSPropertyOp56
 70
     1
102
RTVSPropertyOp57
 70
     1
102
RTVSPost2010Prop28
280
     0
102
RTVSPost2010PropOp28
 70
     1
102
RTVSPost2010Prop29
280
     1
102
RTVSPost2010PropOp29
 70
     1
102
RTVSPost2010Prop30
280
     1
102
RTVSPost2010PropOp30
 70
     1
102
RTVSPost2010Prop31
280
     0
102
RTVSPost2010PropOp31
 70
     1
102
RTVSPost2010Prop32
280
     0
102
RTVSPost2010PropOp32
 70
     1
102
RTVSPost2010Prop33
280
     0
102
RTVSPost2010PropOp33
 70
     1
102
RTVSPost2010Prop34
280
     0
102
RTVSPost2010PropOp34
 70
     1
102
RTVSPost2010Prop35
280
     0
102
RTVSPost2010PropOp35
 70
     1
102
RTVSPost2010Prop36
280
     0
102
RTVSPost2010PropOp36
 70
     1
102
RTVSPost2010Prop37
 90
       50
102
RTVSPost2010PropOp37
 70
     1
102
RTVSPost2010Prop38
140
0.0
102
RTVSPost2010PropOp38
 70
     1
102
RTVSPost2010Prop39
140
1.0
102
RTVSPost2010PropOp39
 70
     1
102
RTVSPost2010Prop40
 90
        0
102
RTVSPost2010PropOp40
 70
     1
102
RTVSPost2010Prop41ColorIndex
 90
       18
102
RTVSPost2010Prop41ColorRGB
 90
        0
102
RTVSPost2010PropOp41
 70
     1
102
RTVSPost2010Prop42
 90
       50
102
RTVSPost2010PropOp42
 70
     1
102
RTVSPost2010Prop43
 90
        3
102
RTVSPost2010PropOp43
 70
     1
102
RTVSPost2010Prop44ColorIndex
 90
        5
102
RTVSPost2010Prop44ColorRGB
 90
      255
102
RTVSPost2010PropOp44
 70
     1
102
RTVSPost2010Prop45
280
     0
102
RTVSPost2010PropOp45
 70
     1
102
RTVSPost2010Prop46
 90
       50
102
RTVSPost2010PropOp46
 70
     1
102
RTVSPost2010Prop47
 90
       50
102
RTVSPost2010PropOp47
 70
     1
102
RTVSPost2010Prop48
 90
       50
102
RTVSPost2010PropOp48
 70
     1
102
RTVSPost2010Prop49
280
     0
102
RTVSPost2010PropOp49
 70
     1
102
RTVSPost2010Prop50
 90
       50
102
RTVSPost2010PropOp50
 70
     1
102
RTVSPost2010Prop51ColorIndex
 90
      256
102
RTVSPost2010Prop51ColorRGB
 90
-16777216
102
RTVSPost2010PropOp51
 70
     0
102
RTVSPost2010Prop52
140
1.0
102
RTVSPost2010PropOp52
 70
     0
102
RTVSPost2010Prop53
 90
        2
102
RTVSPost2010PropOp53
 70
     1
102
RTVSPost2010Prop54
  1
strokes_ogs.tif
102
RTVSPost2010PropOp54
 70
     1
102
RTVSPost2010Prop55
280
     0
102
RTVSPost2010PropOp55
 70
     1
102
RTVSPost2010Prop56
140
1.0
102
RTVSPost2010PropOp56
 70
     1
102
RTVSPost2010Prop57
140
1.0
102
RTVSPost2010PropOp57
 70
     1
  0
XRECORD
  5
55D
102
{ACAD_REACTORS
330
55C
102
}
330
55C
100
AcDbXrecord
280
     1
102
RTVSPropertyOp0
 70
     1
102
RTVSPropertyOp1
 70
     1
102
RTVSPropertyOp2
 70
     1
102
RTVSPropertyOp3
 70
     1
102
RTVSPropertyOp4
 70
     1
102
RTVSPropertyOp5
 70
     1
102
RTVSPropertyOp6
 70
     1
102
RTVSPropertyOp7
 70
     1
102
RTVSPropertyOp8
 70
     1
102
RTVSPropertyOp9
 70
     1
102
RTVSPropertyOp10
 70
     1
102
RTVSPropertyOp11
 70
     1
102
RTVSPropertyOp12
 70
     1
102
RTVSPropertyOp13
 70
     1
102
RTVSPropertyOp14
 70
     1
102
RTVSPropertyOp15
 70
     1
102
RTVSPropertyOp16
 70
     1
102
RTVSPropertyOp17
 70
     1
102
RTVSPropertyOp18
 70
     1
102
RTVSPropertyOp19
 70
     1
102
RTVSPropertyOp20
 70
     1
102
RTVSPropertyOp21
 70
     1
102
RTVSPropertyOp22
 70
     1
102
RTVSPropertyOp23
 70
     1
102
RTVSPropertyOp24
 70
     1
102
RTVSPropertyOp25
 70
     1
102
RTVSPropertyOp26
 70
     1
102
RTVSPropertyOp27
 70
     1
102
RTVSPropertyOp28
 70
     1
102
RTVSPropertyOp29
 70
     1
102
RTVSPropertyOp30
 70
     1
102
RTVSPropertyOp31
 70
     1
102
RTVSPropertyOp32
 70
     1
102
RTVSPropertyOp33
 70
     1
102
RTVSPropertyOp34
 70
     1
102
RTVSPropertyOp35
 70
     1
102
RTVSPropertyOp36
 70
     1
102
RTVSPropertyOp37
 70
     1
102
RTVSPropertyOp38
 70
     1
102
RTVSPropertyOp39
 70
     1
102
RTVSPropertyOp40
 70
     1
102
RTVSPropertyOp41
 70
     1
102
RTVSPropertyOp42
 70
     1
102
RTVSPropertyOp43
 70
     1
102
RTVSPropertyOp44
 70
     1
102
RTVSPropertyOp45
 70
     1
102
RTVSPropertyOp46
 70
     1
102
RTVSPropertyOp47
 70
     1
102
RTVSPropertyOp48
 70
     1
102
RTVSPropertyOp49
 70
     1
102
RTVSPropertyOp50
 70
     1
102
RTVSPropertyOp51
 70
     0
102
RTVSPropertyOp52
 70
     0
102
RTVSPropertyOp53
 70
     1
102
RTVSPropertyOp54
 70
     1
102
RTVSPropertyOp55
 70
     1
102
RTVSPropertyOp56
 70
     1
102
RTVSPropertyOp57
 70
     1
102
RTVSPost2010Prop28
280
     0
102
RTVSPost2010PropOp28
 70
     1
102
RTVSPost2010Prop29
280
     1
102
RTVSPost2010PropOp29
 70
     1
102
RTVSPost2010Prop30
280
     1
102
RTVSPost2010PropOp30
 70
     1
102
RTVSPost2010Prop31
280
     0
102
RTVSPost2010PropOp31
 70
     1
102
RTVSPost2010Prop32
280
     0
102
RTVSPost2010PropOp32
 70
     1
102
RTVSPost2010Prop33
280
     0
102
RTVSPost2010PropOp33
 70
     1
102
RTVSPost2010Prop34
280
     0
102
RTVSPost2010PropOp34
 70
     1
102
RTVSPost2010Prop35
280
     0
102
RTVSPost2010PropOp35
 70
     1
102
RTVSPost2010Prop36
280
     0
102
RTVSPost2010PropOp36
 70
     1
102
RTVSPost2010Prop37
 90
       50
102
RTVSPost2010PropOp37
 70
     1
102
RTVSPost2010Prop38
140
0.0
102
RTVSPost2010PropOp38
 70
     1
102
RTVSPost2010Prop39
140
1.0
102
RTVSPost2010PropOp39
 70
     1
102
RTVSPost2010Prop40
 90
        0
102
RTVSPost2010PropOp40
 70
     1
102
RTVSPost2010Prop41ColorIndex
 90
       18
102
RTVSPost2010Prop41ColorRGB
 90
        0
102
RTVSPost2010PropOp41
 70
     1
102
RTVSPost2010Prop42
 90
       50
102
RTVSPost2010PropOp42
 70
     1
102
RTVSPost2010Prop43
 90
        3
102
RTVSPost2010PropOp43
 70
     1
102
RTVSPost2010Prop44ColorIndex
 90
        5
102
RTVSPost2010Prop44ColorRGB
 90
      255
102
RTVSPost2010PropOp44
 70
     1
102
RTVSPost2010Prop45
280
     0
102
RTVSPost2010PropOp45
 70
     1
102
RTVSPost2010Prop46
 90
       50
102
RTVSPost2010PropOp46
 70
     1
102
RTVSPost2010Prop47
 90
       50
102
RTVSPost2010PropOp47
 70
     1
102
RTVSPost2010Prop48
 90
       50
102
RTVSPost2010PropOp48
 70
     1
102
RTVSPost2010Prop49
280
     0
102
RTVSPost2010PropOp49
 70
     1
102
RTVSPost2010Prop50
 90
       50
102
RTVSPost2010PropOp50
 70
     1
102
RTVSPost2010Prop51ColorIndex
 90
      256
102
RTVSPost2010Prop51ColorRGB
 90
-16777216
102
RTVSPost2010PropOp51
 70
     0
102
RTVSPost2010Prop52
140
1.0
102
RTVSPost2010PropOp52
 70
     0
102
RTVSPost2010Prop53
 90
        2
102
RTVSPost2010PropOp53
 70
     1
102
RTVSPost2010Prop54
  1
strokes_ogs.tif
102
RTVSPost2010PropOp54
 70
     1
102
RTVSPost2010Prop55
280
     0
102
RTVSPost2010PropOp55
 70
     1
102
RTVSPost2010Prop56
140
1.0
102
RTVSPost2010PropOp56
 70
     1
102
RTVSPost2010Prop57
140
1.0
102
RTVSPost2010PropOp57
 70
     1
  0
XRECORD
  5
553
102
{ACAD_REACTORS
330
552
102
}
330
552
100
AcDbXrecord
280
     1
102
RTVSPropertyOp0
 70
     1
102
RTVSPropertyOp1
 70
     1
102
RTVSPropertyOp2
 70
     1
102
RTVSPropertyOp3
 70
     1
102
RTVSPropertyOp4
 70
     1
102
RTVSPropertyOp5
 70
     1
102
RTVSPropertyOp6
 70
     1
102
RTVSPropertyOp7
 70
     1
102
RTVSPropertyOp8
 70
     1
102
RTVSPropertyOp9
 70
     1
102
RTVSPropertyOp10
 70
     1
102
RTVSPropertyOp11
 70
     1
102
RTVSPropertyOp12
 70
     1
102
RTVSPropertyOp13
 70
     1
102
RTVSPropertyOp14
 70
     1
102
RTVSPropertyOp15
 70
     1
102
RTVSPropertyOp16
 70
     1
102
RTVSPropertyOp17
 70
     1
102
RTVSPropertyOp18
 70
     1
102
RTVSPropertyOp19
 70
     1
102
RTVSPropertyOp20
 70
     1
102
RTVSPropertyOp21
 70
     1
102
RTVSPropertyOp22
 70
     1
102
RTVSPropertyOp23
 70
     1
102
RTVSPropertyOp24
 70
     1
102
RTVSPropertyOp25
 70
     1
102
RTVSPropertyOp26
 70
     1
102
RTVSPropertyOp27
 70
     1
102
RTVSPropertyOp28
 70
     1
102
RTVSPropertyOp29
 70
     1
102
RTVSPropertyOp30
 70
     1
102
RTVSPropertyOp31
 70
     1
102
RTVSPropertyOp32
 70
     1
102
RTVSPropertyOp33
 70
     1
102
RTVSPropertyOp34
 70
     1
102
RTVSPropertyOp35
 70
     1
102
RTVSPropertyOp36
 70
     1
102
RTVSPropertyOp37
 70
     1
102
RTVSPropertyOp38
 70
     1
102
RTVSPropertyOp39
 70
     1
102
RTVSPropertyOp40
 70
     1
102
RTVSPropertyOp41
 70
     1
102
RTVSPropertyOp42
 70
     1
102
RTVSPropertyOp43
 70
     1
102
RTVSPropertyOp44
 70
     1
102
RTVSPropertyOp45
 70
     1
102
RTVSPropertyOp46
 70
     1
102
RTVSPropertyOp47
 70
     1
102
RTVSPropertyOp48
 70
     1
102
RTVSPropertyOp49
 70
     1
102
RTVSPropertyOp50
 70
     1
102
RTVSPropertyOp51
 70
     0
102
RTVSPropertyOp52
 70
     0
102
RTVSPropertyOp53
 70
     1
102
RTVSPropertyOp54
 70
     1
102
RTVSPropertyOp55
 70
     1
102
RTVSPropertyOp56
 70
     1
102
RTVSPropertyOp57
 70
     1
102
RTVSPost2010Prop28
280
     0
102
RTVSPost2010PropOp28
 70
     1
102
RTVSPost2010Prop29
280
     1
102
RTVSPost2010PropOp29
 70
     1
102
RTVSPost2010Prop30
280
     1
102
RTVSPost2010PropOp30
 70
     1
102
RTVSPost2010Prop31
280
     0
102
RTVSPost2010PropOp31
 70
     1
102
RTVSPost2010Prop32
280
     0
102
RTVSPost2010PropOp32
 70
     1
102
RTVSPost2010Prop33
280
     0
102
RTVSPost2010PropOp33
 70
     1
102
RTVSPost2010Prop34
280
     0
102
RTVSPost2010PropOp34
 70
     1
102
RTVSPost2010Prop35
280
     0
102
RTVSPost2010PropOp35
 70
     1
102
RTVSPost2010Prop36
280
     0
102
RTVSPost2010PropOp36
 70
     1
102
RTVSPost2010Prop37
 90
       50
102
RTVSPost2010PropOp37
 70
     1
102
RTVSPost2010Prop38
140
0.0
102
RTVSPost2010PropOp38
 70
     1
102
RTVSPost2010Prop39
140
1.0
102
RTVSPost2010PropOp39
 70
     1
102
RTVSPost2010Prop40
 90
        0
102
RTVSPost2010PropOp40
 70
     1
102
RTVSPost2010Prop41ColorIndex
 90
       18
102
RTVSPost2010Prop41ColorRGB
 90
        0
102
RTVSPost2010PropOp41
 70
     1
102
RTVSPost2010Prop42
 90
       50
102
RTVSPost2010PropOp42
 70
     1
102
RTVSPost2010Prop43
 90
        3
102
RTVSPost2010PropOp43
 70
     1
102
RTVSPost2010Prop44ColorIndex
 90
        5
102
RTVSPost2010Prop44ColorRGB
 90
      255
102
RTVSPost2010PropOp44
 70
     1
102
RTVSPost2010Prop45
280
     0
102
RTVSPost2010PropOp45
 70
     1
102
RTVSPost2010Prop46
 90
       50
102
RTVSPost2010PropOp46
 70
     1
102
RTVSPost2010Prop47
 90
       50
102
RTVSPost2010PropOp47
 70
     1
102
RTVSPost2010Prop48
 90
       50
102
RTVSPost2010PropOp48
 70
     1
102
RTVSPost2010Prop49
280
     0
102
RTVSPost2010PropOp49
 70
     1
102
RTVSPost2010Prop50
 90
       50
102
RTVSPost2010PropOp50
 70
     1
102
RTVSPost2010Prop51ColorIndex
 90
      256
102
RTVSPost2010Prop51ColorRGB
 90
-16777216
102
RTVSPost2010PropOp51
 70
     0
102
RTVSPost2010Prop52
140
1.0
102
RTVSPost2010PropOp52
 70
     0
102
RTVSPost2010Prop53
 90
        2
102
RTVSPost2010PropOp53
 70
     1
102
RTVSPost2010Prop54
  1
strokes_ogs.tif
102
RTVSPost2010PropOp54
 70
     1
102
RTVSPost2010Prop55
280
     0
102
RTVSPost2010PropOp55
 70
     1
102
RTVSPost2010Prop56
140
1.0
102
RTVSPost2010PropOp56
 70
     1
102
RTVSPost2010Prop57
140
1.0
102
RTVSPost2010PropOp57
 70
     1
  0
XRECORD
  5
55B
102
{ACAD_REACTORS
330
55A
102
}
330
55A
100
AcDbXrecord
280
     1
102
RTVSPropertyOp0
 70
     1
102
RTVSPropertyOp1
 70
     1
102
RTVSPropertyOp2
 70
     1
102
RTVSPropertyOp3
 70
     1
102
RTVSPropertyOp4
 70
     1
102
RTVSPropertyOp5
 70
     1
102
RTVSPropertyOp6
 70
     1
102
RTVSPropertyOp7
 70
     1
102
RTVSPropertyOp8
 70
     1
102
RTVSPropertyOp9
 70
     1
102
RTVSPropertyOp10
 70
     1
102
RTVSPropertyOp11
 70
     1
102
RTVSPropertyOp12
 70
     1
102
RTVSPropertyOp13
 70
     1
102
RTVSPropertyOp14
 70
     1
102
RTVSPropertyOp15
 70
     1
102
RTVSPropertyOp16
 70
     1
102
RTVSPropertyOp17
 70
     1
102
RTVSPropertyOp18
 70
     1
102
RTVSPropertyOp19
 70
     1
102
RTVSPropertyOp20
 70
     1
102
RTVSPropertyOp21
 70
     1
102
RTVSPropertyOp22
 70
     1
102
RTVSPropertyOp23
 70
     1
102
RTVSPropertyOp24
 70
     1
102
RTVSPropertyOp25
 70
     1
102
RTVSPropertyOp26
 70
     1
102
RTVSPropertyOp27
 70
     1
102
RTVSPropertyOp28
 70
     1
102
RTVSPropertyOp29
 70
     1
102
RTVSPropertyOp30
 70
     1
102
RTVSPropertyOp31
 70
     1
102
RTVSPropertyOp32
 70
     1
102
RTVSPropertyOp33
 70
     1
102
RTVSPropertyOp34
 70
     1
102
RTVSPropertyOp35
 70
     1
102
RTVSPropertyOp36
 70
     1
102
RTVSPropertyOp37
 70
     1
102
RTVSPropertyOp38
 70
     1
102
RTVSPropertyOp39
 70
     1
102
RTVSPropertyOp40
 70
     1
102
RTVSPropertyOp41
 70
     1
102
RTVSPropertyOp42
 70
     1
102
RTVSPropertyOp43
 70
     1
102
RTVSPropertyOp44
 70
     1
102
RTVSPropertyOp45
 70
     1
102
RTVSPropertyOp46
 70
     1
102
RTVSPropertyOp47
 70
     1
102
RTVSPropertyOp48
 70
     1
102
RTVSPropertyOp49
 70
     1
102
RTVSPropertyOp50
 70
     1
102
RTVSPropertyOp51
 70
     0
102
RTVSPropertyOp52
 70
     0
102
RTVSPropertyOp53
 70
     1
102
RTVSPropertyOp54
 70
     1
102
RTVSPropertyOp55
 70
     1
102
RTVSPropertyOp56
 70
     1
102
RTVSPropertyOp57
 70
     1
102
RTVSPost2010Prop28
280
     0
102
RTVSPost2010PropOp28
 70
     1
102
RTVSPost2010Prop29
280
     1
102
RTVSPost2010PropOp29
 70
     1
102
RTVSPost2010Prop30
280
     1
102
RTVSPost2010PropOp30
 70
     1
102
RTVSPost2010Prop31
280
     0
102
RTVSPost2010PropOp31
 70
     1
102
RTVSPost2010Prop32
280
     0
102
RTVSPost2010PropOp32
 70
     1
102
RTVSPost2010Prop33
280
     0
102
RTVSPost2010PropOp33
 70
     1
102
RTVSPost2010Prop34
280
     0
102
RTVSPost2010PropOp34
 70
     1
102
RTVSPost2010Prop35
280
     0
102
RTVSPost2010PropOp35
 70
     1
102
RTVSPost2010Prop36
280
     0
102
RTVSPost2010PropOp36
 70
     1
102
RTVSPost2010Prop37
 90
       50
102
RTVSPost2010PropOp37
 70
     1
102
RTVSPost2010Prop38
140
0.0
102
RTVSPost2010PropOp38
 70
     1
102
RTVSPost2010Prop39
140
1.0
102
RTVSPost2010PropOp39
 70
     1
102
RTVSPost2010Prop40
 90
        0
102
RTVSPost2010PropOp40
 70
     1
102
RTVSPost2010Prop41ColorIndex
 90
       18
102
RTVSPost2010Prop41ColorRGB
 90
        0
102
RTVSPost2010PropOp41
 70
     1
102
RTVSPost2010Prop42
 90
       50
102
RTVSPost2010PropOp42
 70
     1
102
RTVSPost2010Prop43
 90
        3
102
RTVSPost2010PropOp43
 70
     1
102
RTVSPost2010Prop44ColorIndex
 90
        5
102
RTVSPost2010Prop44ColorRGB
 90
      255
102
RTVSPost2010PropOp44
 70
     1
102
RTVSPost2010Prop45
280
     0
102
RTVSPost2010PropOp45
 70
     1
102
RTVSPost2010Prop46
 90
       50
102
RTVSPost2010PropOp46
 70
     1
102
RTVSPost2010Prop47
 90
       50
102
RTVSPost2010PropOp47
 70
     1
102
RTVSPost2010Prop48
 90
       50
102
RTVSPost2010PropOp48
 70
     1
102
RTVSPost2010Prop49
280
     0
102
RTVSPost2010PropOp49
 70
     1
102
RTVSPost2010Prop50
 90
       50
102
RTVSPost2010PropOp50
 70
     1
102
RTVSPost2010Prop51ColorIndex
 90
      256
102
RTVSPost2010Prop51ColorRGB
 90
-16777216
102
RTVSPost2010PropOp51
 70
     0
102
RTVSPost2010Prop52
140
1.0
102
RTVSPost2010PropOp52
 70
     0
102
RTVSPost2010Prop53
 90
        2
102
RTVSPost2010PropOp53
 70
     1
102
RTVSPost2010Prop54
  1
strokes_ogs.tif
102
RTVSPost2010PropOp54
 70
     1
102
RTVSPost2010Prop55
280
     0
102
RTVSPost2010PropOp55
 70
     1
102
RTVSPost2010Prop56
140
1.0
102
RTVSPost2010PropOp56
 70
     1
102
RTVSPost2010Prop57
140
1.0
102
RTVSPost2010PropOp57
 70
     1
  0
ENDSEC
  0
EOF
