  0
SECTION
  2
HEADER
  9
$ACADVER
  1
AC1018
  9
$ACADMAINTVER
 70
     0
  9
$DWGCODEPAGE
  3
ANSI_936
  9
$INSBASE
 10
0.0
 20
0.0
 30
0.0
  9
$EXTMIN
 10
378.6199533674756
 20
519.6199533675172
 30
0.0
  9
$EXTMAX
 10
608.6199533674757
 20
678.6199280988731
 30
0.0
  9
$LIMMIN
 10
0.0
 20
0.0
  9
$LIMMAX
 10
12.0
 20
9.0
  9
$ORTHOMODE
 70
     0
  9
$REGENMODE
 70
     1
  9
$FILLMODE
 70
     1
  9
$QTEXTMODE
 70
     0
  9
$MIRRTEXT
 70
     1
  9
$LTSCALE
 40
1.0
  9
$ATTMODE
 70
     1
  9
$TEXTSIZE
 40
0.2
  9
$TRACEWID
 40
0.05
  9
$TEXTSTYLE
  7
Standard
  9
$CLAYER
  8
E9106
  9
$CELTYPE
  6
ByLayer
  9
$CECOLOR
 62
   256
  9
$CELTSCALE
 40
1.0
  9
$DISPSILH
 70
     0
  9
$DIMSCALE
 40
1.0
  9
$DIMASZ
 40
0.18
  9
$DIMEXO
 40
0.0625
  9
$DIMDLI
 40
0.38
  9
$DIMRND
 40
0.0
  9
$DIMDLE
 40
0.0
  9
$DIMEXE
 40
0.18
  9
$DIMTP
 40
0.0
  9
$DIMTM
 40
0.0
  9
$DIMTXT
 40
0.18
  9
$DIMCEN
 40
0.09
  9
$DIMTSZ
 40
0.0
  9
$DIMTOL
 70
     0
  9
$DIMLIM
 70
     0
  9
$DIMTIH
 70
     1
  9
$DIMTOH
 70
     1
  9
$DIMSE1
 70
     0
  9
$DIMSE2
 70
     0
  9
$DIMTAD
 70
     0
  9
$DIMZIN
 70
     0
  9
$DIMBLK
  1

  9
$DIMASO
 70
     1
  9
$DIMSHO
 70
     1
  9
$DIMPOST
  1

  9
$DIMAPOST
  1

  9
$DIMALT
 70
     0
  9
$DIMALTD
 70
     2
  9
$DIMALTF
 40
25.4
  9
$DIMLFAC
 40
1.0
  9
$DIMTOFL
 70
     0
  9
$DIMTVP
 40
0.0
  9
$DIMTIX
 70
     0
  9
$DIMSOXD
 70
     0
  9
$DIMSAH
 70
     0
  9
$DIMBLK1
  1

  9
$DIMBLK2
  1

  9
$DIMSTYLE
  2
Standard
  9
$DIMCLRD
 70
     0
  9
$DIMCLRE
 70
     0
  9
$DIMCLRT
 70
     0
  9
$DIMTFAC
 40
1.0
  9
$DIMGAP
 40
0.09
  9
$DIMJUST
 70
     0
  9
$DIMSD1
 70
     0
  9
$DIMSD2
 70
     0
  9
$DIMTOLJ
 70
     1
  9
$DIMTZIN
 70
     0
  9
$DIMALTZ
 70
     0
  9
$DIMALTTZ
 70
     0
  9
$DIMUPT
 70
     0
  9
$DIMDEC
 70
     4
  9
$DIMTDEC
 70
     4
  9
$DIMALTU
 70
     2
  9
$DIMALTTD
 70
     2
  9
$DIMTXSTY
  7
Standard
  9
$DIMAUNIT
 70
     0
  9
$DIMADEC
 70
     0
  9
$DIMALTRND
 40
0.0
  9
$DIMAZIN
 70
     0
  9
$DIMDSEP
 70
    46
  9
$DIMATFIT
 70
     3
  9
$DIMFRAC
 70
     0
  9
$DIMLDRBLK
  1

  9
$DIMLUNIT
 70
     2
  9
$DIMLWD
 70
    -2
  9
$DIMLWE
 70
    -2
  9
$DIMTMOVE
 70
     2
  9
$LUNITS
 70
     2
  9
$LUPREC
 70
     2
  9
$SKETCHINC
 40
0.1
  9
$FILLETRAD
 40
0.5
  9
$AUNITS
 70
     0
  9
$AUPREC
 70
     0
  9
$MENU
  1
.
  9
$ELEVATION
 40
0.0
  9
$PELEVATION
 40
0.0
  9
$THICKNESS
 40
0.0
  9
$LIMCHECK
 70
     0
  9
$CHAMFERA
 40
0.5
  9
$CHAMFERB
 40
0.5
  9
$CHAMFERC
 40
1.0
  9
$CHAMFERD
 40
0.0
  9
$SKPOLY
 70
     0
  9
$TDCREATE
 40
2456764.520300243
  9
$TDUCREATE
 40
2456764.18696691
  9
$TDUPDATE
 40
2456764.520305625
  9
$TDUUPDATE
 40
2456764.186972292
  9
$TDINDWG
 40
0.0000000116
  9
$TDUSRTIMER
 40
0.0000000116
  9
$USRTIMER
 70
     1
  9
$ANGBASE
 50
0.0
  9
$ANGDIR
 70
     0
  9
$PDMODE
 70
     0
  9
$PDSIZE
 40
0.0
  9
$PLINEWID
 40
0.0
  9
$SPLFRAME
 70
     0
  9
$SPLINETYPE
 70
     6
  9
$SPLINESEGS
 70
     8
  9
$HANDSEED
  5
6B4
  9
$SURFTAB1
 70
     6
  9
$SURFTAB2
 70
     6
  9
$SURFTYPE
 70
     6
  9
$SURFU
 70
     6
  9
$SURFV
 70
     6
  9
$UCSBASE
  2

  9
$UCSNAME
  2

  9
$UCSORG
 10
0.0
 20
0.0
 30
0.0
  9
$UCSXDIR
 10
1.0
 20
0.0
 30
0.0
  9
$UCSYDIR
 10
0.0
 20
1.0
 30
0.0
  9
$UCSORTHOREF
  2

  9
$UCSORTHOVIEW
 70
     0
  9
$UCSORGTOP
 10
0.0
 20
0.0
 30
0.0
  9
$UCSORGBOTTOM
 10
0.0
 20
0.0
 30
0.0
  9
$UCSORGLEFT
 10
0.0
 20
0.0
 30
0.0
  9
$UCSORGRIGHT
 10
0.0
 20
0.0
 30
0.0
  9
$UCSORGFRONT
 10
0.0
 20
0.0
 30
0.0
  9
$UCSORGBACK
 10
0.0
 20
0.0
 30
0.0
  9
$PUCSBASE
  2

  9
$PUCSNAME
  2

  9
$PUCSORG
 10
0.0
 20
0.0
 30
0.0
  9
$PUCSXDIR
 10
1.0
 20
0.0
 30
0.0
  9
$PUCSYDIR
 10
0.0
 20
1.0
 30
0.0
  9
$PUCSORTHOREF
  2

  9
$PUCSORTHOVIEW
 70
     0
  9
$PUCSORGTOP
 10
0.0
 20
0.0
 30
0.0
  9
$PUCSORGBOTTOM
 10
0.0
 20
0.0
 30
0.0
  9
$PUCSORGLEFT
 10
0.0
 20
0.0
 30
0.0
  9
$PUCSORGRIGHT
 10
0.0
 20
0.0
 30
0.0
  9
$PUCSORGFRONT
 10
0.0
 20
0.0
 30
0.0
  9
$PUCSORGBACK
 10
0.0
 20
0.0
 30
0.0
  9
$USERI1
 70
     0
  9
$USERI2
 70
     0
  9
$USERI3
 70
     0
  9
$USERI4
 70
     0
  9
$USERI5
 70
     0
  9
$USERR1
 40
0.0
  9
$USERR2
 40
0.0
  9
$USERR3
 40
0.0
  9
$USERR4
 40
0.0
  9
$USERR5
 40
0.0
  9
$WORLDVIEW
 70
     1
  9
$SHADEDGE
 70
     3
  9
$SHADEDIF
 70
    70
  9
$TILEMODE
 70
     1
  9
$MAXACTVP
 70
    64
  9
$PINSBASE
 10
0.0
 20
0.0
 30
0.0
  9
$PLIMCHECK
 70
     0
  9
$PEXTMIN
 10
1.000000000000000E+20
 20
1.000000000000000E+20
 30
1.000000000000000E+20
  9
$PEXTMAX
 10
-1.000000000000000E+20
 20
-1.000000000000000E+20
 30
-1.000000000000000E+20
  9
$PLIMMIN
 10
0.0
 20
0.0
  9
$PLIMMAX
 10
12.0
 20
9.0
  9
$UNITMODE
 70
     0
  9
$VISRETAIN
 70
     1
  9
$PLINEGEN
 70
     0
  9
$PSLTSCALE
 70
     1
  9
$TREEDEPTH
 70
  3020
  9
$CMLSTYLE
  2
Standard
  9
$CMLJUST
 70
     0
  9
$CMLSCALE
 40
1.0
  9
$PROXYGRAPHICS
 70
     1
  9
$MEASUREMENT
 70
     0
  9
$CELWEIGHT
370
    -1
  9
$ENDCAPS
280
     0
  9
$JOINSTYLE
280
     0
  9
$LWDISPLAY
290
     0
  9
$INSUNITS
 70
     4
  9
$HYPERLINKBASE
  1

  9
$STYLESHEET
  1

  9
$XEDIT
290
     1
  9
$CEPSNTYPE
380
     0
  9
$PSTYLEMODE
290
     1
  9
$FINGERPRINTGUID
  2
{0D8A1927-92D3-46D7-986E-2B6DD02DFF8A}
  9
$VERSIONGUID
  2
{FAEB1C32-E019-11D5-929B-00C0DF256EC4}
  9
$EXTNAMES
290
     1
  9
$PSVPSCALE
 40
0.0
  9
$OLESTARTUP
290
     0
  9
$SORTENTS
280
   127
  9
$INDEXCTL
280
     0
  9
$HIDETEXT
280
     1
  9
$XCLIPFRAME
290
     0
  9
$HALOGAP
280
     0
  9
$OBSCOLOR
 70
   257
  9
$OBSLTYPE
280
     0
  9
$INTERSECTIONDISPLAY
280
     0
  9
$INTERSECTIONCOLOR
 70
   257
  9
$DIMASSOC
280
     2
  9
$PROJECTNAME
  1

  0
ENDSEC
  0
SECTION
  2
CLASSES
  0
CLASS
  1
ACDBDICTIONARYWDFLT
  2
AcDbDictionaryWithDefault
  3
ObjectDBX Classes
 90
        0
 91
        4
280
     0
281
     0
  0
CLASS
  1
VISUALSTYLE
  2
AcDbVisualStyle
  3
ObjectDBX Classes
 90
     4095
 91
        4
280
     0
281
     0
  0
CLASS
  1
MATERIAL
  2
AcDbMaterial
  3
ObjectDBX Classes
 90
     1153
 91
        4
280
     0
281
     0
  0
CLASS
  1
SCALE
  2
AcDbScale
  3
ObjectDBX Classes
 90
     1153
 91
        4
280
     0
281
     0
  0
CLASS
  1
SUN
  2
AcDbSun
  3
SCENEOE
 90
     1153
 91
        4
280
     0
281
     0
  0
CLASS
  1
DICTIONARYVAR
  2
AcDbDictionaryVar
  3
ObjectDBX Classes
 90
        0
 91
        4
280
     0
281
     0
  0
ENDSEC
  0
SECTION
  2
TABLES
  0
TABLE
  2
VPORT
  5
8
330
0
100
AcDbSymbolTable
 70
     1
  0
VPORT
  5
29
330
8
100
AcDbSymbolTableRecord
100
AcDbViewportTableRecord
  2
*Active
 70
     0
 10
0.0
 20
0.0
 11
1.0
 21
1.0
 12
493.6199533674757
 22
599.1199407331951
 13
0.0
 23
0.0
 14
0.5
 24
0.5
 15
0.5
 25
0.5
 16
0.0
 26
0.0
 36
1.0
 17
0.0
 27
0.0
 37
0.0
 40
162.179974225983
 41
1.44654111039077
 42
50.0
 43
0.0
 44
0.0
 50
0.0
 51
0.0
 71
     0
 72
   100
 73
     1
 74
     3
 75
     0
 76
     0
 77
     0
 78
     0
281
     0
 65
     1
110
0.0
120
0.0
130
0.0
111
1.0
121
0.0
131
0.0
112
0.0
122
1.0
132
0.0
 79
     0
146
0.0
  0
ENDTAB
  0
TABLE
  2
LTYPE
  5
5
330
0
100
AcDbSymbolTable
 70
     1
  0
LTYPE
  5
14
330
5
100
AcDbSymbolTableRecord
100
AcDbLinetypeTableRecord
  2
ByBlock
 70
     0
  3

 72
    65
 73
     0
 40
0.0
  0
LTYPE
  5
15
330
5
100
AcDbSymbolTableRecord
100
AcDbLinetypeTableRecord
  2
ByLayer
 70
     0
  3

 72
    65
 73
     0
 40
0.0
  0
LTYPE
  5
16
330
5
100
AcDbSymbolTableRecord
100
AcDbLinetypeTableRecord
  2
Continuous
 70
     0
  3
Solid line
 72
    65
 73
     0
 40
0.0
  0
ENDTAB
  0
TABLE
  2
LAYER
  5
2
330
0
100
AcDbSymbolTable
 70
     3
  0
LAYER
  5
10
330
2
100
AcDbSymbolTableRecord
100
AcDbLayerTableRecord
  2
0
 70
     0
 62
     7
  6
Continuous
370
    -3
390
F
  0
LAYER
  5
62
330
2
100
AcDbSymbolTableRecord
100
AcDbLayerTableRecord
  2
Make2D$可见线$普通线
 70
     0
 62
    18
420
        0
  6
Continuous
370
    -3
390
F
  0
LAYER
  5
27A
330
2
100
AcDbSymbolTableRecord
100
AcDbLayerTableRecord
  2
E9106
 70
     0
 62
    18
420
        0
  6
Continuous
370
    -3
390
F
  0
ENDTAB
  0
TABLE
  2
STYLE
  5
3
330
0
100
AcDbSymbolTable
 70
     1
  0
STYLE
  5
11
330
3
100
AcDbSymbolTableRecord
100
AcDbTextStyleTableRecord
  2
Standard
 70
     0
 40
0.0
 41
1.0
 50
0.0
 71
     0
 42
0.2
  3
txt
  4

  0
ENDTAB
  0
TABLE
  2
VIEW
  5
6
330
0
100
AcDbSymbolTable
 70
     0
  0
ENDTAB
  0
TABLE
  2
UCS
  5
7
330
0
100
AcDbSymbolTable
 70
     0
  0
ENDTAB
  0
TABLE
  2
APPID
  5
9
330
0
100
AcDbSymbolTable
 70
     1
  0
APPID
  5
12
330
9
100
AcDbSymbolTableRecord
100
AcDbRegAppTableRecord
  2
ACAD
 70
     0
  0
ENDTAB
  0
TABLE
  2
DIMSTYLE
  5
A
330
0
100
AcDbSymbolTable
 70
     1
100
AcDbDimStyleTable
  0
DIMSTYLE
105
27
330
A
100
AcDbSymbolTableRecord
100
AcDbDimStyleTableRecord
  2
Standard
 70
     0
178
     0
340
11
  0
ENDTAB
  0
TABLE
  2
BLOCK_RECORD
  5
1
330
0
100
AcDbSymbolTable
 70
     1
  0
BLOCK_RECORD
  5
1F
330
1
100
AcDbSymbolTableRecord
100
AcDbBlockTableRecord
  2
*Model_Space
340
22
  0
BLOCK_RECORD
  5
1B
330
1
100
AcDbSymbolTableRecord
100
AcDbBlockTableRecord
  2
*Paper_Space
340
1E
  0
BLOCK_RECORD
  5
23
330
1
100
AcDbSymbolTableRecord
100
AcDbBlockTableRecord
  2
*Paper_Space0
340
26
  0
ENDTAB
  0
ENDSEC
  0
SECTION
  2
BLOCKS
  0
BLOCK
  5
20
330
1F
100
AcDbEntity
  8
0
100
AcDbBlockBegin
  2
*Model_Space
 70
     0
 10
0.0
 20
0.0
 30
0.0
  3
*Model_Space
  1
*Model_Space
  0
ENDBLK
  5
21
330
1F
100
AcDbEntity
  8
0
100
AcDbBlockEnd
  0
BLOCK
  5
1C
330
1B
100
AcDbEntity
 67
     1
  8
0
100
AcDbBlockBegin
  2
*Paper_Space
 70
     0
 10
0.0
 20
0.0
 30
0.0
  3
*Paper_Space
  1
*Paper_Space
  0
ENDBLK
  5
1D
330
1B
100
AcDbEntity
 67
     1
  8
0
100
AcDbBlockEnd
  0
BLOCK
  5
24
330
23
100
AcDbEntity
  8
0
100
AcDbBlockBegin
  2
*Paper_Space0
 70
     0
 10
0.0
 20
0.0
 30
0.0
  3
*Paper_Space0
  1
*Paper_Space0
  0
ENDBLK
  5
25
330
23
100
AcDbEntity
  8
0
100
AcDbBlockEnd
  0
ENDSEC
  0
SECTION
  2
ENTITIES
  0
ARC
  5
63
330
1F
100
AcDbEntity
  8
Make2D$可见线$普通线
100
AcDbCircle
 10
459.1198066980685
 20
629.6199281004755
 30
0.0
 40
11.99999999839594
100
AcDbArc
 50
91.99734869549326
 51
92.98575351401287
  0
LINE
  5
64
330
1F
100
AcDbEntity
  8
Make2D$可见线$普通线
100
AcDbLine
 10
406.9104670978251
 20
641.6199280988731
 30
0.0
 11
406.7886196847566
 21
641.6199280988732
 31
0.0
  0
LINE
  5
65
330
1F
100
AcDbEntity
  8
Make2D$可见线$普通线
100
AcDbLine
 10
455.4509964076383
 20
641.6199280988731
 30
0.0
 11
455.3291369073427
 21
641.6199280988731
 31
0.0
  0
LINE
  5
66
330
1F
100
AcDbEntity
  8
Make2D$可见线$普通线
100
AcDbLine
 10
564.4285971229588
 20
609.9834130475515
 30
0.0
 11
564.3857005537232
 21
609.9689937049037
 31
0.0
  0
ARC
  5
67
330
1F
100
AcDbEntity
  8
Make2D$可见线$普通线
100
AcDbCircle
 10
560.8120053114569
 20
634.6172613040288
 30
0.0
 40
29.69205213597701
100
AcDbArc
 50
177.0991463586726
 51
182.890580830897
  0
ARC
  5
68
330
1F
100
AcDbEntity
  8
Make2D$可见线$普通线
100
AcDbCircle
 10
556.515922960337
 20
520.6199532158612
 30
0.0
 40
0.9999999568241664
100
AcDbArc
 50
349.5279989193356
 51
359.9861829243488
  0
LINE
  5
69
330
1F
100
AcDbEntity
  8
Make2D$可见线$普通线
100
AcDbLine
 10
567.1905451082522
 20
611.0991087283394
 30
0.0
 11
567.7055917580399
 21
611.3480132994625
 31
0.0
  0
LINE
  5
6A
330
1F
100
AcDbEntity
  8
Make2D$可见线$普通线
100
AcDbLine
 10
566.1448199830754
 20
610.6350110703637
 30
0.0
 11
566.6702019851034
 21
610.861404517874
 31
0.0
  0
LINE
  5
6B
330
1F
100
AcDbEntity
  8
Make2D$可见线$普通线
100
AcDbLine
 10
545.569704749848
 20
610.8614045178741
 30
0.0
 11
546.0950867518759
 21
610.6350110703637
 31
0.0
  0
LINE
  5
6C
330
1F
100
AcDbEntity
  8
Make2D$可见线$普通线
100
AcDbLine
 10
544.5343149769113
 20
611.3480132994627
 30
0.0
 11
545.049361626699
 21
611.0991087283393
 31
0.0
  0
POLYLINE
  5
6D
330
1F
100
AcDbEntity
  8
Make2D$可见线$普通线
100
AcDb2dPolyline
 66
     1
 10
0.0
 20
0.0
 30
0.0
  0
VERTEX
  5
6E
330
6D
100
AcDbEntity
  8
Make2D$可见线$普通线
100
AcDbVertex
100
AcDb2dVertex
 10
562.7260167720032
 20
608.0840987139458
 30
0.0
 42
0.0734790359372626
  0
VERTEX
  5
6F
330
6D
100
AcDbEntity
  8
Make2D$可见线$普通线
100
AcDbVertex
100
AcDb2dVertex
 10
562.5876494000483
 20
607.2207127317129
 30
0.0
 42
-0.0015599023412699
  0
VERTEX
  5
70
330
6D
100
AcDbEntity
  8
Make2D$可见线$普通线
100
AcDbVertex
100
AcDb2dVertex
 10
562.3385656243199
 20
590.3700082098038
 30
0.0
  0
VERTEX
  5
71
330
6D
100
AcDbEntity
  8
Make2D$可见线$普通线
100
AcDbVertex
100
AcDb2dVertex
 10
560.4095424771987
 20
571.8964029510634
 30
0.0
  0
SEQEND
  5
72
330
6D
100
AcDbEntity
  8
Make2D$可见线$普通线
  0
POLYLINE
  5
73
330
1F
100
AcDbEntity
  8
Make2D$可见线$普通线
100
AcDb2dPolyline
 66
     1
 10
0.0
 20
0.0
 30
0.0
  0
VERTEX
  5
74
330
73
100
AcDbEntity
  8
Make2D$可见线$普通线
100
AcDbVertex
100
AcDb2dVertex
 10
550.8656706683001
 20
581.1323138276707
 30
0.0
  0
VERTEX
  5
75
330
73
100
AcDbEntity
  8
Make2D$可见线$普通线
100
AcDbVertex
100
AcDb2dVertex
 10
549.9013606189772
 20
590.3700022096775
 30
0.0
 42
-0.001559866956759
  0
VERTEX
  5
76
330
73
100
AcDbEntity
  8
Make2D$可见线$普通线
100
AcDbVertex
100
AcDb2dVertex
 10
549.6522759816498
 20
607.220711942031
 30
0.0
 42
0.073480657832434
  0
VERTEX
  5
77
330
73
100
AcDbEntity
  8
Make2D$可见线$普通线
100
AcDbVertex
100
AcDb2dVertex
 10
549.513903539754
 20
608.0841092891056
 30
0.0
  0
SEQEND
  5
78
330
73
100
AcDbEntity
  8
Make2D$可见线$普通线
  0
POLYLINE
  5
79
330
1F
100
AcDbEntity
  8
Make2D$可见线$普通线
100
AcDb2dPolyline
 66
     1
 10
0.0
 20
0.0
 30
0.0
  0
VERTEX
  5
7A
330
79
100
AcDbEntity
  8
Make2D$可见线$普通线
100
AcDbVertex
100
AcDb2dVertex
 10
458.6365630231883
 20
641.6101939654255
 30
0.0
 42
0.4024715721955903
  0
VERTEX
  5
7B
330
79
100
AcDbEntity
  8
Make2D$可见线$普通线
100
AcDbVertex
100
AcDb2dVertex
 10
447.1198074290434
 20
629.6196097078537
 30
0.0
  0
VERTEX
  5
7C
330
79
100
AcDbEntity
  8
Make2D$可见线$普通线
100
AcDbVertex
100
AcDb2dVertex
 10
447.1199805615059
 20
624.0311312538056
 30
0.0
  0
VERTEX
  5
7D
330
79
100
AcDbEntity
  8
Make2D$可见线$普通线
100
AcDbVertex
100
AcDb2dVertex
 10
447.1195356536357
 20
623.9756286998556
 30
0.0
  0
VERTEX
  5
7E
330
79
100
AcDbEntity
  8
Make2D$可见线$普通线
100
AcDbVertex
100
AcDb2dVertex
 10
447.1186324238804
 20
623.9443921850648
 30
0.0
  0
VERTEX
  5
7F
330
79
100
AcDbEntity
  8
Make2D$可见线$普通线
100
AcDbVertex
100
AcDb2dVertex
 10
447.1170985964421
 20
623.9132209037509
 30
0.0
  0
VERTEX
  5
80
330
79
100
AcDbEntity
  8
Make2D$可见线$普通线
100
AcDbVertex
100
AcDb2dVertex
 10
447.1149326284595
 20
623.882124713353
 30
0.0
  0
VERTEX
  5
81
330
79
100
AcDbEntity
  8
Make2D$可见线$普通线
100
AcDbVertex
100
AcDb2dVertex
 10
447.112132977071
 20
623.8511134713099
 30
0.0
  0
VERTEX
  5
82
330
79
100
AcDbEntity
  8
Make2D$可见线$普通线
100
AcDbVertex
100
AcDb2dVertex
 10
447.1086980994152
 20
623.8201970350606
 30
0.0
  0
VERTEX
  5
83
330
79
100
AcDbEntity
  8
Make2D$可见线$普通线
100
AcDbVertex
100
AcDb2dVertex
 10
447.1046264526302
 20
623.7893852620439
 30
0.0
  0
VERTEX
  5
84
330
79
100
AcDbEntity
  8
Make2D$可见线$普通线
100
AcDbVertex
100
AcDb2dVertex
 10
447.0999164938549
 20
623.7586880096985
 30
0.0
  0
VERTEX
  5
85
330
79
100
AcDbEntity
  8
Make2D$可见线$普通线
100
AcDbVertex
100
AcDb2dVertex
 10
447.0945666802277
 20
623.7281151354634
 30
0.0
  0
VERTEX
  5
86
330
79
100
AcDbEntity
  8
Make2D$可见线$普通线
100
AcDbVertex
100
AcDb2dVertex
 10
447.0885754688869
 20
623.6976764967776
 30
0.0
  0
VERTEX
  5
87
330
79
100
AcDbEntity
  8
Make2D$可见线$普通线
100
AcDbVertex
100
AcDb2dVertex
 10
447.0819413169711
 20
623.6673819510797
 30
0.0
  0
VERTEX
  5
88
330
79
100
AcDbEntity
  8
Make2D$可见线$普通线
100
AcDbVertex
100
AcDb2dVertex
 10
447.0746626816187
 20
623.6372413558088
 30
0.0
  0
VERTEX
  5
89
330
79
100
AcDbEntity
  8
Make2D$可见线$普通线
100
AcDbVertex
100
AcDb2dVertex
 10
447.0667380199683
 20
623.6072645684037
 30
0.0
  0
VERTEX
  5
8A
330
79
100
AcDbEntity
  8
Make2D$可见线$普通线
100
AcDbVertex
100
AcDb2dVertex
 10
447.0581657891582
 20
623.5774614463031
 30
0.0
  0
VERTEX
  5
8B
330
79
100
AcDbEntity
  8
Make2D$可见线$普通线
100
AcDbVertex
100
AcDb2dVertex
 10
447.0489444463271
 20
623.547841846946
 30
0.0
  0
VERTEX
  5
8C
330
79
100
AcDbEntity
  8
Make2D$可见线$普通线
100
AcDbVertex
100
AcDb2dVertex
 10
447.0390724486134
 20
623.5184156277712
 30
0.0
  0
VERTEX
  5
8D
330
79
100
AcDbEntity
  8
Make2D$可见线$普通线
100
AcDbVertex
100
AcDb2dVertex
 10
447.0285482531555
 20
623.4891926462176
 30
0.0
  0
VERTEX
  5
8E
330
79
100
AcDbEntity
  8
Make2D$可见线$普通线
100
AcDbVertex
100
AcDb2dVertex
 10
447.0176100513125
 20
623.460777599519
 30
0.0
  0
VERTEX
  5
8F
330
79
100
AcDbEntity
  8
Make2D$可见线$普通线
100
AcDbVertex
100
AcDb2dVertex
 10
447.006061285377
 20
623.4325749511954
 30
0.0
  0
VERTEX
  5
90
330
79
100
AcDbEntity
  8
Make2D$可见线$普通线
100
AcDbVertex
100
AcDb2dVertex
 10
446.9939184900712
 20
623.404592688792
 30
0.0
  0
VERTEX
  5
91
330
79
100
AcDbEntity
  8
Make2D$可见线$普通线
100
AcDbVertex
100
AcDb2dVertex
 10
446.9811982001179
 20
623.376838799854
 30
0.0
  0
VERTEX
  5
92
330
79
100
AcDbEntity
  8
Make2D$可见线$普通线
100
AcDbVertex
100
AcDb2dVertex
 10
446.9679169502391
 20
623.3493212719267
 30
0.0
  0
VERTEX
  5
93
330
79
100
AcDbEntity
  8
Make2D$可见线$普通线
100
AcDbVertex
100
AcDb2dVertex
 10
446.9540912751575
 20
623.3220480925552
 30
0.0
  0
VERTEX
  5
94
330
79
100
AcDbEntity
  8
Make2D$可见线$普通线
100
AcDbVertex
100
AcDb2dVertex
 10
446.9397377095954
 20
623.2950272492847
 30
0.0
  0
VERTEX
  5
95
330
79
100
AcDbEntity
  8
Make2D$可见线$普通线
100
AcDbVertex
100
AcDb2dVertex
 10
446.9248727882751
 20
623.2682667296606
 30
0.0
  0
VERTEX
  5
96
330
79
100
AcDbEntity
  8
Make2D$可见线$普通线
100
AcDbVertex
100
AcDb2dVertex
 10
446.9095130459193
 20
623.2417745212279
 30
0.0
  0
VERTEX
  5
97
330
79
100
AcDbEntity
  8
Make2D$可见线$普通线
100
AcDbVertex
100
AcDb2dVertex
 10
446.8936750172501
 20
623.2155586115321
 30
0.0
  0
VERTEX
  5
98
330
79
100
AcDbEntity
  8
Make2D$可见线$普通线
100
AcDbVertex
100
AcDb2dVertex
 10
446.8606302398618
 20
623.1639876385316
 30
0.0
  0
VERTEX
  5
99
330
79
100
AcDbEntity
  8
Make2D$可见线$普通线
100
AcDbVertex
100
AcDb2dVertex
 10
446.8258707338895
 20
623.1136177110207
 30
0.0
  0
VERTEX
  5
9A
330
79
100
AcDbEntity
  8
Make2D$可见线$普通线
100
AcDbVertex
100
AcDb2dVertex
 10
446.7895287771125
 20
623.0645127293614
 30
0.0
  0
VERTEX
  5
9B
330
79
100
AcDbEntity
  8
Make2D$可见线$普通线
100
AcDbVertex
100
AcDb2dVertex
 10
446.7667392172403
 20
623.0353319030155
 30
0.0
  0
VERTEX
  5
9C
330
79
100
AcDbEntity
  8
Make2D$可见线$普通线
100
AcDbVertex
100
AcDb2dVertex
 10
446.7434283232404
 20
623.0066338573188
 30
0.0
  0
VERTEX
  5
9D
330
79
100
AcDbEntity
  8
Make2D$可见线$普通线
100
AcDbVertex
100
AcDb2dVertex
 10
446.7196096127516
 20
622.9784112688203
 30
0.0
  0
VERTEX
  5
9E
330
79
100
AcDbEntity
  8
Make2D$可见线$普通线
100
AcDbVertex
100
AcDb2dVertex
 10
446.695296603413
 20
622.9506568140696
 30
0.0
  0
VERTEX
  5
9F
330
79
100
AcDbEntity
  8
Make2D$可见线$普通线
100
AcDbVertex
100
AcDb2dVertex
 10
446.6705028128638
 20
622.9233631696159
 30
0.0
  0
VERTEX
  5
A0
330
79
100
AcDbEntity
  8
Make2D$可见线$普通线
100
AcDbVertex
100
AcDb2dVertex
 10
446.6452417587428
 20
622.8965230120082
 30
0.0
  0
VERTEX
  5
A1
330
79
100
AcDbEntity
  8
Make2D$可见线$普通线
100
AcDbVertex
100
AcDb2dVertex
 10
446.5933719303424
 20
622.8441738635288
 30
0.0
  0
VERTEX
  5
A2
330
79
100
AcDbEntity
  8
Make2D$可见线$普通线
100
AcDbVertex
100
AcDb2dVertex
 10
446.539795259324
 20
622.7935507810257
 30
0.0
  0
VERTEX
  5
A3
330
79
100
AcDbEntity
  8
Make2D$可见线$普通线
100
AcDbVertex
100
AcDb2dVertex
 10
446.4846198868003
 20
622.744595176893
 30
0.0
  0
VERTEX
  5
A4
330
79
100
AcDbEntity
  8
Make2D$可见线$普通线
100
AcDbVertex
100
AcDb2dVertex
 10
446.4279539538837
 20
622.697248463525
 30
0.0
  0
VERTEX
  5
A5
330
79
100
AcDbEntity
  8
Make2D$可见线$普通线
100
AcDbVertex
100
AcDb2dVertex
 10
446.3699056016867
 20
622.6514520533161
 30
0.0
  0
VERTEX
  5
A6
330
79
100
AcDbEntity
  8
Make2D$可见线$普通线
100
AcDbVertex
100
AcDb2dVertex
 10
446.3105829713218
 20
622.6071473586605
 30
0.0
  0
VERTEX
  5
A7
330
79
100
AcDbEntity
  8
Make2D$可见线$普通线
100
AcDbVertex
100
AcDb2dVertex
 10
446.2500942039014
 20
622.5642757919525
 30
0.0
  0
VERTEX
  5
A8
330
79
100
AcDbEntity
  8
Make2D$可见线$普通线
100
AcDbVertex
100
AcDb2dVertex
 10
446.1885474405382
 20
622.5227787655865
 30
0.0
  0
VERTEX
  5
A9
330
79
100
AcDbEntity
  8
Make2D$可见线$普通线
100
AcDbVertex
100
AcDb2dVertex
 10
446.1260508223444
 20
622.4825976919564
 30
0.0
  0
VERTEX
  5
AA
330
79
100
AcDbEntity
  8
Make2D$可见线$普通线
100
AcDbVertex
100
AcDb2dVertex
 10
446.0627124904328
 20
622.4436739834566
 30
0.0
  0
VERTEX
  5
AB
330
79
100
AcDbEntity
  8
Make2D$可见线$普通线
100
AcDbVertex
100
AcDb2dVertex
 10
445.9986405859155
 20
622.4059490524817
 30
0.0
  0
VERTEX
  5
AC
330
79
100
AcDbEntity
  8
Make2D$可见线$普通线
100
AcDbVertex
100
AcDb2dVertex
 10
445.8687286235146
 20
622.3338611726825
 30
0.0
  0
VERTEX
  5
AD
330
79
100
AcDbEntity
  8
Make2D$可见线$普通线
100
AcDbVertex
100
AcDb2dVertex
 10
445.7741481401953
 20
622.2845598474898
 30
0.0
  0
VERTEX
  5
AE
330
79
100
AcDbEntity
  8
Make2D$可见线$普通线
100
AcDbVertex
100
AcDb2dVertex
 10
445.6787632547011
 20
622.2372467535037
 30
0.0
  0
VERTEX
  5
AF
330
79
100
AcDbEntity
  8
Make2D$可见线$普通线
100
AcDbVertex
100
AcDb2dVertex
 10
445.5826167959559
 20
622.1917917511003
 30
0.0
  0
VERTEX
  5
B0
330
79
100
AcDbEntity
  8
Make2D$可见线$普通线
100
AcDbVertex
100
AcDb2dVertex
 10
445.4857515928837
 20
622.1480647006557
 30
0.0
  0
VERTEX
  5
B1
330
79
100
AcDbEntity
  8
Make2D$可见线$普通线
100
AcDbVertex
100
AcDb2dVertex
 10
445.2900362694536
 20
622.0652738971485
 30
0.0
  0
VERTEX
  5
B2
330
79
100
AcDbEntity
  8
Make2D$可见线$普通线
100
AcDbVertex
100
AcDb2dVertex
 10
445.091959915802
 20
621.9878332259916
 30
0.0
  0
VERTEX
  5
B3
330
79
100
AcDbEntity
  8
Make2D$可见线$普通线
100
AcDbVertex
100
AcDb2dVertex
 10
444.8677247489612
 20
621.9063420669934
 30
0.0
  0
VERTEX
  5
B4
330
79
100
AcDbEntity
  8
Make2D$可见线$普通线
100
AcDbVertex
100
AcDb2dVertex
 10
444.641385776183
 20
621.8298521737995
 30
0.0
  0
VERTEX
  5
B5
330
79
100
AcDbEntity
  8
Make2D$可见线$普通线
100
AcDbVertex
100
AcDb2dVertex
 10
444.4133710889453
 20
621.7579595450845
 30
0.0
  0
VERTEX
  5
B6
330
79
100
AcDbEntity
  8
Make2D$可见线$普通线
100
AcDbVertex
100
AcDb2dVertex
 10
444.1841087787257
 20
621.6902601795234
 30
0.0
  0
VERTEX
  5
B7
330
79
100
AcDbEntity
  8
Make2D$可见线$普通线
100
AcDbVertex
100
AcDb2dVertex
 10
443.9019693063733
 20
621.6124655164242
 30
0.0
  0
VERTEX
  5
B8
330
79
100
AcDbEntity
  8
Make2D$可见线$普通线
100
AcDbVertex
100
AcDb2dVertex
 10
443.6186954400201
 20
621.5398711617718
 30
0.0
  0
VERTEX
  5
B9
330
79
100
AcDbEntity
  8
Make2D$可见线$普通线
100
AcDbVertex
100
AcDb2dVertex
 10
443.0491298399423
 20
621.4083226781254
 30
0.0
  0
VERTEX
  5
BA
330
79
100
AcDbEntity
  8
Make2D$可见线$普通线
100
AcDbVertex
100
AcDb2dVertex
 10
442.4761826077557
 20
621.2916933292196
 30
0.0
  0
VERTEX
  5
BB
330
79
100
AcDbEntity
  8
Make2D$可见线$普通线
100
AcDbVertex
100
AcDb2dVertex
 10
441.9006243727236
 20
621.1860617156897
 30
0.0
  0
VERTEX
  5
BC
330
79
100
AcDbEntity
  8
Make2D$可见线$普通线
100
AcDbVertex
100
AcDb2dVertex
 10
440.7813873593498
 20
621.0101135872421
 30
0.0
  0
VERTEX
  5
BD
330
79
100
AcDbEntity
  8
Make2D$可见线$普通线
100
AcDbVertex
100
AcDb2dVertex
 10
439.5731722770497
 20
620.8547842309537
 30
0.0
  0
VERTEX
  5
BE
330
79
100
AcDbEntity
  8
Make2D$可见线$普通线
100
AcDbVertex
100
AcDb2dVertex
 10
438.287844560865
 20
620.7210225176105
 30
0.0
  0
VERTEX
  5
BF
330
79
100
AcDbEntity
  8
Make2D$可见线$普通线
100
AcDbVertex
100
AcDb2dVertex
 10
436.9372696458374
 20
620.6097773179995
 30
0.0
  0
VERTEX
  5
C0
330
79
100
AcDbEntity
  8
Make2D$可见线$普通线
100
AcDbVertex
100
AcDb2dVertex
 10
435.5333129670085
 20
620.521997502907
 30
0.0
  0
VERTEX
  5
C1
330
79
100
AcDbEntity
  8
Make2D$可见线$普通线
100
AcDbVertex
100
AcDb2dVertex
 10
434.0878399594199
 20
620.4586319431196
 30
0.0
  0
VERTEX
  5
C2
330
79
100
AcDbEntity
  8
Make2D$可见线$普通线
100
AcDbVertex
100
AcDb2dVertex
 10
432.6127160581133
 20
620.4206295094236
 30
0.0
  0
VERTEX
  5
C3
330
79
100
AcDbEntity
  8
Make2D$可见线$普通线
100
AcDbVertex
100
AcDb2dVertex
 10
431.1198066981303
 20
620.408939072606
 30
0.0
  0
VERTEX
  5
C4
330
79
100
AcDbEntity
  8
Make2D$可见线$普通线
100
AcDbVertex
100
AcDb2dVertex
 10
429.6268973381474
 20
620.4206295094236
 30
0.0
  0
VERTEX
  5
C5
330
79
100
AcDbEntity
  8
Make2D$可见线$普通线
100
AcDbVertex
100
AcDb2dVertex
 10
428.1517734368414
 20
620.4586319431195
 30
0.0
  0
VERTEX
  5
C6
330
79
100
AcDbEntity
  8
Make2D$可见线$普通线
100
AcDbVertex
100
AcDb2dVertex
 10
426.7063004292536
 20
620.5219975029069
 30
0.0
  0
VERTEX
  5
C7
330
79
100
AcDbEntity
  8
Make2D$可见线$普通线
100
AcDbVertex
100
AcDb2dVertex
 10
425.3023437504258
 20
620.6097773179995
 30
0.0
  0
VERTEX
  5
C8
330
79
100
AcDbEntity
  8
Make2D$可见线$普通线
100
AcDbVertex
100
AcDb2dVertex
 10
423.9517688353996
 20
620.7210225176105
 30
0.0
  0
VERTEX
  5
C9
330
79
100
AcDbEntity
  8
Make2D$可见线$普通线
100
AcDbVertex
100
AcDb2dVertex
 10
422.6664411192166
 20
620.8547842309538
 30
0.0
  0
VERTEX
  5
CA
330
79
100
AcDbEntity
  8
Make2D$可见线$普通线
100
AcDbVertex
100
AcDb2dVertex
 10
421.4582260369185
 20
621.0101135872424
 30
0.0
  0
VERTEX
  5
CB
330
79
100
AcDbEntity
  8
Make2D$可见线$普通线
100
AcDbVertex
100
AcDb2dVertex
 10
420.3389890235467
 20
621.1860617156898
 30
0.0
  0
VERTEX
  5
CC
330
79
100
AcDbEntity
  8
Make2D$可见线$普通线
100
AcDbVertex
100
AcDb2dVertex
 10
419.7265198206304
 20
621.2984826818943
 30
0.0
  0
VERTEX
  5
CD
330
79
100
AcDbEntity
  8
Make2D$可见线$普通线
100
AcDbVertex
100
AcDb2dVertex
 10
419.116123341318
 20
621.4248056994181
 30
0.0
  0
VERTEX
  5
CE
330
79
100
AcDbEntity
  8
Make2D$可见线$普通线
100
AcDbVertex
100
AcDb2dVertex
 10
418.5841758765076
 20
621.5491859896501
 30
0.0
  0
VERTEX
  5
CF
330
79
100
AcDbEntity
  8
Make2D$可见线$普通线
100
AcDbVertex
100
AcDb2dVertex
 10
418.0558890377578
 20
621.6900077351042
 30
0.0
  0
VERTEX
  5
D0
330
79
100
AcDbEntity
  8
Make2D$可见线$普通线
100
AcDbVertex
100
AcDb2dVertex
 10
417.8264340355674
 20
621.7576883954907
 30
0.0
  0
VERTEX
  5
D1
330
79
100
AcDbEntity
  8
Make2D$可见线$普通线
100
AcDbVertex
100
AcDb2dVertex
 10
417.5980909763439
 20
621.8296629098596
 30
0.0
  0
VERTEX
  5
D2
330
79
100
AcDbEntity
  8
Make2D$可见线$普通线
100
AcDbVertex
100
AcDb2dVertex
 10
417.3714568919989
 20
621.9062754728918
 30
0.0
  0
VERTEX
  5
D3
330
79
100
AcDbEntity
  8
Make2D$可见线$普通线
100
AcDbVertex
100
AcDb2dVertex
 10
417.147128814444
 20
621.987870279268
 30
0.0
  0
VERTEX
  5
D4
330
79
100
AcDbEntity
  8
Make2D$可见线$普通线
100
AcDbVertex
100
AcDb2dVertex
 10
416.9492315830088
 20
622.0653488720059
 30
0.0
  0
VERTEX
  5
D5
330
79
100
AcDbEntity
  8
Make2D$可见线$普通线
100
AcDbVertex
100
AcDb2dVertex
 10
416.753832824557
 20
622.1481333080537
 30
0.0
  0
VERTEX
  5
D6
330
79
100
AcDbEntity
  8
Make2D$可见线$普通线
100
AcDbVertex
100
AcDb2dVertex
 10
416.6571279366643
 20
622.1918463640642
 30
0.0
  0
VERTEX
  5
D7
330
79
100
AcDbEntity
  8
Make2D$可见线$普通线
100
AcDbVertex
100
AcDb2dVertex
 10
416.5611167437747
 20
622.2372832569963
 30
0.0
  0
VERTEX
  5
D8
330
79
100
AcDbEntity
  8
Make2D$可见线$普通线
100
AcDbVertex
100
AcDb2dVertex
 10
416.4658222714743
 20
622.2845764455486
 30
0.0
  0
VERTEX
  5
D9
330
79
100
AcDbEntity
  8
Make2D$可见线$普通线
100
AcDbVertex
100
AcDb2dVertex
 10
416.3712675453485
 20
622.333858388419
 30
0.0
  0
VERTEX
  5
DA
330
79
100
AcDbEntity
  8
Make2D$可见线$普通线
100
AcDbVertex
100
AcDb2dVertex
 10
416.2412654194554
 20
622.4059236087767
 30
0.0
  0
VERTEX
  5
DB
330
79
100
AcDbEntity
  8
Make2D$可见线$普通线
100
AcDbVertex
100
AcDb2dVertex
 10
416.1771054743934
 20
622.4436394491713
 30
0.0
  0
VERTEX
  5
DC
330
79
100
AcDbEntity
  8
Make2D$可见线$普通线
100
AcDbVertex
100
AcDb2dVertex
 10
416.1136601814146
 20
622.4825556560083
 30
0.0
  0
VERTEX
  5
DD
330
79
100
AcDbEntity
  8
Make2D$可见线$普通线
100
AcDbVertex
100
AcDb2dVertex
 10
416.0510449706388
 20
622.5227308890119
 30
0.0
  0
VERTEX
  5
DE
330
79
100
AcDbEntity
  8
Make2D$可见线$普通线
100
AcDbVertex
100
AcDb2dVertex
 10
415.989375272186
 20
622.5642238079055
 30
0.0
  0
VERTEX
  5
DF
330
79
100
AcDbEntity
  8
Make2D$可见线$普通线
100
AcDbVertex
100
AcDb2dVertex
 10
415.928766516176
 20
622.6070930724132
 30
0.0
  0
VERTEX
  5
E0
330
79
100
AcDbEntity
  8
Make2D$可见线$普通线
100
AcDbVertex
100
AcDb2dVertex
 10
415.8693341327289
 20
622.6513973422591
 30
0.0
  0
VERTEX
  5
E1
330
79
100
AcDbEntity
  8
Make2D$可见线$普通线
100
AcDbVertex
100
AcDb2dVertex
 10
415.8111935519646
 20
622.6971952771669
 30
0.0
  0
VERTEX
  5
E2
330
79
100
AcDbEntity
  8
Make2D$可见线$普通线
100
AcDbVertex
100
AcDb2dVertex
 10
415.7544602040031
 20
622.7445455368604
 30
0.0
  0
VERTEX
  5
E3
330
79
100
AcDbEntity
  8
Make2D$可见线$普通线
100
AcDbVertex
100
AcDb2dVertex
 10
415.6992495189642
 20
622.7935067810636
 30
0.0
  0
VERTEX
  5
E4
330
79
100
AcDbEntity
  8
Make2D$可见线$普通线
100
AcDbVertex
100
AcDb2dVertex
 10
415.645676926968
 20
622.8441376695005
 30
0.0
  0
VERTEX
  5
E5
330
79
100
AcDbEntity
  8
Make2D$可见线$普通线
100
AcDbVertex
100
AcDb2dVertex
 10
415.5938578581344
 20
622.8964968618948
 30
0.0
  0
VERTEX
  5
E6
330
79
100
AcDbEntity
  8
Make2D$可见线$普通线
100
AcDbVertex
100
AcDb2dVertex
 10
415.568641966816
 20
622.9233429032399
 30
0.0
  0
VERTEX
  5
E7
330
79
100
AcDbEntity
  8
Make2D$可见线$普通线
100
AcDbVertex
100
AcDb2dVertex
 10
415.5439077425833
 20
622.9506430179706
 30
0.0
  0
VERTEX
  5
E8
330
79
100
AcDbEntity
  8
Make2D$可见线$普通线
100
AcDbVertex
100
AcDb2dVertex
 10
415.5196696142011
 20
622.9784045385527
 30
0.0
  0
VERTEX
  5
E9
330
79
100
AcDbEntity
  8
Make2D$可见线$普通线
100
AcDbVertex
100
AcDb2dVertex
 10
415.4959420104346
 20
623.0066347974516
 30
0.0
  0
VERTEX
  5
EA
330
79
100
AcDbEntity
  8
Make2D$可见线$普通线
100
AcDbVertex
100
AcDb2dVertex
 10
415.4727393600488
 20
623.035341127133
 30
0.0
  0
VERTEX
  5
EB
330
79
100
AcDbEntity
  8
Make2D$可见线$普通线
100
AcDbVertex
100
AcDb2dVertex
 10
415.4500760918085
 20
623.064530860062
 30
0.0
  0
VERTEX
  5
EC
330
79
100
AcDbEntity
  8
Make2D$可见线$普通线
100
AcDbVertex
100
AcDb2dVertex
 10
415.4136073284789
 20
623.1141735338284
 30
0.0
  0
VERTEX
  5
ED
330
79
100
AcDbEntity
  8
Make2D$可见线$普通线
100
AcDbVertex
100
AcDb2dVertex
 10
415.3787740314633
 20
623.165106802913
 30
0.0
  0
VERTEX
  5
EE
330
79
100
AcDbEntity
  8
Make2D$可见线$普通线
100
AcDbVertex
100
AcDb2dVertex
 10
415.3456784270874
 20
623.2172626479783
 30
0.0
  0
VERTEX
  5
EF
330
79
100
AcDbEntity
  8
Make2D$可见线$普通线
100
AcDbVertex
100
AcDb2dVertex
 10
415.3298142053661
 20
623.243777780461
 30
0.0
  0
VERTEX
  5
F0
330
79
100
AcDbEntity
  8
Make2D$可见线$普通线
100
AcDbVertex
100
AcDb2dVertex
 10
415.3144227416769
 20
623.2705730496875
 30
0.0
  0
VERTEX
  5
F1
330
79
100
AcDbEntity
  8
Make2D$可见线$普通线
100
AcDbVertex
100
AcDb2dVertex
 10
415.2995168143104
 20
623.2976399532407
 30
0.0
  0
VERTEX
  5
F2
330
79
100
AcDbEntity
  8
Make2D$可见线$普通线
100
AcDbVertex
100
AcDb2dVertex
 10
415.2851092015574
 20
623.3249699887034
 30
0.0
  0
VERTEX
  5
F3
330
79
100
AcDbEntity
  8
Make2D$可见线$普通线
100
AcDbVertex
100
AcDb2dVertex
 10
415.2712126817087
 20
623.3525546536584
 30
0.0
  0
VERTEX
  5
F4
330
79
100
AcDbEntity
  8
Make2D$可见线$普通线
100
AcDbVertex
100
AcDb2dVertex
 10
415.2578400330548
 20
623.380385445689
 30
0.0
  0
VERTEX
  5
F5
330
79
100
AcDbEntity
  8
Make2D$可见线$普通线
100
AcDbVertex
100
AcDb2dVertex
 10
415.2450040338865
 20
623.4084538623774
 30
0.0
  0
VERTEX
  5
F6
330
79
100
AcDbEntity
  8
Make2D$可见线$普通线
100
AcDbVertex
100
AcDb2dVertex
 10
415.2327174624946
 20
623.4367514013069
 30
0.0
  0
VERTEX
  5
F7
330
79
100
AcDbEntity
  8
Make2D$可见线$普通线
100
AcDbVertex
100
AcDb2dVertex
 10
415.2209930971698
 20
623.4652695600602
 30
0.0
  0
VERTEX
  5
F8
330
79
100
AcDbEntity
  8
Make2D$可见线$普通线
100
AcDbVertex
100
AcDb2dVertex
 10
415.2098437162026
 20
623.4939998362202
 30
0.0
  0
VERTEX
  5
F9
330
79
100
AcDbEntity
  8
Make2D$可见线$普通线
100
AcDbVertex
100
AcDb2dVertex
 10
415.1992820978838
 20
623.5229337273697
 30
0.0
  0
VERTEX
  5
FA
330
79
100
AcDbEntity
  8
Make2D$可见线$普通线
100
AcDbVertex
100
AcDb2dVertex
 10
415.1893210205043
 20
623.5520627310916
 30
0.0
  0
VERTEX
  5
FB
330
79
100
AcDbEntity
  8
Make2D$可见线$普通线
100
AcDbVertex
100
AcDb2dVertex
 10
415.1799732623546
 20
623.5813783449689
 30
0.0
  0
VERTEX
  5
FC
330
79
100
AcDbEntity
  8
Make2D$可见线$普通线
100
AcDbVertex
100
AcDb2dVertex
 10
415.1712516017255
 20
623.6108720665843
 30
0.0
  0
VERTEX
  5
FD
330
79
100
AcDbEntity
  8
Make2D$可见线$普通线
100
AcDbVertex
100
AcDb2dVertex
 10
415.1631688169076
 20
623.6405353935207
 30
0.0
  0
VERTEX
  5
FE
330
79
100
AcDbEntity
  8
Make2D$可见线$普通线
100
AcDbVertex
100
AcDb2dVertex
 10
415.1557376861918
 20
623.670359823361
 30
0.0
  0
VERTEX
  5
FF
330
79
100
AcDbEntity
  8
Make2D$可见线$普通线
100
AcDbVertex
100
AcDb2dVertex
 10
415.1489709878687
 20
623.7003368536881
 30
0.0
  0
VERTEX
  5
100
330
79
100
AcDbEntity
  8
Make2D$可见线$普通线
100
AcDbVertex
100
AcDb2dVertex
 10
415.142881500229
 20
623.7304579820848
 30
0.0
  0
VERTEX
  5
101
330
79
100
AcDbEntity
  8
Make2D$可见线$普通线
100
AcDbVertex
100
AcDb2dVertex
 10
415.1374820015635
 20
623.7607147061337
 30
0.0
  0
VERTEX
  5
102
330
79
100
AcDbEntity
  8
Make2D$可见线$普通线
100
AcDbVertex
100
AcDb2dVertex
 10
415.1327852701627
 20
623.7910985234182
 30
0.0
  0
VERTEX
  5
103
330
79
100
AcDbEntity
  8
Make2D$可见线$普通线
100
AcDbVertex
100
AcDb2dVertex
 10
415.1288040843175
 20
623.8216009315207
 30
0.0
  0
VERTEX
  5
104
330
79
100
AcDbEntity
  8
Make2D$可见线$普通线
100
AcDbVertex
100
AcDb2dVertex
 10
415.1255512223186
 20
623.8522134280242
 30
0.0
  0
VERTEX
  5
105
330
79
100
AcDbEntity
  8
Make2D$可见线$普通线
100
AcDbVertex
100
AcDb2dVertex
 10
415.1230394624566
 20
623.8829275105118
 30
0.0
  0
VERTEX
  5
106
330
79
100
AcDbEntity
  8
Make2D$可见线$普通线
100
AcDbVertex
100
AcDb2dVertex
 10
415.1212815830223
 20
623.9137346765659
 30
0.0
  0
VERTEX
  5
107
330
79
100
AcDbEntity
  8
Make2D$可见线$普通线
100
AcDbVertex
100
AcDb2dVertex
 10
415.1202903623063
 20
623.9446264237697
 30
0.0
  0
VERTEX
  5
108
330
79
100
AcDbEntity
  8
Make2D$可见线$普通线
100
AcDbVertex
100
AcDb2dVertex
 10
415.1200785785995
 20
623.9755942497061
 30
0.0
  0
VERTEX
  5
109
330
79
100
AcDbEntity
  8
Make2D$可见线$普通线
100
AcDbVertex
100
AcDb2dVertex
 10
415.1196328347889
 20
624.0311312538901
 30
0.0
  0
VERTEX
  5
10A
330
79
100
AcDbEntity
  8
Make2D$可见线$普通线
100
AcDbVertex
100
AcDb2dVertex
 10
415.1198059666929
 20
629.6195742668638
 30
0.0
  0
VERTEX
  5
10B
330
79
100
AcDbEntity
  8
Make2D$可见线$普通线
100
AcDbVertex
100
AcDb2dVertex
 10
415.1163665678425
 20
629.9072225309683
 30
0.0
  0
VERTEX
  5
10C
330
79
100
AcDbEntity
  8
Make2D$可见线$普通线
100
AcDbVertex
100
AcDb2dVertex
 10
415.1059710789334
 20
630.1959959473118
 30
0.0
  0
VERTEX
  5
10D
330
79
100
AcDbEntity
  8
Make2D$可见线$普通线
100
AcDbVertex
100
AcDb2dVertex
 10
415.0885377457272
 20
630.4856482999697
 30
0.0
  0
VERTEX
  5
10E
330
79
100
AcDbEntity
  8
Make2D$可见线$普通线
100
AcDbVertex
100
AcDb2dVertex
 10
415.0639961977007
 20
630.7759276094099
 30
0.0
  0
VERTEX
  5
10F
330
79
100
AcDbEntity
  8
Make2D$可见线$普通线
100
AcDbVertex
100
AcDb2dVertex
 10
415.032287894713
 20
631.0665767790068
 30
0.0
  0
VERTEX
  5
110
330
79
100
AcDbEntity
  8
Make2D$可见线$普通线
100
AcDbVertex
100
AcDb2dVertex
 10
414.9933665302621
 20
631.3573342802706
 30
0.0
  0
VERTEX
  5
111
330
79
100
AcDbEntity
  8
Make2D$可见线$普通线
100
AcDbVertex
100
AcDb2dVertex
 10
414.9471983875862
 20
631.6479348734288
 30
0.0
  0
VERTEX
  5
112
330
79
100
AcDbEntity
  8
Make2D$可见线$普通线
100
AcDbVertex
100
AcDb2dVertex
 10
414.8937626451589
 20
631.9381103596055
 30
0.0
  0
VERTEX
  5
113
330
79
100
AcDbEntity
  8
Make2D$可见线$普通线
100
AcDbVertex
100
AcDb2dVertex
 10
414.8330516284674
 20
632.2275903604597
 30
0.0
  0
VERTEX
  5
114
330
79
100
AcDbEntity
  8
Make2D$可见线$普通线
100
AcDbVertex
100
AcDb2dVertex
 10
414.765071005355
 20
632.5161031208153
 30
0.0
  0
VERTEX
  5
115
330
79
100
AcDbEntity
  8
Make2D$可见线$普通线
100
AcDbVertex
100
AcDb2dVertex
 10
414.6898399226247
 20
632.80337632951
 30
0.0
  0
VERTEX
  5
116
330
79
100
AcDbEntity
  8
Make2D$可见线$普通线
100
AcDbVertex
100
AcDb2dVertex
 10
414.6073910820749
 20
633.0891379534503
 30
0.0
  0
VERTEX
  5
117
330
79
100
AcDbEntity
  8
Make2D$可见线$普通线
100
AcDbVertex
100
AcDb2dVertex
 10
414.5177707546177
 20
633.3731170796412
 30
0.0
  0
VERTEX
  5
118
330
79
100
AcDbEntity
  8
Make2D$可见线$普通线
100
AcDbVertex
100
AcDb2dVertex
 10
414.4210387316575
 20
633.6550447598336
 30
0.0
  0
VERTEX
  5
119
330
79
100
AcDbEntity
  8
Make2D$可见线$普通线
100
AcDbVertex
100
AcDb2dVertex
 10
414.3172682134291
 20
633.934654852326
 30
0.0
  0
VERTEX
  5
11A
330
79
100
AcDbEntity
  8
Make2D$可见线$普通线
100
AcDbVertex
100
AcDb2dVertex
 10
414.2065456345488
 20
634.2116848554391
 30
0.0
  0
VERTEX
  5
11B
330
79
100
AcDbEntity
  8
Make2D$可见线$普通线
100
AcDbVertex
100
AcDb2dVertex
 10
414.0889704275648
 20
634.4858767272066
 30
0.0
  0
VERTEX
  5
11C
330
79
100
AcDbEntity
  8
Make2D$可见线$普通线
100
AcDbVertex
100
AcDb2dVertex
 10
413.9646547258444
 20
634.7569776859191
 30
0.0
  0
VERTEX
  5
11D
330
79
100
AcDbEntity
  8
Make2D$可见线$普通线
100
AcDbVertex
100
AcDb2dVertex
 10
413.8337230076566
 20
635.0247409863173
 30
0.0
  0
VERTEX
  5
11E
330
79
100
AcDbEntity
  8
Make2D$可见线$普通线
100
AcDbVertex
100
AcDb2dVertex
 10
413.6963116838172
 20
635.2889266664263
 30
0.0
  0
VERTEX
  5
11F
330
79
100
AcDbEntity
  8
Make2D$可见线$普通线
100
AcDbVertex
100
AcDb2dVertex
 10
413.5525686317475
 20
635.5493022603049
 30
0.0
  0
VERTEX
  5
120
330
79
100
AcDbEntity
  8
Make2D$可见线$普通线
100
AcDbVertex
100
AcDb2dVertex
 10
413.4026526792392
 20
635.8056434722855
 30
0.0
  0
VERTEX
  5
121
330
79
100
AcDbEntity
  8
Make2D$可见线$普通线
100
AcDbVertex
100
AcDb2dVertex
 10
413.2467330416333
 20
636.057734808657
 30
0.0
  0
VERTEX
  5
122
330
79
100
AcDbEntity
  8
Make2D$可见线$普通线
100
AcDbVertex
100
AcDb2dVertex
 10
413.0849887164761
 20
636.3053701631351
 30
0.0
  0
VERTEX
  5
123
330
79
100
AcDbEntity
  8
Make2D$可见线$普通线
100
AcDbVertex
100
AcDb2dVertex
 10
412.9176078400343
 20
636.5483533529147
 30
0.0
  0
VERTEX
  5
124
330
79
100
AcDbEntity
  8
Make2D$可见线$普通线
100
AcDbVertex
100
AcDb2dVertex
 10
412.7447870103111
 20
636.7864986025575
 30
0.0
  0
VERTEX
  5
125
330
79
100
AcDbEntity
  8
Make2D$可见线$普通线
100
AcDbVertex
100
AcDb2dVertex
 10
412.5667305814096
 20
637.0196309734671
 30
0.0
  0
VERTEX
  5
126
330
79
100
AcDbEntity
  8
Make2D$可见线$普通线
100
AcDbVertex
100
AcDb2dVertex
 10
412.3836499342397
 20
637.2475867372003
 30
0.0
  0
VERTEX
  5
127
330
79
100
AcDbEntity
  8
Make2D$可见线$普通线
100
AcDbVertex
100
AcDb2dVertex
 10
412.1957627286571
 20
637.4702136913799
 30
0.0
  0
VERTEX
  5
128
330
79
100
AcDbEntity
  8
Make2D$可见线$普通线
100
AcDbVertex
100
AcDb2dVertex
 10
412.0032921421528
 20
637.6873714174823
 30
0.0
  0
VERTEX
  5
129
330
79
100
AcDbEntity
  8
Make2D$可见线$普通线
100
AcDbVertex
100
AcDb2dVertex
 10
411.8064661001953
 20
637.898931480285
 30
0.0
  0
VERTEX
  5
12A
330
79
100
AcDbEntity
  8
Make2D$可见线$普通线
100
AcDbVertex
100
AcDb2dVertex
 10
411.6055165032454
 20
638.1047775692391
 30
0.0
  0
VERTEX
  5
12B
330
79
100
AcDbEntity
  8
Make2D$可见线$普通线
100
AcDbVertex
100
AcDb2dVertex
 10
411.4301601906058
 20
638.2766033846351
 30
0.0
  0
VERTEX
  5
12C
330
79
100
AcDbEntity
  8
Make2D$可见线$普通线
100
AcDbVertex
100
AcDb2dVertex
 10
411.2513243197831
 20
638.444803626199
 30
0.0
  0
VERTEX
  5
12D
330
79
100
AcDbEntity
  8
Make2D$可见线$普通线
100
AcDbVertex
100
AcDb2dVertex
 10
411.0690857216167
 20
638.6093111738799
 30
0.0
  0
VERTEX
  5
12E
330
79
100
AcDbEntity
  8
Make2D$可见线$普通线
100
AcDbVertex
100
AcDb2dVertex
 10
410.8835212269462
 20
638.7700589076269
 30
0.0
  0
VERTEX
  5
12F
330
79
100
AcDbEntity
  8
Make2D$可见线$普通线
100
AcDbVertex
100
AcDb2dVertex
 10
410.6476509021303
 20
638.9650853071255
 30
0.0
  0
VERTEX
  5
130
330
79
100
AcDbEntity
  8
Make2D$可见线$普通线
100
AcDbVertex
100
AcDb2dVertex
 10
410.4068856021826
 20
639.1540359996316
 30
0.0
  0
VERTEX
  5
131
330
79
100
AcDbEntity
  8
Make2D$可见线$普通线
100
AcDbVertex
100
AcDb2dVertex
 10
410.16137967912
 20
639.3367826623107
 30
0.0
  0
VERTEX
  5
132
330
79
100
AcDbEntity
  8
Make2D$可见线$普通线
100
AcDbVertex
100
AcDb2dVertex
 10
409.9112874849598
 20
639.5131969723291
 30
0.0
  0
VERTEX
  5
133
330
79
100
AcDbEntity
  8
Make2D$可见线$普通线
100
AcDbVertex
100
AcDb2dVertex
 10
409.6566543082494
 20
639.6832295223842
 30
0.0
  0
VERTEX
  5
134
330
79
100
AcDbEntity
  8
Make2D$可见线$普通线
100
AcDbVertex
100
AcDb2dVertex
 10
409.3977615465699
 20
639.8467017372625
 30
0.0
  0
VERTEX
  5
135
330
79
100
AcDbEntity
  8
Make2D$可见线$普通线
100
AcDbVertex
100
AcDb2dVertex
 10
409.1347854257143
 20
640.00351963042
 30
0.0
  0
VERTEX
  5
136
330
79
100
AcDbEntity
  8
Make2D$可见线$普通线
100
AcDbVertex
100
AcDb2dVertex
 10
408.8679021714757
 20
640.153589215313
 30
0.0
  0
VERTEX
  5
137
330
79
100
AcDbEntity
  8
Make2D$可见线$普通线
100
AcDbVertex
100
AcDb2dVertex
 10
408.5972880096472
 20
640.2968165053978
 30
0.0
  0
VERTEX
  5
138
330
79
100
AcDbEntity
  8
Make2D$可见线$普通线
100
AcDbVertex
100
AcDb2dVertex
 10
408.3231191660217
 20
640.4331075141307
 30
0.0
  0
VERTEX
  5
139
330
79
100
AcDbEntity
  8
Make2D$可见线$普通线
100
AcDbVertex
100
AcDb2dVertex
 10
408.0455718663924
 20
640.5623682549681
 30
0.0
  0
VERTEX
  5
13A
330
79
100
AcDbEntity
  8
Make2D$可见线$普通线
100
AcDbVertex
100
AcDb2dVertex
 10
407.7648223365523
 20
640.6845047413661
 30
0.0
  0
VERTEX
  5
13B
330
79
100
AcDbEntity
  8
Make2D$可见线$普通线
100
AcDbVertex
100
AcDb2dVertex
 10
407.5077418660301
 20
640.7889754300274
 30
0.0
  0
VERTEX
  5
13C
330
79
100
AcDbEntity
  8
Make2D$可见线$普通线
100
AcDbVertex
100
AcDb2dVertex
 10
407.2483108556169
 20
640.8874688282875
 30
0.0
  0
VERTEX
  5
13D
330
79
100
AcDbEntity
  8
Make2D$可见线$普通线
100
AcDbVertex
100
AcDb2dVertex
 10
406.9866646320098
 20
640.9799374401563
 30
0.0
  0
VERTEX
  5
13E
330
79
100
AcDbEntity
  8
Make2D$可见线$普通线
100
AcDbVertex
100
AcDb2dVertex
 10
406.722938521906
 20
641.0663337696436
 30
0.0
  0
VERTEX
  5
13F
330
79
100
AcDbEntity
  8
Make2D$可见线$普通线
100
AcDbVertex
100
AcDb2dVertex
 10
406.4572678520028
 20
641.1466103207596
 30
0.0
  0
VERTEX
  5
140
330
79
100
AcDbEntity
  8
Make2D$可见线$普通线
100
AcDbVertex
100
AcDb2dVertex
 10
406.1897879489974
 20
641.2207195975144
 30
0.0
  0
VERTEX
  5
141
330
79
100
AcDbEntity
  8
Make2D$可见线$普通线
100
AcDbVertex
100
AcDb2dVertex
 10
405.9206341395868
 20
641.2886141039179
 30
0.0
  0
VERTEX
  5
142
330
79
100
AcDbEntity
  8
Make2D$可见线$普通线
100
AcDbVertex
100
AcDb2dVertex
 10
405.6499417504683
 20
641.3502463439801
 30
0.0
  0
VERTEX
  5
143
330
79
100
AcDbEntity
  8
Make2D$可见线$普通线
100
AcDbVertex
100
AcDb2dVertex
 10
405.2516042588956
 20
641.4290457605973
 30
0.0
  0
VERTEX
  5
144
330
79
100
AcDbEntity
  8
Make2D$可见线$普通线
100
AcDbVertex
100
AcDb2dVertex
 10
405.0823695115834
 20
641.4583616244812
 30
0.0
  0
VERTEX
  5
145
330
79
100
AcDbEntity
  8
Make2D$可见线$普通线
100
AcDbVertex
100
AcDb2dVertex
 10
404.8051513178701
 20
641.5009775286296
 30
0.0
  0
VERTEX
  5
146
330
79
100
AcDbEntity
  8
Make2D$可见线$普通线
100
AcDbVertex
100
AcDb2dVertex
 10
404.5595888316279
 20
641.5332408366614
 30
0.0
  0
VERTEX
  5
147
330
79
100
AcDbEntity
  8
Make2D$可见线$普通线
100
AcDbVertex
100
AcDb2dVertex
 10
404.5595890586407
 20
641.5332408098743
 30
0.0
  0
VERTEX
  5
148
330
79
100
AcDbEntity
  8
Make2D$可见线$普通线
100
AcDbVertex
100
AcDb2dVertex
 10
404.5611381946166
 20
641.5330531007323
 30
0.0
  0
VERTEX
  5
149
330
79
100
AcDbEntity
  8
Make2D$可见线$普通线
100
AcDbVertex
100
AcDb2dVertex
 10
404.5611385676883
 20
641.5330530101241
 30
0.0
  0
VERTEX
  5
14A
330
79
100
AcDbEntity
  8
Make2D$可见线$普通线
100
AcDbVertex
100
AcDb2dVertex
 10
404.2176086165474
 20
641.5696041529538
 30
0.0
  0
VERTEX
  5
14B
330
79
100
AcDbEntity
  8
Make2D$可见线$普通线
100
AcDbVertex
100
AcDb2dVertex
 10
403.916524600497
 20
641.5934995653682
 30
0.0
  0
VERTEX
  5
14C
330
79
100
AcDbEntity
  8
Make2D$可见线$普通线
100
AcDbVertex
100
AcDb2dVertex
 10
403.4271863125698
 20
641.6107644362612
 30
0.0
  0
SEQEND
  5
14D
330
79
100
AcDbEntity
  8
Make2D$可见线$普通线
  0
POLYLINE
  5
14E
330
1F
100
AcDbEntity
  8
Make2D$可见线$普通线
100
AcDb2dPolyline
 66
     1
 10
0.0
 20
0.0
 30
0.0
  0
VERTEX
  5
14F
330
14E
100
AcDbEntity
  8
Make2D$可见线$普通线
100
AcDbVertex
100
AcDb2dVertex
 10
581.0819060935561
 20
636.1199113286624
 30
0.0
 42
-0.0160515351633975
  0
VERTEX
  5
150
330
14E
100
AcDbEntity
  8
Make2D$可见线$普通线
100
AcDbVertex
100
AcDb2dVertex
 10
581.1199533519039
 20
634.6199265016116
 30
0.0
 42
-0.016057639414754
  0
VERTEX
  5
151
330
14E
100
AcDbEntity
  8
Make2D$可见线$普通线
100
AcDbVertex
100
AcDb2dVertex
 10
581.0821749943682
 20
633.1199280988731
 30
0.0
  0
SEQEND
  5
152
330
14E
100
AcDbEntity
  8
Make2D$可见线$普通线
  0
POLYLINE
  5
153
330
1F
100
AcDbEntity
  8
Make2D$可见线$普通线
100
AcDb2dPolyline
 66
     1
 10
0.0
 20
0.0
 30
0.0
  0
VERTEX
  5
154
330
153
100
AcDbEntity
  8
Make2D$可见线$普通线
100
AcDbVertex
100
AcDb2dVertex
 10
557.5229238948505
 20
522.3445651326956
 30
0.0
  0
VERTEX
  5
155
330
153
100
AcDbEntity
  8
Make2D$可见线$普通线
100
AcDbVertex
100
AcDb2dVertex
 10
557.816719764945
 20
536.6018504511849
 30
0.0
  0
VERTEX
  5
156
330
153
100
AcDbEntity
  8
Make2D$可见线$普通线
100
AcDbVertex
100
AcDb2dVertex
 10
558.6334254829499
 20
553.4114294112347
 30
0.0
 42
-0.0004375749906848
  0
VERTEX
  5
157
330
153
100
AcDbEntity
  8
Make2D$可见线$普通线
100
AcDbVertex
100
AcDb2dVertex
 10
560.4046216526986
 20
571.8969025818786
 30
0.0
  0
VERTEX
  5
158
330
153
100
AcDbEntity
  8
Make2D$可见线$普通线
100
AcDbVertex
100
AcDb2dVertex
 10
562.3198966610335
 20
590.3712203873704
 30
0.0
  0
VERTEX
  5
159
330
153
100
AcDbEntity
  8
Make2D$可见线$普通线
100
AcDbVertex
100
AcDb2dVertex
 10
562.3381723757909
 20
590.3700821226312
 30
0.0
  0
SEQEND
  5
15A
330
153
100
AcDbEntity
  8
Make2D$可见线$普通线
  0
POLYLINE
  5
15B
330
1F
100
AcDbEntity
  8
Make2D$可见线$普通线
100
AcDb2dPolyline
 66
     1
 10
0.0
 20
0.0
 30
0.0
  0
VERTEX
  5
15C
330
15B
100
AcDbEntity
  8
Make2D$可见线$普通线
100
AcDbVertex
100
AcDb2dVertex
 10
557.5156348106275
 20
522.255689600621
 30
0.0
  0
VERTEX
  5
15D
330
15B
100
AcDbEntity
  8
Make2D$可见线$普通线
100
AcDbVertex
100
AcDb2dVertex
 10
557.5106395596852
 20
536.5702647055508
 30
0.0
  0
VERTEX
  5
15E
330
15B
100
AcDbEntity
  8
Make2D$可见线$普通线
100
AcDbVertex
100
AcDb2dVertex
 10
557.5056042810459
 20
553.3685554461888
 30
0.0
  0
VERTEX
  5
15F
330
15B
100
AcDbEntity
  8
Make2D$可见线$普通线
100
AcDbVertex
100
AcDb2dVertex
 10
557.5937420180677
 20
590.4616414938992
 30
0.0
  0
VERTEX
  5
160
330
15B
100
AcDbEntity
  8
Make2D$可见线$普通线
100
AcDbVertex
100
AcDb2dVertex
 10
557.5750604828062
 20
605.9594721420358
 30
0.0
 42
-0.3514155522971237
  0
VERTEX
  5
161
330
15B
100
AcDbEntity
  8
Make2D$可见线$普通线
100
AcDbVertex
100
AcDb2dVertex
 10
559.9578361920477
 20
608.8956856955742
 30
0.0
  0
SEQEND
  5
162
330
15B
100
AcDbEntity
  8
Make2D$可见线$普通线
  0
POLYLINE
  5
163
330
1F
100
AcDbEntity
  8
Make2D$可见线$普通线
100
AcDb2dPolyline
 66
     1
 10
0.0
 20
0.0
 30
0.0
  0
VERTEX
  5
164
330
163
100
AcDbEntity
  8
Make2D$可见线$普通线
100
AcDbVertex
100
AcDb2dVertex
 10
555.7240025136432
 20
519.6199533675172
 30
0.0
  0
VERTEX
  5
165
330
163
100
AcDbEntity
  8
Make2D$可见线$普通线
100
AcDbVertex
100
AcDb2dVertex
 10
555.724002621471
 20
520.6199610021573
 30
0.0
  0
VERTEX
  5
166
330
163
100
AcDbEntity
  8
Make2D$可见线$普通线
100
AcDbVertex
100
AcDb2dVertex
 10
555.724554733649
 20
522.0159609321312
 30
0.0
  0
VERTEX
  5
167
330
163
100
AcDbEntity
  8
Make2D$可见线$普通线
100
AcDbVertex
100
AcDb2dVertex
 10
555.729279597166
 20
536.569837826692
 30
0.0
  0
VERTEX
  5
168
330
163
100
AcDbEntity
  8
Make2D$可见线$普通线
100
AcDbVertex
100
AcDb2dVertex
 10
555.7341480245461
 20
553.369591665464
 30
0.0
  0
VERTEX
  5
169
330
163
100
AcDbEntity
  8
Make2D$可见线$普通线
100
AcDbVertex
100
AcDb2dVertex
 10
555.6345415944704
 20
590.4619442906644
 30
0.0
  0
VERTEX
  5
16A
330
163
100
AcDbEntity
  8
Make2D$可见线$普通线
100
AcDbVertex
100
AcDb2dVertex
 10
555.6558143551231
 20
605.9593568129844
 30
0.0
 42
0.3716381973004595
  0
VERTEX
  5
16B
330
163
100
AcDbEntity
  8
Make2D$可见线$普通线
100
AcDbVertex
100
AcDb2dVertex
 10
552.2030100546538
 20
609.9272412642058
 30
0.0
  0
VERTEX
  5
16C
330
163
100
AcDbEntity
  8
Make2D$可见线$普通线
100
AcDbVertex
100
AcDb2dVertex
 10
551.7309313879649
 20
610.007651601775
 30
0.0
  0
VERTEX
  5
16D
330
163
100
AcDbEntity
  8
Make2D$可见线$普通线
100
AcDbVertex
100
AcDb2dVertex
 10
551.2591607131984
 20
610.0972875992006
 30
0.0
  0
VERTEX
  5
16E
330
163
100
AcDbEntity
  8
Make2D$可见线$普通线
100
AcDbVertex
100
AcDb2dVertex
 10
550.787964123156
 20
610.1961739173433
 30
0.0
  0
VERTEX
  5
16F
330
163
100
AcDbEntity
  8
Make2D$可见线$普通线
100
AcDbVertex
100
AcDb2dVertex
 10
550.3176098493997
 20
610.3043251136519
 30
0.0
  0
VERTEX
  5
170
330
163
100
AcDbEntity
  8
Make2D$可见线$普通线
100
AcDbVertex
100
AcDb2dVertex
 10
549.8483677874419
 20
610.4217454873394
 30
0.0
  0
VERTEX
  5
171
330
163
100
AcDbEntity
  8
Make2D$可见线$普通线
100
AcDbVertex
100
AcDb2dVertex
 10
549.3805090103157
 20
610.5484289511433
 30
0.0
  0
VERTEX
  5
172
330
163
100
AcDbEntity
  8
Make2D$可见线$普通线
100
AcDbVertex
100
AcDb2dVertex
 10
548.9143052722501
 20
610.6843589306053
 30
0.0
  0
VERTEX
  5
173
330
163
100
AcDbEntity
  8
Make2D$可见线$普通线
100
AcDbVertex
100
AcDb2dVertex
 10
548.4500285042635
 20
610.829508291689
 30
0.0
  0
VERTEX
  5
174
330
163
100
AcDbEntity
  8
Make2D$可见线$普通线
100
AcDbVertex
100
AcDb2dVertex
 10
547.9879503035568
 20
610.9838392974136
 30
0.0
  0
VERTEX
  5
175
330
163
100
AcDbEntity
  8
Make2D$可见线$普通线
100
AcDbVertex
100
AcDb2dVertex
 10
547.5283414186504
 20
611.1473035940406
 30
0.0
  0
VERTEX
  5
176
330
163
100
AcDbEntity
  8
Make2D$可见线$普通线
100
AcDbVertex
100
AcDb2dVertex
 10
547.0714712322606
 20
611.3198422271955
 30
0.0
  0
VERTEX
  5
177
330
163
100
AcDbEntity
  8
Make2D$可见线$普通线
100
AcDbVertex
100
AcDb2dVertex
 10
546.6176072439407
 20
611.5013856881634
 30
0.0
  0
VERTEX
  5
178
330
163
100
AcDbEntity
  8
Make2D$可见线$普通线
100
AcDbVertex
100
AcDb2dVertex
 10
546.1670145545448
 20
611.6918539904306
 30
0.0
  0
VERTEX
  5
179
330
163
100
AcDbEntity
  8
Make2D$可见线$普通线
100
AcDbVertex
100
AcDb2dVertex
 10
545.7199553545682
 20
611.8911567763876
 30
0.0
  0
VERTEX
  5
17A
330
163
100
AcDbEntity
  8
Make2D$可见线$普通线
100
AcDbVertex
100
AcDb2dVertex
 10
545.2766884184272
 20
612.0991934539545
 30
0.0
  0
VERTEX
  5
17B
330
163
100
AcDbEntity
  8
Make2D$可见线$普通线
100
AcDbVertex
100
AcDb2dVertex
 10
544.8374686067115
 20
612.3158533627184
 30
0.0
  0
VERTEX
  5
17C
330
163
100
AcDbEntity
  8
Make2D$可见线$普通线
100
AcDbVertex
100
AcDb2dVertex
 10
544.4025463784141
 20
612.5410159690236
 30
0.0
  0
VERTEX
  5
17D
330
163
100
AcDbEntity
  8
Make2D$可见线$普通线
100
AcDbVertex
100
AcDb2dVertex
 10
543.9721673150963
 20
612.7745510892971
 30
0.0
  0
VERTEX
  5
17E
330
163
100
AcDbEntity
  8
Make2D$可见线$普通线
100
AcDbVertex
100
AcDb2dVertex
 10
543.5465716588859
 20
613.0163191407415
 30
0.0
  0
VERTEX
  5
17F
330
163
100
AcDbEntity
  8
Make2D$可见线$普通线
100
AcDbVertex
100
AcDb2dVertex
 10
543.12599386613
 20
613.2661714183802
 30
0.0
  0
VERTEX
  5
180
330
163
100
AcDbEntity
  8
Make2D$可见线$普通线
100
AcDbVertex
100
AcDb2dVertex
 10
542.7106621784444
 20
613.5239503973083
 30
0.0
  0
VERTEX
  5
181
330
163
100
AcDbEntity
  8
Make2D$可见线$普通线
100
AcDbVertex
100
AcDb2dVertex
 10
542.3007982127972
 20
613.789490058865
 30
0.0
  0
VERTEX
  5
182
330
163
100
AcDbEntity
  8
Make2D$可见线$普通线
100
AcDbVertex
100
AcDb2dVertex
 10
541.8966165721629
 20
614.0626162393303
 30
0.0
  0
VERTEX
  5
183
330
163
100
AcDbEntity
  8
Make2D$可见线$普通线
100
AcDbVertex
100
AcDb2dVertex
 10
541.4983244781619
 20
614.3431469996332
 30
0.0
  0
VERTEX
  5
184
330
163
100
AcDbEntity
  8
Make2D$可见线$普通线
100
AcDbVertex
100
AcDb2dVertex
 10
541.1061214269748
 20
614.6308930144613
 30
0.0
  0
VERTEX
  5
185
330
163
100
AcDbEntity
  8
Make2D$可见线$普通线
100
AcDbVertex
100
AcDb2dVertex
 10
540.7201988696892
 20
614.9256579790776
 30
0.0
  0
VERTEX
  5
186
330
163
100
AcDbEntity
  8
Make2D$可见线$普通线
100
AcDbVertex
100
AcDb2dVertex
 10
540.3407399180911
 20
615.2272390320679
 30
0.0
  0
VERTEX
  5
187
330
163
100
AcDbEntity
  8
Make2D$可见线$普通线
100
AcDbVertex
100
AcDb2dVertex
 10
539.9679190767772
 20
615.5354271921876
 30
0.0
  0
VERTEX
  5
188
330
163
100
AcDbEntity
  8
Make2D$可见线$普通线
100
AcDbVertex
100
AcDb2dVertex
 10
539.6019020023045
 20
615.8500078074243
 30
0.0
  0
VERTEX
  5
189
330
163
100
AcDbEntity
  8
Make2D$可见线$普通线
100
AcDbVertex
100
AcDb2dVertex
 10
539.2428452899514
 20
616.1707610143567
 30
0.0
  0
VERTEX
  5
18A
330
163
100
AcDbEntity
  8
Make2D$可见线$普通线
100
AcDbVertex
100
AcDb2dVertex
 10
538.8908962885058
 20
616.4974622058694
 30
0.0
  0
VERTEX
  5
18B
330
163
100
AcDbEntity
  8
Make2D$可见线$普通线
100
AcDbVertex
100
AcDb2dVertex
 10
538.5461929433475
 20
616.8298825052723
 30
0.0
  0
VERTEX
  5
18C
330
163
100
AcDbEntity
  8
Make2D$可见线$普通线
100
AcDbVertex
100
AcDb2dVertex
 10
538.144804016844
 20
617.2360409157884
 30
0.0
  0
VERTEX
  5
18D
330
163
100
AcDbEntity
  8
Make2D$可见线$普通线
100
AcDbVertex
100
AcDb2dVertex
 10
537.7530718622703
 20
617.6515245727376
 30
0.0
  0
VERTEX
  5
18E
330
163
100
AcDbEntity
  8
Make2D$可见线$普通线
100
AcDbVertex
100
AcDb2dVertex
 10
537.3711307992558
 20
618.07606485802
 30
0.0
  0
VERTEX
  5
18F
330
163
100
AcDbEntity
  8
Make2D$可见线$普通线
100
AcDbVertex
100
AcDb2dVertex
 10
536.9991151474292
 20
618.5093931535363
 30
0.0
  0
VERTEX
  5
190
330
163
100
AcDbEntity
  8
Make2D$可见线$普通线
100
AcDbVertex
100
AcDb2dVertex
 10
536.6371592264201
 20
618.9512408411869
 30
0.0
  0
VERTEX
  5
191
330
163
100
AcDbEntity
  8
Make2D$可见线$普通线
100
AcDbVertex
100
AcDb2dVertex
 10
536.2853973558574
 20
619.4013393028723
 30
0.0
  0
VERTEX
  5
192
330
163
100
AcDbEntity
  8
Make2D$可见线$普通线
100
AcDbVertex
100
AcDb2dVertex
 10
535.9439638553706
 20
619.8594199204931
 30
0.0
  0
VERTEX
  5
193
330
163
100
AcDbEntity
  8
Make2D$可见线$普通线
100
AcDbVertex
100
AcDb2dVertex
 10
535.6129930445886
 20
620.3252140759496
 30
0.0
  0
VERTEX
  5
194
330
163
100
AcDbEntity
  8
Make2D$可见线$普通线
100
AcDbVertex
100
AcDb2dVertex
 10
535.2926192431406
 20
620.7984531511423
 30
0.0
  0
VERTEX
  5
195
330
163
100
AcDbEntity
  8
Make2D$可见线$普通线
100
AcDbVertex
100
AcDb2dVertex
 10
534.9829767706559
 20
621.2788685279718
 30
0.0
  0
VERTEX
  5
196
330
163
100
AcDbEntity
  8
Make2D$可见线$普通线
100
AcDbVertex
100
AcDb2dVertex
 10
534.6841999467634
 20
621.7661915883382
 30
0.0
  0
VERTEX
  5
197
330
163
100
AcDbEntity
  8
Make2D$可见线$普通线
100
AcDbVertex
100
AcDb2dVertex
 10
534.3964230910927
 20
622.2601537141426
 30
0.0
  0
VERTEX
  5
198
330
163
100
AcDbEntity
  8
Make2D$可见线$普通线
100
AcDbVertex
100
AcDb2dVertex
 10
534.1197805232728
 20
622.760486287285
 30
0.0
  0
VERTEX
  5
199
330
163
100
AcDbEntity
  8
Make2D$可见线$普通线
100
AcDbVertex
100
AcDb2dVertex
 10
533.8544065629328
 20
623.266920689666
 30
0.0
  0
VERTEX
  5
19A
330
163
100
AcDbEntity
  8
Make2D$可见线$普通线
100
AcDbVertex
100
AcDb2dVertex
 10
533.600435529702
 20
623.7791883031862
 30
0.0
  0
VERTEX
  5
19B
330
163
100
AcDbEntity
  8
Make2D$可见线$普通线
100
AcDbVertex
100
AcDb2dVertex
 10
533.3580017432098
 20
624.297020509746
 30
0.0
  0
VERTEX
  5
19C
330
163
100
AcDbEntity
  8
Make2D$可见线$普通线
100
AcDbVertex
100
AcDb2dVertex
 10
533.1272395230849
 20
624.8201486912458
 30
0.0
  0
VERTEX
  5
19D
330
163
100
AcDbEntity
  8
Make2D$可见线$普通线
100
AcDbVertex
100
AcDb2dVertex
 10
532.9082831889568
 20
625.3483042295862
 30
0.0
  0
VERTEX
  5
19E
330
163
100
AcDbEntity
  8
Make2D$可见线$普通线
100
AcDbVertex
100
AcDb2dVertex
 10
532.7012670604545
 20
625.8812185066676
 30
0.0
  0
VERTEX
  5
19F
330
163
100
AcDbEntity
  8
Make2D$可见线$普通线
100
AcDbVertex
100
AcDb2dVertex
 10
532.5063254572073
 20
626.4186229043903
 30
0.0
  0
VERTEX
  5
1A0
330
163
100
AcDbEntity
  8
Make2D$可见线$普通线
100
AcDbVertex
100
AcDb2dVertex
 10
532.3235926988442
 20
626.9602488046551
 30
0.0
  0
VERTEX
  5
1A1
330
163
100
AcDbEntity
  8
Make2D$可见线$普通线
100
AcDbVertex
100
AcDb2dVertex
 10
532.1532031049944
 20
627.5058275893621
 30
0.0
  0
VERTEX
  5
1A2
330
163
100
AcDbEntity
  8
Make2D$可见线$普通线
100
AcDbVertex
100
AcDb2dVertex
 10
531.9952909952874
 20
628.0550906404122
 30
0.0
  0
VERTEX
  5
1A3
330
163
100
AcDbEntity
  8
Make2D$可见线$普通线
100
AcDbVertex
100
AcDb2dVertex
 10
531.8499906893524
 20
628.6077693397058
 30
0.0
  0
VERTEX
  5
1A4
330
163
100
AcDbEntity
  8
Make2D$可见线$普通线
100
AcDbVertex
100
AcDb2dVertex
 10
531.7174365068182
 20
629.1635950691432
 30
0.0
  0
VERTEX
  5
1A5
330
163
100
AcDbEntity
  8
Make2D$可见线$普通线
100
AcDbVertex
100
AcDb2dVertex
 10
531.5977627673142
 20
629.7222992106249
 30
0.0
  0
VERTEX
  5
1A6
330
163
100
AcDbEntity
  8
Make2D$可见线$普通线
100
AcDbVertex
100
AcDb2dVertex
 10
531.4911037904694
 20
630.2836131460514
 30
0.0
  0
VERTEX
  5
1A7
330
163
100
AcDbEntity
  8
Make2D$可见线$普通线
100
AcDbVertex
100
AcDb2dVertex
 10
531.3975938959135
 20
630.8472682573233
 30
0.0
  0
VERTEX
  5
1A8
330
163
100
AcDbEntity
  8
Make2D$可见线$普通线
100
AcDbVertex
100
AcDb2dVertex
 10
531.3173674032751
 20
631.412995926341
 30
0.0
  0
VERTEX
  5
1A9
330
163
100
AcDbEntity
  8
Make2D$可见线$普通线
100
AcDbVertex
100
AcDb2dVertex
 10
531.2505586321836
 20
631.9805275350049
 30
0.0
  0
VERTEX
  5
1AA
330
163
100
AcDbEntity
  8
Make2D$可见线$普通线
100
AcDbVertex
100
AcDb2dVertex
 10
531.1973019022682
 20
632.5495944652155
 30
0.0
  0
VERTEX
  5
1AB
330
163
100
AcDbEntity
  8
Make2D$可见线$普通线
100
AcDbVertex
100
AcDb2dVertex
 10
531.1577315331579
 20
633.1199280988731
 30
0.0
  0
VERTEX
  5
1AC
330
163
100
AcDbEntity
  8
Make2D$可见线$普通线
100
AcDbVertex
100
AcDb2dVertex
 10
543.6199533674755
 20
633.1199280988731
 30
0.0
  0
VERTEX
  5
1AD
330
163
100
AcDbEntity
  8
Make2D$可见线$普通线
100
AcDbVertex
100
AcDb2dVertex
 10
543.6199533674755
 20
636.1199280988731
 30
0.0
  0
VERTEX
  5
1AE
330
163
100
AcDbEntity
  8
Make2D$可见线$普通线
100
AcDbVertex
100
AcDb2dVertex
 10
531.1580014360168
 20
636.1199280988731
 30
0.0
  0
VERTEX
  5
1AF
330
163
100
AcDbEntity
  8
Make2D$可见线$普通线
100
AcDbVertex
100
AcDb2dVertex
 10
531.1972525562464
 20
636.685251795994
 30
0.0
  0
VERTEX
  5
1B0
330
163
100
AcDbEntity
  8
Make2D$可见线$普通线
100
AcDbVertex
100
AcDb2dVertex
 10
531.2499453451146
 20
637.2493825083469
 30
0.0
  0
VERTEX
  5
1B1
330
163
100
AcDbEntity
  8
Make2D$可见线$普通线
100
AcDbVertex
100
AcDb2dVertex
 10
531.315949988862
 20
637.8120549308554
 30
0.0
  0
VERTEX
  5
1B2
330
163
100
AcDbEntity
  8
Make2D$可见线$普通线
100
AcDbVertex
100
AcDb2dVertex
 10
531.3951366737297
 20
638.3730037584431
 30
0.0
  0
VERTEX
  5
1B3
330
163
100
AcDbEntity
  8
Make2D$可见线$普通线
100
AcDbVertex
100
AcDb2dVertex
 10
531.4873755859583
 20
638.9319636860337
 30
0.0
  0
VERTEX
  5
1B4
330
163
100
AcDbEntity
  8
Make2D$可见线$普通线
100
AcDbVertex
100
AcDb2dVertex
 10
531.5925369117884
 20
639.4886694085505
 30
0.0
  0
VERTEX
  5
1B5
330
163
100
AcDbEntity
  8
Make2D$可见线$普通线
100
AcDbVertex
100
AcDb2dVertex
 10
531.7104908374612
 20
640.0428556209175
 30
0.0
  0
VERTEX
  5
1B6
330
163
100
AcDbEntity
  8
Make2D$可见线$普通线
100
AcDbVertex
100
AcDb2dVertex
 10
531.8411075492172
 20
640.5942570180582
 30
0.0
  0
VERTEX
  5
1B7
330
163
100
AcDbEntity
  8
Make2D$可见线$普通线
100
AcDbVertex
100
AcDb2dVertex
 10
531.9842572332973
 20
641.1426082948961
 30
0.0
  0
VERTEX
  5
1B8
330
163
100
AcDbEntity
  8
Make2D$可见线$普通线
100
AcDbVertex
100
AcDb2dVertex
 10
532.1398100759421
 20
641.6876441463548
 30
0.0
  0
VERTEX
  5
1B9
330
163
100
AcDbEntity
  8
Make2D$可见线$普通线
100
AcDbVertex
100
AcDb2dVertex
 10
532.3076362633926
 20
642.2290992673582
 30
0.0
  0
VERTEX
  5
1BA
330
163
100
AcDbEntity
  8
Make2D$可见线$普通线
100
AcDbVertex
100
AcDb2dVertex
 10
532.4876059818896
 20
642.7667083528296
 30
0.0
  0
VERTEX
  5
1BB
330
163
100
AcDbEntity
  8
Make2D$可见线$普通线
100
AcDbVertex
100
AcDb2dVertex
 10
532.6795894176738
 20
643.3002060976928
 30
0.0
  0
VERTEX
  5
1BC
330
163
100
AcDbEntity
  8
Make2D$可见线$普通线
100
AcDbVertex
100
AcDb2dVertex
 10
532.883456756986
 20
643.8293271968712
 30
0.0
  0
VERTEX
  5
1BD
330
163
100
AcDbEntity
  8
Make2D$可见线$普通线
100
AcDbVertex
100
AcDb2dVertex
 10
533.0990781860669
 20
644.3538063452886
 30
0.0
  0
VERTEX
  5
1BE
330
163
100
AcDbEntity
  8
Make2D$可见线$普通线
100
AcDbVertex
100
AcDb2dVertex
 10
533.3263238911572
 20
644.8733782378686
 30
0.0
  0
VERTEX
  5
1BF
330
163
100
AcDbEntity
  8
Make2D$可见线$普通线
100
AcDbVertex
100
AcDb2dVertex
 10
533.565064058498
 20
645.3877775695347
 30
0.0
  0
VERTEX
  5
1C0
330
163
100
AcDbEntity
  8
Make2D$可见线$普通线
100
AcDbVertex
100
AcDb2dVertex
 10
533.8151688743299
 20
645.8967390352107
 30
0.0
  0
VERTEX
  5
1C1
330
163
100
AcDbEntity
  8
Make2D$可见线$普通线
100
AcDbVertex
100
AcDb2dVertex
 10
534.0765085248936
 20
646.39999732982
 30
0.0
  0
VERTEX
  5
1C2
330
163
100
AcDbEntity
  8
Make2D$可见线$普通线
100
AcDbVertex
100
AcDb2dVertex
 10
534.3489531964301
 20
646.8972871482863
 30
0.0
  0
VERTEX
  5
1C3
330
163
100
AcDbEntity
  8
Make2D$可见线$普通线
100
AcDbVertex
100
AcDb2dVertex
 10
534.63237307518
 20
647.3883431855332
 30
0.0
  0
VERTEX
  5
1C4
330
163
100
AcDbEntity
  8
Make2D$可见线$普通线
100
AcDbVertex
100
AcDb2dVertex
 10
534.9266383473841
 20
647.8729001364845
 30
0.0
  0
VERTEX
  5
1C5
330
163
100
AcDbEntity
  8
Make2D$可见线$普通线
100
AcDbVertex
100
AcDb2dVertex
 10
535.2316191992832
 20
648.3506926960636
 30
0.0
  0
VERTEX
  5
1C6
330
163
100
AcDbEntity
  8
Make2D$可见线$普通线
100
AcDbVertex
100
AcDb2dVertex
 10
535.547185817118
 20
648.821455559194
 30
0.0
  0
VERTEX
  5
1C7
330
163
100
AcDbEntity
  8
Make2D$可见线$普通线
100
AcDbVertex
100
AcDb2dVertex
 10
535.8732083871296
 20
649.2849234207995
 30
0.0
  0
VERTEX
  5
1C8
330
163
100
AcDbEntity
  8
Make2D$可见线$普通线
100
AcDbVertex
100
AcDb2dVertex
 10
536.2095570955585
 20
649.7408309758036
 30
0.0
  0
VERTEX
  5
1C9
330
163
100
AcDbEntity
  8
Make2D$可见线$普通线
100
AcDbVertex
100
AcDb2dVertex
 10
536.5561021286455
 20
650.1889129191302
 30
0.0
  0
VERTEX
  5
1CA
330
163
100
AcDbEntity
  8
Make2D$可见线$普通线
100
AcDbVertex
100
AcDb2dVertex
 10
536.9127136726315
 20
650.6289039457026
 30
0.0
  0
VERTEX
  5
1CB
330
163
100
AcDbEntity
  8
Make2D$可见线$普通线
100
AcDbVertex
100
AcDb2dVertex
 10
537.2792619137572
 20
651.0605387504446
 30
0.0
  0
VERTEX
  5
1CC
330
163
100
AcDbEntity
  8
Make2D$可见线$普通线
100
AcDbVertex
100
AcDb2dVertex
 10
537.6556170382635
 20
651.4835520282797
 30
0.0
  0
VERTEX
  5
1CD
330
163
100
AcDbEntity
  8
Make2D$可见线$普通线
100
AcDbVertex
100
AcDb2dVertex
 10
538.041649232391
 20
651.8976784741317
 30
0.0
  0
VERTEX
  5
1CE
330
163
100
AcDbEntity
  8
Make2D$可见线$普通线
100
AcDbVertex
100
AcDb2dVertex
 10
538.4372286823806
 20
652.3026527829238
 30
0.0
  0
VERTEX
  5
1CF
330
163
100
AcDbEntity
  8
Make2D$可见线$普通线
100
AcDbVertex
100
AcDb2dVertex
 10
538.87611121554
 20
652.7305243072699
 30
0.0
  0
VERTEX
  5
1D0
330
163
100
AcDbEntity
  8
Make2D$可见线$普通线
100
AcDbVertex
100
AcDb2dVertex
 10
539.3256966884469
 20
653.1471914017552
 30
0.0
  0
VERTEX
  5
1D1
330
163
100
AcDbEntity
  8
Make2D$可见线$普通线
100
AcDbVertex
100
AcDb2dVertex
 10
539.7856483723731
 20
653.5524893050331
 30
0.0
  0
VERTEX
  5
1D2
330
163
100
AcDbEntity
  8
Make2D$可见线$普通线
100
AcDbVertex
100
AcDb2dVertex
 10
540.2556295385907
 20
653.946253255757
 30
0.0
  0
VERTEX
  5
1D3
330
163
100
AcDbEntity
  8
Make2D$可见线$普通线
100
AcDbVertex
100
AcDb2dVertex
 10
540.7353034583717
 20
654.3283184925805
 30
0.0
  0
VERTEX
  5
1D4
330
163
100
AcDbEntity
  8
Make2D$可见线$普通线
100
AcDbVertex
100
AcDb2dVertex
 10
541.2243334029881
 20
654.6985202541568
 30
0.0
  0
VERTEX
  5
1D5
330
163
100
AcDbEntity
  8
Make2D$可见线$普通线
100
AcDbVertex
100
AcDb2dVertex
 10
541.7223826437119
 20
655.0566937791394
 30
0.0
  0
VERTEX
  5
1D6
330
163
100
AcDbEntity
  8
Make2D$可见线$普通线
100
AcDbVertex
100
AcDb2dVertex
 10
542.2291144518151
 20
655.4026743061817
 30
0.0
  0
VERTEX
  5
1D7
330
163
100
AcDbEntity
  8
Make2D$可见线$普通线
100
AcDbVertex
100
AcDb2dVertex
 10
542.7441920985698
 20
655.7362970739371
 30
0.0
  0
VERTEX
  5
1D8
330
163
100
AcDbEntity
  8
Make2D$可见线$普通线
100
AcDbVertex
100
AcDb2dVertex
 10
543.267278855248
 20
656.0573973210592
 30
0.0
  0
VERTEX
  5
1D9
330
163
100
AcDbEntity
  8
Make2D$可见线$普通线
100
AcDbVertex
100
AcDb2dVertex
 10
543.7980379931219
 20
656.365810286201
 30
0.0
  0
VERTEX
  5
1DA
330
163
100
AcDbEntity
  8
Make2D$可见线$普通线
100
AcDbVertex
100
AcDb2dVertex
 10
544.3361327834631
 20
656.6613712080162
 30
0.0
  0
VERTEX
  5
1DB
330
163
100
AcDbEntity
  8
Make2D$可见线$普通线
100
AcDbVertex
100
AcDb2dVertex
 10
544.881226497544
 20
656.9439153251583
 30
0.0
  0
VERTEX
  5
1DC
330
163
100
AcDbEntity
  8
Make2D$可见线$普通线
100
AcDbVertex
100
AcDb2dVertex
 10
545.4329824066365
 20
657.2132778762805
 30
0.0
  0
VERTEX
  5
1DD
330
163
100
AcDbEntity
  8
Make2D$可见线$普通线
100
AcDbVertex
100
AcDb2dVertex
 10
545.9910637820126
 20
657.4692941000362
 30
0.0
  0
VERTEX
  5
1DE
330
163
100
AcDbEntity
  8
Make2D$可见线$普通线
100
AcDbVertex
100
AcDb2dVertex
 10
546.5551338949443
 20
657.7117992350791
 30
0.0
  0
VERTEX
  5
1DF
330
163
100
AcDbEntity
  8
Make2D$可见线$普通线
100
AcDbVertex
100
AcDb2dVertex
 10
547.1248560167037
 20
657.9406285200623
 30
0.0
  0
VERTEX
  5
1E0
330
163
100
AcDbEntity
  8
Make2D$可见线$普通线
100
AcDbVertex
100
AcDb2dVertex
 10
547.6998934185629
 20
658.1556171936393
 30
0.0
  0
VERTEX
  5
1E1
330
163
100
AcDbEntity
  8
Make2D$可见线$普通线
100
AcDbVertex
100
AcDb2dVertex
 10
548.2799093717936
 20
658.3566004944634
 30
0.0
  0
VERTEX
  5
1E2
330
163
100
AcDbEntity
  8
Make2D$可见线$普通线
100
AcDbVertex
100
AcDb2dVertex
 10
548.8645671476681
 20
658.5434136611883
 30
0.0
  0
VERTEX
  5
1E3
330
163
100
AcDbEntity
  8
Make2D$可见线$普通线
100
AcDbVertex
100
AcDb2dVertex
 10
549.4535300174584
 20
658.7158919324673
 30
0.0
  0
VERTEX
  5
1E4
330
163
100
AcDbEntity
  8
Make2D$可见线$普通线
100
AcDbVertex
100
AcDb2dVertex
 10
550.0464612524365
 20
658.8738705469538
 30
0.0
  0
VERTEX
  5
1E5
330
163
100
AcDbEntity
  8
Make2D$可见线$普通线
100
AcDbVertex
100
AcDb2dVertex
 10
550.6430241238743
 20
659.017184743301
 30
0.0
  0
VERTEX
  5
1E6
330
163
100
AcDbEntity
  8
Make2D$可见线$普通线
100
AcDbVertex
100
AcDb2dVertex
 10
551.242881903044
 20
659.1456697601627
 30
0.0
  0
VERTEX
  5
1E7
330
163
100
AcDbEntity
  8
Make2D$可见线$普通线
100
AcDbVertex
100
AcDb2dVertex
 10
551.8456978612176
 20
659.2591608361921
 30
0.0
  0
VERTEX
  5
1E8
330
163
100
AcDbEntity
  8
Make2D$可见线$普通线
100
AcDbVertex
100
AcDb2dVertex
 10
552.451135269667
 20
659.3574932100425
 30
0.0
  0
VERTEX
  5
1E9
330
163
100
AcDbEntity
  8
Make2D$可见线$普通线
100
AcDbVertex
100
AcDb2dVertex
 10
553.0588573996641
 20
659.4405021203675
 30
0.0
  0
VERTEX
  5
1EA
330
163
100
AcDbEntity
  8
Make2D$可见线$普通线
100
AcDbVertex
100
AcDb2dVertex
 10
553.6685275224813
 20
659.5080228058205
 30
0.0
  0
VERTEX
  5
1EB
330
163
100
AcDbEntity
  8
Make2D$可见线$普通线
100
AcDbVertex
100
AcDb2dVertex
 10
554.2798089093906
 20
659.5598905050548
 30
0.0
  0
VERTEX
  5
1EC
330
163
100
AcDbEntity
  8
Make2D$可见线$普通线
100
AcDbVertex
100
AcDb2dVertex
 10
554.8923648316636
 20
659.5959404567238
 30
0.0
  0
VERTEX
  5
1ED
330
163
100
AcDbEntity
  8
Make2D$可见线$普通线
100
AcDbVertex
100
AcDb2dVertex
 10
555.5058585605725
 20
659.616007899481
 30
0.0
  0
VERTEX
  5
1EE
330
163
100
AcDbEntity
  8
Make2D$可见线$普通线
100
AcDbVertex
100
AcDb2dVertex
 10
556.1199533673896
 20
659.61992807198
 30
0.0
  0
VERTEX
  5
1EF
330
163
100
AcDbEntity
  8
Make2D$可见线$普通线
100
AcDbVertex
100
AcDb2dVertex
 10
556.7340481735009
 20
659.616007897355
 30
0.0
  0
VERTEX
  5
1F0
330
163
100
AcDbEntity
  8
Make2D$可见线$普通线
100
AcDbVertex
100
AcDb2dVertex
 10
557.3475419016581
 20
659.5959404525654
 30
0.0
  0
VERTEX
  5
1F1
330
163
100
AcDbEntity
  8
Make2D$可见线$普通线
100
AcDbVertex
100
AcDb2dVertex
 10
557.9600978231348
 20
659.5598904989549
 30
0.0
  0
VERTEX
  5
1F2
330
163
100
AcDbEntity
  8
Make2D$可见线$普通线
100
AcDbVertex
100
AcDb2dVertex
 10
558.5713792092042
 20
659.5080227978672
 30
0.0
  0
VERTEX
  5
1F3
330
163
100
AcDbEntity
  8
Make2D$可见线$普通线
100
AcDbVertex
100
AcDb2dVertex
 10
559.1810493311405
 20
659.4405021106459
 30
0.0
  0
VERTEX
  5
1F4
330
163
100
AcDbEntity
  8
Make2D$可见线$普通线
100
AcDbVertex
100
AcDb2dVertex
 10
559.7887714602168
 20
659.3574931986346
 30
0.0
  0
VERTEX
  5
1F5
330
163
100
AcDbEntity
  8
Make2D$可见线$普通线
100
AcDbVertex
100
AcDb2dVertex
 10
560.3942088677071
 20
659.2591608231771
 30
0.0
  0
VERTEX
  5
1F6
330
163
100
AcDbEntity
  8
Make2D$可见线$普通线
100
AcDbVertex
100
AcDb2dVertex
 10
560.9970248248848
 20
659.1456697456167
 30
0.0
  0
VERTEX
  5
1F7
330
163
100
AcDbEntity
  8
Make2D$可见线$普通线
100
AcDbVertex
100
AcDb2dVertex
 10
561.5968826030235
 20
659.0171847272975
 30
0.0
  0
VERTEX
  5
1F8
330
163
100
AcDbEntity
  8
Make2D$可见线$普通线
100
AcDbVertex
100
AcDb2dVertex
 10
562.193445473397
 20
658.8738705295627
 30
0.0
  0
VERTEX
  5
1F9
330
163
100
AcDbEntity
  8
Make2D$可见线$普通线
100
AcDbVertex
100
AcDb2dVertex
 10
562.7863767072788
 20
658.7158919137562
 30
0.0
  0
VERTEX
  5
1FA
330
163
100
AcDbEntity
  8
Make2D$可见线$普通线
100
AcDbVertex
100
AcDb2dVertex
 10
563.3753395759425
 20
658.5434136412216
 30
0.0
  0
VERTEX
  5
1FB
330
163
100
AcDbEntity
  8
Make2D$可见线$普通线
100
AcDbVertex
100
AcDb2dVertex
 10
563.9599973506618
 20
658.3566004733025
 30
0.0
  0
VERTEX
  5
1FC
330
163
100
AcDbEntity
  8
Make2D$可见线$普通线
100
AcDbVertex
100
AcDb2dVertex
 10
564.5400133027101
 20
658.1556171713426
 30
0.0
  0
VERTEX
  5
1FD
330
163
100
AcDbEntity
  8
Make2D$可见线$普通线
100
AcDbVertex
100
AcDb2dVertex
 10
565.1150507033612
 20
657.9406284966853
 30
0.0
  0
VERTEX
  5
1FE
330
163
100
AcDbEntity
  8
Make2D$可见线$普通线
100
AcDbVertex
100
AcDb2dVertex
 10
565.6847728238888
 20
657.7117992106745
 30
0.0
  0
VERTEX
  5
1FF
330
163
100
AcDbEntity
  8
Make2D$可见线$普通线
100
AcDbVertex
100
AcDb2dVertex
 10
566.2488429355662
 20
657.4692940746538
 30
0.0
  0
VERTEX
  5
200
330
163
100
AcDbEntity
  8
Make2D$可见线$普通线
100
AcDbVertex
100
AcDb2dVertex
 10
566.8069243096675
 20
657.2132778499667
 30
0.0
  0
VERTEX
  5
201
330
163
100
AcDbEntity
  8
Make2D$可见线$普通线
100
AcDbVertex
100
AcDb2dVertex
 10
567.3586802174659
 20
656.9439152979571
 30
0.0
  0
VERTEX
  5
202
330
163
100
AcDbEntity
  8
Make2D$可见线$普通线
100
AcDbVertex
100
AcDb2dVertex
 10
567.903773930235
 20
656.6613711799683
 30
0.0
  0
VERTEX
  5
203
330
163
100
AcDbEntity
  8
Make2D$可见线$普通线
100
AcDbVertex
100
AcDb2dVertex
 10
568.4418687192488
 20
656.3658102573443
 30
0.0
  0
VERTEX
  5
204
330
163
100
AcDbEntity
  8
Make2D$可见线$普通线
100
AcDbVertex
100
AcDb2dVertex
 10
568.9726278557804
 20
656.0573972914284
 30
0.0
  0
VERTEX
  5
205
330
163
100
AcDbEntity
  8
Make2D$可见线$普通线
100
AcDbVertex
100
AcDb2dVertex
 10
569.4957146111038
 20
655.7362970435645
 30
0.0
  0
VERTEX
  5
206
330
163
100
AcDbEntity
  8
Make2D$可见线$普通线
100
AcDbVertex
100
AcDb2dVertex
 10
570.0107922564924
 20
655.4026742750962
 30
0.0
  0
VERTEX
  5
207
330
163
100
AcDbEntity
  8
Make2D$可见线$普通线
100
AcDbVertex
100
AcDb2dVertex
 10
570.51752406322
 20
655.056693747367
 30
0.0
  0
VERTEX
  5
208
330
163
100
AcDbEntity
  8
Make2D$可见线$普通线
100
AcDbVertex
100
AcDb2dVertex
 10
571.0155733025601
 20
654.6985202217206
 30
0.0
  0
VERTEX
  5
209
330
163
100
AcDbEntity
  8
Make2D$可见线$普通线
100
AcDbVertex
100
AcDb2dVertex
 10
571.5046032457865
 20
654.3283184595007
 30
0.0
  0
VERTEX
  5
20A
330
163
100
AcDbEntity
  8
Make2D$可见线$普通线
100
AcDbVertex
100
AcDb2dVertex
 10
571.9842771641725
 20
653.9462532220508
 30
0.0
  0
VERTEX
  5
20B
330
163
100
AcDbEntity
  8
Make2D$可见线$普通线
100
AcDbVertex
100
AcDb2dVertex
 10
572.4542583289917
 20
653.5524892707147
 30
0.0
  0
VERTEX
  5
20C
330
163
100
AcDbEntity
  8
Make2D$可见线$普通线
100
AcDbVertex
100
AcDb2dVertex
 10
572.9142100115182
 20
653.1471913668358
 30
0.0
  0
VERTEX
  5
20D
330
163
100
AcDbEntity
  8
Make2D$可见线$普通线
100
AcDbVertex
100
AcDb2dVertex
 10
573.3637954830251
 20
652.7305242717582
 30
0.0
  0
VERTEX
  5
20E
330
163
100
AcDbEntity
  8
Make2D$可见线$普通线
100
AcDbVertex
100
AcDb2dVertex
 10
573.8026780147864
 20
652.3026527468251
 30
0.0
  0
VERTEX
  5
20F
330
163
100
AcDbEntity
  8
Make2D$可见线$普通线
100
AcDbVertex
100
AcDb2dVertex
 10
574.1982574227918
 20
651.8976784800873
 30
0.0
  0
VERTEX
  5
210
330
163
100
AcDbEntity
  8
Make2D$可见线$普通线
100
AcDbVertex
100
AcDb2dVertex
 10
574.5842895769429
 20
651.4835520778345
 30
0.0
  0
VERTEX
  5
211
330
163
100
AcDbEntity
  8
Make2D$可见线$普通线
100
AcDbVertex
100
AcDb2dVertex
 10
574.9606446635241
 20
651.0605388447248
 30
0.0
  0
VERTEX
  5
212
330
163
100
AcDbEntity
  8
Make2D$可见线$普通线
100
AcDbVertex
100
AcDb2dVertex
 10
575.3271928688202
 20
650.628904085416
 30
0.0
  0
VERTEX
  5
213
330
163
100
AcDbEntity
  8
Make2D$可见线$普通线
100
AcDbVertex
100
AcDb2dVertex
 10
575.6838043791156
 20
650.1889131045659
 30
0.0
  0
VERTEX
  5
214
330
163
100
AcDbEntity
  8
Make2D$可见线$普通线
100
AcDbVertex
100
AcDb2dVertex
 10
576.030349380695
 20
649.7408312068326
 30
0.0
  0
VERTEX
  5
215
330
163
100
AcDbEntity
  8
Make2D$可见线$普通线
100
AcDbVertex
100
AcDb2dVertex
 10
576.3666980598429
 20
649.2849236968738
 30
0.0
  0
VERTEX
  5
216
330
163
100
AcDbEntity
  8
Make2D$可见线$普通线
100
AcDbVertex
100
AcDb2dVertex
 10
576.6927206028438
 20
648.8214558793472
 30
0.0
  0
VERTEX
  5
217
330
163
100
AcDbEntity
  8
Make2D$可见线$普通线
100
AcDbVertex
100
AcDb2dVertex
 10
577.0082871959823
 20
648.3506930589109
 30
0.0
  0
VERTEX
  5
218
330
163
100
AcDbEntity
  8
Make2D$可见线$普通线
100
AcDbVertex
100
AcDb2dVertex
 10
577.3132680255433
 20
647.8729005402226
 30
0.0
  0
VERTEX
  5
219
330
163
100
AcDbEntity
  8
Make2D$可见线$普通线
100
AcDbVertex
100
AcDb2dVertex
 10
577.607533277811
 20
647.3883436279405
 30
0.0
  0
VERTEX
  5
21A
330
163
100
AcDbEntity
  8
Make2D$可见线$普通线
100
AcDbVertex
100
AcDb2dVertex
 10
577.8909531390701
 20
646.8972876267221
 30
0.0
  0
VERTEX
  5
21B
330
163
100
AcDbEntity
  8
Make2D$可见线$普通线
100
AcDbVertex
100
AcDb2dVertex
 10
578.1633977956053
 20
646.3999978412254
 30
0.0
  0
VERTEX
  5
21C
330
163
100
AcDbEntity
  8
Make2D$可见线$普通线
100
AcDbVertex
100
AcDb2dVertex
 10
578.424737433701
 20
645.8967395761082
 30
0.0
  0
VERTEX
  5
21D
330
163
100
AcDbEntity
  8
Make2D$可见线$普通线
100
AcDbVertex
100
AcDb2dVertex
 10
578.6748422396419
 20
645.3877781360285
 30
0.0
  0
VERTEX
  5
21E
330
163
100
AcDbEntity
  8
Make2D$可见线$普通线
100
AcDbVertex
100
AcDb2dVertex
 10
578.9135823997125
 20
644.8733788256441
 30
0.0
  0
VERTEX
  5
21F
330
163
100
AcDbEntity
  8
Make2D$可见线$普通线
100
AcDbVertex
100
AcDb2dVertex
 10
579.1408281001975
 20
644.3538069496128
 30
0.0
  0
VERTEX
  5
220
330
163
100
AcDbEntity
  8
Make2D$可见线$普通线
100
AcDbVertex
100
AcDb2dVertex
 10
579.3564495273813
 20
643.8293278125925
 30
0.0
  0
VERTEX
  5
221
330
163
100
AcDbEntity
  8
Make2D$可见线$普通线
100
AcDbVertex
100
AcDb2dVertex
 10
579.5603168675486
 20
643.3002067192413
 30
0.0
  0
VERTEX
  5
222
330
163
100
AcDbEntity
  8
Make2D$可见线$普通线
100
AcDbVertex
100
AcDb2dVertex
 10
579.7523003069841
 20
642.7667089742167
 30
0.0
  0
VERTEX
  5
223
330
163
100
AcDbEntity
  8
Make2D$可见线$普通线
100
AcDbVertex
100
AcDb2dVertex
 10
579.9322700319722
 20
642.2290998821768
 30
0.0
  0
VERTEX
  5
224
330
163
100
AcDbEntity
  8
Make2D$可见线$普通线
100
AcDbVertex
100
AcDb2dVertex
 10
580.1000962287974
 20
641.6876447477794
 30
0.0
  0
VERTEX
  5
225
330
163
100
AcDbEntity
  8
Make2D$可见线$普通线
100
AcDbVertex
100
AcDb2dVertex
 10
580.2556490837445
 20
641.1426088756823
 30
0.0
  0
VERTEX
  5
226
330
163
100
AcDbEntity
  8
Make2D$可见线$普通线
100
AcDbVertex
100
AcDb2dVertex
 10
580.3987987830981
 20
640.5942575705434
 30
0.0
  0
VERTEX
  5
227
330
163
100
AcDbEntity
  8
Make2D$可见线$普通线
100
AcDbVertex
100
AcDb2dVertex
 10
580.5294155131426
 20
640.0428561370206
 30
0.0
  0
VERTEX
  5
228
330
163
100
AcDbEntity
  8
Make2D$可见线$普通线
100
AcDbVertex
100
AcDb2dVertex
 10
580.6473694601625
 20
639.4886698797719
 30
0.0
  0
VERTEX
  5
229
330
163
100
AcDbEntity
  8
Make2D$可见线$普通线
100
AcDbVertex
100
AcDb2dVertex
 10
580.7525308104425
 20
638.931964103455
 30
0.0
  0
VERTEX
  5
22A
330
163
100
AcDbEntity
  8
Make2D$可见线$普通线
100
AcDbVertex
100
AcDb2dVertex
 10
580.8447697502675
 20
638.3730041127277
 30
0.0
  0
VERTEX
  5
22B
330
163
100
AcDbEntity
  8
Make2D$可见线$普通线
100
AcDbVertex
100
AcDb2dVertex
 10
580.9239564659217
 20
637.812055212248
 30
0.0
  0
VERTEX
  5
22C
330
163
100
AcDbEntity
  8
Make2D$可见线$普通线
100
AcDbVertex
100
AcDb2dVertex
 10
580.9899611436897
 20
637.2493827066737
 30
0.0
  0
VERTEX
  5
22D
330
163
100
AcDbEntity
  8
Make2D$可见线$普通线
100
AcDbVertex
100
AcDb2dVertex
 10
581.0426539698562
 20
636.6852519006627
 30
0.0
  0
VERTEX
  5
22E
330
163
100
AcDbEntity
  8
Make2D$可见线$普通线
100
AcDbVertex
100
AcDb2dVertex
 10
581.0819051307058
 20
636.1199280988731
 30
0.0
  0
VERTEX
  5
22F
330
163
100
AcDbEntity
  8
Make2D$可见线$普通线
100
AcDbVertex
100
AcDb2dVertex
 10
568.6200217436099
 20
636.1199280988733
 30
0.0
  0
VERTEX
  5
230
330
163
100
AcDbEntity
  8
Make2D$可见线$普通线
100
AcDbVertex
100
AcDb2dVertex
 10
568.6200217436099
 20
633.1199280988732
 30
0.0
  0
VERTEX
  5
231
330
163
100
AcDbEntity
  8
Make2D$可见线$普通线
100
AcDbVertex
100
AcDb2dVertex
 10
581.0821749943682
 20
633.1199280988731
 30
0.0
  0
VERTEX
  5
232
330
163
100
AcDbEntity
  8
Make2D$可见线$普通线
100
AcDbVertex
100
AcDb2dVertex
 10
581.0426046092471
 20
632.5495946803061
 30
0.0
  0
VERTEX
  5
233
330
163
100
AcDbEntity
  8
Make2D$可见线$普通线
100
AcDbVertex
100
AcDb2dVertex
 10
580.9893478826294
 20
631.9805279741146
 30
0.0
  0
VERTEX
  5
234
330
163
100
AcDbEntity
  8
Make2D$可见线$普通线
100
AcDbVertex
100
AcDb2dVertex
 10
580.9225391338158
 20
631.412996597574
 30
0.0
  0
VERTEX
  5
235
330
163
100
AcDbEntity
  8
Make2D$可见线$普通线
100
AcDbVertex
100
AcDb2dVertex
 10
580.8423126821069
 20
630.8472691679598
 30
0.0
  0
VERTEX
  5
236
330
163
100
AcDbEntity
  8
Make2D$可见线$普通线
100
AcDbVertex
100
AcDb2dVertex
 10
580.7488028468031
 20
630.2836143025474
 30
0.0
  0
VERTEX
  5
237
330
163
100
AcDbEntity
  8
Make2D$可见线$普通线
100
AcDbVertex
100
AcDb2dVertex
 10
580.6421439472049
 20
629.7223006186125
 30
0.0
  0
VERTEX
  5
238
330
163
100
AcDbEntity
  8
Make2D$可见线$普通线
100
AcDbVertex
100
AcDb2dVertex
 10
580.5224703026125
 20
629.16359673343
 30
0.0
  0
VERTEX
  5
239
330
163
100
AcDbEntity
  8
Make2D$可见线$普通线
100
AcDbVertex
100
AcDb2dVertex
 10
580.3899162323265
 20
628.6077712642757
 30
0.0
  0
VERTEX
  5
23A
330
163
100
AcDbEntity
  8
Make2D$可见线$普通线
100
AcDbVertex
100
AcDb2dVertex
 10
580.2446160556473
 20
628.0550928284248
 30
0.0
  0
VERTEX
  5
23B
330
163
100
AcDbEntity
  8
Make2D$可见线$普通线
100
AcDbVertex
100
AcDb2dVertex
 10
580.0867040918754
 20
627.5058300431529
 30
0.0
  0
VERTEX
  5
23C
330
163
100
AcDbEntity
  8
Make2D$可见线$普通线
100
AcDbVertex
100
AcDb2dVertex
 10
579.9163146603114
 20
626.9602515257352
 30
0.0
  0
VERTEX
  5
23D
330
163
100
AcDbEntity
  8
Make2D$可见线$普通线
100
AcDbVertex
100
AcDb2dVertex
 10
579.7335820802555
 20
626.4186258934473
 30
0.0
  0
VERTEX
  5
23E
330
163
100
AcDbEntity
  8
Make2D$可见线$普通线
100
AcDbVertex
100
AcDb2dVertex
 10
579.5386406710084
 20
625.8812217635644
 30
0.0
  0
VERTEX
  5
23F
330
163
100
AcDbEntity
  8
Make2D$可见线$普通线
100
AcDbVertex
100
AcDb2dVertex
 10
579.3316247518701
 20
625.3483077533622
 30
0.0
  0
VERTEX
  5
240
330
163
100
AcDbEntity
  8
Make2D$可见线$普通线
100
AcDbVertex
100
AcDb2dVertex
 10
579.1126686421414
 20
624.8201524801159
 30
0.0
  0
VERTEX
  5
241
330
163
100
AcDbEntity
  8
Make2D$可见线$普通线
100
AcDbVertex
100
AcDb2dVertex
 10
578.8819066611229
 20
624.2970245611011
 30
0.0
  0
VERTEX
  5
242
330
163
100
AcDbEntity
  8
Make2D$可见线$普通线
100
AcDbVertex
100
AcDb2dVertex
 10
578.6394731281148
 20
623.7791926135931
 30
0.0
  0
VERTEX
  5
243
330
163
100
AcDbEntity
  8
Make2D$可见线$普通线
100
AcDbVertex
100
AcDb2dVertex
 10
578.3855023624176
 20
623.2669252548674
 30
0.0
  0
VERTEX
  5
244
330
163
100
AcDbEntity
  8
Make2D$可见线$普通线
100
AcDbVertex
100
AcDb2dVertex
 10
578.1201286833316
 20
622.7604911021992
 30
0.0
  0
VERTEX
  5
245
330
163
100
AcDbEntity
  8
Make2D$可见线$普通线
100
AcDbVertex
100
AcDb2dVertex
 10
577.8434864101575
 20
622.2601587728642
 30
0.0
  0
VERTEX
  5
246
330
163
100
AcDbEntity
  8
Make2D$可见线$普通线
100
AcDbVertex
100
AcDb2dVertex
 10
577.5557098621957
 20
621.7661968841377
 30
0.0
  0
VERTEX
  5
247
330
163
100
AcDbEntity
  8
Make2D$可见线$普通线
100
AcDbVertex
100
AcDb2dVertex
 10
577.2569333587467
 20
621.2788740532949
 30
0.0
  0
VERTEX
  5
248
330
163
100
AcDbEntity
  8
Make2D$可见线$普通线
100
AcDbVertex
100
AcDb2dVertex
 10
576.9472912191106
 20
620.7984588976115
 30
0.0
  0
VERTEX
  5
249
330
163
100
AcDbEntity
  8
Make2D$可见线$普通线
100
AcDbVertex
100
AcDb2dVertex
 10
576.6269177625883
 20
620.3252200343629
 30
0.0
  0
VERTEX
  5
24A
330
163
100
AcDbEntity
  8
Make2D$可见线$普通线
100
AcDbVertex
100
AcDb2dVertex
 10
576.29594730848
 20
619.8594260808244
 30
0.0
  0
VERTEX
  5
24B
330
163
100
AcDbEntity
  8
Make2D$可见线$普通线
100
AcDbVertex
100
AcDb2dVertex
 10
575.9545141760861
 20
619.4013456542716
 30
0.0
  0
VERTEX
  5
24C
330
163
100
AcDbEntity
  8
Make2D$可见线$普通线
100
AcDbVertex
100
AcDb2dVertex
 10
575.6027526847075
 20
618.9512473719799
 30
0.0
  0
VERTEX
  5
24D
330
163
100
AcDbEntity
  8
Make2D$可见线$普通线
100
AcDbVertex
100
AcDb2dVertex
 10
575.2407971536442
 20
618.5093998512242
 30
0.0
  0
VERTEX
  5
24E
330
163
100
AcDbEntity
  8
Make2D$可见线$普通线
100
AcDbVertex
100
AcDb2dVertex
 10
574.8687819021967
 20
618.0760717092805
 30
0.0
  0
VERTEX
  5
24F
330
163
100
AcDbEntity
  8
Make2D$可见线$普通线
100
AcDbVertex
100
AcDb2dVertex
 10
574.4868412496654
 20
617.651531563424
 30
0.0
  0
VERTEX
  5
250
330
163
100
AcDbEntity
  8
Make2D$可见线$普通线
100
AcDbVertex
100
AcDb2dVertex
 10
574.0951095153509
 20
617.2360480309302
 30
0.0
  0
VERTEX
  5
251
330
163
100
AcDbEntity
  8
Make2D$可见线$普通线
100
AcDbVertex
100
AcDb2dVertex
 10
573.6937210185536
 20
616.8298897290744
 30
0.0
  0
VERTEX
  5
252
330
163
100
AcDbEntity
  8
Make2D$可见线$普通线
100
AcDbVertex
100
AcDb2dVertex
 10
573.3490179416149
 20
616.4974694133679
 30
0.0
  0
VERTEX
  5
253
330
163
100
AcDbEntity
  8
Make2D$可见线$普通线
100
AcDbVertex
100
AcDb2dVertex
 10
572.9970692119646
 20
616.1707681985054
 30
0.0
  0
VERTEX
  5
254
330
163
100
AcDbEntity
  8
Make2D$可见线$普通线
100
AcDbVertex
100
AcDb2dVertex
 10
572.6380127747498
 20
615.8500149609507
 30
0.0
  0
VERTEX
  5
255
330
163
100
AcDbEntity
  8
Make2D$可见线$普通线
100
AcDbVertex
100
AcDb2dVertex
 10
572.2719959785117
 20
615.5354343076019
 30
0.0
  0
VERTEX
  5
256
330
163
100
AcDbEntity
  8
Make2D$可见线$普通线
100
AcDbVertex
100
AcDb2dVertex
 10
571.8991754182692
 20
615.2272461016737
 30
0.0
  0
VERTEX
  5
257
330
163
100
AcDbEntity
  8
Make2D$可见线$普通线
100
AcDbVertex
100
AcDb2dVertex
 10
571.519716750307
 20
614.9256649949816
 30
0.0
  0
VERTEX
  5
258
330
163
100
AcDbEntity
  8
Make2D$可见线$普通线
100
AcDbVertex
100
AcDb2dVertex
 10
571.1337944789367
 20
614.630899968586
 30
0.0
  0
VERTEX
  5
259
330
163
100
AcDbEntity
  8
Make2D$可见线$普通线
100
AcDbVertex
100
AcDb2dVertex
 10
570.7415917156487
 20
614.3431538837295
 30
0.0
  0
VERTEX
  5
25A
330
163
100
AcDbEntity
  8
Make2D$可见线$普通线
100
AcDbVertex
100
AcDb2dVertex
 10
570.3432999112225
 20
614.062623044991
 30
0.0
  0
VERTEX
  5
25B
330
163
100
AcDbEntity
  8
Make2D$可见线$普通线
100
AcDbVertex
100
AcDb2dVertex
 10
569.9391185615216
 20
613.789496777539
 30
0.0
  0
VERTEX
  5
25C
330
163
100
AcDbEntity
  8
Make2D$可见线$普通线
100
AcDbVertex
100
AcDb2dVertex
 10
569.5292548878394
 20
613.5239570203149
 30
0.0
  0
VERTEX
  5
25D
330
163
100
AcDbEntity
  8
Make2D$可见线$普通线
100
AcDbVertex
100
AcDb2dVertex
 10
569.1139234928146
 20
613.2661779369258
 30
0.0
  0
VERTEX
  5
25E
330
163
100
AcDbEntity
  8
Make2D$可见线$普通线
100
AcDbVertex
100
AcDb2dVertex
 10
568.6933459930717
 20
613.0163255459345
 30
0.0
  0
VERTEX
  5
25F
330
163
100
AcDbEntity
  8
Make2D$可见线$普通线
100
AcDbVertex
100
AcDb2dVertex
 10
568.2677506298768
 20
612.7745573721651
 30
0.0
  0
VERTEX
  5
260
330
163
100
AcDbEntity
  8
Make2D$可见线$普通线
100
AcDbVertex
100
AcDb2dVertex
 10
567.8373718592208
 20
612.5410221205304
 30
0.0
  0
VERTEX
  5
261
330
163
100
AcDbEntity
  8
Make2D$可见线$普通线
100
AcDbVertex
100
AcDb2dVertex
 10
567.4024499228706
 20
612.3158593737821
 30
0.0
  0
VERTEX
  5
262
330
163
100
AcDbEntity
  8
Make2D$可见线$普通线
100
AcDbVertex
100
AcDb2dVertex
 10
566.963230402023
 20
612.0991993154647
 30
0.0
  0
VERTEX
  5
263
330
163
100
AcDbEntity
  8
Make2D$可见线$普通线
100
AcDbVertex
100
AcDb2dVertex
 10
566.5199637553036
 20
611.8911624792239
 30
0.0
  0
VERTEX
  5
264
330
163
100
AcDbEntity
  8
Make2D$可见线$普通线
100
AcDbVertex
100
AcDb2dVertex
 10
566.0729048429333
 20
611.6918595254808
 30
0.0
  0
VERTEX
  5
265
330
163
100
AcDbEntity
  8
Make2D$可见线$普通线
100
AcDbVertex
100
AcDb2dVertex
 10
565.6223124389587
 20
611.5013910463424
 30
0.0
  0
VERTEX
  5
266
330
163
100
AcDbEntity
  8
Make2D$可见线$普通线
100
AcDbVertex
100
AcDb2dVertex
 10
565.1684487335064
 20
611.3198473994628
 30
0.0
  0
VERTEX
  5
267
330
163
100
AcDbEntity
  8
Make2D$可见线$普通线
100
AcDbVertex
100
AcDb2dVertex
 10
564.7115788270627
 20
611.1473085714196
 30
0.0
  0
VERTEX
  5
268
330
163
100
AcDbEntity
  8
Make2D$可见线$普通线
100
AcDbVertex
100
AcDb2dVertex
 10
564.251970218817
 20
610.9838440710097
 30
0.0
  0
VERTEX
  5
269
330
163
100
AcDbEntity
  8
Make2D$可见线$普通线
100
AcDbVertex
100
AcDb2dVertex
 10
563.7898922911243
 20
610.8295128527081
 30
0.0
  0
VERTEX
  5
26A
330
163
100
AcDbEntity
  8
Make2D$可见线$普通线
100
AcDbVertex
100
AcDb2dVertex
 10
563.3256157921495
 20
610.6843632703713
 30
0.0
  0
VERTEX
  5
26B
330
163
100
AcDbEntity
  8
Make2D$可见线$普通线
100
AcDbVertex
100
AcDb2dVertex
 10
562.8594123187435
 20
610.5484330611154
 30
0.0
  0
VERTEX
  5
26C
330
163
100
AcDbEntity
  8
Make2D$可见线$普通线
100
AcDbVertex
100
AcDb2dVertex
 10
562.3915538015818
 20
610.4217493591295
 30
0.0
  0
VERTEX
  5
26D
330
163
100
AcDbEntity
  8
Make2D$可见线$普通线
100
AcDbVertex
100
AcDb2dVertex
 10
561.9223119945589
 20
610.3043287390419
 30
0.0
  0
VERTEX
  5
26E
330
163
100
AcDbEntity
  8
Make2D$可见线$普通线
100
AcDbVertex
100
AcDb2dVertex
 10
561.4519579703815
 20
610.196177288301
 30
0.0
  0
VERTEX
  5
26F
330
163
100
AcDbEntity
  8
Make2D$可见线$普通线
100
AcDbVertex
100
AcDb2dVertex
 10
560.9807616242459
 20
610.097290707894
 30
0.0
  0
VERTEX
  5
270
330
163
100
AcDbEntity
  8
Make2D$可见线$普通线
100
AcDbVertex
100
AcDb2dVertex
 10
560.5089911874086
 20
610.0076544405889
 30
0.0
  0
VERTEX
  5
271
330
163
100
AcDbEntity
  8
Make2D$可见线$普通线
100
AcDbVertex
100
AcDb2dVertex
 10
560.0369127523771
 20
609.9272438257555
 30
0.0
 42
0.371638005362566
  0
VERTEX
  5
272
330
163
100
AcDbEntity
  8
Make2D$可见线$普通线
100
AcDbVertex
100
AcDb2dVertex
 10
556.5841111236359
 20
605.9593597234409
 30
0.0
  0
VERTEX
  5
273
330
163
100
AcDbEntity
  8
Make2D$可见线$普通线
100
AcDbVertex
100
AcDb2dVertex
 10
556.6053838846593
 20
590.461944290094
 30
0.0
  0
VERTEX
  5
274
330
163
100
AcDbEntity
  8
Make2D$可见线$普通线
100
AcDbVertex
100
AcDb2dVertex
 10
556.5057774596455
 20
553.3695916651886
 30
0.0
  0
VERTEX
  5
275
330
163
100
AcDbEntity
  8
Make2D$可见线$普通线
100
AcDbVertex
100
AcDb2dVertex
 10
556.5106458874623
 20
536.5698378265782
 30
0.0
  0
VERTEX
  5
276
330
163
100
AcDbEntity
  8
Make2D$可见线$普通线
100
AcDbVertex
100
AcDb2dVertex
 10
556.515370751092
 20
522.0159609320858
 30
0.0
  0
VERTEX
  5
277
330
163
100
AcDbEntity
  8
Make2D$可见线$普通线
100
AcDbVertex
100
AcDb2dVertex
 10
556.5159228632582
 20
520.6199610021604
 30
0.0
  0
VERTEX
  5
278
330
163
100
AcDbEntity
  8
Make2D$可见线$普通线
100
AcDbVertex
100
AcDb2dVertex
 10
556.5159230459931
 20
519.6199533675172
 30
0.0
  0
SEQEND
  5
279
330
163
100
AcDbEntity
  8
Make2D$可见线$普通线
  0
POLYLINE
  5
27B
330
1F
100
AcDbEntity
  8
E9106
100
AcDb2dPolyline
 66
     1
 10
0.0
 20
0.0
 30
0.0
  0
VERTEX
  5
27C
330
27B
100
AcDbEntity
  8
E9106
100
AcDbVertex
100
AcDb2dVertex
 10
552.2820776235146
 20
608.8956854860932
 30
0.0
 42
-0.3514167510197016
  0
VERTEX
  5
27D
330
27B
100
AcDbEntity
  8
E9106
100
AcDbVertex
100
AcDb2dVertex
 10
554.6648633546874
 20
605.9594692103989
 30
0.0
  0
VERTEX
  5
27E
330
27B
100
AcDbEntity
  8
E9106
100
AcDbVertex
100
AcDb2dVertex
 10
554.6461835366656
 20
590.4616414944409
 30
0.0
  0
VERTEX
  5
27F
330
27B
100
AcDbEntity
  8
E9106
100
AcDbVertex
100
AcDb2dVertex
 10
554.7343212780818
 20
553.3685554463979
 30
0.0
  0
VERTEX
  5
280
330
27B
100
AcDbEntity
  8
E9106
100
AcDbVertex
100
AcDb2dVertex
 10
554.7292859998529
 20
536.5702647056493
 30
0.0
  0
VERTEX
  5
281
330
27B
100
AcDbEntity
  8
E9106
100
AcDbVertex
100
AcDb2dVertex
 10
554.7245525095728
 20
522.0181278232479
 30
0.0
  0
VERTEX
  5
282
330
27B
100
AcDbEntity
  8
E9106
100
AcDbVertex
100
AcDb2dVertex
 10
554.7240026700613
 20
520.620188105928
 30
0.0
  0
VERTEX
  5
283
330
27B
100
AcDbEntity
  8
E9106
100
AcDbVertex
100
AcDb2dVertex
 10
554.7249792324085
 20
520.5586502265141
 30
0.0
  0
VERTEX
  5
284
330
27B
100
AcDbEntity
  8
E9106
100
AcDbVertex
100
AcDb2dVertex
 10
554.7279089194503
 20
520.4990659305736
 30
0.0
  0
VERTEX
  5
285
330
27B
100
AcDbEntity
  8
E9106
100
AcDbVertex
100
AcDb2dVertex
 10
554.7301061847315
 20
520.4700063764059
 30
0.0
  0
VERTEX
  5
286
330
27B
100
AcDbEntity
  8
E9106
100
AcDbVertex
100
AcDb2dVertex
 10
554.7327917311865
 20
520.4414352181066
 30
0.0
  0
VERTEX
  5
287
330
27B
100
AcDbEntity
  8
E9106
100
AcDbVertex
100
AcDb2dVertex
 10
554.735965558815
 20
520.4133524556756
 30
0.0
  0
VERTEX
  5
288
330
27B
100
AcDbEntity
  8
E9106
100
AcDbVertex
100
AcDb2dVertex
 10
554.7396276676172
 20
520.385758089113
 30
0.0
  0
VERTEX
  5
289
330
27B
100
AcDbEntity
  8
E9106
100
AcDbVertex
100
AcDb2dVertex
 10
554.7437780575931
 20
520.3586521184187
 30
0.0
  0
VERTEX
  5
28A
330
27B
100
AcDbEntity
  8
E9106
100
AcDbVertex
100
AcDb2dVertex
 10
554.7484167287425
 20
520.3320345435928
 30
0.0
  0
VERTEX
  5
28B
330
27B
100
AcDbEntity
  8
E9106
100
AcDbVertex
100
AcDb2dVertex
 10
554.7535436810656
 20
520.3059053646354
 30
0.0
  0
VERTEX
  5
28C
330
27B
100
AcDbEntity
  8
E9106
100
AcDbVertex
100
AcDb2dVertex
 10
554.7591589145622
 20
520.2802645815462
 30
0.0
  0
VERTEX
  5
28D
330
27B
100
AcDbEntity
  8
E9106
100
AcDbVertex
100
AcDb2dVertex
 10
554.7652624292325
 20
520.2551121943254
 30
0.0
  0
VERTEX
  5
28E
330
27B
100
AcDbEntity
  8
E9106
100
AcDbVertex
100
AcDb2dVertex
 10
554.7718542250764
 20
520.2304482029731
 30
0.0
  0
VERTEX
  5
28F
330
27B
100
AcDbEntity
  8
E9106
100
AcDbVertex
100
AcDb2dVertex
 10
554.778934302094
 20
520.2062726074889
 30
0.0
  0
VERTEX
  5
290
330
27B
100
AcDbEntity
  8
E9106
100
AcDbVertex
100
AcDb2dVertex
 10
554.7865026602851
 20
520.1825854078733
 30
0.0
  0
VERTEX
  5
291
330
27B
100
AcDbEntity
  8
E9106
100
AcDbVertex
100
AcDb2dVertex
 10
554.7945592996499
 20
520.159386604126
 30
0.0
  0
VERTEX
  5
292
330
27B
100
AcDbEntity
  8
E9106
100
AcDbVertex
100
AcDb2dVertex
 10
554.8031042201883
 20
520.136676196247
 30
0.0
  0
VERTEX
  5
293
330
27B
100
AcDbEntity
  8
E9106
100
AcDbVertex
100
AcDb2dVertex
 10
554.8121374219004
 20
520.1144541842364
 30
0.0
  0
VERTEX
  5
294
330
27B
100
AcDbEntity
  8
E9106
100
AcDbVertex
100
AcDb2dVertex
 10
554.8216589047861
 20
520.0927205680941
 30
0.0
  0
VERTEX
  5
295
330
27B
100
AcDbEntity
  8
E9106
100
AcDbVertex
100
AcDb2dVertex
 10
554.8316686688454
 20
520.0714753478203
 30
0.0
  0
VERTEX
  5
296
330
27B
100
AcDbEntity
  8
E9106
100
AcDbVertex
100
AcDb2dVertex
 10
554.8421667140783
 20
520.0507185234148
 30
0.0
  0
VERTEX
  5
297
330
27B
100
AcDbEntity
  8
E9106
100
AcDbVertex
100
AcDb2dVertex
 10
554.8531530404848
 20
520.0304500948777
 30
0.0
  0
VERTEX
  5
298
330
27B
100
AcDbEntity
  8
E9106
100
AcDbVertex
100
AcDb2dVertex
 10
554.864627648065
 20
520.0106700622089
 30
0.0
  0
VERTEX
  5
299
330
27B
100
AcDbEntity
  8
E9106
100
AcDbVertex
100
AcDb2dVertex
 10
554.8765905368189
 20
519.9913784254085
 30
0.0
  0
VERTEX
  5
29A
330
27B
100
AcDbEntity
  8
E9106
100
AcDbVertex
100
AcDb2dVertex
 10
554.8890417067463
 20
519.9725751844765
 30
0.0
  0
VERTEX
  5
29B
330
27B
100
AcDbEntity
  8
E9106
100
AcDbVertex
100
AcDb2dVertex
 10
554.9019811578473
 20
519.9542603394127
 30
0.0
  0
VERTEX
  5
29C
330
27B
100
AcDbEntity
  8
E9106
100
AcDbVertex
100
AcDb2dVertex
 10
554.915408890122
 20
519.9364338902174
 30
0.0
  0
VERTEX
  5
29D
330
27B
100
AcDbEntity
  8
E9106
100
AcDbVertex
100
AcDb2dVertex
 10
554.9293249035702
 20
519.9190958368905
 30
0.0
  0
VERTEX
  5
29E
330
27B
100
AcDbEntity
  8
E9106
100
AcDbVertex
100
AcDb2dVertex
 10
554.9437291981922
 20
519.9022461794319
 30
0.0
  0
VERTEX
  5
29F
330
27B
100
AcDbEntity
  8
E9106
100
AcDbVertex
100
AcDb2dVertex
 10
554.9586217739877
 20
519.8858849178416
 30
0.0
  0
VERTEX
  5
2A0
330
27B
100
AcDbEntity
  8
E9106
100
AcDbVertex
100
AcDb2dVertex
 10
554.9740026309569
 20
519.8700120521198
 30
0.0
  0
VERTEX
  5
2A1
330
27B
100
AcDbEntity
  8
E9106
100
AcDbVertex
100
AcDb2dVertex
 10
554.9898717690996
 20
519.8546275822663
 30
0.0
  0
VERTEX
  5
2A2
330
27B
100
AcDbEntity
  8
E9106
100
AcDbVertex
100
AcDb2dVertex
 10
555.006229188416
 20
519.8397315082811
 30
0.0
  0
VERTEX
  5
2A3
330
27B
100
AcDbEntity
  8
E9106
100
AcDbVertex
100
AcDb2dVertex
 10
555.0230748889061
 20
519.8253238301644
 30
0.0
  0
VERTEX
  5
2A4
330
27B
100
AcDbEntity
  8
E9106
100
AcDbVertex
100
AcDb2dVertex
 10
555.0404088705698
 20
519.811404547916
 30
0.0
  0
VERTEX
  5
2A5
330
27B
100
AcDbEntity
  8
E9106
100
AcDbVertex
100
AcDb2dVertex
 10
555.058231133407
 20
519.797973661536
 30
0.0
  0
VERTEX
  5
2A6
330
27B
100
AcDbEntity
  8
E9106
100
AcDbVertex
100
AcDb2dVertex
 10
555.0765416774179
 20
519.7850311710245
 30
0.0
  0
VERTEX
  5
2A7
330
27B
100
AcDbEntity
  8
E9106
100
AcDbVertex
100
AcDb2dVertex
 10
555.0953405026025
 20
519.7725770763811
 30
0.0
  0
VERTEX
  5
2A8
330
27B
100
AcDbEntity
  8
E9106
100
AcDbVertex
100
AcDb2dVertex
 10
555.1146276089606
 20
519.7606113776062
 30
0.0
  0
VERTEX
  5
2A9
330
27B
100
AcDbEntity
  8
E9106
100
AcDbVertex
100
AcDb2dVertex
 10
555.1344029964923
 20
519.7491340746997
 30
0.0
  0
VERTEX
  5
2AA
330
27B
100
AcDbEntity
  8
E9106
100
AcDbVertex
100
AcDb2dVertex
 10
555.1546666651977
 20
519.7381451676615
 30
0.0
  0
VERTEX
  5
2AB
330
27B
100
AcDbEntity
  8
E9106
100
AcDbVertex
100
AcDb2dVertex
 10
555.1754186150768
 20
519.7276446564916
 30
0.0
  0
VERTEX
  5
2AC
330
27B
100
AcDbEntity
  8
E9106
100
AcDbVertex
100
AcDb2dVertex
 10
555.1966588461295
 20
519.7176325411901
 30
0.0
  0
VERTEX
  5
2AD
330
27B
100
AcDbEntity
  8
E9106
100
AcDbVertex
100
AcDb2dVertex
 10
555.2183873583558
 20
519.708108821757
 30
0.0
  0
VERTEX
  5
2AE
330
27B
100
AcDbEntity
  8
E9106
100
AcDbVertex
100
AcDb2dVertex
 10
555.2406041517556
 20
519.6990734981923
 30
0.0
  0
VERTEX
  5
2AF
330
27B
100
AcDbEntity
  8
E9106
100
AcDbVertex
100
AcDb2dVertex
 10
555.2633092263292
 20
519.6905265704959
 30
0.0
  0
VERTEX
  5
2B0
330
27B
100
AcDbEntity
  8
E9106
100
AcDbVertex
100
AcDb2dVertex
 10
555.2865025820763
 20
519.6824680386678
 30
0.0
  0
VERTEX
  5
2B1
330
27B
100
AcDbEntity
  8
E9106
100
AcDbVertex
100
AcDb2dVertex
 10
555.310184218997
 20
519.6748979027082
 30
0.0
  0
VERTEX
  5
2B2
330
27B
100
AcDbEntity
  8
E9106
100
AcDbVertex
100
AcDb2dVertex
 10
555.3343541370914
 20
519.6678161626169
 30
0.0
  0
VERTEX
  5
2B3
330
27B
100
AcDbEntity
  8
E9106
100
AcDbVertex
100
AcDb2dVertex
 10
555.3590123363595
 20
519.661222818394
 30
0.0
  0
VERTEX
  5
2B4
330
27B
100
AcDbEntity
  8
E9106
100
AcDbVertex
100
AcDb2dVertex
 10
555.3841588168011
 20
519.6551178700394
 30
0.0
  0
VERTEX
  5
2B5
330
27B
100
AcDbEntity
  8
E9106
100
AcDbVertex
100
AcDb2dVertex
 10
555.4097935784164
 20
519.6495013175531
 30
0.0
  0
VERTEX
  5
2B6
330
27B
100
AcDbEntity
  8
E9106
100
AcDbVertex
100
AcDb2dVertex
 10
555.4359166212053
 20
519.6443731609354
 30
0.0
  0
VERTEX
  5
2B7
330
27B
100
AcDbEntity
  8
E9106
100
AcDbVertex
100
AcDb2dVertex
 10
555.4625279451677
 20
519.639733400186
 30
0.0
  0
VERTEX
  5
2B8
330
27B
100
AcDbEntity
  8
E9106
100
AcDbVertex
100
AcDb2dVertex
 10
555.4896275503039
 20
519.6355820353049
 30
0.0
  0
VERTEX
  5
2B9
330
27B
100
AcDbEntity
  8
E9106
100
AcDbVertex
100
AcDb2dVertex
 10
555.5172154366137
 20
519.6319190662921
 30
0.0
  0
VERTEX
  5
2BA
330
27B
100
AcDbEntity
  8
E9106
100
AcDbVertex
100
AcDb2dVertex
 10
555.5452916040971
 20
519.6287444931478
 30
0.0
  0
VERTEX
  5
2BB
330
27B
100
AcDbEntity
  8
E9106
100
AcDbVertex
100
AcDb2dVertex
 10
555.5738560527541
 20
519.6260583158718
 30
0.0
  0
VERTEX
  5
2BC
330
27B
100
AcDbEntity
  8
E9106
100
AcDbVertex
100
AcDb2dVertex
 10
555.6029087825847
 20
519.623860534464
 30
0.0
  0
VERTEX
  5
2BD
330
27B
100
AcDbEntity
  8
E9106
100
AcDbVertex
100
AcDb2dVertex
 10
555.6624790857668
 20
519.6209301592539
 30
0.0
  0
VERTEX
  5
2BE
330
27B
100
AcDbEntity
  8
E9106
100
AcDbVertex
100
AcDb2dVertex
 10
555.7240025136434
 20
519.6199533675172
 30
0.0
  0
VERTEX
  5
2BF
330
27B
100
AcDbEntity
  8
E9106
100
AcDbVertex
100
AcDb2dVertex
 10
556.5159230459931
 20
519.6199533675172
 30
0.0
  0
VERTEX
  5
2C0
330
27B
100
AcDbEntity
  8
E9106
100
AcDbVertex
100
AcDb2dVertex
 10
556.5774464594342
 20
519.6209301592539
 30
0.0
  0
VERTEX
  5
2C1
330
27B
100
AcDbEntity
  8
E9106
100
AcDbVertex
100
AcDb2dVertex
 10
556.6370167491121
 20
519.623860534464
 30
0.0
  0
VERTEX
  5
2C2
330
27B
100
AcDbEntity
  8
E9106
100
AcDbVertex
100
AcDb2dVertex
 10
556.6660694725399
 20
519.6260583158717
 30
0.0
  0
VERTEX
  5
2C3
330
27B
100
AcDbEntity
  8
E9106
100
AcDbVertex
100
AcDb2dVertex
 10
556.6946339150269
 20
519.6287444931477
 30
0.0
  0
VERTEX
  5
2C4
330
27B
100
AcDbEntity
  8
E9106
100
AcDbVertex
100
AcDb2dVertex
 10
556.7227100765731
 20
519.6319190662921
 30
0.0
  0
VERTEX
  5
2C5
330
27B
100
AcDbEntity
  8
E9106
100
AcDbVertex
100
AcDb2dVertex
 10
556.7502979571785
 20
519.6355820353048
 30
0.0
  0
VERTEX
  5
2C6
330
27B
100
AcDbEntity
  8
E9106
100
AcDbVertex
100
AcDb2dVertex
 10
556.7773975568432
 20
519.6397334001858
 30
0.0
  0
VERTEX
  5
2C7
330
27B
100
AcDbEntity
  8
E9106
100
AcDbVertex
100
AcDb2dVertex
 10
556.804008875567
 20
519.6443731609354
 30
0.0
  0
VERTEX
  5
2C8
330
27B
100
AcDbEntity
  8
E9106
100
AcDbVertex
100
AcDb2dVertex
 10
556.83013191335
 20
519.6495013175531
 30
0.0
  0
VERTEX
  5
2C9
330
27B
100
AcDbEntity
  8
E9106
100
AcDbVertex
100
AcDb2dVertex
 10
556.8557666701922
 20
519.6551178700392
 30
0.0
  0
VERTEX
  5
2CA
330
27B
100
AcDbEntity
  8
E9106
100
AcDbVertex
100
AcDb2dVertex
 10
556.8809131460937
 20
519.6612228183938
 30
0.0
  0
VERTEX
  5
2CB
330
27B
100
AcDbEntity
  8
E9106
100
AcDbVertex
100
AcDb2dVertex
 10
556.9055713410544
 20
519.6678161626168
 30
0.0
  0
VERTEX
  5
2CC
330
27B
100
AcDbEntity
  8
E9106
100
AcDbVertex
100
AcDb2dVertex
 10
556.9297412550742
 20
519.674897902708
 30
0.0
  0
VERTEX
  5
2CD
330
27B
100
AcDbEntity
  8
E9106
100
AcDbVertex
100
AcDb2dVertex
 10
556.9534228881532
 20
519.6824680386676
 30
0.0
  0
VERTEX
  5
2CE
330
27B
100
AcDbEntity
  8
E9106
100
AcDbVertex
100
AcDb2dVertex
 10
556.9766162402915
 20
519.6905265704955
 30
0.0
  0
VERTEX
  5
2CF
330
27B
100
AcDbEntity
  8
E9106
100
AcDbVertex
100
AcDb2dVertex
 10
556.999321311489
 20
519.6990734981919
 30
0.0
  0
VERTEX
  5
2D0
330
27B
100
AcDbEntity
  8
E9106
100
AcDbVertex
100
AcDb2dVertex
 10
557.0215381017456
 20
519.7081088217566
 30
0.0
  0
VERTEX
  5
2D1
330
27B
100
AcDbEntity
  8
E9106
100
AcDbVertex
100
AcDb2dVertex
 10
557.0432666110615
 20
519.7176325411897
 30
0.0
  0
VERTEX
  5
2D2
330
27B
100
AcDbEntity
  8
E9106
100
AcDbVertex
100
AcDb2dVertex
 10
557.0645068394367
 20
519.7276446564912
 30
0.0
  0
VERTEX
  5
2D3
330
27B
100
AcDbEntity
  8
E9106
100
AcDbVertex
100
AcDb2dVertex
 10
557.085258786871
 20
519.7381451676611
 30
0.0
  0
VERTEX
  5
2D4
330
27B
100
AcDbEntity
  8
E9106
100
AcDbVertex
100
AcDb2dVertex
 10
557.1055224533645
 20
519.7491340746992
 30
0.0
  0
VERTEX
  5
2D5
330
27B
100
AcDbEntity
  8
E9106
100
AcDbVertex
100
AcDb2dVertex
 10
557.1252978389172
 20
519.7606113776058
 30
0.0
  0
VERTEX
  5
2D6
330
27B
100
AcDbEntity
  8
E9106
100
AcDbVertex
100
AcDb2dVertex
 10
557.144584943529
 20
519.7725770763807
 30
0.0
  0
VERTEX
  5
2D7
330
27B
100
AcDbEntity
  8
E9106
100
AcDbVertex
100
AcDb2dVertex
 10
557.1633837672002
 20
519.785031171024
 30
0.0
  0
VERTEX
  5
2D8
330
27B
100
AcDbEntity
  8
E9106
100
AcDbVertex
100
AcDb2dVertex
 10
557.1816943099305
 20
519.7979736615356
 30
0.0
  0
VERTEX
  5
2D9
330
27B
100
AcDbEntity
  8
E9106
100
AcDbVertex
100
AcDb2dVertex
 10
557.1995165717201
 20
519.8114045479156
 30
0.0
  0
VERTEX
  5
2DA
330
27B
100
AcDbEntity
  8
E9106
100
AcDbVertex
100
AcDb2dVertex
 10
557.2168505525689
 20
519.8253238301639
 30
0.0
  0
VERTEX
  5
2DB
330
27B
100
AcDbEntity
  8
E9106
100
AcDbVertex
100
AcDb2dVertex
 10
557.2336962524769
 20
519.8397315082807
 30
0.0
  0
VERTEX
  5
2DC
330
27B
100
AcDbEntity
  8
E9106
100
AcDbVertex
100
AcDb2dVertex
 10
557.250053671444
 20
519.8546275822657
 30
0.0
  0
VERTEX
  5
2DD
330
27B
100
AcDbEntity
  8
E9106
100
AcDbVertex
100
AcDb2dVertex
 10
557.2659228094703
 20
519.8700120521191
 30
0.0
  0
VERTEX
  5
2DE
330
27B
100
AcDbEntity
  8
E9106
100
AcDbVertex
100
AcDb2dVertex
 10
557.2813036665559
 20
519.8858849178409
 30
0.0
  0
VERTEX
  5
2DF
330
27B
100
AcDbEntity
  8
E9106
100
AcDbVertex
100
AcDb2dVertex
 10
557.2961962427007
 20
519.9022461794311
 30
0.0
  0
VERTEX
  5
2E0
330
27B
100
AcDbEntity
  8
E9106
100
AcDbVertex
100
AcDb2dVertex
 10
557.3106005379046
 20
519.9190958368896
 30
0.0
  0
VERTEX
  5
2E1
330
27B
100
AcDbEntity
  8
E9106
100
AcDbVertex
100
AcDb2dVertex
 10
557.3245165521678
 20
519.9364338902164
 30
0.0
  0
VERTEX
  5
2E2
330
27B
100
AcDbEntity
  8
E9106
100
AcDbVertex
100
AcDb2dVertex
 10
557.3379442854903
 20
519.9542603394117
 30
0.0
  0
VERTEX
  5
2E3
330
27B
100
AcDbEntity
  8
E9106
100
AcDbVertex
100
AcDb2dVertex
 10
557.3508837378719
 20
519.9725751844753
 30
0.0
  0
VERTEX
  5
2E4
330
27B
100
AcDbEntity
  8
E9106
100
AcDbVertex
100
AcDb2dVertex
 10
557.3633349093127
 20
519.9913784254073
 30
0.0
  0
VERTEX
  5
2E5
330
27B
100
AcDbEntity
  8
E9106
100
AcDbVertex
100
AcDb2dVertex
 10
557.3752977998126
 20
520.0106700622077
 30
0.0
  0
VERTEX
  5
2E6
330
27B
100
AcDbEntity
  8
E9106
100
AcDbVertex
100
AcDb2dVertex
 10
557.3867724093718
 20
520.0304500948765
 30
0.0
  0
VERTEX
  5
2E7
330
27B
100
AcDbEntity
  8
E9106
100
AcDbVertex
100
AcDb2dVertex
 10
557.3977587379902
 20
520.0507185234136
 30
0.0
  0
VERTEX
  5
2E8
330
27B
100
AcDbEntity
  8
E9106
100
AcDbVertex
100
AcDb2dVertex
 10
557.4082567856678
 20
520.0714753478189
 30
0.0
  0
VERTEX
  5
2E9
330
27B
100
AcDbEntity
  8
E9106
100
AcDbVertex
100
AcDb2dVertex
 10
557.4182665524047
 20
520.0927205680928
 30
0.0
  0
VERTEX
  5
2EA
330
27B
100
AcDbEntity
  8
E9106
100
AcDbVertex
100
AcDb2dVertex
 10
557.4277880382008
 20
520.1144541842349
 30
0.0
  0
VERTEX
  5
2EB
330
27B
100
AcDbEntity
  8
E9106
100
AcDbVertex
100
AcDb2dVertex
 10
557.4368212430561
 20
520.1366761962454
 30
0.0
  0
VERTEX
  5
2EC
330
27B
100
AcDbEntity
  8
E9106
100
AcDbVertex
100
AcDb2dVertex
 10
557.4453661669705
 20
520.1593866041243
 30
0.0
  0
VERTEX
  5
2ED
330
27B
100
AcDbEntity
  8
E9106
100
AcDbVertex
100
AcDb2dVertex
 10
557.4534228099442
 20
520.1825854078716
 30
0.0
  0
VERTEX
  5
2EE
330
27B
100
AcDbEntity
  8
E9106
100
AcDbVertex
100
AcDb2dVertex
 10
557.4609911719771
 20
520.2062726074872
 30
0.0
  0
VERTEX
  5
2EF
330
27B
100
AcDbEntity
  8
E9106
100
AcDbVertex
100
AcDb2dVertex
 10
557.4680712530692
 20
520.2304482029713
 30
0.0
  0
VERTEX
  5
2F0
330
27B
100
AcDbEntity
  8
E9106
100
AcDbVertex
100
AcDb2dVertex
 10
557.4746630532204
 20
520.2551121943236
 30
0.0
  0
VERTEX
  5
2F1
330
27B
100
AcDbEntity
  8
E9106
100
AcDbVertex
100
AcDb2dVertex
 10
557.4807665724309
 20
520.2802645815443
 30
0.0
  0
VERTEX
  5
2F2
330
27B
100
AcDbEntity
  8
E9106
100
AcDbVertex
100
AcDb2dVertex
 10
557.4863818107005
 20
520.3059053646333
 30
0.0
  0
VERTEX
  5
2F3
330
27B
100
AcDbEntity
  8
E9106
100
AcDbVertex
100
AcDb2dVertex
 10
557.4915087680295
 20
520.3320345435907
 30
0.0
  0
VERTEX
  5
2F4
330
27B
100
AcDbEntity
  8
E9106
100
AcDbVertex
100
AcDb2dVertex
 10
557.4961474444176
 20
520.3586521184166
 30
0.0
  0
VERTEX
  5
2F5
330
27B
100
AcDbEntity
  8
E9106
100
AcDbVertex
100
AcDb2dVertex
 10
557.500297839865
 20
520.3857580891107
 30
0.0
  0
VERTEX
  5
2F6
330
27B
100
AcDbEntity
  8
E9106
100
AcDbVertex
100
AcDb2dVertex
 10
557.5039599543716
 20
520.4133524556732
 30
0.0
  0
VERTEX
  5
2F7
330
27B
100
AcDbEntity
  8
E9106
100
AcDbVertex
100
AcDb2dVertex
 10
557.5071337879374
 20
520.4414352181041
 30
0.0
  0
VERTEX
  5
2F8
330
27B
100
AcDbEntity
  8
E9106
100
AcDbVertex
100
AcDb2dVertex
 10
557.5098193405623
 20
520.4700063764034
 30
0.0
  0
VERTEX
  5
2F9
330
27B
100
AcDbEntity
  8
E9106
100
AcDbVertex
100
AcDb2dVertex
 10
557.5120166122465
 20
520.4990659305711
 30
0.0
  0
VERTEX
  5
2FA
330
27B
100
AcDbEntity
  8
E9106
100
AcDbVertex
100
AcDb2dVertex
 10
557.5149463127923
 20
520.5586502265114
 30
0.0
  0
VERTEX
  5
2FB
330
27B
100
AcDbEntity
  8
E9106
100
AcDbVertex
100
AcDb2dVertex
 10
557.5159228895751
 20
520.6201881059251
 30
0.0
  0
VERTEX
  5
2FC
330
27B
100
AcDbEntity
  8
E9106
100
AcDbVertex
100
AcDb2dVertex
 10
557.5153702788459
 20
522.0156724685313
 30
0.0
  0
SEQEND
  5
2FD
330
27B
100
AcDbEntity
  8
E9106
  0
POLYLINE
  5
2FE
330
1F
100
AcDbEntity
  8
Make2D$可见线$普通线
100
AcDb2dPolyline
 66
     1
 10
0.0
 20
0.0
 30
0.0
  0
VERTEX
  5
2FF
330
2FE
100
AcDbEntity
  8
Make2D$可见线$普通线
100
AcDbVertex
100
AcDb2dVertex
 10
421.2211514374949
 20
623.767067627627
 30
0.0
  0
VERTEX
  5
300
330
2FE
100
AcDbEntity
  8
Make2D$可见线$普通线
100
AcDbVertex
100
AcDb2dVertex
 10
421.2287572202566
 20
623.7580306094038
 30
0.0
  0
VERTEX
  5
301
330
2FE
100
AcDbEntity
  8
Make2D$可见线$普通线
100
AcDbVertex
100
AcDb2dVertex
 10
421.2366505534045
 20
623.7489849648501
 30
0.0
  0
VERTEX
  5
302
330
2FE
100
AcDbEntity
  8
Make2D$可见线$普通线
100
AcDbVertex
100
AcDb2dVertex
 10
421.2533043814387
 20
623.7308692940004
 30
0.0
  0
VERTEX
  5
303
330
2FE
100
AcDbEntity
  8
Make2D$可见线$普通线
100
AcDbVertex
100
AcDb2dVertex
 10
421.2711217516432
 20
623.7127236429072
 30
0.0
  0
VERTEX
  5
304
330
2FE
100
AcDbEntity
  8
Make2D$可见线$普通线
100
AcDbVertex
100
AcDb2dVertex
 10
421.2901111807944
 20
623.6945510920482
 30
0.0
  0
VERTEX
  5
305
330
2FE
100
AcDbEntity
  8
Make2D$可见线$普通线
100
AcDbVertex
100
AcDb2dVertex
 10
421.3102808617543
 20
623.676354773524
 30
0.0
  0
VERTEX
  5
306
330
2FE
100
AcDbEntity
  8
Make2D$可见线$普通线
100
AcDbVertex
100
AcDb2dVertex
 10
421.3316386529136
 20
623.6581378699619
 30
0.0
  0
VERTEX
  5
307
330
2FE
100
AcDbEntity
  8
Make2D$可见线$普通线
100
AcDbVertex
100
AcDb2dVertex
 10
421.3541920677385
 20
623.6399036133513
 30
0.0
  0
VERTEX
  5
308
330
2FE
100
AcDbEntity
  8
Make2D$可见线$普通线
100
AcDbVertex
100
AcDb2dVertex
 10
421.3779482644385
 20
623.6216552838091
 30
0.0
  0
VERTEX
  5
309
330
2FE
100
AcDbEntity
  8
Make2D$可见线$普通线
100
AcDbVertex
100
AcDb2dVertex
 10
421.4029140357704
 20
623.6033962082752
 30
0.0
  0
VERTEX
  5
30A
330
2FE
100
AcDbEntity
  8
Make2D$可见线$普通线
100
AcDbVertex
100
AcDb2dVertex
 10
421.4290957989955
 20
623.5851297591398
 30
0.0
  0
VERTEX
  5
30B
330
2FE
100
AcDbEntity
  8
Make2D$可见线$普通线
100
AcDbVertex
100
AcDb2dVertex
 10
421.4564995860077
 20
623.5668593528005
 30
0.0
  0
VERTEX
  5
30C
330
2FE
100
AcDbEntity
  8
Make2D$可见线$普通线
100
AcDbVertex
100
AcDb2dVertex
 10
421.4851310336477
 20
623.5485884481517
 30
0.0
  0
VERTEX
  5
30D
330
2FE
100
AcDbEntity
  8
Make2D$可见线$普通线
100
AcDbVertex
100
AcDb2dVertex
 10
421.5149953742232
 20
623.5303205450053
 30
0.0
  0
VERTEX
  5
30E
330
2FE
100
AcDbEntity
  8
Make2D$可见线$普通线
100
AcDbVertex
100
AcDb2dVertex
 10
421.5460974262471
 20
623.5120591824447
 30
0.0
  0
VERTEX
  5
30F
330
2FE
100
AcDbEntity
  8
Make2D$可见线$普通线
100
AcDbVertex
100
AcDb2dVertex
 10
421.6120318158468
 20
623.475570421427
 30
0.0
  0
VERTEX
  5
310
330
2FE
100
AcDbEntity
  8
Make2D$可见线$普通线
100
AcDbVertex
100
AcDb2dVertex
 10
421.6829641383518
 20
623.4391511964758
 30
0.0
  0
VERTEX
  5
311
330
2FE
100
AcDbEntity
  8
Make2D$可见线$普通线
100
AcDbVertex
100
AcDb2dVertex
 10
421.7589171595762
 20
623.4028310509846
 30
0.0
  0
VERTEX
  5
312
330
2FE
100
AcDbEntity
  8
Make2D$可见线$普通线
100
AcDbVertex
100
AcDb2dVertex
 10
421.8399062278402
 20
623.3666399764676
 30
0.0
  0
VERTEX
  5
313
330
2FE
100
AcDbEntity
  8
Make2D$可见线$普通线
100
AcDbVertex
100
AcDb2dVertex
 10
421.9259390481964
 20
623.330608344934
 30
0.0
  0
VERTEX
  5
314
330
2FE
100
AcDbEntity
  8
Make2D$可见线$普通线
100
AcDbVertex
100
AcDb2dVertex
 10
422.0170154802963
 20
623.2947668377681
 30
0.0
  0
VERTEX
  5
315
330
2FE
100
AcDbEntity
  8
Make2D$可见线$普通线
100
AcDbVertex
100
AcDb2dVertex
 10
422.1131273618082
 20
623.2591463713994
 30
0.0
  0
VERTEX
  5
316
330
2FE
100
AcDbEntity
  8
Make2D$可见线$普通线
100
AcDbVertex
100
AcDb2dVertex
 10
422.3203838474627
 20
623.1886929360882
 30
0.0
  0
VERTEX
  5
317
330
2FE
100
AcDbEntity
  8
Make2D$可见线$普通线
100
AcDbVertex
100
AcDb2dVertex
 10
422.5474778330626
 20
623.1194970759682
 30
0.0
  0
VERTEX
  5
318
330
2FE
100
AcDbEntity
  8
Make2D$可见线$普通线
100
AcDbVertex
100
AcDb2dVertex
 10
422.7940438844377
 20
623.0518064150938
 30
0.0
  0
VERTEX
  5
319
330
2FE
100
AcDbEntity
  8
Make2D$可见线$普通线
100
AcDbVertex
100
AcDb2dVertex
 10
423.0595815586483
 20
622.9858644357146
 30
0.0
  0
VERTEX
  5
31A
330
2FE
100
AcDbEntity
  8
Make2D$可见线$普通线
100
AcDbVertex
100
AcDb2dVertex
 10
423.3434573510814
 20
622.9219077232694
 30
0.0
  0
VERTEX
  5
31B
330
2FE
100
AcDbEntity
  8
Make2D$可见线$普通线
100
AcDbVertex
100
AcDb2dVertex
 10
423.6449088714485
 20
622.8601632473517
 30
0.0
  0
VERTEX
  5
31C
330
2FE
100
AcDbEntity
  8
Make2D$可见线$普通线
100
AcDbVertex
100
AcDb2dVertex
 10
423.9630512170482
 20
622.8008457419475
 30
0.0
  0
VERTEX
  5
31D
330
2FE
100
AcDbEntity
  8
Make2D$可见线$普通线
100
AcDbVertex
100
AcDb2dVertex
 10
424.6453089687112
 20
622.6902748697431
 30
0.0
  0
VERTEX
  5
31E
330
2FE
100
AcDbEntity
  8
Make2D$可见线$普通线
100
AcDbVertex
100
AcDb2dVertex
 10
425.3810694735853
 20
622.5915807494893
 30
0.0
  0
VERTEX
  5
31F
330
2FE
100
AcDbEntity
  8
Make2D$可见线$普通线
100
AcDbVertex
100
AcDb2dVertex
 10
426.1599325566098
 20
622.505823020321
 30
0.0
  0
VERTEX
  5
320
330
2FE
100
AcDbEntity
  8
Make2D$可见线$普通线
100
AcDbVertex
100
AcDb2dVertex
 10
426.9707341458786
 20
622.4336999871008
 30
0.0
  0
VERTEX
  5
321
330
2FE
100
AcDbEntity
  8
Make2D$可见线$普通线
100
AcDbVertex
100
AcDb2dVertex
 10
427.8020468378209
 20
622.375537412979
 30
0.0
  0
VERTEX
  5
322
330
2FE
100
AcDbEntity
  8
Make2D$可见线$普通线
100
AcDbVertex
100
AcDb2dVertex
 10
428.6426615230804
 20
622.3313007666592
 30
0.0
  0
VERTEX
  5
323
330
2FE
100
AcDbEntity
  8
Make2D$可见线$普通线
100
AcDbVertex
100
AcDb2dVertex
 10
429.482011838917
 20
622.300627719273
 30
0.0
  0
VERTEX
  5
324
330
2FE
100
AcDbEntity
  8
Make2D$可见线$普通线
100
AcDbVertex
100
AcDb2dVertex
 10
430.3105139143138
 20
622.2828758881592
 30
0.0
  0
VERTEX
  5
325
330
2FE
100
AcDbEntity
  8
Make2D$可见线$普通线
100
AcDbVertex
100
AcDb2dVertex
 10
431.1198066981361
 20
622.2771799609407
 30
0.0
  0
VERTEX
  5
326
330
2FE
100
AcDbEntity
  8
Make2D$可见线$普通线
100
AcDbVertex
100
AcDb2dVertex
 10
431.9290994819598
 20
622.2828758881593
 30
0.0
  0
VERTEX
  5
327
330
2FE
100
AcDbEntity
  8
Make2D$可见线$普通线
100
AcDbVertex
100
AcDb2dVertex
 10
432.7576015573582
 20
622.3006277192733
 30
0.0
  0
VERTEX
  5
328
330
2FE
100
AcDbEntity
  8
Make2D$可见线$普通线
100
AcDbVertex
100
AcDb2dVertex
 10
433.5969518731967
 20
622.3313007666596
 30
0.0
  0
VERTEX
  5
329
330
2FE
100
AcDbEntity
  8
Make2D$可见线$普通线
100
AcDbVertex
100
AcDb2dVertex
 10
434.4375665584582
 20
622.3755374129797
 30
0.0
  0
VERTEX
  5
32A
330
2FE
100
AcDbEntity
  8
Make2D$可见线$普通线
100
AcDbVertex
100
AcDb2dVertex
 10
435.2688792504026
 20
622.4336999871014
 30
0.0
  0
VERTEX
  5
32B
330
2FE
100
AcDbEntity
  8
Make2D$可见线$普通线
100
AcDbVertex
100
AcDb2dVertex
 10
436.0796808396735
 20
622.505823020322
 30
0.0
  0
VERTEX
  5
32C
330
2FE
100
AcDbEntity
  8
Make2D$可见线$普通线
100
AcDbVertex
100
AcDb2dVertex
 10
436.8585439226999
 20
622.5915807494904
 30
0.0
  0
VERTEX
  5
32D
330
2FE
100
AcDbEntity
  8
Make2D$可见线$普通线
100
AcDbVertex
100
AcDb2dVertex
 10
437.594304427576
 20
622.6902748697445
 30
0.0
  0
VERTEX
  5
32E
330
2FE
100
AcDbEntity
  8
Make2D$可见线$普通线
100
AcDbVertex
100
AcDb2dVertex
 10
438.2765621792407
 20
622.800845741949
 30
0.0
  0
VERTEX
  5
32F
330
2FE
100
AcDbEntity
  8
Make2D$可见线$普通线
100
AcDbVertex
100
AcDb2dVertex
 10
438.5947045248412
 20
622.8601632473534
 30
0.0
  0
VERTEX
  5
330
330
2FE
100
AcDbEntity
  8
Make2D$可见线$普通线
100
AcDbVertex
100
AcDb2dVertex
 10
438.896156045209
 20
622.9219077232714
 30
0.0
  0
VERTEX
  5
331
330
2FE
100
AcDbEntity
  8
Make2D$可见线$普通线
100
AcDbVertex
100
AcDb2dVertex
 10
439.1800318376428
 20
622.985864435717
 30
0.0
  0
VERTEX
  5
332
330
2FE
100
AcDbEntity
  8
Make2D$可见线$普通线
100
AcDbVertex
100
AcDb2dVertex
 10
439.445569511854
 20
623.051806415096
 30
0.0
  0
VERTEX
  5
333
330
2FE
100
AcDbEntity
  8
Make2D$可见线$普通线
100
AcDbVertex
100
AcDb2dVertex
 10
439.6921355632298
 20
623.1194970759707
 30
0.0
  0
VERTEX
  5
334
330
2FE
100
AcDbEntity
  8
Make2D$可见线$普通线
100
AcDbVertex
100
AcDb2dVertex
 10
439.9192295488302
 20
623.188692936091
 30
0.0
  0
VERTEX
  5
335
330
2FE
100
AcDbEntity
  8
Make2D$可见线$普通线
100
AcDbVertex
100
AcDb2dVertex
 10
440.1264860344851
 20
623.2591463714023
 30
0.0
  0
VERTEX
  5
336
330
2FE
100
AcDbEntity
  8
Make2D$可见线$普通线
100
AcDbVertex
100
AcDb2dVertex
 10
440.2225979159973
 20
623.294766837771
 30
0.0
  0
VERTEX
  5
337
330
2FE
100
AcDbEntity
  8
Make2D$可见线$普通线
100
AcDbVertex
100
AcDb2dVertex
 10
440.3136743480972
 20
623.3306083449371
 30
0.0
  0
VERTEX
  5
338
330
2FE
100
AcDbEntity
  8
Make2D$可见线$普通线
100
AcDbVertex
100
AcDb2dVertex
 10
440.3997071684538
 20
623.3666399764708
 30
0.0
  0
VERTEX
  5
339
330
2FE
100
AcDbEntity
  8
Make2D$可见线$普通线
100
AcDbVertex
100
AcDb2dVertex
 10
440.4806962367177
 20
623.4028310509875
 30
0.0
  0
VERTEX
  5
33A
330
2FE
100
AcDbEntity
  8
Make2D$可见线$普通线
100
AcDbVertex
100
AcDb2dVertex
 10
440.5566492579422
 20
623.4391511964793
 30
0.0
  0
VERTEX
  5
33B
330
2FE
100
AcDbEntity
  8
Make2D$可见线$普通线
100
AcDbVertex
100
AcDb2dVertex
 10
440.6275815804474
 20
623.4755704214305
 30
0.0
  0
VERTEX
  5
33C
330
2FE
100
AcDbEntity
  8
Make2D$可见线$普通线
100
AcDbVertex
100
AcDb2dVertex
 10
440.6935159700473
 20
623.5120591824482
 30
0.0
  0
VERTEX
  5
33D
330
2FE
100
AcDbEntity
  8
Make2D$可见线$普通线
100
AcDbVertex
100
AcDb2dVertex
 10
440.7246180220713
 20
623.530320545009
 30
0.0
  0
VERTEX
  5
33E
330
2FE
100
AcDbEntity
  8
Make2D$可见线$普通线
100
AcDbVertex
100
AcDb2dVertex
 10
440.7544823626467
 20
623.5485884481553
 30
0.0
  0
VERTEX
  5
33F
330
2FE
100
AcDbEntity
  8
Make2D$可见线$普通线
100
AcDbVertex
100
AcDb2dVertex
 10
440.783113810287
 20
623.5668593528042
 30
0.0
  0
VERTEX
  5
340
330
2FE
100
AcDbEntity
  8
Make2D$可见线$普通线
100
AcDbVertex
100
AcDb2dVertex
 10
440.8105175972991
 20
623.5851297591435
 30
0.0
  0
VERTEX
  5
341
330
2FE
100
AcDbEntity
  8
Make2D$可见线$普通线
100
AcDbVertex
100
AcDb2dVertex
 10
440.8366993605241
 20
623.6033962082789
 30
0.0
  0
VERTEX
  5
342
330
2FE
100
AcDbEntity
  8
Make2D$可见线$普通线
100
AcDbVertex
100
AcDb2dVertex
 10
440.861665131856
 20
623.6216552838127
 30
0.0
  0
VERTEX
  5
343
330
2FE
100
AcDbEntity
  8
Make2D$可见线$普通线
100
AcDbVertex
100
AcDb2dVertex
 10
440.8854213285562
 20
623.639903613355
 30
0.0
  0
VERTEX
  5
344
330
2FE
100
AcDbEntity
  8
Make2D$可见线$普通线
100
AcDbVertex
100
AcDb2dVertex
 10
440.9079747433812
 20
623.6581378699656
 30
0.0
  0
VERTEX
  5
345
330
2FE
100
AcDbEntity
  8
Make2D$可见线$普通线
100
AcDbVertex
100
AcDb2dVertex
 10
440.9293325345404
 20
623.6763547735276
 30
0.0
  0
VERTEX
  5
346
330
2FE
100
AcDbEntity
  8
Make2D$可见线$普通线
100
AcDbVertex
100
AcDb2dVertex
 10
440.9495022155004
 20
623.6945510920519
 30
0.0
  0
VERTEX
  5
347
330
2FE
100
AcDbEntity
  8
Make2D$可见线$普通线
100
AcDbVertex
100
AcDb2dVertex
 10
440.9684916446516
 20
623.712723642911
 30
0.0
  0
VERTEX
  5
348
330
2FE
100
AcDbEntity
  8
Make2D$可见线$普通线
100
AcDbVertex
100
AcDb2dVertex
 10
440.9863090148561
 20
623.7308692940044
 30
0.0
  0
VERTEX
  5
349
330
2FE
100
AcDbEntity
  8
Make2D$可见线$普通线
100
AcDbVertex
100
AcDb2dVertex
 10
441.0029628428903
 20
623.7489849648541
 30
0.0
  0
VERTEX
  5
34A
330
2FE
100
AcDbEntity
  8
Make2D$可见线$普通线
100
AcDbVertex
100
AcDb2dVertex
 10
441.0108561760384
 20
623.7580306094076
 30
0.0
  0
VERTEX
  5
34B
330
2FE
100
AcDbEntity
  8
Make2D$可见线$普通线
100
AcDbVertex
100
AcDb2dVertex
 10
441.0184619587999
 20
623.7670676276307
 30
0.0
  0
SEQEND
  5
34C
330
2FE
100
AcDbEntity
  8
Make2D$可见线$普通线
  0
POLYLINE
  5
34D
330
1F
100
AcDbEntity
  8
Make2D$可见线$普通线
100
AcDb2dPolyline
 66
     1
 10
0.0
 20
0.0
 30
0.0
  0
VERTEX
  5
34E
330
34D
100
AcDbEntity
  8
Make2D$可见线$普通线
100
AcDbVertex
100
AcDb2dVertex
 10
431.1694908401443
 20
651.7665587168414
 30
0.0
 42
-0.0165648129821922
  0
VERTEX
  5
34F
330
34D
100
AcDbEntity
  8
Make2D$可见线$普通线
100
AcDbVertex
100
AcDb2dVertex
 10
440.5137357124703
 20
651.3856642392892
 30
0.0
 42
-0.0128823244213364
  0
VERTEX
  5
350
330
34D
100
AcDbEntity
  8
Make2D$可见线$普通线
100
AcDbVertex
100
AcDb2dVertex
 10
446.6878456379599
 20
650.7770746053214
 30
0.0
  0
VERTEX
  5
351
330
34D
100
AcDbEntity
  8
Make2D$可见线$普通线
100
AcDbVertex
100
AcDb2dVertex
 10
448.2217293083653
 20
650.5741905221963
 30
0.0
  0
VERTEX
  5
352
330
34D
100
AcDbEntity
  8
Make2D$可见线$普通线
100
AcDbVertex
100
AcDb2dVertex
 10
449.752990763738
 20
650.3515482733573
 30
0.0
  0
VERTEX
  5
353
330
34D
100
AcDbEntity
  8
Make2D$可见线$普通线
100
AcDbVertex
100
AcDb2dVertex
 10
451.281251432954
 20
650.1092004571531
 30
0.0
  0
VERTEX
  5
354
330
34D
100
AcDbEntity
  8
Make2D$可见线$普通线
100
AcDbVertex
100
AcDb2dVertex
 10
452.8061342385438
 20
649.8472094804664
 30
0.0
  0
VERTEX
  5
355
330
34D
100
AcDbEntity
  8
Make2D$可见线$普通线
100
AcDbVertex
100
AcDb2dVertex
 10
454.2140672790505
 20
649.5898173675555
 30
0.0
  0
VERTEX
  5
356
330
34D
100
AcDbEntity
  8
Make2D$可见线$普通线
100
AcDbVertex
100
AcDb2dVertex
 10
455.6169235675394
 20
649.3176187024005
 30
0.0
  0
VERTEX
  5
357
330
34D
100
AcDbEntity
  8
Make2D$可见线$普通线
100
AcDbVertex
100
AcDb2dVertex
 10
457.0157503251895
 20
649.0325025040187
 30
0.0
  0
VERTEX
  5
358
330
34D
100
AcDbEntity
  8
Make2D$可见线$普通线
100
AcDbVertex
100
AcDb2dVertex
 10
458.4115947731794
 20
648.736357791427
 30
0.0
  0
VERTEX
  5
359
330
34D
100
AcDbEntity
  8
Make2D$可见线$普通线
100
AcDbVertex
100
AcDb2dVertex
 10
461.1985256248933
 20
648.1185388996834
 30
0.0
  0
VERTEX
  5
35A
330
34D
100
AcDbEntity
  8
Make2D$可见线$普通线
100
AcDbVertex
100
AcDb2dVertex
 10
463.9860938921106
 20
647.4792741793071
 30
0.0
 42
-0.3474314471058348
  0
VERTEX
  5
35B
330
34D
100
AcDbEntity
  8
Make2D$可见线$普通线
100
AcDbVertex
100
AcDb2dVertex
 10
465.5359533691029
 20
645.531092958737
 30
0.0
  0
VERTEX
  5
35C
330
34D
100
AcDbEntity
  8
Make2D$可见线$普通线
100
AcDbVertex
100
AcDb2dVertex
 10
465.5359523290921
 20
643.6199280988732
 30
0.0
 42
-0.4142135623730733
  0
VERTEX
  5
35D
330
34D
100
AcDbEntity
  8
Make2D$可见线$普通线
100
AcDbVertex
100
AcDb2dVertex
 10
463.5359523290923
 20
641.619928098873
 30
0.0
  0
VERTEX
  5
35E
330
34D
100
AcDbEntity
  8
Make2D$可见线$普通线
100
AcDbVertex
100
AcDb2dVertex
 10
398.7036965412722
 20
641.6199280988731
 30
0.0
 42
-0.4142135623730955
  0
VERTEX
  5
35F
330
34D
100
AcDbEntity
  8
Make2D$可见线$普通线
100
AcDbVertex
100
AcDb2dVertex
 10
396.7036965412717
 20
643.6199280988732
 30
0.0
  0
VERTEX
  5
360
330
34D
100
AcDbEntity
  8
Make2D$可见线$普通线
100
AcDbVertex
100
AcDb2dVertex
 10
396.7036962913053
 20
645.5310918007926
 30
0.0
 42
-0.3496308877760811
  0
VERTEX
  5
361
330
34D
100
AcDbEntity
  8
Make2D$可见线$普通线
100
AcDbVertex
100
AcDb2dVertex
 10
398.2533263490243
 20
647.4793678794982
 30
0.0
  0
VERTEX
  5
362
330
34D
100
AcDbEntity
  8
Make2D$可见线$普通线
100
AcDbVertex
100
AcDb2dVertex
 10
401.0308173345789
 20
648.1164288357651
 30
0.0
  0
VERTEX
  5
363
330
34D
100
AcDbEntity
  8
Make2D$可见线$普通线
100
AcDbVertex
100
AcDb2dVertex
 10
403.8168452055132
 20
648.7341644251086
 30
0.0
  0
VERTEX
  5
364
330
34D
100
AcDbEntity
  8
Make2D$可见线$普通线
100
AcDbVertex
100
AcDb2dVertex
 10
405.2145420635539
 20
649.0307645201606
 30
0.0
  0
VERTEX
  5
365
330
34D
100
AcDbEntity
  8
Make2D$可见线$普通线
100
AcDbVertex
100
AcDb2dVertex
 10
406.6161510516067
 20
649.3165084490537
 30
0.0
  0
VERTEX
  5
366
330
34D
100
AcDbEntity
  8
Make2D$可见线$普通线
100
AcDbVertex
100
AcDb2dVertex
 10
408.0222648058942
 20
649.5893879369786
 30
0.0
  0
VERTEX
  5
367
330
34D
100
AcDbEntity
  8
Make2D$可见线$普通线
100
AcDbVertex
100
AcDb2dVertex
 10
409.4334759626389
 20
649.8473947091263
 30
0.0
  0
VERTEX
  5
368
330
34D
100
AcDbEntity
  8
Make2D$可见线$普通线
100
AcDbVertex
100
AcDb2dVertex
 10
410.9583764272514
 20
650.1093740140507
 30
0.0
  0
VERTEX
  5
369
330
34D
100
AcDbEntity
  8
Make2D$可见线$普通线
100
AcDbVertex
100
AcDb2dVertex
 10
412.4866516279073
 20
650.351710024777
 30
0.0
  0
VERTEX
  5
36A
330
34D
100
AcDbEntity
  8
Make2D$可见线$普通线
100
AcDbVertex
100
AcDb2dVertex
 10
414.0179216021486
 20
650.5743399801322
 30
0.0
  0
VERTEX
  5
36B
330
34D
100
AcDbEntity
  8
Make2D$可见线$普通线
100
AcDbVertex
100
AcDb2dVertex
 10
415.5518048969254
 20
650.777210927261
 30
0.0
  0
VERTEX
  5
36C
330
34D
100
AcDbEntity
  8
Make2D$可见线$普通线
100
AcDbVertex
100
AcDb2dVertex
 10
417.0922004964364
 20
650.9591499044224
 30
0.0
  0
VERTEX
  5
36D
330
34D
100
AcDbEntity
  8
Make2D$可见线$普通线
100
AcDbVertex
100
AcDb2dVertex
 10
418.6349398305138
 20
651.1212455337273
 30
0.0
  0
VERTEX
  5
36E
330
34D
100
AcDbEntity
  8
Make2D$可见线$普通线
100
AcDbVertex
100
AcDb2dVertex
 10
420.1796391909124
 20
651.2634549987189
 30
0.0
  0
VERTEX
  5
36F
330
34D
100
AcDbEntity
  8
Make2D$可见线$普通线
100
AcDbVertex
100
AcDb2dVertex
 10
421.7259138937769
 20
651.3857453813526
 30
0.0
 42
-0.016631750241192
  0
VERTEX
  5
370
330
34D
100
AcDbEntity
  8
Make2D$可见线$普通线
100
AcDbVertex
100
AcDb2dVertex
 10
431.1198215367023
 20
651.7670596264102
 30
0.0
  0
SEQEND
  5
371
330
34D
100
AcDbEntity
  8
Make2D$可见线$普通线
  0
POLYLINE
  5
372
330
1F
100
AcDbEntity
  8
Make2D$可见线$普通线
100
AcDb2dPolyline
 66
     1
 10
0.0
 20
0.0
 30
0.0
  0
VERTEX
  5
373
330
372
100
AcDbEntity
  8
Make2D$可见线$普通线
100
AcDbVertex
100
AcDb2dVertex
 10
431.159272965448
 20
650.7666109207213
 30
0.0
 42
-0.0165699654975684
  0
VERTEX
  5
374
330
372
100
AcDbEntity
  8
Make2D$可见线$普通线
100
AcDbVertex
100
AcDb2dVertex
 10
440.439359046274
 20
650.3884340065815
 30
0.0
  0
VERTEX
  5
375
330
372
100
AcDbEntity
  8
Make2D$可见线$普通线
100
AcDbVertex
100
AcDb2dVertex
 10
441.9731477685282
 20
650.2671438897547
 30
0.0
  0
VERTEX
  5
376
330
372
100
AcDbEntity
  8
Make2D$可见线$普通线
100
AcDbVertex
100
AcDb2dVertex
 10
443.5053734706583
 20
650.1260884144483
 30
0.0
  0
VERTEX
  5
377
330
372
100
AcDbEntity
  8
Make2D$可见线$普通线
100
AcDbVertex
100
AcDb2dVertex
 10
445.0356543000767
 20
649.9653002541363
 30
0.0
  0
VERTEX
  5
378
330
372
100
AcDbEntity
  8
Make2D$可见线$普通线
100
AcDbVertex
100
AcDb2dVertex
 10
446.5636093729613
 20
649.7848219113903
 30
0.0
  0
VERTEX
  5
379
330
372
100
AcDbEntity
  8
Make2D$可见线$普通线
100
AcDbVertex
100
AcDb2dVertex
 10
448.0850917725533
 20
649.5835727678677
 30
0.0
  0
VERTEX
  5
37A
330
372
100
AcDbEntity
  8
Make2D$可见线$普通线
100
AcDbVertex
100
AcDb2dVertex
 10
449.6039807644618
 20
649.3627169613005
 30
0.0
  0
VERTEX
  5
37B
330
372
100
AcDbEntity
  8
Make2D$可见线$普通线
100
AcDbVertex
100
AcDb2dVertex
 10
451.1198976939661
 20
649.1223070615923
 30
0.0
  0
VERTEX
  5
37C
330
372
100
AcDbEntity
  8
Make2D$可见线$普通线
100
AcDbVertex
100
AcDb2dVertex
 10
452.6324653867505
 20
648.862405378678
 30
0.0
  0
VERTEX
  5
37D
330
372
100
AcDbEntity
  8
Make2D$可见线$普通线
100
AcDbVertex
100
AcDb2dVertex
 10
454.0313664545281
 20
648.6066810873984
 30
0.0
  0
VERTEX
  5
37E
330
372
100
AcDbEntity
  8
Make2D$可见线$普通线
100
AcDbVertex
100
AcDb2dVertex
 10
455.4272445714221
 20
648.3357671542256
 30
0.0
  0
VERTEX
  5
37F
330
372
100
AcDbEntity
  8
Make2D$可见线$普通线
100
AcDbVertex
100
AcDb2dVertex
 10
456.8204858852895
 20
648.0516943820473
 30
0.0
  0
VERTEX
  5
380
330
372
100
AcDbEntity
  8
Make2D$可见线$普通线
100
AcDbVertex
100
AcDb2dVertex
 10
458.2114765439875
 20
647.7564935737527
 30
0.0
  0
VERTEX
  5
381
330
372
100
AcDbEntity
  8
Make2D$可见线$普通线
100
AcDbVertex
100
AcDb2dVertex
 10
460.9882504873035
 20
647.1408310603665
 30
0.0
  0
VERTEX
  5
382
330
372
100
AcDbEntity
  8
Make2D$可见线$普通线
100
AcDbVertex
100
AcDb2dVertex
 10
463.7606555842265
 20
646.505026037174
 30
0.0
 42
-0.3477302557344478
  0
VERTEX
  5
383
330
372
100
AcDbEntity
  8
Make2D$可见线$普通线
100
AcDbVertex
100
AcDb2dVertex
 10
464.5359523290925
 20
645.5310335508218
 30
0.0
  0
VERTEX
  5
384
330
372
100
AcDbEntity
  8
Make2D$可见线$普通线
100
AcDbVertex
100
AcDb2dVertex
 10
464.5359523290922
 20
643.6199280988726
 30
0.0
 42
-0.4110025767692112
  0
VERTEX
  5
385
330
372
100
AcDbEntity
  8
Make2D$可见线$普通线
100
AcDbVertex
100
AcDb2dVertex
 10
463.535952329092
 20
642.6199280988731
 30
0.0
  0
VERTEX
  5
386
330
372
100
AcDbEntity
  8
Make2D$可见线$普通线
100
AcDbVertex
100
AcDb2dVertex
 10
398.7036965412722
 20
642.6199280988731
 30
0.0
 42
-0.4110025767692754
  0
VERTEX
  5
387
330
372
100
AcDbEntity
  8
Make2D$可见线$普通线
100
AcDbVertex
100
AcDb2dVertex
 10
397.703696541272
 20
643.6199280988731
 30
0.0
  0
VERTEX
  5
388
330
372
100
AcDbEntity
  8
Make2D$可见线$普通线
100
AcDbVertex
100
AcDb2dVertex
 10
397.7036965412717
 20
645.5310321299827
 30
0.0
 42
-0.3500499691236122
  0
VERTEX
  5
389
330
372
100
AcDbEntity
  8
Make2D$可见线$普通线
100
AcDbVertex
100
AcDb2dVertex
 10
398.4787401357802
 20
646.504967356486
 30
0.0
  0
VERTEX
  5
38A
330
372
100
AcDbEntity
  8
Make2D$可见线$普通线
100
AcDbVertex
100
AcDb2dVertex
 10
401.2511246530954
 20
647.1407695170399
 30
0.0
  0
VERTEX
  5
38B
330
372
100
AcDbEntity
  8
Make2D$可见线$普通线
100
AcDbVertex
100
AcDb2dVertex
 10
404.0279492893085
 20
647.7564459885588
 30
0.0
  0
VERTEX
  5
38C
330
372
100
AcDbEntity
  8
Make2D$可见线$普通线
100
AcDbVertex
100
AcDb2dVertex
 10
405.4189847268966
 20
648.0516576785247
 30
0.0
  0
VERTEX
  5
38D
330
372
100
AcDbEntity
  8
Make2D$可见线$普通线
100
AcDbVertex
100
AcDb2dVertex
 10
406.8122798840828
 20
648.3357426513463
 30
0.0
  0
VERTEX
  5
38E
330
372
100
AcDbEntity
  8
Make2D$可见线$普通线
100
AcDbVertex
100
AcDb2dVertex
 10
408.208217990825
 20
648.6066691420609
 30
0.0
  0
VERTEX
  5
38F
330
372
100
AcDbEntity
  8
Make2D$可见线$普通线
100
AcDbVertex
100
AcDb2dVertex
 10
409.6071822770813
 20
648.8624053857071
 30
0.0
  0
VERTEX
  5
390
330
372
100
AcDbEntity
  8
Make2D$可见线$普通线
100
AcDbVertex
100
AcDb2dVertex
 10
411.1197496597031
 20
649.1223070640314
 30
0.0
  0
VERTEX
  5
391
330
372
100
AcDbEntity
  8
Make2D$可见线$普通线
100
AcDbVertex
100
AcDb2dVertex
 10
412.6356662791715
 20
649.3627169620655
 30
0.0
  0
VERTEX
  5
392
330
372
100
AcDbEntity
  8
Make2D$可见线$普通线
100
AcDbVertex
100
AcDb2dVertex
 10
414.1545549612061
 20
649.5835727698687
 30
0.0
  0
VERTEX
  5
393
330
372
100
AcDbEntity
  8
Make2D$可见线$普通线
100
AcDbVertex
100
AcDb2dVertex
 10
415.6760370511212
 20
649.784821917531
 30
0.0
  0
VERTEX
  5
394
330
372
100
AcDbEntity
  8
Make2D$可见线$普通线
100
AcDbVertex
100
AcDb2dVertex
 10
417.2039918102219
 20
649.965300262411
 30
0.0
  0
VERTEX
  5
395
330
372
100
AcDbEntity
  8
Make2D$可见线$普通线
100
AcDbVertex
100
AcDb2dVertex
 10
418.7342723265562
 20
650.12608842321
 30
0.0
  0
VERTEX
  5
396
330
372
100
AcDbEntity
  8
Make2D$可见线$普通线
100
AcDbVertex
100
AcDb2dVertex
 10
420.2664977161597
 20
650.2671438973308
 30
0.0
  0
VERTEX
  5
397
330
372
100
AcDbEntity
  8
Make2D$可见线$普通线
100
AcDbVertex
100
AcDb2dVertex
 10
421.8002861263021
 20
650.3884340112814
 30
0.0
 42
-0.0166224518040584
  0
VERTEX
  5
398
330
372
100
AcDbEntity
  8
Make2D$可见线$普通线
100
AcDbVertex
100
AcDb2dVertex
 10
431.1194895610622
 20
650.7670132594867
 30
0.0
  0
SEQEND
  5
399
330
372
100
AcDbEntity
  8
Make2D$可见线$普通线
  0
POLYLINE
  5
39A
330
1F
100
AcDbEntity
  8
Make2D$可见线$普通线
100
AcDb2dPolyline
 66
     1
 10
0.0
 20
0.0
 30
0.0
  0
VERTEX
  5
39B
330
39A
100
AcDbEntity
  8
Make2D$可见线$普通线
100
AcDbVertex
100
AcDb2dVertex
 10
549.9200288987372
 20
590.3712203860396
 30
0.0
 42
-0.0014456948143045
  0
VERTEX
  5
39C
330
39A
100
AcDbEntity
  8
Make2D$可见线$普通线
100
AcDbVertex
100
AcDb2dVertex
 10
549.6601966713795
 20
607.2207821335395
 30
0.0
  0
VERTEX
  5
39D
330
39A
100
AcDbEntity
  8
Make2D$可见线$普通线
100
AcDbVertex
100
AcDb2dVertex
 10
549.6679238523515
 20
607.2208760152917
 30
0.0
 42
0.2944825443660404
  0
VERTEX
  5
39E
330
39A
100
AcDbEntity
  8
Make2D$可见线$普通线
100
AcDbVertex
100
AcDb2dVertex
 10
547.7922593619485
 20
609.9815727988484
 30
0.0
  0
SEQEND
  5
39F
330
39A
100
AcDbEntity
  8
Make2D$可见线$普通线
  0
POLYLINE
  5
3A0
330
1F
100
AcDbEntity
  8
Make2D$可见线$普通线
100
AcDb2dPolyline
 66
     1
 10
0.0
 20
0.0
 30
0.0
  0
VERTEX
  5
3A1
330
3A0
100
AcDbEntity
  8
Make2D$可见线$普通线
100
AcDbVertex
100
AcDb2dVertex
 10
562.3198966610335
 20
590.3712203873704
 30
0.0
 42
0.0014457241121023
  0
VERTEX
  5
3A2
330
3A0
100
AcDbEntity
  8
Make2D$可见线$普通线
100
AcDbVertex
100
AcDb2dVertex
 10
562.5797051224696
 20
607.2207862296511
 30
0.0
  0
VERTEX
  5
3A3
330
3A0
100
AcDbEntity
  8
Make2D$可见线$普通线
100
AcDbVertex
100
AcDb2dVertex
 10
562.571976839649
 20
607.220883279574
 30
0.0
 42
-0.2944852797398445
  0
VERTEX
  5
3A4
330
3A0
100
AcDbEntity
  8
Make2D$可见线$普通线
100
AcDbVertex
100
AcDb2dVertex
 10
564.4477038435039
 20
609.9815944133246
 30
0.0
  0
SEQEND
  5
3A5
330
3A0
100
AcDbEntity
  8
Make2D$可见线$普通线
  0
POLYLINE
  5
3A6
330
1F
100
AcDbEntity
  8
Make2D$可见线$普通线
100
AcDb2dPolyline
 66
     1
 10
0.0
 20
0.0
 30
0.0
  0
VERTEX
  5
3A7
330
3A6
100
AcDbEntity
  8
Make2D$可见线$普通线
100
AcDbVertex
100
AcDb2dVertex
 10
562.4099677133439
 20
595.6199280988731
 30
0.0
  0
VERTEX
  5
3A8
330
3A6
100
AcDbEntity
  8
Make2D$可见线$普通线
100
AcDbVertex
100
AcDb2dVertex
 10
605.6199533674755
 20
595.6199280988731
 30
0.0
 42
0.4142135623730879
  0
VERTEX
  5
3A9
330
3A6
100
AcDbEntity
  8
Make2D$可见线$普通线
100
AcDbVertex
100
AcDb2dVertex
 10
608.6199533674757
 20
598.6199280988739
 30
0.0
  0
VERTEX
  5
3AA
330
3A6
100
AcDbEntity
  8
Make2D$可见线$普通线
100
AcDbVertex
100
AcDb2dVertex
 10
608.6199533674755
 20
675.619928098873
 30
0.0
 42
0.4142134636167539
  0
VERTEX
  5
3AB
330
3A6
100
AcDbEntity
  8
Make2D$可见线$普通线
100
AcDbVertex
100
AcDb2dVertex
 10
605.6199533674758
 20
678.6199280988731
 30
0.0
  0
VERTEX
  5
3AC
330
3A6
100
AcDbEntity
  8
Make2D$可见线$普通线
100
AcDbVertex
100
AcDb2dVertex
 10
381.6199533674758
 20
678.6199280988728
 30
0.0
 42
0.4142135623731058
  0
VERTEX
  5
3AD
330
3A6
100
AcDbEntity
  8
Make2D$可见线$普通线
100
AcDbVertex
100
AcDb2dVertex
 10
378.6199533674756
 20
675.6199280988724
 30
0.0
  0
VERTEX
  5
3AE
330
3A6
100
AcDbEntity
  8
Make2D$可见线$普通线
100
AcDbVertex
100
AcDb2dVertex
 10
378.6199533674756
 20
598.6199280988731
 30
0.0
 42
0.4142135623730913
  0
VERTEX
  5
3AF
330
3A6
100
AcDbEntity
  8
Make2D$可见线$普通线
100
AcDbVertex
100
AcDb2dVertex
 10
381.6199533674763
 20
595.6199280988731
 30
0.0
  0
VERTEX
  5
3B0
330
3A6
100
AcDbEntity
  8
Make2D$可见线$普通线
100
AcDbVertex
100
AcDb2dVertex
 10
549.8299507446369
 20
595.6199280988731
 30
0.0
  0
SEQEND
  5
3B1
330
3A6
100
AcDbEntity
  8
Make2D$可见线$普通线
  0
POLYLINE
  5
3B2
330
1F
100
AcDbEntity
  8
Make2D$可见线$普通线
100
AcDb2dPolyline
 66
     1
 10
0.0
 20
0.0
 30
0.0
  0
VERTEX
  5
3B3
330
3B2
100
AcDbEntity
  8
Make2D$可见线$普通线
100
AcDbVertex
100
AcDb2dVertex
 10
463.5359517076859
 20
647.5832378012823
 30
0.0
  0
VERTEX
  5
3B4
330
3B2
100
AcDbEntity
  8
Make2D$可见线$普通线
100
AcDbVertex
100
AcDb2dVertex
 10
463.5359257571772
 20
647.619928298412
 30
0.0
  0
VERTEX
  5
3B5
330
3B2
100
AcDbEntity
  8
Make2D$可见线$普通线
100
AcDbVertex
100
AcDb2dVertex
 10
463.3769088255677
 20
647.6199303770366
 30
0.0
  0
SEQEND
  5
3B6
330
3B2
100
AcDbEntity
  8
Make2D$可见线$普通线
  0
POLYLINE
  5
3B7
330
1F
100
AcDbEntity
  8
Make2D$可见线$普通线
100
AcDb2dPolyline
 66
     1
 10
0.0
 20
0.0
 30
0.0
  0
VERTEX
  5
3B8
330
3B7
100
AcDbEntity
  8
Make2D$可见线$普通线
100
AcDbVertex
100
AcDb2dVertex
 10
463.5359257571772
 20
647.619928298412
 30
0.0
 42
-0.4109902388737303
  0
VERTEX
  5
3B9
330
3B7
100
AcDbEntity
  8
Make2D$可见线$普通线
100
AcDbVertex
100
AcDb2dVertex
 10
466.035952329093
 20
645.1203965723689
 30
0.0
  0
VERTEX
  5
3BA
330
3B7
100
AcDbEntity
  8
Make2D$可见线$普通线
100
AcDbVertex
100
AcDb2dVertex
 10
466.0359523290928
 20
643.6199280988735
 30
0.0
 42
-0.4110025766822559
  0
VERTEX
  5
3BB
330
3B7
100
AcDbEntity
  8
Make2D$可见线$普通线
100
AcDbVertex
100
AcDb2dVertex
 10
463.535952329092
 20
641.1199280988731
 30
0.0
  0
VERTEX
  5
3BC
330
3B7
100
AcDbEntity
  8
Make2D$可见线$普通线
100
AcDbVertex
100
AcDb2dVertex
 10
455.6919900948188
 20
641.1199280988728
 30
0.0
  0
SEQEND
  5
3BD
330
3B7
100
AcDbEntity
  8
Make2D$可见线$普通线
  0
POLYLINE
  5
3BE
330
1F
100
AcDbEntity
  8
Make2D$可见线$普通线
100
AcDb2dPolyline
 66
     1
 10
0.0
 20
0.0
 30
0.0
  0
VERTEX
  5
3BF
330
3BE
100
AcDbEntity
  8
Make2D$可见线$普通线
100
AcDbVertex
100
AcDb2dVertex
 10
406.5481375321336
 20
641.1199280988733
 30
0.0
  0
VERTEX
  5
3C0
330
3BE
100
AcDbEntity
  8
Make2D$可见线$普通线
100
AcDbVertex
100
AcDb2dVertex
 10
398.7036965412721
 20
641.1199280988734
 30
0.0
 42
-0.4110025766826411
  0
VERTEX
  5
3C1
330
3BE
100
AcDbEntity
  8
Make2D$可见线$普通线
100
AcDbVertex
100
AcDb2dVertex
 10
396.203696541273
 20
643.6199280988728
 30
0.0
  0
VERTEX
  5
3C2
330
3BE
100
AcDbEntity
  8
Make2D$可见线$普通线
100
AcDbVertex
100
AcDb2dVertex
 10
396.2036965412732
 20
645.1203988005786
 30
0.0
 42
-0.4110053163068146
  0
VERTEX
  5
3C3
330
3BE
100
AcDbEntity
  8
Make2D$可见线$普通线
100
AcDbVertex
100
AcDb2dVertex
 10
398.7039475587816
 20
647.6199282936271
 30
0.0
  0
VERTEX
  5
3C4
330
3BE
100
AcDbEntity
  8
Make2D$可见线$普通线
100
AcDbVertex
100
AcDb2dVertex
 10
398.8614657329993
 20
647.6199286189669
 30
0.0
  0
SEQEND
  5
3C5
330
3BE
100
AcDbEntity
  8
Make2D$可见线$普通线
  0
POLYLINE
  5
3C6
330
1F
100
AcDbEntity
  8
Make2D$可见线$普通线
100
AcDb2dPolyline
 66
     1
 10
0.0
 20
0.0
 30
0.0
  0
VERTEX
  5
3C7
330
3C6
100
AcDbEntity
  8
Make2D$可见线$普通线
100
AcDbVertex
100
AcDb2dVertex
 10
552.046346365224
 20
608.9395319856267
 30
0.0
 42
-0.3689957478084803
  0
VERTEX
  5
3C8
330
3C6
100
AcDbEntity
  8
Make2D$可见线$普通线
100
AcDbVertex
100
AcDb2dVertex
 10
530.1199533673757
 20
634.6199281128736
 30
0.0
  0
VERTEX
  5
3C9
330
3C6
100
AcDbEntity
  8
Make2D$可见线$普通线
100
AcDbVertex
100
AcDb2dVertex
 10
530.1240303484287
 20
635.2585867140715
 30
0.0
  0
VERTEX
  5
3CA
330
3C6
100
AcDbEntity
  8
Make2D$可见线$普通线
100
AcDbVertex
100
AcDb2dVertex
 10
530.1449004905945
 20
635.8966201941162
 30
0.0
  0
VERTEX
  5
3CB
330
3C6
100
AcDbEntity
  8
Make2D$可见线$普通线
100
AcDbVertex
100
AcDb2dVertex
 10
530.1823924420709
 20
636.5336783551323
 30
0.0
  0
VERTEX
  5
3CC
330
3C6
100
AcDbEntity
  8
Make2D$可见线$普通线
100
AcDbVertex
100
AcDb2dVertex
 10
530.2363348510554
 20
637.1694109992447
 30
0.0
  0
VERTEX
  5
3CD
330
3C6
100
AcDbEntity
  8
Make2D$可见线$普通线
100
AcDbVertex
100
AcDb2dVertex
 10
530.3065563657459
 20
637.8034679285784
 30
0.0
  0
VERTEX
  5
3CE
330
3C6
100
AcDbEntity
  8
Make2D$可见线$普通线
100
AcDbVertex
100
AcDb2dVertex
 10
530.3928856343402
 20
638.435498945258
 30
0.0
  0
VERTEX
  5
3CF
330
3C6
100
AcDbEntity
  8
Make2D$可见线$普通线
100
AcDbVertex
100
AcDb2dVertex
 10
530.4951513050362
 20
639.0651538514084
 30
0.0
  0
VERTEX
  5
3D0
330
3C6
100
AcDbEntity
  8
Make2D$可见线$普通线
100
AcDbVertex
100
AcDb2dVertex
 10
530.6131820260316
 20
639.6920824491542
 30
0.0
  0
VERTEX
  5
3D1
330
3C6
100
AcDbEntity
  8
Make2D$可见线$普通线
100
AcDbVertex
100
AcDb2dVertex
 10
530.746806445524
 20
640.3159345406206
 30
0.0
  0
VERTEX
  5
3D2
330
3C6
100
AcDbEntity
  8
Make2D$可见线$普通线
100
AcDbVertex
100
AcDb2dVertex
 10
530.8958532117115
 20
640.9363599279321
 30
0.0
  0
VERTEX
  5
3D3
330
3C6
100
AcDbEntity
  8
Make2D$可见线$普通线
100
AcDbVertex
100
AcDb2dVertex
 10
531.0601509727915
 20
641.5530084132138
 30
0.0
  0
VERTEX
  5
3D4
330
3C6
100
AcDbEntity
  8
Make2D$可见线$普通线
100
AcDbVertex
100
AcDb2dVertex
 10
531.239528376962
 20
642.1655297985901
 30
0.0
  0
VERTEX
  5
3D5
330
3C6
100
AcDbEntity
  8
Make2D$可见线$普通线
100
AcDbVertex
100
AcDb2dVertex
 10
531.4338140724205
 20
642.7735738861861
 30
0.0
  0
VERTEX
  5
3D6
330
3C6
100
AcDbEntity
  8
Make2D$可见线$普通线
100
AcDbVertex
100
AcDb2dVertex
 10
531.6428367073652
 20
643.3767904781266
 30
0.0
  0
VERTEX
  5
3D7
330
3C6
100
AcDbEntity
  8
Make2D$可见线$普通线
100
AcDbVertex
100
AcDb2dVertex
 10
531.8664249299936
 20
643.9748293765365
 30
0.0
  0
VERTEX
  5
3D8
330
3C6
100
AcDbEntity
  8
Make2D$可见线$普通线
100
AcDbVertex
100
AcDb2dVertex
 10
532.1044073885034
 20
644.5673403835406
 30
0.0
  0
VERTEX
  5
3D9
330
3C6
100
AcDbEntity
  8
Make2D$可见线$普通线
100
AcDbVertex
100
AcDb2dVertex
 10
532.3566127310926
 20
645.1539733012635
 30
0.0
  0
VERTEX
  5
3DA
330
3C6
100
AcDbEntity
  8
Make2D$可见线$普通线
100
AcDbVertex
100
AcDb2dVertex
 10
532.6228696059588
 20
645.7343779318301
 30
0.0
  0
VERTEX
  5
3DB
330
3C6
100
AcDbEntity
  8
Make2D$可见线$普通线
100
AcDbVertex
100
AcDb2dVertex
 10
532.9030066613
 20
646.3082040773654
 30
0.0
  0
VERTEX
  5
3DC
330
3C6
100
AcDbEntity
  8
Make2D$可见线$普通线
100
AcDbVertex
100
AcDb2dVertex
 10
533.1968525453135
 20
646.8751015399939
 30
0.0
  0
VERTEX
  5
3DD
330
3C6
100
AcDbEntity
  8
Make2D$可见线$普通线
100
AcDbVertex
100
AcDb2dVertex
 10
533.5042359061974
 20
647.4347201218407
 30
0.0
  0
VERTEX
  5
3DE
330
3C6
100
AcDbEntity
  8
Make2D$可见线$普通线
100
AcDbVertex
100
AcDb2dVertex
 10
533.8249853921495
 20
647.9867096250305
 30
0.0
  0
VERTEX
  5
3DF
330
3C6
100
AcDbEntity
  8
Make2D$可见线$普通线
100
AcDbVertex
100
AcDb2dVertex
 10
534.1589296513675
 20
648.5307198516881
 30
0.0
  0
VERTEX
  5
3E0
330
3C6
100
AcDbEntity
  8
Make2D$可见线$普通线
100
AcDbVertex
100
AcDb2dVertex
 10
534.5058973320492
 20
649.0664006039383
 30
0.0
  0
VERTEX
  5
3E1
330
3C6
100
AcDbEntity
  8
Make2D$可见线$普通线
100
AcDbVertex
100
AcDb2dVertex
 10
534.8657170823924
 20
649.593401683906
 30
0.0
  0
VERTEX
  5
3E2
330
3C6
100
AcDbEntity
  8
Make2D$可见线$普通线
100
AcDbVertex
100
AcDb2dVertex
 10
535.2382175505948
 20
650.1113728937161
 30
0.0
  0
VERTEX
  5
3E3
330
3C6
100
AcDbEntity
  8
Make2D$可见线$普通线
100
AcDbVertex
100
AcDb2dVertex
 10
535.6232273848541
 20
650.6199640354932
 30
0.0
  0
VERTEX
  5
3E4
330
3C6
100
AcDbEntity
  8
Make2D$可见线$普通线
100
AcDbVertex
100
AcDb2dVertex
 10
536.0205752333682
 20
651.1188249113623
 30
0.0
  0
VERTEX
  5
3E5
330
3C6
100
AcDbEntity
  8
Make2D$可见线$普通线
100
AcDbVertex
100
AcDb2dVertex
 10
536.4300897443347
 20
651.607605323448
 30
0.0
  0
VERTEX
  5
3E6
330
3C6
100
AcDbEntity
  8
Make2D$可见线$普通线
100
AcDbVertex
100
AcDb2dVertex
 10
536.8515995659517
 20
652.0859550738753
 30
0.0
  0
VERTEX
  5
3E7
330
3C6
100
AcDbEntity
  8
Make2D$可见线$普通线
100
AcDbVertex
100
AcDb2dVertex
 10
537.2849333464167
 20
652.5535239647688
 30
0.0
  0
VERTEX
  5
3E8
330
3C6
100
AcDbEntity
  8
Make2D$可见线$普通线
100
AcDbVertex
100
AcDb2dVertex
 10
537.7299197339273
 20
653.0099617982536
 30
0.0
  0
VERTEX
  5
3E9
330
3C6
100
AcDbEntity
  8
Make2D$可见线$普通线
100
AcDbVertex
100
AcDb2dVertex
 10
538.1863575675349
 20
653.4549481827386
 30
0.0
  0
VERTEX
  5
3EA
330
3C6
100
AcDbEntity
  8
Make2D$可见线$普通线
100
AcDbVertex
100
AcDb2dVertex
 10
538.6539264584379
 20
653.888281960213
 30
0.0
  0
VERTEX
  5
3EB
330
3C6
100
AcDbEntity
  8
Make2D$可见线$普通线
100
AcDbVertex
100
AcDb2dVertex
 10
539.1322762087616
 20
654.3097917788773
 30
0.0
  0
VERTEX
  5
3EC
330
3C6
100
AcDbEntity
  8
Make2D$可见线$普通线
100
AcDbVertex
100
AcDb2dVertex
 10
539.6210566206305
 20
654.7193062869322
 30
0.0
  0
VERTEX
  5
3ED
330
3C6
100
AcDbEntity
  8
Make2D$可见线$普通线
100
AcDbVertex
100
AcDb2dVertex
 10
540.1199174961696
 20
655.1166541325781
 30
0.0
  0
VERTEX
  5
3EE
330
3C6
100
AcDbEntity
  8
Make2D$可见线$普通线
100
AcDbVertex
100
AcDb2dVertex
 10
540.628508637504
 20
655.5016639640155
 30
0.0
  0
VERTEX
  5
3EF
330
3C6
100
AcDbEntity
  8
Make2D$可见线$普通线
100
AcDbVertex
100
AcDb2dVertex
 10
541.1464798467584
 20
655.874164429445
 30
0.0
  0
VERTEX
  5
3F0
330
3C6
100
AcDbEntity
  8
Make2D$可见线$普通线
100
AcDbVertex
100
AcDb2dVertex
 10
541.6734809260579
 20
656.2339841770671
 30
0.0
  0
VERTEX
  5
3F1
330
3C6
100
AcDbEntity
  8
Make2D$可见线$普通线
100
AcDbVertex
100
AcDb2dVertex
 10
542.2091616775273
 20
656.5809518550823
 30
0.0
  0
VERTEX
  5
3F2
330
3C6
100
AcDbEntity
  8
Make2D$可见线$普通线
100
AcDbVertex
100
AcDb2dVertex
 10
542.7531719032913
 20
656.9148961116912
 30
0.0
  0
VERTEX
  5
3F3
330
3C6
100
AcDbEntity
  8
Make2D$可见线$普通线
100
AcDbVertex
100
AcDb2dVertex
 10
543.3051614054751
 20
657.2356455950942
 30
0.0
  0
VERTEX
  5
3F4
330
3C6
100
AcDbEntity
  8
Make2D$可见线$普通线
100
AcDbVertex
100
AcDb2dVertex
 10
543.8647799862034
 20
657.5430289534919
 30
0.0
  0
VERTEX
  5
3F5
330
3C6
100
AcDbEntity
  8
Make2D$可见线$普通线
100
AcDbVertex
100
AcDb2dVertex
 10
544.4316774476011
 20
657.8368748350848
 30
0.0
  0
VERTEX
  5
3F6
330
3C6
100
AcDbEntity
  8
Make2D$可见线$普通线
100
AcDbVertex
100
AcDb2dVertex
 10
545.0055035917933
 20
658.1170118880734
 30
0.0
  0
VERTEX
  5
3F7
330
3C6
100
AcDbEntity
  8
Make2D$可见线$普通线
100
AcDbVertex
100
AcDb2dVertex
 10
545.5859082209047
 20
658.3832687606584
 30
0.0
  0
VERTEX
  5
3F8
330
3C6
100
AcDbEntity
  8
Make2D$可见线$普通线
100
AcDbVertex
100
AcDb2dVertex
 10
546.1725411370603
 20
658.6354741010401
 30
0.0
  0
VERTEX
  5
3F9
330
3C6
100
AcDbEntity
  8
Make2D$可见线$普通线
100
AcDbVertex
100
AcDb2dVertex
 10
546.765052142385
 20
658.8734565574191
 30
0.0
  0
VERTEX
  5
3FA
330
3C6
100
AcDbEntity
  8
Make2D$可见线$普通线
100
AcDbVertex
100
AcDb2dVertex
 10
547.3630910390036
 20
659.097044777996
 30
0.0
  0
VERTEX
  5
3FB
330
3C6
100
AcDbEntity
  8
Make2D$可见线$普通线
100
AcDbVertex
100
AcDb2dVertex
 10
547.966307629041
 20
659.3060674109713
 30
0.0
  0
VERTEX
  5
3FC
330
3C6
100
AcDbEntity
  8
Make2D$可见线$普通线
100
AcDbVertex
100
AcDb2dVertex
 10
548.5743517146223
 20
659.5003531045454
 30
0.0
  0
VERTEX
  5
3FD
330
3C6
100
AcDbEntity
  8
Make2D$可见线$普通线
100
AcDbVertex
100
AcDb2dVertex
 10
549.1868730978722
 20
659.679730506919
 30
0.0
  0
VERTEX
  5
3FE
330
3C6
100
AcDbEntity
  8
Make2D$可见线$普通线
100
AcDbVertex
100
AcDb2dVertex
 10
549.8035215809157
 20
659.8440282662925
 30
0.0
  0
VERTEX
  5
3FF
330
3C6
100
AcDbEntity
  8
Make2D$可见线$普通线
100
AcDbVertex
100
AcDb2dVertex
 10
550.4239469658776
 20
659.9930750308665
 30
0.0
  0
VERTEX
  5
400
330
3C6
100
AcDbEntity
  8
Make2D$可见线$普通线
100
AcDbVertex
100
AcDb2dVertex
 10
551.047799054883
 20
660.1266994488414
 30
0.0
  0
VERTEX
  5
401
330
3C6
100
AcDbEntity
  8
Make2D$可见线$普通线
100
AcDbVertex
100
AcDb2dVertex
 10
551.6747276500566
 20
660.2447301684178
 30
0.0
  0
VERTEX
  5
402
330
3C6
100
AcDbEntity
  8
Make2D$可见线$普通线
100
AcDbVertex
100
AcDb2dVertex
 10
552.3043825535233
 20
660.3469958377963
 30
0.0
  0
VERTEX
  5
403
330
3C6
100
AcDbEntity
  8
Make2D$可见线$普通线
100
AcDbVertex
100
AcDb2dVertex
 10
552.9364135674082
 20
660.4333251051773
 30
0.0
  0
VERTEX
  5
404
330
3C6
100
AcDbEntity
  8
Make2D$可见线$普通线
100
AcDbVertex
100
AcDb2dVertex
 10
553.570470493836
 20
660.5035466187614
 30
0.0
  0
VERTEX
  5
405
330
3C6
100
AcDbEntity
  8
Make2D$可见线$普通线
100
AcDbVertex
100
AcDb2dVertex
 10
554.2062031349316
 20
660.5574890267492
 30
0.0
  0
VERTEX
  5
406
330
3C6
100
AcDbEntity
  8
Make2D$可见线$普通线
100
AcDbVertex
100
AcDb2dVertex
 10
554.84326129282
 20
660.594980977341
 30
0.0
  0
VERTEX
  5
407
330
3C6
100
AcDbEntity
  8
Make2D$可见线$普通线
100
AcDbVertex
100
AcDb2dVertex
 10
555.481294769626
 20
660.6158511187377
 30
0.0
  0
VERTEX
  5
408
330
3C6
100
AcDbEntity
  8
Make2D$可见线$普通线
100
AcDbVertex
100
AcDb2dVertex
 10
556.1199533674746
 20
660.6199280991394
 30
0.0
  0
VERTEX
  5
409
330
3C6
100
AcDbEntity
  8
Make2D$可见线$普通线
100
AcDbVertex
100
AcDb2dVertex
 10
556.7586119653233
 20
660.6158511187377
 30
0.0
  0
VERTEX
  5
40A
330
3C6
100
AcDbEntity
  8
Make2D$可见线$普通线
100
AcDbVertex
100
AcDb2dVertex
 10
557.3966454421293
 20
660.594980977341
 30
0.0
  0
VERTEX
  5
40B
330
3C6
100
AcDbEntity
  8
Make2D$可见线$普通线
100
AcDbVertex
100
AcDb2dVertex
 10
558.0337036000177
 20
660.5574890267492
 30
0.0
  0
VERTEX
  5
40C
330
3C6
100
AcDbEntity
  8
Make2D$可见线$普通线
100
AcDbVertex
100
AcDb2dVertex
 10
558.6694362411133
 20
660.5035466187614
 30
0.0
  0
VERTEX
  5
40D
330
3C6
100
AcDbEntity
  8
Make2D$可见线$普通线
100
AcDbVertex
100
AcDb2dVertex
 10
559.3034931675411
 20
660.4333251051773
 30
0.0
  0
VERTEX
  5
40E
330
3C6
100
AcDbEntity
  8
Make2D$可见线$普通线
100
AcDbVertex
100
AcDb2dVertex
 10
559.935524181426
 20
660.3469958377963
 30
0.0
  0
VERTEX
  5
40F
330
3C6
100
AcDbEntity
  8
Make2D$可见线$普通线
100
AcDbVertex
100
AcDb2dVertex
 10
560.5651790848926
 20
660.2447301684178
 30
0.0
  0
VERTEX
  5
410
330
3C6
100
AcDbEntity
  8
Make2D$可见线$普通线
100
AcDbVertex
100
AcDb2dVertex
 10
561.1921076800663
 20
660.1266994488414
 30
0.0
  0
VERTEX
  5
411
330
3C6
100
AcDbEntity
  8
Make2D$可见线$普通线
100
AcDbVertex
100
AcDb2dVertex
 10
561.8159597690717
 20
659.9930750308665
 30
0.0
  0
VERTEX
  5
412
330
3C6
100
AcDbEntity
  8
Make2D$可见线$普通线
100
AcDbVertex
100
AcDb2dVertex
 10
562.4363851540336
 20
659.8440282662925
 30
0.0
  0
VERTEX
  5
413
330
3C6
100
AcDbEntity
  8
Make2D$可见线$普通线
100
AcDbVertex
100
AcDb2dVertex
 10
563.0530336370771
 20
659.679730506919
 30
0.0
  0
VERTEX
  5
414
330
3C6
100
AcDbEntity
  8
Make2D$可见线$普通线
100
AcDbVertex
100
AcDb2dVertex
 10
563.665555020327
 20
659.5003531045454
 30
0.0
  0
VERTEX
  5
415
330
3C6
100
AcDbEntity
  8
Make2D$可见线$普通线
100
AcDbVertex
100
AcDb2dVertex
 10
564.2735991059083
 20
659.3060674109713
 30
0.0
  0
VERTEX
  5
416
330
3C6
100
AcDbEntity
  8
Make2D$可见线$普通线
100
AcDbVertex
100
AcDb2dVertex
 10
564.8768156959457
 20
659.097044777996
 30
0.0
  0
VERTEX
  5
417
330
3C6
100
AcDbEntity
  8
Make2D$可见线$普通线
100
AcDbVertex
100
AcDb2dVertex
 10
565.4748545925643
 20
658.8734565574191
 30
0.0
  0
VERTEX
  5
418
330
3C6
100
AcDbEntity
  8
Make2D$可见线$普通线
100
AcDbVertex
100
AcDb2dVertex
 10
566.067365597889
 20
658.6354741010401
 30
0.0
  0
VERTEX
  5
419
330
3C6
100
AcDbEntity
  8
Make2D$可见线$普通线
100
AcDbVertex
100
AcDb2dVertex
 10
566.6539985140446
 20
658.3832687606584
 30
0.0
  0
VERTEX
  5
41A
330
3C6
100
AcDbEntity
  8
Make2D$可见线$普通线
100
AcDbVertex
100
AcDb2dVertex
 10
567.234403143156
 20
658.1170118880734
 30
0.0
  0
VERTEX
  5
41B
330
3C6
100
AcDbEntity
  8
Make2D$可见线$普通线
100
AcDbVertex
100
AcDb2dVertex
 10
567.8082292873481
 20
657.8368748350848
 30
0.0
  0
VERTEX
  5
41C
330
3C6
100
AcDbEntity
  8
Make2D$可见线$普通线
100
AcDbVertex
100
AcDb2dVertex
 10
568.3751267487459
 20
657.5430289534919
 30
0.0
  0
VERTEX
  5
41D
330
3C6
100
AcDbEntity
  8
Make2D$可见线$普通线
100
AcDbVertex
100
AcDb2dVertex
 10
568.9347453294741
 20
657.2356455950942
 30
0.0
  0
VERTEX
  5
41E
330
3C6
100
AcDbEntity
  8
Make2D$可见线$普通线
100
AcDbVertex
100
AcDb2dVertex
 10
569.4867348316579
 20
656.9148961116912
 30
0.0
  0
VERTEX
  5
41F
330
3C6
100
AcDbEntity
  8
Make2D$可见线$普通线
100
AcDbVertex
100
AcDb2dVertex
 10
570.030745057422
 20
656.5809518550823
 30
0.0
  0
VERTEX
  5
420
330
3C6
100
AcDbEntity
  8
Make2D$可见线$普通线
100
AcDbVertex
100
AcDb2dVertex
 10
570.5664258088914
 20
656.2339841770671
 30
0.0
  0
VERTEX
  5
421
330
3C6
100
AcDbEntity
  8
Make2D$可见线$普通线
100
AcDbVertex
100
AcDb2dVertex
 10
571.0934268881908
 20
655.874164429445
 30
0.0
  0
VERTEX
  5
422
330
3C6
100
AcDbEntity
  8
Make2D$可见线$普通线
100
AcDbVertex
100
AcDb2dVertex
 10
571.6113980974453
 20
655.5016639640155
 30
0.0
  0
VERTEX
  5
423
330
3C6
100
AcDbEntity
  8
Make2D$可见线$普通线
100
AcDbVertex
100
AcDb2dVertex
 10
572.1199892387797
 20
655.1166541325781
 30
0.0
  0
VERTEX
  5
424
330
3C6
100
AcDbEntity
  8
Make2D$可见线$普通线
100
AcDbVertex
100
AcDb2dVertex
 10
572.6188501143188
 20
654.7193062869322
 30
0.0
  0
VERTEX
  5
425
330
3C6
100
AcDbEntity
  8
Make2D$可见线$普通线
100
AcDbVertex
100
AcDb2dVertex
 10
573.1076305261877
 20
654.3097917788773
 30
0.0
  0
VERTEX
  5
426
330
3C6
100
AcDbEntity
  8
Make2D$可见线$普通线
100
AcDbVertex
100
AcDb2dVertex
 10
573.5859802765113
 20
653.888281960213
 30
0.0
  0
VERTEX
  5
427
330
3C6
100
AcDbEntity
  8
Make2D$可见线$普通线
100
AcDbVertex
100
AcDb2dVertex
 10
574.0535491674144
 20
653.4549481827386
 30
0.0
  0
VERTEX
  5
428
330
3C6
100
AcDbEntity
  8
Make2D$可见线$普通线
100
AcDbVertex
100
AcDb2dVertex
 10
574.509987001022
 20
653.0099617982536
 30
0.0
  0
VERTEX
  5
429
330
3C6
100
AcDbEntity
  8
Make2D$可见线$普通线
100
AcDbVertex
100
AcDb2dVertex
 10
574.9549733885328
 20
652.5535239647315
 30
0.0
  0
VERTEX
  5
42A
330
3C6
100
AcDbEntity
  8
Make2D$可见线$普通线
100
AcDbVertex
100
AcDb2dVertex
 10
575.3883071689996
 20
652.085955073577
 30
0.0
  0
VERTEX
  5
42B
330
3C6
100
AcDbEntity
  8
Make2D$可见线$普通线
100
AcDbVertex
100
AcDb2dVertex
 10
575.8098169906215
 20
651.6076053224414
 30
0.0
  0
VERTEX
  5
42C
330
3C6
100
AcDbEntity
  8
Make2D$可见线$普通线
100
AcDbVertex
100
AcDb2dVertex
 10
576.2193315015977
 20
651.118824908976
 30
0.0
  0
VERTEX
  5
42D
330
3C6
100
AcDbEntity
  8
Make2D$可见线$普通线
100
AcDbVertex
100
AcDb2dVertex
 10
576.6166793501277
 20
650.6199640308325
 30
0.0
  0
VERTEX
  5
42E
330
3C6
100
AcDbEntity
  8
Make2D$可见线$普通线
100
AcDbVertex
100
AcDb2dVertex
 10
577.0016891844108
 20
650.1113728856624
 30
0.0
  0
VERTEX
  5
42F
330
3C6
100
AcDbEntity
  8
Make2D$可见线$普通线
100
AcDbVertex
100
AcDb2dVertex
 10
577.3741896526462
 20
649.593401671117
 30
0.0
  0
VERTEX
  5
430
330
3C6
100
AcDbEntity
  8
Make2D$可见线$普通线
100
AcDbVertex
100
AcDb2dVertex
 10
577.7340094030336
 20
649.066400584848
 30
0.0
  0
VERTEX
  5
431
330
3C6
100
AcDbEntity
  8
Make2D$可见线$普通线
100
AcDbVertex
100
AcDb2dVertex
 10
578.080977083772
 20
648.5307198245067
 30
0.0
  0
VERTEX
  5
432
330
3C6
100
AcDbEntity
  8
Make2D$可见线$普通线
100
AcDbVertex
100
AcDb2dVertex
 10
578.4149213430608
 20
647.9867095877446
 30
0.0
  0
VERTEX
  5
433
330
3C6
100
AcDbEntity
  8
Make2D$可见线$普通线
100
AcDbVertex
100
AcDb2dVertex
 10
578.7356708290991
 20
647.4347200722132
 30
0.0
  0
VERTEX
  5
434
330
3C6
100
AcDbEntity
  8
Make2D$可见线$普通线
100
AcDbVertex
100
AcDb2dVertex
 10
579.0430541900869
 20
646.8751014755641
 30
0.0
  0
VERTEX
  5
435
330
3C6
100
AcDbEntity
  8
Make2D$可见线$普通线
100
AcDbVertex
100
AcDb2dVertex
 10
579.3369000742227
 20
646.3082039954485
 30
0.0
  0
VERTEX
  5
436
330
3C6
100
AcDbEntity
  8
Make2D$可见线$普通线
100
AcDbVertex
100
AcDb2dVertex
 10
579.6170371297065
 20
645.734377829518
 30
0.0
  0
VERTEX
  5
437
330
3C6
100
AcDbEntity
  8
Make2D$可见线$普通线
100
AcDbVertex
100
AcDb2dVertex
 10
579.8832940047374
 20
645.153973175424
 30
0.0
  0
VERTEX
  5
438
330
3C6
100
AcDbEntity
  8
Make2D$可见线$普通线
100
AcDbVertex
100
AcDb2dVertex
 10
580.1354993475147
 20
644.5673402308181
 30
0.0
  0
VERTEX
  5
439
330
3C6
100
AcDbEntity
  8
Make2D$可见线$普通线
100
AcDbVertex
100
AcDb2dVertex
 10
580.3734818062377
 20
643.9748291933516
 30
0.0
  0
VERTEX
  5
43A
330
3C6
100
AcDbEntity
  8
Make2D$可见线$普通线
100
AcDbVertex
100
AcDb2dVertex
 10
580.5970700291059
 20
643.3767902606762
 30
0.0
  0
VERTEX
  5
43B
330
3C6
100
AcDbEntity
  8
Make2D$可见线$普通线
100
AcDbVertex
100
AcDb2dVertex
 10
580.8060926643186
 20
642.7735736304433
 30
0.0
  0
VERTEX
  5
43C
330
3C6
100
AcDbEntity
  8
Make2D$可见线$普通线
100
AcDbVertex
100
AcDb2dVertex
 10
581.0003783600749
 20
642.165529500304
 30
0.0
  0
VERTEX
  5
43D
330
3C6
100
AcDbEntity
  8
Make2D$可见线$普通线
100
AcDbVertex
100
AcDb2dVertex
 10
581.1797557645745
 20
641.5530080679102
 30
0.0
  0
VERTEX
  5
43E
330
3C6
100
AcDbEntity
  8
Make2D$可见线$普通线
100
AcDbVertex
100
AcDb2dVertex
 10
581.3440535260163
 20
640.9363595309134
 30
0.0
  0
VERTEX
  5
43F
330
3C6
100
AcDbEntity
  8
Make2D$可见线$普通线
100
AcDbVertex
100
AcDb2dVertex
 10
581.4931002926
 20
640.3159340869648
 30
0.0
  0
VERTEX
  5
440
330
3C6
100
AcDbEntity
  8
Make2D$可见线$普通线
100
AcDbVertex
100
AcDb2dVertex
 10
581.626724712525
 20
639.692081933716
 30
0.0
  0
VERTEX
  5
441
330
3C6
100
AcDbEntity
  8
Make2D$可见线$普通线
100
AcDbVertex
100
AcDb2dVertex
 10
581.7447554339903
 20
639.0651532688184
 30
0.0
  0
VERTEX
  5
442
330
3C6
100
AcDbEntity
  8
Make2D$可见线$普通线
100
AcDbVertex
100
AcDb2dVertex
 10
581.8470211051954
 20
638.4354982899237
 30
0.0
  0
VERTEX
  5
443
330
3C6
100
AcDbEntity
  8
Make2D$可见线$普通线
100
AcDbVertex
100
AcDb2dVertex
 10
581.9333503743397
 20
637.803467194683
 30
0.0
  0
VERTEX
  5
444
330
3C6
100
AcDbEntity
  8
Make2D$可见线$普通线
100
AcDbVertex
100
AcDb2dVertex
 10
582.0035718896224
 20
637.169410180748
 30
0.0
  0
VERTEX
  5
445
330
3C6
100
AcDbEntity
  8
Make2D$可见线$普通线
100
AcDbVertex
100
AcDb2dVertex
 10
582.0575142992429
 20
636.5336774457701
 30
0.0
  0
VERTEX
  5
446
330
3C6
100
AcDbEntity
  8
Make2D$可见线$普通线
100
AcDbVertex
100
AcDb2dVertex
 10
582.0950062514005
 20
635.8966191874008
 30
0.0
  0
VERTEX
  5
447
330
3C6
100
AcDbEntity
  8
Make2D$可见线$普通线
100
AcDbVertex
100
AcDb2dVertex
 10
582.1158763942947
 20
635.2585856032917
 30
0.0
  0
VERTEX
  5
448
330
3C6
100
AcDbEntity
  8
Make2D$可见线$普通线
100
AcDbVertex
100
AcDb2dVertex
 10
582.1199533761246
 20
634.6199268910941
 30
0.0
 42
-0.3689955488144319
  0
VERTEX
  5
449
330
3C6
100
AcDbEntity
  8
Make2D$可见线$普通线
100
AcDbVertex
100
AcDb2dVertex
 10
560.1935771643207
 20
608.9395346498271
 30
0.0
  0
SEQEND
  5
44A
330
3C6
100
AcDbEntity
  8
Make2D$可见线$普通线
  0
POLYLINE
  5
44B
330
1F
100
AcDbEntity
  8
Make2D$可见线$普通线
100
AcDb2dPolyline
 66
     1
 10
0.0
 20
0.0
 30
0.0
  0
VERTEX
  5
44C
330
44B
100
AcDbEntity
  8
Make2D$可见线$普通线
100
AcDbVertex
100
AcDb2dVertex
 10
554.7154819451953
 20
522.4238705067131
 30
0.0
  0
VERTEX
  5
44D
330
44B
100
AcDbEntity
  8
Make2D$可见线$普通线
100
AcDbVertex
100
AcDb2dVertex
 10
554.4232057946887
 20
536.601850451191
 30
0.0
  0
VERTEX
  5
44E
330
44B
100
AcDbEntity
  8
Make2D$可见线$普通线
100
AcDbVertex
100
AcDb2dVertex
 10
553.6065000766873
 20
553.4114294112162
 30
0.0
 42
0.0004375749986702
  0
VERTEX
  5
44F
330
44B
100
AcDbEntity
  8
Make2D$可见线$普通线
100
AcDbVertex
100
AcDb2dVertex
 10
551.8353039067588
 20
571.8969025835652
 30
0.0
  0
VERTEX
  5
450
330
44B
100
AcDbEntity
  8
Make2D$可见线$普通线
100
AcDbVertex
100
AcDb2dVertex
 10
549.9200288987372
 20
590.3712203860396
 30
0.0
  0
VERTEX
  5
451
330
44B
100
AcDbEntity
  8
Make2D$可见线$普通线
100
AcDbVertex
100
AcDb2dVertex
 10
549.9017866064543
 20
590.3700840997154
 30
0.0
  0
SEQEND
  5
452
330
44B
100
AcDbEntity
  8
Make2D$可见线$普通线
  0
POLYLINE
  5
453
330
1F
100
AcDbEntity
  8
Make2D$可见线$普通线
100
AcDb2dPolyline
 66
     1
 10
0.0
 20
0.0
 30
0.0
  0
VERTEX
  5
454
330
453
100
AcDbEntity
  8
Make2D$可见线$普通线
100
AcDbVertex
100
AcDb2dVertex
 10
431.1198066981351
 20
621.1187240302615
 30
0.0
  0
VERTEX
  5
455
330
453
100
AcDbEntity
  8
Make2D$可见线$普通线
100
AcDbVertex
100
AcDb2dVertex
 10
432.1984340702521
 20
621.1272741745876
 30
0.0
  0
VERTEX
  5
456
330
453
100
AcDbEntity
  8
Make2D$可见线$普通线
100
AcDbVertex
100
AcDb2dVertex
 10
433.2657181429571
 20
621.1549598311472
 30
0.0
  0
VERTEX
  5
457
330
453
100
AcDbEntity
  8
Make2D$可见线$普通线
100
AcDbVertex
100
AcDb2dVertex
 10
434.3121766352746
 20
621.200975328044
 30
0.0
  0
VERTEX
  5
458
330
453
100
AcDbEntity
  8
Make2D$可见线$普通线
100
AcDbVertex
100
AcDb2dVertex
 10
435.3283272662293
 20
621.2645149933816
 30
0.0
  0
VERTEX
  5
459
330
453
100
AcDbEntity
  8
Make2D$可见线$普通线
100
AcDbVertex
100
AcDb2dVertex
 10
436.3046877548459
 20
621.3447731552637
 30
0.0
  0
VERTEX
  5
45A
330
453
100
AcDbEntity
  8
Make2D$可见线$普通线
100
AcDbVertex
100
AcDb2dVertex
 10
437.2317758201491
 20
621.4409441417938
 30
0.0
  0
VERTEX
  5
45B
330
453
100
AcDbEntity
  8
Make2D$可见线$普通线
100
AcDbVertex
100
AcDb2dVertex
 10
438.1001091811636
 20
621.5522222810755
 30
0.0
  0
VERTEX
  5
45C
330
453
100
AcDbEntity
  8
Make2D$可见线$普通线
100
AcDbVertex
100
AcDb2dVertex
 10
438.900205556914
 20
621.6778019012127
 30
0.0
  0
VERTEX
  5
45D
330
453
100
AcDbEntity
  8
Make2D$可见线$普通线
100
AcDbVertex
100
AcDb2dVertex
 10
439.27180255004
 20
621.7456854751986
 30
0.0
  0
VERTEX
  5
45E
330
453
100
AcDbEntity
  8
Make2D$可见线$普通线
100
AcDbVertex
100
AcDb2dVertex
 10
439.6233897666627
 20
621.8167371788225
 30
0.0
  0
VERTEX
  5
45F
330
453
100
AcDbEntity
  8
Make2D$可见线$普通线
100
AcDbVertex
100
AcDb2dVertex
 10
439.9543872468386
 20
621.8907511894827
 30
0.0
  0
VERTEX
  5
460
330
453
100
AcDbEntity
  8
Make2D$可见线$普通线
100
AcDbVertex
100
AcDb2dVertex
 10
440.2642150306239
 20
621.9675216845776
 30
0.0
  0
VERTEX
  5
461
330
453
100
AcDbEntity
  8
Make2D$可见线$普通线
100
AcDbVertex
100
AcDb2dVertex
 10
440.5522931580753
 20
622.0468428415054
 30
0.0
  0
VERTEX
  5
462
330
453
100
AcDbEntity
  8
Make2D$可见线$普通线
100
AcDbVertex
100
AcDb2dVertex
 10
440.8180416692492
 20
622.1285088376644
 30
0.0
  0
VERTEX
  5
463
330
453
100
AcDbEntity
  8
Make2D$可见线$普通线
100
AcDbVertex
100
AcDb2dVertex
 10
440.9423610812497
 20
622.1701568308927
 30
0.0
  0
VERTEX
  5
464
330
453
100
AcDbEntity
  8
Make2D$可见线$普通线
100
AcDbVertex
100
AcDb2dVertex
 10
441.060880604202
 20
622.212313850453
 30
0.0
  0
VERTEX
  5
465
330
453
100
AcDbEntity
  8
Make2D$可见线$普通线
100
AcDbVertex
100
AcDb2dVertex
 10
441.1735277431132
 20
622.2549541685204
 30
0.0
  0
VERTEX
  5
466
330
453
100
AcDbEntity
  8
Make2D$可见线$普通线
100
AcDbVertex
100
AcDb2dVertex
 10
441.2802300029903
 20
622.2980520572694
 30
0.0
  0
VERTEX
  5
467
330
453
100
AcDbEntity
  8
Make2D$可见线$普通线
100
AcDbVertex
100
AcDb2dVertex
 10
441.3809148888403
 20
622.3415817888749
 30
0.0
  0
VERTEX
  5
468
330
453
100
AcDbEntity
  8
Make2D$可见线$普通线
100
AcDbVertex
100
AcDb2dVertex
 10
441.4755099056704
 20
622.3855176355119
 30
0.0
  0
VERTEX
  5
469
330
453
100
AcDbEntity
  8
Make2D$可见线$普通线
100
AcDbVertex
100
AcDb2dVertex
 10
441.5639425584876
 20
622.429833869355
 30
0.0
  0
VERTEX
  5
46A
330
453
100
AcDbEntity
  8
Make2D$可见线$普通线
100
AcDbVertex
100
AcDb2dVertex
 10
441.6058253437061
 20
622.4521265915334
 30
0.0
  0
VERTEX
  5
46B
330
453
100
AcDbEntity
  8
Make2D$可见线$普通线
100
AcDbVertex
100
AcDb2dVertex
 10
441.646140352299
 20
622.4745047625789
 30
0.0
  0
VERTEX
  5
46C
330
453
100
AcDbEntity
  8
Make2D$可见线$普通线
100
AcDbVertex
100
AcDb2dVertex
 10
441.6848785223921
 20
622.4969651665133
 30
0.0
  0
VERTEX
  5
46D
330
453
100
AcDbEntity
  8
Make2D$可见线$普通线
100
AcDbVertex
100
AcDb2dVertex
 10
441.7220307921115
 20
622.5195045873586
 30
0.0
  0
VERTEX
  5
46E
330
453
100
AcDbEntity
  8
Make2D$可见线$普通线
100
AcDbVertex
100
AcDb2dVertex
 10
441.757588099583
 20
622.5421198091362
 30
0.0
  0
VERTEX
  5
46F
330
453
100
AcDbEntity
  8
Make2D$可见线$普通线
100
AcDbVertex
100
AcDb2dVertex
 10
441.7915413829323
 20
622.5648076158686
 30
0.0
  0
VERTEX
  5
470
330
453
100
AcDbEntity
  8
Make2D$可见线$普通线
100
AcDbVertex
100
AcDb2dVertex
 10
441.8238815802854
 20
622.5875647915772
 30
0.0
  0
VERTEX
  5
471
330
453
100
AcDbEntity
  8
Make2D$可见线$普通线
100
AcDbVertex
100
AcDb2dVertex
 10
441.8545996297684
 20
622.6103881202839
 30
0.0
  0
VERTEX
  5
472
330
453
100
AcDbEntity
  8
Make2D$可见线$普通线
100
AcDbVertex
100
AcDb2dVertex
 10
441.8836864695069
 20
622.6332743860107
 30
0.0
  0
VERTEX
  5
473
330
453
100
AcDbEntity
  8
Make2D$可见线$普通线
100
AcDbVertex
100
AcDb2dVertex
 10
441.9111330376269
 20
622.6562203727792
 30
0.0
  0
VERTEX
  5
474
330
453
100
AcDbEntity
  8
Make2D$可见线$普通线
100
AcDbVertex
100
AcDb2dVertex
 10
441.9369302722542
 20
622.6792228646116
 30
0.0
  0
VERTEX
  5
475
330
453
100
AcDbEntity
  8
Make2D$可见线$普通线
100
AcDbVertex
100
AcDb2dVertex
 10
441.9492075576725
 20
622.6907442949334
 30
0.0
  0
VERTEX
  5
476
330
453
100
AcDbEntity
  8
Make2D$可见线$普通线
100
AcDbVertex
100
AcDb2dVertex
 10
441.9610691115148
 20
622.7022786455294
 30
0.0
  0
VERTEX
  5
477
330
453
100
AcDbEntity
  8
Make2D$可见线$普通线
100
AcDbVertex
100
AcDb2dVertex
 10
441.9725138010468
 20
622.7138255144023
 30
0.0
  0
VERTEX
  5
478
330
453
100
AcDbEntity
  8
Make2D$可见线$普通线
100
AcDbVertex
100
AcDb2dVertex
 10
441.9835404935345
 20
622.7253844995546
 30
0.0
  0
VERTEX
  5
479
330
453
100
AcDbEntity
  8
Make2D$可见线$普通线
100
AcDbVertex
100
AcDb2dVertex
 10
441.9941480562434
 20
622.7369551989894
 30
0.0
  0
VERTEX
  5
47A
330
453
100
AcDbEntity
  8
Make2D$可见线$普通线
100
AcDbVertex
100
AcDb2dVertex
 10
442.0043353564392
 20
622.7485372107092
 30
0.0
  0
VERTEX
  5
47B
330
453
100
AcDbEntity
  8
Make2D$可见线$普通线
100
AcDbVertex
100
AcDb2dVertex
 10
442.0141012613877
 20
622.7601301327167
 30
0.0
  0
VERTEX
  5
47C
330
453
100
AcDbEntity
  8
Make2D$可见线$普通线
100
AcDbVertex
100
AcDb2dVertex
 10
442.0234446383548
 20
622.7717335630148
 30
0.0
  0
VERTEX
  5
47D
330
453
100
AcDbEntity
  8
Make2D$可见线$普通线
100
AcDbVertex
100
AcDb2dVertex
 10
442.032364354606
 20
622.7833470996061
 30
0.0
  0
VERTEX
  5
47E
330
453
100
AcDbEntity
  8
Make2D$可见线$普通线
100
AcDbVertex
100
AcDb2dVertex
 10
442.0408592774073
 20
622.7949703404934
 30
0.0
  0
VERTEX
  5
47F
330
453
100
AcDbEntity
  8
Make2D$可见线$普通线
100
AcDbVertex
100
AcDb2dVertex
 10
442.0489282740241
 20
622.8066028836794
 30
0.0
  0
VERTEX
  5
480
330
453
100
AcDbEntity
  8
Make2D$可见线$普通线
100
AcDbVertex
100
AcDb2dVertex
 10
442.0565702117223
 20
622.8182443271667
 30
0.0
  0
VERTEX
  5
481
330
453
100
AcDbEntity
  8
Make2D$可见线$普通线
100
AcDbVertex
100
AcDb2dVertex
 10
442.0637839577676
 20
622.8298942689582
 30
0.0
  0
VERTEX
  5
482
330
453
100
AcDbEntity
  8
Make2D$可见线$普通线
100
AcDbVertex
100
AcDb2dVertex
 10
442.0705683794258
 20
622.8415523070568
 30
0.0
  0
VERTEX
  5
483
330
453
100
AcDbEntity
  8
Make2D$可见线$普通线
100
AcDbVertex
100
AcDb2dVertex
 10
442.0769223439626
 20
622.8532180394649
 30
0.0
  0
VERTEX
  5
484
330
453
100
AcDbEntity
  8
Make2D$可见线$普通线
100
AcDbVertex
100
AcDb2dVertex
 10
442.0828447186438
 20
622.8648910641853
 30
0.0
  0
VERTEX
  5
485
330
453
100
AcDbEntity
  8
Make2D$可见线$普通线
100
AcDbVertex
100
AcDb2dVertex
 10
442.088334370735
 20
622.8765709792208
 30
0.0
  0
VERTEX
  5
486
330
453
100
AcDbEntity
  8
Make2D$可见线$普通线
100
AcDbVertex
100
AcDb2dVertex
 10
442.0933901675021
 20
622.8882573825741
 30
0.0
  0
VERTEX
  5
487
330
453
100
AcDbEntity
  8
Make2D$可见线$普通线
100
AcDbVertex
100
AcDb2dVertex
 10
442.0980109762107
 20
622.899949872248
 30
0.0
  0
VERTEX
  5
488
330
453
100
AcDbEntity
  8
Make2D$可见线$普通线
100
AcDbVertex
100
AcDb2dVertex
 10
442.1021956641266
 20
622.9116480462452
 30
0.0
  0
VERTEX
  5
489
330
453
100
AcDbEntity
  8
Make2D$可见线$普通线
100
AcDbVertex
100
AcDb2dVertex
 10
442.1059430985155
 20
622.9233515025685
 30
0.0
  0
VERTEX
  5
48A
330
453
100
AcDbEntity
  8
Make2D$可见线$普通线
100
AcDbVertex
100
AcDb2dVertex
 10
442.1092521466431
 20
622.9350598392202
 30
0.0
  0
VERTEX
  5
48B
330
453
100
AcDbEntity
  8
Make2D$可见线$普通线
100
AcDbVertex
100
AcDb2dVertex
 10
442.1107419218795
 20
622.9409157120452
 30
0.0
  0
VERTEX
  5
48C
330
453
100
AcDbEntity
  8
Make2D$可见线$普通线
100
AcDbVertex
100
AcDb2dVertex
 10
442.1121216757751
 20
622.9467726542035
 30
0.0
  0
VERTEX
  5
48D
330
453
100
AcDbEntity
  8
Make2D$可见线$普通线
100
AcDbVertex
100
AcDb2dVertex
 10
442.1133912667385
 20
622.9526306154455
 30
0.0
  0
VERTEX
  5
48E
330
453
100
AcDbEntity
  8
Make2D$可见线$普通线
100
AcDbVertex
100
AcDb2dVertex
 10
442.1145505531775
 20
622.9584895455212
 30
0.0
  0
VERTEX
  5
48F
330
453
100
AcDbEntity
  8
Make2D$可见线$普通线
100
AcDbVertex
100
AcDb2dVertex
 10
442.1155993935006
 20
622.9643493941811
 30
0.0
  0
VERTEX
  5
490
330
453
100
AcDbEntity
  8
Make2D$可见线$普通线
100
AcDbVertex
100
AcDb2dVertex
 10
442.1165376461158
 20
622.9702101111757
 30
0.0
  0
VERTEX
  5
491
330
453
100
AcDbEntity
  8
Make2D$可见线$普通线
100
AcDbVertex
100
AcDb2dVertex
 10
442.1173651694315
 20
622.9760716462551
 30
0.0
  0
VERTEX
  5
492
330
453
100
AcDbEntity
  8
Make2D$可见线$普通线
100
AcDbVertex
100
AcDb2dVertex
 10
442.1180818218559
 20
622.9819339491698
 30
0.0
  0
VERTEX
  5
493
330
453
100
AcDbEntity
  8
Make2D$可见线$普通线
100
AcDbVertex
100
AcDb2dVertex
 10
442.1186874617971
 20
622.9877969696702
 30
0.0
  0
VERTEX
  5
494
330
453
100
AcDbEntity
  8
Make2D$可见线$普通线
100
AcDbVertex
100
AcDb2dVertex
 10
442.1191819476633
 20
622.9936606575063
 30
0.0
  0
VERTEX
  5
495
330
453
100
AcDbEntity
  8
Make2D$可见线$普通线
100
AcDbVertex
100
AcDb2dVertex
 10
442.1195651378629
 20
622.999524962429
 30
0.0
  0
VERTEX
  5
496
330
453
100
AcDbEntity
  8
Make2D$可见线$普通线
100
AcDbVertex
100
AcDb2dVertex
 10
442.119836890804
 20
623.005389834188
 30
0.0
  0
VERTEX
  5
497
330
453
100
AcDbEntity
  8
Make2D$可见线$普通线
100
AcDbVertex
100
AcDb2dVertex
 10
442.1199970648947
 20
623.0112552225341
 30
0.0
  0
VERTEX
  5
498
330
453
100
AcDbEntity
  8
Make2D$可见线$普通线
100
AcDbVertex
100
AcDb2dVertex
 10
442.1200455185435
 20
623.0171210772177
 30
0.0
  0
VERTEX
  5
499
330
453
100
AcDbEntity
  8
Make2D$可见线$普通线
100
AcDbVertex
100
AcDb2dVertex
 10
442.1199821101583
 20
623.0229873479888
 30
0.0
  0
VERTEX
  5
49A
330
453
100
AcDbEntity
  8
Make2D$可见线$普通线
100
AcDbVertex
100
AcDb2dVertex
 10
442.1198066981476
 20
623.0288539845978
 30
0.0
  0
VERTEX
  5
49B
330
453
100
AcDbEntity
  8
Make2D$可见线$普通线
100
AcDbVertex
100
AcDb2dVertex
 10
442.119982110156
 20
623.0347206212073
 30
0.0
  0
VERTEX
  5
49C
330
453
100
AcDbEntity
  8
Make2D$可见线$普通线
100
AcDbVertex
100
AcDb2dVertex
 10
442.1200455185389
 20
623.0405868919787
 30
0.0
  0
VERTEX
  5
49D
330
453
100
AcDbEntity
  8
Make2D$可见线$普通线
100
AcDbVertex
100
AcDb2dVertex
 10
442.1199970648879
 20
623.0464527466625
 30
0.0
  0
VERTEX
  5
49E
330
453
100
AcDbEntity
  8
Make2D$可见线$普通线
100
AcDbVertex
100
AcDb2dVertex
 10
442.1198368907949
 20
623.052318135009
 30
0.0
  0
VERTEX
  5
49F
330
453
100
AcDbEntity
  8
Make2D$可见线$普通线
100
AcDbVertex
100
AcDb2dVertex
 10
442.1195651378517
 20
623.0581830067686
 30
0.0
  0
VERTEX
  5
4A0
330
453
100
AcDbEntity
  8
Make2D$可见线$普通线
100
AcDbVertex
100
AcDb2dVertex
 10
442.1191819476501
 20
623.0640473116915
 30
0.0
  0
VERTEX
  5
4A1
330
453
100
AcDbEntity
  8
Make2D$可见线$普通线
100
AcDbVertex
100
AcDb2dVertex
 10
442.1186874617819
 20
623.0699109995281
 30
0.0
  0
VERTEX
  5
4A2
330
453
100
AcDbEntity
  8
Make2D$可见线$普通线
100
AcDbVertex
100
AcDb2dVertex
 10
442.1180818218387
 20
623.0757740200288
 30
0.0
  0
VERTEX
  5
4A3
330
453
100
AcDbEntity
  8
Make2D$可见线$普通线
100
AcDbVertex
100
AcDb2dVertex
 10
442.1173651694125
 20
623.0816363229438
 30
0.0
  0
VERTEX
  5
4A4
330
453
100
AcDbEntity
  8
Make2D$可见线$普通线
100
AcDbVertex
100
AcDb2dVertex
 10
442.116537646095
 20
623.0874978580237
 30
0.0
  0
VERTEX
  5
4A5
330
453
100
AcDbEntity
  8
Make2D$可见线$普通线
100
AcDbVertex
100
AcDb2dVertex
 10
442.115599393478
 20
623.0933585750186
 30
0.0
  0
VERTEX
  5
4A6
330
453
100
AcDbEntity
  8
Make2D$可见线$普通线
100
AcDbVertex
100
AcDb2dVertex
 10
442.1145505531531
 20
623.0992184236788
 30
0.0
  0
VERTEX
  5
4A7
330
453
100
AcDbEntity
  8
Make2D$可见线$普通线
100
AcDbVertex
100
AcDb2dVertex
 10
442.1133912667124
 20
623.1050773537548
 30
0.0
  0
VERTEX
  5
4A8
330
453
100
AcDbEntity
  8
Make2D$可见线$普通线
100
AcDbVertex
100
AcDb2dVertex
 10
442.1121216757475
 20
623.110935314997
 30
0.0
  0
VERTEX
  5
4A9
330
453
100
AcDbEntity
  8
Make2D$可见线$普通线
100
AcDbVertex
100
AcDb2dVertex
 10
442.1107419218501
 20
623.1167922571556
 30
0.0
  0
VERTEX
  5
4AA
330
453
100
AcDbEntity
  8
Make2D$可见线$普通线
100
AcDbVertex
100
AcDb2dVertex
 10
442.1092521466122
 20
623.1226481299809
 30
0.0
  0
VERTEX
  5
4AB
330
453
100
AcDbEntity
  8
Make2D$可见线$普通线
100
AcDbVertex
100
AcDb2dVertex
 10
442.1059430984817
 20
623.1343564666333
 30
0.0
  0
VERTEX
  5
4AC
330
453
100
AcDbEntity
  8
Make2D$可见线$普通线
100
AcDbVertex
100
AcDb2dVertex
 10
442.1021956640901
 20
623.146059922957
 30
0.0
  0
VERTEX
  5
4AD
330
453
100
AcDbEntity
  8
Make2D$可见线$普通线
100
AcDbVertex
100
AcDb2dVertex
 10
442.0980109761717
 20
623.1577580969547
 30
0.0
  0
VERTEX
  5
4AE
330
453
100
AcDbEntity
  8
Make2D$可见线$普通线
100
AcDbVertex
100
AcDb2dVertex
 10
442.0933901674608
 20
623.169450586629
 30
0.0
  0
VERTEX
  5
4AF
330
453
100
AcDbEntity
  8
Make2D$可见线$普通线
100
AcDbVertex
100
AcDb2dVertex
 10
442.0883343706917
 20
623.1811369899826
 30
0.0
  0
VERTEX
  5
4B0
330
453
100
AcDbEntity
  8
Make2D$可见线$普通线
100
AcDbVertex
100
AcDb2dVertex
 10
442.0828447185986
 20
623.1928169050185
 30
0.0
  0
VERTEX
  5
4B1
330
453
100
AcDbEntity
  8
Make2D$可见线$普通线
100
AcDbVertex
100
AcDb2dVertex
 10
442.0769223439157
 20
623.2044899297392
 30
0.0
  0
VERTEX
  5
4B2
330
453
100
AcDbEntity
  8
Make2D$可见线$普通线
100
AcDbVertex
100
AcDb2dVertex
 10
442.0705683793773
 20
623.2161556621477
 30
0.0
  0
VERTEX
  5
4B3
330
453
100
AcDbEntity
  8
Make2D$可见线$普通线
100
AcDbVertex
100
AcDb2dVertex
 10
442.0637839577177
 20
623.2278137002463
 30
0.0
  0
VERTEX
  5
4B4
330
453
100
AcDbEntity
  8
Make2D$可见线$普通线
100
AcDbVertex
100
AcDb2dVertex
 10
442.0565702116712
 20
623.2394636420381
 30
0.0
  0
VERTEX
  5
4B5
330
453
100
AcDbEntity
  8
Make2D$可见线$普通线
100
AcDbVertex
100
AcDb2dVertex
 10
442.048928273972
 20
623.2511050855255
 30
0.0
  0
VERTEX
  5
4B6
330
453
100
AcDbEntity
  8
Make2D$可见线$普通线
100
AcDbVertex
100
AcDb2dVertex
 10
442.0408592773543
 20
623.2627376287118
 30
0.0
  0
VERTEX
  5
4B7
330
453
100
AcDbEntity
  8
Make2D$可见线$普通线
100
AcDbVertex
100
AcDb2dVertex
 10
442.0323643545526
 20
623.2743608695993
 30
0.0
  0
VERTEX
  5
4B8
330
453
100
AcDbEntity
  8
Make2D$可见线$普通线
100
AcDbVertex
100
AcDb2dVertex
 10
442.0234446383008
 20
623.2859744061906
 30
0.0
  0
VERTEX
  5
4B9
330
453
100
AcDbEntity
  8
Make2D$可见线$普通线
100
AcDbVertex
100
AcDb2dVertex
 10
442.0141012613335
 20
623.2975778364887
 30
0.0
  0
VERTEX
  5
4BA
330
453
100
AcDbEntity
  8
Make2D$可见线$普通线
100
AcDbVertex
100
AcDb2dVertex
 10
442.0043353563847
 20
623.3091707584963
 30
0.0
  0
VERTEX
  5
4BB
330
453
100
AcDbEntity
  8
Make2D$可见线$普通线
100
AcDbVertex
100
AcDb2dVertex
 10
441.9941480561889
 20
623.3207527702161
 30
0.0
  0
VERTEX
  5
4BC
330
453
100
AcDbEntity
  8
Make2D$可见线$普通线
100
AcDbVertex
100
AcDb2dVertex
 10
441.9835404934802
 20
623.3323234696509
 30
0.0
  0
VERTEX
  5
4BD
330
453
100
AcDbEntity
  8
Make2D$可见线$普通线
100
AcDbVertex
100
AcDb2dVertex
 10
441.9725138009929
 20
623.3438824548032
 30
0.0
  0
VERTEX
  5
4BE
330
453
100
AcDbEntity
  8
Make2D$可见线$普通线
100
AcDbVertex
100
AcDb2dVertex
 10
441.9610691114613
 20
623.3554293236759
 30
0.0
  0
VERTEX
  5
4BF
330
453
100
AcDbEntity
  8
Make2D$可见线$普通线
100
AcDbVertex
100
AcDb2dVertex
 10
441.9492075576196
 20
623.3669636742718
 30
0.0
  0
VERTEX
  5
4C0
330
453
100
AcDbEntity
  8
Make2D$可见线$普通线
100
AcDbVertex
100
AcDb2dVertex
 10
441.9369302722021
 20
623.3784851045937
 30
0.0
  0
VERTEX
  5
4C1
330
453
100
AcDbEntity
  8
Make2D$可见线$普通线
100
AcDbVertex
100
AcDb2dVertex
 10
441.9111330375766
 20
623.4014875964257
 30
0.0
  0
VERTEX
  5
4C2
330
453
100
AcDbEntity
  8
Make2D$可见线$普通线
100
AcDbVertex
100
AcDb2dVertex
 10
441.8836864694591
 20
623.4244335831938
 30
0.0
  0
VERTEX
  5
4C3
330
453
100
AcDbEntity
  8
Make2D$可见线$普通线
100
AcDbVertex
100
AcDb2dVertex
 10
441.8545996297236
 20
623.4473198489202
 30
0.0
  0
VERTEX
  5
4C4
330
453
100
AcDbEntity
  8
Make2D$可见线$普通线
100
AcDbVertex
100
AcDb2dVertex
 10
441.8238815802441
 20
623.4701431776264
 30
0.0
  0
VERTEX
  5
4C5
330
453
100
AcDbEntity
  8
Make2D$可见线$普通线
100
AcDbVertex
100
AcDb2dVertex
 10
441.7915413828948
 20
623.4929003533343
 30
0.0
  0
VERTEX
  5
4C6
330
453
100
AcDbEntity
  8
Make2D$可见线$普通线
100
AcDbVertex
100
AcDb2dVertex
 10
441.7575880995498
 20
623.515588160066
 30
0.0
  0
VERTEX
  5
4C7
330
453
100
AcDbEntity
  8
Make2D$可见线$普通线
100
AcDbVertex
100
AcDb2dVertex
 10
441.7220307920832
 20
623.538203381843
 30
0.0
  0
VERTEX
  5
4C8
330
453
100
AcDbEntity
  8
Make2D$可见线$普通线
100
AcDbVertex
100
AcDb2dVertex
 10
441.684878522369
 20
623.5607428026874
 30
0.0
  0
VERTEX
  5
4C9
330
453
100
AcDbEntity
  8
Make2D$可见线$普通线
100
AcDbVertex
100
AcDb2dVertex
 10
441.6461403522813
 20
623.5832032066207
 30
0.0
  0
VERTEX
  5
4CA
330
453
100
AcDbEntity
  8
Make2D$可见线$普通线
100
AcDbVertex
100
AcDb2dVertex
 10
441.6058253436944
 20
623.6055813776652
 30
0.0
  0
VERTEX
  5
4CB
330
453
100
AcDbEntity
  8
Make2D$可见线$普通线
100
AcDbVertex
100
AcDb2dVertex
 10
441.5639425584822
 20
623.6278740998426
 30
0.0
  0
VERTEX
  5
4CC
330
453
100
AcDbEntity
  8
Make2D$可见线$普通线
100
AcDbVertex
100
AcDb2dVertex
 10
441.4755099056783
 20
623.6721903336834
 30
0.0
  0
VERTEX
  5
4CD
330
453
100
AcDbEntity
  8
Make2D$可见线$普通线
100
AcDbVertex
100
AcDb2dVertex
 10
441.3809148888625
 20
623.7161261803178
 30
0.0
  0
VERTEX
  5
4CE
330
453
100
AcDbEntity
  8
Make2D$可见线$普通线
100
AcDbVertex
100
AcDb2dVertex
 10
441.2802300030276
 20
623.759655911921
 30
0.0
  0
VERTEX
  5
4CF
330
453
100
AcDbEntity
  8
Make2D$可见线$普通线
100
AcDbVertex
100
AcDb2dVertex
 10
441.1735277431662
 20
623.8027538006675
 30
0.0
  0
VERTEX
  5
4D0
330
453
100
AcDbEntity
  8
Make2D$可见线$普通线
100
AcDbVertex
100
AcDb2dVertex
 10
441.0608806042712
 20
623.845394118732
 30
0.0
  0
VERTEX
  5
4D1
330
453
100
AcDbEntity
  8
Make2D$可见线$普通线
100
AcDbVertex
100
AcDb2dVertex
 10
440.9423610813352
 20
623.8875511382896
 30
0.0
  0
VERTEX
  5
4D2
330
453
100
AcDbEntity
  8
Make2D$可见线$普通线
100
AcDbVertex
100
AcDb2dVertex
 10
440.818041669351
 20
623.9291991315151
 30
0.0
  0
VERTEX
  5
4D3
330
453
100
AcDbEntity
  8
Make2D$可见线$普通线
100
AcDbVertex
100
AcDb2dVertex
 10
440.5522931582093
 20
624.0108651276688
 30
0.0
  0
VERTEX
  5
4D4
330
453
100
AcDbEntity
  8
Make2D$可见线$普通线
100
AcDbVertex
100
AcDb2dVertex
 10
440.2642150307878
 20
624.0901862845917
 30
0.0
  0
VERTEX
  5
4D5
330
453
100
AcDbEntity
  8
Make2D$可见线$普通线
100
AcDbVertex
100
AcDb2dVertex
 10
439.9543872470286
 20
624.1669567796823
 30
0.0
  0
VERTEX
  5
4D6
330
453
100
AcDbEntity
  8
Make2D$可见线$普通线
100
AcDbVertex
100
AcDb2dVertex
 10
439.6233897668736
 20
624.2409707903391
 30
0.0
  0
VERTEX
  5
4D7
330
453
100
AcDbEntity
  8
Make2D$可见线$普通线
100
AcDbVertex
100
AcDb2dVertex
 10
439.2718025502649
 20
624.3120224939609
 30
0.0
  0
VERTEX
  5
4D8
330
453
100
AcDbEntity
  8
Make2D$可见线$普通线
100
AcDbVertex
100
AcDb2dVertex
 10
438.9002055571445
 20
624.379906067946
 30
0.0
  0
VERTEX
  5
4D9
330
453
100
AcDbEntity
  8
Make2D$可见线$普通线
100
AcDbVertex
100
AcDb2dVertex
 10
438.1001091813785
 20
624.5054856880862
 30
0.0
  0
VERTEX
  5
4DA
330
453
100
AcDbEntity
  8
Make2D$可见线$普通线
100
AcDbVertex
100
AcDb2dVertex
 10
437.231775820321
 20
624.6167638273758
 30
0.0
  0
VERTEX
  5
4DB
330
453
100
AcDbEntity
  8
Make2D$可见线$普通线
100
AcDbVertex
100
AcDb2dVertex
 10
436.3046877549596
 20
624.7129348139164
 30
0.0
  0
VERTEX
  5
4DC
330
453
100
AcDbEntity
  8
Make2D$可见线$普通线
100
AcDbVertex
100
AcDb2dVertex
 10
435.328327266282
 20
624.7931929758092
 30
0.0
  0
VERTEX
  5
4DD
330
453
100
AcDbEntity
  8
Make2D$可见线$普通线
100
AcDbVertex
100
AcDb2dVertex
 10
434.3121766352757
 20
624.856732641156
 30
0.0
  0
VERTEX
  5
4DE
330
453
100
AcDbEntity
  8
Make2D$可见线$普通线
100
AcDbVertex
100
AcDb2dVertex
 10
433.2657181429282
 20
624.9027481380581
 30
0.0
  0
VERTEX
  5
4DF
330
453
100
AcDbEntity
  8
Make2D$可见线$普通线
100
AcDbVertex
100
AcDb2dVertex
 10
432.1984340702272
 20
624.9304337946169
 30
0.0
  0
VERTEX
  5
4E0
330
453
100
AcDbEntity
  8
Make2D$可见线$普通线
100
AcDbVertex
100
AcDb2dVertex
 10
431.1198066981602
 20
624.9389839389341
 30
0.0
  0
VERTEX
  5
4E1
330
453
100
AcDbEntity
  8
Make2D$可见线$普通线
100
AcDbVertex
100
AcDb2dVertex
 10
430.041179326093
 20
624.9304337946169
 30
0.0
  0
VERTEX
  5
4E2
330
453
100
AcDbEntity
  8
Make2D$可见线$普通线
100
AcDbVertex
100
AcDb2dVertex
 10
428.9738952533917
 20
624.9027481380581
 30
0.0
  0
VERTEX
  5
4E3
330
453
100
AcDbEntity
  8
Make2D$可见线$普通线
100
AcDbVertex
100
AcDb2dVertex
 10
427.9274367610436
 20
624.856732641156
 30
0.0
  0
VERTEX
  5
4E4
330
453
100
AcDbEntity
  8
Make2D$可见线$普通线
100
AcDbVertex
100
AcDb2dVertex
 10
426.9112861300364
 20
624.7931929758092
 30
0.0
  0
VERTEX
  5
4E5
330
453
100
AcDbEntity
  8
Make2D$可见线$普通线
100
AcDbVertex
100
AcDb2dVertex
 10
425.9349256413578
 20
624.7129348139164
 30
0.0
  0
VERTEX
  5
4E6
330
453
100
AcDbEntity
  8
Make2D$可见线$普通线
100
AcDbVertex
100
AcDb2dVertex
 10
425.0078375759952
 20
624.6167638273758
 30
0.0
  0
VERTEX
  5
4E7
330
453
100
AcDbEntity
  8
Make2D$可见线$普通线
100
AcDbVertex
100
AcDb2dVertex
 10
424.1395042149362
 20
624.5054856880862
 30
0.0
  0
VERTEX
  5
4E8
330
453
100
AcDbEntity
  8
Make2D$可见线$普通线
100
AcDbVertex
100
AcDb2dVertex
 10
423.3394078391685
 20
624.379906067946
 30
0.0
  0
VERTEX
  5
4E9
330
453
100
AcDbEntity
  8
Make2D$可见线$普通线
100
AcDbVertex
100
AcDb2dVertex
 10
422.9678108460471
 20
624.3120224939609
 30
0.0
  0
VERTEX
  5
4EA
330
453
100
AcDbEntity
  8
Make2D$可见线$普通线
100
AcDbVertex
100
AcDb2dVertex
 10
422.6162236294375
 20
624.2409707903391
 30
0.0
  0
VERTEX
  5
4EB
330
453
100
AcDbEntity
  8
Make2D$可见线$普通线
100
AcDbVertex
100
AcDb2dVertex
 10
422.2852261492816
 20
624.1669567796823
 30
0.0
  0
VERTEX
  5
4EC
330
453
100
AcDbEntity
  8
Make2D$可见线$普通线
100
AcDbVertex
100
AcDb2dVertex
 10
421.9753983655214
 20
624.0901862845917
 30
0.0
  0
VERTEX
  5
4ED
330
453
100
AcDbEntity
  8
Make2D$可见线$普通线
100
AcDbVertex
100
AcDb2dVertex
 10
421.6873202380988
 20
624.0108651276689
 30
0.0
  0
VERTEX
  5
4EE
330
453
100
AcDbEntity
  8
Make2D$可见线$普通线
100
AcDbVertex
100
AcDb2dVertex
 10
421.4215717269559
 20
623.9291991315151
 30
0.0
  0
VERTEX
  5
4EF
330
453
100
AcDbEntity
  8
Make2D$可见线$普通线
100
AcDbVertex
100
AcDb2dVertex
 10
421.2972523149712
 20
623.8875511382897
 30
0.0
  0
VERTEX
  5
4F0
330
453
100
AcDbEntity
  8
Make2D$可见线$普通线
100
AcDbVertex
100
AcDb2dVertex
 10
421.1787327920347
 20
623.8453941187321
 30
0.0
  0
VERTEX
  5
4F1
330
453
100
AcDbEntity
  8
Make2D$可见线$普通线
100
AcDbVertex
100
AcDb2dVertex
 10
421.0660856531391
 20
623.8027538006675
 30
0.0
  0
VERTEX
  5
4F2
330
453
100
AcDbEntity
  8
Make2D$可见线$普通线
100
AcDbVertex
100
AcDb2dVertex
 10
420.9593833932772
 20
623.7596559119211
 30
0.0
  0
VERTEX
  5
4F3
330
453
100
AcDbEntity
  8
Make2D$可见线$普通线
100
AcDbVertex
100
AcDb2dVertex
 10
420.8586985074417
 20
623.716126180318
 30
0.0
  0
VERTEX
  5
4F4
330
453
100
AcDbEntity
  8
Make2D$可见线$普通线
100
AcDbVertex
100
AcDb2dVertex
 10
420.7641034906253
 20
623.6721903336835
 30
0.0
  0
VERTEX
  5
4F5
330
453
100
AcDbEntity
  8
Make2D$可见线$普通线
100
AcDbVertex
100
AcDb2dVertex
 10
420.6756708378209
 20
623.6278740998426
 30
0.0
  0
VERTEX
  5
4F6
330
453
100
AcDbEntity
  8
Make2D$可见线$普通线
100
AcDbVertex
100
AcDb2dVertex
 10
420.6337880526083
 20
623.6055813776652
 30
0.0
  0
VERTEX
  5
4F7
330
453
100
AcDbEntity
  8
Make2D$可见线$普通线
100
AcDbVertex
100
AcDb2dVertex
 10
420.593473044021
 20
623.5832032066207
 30
0.0
  0
VERTEX
  5
4F8
330
453
100
AcDbEntity
  8
Make2D$可见线$普通线
100
AcDbVertex
100
AcDb2dVertex
 10
420.5547348739331
 20
623.5607428026874
 30
0.0
  0
VERTEX
  5
4F9
330
453
100
AcDbEntity
  8
Make2D$可见线$普通线
100
AcDbVertex
100
AcDb2dVertex
 10
420.5175826042187
 20
623.538203381843
 30
0.0
  0
VERTEX
  5
4FA
330
453
100
AcDbEntity
  8
Make2D$可见线$普通线
100
AcDbVertex
100
AcDb2dVertex
 10
420.4820252967517
 20
623.515588160066
 30
0.0
  0
VERTEX
  5
4FB
330
453
100
AcDbEntity
  8
Make2D$可见线$普通线
100
AcDbVertex
100
AcDb2dVertex
 10
420.4480720134064
 20
623.4929003533343
 30
0.0
  0
VERTEX
  5
4FC
330
453
100
AcDbEntity
  8
Make2D$可见线$普通线
100
AcDbVertex
100
AcDb2dVertex
 10
420.4157318160568
 20
623.4701431776264
 30
0.0
  0
VERTEX
  5
4FD
330
453
100
AcDbEntity
  8
Make2D$可见线$普通线
100
AcDbVertex
100
AcDb2dVertex
 10
420.3850137665771
 20
623.4473198489203
 30
0.0
  0
VERTEX
  5
4FE
330
453
100
AcDbEntity
  8
Make2D$可见线$普通线
100
AcDbVertex
100
AcDb2dVertex
 10
420.3559269268412
 20
623.4244335831941
 30
0.0
  0
VERTEX
  5
4FF
330
453
100
AcDbEntity
  8
Make2D$可见线$普通线
100
AcDbVertex
100
AcDb2dVertex
 10
420.3284803587234
 20
623.4014875964258
 30
0.0
  0
VERTEX
  5
500
330
453
100
AcDbEntity
  8
Make2D$可见线$普通线
100
AcDbVertex
100
AcDb2dVertex
 10
420.3026831240977
 20
623.3784851045937
 30
0.0
  0
VERTEX
  5
501
330
453
100
AcDbEntity
  8
Make2D$可见线$普通线
100
AcDbVertex
100
AcDb2dVertex
 10
420.29040583868
 20
623.366963674272
 30
0.0
  0
VERTEX
  5
502
330
453
100
AcDbEntity
  8
Make2D$可见线$普通线
100
AcDbVertex
100
AcDb2dVertex
 10
420.2785442848382
 20
623.355429323676
 30
0.0
  0
VERTEX
  5
503
330
453
100
AcDbEntity
  8
Make2D$可见线$普通线
100
AcDbVertex
100
AcDb2dVertex
 10
420.2670995953064
 20
623.3438824548032
 30
0.0
  0
VERTEX
  5
504
330
453
100
AcDbEntity
  8
Make2D$可见线$普通线
100
AcDbVertex
100
AcDb2dVertex
 10
420.2560729028189
 20
623.3323234696509
 30
0.0
  0
VERTEX
  5
505
330
453
100
AcDbEntity
  8
Make2D$可见线$普通线
100
AcDbVertex
100
AcDb2dVertex
 10
420.2454653401101
 20
623.3207527702161
 30
0.0
  0
VERTEX
  5
506
330
453
100
AcDbEntity
  8
Make2D$可见线$普通线
100
AcDbVertex
100
AcDb2dVertex
 10
420.2352780399141
 20
623.3091707584964
 30
0.0
  0
VERTEX
  5
507
330
453
100
AcDbEntity
  8
Make2D$可见线$普通线
100
AcDbVertex
100
AcDb2dVertex
 10
420.2255121349652
 20
623.2975778364888
 30
0.0
  0
VERTEX
  5
508
330
453
100
AcDbEntity
  8
Make2D$可见线$普通线
100
AcDbVertex
100
AcDb2dVertex
 10
420.2161687579977
 20
623.2859744061907
 30
0.0
  0
VERTEX
  5
509
330
453
100
AcDbEntity
  8
Make2D$可见线$普通线
100
AcDbVertex
100
AcDb2dVertex
 10
420.2072490417459
 20
623.2743608695993
 30
0.0
  0
VERTEX
  5
50A
330
453
100
AcDbEntity
  8
Make2D$可见线$普通线
100
AcDbVertex
100
AcDb2dVertex
 10
420.1987541189439
 20
623.2627376287119
 30
0.0
  0
VERTEX
  5
50B
330
453
100
AcDbEntity
  8
Make2D$可见线$普通线
100
AcDbVertex
100
AcDb2dVertex
 10
420.1906851223261
 20
623.2511050855258
 30
0.0
  0
VERTEX
  5
50C
330
453
100
AcDbEntity
  8
Make2D$可见线$普通线
100
AcDbVertex
100
AcDb2dVertex
 10
420.1830431846267
 20
623.2394636420382
 30
0.0
  0
VERTEX
  5
50D
330
453
100
AcDbEntity
  8
Make2D$可见线$普通线
100
AcDbVertex
100
AcDb2dVertex
 10
420.17582943858
 20
623.2278137002463
 30
0.0
  0
VERTEX
  5
50E
330
453
100
AcDbEntity
  8
Make2D$可见线$普通线
100
AcDbVertex
100
AcDb2dVertex
 10
420.1690450169203
 20
623.2161556621477
 30
0.0
  0
VERTEX
  5
50F
330
453
100
AcDbEntity
  8
Make2D$可见线$普通线
100
AcDbVertex
100
AcDb2dVertex
 10
420.1626910523818
 20
623.2044899297392
 30
0.0
  0
VERTEX
  5
510
330
453
100
AcDbEntity
  8
Make2D$可见线$普通线
100
AcDbVertex
100
AcDb2dVertex
 10
420.1567686776988
 20
623.1928169050185
 30
0.0
  0
VERTEX
  5
511
330
453
100
AcDbEntity
  8
Make2D$可见线$普通线
100
AcDbVertex
100
AcDb2dVertex
 10
420.1512790256054
 20
623.1811369899826
 30
0.0
  0
VERTEX
  5
512
330
453
100
AcDbEntity
  8
Make2D$可见线$普通线
100
AcDbVertex
100
AcDb2dVertex
 10
420.1462232288362
 20
623.169450586629
 30
0.0
  0
VERTEX
  5
513
330
453
100
AcDbEntity
  8
Make2D$可见线$普通线
100
AcDbVertex
100
AcDb2dVertex
 10
420.1416024201251
 20
623.1577580969547
 30
0.0
  0
VERTEX
  5
514
330
453
100
AcDbEntity
  8
Make2D$可见线$普通线
100
AcDbVertex
100
AcDb2dVertex
 10
420.1374177322066
 20
623.1460599229571
 30
0.0
  0
VERTEX
  5
515
330
453
100
AcDbEntity
  8
Make2D$可见线$普通线
100
AcDbVertex
100
AcDb2dVertex
 10
420.1336702978149
 20
623.1343564666334
 30
0.0
  0
VERTEX
  5
516
330
453
100
AcDbEntity
  8
Make2D$可见线$普通线
100
AcDbVertex
100
AcDb2dVertex
 10
420.1303612496842
 20
623.122648129981
 30
0.0
  0
VERTEX
  5
517
330
453
100
AcDbEntity
  8
Make2D$可见线$普通线
100
AcDbVertex
100
AcDb2dVertex
 10
420.1288714744462
 20
623.1167922571556
 30
0.0
  0
VERTEX
  5
518
330
453
100
AcDbEntity
  8
Make2D$可见线$普通线
100
AcDbVertex
100
AcDb2dVertex
 10
420.1274917205488
 20
623.110935314997
 30
0.0
  0
VERTEX
  5
519
330
453
100
AcDbEntity
  8
Make2D$可见线$普通线
100
AcDbVertex
100
AcDb2dVertex
 10
420.1262221295838
 20
623.1050773537548
 30
0.0
  0
VERTEX
  5
51A
330
453
100
AcDbEntity
  8
Make2D$可见线$普通线
100
AcDbVertex
100
AcDb2dVertex
 10
420.125062843143
 20
623.0992184236788
 30
0.0
  0
VERTEX
  5
51B
330
453
100
AcDbEntity
  8
Make2D$可见线$普通线
100
AcDbVertex
100
AcDb2dVertex
 10
420.1240140028182
 20
623.0933585750187
 30
0.0
  0
VERTEX
  5
51C
330
453
100
AcDbEntity
  8
Make2D$可见线$普通线
100
AcDbVertex
100
AcDb2dVertex
 10
420.1230757502011
 20
623.0874978580239
 30
0.0
  0
VERTEX
  5
51D
330
453
100
AcDbEntity
  8
Make2D$可见线$普通线
100
AcDbVertex
100
AcDb2dVertex
 10
420.1222482268835
 20
623.0816363229441
 30
0.0
  0
VERTEX
  5
51E
330
453
100
AcDbEntity
  8
Make2D$可见线$普通线
100
AcDbVertex
100
AcDb2dVertex
 10
420.1215315744572
 20
623.075774020029
 30
0.0
  0
VERTEX
  5
51F
330
453
100
AcDbEntity
  8
Make2D$可见线$普通线
100
AcDbVertex
100
AcDb2dVertex
 10
420.1209259345139
 20
623.0699109995284
 30
0.0
  0
VERTEX
  5
520
330
453
100
AcDbEntity
  8
Make2D$可见线$普通线
100
AcDbVertex
100
AcDb2dVertex
 10
420.1204314486455
 20
623.0640473116918
 30
0.0
  0
VERTEX
  5
521
330
453
100
AcDbEntity
  8
Make2D$可见线$普通线
100
AcDbVertex
100
AcDb2dVertex
 10
420.1200482584439
 20
623.0581830067688
 30
0.0
  0
VERTEX
  5
522
330
453
100
AcDbEntity
  8
Make2D$可见线$普通线
100
AcDbVertex
100
AcDb2dVertex
 10
420.1197765055007
 20
623.0523181350093
 30
0.0
  0
VERTEX
  5
523
330
453
100
AcDbEntity
  8
Make2D$可见线$普通线
100
AcDbVertex
100
AcDb2dVertex
 10
420.1196163314077
 20
623.0464527466627
 30
0.0
  0
VERTEX
  5
524
330
453
100
AcDbEntity
  8
Make2D$可见线$普通线
100
AcDbVertex
100
AcDb2dVertex
 10
420.1195678777566
 20
623.0405868919788
 30
0.0
  0
VERTEX
  5
525
330
453
100
AcDbEntity
  8
Make2D$可见线$普通线
100
AcDbVertex
100
AcDb2dVertex
 10
420.1196312861394
 20
623.0347206212073
 30
0.0
  0
VERTEX
  5
526
330
453
100
AcDbEntity
  8
Make2D$可见线$普通线
100
AcDbVertex
100
AcDb2dVertex
 10
420.1198066981477
 20
623.0288539845978
 30
0.0
  0
VERTEX
  5
527
330
453
100
AcDbEntity
  8
Make2D$可见线$普通线
100
AcDbVertex
100
AcDb2dVertex
 10
420.1196312861368
 20
623.0229873479888
 30
0.0
  0
VERTEX
  5
528
330
453
100
AcDbEntity
  8
Make2D$可见线$普通线
100
AcDbVertex
100
AcDb2dVertex
 10
420.1195678777516
 20
623.0171210772177
 30
0.0
  0
VERTEX
  5
529
330
453
100
AcDbEntity
  8
Make2D$可见线$普通线
100
AcDbVertex
100
AcDb2dVertex
 10
420.1196163314002
 20
623.0112552225341
 30
0.0
  0
VERTEX
  5
52A
330
453
100
AcDbEntity
  8
Make2D$可见线$普通线
100
AcDbVertex
100
AcDb2dVertex
 10
420.1197765054909
 20
623.005389834188
 30
0.0
  0
VERTEX
  5
52B
330
453
100
AcDbEntity
  8
Make2D$可见线$普通线
100
AcDbVertex
100
AcDb2dVertex
 10
420.1200482584319
 20
622.999524962429
 30
0.0
  0
VERTEX
  5
52C
330
453
100
AcDbEntity
  8
Make2D$可见线$普通线
100
AcDbVertex
100
AcDb2dVertex
 10
420.1204314486314
 20
622.9936606575063
 30
0.0
  0
VERTEX
  5
52D
330
453
100
AcDbEntity
  8
Make2D$可见线$普通线
100
AcDbVertex
100
AcDb2dVertex
 10
420.1209259344976
 20
622.9877969696702
 30
0.0
  0
VERTEX
  5
52E
330
453
100
AcDbEntity
  8
Make2D$可见线$普通线
100
AcDbVertex
100
AcDb2dVertex
 10
420.1215315744387
 20
622.9819339491698
 30
0.0
  0
VERTEX
  5
52F
330
453
100
AcDbEntity
  8
Make2D$可见线$普通线
100
AcDbVertex
100
AcDb2dVertex
 10
420.122248226863
 20
622.9760716462551
 30
0.0
  0
VERTEX
  5
530
330
453
100
AcDbEntity
  8
Make2D$可见线$普通线
100
AcDbVertex
100
AcDb2dVertex
 10
420.1230757501785
 20
622.9702101111757
 30
0.0
  0
VERTEX
  5
531
330
453
100
AcDbEntity
  8
Make2D$可见线$普通线
100
AcDbVertex
100
AcDb2dVertex
 10
420.1240140027937
 20
622.9643493941811
 30
0.0
  0
VERTEX
  5
532
330
453
100
AcDbEntity
  8
Make2D$可见线$普通线
100
AcDbVertex
100
AcDb2dVertex
 10
420.1250628431167
 20
622.9584895455212
 30
0.0
  0
VERTEX
  5
533
330
453
100
AcDbEntity
  8
Make2D$可见线$普通线
100
AcDbVertex
100
AcDb2dVertex
 10
420.1262221295557
 20
622.9526306154455
 30
0.0
  0
VERTEX
  5
534
330
453
100
AcDbEntity
  8
Make2D$可见线$普通线
100
AcDbVertex
100
AcDb2dVertex
 10
420.1274917205189
 20
622.9467726542035
 30
0.0
  0
VERTEX
  5
535
330
453
100
AcDbEntity
  8
Make2D$可见线$普通线
100
AcDbVertex
100
AcDb2dVertex
 10
420.1288714744145
 20
622.9409157120452
 30
0.0
  0
VERTEX
  5
536
330
453
100
AcDbEntity
  8
Make2D$可见线$普通线
100
AcDbVertex
100
AcDb2dVertex
 10
420.1303612496508
 20
622.9350598392202
 30
0.0
  0
VERTEX
  5
537
330
453
100
AcDbEntity
  8
Make2D$可见线$普通线
100
AcDbVertex
100
AcDb2dVertex
 10
420.1336702977783
 20
622.9233515025685
 30
0.0
  0
VERTEX
  5
538
330
453
100
AcDbEntity
  8
Make2D$可见线$普通线
100
AcDbVertex
100
AcDb2dVertex
 10
420.137417732167
 20
622.9116480462452
 30
0.0
  0
VERTEX
  5
539
330
453
100
AcDbEntity
  8
Make2D$可见线$普通线
100
AcDbVertex
100
AcDb2dVertex
 10
420.1416024200828
 20
622.899949872248
 30
0.0
  0
VERTEX
  5
53A
330
453
100
AcDbEntity
  8
Make2D$可见线$普通线
100
AcDbVertex
100
AcDb2dVertex
 10
420.1462232287912
 20
622.8882573825741
 30
0.0
  0
VERTEX
  5
53B
330
453
100
AcDbEntity
  8
Make2D$可见线$普通线
100
AcDbVertex
100
AcDb2dVertex
 10
420.1512790255581
 20
622.8765709792208
 30
0.0
  0
VERTEX
  5
53C
330
453
100
AcDbEntity
  8
Make2D$可见线$普通线
100
AcDbVertex
100
AcDb2dVertex
 10
420.1567686776492
 20
622.8648910641853
 30
0.0
  0
VERTEX
  5
53D
330
453
100
AcDbEntity
  8
Make2D$可见线$普通线
100
AcDbVertex
100
AcDb2dVertex
 10
420.1626910523303
 20
622.8532180394649
 30
0.0
  0
VERTEX
  5
53E
330
453
100
AcDbEntity
  8
Make2D$可见线$普通线
100
AcDbVertex
100
AcDb2dVertex
 10
420.1690450168669
 20
622.8415523070568
 30
0.0
  0
VERTEX
  5
53F
330
453
100
AcDbEntity
  8
Make2D$可见线$普通线
100
AcDbVertex
100
AcDb2dVertex
 10
420.1758294385251
 20
622.8298942689582
 30
0.0
  0
VERTEX
  5
540
330
453
100
AcDbEntity
  8
Make2D$可见线$普通线
100
AcDbVertex
100
AcDb2dVertex
 10
420.1830431845702
 20
622.8182443271667
 30
0.0
  0
VERTEX
  5
541
330
453
100
AcDbEntity
  8
Make2D$可见线$普通线
100
AcDbVertex
100
AcDb2dVertex
 10
420.1906851222683
 20
622.8066028836794
 30
0.0
  0
VERTEX
  5
542
330
453
100
AcDbEntity
  8
Make2D$可见线$普通线
100
AcDbVertex
100
AcDb2dVertex
 10
420.1987541188849
 20
622.7949703404934
 30
0.0
  0
VERTEX
  5
543
330
453
100
AcDbEntity
  8
Make2D$可见线$普通线
100
AcDbVertex
100
AcDb2dVertex
 10
420.2072490416859
 20
622.7833470996061
 30
0.0
  0
VERTEX
  5
544
330
453
100
AcDbEntity
  8
Make2D$可见线$普通线
100
AcDbVertex
100
AcDb2dVertex
 10
420.216168757937
 20
622.7717335630148
 30
0.0
  0
VERTEX
  5
545
330
453
100
AcDbEntity
  8
Make2D$可见线$普通线
100
AcDbVertex
100
AcDb2dVertex
 10
420.2255121349039
 20
622.7601301327167
 30
0.0
  0
VERTEX
  5
546
330
453
100
AcDbEntity
  8
Make2D$可见线$普通线
100
AcDbVertex
100
AcDb2dVertex
 10
420.2352780398523
 20
622.7485372107092
 30
0.0
  0
VERTEX
  5
547
330
453
100
AcDbEntity
  8
Make2D$可见线$普通线
100
AcDbVertex
100
AcDb2dVertex
 10
420.245465340048
 20
622.7369551989894
 30
0.0
  0
VERTEX
  5
548
330
453
100
AcDbEntity
  8
Make2D$可见线$普通线
100
AcDbVertex
100
AcDb2dVertex
 10
420.2560729027567
 20
622.7253844995546
 30
0.0
  0
VERTEX
  5
549
330
453
100
AcDbEntity
  8
Make2D$可见线$普通线
100
AcDbVertex
100
AcDb2dVertex
 10
420.2670995952442
 20
622.7138255144023
 30
0.0
  0
VERTEX
  5
54A
330
453
100
AcDbEntity
  8
Make2D$可见线$普通线
100
AcDbVertex
100
AcDb2dVertex
 10
420.2785442847761
 20
622.7022786455294
 30
0.0
  0
VERTEX
  5
54B
330
453
100
AcDbEntity
  8
Make2D$可见线$普通线
100
AcDbVertex
100
AcDb2dVertex
 10
420.2904058386183
 20
622.6907442949334
 30
0.0
  0
VERTEX
  5
54C
330
453
100
AcDbEntity
  8
Make2D$可见线$普通线
100
AcDbVertex
100
AcDb2dVertex
 10
420.3026831240364
 20
622.6792228646116
 30
0.0
  0
VERTEX
  5
54D
330
453
100
AcDbEntity
  8
Make2D$可见线$普通线
100
AcDbVertex
100
AcDb2dVertex
 10
420.3284803586635
 20
622.6562203727792
 30
0.0
  0
VERTEX
  5
54E
330
453
100
AcDbEntity
  8
Make2D$可见线$普通线
100
AcDbVertex
100
AcDb2dVertex
 10
420.3559269267831
 20
622.6332743860107
 30
0.0
  0
VERTEX
  5
54F
330
453
100
AcDbEntity
  8
Make2D$可见线$普通线
100
AcDbVertex
100
AcDb2dVertex
 10
420.3850137665214
 20
622.6103881202839
 30
0.0
  0
VERTEX
  5
550
330
453
100
AcDbEntity
  8
Make2D$可见线$普通线
100
AcDbVertex
100
AcDb2dVertex
 10
420.4157318160039
 20
622.5875647915772
 30
0.0
  0
VERTEX
  5
551
330
453
100
AcDbEntity
  8
Make2D$可见线$普通线
100
AcDbVertex
100
AcDb2dVertex
 10
420.4480720133569
 20
622.5648076158686
 30
0.0
  0
VERTEX
  5
552
330
453
100
AcDbEntity
  8
Make2D$可见线$普通线
100
AcDbVertex
100
AcDb2dVertex
 10
420.4820252967059
 20
622.5421198091365
 30
0.0
  0
VERTEX
  5
553
330
453
100
AcDbEntity
  8
Make2D$可见线$普通线
100
AcDbVertex
100
AcDb2dVertex
 10
420.5175826041771
 20
622.5195045873586
 30
0.0
  0
VERTEX
  5
554
330
453
100
AcDbEntity
  8
Make2D$可见线$普通线
100
AcDbVertex
100
AcDb2dVertex
 10
420.5547348738961
 20
622.4969651665135
 30
0.0
  0
VERTEX
  5
555
330
453
100
AcDbEntity
  8
Make2D$可见线$普通线
100
AcDbVertex
100
AcDb2dVertex
 10
420.593473043989
 20
622.474504762579
 30
0.0
  0
VERTEX
  5
556
330
453
100
AcDbEntity
  8
Make2D$可见线$普通线
100
AcDbVertex
100
AcDb2dVertex
 10
420.6337880525816
 20
622.4521265915337
 30
0.0
  0
VERTEX
  5
557
330
453
100
AcDbEntity
  8
Make2D$可见线$普通线
100
AcDbVertex
100
AcDb2dVertex
 10
420.6756708377998
 20
622.4298338693552
 30
0.0
  0
VERTEX
  5
558
330
453
100
AcDbEntity
  8
Make2D$可见线$普通线
100
AcDbVertex
100
AcDb2dVertex
 10
420.7641034906164
 20
622.3855176355121
 30
0.0
  0
VERTEX
  5
559
330
453
100
AcDbEntity
  8
Make2D$可见线$普通线
100
AcDbVertex
100
AcDb2dVertex
 10
420.8586985074459
 20
622.3415817888751
 30
0.0
  0
VERTEX
  5
55A
330
453
100
AcDbEntity
  8
Make2D$可见线$普通线
100
AcDbVertex
100
AcDb2dVertex
 10
420.9593833932954
 20
622.2980520572696
 30
0.0
  0
VERTEX
  5
55B
330
453
100
AcDbEntity
  8
Make2D$可见线$普通线
100
AcDbVertex
100
AcDb2dVertex
 10
421.0660856531719
 20
622.2549541685206
 30
0.0
  0
VERTEX
  5
55C
330
453
100
AcDbEntity
  8
Make2D$可见线$普通线
100
AcDbVertex
100
AcDb2dVertex
 10
421.1787327920825
 20
622.2123138504533
 30
0.0
  0
VERTEX
  5
55D
330
453
100
AcDbEntity
  8
Make2D$可见线$普通线
100
AcDbVertex
100
AcDb2dVertex
 10
421.2972523150343
 20
622.1701568308929
 30
0.0
  0
VERTEX
  5
55E
330
453
100
AcDbEntity
  8
Make2D$可见线$普通线
100
AcDbVertex
100
AcDb2dVertex
 10
421.4215717270342
 20
622.1285088376646
 30
0.0
  0
VERTEX
  5
55F
330
453
100
AcDbEntity
  8
Make2D$可见线$普通线
100
AcDbVertex
100
AcDb2dVertex
 10
421.6873202382071
 20
622.0468428415056
 30
0.0
  0
VERTEX
  5
560
330
453
100
AcDbEntity
  8
Make2D$可见线$普通线
100
AcDbVertex
100
AcDb2dVertex
 10
421.9753983656574
 20
621.9675216845778
 30
0.0
  0
VERTEX
  5
561
330
453
100
AcDbEntity
  8
Make2D$可见线$普通线
100
AcDbVertex
100
AcDb2dVertex
 10
422.2852261494418
 20
621.8907511894829
 30
0.0
  0
VERTEX
  5
562
330
453
100
AcDbEntity
  8
Make2D$可见线$普通线
100
AcDbVertex
100
AcDb2dVertex
 10
422.6162236296166
 20
621.8167371788227
 30
0.0
  0
VERTEX
  5
563
330
453
100
AcDbEntity
  8
Make2D$可见线$普通线
100
AcDbVertex
100
AcDb2dVertex
 10
422.9678108462384
 20
621.7456854751988
 30
0.0
  0
VERTEX
  5
564
330
453
100
AcDbEntity
  8
Make2D$可见线$普通线
100
AcDbVertex
100
AcDb2dVertex
 10
423.3394078393636
 20
621.6778019012128
 30
0.0
  0
VERTEX
  5
565
330
453
100
AcDbEntity
  8
Make2D$可见线$普通线
100
AcDbVertex
100
AcDb2dVertex
 10
424.1395042151123
 20
621.5522222810757
 30
0.0
  0
VERTEX
  5
566
330
453
100
AcDbEntity
  8
Make2D$可见线$普通线
100
AcDbVertex
100
AcDb2dVertex
 10
425.0078375761253
 20
621.4409441417938
 30
0.0
  0
VERTEX
  5
567
330
453
100
AcDbEntity
  8
Make2D$可见线$普通线
100
AcDbVertex
100
AcDb2dVertex
 10
425.9349256414272
 20
621.3447731552637
 30
0.0
  0
VERTEX
  5
568
330
453
100
AcDbEntity
  8
Make2D$可见线$普通线
100
AcDbVertex
100
AcDb2dVertex
 10
426.9112861300428
 20
621.2645149933817
 30
0.0
  0
VERTEX
  5
569
330
453
100
AcDbEntity
  8
Make2D$可见线$普通线
100
AcDbVertex
100
AcDb2dVertex
 10
427.9274367609967
 20
621.200975328044
 30
0.0
  0
VERTEX
  5
56A
330
453
100
AcDbEntity
  8
Make2D$可见线$普通线
100
AcDbVertex
100
AcDb2dVertex
 10
428.9738952533136
 20
621.1549598311473
 30
0.0
  0
VERTEX
  5
56B
330
453
100
AcDbEntity
  8
Make2D$可见线$普通线
100
AcDbVertex
100
AcDb2dVertex
 10
430.0411793260181
 20
621.1272741745877
 30
0.0
  0
VERTEX
  5
56C
330
453
100
AcDbEntity
  8
Make2D$可见线$普通线
100
AcDbVertex
100
AcDb2dVertex
 10
431.1198066981351
 20
621.1187240302615
 30
0.0
  0
SEQEND
  5
56D
330
453
100
AcDbEntity
  8
Make2D$可见线$普通线
  0
POLYLINE
  5
56E
330
1F
100
AcDbEntity
  8
Make2D$可见线$普通线
100
AcDb2dPolyline
 66
     1
 10
0.0
 20
0.0
 30
0.0
  0
VERTEX
  5
56F
330
56E
100
AcDbEntity
  8
Make2D$可见线$普通线
100
AcDbVertex
100
AcDb2dVertex
 10
431.1198066981305
 20
620.4241313195939
 30
0.0
  0
VERTEX
  5
570
330
56E
100
AcDbEntity
  8
Make2D$可见线$普通线
100
AcDbVertex
100
AcDb2dVertex
 10
429.6489511907237
 20
620.4357906073074
 30
0.0
  0
VERTEX
  5
571
330
56E
100
AcDbEntity
  8
Make2D$可见线$普通线
100
AcDbVertex
100
AcDb2dVertex
 10
428.1935638188502
 20
620.4735437753437
 30
0.0
  0
VERTEX
  5
572
330
56E
100
AcDbEntity
  8
Make2D$可见线$普通线
100
AcDbVertex
100
AcDb2dVertex
 10
426.7665749656663
 20
620.5362921802068
 30
0.0
  0
VERTEX
  5
573
330
56E
100
AcDbEntity
  8
Make2D$可见线$普通线
100
AcDbVertex
100
AcDb2dVertex
 10
425.3809150143285
 20
620.6229371784004
 30
0.0
  0
VERTEX
  5
574
330
56E
100
AcDbEntity
  8
Make2D$可见线$普通线
100
AcDbVertex
100
AcDb2dVertex
 10
424.049514347993
 20
620.7323801264279
 30
0.0
  0
VERTEX
  5
575
330
56E
100
AcDbEntity
  8
Make2D$可见线$普通线
100
AcDbVertex
100
AcDb2dVertex
 10
422.7853033498161
 20
620.8635223807931
 30
0.0
  0
VERTEX
  5
576
330
56E
100
AcDbEntity
  8
Make2D$可见线$普通线
100
AcDbVertex
100
AcDb2dVertex
 10
421.601212402954
 20
621.0152652979997
 30
0.0
  0
VERTEX
  5
577
330
56E
100
AcDbEntity
  8
Make2D$可见线$普通线
100
AcDbVertex
100
AcDb2dVertex
 10
420.5101718905632
 20
621.1865102345512
 30
0.0
  0
VERTEX
  5
578
330
56E
100
AcDbEntity
  8
Make2D$可见线$普通线
100
AcDbVertex
100
AcDb2dVertex
 10
420.0034487181263
 20
621.2790787445309
 30
0.0
  0
VERTEX
  5
579
330
56E
100
AcDbEntity
  8
Make2D$可见线$普通线
100
AcDbVertex
100
AcDb2dVertex
 10
419.5240116045636
 20
621.3759674312889
 30
0.0
  0
VERTEX
  5
57A
330
56E
100
AcDbEntity
  8
Make2D$可见线$普通线
100
AcDbVertex
100
AcDb2dVertex
 10
419.0726514043423
 20
621.476895627641
 30
0.0
  0
VERTEX
  5
57B
330
56E
100
AcDbEntity
  8
Make2D$可见线$普通线
100
AcDbVertex
100
AcDb2dVertex
 10
418.6501589719297
 20
621.5815826664036
 30
0.0
  0
VERTEX
  5
57C
330
56E
100
AcDbEntity
  8
Make2D$可见线$普通线
100
AcDbVertex
100
AcDb2dVertex
 10
418.257325161793
 20
621.6897478803925
 30
0.0
  0
VERTEX
  5
57D
330
56E
100
AcDbEntity
  8
Make2D$可见线$普通线
100
AcDbVertex
100
AcDb2dVertex
 10
417.8949408283997
 20
621.8011106024237
 30
0.0
  0
VERTEX
  5
57E
330
56E
100
AcDbEntity
  8
Make2D$可见线$普通线
100
AcDbVertex
100
AcDb2dVertex
 10
417.7254143575028
 20
621.8579033204602
 30
0.0
  0
VERTEX
  5
57F
330
56E
100
AcDbEntity
  8
Make2D$可见线$普通线
100
AcDbVertex
100
AcDb2dVertex
 10
417.563796826217
 20
621.9153901653133
 30
0.0
  0
VERTEX
  5
580
330
56E
100
AcDbEntity
  8
Make2D$可见线$普通线
100
AcDbVertex
100
AcDb2dVertex
 10
417.4101870913505
 20
621.9735360535851
 30
0.0
  0
VERTEX
  5
581
330
56E
100
AcDbEntity
  8
Make2D$可见线$普通线
100
AcDbVertex
100
AcDb2dVertex
 10
417.264684009712
 20
622.0323059018774
 30
0.0
  0
VERTEX
  5
582
330
56E
100
AcDbEntity
  8
Make2D$可见线$普通线
100
AcDbVertex
100
AcDb2dVertex
 10
417.1273864381098
 20
622.0916646267924
 30
0.0
  0
VERTEX
  5
583
330
56E
100
AcDbEntity
  8
Make2D$可见线$普通线
100
AcDbVertex
100
AcDb2dVertex
 10
416.9983932333522
 20
622.1515771449322
 30
0.0
  0
VERTEX
  5
584
330
56E
100
AcDbEntity
  8
Make2D$可见线$普通线
100
AcDbVertex
100
AcDb2dVertex
 10
416.8778032522477
 20
622.2120083728985
 30
0.0
  0
VERTEX
  5
585
330
56E
100
AcDbEntity
  8
Make2D$可见线$普通线
100
AcDbVertex
100
AcDb2dVertex
 10
416.820690363318
 20
622.2424075395047
 30
0.0
  0
VERTEX
  5
586
330
56E
100
AcDbEntity
  8
Make2D$可见线$普通线
100
AcDbVertex
100
AcDb2dVertex
 10
416.7657153516047
 20
622.2729232272934
 30
0.0
  0
VERTEX
  5
587
330
56E
100
AcDbEntity
  8
Make2D$可见线$普通线
100
AcDbVertex
100
AcDb2dVertex
 10
416.7128905742089
 20
622.3035510508397
 30
0.0
  0
VERTEX
  5
588
330
56E
100
AcDbEntity
  8
Make2D$可见线$普通线
100
AcDbVertex
100
AcDb2dVertex
 10
416.6622283882317
 20
622.334286624719
 30
0.0
  0
VERTEX
  5
589
330
56E
100
AcDbEntity
  8
Make2D$可见线$普通线
100
AcDbVertex
100
AcDb2dVertex
 10
416.613741150774
 20
622.3651255635065
 30
0.0
  0
VERTEX
  5
58A
330
56E
100
AcDbEntity
  8
Make2D$可见线$普通线
100
AcDbVertex
100
AcDb2dVertex
 10
416.5674412189369
 20
622.3960634817773
 30
0.0
  0
VERTEX
  5
58B
330
56E
100
AcDbEntity
  8
Make2D$可见线$普通线
100
AcDbVertex
100
AcDb2dVertex
 10
416.5233409498215
 20
622.4270959941068
 30
0.0
  0
VERTEX
  5
58C
330
56E
100
AcDbEntity
  8
Make2D$可见线$普通线
100
AcDbVertex
100
AcDb2dVertex
 10
416.4814527005289
 20
622.4582187150703
 30
0.0
  0
VERTEX
  5
58D
330
56E
100
AcDbEntity
  8
Make2D$可见线$普通线
100
AcDbVertex
100
AcDb2dVertex
 10
416.44178882816
 20
622.4894272592429
 30
0.0
  0
VERTEX
  5
58E
330
56E
100
AcDbEntity
  8
Make2D$可见线$普通线
100
AcDbVertex
100
AcDb2dVertex
 10
416.404361689816
 20
622.5207172411999
 30
0.0
  0
VERTEX
  5
58F
330
56E
100
AcDbEntity
  8
Make2D$可见线$普通线
100
AcDbVertex
100
AcDb2dVertex
 10
416.3691836425979
 20
622.5520842755166
 30
0.0
  0
VERTEX
  5
590
330
56E
100
AcDbEntity
  8
Make2D$可见线$普通线
100
AcDbVertex
100
AcDb2dVertex
 10
416.3524418897551
 20
622.5677953168647
 30
0.0
  0
VERTEX
  5
591
330
56E
100
AcDbEntity
  8
Make2D$可见线$普通线
100
AcDbVertex
100
AcDb2dVertex
 10
416.3362670436068
 20
622.5835239767682
 30
0.0
  0
VERTEX
  5
592
330
56E
100
AcDbEntity
  8
Make2D$可见线$普通线
100
AcDbVertex
100
AcDb2dVertex
 10
416.3206606487904
 20
622.5992697070494
 30
0.0
  0
VERTEX
  5
593
330
56E
100
AcDbEntity
  8
Make2D$可见线$普通线
100
AcDbVertex
100
AcDb2dVertex
 10
416.3056242499435
 20
622.6150319595301
 30
0.0
  0
VERTEX
  5
594
330
56E
100
AcDbEntity
  8
Make2D$可见线$普通线
100
AcDbVertex
100
AcDb2dVertex
 10
416.291159391704
 20
622.630810186032
 30
0.0
  0
VERTEX
  5
595
330
56E
100
AcDbEntity
  8
Make2D$可见线$普通线
100
AcDbVertex
100
AcDb2dVertex
 10
416.2772676187094
 20
622.6466038383772
 30
0.0
  0
VERTEX
  5
596
330
56E
100
AcDbEntity
  8
Make2D$可见线$普通线
100
AcDbVertex
100
AcDb2dVertex
 10
416.2639504755973
 20
622.6624123683877
 30
0.0
  0
VERTEX
  5
597
330
56E
100
AcDbEntity
  8
Make2D$可见线$普通线
100
AcDbVertex
100
AcDb2dVertex
 10
416.2512095070054
 20
622.6782352278851
 30
0.0
  0
VERTEX
  5
598
330
56E
100
AcDbEntity
  8
Make2D$可见线$普通线
100
AcDbVertex
100
AcDb2dVertex
 10
416.2390462575712
 20
622.6940718686916
 30
0.0
  0
VERTEX
  5
599
330
56E
100
AcDbEntity
  8
Make2D$可见线$普通线
100
AcDbVertex
100
AcDb2dVertex
 10
416.2274622719324
 20
622.7099217426289
 30
0.0
  0
VERTEX
  5
59A
330
56E
100
AcDbEntity
  8
Make2D$可见线$普通线
100
AcDbVertex
100
AcDb2dVertex
 10
416.2164590947268
 20
622.7257843015191
 30
0.0
  0
VERTEX
  5
59B
330
56E
100
AcDbEntity
  8
Make2D$可见线$普通线
100
AcDbVertex
100
AcDb2dVertex
 10
416.2060382705918
 20
622.741658997184
 30
0.0
  0
VERTEX
  5
59C
330
56E
100
AcDbEntity
  8
Make2D$可见线$普通线
100
AcDbVertex
100
AcDb2dVertex
 10
416.196201344165
 20
622.7575452814453
 30
0.0
  0
VERTEX
  5
59D
330
56E
100
AcDbEntity
  8
Make2D$可见线$普通线
100
AcDbVertex
100
AcDb2dVertex
 10
416.1869498600843
 20
622.7734426061253
 30
0.0
  0
VERTEX
  5
59E
330
56E
100
AcDbEntity
  8
Make2D$可见线$普通线
100
AcDbVertex
100
AcDb2dVertex
 10
416.1782853629871
 20
622.7893504230457
 30
0.0
  0
VERTEX
  5
59F
330
56E
100
AcDbEntity
  8
Make2D$可见线$普通线
100
AcDbVertex
100
AcDb2dVertex
 10
416.1702093975111
 20
622.8052681840284
 30
0.0
  0
VERTEX
  5
5A0
330
56E
100
AcDbEntity
  8
Make2D$可见线$普通线
100
AcDbVertex
100
AcDb2dVertex
 10
416.162723508294
 20
622.8211953408953
 30
0.0
  0
VERTEX
  5
5A1
330
56E
100
AcDbEntity
  8
Make2D$可见线$普通线
100
AcDbVertex
100
AcDb2dVertex
 10
416.1558292399733
 20
622.8371313454684
 30
0.0
  0
VERTEX
  5
5A2
330
56E
100
AcDbEntity
  8
Make2D$可见线$普通线
100
AcDbVertex
100
AcDb2dVertex
 10
416.1495281371867
 20
622.8530756495695
 30
0.0
  0
VERTEX
  5
5A3
330
56E
100
AcDbEntity
  8
Make2D$可见线$普通线
100
AcDbVertex
100
AcDb2dVertex
 10
416.1438217445719
 20
622.8690277050205
 30
0.0
  0
VERTEX
  5
5A4
330
56E
100
AcDbEntity
  8
Make2D$可见线$普通线
100
AcDbVertex
100
AcDb2dVertex
 10
416.1387116067664
 20
622.8849869636435
 30
0.0
  0
VERTEX
  5
5A5
330
56E
100
AcDbEntity
  8
Make2D$可见线$普通线
100
AcDbVertex
100
AcDb2dVertex
 10
416.1341992684079
 20
622.9009528772601
 30
0.0
  0
VERTEX
  5
5A6
330
56E
100
AcDbEntity
  8
Make2D$可见线$普通线
100
AcDbVertex
100
AcDb2dVertex
 10
416.1321677567206
 20
622.9089381583855
 30
0.0
  0
VERTEX
  5
5A7
330
56E
100
AcDbEntity
  8
Make2D$可见线$普通线
100
AcDbVertex
100
AcDb2dVertex
 10
416.1302862741341
 20
622.9169248976924
 30
0.0
  0
VERTEX
  5
5A8
330
56E
100
AcDbEntity
  8
Make2D$可见线$普通线
100
AcDbVertex
100
AcDb2dVertex
 10
416.1285550137281
 20
622.9249130266588
 30
0.0
  0
VERTEX
  5
5A9
330
56E
100
AcDbEntity
  8
Make2D$可见线$普通线
100
AcDbVertex
100
AcDb2dVertex
 10
416.1269741685825
 20
622.9329024767624
 30
0.0
  0
VERTEX
  5
5AA
330
56E
100
AcDbEntity
  8
Make2D$可见线$普通线
100
AcDbVertex
100
AcDb2dVertex
 10
416.1255439317767
 20
622.9408931794808
 30
0.0
  0
VERTEX
  5
5AB
330
56E
100
AcDbEntity
  8
Make2D$可见线$普通线
100
AcDbVertex
100
AcDb2dVertex
 10
416.1242644963908
 20
622.948885066292
 30
0.0
  0
VERTEX
  5
5AC
330
56E
100
AcDbEntity
  8
Make2D$可见线$普通线
100
AcDbVertex
100
AcDb2dVertex
 10
416.1231360555041
 20
622.9568780686732
 30
0.0
  0
VERTEX
  5
5AD
330
56E
100
AcDbEntity
  8
Make2D$可见线$普通线
100
AcDbVertex
100
AcDb2dVertex
 10
416.1221588021966
 20
622.9648721181027
 30
0.0
  0
VERTEX
  5
5AE
330
56E
100
AcDbEntity
  8
Make2D$可见线$普通线
100
AcDbVertex
100
AcDb2dVertex
 10
416.1213329295478
 20
622.972867146058
 30
0.0
  0
VERTEX
  5
5AF
330
56E
100
AcDbEntity
  8
Make2D$可见线$普通线
100
AcDbVertex
100
AcDb2dVertex
 10
416.1206586306375
 20
622.9808630840167
 30
0.0
  0
VERTEX
  5
5B0
330
56E
100
AcDbEntity
  8
Make2D$可见线$普通线
100
AcDbVertex
100
AcDb2dVertex
 10
416.1201360985455
 20
622.9888598634568
 30
0.0
  0
VERTEX
  5
5B1
330
56E
100
AcDbEntity
  8
Make2D$可见线$普通线
100
AcDbVertex
100
AcDb2dVertex
 10
416.1197655263513
 20
622.9968574158561
 30
0.0
  0
VERTEX
  5
5B2
330
56E
100
AcDbEntity
  8
Make2D$可见线$普通线
100
AcDbVertex
100
AcDb2dVertex
 10
416.1195471071347
 20
623.004855672692
 30
0.0
  0
VERTEX
  5
5B3
330
56E
100
AcDbEntity
  8
Make2D$可见线$普通线
100
AcDbVertex
100
AcDb2dVertex
 10
416.1194810339755
 20
623.0128545654425
 30
0.0
  0
VERTEX
  5
5B4
330
56E
100
AcDbEntity
  8
Make2D$可见线$普通线
100
AcDbVertex
100
AcDb2dVertex
 10
416.1195674999533
 20
623.0208540255852
 30
0.0
  0
VERTEX
  5
5B5
330
56E
100
AcDbEntity
  8
Make2D$可见线$普通线
100
AcDbVertex
100
AcDb2dVertex
 10
416.1198066981477
 20
623.0288539845978
 30
0.0
  0
VERTEX
  5
5B6
330
56E
100
AcDbEntity
  8
Make2D$可见线$普通线
100
AcDbVertex
100
AcDb2dVertex
 10
416.1195674999533
 20
623.0368539436105
 30
0.0
  0
VERTEX
  5
5B7
330
56E
100
AcDbEntity
  8
Make2D$可见线$普通线
100
AcDbVertex
100
AcDb2dVertex
 10
416.1194810339757
 20
623.0448534037532
 30
0.0
  0
VERTEX
  5
5B8
330
56E
100
AcDbEntity
  8
Make2D$可见线$普通线
100
AcDbVertex
100
AcDb2dVertex
 10
416.119547107135
 20
623.0528522965037
 30
0.0
  0
VERTEX
  5
5B9
330
56E
100
AcDbEntity
  8
Make2D$可见线$普通线
100
AcDbVertex
100
AcDb2dVertex
 10
416.1197655263517
 20
623.0608505533396
 30
0.0
  0
VERTEX
  5
5BA
330
56E
100
AcDbEntity
  8
Make2D$可见线$普通线
100
AcDbVertex
100
AcDb2dVertex
 10
416.120136098546
 20
623.0688481057389
 30
0.0
  0
VERTEX
  5
5BB
330
56E
100
AcDbEntity
  8
Make2D$可见线$普通线
100
AcDbVertex
100
AcDb2dVertex
 10
416.1206586306382
 20
623.076844885179
 30
0.0
  0
VERTEX
  5
5BC
330
56E
100
AcDbEntity
  8
Make2D$可见线$普通线
100
AcDbVertex
100
AcDb2dVertex
 10
416.1213329295486
 20
623.0848408231377
 30
0.0
  0
VERTEX
  5
5BD
330
56E
100
AcDbEntity
  8
Make2D$可见线$普通线
100
AcDbVertex
100
AcDb2dVertex
 10
416.1221588021975
 20
623.092835851093
 30
0.0
  0
VERTEX
  5
5BE
330
56E
100
AcDbEntity
  8
Make2D$可见线$普通线
100
AcDbVertex
100
AcDb2dVertex
 10
416.1231360555051
 20
623.1008299005225
 30
0.0
  0
VERTEX
  5
5BF
330
56E
100
AcDbEntity
  8
Make2D$可见线$普通线
100
AcDbVertex
100
AcDb2dVertex
 10
416.1242644963918
 20
623.1088229029037
 30
0.0
  0
VERTEX
  5
5C0
330
56E
100
AcDbEntity
  8
Make2D$可见线$普通线
100
AcDbVertex
100
AcDb2dVertex
 10
416.1255439317779
 20
623.1168147897149
 30
0.0
  0
VERTEX
  5
5C1
330
56E
100
AcDbEntity
  8
Make2D$可见线$普通线
100
AcDbVertex
100
AcDb2dVertex
 10
416.1269741685837
 20
623.1248054924333
 30
0.0
  0
VERTEX
  5
5C2
330
56E
100
AcDbEntity
  8
Make2D$可见线$普通线
100
AcDbVertex
100
AcDb2dVertex
 10
416.1285550137295
 20
623.1327949425369
 30
0.0
  0
VERTEX
  5
5C3
330
56E
100
AcDbEntity
  8
Make2D$可见线$普通线
100
AcDbVertex
100
AcDb2dVertex
 10
416.1302862741356
 20
623.1407830715033
 30
0.0
  0
VERTEX
  5
5C4
330
56E
100
AcDbEntity
  8
Make2D$可见线$普通线
100
AcDbVertex
100
AcDb2dVertex
 10
416.1321677567222
 20
623.1487698108102
 30
0.0
  0
VERTEX
  5
5C5
330
56E
100
AcDbEntity
  8
Make2D$可见线$普通线
100
AcDbVertex
100
AcDb2dVertex
 10
416.1341992684096
 20
623.1567550919356
 30
0.0
  0
VERTEX
  5
5C6
330
56E
100
AcDbEntity
  8
Make2D$可见线$普通线
100
AcDbVertex
100
AcDb2dVertex
 10
416.1387116067683
 20
623.1727210055521
 30
0.0
  0
VERTEX
  5
5C7
330
56E
100
AcDbEntity
  8
Make2D$可见线$普通线
100
AcDbVertex
100
AcDb2dVertex
 10
416.143821744574
 20
623.1886802641752
 30
0.0
  0
VERTEX
  5
5C8
330
56E
100
AcDbEntity
  8
Make2D$可见线$普通线
100
AcDbVertex
100
AcDb2dVertex
 10
416.1495281371891
 20
623.2046323196262
 30
0.0
  0
VERTEX
  5
5C9
330
56E
100
AcDbEntity
  8
Make2D$可见线$普通线
100
AcDbVertex
100
AcDb2dVertex
 10
416.1558292399759
 20
623.2205766237273
 30
0.0
  0
VERTEX
  5
5CA
330
56E
100
AcDbEntity
  8
Make2D$可见线$普通线
100
AcDbVertex
100
AcDb2dVertex
 10
416.1627235082968
 20
623.2365126283004
 30
0.0
  0
VERTEX
  5
5CB
330
56E
100
AcDbEntity
  8
Make2D$可见线$普通线
100
AcDbVertex
100
AcDb2dVertex
 10
416.1702093975141
 20
623.2524397851673
 30
0.0
  0
VERTEX
  5
5CC
330
56E
100
AcDbEntity
  8
Make2D$可见线$普通线
100
AcDbVertex
100
AcDb2dVertex
 10
416.1782853629903
 20
623.26835754615
 30
0.0
  0
VERTEX
  5
5CD
330
56E
100
AcDbEntity
  8
Make2D$可见线$普通线
100
AcDbVertex
100
AcDb2dVertex
 10
416.1869498600877
 20
623.2842653630704
 30
0.0
  0
VERTEX
  5
5CE
330
56E
100
AcDbEntity
  8
Make2D$可见线$普通线
100
AcDbVertex
100
AcDb2dVertex
 10
416.1962013441686
 20
623.3001626877503
 30
0.0
  0
VERTEX
  5
5CF
330
56E
100
AcDbEntity
  8
Make2D$可见线$普通线
100
AcDbVertex
100
AcDb2dVertex
 10
416.2060382705955
 20
623.3160489720117
 30
0.0
  0
VERTEX
  5
5D0
330
56E
100
AcDbEntity
  8
Make2D$可见线$普通线
100
AcDbVertex
100
AcDb2dVertex
 10
416.2164590947307
 20
623.3319236676766
 30
0.0
  0
VERTEX
  5
5D1
330
56E
100
AcDbEntity
  8
Make2D$可见线$普通线
100
AcDbVertex
100
AcDb2dVertex
 10
416.2274622719366
 20
623.3477862265668
 30
0.0
  0
VERTEX
  5
5D2
330
56E
100
AcDbEntity
  8
Make2D$可见线$普通线
100
AcDbVertex
100
AcDb2dVertex
 10
416.2390462575756
 20
623.3636361005041
 30
0.0
  0
VERTEX
  5
5D3
330
56E
100
AcDbEntity
  8
Make2D$可见线$普通线
100
AcDbVertex
100
AcDb2dVertex
 10
416.25120950701
 20
623.3794727413106
 30
0.0
  0
VERTEX
  5
5D4
330
56E
100
AcDbEntity
  8
Make2D$可见线$普通线
100
AcDbVertex
100
AcDb2dVertex
 10
416.2639504756022
 20
623.395295600808
 30
0.0
  0
VERTEX
  5
5D5
330
56E
100
AcDbEntity
  8
Make2D$可见线$普通线
100
AcDbVertex
100
AcDb2dVertex
 10
416.2772676187145
 20
623.4111041308184
 30
0.0
  0
VERTEX
  5
5D6
330
56E
100
AcDbEntity
  8
Make2D$可见线$普通线
100
AcDbVertex
100
AcDb2dVertex
 10
416.2911593917094
 20
623.4268977831637
 30
0.0
  0
VERTEX
  5
5D7
330
56E
100
AcDbEntity
  8
Make2D$可见线$普通线
100
AcDbVertex
100
AcDb2dVertex
 10
416.3056242499491
 20
623.4426760096655
 30
0.0
  0
VERTEX
  5
5D8
330
56E
100
AcDbEntity
  8
Make2D$可见线$普通线
100
AcDbVertex
100
AcDb2dVertex
 10
416.320660648796
 20
623.4584382621463
 30
0.0
  0
VERTEX
  5
5D9
330
56E
100
AcDbEntity
  8
Make2D$可见线$普通线
100
AcDbVertex
100
AcDb2dVertex
 10
416.3362670436127
 20
623.4741839924275
 30
0.0
  0
VERTEX
  5
5DA
330
56E
100
AcDbEntity
  8
Make2D$可见线$普通线
100
AcDbVertex
100
AcDb2dVertex
 10
416.3524418897613
 20
623.489912652331
 30
0.0
  0
VERTEX
  5
5DB
330
56E
100
AcDbEntity
  8
Make2D$可见线$普通线
100
AcDbVertex
100
AcDb2dVertex
 10
416.3691836426042
 20
623.5056236936791
 30
0.0
  0
VERTEX
  5
5DC
330
56E
100
AcDbEntity
  8
Make2D$可见线$普通线
100
AcDbVertex
100
AcDb2dVertex
 10
416.4043616898227
 20
623.5369907279958
 30
0.0
  0
VERTEX
  5
5DD
330
56E
100
AcDbEntity
  8
Make2D$可见线$普通线
100
AcDbVertex
100
AcDb2dVertex
 10
416.4417888281671
 20
623.5682807099528
 30
0.0
  0
VERTEX
  5
5DE
330
56E
100
AcDbEntity
  8
Make2D$可见线$普通线
100
AcDbVertex
100
AcDb2dVertex
 10
416.4814527005364
 20
623.5994892541254
 30
0.0
  0
VERTEX
  5
5DF
330
56E
100
AcDbEntity
  8
Make2D$可见线$普通线
100
AcDbVertex
100
AcDb2dVertex
 10
416.5233409498295
 20
623.6306119750889
 30
0.0
  0
VERTEX
  5
5E0
330
56E
100
AcDbEntity
  8
Make2D$可见线$普通线
100
AcDbVertex
100
AcDb2dVertex
 10
416.5674412189452
 20
623.6616444874184
 30
0.0
  0
VERTEX
  5
5E1
330
56E
100
AcDbEntity
  8
Make2D$可见线$普通线
100
AcDbVertex
100
AcDb2dVertex
 10
416.6137411507827
 20
623.6925824056892
 30
0.0
  0
VERTEX
  5
5E2
330
56E
100
AcDbEntity
  8
Make2D$可见线$普通线
100
AcDbVertex
100
AcDb2dVertex
 10
416.6622283882408
 20
623.7234213444767
 30
0.0
  0
VERTEX
  5
5E3
330
56E
100
AcDbEntity
  8
Make2D$可见线$普通线
100
AcDbVertex
100
AcDb2dVertex
 10
416.7128905742185
 20
623.754156918356
 30
0.0
  0
VERTEX
  5
5E4
330
56E
100
AcDbEntity
  8
Make2D$可见线$普通线
100
AcDbVertex
100
AcDb2dVertex
 10
416.7657153516146
 20
623.7847847419023
 30
0.0
  0
VERTEX
  5
5E5
330
56E
100
AcDbEntity
  8
Make2D$可见线$普通线
100
AcDbVertex
100
AcDb2dVertex
 10
416.8206903633283
 20
623.815300429691
 30
0.0
  0
VERTEX
  5
5E6
330
56E
100
AcDbEntity
  8
Make2D$可见线$普通线
100
AcDbVertex
100
AcDb2dVertex
 10
416.8778032522583
 20
623.8456995962972
 30
0.0
  0
VERTEX
  5
5E7
330
56E
100
AcDbEntity
  8
Make2D$可见线$普通线
100
AcDbVertex
100
AcDb2dVertex
 10
416.9983932333636
 20
623.9061308242635
 30
0.0
  0
VERTEX
  5
5E8
330
56E
100
AcDbEntity
  8
Make2D$可见线$普通线
100
AcDbVertex
100
AcDb2dVertex
 10
417.127386438122
 20
623.9660433424033
 30
0.0
  0
VERTEX
  5
5E9
330
56E
100
AcDbEntity
  8
Make2D$可见线$普通线
100
AcDbVertex
100
AcDb2dVertex
 10
417.264684009725
 20
624.0254020673183
 30
0.0
  0
VERTEX
  5
5EA
330
56E
100
AcDbEntity
  8
Make2D$可见线$普通线
100
AcDbVertex
100
AcDb2dVertex
 10
417.4101870913644
 20
624.0841719156106
 30
0.0
  0
VERTEX
  5
5EB
330
56E
100
AcDbEntity
  8
Make2D$可见线$普通线
100
AcDbVertex
100
AcDb2dVertex
 10
417.5637968262315
 20
624.1423178038824
 30
0.0
  0
VERTEX
  5
5EC
330
56E
100
AcDbEntity
  8
Make2D$可见线$普通线
100
AcDbVertex
100
AcDb2dVertex
 10
417.7254143575182
 20
624.1998046487355
 30
0.0
  0
VERTEX
  5
5ED
330
56E
100
AcDbEntity
  8
Make2D$可见线$普通线
100
AcDbVertex
100
AcDb2dVertex
 10
417.8949408284158
 20
624.2565973667721
 30
0.0
  0
VERTEX
  5
5EE
330
56E
100
AcDbEntity
  8
Make2D$可见线$普通线
100
AcDbVertex
100
AcDb2dVertex
 10
418.2573251618105
 20
624.3679600888034
 30
0.0
  0
VERTEX
  5
5EF
330
56E
100
AcDbEntity
  8
Make2D$可见线$普通线
100
AcDbVertex
100
AcDb2dVertex
 10
418.6501589719485
 20
624.4761253027923
 30
0.0
  0
VERTEX
  5
5F0
330
56E
100
AcDbEntity
  8
Make2D$可见线$普通线
100
AcDbVertex
100
AcDb2dVertex
 10
419.0726514043625
 20
624.5808123415549
 30
0.0
  0
VERTEX
  5
5F1
330
56E
100
AcDbEntity
  8
Make2D$可见线$普通线
100
AcDbVertex
100
AcDb2dVertex
 10
419.5240116045851
 20
624.681740537907
 30
0.0
  0
VERTEX
  5
5F2
330
56E
100
AcDbEntity
  8
Make2D$可见线$普通线
100
AcDbVertex
100
AcDb2dVertex
 10
420.0034487181491
 20
624.7786292246649
 30
0.0
  0
VERTEX
  5
5F3
330
56E
100
AcDbEntity
  8
Make2D$可见线$普通线
100
AcDbVertex
100
AcDb2dVertex
 10
420.5101718905873
 20
624.8711977346445
 30
0.0
  0
VERTEX
  5
5F4
330
56E
100
AcDbEntity
  8
Make2D$可见线$普通线
100
AcDbVertex
100
AcDb2dVertex
 10
421.6012124029804
 20
625.0424426711961
 30
0.0
  0
VERTEX
  5
5F5
330
56E
100
AcDbEntity
  8
Make2D$可见线$普通线
100
AcDbVertex
100
AcDb2dVertex
 10
422.7853033498444
 20
625.1941855884027
 30
0.0
  0
VERTEX
  5
5F6
330
56E
100
AcDbEntity
  8
Make2D$可见线$普通线
100
AcDbVertex
100
AcDb2dVertex
 10
424.0495143480231
 20
625.3253278427679
 30
0.0
  0
VERTEX
  5
5F7
330
56E
100
AcDbEntity
  8
Make2D$可见线$普通线
100
AcDbVertex
100
AcDb2dVertex
 10
425.3809150143601
 20
625.4347707907955
 30
0.0
  0
VERTEX
  5
5F8
330
56E
100
AcDbEntity
  8
Make2D$可见线$普通线
100
AcDbVertex
100
AcDb2dVertex
 10
426.7665749656991
 20
625.521415788989
 30
0.0
  0
VERTEX
  5
5F9
330
56E
100
AcDbEntity
  8
Make2D$可见线$普通线
100
AcDbVertex
100
AcDb2dVertex
 10
428.1935638188837
 20
625.5841641938521
 30
0.0
  0
VERTEX
  5
5FA
330
56E
100
AcDbEntity
  8
Make2D$可见线$普通线
100
AcDbVertex
100
AcDb2dVertex
 10
429.6489511907578
 20
625.6219173618886
 30
0.0
  0
VERTEX
  5
5FB
330
56E
100
AcDbEntity
  8
Make2D$可见线$普通线
100
AcDbVertex
100
AcDb2dVertex
 10
431.1198066981647
 20
625.6335766496019
 30
0.0
  0
VERTEX
  5
5FC
330
56E
100
AcDbEntity
  8
Make2D$可见线$普通线
100
AcDbVertex
100
AcDb2dVertex
 10
432.5906622055716
 20
625.6219173618886
 30
0.0
  0
VERTEX
  5
5FD
330
56E
100
AcDbEntity
  8
Make2D$可见线$普通线
100
AcDbVertex
100
AcDb2dVertex
 10
434.046049577445
 20
625.5841641938521
 30
0.0
  0
VERTEX
  5
5FE
330
56E
100
AcDbEntity
  8
Make2D$可见线$普通线
100
AcDbVertex
100
AcDb2dVertex
 10
435.4730384306289
 20
625.521415788989
 30
0.0
  0
VERTEX
  5
5FF
330
56E
100
AcDbEntity
  8
Make2D$可见线$普通线
100
AcDbVertex
100
AcDb2dVertex
 10
436.8586983819667
 20
625.4347707907955
 30
0.0
  0
VERTEX
  5
600
330
56E
100
AcDbEntity
  8
Make2D$可见线$普通线
100
AcDbVertex
100
AcDb2dVertex
 10
438.1900990483023
 20
625.3253278427679
 30
0.0
  0
VERTEX
  5
601
330
56E
100
AcDbEntity
  8
Make2D$可见线$普通线
100
AcDbVertex
100
AcDb2dVertex
 10
439.4543100464792
 20
625.1941855884027
 30
0.0
  0
VERTEX
  5
602
330
56E
100
AcDbEntity
  8
Make2D$可见线$普通线
100
AcDbVertex
100
AcDb2dVertex
 10
440.6384009933413
 20
625.0424426711961
 30
0.0
  0
VERTEX
  5
603
330
56E
100
AcDbEntity
  8
Make2D$可见线$普通线
100
AcDbVertex
100
AcDb2dVertex
 10
441.7294415057321
 20
624.8711977346445
 30
0.0
  0
VERTEX
  5
604
330
56E
100
AcDbEntity
  8
Make2D$可见线$普通线
100
AcDbVertex
100
AcDb2dVertex
 10
442.236164678169
 20
624.7786292246648
 30
0.0
  0
VERTEX
  5
605
330
56E
100
AcDbEntity
  8
Make2D$可见线$普通线
100
AcDbVertex
100
AcDb2dVertex
 10
442.7156017917317
 20
624.6817405379068
 30
0.0
  0
VERTEX
  5
606
330
56E
100
AcDbEntity
  8
Make2D$可见线$普通线
100
AcDbVertex
100
AcDb2dVertex
 10
443.166961991953
 20
624.5808123415546
 30
0.0
  0
VERTEX
  5
607
330
56E
100
AcDbEntity
  8
Make2D$可见线$普通线
100
AcDbVertex
100
AcDb2dVertex
 10
443.5894544243656
 20
624.4761253027921
 30
0.0
  0
VERTEX
  5
608
330
56E
100
AcDbEntity
  8
Make2D$可见线$普通线
100
AcDbVertex
100
AcDb2dVertex
 10
443.9822882345022
 20
624.3679600888032
 30
0.0
  0
VERTEX
  5
609
330
56E
100
AcDbEntity
  8
Make2D$可见线$普通线
100
AcDbVertex
100
AcDb2dVertex
 10
444.3446725678955
 20
624.256597366772
 30
0.0
  0
VERTEX
  5
60A
330
56E
100
AcDbEntity
  8
Make2D$可见线$普通线
100
AcDbVertex
100
AcDb2dVertex
 10
444.5141990387924
 20
624.1998046487355
 30
0.0
  0
VERTEX
  5
60B
330
56E
100
AcDbEntity
  8
Make2D$可见线$普通线
100
AcDbVertex
100
AcDb2dVertex
 10
444.6758165700783
 20
624.1423178038824
 30
0.0
  0
VERTEX
  5
60C
330
56E
100
AcDbEntity
  8
Make2D$可见线$普通线
100
AcDbVertex
100
AcDb2dVertex
 10
444.8294263049447
 20
624.0841719156106
 30
0.0
  0
VERTEX
  5
60D
330
56E
100
AcDbEntity
  8
Make2D$可见线$普通线
100
AcDbVertex
100
AcDb2dVertex
 10
444.9749293865833
 20
624.0254020673183
 30
0.0
  0
VERTEX
  5
60E
330
56E
100
AcDbEntity
  8
Make2D$可见线$普通线
100
AcDbVertex
100
AcDb2dVertex
 10
445.1122269581855
 20
623.9660433424033
 30
0.0
  0
VERTEX
  5
60F
330
56E
100
AcDbEntity
  8
Make2D$可见线$普通线
100
AcDbVertex
100
AcDb2dVertex
 10
445.2412201629431
 20
623.9061308242635
 30
0.0
  0
VERTEX
  5
610
330
56E
100
AcDbEntity
  8
Make2D$可见线$普通线
100
AcDbVertex
100
AcDb2dVertex
 10
445.3618101440476
 20
623.8456995962972
 30
0.0
  0
VERTEX
  5
611
330
56E
100
AcDbEntity
  8
Make2D$可见线$普通线
100
AcDbVertex
100
AcDb2dVertex
 10
445.4189230329773
 20
623.815300429691
 30
0.0
  0
VERTEX
  5
612
330
56E
100
AcDbEntity
  8
Make2D$可见线$普通线
100
AcDbVertex
100
AcDb2dVertex
 10
445.4738980446905
 20
623.7847847419023
 30
0.0
  0
VERTEX
  5
613
330
56E
100
AcDbEntity
  8
Make2D$可见线$普通线
100
AcDbVertex
100
AcDb2dVertex
 10
445.5267228220863
 20
623.754156918356
 30
0.0
  0
VERTEX
  5
614
330
56E
100
AcDbEntity
  8
Make2D$可见线$普通线
100
AcDbVertex
100
AcDb2dVertex
 10
445.5773850080636
 20
623.7234213444767
 30
0.0
  0
VERTEX
  5
615
330
56E
100
AcDbEntity
  8
Make2D$可见线$普通线
100
AcDbVertex
100
AcDb2dVertex
 10
445.6258722455213
 20
623.6925824056892
 30
0.0
  0
VERTEX
  5
616
330
56E
100
AcDbEntity
  8
Make2D$可见线$普通线
100
AcDbVertex
100
AcDb2dVertex
 10
445.6721721773583
 20
623.6616444874184
 30
0.0
  0
VERTEX
  5
617
330
56E
100
AcDbEntity
  8
Make2D$可见线$普通线
100
AcDbVertex
100
AcDb2dVertex
 10
445.7162724464737
 20
623.6306119750889
 30
0.0
  0
VERTEX
  5
618
330
56E
100
AcDbEntity
  8
Make2D$可见线$普通线
100
AcDbVertex
100
AcDb2dVertex
 10
445.7581606957663
 20
623.5994892541254
 30
0.0
  0
VERTEX
  5
619
330
56E
100
AcDbEntity
  8
Make2D$可见线$普通线
100
AcDbVertex
100
AcDb2dVertex
 10
445.7978245681352
 20
623.5682807099528
 30
0.0
  0
VERTEX
  5
61A
330
56E
100
AcDbEntity
  8
Make2D$可见线$普通线
100
AcDbVertex
100
AcDb2dVertex
 10
445.8352517064791
 20
623.5369907279958
 30
0.0
  0
VERTEX
  5
61B
330
56E
100
AcDbEntity
  8
Make2D$可见线$普通线
100
AcDbVertex
100
AcDb2dVertex
 10
445.8704297536972
 20
623.5056236936791
 30
0.0
  0
VERTEX
  5
61C
330
56E
100
AcDbEntity
  8
Make2D$可见线$普通线
100
AcDbVertex
100
AcDb2dVertex
 10
445.88717150654
 20
623.489912652331
 30
0.0
  0
VERTEX
  5
61D
330
56E
100
AcDbEntity
  8
Make2D$可见线$普通线
100
AcDbVertex
100
AcDb2dVertex
 10
445.9033463526884
 20
623.4741839924275
 30
0.0
  0
VERTEX
  5
61E
330
56E
100
AcDbEntity
  8
Make2D$可见线$普通线
100
AcDbVertex
100
AcDb2dVertex
 10
445.9189527475048
 20
623.4584382621463
 30
0.0
  0
VERTEX
  5
61F
330
56E
100
AcDbEntity
  8
Make2D$可见线$普通线
100
AcDbVertex
100
AcDb2dVertex
 10
445.9339891463516
 20
623.4426760096655
 30
0.0
  0
VERTEX
  5
620
330
56E
100
AcDbEntity
  8
Make2D$可见线$普通线
100
AcDbVertex
100
AcDb2dVertex
 10
445.9484540045911
 20
623.4268977831637
 30
0.0
  0
VERTEX
  5
621
330
56E
100
AcDbEntity
  8
Make2D$可见线$普通线
100
AcDbVertex
100
AcDb2dVertex
 10
445.9623457775857
 20
623.4111041308184
 30
0.0
  0
VERTEX
  5
622
330
56E
100
AcDbEntity
  8
Make2D$可见线$普通线
100
AcDbVertex
100
AcDb2dVertex
 10
445.9756629206978
 20
623.395295600808
 30
0.0
  0
VERTEX
  5
623
330
56E
100
AcDbEntity
  8
Make2D$可见线$普通线
100
AcDbVertex
100
AcDb2dVertex
 10
445.9884038892897
 20
623.3794727413106
 30
0.0
  0
VERTEX
  5
624
330
56E
100
AcDbEntity
  8
Make2D$可见线$普通线
100
AcDbVertex
100
AcDb2dVertex
 10
446.0005671387239
 20
623.3636361005041
 30
0.0
  0
VERTEX
  5
625
330
56E
100
AcDbEntity
  8
Make2D$可见线$普通线
100
AcDbVertex
100
AcDb2dVertex
 10
446.0121511243627
 20
623.3477862265668
 30
0.0
  0
VERTEX
  5
626
330
56E
100
AcDbEntity
  8
Make2D$可见线$普通线
100
AcDbVertex
100
AcDb2dVertex
 10
446.0231543015684
 20
623.3319236676766
 30
0.0
  0
VERTEX
  5
627
330
56E
100
AcDbEntity
  8
Make2D$可见线$普通线
100
AcDbVertex
100
AcDb2dVertex
 10
446.0335751257034
 20
623.3160489720117
 30
0.0
  0
VERTEX
  5
628
330
56E
100
AcDbEntity
  8
Make2D$可见线$普通线
100
AcDbVertex
100
AcDb2dVertex
 10
446.0434120521301
 20
623.3001626877503
 30
0.0
  0
VERTEX
  5
629
330
56E
100
AcDbEntity
  8
Make2D$可见线$普通线
100
AcDbVertex
100
AcDb2dVertex
 10
446.0526635362108
 20
623.2842653630704
 30
0.0
  0
VERTEX
  5
62A
330
56E
100
AcDbEntity
  8
Make2D$可见线$普通线
100
AcDbVertex
100
AcDb2dVertex
 10
446.061328033308
 20
623.26835754615
 30
0.0
  0
VERTEX
  5
62B
330
56E
100
AcDbEntity
  8
Make2D$可见线$普通线
100
AcDbVertex
100
AcDb2dVertex
 10
446.069403998784
 20
623.2524397851673
 30
0.0
  0
VERTEX
  5
62C
330
56E
100
AcDbEntity
  8
Make2D$可见线$普通线
100
AcDbVertex
100
AcDb2dVertex
 10
446.0768898880011
 20
623.2365126283004
 30
0.0
  0
VERTEX
  5
62D
330
56E
100
AcDbEntity
  8
Make2D$可见线$普通线
100
AcDbVertex
100
AcDb2dVertex
 10
446.0837841563218
 20
623.2205766237273
 30
0.0
  0
VERTEX
  5
62E
330
56E
100
AcDbEntity
  8
Make2D$可见线$普通线
100
AcDbVertex
100
AcDb2dVertex
 10
446.0900852591084
 20
623.2046323196262
 30
0.0
  0
VERTEX
  5
62F
330
56E
100
AcDbEntity
  8
Make2D$可见线$普通线
100
AcDbVertex
100
AcDb2dVertex
 10
446.0957916517232
 20
623.1886802641752
 30
0.0
  0
VERTEX
  5
630
330
56E
100
AcDbEntity
  8
Make2D$可见线$普通线
100
AcDbVertex
100
AcDb2dVertex
 10
446.1009017895287
 20
623.1727210055521
 30
0.0
  0
VERTEX
  5
631
330
56E
100
AcDbEntity
  8
Make2D$可见线$普通线
100
AcDbVertex
100
AcDb2dVertex
 10
446.1054141278872
 20
623.1567550919356
 30
0.0
  0
VERTEX
  5
632
330
56E
100
AcDbEntity
  8
Make2D$可见线$普通线
100
AcDbVertex
100
AcDb2dVertex
 10
446.1074456395745
 20
623.1487698108102
 30
0.0
  0
VERTEX
  5
633
330
56E
100
AcDbEntity
  8
Make2D$可见线$普通线
100
AcDbVertex
100
AcDb2dVertex
 10
446.1093271221611
 20
623.1407830715033
 30
0.0
  0
VERTEX
  5
634
330
56E
100
AcDbEntity
  8
Make2D$可见线$普通线
100
AcDbVertex
100
AcDb2dVertex
 10
446.111058382567
 20
623.1327949425369
 30
0.0
  0
VERTEX
  5
635
330
56E
100
AcDbEntity
  8
Make2D$可见线$普通线
100
AcDbVertex
100
AcDb2dVertex
 10
446.1126392277126
 20
623.1248054924333
 30
0.0
  0
VERTEX
  5
636
330
56E
100
AcDbEntity
  8
Make2D$可见线$普通线
100
AcDbVertex
100
AcDb2dVertex
 10
446.1140694645184
 20
623.1168147897149
 30
0.0
  0
VERTEX
  5
637
330
56E
100
AcDbEntity
  8
Make2D$可见线$普通线
100
AcDbVertex
100
AcDb2dVertex
 10
446.1153488999043
 20
623.1088229029037
 30
0.0
  0
VERTEX
  5
638
330
56E
100
AcDbEntity
  8
Make2D$可见线$普通线
100
AcDbVertex
100
AcDb2dVertex
 10
446.116477340791
 20
623.1008299005225
 30
0.0
  0
VERTEX
  5
639
330
56E
100
AcDbEntity
  8
Make2D$可见线$普通线
100
AcDbVertex
100
AcDb2dVertex
 10
446.1174545940985
 20
623.092835851093
 30
0.0
  0
VERTEX
  5
63A
330
56E
100
AcDbEntity
  8
Make2D$可见线$普通线
100
AcDbVertex
100
AcDb2dVertex
 10
446.1182804667473
 20
623.0848408231377
 30
0.0
  0
VERTEX
  5
63B
330
56E
100
AcDbEntity
  8
Make2D$可见线$普通线
100
AcDbVertex
100
AcDb2dVertex
 10
446.1189547656576
 20
623.076844885179
 30
0.0
  0
VERTEX
  5
63C
330
56E
100
AcDbEntity
  8
Make2D$可见线$普通线
100
AcDbVertex
100
AcDb2dVertex
 10
446.1194772977497
 20
623.0688481057389
 30
0.0
  0
VERTEX
  5
63D
330
56E
100
AcDbEntity
  8
Make2D$可见线$普通线
100
AcDbVertex
100
AcDb2dVertex
 10
446.1198478699438
 20
623.0608505533396
 30
0.0
  0
VERTEX
  5
63E
330
56E
100
AcDbEntity
  8
Make2D$可见线$普通线
100
AcDbVertex
100
AcDb2dVertex
 10
446.1200662891604
 20
623.0528522965037
 30
0.0
  0
VERTEX
  5
63F
330
56E
100
AcDbEntity
  8
Make2D$可见线$普通线
100
AcDbVertex
100
AcDb2dVertex
 10
446.1201323623196
 20
623.0448534037532
 30
0.0
  0
VERTEX
  5
640
330
56E
100
AcDbEntity
  8
Make2D$可见线$普通线
100
AcDbVertex
100
AcDb2dVertex
 10
446.1200458963418
 20
623.0368539436105
 30
0.0
  0
VERTEX
  5
641
330
56E
100
AcDbEntity
  8
Make2D$可见线$普通线
100
AcDbVertex
100
AcDb2dVertex
 10
446.1198066981474
 20
623.0288539845978
 30
0.0
  0
VERTEX
  5
642
330
56E
100
AcDbEntity
  8
Make2D$可见线$普通线
100
AcDbVertex
100
AcDb2dVertex
 10
446.1200458963418
 20
623.0208540255852
 30
0.0
  0
VERTEX
  5
643
330
56E
100
AcDbEntity
  8
Make2D$可见线$普通线
100
AcDbVertex
100
AcDb2dVertex
 10
446.1201323623195
 20
623.0128545654425
 30
0.0
  0
VERTEX
  5
644
330
56E
100
AcDbEntity
  8
Make2D$可见线$普通线
100
AcDbVertex
100
AcDb2dVertex
 10
446.1200662891601
 20
623.004855672692
 30
0.0
  0
VERTEX
  5
645
330
56E
100
AcDbEntity
  8
Make2D$可见线$普通线
100
AcDbVertex
100
AcDb2dVertex
 10
446.1198478699434
 20
622.9968574158561
 30
0.0
  0
VERTEX
  5
646
330
56E
100
AcDbEntity
  8
Make2D$可见线$普通线
100
AcDbVertex
100
AcDb2dVertex
 10
446.1194772977491
 20
622.9888598634568
 30
0.0
  0
VERTEX
  5
647
330
56E
100
AcDbEntity
  8
Make2D$可见线$普通线
100
AcDbVertex
100
AcDb2dVertex
 10
446.1189547656569
 20
622.9808630840167
 30
0.0
  0
VERTEX
  5
648
330
56E
100
AcDbEntity
  8
Make2D$可见线$普通线
100
AcDbVertex
100
AcDb2dVertex
 10
446.1182804667465
 20
622.972867146058
 30
0.0
  0
VERTEX
  5
649
330
56E
100
AcDbEntity
  8
Make2D$可见线$普通线
100
AcDbVertex
100
AcDb2dVertex
 10
446.1174545940976
 20
622.9648721181027
 30
0.0
  0
VERTEX
  5
64A
330
56E
100
AcDbEntity
  8
Make2D$可见线$普通线
100
AcDbVertex
100
AcDb2dVertex
 10
446.11647734079
 20
622.9568780686732
 30
0.0
  0
VERTEX
  5
64B
330
56E
100
AcDbEntity
  8
Make2D$可见线$普通线
100
AcDbVertex
100
AcDb2dVertex
 10
446.1153488999033
 20
622.948885066292
 30
0.0
  0
VERTEX
  5
64C
330
56E
100
AcDbEntity
  8
Make2D$可见线$普通线
100
AcDbVertex
100
AcDb2dVertex
 10
446.1140694645172
 20
622.9408931794808
 30
0.0
  0
VERTEX
  5
64D
330
56E
100
AcDbEntity
  8
Make2D$可见线$普通线
100
AcDbVertex
100
AcDb2dVertex
 10
446.1126392277114
 20
622.9329024767624
 30
0.0
  0
VERTEX
  5
64E
330
56E
100
AcDbEntity
  8
Make2D$可见线$普通线
100
AcDbVertex
100
AcDb2dVertex
 10
446.1110583825657
 20
622.9249130266588
 30
0.0
  0
VERTEX
  5
64F
330
56E
100
AcDbEntity
  8
Make2D$可见线$普通线
100
AcDbVertex
100
AcDb2dVertex
 10
446.1093271221596
 20
622.9169248976924
 30
0.0
  0
VERTEX
  5
650
330
56E
100
AcDbEntity
  8
Make2D$可见线$普通线
100
AcDbVertex
100
AcDb2dVertex
 10
446.1074456395729
 20
622.9089381583855
 30
0.0
  0
VERTEX
  5
651
330
56E
100
AcDbEntity
  8
Make2D$可见线$普通线
100
AcDbVertex
100
AcDb2dVertex
 10
446.1054141278855
 20
622.9009528772601
 30
0.0
  0
VERTEX
  5
652
330
56E
100
AcDbEntity
  8
Make2D$可见线$普通线
100
AcDbVertex
100
AcDb2dVertex
 10
446.1009017895268
 20
622.8849869636435
 30
0.0
  0
VERTEX
  5
653
330
56E
100
AcDbEntity
  8
Make2D$可见线$普通线
100
AcDbVertex
100
AcDb2dVertex
 10
446.0957916517211
 20
622.8690277050205
 30
0.0
  0
VERTEX
  5
654
330
56E
100
AcDbEntity
  8
Make2D$可见线$普通线
100
AcDbVertex
100
AcDb2dVertex
 10
446.0900852591061
 20
622.8530756495695
 30
0.0
  0
VERTEX
  5
655
330
56E
100
AcDbEntity
  8
Make2D$可见线$普通线
100
AcDbVertex
100
AcDb2dVertex
 10
446.0837841563193
 20
622.8371313454684
 30
0.0
  0
VERTEX
  5
656
330
56E
100
AcDbEntity
  8
Make2D$可见线$普通线
100
AcDbVertex
100
AcDb2dVertex
 10
446.0768898879984
 20
622.8211953408953
 30
0.0
  0
VERTEX
  5
657
330
56E
100
AcDbEntity
  8
Make2D$可见线$普通线
100
AcDbVertex
100
AcDb2dVertex
 10
446.0694039987811
 20
622.8052681840284
 30
0.0
  0
VERTEX
  5
658
330
56E
100
AcDbEntity
  8
Make2D$可见线$普通线
100
AcDbVertex
100
AcDb2dVertex
 10
446.0613280333049
 20
622.7893504230457
 30
0.0
  0
VERTEX
  5
659
330
56E
100
AcDbEntity
  8
Make2D$可见线$普通线
100
AcDbVertex
100
AcDb2dVertex
 10
446.0526635362075
 20
622.7734426061253
 30
0.0
  0
VERTEX
  5
65A
330
56E
100
AcDbEntity
  8
Make2D$可见线$普通线
100
AcDbVertex
100
AcDb2dVertex
 10
446.0434120521266
 20
622.7575452814453
 30
0.0
  0
VERTEX
  5
65B
330
56E
100
AcDbEntity
  8
Make2D$可见线$普通线
100
AcDbVertex
100
AcDb2dVertex
 10
446.0335751256997
 20
622.741658997184
 30
0.0
  0
VERTEX
  5
65C
330
56E
100
AcDbEntity
  8
Make2D$可见线$普通线
100
AcDbVertex
100
AcDb2dVertex
 10
446.0231543015645
 20
622.7257843015191
 30
0.0
  0
VERTEX
  5
65D
330
56E
100
AcDbEntity
  8
Make2D$可见线$普通线
100
AcDbVertex
100
AcDb2dVertex
 10
446.0121511243586
 20
622.7099217426289
 30
0.0
  0
VERTEX
  5
65E
330
56E
100
AcDbEntity
  8
Make2D$可见线$普通线
100
AcDbVertex
100
AcDb2dVertex
 10
446.0005671387196
 20
622.6940718686916
 30
0.0
  0
VERTEX
  5
65F
330
56E
100
AcDbEntity
  8
Make2D$可见线$普通线
100
AcDbVertex
100
AcDb2dVertex
 10
445.9884038892852
 20
622.6782352278851
 30
0.0
  0
VERTEX
  5
660
330
56E
100
AcDbEntity
  8
Make2D$可见线$普通线
100
AcDbVertex
100
AcDb2dVertex
 10
445.975662920693
 20
622.6624123683877
 30
0.0
  0
VERTEX
  5
661
330
56E
100
AcDbEntity
  8
Make2D$可见线$普通线
100
AcDbVertex
100
AcDb2dVertex
 10
445.9623457775807
 20
622.6466038383772
 30
0.0
  0
VERTEX
  5
662
330
56E
100
AcDbEntity
  8
Make2D$可见线$普通线
100
AcDbVertex
100
AcDb2dVertex
 10
445.9484540045859
 20
622.630810186032
 30
0.0
  0
VERTEX
  5
663
330
56E
100
AcDbEntity
  8
Make2D$可见线$普通线
100
AcDbVertex
100
AcDb2dVertex
 10
445.9339891463461
 20
622.6150319595301
 30
0.0
  0
VERTEX
  5
664
330
56E
100
AcDbEntity
  8
Make2D$可见线$普通线
100
AcDbVertex
100
AcDb2dVertex
 10
445.9189527474992
 20
622.5992697070494
 30
0.0
  0
VERTEX
  5
665
330
56E
100
AcDbEntity
  8
Make2D$可见线$普通线
100
AcDbVertex
100
AcDb2dVertex
 10
445.9033463526825
 20
622.5835239767682
 30
0.0
  0
VERTEX
  5
666
330
56E
100
AcDbEntity
  8
Make2D$可见线$普通线
100
AcDbVertex
100
AcDb2dVertex
 10
445.8871715065339
 20
622.5677953168647
 30
0.0
  0
VERTEX
  5
667
330
56E
100
AcDbEntity
  8
Make2D$可见线$普通线
100
AcDbVertex
100
AcDb2dVertex
 10
445.870429753691
 20
622.5520842755166
 30
0.0
  0
VERTEX
  5
668
330
56E
100
AcDbEntity
  8
Make2D$可见线$普通线
100
AcDbVertex
100
AcDb2dVertex
 10
445.8352517064725
 20
622.5207172411999
 30
0.0
  0
VERTEX
  5
669
330
56E
100
AcDbEntity
  8
Make2D$可见线$普通线
100
AcDbVertex
100
AcDb2dVertex
 10
445.7978245681281
 20
622.4894272592429
 30
0.0
  0
VERTEX
  5
66A
330
56E
100
AcDbEntity
  8
Make2D$可见线$普通线
100
AcDbVertex
100
AcDb2dVertex
 10
445.7581606957588
 20
622.4582187150703
 30
0.0
  0
VERTEX
  5
66B
330
56E
100
AcDbEntity
  8
Make2D$可见线$普通线
100
AcDbVertex
100
AcDb2dVertex
 10
445.7162724464657
 20
622.4270959941068
 30
0.0
  0
VERTEX
  5
66C
330
56E
100
AcDbEntity
  8
Make2D$可见线$普通线
100
AcDbVertex
100
AcDb2dVertex
 10
445.67217217735
 20
622.3960634817773
 30
0.0
  0
VERTEX
  5
66D
330
56E
100
AcDbEntity
  8
Make2D$可见线$普通线
100
AcDbVertex
100
AcDb2dVertex
 10
445.6258722455125
 20
622.3651255635065
 30
0.0
  0
VERTEX
  5
66E
330
56E
100
AcDbEntity
  8
Make2D$可见线$普通线
100
AcDbVertex
100
AcDb2dVertex
 10
445.5773850080544
 20
622.334286624719
 30
0.0
  0
VERTEX
  5
66F
330
56E
100
AcDbEntity
  8
Make2D$可见线$普通线
100
AcDbVertex
100
AcDb2dVertex
 10
445.5267228220767
 20
622.3035510508397
 30
0.0
  0
VERTEX
  5
670
330
56E
100
AcDbEntity
  8
Make2D$可见线$普通线
100
AcDbVertex
100
AcDb2dVertex
 10
445.4738980446806
 20
622.2729232272934
 30
0.0
  0
VERTEX
  5
671
330
56E
100
AcDbEntity
  8
Make2D$可见线$普通线
100
AcDbVertex
100
AcDb2dVertex
 10
445.418923032967
 20
622.2424075395047
 30
0.0
  0
VERTEX
  5
672
330
56E
100
AcDbEntity
  8
Make2D$可见线$普通线
100
AcDbVertex
100
AcDb2dVertex
 10
445.3618101440369
 20
622.2120083728985
 30
0.0
  0
VERTEX
  5
673
330
56E
100
AcDbEntity
  8
Make2D$可见线$普通线
100
AcDbVertex
100
AcDb2dVertex
 10
445.2412201629316
 20
622.1515771449322
 30
0.0
  0
VERTEX
  5
674
330
56E
100
AcDbEntity
  8
Make2D$可见线$普通线
100
AcDbVertex
100
AcDb2dVertex
 10
445.1122269581732
 20
622.0916646267924
 30
0.0
  0
VERTEX
  5
675
330
56E
100
AcDbEntity
  8
Make2D$可见线$普通线
100
AcDbVertex
100
AcDb2dVertex
 10
444.9749293865702
 20
622.0323059018774
 30
0.0
  0
VERTEX
  5
676
330
56E
100
AcDbEntity
  8
Make2D$可见线$普通线
100
AcDbVertex
100
AcDb2dVertex
 10
444.829426304931
 20
621.9735360535849
 30
0.0
  0
VERTEX
  5
677
330
56E
100
AcDbEntity
  8
Make2D$可见线$普通线
100
AcDbVertex
100
AcDb2dVertex
 10
444.6758165700638
 20
621.9153901653132
 30
0.0
  0
VERTEX
  5
678
330
56E
100
AcDbEntity
  8
Make2D$可见线$普通线
100
AcDbVertex
100
AcDb2dVertex
 10
444.5141990387772
 20
621.85790332046
 30
0.0
  0
VERTEX
  5
679
330
56E
100
AcDbEntity
  8
Make2D$可见线$普通线
100
AcDbVertex
100
AcDb2dVertex
 10
444.3446725678795
 20
621.8011106024235
 30
0.0
  0
VERTEX
  5
67A
330
56E
100
AcDbEntity
  8
Make2D$可见线$普通线
100
AcDbVertex
100
AcDb2dVertex
 10
443.9822882344847
 20
621.6897478803922
 30
0.0
  0
VERTEX
  5
67B
330
56E
100
AcDbEntity
  8
Make2D$可见线$普通线
100
AcDbVertex
100
AcDb2dVertex
 10
443.5894544243467
 20
621.5815826664034
 30
0.0
  0
VERTEX
  5
67C
330
56E
100
AcDbEntity
  8
Make2D$可见线$普通线
100
AcDbVertex
100
AcDb2dVertex
 10
443.1669619919327
 20
621.4768956276408
 30
0.0
  0
VERTEX
  5
67D
330
56E
100
AcDbEntity
  8
Make2D$可见线$普通线
100
AcDbVertex
100
AcDb2dVertex
 10
442.7156017917101
 20
621.3759674312887
 30
0.0
  0
VERTEX
  5
67E
330
56E
100
AcDbEntity
  8
Make2D$可见线$普通线
100
AcDbVertex
100
AcDb2dVertex
 10
442.236164678146
 20
621.2790787445308
 30
0.0
  0
VERTEX
  5
67F
330
56E
100
AcDbEntity
  8
Make2D$可见线$普通线
100
AcDbVertex
100
AcDb2dVertex
 10
441.7294415057079
 20
621.1865102345511
 30
0.0
  0
VERTEX
  5
680
330
56E
100
AcDbEntity
  8
Make2D$可见线$普通线
100
AcDbVertex
100
AcDb2dVertex
 10
440.6384009933149
 20
621.0152652979996
 30
0.0
  0
VERTEX
  5
681
330
56E
100
AcDbEntity
  8
Make2D$可见线$普通线
100
AcDbVertex
100
AcDb2dVertex
 10
439.4543100464509
 20
620.863522380793
 30
0.0
  0
VERTEX
  5
682
330
56E
100
AcDbEntity
  8
Make2D$可见线$普通线
100
AcDbVertex
100
AcDb2dVertex
 10
438.1900990482721
 20
620.7323801264278
 30
0.0
  0
VERTEX
  5
683
330
56E
100
AcDbEntity
  8
Make2D$可见线$普通线
100
AcDbVertex
100
AcDb2dVertex
 10
436.8586983819351
 20
620.6229371784002
 30
0.0
  0
VERTEX
  5
684
330
56E
100
AcDbEntity
  8
Make2D$可见线$普通线
100
AcDbVertex
100
AcDb2dVertex
 10
435.4730384305961
 20
620.5362921802067
 30
0.0
  0
VERTEX
  5
685
330
56E
100
AcDbEntity
  8
Make2D$可见线$普通线
100
AcDbVertex
100
AcDb2dVertex
 10
434.0460495774115
 20
620.4735437753436
 30
0.0
  0
VERTEX
  5
686
330
56E
100
AcDbEntity
  8
Make2D$可见线$普通线
100
AcDbVertex
100
AcDb2dVertex
 10
432.5906622055375
 20
620.4357906073072
 30
0.0
  0
VERTEX
  5
687
330
56E
100
AcDbEntity
  8
Make2D$可见线$普通线
100
AcDbVertex
100
AcDb2dVertex
 10
431.1198066981305
 20
620.4241313195939
 30
0.0
  0
SEQEND
  5
688
330
56E
100
AcDbEntity
  8
Make2D$可见线$普通线
  0
ENDSEC
  0
SECTION
  2
OBJECTS
  0
DICTIONARY
  5
C
330
0
100
AcDbDictionary
281
     1
  3
ACAD_GROUP
350
D
  3
ACAD_LAYOUT
350
1A
  3
ACAD_MATERIAL
350
3B
  3
ACAD_MLEADERSTYLE
350
6B3
  3
ACAD_MLINESTYLE
350
17
  3
ACAD_PLOTSETTINGS
350
19
  3
ACAD_PLOTSTYLENAME
350
E
  3
ACAD_SCALELIST
350
3F
  3
ACAD_TABLESTYLE
350
6B2
  3
ACAD_VISUALSTYLE
350
2A
  3
AcDbVariableDictionary
350
689
  0
DICTIONARY
  5
D
102
{ACAD_REACTORS
330
C
102
}
330
C
100
AcDbDictionary
281
     1
  0
DICTIONARY
  5
1A
102
{ACAD_REACTORS
330
C
102
}
330
C
100
AcDbDictionary
281
     1
  3
Layout1
350
1E
  3
Layout2
350
26
  3
Model
350
22
  0
DICTIONARY
  5
3B
102
{ACAD_REACTORS
330
C
102
}
330
C
100
AcDbDictionary
281
     1
  3
ByBlock
350
3D
  3
ByLayer
350
3C
  3
Global
350
3E
  0
DICTIONARY
  5
6B3
102
{ACAD_REACTORS
330
C
102
}
330
C
100
AcDbDictionary
281
     1
  0
DICTIONARY
  5
17
102
{ACAD_REACTORS
330
C
102
}
330
C
100
AcDbDictionary
281
     1
  3
Standard
350
18
  0
DICTIONARY
  5
19
102
{ACAD_REACTORS
330
C
102
}
330
C
100
AcDbDictionary
281
     1
  0
ACDBDICTIONARYWDFLT
  5
E
102
{ACAD_REACTORS
330
C
102
}
330
C
100
AcDbDictionary
281
     1
  3
Normal
350
F
100
AcDbDictionaryWithDefault
340
F
  0
DICTIONARY
  5
3F
102
{ACAD_REACTORS
330
C
102
}
330
C
100
AcDbDictionary
281
     1
  3
A0
350
40
  3
A1
350
41
  3
A2
350
42
  3
A3
350
43
  3
A4
350
44
  3
A5
350
45
  3
A6
350
46
  3
A7
350
47
  3
A8
350
48
  3
A9
350
49
  3
B0
350
4A
  3
B1
350
4B
  3
B2
350
4C
  3
B3
350
4D
  3
B4
350
4E
  3
B5
350
4F
  3
B6
350
50
  3
B7
350
51
  3
B8
350
52
  3
B9
350
53
  3
C0
350
54
  3
C1
350
55
  3
C2
350
56
  3
C3
350
57
  3
C4
350
58
  3
C5
350
59
  3
C6
350
5A
  3
C7
350
5B
  3
C8
350
5C
  3
C9
350
5D
  3
D0
350
5E
  3
D1
350
5F
  3
D2
350
60
  0
DICTIONARY
  5
6B2
102
{ACAD_REACTORS
330
C
102
}
330
C
100
AcDbDictionary
281
     1
  0
DICTIONARY
  5
2A
102
{ACAD_REACTORS
330
C
102
}
330
C
100
AcDbDictionary
281
     1
  3
2dWireframe
350
2F
  3
3D Hidden
350
31
  3
3dWireframe
350
30
  3
Basic
350
32
  3
Brighten
350
36
  3
ColorChange
350
3A
  3
Conceptual
350
34
  3
Dim
350
35
  3
Facepattern
350
39
  3
Flat
350
2B
  3
FlatWithEdges
350
2C
  3
Gouraud
350
2D
  3
GouraudWithEdges
350
2E
  3
Linepattern
350
38
  3
Realistic
350
33
  3
Thicken
350
37
  0
DICTIONARY
  5
689
102
{ACAD_REACTORS
330
C
102
}
330
C
100
AcDbDictionary
281
     1
  3
CANNOSCALE
350
68A
  3
MSLTSCALE
350
68B
  0
LAYOUT
  5
1E
102
{ACAD_REACTORS
330
1A
102
}
330
1A
100
AcDbPlotSettings
  1

  2
none_device
  4

  6

 40
0.0
 41
0.0
 42
0.0
 43
0.0
 44
0.0
 45
0.0
 46
0.0
 47
0.0
 48
0.0
 49
0.0
140
0.0
141
0.0
142
1.0
143
1.0
 70
   688
 72
     0
 73
     0
 74
     5
  7

 75
    16
 76
     0
 77
     2
 78
   300
147
1.0
148
0.0
149
0.0
100
AcDbLayout
  1
Layout1
 70
     1
 71
     1
 10
0.0
 20
0.0
 11
12.0
 21
9.0
 12
0.0
 22
0.0
 32
0.0
 14
1.000000000000000E+20
 24
1.000000000000000E+20
 34
1.000000000000000E+20
 15
-1.000000000000000E+20
 25
-1.000000000000000E+20
 35
-1.000000000000000E+20
146
0.0
 13
0.0
 23
0.0
 33
0.0
 16
1.0
 26
0.0
 36
0.0
 17
0.0
 27
1.0
 37
0.0
 76
     0
330
1B
  0
LAYOUT
  5
26
102
{ACAD_REACTORS
330
1A
102
}
330
1A
100
AcDbPlotSettings
  1

  2
none_device
  4

  6

 40
0.0
 41
0.0
 42
0.0
 43
0.0
 44
0.0
 45
0.0
 46
0.0
 47
0.0
 48
0.0
 49
0.0
140
0.0
141
0.0
142
1.0
143
1.0
 70
   688
 72
     0
 73
     0
 74
     5
  7

 75
    16
 76
     0
 77
     2
 78
   300
147
1.0
148
0.0
149
0.0
100
AcDbLayout
  1
Layout2
 70
     1
 71
     2
 10
0.0
 20
0.0
 11
0.0
 21
0.0
 12
0.0
 22
0.0
 32
0.0
 14
0.0
 24
0.0
 34
0.0
 15
0.0
 25
0.0
 35
0.0
146
0.0
 13
0.0
 23
0.0
 33
0.0
 16
1.0
 26
0.0
 36
0.0
 17
0.0
 27
1.0
 37
0.0
 76
     0
330
23
  0
LAYOUT
  5
22
102
{ACAD_REACTORS
330
1A
102
}
330
1A
100
AcDbPlotSettings
  1

  2
none_device
  4
Letter_(8.50_x_11.00_Inches)
  6

 40
6.35
 41
6.35
 42
6.35000508
 43
6.35000508
 44
215.9
 45
279.4
 46
0.0
 47
0.0
 48
0.0
 49
0.0
140
0.0
141
0.0
142
1.0
143
1.0
 70
  1712
 72
     0
 73
     0
 74
     0
  7

 75
     0
 76
     0
 77
     2
 78
   300
147
1.0
148
0.0
149
0.0
100
AcDbLayout
  1
Model
 70
     1
 71
     0
 10
0.0
 20
0.0
 11
12.0
 21
9.0
 12
0.0
 22
0.0
 32
0.0
 14
378.6199533674756
 24
519.6199533675172
 34
0.0
 15
608.6199533674757
 25
678.6199280988731
 35
0.0
146
0.0
 13
0.0
 23
0.0
 33
0.0
 16
1.0
 26
0.0
 36
0.0
 17
0.0
 27
1.0
 37
0.0
 76
     0
330
1F
331
29
  0
MATERIAL
  5
3D
102
{ACAD_REACTORS
330
3B
102
}
102
{ACAD_XDICTIONARY
360
6AE
102
}
330
3B
100
AcDbMaterial
  1
ByBlock
  0
MATERIAL
  5
3C
102
{ACAD_REACTORS
330
3B
102
}
102
{ACAD_XDICTIONARY
360
6AC
102
}
330
3B
100
AcDbMaterial
  1
ByLayer
  0
MATERIAL
  5
3E
102
{ACAD_REACTORS
330
3B
102
}
102
{ACAD_XDICTIONARY
360
6B0
102
}
330
3B
100
AcDbMaterial
  1
Global
  0
MLINESTYLE
  5
18
102
{ACAD_REACTORS
330
17
102
}
330
17
100
AcDbMlineStyle
  2
Standard
 70
     0
  3

 62
   256
 51
90.0
 52
90.0
 71
     2
 49
0.5
 62
   256
  6
BYLAYER
 49
-0.5
 62
   256
  6
BYLAYER
  0
ACDBPLACEHOLDER
  5
F
102
{ACAD_REACTORS
330
E
102
}
330
E
  0
SCALE
  5
40
102
{ACAD_REACTORS
330
3F
102
}
330
3F
100
AcDbScale
 70
     0
300
1:1
140
1.0
141
1.0
290
     1
  0
SCALE
  5
41
102
{ACAD_REACTORS
330
3F
102
}
330
3F
100
AcDbScale
 70
     0
300
1:2
140
1.0
141
2.0
290
     0
  0
SCALE
  5
42
102
{ACAD_REACTORS
330
3F
102
}
330
3F
100
AcDbScale
 70
     0
300
1:4
140
1.0
141
4.0
290
     0
  0
SCALE
  5
43
102
{ACAD_REACTORS
330
3F
102
}
330
3F
100
AcDbScale
 70
     0
300
1:5
140
1.0
141
5.0
290
     0
  0
SCALE
  5
44
102
{ACAD_REACTORS
330
3F
102
}
330
3F
100
AcDbScale
 70
     0
300
1:8
140
1.0
141
8.0
290
     0
  0
SCALE
  5
45
102
{ACAD_REACTORS
330
3F
102
}
330
3F
100
AcDbScale
 70
     0
300
1:10
140
1.0
141
10.0
290
     0
  0
SCALE
  5
46
102
{ACAD_REACTORS
330
3F
102
}
330
3F
100
AcDbScale
 70
     0
300
1:16
140
1.0
141
16.0
290
     0
  0
SCALE
  5
47
102
{ACAD_REACTORS
330
3F
102
}
330
3F
100
AcDbScale
 70
     0
300
1:20
140
1.0
141
20.0
290
     0
  0
SCALE
  5
48
102
{ACAD_REACTORS
330
3F
102
}
330
3F
100
AcDbScale
 70
     0
300
1:30
140
1.0
141
30.0
290
     0
  0
SCALE
  5
49
102
{ACAD_REACTORS
330
3F
102
}
330
3F
100
AcDbScale
 70
     0
300
1:40
140
1.0
141
40.0
290
     0
  0
SCALE
  5
4A
102
{ACAD_REACTORS
330
3F
102
}
330
3F
100
AcDbScale
 70
     0
300
1:50
140
1.0
141
50.0
290
     0
  0
SCALE
  5
4B
102
{ACAD_REACTORS
330
3F
102
}
330
3F
100
AcDbScale
 70
     0
300
1:100
140
1.0
141
100.0
290
     0
  0
SCALE
  5
4C
102
{ACAD_REACTORS
330
3F
102
}
330
3F
100
AcDbScale
 70
     0
300
2:1
140
2.0
141
1.0
290
     0
  0
SCALE
  5
4D
102
{ACAD_REACTORS
330
3F
102
}
330
3F
100
AcDbScale
 70
     0
300
4:1
140
4.0
141
1.0
290
     0
  0
SCALE
  5
4E
102
{ACAD_REACTORS
330
3F
102
}
330
3F
100
AcDbScale
 70
     0
300
8:1
140
8.0
141
1.0
290
     0
  0
SCALE
  5
4F
102
{ACAD_REACTORS
330
3F
102
}
330
3F
100
AcDbScale
 70
     0
300
10:1
140
10.0
141
1.0
290
     0
  0
SCALE
  5
50
102
{ACAD_REACTORS
330
3F
102
}
330
3F
100
AcDbScale
 70
     0
300
100:1
140
100.0
141
1.0
290
     0
  0
SCALE
  5
51
102
{ACAD_REACTORS
330
3F
102
}
330
3F
100
AcDbScale
 70
     0
300
1/128" = 1'-0"
140
0.0078125
141
12.0
290
     0
  0
SCALE
  5
52
102
{ACAD_REACTORS
330
3F
102
}
330
3F
100
AcDbScale
 70
     0
300
1/64" = 1'-0"
140
0.015625
141
12.0
290
     0
  0
SCALE
  5
53
102
{ACAD_REACTORS
330
3F
102
}
330
3F
100
AcDbScale
 70
     0
300
1/32" = 1'-0"
140
0.03125
141
12.0
290
     0
  0
SCALE
  5
54
102
{ACAD_REACTORS
330
3F
102
}
330
3F
100
AcDbScale
 70
     0
300
1/16" = 1'-0"
140
0.0625
141
12.0
290
     0
  0
SCALE
  5
55
102
{ACAD_REACTORS
330
3F
102
}
330
3F
100
AcDbScale
 70
     0
300
3/32" = 1'-0"
140
0.09375
141
12.0
290
     0
  0
SCALE
  5
56
102
{ACAD_REACTORS
330
3F
102
}
330
3F
100
AcDbScale
 70
     0
300
1/8" = 1'-0"
140
0.125
141
12.0
290
     0
  0
SCALE
  5
57
102
{ACAD_REACTORS
330
3F
102
}
330
3F
100
AcDbScale
 70
     0
300
3/16" = 1'-0"
140
0.1875
141
12.0
290
     0
  0
SCALE
  5
58
102
{ACAD_REACTORS
330
3F
102
}
330
3F
100
AcDbScale
 70
     0
300
1/4" = 1'-0"
140
0.25
141
12.0
290
     0
  0
SCALE
  5
59
102
{ACAD_REACTORS
330
3F
102
}
330
3F
100
AcDbScale
 70
     0
300
3/8" = 1'-0"
140
0.375
141
12.0
290
     0
  0
SCALE
  5
5A
102
{ACAD_REACTORS
330
3F
102
}
330
3F
100
AcDbScale
 70
     0
300
1/2" = 1'-0"
140
0.5
141
12.0
290
     0
  0
SCALE
  5
5B
102
{ACAD_REACTORS
330
3F
102
}
330
3F
100
AcDbScale
 70
     0
300
3/4" = 1'-0"
140
0.75
141
12.0
290
     0
  0
SCALE
  5
5C
102
{ACAD_REACTORS
330
3F
102
}
330
3F
100
AcDbScale
 70
     0
300
1" = 1'-0"
140
1.0
141
12.0
290
     0
  0
SCALE
  5
5D
102
{ACAD_REACTORS
330
3F
102
}
330
3F
100
AcDbScale
 70
     0
300
1-1/2" = 1'-0"
140
1.5
141
12.0
290
     0
  0
SCALE
  5
5E
102
{ACAD_REACTORS
330
3F
102
}
330
3F
100
AcDbScale
 70
     0
300
3" = 1'-0"
140
3.0
141
12.0
290
     0
  0
SCALE
  5
5F
102
{ACAD_REACTORS
330
3F
102
}
330
3F
100
AcDbScale
 70
     0
300
6" = 1'-0"
140
6.0
141
12.0
290
     0
  0
SCALE
  5
60
102
{ACAD_REACTORS
330
3F
102
}
330
3F
100
AcDbScale
 70
     0
300
1'-0" = 1'-0"
140
12.0
141
12.0
290
     0
  0
VISUALSTYLE
  5
2F
102
{ACAD_REACTORS
330
2A
102
}
102
{ACAD_XDICTIONARY
360
694
102
}
330
2A
100
AcDbVisualStyle
  2
2dWireframe
 70
     4
 71
     0
 72
     2
 73
     0
 90
        0
 40
0.6
 41
30.0
 62
     5
 63
     7
421
 16777215
 74
     1
 91
        4
 64
     7
 65
   257
 75
     1
175
     1
 42
1.0
 92
        0
 66
   257
 43
1.0
 76
     1
 77
     6
 78
     2
 67
     7
 79
     5
170
     0
171
     0
290
     0
174
     0
 93
        1
 44
0.0
173
     0
291
     0
 45
0.0
1001
ACAD
1000
AcDbSavedByObjectVersion
1070
     0
  0
VISUALSTYLE
  5
31
102
{ACAD_REACTORS
330
2A
102
}
102
{ACAD_XDICTIONARY
360
698
102
}
330
2A
100
AcDbVisualStyle
  2
3D Hidden
 70
     6
 71
     1
 72
     2
 73
     2
 90
        0
 40
0.6
 41
30.0
 62
     5
 63
     7
421
 16777215
 74
     2
 91
        2
 64
     7
 65
   257
 75
     2
175
     1
 42
40.0
 92
        0
 66
   257
 43
1.0
 76
     1
 77
     6
 78
     2
 67
     7
 79
     3
170
     0
171
     0
290
     0
174
     0
 93
        1
 44
0.0
173
     0
291
     0
 45
0.0
1001
ACAD
1000
AcDbSavedByObjectVersion
1070
     0
  0
VISUALSTYLE
  5
30
102
{ACAD_REACTORS
330
2A
102
}
102
{ACAD_XDICTIONARY
360
696
102
}
330
2A
100
AcDbVisualStyle
  2
3dWireframe
 70
     5
 71
     0
 72
     2
 73
     0
 90
        0
 40
0.6
 41
30.0
 62
     5
 63
     7
421
 16777215
 74
     1
 91
        4
 64
     7
 65
   257
 75
     1
175
     1
 42
1.0
 92
        0
 66
   257
 43
1.0
 76
     1
 77
     6
 78
     2
 67
     7
 79
     5
170
     0
171
     0
290
     0
174
     0
 93
        1
 44
0.0
173
     0
291
     0
 45
0.0
1001
ACAD
1000
AcDbSavedByObjectVersion
1070
     0
  0
VISUALSTYLE
  5
32
102
{ACAD_REACTORS
330
2A
102
}
102
{ACAD_XDICTIONARY
360
69A
102
}
330
2A
100
AcDbVisualStyle
  2
Basic
 70
     7
 71
     1
 72
     0
 73
     1
 90
        0
 40
0.6
 41
30.0
 62
     5
 63
     7
421
 16777215
 74
     0
 91
        4
 64
     7
 65
   257
 75
     1
175
     1
 42
1.0
 92
        8
 66
     7
 43
1.0
 76
     1
 77
     6
 78
     2
 67
     7
 79
     5
170
     0
171
     0
290
     0
174
     0
 93
        1
 44
0.0
173
     0
291
     1
 45
0.0
1001
ACAD
1000
AcDbSavedByObjectVersion
1070
     0
  0
VISUALSTYLE
  5
36
102
{ACAD_REACTORS
330
2A
102
}
102
{ACAD_XDICTIONARY
360
6A2
102
}
330
2A
100
AcDbVisualStyle
  2
Brighten
 70
    12
 71
     2
 72
     2
 73
     0
 90
        0
 40
0.6
 41
30.0
 62
     5
 63
     7
421
 16777215
 74
     1
 91
        4
 64
     7
 65
   257
 75
     1
175
     1
 42
1.0
 92
        8
 66
     7
 43
1.0
 76
     1
 77
     6
 78
     2
 67
     7
 79
     5
170
     0
171
     0
290
     0
174
     0
 93
        1
 44
50.0
173
     0
291
     1
 45
0.0
1001
ACAD
1000
AcDbSavedByObjectVersion
1070
     0
  0
VISUALSTYLE
  5
3A
102
{ACAD_REACTORS
330
2A
102
}
102
{ACAD_XDICTIONARY
360
6AA
102
}
330
2A
100
AcDbVisualStyle
  2
ColorChange
 70
    16
 71
     2
 72
     2
 73
     3
 90
        0
 40
0.6
 41
30.0
 62
     5
 63
     8
421
  8421504
 74
     1
 91
        4
 64
     7
 65
   257
 75
     1
175
     1
 42
1.0
 92
        8
 66
     8
424
  8421504
 43
1.0
 76
     1
 77
     6
 78
     2
 67
     7
 79
     5
170
     0
171
     0
290
     0
174
     0
 93
        1
 44
0.0
173
     0
291
     1
 45
0.0
1001
ACAD
1000
AcDbSavedByObjectVersion
1070
     0
  0
VISUALSTYLE
  5
34
102
{ACAD_REACTORS
330
2A
102
}
102
{ACAD_XDICTIONARY
360
69E
102
}
330
2A
100
AcDbVisualStyle
  2
Conceptual
 70
     9
 71
     3
 72
     2
 73
     0
 90
        0
 40
0.6
 41
30.0
 62
     5
 63
     7
421
 16777215
 74
     2
 91
        2
 64
     7
 65
   257
 75
     1
175
     1
 42
40.0
 92
        8
 66
     7
 43
1.0
 76
     1
 77
     6
 78
     2
 67
     7
 79
     3
170
     0
171
     0
290
     0
174
     0
 93
        1
 44
0.0
173
     0
291
     0
 45
0.0
1001
ACAD
1000
AcDbSavedByObjectVersion
1070
     0
  0
VISUALSTYLE
  5
35
102
{ACAD_REACTORS
330
2A
102
}
102
{ACAD_XDICTIONARY
360
6A0
102
}
330
2A
100
AcDbVisualStyle
  2
Dim
 70
    11
 71
     2
 72
     2
 73
     0
 90
        0
 40
0.6
 41
30.0
 62
     5
 63
     7
421
 16777215
 74
     1
 91
        4
 64
     7
 65
   257
 75
     1
175
     1
 42
1.0
 92
        8
 66
     7
 43
1.0
 76
     1
 77
     6
 78
     2
 67
     7
 79
     5
170
     0
171
     0
290
     0
174
     0
 93
        1
 44
-50.0
173
     0
291
     1
 45
0.0
1001
ACAD
1000
AcDbSavedByObjectVersion
1070
     0
  0
VISUALSTYLE
  5
39
102
{ACAD_REACTORS
330
2A
102
}
102
{ACAD_XDICTIONARY
360
6A8
102
}
330
2A
100
AcDbVisualStyle
  2
Facepattern
 70
    15
 71
     2
 72
     2
 73
     0
 90
        0
 40
0.6
 41
30.0
 62
     5
 63
     7
421
 16777215
 74
     1
 91
        4
 64
     7
 65
   257
 75
     1
175
     1
 42
1.0
 92
        8
 66
     7
 43
1.0
 76
     1
 77
     6
 78
     2
 67
     7
 79
     5
170
     0
171
     0
290
     0
174
     0
 93
        1
 44
0.0
173
     0
291
     1
 45
0.0
1001
ACAD
1000
AcDbSavedByObjectVersion
1070
     0
  0
VISUALSTYLE
  5
2B
102
{ACAD_REACTORS
330
2A
102
}
102
{ACAD_XDICTIONARY
360
68C
102
}
330
2A
100
AcDbVisualStyle
  2
Flat
 70
     0
 71
     2
 72
     1
 73
     1
 90
        2
 40
0.6
 41
30.0
 62
     5
 63
     7
421
 16777215
 74
     0
 91
        4
 64
     7
 65
   257
 75
     1
175
     1
 42
1.0
 92
        8
 66
     7
 43
1.0
 76
     1
 77
     6
 78
     2
 67
     7
 79
     5
170
     0
171
     0
290
     0
174
     0
 93
       13
 44
0.0
173
     0
291
     1
 45
0.0
1001
ACAD
1000
AcDbSavedByObjectVersion
1070
     0
  0
VISUALSTYLE
  5
2C
102
{ACAD_REACTORS
330
2A
102
}
102
{ACAD_XDICTIONARY
360
68E
102
}
330
2A
100
AcDbVisualStyle
  2
FlatWithEdges
 70
     1
 71
     2
 72
     1
 73
     1
 90
        2
 40
0.6
 41
30.0
 62
     5
 63
     7
421
 16777215
 74
     1
 91
        4
 64
     7
 65
   257
 75
     1
175
     1
 42
1.0
 92
        0
 66
   257
 43
1.0
 76
     1
 77
     6
 78
     2
 67
     7
 79
     5
170
     0
171
     0
290
     0
174
     0
 93
       13
 44
0.0
173
     0
291
     1
 45
0.0
1001
ACAD
1000
AcDbSavedByObjectVersion
1070
     0
  0
VISUALSTYLE
  5
2D
102
{ACAD_REACTORS
330
2A
102
}
102
{ACAD_XDICTIONARY
360
690
102
}
330
2A
100
AcDbVisualStyle
  2
Gouraud
 70
     2
 71
     2
 72
     2
 73
     1
 90
        2
 40
0.6
 41
30.0
 62
     5
 63
     7
421
 16777215
 74
     0
 91
        4
 64
     7
 65
   257
 75
     1
175
     1
 42
1.0
 92
        0
 66
     7
 43
1.0
 76
     1
 77
     6
 78
     2
 67
     7
 79
     5
170
     0
171
     0
290
     0
174
     0
 93
       13
 44
0.0
173
     0
291
     1
 45
0.0
1001
ACAD
1000
AcDbSavedByObjectVersion
1070
     0
  0
VISUALSTYLE
  5
2E
102
{ACAD_REACTORS
330
2A
102
}
102
{ACAD_XDICTIONARY
360
692
102
}
330
2A
100
AcDbVisualStyle
  2
GouraudWithEdges
 70
     3
 71
     2
 72
     2
 73
     1
 90
        2
 40
0.6
 41
30.0
 62
     5
 63
     7
421
 16777215
 74
     1
 91
        4
 64
     7
 65
   257
 75
     1
175
     1
 42
1.0
 92
        0
 66
   257
 43
1.0
 76
     1
 77
     6
 78
     2
 67
     7
 79
     5
170
     0
171
     0
290
     0
174
     0
 93
       13
 44
0.0
173
     0
291
     1
 45
0.0
1001
ACAD
1000
AcDbSavedByObjectVersion
1070
     0
  0
VISUALSTYLE
  5
38
102
{ACAD_REACTORS
330
2A
102
}
102
{ACAD_XDICTIONARY
360
6A6
102
}
330
2A
100
AcDbVisualStyle
  2
Linepattern
 70
    14
 71
     2
 72
     2
 73
     0
 90
        0
 40
0.6
 41
30.0
 62
     5
 63
     7
421
 16777215
 74
     1
 91
        4
 64
     7
 65
   257
 75
     7
175
     7
 42
1.0
 92
        8
 66
     7
 43
1.0
 76
     1
 77
     6
 78
     2
 67
     7
 79
     5
170
     0
171
     0
290
     0
174
     0
 93
        1
 44
0.0
173
     0
291
     1
 45
0.0
1001
ACAD
1000
AcDbSavedByObjectVersion
1070
     0
  0
VISUALSTYLE
  5
33
102
{ACAD_REACTORS
330
2A
102
}
102
{ACAD_XDICTIONARY
360
69C
102
}
330
2A
100
AcDbVisualStyle
  2
Realistic
 70
     8
 71
     2
 72
     3
 73
     0
 90
        2
 40
0.6
 41
30.0
 62
     5
 63
     7
421
 16777215
 74
     0
 91
        0
 64
     7
 65
   257
 75
     1
175
     1
 42
1.0
 92
        8
 66
   257
 43
1.0
 76
     1
 77
     6
 78
     2
 67
     7
 79
     3
170
     0
171
     0
290
     0
174
     0
 93
       13
 44
0.0
173
     0
291
     0
 45
0.0
1001
ACAD
1000
AcDbSavedByObjectVersion
1070
     0
  0
VISUALSTYLE
  5
37
102
{ACAD_REACTORS
330
2A
102
}
102
{ACAD_XDICTIONARY
360
6A4
102
}
330
2A
100
AcDbVisualStyle
  2
Thicken
 70
    13
 71
     2
 72
     2
 73
     0
 90
        0
 40
0.6
 41
30.0
 62
     5
 63
     7
421
 16777215
 74
     1
 91
        4
 64
     7
 65
   257
 75
     1
175
     1
 42
1.0
 92
       12
 66
     7
 43
1.0
 76
     1
 77
     6
 78
     2
 67
     7
 79
     5
170
     0
171
     0
290
     0
174
     0
 93
        1
 44
0.0
173
     0
291
     1
 45
0.0
1001
ACAD
1000
AcDbSavedByObjectVersion
1070
     0
  0
DICTIONARYVAR
  5
68A
102
{ACAD_REACTORS
330
689
102
}
330
689
100
DictionaryVariables
280
     0
  1
1:1
  0
DICTIONARYVAR
  5
68B
102
{ACAD_REACTORS
330
689
102
}
330
689
100
DictionaryVariables
280
     0
  1
1
  0
DICTIONARY
  5
6AE
330
3D
100
AcDbDictionary
280
     1
281
     1
  3
ACAD_XREC_ROUNDTRIP
360
6AF
  0
DICTIONARY
  5
6AC
330
3C
100
AcDbDictionary
280
     1
281
     1
  3
ACAD_XREC_ROUNDTRIP
360
6AD
  0
DICTIONARY
  5
6B0
330
3E
100
AcDbDictionary
280
     1
281
     1
  3
ACAD_XREC_ROUNDTRIP
360
6B1
  0
DICTIONARY
  5
694
330
2F
100
AcDbDictionary
280
     1
281
     1
  3
ACAD_XREC_ROUNDTRIP
360
695
  0
DICTIONARY
  5
698
330
31
100
AcDbDictionary
280
     1
281
     1
  3
ACAD_XREC_ROUNDTRIP
360
699
  0
DICTIONARY
  5
696
330
30
100
AcDbDictionary
280
     1
281
     1
  3
ACAD_XREC_ROUNDTRIP
360
697
  0
DICTIONARY
  5
69A
330
32
100
AcDbDictionary
280
     1
281
     1
  3
ACAD_XREC_ROUNDTRIP
360
69B
  0
DICTIONARY
  5
6A2
330
36
100
AcDbDictionary
280
     1
281
     1
  3
ACAD_XREC_ROUNDTRIP
360
6A3
  0
DICTIONARY
  5
6AA
330
3A
100
AcDbDictionary
280
     1
281
     1
  3
ACAD_XREC_ROUNDTRIP
360
6AB
  0
DICTIONARY
  5
69E
330
34
100
AcDbDictionary
280
     1
281
     1
  3
ACAD_XREC_ROUNDTRIP
360
69F
  0
DICTIONARY
  5
6A0
330
35
100
AcDbDictionary
280
     1
281
     1
  3
ACAD_XREC_ROUNDTRIP
360
6A1
  0
DICTIONARY
  5
6A8
330
39
100
AcDbDictionary
280
     1
281
     1
  3
ACAD_XREC_ROUNDTRIP
360
6A9
  0
DICTIONARY
  5
68C
330
2B
100
AcDbDictionary
280
     1
281
     1
  3
ACAD_XREC_ROUNDTRIP
360
68D
  0
DICTIONARY
  5
68E
330
2C
100
AcDbDictionary
280
     1
281
     1
  3
ACAD_XREC_ROUNDTRIP
360
68F
  0
DICTIONARY
  5
690
330
2D
100
AcDbDictionary
280
     1
281
     1
  3
ACAD_XREC_ROUNDTRIP
360
691
  0
DICTIONARY
  5
692
330
2E
100
AcDbDictionary
280
     1
281
     1
  3
ACAD_XREC_ROUNDTRIP
360
693
  0
DICTIONARY
  5
6A6
330
38
100
AcDbDictionary
280
     1
281
     1
  3
ACAD_XREC_ROUNDTRIP
360
6A7
  0
DICTIONARY
  5
69C
330
33
100
AcDbDictionary
280
     1
281
     1
  3
ACAD_XREC_ROUNDTRIP
360
69D
  0
DICTIONARY
  5
6A4
330
37
100
AcDbDictionary
280
     1
281
     1
  3
ACAD_XREC_ROUNDTRIP
360
6A5
  0
XRECORD
  5
6AF
102
{ACAD_REACTORS
330
6AE
102
}
330
6AE
100
AcDbXrecord
280
     1
102
MATERIAL
148
0.0
149
0.0
149
0.0
 93
        0
 94
      127
282
     0
 72
     1
 77
     1
171
     1
175
     1
179
     1
273
     0
  0
XRECORD
  5
6AD
102
{ACAD_REACTORS
330
6AC
102
}
330
6AC
100
AcDbXrecord
280
     1
102
MATERIAL
148
0.0
149
0.0
149
0.0
 93
        0
 94
      127
282
     0
 72
     1
 77
     1
171
     1
175
     1
179
     1
273
     0
  0
XRECORD
  5
6B1
102
{ACAD_REACTORS
330
6B0
102
}
330
6B0
100
AcDbXrecord
280
     1
102
MATERIAL
148
0.0
149
0.0
149
0.0
 93
        0
 94
      127
282
     0
 72
     1
 77
     1
171
     1
175
     1
179
     1
273
     0
  0
XRECORD
  5
695
102
{ACAD_REACTORS
330
694
102
}
330
694
100
AcDbXrecord
280
     1
102
RTVSPropertyOp0
 70
     1
102
RTVSPropertyOp1
 70
     1
102
RTVSPropertyOp2
 70
     1
102
RTVSPropertyOp3
 70
     1
102
RTVSPropertyOp4
 70
     1
102
RTVSPropertyOp5
 70
     1
102
RTVSPropertyOp6
 70
     1
102
RTVSPropertyOp7
 70
     1
102
RTVSPropertyOp8
 70
     1
102
RTVSPropertyOp9
 70
     1
102
RTVSPropertyOp10
 70
     1
102
RTVSPropertyOp11
 70
     1
102
RTVSPropertyOp12
 70
     1
102
RTVSPropertyOp13
 70
     1
102
RTVSPropertyOp14
 70
     1
102
RTVSPropertyOp15
 70
     1
102
RTVSPropertyOp16
 70
     1
102
RTVSPropertyOp17
 70
     1
102
RTVSPropertyOp18
 70
     1
102
RTVSPropertyOp19
 70
     1
102
RTVSPropertyOp20
 70
     1
102
RTVSPropertyOp21
 70
     1
102
RTVSPropertyOp22
 70
     1
102
RTVSPropertyOp23
 70
     1
102
RTVSPropertyOp24
 70
     1
102
RTVSPropertyOp25
 70
     1
102
RTVSPropertyOp26
 70
     1
102
RTVSPropertyOp27
 70
     1
102
RTVSPropertyOp28
 70
     1
102
RTVSPropertyOp29
 70
     1
102
RTVSPropertyOp30
 70
     1
102
RTVSPropertyOp31
 70
     1
102
RTVSPropertyOp32
 70
     1
102
RTVSPropertyOp33
 70
     1
102
RTVSPropertyOp34
 70
     1
102
RTVSPropertyOp35
 70
     1
102
RTVSPropertyOp36
 70
     1
102
RTVSPropertyOp37
 70
     1
102
RTVSPropertyOp38
 70
     1
102
RTVSPropertyOp39
 70
     1
102
RTVSPropertyOp40
 70
     1
102
RTVSPropertyOp41
 70
     1
102
RTVSPropertyOp42
 70
     1
102
RTVSPropertyOp43
 70
     1
102
RTVSPropertyOp44
 70
     1
102
RTVSPropertyOp45
 70
     1
102
RTVSPropertyOp46
 70
     1
102
RTVSPropertyOp47
 70
     1
102
RTVSPropertyOp48
 70
     1
102
RTVSPropertyOp49
 70
     1
102
RTVSPropertyOp50
 70
     1
102
RTVSPropertyOp51
 70
     0
102
RTVSPropertyOp52
 70
     0
102
RTVSPropertyOp53
 70
     1
102
RTVSPropertyOp54
 70
     1
102
RTVSPropertyOp55
 70
     1
102
RTVSPropertyOp56
 70
     1
102
RTVSPropertyOp57
 70
     1
102
RTVSPost2010Prop28
280
     1
102
RTVSPost2010PropOp28
 70
     1
102
RTVSPost2010Prop29
280
     1
102
RTVSPost2010PropOp29
 70
     1
102
RTVSPost2010Prop30
280
     0
102
RTVSPost2010PropOp30
 70
     1
102
RTVSPost2010Prop31
280
     0
102
RTVSPost2010PropOp31
 70
     1
102
RTVSPost2010Prop32
280
     0
102
RTVSPost2010PropOp32
 70
     1
102
RTVSPost2010Prop33
280
     0
102
RTVSPost2010PropOp33
 70
     1
102
RTVSPost2010Prop34
280
     0
102
RTVSPost2010PropOp34
 70
     1
102
RTVSPost2010Prop35
280
     0
102
RTVSPost2010PropOp35
 70
     1
102
RTVSPost2010Prop36
280
     0
102
RTVSPost2010PropOp36
 70
     1
102
RTVSPost2010Prop37
 90
       50
102
RTVSPost2010PropOp37
 70
     1
102
RTVSPost2010Prop38
140
0.0
102
RTVSPost2010PropOp38
 70
     1
102
RTVSPost2010Prop39
140
1.0
102
RTVSPost2010PropOp39
 70
     1
102
RTVSPost2010Prop40
 90
        0
102
RTVSPost2010PropOp40
 70
     1
102
RTVSPost2010Prop41ColorIndex
 90
       18
102
RTVSPost2010Prop41ColorRGB
 90
        0
102
RTVSPost2010PropOp41
 70
     1
102
RTVSPost2010Prop42
 90
       50
102
RTVSPost2010PropOp42
 70
     1
102
RTVSPost2010Prop43
 90
        3
102
RTVSPost2010PropOp43
 70
     1
102
RTVSPost2010Prop44ColorIndex
 90
        5
102
RTVSPost2010Prop44ColorRGB
 90
      255
102
RTVSPost2010PropOp44
 70
     1
102
RTVSPost2010Prop45
280
     0
102
RTVSPost2010PropOp45
 70
     1
102
RTVSPost2010Prop46
 90
       50
102
RTVSPost2010PropOp46
 70
     1
102
RTVSPost2010Prop47
 90
       50
102
RTVSPost2010PropOp47
 70
     1
102
RTVSPost2010Prop48
 90
       50
102
RTVSPost2010PropOp48
 70
     1
102
RTVSPost2010Prop49
280
     0
102
RTVSPost2010PropOp49
 70
     1
102
RTVSPost2010Prop50
 90
       50
102
RTVSPost2010PropOp50
 70
     1
102
RTVSPost2010Prop51ColorIndex
 90
      256
102
RTVSPost2010Prop51ColorRGB
 90
-16777216
102
RTVSPost2010PropOp51
 70
     0
102
RTVSPost2010Prop52
140
1.0
102
RTVSPost2010PropOp52
 70
     0
102
RTVSPost2010Prop53
 90
        2
102
RTVSPost2010PropOp53
 70
     1
102
RTVSPost2010Prop54
  1
strokes_ogs.tif
102
RTVSPost2010PropOp54
 70
     1
102
RTVSPost2010Prop55
280
     0
102
RTVSPost2010PropOp55
 70
     1
102
RTVSPost2010Prop56
140
1.0
102
RTVSPost2010PropOp56
 70
     1
102
RTVSPost2010Prop57
140
1.0
102
RTVSPost2010PropOp57
 70
     1
  0
XRECORD
  5
699
102
{ACAD_REACTORS
330
698
102
}
330
698
100
AcDbXrecord
280
     1
102
RTVSPropertyOp0
 70
     1
102
RTVSPropertyOp1
 70
     1
102
RTVSPropertyOp2
 70
     1
102
RTVSPropertyOp3
 70
     1
102
RTVSPropertyOp4
 70
     1
102
RTVSPropertyOp5
 70
     1
102
RTVSPropertyOp6
 70
     1
102
RTVSPropertyOp7
 70
     1
102
RTVSPropertyOp8
 70
     1
102
RTVSPropertyOp9
 70
     1
102
RTVSPropertyOp10
 70
     1
102
RTVSPropertyOp11
 70
     1
102
RTVSPropertyOp12
 70
     1
102
RTVSPropertyOp13
 70
     1
102
RTVSPropertyOp14
 70
     1
102
RTVSPropertyOp15
 70
     1
102
RTVSPropertyOp16
 70
     1
102
RTVSPropertyOp17
 70
     1
102
RTVSPropertyOp18
 70
     1
102
RTVSPropertyOp19
 70
     1
102
RTVSPropertyOp20
 70
     1
102
RTVSPropertyOp21
 70
     1
102
RTVSPropertyOp22
 70
     1
102
RTVSPropertyOp23
 70
     1
102
RTVSPropertyOp24
 70
     1
102
RTVSPropertyOp25
 70
     1
102
RTVSPropertyOp26
 70
     1
102
RTVSPropertyOp27
 70
     1
102
RTVSPropertyOp28
 70
     1
102
RTVSPropertyOp29
 70
     1
102
RTVSPropertyOp30
 70
     1
102
RTVSPropertyOp31
 70
     1
102
RTVSPropertyOp32
 70
     1
102
RTVSPropertyOp33
 70
     1
102
RTVSPropertyOp34
 70
     1
102
RTVSPropertyOp35
 70
     1
102
RTVSPropertyOp36
 70
     1
102
RTVSPropertyOp37
 70
     1
102
RTVSPropertyOp38
 70
     1
102
RTVSPropertyOp39
 70
     1
102
RTVSPropertyOp40
 70
     1
102
RTVSPropertyOp41
 70
     1
102
RTVSPropertyOp42
 70
     1
102
RTVSPropertyOp43
 70
     1
102
RTVSPropertyOp44
 70
     1
102
RTVSPropertyOp45
 70
     1
102
RTVSPropertyOp46
 70
     1
102
RTVSPropertyOp47
 70
     1
102
RTVSPropertyOp48
 70
     1
102
RTVSPropertyOp49
 70
     1
102
RTVSPropertyOp50
 70
     1
102
RTVSPropertyOp51
 70
     0
102
RTVSPropertyOp52
 70
     0
102
RTVSPropertyOp53
 70
     1
102
RTVSPropertyOp54
 70
     1
102
RTVSPropertyOp55
 70
     1
102
RTVSPropertyOp56
 70
     1
102
RTVSPropertyOp57
 70
     1
102
RTVSPost2010Prop28
280
     0
102
RTVSPost2010PropOp28
 70
     1
102
RTVSPost2010Prop29
280
     1
102
RTVSPost2010PropOp29
 70
     1
102
RTVSPost2010Prop30
280
     1
102
RTVSPost2010PropOp30
 70
     1
102
RTVSPost2010Prop31
280
     0
102
RTVSPost2010PropOp31
 70
     1
102
RTVSPost2010Prop32
280
     0
102
RTVSPost2010PropOp32
 70
     1
102
RTVSPost2010Prop33
280
     0
102
RTVSPost2010PropOp33
 70
     1
102
RTVSPost2010Prop34
280
     0
102
RTVSPost2010PropOp34
 70
     1
102
RTVSPost2010Prop35
280
     0
102
RTVSPost2010PropOp35
 70
     1
102
RTVSPost2010Prop36
280
     0
102
RTVSPost2010PropOp36
 70
     1
102
RTVSPost2010Prop37
 90
       50
102
RTVSPost2010PropOp37
 70
     1
102
RTVSPost2010Prop38
140
0.0
102
RTVSPost2010PropOp38
 70
     1
102
RTVSPost2010Prop39
140
1.0
102
RTVSPost2010PropOp39
 70
     1
102
RTVSPost2010Prop40
 90
        0
102
RTVSPost2010PropOp40
 70
     1
102
RTVSPost2010Prop41ColorIndex
 90
       18
102
RTVSPost2010Prop41ColorRGB
 90
        0
102
RTVSPost2010PropOp41
 70
     1
102
RTVSPost2010Prop42
 90
       50
102
RTVSPost2010PropOp42
 70
     1
102
RTVSPost2010Prop43
 90
        3
102
RTVSPost2010PropOp43
 70
     1
102
RTVSPost2010Prop44ColorIndex
 90
        5
102
RTVSPost2010Prop44ColorRGB
 90
      255
102
RTVSPost2010PropOp44
 70
     1
102
RTVSPost2010Prop45
280
     0
102
RTVSPost2010PropOp45
 70
     1
102
RTVSPost2010Prop46
 90
       50
102
RTVSPost2010PropOp46
 70
     1
102
RTVSPost2010Prop47
 90
       50
102
RTVSPost2010PropOp47
 70
     1
102
RTVSPost2010Prop48
 90
       50
102
RTVSPost2010PropOp48
 70
     1
102
RTVSPost2010Prop49
280
     0
102
RTVSPost2010PropOp49
 70
     1
102
RTVSPost2010Prop50
 90
       50
102
RTVSPost2010PropOp50
 70
     1
102
RTVSPost2010Prop51ColorIndex
 90
      256
102
RTVSPost2010Prop51ColorRGB
 90
-16777216
102
RTVSPost2010PropOp51
 70
     0
102
RTVSPost2010Prop52
140
1.0
102
RTVSPost2010PropOp52
 70
     0
102
RTVSPost2010Prop53
 90
        2
102
RTVSPost2010PropOp53
 70
     1
102
RTVSPost2010Prop54
  1
strokes_ogs.tif
102
RTVSPost2010PropOp54
 70
     1
102
RTVSPost2010Prop55
280
     0
102
RTVSPost2010PropOp55
 70
     1
102
RTVSPost2010Prop56
140
1.0
102
RTVSPost2010PropOp56
 70
     1
102
RTVSPost2010Prop57
140
1.0
102
RTVSPost2010PropOp57
 70
     1
  0
XRECORD
  5
697
102
{ACAD_REACTORS
330
696
102
}
330
696
100
AcDbXrecord
280
     1
102
RTVSPropertyOp0
 70
     1
102
RTVSPropertyOp1
 70
     1
102
RTVSPropertyOp2
 70
     1
102
RTVSPropertyOp3
 70
     1
102
RTVSPropertyOp4
 70
     1
102
RTVSPropertyOp5
 70
     1
102
RTVSPropertyOp6
 70
     1
102
RTVSPropertyOp7
 70
     1
102
RTVSPropertyOp8
 70
     1
102
RTVSPropertyOp9
 70
     1
102
RTVSPropertyOp10
 70
     1
102
RTVSPropertyOp11
 70
     1
102
RTVSPropertyOp12
 70
     1
102
RTVSPropertyOp13
 70
     1
102
RTVSPropertyOp14
 70
     1
102
RTVSPropertyOp15
 70
     1
102
RTVSPropertyOp16
 70
     1
102
RTVSPropertyOp17
 70
     1
102
RTVSPropertyOp18
 70
     1
102
RTVSPropertyOp19
 70
     1
102
RTVSPropertyOp20
 70
     1
102
RTVSPropertyOp21
 70
     1
102
RTVSPropertyOp22
 70
     1
102
RTVSPropertyOp23
 70
     1
102
RTVSPropertyOp24
 70
     1
102
RTVSPropertyOp25
 70
     1
102
RTVSPropertyOp26
 70
     1
102
RTVSPropertyOp27
 70
     1
102
RTVSPropertyOp28
 70
     1
102
RTVSPropertyOp29
 70
     1
102
RTVSPropertyOp30
 70
     1
102
RTVSPropertyOp31
 70
     1
102
RTVSPropertyOp32
 70
     1
102
RTVSPropertyOp33
 70
     1
102
RTVSPropertyOp34
 70
     1
102
RTVSPropertyOp35
 70
     1
102
RTVSPropertyOp36
 70
     1
102
RTVSPropertyOp37
 70
     1
102
RTVSPropertyOp38
 70
     1
102
RTVSPropertyOp39
 70
     1
102
RTVSPropertyOp40
 70
     1
102
RTVSPropertyOp41
 70
     1
102
RTVSPropertyOp42
 70
     1
102
RTVSPropertyOp43
 70
     1
102
RTVSPropertyOp44
 70
     1
102
RTVSPropertyOp45
 70
     1
102
RTVSPropertyOp46
 70
     1
102
RTVSPropertyOp47
 70
     1
102
RTVSPropertyOp48
 70
     1
102
RTVSPropertyOp49
 70
     1
102
RTVSPropertyOp50
 70
     1
102
RTVSPropertyOp51
 70
     0
102
RTVSPropertyOp52
 70
     0
102
RTVSPropertyOp53
 70
     1
102
RTVSPropertyOp54
 70
     1
102
RTVSPropertyOp55
 70
     1
102
RTVSPropertyOp56
 70
     1
102
RTVSPropertyOp57
 70
     1
102
RTVSPost2010Prop28
280
     0
102
RTVSPost2010PropOp28
 70
     1
102
RTVSPost2010Prop29
280
     1
102
RTVSPost2010PropOp29
 70
     1
102
RTVSPost2010Prop30
280
     1
102
RTVSPost2010PropOp30
 70
     1
102
RTVSPost2010Prop31
280
     0
102
RTVSPost2010PropOp31
 70
     1
102
RTVSPost2010Prop32
280
     0
102
RTVSPost2010PropOp32
 70
     1
102
RTVSPost2010Prop33
280
     0
102
RTVSPost2010PropOp33
 70
     1
102
RTVSPost2010Prop34
280
     0
102
RTVSPost2010PropOp34
 70
     1
102
RTVSPost2010Prop35
280
     0
102
RTVSPost2010PropOp35
 70
     1
102
RTVSPost2010Prop36
280
     0
102
RTVSPost2010PropOp36
 70
     1
102
RTVSPost2010Prop37
 90
       50
102
RTVSPost2010PropOp37
 70
     1
102
RTVSPost2010Prop38
140
0.0
102
RTVSPost2010PropOp38
 70
     1
102
RTVSPost2010Prop39
140
1.0
102
RTVSPost2010PropOp39
 70
     1
102
RTVSPost2010Prop40
 90
        0
102
RTVSPost2010PropOp40
 70
     1
102
RTVSPost2010Prop41ColorIndex
 90
       18
102
RTVSPost2010Prop41ColorRGB
 90
        0
102
RTVSPost2010PropOp41
 70
     1
102
RTVSPost2010Prop42
 90
       50
102
RTVSPost2010PropOp42
 70
     1
102
RTVSPost2010Prop43
 90
        3
102
RTVSPost2010PropOp43
 70
     1
102
RTVSPost2010Prop44ColorIndex
 90
        5
102
RTVSPost2010Prop44ColorRGB
 90
      255
102
RTVSPost2010PropOp44
 70
     1
102
RTVSPost2010Prop45
280
     0
102
RTVSPost2010PropOp45
 70
     1
102
RTVSPost2010Prop46
 90
       50
102
RTVSPost2010PropOp46
 70
     1
102
RTVSPost2010Prop47
 90
       50
102
RTVSPost2010PropOp47
 70
     1
102
RTVSPost2010Prop48
 90
       50
102
RTVSPost2010PropOp48
 70
     1
102
RTVSPost2010Prop49
280
     0
102
RTVSPost2010PropOp49
 70
     1
102
RTVSPost2010Prop50
 90
       50
102
RTVSPost2010PropOp50
 70
     1
102
RTVSPost2010Prop51ColorIndex
 90
      256
102
RTVSPost2010Prop51ColorRGB
 90
-16777216
102
RTVSPost2010PropOp51
 70
     0
102
RTVSPost2010Prop52
140
1.0
102
RTVSPost2010PropOp52
 70
     0
102
RTVSPost2010Prop53
 90
        2
102
RTVSPost2010PropOp53
 70
     1
102
RTVSPost2010Prop54
  1
strokes_ogs.tif
102
RTVSPost2010PropOp54
 70
     1
102
RTVSPost2010Prop55
280
     0
102
RTVSPost2010PropOp55
 70
     1
102
RTVSPost2010Prop56
140
1.0
102
RTVSPost2010PropOp56
 70
     1
102
RTVSPost2010Prop57
140
1.0
102
RTVSPost2010PropOp57
 70
     1
  0
XRECORD
  5
69B
102
{ACAD_REACTORS
330
69A
102
}
330
69A
100
AcDbXrecord
280
     1
102
RTVSPropertyOp0
 70
     1
102
RTVSPropertyOp1
 70
     1
102
RTVSPropertyOp2
 70
     1
102
RTVSPropertyOp3
 70
     1
102
RTVSPropertyOp4
 70
     1
102
RTVSPropertyOp5
 70
     1
102
RTVSPropertyOp6
 70
     1
102
RTVSPropertyOp7
 70
     1
102
RTVSPropertyOp8
 70
     1
102
RTVSPropertyOp9
 70
     1
102
RTVSPropertyOp10
 70
     1
102
RTVSPropertyOp11
 70
     1
102
RTVSPropertyOp12
 70
     1
102
RTVSPropertyOp13
 70
     1
102
RTVSPropertyOp14
 70
     1
102
RTVSPropertyOp15
 70
     1
102
RTVSPropertyOp16
 70
     1
102
RTVSPropertyOp17
 70
     1
102
RTVSPropertyOp18
 70
     1
102
RTVSPropertyOp19
 70
     1
102
RTVSPropertyOp20
 70
     1
102
RTVSPropertyOp21
 70
     1
102
RTVSPropertyOp22
 70
     1
102
RTVSPropertyOp23
 70
     1
102
RTVSPropertyOp24
 70
     1
102
RTVSPropertyOp25
 70
     1
102
RTVSPropertyOp26
 70
     1
102
RTVSPropertyOp27
 70
     1
102
RTVSPropertyOp28
 70
     1
102
RTVSPropertyOp29
 70
     1
102
RTVSPropertyOp30
 70
     1
102
RTVSPropertyOp31
 70
     1
102
RTVSPropertyOp32
 70
     1
102
RTVSPropertyOp33
 70
     1
102
RTVSPropertyOp34
 70
     1
102
RTVSPropertyOp35
 70
     1
102
RTVSPropertyOp36
 70
     1
102
RTVSPropertyOp37
 70
     1
102
RTVSPropertyOp38
 70
     1
102
RTVSPropertyOp39
 70
     1
102
RTVSPropertyOp40
 70
     1
102
RTVSPropertyOp41
 70
     1
102
RTVSPropertyOp42
 70
     1
102
RTVSPropertyOp43
 70
     1
102
RTVSPropertyOp44
 70
     1
102
RTVSPropertyOp45
 70
     1
102
RTVSPropertyOp46
 70
     1
102
RTVSPropertyOp47
 70
     1
102
RTVSPropertyOp48
 70
     1
102
RTVSPropertyOp49
 70
     1
102
RTVSPropertyOp50
 70
     1
102
RTVSPropertyOp51
 70
     0
102
RTVSPropertyOp52
 70
     0
102
RTVSPropertyOp53
 70
     1
102
RTVSPropertyOp54
 70
     1
102
RTVSPropertyOp55
 70
     1
102
RTVSPropertyOp56
 70
     1
102
RTVSPropertyOp57
 70
     1
102
RTVSPost2010Prop28
280
     0
102
RTVSPost2010PropOp28
 70
     1
102
RTVSPost2010Prop29
280
     1
102
RTVSPost2010PropOp29
 70
     1
102
RTVSPost2010Prop30
280
     1
102
RTVSPost2010PropOp30
 70
     1
102
RTVSPost2010Prop31
280
     0
102
RTVSPost2010PropOp31
 70
     1
102
RTVSPost2010Prop32
280
     0
102
RTVSPost2010PropOp32
 70
     1
102
RTVSPost2010Prop33
280
     0
102
RTVSPost2010PropOp33
 70
     1
102
RTVSPost2010Prop34
280
     0
102
RTVSPost2010PropOp34
 70
     1
102
RTVSPost2010Prop35
280
     0
102
RTVSPost2010PropOp35
 70
     1
102
RTVSPost2010Prop36
280
     0
102
RTVSPost2010PropOp36
 70
     1
102
RTVSPost2010Prop37
 90
       50
102
RTVSPost2010PropOp37
 70
     1
102
RTVSPost2010Prop38
140
0.0
102
RTVSPost2010PropOp38
 70
     1
102
RTVSPost2010Prop39
140
1.0
102
RTVSPost2010PropOp39
 70
     1
102
RTVSPost2010Prop40
 90
        0
102
RTVSPost2010PropOp40
 70
     1
102
RTVSPost2010Prop41ColorIndex
 90
       18
102
RTVSPost2010Prop41ColorRGB
 90
        0
102
RTVSPost2010PropOp41
 70
     1
102
RTVSPost2010Prop42
 90
       50
102
RTVSPost2010PropOp42
 70
     1
102
RTVSPost2010Prop43
 90
        3
102
RTVSPost2010PropOp43
 70
     1
102
RTVSPost2010Prop44ColorIndex
 90
        5
102
RTVSPost2010Prop44ColorRGB
 90
      255
102
RTVSPost2010PropOp44
 70
     1
102
RTVSPost2010Prop45
280
     0
102
RTVSPost2010PropOp45
 70
     1
102
RTVSPost2010Prop46
 90
       50
102
RTVSPost2010PropOp46
 70
     1
102
RTVSPost2010Prop47
 90
       50
102
RTVSPost2010PropOp47
 70
     1
102
RTVSPost2010Prop48
 90
       50
102
RTVSPost2010PropOp48
 70
     1
102
RTVSPost2010Prop49
280
     0
102
RTVSPost2010PropOp49
 70
     1
102
RTVSPost2010Prop50
 90
       50
102
RTVSPost2010PropOp50
 70
     1
102
RTVSPost2010Prop51ColorIndex
 90
      256
102
RTVSPost2010Prop51ColorRGB
 90
-16777216
102
RTVSPost2010PropOp51
 70
     0
102
RTVSPost2010Prop52
140
1.0
102
RTVSPost2010PropOp52
 70
     0
102
RTVSPost2010Prop53
 90
        2
102
RTVSPost2010PropOp53
 70
     1
102
RTVSPost2010Prop54
  1
strokes_ogs.tif
102
RTVSPost2010PropOp54
 70
     1
102
RTVSPost2010Prop55
280
     0
102
RTVSPost2010PropOp55
 70
     1
102
RTVSPost2010Prop56
140
1.0
102
RTVSPost2010PropOp56
 70
     1
102
RTVSPost2010Prop57
140
1.0
102
RTVSPost2010PropOp57
 70
     1
  0
XRECORD
  5
6A3
102
{ACAD_REACTORS
330
6A2
102
}
330
6A2
100
AcDbXrecord
280
     1
102
RTVSPropertyOp0
 70
     1
102
RTVSPropertyOp1
 70
     1
102
RTVSPropertyOp2
 70
     1
102
RTVSPropertyOp3
 70
     1
102
RTVSPropertyOp4
 70
     1
102
RTVSPropertyOp5
 70
     1
102
RTVSPropertyOp6
 70
     1
102
RTVSPropertyOp7
 70
     1
102
RTVSPropertyOp8
 70
     1
102
RTVSPropertyOp9
 70
     1
102
RTVSPropertyOp10
 70
     1
102
RTVSPropertyOp11
 70
     1
102
RTVSPropertyOp12
 70
     1
102
RTVSPropertyOp13
 70
     1
102
RTVSPropertyOp14
 70
     1
102
RTVSPropertyOp15
 70
     1
102
RTVSPropertyOp16
 70
     1
102
RTVSPropertyOp17
 70
     1
102
RTVSPropertyOp18
 70
     1
102
RTVSPropertyOp19
 70
     1
102
RTVSPropertyOp20
 70
     1
102
RTVSPropertyOp21
 70
     1
102
RTVSPropertyOp22
 70
     1
102
RTVSPropertyOp23
 70
     1
102
RTVSPropertyOp24
 70
     1
102
RTVSPropertyOp25
 70
     1
102
RTVSPropertyOp26
 70
     1
102
RTVSPropertyOp27
 70
     1
102
RTVSPropertyOp28
 70
     1
102
RTVSPropertyOp29
 70
     1
102
RTVSPropertyOp30
 70
     1
102
RTVSPropertyOp31
 70
     1
102
RTVSPropertyOp32
 70
     1
102
RTVSPropertyOp33
 70
     1
102
RTVSPropertyOp34
 70
     1
102
RTVSPropertyOp35
 70
     1
102
RTVSPropertyOp36
 70
     1
102
RTVSPropertyOp37
 70
     1
102
RTVSPropertyOp38
 70
     1
102
RTVSPropertyOp39
 70
     1
102
RTVSPropertyOp40
 70
     1
102
RTVSPropertyOp41
 70
     1
102
RTVSPropertyOp42
 70
     1
102
RTVSPropertyOp43
 70
     1
102
RTVSPropertyOp44
 70
     1
102
RTVSPropertyOp45
 70
     1
102
RTVSPropertyOp46
 70
     1
102
RTVSPropertyOp47
 70
     1
102
RTVSPropertyOp48
 70
     1
102
RTVSPropertyOp49
 70
     1
102
RTVSPropertyOp50
 70
     1
102
RTVSPropertyOp51
 70
     0
102
RTVSPropertyOp52
 70
     0
102
RTVSPropertyOp53
 70
     1
102
RTVSPropertyOp54
 70
     1
102
RTVSPropertyOp55
 70
     1
102
RTVSPropertyOp56
 70
     1
102
RTVSPropertyOp57
 70
     1
102
RTVSPost2010Prop28
280
     0
102
RTVSPost2010PropOp28
 70
     1
102
RTVSPost2010Prop29
280
     1
102
RTVSPost2010PropOp29
 70
     1
102
RTVSPost2010Prop30
280
     1
102
RTVSPost2010PropOp30
 70
     1
102
RTVSPost2010Prop31
280
     0
102
RTVSPost2010PropOp31
 70
     1
102
RTVSPost2010Prop32
280
     0
102
RTVSPost2010PropOp32
 70
     1
102
RTVSPost2010Prop33
280
     0
102
RTVSPost2010PropOp33
 70
     1
102
RTVSPost2010Prop34
280
     0
102
RTVSPost2010PropOp34
 70
     1
102
RTVSPost2010Prop35
280
     0
102
RTVSPost2010PropOp35
 70
     1
102
RTVSPost2010Prop36
280
     0
102
RTVSPost2010PropOp36
 70
     1
102
RTVSPost2010Prop37
 90
       50
102
RTVSPost2010PropOp37
 70
     1
102
RTVSPost2010Prop38
140
0.0
102
RTVSPost2010PropOp38
 70
     1
102
RTVSPost2010Prop39
140
1.0
102
RTVSPost2010PropOp39
 70
     1
102
RTVSPost2010Prop40
 90
        0
102
RTVSPost2010PropOp40
 70
     1
102
RTVSPost2010Prop41ColorIndex
 90
       18
102
RTVSPost2010Prop41ColorRGB
 90
        0
102
RTVSPost2010PropOp41
 70
     1
102
RTVSPost2010Prop42
 90
       50
102
RTVSPost2010PropOp42
 70
     1
102
RTVSPost2010Prop43
 90
        3
102
RTVSPost2010PropOp43
 70
     1
102
RTVSPost2010Prop44ColorIndex
 90
        5
102
RTVSPost2010Prop44ColorRGB
 90
      255
102
RTVSPost2010PropOp44
 70
     1
102
RTVSPost2010Prop45
280
     0
102
RTVSPost2010PropOp45
 70
     1
102
RTVSPost2010Prop46
 90
       50
102
RTVSPost2010PropOp46
 70
     1
102
RTVSPost2010Prop47
 90
       50
102
RTVSPost2010PropOp47
 70
     1
102
RTVSPost2010Prop48
 90
       50
102
RTVSPost2010PropOp48
 70
     1
102
RTVSPost2010Prop49
280
     0
102
RTVSPost2010PropOp49
 70
     1
102
RTVSPost2010Prop50
 90
       50
102
RTVSPost2010PropOp50
 70
     1
102
RTVSPost2010Prop51ColorIndex
 90
      256
102
RTVSPost2010Prop51ColorRGB
 90
-16777216
102
RTVSPost2010PropOp51
 70
     0
102
RTVSPost2010Prop52
140
1.0
102
RTVSPost2010PropOp52
 70
     0
102
RTVSPost2010Prop53
 90
        2
102
RTVSPost2010PropOp53
 70
     1
102
RTVSPost2010Prop54
  1
strokes_ogs.tif
102
RTVSPost2010PropOp54
 70
     1
102
RTVSPost2010Prop55
280
     0
102
RTVSPost2010PropOp55
 70
     1
102
RTVSPost2010Prop56
140
1.0
102
RTVSPost2010PropOp56
 70
     1
102
RTVSPost2010Prop57
140
1.0
102
RTVSPost2010PropOp57
 70
     1
  0
XRECORD
  5
6AB
102
{ACAD_REACTORS
330
6AA
102
}
330
6AA
100
AcDbXrecord
280
     1
102
RTVSPropertyOp0
 70
     1
102
RTVSPropertyOp1
 70
     1
102
RTVSPropertyOp2
 70
     1
102
RTVSPropertyOp3
 70
     1
102
RTVSPropertyOp4
 70
     1
102
RTVSPropertyOp5
 70
     1
102
RTVSPropertyOp6
 70
     1
102
RTVSPropertyOp7
 70
     1
102
RTVSPropertyOp8
 70
     1
102
RTVSPropertyOp9
 70
     1
102
RTVSPropertyOp10
 70
     1
102
RTVSPropertyOp11
 70
     1
102
RTVSPropertyOp12
 70
     1
102
RTVSPropertyOp13
 70
     1
102
RTVSPropertyOp14
 70
     1
102
RTVSPropertyOp15
 70
     1
102
RTVSPropertyOp16
 70
     1
102
RTVSPropertyOp17
 70
     1
102
RTVSPropertyOp18
 70
     1
102
RTVSPropertyOp19
 70
     1
102
RTVSPropertyOp20
 70
     1
102
RTVSPropertyOp21
 70
     1
102
RTVSPropertyOp22
 70
     1
102
RTVSPropertyOp23
 70
     1
102
RTVSPropertyOp24
 70
     1
102
RTVSPropertyOp25
 70
     1
102
RTVSPropertyOp26
 70
     1
102
RTVSPropertyOp27
 70
     1
102
RTVSPropertyOp28
 70
     1
102
RTVSPropertyOp29
 70
     1
102
RTVSPropertyOp30
 70
     1
102
RTVSPropertyOp31
 70
     1
102
RTVSPropertyOp32
 70
     1
102
RTVSPropertyOp33
 70
     1
102
RTVSPropertyOp34
 70
     1
102
RTVSPropertyOp35
 70
     1
102
RTVSPropertyOp36
 70
     1
102
RTVSPropertyOp37
 70
     1
102
RTVSPropertyOp38
 70
     1
102
RTVSPropertyOp39
 70
     1
102
RTVSPropertyOp40
 70
     1
102
RTVSPropertyOp41
 70
     1
102
RTVSPropertyOp42
 70
     1
102
RTVSPropertyOp43
 70
     1
102
RTVSPropertyOp44
 70
     1
102
RTVSPropertyOp45
 70
     1
102
RTVSPropertyOp46
 70
     1
102
RTVSPropertyOp47
 70
     1
102
RTVSPropertyOp48
 70
     1
102
RTVSPropertyOp49
 70
     1
102
RTVSPropertyOp50
 70
     1
102
RTVSPropertyOp51
 70
     0
102
RTVSPropertyOp52
 70
     0
102
RTVSPropertyOp53
 70
     1
102
RTVSPropertyOp54
 70
     1
102
RTVSPropertyOp55
 70
     1
102
RTVSPropertyOp56
 70
     1
102
RTVSPropertyOp57
 70
     1
102
RTVSPost2010Prop28
280
     0
102
RTVSPost2010PropOp28
 70
     1
102
RTVSPost2010Prop29
280
     1
102
RTVSPost2010PropOp29
 70
     1
102
RTVSPost2010Prop30
280
     1
102
RTVSPost2010PropOp30
 70
     1
102
RTVSPost2010Prop31
280
     0
102
RTVSPost2010PropOp31
 70
     1
102
RTVSPost2010Prop32
280
     0
102
RTVSPost2010PropOp32
 70
     1
102
RTVSPost2010Prop33
280
     0
102
RTVSPost2010PropOp33
 70
     1
102
RTVSPost2010Prop34
280
     0
102
RTVSPost2010PropOp34
 70
     1
102
RTVSPost2010Prop35
280
     0
102
RTVSPost2010PropOp35
 70
     1
102
RTVSPost2010Prop36
280
     0
102
RTVSPost2010PropOp36
 70
     1
102
RTVSPost2010Prop37
 90
       50
102
RTVSPost2010PropOp37
 70
     1
102
RTVSPost2010Prop38
140
0.0
102
RTVSPost2010PropOp38
 70
     1
102
RTVSPost2010Prop39
140
1.0
102
RTVSPost2010PropOp39
 70
     1
102
RTVSPost2010Prop40
 90
        0
102
RTVSPost2010PropOp40
 70
     1
102
RTVSPost2010Prop41ColorIndex
 90
       18
102
RTVSPost2010Prop41ColorRGB
 90
        0
102
RTVSPost2010PropOp41
 70
     1
102
RTVSPost2010Prop42
 90
       50
102
RTVSPost2010PropOp42
 70
     1
102
RTVSPost2010Prop43
 90
        3
102
RTVSPost2010PropOp43
 70
     1
102
RTVSPost2010Prop44ColorIndex
 90
        5
102
RTVSPost2010Prop44ColorRGB
 90
      255
102
RTVSPost2010PropOp44
 70
     1
102
RTVSPost2010Prop45
280
     0
102
RTVSPost2010PropOp45
 70
     1
102
RTVSPost2010Prop46
 90
       50
102
RTVSPost2010PropOp46
 70
     1
102
RTVSPost2010Prop47
 90
       50
102
RTVSPost2010PropOp47
 70
     1
102
RTVSPost2010Prop48
 90
       50
102
RTVSPost2010PropOp48
 70
     1
102
RTVSPost2010Prop49
280
     0
102
RTVSPost2010PropOp49
 70
     1
102
RTVSPost2010Prop50
 90
       50
102
RTVSPost2010PropOp50
 70
     1
102
RTVSPost2010Prop51ColorIndex
 90
      256
102
RTVSPost2010Prop51ColorRGB
 90
-16777216
102
RTVSPost2010PropOp51
 70
     0
102
RTVSPost2010Prop52
140
1.0
102
RTVSPost2010PropOp52
 70
     0
102
RTVSPost2010Prop53
 90
        2
102
RTVSPost2010PropOp53
 70
     1
102
RTVSPost2010Prop54
  1
strokes_ogs.tif
102
RTVSPost2010PropOp54
 70
     1
102
RTVSPost2010Prop55
280
     0
102
RTVSPost2010PropOp55
 70
     1
102
RTVSPost2010Prop56
140
1.0
102
RTVSPost2010PropOp56
 70
     1
102
RTVSPost2010Prop57
140
1.0
102
RTVSPost2010PropOp57
 70
     1
  0
XRECORD
  5
69F
102
{ACAD_REACTORS
330
69E
102
}
330
69E
100
AcDbXrecord
280
     1
102
RTVSPropertyOp0
 70
     1
102
RTVSPropertyOp1
 70
     1
102
RTVSPropertyOp2
 70
     1
102
RTVSPropertyOp3
 70
     1
102
RTVSPropertyOp4
 70
     1
102
RTVSPropertyOp5
 70
     1
102
RTVSPropertyOp6
 70
     1
102
RTVSPropertyOp7
 70
     1
102
RTVSPropertyOp8
 70
     1
102
RTVSPropertyOp9
 70
     1
102
RTVSPropertyOp10
 70
     1
102
RTVSPropertyOp11
 70
     1
102
RTVSPropertyOp12
 70
     1
102
RTVSPropertyOp13
 70
     1
102
RTVSPropertyOp14
 70
     1
102
RTVSPropertyOp15
 70
     1
102
RTVSPropertyOp16
 70
     1
102
RTVSPropertyOp17
 70
     1
102
RTVSPropertyOp18
 70
     1
102
RTVSPropertyOp19
 70
     1
102
RTVSPropertyOp20
 70
     1
102
RTVSPropertyOp21
 70
     1
102
RTVSPropertyOp22
 70
     1
102
RTVSPropertyOp23
 70
     1
102
RTVSPropertyOp24
 70
     1
102
RTVSPropertyOp25
 70
     1
102
RTVSPropertyOp26
 70
     1
102
RTVSPropertyOp27
 70
     1
102
RTVSPropertyOp28
 70
     1
102
RTVSPropertyOp29
 70
     1
102
RTVSPropertyOp30
 70
     1
102
RTVSPropertyOp31
 70
     1
102
RTVSPropertyOp32
 70
     1
102
RTVSPropertyOp33
 70
     1
102
RTVSPropertyOp34
 70
     1
102
RTVSPropertyOp35
 70
     1
102
RTVSPropertyOp36
 70
     1
102
RTVSPropertyOp37
 70
     1
102
RTVSPropertyOp38
 70
     1
102
RTVSPropertyOp39
 70
     1
102
RTVSPropertyOp40
 70
     1
102
RTVSPropertyOp41
 70
     1
102
RTVSPropertyOp42
 70
     1
102
RTVSPropertyOp43
 70
     1
102
RTVSPropertyOp44
 70
     1
102
RTVSPropertyOp45
 70
     1
102
RTVSPropertyOp46
 70
     1
102
RTVSPropertyOp47
 70
     1
102
RTVSPropertyOp48
 70
     1
102
RTVSPropertyOp49
 70
     1
102
RTVSPropertyOp50
 70
     1
102
RTVSPropertyOp51
 70
     0
102
RTVSPropertyOp52
 70
     0
102
RTVSPropertyOp53
 70
     1
102
RTVSPropertyOp54
 70
     1
102
RTVSPropertyOp55
 70
     1
102
RTVSPropertyOp56
 70
     1
102
RTVSPropertyOp57
 70
     1
102
RTVSPost2010Prop28
280
     0
102
RTVSPost2010PropOp28
 70
     1
102
RTVSPost2010Prop29
280
     1
102
RTVSPost2010PropOp29
 70
     1
102
RTVSPost2010Prop30
280
     1
102
RTVSPost2010PropOp30
 70
     1
102
RTVSPost2010Prop31
280
     0
102
RTVSPost2010PropOp31
 70
     1
102
RTVSPost2010Prop32
280
     0
102
RTVSPost2010PropOp32
 70
     1
102
RTVSPost2010Prop33
280
     0
102
RTVSPost2010PropOp33
 70
     1
102
RTVSPost2010Prop34
280
     0
102
RTVSPost2010PropOp34
 70
     1
102
RTVSPost2010Prop35
280
     0
102
RTVSPost2010PropOp35
 70
     1
102
RTVSPost2010Prop36
280
     0
102
RTVSPost2010PropOp36
 70
     1
102
RTVSPost2010Prop37
 90
       50
102
RTVSPost2010PropOp37
 70
     1
102
RTVSPost2010Prop38
140
0.0
102
RTVSPost2010PropOp38
 70
     1
102
RTVSPost2010Prop39
140
1.0
102
RTVSPost2010PropOp39
 70
     1
102
RTVSPost2010Prop40
 90
        0
102
RTVSPost2010PropOp40
 70
     1
102
RTVSPost2010Prop41ColorIndex
 90
       18
102
RTVSPost2010Prop41ColorRGB
 90
        0
102
RTVSPost2010PropOp41
 70
     1
102
RTVSPost2010Prop42
 90
       50
102
RTVSPost2010PropOp42
 70
     1
102
RTVSPost2010Prop43
 90
        3
102
RTVSPost2010PropOp43
 70
     1
102
RTVSPost2010Prop44ColorIndex
 90
        5
102
RTVSPost2010Prop44ColorRGB
 90
      255
102
RTVSPost2010PropOp44
 70
     1
102
RTVSPost2010Prop45
280
     0
102
RTVSPost2010PropOp45
 70
     1
102
RTVSPost2010Prop46
 90
       50
102
RTVSPost2010PropOp46
 70
     1
102
RTVSPost2010Prop47
 90
       50
102
RTVSPost2010PropOp47
 70
     1
102
RTVSPost2010Prop48
 90
       50
102
RTVSPost2010PropOp48
 70
     1
102
RTVSPost2010Prop49
280
     0
102
RTVSPost2010PropOp49
 70
     1
102
RTVSPost2010Prop50
 90
       50
102
RTVSPost2010PropOp50
 70
     1
102
RTVSPost2010Prop51ColorIndex
 90
      256
102
RTVSPost2010Prop51ColorRGB
 90
-16777216
102
RTVSPost2010PropOp51
 70
     0
102
RTVSPost2010Prop52
140
1.0
102
RTVSPost2010PropOp52
 70
     0
102
RTVSPost2010Prop53
 90
        2
102
RTVSPost2010PropOp53
 70
     1
102
RTVSPost2010Prop54
  1
strokes_ogs.tif
102
RTVSPost2010PropOp54
 70
     1
102
RTVSPost2010Prop55
280
     0
102
RTVSPost2010PropOp55
 70
     1
102
RTVSPost2010Prop56
140
1.0
102
RTVSPost2010PropOp56
 70
     1
102
RTVSPost2010Prop57
140
1.0
102
RTVSPost2010PropOp57
 70
     1
  0
XRECORD
  5
6A1
102
{ACAD_REACTORS
330
6A0
102
}
330
6A0
100
AcDbXrecord
280
     1
102
RTVSPropertyOp0
 70
     1
102
RTVSPropertyOp1
 70
     1
102
RTVSPropertyOp2
 70
     1
102
RTVSPropertyOp3
 70
     1
102
RTVSPropertyOp4
 70
     1
102
RTVSPropertyOp5
 70
     1
102
RTVSPropertyOp6
 70
     1
102
RTVSPropertyOp7
 70
     1
102
RTVSPropertyOp8
 70
     1
102
RTVSPropertyOp9
 70
     1
102
RTVSPropertyOp10
 70
     1
102
RTVSPropertyOp11
 70
     1
102
RTVSPropertyOp12
 70
     1
102
RTVSPropertyOp13
 70
     1
102
RTVSPropertyOp14
 70
     1
102
RTVSPropertyOp15
 70
     1
102
RTVSPropertyOp16
 70
     1
102
RTVSPropertyOp17
 70
     1
102
RTVSPropertyOp18
 70
     1
102
RTVSPropertyOp19
 70
     1
102
RTVSPropertyOp20
 70
     1
102
RTVSPropertyOp21
 70
     1
102
RTVSPropertyOp22
 70
     1
102
RTVSPropertyOp23
 70
     1
102
RTVSPropertyOp24
 70
     1
102
RTVSPropertyOp25
 70
     1
102
RTVSPropertyOp26
 70
     1
102
RTVSPropertyOp27
 70
     1
102
RTVSPropertyOp28
 70
     1
102
RTVSPropertyOp29
 70
     1
102
RTVSPropertyOp30
 70
     1
102
RTVSPropertyOp31
 70
     1
102
RTVSPropertyOp32
 70
     1
102
RTVSPropertyOp33
 70
     1
102
RTVSPropertyOp34
 70
     1
102
RTVSPropertyOp35
 70
     1
102
RTVSPropertyOp36
 70
     1
102
RTVSPropertyOp37
 70
     1
102
RTVSPropertyOp38
 70
     1
102
RTVSPropertyOp39
 70
     1
102
RTVSPropertyOp40
 70
     1
102
RTVSPropertyOp41
 70
     1
102
RTVSPropertyOp42
 70
     1
102
RTVSPropertyOp43
 70
     1
102
RTVSPropertyOp44
 70
     1
102
RTVSPropertyOp45
 70
     1
102
RTVSPropertyOp46
 70
     1
102
RTVSPropertyOp47
 70
     1
102
RTVSPropertyOp48
 70
     1
102
RTVSPropertyOp49
 70
     1
102
RTVSPropertyOp50
 70
     1
102
RTVSPropertyOp51
 70
     0
102
RTVSPropertyOp52
 70
     0
102
RTVSPropertyOp53
 70
     1
102
RTVSPropertyOp54
 70
     1
102
RTVSPropertyOp55
 70
     1
102
RTVSPropertyOp56
 70
     1
102
RTVSPropertyOp57
 70
     1
102
RTVSPost2010Prop28
280
     0
102
RTVSPost2010PropOp28
 70
     1
102
RTVSPost2010Prop29
280
     1
102
RTVSPost2010PropOp29
 70
     1
102
RTVSPost2010Prop30
280
     1
102
RTVSPost2010PropOp30
 70
     1
102
RTVSPost2010Prop31
280
     0
102
RTVSPost2010PropOp31
 70
     1
102
RTVSPost2010Prop32
280
     0
102
RTVSPost2010PropOp32
 70
     1
102
RTVSPost2010Prop33
280
     0
102
RTVSPost2010PropOp33
 70
     1
102
RTVSPost2010Prop34
280
     0
102
RTVSPost2010PropOp34
 70
     1
102
RTVSPost2010Prop35
280
     0
102
RTVSPost2010PropOp35
 70
     1
102
RTVSPost2010Prop36
280
     0
102
RTVSPost2010PropOp36
 70
     1
102
RTVSPost2010Prop37
 90
       50
102
RTVSPost2010PropOp37
 70
     1
102
RTVSPost2010Prop38
140
0.0
102
RTVSPost2010PropOp38
 70
     1
102
RTVSPost2010Prop39
140
1.0
102
RTVSPost2010PropOp39
 70
     1
102
RTVSPost2010Prop40
 90
        0
102
RTVSPost2010PropOp40
 70
     1
102
RTVSPost2010Prop41ColorIndex
 90
       18
102
RTVSPost2010Prop41ColorRGB
 90
        0
102
RTVSPost2010PropOp41
 70
     1
102
RTVSPost2010Prop42
 90
       50
102
RTVSPost2010PropOp42
 70
     1
102
RTVSPost2010Prop43
 90
        3
102
RTVSPost2010PropOp43
 70
     1
102
RTVSPost2010Prop44ColorIndex
 90
        5
102
RTVSPost2010Prop44ColorRGB
 90
      255
102
RTVSPost2010PropOp44
 70
     1
102
RTVSPost2010Prop45
280
     0
102
RTVSPost2010PropOp45
 70
     1
102
RTVSPost2010Prop46
 90
       50
102
RTVSPost2010PropOp46
 70
     1
102
RTVSPost2010Prop47
 90
       50
102
RTVSPost2010PropOp47
 70
     1
102
RTVSPost2010Prop48
 90
       50
102
RTVSPost2010PropOp48
 70
     1
102
RTVSPost2010Prop49
280
     0
102
RTVSPost2010PropOp49
 70
     1
102
RTVSPost2010Prop50
 90
       50
102
RTVSPost2010PropOp50
 70
     1
102
RTVSPost2010Prop51ColorIndex
 90
      256
102
RTVSPost2010Prop51ColorRGB
 90
-16777216
102
RTVSPost2010PropOp51
 70
     0
102
RTVSPost2010Prop52
140
1.0
102
RTVSPost2010PropOp52
 70
     0
102
RTVSPost2010Prop53
 90
        2
102
RTVSPost2010PropOp53
 70
     1
102
RTVSPost2010Prop54
  1
strokes_ogs.tif
102
RTVSPost2010PropOp54
 70
     1
102
RTVSPost2010Prop55
280
     0
102
RTVSPost2010PropOp55
 70
     1
102
RTVSPost2010Prop56
140
1.0
102
RTVSPost2010PropOp56
 70
     1
102
RTVSPost2010Prop57
140
1.0
102
RTVSPost2010PropOp57
 70
     1
  0
XRECORD
  5
6A9
102
{ACAD_REACTORS
330
6A8
102
}
330
6A8
100
AcDbXrecord
280
     1
102
RTVSPropertyOp0
 70
     1
102
RTVSPropertyOp1
 70
     1
102
RTVSPropertyOp2
 70
     1
102
RTVSPropertyOp3
 70
     1
102
RTVSPropertyOp4
 70
     1
102
RTVSPropertyOp5
 70
     1
102
RTVSPropertyOp6
 70
     1
102
RTVSPropertyOp7
 70
     1
102
RTVSPropertyOp8
 70
     1
102
RTVSPropertyOp9
 70
     1
102
RTVSPropertyOp10
 70
     1
102
RTVSPropertyOp11
 70
     1
102
RTVSPropertyOp12
 70
     1
102
RTVSPropertyOp13
 70
     1
102
RTVSPropertyOp14
 70
     1
102
RTVSPropertyOp15
 70
     1
102
RTVSPropertyOp16
 70
     1
102
RTVSPropertyOp17
 70
     1
102
RTVSPropertyOp18
 70
     1
102
RTVSPropertyOp19
 70
     1
102
RTVSPropertyOp20
 70
     1
102
RTVSPropertyOp21
 70
     1
102
RTVSPropertyOp22
 70
     1
102
RTVSPropertyOp23
 70
     1
102
RTVSPropertyOp24
 70
     1
102
RTVSPropertyOp25
 70
     1
102
RTVSPropertyOp26
 70
     1
102
RTVSPropertyOp27
 70
     1
102
RTVSPropertyOp28
 70
     1
102
RTVSPropertyOp29
 70
     1
102
RTVSPropertyOp30
 70
     1
102
RTVSPropertyOp31
 70
     1
102
RTVSPropertyOp32
 70
     1
102
RTVSPropertyOp33
 70
     1
102
RTVSPropertyOp34
 70
     1
102
RTVSPropertyOp35
 70
     1
102
RTVSPropertyOp36
 70
     1
102
RTVSPropertyOp37
 70
     1
102
RTVSPropertyOp38
 70
     1
102
RTVSPropertyOp39
 70
     1
102
RTVSPropertyOp40
 70
     1
102
RTVSPropertyOp41
 70
     1
102
RTVSPropertyOp42
 70
     1
102
RTVSPropertyOp43
 70
     1
102
RTVSPropertyOp44
 70
     1
102
RTVSPropertyOp45
 70
     1
102
RTVSPropertyOp46
 70
     1
102
RTVSPropertyOp47
 70
     1
102
RTVSPropertyOp48
 70
     1
102
RTVSPropertyOp49
 70
     1
102
RTVSPropertyOp50
 70
     1
102
RTVSPropertyOp51
 70
     0
102
RTVSPropertyOp52
 70
     0
102
RTVSPropertyOp53
 70
     1
102
RTVSPropertyOp54
 70
     1
102
RTVSPropertyOp55
 70
     1
102
RTVSPropertyOp56
 70
     1
102
RTVSPropertyOp57
 70
     1
102
RTVSPost2010Prop28
280
     0
102
RTVSPost2010PropOp28
 70
     1
102
RTVSPost2010Prop29
280
     1
102
RTVSPost2010PropOp29
 70
     1
102
RTVSPost2010Prop30
280
     1
102
RTVSPost2010PropOp30
 70
     1
102
RTVSPost2010Prop31
280
     0
102
RTVSPost2010PropOp31
 70
     1
102
RTVSPost2010Prop32
280
     0
102
RTVSPost2010PropOp32
 70
     1
102
RTVSPost2010Prop33
280
     0
102
RTVSPost2010PropOp33
 70
     1
102
RTVSPost2010Prop34
280
     0
102
RTVSPost2010PropOp34
 70
     1
102
RTVSPost2010Prop35
280
     0
102
RTVSPost2010PropOp35
 70
     1
102
RTVSPost2010Prop36
280
     0
102
RTVSPost2010PropOp36
 70
     1
102
RTVSPost2010Prop37
 90
       50
102
RTVSPost2010PropOp37
 70
     1
102
RTVSPost2010Prop38
140
0.0
102
RTVSPost2010PropOp38
 70
     1
102
RTVSPost2010Prop39
140
1.0
102
RTVSPost2010PropOp39
 70
     1
102
RTVSPost2010Prop40
 90
        0
102
RTVSPost2010PropOp40
 70
     1
102
RTVSPost2010Prop41ColorIndex
 90
       18
102
RTVSPost2010Prop41ColorRGB
 90
        0
102
RTVSPost2010PropOp41
 70
     1
102
RTVSPost2010Prop42
 90
       50
102
RTVSPost2010PropOp42
 70
     1
102
RTVSPost2010Prop43
 90
        3
102
RTVSPost2010PropOp43
 70
     1
102
RTVSPost2010Prop44ColorIndex
 90
        5
102
RTVSPost2010Prop44ColorRGB
 90
      255
102
RTVSPost2010PropOp44
 70
     1
102
RTVSPost2010Prop45
280
     0
102
RTVSPost2010PropOp45
 70
     1
102
RTVSPost2010Prop46
 90
       50
102
RTVSPost2010PropOp46
 70
     1
102
RTVSPost2010Prop47
 90
       50
102
RTVSPost2010PropOp47
 70
     1
102
RTVSPost2010Prop48
 90
       50
102
RTVSPost2010PropOp48
 70
     1
102
RTVSPost2010Prop49
280
     0
102
RTVSPost2010PropOp49
 70
     1
102
RTVSPost2010Prop50
 90
       50
102
RTVSPost2010PropOp50
 70
     1
102
RTVSPost2010Prop51ColorIndex
 90
      256
102
RTVSPost2010Prop51ColorRGB
 90
-16777216
102
RTVSPost2010PropOp51
 70
     0
102
RTVSPost2010Prop52
140
1.0
102
RTVSPost2010PropOp52
 70
     0
102
RTVSPost2010Prop53
 90
        2
102
RTVSPost2010PropOp53
 70
     1
102
RTVSPost2010Prop54
  1
strokes_ogs.tif
102
RTVSPost2010PropOp54
 70
     1
102
RTVSPost2010Prop55
280
     0
102
RTVSPost2010PropOp55
 70
     1
102
RTVSPost2010Prop56
140
1.0
102
RTVSPost2010PropOp56
 70
     1
102
RTVSPost2010Prop57
140
1.0
102
RTVSPost2010PropOp57
 70
     1
  0
XRECORD
  5
68D
102
{ACAD_REACTORS
330
68C
102
}
330
68C
100
AcDbXrecord
280
     1
102
RTVSPropertyOp0
 70
     1
102
RTVSPropertyOp1
 70
     1
102
RTVSPropertyOp2
 70
     1
102
RTVSPropertyOp3
 70
     1
102
RTVSPropertyOp4
 70
     1
102
RTVSPropertyOp5
 70
     1
102
RTVSPropertyOp6
 70
     1
102
RTVSPropertyOp7
 70
     1
102
RTVSPropertyOp8
 70
     1
102
RTVSPropertyOp9
 70
     1
102
RTVSPropertyOp10
 70
     1
102
RTVSPropertyOp11
 70
     1
102
RTVSPropertyOp12
 70
     1
102
RTVSPropertyOp13
 70
     1
102
RTVSPropertyOp14
 70
     1
102
RTVSPropertyOp15
 70
     1
102
RTVSPropertyOp16
 70
     1
102
RTVSPropertyOp17
 70
     1
102
RTVSPropertyOp18
 70
     1
102
RTVSPropertyOp19
 70
     1
102
RTVSPropertyOp20
 70
     1
102
RTVSPropertyOp21
 70
     1
102
RTVSPropertyOp22
 70
     1
102
RTVSPropertyOp23
 70
     1
102
RTVSPropertyOp24
 70
     1
102
RTVSPropertyOp25
 70
     1
102
RTVSPropertyOp26
 70
     1
102
RTVSPropertyOp27
 70
     1
102
RTVSPropertyOp28
 70
     1
102
RTVSPropertyOp29
 70
     1
102
RTVSPropertyOp30
 70
     1
102
RTVSPropertyOp31
 70
     1
102
RTVSPropertyOp32
 70
     1
102
RTVSPropertyOp33
 70
     1
102
RTVSPropertyOp34
 70
     1
102
RTVSPropertyOp35
 70
     1
102
RTVSPropertyOp36
 70
     1
102
RTVSPropertyOp37
 70
     1
102
RTVSPropertyOp38
 70
     1
102
RTVSPropertyOp39
 70
     1
102
RTVSPropertyOp40
 70
     1
102
RTVSPropertyOp41
 70
     1
102
RTVSPropertyOp42
 70
     1
102
RTVSPropertyOp43
 70
     1
102
RTVSPropertyOp44
 70
     1
102
RTVSPropertyOp45
 70
     1
102
RTVSPropertyOp46
 70
     1
102
RTVSPropertyOp47
 70
     1
102
RTVSPropertyOp48
 70
     1
102
RTVSPropertyOp49
 70
     1
102
RTVSPropertyOp50
 70
     1
102
RTVSPropertyOp51
 70
     0
102
RTVSPropertyOp52
 70
     0
102
RTVSPropertyOp53
 70
     1
102
RTVSPropertyOp54
 70
     1
102
RTVSPropertyOp55
 70
     1
102
RTVSPropertyOp56
 70
     1
102
RTVSPropertyOp57
 70
     1
102
RTVSPost2010Prop28
280
     0
102
RTVSPost2010PropOp28
 70
     1
102
RTVSPost2010Prop29
280
     1
102
RTVSPost2010PropOp29
 70
     1
102
RTVSPost2010Prop30
280
     1
102
RTVSPost2010PropOp30
 70
     1
102
RTVSPost2010Prop31
280
     0
102
RTVSPost2010PropOp31
 70
     1
102
RTVSPost2010Prop32
280
     0
102
RTVSPost2010PropOp32
 70
     1
102
RTVSPost2010Prop33
280
     0
102
RTVSPost2010PropOp33
 70
     1
102
RTVSPost2010Prop34
280
     0
102
RTVSPost2010PropOp34
 70
     1
102
RTVSPost2010Prop35
280
     0
102
RTVSPost2010PropOp35
 70
     1
102
RTVSPost2010Prop36
280
     0
102
RTVSPost2010PropOp36
 70
     1
102
RTVSPost2010Prop37
 90
       50
102
RTVSPost2010PropOp37
 70
     1
102
RTVSPost2010Prop38
140
0.0
102
RTVSPost2010PropOp38
 70
     1
102
RTVSPost2010Prop39
140
1.0
102
RTVSPost2010PropOp39
 70
     1
102
RTVSPost2010Prop40
 90
        0
102
RTVSPost2010PropOp40
 70
     1
102
RTVSPost2010Prop41ColorIndex
 90
       18
102
RTVSPost2010Prop41ColorRGB
 90
        0
102
RTVSPost2010PropOp41
 70
     1
102
RTVSPost2010Prop42
 90
       50
102
RTVSPost2010PropOp42
 70
     1
102
RTVSPost2010Prop43
 90
        3
102
RTVSPost2010PropOp43
 70
     1
102
RTVSPost2010Prop44ColorIndex
 90
        5
102
RTVSPost2010Prop44ColorRGB
 90
      255
102
RTVSPost2010PropOp44
 70
     1
102
RTVSPost2010Prop45
280
     0
102
RTVSPost2010PropOp45
 70
     1
102
RTVSPost2010Prop46
 90
       50
102
RTVSPost2010PropOp46
 70
     1
102
RTVSPost2010Prop47
 90
       50
102
RTVSPost2010PropOp47
 70
     1
102
RTVSPost2010Prop48
 90
       50
102
RTVSPost2010PropOp48
 70
     1
102
RTVSPost2010Prop49
280
     0
102
RTVSPost2010PropOp49
 70
     1
102
RTVSPost2010Prop50
 90
       50
102
RTVSPost2010PropOp50
 70
     1
102
RTVSPost2010Prop51ColorIndex
 90
      256
102
RTVSPost2010Prop51ColorRGB
 90
-16777216
102
RTVSPost2010PropOp51
 70
     0
102
RTVSPost2010Prop52
140
1.0
102
RTVSPost2010PropOp52
 70
     0
102
RTVSPost2010Prop53
 90
        2
102
RTVSPost2010PropOp53
 70
     1
102
RTVSPost2010Prop54
  1
strokes_ogs.tif
102
RTVSPost2010PropOp54
 70
     1
102
RTVSPost2010Prop55
280
     0
102
RTVSPost2010PropOp55
 70
     1
102
RTVSPost2010Prop56
140
1.0
102
RTVSPost2010PropOp56
 70
     1
102
RTVSPost2010Prop57
140
1.0
102
RTVSPost2010PropOp57
 70
     1
  0
XRECORD
  5
68F
102
{ACAD_REACTORS
330
68E
102
}
330
68E
100
AcDbXrecord
280
     1
102
RTVSPropertyOp0
 70
     1
102
RTVSPropertyOp1
 70
     1
102
RTVSPropertyOp2
 70
     1
102
RTVSPropertyOp3
 70
     1
102
RTVSPropertyOp4
 70
     1
102
RTVSPropertyOp5
 70
     1
102
RTVSPropertyOp6
 70
     1
102
RTVSPropertyOp7
 70
     1
102
RTVSPropertyOp8
 70
     1
102
RTVSPropertyOp9
 70
     1
102
RTVSPropertyOp10
 70
     1
102
RTVSPropertyOp11
 70
     1
102
RTVSPropertyOp12
 70
     1
102
RTVSPropertyOp13
 70
     1
102
RTVSPropertyOp14
 70
     1
102
RTVSPropertyOp15
 70
     1
102
RTVSPropertyOp16
 70
     1
102
RTVSPropertyOp17
 70
     1
102
RTVSPropertyOp18
 70
     1
102
RTVSPropertyOp19
 70
     1
102
RTVSPropertyOp20
 70
     1
102
RTVSPropertyOp21
 70
     1
102
RTVSPropertyOp22
 70
     1
102
RTVSPropertyOp23
 70
     1
102
RTVSPropertyOp24
 70
     1
102
RTVSPropertyOp25
 70
     1
102
RTVSPropertyOp26
 70
     1
102
RTVSPropertyOp27
 70
     1
102
RTVSPropertyOp28
 70
     1
102
RTVSPropertyOp29
 70
     1
102
RTVSPropertyOp30
 70
     1
102
RTVSPropertyOp31
 70
     1
102
RTVSPropertyOp32
 70
     1
102
RTVSPropertyOp33
 70
     1
102
RTVSPropertyOp34
 70
     1
102
RTVSPropertyOp35
 70
     1
102
RTVSPropertyOp36
 70
     1
102
RTVSPropertyOp37
 70
     1
102
RTVSPropertyOp38
 70
     1
102
RTVSPropertyOp39
 70
     1
102
RTVSPropertyOp40
 70
     1
102
RTVSPropertyOp41
 70
     1
102
RTVSPropertyOp42
 70
     1
102
RTVSPropertyOp43
 70
     1
102
RTVSPropertyOp44
 70
     1
102
RTVSPropertyOp45
 70
     1
102
RTVSPropertyOp46
 70
     1
102
RTVSPropertyOp47
 70
     1
102
RTVSPropertyOp48
 70
     1
102
RTVSPropertyOp49
 70
     1
102
RTVSPropertyOp50
 70
     1
102
RTVSPropertyOp51
 70
     0
102
RTVSPropertyOp52
 70
     0
102
RTVSPropertyOp53
 70
     1
102
RTVSPropertyOp54
 70
     1
102
RTVSPropertyOp55
 70
     1
102
RTVSPropertyOp56
 70
     1
102
RTVSPropertyOp57
 70
     1
102
RTVSPost2010Prop28
280
     0
102
RTVSPost2010PropOp28
 70
     1
102
RTVSPost2010Prop29
280
     1
102
RTVSPost2010PropOp29
 70
     1
102
RTVSPost2010Prop30
280
     1
102
RTVSPost2010PropOp30
 70
     1
102
RTVSPost2010Prop31
280
     0
102
RTVSPost2010PropOp31
 70
     1
102
RTVSPost2010Prop32
280
     0
102
RTVSPost2010PropOp32
 70
     1
102
RTVSPost2010Prop33
280
     0
102
RTVSPost2010PropOp33
 70
     1
102
RTVSPost2010Prop34
280
     0
102
RTVSPost2010PropOp34
 70
     1
102
RTVSPost2010Prop35
280
     0
102
RTVSPost2010PropOp35
 70
     1
102
RTVSPost2010Prop36
280
     0
102
RTVSPost2010PropOp36
 70
     1
102
RTVSPost2010Prop37
 90
       50
102
RTVSPost2010PropOp37
 70
     1
102
RTVSPost2010Prop38
140
0.0
102
RTVSPost2010PropOp38
 70
     1
102
RTVSPost2010Prop39
140
1.0
102
RTVSPost2010PropOp39
 70
     1
102
RTVSPost2010Prop40
 90
        0
102
RTVSPost2010PropOp40
 70
     1
102
RTVSPost2010Prop41ColorIndex
 90
       18
102
RTVSPost2010Prop41ColorRGB
 90
        0
102
RTVSPost2010PropOp41
 70
     1
102
RTVSPost2010Prop42
 90
       50
102
RTVSPost2010PropOp42
 70
     1
102
RTVSPost2010Prop43
 90
        3
102
RTVSPost2010PropOp43
 70
     1
102
RTVSPost2010Prop44ColorIndex
 90
        5
102
RTVSPost2010Prop44ColorRGB
 90
      255
102
RTVSPost2010PropOp44
 70
     1
102
RTVSPost2010Prop45
280
     0
102
RTVSPost2010PropOp45
 70
     1
102
RTVSPost2010Prop46
 90
       50
102
RTVSPost2010PropOp46
 70
     1
102
RTVSPost2010Prop47
 90
       50
102
RTVSPost2010PropOp47
 70
     1
102
RTVSPost2010Prop48
 90
       50
102
RTVSPost2010PropOp48
 70
     1
102
RTVSPost2010Prop49
280
     0
102
RTVSPost2010PropOp49
 70
     1
102
RTVSPost2010Prop50
 90
       50
102
RTVSPost2010PropOp50
 70
     1
102
RTVSPost2010Prop51ColorIndex
 90
      256
102
RTVSPost2010Prop51ColorRGB
 90
-16777216
102
RTVSPost2010PropOp51
 70
     0
102
RTVSPost2010Prop52
140
1.0
102
RTVSPost2010PropOp52
 70
     0
102
RTVSPost2010Prop53
 90
        2
102
RTVSPost2010PropOp53
 70
     1
102
RTVSPost2010Prop54
  1
strokes_ogs.tif
102
RTVSPost2010PropOp54
 70
     1
102
RTVSPost2010Prop55
280
     0
102
RTVSPost2010PropOp55
 70
     1
102
RTVSPost2010Prop56
140
1.0
102
RTVSPost2010PropOp56
 70
     1
102
RTVSPost2010Prop57
140
1.0
102
RTVSPost2010PropOp57
 70
     1
  0
XRECORD
  5
691
102
{ACAD_REACTORS
330
690
102
}
330
690
100
AcDbXrecord
280
     1
102
RTVSPropertyOp0
 70
     1
102
RTVSPropertyOp1
 70
     1
102
RTVSPropertyOp2
 70
     1
102
RTVSPropertyOp3
 70
     1
102
RTVSPropertyOp4
 70
     1
102
RTVSPropertyOp5
 70
     1
102
RTVSPropertyOp6
 70
     1
102
RTVSPropertyOp7
 70
     1
102
RTVSPropertyOp8
 70
     1
102
RTVSPropertyOp9
 70
     1
102
RTVSPropertyOp10
 70
     1
102
RTVSPropertyOp11
 70
     1
102
RTVSPropertyOp12
 70
     1
102
RTVSPropertyOp13
 70
     1
102
RTVSPropertyOp14
 70
     1
102
RTVSPropertyOp15
 70
     1
102
RTVSPropertyOp16
 70
     1
102
RTVSPropertyOp17
 70
     1
102
RTVSPropertyOp18
 70
     1
102
RTVSPropertyOp19
 70
     1
102
RTVSPropertyOp20
 70
     1
102
RTVSPropertyOp21
 70
     1
102
RTVSPropertyOp22
 70
     1
102
RTVSPropertyOp23
 70
     1
102
RTVSPropertyOp24
 70
     1
102
RTVSPropertyOp25
 70
     1
102
RTVSPropertyOp26
 70
     1
102
RTVSPropertyOp27
 70
     1
102
RTVSPropertyOp28
 70
     1
102
RTVSPropertyOp29
 70
     1
102
RTVSPropertyOp30
 70
     1
102
RTVSPropertyOp31
 70
     1
102
RTVSPropertyOp32
 70
     1
102
RTVSPropertyOp33
 70
     1
102
RTVSPropertyOp34
 70
     1
102
RTVSPropertyOp35
 70
     1
102
RTVSPropertyOp36
 70
     1
102
RTVSPropertyOp37
 70
     1
102
RTVSPropertyOp38
 70
     1
102
RTVSPropertyOp39
 70
     1
102
RTVSPropertyOp40
 70
     1
102
RTVSPropertyOp41
 70
     1
102
RTVSPropertyOp42
 70
     1
102
RTVSPropertyOp43
 70
     1
102
RTVSPropertyOp44
 70
     1
102
RTVSPropertyOp45
 70
     1
102
RTVSPropertyOp46
 70
     1
102
RTVSPropertyOp47
 70
     1
102
RTVSPropertyOp48
 70
     1
102
RTVSPropertyOp49
 70
     1
102
RTVSPropertyOp50
 70
     1
102
RTVSPropertyOp51
 70
     0
102
RTVSPropertyOp52
 70
     0
102
RTVSPropertyOp53
 70
     1
102
RTVSPropertyOp54
 70
     1
102
RTVSPropertyOp55
 70
     1
102
RTVSPropertyOp56
 70
     1
102
RTVSPropertyOp57
 70
     1
102
RTVSPost2010Prop28
280
     0
102
RTVSPost2010PropOp28
 70
     1
102
RTVSPost2010Prop29
280
     1
102
RTVSPost2010PropOp29
 70
     1
102
RTVSPost2010Prop30
280
     1
102
RTVSPost2010PropOp30
 70
     1
102
RTVSPost2010Prop31
280
     0
102
RTVSPost2010PropOp31
 70
     1
102
RTVSPost2010Prop32
280
     0
102
RTVSPost2010PropOp32
 70
     1
102
RTVSPost2010Prop33
280
     0
102
RTVSPost2010PropOp33
 70
     1
102
RTVSPost2010Prop34
280
     0
102
RTVSPost2010PropOp34
 70
     1
102
RTVSPost2010Prop35
280
     0
102
RTVSPost2010PropOp35
 70
     1
102
RTVSPost2010Prop36
280
     0
102
RTVSPost2010PropOp36
 70
     1
102
RTVSPost2010Prop37
 90
       50
102
RTVSPost2010PropOp37
 70
     1
102
RTVSPost2010Prop38
140
0.0
102
RTVSPost2010PropOp38
 70
     1
102
RTVSPost2010Prop39
140
1.0
102
RTVSPost2010PropOp39
 70
     1
102
RTVSPost2010Prop40
 90
        0
102
RTVSPost2010PropOp40
 70
     1
102
RTVSPost2010Prop41ColorIndex
 90
       18
102
RTVSPost2010Prop41ColorRGB
 90
        0
102
RTVSPost2010PropOp41
 70
     1
102
RTVSPost2010Prop42
 90
       50
102
RTVSPost2010PropOp42
 70
     1
102
RTVSPost2010Prop43
 90
        3
102
RTVSPost2010PropOp43
 70
     1
102
RTVSPost2010Prop44ColorIndex
 90
        5
102
RTVSPost2010Prop44ColorRGB
 90
      255
102
RTVSPost2010PropOp44
 70
     1
102
RTVSPost2010Prop45
280
     0
102
RTVSPost2010PropOp45
 70
     1
102
RTVSPost2010Prop46
 90
       50
102
RTVSPost2010PropOp46
 70
     1
102
RTVSPost2010Prop47
 90
       50
102
RTVSPost2010PropOp47
 70
     1
102
RTVSPost2010Prop48
 90
       50
102
RTVSPost2010PropOp48
 70
     1
102
RTVSPost2010Prop49
280
     0
102
RTVSPost2010PropOp49
 70
     1
102
RTVSPost2010Prop50
 90
       50
102
RTVSPost2010PropOp50
 70
     1
102
RTVSPost2010Prop51ColorIndex
 90
      256
102
RTVSPost2010Prop51ColorRGB
 90
-16777216
102
RTVSPost2010PropOp51
 70
     0
102
RTVSPost2010Prop52
140
1.0
102
RTVSPost2010PropOp52
 70
     0
102
RTVSPost2010Prop53
 90
        2
102
RTVSPost2010PropOp53
 70
     1
102
RTVSPost2010Prop54
  1
strokes_ogs.tif
102
RTVSPost2010PropOp54
 70
     1
102
RTVSPost2010Prop55
280
     0
102
RTVSPost2010PropOp55
 70
     1
102
RTVSPost2010Prop56
140
1.0
102
RTVSPost2010PropOp56
 70
     1
102
RTVSPost2010Prop57
140
1.0
102
RTVSPost2010PropOp57
 70
     1
  0
XRECORD
  5
693
102
{ACAD_REACTORS
330
692
102
}
330
692
100
AcDbXrecord
280
     1
102
RTVSPropertyOp0
 70
     1
102
RTVSPropertyOp1
 70
     1
102
RTVSPropertyOp2
 70
     1
102
RTVSPropertyOp3
 70
     1
102
RTVSPropertyOp4
 70
     1
102
RTVSPropertyOp5
 70
     1
102
RTVSPropertyOp6
 70
     1
102
RTVSPropertyOp7
 70
     1
102
RTVSPropertyOp8
 70
     1
102
RTVSPropertyOp9
 70
     1
102
RTVSPropertyOp10
 70
     1
102
RTVSPropertyOp11
 70
     1
102
RTVSPropertyOp12
 70
     1
102
RTVSPropertyOp13
 70
     1
102
RTVSPropertyOp14
 70
     1
102
RTVSPropertyOp15
 70
     1
102
RTVSPropertyOp16
 70
     1
102
RTVSPropertyOp17
 70
     1
102
RTVSPropertyOp18
 70
     1
102
RTVSPropertyOp19
 70
     1
102
RTVSPropertyOp20
 70
     1
102
RTVSPropertyOp21
 70
     1
102
RTVSPropertyOp22
 70
     1
102
RTVSPropertyOp23
 70
     1
102
RTVSPropertyOp24
 70
     1
102
RTVSPropertyOp25
 70
     1
102
RTVSPropertyOp26
 70
     1
102
RTVSPropertyOp27
 70
     1
102
RTVSPropertyOp28
 70
     1
102
RTVSPropertyOp29
 70
     1
102
RTVSPropertyOp30
 70
     1
102
RTVSPropertyOp31
 70
     1
102
RTVSPropertyOp32
 70
     1
102
RTVSPropertyOp33
 70
     1
102
RTVSPropertyOp34
 70
     1
102
RTVSPropertyOp35
 70
     1
102
RTVSPropertyOp36
 70
     1
102
RTVSPropertyOp37
 70
     1
102
RTVSPropertyOp38
 70
     1
102
RTVSPropertyOp39
 70
     1
102
RTVSPropertyOp40
 70
     1
102
RTVSPropertyOp41
 70
     1
102
RTVSPropertyOp42
 70
     1
102
RTVSPropertyOp43
 70
     1
102
RTVSPropertyOp44
 70
     1
102
RTVSPropertyOp45
 70
     1
102
RTVSPropertyOp46
 70
     1
102
RTVSPropertyOp47
 70
     1
102
RTVSPropertyOp48
 70
     1
102
RTVSPropertyOp49
 70
     1
102
RTVSPropertyOp50
 70
     1
102
RTVSPropertyOp51
 70
     0
102
RTVSPropertyOp52
 70
     0
102
RTVSPropertyOp53
 70
     1
102
RTVSPropertyOp54
 70
     1
102
RTVSPropertyOp55
 70
     1
102
RTVSPropertyOp56
 70
     1
102
RTVSPropertyOp57
 70
     1
102
RTVSPost2010Prop28
280
     0
102
RTVSPost2010PropOp28
 70
     1
102
RTVSPost2010Prop29
280
     1
102
RTVSPost2010PropOp29
 70
     1
102
RTVSPost2010Prop30
280
     1
102
RTVSPost2010PropOp30
 70
     1
102
RTVSPost2010Prop31
280
     0
102
RTVSPost2010PropOp31
 70
     1
102
RTVSPost2010Prop32
280
     0
102
RTVSPost2010PropOp32
 70
     1
102
RTVSPost2010Prop33
280
     0
102
RTVSPost2010PropOp33
 70
     1
102
RTVSPost2010Prop34
280
     0
102
RTVSPost2010PropOp34
 70
     1
102
RTVSPost2010Prop35
280
     0
102
RTVSPost2010PropOp35
 70
     1
102
RTVSPost2010Prop36
280
     0
102
RTVSPost2010PropOp36
 70
     1
102
RTVSPost2010Prop37
 90
       50
102
RTVSPost2010PropOp37
 70
     1
102
RTVSPost2010Prop38
140
0.0
102
RTVSPost2010PropOp38
 70
     1
102
RTVSPost2010Prop39
140
1.0
102
RTVSPost2010PropOp39
 70
     1
102
RTVSPost2010Prop40
 90
        0
102
RTVSPost2010PropOp40
 70
     1
102
RTVSPost2010Prop41ColorIndex
 90
       18
102
RTVSPost2010Prop41ColorRGB
 90
        0
102
RTVSPost2010PropOp41
 70
     1
102
RTVSPost2010Prop42
 90
       50
102
RTVSPost2010PropOp42
 70
     1
102
RTVSPost2010Prop43
 90
        3
102
RTVSPost2010PropOp43
 70
     1
102
RTVSPost2010Prop44ColorIndex
 90
        5
102
RTVSPost2010Prop44ColorRGB
 90
      255
102
RTVSPost2010PropOp44
 70
     1
102
RTVSPost2010Prop45
280
     0
102
RTVSPost2010PropOp45
 70
     1
102
RTVSPost2010Prop46
 90
       50
102
RTVSPost2010PropOp46
 70
     1
102
RTVSPost2010Prop47
 90
       50
102
RTVSPost2010PropOp47
 70
     1
102
RTVSPost2010Prop48
 90
       50
102
RTVSPost2010PropOp48
 70
     1
102
RTVSPost2010Prop49
280
     0
102
RTVSPost2010PropOp49
 70
     1
102
RTVSPost2010Prop50
 90
       50
102
RTVSPost2010PropOp50
 70
     1
102
RTVSPost2010Prop51ColorIndex
 90
      256
102
RTVSPost2010Prop51ColorRGB
 90
-16777216
102
RTVSPost2010PropOp51
 70
     0
102
RTVSPost2010Prop52
140
1.0
102
RTVSPost2010PropOp52
 70
     0
102
RTVSPost2010Prop53
 90
        2
102
RTVSPost2010PropOp53
 70
     1
102
RTVSPost2010Prop54
  1
strokes_ogs.tif
102
RTVSPost2010PropOp54
 70
     1
102
RTVSPost2010Prop55
280
     0
102
RTVSPost2010PropOp55
 70
     1
102
RTVSPost2010Prop56
140
1.0
102
RTVSPost2010PropOp56
 70
     1
102
RTVSPost2010Prop57
140
1.0
102
RTVSPost2010PropOp57
 70
     1
  0
XRECORD
  5
6A7
102
{ACAD_REACTORS
330
6A6
102
}
330
6A6
100
AcDbXrecord
280
     1
102
RTVSPropertyOp0
 70
     1
102
RTVSPropertyOp1
 70
     1
102
RTVSPropertyOp2
 70
     1
102
RTVSPropertyOp3
 70
     1
102
RTVSPropertyOp4
 70
     1
102
RTVSPropertyOp5
 70
     1
102
RTVSPropertyOp6
 70
     1
102
RTVSPropertyOp7
 70
     1
102
RTVSPropertyOp8
 70
     1
102
RTVSPropertyOp9
 70
     1
102
RTVSPropertyOp10
 70
     1
102
RTVSPropertyOp11
 70
     1
102
RTVSPropertyOp12
 70
     1
102
RTVSPropertyOp13
 70
     1
102
RTVSPropertyOp14
 70
     1
102
RTVSPropertyOp15
 70
     1
102
RTVSPropertyOp16
 70
     1
102
RTVSPropertyOp17
 70
     1
102
RTVSPropertyOp18
 70
     1
102
RTVSPropertyOp19
 70
     1
102
RTVSPropertyOp20
 70
     1
102
RTVSPropertyOp21
 70
     1
102
RTVSPropertyOp22
 70
     1
102
RTVSPropertyOp23
 70
     1
102
RTVSPropertyOp24
 70
     1
102
RTVSPropertyOp25
 70
     1
102
RTVSPropertyOp26
 70
     1
102
RTVSPropertyOp27
 70
     1
102
RTVSPropertyOp28
 70
     1
102
RTVSPropertyOp29
 70
     1
102
RTVSPropertyOp30
 70
     1
102
RTVSPropertyOp31
 70
     1
102
RTVSPropertyOp32
 70
     1
102
RTVSPropertyOp33
 70
     1
102
RTVSPropertyOp34
 70
     1
102
RTVSPropertyOp35
 70
     1
102
RTVSPropertyOp36
 70
     1
102
RTVSPropertyOp37
 70
     1
102
RTVSPropertyOp38
 70
     1
102
RTVSPropertyOp39
 70
     1
102
RTVSPropertyOp40
 70
     1
102
RTVSPropertyOp41
 70
     1
102
RTVSPropertyOp42
 70
     1
102
RTVSPropertyOp43
 70
     1
102
RTVSPropertyOp44
 70
     1
102
RTVSPropertyOp45
 70
     1
102
RTVSPropertyOp46
 70
     1
102
RTVSPropertyOp47
 70
     1
102
RTVSPropertyOp48
 70
     1
102
RTVSPropertyOp49
 70
     1
102
RTVSPropertyOp50
 70
     1
102
RTVSPropertyOp51
 70
     0
102
RTVSPropertyOp52
 70
     0
102
RTVSPropertyOp53
 70
     1
102
RTVSPropertyOp54
 70
     1
102
RTVSPropertyOp55
 70
     1
102
RTVSPropertyOp56
 70
     1
102
RTVSPropertyOp57
 70
     1
102
RTVSPost2010Prop28
280
     0
102
RTVSPost2010PropOp28
 70
     1
102
RTVSPost2010Prop29
280
     1
102
RTVSPost2010PropOp29
 70
     1
102
RTVSPost2010Prop30
280
     1
102
RTVSPost2010PropOp30
 70
     1
102
RTVSPost2010Prop31
280
     0
102
RTVSPost2010PropOp31
 70
     1
102
RTVSPost2010Prop32
280
     0
102
RTVSPost2010PropOp32
 70
     1
102
RTVSPost2010Prop33
280
     0
102
RTVSPost2010PropOp33
 70
     1
102
RTVSPost2010Prop34
280
     0
102
RTVSPost2010PropOp34
 70
     1
102
RTVSPost2010Prop35
280
     0
102
RTVSPost2010PropOp35
 70
     1
102
RTVSPost2010Prop36
280
     0
102
RTVSPost2010PropOp36
 70
     1
102
RTVSPost2010Prop37
 90
       50
102
RTVSPost2010PropOp37
 70
     1
102
RTVSPost2010Prop38
140
0.0
102
RTVSPost2010PropOp38
 70
     1
102
RTVSPost2010Prop39
140
1.0
102
RTVSPost2010PropOp39
 70
     1
102
RTVSPost2010Prop40
 90
        0
102
RTVSPost2010PropOp40
 70
     1
102
RTVSPost2010Prop41ColorIndex
 90
       18
102
RTVSPost2010Prop41ColorRGB
 90
        0
102
RTVSPost2010PropOp41
 70
     1
102
RTVSPost2010Prop42
 90
       50
102
RTVSPost2010PropOp42
 70
     1
102
RTVSPost2010Prop43
 90
        3
102
RTVSPost2010PropOp43
 70
     1
102
RTVSPost2010Prop44ColorIndex
 90
        5
102
RTVSPost2010Prop44ColorRGB
 90
      255
102
RTVSPost2010PropOp44
 70
     1
102
RTVSPost2010Prop45
280
     0
102
RTVSPost2010PropOp45
 70
     1
102
RTVSPost2010Prop46
 90
       50
102
RTVSPost2010PropOp46
 70
     1
102
RTVSPost2010Prop47
 90
       50
102
RTVSPost2010PropOp47
 70
     1
102
RTVSPost2010Prop48
 90
       50
102
RTVSPost2010PropOp48
 70
     1
102
RTVSPost2010Prop49
280
     0
102
RTVSPost2010PropOp49
 70
     1
102
RTVSPost2010Prop50
 90
       50
102
RTVSPost2010PropOp50
 70
     1
102
RTVSPost2010Prop51ColorIndex
 90
      256
102
RTVSPost2010Prop51ColorRGB
 90
-16777216
102
RTVSPost2010PropOp51
 70
     0
102
RTVSPost2010Prop52
140
1.0
102
RTVSPost2010PropOp52
 70
     0
102
RTVSPost2010Prop53
 90
        2
102
RTVSPost2010PropOp53
 70
     1
102
RTVSPost2010Prop54
  1
strokes_ogs.tif
102
RTVSPost2010PropOp54
 70
     1
102
RTVSPost2010Prop55
280
     0
102
RTVSPost2010PropOp55
 70
     1
102
RTVSPost2010Prop56
140
1.0
102
RTVSPost2010PropOp56
 70
     1
102
RTVSPost2010Prop57
140
1.0
102
RTVSPost2010PropOp57
 70
     1
  0
XRECORD
  5
69D
102
{ACAD_REACTORS
330
69C
102
}
330
69C
100
AcDbXrecord
280
     1
102
RTVSPropertyOp0
 70
     1
102
RTVSPropertyOp1
 70
     1
102
RTVSPropertyOp2
 70
     1
102
RTVSPropertyOp3
 70
     1
102
RTVSPropertyOp4
 70
     1
102
RTVSPropertyOp5
 70
     1
102
RTVSPropertyOp6
 70
     1
102
RTVSPropertyOp7
 70
     1
102
RTVSPropertyOp8
 70
     1
102
RTVSPropertyOp9
 70
     1
102
RTVSPropertyOp10
 70
     1
102
RTVSPropertyOp11
 70
     1
102
RTVSPropertyOp12
 70
     1
102
RTVSPropertyOp13
 70
     1
102
RTVSPropertyOp14
 70
     1
102
RTVSPropertyOp15
 70
     1
102
RTVSPropertyOp16
 70
     1
102
RTVSPropertyOp17
 70
     1
102
RTVSPropertyOp18
 70
     1
102
RTVSPropertyOp19
 70
     1
102
RTVSPropertyOp20
 70
     1
102
RTVSPropertyOp21
 70
     1
102
RTVSPropertyOp22
 70
     1
102
RTVSPropertyOp23
 70
     1
102
RTVSPropertyOp24
 70
     1
102
RTVSPropertyOp25
 70
     1
102
RTVSPropertyOp26
 70
     1
102
RTVSPropertyOp27
 70
     1
102
RTVSPropertyOp28
 70
     1
102
RTVSPropertyOp29
 70
     1
102
RTVSPropertyOp30
 70
     1
102
RTVSPropertyOp31
 70
     1
102
RTVSPropertyOp32
 70
     1
102
RTVSPropertyOp33
 70
     1
102
RTVSPropertyOp34
 70
     1
102
RTVSPropertyOp35
 70
     1
102
RTVSPropertyOp36
 70
     1
102
RTVSPropertyOp37
 70
     1
102
RTVSPropertyOp38
 70
     1
102
RTVSPropertyOp39
 70
     1
102
RTVSPropertyOp40
 70
     1
102
RTVSPropertyOp41
 70
     1
102
RTVSPropertyOp42
 70
     1
102
RTVSPropertyOp43
 70
     1
102
RTVSPropertyOp44
 70
     1
102
RTVSPropertyOp45
 70
     1
102
RTVSPropertyOp46
 70
     1
102
RTVSPropertyOp47
 70
     1
102
RTVSPropertyOp48
 70
     1
102
RTVSPropertyOp49
 70
     1
102
RTVSPropertyOp50
 70
     1
102
RTVSPropertyOp51
 70
     0
102
RTVSPropertyOp52
 70
     0
102
RTVSPropertyOp53
 70
     1
102
RTVSPropertyOp54
 70
     1
102
RTVSPropertyOp55
 70
     1
102
RTVSPropertyOp56
 70
     1
102
RTVSPropertyOp57
 70
     1
102
RTVSPost2010Prop28
280
     0
102
RTVSPost2010PropOp28
 70
     1
102
RTVSPost2010Prop29
280
     1
102
RTVSPost2010PropOp29
 70
     1
102
RTVSPost2010Prop30
280
     1
102
RTVSPost2010PropOp30
 70
     1
102
RTVSPost2010Prop31
280
     0
102
RTVSPost2010PropOp31
 70
     1
102
RTVSPost2010Prop32
280
     0
102
RTVSPost2010PropOp32
 70
     1
102
RTVSPost2010Prop33
280
     0
102
RTVSPost2010PropOp33
 70
     1
102
RTVSPost2010Prop34
280
     0
102
RTVSPost2010PropOp34
 70
     1
102
RTVSPost2010Prop35
280
     0
102
RTVSPost2010PropOp35
 70
     1
102
RTVSPost2010Prop36
280
     0
102
RTVSPost2010PropOp36
 70
     1
102
RTVSPost2010Prop37
 90
       50
102
RTVSPost2010PropOp37
 70
     1
102
RTVSPost2010Prop38
140
0.0
102
RTVSPost2010PropOp38
 70
     1
102
RTVSPost2010Prop39
140
1.0
102
RTVSPost2010PropOp39
 70
     1
102
RTVSPost2010Prop40
 90
        0
102
RTVSPost2010PropOp40
 70
     1
102
RTVSPost2010Prop41ColorIndex
 90
       18
102
RTVSPost2010Prop41ColorRGB
 90
        0
102
RTVSPost2010PropOp41
 70
     1
102
RTVSPost2010Prop42
 90
       50
102
RTVSPost2010PropOp42
 70
     1
102
RTVSPost2010Prop43
 90
        3
102
RTVSPost2010PropOp43
 70
     1
102
RTVSPost2010Prop44ColorIndex
 90
        5
102
RTVSPost2010Prop44ColorRGB
 90
      255
102
RTVSPost2010PropOp44
 70
     1
102
RTVSPost2010Prop45
280
     0
102
RTVSPost2010PropOp45
 70
     1
102
RTVSPost2010Prop46
 90
       50
102
RTVSPost2010PropOp46
 70
     1
102
RTVSPost2010Prop47
 90
       50
102
RTVSPost2010PropOp47
 70
     1
102
RTVSPost2010Prop48
 90
       50
102
RTVSPost2010PropOp48
 70
     1
102
RTVSPost2010Prop49
280
     0
102
RTVSPost2010PropOp49
 70
     1
102
RTVSPost2010Prop50
 90
       50
102
RTVSPost2010PropOp50
 70
     1
102
RTVSPost2010Prop51ColorIndex
 90
      256
102
RTVSPost2010Prop51ColorRGB
 90
-16777216
102
RTVSPost2010PropOp51
 70
     0
102
RTVSPost2010Prop52
140
1.0
102
RTVSPost2010PropOp52
 70
     0
102
RTVSPost2010Prop53
 90
        2
102
RTVSPost2010PropOp53
 70
     1
102
RTVSPost2010Prop54
  1
strokes_ogs.tif
102
RTVSPost2010PropOp54
 70
     1
102
RTVSPost2010Prop55
280
     0
102
RTVSPost2010PropOp55
 70
     1
102
RTVSPost2010Prop56
140
1.0
102
RTVSPost2010PropOp56
 70
     1
102
RTVSPost2010Prop57
140
1.0
102
RTVSPost2010PropOp57
 70
     1
  0
XRECORD
  5
6A5
102
{ACAD_REACTORS
330
6A4
102
}
330
6A4
100
AcDbXrecord
280
     1
102
RTVSPropertyOp0
 70
     1
102
RTVSPropertyOp1
 70
     1
102
RTVSPropertyOp2
 70
     1
102
RTVSPropertyOp3
 70
     1
102
RTVSPropertyOp4
 70
     1
102
RTVSPropertyOp5
 70
     1
102
RTVSPropertyOp6
 70
     1
102
RTVSPropertyOp7
 70
     1
102
RTVSPropertyOp8
 70
     1
102
RTVSPropertyOp9
 70
     1
102
RTVSPropertyOp10
 70
     1
102
RTVSPropertyOp11
 70
     1
102
RTVSPropertyOp12
 70
     1
102
RTVSPropertyOp13
 70
     1
102
RTVSPropertyOp14
 70
     1
102
RTVSPropertyOp15
 70
     1
102
RTVSPropertyOp16
 70
     1
102
RTVSPropertyOp17
 70
     1
102
RTVSPropertyOp18
 70
     1
102
RTVSPropertyOp19
 70
     1
102
RTVSPropertyOp20
 70
     1
102
RTVSPropertyOp21
 70
     1
102
RTVSPropertyOp22
 70
     1
102
RTVSPropertyOp23
 70
     1
102
RTVSPropertyOp24
 70
     1
102
RTVSPropertyOp25
 70
     1
102
RTVSPropertyOp26
 70
     1
102
RTVSPropertyOp27
 70
     1
102
RTVSPropertyOp28
 70
     1
102
RTVSPropertyOp29
 70
     1
102
RTVSPropertyOp30
 70
     1
102
RTVSPropertyOp31
 70
     1
102
RTVSPropertyOp32
 70
     1
102
RTVSPropertyOp33
 70
     1
102
RTVSPropertyOp34
 70
     1
102
RTVSPropertyOp35
 70
     1
102
RTVSPropertyOp36
 70
     1
102
RTVSPropertyOp37
 70
     1
102
RTVSPropertyOp38
 70
     1
102
RTVSPropertyOp39
 70
     1
102
RTVSPropertyOp40
 70
     1
102
RTVSPropertyOp41
 70
     1
102
RTVSPropertyOp42
 70
     1
102
RTVSPropertyOp43
 70
     1
102
RTVSPropertyOp44
 70
     1
102
RTVSPropertyOp45
 70
     1
102
RTVSPropertyOp46
 70
     1
102
RTVSPropertyOp47
 70
     1
102
RTVSPropertyOp48
 70
     1
102
RTVSPropertyOp49
 70
     1
102
RTVSPropertyOp50
 70
     1
102
RTVSPropertyOp51
 70
     0
102
RTVSPropertyOp52
 70
     0
102
RTVSPropertyOp53
 70
     1
102
RTVSPropertyOp54
 70
     1
102
RTVSPropertyOp55
 70
     1
102
RTVSPropertyOp56
 70
     1
102
RTVSPropertyOp57
 70
     1
102
RTVSPost2010Prop28
280
     0
102
RTVSPost2010PropOp28
 70
     1
102
RTVSPost2010Prop29
280
     1
102
RTVSPost2010PropOp29
 70
     1
102
RTVSPost2010Prop30
280
     1
102
RTVSPost2010PropOp30
 70
     1
102
RTVSPost2010Prop31
280
     0
102
RTVSPost2010PropOp31
 70
     1
102
RTVSPost2010Prop32
280
     0
102
RTVSPost2010PropOp32
 70
     1
102
RTVSPost2010Prop33
280
     0
102
RTVSPost2010PropOp33
 70
     1
102
RTVSPost2010Prop34
280
     0
102
RTVSPost2010PropOp34
 70
     1
102
RTVSPost2010Prop35
280
     0
102
RTVSPost2010PropOp35
 70
     1
102
RTVSPost2010Prop36
280
     0
102
RTVSPost2010PropOp36
 70
     1
102
RTVSPost2010Prop37
 90
       50
102
RTVSPost2010PropOp37
 70
     1
102
RTVSPost2010Prop38
140
0.0
102
RTVSPost2010PropOp38
 70
     1
102
RTVSPost2010Prop39
140
1.0
102
RTVSPost2010PropOp39
 70
     1
102
RTVSPost2010Prop40
 90
        0
102
RTVSPost2010PropOp40
 70
     1
102
RTVSPost2010Prop41ColorIndex
 90
       18
102
RTVSPost2010Prop41ColorRGB
 90
        0
102
RTVSPost2010PropOp41
 70
     1
102
RTVSPost2010Prop42
 90
       50
102
RTVSPost2010PropOp42
 70
     1
102
RTVSPost2010Prop43
 90
        3
102
RTVSPost2010PropOp43
 70
     1
102
RTVSPost2010Prop44ColorIndex
 90
        5
102
RTVSPost2010Prop44ColorRGB
 90
      255
102
RTVSPost2010PropOp44
 70
     1
102
RTVSPost2010Prop45
280
     0
102
RTVSPost2010PropOp45
 70
     1
102
RTVSPost2010Prop46
 90
       50
102
RTVSPost2010PropOp46
 70
     1
102
RTVSPost2010Prop47
 90
       50
102
RTVSPost2010PropOp47
 70
     1
102
RTVSPost2010Prop48
 90
       50
102
RTVSPost2010PropOp48
 70
     1
102
RTVSPost2010Prop49
280
     0
102
RTVSPost2010PropOp49
 70
     1
102
RTVSPost2010Prop50
 90
       50
102
RTVSPost2010PropOp50
 70
     1
102
RTVSPost2010Prop51ColorIndex
 90
      256
102
RTVSPost2010Prop51ColorRGB
 90
-16777216
102
RTVSPost2010PropOp51
 70
     0
102
RTVSPost2010Prop52
140
1.0
102
RTVSPost2010PropOp52
 70
     0
102
RTVSPost2010Prop53
 90
        2
102
RTVSPost2010PropOp53
 70
     1
102
RTVSPost2010Prop54
  1
strokes_ogs.tif
102
RTVSPost2010PropOp54
 70
     1
102
RTVSPost2010Prop55
280
     0
102
RTVSPost2010PropOp55
 70
     1
102
RTVSPost2010Prop56
140
1.0
102
RTVSPost2010PropOp56
 70
     1
102
RTVSPost2010Prop57
140
1.0
102
RTVSPost2010PropOp57
 70
     1
  0
ENDSEC
  0
EOF
