  0
SECTION
  2
HEADER
  9
$ACADVER
  1
AC1018
  9
$ACADMAINTVER
 70
     0
  9
$DWGCODEPAGE
  3
ANSI_936
  9
$INSBASE
 10
0.0
 20
0.0
 30
0.0
  9
$EXTMIN
 10
509.6807064562169
 20
949.680706456217
 30
0.0
  9
$EXTMAX
 10
640.6807064562169
 20
1025.032631393991
 30
0.0
  9
$LIMMIN
 10
0.0
 20
0.0
  9
$LIMMAX
 10
12.0
 20
9.0
  9
$ORTHOMODE
 70
     0
  9
$REGENMODE
 70
     1
  9
$FILLMODE
 70
     1
  9
$QTEXTMODE
 70
     0
  9
$MIRRTEXT
 70
     1
  9
$LTSCALE
 40
1.0
  9
$ATTMODE
 70
     1
  9
$TEXTSIZE
 40
0.2
  9
$TRACEWID
 40
0.05
  9
$TEXTSTYLE
  7
Standard
  9
$CLAYER
  8
E9096
  9
$CELTYPE
  6
ByLayer
  9
$CECOLOR
 62
   256
  9
$CELTSCALE
 40
1.0
  9
$DISPSILH
 70
     0
  9
$DIMSCALE
 40
1.0
  9
$DIMASZ
 40
0.18
  9
$DIMEXO
 40
0.0625
  9
$DIMDLI
 40
0.38
  9
$DIMRND
 40
0.0
  9
$DIMDLE
 40
0.0
  9
$DIMEXE
 40
0.18
  9
$DIMTP
 40
0.0
  9
$DIMTM
 40
0.0
  9
$DIMTXT
 40
0.18
  9
$DIMCEN
 40
0.09
  9
$DIMTSZ
 40
0.0
  9
$DIMTOL
 70
     0
  9
$DIMLIM
 70
     0
  9
$DIMTIH
 70
     1
  9
$DIMTOH
 70
     1
  9
$DIMSE1
 70
     0
  9
$DIMSE2
 70
     0
  9
$DIMTAD
 70
     0
  9
$DIMZIN
 70
     0
  9
$DIMBLK
  1

  9
$DIMASO
 70
     1
  9
$DIMSHO
 70
     1
  9
$DIMPOST
  1

  9
$DIMAPOST
  1

  9
$DIMALT
 70
     0
  9
$DIMALTD
 70
     2
  9
$DIMALTF
 40
25.4
  9
$DIMLFAC
 40
1.0
  9
$DIMTOFL
 70
     0
  9
$DIMTVP
 40
0.0
  9
$DIMTIX
 70
     0
  9
$DIMSOXD
 70
     0
  9
$DIMSAH
 70
     0
  9
$DIMBLK1
  1

  9
$DIMBLK2
  1

  9
$DIMSTYLE
  2
Standard
  9
$DIMCLRD
 70
     0
  9
$DIMCLRE
 70
     0
  9
$DIMCLRT
 70
     0
  9
$DIMTFAC
 40
1.0
  9
$DIMGAP
 40
0.09
  9
$DIMJUST
 70
     0
  9
$DIMSD1
 70
     0
  9
$DIMSD2
 70
     0
  9
$DIMTOLJ
 70
     1
  9
$DIMTZIN
 70
     0
  9
$DIMALTZ
 70
     0
  9
$DIMALTTZ
 70
     0
  9
$DIMUPT
 70
     0
  9
$DIMDEC
 70
     4
  9
$DIMTDEC
 70
     4
  9
$DIMALTU
 70
     2
  9
$DIMALTTD
 70
     2
  9
$DIMTXSTY
  7
Standard
  9
$DIMAUNIT
 70
     0
  9
$DIMADEC
 70
     0
  9
$DIMALTRND
 40
0.0
  9
$DIMAZIN
 70
     0
  9
$DIMDSEP
 70
    46
  9
$DIMATFIT
 70
     3
  9
$DIMFRAC
 70
     0
  9
$DIMLDRBLK
  1

  9
$DIMLUNIT
 70
     2
  9
$DIMLWD
 70
    -2
  9
$DIMLWE
 70
    -2
  9
$DIMTMOVE
 70
     2
  9
$LUNITS
 70
     2
  9
$LUPREC
 70
     2
  9
$SKETCHINC
 40
0.1
  9
$FILLETRAD
 40
0.5
  9
$AUNITS
 70
     0
  9
$AUPREC
 70
     0
  9
$MENU
  1
.
  9
$ELEVATION
 40
0.0
  9
$PELEVATION
 40
0.0
  9
$THICKNESS
 40
0.0
  9
$LIMCHECK
 70
     0
  9
$CHAMFERA
 40
0.5
  9
$CHAMFERB
 40
0.5
  9
$CHAMFERC
 40
1.0
  9
$CHAMFERD
 40
0.0
  9
$SKPOLY
 70
     0
  9
$TDCREATE
 40
2456723.853192477
  9
$TDUCREATE
 40
2456723.519859144
  9
$TDUPDATE
 40
2456723.85320147
  9
$TDUUPDATE
 40
2456723.519868136
  9
$TDINDWG
 40
0.0000000116
  9
$TDUSRTIMER
 40
0.0000000116
  9
$USRTIMER
 70
     1
  9
$ANGBASE
 50
0.0
  9
$ANGDIR
 70
     0
  9
$PDMODE
 70
     0
  9
$PDSIZE
 40
0.0
  9
$PLINEWID
 40
0.0
  9
$SPLFRAME
 70
     0
  9
$SPLINETYPE
 70
     6
  9
$SPLINESEGS
 70
     8
  9
$HANDSEED
  5
53E
  9
$SURFTAB1
 70
     6
  9
$SURFTAB2
 70
     6
  9
$SURFTYPE
 70
     6
  9
$SURFU
 70
     6
  9
$SURFV
 70
     6
  9
$UCSBASE
  2

  9
$UCSNAME
  2

  9
$UCSORG
 10
0.0
 20
0.0
 30
0.0
  9
$UCSXDIR
 10
1.0
 20
0.0
 30
0.0
  9
$UCSYDIR
 10
0.0
 20
1.0
 30
0.0
  9
$UCSORTHOREF
  2

  9
$UCSORTHOVIEW
 70
     0
  9
$UCSORGTOP
 10
0.0
 20
0.0
 30
0.0
  9
$UCSORGBOTTOM
 10
0.0
 20
0.0
 30
0.0
  9
$UCSORGLEFT
 10
0.0
 20
0.0
 30
0.0
  9
$UCSORGRIGHT
 10
0.0
 20
0.0
 30
0.0
  9
$UCSORGFRONT
 10
0.0
 20
0.0
 30
0.0
  9
$UCSORGBACK
 10
0.0
 20
0.0
 30
0.0
  9
$PUCSBASE
  2

  9
$PUCSNAME
  2

  9
$PUCSORG
 10
0.0
 20
0.0
 30
0.0
  9
$PUCSXDIR
 10
1.0
 20
0.0
 30
0.0
  9
$PUCSYDIR
 10
0.0
 20
1.0
 30
0.0
  9
$PUCSORTHOREF
  2

  9
$PUCSORTHOVIEW
 70
     0
  9
$PUCSORGTOP
 10
0.0
 20
0.0
 30
0.0
  9
$PUCSORGBOTTOM
 10
0.0
 20
0.0
 30
0.0
  9
$PUCSORGLEFT
 10
0.0
 20
0.0
 30
0.0
  9
$PUCSORGRIGHT
 10
0.0
 20
0.0
 30
0.0
  9
$PUCSORGFRONT
 10
0.0
 20
0.0
 30
0.0
  9
$PUCSORGBACK
 10
0.0
 20
0.0
 30
0.0
  9
$USERI1
 70
     0
  9
$USERI2
 70
     0
  9
$USERI3
 70
     0
  9
$USERI4
 70
     0
  9
$USERI5
 70
     0
  9
$USERR1
 40
0.0
  9
$USERR2
 40
0.0
  9
$USERR3
 40
0.0
  9
$USERR4
 40
0.0
  9
$USERR5
 40
0.0
  9
$WORLDVIEW
 70
     1
  9
$SHADEDGE
 70
     3
  9
$SHADEDIF
 70
    70
  9
$TILEMODE
 70
     1
  9
$MAXACTVP
 70
    64
  9
$PINSBASE
 10
0.0
 20
0.0
 30
0.0
  9
$PLIMCHECK
 70
     0
  9
$PEXTMIN
 10
1.000000000000000E+20
 20
1.000000000000000E+20
 30
1.000000000000000E+20
  9
$PEXTMAX
 10
-1.000000000000000E+20
 20
-1.000000000000000E+20
 30
-1.000000000000000E+20
  9
$PLIMMIN
 10
0.0
 20
0.0
  9
$PLIMMAX
 10
12.0
 20
9.0
  9
$UNITMODE
 70
     0
  9
$VISRETAIN
 70
     1
  9
$PLINEGEN
 70
     0
  9
$PSLTSCALE
 70
     1
  9
$TREEDEPTH
 70
  3020
  9
$CMLSTYLE
  2
Standard
  9
$CMLJUST
 70
     0
  9
$CMLSCALE
 40
1.0
  9
$PROXYGRAPHICS
 70
     1
  9
$MEASUREMENT
 70
     0
  9
$CELWEIGHT
370
    -1
  9
$ENDCAPS
280
     0
  9
$JOINSTYLE
280
     0
  9
$LWDISPLAY
290
     0
  9
$INSUNITS
 70
     4
  9
$HYPERLINKBASE
  1

  9
$STYLESHEET
  1

  9
$XEDIT
290
     1
  9
$CEPSNTYPE
380
     0
  9
$PSTYLEMODE
290
     1
  9
$FINGERPRINTGUID
  2
{B80BF3D6-3798-4228-B950-1B2CEA00B9BF}
  9
$VERSIONGUID
  2
{FAEB1C32-E019-11D5-929B-00C0DF256EC4}
  9
$EXTNAMES
290
     1
  9
$PSVPSCALE
 40
0.0
  9
$OLESTARTUP
290
     0
  9
$SORTENTS
280
   127
  9
$INDEXCTL
280
     0
  9
$HIDETEXT
280
     1
  9
$XCLIPFRAME
290
     0
  9
$HALOGAP
280
     0
  9
$OBSCOLOR
 70
   257
  9
$OBSLTYPE
280
     0
  9
$INTERSECTIONDISPLAY
280
     0
  9
$INTERSECTIONCOLOR
 70
   257
  9
$DIMASSOC
280
     2
  9
$PROJECTNAME
  1

  0
ENDSEC
  0
SECTION
  2
CLASSES
  0
CLASS
  1
ACDBDICTIONARYWDFLT
  2
AcDbDictionaryWithDefault
  3
ObjectDBX Classes
 90
        0
 91
        4
280
     0
281
     0
  0
CLASS
  1
VISUALSTYLE
  2
AcDbVisualStyle
  3
ObjectDBX Classes
 90
     4095
 91
        4
280
     0
281
     0
  0
CLASS
  1
MATERIAL
  2
AcDbMaterial
  3
ObjectDBX Classes
 90
     1153
 91
        4
280
     0
281
     0
  0
CLASS
  1
SCALE
  2
AcDbScale
  3
ObjectDBX Classes
 90
     1153
 91
        4
280
     0
281
     0
  0
CLASS
  1
SUN
  2
AcDbSun
  3
SCENEOE
 90
     1153
 91
        4
280
     0
281
     0
  0
CLASS
  1
DICTIONARYVAR
  2
AcDbDictionaryVar
  3
ObjectDBX Classes
 90
        0
 91
        4
280
     0
281
     0
  0
ENDSEC
  0
SECTION
  2
TABLES
  0
TABLE
  2
VPORT
  5
8
330
0
100
AcDbSymbolTable
 70
     1
  0
VPORT
  5
29
330
8
100
AcDbSymbolTableRecord
100
AcDbViewportTableRecord
  2
*Active
 70
     0
 10
0.0
 20
0.0
 11
1.0
 21
1.0
 12
575.1807064562169
 22
987.3566689244765
 13
0.0
 23
0.0
 14
0.5
 24
0.5
 15
0.5
 25
0.5
 16
0.0
 26
0.0
 36
1.0
 17
0.0
 27
0.0
 37
0.0
 40
76.85896343524941
 41
1.73850900438658
 42
50.0
 43
0.0
 44
0.0
 50
0.0
 51
0.0
 71
     0
 72
   100
 73
     1
 74
     3
 75
     0
 76
     0
 77
     0
 78
     0
281
     0
 65
     1
110
0.0
120
0.0
130
0.0
111
1.0
121
0.0
131
0.0
112
0.0
122
1.0
132
0.0
 79
     0
146
0.0
  0
ENDTAB
  0
TABLE
  2
LTYPE
  5
5
330
0
100
AcDbSymbolTable
 70
     1
  0
LTYPE
  5
14
330
5
100
AcDbSymbolTableRecord
100
AcDbLinetypeTableRecord
  2
ByBlock
 70
     0
  3

 72
    65
 73
     0
 40
0.0
  0
LTYPE
  5
15
330
5
100
AcDbSymbolTableRecord
100
AcDbLinetypeTableRecord
  2
ByLayer
 70
     0
  3

 72
    65
 73
     0
 40
0.0
  0
LTYPE
  5
16
330
5
100
AcDbSymbolTableRecord
100
AcDbLinetypeTableRecord
  2
Continuous
 70
     0
  3
Solid line
 72
    65
 73
     0
 40
0.0
  0
ENDTAB
  0
TABLE
  2
LAYER
  5
2
330
0
100
AcDbSymbolTable
 70
     3
  0
LAYER
  5
10
330
2
100
AcDbSymbolTableRecord
100
AcDbLayerTableRecord
  2
0
 70
     0
 62
     7
  6
Continuous
370
    -3
390
F
  0
LAYER
  5
62
330
2
100
AcDbSymbolTableRecord
100
AcDbLayerTableRecord
  2
Make2D$可见线$普通线
 70
     0
 62
    18
420
        0
  6
Continuous
370
    -3
390
F
  0
LAYER
  5
491
330
2
100
AcDbSymbolTableRecord
100
AcDbLayerTableRecord
  2
E9096
 70
     0
 62
    18
420
        0
  6
Continuous
370
    -3
390
F
  0
ENDTAB
  0
TABLE
  2
STYLE
  5
3
330
0
100
AcDbSymbolTable
 70
     1
  0
STYLE
  5
11
330
3
100
AcDbSymbolTableRecord
100
AcDbTextStyleTableRecord
  2
Standard
 70
     0
 40
0.0
 41
1.0
 50
0.0
 71
     0
 42
0.2
  3
txt
  4

  0
ENDTAB
  0
TABLE
  2
VIEW
  5
6
330
0
100
AcDbSymbolTable
 70
     0
  0
ENDTAB
  0
TABLE
  2
UCS
  5
7
330
0
100
AcDbSymbolTable
 70
     0
  0
ENDTAB
  0
TABLE
  2
APPID
  5
9
330
0
100
AcDbSymbolTable
 70
     1
  0
APPID
  5
12
330
9
100
AcDbSymbolTableRecord
100
AcDbRegAppTableRecord
  2
ACAD
 70
     0
  0
ENDTAB
  0
TABLE
  2
DIMSTYLE
  5
A
330
0
100
AcDbSymbolTable
 70
     1
100
AcDbDimStyleTable
  0
DIMSTYLE
105
27
330
A
100
AcDbSymbolTableRecord
100
AcDbDimStyleTableRecord
  2
Standard
 70
     0
178
     0
340
11
  0
ENDTAB
  0
TABLE
  2
BLOCK_RECORD
  5
1
330
0
100
AcDbSymbolTable
 70
     1
  0
BLOCK_RECORD
  5
1F
330
1
100
AcDbSymbolTableRecord
100
AcDbBlockTableRecord
  2
*Model_Space
340
22
  0
BLOCK_RECORD
  5
1B
330
1
100
AcDbSymbolTableRecord
100
AcDbBlockTableRecord
  2
*Paper_Space
340
1E
  0
BLOCK_RECORD
  5
23
330
1
100
AcDbSymbolTableRecord
100
AcDbBlockTableRecord
  2
*Paper_Space0
340
26
  0
ENDTAB
  0
ENDSEC
  0
SECTION
  2
BLOCKS
  0
BLOCK
  5
20
330
1F
100
AcDbEntity
  8
0
100
AcDbBlockBegin
  2
*Model_Space
 70
     0
 10
0.0
 20
0.0
 30
0.0
  3
*Model_Space
  1
*Model_Space
  0
ENDBLK
  5
21
330
1F
100
AcDbEntity
  8
0
100
AcDbBlockEnd
  0
BLOCK
  5
1C
330
1B
100
AcDbEntity
 67
     1
  8
0
100
AcDbBlockBegin
  2
*Paper_Space
 70
     0
 10
0.0
 20
0.0
 30
0.0
  3
*Paper_Space
  1
*Paper_Space
  0
ENDBLK
  5
1D
330
1B
100
AcDbEntity
 67
     1
  8
0
100
AcDbBlockEnd
  0
BLOCK
  5
24
330
23
100
AcDbEntity
  8
0
100
AcDbBlockBegin
  2
*Paper_Space0
 70
     0
 10
0.0
 20
0.0
 30
0.0
  3
*Paper_Space0
  1
*Paper_Space0
  0
ENDBLK
  5
25
330
23
100
AcDbEntity
  8
0
100
AcDbBlockEnd
  0
ENDSEC
  0
SECTION
  2
ENTITIES
  0
LINE
  5
63
330
1F
100
AcDbEntity
  8
Make2D$可见线$普通线
100
AcDbLine
 10
578.6807064562169
 20
1004.532577058934
 30
0.0
 11
577.7209152669992
 21
1004.532577058934
 31
0.0
  0
LINE
  5
64
330
1F
100
AcDbEntity
  8
Make2D$可见线$普通线
100
AcDbLine
 10
578.6807064562169
 20
984.5325770589336
 30
0.0
 11
577.7209152669992
 21
984.5325770589336
 31
0.0
  0
POLYLINE
  5
65
330
1F
100
AcDbEntity
  8
Make2D$可见线$普通线
100
AcDb2dPolyline
 66
     1
 10
0.0
 20
0.0
 30
0.0
  0
VERTEX
  5
66
330
65
100
AcDbEntity
  8
Make2D$可见线$普通线
100
AcDbVertex
100
AcDb2dVertex
 10
608.047225963795
 20
959.750645533272
 30
0.0
 42
-0.3628268635517503
  0
VERTEX
  5
67
330
65
100
AcDbEntity
  8
Make2D$可见线$普通线
100
AcDbVertex
100
AcDb2dVertex
 10
608.4620755938313
 20
959.2550586595507
 30
0.0
  0
VERTEX
  5
68
330
65
100
AcDbEntity
  8
Make2D$可见线$普通线
100
AcDbVertex
100
AcDb2dVertex
 10
608.4620755938313
 20
958.2449359770401
 30
0.0
 42
-0.3589818407699072
  0
VERTEX
  5
69
330
65
100
AcDbEntity
  8
Make2D$可见线$普通线
100
AcDbVertex
100
AcDb2dVertex
 10
608.0487538731425
 20
957.7489157880814
 30
0.0
  0
SEQEND
  5
6A
330
65
100
AcDbEntity
  8
Make2D$可见线$普通线
  0
LINE
  5
6B
330
1F
100
AcDbEntity
  8
Make2D$可见线$普通线
100
AcDbLine
 10
627.3141810966732
 20
959.7506455332722
 30
0.0
 11
627.3015957571037
 21
959.7482367443213
 31
0.0
  0
LINE
  5
6C
330
1F
100
AcDbEntity
  8
Make2D$可见线$普通线
100
AcDbLine
 10
607.3848089979119
 20
954.8879893454275
 30
0.0
 11
607.3676437584201
 21
954.8959774020312
 31
0.0
  0
ARC
  5
6D
330
1F
100
AcDbEntity
  8
Make2D$可见线$普通线
100
AcDbCircle
 10
607.1918796407533
 20
951.146419870675
 30
0.0
 40
0.4890322801060234
100
AcDbArc
 50
297.2497425636981
 51
69.64393437099014
  0
ARC
  5
6E
330
1F
100
AcDbEntity
  8
Make2D$可见线$普通线
100
AcDbCircle
 10
628.1698190738242
 20
953.611083706608
 30
0.0
 40
0.490909201403046
100
AcDbArc
 50
117.6647405264826
 51
250.3243959227657
  0
ARC
  5
6F
330
1F
100
AcDbEntity
  8
Make2D$可见线$普通线
100
AcDbCircle
 10
628.1669086211255
 20
951.9697350757631
 30
0.0
 40
0.4870743455471357
100
AcDbArc
 50
116.5464062278341
 51
250.696355854115
  0
ARC
  5
70
330
1F
100
AcDbEntity
  8
Make2D$可见线$普通线
100
AcDbCircle
 10
628.170889828517
 20
950.3243805092352
 30
0.0
 40
0.4909294527428302
100
AcDbArc
 50
117.5725706323197
 51
201.548938164959
  0
LINE
  5
71
330
1F
100
AcDbEntity
  8
Make2D$可见线$普通线
100
AcDbLine
 10
594.6736233762067
 20
975.6090110085845
 30
0.0
 11
594.6424584612142
 21
975.8957928470761
 31
0.0
  0
POLYLINE
  5
72
330
1F
100
AcDbEntity
  8
Make2D$可见线$普通线
100
AcDb2dPolyline
 66
     1
 10
0.0
 20
0.0
 30
0.0
  0
VERTEX
  5
73
330
72
100
AcDbEntity
  8
Make2D$可见线$普通线
100
AcDbVertex
100
AcDb2dVertex
 10
627.4027148632372
 20
959.7584420561508
 30
0.0
 42
0.413750551990302
  0
VERTEX
  5
74
330
72
100
AcDbEntity
  8
Make2D$可见线$普通线
100
AcDbVertex
100
AcDb2dVertex
 10
626.8993314666372
 20
959.2550586595509
 30
0.0
  0
VERTEX
  5
75
330
72
100
AcDbEntity
  8
Make2D$可见线$普通线
100
AcDbVertex
100
AcDb2dVertex
 10
626.8993314666371
 20
958.2449359770401
 30
0.0
 42
0.3589818412427754
  0
VERTEX
  5
76
330
72
100
AcDbEntity
  8
Make2D$可见线$普通线
100
AcDbVertex
100
AcDb2dVertex
 10
627.3126531881622
 20
957.7489157879243
 30
0.0
  0
SEQEND
  5
77
330
72
100
AcDbEntity
  8
Make2D$可见线$普通线
  0
POLYLINE
  5
78
330
1F
100
AcDbEntity
  8
Make2D$可见线$普通线
100
AcDb2dPolyline
 66
     1
 10
0.0
 20
0.0
 30
0.0
  0
VERTEX
  5
79
330
78
100
AcDbEntity
  8
Make2D$可见线$普通线
100
AcDbVertex
100
AcDb2dVertex
 10
607.4156318027394
 20
956.5137823790986
 30
0.0
 42
-0.0603655033581488
  0
VERTEX
  5
7A
330
78
100
AcDbEntity
  8
Make2D$可见线$普通线
100
AcDbVertex
100
AcDb2dVertex
 10
607.1363928014953
 20
956.5623785711851
 30
0.0
  0
VERTEX
  5
7B
330
78
100
AcDbEntity
  8
Make2D$可见线$普通线
100
AcDbVertex
100
AcDb2dVertex
 10
607.1347804219117
 20
956.5632001058929
 30
0.0
  0
VERTEX
  5
7C
330
78
100
AcDbEntity
  8
Make2D$可见线$普通线
100
AcDbVertex
100
AcDb2dVertex
 10
607.1332720221651
 20
956.5640215677456
 30
0.0
  0
VERTEX
  5
7D
330
78
100
AcDbEntity
  8
Make2D$可见线$普通线
100
AcDbVertex
100
AcDb2dVertex
 10
607.1318676084167
 20
956.5648429624143
 30
0.0
  0
VERTEX
  5
7E
330
78
100
AcDbEntity
  8
Make2D$可见线$普通线
100
AcDbVertex
100
AcDb2dVertex
 10
607.131204398217
 20
956.5652536363268
 30
0.0
  0
VERTEX
  5
7F
330
78
100
AcDbEntity
  8
Make2D$可见线$普通线
100
AcDbVertex
100
AcDb2dVertex
 10
607.1305671868274
 20
956.56566429557
 30
0.0
  0
VERTEX
  5
80
330
78
100
AcDbEntity
  8
Make2D$可见线$普通线
100
AcDbVertex
100
AcDb2dVertex
 10
607.1299559750179
 20
956.5660749408524
 30
0.0
  0
VERTEX
  5
81
330
78
100
AcDbEntity
  8
Make2D$可见线$普通线
100
AcDbVertex
100
AcDb2dVertex
 10
607.1293707635587
 20
956.5664855728833
 30
0.0
  0
VERTEX
  5
82
330
78
100
AcDbEntity
  8
Make2D$可见线$普通线
100
AcDbVertex
100
AcDb2dVertex
 10
607.12881155322
 20
956.5668961923714
 30
0.0
  0
VERTEX
  5
83
330
78
100
AcDbEntity
  8
Make2D$可见线$普通线
100
AcDbVertex
100
AcDb2dVertex
 10
607.128278344772
 20
956.5673068000253
 30
0.0
  0
VERTEX
  5
84
330
78
100
AcDbEntity
  8
Make2D$可见线$普通线
100
AcDbVertex
100
AcDb2dVertex
 10
607.1277711389847
 20
956.5677173965544
 30
0.0
  0
VERTEX
  5
85
330
78
100
AcDbEntity
  8
Make2D$可见线$普通线
100
AcDbVertex
100
AcDb2dVertex
 10
607.1272899366282
 20
956.5681279826671
 30
0.0
  0
VERTEX
  5
86
330
78
100
AcDbEntity
  8
Make2D$可见线$普通线
100
AcDbVertex
100
AcDb2dVertex
 10
607.1268347384728
 20
956.5685385590725
 30
0.0
  0
VERTEX
  5
87
330
78
100
AcDbEntity
  8
Make2D$可见线$普通线
100
AcDbVertex
100
AcDb2dVertex
 10
607.1264055452887
 20
956.5689491264794
 30
0.0
  0
VERTEX
  5
88
330
78
100
AcDbEntity
  8
Make2D$可见线$普通线
100
AcDbVertex
100
AcDb2dVertex
 10
607.1260023578459
 20
956.5693596855967
 30
0.0
  0
VERTEX
  5
89
330
78
100
AcDbEntity
  8
Make2D$可见线$普通线
100
AcDbVertex
100
AcDb2dVertex
 10
607.1256251769146
 20
956.5697702371332
 30
0.0
  0
VERTEX
  5
8A
330
78
100
AcDbEntity
  8
Make2D$可见线$普通线
100
AcDbVertex
100
AcDb2dVertex
 10
607.1254463391315
 20
956.5699755102802
 30
0.0
  0
VERTEX
  5
8B
330
78
100
AcDbEntity
  8
Make2D$可见线$普通线
100
AcDbVertex
100
AcDb2dVertex
 10
607.125274003265
 20
956.5701807817978
 30
0.0
  0
VERTEX
  5
8C
330
78
100
AcDbEntity
  8
Make2D$可见线$普通线
100
AcDbVertex
100
AcDb2dVertex
 10
607.1251081694115
 20
956.5703860517748
 30
0.0
  0
VERTEX
  5
8D
330
78
100
AcDbEntity
  8
Make2D$可见线$普通线
100
AcDbVertex
100
AcDb2dVertex
 10
607.1249488376673
 20
956.5705913202995
 30
0.0
  0
VERTEX
  5
8E
330
78
100
AcDbEntity
  8
Make2D$可见线$普通线
100
AcDbVertex
100
AcDb2dVertex
 10
607.1247960081286
 20
956.5707965874608
 30
0.0
  0
VERTEX
  5
8F
330
78
100
AcDbEntity
  8
Make2D$可见线$普通线
100
AcDbVertex
100
AcDb2dVertex
 10
607.1246496808916
 20
956.5710018533471
 30
0.0
  0
VERTEX
  5
90
330
78
100
AcDbEntity
  8
Make2D$可见线$普通线
100
AcDbVertex
100
AcDb2dVertex
 10
607.1245098560527
 20
956.5712071180469
 30
0.0
  0
VERTEX
  5
91
330
78
100
AcDbEntity
  8
Make2D$可见线$普通线
100
AcDbVertex
100
AcDb2dVertex
 10
607.1243765337081
 20
956.5714123816491
 30
0.0
  0
VERTEX
  5
92
330
78
100
AcDbEntity
  8
Make2D$可见线$普通线
100
AcDbVertex
100
AcDb2dVertex
 10
607.124249713954
 20
956.5716176442421
 30
0.0
  0
VERTEX
  5
93
330
78
100
AcDbEntity
  8
Make2D$可见线$普通线
100
AcDbVertex
100
AcDb2dVertex
 10
607.1241293968867
 20
956.5718229059148
 30
0.0
  0
VERTEX
  5
94
330
78
100
AcDbEntity
  8
Make2D$可见线$普通线
100
AcDbVertex
100
AcDb2dVertex
 10
607.1240155826026
 20
956.5720281667556
 30
0.0
  0
VERTEX
  5
95
330
78
100
AcDbEntity
  8
Make2D$可见线$普通线
100
AcDbVertex
100
AcDb2dVertex
 10
607.1239082711979
 20
956.572233426853
 30
0.0
  0
VERTEX
  5
96
330
78
100
AcDbEntity
  8
Make2D$可见线$普通线
100
AcDbVertex
100
AcDb2dVertex
 10
607.1238074627688
 20
956.5724386862958
 30
0.0
  0
VERTEX
  5
97
330
78
100
AcDbEntity
  8
Make2D$可见线$普通线
100
AcDbVertex
100
AcDb2dVertex
 10
607.1237131574117
 20
956.5726439451726
 30
0.0
  0
VERTEX
  5
98
330
78
100
AcDbEntity
  8
Make2D$可见线$普通线
100
AcDbVertex
100
AcDb2dVertex
 10
607.1236253552228
 20
956.5728492035719
 30
0.0
  0
VERTEX
  5
99
330
78
100
AcDbEntity
  8
Make2D$可见线$普通线
100
AcDbVertex
100
AcDb2dVertex
 10
607.1235440562983
 20
956.5730544615822
 30
0.0
  0
VERTEX
  5
9A
330
78
100
AcDbEntity
  8
Make2D$可见线$普通线
100
AcDbVertex
100
AcDb2dVertex
 10
607.1234692607346
 20
956.5732597192922
 30
0.0
  0
VERTEX
  5
9B
330
78
100
AcDbEntity
  8
Make2D$可见线$普通线
100
AcDbVertex
100
AcDb2dVertex
 10
607.123400968628
 20
956.5734649767907
 30
0.0
  0
VERTEX
  5
9C
330
78
100
AcDbEntity
  8
Make2D$可见线$普通线
100
AcDbVertex
100
AcDb2dVertex
 10
607.1233391800745
 20
956.5736702341662
 30
0.0
  0
VERTEX
  5
9D
330
78
100
AcDbEntity
  8
Make2D$可见线$普通线
100
AcDbVertex
100
AcDb2dVertex
 10
607.1232838951705
 20
956.5738754915072
 30
0.0
  0
VERTEX
  5
9E
330
78
100
AcDbEntity
  8
Make2D$可见线$普通线
100
AcDbVertex
100
AcDb2dVertex
 10
607.1232351140123
 20
956.5740807489026
 30
0.0
  0
VERTEX
  5
9F
330
78
100
AcDbEntity
  8
Make2D$可见线$普通线
100
AcDbVertex
100
AcDb2dVertex
 10
607.1231928366963
 20
956.5742860064406
 30
0.0
  0
VERTEX
  5
A0
330
78
100
AcDbEntity
  8
Make2D$可见线$普通线
100
AcDbVertex
100
AcDb2dVertex
 10
607.1231570633186
 20
956.5744912642101
 30
0.0
  0
VERTEX
  5
A1
330
78
100
AcDbEntity
  8
Make2D$可见线$普通线
100
AcDbVertex
100
AcDb2dVertex
 10
607.1231277939755
 20
956.5746965222995
 30
0.0
  0
VERTEX
  5
A2
330
78
100
AcDbEntity
  8
Make2D$可见线$普通线
100
AcDbVertex
100
AcDb2dVertex
 10
607.1231050287633
 20
956.5749017807975
 30
0.0
  0
VERTEX
  5
A3
330
78
100
AcDbEntity
  8
Make2D$可见线$普通线
100
AcDbVertex
100
AcDb2dVertex
 10
607.1230887677782
 20
956.5751070397929
 30
0.0
  0
VERTEX
  5
A4
330
78
100
AcDbEntity
  8
Make2D$可见线$普通线
100
AcDbVertex
100
AcDb2dVertex
 10
607.1230790111165
 20
956.5753122993741
 30
0.0
  0
VERTEX
  5
A5
330
78
100
AcDbEntity
  8
Make2D$可见线$普通线
100
AcDbVertex
100
AcDb2dVertex
 10
607.1230757588746
 20
956.5755175596298
 30
0.0
  0
VERTEX
  5
A6
330
78
100
AcDbEntity
  8
Make2D$可见线$普通线
100
AcDbVertex
100
AcDb2dVertex
 10
607.1230788326042
 20
956.5757171084946
 30
0.0
  0
VERTEX
  5
A7
330
78
100
AcDbEntity
  8
Make2D$可见线$普通线
100
AcDbVertex
100
AcDb2dVertex
 10
607.1230880535649
 20
956.5759166555581
 30
0.0
  0
VERTEX
  5
A8
330
78
100
AcDbEntity
  8
Make2D$可见线$普通线
100
AcDbVertex
100
AcDb2dVertex
 10
607.1231034214147
 20
956.576116200838
 30
0.0
  0
VERTEX
  5
A9
330
78
100
AcDbEntity
  8
Make2D$可见线$普通线
100
AcDbVertex
100
AcDb2dVertex
 10
607.1231249358116
 20
956.5763157443515
 30
0.0
  0
VERTEX
  5
AA
330
78
100
AcDbEntity
  8
Make2D$可见线$普通线
100
AcDbVertex
100
AcDb2dVertex
 10
607.1231525964133
 20
956.5765152861161
 30
0.0
  0
VERTEX
  5
AB
330
78
100
AcDbEntity
  8
Make2D$可见线$普通线
100
AcDbVertex
100
AcDb2dVertex
 10
607.1231864028782
 20
956.5767148261491
 30
0.0
  0
VERTEX
  5
AC
330
78
100
AcDbEntity
  8
Make2D$可见线$普通线
100
AcDbVertex
100
AcDb2dVertex
 10
607.1232263548638
 20
956.5769143644682
 30
0.0
  0
VERTEX
  5
AD
330
78
100
AcDbEntity
  8
Make2D$可见线$普通线
100
AcDbVertex
100
AcDb2dVertex
 10
607.1232724520286
 20
956.5771139010903
 30
0.0
  0
VERTEX
  5
AE
330
78
100
AcDbEntity
  8
Make2D$可见线$普通线
100
AcDbVertex
100
AcDb2dVertex
 10
607.1233246940301
 20
956.5773134360333
 30
0.0
  0
VERTEX
  5
AF
330
78
100
AcDbEntity
  8
Make2D$可见线$普通线
100
AcDbVertex
100
AcDb2dVertex
 10
607.1233830805264
 20
956.5775129693144
 30
0.0
  0
VERTEX
  5
B0
330
78
100
AcDbEntity
  8
Make2D$可见线$普通线
100
AcDbVertex
100
AcDb2dVertex
 10
607.1234476111755
 20
956.5777125009511
 30
0.0
  0
VERTEX
  5
B1
330
78
100
AcDbEntity
  8
Make2D$可见线$普通线
100
AcDbVertex
100
AcDb2dVertex
 10
607.1235182856353
 20
956.5779120309606
 30
0.0
  0
VERTEX
  5
B2
330
78
100
AcDbEntity
  8
Make2D$可见线$普通线
100
AcDbVertex
100
AcDb2dVertex
 10
607.1235951035637
 20
956.5781115593605
 30
0.0
  0
VERTEX
  5
B3
330
78
100
AcDbEntity
  8
Make2D$可见线$普通线
100
AcDbVertex
100
AcDb2dVertex
 10
607.123678064619
 20
956.5783110861682
 30
0.0
  0
VERTEX
  5
B4
330
78
100
AcDbEntity
  8
Make2D$可见线$普通线
100
AcDbVertex
100
AcDb2dVertex
 10
607.1237671684587
 20
956.578510611401
 30
0.0
  0
VERTEX
  5
B5
330
78
100
AcDbEntity
  8
Make2D$可见线$普通线
100
AcDbVertex
100
AcDb2dVertex
 10
607.1238624147411
 20
956.5787101350763
 30
0.0
  0
VERTEX
  5
B6
330
78
100
AcDbEntity
  8
Make2D$可见线$普通线
100
AcDbVertex
100
AcDb2dVertex
 10
607.123963803124
 20
956.5789096572116
 30
0.0
  0
VERTEX
  5
B7
330
78
100
AcDbEntity
  8
Make2D$可见线$普通线
100
AcDbVertex
100
AcDb2dVertex
 10
607.1240713332654
 20
956.5791091778244
 30
0.0
  0
VERTEX
  5
B8
330
78
100
AcDbEntity
  8
Make2D$可见线$普通线
100
AcDbVertex
100
AcDb2dVertex
 10
607.1241850048234
 20
956.5793086969318
 30
0.0
  0
VERTEX
  5
B9
330
78
100
AcDbEntity
  8
Make2D$可见线$普通线
100
AcDbVertex
100
AcDb2dVertex
 10
607.1243048174556
 20
956.5795082145514
 30
0.0
  0
VERTEX
  5
BA
330
78
100
AcDbEntity
  8
Make2D$可见线$普通线
100
AcDbVertex
100
AcDb2dVertex
 10
607.1244307708203
 20
956.5797077307006
 30
0.0
  0
VERTEX
  5
BB
330
78
100
AcDbEntity
  8
Make2D$可见线$普通线
100
AcDbVertex
100
AcDb2dVertex
 10
607.1245628645752
 20
956.579907245397
 30
0.0
  0
VERTEX
  5
BC
330
78
100
AcDbEntity
  8
Make2D$可见线$普通线
100
AcDbVertex
100
AcDb2dVertex
 10
607.1247010983785
 20
956.5801067586577
 30
0.0
  0
VERTEX
  5
BD
330
78
100
AcDbEntity
  8
Make2D$可见线$普通线
100
AcDbVertex
100
AcDb2dVertex
 10
607.1248454718881
 20
956.5803062705003
 30
0.0
  0
VERTEX
  5
BE
330
78
100
AcDbEntity
  8
Make2D$可见线$普通线
100
AcDbVertex
100
AcDb2dVertex
 10
607.1249959847619
 20
956.5805057809421
 30
0.0
  0
VERTEX
  5
BF
330
78
100
AcDbEntity
  8
Make2D$可见线$普通线
100
AcDbVertex
100
AcDb2dVertex
 10
607.125152636658
 20
956.5807052900005
 30
0.0
  0
VERTEX
  5
C0
330
78
100
AcDbEntity
  8
Make2D$可见线$普通线
100
AcDbVertex
100
AcDb2dVertex
 10
607.1253154272341
 20
956.580904797693
 30
0.0
  0
VERTEX
  5
C1
330
78
100
AcDbEntity
  8
Make2D$可见线$普通线
100
AcDbVertex
100
AcDb2dVertex
 10
607.1254843561483
 20
956.5811043040369
 30
0.0
  0
VERTEX
  5
C2
330
78
100
AcDbEntity
  8
Make2D$可见线$普通线
100
AcDbVertex
100
AcDb2dVertex
 10
607.1258406276229
 20
956.5815033127486
 30
0.0
  0
VERTEX
  5
C3
330
78
100
AcDbEntity
  8
Make2D$可见线$普通线
100
AcDbVertex
100
AcDb2dVertex
 10
607.1262214483454
 20
956.5819023162751
 30
0.0
  0
VERTEX
  5
C4
330
78
100
AcDbEntity
  8
Make2D$可见线$普通线
100
AcDbVertex
100
AcDb2dVertex
 10
607.1266268155796
 20
956.5823013147555
 30
0.0
  0
VERTEX
  5
C5
330
78
100
AcDbEntity
  8
Make2D$可见线$普通线
100
AcDbVertex
100
AcDb2dVertex
 10
607.127056726589
 20
956.5827003083292
 30
0.0
  0
VERTEX
  5
C6
330
78
100
AcDbEntity
  8
Make2D$可见线$普通线
100
AcDbVertex
100
AcDb2dVertex
 10
607.1275111786376
 20
956.5830992971354
 30
0.0
  0
VERTEX
  5
C7
330
78
100
AcDbEntity
  8
Make2D$可见线$普通线
100
AcDbVertex
100
AcDb2dVertex
 10
607.1279901689888
 20
956.5834982813134
 30
0.0
  0
VERTEX
  5
C8
330
78
100
AcDbEntity
  8
Make2D$可见线$普通线
100
AcDbVertex
100
AcDb2dVertex
 10
607.1284936949065
 20
956.5838972610024
 30
0.0
  0
VERTEX
  5
C9
330
78
100
AcDbEntity
  8
Make2D$可见线$普通线
100
AcDbVertex
100
AcDb2dVertex
 10
607.1290217536541
 20
956.5842962363415
 30
0.0
  0
VERTEX
  5
CA
330
78
100
AcDbEntity
  8
Make2D$可见线$普通线
100
AcDbVertex
100
AcDb2dVertex
 10
607.1295743424955
 20
956.5846952074703
 30
0.0
  0
VERTEX
  5
CB
330
78
100
AcDbEntity
  8
Make2D$可见线$普通线
100
AcDbVertex
100
AcDb2dVertex
 10
607.1301514586944
 20
956.585094174528
 30
0.0
  0
VERTEX
  5
CC
330
78
100
AcDbEntity
  8
Make2D$可见线$普通线
100
AcDbVertex
100
AcDb2dVertex
 10
607.1307530995144
 20
956.5854931376537
 30
0.0
  0
VERTEX
  5
CD
330
78
100
AcDbEntity
  8
Make2D$可见线$普通线
100
AcDbVertex
100
AcDb2dVertex
 10
607.1313792622193
 20
956.5858920969868
 30
0.0
  0
VERTEX
  5
CE
330
78
100
AcDbEntity
  8
Make2D$可见线$普通线
100
AcDbVertex
100
AcDb2dVertex
 10
607.132705142338
 20
956.5866900048318
 30
0.0
  0
VERTEX
  5
CF
330
78
100
AcDbEntity
  8
Make2D$可见线$普通线
100
AcDbVertex
100
AcDb2dVertex
 10
607.1341290771602
 20
956.5874878991774
 30
0.0
  0
VERTEX
  5
D0
330
78
100
AcDbEntity
  8
Make2D$可见线$普通线
100
AcDbVertex
100
AcDb2dVertex
 10
607.1356510447952
 20
956.5882857811375
 30
0.0
  0
VERTEX
  5
D1
330
78
100
AcDbEntity
  8
Make2D$可见线$普通线
100
AcDbVertex
100
AcDb2dVertex
 10
607.1372710233527
 20
956.5890836518263
 30
0.0
  0
VERTEX
  5
D2
330
78
100
AcDbEntity
  8
Make2D$可见线$普通线
100
AcDbVertex
100
AcDb2dVertex
 10
607.1389889909422
 20
956.5898815123578
 30
0.0
  0
VERTEX
  5
D3
330
78
100
AcDbEntity
  8
Make2D$可见线$普通线
100
AcDbVertex
100
AcDb2dVertex
 10
607.1408049256729
 20
956.5906793638462
 30
0.0
  0
VERTEX
  5
D4
330
78
100
AcDbEntity
  8
Make2D$可见线$普通线
100
AcDbVertex
100
AcDb2dVertex
 10
607.1427188056548
 20
956.5914772074055
 30
0.0
  0
VERTEX
  5
D5
330
78
100
AcDbEntity
  8
Make2D$可见线$普通线
100
AcDbVertex
100
AcDb2dVertex
 10
607.1468403138088
 20
956.5930728751935
 30
0.0
  0
VERTEX
  5
D6
330
78
100
AcDbEntity
  8
Make2D$可见线$普通线
100
AcDbVertex
100
AcDb2dVertex
 10
607.1513533402801
 20
956.5946685246342
 30
0.0
  0
VERTEX
  5
D7
330
78
100
AcDbEntity
  8
Make2D$可见线$普通线
100
AcDbVertex
100
AcDb2dVertex
 10
607.1562577099447
 20
956.5962641646408
 30
0.0
  0
VERTEX
  5
D8
330
78
100
AcDbEntity
  8
Make2D$可见线$普通线
100
AcDbVertex
100
AcDb2dVertex
 10
607.1615532476784
 20
956.5978598041258
 30
0.0
  0
VERTEX
  5
D9
330
78
100
AcDbEntity
  8
Make2D$可见线$普通线
100
AcDbVertex
100
AcDb2dVertex
 10
607.1733171268565
 20
956.6010511171826
 30
0.0
  0
VERTEX
  5
DA
330
78
100
AcDbEntity
  8
Make2D$可见线$普通线
100
AcDbVertex
100
AcDb2dVertex
 10
607.1866435768216
 20
956.6042425351064
 30
0.0
  0
VERTEX
  5
DB
330
78
100
AcDbEntity
  8
Make2D$可见线$普通线
100
AcDbVertex
100
AcDb2dVertex
 10
607.2015311965806
 20
956.6074341291995
 30
0.0
  0
VERTEX
  5
DC
330
78
100
AcDbEntity
  8
Make2D$可见线$普通线
100
AcDbVertex
100
AcDb2dVertex
 10
607.2359843415084
 20
956.6138181311023
 30
0.0
  0
VERTEX
  5
DD
330
78
100
AcDbEntity
  8
Make2D$可见线$普通线
100
AcDbVertex
100
AcDb2dVertex
 10
607.2766653536961
 20
956.6202036933082
 30
0.0
  0
VERTEX
  5
DE
330
78
100
AcDbEntity
  8
Make2D$可见线$普通线
100
AcDbVertex
100
AcDb2dVertex
 10
607.3235630252001
 20
956.6265913862342
 30
0.0
  0
VERTEX
  5
DF
330
78
100
AcDbEntity
  8
Make2D$可见线$普通线
100
AcDbVertex
100
AcDb2dVertex
 10
607.7269483634742
 20
956.6648616114746
 30
0.0
  0
VERTEX
  5
E0
330
78
100
AcDbEntity
  8
Make2D$可见线$普通线
100
AcDbVertex
100
AcDb2dVertex
 10
608.1313142102564
 20
956.6907962067216
 30
0.0
  0
VERTEX
  5
E1
330
78
100
AcDbEntity
  8
Make2D$可见线$普通线
100
AcDbVertex
100
AcDb2dVertex
 10
610.2153333398625
 20
956.7810054620579
 30
0.0
  0
VERTEX
  5
E2
330
78
100
AcDbEntity
  8
Make2D$可见线$普通线
100
AcDbVertex
100
AcDb2dVertex
 10
613.6292413988664
 20
956.8834611785561
 30
0.0
  0
VERTEX
  5
E3
330
78
100
AcDbEntity
  8
Make2D$可见线$普通线
100
AcDbVertex
100
AcDb2dVertex
 10
623.5360827393134
 20
957.1403490352276
 30
0.0
  0
VERTEX
  5
E4
330
78
100
AcDbEntity
  8
Make2D$可见线$普通线
100
AcDbVertex
100
AcDb2dVertex
 10
625.4951470104633
 20
957.2045478265386
 30
0.0
  0
VERTEX
  5
E5
330
78
100
AcDbEntity
  8
Make2D$可见线$普通线
100
AcDbVertex
100
AcDb2dVertex
 10
626.9857017872788
 20
957.2687970273406
 30
0.0
  0
VERTEX
  5
E6
330
78
100
AcDbEntity
  8
Make2D$可见线$普通线
100
AcDbVertex
100
AcDb2dVertex
 10
627.4527712732637
 20
957.295712566365
 30
0.0
  0
VERTEX
  5
E7
330
78
100
AcDbEntity
  8
Make2D$可见线$普通线
100
AcDbVertex
100
AcDb2dVertex
 10
627.9191273499247
 20
957.3330001077264
 30
0.0
  0
VERTEX
  5
E8
330
78
100
AcDbEntity
  8
Make2D$可见线$普通线
100
AcDbVertex
100
AcDb2dVertex
 10
628.0578676040714
 20
957.3490260717867
 30
0.0
  0
VERTEX
  5
E9
330
78
100
AcDbEntity
  8
Make2D$可见线$普通线
100
AcDbVertex
100
AcDb2dVertex
 10
628.1125729597975
 20
957.3570343479121
 30
0.0
  0
VERTEX
  5
EA
330
78
100
AcDbEntity
  8
Make2D$可见线$普通线
100
AcDbVertex
100
AcDb2dVertex
 10
628.1362471076161
 20
957.3610394138419
 30
0.0
  0
VERTEX
  5
EB
330
78
100
AcDbEntity
  8
Make2D$可见线$普通线
100
AcDbVertex
100
AcDb2dVertex
 10
628.1574642021827
 20
957.3650459000046
 30
0.0
  0
VERTEX
  5
EC
330
78
100
AcDbEntity
  8
Make2D$可见线$普通线
100
AcDbVertex
100
AcDb2dVertex
 10
628.1762207185812
 20
957.369054407641
 30
0.0
  0
VERTEX
  5
ED
330
78
100
AcDbEntity
  8
Make2D$可见线$普通线
100
AcDbVertex
100
AcDb2dVertex
 10
628.184675158431
 20
957.3710596073995
 30
0.0
  0
VERTEX
  5
EE
330
78
100
AcDbEntity
  8
Make2D$可见线$普通线
100
AcDbVertex
100
AcDb2dVertex
 10
628.192513131895
 20
957.373065537992
 30
0.0
  0
VERTEX
  5
EF
330
78
100
AcDbEntity
  8
Make2D$可见线$普通线
100
AcDbVertex
100
AcDb2dVertex
 10
628.1997341983587
 20
957.3750722745734
 30
0.0
  0
VERTEX
  5
F0
330
78
100
AcDbEntity
  8
Make2D$可见线$普通线
100
AcDbVertex
100
AcDb2dVertex
 10
628.2063379172074
 20
957.377079892299
 30
0.0
  0
VERTEX
  5
F1
330
78
100
AcDbEntity
  8
Make2D$可见线$普通线
100
AcDbVertex
100
AcDb2dVertex
 10
628.2123238478268
 20
957.3790884663235
 30
0.0
  0
VERTEX
  5
F2
330
78
100
AcDbEntity
  8
Make2D$可见线$普通线
100
AcDbVertex
100
AcDb2dVertex
 10
628.2150850048583
 20
957.380093135434
 30
0.0
  0
VERTEX
  5
F3
330
78
100
AcDbEntity
  8
Make2D$可见线$普通线
100
AcDbVertex
100
AcDb2dVertex
 10
628.2176915496021
 20
957.3810980718024
 30
0.0
  0
VERTEX
  5
F4
330
78
100
AcDbEntity
  8
Make2D$可见线$普通线
100
AcDbVertex
100
AcDb2dVertex
 10
628.2201434269812
 20
957.3821032848231
 30
0.0
  0
VERTEX
  5
F5
330
78
100
AcDbEntity
  8
Make2D$可见线$普通线
100
AcDbVertex
100
AcDb2dVertex
 10
628.2224405819188
 20
957.3831087838906
 30
0.0
  0
VERTEX
  5
F6
330
78
100
AcDbEntity
  8
Make2D$可见线$普通线
100
AcDbVertex
100
AcDb2dVertex
 10
628.2245829593381
 20
957.3841145783994
 30
0.0
  0
VERTEX
  5
F7
330
78
100
AcDbEntity
  8
Make2D$可见线$普通线
100
AcDbVertex
100
AcDb2dVertex
 10
628.2265705041625
 20
957.3851206777435
 30
0.0
  0
VERTEX
  5
F8
330
78
100
AcDbEntity
  8
Make2D$可见线$普通线
100
AcDbVertex
100
AcDb2dVertex
 10
628.22750619714
 20
957.3856238446647
 30
0.0
  0
VERTEX
  5
F9
330
78
100
AcDbEntity
  8
Make2D$可见线$普通线
100
AcDbVertex
100
AcDb2dVertex
 10
628.2284031613149
 20
957.3861270913177
 30
0.0
  0
VERTEX
  5
FA
330
78
100
AcDbEntity
  8
Make2D$可见线$普通线
100
AcDbVertex
100
AcDb2dVertex
 10
628.2292613898026
 20
957.3866304188767
 30
0.0
  0
VERTEX
  5
FB
330
78
100
AcDbEntity
  8
Make2D$可见线$普通线
100
AcDbVertex
100
AcDb2dVertex
 10
628.2300808757185
 20
957.3871338285162
 30
0.0
  0
VERTEX
  5
FC
330
78
100
AcDbEntity
  8
Make2D$可见线$普通线
100
AcDbVertex
100
AcDb2dVertex
 10
628.2308616121782
 20
957.3876373214102
 30
0.0
  0
VERTEX
  5
FD
330
78
100
AcDbEntity
  8
Make2D$可见线$普通线
100
AcDbVertex
100
AcDb2dVertex
 10
628.2316035922967
 20
957.3881408987332
 30
0.0
  0
VERTEX
  5
FE
330
78
100
AcDbEntity
  8
Make2D$可见线$普通线
100
AcDbVertex
100
AcDb2dVertex
 10
628.2323068091896
 20
957.3886445616595
 30
0.0
  0
VERTEX
  5
FF
330
78
100
AcDbEntity
  8
Make2D$可见线$普通线
100
AcDbVertex
100
AcDb2dVertex
 10
628.2329712559723
 20
957.3891483113634
 30
0.0
  0
VERTEX
  5
100
330
78
100
AcDbEntity
  8
Make2D$可见线$普通线
100
AcDbVertex
100
AcDb2dVertex
 10
628.2335969257604
 20
957.3896521490192
 30
0.0
  0
VERTEX
  5
101
330
78
100
AcDbEntity
  8
Make2D$可见线$普通线
100
AcDbVertex
100
AcDb2dVertex
 10
628.2341838116688
 20
957.3901560758011
 30
0.0
  0
VERTEX
  5
102
330
78
100
AcDbEntity
  8
Make2D$可见线$普通线
100
AcDbVertex
100
AcDb2dVertex
 10
628.2344627085168
 20
957.3904080729814
 30
0.0
  0
VERTEX
  5
103
330
78
100
AcDbEntity
  8
Make2D$可见线$普通线
100
AcDbVertex
100
AcDb2dVertex
 10
628.2347319068133
 20
957.3906600928835
 30
0.0
  0
VERTEX
  5
104
330
78
100
AcDbEntity
  8
Make2D$可见线$普通线
100
AcDbVertex
100
AcDb2dVertex
 10
628.2349914056977
 20
957.3909121356544
 30
0.0
  0
VERTEX
  5
105
330
78
100
AcDbEntity
  8
Make2D$可见线$普通线
100
AcDbVertex
100
AcDb2dVertex
 10
628.2352412043092
 20
957.3911642014407
 30
0.0
  0
VERTEX
  5
106
330
78
100
AcDbEntity
  8
Make2D$可见线$普通线
100
AcDbVertex
100
AcDb2dVertex
 10
628.2354813017874
 20
957.3914162903893
 30
0.0
  0
VERTEX
  5
107
330
78
100
AcDbEntity
  8
Make2D$可见线$普通线
100
AcDbVertex
100
AcDb2dVertex
 10
628.2357116972719
 20
957.3916684026469
 30
0.0
  0
VERTEX
  5
108
330
78
100
AcDbEntity
  8
Make2D$可见线$普通线
100
AcDbVertex
100
AcDb2dVertex
 10
628.2359323899019
 20
957.3919205383604
 30
0.0
  0
VERTEX
  5
109
330
78
100
AcDbEntity
  8
Make2D$可见线$普通线
100
AcDbVertex
100
AcDb2dVertex
 10
628.2361433788168
 20
957.3921726976764
 30
0.0
  0
VERTEX
  5
10A
330
78
100
AcDbEntity
  8
Make2D$可见线$普通线
100
AcDbVertex
100
AcDb2dVertex
 10
628.2363446631562
 20
957.392424880742
 30
0.0
  0
VERTEX
  5
10B
330
78
100
AcDbEntity
  8
Make2D$可见线$普通线
100
AcDbVertex
100
AcDb2dVertex
 10
628.2365362420592
 20
957.3926770877038
 30
0.0
  0
VERTEX
  5
10C
330
78
100
AcDbEntity
  8
Make2D$可见线$普通线
100
AcDbVertex
100
AcDb2dVertex
 10
628.2367181146657
 20
957.3929293187084
 30
0.0
  0
VERTEX
  5
10D
330
78
100
AcDbEntity
  8
Make2D$可见线$普通线
100
AcDbVertex
100
AcDb2dVertex
 10
628.2368902801147
 20
957.3931815739029
 30
0.0
  0
VERTEX
  5
10E
330
78
100
AcDbEntity
  8
Make2D$可见线$普通线
100
AcDbVertex
100
AcDb2dVertex
 10
628.2370527375458
 20
957.393433853434
 30
0.0
  0
VERTEX
  5
10F
330
78
100
AcDbEntity
  8
Make2D$可见线$普通线
100
AcDbVertex
100
AcDb2dVertex
 10
628.2372054860984
 20
957.3936861574483
 30
0.0
  0
VERTEX
  5
110
330
78
100
AcDbEntity
  8
Make2D$可见线$普通线
100
AcDbVertex
100
AcDb2dVertex
 10
628.237348524912
 20
957.3939384860929
 30
0.0
  0
VERTEX
  5
111
330
78
100
AcDbEntity
  8
Make2D$可见线$普通线
100
AcDbVertex
100
AcDb2dVertex
 10
628.2374818531262
 20
957.3941908395143
 30
0.0
  0
VERTEX
  5
112
330
78
100
AcDbEntity
  8
Make2D$可见线$普通线
100
AcDbVertex
100
AcDb2dVertex
 10
628.2376054698799
 20
957.3944432178596
 30
0.0
  0
VERTEX
  5
113
330
78
100
AcDbEntity
  8
Make2D$可见线$普通线
100
AcDbVertex
100
AcDb2dVertex
 10
628.2377193743129
 20
957.3946956212752
 30
0.0
  0
VERTEX
  5
114
330
78
100
AcDbEntity
  8
Make2D$可见线$普通线
100
AcDbVertex
100
AcDb2dVertex
 10
628.2378235655646
 20
957.3949480499082
 30
0.0
  0
VERTEX
  5
115
330
78
100
AcDbEntity
  8
Make2D$可见线$普通线
100
AcDbVertex
100
AcDb2dVertex
 10
628.2379180427743
 20
957.3952005039052
 30
0.0
  0
VERTEX
  5
116
330
78
100
AcDbEntity
  8
Make2D$可见线$普通线
100
AcDbVertex
100
AcDb2dVertex
 10
628.2380028050814
 20
957.3954529834132
 30
0.0
  0
VERTEX
  5
117
330
78
100
AcDbEntity
  8
Make2D$可见线$普通线
100
AcDbVertex
100
AcDb2dVertex
 10
628.2380778516256
 20
957.3957054885788
 30
0.0
  0
VERTEX
  5
118
330
78
100
AcDbEntity
  8
Make2D$可见线$普通线
100
AcDbVertex
100
AcDb2dVertex
 10
628.2381431815461
 20
957.3959580195487
 30
0.0
  0
VERTEX
  5
119
330
78
100
AcDbEntity
  8
Make2D$可见线$普通线
100
AcDbVertex
100
AcDb2dVertex
 10
628.2381987939823
 20
957.39621057647
 30
0.0
  0
VERTEX
  5
11A
330
78
100
AcDbEntity
  8
Make2D$可见线$普通线
100
AcDbVertex
100
AcDb2dVertex
 10
628.2382446880738
 20
957.3964631594893
 30
0.0
  0
VERTEX
  5
11B
330
78
100
AcDbEntity
  8
Make2D$可见线$普通线
100
AcDbVertex
100
AcDb2dVertex
 10
628.2382808629598
 20
957.3967157687532
 30
0.0
  0
VERTEX
  5
11C
330
78
100
AcDbEntity
  8
Make2D$可见线$普通线
100
AcDbVertex
100
AcDb2dVertex
 10
628.2383073177798
 20
957.3969684044089
 30
0.0
  0
VERTEX
  5
11D
330
78
100
AcDbEntity
  8
Make2D$可见线$普通线
100
AcDbVertex
100
AcDb2dVertex
 10
628.2383240516734
 20
957.3972210666029
 30
0.0
  0
SEQEND
  5
11E
330
78
100
AcDbEntity
  8
Make2D$可见线$普通线
  0
ARC
  5
11F
330
1F
100
AcDbEntity
  8
Make2D$可见线$普通线
100
AcDbCircle
 10
627.9747863861812
 20
950.9477588973743
 30
0.0
 40
0.5866639358443797
100
AcDbArc
 50
63.30593996192608
 51
92.87921463599534
  0
POLYLINE
  5
120
330
1F
100
AcDbEntity
  8
Make2D$可见线$普通线
100
AcDb2dPolyline
 66
     1
 10
0.0
 20
0.0
 30
0.0
  0
VERTEX
  5
121
330
120
100
AcDbEntity
  8
Make2D$可见线$普通线
100
AcDbVertex
100
AcDb2dVertex
 10
607.4178786729003
 20
952.3551769032148
 30
0.0
 42
0.6302411241708608
  0
VERTEX
  5
122
330
120
100
AcDbEntity
  8
Make2D$可见线$普通线
100
AcDbVertex
100
AcDb2dVertex
 10
607.3903134336161
 20
953.2327284332844
 30
0.0
  0
VERTEX
  5
123
330
120
100
AcDbEntity
  8
Make2D$可见线$普通线
100
AcDbVertex
100
AcDb2dVertex
 10
607.3280637590541
 20
953.2387050133628
 30
0.0
  0
VERTEX
  5
124
330
120
100
AcDbEntity
  8
Make2D$可见线$普通线
100
AcDbVertex
100
AcDb2dVertex
 10
607.2740363972844
 20
953.2450130747317
 30
0.0
  0
VERTEX
  5
125
330
120
100
AcDbEntity
  8
Make2D$可见线$普通线
100
AcDbVertex
100
AcDb2dVertex
 10
607.2282410306974
 20
953.2516061624849
 30
0.0
  0
VERTEX
  5
126
330
120
100
AcDbEntity
  8
Make2D$可见线$普通线
100
AcDbVertex
100
AcDb2dVertex
 10
607.2084333713444
 20
953.2549950740977
 30
0.0
  0
VERTEX
  5
127
330
120
100
AcDbEntity
  8
Make2D$可见线$普通线
100
AcDbVertex
100
AcDb2dVertex
 10
607.1906873416838
 20
953.2584378217168
 30
0.0
  0
VERTEX
  5
128
330
120
100
AcDbEntity
  8
Make2D$可见线$普通线
100
AcDbVertex
100
AcDb2dVertex
 10
607.1750041520141
 20
953.2619285984791
 30
0.0
  0
VERTEX
  5
129
330
120
100
AcDbEntity
  8
Make2D$可见线$普通线
100
AcDbVertex
100
AcDb2dVertex
 10
607.1679365003943
 20
953.2636901831443
 30
0.0
  0
VERTEX
  5
12A
330
120
100
AcDbEntity
  8
Make2D$可见线$普通线
100
AcDbVertex
100
AcDb2dVertex
 10
607.1613850126344
 20
953.2654615975216
 30
0.0
  0
VERTEX
  5
12B
330
120
100
AcDbEntity
  8
Make2D$可见线$普通线
100
AcDbVertex
100
AcDb2dVertex
 10
607.1553498400216
 20
953.2672421157531
 30
0.0
  0
VERTEX
  5
12C
330
120
100
AcDbEntity
  8
Make2D$可见线$普通线
100
AcDbVertex
100
AcDb2dVertex
 10
607.1498311338432
 20
953.2690310119809
 30
0.0
  0
VERTEX
  5
12D
330
120
100
AcDbEntity
  8
Make2D$可见线$普通线
100
AcDbVertex
100
AcDb2dVertex
 10
607.1448290453868
 20
953.2708275603471
 30
0.0
  0
VERTEX
  5
12E
330
120
100
AcDbEntity
  8
Make2D$可见线$普通线
100
AcDbVertex
100
AcDb2dVertex
 10
607.1425217800816
 20
953.2717284772516
 30
0.0
  0
VERTEX
  5
12F
330
120
100
AcDbEntity
  8
Make2D$可见线$普通线
100
AcDbVertex
100
AcDb2dVertex
 10
607.1403437259396
 20
953.2726310349938
 30
0.0
  0
VERTEX
  5
130
330
120
100
AcDbEntity
  8
Make2D$可见线$普通线
100
AcDbVertex
100
AcDb2dVertex
 10
607.1382949018717
 20
953.2735351428416
 30
0.0
  0
VERTEX
  5
131
330
120
100
AcDbEntity
  8
Make2D$可见线$普通线
100
AcDbVertex
100
AcDb2dVertex
 10
607.1363753267889
 20
953.274440710063
 30
0.0
  0
VERTEX
  5
132
330
120
100
AcDbEntity
  8
Make2D$可见线$普通线
100
AcDbVertex
100
AcDb2dVertex
 10
607.1345850196021
 20
953.2753476459254
 30
0.0
  0
VERTEX
  5
133
330
120
100
AcDbEntity
  8
Make2D$可见线$普通线
100
AcDbVertex
100
AcDb2dVertex
 10
607.1329239992222
 20
953.2762558596969
 30
0.0
  0
VERTEX
  5
134
330
120
100
AcDbEntity
  8
Make2D$可见线$普通线
100
AcDbVertex
100
AcDb2dVertex
 10
607.1321419774945
 20
953.2767104174447
 30
0.0
  0
VERTEX
  5
135
330
120
100
AcDbEntity
  8
Make2D$可见线$普通线
100
AcDbVertex
100
AcDb2dVertex
 10
607.13139228456
 20
953.2771652606451
 30
0.0
  0
VERTEX
  5
136
330
120
100
AcDbEntity
  8
Make2D$可见线$普通线
100
AcDbVertex
100
AcDb2dVertex
 10
607.1306749227829
 20
953.2776203779565
 30
0.0
  0
VERTEX
  5
137
330
120
100
AcDbEntity
  8
Make2D$可见线$普通线
100
AcDbVertex
100
AcDb2dVertex
 10
607.1299898945267
 20
953.2780757580376
 30
0.0
  0
VERTEX
  5
138
330
120
100
AcDbEntity
  8
Make2D$可见线$普通线
100
AcDbVertex
100
AcDb2dVertex
 10
607.1293372021555
 20
953.2785313895467
 30
0.0
  0
VERTEX
  5
139
330
120
100
AcDbEntity
  8
Make2D$可见线$普通线
100
AcDbVertex
100
AcDb2dVertex
 10
607.128716848033
 20
953.2789872611424
 30
0.0
  0
VERTEX
  5
13A
330
120
100
AcDbEntity
  8
Make2D$可见线$普通线
100
AcDbVertex
100
AcDb2dVertex
 10
607.1281288345232
 20
953.2794433614831
 30
0.0
  0
VERTEX
  5
13B
330
120
100
AcDbEntity
  8
Make2D$可见线$普通线
100
AcDbVertex
100
AcDb2dVertex
 10
607.1275731639898
 20
953.2798996792271
 30
0.0
  0
VERTEX
  5
13C
330
120
100
AcDbEntity
  8
Make2D$可见线$普通线
100
AcDbVertex
100
AcDb2dVertex
 10
607.1270498387969
 20
953.2803562030331
 30
0.0
  0
VERTEX
  5
13D
330
120
100
AcDbEntity
  8
Make2D$可见线$普通线
100
AcDbVertex
100
AcDb2dVertex
 10
607.1265588613082
 20
953.2808129215596
 30
0.0
  0
VERTEX
  5
13E
330
120
100
AcDbEntity
  8
Make2D$可见线$普通线
100
AcDbVertex
100
AcDb2dVertex
 10
607.1263255036918
 20
953.2810413502987
 30
0.0
  0
VERTEX
  5
13F
330
120
100
AcDbEntity
  8
Make2D$可见线$普通线
100
AcDbVertex
100
AcDb2dVertex
 10
607.1261002338877
 20
953.281269823465
 30
0.0
  0
VERTEX
  5
140
330
120
100
AcDbEntity
  8
Make2D$可见线$普通线
100
AcDbVertex
100
AcDb2dVertex
 10
607.1258830521916
 20
953.2814983396404
 30
0.0
  0
VERTEX
  5
141
330
120
100
AcDbEntity
  8
Make2D$可见线$普通线
100
AcDbVertex
100
AcDb2dVertex
 10
607.125673958899
 20
953.2817268974077
 30
0.0
  0
VERTEX
  5
142
330
120
100
AcDbEntity
  8
Make2D$可见线$普通线
100
AcDbVertex
100
AcDb2dVertex
 10
607.1254729543055
 20
953.2819554953489
 30
0.0
  0
VERTEX
  5
143
330
120
100
AcDbEntity
  8
Make2D$可见线$普通线
100
AcDbVertex
100
AcDb2dVertex
 10
607.1252800387063
 20
953.2821841320463
 30
0.0
  0
VERTEX
  5
144
330
120
100
AcDbEntity
  8
Make2D$可见线$普通线
100
AcDbVertex
100
AcDb2dVertex
 10
607.1250952123969
 20
953.2824128060821
 30
0.0
  0
VERTEX
  5
145
330
120
100
AcDbEntity
  8
Make2D$可见线$普通线
100
AcDbVertex
100
AcDb2dVertex
 10
607.1249184756731
 20
953.282641516039
 30
0.0
  0
VERTEX
  5
146
330
120
100
AcDbEntity
  8
Make2D$可见线$普通线
100
AcDbVertex
100
AcDb2dVertex
 10
607.1247498288301
 20
953.2828702604991
 30
0.0
  0
VERTEX
  5
147
330
120
100
AcDbEntity
  8
Make2D$可见线$普通线
100
AcDbVertex
100
AcDb2dVertex
 10
607.1245892721636
 20
953.2830990380446
 30
0.0
  0
VERTEX
  5
148
330
120
100
AcDbEntity
  8
Make2D$可见线$普通线
100
AcDbVertex
100
AcDb2dVertex
 10
607.1244368059688
 20
953.283327847258
 30
0.0
  0
VERTEX
  5
149
330
120
100
AcDbEntity
  8
Make2D$可见线$普通线
100
AcDbVertex
100
AcDb2dVertex
 10
607.1242924305416
 20
953.2835566867213
 30
0.0
  0
VERTEX
  5
14A
330
120
100
AcDbEntity
  8
Make2D$可见线$普通线
100
AcDbVertex
100
AcDb2dVertex
 10
607.124156146177
 20
953.2837855550172
 30
0.0
  0
VERTEX
  5
14B
330
120
100
AcDbEntity
  8
Make2D$可见线$普通线
100
AcDbVertex
100
AcDb2dVertex
 10
607.1240279531708
 20
953.2840144507277
 30
0.0
  0
VERTEX
  5
14C
330
120
100
AcDbEntity
  8
Make2D$可见线$普通线
100
AcDbVertex
100
AcDb2dVertex
 10
607.1239078518183
 20
953.2842433724354
 30
0.0
  0
VERTEX
  5
14D
330
120
100
AcDbEntity
  8
Make2D$可见线$普通线
100
AcDbVertex
100
AcDb2dVertex
 10
607.1237958424151
 20
953.2844723187225
 30
0.0
  0
VERTEX
  5
14E
330
120
100
AcDbEntity
  8
Make2D$可见线$普通线
100
AcDbVertex
100
AcDb2dVertex
 10
607.1236919252567
 20
953.284701288171
 30
0.0
  0
VERTEX
  5
14F
330
120
100
AcDbEntity
  8
Make2D$可见线$普通线
100
AcDbVertex
100
AcDb2dVertex
 10
607.1235961006385
 20
953.2849302793637
 30
0.0
  0
VERTEX
  5
150
330
120
100
AcDbEntity
  8
Make2D$可见线$普通线
100
AcDbVertex
100
AcDb2dVertex
 10
607.1235083688559
 20
953.2851592908826
 30
0.0
  0
VERTEX
  5
151
330
120
100
AcDbEntity
  8
Make2D$可见线$普通线
100
AcDbVertex
100
AcDb2dVertex
 10
607.1234287302048
 20
953.2853883213102
 30
0.0
  0
VERTEX
  5
152
330
120
100
AcDbEntity
  8
Make2D$可见线$普通线
100
AcDbVertex
100
AcDb2dVertex
 10
607.1233571849803
 20
953.2856173692287
 30
0.0
  0
VERTEX
  5
153
330
120
100
AcDbEntity
  8
Make2D$可见线$普通线
100
AcDbVertex
100
AcDb2dVertex
 10
607.1232937334778
 20
953.2858464332203
 30
0.0
  0
VERTEX
  5
154
330
120
100
AcDbEntity
  8
Make2D$可见线$普通线
100
AcDbVertex
100
AcDb2dVertex
 10
607.123238375993
 20
953.2860755118674
 30
0.0
  0
VERTEX
  5
155
330
120
100
AcDbEntity
  8
Make2D$可见线$普通线
100
AcDbVertex
100
AcDb2dVertex
 10
607.1231911128215
 20
953.2863046037523
 30
0.0
  0
VERTEX
  5
156
330
120
100
AcDbEntity
  8
Make2D$可见线$普通线
100
AcDbVertex
100
AcDb2dVertex
 10
607.1231519442584
 20
953.2865337074575
 30
0.0
  0
VERTEX
  5
157
330
120
100
AcDbEntity
  8
Make2D$可见线$普通线
100
AcDbVertex
100
AcDb2dVertex
 10
607.1231208705996
 20
953.2867628215649
 30
0.0
  0
VERTEX
  5
158
330
120
100
AcDbEntity
  8
Make2D$可见线$普通线
100
AcDbVertex
100
AcDb2dVertex
 10
607.1230978921403
 20
953.2869919446571
 30
0.0
  0
VERTEX
  5
159
330
120
100
AcDbEntity
  8
Make2D$可见线$普通线
100
AcDbVertex
100
AcDb2dVertex
 10
607.1230830091761
 20
953.2872210753164
 30
0.0
  0
VERTEX
  5
15A
330
120
100
AcDbEntity
  8
Make2D$可见线$普通线
100
AcDbVertex
100
AcDb2dVertex
 10
607.1230775714505
 20
953.2873743988023
 30
0.0
  0
VERTEX
  5
15B
330
120
100
AcDbEntity
  8
Make2D$可见线$普通线
100
AcDbVertex
100
AcDb2dVertex
 10
607.1230757588747
 20
953.287527720046
 30
0.0
  0
VERTEX
  5
15C
330
120
100
AcDbEntity
  8
Make2D$可见线$普通线
100
AcDbVertex
100
AcDb2dVertex
 10
607.1230793357984
 20
953.2877431017602
 30
0.0
  0
VERTEX
  5
15D
330
120
100
AcDbEntity
  8
Make2D$可见线$普通线
100
AcDbVertex
100
AcDb2dVertex
 10
607.123090066212
 20
953.2879584779184
 30
0.0
  0
VERTEX
  5
15E
330
120
100
AcDbEntity
  8
Make2D$可见线$普通线
100
AcDbVertex
100
AcDb2dVertex
 10
607.1231079495795
 20
953.2881738485592
 30
0.0
  0
VERTEX
  5
15F
330
120
100
AcDbEntity
  8
Make2D$可见线$普通线
100
AcDbVertex
100
AcDb2dVertex
 10
607.1231329853648
 20
953.2883892137203
 30
0.0
  0
VERTEX
  5
160
330
120
100
AcDbEntity
  8
Make2D$可见线$普通线
100
AcDbVertex
100
AcDb2dVertex
 10
607.1231651730317
 20
953.2886045734401
 30
0.0
  0
VERTEX
  5
161
330
120
100
AcDbEntity
  8
Make2D$可见线$普通线
100
AcDbVertex
100
AcDb2dVertex
 10
607.123204512044
 20
953.2888199277567
 30
0.0
  0
VERTEX
  5
162
330
120
100
AcDbEntity
  8
Make2D$可见线$普通线
100
AcDbVertex
100
AcDb2dVertex
 10
607.1232510018658
 20
953.2890352767082
 30
0.0
  0
VERTEX
  5
163
330
120
100
AcDbEntity
  8
Make2D$可见线$普通线
100
AcDbVertex
100
AcDb2dVertex
 10
607.1233046419607
 20
953.289250620333
 30
0.0
  0
VERTEX
  5
164
330
120
100
AcDbEntity
  8
Make2D$可见线$普通线
100
AcDbVertex
100
AcDb2dVertex
 10
607.1233654317928
 20
953.2894659586689
 30
0.0
  0
VERTEX
  5
165
330
120
100
AcDbEntity
  8
Make2D$可见线$普通线
100
AcDbVertex
100
AcDb2dVertex
 10
607.1234333708258
 20
953.2896812917543
 30
0.0
  0
VERTEX
  5
166
330
120
100
AcDbEntity
  8
Make2D$可见线$普通线
100
AcDbVertex
100
AcDb2dVertex
 10
607.1235084585237
 20
953.2898966196271
 30
0.0
  0
VERTEX
  5
167
330
120
100
AcDbEntity
  8
Make2D$可见线$普通线
100
AcDbVertex
100
AcDb2dVertex
 10
607.1235906943502
 20
953.2901119423258
 30
0.0
  0
VERTEX
  5
168
330
120
100
AcDbEntity
  8
Make2D$可见线$普通线
100
AcDbVertex
100
AcDb2dVertex
 10
607.1236800777694
 20
953.2903272598883
 30
0.0
  0
VERTEX
  5
169
330
120
100
AcDbEntity
  8
Make2D$可见线$普通线
100
AcDbVertex
100
AcDb2dVertex
 10
607.1237766082451
 20
953.2905425723527
 30
0.0
  0
VERTEX
  5
16A
330
120
100
AcDbEntity
  8
Make2D$可见线$普通线
100
AcDbVertex
100
AcDb2dVertex
 10
607.1238802852412
 20
953.2907578797574
 30
0.0
  0
VERTEX
  5
16B
330
120
100
AcDbEntity
  8
Make2D$可见线$普通线
100
AcDbVertex
100
AcDb2dVertex
 10
607.1239911082214
 20
953.2909731821405
 30
0.0
  0
VERTEX
  5
16C
330
120
100
AcDbEntity
  8
Make2D$可见线$普通线
100
AcDbVertex
100
AcDb2dVertex
 10
607.1241090766498
 20
953.2911884795399
 30
0.0
  0
VERTEX
  5
16D
330
120
100
AcDbEntity
  8
Make2D$可见线$普通线
100
AcDbVertex
100
AcDb2dVertex
 10
607.1242341899903
 20
953.291403771994
 30
0.0
  0
VERTEX
  5
16E
330
120
100
AcDbEntity
  8
Make2D$可见线$普通线
100
AcDbVertex
100
AcDb2dVertex
 10
607.1243664477065
 20
953.2916190595411
 30
0.0
  0
VERTEX
  5
16F
330
120
100
AcDbEntity
  8
Make2D$可见线$普通线
100
AcDbVertex
100
AcDb2dVertex
 10
607.1245058492625
 20
953.2918343422187
 30
0.0
  0
VERTEX
  5
170
330
120
100
AcDbEntity
  8
Make2D$可见线$普通线
100
AcDbVertex
100
AcDb2dVertex
 10
607.1246523941222
 20
953.2920496200657
 30
0.0
  0
VERTEX
  5
171
330
120
100
AcDbEntity
  8
Make2D$可见线$普通线
100
AcDbVertex
100
AcDb2dVertex
 10
607.1248060817493
 20
953.2922648931196
 30
0.0
  0
VERTEX
  5
172
330
120
100
AcDbEntity
  8
Make2D$可见线$普通线
100
AcDbVertex
100
AcDb2dVertex
 10
607.1249669116078
 20
953.2924801614192
 30
0.0
  0
VERTEX
  5
173
330
120
100
AcDbEntity
  8
Make2D$可见线$普通线
100
AcDbVertex
100
AcDb2dVertex
 10
607.1251348831614
 20
953.2926954250021
 30
0.0
  0
VERTEX
  5
174
330
120
100
AcDbEntity
  8
Make2D$可见线$普通线
100
AcDbVertex
100
AcDb2dVertex
 10
607.1253099958742
 20
953.2929106839069
 30
0.0
  0
VERTEX
  5
175
330
120
100
AcDbEntity
  8
Make2D$可见线$普通线
100
AcDbVertex
100
AcDb2dVertex
 10
607.1254922492101
 20
953.2931259381714
 30
0.0
  0
VERTEX
  5
176
330
120
100
AcDbEntity
  8
Make2D$可见线$普通线
100
AcDbVertex
100
AcDb2dVertex
 10
607.1256816426328
 20
953.2933411878339
 30
0.0
  0
VERTEX
  5
177
330
120
100
AcDbEntity
  8
Make2D$可见线$普通线
100
AcDbVertex
100
AcDb2dVertex
 10
607.1258781756062
 20
953.2935564329325
 30
0.0
  0
VERTEX
  5
178
330
120
100
AcDbEntity
  8
Make2D$可见线$普通线
100
AcDbVertex
100
AcDb2dVertex
 10
607.1262926580607
 20
953.2939869095907
 30
0.0
  0
VERTEX
  5
179
330
120
100
AcDbEntity
  8
Make2D$可见线$普通线
100
AcDbVertex
100
AcDb2dVertex
 10
607.1267356922849
 20
953.2944173684513
 30
0.0
  0
VERTEX
  5
17A
330
120
100
AcDbEntity
  8
Make2D$可见线$普通线
100
AcDbVertex
100
AcDb2dVertex
 10
607.1272072739896
 20
953.2948478098194
 30
0.0
  0
VERTEX
  5
17B
330
120
100
AcDbEntity
  8
Make2D$可见线$普通线
100
AcDbVertex
100
AcDb2dVertex
 10
607.1277073988856
 20
953.2952782340004
 30
0.0
  0
VERTEX
  5
17C
330
120
100
AcDbEntity
  8
Make2D$可见线$普通线
100
AcDbVertex
100
AcDb2dVertex
 10
607.1282360626842
 20
953.2957086412994
 30
0.0
  0
VERTEX
  5
17D
330
120
100
AcDbEntity
  8
Make2D$可见线$普通线
100
AcDbVertex
100
AcDb2dVertex
 10
607.1287932610962
 20
953.2961390320215
 30
0.0
  0
VERTEX
  5
17E
330
120
100
AcDbEntity
  8
Make2D$可见线$普通线
100
AcDbVertex
100
AcDb2dVertex
 10
607.1293789898327
 20
953.2965694064721
 30
0.0
  0
VERTEX
  5
17F
330
120
100
AcDbEntity
  8
Make2D$可见线$普通线
100
AcDbVertex
100
AcDb2dVertex
 10
607.1299932446047
 20
953.2969997649562
 30
0.0
  0
VERTEX
  5
180
330
120
100
AcDbEntity
  8
Make2D$可见线$普通线
100
AcDbVertex
100
AcDb2dVertex
 10
607.1306360211233
 20
953.2974301077793
 30
0.0
  0
VERTEX
  5
181
330
120
100
AcDbEntity
  8
Make2D$可见线$普通线
100
AcDbVertex
100
AcDb2dVertex
 10
607.1313073150995
 20
953.2978604352463
 30
0.0
  0
VERTEX
  5
182
330
120
100
AcDbEntity
  8
Make2D$可见线$普通线
100
AcDbVertex
100
AcDb2dVertex
 10
607.1320071222442
 20
953.2982907476627
 30
0.0
  0
VERTEX
  5
183
330
120
100
AcDbEntity
  8
Make2D$可见线$普通线
100
AcDbVertex
100
AcDb2dVertex
 10
607.1327354382684
 20
953.2987210453334
 30
0.0
  0
VERTEX
  5
184
330
120
100
AcDbEntity
  8
Make2D$可见线$普通线
100
AcDbVertex
100
AcDb2dVertex
 10
607.1342775797993
 20
953.2995815976592
 30
0.0
  0
VERTEX
  5
185
330
120
100
AcDbEntity
  8
Make2D$可见线$普通线
100
AcDbVertex
100
AcDb2dVertex
 10
607.1359337053805
 20
953.3004420946654
 30
0.0
  0
VERTEX
  5
186
330
120
100
AcDbEntity
  8
Make2D$可见线$普通线
100
AcDbVertex
100
AcDb2dVertex
 10
607.1377037807
 20
953.3013025387936
 30
0.0
  0
VERTEX
  5
187
330
120
100
AcDbEntity
  8
Make2D$可见线$普通线
100
AcDbVertex
100
AcDb2dVertex
 10
607.1395877714458
 20
953.3021629324855
 30
0.0
  0
VERTEX
  5
188
330
120
100
AcDbEntity
  8
Make2D$可见线$普通线
100
AcDbVertex
100
AcDb2dVertex
 10
607.1415856433057
 20
953.303023278183
 30
0.0
  0
VERTEX
  5
189
330
120
100
AcDbEntity
  8
Make2D$可见线$普通线
100
AcDbVertex
100
AcDb2dVertex
 10
607.1436973619682
 20
953.3038835783276
 30
0.0
  0
VERTEX
  5
18A
330
120
100
AcDbEntity
  8
Make2D$可见线$普通线
100
AcDbVertex
100
AcDb2dVertex
 10
607.1459228931209
 20
953.304743835361
 30
0.0
  0
VERTEX
  5
18B
330
120
100
AcDbEntity
  8
Make2D$可见线$普通线
100
AcDbVertex
100
AcDb2dVertex
 10
607.1507152556497
 20
953.3064642298609
 30
0.0
  0
VERTEX
  5
18C
330
120
100
AcDbEntity
  8
Make2D$可见线$普通线
100
AcDbVertex
100
AcDb2dVertex
 10
607.1559624563967
 20
953.3081844812161
 30
0.0
  0
VERTEX
  5
18D
330
120
100
AcDbEntity
  8
Make2D$可见线$普通线
100
AcDbVertex
100
AcDb2dVertex
 10
607.161664220866
 20
953.3099046089603
 30
0.0
  0
VERTEX
  5
18E
330
120
100
AcDbEntity
  8
Make2D$可见线$普通线
100
AcDbVertex
100
AcDb2dVertex
 10
607.167820274562
 20
953.3116246326272
 30
0.0
  0
VERTEX
  5
18F
330
120
100
AcDbEntity
  8
Make2D$可见线$普通线
100
AcDbVertex
100
AcDb2dVertex
 10
607.1814941516515
 20
953.3150644458619
 30
0.0
  0
VERTEX
  5
190
330
120
100
AcDbEntity
  8
Make2D$可见线$普通线
100
AcDbVertex
100
AcDb2dVertex
 10
607.1969818916998
 20
953.3185040771883
 30
0.0
  0
VERTEX
  5
191
330
120
100
AcDbEntity
  8
Make2D$可见线$普通线
100
AcDbVertex
100
AcDb2dVertex
 10
607.2142812987413
 20
953.3219436828742
 30
0.0
  0
VERTEX
  5
192
330
120
100
AcDbEntity
  8
Make2D$可见线$普通线
100
AcDbVertex
100
AcDb2dVertex
 10
607.2543063299426
 20
953.3288234423959
 30
0.0
  0
VERTEX
  5
193
330
120
100
AcDbEntity
  8
Make2D$可见线$普通线
100
AcDbVertex
100
AcDb2dVertex
 10
607.3015516775322
 20
953.3357049745703
 30
0.0
  0
VERTEX
  5
194
330
120
100
AcDbEntity
  8
Make2D$可见线$普通线
100
AcDbVertex
100
AcDb2dVertex
 10
607.3559997737865
 20
953.3425895295403
 30
0.0
  0
SEQEND
  5
195
330
120
100
AcDbEntity
  8
Make2D$可见线$普通线
  0
POLYLINE
  5
196
330
1F
100
AcDbEntity
  8
Make2D$可见线$普通线
100
AcDb2dPolyline
 66
     1
 10
0.0
 20
0.0
 30
0.0
  0
VERTEX
  5
197
330
196
100
AcDbEntity
  8
Make2D$可见线$普通线
100
AcDbVertex
100
AcDb2dVertex
 10
606.5832556843072
 20
959.7584420561507
 30
0.0
 42
-0.4156102170539577
  0
VERTEX
  5
198
330
196
100
AcDbEntity
  8
Make2D$可见线$普通线
100
AcDbVertex
100
AcDb2dVertex
 10
605.5860664770178
 20
960.7584420561507
 30
0.0
  0
VERTEX
  5
199
330
196
100
AcDbEntity
  8
Make2D$可见线$普通线
100
AcDbVertex
100
AcDb2dVertex
 10
605.5894343438997
 20
971.5325770589335
 30
0.0
  0
SEQEND
  5
19A
330
196
100
AcDbEntity
  8
Make2D$可见线$普通线
  0
POLYLINE
  5
19B
330
1F
100
AcDbEntity
  8
Make2D$可见线$普通线
100
AcDb2dPolyline
 66
     1
 10
0.0
 20
0.0
 30
0.0
  0
VERTEX
  5
19C
330
19B
100
AcDbEntity
  8
Make2D$可见线$普通线
100
AcDbVertex
100
AcDb2dVertex
 10
606.6310802402501
 20
959.7584420561508
 30
0.0
  0
VERTEX
  5
19D
330
19B
100
AcDbEntity
  8
Make2D$可见线$普通线
100
AcDbVertex
100
AcDb2dVertex
 10
628.7675549828236
 20
959.7584420561508
 30
0.0
 42
0.4154057909348808
  0
VERTEX
  5
19E
330
19B
100
AcDbEntity
  8
Make2D$可见线$普通线
100
AcDbVertex
100
AcDb2dVertex
 10
629.7720511072383
 20
960.7584420561509
 30
0.0
  0
VERTEX
  5
19F
330
19B
100
AcDbEntity
  8
Make2D$可见线$普通线
100
AcDbVertex
100
AcDb2dVertex
 10
629.7719727165685
 20
971.5325770589336
 30
0.0
  0
SEQEND
  5
1A0
330
19B
100
AcDbEntity
  8
Make2D$可见线$普通线
  0
POLYLINE
  5
1A1
330
1F
100
AcDbEntity
  8
Make2D$可见线$普通线
100
AcDb2dPolyline
 66
     1
 10
0.0
 20
0.0
 30
0.0
  0
VERTEX
  5
1A2
330
1A1
100
AcDbEntity
  8
Make2D$可见线$普通线
100
AcDbVertex
100
AcDb2dVertex
 10
627.9251388826611
 20
956.3400191336628
 30
0.0
  0
VERTEX
  5
1A3
330
1A1
100
AcDbEntity
  8
Make2D$可见线$普通线
100
AcDbVertex
100
AcDb2dVertex
 10
627.4616175097066
 20
956.3026027596762
 30
0.0
  0
VERTEX
  5
1A4
330
1A1
100
AcDbEntity
  8
Make2D$可见线$普通线
100
AcDbVertex
100
AcDb2dVertex
 10
626.9973660143716
 20
956.27572158955
 30
0.0
  0
VERTEX
  5
1A5
330
1A1
100
AcDbEntity
  8
Make2D$可见线$普通线
100
AcDbVertex
100
AcDb2dVertex
 10
625.1460737206058
 20
956.1984111670132
 30
0.0
  0
VERTEX
  5
1A6
330
1A1
100
AcDbEntity
  8
Make2D$可见线$普通线
100
AcDbVertex
100
AcDb2dVertex
 10
621.2490924978031
 20
956.0831121732347
 30
0.0
  0
VERTEX
  5
1A7
330
1A1
100
AcDbEntity
  8
Make2D$可见线$普通线
100
AcDbVertex
100
AcDb2dVertex
 10
613.6521024217443
 20
955.8904620750257
 30
0.0
  0
VERTEX
  5
1A8
330
1A1
100
AcDbEntity
  8
Make2D$可见线$普通线
100
AcDbVertex
100
AcDb2dVertex
 10
610.2153333398625
 20
955.7874069658458
 30
0.0
  0
VERTEX
  5
1A9
330
1A1
100
AcDbEntity
  8
Make2D$可见线$普通线
100
AcDbVertex
100
AcDb2dVertex
 10
608.141893375136
 20
955.6977893125638
 30
0.0
  0
VERTEX
  5
1AA
330
1A1
100
AcDbEntity
  8
Make2D$可见线$普通线
100
AcDbVertex
100
AcDb2dVertex
 10
607.7346594252105
 20
955.6718001353896
 30
0.0
  0
VERTEX
  5
1AB
330
1A1
100
AcDbEntity
  8
Make2D$可见线$普通线
100
AcDbVertex
100
AcDb2dVertex
 10
607.3283909398818
 20
955.6335791315969
 30
0.0
  0
VERTEX
  5
1AC
330
1A1
100
AcDbEntity
  8
Make2D$可见线$普通线
100
AcDbVertex
100
AcDb2dVertex
 10
607.2803661856772
 20
955.6271151565452
 30
0.0
  0
VERTEX
  5
1AD
330
1A1
100
AcDbEntity
  8
Make2D$可见线$普通线
100
AcDbVertex
100
AcDb2dVertex
 10
607.2387065966964
 20
955.6206549722119
 30
0.0
  0
VERTEX
  5
1AE
330
1A1
100
AcDbEntity
  8
Make2D$可见线$普通线
100
AcDbVertex
100
AcDb2dVertex
 10
607.2034239269819
 20
955.6141971769038
 30
0.0
  0
VERTEX
  5
1AF
330
1A1
100
AcDbEntity
  8
Make2D$可见线$普通线
100
AcDbVertex
100
AcDb2dVertex
 10
607.1881776099875
 20
955.6109687371047
 30
0.0
  0
VERTEX
  5
1B0
330
1A1
100
AcDbEntity
  8
Make2D$可见线$普通线
100
AcDbVertex
100
AcDb2dVertex
 10
607.1745299305755
 20
955.6077403689269
 30
0.0
  0
VERTEX
  5
1B1
330
1A1
100
AcDbEntity
  8
Make2D$可见线$普通线
100
AcDbVertex
100
AcDb2dVertex
 10
607.1624823580012
 20
955.6045118971585
 30
0.0
  0
VERTEX
  5
1B2
330
1A1
100
AcDbEntity
  8
Make2D$可见线$普通线
100
AcDbVertex
100
AcDb2dVertex
 10
607.1570590709205
 20
955.6028975676743
 30
0.0
  0
VERTEX
  5
1B3
330
1A1
100
AcDbEntity
  8
Make2D$可见线$普通线
100
AcDbVertex
100
AcDb2dVertex
 10
607.1520363615195
 20
955.601283146588
 30
0.0
  0
VERTEX
  5
1B4
330
1A1
100
AcDbEntity
  8
Make2D$可见线$普通线
100
AcDbVertex
100
AcDb2dVertex
 10
607.147414413456
 20
955.5996686119983
 30
0.0
  0
VERTEX
  5
1B5
330
1A1
100
AcDbEntity
  8
Make2D$可见线$普通线
100
AcDbVertex
100
AcDb2dVertex
 10
607.1431934103862
 20
955.5980539420036
 30
0.0
  0
VERTEX
  5
1B6
330
1A1
100
AcDbEntity
  8
Make2D$可见线$普通线
100
AcDbVertex
100
AcDb2dVertex
 10
607.1412333206168
 20
955.5972465493852
 30
0.0
  0
VERTEX
  5
1B7
330
1A1
100
AcDbEntity
  8
Make2D$可见线$普通线
100
AcDbVertex
100
AcDb2dVertex
 10
607.1393735359673
 20
955.5964391147025
 30
0.0
  0
VERTEX
  5
1B8
330
1A1
100
AcDbEntity
  8
Make2D$可见线$普通线
100
AcDbVertex
100
AcDb2dVertex
 10
607.1376140793948
 20
955.595631635218
 30
0.0
  0
VERTEX
  5
1B9
330
1A1
100
AcDbEntity
  8
Make2D$可见线$普通线
100
AcDbVertex
100
AcDb2dVertex
 10
607.1359549738561
 20
955.5948241081937
 30
0.0
  0
VERTEX
  5
1BA
330
1A1
100
AcDbEntity
  8
Make2D$可见线$普通线
100
AcDbVertex
100
AcDb2dVertex
 10
607.1343962423086
 20
955.5940165308921
 30
0.0
  0
VERTEX
  5
1BB
330
1A1
100
AcDbEntity
  8
Make2D$可见线$普通线
100
AcDbVertex
100
AcDb2dVertex
 10
607.1329379077094
 20
955.5932089005755
 30
0.0
  0
VERTEX
  5
1BC
330
1A1
100
AcDbEntity
  8
Make2D$可见线$普通线
100
AcDbVertex
100
AcDb2dVertex
 10
607.1315799930157
 20
955.5924012145061
 30
0.0
  0
VERTEX
  5
1BD
330
1A1
100
AcDbEntity
  8
Make2D$可见线$普通线
100
AcDbVertex
100
AcDb2dVertex
 10
607.1309387003075
 20
955.5919973497087
 30
0.0
  0
VERTEX
  5
1BE
330
1A1
100
AcDbEntity
  8
Make2D$可见线$普通线
100
AcDbVertex
100
AcDb2dVertex
 10
607.1303225211846
 20
955.5915934699465
 30
0.0
  0
VERTEX
  5
1BF
330
1A1
100
AcDbEntity
  8
Make2D$可见线$普通线
100
AcDbVertex
100
AcDb2dVertex
 10
607.1297314585166
 20
955.5911895748773
 30
0.0
  0
VERTEX
  5
1C0
330
1A1
100
AcDbEntity
  8
Make2D$可见线$普通线
100
AcDbVertex
100
AcDb2dVertex
 10
607.1291655151731
 20
955.5907856641588
 30
0.0
  0
VERTEX
  5
1C1
330
1A1
100
AcDbEntity
  8
Make2D$可见线$普通线
100
AcDbVertex
100
AcDb2dVertex
 10
607.1286246940238
 20
955.5903817374488
 30
0.0
  0
VERTEX
  5
1C2
330
1A1
100
AcDbEntity
  8
Make2D$可见线$普通线
100
AcDbVertex
100
AcDb2dVertex
 10
607.1281089979382
 20
955.5899777944053
 30
0.0
  0
VERTEX
  5
1C3
330
1A1
100
AcDbEntity
  8
Make2D$可见线$普通线
100
AcDbVertex
100
AcDb2dVertex
 10
607.127618429786
 20
955.5895738346858
 30
0.0
  0
VERTEX
  5
1C4
330
1A1
100
AcDbEntity
  8
Make2D$可见线$普通线
100
AcDbVertex
100
AcDb2dVertex
 10
607.1271529924371
 20
955.5891698579484
 30
0.0
  0
VERTEX
  5
1C5
330
1A1
100
AcDbEntity
  8
Make2D$可见线$普通线
100
AcDbVertex
100
AcDb2dVertex
 10
607.1267126887609
 20
955.5887658638507
 30
0.0
  0
VERTEX
  5
1C6
330
1A1
100
AcDbEntity
  8
Make2D$可见线$普通线
100
AcDbVertex
100
AcDb2dVertex
 10
607.1262975216271
 20
955.5883618520504
 30
0.0
  0
VERTEX
  5
1C7
330
1A1
100
AcDbEntity
  8
Make2D$可见线$普通线
100
AcDbVertex
100
AcDb2dVertex
 10
607.1259074939053
 20
955.5879578222055
 30
0.0
  0
VERTEX
  5
1C8
330
1A1
100
AcDbEntity
  8
Make2D$可见线$普通线
100
AcDbVertex
100
AcDb2dVertex
 10
607.125542608465
 20
955.5875537739737
 30
0.0
  0
VERTEX
  5
1C9
330
1A1
100
AcDbEntity
  8
Make2D$可见线$普通线
100
AcDbVertex
100
AcDb2dVertex
 10
607.1253695949973
 20
955.5873517428557
 30
0.0
  0
VERTEX
  5
1CA
330
1A1
100
AcDbEntity
  8
Make2D$可见线$普通线
100
AcDbVertex
100
AcDb2dVertex
 10
607.1252028681762
 20
955.5871497070127
 30
0.0
  0
VERTEX
  5
1CB
330
1A1
100
AcDbEntity
  8
Make2D$可见线$普通线
100
AcDbVertex
100
AcDb2dVertex
 10
607.1250424283603
 20
955.5869476664018
 30
0.0
  0
VERTEX
  5
1CC
330
1A1
100
AcDbEntity
  8
Make2D$可见线$普通线
100
AcDbVertex
100
AcDb2dVertex
 10
607.1248882759082
 20
955.5867456209803
 30
0.0
  0
VERTEX
  5
1CD
330
1A1
100
AcDbEntity
  8
Make2D$可见线$普通线
100
AcDbVertex
100
AcDb2dVertex
 10
607.1247404111789
 20
955.5865435707055
 30
0.0
  0
VERTEX
  5
1CE
330
1A1
100
AcDbEntity
  8
Make2D$可见线$普通线
100
AcDbVertex
100
AcDb2dVertex
 10
607.124598834531
 20
955.5863415155345
 30
0.0
  0
VERTEX
  5
1CF
330
1A1
100
AcDbEntity
  8
Make2D$可见线$普通线
100
AcDbVertex
100
AcDb2dVertex
 10
607.1244635463229
 20
955.5861394554246
 30
0.0
  0
VERTEX
  5
1D0
330
1A1
100
AcDbEntity
  8
Make2D$可见线$普通线
100
AcDbVertex
100
AcDb2dVertex
 10
607.1243345469138
 20
955.5859373903329
 30
0.0
  0
VERTEX
  5
1D1
330
1A1
100
AcDbEntity
  8
Make2D$可见线$普通线
100
AcDbVertex
100
AcDb2dVertex
 10
607.124211836662
 20
955.5857353202168
 30
0.0
  0
VERTEX
  5
1D2
330
1A1
100
AcDbEntity
  8
Make2D$可见线$普通线
100
AcDbVertex
100
AcDb2dVertex
 10
607.1240954159264
 20
955.5855332450333
 30
0.0
  0
VERTEX
  5
1D3
330
1A1
100
AcDbEntity
  8
Make2D$可见线$普通线
100
AcDbVertex
100
AcDb2dVertex
 10
607.1239852850658
 20
955.58533116474
 30
0.0
  0
VERTEX
  5
1D4
330
1A1
100
AcDbEntity
  8
Make2D$可见线$普通线
100
AcDbVertex
100
AcDb2dVertex
 10
607.1238814444387
 20
955.5851290792937
 30
0.0
  0
VERTEX
  5
1D5
330
1A1
100
AcDbEntity
  8
Make2D$可见线$普通线
100
AcDbVertex
100
AcDb2dVertex
 10
607.1237838944039
 20
955.5849269886518
 30
0.0
  0
VERTEX
  5
1D6
330
1A1
100
AcDbEntity
  8
Make2D$可见线$普通线
100
AcDbVertex
100
AcDb2dVertex
 10
607.1236926353199
 20
955.5847248927715
 30
0.0
  0
VERTEX
  5
1D7
330
1A1
100
AcDbEntity
  8
Make2D$可见线$普通线
100
AcDbVertex
100
AcDb2dVertex
 10
607.1236076675459
 20
955.5845227916102
 30
0.0
  0
VERTEX
  5
1D8
330
1A1
100
AcDbEntity
  8
Make2D$可见线$普通线
100
AcDbVertex
100
AcDb2dVertex
 10
607.12352899144
 20
955.584320685125
 30
0.0
  0
VERTEX
  5
1D9
330
1A1
100
AcDbEntity
  8
Make2D$可见线$普通线
100
AcDbVertex
100
AcDb2dVertex
 10
607.1234566073614
 20
955.5841185732731
 30
0.0
  0
VERTEX
  5
1DA
330
1A1
100
AcDbEntity
  8
Make2D$可见线$普通线
100
AcDbVertex
100
AcDb2dVertex
 10
607.1233905156686
 20
955.5839164560116
 30
0.0
  0
VERTEX
  5
1DB
330
1A1
100
AcDbEntity
  8
Make2D$可见线$普通线
100
AcDbVertex
100
AcDb2dVertex
 10
607.1233307167203
 20
955.5837143332978
 30
0.0
  0
VERTEX
  5
1DC
330
1A1
100
AcDbEntity
  8
Make2D$可见线$普通线
100
AcDbVertex
100
AcDb2dVertex
 10
607.1232772108751
 20
955.583512205089
 30
0.0
  0
VERTEX
  5
1DD
330
1A1
100
AcDbEntity
  8
Make2D$可见线$普通线
100
AcDbVertex
100
AcDb2dVertex
 10
607.123229998492
 20
955.5833100713425
 30
0.0
  0
VERTEX
  5
1DE
330
1A1
100
AcDbEntity
  8
Make2D$可见线$普通线
100
AcDbVertex
100
AcDb2dVertex
 10
607.1231890799294
 20
955.5831079320153
 30
0.0
  0
VERTEX
  5
1DF
330
1A1
100
AcDbEntity
  8
Make2D$可见线$普通线
100
AcDbVertex
100
AcDb2dVertex
 10
607.1231544555462
 20
955.5829057870649
 30
0.0
  0
VERTEX
  5
1E0
330
1A1
100
AcDbEntity
  8
Make2D$可见线$普通线
100
AcDbVertex
100
AcDb2dVertex
 10
607.123126125701
 20
955.5827036364483
 30
0.0
  0
VERTEX
  5
1E1
330
1A1
100
AcDbEntity
  8
Make2D$可见线$普通线
100
AcDbVertex
100
AcDb2dVertex
 10
607.1231040907525
 20
955.5825014801227
 30
0.0
  0
VERTEX
  5
1E2
330
1A1
100
AcDbEntity
  8
Make2D$可见线$普通线
100
AcDbVertex
100
AcDb2dVertex
 10
607.1230883510596
 20
955.5822993180454
 30
0.0
  0
VERTEX
  5
1E3
330
1A1
100
AcDbEntity
  8
Make2D$可见线$普通线
100
AcDbVertex
100
AcDb2dVertex
 10
607.1230789069807
 20
955.5820971501738
 30
0.0
  0
VERTEX
  5
1E4
330
1A1
100
AcDbEntity
  8
Make2D$可见线$普通线
100
AcDbVertex
100
AcDb2dVertex
 10
607.1230757588746
 20
955.5818949764648
 30
0.0
  0
VERTEX
  5
1E5
330
1A1
100
AcDbEntity
  8
Make2D$可见线$普通线
100
AcDbVertex
100
AcDb2dVertex
 10
607.1230757588747
 20
954.9314972357498
 30
0.0
  0
SEQEND
  5
1E6
330
1A1
100
AcDbEntity
  8
Make2D$可见线$普通线
  0
POLYLINE
  5
1E7
330
1F
100
AcDbEntity
  8
Make2D$可见线$普通线
100
AcDb2dPolyline
 66
     1
 10
0.0
 20
0.0
 30
0.0
  0
VERTEX
  5
1E8
330
1E7
100
AcDbEntity
  8
Make2D$可见线$普通线
100
AcDbVertex
100
AcDb2dVertex
 10
607.4203834225742
 20
951.5812721925124
 30
0.0
  0
VERTEX
  5
1E9
330
1E7
100
AcDbEntity
  8
Make2D$可见线$普通线
100
AcDbVertex
100
AcDb2dVertex
 10
607.175163295722
 20
951.6175126457837
 30
0.0
 42
-0.2356274959081999
  0
VERTEX
  5
1EA
330
1E7
100
AcDbEntity
  8
Make2D$可见线$普通线
100
AcDbVertex
100
AcDb2dVertex
 10
607.1230757588747
 20
951.6435054662174
 30
0.0
 42
-0.1889798313054797
  0
VERTEX
  5
1EB
330
1E7
100
AcDbEntity
  8
Make2D$可见线$普通线
100
AcDbVertex
100
AcDb2dVertex
 10
607.2355042012522
 20
951.6817318038846
 30
0.0
  0
VERTEX
  5
1EC
330
1E7
100
AcDbEntity
  8
Make2D$可见线$普通线
100
AcDbVertex
100
AcDb2dVertex
 10
607.4065638378356
 20
951.7033792716181
 30
0.0
  0
VERTEX
  5
1ED
330
1E7
100
AcDbEntity
  8
Make2D$可见线$普通线
100
AcDbVertex
100
AcDb2dVertex
 10
607.5780939745547
 20
951.721308449714
 30
0.0
  0
VERTEX
  5
1EE
330
1E7
100
AcDbEntity
  8
Make2D$可见线$普通线
100
AcDbVertex
100
AcDb2dVertex
 10
607.7499732389762
 20
951.7355053173286
 30
0.0
  0
VERTEX
  5
1EF
330
1E7
100
AcDbEntity
  8
Make2D$可见线$普通线
100
AcDbVertex
100
AcDb2dVertex
 10
609.1932047361985
 20
951.81016822596
 30
0.0
  0
VERTEX
  5
1F0
330
1E7
100
AcDbEntity
  8
Make2D$可见线$普通线
100
AcDbVertex
100
AcDb2dVertex
 10
610.9737079094406
 20
951.8744035218651
 30
0.0
  0
VERTEX
  5
1F1
330
1E7
100
AcDbEntity
  8
Make2D$可见线$普通线
100
AcDbVertex
100
AcDb2dVertex
 10
615.6085573141962
 20
952.0028297053825
 30
0.0
  0
VERTEX
  5
1F2
330
1E7
100
AcDbEntity
  8
Make2D$可见线$普通线
100
AcDbVertex
100
AcDb2dVertex
 10
623.097579085659
 20
952.1954954488392
 30
0.0
  0
VERTEX
  5
1F3
330
1E7
100
AcDbEntity
  8
Make2D$可见线$普通线
100
AcDbVertex
100
AcDb2dVertex
 10
625.1460737206058
 20
952.2600277242401
 30
0.0
  0
VERTEX
  5
1F4
330
1E7
100
AcDbEntity
  8
Make2D$可见线$普通线
100
AcDbVertex
100
AcDb2dVertex
 10
626.7299745931724
 20
952.32394172602
 30
0.0
  0
VERTEX
  5
1F5
330
1E7
100
AcDbEntity
  8
Make2D$可见线$普通线
100
AcDbVertex
100
AcDb2dVertex
 10
627.7800702120711
 20
952.3881508474354
 30
0.0
 42
0.0564179540710516
  0
VERTEX
  5
1F6
330
1E7
100
AcDbEntity
  8
Make2D$可见线$普通线
100
AcDbVertex
100
AcDb2dVertex
 10
628.2250142590123
 20
952.4523785879364
 30
0.0
  0
VERTEX
  5
1F7
330
1E7
100
AcDbEntity
  8
Make2D$可见线$普通线
100
AcDbVertex
100
AcDb2dVertex
 10
628.2383313015936
 20
952.4655175724637
 30
0.0
  0
VERTEX
  5
1F8
330
1E7
100
AcDbEntity
  8
Make2D$可见线$普通线
100
AcDbVertex
100
AcDb2dVertex
 10
628.2383313015936
 20
953.1158975338855
 30
0.0
  0
SEQEND
  5
1F9
330
1E7
100
AcDbEntity
  8
Make2D$可见线$普通线
  0
POLYLINE
  5
1FA
330
1F
100
AcDbEntity
  8
Make2D$可见线$普通线
100
AcDb2dPolyline
 66
     1
 10
0.0
 20
0.0
 30
0.0
  0
VERTEX
  5
1FB
330
1FA
100
AcDbEntity
  8
Make2D$可见线$普通线
100
AcDbVertex
100
AcDb2dVertex
 10
628.2383313015936
 20
954.7599069580308
 30
0.0
  0
VERTEX
  5
1FC
330
1FA
100
AcDbEntity
  8
Make2D$可见线$普通线
100
AcDbVertex
100
AcDb2dVertex
 10
628.2383313015936
 20
954.1095158673088
 30
0.0
  0
VERTEX
  5
1FD
330
1FA
100
AcDbEntity
  8
Make2D$可见线$普通线
100
AcDbVertex
100
AcDb2dVertex
 10
628.2383281529955
 20
954.109313652936
 30
0.0
  0
VERTEX
  5
1FE
330
1FA
100
AcDbEntity
  8
Make2D$可见线$普通线
100
AcDbVertex
100
AcDb2dVertex
 10
628.2383187074404
 20
954.1091114448864
 30
0.0
  0
VERTEX
  5
1FF
330
1FA
100
AcDbEntity
  8
Make2D$可见线$普通线
100
AcDbVertex
100
AcDb2dVertex
 10
628.2383029652873
 20
954.108909243115
 30
0.0
  0
VERTEX
  5
200
330
1FA
100
AcDbEntity
  8
Make2D$可见线$普通线
100
AcDbVertex
100
AcDb2dVertex
 10
628.2382809268947
 20
954.108707047576
 30
0.0
  0
VERTEX
  5
201
330
1FA
100
AcDbEntity
  8
Make2D$可见线$普通线
100
AcDbVertex
100
AcDb2dVertex
 10
628.2382525926217
 20
954.108504858224
 30
0.0
  0
VERTEX
  5
202
330
1FA
100
AcDbEntity
  8
Make2D$可见线$普通线
100
AcDbVertex
100
AcDb2dVertex
 10
628.2382179628269
 20
954.1083026750134
 30
0.0
  0
VERTEX
  5
203
330
1FA
100
AcDbEntity
  8
Make2D$可见线$普通线
100
AcDbVertex
100
AcDb2dVertex
 10
628.2381770378691
 20
954.1081004978989
 30
0.0
  0
VERTEX
  5
204
330
1FA
100
AcDbEntity
  8
Make2D$可见线$普通线
100
AcDbVertex
100
AcDb2dVertex
 10
628.2381298181072
 20
954.1078983268351
 30
0.0
  0
VERTEX
  5
205
330
1FA
100
AcDbEntity
  8
Make2D$可见线$普通线
100
AcDbVertex
100
AcDb2dVertex
 10
628.2380763039
 20
954.1076961617763
 30
0.0
  0
VERTEX
  5
206
330
1FA
100
AcDbEntity
  8
Make2D$可见线$普通线
100
AcDbVertex
100
AcDb2dVertex
 10
628.2380164956064
 20
954.1074940026772
 30
0.0
  0
VERTEX
  5
207
330
1FA
100
AcDbEntity
  8
Make2D$可见线$普通线
100
AcDbVertex
100
AcDb2dVertex
 10
628.2379503935852
 20
954.1072918494921
 30
0.0
  0
VERTEX
  5
208
330
1FA
100
AcDbEntity
  8
Make2D$可见线$普通线
100
AcDbVertex
100
AcDb2dVertex
 10
628.2378779981948
 20
954.1070897021757
 30
0.0
  0
VERTEX
  5
209
330
1FA
100
AcDbEntity
  8
Make2D$可见线$普通线
100
AcDbVertex
100
AcDb2dVertex
 10
628.2377993097946
 20
954.1068875606825
 30
0.0
  0
VERTEX
  5
20A
330
1FA
100
AcDbEntity
  8
Make2D$可见线$普通线
100
AcDbVertex
100
AcDb2dVertex
 10
628.2377143287429
 20
954.1066854249668
 30
0.0
  0
VERTEX
  5
20B
330
1FA
100
AcDbEntity
  8
Make2D$可见线$普通线
100
AcDbVertex
100
AcDb2dVertex
 10
628.2376230553989
 20
954.1064832949835
 30
0.0
  0
VERTEX
  5
20C
330
1FA
100
AcDbEntity
  8
Make2D$可见线$普通线
100
AcDbVertex
100
AcDb2dVertex
 10
628.2375254901212
 20
954.1062811706868
 30
0.0
  0
VERTEX
  5
20D
330
1FA
100
AcDbEntity
  8
Make2D$可见线$普通线
100
AcDbVertex
100
AcDb2dVertex
 10
628.2374216332687
 20
954.1060790520313
 30
0.0
  0
VERTEX
  5
20E
330
1FA
100
AcDbEntity
  8
Make2D$可见线$普通线
100
AcDbVertex
100
AcDb2dVertex
 10
628.2373114852002
 20
954.1058769389716
 30
0.0
  0
VERTEX
  5
20F
330
1FA
100
AcDbEntity
  8
Make2D$可见线$普通线
100
AcDbVertex
100
AcDb2dVertex
 10
628.2371950462743
 20
954.1056748314622
 30
0.0
  0
VERTEX
  5
210
330
1FA
100
AcDbEntity
  8
Make2D$可见线$普通线
100
AcDbVertex
100
AcDb2dVertex
 10
628.2370723168502
 20
954.1054727294575
 30
0.0
  0
VERTEX
  5
211
330
1FA
100
AcDbEntity
  8
Make2D$可见线$普通线
100
AcDbVertex
100
AcDb2dVertex
 10
628.2369432972865
 20
954.1052706329122
 30
0.0
  0
VERTEX
  5
212
330
1FA
100
AcDbEntity
  8
Make2D$可见线$普通线
100
AcDbVertex
100
AcDb2dVertex
 10
628.2368079879419
 20
954.1050685417806
 30
0.0
  0
VERTEX
  5
213
330
1FA
100
AcDbEntity
  8
Make2D$可见线$普通线
100
AcDbVertex
100
AcDb2dVertex
 10
628.2366663891753
 20
954.1048664560175
 30
0.0
  0
VERTEX
  5
214
330
1FA
100
AcDbEntity
  8
Make2D$可见线$普通线
100
AcDbVertex
100
AcDb2dVertex
 10
628.2365185013455
 20
954.1046643755772
 30
0.0
  0
VERTEX
  5
215
330
1FA
100
AcDbEntity
  8
Make2D$可见线$普通线
100
AcDbVertex
100
AcDb2dVertex
 10
628.2363643248113
 20
954.1044623004143
 30
0.0
  0
VERTEX
  5
216
330
1FA
100
AcDbEntity
  8
Make2D$可见线$普通线
100
AcDbVertex
100
AcDb2dVertex
 10
628.2362038599316
 20
954.1042602304833
 30
0.0
  0
VERTEX
  5
217
330
1FA
100
AcDbEntity
  8
Make2D$可见线$普通线
100
AcDbVertex
100
AcDb2dVertex
 10
628.2360371070652
 20
954.1040581657387
 30
0.0
  0
VERTEX
  5
218
330
1FA
100
AcDbEntity
  8
Make2D$可见线$普通线
100
AcDbVertex
100
AcDb2dVertex
 10
628.2358640665707
 20
954.103856106135
 30
0.0
  0
VERTEX
  5
219
330
1FA
100
AcDbEntity
  8
Make2D$可见线$普通线
100
AcDbVertex
100
AcDb2dVertex
 10
628.2354991241333
 20
954.1034520021685
 30
0.0
  0
VERTEX
  5
21A
330
1FA
100
AcDbEntity
  8
Make2D$可见线$普通线
100
AcDbVertex
100
AcDb2dVertex
 10
628.2351090354898
 20
954.10304791822
 30
0.0
  0
VERTEX
  5
21B
330
1FA
100
AcDbEntity
  8
Make2D$可见线$普通线
100
AcDbVertex
100
AcDb2dVertex
 10
628.2346938035106
 20
954.1026438539257
 30
0.0
  0
VERTEX
  5
21C
330
1FA
100
AcDbEntity
  8
Make2D$可见线$普通线
100
AcDbVertex
100
AcDb2dVertex
 10
628.2342534310663
 20
954.1022398089215
 30
0.0
  0
VERTEX
  5
21D
330
1FA
100
AcDbEntity
  8
Make2D$可见线$普通线
100
AcDbVertex
100
AcDb2dVertex
 10
628.2337879210273
 20
954.1018357828439
 30
0.0
  0
VERTEX
  5
21E
330
1FA
100
AcDbEntity
  8
Make2D$可见线$普通线
100
AcDbVertex
100
AcDb2dVertex
 10
628.2332972762641
 20
954.1014317753288
 30
0.0
  0
VERTEX
  5
21F
330
1FA
100
AcDbEntity
  8
Make2D$可见线$普通线
100
AcDbVertex
100
AcDb2dVertex
 10
628.2327814996471
 20
954.1010277860125
 30
0.0
  0
VERTEX
  5
220
330
1FA
100
AcDbEntity
  8
Make2D$可见线$普通线
100
AcDbVertex
100
AcDb2dVertex
 10
628.2322405940469
 20
954.1006238145311
 30
0.0
  0
VERTEX
  5
221
330
1FA
100
AcDbEntity
  8
Make2D$可见线$普通线
100
AcDbVertex
100
AcDb2dVertex
 10
628.2316745623339
 20
954.1002198605207
 30
0.0
  0
VERTEX
  5
222
330
1FA
100
AcDbEntity
  8
Make2D$可见线$普通线
100
AcDbVertex
100
AcDb2dVertex
 10
628.2310834073783
 20
954.0998159236175
 30
0.0
  0
VERTEX
  5
223
330
1FA
100
AcDbEntity
  8
Make2D$可见线$普通线
100
AcDbVertex
100
AcDb2dVertex
 10
628.230467132051
 20
954.0994120034576
 30
0.0
  0
VERTEX
  5
224
330
1FA
100
AcDbEntity
  8
Make2D$可见线$普通线
100
AcDbVertex
100
AcDb2dVertex
 10
628.229825739222
 20
954.0990080996771
 30
0.0
  0
VERTEX
  5
225
330
1FA
100
AcDbEntity
  8
Make2D$可见线$普通线
100
AcDbVertex
100
AcDb2dVertex
 10
628.228467612542
 20
954.0982003397994
 30
0.0
  0
VERTEX
  5
226
330
1FA
100
AcDbEntity
  8
Make2D$可见线$普通线
100
AcDbVertex
100
AcDb2dVertex
 10
628.2270090503017
 20
954.0973926410734
 30
0.0
  0
VERTEX
  5
227
330
1FA
100
AcDbEntity
  8
Make2D$可见线$普通线
100
AcDbVertex
100
AcDb2dVertex
 10
628.2254500754652
 20
954.0965850005883
 30
0.0
  0
VERTEX
  5
228
330
1FA
100
AcDbEntity
  8
Make2D$可见线$普通线
100
AcDbVertex
100
AcDb2dVertex
 10
628.223790710996
 20
954.0957774154335
 30
0.0
  0
VERTEX
  5
229
330
1FA
100
AcDbEntity
  8
Make2D$可见线$普通线
100
AcDbVertex
100
AcDb2dVertex
 10
628.2220309798579
 20
954.0949698826978
 30
0.0
  0
VERTEX
  5
22A
330
1FA
100
AcDbEntity
  8
Make2D$可见线$普通线
100
AcDbVertex
100
AcDb2dVertex
 10
628.2201709050145
 20
954.0941623994706
 30
0.0
  0
VERTEX
  5
22B
330
1FA
100
AcDbEntity
  8
Make2D$可见线$普通线
100
AcDbVertex
100
AcDb2dVertex
 10
628.2182105094296
 20
954.0933549628413
 30
0.0
  0
VERTEX
  5
22C
330
1FA
100
AcDbEntity
  8
Make2D$可见线$普通线
100
AcDbVertex
100
AcDb2dVertex
 10
628.2139888478904
 20
954.0917402177325
 30
0.0
  0
VERTEX
  5
22D
330
1FA
100
AcDbEntity
  8
Make2D$可见线$普通线
100
AcDbVertex
100
AcDb2dVertex
 10
628.20936617895
 20
954.0901256240852
 30
0.0
  0
VERTEX
  5
22E
330
1FA
100
AcDbEntity
  8
Make2D$可见线$普通线
100
AcDbVertex
100
AcDb2dVertex
 10
628.2043426863183
 20
954.0885111586128
 30
0.0
  0
VERTEX
  5
22F
330
1FA
100
AcDbEntity
  8
Make2D$可见线$普通线
100
AcDbVertex
100
AcDb2dVertex
 10
628.1989185537051
 20
954.0868967980291
 30
0.0
  0
VERTEX
  5
230
330
1FA
100
AcDbEntity
  8
Make2D$可见线$普通线
100
AcDbVertex
100
AcDb2dVertex
 10
628.1868691033737
 20
954.0836682983818
 30
0.0
  0
VERTEX
  5
231
330
1FA
100
AcDbEntity
  8
Make2D$可见线$普通线
100
AcDbVertex
100
AcDb2dVertex
 10
628.1732192976347
 20
954.0804399388524
 30
0.0
  0
VERTEX
  5
232
330
1FA
100
AcDbEntity
  8
Make2D$可见线$普通线
100
AcDbVertex
100
AcDb2dVertex
 10
628.1579706061666
 20
954.0772115331497
 30
0.0
  0
VERTEX
  5
233
330
1FA
100
AcDbEntity
  8
Make2D$可见线$普通线
100
AcDbVertex
100
AcDb2dVertex
 10
628.1226824447583
 20
954.0707538380601
 30
0.0
  0
VERTEX
  5
234
330
1FA
100
AcDbEntity
  8
Make2D$可见线$普通线
100
AcDbVertex
100
AcDb2dVertex
 10
628.0810163765791
 20
954.0642937227844
 30
0.0
  0
VERTEX
  5
235
330
1FA
100
AcDbEntity
  8
Make2D$可见线$普通线
100
AcDbVertex
100
AcDb2dVertex
 10
628.0329841590589
 20
954.0578296969941
 30
0.0
  0
VERTEX
  5
236
330
1FA
100
AcDbEntity
  8
Make2D$可见线$普通线
100
AcDbVertex
100
AcDb2dVertex
 10
627.6266596251643
 20
954.0196053089785
 30
0.0
  0
VERTEX
  5
237
330
1FA
100
AcDbEntity
  8
Make2D$可见线$普通线
100
AcDbVertex
100
AcDb2dVertex
 10
627.2193695002103
 20
953.9936152185828
 30
0.0
  0
VERTEX
  5
238
330
1FA
100
AcDbEntity
  8
Make2D$可见线$普通线
100
AcDbVertex
100
AcDb2dVertex
 10
625.1460737206058
 20
953.903997239944
 30
0.0
  0
VERTEX
  5
239
330
1FA
100
AcDbEntity
  8
Make2D$可见线$普通线
100
AcDbVertex
100
AcDb2dVertex
 10
621.7096942659108
 20
953.8009611331415
 30
0.0
  0
VERTEX
  5
23A
330
1FA
100
AcDbEntity
  8
Make2D$可见线$普通线
100
AcDbVertex
100
AcDb2dVertex
 10
611.8050537856433
 20
953.544091398826
 30
0.0
  0
VERTEX
  5
23B
330
1FA
100
AcDbEntity
  8
Make2D$可见线$普通线
100
AcDbVertex
100
AcDb2dVertex
 10
609.8499063345653
 20
953.4798785837422
 30
0.0
  0
VERTEX
  5
23C
330
1FA
100
AcDbEntity
  8
Make2D$可见线$普通线
100
AcDbVertex
100
AcDb2dVertex
 10
608.3637928509958
 20
953.4156508432412
 30
0.0
  0
VERTEX
  5
23D
330
1FA
100
AcDbEntity
  8
Make2D$可见线$普通线
100
AcDbVertex
100
AcDb2dVertex
 10
607.8997849875394
 20
953.3887871337636
 30
0.0
  0
VERTEX
  5
23E
330
1FA
100
AcDbEntity
  8
Make2D$可见线$普通线
100
AcDbVertex
100
AcDb2dVertex
 10
607.4365029174751
 20
953.3514417218258
 30
0.0
  0
SEQEND
  5
23F
330
1FA
100
AcDbEntity
  8
Make2D$可见线$普通线
  0
POLYLINE
  5
240
330
1F
100
AcDbEntity
  8
Make2D$可见线$普通线
100
AcDb2dPolyline
 66
     1
 10
0.0
 20
0.0
 30
0.0
  0
VERTEX
  5
241
330
240
100
AcDbEntity
  8
Make2D$可见线$普通线
100
AcDbVertex
100
AcDb2dVertex
 10
577.7209152669992
 20
987.9589684950155
 30
0.0
  0
VERTEX
  5
242
330
240
100
AcDbEntity
  8
Make2D$可见线$普通线
100
AcDbVertex
100
AcDb2dVertex
 10
577.7209152669991
 20
981.0325770589126
 30
0.0
 42
-0.4142220658201089
  0
VERTEX
  5
243
330
240
100
AcDbEntity
  8
Make2D$可见线$普通线
100
AcDbVertex
100
AcDb2dVertex
 10
575.7209152669992
 20
979.0327076579831
 30
0.0
  0
VERTEX
  5
244
330
240
100
AcDbEntity
  8
Make2D$可见线$普通线
100
AcDbVertex
100
AcDb2dVertex
 10
567.6807064562169
 20
979.0325770589336
 30
0.0
  0
VERTEX
  5
245
330
240
100
AcDbEntity
  8
Make2D$可见线$普通线
100
AcDbVertex
100
AcDb2dVertex
 10
567.6807064562169
 20
977.5355144252273
 30
0.0
  0
VERTEX
  5
246
330
240
100
AcDbEntity
  8
Make2D$可见线$普通线
100
AcDbVertex
100
AcDb2dVertex
 10
560.5546974562751
 20
977.5323923240015
 30
0.0
 42
0.3938903034512759
  0
VERTEX
  5
247
330
240
100
AcDbEntity
  8
Make2D$可见线$普通线
100
AcDbVertex
100
AcDb2dVertex
 10
558.5641608104966
 20
975.6810381735688
 30
0.0
  0
SEQEND
  5
248
330
240
100
AcDbEntity
  8
Make2D$可见线$普通线
  0
POLYLINE
  5
249
330
1F
100
AcDbEntity
  8
Make2D$可见线$普通线
100
AcDb2dPolyline
 66
     1
 10
0.0
 20
0.0
 30
0.0
  0
VERTEX
  5
24A
330
249
100
AcDbEntity
  8
Make2D$可见线$普通线
100
AcDbVertex
100
AcDb2dVertex
 10
627.945780333739
 20
953.1776280694407
 30
0.0
 42
-0.0603129505374108
  0
VERTEX
  5
24B
330
249
100
AcDbEntity
  8
Make2D$可见线$普通线
100
AcDbVertex
100
AcDb2dVertex
 10
628.2249909120184
 20
953.129045817356
 30
0.0
  0
VERTEX
  5
24C
330
249
100
AcDbEntity
  8
Make2D$可见线$普通线
100
AcDbVertex
100
AcDb2dVertex
 10
628.2383313015936
 20
953.1158975338855
 30
0.0
  0
VERTEX
  5
24D
330
249
100
AcDbEntity
  8
Make2D$可见线$普通线
100
AcDbVertex
100
AcDb2dVertex
 10
628.238328227377
 20
953.1156979954433
 30
0.0
  0
VERTEX
  5
24E
330
249
100
AcDbEntity
  8
Make2D$可见线$普通线
100
AcDbVertex
100
AcDb2dVertex
 10
628.2383190049555
 20
953.1154984583148
 30
0.0
  0
VERTEX
  5
24F
330
249
100
AcDbEntity
  8
Make2D$可见线$普通线
100
AcDbVertex
100
AcDb2dVertex
 10
628.2383036346712
 20
953.1152989224854
 30
0.0
  0
VERTEX
  5
250
330
249
100
AcDbEntity
  8
Make2D$可见线$普通线
100
AcDbVertex
100
AcDb2dVertex
 10
628.2382821168662
 20
953.1150993879398
 30
0.0
  0
VERTEX
  5
251
330
249
100
AcDbEntity
  8
Make2D$可见线$普通线
100
AcDbVertex
100
AcDb2dVertex
 10
628.2382544518828
 20
953.1148998546635
 30
0.0
  0
VERTEX
  5
252
330
249
100
AcDbEntity
  8
Make2D$可见线$普通线
100
AcDbVertex
100
AcDb2dVertex
 10
628.238220640063
 20
953.1147003226413
 30
0.0
  0
VERTEX
  5
253
330
249
100
AcDbEntity
  8
Make2D$可见线$普通线
100
AcDbVertex
100
AcDb2dVertex
 10
628.2381806817489
 20
953.1145007918584
 30
0.0
  0
VERTEX
  5
254
330
249
100
AcDbEntity
  8
Make2D$可见线$普通线
100
AcDbVertex
100
AcDb2dVertex
 10
628.2381345772828
 20
953.1143012623
 30
0.0
  0
VERTEX
  5
255
330
249
100
AcDbEntity
  8
Make2D$可见线$普通线
100
AcDbVertex
100
AcDb2dVertex
 10
628.238082327007
 20
953.1141017339513
 30
0.0
  0
VERTEX
  5
256
330
249
100
AcDbEntity
  8
Make2D$可见线$普通线
100
AcDbVertex
100
AcDb2dVertex
 10
628.2380239312633
 20
953.1139022067971
 30
0.0
  0
VERTEX
  5
257
330
249
100
AcDbEntity
  8
Make2D$可见线$普通线
100
AcDbVertex
100
AcDb2dVertex
 10
628.2379593903943
 20
953.1137026808228
 30
0.0
  0
VERTEX
  5
258
330
249
100
AcDbEntity
  8
Make2D$可见线$普通线
100
AcDbVertex
100
AcDb2dVertex
 10
628.2378887047416
 20
953.1135031560134
 30
0.0
  0
VERTEX
  5
259
330
249
100
AcDbEntity
  8
Make2D$可见线$普通线
100
AcDbVertex
100
AcDb2dVertex
 10
628.2378118746478
 20
953.113303632354
 30
0.0
  0
VERTEX
  5
25A
330
249
100
AcDbEntity
  8
Make2D$可见线$普通线
100
AcDbVertex
100
AcDb2dVertex
 10
628.2377289004548
 20
953.1131041098298
 30
0.0
  0
VERTEX
  5
25B
330
249
100
AcDbEntity
  8
Make2D$可见线$普通线
100
AcDbVertex
100
AcDb2dVertex
 10
628.237639782505
 20
953.1129045884259
 30
0.0
  0
VERTEX
  5
25C
330
249
100
AcDbEntity
  8
Make2D$可见线$普通线
100
AcDbVertex
100
AcDb2dVertex
 10
628.2375445211403
 20
953.1127050681272
 30
0.0
  0
VERTEX
  5
25D
330
249
100
AcDbEntity
  8
Make2D$可见线$普通线
100
AcDbVertex
100
AcDb2dVertex
 10
628.237443116703
 20
953.112505548919
 30
0.0
  0
VERTEX
  5
25E
330
249
100
AcDbEntity
  8
Make2D$可见线$普通线
100
AcDbVertex
100
AcDb2dVertex
 10
628.2373355695353
 20
953.1123060307865
 30
0.0
  0
VERTEX
  5
25F
330
249
100
AcDbEntity
  8
Make2D$可见线$普通线
100
AcDbVertex
100
AcDb2dVertex
 10
628.2372218799792
 20
953.1121065137147
 30
0.0
  0
VERTEX
  5
260
330
249
100
AcDbEntity
  8
Make2D$可见线$普通线
100
AcDbVertex
100
AcDb2dVertex
 10
628.2371020483771
 20
953.1119069976887
 30
0.0
  0
VERTEX
  5
261
330
249
100
AcDbEntity
  8
Make2D$可见线$普通线
100
AcDbVertex
100
AcDb2dVertex
 10
628.236976075071
 20
953.1117074826938
 30
0.0
  0
VERTEX
  5
262
330
249
100
AcDbEntity
  8
Make2D$可见线$普通线
100
AcDbVertex
100
AcDb2dVertex
 10
628.2368439604029
 20
953.1115079687147
 30
0.0
  0
VERTEX
  5
263
330
249
100
AcDbEntity
  8
Make2D$可见线$普通线
100
AcDbVertex
100
AcDb2dVertex
 10
628.2367057047151
 20
953.1113084557369
 30
0.0
  0
VERTEX
  5
264
330
249
100
AcDbEntity
  8
Make2D$可见线$普通线
100
AcDbVertex
100
AcDb2dVertex
 10
628.2365613083498
 20
953.1111089437454
 30
0.0
  0
VERTEX
  5
265
330
249
100
AcDbEntity
  8
Make2D$可见线$普通线
100
AcDbVertex
100
AcDb2dVertex
 10
628.2364107716492
 20
953.1109094327253
 30
0.0
  0
VERTEX
  5
266
330
249
100
AcDbEntity
  8
Make2D$可见线$普通线
100
AcDbVertex
100
AcDb2dVertex
 10
628.2362540949554
 20
953.1107099226617
 30
0.0
  0
VERTEX
  5
267
330
249
100
AcDbEntity
  8
Make2D$可见线$普通线
100
AcDbVertex
100
AcDb2dVertex
 10
628.2360912786105
 20
953.1105104135397
 30
0.0
  0
VERTEX
  5
268
330
249
100
AcDbEntity
  8
Make2D$可见线$普通线
100
AcDbVertex
100
AcDb2dVertex
 10
628.2359223229566
 20
953.1103109053445
 30
0.0
  0
VERTEX
  5
269
330
249
100
AcDbEntity
  8
Make2D$可见线$普通线
100
AcDbVertex
100
AcDb2dVertex
 10
628.235565995091
 20
953.1099118916746
 30
0.0
  0
VERTEX
  5
26A
330
249
100
AcDbEntity
  8
Make2D$可见线$普通线
100
AcDbVertex
100
AcDb2dVertex
 10
628.2351851140955
 20
953.1095128815332
 30
0.0
  0
VERTEX
  5
26B
330
249
100
AcDbEntity
  8
Make2D$可见线$普通线
100
AcDbVertex
100
AcDb2dVertex
 10
628.2347796827077
 20
953.109113874801
 30
0.0
  0
VERTEX
  5
26C
330
249
100
AcDbEntity
  8
Make2D$可见线$普通线
100
AcDbVertex
100
AcDb2dVertex
 10
628.2343497036645
 20
953.108714871359
 30
0.0
  0
VERTEX
  5
26D
330
249
100
AcDbEntity
  8
Make2D$可见线$普通线
100
AcDbVertex
100
AcDb2dVertex
 10
628.2338951797034
 20
953.108315871088
 30
0.0
  0
VERTEX
  5
26E
330
249
100
AcDbEntity
  8
Make2D$可见线$普通线
100
AcDbVertex
100
AcDb2dVertex
 10
628.2334161135616
 20
953.1079168738692
 30
0.0
  0
VERTEX
  5
26F
330
249
100
AcDbEntity
  8
Make2D$可见线$普通线
100
AcDbVertex
100
AcDb2dVertex
 10
628.2329125079764
 20
953.1075178795833
 30
0.0
  0
VERTEX
  5
270
330
249
100
AcDbEntity
  8
Make2D$可见线$普通线
100
AcDbVertex
100
AcDb2dVertex
 10
628.2323843656848
 20
953.107118888111
 30
0.0
  0
VERTEX
  5
271
330
249
100
AcDbEntity
  8
Make2D$可见线$普通线
100
AcDbVertex
100
AcDb2dVertex
 10
628.2318316894243
 20
953.1067198993337
 30
0.0
  0
VERTEX
  5
272
330
249
100
AcDbEntity
  8
Make2D$可见线$普通线
100
AcDbVertex
100
AcDb2dVertex
 10
628.2312544819321
 20
953.1063209131319
 30
0.0
  0
VERTEX
  5
273
330
249
100
AcDbEntity
  8
Make2D$可见线$普通线
100
AcDbVertex
100
AcDb2dVertex
 10
628.2306527459455
 20
953.1059219293867
 30
0.0
  0
VERTEX
  5
274
330
249
100
AcDbEntity
  8
Make2D$可见线$普通线
100
AcDbVertex
100
AcDb2dVertex
 10
628.2300264842015
 20
953.105522947979
 30
0.0
  0
VERTEX
  5
275
330
249
100
AcDbEntity
  8
Make2D$可见线$普通线
100
AcDbVertex
100
AcDb2dVertex
 10
628.2287003943911
 20
953.1047249916996
 30
0.0
  0
VERTEX
  5
276
330
249
100
AcDbEntity
  8
Make2D$可见线$普通线
100
AcDbVertex
100
AcDb2dVertex
 10
628.2272762343989
 20
953.1039270433413
 30
0.0
  0
VERTEX
  5
277
330
249
100
AcDbEntity
  8
Make2D$可见线$普通线
100
AcDbVertex
100
AcDb2dVertex
 10
628.2257540261229
 20
953.103129101951
 30
0.0
  0
VERTEX
  5
278
330
249
100
AcDbEntity
  8
Make2D$可见线$普通线
100
AcDbVertex
100
AcDb2dVertex
 10
628.2241337914611
 20
953.1023311665763
 30
0.0
  0
VERTEX
  5
279
330
249
100
AcDbEntity
  8
Make2D$可见线$普通线
100
AcDbVertex
100
AcDb2dVertex
 10
628.2224155523114
 20
953.1015332362645
 30
0.0
  0
VERTEX
  5
27A
330
249
100
AcDbEntity
  8
Make2D$可见线$普通线
100
AcDbVertex
100
AcDb2dVertex
 10
628.220599330572
 20
953.1007353100629
 30
0.0
  0
VERTEX
  5
27B
330
249
100
AcDbEntity
  8
Make2D$可见线$普通线
100
AcDbVertex
100
AcDb2dVertex
 10
628.2186851481407
 20
953.0999373870186
 30
0.0
  0
VERTEX
  5
27C
330
249
100
AcDbEntity
  8
Make2D$可见线$普通线
100
AcDbVertex
100
AcDb2dVertex
 10
628.2145629887948
 20
953.0983415465917
 30
0.0
  0
VERTEX
  5
27D
330
249
100
AcDbEntity
  8
Make2D$可见线$普通线
100
AcDbVertex
100
AcDb2dVertex
 10
628.210049249458
 20
953.0967457073625
 30
0.0
  0
VERTEX
  5
27E
330
249
100
AcDbEntity
  8
Make2D$可见线$普通线
100
AcDbVertex
100
AcDb2dVertex
 10
628.2051441053145
 20
953.0951498617094
 30
0.0
  0
VERTEX
  5
27F
330
249
100
AcDbEntity
  8
Make2D$可见线$普通线
100
AcDbVertex
100
AcDb2dVertex
 10
628.1998477315481
 20
953.0935540020107
 30
0.0
  0
VERTEX
  5
280
330
249
100
AcDbEntity
  8
Make2D$可见线$普通线
100
AcDbVertex
100
AcDb2dVertex
 10
628.1880819958833
 20
953.0903622099911
 30
0.0
  0
VERTEX
  5
281
330
249
100
AcDbEntity
  8
Make2D$可见线$普通线
100
AcDbVertex
100
AcDb2dVertex
 10
628.1747534439367
 20
953.0871702703316
 30
0.0
  0
VERTEX
  5
282
330
249
100
AcDbEntity
  8
Make2D$可见线$普通线
100
AcDbVertex
100
AcDb2dVertex
 10
628.1598634771809
 20
953.0839781220604
 30
0.0
  0
VERTEX
  5
283
330
249
100
AcDbEntity
  8
Make2D$可见线$普通线
100
AcDbVertex
100
AcDb2dVertex
 10
628.1254049051333
 20
953.0775929557942
 30
0.0
  0
VERTEX
  5
284
330
249
100
AcDbEntity
  8
Make2D$可见线$普通线
100
AcDbVertex
100
AcDb2dVertex
 10
628.084717491523
 20
953.071206223416
 30
0.0
  0
VERTEX
  5
285
330
249
100
AcDbEntity
  8
Make2D$可见线$普通线
100
AcDbVertex
100
AcDb2dVertex
 10
628.0378124481321
 20
953.0648174371491
 30
0.0
  0
VERTEX
  5
286
330
249
100
AcDbEntity
  8
Make2D$可见线$普通线
100
AcDbVertex
100
AcDb2dVertex
 10
627.6343711245887
 20
953.0265451581655
 30
0.0
  0
VERTEX
  5
287
330
249
100
AcDbEntity
  8
Make2D$可见线$普通线
100
AcDbVertex
100
AcDb2dVertex
 10
627.2299493781791
 20
953.000608313484
 30
0.0
  0
VERTEX
  5
288
330
249
100
AcDbEntity
  8
Make2D$可见线$普通线
100
AcDbVertex
100
AcDb2dVertex
 10
625.1460737206058
 20
952.910415723715
 30
0.0
  0
VERTEX
  5
289
330
249
100
AcDbEntity
  8
Make2D$可见线$普通线
100
AcDbVertex
100
AcDb2dVertex
 10
621.7325549166069
 20
952.8079621817666
 30
0.0
  0
VERTEX
  5
28A
330
249
100
AcDbEntity
  8
Make2D$可见线$普通线
100
AcDbVertex
100
AcDb2dVertex
 10
611.8256288212363
 20
952.5510791443457
 30
0.0
  0
VERTEX
  5
28B
330
249
100
AcDbEntity
  8
Make2D$可见线$普通线
100
AcDbVertex
100
AcDb2dVertex
 10
609.8665248586888
 20
952.486860528686
 30
0.0
  0
VERTEX
  5
28C
330
249
100
AcDbEntity
  8
Make2D$可见线$普通线
100
AcDbVertex
100
AcDb2dVertex
 10
608.3754575269561
 20
952.422627356654
 30
0.0
  0
VERTEX
  5
28D
330
249
100
AcDbEntity
  8
Make2D$可见线$普通线
100
AcDbVertex
100
AcDb2dVertex
 10
607.908628931387
 20
952.3957192976055
 30
0.0
  0
VERTEX
  5
28E
330
249
100
AcDbEntity
  8
Make2D$可见线$普通线
100
AcDbVertex
100
AcDb2dVertex
 10
607.4425159581098
 20
952.3584141045981
 30
0.0
  0
VERTEX
  5
28F
330
249
100
AcDbEntity
  8
Make2D$可见线$普通线
100
AcDbVertex
100
AcDb2dVertex
 10
607.3036732507351
 20
952.342349327967
 30
0.0
  0
VERTEX
  5
290
330
249
100
AcDbEntity
  8
Make2D$可见线$普通线
100
AcDbVertex
100
AcDb2dVertex
 10
607.2489272434277
 20
952.3343187587867
 30
0.0
  0
VERTEX
  5
291
330
249
100
AcDbEntity
  8
Make2D$可见线$普通线
100
AcDbVertex
100
AcDb2dVertex
 10
607.2252354216712
 20
952.3303023362228
 30
0.0
  0
VERTEX
  5
292
330
249
100
AcDbEntity
  8
Make2D$可见线$普通线
100
AcDbVertex
100
AcDb2dVertex
 10
607.2040024241517
 20
952.3262845482445
 30
0.0
  0
VERTEX
  5
293
330
249
100
AcDbEntity
  8
Make2D$可见线$普通线
100
AcDbVertex
100
AcDb2dVertex
 10
607.1852317780982
 20
952.3222649397785
 30
0.0
  0
VERTEX
  5
294
330
249
100
AcDbEntity
  8
Make2D$可见线$普通线
100
AcDbVertex
100
AcDb2dVertex
 10
607.1767709391303
 20
952.3202543106522
 30
0.0
  0
VERTEX
  5
295
330
249
100
AcDbEntity
  8
Make2D$可见线$普通线
100
AcDbVertex
100
AcDb2dVertex
 10
607.1689270107399
 20
952.3182430557513
 30
0.0
  0
VERTEX
  5
296
330
249
100
AcDbEntity
  8
Make2D$可见线$普通线
100
AcDbVertex
100
AcDb2dVertex
 10
607.1617004338307
 20
952.3162311181916
 30
0.0
  0
VERTEX
  5
297
330
249
100
AcDbEntity
  8
Make2D$可见线$普通线
100
AcDbVertex
100
AcDb2dVertex
 10
607.1550916493062
 20
952.314218441089
 30
0.0
  0
VERTEX
  5
298
330
249
100
AcDbEntity
  8
Make2D$可见线$普通线
100
AcDbVertex
100
AcDb2dVertex
 10
607.1491010980701
 20
952.3122049675592
 30
0.0
  0
VERTEX
  5
299
330
249
100
AcDbEntity
  8
Make2D$可见线$普通线
100
AcDbVertex
100
AcDb2dVertex
 10
607.1463377977177
 20
952.311197914358
 30
0.0
  0
VERTEX
  5
29A
330
249
100
AcDbEntity
  8
Make2D$可见线$普通线
100
AcDbVertex
100
AcDb2dVertex
 10
607.1437292210262
 20
952.3101906407181
 30
0.0
  0
VERTEX
  5
29B
330
249
100
AcDbEntity
  8
Make2D$可见线$普通线
100
AcDbVertex
100
AcDb2dVertex
 10
607.1412754231085
 20
952.3091831395295
 30
0.0
  0
VERTEX
  5
29C
330
249
100
AcDbEntity
  8
Make2D$可见线$普通线
100
AcDbVertex
100
AcDb2dVertex
 10
607.1389764590779
 20
952.3081754036814
 30
0.0
  0
VERTEX
  5
29D
330
249
100
AcDbEntity
  8
Make2D$可见线$普通线
100
AcDbVertex
100
AcDb2dVertex
 10
607.136832384047
 20
952.3071674260634
 30
0.0
  0
VERTEX
  5
29E
330
249
100
AcDbEntity
  8
Make2D$可见线$普通线
100
AcDbVertex
100
AcDb2dVertex
 10
607.1348432531288
 20
952.306159199565
 30
0.0
  0
VERTEX
  5
29F
330
249
100
AcDbEntity
  8
Make2D$可见线$普通线
100
AcDbVertex
100
AcDb2dVertex
 10
607.1339068089349
 20
952.3056549907635
 30
0.0
  0
VERTEX
  5
2A0
330
249
100
AcDbEntity
  8
Make2D$可见线$普通线
100
AcDbVertex
100
AcDb2dVertex
 10
607.1330091214364
 20
952.3051507170755
 30
0.0
  0
VERTEX
  5
2A1
330
249
100
AcDbEntity
  8
Make2D$可见线$普通线
100
AcDbVertex
100
AcDb2dVertex
 10
607.1321501975228
 20
952.3046463776121
 30
0.0
  0
VERTEX
  5
2A2
330
249
100
AcDbEntity
  8
Make2D$可见线$普通线
100
AcDbVertex
100
AcDb2dVertex
 10
607.1313300440829
 20
952.3041419714846
 30
0.0
  0
VERTEX
  5
2A3
330
249
100
AcDbEntity
  8
Make2D$可见线$普通线
100
AcDbVertex
100
AcDb2dVertex
 10
607.1305486680059
 20
952.303637497804
 30
0.0
  0
VERTEX
  5
2A4
330
249
100
AcDbEntity
  8
Make2D$可见线$普通线
100
AcDbVertex
100
AcDb2dVertex
 10
607.1298060761809
 20
952.3031329556815
 30
0.0
  0
VERTEX
  5
2A5
330
249
100
AcDbEntity
  8
Make2D$可见线$普通线
100
AcDbVertex
100
AcDb2dVertex
 10
607.129102275497
 20
952.3026283442284
 30
0.0
  0
VERTEX
  5
2A6
330
249
100
AcDbEntity
  8
Make2D$可见线$普通线
100
AcDbVertex
100
AcDb2dVertex
 10
607.1284372728435
 20
952.3021236625558
 30
0.0
  0
VERTEX
  5
2A7
330
249
100
AcDbEntity
  8
Make2D$可见线$普通线
100
AcDbVertex
100
AcDb2dVertex
 10
607.1278110751094
 20
952.3016189097749
 30
0.0
  0
VERTEX
  5
2A8
330
249
100
AcDbEntity
  8
Make2D$可见线$普通线
100
AcDbVertex
100
AcDb2dVertex
 10
607.1272236891837
 20
952.301114084997
 30
0.0
  0
VERTEX
  5
2A9
330
249
100
AcDbEntity
  8
Make2D$可见线$普通线
100
AcDbVertex
100
AcDb2dVertex
 10
607.1269445528019
 20
952.3008616453315
 30
0.0
  0
VERTEX
  5
2AA
330
249
100
AcDbEntity
  8
Make2D$可见线$普通线
100
AcDbVertex
100
AcDb2dVertex
 10
607.1266751219557
 20
952.3006091873333
 30
0.0
  0
VERTEX
  5
2AB
330
249
100
AcDbEntity
  8
Make2D$可见线$普通线
100
AcDbVertex
100
AcDb2dVertex
 10
607.1264153975062
 20
952.3003567108915
 30
0.0
  0
VERTEX
  5
2AC
330
249
100
AcDbEntity
  8
Make2D$可见线$普通线
100
AcDbVertex
100
AcDb2dVertex
 10
607.1261653803145
 20
952.3001042158947
 30
0.0
  0
VERTEX
  5
2AD
330
249
100
AcDbEntity
  8
Make2D$可见线$普通线
100
AcDbVertex
100
AcDb2dVertex
 10
607.1259250712418
 20
952.2998517022322
 30
0.0
  0
VERTEX
  5
2AE
330
249
100
AcDbEntity
  8
Make2D$可见线$普通线
100
AcDbVertex
100
AcDb2dVertex
 10
607.1256944711492
 20
952.2995991697926
 30
0.0
  0
VERTEX
  5
2AF
330
249
100
AcDbEntity
  8
Make2D$可见线$普通线
100
AcDbVertex
100
AcDb2dVertex
 10
607.1254735808978
 20
952.299346618465
 30
0.0
  0
VERTEX
  5
2B0
330
249
100
AcDbEntity
  8
Make2D$可见线$普通线
100
AcDbVertex
100
AcDb2dVertex
 10
607.1252624013488
 20
952.2990940481382
 30
0.0
  0
VERTEX
  5
2B1
330
249
100
AcDbEntity
  8
Make2D$可见线$普通线
100
AcDbVertex
100
AcDb2dVertex
 10
607.1250609333633
 20
952.2988414587012
 30
0.0
  0
VERTEX
  5
2B2
330
249
100
AcDbEntity
  8
Make2D$可见线$普通线
100
AcDbVertex
100
AcDb2dVertex
 10
607.1248691778025
 20
952.2985888500427
 30
0.0
  0
VERTEX
  5
2B3
330
249
100
AcDbEntity
  8
Make2D$可见线$普通线
100
AcDbVertex
100
AcDb2dVertex
 10
607.1246871355274
 20
952.2983362220517
 30
0.0
  0
VERTEX
  5
2B4
330
249
100
AcDbEntity
  8
Make2D$可见线$普通线
100
AcDbVertex
100
AcDb2dVertex
 10
607.1245148073994
 20
952.2980835746171
 30
0.0
  0
VERTEX
  5
2B5
330
249
100
AcDbEntity
  8
Make2D$可见线$普通线
100
AcDbVertex
100
AcDb2dVertex
 10
607.1243521942794
 20
952.2978309076277
 30
0.0
  0
VERTEX
  5
2B6
330
249
100
AcDbEntity
  8
Make2D$可见线$普通线
100
AcDbVertex
100
AcDb2dVertex
 10
607.1241992970287
 20
952.2975782209726
 30
0.0
  0
VERTEX
  5
2B7
330
249
100
AcDbEntity
  8
Make2D$可见线$普通线
100
AcDbVertex
100
AcDb2dVertex
 10
607.1240561165083
 20
952.2973255145407
 30
0.0
  0
VERTEX
  5
2B8
330
249
100
AcDbEntity
  8
Make2D$可见线$普通线
100
AcDbVertex
100
AcDb2dVertex
 10
607.1239226535795
 20
952.2970727882207
 30
0.0
  0
VERTEX
  5
2B9
330
249
100
AcDbEntity
  8
Make2D$可见线$普通线
100
AcDbVertex
100
AcDb2dVertex
 10
607.1237989091032
 20
952.2968200419016
 30
0.0
  0
VERTEX
  5
2BA
330
249
100
AcDbEntity
  8
Make2D$可见线$普通线
100
AcDbVertex
100
AcDb2dVertex
 10
607.1236848839408
 20
952.2965672754722
 30
0.0
  0
VERTEX
  5
2BB
330
249
100
AcDbEntity
  8
Make2D$可见线$普通线
100
AcDbVertex
100
AcDb2dVertex
 10
607.1235805789532
 20
952.2963144888216
 30
0.0
  0
VERTEX
  5
2BC
330
249
100
AcDbEntity
  8
Make2D$可见线$普通线
100
AcDbVertex
100
AcDb2dVertex
 10
607.1234859950018
 20
952.2960616818386
 30
0.0
  0
VERTEX
  5
2BD
330
249
100
AcDbEntity
  8
Make2D$可见线$普通线
100
AcDbVertex
100
AcDb2dVertex
 10
607.1234011329476
 20
952.295808854412
 30
0.0
  0
VERTEX
  5
2BE
330
249
100
AcDbEntity
  8
Make2D$可见线$普通线
100
AcDbVertex
100
AcDb2dVertex
 10
607.1233259936516
 20
952.2955560064308
 30
0.0
  0
VERTEX
  5
2BF
330
249
100
AcDbEntity
  8
Make2D$可见线$普通线
100
AcDbVertex
100
AcDb2dVertex
 10
607.1232605779752
 20
952.295303137784
 30
0.0
  0
VERTEX
  5
2C0
330
249
100
AcDbEntity
  8
Make2D$可见线$普通线
100
AcDbVertex
100
AcDb2dVertex
 10
607.1232048867795
 20
952.2950502483604
 30
0.0
  0
VERTEX
  5
2C1
330
249
100
AcDbEntity
  8
Make2D$可见线$普通线
100
AcDbVertex
100
AcDb2dVertex
 10
607.1231589209256
 20
952.2947973380487
 30
0.0
  0
VERTEX
  5
2C2
330
249
100
AcDbEntity
  8
Make2D$可见线$普通线
100
AcDbVertex
100
AcDb2dVertex
 10
607.1231226812744
 20
952.2945444067382
 30
0.0
  0
VERTEX
  5
2C3
330
249
100
AcDbEntity
  8
Make2D$可见线$普通线
100
AcDbVertex
100
AcDb2dVertex
 10
607.1230961686873
 20
952.2942914543173
 30
0.0
  0
VERTEX
  5
2C4
330
249
100
AcDbEntity
  8
Make2D$可见线$普通线
100
AcDbVertex
100
AcDb2dVertex
 10
607.1230793840255
 20
952.2940384806752
 30
0.0
  0
VERTEX
  5
2C5
330
249
100
AcDbEntity
  8
Make2D$可见线$普通线
100
AcDbVertex
100
AcDb2dVertex
 10
607.1230757588747
 20
951.6530619427461
 30
0.0
  0
SEQEND
  5
2C6
330
249
100
AcDbEntity
  8
Make2D$可见线$普通线
  0
POLYLINE
  5
2C7
330
1F
100
AcDbEntity
  8
Make2D$可见线$普通线
100
AcDb2dPolyline
 66
     1
 10
0.0
 20
0.0
 30
0.0
  0
VERTEX
  5
2C8
330
2C7
100
AcDbEntity
  8
Make2D$可见线$普通线
100
AcDbVertex
100
AcDb2dVertex
 10
627.9456164229731
 20
954.8216605682544
 30
0.0
  0
VERTEX
  5
2C9
330
2C7
100
AcDbEntity
  8
Make2D$可见线$普通线
100
AcDbVertex
100
AcDb2dVertex
 10
628.122272632036
 20
954.7987318945135
 30
0.0
 42
-0.1868770858024894
  0
VERTEX
  5
2CA
330
2C7
100
AcDbEntity
  8
Make2D$可见线$普通线
100
AcDbVertex
100
AcDb2dVertex
 10
628.2383313015935
 20
954.7599069580307
 30
0.0
 42
-0.2382632824788298
  0
VERTEX
  5
2CB
330
2C7
100
AcDbEntity
  8
Make2D$可见线$普通线
100
AcDbVertex
100
AcDb2dVertex
 10
628.1886698591487
 20
954.7345099991644
 30
0.0
 42
-0.0334036303496028
  0
VERTEX
  5
2CC
330
2C7
100
AcDbEntity
  8
Make2D$可见线$普通线
100
AcDbVertex
100
AcDb2dVertex
 10
627.6252393663261
 20
954.6702893156998
 30
0.0
  0
VERTEX
  5
2CD
330
2C7
100
AcDbEntity
  8
Make2D$可见线$普通线
100
AcDbVertex
100
AcDb2dVertex
 10
626.4660096894203
 20
954.6060791359573
 30
0.0
  0
VERTEX
  5
2CE
330
2C7
100
AcDbEntity
  8
Make2D$可见线$普通线
100
AcDbVertex
100
AcDb2dVertex
 10
624.7801482865334
 20
954.5418605202976
 30
0.0
  0
VERTEX
  5
2CF
330
2C7
100
AcDbEntity
  8
Make2D$可见线$普通线
100
AcDbVertex
100
AcDb2dVertex
 10
620.2581090855507
 20
954.4134140962096
 30
0.0
  0
VERTEX
  5
2D0
330
2C7
100
AcDbEntity
  8
Make2D$可见线$普通线
100
AcDbVertex
100
AcDb2dVertex
 10
617.6930765619427
 20
954.3491917951745
 30
0.0
  0
VERTEX
  5
2D1
330
2C7
100
AcDbEntity
  8
Make2D$可见线$普通线
100
AcDbVertex
100
AcDb2dVertex
 10
617.6807035302342
 20
954.3488851493967
 30
0.0
  0
VERTEX
  5
2D2
330
2C7
100
AcDbEntity
  8
Make2D$可见线$普通线
100
AcDbVertex
100
AcDb2dVertex
 10
612.7148778840268
 20
954.2207599199393
 30
0.0
  0
VERTEX
  5
2D3
330
2C7
100
AcDbEntity
  8
Make2D$可见线$普通线
100
AcDbVertex
100
AcDb2dVertex
 10
610.2153333398625
 20
954.1433975296912
 30
0.0
  0
VERTEX
  5
2D4
330
2C7
100
AcDbEntity
  8
Make2D$可见线$普通线
100
AcDbVertex
100
AcDb2dVertex
 10
608.9090540718774
 20
954.0923174329549
 30
0.0
  0
VERTEX
  5
2D5
330
2C7
100
AcDbEntity
  8
Make2D$可见线$普通线
100
AcDbVertex
100
AcDb2dVertex
 10
607.7443909136872
 20
954.0281083092898
 30
0.0
 42
0.0326455546289983
  0
VERTEX
  5
2D6
330
2C7
100
AcDbEntity
  8
Make2D$可见线$普通线
100
AcDbVertex
100
AcDb2dVertex
 10
607.175165884313
 20
953.9639008799782
 30
0.0
  0
VERTEX
  5
2D7
330
2C7
100
AcDbEntity
  8
Make2D$可见线$普通线
100
AcDbVertex
100
AcDb2dVertex
 10
607.1230757588746
 20
953.9379157195208
 30
0.0
  0
VERTEX
  5
2D8
330
2C7
100
AcDbEntity
  8
Make2D$可见线$普通线
100
AcDbVertex
100
AcDb2dVertex
 10
607.1230757588747
 20
953.287527720046
 30
0.0
  0
SEQEND
  5
2D9
330
2C7
100
AcDbEntity
  8
Make2D$可见线$普通线
  0
POLYLINE
  5
2DA
330
1F
100
AcDbEntity
  8
Make2D$可见线$普通线
100
AcDb2dPolyline
 66
     1
 10
0.0
 20
0.0
 30
0.0
  0
VERTEX
  5
2DB
330
2DA
100
AcDbEntity
  8
Make2D$可见线$普通线
100
AcDbVertex
100
AcDb2dVertex
 10
607.4014811799015
 20
953.9929315195496
 30
0.0
 42
0.5947444308871492
  0
VERTEX
  5
2DC
330
2DA
100
AcDbEntity
  8
Make2D$可见线$普通线
100
AcDbVertex
100
AcDb2dVertex
 10
607.4499734973515
 20
954.8509532106964
 30
0.0
  0
VERTEX
  5
2DD
330
2DA
100
AcDbEntity
  8
Make2D$可见线$普通线
100
AcDbVertex
100
AcDb2dVertex
 10
607.4188373537136
 20
954.8694385037779
 30
0.0
  0
VERTEX
  5
2DE
330
2DA
100
AcDbEntity
  8
Make2D$可见线$普通线
100
AcDbVertex
100
AcDb2dVertex
 10
607.2392105569055
 20
954.8926682133774
 30
0.0
 42
-0.1868687718661129
  0
VERTEX
  5
2DF
330
2DA
100
AcDbEntity
  8
Make2D$可见线$普通线
100
AcDbVertex
100
AcDb2dVertex
 10
607.1230757588747
 20
954.9314972357497
 30
0.0
 42
-0.2382747581574523
  0
VERTEX
  5
2E0
330
2DA
100
AcDbEntity
  8
Make2D$可见线$普通线
100
AcDbVertex
100
AcDb2dVertex
 10
607.1727397290562
 20
954.9569035092825
 30
0.0
 42
-0.0334195083928076
  0
VERTEX
  5
2E1
330
2DA
100
AcDbEntity
  8
Make2D$可见线$普通线
100
AcDbVertex
100
AcDb2dVertex
 10
607.7360547342003
 20
955.0211152143886
 30
0.0
  0
VERTEX
  5
2E2
330
2DA
100
AcDbEntity
  8
Make2D$可见线$普通线
100
AcDbVertex
100
AcDb2dVertex
 10
608.8953070558756
 20
955.0853296927999
 30
0.0
  0
VERTEX
  5
2E3
330
2DA
100
AcDbEntity
  8
Make2D$可见线$普通线
100
AcDbVertex
100
AcDb2dVertex
 10
610.5816027819942
 20
955.1495638526958
 30
0.0
  0
VERTEX
  5
2E4
330
2DA
100
AcDbEntity
  8
Make2D$可见线$普通线
100
AcDbVertex
100
AcDb2dVertex
 10
615.1031676449819
 20
955.2779954362567
 30
0.0
  0
VERTEX
  5
2E5
330
2DA
100
AcDbEntity
  8
Make2D$可见线$普通线
100
AcDbVertex
100
AcDb2dVertex
 10
617.6683304985255
 20
955.3422210669272
 30
0.0
  0
VERTEX
  5
2E6
330
2DA
100
AcDbEntity
  8
Make2D$可见线$普通线
100
AcDbVertex
100
AcDb2dVertex
 10
617.6807035302342
 20
955.3425277116548
 30
0.0
  0
VERTEX
  5
2E7
330
2DA
100
AcDbEntity
  8
Make2D$可见线$普通线
100
AcDbVertex
100
AcDb2dVertex
 10
622.6464541838285
 20
955.4706508348528
 30
0.0
  0
VERTEX
  5
2E8
330
2DA
100
AcDbEntity
  8
Make2D$可见线$普通线
100
AcDbVertex
100
AcDb2dVertex
 10
625.1460737206058
 20
955.5480175598559
 30
0.0
  0
VERTEX
  5
2E9
330
2DA
100
AcDbEntity
  8
Make2D$可见线$普通线
100
AcDbVertex
100
AcDb2dVertex
 10
626.4522623562051
 20
955.5990913904377
 30
0.0
  0
VERTEX
  5
2EA
330
2DA
100
AcDbEntity
  8
Make2D$可见线$普通线
100
AcDbVertex
100
AcDb2dVertex
 10
627.6169024446734
 20
955.6632962112657
 30
0.0
 42
0.0326607952144349
  0
VERTEX
  5
2EB
330
2DA
100
AcDbEntity
  8
Make2D$可见线$普通线
100
AcDbVertex
100
AcDb2dVertex
 10
628.1862437647463
 20
955.7275126290068
 30
0.0
  0
VERTEX
  5
2EC
330
2DA
100
AcDbEntity
  8
Make2D$可见线$普通线
100
AcDbVertex
100
AcDb2dVertex
 10
628.2383313015936
 20
955.7535054558947
 30
0.0
  0
VERTEX
  5
2ED
330
2DA
100
AcDbEntity
  8
Make2D$可见线$普通线
100
AcDbVertex
100
AcDb2dVertex
 10
628.2383313015937
 20
956.403887049892
 30
0.0
 42
-0.1427936817389053
  0
VERTEX
  5
2EE
330
2DA
100
AcDbEntity
  8
Make2D$可见线$普通线
100
AcDbVertex
100
AcDb2dVertex
 10
628.007207113407
 20
956.3490786041924
 30
0.0
  0
SEQEND
  5
2EF
330
2DA
100
AcDbEntity
  8
Make2D$可见线$普通线
  0
POLYLINE
  5
2F0
330
1F
100
AcDbEntity
  8
Make2D$可见线$普通线
100
AcDb2dPolyline
 66
     1
 10
0.0
 20
0.0
 30
0.0
  0
VERTEX
  5
2F1
330
2F0
100
AcDbEntity
  8
Make2D$可见线$普通线
100
AcDbVertex
100
AcDb2dVertex
 10
510.6749898447745
 20
1006.026860447491
 30
0.0
  0
VERTEX
  5
2F2
330
2F0
100
AcDbEntity
  8
Make2D$可见线$普通线
100
AcDbVertex
100
AcDb2dVertex
 10
509.6807064562169
 20
1005.032577058934
 30
0.0
  0
VERTEX
  5
2F3
330
2F0
100
AcDbEntity
  8
Make2D$可见线$普通线
100
AcDbVertex
100
AcDb2dVertex
 10
509.6807064562169
 20
984.0325770589336
 30
0.0
  0
VERTEX
  5
2F4
330
2F0
100
AcDbEntity
  8
Make2D$可见线$普通线
100
AcDbVertex
100
AcDb2dVertex
 10
510.6749898447744
 20
983.038293670376
 30
0.0
  0
SEQEND
  5
2F5
330
2F0
100
AcDbEntity
  8
Make2D$可见线$普通线
  0
POLYLINE
  5
2F6
330
1F
100
AcDbEntity
  8
Make2D$可见线$普通线
100
AcDb2dPolyline
 66
     1
 10
0.0
 20
0.0
 30
0.0
  0
VERTEX
  5
2F7
330
2F6
100
AcDbEntity
  8
Make2D$可见线$普通线
100
AcDbVertex
100
AcDb2dVertex
 10
525.5466397952493
 20
1007.861355958792
 30
0.0
 42
-0.3874270088645649
  0
VERTEX
  5
2F8
330
2F6
100
AcDbEntity
  8
Make2D$可见线$普通线
100
AcDbVertex
100
AcDb2dVertex
 10
523.5546974562751
 20
1006.036085136788
 30
0.0
  0
VERTEX
  5
2F9
330
2F6
100
AcDbEntity
  8
Make2D$可见线$普通线
100
AcDbVertex
100
AcDb2dVertex
 10
510.6807064562169
 20
1006.032577058934
 30
0.0
  0
VERTEX
  5
2FA
330
2F6
100
AcDbEntity
  8
Make2D$可见线$普通线
100
AcDbVertex
100
AcDb2dVertex
 10
510.6807064562169
 20
983.0325770589336
 30
0.0
  0
VERTEX
  5
2FB
330
2F6
100
AcDbEntity
  8
Make2D$可见线$普通线
100
AcDbVertex
100
AcDb2dVertex
 10
523.5546974562751
 20
983.0290689799668
 30
0.0
 42
-0.3874270086352488
  0
VERTEX
  5
2FC
330
2F6
100
AcDbEntity
  8
Make2D$可见线$普通线
100
AcDbVertex
100
AcDb2dVertex
 10
525.5466397952492
 20
981.203798156498
 30
0.0
  0
SEQEND
  5
2FD
330
2F6
100
AcDbEntity
  8
Make2D$可见线$普通线
  0
POLYLINE
  5
2FE
330
1F
100
AcDbEntity
  8
Make2D$可见线$普通线
100
AcDb2dPolyline
 66
     1
 10
0.0
 20
0.0
 30
0.0
  0
VERTEX
  5
2FF
330
2FE
100
AcDbEntity
  8
Make2D$可见线$普通线
100
AcDbVertex
100
AcDb2dVertex
 10
628.2383240516734
 20
956.4041917787237
 30
0.0
 42
-0.0236471505931412
  0
VERTEX
  5
300
330
2FE
100
AcDbEntity
  8
Make2D$可见线$普通线
100
AcDbVertex
100
AcDb2dVertex
 10
628.2383313015936
 20
957.3973743480219
 30
0.0
  0
VERTEX
  5
301
330
2FE
100
AcDbEntity
  8
Make2D$可见线$普通线
100
AcDbVertex
100
AcDb2dVertex
 10
628.2383313015936
 20
957.7415525804399
 30
0.0
  0
VERTEX
  5
302
330
2FE
100
AcDbEntity
  8
Make2D$可见线$普通线
100
AcDbVertex
100
AcDb2dVertex
 10
607.1230757588746
 20
957.7415525804398
 30
0.0
  0
VERTEX
  5
303
330
2FE
100
AcDbEntity
  8
Make2D$可见线$普通线
100
AcDbVertex
100
AcDb2dVertex
 10
607.1230757588746
 20
956.5755175596298
 30
0.0
  0
SEQEND
  5
304
330
2FE
100
AcDbEntity
  8
Make2D$可见线$普通线
  0
POLYLINE
  5
305
330
1F
100
AcDbEntity
  8
Make2D$可见线$普通线
100
AcDb2dPolyline
 66
     1
 10
0.0
 20
0.0
 30
0.0
  0
VERTEX
  5
306
330
305
100
AcDbEntity
  8
Make2D$可见线$普通线
100
AcDbVertex
100
AcDb2dVertex
 10
556.5546974562751
 20
964.0325227251312
 30
0.0
  0
VERTEX
  5
307
330
305
100
AcDbEntity
  8
Make2D$可见线$普通线
100
AcDbVertex
100
AcDb2dVertex
 10
527.5546974562751
 20
964.0325227251315
 30
0.0
 42
-0.414237546263613
  0
VERTEX
  5
308
330
305
100
AcDbEntity
  8
Make2D$可见线$普通线
100
AcDbVertex
100
AcDb2dVertex
 10
525.5546974562752
 20
966.0325444586445
 30
0.0
  0
VERTEX
  5
309
330
305
100
AcDbEntity
  8
Make2D$可见线$普通线
100
AcDbVertex
100
AcDb2dVertex
 10
525.5546974562754
 20
1023.032609659223
 30
0.0
 42
-0.4142374918196399
  0
VERTEX
  5
30A
330
305
100
AcDbEntity
  8
Make2D$可见线$普通线
100
AcDbVertex
100
AcDb2dVertex
 10
527.5546974562751
 20
1025.032631392736
 30
0.0
  0
VERTEX
  5
30B
330
305
100
AcDbEntity
  8
Make2D$可见线$普通线
100
AcDbVertex
100
AcDb2dVertex
 10
556.5546974562751
 20
1025.032631392736
 30
0.0
 42
-0.4142374989790358
  0
VERTEX
  5
30C
330
305
100
AcDbEntity
  8
Make2D$可见线$普通线
100
AcDbVertex
100
AcDb2dVertex
 10
558.5546974562752
 20
1023.032609659223
 30
0.0
  0
VERTEX
  5
30D
330
305
100
AcDbEntity
  8
Make2D$可见线$普通线
100
AcDbVertex
100
AcDb2dVertex
 10
558.554697456275
 20
966.0325444586445
 30
0.0
 42
-0.4142374989758305
  0
VERTEX
  5
30E
330
305
100
AcDbEntity
  8
Make2D$可见线$普通线
100
AcDbVertex
100
AcDb2dVertex
 10
556.5546974562751
 20
964.0325227251313
 30
0.0
  0
SEQEND
  5
30F
330
305
100
AcDbEntity
  8
Make2D$可见线$普通线
  0
POLYLINE
  5
310
330
1F
100
AcDbEntity
  8
Make2D$可见线$普通线
100
AcDb2dPolyline
 66
     1
 10
0.0
 20
0.0
 30
0.0
  0
VERTEX
  5
311
330
310
100
AcDbEntity
  8
Make2D$可见线$普通线
100
AcDbVertex
100
AcDb2dVertex
 10
607.1840411023447
 20
950.678033283453
 30
0.0
  0
VERTEX
  5
312
330
310
100
AcDbEntity
  8
Make2D$可见线$普通线
100
AcDbVertex
100
AcDb2dVertex
 10
607.2391344284324
 20
950.6887319112903
 30
0.0
  0
VERTEX
  5
313
330
310
100
AcDbEntity
  8
Make2D$可见线$普通线
100
AcDbVertex
100
AcDb2dVertex
 10
607.4116643496538
 20
950.7103312706879
 30
0.0
  0
VERTEX
  5
314
330
310
100
AcDbEntity
  8
Make2D$可见线$普通线
100
AcDbVertex
100
AcDb2dVertex
 10
607.5846557725718
 20
950.7282442776408
 30
0.0
  0
VERTEX
  5
315
330
310
100
AcDbEntity
  8
Make2D$可见线$普通线
100
AcDbVertex
100
AcDb2dVertex
 10
607.7579904062574
 20
950.7424574048961
 30
0.0
  0
VERTEX
  5
316
330
310
100
AcDbEntity
  8
Make2D$可见线$普通线
100
AcDbVertex
100
AcDb2dVertex
 10
609.2079444529079
 20
950.8171683277855
 30
0.0
  0
VERTEX
  5
317
330
310
100
AcDbEntity
  8
Make2D$可见线$普通线
100
AcDbVertex
100
AcDb2dVertex
 10
610.9928362261883
 20
950.8814008925607
 30
0.0
  0
VERTEX
  5
318
330
310
100
AcDbEntity
  8
Make2D$可见线$普通线
100
AcDbVertex
100
AcDb2dVertex
 10
615.6328268197416
 20
951.0098174455376
 30
0.0
  0
VERTEX
  5
319
330
310
100
AcDbEntity
  8
Make2D$可见线$普通线
100
AcDbVertex
100
AcDb2dVertex
 10
623.1188047137359
 20
951.202467829206
 30
0.0
  0
VERTEX
  5
31A
330
310
100
AcDbEntity
  8
Make2D$可见线$普通线
100
AcDbVertex
100
AcDb2dVertex
 10
625.1548176484936
 20
951.2666918077581
 30
0.0
  0
VERTEX
  5
31B
330
310
100
AcDbEntity
  8
Make2D$可见线$普通线
100
AcDbVertex
100
AcDb2dVertex
 10
626.7426963355754
 20
951.3309141087922
 30
0.0
  0
VERTEX
  5
31C
330
310
100
AcDbEntity
  8
Make2D$可见线$普通线
100
AcDbVertex
100
AcDb2dVertex
 10
627.7872539426695
 20
951.3951273608482
 30
0.0
 42
0.0581472172580413
  0
VERTEX
  5
31D
330
310
100
AcDbEntity
  8
Make2D$可见线$普通线
100
AcDbVertex
100
AcDb2dVertex
 10
628.2262277881257
 20
951.4593605328804
 30
0.0
  0
VERTEX
  5
31E
330
310
100
AcDbEntity
  8
Make2D$可见线$普通线
100
AcDbVertex
100
AcDb2dVertex
 10
628.2383313015936
 20
951.4718949972385
 30
0.0
  0
VERTEX
  5
31F
330
310
100
AcDbEntity
  8
Make2D$可见线$普通线
100
AcDbVertex
100
AcDb2dVertex
 10
628.2383313015936
 20
950.8214972525291
 30
0.0
 42
-0.1868687718617781
  0
VERTEX
  5
320
330
310
100
AcDbEntity
  8
Make2D$可见线$普通线
100
AcDbVertex
100
AcDb2dVertex
 10
628.1221965035628
 20
950.7826682301541
 30
0.0
 42
-0.0167642341836281
  0
VERTEX
  5
321
330
310
100
AcDbEntity
  8
Make2D$可见线$普通线
100
AcDbVertex
100
AcDb2dVertex
 10
626.4580996326534
 20
950.6673379135532
 30
0.0
  0
VERTEX
  5
322
330
310
100
AcDbEntity
  8
Make2D$可见线$普通线
100
AcDbVertex
100
AcDb2dVertex
 10
607.146498877835
 20
950.6673379135531
 30
0.0
  0
VERTEX
  5
323
330
310
100
AcDbEntity
  8
Make2D$可见线$普通线
100
AcDbVertex
100
AcDb2dVertex
 10
607.14237584135
 20
950.6480378310777
 30
0.0
  0
VERTEX
  5
324
330
310
100
AcDbEntity
  8
Make2D$可见线$普通线
100
AcDbVertex
100
AcDb2dVertex
 10
608.1144649263889
 20
949.680706456217
 30
0.0
  0
VERTEX
  5
325
330
310
100
AcDbEntity
  8
Make2D$可见线$普通线
100
AcDbVertex
100
AcDb2dVertex
 10
627.2516998442571
 20
949.680706456217
 30
0.0
  0
VERTEX
  5
326
330
310
100
AcDbEntity
  8
Make2D$可见线$普通线
100
AcDbVertex
100
AcDb2dVertex
 10
627.714437684525
 20
950.1434442964849
 30
0.0
  0
VERTEX
  5
327
330
310
100
AcDbEntity
  8
Make2D$可见线$普通线
100
AcDbVertex
100
AcDb2dVertex
 10
627.7143936753072
 20
950.1434019405167
 30
0.0
  0
VERTEX
  5
328
330
310
100
AcDbEntity
  8
Make2D$可见线$普通线
100
AcDbVertex
100
AcDb2dVertex
 10
627.714346392411
 20
950.143359617281
 30
0.0
  0
VERTEX
  5
329
330
310
100
AcDbEntity
  8
Make2D$可见线$普通线
100
AcDbVertex
100
AcDb2dVertex
 10
627.7142958359017
 20
950.1433173267103
 30
0.0
  0
VERTEX
  5
32A
330
310
100
AcDbEntity
  8
Make2D$可见线$普通线
100
AcDbVertex
100
AcDb2dVertex
 10
627.7142420058441
 20
950.1432750687368
 30
0.0
  0
VERTEX
  5
32B
330
310
100
AcDbEntity
  8
Make2D$可见线$普通线
100
AcDbVertex
100
AcDb2dVertex
 10
627.7141849023034
 20
950.1432328432927
 30
0.0
  0
VERTEX
  5
32C
330
310
100
AcDbEntity
  8
Make2D$可见线$普通线
100
AcDbVertex
100
AcDb2dVertex
 10
627.7141245253448
 20
950.1431906503107
 30
0.0
  0
VERTEX
  5
32D
330
310
100
AcDbEntity
  8
Make2D$可见线$普通线
100
AcDbVertex
100
AcDb2dVertex
 10
627.7140608750333
 20
950.1431484897228
 30
0.0
  0
VERTEX
  5
32E
330
310
100
AcDbEntity
  8
Make2D$可见线$普通线
100
AcDbVertex
100
AcDb2dVertex
 10
627.7139939514341
 20
950.1431063614616
 30
0.0
  0
VERTEX
  5
32F
330
310
100
AcDbEntity
  8
Make2D$可见线$普通线
100
AcDbVertex
100
AcDb2dVertex
 10
627.7139237546121
 20
950.1430642654593
 30
0.0
  0
VERTEX
  5
330
330
310
100
AcDbEntity
  8
Make2D$可见线$普通线
100
AcDbVertex
100
AcDb2dVertex
 10
627.7138502846326
 20
950.1430222016484
 30
0.0
  0
VERTEX
  5
331
330
310
100
AcDbEntity
  8
Make2D$可见线$普通线
100
AcDbVertex
100
AcDb2dVertex
 10
627.7137735415606
 20
950.1429801699611
 30
0.0
  0
VERTEX
  5
332
330
310
100
AcDbEntity
  8
Make2D$可见线$普通线
100
AcDbVertex
100
AcDb2dVertex
 10
627.7136935254613
 20
950.1429381703298
 30
0.0
  0
VERTEX
  5
333
330
310
100
AcDbEntity
  8
Make2D$可见线$普通线
100
AcDbVertex
100
AcDb2dVertex
 10
627.7135236744407
 20
950.1428542669646
 30
0.0
  0
VERTEX
  5
334
330
310
100
AcDbEntity
  8
Make2D$可见线$普通线
100
AcDbVertex
100
AcDb2dVertex
 10
627.7133407320919
 20
950.1427704910117
 30
0.0
  0
VERTEX
  5
335
330
310
100
AcDbEntity
  8
Make2D$可见线$普通线
100
AcDbVertex
100
AcDb2dVertex
 10
627.7131446989354
 20
950.1426868419296
 30
0.0
  0
VERTEX
  5
336
330
310
100
AcDbEntity
  8
Make2D$可见线$普通线
100
AcDbVertex
100
AcDb2dVertex
 10
627.712935575492
 20
950.1426033191774
 30
0.0
  0
VERTEX
  5
337
330
310
100
AcDbEntity
  8
Make2D$可见线$普通线
100
AcDbVertex
100
AcDb2dVertex
 10
627.7127133622827
 20
950.1425199222138
 30
0.0
  0
VERTEX
  5
338
330
310
100
AcDbEntity
  8
Make2D$可见线$普通线
100
AcDbVertex
100
AcDb2dVertex
 10
627.712478059828
 20
950.1424366504974
 30
0.0
  0
VERTEX
  5
339
330
310
100
AcDbEntity
  8
Make2D$可见线$普通线
100
AcDbVertex
100
AcDb2dVertex
 10
627.7119681892659
 20
950.142270480642
 30
0.0
  0
VERTEX
  5
33A
330
310
100
AcDbEntity
  8
Make2D$可见线$普通线
100
AcDbVertex
100
AcDb2dVertex
 10
627.711405967972
 20
950.1421048052812
 30
0.0
  0
VERTEX
  5
33B
330
310
100
AcDbEntity
  8
Make2D$可见线$普通线
100
AcDbVertex
100
AcDb2dVertex
 10
627.7107914001123
 20
950.1419396200856
 30
0.0
  0
VERTEX
  5
33C
330
310
100
AcDbEntity
  8
Make2D$可见线$普通线
100
AcDbVertex
100
AcDb2dVertex
 10
627.7101244898531
 20
950.1417749207254
 30
0.0
  0
VERTEX
  5
33D
330
310
100
AcDbEntity
  8
Make2D$可见线$普通线
100
AcDbVertex
100
AcDb2dVertex
 10
627.7086336588009
 20
950.1414469621923
 30
0.0
  0
VERTEX
  5
33E
330
310
100
AcDbEntity
  8
Make2D$可见线$普通线
100
AcDbVertex
100
AcDb2dVertex
 10
627.7069335081446
 20
950.1411208950443
 30
0.0
  0
VERTEX
  5
33F
330
310
100
AcDbEntity
  8
Make2D$可见线$普通线
100
AcDbVertex
100
AcDb2dVertex
 10
627.7050240712138
 20
950.1407966846439
 30
0.0
  0
VERTEX
  5
340
330
310
100
AcDbEntity
  8
Make2D$可见线$普通线
100
AcDbVertex
100
AcDb2dVertex
 10
627.7005774718459
 20
950.1401536955349
 30
0.0
  0
VERTEX
  5
341
330
310
100
AcDbEntity
  8
Make2D$可见线$普通线
100
AcDbVertex
100
AcDb2dVertex
 10
627.6952941273325
 20
950.1395177177643
 30
0.0
  0
VERTEX
  5
342
330
310
100
AcDbEntity
  8
Make2D$可见线$普通线
100
AcDbVertex
100
AcDb2dVertex
 10
627.6822182694111
 20
950.1382656878341
 30
0.0
  0
VERTEX
  5
343
330
310
100
AcDbEntity
  8
Make2D$可见线$普通线
100
AcDbVertex
100
AcDb2dVertex
 10
627.6460373437775
 20
950.1358335715868
 30
0.0
  0
VERTEX
  5
344
330
310
100
AcDbEntity
  8
Make2D$可见线$普通线
100
AcDbVertex
100
AcDb2dVertex
 10
627.5964983589729
 20
950.1334826014337
 30
0.0
  0
VERTEX
  5
345
330
310
100
AcDbEntity
  8
Make2D$可见线$普通线
100
AcDbVertex
100
AcDb2dVertex
 10
626.3125570403658
 20
950.1145737586221
 30
0.0
  0
VERTEX
  5
346
330
310
100
AcDbEntity
  8
Make2D$可见线$普通线
100
AcDbVertex
100
AcDb2dVertex
 10
624.0242368695003
 20
950.1098628945814
 30
0.0
  0
VERTEX
  5
347
330
310
100
AcDbEntity
  8
Make2D$可见线$普通线
100
AcDbVertex
100
AcDb2dVertex
 10
620.7981958761919
 20
950.1267992373528
 30
0.0
  0
VERTEX
  5
348
330
310
100
AcDbEntity
  8
Make2D$可见线$普通线
100
AcDbVertex
100
AcDb2dVertex
 10
618.6433717878839
 20
950.1622212600759
 30
0.0
  0
VERTEX
  5
349
330
310
100
AcDbEntity
  8
Make2D$可见线$普通线
100
AcDbVertex
100
AcDb2dVertex
 10
617.6807035302342
 20
950.1988111445892
 30
0.0
  0
VERTEX
  5
34A
330
310
100
AcDbEntity
  8
Make2D$可见线$普通线
100
AcDbVertex
100
AcDb2dVertex
 10
617.4339504364077
 20
950.2170415160577
 30
0.0
  0
VERTEX
  5
34B
330
310
100
AcDbEntity
  8
Make2D$可见线$普通线
100
AcDbVertex
100
AcDb2dVertex
 10
617.3519690442868
 20
950.226385854259
 30
0.0
  0
VERTEX
  5
34C
330
310
100
AcDbEntity
  8
Make2D$可见线$普通线
100
AcDbVertex
100
AcDb2dVertex
 10
617.3314570695001
 20
950.2292052298778
 30
0.0
  0
VERTEX
  5
34D
330
310
100
AcDbEntity
  8
Make2D$可见线$普通线
100
AcDbVertex
100
AcDb2dVertex
 10
617.3110272427259
 20
950.232431538155
 30
0.0
  0
VERTEX
  5
34E
330
310
100
AcDbEntity
  8
Make2D$可见线$普通线
100
AcDbVertex
100
AcDb2dVertex
 10
617.3008642108048
 20
950.2342649195195
 30
0.0
  0
VERTEX
  5
34F
330
310
100
AcDbEntity
  8
Make2D$可见线$普通线
100
AcDbVertex
100
AcDb2dVertex
 10
617.2907470070397
 20
950.2362811870237
 30
0.0
  0
VERTEX
  5
350
330
310
100
AcDbEntity
  8
Make2D$可见线$普通线
100
AcDbVertex
100
AcDb2dVertex
 10
617.2806840618157
 20
950.2385073916591
 30
0.0
  0
VERTEX
  5
351
330
310
100
AcDbEntity
  8
Make2D$可见线$普通线
100
AcDbVertex
100
AcDb2dVertex
 10
617.2706838055167
 20
950.2409705844171
 30
0.0
  0
VERTEX
  5
352
330
310
100
AcDbEntity
  8
Make2D$可见线$普通线
100
AcDbVertex
100
AcDb2dVertex
 10
617.2656874820776
 20
950.2423356264657
 30
0.0
  0
VERTEX
  5
353
330
310
100
AcDbEntity
  8
Make2D$可见线$普通线
100
AcDbVertex
100
AcDb2dVertex
 10
617.2632036826186
 20
950.2430984626559
 30
0.0
  0
VERTEX
  5
354
330
310
100
AcDbEntity
  8
Make2D$可见线$普通线
100
AcDbVertex
100
AcDb2dVertex
 10
617.2619667076888
 20
950.2435096369177
 30
0.0
  0
VERTEX
  5
355
330
310
100
AcDbEntity
  8
Make2D$可见线$普通线
100
AcDbVertex
100
AcDb2dVertex
 10
617.2607335242387
 20
950.243944335243
 30
0.0
  0
VERTEX
  5
356
330
310
100
AcDbEntity
  8
Make2D$可见线$普通线
100
AcDbVertex
100
AcDb2dVertex
 10
617.2595045134783
 20
950.2444053225961
 30
0.0
  0
VERTEX
  5
357
330
310
100
AcDbEntity
  8
Make2D$可见线$普通线
100
AcDbVertex
100
AcDb2dVertex
 10
617.2582800566173
 20
950.2448953639414
 30
0.0
  0
VERTEX
  5
358
330
310
100
AcDbEntity
  8
Make2D$可见线$普通线
100
AcDbVertex
100
AcDb2dVertex
 10
617.2570605348657
 20
950.245417224243
 30
0.0
  0
VERTEX
  5
359
330
310
100
AcDbEntity
  8
Make2D$可见线$普通线
100
AcDbVertex
100
AcDb2dVertex
 10
617.2558463294333
 20
950.2459736684657
 30
0.0
  0
VERTEX
  5
35A
330
310
100
AcDbEntity
  8
Make2D$可见线$普通线
100
AcDbVertex
100
AcDb2dVertex
 10
617.2546378215303
 20
950.2465674615734
 30
0.0
  0
VERTEX
  5
35B
330
310
100
AcDbEntity
  8
Make2D$可见线$普通线
100
AcDbVertex
100
AcDb2dVertex
 10
617.2534353923662
 20
950.2472013685306
 30
0.0
  0
VERTEX
  5
35C
330
310
100
AcDbEntity
  8
Make2D$可见线$普通线
100
AcDbVertex
100
AcDb2dVertex
 10
617.252239423151
 20
950.2478781543015
 30
0.0
  0
VERTEX
  5
35D
330
310
100
AcDbEntity
  8
Make2D$可见线$普通线
100
AcDbVertex
100
AcDb2dVertex
 10
617.2510502950947
 20
950.2486005838504
 30
0.0
  0
VERTEX
  5
35E
330
310
100
AcDbEntity
  8
Make2D$可见线$普通线
100
AcDbVertex
100
AcDb2dVertex
 10
617.2504173634234
 20
950.2490068730697
 30
0.0
  0
VERTEX
  5
35F
330
310
100
AcDbEntity
  8
Make2D$可见线$普通线
100
AcDbVertex
100
AcDb2dVertex
 10
617.2497911073231
 20
950.2494262363912
 30
0.0
  0
VERTEX
  5
360
330
310
100
AcDbEntity
  8
Make2D$可见线$普通线
100
AcDbVertex
100
AcDb2dVertex
 10
617.2491761322158
 20
950.2498578725105
 30
0.0
  0
VERTEX
  5
361
330
310
100
AcDbEntity
  8
Make2D$可见线$普通线
100
AcDbVertex
100
AcDb2dVertex
 10
617.2485770435237
 20
950.2503009801228
 30
0.0
  0
VERTEX
  5
362
330
310
100
AcDbEntity
  8
Make2D$可见线$普通线
100
AcDbVertex
100
AcDb2dVertex
 10
617.2479984466688
 20
950.2507547579237
 30
0.0
  0
VERTEX
  5
363
330
310
100
AcDbEntity
  8
Make2D$可见线$普通线
100
AcDbVertex
100
AcDb2dVertex
 10
617.2474449470731
 20
950.2512184046082
 30
0.0
  0
VERTEX
  5
364
330
310
100
AcDbEntity
  8
Make2D$可见线$普通线
100
AcDbVertex
100
AcDb2dVertex
 10
617.2471790479418
 20
950.2514536783742
 30
0.0
  0
VERTEX
  5
365
330
310
100
AcDbEntity
  8
Make2D$可见线$普通线
100
AcDbVertex
100
AcDb2dVertex
 10
617.2469211501588
 20
950.2516911188718
 30
0.0
  0
VERTEX
  5
366
330
310
100
AcDbEntity
  8
Make2D$可见线$普通线
100
AcDbVertex
100
AcDb2dVertex
 10
617.2466718294015
 20
950.251930625938
 30
0.0
  0
VERTEX
  5
367
330
310
100
AcDbEntity
  8
Make2D$可见线$普通线
100
AcDbVertex
100
AcDb2dVertex
 10
617.2464316613477
 20
950.2521720994098
 30
0.0
  0
VERTEX
  5
368
330
310
100
AcDbEntity
  8
Make2D$可见线$普通线
100
AcDbVertex
100
AcDb2dVertex
 10
617.2462012216754
 20
950.252415439124
 30
0.0
  0
VERTEX
  5
369
330
310
100
AcDbEntity
  8
Make2D$可见线$普通线
100
AcDbVertex
100
AcDb2dVertex
 10
617.2459810860623
 20
950.2526605449177
 30
0.0
  0
VERTEX
  5
36A
330
310
100
AcDbEntity
  8
Make2D$可见线$普通线
100
AcDbVertex
100
AcDb2dVertex
 10
617.245771830186
 20
950.2529073166278
 30
0.0
  0
VERTEX
  5
36B
330
310
100
AcDbEntity
  8
Make2D$可见线$普通线
100
AcDbVertex
100
AcDb2dVertex
 10
617.2455740297244
 20
950.253155654091
 30
0.0
  0
VERTEX
  5
36C
330
310
100
AcDbEntity
  8
Make2D$可见线$普通线
100
AcDbVertex
100
AcDb2dVertex
 10
617.2453882603551
 20
950.2534054571443
 30
0.0
  0
VERTEX
  5
36D
330
310
100
AcDbEntity
  8
Make2D$可见线$普通线
100
AcDbVertex
100
AcDb2dVertex
 10
617.2453000672294
 20
950.2535308769662
 30
0.0
  0
VERTEX
  5
36E
330
310
100
AcDbEntity
  8
Make2D$可见线$普通线
100
AcDbVertex
100
AcDb2dVertex
 10
617.2452150977559
 20
950.2536566256247
 30
0.0
  0
VERTEX
  5
36F
330
310
100
AcDbEntity
  8
Make2D$可见线$普通线
100
AcDbVertex
100
AcDb2dVertex
 10
617.2451334238945
 20
950.253782690599
 30
0.0
  0
VERTEX
  5
370
330
310
100
AcDbEntity
  8
Make2D$可见线$普通线
100
AcDbVertex
100
AcDb2dVertex
 10
617.2450551176048
 20
950.253909059369
 30
0.0
  0
VERTEX
  5
371
330
310
100
AcDbEntity
  8
Make2D$可见线$普通线
100
AcDbVertex
100
AcDb2dVertex
 10
617.2449802508464
 20
950.2540357194142
 30
0.0
  0
VERTEX
  5
372
330
310
100
AcDbEntity
  8
Make2D$可见线$普通线
100
AcDbVertex
100
AcDb2dVertex
 10
617.2449088955793
 20
950.2541626582141
 30
0.0
  0
VERTEX
  5
373
330
310
100
AcDbEntity
  8
Make2D$可见线$普通线
100
AcDbVertex
100
AcDb2dVertex
 10
617.244841123763
 20
950.2542898632486
 30
0.0
  0
VERTEX
  5
374
330
310
100
AcDbEntity
  8
Make2D$可见线$普通线
100
AcDbVertex
100
AcDb2dVertex
 10
617.2447770073572
 20
950.2544173219972
 30
0.0
  0
VERTEX
  5
375
330
310
100
AcDbEntity
  8
Make2D$可见线$普通线
100
AcDbVertex
100
AcDb2dVertex
 10
617.2447166183217
 20
950.2545450219394
 30
0.0
  0
VERTEX
  5
376
330
310
100
AcDbEntity
  8
Make2D$可见线$普通线
100
AcDbVertex
100
AcDb2dVertex
 10
617.2446600286164
 20
950.254672950555
 30
0.0
  0
VERTEX
  5
377
330
310
100
AcDbEntity
  8
Make2D$可见线$普通线
100
AcDbVertex
100
AcDb2dVertex
 10
617.2446073102006
 20
950.2548010953234
 30
0.0
  0
VERTEX
  5
378
330
310
100
AcDbEntity
  8
Make2D$可见线$普通线
100
AcDbVertex
100
AcDb2dVertex
 10
617.2445585350345
 20
950.2549294437244
 30
0.0
  0
VERTEX
  5
379
330
310
100
AcDbEntity
  8
Make2D$可见线$普通线
100
AcDbVertex
100
AcDb2dVertex
 10
617.2445137750774
 20
950.2550579832375
 30
0.0
  0
VERTEX
  5
37A
330
310
100
AcDbEntity
  8
Make2D$可见线$普通线
100
AcDbVertex
100
AcDb2dVertex
 10
617.2444731022892
 20
950.2551867013424
 30
0.0
  0
VERTEX
  5
37B
330
310
100
AcDbEntity
  8
Make2D$可见线$普通线
100
AcDbVertex
100
AcDb2dVertex
 10
617.2444365886297
 20
950.2553155855187
 30
0.0
  0
VERTEX
  5
37C
330
310
100
AcDbEntity
  8
Make2D$可见线$普通线
100
AcDbVertex
100
AcDb2dVertex
 10
617.2444043060584
 20
950.2554446232459
 30
0.0
  0
VERTEX
  5
37D
330
310
100
AcDbEntity
  8
Make2D$可见线$普通线
100
AcDbVertex
100
AcDb2dVertex
 10
617.2443763265352
 20
950.2555738020037
 30
0.0
  0
VERTEX
  5
37E
330
310
100
AcDbEntity
  8
Make2D$可见线$普通线
100
AcDbVertex
100
AcDb2dVertex
 10
617.2443527220198
 20
950.2557031092717
 30
0.0
  0
VERTEX
  5
37F
330
310
100
AcDbEntity
  8
Make2D$可见线$普通线
100
AcDbVertex
100
AcDb2dVertex
 10
617.2443335644721
 20
950.2558325325297
 30
0.0
  0
VERTEX
  5
380
330
310
100
AcDbEntity
  8
Make2D$可见线$普通线
100
AcDbVertex
100
AcDb2dVertex
 10
617.2443189258513
 20
950.2559620592571
 30
0.0
  0
VERTEX
  5
381
330
310
100
AcDbEntity
  8
Make2D$可见线$普通线
100
AcDbVertex
100
AcDb2dVertex
 10
617.2443133236261
 20
950.2560268575091
 30
0.0
  0
VERTEX
  5
382
330
310
100
AcDbEntity
  8
Make2D$可见线$普通线
100
AcDbVertex
100
AcDb2dVertex
 10
617.2443088781176
 20
950.2560916769335
 30
0.0
  0
VERTEX
  5
383
330
310
100
AcDbEntity
  8
Make2D$可见线$普通线
100
AcDbVertex
100
AcDb2dVertex
 10
617.2443055983206
 20
950.2561565159649
 30
0.0
  0
VERTEX
  5
384
330
310
100
AcDbEntity
  8
Make2D$可见线$普通线
100
AcDbVertex
100
AcDb2dVertex
 10
617.2443034932304
 20
950.2562213730386
 30
0.0
  0
VERTEX
  5
385
330
310
100
AcDbEntity
  8
Make2D$可见线$普通线
100
AcDbVertex
100
AcDb2dVertex
 10
617.2443025520965
 20
950.2562898488164
 30
0.0
  0
VERTEX
  5
386
330
310
100
AcDbEntity
  8
Make2D$可见线$普通线
100
AcDbVertex
100
AcDb2dVertex
 10
617.2443029196008
 20
950.2563583411965
 30
0.0
  0
VERTEX
  5
387
330
310
100
AcDbEntity
  8
Make2D$可见线$普通线
100
AcDbVertex
100
AcDb2dVertex
 10
617.2443045855944
 20
950.2564268484234
 30
0.0
  0
VERTEX
  5
388
330
310
100
AcDbEntity
  8
Make2D$可见线$普通线
100
AcDbVertex
100
AcDb2dVertex
 10
617.2443075399277
 20
950.2564953687418
 30
0.0
  0
VERTEX
  5
389
330
310
100
AcDbEntity
  8
Make2D$可见线$普通线
100
AcDbVertex
100
AcDb2dVertex
 10
617.2443117724515
 20
950.2565639003965
 30
0.0
  0
VERTEX
  5
38A
330
310
100
AcDbEntity
  8
Make2D$可见线$普通线
100
AcDbVertex
100
AcDb2dVertex
 10
617.2443172730161
 20
950.2566324416323
 30
0.0
  0
VERTEX
  5
38B
330
310
100
AcDbEntity
  8
Make2D$可见线$普通线
100
AcDbVertex
100
AcDb2dVertex
 10
617.2443240314726
 20
950.2567009906937
 30
0.0
  0
VERTEX
  5
38C
330
310
100
AcDbEntity
  8
Make2D$可见线$普通线
100
AcDbVertex
100
AcDb2dVertex
 10
617.2443320376715
 20
950.2567695458257
 30
0.0
  0
VERTEX
  5
38D
330
310
100
AcDbEntity
  8
Make2D$可见线$普通线
100
AcDbVertex
100
AcDb2dVertex
 10
617.2443412814633
 20
950.2568381052728
 30
0.0
  0
VERTEX
  5
38E
330
310
100
AcDbEntity
  8
Make2D$可见线$普通线
100
AcDbVertex
100
AcDb2dVertex
 10
617.2443517526988
 20
950.2569066672795
 30
0.0
  0
VERTEX
  5
38F
330
310
100
AcDbEntity
  8
Make2D$可见线$普通线
100
AcDbVertex
100
AcDb2dVertex
 10
617.2443763369029
 20
950.2570437919513
 30
0.0
  0
VERTEX
  5
390
330
310
100
AcDbEntity
  8
Make2D$可见线$普通线
100
AcDbVertex
100
AcDb2dVertex
 10
617.2444057090893
 20
950.2571809057989
 30
0.0
  0
VERTEX
  5
391
330
310
100
AcDbEntity
  8
Make2D$可见线$普通线
100
AcDbVertex
100
AcDb2dVertex
 10
617.2444397880631
 20
950.2573179947799
 30
0.0
  0
VERTEX
  5
392
330
310
100
AcDbEntity
  8
Make2D$可见线$普通线
100
AcDbVertex
100
AcDb2dVertex
 10
617.2444784926292
 20
950.2574550448519
 30
0.0
  0
VERTEX
  5
393
330
310
100
AcDbEntity
  8
Make2D$可见线$普通线
100
AcDbVertex
100
AcDb2dVertex
 10
617.2445217415928
 20
950.2575920419727
 30
0.0
  0
VERTEX
  5
394
330
310
100
AcDbEntity
  8
Make2D$可见线$普通线
100
AcDbVertex
100
AcDb2dVertex
 10
617.2445694537591
 20
950.2577289720997
 30
0.0
  0
VERTEX
  5
395
330
310
100
AcDbEntity
  8
Make2D$可见线$普通线
100
AcDbVertex
100
AcDb2dVertex
 10
617.2446215479333
 20
950.2578658211908
 30
0.0
  0
VERTEX
  5
396
330
310
100
AcDbEntity
  8
Make2D$可见线$普通线
100
AcDbVertex
100
AcDb2dVertex
 10
617.2446779429204
 20
950.2580025752035
 30
0.0
  0
VERTEX
  5
397
330
310
100
AcDbEntity
  8
Make2D$可见线$普通线
100
AcDbVertex
100
AcDb2dVertex
 10
617.2447385575255
 20
950.2581392200954
 30
0.0
  0
VERTEX
  5
398
330
310
100
AcDbEntity
  8
Make2D$可见线$普通线
100
AcDbVertex
100
AcDb2dVertex
 10
617.2448033105536
 20
950.2582757418241
 30
0.0
  0
VERTEX
  5
399
330
310
100
AcDbEntity
  8
Make2D$可见线$普通线
100
AcDbVertex
100
AcDb2dVertex
 10
617.2448721208103
 20
950.2584121263475
 30
0.0
  0
VERTEX
  5
39A
330
310
100
AcDbEntity
  8
Make2D$可见线$普通线
100
AcDbVertex
100
AcDb2dVertex
 10
617.2449449071005
 20
950.258548359623
 30
0.0
  0
VERTEX
  5
39B
330
310
100
AcDbEntity
  8
Make2D$可见线$普通线
100
AcDbVertex
100
AcDb2dVertex
 10
617.245021588229
 20
950.2586844276084
 30
0.0
  0
VERTEX
  5
39C
330
310
100
AcDbEntity
  8
Make2D$可见线$普通线
100
AcDbVertex
100
AcDb2dVertex
 10
617.2451020830013
 20
950.2588203162613
 30
0.0
  0
VERTEX
  5
39D
330
310
100
AcDbEntity
  8
Make2D$可见线$普通线
100
AcDbVertex
100
AcDb2dVertex
 10
617.2451863102222
 20
950.2589560115393
 30
0.0
  0
VERTEX
  5
39E
330
310
100
AcDbEntity
  8
Make2D$可见线$普通线
100
AcDbVertex
100
AcDb2dVertex
 10
617.2452741886971
 20
950.2590914994001
 30
0.0
  0
VERTEX
  5
39F
330
310
100
AcDbEntity
  8
Make2D$可见线$普通线
100
AcDbVertex
100
AcDb2dVertex
 10
617.2453656372311
 20
950.2592267658015
 30
0.0
  0
VERTEX
  5
3A0
330
310
100
AcDbEntity
  8
Make2D$可见线$普通线
100
AcDbVertex
100
AcDb2dVertex
 10
617.2454605746293
 20
950.2593617967009
 30
0.0
  0
VERTEX
  5
3A1
330
310
100
AcDbEntity
  8
Make2D$可见线$普通线
100
AcDbVertex
100
AcDb2dVertex
 10
617.2455589196968
 20
950.2594965780559
 30
0.0
  0
VERTEX
  5
3A2
330
310
100
AcDbEntity
  8
Make2D$可见线$普通线
100
AcDbVertex
100
AcDb2dVertex
 10
617.2457655080602
 20
950.2597653359636
 30
0.0
  0
VERTEX
  5
3A3
330
310
100
AcDbEntity
  8
Make2D$可见线$普通线
100
AcDbVertex
100
AcDb2dVertex
 10
617.2459847527623
 20
950.2600329271861
 30
0.0
  0
VERTEX
  5
3A4
330
310
100
AcDbEntity
  8
Make2D$可见线$普通线
100
AcDbVertex
100
AcDb2dVertex
 10
617.2462160042442
 20
950.2602992393845
 30
0.0
  0
VERTEX
  5
3A5
330
310
100
AcDbEntity
  8
Make2D$可见线$普通线
100
AcDbVertex
100
AcDb2dVertex
 10
617.2464586129468
 20
950.2605641602197
 30
0.0
  0
VERTEX
  5
3A6
330
310
100
AcDbEntity
  8
Make2D$可见线$普通线
100
AcDbVertex
100
AcDb2dVertex
 10
617.2467119293111
 20
950.2608275773531
 30
0.0
  0
VERTEX
  5
3A7
330
310
100
AcDbEntity
  8
Make2D$可见线$普通线
100
AcDbVertex
100
AcDb2dVertex
 10
617.2469753037783
 20
950.2610893784456
 30
0.0
  0
VERTEX
  5
3A8
330
310
100
AcDbEntity
  8
Make2D$可见线$普通线
100
AcDbVertex
100
AcDb2dVertex
 10
617.2472480867892
 20
950.2613494511586
 30
0.0
  0
VERTEX
  5
3A9
330
310
100
AcDbEntity
  8
Make2D$可见线$普通线
100
AcDbVertex
100
AcDb2dVertex
 10
617.247529628785
 20
950.2616076831533
 30
0.0
  0
VERTEX
  5
3AA
330
310
100
AcDbEntity
  8
Make2D$可见线$普通线
100
AcDbVertex
100
AcDb2dVertex
 10
617.2481163914948
 20
950.262118175632
 30
0.0
  0
VERTEX
  5
3AB
330
310
100
AcDbEntity
  8
Make2D$可见线$普通线
100
AcDbVertex
100
AcDb2dVertex
 10
617.2487303954358
 20
950.2626199571713
 30
0.0
  0
VERTEX
  5
3AC
330
310
100
AcDbEntity
  8
Make2D$可见线$普通线
100
AcDbVertex
100
AcDb2dVertex
 10
617.2493664441361
 20
950.2631121290603
 30
0.0
  0
VERTEX
  5
3AD
330
310
100
AcDbEntity
  8
Make2D$可见线$普通线
100
AcDbVertex
100
AcDb2dVertex
 10
617.2500193411236
 20
950.2635937925883
 30
0.0
  0
VERTEX
  5
3AE
330
310
100
AcDbEntity
  8
Make2D$可见线$普通线
100
AcDbVertex
100
AcDb2dVertex
 10
617.2513548940728
 20
950.2645219997187
 30
0.0
  0
VERTEX
  5
3AF
330
310
100
AcDbEntity
  8
Make2D$可见线$普通线
100
AcDbVertex
100
AcDb2dVertex
 10
617.2522178924908
 20
950.2650899652766
 30
0.0
  0
VERTEX
  5
3B0
330
310
100
AcDbEntity
  8
Make2D$可见线$普通线
100
AcDbVertex
100
AcDb2dVertex
 10
617.2530829126792
 20
950.2656368812173
 30
0.0
  0
VERTEX
  5
3B1
330
310
100
AcDbEntity
  8
Make2D$可见线$普通线
100
AcDbVertex
100
AcDb2dVertex
 10
617.2539499082509
 20
950.2661633911415
 30
0.0
  0
VERTEX
  5
3B2
330
310
100
AcDbEntity
  8
Make2D$可见线$普通线
100
AcDbVertex
100
AcDb2dVertex
 10
617.2548188328188
 20
950.2666701386495
 30
0.0
  0
VERTEX
  5
3B3
330
310
100
AcDbEntity
  8
Make2D$可见线$普通线
100
AcDbVertex
100
AcDb2dVertex
 10
617.2565622833944
 20
950.26762692082
 30
0.0
  0
VERTEX
  5
3B4
330
310
100
AcDbEntity
  8
Make2D$可见线$普通线
100
AcDbVertex
100
AcDb2dVertex
 10
617.2583128933084
 20
950.2685123765342
 30
0.0
  0
VERTEX
  5
3B5
330
310
100
AcDbEntity
  8
Make2D$可见线$普通线
100
AcDbVertex
100
AcDb2dVertex
 10
617.2600702914633
 20
950.2693316545971
 30
0.0
  0
VERTEX
  5
3B6
330
310
100
AcDbEntity
  8
Make2D$可见线$普通线
100
AcDbVertex
100
AcDb2dVertex
 10
617.2618341067617
 20
950.2700899038136
 30
0.0
  0
VERTEX
  5
3B7
330
310
100
AcDbEntity
  8
Make2D$可见线$普通线
100
AcDbVertex
100
AcDb2dVertex
 10
617.2636039681063
 20
950.2707922729894
 30
0.0
  0
VERTEX
  5
3B8
330
310
100
AcDbEntity
  8
Make2D$可见线$普通线
100
AcDbVertex
100
AcDb2dVertex
 10
617.2653795043994
 20
950.2714439109291
 30
0.0
  0
VERTEX
  5
3B9
330
310
100
AcDbEntity
  8
Make2D$可见线$普通线
100
AcDbVertex
100
AcDb2dVertex
 10
617.2671603445438
 20
950.2720499664381
 30
0.0
  0
VERTEX
  5
3BA
330
310
100
AcDbEntity
  8
Make2D$可见线$普通线
100
AcDbVertex
100
AcDb2dVertex
 10
617.2689461174418
 20
950.2726155883214
 30
0.0
  0
VERTEX
  5
3BB
330
310
100
AcDbEntity
  8
Make2D$可见线$普通线
100
AcDbVertex
100
AcDb2dVertex
 10
617.2725309771092
 20
950.2736461264317
 30
0.0
  0
VERTEX
  5
3BC
330
310
100
AcDbEntity
  8
Make2D$可见线$普通线
100
AcDbVertex
100
AcDb2dVertex
 10
617.2797435612013
 20
950.2754485465703
 30
0.0
  0
VERTEX
  5
3BD
330
310
100
AcDbEntity
  8
Make2D$可见线$普通线
100
AcDbVertex
100
AcDb2dVertex
 10
617.2997543977585
 20
950.2799016022161
 30
0.0
  0
VERTEX
  5
3BE
330
310
100
AcDbEntity
  8
Make2D$可见线$普通线
100
AcDbVertex
100
AcDb2dVertex
 10
617.3199812710824
 20
950.2839029465958
 30
0.0
  0
VERTEX
  5
3BF
330
310
100
AcDbEntity
  8
Make2D$可见线$普通线
100
AcDbVertex
100
AcDb2dVertex
 10
617.3608189244069
 20
950.2908659488426
 30
0.0
  0
VERTEX
  5
3C0
330
310
100
AcDbEntity
  8
Make2D$可见线$普通线
100
AcDbVertex
100
AcDb2dVertex
 10
617.4405490217638
 20
950.3018873692727
 30
0.0
  0
VERTEX
  5
3C1
330
310
100
AcDbEntity
  8
Make2D$可见线$普通线
100
AcDbVertex
100
AcDb2dVertex
 10
617.6807035302342
 20
950.3247412522646
 30
0.0
 42
-0.0078396438350249
  0
VERTEX
  5
3C2
330
310
100
AcDbEntity
  8
Make2D$可见线$普通线
100
AcDbVertex
100
AcDb2dVertex
 10
622.827257781296
 20
950.5445780165037
 30
0.0
  0
VERTEX
  5
3C3
330
310
100
AcDbEntity
  8
Make2D$可见线$普通线
100
AcDbVertex
100
AcDb2dVertex
 10
624.4995690477381
 20
950.5989166660156
 30
0.0
  0
VERTEX
  5
3C4
330
310
100
AcDbEntity
  8
Make2D$可见线$普通线
100
AcDbVertex
100
AcDb2dVertex
 10
624.7253265613307
 20
950.6063893004352
 30
0.0
  0
VERTEX
  5
3C5
330
310
100
AcDbEntity
  8
Make2D$可见线$普通线
100
AcDbVertex
100
AcDb2dVertex
 10
626.2378672893485
 20
950.6589712560724
 30
0.0
  0
SEQEND
  5
3C6
330
310
100
AcDbEntity
  8
Make2D$可见线$普通线
  0
POLYLINE
  5
3C7
330
1F
100
AcDbEntity
  8
Make2D$可见线$普通线
100
AcDb2dPolyline
 66
     1
 10
0.0
 20
0.0
 30
0.0
  0
VERTEX
  5
3C8
330
3C7
100
AcDbEntity
  8
Make2D$可见线$普通线
100
AcDbVertex
100
AcDb2dVertex
 10
594.6725385074453
 20
975.7068704607789
 30
0.0
 42
0.3890577809817481
  0
VERTEX
  5
3C9
330
3C7
100
AcDbEntity
  8
Make2D$可见线$普通线
100
AcDbVertex
100
AcDb2dVertex
 10
592.680706456217
 20
977.5325541294137
 30
0.0
  0
VERTEX
  5
3CA
330
3C7
100
AcDbEntity
  8
Make2D$可见线$普通线
100
AcDbVertex
100
AcDb2dVertex
 10
580.6807064562169
 20
977.5325770589334
 30
0.0
 42
-0.4142134636169701
  0
VERTEX
  5
3CB
330
3C7
100
AcDbEntity
  8
Make2D$可见线$普通线
100
AcDbVertex
100
AcDb2dVertex
 10
578.680706456217
 20
979.5325770589336
 30
0.0
  0
VERTEX
  5
3CC
330
3C7
100
AcDbEntity
  8
Make2D$可见线$普通线
100
AcDbVertex
100
AcDb2dVertex
 10
578.6807064562167
 20
1009.532577058934
 30
0.0
 42
-0.4142135623730392
  0
VERTEX
  5
3CD
330
3C7
100
AcDbEntity
  8
Make2D$可见线$普通线
100
AcDbVertex
100
AcDb2dVertex
 10
580.6807064562163
 20
1011.532577058934
 30
0.0
  0
VERTEX
  5
3CE
330
3C7
100
AcDbEntity
  8
Make2D$可见线$普通线
100
AcDbVertex
100
AcDb2dVertex
 10
592.6807064562169
 20
1011.532599988454
 30
0.0
 42
0.4050384845914865
  0
VERTEX
  5
3CF
330
3C7
100
AcDbEntity
  8
Make2D$可见线$普通线
100
AcDbVertex
100
AcDb2dVertex
 10
594.6736225107413
 20
1013.456143191977
 30
0.0
  0
SEQEND
  5
3D0
330
3C7
100
AcDbEntity
  8
Make2D$可见线$普通线
  0
POLYLINE
  5
3D1
330
1F
100
AcDbEntity
  8
Make2D$可见线$普通线
100
AcDb2dPolyline
 66
     1
 10
0.0
 20
0.0
 30
0.0
  0
VERTEX
  5
3D2
330
3D1
100
AcDbEntity
  8
Make2D$可见线$普通线
100
AcDbVertex
100
AcDb2dVertex
 10
558.5632929412841
 20
1013.396795805622
 30
0.0
 42
0.3957357589766131
  0
VERTEX
  5
3D3
330
3D1
100
AcDbEntity
  8
Make2D$可见线$普通线
100
AcDbVertex
100
AcDb2dVertex
 10
560.5546974562751
 20
1011.532761793865
 30
0.0
  0
VERTEX
  5
3D4
330
3D1
100
AcDbEntity
  8
Make2D$可见线$普通线
100
AcDbVertex
100
AcDb2dVertex
 10
567.6807064562169
 20
1011.529639692644
 30
0.0
  0
VERTEX
  5
3D5
330
3D1
100
AcDbEntity
  8
Make2D$可见线$普通线
100
AcDbVertex
100
AcDb2dVertex
 10
567.6807064562169
 20
1010.032577058934
 30
0.0
  0
VERTEX
  5
3D6
330
3D1
100
AcDbEntity
  8
Make2D$可见线$普通线
100
AcDbVertex
100
AcDb2dVertex
 10
575.7209152669992
 20
1010.032511759409
 30
0.0
 42
-0.4141989783151652
  0
VERTEX
  5
3D7
330
3D1
100
AcDbEntity
  8
Make2D$可见线$普通线
100
AcDbVertex
100
AcDb2dVertex
 10
577.720915266999
 20
1008.032577058955
 30
0.0
  0
VERTEX
  5
3D8
330
3D1
100
AcDbEntity
  8
Make2D$可见线$普通线
100
AcDbVertex
100
AcDb2dVertex
 10
577.7209152669992
 20
1001.106185622853
 30
0.0
  0
SEQEND
  5
3D9
330
3D1
100
AcDbEntity
  8
Make2D$可见线$普通线
  0
POLYLINE
  5
3DA
330
1F
100
AcDbEntity
  8
Make2D$可见线$普通线
100
AcDb2dPolyline
 66
     1
 10
0.0
 20
0.0
 30
0.0
  0
VERTEX
  5
3DB
330
3DA
100
AcDbEntity
  8
Make2D$可见线$普通线
100
AcDbVertex
100
AcDb2dVertex
 10
575.7209152669992
 20
1001.514638115446
 30
0.0
  0
VERTEX
  5
3DC
330
3DA
100
AcDbEntity
  8
Make2D$可见线$普通线
100
AcDbVertex
100
AcDb2dVertex
 10
567.6807064562169
 20
1001.514697080818
 30
0.0
  0
VERTEX
  5
3DD
330
3DA
100
AcDbEntity
  8
Make2D$可见线$普通线
100
AcDbVertex
100
AcDb2dVertex
 10
567.6807064562169
 20
987.5504570370491
 30
0.0
  0
VERTEX
  5
3DE
330
3DA
100
AcDbEntity
  8
Make2D$可见线$普通线
100
AcDbVertex
100
AcDb2dVertex
 10
575.7209152669992
 20
987.5505160024207
 30
0.0
  0
VERTEX
  5
3DF
330
3DA
100
AcDbEntity
  8
Make2D$可见线$普通线
100
AcDbVertex
100
AcDb2dVertex
 10
576.0797031499644
 20
987.5589799612272
 30
0.0
  0
VERTEX
  5
3E0
330
3DA
100
AcDbEntity
  8
Make2D$可见线$普通线
100
AcDbVertex
100
AcDb2dVertex
 10
576.2590585463684
 20
987.56758851006
 30
0.0
  0
VERTEX
  5
3E1
330
3DA
100
AcDbEntity
  8
Make2D$可见线$普通线
100
AcDbVertex
100
AcDb2dVertex
 10
576.4381446203838
 20
987.5800431331925
 30
0.0
  0
VERTEX
  5
3E2
330
3DA
100
AcDbEntity
  8
Make2D$可见线$普通线
100
AcDbVertex
100
AcDb2dVertex
 10
576.6167786527591
 20
987.5970401016348
 30
0.0
  0
VERTEX
  5
3E3
330
3DA
100
AcDbEntity
  8
Make2D$可见线$普通线
100
AcDbVertex
100
AcDb2dVertex
 10
576.7947779242422
 20
987.6192756863968
 30
0.0
  0
VERTEX
  5
3E4
330
3DA
100
AcDbEntity
  8
Make2D$可见线$普通线
100
AcDbVertex
100
AcDb2dVertex
 10
576.8834824248831
 20
987.6325755445883
 30
0.0
  0
VERTEX
  5
3E5
330
3DA
100
AcDbEntity
  8
Make2D$可见线$普通线
100
AcDbVertex
100
AcDb2dVertex
 10
576.9719597155814
 20
987.6474461584886
 30
0.0
  0
VERTEX
  5
3E6
330
3DA
100
AcDbEntity
  8
Make2D$可见线$普通线
100
AcDbVertex
100
AcDb2dVertex
 10
577.0601869564309
 20
987.663974561974
 30
0.0
  0
VERTEX
  5
3E7
330
3DA
100
AcDbEntity
  8
Make2D$可见线$普通线
100
AcDbVertex
100
AcDb2dVertex
 10
577.1481413075248
 20
987.6822477889203
 30
0.0
  0
VERTEX
  5
3E8
330
3DA
100
AcDbEntity
  8
Make2D$可见线$普通线
100
AcDbVertex
100
AcDb2dVertex
 10
577.2031193096768
 20
987.6946780367534
 30
0.0
  0
VERTEX
  5
3E9
330
3DA
100
AcDbEntity
  8
Make2D$可见线$普通线
100
AcDbVertex
100
AcDb2dVertex
 10
577.2578430985592
 20
987.7081116006241
 30
0.0
  0
VERTEX
  5
3EA
330
3DA
100
AcDbEntity
  8
Make2D$可见线$普通线
100
AcDbVertex
100
AcDb2dVertex
 10
577.3121747295659
 20
987.7228315860797
 30
0.0
  0
VERTEX
  5
3EB
330
3DA
100
AcDbEntity
  8
Make2D$可见线$普通线
100
AcDbVertex
100
AcDb2dVertex
 10
577.3659762580913
 20
987.7391210986677
 30
0.0
  0
VERTEX
  5
3EC
330
3DA
100
AcDbEntity
  8
Make2D$可见线$普通线
100
AcDbVertex
100
AcDb2dVertex
 10
577.3926351262342
 20
987.7479428981198
 30
0.0
  0
VERTEX
  5
3ED
330
3DA
100
AcDbEntity
  8
Make2D$可见线$普通线
100
AcDbVertex
100
AcDb2dVertex
 10
577.4191097395294
 20
987.7572632439354
 30
0.0
  0
VERTEX
  5
3EE
330
3DA
100
AcDbEntity
  8
Make2D$可见线$普通线
100
AcDbVertex
100
AcDb2dVertex
 10
577.4453828549011
 20
987.7671175243077
 30
0.0
  0
VERTEX
  5
3EF
330
3DA
100
AcDbEntity
  8
Make2D$可见线$普通线
100
AcDbVertex
100
AcDb2dVertex
 10
577.471437229274
 20
987.7775411274303
 30
0.0
  0
VERTEX
  5
3F0
330
3DA
100
AcDbEntity
  8
Make2D$可见线$普通线
100
AcDbVertex
100
AcDb2dVertex
 10
577.4972556195719
 20
987.7885694414963
 30
0.0
  0
VERTEX
  5
3F1
330
3DA
100
AcDbEntity
  8
Make2D$可见线$普通线
100
AcDbVertex
100
AcDb2dVertex
 10
577.5228207827194
 20
987.8002378546995
 30
0.0
  0
VERTEX
  5
3F2
330
3DA
100
AcDbEntity
  8
Make2D$可见线$普通线
100
AcDbVertex
100
AcDb2dVertex
 10
577.5481154756405
 20
987.8125817552332
 30
0.0
  0
VERTEX
  5
3F3
330
3DA
100
AcDbEntity
  8
Make2D$可见线$普通线
100
AcDbVertex
100
AcDb2dVertex
 10
577.5731224552596
 20
987.8256365312907
 30
0.0
  0
VERTEX
  5
3F4
330
3DA
100
AcDbEntity
  8
Make2D$可见线$普通线
100
AcDbVertex
100
AcDb2dVertex
 10
577.5881849639882
 20
987.8339607965274
 30
0.0
  0
VERTEX
  5
3F5
330
3DA
100
AcDbEntity
  8
Make2D$可见线$普通线
100
AcDbVertex
100
AcDb2dVertex
 10
577.6030403082283
 20
987.8426444143829
 30
0.0
  0
VERTEX
  5
3F6
330
3DA
100
AcDbEntity
  8
Make2D$可见线$普通线
100
AcDbVertex
100
AcDb2dVertex
 10
577.6175943748959
 20
987.8517700875436
 30
0.0
  0
VERTEX
  5
3F7
330
3DA
100
AcDbEntity
  8
Make2D$可见线$普通线
100
AcDbVertex
100
AcDb2dVertex
 10
577.6247290188012
 20
987.8565245394532
 30
0.0
  0
VERTEX
  5
3F8
330
3DA
100
AcDbEntity
  8
Make2D$可见线$普通线
100
AcDbVertex
100
AcDb2dVertex
 10
577.6317530509069
 20
987.8614205186966
 30
0.0
  0
VERTEX
  5
3F9
330
3DA
100
AcDbEntity
  8
Make2D$可见线$普通线
100
AcDbVertex
100
AcDb2dVertex
 10
577.6386547070774
 20
987.8664683631098
 30
0.0
  0
VERTEX
  5
3FA
330
3DA
100
AcDbEntity
  8
Make2D$可见线$普通线
100
AcDbVertex
100
AcDb2dVertex
 10
577.6454222231771
 20
987.8716784105286
 30
0.0
  0
VERTEX
  5
3FB
330
3DA
100
AcDbEntity
  8
Make2D$可见线$普通线
100
AcDbVertex
100
AcDb2dVertex
 10
577.6520438350706
 20
987.8770609987887
 30
0.0
  0
VERTEX
  5
3FC
330
3DA
100
AcDbEntity
  8
Make2D$可见线$普通线
100
AcDbVertex
100
AcDb2dVertex
 10
577.6585077786223
 20
987.8826264657262
 30
0.0
  0
VERTEX
  5
3FD
330
3DA
100
AcDbEntity
  8
Make2D$可见线$普通线
100
AcDbVertex
100
AcDb2dVertex
 10
577.6648022896966
 20
987.8883851491769
 30
0.0
  0
VERTEX
  5
3FE
330
3DA
100
AcDbEntity
  8
Make2D$可见线$普通线
100
AcDbVertex
100
AcDb2dVertex
 10
577.6709156041582
 20
987.8943473869765
 30
0.0
  0
VERTEX
  5
3FF
330
3DA
100
AcDbEntity
  8
Make2D$可见线$普通线
100
AcDbVertex
100
AcDb2dVertex
 10
577.6768359578714
 20
987.900523516961
 30
0.0
  0
VERTEX
  5
400
330
3DA
100
AcDbEntity
  8
Make2D$可见线$普通线
100
AcDbVertex
100
AcDb2dVertex
 10
577.679720098155
 20
987.9036950220964
 30
0.0
  0
VERTEX
  5
401
330
3DA
100
AcDbEntity
  8
Make2D$可见线$普通线
100
AcDbVertex
100
AcDb2dVertex
 10
577.6825515867007
 20
987.9069238769663
 30
0.0
  0
VERTEX
  5
402
330
3DA
100
AcDbEntity
  8
Make2D$可见线$普通线
100
AcDbVertex
100
AcDb2dVertex
 10
577.6865451066415
 20
987.9116926370605
 30
0.0
  0
VERTEX
  5
403
330
3DA
100
AcDbEntity
  8
Make2D$可见线$普通线
100
AcDbVertex
100
AcDb2dVertex
 10
577.6904080029115
 20
987.9165810434636
 30
0.0
  0
VERTEX
  5
404
330
3DA
100
AcDbEntity
  8
Make2D$可见线$普通线
100
AcDbVertex
100
AcDb2dVertex
 10
577.6941226722995
 20
987.9215862837708
 30
0.0
  0
VERTEX
  5
405
330
3DA
100
AcDbEntity
  8
Make2D$可见线$普通线
100
AcDbVertex
100
AcDb2dVertex
 10
577.6976715115945
 20
987.926705545577
 30
0.0
  0
VERTEX
  5
406
330
3DA
100
AcDbEntity
  8
Make2D$可见线$普通线
100
AcDbVertex
100
AcDb2dVertex
 10
577.6993782439536
 20
987.9293070556655
 30
0.0
  0
VERTEX
  5
407
330
3DA
100
AcDbEntity
  8
Make2D$可见线$普通线
100
AcDbVertex
100
AcDb2dVertex
 10
577.7010369175852
 20
987.931936016477
 30
0.0
  0
VERTEX
  5
408
330
3DA
100
AcDbEntity
  8
Make2D$可见线$普通线
100
AcDbVertex
100
AcDb2dVertex
 10
577.7026453320879
 20
987.9345920764607
 30
0.0
  0
VERTEX
  5
409
330
3DA
100
AcDbEntity
  8
Make2D$可见线$普通线
100
AcDbVertex
100
AcDb2dVertex
 10
577.7042012870603
 20
987.937274884066
 30
0.0
  0
VERTEX
  5
40A
330
3DA
100
AcDbEntity
  8
Make2D$可见线$普通线
100
AcDbVertex
100
AcDb2dVertex
 10
577.7057025821011
 20
987.9399840877422
 30
0.0
  0
VERTEX
  5
40B
330
3DA
100
AcDbEntity
  8
Make2D$可见线$普通线
100
AcDbVertex
100
AcDb2dVertex
 10
577.7071470168088
 20
987.9427193359388
 30
0.0
  0
VERTEX
  5
40C
330
3DA
100
AcDbEntity
  8
Make2D$可见线$普通线
100
AcDbVertex
100
AcDb2dVertex
 10
577.708532390782
 20
987.945480277105
 30
0.0
  0
VERTEX
  5
40D
330
3DA
100
AcDbEntity
  8
Make2D$可见线$普通线
100
AcDbVertex
100
AcDb2dVertex
 10
577.7098565036194
 20
987.9482665596904
 30
0.0
  0
VERTEX
  5
40E
330
3DA
100
AcDbEntity
  8
Make2D$可见线$普通线
100
AcDbVertex
100
AcDb2dVertex
 10
577.7111171549195
 20
987.9510778321442
 30
0.0
  0
VERTEX
  5
40F
330
3DA
100
AcDbEntity
  8
Make2D$可见线$普通线
100
AcDbVertex
100
AcDb2dVertex
 10
577.7123121442811
 20
987.9539137429157
 30
0.0
  0
VERTEX
  5
410
330
3DA
100
AcDbEntity
  8
Make2D$可见线$普通线
100
AcDbVertex
100
AcDb2dVertex
 10
577.7134392713025
 20
987.9567739404544
 30
0.0
  0
VERTEX
  5
411
330
3DA
100
AcDbEntity
  8
Make2D$可见线$普通线
100
AcDbVertex
100
AcDb2dVertex
 10
577.7144963355825
 20
987.9596580732095
 30
0.0
  0
VERTEX
  5
412
330
3DA
100
AcDbEntity
  8
Make2D$可见线$普通线
100
AcDbVertex
100
AcDb2dVertex
 10
577.7154811367195
 20
987.9625657896306
 30
0.0
  0
VERTEX
  5
413
330
3DA
100
AcDbEntity
  8
Make2D$可见线$普通线
100
AcDbVertex
100
AcDb2dVertex
 10
577.7163914743123
 20
987.9654967381671
 30
0.0
  0
VERTEX
  5
414
330
3DA
100
AcDbEntity
  8
Make2D$可见线$普通线
100
AcDbVertex
100
AcDb2dVertex
 10
577.7172251479597
 20
987.9684505672681
 30
0.0
  0
VERTEX
  5
415
330
3DA
100
AcDbEntity
  8
Make2D$可见线$普通线
100
AcDbVertex
100
AcDb2dVertex
 10
577.7179799572598
 20
987.9714269253831
 30
0.0
  0
VERTEX
  5
416
330
3DA
100
AcDbEntity
  8
Make2D$可见线$普通线
100
AcDbVertex
100
AcDb2dVertex
 10
577.7186537018115
 20
987.9744254609615
 30
0.0
  0
VERTEX
  5
417
330
3DA
100
AcDbEntity
  8
Make2D$可见线$普通线
100
AcDbVertex
100
AcDb2dVertex
 10
577.7192441812133
 20
987.9774458224526
 30
0.0
  0
VERTEX
  5
418
330
3DA
100
AcDbEntity
  8
Make2D$可见线$普通线
100
AcDbVertex
100
AcDb2dVertex
 10
577.7197491950637
 20
987.9804876583058
 30
0.0
  0
VERTEX
  5
419
330
3DA
100
AcDbEntity
  8
Make2D$可见线$普通线
100
AcDbVertex
100
AcDb2dVertex
 10
577.7201665429618
 20
987.9835506169704
 30
0.0
  0
VERTEX
  5
41A
330
3DA
100
AcDbEntity
  8
Make2D$可见线$普通线
100
AcDbVertex
100
AcDb2dVertex
 10
577.7204940245058
 20
987.986634346896
 30
0.0
  0
VERTEX
  5
41B
330
3DA
100
AcDbEntity
  8
Make2D$可见线$普通线
100
AcDbVertex
100
AcDb2dVertex
 10
577.7207294392942
 20
987.9897384965318
 30
0.0
  0
VERTEX
  5
41C
330
3DA
100
AcDbEntity
  8
Make2D$可见线$普通线
100
AcDbVertex
100
AcDb2dVertex
 10
577.7208705869258
 20
987.9928627143271
 30
0.0
  0
VERTEX
  5
41D
330
3DA
100
AcDbEntity
  8
Make2D$可见线$普通线
100
AcDbVertex
100
AcDb2dVertex
 10
577.7209152669992
 20
987.9960066487314
 30
0.0
  0
VERTEX
  5
41E
330
3DA
100
AcDbEntity
  8
Make2D$可见线$普通线
100
AcDbVertex
100
AcDb2dVertex
 10
577.7209152669992
 20
1001.069147469136
 30
0.0
  0
VERTEX
  5
41F
330
3DA
100
AcDbEntity
  8
Make2D$可见线$普通线
100
AcDbVertex
100
AcDb2dVertex
 10
577.7208699676157
 20
1001.072277524691
 30
0.0
  0
VERTEX
  5
420
330
3DA
100
AcDbEntity
  8
Make2D$可见线$普通线
100
AcDbVertex
100
AcDb2dVertex
 10
577.7207282867374
 20
1001.075389805602
 30
0.0
  0
VERTEX
  5
421
330
3DA
100
AcDbEntity
  8
Make2D$可见线$普通线
100
AcDbVertex
100
AcDb2dVertex
 10
577.7204924209442
 20
1001.078483873308
 30
0.0
  0
VERTEX
  5
422
330
3DA
100
AcDbEntity
  8
Make2D$可见线$普通线
100
AcDbVertex
100
AcDb2dVertex
 10
577.720164566816
 20
1001.08155928925
 30
0.0
  0
VERTEX
  5
423
330
3DA
100
AcDbEntity
  8
Make2D$可见线$普通线
100
AcDbVertex
100
AcDb2dVertex
 10
577.7197469209328
 20
1001.084615614866
 30
0.0
  0
VERTEX
  5
424
330
3DA
100
AcDbEntity
  8
Make2D$可见线$普通线
100
AcDbVertex
100
AcDb2dVertex
 10
577.7192416798746
 20
1001.087652411598
 30
0.0
  0
VERTEX
  5
425
330
3DA
100
AcDbEntity
  8
Make2D$可见线$普通线
100
AcDbVertex
100
AcDb2dVertex
 10
577.7186510402213
 20
1001.090669240884
 30
0.0
  0
VERTEX
  5
426
330
3DA
100
AcDbEntity
  8
Make2D$可见线$普通线
100
AcDbVertex
100
AcDb2dVertex
 10
577.7179771985526
 20
1001.093665664165
 30
0.0
  0
VERTEX
  5
427
330
3DA
100
AcDbEntity
  8
Make2D$可见线$普通线
100
AcDbVertex
100
AcDb2dVertex
 10
577.7172223514486
 20
1001.09664124288
 30
0.0
  0
VERTEX
  5
428
330
3DA
100
AcDbEntity
  8
Make2D$可见线$普通线
100
AcDbVertex
100
AcDb2dVertex
 10
577.7163886954894
 20
1001.099595538469
 30
0.0
  0
VERTEX
  5
429
330
3DA
100
AcDbEntity
  8
Make2D$可见线$普通线
100
AcDbVertex
100
AcDb2dVertex
 10
577.7154784272545
 20
1001.102528112373
 30
0.0
  0
VERTEX
  5
42A
330
3DA
100
AcDbEntity
  8
Make2D$可见线$普通线
100
AcDbVertex
100
AcDb2dVertex
 10
577.7144937433244
 20
1001.105438526029
 30
0.0
  0
VERTEX
  5
42B
330
3DA
100
AcDbEntity
  8
Make2D$可见线$普通线
100
AcDbVertex
100
AcDb2dVertex
 10
577.7134368402787
 20
1001.10832634088
 30
0.0
  0
VERTEX
  5
42C
330
3DA
100
AcDbEntity
  8
Make2D$可见线$普通线
100
AcDbVertex
100
AcDb2dVertex
 10
577.7123099146972
 20
1001.111191118363
 30
0.0
  0
VERTEX
  5
42D
330
3DA
100
AcDbEntity
  8
Make2D$可见线$普通线
100
AcDbVertex
100
AcDb2dVertex
 10
577.71111516316
 20
1001.11403241992
 30
0.0
  0
VERTEX
  5
42E
330
3DA
100
AcDbEntity
  8
Make2D$可见线$普通线
100
AcDbVertex
100
AcDb2dVertex
 10
577.709854782247
 20
1001.116849806989
 30
0.0
  0
VERTEX
  5
42F
330
3DA
100
AcDbEntity
  8
Make2D$可见线$普通线
100
AcDbVertex
100
AcDb2dVertex
 10
577.7085309685382
 20
1001.119642841012
 30
0.0
  0
VERTEX
  5
430
330
3DA
100
AcDbEntity
  8
Make2D$可见线$普通线
100
AcDbVertex
100
AcDb2dVertex
 10
577.7071459186136
 20
1001.122411083427
 30
0.0
  0
VERTEX
  5
431
330
3DA
100
AcDbEntity
  8
Make2D$可见线$普通线
100
AcDbVertex
100
AcDb2dVertex
 10
577.7057018290529
 20
1001.125154095674
 30
0.0
  0
VERTEX
  5
432
330
3DA
100
AcDbEntity
  8
Make2D$可见线$普通线
100
AcDbVertex
100
AcDb2dVertex
 10
577.7042008964362
 20
1001.127871439193
 30
0.0
  0
VERTEX
  5
433
330
3DA
100
AcDbEntity
  8
Make2D$可见线$普通线
100
AcDbVertex
100
AcDb2dVertex
 10
577.7026453173432
 20
1001.130562675424
 30
0.0
  0
VERTEX
  5
434
330
3DA
100
AcDbEntity
  8
Make2D$可见线$普通线
100
AcDbVertex
100
AcDb2dVertex
 10
577.7010372883543
 20
1001.133227365807
 30
0.0
  0
VERTEX
  5
435
330
3DA
100
AcDbEntity
  8
Make2D$可见线$普通线
100
AcDbVertex
100
AcDb2dVertex
 10
577.6993790060491
 20
1001.135865071781
 30
0.0
  0
VERTEX
  5
436
330
3DA
100
AcDbEntity
  8
Make2D$可见线$普通线
100
AcDbVertex
100
AcDb2dVertex
 10
577.6976726670074
 20
1001.138475354787
 30
0.0
  0
VERTEX
  5
437
330
3DA
100
AcDbEntity
  8
Make2D$可见线$普通线
100
AcDbVertex
100
AcDb2dVertex
 10
577.6941246050349
 20
1001.143611897651
 30
0.0
  0
VERTEX
  5
438
330
3DA
100
AcDbEntity
  8
Make2D$可见线$普通线
100
AcDbVertex
100
AcDb2dVertex
 10
577.6904106750765
 20
1001.148633485919
 30
0.0
  0
VERTEX
  5
439
330
3DA
100
AcDbEntity
  8
Make2D$可见线$普通线
100
AcDbVertex
100
AcDb2dVertex
 10
577.6865484497712
 20
1001.153536611107
 30
0.0
  0
VERTEX
  5
43A
330
3DA
100
AcDbEntity
  8
Make2D$可见线$普通线
100
AcDbVertex
100
AcDb2dVertex
 10
577.6825555017588
 20
1001.158317764736
 30
0.0
  0
VERTEX
  5
43B
330
3DA
100
AcDbEntity
  8
Make2D$可见线$普通线
100
AcDbVertex
100
AcDb2dVertex
 10
577.6797243370399
 20
1001.161553517301
 30
0.0
  0
VERTEX
  5
43C
330
3DA
100
AcDbEntity
  8
Make2D$可见线$普通线
100
AcDbVertex
100
AcDb2dVertex
 10
577.6768404609246
 20
1001.164730532252
 30
0.0
  0
VERTEX
  5
43D
330
3DA
100
AcDbEntity
  8
Make2D$可见线$普通线
100
AcDbVertex
100
AcDb2dVertex
 10
577.6709204661996
 20
1001.170913754014
 30
0.0
  0
VERTEX
  5
43E
330
3DA
100
AcDbEntity
  8
Make2D$可见线$普通线
100
AcDbVertex
100
AcDb2dVertex
 10
577.6648073009746
 20
1001.176878239432
 30
0.0
  0
VERTEX
  5
43F
330
3DA
100
AcDbEntity
  8
Make2D$可见线$普通线
100
AcDbVertex
100
AcDb2dVertex
 10
577.6585127486408
 20
1001.182634797916
 30
0.0
  0
VERTEX
  5
440
330
3DA
100
AcDbEntity
  8
Make2D$可见线$普通线
100
AcDbVertex
100
AcDb2dVertex
 10
577.6520485925889
 20
1001.188194238876
 30
0.0
  0
VERTEX
  5
441
330
3DA
100
AcDbEntity
  8
Make2D$可见线$普通线
100
AcDbVertex
100
AcDb2dVertex
 10
577.6454266162104
 20
1001.193567371724
 30
0.0
  0
VERTEX
  5
442
330
3DA
100
AcDbEntity
  8
Make2D$可见线$普通线
100
AcDbVertex
100
AcDb2dVertex
 10
577.6386586028962
 20
1001.198765005869
 30
0.0
  0
VERTEX
  5
443
330
3DA
100
AcDbEntity
  8
Make2D$可见线$普通线
100
AcDbVertex
100
AcDb2dVertex
 10
577.6317563360369
 20
1001.203797950722
 30
0.0
  0
VERTEX
  5
444
330
3DA
100
AcDbEntity
  8
Make2D$可见线$普通线
100
AcDbVertex
100
AcDb2dVertex
 10
577.6247315990242
 20
1001.208677015693
 30
0.0
  0
VERTEX
  5
445
330
3DA
100
AcDbEntity
  8
Make2D$可见线$普通线
100
AcDbVertex
100
AcDb2dVertex
 10
577.6175961752488
 20
1001.213413010193
 30
0.0
  0
VERTEX
  5
446
330
3DA
100
AcDbEntity
  8
Make2D$可见线$普通线
100
AcDbVertex
100
AcDb2dVertex
 10
577.6030404009738
 20
1001.222499025421
 30
0.0
  0
VERTEX
  5
447
330
3DA
100
AcDbEntity
  8
Make2D$可见线$普通线
100
AcDbVertex
100
AcDb2dVertex
 10
577.5881832803406
 20
1001.231142471691
 30
0.0
  0
VERTEX
  5
448
330
3DA
100
AcDbEntity
  8
Make2D$可见线$普通线
100
AcDbVertex
100
AcDb2dVertex
 10
577.5731190804773
 20
1001.239429824285
 30
0.0
  0
VERTEX
  5
449
330
3DA
100
AcDbEntity
  8
Make2D$可见线$普通线
100
AcDbVertex
100
AcDb2dVertex
 10
577.548109793271
 20
1001.252437906885
 30
0.0
  0
VERTEX
  5
44A
330
3DA
100
AcDbEntity
  8
Make2D$可见线$普通线
100
AcDbVertex
100
AcDb2dVertex
 10
577.522813395303
 20
1001.264752321793
 30
0.0
  0
VERTEX
  5
44B
330
3DA
100
AcDbEntity
  8
Make2D$可见线$普通线
100
AcDbVertex
100
AcDb2dVertex
 10
577.4972470866712
 20
1001.276406697444
 30
0.0
  0
VERTEX
  5
44C
330
3DA
100
AcDbEntity
  8
Make2D$可见线$普通线
100
AcDbVertex
100
AcDb2dVertex
 10
577.4714280674733
 20
1001.287434662271
 30
0.0
  0
VERTEX
  5
44D
330
3DA
100
AcDbEntity
  8
Make2D$可见线$普通线
100
AcDbVertex
100
AcDb2dVertex
 10
577.4453735378067
 20
1001.297869844709
 30
0.0
  0
VERTEX
  5
44E
330
3DA
100
AcDbEntity
  8
Make2D$可见线$普通线
100
AcDbVertex
100
AcDb2dVertex
 10
577.4191006977692
 20
1001.30774587319
 30
0.0
  0
VERTEX
  5
44F
330
3DA
100
AcDbEntity
  8
Make2D$可见线$普通线
100
AcDbVertex
100
AcDb2dVertex
 10
577.3926267474585
 20
1001.31709637615
 30
0.0
  0
VERTEX
  5
450
330
3DA
100
AcDbEntity
  8
Make2D$可见线$普通线
100
AcDbVertex
100
AcDb2dVertex
 10
577.365968886972
 20
1001.325954982021
 30
0.0
  0
VERTEX
  5
451
330
3DA
100
AcDbEntity
  8
Make2D$可见线$普通线
100
AcDbVertex
100
AcDb2dVertex
 10
577.3121702358629
 20
1001.342331016237
 30
0.0
  0
VERTEX
  5
452
330
3DA
100
AcDbEntity
  8
Make2D$可见线$普通线
100
AcDbVertex
100
AcDb2dVertex
 10
577.2578423452233
 20
1001.357143003309
 30
0.0
  0
VERTEX
  5
453
330
3DA
100
AcDbEntity
  8
Make2D$可见线$普通线
100
AcDbVertex
100
AcDb2dVertex
 10
577.2031228158341
 20
1001.370659970708
 30
0.0
  0
VERTEX
  5
454
330
3DA
100
AcDbEntity
  8
Make2D$可见线$普通线
100
AcDbVertex
100
AcDb2dVertex
 10
577.1481492484768
 20
1001.383150945906
 30
0.0
  0
VERTEX
  5
455
330
3DA
100
AcDbEntity
  8
Make2D$可见线$普通线
100
AcDbVertex
100
AcDb2dVertex
 10
577.0687711351329
 20
1001.39975310041
 30
0.0
  0
VERTEX
  5
456
330
3DA
100
AcDbEntity
  8
Make2D$可见线$普通线
100
AcDbVertex
100
AcDb2dVertex
 10
576.9891677000649
 20
1001.414866015202
 30
0.0
  0
VERTEX
  5
457
330
3DA
100
AcDbEntity
  8
Make2D$可见线$普通线
100
AcDbVertex
100
AcDb2dVertex
 10
576.8293488994027
 20
1001.440942776679
 30
0.0
  0
VERTEX
  5
458
330
3DA
100
AcDbEntity
  8
Make2D$可见线$普通线
100
AcDbVertex
100
AcDb2dVertex
 10
576.6688209157853
 20
1001.4620185324
 30
0.0
  0
VERTEX
  5
459
330
3DA
100
AcDbEntity
  8
Make2D$可见线$普通线
100
AcDbVertex
100
AcDb2dVertex
 10
576.5077118185076
 20
1001.47873058443
 30
0.0
  0
VERTEX
  5
45A
330
3DA
100
AcDbEntity
  8
Make2D$可见线$普通线
100
AcDbVertex
100
AcDb2dVertex
 10
576.3178392503828
 20
1001.493632855065
 30
0.0
  0
VERTEX
  5
45B
330
3DA
100
AcDbEntity
  8
Make2D$可见线$普通线
100
AcDbVertex
100
AcDb2dVertex
 10
576.1276818794595
 20
1001.504292977841
 30
0.0
  0
VERTEX
  5
45C
330
3DA
100
AcDbEntity
  8
Make2D$可见线$普通线
100
AcDbVertex
100
AcDb2dVertex
 10
575.9243962583935
 20
1001.511719236496
 30
0.0
  0
VERTEX
  5
45D
330
3DA
100
AcDbEntity
  8
Make2D$可见线$普通线
100
AcDbVertex
100
AcDb2dVertex
 10
575.7209152669992
 20
1001.514638115446
 30
0.0
  0
SEQEND
  5
45E
330
3DA
100
AcDbEntity
  8
Make2D$可见线$普通线
  0
POLYLINE
  5
45F
330
1F
100
AcDbEntity
  8
Make2D$可见线$普通线
100
AcDb2dPolyline
 66
     1
 10
0.0
 20
0.0
 30
0.0
  0
VERTEX
  5
460
330
45F
100
AcDbEntity
  8
Make2D$可见线$普通线
100
AcDbVertex
100
AcDb2dVertex
 10
594.6807064562169
 20
989.5325770589336
 30
0.0
  0
VERTEX
  5
461
330
45F
100
AcDbEntity
  8
Make2D$可见线$普通线
100
AcDbVertex
100
AcDb2dVertex
 10
591.680706456217
 20
989.5325227251313
 30
0.0
 42
-0.414237498978086
  0
VERTEX
  5
462
330
45F
100
AcDbEntity
  8
Make2D$可见线$普通线
100
AcDbVertex
100
AcDb2dVertex
 10
589.6807064562169
 20
991.5325444586497
 30
0.0
  0
VERTEX
  5
463
330
45F
100
AcDbEntity
  8
Make2D$可见线$普通线
100
AcDbVertex
100
AcDb2dVertex
 10
589.6807064562169
 20
997.5326422594997
 30
0.0
 42
-0.4142327203872536
  0
VERTEX
  5
464
330
45F
100
AcDbEntity
  8
Make2D$可见线$普通线
100
AcDbVertex
100
AcDb2dVertex
 10
591.6807064562169
 20
999.5326313927349
 30
0.0
  0
VERTEX
  5
465
330
45F
100
AcDbEntity
  8
Make2D$可见线$普通线
100
AcDbVertex
100
AcDb2dVertex
 10
594.6807064562169
 20
999.5325770589336
 30
0.0
  0
SEQEND
  5
466
330
45F
100
AcDbEntity
  8
Make2D$可见线$普通线
  0
POLYLINE
  5
467
330
1F
100
AcDbEntity
  8
Make2D$可见线$普通线
100
AcDb2dPolyline
 66
     1
 10
0.0
 20
0.0
 30
0.0
  0
VERTEX
  5
468
330
467
100
AcDbEntity
  8
Make2D$可见线$普通线
100
AcDbVertex
100
AcDb2dVertex
 10
627.9402584419005
 20
955.6911917533364
 30
0.0
  0
VERTEX
  5
469
330
467
100
AcDbEntity
  8
Make2D$可见线$普通线
100
AcDbVertex
100
AcDb2dVertex
 10
627.8814437147513
 20
955.6529416495755
 30
0.0
 42
0.6017290254262065
  0
VERTEX
  5
46A
330
467
100
AcDbEntity
  8
Make2D$可见线$普通线
100
AcDbVertex
100
AcDb2dVertex
 10
628.002214421813
 20
954.7990698317844
 30
0.0
  0
SEQEND
  5
46B
330
467
100
AcDbEntity
  8
Make2D$可见线$普通线
  0
POLYLINE
  5
46C
330
1F
100
AcDbEntity
  8
Make2D$可见线$普通线
100
AcDb2dPolyline
 66
     1
 10
0.0
 20
0.0
 30
0.0
  0
VERTEX
  5
46D
330
46C
100
AcDbEntity
  8
Make2D$可见线$普通线
100
AcDbVertex
100
AcDb2dVertex
 10
598.180706456217
 20
976.5325770589333
 30
0.0
  0
VERTEX
  5
46E
330
46C
100
AcDbEntity
  8
Make2D$可见线$普通线
100
AcDbVertex
100
AcDb2dVertex
 10
598.1807064562167
 20
1012.532577058934
 30
0.0
 42
-0.4142135623730847
  0
VERTEX
  5
46F
330
46C
100
AcDbEntity
  8
Make2D$可见线$普通线
100
AcDbVertex
100
AcDb2dVertex
 10
599.6807062932867
 20
1014.032577058934
 30
0.0
  0
VERTEX
  5
470
330
46C
100
AcDbEntity
  8
Make2D$可见线$普通线
100
AcDbVertex
100
AcDb2dVertex
 10
635.6858945636098
 20
1014.032594997857
 30
0.0
 42
-0.4125929572573479
  0
VERTEX
  5
471
330
46C
100
AcDbEntity
  8
Make2D$可见线$普通线
100
AcDbVertex
100
AcDb2dVertex
 10
637.1807243951403
 20
1012.537765329257
 30
0.0
  0
VERTEX
  5
472
330
46C
100
AcDbEntity
  8
Make2D$可见线$普通线
100
AcDbVertex
100
AcDb2dVertex
 10
637.18072439514
 20
976.5273887886102
 30
0.0
 42
-0.4125929572572662
  0
VERTEX
  5
473
330
46C
100
AcDbEntity
  8
Make2D$可见线$普通线
100
AcDbVertex
100
AcDb2dVertex
 10
635.6858945636098
 20
975.0325591200101
 30
0.0
  0
VERTEX
  5
474
330
46C
100
AcDbEntity
  8
Make2D$可见线$普通线
100
AcDbVertex
100
AcDb2dVertex
 10
599.6807062932861
 20
975.0325770589334
 30
0.0
 42
-0.4142135623730492
  0
VERTEX
  5
475
330
46C
100
AcDbEntity
  8
Make2D$可见线$普通线
100
AcDbVertex
100
AcDb2dVertex
 10
598.1807064562169
 20
976.5325770589325
 30
0.0
  0
SEQEND
  5
476
330
46C
100
AcDbEntity
  8
Make2D$可见线$普通线
  0
POLYLINE
  5
477
330
1F
100
AcDbEntity
  8
Make2D$可见线$普通线
100
AcDb2dPolyline
 66
     1
 10
0.0
 20
0.0
 30
0.0
  0
VERTEX
  5
478
330
477
100
AcDbEntity
  8
Make2D$可见线$普通线
100
AcDbVertex
100
AcDb2dVertex
 10
627.9360306837588
 20
957.3335303431352
 30
0.0
  0
VERTEX
  5
479
330
477
100
AcDbEntity
  8
Make2D$可见线$普通线
100
AcDbVertex
100
AcDb2dVertex
 10
627.9260820330952
 20
957.3282556670375
 30
0.0
  0
VERTEX
  5
47A
330
477
100
AcDbEntity
  8
Make2D$可见线$普通线
100
AcDbVertex
100
AcDb2dVertex
 10
627.8249243383056
 20
957.2490527564657
 30
0.0
 42
0.1849568527191826
  0
VERTEX
  5
47B
330
477
100
AcDbEntity
  8
Make2D$可见线$普通线
100
AcDbVertex
100
AcDb2dVertex
 10
627.6812746229531
 20
956.924589729966
 30
0.0
  0
SEQEND
  5
47C
330
477
100
AcDbEntity
  8
Make2D$可见线$普通线
  0
POLYLINE
  5
47D
330
1F
100
AcDbEntity
  8
Make2D$可见线$普通线
100
AcDb2dPolyline
 66
     1
 10
0.0
 20
0.0
 30
0.0
  0
VERTEX
  5
47E
330
47D
100
AcDbEntity
  8
Make2D$可见线$普通线
100
AcDbVertex
100
AcDb2dVertex
 10
613.6822832729184
 20
1013.032581045572
 30
0.0
  0
VERTEX
  5
47F
330
47D
100
AcDbEntity
  8
Make2D$可见线$普通线
100
AcDbVertex
100
AcDb2dVertex
 10
621.682283272916
 20
1013.032581045572
 30
0.0
  0
VERTEX
  5
480
330
47D
100
AcDbEntity
  8
Make2D$可见线$普通线
100
AcDbVertex
100
AcDb2dVertex
 10
621.6822832729164
 20
1013.532591397861
 30
0.0
  0
VERTEX
  5
481
330
47D
100
AcDbEntity
  8
Make2D$可见线$普通线
100
AcDbVertex
100
AcDb2dVertex
 10
635.6875571792393
 20
1013.532600525416
 30
0.0
 42
-0.4107516099547974
  0
VERTEX
  5
482
330
47D
100
AcDbEntity
  8
Make2D$可见线$普通线
100
AcDbVertex
100
AcDb2dVertex
 10
636.6807299226991
 20
1012.539427781956
 30
0.0
  0
VERTEX
  5
483
330
47D
100
AcDbEntity
  8
Make2D$可见线$普通线
100
AcDbVertex
100
AcDb2dVertex
 10
636.6807299226992
 20
976.5257263359113
 30
0.0
 42
-0.410751609955271
  0
VERTEX
  5
484
330
47D
100
AcDbEntity
  8
Make2D$可见线$普通线
100
AcDbVertex
100
AcDb2dVertex
 10
635.6875571792394
 20
975.5325535924511
 30
0.0
  0
VERTEX
  5
485
330
47D
100
AcDbEntity
  8
Make2D$可见线$普通线
100
AcDbVertex
100
AcDb2dVertex
 10
599.6807064562167
 20
975.5325770589333
 30
0.0
 42
-0.4142135623730803
  0
VERTEX
  5
486
330
47D
100
AcDbEntity
  8
Make2D$可见线$普通线
100
AcDbVertex
100
AcDb2dVertex
 10
598.6807064562171
 20
976.5325770589347
 30
0.0
  0
VERTEX
  5
487
330
47D
100
AcDbEntity
  8
Make2D$可见线$普通线
100
AcDbVertex
100
AcDb2dVertex
 10
598.680706456217
 20
1012.532577058934
 30
0.0
 42
-0.4142135623731105
  0
VERTEX
  5
488
330
47D
100
AcDbEntity
  8
Make2D$可见线$普通线
100
AcDbVertex
100
AcDb2dVertex
 10
599.6807064562165
 20
1013.532577058934
 30
0.0
  0
VERTEX
  5
489
330
47D
100
AcDbEntity
  8
Make2D$可见线$普通线
100
AcDbVertex
100
AcDb2dVertex
 10
613.6822832729185
 20
1013.532586184079
 30
0.0
  0
VERTEX
  5
48A
330
47D
100
AcDbEntity
  8
Make2D$可见线$普通线
100
AcDbVertex
100
AcDb2dVertex
 10
613.6822832729184
 20
1013.032581045572
 30
0.0
  0
SEQEND
  5
48B
330
47D
100
AcDbEntity
  8
Make2D$可见线$普通线
  0
POLYLINE
  5
48C
330
1F
100
AcDbEntity
  8
Make2D$可见线$普通线
100
AcDb2dPolyline
 66
     1
 10
0.0
 20
0.0
 30
0.0
  0
VERTEX
  5
48D
330
48C
100
AcDbEntity
  8
Make2D$可见线$普通线
100
AcDbVertex
100
AcDb2dVertex
 10
607.4187726681441
 20
955.6439658678974
 30
0.0
 42
0.5284486512493416
  0
VERTEX
  5
48E
330
48C
100
AcDbEntity
  8
Make2D$可见线$普通线
100
AcDbVertex
100
AcDb2dVertex
 10
607.5089342479882
 20
956.4521411376951
 30
0.0
  0
VERTEX
  5
48F
330
48C
100
AcDbEntity
  8
Make2D$可见线$普通线
100
AcDbVertex
100
AcDb2dVertex
 10
607.3568648720039
 20
956.5425864521594
 30
0.0
  0
SEQEND
  5
490
330
48C
100
AcDbEntity
  8
Make2D$可见线$普通线
  0
POLYLINE
  5
492
330
1F
100
AcDbEntity
  8
E9096
100
AcDb2dPolyline
 66
     1
 10
0.0
 20
0.0
 30
0.0
  0
VERTEX
  5
493
330
492
100
AcDbEntity
  8
E9096
100
AcDbVertex
100
AcDb2dVertex
 10
640.6807064562169
 20
1012.532577058934
 30
0.0
  0
VERTEX
  5
494
330
492
100
AcDbEntity
  8
E9096
100
AcDbVertex
100
AcDb2dVertex
 10
640.6758236437167
 20
1012.840194246434
 30
0.0
  0
VERTEX
  5
495
330
492
100
AcDbEntity
  8
E9096
100
AcDbVertex
100
AcDb2dVertex
 10
640.6611752062167
 20
1013.138045808934
 30
0.0
  0
VERTEX
  5
496
330
492
100
AcDbEntity
  8
E9096
100
AcDbVertex
100
AcDb2dVertex
 10
640.6501888780917
 20
1013.283309480809
 30
0.0
  0
VERTEX
  5
497
330
492
100
AcDbEntity
  8
E9096
100
AcDbVertex
100
AcDb2dVertex
 10
640.6367611437167
 20
1013.426131746434
 30
0.0
  0
VERTEX
  5
498
330
492
100
AcDbEntity
  8
E9096
100
AcDbVertex
100
AcDb2dVertex
 10
640.6208920030917
 20
1013.566512605809
 30
0.0
  0
VERTEX
  5
499
330
492
100
AcDbEntity
  8
E9096
100
AcDbVertex
100
AcDb2dVertex
 10
640.6025814562167
 20
1013.704452058934
 30
0.0
  0
VERTEX
  5
49A
330
492
100
AcDbEntity
  8
E9096
100
AcDbVertex
100
AcDb2dVertex
 10
640.5818295030917
 20
1013.839950105809
 30
0.0
  0
VERTEX
  5
49B
330
492
100
AcDbEntity
  8
E9096
100
AcDbVertex
100
AcDb2dVertex
 10
640.5586361437167
 20
1013.973006746434
 30
0.0
  0
VERTEX
  5
49C
330
492
100
AcDbEntity
  8
E9096
100
AcDbVertex
100
AcDb2dVertex
 10
640.5330013780917
 20
1014.103621980809
 30
0.0
  0
VERTEX
  5
49D
330
492
100
AcDbEntity
  8
E9096
100
AcDbVertex
100
AcDb2dVertex
 10
640.5049252062167
 20
1014.231795808934
 30
0.0
  0
VERTEX
  5
49E
330
492
100
AcDbEntity
  8
E9096
100
AcDbVertex
100
AcDb2dVertex
 10
640.4744076280917
 20
1014.357528230809
 30
0.0
  0
VERTEX
  5
49F
330
492
100
AcDbEntity
  8
E9096
100
AcDbVertex
100
AcDb2dVertex
 10
640.4414486437167
 20
1014.480819246434
 30
0.0
  0
VERTEX
  5
4A0
330
492
100
AcDbEntity
  8
E9096
100
AcDbVertex
100
AcDb2dVertex
 10
640.4060482530917
 20
1014.601668855809
 30
0.0
  0
VERTEX
  5
4A1
330
492
100
AcDbEntity
  8
E9096
100
AcDbVertex
100
AcDb2dVertex
 10
640.3682064562167
 20
1014.720077058934
 30
0.0
  0
VERTEX
  5
4A2
330
492
100
AcDbEntity
  8
E9096
100
AcDbVertex
100
AcDb2dVertex
 10
640.3279232530917
 20
1014.836043855809
 30
0.0
  0
VERTEX
  5
4A3
330
492
100
AcDbEntity
  8
E9096
100
AcDbVertex
100
AcDb2dVertex
 10
640.2851986437167
 20
1014.949569246434
 30
0.0
  0
VERTEX
  5
4A4
330
492
100
AcDbEntity
  8
E9096
100
AcDbVertex
100
AcDb2dVertex
 10
640.2400326280917
 20
1015.060653230809
 30
0.0
  0
VERTEX
  5
4A5
330
492
100
AcDbEntity
  8
E9096
100
AcDbVertex
100
AcDb2dVertex
 10
640.1924252062167
 20
1015.169295808934
 30
0.0
  0
VERTEX
  5
4A6
330
492
100
AcDbEntity
  8
E9096
100
AcDbVertex
100
AcDb2dVertex
 10
640.1423763780917
 20
1015.275496980809
 30
0.0
  0
VERTEX
  5
4A7
330
492
100
AcDbEntity
  8
E9096
100
AcDbVertex
100
AcDb2dVertex
 10
640.0898861437167
 20
1015.379256746434
 30
0.0
  0
VERTEX
  5
4A8
330
492
100
AcDbEntity
  8
E9096
100
AcDbVertex
100
AcDb2dVertex
 10
640.0349545030917
 20
1015.480575105809
 30
0.0
  0
VERTEX
  5
4A9
330
492
100
AcDbEntity
  8
E9096
100
AcDbVertex
100
AcDb2dVertex
 10
639.9775814562167
 20
1015.579452058934
 30
0.0
  0
VERTEX
  5
4AA
330
492
100
AcDbEntity
  8
E9096
100
AcDbVertex
100
AcDb2dVertex
 10
639.9177670030917
 20
1015.675887605809
 30
0.0
  0
VERTEX
  5
4AB
330
492
100
AcDbEntity
  8
E9096
100
AcDbVertex
100
AcDb2dVertex
 10
639.8555111437167
 20
1015.769881746434
 30
0.0
  0
VERTEX
  5
4AC
330
492
100
AcDbEntity
  8
E9096
100
AcDbVertex
100
AcDb2dVertex
 10
639.7908138780917
 20
1015.861434480809
 30
0.0
  0
VERTEX
  5
4AD
330
492
100
AcDbEntity
  8
E9096
100
AcDbVertex
100
AcDb2dVertex
 10
639.7236752062167
 20
1015.950545808934
 30
0.0
  0
VERTEX
  5
4AE
330
492
100
AcDbEntity
  8
E9096
100
AcDbVertex
100
AcDb2dVertex
 10
639.6540951280917
 20
1016.037215730809
 30
0.0
  0
VERTEX
  5
4AF
330
492
100
AcDbEntity
  8
E9096
100
AcDbVertex
100
AcDb2dVertex
 10
639.5820736437167
 20
1016.121444246434
 30
0.0
  0
VERTEX
  5
4B0
330
492
100
AcDbEntity
  8
E9096
100
AcDbVertex
100
AcDb2dVertex
 10
639.5076107530917
 20
1016.203231355809
 30
0.0
  0
VERTEX
  5
4B1
330
492
100
AcDbEntity
  8
E9096
100
AcDbVertex
100
AcDb2dVertex
 10
639.4307064562167
 20
1016.282577058934
 30
0.0
  0
VERTEX
  5
4B2
330
492
100
AcDbEntity
  8
E9096
100
AcDbVertex
100
AcDb2dVertex
 10
639.3513607530917
 20
1016.359481355809
 30
0.0
  0
VERTEX
  5
4B3
330
492
100
AcDbEntity
  8
E9096
100
AcDbVertex
100
AcDb2dVertex
 10
639.2695736437167
 20
1016.433944246434
 30
0.0
  0
VERTEX
  5
4B4
330
492
100
AcDbEntity
  8
E9096
100
AcDbVertex
100
AcDb2dVertex
 10
639.1853451280917
 20
1016.505965730809
 30
0.0
  0
VERTEX
  5
4B5
330
492
100
AcDbEntity
  8
E9096
100
AcDbVertex
100
AcDb2dVertex
 10
639.0986752062167
 20
1016.575545808934
 30
0.0
  0
VERTEX
  5
4B6
330
492
100
AcDbEntity
  8
E9096
100
AcDbVertex
100
AcDb2dVertex
 10
639.0095638780917
 20
1016.642684480809
 30
0.0
  0
VERTEX
  5
4B7
330
492
100
AcDbEntity
  8
E9096
100
AcDbVertex
100
AcDb2dVertex
 10
638.9180111437167
 20
1016.707381746434
 30
0.0
  0
VERTEX
  5
4B8
330
492
100
AcDbEntity
  8
E9096
100
AcDbVertex
100
AcDb2dVertex
 10
638.8240170030917
 20
1016.769637605809
 30
0.0
  0
VERTEX
  5
4B9
330
492
100
AcDbEntity
  8
E9096
100
AcDbVertex
100
AcDb2dVertex
 10
638.7275814562167
 20
1016.829452058934
 30
0.0
  0
VERTEX
  5
4BA
330
492
100
AcDbEntity
  8
E9096
100
AcDbVertex
100
AcDb2dVertex
 10
638.6287045030917
 20
1016.886825105809
 30
0.0
  0
VERTEX
  5
4BB
330
492
100
AcDbEntity
  8
E9096
100
AcDbVertex
100
AcDb2dVertex
 10
638.5273861437167
 20
1016.941756746434
 30
0.0
  0
VERTEX
  5
4BC
330
492
100
AcDbEntity
  8
E9096
100
AcDbVertex
100
AcDb2dVertex
 10
638.4236263780917
 20
1016.994246980809
 30
0.0
  0
VERTEX
  5
4BD
330
492
100
AcDbEntity
  8
E9096
100
AcDbVertex
100
AcDb2dVertex
 10
638.3174252062167
 20
1017.044295808934
 30
0.0
  0
VERTEX
  5
4BE
330
492
100
AcDbEntity
  8
E9096
100
AcDbVertex
100
AcDb2dVertex
 10
638.2087826280917
 20
1017.091903230809
 30
0.0
  0
VERTEX
  5
4BF
330
492
100
AcDbEntity
  8
E9096
100
AcDbVertex
100
AcDb2dVertex
 10
638.0976986437167
 20
1017.137069246434
 30
0.0
  0
VERTEX
  5
4C0
330
492
100
AcDbEntity
  8
E9096
100
AcDbVertex
100
AcDb2dVertex
 10
637.9841732530917
 20
1017.179793855809
 30
0.0
  0
VERTEX
  5
4C1
330
492
100
AcDbEntity
  8
E9096
100
AcDbVertex
100
AcDb2dVertex
 10
637.8682064562167
 20
1017.220077058934
 30
0.0
  0
VERTEX
  5
4C2
330
492
100
AcDbEntity
  8
E9096
100
AcDbVertex
100
AcDb2dVertex
 10
637.7497982530917
 20
1017.257918855809
 30
0.0
  0
VERTEX
  5
4C3
330
492
100
AcDbEntity
  8
E9096
100
AcDbVertex
100
AcDb2dVertex
 10
637.6289486437167
 20
1017.293319246434
 30
0.0
  0
VERTEX
  5
4C4
330
492
100
AcDbEntity
  8
E9096
100
AcDbVertex
100
AcDb2dVertex
 10
637.5056576280917
 20
1017.326278230809
 30
0.0
  0
VERTEX
  5
4C5
330
492
100
AcDbEntity
  8
E9096
100
AcDbVertex
100
AcDb2dVertex
 10
637.3799252062167
 20
1017.356795808934
 30
0.0
  0
VERTEX
  5
4C6
330
492
100
AcDbEntity
  8
E9096
100
AcDbVertex
100
AcDb2dVertex
 10
637.2517513780917
 20
1017.384871980809
 30
0.0
  0
VERTEX
  5
4C7
330
492
100
AcDbEntity
  8
E9096
100
AcDbVertex
100
AcDb2dVertex
 10
637.1211361437167
 20
1017.410506746434
 30
0.0
  0
VERTEX
  5
4C8
330
492
100
AcDbEntity
  8
E9096
100
AcDbVertex
100
AcDb2dVertex
 10
636.9880795030917
 20
1017.433700105809
 30
0.0
  0
VERTEX
  5
4C9
330
492
100
AcDbEntity
  8
E9096
100
AcDbVertex
100
AcDb2dVertex
 10
636.8525814562167
 20
1017.454452058934
 30
0.0
  0
VERTEX
  5
4CA
330
492
100
AcDbEntity
  8
E9096
100
AcDbVertex
100
AcDb2dVertex
 10
636.7146420030917
 20
1017.472762605809
 30
0.0
  0
VERTEX
  5
4CB
330
492
100
AcDbEntity
  8
E9096
100
AcDbVertex
100
AcDb2dVertex
 10
636.5742611437167
 20
1017.488631746434
 30
0.0
  0
VERTEX
  5
4CC
330
492
100
AcDbEntity
  8
E9096
100
AcDbVertex
100
AcDb2dVertex
 10
636.4314388780917
 20
1017.502059480809
 30
0.0
  0
VERTEX
  5
4CD
330
492
100
AcDbEntity
  8
E9096
100
AcDbVertex
100
AcDb2dVertex
 10
636.2861752062167
 20
1017.513045808934
 30
0.0
  0
VERTEX
  5
4CE
330
492
100
AcDbEntity
  8
E9096
100
AcDbVertex
100
AcDb2dVertex
 10
635.9883236437167
 20
1017.527694246434
 30
0.0
  0
VERTEX
  5
4CF
330
492
100
AcDbEntity
  8
E9096
100
AcDbVertex
100
AcDb2dVertex
 10
635.6807064562169
 20
1017.532577058934
 30
0.0
  0
VERTEX
  5
4D0
330
492
100
AcDbEntity
  8
E9096
100
AcDbVertex
100
AcDb2dVertex
 10
596.680706456217
 20
1017.532577058934
 30
0.0
 42
0.4142135623730849
  0
VERTEX
  5
4D1
330
492
100
AcDbEntity
  8
E9096
100
AcDbVertex
100
AcDb2dVertex
 10
594.6807064562169
 20
1015.532577058935
 30
0.0
  0
VERTEX
  5
4D2
330
492
100
AcDbEntity
  8
E9096
100
AcDbVertex
100
AcDb2dVertex
 10
594.6807064562169
 20
973.5325770589336
 30
0.0
 42
0.4142135623730828
  0
VERTEX
  5
4D3
330
492
100
AcDbEntity
  8
E9096
100
AcDbVertex
100
AcDb2dVertex
 10
596.6807064562156
 20
971.5325770589335
 30
0.0
  0
VERTEX
  5
4D4
330
492
100
AcDbEntity
  8
E9096
100
AcDbVertex
100
AcDb2dVertex
 10
635.6807064562169
 20
971.5325770589336
 30
0.0
  0
VERTEX
  5
4D5
330
492
100
AcDbEntity
  8
E9096
100
AcDbVertex
100
AcDb2dVertex
 10
635.9883236437167
 20
971.5374598714336
 30
0.0
  0
VERTEX
  5
4D6
330
492
100
AcDbEntity
  8
E9096
100
AcDbVertex
100
AcDb2dVertex
 10
636.2861752062167
 20
971.5521083089336
 30
0.0
  0
VERTEX
  5
4D7
330
492
100
AcDbEntity
  8
E9096
100
AcDbVertex
100
AcDb2dVertex
 10
636.4314388780917
 20
971.5630946370586
 30
0.0
  0
VERTEX
  5
4D8
330
492
100
AcDbEntity
  8
E9096
100
AcDbVertex
100
AcDb2dVertex
 10
636.5742611437167
 20
971.5765223714336
 30
0.0
  0
VERTEX
  5
4D9
330
492
100
AcDbEntity
  8
E9096
100
AcDbVertex
100
AcDb2dVertex
 10
636.7146420030917
 20
971.5923915120586
 30
0.0
  0
VERTEX
  5
4DA
330
492
100
AcDbEntity
  8
E9096
100
AcDbVertex
100
AcDb2dVertex
 10
636.8525814562167
 20
971.6107020589336
 30
0.0
  0
VERTEX
  5
4DB
330
492
100
AcDbEntity
  8
E9096
100
AcDbVertex
100
AcDb2dVertex
 10
636.9880795030917
 20
971.6314540120586
 30
0.0
  0
VERTEX
  5
4DC
330
492
100
AcDbEntity
  8
E9096
100
AcDbVertex
100
AcDb2dVertex
 10
637.1211361437167
 20
971.6546473714336
 30
0.0
  0
VERTEX
  5
4DD
330
492
100
AcDbEntity
  8
E9096
100
AcDbVertex
100
AcDb2dVertex
 10
637.2517513780917
 20
971.6802821370586
 30
0.0
  0
VERTEX
  5
4DE
330
492
100
AcDbEntity
  8
E9096
100
AcDbVertex
100
AcDb2dVertex
 10
637.3799252062167
 20
971.7083583089336
 30
0.0
  0
VERTEX
  5
4DF
330
492
100
AcDbEntity
  8
E9096
100
AcDbVertex
100
AcDb2dVertex
 10
637.5056576280917
 20
971.7388758870586
 30
0.0
  0
VERTEX
  5
4E0
330
492
100
AcDbEntity
  8
E9096
100
AcDbVertex
100
AcDb2dVertex
 10
637.6289486437167
 20
971.7718348714336
 30
0.0
  0
VERTEX
  5
4E1
330
492
100
AcDbEntity
  8
E9096
100
AcDbVertex
100
AcDb2dVertex
 10
637.7497982530917
 20
971.8072352620586
 30
0.0
  0
VERTEX
  5
4E2
330
492
100
AcDbEntity
  8
E9096
100
AcDbVertex
100
AcDb2dVertex
 10
637.8682064562167
 20
971.8450770589336
 30
0.0
  0
VERTEX
  5
4E3
330
492
100
AcDbEntity
  8
E9096
100
AcDbVertex
100
AcDb2dVertex
 10
637.9841732530917
 20
971.8853602620586
 30
0.0
  0
VERTEX
  5
4E4
330
492
100
AcDbEntity
  8
E9096
100
AcDbVertex
100
AcDb2dVertex
 10
638.0976986437167
 20
971.9280848714336
 30
0.0
  0
VERTEX
  5
4E5
330
492
100
AcDbEntity
  8
E9096
100
AcDbVertex
100
AcDb2dVertex
 10
638.2087826280917
 20
971.9732508870586
 30
0.0
  0
VERTEX
  5
4E6
330
492
100
AcDbEntity
  8
E9096
100
AcDbVertex
100
AcDb2dVertex
 10
638.3174252062167
 20
972.0208583089336
 30
0.0
  0
VERTEX
  5
4E7
330
492
100
AcDbEntity
  8
E9096
100
AcDbVertex
100
AcDb2dVertex
 10
638.4236263780917
 20
972.0709071370586
 30
0.0
  0
VERTEX
  5
4E8
330
492
100
AcDbEntity
  8
E9096
100
AcDbVertex
100
AcDb2dVertex
 10
638.5273861437167
 20
972.1233973714336
 30
0.0
  0
VERTEX
  5
4E9
330
492
100
AcDbEntity
  8
E9096
100
AcDbVertex
100
AcDb2dVertex
 10
638.6287045030917
 20
972.1783290120586
 30
0.0
  0
VERTEX
  5
4EA
330
492
100
AcDbEntity
  8
E9096
100
AcDbVertex
100
AcDb2dVertex
 10
638.7275814562167
 20
972.2357020589336
 30
0.0
  0
VERTEX
  5
4EB
330
492
100
AcDbEntity
  8
E9096
100
AcDbVertex
100
AcDb2dVertex
 10
638.8240170030917
 20
972.2955165120586
 30
0.0
  0
VERTEX
  5
4EC
330
492
100
AcDbEntity
  8
E9096
100
AcDbVertex
100
AcDb2dVertex
 10
638.9180111437167
 20
972.3577723714336
 30
0.0
  0
VERTEX
  5
4ED
330
492
100
AcDbEntity
  8
E9096
100
AcDbVertex
100
AcDb2dVertex
 10
639.0095638780917
 20
972.4224696370586
 30
0.0
  0
VERTEX
  5
4EE
330
492
100
AcDbEntity
  8
E9096
100
AcDbVertex
100
AcDb2dVertex
 10
639.0986752062167
 20
972.4896083089336
 30
0.0
  0
VERTEX
  5
4EF
330
492
100
AcDbEntity
  8
E9096
100
AcDbVertex
100
AcDb2dVertex
 10
639.1853451280917
 20
972.5591883870586
 30
0.0
  0
VERTEX
  5
4F0
330
492
100
AcDbEntity
  8
E9096
100
AcDbVertex
100
AcDb2dVertex
 10
639.2695736437167
 20
972.6312098714336
 30
0.0
  0
VERTEX
  5
4F1
330
492
100
AcDbEntity
  8
E9096
100
AcDbVertex
100
AcDb2dVertex
 10
639.3513607530917
 20
972.7056727620586
 30
0.0
  0
VERTEX
  5
4F2
330
492
100
AcDbEntity
  8
E9096
100
AcDbVertex
100
AcDb2dVertex
 10
639.4307064562167
 20
972.7825770589336
 30
0.0
  0
VERTEX
  5
4F3
330
492
100
AcDbEntity
  8
E9096
100
AcDbVertex
100
AcDb2dVertex
 10
639.5076107530917
 20
972.8619227620586
 30
0.0
  0
VERTEX
  5
4F4
330
492
100
AcDbEntity
  8
E9096
100
AcDbVertex
100
AcDb2dVertex
 10
639.5820736437167
 20
972.9437098714336
 30
0.0
  0
VERTEX
  5
4F5
330
492
100
AcDbEntity
  8
E9096
100
AcDbVertex
100
AcDb2dVertex
 10
639.6540951280917
 20
973.0279383870586
 30
0.0
  0
VERTEX
  5
4F6
330
492
100
AcDbEntity
  8
E9096
100
AcDbVertex
100
AcDb2dVertex
 10
639.7236752062167
 20
973.1146083089336
 30
0.0
  0
VERTEX
  5
4F7
330
492
100
AcDbEntity
  8
E9096
100
AcDbVertex
100
AcDb2dVertex
 10
639.7908138780917
 20
973.2037196370586
 30
0.0
  0
VERTEX
  5
4F8
330
492
100
AcDbEntity
  8
E9096
100
AcDbVertex
100
AcDb2dVertex
 10
639.8555111437167
 20
973.2952723714336
 30
0.0
  0
VERTEX
  5
4F9
330
492
100
AcDbEntity
  8
E9096
100
AcDbVertex
100
AcDb2dVertex
 10
639.9177670030917
 20
973.3892665120586
 30
0.0
  0
VERTEX
  5
4FA
330
492
100
AcDbEntity
  8
E9096
100
AcDbVertex
100
AcDb2dVertex
 10
639.9775814562167
 20
973.4857020589336
 30
0.0
  0
VERTEX
  5
4FB
330
492
100
AcDbEntity
  8
E9096
100
AcDbVertex
100
AcDb2dVertex
 10
640.0349545030917
 20
973.5845790120586
 30
0.0
  0
VERTEX
  5
4FC
330
492
100
AcDbEntity
  8
E9096
100
AcDbVertex
100
AcDb2dVertex
 10
640.0898861437167
 20
973.6858973714336
 30
0.0
  0
VERTEX
  5
4FD
330
492
100
AcDbEntity
  8
E9096
100
AcDbVertex
100
AcDb2dVertex
 10
640.1423763780917
 20
973.7896571370586
 30
0.0
  0
VERTEX
  5
4FE
330
492
100
AcDbEntity
  8
E9096
100
AcDbVertex
100
AcDb2dVertex
 10
640.1924252062167
 20
973.8958583089336
 30
0.0
  0
VERTEX
  5
4FF
330
492
100
AcDbEntity
  8
E9096
100
AcDbVertex
100
AcDb2dVertex
 10
640.2400326280917
 20
974.0045008870586
 30
0.0
  0
VERTEX
  5
500
330
492
100
AcDbEntity
  8
E9096
100
AcDbVertex
100
AcDb2dVertex
 10
640.2851986437167
 20
974.1155848714336
 30
0.0
  0
VERTEX
  5
501
330
492
100
AcDbEntity
  8
E9096
100
AcDbVertex
100
AcDb2dVertex
 10
640.3279232530917
 20
974.2291102620586
 30
0.0
  0
VERTEX
  5
502
330
492
100
AcDbEntity
  8
E9096
100
AcDbVertex
100
AcDb2dVertex
 10
640.3682064562167
 20
974.3450770589336
 30
0.0
  0
VERTEX
  5
503
330
492
100
AcDbEntity
  8
E9096
100
AcDbVertex
100
AcDb2dVertex
 10
640.4060482530917
 20
974.4634852620586
 30
0.0
  0
VERTEX
  5
504
330
492
100
AcDbEntity
  8
E9096
100
AcDbVertex
100
AcDb2dVertex
 10
640.4414486437167
 20
974.5843348714336
 30
0.0
  0
VERTEX
  5
505
330
492
100
AcDbEntity
  8
E9096
100
AcDbVertex
100
AcDb2dVertex
 10
640.4744076280917
 20
974.7076258870586
 30
0.0
  0
VERTEX
  5
506
330
492
100
AcDbEntity
  8
E9096
100
AcDbVertex
100
AcDb2dVertex
 10
640.5049252062167
 20
974.8333583089336
 30
0.0
  0
VERTEX
  5
507
330
492
100
AcDbEntity
  8
E9096
100
AcDbVertex
100
AcDb2dVertex
 10
640.5330013780917
 20
974.9615321370586
 30
0.0
  0
VERTEX
  5
508
330
492
100
AcDbEntity
  8
E9096
100
AcDbVertex
100
AcDb2dVertex
 10
640.5586361437167
 20
975.0921473714336
 30
0.0
  0
VERTEX
  5
509
330
492
100
AcDbEntity
  8
E9096
100
AcDbVertex
100
AcDb2dVertex
 10
640.5818295030917
 20
975.2252040120586
 30
0.0
  0
VERTEX
  5
50A
330
492
100
AcDbEntity
  8
E9096
100
AcDbVertex
100
AcDb2dVertex
 10
640.6025814562167
 20
975.3607020589336
 30
0.0
  0
VERTEX
  5
50B
330
492
100
AcDbEntity
  8
E9096
100
AcDbVertex
100
AcDb2dVertex
 10
640.6208920030917
 20
975.4986415120586
 30
0.0
  0
VERTEX
  5
50C
330
492
100
AcDbEntity
  8
E9096
100
AcDbVertex
100
AcDb2dVertex
 10
640.6367611437167
 20
975.6390223714336
 30
0.0
  0
VERTEX
  5
50D
330
492
100
AcDbEntity
  8
E9096
100
AcDbVertex
100
AcDb2dVertex
 10
640.6501888780917
 20
975.7818446370586
 30
0.0
  0
VERTEX
  5
50E
330
492
100
AcDbEntity
  8
E9096
100
AcDbVertex
100
AcDb2dVertex
 10
640.6611752062167
 20
975.9271083089336
 30
0.0
  0
VERTEX
  5
50F
330
492
100
AcDbEntity
  8
E9096
100
AcDbVertex
100
AcDb2dVertex
 10
640.6758236437167
 20
976.2249598714336
 30
0.0
  0
VERTEX
  5
510
330
492
100
AcDbEntity
  8
E9096
100
AcDbVertex
100
AcDb2dVertex
 10
640.6807064562169
 20
976.5325770589336
 30
0.0
  0
VERTEX
  5
511
330
492
100
AcDbEntity
  8
E9096
100
AcDbVertex
100
AcDb2dVertex
 10
640.6807064562169
 20
1012.532577058934
 30
0.0
  0
SEQEND
  5
512
330
492
100
AcDbEntity
  8
E9096
  0
ENDSEC
  0
SECTION
  2
OBJECTS
  0
DICTIONARY
  5
C
330
0
100
AcDbDictionary
281
     1
  3
ACAD_GROUP
350
D
  3
ACAD_LAYOUT
350
1A
  3
ACAD_MATERIAL
350
3B
  3
ACAD_MLEADERSTYLE
350
53D
  3
ACAD_MLINESTYLE
350
17
  3
ACAD_PLOTSETTINGS
350
19
  3
ACAD_PLOTSTYLENAME
350
E
  3
ACAD_SCALELIST
350
3F
  3
ACAD_TABLESTYLE
350
53C
  3
ACAD_VISUALSTYLE
350
2A
  3
AcDbVariableDictionary
350
513
  0
DICTIONARY
  5
D
102
{ACAD_REACTORS
330
C
102
}
330
C
100
AcDbDictionary
281
     1
  0
DICTIONARY
  5
1A
102
{ACAD_REACTORS
330
C
102
}
330
C
100
AcDbDictionary
281
     1
  3
Layout1
350
1E
  3
Layout2
350
26
  3
Model
350
22
  0
DICTIONARY
  5
3B
102
{ACAD_REACTORS
330
C
102
}
330
C
100
AcDbDictionary
281
     1
  3
ByBlock
350
3D
  3
ByLayer
350
3C
  3
Global
350
3E
  0
DICTIONARY
  5
53D
102
{ACAD_REACTORS
330
C
102
}
330
C
100
AcDbDictionary
281
     1
  0
DICTIONARY
  5
17
102
{ACAD_REACTORS
330
C
102
}
330
C
100
AcDbDictionary
281
     1
  3
Standard
350
18
  0
DICTIONARY
  5
19
102
{ACAD_REACTORS
330
C
102
}
330
C
100
AcDbDictionary
281
     1
  0
ACDBDICTIONARYWDFLT
  5
E
102
{ACAD_REACTORS
330
C
102
}
330
C
100
AcDbDictionary
281
     1
  3
Normal
350
F
100
AcDbDictionaryWithDefault
340
F
  0
DICTIONARY
  5
3F
102
{ACAD_REACTORS
330
C
102
}
330
C
100
AcDbDictionary
281
     1
  3
A0
350
40
  3
A1
350
41
  3
A2
350
42
  3
A3
350
43
  3
A4
350
44
  3
A5
350
45
  3
A6
350
46
  3
A7
350
47
  3
A8
350
48
  3
A9
350
49
  3
B0
350
4A
  3
B1
350
4B
  3
B2
350
4C
  3
B3
350
4D
  3
B4
350
4E
  3
B5
350
4F
  3
B6
350
50
  3
B7
350
51
  3
B8
350
52
  3
B9
350
53
  3
C0
350
54
  3
C1
350
55
  3
C2
350
56
  3
C3
350
57
  3
C4
350
58
  3
C5
350
59
  3
C6
350
5A
  3
C7
350
5B
  3
C8
350
5C
  3
C9
350
5D
  3
D0
350
5E
  3
D1
350
5F
  3
D2
350
60
  0
DICTIONARY
  5
53C
102
{ACAD_REACTORS
330
C
102
}
330
C
100
AcDbDictionary
281
     1
  0
DICTIONARY
  5
2A
102
{ACAD_REACTORS
330
C
102
}
330
C
100
AcDbDictionary
281
     1
  3
2dWireframe
350
2F
  3
3D Hidden
350
31
  3
3dWireframe
350
30
  3
Basic
350
32
  3
Brighten
350
36
  3
ColorChange
350
3A
  3
Conceptual
350
34
  3
Dim
350
35
  3
Facepattern
350
39
  3
Flat
350
2B
  3
FlatWithEdges
350
2C
  3
Gouraud
350
2D
  3
GouraudWithEdges
350
2E
  3
Linepattern
350
38
  3
Realistic
350
33
  3
Thicken
350
37
  0
DICTIONARY
  5
513
102
{ACAD_REACTORS
330
C
102
}
330
C
100
AcDbDictionary
281
     1
  3
CANNOSCALE
350
514
  3
MSLTSCALE
350
515
  0
LAYOUT
  5
1E
102
{ACAD_REACTORS
330
1A
102
}
330
1A
100
AcDbPlotSettings
  1

  2
none_device
  4

  6

 40
0.0
 41
0.0
 42
0.0
 43
0.0
 44
0.0
 45
0.0
 46
0.0
 47
0.0
 48
0.0
 49
0.0
140
0.0
141
0.0
142
1.0
143
1.0
 70
   688
 72
     0
 73
     0
 74
     5
  7

 75
    16
 76
     0
 77
     2
 78
   300
147
1.0
148
0.0
149
0.0
100
AcDbLayout
  1
Layout1
 70
     1
 71
     1
 10
0.0
 20
0.0
 11
12.0
 21
9.0
 12
0.0
 22
0.0
 32
0.0
 14
1.000000000000000E+20
 24
1.000000000000000E+20
 34
1.000000000000000E+20
 15
-1.000000000000000E+20
 25
-1.000000000000000E+20
 35
-1.000000000000000E+20
146
0.0
 13
0.0
 23
0.0
 33
0.0
 16
1.0
 26
0.0
 36
0.0
 17
0.0
 27
1.0
 37
0.0
 76
     0
330
1B
  0
LAYOUT
  5
26
102
{ACAD_REACTORS
330
1A
102
}
330
1A
100
AcDbPlotSettings
  1

  2
none_device
  4

  6

 40
0.0
 41
0.0
 42
0.0
 43
0.0
 44
0.0
 45
0.0
 46
0.0
 47
0.0
 48
0.0
 49
0.0
140
0.0
141
0.0
142
1.0
143
1.0
 70
   688
 72
     0
 73
     0
 74
     5
  7

 75
    16
 76
     0
 77
     2
 78
   300
147
1.0
148
0.0
149
0.0
100
AcDbLayout
  1
Layout2
 70
     1
 71
     2
 10
0.0
 20
0.0
 11
0.0
 21
0.0
 12
0.0
 22
0.0
 32
0.0
 14
0.0
 24
0.0
 34
0.0
 15
0.0
 25
0.0
 35
0.0
146
0.0
 13
0.0
 23
0.0
 33
0.0
 16
1.0
 26
0.0
 36
0.0
 17
0.0
 27
1.0
 37
0.0
 76
     0
330
23
  0
LAYOUT
  5
22
102
{ACAD_REACTORS
330
1A
102
}
330
1A
100
AcDbPlotSettings
  1

  2
none_device
  4
Letter_(8.50_x_11.00_Inches)
  6

 40
6.35
 41
6.35
 42
6.35000508
 43
6.35000508
 44
215.9
 45
279.4
 46
0.0
 47
0.0
 48
0.0
 49
0.0
140
0.0
141
0.0
142
1.0
143
1.0
 70
  1712
 72
     0
 73
     0
 74
     0
  7

 75
     0
 76
     0
 77
     2
 78
   300
147
1.0
148
0.0
149
0.0
100
AcDbLayout
  1
Model
 70
     1
 71
     0
 10
0.0
 20
0.0
 11
12.0
 21
9.0
 12
0.0
 22
0.0
 32
0.0
 14
509.6807064562169
 24
949.680706456217
 34
0.0
 15
640.6807064562169
 25
1025.032631393991
 35
0.0
146
0.0
 13
0.0
 23
0.0
 33
0.0
 16
1.0
 26
0.0
 36
0.0
 17
0.0
 27
1.0
 37
0.0
 76
     0
330
1F
331
29
  0
MATERIAL
  5
3D
102
{ACAD_REACTORS
330
3B
102
}
102
{ACAD_XDICTIONARY
360
538
102
}
330
3B
100
AcDbMaterial
  1
ByBlock
  0
MATERIAL
  5
3C
102
{ACAD_REACTORS
330
3B
102
}
102
{ACAD_XDICTIONARY
360
536
102
}
330
3B
100
AcDbMaterial
  1
ByLayer
  0
MATERIAL
  5
3E
102
{ACAD_REACTORS
330
3B
102
}
102
{ACAD_XDICTIONARY
360
53A
102
}
330
3B
100
AcDbMaterial
  1
Global
  0
MLINESTYLE
  5
18
102
{ACAD_REACTORS
330
17
102
}
330
17
100
AcDbMlineStyle
  2
Standard
 70
     0
  3

 62
   256
 51
90.0
 52
90.0
 71
     2
 49
0.5
 62
   256
  6
BYLAYER
 49
-0.5
 62
   256
  6
BYLAYER
  0
ACDBPLACEHOLDER
  5
F
102
{ACAD_REACTORS
330
E
102
}
330
E
  0
SCALE
  5
40
102
{ACAD_REACTORS
330
3F
102
}
330
3F
100
AcDbScale
 70
     0
300
1:1
140
1.0
141
1.0
290
     1
  0
SCALE
  5
41
102
{ACAD_REACTORS
330
3F
102
}
330
3F
100
AcDbScale
 70
     0
300
1:2
140
1.0
141
2.0
290
     0
  0
SCALE
  5
42
102
{ACAD_REACTORS
330
3F
102
}
330
3F
100
AcDbScale
 70
     0
300
1:4
140
1.0
141
4.0
290
     0
  0
SCALE
  5
43
102
{ACAD_REACTORS
330
3F
102
}
330
3F
100
AcDbScale
 70
     0
300
1:5
140
1.0
141
5.0
290
     0
  0
SCALE
  5
44
102
{ACAD_REACTORS
330
3F
102
}
330
3F
100
AcDbScale
 70
     0
300
1:8
140
1.0
141
8.0
290
     0
  0
SCALE
  5
45
102
{ACAD_REACTORS
330
3F
102
}
330
3F
100
AcDbScale
 70
     0
300
1:10
140
1.0
141
10.0
290
     0
  0
SCALE
  5
46
102
{ACAD_REACTORS
330
3F
102
}
330
3F
100
AcDbScale
 70
     0
300
1:16
140
1.0
141
16.0
290
     0
  0
SCALE
  5
47
102
{ACAD_REACTORS
330
3F
102
}
330
3F
100
AcDbScale
 70
     0
300
1:20
140
1.0
141
20.0
290
     0
  0
SCALE
  5
48
102
{ACAD_REACTORS
330
3F
102
}
330
3F
100
AcDbScale
 70
     0
300
1:30
140
1.0
141
30.0
290
     0
  0
SCALE
  5
49
102
{ACAD_REACTORS
330
3F
102
}
330
3F
100
AcDbScale
 70
     0
300
1:40
140
1.0
141
40.0
290
     0
  0
SCALE
  5
4A
102
{ACAD_REACTORS
330
3F
102
}
330
3F
100
AcDbScale
 70
     0
300
1:50
140
1.0
141
50.0
290
     0
  0
SCALE
  5
4B
102
{ACAD_REACTORS
330
3F
102
}
330
3F
100
AcDbScale
 70
     0
300
1:100
140
1.0
141
100.0
290
     0
  0
SCALE
  5
4C
102
{ACAD_REACTORS
330
3F
102
}
330
3F
100
AcDbScale
 70
     0
300
2:1
140
2.0
141
1.0
290
     0
  0
SCALE
  5
4D
102
{ACAD_REACTORS
330
3F
102
}
330
3F
100
AcDbScale
 70
     0
300
4:1
140
4.0
141
1.0
290
     0
  0
SCALE
  5
4E
102
{ACAD_REACTORS
330
3F
102
}
330
3F
100
AcDbScale
 70
     0
300
8:1
140
8.0
141
1.0
290
     0
  0
SCALE
  5
4F
102
{ACAD_REACTORS
330
3F
102
}
330
3F
100
AcDbScale
 70
     0
300
10:1
140
10.0
141
1.0
290
     0
  0
SCALE
  5
50
102
{ACAD_REACTORS
330
3F
102
}
330
3F
100
AcDbScale
 70
     0
300
100:1
140
100.0
141
1.0
290
     0
  0
SCALE
  5
51
102
{ACAD_REACTORS
330
3F
102
}
330
3F
100
AcDbScale
 70
     0
300
1/128" = 1'-0"
140
0.0078125
141
12.0
290
     0
  0
SCALE
  5
52
102
{ACAD_REACTORS
330
3F
102
}
330
3F
100
AcDbScale
 70
     0
300
1/64" = 1'-0"
140
0.015625
141
12.0
290
     0
  0
SCALE
  5
53
102
{ACAD_REACTORS
330
3F
102
}
330
3F
100
AcDbScale
 70
     0
300
1/32" = 1'-0"
140
0.03125
141
12.0
290
     0
  0
SCALE
  5
54
102
{ACAD_REACTORS
330
3F
102
}
330
3F
100
AcDbScale
 70
     0
300
1/16" = 1'-0"
140
0.0625
141
12.0
290
     0
  0
SCALE
  5
55
102
{ACAD_REACTORS
330
3F
102
}
330
3F
100
AcDbScale
 70
     0
300
3/32" = 1'-0"
140
0.09375
141
12.0
290
     0
  0
SCALE
  5
56
102
{ACAD_REACTORS
330
3F
102
}
330
3F
100
AcDbScale
 70
     0
300
1/8" = 1'-0"
140
0.125
141
12.0
290
     0
  0
SCALE
  5
57
102
{ACAD_REACTORS
330
3F
102
}
330
3F
100
AcDbScale
 70
     0
300
3/16" = 1'-0"
140
0.1875
141
12.0
290
     0
  0
SCALE
  5
58
102
{ACAD_REACTORS
330
3F
102
}
330
3F
100
AcDbScale
 70
     0
300
1/4" = 1'-0"
140
0.25
141
12.0
290
     0
  0
SCALE
  5
59
102
{ACAD_REACTORS
330
3F
102
}
330
3F
100
AcDbScale
 70
     0
300
3/8" = 1'-0"
140
0.375
141
12.0
290
     0
  0
SCALE
  5
5A
102
{ACAD_REACTORS
330
3F
102
}
330
3F
100
AcDbScale
 70
     0
300
1/2" = 1'-0"
140
0.5
141
12.0
290
     0
  0
SCALE
  5
5B
102
{ACAD_REACTORS
330
3F
102
}
330
3F
100
AcDbScale
 70
     0
300
3/4" = 1'-0"
140
0.75
141
12.0
290
     0
  0
SCALE
  5
5C
102
{ACAD_REACTORS
330
3F
102
}
330
3F
100
AcDbScale
 70
     0
300
1" = 1'-0"
140
1.0
141
12.0
290
     0
  0
SCALE
  5
5D
102
{ACAD_REACTORS
330
3F
102
}
330
3F
100
AcDbScale
 70
     0
300
1-1/2" = 1'-0"
140
1.5
141
12.0
290
     0
  0
SCALE
  5
5E
102
{ACAD_REACTORS
330
3F
102
}
330
3F
100
AcDbScale
 70
     0
300
3" = 1'-0"
140
3.0
141
12.0
290
     0
  0
SCALE
  5
5F
102
{ACAD_REACTORS
330
3F
102
}
330
3F
100
AcDbScale
 70
     0
300
6" = 1'-0"
140
6.0
141
12.0
290
     0
  0
SCALE
  5
60
102
{ACAD_REACTORS
330
3F
102
}
330
3F
100
AcDbScale
 70
     0
300
1'-0" = 1'-0"
140
12.0
141
12.0
290
     0
  0
VISUALSTYLE
  5
2F
102
{ACAD_REACTORS
330
2A
102
}
102
{ACAD_XDICTIONARY
360
51E
102
}
330
2A
100
AcDbVisualStyle
  2
2dWireframe
 70
     4
 71
     0
 72
     2
 73
     0
 90
        0
 40
0.6
 41
30.0
 62
     5
 63
     7
421
 16777215
 74
     1
 91
        4
 64
     7
 65
   257
 75
     1
175
     1
 42
1.0
 92
        0
 66
   257
 43
1.0
 76
     1
 77
     6
 78
     2
 67
     7
 79
     5
170
     0
171
     0
290
     0
174
     0
 93
        1
 44
0.0
173
     0
291
     0
 45
0.0
1001
ACAD
1000
AcDbSavedByObjectVersion
1070
     0
  0
VISUALSTYLE
  5
31
102
{ACAD_REACTORS
330
2A
102
}
102
{ACAD_XDICTIONARY
360
522
102
}
330
2A
100
AcDbVisualStyle
  2
3D Hidden
 70
     6
 71
     1
 72
     2
 73
     2
 90
        0
 40
0.6
 41
30.0
 62
     5
 63
     7
421
 16777215
 74
     2
 91
        2
 64
     7
 65
   257
 75
     2
175
     1
 42
40.0
 92
        0
 66
   257
 43
1.0
 76
     1
 77
     6
 78
     2
 67
     7
 79
     3
170
     0
171
     0
290
     0
174
     0
 93
        1
 44
0.0
173
     0
291
     0
 45
0.0
1001
ACAD
1000
AcDbSavedByObjectVersion
1070
     0
  0
VISUALSTYLE
  5
30
102
{ACAD_REACTORS
330
2A
102
}
102
{ACAD_XDICTIONARY
360
520
102
}
330
2A
100
AcDbVisualStyle
  2
3dWireframe
 70
     5
 71
     0
 72
     2
 73
     0
 90
        0
 40
0.6
 41
30.0
 62
     5
 63
     7
421
 16777215
 74
     1
 91
        4
 64
     7
 65
   257
 75
     1
175
     1
 42
1.0
 92
        0
 66
   257
 43
1.0
 76
     1
 77
     6
 78
     2
 67
     7
 79
     5
170
     0
171
     0
290
     0
174
     0
 93
        1
 44
0.0
173
     0
291
     0
 45
0.0
1001
ACAD
1000
AcDbSavedByObjectVersion
1070
     0
  0
VISUALSTYLE
  5
32
102
{ACAD_REACTORS
330
2A
102
}
102
{ACAD_XDICTIONARY
360
524
102
}
330
2A
100
AcDbVisualStyle
  2
Basic
 70
     7
 71
     1
 72
     0
 73
     1
 90
        0
 40
0.6
 41
30.0
 62
     5
 63
     7
421
 16777215
 74
     0
 91
        4
 64
     7
 65
   257
 75
     1
175
     1
 42
1.0
 92
        8
 66
     7
 43
1.0
 76
     1
 77
     6
 78
     2
 67
     7
 79
     5
170
     0
171
     0
290
     0
174
     0
 93
        1
 44
0.0
173
     0
291
     1
 45
0.0
1001
ACAD
1000
AcDbSavedByObjectVersion
1070
     0
  0
VISUALSTYLE
  5
36
102
{ACAD_REACTORS
330
2A
102
}
102
{ACAD_XDICTIONARY
360
52C
102
}
330
2A
100
AcDbVisualStyle
  2
Brighten
 70
    12
 71
     2
 72
     2
 73
     0
 90
        0
 40
0.6
 41
30.0
 62
     5
 63
     7
421
 16777215
 74
     1
 91
        4
 64
     7
 65
   257
 75
     1
175
     1
 42
1.0
 92
        8
 66
     7
 43
1.0
 76
     1
 77
     6
 78
     2
 67
     7
 79
     5
170
     0
171
     0
290
     0
174
     0
 93
        1
 44
50.0
173
     0
291
     1
 45
0.0
1001
ACAD
1000
AcDbSavedByObjectVersion
1070
     0
  0
VISUALSTYLE
  5
3A
102
{ACAD_REACTORS
330
2A
102
}
102
{ACAD_XDICTIONARY
360
534
102
}
330
2A
100
AcDbVisualStyle
  2
ColorChange
 70
    16
 71
     2
 72
     2
 73
     3
 90
        0
 40
0.6
 41
30.0
 62
     5
 63
     8
421
  8421504
 74
     1
 91
        4
 64
     7
 65
   257
 75
     1
175
     1
 42
1.0
 92
        8
 66
     8
424
  8421504
 43
1.0
 76
     1
 77
     6
 78
     2
 67
     7
 79
     5
170
     0
171
     0
290
     0
174
     0
 93
        1
 44
0.0
173
     0
291
     1
 45
0.0
1001
ACAD
1000
AcDbSavedByObjectVersion
1070
     0
  0
VISUALSTYLE
  5
34
102
{ACAD_REACTORS
330
2A
102
}
102
{ACAD_XDICTIONARY
360
528
102
}
330
2A
100
AcDbVisualStyle
  2
Conceptual
 70
     9
 71
     3
 72
     2
 73
     0
 90
        0
 40
0.6
 41
30.0
 62
     5
 63
     7
421
 16777215
 74
     2
 91
        2
 64
     7
 65
   257
 75
     1
175
     1
 42
40.0
 92
        8
 66
     7
 43
1.0
 76
     1
 77
     6
 78
     2
 67
     7
 79
     3
170
     0
171
     0
290
     0
174
     0
 93
        1
 44
0.0
173
     0
291
     0
 45
0.0
1001
ACAD
1000
AcDbSavedByObjectVersion
1070
     0
  0
VISUALSTYLE
  5
35
102
{ACAD_REACTORS
330
2A
102
}
102
{ACAD_XDICTIONARY
360
52A
102
}
330
2A
100
AcDbVisualStyle
  2
Dim
 70
    11
 71
     2
 72
     2
 73
     0
 90
        0
 40
0.6
 41
30.0
 62
     5
 63
     7
421
 16777215
 74
     1
 91
        4
 64
     7
 65
   257
 75
     1
175
     1
 42
1.0
 92
        8
 66
     7
 43
1.0
 76
     1
 77
     6
 78
     2
 67
     7
 79
     5
170
     0
171
     0
290
     0
174
     0
 93
        1
 44
-50.0
173
     0
291
     1
 45
0.0
1001
ACAD
1000
AcDbSavedByObjectVersion
1070
     0
  0
VISUALSTYLE
  5
39
102
{ACAD_REACTORS
330
2A
102
}
102
{ACAD_XDICTIONARY
360
532
102
}
330
2A
100
AcDbVisualStyle
  2
Facepattern
 70
    15
 71
     2
 72
     2
 73
     0
 90
        0
 40
0.6
 41
30.0
 62
     5
 63
     7
421
 16777215
 74
     1
 91
        4
 64
     7
 65
   257
 75
     1
175
     1
 42
1.0
 92
        8
 66
     7
 43
1.0
 76
     1
 77
     6
 78
     2
 67
     7
 79
     5
170
     0
171
     0
290
     0
174
     0
 93
        1
 44
0.0
173
     0
291
     1
 45
0.0
1001
ACAD
1000
AcDbSavedByObjectVersion
1070
     0
  0
VISUALSTYLE
  5
2B
102
{ACAD_REACTORS
330
2A
102
}
102
{ACAD_XDICTIONARY
360
516
102
}
330
2A
100
AcDbVisualStyle
  2
Flat
 70
     0
 71
     2
 72
     1
 73
     1
 90
        2
 40
0.6
 41
30.0
 62
     5
 63
     7
421
 16777215
 74
     0
 91
        4
 64
     7
 65
   257
 75
     1
175
     1
 42
1.0
 92
        8
 66
     7
 43
1.0
 76
     1
 77
     6
 78
     2
 67
     7
 79
     5
170
     0
171
     0
290
     0
174
     0
 93
       13
 44
0.0
173
     0
291
     1
 45
0.0
1001
ACAD
1000
AcDbSavedByObjectVersion
1070
     0
  0
VISUALSTYLE
  5
2C
102
{ACAD_REACTORS
330
2A
102
}
102
{ACAD_XDICTIONARY
360
518
102
}
330
2A
100
AcDbVisualStyle
  2
FlatWithEdges
 70
     1
 71
     2
 72
     1
 73
     1
 90
        2
 40
0.6
 41
30.0
 62
     5
 63
     7
421
 16777215
 74
     1
 91
        4
 64
     7
 65
   257
 75
     1
175
     1
 42
1.0
 92
        0
 66
   257
 43
1.0
 76
     1
 77
     6
 78
     2
 67
     7
 79
     5
170
     0
171
     0
290
     0
174
     0
 93
       13
 44
0.0
173
     0
291
     1
 45
0.0
1001
ACAD
1000
AcDbSavedByObjectVersion
1070
     0
  0
VISUALSTYLE
  5
2D
102
{ACAD_REACTORS
330
2A
102
}
102
{ACAD_XDICTIONARY
360
51A
102
}
330
2A
100
AcDbVisualStyle
  2
Gouraud
 70
     2
 71
     2
 72
     2
 73
     1
 90
        2
 40
0.6
 41
30.0
 62
     5
 63
     7
421
 16777215
 74
     0
 91
        4
 64
     7
 65
   257
 75
     1
175
     1
 42
1.0
 92
        0
 66
     7
 43
1.0
 76
     1
 77
     6
 78
     2
 67
     7
 79
     5
170
     0
171
     0
290
     0
174
     0
 93
       13
 44
0.0
173
     0
291
     1
 45
0.0
1001
ACAD
1000
AcDbSavedByObjectVersion
1070
     0
  0
VISUALSTYLE
  5
2E
102
{ACAD_REACTORS
330
2A
102
}
102
{ACAD_XDICTIONARY
360
51C
102
}
330
2A
100
AcDbVisualStyle
  2
GouraudWithEdges
 70
     3
 71
     2
 72
     2
 73
     1
 90
        2
 40
0.6
 41
30.0
 62
     5
 63
     7
421
 16777215
 74
     1
 91
        4
 64
     7
 65
   257
 75
     1
175
     1
 42
1.0
 92
        0
 66
   257
 43
1.0
 76
     1
 77
     6
 78
     2
 67
     7
 79
     5
170
     0
171
     0
290
     0
174
     0
 93
       13
 44
0.0
173
     0
291
     1
 45
0.0
1001
ACAD
1000
AcDbSavedByObjectVersion
1070
     0
  0
VISUALSTYLE
  5
38
102
{ACAD_REACTORS
330
2A
102
}
102
{ACAD_XDICTIONARY
360
530
102
}
330
2A
100
AcDbVisualStyle
  2
Linepattern
 70
    14
 71
     2
 72
     2
 73
     0
 90
        0
 40
0.6
 41
30.0
 62
     5
 63
     7
421
 16777215
 74
     1
 91
        4
 64
     7
 65
   257
 75
     7
175
     7
 42
1.0
 92
        8
 66
     7
 43
1.0
 76
     1
 77
     6
 78
     2
 67
     7
 79
     5
170
     0
171
     0
290
     0
174
     0
 93
        1
 44
0.0
173
     0
291
     1
 45
0.0
1001
ACAD
1000
AcDbSavedByObjectVersion
1070
     0
  0
VISUALSTYLE
  5
33
102
{ACAD_REACTORS
330
2A
102
}
102
{ACAD_XDICTIONARY
360
526
102
}
330
2A
100
AcDbVisualStyle
  2
Realistic
 70
     8
 71
     2
 72
     3
 73
     0
 90
        2
 40
0.6
 41
30.0
 62
     5
 63
     7
421
 16777215
 74
     0
 91
        0
 64
     7
 65
   257
 75
     1
175
     1
 42
1.0
 92
        8
 66
   257
 43
1.0
 76
     1
 77
     6
 78
     2
 67
     7
 79
     3
170
     0
171
     0
290
     0
174
     0
 93
       13
 44
0.0
173
     0
291
     0
 45
0.0
1001
ACAD
1000
AcDbSavedByObjectVersion
1070
     0
  0
VISUALSTYLE
  5
37
102
{ACAD_REACTORS
330
2A
102
}
102
{ACAD_XDICTIONARY
360
52E
102
}
330
2A
100
AcDbVisualStyle
  2
Thicken
 70
    13
 71
     2
 72
     2
 73
     0
 90
        0
 40
0.6
 41
30.0
 62
     5
 63
     7
421
 16777215
 74
     1
 91
        4
 64
     7
 65
   257
 75
     1
175
     1
 42
1.0
 92
       12
 66
     7
 43
1.0
 76
     1
 77
     6
 78
     2
 67
     7
 79
     5
170
     0
171
     0
290
     0
174
     0
 93
        1
 44
0.0
173
     0
291
     1
 45
0.0
1001
ACAD
1000
AcDbSavedByObjectVersion
1070
     0
  0
DICTIONARYVAR
  5
514
102
{ACAD_REACTORS
330
513
102
}
330
513
100
DictionaryVariables
280
     0
  1
1:1
  0
DICTIONARYVAR
  5
515
102
{ACAD_REACTORS
330
513
102
}
330
513
100
DictionaryVariables
280
     0
  1
1
  0
DICTIONARY
  5
538
330
3D
100
AcDbDictionary
280
     1
281
     1
  3
ACAD_XREC_ROUNDTRIP
360
539
  0
DICTIONARY
  5
536
330
3C
100
AcDbDictionary
280
     1
281
     1
  3
ACAD_XREC_ROUNDTRIP
360
537
  0
DICTIONARY
  5
53A
330
3E
100
AcDbDictionary
280
     1
281
     1
  3
ACAD_XREC_ROUNDTRIP
360
53B
  0
DICTIONARY
  5
51E
330
2F
100
AcDbDictionary
280
     1
281
     1
  3
ACAD_XREC_ROUNDTRIP
360
51F
  0
DICTIONARY
  5
522
330
31
100
AcDbDictionary
280
     1
281
     1
  3
ACAD_XREC_ROUNDTRIP
360
523
  0
DICTIONARY
  5
520
330
30
100
AcDbDictionary
280
     1
281
     1
  3
ACAD_XREC_ROUNDTRIP
360
521
  0
DICTIONARY
  5
524
330
32
100
AcDbDictionary
280
     1
281
     1
  3
ACAD_XREC_ROUNDTRIP
360
525
  0
DICTIONARY
  5
52C
330
36
100
AcDbDictionary
280
     1
281
     1
  3
ACAD_XREC_ROUNDTRIP
360
52D
  0
DICTIONARY
  5
534
330
3A
100
AcDbDictionary
280
     1
281
     1
  3
ACAD_XREC_ROUNDTRIP
360
535
  0
DICTIONARY
  5
528
330
34
100
AcDbDictionary
280
     1
281
     1
  3
ACAD_XREC_ROUNDTRIP
360
529
  0
DICTIONARY
  5
52A
330
35
100
AcDbDictionary
280
     1
281
     1
  3
ACAD_XREC_ROUNDTRIP
360
52B
  0
DICTIONARY
  5
532
330
39
100
AcDbDictionary
280
     1
281
     1
  3
ACAD_XREC_ROUNDTRIP
360
533
  0
DICTIONARY
  5
516
330
2B
100
AcDbDictionary
280
     1
281
     1
  3
ACAD_XREC_ROUNDTRIP
360
517
  0
DICTIONARY
  5
518
330
2C
100
AcDbDictionary
280
     1
281
     1
  3
ACAD_XREC_ROUNDTRIP
360
519
  0
DICTIONARY
  5
51A
330
2D
100
AcDbDictionary
280
     1
281
     1
  3
ACAD_XREC_ROUNDTRIP
360
51B
  0
DICTIONARY
  5
51C
330
2E
100
AcDbDictionary
280
     1
281
     1
  3
ACAD_XREC_ROUNDTRIP
360
51D
  0
DICTIONARY
  5
530
330
38
100
AcDbDictionary
280
     1
281
     1
  3
ACAD_XREC_ROUNDTRIP
360
531
  0
DICTIONARY
  5
526
330
33
100
AcDbDictionary
280
     1
281
     1
  3
ACAD_XREC_ROUNDTRIP
360
527
  0
DICTIONARY
  5
52E
330
37
100
AcDbDictionary
280
     1
281
     1
  3
ACAD_XREC_ROUNDTRIP
360
52F
  0
XRECORD
  5
539
102
{ACAD_REACTORS
330
538
102
}
330
538
100
AcDbXrecord
280
     1
102
MATERIAL
148
0.0
149
0.0
149
0.0
 93
        0
 94
      127
282
     0
 72
     1
 77
     1
171
     1
175
     1
179
     1
273
     0
  0
XRECORD
  5
537
102
{ACAD_REACTORS
330
536
102
}
330
536
100
AcDbXrecord
280
     1
102
MATERIAL
148
0.0
149
0.0
149
0.0
 93
        0
 94
      127
282
     0
 72
     1
 77
     1
171
     1
175
     1
179
     1
273
     0
  0
XRECORD
  5
53B
102
{ACAD_REACTORS
330
53A
102
}
330
53A
100
AcDbXrecord
280
     1
102
MATERIAL
148
0.0
149
0.0
149
0.0
 93
        0
 94
      127
282
     0
 72
     1
 77
     1
171
     1
175
     1
179
     1
273
     0
  0
XRECORD
  5
51F
102
{ACAD_REACTORS
330
51E
102
}
330
51E
100
AcDbXrecord
280
     1
102
RTVSPropertyOp0
 70
     1
102
RTVSPropertyOp1
 70
     1
102
RTVSPropertyOp2
 70
     1
102
RTVSPropertyOp3
 70
     1
102
RTVSPropertyOp4
 70
     1
102
RTVSPropertyOp5
 70
     1
102
RTVSPropertyOp6
 70
     1
102
RTVSPropertyOp7
 70
     1
102
RTVSPropertyOp8
 70
     1
102
RTVSPropertyOp9
 70
     1
102
RTVSPropertyOp10
 70
     1
102
RTVSPropertyOp11
 70
     1
102
RTVSPropertyOp12
 70
     1
102
RTVSPropertyOp13
 70
     1
102
RTVSPropertyOp14
 70
     1
102
RTVSPropertyOp15
 70
     1
102
RTVSPropertyOp16
 70
     1
102
RTVSPropertyOp17
 70
     1
102
RTVSPropertyOp18
 70
     1
102
RTVSPropertyOp19
 70
     1
102
RTVSPropertyOp20
 70
     1
102
RTVSPropertyOp21
 70
     1
102
RTVSPropertyOp22
 70
     1
102
RTVSPropertyOp23
 70
     1
102
RTVSPropertyOp24
 70
     1
102
RTVSPropertyOp25
 70
     1
102
RTVSPropertyOp26
 70
     1
102
RTVSPropertyOp27
 70
     1
102
RTVSPropertyOp28
 70
     1
102
RTVSPropertyOp29
 70
     1
102
RTVSPropertyOp30
 70
     1
102
RTVSPropertyOp31
 70
     1
102
RTVSPropertyOp32
 70
     1
102
RTVSPropertyOp33
 70
     1
102
RTVSPropertyOp34
 70
     1
102
RTVSPropertyOp35
 70
     1
102
RTVSPropertyOp36
 70
     1
102
RTVSPropertyOp37
 70
     1
102
RTVSPropertyOp38
 70
     1
102
RTVSPropertyOp39
 70
     1
102
RTVSPropertyOp40
 70
     1
102
RTVSPropertyOp41
 70
     1
102
RTVSPropertyOp42
 70
     1
102
RTVSPropertyOp43
 70
     1
102
RTVSPropertyOp44
 70
     1
102
RTVSPropertyOp45
 70
     1
102
RTVSPropertyOp46
 70
     1
102
RTVSPropertyOp47
 70
     1
102
RTVSPropertyOp48
 70
     1
102
RTVSPropertyOp49
 70
     1
102
RTVSPropertyOp50
 70
     1
102
RTVSPropertyOp51
 70
     0
102
RTVSPropertyOp52
 70
     0
102
RTVSPropertyOp53
 70
     1
102
RTVSPropertyOp54
 70
     1
102
RTVSPropertyOp55
 70
     1
102
RTVSPropertyOp56
 70
     1
102
RTVSPropertyOp57
 70
     1
102
RTVSPost2010Prop28
280
     1
102
RTVSPost2010PropOp28
 70
     1
102
RTVSPost2010Prop29
280
     1
102
RTVSPost2010PropOp29
 70
     1
102
RTVSPost2010Prop30
280
     0
102
RTVSPost2010PropOp30
 70
     1
102
RTVSPost2010Prop31
280
     0
102
RTVSPost2010PropOp31
 70
     1
102
RTVSPost2010Prop32
280
     0
102
RTVSPost2010PropOp32
 70
     1
102
RTVSPost2010Prop33
280
     0
102
RTVSPost2010PropOp33
 70
     1
102
RTVSPost2010Prop34
280
     0
102
RTVSPost2010PropOp34
 70
     1
102
RTVSPost2010Prop35
280
     0
102
RTVSPost2010PropOp35
 70
     1
102
RTVSPost2010Prop36
280
     0
102
RTVSPost2010PropOp36
 70
     1
102
RTVSPost2010Prop37
 90
       50
102
RTVSPost2010PropOp37
 70
     1
102
RTVSPost2010Prop38
140
0.0
102
RTVSPost2010PropOp38
 70
     1
102
RTVSPost2010Prop39
140
1.0
102
RTVSPost2010PropOp39
 70
     1
102
RTVSPost2010Prop40
 90
        0
102
RTVSPost2010PropOp40
 70
     1
102
RTVSPost2010Prop41ColorIndex
 90
       18
102
RTVSPost2010Prop41ColorRGB
 90
        0
102
RTVSPost2010PropOp41
 70
     1
102
RTVSPost2010Prop42
 90
       50
102
RTVSPost2010PropOp42
 70
     1
102
RTVSPost2010Prop43
 90
        3
102
RTVSPost2010PropOp43
 70
     1
102
RTVSPost2010Prop44ColorIndex
 90
        5
102
RTVSPost2010Prop44ColorRGB
 90
      255
102
RTVSPost2010PropOp44
 70
     1
102
RTVSPost2010Prop45
280
     0
102
RTVSPost2010PropOp45
 70
     1
102
RTVSPost2010Prop46
 90
       50
102
RTVSPost2010PropOp46
 70
     1
102
RTVSPost2010Prop47
 90
       50
102
RTVSPost2010PropOp47
 70
     1
102
RTVSPost2010Prop48
 90
       50
102
RTVSPost2010PropOp48
 70
     1
102
RTVSPost2010Prop49
280
     0
102
RTVSPost2010PropOp49
 70
     1
102
RTVSPost2010Prop50
 90
       50
102
RTVSPost2010PropOp50
 70
     1
102
RTVSPost2010Prop51ColorIndex
 90
      256
102
RTVSPost2010Prop51ColorRGB
 90
-16777216
102
RTVSPost2010PropOp51
 70
     0
102
RTVSPost2010Prop52
140
1.0
102
RTVSPost2010PropOp52
 70
     0
102
RTVSPost2010Prop53
 90
        2
102
RTVSPost2010PropOp53
 70
     1
102
RTVSPost2010Prop54
  1
strokes_ogs.tif
102
RTVSPost2010PropOp54
 70
     1
102
RTVSPost2010Prop55
280
     0
102
RTVSPost2010PropOp55
 70
     1
102
RTVSPost2010Prop56
140
1.0
102
RTVSPost2010PropOp56
 70
     1
102
RTVSPost2010Prop57
140
1.0
102
RTVSPost2010PropOp57
 70
     1
  0
XRECORD
  5
523
102
{ACAD_REACTORS
330
522
102
}
330
522
100
AcDbXrecord
280
     1
102
RTVSPropertyOp0
 70
     1
102
RTVSPropertyOp1
 70
     1
102
RTVSPropertyOp2
 70
     1
102
RTVSPropertyOp3
 70
     1
102
RTVSPropertyOp4
 70
     1
102
RTVSPropertyOp5
 70
     1
102
RTVSPropertyOp6
 70
     1
102
RTVSPropertyOp7
 70
     1
102
RTVSPropertyOp8
 70
     1
102
RTVSPropertyOp9
 70
     1
102
RTVSPropertyOp10
 70
     1
102
RTVSPropertyOp11
 70
     1
102
RTVSPropertyOp12
 70
     1
102
RTVSPropertyOp13
 70
     1
102
RTVSPropertyOp14
 70
     1
102
RTVSPropertyOp15
 70
     1
102
RTVSPropertyOp16
 70
     1
102
RTVSPropertyOp17
 70
     1
102
RTVSPropertyOp18
 70
     1
102
RTVSPropertyOp19
 70
     1
102
RTVSPropertyOp20
 70
     1
102
RTVSPropertyOp21
 70
     1
102
RTVSPropertyOp22
 70
     1
102
RTVSPropertyOp23
 70
     1
102
RTVSPropertyOp24
 70
     1
102
RTVSPropertyOp25
 70
     1
102
RTVSPropertyOp26
 70
     1
102
RTVSPropertyOp27
 70
     1
102
RTVSPropertyOp28
 70
     1
102
RTVSPropertyOp29
 70
     1
102
RTVSPropertyOp30
 70
     1
102
RTVSPropertyOp31
 70
     1
102
RTVSPropertyOp32
 70
     1
102
RTVSPropertyOp33
 70
     1
102
RTVSPropertyOp34
 70
     1
102
RTVSPropertyOp35
 70
     1
102
RTVSPropertyOp36
 70
     1
102
RTVSPropertyOp37
 70
     1
102
RTVSPropertyOp38
 70
     1
102
RTVSPropertyOp39
 70
     1
102
RTVSPropertyOp40
 70
     1
102
RTVSPropertyOp41
 70
     1
102
RTVSPropertyOp42
 70
     1
102
RTVSPropertyOp43
 70
     1
102
RTVSPropertyOp44
 70
     1
102
RTVSPropertyOp45
 70
     1
102
RTVSPropertyOp46
 70
     1
102
RTVSPropertyOp47
 70
     1
102
RTVSPropertyOp48
 70
     1
102
RTVSPropertyOp49
 70
     1
102
RTVSPropertyOp50
 70
     1
102
RTVSPropertyOp51
 70
     0
102
RTVSPropertyOp52
 70
     0
102
RTVSPropertyOp53
 70
     1
102
RTVSPropertyOp54
 70
     1
102
RTVSPropertyOp55
 70
     1
102
RTVSPropertyOp56
 70
     1
102
RTVSPropertyOp57
 70
     1
102
RTVSPost2010Prop28
280
     0
102
RTVSPost2010PropOp28
 70
     1
102
RTVSPost2010Prop29
280
     1
102
RTVSPost2010PropOp29
 70
     1
102
RTVSPost2010Prop30
280
     1
102
RTVSPost2010PropOp30
 70
     1
102
RTVSPost2010Prop31
280
     0
102
RTVSPost2010PropOp31
 70
     1
102
RTVSPost2010Prop32
280
     0
102
RTVSPost2010PropOp32
 70
     1
102
RTVSPost2010Prop33
280
     0
102
RTVSPost2010PropOp33
 70
     1
102
RTVSPost2010Prop34
280
     0
102
RTVSPost2010PropOp34
 70
     1
102
RTVSPost2010Prop35
280
     0
102
RTVSPost2010PropOp35
 70
     1
102
RTVSPost2010Prop36
280
     0
102
RTVSPost2010PropOp36
 70
     1
102
RTVSPost2010Prop37
 90
       50
102
RTVSPost2010PropOp37
 70
     1
102
RTVSPost2010Prop38
140
0.0
102
RTVSPost2010PropOp38
 70
     1
102
RTVSPost2010Prop39
140
1.0
102
RTVSPost2010PropOp39
 70
     1
102
RTVSPost2010Prop40
 90
        0
102
RTVSPost2010PropOp40
 70
     1
102
RTVSPost2010Prop41ColorIndex
 90
       18
102
RTVSPost2010Prop41ColorRGB
 90
        0
102
RTVSPost2010PropOp41
 70
     1
102
RTVSPost2010Prop42
 90
       50
102
RTVSPost2010PropOp42
 70
     1
102
RTVSPost2010Prop43
 90
        3
102
RTVSPost2010PropOp43
 70
     1
102
RTVSPost2010Prop44ColorIndex
 90
        5
102
RTVSPost2010Prop44ColorRGB
 90
      255
102
RTVSPost2010PropOp44
 70
     1
102
RTVSPost2010Prop45
280
     0
102
RTVSPost2010PropOp45
 70
     1
102
RTVSPost2010Prop46
 90
       50
102
RTVSPost2010PropOp46
 70
     1
102
RTVSPost2010Prop47
 90
       50
102
RTVSPost2010PropOp47
 70
     1
102
RTVSPost2010Prop48
 90
       50
102
RTVSPost2010PropOp48
 70
     1
102
RTVSPost2010Prop49
280
     0
102
RTVSPost2010PropOp49
 70
     1
102
RTVSPost2010Prop50
 90
       50
102
RTVSPost2010PropOp50
 70
     1
102
RTVSPost2010Prop51ColorIndex
 90
      256
102
RTVSPost2010Prop51ColorRGB
 90
-16777216
102
RTVSPost2010PropOp51
 70
     0
102
RTVSPost2010Prop52
140
1.0
102
RTVSPost2010PropOp52
 70
     0
102
RTVSPost2010Prop53
 90
        2
102
RTVSPost2010PropOp53
 70
     1
102
RTVSPost2010Prop54
  1
strokes_ogs.tif
102
RTVSPost2010PropOp54
 70
     1
102
RTVSPost2010Prop55
280
     0
102
RTVSPost2010PropOp55
 70
     1
102
RTVSPost2010Prop56
140
1.0
102
RTVSPost2010PropOp56
 70
     1
102
RTVSPost2010Prop57
140
1.0
102
RTVSPost2010PropOp57
 70
     1
  0
XRECORD
  5
521
102
{ACAD_REACTORS
330
520
102
}
330
520
100
AcDbXrecord
280
     1
102
RTVSPropertyOp0
 70
     1
102
RTVSPropertyOp1
 70
     1
102
RTVSPropertyOp2
 70
     1
102
RTVSPropertyOp3
 70
     1
102
RTVSPropertyOp4
 70
     1
102
RTVSPropertyOp5
 70
     1
102
RTVSPropertyOp6
 70
     1
102
RTVSPropertyOp7
 70
     1
102
RTVSPropertyOp8
 70
     1
102
RTVSPropertyOp9
 70
     1
102
RTVSPropertyOp10
 70
     1
102
RTVSPropertyOp11
 70
     1
102
RTVSPropertyOp12
 70
     1
102
RTVSPropertyOp13
 70
     1
102
RTVSPropertyOp14
 70
     1
102
RTVSPropertyOp15
 70
     1
102
RTVSPropertyOp16
 70
     1
102
RTVSPropertyOp17
 70
     1
102
RTVSPropertyOp18
 70
     1
102
RTVSPropertyOp19
 70
     1
102
RTVSPropertyOp20
 70
     1
102
RTVSPropertyOp21
 70
     1
102
RTVSPropertyOp22
 70
     1
102
RTVSPropertyOp23
 70
     1
102
RTVSPropertyOp24
 70
     1
102
RTVSPropertyOp25
 70
     1
102
RTVSPropertyOp26
 70
     1
102
RTVSPropertyOp27
 70
     1
102
RTVSPropertyOp28
 70
     1
102
RTVSPropertyOp29
 70
     1
102
RTVSPropertyOp30
 70
     1
102
RTVSPropertyOp31
 70
     1
102
RTVSPropertyOp32
 70
     1
102
RTVSPropertyOp33
 70
     1
102
RTVSPropertyOp34
 70
     1
102
RTVSPropertyOp35
 70
     1
102
RTVSPropertyOp36
 70
     1
102
RTVSPropertyOp37
 70
     1
102
RTVSPropertyOp38
 70
     1
102
RTVSPropertyOp39
 70
     1
102
RTVSPropertyOp40
 70
     1
102
RTVSPropertyOp41
 70
     1
102
RTVSPropertyOp42
 70
     1
102
RTVSPropertyOp43
 70
     1
102
RTVSPropertyOp44
 70
     1
102
RTVSPropertyOp45
 70
     1
102
RTVSPropertyOp46
 70
     1
102
RTVSPropertyOp47
 70
     1
102
RTVSPropertyOp48
 70
     1
102
RTVSPropertyOp49
 70
     1
102
RTVSPropertyOp50
 70
     1
102
RTVSPropertyOp51
 70
     0
102
RTVSPropertyOp52
 70
     0
102
RTVSPropertyOp53
 70
     1
102
RTVSPropertyOp54
 70
     1
102
RTVSPropertyOp55
 70
     1
102
RTVSPropertyOp56
 70
     1
102
RTVSPropertyOp57
 70
     1
102
RTVSPost2010Prop28
280
     0
102
RTVSPost2010PropOp28
 70
     1
102
RTVSPost2010Prop29
280
     1
102
RTVSPost2010PropOp29
 70
     1
102
RTVSPost2010Prop30
280
     1
102
RTVSPost2010PropOp30
 70
     1
102
RTVSPost2010Prop31
280
     0
102
RTVSPost2010PropOp31
 70
     1
102
RTVSPost2010Prop32
280
     0
102
RTVSPost2010PropOp32
 70
     1
102
RTVSPost2010Prop33
280
     0
102
RTVSPost2010PropOp33
 70
     1
102
RTVSPost2010Prop34
280
     0
102
RTVSPost2010PropOp34
 70
     1
102
RTVSPost2010Prop35
280
     0
102
RTVSPost2010PropOp35
 70
     1
102
RTVSPost2010Prop36
280
     0
102
RTVSPost2010PropOp36
 70
     1
102
RTVSPost2010Prop37
 90
       50
102
RTVSPost2010PropOp37
 70
     1
102
RTVSPost2010Prop38
140
0.0
102
RTVSPost2010PropOp38
 70
     1
102
RTVSPost2010Prop39
140
1.0
102
RTVSPost2010PropOp39
 70
     1
102
RTVSPost2010Prop40
 90
        0
102
RTVSPost2010PropOp40
 70
     1
102
RTVSPost2010Prop41ColorIndex
 90
       18
102
RTVSPost2010Prop41ColorRGB
 90
        0
102
RTVSPost2010PropOp41
 70
     1
102
RTVSPost2010Prop42
 90
       50
102
RTVSPost2010PropOp42
 70
     1
102
RTVSPost2010Prop43
 90
        3
102
RTVSPost2010PropOp43
 70
     1
102
RTVSPost2010Prop44ColorIndex
 90
        5
102
RTVSPost2010Prop44ColorRGB
 90
      255
102
RTVSPost2010PropOp44
 70
     1
102
RTVSPost2010Prop45
280
     0
102
RTVSPost2010PropOp45
 70
     1
102
RTVSPost2010Prop46
 90
       50
102
RTVSPost2010PropOp46
 70
     1
102
RTVSPost2010Prop47
 90
       50
102
RTVSPost2010PropOp47
 70
     1
102
RTVSPost2010Prop48
 90
       50
102
RTVSPost2010PropOp48
 70
     1
102
RTVSPost2010Prop49
280
     0
102
RTVSPost2010PropOp49
 70
     1
102
RTVSPost2010Prop50
 90
       50
102
RTVSPost2010PropOp50
 70
     1
102
RTVSPost2010Prop51ColorIndex
 90
      256
102
RTVSPost2010Prop51ColorRGB
 90
-16777216
102
RTVSPost2010PropOp51
 70
     0
102
RTVSPost2010Prop52
140
1.0
102
RTVSPost2010PropOp52
 70
     0
102
RTVSPost2010Prop53
 90
        2
102
RTVSPost2010PropOp53
 70
     1
102
RTVSPost2010Prop54
  1
strokes_ogs.tif
102
RTVSPost2010PropOp54
 70
     1
102
RTVSPost2010Prop55
280
     0
102
RTVSPost2010PropOp55
 70
     1
102
RTVSPost2010Prop56
140
1.0
102
RTVSPost2010PropOp56
 70
     1
102
RTVSPost2010Prop57
140
1.0
102
RTVSPost2010PropOp57
 70
     1
  0
XRECORD
  5
525
102
{ACAD_REACTORS
330
524
102
}
330
524
100
AcDbXrecord
280
     1
102
RTVSPropertyOp0
 70
     1
102
RTVSPropertyOp1
 70
     1
102
RTVSPropertyOp2
 70
     1
102
RTVSPropertyOp3
 70
     1
102
RTVSPropertyOp4
 70
     1
102
RTVSPropertyOp5
 70
     1
102
RTVSPropertyOp6
 70
     1
102
RTVSPropertyOp7
 70
     1
102
RTVSPropertyOp8
 70
     1
102
RTVSPropertyOp9
 70
     1
102
RTVSPropertyOp10
 70
     1
102
RTVSPropertyOp11
 70
     1
102
RTVSPropertyOp12
 70
     1
102
RTVSPropertyOp13
 70
     1
102
RTVSPropertyOp14
 70
     1
102
RTVSPropertyOp15
 70
     1
102
RTVSPropertyOp16
 70
     1
102
RTVSPropertyOp17
 70
     1
102
RTVSPropertyOp18
 70
     1
102
RTVSPropertyOp19
 70
     1
102
RTVSPropertyOp20
 70
     1
102
RTVSPropertyOp21
 70
     1
102
RTVSPropertyOp22
 70
     1
102
RTVSPropertyOp23
 70
     1
102
RTVSPropertyOp24
 70
     1
102
RTVSPropertyOp25
 70
     1
102
RTVSPropertyOp26
 70
     1
102
RTVSPropertyOp27
 70
     1
102
RTVSPropertyOp28
 70
     1
102
RTVSPropertyOp29
 70
     1
102
RTVSPropertyOp30
 70
     1
102
RTVSPropertyOp31
 70
     1
102
RTVSPropertyOp32
 70
     1
102
RTVSPropertyOp33
 70
     1
102
RTVSPropertyOp34
 70
     1
102
RTVSPropertyOp35
 70
     1
102
RTVSPropertyOp36
 70
     1
102
RTVSPropertyOp37
 70
     1
102
RTVSPropertyOp38
 70
     1
102
RTVSPropertyOp39
 70
     1
102
RTVSPropertyOp40
 70
     1
102
RTVSPropertyOp41
 70
     1
102
RTVSPropertyOp42
 70
     1
102
RTVSPropertyOp43
 70
     1
102
RTVSPropertyOp44
 70
     1
102
RTVSPropertyOp45
 70
     1
102
RTVSPropertyOp46
 70
     1
102
RTVSPropertyOp47
 70
     1
102
RTVSPropertyOp48
 70
     1
102
RTVSPropertyOp49
 70
     1
102
RTVSPropertyOp50
 70
     1
102
RTVSPropertyOp51
 70
     0
102
RTVSPropertyOp52
 70
     0
102
RTVSPropertyOp53
 70
     1
102
RTVSPropertyOp54
 70
     1
102
RTVSPropertyOp55
 70
     1
102
RTVSPropertyOp56
 70
     1
102
RTVSPropertyOp57
 70
     1
102
RTVSPost2010Prop28
280
     0
102
RTVSPost2010PropOp28
 70
     1
102
RTVSPost2010Prop29
280
     1
102
RTVSPost2010PropOp29
 70
     1
102
RTVSPost2010Prop30
280
     1
102
RTVSPost2010PropOp30
 70
     1
102
RTVSPost2010Prop31
280
     0
102
RTVSPost2010PropOp31
 70
     1
102
RTVSPost2010Prop32
280
     0
102
RTVSPost2010PropOp32
 70
     1
102
RTVSPost2010Prop33
280
     0
102
RTVSPost2010PropOp33
 70
     1
102
RTVSPost2010Prop34
280
     0
102
RTVSPost2010PropOp34
 70
     1
102
RTVSPost2010Prop35
280
     0
102
RTVSPost2010PropOp35
 70
     1
102
RTVSPost2010Prop36
280
     0
102
RTVSPost2010PropOp36
 70
     1
102
RTVSPost2010Prop37
 90
       50
102
RTVSPost2010PropOp37
 70
     1
102
RTVSPost2010Prop38
140
0.0
102
RTVSPost2010PropOp38
 70
     1
102
RTVSPost2010Prop39
140
1.0
102
RTVSPost2010PropOp39
 70
     1
102
RTVSPost2010Prop40
 90
        0
102
RTVSPost2010PropOp40
 70
     1
102
RTVSPost2010Prop41ColorIndex
 90
       18
102
RTVSPost2010Prop41ColorRGB
 90
        0
102
RTVSPost2010PropOp41
 70
     1
102
RTVSPost2010Prop42
 90
       50
102
RTVSPost2010PropOp42
 70
     1
102
RTVSPost2010Prop43
 90
        3
102
RTVSPost2010PropOp43
 70
     1
102
RTVSPost2010Prop44ColorIndex
 90
        5
102
RTVSPost2010Prop44ColorRGB
 90
      255
102
RTVSPost2010PropOp44
 70
     1
102
RTVSPost2010Prop45
280
     0
102
RTVSPost2010PropOp45
 70
     1
102
RTVSPost2010Prop46
 90
       50
102
RTVSPost2010PropOp46
 70
     1
102
RTVSPost2010Prop47
 90
       50
102
RTVSPost2010PropOp47
 70
     1
102
RTVSPost2010Prop48
 90
       50
102
RTVSPost2010PropOp48
 70
     1
102
RTVSPost2010Prop49
280
     0
102
RTVSPost2010PropOp49
 70
     1
102
RTVSPost2010Prop50
 90
       50
102
RTVSPost2010PropOp50
 70
     1
102
RTVSPost2010Prop51ColorIndex
 90
      256
102
RTVSPost2010Prop51ColorRGB
 90
-16777216
102
RTVSPost2010PropOp51
 70
     0
102
RTVSPost2010Prop52
140
1.0
102
RTVSPost2010PropOp52
 70
     0
102
RTVSPost2010Prop53
 90
        2
102
RTVSPost2010PropOp53
 70
     1
102
RTVSPost2010Prop54
  1
strokes_ogs.tif
102
RTVSPost2010PropOp54
 70
     1
102
RTVSPost2010Prop55
280
     0
102
RTVSPost2010PropOp55
 70
     1
102
RTVSPost2010Prop56
140
1.0
102
RTVSPost2010PropOp56
 70
     1
102
RTVSPost2010Prop57
140
1.0
102
RTVSPost2010PropOp57
 70
     1
  0
XRECORD
  5
52D
102
{ACAD_REACTORS
330
52C
102
}
330
52C
100
AcDbXrecord
280
     1
102
RTVSPropertyOp0
 70
     1
102
RTVSPropertyOp1
 70
     1
102
RTVSPropertyOp2
 70
     1
102
RTVSPropertyOp3
 70
     1
102
RTVSPropertyOp4
 70
     1
102
RTVSPropertyOp5
 70
     1
102
RTVSPropertyOp6
 70
     1
102
RTVSPropertyOp7
 70
     1
102
RTVSPropertyOp8
 70
     1
102
RTVSPropertyOp9
 70
     1
102
RTVSPropertyOp10
 70
     1
102
RTVSPropertyOp11
 70
     1
102
RTVSPropertyOp12
 70
     1
102
RTVSPropertyOp13
 70
     1
102
RTVSPropertyOp14
 70
     1
102
RTVSPropertyOp15
 70
     1
102
RTVSPropertyOp16
 70
     1
102
RTVSPropertyOp17
 70
     1
102
RTVSPropertyOp18
 70
     1
102
RTVSPropertyOp19
 70
     1
102
RTVSPropertyOp20
 70
     1
102
RTVSPropertyOp21
 70
     1
102
RTVSPropertyOp22
 70
     1
102
RTVSPropertyOp23
 70
     1
102
RTVSPropertyOp24
 70
     1
102
RTVSPropertyOp25
 70
     1
102
RTVSPropertyOp26
 70
     1
102
RTVSPropertyOp27
 70
     1
102
RTVSPropertyOp28
 70
     1
102
RTVSPropertyOp29
 70
     1
102
RTVSPropertyOp30
 70
     1
102
RTVSPropertyOp31
 70
     1
102
RTVSPropertyOp32
 70
     1
102
RTVSPropertyOp33
 70
     1
102
RTVSPropertyOp34
 70
     1
102
RTVSPropertyOp35
 70
     1
102
RTVSPropertyOp36
 70
     1
102
RTVSPropertyOp37
 70
     1
102
RTVSPropertyOp38
 70
     1
102
RTVSPropertyOp39
 70
     1
102
RTVSPropertyOp40
 70
     1
102
RTVSPropertyOp41
 70
     1
102
RTVSPropertyOp42
 70
     1
102
RTVSPropertyOp43
 70
     1
102
RTVSPropertyOp44
 70
     1
102
RTVSPropertyOp45
 70
     1
102
RTVSPropertyOp46
 70
     1
102
RTVSPropertyOp47
 70
     1
102
RTVSPropertyOp48
 70
     1
102
RTVSPropertyOp49
 70
     1
102
RTVSPropertyOp50
 70
     1
102
RTVSPropertyOp51
 70
     0
102
RTVSPropertyOp52
 70
     0
102
RTVSPropertyOp53
 70
     1
102
RTVSPropertyOp54
 70
     1
102
RTVSPropertyOp55
 70
     1
102
RTVSPropertyOp56
 70
     1
102
RTVSPropertyOp57
 70
     1
102
RTVSPost2010Prop28
280
     0
102
RTVSPost2010PropOp28
 70
     1
102
RTVSPost2010Prop29
280
     1
102
RTVSPost2010PropOp29
 70
     1
102
RTVSPost2010Prop30
280
     1
102
RTVSPost2010PropOp30
 70
     1
102
RTVSPost2010Prop31
280
     0
102
RTVSPost2010PropOp31
 70
     1
102
RTVSPost2010Prop32
280
     0
102
RTVSPost2010PropOp32
 70
     1
102
RTVSPost2010Prop33
280
     0
102
RTVSPost2010PropOp33
 70
     1
102
RTVSPost2010Prop34
280
     0
102
RTVSPost2010PropOp34
 70
     1
102
RTVSPost2010Prop35
280
     0
102
RTVSPost2010PropOp35
 70
     1
102
RTVSPost2010Prop36
280
     0
102
RTVSPost2010PropOp36
 70
     1
102
RTVSPost2010Prop37
 90
       50
102
RTVSPost2010PropOp37
 70
     1
102
RTVSPost2010Prop38
140
0.0
102
RTVSPost2010PropOp38
 70
     1
102
RTVSPost2010Prop39
140
1.0
102
RTVSPost2010PropOp39
 70
     1
102
RTVSPost2010Prop40
 90
        0
102
RTVSPost2010PropOp40
 70
     1
102
RTVSPost2010Prop41ColorIndex
 90
       18
102
RTVSPost2010Prop41ColorRGB
 90
        0
102
RTVSPost2010PropOp41
 70
     1
102
RTVSPost2010Prop42
 90
       50
102
RTVSPost2010PropOp42
 70
     1
102
RTVSPost2010Prop43
 90
        3
102
RTVSPost2010PropOp43
 70
     1
102
RTVSPost2010Prop44ColorIndex
 90
        5
102
RTVSPost2010Prop44ColorRGB
 90
      255
102
RTVSPost2010PropOp44
 70
     1
102
RTVSPost2010Prop45
280
     0
102
RTVSPost2010PropOp45
 70
     1
102
RTVSPost2010Prop46
 90
       50
102
RTVSPost2010PropOp46
 70
     1
102
RTVSPost2010Prop47
 90
       50
102
RTVSPost2010PropOp47
 70
     1
102
RTVSPost2010Prop48
 90
       50
102
RTVSPost2010PropOp48
 70
     1
102
RTVSPost2010Prop49
280
     0
102
RTVSPost2010PropOp49
 70
     1
102
RTVSPost2010Prop50
 90
       50
102
RTVSPost2010PropOp50
 70
     1
102
RTVSPost2010Prop51ColorIndex
 90
      256
102
RTVSPost2010Prop51ColorRGB
 90
-16777216
102
RTVSPost2010PropOp51
 70
     0
102
RTVSPost2010Prop52
140
1.0
102
RTVSPost2010PropOp52
 70
     0
102
RTVSPost2010Prop53
 90
        2
102
RTVSPost2010PropOp53
 70
     1
102
RTVSPost2010Prop54
  1
strokes_ogs.tif
102
RTVSPost2010PropOp54
 70
     1
102
RTVSPost2010Prop55
280
     0
102
RTVSPost2010PropOp55
 70
     1
102
RTVSPost2010Prop56
140
1.0
102
RTVSPost2010PropOp56
 70
     1
102
RTVSPost2010Prop57
140
1.0
102
RTVSPost2010PropOp57
 70
     1
  0
XRECORD
  5
535
102
{ACAD_REACTORS
330
534
102
}
330
534
100
AcDbXrecord
280
     1
102
RTVSPropertyOp0
 70
     1
102
RTVSPropertyOp1
 70
     1
102
RTVSPropertyOp2
 70
     1
102
RTVSPropertyOp3
 70
     1
102
RTVSPropertyOp4
 70
     1
102
RTVSPropertyOp5
 70
     1
102
RTVSPropertyOp6
 70
     1
102
RTVSPropertyOp7
 70
     1
102
RTVSPropertyOp8
 70
     1
102
RTVSPropertyOp9
 70
     1
102
RTVSPropertyOp10
 70
     1
102
RTVSPropertyOp11
 70
     1
102
RTVSPropertyOp12
 70
     1
102
RTVSPropertyOp13
 70
     1
102
RTVSPropertyOp14
 70
     1
102
RTVSPropertyOp15
 70
     1
102
RTVSPropertyOp16
 70
     1
102
RTVSPropertyOp17
 70
     1
102
RTVSPropertyOp18
 70
     1
102
RTVSPropertyOp19
 70
     1
102
RTVSPropertyOp20
 70
     1
102
RTVSPropertyOp21
 70
     1
102
RTVSPropertyOp22
 70
     1
102
RTVSPropertyOp23
 70
     1
102
RTVSPropertyOp24
 70
     1
102
RTVSPropertyOp25
 70
     1
102
RTVSPropertyOp26
 70
     1
102
RTVSPropertyOp27
 70
     1
102
RTVSPropertyOp28
 70
     1
102
RTVSPropertyOp29
 70
     1
102
RTVSPropertyOp30
 70
     1
102
RTVSPropertyOp31
 70
     1
102
RTVSPropertyOp32
 70
     1
102
RTVSPropertyOp33
 70
     1
102
RTVSPropertyOp34
 70
     1
102
RTVSPropertyOp35
 70
     1
102
RTVSPropertyOp36
 70
     1
102
RTVSPropertyOp37
 70
     1
102
RTVSPropertyOp38
 70
     1
102
RTVSPropertyOp39
 70
     1
102
RTVSPropertyOp40
 70
     1
102
RTVSPropertyOp41
 70
     1
102
RTVSPropertyOp42
 70
     1
102
RTVSPropertyOp43
 70
     1
102
RTVSPropertyOp44
 70
     1
102
RTVSPropertyOp45
 70
     1
102
RTVSPropertyOp46
 70
     1
102
RTVSPropertyOp47
 70
     1
102
RTVSPropertyOp48
 70
     1
102
RTVSPropertyOp49
 70
     1
102
RTVSPropertyOp50
 70
     1
102
RTVSPropertyOp51
 70
     0
102
RTVSPropertyOp52
 70
     0
102
RTVSPropertyOp53
 70
     1
102
RTVSPropertyOp54
 70
     1
102
RTVSPropertyOp55
 70
     1
102
RTVSPropertyOp56
 70
     1
102
RTVSPropertyOp57
 70
     1
102
RTVSPost2010Prop28
280
     0
102
RTVSPost2010PropOp28
 70
     1
102
RTVSPost2010Prop29
280
     1
102
RTVSPost2010PropOp29
 70
     1
102
RTVSPost2010Prop30
280
     1
102
RTVSPost2010PropOp30
 70
     1
102
RTVSPost2010Prop31
280
     0
102
RTVSPost2010PropOp31
 70
     1
102
RTVSPost2010Prop32
280
     0
102
RTVSPost2010PropOp32
 70
     1
102
RTVSPost2010Prop33
280
     0
102
RTVSPost2010PropOp33
 70
     1
102
RTVSPost2010Prop34
280
     0
102
RTVSPost2010PropOp34
 70
     1
102
RTVSPost2010Prop35
280
     0
102
RTVSPost2010PropOp35
 70
     1
102
RTVSPost2010Prop36
280
     0
102
RTVSPost2010PropOp36
 70
     1
102
RTVSPost2010Prop37
 90
       50
102
RTVSPost2010PropOp37
 70
     1
102
RTVSPost2010Prop38
140
0.0
102
RTVSPost2010PropOp38
 70
     1
102
RTVSPost2010Prop39
140
1.0
102
RTVSPost2010PropOp39
 70
     1
102
RTVSPost2010Prop40
 90
        0
102
RTVSPost2010PropOp40
 70
     1
102
RTVSPost2010Prop41ColorIndex
 90
       18
102
RTVSPost2010Prop41ColorRGB
 90
        0
102
RTVSPost2010PropOp41
 70
     1
102
RTVSPost2010Prop42
 90
       50
102
RTVSPost2010PropOp42
 70
     1
102
RTVSPost2010Prop43
 90
        3
102
RTVSPost2010PropOp43
 70
     1
102
RTVSPost2010Prop44ColorIndex
 90
        5
102
RTVSPost2010Prop44ColorRGB
 90
      255
102
RTVSPost2010PropOp44
 70
     1
102
RTVSPost2010Prop45
280
     0
102
RTVSPost2010PropOp45
 70
     1
102
RTVSPost2010Prop46
 90
       50
102
RTVSPost2010PropOp46
 70
     1
102
RTVSPost2010Prop47
 90
       50
102
RTVSPost2010PropOp47
 70
     1
102
RTVSPost2010Prop48
 90
       50
102
RTVSPost2010PropOp48
 70
     1
102
RTVSPost2010Prop49
280
     0
102
RTVSPost2010PropOp49
 70
     1
102
RTVSPost2010Prop50
 90
       50
102
RTVSPost2010PropOp50
 70
     1
102
RTVSPost2010Prop51ColorIndex
 90
      256
102
RTVSPost2010Prop51ColorRGB
 90
-16777216
102
RTVSPost2010PropOp51
 70
     0
102
RTVSPost2010Prop52
140
1.0
102
RTVSPost2010PropOp52
 70
     0
102
RTVSPost2010Prop53
 90
        2
102
RTVSPost2010PropOp53
 70
     1
102
RTVSPost2010Prop54
  1
strokes_ogs.tif
102
RTVSPost2010PropOp54
 70
     1
102
RTVSPost2010Prop55
280
     0
102
RTVSPost2010PropOp55
 70
     1
102
RTVSPost2010Prop56
140
1.0
102
RTVSPost2010PropOp56
 70
     1
102
RTVSPost2010Prop57
140
1.0
102
RTVSPost2010PropOp57
 70
     1
  0
XRECORD
  5
529
102
{ACAD_REACTORS
330
528
102
}
330
528
100
AcDbXrecord
280
     1
102
RTVSPropertyOp0
 70
     1
102
RTVSPropertyOp1
 70
     1
102
RTVSPropertyOp2
 70
     1
102
RTVSPropertyOp3
 70
     1
102
RTVSPropertyOp4
 70
     1
102
RTVSPropertyOp5
 70
     1
102
RTVSPropertyOp6
 70
     1
102
RTVSPropertyOp7
 70
     1
102
RTVSPropertyOp8
 70
     1
102
RTVSPropertyOp9
 70
     1
102
RTVSPropertyOp10
 70
     1
102
RTVSPropertyOp11
 70
     1
102
RTVSPropertyOp12
 70
     1
102
RTVSPropertyOp13
 70
     1
102
RTVSPropertyOp14
 70
     1
102
RTVSPropertyOp15
 70
     1
102
RTVSPropertyOp16
 70
     1
102
RTVSPropertyOp17
 70
     1
102
RTVSPropertyOp18
 70
     1
102
RTVSPropertyOp19
 70
     1
102
RTVSPropertyOp20
 70
     1
102
RTVSPropertyOp21
 70
     1
102
RTVSPropertyOp22
 70
     1
102
RTVSPropertyOp23
 70
     1
102
RTVSPropertyOp24
 70
     1
102
RTVSPropertyOp25
 70
     1
102
RTVSPropertyOp26
 70
     1
102
RTVSPropertyOp27
 70
     1
102
RTVSPropertyOp28
 70
     1
102
RTVSPropertyOp29
 70
     1
102
RTVSPropertyOp30
 70
     1
102
RTVSPropertyOp31
 70
     1
102
RTVSPropertyOp32
 70
     1
102
RTVSPropertyOp33
 70
     1
102
RTVSPropertyOp34
 70
     1
102
RTVSPropertyOp35
 70
     1
102
RTVSPropertyOp36
 70
     1
102
RTVSPropertyOp37
 70
     1
102
RTVSPropertyOp38
 70
     1
102
RTVSPropertyOp39
 70
     1
102
RTVSPropertyOp40
 70
     1
102
RTVSPropertyOp41
 70
     1
102
RTVSPropertyOp42
 70
     1
102
RTVSPropertyOp43
 70
     1
102
RTVSPropertyOp44
 70
     1
102
RTVSPropertyOp45
 70
     1
102
RTVSPropertyOp46
 70
     1
102
RTVSPropertyOp47
 70
     1
102
RTVSPropertyOp48
 70
     1
102
RTVSPropertyOp49
 70
     1
102
RTVSPropertyOp50
 70
     1
102
RTVSPropertyOp51
 70
     0
102
RTVSPropertyOp52
 70
     0
102
RTVSPropertyOp53
 70
     1
102
RTVSPropertyOp54
 70
     1
102
RTVSPropertyOp55
 70
     1
102
RTVSPropertyOp56
 70
     1
102
RTVSPropertyOp57
 70
     1
102
RTVSPost2010Prop28
280
     0
102
RTVSPost2010PropOp28
 70
     1
102
RTVSPost2010Prop29
280
     1
102
RTVSPost2010PropOp29
 70
     1
102
RTVSPost2010Prop30
280
     1
102
RTVSPost2010PropOp30
 70
     1
102
RTVSPost2010Prop31
280
     0
102
RTVSPost2010PropOp31
 70
     1
102
RTVSPost2010Prop32
280
     0
102
RTVSPost2010PropOp32
 70
     1
102
RTVSPost2010Prop33
280
     0
102
RTVSPost2010PropOp33
 70
     1
102
RTVSPost2010Prop34
280
     0
102
RTVSPost2010PropOp34
 70
     1
102
RTVSPost2010Prop35
280
     0
102
RTVSPost2010PropOp35
 70
     1
102
RTVSPost2010Prop36
280
     0
102
RTVSPost2010PropOp36
 70
     1
102
RTVSPost2010Prop37
 90
       50
102
RTVSPost2010PropOp37
 70
     1
102
RTVSPost2010Prop38
140
0.0
102
RTVSPost2010PropOp38
 70
     1
102
RTVSPost2010Prop39
140
1.0
102
RTVSPost2010PropOp39
 70
     1
102
RTVSPost2010Prop40
 90
        0
102
RTVSPost2010PropOp40
 70
     1
102
RTVSPost2010Prop41ColorIndex
 90
       18
102
RTVSPost2010Prop41ColorRGB
 90
        0
102
RTVSPost2010PropOp41
 70
     1
102
RTVSPost2010Prop42
 90
       50
102
RTVSPost2010PropOp42
 70
     1
102
RTVSPost2010Prop43
 90
        3
102
RTVSPost2010PropOp43
 70
     1
102
RTVSPost2010Prop44ColorIndex
 90
        5
102
RTVSPost2010Prop44ColorRGB
 90
      255
102
RTVSPost2010PropOp44
 70
     1
102
RTVSPost2010Prop45
280
     0
102
RTVSPost2010PropOp45
 70
     1
102
RTVSPost2010Prop46
 90
       50
102
RTVSPost2010PropOp46
 70
     1
102
RTVSPost2010Prop47
 90
       50
102
RTVSPost2010PropOp47
 70
     1
102
RTVSPost2010Prop48
 90
       50
102
RTVSPost2010PropOp48
 70
     1
102
RTVSPost2010Prop49
280
     0
102
RTVSPost2010PropOp49
 70
     1
102
RTVSPost2010Prop50
 90
       50
102
RTVSPost2010PropOp50
 70
     1
102
RTVSPost2010Prop51ColorIndex
 90
      256
102
RTVSPost2010Prop51ColorRGB
 90
-16777216
102
RTVSPost2010PropOp51
 70
     0
102
RTVSPost2010Prop52
140
1.0
102
RTVSPost2010PropOp52
 70
     0
102
RTVSPost2010Prop53
 90
        2
102
RTVSPost2010PropOp53
 70
     1
102
RTVSPost2010Prop54
  1
strokes_ogs.tif
102
RTVSPost2010PropOp54
 70
     1
102
RTVSPost2010Prop55
280
     0
102
RTVSPost2010PropOp55
 70
     1
102
RTVSPost2010Prop56
140
1.0
102
RTVSPost2010PropOp56
 70
     1
102
RTVSPost2010Prop57
140
1.0
102
RTVSPost2010PropOp57
 70
     1
  0
XRECORD
  5
52B
102
{ACAD_REACTORS
330
52A
102
}
330
52A
100
AcDbXrecord
280
     1
102
RTVSPropertyOp0
 70
     1
102
RTVSPropertyOp1
 70
     1
102
RTVSPropertyOp2
 70
     1
102
RTVSPropertyOp3
 70
     1
102
RTVSPropertyOp4
 70
     1
102
RTVSPropertyOp5
 70
     1
102
RTVSPropertyOp6
 70
     1
102
RTVSPropertyOp7
 70
     1
102
RTVSPropertyOp8
 70
     1
102
RTVSPropertyOp9
 70
     1
102
RTVSPropertyOp10
 70
     1
102
RTVSPropertyOp11
 70
     1
102
RTVSPropertyOp12
 70
     1
102
RTVSPropertyOp13
 70
     1
102
RTVSPropertyOp14
 70
     1
102
RTVSPropertyOp15
 70
     1
102
RTVSPropertyOp16
 70
     1
102
RTVSPropertyOp17
 70
     1
102
RTVSPropertyOp18
 70
     1
102
RTVSPropertyOp19
 70
     1
102
RTVSPropertyOp20
 70
     1
102
RTVSPropertyOp21
 70
     1
102
RTVSPropertyOp22
 70
     1
102
RTVSPropertyOp23
 70
     1
102
RTVSPropertyOp24
 70
     1
102
RTVSPropertyOp25
 70
     1
102
RTVSPropertyOp26
 70
     1
102
RTVSPropertyOp27
 70
     1
102
RTVSPropertyOp28
 70
     1
102
RTVSPropertyOp29
 70
     1
102
RTVSPropertyOp30
 70
     1
102
RTVSPropertyOp31
 70
     1
102
RTVSPropertyOp32
 70
     1
102
RTVSPropertyOp33
 70
     1
102
RTVSPropertyOp34
 70
     1
102
RTVSPropertyOp35
 70
     1
102
RTVSPropertyOp36
 70
     1
102
RTVSPropertyOp37
 70
     1
102
RTVSPropertyOp38
 70
     1
102
RTVSPropertyOp39
 70
     1
102
RTVSPropertyOp40
 70
     1
102
RTVSPropertyOp41
 70
     1
102
RTVSPropertyOp42
 70
     1
102
RTVSPropertyOp43
 70
     1
102
RTVSPropertyOp44
 70
     1
102
RTVSPropertyOp45
 70
     1
102
RTVSPropertyOp46
 70
     1
102
RTVSPropertyOp47
 70
     1
102
RTVSPropertyOp48
 70
     1
102
RTVSPropertyOp49
 70
     1
102
RTVSPropertyOp50
 70
     1
102
RTVSPropertyOp51
 70
     0
102
RTVSPropertyOp52
 70
     0
102
RTVSPropertyOp53
 70
     1
102
RTVSPropertyOp54
 70
     1
102
RTVSPropertyOp55
 70
     1
102
RTVSPropertyOp56
 70
     1
102
RTVSPropertyOp57
 70
     1
102
RTVSPost2010Prop28
280
     0
102
RTVSPost2010PropOp28
 70
     1
102
RTVSPost2010Prop29
280
     1
102
RTVSPost2010PropOp29
 70
     1
102
RTVSPost2010Prop30
280
     1
102
RTVSPost2010PropOp30
 70
     1
102
RTVSPost2010Prop31
280
     0
102
RTVSPost2010PropOp31
 70
     1
102
RTVSPost2010Prop32
280
     0
102
RTVSPost2010PropOp32
 70
     1
102
RTVSPost2010Prop33
280
     0
102
RTVSPost2010PropOp33
 70
     1
102
RTVSPost2010Prop34
280
     0
102
RTVSPost2010PropOp34
 70
     1
102
RTVSPost2010Prop35
280
     0
102
RTVSPost2010PropOp35
 70
     1
102
RTVSPost2010Prop36
280
     0
102
RTVSPost2010PropOp36
 70
     1
102
RTVSPost2010Prop37
 90
       50
102
RTVSPost2010PropOp37
 70
     1
102
RTVSPost2010Prop38
140
0.0
102
RTVSPost2010PropOp38
 70
     1
102
RTVSPost2010Prop39
140
1.0
102
RTVSPost2010PropOp39
 70
     1
102
RTVSPost2010Prop40
 90
        0
102
RTVSPost2010PropOp40
 70
     1
102
RTVSPost2010Prop41ColorIndex
 90
       18
102
RTVSPost2010Prop41ColorRGB
 90
        0
102
RTVSPost2010PropOp41
 70
     1
102
RTVSPost2010Prop42
 90
       50
102
RTVSPost2010PropOp42
 70
     1
102
RTVSPost2010Prop43
 90
        3
102
RTVSPost2010PropOp43
 70
     1
102
RTVSPost2010Prop44ColorIndex
 90
        5
102
RTVSPost2010Prop44ColorRGB
 90
      255
102
RTVSPost2010PropOp44
 70
     1
102
RTVSPost2010Prop45
280
     0
102
RTVSPost2010PropOp45
 70
     1
102
RTVSPost2010Prop46
 90
       50
102
RTVSPost2010PropOp46
 70
     1
102
RTVSPost2010Prop47
 90
       50
102
RTVSPost2010PropOp47
 70
     1
102
RTVSPost2010Prop48
 90
       50
102
RTVSPost2010PropOp48
 70
     1
102
RTVSPost2010Prop49
280
     0
102
RTVSPost2010PropOp49
 70
     1
102
RTVSPost2010Prop50
 90
       50
102
RTVSPost2010PropOp50
 70
     1
102
RTVSPost2010Prop51ColorIndex
 90
      256
102
RTVSPost2010Prop51ColorRGB
 90
-16777216
102
RTVSPost2010PropOp51
 70
     0
102
RTVSPost2010Prop52
140
1.0
102
RTVSPost2010PropOp52
 70
     0
102
RTVSPost2010Prop53
 90
        2
102
RTVSPost2010PropOp53
 70
     1
102
RTVSPost2010Prop54
  1
strokes_ogs.tif
102
RTVSPost2010PropOp54
 70
     1
102
RTVSPost2010Prop55
280
     0
102
RTVSPost2010PropOp55
 70
     1
102
RTVSPost2010Prop56
140
1.0
102
RTVSPost2010PropOp56
 70
     1
102
RTVSPost2010Prop57
140
1.0
102
RTVSPost2010PropOp57
 70
     1
  0
XRECORD
  5
533
102
{ACAD_REACTORS
330
532
102
}
330
532
100
AcDbXrecord
280
     1
102
RTVSPropertyOp0
 70
     1
102
RTVSPropertyOp1
 70
     1
102
RTVSPropertyOp2
 70
     1
102
RTVSPropertyOp3
 70
     1
102
RTVSPropertyOp4
 70
     1
102
RTVSPropertyOp5
 70
     1
102
RTVSPropertyOp6
 70
     1
102
RTVSPropertyOp7
 70
     1
102
RTVSPropertyOp8
 70
     1
102
RTVSPropertyOp9
 70
     1
102
RTVSPropertyOp10
 70
     1
102
RTVSPropertyOp11
 70
     1
102
RTVSPropertyOp12
 70
     1
102
RTVSPropertyOp13
 70
     1
102
RTVSPropertyOp14
 70
     1
102
RTVSPropertyOp15
 70
     1
102
RTVSPropertyOp16
 70
     1
102
RTVSPropertyOp17
 70
     1
102
RTVSPropertyOp18
 70
     1
102
RTVSPropertyOp19
 70
     1
102
RTVSPropertyOp20
 70
     1
102
RTVSPropertyOp21
 70
     1
102
RTVSPropertyOp22
 70
     1
102
RTVSPropertyOp23
 70
     1
102
RTVSPropertyOp24
 70
     1
102
RTVSPropertyOp25
 70
     1
102
RTVSPropertyOp26
 70
     1
102
RTVSPropertyOp27
 70
     1
102
RTVSPropertyOp28
 70
     1
102
RTVSPropertyOp29
 70
     1
102
RTVSPropertyOp30
 70
     1
102
RTVSPropertyOp31
 70
     1
102
RTVSPropertyOp32
 70
     1
102
RTVSPropertyOp33
 70
     1
102
RTVSPropertyOp34
 70
     1
102
RTVSPropertyOp35
 70
     1
102
RTVSPropertyOp36
 70
     1
102
RTVSPropertyOp37
 70
     1
102
RTVSPropertyOp38
 70
     1
102
RTVSPropertyOp39
 70
     1
102
RTVSPropertyOp40
 70
     1
102
RTVSPropertyOp41
 70
     1
102
RTVSPropertyOp42
 70
     1
102
RTVSPropertyOp43
 70
     1
102
RTVSPropertyOp44
 70
     1
102
RTVSPropertyOp45
 70
     1
102
RTVSPropertyOp46
 70
     1
102
RTVSPropertyOp47
 70
     1
102
RTVSPropertyOp48
 70
     1
102
RTVSPropertyOp49
 70
     1
102
RTVSPropertyOp50
 70
     1
102
RTVSPropertyOp51
 70
     0
102
RTVSPropertyOp52
 70
     0
102
RTVSPropertyOp53
 70
     1
102
RTVSPropertyOp54
 70
     1
102
RTVSPropertyOp55
 70
     1
102
RTVSPropertyOp56
 70
     1
102
RTVSPropertyOp57
 70
     1
102
RTVSPost2010Prop28
280
     0
102
RTVSPost2010PropOp28
 70
     1
102
RTVSPost2010Prop29
280
     1
102
RTVSPost2010PropOp29
 70
     1
102
RTVSPost2010Prop30
280
     1
102
RTVSPost2010PropOp30
 70
     1
102
RTVSPost2010Prop31
280
     0
102
RTVSPost2010PropOp31
 70
     1
102
RTVSPost2010Prop32
280
     0
102
RTVSPost2010PropOp32
 70
     1
102
RTVSPost2010Prop33
280
     0
102
RTVSPost2010PropOp33
 70
     1
102
RTVSPost2010Prop34
280
     0
102
RTVSPost2010PropOp34
 70
     1
102
RTVSPost2010Prop35
280
     0
102
RTVSPost2010PropOp35
 70
     1
102
RTVSPost2010Prop36
280
     0
102
RTVSPost2010PropOp36
 70
     1
102
RTVSPost2010Prop37
 90
       50
102
RTVSPost2010PropOp37
 70
     1
102
RTVSPost2010Prop38
140
0.0
102
RTVSPost2010PropOp38
 70
     1
102
RTVSPost2010Prop39
140
1.0
102
RTVSPost2010PropOp39
 70
     1
102
RTVSPost2010Prop40
 90
        0
102
RTVSPost2010PropOp40
 70
     1
102
RTVSPost2010Prop41ColorIndex
 90
       18
102
RTVSPost2010Prop41ColorRGB
 90
        0
102
RTVSPost2010PropOp41
 70
     1
102
RTVSPost2010Prop42
 90
       50
102
RTVSPost2010PropOp42
 70
     1
102
RTVSPost2010Prop43
 90
        3
102
RTVSPost2010PropOp43
 70
     1
102
RTVSPost2010Prop44ColorIndex
 90
        5
102
RTVSPost2010Prop44ColorRGB
 90
      255
102
RTVSPost2010PropOp44
 70
     1
102
RTVSPost2010Prop45
280
     0
102
RTVSPost2010PropOp45
 70
     1
102
RTVSPost2010Prop46
 90
       50
102
RTVSPost2010PropOp46
 70
     1
102
RTVSPost2010Prop47
 90
       50
102
RTVSPost2010PropOp47
 70
     1
102
RTVSPost2010Prop48
 90
       50
102
RTVSPost2010PropOp48
 70
     1
102
RTVSPost2010Prop49
280
     0
102
RTVSPost2010PropOp49
 70
     1
102
RTVSPost2010Prop50
 90
       50
102
RTVSPost2010PropOp50
 70
     1
102
RTVSPost2010Prop51ColorIndex
 90
      256
102
RTVSPost2010Prop51ColorRGB
 90
-16777216
102
RTVSPost2010PropOp51
 70
     0
102
RTVSPost2010Prop52
140
1.0
102
RTVSPost2010PropOp52
 70
     0
102
RTVSPost2010Prop53
 90
        2
102
RTVSPost2010PropOp53
 70
     1
102
RTVSPost2010Prop54
  1
strokes_ogs.tif
102
RTVSPost2010PropOp54
 70
     1
102
RTVSPost2010Prop55
280
     0
102
RTVSPost2010PropOp55
 70
     1
102
RTVSPost2010Prop56
140
1.0
102
RTVSPost2010PropOp56
 70
     1
102
RTVSPost2010Prop57
140
1.0
102
RTVSPost2010PropOp57
 70
     1
  0
XRECORD
  5
517
102
{ACAD_REACTORS
330
516
102
}
330
516
100
AcDbXrecord
280
     1
102
RTVSPropertyOp0
 70
     1
102
RTVSPropertyOp1
 70
     1
102
RTVSPropertyOp2
 70
     1
102
RTVSPropertyOp3
 70
     1
102
RTVSPropertyOp4
 70
     1
102
RTVSPropertyOp5
 70
     1
102
RTVSPropertyOp6
 70
     1
102
RTVSPropertyOp7
 70
     1
102
RTVSPropertyOp8
 70
     1
102
RTVSPropertyOp9
 70
     1
102
RTVSPropertyOp10
 70
     1
102
RTVSPropertyOp11
 70
     1
102
RTVSPropertyOp12
 70
     1
102
RTVSPropertyOp13
 70
     1
102
RTVSPropertyOp14
 70
     1
102
RTVSPropertyOp15
 70
     1
102
RTVSPropertyOp16
 70
     1
102
RTVSPropertyOp17
 70
     1
102
RTVSPropertyOp18
 70
     1
102
RTVSPropertyOp19
 70
     1
102
RTVSPropertyOp20
 70
     1
102
RTVSPropertyOp21
 70
     1
102
RTVSPropertyOp22
 70
     1
102
RTVSPropertyOp23
 70
     1
102
RTVSPropertyOp24
 70
     1
102
RTVSPropertyOp25
 70
     1
102
RTVSPropertyOp26
 70
     1
102
RTVSPropertyOp27
 70
     1
102
RTVSPropertyOp28
 70
     1
102
RTVSPropertyOp29
 70
     1
102
RTVSPropertyOp30
 70
     1
102
RTVSPropertyOp31
 70
     1
102
RTVSPropertyOp32
 70
     1
102
RTVSPropertyOp33
 70
     1
102
RTVSPropertyOp34
 70
     1
102
RTVSPropertyOp35
 70
     1
102
RTVSPropertyOp36
 70
     1
102
RTVSPropertyOp37
 70
     1
102
RTVSPropertyOp38
 70
     1
102
RTVSPropertyOp39
 70
     1
102
RTVSPropertyOp40
 70
     1
102
RTVSPropertyOp41
 70
     1
102
RTVSPropertyOp42
 70
     1
102
RTVSPropertyOp43
 70
     1
102
RTVSPropertyOp44
 70
     1
102
RTVSPropertyOp45
 70
     1
102
RTVSPropertyOp46
 70
     1
102
RTVSPropertyOp47
 70
     1
102
RTVSPropertyOp48
 70
     1
102
RTVSPropertyOp49
 70
     1
102
RTVSPropertyOp50
 70
     1
102
RTVSPropertyOp51
 70
     0
102
RTVSPropertyOp52
 70
     0
102
RTVSPropertyOp53
 70
     1
102
RTVSPropertyOp54
 70
     1
102
RTVSPropertyOp55
 70
     1
102
RTVSPropertyOp56
 70
     1
102
RTVSPropertyOp57
 70
     1
102
RTVSPost2010Prop28
280
     0
102
RTVSPost2010PropOp28
 70
     1
102
RTVSPost2010Prop29
280
     1
102
RTVSPost2010PropOp29
 70
     1
102
RTVSPost2010Prop30
280
     1
102
RTVSPost2010PropOp30
 70
     1
102
RTVSPost2010Prop31
280
     0
102
RTVSPost2010PropOp31
 70
     1
102
RTVSPost2010Prop32
280
     0
102
RTVSPost2010PropOp32
 70
     1
102
RTVSPost2010Prop33
280
     0
102
RTVSPost2010PropOp33
 70
     1
102
RTVSPost2010Prop34
280
     0
102
RTVSPost2010PropOp34
 70
     1
102
RTVSPost2010Prop35
280
     0
102
RTVSPost2010PropOp35
 70
     1
102
RTVSPost2010Prop36
280
     0
102
RTVSPost2010PropOp36
 70
     1
102
RTVSPost2010Prop37
 90
       50
102
RTVSPost2010PropOp37
 70
     1
102
RTVSPost2010Prop38
140
0.0
102
RTVSPost2010PropOp38
 70
     1
102
RTVSPost2010Prop39
140
1.0
102
RTVSPost2010PropOp39
 70
     1
102
RTVSPost2010Prop40
 90
        0
102
RTVSPost2010PropOp40
 70
     1
102
RTVSPost2010Prop41ColorIndex
 90
       18
102
RTVSPost2010Prop41ColorRGB
 90
        0
102
RTVSPost2010PropOp41
 70
     1
102
RTVSPost2010Prop42
 90
       50
102
RTVSPost2010PropOp42
 70
     1
102
RTVSPost2010Prop43
 90
        3
102
RTVSPost2010PropOp43
 70
     1
102
RTVSPost2010Prop44ColorIndex
 90
        5
102
RTVSPost2010Prop44ColorRGB
 90
      255
102
RTVSPost2010PropOp44
 70
     1
102
RTVSPost2010Prop45
280
     0
102
RTVSPost2010PropOp45
 70
     1
102
RTVSPost2010Prop46
 90
       50
102
RTVSPost2010PropOp46
 70
     1
102
RTVSPost2010Prop47
 90
       50
102
RTVSPost2010PropOp47
 70
     1
102
RTVSPost2010Prop48
 90
       50
102
RTVSPost2010PropOp48
 70
     1
102
RTVSPost2010Prop49
280
     0
102
RTVSPost2010PropOp49
 70
     1
102
RTVSPost2010Prop50
 90
       50
102
RTVSPost2010PropOp50
 70
     1
102
RTVSPost2010Prop51ColorIndex
 90
      256
102
RTVSPost2010Prop51ColorRGB
 90
-16777216
102
RTVSPost2010PropOp51
 70
     0
102
RTVSPost2010Prop52
140
1.0
102
RTVSPost2010PropOp52
 70
     0
102
RTVSPost2010Prop53
 90
        2
102
RTVSPost2010PropOp53
 70
     1
102
RTVSPost2010Prop54
  1
strokes_ogs.tif
102
RTVSPost2010PropOp54
 70
     1
102
RTVSPost2010Prop55
280
     0
102
RTVSPost2010PropOp55
 70
     1
102
RTVSPost2010Prop56
140
1.0
102
RTVSPost2010PropOp56
 70
     1
102
RTVSPost2010Prop57
140
1.0
102
RTVSPost2010PropOp57
 70
     1
  0
XRECORD
  5
519
102
{ACAD_REACTORS
330
518
102
}
330
518
100
AcDbXrecord
280
     1
102
RTVSPropertyOp0
 70
     1
102
RTVSPropertyOp1
 70
     1
102
RTVSPropertyOp2
 70
     1
102
RTVSPropertyOp3
 70
     1
102
RTVSPropertyOp4
 70
     1
102
RTVSPropertyOp5
 70
     1
102
RTVSPropertyOp6
 70
     1
102
RTVSPropertyOp7
 70
     1
102
RTVSPropertyOp8
 70
     1
102
RTVSPropertyOp9
 70
     1
102
RTVSPropertyOp10
 70
     1
102
RTVSPropertyOp11
 70
     1
102
RTVSPropertyOp12
 70
     1
102
RTVSPropertyOp13
 70
     1
102
RTVSPropertyOp14
 70
     1
102
RTVSPropertyOp15
 70
     1
102
RTVSPropertyOp16
 70
     1
102
RTVSPropertyOp17
 70
     1
102
RTVSPropertyOp18
 70
     1
102
RTVSPropertyOp19
 70
     1
102
RTVSPropertyOp20
 70
     1
102
RTVSPropertyOp21
 70
     1
102
RTVSPropertyOp22
 70
     1
102
RTVSPropertyOp23
 70
     1
102
RTVSPropertyOp24
 70
     1
102
RTVSPropertyOp25
 70
     1
102
RTVSPropertyOp26
 70
     1
102
RTVSPropertyOp27
 70
     1
102
RTVSPropertyOp28
 70
     1
102
RTVSPropertyOp29
 70
     1
102
RTVSPropertyOp30
 70
     1
102
RTVSPropertyOp31
 70
     1
102
RTVSPropertyOp32
 70
     1
102
RTVSPropertyOp33
 70
     1
102
RTVSPropertyOp34
 70
     1
102
RTVSPropertyOp35
 70
     1
102
RTVSPropertyOp36
 70
     1
102
RTVSPropertyOp37
 70
     1
102
RTVSPropertyOp38
 70
     1
102
RTVSPropertyOp39
 70
     1
102
RTVSPropertyOp40
 70
     1
102
RTVSPropertyOp41
 70
     1
102
RTVSPropertyOp42
 70
     1
102
RTVSPropertyOp43
 70
     1
102
RTVSPropertyOp44
 70
     1
102
RTVSPropertyOp45
 70
     1
102
RTVSPropertyOp46
 70
     1
102
RTVSPropertyOp47
 70
     1
102
RTVSPropertyOp48
 70
     1
102
RTVSPropertyOp49
 70
     1
102
RTVSPropertyOp50
 70
     1
102
RTVSPropertyOp51
 70
     0
102
RTVSPropertyOp52
 70
     0
102
RTVSPropertyOp53
 70
     1
102
RTVSPropertyOp54
 70
     1
102
RTVSPropertyOp55
 70
     1
102
RTVSPropertyOp56
 70
     1
102
RTVSPropertyOp57
 70
     1
102
RTVSPost2010Prop28
280
     0
102
RTVSPost2010PropOp28
 70
     1
102
RTVSPost2010Prop29
280
     1
102
RTVSPost2010PropOp29
 70
     1
102
RTVSPost2010Prop30
280
     1
102
RTVSPost2010PropOp30
 70
     1
102
RTVSPost2010Prop31
280
     0
102
RTVSPost2010PropOp31
 70
     1
102
RTVSPost2010Prop32
280
     0
102
RTVSPost2010PropOp32
 70
     1
102
RTVSPost2010Prop33
280
     0
102
RTVSPost2010PropOp33
 70
     1
102
RTVSPost2010Prop34
280
     0
102
RTVSPost2010PropOp34
 70
     1
102
RTVSPost2010Prop35
280
     0
102
RTVSPost2010PropOp35
 70
     1
102
RTVSPost2010Prop36
280
     0
102
RTVSPost2010PropOp36
 70
     1
102
RTVSPost2010Prop37
 90
       50
102
RTVSPost2010PropOp37
 70
     1
102
RTVSPost2010Prop38
140
0.0
102
RTVSPost2010PropOp38
 70
     1
102
RTVSPost2010Prop39
140
1.0
102
RTVSPost2010PropOp39
 70
     1
102
RTVSPost2010Prop40
 90
        0
102
RTVSPost2010PropOp40
 70
     1
102
RTVSPost2010Prop41ColorIndex
 90
       18
102
RTVSPost2010Prop41ColorRGB
 90
        0
102
RTVSPost2010PropOp41
 70
     1
102
RTVSPost2010Prop42
 90
       50
102
RTVSPost2010PropOp42
 70
     1
102
RTVSPost2010Prop43
 90
        3
102
RTVSPost2010PropOp43
 70
     1
102
RTVSPost2010Prop44ColorIndex
 90
        5
102
RTVSPost2010Prop44ColorRGB
 90
      255
102
RTVSPost2010PropOp44
 70
     1
102
RTVSPost2010Prop45
280
     0
102
RTVSPost2010PropOp45
 70
     1
102
RTVSPost2010Prop46
 90
       50
102
RTVSPost2010PropOp46
 70
     1
102
RTVSPost2010Prop47
 90
       50
102
RTVSPost2010PropOp47
 70
     1
102
RTVSPost2010Prop48
 90
       50
102
RTVSPost2010PropOp48
 70
     1
102
RTVSPost2010Prop49
280
     0
102
RTVSPost2010PropOp49
 70
     1
102
RTVSPost2010Prop50
 90
       50
102
RTVSPost2010PropOp50
 70
     1
102
RTVSPost2010Prop51ColorIndex
 90
      256
102
RTVSPost2010Prop51ColorRGB
 90
-16777216
102
RTVSPost2010PropOp51
 70
     0
102
RTVSPost2010Prop52
140
1.0
102
RTVSPost2010PropOp52
 70
     0
102
RTVSPost2010Prop53
 90
        2
102
RTVSPost2010PropOp53
 70
     1
102
RTVSPost2010Prop54
  1
strokes_ogs.tif
102
RTVSPost2010PropOp54
 70
     1
102
RTVSPost2010Prop55
280
     0
102
RTVSPost2010PropOp55
 70
     1
102
RTVSPost2010Prop56
140
1.0
102
RTVSPost2010PropOp56
 70
     1
102
RTVSPost2010Prop57
140
1.0
102
RTVSPost2010PropOp57
 70
     1
  0
XRECORD
  5
51B
102
{ACAD_REACTORS
330
51A
102
}
330
51A
100
AcDbXrecord
280
     1
102
RTVSPropertyOp0
 70
     1
102
RTVSPropertyOp1
 70
     1
102
RTVSPropertyOp2
 70
     1
102
RTVSPropertyOp3
 70
     1
102
RTVSPropertyOp4
 70
     1
102
RTVSPropertyOp5
 70
     1
102
RTVSPropertyOp6
 70
     1
102
RTVSPropertyOp7
 70
     1
102
RTVSPropertyOp8
 70
     1
102
RTVSPropertyOp9
 70
     1
102
RTVSPropertyOp10
 70
     1
102
RTVSPropertyOp11
 70
     1
102
RTVSPropertyOp12
 70
     1
102
RTVSPropertyOp13
 70
     1
102
RTVSPropertyOp14
 70
     1
102
RTVSPropertyOp15
 70
     1
102
RTVSPropertyOp16
 70
     1
102
RTVSPropertyOp17
 70
     1
102
RTVSPropertyOp18
 70
     1
102
RTVSPropertyOp19
 70
     1
102
RTVSPropertyOp20
 70
     1
102
RTVSPropertyOp21
 70
     1
102
RTVSPropertyOp22
 70
     1
102
RTVSPropertyOp23
 70
     1
102
RTVSPropertyOp24
 70
     1
102
RTVSPropertyOp25
 70
     1
102
RTVSPropertyOp26
 70
     1
102
RTVSPropertyOp27
 70
     1
102
RTVSPropertyOp28
 70
     1
102
RTVSPropertyOp29
 70
     1
102
RTVSPropertyOp30
 70
     1
102
RTVSPropertyOp31
 70
     1
102
RTVSPropertyOp32
 70
     1
102
RTVSPropertyOp33
 70
     1
102
RTVSPropertyOp34
 70
     1
102
RTVSPropertyOp35
 70
     1
102
RTVSPropertyOp36
 70
     1
102
RTVSPropertyOp37
 70
     1
102
RTVSPropertyOp38
 70
     1
102
RTVSPropertyOp39
 70
     1
102
RTVSPropertyOp40
 70
     1
102
RTVSPropertyOp41
 70
     1
102
RTVSPropertyOp42
 70
     1
102
RTVSPropertyOp43
 70
     1
102
RTVSPropertyOp44
 70
     1
102
RTVSPropertyOp45
 70
     1
102
RTVSPropertyOp46
 70
     1
102
RTVSPropertyOp47
 70
     1
102
RTVSPropertyOp48
 70
     1
102
RTVSPropertyOp49
 70
     1
102
RTVSPropertyOp50
 70
     1
102
RTVSPropertyOp51
 70
     0
102
RTVSPropertyOp52
 70
     0
102
RTVSPropertyOp53
 70
     1
102
RTVSPropertyOp54
 70
     1
102
RTVSPropertyOp55
 70
     1
102
RTVSPropertyOp56
 70
     1
102
RTVSPropertyOp57
 70
     1
102
RTVSPost2010Prop28
280
     0
102
RTVSPost2010PropOp28
 70
     1
102
RTVSPost2010Prop29
280
     1
102
RTVSPost2010PropOp29
 70
     1
102
RTVSPost2010Prop30
280
     1
102
RTVSPost2010PropOp30
 70
     1
102
RTVSPost2010Prop31
280
     0
102
RTVSPost2010PropOp31
 70
     1
102
RTVSPost2010Prop32
280
     0
102
RTVSPost2010PropOp32
 70
     1
102
RTVSPost2010Prop33
280
     0
102
RTVSPost2010PropOp33
 70
     1
102
RTVSPost2010Prop34
280
     0
102
RTVSPost2010PropOp34
 70
     1
102
RTVSPost2010Prop35
280
     0
102
RTVSPost2010PropOp35
 70
     1
102
RTVSPost2010Prop36
280
     0
102
RTVSPost2010PropOp36
 70
     1
102
RTVSPost2010Prop37
 90
       50
102
RTVSPost2010PropOp37
 70
     1
102
RTVSPost2010Prop38
140
0.0
102
RTVSPost2010PropOp38
 70
     1
102
RTVSPost2010Prop39
140
1.0
102
RTVSPost2010PropOp39
 70
     1
102
RTVSPost2010Prop40
 90
        0
102
RTVSPost2010PropOp40
 70
     1
102
RTVSPost2010Prop41ColorIndex
 90
       18
102
RTVSPost2010Prop41ColorRGB
 90
        0
102
RTVSPost2010PropOp41
 70
     1
102
RTVSPost2010Prop42
 90
       50
102
RTVSPost2010PropOp42
 70
     1
102
RTVSPost2010Prop43
 90
        3
102
RTVSPost2010PropOp43
 70
     1
102
RTVSPost2010Prop44ColorIndex
 90
        5
102
RTVSPost2010Prop44ColorRGB
 90
      255
102
RTVSPost2010PropOp44
 70
     1
102
RTVSPost2010Prop45
280
     0
102
RTVSPost2010PropOp45
 70
     1
102
RTVSPost2010Prop46
 90
       50
102
RTVSPost2010PropOp46
 70
     1
102
RTVSPost2010Prop47
 90
       50
102
RTVSPost2010PropOp47
 70
     1
102
RTVSPost2010Prop48
 90
       50
102
RTVSPost2010PropOp48
 70
     1
102
RTVSPost2010Prop49
280
     0
102
RTVSPost2010PropOp49
 70
     1
102
RTVSPost2010Prop50
 90
       50
102
RTVSPost2010PropOp50
 70
     1
102
RTVSPost2010Prop51ColorIndex
 90
      256
102
RTVSPost2010Prop51ColorRGB
 90
-16777216
102
RTVSPost2010PropOp51
 70
     0
102
RTVSPost2010Prop52
140
1.0
102
RTVSPost2010PropOp52
 70
     0
102
RTVSPost2010Prop53
 90
        2
102
RTVSPost2010PropOp53
 70
     1
102
RTVSPost2010Prop54
  1
strokes_ogs.tif
102
RTVSPost2010PropOp54
 70
     1
102
RTVSPost2010Prop55
280
     0
102
RTVSPost2010PropOp55
 70
     1
102
RTVSPost2010Prop56
140
1.0
102
RTVSPost2010PropOp56
 70
     1
102
RTVSPost2010Prop57
140
1.0
102
RTVSPost2010PropOp57
 70
     1
  0
XRECORD
  5
51D
102
{ACAD_REACTORS
330
51C
102
}
330
51C
100
AcDbXrecord
280
     1
102
RTVSPropertyOp0
 70
     1
102
RTVSPropertyOp1
 70
     1
102
RTVSPropertyOp2
 70
     1
102
RTVSPropertyOp3
 70
     1
102
RTVSPropertyOp4
 70
     1
102
RTVSPropertyOp5
 70
     1
102
RTVSPropertyOp6
 70
     1
102
RTVSPropertyOp7
 70
     1
102
RTVSPropertyOp8
 70
     1
102
RTVSPropertyOp9
 70
     1
102
RTVSPropertyOp10
 70
     1
102
RTVSPropertyOp11
 70
     1
102
RTVSPropertyOp12
 70
     1
102
RTVSPropertyOp13
 70
     1
102
RTVSPropertyOp14
 70
     1
102
RTVSPropertyOp15
 70
     1
102
RTVSPropertyOp16
 70
     1
102
RTVSPropertyOp17
 70
     1
102
RTVSPropertyOp18
 70
     1
102
RTVSPropertyOp19
 70
     1
102
RTVSPropertyOp20
 70
     1
102
RTVSPropertyOp21
 70
     1
102
RTVSPropertyOp22
 70
     1
102
RTVSPropertyOp23
 70
     1
102
RTVSPropertyOp24
 70
     1
102
RTVSPropertyOp25
 70
     1
102
RTVSPropertyOp26
 70
     1
102
RTVSPropertyOp27
 70
     1
102
RTVSPropertyOp28
 70
     1
102
RTVSPropertyOp29
 70
     1
102
RTVSPropertyOp30
 70
     1
102
RTVSPropertyOp31
 70
     1
102
RTVSPropertyOp32
 70
     1
102
RTVSPropertyOp33
 70
     1
102
RTVSPropertyOp34
 70
     1
102
RTVSPropertyOp35
 70
     1
102
RTVSPropertyOp36
 70
     1
102
RTVSPropertyOp37
 70
     1
102
RTVSPropertyOp38
 70
     1
102
RTVSPropertyOp39
 70
     1
102
RTVSPropertyOp40
 70
     1
102
RTVSPropertyOp41
 70
     1
102
RTVSPropertyOp42
 70
     1
102
RTVSPropertyOp43
 70
     1
102
RTVSPropertyOp44
 70
     1
102
RTVSPropertyOp45
 70
     1
102
RTVSPropertyOp46
 70
     1
102
RTVSPropertyOp47
 70
     1
102
RTVSPropertyOp48
 70
     1
102
RTVSPropertyOp49
 70
     1
102
RTVSPropertyOp50
 70
     1
102
RTVSPropertyOp51
 70
     0
102
RTVSPropertyOp52
 70
     0
102
RTVSPropertyOp53
 70
     1
102
RTVSPropertyOp54
 70
     1
102
RTVSPropertyOp55
 70
     1
102
RTVSPropertyOp56
 70
     1
102
RTVSPropertyOp57
 70
     1
102
RTVSPost2010Prop28
280
     0
102
RTVSPost2010PropOp28
 70
     1
102
RTVSPost2010Prop29
280
     1
102
RTVSPost2010PropOp29
 70
     1
102
RTVSPost2010Prop30
280
     1
102
RTVSPost2010PropOp30
 70
     1
102
RTVSPost2010Prop31
280
     0
102
RTVSPost2010PropOp31
 70
     1
102
RTVSPost2010Prop32
280
     0
102
RTVSPost2010PropOp32
 70
     1
102
RTVSPost2010Prop33
280
     0
102
RTVSPost2010PropOp33
 70
     1
102
RTVSPost2010Prop34
280
     0
102
RTVSPost2010PropOp34
 70
     1
102
RTVSPost2010Prop35
280
     0
102
RTVSPost2010PropOp35
 70
     1
102
RTVSPost2010Prop36
280
     0
102
RTVSPost2010PropOp36
 70
     1
102
RTVSPost2010Prop37
 90
       50
102
RTVSPost2010PropOp37
 70
     1
102
RTVSPost2010Prop38
140
0.0
102
RTVSPost2010PropOp38
 70
     1
102
RTVSPost2010Prop39
140
1.0
102
RTVSPost2010PropOp39
 70
     1
102
RTVSPost2010Prop40
 90
        0
102
RTVSPost2010PropOp40
 70
     1
102
RTVSPost2010Prop41ColorIndex
 90
       18
102
RTVSPost2010Prop41ColorRGB
 90
        0
102
RTVSPost2010PropOp41
 70
     1
102
RTVSPost2010Prop42
 90
       50
102
RTVSPost2010PropOp42
 70
     1
102
RTVSPost2010Prop43
 90
        3
102
RTVSPost2010PropOp43
 70
     1
102
RTVSPost2010Prop44ColorIndex
 90
        5
102
RTVSPost2010Prop44ColorRGB
 90
      255
102
RTVSPost2010PropOp44
 70
     1
102
RTVSPost2010Prop45
280
     0
102
RTVSPost2010PropOp45
 70
     1
102
RTVSPost2010Prop46
 90
       50
102
RTVSPost2010PropOp46
 70
     1
102
RTVSPost2010Prop47
 90
       50
102
RTVSPost2010PropOp47
 70
     1
102
RTVSPost2010Prop48
 90
       50
102
RTVSPost2010PropOp48
 70
     1
102
RTVSPost2010Prop49
280
     0
102
RTVSPost2010PropOp49
 70
     1
102
RTVSPost2010Prop50
 90
       50
102
RTVSPost2010PropOp50
 70
     1
102
RTVSPost2010Prop51ColorIndex
 90
      256
102
RTVSPost2010Prop51ColorRGB
 90
-16777216
102
RTVSPost2010PropOp51
 70
     0
102
RTVSPost2010Prop52
140
1.0
102
RTVSPost2010PropOp52
 70
     0
102
RTVSPost2010Prop53
 90
        2
102
RTVSPost2010PropOp53
 70
     1
102
RTVSPost2010Prop54
  1
strokes_ogs.tif
102
RTVSPost2010PropOp54
 70
     1
102
RTVSPost2010Prop55
280
     0
102
RTVSPost2010PropOp55
 70
     1
102
RTVSPost2010Prop56
140
1.0
102
RTVSPost2010PropOp56
 70
     1
102
RTVSPost2010Prop57
140
1.0
102
RTVSPost2010PropOp57
 70
     1
  0
XRECORD
  5
531
102
{ACAD_REACTORS
330
530
102
}
330
530
100
AcDbXrecord
280
     1
102
RTVSPropertyOp0
 70
     1
102
RTVSPropertyOp1
 70
     1
102
RTVSPropertyOp2
 70
     1
102
RTVSPropertyOp3
 70
     1
102
RTVSPropertyOp4
 70
     1
102
RTVSPropertyOp5
 70
     1
102
RTVSPropertyOp6
 70
     1
102
RTVSPropertyOp7
 70
     1
102
RTVSPropertyOp8
 70
     1
102
RTVSPropertyOp9
 70
     1
102
RTVSPropertyOp10
 70
     1
102
RTVSPropertyOp11
 70
     1
102
RTVSPropertyOp12
 70
     1
102
RTVSPropertyOp13
 70
     1
102
RTVSPropertyOp14
 70
     1
102
RTVSPropertyOp15
 70
     1
102
RTVSPropertyOp16
 70
     1
102
RTVSPropertyOp17
 70
     1
102
RTVSPropertyOp18
 70
     1
102
RTVSPropertyOp19
 70
     1
102
RTVSPropertyOp20
 70
     1
102
RTVSPropertyOp21
 70
     1
102
RTVSPropertyOp22
 70
     1
102
RTVSPropertyOp23
 70
     1
102
RTVSPropertyOp24
 70
     1
102
RTVSPropertyOp25
 70
     1
102
RTVSPropertyOp26
 70
     1
102
RTVSPropertyOp27
 70
     1
102
RTVSPropertyOp28
 70
     1
102
RTVSPropertyOp29
 70
     1
102
RTVSPropertyOp30
 70
     1
102
RTVSPropertyOp31
 70
     1
102
RTVSPropertyOp32
 70
     1
102
RTVSPropertyOp33
 70
     1
102
RTVSPropertyOp34
 70
     1
102
RTVSPropertyOp35
 70
     1
102
RTVSPropertyOp36
 70
     1
102
RTVSPropertyOp37
 70
     1
102
RTVSPropertyOp38
 70
     1
102
RTVSPropertyOp39
 70
     1
102
RTVSPropertyOp40
 70
     1
102
RTVSPropertyOp41
 70
     1
102
RTVSPropertyOp42
 70
     1
102
RTVSPropertyOp43
 70
     1
102
RTVSPropertyOp44
 70
     1
102
RTVSPropertyOp45
 70
     1
102
RTVSPropertyOp46
 70
     1
102
RTVSPropertyOp47
 70
     1
102
RTVSPropertyOp48
 70
     1
102
RTVSPropertyOp49
 70
     1
102
RTVSPropertyOp50
 70
     1
102
RTVSPropertyOp51
 70
     0
102
RTVSPropertyOp52
 70
     0
102
RTVSPropertyOp53
 70
     1
102
RTVSPropertyOp54
 70
     1
102
RTVSPropertyOp55
 70
     1
102
RTVSPropertyOp56
 70
     1
102
RTVSPropertyOp57
 70
     1
102
RTVSPost2010Prop28
280
     0
102
RTVSPost2010PropOp28
 70
     1
102
RTVSPost2010Prop29
280
     1
102
RTVSPost2010PropOp29
 70
     1
102
RTVSPost2010Prop30
280
     1
102
RTVSPost2010PropOp30
 70
     1
102
RTVSPost2010Prop31
280
     0
102
RTVSPost2010PropOp31
 70
     1
102
RTVSPost2010Prop32
280
     0
102
RTVSPost2010PropOp32
 70
     1
102
RTVSPost2010Prop33
280
     0
102
RTVSPost2010PropOp33
 70
     1
102
RTVSPost2010Prop34
280
     0
102
RTVSPost2010PropOp34
 70
     1
102
RTVSPost2010Prop35
280
     0
102
RTVSPost2010PropOp35
 70
     1
102
RTVSPost2010Prop36
280
     0
102
RTVSPost2010PropOp36
 70
     1
102
RTVSPost2010Prop37
 90
       50
102
RTVSPost2010PropOp37
 70
     1
102
RTVSPost2010Prop38
140
0.0
102
RTVSPost2010PropOp38
 70
     1
102
RTVSPost2010Prop39
140
1.0
102
RTVSPost2010PropOp39
 70
     1
102
RTVSPost2010Prop40
 90
        0
102
RTVSPost2010PropOp40
 70
     1
102
RTVSPost2010Prop41ColorIndex
 90
       18
102
RTVSPost2010Prop41ColorRGB
 90
        0
102
RTVSPost2010PropOp41
 70
     1
102
RTVSPost2010Prop42
 90
       50
102
RTVSPost2010PropOp42
 70
     1
102
RTVSPost2010Prop43
 90
        3
102
RTVSPost2010PropOp43
 70
     1
102
RTVSPost2010Prop44ColorIndex
 90
        5
102
RTVSPost2010Prop44ColorRGB
 90
      255
102
RTVSPost2010PropOp44
 70
     1
102
RTVSPost2010Prop45
280
     0
102
RTVSPost2010PropOp45
 70
     1
102
RTVSPost2010Prop46
 90
       50
102
RTVSPost2010PropOp46
 70
     1
102
RTVSPost2010Prop47
 90
       50
102
RTVSPost2010PropOp47
 70
     1
102
RTVSPost2010Prop48
 90
       50
102
RTVSPost2010PropOp48
 70
     1
102
RTVSPost2010Prop49
280
     0
102
RTVSPost2010PropOp49
 70
     1
102
RTVSPost2010Prop50
 90
       50
102
RTVSPost2010PropOp50
 70
     1
102
RTVSPost2010Prop51ColorIndex
 90
      256
102
RTVSPost2010Prop51ColorRGB
 90
-16777216
102
RTVSPost2010PropOp51
 70
     0
102
RTVSPost2010Prop52
140
1.0
102
RTVSPost2010PropOp52
 70
     0
102
RTVSPost2010Prop53
 90
        2
102
RTVSPost2010PropOp53
 70
     1
102
RTVSPost2010Prop54
  1
strokes_ogs.tif
102
RTVSPost2010PropOp54
 70
     1
102
RTVSPost2010Prop55
280
     0
102
RTVSPost2010PropOp55
 70
     1
102
RTVSPost2010Prop56
140
1.0
102
RTVSPost2010PropOp56
 70
     1
102
RTVSPost2010Prop57
140
1.0
102
RTVSPost2010PropOp57
 70
     1
  0
XRECORD
  5
527
102
{ACAD_REACTORS
330
526
102
}
330
526
100
AcDbXrecord
280
     1
102
RTVSPropertyOp0
 70
     1
102
RTVSPropertyOp1
 70
     1
102
RTVSPropertyOp2
 70
     1
102
RTVSPropertyOp3
 70
     1
102
RTVSPropertyOp4
 70
     1
102
RTVSPropertyOp5
 70
     1
102
RTVSPropertyOp6
 70
     1
102
RTVSPropertyOp7
 70
     1
102
RTVSPropertyOp8
 70
     1
102
RTVSPropertyOp9
 70
     1
102
RTVSPropertyOp10
 70
     1
102
RTVSPropertyOp11
 70
     1
102
RTVSPropertyOp12
 70
     1
102
RTVSPropertyOp13
 70
     1
102
RTVSPropertyOp14
 70
     1
102
RTVSPropertyOp15
 70
     1
102
RTVSPropertyOp16
 70
     1
102
RTVSPropertyOp17
 70
     1
102
RTVSPropertyOp18
 70
     1
102
RTVSPropertyOp19
 70
     1
102
RTVSPropertyOp20
 70
     1
102
RTVSPropertyOp21
 70
     1
102
RTVSPropertyOp22
 70
     1
102
RTVSPropertyOp23
 70
     1
102
RTVSPropertyOp24
 70
     1
102
RTVSPropertyOp25
 70
     1
102
RTVSPropertyOp26
 70
     1
102
RTVSPropertyOp27
 70
     1
102
RTVSPropertyOp28
 70
     1
102
RTVSPropertyOp29
 70
     1
102
RTVSPropertyOp30
 70
     1
102
RTVSPropertyOp31
 70
     1
102
RTVSPropertyOp32
 70
     1
102
RTVSPropertyOp33
 70
     1
102
RTVSPropertyOp34
 70
     1
102
RTVSPropertyOp35
 70
     1
102
RTVSPropertyOp36
 70
     1
102
RTVSPropertyOp37
 70
     1
102
RTVSPropertyOp38
 70
     1
102
RTVSPropertyOp39
 70
     1
102
RTVSPropertyOp40
 70
     1
102
RTVSPropertyOp41
 70
     1
102
RTVSPropertyOp42
 70
     1
102
RTVSPropertyOp43
 70
     1
102
RTVSPropertyOp44
 70
     1
102
RTVSPropertyOp45
 70
     1
102
RTVSPropertyOp46
 70
     1
102
RTVSPropertyOp47
 70
     1
102
RTVSPropertyOp48
 70
     1
102
RTVSPropertyOp49
 70
     1
102
RTVSPropertyOp50
 70
     1
102
RTVSPropertyOp51
 70
     0
102
RTVSPropertyOp52
 70
     0
102
RTVSPropertyOp53
 70
     1
102
RTVSPropertyOp54
 70
     1
102
RTVSPropertyOp55
 70
     1
102
RTVSPropertyOp56
 70
     1
102
RTVSPropertyOp57
 70
     1
102
RTVSPost2010Prop28
280
     0
102
RTVSPost2010PropOp28
 70
     1
102
RTVSPost2010Prop29
280
     1
102
RTVSPost2010PropOp29
 70
     1
102
RTVSPost2010Prop30
280
     1
102
RTVSPost2010PropOp30
 70
     1
102
RTVSPost2010Prop31
280
     0
102
RTVSPost2010PropOp31
 70
     1
102
RTVSPost2010Prop32
280
     0
102
RTVSPost2010PropOp32
 70
     1
102
RTVSPost2010Prop33
280
     0
102
RTVSPost2010PropOp33
 70
     1
102
RTVSPost2010Prop34
280
     0
102
RTVSPost2010PropOp34
 70
     1
102
RTVSPost2010Prop35
280
     0
102
RTVSPost2010PropOp35
 70
     1
102
RTVSPost2010Prop36
280
     0
102
RTVSPost2010PropOp36
 70
     1
102
RTVSPost2010Prop37
 90
       50
102
RTVSPost2010PropOp37
 70
     1
102
RTVSPost2010Prop38
140
0.0
102
RTVSPost2010PropOp38
 70
     1
102
RTVSPost2010Prop39
140
1.0
102
RTVSPost2010PropOp39
 70
     1
102
RTVSPost2010Prop40
 90
        0
102
RTVSPost2010PropOp40
 70
     1
102
RTVSPost2010Prop41ColorIndex
 90
       18
102
RTVSPost2010Prop41ColorRGB
 90
        0
102
RTVSPost2010PropOp41
 70
     1
102
RTVSPost2010Prop42
 90
       50
102
RTVSPost2010PropOp42
 70
     1
102
RTVSPost2010Prop43
 90
        3
102
RTVSPost2010PropOp43
 70
     1
102
RTVSPost2010Prop44ColorIndex
 90
        5
102
RTVSPost2010Prop44ColorRGB
 90
      255
102
RTVSPost2010PropOp44
 70
     1
102
RTVSPost2010Prop45
280
     0
102
RTVSPost2010PropOp45
 70
     1
102
RTVSPost2010Prop46
 90
       50
102
RTVSPost2010PropOp46
 70
     1
102
RTVSPost2010Prop47
 90
       50
102
RTVSPost2010PropOp47
 70
     1
102
RTVSPost2010Prop48
 90
       50
102
RTVSPost2010PropOp48
 70
     1
102
RTVSPost2010Prop49
280
     0
102
RTVSPost2010PropOp49
 70
     1
102
RTVSPost2010Prop50
 90
       50
102
RTVSPost2010PropOp50
 70
     1
102
RTVSPost2010Prop51ColorIndex
 90
      256
102
RTVSPost2010Prop51ColorRGB
 90
-16777216
102
RTVSPost2010PropOp51
 70
     0
102
RTVSPost2010Prop52
140
1.0
102
RTVSPost2010PropOp52
 70
     0
102
RTVSPost2010Prop53
 90
        2
102
RTVSPost2010PropOp53
 70
     1
102
RTVSPost2010Prop54
  1
strokes_ogs.tif
102
RTVSPost2010PropOp54
 70
     1
102
RTVSPost2010Prop55
280
     0
102
RTVSPost2010PropOp55
 70
     1
102
RTVSPost2010Prop56
140
1.0
102
RTVSPost2010PropOp56
 70
     1
102
RTVSPost2010Prop57
140
1.0
102
RTVSPost2010PropOp57
 70
     1
  0
XRECORD
  5
52F
102
{ACAD_REACTORS
330
52E
102
}
330
52E
100
AcDbXrecord
280
     1
102
RTVSPropertyOp0
 70
     1
102
RTVSPropertyOp1
 70
     1
102
RTVSPropertyOp2
 70
     1
102
RTVSPropertyOp3
 70
     1
102
RTVSPropertyOp4
 70
     1
102
RTVSPropertyOp5
 70
     1
102
RTVSPropertyOp6
 70
     1
102
RTVSPropertyOp7
 70
     1
102
RTVSPropertyOp8
 70
     1
102
RTVSPropertyOp9
 70
     1
102
RTVSPropertyOp10
 70
     1
102
RTVSPropertyOp11
 70
     1
102
RTVSPropertyOp12
 70
     1
102
RTVSPropertyOp13
 70
     1
102
RTVSPropertyOp14
 70
     1
102
RTVSPropertyOp15
 70
     1
102
RTVSPropertyOp16
 70
     1
102
RTVSPropertyOp17
 70
     1
102
RTVSPropertyOp18
 70
     1
102
RTVSPropertyOp19
 70
     1
102
RTVSPropertyOp20
 70
     1
102
RTVSPropertyOp21
 70
     1
102
RTVSPropertyOp22
 70
     1
102
RTVSPropertyOp23
 70
     1
102
RTVSPropertyOp24
 70
     1
102
RTVSPropertyOp25
 70
     1
102
RTVSPropertyOp26
 70
     1
102
RTVSPropertyOp27
 70
     1
102
RTVSPropertyOp28
 70
     1
102
RTVSPropertyOp29
 70
     1
102
RTVSPropertyOp30
 70
     1
102
RTVSPropertyOp31
 70
     1
102
RTVSPropertyOp32
 70
     1
102
RTVSPropertyOp33
 70
     1
102
RTVSPropertyOp34
 70
     1
102
RTVSPropertyOp35
 70
     1
102
RTVSPropertyOp36
 70
     1
102
RTVSPropertyOp37
 70
     1
102
RTVSPropertyOp38
 70
     1
102
RTVSPropertyOp39
 70
     1
102
RTVSPropertyOp40
 70
     1
102
RTVSPropertyOp41
 70
     1
102
RTVSPropertyOp42
 70
     1
102
RTVSPropertyOp43
 70
     1
102
RTVSPropertyOp44
 70
     1
102
RTVSPropertyOp45
 70
     1
102
RTVSPropertyOp46
 70
     1
102
RTVSPropertyOp47
 70
     1
102
RTVSPropertyOp48
 70
     1
102
RTVSPropertyOp49
 70
     1
102
RTVSPropertyOp50
 70
     1
102
RTVSPropertyOp51
 70
     0
102
RTVSPropertyOp52
 70
     0
102
RTVSPropertyOp53
 70
     1
102
RTVSPropertyOp54
 70
     1
102
RTVSPropertyOp55
 70
     1
102
RTVSPropertyOp56
 70
     1
102
RTVSPropertyOp57
 70
     1
102
RTVSPost2010Prop28
280
     0
102
RTVSPost2010PropOp28
 70
     1
102
RTVSPost2010Prop29
280
     1
102
RTVSPost2010PropOp29
 70
     1
102
RTVSPost2010Prop30
280
     1
102
RTVSPost2010PropOp30
 70
     1
102
RTVSPost2010Prop31
280
     0
102
RTVSPost2010PropOp31
 70
     1
102
RTVSPost2010Prop32
280
     0
102
RTVSPost2010PropOp32
 70
     1
102
RTVSPost2010Prop33
280
     0
102
RTVSPost2010PropOp33
 70
     1
102
RTVSPost2010Prop34
280
     0
102
RTVSPost2010PropOp34
 70
     1
102
RTVSPost2010Prop35
280
     0
102
RTVSPost2010PropOp35
 70
     1
102
RTVSPost2010Prop36
280
     0
102
RTVSPost2010PropOp36
 70
     1
102
RTVSPost2010Prop37
 90
       50
102
RTVSPost2010PropOp37
 70
     1
102
RTVSPost2010Prop38
140
0.0
102
RTVSPost2010PropOp38
 70
     1
102
RTVSPost2010Prop39
140
1.0
102
RTVSPost2010PropOp39
 70
     1
102
RTVSPost2010Prop40
 90
        0
102
RTVSPost2010PropOp40
 70
     1
102
RTVSPost2010Prop41ColorIndex
 90
       18
102
RTVSPost2010Prop41ColorRGB
 90
        0
102
RTVSPost2010PropOp41
 70
     1
102
RTVSPost2010Prop42
 90
       50
102
RTVSPost2010PropOp42
 70
     1
102
RTVSPost2010Prop43
 90
        3
102
RTVSPost2010PropOp43
 70
     1
102
RTVSPost2010Prop44ColorIndex
 90
        5
102
RTVSPost2010Prop44ColorRGB
 90
      255
102
RTVSPost2010PropOp44
 70
     1
102
RTVSPost2010Prop45
280
     0
102
RTVSPost2010PropOp45
 70
     1
102
RTVSPost2010Prop46
 90
       50
102
RTVSPost2010PropOp46
 70
     1
102
RTVSPost2010Prop47
 90
       50
102
RTVSPost2010PropOp47
 70
     1
102
RTVSPost2010Prop48
 90
       50
102
RTVSPost2010PropOp48
 70
     1
102
RTVSPost2010Prop49
280
     0
102
RTVSPost2010PropOp49
 70
     1
102
RTVSPost2010Prop50
 90
       50
102
RTVSPost2010PropOp50
 70
     1
102
RTVSPost2010Prop51ColorIndex
 90
      256
102
RTVSPost2010Prop51ColorRGB
 90
-16777216
102
RTVSPost2010PropOp51
 70
     0
102
RTVSPost2010Prop52
140
1.0
102
RTVSPost2010PropOp52
 70
     0
102
RTVSPost2010Prop53
 90
        2
102
RTVSPost2010PropOp53
 70
     1
102
RTVSPost2010Prop54
  1
strokes_ogs.tif
102
RTVSPost2010PropOp54
 70
     1
102
RTVSPost2010Prop55
280
     0
102
RTVSPost2010PropOp55
 70
     1
102
RTVSPost2010Prop56
140
1.0
102
RTVSPost2010PropOp56
 70
     1
102
RTVSPost2010Prop57
140
1.0
102
RTVSPost2010PropOp57
 70
     1
  0
ENDSEC
  0
EOF
