  0
SECTION
  2
HEADER
  9
$ACADVER
  1
AC1018
  9
$ACADMAINTVER
 70
     0
  9
$DWGCODEPAGE
  3
ANSI_936
  9
$INSBASE
 10
0.0
 20
0.0
 30
0.0
  9
$EXTMIN
 10
193.8034065691663
 20
360.8033988749896
 30
0.0
  9
$EXTMAX
 10
296.8034065691662
 20
460.8033988749897
 30
0.0
  9
$LIMMIN
 10
0.0
 20
0.0
  9
$LIMMAX
 10
12.0
 20
9.0
  9
$ORTHOMODE
 70
     0
  9
$REGENMODE
 70
     1
  9
$FILLMODE
 70
     1
  9
$QTEXTMODE
 70
     0
  9
$MIRRTEXT
 70
     1
  9
$LTSCALE
 40
1.0
  9
$ATTMODE
 70
     1
  9
$TEXTSIZE
 40
0.2
  9
$TRACEWID
 40
0.05
  9
$TEXTSTYLE
  7
Standard
  9
$CLAYER
  8
0
  9
$CELTYPE
  6
ByLayer
  9
$CECOLOR
 62
   256
  9
$CELTSCALE
 40
1.0
  9
$DISPSILH
 70
     0
  9
$DIMSCALE
 40
1.0
  9
$DIMASZ
 40
0.18
  9
$DIMEXO
 40
0.0625
  9
$DIMDLI
 40
0.38
  9
$DIMRND
 40
0.0
  9
$DIMDLE
 40
0.0
  9
$DIMEXE
 40
0.18
  9
$DIMTP
 40
0.0
  9
$DIMTM
 40
0.0
  9
$DIMTXT
 40
0.18
  9
$DIMCEN
 40
0.09
  9
$DIMTSZ
 40
0.0
  9
$DIMTOL
 70
     0
  9
$DIMLIM
 70
     0
  9
$DIMTIH
 70
     1
  9
$DIMTOH
 70
     1
  9
$DIMSE1
 70
     0
  9
$DIMSE2
 70
     0
  9
$DIMTAD
 70
     0
  9
$DIMZIN
 70
     0
  9
$DIMBLK
  1

  9
$DIMASO
 70
     1
  9
$DIMSHO
 70
     1
  9
$DIMPOST
  1

  9
$DIMAPOST
  1

  9
$DIMALT
 70
     0
  9
$DIMALTD
 70
     2
  9
$DIMALTF
 40
25.4
  9
$DIMLFAC
 40
1.0
  9
$DIMTOFL
 70
     0
  9
$DIMTVP
 40
0.0
  9
$DIMTIX
 70
     0
  9
$DIMSOXD
 70
     0
  9
$DIMSAH
 70
     0
  9
$DIMBLK1
  1

  9
$DIMBLK2
  1

  9
$DIMSTYLE
  2
Standard
  9
$DIMCLRD
 70
     0
  9
$DIMCLRE
 70
     0
  9
$DIMCLRT
 70
     0
  9
$DIMTFAC
 40
1.0
  9
$DIMGAP
 40
0.09
  9
$DIMJUST
 70
     0
  9
$DIMSD1
 70
     0
  9
$DIMSD2
 70
     0
  9
$DIMTOLJ
 70
     1
  9
$DIMTZIN
 70
     0
  9
$DIMALTZ
 70
     0
  9
$DIMALTTZ
 70
     0
  9
$DIMUPT
 70
     0
  9
$DIMDEC
 70
     4
  9
$DIMTDEC
 70
     4
  9
$DIMALTU
 70
     2
  9
$DIMALTTD
 70
     2
  9
$DIMTXSTY
  7
Standard
  9
$DIMAUNIT
 70
     0
  9
$DIMADEC
 70
     0
  9
$DIMALTRND
 40
0.0
  9
$DIMAZIN
 70
     0
  9
$DIMDSEP
 70
    46
  9
$DIMATFIT
 70
     3
  9
$DIMFRAC
 70
     0
  9
$DIMLDRBLK
  1

  9
$DIMLUNIT
 70
     2
  9
$DIMLWD
 70
    -2
  9
$DIMLWE
 70
    -2
  9
$DIMTMOVE
 70
     2
  9
$LUNITS
 70
     2
  9
$LUPREC
 70
     4
  9
$SKETCHINC
 40
0.1
  9
$FILLETRAD
 40
0.5
  9
$AUNITS
 70
     0
  9
$AUPREC
 70
     0
  9
$MENU
  1
.
  9
$ELEVATION
 40
0.0
  9
$PELEVATION
 40
0.0
  9
$THICKNESS
 40
0.0
  9
$LIMCHECK
 70
     0
  9
$CHAMFERA
 40
0.5
  9
$CHAMFERB
 40
0.5
  9
$CHAMFERC
 40
1.0
  9
$CHAMFERD
 40
0.0
  9
$SKPOLY
 70
     0
  9
$TDCREATE
 40
2457806.480625544
  9
$TDUCREATE
 40
2457806.147292211
  9
$TDUPDATE
 40
2457806.48062559
  9
$TDUUPDATE
 40
2457806.147292257
  9
$TDINDWG
 40
0.0000000116
  9
$TDUSRTIMER
 40
0.0000000116
  9
$USRTIMER
 70
     1
  9
$ANGBASE
 50
0.0
  9
$ANGDIR
 70
     0
  9
$PDMODE
 70
     0
  9
$PDSIZE
 40
0.0
  9
$PLINEWID
 40
0.0
  9
$SPLFRAME
 70
     0
  9
$SPLINETYPE
 70
     6
  9
$SPLINESEGS
 70
     8
  9
$HANDSEED
  5
33B
  9
$SURFTAB1
 70
     6
  9
$SURFTAB2
 70
     6
  9
$SURFTYPE
 70
     6
  9
$SURFU
 70
     6
  9
$SURFV
 70
     6
  9
$UCSBASE
  2

  9
$UCSNAME
  2

  9
$UCSORG
 10
0.0
 20
0.0
 30
0.0
  9
$UCSXDIR
 10
1.0
 20
0.0
 30
0.0
  9
$UCSYDIR
 10
0.0
 20
1.0
 30
0.0
  9
$UCSORTHOREF
  2

  9
$UCSORTHOVIEW
 70
     0
  9
$UCSORGTOP
 10
0.0
 20
0.0
 30
0.0
  9
$UCSORGBOTTOM
 10
0.0
 20
0.0
 30
0.0
  9
$UCSORGLEFT
 10
0.0
 20
0.0
 30
0.0
  9
$UCSORGRIGHT
 10
0.0
 20
0.0
 30
0.0
  9
$UCSORGFRONT
 10
0.0
 20
0.0
 30
0.0
  9
$UCSORGBACK
 10
0.0
 20
0.0
 30
0.0
  9
$PUCSBASE
  2

  9
$PUCSNAME
  2

  9
$PUCSORG
 10
0.0
 20
0.0
 30
0.0
  9
$PUCSXDIR
 10
1.0
 20
0.0
 30
0.0
  9
$PUCSYDIR
 10
0.0
 20
1.0
 30
0.0
  9
$PUCSORTHOREF
  2

  9
$PUCSORTHOVIEW
 70
     0
  9
$PUCSORGTOP
 10
0.0
 20
0.0
 30
0.0
  9
$PUCSORGBOTTOM
 10
0.0
 20
0.0
 30
0.0
  9
$PUCSORGLEFT
 10
0.0
 20
0.0
 30
0.0
  9
$PUCSORGRIGHT
 10
0.0
 20
0.0
 30
0.0
  9
$PUCSORGFRONT
 10
0.0
 20
0.0
 30
0.0
  9
$PUCSORGBACK
 10
0.0
 20
0.0
 30
0.0
  9
$USERI1
 70
     0
  9
$USERI2
 70
     0
  9
$USERI3
 70
     0
  9
$USERI4
 70
     0
  9
$USERI5
 70
     0
  9
$USERR1
 40
0.0
  9
$USERR2
 40
0.0
  9
$USERR3
 40
0.0
  9
$USERR4
 40
0.0
  9
$USERR5
 40
0.0
  9
$WORLDVIEW
 70
     1
  9
$SHADEDGE
 70
     3
  9
$SHADEDIF
 70
    70
  9
$TILEMODE
 70
     1
  9
$MAXACTVP
 70
    64
  9
$PINSBASE
 10
0.0
 20
0.0
 30
0.0
  9
$PLIMCHECK
 70
     0
  9
$PEXTMIN
 10
1.000000000000000E+20
 20
1.000000000000000E+20
 30
1.000000000000000E+20
  9
$PEXTMAX
 10
-1.000000000000000E+20
 20
-1.000000000000000E+20
 30
-1.000000000000000E+20
  9
$PLIMMIN
 10
0.0
 20
0.0
  9
$PLIMMAX
 10
12.0
 20
9.0
  9
$UNITMODE
 70
     0
  9
$VISRETAIN
 70
     1
  9
$PLINEGEN
 70
     0
  9
$PSLTSCALE
 70
     1
  9
$TREEDEPTH
 70
  3020
  9
$CMLSTYLE
  2
Standard
  9
$CMLJUST
 70
     0
  9
$CMLSCALE
 40
1.0
  9
$PROXYGRAPHICS
 70
     1
  9
$MEASUREMENT
 70
     0
  9
$CELWEIGHT
370
    -1
  9
$ENDCAPS
280
     0
  9
$JOINSTYLE
280
     0
  9
$LWDISPLAY
290
     0
  9
$INSUNITS
 70
     4
  9
$HYPERLINKBASE
  1

  9
$STYLESHEET
  1

  9
$XEDIT
290
     1
  9
$CEPSNTYPE
380
     0
  9
$PSTYLEMODE
290
     1
  9
$FINGERPRINTGUID
  2
{76508F9A-98C7-42CD-9A78-704F5E728AF0}
  9
$VERSIONGUID
  2
{FAEB1C32-E019-11D5-929B-00C0DF256EC4}
  9
$EXTNAMES
290
     1
  9
$PSVPSCALE
 40
0.0
  9
$OLESTARTUP
290
     0
  9
$SORTENTS
280
   127
  9
$INDEXCTL
280
     0
  9
$HIDETEXT
280
     1
  9
$XCLIPFRAME
290
     0
  9
$HALOGAP
280
     0
  9
$OBSCOLOR
 70
   257
  9
$OBSLTYPE
280
     0
  9
$INTERSECTIONDISPLAY
280
     0
  9
$INTERSECTIONCOLOR
 70
   257
  9
$DIMASSOC
280
     2
  9
$PROJECTNAME
  1

  0
ENDSEC
  0
SECTION
  2
CLASSES
  0
CLASS
  1
ACDBDICTIONARYWDFLT
  2
AcDbDictionaryWithDefault
  3
ObjectDBX Classes
 90
        0
 91
        4
280
     0
281
     0
  0
CLASS
  1
VISUALSTYLE
  2
AcDbVisualStyle
  3
ObjectDBX Classes
 90
     4095
 91
        4
280
     0
281
     0
  0
CLASS
  1
MATERIAL
  2
AcDbMaterial
  3
ObjectDBX Classes
 90
     1153
 91
        4
280
     0
281
     0
  0
CLASS
  1
SCALE
  2
AcDbScale
  3
ObjectDBX Classes
 90
     1153
 91
        4
280
     0
281
     0
  0
CLASS
  1
SUN
  2
AcDbSun
  3
SCENEOE
 90
     1153
 91
        4
280
     0
281
     0
  0
CLASS
  1
DICTIONARYVAR
  2
AcDbDictionaryVar
  3
ObjectDBX Classes
 90
        0
 91
        4
280
     0
281
     0
  0
ENDSEC
  0
SECTION
  2
TABLES
  0
TABLE
  2
VPORT
  5
8
330
0
100
AcDbSymbolTable
 70
     1
  0
VPORT
  5
29
330
8
100
AcDbSymbolTableRecord
100
AcDbViewportTableRecord
  2
*Active
 70
     0
 10
0.0
 20
0.0
 11
1.0
 21
1.0
 12
245.3034065691662
 22
410.8033988749897
 13
0.0
 23
0.0
 14
0.5
 24
0.5
 15
0.5
 25
0.5
 16
0.0
 26
0.0
 36
1.0
 17
0.0
 27
0.0
 37
0.0
 40
102.0000000000001
 41
1.029999999999998
 42
50.0
 43
0.0
 44
0.0
 50
0.0
 51
0.0
 71
     0
 72
   100
 73
     1
 74
     3
 75
     0
 76
     0
 77
     0
 78
     0
281
     0
 65
     1
110
0.0
120
0.0
130
0.0
111
1.0
121
0.0
131
0.0
112
0.0
122
1.0
132
0.0
 79
     0
146
0.0
  0
ENDTAB
  0
TABLE
  2
LTYPE
  5
5
330
0
100
AcDbSymbolTable
 70
     1
  0
LTYPE
  5
14
330
5
100
AcDbSymbolTableRecord
100
AcDbLinetypeTableRecord
  2
ByBlock
 70
     0
  3

 72
    65
 73
     0
 40
0.0
  0
LTYPE
  5
15
330
5
100
AcDbSymbolTableRecord
100
AcDbLinetypeTableRecord
  2
ByLayer
 70
     0
  3

 72
    65
 73
     0
 40
0.0
  0
LTYPE
  5
16
330
5
100
AcDbSymbolTableRecord
100
AcDbLinetypeTableRecord
  2
Continuous
 70
     0
  3
Solid line
 72
    65
 73
     0
 40
0.0
  0
ENDTAB
  0
TABLE
  2
LAYER
  5
2
330
0
100
AcDbSymbolTable
 70
     2
  0
LAYER
  5
10
330
2
100
AcDbSymbolTableRecord
100
AcDbLayerTableRecord
  2
0
 70
     0
 62
     7
  6
Continuous
370
    -3
390
F
  0
LAYER
  5
62
330
2
100
AcDbSymbolTableRecord
100
AcDbLayerTableRecord
  2
Make2D$可见线$普通线
 70
     0
 62
    18
420
        0
  6
Continuous
370
    -3
390
F
  0
ENDTAB
  0
TABLE
  2
STYLE
  5
3
330
0
100
AcDbSymbolTable
 70
     1
  0
STYLE
  5
11
330
3
100
AcDbSymbolTableRecord
100
AcDbTextStyleTableRecord
  2
Standard
 70
     0
 40
0.0
 41
1.0
 50
0.0
 71
     0
 42
0.2
  3
txt
  4

  0
ENDTAB
  0
TABLE
  2
VIEW
  5
6
330
0
100
AcDbSymbolTable
 70
     0
  0
ENDTAB
  0
TABLE
  2
UCS
  5
7
330
0
100
AcDbSymbolTable
 70
     0
  0
ENDTAB
  0
TABLE
  2
APPID
  5
9
330
0
100
AcDbSymbolTable
 70
     1
  0
APPID
  5
12
330
9
100
AcDbSymbolTableRecord
100
AcDbRegAppTableRecord
  2
ACAD
 70
     0
  0
ENDTAB
  0
TABLE
  2
DIMSTYLE
  5
A
330
0
100
AcDbSymbolTable
 70
     1
100
AcDbDimStyleTable
  0
DIMSTYLE
105
27
330
A
100
AcDbSymbolTableRecord
100
AcDbDimStyleTableRecord
  2
Standard
 70
     0
178
     0
340
11
  0
ENDTAB
  0
TABLE
  2
BLOCK_RECORD
  5
1
330
0
100
AcDbSymbolTable
 70
     1
  0
BLOCK_RECORD
  5
1F
330
1
100
AcDbSymbolTableRecord
100
AcDbBlockTableRecord
  2
*Model_Space
340
22
  0
BLOCK_RECORD
  5
1B
330
1
100
AcDbSymbolTableRecord
100
AcDbBlockTableRecord
  2
*Paper_Space
340
1E
  0
BLOCK_RECORD
  5
23
330
1
100
AcDbSymbolTableRecord
100
AcDbBlockTableRecord
  2
*Paper_Space0
340
26
  0
ENDTAB
  0
ENDSEC
  0
SECTION
  2
BLOCKS
  0
BLOCK
  5
20
330
1F
100
AcDbEntity
  8
0
100
AcDbBlockBegin
  2
*Model_Space
 70
     0
 10
0.0
 20
0.0
 30
0.0
  3
*Model_Space
  1
*Model_Space
  0
ENDBLK
  5
21
330
1F
100
AcDbEntity
  8
0
100
AcDbBlockEnd
  0
BLOCK
  5
1C
330
1B
100
AcDbEntity
 67
     1
  8
0
100
AcDbBlockBegin
  2
*Paper_Space
 70
     0
 10
0.0
 20
0.0
 30
0.0
  3
*Paper_Space
  1
*Paper_Space
  0
ENDBLK
  5
1D
330
1B
100
AcDbEntity
 67
     1
  8
0
100
AcDbBlockEnd
  0
BLOCK
  5
24
330
23
100
AcDbEntity
  8
0
100
AcDbBlockBegin
  2
*Paper_Space0
 70
     0
 10
0.0
 20
0.0
 30
0.0
  3
*Paper_Space0
  1
*Paper_Space0
  0
ENDBLK
  5
25
330
23
100
AcDbEntity
  8
0
100
AcDbBlockEnd
  0
ENDSEC
  0
SECTION
  2
ENTITIES
  0
ARC
  5
63
330
1F
100
AcDbEntity
  8
Make2D$可见线$普通线
100
AcDbCircle
 10
227.8034065691663
 20
459.8033988749897
 30
0.0
 40
1.000000000000085
100
AcDbArc
 50
90.00000000000487
 51
180.0000000000032
  0
LINE
  5
64
330
1F
100
AcDbEntity
  8
Make2D$可见线$普通线
100
AcDbLine
 10
228.4054935998818
 20
460.8033988749896
 30
0.0
 11
227.803984176178
 21
460.8033988749896
 31
0.0
  0
LINE
  5
65
330
1F
100
AcDbEntity
  8
Make2D$可见线$普通线
100
AcDbLine
 10
229.8479868048075
 20
460.8033988749896
 30
0.0
 11
229.8357496190351
 21
460.8033988749896
 31
0.0
  0
ARC
  5
66
330
1F
100
AcDbEntity
  8
Make2D$可见线$普通线
100
AcDbCircle
 10
230.3034065691654
 20
399.3033988749892
 30
0.0
 40
3.499999999999147
100
AcDbArc
 50
179.9999999999926
 51
238.997280866301
  0
ARC
  5
67
330
1F
100
AcDbEntity
  8
Make2D$可见线$普通线
100
AcDbCircle
 10
235.3034065691664
 20
364.3033988749897
 30
0.0
 40
3.500000000000142
100
AcDbArc
 50
180.0000000000018
 51
269.9999999999977
  0
LINE
  5
68
330
1F
100
AcDbEntity
  8
Make2D$可见线$普通线
100
AcDbLine
 10
226.8034065691662
 20
459.8033988749896
 30
0.0
 11
226.8034065691662
 21
399.3033988749896
 31
0.0
  0
LINE
  5
69
330
1F
100
AcDbEntity
  8
Make2D$可见线$普通线
100
AcDbLine
 10
231.8034065691662
 20
381.8033988749896
 30
0.0
 11
231.8034065691662
 21
364.3033988749896
 31
0.0
  0
ARC
  5
6A
330
1F
100
AcDbEntity
  8
Make2D$可见线$普通线
100
AcDbCircle
 10
294.2034631081877
 20
381.9033989621071
 30
0.0
 40
0.1000000871174886
100
AcDbArc
 50
269.9999500858248
 51
359.999950085434
  0
LINE
  5
6B
330
1F
100
AcDbEntity
  8
Make2D$可见线$普通线
100
AcDbLine
 10
294.2014200097275
 20
381.8033988749896
 30
0.0
 11
294.2016582154205
 21
381.8033988749896
 31
0.0
  0
LINE
  5
6C
330
1F
100
AcDbEntity
  8
Make2D$可见线$普通线
100
AcDbLine
 10
294.1989267138654
 20
381.8033988749896
 30
0.0
 11
294.1993671438634
 21
381.8033988749896
 31
0.0
  0
LINE
  5
6D
330
1F
100
AcDbEntity
  8
Make2D$可见线$普通线
100
AcDbLine
 10
294.1954244956557
 20
381.8033988749896
 30
0.0
 11
294.1962344099758
 21
381.8033988749896
 31
0.0
  0
LINE
  5
6E
330
1F
100
AcDbEntity
  8
Make2D$可见线$普通线
100
AcDbLine
 10
292.2829334714007
 20
381.8033988749896
 30
0.0
 11
292.2840023875799
 21
381.8033988749896
 31
0.0
  0
LINE
  5
6F
330
1F
100
AcDbEntity
  8
Make2D$可见线$普通线
100
AcDbLine
 10
231.3227910943307
 20
381.8033988749896
 30
0.0
 11
231.3238796668668
 21
381.8033988749896
 31
0.0
  0
LINE
  5
70
330
1F
100
AcDbEntity
  8
Make2D$可见线$普通线
100
AcDbLine
 10
229.41057881202
 20
381.8033988749896
 30
0.0
 11
229.4113886427311
 21
381.8033988749896
 31
0.0
  0
LINE
  5
71
330
1F
100
AcDbEntity
  8
Make2D$可见线$普通线
100
AcDbLine
 10
229.4074460557129
 20
381.8033988749896
 30
0.0
 11
229.4078864244672
 21
381.8033988749896
 31
0.0
  0
ARC
  5
72
330
1F
100
AcDbEntity
  8
Make2D$可见线$普通线
100
AcDbCircle
 10
294.4034632642881
 20
382.2033987984047
 30
0.0
 40
0.1000000689829514
100
AcDbArc
 50
94.62403711395469
 51
179.9999561201086
  0
ARC
  5
73
330
1F
100
AcDbEntity
  8
Make2D$可见线$普通线
100
AcDbCircle
 10
295.2034648505306
 20
382.4033989621069
 30
0.0
 40
0.1000000871173181
100
AcDbArc
 50
269.9999500856946
 51
359.9999500855317
  0
LINE
  5
74
330
1F
100
AcDbEntity
  8
Make2D$可见线$普通线
100
AcDbLine
 10
295.2013586961646
 20
382.3033988749896
 30
0.0
 11
295.2015430034813
 21
382.3033988749896
 31
0.0
  0
LINE
  5
75
330
1F
100
AcDbEntity
  8
Make2D$可见线$普通线
100
AcDbLine
 10
295.1987884467264
 20
382.3033988749896
 30
0.0
 11
295.199242470243
 21
382.3033988749896
 31
0.0
  0
LINE
  5
76
330
1F
100
AcDbEntity
  8
Make2D$可见线$普通线
100
AcDbLine
 10
261.9881271754186
 20
382.3033988749897
 30
0.0
 11
262.0001238472303
 21
382.3033988749896
 31
0.0
  0
LINE
  5
77
330
1F
100
AcDbEntity
  8
Make2D$可见线$普通线
100
AcDbLine
 10
261.6066781178474
 20
382.3033988749897
 30
0.0
 11
261.6186859629058
 21
382.3033988749896
 31
0.0
  0
LINE
  5
78
330
1F
100
AcDbEntity
  8
Make2D$可见线$普通线
100
AcDbLine
 10
228.4075707312235
 20
382.3033988749896
 30
0.0
 11
228.408024691606
 21
382.3033988749896
 31
0.0
  0
LINE
  5
79
330
1F
100
AcDbEntity
  8
Make2D$可见线$普通线
100
AcDbLine
 10
228.4044305056671
 20
382.3033988749896
 30
0.0
 11
228.4054544421676
 21
382.3033988749896
 31
0.0
  0
ARC
  5
7A
330
1F
100
AcDbEntity
  8
Make2D$可见线$普通线
100
AcDbCircle
 10
295.2034648505306
 20
396.2033987878723
 30
0.0
 40
0.1000000871173749
100
AcDbArc
 50
0.000049914500807
 51
90.0000499143054
  0
LINE
  5
7B
330
1F
100
AcDbEntity
  8
Make2D$可见线$普通线
100
AcDbLine
 10
295.1780388150653
 20
396.3033988749896
 30
0.0
 11
295.2028957614077
 21
396.3033988749896
 31
0.0
  0
LINE
  5
7C
330
1F
100
AcDbEntity
  8
Make2D$可见线$普通线
100
AcDbLine
 10
295.1003969646749
 20
396.3033988749896
 30
0.0
 11
295.1147741498064
 21
396.3033988749896
 31
0.0
  0
LINE
  5
7D
330
1F
100
AcDbEntity
  8
Make2D$可见线$普通线
100
AcDbLine
 10
294.3219676311742
 20
396.3033988749896
 30
0.0
 11
294.8125296873955
 21
396.3033988749896
 31
0.0
  0
LINE
  5
7E
330
1F
100
AcDbEntity
  8
Make2D$可见线$普通线
100
AcDbLine
 10
294.2761981916411
 20
396.3033988749896
 30
0.0
 11
294.3028642605916
 21
396.3033988749896
 31
0.0
  0
LINE
  5
7F
330
1F
100
AcDbEntity
  8
Make2D$可见线$普通线
100
AcDbLine
 10
294.2342218603158
 20
396.3033988749896
 30
0.0
 11
294.2542298053545
 21
396.3033988749896
 31
0.0
  0
LINE
  5
80
330
1F
100
AcDbEntity
  8
Make2D$可见线$普通线
100
AcDbLine
 10
294.1866052910151
 20
396.3033988749896
 30
0.0
 11
294.1994269835033
 21
396.3033988749896
 31
0.0
  0
LINE
  5
81
330
1F
100
AcDbEntity
  8
Make2D$可见线$普通线
100
AcDbLine
 10
294.1378662307482
 20
396.3033988749896
 30
0.0
 11
294.1510344303064
 21
396.3033988749896
 31
0.0
  0
LINE
  5
82
330
1F
100
AcDbEntity
  8
Make2D$可见线$普通线
100
AcDbLine
 10
294.0782152396395
 20
396.3033988749896
 30
0.0
 11
294.1046984443802
 21
396.3033988749896
 31
0.0
  0
LINE
  5
83
330
1F
100
AcDbEntity
  8
Make2D$可见线$普通线
100
AcDbLine
 10
294.0370282047277
 20
396.3033988749897
 30
0.0
 11
294.0506128855411
 21
396.3033988749896
 31
0.0
  0
LINE
  5
84
330
1F
100
AcDbEntity
  8
Make2D$可见线$普通线
100
AcDbLine
 10
293.9849330226803
 20
396.3033988749895
 30
0.0
 11
293.9920532486497
 21
396.3033988749896
 31
0.0
  0
LINE
  5
85
330
1F
100
AcDbEntity
  8
Make2D$可见线$普通线
100
AcDbLine
 10
293.9268321930615
 20
396.3033988749895
 30
0.0
 11
293.9317229170794
 21
396.3033988749896
 31
0.0
  0
LINE
  5
86
330
1F
100
AcDbEntity
  8
Make2D$可见线$普通线
100
AcDbLine
 10
293.8773997797778
 20
396.3033988749896
 30
0.0
 11
293.8935851096516
 21
396.3033988749896
 31
0.0
  0
LINE
  5
87
330
1F
100
AcDbEntity
  8
Make2D$可见线$普通线
100
AcDbLine
 10
293.8219655026285
 20
396.3033988749896
 30
0.0
 11
293.8261134374343
 21
396.3033988749896
 31
0.0
  0
LINE
  5
88
330
1F
100
AcDbEntity
  8
Make2D$可见线$普通线
100
AcDbLine
 10
293.7519361841612
 20
396.3033988749896
 30
0.0
 11
293.7867671521763
 21
396.3033988749896
 31
0.0
  0
LINE
  5
89
330
1F
100
AcDbEntity
  8
Make2D$可见线$普通线
100
AcDbLine
 10
293.7077710961998
 20
396.3033988749896
 30
0.0
 11
293.7131810711645
 21
396.3033988749896
 31
0.0
  0
LINE
  5
8A
330
1F
100
AcDbEntity
  8
Make2D$可见线$普通线
100
AcDbLine
 10
293.6323470922674
 20
396.3033988749896
 30
0.0
 11
293.6692420598803
 21
396.3033988749896
 31
0.0
  0
LINE
  5
8B
330
1F
100
AcDbEntity
  8
Make2D$可见线$普通线
100
AcDbLine
 10
293.5848883101852
 20
396.3033988749896
 30
0.0
 11
293.5902719307367
 21
396.3033988749896
 31
0.0
  0
LINE
  5
8C
330
1F
100
AcDbEntity
  8
Make2D$可见线$普通线
100
AcDbLine
 10
293.5028144597119
 20
396.3033988749896
 30
0.0
 11
293.5408986238517
 21
396.3033988749896
 31
0.0
  0
LINE
  5
8D
330
1F
100
AcDbEntity
  8
Make2D$可见线$普通线
100
AcDbLine
 10
293.4492752854653
 20
396.3033988749896
 30
0.0
 11
293.4926924519248
 21
396.3033988749896
 31
0.0
  0
LINE
  5
8E
330
1F
100
AcDbEntity
  8
Make2D$可见线$普通线
100
AcDbLine
 10
293.3633881580384
 20
396.3033988749896
 30
0.0
 11
293.4109598128042
 21
396.3033988749896
 31
0.0
  0
LINE
  5
8F
330
1F
100
AcDbEntity
  8
Make2D$可见线$普通线
100
AcDbLine
 10
293.3147227312794
 20
396.3033988749897
 30
0.0
 11
293.3527702197866
 21
396.3033988749896
 31
0.0
  0
LINE
  5
90
330
1F
100
AcDbEntity
  8
Make2D$可见线$普通线
100
AcDbLine
 10
293.2513573452879
 20
396.3033988749896
 30
0.0
 11
293.2928498946145
 21
396.3033988749896
 31
0.0
  0
LINE
  5
91
330
1F
100
AcDbEntity
  8
Make2D$可见线$普通线
100
AcDbLine
 10
293.1621824077142
 20
396.3033988749896
 30
0.0
 11
293.2141180178952
 21
396.3033988749896
 31
0.0
  0
LINE
  5
92
330
1F
100
AcDbEntity
  8
Make2D$可见线$普通线
100
AcDbLine
 10
293.0899838021702
 20
396.3033988749896
 30
0.0
 11
293.1531791172343
 21
396.3033988749896
 31
0.0
  0
LINE
  5
93
330
1F
100
AcDbEntity
  8
Make2D$可见线$普通线
100
AcDbLine
 10
292.4710786989426
 20
396.3033988749897
 30
0.0
 11
293.081407341635
 21
396.3033988749896
 31
0.0
  0
LINE
  5
94
330
1F
100
AcDbEntity
  8
Make2D$可见线$普通线
100
AcDbLine
 10
292.4022863645173
 20
396.3033988749896
 30
0.0
 11
292.4547461329184
 21
396.3033988749896
 31
0.0
  0
LINE
  5
95
330
1F
100
AcDbEntity
  8
Make2D$可见线$普通线
100
AcDbLine
 10
292.3322336766523
 20
396.3033988749897
 30
0.0
 11
292.3772512431397
 21
396.3033988749896
 31
0.0
  0
LINE
  5
96
330
1F
100
AcDbEntity
  8
Make2D$可见线$普通线
100
AcDbLine
 10
292.2538176230523
 20
396.3033988749896
 30
0.0
 11
292.2783033682861
 21
396.3033988749896
 31
0.0
  0
LINE
  5
97
330
1F
100
AcDbEntity
  8
Make2D$可见线$普通线
100
AcDbLine
 10
292.1847216359172
 20
396.3033988749896
 30
0.0
 11
292.1904364698794
 21
396.3033988749896
 31
0.0
  0
LINE
  5
98
330
1F
100
AcDbEntity
  8
Make2D$可见线$普通线
100
AcDbLine
 10
291.8065177629157
 20
396.3033988749896
 30
0.0
 11
291.8266392286064
 21
396.3033988749896
 31
0.0
  0
LINE
  5
99
330
1F
100
AcDbEntity
  8
Make2D$可见线$普通线
100
AcDbLine
 10
291.7162527256928
 20
396.3033988749896
 30
0.0
 11
291.7326274894083
 21
396.3033988749896
 31
0.0
  0
LINE
  5
9A
330
1F
100
AcDbEntity
  8
Make2D$可见线$普通线
100
AcDbLine
 10
291.6329167901678
 20
396.3033988749896
 30
0.0
 11
291.6449435861223
 21
396.3033988749896
 31
0.0
  0
LINE
  5
9B
330
1F
100
AcDbEntity
  8
Make2D$可见线$普通线
100
AcDbLine
 10
291.5409570726
 20
396.3033988749897
 30
0.0
 11
291.5483657204245
 21
396.3033988749896
 31
0.0
  0
LINE
  5
9C
330
1F
100
AcDbEntity
  8
Make2D$可见线$普通线
100
AcDbLine
 10
291.2189254324073
 20
396.3033988749896
 30
0.0
 11
291.244394050453
 21
396.3033988749896
 31
0.0
  0
LINE
  5
9D
330
1F
100
AcDbEntity
  8
Make2D$可见线$普通线
100
AcDbLine
 10
290.9228121359838
 20
396.3033988749896
 30
0.0
 11
290.9370580705358
 21
396.3033988749896
 31
0.0
  0
LINE
  5
9E
330
1F
100
AcDbEntity
  8
Make2D$可见线$普通线
100
AcDbLine
 10
290.6662172986062
 20
396.3033988749896
 30
0.0
 11
290.8554637038412
 21
396.3033988749896
 31
0.0
  0
LINE
  5
9F
330
1F
100
AcDbEntity
  8
Make2D$可见线$普通线
100
AcDbLine
 10
290.569722227975
 20
396.3033988749896
 30
0.0
 11
290.6368807957651
 21
396.3033988749896
 31
0.0
  0
LINE
  5
A0
330
1F
100
AcDbEntity
  8
Make2D$可见线$普通线
100
AcDbLine
 10
290.4719823495337
 20
396.3033988749896
 30
0.0
 11
290.539220698111
 21
396.3033988749896
 31
0.0
  0
LINE
  5
A1
330
1F
100
AcDbEntity
  8
Make2D$可见线$普通线
100
AcDbLine
 10
290.3730001941527
 20
396.3033988749896
 30
0.0
 11
290.4390657431939
 21
396.3033988749896
 31
0.0
  0
LINE
  5
A2
330
1F
100
AcDbEntity
  8
Make2D$可见线$普通线
100
AcDbLine
 10
290.2392460610379
 20
396.3033988749896
 30
0.0
 11
290.3288318598336
 21
396.3033988749896
 31
0.0
  0
LINE
  5
A3
330
1F
100
AcDbEntity
  8
Make2D$可见线$普通线
100
AcDbLine
 10
290.1369360698534
 20
396.3033988749896
 30
0.0
 11
290.2173519644166
 21
396.3033988749896
 31
0.0
  0
LINE
  5
A4
330
1F
100
AcDbEntity
  8
Make2D$可见线$普通线
100
AcDbLine
 10
289.8754779816281
 20
396.3033988749896
 30
0.0
 11
290.1046301513511
 21
396.3033988749896
 31
0.0
  0
LINE
  5
A5
330
1F
100
AcDbEntity
  8
Make2D$可见线$普通线
100
AcDbLine
 10
289.759056644642
 20
396.3033988749896
 30
0.0
 11
289.8595552399983
 21
396.3033988749896
 31
0.0
  0
LINE
  5
A6
330
1F
100
AcDbEntity
  8
Make2D$可见线$普通线
100
AcDbLine
 10
289.6455881402956
 20
396.3033988749896
 30
0.0
 11
289.7531816906705
 21
396.3033988749896
 31
0.0
  0
LINE
  5
A7
330
1F
100
AcDbEntity
  8
Make2D$可见线$普通线
100
AcDbLine
 10
289.5367784225346
 20
396.3033988749896
 30
0.0
 11
289.6414114286488
 21
396.3033988749896
 31
0.0
  0
LINE
  5
A8
330
1F
100
AcDbEntity
  8
Make2D$可见线$普通线
100
AcDbLine
 10
289.4267565336601
 20
396.3033988749896
 30
0.0
 11
289.5225472568128
 21
396.3033988749896
 31
0.0
  0
LINE
  5
A9
330
1F
100
AcDbEntity
  8
Make2D$可见线$普通线
100
AcDbLine
 10
289.315526632349
 20
396.3033988749896
 30
0.0
 11
289.3887083788691
 21
396.3033988749896
 31
0.0
  0
LINE
  5
AA
330
1F
100
AcDbEntity
  8
Make2D$可见线$普通线
100
AcDbLine
 10
289.2030930394264
 20
396.3033988749895
 30
0.0
 11
289.2772858419962
 21
396.3033988749896
 31
0.0
  0
LINE
  5
AB
330
1F
100
AcDbEntity
  8
Make2D$可见线$普通线
100
AcDbLine
 10
289.051080126728
 20
396.3033988749896
 30
0.0
 11
289.1586927023457
 21
396.3033988749896
 31
0.0
  0
LINE
  5
AC
330
1F
100
AcDbEntity
  8
Make2D$可见线$普通线
100
AcDbLine
 10
288.9363049938229
 20
396.3033988749896
 30
0.0
 11
289.0350052207243
 21
396.3033988749896
 31
0.0
  0
LINE
  5
AD
330
1F
100
AcDbEntity
  8
Make2D$可见线$普通线
100
AcDbLine
 10
288.8204215121568
 20
396.3033988749896
 30
0.0
 11
288.910125855295
 21
396.3033988749896
 31
0.0
  0
LINE
  5
AE
330
1F
100
AcDbEntity
  8
Make2D$可见线$普通线
100
AcDbLine
 10
288.7034350454071
 20
396.3033988749896
 30
0.0
 11
288.784060507215
 21
396.3033988749896
 31
0.0
  0
LINE
  5
AF
330
1F
100
AcDbEntity
  8
Make2D$可见线$普通线
100
AcDbLine
 10
288.5853509572515
 20
396.3033988749896
 30
0.0
 11
288.6230322374884
 21
396.3033988749896
 31
0.0
  0
LINE
  5
B0
330
1F
100
AcDbEntity
  8
Make2D$可见线$普通线
100
AcDbLine
 10
288.4661746113682
 20
396.3033988749896
 30
0.0
 11
288.5034762567525
 21
396.3033988749896
 31
0.0
  0
LINE
  5
B1
330
1F
100
AcDbEntity
  8
Make2D$可见线$普通线
100
AcDbLine
 10
288.3459113714391
 20
396.3033988749896
 30
0.0
 11
288.3827513603736
 21
396.3033988749896
 31
0.0
  0
LINE
  5
B2
330
1F
100
AcDbEntity
  8
Make2D$可见线$普通线
100
AcDbLine
 10
288.2245666011504
 20
396.3033988749897
 30
0.0
 11
288.2348971255224
 21
396.3033988749896
 31
0.0
  0
LINE
  5
B3
330
1F
100
AcDbEntity
  8
Make2D$可见线$普通线
100
AcDbLine
 10
288.102145664193
 20
396.3033988749896
 30
0.0
 11
288.1040415485625
 21
396.3033988749896
 31
0.0
  0
LINE
  5
B4
330
1F
100
AcDbEntity
  8
Make2D$可见线$普通线
100
AcDbLine
 10
287.9721163684279
 20
396.3033988749896
 30
0.0
 11
287.9786539327879
 21
396.3033988749896
 31
0.0
  0
LINE
  5
B5
330
1F
100
AcDbEntity
  8
Make2D$可见线$普通线
100
AcDbLine
 10
287.8391270804757
 20
396.3033988749896
 30
0.0
 11
287.8478268106917
 21
396.3033988749896
 31
0.0
  0
LINE
  5
B6
330
1F
100
AcDbEntity
  8
Make2D$可见线$普通线
100
AcDbLine
 10
287.1125204856611
 20
396.3033988749896
 30
0.0
 11
287.158411360958
 21
396.3033988749896
 31
0.0
  0
LINE
  5
B7
330
1F
100
AcDbEntity
  8
Make2D$可见线$普通线
100
AcDbLine
 10
286.9793412261372
 20
396.3033988749897
 30
0.0
 11
287.019152828604
 21
396.3033988749896
 31
0.0
  0
LINE
  5
B8
330
1F
100
AcDbEntity
  8
Make2D$可见线$普通线
100
AcDbLine
 10
286.8450704508973
 20
396.3033988749897
 30
0.0
 11
286.8788686559335
 21
396.3033988749897
 31
0.0
  0
LINE
  5
B9
330
1F
100
AcDbEntity
  8
Make2D$可见线$普通线
100
AcDbLine
 10
286.6860224191356
 20
396.3033988749896
 30
0.0
 11
286.7375643383039
 21
396.3033988749896
 31
0.0
  0
LINE
  5
BA
330
1F
100
AcDbEntity
  8
Make2D$可见线$普通线
100
AcDbLine
 10
286.5511058583782
 20
396.3033988749897
 30
0.0
 11
286.5952453710722
 21
396.3033988749896
 31
0.0
  0
LINE
  5
BB
330
1F
100
AcDbEntity
  8
Make2D$可见线$普通线
100
AcDbLine
 10
286.001428873715
 20
396.3033988749896
 30
0.0
 11
286.4659748566529
 21
396.3033988749896
 31
0.0
  0
LINE
  5
BC
330
1F
100
AcDbEntity
  8
Make2D$可见线$普通线
100
AcDbLine
 10
284.4861964193469
 20
396.3033988749896
 30
0.0
 11
285.8615337564161
 21
396.3033988749896
 31
0.0
  0
LINE
  5
BD
330
1F
100
AcDbEntity
  8
Make2D$可见线$普通线
100
AcDbLine
 10
284.3271212921558
 20
396.3033988749896
 30
0.0
 11
284.4095940673037
 21
396.3033988749896
 31
0.0
  0
LINE
  5
BE
330
1F
100
AcDbEntity
  8
Make2D$可见线$普通线
100
AcDbLine
 10
284.1847400362587
 20
396.3033988749896
 30
0.0
 11
284.259225645465
 21
396.3033988749896
 31
0.0
  0
LINE
  5
BF
330
1F
100
AcDbEntity
  8
Make2D$可见线$普通线
100
AcDbLine
 10
284.0260578578816
 20
396.3033988749896
 30
0.0
 11
284.09725378608
 21
396.3033988749896
 31
0.0
  0
LINE
  5
C0
330
1F
100
AcDbEntity
  8
Make2D$可见线$普通线
100
AcDbLine
 10
283.8664711550473
 20
396.3033988749896
 30
0.0
 11
283.9428960635473
 21
396.3033988749896
 31
0.0
  0
LINE
  5
C1
330
1F
100
AcDbEntity
  8
Make2D$可见线$普通线
100
AcDbLine
 10
282.5461805723953
 20
396.3033988749896
 30
0.0
 11
282.5580235442951
 21
396.3033988749896
 31
0.0
  0
LINE
  5
C2
330
1F
100
AcDbEntity
  8
Make2D$可见线$普通线
100
AcDbLine
 10
282.38525731578
 20
396.3033988749895
 30
0.0
 11
282.39059945599
 21
396.3033988749896
 31
0.0
  0
LINE
  5
C3
330
1F
100
AcDbEntity
  8
Make2D$可见线$普通线
100
AcDbLine
 10
282.2223382509262
 20
396.3033988749895
 30
0.0
 11
282.2234972657084
 21
396.3033988749896
 31
0.0
  0
LINE
  5
C4
330
1F
100
AcDbEntity
  8
Make2D$可见线$普通线
100
AcDbLine
 10
282.0228075893435
 20
396.3033988749895
 30
0.0
 11
282.0609069729769
 21
396.3033988749896
 31
0.0
  0
LINE
  5
C5
330
1F
100
AcDbEntity
  8
Make2D$可见线$普通线
100
AcDbLine
 10
281.8574741795753
 20
396.3033988749896
 30
0.0
 11
281.8974930488873
 21
396.3033988749896
 31
0.0
  0
LINE
  5
C6
330
1F
100
AcDbEntity
  8
Make2D$可见线$普通线
100
AcDbLine
 10
281.6913727659105
 20
396.3033988749895
 30
0.0
 11
281.7332620614945
 21
396.3033988749896
 31
0.0
  0
LINE
  5
C7
330
1F
100
AcDbEntity
  8
Make2D$可见线$普通线
100
AcDbLine
 10
281.5245146734837
 20
396.3033988749897
 30
0.0
 11
281.56822054844
 21
396.3033988749896
 31
0.0
  0
LINE
  5
C8
330
1F
100
AcDbEntity
  8
Make2D$可见线$普通线
100
AcDbLine
 10
281.3569113031576
 20
396.3033988749896
 30
0.0
 11
281.4023751689749
 21
396.3033988749896
 31
0.0
  0
LINE
  5
C9
330
1F
100
AcDbEntity
  8
Make2D$可见线$普通线
100
AcDbLine
 10
281.142487077952
 20
396.3033988749897
 30
0.0
 11
281.2357324501445
 21
396.3033988749896
 31
0.0
  0
LINE
  5
CA
330
1F
100
AcDbEntity
  8
Make2D$可见线$普通线
100
AcDbLine
 10
280.9671306492719
 20
396.3033988749896
 30
0.0
 11
281.068298982517
 21
396.3033988749896
 31
0.0
  0
LINE
  5
CB
330
1F
100
AcDbEntity
  8
Make2D$可见线$普通线
100
AcDbLine
 10
280.7910822202039
 20
396.3033988749897
 30
0.0
 11
280.9000813454062
 21
396.3033988749897
 31
0.0
  0
LINE
  5
CC
330
1F
100
AcDbEntity
  8
Make2D$可见线$普通线
100
AcDbLine
 10
280.614353940884
 20
396.3033988749896
 30
0.0
 11
280.7310861181259
 21
396.3033988749896
 31
0.0
  0
LINE
  5
CD
330
1F
100
AcDbEntity
  8
Make2D$可见线$普通线
100
AcDbLine
 10
280.4369580178495
 20
396.3033988749896
 30
0.0
 11
280.5613198799896
 21
396.3033988749896
 31
0.0
  0
LINE
  5
CE
330
1F
100
AcDbEntity
  8
Make2D$可见线$普通线
100
AcDbLine
 10
280.2589067113387
 20
396.3033988749896
 30
0.0
 11
280.3907892103109
 21
396.3033988749896
 31
0.0
  0
LINE
  5
CF
330
1F
100
AcDbEntity
  8
Make2D$可见线$普通线
100
AcDbLine
 10
280.080212332588
 20
396.3033988749896
 30
0.0
 11
280.2195006884035
 21
396.3033988749896
 31
0.0
  0
LINE
  5
D0
330
1F
100
AcDbEntity
  8
Make2D$可见线$普通线
100
AcDbLine
 10
279.9008872411212
 20
396.3033988749896
 30
0.0
 11
280.0474608935804
 21
396.3033988749896
 31
0.0
  0
LINE
  5
D1
330
1F
100
AcDbEntity
  8
Make2D$可见线$普通线
100
AcDbLine
 10
279.7209438420354
 20
396.3033988749896
 30
0.0
 11
279.874676405155
 21
396.3033988749896
 31
0.0
  0
LINE
  5
D2
330
1F
100
AcDbEntity
  8
Make2D$可见线$普通线
100
AcDbLine
 10
279.5403945832807
 20
396.3033988749896
 30
0.0
 11
279.7011538024414
 21
396.3033988749896
 31
0.0
  0
LINE
  5
D3
330
1F
100
AcDbEntity
  8
Make2D$可见线$普通线
100
AcDbLine
 10
279.3592519529408
 20
396.3033988749895
 30
0.0
 11
279.526899824556
 21
396.3033988749896
 31
0.0
  0
LINE
  5
D4
330
1F
100
AcDbEntity
  8
Make2D$可见线$普通线
100
AcDbLine
 10
279.1775284765113
 20
396.3033988749896
 30
0.0
 11
279.2917812723556
 21
396.3033988749896
 31
0.0
  0
LINE
  5
D5
330
1F
100
AcDbEntity
  8
Make2D$可见线$普通线
100
AcDbLine
 10
278.9998240623572
 20
396.3033988749896
 30
0.0
 11
279.1155565467711
 21
396.3033988749896
 31
0.0
  0
LINE
  5
D6
330
1F
100
AcDbEntity
  8
Make2D$可见线$普通线
100
AcDbLine
 10
278.8227193258788
 20
396.3033988749897
 30
0.0
 11
278.9387526620949
 21
396.3033988749896
 31
0.0
  0
LINE
  5
D7
330
1F
100
AcDbEntity
  8
Make2D$可见线$普通线
100
AcDbLine
 10
278.6449207450787
 20
396.3033988749896
 30
0.0
 11
278.7613818438099
 21
396.3033988749896
 31
0.0
  0
LINE
  5
D8
330
1F
100
AcDbEntity
  8
Make2D$可见线$普通线
100
AcDbLine
 10
278.4664358580881
 20
396.3033988749896
 30
0.0
 11
278.5834563512599
 21
396.3033988749896
 31
0.0
  0
LINE
  5
D9
330
1F
100
AcDbEntity
  8
Make2D$可见线$普通线
100
AcDbLine
 10
278.2872722030377
 20
396.3033988749896
 30
0.0
 11
278.4049884749927
 21
396.3033988749896
 31
0.0
  0
LINE
  5
DA
330
1F
100
AcDbEntity
  8
Make2D$可见线$普通线
100
AcDbLine
 10
278.1074373180584
 20
396.3033988749896
 30
0.0
 11
278.1370079969793
 21
396.3033988749896
 31
0.0
  0
LINE
  5
DB
330
1F
100
AcDbEntity
  8
Make2D$可见线$普通线
100
AcDbLine
 10
277.9269387412813
 20
396.3033988749896
 30
0.0
 11
277.9507432192411
 21
396.3033988749896
 31
0.0
  0
LINE
  5
DC
330
1F
100
AcDbEntity
  8
Make2D$可见线$普通线
100
AcDbLine
 10
277.7457840108377
 20
396.3033988749896
 30
0.0
 11
277.7638216321434
 21
396.3033988749896
 31
0.0
  0
LINE
  5
DD
330
1F
100
AcDbEntity
  8
Make2D$可见线$普通线
100
AcDbLine
 10
277.5639806648585
 20
396.3033988749897
 30
0.0
 11
277.5762509588026
 21
396.3033988749896
 31
0.0
  0
LINE
  5
DE
330
1F
100
AcDbEntity
  8
Make2D$可见线$普通线
100
AcDbLine
 10
277.3815362416226
 20
396.3033988749896
 30
0.0
 11
277.3880389223341
 21
396.3033988749896
 31
0.0
  0
LINE
  5
DF
330
1F
100
AcDbEntity
  8
Make2D$可见线$普通线
100
AcDbLine
 10
277.0097216524782
 20
396.3033988749896
 30
0.0
 11
277.014754316855
 21
396.3033988749896
 31
0.0
  0
LINE
  5
E0
330
1F
100
AcDbEntity
  8
Make2D$可见线$普通线
100
AcDbLine
 10
276.8196318653224
 20
396.3033988749896
 30
0.0
 11
276.8304318905679
 21
396.3033988749896
 31
0.0
  0
LINE
  5
E1
330
1F
100
AcDbEntity
  8
Make2D$可见线$普通线
100
AcDbLine
 10
276.6289316075029
 20
396.3033988749896
 30
0.0
 11
276.6454985416392
 21
396.3033988749896
 31
0.0
  0
LINE
  5
E2
330
1F
100
AcDbEntity
  8
Make2D$可见线$普通线
100
AcDbLine
 10
276.4376286021351
 20
396.3033988749896
 30
0.0
 11
276.4599618067186
 21
396.3033988749896
 31
0.0
  0
LINE
  5
E3
330
1F
100
AcDbEntity
  8
Make2D$可见线$普通线
100
AcDbLine
 10
276.2457305723351
 20
396.3033988749897
 30
0.0
 11
276.2738292237418
 21
396.3033988749897
 31
0.0
  0
LINE
  5
E4
330
1F
100
AcDbEntity
  8
Make2D$可见线$普通线
100
AcDbLine
 10
276.0411818018028
 20
396.3033988749896
 30
0.0
 11
276.0871083306656
 21
396.3033988749896
 31
0.0
  0
LINE
  5
E5
330
1F
100
AcDbEntity
  8
Make2D$可见线$普通线
100
AcDbLine
 10
275.8564222819416
 20
396.3033988749896
 30
0.0
 11
275.8998066654661
 21
396.3033988749896
 31
0.0
  0
LINE
  5
E6
330
1F
100
AcDbEntity
  8
Make2D$可见线$普通线
100
AcDbLine
 10
275.6665435675004
 20
396.3033988749896
 30
0.0
 11
275.7119317199358
 21
396.3033988749896
 31
0.0
  0
LINE
  5
E7
330
1F
100
AcDbEntity
  8
Make2D$可见线$普通线
100
AcDbLine
 10
275.4723426711303
 20
396.3033988749895
 30
0.0
 11
275.5234911243608
 21
396.3033988749896
 31
0.0
  0
LINE
  5
E8
330
1F
100
AcDbEntity
  8
Make2D$可见线$普通线
100
AcDbLine
 10
275.2495964334348
 20
396.3033988749896
 30
0.0
 11
275.334492370697
 21
396.3033988749896
 31
0.0
  0
LINE
  5
E9
330
1F
100
AcDbEntity
  8
Make2D$可见线$普通线
100
AcDbLine
 10
275.0583048671738
 20
396.3033988749897
 30
0.0
 11
275.1449429969859
 21
396.3033988749896
 31
0.0
  0
LINE
  5
EA
330
1F
100
AcDbEntity
  8
Make2D$可见线$普通线
100
AcDbLine
 10
273.3252016186811
 20
396.3033988749896
 30
0.0
 11
274.9548505412816
 21
396.3033988749896
 31
0.0
  0
LINE
  5
EB
330
1F
100
AcDbEntity
  8
Make2D$可见线$普通线
100
AcDbLine
 10
273.1315881925235
 20
396.3033988749896
 30
0.0
 11
273.2658724029759
 21
396.3033988749896
 31
0.0
  0
LINE
  5
EC
330
1F
100
AcDbEntity
  8
Make2D$可见线$普通线
100
AcDbLine
 10
272.9378108705482
 20
396.3033988749897
 30
0.0
 11
273.0859200946115
 21
396.3033988749896
 31
0.0
  0
LINE
  5
ED
330
1F
100
AcDbEntity
  8
Make2D$可见线$普通线
100
AcDbLine
 10
272.7438818979505
 20
396.3033988749896
 30
0.0
 11
272.905575782401
 21
396.3033988749896
 31
0.0
  0
LINE
  5
EE
330
1F
100
AcDbEntity
  8
Make2D$可见线$普通线
100
AcDbLine
 10
272.5498134698071
 20
396.3033988749897
 30
0.0
 11
272.6711185671514
 21
396.3033988749897
 31
0.0
  0
LINE
  5
EF
330
1F
100
AcDbEntity
  8
Make2D$可见线$普通线
100
AcDbLine
 10
272.3622549315793
 20
396.3033988749896
 30
0.0
 11
272.4818345991837
 21
396.3033988749896
 31
0.0
  0
LINE
  5
F0
330
1F
100
AcDbEntity
  8
Make2D$可见线$普通线
100
AcDbLine
 10
272.18040671289
 20
396.3033988749896
 30
0.0
 11
272.2924145171862
 21
396.3033988749896
 31
0.0
  0
LINE
  5
F1
330
1F
100
AcDbEntity
  8
Make2D$可见线$普通线
100
AcDbLine
 10
271.9981985448253
 20
396.3033988749896
 30
0.0
 11
272.1028701728571
 21
396.3033988749896
 31
0.0
  0
LINE
  5
F2
330
1F
100
AcDbEntity
  8
Make2D$可见线$普通线
100
AcDbLine
 10
271.8156368382886
 20
396.3033988749896
 30
0.0
 11
271.9132133650519
 21
396.3033988749896
 31
0.0
  0
LINE
  5
F3
330
1F
100
AcDbEntity
  8
Make2D$可见线$普通线
100
AcDbLine
 10
271.632728004186
 20
396.3033988749896
 30
0.0
 11
271.7234558378284
 21
396.3033988749896
 31
0.0
  0
LINE
  5
F4
330
1F
100
AcDbEntity
  8
Make2D$可见线$普通线
100
AcDbLine
 10
271.4494784534254
 20
396.3033988749897
 30
0.0
 11
271.5336092785265
 21
396.3033988749896
 31
0.0
  0
LINE
  5
F5
330
1F
100
AcDbEntity
  8
Make2D$可见线$普通线
100
AcDbLine
 10
271.2658945969167
 20
396.3033988749896
 30
0.0
 11
271.3436853158802
 21
396.3033988749896
 31
0.0
  0
LINE
  5
F6
330
1F
100
AcDbEntity
  8
Make2D$可见线$普通线
100
AcDbLine
 10
271.0819828455718
 20
396.3033988749896
 30
0.0
 11
271.1536955181646
 21
396.3033988749896
 31
0.0
  0
LINE
  5
F7
330
1F
100
AcDbEntity
  8
Make2D$可见线$普通线
100
AcDbLine
 10
270.897749610303
 20
396.3033988749896
 30
0.0
 11
270.9636513913752
 21
396.3033988749896
 31
0.0
  0
LINE
  5
F8
330
1F
100
AcDbEntity
  8
Make2D$可见线$普通线
100
AcDbLine
 10
270.7132013472279
 20
396.3033988749897
 30
0.0
 11
270.7735643774452
 21
396.3033988749897
 31
0.0
  0
LINE
  5
F9
330
1F
100
AcDbEntity
  8
Make2D$可见线$普通线
100
AcDbLine
 10
270.5283443769254
 20
396.3033988749896
 30
0.0
 11
270.5834458524942
 21
396.3033988749896
 31
0.0
  0
LINE
  5
FA
330
1F
100
AcDbEntity
  8
Make2D$可见线$普通线
100
AcDbLine
 10
270.3431851554421
 20
396.3033988749897
 30
0.0
 11
270.3933071251154
 21
396.3033988749897
 31
0.0
  0
LINE
  5
FB
330
1F
100
AcDbEntity
  8
Make2D$可见线$普通线
100
AcDbLine
 10
270.1577300936939
 20
396.3033988749897
 30
0.0
 11
270.1724415223935
 21
396.3033988749896
 31
0.0
  0
LINE
  5
FC
330
1F
100
AcDbEntity
  8
Make2D$可见线$普通线
100
AcDbLine
 10
269.9719856025972
 20
396.3033988749897
 30
0.0
 11
269.981848924233
 21
396.3033988749896
 31
0.0
  0
LINE
  5
FD
330
1F
100
AcDbEntity
  8
Make2D$可见线$普通线
100
AcDbLine
 10
269.7859580976436
 20
396.3033988749896
 30
0.0
 11
269.7909729306684
 21
396.3033988749896
 31
0.0
  0
LINE
  5
FE
330
1F
100
AcDbEntity
  8
Make2D$可见线$普通线
100
AcDbLine
 10
269.2526748673602
 20
396.3033988749896
 30
0.0
 11
269.4130796660043
 21
396.3033988749896
 31
0.0
  0
LINE
  5
FF
330
1F
100
AcDbEntity
  8
Make2D$可见线$普通线
100
AcDbLine
 10
269.0627053480431
 20
396.3033988749896
 30
0.0
 11
269.2262415703358
 21
396.3033988749896
 31
0.0
  0
LINE
  5
100
330
1F
100
AcDbEntity
  8
Make2D$可见线$普通线
100
AcDbLine
 10
268.8728034703255
 20
396.3033988749896
 30
0.0
 11
269.0391461000568
 21
396.3033988749896
 31
0.0
  0
LINE
  5
101
330
1F
100
AcDbEntity
  8
Make2D$可见线$普通线
100
AcDbLine
 10
268.6829798639203
 20
396.3033988749896
 30
0.0
 11
268.8518037451113
 21
396.3033988749896
 31
0.0
  0
LINE
  5
102
330
1F
100
AcDbEntity
  8
Make2D$可见线$普通线
100
AcDbLine
 10
267.344763834609
 20
396.3033988749896
 30
0.0
 11
268.6574128881673
 21
396.3033988749896
 31
0.0
  0
LINE
  5
103
330
1F
100
AcDbEntity
  8
Make2D$可见线$普通线
100
AcDbLine
 10
267.1554486354172
 20
396.3033988749896
 30
0.0
 11
267.3001141427362
 21
396.3033988749896
 31
0.0
  0
LINE
  5
104
330
1F
100
AcDbEntity
  8
Make2D$可见线$普通线
100
AcDbLine
 10
266.9798016024307
 20
396.3033988749897
 30
0.0
 11
267.1068296952266
 21
396.3033988749896
 31
0.0
  0
LINE
  5
105
330
1F
100
AcDbEntity
  8
Make2D$可见线$普通线
100
AcDbLine
 10
266.7913265417594
 20
396.3033988749896
 30
0.0
 11
266.9137294796542
 21
396.3033988749896
 31
0.0
  0
LINE
  5
106
330
1F
100
AcDbEntity
  8
Make2D$可见线$普通线
100
AcDbLine
 10
266.6030409550517
 20
396.3033988749896
 30
0.0
 11
266.7037884110412
 21
396.3033988749896
 31
0.0
  0
LINE
  5
107
330
1F
100
AcDbEntity
  8
Make2D$可见线$普通线
100
AcDbLine
 10
266.4149544021964
 20
396.3033988749896
 30
0.0
 11
266.5091062795369
 21
396.3033988749896
 31
0.0
  0
LINE
  5
108
330
1F
100
AcDbEntity
  8
Make2D$可见线$普通线
100
AcDbLine
 10
265.2911379688004
 20
396.3033988749896
 30
0.0
 11
265.3378227681421
 21
396.3033988749896
 31
0.0
  0
LINE
  5
109
330
1F
100
AcDbEntity
  8
Make2D$可见线$普通线
100
AcDbLine
 10
265.1047041758877
 20
396.3033988749896
 30
0.0
 11
265.142140568571
 21
396.3033988749896
 31
0.0
  0
LINE
  5
10A
330
1F
100
AcDbEntity
  8
Make2D$可见线$普通线
100
AcDbLine
 10
264.9185423784321
 20
396.3033988749895
 30
0.0
 11
264.9463427190145
 21
396.3033988749896
 31
0.0
  0
LINE
  5
10B
330
1F
100
AcDbEntity
  8
Make2D$可见线$普通线
100
AcDbLine
 10
264.7326612460604
 20
396.3033988749896
 30
0.0
 11
264.7504360236931
 21
396.3033988749896
 31
0.0
  0
LINE
  5
10C
330
1F
100
AcDbEntity
  8
Make2D$可见线$普通线
100
AcDbLine
 10
264.547069346182
 20
396.3033988749896
 30
0.0
 11
264.5544272868267
 21
396.3033988749896
 31
0.0
  0
LINE
  5
10D
330
1F
100
AcDbEntity
  8
Make2D$可见线$普通线
100
AcDbLine
 10
264.2971277040701
 20
396.3033988749896
 30
0.0
 11
264.3617751437272
 21
396.3033988749896
 31
0.0
  0
LINE
  5
10E
330
1F
100
AcDbEntity
  8
Make2D$可见线$普通线
100
AcDbLine
 10
264.1056345157803
 20
396.3033988749896
 30
0.0
 11
264.176787000446
 21
396.3033988749896
 31
0.0
  0
LINE
  5
10F
330
1F
100
AcDbEntity
  8
Make2D$可见线$普通线
100
AcDbLine
 10
263.9140616538086
 20
396.3033988749896
 30
0.0
 11
263.9921131734338
 21
396.3033988749896
 31
0.0
  0
LINE
  5
110
330
1F
100
AcDbEntity
  8
Make2D$可见线$普通线
100
AcDbLine
 10
263.7224157594055
 20
396.3033988749896
 30
0.0
 11
263.8077618162181
 21
396.3033988749896
 31
0.0
  0
LINE
  5
111
330
1F
100
AcDbEntity
  8
Make2D$可见线$普通线
100
AcDbLine
 10
263.5307034738204
 20
396.3033988749897
 30
0.0
 11
263.6237409778159
 21
396.3033988749897
 31
0.0
  0
LINE
  5
112
330
1F
100
AcDbEntity
  8
Make2D$可见线$普通线
100
AcDbLine
 10
263.3389314383019
 20
396.3033988749896
 30
0.0
 11
263.4400586023769
 21
396.3033988749896
 31
0.0
  0
LINE
  5
113
330
1F
100
AcDbEntity
  8
Make2D$可见线$普通线
100
AcDbLine
 10
263.1471062940973
 20
396.3033988749896
 30
0.0
 11
263.2567225288587
 21
396.3033988749896
 31
0.0
  0
LINE
  5
114
330
1F
100
AcDbEntity
  8
Make2D$可见线$普通线
100
AcDbLine
 10
262.9552346824527
 20
396.3033988749896
 30
0.0
 11
263.073740490735
 21
396.3033988749896
 31
0.0
  0
LINE
  5
115
330
1F
100
AcDbEntity
  8
Make2D$可见线$普通线
100
AcDbLine
 10
262.763323244613
 20
396.3033988749897
 30
0.0
 11
262.8911201157346
 21
396.3033988749896
 31
0.0
  0
LINE
  5
116
330
1F
100
AcDbEntity
  8
Make2D$可见线$普通线
100
AcDbLine
 10
262.5713786218212
 20
396.3033988749896
 30
0.0
 11
262.7088689256141
 21
396.3033988749896
 31
0.0
  0
LINE
  5
117
330
1F
100
AcDbEntity
  8
Make2D$可见线$普通线
100
AcDbLine
 10
262.3588066519991
 20
396.3033988749896
 30
0.0
 11
262.5269943359584
 21
396.3033988749896
 31
0.0
  0
LINE
  5
118
330
1F
100
AcDbEntity
  8
Make2D$可见线$普通线
100
AcDbLine
 10
262.1732629233798
 20
396.3033988749896
 30
0.0
 11
262.3455036560143
 21
396.3033988749896
 31
0.0
  0
LINE
  5
119
330
1F
100
AcDbEntity
  8
Make2D$可见线$普通线
100
AcDbLine
 10
261.442409049779
 20
396.3033988749896
 30
0.0
 11
262.1644040885533
 21
396.3033988749896
 31
0.0
  0
LINE
  5
11A
330
1F
100
AcDbEntity
  8
Make2D$可见线$普通线
100
AcDbLine
 10
261.2613094823178
 20
396.3033988749896
 30
0.0
 11
261.4335502149527
 21
396.3033988749896
 31
0.0
  0
LINE
  5
11B
330
1F
100
AcDbEntity
  8
Make2D$可见线$普通线
100
AcDbLine
 10
261.0798188023737
 20
396.3033988749896
 30
0.0
 11
261.2480064863332
 21
396.3033988749896
 31
0.0
  0
LINE
  5
11C
330
1F
100
AcDbEntity
  8
Make2D$可见线$普通线
100
AcDbLine
 10
260.897944212718
 20
396.3033988749896
 30
0.0
 11
261.035423903535
 21
396.3033988749896
 31
0.0
  0
LINE
  5
11D
330
1F
100
AcDbEntity
  8
Make2D$可见线$普通线
100
AcDbLine
 10
260.7156930225974
 20
396.3033988749896
 30
0.0
 11
260.8434794467901
 21
396.3033988749896
 31
0.0
  0
LINE
  5
11E
330
1F
100
AcDbEntity
  8
Make2D$可见线$普通线
100
AcDbLine
 10
260.5330726475972
 20
396.3033988749896
 30
0.0
 11
260.6515682051295
 21
396.3033988749896
 31
0.0
  0
LINE
  5
11F
330
1F
100
AcDbEntity
  8
Make2D$可见线$普通线
100
AcDbLine
 10
260.3500906094735
 20
396.3033988749896
 30
0.0
 11
260.4596968173275
 21
396.3033988749896
 31
0.0
  0
LINE
  5
120
330
1F
100
AcDbEntity
  8
Make2D$可见线$普通线
100
AcDbLine
 10
260.1667545359553
 20
396.3033988749896
 30
0.0
 11
260.26787192216
 21
396.3033988749896
 31
0.0
  0
LINE
  5
121
330
1F
100
AcDbEntity
  8
Make2D$可见线$普通线
100
AcDbLine
 10
259.9830721605165
 20
396.3033988749896
 30
0.0
 11
260.0761001584041
 21
396.3033988749896
 31
0.0
  0
LINE
  5
122
330
1F
100
AcDbEntity
  8
Make2D$可见线$普通线
100
AcDbLine
 10
259.7990513221143
 20
396.3033988749897
 30
0.0
 11
259.884388164838
 21
396.3033988749896
 31
0.0
  0
LINE
  5
123
330
1F
100
AcDbEntity
  8
Make2D$可见线$普通线
100
AcDbLine
 10
259.6146999648986
 20
396.3033988749896
 30
0.0
 11
259.6927425802413
 21
396.3033988749896
 31
0.0
  0
LINE
  5
124
330
1F
100
AcDbEntity
  8
Make2D$可见线$普通线
100
AcDbLine
 10
259.4300261378866
 20
396.3033988749896
 30
0.0
 11
259.5011700433946
 21
396.3033988749896
 31
0.0
  0
LINE
  5
125
330
1F
100
AcDbEntity
  8
Make2D$可见线$普通线
100
AcDbLine
 10
259.2450379946054
 20
396.3033988749897
 30
0.0
 11
259.3096771930791
 21
396.3033988749896
 31
0.0
  0
LINE
  5
126
330
1F
100
AcDbEntity
  8
Make2D$可见线$普通线
100
AcDbLine
 10
259.0523777649892
 20
396.3033988749896
 30
0.0
 11
259.0597437921499
 21
396.3033988749896
 31
0.0
  0
LINE
  5
127
330
1F
100
AcDbEntity
  8
Make2D$可见线$普通线
100
AcDbLine
 10
258.8563693931319
 20
396.3033988749896
 30
0.0
 11
258.8741518922716
 21
396.3033988749896
 31
0.0
  0
LINE
  5
128
330
1F
100
AcDbEntity
  8
Make2D$可见线$普通线
100
AcDbLine
 10
258.6604630683955
 20
396.3033988749896
 30
0.0
 11
258.6882707598998
 21
396.3033988749896
 31
0.0
  0
LINE
  5
129
330
1F
100
AcDbEntity
  8
Make2D$可见线$普通线
100
AcDbLine
 10
258.4646655924707
 20
396.3033988749896
 30
0.0
 11
258.5021089624445
 21
396.3033988749896
 31
0.0
  0
LINE
  5
12A
330
1F
100
AcDbEntity
  8
Make2D$可见线$普通线
100
AcDbLine
 10
258.2689837670482
 20
396.3033988749896
 30
0.0
 11
258.3156751695319
 21
396.3033988749896
 31
0.0
  0
LINE
  5
12B
330
1F
100
AcDbEntity
  8
Make2D$可见线$普通线
100
AcDbLine
 10
257.0977023697425
 20
396.3033988749896
 30
0.0
 11
257.1918587361376
 21
396.3033988749896
 31
0.0
  0
LINE
  5
12C
330
1F
100
AcDbEntity
  8
Make2D$可见线$普通线
100
AcDbLine
 10
256.9030205451767
 20
396.3033988749896
 30
0.0
 11
257.0037721832823
 21
396.3033988749896
 31
0.0
  0
LINE
  5
12D
330
1F
100
AcDbEntity
  8
Make2D$可见线$普通线
100
AcDbLine
 10
256.6930836586785
 20
396.3033988749896
 30
0.0
 11
256.8154865965748
 21
396.3033988749896
 31
0.0
  0
LINE
  5
12E
330
1F
100
AcDbEntity
  8
Make2D$可见线$普通线
100
AcDbLine
 10
256.4999834431062
 20
396.3033988749896
 30
0.0
 11
256.6270115359039
 21
396.3033988749896
 31
0.0
  0
LINE
  5
12F
330
1F
100
AcDbEntity
  8
Make2D$可见线$普通线
100
AcDbLine
 10
256.3066989955964
 20
396.3033988749896
 30
0.0
 11
256.4513611943715
 21
396.3033988749896
 31
0.0
  0
LINE
  5
130
330
1F
100
AcDbEntity
  8
Make2D$可见线$普通线
100
AcDbLine
 10
254.9494002501656
 20
396.3033988749897
 30
0.0
 11
256.2620462029627
 21
396.3033988749895
 31
0.0
  0
LINE
  5
131
330
1F
100
AcDbEntity
  8
Make2D$可见线$普通线
100
AcDbLine
 10
254.7550093932217
 20
396.3033988749896
 30
0.0
 11
254.9238332744137
 21
396.3033988749896
 31
0.0
  0
LINE
  5
132
330
1F
100
AcDbEntity
  8
Make2D$可见线$普通线
100
AcDbLine
 10
254.567664356473
 20
396.3033988749896
 30
0.0
 11
254.7340096680084
 21
396.3033988749896
 31
0.0
  0
LINE
  5
133
330
1F
100
AcDbEntity
  8
Make2D$可见线$普通线
100
AcDbLine
 10
254.3805687832108
 20
396.3033988749896
 30
0.0
 11
254.5441077902908
 21
396.3033988749896
 31
0.0
  0
LINE
  5
134
330
1F
100
AcDbEntity
  8
Make2D$可见线$普通线
100
AcDbLine
 10
254.1937305610302
 20
396.3033988749896
 30
0.0
 11
254.3541382709735
 21
396.3033988749896
 31
0.0
  0
LINE
  5
135
330
1F
100
AcDbEntity
  8
Make2D$可见线$普通线
100
AcDbLine
 10
253.8158370731026
 20
396.3033988749896
 30
0.0
 11
253.8208518132109
 21
396.3033988749896
 31
0.0
  0
LINE
  5
136
330
1F
100
AcDbEntity
  8
Make2D$可见线$普通线
100
AcDbLine
 10
253.6249609074164
 20
396.3033988749896
 30
0.0
 11
253.6348241222987
 21
396.3033988749896
 31
0.0
  0
LINE
  5
137
330
1F
100
AcDbEntity
  8
Make2D$可见线$普通线
100
AcDbLine
 10
253.434368118736
 20
396.3033988749896
 30
0.0
 11
253.4490794291459
 21
396.3033988749896
 31
0.0
  0
LINE
  5
138
330
1F
100
AcDbEntity
  8
Make2D$可见线$普通线
100
AcDbLine
 10
253.2135060132184
 20
396.3033988749896
 30
0.0
 11
253.2636241510985
 21
396.3033988749896
 31
0.0
  0
LINE
  5
139
330
1F
100
AcDbEntity
  8
Make2D$可见线$普通线
100
AcDbLine
 10
253.0233672858396
 20
396.3033988749896
 30
0.0
 11
253.0784647009303
 21
396.3033988749896
 31
0.0
  0
LINE
  5
13A
330
1F
100
AcDbEntity
  8
Make2D$可见线$普通线
100
AcDbLine
 10
252.8332487608888
 20
396.3033988749897
 30
0.0
 11
252.8936074914146
 21
396.3033988749896
 31
0.0
  0
LINE
  5
13B
330
1F
100
AcDbEntity
  8
Make2D$可见线$普通线
100
AcDbLine
 10
252.6431617469589
 20
396.3033988749896
 30
0.0
 11
252.7090589804554
 21
396.3033988749896
 31
0.0
  0
LINE
  5
13C
330
1F
100
AcDbEntity
  8
Make2D$可见线$普通线
100
AcDbLine
 10
252.4531176201696
 20
396.3033988749896
 30
0.0
 11
252.5248254904886
 21
396.3033988749896
 31
0.0
  0
LINE
  5
13D
330
1F
100
AcDbEntity
  8
Make2D$可见线$普通线
100
AcDbLine
 10
252.263127822454
 20
396.3033988749895
 30
0.0
 11
252.3409134794892
 21
396.3033988749895
 31
0.0
  0
LINE
  5
13E
330
1F
100
AcDbEntity
  8
Make2D$可见线$普通线
100
AcDbLine
 10
252.0732038598079
 20
396.3033988749896
 30
0.0
 11
252.1573293602272
 21
396.3033988749896
 31
0.0
  0
LINE
  5
13F
330
1F
100
AcDbEntity
  8
Make2D$可见线$普通线
100
AcDbLine
 10
251.8833573005061
 20
396.3033988749896
 30
0.0
 11
251.9740795454715
 21
396.3033988749896
 31
0.0
  0
LINE
  5
140
330
1F
100
AcDbEntity
  8
Make2D$可见线$普通线
100
AcDbLine
 10
251.6935997732828
 20
396.3033988749896
 30
0.0
 11
251.791170447989
 21
396.3033988749896
 31
0.0
  0
LINE
  5
141
330
1F
100
AcDbEntity
  8
Make2D$可见线$普通线
100
AcDbLine
 10
251.5039429654777
 20
396.3033988749896
 30
0.0
 11
251.6086084805454
 21
396.3033988749896
 31
0.0
  0
LINE
  5
142
330
1F
100
AcDbEntity
  8
Make2D$可见线$普通线
100
AcDbLine
 10
251.3143986211487
 20
396.3033988749896
 30
0.0
 11
251.4264000559037
 21
396.3033988749896
 31
0.0
  0
LINE
  5
143
330
1F
100
AcDbEntity
  8
Make2D$可见线$普通线
100
AcDbLine
 10
251.1249785391514
 20
396.3033988749896
 30
0.0
 11
251.2445515868251
 21
396.3033988749896
 31
0.0
  0
LINE
  5
144
330
1F
100
AcDbEntity
  8
Make2D$可见线$普通线
100
AcDbLine
 10
250.9356945711837
 20
396.3033988749897
 30
0.0
 11
251.0569996685249
 21
396.3033988749897
 31
0.0
  0
LINE
  5
145
330
1F
100
AcDbEntity
  8
Make2D$可见线$普通线
100
AcDbLine
 10
250.7012300405326
 20
396.3033988749896
 30
0.0
 11
250.8629312403802
 21
396.3033988749896
 31
0.0
  0
LINE
  5
146
330
1F
100
AcDbEntity
  8
Make2D$可见线$普通线
100
AcDbLine
 10
250.5208855212553
 20
396.3033988749896
 30
0.0
 11
250.6690022677811
 21
396.3033988749896
 31
0.0
  0
LINE
  5
147
330
1F
100
AcDbEntity
  8
Make2D$可见线$普通线
100
AcDbLine
 10
248.6519540655639
 20
396.3033988749896
 30
0.0
 11
250.4752249458039
 21
396.3033988749896
 31
0.0
  0
LINE
  5
148
330
1F
100
AcDbEntity
  8
Make2D$可见线$普通线
100
AcDbLine
 10
248.4618616284552
 20
396.3033988749896
 30
0.0
 11
248.5485082711589
 21
396.3033988749896
 31
0.0
  0
LINE
  5
149
330
1F
100
AcDbEntity
  8
Make2D$可见线$普通线
100
AcDbLine
 10
248.2723122926112
 20
396.3033988749896
 30
0.0
 11
248.3572167048976
 21
396.3033988749896
 31
0.0
  0
LINE
  5
14A
330
1F
100
AcDbEntity
  8
Make2D$可见线$普通线
100
AcDbLine
 10
248.0833135949985
 20
396.3033988749896
 30
0.0
 11
248.1344617454085
 21
396.3033988749896
 31
0.0
  0
LINE
  5
14B
330
1F
100
AcDbEntity
  8
Make2D$可见线$普通线
100
AcDbLine
 10
247.8948730725697
 20
396.3033988749896
 30
0.0
 11
247.9402608878343
 21
396.3033988749896
 31
0.0
  0
LINE
  5
14C
330
1F
100
AcDbEntity
  8
Make2D$可见线$普通线
100
AcDbLine
 10
247.7069982161933
 20
396.3033988749896
 30
0.0
 11
247.7503908563642
 21
396.3033988749896
 31
0.0
  0
LINE
  5
14D
330
1F
100
AcDbEntity
  8
Make2D$可见线$普通线
100
AcDbLine
 10
247.5196966550673
 20
396.3033988749896
 30
0.0
 11
247.5656313365059
 21
396.3033988749896
 31
0.0
  0
LINE
  5
14E
330
1F
100
AcDbEntity
  8
Make2D$可见线$普通线
100
AcDbLine
 10
247.3329758798957
 20
396.3033988749896
 30
0.0
 11
247.3812402972513
 21
396.3033988749896
 31
0.0
  0
LINE
  5
14F
330
1F
100
AcDbEntity
  8
Make2D$可见线$普通线
100
AcDbLine
 10
247.1468434275669
 20
396.3033988749896
 30
0.0
 11
247.1691761835345
 21
396.3033988749896
 31
0.0
  0
LINE
  5
150
330
1F
100
AcDbEntity
  8
Make2D$可见线$普通线
100
AcDbLine
 10
246.9613068349494
 20
396.3033988749896
 30
0.0
 11
246.9778732989645
 21
396.3033988749896
 31
0.0
  0
LINE
  5
151
330
1F
100
AcDbEntity
  8
Make2D$可见线$普通线
100
AcDbLine
 10
246.7763736388912
 20
396.3033988749896
 30
0.0
 11
246.7871731749987
 21
396.3033988749896
 31
0.0
  0
LINE
  5
152
330
1F
100
AcDbEntity
  8
Make2D$可见线$普通线
100
AcDbLine
 10
246.592051374953
 20
396.3033988749896
 30
0.0
 11
246.5970835336382
 21
396.3033988749896
 31
0.0
  0
LINE
  5
153
330
1F
100
AcDbEntity
  8
Make2D$可见线$普通线
100
AcDbLine
 10
246.2187665867377
 20
396.3033988749896
 30
0.0
 11
246.2252697989705
 21
396.3033988749896
 31
0.0
  0
LINE
  5
154
330
1F
100
AcDbEntity
  8
Make2D$可见线$普通线
100
AcDbLine
 10
246.0305547252
 20
396.3033988749897
 30
0.0
 11
246.0428255599936
 21
396.3033988749897
 31
0.0
  0
LINE
  5
155
330
1F
100
AcDbEntity
  8
Make2D$可见线$普通线
100
AcDbLine
 10
245.8429842342721
 20
396.3033988749897
 30
0.0
 11
245.8610224034004
 21
396.3033988749897
 31
0.0
  0
LINE
  5
156
330
1F
100
AcDbEntity
  8
Make2D$可见线$普通线
100
AcDbLine
 10
245.6560628359551
 20
396.3033988749897
 30
0.0
 11
245.6798678663815
 21
396.3033988749897
 31
0.0
  0
LINE
  5
157
330
1F
100
AcDbEntity
  8
Make2D$可见线$普通线
100
AcDbLine
 10
245.4697982522503
 20
396.3033988749897
 30
0.0
 11
245.4993694859803
 21
396.3033988749897
 31
0.0
  0
LINE
  5
158
330
1F
100
AcDbEntity
  8
Make2D$可见线$普通线
100
AcDbLine
 10
245.2018246633397
 20
396.3033988749896
 30
0.0
 11
245.3195347992396
 21
396.3033988749896
 31
0.0
  0
LINE
  5
159
330
1F
100
AcDbEntity
  8
Make2D$可见线$普通线
100
AcDbLine
 10
245.0233567870727
 20
396.3033988749896
 30
0.0
 11
245.1403713432026
 21
396.3033988749896
 31
0.0
  0
LINE
  5
15A
330
1F
100
AcDbEntity
  8
Make2D$可见线$普通线
100
AcDbLine
 10
244.8454312945225
 20
396.3033988749896
 30
0.0
 11
244.9618866549122
 21
396.3033988749896
 31
0.0
  0
LINE
  5
15B
330
1F
100
AcDbEntity
  8
Make2D$可见线$普通线
100
AcDbLine
 10
244.6680604762378
 20
396.3033988749896
 30
0.0
 11
244.7840882714111
 21
396.3033988749896
 31
0.0
  0
LINE
  5
15C
330
1F
100
AcDbEntity
  8
Make2D$可见线$普通线
100
AcDbLine
 10
244.4912565915613
 20
396.3033988749896
 30
0.0
 11
244.6069837297421
 21
396.3033988749896
 31
0.0
  0
LINE
  5
15D
330
1F
100
AcDbEntity
  8
Make2D$可见线$普通线
100
AcDbLine
 10
244.3150318659768
 20
396.3033988749896
 30
0.0
 11
244.4292846618213
 21
396.3033988749896
 31
0.0
  0
LINE
  5
15E
330
1F
100
AcDbEntity
  8
Make2D$可见线$普通线
100
AcDbLine
 10
244.0799085261549
 20
396.3033988749896
 30
0.0
 11
244.2475611853916
 21
396.3033988749895
 31
0.0
  0
LINE
  5
15F
330
1F
100
AcDbEntity
  8
Make2D$可见线$普通线
100
AcDbLine
 10
243.905654722241
 20
396.3033988749896
 30
0.0
 11
244.0664185550518
 21
396.3033988749896
 31
0.0
  0
LINE
  5
160
330
1F
100
AcDbEntity
  8
Make2D$可见线$普通线
100
AcDbLine
 10
243.7321322857862
 20
396.3033988749896
 30
0.0
 11
243.8858692962972
 21
396.3033988749896
 31
0.0
  0
LINE
  5
161
330
1F
100
AcDbEntity
  8
Make2D$可见线$普通线
100
AcDbLine
 10
243.5593479559036
 20
396.3033988749896
 30
0.0
 11
243.7059258972114
 21
396.3033988749896
 31
0.0
  0
LINE
  5
162
330
1F
100
AcDbEntity
  8
Make2D$可见线$普通线
100
AcDbLine
 10
243.3873083121208
 20
396.3033988749896
 30
0.0
 11
243.5266008057446
 21
396.3033988749895
 31
0.0
  0
LINE
  5
163
330
1F
100
AcDbEntity
  8
Make2D$可见线$普通线
100
AcDbLine
 10
243.216019933965
 20
396.3033988749896
 30
0.0
 11
243.3479064269939
 21
396.3033988749896
 31
0.0
  0
LINE
  5
164
330
1F
100
AcDbEntity
  8
Make2D$可见线$普通线
100
AcDbLine
 10
243.0454894009628
 20
396.3033988749896
 30
0.0
 11
243.1698551204831
 21
396.3033988749896
 31
0.0
  0
LINE
  5
165
330
1F
100
AcDbEntity
  8
Make2D$可见线$普通线
100
AcDbLine
 10
242.8757232926415
 20
396.3033988749896
 30
0.0
 11
242.9924591974484
 21
396.3033988749896
 31
0.0
  0
LINE
  5
166
330
1F
100
AcDbEntity
  8
Make2D$可见线$普通线
100
AcDbLine
 10
242.7067281885281
 20
396.3033988749897
 30
0.0
 11
242.8157309181288
 21
396.3033988749897
 31
0.0
  0
LINE
  5
167
330
1F
100
AcDbEntity
  8
Make2D$可见线$普通线
100
AcDbLine
 10
242.5385106681501
 20
396.3033988749896
 30
0.0
 11
242.6396824890606
 21
396.3033988749896
 31
0.0
  0
LINE
  5
168
330
1F
100
AcDbEntity
  8
Make2D$可见线$普通线
100
AcDbLine
 10
242.3710773110347
 20
396.3033988749896
 30
0.0
 11
242.4643260603807
 21
396.3033988749896
 31
0.0
  0
LINE
  5
169
330
1F
100
AcDbEntity
  8
Make2D$可见线$普通线
100
AcDbLine
 10
242.2044346967094
 20
396.3033988749896
 30
0.0
 11
242.2499018351749
 21
396.3033988749896
 31
0.0
  0
LINE
  5
16A
330
1F
100
AcDbEntity
  8
Make2D$可见线$普通线
100
AcDbLine
 10
242.0385894159572
 20
396.3033988749897
 30
0.0
 11
242.0822984648487
 21
396.3033988749897
 31
0.0
  0
LINE
  5
16B
330
1F
100
AcDbEntity
  8
Make2D$可见线$普通线
100
AcDbLine
 10
241.8735479960339
 20
396.3033988749896
 30
0.0
 11
241.9154403724219
 21
396.3033988749896
 31
0.0
  0
LINE
  5
16C
330
1F
100
AcDbEntity
  8
Make2D$可见线$普通线
100
AcDbLine
 10
241.7093170964066
 20
396.3033988749896
 30
0.0
 11
241.7493389587571
 21
396.3033988749896
 31
0.0
  0
LINE
  5
16D
330
1F
100
AcDbEntity
  8
Make2D$可见线$普通线
100
AcDbLine
 10
241.5459032549297
 20
396.3033988749896
 30
0.0
 11
241.5840055489889
 21
396.3033988749896
 31
0.0
  0
LINE
  5
16E
330
1F
100
AcDbEntity
  8
Make2D$可见线$普通线
100
AcDbLine
 10
241.3833130398754
 20
396.3033988749896
 30
0.0
 11
241.3844717309988
 21
396.3033988749896
 31
0.0
  0
LINE
  5
16F
330
1F
100
AcDbEntity
  8
Make2D$可见线$普通线
100
AcDbLine
 10
241.2162106158546
 20
396.3033988749897
 30
0.0
 11
241.2215530627494
 21
396.3033988749896
 31
0.0
  0
LINE
  5
170
330
1F
100
AcDbEntity
  8
Make2D$可见线$普通线
100
AcDbLine
 10
241.0487866121898
 20
396.3033988749896
 30
0.0
 11
241.0606298745713
 21
396.3033988749896
 31
0.0
  0
LINE
  5
171
330
1F
100
AcDbEntity
  8
Make2D$可见线$普通线
100
AcDbLine
 10
239.6639170747852
 20
396.3033988749896
 30
0.0
 11
239.7403395147808
 21
396.3033988749896
 31
0.0
  0
LINE
  5
172
330
1F
100
AcDbEntity
  8
Make2D$可见线$普通线
100
AcDbLine
 10
239.5095593522525
 20
396.3033988749896
 30
0.0
 11
239.5807528589247
 21
396.3033988749896
 31
0.0
  0
LINE
  5
173
330
1F
100
AcDbEntity
  8
Make2D$可见线$普通线
100
AcDbLine
 10
239.3475853176345
 20
396.3033988749896
 30
0.0
 11
239.4220707244356
 21
396.3033988749896
 31
0.0
  0
LINE
  5
174
330
1F
100
AcDbEntity
  8
Make2D$可见线$普通线
100
AcDbLine
 10
239.1972169267551
 20
396.3033988749896
 30
0.0
 11
239.2796918461768
 21
396.3033988749896
 31
0.0
  0
LINE
  5
175
330
1F
100
AcDbEntity
  8
Make2D$可见线$普通线
100
AcDbLine
 10
237.7452774548858
 20
396.3033988749896
 30
0.0
 11
239.1206167189857
 21
396.3033988749896
 31
0.0
  0
LINE
  5
176
330
1F
100
AcDbEntity
  8
Make2D$可见线$普通线
100
AcDbLine
 10
237.1408382816859
 20
396.3033988749896
 30
0.0
 11
237.6053823453938
 21
396.3033988749896
 31
0.0
  0
LINE
  5
177
330
1F
100
AcDbEntity
  8
Make2D$可见线$普通线
100
AcDbLine
 10
237.0115658009393
 20
396.3033988749896
 30
0.0
 11
237.0557053494945
 21
396.3033988749896
 31
0.0
  0
LINE
  5
178
330
1F
100
AcDbEntity
  8
Make2D$可见线$普通线
100
AcDbLine
 10
236.869246837696
 20
396.3033988749895
 30
0.0
 11
236.9207887735947
 21
396.3033988749896
 31
0.0
  0
LINE
  5
179
330
1F
100
AcDbEntity
  8
Make2D$可见线$普通线
100
AcDbLine
 10
236.7279425197155
 20
396.3033988749896
 30
0.0
 11
236.7617426874353
 21
396.3033988749896
 31
0.0
  0
LINE
  5
17A
330
1F
100
AcDbEntity
  8
Make2D$可见线$普通线
100
AcDbLine
 10
236.5876583419974
 20
396.3033988749895
 30
0.0
 11
236.6274719121955
 21
396.3033988749895
 31
0.0
  0
LINE
  5
17B
330
1F
100
AcDbEntity
  8
Make2D$可见线$普通线
100
AcDbLine
 10
236.4483997995414
 20
396.3033988749895
 30
0.0
 11
236.4942926526714
 21
396.3033988749895
 31
0.0
  0
LINE
  5
17C
330
1F
100
AcDbEntity
  8
Make2D$可见线$普通线
100
AcDbLine
 10
235.7589863276532
 20
396.3033988749896
 30
0.0
 11
235.767683941181
 21
396.3033988749896
 31
0.0
  0
LINE
  5
17D
330
1F
100
AcDbEntity
  8
Make2D$可见线$普通线
100
AcDbLine
 10
235.6281567411937
 20
396.3033988749896
 30
0.0
 11
235.6346946052904
 21
396.3033988749896
 31
0.0
  0
LINE
  5
17E
330
1F
100
AcDbEntity
  8
Make2D$可见线$普通线
100
AcDbLine
 10
235.5027693696595
 20
396.3033988749895
 30
0.0
 11
235.5046649135027
 21
396.3033988749896
 31
0.0
  0
LINE
  5
17F
330
1F
100
AcDbEntity
  8
Make2D$可见线$普通线
100
AcDbLine
 10
235.3719137292881
 20
396.3033988749896
 30
0.0
 11
235.3822438707879
 21
396.3033988749896
 31
0.0
  0
LINE
  5
180
330
1F
100
AcDbEntity
  8
Make2D$可见线$普通线
100
AcDbLine
 10
235.2240617779589
 20
396.3033988749897
 30
0.0
 11
235.2608989849216
 21
396.3033988749896
 31
0.0
  0
LINE
  5
181
330
1F
100
AcDbEntity
  8
Make2D$可见线$普通线
100
AcDbLine
 10
235.1033368815896
 20
396.3033988749896
 30
0.0
 11
235.1406356192458
 21
396.3033988749896
 31
0.0
  0
LINE
  5
182
330
1F
100
AcDbEntity
  8
Make2D$可见线$普通线
100
AcDbLine
 10
234.9837809008463
 20
396.3033988749896
 30
0.0
 11
235.0214591370975
 21
396.3033988749896
 31
0.0
  0
LINE
  5
183
330
1F
100
AcDbEntity
  8
Make2D$可见线$普通线
100
AcDbLine
 10
234.8592970203895
 20
396.3033988749897
 30
0.0
 11
234.9033749018095
 21
396.3033988749896
 31
0.0
  0
LINE
  5
184
330
1F
100
AcDbEntity
  8
Make2D$可见线$普通线
100
AcDbLine
 10
234.6966872830378
 20
396.3033988749897
 30
0.0
 11
234.7863882767115
 21
396.3033988749897
 31
0.0
  0
LINE
  5
185
330
1F
100
AcDbEntity
  8
Make2D$可见线$普通线
100
AcDbLine
 10
234.5718079176083
 20
396.3033988749896
 30
0.0
 11
234.6705046251313
 21
396.3033988749896
 31
0.0
  0
LINE
  5
186
330
1F
100
AcDbEntity
  8
Make2D$可见线$普通线
100
AcDbLine
 10
234.448120435987
 20
396.3033988749896
 30
0.0
 11
234.5557293103977
 21
396.3033988749896
 31
0.0
  0
LINE
  5
187
330
1F
100
AcDbEntity
  8
Make2D$可见线$普通线
100
AcDbLine
 10
234.3295231981554
 20
396.3033988749896
 30
0.0
 11
234.4037200989063
 21
396.3033988749896
 31
0.0
  0
LINE
  5
188
330
1F
100
AcDbEntity
  8
Make2D$可见线$普通线
100
AcDbLine
 10
234.2181004506942
 20
396.3033988749897
 30
0.0
 11
234.2912865059839
 21
396.3033988749897
 31
0.0
  0
LINE
  5
189
330
1F
100
AcDbEntity
  8
Make2D$可见线$普通线
100
AcDbLine
 10
234.08426588152
 20
396.3033988749896
 30
0.0
 11
234.1800566046727
 21
396.3033988749896
 31
0.0
  0
LINE
  5
18A
330
1F
100
AcDbEntity
  8
Make2D$可见线$普通线
100
AcDbLine
 10
233.9654017096839
 20
396.3033988749896
 30
0.0
 11
234.0700347157981
 21
396.3033988749896
 31
0.0
  0
LINE
  5
18B
330
1F
100
AcDbEntity
  8
Make2D$可见线$普通线
100
AcDbLine
 10
233.8536314476622
 20
396.3033988749896
 30
0.0
 11
233.9612249980372
 21
396.3033988749896
 31
0.0
  0
LINE
  5
18C
330
1F
100
AcDbEntity
  8
Make2D$可见线$普通线
100
AcDbLine
 10
233.7472578983344
 20
396.3033988749896
 30
0.0
 11
233.8477564936908
 21
396.3033988749896
 31
0.0
  0
LINE
  5
18D
330
1F
100
AcDbEntity
  8
Make2D$可见线$普通线
100
AcDbLine
 10
233.5021829869818
 20
396.3033988749896
 30
0.0
 11
233.7313351567047
 21
396.3033988749896
 31
0.0
  0
LINE
  5
18E
330
1F
100
AcDbEntity
  8
Make2D$可见线$普通线
100
AcDbLine
 10
233.3894611739163
 20
396.3033988749896
 30
0.0
 11
233.4698712946771
 21
396.3033988749896
 31
0.0
  0
LINE
  5
18F
330
1F
100
AcDbEntity
  8
Make2D$可见线$普通线
100
AcDbLine
 10
233.2779812784993
 20
396.3033988749896
 30
0.0
 11
233.3675611257113
 21
396.3033988749896
 31
0.0
  0
LINE
  5
190
330
1F
100
AcDbEntity
  8
Make2D$可见线$普通线
100
AcDbLine
 10
233.167747395139
 20
396.3033988749896
 30
0.0
 11
233.2338129441798
 21
396.3033988749896
 31
0.0
  0
LINE
  5
191
330
1F
100
AcDbEntity
  8
Make2D$可见线$普通线
100
AcDbLine
 10
233.0675860579447
 20
396.3033988749896
 30
0.0
 11
233.1348307887991
 21
396.3033988749896
 31
0.0
  0
LINE
  5
192
330
1F
100
AcDbEntity
  8
Make2D$可见线$普通线
100
AcDbLine
 10
232.9699258593348
 20
396.3033988749896
 30
0.0
 11
233.0370909103578
 21
396.3033988749896
 31
0.0
  0
LINE
  5
193
330
1F
100
AcDbEntity
  8
Make2D$可见线$普通线
100
AcDbLine
 10
232.7513494344917
 20
396.3033988749896
 30
0.0
 11
232.9405958397269
 21
396.3033988749896
 31
0.0
  0
LINE
  5
194
330
1F
100
AcDbEntity
  8
Make2D$可见线$普通线
100
AcDbLine
 10
232.6586023516752
 20
396.3033988749896
 30
0.0
 11
232.6839943793218
 21
396.3033988749896
 31
0.0
  0
LINE
  5
195
330
1F
100
AcDbEntity
  8
Make2D$可见线$普通线
100
AcDbLine
 10
232.3624125489822
 20
396.3033988749897
 30
0.0
 11
232.387887705925
 21
396.3033988749896
 31
0.0
  0
LINE
  5
196
330
1F
100
AcDbEntity
  8
Make2D$可见线$普通线
100
AcDbLine
 10
232.0584417430437
 20
396.3033988749896
 30
0.0
 11
232.0658492974937
 21
396.3033988749896
 31
0.0
  0
LINE
  5
197
330
1F
100
AcDbEntity
  8
Make2D$可见线$普通线
100
AcDbLine
 10
231.9618695522103
 20
396.3033988749897
 30
0.0
 11
231.9738909913161
 21
396.3033988749896
 31
0.0
  0
LINE
  5
198
330
1F
100
AcDbEntity
  8
Make2D$可见线$普通线
100
AcDbLine
 10
231.8741788799169
 20
396.3033988749895
 30
0.0
 11
231.8905554270013
 21
396.3033988749896
 31
0.0
  0
LINE
  5
199
330
1F
100
AcDbEntity
  8
Make2D$可见线$普通线
100
AcDbLine
 10
231.7801671937103
 20
396.3033988749896
 30
0.0
 11
231.8002953754157
 21
396.3033988749896
 31
0.0
  0
LINE
  5
19A
330
1F
100
AcDbEntity
  8
Make2D$可见线$普通线
100
AcDbLine
 10
231.4163705804278
 20
396.3033988749896
 30
0.0
 11
231.4220899406502
 21
396.3033988749896
 31
0.0
  0
LINE
  5
19B
330
1F
100
AcDbEntity
  8
Make2D$可见线$普通线
100
AcDbLine
 10
231.3285039559217
 20
396.3033988749897
 30
0.0
 11
231.3529946854285
 21
396.3033988749897
 31
0.0
  0
LINE
  5
19C
330
1F
100
AcDbEntity
  8
Make2D$可见线$普通线
100
AcDbLine
 10
231.2295618951932
 20
396.3033988749896
 30
0.0
 11
231.2745794616804
 21
396.3033988749896
 31
0.0
  0
LINE
  5
19D
330
1F
100
AcDbEntity
  8
Make2D$可见线$普通线
100
AcDbLine
 10
231.1520685913808
 20
396.3033988749896
 30
0.0
 11
231.2045267738158
 21
396.3033988749896
 31
0.0
  0
LINE
  5
19E
330
1F
100
AcDbEntity
  8
Make2D$可见线$普通线
100
AcDbLine
 10
230.5254057966976
 20
396.3033988749896
 30
0.0
 11
231.1357344393904
 21
396.3033988749896
 31
0.0
  0
LINE
  5
19F
330
1F
100
AcDbEntity
  8
Make2D$可见线$普通线
100
AcDbLine
 10
230.4536340210981
 20
396.3033988749896
 30
0.0
 11
230.5168293361621
 21
396.3033988749896
 31
0.0
  0
LINE
  5
1A0
330
1F
100
AcDbEntity
  8
Make2D$可见线$普通线
100
AcDbLine
 10
230.3927062359877
 20
396.3033988749897
 30
0.0
 11
230.4446414092072
 21
396.3033988749896
 31
0.0
  0
LINE
  5
1A1
330
1F
100
AcDbEntity
  8
Make2D$可见线$普通线
100
AcDbLine
 10
230.3139632437175
 20
396.3033988749896
 30
0.0
 11
230.3554557930435
 21
396.3033988749896
 31
0.0
  0
LINE
  5
1A2
330
1F
100
AcDbEntity
  8
Make2D$可见线$普通线
100
AcDbLine
 10
230.2540429185455
 20
396.3033988749896
 30
0.0
 11
230.2921021275226
 21
396.3033988749896
 31
0.0
  0
LINE
  5
1A3
330
1F
100
AcDbEntity
  8
Make2D$可见线$普通线
100
AcDbLine
 10
230.1958652384745
 20
396.3033988749897
 30
0.0
 11
230.2434368525904
 21
396.3033988749897
 31
0.0
  0
LINE
  5
1A4
330
1F
100
AcDbEntity
  8
Make2D$可见线$普通线
100
AcDbLine
 10
230.1406864340743
 20
396.3033988749897
 30
0.0
 11
230.1575378528668
 21
396.3033988749896
 31
0.0
  0
LINE
  5
1A5
330
1F
100
AcDbEntity
  8
Make2D$可见线$普通线
100
AcDbLine
 10
230.0659145144799
 20
396.3033988749896
 30
0.0
 11
230.1040103070916
 21
396.3033988749896
 31
0.0
  0
LINE
  5
1A6
330
1F
100
AcDbEntity
  8
Make2D$可见线$普通线
100
AcDbLine
 10
230.0165520101361
 20
396.3033988749897
 30
0.0
 11
230.0219248281546
 21
396.3033988749896
 31
0.0
  0
LINE
  5
1A7
330
1F
100
AcDbEntity
  8
Make2D$可见线$普通线
100
AcDbLine
 10
229.9375710784497
 20
396.3033988749895
 30
0.0
 11
229.9744762124034
 21
396.3033988749895
 31
0.0
  0
LINE
  5
1A8
330
1F
100
AcDbEntity
  8
Make2D$可见线$普通线
100
AcDbLine
 10
229.8936404743895
 20
396.3033988749896
 30
0.0
 11
229.899050466114
 21
396.3033988749896
 31
0.0
  0
LINE
  5
1A9
330
1F
100
AcDbEntity
  8
Make2D$可见线$普通线
100
AcDbLine
 10
229.8200459861526
 20
396.3033988749897
 30
0.0
 11
229.8548842223346
 21
396.3033988749896
 31
0.0
  0
LINE
  5
1AA
330
1F
100
AcDbEntity
  8
Make2D$可见线$普通线
100
AcDbLine
 10
229.7807041316159
 20
396.3033988749895
 30
0.0
 11
229.7848574466719
 21
396.3033988749896
 31
0.0
  0
LINE
  5
1AB
330
1F
100
AcDbEntity
  8
Make2D$可见线$普通线
100
AcDbLine
 10
229.7132280286775
 20
396.3033988749896
 30
0.0
 11
229.7294237706535
 21
396.3033988749896
 31
0.0
  0
LINE
  5
1AC
330
1F
100
AcDbEntity
  8
Make2D$可见线$普通线
100
AcDbLine
 10
229.6751011618913
 20
396.3033988749896
 30
0.0
 11
229.6799809452862
 21
396.3033988749896
 31
0.0
  0
LINE
  5
1AD
330
1F
100
AcDbEntity
  8
Make2D$可见线$普通线
100
AcDbLine
 10
229.6147545428282
 20
396.3033988749896
 30
0.0
 11
229.6218915039765
 21
396.3033988749896
 31
0.0
  0
LINE
  5
1AE
330
1F
100
AcDbEntity
  8
Make2D$可见线$普通线
100
AcDbLine
 10
229.5561906535847
 20
396.3033988749896
 30
0.0
 11
229.5697966804994
 21
396.3033988749896
 31
0.0
  0
LINE
  5
1AF
330
1F
100
AcDbEntity
  8
Make2D$可见线$普通线
100
AcDbLine
 10
229.5049368546311
 20
396.3033988749896
 30
0.0
 11
229.5285862513043
 21
396.3033988749896
 31
0.0
  0
LINE
  5
1B0
330
1F
100
AcDbEntity
  8
Make2D$可见线$普通线
100
AcDbLine
 10
229.4557787080212
 20
396.3033988749896
 30
0.0
 11
229.468959071223
 21
396.3033988749896
 31
0.0
  0
LINE
  5
1B1
330
1F
100
AcDbEntity
  8
Make2D$可见线$普通线
100
AcDbLine
 10
229.4073665575316
 20
396.3033988749896
 30
0.0
 11
229.4202200526055
 21
396.3033988749896
 31
0.0
  0
LINE
  5
1B2
330
1F
100
AcDbEntity
  8
Make2D$可见线$普通线
100
AcDbLine
 10
229.3525833329697
 20
396.3033988749896
 30
0.0
 11
229.3726034027894
 21
396.3033988749896
 31
0.0
  0
LINE
  5
1B3
330
1F
100
AcDbEntity
  8
Make2D$可见线$普通线
100
AcDbLine
 10
229.3142124758784
 20
396.3033988749896
 30
0.0
 11
229.3305940055983
 21
396.3033988749896
 31
0.0
  0
LINE
  5
1B4
330
1F
100
AcDbEntity
  8
Make2D$可见线$普通线
100
AcDbLine
 10
228.7648479337818
 20
396.3033988749896
 30
0.0
 11
229.2848280710555
 21
396.3033988749896
 31
0.0
  0
LINE
  5
1B5
330
1F
100
AcDbEntity
  8
Make2D$可见线$普通线
100
AcDbLine
 10
228.4242517972941
 20
396.3033988749896
 30
0.0
 11
228.4287743232676
 21
396.3033988749896
 31
0.0
  0
LINE
  5
1B6
330
1F
100
AcDbEntity
  8
Make2D$可见线$普通线
100
AcDbLine
 10
228.4034065691662
 20
396.3033988749896
 30
0.0
 11
228.4220030714118
 21
396.3033988749897
 31
0.0
  0
LINE
  5
1B7
330
1F
100
AcDbEntity
  8
Make2D$可见线$普通线
100
AcDbLine
 10
295.3034065691662
 20
396.2033988749896
 30
0.0
 11
295.3034065691662
 21
382.4033988749896
 31
0.0
  0
LINE
  5
1B8
330
1F
100
AcDbEntity
  8
Make2D$可见线$普通线
100
AcDbLine
 10
212.4466842412801
 20
384.3033988749896
 30
0.0
 11
228.3034065691663
 21
384.3033988749896
 31
0.0
  0
LINE
  5
1B9
330
1F
100
AcDbEntity
  8
Make2D$可见线$普通线
100
AcDbLine
 10
212.480504895099
 20
394.3033988749896
 30
0.0
 11
228.3034065691663
 21
394.3033988749896
 31
0.0
  0
LINE
  5
1BA
330
1F
100
AcDbEntity
  8
Make2D$可见线$普通线
100
AcDbLine
 10
294.3034065691662
 20
382.2033988749896
 30
0.0
 11
294.3034065691662
 21
381.9033988749896
 31
0.0
  0
LINE
  5
1BB
330
1F
100
AcDbEntity
  8
Make2D$可见线$普通线
100
AcDbLine
 10
229.8357496190351
 20
460.8033988749896
 30
0.0
 11
228.4054935998815
 21
460.8033988749896
 31
0.0
  0
LINE
  5
1BC
330
1F
100
AcDbEntity
  8
Make2D$可见线$普通线
100
AcDbLine
 10
295.8034065691663
 20
460.8033988749896
 30
0.0
 11
229.8479868048076
 21
460.8033988749896
 31
0.0
  0
ARC
  5
1BD
330
1F
100
AcDbEntity
  8
Make2D$可见线$普通线
100
AcDbCircle
 10
295.8034065691662
 20
459.8033988749896
 30
0.0
 40
1.0
100
AcDbArc
 50
0.0
 51
89.99999999999349
  0
ARC
  5
1BE
330
1F
100
AcDbEntity
  8
Make2D$可见线$普通线
100
AcDbCircle
 10
293.303406569167
 20
399.3033988749893
 30
0.0
 40
3.499999999999204
100
AcDbArc
 50
301.0027191315517
 51
0.0000000000055832
  0
LINE
  5
1BF
330
1F
100
AcDbEntity
  8
Make2D$可见线$普通线
100
AcDbLine
 10
288.3034065691662
 20
360.8033988749896
 30
0.0
 11
235.3034065691662
 21
360.8033988749896
 31
0.0
  0
ARC
  5
1C0
330
1F
100
AcDbEntity
  8
Make2D$可见线$普通线
100
AcDbCircle
 10
288.3034065691663
 20
364.3033988749895
 30
0.0
 40
3.499999999999886
100
AcDbArc
 50
269.9999999999981
 51
0.0000000000018611
  0
LINE
  5
1C1
330
1F
100
AcDbEntity
  8
Make2D$可见线$普通线
100
AcDbLine
 10
296.8034065691662
 20
459.8033988749896
 30
0.0
 11
296.8034065691662
 21
399.3033988749896
 31
0.0
  0
LINE
  5
1C2
330
1F
100
AcDbEntity
  8
Make2D$可见线$普通线
100
AcDbLine
 10
291.8034065691662
 20
381.8033988749896
 30
0.0
 11
291.8034065691662
 21
364.3033988749896
 31
0.0
  0
ARC
  5
1C3
330
1F
100
AcDbEntity
  8
Make2D$可见线$普通线
100
AcDbCircle
 10
229.4034065691663
 20
381.9033988749897
 30
0.0
 40
0.1000000000000796
100
AcDbArc
 50
180.0000000000326
 51
269.9999999999674
  0
ARC
  5
1C4
330
1F
100
AcDbEntity
  8
Make2D$可见线$普通线
100
AcDbCircle
 10
229.2034065691659
 20
382.2033988749891
 30
0.0
 40
0.1000000000003354
100
AcDbArc
 50
0.000000000260551
 51
85.40823346742104
  0
ARC
  5
1C5
330
1F
100
AcDbEntity
  8
Make2D$可见线$普通线
100
AcDbCircle
 10
228.4034065691661
 20
382.4033988749894
 30
0.0
 40
0.0999999999997385
100
AcDbArc
 50
179.9999999998371
 51
270.0000000000977
  0
ARC
  5
1C6
330
1F
100
AcDbEntity
  8
Make2D$可见线$普通线
100
AcDbCircle
 10
228.4034065691662
 20
396.2033988749897
 30
0.0
 40
0.0999999999999943
100
AcDbArc
 50
89.99999999998371
 51
180.0000000000326
  0
LINE
  5
1C7
330
1F
100
AcDbEntity
  8
Make2D$可见线$普通线
100
AcDbLine
 10
295.1992424704545
 20
382.3033988749896
 30
0.0
 11
295.2013586961644
 21
382.3033988749896
 31
0.0
  0
LINE
  5
1C8
330
1F
100
AcDbEntity
  8
Make2D$可见线$普通线
100
AcDbLine
 10
262.0001238276658
 20
382.3033988749896
 30
0.0
 11
295.1987884467264
 21
382.3033988749896
 31
0.0
  0
LINE
  5
1C9
330
1F
100
AcDbEntity
  8
Make2D$可见线$普通线
100
AcDbLine
 10
261.6186859629142
 20
382.3033988749896
 30
0.0
 11
261.9881271754183
 21
382.3033988749896
 31
0.0
  0
LINE
  5
1CA
330
1F
100
AcDbEntity
  8
Make2D$可见线$普通线
100
AcDbLine
 10
228.4080246916062
 20
382.3033988749897
 30
0.0
 11
261.6066781374275
 21
382.3033988749896
 31
0.0
  0
LINE
  5
1CB
330
1F
100
AcDbEntity
  8
Make2D$可见线$普通线
100
AcDbLine
 10
228.4054544421681
 20
382.3033988749896
 30
0.0
 11
228.4075707309225
 21
382.3033988749896
 31
0.0
  0
LINE
  5
1CC
330
1F
100
AcDbEntity
  8
Make2D$可见线$普通线
100
AcDbLine
 10
228.3034065691662
 20
396.2033988749896
 30
0.0
 11
228.3034065691662
 21
382.4033988749896
 31
0.0
  0
LINE
  5
1CD
330
1F
100
AcDbEntity
  8
Make2D$可见线$普通线
100
AcDbLine
 10
294.1993671440684
 20
381.8033988749896
 30
0.0
 11
294.2014200097274
 21
381.8033988749896
 31
0.0
  0
LINE
  5
1CE
330
1F
100
AcDbEntity
  8
Make2D$可见线$普通线
100
AcDbLine
 10
294.1962344100987
 20
381.8033988749896
 30
0.0
 11
294.1989267138651
 21
381.8033988749896
 31
0.0
  0
LINE
  5
1CF
330
1F
100
AcDbEntity
  8
Make2D$可见线$普通线
100
AcDbLine
 10
292.2840023887059
 20
381.8033988749896
 30
0.0
 11
294.1954244952377
 21
381.8033988749896
 31
0.0
  0
LINE
  5
1D0
330
1F
100
AcDbEntity
  8
Make2D$可见线$普通线
100
AcDbLine
 10
231.3238796680249
 20
381.8033988749896
 30
0.0
 11
292.2829334703076
 21
381.8033988749896
 31
0.0
  0
LINE
  5
1D1
330
1F
100
AcDbEntity
  8
Make2D$可见线$普通线
100
AcDbLine
 10
229.4113886430947
 20
381.8033988749896
 30
0.0
 11
231.3227910931848
 21
381.8033988749896
 31
0.0
  0
LINE
  5
1D2
330
1F
100
AcDbEntity
  8
Make2D$可见线$普通线
100
AcDbLine
 10
229.4078864244673
 20
381.8033988749896
 30
0.0
 11
229.4105788120755
 21
381.8033988749896
 31
0.0
  0
LINE
  5
1D3
330
1F
100
AcDbEntity
  8
Make2D$可见线$普通线
100
AcDbLine
 10
229.3034065691662
 20
382.2033988749896
 30
0.0
 11
229.3034065691662
 21
381.9033988749896
 31
0.0
  0
LINE
  5
1D4
330
1F
100
AcDbEntity
  8
Make2D$可见线$普通线
100
AcDbLine
 10
295.1147741498094
 20
396.3033988749896
 30
0.0
 11
295.1780388151014
 21
396.3033988749896
 31
0.0
  0
LINE
  5
1D5
330
1F
100
AcDbEntity
  8
Make2D$可见线$普通线
100
AcDbLine
 10
294.8125296876383
 20
396.3033988749896
 30
0.0
 11
295.1003969646754
 21
396.3033988749896
 31
0.0
  0
LINE
  5
1D6
330
1F
100
AcDbEntity
  8
Make2D$可见线$普通线
100
AcDbLine
 10
294.3028642835296
 20
396.3033988749896
 30
0.0
 11
294.3219676600377
 21
396.3033988749896
 31
0.0
  0
LINE
  5
1D7
330
1F
100
AcDbEntity
  8
Make2D$可见线$普通线
100
AcDbLine
 10
294.2542298284336
 20
396.3033988749896
 30
0.0
 11
294.2761982325827
 21
396.3033988749896
 31
0.0
  0
LINE
  5
1D8
330
1F
100
AcDbEntity
  8
Make2D$可见线$普通线
100
AcDbLine
 10
294.1994269927116
 20
396.3033988749896
 30
0.0
 11
294.2342218613335
 21
396.3033988749896
 31
0.0
  0
LINE
  5
1D9
330
1F
100
AcDbEntity
  8
Make2D$可见线$普通线
100
AcDbLine
 10
294.1510344388581
 20
396.3033988749896
 30
0.0
 11
294.186605292331
 21
396.3033988749896
 31
0.0
  0
LINE
  5
1DA
330
1F
100
AcDbEntity
  8
Make2D$可见线$普通线
100
AcDbLine
 10
294.1046984582719
 20
396.3033988749896
 30
0.0
 11
294.137866231991
 21
396.3033988749896
 31
0.0
  0
LINE
  5
1DB
330
1F
100
AcDbEntity
  8
Make2D$可见线$普通线
100
AcDbLine
 10
294.0506129005682
 20
396.3033988749896
 30
0.0
 11
294.0782152303893
 21
396.3033988749896
 31
0.0
  0
LINE
  5
1DC
330
1F
100
AcDbEntity
  8
Make2D$可见线$普通线
100
AcDbLine
 10
293.9920532566018
 20
396.3033988749896
 30
0.0
 11
294.0370282078372
 21
396.3033988749896
 31
0.0
  0
LINE
  5
1DD
330
1F
100
AcDbEntity
  8
Make2D$可见线$普通线
100
AcDbLine
 10
293.9317229210637
 20
396.3033988749896
 30
0.0
 11
293.9849330259553
 21
396.3033988749896
 31
0.0
  0
LINE
  5
1DE
330
1F
100
AcDbEntity
  8
Make2D$可见线$普通线
100
AcDbLine
 10
293.8935851238396
 20
396.3033988749896
 30
0.0
 11
293.9268321987666
 21
396.3033988749896
 31
0.0
  0
LINE
  5
1DF
330
1F
100
AcDbEntity
  8
Make2D$可见线$普通线
100
AcDbLine
 10
293.826113445862
 20
396.3033988749895
 30
0.0
 11
293.8773997845616
 21
396.3033988749896
 31
0.0
  0
LINE
  5
1E0
330
1F
100
AcDbEntity
  8
Make2D$可见线$普通线
100
AcDbLine
 10
293.7867671656097
 20
396.3033988749896
 30
0.0
 11
293.821965508296
 21
396.3033988749896
 31
0.0
  0
LINE
  5
1E1
330
1F
100
AcDbEntity
  8
Make2D$可见线$普通线
100
AcDbLine
 10
293.7131810822494
 20
396.3033988749896
 30
0.0
 11
293.751936186761
 21
396.3033988749896
 31
0.0
  0
LINE
  5
1E2
330
1F
100
AcDbEntity
  8
Make2D$可见线$普通线
100
AcDbLine
 10
293.6692420725817
 20
396.3033988749896
 30
0.0
 11
293.7077711038348
 21
396.3033988749896
 31
0.0
  0
LINE
  5
1E3
330
1F
100
AcDbEntity
  8
Make2D$可见线$普通线
100
AcDbLine
 10
293.5902719385709
 20
396.3033988749896
 30
0.0
 11
293.632347096736
 21
396.3033988749896
 31
0.0
  0
LINE
  5
1E4
330
1F
100
AcDbEntity
  8
Make2D$可见线$普通线
100
AcDbLine
 10
293.5408986381844
 20
396.3033988749896
 30
0.0
 11
293.5848883117617
 21
396.3033988749896
 31
0.0
  0
LINE
  5
1E5
330
1F
100
AcDbEntity
  8
Make2D$可见线$普通线
100
AcDbLine
 10
293.4926924477182
 20
396.3033988749896
 30
0.0
 11
293.5028144669529
 21
396.3033988749896
 31
0.0
  0
LINE
  5
1E6
330
1F
100
AcDbEntity
  8
Make2D$可见线$普通线
100
AcDbLine
 10
293.4109598266518
 20
396.3033988749896
 30
0.0
 11
293.4492752942014
 21
396.3033988749896
 31
0.0
  0
LINE
  5
1E7
330
1F
100
AcDbEntity
  8
Make2D$可见线$普通线
100
AcDbLine
 10
293.3527702295166
 20
396.3033988749896
 30
0.0
 11
293.363388168677
 21
396.3033988749896
 31
0.0
  0
LINE
  5
1E8
330
1F
100
AcDbEntity
  8
Make2D$可见线$普通线
100
AcDbLine
 10
293.2928498930727
 20
396.3033988749896
 30
0.0
 11
293.3147227418224
 21
396.3033988749896
 31
0.0
  0
LINE
  5
1E9
330
1F
100
AcDbEntity
  8
Make2D$可见线$普通线
100
AcDbLine
 10
293.2141180283493
 20
396.3033988749896
 30
0.0
 11
293.251357357713
 21
396.3033988749896
 31
0.0
  0
LINE
  5
1EA
330
1F
100
AcDbEntity
  8
Make2D$可见线$普通线
100
AcDbLine
 10
293.153179116716
 20
396.3033988749896
 30
0.0
 11
293.1621823936238
 21
396.3033988749896
 31
0.0
  0
LINE
  5
1EB
330
1F
100
AcDbEntity
  8
Make2D$可见线$普通线
100
AcDbLine
 10
293.0814073414035
 20
396.3033988749896
 30
0.0
 11
293.0899837702366
 21
396.3033988749896
 31
0.0
  0
LINE
  5
1EC
330
1F
100
AcDbEntity
  8
Make2D$可见线$普通线
100
AcDbLine
 10
292.4547461401182
 20
396.3033988749896
 30
0.0
 11
292.4710786456606
 21
396.3033988749896
 31
0.0
  0
LINE
  5
1ED
330
1F
100
AcDbEntity
  8
Make2D$可见线$普通线
100
AcDbLine
 10
292.3772512429547
 20
396.3033988749896
 30
0.0
 11
292.4022863626882
 21
396.3033988749895
 31
0.0
  0
LINE
  5
1EE
330
1F
100
AcDbEntity
  8
Make2D$可见线$普通线
100
AcDbLine
 10
292.2783033761127
 20
396.3033988749896
 30
0.0
 11
292.3322336747308
 21
396.3033988749896
 31
0.0
  0
LINE
  5
1EF
330
1F
100
AcDbEntity
  8
Make2D$可见线$普通线
100
AcDbLine
 10
292.1904364777603
 20
396.3033988749896
 30
0.0
 11
292.2538176219105
 21
396.3033988749896
 31
0.0
  0
LINE
  5
1F0
330
1F
100
AcDbEntity
  8
Make2D$可见线$普通线
100
AcDbLine
 10
291.8266392359116
 20
396.3033988749896
 30
0.0
 11
292.1847216407039
 21
396.3033988749896
 31
0.0
  0
LINE
  5
1F1
330
1F
100
AcDbEntity
  8
Make2D$可见线$普通线
100
AcDbLine
 10
291.7326274964743
 20
396.3033988749896
 30
0.0
 11
291.8065177618482
 21
396.3033988749896
 31
0.0
  0
LINE
  5
1F2
330
1F
100
AcDbEntity
  8
Make2D$可见线$普通线
100
AcDbLine
 10
291.6449435927254
 20
396.3033988749896
 30
0.0
 11
291.7162527255045
 21
396.3033988749896
 31
0.0
  0
LINE
  5
1F3
330
1F
100
AcDbEntity
  8
Make2D$可见线$普通线
100
AcDbLine
 10
291.5483657269293
 20
396.3033988749896
 30
0.0
 11
291.632916794526
 21
396.3033988749896
 31
0.0
  0
LINE
  5
1F4
330
1F
100
AcDbEntity
  8
Make2D$可见线$普通线
100
AcDbLine
 10
291.2443940562698
 20
396.3033988749896
 30
0.0
 11
291.5409570791593
 21
396.3033988749896
 31
0.0
  0
LINE
  5
1F5
330
1F
100
AcDbEntity
  8
Make2D$可见线$普通线
100
AcDbLine
 10
290.9370580757
 20
396.3033988749896
 30
0.0
 11
291.2189254301339
 21
396.3033988749896
 31
0.0
  0
LINE
  5
1F6
330
1F
100
AcDbEntity
  8
Make2D$可见线$普通线
100
AcDbLine
 10
290.8554637131244
 20
396.3033988749896
 30
0.0
 11
290.9228121359401
 21
396.3033988749896
 31
0.0
  0
LINE
  5
1F7
330
1F
100
AcDbEntity
  8
Make2D$可见线$普通线
100
AcDbLine
 10
290.6368808003036
 20
396.3033988749896
 30
0.0
 11
290.6662172061806
 21
396.3033988749896
 31
0.0
  0
LINE
  5
1F8
330
1F
100
AcDbEntity
  8
Make2D$可见线$普通线
100
AcDbLine
 10
290.5392207005204
 20
396.3033988749896
 30
0.0
 11
290.5697221936764
 21
396.3033988749896
 31
0.0
  0
LINE
  5
1F9
330
1F
100
AcDbEntity
  8
Make2D$可见线$普通线
100
AcDbLine
 10
290.4390657422082
 20
396.3033988749895
 30
0.0
 11
290.4719823468878
 21
396.3033988749896
 31
0.0
  0
LINE
  5
1FA
330
1F
100
AcDbEntity
  8
Make2D$可见线$普通线
100
AcDbLine
 10
290.3288318588752
 20
396.3033988749895
 30
0.0
 11
290.3730001920729
 21
396.3033988749896
 31
0.0
  0
LINE
  5
1FB
330
1F
100
AcDbEntity
  8
Make2D$可见线$普通线
100
AcDbLine
 10
290.2173519634895
 20
396.3033988749896
 30
0.0
 11
290.2392460041091
 21
396.3033988749896
 31
0.0
  0
LINE
  5
1FC
330
1F
100
AcDbEntity
  8
Make2D$可见线$普通线
100
AcDbLine
 10
290.1046301504587
 20
396.3033988749896
 30
0.0
 11
290.1369360674366
 21
396.3033988749896
 31
0.0
  0
LINE
  5
1FD
330
1F
100
AcDbEntity
  8
Make2D$可见线$普通线
100
AcDbLine
 10
289.8595552431448
 20
396.3033988749896
 30
0.0
 11
289.8754779808135
 21
396.3033988749896
 31
0.0
  0
LINE
  5
1FE
330
1F
100
AcDbEntity
  8
Make2D$可见线$普通线
100
AcDbLine
 10
289.7531816811678
 20
396.3033988749896
 30
0.0
 11
289.7590566438693
 21
396.3033988749896
 31
0.0
  0
LINE
  5
1FF
330
1F
100
AcDbEntity
  8
Make2D$可见线$普通线
100
AcDbLine
 10
289.6414114279212
 20
396.3033988749895
 30
0.0
 11
289.6455881450422
 21
396.3033988749896
 31
0.0
  0
LINE
  5
200
330
1F
100
AcDbEntity
  8
Make2D$可见线$普通线
100
AcDbLine
 10
289.5225472561319
 20
396.3033988749896
 30
0.0
 11
289.5367784790913
 21
396.3033988749896
 31
0.0
  0
LINE
  5
201
330
1F
100
AcDbEntity
  8
Make2D$可见线$普通线
100
AcDbLine
 10
289.3887083813136
 20
396.3033988749896
 30
0.0
 11
289.4267564494601
 21
396.3033988749896
 31
0.0
  0
LINE
  5
202
330
1F
100
AcDbEntity
  8
Make2D$可见线$普通线
100
AcDbLine
 10
289.2772857406371
 20
396.3033988749896
 30
0.0
 11
289.3155266305486
 21
396.3033988749896
 31
0.0
  0
LINE
  5
203
330
1F
100
AcDbEntity
  8
Make2D$可见线$普通线
100
AcDbLine
 10
289.158692701805
 20
396.3033988749896
 30
0.0
 11
289.2030930377856
 21
396.3033988749896
 31
0.0
  0
LINE
  5
204
330
1F
100
AcDbEntity
  8
Make2D$可见线$普通线
100
AcDbLine
 10
289.0350052202291
 20
396.3033988749896
 30
0.0
 11
289.0510801881985
 21
396.3033988749896
 31
0.0
  0
LINE
  5
205
330
1F
100
AcDbEntity
  8
Make2D$可见线$普通线
100
AcDbLine
 10
288.9101258548441
 20
396.3033988749896
 30
0.0
 11
288.9363048988578
 21
396.3033988749896
 31
0.0
  0
LINE
  5
206
330
1F
100
AcDbEntity
  8
Make2D$可见线$普通线
100
AcDbLine
 10
288.7840605068072
 20
396.3033988749896
 30
0.0
 11
288.820421510713
 21
396.3033988749896
 31
0.0
  0
LINE
  5
207
330
1F
100
AcDbEntity
  8
Make2D$可见线$普通线
100
AcDbLine
 10
288.6230322394533
 20
396.3033988749896
 30
0.0
 11
288.7034350440733
 21
396.3033988749896
 31
0.0
  0
LINE
  5
208
330
1F
100
AcDbEntity
  8
Make2D$可见线$普通线
100
AcDbLine
 10
288.5034762701557
 20
396.3033988749895
 30
0.0
 11
288.5853509562419
 21
396.3033988749896
 31
0.0
  0
LINE
  5
209
330
1F
100
AcDbEntity
  8
Make2D$可见线$普通线
100
AcDbLine
 10
288.3827513624349
 20
396.3033988749896
 30
0.0
 11
288.4661746108967
 21
396.3033988749896
 31
0.0
  0
LINE
  5
20A
330
1F
100
AcDbEntity
  8
Make2D$可见线$普通线
100
AcDbLine
 10
288.234897128104
 20
396.3033988749896
 30
0.0
 11
288.3459113717045
 21
396.3033988749896
 31
0.0
  0
LINE
  5
20B
330
1F
100
AcDbEntity
  8
Make2D$可见线$普通线
100
AcDbLine
 10
288.1040415510536
 20
396.3033988749896
 30
0.0
 11
288.2245666023248
 21
396.3033988749896
 31
0.0
  0
LINE
  5
20C
330
1F
100
AcDbEntity
  8
Make2D$可见线$普通线
100
AcDbLine
 10
287.9786539276251
 20
396.3033988749896
 30
0.0
 11
288.1021456664134
 21
396.3033988749896
 31
0.0
  0
LINE
  5
20D
330
1F
100
AcDbEntity
  8
Make2D$可见线$普通线
100
AcDbLine
 10
287.8478268002382
 20
396.3033988749896
 30
0.0
 11
287.9721163708252
 21
396.3033988749896
 31
0.0
  0
LINE
  5
20E
330
1F
100
AcDbEntity
  8
Make2D$可见线$普通线
100
AcDbLine
 10
287.1584113627064
 20
396.3033988749896
 30
0.0
 11
287.8391270827757
 21
396.3033988749896
 31
0.0
  0
LINE
  5
20F
330
1F
100
AcDbEntity
  8
Make2D$可见线$普通线
100
AcDbLine
 10
287.0191528302278
 20
396.3033988749896
 30
0.0
 11
287.1125204853001
 21
396.3033988749896
 31
0.0
  0
LINE
  5
210
330
1F
100
AcDbEntity
  8
Make2D$可见线$普通线
100
AcDbLine
 10
286.878868657428
 20
396.3033988749896
 30
0.0
 11
286.9793412259512
 21
396.3033988749896
 31
0.0
  0
LINE
  5
211
330
1F
100
AcDbEntity
  8
Make2D$可见线$普通线
100
AcDbLine
 10
286.7375643396645
 20
396.3033988749896
 30
0.0
 11
286.8450704508991
 21
396.3033988749896
 31
0.0
  0
LINE
  5
212
330
1F
100
AcDbEntity
  8
Make2D$可见线$普通线
100
AcDbLine
 10
286.5952453461744
 20
396.3033988749896
 30
0.0
 11
286.6860224188868
 21
396.3033988749896
 31
0.0
  0
LINE
  5
213
330
1F
100
AcDbEntity
  8
Make2D$可见线$普通线
100
AcDbLine
 10
286.4659748682171
 20
396.3033988749896
 30
0.0
 11
286.5511058582664
 21
396.3033988749896
 31
0.0
  0
LINE
  5
214
330
1F
100
AcDbEntity
  8
Make2D$可见线$普通线
100
AcDbLine
 10
285.8615336219855
 20
396.3033988749896
 30
0.0
 11
286.0014288849363
 21
396.3033988749896
 31
0.0
  0
LINE
  5
215
330
1F
100
AcDbEntity
  8
Make2D$可见线$普通线
100
AcDbLine
 10
284.4095940228021
 20
396.3033988749896
 30
0.0
 11
284.4861964187687
 21
396.3033988749896
 31
0.0
  0
LINE
  5
216
330
1F
100
AcDbEntity
  8
Make2D$可见线$普通线
100
AcDbLine
 10
284.2592256140666
 20
396.3033988749896
 30
0.0
 11
284.3271212915351
 21
396.3033988749896
 31
0.0
  0
LINE
  5
217
330
1F
100
AcDbEntity
  8
Make2D$可见线$普通线
100
AcDbLine
 10
284.0972537420826
 20
396.3033988749896
 30
0.0
 11
284.1847400570789
 21
396.3033988749896
 31
0.0
  0
LINE
  5
218
330
1F
100
AcDbEntity
  8
Make2D$可见线$普通线
100
AcDbLine
 10
283.9428960215328
 20
396.3033988749897
 30
0.0
 11
284.0260578828745
 21
396.3033988749896
 31
0.0
  0
LINE
  5
219
330
1F
100
AcDbEntity
  8
Make2D$可见线$普通线
100
AcDbLine
 10
282.5580236028698
 20
396.3033988749896
 30
0.0
 11
283.8664711842774
 21
396.3033988749896
 31
0.0
  0
LINE
  5
21A
330
1F
100
AcDbEntity
  8
Make2D$可见线$普通线
100
AcDbLine
 10
282.3905995170652
 20
396.3033988749896
 30
0.0
 11
282.5461806030287
 21
396.3033988749896
 31
0.0
  0
LINE
  5
21B
330
1F
100
AcDbEntity
  8
Make2D$可见线$普通线
100
AcDbLine
 10
282.2234973212729
 20
396.3033988749896
 30
0.0
 11
282.3852573636977
 21
396.3033988749896
 31
0.0
  0
LINE
  5
21C
330
1F
100
AcDbEntity
  8
Make2D$可见线$普通线
100
AcDbLine
 10
282.0609070539283
 20
396.3033988749896
 30
0.0
 11
282.2223383141645
 21
396.3033988749896
 31
0.0
  0
LINE
  5
21D
330
1F
100
AcDbEntity
  8
Make2D$可见线$普通线
100
AcDbLine
 10
281.8974931400506
 20
396.3033988749896
 30
0.0
 11
282.0228075970572
 21
396.3033988749896
 31
0.0
  0
LINE
  5
21E
330
1F
100
AcDbEntity
  8
Make2D$可见线$普通线
100
AcDbLine
 10
281.7332621582211
 20
396.3033988749896
 30
0.0
 11
281.8574741949242
 21
396.3033988749896
 31
0.0
  0
LINE
  5
21F
330
1F
100
AcDbEntity
  8
Make2D$可见线$普通线
100
AcDbLine
 10
281.568220687195
 20
396.3033988749896
 30
0.0
 11
281.6913727903157
 21
396.3033988749896
 31
0.0
  0
LINE
  5
220
330
1F
100
AcDbEntity
  8
Make2D$可见线$普通线
100
AcDbLine
 10
281.4023753058838
 20
396.3033988749896
 30
0.0
 11
281.5245147077873
 21
396.3033988749896
 31
0.0
  0
LINE
  5
221
330
1F
100
AcDbEntity
  8
Make2D$可见线$普通线
100
AcDbLine
 10
281.2357325933381
 20
396.3033988749896
 30
0.0
 11
281.356911347709
 21
396.3033988749896
 31
0.0
  0
LINE
  5
222
330
1F
100
AcDbEntity
  8
Make2D$可见线$普通线
100
AcDbLine
 10
281.0682991287314
 20
396.3033988749896
 30
0.0
 11
281.1424870774903
 21
396.3033988749896
 31
0.0
  0
LINE
  5
223
330
1F
100
AcDbEntity
  8
Make2D$可见线$普通线
100
AcDbLine
 10
280.9000814913443
 20
396.3033988749896
 30
0.0
 11
280.9671306488297
 21
396.3033988749896
 31
0.0
  0
LINE
  5
224
330
1F
100
AcDbEntity
  8
Make2D$可见线$普通线
100
AcDbLine
 10
280.7310862605499
 20
396.3033988749896
 30
0.0
 11
280.7910822197798
 21
396.3033988749896
 31
0.0
  0
LINE
  5
225
330
1F
100
AcDbEntity
  8
Make2D$可见线$普通线
100
AcDbLine
 10
280.5613200158
 20
396.3033988749896
 30
0.0
 11
280.6143539404777
 21
396.3033988749896
 31
0.0
  0
LINE
  5
226
330
1F
100
AcDbEntity
  8
Make2D$可见线$普通线
100
AcDbLine
 10
280.390789336612
 20
396.3033988749896
 30
0.0
 11
280.4369580174599
 21
396.3033988749896
 31
0.0
  0
LINE
  5
227
330
1F
100
AcDbEntity
  8
Make2D$可见线$普通线
100
AcDbLine
 10
280.219500802557
 20
396.3033988749896
 30
0.0
 11
280.258906710965
 21
396.3033988749896
 31
0.0
  0
LINE
  5
228
330
1F
100
AcDbEntity
  8
Make2D$可见线$普通线
100
AcDbLine
 10
280.0474609932483
 20
396.3033988749896
 30
0.0
 11
280.0802123322301
 21
396.3033988749896
 31
0.0
  0
LINE
  5
229
330
1F
100
AcDbEntity
  8
Make2D$可见线$普通线
100
AcDbLine
 10
279.8746764883305
 20
396.3033988749896
 30
0.0
 11
279.9008872407787
 21
396.3033988749896
 31
0.0
  0
LINE
  5
22A
330
1F
100
AcDbEntity
  8
Make2D$可见线$普通线
100
AcDbLine
 10
279.7011538674705
 20
396.3033988749895
 30
0.0
 11
279.7209438417076
 21
396.3033988749896
 31
0.0
  0
LINE
  5
22B
330
1F
100
AcDbEntity
  8
Make2D$可见线$普通线
100
AcDbLine
 10
279.5268998701504
 20
396.3033988749896
 30
0.0
 11
279.5403945829667
 21
396.3033988749896
 31
0.0
  0
LINE
  5
22C
330
1F
100
AcDbEntity
  8
Make2D$可见线$普通线
100
AcDbLine
 10
279.2917813721654
 20
396.3033988749896
 30
0.0
 11
279.3592519526394
 21
396.3033988749896
 31
0.0
  0
LINE
  5
22D
330
1F
100
AcDbEntity
  8
Make2D$可见线$普通线
100
AcDbLine
 10
279.1155566429113
 20
396.3033988749896
 30
0.0
 11
279.1775284762219
 21
396.3033988749896
 31
0.0
  0
LINE
  5
22E
330
1F
100
AcDbEntity
  8
Make2D$可见线$普通线
100
AcDbLine
 10
278.9387527534143
 20
396.3033988749896
 30
0.0
 11
278.9998240624618
 21
396.3033988749896
 31
0.0
  0
LINE
  5
22F
330
1F
100
AcDbEntity
  8
Make2D$可见线$普通线
100
AcDbLine
 10
278.7613819292535
 20
396.3033988749897
 30
0.0
 11
278.8227193274224
 21
396.3033988749896
 31
0.0
  0
LINE
  5
230
330
1F
100
AcDbEntity
  8
Make2D$可见线$普通线
100
AcDbLine
 10
278.5834564298773
 20
396.3033988749896
 30
0.0
 11
278.6449207487842
 21
396.3033988749896
 31
0.0
  0
LINE
  5
231
330
1F
100
AcDbEntity
  8
Make2D$可见线$普通线
100
AcDbLine
 10
278.4049885459467
 20
396.3033988749896
 30
0.0
 11
278.466435864386
 21
396.3033988749896
 31
0.0
  0
LINE
  5
232
330
1F
100
AcDbEntity
  8
Make2D$可见线$普通线
100
AcDbLine
 10
278.1370080336465
 20
396.3033988749897
 30
0.0
 11
278.2872722121256
 21
396.3033988749896
 31
0.0
  0
LINE
  5
233
330
1F
100
AcDbEntity
  8
Make2D$可见线$普通线
100
AcDbLine
 10
277.9507432531161
 20
396.3033988749896
 30
0.0
 11
278.1074373299523
 21
396.3033988749896
 31
0.0
  0
LINE
  5
234
330
1F
100
AcDbEntity
  8
Make2D$可见线$普通线
100
AcDbLine
 10
277.7638216632422
 20
396.3033988749896
 30
0.0
 11
277.9269387558595
 21
396.3033988749896
 31
0.0
  0
LINE
  5
235
330
1F
100
AcDbEntity
  8
Make2D$可见线$普通线
100
AcDbLine
 10
277.5762509871565
 20
396.3033988749896
 30
0.0
 11
277.7457840278784
 21
396.3033988749896
 31
0.0
  0
LINE
  5
236
330
1F
100
AcDbEntity
  8
Make2D$可见线$普通线
100
AcDbLine
 10
277.3880389479912
 20
396.3033988749895
 30
0.0
 11
277.5639806840705
 21
396.3033988749896
 31
0.0
  0
LINE
  5
237
330
1F
100
AcDbEntity
  8
Make2D$可见线$普通线
100
AcDbLine
 10
277.0147543386705
 20
396.3033988749896
 30
0.0
 11
277.3815362625242
 21
396.3033988749896
 31
0.0
  0
LINE
  5
238
330
1F
100
AcDbEntity
  8
Make2D$可见线$普通线
100
AcDbLine
 10
276.8304319126289
 20
396.3033988749896
 30
0.0
 11
277.0097216729464
 21
396.3033988749896
 31
0.0
  0
LINE
  5
239
330
1F
100
AcDbEntity
  8
Make2D$可见线$普通线
100
AcDbLine
 10
276.6454985613732
 20
396.3033988749896
 30
0.0
 11
276.8196318833293
 21
396.3033988749896
 31
0.0
  0
LINE
  5
23A
330
1F
100
AcDbEntity
  8
Make2D$可见线$普通线
100
AcDbLine
 10
276.4599618230598
 20
396.3033988749896
 30
0.0
 11
276.6289316231566
 21
396.3033988749896
 31
0.0
  0
LINE
  5
23B
330
1F
100
AcDbEntity
  8
Make2D$可见线$普通线
100
AcDbLine
 10
276.2738292358504
 20
396.3033988749896
 30
0.0
 11
276.4376286155584
 21
396.3033988749896
 31
0.0
  0
LINE
  5
23C
330
1F
100
AcDbEntity
  8
Make2D$可见线$普通线
100
AcDbLine
 10
276.0871083379092
 20
396.3033988749896
 30
0.0
 11
276.2457305836647
 21
396.3033988749896
 31
0.0
  0
LINE
  5
23D
330
1F
100
AcDbEntity
  8
Make2D$可见线$普通线
100
AcDbLine
 10
275.8998066674014
 20
396.3033988749896
 30
0.0
 11
276.0411818173618
 21
396.3033988749896
 31
0.0
  0
LINE
  5
23E
330
1F
100
AcDbEntity
  8
Make2D$可见线$普通线
100
AcDbLine
 10
275.7119317624929
 20
396.3033988749896
 30
0.0
 11
275.8564222765604
 21
396.3033988749896
 31
0.0
  0
LINE
  5
23F
330
1F
100
AcDbEntity
  8
Make2D$可见线$普通线
100
AcDbLine
 10
275.5234911613475
 20
396.3033988749896
 30
0.0
 11
275.6665435734935
 21
396.3033988749896
 31
0.0
  0
LINE
  5
240
330
1F
100
AcDbEntity
  8
Make2D$可见线$普通线
100
AcDbLine
 10
275.3344924021283
 20
396.3033988749896
 30
0.0
 11
275.4723426756958
 21
396.3033988749896
 31
0.0
  0
LINE
  5
241
330
1F
100
AcDbEntity
  8
Make2D$可见线$普通线
100
AcDbLine
 10
275.1449430229952
 20
396.3033988749896
 30
0.0
 11
275.2495964333268
 21
396.3033988749896
 31
0.0
  0
LINE
  5
242
330
1F
100
AcDbEntity
  8
Make2D$可见线$普通线
100
AcDbLine
 10
274.9548505621062
 20
396.3033988749895
 30
0.0
 11
275.0583048670792
 21
396.3033988749896
 31
0.0
  0
LINE
  5
243
330
1F
100
AcDbEntity
  8
Make2D$可见线$普通线
100
AcDbLine
 10
273.2658724173114
 20
396.3033988749896
 30
0.0
 11
273.325201621019
 21
396.3033988749896
 31
0.0
  0
LINE
  5
244
330
1F
100
AcDbEntity
  8
Make2D$可见线$普通线
100
AcDbLine
 10
273.0859201065615
 20
396.3033988749896
 30
0.0
 11
273.1315881928097
 21
396.3033988749896
 31
0.0
  0
LINE
  5
245
330
1F
100
AcDbEntity
  8
Make2D$可见线$普通线
100
AcDbLine
 10
272.9055757920221
 20
396.3033988749896
 30
0.0
 11
272.937810870721
 21
396.3033988749896
 31
0.0
  0
LINE
  5
246
330
1F
100
AcDbEntity
  8
Make2D$可见线$普通线
100
AcDbLine
 10
272.6711185571669
 20
396.3033988749896
 30
0.0
 11
272.7438818994491
 21
396.3033988749896
 31
0.0
  0
LINE
  5
247
330
1F
100
AcDbEntity
  8
Make2D$可见线$普通线
100
AcDbLine
 10
272.4818345903692
 20
396.3033988749896
 30
0.0
 11
272.5498134736565
 21
396.3033988749896
 31
0.0
  0
LINE
  5
248
330
1F
100
AcDbEntity
  8
Make2D$可见线$普通线
100
AcDbLine
 10
272.2924145093223
 20
396.3033988749896
 30
0.0
 11
272.3622549372051
 21
396.3033988749896
 31
0.0
  0
LINE
  5
249
330
1F
100
AcDbEntity
  8
Make2D$可见线$普通线
100
AcDbLine
 10
272.1028701657624
 20
396.3033988749896
 30
0.0
 11
272.1804067196372
 21
396.3033988749896
 31
0.0
  0
LINE
  5
24A
330
1F
100
AcDbEntity
  8
Make2D$可见线$普通线
100
AcDbLine
 10
271.9132133585806
 20
396.3033988749896
 30
0.0
 11
271.9981985530494
 21
396.3033988749896
 31
0.0
  0
LINE
  5
24B
330
1F
100
AcDbEntity
  8
Make2D$可见线$普通线
100
AcDbLine
 10
271.7234558318681
 20
396.3033988749896
 30
0.0
 11
271.8156368482545
 21
396.3033988749896
 31
0.0
  0
LINE
  5
24C
330
1F
100
AcDbEntity
  8
Make2D$可见线$普通线
100
AcDbLine
 10
271.5336092729937
 20
396.3033988749896
 30
0.0
 11
271.6327280161089
 21
396.3033988749896
 31
0.0
  0
LINE
  5
24D
330
1F
100
AcDbEntity
  8
Make2D$可见线$普通线
100
AcDbLine
 10
271.343685310715
 20
396.3033988749897
 30
0.0
 11
271.4494784675001
 21
396.3033988749896
 31
0.0
  0
LINE
  5
24E
330
1F
100
AcDbEntity
  8
Make2D$可见线$普通线
100
AcDbLine
 10
271.1536955133258
 20
396.3033988749896
 30
0.0
 11
271.2658946133355
 21
396.3033988749896
 31
0.0
  0
LINE
  5
24F
330
1F
100
AcDbEntity
  8
Make2D$可见线$普通线
100
AcDbLine
 10
270.9636513868338
 20
396.3033988749896
 30
0.0
 11
271.0819828645338
 21
396.3033988749896
 31
0.0
  0
LINE
  5
250
330
1F
100
AcDbEntity
  8
Make2D$可见线$普通线
100
AcDbLine
 10
270.773564373178
 20
396.3033988749896
 30
0.0
 11
270.8977496320172
 21
396.3033988749896
 31
0.0
  0
LINE
  5
251
330
1F
100
AcDbEntity
  8
Make2D$可见线$普通线
100
AcDbLine
 10
270.5834457115775
 20
396.3033988749896
 30
0.0
 11
270.7132013267055
 21
396.3033988749896
 31
0.0
  0
LINE
  5
252
330
1F
100
AcDbEntity
  8
Make2D$可见线$普通线
100
AcDbLine
 10
270.3933072529392
 20
396.3033988749896
 30
0.0
 11
270.5283443595119
 21
396.3033988749896
 31
0.0
  0
LINE
  5
253
330
1F
100
AcDbEntity
  8
Make2D$可见线$普通线
100
AcDbLine
 10
270.1724415223737
 20
396.3033988749896
 30
0.0
 11
270.3431851413172
 21
396.3033988749896
 31
0.0
  0
LINE
  5
254
330
1F
100
AcDbEntity
  8
Make2D$可见线$普通线
100
AcDbLine
 10
269.981848924187
 20
396.3033988749896
 30
0.0
 11
270.1577300829457
 21
396.3033988749896
 31
0.0
  0
LINE
  5
255
330
1F
100
AcDbEntity
  8
Make2D$可见线$普通线
100
AcDbLine
 10
269.7909729305948
 20
396.3033988749896
 30
0.0
 11
269.9719855953003
 21
396.3033988749896
 31
0.0
  0
LINE
  5
256
330
1F
100
AcDbEntity
  8
Make2D$可见线$普通线
100
AcDbLine
 10
269.4130796657381
 20
396.3033988749896
 30
0.0
 11
269.7859580892862
 21
396.3033988749896
 31
0.0
  0
LINE
  5
257
330
1F
100
AcDbEntity
  8
Make2D$可见线$普通线
100
AcDbLine
 10
269.2262415699781
 20
396.3033988749896
 30
0.0
 11
269.2526748631681
 21
396.3033988749896
 31
0.0
  0
LINE
  5
258
330
1F
100
AcDbEntity
  8
Make2D$可见线$普通线
100
AcDbLine
 10
269.0391460993974
 20
396.3033988749896
 30
0.0
 11
269.0627053433474
 21
396.3033988749896
 31
0.0
  0
LINE
  5
259
330
1F
100
AcDbEntity
  8
Make2D$可见线$普通线
100
AcDbLine
 10
268.8518037440541
 20
396.3033988749896
 30
0.0
 11
268.872803464982
 21
396.3033988749896
 31
0.0
  0
LINE
  5
25A
330
1F
100
AcDbEntity
  8
Make2D$可见线$普通线
100
AcDbLine
 10
268.6574128873531
 20
396.3033988749896
 30
0.0
 11
268.6829798577891
 21
396.3033988749896
 31
0.0
  0
LINE
  5
25B
330
1F
100
AcDbEntity
  8
Make2D$可见线$普通线
100
AcDbLine
 10
267.3001141424236
 20
396.3033988749896
 30
0.0
 11
267.3447638224517
 21
396.3033988749896
 31
0.0
  0
LINE
  5
25C
330
1F
100
AcDbEntity
  8
Make2D$可见线$普通线
100
AcDbLine
 10
267.1068296948991
 20
396.3033988749896
 30
0.0
 11
267.1554486218262
 21
396.3033988749896
 31
0.0
  0
LINE
  5
25D
330
1F
100
AcDbEntity
  8
Make2D$可见线$普通线
100
AcDbLine
 10
266.9137294792988
 20
396.3033988749896
 30
0.0
 11
266.9798015857573
 21
396.3033988749896
 31
0.0
  0
LINE
  5
25E
330
1F
100
AcDbEntity
  8
Make2D$可见线$普通线
100
AcDbLine
 10
266.7037884104536
 20
396.3033988749896
 30
0.0
 11
266.7913265239968
 21
396.3033988749896
 31
0.0
  0
LINE
  5
25F
330
1F
100
AcDbEntity
  8
Make2D$可见线$普通线
100
AcDbLine
 10
266.5091062787405
 20
396.3033988749896
 30
0.0
 11
266.6030409363236
 21
396.3033988749896
 31
0.0
  0
LINE
  5
260
330
1F
100
AcDbEntity
  8
Make2D$可见线$普通线
100
AcDbLine
 10
265.3378227633445
 20
396.3033988749896
 30
0.0
 11
266.414954382655
 21
396.3033988749896
 31
0.0
  0
LINE
  5
261
330
1F
100
AcDbEntity
  8
Make2D$可见线$普通线
100
AcDbLine
 10
265.1421405623163
 20
396.3033988749896
 30
0.0
 11
265.2911379487597
 21
396.3033988749896
 31
0.0
  0
LINE
  5
262
330
1F
100
AcDbEntity
  8
Make2D$可见线$普通线
100
AcDbLine
 10
264.9463427109685
 20
396.3033988749896
 30
0.0
 11
265.1047041565915
 21
396.3033988749896
 31
0.0
  0
LINE
  5
263
330
1F
100
AcDbEntity
  8
Make2D$可见线$普通线
100
AcDbLine
 10
264.7504360134851
 20
396.3033988749896
 30
0.0
 11
264.9185423601087
 21
396.3033988749896
 31
0.0
  0
LINE
  5
264
330
1F
100
AcDbEntity
  8
Make2D$可见线$普通线
100
AcDbLine
 10
264.5544272740598
 20
396.3033988749896
 30
0.0
 11
264.7326612289187
 21
396.3033988749896
 31
0.0
  0
LINE
  5
265
330
1F
100
AcDbEntity
  8
Make2D$可见线$普通线
100
AcDbLine
 10
264.3617751291983
 20
396.3033988749896
 30
0.0
 11
264.5470693304048
 21
396.3033988749896
 31
0.0
  0
LINE
  5
266
330
1F
100
AcDbEntity
  8
Make2D$可见线$普通线
100
AcDbLine
 10
264.1767869866836
 20
396.3033988749897
 30
0.0
 11
264.2971276723756
 21
396.3033988749897
 31
0.0
  0
LINE
  5
267
330
1F
100
AcDbEntity
  8
Make2D$可见线$普通线
100
AcDbLine
 10
263.9921131605387
 20
396.3033988749896
 30
0.0
 11
264.1056344828244
 21
396.3033988749896
 31
0.0
  0
LINE
  5
268
330
1F
100
AcDbEntity
  8
Make2D$可见线$普通线
100
AcDbLine
 10
263.8077618043098
 20
396.3033988749896
 30
0.0
 11
263.9140616196407
 21
396.3033988749896
 31
0.0
  0
LINE
  5
269
330
1F
100
AcDbEntity
  8
Make2D$可见线$普通线
100
AcDbLine
 10
263.6237409670207
 20
396.3033988749896
 30
0.0
 11
263.7224157241355
 21
396.3033988749896
 31
0.0
  0
LINE
  5
26A
330
1F
100
AcDbEntity
  8
Make2D$可见线$普通线
100
AcDbLine
 10
263.440058592814
 20
396.3033988749896
 30
0.0
 11
263.5307034376424
 21
396.3033988749896
 31
0.0
  0
LINE
  5
26B
330
1F
100
AcDbEntity
  8
Make2D$可见线$普通线
100
AcDbLine
 10
263.2567225206271
 20
396.3033988749896
 30
0.0
 11
263.3389314015245
 21
396.3033988749896
 31
0.0
  0
LINE
  5
26C
330
1F
100
AcDbEntity
  8
Make2D$可见线$普通线
100
AcDbLine
 10
263.0737404839006
 20
396.3033988749896
 30
0.0
 11
263.1471062571808
 21
396.3033988749896
 31
0.0
  0
LINE
  5
26D
330
1F
100
AcDbEntity
  8
Make2D$可见线$普通线
100
AcDbLine
 10
262.8911201103183
 20
396.3033988749896
 30
0.0
 11
262.9552346460544
 21
396.3033988749896
 31
0.0
  0
LINE
  5
26E
330
1F
100
AcDbEntity
  8
Make2D$可见线$普通线
100
AcDbLine
 10
262.70886892158
 20
396.3033988749896
 30
0.0
 11
262.7633232096414
 21
396.3033988749896
 31
0.0
  0
LINE
  5
26F
330
1F
100
AcDbEntity
  8
Make2D$可见线$普通线
100
AcDbLine
 10
262.5269943332071
 20
396.3033988749896
 30
0.0
 11
262.571378589503
 21
396.3033988749896
 31
0.0
  0
LINE
  5
270
330
1F
100
AcDbEntity
  8
Make2D$可见线$普通线
100
AcDbLine
 10
262.3455036543767
 20
396.3033988749896
 30
0.0
 11
262.3588066519264
 21
396.3033988749896
 31
0.0
  0
LINE
  5
271
330
1F
100
AcDbEntity
  8
Make2D$可见线$普通线
100
AcDbLine
 10
262.1644040877886
 20
396.3033988749897
 30
0.0
 11
262.1732629233572
 21
396.3033988749896
 31
0.0
  0
LINE
  5
272
330
1F
100
AcDbEntity
  8
Make2D$可见线$普通线
100
AcDbLine
 10
261.4335502149752
 20
396.3033988749896
 30
0.0
 11
261.4424090505438
 21
396.3033988749897
 31
0.0
  0
LINE
  5
273
330
1F
100
AcDbEntity
  8
Make2D$可见线$普通线
100
AcDbLine
 10
261.248006486406
 20
396.3033988749896
 30
0.0
 11
261.2613094839559
 21
396.3033988749896
 31
0.0
  0
LINE
  5
274
330
1F
100
AcDbEntity
  8
Make2D$可见线$普通线
100
AcDbLine
 10
261.0354239358619
 20
396.3033988749897
 30
0.0
 11
261.0798188051253
 21
396.3033988749896
 31
0.0
  0
LINE
  5
275
330
1F
100
AcDbEntity
  8
Make2D$可见线$普通线
100
AcDbLine
 10
260.8434794817686
 20
396.3033988749896
 30
0.0
 11
260.8979442167524
 21
396.3033988749896
 31
0.0
  0
LINE
  5
276
330
1F
100
AcDbEntity
  8
Make2D$可见线$普通线
100
AcDbLine
 10
260.6515682415331
 20
396.3033988749896
 30
0.0
 11
260.7156930280142
 21
396.3033988749896
 31
0.0
  0
LINE
  5
277
330
1F
100
AcDbEntity
  8
Make2D$可见线$普通线
100
AcDbLine
 10
260.459696854248
 20
396.3033988749896
 30
0.0
 11
260.5330726544317
 21
396.3033988749896
 31
0.0
  0
LINE
  5
278
330
1F
100
AcDbEntity
  8
Make2D$可见线$普通线
100
AcDbLine
 10
260.2678719589404
 20
396.3033988749897
 30
0.0
 11
260.3500906177053
 21
396.3033988749897
 31
0.0
  0
LINE
  5
279
330
1F
100
AcDbEntity
  8
Make2D$可见线$普通线
100
AcDbLine
 10
260.0761001945842
 20
396.3033988749896
 30
0.0
 11
260.1667545455184
 21
396.3033988749896
 31
0.0
  0
LINE
  5
27A
330
1F
100
AcDbEntity
  8
Make2D$可见线$普通线
100
AcDbLine
 10
259.8843882001096
 20
396.3033988749896
 30
0.0
 11
259.9830721713117
 21
396.3033988749896
 31
0.0
  0
LINE
  5
27B
330
1F
100
AcDbEntity
  8
Make2D$可见线$普通线
100
AcDbLine
 10
259.6927426144105
 20
396.3033988749896
 30
0.0
 11
259.7990513340228
 21
396.3033988749896
 31
0.0
  0
LINE
  5
27C
330
1F
100
AcDbEntity
  8
Make2D$可见线$普通线
100
AcDbLine
 10
259.5011700763514
 20
396.3033988749896
 30
0.0
 11
259.6146999777939
 21
396.3033988749896
 31
0.0
  0
LINE
  5
27D
330
1F
100
AcDbEntity
  8
Make2D$可见线$普通线
100
AcDbLine
 10
259.3096772247742
 20
396.3033988749896
 30
0.0
 11
259.4300261516489
 21
396.3033988749896
 31
0.0
  0
LINE
  5
27E
330
1F
100
AcDbEntity
  8
Make2D$可见线$普通线
100
AcDbLine
 10
259.0597438079277
 20
396.3033988749896
 30
0.0
 11
259.2450380091341
 21
396.3033988749896
 31
0.0
  0
LINE
  5
27F
330
1F
100
AcDbEntity
  8
Make2D$可见线$普通线
100
AcDbLine
 10
258.8741519094139
 20
396.3033988749896
 30
0.0
 11
259.0523777777532
 21
396.3033988749896
 31
0.0
  0
LINE
  5
280
330
1F
100
AcDbEntity
  8
Make2D$可见线$普通线
100
AcDbLine
 10
258.6882707782238
 20
396.3033988749896
 30
0.0
 11
258.8563694033376
 21
396.3033988749896
 31
0.0
  0
LINE
  5
281
330
1F
100
AcDbEntity
  8
Make2D$可见线$普通线
100
AcDbLine
 10
258.502108981741
 20
396.3033988749896
 30
0.0
 11
258.6604630764397
 21
396.3033988749896
 31
0.0
  0
LINE
  5
282
330
1F
100
AcDbEntity
  8
Make2D$可见线$普通线
100
AcDbLine
 10
258.3156751895729
 20
396.3033988749896
 30
0.0
 11
258.4646655987236
 21
396.3033988749896
 31
0.0
  0
LINE
  5
283
330
1F
100
AcDbEntity
  8
Make2D$可见线$普通线
100
AcDbLine
 10
257.1918587556775
 20
396.3033988749896
 30
0.0
 11
258.2689837718442
 21
396.3033988749896
 31
0.0
  0
LINE
  5
284
330
1F
100
AcDbEntity
  8
Make2D$可见线$普通线
100
AcDbLine
 10
257.0037722020088
 20
396.3033988749896
 30
0.0
 11
257.0977023705385
 21
396.3033988749896
 31
0.0
  0
LINE
  5
285
330
1F
100
AcDbEntity
  8
Make2D$可见线$普通线
100
AcDbLine
 10
256.8154866143357
 20
396.3033988749896
 30
0.0
 11
256.9030205457639
 21
396.3033988749896
 31
0.0
  0
LINE
  5
286
330
1F
100
AcDbEntity
  8
Make2D$可见线$普通线
100
AcDbLine
 10
256.6270115525751
 20
396.3033988749896
 30
0.0
 11
256.6930836590338
 21
396.3033988749896
 31
0.0
  0
LINE
  5
287
330
1F
100
AcDbEntity
  8
Make2D$可见线$普通线
100
AcDbLine
 10
256.4513612079616
 20
396.3033988749896
 30
0.0
 11
256.4999834434334
 21
396.3033988749896
 31
0.0
  0
LINE
  5
288
330
1F
100
AcDbEntity
  8
Make2D$可见线$普通线
100
AcDbLine
 10
256.2620462151189
 20
396.3033988749896
 30
0.0
 11
256.3066989959088
 21
396.3033988749896
 31
0.0
  0
LINE
  5
289
330
1F
100
AcDbEntity
  8
Make2D$可见线$普通线
100
AcDbLine
 10
254.9238332805435
 20
396.3033988749896
 30
0.0
 11
254.9494002509796
 21
396.3033988749896
 31
0.0
  0
LINE
  5
28A
330
1F
100
AcDbEntity
  8
Make2D$可见线$普通线
100
AcDbLine
 10
254.7340096733506
 20
396.3033988749896
 30
0.0
 11
254.7550093942785
 21
396.3033988749896
 31
0.0
  0
LINE
  5
28B
330
1F
100
AcDbEntity
  8
Make2D$可见线$普通线
100
AcDbLine
 10
254.5441077949851
 20
396.3033988749896
 30
0.0
 11
254.5676643571322
 21
396.3033988749896
 31
0.0
  0
LINE
  5
28C
330
1F
100
AcDbEntity
  8
Make2D$可见线$普通线
100
AcDbLine
 10
254.3541382751646
 20
396.3033988749896
 30
0.0
 11
254.3805687835685
 21
396.3033988749896
 31
0.0
  0
LINE
  5
28D
330
1F
100
AcDbEntity
  8
Make2D$可见线$普通线
100
AcDbLine
 10
253.820851821565
 20
396.3033988749896
 30
0.0
 11
254.1937305612963
 21
396.3033988749896
 31
0.0
  0
LINE
  5
28E
330
1F
100
AcDbEntity
  8
Make2D$可见线$普通线
100
AcDbLine
 10
253.6348241295946
 20
396.3033988749896
 30
0.0
 11
253.8158370731762
 21
396.3033988749896
 31
0.0
  0
LINE
  5
28F
330
1F
100
AcDbEntity
  8
Make2D$可见线$普通线
100
AcDbLine
 10
253.4490794398927
 20
396.3033988749896
 30
0.0
 11
253.6249609074622
 21
396.3033988749896
 31
0.0
  0
LINE
  5
290
330
1F
100
AcDbEntity
  8
Make2D$可见线$普通线
100
AcDbLine
 10
253.2636241652218
 20
396.3033988749896
 30
0.0
 11
253.4343681187559
 21
396.3033988749896
 31
0.0
  0
LINE
  5
291
330
1F
100
AcDbEntity
  8
Make2D$可见线$普通线
100
AcDbLine
 10
253.0784647183422
 20
396.3033988749896
 30
0.0
 11
253.2135058853934
 21
396.3033988749896
 31
0.0
  0
LINE
  5
292
330
1F
100
AcDbEntity
  8
Make2D$可见线$普通线
100
AcDbLine
 10
252.8936075119353
 20
396.3033988749896
 30
0.0
 11
253.0233674267549
 21
396.3033988749896
 31
0.0
  0
LINE
  5
293
330
1F
100
AcDbEntity
  8
Make2D$可见线$普通线
100
AcDbLine
 10
252.7090589587395
 20
396.3033988749896
 30
0.0
 11
252.8332487651546
 21
396.3033988749896
 31
0.0
  0
LINE
  5
294
330
1F
100
AcDbEntity
  8
Make2D$可见线$普通线
100
AcDbLine
 10
252.5248254715252
 20
396.3033988749896
 30
0.0
 11
252.6431617514987
 21
396.3033988749896
 31
0.0
  0
LINE
  5
295
330
1F
100
AcDbEntity
  8
Make2D$可见线$普通线
100
AcDbLine
 10
252.3409134630693
 20
396.3033988749896
 30
0.0
 11
252.4531176250068
 21
396.3033988749896
 31
0.0
  0
LINE
  5
296
330
1F
100
AcDbEntity
  8
Make2D$可见线$普通线
100
AcDbLine
 10
252.1573293461518
 20
396.3033988749896
 30
0.0
 11
252.2631278276174
 21
396.3033988749896
 31
0.0
  0
LINE
  5
297
330
1F
100
AcDbEntity
  8
Make2D$可见线$普通线
100
AcDbLine
 10
251.9740795335479
 20
396.3033988749896
 30
0.0
 11
252.0732038653389
 21
396.3033988749896
 31
0.0
  0
LINE
  5
298
330
1F
100
AcDbEntity
  8
Make2D$可见线$普通线
100
AcDbLine
 10
251.7911704380228
 20
396.3033988749896
 30
0.0
 11
251.8833573064644
 21
396.3033988749896
 31
0.0
  0
LINE
  5
299
330
1F
100
AcDbEntity
  8
Make2D$可见线$普通线
100
AcDbLine
 10
251.6086084723213
 20
396.3033988749896
 30
0.0
 11
251.6935997797518
 21
396.3033988749896
 31
0.0
  0
LINE
  5
29A
330
1F
100
AcDbEntity
  8
Make2D$可见线$普通线
100
AcDbLine
 10
251.4264000491571
 20
396.3033988749896
 30
0.0
 11
251.5039429725703
 21
396.3033988749896
 31
0.0
  0
LINE
  5
29B
330
1F
100
AcDbEntity
  8
Make2D$可见线$普通线
100
AcDbLine
 10
251.2445515812003
 20
396.3033988749896
 30
0.0
 11
251.3143986290103
 21
396.3033988749896
 31
0.0
  0
LINE
  5
29C
330
1F
100
AcDbEntity
  8
Make2D$可见线$普通线
100
AcDbLine
 10
251.0569996646759
 20
396.3033988749896
 30
0.0
 11
251.1249785479633
 21
396.3033988749896
 31
0.0
  0
LINE
  5
29D
330
1F
100
AcDbEntity
  8
Make2D$可见线$普通线
100
AcDbLine
 10
250.8629312388834
 20
396.3033988749896
 30
0.0
 11
250.9356945811658
 21
396.3033988749896
 31
0.0
  0
LINE
  5
29E
330
1F
100
AcDbEntity
  8
Make2D$可见线$普通线
100
AcDbLine
 10
250.6690022676115
 20
396.3033988749896
 30
0.0
 11
250.7012300309144
 21
396.3033988749896
 31
0.0
  0
LINE
  5
29F
330
1F
100
AcDbEntity
  8
Make2D$可见线$普通线
100
AcDbLine
 10
250.4752249455228
 20
396.3033988749896
 30
0.0
 11
250.5208855093083
 21
396.3033988749896
 31
0.0
  0
LINE
  5
2A0
330
1F
100
AcDbEntity
  8
Make2D$可见线$普通线
100
AcDbLine
 10
248.5485082712534
 20
396.3033988749896
 30
0.0
 11
248.6519540447408
 21
396.3033988749896
 31
0.0
  0
LINE
  5
2A1
330
1F
100
AcDbEntity
  8
Make2D$可见线$普通线
100
AcDbLine
 10
248.3572167050056
 20
396.3033988749896
 30
0.0
 11
248.4618616024467
 21
396.3033988749896
 31
0.0
  0
LINE
  5
2A2
330
1F
100
AcDbEntity
  8
Make2D$可见线$普通线
100
AcDbLine
 10
248.1344617408408
 20
396.3033988749896
 30
0.0
 11
248.2723122611801
 21
396.3033988749896
 31
0.0
  0
LINE
  5
2A3
330
1F
100
AcDbEntity
  8
Make2D$可见线$普通线
100
AcDbLine
 10
247.9402608818386
 20
396.3033988749896
 30
0.0
 11
248.0833135580109
 21
396.3033988749896
 31
0.0
  0
LINE
  5
2A4
330
1F
100
AcDbEntity
  8
Make2D$可见线$普通线
100
AcDbLine
 10
247.7503908617722
 20
396.3033988749897
 30
0.0
 11
247.8948730300112
 21
396.3033988749896
 31
0.0
  0
LINE
  5
2A5
330
1F
100
AcDbEntity
  8
Make2D$可见线$普通线
100
AcDbLine
 10
247.5656313209707
 20
396.3033988749896
 30
0.0
 11
247.7069982142558
 21
396.3033988749896
 31
0.0
  0
LINE
  5
2A6
330
1F
100
AcDbEntity
  8
Make2D$可见线$普通线
100
AcDbLine
 10
247.3812402935276
 20
396.3033988749896
 30
0.0
 11
247.5196966478209
 21
396.3033988749896
 31
0.0
  0
LINE
  5
2A7
330
1F
100
AcDbEntity
  8
Make2D$可见线$普通线
100
AcDbLine
 10
247.1691761701072
 20
396.3033988749896
 30
0.0
 11
247.3329758677837
 21
396.3033988749896
 31
0.0
  0
LINE
  5
2A8
330
1F
100
AcDbEntity
  8
Make2D$可见线$普通线
100
AcDbLine
 10
246.9778732833065
 20
396.3033988749896
 30
0.0
 11
247.1468434112217
 21
396.3033988749896
 31
0.0
  0
LINE
  5
2A9
330
1F
100
AcDbEntity
  8
Make2D$可见线$普通线
100
AcDbLine
 10
246.7871731569873
 20
396.3033988749896
 30
0.0
 11
246.9613068152113
 21
396.3033988749896
 31
0.0
  0
LINE
  5
2AA
330
1F
100
AcDbEntity
  8
Make2D$可见线$普通线
100
AcDbLine
 10
246.5970835131651
 20
396.3033988749896
 30
0.0
 11
246.7763736168256
 21
396.3033988749896
 31
0.0
  0
LINE
  5
2AB
330
1F
100
AcDbEntity
  8
Make2D$可见线$普通线
100
AcDbLine
 10
246.225269778064
 20
396.3033988749896
 30
0.0
 11
246.5920513531332
 21
396.3033988749896
 31
0.0
  0
LINE
  5
2AC
330
1F
100
AcDbEntity
  8
Make2D$可见线$普通线
100
AcDbLine
 10
246.0428255407767
 20
396.3033988749896
 30
0.0
 11
246.2187665610752
 21
396.3033988749896
 31
0.0
  0
LINE
  5
2AD
330
1F
100
AcDbEntity
  8
Make2D$可见线$普通线
100
AcDbLine
 10
245.8610223863549
 20
396.3033988749896
 30
0.0
 11
246.0305546968403
 21
396.3033988749896
 31
0.0
  0
LINE
  5
2AE
330
1F
100
AcDbEntity
  8
Make2D$可见线$普通线
100
AcDbLine
 10
245.6798678517987
 20
396.3033988749896
 30
0.0
 11
245.8429842031676
 21
396.3033988749896
 31
0.0
  0
LINE
  5
2AF
330
1F
100
AcDbEntity
  8
Make2D$可见线$普通线
100
AcDbLine
 10
245.4993694740822
 20
396.3033988749896
 30
0.0
 11
245.6560628020741
 21
396.3033988749896
 31
0.0
  0
LINE
  5
2B0
330
1F
100
AcDbEntity
  8
Make2D$可见线$普通线
100
AcDbLine
 10
245.3195347901478
 20
396.3033988749896
 30
0.0
 11
245.4697982155769
 21
396.3033988749896
 31
0.0
  0
LINE
  5
2B1
330
1F
100
AcDbEntity
  8
Make2D$可见线$普通线
100
AcDbLine
 10
245.1403713369014
 20
396.3033988749896
 30
0.0
 11
245.2018245923859
 21
396.3033988749896
 31
0.0
  0
LINE
  5
2B2
330
1F
100
AcDbEntity
  8
Make2D$可见线$普通线
100
AcDbLine
 10
244.9618866512039
 20
396.3033988749896
 30
0.0
 11
245.0233567084554
 21
396.3033988749896
 31
0.0
  0
LINE
  5
2B3
330
1F
100
AcDbEntity
  8
Make2D$可见线$普通线
100
AcDbLine
 10
244.7840882698654
 20
396.3033988749896
 30
0.0
 11
244.8454312090792
 21
396.3033988749896
 31
0.0
  0
LINE
  5
2B4
330
1F
100
AcDbEntity
  8
Make2D$可见线$普通线
100
AcDbLine
 10
244.6069837296363
 20
396.3033988749896
 30
0.0
 11
244.6680603849181
 21
396.3033988749896
 31
0.0
  0
LINE
  5
2B5
330
1F
100
AcDbEntity
  8
Make2D$可见线$普通线
100
AcDbLine
 10
244.4292846621106
 20
396.3033988749896
 30
0.0
 11
244.4912564954212
 21
396.3033988749896
 31
0.0
  0
LINE
  5
2B6
330
1F
100
AcDbEntity
  8
Make2D$可见线$普通线
100
AcDbLine
 10
244.247561185693
 20
396.3033988749896
 30
0.0
 11
244.3150317661673
 21
396.3033988749896
 31
0.0
  0
LINE
  5
2B7
330
1F
100
AcDbEntity
  8
Make2D$可见线$普通线
100
AcDbLine
 10
244.066418555366
 20
396.3033988749896
 30
0.0
 11
244.0799084805742
 21
396.3033988749896
 31
0.0
  0
LINE
  5
2B8
330
1F
100
AcDbEntity
  8
Make2D$可见线$普通线
100
AcDbLine
 10
243.8858692966249
 20
396.3033988749896
 30
0.0
 11
243.9056546572233
 21
396.3033988749896
 31
0.0
  0
LINE
  5
2B9
330
1F
100
AcDbEntity
  8
Make2D$可见线$普通线
100
AcDbLine
 10
243.7059258975537
 20
396.3033988749895
 30
0.0
 11
243.7321322026198
 21
396.3033988749896
 31
0.0
  0
LINE
  5
2BA
330
1F
100
AcDbEntity
  8
Make2D$可见线$普通线
100
AcDbLine
 10
243.5266008061026
 20
396.3033988749896
 30
0.0
 11
243.5593478562428
 21
396.3033988749896
 31
0.0
  0
LINE
  5
2BB
330
1F
100
AcDbEntity
  8
Make2D$可见线$普通线
100
AcDbLine
 10
243.3479064273674
 20
396.3033988749895
 30
0.0
 11
243.3873081979723
 21
396.3033988749896
 31
0.0
  0
LINE
  5
2BC
330
1F
100
AcDbEntity
  8
Make2D$可见线$普通线
100
AcDbLine
 10
243.1698551208726
 20
396.3033988749896
 30
0.0
 11
243.2160198076671
 21
396.3033988749896
 31
0.0
  0
LINE
  5
2BD
330
1F
100
AcDbEntity
  8
Make2D$可见线$普通线
100
AcDbLine
 10
242.9924591978548
 20
396.3033988749896
 30
0.0
 11
243.0454892651538
 21
396.3033988749896
 31
0.0
  0
LINE
  5
2BE
330
1F
100
AcDbEntity
  8
Make2D$可见线$普通线
100
AcDbLine
 10
242.8157309185526
 20
396.3033988749896
 30
0.0
 11
242.8757231502171
 21
396.3033988749896
 31
0.0
  0
LINE
  5
2BF
330
1F
100
AcDbEntity
  8
Make2D$可见线$普通线
100
AcDbLine
 10
242.6396824895029
 20
396.3033988749896
 30
0.0
 11
242.7067280425882
 21
396.3033988749896
 31
0.0
  0
LINE
  5
2C0
330
1F
100
AcDbEntity
  8
Make2D$可见线$普通线
100
AcDbLine
 10
242.4643260608423
 20
396.3033988749896
 30
0.0
 11
242.5385105219325
 21
396.3033988749896
 31
0.0
  0
LINE
  5
2C1
330
1F
100
AcDbEntity
  8
Make2D$可见线$普通线
100
AcDbLine
 10
242.2499017906237
 20
396.3033988749896
 30
0.0
 11
242.3710771678367
 21
396.3033988749896
 31
0.0
  0
LINE
  5
2C2
330
1F
100
AcDbEntity
  8
Make2D$可见线$普通线
100
AcDbLine
 10
242.0822984305453
 20
396.3033988749896
 30
0.0
 11
242.204434559795
 21
396.3033988749896
 31
0.0
  0
LINE
  5
2C3
330
1F
100
AcDbEntity
  8
Make2D$可见线$普通线
100
AcDbLine
 10
241.915440348017
 20
396.3033988749896
 30
0.0
 11
242.0385892771945
 21
396.3033988749896
 31
0.0
  0
LINE
  5
2C4
330
1F
100
AcDbEntity
  8
Make2D$可见线$普通线
100
AcDbLine
 10
241.7493389434084
 20
396.3033988749896
 30
0.0
 11
241.8735478992996
 21
396.3033988749896
 31
0.0
  0
LINE
  5
2C5
330
1F
100
AcDbEntity
  8
Make2D$可见线$普通线
100
AcDbLine
 10
241.5840055412755
 20
396.3033988749896
 30
0.0
 11
241.7093170052356
 21
396.3033988749896
 31
0.0
  0
LINE
  5
2C6
330
1F
100
AcDbEntity
  8
Make2D$可见线$普通线
100
AcDbLine
 10
241.3844716677529
 20
396.3033988749896
 30
0.0
 11
241.5459031739711
 21
396.3033988749896
 31
0.0
  0
LINE
  5
2C7
330
1F
100
AcDbEntity
  8
Make2D$可见线$普通线
100
AcDbLine
 10
241.2215530148254
 20
396.3033988749896
 30
0.0
 11
241.3833129843007
 21
396.3033988749896
 31
0.0
  0
LINE
  5
2C8
330
1F
100
AcDbEntity
  8
Make2D$可见线$普通线
100
AcDbLine
 10
241.0606298439325
 20
396.3033988749896
 30
0.0
 11
241.2162105547718
 21
396.3033988749896
 31
0.0
  0
LINE
  5
2C9
330
1F
100
AcDbEntity
  8
Make2D$可见线$普通线
100
AcDbLine
 10
239.7403394855445
 20
396.3033988749896
 30
0.0
 11
241.0487865536077
 21
396.3033988749896
 31
0.0
  0
LINE
  5
2CA
330
1F
100
AcDbEntity
  8
Make2D$可见线$普通线
100
AcDbLine
 10
239.5807528339262
 20
396.3033988749896
 30
0.0
 11
239.6639171167999
 21
396.3033988749896
 31
0.0
  0
LINE
  5
2CB
330
1F
100
AcDbEntity
  8
Make2D$可见线$普通线
100
AcDbLine
 10
239.4220707036102
 20
396.3033988749896
 30
0.0
 11
239.5095593962499
 21
396.3033988749896
 31
0.0
  0
LINE
  5
2CC
330
1F
100
AcDbEntity
  8
Make2D$可见线$普通线
100
AcDbLine
 10
239.2796918467975
 20
396.3033988749896
 30
0.0
 11
239.3475853490287
 21
396.3033988749896
 31
0.0
  0
LINE
  5
2CD
330
1F
100
AcDbEntity
  8
Make2D$可见线$普通线
100
AcDbLine
 10
239.1206167195637
 20
396.3033988749896
 30
0.0
 11
239.1972169712504
 21
396.3033988749896
 31
0.0
  0
LINE
  5
2CE
330
1F
100
AcDbEntity
  8
Make2D$可见线$普通线
100
AcDbLine
 10
237.6053823341689
 20
396.3033988749896
 30
0.0
 11
237.7452775893615
 21
396.3033988749896
 31
0.0
  0
LINE
  5
2CF
330
1F
100
AcDbEntity
  8
Make2D$可见线$普通线
100
AcDbLine
 10
237.0557053496061
 20
396.3033988749896
 30
0.0
 11
237.1408382701154
 21
396.3033988749896
 31
0.0
  0
LINE
  5
2D0
330
1F
100
AcDbEntity
  8
Make2D$可见线$普通线
100
AcDbLine
 10
236.9207887738435
 20
396.3033988749896
 30
0.0
 11
237.0115658258603
 21
396.3033988749896
 31
0.0
  0
LINE
  5
2D1
330
1F
100
AcDbEntity
  8
Make2D$可见线$普通线
100
AcDbLine
 10
236.7617426874333
 20
396.3033988749896
 30
0.0
 11
236.8692468363354
 21
396.3033988749896
 31
0.0
  0
LINE
  5
2D2
330
1F
100
AcDbEntity
  8
Make2D$可见线$普通线
100
AcDbLine
 10
236.6274719123815
 20
396.3033988749896
 30
0.0
 11
236.727942518221
 21
396.3033988749896
 31
0.0
  0
LINE
  5
2D3
330
1F
100
AcDbEntity
  8
Make2D$可见线$普通线
100
AcDbLine
 10
236.4942926530324
 20
396.3033988749895
 30
0.0
 11
236.5876583403737
 21
396.3033988749896
 31
0.0
  0
LINE
  5
2D4
330
1F
100
AcDbEntity
  8
Make2D$可见线$普通线
100
AcDbLine
 10
235.7676839388811
 20
396.3033988749896
 30
0.0
 11
236.4483997977932
 21
396.3033988749896
 31
0.0
  0
LINE
  5
2D5
330
1F
100
AcDbEntity
  8
Make2D$可见线$普通线
100
AcDbLine
 10
235.634694602893
 20
396.3033988749896
 30
0.0
 11
235.7589863381006
 21
396.3033988749896
 31
0.0
  0
LINE
  5
2D6
330
1F
100
AcDbEntity
  8
Make2D$可见线$普通线
100
AcDbLine
 10
235.5046649112824
 20
396.3033988749896
 30
0.0
 11
235.6281567463569
 21
396.3033988749896
 31
0.0
  0
LINE
  5
2D7
330
1F
100
AcDbEntity
  8
Make2D$可见线$普通线
100
AcDbLine
 10
235.3822438696134
 20
396.3033988749896
 30
0.0
 11
235.5027693671684
 21
396.3033988749896
 31
0.0
  0
LINE
  5
2D8
330
1F
100
AcDbEntity
  8
Make2D$可见线$普通线
100
AcDbLine
 10
235.260898984656
 20
396.3033988749896
 30
0.0
 11
235.3719137267065
 21
396.3033988749896
 31
0.0
  0
LINE
  5
2D9
330
1F
100
AcDbEntity
  8
Make2D$可见线$普通线
100
AcDbLine
 10
235.1406356197172
 20
396.3033988749896
 30
0.0
 11
235.2240617758978
 21
396.3033988749896
 31
0.0
  0
LINE
  5
2DA
330
1F
100
AcDbEntity
  8
Make2D$可见线$普通线
100
AcDbLine
 10
235.0214591381069
 20
396.3033988749896
 30
0.0
 11
235.1033368681767
 21
396.3033988749896
 31
0.0
  0
LINE
  5
2DB
330
1F
100
AcDbEntity
  8
Make2D$可见线$普通线
100
AcDbLine
 10
234.9033749031432
 20
396.3033988749896
 30
0.0
 11
234.9837808988792
 21
396.3033988749896
 31
0.0
  0
LINE
  5
2DC
330
1F
100
AcDbEntity
  8
Make2D$可见线$普通线
100
AcDbLine
 10
234.7863882781551
 20
396.3033988749896
 30
0.0
 11
234.8592970174685
 21
396.3033988749896
 31
0.0
  0
LINE
  5
2DD
330
1F
100
AcDbEntity
  8
Make2D$可见线$普通线
100
AcDbLine
 10
234.6705047200624
 20
396.3033988749896
 30
0.0
 11
234.6966872834885
 21
396.3033988749896
 31
0.0
  0
LINE
  5
2DE
330
1F
100
AcDbEntity
  8
Make2D$可见线$普通线
100
AcDbLine
 10
234.5557292489007
 20
396.3033988749896
 30
0.0
 11
234.5718079181034
 21
396.3033988749896
 31
0.0
  0
LINE
  5
2DF
330
1F
100
AcDbEntity
  8
Make2D$可见线$普通线
100
AcDbLine
 10
234.4037201005469
 20
396.3033988749896
 30
0.0
 11
234.4481204365275
 21
396.3033988749896
 31
0.0
  0
LINE
  5
2E0
330
1F
100
AcDbEntity
  8
Make2D$可见线$普通线
100
AcDbLine
 10
234.291286507784
 20
396.3033988749895
 30
0.0
 11
234.3295232996437
 21
396.3033988749896
 31
0.0
  0
LINE
  5
2E1
330
1F
100
AcDbEntity
  8
Make2D$可见线$普通线
100
AcDbLine
 10
234.1800566888725
 20
396.3033988749896
 30
0.0
 11
234.2181004482503
 21
396.3033988749896
 31
0.0
  0
LINE
  5
2E2
330
1F
100
AcDbEntity
  8
Make2D$可见线$普通线
100
AcDbLine
 10
234.0700346592412
 20
396.3033988749896
 30
0.0
 11
234.0842658822005
 21
396.3033988749896
 31
0.0
  0
LINE
  5
2E3
330
1F
100
AcDbEntity
  8
Make2D$可见线$普通线
100
AcDbLine
 10
233.9612249932904
 20
396.3033988749897
 30
0.0
 11
233.9654017104114
 21
396.3033988749896
 31
0.0
  0
LINE
  5
2E4
330
1F
100
AcDbEntity
  8
Make2D$可见线$普通线
100
AcDbLine
 10
233.8477564944633
 20
396.3033988749896
 30
0.0
 11
233.8536314571647
 21
396.3033988749896
 31
0.0
  0
LINE
  5
2E5
330
1F
100
AcDbEntity
  8
Make2D$可见线$普通线
100
AcDbLine
 10
233.7313351575192
 20
396.3033988749895
 30
0.0
 11
233.7472578951877
 21
396.3033988749896
 31
0.0
  0
LINE
  5
2E6
330
1F
100
AcDbEntity
  8
Make2D$可见线$普通线
100
AcDbLine
 10
233.4698712970935
 20
396.3033988749896
 30
0.0
 11
233.5021829878738
 21
396.3033988749896
 31
0.0
  0
LINE
  5
2E7
330
1F
100
AcDbEntity
  8
Make2D$可见线$普通线
100
AcDbLine
 10
233.3675611825639
 20
396.3033988749896
 30
0.0
 11
233.3894611748429
 21
396.3033988749896
 31
0.0
  0
LINE
  5
2E8
330
1F
100
AcDbEntity
  8
Make2D$可见线$普通线
100
AcDbLine
 10
233.2338129462596
 20
396.3033988749896
 30
0.0
 11
233.2779812794572
 21
396.3033988749895
 31
0.0
  0
LINE
  5
2E9
330
1F
100
AcDbEntity
  8
Make2D$可见线$普通线
100
AcDbLine
 10
233.1348307914448
 20
396.3033988749896
 30
0.0
 11
233.1677473961242
 21
396.3033988749896
 31
0.0
  0
LINE
  5
2EA
330
1F
100
AcDbEntity
  8
Make2D$可见线$普通线
100
AcDbLine
 10
233.0370909446563
 20
396.3033988749896
 30
0.0
 11
233.0675860555368
 21
396.3033988749896
 31
0.0
  0
LINE
  5
2EB
330
1F
100
AcDbEntity
  8
Make2D$可见线$普通线
100
AcDbLine
 10
232.940595932152
 20
396.3033988749896
 30
0.0
 11
232.969925854797
 21
396.3033988749896
 31
0.0
  0
LINE
  5
2EC
330
1F
100
AcDbEntity
  8
Make2D$可见线$普通线
100
AcDbLine
 10
232.6839943793645
 20
396.3033988749896
 30
0.0
 11
232.7513494252082
 21
396.3033988749896
 31
0.0
  0
LINE
  5
2ED
330
1F
100
AcDbEntity
  8
Make2D$可见线$普通线
100
AcDbLine
 10
232.3878877081986
 20
396.3033988749896
 30
0.0
 11
232.6586023463387
 21
396.3033988749896
 31
0.0
  0
LINE
  5
2EE
330
1F
100
AcDbEntity
  8
Make2D$可见线$普通线
100
AcDbLine
 10
232.0658492909342
 20
396.3033988749896
 30
0.0
 11
232.3624125431649
 21
396.3033988749896
 31
0.0
  0
LINE
  5
2EF
330
1F
100
AcDbEntity
  8
Make2D$可见线$普通线
100
AcDbLine
 10
231.9738909869583
 20
396.3033988749896
 30
0.0
 11
232.0584417365393
 21
396.3033988749896
 31
0.0
  0
LINE
  5
2F0
330
1F
100
AcDbEntity
  8
Make2D$可见线$普通线
100
AcDbLine
 10
231.8905554271894
 20
396.3033988749895
 30
0.0
 11
231.961869545607
 21
396.3033988749896
 31
0.0
  0
LINE
  5
2F1
330
1F
100
AcDbEntity
  8
Make2D$可见线$普通线
100
AcDbLine
 10
231.8002953764842
 20
396.3033988749896
 30
0.0
 11
231.8741788728507
 21
396.3033988749896
 31
0.0
  0
LINE
  5
2F2
330
1F
100
AcDbEntity
  8
Make2D$可见线$普通线
100
AcDbLine
 10
231.4220899358661
 20
396.3033988749895
 30
0.0
 11
231.780167186405
 21
396.3033988749896
 31
0.0
  0
LINE
  5
2F3
330
1F
100
AcDbEntity
  8
Make2D$可见线$普通线
100
AcDbLine
 10
231.3529946865708
 20
396.3033988749896
 30
0.0
 11
231.4163705725479
 21
396.3033988749896
 31
0.0
  0
LINE
  5
2F4
330
1F
100
AcDbEntity
  8
Make2D$可见线$普通线
100
AcDbLine
 10
231.2745794636016
 20
396.3033988749896
 30
0.0
 11
231.3285039480963
 21
396.3033988749896
 31
0.0
  0
LINE
  5
2F5
330
1F
100
AcDbEntity
  8
Make2D$可见线$普通线
100
AcDbLine
 10
231.2045267756444
 20
396.3033988749896
 30
0.0
 11
231.2295618953777
 21
396.3033988749896
 31
0.0
  0
LINE
  5
2F6
330
1F
100
AcDbEntity
  8
Make2D$可见线$普通线
100
AcDbLine
 10
231.135734492672
 20
396.3033988749896
 30
0.0
 11
231.1520685841291
 21
396.3033988749896
 31
0.0
  0
LINE
  5
2F7
330
1F
100
AcDbEntity
  8
Make2D$可见线$普通线
100
AcDbLine
 10
230.516829368096
 20
396.3033988749895
 30
0.0
 11
230.5254057969291
 21
396.3033988749896
 31
0.0
  0
LINE
  5
2F8
330
1F
100
AcDbEntity
  8
Make2D$可见线$普通线
100
AcDbLine
 10
230.4446414235672
 20
396.3033988749896
 30
0.0
 11
230.4536340216165
 21
396.3033988749896
 31
0.0
  0
LINE
  5
2F9
330
1F
100
AcDbEntity
  8
Make2D$可见线$普通线
100
AcDbLine
 10
230.3554557806195
 20
396.3033988749896
 30
0.0
 11
230.3927062255267
 21
396.3033988749896
 31
0.0
  0
LINE
  5
2FA
330
1F
100
AcDbEntity
  8
Make2D$可见线$普通线
100
AcDbLine
 10
230.2921021169817
 20
396.3033988749896
 30
0.0
 11
230.3139632452597
 21
396.3033988749896
 31
0.0
  0
LINE
  5
2FB
330
1F
100
AcDbEntity
  8
Make2D$可见线$普通线
100
AcDbLine
 10
230.2434368420696
 20
396.3033988749896
 30
0.0
 11
230.2540429088159
 21
396.3033988749896
 31
0.0
  0
LINE
  5
2FC
330
1F
100
AcDbEntity
  8
Make2D$可见线$普通线
100
AcDbLine
 10
230.1575378441312
 20
396.3033988749896
 30
0.0
 11
230.1958652246263
 21
396.3033988749896
 31
0.0
  0
LINE
  5
2FD
330
1F
100
AcDbEntity
  8
Make2D$可见线$普通线
100
AcDbLine
 10
230.1040102998501
 20
396.3033988749896
 30
0.0
 11
230.1406864224909
 21
396.3033988749896
 31
0.0
  0
LINE
  5
2FE
330
1F
100
AcDbEntity
  8
Make2D$可见线$普通线
100
AcDbLine
 10
230.0219248265709
 20
396.3033988749896
 30
0.0
 11
230.0659145001482
 21
396.3033988749896
 31
0.0
  0
LINE
  5
2FF
330
1F
100
AcDbEntity
  8
Make2D$可见线$普通线
100
AcDbLine
 10
229.9744762079364
 20
396.3033988749896
 30
0.0
 11
230.0165520022906
 21
396.3033988749896
 31
0.0
  0
LINE
  5
300
330
1F
100
AcDbEntity
  8
Make2D$可见线$普通线
100
AcDbLine
 10
229.8990504584842
 20
396.3033988749896
 30
0.0
 11
229.9375710657507
 21
396.3033988749896
 31
0.0
  0
LINE
  5
301
330
1F
100
AcDbEntity
  8
Make2D$可见线$普通线
100
AcDbLine
 10
229.854884219735
 20
396.3033988749896
 30
0.0
 11
229.89364046331
 21
396.3033988749896
 31
0.0
  0
LINE
  5
302
330
1F
100
AcDbEntity
  8
Make2D$可见线$普通线
100
AcDbLine
 10
229.7848574410106
 20
396.3033988749896
 30
0.0
 11
229.8200459727228
 21
396.3033988749897
 31
0.0
  0
LINE
  5
303
330
1F
100
AcDbEntity
  8
Make2D$可见线$普通线
100
AcDbLine
 10
229.7294237658759
 20
396.3033988749896
 30
0.0
 11
229.7807041231916
 21
396.3033988749896
 31
0.0
  0
LINE
  5
304
330
1F
100
AcDbEntity
  8
Make2D$可见线$普通线
100
AcDbLine
 10
229.6799809395657
 20
396.3033988749896
 30
0.0
 11
229.713228014493
 21
396.3033988749896
 31
0.0
  0
LINE
  5
305
330
1F
100
AcDbEntity
  8
Make2D$可见线$普通线
100
AcDbLine
 10
229.6218915007078
 20
396.3033988749896
 30
0.0
 11
229.6751011579133
 21
396.3033988749896
 31
0.0
  0
LINE
  5
306
330
1F
100
AcDbEntity
  8
Make2D$可见线$普通线
100
AcDbLine
 10
229.5697966773968
 20
396.3033988749896
 30
0.0
 11
229.6147545348736
 21
396.3033988749896
 31
0.0
  0
LINE
  5
307
330
1F
100
AcDbEntity
  8
Make2D$可见线$普通线
100
AcDbLine
 10
229.5285862600419
 20
396.3033988749896
 30
0.0
 11
229.5561906385527
 21
396.3033988749896
 31
0.0
  0
LINE
  5
308
330
1F
100
AcDbEntity
  8
Make2D$可见线$普通线
100
AcDbLine
 10
229.4689590699846
 20
396.3033988749896
 30
0.0
 11
229.5049368418702
 21
396.3033988749896
 31
0.0
  0
LINE
  5
309
330
1F
100
AcDbEntity
  8
Make2D$可见线$普通线
100
AcDbLine
 10
229.4202200512941
 20
396.3033988749896
 30
0.0
 11
229.4557786994743
 21
396.3033988749896
 31
0.0
  0
LINE
  5
30A
330
1F
100
AcDbEntity
  8
Make2D$可见线$普通线
100
AcDbLine
 10
229.3726034017759
 20
396.3033988749896
 30
0.0
 11
229.4073665483162
 21
396.3033988749896
 31
0.0
  0
LINE
  5
30B
330
1F
100
AcDbEntity
  8
Make2D$可见线$普通线
100
AcDbLine
 10
229.3305939640564
 20
396.3033988749896
 30
0.0
 11
229.3525833098989
 21
396.3033988749896
 31
0.0
  0
LINE
  5
30C
330
1F
100
AcDbEntity
  8
Make2D$可见线$普通线
100
AcDbLine
 10
229.2848280417512
 20
396.3033988749896
 30
0.0
 11
229.3142124682975
 21
396.3033988749896
 31
0.0
  0
LINE
  5
30D
330
1F
100
AcDbEntity
  8
Make2D$可见线$普通线
100
AcDbLine
 10
228.4287743232311
 20
396.3033988749897
 30
0.0
 11
228.7648479334351
 21
396.3033988749896
 31
0.0
  0
LINE
  5
30E
330
1F
100
AcDbEntity
  8
Make2D$可见线$普通线
100
AcDbLine
 10
228.4220030713659
 20
396.3033988749896
 30
0.0
 11
228.4242517974852
 21
396.3033988749896
 31
0.0
  0
CIRCLE
  5
30F
330
1F
100
AcDbEntity
  8
Make2D$可见线$普通线
100
AcDbCircle
 10
203.8034065691662
 20
389.332688196871
 30
0.0
 40
9.999999999999972
  0
ENDSEC
  0
SECTION
  2
OBJECTS
  0
DICTIONARY
  5
C
330
0
100
AcDbDictionary
281
     1
  3
ACAD_GROUP
350
D
  3
ACAD_LAYOUT
350
1A
  3
ACAD_MATERIAL
350
3B
  3
ACAD_MLEADERSTYLE
350
33A
  3
ACAD_MLINESTYLE
350
17
  3
ACAD_PLOTSETTINGS
350
19
  3
ACAD_PLOTSTYLENAME
350
E
  3
ACAD_SCALELIST
350
3F
  3
ACAD_TABLESTYLE
350
339
  3
ACAD_VISUALSTYLE
350
2A
  3
AcDbVariableDictionary
350
310
  0
DICTIONARY
  5
D
102
{ACAD_REACTORS
330
C
102
}
330
C
100
AcDbDictionary
281
     1
  0
DICTIONARY
  5
1A
102
{ACAD_REACTORS
330
C
102
}
330
C
100
AcDbDictionary
281
     1
  3
Layout1
350
1E
  3
Layout2
350
26
  3
Model
350
22
  0
DICTIONARY
  5
3B
102
{ACAD_REACTORS
330
C
102
}
330
C
100
AcDbDictionary
281
     1
  3
ByBlock
350
3D
  3
ByLayer
350
3C
  3
Global
350
3E
  0
DICTIONARY
  5
33A
102
{ACAD_REACTORS
330
C
102
}
330
C
100
AcDbDictionary
281
     1
  0
DICTIONARY
  5
17
102
{ACAD_REACTORS
330
C
102
}
330
C
100
AcDbDictionary
281
     1
  3
Standard
350
18
  0
DICTIONARY
  5
19
102
{ACAD_REACTORS
330
C
102
}
330
C
100
AcDbDictionary
281
     1
  0
ACDBDICTIONARYWDFLT
  5
E
102
{ACAD_REACTORS
330
C
102
}
330
C
100
AcDbDictionary
281
     1
  3
Normal
350
F
100
AcDbDictionaryWithDefault
340
F
  0
DICTIONARY
  5
3F
102
{ACAD_REACTORS
330
C
102
}
330
C
100
AcDbDictionary
281
     1
  3
A0
350
40
  3
A1
350
41
  3
A2
350
42
  3
A3
350
43
  3
A4
350
44
  3
A5
350
45
  3
A6
350
46
  3
A7
350
47
  3
A8
350
48
  3
A9
350
49
  3
B0
350
4A
  3
B1
350
4B
  3
B2
350
4C
  3
B3
350
4D
  3
B4
350
4E
  3
B5
350
4F
  3
B6
350
50
  3
B7
350
51
  3
B8
350
52
  3
B9
350
53
  3
C0
350
54
  3
C1
350
55
  3
C2
350
56
  3
C3
350
57
  3
C4
350
58
  3
C5
350
59
  3
C6
350
5A
  3
C7
350
5B
  3
C8
350
5C
  3
C9
350
5D
  3
D0
350
5E
  3
D1
350
5F
  3
D2
350
60
  0
DICTIONARY
  5
339
102
{ACAD_REACTORS
330
C
102
}
330
C
100
AcDbDictionary
281
     1
  0
DICTIONARY
  5
2A
102
{ACAD_REACTORS
330
C
102
}
330
C
100
AcDbDictionary
281
     1
  3
2dWireframe
350
2F
  3
3D Hidden
350
31
  3
3dWireframe
350
30
  3
Basic
350
32
  3
Brighten
350
36
  3
ColorChange
350
3A
  3
Conceptual
350
34
  3
Dim
350
35
  3
Facepattern
350
39
  3
Flat
350
2B
  3
FlatWithEdges
350
2C
  3
Gouraud
350
2D
  3
GouraudWithEdges
350
2E
  3
Linepattern
350
38
  3
Realistic
350
33
  3
Thicken
350
37
  0
DICTIONARY
  5
310
102
{ACAD_REACTORS
330
C
102
}
330
C
100
AcDbDictionary
281
     1
  3
CANNOSCALE
350
311
  3
MSLTSCALE
350
312
  0
LAYOUT
  5
1E
102
{ACAD_REACTORS
330
1A
102
}
330
1A
100
AcDbPlotSettings
  1

  2
none_device
  4

  6

 40
0.0
 41
0.0
 42
0.0
 43
0.0
 44
0.0
 45
0.0
 46
0.0
 47
0.0
 48
0.0
 49
0.0
140
0.0
141
0.0
142
1.0
143
1.0
 70
   688
 72
     0
 73
     0
 74
     5
  7

 75
    16
 76
     0
 77
     2
 78
   300
147
1.0
148
0.0
149
0.0
100
AcDbLayout
  1
Layout1
 70
     1
 71
     1
 10
0.0
 20
0.0
 11
12.0
 21
9.0
 12
0.0
 22
0.0
 32
0.0
 14
1.000000000000000E+20
 24
1.000000000000000E+20
 34
1.000000000000000E+20
 15
-1.000000000000000E+20
 25
-1.000000000000000E+20
 35
-1.000000000000000E+20
146
0.0
 13
0.0
 23
0.0
 33
0.0
 16
1.0
 26
0.0
 36
0.0
 17
0.0
 27
1.0
 37
0.0
 76
     0
330
1B
  0
LAYOUT
  5
26
102
{ACAD_REACTORS
330
1A
102
}
330
1A
100
AcDbPlotSettings
  1

  2
none_device
  4

  6

 40
0.0
 41
0.0
 42
0.0
 43
0.0
 44
0.0
 45
0.0
 46
0.0
 47
0.0
 48
0.0
 49
0.0
140
0.0
141
0.0
142
1.0
143
1.0
 70
   688
 72
     0
 73
     0
 74
     5
  7

 75
    16
 76
     0
 77
     2
 78
   300
147
1.0
148
0.0
149
0.0
100
AcDbLayout
  1
Layout2
 70
     1
 71
     2
 10
0.0
 20
0.0
 11
0.0
 21
0.0
 12
0.0
 22
0.0
 32
0.0
 14
0.0
 24
0.0
 34
0.0
 15
0.0
 25
0.0
 35
0.0
146
0.0
 13
0.0
 23
0.0
 33
0.0
 16
1.0
 26
0.0
 36
0.0
 17
0.0
 27
1.0
 37
0.0
 76
     0
330
23
  0
LAYOUT
  5
22
102
{ACAD_REACTORS
330
1A
102
}
330
1A
100
AcDbPlotSettings
  1

  2
none_device
  4
Letter_(8.50_x_11.00_Inches)
  6

 40
6.35
 41
6.35
 42
6.35000508
 43
6.35000508
 44
215.9
 45
279.4
 46
0.0
 47
0.0
 48
0.0
 49
0.0
140
0.0
141
0.0
142
1.0
143
1.0
 70
  1712
 72
     0
 73
     0
 74
     0
  7

 75
     0
 76
     0
 77
     2
 78
   300
147
1.0
148
0.0
149
0.0
100
AcDbLayout
  1
Model
 70
     1
 71
     0
 10
0.0
 20
0.0
 11
12.0
 21
9.0
 12
0.0
 22
0.0
 32
0.0
 14
193.8034065691663
 24
360.8033988749896
 34
0.0
 15
296.8034065691662
 25
460.8033988749897
 35
0.0
146
0.0
 13
0.0
 23
0.0
 33
0.0
 16
1.0
 26
0.0
 36
0.0
 17
0.0
 27
1.0
 37
0.0
 76
     0
330
1F
331
29
  0
MATERIAL
  5
3D
102
{ACAD_REACTORS
330
3B
102
}
102
{ACAD_XDICTIONARY
360
335
102
}
330
3B
100
AcDbMaterial
  1
ByBlock
  0
MATERIAL
  5
3C
102
{ACAD_REACTORS
330
3B
102
}
102
{ACAD_XDICTIONARY
360
333
102
}
330
3B
100
AcDbMaterial
  1
ByLayer
  0
MATERIAL
  5
3E
102
{ACAD_REACTORS
330
3B
102
}
102
{ACAD_XDICTIONARY
360
337
102
}
330
3B
100
AcDbMaterial
  1
Global
  0
MLINESTYLE
  5
18
102
{ACAD_REACTORS
330
17
102
}
330
17
100
AcDbMlineStyle
  2
Standard
 70
     0
  3

 62
   256
 51
90.0
 52
90.0
 71
     2
 49
0.5
 62
   256
  6
BYLAYER
 49
-0.5
 62
   256
  6
BYLAYER
  0
ACDBPLACEHOLDER
  5
F
102
{ACAD_REACTORS
330
E
102
}
330
E
  0
SCALE
  5
40
102
{ACAD_REACTORS
330
3F
102
}
330
3F
100
AcDbScale
 70
     0
300
1:1
140
1.0
141
1.0
290
     1
  0
SCALE
  5
41
102
{ACAD_REACTORS
330
3F
102
}
330
3F
100
AcDbScale
 70
     0
300
1:2
140
1.0
141
2.0
290
     0
  0
SCALE
  5
42
102
{ACAD_REACTORS
330
3F
102
}
330
3F
100
AcDbScale
 70
     0
300
1:4
140
1.0
141
4.0
290
     0
  0
SCALE
  5
43
102
{ACAD_REACTORS
330
3F
102
}
330
3F
100
AcDbScale
 70
     0
300
1:5
140
1.0
141
5.0
290
     0
  0
SCALE
  5
44
102
{ACAD_REACTORS
330
3F
102
}
330
3F
100
AcDbScale
 70
     0
300
1:8
140
1.0
141
8.0
290
     0
  0
SCALE
  5
45
102
{ACAD_REACTORS
330
3F
102
}
330
3F
100
AcDbScale
 70
     0
300
1:10
140
1.0
141
10.0
290
     0
  0
SCALE
  5
46
102
{ACAD_REACTORS
330
3F
102
}
330
3F
100
AcDbScale
 70
     0
300
1:16
140
1.0
141
16.0
290
     0
  0
SCALE
  5
47
102
{ACAD_REACTORS
330
3F
102
}
330
3F
100
AcDbScale
 70
     0
300
1:20
140
1.0
141
20.0
290
     0
  0
SCALE
  5
48
102
{ACAD_REACTORS
330
3F
102
}
330
3F
100
AcDbScale
 70
     0
300
1:30
140
1.0
141
30.0
290
     0
  0
SCALE
  5
49
102
{ACAD_REACTORS
330
3F
102
}
330
3F
100
AcDbScale
 70
     0
300
1:40
140
1.0
141
40.0
290
     0
  0
SCALE
  5
4A
102
{ACAD_REACTORS
330
3F
102
}
330
3F
100
AcDbScale
 70
     0
300
1:50
140
1.0
141
50.0
290
     0
  0
SCALE
  5
4B
102
{ACAD_REACTORS
330
3F
102
}
330
3F
100
AcDbScale
 70
     0
300
1:100
140
1.0
141
100.0
290
     0
  0
SCALE
  5
4C
102
{ACAD_REACTORS
330
3F
102
}
330
3F
100
AcDbScale
 70
     0
300
2:1
140
2.0
141
1.0
290
     0
  0
SCALE
  5
4D
102
{ACAD_REACTORS
330
3F
102
}
330
3F
100
AcDbScale
 70
     0
300
4:1
140
4.0
141
1.0
290
     0
  0
SCALE
  5
4E
102
{ACAD_REACTORS
330
3F
102
}
330
3F
100
AcDbScale
 70
     0
300
8:1
140
8.0
141
1.0
290
     0
  0
SCALE
  5
4F
102
{ACAD_REACTORS
330
3F
102
}
330
3F
100
AcDbScale
 70
     0
300
10:1
140
10.0
141
1.0
290
     0
  0
SCALE
  5
50
102
{ACAD_REACTORS
330
3F
102
}
330
3F
100
AcDbScale
 70
     0
300
100:1
140
100.0
141
1.0
290
     0
  0
SCALE
  5
51
102
{ACAD_REACTORS
330
3F
102
}
330
3F
100
AcDbScale
 70
     0
300
1/128" = 1'-0"
140
0.0078125
141
12.0
290
     0
  0
SCALE
  5
52
102
{ACAD_REACTORS
330
3F
102
}
330
3F
100
AcDbScale
 70
     0
300
1/64" = 1'-0"
140
0.015625
141
12.0
290
     0
  0
SCALE
  5
53
102
{ACAD_REACTORS
330
3F
102
}
330
3F
100
AcDbScale
 70
     0
300
1/32" = 1'-0"
140
0.03125
141
12.0
290
     0
  0
SCALE
  5
54
102
{ACAD_REACTORS
330
3F
102
}
330
3F
100
AcDbScale
 70
     0
300
1/16" = 1'-0"
140
0.0625
141
12.0
290
     0
  0
SCALE
  5
55
102
{ACAD_REACTORS
330
3F
102
}
330
3F
100
AcDbScale
 70
     0
300
3/32" = 1'-0"
140
0.09375
141
12.0
290
     0
  0
SCALE
  5
56
102
{ACAD_REACTORS
330
3F
102
}
330
3F
100
AcDbScale
 70
     0
300
1/8" = 1'-0"
140
0.125
141
12.0
290
     0
  0
SCALE
  5
57
102
{ACAD_REACTORS
330
3F
102
}
330
3F
100
AcDbScale
 70
     0
300
3/16" = 1'-0"
140
0.1875
141
12.0
290
     0
  0
SCALE
  5
58
102
{ACAD_REACTORS
330
3F
102
}
330
3F
100
AcDbScale
 70
     0
300
1/4" = 1'-0"
140
0.25
141
12.0
290
     0
  0
SCALE
  5
59
102
{ACAD_REACTORS
330
3F
102
}
330
3F
100
AcDbScale
 70
     0
300
3/8" = 1'-0"
140
0.375
141
12.0
290
     0
  0
SCALE
  5
5A
102
{ACAD_REACTORS
330
3F
102
}
330
3F
100
AcDbScale
 70
     0
300
1/2" = 1'-0"
140
0.5
141
12.0
290
     0
  0
SCALE
  5
5B
102
{ACAD_REACTORS
330
3F
102
}
330
3F
100
AcDbScale
 70
     0
300
3/4" = 1'-0"
140
0.75
141
12.0
290
     0
  0
SCALE
  5
5C
102
{ACAD_REACTORS
330
3F
102
}
330
3F
100
AcDbScale
 70
     0
300
1" = 1'-0"
140
1.0
141
12.0
290
     0
  0
SCALE
  5
5D
102
{ACAD_REACTORS
330
3F
102
}
330
3F
100
AcDbScale
 70
     0
300
1-1/2" = 1'-0"
140
1.5
141
12.0
290
     0
  0
SCALE
  5
5E
102
{ACAD_REACTORS
330
3F
102
}
330
3F
100
AcDbScale
 70
     0
300
3" = 1'-0"
140
3.0
141
12.0
290
     0
  0
SCALE
  5
5F
102
{ACAD_REACTORS
330
3F
102
}
330
3F
100
AcDbScale
 70
     0
300
6" = 1'-0"
140
6.0
141
12.0
290
     0
  0
SCALE
  5
60
102
{ACAD_REACTORS
330
3F
102
}
330
3F
100
AcDbScale
 70
     0
300
1'-0" = 1'-0"
140
12.0
141
12.0
290
     0
  0
VISUALSTYLE
  5
2F
102
{ACAD_REACTORS
330
2A
102
}
102
{ACAD_XDICTIONARY
360
31B
102
}
330
2A
100
AcDbVisualStyle
  2
2dWireframe
 70
     4
 71
     0
 72
     2
 73
     0
 90
        0
 40
0.6
 41
30.0
 62
     5
 63
     7
421
 16777215
 74
     1
 91
        4
 64
     7
 65
   257
 75
     1
175
     1
 42
1.0
 92
        0
 66
   257
 43
1.0
 76
     1
 77
     6
 78
     2
 67
     7
 79
     5
170
     0
171
     0
290
     0
174
     0
 93
        1
 44
0.0
173
     0
291
     0
 45
0.0
1001
ACAD
1000
AcDbSavedByObjectVersion
1070
     0
  0
VISUALSTYLE
  5
31
102
{ACAD_REACTORS
330
2A
102
}
102
{ACAD_XDICTIONARY
360
31F
102
}
330
2A
100
AcDbVisualStyle
  2
3D Hidden
 70
     6
 71
     1
 72
     2
 73
     2
 90
        0
 40
0.6
 41
30.0
 62
     5
 63
     7
421
 16777215
 74
     2
 91
        2
 64
     7
 65
   257
 75
     2
175
     1
 42
40.0
 92
        0
 66
   257
 43
1.0
 76
     1
 77
     6
 78
     2
 67
     7
 79
     3
170
     0
171
     0
290
     0
174
     0
 93
        1
 44
0.0
173
     0
291
     0
 45
0.0
1001
ACAD
1000
AcDbSavedByObjectVersion
1070
     0
  0
VISUALSTYLE
  5
30
102
{ACAD_REACTORS
330
2A
102
}
102
{ACAD_XDICTIONARY
360
31D
102
}
330
2A
100
AcDbVisualStyle
  2
3dWireframe
 70
     5
 71
     0
 72
     2
 73
     0
 90
        0
 40
0.6
 41
30.0
 62
     5
 63
     7
421
 16777215
 74
     1
 91
        4
 64
     7
 65
   257
 75
     1
175
     1
 42
1.0
 92
        0
 66
   257
 43
1.0
 76
     1
 77
     6
 78
     2
 67
     7
 79
     5
170
     0
171
     0
290
     0
174
     0
 93
        1
 44
0.0
173
     0
291
     0
 45
0.0
1001
ACAD
1000
AcDbSavedByObjectVersion
1070
     0
  0
VISUALSTYLE
  5
32
102
{ACAD_REACTORS
330
2A
102
}
102
{ACAD_XDICTIONARY
360
321
102
}
330
2A
100
AcDbVisualStyle
  2
Basic
 70
     7
 71
     1
 72
     0
 73
     1
 90
        0
 40
0.6
 41
30.0
 62
     5
 63
     7
421
 16777215
 74
     0
 91
        4
 64
     7
 65
   257
 75
     1
175
     1
 42
1.0
 92
        8
 66
     7
 43
1.0
 76
     1
 77
     6
 78
     2
 67
     7
 79
     5
170
     0
171
     0
290
     0
174
     0
 93
        1
 44
0.0
173
     0
291
     1
 45
0.0
1001
ACAD
1000
AcDbSavedByObjectVersion
1070
     0
  0
VISUALSTYLE
  5
36
102
{ACAD_REACTORS
330
2A
102
}
102
{ACAD_XDICTIONARY
360
329
102
}
330
2A
100
AcDbVisualStyle
  2
Brighten
 70
    12
 71
     2
 72
     2
 73
     0
 90
        0
 40
0.6
 41
30.0
 62
     5
 63
     7
421
 16777215
 74
     1
 91
        4
 64
     7
 65
   257
 75
     1
175
     1
 42
1.0
 92
        8
 66
     7
 43
1.0
 76
     1
 77
     6
 78
     2
 67
     7
 79
     5
170
     0
171
     0
290
     0
174
     0
 93
        1
 44
50.0
173
     0
291
     1
 45
0.0
1001
ACAD
1000
AcDbSavedByObjectVersion
1070
     0
  0
VISUALSTYLE
  5
3A
102
{ACAD_REACTORS
330
2A
102
}
102
{ACAD_XDICTIONARY
360
331
102
}
330
2A
100
AcDbVisualStyle
  2
ColorChange
 70
    16
 71
     2
 72
     2
 73
     3
 90
        0
 40
0.6
 41
30.0
 62
     5
 63
     8
421
  8421504
 74
     1
 91
        4
 64
     7
 65
   257
 75
     1
175
     1
 42
1.0
 92
        8
 66
     8
424
  8421504
 43
1.0
 76
     1
 77
     6
 78
     2
 67
     7
 79
     5
170
     0
171
     0
290
     0
174
     0
 93
        1
 44
0.0
173
     0
291
     1
 45
0.0
1001
ACAD
1000
AcDbSavedByObjectVersion
1070
     0
  0
VISUALSTYLE
  5
34
102
{ACAD_REACTORS
330
2A
102
}
102
{ACAD_XDICTIONARY
360
325
102
}
330
2A
100
AcDbVisualStyle
  2
Conceptual
 70
     9
 71
     3
 72
     2
 73
     0
 90
        0
 40
0.6
 41
30.0
 62
     5
 63
     7
421
 16777215
 74
     2
 91
        2
 64
     7
 65
   257
 75
     1
175
     1
 42
40.0
 92
        8
 66
     7
 43
1.0
 76
     1
 77
     6
 78
     2
 67
     7
 79
     3
170
     0
171
     0
290
     0
174
     0
 93
        1
 44
0.0
173
     0
291
     0
 45
0.0
1001
ACAD
1000
AcDbSavedByObjectVersion
1070
     0
  0
VISUALSTYLE
  5
35
102
{ACAD_REACTORS
330
2A
102
}
102
{ACAD_XDICTIONARY
360
327
102
}
330
2A
100
AcDbVisualStyle
  2
Dim
 70
    11
 71
     2
 72
     2
 73
     0
 90
        0
 40
0.6
 41
30.0
 62
     5
 63
     7
421
 16777215
 74
     1
 91
        4
 64
     7
 65
   257
 75
     1
175
     1
 42
1.0
 92
        8
 66
     7
 43
1.0
 76
     1
 77
     6
 78
     2
 67
     7
 79
     5
170
     0
171
     0
290
     0
174
     0
 93
        1
 44
-50.0
173
     0
291
     1
 45
0.0
1001
ACAD
1000
AcDbSavedByObjectVersion
1070
     0
  0
VISUALSTYLE
  5
39
102
{ACAD_REACTORS
330
2A
102
}
102
{ACAD_XDICTIONARY
360
32F
102
}
330
2A
100
AcDbVisualStyle
  2
Facepattern
 70
    15
 71
     2
 72
     2
 73
     0
 90
        0
 40
0.6
 41
30.0
 62
     5
 63
     7
421
 16777215
 74
     1
 91
        4
 64
     7
 65
   257
 75
     1
175
     1
 42
1.0
 92
        8
 66
     7
 43
1.0
 76
     1
 77
     6
 78
     2
 67
     7
 79
     5
170
     0
171
     0
290
     0
174
     0
 93
        1
 44
0.0
173
     0
291
     1
 45
0.0
1001
ACAD
1000
AcDbSavedByObjectVersion
1070
     0
  0
VISUALSTYLE
  5
2B
102
{ACAD_REACTORS
330
2A
102
}
102
{ACAD_XDICTIONARY
360
313
102
}
330
2A
100
AcDbVisualStyle
  2
Flat
 70
     0
 71
     2
 72
     1
 73
     1
 90
        2
 40
0.6
 41
30.0
 62
     5
 63
     7
421
 16777215
 74
     0
 91
        4
 64
     7
 65
   257
 75
     1
175
     1
 42
1.0
 92
        8
 66
     7
 43
1.0
 76
     1
 77
     6
 78
     2
 67
     7
 79
     5
170
     0
171
     0
290
     0
174
     0
 93
       13
 44
0.0
173
     0
291
     1
 45
0.0
1001
ACAD
1000
AcDbSavedByObjectVersion
1070
     0
  0
VISUALSTYLE
  5
2C
102
{ACAD_REACTORS
330
2A
102
}
102
{ACAD_XDICTIONARY
360
315
102
}
330
2A
100
AcDbVisualStyle
  2
FlatWithEdges
 70
     1
 71
     2
 72
     1
 73
     1
 90
        2
 40
0.6
 41
30.0
 62
     5
 63
     7
421
 16777215
 74
     1
 91
        4
 64
     7
 65
   257
 75
     1
175
     1
 42
1.0
 92
        0
 66
   257
 43
1.0
 76
     1
 77
     6
 78
     2
 67
     7
 79
     5
170
     0
171
     0
290
     0
174
     0
 93
       13
 44
0.0
173
     0
291
     1
 45
0.0
1001
ACAD
1000
AcDbSavedByObjectVersion
1070
     0
  0
VISUALSTYLE
  5
2D
102
{ACAD_REACTORS
330
2A
102
}
102
{ACAD_XDICTIONARY
360
317
102
}
330
2A
100
AcDbVisualStyle
  2
Gouraud
 70
     2
 71
     2
 72
     2
 73
     1
 90
        2
 40
0.6
 41
30.0
 62
     5
 63
     7
421
 16777215
 74
     0
 91
        4
 64
     7
 65
   257
 75
     1
175
     1
 42
1.0
 92
        0
 66
     7
 43
1.0
 76
     1
 77
     6
 78
     2
 67
     7
 79
     5
170
     0
171
     0
290
     0
174
     0
 93
       13
 44
0.0
173
     0
291
     1
 45
0.0
1001
ACAD
1000
AcDbSavedByObjectVersion
1070
     0
  0
VISUALSTYLE
  5
2E
102
{ACAD_REACTORS
330
2A
102
}
102
{ACAD_XDICTIONARY
360
319
102
}
330
2A
100
AcDbVisualStyle
  2
GouraudWithEdges
 70
     3
 71
     2
 72
     2
 73
     1
 90
        2
 40
0.6
 41
30.0
 62
     5
 63
     7
421
 16777215
 74
     1
 91
        4
 64
     7
 65
   257
 75
     1
175
     1
 42
1.0
 92
        0
 66
   257
 43
1.0
 76
     1
 77
     6
 78
     2
 67
     7
 79
     5
170
     0
171
     0
290
     0
174
     0
 93
       13
 44
0.0
173
     0
291
     1
 45
0.0
1001
ACAD
1000
AcDbSavedByObjectVersion
1070
     0
  0
VISUALSTYLE
  5
38
102
{ACAD_REACTORS
330
2A
102
}
102
{ACAD_XDICTIONARY
360
32D
102
}
330
2A
100
AcDbVisualStyle
  2
Linepattern
 70
    14
 71
     2
 72
     2
 73
     0
 90
        0
 40
0.6
 41
30.0
 62
     5
 63
     7
421
 16777215
 74
     1
 91
        4
 64
     7
 65
   257
 75
     7
175
     7
 42
1.0
 92
        8
 66
     7
 43
1.0
 76
     1
 77
     6
 78
     2
 67
     7
 79
     5
170
     0
171
     0
290
     0
174
     0
 93
        1
 44
0.0
173
     0
291
     1
 45
0.0
1001
ACAD
1000
AcDbSavedByObjectVersion
1070
     0
  0
VISUALSTYLE
  5
33
102
{ACAD_REACTORS
330
2A
102
}
102
{ACAD_XDICTIONARY
360
323
102
}
330
2A
100
AcDbVisualStyle
  2
Realistic
 70
     8
 71
     2
 72
     3
 73
     0
 90
        2
 40
0.6
 41
30.0
 62
     5
 63
     7
421
 16777215
 74
     0
 91
        0
 64
     7
 65
   257
 75
     1
175
     1
 42
1.0
 92
        8
 66
   257
 43
1.0
 76
     1
 77
     6
 78
     2
 67
     7
 79
     3
170
     0
171
     0
290
     0
174
     0
 93
       13
 44
0.0
173
     0
291
     0
 45
0.0
1001
ACAD
1000
AcDbSavedByObjectVersion
1070
     0
  0
VISUALSTYLE
  5
37
102
{ACAD_REACTORS
330
2A
102
}
102
{ACAD_XDICTIONARY
360
32B
102
}
330
2A
100
AcDbVisualStyle
  2
Thicken
 70
    13
 71
     2
 72
     2
 73
     0
 90
        0
 40
0.6
 41
30.0
 62
     5
 63
     7
421
 16777215
 74
     1
 91
        4
 64
     7
 65
   257
 75
     1
175
     1
 42
1.0
 92
       12
 66
     7
 43
1.0
 76
     1
 77
     6
 78
     2
 67
     7
 79
     5
170
     0
171
     0
290
     0
174
     0
 93
        1
 44
0.0
173
     0
291
     1
 45
0.0
1001
ACAD
1000
AcDbSavedByObjectVersion
1070
     0
  0
DICTIONARYVAR
  5
311
102
{ACAD_REACTORS
330
310
102
}
330
310
100
DictionaryVariables
280
     0
  1
1:1
  0
DICTIONARYVAR
  5
312
102
{ACAD_REACTORS
330
310
102
}
330
310
100
DictionaryVariables
280
     0
  1
1
  0
DICTIONARY
  5
335
330
3D
100
AcDbDictionary
280
     1
281
     1
  3
ACAD_XREC_ROUNDTRIP
360
336
  0
DICTIONARY
  5
333
330
3C
100
AcDbDictionary
280
     1
281
     1
  3
ACAD_XREC_ROUNDTRIP
360
334
  0
DICTIONARY
  5
337
330
3E
100
AcDbDictionary
280
     1
281
     1
  3
ACAD_XREC_ROUNDTRIP
360
338
  0
DICTIONARY
  5
31B
330
2F
100
AcDbDictionary
280
     1
281
     1
  3
ACAD_XREC_ROUNDTRIP
360
31C
  0
DICTIONARY
  5
31F
330
31
100
AcDbDictionary
280
     1
281
     1
  3
ACAD_XREC_ROUNDTRIP
360
320
  0
DICTIONARY
  5
31D
330
30
100
AcDbDictionary
280
     1
281
     1
  3
ACAD_XREC_ROUNDTRIP
360
31E
  0
DICTIONARY
  5
321
330
32
100
AcDbDictionary
280
     1
281
     1
  3
ACAD_XREC_ROUNDTRIP
360
322
  0
DICTIONARY
  5
329
330
36
100
AcDbDictionary
280
     1
281
     1
  3
ACAD_XREC_ROUNDTRIP
360
32A
  0
DICTIONARY
  5
331
330
3A
100
AcDbDictionary
280
     1
281
     1
  3
ACAD_XREC_ROUNDTRIP
360
332
  0
DICTIONARY
  5
325
330
34
100
AcDbDictionary
280
     1
281
     1
  3
ACAD_XREC_ROUNDTRIP
360
326
  0
DICTIONARY
  5
327
330
35
100
AcDbDictionary
280
     1
281
     1
  3
ACAD_XREC_ROUNDTRIP
360
328
  0
DICTIONARY
  5
32F
330
39
100
AcDbDictionary
280
     1
281
     1
  3
ACAD_XREC_ROUNDTRIP
360
330
  0
DICTIONARY
  5
313
330
2B
100
AcDbDictionary
280
     1
281
     1
  3
ACAD_XREC_ROUNDTRIP
360
314
  0
DICTIONARY
  5
315
330
2C
100
AcDbDictionary
280
     1
281
     1
  3
ACAD_XREC_ROUNDTRIP
360
316
  0
DICTIONARY
  5
317
330
2D
100
AcDbDictionary
280
     1
281
     1
  3
ACAD_XREC_ROUNDTRIP
360
318
  0
DICTIONARY
  5
319
330
2E
100
AcDbDictionary
280
     1
281
     1
  3
ACAD_XREC_ROUNDTRIP
360
31A
  0
DICTIONARY
  5
32D
330
38
100
AcDbDictionary
280
     1
281
     1
  3
ACAD_XREC_ROUNDTRIP
360
32E
  0
DICTIONARY
  5
323
330
33
100
AcDbDictionary
280
     1
281
     1
  3
ACAD_XREC_ROUNDTRIP
360
324
  0
DICTIONARY
  5
32B
330
37
100
AcDbDictionary
280
     1
281
     1
  3
ACAD_XREC_ROUNDTRIP
360
32C
  0
XRECORD
  5
336
102
{ACAD_REACTORS
330
335
102
}
330
335
100
AcDbXrecord
280
     1
102
MATERIAL
148
0.0
149
0.0
149
0.0
 93
        0
 94
      127
282
     0
 72
     1
 77
     1
171
     1
175
     1
179
     1
273
     0
  0
XRECORD
  5
334
102
{ACAD_REACTORS
330
333
102
}
330
333
100
AcDbXrecord
280
     1
102
MATERIAL
148
0.0
149
0.0
149
0.0
 93
        0
 94
      127
282
     0
 72
     1
 77
     1
171
     1
175
     1
179
     1
273
     0
  0
XRECORD
  5
338
102
{ACAD_REACTORS
330
337
102
}
330
337
100
AcDbXrecord
280
     1
102
MATERIAL
148
0.0
149
0.0
149
0.0
 93
        0
 94
      127
282
     0
 72
     1
 77
     1
171
     1
175
     1
179
     1
273
     0
  0
XRECORD
  5
31C
102
{ACAD_REACTORS
330
31B
102
}
330
31B
100
AcDbXrecord
280
     1
102
RTVSPropertyOp0
 70
     1
102
RTVSPropertyOp1
 70
     1
102
RTVSPropertyOp2
 70
     1
102
RTVSPropertyOp3
 70
     1
102
RTVSPropertyOp4
 70
     1
102
RTVSPropertyOp5
 70
     1
102
RTVSPropertyOp6
 70
     1
102
RTVSPropertyOp7
 70
     1
102
RTVSPropertyOp8
 70
     1
102
RTVSPropertyOp9
 70
     1
102
RTVSPropertyOp10
 70
     1
102
RTVSPropertyOp11
 70
     1
102
RTVSPropertyOp12
 70
     1
102
RTVSPropertyOp13
 70
     1
102
RTVSPropertyOp14
 70
     1
102
RTVSPropertyOp15
 70
     1
102
RTVSPropertyOp16
 70
     1
102
RTVSPropertyOp17
 70
     1
102
RTVSPropertyOp18
 70
     1
102
RTVSPropertyOp19
 70
     1
102
RTVSPropertyOp20
 70
     1
102
RTVSPropertyOp21
 70
     1
102
RTVSPropertyOp22
 70
     1
102
RTVSPropertyOp23
 70
     1
102
RTVSPropertyOp24
 70
     1
102
RTVSPropertyOp25
 70
     1
102
RTVSPropertyOp26
 70
     1
102
RTVSPropertyOp27
 70
     1
102
RTVSPropertyOp28
 70
     1
102
RTVSPropertyOp29
 70
     1
102
RTVSPropertyOp30
 70
     1
102
RTVSPropertyOp31
 70
     1
102
RTVSPropertyOp32
 70
     1
102
RTVSPropertyOp33
 70
     1
102
RTVSPropertyOp34
 70
     1
102
RTVSPropertyOp35
 70
     1
102
RTVSPropertyOp36
 70
     1
102
RTVSPropertyOp37
 70
     1
102
RTVSPropertyOp38
 70
     1
102
RTVSPropertyOp39
 70
     1
102
RTVSPropertyOp40
 70
     1
102
RTVSPropertyOp41
 70
     1
102
RTVSPropertyOp42
 70
     1
102
RTVSPropertyOp43
 70
     1
102
RTVSPropertyOp44
 70
     1
102
RTVSPropertyOp45
 70
     1
102
RTVSPropertyOp46
 70
     1
102
RTVSPropertyOp47
 70
     1
102
RTVSPropertyOp48
 70
     1
102
RTVSPropertyOp49
 70
     1
102
RTVSPropertyOp50
 70
     1
102
RTVSPropertyOp51
 70
     0
102
RTVSPropertyOp52
 70
     0
102
RTVSPropertyOp53
 70
     1
102
RTVSPropertyOp54
 70
     1
102
RTVSPropertyOp55
 70
     1
102
RTVSPropertyOp56
 70
     1
102
RTVSPropertyOp57
 70
     1
102
RTVSPost2010Prop28
280
     1
102
RTVSPost2010PropOp28
 70
     1
102
RTVSPost2010Prop29
280
     1
102
RTVSPost2010PropOp29
 70
     1
102
RTVSPost2010Prop30
280
     0
102
RTVSPost2010PropOp30
 70
     1
102
RTVSPost2010Prop31
280
     0
102
RTVSPost2010PropOp31
 70
     1
102
RTVSPost2010Prop32
280
     0
102
RTVSPost2010PropOp32
 70
     1
102
RTVSPost2010Prop33
280
     0
102
RTVSPost2010PropOp33
 70
     1
102
RTVSPost2010Prop34
280
     0
102
RTVSPost2010PropOp34
 70
     1
102
RTVSPost2010Prop35
280
     0
102
RTVSPost2010PropOp35
 70
     1
102
RTVSPost2010Prop36
280
     0
102
RTVSPost2010PropOp36
 70
     1
102
RTVSPost2010Prop37
 90
       50
102
RTVSPost2010PropOp37
 70
     1
102
RTVSPost2010Prop38
140
0.0
102
RTVSPost2010PropOp38
 70
     1
102
RTVSPost2010Prop39
140
1.0
102
RTVSPost2010PropOp39
 70
     1
102
RTVSPost2010Prop40
 90
        0
102
RTVSPost2010PropOp40
 70
     1
102
RTVSPost2010Prop41ColorIndex
 90
       18
102
RTVSPost2010Prop41ColorRGB
 90
        0
102
RTVSPost2010PropOp41
 70
     1
102
RTVSPost2010Prop42
 90
       50
102
RTVSPost2010PropOp42
 70
     1
102
RTVSPost2010Prop43
 90
        3
102
RTVSPost2010PropOp43
 70
     1
102
RTVSPost2010Prop44ColorIndex
 90
        5
102
RTVSPost2010Prop44ColorRGB
 90
      255
102
RTVSPost2010PropOp44
 70
     1
102
RTVSPost2010Prop45
280
     0
102
RTVSPost2010PropOp45
 70
     1
102
RTVSPost2010Prop46
 90
       50
102
RTVSPost2010PropOp46
 70
     1
102
RTVSPost2010Prop47
 90
       50
102
RTVSPost2010PropOp47
 70
     1
102
RTVSPost2010Prop48
 90
       50
102
RTVSPost2010PropOp48
 70
     1
102
RTVSPost2010Prop49
280
     0
102
RTVSPost2010PropOp49
 70
     1
102
RTVSPost2010Prop50
 90
       50
102
RTVSPost2010PropOp50
 70
     1
102
RTVSPost2010Prop51ColorIndex
 90
      256
102
RTVSPost2010Prop51ColorRGB
 90
-16777216
102
RTVSPost2010PropOp51
 70
     0
102
RTVSPost2010Prop52
140
1.0
102
RTVSPost2010PropOp52
 70
     0
102
RTVSPost2010Prop53
 90
        2
102
RTVSPost2010PropOp53
 70
     1
102
RTVSPost2010Prop54
  1
strokes_ogs.tif
102
RTVSPost2010PropOp54
 70
     1
102
RTVSPost2010Prop55
280
     0
102
RTVSPost2010PropOp55
 70
     1
102
RTVSPost2010Prop56
140
1.0
102
RTVSPost2010PropOp56
 70
     1
102
RTVSPost2010Prop57
140
1.0
102
RTVSPost2010PropOp57
 70
     1
  0
XRECORD
  5
320
102
{ACAD_REACTORS
330
31F
102
}
330
31F
100
AcDbXrecord
280
     1
102
RTVSPropertyOp0
 70
     1
102
RTVSPropertyOp1
 70
     1
102
RTVSPropertyOp2
 70
     1
102
RTVSPropertyOp3
 70
     1
102
RTVSPropertyOp4
 70
     1
102
RTVSPropertyOp5
 70
     1
102
RTVSPropertyOp6
 70
     1
102
RTVSPropertyOp7
 70
     1
102
RTVSPropertyOp8
 70
     1
102
RTVSPropertyOp9
 70
     1
102
RTVSPropertyOp10
 70
     1
102
RTVSPropertyOp11
 70
     1
102
RTVSPropertyOp12
 70
     1
102
RTVSPropertyOp13
 70
     1
102
RTVSPropertyOp14
 70
     1
102
RTVSPropertyOp15
 70
     1
102
RTVSPropertyOp16
 70
     1
102
RTVSPropertyOp17
 70
     1
102
RTVSPropertyOp18
 70
     1
102
RTVSPropertyOp19
 70
     1
102
RTVSPropertyOp20
 70
     1
102
RTVSPropertyOp21
 70
     1
102
RTVSPropertyOp22
 70
     1
102
RTVSPropertyOp23
 70
     1
102
RTVSPropertyOp24
 70
     1
102
RTVSPropertyOp25
 70
     1
102
RTVSPropertyOp26
 70
     1
102
RTVSPropertyOp27
 70
     1
102
RTVSPropertyOp28
 70
     1
102
RTVSPropertyOp29
 70
     1
102
RTVSPropertyOp30
 70
     1
102
RTVSPropertyOp31
 70
     1
102
RTVSPropertyOp32
 70
     1
102
RTVSPropertyOp33
 70
     1
102
RTVSPropertyOp34
 70
     1
102
RTVSPropertyOp35
 70
     1
102
RTVSPropertyOp36
 70
     1
102
RTVSPropertyOp37
 70
     1
102
RTVSPropertyOp38
 70
     1
102
RTVSPropertyOp39
 70
     1
102
RTVSPropertyOp40
 70
     1
102
RTVSPropertyOp41
 70
     1
102
RTVSPropertyOp42
 70
     1
102
RTVSPropertyOp43
 70
     1
102
RTVSPropertyOp44
 70
     1
102
RTVSPropertyOp45
 70
     1
102
RTVSPropertyOp46
 70
     1
102
RTVSPropertyOp47
 70
     1
102
RTVSPropertyOp48
 70
     1
102
RTVSPropertyOp49
 70
     1
102
RTVSPropertyOp50
 70
     1
102
RTVSPropertyOp51
 70
     0
102
RTVSPropertyOp52
 70
     0
102
RTVSPropertyOp53
 70
     1
102
RTVSPropertyOp54
 70
     1
102
RTVSPropertyOp55
 70
     1
102
RTVSPropertyOp56
 70
     1
102
RTVSPropertyOp57
 70
     1
102
RTVSPost2010Prop28
280
     0
102
RTVSPost2010PropOp28
 70
     1
102
RTVSPost2010Prop29
280
     1
102
RTVSPost2010PropOp29
 70
     1
102
RTVSPost2010Prop30
280
     1
102
RTVSPost2010PropOp30
 70
     1
102
RTVSPost2010Prop31
280
     0
102
RTVSPost2010PropOp31
 70
     1
102
RTVSPost2010Prop32
280
     0
102
RTVSPost2010PropOp32
 70
     1
102
RTVSPost2010Prop33
280
     0
102
RTVSPost2010PropOp33
 70
     1
102
RTVSPost2010Prop34
280
     0
102
RTVSPost2010PropOp34
 70
     1
102
RTVSPost2010Prop35
280
     0
102
RTVSPost2010PropOp35
 70
     1
102
RTVSPost2010Prop36
280
     0
102
RTVSPost2010PropOp36
 70
     1
102
RTVSPost2010Prop37
 90
       50
102
RTVSPost2010PropOp37
 70
     1
102
RTVSPost2010Prop38
140
0.0
102
RTVSPost2010PropOp38
 70
     1
102
RTVSPost2010Prop39
140
1.0
102
RTVSPost2010PropOp39
 70
     1
102
RTVSPost2010Prop40
 90
        0
102
RTVSPost2010PropOp40
 70
     1
102
RTVSPost2010Prop41ColorIndex
 90
       18
102
RTVSPost2010Prop41ColorRGB
 90
        0
102
RTVSPost2010PropOp41
 70
     1
102
RTVSPost2010Prop42
 90
       50
102
RTVSPost2010PropOp42
 70
     1
102
RTVSPost2010Prop43
 90
        3
102
RTVSPost2010PropOp43
 70
     1
102
RTVSPost2010Prop44ColorIndex
 90
        5
102
RTVSPost2010Prop44ColorRGB
 90
      255
102
RTVSPost2010PropOp44
 70
     1
102
RTVSPost2010Prop45
280
     0
102
RTVSPost2010PropOp45
 70
     1
102
RTVSPost2010Prop46
 90
       50
102
RTVSPost2010PropOp46
 70
     1
102
RTVSPost2010Prop47
 90
       50
102
RTVSPost2010PropOp47
 70
     1
102
RTVSPost2010Prop48
 90
       50
102
RTVSPost2010PropOp48
 70
     1
102
RTVSPost2010Prop49
280
     0
102
RTVSPost2010PropOp49
 70
     1
102
RTVSPost2010Prop50
 90
       50
102
RTVSPost2010PropOp50
 70
     1
102
RTVSPost2010Prop51ColorIndex
 90
      256
102
RTVSPost2010Prop51ColorRGB
 90
-16777216
102
RTVSPost2010PropOp51
 70
     0
102
RTVSPost2010Prop52
140
1.0
102
RTVSPost2010PropOp52
 70
     0
102
RTVSPost2010Prop53
 90
        2
102
RTVSPost2010PropOp53
 70
     1
102
RTVSPost2010Prop54
  1
strokes_ogs.tif
102
RTVSPost2010PropOp54
 70
     1
102
RTVSPost2010Prop55
280
     0
102
RTVSPost2010PropOp55
 70
     1
102
RTVSPost2010Prop56
140
1.0
102
RTVSPost2010PropOp56
 70
     1
102
RTVSPost2010Prop57
140
1.0
102
RTVSPost2010PropOp57
 70
     1
  0
XRECORD
  5
31E
102
{ACAD_REACTORS
330
31D
102
}
330
31D
100
AcDbXrecord
280
     1
102
RTVSPropertyOp0
 70
     1
102
RTVSPropertyOp1
 70
     1
102
RTVSPropertyOp2
 70
     1
102
RTVSPropertyOp3
 70
     1
102
RTVSPropertyOp4
 70
     1
102
RTVSPropertyOp5
 70
     1
102
RTVSPropertyOp6
 70
     1
102
RTVSPropertyOp7
 70
     1
102
RTVSPropertyOp8
 70
     1
102
RTVSPropertyOp9
 70
     1
102
RTVSPropertyOp10
 70
     1
102
RTVSPropertyOp11
 70
     1
102
RTVSPropertyOp12
 70
     1
102
RTVSPropertyOp13
 70
     1
102
RTVSPropertyOp14
 70
     1
102
RTVSPropertyOp15
 70
     1
102
RTVSPropertyOp16
 70
     1
102
RTVSPropertyOp17
 70
     1
102
RTVSPropertyOp18
 70
     1
102
RTVSPropertyOp19
 70
     1
102
RTVSPropertyOp20
 70
     1
102
RTVSPropertyOp21
 70
     1
102
RTVSPropertyOp22
 70
     1
102
RTVSPropertyOp23
 70
     1
102
RTVSPropertyOp24
 70
     1
102
RTVSPropertyOp25
 70
     1
102
RTVSPropertyOp26
 70
     1
102
RTVSPropertyOp27
 70
     1
102
RTVSPropertyOp28
 70
     1
102
RTVSPropertyOp29
 70
     1
102
RTVSPropertyOp30
 70
     1
102
RTVSPropertyOp31
 70
     1
102
RTVSPropertyOp32
 70
     1
102
RTVSPropertyOp33
 70
     1
102
RTVSPropertyOp34
 70
     1
102
RTVSPropertyOp35
 70
     1
102
RTVSPropertyOp36
 70
     1
102
RTVSPropertyOp37
 70
     1
102
RTVSPropertyOp38
 70
     1
102
RTVSPropertyOp39
 70
     1
102
RTVSPropertyOp40
 70
     1
102
RTVSPropertyOp41
 70
     1
102
RTVSPropertyOp42
 70
     1
102
RTVSPropertyOp43
 70
     1
102
RTVSPropertyOp44
 70
     1
102
RTVSPropertyOp45
 70
     1
102
RTVSPropertyOp46
 70
     1
102
RTVSPropertyOp47
 70
     1
102
RTVSPropertyOp48
 70
     1
102
RTVSPropertyOp49
 70
     1
102
RTVSPropertyOp50
 70
     1
102
RTVSPropertyOp51
 70
     0
102
RTVSPropertyOp52
 70
     0
102
RTVSPropertyOp53
 70
     1
102
RTVSPropertyOp54
 70
     1
102
RTVSPropertyOp55
 70
     1
102
RTVSPropertyOp56
 70
     1
102
RTVSPropertyOp57
 70
     1
102
RTVSPost2010Prop28
280
     0
102
RTVSPost2010PropOp28
 70
     1
102
RTVSPost2010Prop29
280
     1
102
RTVSPost2010PropOp29
 70
     1
102
RTVSPost2010Prop30
280
     1
102
RTVSPost2010PropOp30
 70
     1
102
RTVSPost2010Prop31
280
     0
102
RTVSPost2010PropOp31
 70
     1
102
RTVSPost2010Prop32
280
     0
102
RTVSPost2010PropOp32
 70
     1
102
RTVSPost2010Prop33
280
     0
102
RTVSPost2010PropOp33
 70
     1
102
RTVSPost2010Prop34
280
     0
102
RTVSPost2010PropOp34
 70
     1
102
RTVSPost2010Prop35
280
     0
102
RTVSPost2010PropOp35
 70
     1
102
RTVSPost2010Prop36
280
     0
102
RTVSPost2010PropOp36
 70
     1
102
RTVSPost2010Prop37
 90
       50
102
RTVSPost2010PropOp37
 70
     1
102
RTVSPost2010Prop38
140
0.0
102
RTVSPost2010PropOp38
 70
     1
102
RTVSPost2010Prop39
140
1.0
102
RTVSPost2010PropOp39
 70
     1
102
RTVSPost2010Prop40
 90
        0
102
RTVSPost2010PropOp40
 70
     1
102
RTVSPost2010Prop41ColorIndex
 90
       18
102
RTVSPost2010Prop41ColorRGB
 90
        0
102
RTVSPost2010PropOp41
 70
     1
102
RTVSPost2010Prop42
 90
       50
102
RTVSPost2010PropOp42
 70
     1
102
RTVSPost2010Prop43
 90
        3
102
RTVSPost2010PropOp43
 70
     1
102
RTVSPost2010Prop44ColorIndex
 90
        5
102
RTVSPost2010Prop44ColorRGB
 90
      255
102
RTVSPost2010PropOp44
 70
     1
102
RTVSPost2010Prop45
280
     0
102
RTVSPost2010PropOp45
 70
     1
102
RTVSPost2010Prop46
 90
       50
102
RTVSPost2010PropOp46
 70
     1
102
RTVSPost2010Prop47
 90
       50
102
RTVSPost2010PropOp47
 70
     1
102
RTVSPost2010Prop48
 90
       50
102
RTVSPost2010PropOp48
 70
     1
102
RTVSPost2010Prop49
280
     0
102
RTVSPost2010PropOp49
 70
     1
102
RTVSPost2010Prop50
 90
       50
102
RTVSPost2010PropOp50
 70
     1
102
RTVSPost2010Prop51ColorIndex
 90
      256
102
RTVSPost2010Prop51ColorRGB
 90
-16777216
102
RTVSPost2010PropOp51
 70
     0
102
RTVSPost2010Prop52
140
1.0
102
RTVSPost2010PropOp52
 70
     0
102
RTVSPost2010Prop53
 90
        2
102
RTVSPost2010PropOp53
 70
     1
102
RTVSPost2010Prop54
  1
strokes_ogs.tif
102
RTVSPost2010PropOp54
 70
     1
102
RTVSPost2010Prop55
280
     0
102
RTVSPost2010PropOp55
 70
     1
102
RTVSPost2010Prop56
140
1.0
102
RTVSPost2010PropOp56
 70
     1
102
RTVSPost2010Prop57
140
1.0
102
RTVSPost2010PropOp57
 70
     1
  0
XRECORD
  5
322
102
{ACAD_REACTORS
330
321
102
}
330
321
100
AcDbXrecord
280
     1
102
RTVSPropertyOp0
 70
     1
102
RTVSPropertyOp1
 70
     1
102
RTVSPropertyOp2
 70
     1
102
RTVSPropertyOp3
 70
     1
102
RTVSPropertyOp4
 70
     1
102
RTVSPropertyOp5
 70
     1
102
RTVSPropertyOp6
 70
     1
102
RTVSPropertyOp7
 70
     1
102
RTVSPropertyOp8
 70
     1
102
RTVSPropertyOp9
 70
     1
102
RTVSPropertyOp10
 70
     1
102
RTVSPropertyOp11
 70
     1
102
RTVSPropertyOp12
 70
     1
102
RTVSPropertyOp13
 70
     1
102
RTVSPropertyOp14
 70
     1
102
RTVSPropertyOp15
 70
     1
102
RTVSPropertyOp16
 70
     1
102
RTVSPropertyOp17
 70
     1
102
RTVSPropertyOp18
 70
     1
102
RTVSPropertyOp19
 70
     1
102
RTVSPropertyOp20
 70
     1
102
RTVSPropertyOp21
 70
     1
102
RTVSPropertyOp22
 70
     1
102
RTVSPropertyOp23
 70
     1
102
RTVSPropertyOp24
 70
     1
102
RTVSPropertyOp25
 70
     1
102
RTVSPropertyOp26
 70
     1
102
RTVSPropertyOp27
 70
     1
102
RTVSPropertyOp28
 70
     1
102
RTVSPropertyOp29
 70
     1
102
RTVSPropertyOp30
 70
     1
102
RTVSPropertyOp31
 70
     1
102
RTVSPropertyOp32
 70
     1
102
RTVSPropertyOp33
 70
     1
102
RTVSPropertyOp34
 70
     1
102
RTVSPropertyOp35
 70
     1
102
RTVSPropertyOp36
 70
     1
102
RTVSPropertyOp37
 70
     1
102
RTVSPropertyOp38
 70
     1
102
RTVSPropertyOp39
 70
     1
102
RTVSPropertyOp40
 70
     1
102
RTVSPropertyOp41
 70
     1
102
RTVSPropertyOp42
 70
     1
102
RTVSPropertyOp43
 70
     1
102
RTVSPropertyOp44
 70
     1
102
RTVSPropertyOp45
 70
     1
102
RTVSPropertyOp46
 70
     1
102
RTVSPropertyOp47
 70
     1
102
RTVSPropertyOp48
 70
     1
102
RTVSPropertyOp49
 70
     1
102
RTVSPropertyOp50
 70
     1
102
RTVSPropertyOp51
 70
     0
102
RTVSPropertyOp52
 70
     0
102
RTVSPropertyOp53
 70
     1
102
RTVSPropertyOp54
 70
     1
102
RTVSPropertyOp55
 70
     1
102
RTVSPropertyOp56
 70
     1
102
RTVSPropertyOp57
 70
     1
102
RTVSPost2010Prop28
280
     0
102
RTVSPost2010PropOp28
 70
     1
102
RTVSPost2010Prop29
280
     1
102
RTVSPost2010PropOp29
 70
     1
102
RTVSPost2010Prop30
280
     1
102
RTVSPost2010PropOp30
 70
     1
102
RTVSPost2010Prop31
280
     0
102
RTVSPost2010PropOp31
 70
     1
102
RTVSPost2010Prop32
280
     0
102
RTVSPost2010PropOp32
 70
     1
102
RTVSPost2010Prop33
280
     0
102
RTVSPost2010PropOp33
 70
     1
102
RTVSPost2010Prop34
280
     0
102
RTVSPost2010PropOp34
 70
     1
102
RTVSPost2010Prop35
280
     0
102
RTVSPost2010PropOp35
 70
     1
102
RTVSPost2010Prop36
280
     0
102
RTVSPost2010PropOp36
 70
     1
102
RTVSPost2010Prop37
 90
       50
102
RTVSPost2010PropOp37
 70
     1
102
RTVSPost2010Prop38
140
0.0
102
RTVSPost2010PropOp38
 70
     1
102
RTVSPost2010Prop39
140
1.0
102
RTVSPost2010PropOp39
 70
     1
102
RTVSPost2010Prop40
 90
        0
102
RTVSPost2010PropOp40
 70
     1
102
RTVSPost2010Prop41ColorIndex
 90
       18
102
RTVSPost2010Prop41ColorRGB
 90
        0
102
RTVSPost2010PropOp41
 70
     1
102
RTVSPost2010Prop42
 90
       50
102
RTVSPost2010PropOp42
 70
     1
102
RTVSPost2010Prop43
 90
        3
102
RTVSPost2010PropOp43
 70
     1
102
RTVSPost2010Prop44ColorIndex
 90
        5
102
RTVSPost2010Prop44ColorRGB
 90
      255
102
RTVSPost2010PropOp44
 70
     1
102
RTVSPost2010Prop45
280
     0
102
RTVSPost2010PropOp45
 70
     1
102
RTVSPost2010Prop46
 90
       50
102
RTVSPost2010PropOp46
 70
     1
102
RTVSPost2010Prop47
 90
       50
102
RTVSPost2010PropOp47
 70
     1
102
RTVSPost2010Prop48
 90
       50
102
RTVSPost2010PropOp48
 70
     1
102
RTVSPost2010Prop49
280
     0
102
RTVSPost2010PropOp49
 70
     1
102
RTVSPost2010Prop50
 90
       50
102
RTVSPost2010PropOp50
 70
     1
102
RTVSPost2010Prop51ColorIndex
 90
      256
102
RTVSPost2010Prop51ColorRGB
 90
-16777216
102
RTVSPost2010PropOp51
 70
     0
102
RTVSPost2010Prop52
140
1.0
102
RTVSPost2010PropOp52
 70
     0
102
RTVSPost2010Prop53
 90
        2
102
RTVSPost2010PropOp53
 70
     1
102
RTVSPost2010Prop54
  1
strokes_ogs.tif
102
RTVSPost2010PropOp54
 70
     1
102
RTVSPost2010Prop55
280
     0
102
RTVSPost2010PropOp55
 70
     1
102
RTVSPost2010Prop56
140
1.0
102
RTVSPost2010PropOp56
 70
     1
102
RTVSPost2010Prop57
140
1.0
102
RTVSPost2010PropOp57
 70
     1
  0
XRECORD
  5
32A
102
{ACAD_REACTORS
330
329
102
}
330
329
100
AcDbXrecord
280
     1
102
RTVSPropertyOp0
 70
     1
102
RTVSPropertyOp1
 70
     1
102
RTVSPropertyOp2
 70
     1
102
RTVSPropertyOp3
 70
     1
102
RTVSPropertyOp4
 70
     1
102
RTVSPropertyOp5
 70
     1
102
RTVSPropertyOp6
 70
     1
102
RTVSPropertyOp7
 70
     1
102
RTVSPropertyOp8
 70
     1
102
RTVSPropertyOp9
 70
     1
102
RTVSPropertyOp10
 70
     1
102
RTVSPropertyOp11
 70
     1
102
RTVSPropertyOp12
 70
     1
102
RTVSPropertyOp13
 70
     1
102
RTVSPropertyOp14
 70
     1
102
RTVSPropertyOp15
 70
     1
102
RTVSPropertyOp16
 70
     1
102
RTVSPropertyOp17
 70
     1
102
RTVSPropertyOp18
 70
     1
102
RTVSPropertyOp19
 70
     1
102
RTVSPropertyOp20
 70
     1
102
RTVSPropertyOp21
 70
     1
102
RTVSPropertyOp22
 70
     1
102
RTVSPropertyOp23
 70
     1
102
RTVSPropertyOp24
 70
     1
102
RTVSPropertyOp25
 70
     1
102
RTVSPropertyOp26
 70
     1
102
RTVSPropertyOp27
 70
     1
102
RTVSPropertyOp28
 70
     1
102
RTVSPropertyOp29
 70
     1
102
RTVSPropertyOp30
 70
     1
102
RTVSPropertyOp31
 70
     1
102
RTVSPropertyOp32
 70
     1
102
RTVSPropertyOp33
 70
     1
102
RTVSPropertyOp34
 70
     1
102
RTVSPropertyOp35
 70
     1
102
RTVSPropertyOp36
 70
     1
102
RTVSPropertyOp37
 70
     1
102
RTVSPropertyOp38
 70
     1
102
RTVSPropertyOp39
 70
     1
102
RTVSPropertyOp40
 70
     1
102
RTVSPropertyOp41
 70
     1
102
RTVSPropertyOp42
 70
     1
102
RTVSPropertyOp43
 70
     1
102
RTVSPropertyOp44
 70
     1
102
RTVSPropertyOp45
 70
     1
102
RTVSPropertyOp46
 70
     1
102
RTVSPropertyOp47
 70
     1
102
RTVSPropertyOp48
 70
     1
102
RTVSPropertyOp49
 70
     1
102
RTVSPropertyOp50
 70
     1
102
RTVSPropertyOp51
 70
     0
102
RTVSPropertyOp52
 70
     0
102
RTVSPropertyOp53
 70
     1
102
RTVSPropertyOp54
 70
     1
102
RTVSPropertyOp55
 70
     1
102
RTVSPropertyOp56
 70
     1
102
RTVSPropertyOp57
 70
     1
102
RTVSPost2010Prop28
280
     0
102
RTVSPost2010PropOp28
 70
     1
102
RTVSPost2010Prop29
280
     1
102
RTVSPost2010PropOp29
 70
     1
102
RTVSPost2010Prop30
280
     1
102
RTVSPost2010PropOp30
 70
     1
102
RTVSPost2010Prop31
280
     0
102
RTVSPost2010PropOp31
 70
     1
102
RTVSPost2010Prop32
280
     0
102
RTVSPost2010PropOp32
 70
     1
102
RTVSPost2010Prop33
280
     0
102
RTVSPost2010PropOp33
 70
     1
102
RTVSPost2010Prop34
280
     0
102
RTVSPost2010PropOp34
 70
     1
102
RTVSPost2010Prop35
280
     0
102
RTVSPost2010PropOp35
 70
     1
102
RTVSPost2010Prop36
280
     0
102
RTVSPost2010PropOp36
 70
     1
102
RTVSPost2010Prop37
 90
       50
102
RTVSPost2010PropOp37
 70
     1
102
RTVSPost2010Prop38
140
0.0
102
RTVSPost2010PropOp38
 70
     1
102
RTVSPost2010Prop39
140
1.0
102
RTVSPost2010PropOp39
 70
     1
102
RTVSPost2010Prop40
 90
        0
102
RTVSPost2010PropOp40
 70
     1
102
RTVSPost2010Prop41ColorIndex
 90
       18
102
RTVSPost2010Prop41ColorRGB
 90
        0
102
RTVSPost2010PropOp41
 70
     1
102
RTVSPost2010Prop42
 90
       50
102
RTVSPost2010PropOp42
 70
     1
102
RTVSPost2010Prop43
 90
        3
102
RTVSPost2010PropOp43
 70
     1
102
RTVSPost2010Prop44ColorIndex
 90
        5
102
RTVSPost2010Prop44ColorRGB
 90
      255
102
RTVSPost2010PropOp44
 70
     1
102
RTVSPost2010Prop45
280
     0
102
RTVSPost2010PropOp45
 70
     1
102
RTVSPost2010Prop46
 90
       50
102
RTVSPost2010PropOp46
 70
     1
102
RTVSPost2010Prop47
 90
       50
102
RTVSPost2010PropOp47
 70
     1
102
RTVSPost2010Prop48
 90
       50
102
RTVSPost2010PropOp48
 70
     1
102
RTVSPost2010Prop49
280
     0
102
RTVSPost2010PropOp49
 70
     1
102
RTVSPost2010Prop50
 90
       50
102
RTVSPost2010PropOp50
 70
     1
102
RTVSPost2010Prop51ColorIndex
 90
      256
102
RTVSPost2010Prop51ColorRGB
 90
-16777216
102
RTVSPost2010PropOp51
 70
     0
102
RTVSPost2010Prop52
140
1.0
102
RTVSPost2010PropOp52
 70
     0
102
RTVSPost2010Prop53
 90
        2
102
RTVSPost2010PropOp53
 70
     1
102
RTVSPost2010Prop54
  1
strokes_ogs.tif
102
RTVSPost2010PropOp54
 70
     1
102
RTVSPost2010Prop55
280
     0
102
RTVSPost2010PropOp55
 70
     1
102
RTVSPost2010Prop56
140
1.0
102
RTVSPost2010PropOp56
 70
     1
102
RTVSPost2010Prop57
140
1.0
102
RTVSPost2010PropOp57
 70
     1
  0
XRECORD
  5
332
102
{ACAD_REACTORS
330
331
102
}
330
331
100
AcDbXrecord
280
     1
102
RTVSPropertyOp0
 70
     1
102
RTVSPropertyOp1
 70
     1
102
RTVSPropertyOp2
 70
     1
102
RTVSPropertyOp3
 70
     1
102
RTVSPropertyOp4
 70
     1
102
RTVSPropertyOp5
 70
     1
102
RTVSPropertyOp6
 70
     1
102
RTVSPropertyOp7
 70
     1
102
RTVSPropertyOp8
 70
     1
102
RTVSPropertyOp9
 70
     1
102
RTVSPropertyOp10
 70
     1
102
RTVSPropertyOp11
 70
     1
102
RTVSPropertyOp12
 70
     1
102
RTVSPropertyOp13
 70
     1
102
RTVSPropertyOp14
 70
     1
102
RTVSPropertyOp15
 70
     1
102
RTVSPropertyOp16
 70
     1
102
RTVSPropertyOp17
 70
     1
102
RTVSPropertyOp18
 70
     1
102
RTVSPropertyOp19
 70
     1
102
RTVSPropertyOp20
 70
     1
102
RTVSPropertyOp21
 70
     1
102
RTVSPropertyOp22
 70
     1
102
RTVSPropertyOp23
 70
     1
102
RTVSPropertyOp24
 70
     1
102
RTVSPropertyOp25
 70
     1
102
RTVSPropertyOp26
 70
     1
102
RTVSPropertyOp27
 70
     1
102
RTVSPropertyOp28
 70
     1
102
RTVSPropertyOp29
 70
     1
102
RTVSPropertyOp30
 70
     1
102
RTVSPropertyOp31
 70
     1
102
RTVSPropertyOp32
 70
     1
102
RTVSPropertyOp33
 70
     1
102
RTVSPropertyOp34
 70
     1
102
RTVSPropertyOp35
 70
     1
102
RTVSPropertyOp36
 70
     1
102
RTVSPropertyOp37
 70
     1
102
RTVSPropertyOp38
 70
     1
102
RTVSPropertyOp39
 70
     1
102
RTVSPropertyOp40
 70
     1
102
RTVSPropertyOp41
 70
     1
102
RTVSPropertyOp42
 70
     1
102
RTVSPropertyOp43
 70
     1
102
RTVSPropertyOp44
 70
     1
102
RTVSPropertyOp45
 70
     1
102
RTVSPropertyOp46
 70
     1
102
RTVSPropertyOp47
 70
     1
102
RTVSPropertyOp48
 70
     1
102
RTVSPropertyOp49
 70
     1
102
RTVSPropertyOp50
 70
     1
102
RTVSPropertyOp51
 70
     0
102
RTVSPropertyOp52
 70
     0
102
RTVSPropertyOp53
 70
     1
102
RTVSPropertyOp54
 70
     1
102
RTVSPropertyOp55
 70
     1
102
RTVSPropertyOp56
 70
     1
102
RTVSPropertyOp57
 70
     1
102
RTVSPost2010Prop28
280
     0
102
RTVSPost2010PropOp28
 70
     1
102
RTVSPost2010Prop29
280
     1
102
RTVSPost2010PropOp29
 70
     1
102
RTVSPost2010Prop30
280
     1
102
RTVSPost2010PropOp30
 70
     1
102
RTVSPost2010Prop31
280
     0
102
RTVSPost2010PropOp31
 70
     1
102
RTVSPost2010Prop32
280
     0
102
RTVSPost2010PropOp32
 70
     1
102
RTVSPost2010Prop33
280
     0
102
RTVSPost2010PropOp33
 70
     1
102
RTVSPost2010Prop34
280
     0
102
RTVSPost2010PropOp34
 70
     1
102
RTVSPost2010Prop35
280
     0
102
RTVSPost2010PropOp35
 70
     1
102
RTVSPost2010Prop36
280
     0
102
RTVSPost2010PropOp36
 70
     1
102
RTVSPost2010Prop37
 90
       50
102
RTVSPost2010PropOp37
 70
     1
102
RTVSPost2010Prop38
140
0.0
102
RTVSPost2010PropOp38
 70
     1
102
RTVSPost2010Prop39
140
1.0
102
RTVSPost2010PropOp39
 70
     1
102
RTVSPost2010Prop40
 90
        0
102
RTVSPost2010PropOp40
 70
     1
102
RTVSPost2010Prop41ColorIndex
 90
       18
102
RTVSPost2010Prop41ColorRGB
 90
        0
102
RTVSPost2010PropOp41
 70
     1
102
RTVSPost2010Prop42
 90
       50
102
RTVSPost2010PropOp42
 70
     1
102
RTVSPost2010Prop43
 90
        3
102
RTVSPost2010PropOp43
 70
     1
102
RTVSPost2010Prop44ColorIndex
 90
        5
102
RTVSPost2010Prop44ColorRGB
 90
      255
102
RTVSPost2010PropOp44
 70
     1
102
RTVSPost2010Prop45
280
     0
102
RTVSPost2010PropOp45
 70
     1
102
RTVSPost2010Prop46
 90
       50
102
RTVSPost2010PropOp46
 70
     1
102
RTVSPost2010Prop47
 90
       50
102
RTVSPost2010PropOp47
 70
     1
102
RTVSPost2010Prop48
 90
       50
102
RTVSPost2010PropOp48
 70
     1
102
RTVSPost2010Prop49
280
     0
102
RTVSPost2010PropOp49
 70
     1
102
RTVSPost2010Prop50
 90
       50
102
RTVSPost2010PropOp50
 70
     1
102
RTVSPost2010Prop51ColorIndex
 90
      256
102
RTVSPost2010Prop51ColorRGB
 90
-16777216
102
RTVSPost2010PropOp51
 70
     0
102
RTVSPost2010Prop52
140
1.0
102
RTVSPost2010PropOp52
 70
     0
102
RTVSPost2010Prop53
 90
        2
102
RTVSPost2010PropOp53
 70
     1
102
RTVSPost2010Prop54
  1
strokes_ogs.tif
102
RTVSPost2010PropOp54
 70
     1
102
RTVSPost2010Prop55
280
     0
102
RTVSPost2010PropOp55
 70
     1
102
RTVSPost2010Prop56
140
1.0
102
RTVSPost2010PropOp56
 70
     1
102
RTVSPost2010Prop57
140
1.0
102
RTVSPost2010PropOp57
 70
     1
  0
XRECORD
  5
326
102
{ACAD_REACTORS
330
325
102
}
330
325
100
AcDbXrecord
280
     1
102
RTVSPropertyOp0
 70
     1
102
RTVSPropertyOp1
 70
     1
102
RTVSPropertyOp2
 70
     1
102
RTVSPropertyOp3
 70
     1
102
RTVSPropertyOp4
 70
     1
102
RTVSPropertyOp5
 70
     1
102
RTVSPropertyOp6
 70
     1
102
RTVSPropertyOp7
 70
     1
102
RTVSPropertyOp8
 70
     1
102
RTVSPropertyOp9
 70
     1
102
RTVSPropertyOp10
 70
     1
102
RTVSPropertyOp11
 70
     1
102
RTVSPropertyOp12
 70
     1
102
RTVSPropertyOp13
 70
     1
102
RTVSPropertyOp14
 70
     1
102
RTVSPropertyOp15
 70
     1
102
RTVSPropertyOp16
 70
     1
102
RTVSPropertyOp17
 70
     1
102
RTVSPropertyOp18
 70
     1
102
RTVSPropertyOp19
 70
     1
102
RTVSPropertyOp20
 70
     1
102
RTVSPropertyOp21
 70
     1
102
RTVSPropertyOp22
 70
     1
102
RTVSPropertyOp23
 70
     1
102
RTVSPropertyOp24
 70
     1
102
RTVSPropertyOp25
 70
     1
102
RTVSPropertyOp26
 70
     1
102
RTVSPropertyOp27
 70
     1
102
RTVSPropertyOp28
 70
     1
102
RTVSPropertyOp29
 70
     1
102
RTVSPropertyOp30
 70
     1
102
RTVSPropertyOp31
 70
     1
102
RTVSPropertyOp32
 70
     1
102
RTVSPropertyOp33
 70
     1
102
RTVSPropertyOp34
 70
     1
102
RTVSPropertyOp35
 70
     1
102
RTVSPropertyOp36
 70
     1
102
RTVSPropertyOp37
 70
     1
102
RTVSPropertyOp38
 70
     1
102
RTVSPropertyOp39
 70
     1
102
RTVSPropertyOp40
 70
     1
102
RTVSPropertyOp41
 70
     1
102
RTVSPropertyOp42
 70
     1
102
RTVSPropertyOp43
 70
     1
102
RTVSPropertyOp44
 70
     1
102
RTVSPropertyOp45
 70
     1
102
RTVSPropertyOp46
 70
     1
102
RTVSPropertyOp47
 70
     1
102
RTVSPropertyOp48
 70
     1
102
RTVSPropertyOp49
 70
     1
102
RTVSPropertyOp50
 70
     1
102
RTVSPropertyOp51
 70
     0
102
RTVSPropertyOp52
 70
     0
102
RTVSPropertyOp53
 70
     1
102
RTVSPropertyOp54
 70
     1
102
RTVSPropertyOp55
 70
     1
102
RTVSPropertyOp56
 70
     1
102
RTVSPropertyOp57
 70
     1
102
RTVSPost2010Prop28
280
     0
102
RTVSPost2010PropOp28
 70
     1
102
RTVSPost2010Prop29
280
     1
102
RTVSPost2010PropOp29
 70
     1
102
RTVSPost2010Prop30
280
     1
102
RTVSPost2010PropOp30
 70
     1
102
RTVSPost2010Prop31
280
     0
102
RTVSPost2010PropOp31
 70
     1
102
RTVSPost2010Prop32
280
     0
102
RTVSPost2010PropOp32
 70
     1
102
RTVSPost2010Prop33
280
     0
102
RTVSPost2010PropOp33
 70
     1
102
RTVSPost2010Prop34
280
     0
102
RTVSPost2010PropOp34
 70
     1
102
RTVSPost2010Prop35
280
     0
102
RTVSPost2010PropOp35
 70
     1
102
RTVSPost2010Prop36
280
     0
102
RTVSPost2010PropOp36
 70
     1
102
RTVSPost2010Prop37
 90
       50
102
RTVSPost2010PropOp37
 70
     1
102
RTVSPost2010Prop38
140
0.0
102
RTVSPost2010PropOp38
 70
     1
102
RTVSPost2010Prop39
140
1.0
102
RTVSPost2010PropOp39
 70
     1
102
RTVSPost2010Prop40
 90
        0
102
RTVSPost2010PropOp40
 70
     1
102
RTVSPost2010Prop41ColorIndex
 90
       18
102
RTVSPost2010Prop41ColorRGB
 90
        0
102
RTVSPost2010PropOp41
 70
     1
102
RTVSPost2010Prop42
 90
       50
102
RTVSPost2010PropOp42
 70
     1
102
RTVSPost2010Prop43
 90
        3
102
RTVSPost2010PropOp43
 70
     1
102
RTVSPost2010Prop44ColorIndex
 90
        5
102
RTVSPost2010Prop44ColorRGB
 90
      255
102
RTVSPost2010PropOp44
 70
     1
102
RTVSPost2010Prop45
280
     0
102
RTVSPost2010PropOp45
 70
     1
102
RTVSPost2010Prop46
 90
       50
102
RTVSPost2010PropOp46
 70
     1
102
RTVSPost2010Prop47
 90
       50
102
RTVSPost2010PropOp47
 70
     1
102
RTVSPost2010Prop48
 90
       50
102
RTVSPost2010PropOp48
 70
     1
102
RTVSPost2010Prop49
280
     0
102
RTVSPost2010PropOp49
 70
     1
102
RTVSPost2010Prop50
 90
       50
102
RTVSPost2010PropOp50
 70
     1
102
RTVSPost2010Prop51ColorIndex
 90
      256
102
RTVSPost2010Prop51ColorRGB
 90
-16777216
102
RTVSPost2010PropOp51
 70
     0
102
RTVSPost2010Prop52
140
1.0
102
RTVSPost2010PropOp52
 70
     0
102
RTVSPost2010Prop53
 90
        2
102
RTVSPost2010PropOp53
 70
     1
102
RTVSPost2010Prop54
  1
strokes_ogs.tif
102
RTVSPost2010PropOp54
 70
     1
102
RTVSPost2010Prop55
280
     0
102
RTVSPost2010PropOp55
 70
     1
102
RTVSPost2010Prop56
140
1.0
102
RTVSPost2010PropOp56
 70
     1
102
RTVSPost2010Prop57
140
1.0
102
RTVSPost2010PropOp57
 70
     1
  0
XRECORD
  5
328
102
{ACAD_REACTORS
330
327
102
}
330
327
100
AcDbXrecord
280
     1
102
RTVSPropertyOp0
 70
     1
102
RTVSPropertyOp1
 70
     1
102
RTVSPropertyOp2
 70
     1
102
RTVSPropertyOp3
 70
     1
102
RTVSPropertyOp4
 70
     1
102
RTVSPropertyOp5
 70
     1
102
RTVSPropertyOp6
 70
     1
102
RTVSPropertyOp7
 70
     1
102
RTVSPropertyOp8
 70
     1
102
RTVSPropertyOp9
 70
     1
102
RTVSPropertyOp10
 70
     1
102
RTVSPropertyOp11
 70
     1
102
RTVSPropertyOp12
 70
     1
102
RTVSPropertyOp13
 70
     1
102
RTVSPropertyOp14
 70
     1
102
RTVSPropertyOp15
 70
     1
102
RTVSPropertyOp16
 70
     1
102
RTVSPropertyOp17
 70
     1
102
RTVSPropertyOp18
 70
     1
102
RTVSPropertyOp19
 70
     1
102
RTVSPropertyOp20
 70
     1
102
RTVSPropertyOp21
 70
     1
102
RTVSPropertyOp22
 70
     1
102
RTVSPropertyOp23
 70
     1
102
RTVSPropertyOp24
 70
     1
102
RTVSPropertyOp25
 70
     1
102
RTVSPropertyOp26
 70
     1
102
RTVSPropertyOp27
 70
     1
102
RTVSPropertyOp28
 70
     1
102
RTVSPropertyOp29
 70
     1
102
RTVSPropertyOp30
 70
     1
102
RTVSPropertyOp31
 70
     1
102
RTVSPropertyOp32
 70
     1
102
RTVSPropertyOp33
 70
     1
102
RTVSPropertyOp34
 70
     1
102
RTVSPropertyOp35
 70
     1
102
RTVSPropertyOp36
 70
     1
102
RTVSPropertyOp37
 70
     1
102
RTVSPropertyOp38
 70
     1
102
RTVSPropertyOp39
 70
     1
102
RTVSPropertyOp40
 70
     1
102
RTVSPropertyOp41
 70
     1
102
RTVSPropertyOp42
 70
     1
102
RTVSPropertyOp43
 70
     1
102
RTVSPropertyOp44
 70
     1
102
RTVSPropertyOp45
 70
     1
102
RTVSPropertyOp46
 70
     1
102
RTVSPropertyOp47
 70
     1
102
RTVSPropertyOp48
 70
     1
102
RTVSPropertyOp49
 70
     1
102
RTVSPropertyOp50
 70
     1
102
RTVSPropertyOp51
 70
     0
102
RTVSPropertyOp52
 70
     0
102
RTVSPropertyOp53
 70
     1
102
RTVSPropertyOp54
 70
     1
102
RTVSPropertyOp55
 70
     1
102
RTVSPropertyOp56
 70
     1
102
RTVSPropertyOp57
 70
     1
102
RTVSPost2010Prop28
280
     0
102
RTVSPost2010PropOp28
 70
     1
102
RTVSPost2010Prop29
280
     1
102
RTVSPost2010PropOp29
 70
     1
102
RTVSPost2010Prop30
280
     1
102
RTVSPost2010PropOp30
 70
     1
102
RTVSPost2010Prop31
280
     0
102
RTVSPost2010PropOp31
 70
     1
102
RTVSPost2010Prop32
280
     0
102
RTVSPost2010PropOp32
 70
     1
102
RTVSPost2010Prop33
280
     0
102
RTVSPost2010PropOp33
 70
     1
102
RTVSPost2010Prop34
280
     0
102
RTVSPost2010PropOp34
 70
     1
102
RTVSPost2010Prop35
280
     0
102
RTVSPost2010PropOp35
 70
     1
102
RTVSPost2010Prop36
280
     0
102
RTVSPost2010PropOp36
 70
     1
102
RTVSPost2010Prop37
 90
       50
102
RTVSPost2010PropOp37
 70
     1
102
RTVSPost2010Prop38
140
0.0
102
RTVSPost2010PropOp38
 70
     1
102
RTVSPost2010Prop39
140
1.0
102
RTVSPost2010PropOp39
 70
     1
102
RTVSPost2010Prop40
 90
        0
102
RTVSPost2010PropOp40
 70
     1
102
RTVSPost2010Prop41ColorIndex
 90
       18
102
RTVSPost2010Prop41ColorRGB
 90
        0
102
RTVSPost2010PropOp41
 70
     1
102
RTVSPost2010Prop42
 90
       50
102
RTVSPost2010PropOp42
 70
     1
102
RTVSPost2010Prop43
 90
        3
102
RTVSPost2010PropOp43
 70
     1
102
RTVSPost2010Prop44ColorIndex
 90
        5
102
RTVSPost2010Prop44ColorRGB
 90
      255
102
RTVSPost2010PropOp44
 70
     1
102
RTVSPost2010Prop45
280
     0
102
RTVSPost2010PropOp45
 70
     1
102
RTVSPost2010Prop46
 90
       50
102
RTVSPost2010PropOp46
 70
     1
102
RTVSPost2010Prop47
 90
       50
102
RTVSPost2010PropOp47
 70
     1
102
RTVSPost2010Prop48
 90
       50
102
RTVSPost2010PropOp48
 70
     1
102
RTVSPost2010Prop49
280
     0
102
RTVSPost2010PropOp49
 70
     1
102
RTVSPost2010Prop50
 90
       50
102
RTVSPost2010PropOp50
 70
     1
102
RTVSPost2010Prop51ColorIndex
 90
      256
102
RTVSPost2010Prop51ColorRGB
 90
-16777216
102
RTVSPost2010PropOp51
 70
     0
102
RTVSPost2010Prop52
140
1.0
102
RTVSPost2010PropOp52
 70
     0
102
RTVSPost2010Prop53
 90
        2
102
RTVSPost2010PropOp53
 70
     1
102
RTVSPost2010Prop54
  1
strokes_ogs.tif
102
RTVSPost2010PropOp54
 70
     1
102
RTVSPost2010Prop55
280
     0
102
RTVSPost2010PropOp55
 70
     1
102
RTVSPost2010Prop56
140
1.0
102
RTVSPost2010PropOp56
 70
     1
102
RTVSPost2010Prop57
140
1.0
102
RTVSPost2010PropOp57
 70
     1
  0
XRECORD
  5
330
102
{ACAD_REACTORS
330
32F
102
}
330
32F
100
AcDbXrecord
280
     1
102
RTVSPropertyOp0
 70
     1
102
RTVSPropertyOp1
 70
     1
102
RTVSPropertyOp2
 70
     1
102
RTVSPropertyOp3
 70
     1
102
RTVSPropertyOp4
 70
     1
102
RTVSPropertyOp5
 70
     1
102
RTVSPropertyOp6
 70
     1
102
RTVSPropertyOp7
 70
     1
102
RTVSPropertyOp8
 70
     1
102
RTVSPropertyOp9
 70
     1
102
RTVSPropertyOp10
 70
     1
102
RTVSPropertyOp11
 70
     1
102
RTVSPropertyOp12
 70
     1
102
RTVSPropertyOp13
 70
     1
102
RTVSPropertyOp14
 70
     1
102
RTVSPropertyOp15
 70
     1
102
RTVSPropertyOp16
 70
     1
102
RTVSPropertyOp17
 70
     1
102
RTVSPropertyOp18
 70
     1
102
RTVSPropertyOp19
 70
     1
102
RTVSPropertyOp20
 70
     1
102
RTVSPropertyOp21
 70
     1
102
RTVSPropertyOp22
 70
     1
102
RTVSPropertyOp23
 70
     1
102
RTVSPropertyOp24
 70
     1
102
RTVSPropertyOp25
 70
     1
102
RTVSPropertyOp26
 70
     1
102
RTVSPropertyOp27
 70
     1
102
RTVSPropertyOp28
 70
     1
102
RTVSPropertyOp29
 70
     1
102
RTVSPropertyOp30
 70
     1
102
RTVSPropertyOp31
 70
     1
102
RTVSPropertyOp32
 70
     1
102
RTVSPropertyOp33
 70
     1
102
RTVSPropertyOp34
 70
     1
102
RTVSPropertyOp35
 70
     1
102
RTVSPropertyOp36
 70
     1
102
RTVSPropertyOp37
 70
     1
102
RTVSPropertyOp38
 70
     1
102
RTVSPropertyOp39
 70
     1
102
RTVSPropertyOp40
 70
     1
102
RTVSPropertyOp41
 70
     1
102
RTVSPropertyOp42
 70
     1
102
RTVSPropertyOp43
 70
     1
102
RTVSPropertyOp44
 70
     1
102
RTVSPropertyOp45
 70
     1
102
RTVSPropertyOp46
 70
     1
102
RTVSPropertyOp47
 70
     1
102
RTVSPropertyOp48
 70
     1
102
RTVSPropertyOp49
 70
     1
102
RTVSPropertyOp50
 70
     1
102
RTVSPropertyOp51
 70
     0
102
RTVSPropertyOp52
 70
     0
102
RTVSPropertyOp53
 70
     1
102
RTVSPropertyOp54
 70
     1
102
RTVSPropertyOp55
 70
     1
102
RTVSPropertyOp56
 70
     1
102
RTVSPropertyOp57
 70
     1
102
RTVSPost2010Prop28
280
     0
102
RTVSPost2010PropOp28
 70
     1
102
RTVSPost2010Prop29
280
     1
102
RTVSPost2010PropOp29
 70
     1
102
RTVSPost2010Prop30
280
     1
102
RTVSPost2010PropOp30
 70
     1
102
RTVSPost2010Prop31
280
     0
102
RTVSPost2010PropOp31
 70
     1
102
RTVSPost2010Prop32
280
     0
102
RTVSPost2010PropOp32
 70
     1
102
RTVSPost2010Prop33
280
     0
102
RTVSPost2010PropOp33
 70
     1
102
RTVSPost2010Prop34
280
     0
102
RTVSPost2010PropOp34
 70
     1
102
RTVSPost2010Prop35
280
     0
102
RTVSPost2010PropOp35
 70
     1
102
RTVSPost2010Prop36
280
     0
102
RTVSPost2010PropOp36
 70
     1
102
RTVSPost2010Prop37
 90
       50
102
RTVSPost2010PropOp37
 70
     1
102
RTVSPost2010Prop38
140
0.0
102
RTVSPost2010PropOp38
 70
     1
102
RTVSPost2010Prop39
140
1.0
102
RTVSPost2010PropOp39
 70
     1
102
RTVSPost2010Prop40
 90
        0
102
RTVSPost2010PropOp40
 70
     1
102
RTVSPost2010Prop41ColorIndex
 90
       18
102
RTVSPost2010Prop41ColorRGB
 90
        0
102
RTVSPost2010PropOp41
 70
     1
102
RTVSPost2010Prop42
 90
       50
102
RTVSPost2010PropOp42
 70
     1
102
RTVSPost2010Prop43
 90
        3
102
RTVSPost2010PropOp43
 70
     1
102
RTVSPost2010Prop44ColorIndex
 90
        5
102
RTVSPost2010Prop44ColorRGB
 90
      255
102
RTVSPost2010PropOp44
 70
     1
102
RTVSPost2010Prop45
280
     0
102
RTVSPost2010PropOp45
 70
     1
102
RTVSPost2010Prop46
 90
       50
102
RTVSPost2010PropOp46
 70
     1
102
RTVSPost2010Prop47
 90
       50
102
RTVSPost2010PropOp47
 70
     1
102
RTVSPost2010Prop48
 90
       50
102
RTVSPost2010PropOp48
 70
     1
102
RTVSPost2010Prop49
280
     0
102
RTVSPost2010PropOp49
 70
     1
102
RTVSPost2010Prop50
 90
       50
102
RTVSPost2010PropOp50
 70
     1
102
RTVSPost2010Prop51ColorIndex
 90
      256
102
RTVSPost2010Prop51ColorRGB
 90
-16777216
102
RTVSPost2010PropOp51
 70
     0
102
RTVSPost2010Prop52
140
1.0
102
RTVSPost2010PropOp52
 70
     0
102
RTVSPost2010Prop53
 90
        2
102
RTVSPost2010PropOp53
 70
     1
102
RTVSPost2010Prop54
  1
strokes_ogs.tif
102
RTVSPost2010PropOp54
 70
     1
102
RTVSPost2010Prop55
280
     0
102
RTVSPost2010PropOp55
 70
     1
102
RTVSPost2010Prop56
140
1.0
102
RTVSPost2010PropOp56
 70
     1
102
RTVSPost2010Prop57
140
1.0
102
RTVSPost2010PropOp57
 70
     1
  0
XRECORD
  5
314
102
{ACAD_REACTORS
330
313
102
}
330
313
100
AcDbXrecord
280
     1
102
RTVSPropertyOp0
 70
     1
102
RTVSPropertyOp1
 70
     1
102
RTVSPropertyOp2
 70
     1
102
RTVSPropertyOp3
 70
     1
102
RTVSPropertyOp4
 70
     1
102
RTVSPropertyOp5
 70
     1
102
RTVSPropertyOp6
 70
     1
102
RTVSPropertyOp7
 70
     1
102
RTVSPropertyOp8
 70
     1
102
RTVSPropertyOp9
 70
     1
102
RTVSPropertyOp10
 70
     1
102
RTVSPropertyOp11
 70
     1
102
RTVSPropertyOp12
 70
     1
102
RTVSPropertyOp13
 70
     1
102
RTVSPropertyOp14
 70
     1
102
RTVSPropertyOp15
 70
     1
102
RTVSPropertyOp16
 70
     1
102
RTVSPropertyOp17
 70
     1
102
RTVSPropertyOp18
 70
     1
102
RTVSPropertyOp19
 70
     1
102
RTVSPropertyOp20
 70
     1
102
RTVSPropertyOp21
 70
     1
102
RTVSPropertyOp22
 70
     1
102
RTVSPropertyOp23
 70
     1
102
RTVSPropertyOp24
 70
     1
102
RTVSPropertyOp25
 70
     1
102
RTVSPropertyOp26
 70
     1
102
RTVSPropertyOp27
 70
     1
102
RTVSPropertyOp28
 70
     1
102
RTVSPropertyOp29
 70
     1
102
RTVSPropertyOp30
 70
     1
102
RTVSPropertyOp31
 70
     1
102
RTVSPropertyOp32
 70
     1
102
RTVSPropertyOp33
 70
     1
102
RTVSPropertyOp34
 70
     1
102
RTVSPropertyOp35
 70
     1
102
RTVSPropertyOp36
 70
     1
102
RTVSPropertyOp37
 70
     1
102
RTVSPropertyOp38
 70
     1
102
RTVSPropertyOp39
 70
     1
102
RTVSPropertyOp40
 70
     1
102
RTVSPropertyOp41
 70
     1
102
RTVSPropertyOp42
 70
     1
102
RTVSPropertyOp43
 70
     1
102
RTVSPropertyOp44
 70
     1
102
RTVSPropertyOp45
 70
     1
102
RTVSPropertyOp46
 70
     1
102
RTVSPropertyOp47
 70
     1
102
RTVSPropertyOp48
 70
     1
102
RTVSPropertyOp49
 70
     1
102
RTVSPropertyOp50
 70
     1
102
RTVSPropertyOp51
 70
     0
102
RTVSPropertyOp52
 70
     0
102
RTVSPropertyOp53
 70
     1
102
RTVSPropertyOp54
 70
     1
102
RTVSPropertyOp55
 70
     1
102
RTVSPropertyOp56
 70
     1
102
RTVSPropertyOp57
 70
     1
102
RTVSPost2010Prop28
280
     0
102
RTVSPost2010PropOp28
 70
     1
102
RTVSPost2010Prop29
280
     1
102
RTVSPost2010PropOp29
 70
     1
102
RTVSPost2010Prop30
280
     1
102
RTVSPost2010PropOp30
 70
     1
102
RTVSPost2010Prop31
280
     0
102
RTVSPost2010PropOp31
 70
     1
102
RTVSPost2010Prop32
280
     0
102
RTVSPost2010PropOp32
 70
     1
102
RTVSPost2010Prop33
280
     0
102
RTVSPost2010PropOp33
 70
     1
102
RTVSPost2010Prop34
280
     0
102
RTVSPost2010PropOp34
 70
     1
102
RTVSPost2010Prop35
280
     0
102
RTVSPost2010PropOp35
 70
     1
102
RTVSPost2010Prop36
280
     0
102
RTVSPost2010PropOp36
 70
     1
102
RTVSPost2010Prop37
 90
       50
102
RTVSPost2010PropOp37
 70
     1
102
RTVSPost2010Prop38
140
0.0
102
RTVSPost2010PropOp38
 70
     1
102
RTVSPost2010Prop39
140
1.0
102
RTVSPost2010PropOp39
 70
     1
102
RTVSPost2010Prop40
 90
        0
102
RTVSPost2010PropOp40
 70
     1
102
RTVSPost2010Prop41ColorIndex
 90
       18
102
RTVSPost2010Prop41ColorRGB
 90
        0
102
RTVSPost2010PropOp41
 70
     1
102
RTVSPost2010Prop42
 90
       50
102
RTVSPost2010PropOp42
 70
     1
102
RTVSPost2010Prop43
 90
        3
102
RTVSPost2010PropOp43
 70
     1
102
RTVSPost2010Prop44ColorIndex
 90
        5
102
RTVSPost2010Prop44ColorRGB
 90
      255
102
RTVSPost2010PropOp44
 70
     1
102
RTVSPost2010Prop45
280
     0
102
RTVSPost2010PropOp45
 70
     1
102
RTVSPost2010Prop46
 90
       50
102
RTVSPost2010PropOp46
 70
     1
102
RTVSPost2010Prop47
 90
       50
102
RTVSPost2010PropOp47
 70
     1
102
RTVSPost2010Prop48
 90
       50
102
RTVSPost2010PropOp48
 70
     1
102
RTVSPost2010Prop49
280
     0
102
RTVSPost2010PropOp49
 70
     1
102
RTVSPost2010Prop50
 90
       50
102
RTVSPost2010PropOp50
 70
     1
102
RTVSPost2010Prop51ColorIndex
 90
      256
102
RTVSPost2010Prop51ColorRGB
 90
-16777216
102
RTVSPost2010PropOp51
 70
     0
102
RTVSPost2010Prop52
140
1.0
102
RTVSPost2010PropOp52
 70
     0
102
RTVSPost2010Prop53
 90
        2
102
RTVSPost2010PropOp53
 70
     1
102
RTVSPost2010Prop54
  1
strokes_ogs.tif
102
RTVSPost2010PropOp54
 70
     1
102
RTVSPost2010Prop55
280
     0
102
RTVSPost2010PropOp55
 70
     1
102
RTVSPost2010Prop56
140
1.0
102
RTVSPost2010PropOp56
 70
     1
102
RTVSPost2010Prop57
140
1.0
102
RTVSPost2010PropOp57
 70
     1
  0
XRECORD
  5
316
102
{ACAD_REACTORS
330
315
102
}
330
315
100
AcDbXrecord
280
     1
102
RTVSPropertyOp0
 70
     1
102
RTVSPropertyOp1
 70
     1
102
RTVSPropertyOp2
 70
     1
102
RTVSPropertyOp3
 70
     1
102
RTVSPropertyOp4
 70
     1
102
RTVSPropertyOp5
 70
     1
102
RTVSPropertyOp6
 70
     1
102
RTVSPropertyOp7
 70
     1
102
RTVSPropertyOp8
 70
     1
102
RTVSPropertyOp9
 70
     1
102
RTVSPropertyOp10
 70
     1
102
RTVSPropertyOp11
 70
     1
102
RTVSPropertyOp12
 70
     1
102
RTVSPropertyOp13
 70
     1
102
RTVSPropertyOp14
 70
     1
102
RTVSPropertyOp15
 70
     1
102
RTVSPropertyOp16
 70
     1
102
RTVSPropertyOp17
 70
     1
102
RTVSPropertyOp18
 70
     1
102
RTVSPropertyOp19
 70
     1
102
RTVSPropertyOp20
 70
     1
102
RTVSPropertyOp21
 70
     1
102
RTVSPropertyOp22
 70
     1
102
RTVSPropertyOp23
 70
     1
102
RTVSPropertyOp24
 70
     1
102
RTVSPropertyOp25
 70
     1
102
RTVSPropertyOp26
 70
     1
102
RTVSPropertyOp27
 70
     1
102
RTVSPropertyOp28
 70
     1
102
RTVSPropertyOp29
 70
     1
102
RTVSPropertyOp30
 70
     1
102
RTVSPropertyOp31
 70
     1
102
RTVSPropertyOp32
 70
     1
102
RTVSPropertyOp33
 70
     1
102
RTVSPropertyOp34
 70
     1
102
RTVSPropertyOp35
 70
     1
102
RTVSPropertyOp36
 70
     1
102
RTVSPropertyOp37
 70
     1
102
RTVSPropertyOp38
 70
     1
102
RTVSPropertyOp39
 70
     1
102
RTVSPropertyOp40
 70
     1
102
RTVSPropertyOp41
 70
     1
102
RTVSPropertyOp42
 70
     1
102
RTVSPropertyOp43
 70
     1
102
RTVSPropertyOp44
 70
     1
102
RTVSPropertyOp45
 70
     1
102
RTVSPropertyOp46
 70
     1
102
RTVSPropertyOp47
 70
     1
102
RTVSPropertyOp48
 70
     1
102
RTVSPropertyOp49
 70
     1
102
RTVSPropertyOp50
 70
     1
102
RTVSPropertyOp51
 70
     0
102
RTVSPropertyOp52
 70
     0
102
RTVSPropertyOp53
 70
     1
102
RTVSPropertyOp54
 70
     1
102
RTVSPropertyOp55
 70
     1
102
RTVSPropertyOp56
 70
     1
102
RTVSPropertyOp57
 70
     1
102
RTVSPost2010Prop28
280
     0
102
RTVSPost2010PropOp28
 70
     1
102
RTVSPost2010Prop29
280
     1
102
RTVSPost2010PropOp29
 70
     1
102
RTVSPost2010Prop30
280
     1
102
RTVSPost2010PropOp30
 70
     1
102
RTVSPost2010Prop31
280
     0
102
RTVSPost2010PropOp31
 70
     1
102
RTVSPost2010Prop32
280
     0
102
RTVSPost2010PropOp32
 70
     1
102
RTVSPost2010Prop33
280
     0
102
RTVSPost2010PropOp33
 70
     1
102
RTVSPost2010Prop34
280
     0
102
RTVSPost2010PropOp34
 70
     1
102
RTVSPost2010Prop35
280
     0
102
RTVSPost2010PropOp35
 70
     1
102
RTVSPost2010Prop36
280
     0
102
RTVSPost2010PropOp36
 70
     1
102
RTVSPost2010Prop37
 90
       50
102
RTVSPost2010PropOp37
 70
     1
102
RTVSPost2010Prop38
140
0.0
102
RTVSPost2010PropOp38
 70
     1
102
RTVSPost2010Prop39
140
1.0
102
RTVSPost2010PropOp39
 70
     1
102
RTVSPost2010Prop40
 90
        0
102
RTVSPost2010PropOp40
 70
     1
102
RTVSPost2010Prop41ColorIndex
 90
       18
102
RTVSPost2010Prop41ColorRGB
 90
        0
102
RTVSPost2010PropOp41
 70
     1
102
RTVSPost2010Prop42
 90
       50
102
RTVSPost2010PropOp42
 70
     1
102
RTVSPost2010Prop43
 90
        3
102
RTVSPost2010PropOp43
 70
     1
102
RTVSPost2010Prop44ColorIndex
 90
        5
102
RTVSPost2010Prop44ColorRGB
 90
      255
102
RTVSPost2010PropOp44
 70
     1
102
RTVSPost2010Prop45
280
     0
102
RTVSPost2010PropOp45
 70
     1
102
RTVSPost2010Prop46
 90
       50
102
RTVSPost2010PropOp46
 70
     1
102
RTVSPost2010Prop47
 90
       50
102
RTVSPost2010PropOp47
 70
     1
102
RTVSPost2010Prop48
 90
       50
102
RTVSPost2010PropOp48
 70
     1
102
RTVSPost2010Prop49
280
     0
102
RTVSPost2010PropOp49
 70
     1
102
RTVSPost2010Prop50
 90
       50
102
RTVSPost2010PropOp50
 70
     1
102
RTVSPost2010Prop51ColorIndex
 90
      256
102
RTVSPost2010Prop51ColorRGB
 90
-16777216
102
RTVSPost2010PropOp51
 70
     0
102
RTVSPost2010Prop52
140
1.0
102
RTVSPost2010PropOp52
 70
     0
102
RTVSPost2010Prop53
 90
        2
102
RTVSPost2010PropOp53
 70
     1
102
RTVSPost2010Prop54
  1
strokes_ogs.tif
102
RTVSPost2010PropOp54
 70
     1
102
RTVSPost2010Prop55
280
     0
102
RTVSPost2010PropOp55
 70
     1
102
RTVSPost2010Prop56
140
1.0
102
RTVSPost2010PropOp56
 70
     1
102
RTVSPost2010Prop57
140
1.0
102
RTVSPost2010PropOp57
 70
     1
  0
XRECORD
  5
318
102
{ACAD_REACTORS
330
317
102
}
330
317
100
AcDbXrecord
280
     1
102
RTVSPropertyOp0
 70
     1
102
RTVSPropertyOp1
 70
     1
102
RTVSPropertyOp2
 70
     1
102
RTVSPropertyOp3
 70
     1
102
RTVSPropertyOp4
 70
     1
102
RTVSPropertyOp5
 70
     1
102
RTVSPropertyOp6
 70
     1
102
RTVSPropertyOp7
 70
     1
102
RTVSPropertyOp8
 70
     1
102
RTVSPropertyOp9
 70
     1
102
RTVSPropertyOp10
 70
     1
102
RTVSPropertyOp11
 70
     1
102
RTVSPropertyOp12
 70
     1
102
RTVSPropertyOp13
 70
     1
102
RTVSPropertyOp14
 70
     1
102
RTVSPropertyOp15
 70
     1
102
RTVSPropertyOp16
 70
     1
102
RTVSPropertyOp17
 70
     1
102
RTVSPropertyOp18
 70
     1
102
RTVSPropertyOp19
 70
     1
102
RTVSPropertyOp20
 70
     1
102
RTVSPropertyOp21
 70
     1
102
RTVSPropertyOp22
 70
     1
102
RTVSPropertyOp23
 70
     1
102
RTVSPropertyOp24
 70
     1
102
RTVSPropertyOp25
 70
     1
102
RTVSPropertyOp26
 70
     1
102
RTVSPropertyOp27
 70
     1
102
RTVSPropertyOp28
 70
     1
102
RTVSPropertyOp29
 70
     1
102
RTVSPropertyOp30
 70
     1
102
RTVSPropertyOp31
 70
     1
102
RTVSPropertyOp32
 70
     1
102
RTVSPropertyOp33
 70
     1
102
RTVSPropertyOp34
 70
     1
102
RTVSPropertyOp35
 70
     1
102
RTVSPropertyOp36
 70
     1
102
RTVSPropertyOp37
 70
     1
102
RTVSPropertyOp38
 70
     1
102
RTVSPropertyOp39
 70
     1
102
RTVSPropertyOp40
 70
     1
102
RTVSPropertyOp41
 70
     1
102
RTVSPropertyOp42
 70
     1
102
RTVSPropertyOp43
 70
     1
102
RTVSPropertyOp44
 70
     1
102
RTVSPropertyOp45
 70
     1
102
RTVSPropertyOp46
 70
     1
102
RTVSPropertyOp47
 70
     1
102
RTVSPropertyOp48
 70
     1
102
RTVSPropertyOp49
 70
     1
102
RTVSPropertyOp50
 70
     1
102
RTVSPropertyOp51
 70
     0
102
RTVSPropertyOp52
 70
     0
102
RTVSPropertyOp53
 70
     1
102
RTVSPropertyOp54
 70
     1
102
RTVSPropertyOp55
 70
     1
102
RTVSPropertyOp56
 70
     1
102
RTVSPropertyOp57
 70
     1
102
RTVSPost2010Prop28
280
     0
102
RTVSPost2010PropOp28
 70
     1
102
RTVSPost2010Prop29
280
     1
102
RTVSPost2010PropOp29
 70
     1
102
RTVSPost2010Prop30
280
     1
102
RTVSPost2010PropOp30
 70
     1
102
RTVSPost2010Prop31
280
     0
102
RTVSPost2010PropOp31
 70
     1
102
RTVSPost2010Prop32
280
     0
102
RTVSPost2010PropOp32
 70
     1
102
RTVSPost2010Prop33
280
     0
102
RTVSPost2010PropOp33
 70
     1
102
RTVSPost2010Prop34
280
     0
102
RTVSPost2010PropOp34
 70
     1
102
RTVSPost2010Prop35
280
     0
102
RTVSPost2010PropOp35
 70
     1
102
RTVSPost2010Prop36
280
     0
102
RTVSPost2010PropOp36
 70
     1
102
RTVSPost2010Prop37
 90
       50
102
RTVSPost2010PropOp37
 70
     1
102
RTVSPost2010Prop38
140
0.0
102
RTVSPost2010PropOp38
 70
     1
102
RTVSPost2010Prop39
140
1.0
102
RTVSPost2010PropOp39
 70
     1
102
RTVSPost2010Prop40
 90
        0
102
RTVSPost2010PropOp40
 70
     1
102
RTVSPost2010Prop41ColorIndex
 90
       18
102
RTVSPost2010Prop41ColorRGB
 90
        0
102
RTVSPost2010PropOp41
 70
     1
102
RTVSPost2010Prop42
 90
       50
102
RTVSPost2010PropOp42
 70
     1
102
RTVSPost2010Prop43
 90
        3
102
RTVSPost2010PropOp43
 70
     1
102
RTVSPost2010Prop44ColorIndex
 90
        5
102
RTVSPost2010Prop44ColorRGB
 90
      255
102
RTVSPost2010PropOp44
 70
     1
102
RTVSPost2010Prop45
280
     0
102
RTVSPost2010PropOp45
 70
     1
102
RTVSPost2010Prop46
 90
       50
102
RTVSPost2010PropOp46
 70
     1
102
RTVSPost2010Prop47
 90
       50
102
RTVSPost2010PropOp47
 70
     1
102
RTVSPost2010Prop48
 90
       50
102
RTVSPost2010PropOp48
 70
     1
102
RTVSPost2010Prop49
280
     0
102
RTVSPost2010PropOp49
 70
     1
102
RTVSPost2010Prop50
 90
       50
102
RTVSPost2010PropOp50
 70
     1
102
RTVSPost2010Prop51ColorIndex
 90
      256
102
RTVSPost2010Prop51ColorRGB
 90
-16777216
102
RTVSPost2010PropOp51
 70
     0
102
RTVSPost2010Prop52
140
1.0
102
RTVSPost2010PropOp52
 70
     0
102
RTVSPost2010Prop53
 90
        2
102
RTVSPost2010PropOp53
 70
     1
102
RTVSPost2010Prop54
  1
strokes_ogs.tif
102
RTVSPost2010PropOp54
 70
     1
102
RTVSPost2010Prop55
280
     0
102
RTVSPost2010PropOp55
 70
     1
102
RTVSPost2010Prop56
140
1.0
102
RTVSPost2010PropOp56
 70
     1
102
RTVSPost2010Prop57
140
1.0
102
RTVSPost2010PropOp57
 70
     1
  0
XRECORD
  5
31A
102
{ACAD_REACTORS
330
319
102
}
330
319
100
AcDbXrecord
280
     1
102
RTVSPropertyOp0
 70
     1
102
RTVSPropertyOp1
 70
     1
102
RTVSPropertyOp2
 70
     1
102
RTVSPropertyOp3
 70
     1
102
RTVSPropertyOp4
 70
     1
102
RTVSPropertyOp5
 70
     1
102
RTVSPropertyOp6
 70
     1
102
RTVSPropertyOp7
 70
     1
102
RTVSPropertyOp8
 70
     1
102
RTVSPropertyOp9
 70
     1
102
RTVSPropertyOp10
 70
     1
102
RTVSPropertyOp11
 70
     1
102
RTVSPropertyOp12
 70
     1
102
RTVSPropertyOp13
 70
     1
102
RTVSPropertyOp14
 70
     1
102
RTVSPropertyOp15
 70
     1
102
RTVSPropertyOp16
 70
     1
102
RTVSPropertyOp17
 70
     1
102
RTVSPropertyOp18
 70
     1
102
RTVSPropertyOp19
 70
     1
102
RTVSPropertyOp20
 70
     1
102
RTVSPropertyOp21
 70
     1
102
RTVSPropertyOp22
 70
     1
102
RTVSPropertyOp23
 70
     1
102
RTVSPropertyOp24
 70
     1
102
RTVSPropertyOp25
 70
     1
102
RTVSPropertyOp26
 70
     1
102
RTVSPropertyOp27
 70
     1
102
RTVSPropertyOp28
 70
     1
102
RTVSPropertyOp29
 70
     1
102
RTVSPropertyOp30
 70
     1
102
RTVSPropertyOp31
 70
     1
102
RTVSPropertyOp32
 70
     1
102
RTVSPropertyOp33
 70
     1
102
RTVSPropertyOp34
 70
     1
102
RTVSPropertyOp35
 70
     1
102
RTVSPropertyOp36
 70
     1
102
RTVSPropertyOp37
 70
     1
102
RTVSPropertyOp38
 70
     1
102
RTVSPropertyOp39
 70
     1
102
RTVSPropertyOp40
 70
     1
102
RTVSPropertyOp41
 70
     1
102
RTVSPropertyOp42
 70
     1
102
RTVSPropertyOp43
 70
     1
102
RTVSPropertyOp44
 70
     1
102
RTVSPropertyOp45
 70
     1
102
RTVSPropertyOp46
 70
     1
102
RTVSPropertyOp47
 70
     1
102
RTVSPropertyOp48
 70
     1
102
RTVSPropertyOp49
 70
     1
102
RTVSPropertyOp50
 70
     1
102
RTVSPropertyOp51
 70
     0
102
RTVSPropertyOp52
 70
     0
102
RTVSPropertyOp53
 70
     1
102
RTVSPropertyOp54
 70
     1
102
RTVSPropertyOp55
 70
     1
102
RTVSPropertyOp56
 70
     1
102
RTVSPropertyOp57
 70
     1
102
RTVSPost2010Prop28
280
     0
102
RTVSPost2010PropOp28
 70
     1
102
RTVSPost2010Prop29
280
     1
102
RTVSPost2010PropOp29
 70
     1
102
RTVSPost2010Prop30
280
     1
102
RTVSPost2010PropOp30
 70
     1
102
RTVSPost2010Prop31
280
     0
102
RTVSPost2010PropOp31
 70
     1
102
RTVSPost2010Prop32
280
     0
102
RTVSPost2010PropOp32
 70
     1
102
RTVSPost2010Prop33
280
     0
102
RTVSPost2010PropOp33
 70
     1
102
RTVSPost2010Prop34
280
     0
102
RTVSPost2010PropOp34
 70
     1
102
RTVSPost2010Prop35
280
     0
102
RTVSPost2010PropOp35
 70
     1
102
RTVSPost2010Prop36
280
     0
102
RTVSPost2010PropOp36
 70
     1
102
RTVSPost2010Prop37
 90
       50
102
RTVSPost2010PropOp37
 70
     1
102
RTVSPost2010Prop38
140
0.0
102
RTVSPost2010PropOp38
 70
     1
102
RTVSPost2010Prop39
140
1.0
102
RTVSPost2010PropOp39
 70
     1
102
RTVSPost2010Prop40
 90
        0
102
RTVSPost2010PropOp40
 70
     1
102
RTVSPost2010Prop41ColorIndex
 90
       18
102
RTVSPost2010Prop41ColorRGB
 90
        0
102
RTVSPost2010PropOp41
 70
     1
102
RTVSPost2010Prop42
 90
       50
102
RTVSPost2010PropOp42
 70
     1
102
RTVSPost2010Prop43
 90
        3
102
RTVSPost2010PropOp43
 70
     1
102
RTVSPost2010Prop44ColorIndex
 90
        5
102
RTVSPost2010Prop44ColorRGB
 90
      255
102
RTVSPost2010PropOp44
 70
     1
102
RTVSPost2010Prop45
280
     0
102
RTVSPost2010PropOp45
 70
     1
102
RTVSPost2010Prop46
 90
       50
102
RTVSPost2010PropOp46
 70
     1
102
RTVSPost2010Prop47
 90
       50
102
RTVSPost2010PropOp47
 70
     1
102
RTVSPost2010Prop48
 90
       50
102
RTVSPost2010PropOp48
 70
     1
102
RTVSPost2010Prop49
280
     0
102
RTVSPost2010PropOp49
 70
     1
102
RTVSPost2010Prop50
 90
       50
102
RTVSPost2010PropOp50
 70
     1
102
RTVSPost2010Prop51ColorIndex
 90
      256
102
RTVSPost2010Prop51ColorRGB
 90
-16777216
102
RTVSPost2010PropOp51
 70
     0
102
RTVSPost2010Prop52
140
1.0
102
RTVSPost2010PropOp52
 70
     0
102
RTVSPost2010Prop53
 90
        2
102
RTVSPost2010PropOp53
 70
     1
102
RTVSPost2010Prop54
  1
strokes_ogs.tif
102
RTVSPost2010PropOp54
 70
     1
102
RTVSPost2010Prop55
280
     0
102
RTVSPost2010PropOp55
 70
     1
102
RTVSPost2010Prop56
140
1.0
102
RTVSPost2010PropOp56
 70
     1
102
RTVSPost2010Prop57
140
1.0
102
RTVSPost2010PropOp57
 70
     1
  0
XRECORD
  5
32E
102
{ACAD_REACTORS
330
32D
102
}
330
32D
100
AcDbXrecord
280
     1
102
RTVSPropertyOp0
 70
     1
102
RTVSPropertyOp1
 70
     1
102
RTVSPropertyOp2
 70
     1
102
RTVSPropertyOp3
 70
     1
102
RTVSPropertyOp4
 70
     1
102
RTVSPropertyOp5
 70
     1
102
RTVSPropertyOp6
 70
     1
102
RTVSPropertyOp7
 70
     1
102
RTVSPropertyOp8
 70
     1
102
RTVSPropertyOp9
 70
     1
102
RTVSPropertyOp10
 70
     1
102
RTVSPropertyOp11
 70
     1
102
RTVSPropertyOp12
 70
     1
102
RTVSPropertyOp13
 70
     1
102
RTVSPropertyOp14
 70
     1
102
RTVSPropertyOp15
 70
     1
102
RTVSPropertyOp16
 70
     1
102
RTVSPropertyOp17
 70
     1
102
RTVSPropertyOp18
 70
     1
102
RTVSPropertyOp19
 70
     1
102
RTVSPropertyOp20
 70
     1
102
RTVSPropertyOp21
 70
     1
102
RTVSPropertyOp22
 70
     1
102
RTVSPropertyOp23
 70
     1
102
RTVSPropertyOp24
 70
     1
102
RTVSPropertyOp25
 70
     1
102
RTVSPropertyOp26
 70
     1
102
RTVSPropertyOp27
 70
     1
102
RTVSPropertyOp28
 70
     1
102
RTVSPropertyOp29
 70
     1
102
RTVSPropertyOp30
 70
     1
102
RTVSPropertyOp31
 70
     1
102
RTVSPropertyOp32
 70
     1
102
RTVSPropertyOp33
 70
     1
102
RTVSPropertyOp34
 70
     1
102
RTVSPropertyOp35
 70
     1
102
RTVSPropertyOp36
 70
     1
102
RTVSPropertyOp37
 70
     1
102
RTVSPropertyOp38
 70
     1
102
RTVSPropertyOp39
 70
     1
102
RTVSPropertyOp40
 70
     1
102
RTVSPropertyOp41
 70
     1
102
RTVSPropertyOp42
 70
     1
102
RTVSPropertyOp43
 70
     1
102
RTVSPropertyOp44
 70
     1
102
RTVSPropertyOp45
 70
     1
102
RTVSPropertyOp46
 70
     1
102
RTVSPropertyOp47
 70
     1
102
RTVSPropertyOp48
 70
     1
102
RTVSPropertyOp49
 70
     1
102
RTVSPropertyOp50
 70
     1
102
RTVSPropertyOp51
 70
     0
102
RTVSPropertyOp52
 70
     0
102
RTVSPropertyOp53
 70
     1
102
RTVSPropertyOp54
 70
     1
102
RTVSPropertyOp55
 70
     1
102
RTVSPropertyOp56
 70
     1
102
RTVSPropertyOp57
 70
     1
102
RTVSPost2010Prop28
280
     0
102
RTVSPost2010PropOp28
 70
     1
102
RTVSPost2010Prop29
280
     1
102
RTVSPost2010PropOp29
 70
     1
102
RTVSPost2010Prop30
280
     1
102
RTVSPost2010PropOp30
 70
     1
102
RTVSPost2010Prop31
280
     0
102
RTVSPost2010PropOp31
 70
     1
102
RTVSPost2010Prop32
280
     0
102
RTVSPost2010PropOp32
 70
     1
102
RTVSPost2010Prop33
280
     0
102
RTVSPost2010PropOp33
 70
     1
102
RTVSPost2010Prop34
280
     0
102
RTVSPost2010PropOp34
 70
     1
102
RTVSPost2010Prop35
280
     0
102
RTVSPost2010PropOp35
 70
     1
102
RTVSPost2010Prop36
280
     0
102
RTVSPost2010PropOp36
 70
     1
102
RTVSPost2010Prop37
 90
       50
102
RTVSPost2010PropOp37
 70
     1
102
RTVSPost2010Prop38
140
0.0
102
RTVSPost2010PropOp38
 70
     1
102
RTVSPost2010Prop39
140
1.0
102
RTVSPost2010PropOp39
 70
     1
102
RTVSPost2010Prop40
 90
        0
102
RTVSPost2010PropOp40
 70
     1
102
RTVSPost2010Prop41ColorIndex
 90
       18
102
RTVSPost2010Prop41ColorRGB
 90
        0
102
RTVSPost2010PropOp41
 70
     1
102
RTVSPost2010Prop42
 90
       50
102
RTVSPost2010PropOp42
 70
     1
102
RTVSPost2010Prop43
 90
        3
102
RTVSPost2010PropOp43
 70
     1
102
RTVSPost2010Prop44ColorIndex
 90
        5
102
RTVSPost2010Prop44ColorRGB
 90
      255
102
RTVSPost2010PropOp44
 70
     1
102
RTVSPost2010Prop45
280
     0
102
RTVSPost2010PropOp45
 70
     1
102
RTVSPost2010Prop46
 90
       50
102
RTVSPost2010PropOp46
 70
     1
102
RTVSPost2010Prop47
 90
       50
102
RTVSPost2010PropOp47
 70
     1
102
RTVSPost2010Prop48
 90
       50
102
RTVSPost2010PropOp48
 70
     1
102
RTVSPost2010Prop49
280
     0
102
RTVSPost2010PropOp49
 70
     1
102
RTVSPost2010Prop50
 90
       50
102
RTVSPost2010PropOp50
 70
     1
102
RTVSPost2010Prop51ColorIndex
 90
      256
102
RTVSPost2010Prop51ColorRGB
 90
-16777216
102
RTVSPost2010PropOp51
 70
     0
102
RTVSPost2010Prop52
140
1.0
102
RTVSPost2010PropOp52
 70
     0
102
RTVSPost2010Prop53
 90
        2
102
RTVSPost2010PropOp53
 70
     1
102
RTVSPost2010Prop54
  1
strokes_ogs.tif
102
RTVSPost2010PropOp54
 70
     1
102
RTVSPost2010Prop55
280
     0
102
RTVSPost2010PropOp55
 70
     1
102
RTVSPost2010Prop56
140
1.0
102
RTVSPost2010PropOp56
 70
     1
102
RTVSPost2010Prop57
140
1.0
102
RTVSPost2010PropOp57
 70
     1
  0
XRECORD
  5
324
102
{ACAD_REACTORS
330
323
102
}
330
323
100
AcDbXrecord
280
     1
102
RTVSPropertyOp0
 70
     1
102
RTVSPropertyOp1
 70
     1
102
RTVSPropertyOp2
 70
     1
102
RTVSPropertyOp3
 70
     1
102
RTVSPropertyOp4
 70
     1
102
RTVSPropertyOp5
 70
     1
102
RTVSPropertyOp6
 70
     1
102
RTVSPropertyOp7
 70
     1
102
RTVSPropertyOp8
 70
     1
102
RTVSPropertyOp9
 70
     1
102
RTVSPropertyOp10
 70
     1
102
RTVSPropertyOp11
 70
     1
102
RTVSPropertyOp12
 70
     1
102
RTVSPropertyOp13
 70
     1
102
RTVSPropertyOp14
 70
     1
102
RTVSPropertyOp15
 70
     1
102
RTVSPropertyOp16
 70
     1
102
RTVSPropertyOp17
 70
     1
102
RTVSPropertyOp18
 70
     1
102
RTVSPropertyOp19
 70
     1
102
RTVSPropertyOp20
 70
     1
102
RTVSPropertyOp21
 70
     1
102
RTVSPropertyOp22
 70
     1
102
RTVSPropertyOp23
 70
     1
102
RTVSPropertyOp24
 70
     1
102
RTVSPropertyOp25
 70
     1
102
RTVSPropertyOp26
 70
     1
102
RTVSPropertyOp27
 70
     1
102
RTVSPropertyOp28
 70
     1
102
RTVSPropertyOp29
 70
     1
102
RTVSPropertyOp30
 70
     1
102
RTVSPropertyOp31
 70
     1
102
RTVSPropertyOp32
 70
     1
102
RTVSPropertyOp33
 70
     1
102
RTVSPropertyOp34
 70
     1
102
RTVSPropertyOp35
 70
     1
102
RTVSPropertyOp36
 70
     1
102
RTVSPropertyOp37
 70
     1
102
RTVSPropertyOp38
 70
     1
102
RTVSPropertyOp39
 70
     1
102
RTVSPropertyOp40
 70
     1
102
RTVSPropertyOp41
 70
     1
102
RTVSPropertyOp42
 70
     1
102
RTVSPropertyOp43
 70
     1
102
RTVSPropertyOp44
 70
     1
102
RTVSPropertyOp45
 70
     1
102
RTVSPropertyOp46
 70
     1
102
RTVSPropertyOp47
 70
     1
102
RTVSPropertyOp48
 70
     1
102
RTVSPropertyOp49
 70
     1
102
RTVSPropertyOp50
 70
     1
102
RTVSPropertyOp51
 70
     0
102
RTVSPropertyOp52
 70
     0
102
RTVSPropertyOp53
 70
     1
102
RTVSPropertyOp54
 70
     1
102
RTVSPropertyOp55
 70
     1
102
RTVSPropertyOp56
 70
     1
102
RTVSPropertyOp57
 70
     1
102
RTVSPost2010Prop28
280
     0
102
RTVSPost2010PropOp28
 70
     1
102
RTVSPost2010Prop29
280
     1
102
RTVSPost2010PropOp29
 70
     1
102
RTVSPost2010Prop30
280
     1
102
RTVSPost2010PropOp30
 70
     1
102
RTVSPost2010Prop31
280
     0
102
RTVSPost2010PropOp31
 70
     1
102
RTVSPost2010Prop32
280
     0
102
RTVSPost2010PropOp32
 70
     1
102
RTVSPost2010Prop33
280
     0
102
RTVSPost2010PropOp33
 70
     1
102
RTVSPost2010Prop34
280
     0
102
RTVSPost2010PropOp34
 70
     1
102
RTVSPost2010Prop35
280
     0
102
RTVSPost2010PropOp35
 70
     1
102
RTVSPost2010Prop36
280
     0
102
RTVSPost2010PropOp36
 70
     1
102
RTVSPost2010Prop37
 90
       50
102
RTVSPost2010PropOp37
 70
     1
102
RTVSPost2010Prop38
140
0.0
102
RTVSPost2010PropOp38
 70
     1
102
RTVSPost2010Prop39
140
1.0
102
RTVSPost2010PropOp39
 70
     1
102
RTVSPost2010Prop40
 90
        0
102
RTVSPost2010PropOp40
 70
     1
102
RTVSPost2010Prop41ColorIndex
 90
       18
102
RTVSPost2010Prop41ColorRGB
 90
        0
102
RTVSPost2010PropOp41
 70
     1
102
RTVSPost2010Prop42
 90
       50
102
RTVSPost2010PropOp42
 70
     1
102
RTVSPost2010Prop43
 90
        3
102
RTVSPost2010PropOp43
 70
     1
102
RTVSPost2010Prop44ColorIndex
 90
        5
102
RTVSPost2010Prop44ColorRGB
 90
      255
102
RTVSPost2010PropOp44
 70
     1
102
RTVSPost2010Prop45
280
     0
102
RTVSPost2010PropOp45
 70
     1
102
RTVSPost2010Prop46
 90
       50
102
RTVSPost2010PropOp46
 70
     1
102
RTVSPost2010Prop47
 90
       50
102
RTVSPost2010PropOp47
 70
     1
102
RTVSPost2010Prop48
 90
       50
102
RTVSPost2010PropOp48
 70
     1
102
RTVSPost2010Prop49
280
     0
102
RTVSPost2010PropOp49
 70
     1
102
RTVSPost2010Prop50
 90
       50
102
RTVSPost2010PropOp50
 70
     1
102
RTVSPost2010Prop51ColorIndex
 90
      256
102
RTVSPost2010Prop51ColorRGB
 90
-16777216
102
RTVSPost2010PropOp51
 70
     0
102
RTVSPost2010Prop52
140
1.0
102
RTVSPost2010PropOp52
 70
     0
102
RTVSPost2010Prop53
 90
        2
102
RTVSPost2010PropOp53
 70
     1
102
RTVSPost2010Prop54
  1
strokes_ogs.tif
102
RTVSPost2010PropOp54
 70
     1
102
RTVSPost2010Prop55
280
     0
102
RTVSPost2010PropOp55
 70
     1
102
RTVSPost2010Prop56
140
1.0
102
RTVSPost2010PropOp56
 70
     1
102
RTVSPost2010Prop57
140
1.0
102
RTVSPost2010PropOp57
 70
     1
  0
XRECORD
  5
32C
102
{ACAD_REACTORS
330
32B
102
}
330
32B
100
AcDbXrecord
280
     1
102
RTVSPropertyOp0
 70
     1
102
RTVSPropertyOp1
 70
     1
102
RTVSPropertyOp2
 70
     1
102
RTVSPropertyOp3
 70
     1
102
RTVSPropertyOp4
 70
     1
102
RTVSPropertyOp5
 70
     1
102
RTVSPropertyOp6
 70
     1
102
RTVSPropertyOp7
 70
     1
102
RTVSPropertyOp8
 70
     1
102
RTVSPropertyOp9
 70
     1
102
RTVSPropertyOp10
 70
     1
102
RTVSPropertyOp11
 70
     1
102
RTVSPropertyOp12
 70
     1
102
RTVSPropertyOp13
 70
     1
102
RTVSPropertyOp14
 70
     1
102
RTVSPropertyOp15
 70
     1
102
RTVSPropertyOp16
 70
     1
102
RTVSPropertyOp17
 70
     1
102
RTVSPropertyOp18
 70
     1
102
RTVSPropertyOp19
 70
     1
102
RTVSPropertyOp20
 70
     1
102
RTVSPropertyOp21
 70
     1
102
RTVSPropertyOp22
 70
     1
102
RTVSPropertyOp23
 70
     1
102
RTVSPropertyOp24
 70
     1
102
RTVSPropertyOp25
 70
     1
102
RTVSPropertyOp26
 70
     1
102
RTVSPropertyOp27
 70
     1
102
RTVSPropertyOp28
 70
     1
102
RTVSPropertyOp29
 70
     1
102
RTVSPropertyOp30
 70
     1
102
RTVSPropertyOp31
 70
     1
102
RTVSPropertyOp32
 70
     1
102
RTVSPropertyOp33
 70
     1
102
RTVSPropertyOp34
 70
     1
102
RTVSPropertyOp35
 70
     1
102
RTVSPropertyOp36
 70
     1
102
RTVSPropertyOp37
 70
     1
102
RTVSPropertyOp38
 70
     1
102
RTVSPropertyOp39
 70
     1
102
RTVSPropertyOp40
 70
     1
102
RTVSPropertyOp41
 70
     1
102
RTVSPropertyOp42
 70
     1
102
RTVSPropertyOp43
 70
     1
102
RTVSPropertyOp44
 70
     1
102
RTVSPropertyOp45
 70
     1
102
RTVSPropertyOp46
 70
     1
102
RTVSPropertyOp47
 70
     1
102
RTVSPropertyOp48
 70
     1
102
RTVSPropertyOp49
 70
     1
102
RTVSPropertyOp50
 70
     1
102
RTVSPropertyOp51
 70
     0
102
RTVSPropertyOp52
 70
     0
102
RTVSPropertyOp53
 70
     1
102
RTVSPropertyOp54
 70
     1
102
RTVSPropertyOp55
 70
     1
102
RTVSPropertyOp56
 70
     1
102
RTVSPropertyOp57
 70
     1
102
RTVSPost2010Prop28
280
     0
102
RTVSPost2010PropOp28
 70
     1
102
RTVSPost2010Prop29
280
     1
102
RTVSPost2010PropOp29
 70
     1
102
RTVSPost2010Prop30
280
     1
102
RTVSPost2010PropOp30
 70
     1
102
RTVSPost2010Prop31
280
     0
102
RTVSPost2010PropOp31
 70
     1
102
RTVSPost2010Prop32
280
     0
102
RTVSPost2010PropOp32
 70
     1
102
RTVSPost2010Prop33
280
     0
102
RTVSPost2010PropOp33
 70
     1
102
RTVSPost2010Prop34
280
     0
102
RTVSPost2010PropOp34
 70
     1
102
RTVSPost2010Prop35
280
     0
102
RTVSPost2010PropOp35
 70
     1
102
RTVSPost2010Prop36
280
     0
102
RTVSPost2010PropOp36
 70
     1
102
RTVSPost2010Prop37
 90
       50
102
RTVSPost2010PropOp37
 70
     1
102
RTVSPost2010Prop38
140
0.0
102
RTVSPost2010PropOp38
 70
     1
102
RTVSPost2010Prop39
140
1.0
102
RTVSPost2010PropOp39
 70
     1
102
RTVSPost2010Prop40
 90
        0
102
RTVSPost2010PropOp40
 70
     1
102
RTVSPost2010Prop41ColorIndex
 90
       18
102
RTVSPost2010Prop41ColorRGB
 90
        0
102
RTVSPost2010PropOp41
 70
     1
102
RTVSPost2010Prop42
 90
       50
102
RTVSPost2010PropOp42
 70
     1
102
RTVSPost2010Prop43
 90
        3
102
RTVSPost2010PropOp43
 70
     1
102
RTVSPost2010Prop44ColorIndex
 90
        5
102
RTVSPost2010Prop44ColorRGB
 90
      255
102
RTVSPost2010PropOp44
 70
     1
102
RTVSPost2010Prop45
280
     0
102
RTVSPost2010PropOp45
 70
     1
102
RTVSPost2010Prop46
 90
       50
102
RTVSPost2010PropOp46
 70
     1
102
RTVSPost2010Prop47
 90
       50
102
RTVSPost2010PropOp47
 70
     1
102
RTVSPost2010Prop48
 90
       50
102
RTVSPost2010PropOp48
 70
     1
102
RTVSPost2010Prop49
280
     0
102
RTVSPost2010PropOp49
 70
     1
102
RTVSPost2010Prop50
 90
       50
102
RTVSPost2010PropOp50
 70
     1
102
RTVSPost2010Prop51ColorIndex
 90
      256
102
RTVSPost2010Prop51ColorRGB
 90
-16777216
102
RTVSPost2010PropOp51
 70
     0
102
RTVSPost2010Prop52
140
1.0
102
RTVSPost2010PropOp52
 70
     0
102
RTVSPost2010Prop53
 90
        2
102
RTVSPost2010PropOp53
 70
     1
102
RTVSPost2010Prop54
  1
strokes_ogs.tif
102
RTVSPost2010PropOp54
 70
     1
102
RTVSPost2010Prop55
280
     0
102
RTVSPost2010PropOp55
 70
     1
102
RTVSPost2010Prop56
140
1.0
102
RTVSPost2010PropOp56
 70
     1
102
RTVSPost2010Prop57
140
1.0
102
RTVSPost2010PropOp57
 70
     1
  0
ENDSEC
  0
EOF
