  0
SECTION
  2
HEADER
  9
$ACADVER
  1
AC1018
  9
$ACADMAINTVER
 70
     0
  9
$DWGCODEPAGE
  3
ANSI_936
  9
$INSBASE
 10
0.0
 20
0.0
 30
0.0
  9
$EXTMIN
 10
177.983564051914
 20
217.0518746777989
 30
0.0
  9
$EXTMAX
 10
287.9834403212408
 20
320.9999728631431
 30
0.0
  9
$LIMMIN
 10
0.0
 20
0.0
  9
$LIMMAX
 10
12.0
 20
9.0
  9
$ORTHOMODE
 70
     0
  9
$REGENMODE
 70
     1
  9
$FILLMODE
 70
     1
  9
$QTEXTMODE
 70
     0
  9
$MIRRTEXT
 70
     1
  9
$LTSCALE
 40
1.0
  9
$ATTMODE
 70
     1
  9
$TEXTSIZE
 40
0.2
  9
$TRACEWID
 40
0.05
  9
$TEXTSTYLE
  7
Standard
  9
$CLAYER
  8
0
  9
$CELTYPE
  6
ByLayer
  9
$CECOLOR
 62
   256
  9
$CELTSCALE
 40
1.0
  9
$DISPSILH
 70
     0
  9
$DIMSCALE
 40
1.0
  9
$DIMASZ
 40
0.18
  9
$DIMEXO
 40
0.0625
  9
$DIMDLI
 40
0.38
  9
$DIMRND
 40
0.0
  9
$DIMDLE
 40
0.0
  9
$DIMEXE
 40
0.18
  9
$DIMTP
 40
0.0
  9
$DIMTM
 40
0.0
  9
$DIMTXT
 40
0.18
  9
$DIMCEN
 40
0.09
  9
$DIMTSZ
 40
0.0
  9
$DIMTOL
 70
     0
  9
$DIMLIM
 70
     0
  9
$DIMTIH
 70
     1
  9
$DIMTOH
 70
     1
  9
$DIMSE1
 70
     0
  9
$DIMSE2
 70
     0
  9
$DIMTAD
 70
     0
  9
$DIMZIN
 70
     0
  9
$DIMBLK
  1

  9
$DIMASO
 70
     1
  9
$DIMSHO
 70
     1
  9
$DIMPOST
  1

  9
$DIMAPOST
  1

  9
$DIMALT
 70
     0
  9
$DIMALTD
 70
     2
  9
$DIMALTF
 40
25.4
  9
$DIMLFAC
 40
1.0
  9
$DIMTOFL
 70
     0
  9
$DIMTVP
 40
0.0
  9
$DIMTIX
 70
     0
  9
$DIMSOXD
 70
     0
  9
$DIMSAH
 70
     0
  9
$DIMBLK1
  1

  9
$DIMBLK2
  1

  9
$DIMSTYLE
  2
Standard
  9
$DIMCLRD
 70
     0
  9
$DIMCLRE
 70
     0
  9
$DIMCLRT
 70
     0
  9
$DIMTFAC
 40
1.0
  9
$DIMGAP
 40
0.09
  9
$DIMJUST
 70
     0
  9
$DIMSD1
 70
     0
  9
$DIMSD2
 70
     0
  9
$DIMTOLJ
 70
     1
  9
$DIMTZIN
 70
     0
  9
$DIMALTZ
 70
     0
  9
$DIMALTTZ
 70
     0
  9
$DIMUPT
 70
     0
  9
$DIMDEC
 70
     4
  9
$DIMTDEC
 70
     4
  9
$DIMALTU
 70
     2
  9
$DIMALTTD
 70
     2
  9
$DIMTXSTY
  7
Standard
  9
$DIMAUNIT
 70
     0
  9
$DIMADEC
 70
     0
  9
$DIMALTRND
 40
0.0
  9
$DIMAZIN
 70
     0
  9
$DIMDSEP
 70
    46
  9
$DIMATFIT
 70
     3
  9
$DIMFRAC
 70
     0
  9
$DIMLDRBLK
  1

  9
$DIMLUNIT
 70
     2
  9
$DIMLWD
 70
    -2
  9
$DIMLWE
 70
    -2
  9
$DIMTMOVE
 70
     2
  9
$LUNITS
 70
     2
  9
$LUPREC
 70
     4
  9
$SKETCHINC
 40
0.1
  9
$FILLETRAD
 40
0.5
  9
$AUNITS
 70
     0
  9
$AUPREC
 70
     0
  9
$MENU
  1
.
  9
$ELEVATION
 40
0.0
  9
$PELEVATION
 40
0.0
  9
$THICKNESS
 40
0.0
  9
$LIMCHECK
 70
     0
  9
$CHAMFERA
 40
0.5
  9
$CHAMFERB
 40
0.5
  9
$CHAMFERC
 40
1.0
  9
$CHAMFERD
 40
0.0
  9
$SKPOLY
 70
     0
  9
$TDCREATE
 40
2457809.485109884
  9
$TDUCREATE
 40
2457809.151776551
  9
$TDUPDATE
 40
2457809.485110011
  9
$TDUUPDATE
 40
2457809.151776678
  9
$TDINDWG
 40
0.0000000116
  9
$TDUSRTIMER
 40
0.0000000116
  9
$USRTIMER
 70
     1
  9
$ANGBASE
 50
0.0
  9
$ANGDIR
 70
     0
  9
$PDMODE
 70
     0
  9
$PDSIZE
 40
0.0
  9
$PLINEWID
 40
0.0
  9
$SPLFRAME
 70
     0
  9
$SPLINETYPE
 70
     6
  9
$SPLINESEGS
 70
     8
  9
$HANDSEED
  5
37D
  9
$SURFTAB1
 70
     6
  9
$SURFTAB2
 70
     6
  9
$SURFTYPE
 70
     6
  9
$SURFU
 70
     6
  9
$SURFV
 70
     6
  9
$UCSBASE
  2

  9
$UCSNAME
  2

  9
$UCSORG
 10
0.0
 20
0.0
 30
0.0
  9
$UCSXDIR
 10
1.0
 20
0.0
 30
0.0
  9
$UCSYDIR
 10
0.0
 20
1.0
 30
0.0
  9
$UCSORTHOREF
  2

  9
$UCSORTHOVIEW
 70
     0
  9
$UCSORGTOP
 10
0.0
 20
0.0
 30
0.0
  9
$UCSORGBOTTOM
 10
0.0
 20
0.0
 30
0.0
  9
$UCSORGLEFT
 10
0.0
 20
0.0
 30
0.0
  9
$UCSORGRIGHT
 10
0.0
 20
0.0
 30
0.0
  9
$UCSORGFRONT
 10
0.0
 20
0.0
 30
0.0
  9
$UCSORGBACK
 10
0.0
 20
0.0
 30
0.0
  9
$PUCSBASE
  2

  9
$PUCSNAME
  2

  9
$PUCSORG
 10
0.0
 20
0.0
 30
0.0
  9
$PUCSXDIR
 10
1.0
 20
0.0
 30
0.0
  9
$PUCSYDIR
 10
0.0
 20
1.0
 30
0.0
  9
$PUCSORTHOREF
  2

  9
$PUCSORTHOVIEW
 70
     0
  9
$PUCSORGTOP
 10
0.0
 20
0.0
 30
0.0
  9
$PUCSORGBOTTOM
 10
0.0
 20
0.0
 30
0.0
  9
$PUCSORGLEFT
 10
0.0
 20
0.0
 30
0.0
  9
$PUCSORGRIGHT
 10
0.0
 20
0.0
 30
0.0
  9
$PUCSORGFRONT
 10
0.0
 20
0.0
 30
0.0
  9
$PUCSORGBACK
 10
0.0
 20
0.0
 30
0.0
  9
$USERI1
 70
     0
  9
$USERI2
 70
     0
  9
$USERI3
 70
     0
  9
$USERI4
 70
     0
  9
$USERI5
 70
     0
  9
$USERR1
 40
0.0
  9
$USERR2
 40
0.0
  9
$USERR3
 40
0.0
  9
$USERR4
 40
0.0
  9
$USERR5
 40
0.0
  9
$WORLDVIEW
 70
     1
  9
$SHADEDGE
 70
     3
  9
$SHADEDIF
 70
    70
  9
$TILEMODE
 70
     1
  9
$MAXACTVP
 70
    64
  9
$PINSBASE
 10
0.0
 20
0.0
 30
0.0
  9
$PLIMCHECK
 70
     0
  9
$PEXTMIN
 10
1.000000000000000E+20
 20
1.000000000000000E+20
 30
1.000000000000000E+20
  9
$PEXTMAX
 10
-1.000000000000000E+20
 20
-1.000000000000000E+20
 30
-1.000000000000000E+20
  9
$PLIMMIN
 10
0.0
 20
0.0
  9
$PLIMMAX
 10
12.0
 20
9.0
  9
$UNITMODE
 70
     0
  9
$VISRETAIN
 70
     1
  9
$PLINEGEN
 70
     0
  9
$PSLTSCALE
 70
     1
  9
$TREEDEPTH
 70
  3020
  9
$CMLSTYLE
  2
Standard
  9
$CMLJUST
 70
     0
  9
$CMLSCALE
 40
1.0
  9
$PROXYGRAPHICS
 70
     1
  9
$MEASUREMENT
 70
     0
  9
$CELWEIGHT
370
    -1
  9
$ENDCAPS
280
     0
  9
$JOINSTYLE
280
     0
  9
$LWDISPLAY
290
     0
  9
$INSUNITS
 70
     4
  9
$HYPERLINKBASE
  1

  9
$STYLESHEET
  1

  9
$XEDIT
290
     1
  9
$CEPSNTYPE
380
     0
  9
$PSTYLEMODE
290
     1
  9
$FINGERPRINTGUID
  2
{1DFBDF3B-935A-4D97-B4DC-8F66B83DDE44}
  9
$VERSIONGUID
  2
{FAEB1C32-E019-11D5-929B-00C0DF256EC4}
  9
$EXTNAMES
290
     1
  9
$PSVPSCALE
 40
0.0
  9
$OLESTARTUP
290
     0
  9
$SORTENTS
280
   127
  9
$INDEXCTL
280
     0
  9
$HIDETEXT
280
     1
  9
$XCLIPFRAME
290
     0
  9
$HALOGAP
280
     0
  9
$OBSCOLOR
 70
   257
  9
$OBSLTYPE
280
     0
  9
$INTERSECTIONDISPLAY
280
     0
  9
$INTERSECTIONCOLOR
 70
   257
  9
$DIMASSOC
280
     2
  9
$PROJECTNAME
  1

  0
ENDSEC
  0
SECTION
  2
CLASSES
  0
CLASS
  1
ACDBDICTIONARYWDFLT
  2
AcDbDictionaryWithDefault
  3
ObjectDBX Classes
 90
        0
 91
        4
280
     0
281
     0
  0
CLASS
  1
VISUALSTYLE
  2
AcDbVisualStyle
  3
ObjectDBX Classes
 90
     4095
 91
        4
280
     0
281
     0
  0
CLASS
  1
MATERIAL
  2
AcDbMaterial
  3
ObjectDBX Classes
 90
     1153
 91
        4
280
     0
281
     0
  0
CLASS
  1
SCALE
  2
AcDbScale
  3
ObjectDBX Classes
 90
     1153
 91
        4
280
     0
281
     0
  0
CLASS
  1
SUN
  2
AcDbSun
  3
SCENEOE
 90
     1153
 91
        4
280
     0
281
     0
  0
CLASS
  1
DICTIONARYVAR
  2
AcDbDictionaryVar
  3
ObjectDBX Classes
 90
        0
 91
        4
280
     0
281
     0
  0
ENDSEC
  0
SECTION
  2
TABLES
  0
TABLE
  2
VPORT
  5
8
330
0
100
AcDbSymbolTable
 70
     1
  0
VPORT
  5
29
330
8
100
AcDbSymbolTableRecord
100
AcDbViewportTableRecord
  2
*Active
 70
     0
 10
0.0
 20
0.0
 11
1.0
 21
1.0
 12
232.9835021865774
 22
269.025923770471
 13
0.0
 23
0.0
 14
0.5
 24
0.5
 15
0.5
 25
0.5
 16
0.0
 26
0.0
 36
1.0
 17
0.0
 27
0.0
 37
0.0
 40
106.027060149051
 41
1.058219228534533
 42
50.0
 43
0.0
 44
0.0
 50
0.0
 51
0.0
 71
     0
 72
   100
 73
     1
 74
     3
 75
     0
 76
     0
 77
     0
 78
     0
281
     0
 65
     1
110
0.0
120
0.0
130
0.0
111
1.0
121
0.0
131
0.0
112
0.0
122
1.0
132
0.0
 79
     0
146
0.0
  0
ENDTAB
  0
TABLE
  2
LTYPE
  5
5
330
0
100
AcDbSymbolTable
 70
     1
  0
LTYPE
  5
14
330
5
100
AcDbSymbolTableRecord
100
AcDbLinetypeTableRecord
  2
ByBlock
 70
     0
  3

 72
    65
 73
     0
 40
0.0
  0
LTYPE
  5
15
330
5
100
AcDbSymbolTableRecord
100
AcDbLinetypeTableRecord
  2
ByLayer
 70
     0
  3

 72
    65
 73
     0
 40
0.0
  0
LTYPE
  5
16
330
5
100
AcDbSymbolTableRecord
100
AcDbLinetypeTableRecord
  2
Continuous
 70
     0
  3
Solid line
 72
    65
 73
     0
 40
0.0
  0
ENDTAB
  0
TABLE
  2
LAYER
  5
2
330
0
100
AcDbSymbolTable
 70
     2
  0
LAYER
  5
10
330
2
100
AcDbSymbolTableRecord
100
AcDbLayerTableRecord
  2
0
 70
     0
 62
     7
  6
Continuous
370
    -3
390
F
  0
LAYER
  5
62
330
2
100
AcDbSymbolTableRecord
100
AcDbLayerTableRecord
  2
Make2D$可见线$普通线
 70
     0
 62
    18
420
        0
  6
Continuous
370
    -3
390
F
  0
ENDTAB
  0
TABLE
  2
STYLE
  5
3
330
0
100
AcDbSymbolTable
 70
     1
  0
STYLE
  5
11
330
3
100
AcDbSymbolTableRecord
100
AcDbTextStyleTableRecord
  2
Standard
 70
     0
 40
0.0
 41
1.0
 50
0.0
 71
     0
 42
0.2
  3
txt
  4

  0
ENDTAB
  0
TABLE
  2
VIEW
  5
6
330
0
100
AcDbSymbolTable
 70
     0
  0
ENDTAB
  0
TABLE
  2
UCS
  5
7
330
0
100
AcDbSymbolTable
 70
     0
  0
ENDTAB
  0
TABLE
  2
APPID
  5
9
330
0
100
AcDbSymbolTable
 70
     1
  0
APPID
  5
12
330
9
100
AcDbSymbolTableRecord
100
AcDbRegAppTableRecord
  2
ACAD
 70
     0
  0
ENDTAB
  0
TABLE
  2
DIMSTYLE
  5
A
330
0
100
AcDbSymbolTable
 70
     1
100
AcDbDimStyleTable
  0
DIMSTYLE
105
27
330
A
100
AcDbSymbolTableRecord
100
AcDbDimStyleTableRecord
  2
Standard
 70
     0
178
     0
340
11
  0
ENDTAB
  0
TABLE
  2
BLOCK_RECORD
  5
1
330
0
100
AcDbSymbolTable
 70
     1
  0
BLOCK_RECORD
  5
1F
330
1
100
AcDbSymbolTableRecord
100
AcDbBlockTableRecord
  2
*Model_Space
340
22
  0
BLOCK_RECORD
  5
1B
330
1
100
AcDbSymbolTableRecord
100
AcDbBlockTableRecord
  2
*Paper_Space
340
1E
  0
BLOCK_RECORD
  5
23
330
1
100
AcDbSymbolTableRecord
100
AcDbBlockTableRecord
  2
*Paper_Space0
340
26
  0
ENDTAB
  0
ENDSEC
  0
SECTION
  2
BLOCKS
  0
BLOCK
  5
20
330
1F
100
AcDbEntity
  8
0
100
AcDbBlockBegin
  2
*Model_Space
 70
     0
 10
0.0
 20
0.0
 30
0.0
  3
*Model_Space
  1
*Model_Space
  0
ENDBLK
  5
21
330
1F
100
AcDbEntity
  8
0
100
AcDbBlockEnd
  0
BLOCK
  5
1C
330
1B
100
AcDbEntity
 67
     1
  8
0
100
AcDbBlockBegin
  2
*Paper_Space
 70
     0
 10
0.0
 20
0.0
 30
0.0
  3
*Paper_Space
  1
*Paper_Space
  0
ENDBLK
  5
1D
330
1B
100
AcDbEntity
 67
     1
  8
0
100
AcDbBlockEnd
  0
BLOCK
  5
24
330
23
100
AcDbEntity
  8
0
100
AcDbBlockBegin
  2
*Paper_Space0
 70
     0
 10
0.0
 20
0.0
 30
0.0
  3
*Paper_Space0
  1
*Paper_Space0
  0
ENDBLK
  5
25
330
23
100
AcDbEntity
  8
0
100
AcDbBlockEnd
  0
ENDSEC
  0
SECTION
  2
ENTITIES
  0
SPLINE
  5
63
330
1F
100
AcDbEntity
  8
Make2D$可见线$普通线
100
AcDbSpline
210
0.0
220
0.0
230
1.0
 70
    12
 71
     3
 72
    56
 73
    52
 74
     0
 42
0.000000001
 43
0.0000000001
 12
1.0
 22
0.0
 32
0.0
 13
1.0
 23
0.0
 33
0.0
 40
0.0
 40
0.0
 40
0.0
 40
0.0
 40
0.8571098697328917
 40
0.8571098697328917
 40
0.8571098697328917
 40
1.618137197678016
 40
1.618137197678016
 40
1.618137197678016
 40
9.37325356003466
 40
9.37325356003466
 40
9.37325356003466
 40
10.70543246548122
 40
10.70543246548122
 40
10.70543246548122
 40
17.44624419175548
 40
17.44624419175548
 40
17.44624419175548
 40
19.56879567600538
 40
19.56879567600538
 40
19.56879567600538
 40
25.29281724372509
 40
25.29281724372509
 40
25.29281724372509
 40
28.44718746862107
 40
28.44718746862107
 40
28.44718746862107
 40
31.82719912082916
 40
31.82719912082916
 40
31.82719912082916
 40
37.5500574326478
 40
37.5500574326478
 40
37.5500574326478
 40
40.52120721595144
 40
40.52120721595144
 40
40.52120721595144
 40
47.31585571380116
 40
47.31585571380116
 40
47.31585571380116
 40
49.62167516751035
 40
49.62167516751035
 40
49.62167516751035
 40
57.58138347882608
 40
57.58138347882608
 40
57.58138347882608
 40
58.93641163173911
 40
58.93641163173911
 40
58.93641163173911
 40
68.32484332282765
 40
68.32484332282765
 40
68.32484332282765
 40
77.66540553756789
 40
77.66540553756789
 40
77.66540553756789
 40
77.66540553756789
 10
177.9836770341065
 20
242.1410193675908
 30
0.0
 41
1.0
 10
177.9833812987807
 20
241.8552503726989
 30
0.0
 41
0.9995391674331291
 10
177.9937093811278
 20
241.5696679211793
 30
0.0
 41
0.9995391674331282
 10
178.0146470025981
 20
241.2846668301145
 30
0.0
 41
1.0
 10
178.0332570062678
 20
241.0316289923027
 30
0.0
 41
0.9996414877431987
 10
178.0601543576822
 20
240.7793374702733
 30
0.0
 41
0.9996414877431982
 10
178.0953101277507
 20
240.5280636128349
 30
0.0
 41
1.0
 10
178.261160318336
 20
239.3417740062705
 30
0.0
 41
1.0
 10
178.6112695108049
 20
238.1622537923116
 30
0.0
 41
1.0
 10
179.1405039708564
 20
237.0015895426922
 30
0.0
 41
1.0
 10
179.3251206594871
 20
236.5975646106236
 30
0.0
 41
0.9993386616072617
 10
179.5275459371034
 20
236.2021616839324
 30
0.0
 41
0.9993386616072615
 10
179.7473781888822
 20
235.8161652480267
 30
0.0
 41
1.0
 10
180.313820211013
 20
234.8197343671216
 30
0.0
 41
1.0
 10
181.0139999234955
 20
233.8405706263725
 30
0.0
 41
1.0
 10
181.8416575410126
 20
232.885858519573
 30
0.0
 41
1.0
 10
182.3060166565395
 20
232.3517224164084
 30
0.0
 41
0.9993009124667578
 10
182.7943436497559
 20
231.839406583574
 30
0.0
 41
0.9993009124667579
 10
183.3056143707227
 20
231.3499854819051
 30
0.0
 41
1.0
 10
184.1252330444583
 20
230.5632823439411
 30
0.0
 41
1.0
 10
185.0342794114844
 20
229.7966509562596
 30
0.0
 41
1.0
 10
186.0278091188175
 20
229.0540427845729
 30
0.0
 41
1.0
 10
186.8712445265335
 20
228.4256648417978
 30
0.0
 41
0.9993845980286182
 10
187.7408949531232
 20
227.8340989016966
 30
0.0
 41
0.9993845980286181
 10
188.6351548448258
 20
227.2804371168065
 30
0.0
 41
1.0
 10
189.5931738007007
 20
226.6869829651453
 30
0.0
 41
0.9995263126685134
 10
190.5728795070325
 20
226.1300584829038
 30
0.0
 41
0.9995263126685126
 10
191.5728797412767
 20
225.6104550942974
 30
0.0
 41
1.0
 10
192.8277567365731
 20
224.9565798033482
 30
0.0
 41
1.0
 10
194.1572171093173
 20
224.33265198429
 30
0.0
 41
1.0
 10
195.554097892122
 20
223.7418824788494
 30
0.0
 41
1.0
 10
196.4665148272738
 20
223.3564889072552
 30
0.0
 41
0.999822778530651
 10
197.3875749688742
 20
222.9922347595329
 30
0.0
 41
0.9998227785306495
 10
198.3167886220282
 20
222.6493136966484
 30
0.0
 41
1.0
 10
200.0738524516109
 20
222.0000204836984
 30
0.0
 41
1.0
 10
201.9188275155462
 20
221.4001694811137
 30
0.0
 41
1.0
 10
203.8380156094833
 20
220.8543322329041
 30
0.0
 41
1.0
 10
204.5773536621489
 20
220.6441625935261
 30
0.0
 41
0.9999388871546397
 10
205.319469625767
 20
220.4440228174214
 30
0.0
 41
0.999938887154639
 10
206.0642274418827
 20
220.2539495979236
 30
0.0
 41
1.0
 10
208.3757611929754
 20
219.6636949366597
 30
0.0
 41
1.0
 10
210.7809685910022
 20
219.1494532674037
 30
0.0
 41
1.0
 10
213.2553084527189
 20
218.7168370317286
 30
0.0
 41
1.0
 10
213.7002399159282
 20
218.639054265892
 30
0.0
 41
0.9999857334039228
 10
214.1456707218166
 20
218.5641839594925
 30
0.0
 41
0.9999857334039219
 10
214.5915818060398
 20
218.4922293169637
 30
0.0
 41
1.0
 10
217.53723805657
 20
218.0168458010359
 30
0.0
 41
1.0
 10
220.5719440802925
 20
217.6556723513992
 30
0.0
 41
1.0
 10
223.6523516184287
 20
217.4145124069051
 30
0.0
 41
1.0
 10
226.7572308278351
 20
217.1723272287129
 30
0.0
 41
0.9994930569787966
 10
229.8691919375184
 20
217.0513866757082
 30
0.0
 41
0.9994930569787961
 10
232.9835021865775
 20
217.051874677799
 30
0.0
 41
1.0
  0
POLYLINE
  5
64
330
1F
100
AcDbEntity
  8
Make2D$可见线$普通线
100
AcDb2dPolyline
 66
     1
 10
0.0
 20
0.0
 30
0.0
  0
VERTEX
  5
65
330
64
100
AcDbEntity
  8
Make2D$可见线$普通线
100
AcDbVertex
100
AcDb2dVertex
 10
232.9835021865775
 20
217.0518746777989
 30
0.0
  0
VERTEX
  5
66
330
64
100
AcDbEntity
  8
Make2D$可见线$普通线
100
AcDbVertex
100
AcDb2dVertex
 10
234.1508606073883
 20
217.0573817638756
 30
0.0
  0
VERTEX
  5
67
330
64
100
AcDbEntity
  8
Make2D$可见线$普通线
100
AcDbVertex
100
AcDb2dVertex
 10
235.3182763232113
 20
217.0742715604731
 30
0.0
  0
VERTEX
  5
68
330
64
100
AcDbEntity
  8
Make2D$可见线$普通线
100
AcDbVertex
100
AcDb2dVertex
 10
236.4855828476494
 20
217.1025457173731
 30
0.0
  0
VERTEX
  5
69
330
64
100
AcDbEntity
  8
Make2D$可见线$普通线
100
AcDbVertex
100
AcDb2dVertex
 10
237.6526136621305
 20
217.1422026374379
 30
0.0
  0
VERTEX
  5
6A
330
64
100
AcDbEntity
  8
Make2D$可见线$普通线
100
AcDbVertex
100
AcDb2dVertex
 10
238.8192022950636
 20
217.1932374762112
 30
0.0
  0
VERTEX
  5
6B
330
64
100
AcDbEntity
  8
Make2D$可见线$普通线
100
AcDbVertex
100
AcDb2dVertex
 10
239.9851824009843
 20
217.2556421438363
 30
0.0
  0
VERTEX
  5
6C
330
64
100
AcDbEntity
  8
Make2D$可见线$普通线
100
AcDbVertex
100
AcDb2dVertex
 10
241.1503878396098
 20
217.3294053092863
 30
0.0
  0
VERTEX
  5
6D
330
64
100
AcDbEntity
  8
Make2D$可见线$普通线
100
AcDbVertex
100
AcDb2dVertex
 10
242.3146527547258
 20
217.414512406905
 30
0.0
  0
VERTEX
  5
6E
330
64
100
AcDbEntity
  8
Make2D$可见线$普通线
100
AcDbVertex
100
AcDb2dVertex
 10
243.467578658476
 20
217.5105616843028
 30
0.0
  0
VERTEX
  5
6F
330
64
100
AcDbEntity
  8
Make2D$可见线$普通线
100
AcDbVertex
100
AcDb2dVertex
 10
244.615712057838
 20
217.6177942187581
 30
0.0
  0
VERTEX
  5
70
330
64
100
AcDbEntity
  8
Make2D$可见线$普通线
100
AcDbVertex
100
AcDb2dVertex
 10
245.7585449654057
 20
217.7361420012221
 30
0.0
  0
VERTEX
  5
71
330
64
100
AcDbEntity
  8
Make2D$可见线$普通线
100
AcDbVertex
100
AcDb2dVertex
 10
246.8955693937729
 20
217.8655370226461
 30
0.0
  0
VERTEX
  5
72
330
64
100
AcDbEntity
  8
Make2D$可见线$普通线
100
AcDbVertex
100
AcDb2dVertex
 10
248.0262773555336
 20
218.0059112739811
 30
0.0
  0
VERTEX
  5
73
330
64
100
AcDbEntity
  8
Make2D$可见线$普通线
100
AcDbVertex
100
AcDb2dVertex
 10
249.1501608632816
 20
218.1571967461783
 30
0.0
  0
VERTEX
  5
74
330
64
100
AcDbEntity
  8
Make2D$可见线$普通线
100
AcDbVertex
100
AcDb2dVertex
 10
250.2667119296108
 20
218.3193254301887
 30
0.0
  0
VERTEX
  5
75
330
64
100
AcDbEntity
  8
Make2D$可见线$普通线
100
AcDbVertex
100
AcDb2dVertex
 10
251.3754225671151
 20
218.4922293169636
 30
0.0
  0
VERTEX
  5
76
330
64
100
AcDbEntity
  8
Make2D$可见线$普通线
100
AcDbVertex
100
AcDb2dVertex
 10
252.7116959183946
 20
218.7168370313717
 30
0.0
  0
VERTEX
  5
77
330
64
100
AcDbEntity
  8
Make2D$可见线$普通线
100
AcDbVertex
100
AcDb2dVertex
 10
254.5541050222845
 20
219.0565162825891
 30
0.0
  0
VERTEX
  5
78
330
64
100
AcDbEntity
  8
Make2D$可见线$普通线
100
AcDbVertex
100
AcDb2dVertex
 10
256.3682887163484
 20
219.4262789050188
 30
0.0
  0
VERTEX
  5
79
330
64
100
AcDbEntity
  8
Make2D$可见线$普通线
100
AcDbVertex
100
AcDb2dVertex
 10
258.1519462646547
 20
219.8255987322629
 30
0.0
  0
VERTEX
  5
7A
330
64
100
AcDbEntity
  8
Make2D$可见线$普通线
100
AcDbVertex
100
AcDb2dVertex
 10
259.9027769312722
 20
220.2539495979235
 30
0.0
  0
VERTEX
  5
7B
330
64
100
AcDbEntity
  8
Make2D$可见线$普通线
100
AcDbVertex
100
AcDb2dVertex
 10
261.0179152274557
 20
220.5466048730338
 30
0.0
  0
VERTEX
  5
7C
330
64
100
AcDbEntity
  8
Make2D$可见线$普通线
100
AcDbVertex
100
AcDb2dVertex
 10
262.1289887631597
 20
220.8543322327585
 30
0.0
  0
VERTEX
  5
7D
330
64
100
AcDbEntity
  8
Make2D$可见线$普通线
100
AcDbVertex
100
AcDb2dVertex
 10
263.5542508561797
 20
221.2737663175169
 30
0.0
  0
VERTEX
  5
7E
330
64
100
AcDbEntity
  8
Make2D$可见线$普通线
100
AcDbVertex
100
AcDb2dVertex
 10
264.9503988562864
 20
221.7130269779187
 30
0.0
  0
VERTEX
  5
7F
330
64
100
AcDbEntity
  8
Make2D$可见线$普通线
100
AcDbVertex
100
AcDb2dVertex
 10
266.3161485568216
 20
222.1716856317129
 30
0.0
  0
VERTEX
  5
80
330
64
100
AcDbEntity
  8
Make2D$可见线$普通线
100
AcDbVertex
100
AcDb2dVertex
 10
267.6502157511268
 20
222.6493136966484
 30
0.0
  0
VERTEX
  5
81
330
64
100
AcDbEntity
  8
Make2D$可见线$普通线
100
AcDbVertex
100
AcDb2dVertex
 10
269.0378596061792
 20
223.1796716027188
 30
0.0
  0
VERTEX
  5
82
330
64
100
AcDbEntity
  8
Make2D$可见线$普通线
100
AcDbVertex
100
AcDb2dVertex
 10
270.4129064809436
 20
223.7418824788115
 30
0.0
  0
VERTEX
  5
83
330
64
100
AcDbEntity
  8
Make2D$可见线$普通线
100
AcDbVertex
100
AcDb2dVertex
 10
271.4478138198195
 20
224.1911266223021
 30
0.0
  0
VERTEX
  5
84
330
64
100
AcDbEntity
  8
Make2D$可见线$普通线
100
AcDbVertex
100
AcDb2dVertex
 10
272.4567669767288
 20
224.6525041169877
 30
0.0
  0
VERTEX
  5
85
330
64
100
AcDbEntity
  8
Make2D$可见线$普通线
100
AcDbVertex
100
AcDb2dVertex
 10
273.4390944234791
 20
225.1257139464567
 30
0.0
  0
VERTEX
  5
86
330
64
100
AcDbEntity
  8
Make2D$可见线$普通线
100
AcDbVertex
100
AcDb2dVertex
 10
274.3941246318782
 20
225.6104550942973
 30
0.0
  0
VERTEX
  5
87
330
64
100
AcDbEntity
  8
Make2D$可见线$普通线
100
AcDbVertex
100
AcDb2dVertex
 10
275.1401649022534
 20
226.0070731074468
 30
0.0
  0
VERTEX
  5
88
330
64
100
AcDbEntity
  8
Make2D$可见线$普通线
100
AcDbVertex
100
AcDb2dVertex
 10
275.8787281945064
 20
226.4177553501443
 30
0.0
  0
VERTEX
  5
89
330
64
100
AcDbEntity
  8
Make2D$可见线$普通线
100
AcDbVertex
100
AcDb2dVertex
 10
276.6094188318909
 20
226.8422866606144
 30
0.0
  0
VERTEX
  5
8A
330
64
100
AcDbEntity
  8
Make2D$可见线$普通线
100
AcDbVertex
100
AcDb2dVertex
 10
277.3318495283084
 20
227.2804371167936
 30
0.0
  0
VERTEX
  5
8B
330
64
100
AcDbEntity
  8
Make2D$可见线$普通线
100
AcDbVertex
100
AcDb2dVertex
 10
277.9977507758196
 20
227.7026767314597
 30
0.0
  0
VERTEX
  5
8C
330
64
100
AcDbEntity
  8
Make2D$可见线$普通线
100
AcDbVertex
100
AcDb2dVertex
 10
278.6545786391997
 20
228.1392257041355
 30
0.0
  0
VERTEX
  5
8D
330
64
100
AcDbEntity
  8
Make2D$可见线$普通线
100
AcDbVertex
100
AcDb2dVertex
 10
279.3018750792094
 20
228.5897866505205
 30
0.0
  0
VERTEX
  5
8E
330
64
100
AcDbEntity
  8
Make2D$可见线$普通线
100
AcDbVertex
100
AcDb2dVertex
 10
279.9391952543374
 20
229.0540427845729
 30
0.0
  0
VERTEX
  5
8F
330
64
100
AcDbEntity
  8
Make2D$可见线$普通线
100
AcDbVertex
100
AcDb2dVertex
 10
280.6684246530291
 20
229.615441524697
 30
0.0
  0
VERTEX
  5
90
330
64
100
AcDbEntity
  8
Make2D$可见线$普通线
100
AcDbVertex
100
AcDb2dVertex
 10
281.3655092660117
 20
230.1854785209084
 30
0.0
  0
VERTEX
  5
91
330
64
100
AcDbEntity
  8
Make2D$可见线$普通线
100
AcDbVertex
100
AcDb2dVertex
 10
282.0299855601933
 20
230.7637833232972
 30
0.0
  0
VERTEX
  5
92
330
64
100
AcDbEntity
  8
Make2D$可见线$普通线
100
AcDbVertex
100
AcDb2dVertex
 10
282.6613900024823
 20
231.3499854819533
 30
0.0
  0
VERTEX
  5
93
330
64
100
AcDbEntity
  8
Make2D$可见线$普通线
100
AcDbVertex
100
AcDb2dVertex
 10
283.0404250849587
 20
231.7212304452859
 30
0.0
  0
VERTEX
  5
94
330
64
100
AcDbEntity
  8
Make2D$可见线$普通线
100
AcDbVertex
100
AcDb2dVertex
 10
283.4109571931773
 20
232.1011568073375
 30
0.0
  0
VERTEX
  5
95
330
64
100
AcDbEntity
  8
Make2D$可见线$普通线
100
AcDbVertex
100
AcDb2dVertex
 10
283.7726914538265
 20
232.4894690637437
 30
0.0
  0
VERTEX
  5
96
330
64
100
AcDbEntity
  8
Make2D$可见线$普通线
100
AcDbVertex
100
AcDb2dVertex
 10
284.1253468321423
 20
232.885858519573
 30
0.0
  0
VERTEX
  5
97
330
64
100
AcDbEntity
  8
Make2D$可见线$普通线
100
AcDbVertex
100
AcDb2dVertex
 10
284.4297306858248
 20
233.2450076978165
 30
0.0
  0
VERTEX
  5
98
330
64
100
AcDbEntity
  8
Make2D$可见线$普通线
100
AcDbVertex
100
AcDb2dVertex
 10
284.7220901290466
 20
233.6063650234568
 30
0.0
  0
VERTEX
  5
99
330
64
100
AcDbEntity
  8
Make2D$可见线$普通线
100
AcDbVertex
100
AcDb2dVertex
 10
285.0023518049486
 20
233.9698463032075
 30
0.0
  0
VERTEX
  5
9A
330
64
100
AcDbEntity
  8
Make2D$可见线$普通线
100
AcDbVertex
100
AcDb2dVertex
 10
285.2704423566714
 20
234.3353673437817
 30
0.0
  0
VERTEX
  5
9B
330
64
100
AcDbEntity
  8
Make2D$可见线$普通线
100
AcDbVertex
100
AcDb2dVertex
 10
285.5262884273559
 20
234.7028439518927
 30
0.0
  0
VERTEX
  5
9C
330
64
100
AcDbEntity
  8
Make2D$可见线$普通线
100
AcDbVertex
100
AcDb2dVertex
 10
285.769816660143
 20
235.0721919342539
 30
0.0
  0
VERTEX
  5
9D
330
64
100
AcDbEntity
  8
Make2D$可见线$普通线
100
AcDbVertex
100
AcDb2dVertex
 10
286.0009536981731
 20
235.4433270975786
 30
0.0
  0
VERTEX
  5
9E
330
64
100
AcDbEntity
  8
Make2D$可见线$普通线
100
AcDbVertex
100
AcDb2dVertex
 10
286.2196261845874
 20
235.8161652485801
 30
0.0
  0
VERTEX
  5
9F
330
64
100
AcDbEntity
  8
Make2D$可见线$普通线
100
AcDbVertex
100
AcDb2dVertex
 10
286.381189788649
 20
236.1073419888637
 30
0.0
  0
VERTEX
  5
A0
330
64
100
AcDbEntity
  8
Make2D$可见线$普通线
100
AcDbVertex
100
AcDb2dVertex
 10
286.5362669451461
 20
236.4021178279116
 30
0.0
  0
VERTEX
  5
A1
330
64
100
AcDbEntity
  8
Make2D$可见线$普通线
100
AcDbVertex
100
AcDb2dVertex
 10
286.6847398189797
 20
236.7002747085787
 30
0.0
  0
VERTEX
  5
A2
330
64
100
AcDbEntity
  8
Make2D$可见线$普通线
100
AcDbVertex
100
AcDb2dVertex
 10
286.8265004022985
 20
237.001589542692
 30
0.0
  0
VERTEX
  5
A3
330
64
100
AcDbEntity
  8
Make2D$可见线$普通线
100
AcDbVertex
100
AcDb2dVertex
 10
287.0165568013849
 20
237.4376989037875
 30
0.0
  0
VERTEX
  5
A4
330
64
100
AcDbEntity
  8
Make2D$可见线$普通线
100
AcDbVertex
100
AcDb2dVertex
 10
287.1897600456289
 20
237.8754343720326
 30
0.0
  0
VERTEX
  5
A5
330
64
100
AcDbEntity
  8
Make2D$可见线$普通线
100
AcDbVertex
100
AcDb2dVertex
 10
287.2700229343885
 20
238.0948676339883
 30
0.0
  0
VERTEX
  5
A6
330
64
100
AcDbEntity
  8
Make2D$可见线$普通线
100
AcDbVertex
100
AcDb2dVertex
 10
287.3460499740815
 20
238.3146543079139
 30
0.0
  0
VERTEX
  5
A7
330
64
100
AcDbEntity
  8
Make2D$可见线$普通线
100
AcDbVertex
100
AcDb2dVertex
 10
287.4178336445893
 20
238.5347766888704
 30
0.0
  0
VERTEX
  5
A8
330
64
100
AcDbEntity
  8
Make2D$可见线$普通线
100
AcDbVertex
100
AcDb2dVertex
 10
287.4853664257935
 20
238.7552170719184
 30
0.0
  0
VERTEX
  5
A9
330
64
100
AcDbEntity
  8
Make2D$可见线$普通线
100
AcDbVertex
100
AcDb2dVertex
 10
287.5486407975751
 20
238.9759577521189
 30
0.0
  0
VERTEX
  5
AA
330
64
100
AcDbEntity
  8
Make2D$可见线$普通线
100
AcDbVertex
100
AcDb2dVertex
 10
287.6076492398157
 20
239.1969810245327
 30
0.0
  0
VERTEX
  5
AB
330
64
100
AcDbEntity
  8
Make2D$可见线$普通线
100
AcDbVertex
100
AcDb2dVertex
 10
287.6623842323966
 20
239.4182691842207
 30
0.0
  0
VERTEX
  5
AC
330
64
100
AcDbEntity
  8
Make2D$可见线$普通线
100
AcDbVertex
100
AcDb2dVertex
 10
287.712838255199
 20
239.6398045262437
 30
0.0
  0
VERTEX
  5
AD
330
64
100
AcDbEntity
  8
Make2D$可见线$普通线
100
AcDbVertex
100
AcDb2dVertex
 10
287.7590037881045
 20
239.8615693456625
 30
0.0
  0
VERTEX
  5
AE
330
64
100
AcDbEntity
  8
Make2D$可见线$普通线
100
AcDbVertex
100
AcDb2dVertex
 10
287.8008733109943
 20
240.0835459375381
 30
0.0
  0
VERTEX
  5
AF
330
64
100
AcDbEntity
  8
Make2D$可见线$普通线
100
AcDbVertex
100
AcDb2dVertex
 10
287.8384393037499
 20
240.3057165969312
 30
0.0
  0
VERTEX
  5
B0
330
64
100
AcDbEntity
  8
Make2D$可见线$普通线
100
AcDbVertex
100
AcDb2dVertex
 10
287.8716942462525
 20
240.5280636189027
 30
0.0
  0
VERTEX
  5
B1
330
64
100
AcDbEntity
  8
Make2D$可见线$普通线
100
AcDbVertex
100
AcDb2dVertex
 10
287.9182299144434
 20
240.9057037911847
 30
0.0
  0
VERTEX
  5
B2
330
64
100
AcDbEntity
  8
Make2D$可见线$普通线
100
AcDbVertex
100
AcDb2dVertex
 10
287.9523573705568
 20
241.2846668301138
 30
0.0
  0
VERTEX
  5
B3
330
64
100
AcDbEntity
  8
Make2D$可见线$普通线
100
AcDbVertex
100
AcDb2dVertex
 10
287.966068532434
 20
241.4984835251307
 30
0.0
  0
VERTEX
  5
B4
330
64
100
AcDbEntity
  8
Make2D$可见线$普通线
100
AcDbVertex
100
AcDb2dVertex
 10
287.9758039459383
 20
241.7125551681044
 30
0.0
  0
VERTEX
  5
B5
330
64
100
AcDbEntity
  8
Make2D$可见线$普通线
100
AcDbVertex
100
AcDb2dVertex
 10
287.9815575317121
 20
241.9267708137801
 30
0.0
  0
VERTEX
  5
B6
330
64
100
AcDbEntity
  8
Make2D$可见线$普通线
100
AcDbVertex
100
AcDb2dVertex
 10
287.9833273390486
 20
242.1410193675908
 30
0.0
  0
SEQEND
  5
B7
330
64
100
AcDbEntity
  8
Make2D$可见线$普通线
  0
POLYLINE
  5
B8
330
1F
100
AcDbEntity
  8
Make2D$可见线$普通线
100
AcDb2dPolyline
 66
     1
 10
0.0
 20
0.0
 30
0.0
  0
VERTEX
  5
B9
330
B8
100
AcDbEntity
  8
Make2D$可见线$普通线
100
AcDbVertex
100
AcDb2dVertex
 10
287.9834401606738
 20
261.3617316762113
 30
0.0
  0
VERTEX
  5
BA
330
B8
100
AcDbEntity
  8
Make2D$可见线$普通线
100
AcDbVertex
100
AcDb2dVertex
 10
287.981670941218
 20
261.575814221819
 30
0.0
  0
VERTEX
  5
BB
330
B8
100
AcDbEntity
  8
Make2D$可见线$普通线
100
AcDbVertex
100
AcDb2dVertex
 10
287.9759210515158
 20
261.7898681366156
 30
0.0
  0
VERTEX
  5
BC
330
B8
100
AcDbEntity
  8
Make2D$可见线$普通线
100
AcDbVertex
100
AcDb2dVertex
 10
287.9661926482449
 20
262.003877518384
 30
0.0
  0
VERTEX
  5
BD
330
B8
100
AcDbEntity
  8
Make2D$可见线$普通线
100
AcDbVertex
100
AcDb2dVertex
 10
287.9524878880829
 20
262.2178264649073
 30
0.0
  0
VERTEX
  5
BE
330
B8
100
AcDbEntity
  8
Make2D$可见线$普通线
100
AcDbVertex
100
AcDb2dVertex
 10
287.9348089277074
 20
262.4316990739684
 30
0.0
  0
VERTEX
  5
BF
330
B8
100
AcDbEntity
  8
Make2D$可见线$普通线
100
AcDbVertex
100
AcDb2dVertex
 10
287.9131579237962
 20
262.6454794433505
 30
0.0
  0
VERTEX
  5
C0
330
B8
100
AcDbEntity
  8
Make2D$可见线$普通线
100
AcDbVertex
100
AcDb2dVertex
 10
287.8875370330269
 20
262.8591516708365
 30
0.0
  0
VERTEX
  5
C1
330
B8
100
AcDbEntity
  8
Make2D$可见线$普通线
100
AcDbVertex
100
AcDb2dVertex
 10
287.8579484120772
 20
263.0726998542094
 30
0.0
  0
VERTEX
  5
C2
330
B8
100
AcDbEntity
  8
Make2D$可见线$普通线
100
AcDbVertex
100
AcDb2dVertex
 10
287.8243942176246
 20
263.2861080912525
 30
0.0
  0
VERTEX
  5
C3
330
B8
100
AcDbEntity
  8
Make2D$可见线$普通线
100
AcDbVertex
100
AcDb2dVertex
 10
287.7868766063468
 20
263.4993604797484
 30
0.0
  0
VERTEX
  5
C4
330
B8
100
AcDbEntity
  8
Make2D$可见线$普通线
100
AcDbVertex
100
AcDb2dVertex
 10
287.7453977349216
 20
263.7124411174805
 30
0.0
  0
VERTEX
  5
C5
330
B8
100
AcDbEntity
  8
Make2D$可见线$普通线
100
AcDbVertex
100
AcDb2dVertex
 10
287.6999597600266
 20
263.9253341022317
 30
0.0
  0
VERTEX
  5
C6
330
B8
100
AcDbEntity
  8
Make2D$可见线$普通线
100
AcDbVertex
100
AcDb2dVertex
 10
287.6505648383393
 20
264.1380235317851
 30
0.0
  0
VERTEX
  5
C7
330
B8
100
AcDbEntity
  8
Make2D$可见线$普通线
100
AcDbVertex
100
AcDb2dVertex
 10
287.5972151265374
 20
264.3504935039235
 30
0.0
  0
VERTEX
  5
C8
330
B8
100
AcDbEntity
  8
Make2D$可见线$普通线
100
AcDbVertex
100
AcDb2dVertex
 10
287.5399127812988
 20
264.5627281164301
 30
0.0
  0
VERTEX
  5
C9
330
B8
100
AcDbEntity
  8
Make2D$可见线$普通线
100
AcDbVertex
100
AcDb2dVertex
 10
287.4786599593009
 20
264.774711467088
 30
0.0
  0
VERTEX
  5
CA
330
B8
100
AcDbEntity
  8
Make2D$可见线$普通线
100
AcDbVertex
100
AcDb2dVertex
 10
287.3498303225373
 20
265.1814280811988
 30
0.0
  0
VERTEX
  5
CB
330
B8
100
AcDbEntity
  8
Make2D$可见线$普通线
100
AcDbVertex
100
AcDb2dVertex
 10
287.2076779294219
 20
265.5836819520737
 30
0.0
  0
VERTEX
  5
CC
330
B8
100
AcDbEntity
  8
Make2D$可见线$普通线
100
AcDbVertex
100
AcDb2dVertex
 10
287.1137431629877
 20
265.8290057875175
 30
0.0
  0
VERTEX
  5
CD
330
B8
100
AcDbEntity
  8
Make2D$可见线$普通线
100
AcDbVertex
100
AcDb2dVertex
 10
287.0145101175804
 20
266.073840963747
 30
0.0
  0
VERTEX
  5
CE
330
B8
100
AcDbEntity
  8
Make2D$可见线$普通线
100
AcDbVertex
100
AcDb2dVertex
 10
286.9099935536416
 20
266.3181636047877
 30
0.0
  0
VERTEX
  5
CF
330
B8
100
AcDbEntity
  8
Make2D$可见线$普通线
100
AcDbVertex
100
AcDb2dVertex
 10
286.8002082316131
 20
266.5619498346649
 30
0.0
  0
VERTEX
  5
D0
330
B8
100
AcDbEntity
  8
Make2D$可见线$普通线
100
AcDbVertex
100
AcDb2dVertex
 10
286.6851689119364
 20
266.8051757774039
 30
0.0
  0
VERTEX
  5
D1
330
B8
100
AcDbEntity
  8
Make2D$可见线$普通线
100
AcDbVertex
100
AcDb2dVertex
 10
286.5648903550534
 20
267.04781755703
 30
0.0
  0
VERTEX
  5
D2
330
B8
100
AcDbEntity
  8
Make2D$可见线$普通线
100
AcDbVertex
100
AcDb2dVertex
 10
286.4393873214056
 20
267.2898512975688
 30
0.0
  0
VERTEX
  5
D3
330
B8
100
AcDbEntity
  8
Make2D$可见线$普通线
100
AcDbVertex
100
AcDb2dVertex
 10
286.3086745714347
 20
267.5312531230456
 30
0.0
  0
VERTEX
  5
D4
330
B8
100
AcDbEntity
  8
Make2D$可见线$普通线
100
AcDbVertex
100
AcDb2dVertex
 10
286.0316789642903
 20
268.0120655249145
 30
0.0
  0
VERTEX
  5
D5
330
B8
100
AcDbEntity
  8
Make2D$可见线$普通线
100
AcDbVertex
100
AcDb2dVertex
 10
285.7340216171535
 20
268.4900637548395
 30
0.0
  0
VERTEX
  5
D6
330
B8
100
AcDbEntity
  8
Make2D$可见线$普通线
100
AcDbVertex
100
AcDb2dVertex
 10
285.4158206135576
 20
268.9650568050237
 30
0.0
  0
VERTEX
  5
D7
330
B8
100
AcDbEntity
  8
Make2D$可见线$普通线
100
AcDbVertex
100
AcDb2dVertex
 10
285.0771940370357
 20
269.4368536676699
 30
0.0
  0
VERTEX
  5
D8
330
B8
100
AcDbEntity
  8
Make2D$可见线$普通线
100
AcDbVertex
100
AcDb2dVertex
 10
284.7877878321933
 20
269.816828644842
 30
0.0
  0
VERTEX
  5
D9
330
B8
100
AcDbEntity
  8
Make2D$可见线$普通线
100
AcDbVertex
100
AcDb2dVertex
 10
284.373559907798
 20
270.3291405309636
 30
0.0
  0
VERTEX
  5
DA
330
B8
100
AcDbEntity
  8
Make2D$可见线$普通线
100
AcDbVertex
100
AcDb2dVertex
 10
283.9351208124564
 20
270.8370204754915
 30
0.0
  0
VERTEX
  5
DB
330
B8
100
AcDbEntity
  8
Make2D$可见线$普通线
100
AcDbVertex
100
AcDb2dVertex
 10
283.4727121411159
 20
271.34024322777
 30
0.0
  0
VERTEX
  5
DC
330
B8
100
AcDbEntity
  8
Make2D$可见线$普通线
100
AcDbVertex
100
AcDb2dVertex
 10
282.9865754887239
 20
271.8385835371436
 30
0.0
  0
VERTEX
  5
DD
330
B8
100
AcDbEntity
  8
Make2D$可见线$普通线
100
AcDbVertex
100
AcDb2dVertex
 10
282.4769524502277
 20
272.3318161529564
 30
0.0
  0
VERTEX
  5
DE
330
B8
100
AcDbEntity
  8
Make2D$可见线$普通线
100
AcDbVertex
100
AcDb2dVertex
 10
281.9440846205747
 20
272.8197158245529
 30
0.0
  0
VERTEX
  5
DF
330
B8
100
AcDbEntity
  8
Make2D$可见线$普通线
100
AcDbVertex
100
AcDb2dVertex
 10
281.3882135947124
 20
273.3020573012775
 30
0.0
  0
VERTEX
  5
E0
330
B8
100
AcDbEntity
  8
Make2D$可见线$普通线
100
AcDbVertex
100
AcDb2dVertex
 10
280.8095809675881
 20
273.7786153324745
 30
0.0
  0
VERTEX
  5
E1
330
B8
100
AcDbEntity
  8
Make2D$可见线$普通线
100
AcDbVertex
100
AcDb2dVertex
 10
280.2086072706774
 20
274.2490498733622
 30
0.0
  0
VERTEX
  5
E2
330
B8
100
AcDbEntity
  8
Make2D$可见线$普通线
100
AcDbVertex
100
AcDb2dVertex
 10
279.585428285382
 20
274.7133070629225
 30
0.0
  0
VERTEX
  5
E3
330
B8
100
AcDbEntity
  8
Make2D$可见线$普通线
100
AcDbVertex
100
AcDb2dVertex
 10
278.9403639003538
 20
275.1711870141592
 30
0.0
  0
VERTEX
  5
E4
330
B8
100
AcDbEntity
  8
Make2D$可见线$普通线
100
AcDbVertex
100
AcDb2dVertex
 10
278.2737340042445
 20
275.622489840076
 30
0.0
  0
VERTEX
  5
E5
330
B8
100
AcDbEntity
  8
Make2D$可见线$普通线
100
AcDbVertex
100
AcDb2dVertex
 10
277.5858584857059
 20
276.0670156536768
 30
0.0
  0
VERTEX
  5
E6
330
B8
100
AcDbEntity
  8
Make2D$可见线$普通线
100
AcDbVertex
100
AcDb2dVertex
 10
276.8770572333899
 20
276.5045645679652
 30
0.0
  0
VERTEX
  5
E7
330
B8
100
AcDbEntity
  8
Make2D$可见线$普通线
100
AcDbVertex
100
AcDb2dVertex
 10
276.1476501359482
 20
276.9349366959451
 30
0.0
  0
VERTEX
  5
E8
330
B8
100
AcDbEntity
  8
Make2D$可见线$普通线
100
AcDbVertex
100
AcDb2dVertex
 10
275.3979570820326
 20
277.3579321506202
 30
0.0
  0
VERTEX
  5
E9
330
B8
100
AcDbEntity
  8
Make2D$可见线$普通线
100
AcDbVertex
100
AcDb2dVertex
 10
274.7904854859454
 20
277.6873190621409
 30
0.0
  0
VERTEX
  5
EA
330
B8
100
AcDbEntity
  8
Make2D$可见线$普通线
100
AcDbVertex
100
AcDb2dVertex
 10
274.084033474452
 20
278.0563452779984
 30
0.0
  0
VERTEX
  5
EB
330
B8
100
AcDbEntity
  8
Make2D$可见线$普通线
100
AcDbVertex
100
AcDb2dVertex
 10
273.36190131035
 20
278.4189685228423
 30
0.0
  0
VERTEX
  5
EC
330
B8
100
AcDbEntity
  8
Make2D$可见线$普通线
100
AcDbVertex
100
AcDb2dVertex
 10
272.6243759459844
 20
278.7750615128415
 30
0.0
  0
VERTEX
  5
ED
330
B8
100
AcDbEntity
  8
Make2D$可见线$普通线
100
AcDbVertex
100
AcDb2dVertex
 10
271.8717443337002
 20
279.1244969641649
 30
0.0
  0
VERTEX
  5
EE
330
B8
100
AcDbEntity
  8
Make2D$可见线$普通线
100
AcDbVertex
100
AcDb2dVertex
 10
271.1042934258424
 20
279.4671475929814
 30
0.0
  0
VERTEX
  5
EF
330
B8
100
AcDbEntity
  8
Make2D$可见线$普通线
100
AcDbVertex
100
AcDb2dVertex
 10
270.322310174756
 20
279.8028861154599
 30
0.0
  0
VERTEX
  5
F0
330
B8
100
AcDbEntity
  8
Make2D$可见线$普通线
100
AcDbVertex
100
AcDb2dVertex
 10
269.5260815327861
 20
280.1315852477693
 30
0.0
  0
VERTEX
  5
F1
330
B8
100
AcDbEntity
  8
Make2D$可见线$普通线
100
AcDbVertex
100
AcDb2dVertex
 10
268.7158944522776
 20
280.4531177060785
 30
0.0
  0
VERTEX
  5
F2
330
B8
100
AcDbEntity
  8
Make2D$可见线$普通线
100
AcDbVertex
100
AcDb2dVertex
 10
267.2637067070621
 20
280.998775157381
 30
0.0
 42
0.0302750585448678
  0
VERTEX
  5
F3
330
B8
100
AcDbEntity
  8
Make2D$可见线$普通线
100
AcDbVertex
100
AcDb2dVertex
 10
257.826081276859
 20
283.756610277738
 30
0.0
  0
VERTEX
  5
F4
330
B8
100
AcDbEntity
  8
Make2D$可见线$普通线
100
AcDbVertex
100
AcDb2dVertex
 10
257.2741033208812
 20
283.8820210083985
 30
0.0
  0
SEQEND
  5
F5
330
B8
100
AcDbEntity
  8
Make2D$可见线$普通线
  0
LINE
  5
F6
330
1F
100
AcDbEntity
  8
Make2D$可见线$普通线
100
AcDbLine
 10
257.2741033208816
 20
283.8820210083975
 30
0.0
 11
256.0733106340238
 21
284.138824094133
 31
0.0
  0
ARC
  5
F7
330
1F
100
AcDbEntity
  8
Make2D$可见线$普通线
100
AcDbCircle
 10
247.9931439576462
 20
243.8390951104346
 30
0.0
 40
41.10179131935624
100
AcDbArc
 50
78.66242706498369
 51
82.15149770485687
  0
ARC
  5
F8
330
1F
100
AcDbEntity
  8
Make2D$可见线$普通线
100
AcDbCircle
 10
247.1190773773265
 20
238.4661697026703
 30
0.0
 40
46.54393155137537
100
AcDbArc
 50
81.98878322631613
 51
87.67278352732424
  0
LINE
  5
F9
330
1F
100
AcDbEntity
  8
Make2D$可见线$普通线
100
AcDbLine
 10
249.0090595715469
 20
284.9717127225866
 30
0.0
 11
247.3878845503795
 21
285.0110575365597
 31
0.0
  0
LINE
  5
FA
330
1F
100
AcDbEntity
  8
Make2D$可见线$普通线
100
AcDbLine
 10
247.3878843714011
 20
285.0110575378536
 30
0.0
 11
247.3332371878652
 21
285.0114199682877
 31
0.0
  0
LINE
  5
FB
330
1F
100
AcDbEntity
  8
Make2D$可见线$普通线
100
AcDbLine
 10
247.333237200095
 20
285.0114199682138
 30
0.0
 11
247.1183909458085
 21
285.0122286500633
 31
0.0
  0
POLYLINE
  5
FC
330
1F
100
AcDbEntity
  8
Make2D$可见线$普通线
100
AcDb2dPolyline
 66
     1
 10
0.0
 20
0.0
 30
0.0
  0
VERTEX
  5
FD
330
FC
100
AcDbEntity
  8
Make2D$可见线$普通线
100
AcDbVertex
100
AcDb2dVertex
 10
208.692901052335
 20
283.8820210084113
 30
0.0
 42
0.0014657782738322
  0
VERTEX
  5
FE
330
FC
100
AcDbEntity
  8
Make2D$可见线$普通线
100
AcDbVertex
100
AcDb2dVertex
 10
208.1409230962957
 20
283.7566102777386
 30
0.0
 42
0.0302750586483173
  0
VERTEX
  5
FF
330
FC
100
AcDbEntity
  8
Make2D$可见线$普通线
100
AcDbVertex
100
AcDb2dVertex
 10
198.7032976386474
 20
280.9987751474238
 30
0.0
  0
VERTEX
  5
100
330
FC
100
AcDbEntity
  8
Make2D$可见线$普通线
100
AcDbVertex
100
AcDb2dVertex
 10
197.2511099208774
 20
280.4531177060785
 30
0.0
  0
VERTEX
  5
101
330
FC
100
AcDbEntity
  8
Make2D$可见线$普通线
100
AcDbVertex
100
AcDb2dVertex
 10
196.4409228344992
 20
280.1315852453934
 30
0.0
  0
VERTEX
  5
102
330
FC
100
AcDbEntity
  8
Make2D$可见线$普通线
100
AcDbVertex
100
AcDb2dVertex
 10
195.6446941868657
 20
279.8028861106043
 30
0.0
  0
VERTEX
  5
103
330
FC
100
AcDbEntity
  8
Make2D$可见线$普通线
100
AcDbVertex
100
AcDb2dVertex
 10
194.8627109303282
 20
279.4671475855451
 30
0.0
  0
VERTEX
  5
104
330
FC
100
AcDbEntity
  8
Make2D$可见线$普通线
100
AcDbVertex
100
AcDb2dVertex
 10
194.095260017238
 20
279.1244969540499
 30
0.0
  0
VERTEX
  5
105
330
FC
100
AcDbEntity
  8
Make2D$可见线$普通线
100
AcDbVertex
100
AcDb2dVertex
 10
193.3426283999464
 20
278.7750614999522
 30
0.0
  0
VERTEX
  5
106
330
FC
100
AcDbEntity
  8
Make2D$可见线$普通线
100
AcDbVertex
100
AcDb2dVertex
 10
192.6051030308047
 20
278.4189685070861
 30
0.0
  0
VERTEX
  5
107
330
FC
100
AcDbEntity
  8
Make2D$可见线$普通线
100
AcDbVertex
100
AcDb2dVertex
 10
191.8829708621642
 20
278.0563452592854
 30
0.0
  0
VERTEX
  5
108
330
FC
100
AcDbEntity
  8
Make2D$可见线$普通线
100
AcDbVertex
100
AcDb2dVertex
 10
191.1765188463762
 20
277.6873190403838
 30
0.0
  0
VERTEX
  5
109
330
FC
100
AcDbEntity
  8
Make2D$可见线$普通线
100
AcDbVertex
100
AcDb2dVertex
 10
190.5690472911223
 20
277.3579321506203
 30
0.0
  0
VERTEX
  5
10A
330
FC
100
AcDbEntity
  8
Make2D$可见线$普通线
100
AcDbVertex
100
AcDb2dVertex
 10
189.8193542372068
 20
276.9349366959451
 30
0.0
  0
VERTEX
  5
10B
330
FC
100
AcDbEntity
  8
Make2D$可见线$普通线
100
AcDbVertex
100
AcDb2dVertex
 10
189.0899471397651
 20
276.5045645679652
 30
0.0
  0
VERTEX
  5
10C
330
FC
100
AcDbEntity
  8
Make2D$可见线$普通线
100
AcDbVertex
100
AcDb2dVertex
 10
188.381145887449
 20
276.0670156536767
 30
0.0
  0
VERTEX
  5
10D
330
FC
100
AcDbEntity
  8
Make2D$可见线$普通线
100
AcDbVertex
100
AcDb2dVertex
 10
187.6932703689104
 20
275.622489840076
 30
0.0
  0
VERTEX
  5
10E
330
FC
100
AcDbEntity
  8
Make2D$可见线$普通线
100
AcDbVertex
100
AcDb2dVertex
 10
187.0266404728011
 20
275.1711870141591
 30
0.0
  0
VERTEX
  5
10F
330
FC
100
AcDbEntity
  8
Make2D$可见线$普通线
100
AcDbVertex
100
AcDb2dVertex
 10
186.3815760877729
 20
274.7133070629224
 30
0.0
  0
VERTEX
  5
110
330
FC
100
AcDbEntity
  8
Make2D$可见线$普通线
100
AcDbVertex
100
AcDb2dVertex
 10
185.7583971024775
 20
274.2490498733621
 30
0.0
  0
VERTEX
  5
111
330
FC
100
AcDbEntity
  8
Make2D$可见线$普通线
100
AcDbVertex
100
AcDb2dVertex
 10
185.1574234055668
 20
273.7786153324744
 30
0.0
  0
VERTEX
  5
112
330
FC
100
AcDbEntity
  8
Make2D$可见线$普通线
100
AcDbVertex
100
AcDb2dVertex
 10
184.5787907784425
 20
273.3020573012774
 30
0.0
  0
VERTEX
  5
113
330
FC
100
AcDbEntity
  8
Make2D$可见线$普通线
100
AcDbVertex
100
AcDb2dVertex
 10
184.0229197525801
 20
272.8197158245528
 30
0.0
  0
VERTEX
  5
114
330
FC
100
AcDbEntity
  8
Make2D$可见线$普通线
100
AcDbVertex
100
AcDb2dVertex
 10
183.4900519229271
 20
272.3318161529563
 30
0.0
  0
VERTEX
  5
115
330
FC
100
AcDbEntity
  8
Make2D$可见线$普通线
100
AcDbVertex
100
AcDb2dVertex
 10
182.980428884431
 20
271.8385835371435
 30
0.0
  0
VERTEX
  5
116
330
FC
100
AcDbEntity
  8
Make2D$可见线$普通线
100
AcDbVertex
100
AcDb2dVertex
 10
182.494292232039
 20
271.34024322777
 30
0.0
  0
VERTEX
  5
117
330
FC
100
AcDbEntity
  8
Make2D$可见线$普通线
100
AcDbVertex
100
AcDb2dVertex
 10
182.0318835606985
 20
270.8370204754915
 30
0.0
  0
VERTEX
  5
118
330
FC
100
AcDbEntity
  8
Make2D$可见线$普通线
100
AcDbVertex
100
AcDb2dVertex
 10
181.5934444653569
 20
270.3291405309636
 30
0.0
  0
VERTEX
  5
119
330
FC
100
AcDbEntity
  8
Make2D$可见线$普通线
100
AcDbVertex
100
AcDb2dVertex
 10
181.1792165409616
 20
269.8168286448419
 30
0.0
  0
VERTEX
  5
11A
330
FC
100
AcDbEntity
  8
Make2D$可见线$普通线
100
AcDbVertex
100
AcDb2dVertex
 10
180.8898103128474
 20
269.4368536363026
 30
0.0
  0
VERTEX
  5
11B
330
FC
100
AcDbEntity
  8
Make2D$可见线$普通线
100
AcDbVertex
100
AcDb2dVertex
 10
180.5511837404241
 20
268.9650567773864
 30
0.0
  0
VERTEX
  5
11C
330
FC
100
AcDbEntity
  8
Make2D$可见线$普通线
100
AcDbVertex
100
AcDb2dVertex
 10
180.2329827405926
 20
268.4900637309962
 30
0.0
  0
VERTEX
  5
11D
330
FC
100
AcDbEntity
  8
Make2D$可见线$普通线
100
AcDbVertex
100
AcDb2dVertex
 10
179.9353253968833
 20
268.0120655049244
 30
0.0
  0
VERTEX
  5
11E
330
FC
100
AcDbEntity
  8
Make2D$可见线$普通线
100
AcDbVertex
100
AcDb2dVertex
 10
179.6583297928266
 20
267.5312531069634
 30
0.0
  0
VERTEX
  5
11F
330
FC
100
AcDbEntity
  8
Make2D$可见线$普通线
100
AcDbVertex
100
AcDb2dVertex
 10
179.5276170442712
 20
267.2898512834595
 30
0.0
  0
VERTEX
  5
120
330
FC
100
AcDbEntity
  8
Make2D$可见线$普通线
100
AcDbVertex
100
AcDb2dVertex
 10
179.4021140119528
 20
267.0478175449055
 30
0.0
  0
VERTEX
  5
121
330
FC
100
AcDbEntity
  8
Make2D$可见线$普通线
100
AcDbVertex
100
AcDb2dVertex
 10
179.2818354563128
 20
266.8051757672752
 30
0.0
  0
VERTEX
  5
122
330
FC
100
AcDbEntity
  8
Make2D$可见线$普通线
100
AcDbVertex
100
AcDb2dVertex
 10
179.1667961377923
 20
266.5619498265429
 30
0.0
  0
VERTEX
  5
123
330
FC
100
AcDbEntity
  8
Make2D$可见线$普通线
100
AcDbVertex
100
AcDb2dVertex
 10
179.0570108168329
 20
266.3181635986826
 30
0.0
  0
VERTEX
  5
124
330
FC
100
AcDbEntity
  8
Make2D$可见线$普通线
100
AcDbVertex
100
AcDb2dVertex
 10
178.9524942538756
 20
266.0738409596682
 30
0.0
  0
VERTEX
  5
125
330
FC
100
AcDbEntity
  8
Make2D$可见线$普通线
100
AcDbVertex
100
AcDb2dVertex
 10
178.8532612093618
 20
265.8290057854739
 30
0.0
  0
VERTEX
  5
126
330
FC
100
AcDbEntity
  8
Make2D$可见线$普通线
100
AcDbVertex
100
AcDb2dVertex
 10
178.7593264437329
 20
265.5836819520736
 30
0.0
  0
VERTEX
  5
127
330
FC
100
AcDbEntity
  8
Make2D$可见线$普通线
100
AcDbVertex
100
AcDb2dVertex
 10
178.6171740435435
 20
265.1814280600894
 30
0.0
  0
VERTEX
  5
128
330
FC
100
AcDbEntity
  8
Make2D$可见线$普通线
100
AcDbVertex
100
AcDb2dVertex
 10
178.4883444011202
 20
264.7747114244215
 30
0.0
  0
VERTEX
  5
129
330
FC
100
AcDbEntity
  8
Make2D$可见线$普通线
100
AcDbVertex
100
AcDb2dVertex
 10
178.4270915806636
 20
264.5627280763804
 30
0.0
  0
VERTEX
  5
12A
330
FC
100
AcDbEntity
  8
Make2D$可见线$普通线
100
AcDbVertex
100
AcDb2dVertex
 10
178.3697892368672
 20
264.3504934665
 30
0.0
  0
VERTEX
  5
12B
330
FC
100
AcDbEntity
  8
Make2D$可见线$普通线
100
AcDbVertex
100
AcDb2dVertex
 10
178.3164395264086
 20
264.1380234969966
 30
0.0
  0
VERTEX
  5
12C
330
FC
100
AcDbEntity
  8
Make2D$可见线$普通线
100
AcDbVertex
100
AcDb2dVertex
 10
178.2670446059654
 20
263.9253340700867
 30
0.0
  0
VERTEX
  5
12D
330
FC
100
AcDbEntity
  8
Make2D$可见线$普通线
100
AcDbVertex
100
AcDb2dVertex
 10
178.2216066322152
 20
263.7124410879866
 30
0.0
  0
VERTEX
  5
12E
330
FC
100
AcDbEntity
  8
Make2D$可见线$普通线
100
AcDbVertex
100
AcDb2dVertex
 10
178.1801277618355
 20
263.4993604529126
 30
0.0
  0
VERTEX
  5
12F
330
FC
100
AcDbEntity
  8
Make2D$可见线$普通线
100
AcDbVertex
100
AcDb2dVertex
 10
178.1426101515038
 20
263.2861080670811
 30
0.0
  0
VERTEX
  5
130
330
FC
100
AcDbEntity
  8
Make2D$可见线$普通线
100
AcDbVertex
100
AcDb2dVertex
 10
178.1090559578979
 20
263.0726998327085
 30
0.0
  0
VERTEX
  5
131
330
FC
100
AcDbEntity
  8
Make2D$可见线$普通线
100
AcDbVertex
100
AcDb2dVertex
 10
178.0794673376951
 20
262.8591516520112
 30
0.0
  0
VERTEX
  5
132
330
FC
100
AcDbEntity
  8
Make2D$可见线$普通线
100
AcDbVertex
100
AcDb2dVertex
 10
178.0538464475731
 20
262.6454794272056
 30
0.0
  0
VERTEX
  5
133
330
FC
100
AcDbEntity
  8
Make2D$可见线$普通线
100
AcDbVertex
100
AcDb2dVertex
 10
178.0321954442094
 20
262.4316990605079
 30
0.0
  0
VERTEX
  5
134
330
FC
100
AcDbEntity
  8
Make2D$可见线$普通线
100
AcDbVertex
100
AcDb2dVertex
 10
178.0145164842817
 20
262.2178264541346
 30
0.0
  0
VERTEX
  5
135
330
FC
100
AcDbEntity
  8
Make2D$可见线$普通线
100
AcDbVertex
100
AcDb2dVertex
 10
178.0008117244674
 20
262.0038775103021
 30
0.0
  0
VERTEX
  5
136
330
FC
100
AcDbEntity
  8
Make2D$可见线$普通线
100
AcDbVertex
100
AcDb2dVertex
 10
177.9910833214442
 20
261.7898681312267
 30
0.0
  0
VERTEX
  5
137
330
FC
100
AcDbEntity
  8
Make2D$可见线$普通线
100
AcDbVertex
100
AcDb2dVertex
 10
177.9853334318895
 20
261.5758142191247
 30
0.0
  0
VERTEX
  5
138
330
FC
100
AcDbEntity
  8
Make2D$可见线$普通线
100
AcDbVertex
100
AcDb2dVertex
 10
177.983564212481
 20
261.3617316762126
 30
0.0
  0
SEQEND
  5
139
330
FC
100
AcDbEntity
  8
Make2D$可见线$普通线
  0
LINE
  5
13A
330
1F
100
AcDbEntity
  8
Make2D$可见线$普通线
100
AcDbLine
 10
209.8936937389743
 20
284.1388240941145
 30
0.0
 11
208.6929010523347
 21
283.8820210084103
 31
0.0
  0
ARC
  5
13B
330
1F
100
AcDbEntity
  8
Make2D$可见线$普通线
100
AcDbCircle
 10
217.9738604315974
 20
243.8390950140005
 30
0.0
 40
41.10179141708407
100
AcDbArc
 50
97.84850229907241
 51
101.3375729307985
  0
ARC
  5
13C
330
1F
100
AcDbEntity
  8
Make2D$可见线$普通线
100
AcDbCircle
 10
218.8479269955868
 20
238.4661697053819
 30
0.0
 40
46.54393154865672
100
AcDbArc
 50
92.32721647251007
 51
98.0112167739149
  0
LINE
  5
13D
330
1F
100
AcDbEntity
  8
Make2D$可见线$普通线
100
AcDbLine
 10
218.5791198227723
 20
285.0110575365597
 30
0.0
 11
216.9579448016115
 21
284.9717127225873
 31
0.0
  0
LINE
  5
13E
330
1F
100
AcDbEntity
  8
Make2D$可见线$普通线
100
AcDbLine
 10
218.6337671853094
 20
285.0114199682866
 30
0.0
 11
218.5791200017512
 21
285.0110575378536
 31
0.0
  0
LINE
  5
13F
330
1F
100
AcDbEntity
  8
Make2D$可见线$普通线
100
AcDbLine
 10
218.8486134271626
 20
285.0122286500553
 30
0.0
 11
218.6337671730817
 21
285.0114199682127
 31
0.0
  0
ARC
  5
140
330
1F
100
AcDbEntity
  8
Make2D$可见线$普通线
100
AcDbCircle
 10
233.1805342654104
 20
276.1934327082681
 30
0.0
 40
12.72389307867727
100
AcDbArc
 50
43.87515627401145
 51
43.88382957009117
  0
ARC
  5
141
330
1F
100
AcDbEntity
  8
Make2D$可见线$普通线
100
AcDbCircle
 10
232.5575122966326
 20
275.5870231715865
 30
0.0
 40
13.59330891724969
100
AcDbArc
 50
44.22868071562904
 51
44.25194646679813
  0
LINE
  5
142
330
1F
100
AcDbEntity
  8
Make2D$可见线$普通线
100
AcDbLine
 10
241.9897931100507
 20
285.3745735059184
 30
0.0
 11
241.9698249348333
 21
285.3937133053691
 31
0.0
  0
ARC
  5
143
330
1F
100
AcDbEntity
  8
Make2D$可见线$普通线
100
AcDbCircle
 10
232.7603494886045
 20
275.7545387863947
 30
0.0
 40
13.33145182763084
100
AcDbArc
 50
45.30482010884275
 51
46.14878076738452
  0
LINE
  5
144
330
1F
100
AcDbEntity
  8
Make2D$可见线$普通线
100
AcDbLine
 10
242.1573730619956
 20
285.2109235248894
 30
0.0
 11
242.1511812885024
 21
285.2170792176514
 31
0.0
  0
LINE
  5
145
330
1F
100
AcDbEntity
  8
Make2D$可见线$普通线
100
AcDbLine
 10
242.1811681643001
 20
285.187179355759
 30
0.0
 11
242.169462496787
 21
285.1988774065621
 31
0.0
  0
LINE
  5
146
330
1F
100
AcDbEntity
  8
Make2D$可见线$普通线
100
AcDbLine
 10
242.2034680281575
 20
285.1647994438389
 30
0.0
 11
242.1868799997094
 21
285.1814588650238
 31
0.0
  0
LINE
  5
147
330
1F
100
AcDbEntity
  8
Make2D$可见线$普通线
100
AcDbLine
 10
241.2491636132622
 20
286.0336410911613
 30
0.0
 11
241.2380188141123
 21
286.042813993142
 31
0.0
  0
LINE
  5
148
330
1F
100
AcDbEntity
  8
Make2D$可见线$普通线
100
AcDbLine
 10
241.2940696124441
 20
285.9964795042794
 30
0.0
 11
241.2755098322073
 21
286.0118764599735
 31
0.0
  0
LINE
  5
149
330
1F
100
AcDbEntity
  8
Make2D$可见线$普通线
100
AcDbLine
 10
241.3824461559439
 20
285.9224388572167
 30
0.0
 11
241.3454419621992
 21
285.9535905360995
 31
0.0
  0
LINE
  5
14A
330
1F
100
AcDbEntity
  8
Make2D$可见线$普通线
100
AcDbLine
 10
241.4246267799822
 20
285.8866559790944
 30
0.0
 11
241.3996831560806
 21
285.907852019147
 31
0.0
  0
LINE
  5
14B
330
1F
100
AcDbEntity
  8
Make2D$可见线$普通线
100
AcDbLine
 10
241.4654890971463
 20
285.8517040620607
 30
0.0
 11
241.4353306126588
 21
285.8775281185383
 31
0.0
  0
LINE
  5
14C
330
1F
100
AcDbEntity
  8
Make2D$可见线$普通线
100
AcDbLine
 10
241.505056411137
 20
285.8175807741434
 30
0.0
 11
241.497419226923
 21
285.8241889950509
 31
0.0
  0
LINE
  5
14D
330
1F
100
AcDbEntity
  8
Make2D$可见线$普通线
100
AcDbLine
 10
241.6162181436243
 20
285.7201621273912
 30
0.0
 11
241.587704675881
 21
285.7453762197911
 31
0.0
  0
LINE
  5
14E
330
1F
100
AcDbEntity
  8
Make2D$可见线$普通线
100
AcDbLine
 10
240.6317835665064
 20
286.5121827554049
 30
0.0
 11
240.5785127882964
 21
286.5507081169325
 31
0.0
  0
LINE
  5
14F
330
1F
100
AcDbEntity
  8
Make2D$可见线$普通线
100
AcDbLine
 10
240.8093726093322
 20
286.3806742963755
 30
0.0
 11
240.7809754305734
 21
286.4020261918108
 31
0.0
  0
LINE
  5
150
330
1F
100
AcDbEntity
  8
Make2D$可见线$普通线
100
AcDbLine
 10
240.9029711589801
 20
286.3093996520443
 30
0.0
 11
240.8567193641892
 21
286.3447929670743
 31
0.0
  0
LINE
  5
151
330
1F
100
AcDbEntity
  8
Make2D$可见线$普通线
100
AcDbLine
 10
240.9559636782226
 20
286.2684302086153
 30
0.0
 11
240.9257267131351
 21
286.2918617569965
 31
0.0
  0
ARC
  5
152
330
1F
100
AcDbEntity
  8
Make2D$可见线$普通线
100
AcDbCircle
 10
233.0186976990849
 20
276.072070900776
 30
0.0
 40
12.91987355640645
100
AcDbArc
 50
64.36943818852737
 51
65.41599213955786
  0
LINE
  5
153
330
1F
100
AcDbEntity
  8
Make2D$可见线$普通线
100
AcDbLine
 10
238.8233491459139
 20
287.6145290934686
 30
0.0
 11
238.6611754832483
 21
287.6946984359882
 31
0.0
  0
LINE
  5
154
330
1F
100
AcDbEntity
  8
Make2D$可见线$普通线
100
AcDbLine
 10
239.9527017837893
 20
286.9741005105507
 30
0.0
 11
239.8254053599868
 21
287.0538962513765
 31
0.0
  0
LINE
  5
155
330
1F
100
AcDbEntity
  8
Make2D$可见线$普通线
100
AcDbLine
 10
236.189736306332
 20
288.5984435195298
 30
0.0
 11
236.0559580820688
 21
288.6317278609651
 31
0.0
  0
LINE
  5
156
330
1F
100
AcDbEntity
  8
Make2D$可见线$普通线
100
AcDbLine
 10
236.3627989781059
 20
288.553137552313
 30
0.0
 11
236.2439978445985
 21
288.5845123543285
 31
0.0
  0
LINE
  5
157
330
1F
100
AcDbEntity
  8
Make2D$可见线$普通线
100
AcDbLine
 10
236.5351661694736
 20
288.5054663045472
 30
0.0
 11
236.4089323686019
 21
288.540628998467
 31
0.0
  0
LINE
  5
158
330
1F
100
AcDbEntity
  8
Make2D$可见线$普通线
100
AcDbLine
 10
236.7067742821287
 20
288.4554462257256
 30
0.0
 11
236.5605697302742
 21
288.4982235707027
 31
0.0
  0
LINE
  5
159
330
1F
100
AcDbEntity
  8
Make2D$可见线$普通线
100
AcDbLine
 10
237.0150191501239
 20
288.3590763910111
 30
0.0
 11
236.9884816355391
 21
288.3677060491447
 31
0.0
  0
ARC
  5
15A
330
1F
100
AcDbEntity
  8
Make2D$可见线$普通线
100
AcDbCircle
 10
232.970416928121
 20
275.9674074379465
 30
0.0
 40
13.03504097925036
100
AcDbArc
 50
71.19393273905077
 51
71.2229229998043
  0
ARC
  5
15B
330
1F
100
AcDbEntity
  8
Make2D$可见线$普通线
100
AcDbCircle
 10
232.9555941851754
 20
275.9252634781889
 30
0.0
 40
13.07971680553481
100
AcDbArc
 50
69.4934683900869
 51
69.6381339767229
  0
LINE
  5
15C
330
1F
100
AcDbEntity
  8
Make2D$可见线$普通线
100
AcDbLine
 10
237.6754833226216
 20
288.1236911414534
 30
0.0
 11
237.6185190501649
 21
288.1455794911871
 31
0.0
  0
LINE
  5
15D
330
1F
100
AcDbEntity
  8
Make2D$可见线$普通线
100
AcDbLine
 10
237.8430917781201
 20
288.0575066849754
 30
0.0
 11
237.7687167840976
 21
288.0872054546958
 31
0.0
  0
LINE
  5
15E
330
1F
100
AcDbEntity
  8
Make2D$可见线$普通线
100
AcDbLine
 10
233.9519722317754
 20
288.9638901487018
 30
0.0
 11
233.8950903094446
 21
288.9680187585786
 31
0.0
  0
LINE
  5
15F
330
1F
100
AcDbEntity
  8
Make2D$可见线$普通线
100
AcDbLine
 10
234.1451652841731
 20
288.9479923445088
 30
0.0
 11
234.0457447490878
 21
288.9565357783863
 31
0.0
  0
LINE
  5
160
330
1F
100
AcDbEntity
  8
Make2D$可见线$普通线
100
AcDbLine
 10
234.2999692974421
 20
288.9331581540089
 30
0.0
 11
234.1962555378464
 21
288.9433029736718
 31
0.0
  0
LINE
  5
161
330
1F
100
AcDbEntity
  8
Make2D$可见线$普通线
100
AcDbLine
 10
234.4487626271537
 20
288.9171375148372
 30
0.0
 11
234.3466023416444
 21
288.9283232834369
 31
0.0
  0
LINE
  5
162
330
1F
100
AcDbEntity
  8
Make2D$可见线$普通线
100
AcDbLine
 10
234.5979617554
 20
288.8993326868248
 30
0.0
 11
234.4967605336137
 21
288.9116001005824
 31
0.0
  0
ARC
  5
163
330
1F
100
AcDbEntity
  8
Make2D$可见线$普通线
100
AcDbCircle
 10
232.9801353842755
 20
275.976527509247
 30
0.0
 40
13.02368058122633
100
AcDbArc
 50
82.30937561954477
 51
82.64798100732655
  0
LINE
  5
164
330
1F
100
AcDbEntity
  8
Make2D$可见线$普通线
100
AcDbLine
 10
234.8974621943976
 20
288.8583019605261
 30
0.0
 11
234.7964341813617
 21
288.8729345491556
 31
0.0
  0
LINE
  5
165
330
1F
100
AcDbEntity
  8
Make2D$可见线$普通线
100
AcDbLine
 10
235.0477042508722
 20
288.8350424460639
 30
0.0
 11
234.9459058135389
 21
288.8509983922086
 31
0.0
  0
ARC
  5
166
330
1F
100
AcDbEntity
  8
Make2D$可见线$普通线
100
AcDbCircle
 10
232.9834027957102
 20
275.9951274686612
 30
0.0
 40
13.00475473096781
100
AcDbArc
 50
101.1027976975975
 51
101.2012765912884
  0
LINE
  5
167
330
1F
100
AcDbEntity
  8
Make2D$可见线$普通线
100
AcDbLine
 10
230.6695849887778
 20
288.7923891734393
 30
0.0
 11
230.61798573119
 21
288.7829519024791
 31
0.0
  0
LINE
  5
168
330
1F
100
AcDbEntity
  8
Make2D$可见线$普通线
100
AcDbLine
 10
230.860600710355
 20
288.8254608677638
 30
0.0
 11
230.7687714915817
 21
288.8099274945774
 31
0.0
  0
LINE
  5
169
330
1F
100
AcDbEntity
  8
Make2D$可见线$普通线
100
AcDbLine
 10
231.0520831475463
 20
288.8556852580661
 30
0.0
 11
230.9193010099618
 21
288.8350369241357
 31
0.0
  0
ARC
  5
16A
330
1F
100
AcDbEntity
  8
Make2D$可见线$普通线
100
AcDbCircle
 10
232.9877407137211
 20
275.970864888164
 30
0.0
 40
13.02940389375562
100
AcDbArc
 50
97.69109259069965
 51
97.79991418788502
  0
LINE
  5
16B
330
1F
100
AcDbEntity
  8
Make2D$可见线$普通线
100
AcDbLine
 10
231.4309670675292
 20
288.9069314924041
 30
0.0
 11
231.3690430853731
 21
288.8993289546974
 31
0.0
  0
ARC
  5
16C
330
1F
100
AcDbEntity
  8
Make2D$可见线$普通线
100
AcDbCircle
 10
232.9865292262608
 20
275.981232226517
 30
0.0
 40
13.0189656861388
100
AcDbArc
 50
95.98569587782649
 51
96.0388003027144
  0
LINE
  5
16D
330
1F
100
AcDbEntity
  8
Make2D$可见线$普通线
100
AcDbLine
 10
227.3058265274138
 20
287.6947033431284
 30
0.0
 11
227.2709250703861
 21
287.677700162617
 31
0.0
  0
LINE
  5
16E
330
1F
100
AcDbEntity
  8
Make2D$可见线$普通线
100
AcDbLine
 10
227.4533366881506
 20
287.7651417721201
 30
0.0
 11
227.3449836714514
 21
287.7136252248
 31
0.0
  0
ARC
  5
16F
330
1F
100
AcDbEntity
  8
Make2D$可见线$普通线
100
AcDbCircle
 10
233.0089215574789
 20
275.9377572364763
 30
0.0
 40
13.06719539651698
100
AcDbArc
 50
110.5155010862854
 51
114.9624270048985
  0
LINE
  5
170
330
1F
100
AcDbEntity
  8
Make2D$可见线$普通线
100
AcDbLine
 10
228.6114648612639
 20
288.2427630855787
 30
0.0
 11
228.5369640146361
 21
288.2159001413674
 31
0.0
  0
LINE
  5
171
330
1F
100
AcDbEntity
  8
Make2D$可见线$普通线
100
AcDbLine
 10
228.7945259238357
 20
288.3066007533152
 30
0.0
 11
228.7175691726331
 21
288.2801375644937
 31
0.0
  0
LINE
  5
172
330
1F
100
AcDbEntity
  8
Make2D$可见线$普通线
100
AcDbLine
 10
224.7896120567275
 20
286.0926088555139
 30
0.0
 11
224.7352014914409
 21
286.0482362468919
 31
0.0
  0
LINE
  5
173
330
1F
100
AcDbEntity
  8
Make2D$可见线$普通线
100
AcDbLine
 10
224.8530991171846
 20
286.1437613066227
 30
0.0
 11
224.8015406806807
 21
286.1022704895087
 31
0.0
  0
LINE
  5
174
330
1F
100
AcDbEntity
  8
Make2D$可见线$普通线
100
AcDbLine
 10
224.9609735509134
 20
286.2291972347558
 30
0.0
 11
224.9426495427756
 21
286.2148127478243
 31
0.0
  0
LINE
  5
175
330
1F
100
AcDbEntity
  8
Make2D$可见线$普通线
100
AcDbLine
 10
225.0527945807555
 20
286.3005149852936
 30
0.0
 11
225.0173457121653
 21
286.2731303590637
 31
0.0
  0
LINE
  5
176
330
1F
100
AcDbEntity
  8
Make2D$可见线$普通线
100
AcDbLine
 10
225.8696974421484
 20
286.8810606096487
 30
0.0
 11
225.4815512575806
 21
286.6171817255407
 31
0.0
  0
LINE
  5
177
330
1F
100
AcDbEntity
  8
Make2D$可见线$普通线
100
AcDbLine
 10
225.9439931074986
 20
286.9291958927158
 30
0.0
 11
225.8986620941579
 21
286.8999130596347
 31
0.0
  0
LINE
  5
178
330
1F
100
AcDbEntity
  8
Make2D$可见线$普通线
100
AcDbLine
 10
226.0354691930918
 20
286.9874778613463
 30
0.0
 11
225.9908992791871
 21
286.9592149696136
 31
0.0
  0
LINE
  5
179
330
1F
100
AcDbEntity
  8
Make2D$可见线$普通线
100
AcDbLine
 10
224.032089039712
 20
285.42728661103
 30
0.0
 11
224.0119545981513
 21
285.4081230848909
 31
0.0
  0
LINE
  5
17A
330
1F
100
AcDbEntity
  8
Make2D$可见线$普通线
100
AcDbLine
 10
224.0980145022904
 20
285.4894203562452
 30
0.0
 11
224.0419797626494
 21
285.4366680163642
 31
0.0
  0
LINE
  5
17B
330
1F
100
AcDbEntity
  8
Make2D$可见线$普通线
100
AcDbLine
 10
224.1234552792993
 20
285.5131531720074
 30
0.0
 11
224.1063972368485
 21
285.4972550529581
 31
0.0
  0
LINE
  5
17C
330
1F
100
AcDbEntity
  8
Make2D$可见线$普通线
100
AcDbLine
 10
224.2052317942897
 20
285.5885670381959
 30
0.0
 11
224.1409098042047
 21
285.5293596258892
 31
0.0
  0
LINE
  5
17D
330
1F
100
AcDbEntity
  8
Make2D$可见线$普通线
100
AcDbLine
 10
224.2443340342012
 20
285.6241823261892
 30
0.0
 11
224.2148435854877
 21
285.5973473751566
 31
0.0
  0
LINE
  5
17E
330
1F
100
AcDbEntity
  8
Make2D$可见线$普通线
100
AcDbLine
 10
224.2957234487379
 20
285.6705818332408
 30
0.0
 11
224.2543851817432
 21
285.6332931375134
 31
0.0
  0
ARC
  5
17F
330
1F
100
AcDbEntity
  8
Make2D$可见线$普通线
100
AcDbCircle
 10
231.3185132974577
 20
277.5891113190153
 30
0.0
 40
10.69844366366934
100
AcDbArc
 50
136.0355921010226
 51
136.0537538448594
  0
LINE
  5
180
330
1F
100
AcDbEntity
  8
Make2D$可见线$普通线
100
AcDbLine
 10
223.6389506794418
 20
285.0376743000947
 30
0.0
 11
223.6263136802959
 21
285.0246185592713
 31
0.0
  0
LINE
  5
181
330
1F
100
AcDbEntity
  8
Make2D$可见线$普通线
100
AcDbLine
 10
223.6484062537335
 20
285.0474200485734
 30
0.0
 11
223.6454263595429
 21
285.0443507026644
 31
0.0
  0
LINE
  5
182
330
1F
100
AcDbEntity
  8
Make2D$可见线$普通线
100
AcDbLine
 10
223.6659197103764
 20
285.0654252930489
 30
0.0
 11
223.6599020207185
 21
285.0592448765414
 31
0.0
  0
ARC
  5
183
330
1F
100
AcDbEntity
  8
Make2D$可见线$普通线
100
AcDbCircle
 10
233.9659951395564
 20
275.041372915847
 30
0.0
 40
14.37264223507394
100
AcDbArc
 50
135.5517993796579
 51
135.5619092371816
  0
ARC
  5
184
330
1F
100
AcDbEntity
  8
Make2D$可见线$普通线
100
AcDbCircle
 10
232.8839794010371
 20
276.1045133464868
 30
0.0
 40
12.85572874417894
100
AcDbArc
 50
135.4157695360906
 51
135.4401625110766
  0
LINE
  5
185
330
1F
100
AcDbEntity
  8
Make2D$可见线$普通线
100
AcDbLine
 10
223.7520429811667
 20
285.1531303180658
 30
0.0
 11
223.7458204047374
 21
285.1468469936074
 31
0.0
  0
LINE
  5
186
330
1F
100
AcDbEntity
  8
Make2D$可见线$普通线
100
AcDbLine
 10
223.7781961563734
 20
285.1794398627033
 30
0.0
 11
223.7692500821533
 21
285.1704582667699
 31
0.0
  0
LINE
  5
187
330
1F
100
AcDbEntity
  8
Make2D$可见线$普通线
100
AcDbLine
 10
223.806454891225
 20
285.2076898255212
 30
0.0
 11
223.7944172840738
 21
285.1956782123189
 31
0.0
  0
LINE
  5
188
330
1F
100
AcDbEntity
  8
Make2D$可见线$普通线
100
AcDbLine
 10
223.8369336156608
 20
285.2379592443145
 30
0.0
 11
223.821409791472
 21
285.2225673509109
 31
0.0
  0
LINE
  5
189
330
1F
100
AcDbEntity
  8
Make2D$可见线$普通线
100
AcDbLine
 10
223.8697460527196
 20
285.2703264479044
 30
0.0
 11
223.8503153983128
 21
285.2511862149267
 31
0.0
  0
LINE
  5
18A
330
1F
100
AcDbEntity
  8
Make2D$可见线$普通线
100
AcDbLine
 10
218.8489308552463
 20
285.0122272202166
 30
0.0
 11
247.1180735174009
 21
285.0122272202166
 31
0.0
  0
LINE
  5
18B
330
1F
100
AcDbEntity
  8
Make2D$可见线$普通线
100
AcDbLine
 10
177.983564051914
 20
261.3617131942941
 30
0.0
 11
177.9836744188411
 21
242.1410193703508
 31
0.0
  0
LINE
  5
18C
330
1F
100
AcDbEntity
  8
Make2D$可见线$普通线
100
AcDbLine
 10
287.9833299543138
 20
242.1410193703508
 30
0.0
 11
287.9834403212408
 21
261.361713194264
 31
0.0
  0
LINE
  5
18D
330
1F
100
AcDbEntity
  8
Make2D$可见线$普通线
100
AcDbLine
 10
242.2979546122231
 20
285.0686807701518
 30
0.0
 11
242.3512392292355
 21
285.0136155603458
 31
0.0
  0
LINE
  5
18E
330
1F
100
AcDbEntity
  8
Make2D$可见线$普通线
100
AcDbLine
 10
242.2034680284519
 20
285.1647994435427
 30
0.0
 11
242.2941036496162
 21
285.0726352311631
 31
0.0
  0
ARC
  5
18F
330
1F
100
AcDbEntity
  8
Make2D$可见线$普通线
100
AcDbCircle
 10
234.1455849621304
 20
277.1580424629722
 30
0.0
 40
11.35947343155059
100
AcDbArc
 50
44.93623477291678
 51
44.97700885596253
  0
LINE
  5
190
330
1F
100
AcDbEntity
  8
Make2D$可见线$普通线
100
AcDbLine
 10
242.1573730619959
 20
285.2109235248892
 30
0.0
 11
242.1694624974074
 21
285.1988774059432
 31
0.0
  0
LINE
  5
191
330
1F
100
AcDbEntity
  8
Make2D$可见线$普通线
100
AcDbLine
 10
242.1368250733657
 20
285.2313167856179
 30
0.0
 11
242.1511813447593
 21
285.2170792733145
 31
0.0
  0
LINE
  5
192
330
1F
100
AcDbEntity
  8
Make2D$可见线$普通线
100
AcDbLine
 10
241.9897931996202
 20
285.3745736000804
 30
0.0
 11
241.9962209410898
 21
285.368398120308
 31
0.0
  0
ARC
  5
193
330
1F
100
AcDbEntity
  8
Make2D$可见线$普通线
100
AcDbCircle
 10
233.3490125222379
 20
276.4104531658684
 30
0.0
 40
12.45059716380273
100
AcDbArc
 50
46.17948795545043
 51
48.39428991429411
  0
LINE
  5
194
330
1F
100
AcDbEntity
  8
Make2D$可见线$普通线
100
AcDbLine
 10
241.5050574082481
 20
285.8175819191983
 30
0.0
 11
241.5877048240536
 21
285.7453763835049
 31
0.0
  0
LINE
  5
195
330
1F
100
AcDbEntity
  8
Make2D$可见线$普通线
100
AcDbLine
 10
241.4654902208452
 20
285.8517053701384
 30
0.0
 11
241.4974202671324
 21
285.8241901980677
 31
0.0
  0
LINE
  5
196
330
1F
100
AcDbEntity
  8
Make2D$可见线$普通线
100
AcDbLine
 10
241.4246277580945
 20
285.8866571276257
 30
0.0
 11
241.4353316536893
 21
285.8775293376631
 31
0.0
  0
LINE
  5
197
330
1F
100
AcDbEntity
  8
Make2D$可见线$普通线
100
AcDbLine
 10
241.3824467716838
 20
285.9224395877505
 30
0.0
 11
241.3996839381973
 21
285.9078529394258
 31
0.0
  0
LINE
  5
198
330
1F
100
AcDbEntity
  8
Make2D$可见线$普通线
100
AcDbLine
 10
241.2940696083586
 20
285.9964794993305
 30
0.0
 11
241.3454422186444
 21
285.9535908429675
 31
0.0
  0
LINE
  5
199
330
1F
100
AcDbEntity
  8
Make2D$可见线$普通线
100
AcDbLine
 10
241.2491622579091
 20
286.0336394469862
 30
0.0
 11
241.2755090147276
 21
286.0118754725001
 31
0.0
  0
ARC
  5
19A
330
1F
100
AcDbEntity
  8
Make2D$可见线$普通线
100
AcDbCircle
 10
232.8836177967699
 20
275.8877119550537
 30
0.0
 40
13.14998401100338
100
AcDbArc
 50
50.55654652622972
 51
52.13033380615071
  0
LINE
  5
19B
330
1F
100
AcDbEntity
  8
Make2D$可见线$普通线
100
AcDbLine
 10
240.9029711589804
 20
286.3093996520448
 30
0.0
 11
240.9257267132417
 21
286.2918617569148
 31
0.0
  0
LINE
  5
19C
330
1F
100
AcDbEntity
  8
Make2D$可见线$普通线
100
AcDbLine
 10
240.8093726112822
 20
286.380674299102
 30
0.0
 11
240.856719366097
 21
286.3447929656221
 31
0.0
  0
LINE
  5
19D
330
1F
100
AcDbEntity
  8
Make2D$可见线$普通线
100
AcDbLine
 10
240.6317807800979
 20
286.5121789072482
 30
0.0
 11
240.7809753853813
 21
286.4020261374328
 31
0.0
  0
ARC
  5
19E
330
1F
100
AcDbEntity
  8
Make2D$可见线$普通线
100
AcDbCircle
 10
232.9277168447862
 20
275.916360178003
 30
0.0
 40
13.10053566292186
100
AcDbArc
 50
54.26717669373647
 51
57.57219543392119
  0
ARC
  5
19F
330
1F
100
AcDbEntity
  8
Make2D$可见线$普通线
100
AcDbCircle
 10
232.9143319893563
 20
275.8771291774489
 30
0.0
 40
13.14089192232683
100
AcDbArc
 50
58.26972444080557
 51
63.27771943906739
  0
LINE
  5
1A0
330
1F
100
AcDbEntity
  8
Make2D$可见线$普通线
100
AcDbLine
 10
238.6074005034701
 20
287.7206440707178
 30
0.0
 11
238.6611713160791
 21
287.6946898604738
 31
0.0
  0
ARC
  5
1A1
330
1F
100
AcDbEntity
  8
Make2D$可见线$普通线
100
AcDbCircle
 10
232.9929355394046
 20
276.0170395810709
 30
0.0
 40
12.98063417634888
100
AcDbArc
 50
65.41364278434042
 51
68.05937552557636
  0
LINE
  5
1A2
330
1F
100
AcDbEntity
  8
Make2D$可见线$普通线
100
AcDbLine
 10
237.6754833227935
 20
288.1236911413887
 30
0.0
 11
237.7687167841235
 21
288.0872054546872
 31
0.0
  0
LINE
  5
1A3
330
1F
100
AcDbEntity
  8
Make2D$可见线$普通线
100
AcDbLine
 10
237.5376041674957
 20
288.1761481905251
 30
0.0
 11
237.6185190471317
 21
288.1455794923462
 31
0.0
  0
ARC
  5
1A4
330
1F
100
AcDbEntity
  8
Make2D$可见线$普通线
100
AcDbCircle
 10
232.9607268544732
 20
275.9393203345675
 30
0.0
 40
13.06475240645151
100
AcDbArc
 50
69.63778702976326
 51
71.19341331321468
  0
LINE
  5
1A5
330
1F
100
AcDbEntity
  8
Make2D$可见线$普通线
100
AcDbLine
 10
237.0150191484015
 20
288.3590763915751
 30
0.0
 11
237.1662262850197
 21
288.3086989899414
 31
0.0
  0
ARC
  5
1A6
330
1F
100
AcDbEntity
  8
Make2D$可见线$普通线
100
AcDbCircle
 10
233.0008799424776
 20
276.0608236640252
 30
0.0
 40
12.9367817212673
100
AcDbArc
 50
72.04695185192574
 51
73.35375017543836
  0
ARC
  5
1A7
330
1F
100
AcDbEntity
  8
Make2D$可见线$普通线
100
AcDbCircle
 10
232.9952948087696
 20
276.0415443657903
 30
0.0
 40
12.95685352250099
100
AcDbArc
 50
74.02814144976529
 51
74.14495361227694
  0
LINE
  5
1A8
330
1F
100
AcDbEntity
  8
Make2D$可见线$普通线
100
AcDbLine
 10
236.3627992228192
 20
288.5531384599211
 30
0.0
 11
236.408932608415
 21
288.5406298746187
 31
0.0
  0
LINE
  5
1A9
330
1F
100
AcDbEntity
  8
Make2D$可见线$普通线
100
AcDbLine
 10
236.1897364359014
 20
288.5984440300417
 30
0.0
 11
236.2439980269618
 21
288.5845130603016
 31
0.0
  0
ARC
  5
1AA
330
1F
100
AcDbEntity
  8
Make2D$可见线$普通线
100
AcDbCircle
 10
232.9834400762203
 20
275.9965186608054
 30
0.0
 40
13.00341799556797
100
AcDbArc
 50
76.3325943063892
 51
80.86577768280384
  0
ARC
  5
1AB
330
1F
100
AcDbEntity
  8
Make2D$可见线$普通线
100
AcDbCircle
 10
232.9804598844109
 20
275.9787629628194
 30
0.0
 40
13.0214216831345
100
AcDbArc
 50
81.31862835192966
 51
81.53419498452472
  0
ARC
  5
1AC
330
1F
100
AcDbEntity
  8
Make2D$可见线$普通线
100
AcDbCircle
 10
232.9801518469932
 20
275.9766479702354
 30
0.0
 40
13.02355900066629
100
AcDbArc
 50
81.98332538889497
 51
82.3093764733055
  0
ARC
  5
1AD
330
1F
100
AcDbEntity
  8
Make2D$可见线$普通线
100
AcDbCircle
 10
232.9801750638679
 20
275.9768350754393
 30
0.0
 40
13.023370466036
100
AcDbArc
 50
82.64798098809398
 51
82.86418130045327
  0
ARC
  5
1AE
330
1F
100
AcDbEntity
  8
Make2D$可见线$普通线
100
AcDbCircle
 10
232.9804499388504
 20
275.9791193783392
 30
0.0
 40
13.02106967384195
100
AcDbArc
 50
83.3127029537561
 51
83.52530606785683
  0
ARC
  5
1AF
330
1F
100
AcDbEntity
  8
Make2D$可见线$普通线
100
AcDbCircle
 10
232.9809334604348
 20
275.983552998856
 30
0.0
 40
13.01660974346764
100
AcDbArc
 50
83.97759222353267
 51
84.18395933484845
  0
LINE
  5
1B0
330
1F
100
AcDbEntity
  8
Make2D$可见线$普通线
100
AcDbLine
 10
234.1451652841738
 20
288.9479923445113
 30
0.0
 11
234.1962555378467
 21
288.9433029736743
 31
0.0
  0
LINE
  5
1B1
330
1F
100
AcDbEntity
  8
Make2D$可见线$普通线
100
AcDbLine
 10
233.9519722317746
 20
288.9638901487044
 30
0.0
 11
234.045744749087
 21
288.9565357783889
 31
0.0
  0
ARC
  5
1B2
330
1F
100
AcDbEntity
  8
Make2D$可见线$普通线
100
AcDbCircle
 10
232.9835917920283
 20
276.0064076356416
 30
0.0
 40
12.99362122156888
100
AcDbArc
 50
85.97741509345911
 51
95.98439011331267
  0
LINE
  5
1B3
330
1F
100
AcDbEntity
  8
Make2D$可见线$普通线
100
AcDbLine
 10
231.4309670675485
 20
288.9069314924092
 30
0.0
 11
231.6169090065061
 21
288.9279541278544
 31
0.0
  0
LINE
  5
1B4
330
1F
100
AcDbEntity
  8
Make2D$可见线$普通线
100
AcDbLine
 10
231.2439879426733
 20
288.8830564953292
 30
0.0
 11
231.3690430853728
 21
288.8993289547001
 31
0.0
  0
LINE
  5
1B5
330
1F
100
AcDbEntity
  8
Make2D$可见线$普通线
100
AcDbLine
 10
231.0520831475394
 20
288.8556852580679
 30
0.0
 11
231.2194670394407
 21
288.8797213068997
 31
0.0
  0
LINE
  5
1B6
330
1F
100
AcDbEntity
  8
Make2D$可见线$普通线
100
AcDbLine
 10
230.8606007103135
 20
288.8254608677597
 30
0.0
 11
230.9193010099488
 21
288.8350369241364
 31
0.0
  0
LINE
  5
1B7
330
1F
100
AcDbEntity
  8
Make2D$可见线$普通线
100
AcDbLine
 10
230.6695849887373
 20
288.7923891734348
 30
0.0
 11
230.7687714916222
 21
288.8099274945872
 31
0.0
  0
LINE
  5
1B8
330
1F
100
AcDbEntity
  8
Make2D$可见线$普通线
100
AcDbLine
 10
230.4790787133512
 20
288.7564756146535
 30
0.0
 11
230.6179857312488
 21
288.7829519024928
 31
0.0
  0
ARC
  5
1B9
330
1F
100
AcDbEntity
  8
Make2D$可见线$普通线
100
AcDbCircle
 10
232.9806170551327
 20
276.0106760879368
 30
0.0
 40
12.98896115581423
100
AcDbArc
 50
101.2025458505585
 51
108.8009059023613
  0
LINE
  5
1BA
330
1F
100
AcDbEntity
  8
Make2D$可见线$普通线
100
AcDbLine
 10
228.6114651417423
 20
288.242762313476
 30
0.0
 11
228.7175694252705
 21
288.2801368353965
 31
0.0
  0
LINE
  5
1BB
330
1F
100
AcDbEntity
  8
Make2D$可见线$普通线
100
AcDbLine
 10
228.4293820767539
 20
288.1761972075683
 30
0.0
 11
228.5369641921893
 21
288.2158996678235
 31
0.0
  0
LINE
  5
1BC
330
1F
100
AcDbEntity
  8
Make2D$可见线$普通线
100
AcDbLine
 10
227.4533367123523
 20
287.7651417080334
 30
0.0
 11
227.4942536184554
 21
287.784277018772
 31
0.0
  0
LINE
  5
1BD
330
1F
100
AcDbEntity
  8
Make2D$可见线$普通线
100
AcDbLine
 10
227.3058265357674
 20
287.6947033258845
 30
0.0
 11
227.3449836856251
 21
287.7136251964626
 31
0.0
  0
ARC
  5
1BE
330
1F
100
AcDbEntity
  8
Make2D$可见线$普通线
100
AcDbCircle
 10
233.048218908415
 20
275.885891611358
 30
0.0
 40
13.1310271016785
100
AcDbArc
 50
116.1021411925292
 51
122.2801508935233
  0
LINE
  5
1BF
330
1F
100
AcDbEntity
  8
Make2D$可见线$普通线
100
AcDbLine
 10
225.9439933899382
 20
286.9291954494183
 30
0.0
 11
225.990899451675
 21
286.959214693154
 31
0.0
  0
LINE
  5
1C0
330
1F
100
AcDbEntity
  8
Make2D$可见线$普通线
100
AcDbLine
 10
225.8696977787535
 20
286.8810600900583
 30
0.0
 11
225.8986624305835
 21
286.8999125351475
 31
0.0
  0
ARC
  5
1C1
330
1F
100
AcDbEntity
  8
Make2D$可见线$普通线
100
AcDbCircle
 10
233.1218242435224
 20
275.8235619526772
 30
0.0
 40
13.22406033322729
100
AcDbArc
 50
125.2928012709154
 51
127.6023674306592
  0
LINE
  5
1C2
330
1F
100
AcDbEntity
  8
Make2D$可见线$普通线
100
AcDbLine
 10
224.9609734887411
 20
286.2291973100789
 30
0.0
 11
225.0173457145695
 21
286.27313035767
 31
0.0
  0
LINE
  5
1C3
330
1F
100
AcDbEntity
  8
Make2D$可见线$普通线
100
AcDbLine
 10
224.8530989518151
 20
286.1437615134543
 30
0.0
 11
224.9426494508693
 21
286.2148128665282
 31
0.0
  0
LINE
  5
1C4
330
1F
100
AcDbEntity
  8
Make2D$可见线$普通线
100
AcDbLine
 10
224.7896119803196
 20
286.0926089443714
 30
0.0
 11
224.8015405860087
 21
286.1022706111677
 31
0.0
  0
ARC
  5
1C5
330
1F
100
AcDbEntity
  8
Make2D$可见线$普通线
100
AcDbCircle
 10
232.7799627780352
 20
276.2419749840607
 30
0.0
 40
12.68388521365657
100
AcDbArc
 50
129.3644219643712
 51
131.9821531223882
  0
LINE
  5
1C6
330
1F
100
AcDbEntity
  8
Make2D$可见线$普通线
100
AcDbLine
 10
224.2443340342009
 20
285.6241823261896
 30
0.0
 11
224.2543851817367
 21
285.6332931375082
 31
0.0
  0
LINE
  5
1C7
330
1F
100
AcDbEntity
  8
Make2D$可见线$普通线
100
AcDbLine
 10
224.205231792749
 20
285.5885670367876
 30
0.0
 11
224.214843585787
 21
285.5973473754304
 31
0.0
  0
LINE
  5
1C8
330
1F
100
AcDbEntity
  8
Make2D$可见线$普通线
100
AcDbLine
 10
224.1234552784404
 20
285.5131531712089
 30
0.0
 11
224.1409098048771
 21
285.5293596265129
 31
0.0
  0
LINE
  5
1C9
330
1F
100
AcDbEntity
  8
Make2D$可见线$普通线
100
AcDbLine
 10
224.0980145011673
 20
285.4894203551951
 30
0.0
 11
224.1063972374496
 21
285.4972550535198
 31
0.0
  0
ARC
  5
1CA
330
1F
100
AcDbEntity
  8
Make2D$可见线$普通线
100
AcDbCircle
 10
232.3253392195465
 20
276.6936994481027
 30
0.0
 40
12.0438176371856
100
AcDbArc
 50
133.4537318455927
 51
133.5185840518365
  0
LINE
  5
1CB
330
1F
100
AcDbEntity
  8
Make2D$可见线$普通线
100
AcDbLine
 10
223.869746052939
 20
285.2703264481204
 30
0.0
 11
224.0119545981506
 21
285.4081230848907
 31
0.0
  0
LINE
  5
1CC
330
1F
100
AcDbEntity
  8
Make2D$可见线$普通线
100
AcDbLine
 10
223.8369336156588
 20
285.2379592443129
 30
0.0
 11
223.850315398847
 21
285.2511862154544
 31
0.0
  0
LINE
  5
1CD
330
1F
100
AcDbEntity
  8
Make2D$可见线$普通线
100
AcDbLine
 10
223.8064548912216
 20
285.2076898255181
 30
0.0
 11
223.8214097914763
 21
285.2225673509155
 31
0.0
  0
LINE
  5
1CE
330
1F
100
AcDbEntity
  8
Make2D$可见线$普通线
100
AcDbLine
 10
223.7781961562923
 20
285.1794398626222
 30
0.0
 11
223.79441728465
 21
285.1956782128949
 31
0.0
  0
LINE
  5
1CF
330
1F
100
AcDbEntity
  8
Make2D$可见线$普通线
100
AcDbLine
 10
223.7520429807406
 20
285.1531303176361
 30
0.0
 11
223.769250082083
 21
285.1704582666995
 31
0.0
  0
LINE
  5
1D0
330
1F
100
AcDbEntity
  8
Make2D$可见线$普通线
100
AcDbLine
 10
223.7278816231038
 20
285.1286828387359
 30
0.0
 11
223.7458204048309
 21
285.1468469937021
 31
0.0
  0
LINE
  5
1D1
330
1F
100
AcDbEntity
  8
Make2D$可见线$普通线
100
AcDbLine
 10
223.7055982761352
 20
285.106019011092
 30
0.0
 11
223.7240405233316
 21
285.1247839245023
 31
0.0
  0
LINE
  5
1D2
330
1F
100
AcDbEntity
  8
Make2D$可见线$普通线
100
AcDbLine
 10
223.6659197098845
 20
285.0654252925443
 30
0.0
 11
223.703822526044
 21
285.104208404312
 31
0.0
  0
LINE
  5
1D3
330
1F
100
AcDbEntity
  8
Make2D$可见线$普通线
100
AcDbLine
 10
223.6484067652881
 20
285.0474195485858
 30
0.0
 11
223.6599020207207
 21
285.0592448765439
 31
0.0
  0
LINE
  5
1D4
330
1F
100
AcDbEntity
  8
Make2D$可见线$普通线
100
AcDbLine
 10
223.6389519641997
 20
285.0376730514473
 30
0.0
 11
223.6454270926148
 21
285.0443499899047
 31
0.0
  0
LINE
  5
1D5
330
1F
100
AcDbEntity
  8
Make2D$可见线$普通线
100
AcDbLine
 10
223.6180848097756
 20
285.016089830192
 30
0.0
 11
223.626316095193
 21
285.0246162215651
 31
0.0
  0
ARC
  5
1D6
330
1F
100
AcDbEntity
  8
Make2D$可见线$普通线
100
AcDbCircle
 10
231.4887966795283
 20
277.425513167513
 30
0.0
 40
10.9345763171445
100
AcDbArc
 50
136.0557689805277
 51
136.0661110905733
  0
POLYLINE
  5
1D7
330
1F
100
AcDbEntity
  8
Make2D$可见线$普通线
100
AcDb2dPolyline
 66
     1
 10
0.0
 20
0.0
 30
0.0
  0
VERTEX
  5
1D8
330
1D7
100
AcDbEntity
  8
Make2D$可见线$普通线
100
AcDbVertex
100
AcDb2dVertex
 10
232.9835021865775
 20
267.2301640573826
 30
0.0
  0
VERTEX
  5
1D9
330
1D7
100
AcDbEntity
  8
Make2D$可见线$普通线
100
AcDbVertex
100
AcDb2dVertex
 10
234.1508606073883
 20
267.224656971306
 30
0.0
  0
VERTEX
  5
1DA
330
1D7
100
AcDbEntity
  8
Make2D$可见线$普通线
100
AcDbVertex
100
AcDb2dVertex
 10
235.3182763232113
 20
267.2077671747085
 30
0.0
  0
VERTEX
  5
1DB
330
1D7
100
AcDbEntity
  8
Make2D$可见线$普通线
100
AcDbVertex
100
AcDb2dVertex
 10
236.4855828476494
 20
267.1794930178084
 30
0.0
  0
VERTEX
  5
1DC
330
1D7
100
AcDbEntity
  8
Make2D$可见线$普通线
100
AcDbVertex
100
AcDb2dVertex
 10
237.6526136621305
 20
267.1398360977437
 30
0.0
  0
VERTEX
  5
1DD
330
1D7
100
AcDbEntity
  8
Make2D$可见线$普通线
100
AcDbVertex
100
AcDb2dVertex
 10
238.8192022950636
 20
267.0888012589703
 30
0.0
  0
VERTEX
  5
1DE
330
1D7
100
AcDbEntity
  8
Make2D$可见线$普通线
100
AcDbVertex
100
AcDb2dVertex
 10
239.9851824009843
 20
267.0263965913452
 30
0.0
  0
VERTEX
  5
1DF
330
1D7
100
AcDbEntity
  8
Make2D$可见线$普通线
100
AcDbVertex
100
AcDb2dVertex
 10
241.1503878396098
 20
266.9526334258952
 30
0.0
  0
VERTEX
  5
1E0
330
1D7
100
AcDbEntity
  8
Make2D$可见线$普通线
100
AcDbVertex
100
AcDb2dVertex
 10
242.3146527547258
 20
266.8675263282765
 30
0.0
  0
VERTEX
  5
1E1
330
1D7
100
AcDbEntity
  8
Make2D$可见线$普通线
100
AcDbVertex
100
AcDb2dVertex
 10
243.467578658476
 20
266.7714770508788
 30
0.0
  0
VERTEX
  5
1E2
330
1D7
100
AcDbEntity
  8
Make2D$可见线$普通线
100
AcDbVertex
100
AcDb2dVertex
 10
244.615712057838
 20
266.6642445164235
 30
0.0
  0
VERTEX
  5
1E3
330
1D7
100
AcDbEntity
  8
Make2D$可见线$普通线
100
AcDbVertex
100
AcDb2dVertex
 10
245.7585449654057
 20
266.5458967339595
 30
0.0
  0
VERTEX
  5
1E4
330
1D7
100
AcDbEntity
  8
Make2D$可见线$普通线
100
AcDbVertex
100
AcDb2dVertex
 10
246.8955693937729
 20
266.4165017125355
 30
0.0
  0
VERTEX
  5
1E5
330
1D7
100
AcDbEntity
  8
Make2D$可见线$普通线
100
AcDbVertex
100
AcDb2dVertex
 10
248.0262773555336
 20
266.2761274612005
 30
0.0
  0
VERTEX
  5
1E6
330
1D7
100
AcDbEntity
  8
Make2D$可见线$普通线
100
AcDbVertex
100
AcDb2dVertex
 10
249.1501608632816
 20
266.1248419890032
 30
0.0
  0
VERTEX
  5
1E7
330
1D7
100
AcDbEntity
  8
Make2D$可见线$普通线
100
AcDbVertex
100
AcDb2dVertex
 10
250.2667119296108
 20
265.9627133049928
 30
0.0
  0
VERTEX
  5
1E8
330
1D7
100
AcDbEntity
  8
Make2D$可见线$普通线
100
AcDbVertex
100
AcDb2dVertex
 10
251.3754225671151
 20
265.7898094182179
 30
0.0
  0
VERTEX
  5
1E9
330
1D7
100
AcDbEntity
  8
Make2D$可见线$普通线
100
AcDbVertex
100
AcDb2dVertex
 10
252.7116959183946
 20
265.5652017038099
 30
0.0
  0
VERTEX
  5
1EA
330
1D7
100
AcDbEntity
  8
Make2D$可见线$普通线
100
AcDbVertex
100
AcDb2dVertex
 10
254.5541050222845
 20
265.2255224525925
 30
0.0
  0
VERTEX
  5
1EB
330
1D7
100
AcDbEntity
  8
Make2D$可见线$普通线
100
AcDbVertex
100
AcDb2dVertex
 10
256.3682887163484
 20
264.8557598301628
 30
0.0
  0
VERTEX
  5
1EC
330
1D7
100
AcDbEntity
  8
Make2D$可见线$普通线
100
AcDbVertex
100
AcDb2dVertex
 10
258.1519462646547
 20
264.4564400029187
 30
0.0
  0
VERTEX
  5
1ED
330
1D7
100
AcDbEntity
  8
Make2D$可见线$普通线
100
AcDbVertex
100
AcDb2dVertex
 10
259.9027769312722
 20
264.0280891372581
 30
0.0
  0
VERTEX
  5
1EE
330
1D7
100
AcDbEntity
  8
Make2D$可见线$普通线
100
AcDbVertex
100
AcDb2dVertex
 10
261.0179152274557
 20
263.7354338621478
 30
0.0
  0
VERTEX
  5
1EF
330
1D7
100
AcDbEntity
  8
Make2D$可见线$普通线
100
AcDbVertex
100
AcDb2dVertex
 10
262.1289887631597
 20
263.4277065024231
 30
0.0
  0
VERTEX
  5
1F0
330
1D7
100
AcDbEntity
  8
Make2D$可见线$普通线
100
AcDbVertex
100
AcDb2dVertex
 10
263.5542508561797
 20
263.0082724176647
 30
0.0
  0
VERTEX
  5
1F1
330
1D7
100
AcDbEntity
  8
Make2D$可见线$普通线
100
AcDbVertex
100
AcDb2dVertex
 10
264.9503988562864
 20
262.5690117572628
 30
0.0
  0
VERTEX
  5
1F2
330
1D7
100
AcDbEntity
  8
Make2D$可见线$普通线
100
AcDbVertex
100
AcDb2dVertex
 10
266.3161485568216
 20
262.1103531034687
 30
0.0
  0
VERTEX
  5
1F3
330
1D7
100
AcDbEntity
  8
Make2D$可见线$普通线
100
AcDbVertex
100
AcDb2dVertex
 10
267.6502157511268
 20
261.6327250385332
 30
0.0
  0
VERTEX
  5
1F4
330
1D7
100
AcDbEntity
  8
Make2D$可见线$普通线
100
AcDbVertex
100
AcDb2dVertex
 10
269.0378596061792
 20
261.1023671324627
 30
0.0
  0
VERTEX
  5
1F5
330
1D7
100
AcDbEntity
  8
Make2D$可见线$普通线
100
AcDbVertex
100
AcDb2dVertex
 10
270.4129064809436
 20
260.54015625637
 30
0.0
  0
VERTEX
  5
1F6
330
1D7
100
AcDbEntity
  8
Make2D$可见线$普通线
100
AcDbVertex
100
AcDb2dVertex
 10
271.4478138198195
 20
260.0909121128794
 30
0.0
  0
VERTEX
  5
1F7
330
1D7
100
AcDbEntity
  8
Make2D$可见线$普通线
100
AcDbVertex
100
AcDb2dVertex
 10
272.4567669767288
 20
259.6295346181939
 30
0.0
  0
VERTEX
  5
1F8
330
1D7
100
AcDbEntity
  8
Make2D$可见线$普通线
100
AcDbVertex
100
AcDb2dVertex
 10
273.4390944234791
 20
259.1563247887249
 30
0.0
  0
VERTEX
  5
1F9
330
1D7
100
AcDbEntity
  8
Make2D$可见线$普通线
100
AcDbVertex
100
AcDb2dVertex
 10
274.3941246318782
 20
258.6715836408843
 30
0.0
  0
VERTEX
  5
1FA
330
1D7
100
AcDbEntity
  8
Make2D$可见线$普通线
100
AcDbVertex
100
AcDb2dVertex
 10
275.1401649022534
 20
258.2749656277347
 30
0.0
  0
VERTEX
  5
1FB
330
1D7
100
AcDbEntity
  8
Make2D$可见线$普通线
100
AcDbVertex
100
AcDb2dVertex
 10
275.8787281945064
 20
257.8642833850371
 30
0.0
  0
VERTEX
  5
1FC
330
1D7
100
AcDbEntity
  8
Make2D$可见线$普通线
100
AcDbVertex
100
AcDb2dVertex
 10
276.6094188318909
 20
257.4397520745671
 30
0.0
  0
VERTEX
  5
1FD
330
1D7
100
AcDbEntity
  8
Make2D$可见线$普通线
100
AcDbVertex
100
AcDb2dVertex
 10
277.3318495283084
 20
257.001601618388
 30
0.0
  0
VERTEX
  5
1FE
330
1D7
100
AcDbEntity
  8
Make2D$可见线$普通线
100
AcDbVertex
100
AcDb2dVertex
 10
277.9977507758196
 20
256.5793620037218
 30
0.0
  0
VERTEX
  5
1FF
330
1D7
100
AcDbEntity
  8
Make2D$可见线$普通线
100
AcDbVertex
100
AcDb2dVertex
 10
278.6545786391997
 20
256.142813031046
 30
0.0
  0
VERTEX
  5
200
330
1D7
100
AcDbEntity
  8
Make2D$可见线$普通线
100
AcDbVertex
100
AcDb2dVertex
 10
279.3018750792094
 20
255.692252084661
 30
0.0
  0
VERTEX
  5
201
330
1D7
100
AcDbEntity
  8
Make2D$可见线$普通线
100
AcDbVertex
100
AcDb2dVertex
 10
279.9391952543374
 20
255.2279959506087
 30
0.0
  0
VERTEX
  5
202
330
1D7
100
AcDbEntity
  8
Make2D$可见线$普通线
100
AcDbVertex
100
AcDb2dVertex
 10
280.6684246530291
 20
254.6665972104846
 30
0.0
  0
VERTEX
  5
203
330
1D7
100
AcDbEntity
  8
Make2D$可见线$普通线
100
AcDbVertex
100
AcDb2dVertex
 10
281.3655092660117
 20
254.0965602142731
 30
0.0
  0
VERTEX
  5
204
330
1D7
100
AcDbEntity
  8
Make2D$可见线$普通线
100
AcDbVertex
100
AcDb2dVertex
 10
282.0299855601933
 20
253.5182554118844
 30
0.0
  0
VERTEX
  5
205
330
1D7
100
AcDbEntity
  8
Make2D$可见线$普通线
100
AcDbVertex
100
AcDb2dVertex
 10
282.6613900024823
 20
252.9320532532283
 30
0.0
  0
VERTEX
  5
206
330
1D7
100
AcDbEntity
  8
Make2D$可见线$普通线
100
AcDbVertex
100
AcDb2dVertex
 10
283.0404250849587
 20
252.5608082898956
 30
0.0
  0
VERTEX
  5
207
330
1D7
100
AcDbEntity
  8
Make2D$可见线$普通线
100
AcDbVertex
100
AcDb2dVertex
 10
283.4109571931773
 20
252.180881927844
 30
0.0
  0
VERTEX
  5
208
330
1D7
100
AcDbEntity
  8
Make2D$可见线$普通线
100
AcDbVertex
100
AcDb2dVertex
 10
283.7726914538265
 20
251.7925696714379
 30
0.0
  0
VERTEX
  5
209
330
1D7
100
AcDbEntity
  8
Make2D$可见线$普通线
100
AcDbVertex
100
AcDb2dVertex
 10
284.1253468321423
 20
251.3961802156085
 30
0.0
  0
VERTEX
  5
20A
330
1D7
100
AcDbEntity
  8
Make2D$可见线$普通线
100
AcDbVertex
100
AcDb2dVertex
 10
284.4297306858248
 20
251.0370310373651
 30
0.0
  0
VERTEX
  5
20B
330
1D7
100
AcDbEntity
  8
Make2D$可见线$普通线
100
AcDbVertex
100
AcDb2dVertex
 10
284.7220901290466
 20
250.6756737117247
 30
0.0
  0
VERTEX
  5
20C
330
1D7
100
AcDbEntity
  8
Make2D$可见线$普通线
100
AcDbVertex
100
AcDb2dVertex
 10
285.0023518049486
 20
250.3121924319741
 30
0.0
  0
VERTEX
  5
20D
330
1D7
100
AcDbEntity
  8
Make2D$可见线$普通线
100
AcDbVertex
100
AcDb2dVertex
 10
285.2704423566714
 20
249.9466713913999
 30
0.0
  0
VERTEX
  5
20E
330
1D7
100
AcDbEntity
  8
Make2D$可见线$普通线
100
AcDbVertex
100
AcDb2dVertex
 10
285.5262884273559
 20
249.5791947832888
 30
0.0
  0
VERTEX
  5
20F
330
1D7
100
AcDbEntity
  8
Make2D$可见线$普通线
100
AcDbVertex
100
AcDb2dVertex
 10
285.769816660143
 20
249.2098468009276
 30
0.0
  0
VERTEX
  5
210
330
1D7
100
AcDbEntity
  8
Make2D$可见线$普通线
100
AcDbVertex
100
AcDb2dVertex
 10
286.0009536981731
 20
248.838711637603
 30
0.0
  0
VERTEX
  5
211
330
1D7
100
AcDbEntity
  8
Make2D$可见线$普通线
100
AcDbVertex
100
AcDb2dVertex
 10
286.2196261845874
 20
248.4658734866015
 30
0.0
  0
VERTEX
  5
212
330
1D7
100
AcDbEntity
  8
Make2D$可见线$普通线
100
AcDbVertex
100
AcDb2dVertex
 10
286.381189788649
 20
248.1746967463178
 30
0.0
  0
VERTEX
  5
213
330
1D7
100
AcDbEntity
  8
Make2D$可见线$普通线
100
AcDbVertex
100
AcDb2dVertex
 10
286.5362669451461
 20
247.87992090727
 30
0.0
  0
VERTEX
  5
214
330
1D7
100
AcDbEntity
  8
Make2D$可见线$普通线
100
AcDbVertex
100
AcDb2dVertex
 10
286.6847398189797
 20
247.5817640266029
 30
0.0
  0
VERTEX
  5
215
330
1D7
100
AcDbEntity
  8
Make2D$可见线$普通线
100
AcDbVertex
100
AcDb2dVertex
 10
286.8265004022985
 20
247.2804491924895
 30
0.0
  0
VERTEX
  5
216
330
1D7
100
AcDbEntity
  8
Make2D$可见线$普通线
100
AcDbVertex
100
AcDb2dVertex
 10
287.0165568013849
 20
246.844339831394
 30
0.0
  0
VERTEX
  5
217
330
1D7
100
AcDbEntity
  8
Make2D$可见线$普通线
100
AcDbVertex
100
AcDb2dVertex
 10
287.1897600456289
 20
246.406604363149
 30
0.0
  0
VERTEX
  5
218
330
1D7
100
AcDbEntity
  8
Make2D$可见线$普通线
100
AcDbVertex
100
AcDb2dVertex
 10
287.2700229343885
 20
246.1871711011933
 30
0.0
  0
VERTEX
  5
219
330
1D7
100
AcDbEntity
  8
Make2D$可见线$普通线
100
AcDbVertex
100
AcDb2dVertex
 10
287.3460499740815
 20
245.9673844272676
 30
0.0
  0
VERTEX
  5
21A
330
1D7
100
AcDbEntity
  8
Make2D$可见线$普通线
100
AcDbVertex
100
AcDb2dVertex
 10
287.4178336445893
 20
245.7472620463112
 30
0.0
  0
VERTEX
  5
21B
330
1D7
100
AcDbEntity
  8
Make2D$可见线$普通线
100
AcDbVertex
100
AcDb2dVertex
 10
287.4853664257935
 20
245.5268216632632
 30
0.0
  0
VERTEX
  5
21C
330
1D7
100
AcDbEntity
  8
Make2D$可见线$普通线
100
AcDbVertex
100
AcDb2dVertex
 10
287.5486407975751
 20
245.3060809830627
 30
0.0
  0
VERTEX
  5
21D
330
1D7
100
AcDbEntity
  8
Make2D$可见线$普通线
100
AcDbVertex
100
AcDb2dVertex
 10
287.6076492398157
 20
245.0850577106489
 30
0.0
  0
VERTEX
  5
21E
330
1D7
100
AcDbEntity
  8
Make2D$可见线$普通线
100
AcDbVertex
100
AcDb2dVertex
 10
287.6623842323966
 20
244.8637695509609
 30
0.0
  0
VERTEX
  5
21F
330
1D7
100
AcDbEntity
  8
Make2D$可见线$普通线
100
AcDbVertex
100
AcDb2dVertex
 10
287.712838255199
 20
244.6422342089379
 30
0.0
  0
VERTEX
  5
220
330
1D7
100
AcDbEntity
  8
Make2D$可见线$普通线
100
AcDbVertex
100
AcDb2dVertex
 10
287.7590037881045
 20
244.420469389519
 30
0.0
  0
VERTEX
  5
221
330
1D7
100
AcDbEntity
  8
Make2D$可见线$普通线
100
AcDbVertex
100
AcDb2dVertex
 10
287.8008733109943
 20
244.1984927976435
 30
0.0
  0
VERTEX
  5
222
330
1D7
100
AcDbEntity
  8
Make2D$可见线$普通线
100
AcDbVertex
100
AcDb2dVertex
 10
287.8384393037499
 20
243.9763221382504
 30
0.0
  0
VERTEX
  5
223
330
1D7
100
AcDbEntity
  8
Make2D$可见线$普通线
100
AcDbVertex
100
AcDb2dVertex
 10
287.8716942462525
 20
243.7539751162789
 30
0.0
  0
VERTEX
  5
224
330
1D7
100
AcDbEntity
  8
Make2D$可见线$普通线
100
AcDbVertex
100
AcDb2dVertex
 10
287.9182299144434
 20
243.3763349439969
 30
0.0
  0
VERTEX
  5
225
330
1D7
100
AcDbEntity
  8
Make2D$可见线$普通线
100
AcDbVertex
100
AcDb2dVertex
 10
287.9523573705568
 20
242.9973719050678
 30
0.0
  0
VERTEX
  5
226
330
1D7
100
AcDbEntity
  8
Make2D$可见线$普通线
100
AcDbVertex
100
AcDb2dVertex
 10
287.966068532434
 20
242.7835552100509
 30
0.0
  0
VERTEX
  5
227
330
1D7
100
AcDbEntity
  8
Make2D$可见线$普通线
100
AcDbVertex
100
AcDb2dVertex
 10
287.9758039459383
 20
242.5694835670772
 30
0.0
  0
VERTEX
  5
228
330
1D7
100
AcDbEntity
  8
Make2D$可见线$普通线
100
AcDbVertex
100
AcDb2dVertex
 10
287.9815575317121
 20
242.3552679214015
 30
0.0
  0
VERTEX
  5
229
330
1D7
100
AcDbEntity
  8
Make2D$可见线$普通线
100
AcDbVertex
100
AcDb2dVertex
 10
287.9833273390486
 20
242.1410193675908
 30
0.0
  0
SEQEND
  5
22A
330
1D7
100
AcDbEntity
  8
Make2D$可见线$普通线
  0
SPLINE
  5
22B
330
1F
100
AcDbEntity
  8
Make2D$可见线$普通线
100
AcDbSpline
210
0.0
220
0.0
230
1.0
 70
    12
 71
     3
 72
    56
 73
    52
 74
     0
 42
0.000000001
 43
0.0000000001
 12
1.0
 22
0.0
 32
0.0
 13
1.0
 23
0.0
 33
0.0
 40
0.0
 40
0.0
 40
0.0
 40
0.0
 40
0.8571098697328917
 40
0.8571098697328917
 40
0.8571098697328917
 40
1.618137197678016
 40
1.618137197678016
 40
1.618137197678016
 40
9.37325356003466
 40
9.37325356003466
 40
9.37325356003466
 40
10.70543246548122
 40
10.70543246548122
 40
10.70543246548122
 40
17.44624419175548
 40
17.44624419175548
 40
17.44624419175548
 40
19.56879567600538
 40
19.56879567600538
 40
19.56879567600538
 40
25.29281724372509
 40
25.29281724372509
 40
25.29281724372509
 40
28.44718746862107
 40
28.44718746862107
 40
28.44718746862107
 40
31.82719912082916
 40
31.82719912082916
 40
31.82719912082916
 40
37.5500574326478
 40
37.5500574326478
 40
37.5500574326478
 40
40.52120721595144
 40
40.52120721595144
 40
40.52120721595144
 40
47.31585571380116
 40
47.31585571380116
 40
47.31585571380116
 40
49.62167516751035
 40
49.62167516751035
 40
49.62167516751035
 40
57.58138347882608
 40
57.58138347882608
 40
57.58138347882608
 40
58.93641163173911
 40
58.93641163173911
 40
58.93641163173911
 40
68.32484332282765
 40
68.32484332282765
 40
68.32484332282765
 40
77.66540553756789
 40
77.66540553756789
 40
77.66540553756789
 40
77.66540553756789
 10
177.9836770341065
 20
242.1410193675908
 30
0.0
 41
1.0
 10
177.9833812987807
 20
242.4267883624827
 30
0.0
 41
0.9995391674331291
 10
177.9937093811278
 20
242.7123708140024
 30
0.0
 41
0.9995391674331282
 10
178.0146470025981
 20
242.9973719050671
 30
0.0
 41
1.0
 10
178.0332570062678
 20
243.2504097428788
 30
0.0
 41
0.9996414877431987
 10
178.0601543576822
 20
243.5027012649083
 30
0.0
 41
0.9996414877431982
 10
178.0953101277507
 20
243.7539751223467
 30
0.0
 41
1.0
 10
178.261160318336
 20
244.9402647289112
 30
0.0
 41
1.0
 10
178.6112695108049
 20
246.11978494287
 30
0.0
 41
1.0
 10
179.1405039708564
 20
247.2804491924894
 30
0.0
 41
1.0
 10
179.3251206594871
 20
247.6844741245581
 30
0.0
 41
0.9993386616072617
 10
179.5275459371034
 20
248.0798770512492
 30
0.0
 41
0.9993386616072615
 10
179.7473781888822
 20
248.4658734871549
 30
0.0
 41
1.0
 10
180.313820211013
 20
249.46230436806
 30
0.0
 41
1.0
 10
181.0139999234955
 20
250.4414681088092
 30
0.0
 41
1.0
 10
181.8416575410126
 20
251.3961802156086
 30
0.0
 41
1.0
 10
182.3060166565395
 20
251.9303163187732
 30
0.0
 41
0.9993009124667578
 10
182.7943436497559
 20
252.4426321516077
 30
0.0
 41
0.9993009124667579
 10
183.3056143707227
 20
252.9320532532766
 30
0.0
 41
1.0
 10
184.1252330444583
 20
253.7187563912405
 30
0.0
 41
1.0
 10
185.0342794114844
 20
254.485387778922
 30
0.0
 41
1.0
 10
186.0278091188175
 20
255.2279959506087
 30
0.0
 41
1.0
 10
186.8712445265335
 20
255.856373893384
 30
0.0
 41
0.9993845980286182
 10
187.7408949531232
 20
256.4479398334849
 30
0.0
 41
0.9993845980286181
 10
188.6351548448258
 20
257.0016016183751
 30
0.0
 41
1.0
 10
189.5931738007007
 20
257.5950557700362
 30
0.0
 41
0.9995263126685134
 10
190.5728795070325
 20
258.1519802522779
 30
0.0
 41
0.9995263126685126
 10
191.5728797412767
 20
258.6715836408843
 30
0.0
 41
1.0
 10
192.8277567365731
 20
259.3254589318335
 30
0.0
 41
1.0
 10
194.1572171093173
 20
259.9493867508916
 30
0.0
 41
1.0
 10
195.554097892122
 20
260.5401562563323
 30
0.0
 41
1.0
 10
196.4665148272738
 20
260.9255498279263
 30
0.0
 41
0.999822778530651
 10
197.3875749688742
 20
261.2898039756486
 30
0.0
 41
0.9998227785306495
 10
198.3167886220282
 20
261.6327250385332
 30
0.0
 41
1.0
 10
200.0738524516109
 20
262.2820182514832
 30
0.0
 41
1.0
 10
201.9188275155462
 20
262.8818692540679
 30
0.0
 41
1.0
 10
203.8380156094833
 20
263.4277065022775
 30
0.0
 41
1.0
 10
204.5773536621489
 20
263.6378761416556
 30
0.0
 41
0.9999388871546397
 10
205.319469625767
 20
263.8380159177602
 30
0.0
 41
0.999938887154639
 10
206.0642274418827
 20
264.0280891372581
 30
0.0
 41
1.0
 10
208.3757611929754
 20
264.6183437985219
 30
0.0
 41
1.0
 10
210.7809685910022
 20
265.1325854677779
 30
0.0
 41
1.0
 10
213.2553084527189
 20
265.5652017034531
 30
0.0
 41
1.0
 10
213.7002399159282
 20
265.6429844692897
 30
0.0
 41
0.9999857334039228
 10
214.1456707218166
 20
265.717854775689
 30
0.0
 41
0.9999857334039219
 10
214.5915818060398
 20
265.789809418218
 30
0.0
 41
1.0
 10
217.53723805657
 20
266.2651929341458
 30
0.0
 41
1.0
 10
220.5719440802925
 20
266.6263663837825
 30
0.0
 41
1.0
 10
223.6523516184287
 20
266.8675263282765
 30
0.0
 41
1.0
 10
226.7572308278351
 20
267.1097115064686
 30
0.0
 41
0.9994930569787966
 10
229.8691919375184
 20
267.2306520594733
 30
0.0
 41
0.9994930569787961
 10
232.9835021865775
 20
267.2301640573826
 30
0.0
 41
1.0
  0
ARC
  5
22C
330
1F
100
AcDbEntity
  8
Make2D$可见线$普通线
100
AcDbCircle
 10
234.4947157048229
 20
277.4255286002264
 30
0.0
 40
10.93455407625523
100
AcDbArc
 50
43.93388889950256
 51
43.94423103058391
  0
LINE
  5
22D
330
1F
100
AcDbEntity
  8
Make2D$可见线$普通线
100
AcDbLine
 10
242.3654115593165
 20
285.016089830192
 30
0.0
 11
242.3571802738991
 21
285.0246162215652
 31
0.0
  0
LINE
  5
22E
330
1F
100
AcDbEntity
  8
Make2D$可见线$普通线
100
AcDbLine
 10
242.3445444048926
 20
285.0376730514474
 30
0.0
 11
242.3380692764775
 21
285.0443499899047
 31
0.0
  0
LINE
  5
22F
330
1F
100
AcDbEntity
  8
Make2D$可见线$普通线
100
AcDbLine
 10
242.335089603804
 20
285.0474195485857
 30
0.0
 11
242.3235943483714
 21
285.0592448765439
 31
0.0
  0
LINE
  5
230
330
1F
100
AcDbEntity
  8
Make2D$可见线$普通线
100
AcDbLine
 10
242.3175766592076
 20
285.065425292544
 30
0.0
 11
242.2796738430482
 21
285.104208404312
 31
0.0
  0
LINE
  5
231
330
1F
100
AcDbEntity
  8
Make2D$可见线$普通线
100
AcDbLine
 10
242.2778980929569
 20
285.1060190110922
 30
0.0
 11
242.2594558457605
 21
285.1247839245024
 31
0.0
  0
LINE
  5
232
330
1F
100
AcDbEntity
  8
Make2D$可见线$普通线
100
AcDbLine
 10
242.2556147459883
 20
285.128682838736
 30
0.0
 11
242.2376759642613
 21
285.1468469937021
 31
0.0
  0
LINE
  5
233
330
1F
100
AcDbEntity
  8
Make2D$可见线$普通线
100
AcDbLine
 10
242.2314533883514
 20
285.153130317636
 30
0.0
 11
242.2142462870091
 21
285.1704582666994
 31
0.0
  0
LINE
  5
234
330
1F
100
AcDbEntity
  8
Make2D$可见线$普通线
100
AcDbLine
 10
242.2053002127998
 20
285.1794398626221
 30
0.0
 11
242.1890790844422
 21
285.1956782128948
 31
0.0
  0
LINE
  5
235
330
1F
100
AcDbEntity
  8
Make2D$可见线$普通线
100
AcDbLine
 10
242.1770414778705
 20
285.2076898255181
 30
0.0
 11
242.1620865776158
 21
285.2225673509155
 31
0.0
  0
LINE
  5
236
330
1F
100
AcDbEntity
  8
Make2D$可见线$普通线
100
AcDbLine
 10
242.1465627534333
 20
285.2379592443129
 30
0.0
 11
242.1331809702451
 21
285.2511862154543
 31
0.0
  0
LINE
  5
237
330
1F
100
AcDbEntity
  8
Make2D$可见线$普通线
100
AcDbLine
 10
242.1137503161531
 20
285.2703264481206
 30
0.0
 11
241.9715417709415
 21
285.4081230848908
 31
0.0
  0
ARC
  5
238
330
1F
100
AcDbEntity
  8
Make2D$可见线$普通线
100
AcDbCircle
 10
233.6581571501234
 20
276.6936994488176
 30
0.0
 40
12.04381763626917
100
AcDbArc
 50
46.48141594781433
 51
46.54626815406346
  0
LINE
  5
239
330
1F
100
AcDbEntity
  8
Make2D$可见线$普通线
100
AcDbLine
 10
241.8854818679248
 20
285.4894203551952
 30
0.0
 11
241.8770991316426
 21
285.4972550535198
 31
0.0
  0
LINE
  5
23A
330
1F
100
AcDbEntity
  8
Make2D$可见线$普通线
100
AcDbLine
 10
241.8600410906518
 20
285.5131531712087
 30
0.0
 11
241.842586564215
 21
285.5293596265127
 31
0.0
  0
LINE
  5
23B
330
1F
100
AcDbEntity
  8
Make2D$可见线$普通线
100
AcDbLine
 10
241.7782645763431
 20
285.5885670367877
 30
0.0
 11
241.7686527833051
 21
285.5973473754306
 31
0.0
  0
LINE
  5
23C
330
1F
100
AcDbEntity
  8
Make2D$可见线$普通线
100
AcDbLine
 10
241.7391623348912
 20
285.6241823261897
 30
0.0
 11
241.7291111873555
 21
285.633293137508
 31
0.0
  0
ARC
  5
23D
330
1F
100
AcDbEntity
  8
Make2D$可见线$普通线
100
AcDbCircle
 10
233.2035335912578
 20
276.2419749842891
 30
0.0
 40
12.68388521335242
100
AcDbArc
 50
48.01784687759621
 51
50.63557803567523
  0
LINE
  5
23E
330
1F
100
AcDbEntity
  8
Make2D$可见线$普通线
100
AcDbLine
 10
241.1938843887726
 20
286.0926089443713
 30
0.0
 11
241.1819557830834
 21
286.1022706111676
 31
0.0
  0
LINE
  5
23F
330
1F
100
AcDbEntity
  8
Make2D$可见线$普通线
100
AcDbLine
 10
241.1303974172771
 20
286.1437615134542
 30
0.0
 11
241.0408469182228
 21
286.2148128665283
 31
0.0
  0
LINE
  5
240
330
1F
100
AcDbEntity
  8
Make2D$可见线$普通线
100
AcDbLine
 10
241.0225228803511
 20
286.2291973100791
 30
0.0
 11
240.9661506545226
 21
286.2731303576701
 31
0.0
  0
ARC
  5
241
330
1F
100
AcDbEntity
  8
Make2D$可见线$普通线
100
AcDbCircle
 10
232.8616721254746
 20
275.8235619525509
 30
0.0
 40
13.22406033338538
100
AcDbArc
 50
52.39763256934797
 51
54.70719872906416
  0
LINE
  5
242
330
1F
100
AcDbEntity
  8
Make2D$可见线$普通线
100
AcDbLine
 10
240.1137985903387
 20
286.8810600900584
 30
0.0
 11
240.0848339385039
 21
286.8999125351507
 31
0.0
  0
LINE
  5
243
330
1F
100
AcDbEntity
  8
Make2D$可见线$普通线
100
AcDbLine
 10
240.0395029791539
 20
286.9291954494182
 30
0.0
 11
239.9925969174099
 21
286.9592146931587
 31
0.0
  0
ARC
  5
244
330
1F
100
AcDbEntity
  8
Make2D$可见线$普通线
100
AcDbCircle
 10
232.9352774606706
 20
275.8858916113489
 30
0.0
 40
13.13102710168949
100
AcDbArc
 50
57.71984910647419
 51
63.89785880745629
  0
LINE
  5
245
330
1F
100
AcDbEntity
  8
Make2D$可见线$普通线
100
AcDbLine
 10
238.6776698333247
 20
287.6947033258843
 30
0.0
 11
238.6385126834683
 21
287.713625196462
 31
0.0
  0
LINE
  5
246
330
1F
100
AcDbEntity
  8
Make2D$可见线$普通线
100
AcDbLine
 10
238.5301596567398
 20
287.7651417080335
 30
0.0
 11
238.4892427506378
 21
287.7842770187717
 31
0.0
  0
LINE
  5
247
330
1F
100
AcDbEntity
  8
Make2D$可见线$普通线
100
AcDbLine
 10
237.5541142923381
 20
288.1761972075682
 30
0.0
 11
237.446532176903
 21
288.2158996678233
 31
0.0
  0
LINE
  5
248
330
1F
100
AcDbEntity
  8
Make2D$可见线$普通线
100
AcDbLine
 10
237.3720312273498
 20
288.2427623134759
 30
0.0
 11
237.2659269438215
 21
288.2801368353965
 31
0.0
  0
ARC
  5
249
330
1F
100
AcDbEntity
  8
Make2D$可见线$普通线
100
AcDbCircle
 10
233.002879313948
 20
276.0106760878946
 30
0.0
 40
12.98896115585784
100
AcDbArc
 50
71.19909409765097
 51
78.79745414942784
  0
LINE
  5
24A
330
1F
100
AcDbEntity
  8
Make2D$可见线$普通线
100
AcDbLine
 10
235.5044176557409
 20
288.7564756146537
 30
0.0
 11
235.3655106378432
 21
288.782951902493
 31
0.0
  0
LINE
  5
24B
330
1F
100
AcDbEntity
  8
Make2D$可见线$普通线
100
AcDbLine
 10
235.3139113803549
 20
288.7923891734347
 30
0.0
 11
235.2147248774699
 21
288.8099274945872
 31
0.0
  0
LINE
  5
24C
330
1F
100
AcDbEntity
  8
Make2D$可见线$普通线
100
AcDbLine
 10
235.1228956587786
 20
288.8254608677597
 30
0.0
 11
235.0641953591433
 21
288.8350369241364
 31
0.0
  0
LINE
  5
24D
330
1F
100
AcDbEntity
  8
Make2D$可见线$普通线
100
AcDbLine
 10
234.9314132215528
 20
288.8556852580681
 30
0.0
 11
234.7640293296514
 21
288.8797213069001
 31
0.0
  0
LINE
  5
24E
330
1F
100
AcDbEntity
  8
Make2D$可见线$普通线
100
AcDbLine
 10
234.7395084264188
 20
288.8830564953295
 30
0.0
 11
234.6144532837193
 21
288.8993289547004
 31
0.0
  0
LINE
  5
24F
330
1F
100
AcDbEntity
  8
Make2D$可见线$普通线
100
AcDbLine
 10
234.5525293015381
 20
288.9069314924097
 30
0.0
 11
234.3665873625861
 21
288.9279541278545
 31
0.0
  0
ARC
  5
250
330
1F
100
AcDbEntity
  8
Make2D$可见线$普通线
100
AcDbCircle
 10
232.9999045770636
 20
276.0064076356909
 30
0.0
 40
12.99362122151967
100
AcDbArc
 50
84.01560988666321
 51
94.02258490655001
  0
LINE
  5
251
330
1F
100
AcDbEntity
  8
Make2D$可见线$普通线
100
AcDbLine
 10
232.0315241373174
 20
288.9638901487046
 30
0.0
 11
231.9377516200111
 21
288.9565357783894
 31
0.0
  0
LINE
  5
252
330
1F
100
AcDbEntity
  8
Make2D$可见线$普通线
100
AcDbLine
 10
231.8383310849183
 20
288.9479923445113
 30
0.0
 11
231.7872408312563
 21
288.9433029736752
 31
0.0
  0
ARC
  5
253
330
1F
100
AcDbEntity
  8
Make2D$可见线$普通线
100
AcDbCircle
 10
233.0025629012636
 20
275.9835530697477
 30
0.0
 40
13.0166096721915
100
AcDbArc
 50
95.8160406643949
 51
96.02240777677095
  0
ARC
  5
254
330
1F
100
AcDbEntity
  8
Make2D$可见线$普通线
100
AcDbCircle
 10
233.003046427264
 20
275.9791194037485
 30
0.0
 40
13.02106964825878
100
AcDbArc
 50
96.47469393173202
 51
96.68729704616024
  0
ARC
  5
255
330
1F
100
AcDbEntity
  8
Make2D$可见线$普通线
100
AcDbCircle
 10
233.0033213160031
 20
275.9768349905542
 30
0.0
 40
13.02337055160268
100
AcDbArc
 50
97.13581870021002
 51
97.35201901103684
  0
ARC
  5
256
330
1F
100
AcDbEntity
  8
Make2D$可见线$普通线
100
AcDbCircle
 10
233.0033445223345
 20
275.9766479683933
 30
0.0
 40
13.02355900252326
100
AcDbArc
 50
97.6906235266374
 51
98.01667461086842
  0
ARC
  5
257
330
1F
100
AcDbEntity
  8
Make2D$可见线$普通线
100
AcDbCircle
 10
233.0030364775118
 20
275.9787630102568
 30
0.0
 40
13.02142163515836
100
AcDbArc
 50
98.46580501500146
 51
98.68137164823688
  0
ARC
  5
258
330
1F
100
AcDbEntity
  8
Make2D$可见线$普通线
100
AcDbCircle
 10
233.0000562928965
 20
275.9965186606834
 30
0.0
 40
13.00341799569234
100
AcDbArc
 50
99.13422231721842
 51
103.6674056935895
  0
LINE
  5
259
330
1F
100
AcDbEntity
  8
Make2D$可见线$普通线
100
AcDbLine
 10
229.7937599331906
 20
288.5984440300417
 30
0.0
 11
229.7394983421302
 21
288.5845130603017
 31
0.0
  0
LINE
  5
25A
330
1F
100
AcDbEntity
  8
Make2D$可见线$普通线
100
AcDbLine
 10
229.6206971462729
 20
288.5531384599211
 30
0.0
 11
229.5745637606771
 21
288.5406298746184
 31
0.0
  0
ARC
  5
25B
330
1F
100
AcDbEntity
  8
Make2D$可见线$普通线
100
AcDbCircle
 10
232.9882014820705
 20
276.0415446402802
 30
0.0
 40
12.95685323707495
100
AcDbArc
 50
105.8550463864703
 51
105.9718585515559
  0
ARC
  5
25C
330
1F
100
AcDbEntity
  8
Make2D$可见线$普通线
100
AcDbCircle
 10
232.9826164272686
 20
276.0608236619245
 30
0.0
 40
12.93678172346742
100
AcDbArc
 50
106.6462498246723
 51
107.9530481479619
  0
LINE
  5
25D
330
1F
100
AcDbEntity
  8
Make2D$可见线$普通线
100
AcDbLine
 10
228.9684772206907
 20
288.3590763915751
 30
0.0
 11
228.8172700840725
 21
288.3086989899415
 31
0.0
  0
ARC
  5
25E
330
1F
100
AcDbEntity
  8
Make2D$可见线$普通线
100
AcDbCircle
 10
233.0227695141199
 20
275.9393203359869
 30
0.0
 40
13.06475240494707
100
AcDbArc
 50
108.8065866867201
 51
110.362212970351
  0
LINE
  5
25F
330
1F
100
AcDbEntity
  8
Make2D$可见线$普通线
100
AcDbLine
 10
228.4458922015964
 20
288.1761481905251
 30
0.0
 11
228.3649773219603
 21
288.1455794923461
 31
0.0
  0
ARC
  5
260
330
1F
100
AcDbEntity
  8
Make2D$可见线$普通线
100
AcDbCircle
 10
232.998959494364
 20
275.9977888785147
 30
0.0
 40
13.0016339076052
100
AcDbArc
 50
111.149131397456
 51
114.5847164343764
  0
LINE
  5
261
330
1F
100
AcDbEntity
  8
Make2D$可见线$普通线
100
AcDbLine
 10
227.3760958656219
 20
287.7206440707179
 30
0.0
 11
227.3223250530129
 21
287.6946898604742
 31
0.0
  0
ARC
  5
262
330
1F
100
AcDbEntity
  8
Make2D$可见线$普通线
100
AcDbCircle
 10
233.069164379769
 20
275.8771291773939
 30
0.0
 40
13.14089192239104
100
AcDbArc
 50
116.7222805609541
 51
121.7302755591912
  0
ARC
  5
263
330
1F
100
AcDbEntity
  8
Make2D$可见线$普通线
100
AcDbCircle
 10
233.0557795245009
 20
275.9163601777178
 30
0.0
 40
13.10053566326722
100
AcDbArc
 50
122.4278045661295
 51
125.7328233062273
  0
LINE
  5
264
330
1F
100
AcDbEntity
  8
Make2D$可见线$普通线
100
AcDbLine
 10
225.3517155889941
 20
286.5121789072481
 30
0.0
 11
225.2025209837107
 21
286.4020261374325
 31
0.0
  0
LINE
  5
265
330
1F
100
AcDbEntity
  8
Make2D$可见线$普通线
100
AcDbLine
 10
225.1741237578097
 20
286.3806742991018
 30
0.0
 11
225.1267770029951
 21
286.3447929656219
 31
0.0
  0
LINE
  5
266
330
1F
100
AcDbEntity
  8
Make2D$可见线$普通线
100
AcDbLine
 10
225.0805252101118
 20
286.3093996520451
 30
0.0
 11
225.0577696558504
 21
286.291861756915
 31
0.0
  0
ARC
  5
267
330
1F
100
AcDbEntity
  8
Make2D$可见线$普通线
100
AcDbCircle
 10
233.0998785730595
 20
275.8877119541368
 30
0.0
 40
13.14998401217986
100
AcDbArc
 50
127.8696661939325
 51
129.4434534737127
  0
LINE
  5
268
330
1F
100
AcDbEntity
  8
Make2D$可见线$普通线
100
AcDbLine
 10
224.7343341111832
 20
286.0336394469863
 30
0.0
 11
224.7079873543646
 21
286.0118754725
 31
0.0
  0
LINE
  5
269
330
1F
100
AcDbEntity
  8
Make2D$可见线$普通线
100
AcDbLine
 10
224.6894267607335
 20
285.9964794993306
 30
0.0
 11
224.6380541504478
 21
285.9535908429677
 31
0.0
  0
LINE
  5
26A
330
1F
100
AcDbEntity
  8
Make2D$可见线$普通线
100
AcDbLine
 10
224.6010495974083
 20
285.9224395877505
 30
0.0
 11
224.5838124308948
 21
285.9078529394259
 31
0.0
  0
LINE
  5
26B
330
1F
100
AcDbEntity
  8
Make2D$可见线$普通线
100
AcDbLine
 10
224.5588686109976
 20
285.8866571276258
 30
0.0
 11
224.5481647154029
 21
285.877529337663
 31
0.0
  0
LINE
  5
26C
330
1F
100
AcDbEntity
  8
Make2D$可见线$普通线
100
AcDbLine
 10
224.5180061482471
 20
285.8517053701383
 30
0.0
 11
224.4860761019598
 21
285.8241901980676
 31
0.0
  0
LINE
  5
26D
330
1F
100
AcDbEntity
  8
Make2D$可见线$普通线
100
AcDbLine
 10
224.4784389608439
 20
285.8175819191982
 30
0.0
 11
224.3957915450385
 21
285.7453763835047
 31
0.0
  0
ARC
  5
26E
330
1F
100
AcDbEntity
  8
Make2D$可见线$普通线
100
AcDbCircle
 10
232.6344838464476
 20
276.4104531663081
 30
0.0
 40
12.45059716320392
100
AcDbArc
 50
131.60571008565
 51
133.8205120446
  0
LINE
  5
26F
330
1F
100
AcDbEntity
  8
Make2D$可见线$普通线
100
AcDbLine
 10
223.9937031694713
 20
285.3745736000801
 30
0.0
 11
223.9872754280023
 21
285.3683981203082
 31
0.0
  0
LINE
  5
270
330
1F
100
AcDbEntity
  8
Make2D$可见线$普通线
100
AcDbLine
 10
223.8466712957265
 20
285.2313167856178
 30
0.0
 11
223.8323150243329
 21
285.2170792733144
 31
0.0
  0
LINE
  5
271
330
1F
100
AcDbEntity
  8
Make2D$可见线$普通线
100
AcDbLine
 10
223.8261233070962
 20
285.2109235248893
 30
0.0
 11
223.8140338716848
 21
285.1988774059431
 31
0.0
  0
ARC
  5
272
330
1F
100
AcDbEntity
  8
Make2D$可见线$普通线
100
AcDbCircle
 10
231.837909384474
 20
277.1580444824793
 30
0.0
 40
11.35947057342796
100
AcDbArc
 50
135.0229911391923
 51
135.0637652324973
  0
LINE
  5
273
330
1F
100
AcDbEntity
  8
Make2D$可见线$普通线
100
AcDbLine
 10
223.7800283406402
 20
285.1647994435429
 30
0.0
 11
223.6893927194759
 21
285.0726352311631
 31
0.0
  0
LINE
  5
274
330
1F
100
AcDbEntity
  8
Make2D$可见线$普通线
100
AcDbLine
 10
223.6855417568689
 20
285.0686807701522
 30
0.0
 11
223.6322571398566
 21
285.0136155603457
 31
0.0
  0
LINE
  5
275
330
1F
100
AcDbEntity
  8
Make2D$可见线$普通线
100
AcDbLine
 10
220.2228835161215
 20
296.4572347973592
 30
0.0
 11
245.7771164838569
 21
296.4572347973592
 31
0.0
  0
ARC
  5
276
330
1F
100
AcDbEntity
  8
Make2D$可见线$普通线
100
AcDbCircle
 10
220.2228835160644
 20
296.2572347974138
 30
0.0
 40
0.1999999999421541
100
AcDbArc
 50
104.6653986825667
 51
149.6912716114679
  0
ARC
  5
277
330
1F
100
AcDbEntity
  8
Make2D$可见线$普通线
100
AcDbCircle
 10
245.7771164839482
 20
296.2572347974836
 30
0.0
 40
0.1999999998776955
100
AcDbArc
 50
30.30872837623872
 51
40.00390440712437
  0
ARC
  5
278
330
1F
100
AcDbEntity
  8
Make2D$可见线$普通线
100
AcDbCircle
 10
-6932.699177096776
 20
313.5182778750539
 30
0.0
 40
7190.746726281151
100
AcDbArc
 50
359.7625951848188
 51
0.0516458853024381
  0
LINE
  5
279
330
1F
100
AcDbEntity
  8
Make2D$可见线$普通线
100
AcDbLine
 10
232.9999941825147
 20
320.9999728631431
 30
0.0
 11
257.0456871611586
 21
320.999972863091
 31
0.0
  0
ARC
  5
27A
330
1F
100
AcDbEntity
  8
Make2D$可见线$普通线
100
AcDbCircle
 10
7398.699165428976
 20
313.5182778750507
 30
0.0
 40
7190.746726248322
100
AcDbArc
 50
179.9483541146973
 51
180.2374048151821
  0
LINE
  5
27B
330
1F
100
AcDbEntity
  8
Make2D$可见线$普通线
100
AcDbLine
 10
232.9999941825147
 20
320.9999728631431
 30
0.0
 11
208.9543012038707
 21
320.999972863091
 31
0.0
  0
LINE
  5
27C
330
1F
100
AcDbEntity
  8
Make2D$可见线$普通线
100
AcDbLine
 10
247.9999999999894
 20
288.7882794248114
 30
0.0
 11
247.9999999999894
 21
285.0030399404257
 31
0.0
  0
ARC
  5
27D
330
1F
100
AcDbEntity
  8
Make2D$可见线$普通线
100
AcDbCircle
 10
232.9998898146573
 20
288.785228752385
 30
0.0
 40
15.00305067426834
100
AcDbArc
 50
85.5582270900518
 51
89.99960113172766
  0
ARC
  5
27E
330
1F
100
AcDbEntity
  8
Make2D$可见线$普通线
100
AcDbCircle
 10
233.0019404543457
 20
288.8097037866355
 30
0.0
 40
14.97848976818963
100
AcDbArc
 50
84.07744102274853
 51
85.17461631405577
  0
ARC
  5
27F
330
1F
100
AcDbEntity
  8
Make2D$可见线$普通线
100
AcDbCircle
 10
233.0010528496741
 20
288.7973066194077
 30
0.0
 40
14.99091315240734
100
AcDbArc
 50
82.49718347158517
 51
83.56780261781557
  0
ARC
  5
280
330
1F
100
AcDbEntity
  8
Make2D$可见线$普通线
100
AcDbCircle
 10
232.9999402786936
 20
288.7880675337202
 30
0.0
 40
15.00021770465015
100
AcDbArc
 50
65.71888636466244
 51
81.96294912589116
  0
ARC
  5
281
330
1F
100
AcDbEntity
  8
Make2D$可见线$普通线
100
AcDbCircle
 10
233.0100141352145
 20
288.8089678563895
 30
0.0
 40
14.97702416395111
100
AcDbArc
 50
64.7118464757378
 51
64.85982807024224
  0
ARC
  5
282
330
1F
100
AcDbEntity
  8
Make2D$可见线$普通线
100
AcDbCircle
 10
233.0070993803738
 20
288.8028762548324
 30
0.0
 40
14.98377723646613
100
AcDbArc
 50
63.99963354904345
 51
64.12545937628636
  0
ARC
  5
283
330
1F
100
AcDbEntity
  8
Make2D$可见线$普通线
100
AcDbCircle
 10
233.0009715796158
 20
288.7907328419009
 30
0.0
 40
14.99737969979172
100
AcDbArc
 50
62.28309831449303
 51
62.28877697573598
  0
ARC
  5
284
330
1F
100
AcDbEntity
  8
Make2D$可见线$普通线
100
AcDbCircle
 10
232.9989706191756
 20
288.7869799800881
 30
0.0
 40
15.00163270474701
100
AcDbArc
 50
61.42657085570618
 51
61.67090535047176
  0
ARC
  5
285
330
1F
100
AcDbEntity
  8
Make2D$可见线$普通线
100
AcDbCircle
 10
232.9958619642567
 20
288.7814197952759
 30
0.0
 40
15.00800313475423
100
AcDbArc
 50
59.71650702754828
 51
59.82272065463249
  0
ARC
  5
286
330
1F
100
AcDbEntity
  8
Make2D$可见线$普通线
100
AcDbCircle
 10
232.9992028311118
 20
288.7865065288599
 30
0.0
 40
15.00191795387242
100
AcDbArc
 50
56.14756376779268
 51
56.30534196218797
  0
ARC
  5
287
330
1F
100
AcDbEntity
  8
Make2D$可见线$普通线
100
AcDbCircle
 10
232.9998584774254
 20
288.7881656216232
 30
0.0
 40
15.00017947750906
100
AcDbArc
 50
30.3088308564437
 51
55.45235890354371
  0
ARC
  5
288
330
1F
100
AcDbEntity
  8
Make2D$可见线$普通线
100
AcDbCircle
 10
232.9979386025422
 20
288.7870902676145
 30
0.0
 40
15.00237962859794
100
AcDbArc
 50
30.06309477946395
 51
30.2989106445176
  0
ARC
  5
289
330
1F
100
AcDbEntity
  8
Make2D$可见线$普通线
100
AcDbCircle
 10
233.0000814811968
 20
288.7883172037737
 30
0.0
 40
14.99991036152453
100
AcDbArc
 50
21.29831824351805
 51
29.89478174743056
  0
LINE
  5
28A
330
1F
100
AcDbEntity
  8
Make2D$可见线$普通线
100
AcDbLine
 10
247.1082454601535
 20
293.8831586480242
 30
0.0
 11
247.1456941266589
 21
293.7782392025861
 31
0.0
  0
LINE
  5
28B
330
1F
100
AcDbEntity
  8
Make2D$可见线$普通线
100
AcDbLine
 10
247.1590431269416
 20
293.7402326318756
 30
0.0
 11
247.1879471090699
 21
293.6567952489568
 31
0.0
  0
LINE
  5
28C
330
1F
100
AcDbEntity
  8
Make2D$可见线$普通线
100
AcDbLine
 10
247.2263387231499
 20
293.5434326607922
 30
0.0
 11
247.2652196861142
 21
293.4254760311808
 31
0.0
  0
ARC
  5
28D
330
1F
100
AcDbEntity
  8
Make2D$可见线$普通线
100
AcDbCircle
 10
232.9930970519155
 20
288.7865552159414
 30
0.0
 40
15.00710075046091
100
AcDbArc
 50
16.58230634073543
 51
17.86883538694825
  0
LINE
  5
28E
330
1F
100
AcDbEntity
  8
Make2D$可见线$普通线
100
AcDbLine
 10
247.3915370001448
 20
293.0171583578842
 30
0.0
 11
247.4138972676466
 21
292.9403011690999
 31
0.0
  0
ARC
  5
28F
330
1F
100
AcDbEntity
  8
Make2D$可见线$普通线
100
AcDbCircle
 10
232.985695579844
 20
288.7843541952582
 30
0.0
 40
15.0148226567413
100
AcDbArc
 50
15.45055135501711
 51
15.76082173957435
  0
LINE
  5
290
330
1F
100
AcDbEntity
  8
Make2D$可见线$普通线
100
AcDbLine
 10
247.4795049234521
 20
292.7053732225766
 30
0.0
 11
247.5102165964616
 21
292.5900326921551
 31
0.0
  0
ARC
  5
291
330
1F
100
AcDbEntity
  8
Make2D$可见线$普通线
100
AcDbCircle
 10
232.99003757174
 20
288.785469331128
 30
0.0
 40
15.01033975775513
100
AcDbArc
 50
13.25493335999409
 51
14.50563104068813
  0
ARC
  5
292
330
1F
100
AcDbEntity
  8
Make2D$可见线$普通线
100
AcDbCircle
 10
232.9985176136417
 20
288.7874655752267
 30
0.0
 40
15.00162787827159
100
AcDbArc
 50
12.74008754952568
 51
12.88439359616895
  0
LINE
  5
293
330
1F
100
AcDbEntity
  8
Make2D$可见线$普通线
100
AcDbLine
 10
247.6437537761095
 20
292.0379880465678
 30
0.0
 11
247.6627422194734
 21
291.9512214778654
 31
0.0
  0
LINE
  5
294
330
1F
100
AcDbEntity
  8
Make2D$可见线$普通线
100
AcDbLine
 10
247.681815727057
 20
291.8614823128287
 30
0.0
 11
247.7069164792274
 21
291.7390389273731
 31
0.0
  0
ARC
  5
295
330
1F
100
AcDbEntity
  8
Make2D$可见线$普通线
100
AcDbCircle
 10
233.0279541280268
 20
288.7935537386238
 30
0.0
 40
14.97156688839836
100
AcDbArc
 50
9.830481977255229
 51
11.15539257373548
  0
LINE
  5
296
330
1F
100
AcDbEntity
  8
Make2D$可见线$普通线
100
AcDbLine
 10
247.7801021363611
 20
291.3473635156711
 30
0.0
 11
247.7990933608594
 21
291.2351268367691
 31
0.0
  0
LINE
  5
297
330
1F
100
AcDbEntity
  8
Make2D$可见线$普通线
100
AcDbLine
 10
247.8156409085331
 20
291.1328264527647
 30
0.0
 11
247.824198669641
 21
291.0780804120373
 31
0.0
  0
ARC
  5
298
330
1F
100
AcDbEntity
  8
Make2D$可见线$普通线
100
AcDbCircle
 10
232.9895751400284
 20
288.7873020707523
 30
0.0
 40
15.01045395986057
100
AcDbArc
 50
7.351981605440882
 51
8.424421497506897
  0
LINE
  5
299
330
1F
100
AcDbEntity
  8
Make2D$可见线$普通线
100
AcDbLine
 10
247.8841261394037
 20
290.6490436013979
 30
0.0
 11
247.8996950416324
 21
290.5199509278139
 31
0.0
  0
ARC
  5
29A
330
1F
100
AcDbEntity
  8
Make2D$可见线$普通线
100
AcDbCircle
 10
232.9812951655035
 20
288.7862459360813
 30
0.0
 40
15.01880114912561
100
AcDbArc
 50
6.121613720904146
 51
6.264658596320457
  0
ARC
  5
29B
330
1F
100
AcDbEntity
  8
Make2D$可见线$普通线
100
AcDbCircle
 10
232.9820605076937
 20
288.7863237894502
 30
0.0
 40
15.01803185582682
100
AcDbArc
 50
5.532514795062093
 51
5.723796663631171
  0
LINE
  5
29C
330
1F
100
AcDbEntity
  8
Make2D$可见线$普通线
100
AcDbLine
 10
247.9391237667975
 20
290.1381887884119
 30
0.0
 11
247.9518084914345
 21
289.9896188585396
 31
0.0
  0
LINE
  5
29D
330
1F
100
AcDbEntity
  8
Make2D$可见线$普通线
100
AcDbLine
 10
247.9540668099042
 20
289.9611847064972
 30
0.0
 11
247.961789854548
 21
289.8582204185408
 31
0.0
  0
LINE
  5
29E
330
1F
100
AcDbEntity
  8
Make2D$可见线$普通线
100
AcDbLine
 10
247.9683199209405
 20
289.762670560256
 30
0.0
 11
247.9742600136161
 21
289.6667384936806
 31
0.0
  0
ARC
  5
29F
330
1F
100
AcDbEntity
  8
Make2D$可见线$普通线
100
AcDbCircle
 10
233.0090414775993
 20
288.7881903284685
 30
0.0
 40
14.99098431206134
100
AcDbArc
 50
2.847824556329605
 51
2.9911180458316
  0
LINE
  5
2A0
330
1F
100
AcDbEntity
  8
Make2D$可见线$普通线
100
AcDbLine
 10
247.9850344785264
 20
289.4584463472031
 30
0.0
 11
247.989125473421
 21
289.3597526621361
 31
0.0
  0
ARC
  5
2A1
330
1F
100
AcDbEntity
  8
Make2D$可见线$普通线
100
AcDbCircle
 10
233.0306135408084
 20
288.7890726373773
 30
0.0
 40
14.96939388565053
100
AcDbArc
 50
1.752442992789802
 51
1.877254163340355
  0
LINE
  5
2A2
330
1F
100
AcDbEntity
  8
Make2D$可见线$普通线
100
AcDbLine
 10
247.9972339422924
 20
289.0771950638718
 30
0.0
 11
247.9987159354089
 21
288.9855959891943
 31
0.0
  0
LINE
  5
2A3
330
1F
100
AcDbEntity
  8
Make2D$可见线$普通线
100
AcDbLine
 10
217.9999999999894
 20
288.7882794248114
 30
0.0
 11
217.9999999999896
 21
285.0030401700697
 31
0.0
  0
ARC
  5
2A4
330
1F
100
AcDbEntity
  8
Make2D$可见线$普通线
100
AcDbCircle
 10
233.0000025776077
 20
288.7882674652565
 30
0.0
 40
15.0000119610356
100
AcDbArc
 50
90.00003177332444
 51
114.2812766141444
  0
ARC
  5
2A5
330
1F
100
AcDbEntity
  8
Make2D$可见线$普通线
100
AcDbCircle
 10
232.9899858001779
 20
288.8089679570312
 30
0.0
 40
14.97702404509551
100
AcDbArc
 50
115.140216811113
 51
115.2881534653203
  0
ARC
  5
2A6
330
1F
100
AcDbEntity
  8
Make2D$可见线$普通线
100
AcDbCircle
 10
232.9929005470274
 20
288.8028763766671
 30
0.0
 40
14.98377709504303
100
AcDbArc
 50
115.8745405773255
 51
116.0004082974706
  0
ARC
  5
2A7
330
1F
100
AcDbEntity
  8
Make2D$可见线$普通线
100
AcDbCircle
 10
232.999051643453
 20
288.7906886185354
 30
0.0
 40
14.99742965007719
100
AcDbArc
 50
117.7112764483338
 51
117.7169374697212
  0
ARC
  5
2A8
330
1F
100
AcDbEntity
  8
Make2D$可见线$普通线
100
AcDbCircle
 10
233.0010294035293
 20
288.7869799343959
 30
0.0
 40
15.00163275591804
100
AcDbArc
 50
118.3291464370752
 51
118.5734619447674
  0
ARC
  5
2A9
330
1F
100
AcDbEntity
  8
Make2D$可见线$普通线
100
AcDbCircle
 10
233.0041378432043
 20
288.7814201308823
 30
0.0
 40
15.00800274801247
100
AcDbArc
 50
120.1773262488417
 51
120.2835197893955
  0
ARC
  5
2AA
330
1F
100
AcDbEntity
  8
Make2D$可见线$普通线
100
AcDbCircle
 10
233.0007972678866
 20
288.7865063874567
 30
0.0
 40
15.00191812636192
100
AcDbArc
 50
123.6946729528439
 51
123.8524735105994
  0
ARC
  5
2AB
330
1F
100
AcDbEntity
  8
Make2D$可见线$普通线
100
AcDbCircle
 10
233.000141523283
 20
288.7881656206733
 30
0.0
 40
15.00017947864229
100
AcDbArc
 50
124.5476530311924
 51
149.6911691418314
  0
ARC
  5
2AC
330
1F
100
AcDbEntity
  8
Make2D$可见线$普通线
100
AcDbCircle
 10
233.0020612856349
 20
288.7870903344525
 30
0.0
 40
15.00237949837082
100
AcDbArc
 50
149.7010893604903
 51
149.9369052284775
  0
ARC
  5
2AD
330
1F
100
AcDbEntity
  8
Make2D$可见线$普通线
100
AcDbCircle
 10
233.0006686587219
 20
288.7880035172979
 30
0.0
 40
15.00071703390652
100
AcDbArc
 50
150.1056075729706
 51
170.1672956118377
  0
LINE
  5
2AE
330
1F
100
AcDbEntity
  8
Make2D$可见线$普通线
100
AcDbLine
 10
218.2198978519787
 20
291.347363448405
 30
0.0
 11
218.191723017573
 21
291.178906939847
 31
0.0
  0
LINE
  5
2AF
330
1F
100
AcDbEntity
  8
Make2D$可见线$普通线
100
AcDbLine
 10
218.1843590914462
 20
291.1328264527643
 30
0.0
 11
218.1657774228423
 21
291.0121996789831
 31
0.0
  0
LINE
  5
2B0
330
1F
100
AcDbEntity
  8
Make2D$可见线$普通线
100
AcDbLine
 10
218.161934038714
 20
290.9864037993777
 30
0.0
 11
218.1481677441181
 21
290.8913558151407
 31
0.0
  0
ARC
  5
2B1
330
1F
100
AcDbEntity
  8
Make2D$可见线$普通线
100
AcDbCircle
 10
233.0153274351789
 20
288.7866482573657
 30
0.0
 40
15.01539988252339
100
AcDbArc
 50
172.1371153840267
 51
173.371284247301
  0
LINE
  5
2B2
330
1F
100
AcDbEntity
  8
Make2D$可见线$普通线
100
AcDbLine
 10
218.0981432729912
 20
290.5012475686618
 30
0.0
 11
218.079556351165
 21
290.3309888089344
 31
0.0
  0
LINE
  5
2B3
330
1F
100
AcDbEntity
  8
Make2D$可见线$普通线
100
AcDbLine
 10
218.0747840342508
 20
290.2841174267376
 30
0.0
 11
218.0630579386041
 21
290.1621138497856
 31
0.0
  0
LINE
  5
2B4
330
1F
100
AcDbEntity
  8
Make2D$可见线$普通线
100
AcDbLine
 10
218.0612618362638
 20
290.142448364366
 30
0.0
 11
218.0523215252879
 21
290.0399410005239
 31
0.0
  0
ARC
  5
2B5
330
1F
100
AcDbEntity
  8
Make2D$可见线$普通线
100
AcDbCircle
 10
233.0058386418291
 20
288.7873164302721
 30
0.0
 40
15.00589013997442
100
AcDbArc
 50
175.4044198862488
 51
176.6402486083807
  0
LINE
  5
2B6
330
1F
100
AcDbEntity
  8
Make2D$可见线$普通线
100
AcDbLine
 10
218.0246095298282
 20
289.6472652106561
 30
0.0
 11
218.0157511733443
 21
289.4757766088621
 31
0.0
  0
LINE
  5
2B7
330
1F
100
AcDbEntity
  8
Make2D$可见线$普通线
100
AcDbLine
 10
218.0156596022921
 20
289.4737793031056
 30
0.0
 11
218.0108745271231
 21
289.3597526766644
 31
0.0
  0
LINE
  5
2B8
330
1F
100
AcDbEntity
  8
Make2D$可见线$普通线
100
AcDbLine
 10
218.0080266554637
 20
289.2794460944745
 30
0.0
 11
218.005145073184
 21
289.1817965240105
 31
0.0
  0
ARC
  5
2B9
330
1F
100
AcDbEntity
  8
Make2D$可见线$普通线
100
AcDbCircle
 10
232.9448731811975
 20
288.7896282013178
 30
0.0
 40
14.94487400616672
100
AcDbArc
 50
179.1257081871335
 51
179.248675569116
  0
LINE
  5
2BA
330
1F
100
AcDbEntity
  8
Make2D$可见线$普通线
100
AcDbLine
 10
247.1345655138458
 20
285.0122272202166
 30
0.0
 11
218.8654228516912
 21
285.0122272202166
 31
0.0
  0
LINE
  5
2BB
330
1F
100
AcDbEntity
  8
Make2D$可见线$普通线
100
AcDbLine
 10
242.1137503163726
 20
285.2703264479046
 30
0.0
 11
242.1331809707794
 21
285.2511862149267
 31
0.0
  0
LINE
  5
2BC
330
1F
100
AcDbEntity
  8
Make2D$可见线$普通线
100
AcDbLine
 10
242.1465627534314
 20
285.2379592443146
 30
0.0
 11
242.1620865776202
 21
285.222567350911
 31
0.0
  0
LINE
  5
2BD
330
1F
100
AcDbEntity
  8
Make2D$可见线$普通线
100
AcDbLine
 10
242.177041477867
 20
285.2076898255213
 30
0.0
 11
242.1890790850183
 21
285.1956782123188
 31
0.0
  0
LINE
  5
2BE
330
1F
100
AcDbEntity
  8
Make2D$可见线$普通线
100
AcDbLine
 10
242.2053002127186
 20
285.1794398627034
 30
0.0
 11
242.2142462869388
 21
285.1704582667698
 31
0.0
  0
LINE
  5
2BF
330
1F
100
AcDbEntity
  8
Make2D$可见线$普通线
100
AcDbLine
 10
242.2314533879253
 20
285.1531303180658
 30
0.0
 11
242.2376759643547
 21
285.1468469936075
 31
0.0
  0
ARC
  5
2C0
330
1F
100
AcDbEntity
  8
Make2D$可见线$普通线
100
AcDbCircle
 10
233.0995163315005
 20
276.104512719371
 30
0.0
 40
12.85572963775371
100
AcDbArc
 50
44.55983748977118
 51
44.58423046306169
  0
ARC
  5
2C1
330
1F
100
AcDbEntity
  8
Make2D$可见线$普通线
100
AcDbCircle
 10
232.0174900627341
 20
275.0413619640215
 30
0.0
 40
14.37265787604377
100
AcDbArc
 50
44.43809076831947
 51
44.44820061484118
  0
LINE
  5
2C2
330
1F
100
AcDbEntity
  8
Make2D$可见线$普通线
100
AcDbLine
 10
242.3175766587158
 20
285.0654252930488
 30
0.0
 11
242.3235943483736
 21
285.0592448765414
 31
0.0
  0
LINE
  5
2C3
330
1F
100
AcDbEntity
  8
Make2D$可见线$普通线
100
AcDbLine
 10
242.3350901153586
 20
285.0474200485737
 30
0.0
 11
242.3380700095493
 21
285.0443507026645
 31
0.0
  0
LINE
  5
2C4
330
1F
100
AcDbEntity
  8
Make2D$可见线$普通线
100
AcDbLine
 10
242.3445456896504
 20
285.0376743000949
 30
0.0
 11
242.3571826887964
 21
285.0246185592713
 31
0.0
  0
ARC
  5
2C5
330
1F
100
AcDbEntity
  8
Make2D$可见线$普通线
100
AcDbCircle
 10
234.6649784387303
 20
277.5891068525662
 30
0.0
 40
10.69845009896021
100
AcDbArc
 50
43.94624615860297
 51
43.96440789151583
  0
LINE
  5
2C6
330
1F
100
AcDbEntity
  8
Make2D$可见线$普通线
100
AcDbLine
 10
241.6877729203542
 20
285.6705818332411
 30
0.0
 11
241.7291111873489
 21
285.6332931375136
 31
0.0
  0
LINE
  5
2C7
330
1F
100
AcDbEntity
  8
Make2D$可见线$普通线
100
AcDbLine
 10
241.7391623348909
 20
285.6241823261893
 30
0.0
 11
241.7686527836044
 21
285.5973473751569
 31
0.0
  0
LINE
  5
2C8
330
1F
100
AcDbEntity
  8
Make2D$可见线$普通线
100
AcDbLine
 10
241.7782645748023
 20
285.5885670381957
 30
0.0
 11
241.8425865648874
 21
285.5293596258893
 31
0.0
  0
LINE
  5
2C9
330
1F
100
AcDbEntity
  8
Make2D$可见线$普通线
100
AcDbLine
 10
241.8600410897926
 20
285.5131531720073
 30
0.0
 11
241.8770991322436
 21
285.4972550529579
 31
0.0
  0
LINE
  5
2CA
330
1F
100
AcDbEntity
  8
Make2D$可见线$普通线
100
AcDbLine
 10
241.8854818668016
 20
285.4894203562451
 30
0.0
 11
241.9415166064426
 21
285.436668016364
 31
0.0
  0
LINE
  5
2CB
330
1F
100
AcDbEntity
  8
Make2D$可见线$普通线
100
AcDbLine
 10
241.9514073293801
 20
285.4272866110298
 30
0.0
 11
241.9715417709408
 21
285.4081230848906
 31
0.0
  0
LINE
  5
2CC
330
1F
100
AcDbEntity
  8
Make2D$可见线$普通线
100
AcDbLine
 10
239.9480271760003
 20
286.9874778613464
 30
0.0
 11
239.9925970898977
 21
286.9592149696182
 31
0.0
  0
LINE
  5
2CD
330
1F
100
AcDbEntity
  8
Make2D$可见线$普通线
100
AcDbLine
 10
240.0395032615935
 20
286.9291958927158
 30
0.0
 11
240.0848342749294
 21
286.8999130596378
 31
0.0
  0
LINE
  5
2CE
330
1F
100
AcDbEntity
  8
Make2D$可见线$普通线
100
AcDbLine
 10
240.1137989269437
 20
286.8810606096488
 30
0.0
 11
240.5019451115115
 21
286.6171817255406
 31
0.0
  0
LINE
  5
2CF
330
1F
100
AcDbEntity
  8
Make2D$可见线$普通线
100
AcDbLine
 10
240.9307017883365
 20
286.3005149852936
 30
0.0
 11
240.9661506569267
 21
286.2731303590638
 31
0.0
  0
LINE
  5
2D0
330
1F
100
AcDbEntity
  8
Make2D$可见线$普通线
100
AcDbLine
 10
241.0225228181787
 20
286.2291972347557
 30
0.0
 11
241.0408468263164
 21
286.2148127478242
 31
0.0
  0
LINE
  5
2D1
330
1F
100
AcDbEntity
  8
Make2D$可见线$普通线
100
AcDbLine
 10
241.1303972519075
 20
286.1437613066228
 30
0.0
 11
241.1819556884114
 21
286.1022704895088
 31
0.0
  0
LINE
  5
2D2
330
1F
100
AcDbEntity
  8
Make2D$可见线$普通线
100
AcDbLine
 10
241.1938843123646
 20
286.0926088555138
 30
0.0
 11
241.2482948776512
 21
286.048236246892
 31
0.0
  0
LINE
  5
2D3
330
1F
100
AcDbEntity
  8
Make2D$可见线$普通线
100
AcDbLine
 10
237.1889704452564
 20
288.306600753315
 30
0.0
 11
237.265927196459
 21
288.2801375644938
 31
0.0
  0
LINE
  5
2D4
330
1F
100
AcDbEntity
  8
Make2D$可见线$普通线
100
AcDbLine
 10
237.3720315078282
 20
288.2427630855786
 30
0.0
 11
237.4465323544562
 21
288.2159001413672
 31
0.0
  0
ARC
  5
2D5
330
1F
100
AcDbEntity
  8
Make2D$可见线$普通线
100
AcDbCircle
 10
232.9745748116296
 20
275.9377572365112
 30
0.0
 40
13.06719539647858
100
AcDbArc
 50
65.0375729950971
 51
69.48449891372864
  0
LINE
  5
2D6
330
1F
100
AcDbEntity
  8
Make2D$可见线$普通线
100
AcDbLine
 10
238.5301596809415
 20
287.7651417721202
 30
0.0
 11
238.638512697642
 21
287.7136252247994
 31
0.0
  0
LINE
  5
2D7
330
1F
100
AcDbEntity
  8
Make2D$可见线$普通线
100
AcDbLine
 10
238.6776698416784
 20
287.6947033431284
 30
0.0
 11
238.7125712987074
 21
287.6777001626162
 31
0.0
  0
ARC
  5
2D8
330
1F
100
AcDbEntity
  8
Make2D$可见线$普通线
100
AcDbCircle
 10
232.9969672428316
 20
275.9812331771367
 30
0.0
 40
13.01896473027391
100
AcDbArc
 50
83.96119969481352
 51
84.01430412360058
  0
LINE
  5
2D9
330
1F
100
AcDbEntity
  8
Make2D$可见线$普通线
100
AcDbLine
 10
234.5525293015573
 20
288.9069314924048
 30
0.0
 11
234.614453283719
 21
288.8993289546973
 31
0.0
  0
ARC
  5
2DA
330
1F
100
AcDbEntity
  8
Make2D$可见线$普通线
100
AcDbCircle
 10
232.9957556565766
 20
275.9708648965877
 30
0.0
 40
13.02940388524648
100
AcDbArc
 50
82.20008581234038
 51
82.30890740959676
  0
LINE
  5
2DB
330
1F
100
AcDbEntity
  8
Make2D$可见线$普通线
100
AcDbLine
 10
234.9314132215459
 20
288.8556852580662
 30
0.0
 11
235.0641953591304
 21
288.8350369241357
 31
0.0
  0
LINE
  5
2DC
330
1F
100
AcDbEntity
  8
Make2D$可见线$普通线
100
AcDbLine
 10
235.122895658737
 20
288.8254608677635
 30
0.0
 11
235.2147248775104
 21
288.8099274945774
 31
0.0
  0
LINE
  5
2DD
330
1F
100
AcDbEntity
  8
Make2D$可见线$普通线
100
AcDbLine
 10
235.3139113803142
 20
288.7923891734394
 30
0.0
 11
235.365510637902
 21
288.7829519024792
 31
0.0
  0
ARC
  5
2DE
330
1F
100
AcDbEntity
  8
Make2D$可见线$普通线
100
AcDbCircle
 10
233.0000936157303
 20
275.9951276836643
 30
0.0
 40
13.0047545118341
100
AcDbArc
 50
78.79872340772482
 51
78.89720230307509
  0
LINE
  5
2DF
330
1F
100
AcDbEntity
  8
Make2D$可见线$普通线
100
AcDbLine
 10
230.9357921182198
 20
288.8350424460637
 30
0.0
 11
231.0375905555877
 21
288.8509983922136
 31
0.0
  0
LINE
  5
2E0
330
1F
100
AcDbEntity
  8
Make2D$可见线$普通线
100
AcDbLine
 10
231.0860341746945
 20
288.8583019605262
 30
0.0
 11
231.1870621877603
 21
288.8729345491598
 31
0.0
  0
ARC
  5
2E1
330
1F
100
AcDbEntity
  8
Make2D$可见线$普通线
100
AcDbCircle
 10
233.0033609843472
 20
275.9765275127368
 30
0.0
 40
13.02368057770511
100
AcDbArc
 50
97.35201899247865
 51
97.69062438046315
  0
LINE
  5
2E2
330
1F
100
AcDbEntity
  8
Make2D$可见线$普通线
100
AcDbLine
 10
231.3855346136921
 20
288.8993326868246
 30
0.0
 11
231.4867358354987
 21
288.9116001005847
 31
0.0
  0
LINE
  5
2E3
330
1F
100
AcDbEntity
  8
Make2D$可见线$普通线
100
AcDbLine
 10
231.5347337419385
 20
288.9171375148373
 30
0.0
 11
231.6368940274633
 21
288.9283232834386
 31
0.0
  0
LINE
  5
2E4
330
1F
100
AcDbEntity
  8
Make2D$可见线$普通线
100
AcDbLine
 10
231.68352707165
 20
288.933158154009
 30
0.0
 11
231.7872408312565
 21
288.9433029736729
 31
0.0
  0
LINE
  5
2E5
330
1F
100
AcDbEntity
  8
Make2D$可见线$普通线
100
AcDbLine
 10
231.8383310849191
 20
288.947992344509
 30
0.0
 11
231.9377516200103
 21
288.9565357783868
 31
0.0
  0
LINE
  5
2E6
330
1F
100
AcDbEntity
  8
Make2D$可见线$普通线
100
AcDbLine
 10
232.0315241373167
 20
288.9638901487018
 30
0.0
 11
232.0884060596487
 21
288.9680187585785
 31
0.0
  0
LINE
  5
2E7
330
1F
100
AcDbEntity
  8
Make2D$可见线$普通线
100
AcDbLine
 10
228.3080130464705
 20
288.1236911414535
 30
0.0
 11
228.3649773189272
 21
288.1455794911872
 31
0.0
  0
ARC
  5
2E8
330
1F
100
AcDbEntity
  8
Make2D$可见线$普通线
100
AcDbCircle
 10
233.0279022136916
 20
275.9252633980423
 30
0.0
 40
13.07971689103349
100
AcDbArc
 50
110.3618660233978
 51
110.5065316090876
  0
ARC
  5
2E9
330
1F
100
AcDbEntity
  8
Make2D$可见线$普通线
100
AcDbCircle
 10
233.0130802593893
 20
275.9674050333599
 30
0.0
 40
13.03504351929842
100
AcDbArc
 50
108.7770770039553
 51
108.8060672590598
  0
LINE
  5
2EA
330
1F
100
AcDbEntity
  8
Make2D$可见线$普通线
100
AcDbLine
 10
228.9684772189683
 20
288.359076391011
 30
0.0
 11
228.9950147335531
 21
288.3677060491447
 31
0.0
  0
LINE
  5
2EB
330
1F
100
AcDbEntity
  8
Make2D$可见线$普通线
100
AcDbLine
 10
229.2767220869635
 20
288.4554462257256
 30
0.0
 11
229.4229266388179
 21
288.4982235707027
 31
0.0
  0
LINE
  5
2EC
330
1F
100
AcDbEntity
  8
Make2D$可见线$普通线
100
AcDbLine
 10
229.4483301996186
 20
288.5054663045473
 30
0.0
 11
229.5745640004902
 21
288.5406289984669
 31
0.0
  0
LINE
  5
2ED
330
1F
100
AcDbEntity
  8
Make2D$可见线$普通线
100
AcDbLine
 10
229.6206973909862
 20
288.553137552313
 30
0.0
 11
229.7394985244936
 21
288.5845123543286
 31
0.0
  0
LINE
  5
2EE
330
1F
100
AcDbEntity
  8
Make2D$可见线$普通线
100
AcDbLine
 10
229.79376006276
 20
288.5984435195298
 30
0.0
 11
229.9275382870233
 21
288.6317278609652
 31
0.0
  0
LINE
  5
2EF
330
1F
100
AcDbEntity
  8
Make2D$可见线$普通线
100
AcDbLine
 10
226.0307945853028
 20
286.9741005105507
 30
0.0
 11
226.1580910091054
 21
287.0538962513765
 31
0.0
  0
LINE
  5
2F0
330
1F
100
AcDbEntity
  8
Make2D$可见线$普通线
100
AcDbLine
 10
227.1601472231783
 20
287.6145290934685
 30
0.0
 11
227.3223208858438
 21
287.6946984359881
 31
0.0
  0
ARC
  5
2F1
330
1F
100
AcDbEntity
  8
Make2D$可见线$普通线
100
AcDbCircle
 10
232.9647986690744
 20
276.0720709027533
 30
0.0
 40
12.91987355422021
100
AcDbArc
 50
114.5840078603287
 51
115.6305618115361
  0
LINE
  5
2F2
330
1F
100
AcDbEntity
  8
Make2D$可见线$普通线
100
AcDbLine
 10
225.0275326908695
 20
286.2684302086154
 30
0.0
 11
225.057769655957
 21
286.2918617569966
 31
0.0
  0
LINE
  5
2F3
330
1F
100
AcDbEntity
  8
Make2D$可见线$普通线
100
AcDbLine
 10
225.0805252101119
 20
286.3093996520441
 30
0.0
 11
225.1267770049028
 21
286.3447929670741
 31
0.0
  0
LINE
  5
2F4
330
1F
100
AcDbEntity
  8
Make2D$可见线$普通线
100
AcDbLine
 10
225.17412375976
 20
286.3806742963753
 30
0.0
 11
225.2025209385187
 21
286.4020261918107
 31
0.0
  0
LINE
  5
2F5
330
1F
100
AcDbEntity
  8
Make2D$可见线$普通线
100
AcDbLine
 10
225.3517128025857
 20
286.5121827554048
 30
0.0
 11
225.4049835807957
 21
286.5507081169325
 31
0.0
  0
LINE
  5
2F6
330
1F
100
AcDbEntity
  8
Make2D$可见线$普通线
100
AcDbLine
 10
224.3672782254679
 20
285.7201621273912
 30
0.0
 11
224.3957916932112
 21
285.7453762197911
 31
0.0
  0
LINE
  5
2F7
330
1F
100
AcDbEntity
  8
Make2D$可见线$普通线
100
AcDbLine
 10
224.4784399579552
 20
285.8175807741434
 30
0.0
 11
224.4860771421692
 21
285.8241889950509
 31
0.0
  0
LINE
  5
2F8
330
1F
100
AcDbEntity
  8
Make2D$可见线$普通线
100
AcDbLine
 10
224.5180072719459
 20
285.8517040620607
 30
0.0
 11
224.5481657564334
 21
285.8775281185383
 31
0.0
  0
LINE
  5
2F9
330
1F
100
AcDbEntity
  8
Make2D$可见线$普通线
100
AcDbLine
 10
224.55886958911
 20
285.8866559790943
 30
0.0
 11
224.5838132130116
 21
285.907852019147
 31
0.0
  0
LINE
  5
2FA
330
1F
100
AcDbEntity
  8
Make2D$可见线$普通线
100
AcDbLine
 10
224.6010502131482
 20
285.9224388572168
 30
0.0
 11
224.6380544068929
 21
285.9535905360995
 31
0.0
  0
LINE
  5
2FB
330
1F
100
AcDbEntity
  8
Make2D$可见线$普通线
100
AcDbLine
 10
224.6894267566479
 20
285.9964795042795
 30
0.0
 11
224.7079865368849
 21
286.0118764599736
 31
0.0
  0
LINE
  5
2FC
330
1F
100
AcDbEntity
  8
Make2D$可见线$普通线
100
AcDbLine
 10
224.7343327558299
 20
286.0336410911611
 30
0.0
 11
224.7454775549798
 21
286.0428139931421
 31
0.0
  0
LINE
  5
2FD
330
1F
100
AcDbEntity
  8
Make2D$可见线$普通线
100
AcDbLine
 10
223.7800283409346
 20
285.164799443839
 30
0.0
 11
223.7966163693828
 21
285.1814588650239
 31
0.0
  0
LINE
  5
2FE
330
1F
100
AcDbEntity
  8
Make2D$可见线$普通线
100
AcDbLine
 10
223.802328204792
 20
285.1871793557592
 30
0.0
 11
223.8140338723051
 21
285.198877406562
 31
0.0
  0
LINE
  5
2FF
330
1F
100
AcDbEntity
  8
Make2D$可见线$普通线
100
AcDbLine
 10
223.8261233070965
 20
285.2109235248893
 30
0.0
 11
223.8323150805897
 21
285.2170792176512
 31
0.0
  0
ARC
  5
300
330
1F
100
AcDbEntity
  8
Make2D$可见线$普通线
100
AcDbCircle
 10
233.2231468859641
 20
275.7545387807796
 30
0.0
 40
13.33145183547415
100
AcDbArc
 50
133.85121923287
 51
134.6951798909159
  0
LINE
  5
301
330
1F
100
AcDbEntity
  8
Make2D$可见线$普通线
100
AcDbLine
 10
223.9937032590409
 20
285.3745735059177
 30
0.0
 11
224.0136714342588
 21
285.3937133053692
 31
0.0
  0
ARC
  5
302
330
1F
100
AcDbEntity
  8
Make2D$可见线$普通线
100
AcDbCircle
 10
233.4259819705854
 20
275.5870252183128
 30
0.0
 40
13.59330598348707
100
AcDbArc
 50
135.7480535302796
 51
135.7713192864698
  0
ARC
  5
303
330
1F
100
AcDbEntity
  8
Make2D$可见线$普通线
100
AcDbCircle
 10
232.8029171030012
 20
276.1934759820181
 30
0.0
 40
12.72383064728555
100
AcDbArc
 50
136.1161704074584
 51
136.1248437460947
  0
LINE
  5
304
330
1F
100
AcDbEntity
  8
Make2D$可见线$普通线
100
AcDbLine
 10
247.1348829419295
 20
285.0122286500552
 30
0.0
 11
247.3497291960104
 21
285.0114199682127
 31
0.0
  0
LINE
  5
305
330
1F
100
AcDbEntity
  8
Make2D$可见线$普通线
100
AcDbLine
 10
247.3497291837827
 20
285.0114199682866
 30
0.0
 11
247.4043763673409
 21
285.0110575378537
 31
0.0
  0
LINE
  5
306
330
1F
100
AcDbEntity
  8
Make2D$可见线$普通线
100
AcDbLine
 10
247.4043765463198
 20
285.0110575365597
 30
0.0
 11
249.0255515674806
 21
284.9717127225872
 31
0.0
  0
ARC
  5
307
330
1F
100
AcDbEntity
  8
Make2D$可见线$普通线
100
AcDbCircle
 10
247.1355693735117
 20
238.4661697054276
 30
0.0
 40
46.54393154861067
100
AcDbArc
 50
81.9887832260851
 51
87.67278352749551
  0
ARC
  5
308
330
1F
100
AcDbEntity
  8
Make2D$可见线$普通线
100
AcDbCircle
 10
248.0096359374808
 20
243.8390950139257
 30
0.0
 40
41.10179141716004
100
AcDbArc
 50
78.66242706920319
 51
82.15149770092268
  0
LINE
  5
309
330
1F
100
AcDbEntity
  8
Make2D$可见线$普通线
100
AcDbLine
 10
256.0898026301178
 20
284.1388240941144
 30
0.0
 11
257.2905953167575
 21
283.8820210084102
 31
0.0
  0
LINE
  5
30A
330
1F
100
AcDbEntity
  8
Make2D$可见线$普通线
100
AcDbLine
 10
218.6502591689971
 20
285.0114199682137
 30
0.0
 11
218.8651054232836
 21
285.0122286500632
 31
0.0
  0
LINE
  5
30B
330
1F
100
AcDbEntity
  8
Make2D$可见线$普通线
100
AcDbLine
 10
218.595611997691
 20
285.0110575378537
 30
0.0
 11
218.6502591812269
 21
285.0114199682878
 31
0.0
  0
LINE
  5
30C
330
1F
100
AcDbEntity
  8
Make2D$可见线$普通线
100
AcDbLine
 10
216.9744367975452
 20
284.9717127225865
 30
0.0
 11
218.5956118187126
 21
285.0110575365597
 31
0.0
  0
ARC
  5
30D
330
1F
100
AcDbEntity
  8
Make2D$可见线$普通线
100
AcDbCircle
 10
218.8644189917723
 20
238.4661697026023
 30
0.0
 40
46.54393155144364
100
AcDbArc
 50
92.32721647268067
 51
98.01121677368042
  0
ARC
  5
30E
330
1F
100
AcDbEntity
  8
Make2D$可见线$普通线
100
AcDbCircle
 10
217.9903524114669
 20
243.8390951103226
 30
0.0
 40
41.10179131947017
100
AcDbArc
 50
97.84850229515072
 51
101.3375729350142
  0
LINE
  5
30F
330
1F
100
AcDbEntity
  8
Make2D$可见线$普通线
100
AcDbLine
 10
208.7093930482105
 20
283.8820210083975
 30
0.0
 11
209.9101857350684
 21
284.138824094133
 31
0.0
  0
ARC
  5
310
330
1F
100
AcDbEntity
  8
Make2D$可见线$普通线
100
AcDbCircle
 10
220.2228837252297
 20
296.2572359643421
 30
0.0
 40
0.1999989239750867
100
AcDbArc
 50
90.00005990100625
 51
104.6655412892689
  0
ARC
  5
311
330
1F
100
AcDbEntity
  8
Make2D$可见线$普通线
100
AcDbCircle
 10
245.7771161436259
 20
296.2572343222505
 30
0.0
 40
0.2000005660671086
100
AcDbArc
 50
40.00511436774832
 51
89.99990254913887
  0
ARC
  5
312
330
1F
100
AcDbEntity
  8
Make2D$可见线$普通线
100
AcDbCircle
 10
257.0456898078717
 20
319.9999728631427
 30
0.0
 40
1.000000000000234
100
AcDbArc
 50
359.9976936700289
 51
89.99961115916209
  0
ARC
  5
313
330
1F
100
AcDbEntity
  8
Make2D$可见线$普通线
100
AcDbCircle
 10
-6939.361632604488
 20
313.5052523786549
 30
0.0
 40
7197.410252673875
100
AcDbArc
 50
359.7629164934122
 51
0.0517016265565718
  0
ARC
  5
314
330
1F
100
AcDbEntity
  8
Make2D$可见线$普通线
100
AcDbCircle
 10
208.9542985571573
 20
319.9999728631431
 30
0.0
 40
0.9999999999998794
100
AcDbArc
 50
90.00038884082652
 51
180.0023063299939
  0
ARC
  5
315
330
1F
100
AcDbEntity
  8
Make2D$可见线$普通线
100
AcDbCircle
 10
7405.360781104016
 20
313.5052508776798
 30
0.0
 40
7197.409412810071
100
AcDbArc
 50
179.9482983554617
 51
180.2370835223055
  0
LINE
  5
316
330
1F
100
AcDbEntity
  8
Make2D$可见线$普通线
100
AcDbLine
 10
234.1618150829047
 20
303.7432185647545
 30
0.0
 11
234.2619206821014
 21
303.7351051407894
 31
0.0
  0
LINE
  5
317
330
1F
100
AcDbEntity
  8
Make2D$可见线$普通线
100
AcDbLine
 10
234.5474835127701
 20
303.708242386482
 30
0.0
 11
234.6804453159759
 21
303.6938538068582
 31
0.0
  0
LINE
  5
318
330
1F
100
AcDbEntity
  8
Make2D$可见线$普通线
100
AcDbLine
 10
234.9584902733686
 20
303.6598742271889
 30
0.0
 11
235.0971722915084
 21
303.6409510615653
 31
0.0
  0
ARC
  5
319
330
1F
100
AcDbEntity
  8
Make2D$可见线$普通线
100
AcDbCircle
 10
233.0121669079836
 20
288.8135803665613
 30
0.0
 40
14.97193402044903
100
AcDbArc
 50
64.8597870768072
 51
65.72138843906188
  0
LINE
  5
31A
330
1F
100
AcDbEntity
  8
Make2D$可见线$普通线
100
AcDbLine
 10
239.4077634214366
 20
302.3507571359908
 30
0.0
 11
239.54605013068
 21
302.2845565422374
 31
0.0
  0
ARC
  5
31B
330
1F
100
AcDbEntity
  8
Make2D$可见线$普通线
100
AcDbCircle
 10
233.003774792701
 20
288.7961366119917
 30
0.0
 40
14.99129219137796
100
AcDbArc
 50
62.28865793539254
 51
63.9995050859696
  0
LINE
  5
31C
330
1F
100
AcDbEntity
  8
Make2D$可见线$普通线
100
AcDbLine
 10
239.9763009858243
 20
302.0672601570035
 30
0.0
 11
240.1177741677525
 21
301.9919646396301
 31
0.0
  0
ARC
  5
31D
330
1F
100
AcDbEntity
  8
Make2D$可见线$普通线
100
AcDbCircle
 10
232.9970794442409
 20
288.7835370082814
 30
0.0
 40
15.00556085976114
100
AcDbArc
 50
59.82267564165276
 51
61.42651693037416
  0
ARC
  5
31E
330
1F
100
AcDbEntity
  8
Make2D$可见线$普通线
100
AcDbCircle
 10
232.995973859346
 20
288.7815858304214
 30
0.0
 40
15.00780333073568
100
AcDbArc
 50
56.30550732422658
 51
59.71655626191833
  0
LINE
  5
31F
330
1F
100
AcDbEntity
  8
Make2D$可见线$普通线
100
AcDbLine
 10
241.3561095421209
 20
301.2452244616988
 30
0.0
 11
241.5063297129717
 21
301.1431375555407
 31
0.0
  0
ARC
  5
320
330
1F
100
AcDbEntity
  8
Make2D$可见线$普通线
100
AcDbCircle
 10
232.998069356282
 20
288.787166566892
 30
0.0
 40
15.00222824142591
100
AcDbArc
 50
30.29891098647828
 51
30.3086765726566
  0
ARC
  5
321
330
1F
100
AcDbEntity
  8
Make2D$可见线$普通线
100
AcDbCircle
 10
232.9978768906255
 20
288.7870544704349
 30
0.0
 40
15.00245097151028
100
AcDbArc
 50
29.89476620158716
 51
30.06309503436878
  0
LINE
  5
322
330
1F
100
AcDbEntity
  8
Make2D$可见线$普通线
100
AcDbLine
 10
247.9999999999894
 20
288.7882794248114
 30
0.0
 11
247.9987159354126
 21
288.9855959889178
 31
0.0
  0
LINE
  5
323
330
1F
100
AcDbEntity
  8
Make2D$可见线$普通线
100
AcDbLine
 10
247.9972339423691
 20
289.0771950598908
 30
0.0
 11
247.9930060586669
 21
289.2468536388305
 31
0.0
  0
LINE
  5
324
330
1F
100
AcDbEntity
  8
Make2D$可见线$普通线
100
AcDbLine
 10
247.9919733567159
 20
289.2794460934945
 30
0.0
 11
247.989125548546
 21
289.3597526652443
 31
0.0
  0
LINE
  5
325
330
1F
100
AcDbEntity
  8
Make2D$可见线$普通线
100
AcDbLine
 10
247.9850346823434
 20
289.4584463561912
 30
0.0
 11
247.9815124721697
 21
289.5329941951147
 31
0.0
  0
LINE
  5
326
330
1F
100
AcDbEntity
  8
Make2D$可见线$普通线
100
AcDbLine
 10
247.9796030060142
 20
289.5704371292234
 30
0.0
 11
247.9742605961316
 21
289.6667385282788
 31
0.0
  0
LINE
  5
327
330
1F
100
AcDbEntity
  8
Make2D$可见线$普通线
100
AcDbLine
 10
247.9683206940634
 20
289.762670616379
 30
0.0
 11
247.9617908113148
 21
289.8582204905722
 31
0.0
  0
ARC
  5
328
330
1F
100
AcDbEntity
  8
Make2D$可见线$普通线
100
AcDbCircle
 10
232.9889703125927
 20
288.7869460809394
 30
0.0
 40
15.0110953541187
100
AcDbArc
 50
4.486529758249578
 51
4.595401795943339
  0
LINE
  5
329
330
1F
100
AcDbEntity
  8
Make2D$可见线$普通线
100
AcDbLine
 10
247.9391251366042
 20
290.1381889109032
 30
0.0
 11
247.9301345099948
 21
290.234221610935
 31
0.0
  0
ARC
  5
32A
330
1F
100
AcDbEntity
  8
Make2D$可见线$普通线
100
AcDbCircle
 10
232.9824634290796
 20
288.7863698629529
 30
0.0
 40
15.01762782681745
100
AcDbArc
 50
5.723775064669591
 51
6.121618913768703
  0
ARC
  5
32B
330
1F
100
AcDbEntity
  8
Make2D$可见线$普通线
100
AcDbCircle
 10
232.9825072446973
 20
288.7863755513738
 30
0.0
 40
15.01758365321679
100
AcDbArc
 50
6.264671645500197
 51
6.628795604869675
  0
ARC
  5
32C
330
1F
100
AcDbEntity
  8
Make2D$可见线$普通线
100
AcDbCircle
 10
232.9852461739429
 20
288.7867080726978
 30
0.0
 40
15.01482459606063
100
AcDbArc
 50
7.124923689612254
 51
7.35211579108092
  0
LINE
  5
32D
330
1F
100
AcDbEntity
  8
Make2D$可见线$普通线
100
AcDbLine
 10
247.8380667117768
 20
290.9864039089084
 30
0.0
 11
247.8241992373916
 21
291.0780804989167
 31
0.0
  0
LINE
  5
32E
330
1F
100
AcDbEntity
  8
Make2D$可见线$普通线
100
AcDbLine
 10
247.8156413694068
 20
291.1328265234126
 30
0.0
 11
247.7990936355924
 21
291.2351268806804
 31
0.0
  0
ARC
  5
32F
330
1F
100
AcDbEntity
  8
Make2D$可见线$普通线
100
AcDbCircle
 10
233.0170035986416
 20
288.7916083022397
 30
0.0
 40
14.98268889395951
100
AcDbArc
 50
9.82157486331494
 51
9.830662663185674
  0
LINE
  5
330
330
1F
100
AcDbEntity
  8
Make2D$可见线$普通线
100
AcDbLine
 10
247.7166494069108
 20
291.6901113676606
 30
0.0
 11
247.7069164791401
 21
291.739038927888
 31
0.0
  0
LINE
  5
331
330
1F
100
AcDbEntity
  8
Make2D$可见线$普通线
100
AcDbLine
 10
247.6818157268944
 20
291.8614823136891
 30
0.0
 11
247.6627422201133
 21
291.9512214749855
 31
0.0
  0
LINE
  5
332
330
1F
100
AcDbEntity
  8
Make2D$可见线$普通线
100
AcDbLine
 10
247.6437537766961
 20
292.0379880440144
 30
0.0
 11
247.6308127286276
 21
292.0957549620086
 31
0.0
  0
LINE
  5
333
330
1F
100
AcDbEntity
  8
Make2D$可见线$普通线
100
AcDbLine
 10
247.622434019665
 20
292.1325975529501
 30
0.0
 11
247.6004946720849
 21
292.2271030947456
 31
0.0
  0
ARC
  5
334
330
1F
100
AcDbEntity
  8
Make2D$可见线$普通线
100
AcDbCircle
 10
232.9866934471132
 20
288.7846168521702
 30
0.0
 40
15.01379080664407
100
AcDbArc
 50
14.5055840375187
 51
14.68243263430699
  0
ARC
  5
335
330
1F
100
AcDbEntity
  8
Make2D$可见线$普通线
100
AcDbCircle
 10
232.9855554366286
 20
288.7843153146776
 30
0.0
 40
15.01496809335743
100
AcDbArc
 50
15.13791070735557
 51
15.45055189081671
  0
ARC
  5
336
330
1F
100
AcDbEntity
  8
Make2D$可见线$普通线
100
AcDbCircle
 10
232.9862327307698
 20
288.7845059382209
 30
0.0
 40
15.01426448383737
100
AcDbArc
 50
15.76082121352204
 51
16.06870286500826
  0
ARC
  5
337
330
1F
100
AcDbEntity
  8
Make2D$可见线$普通线
100
AcDbCircle
 10
232.9882340137716
 20
288.7850884988591
 30
0.0
 40
15.01218012848055
100
AcDbArc
 50
16.37417753986412
 51
16.5823744477001
  0
ARC
  5
338
330
1F
100
AcDbEntity
  8
Make2D$可见线$普通线
100
AcDbCircle
 10
232.9996320966935
 20
288.7886396851246
 30
0.0
 40
15.00024135048415
100
AcDbArc
 50
17.86891669806178
 51
18.0060519517259
  0
LINE
  5
339
330
1F
100
AcDbEntity
  8
Make2D$可见线$普通线
100
AcDbLine
 10
247.2263387239444
 20
293.5434326585518
 30
0.0
 11
247.18794711001
 21
293.6567952463571
 31
0.0
  0
ARC
  5
33A
330
1F
100
AcDbEntity
  8
Make2D$可见线$普通线
100
AcDbCircle
 10
233.0192729235322
 20
288.7952863948033
 30
0.0
 40
14.97950582276245
100
AcDbArc
 50
19.27570167182202
 51
19.4297807744118
  0
ARC
  5
33B
330
1F
100
AcDbEntity
  8
Make2D$可见线$普通线
100
AcDbCircle
 10
233.0403474442178
 20
288.8028898360201
 30
0.0
 40
14.95710139641515
100
AcDbArc
 50
19.85591523776386
 51
21.30233359096276
  0
ARC
  5
33C
330
1F
100
AcDbEntity
  8
Make2D$可见线$普通线
100
AcDbCircle
 10
232.9878331442041
 20
288.8135802094551
 30
0.0
 40
14.97193418455215
100
AcDbArc
 50
114.2786594919598
 51
115.1402578053816
  0
LINE
  5
33D
330
1F
100
AcDbEntity
  8
Make2D$可见线$普通线
100
AcDbLine
 10
226.5922365786579
 20
302.3507571357478
 30
0.0
 11
226.4539498693562
 21
302.2845565421219
 31
0.0
  0
ARC
  5
33E
330
1F
100
AcDbEntity
  8
Make2D$可见线$普通线
100
AcDbCircle
 10
232.9962252547157
 20
288.7961365006459
 30
0.0
 40
14.99129231217213
100
AcDbArc
 50
116.0005367611503
 51
117.7113954926197
  0
LINE
  5
33F
330
1F
100
AcDbEntity
  8
Make2D$可见线$普通线
100
AcDbLine
 10
226.0236907132373
 20
302.0672557959454
 30
0.0
 11
225.8822138951726
 21
301.9919582045503
 31
0.0
  0
ARC
  5
340
330
1F
100
AcDbEntity
  8
Make2D$可见线$普通线
100
AcDbCircle
 10
233.00292055519
 20
288.7835370105243
 30
0.0
 40
15.00556085771188
100
AcDbArc
 50
118.5735158710099
 51
120.1773712632677
  0
ARC
  5
341
330
1F
100
AcDbEntity
  8
Make2D$可见线$普通线
100
AcDbCircle
 10
233.0040261171486
 20
288.7815858758685
 30
0.0
 40
15.00780327979232
100
AcDbArc
 50
120.2834705540305
 51
123.6945075915775
  0
LINE
  5
342
330
1F
100
AcDbEntity
  8
Make2D$可见线$普通线
100
AcDbLine
 10
224.6438823547696
 20
301.2452190262816
 30
0.0
 11
224.4936677135482
 21
301.143135783622
 31
0.0
  0
ARC
  5
343
330
1F
100
AcDbEntity
  8
Make2D$可见线$普通线
100
AcDbCircle
 10
233.0019307256027
 20
288.7871665211763
 30
0.0
 40
15.00222833523181
100
AcDbArc
 50
149.6913234344746
 51
149.7010890206224
  0
ARC
  5
344
330
1F
100
AcDbEntity
  8
Make2D$可见线$普通线
100
AcDbCircle
 10
233.0021230679478
 20
288.7870544965266
 30
0.0
 40
15.00245092262147
100
AcDbArc
 50
149.9369049735728
 51
150.1052338075351
  0
ARC
  5
345
330
1F
100
AcDbEntity
  8
Make2D$可见线$普通线
100
AcDbCircle
 10
232.9818086756472
 20
288.7918322261423
 30
0.0
 40
14.98148026712492
100
AcDbArc
 50
170.1694055934676
 51
170.1784943874745
  0
ARC
  5
346
330
1F
100
AcDbEntity
  8
Make2D$可见线$普通线
100
AcDbCircle
 10
232.9953464079813
 20
288.7895743748326
 30
0.0
 40
14.99520508667985
100
AcDbArc
 50
170.8314236564223
 51
171.0097285851763
  0
ARC
  5
347
330
1F
100
AcDbEntity
  8
Make2D$可见线$普通线
100
AcDbCircle
 10
233.0040579393694
 20
288.7882277809552
 30
0.0
 40
15.00402011764279
100
AcDbArc
 50
171.4759193736179
 51
171.5755133546474
  0
ARC
  5
348
330
1F
100
AcDbEntity
  8
Make2D$可见线$普通线
100
AcDbCircle
 10
233.0098572326948
 20
288.7873889685662
 30
0.0
 40
15.00987977788599
100
AcDbArc
 50
171.9421931067982
 51
172.1370596625174
  0
ARC
  5
349
330
1F
100
AcDbEntity
  8
Make2D$可见线$普通线
100
AcDbCircle
 10
233.018202670024
 20
288.7863027167186
 30
0.0
 40
15.01829578402115
100
AcDbArc
 50
173.3712410284048
 51
173.4430705701904
  0
ARC
  5
34A
330
1F
100
AcDbEntity
  8
Make2D$可见线$普通线
100
AcDbCircle
 10
233.0183803654572
 20
288.7862796524193
 30
0.0
 40
15.01847493283976
100
AcDbArc
 50
174.0964637281539
 51
174.2762035449867
  0
ARC
  5
34B
330
1F
100
AcDbEntity
  8
Make2D$可见线$普通线
100
AcDbCircle
 10
233.0163179110946
 20
288.7864771287278
 30
0.0
 40
15.01640303778862
100
AcDbArc
 50
174.7438251701774
 51
174.8191720575354
  0
ARC
  5
34C
330
1F
100
AcDbEntity
  8
Make2D$可见线$普通线
100
AcDbCircle
 10
233.0129179605428
 20
288.7867709477422
 30
0.0
 40
15.01299040430755
100
AcDbArc
 50
175.2118134612115
 51
175.4045094789363
  0
ARC
  5
34D
330
1F
100
AcDbEntity
  8
Make2D$可见线$普通线
100
AcDbCircle
 10
232.9973489860346
 20
288.7878421815683
 30
0.0
 40
14.99738426414442
100
AcDbArc
 50
176.6403529428684
 51
176.7148736309196
  0
ARC
  5
34E
330
1F
100
AcDbEntity
  8
Make2D$可见线$普通线
100
AcDbCircle
 10
232.9857752219381
 20
288.7884408529541
 30
0.0
 40
14.98579495578561
100
AcDbArc
 50
177.3711599005931
 51
177.3788043005583
  0
LINE
  5
34F
330
1F
100
AcDbEntity
  8
Make2D$可见线$普通线
100
AcDbLine
 10
218.0108745271269
 20
289.359752676779
 30
0.0
 11
218.0080266554169
 21
289.2794460930577
 31
0.0
  0
LINE
  5
350
330
1F
100
AcDbEntity
  8
Make2D$可见线$普通线
100
AcDbLine
 10
218.0051438630862
 20
289.1817965550933
 30
0.0
 11
218.0017339122801
 21
289.0176673078743
 31
0.0
  0
LINE
  5
351
330
1F
100
AcDbEntity
  8
Make2D$可见线$普通线
100
AcDbLine
 10
218.0012791108543
 20
288.9855960540667
 30
0.0
 11
217.9999999999894
 21
288.7882794248114
 31
0.0
  0
ENDSEC
  0
SECTION
  2
OBJECTS
  0
DICTIONARY
  5
C
330
0
100
AcDbDictionary
281
     1
  3
ACAD_GROUP
350
D
  3
ACAD_LAYOUT
350
1A
  3
ACAD_MATERIAL
350
3B
  3
ACAD_MLEADERSTYLE
350
37C
  3
ACAD_MLINESTYLE
350
17
  3
ACAD_PLOTSETTINGS
350
19
  3
ACAD_PLOTSTYLENAME
350
E
  3
ACAD_SCALELIST
350
3F
  3
ACAD_TABLESTYLE
350
37B
  3
ACAD_VISUALSTYLE
350
2A
  3
AcDbVariableDictionary
350
352
  0
DICTIONARY
  5
D
102
{ACAD_REACTORS
330
C
102
}
330
C
100
AcDbDictionary
281
     1
  0
DICTIONARY
  5
1A
102
{ACAD_REACTORS
330
C
102
}
330
C
100
AcDbDictionary
281
     1
  3
Layout1
350
1E
  3
Layout2
350
26
  3
Model
350
22
  0
DICTIONARY
  5
3B
102
{ACAD_REACTORS
330
C
102
}
330
C
100
AcDbDictionary
281
     1
  3
ByBlock
350
3D
  3
ByLayer
350
3C
  3
Global
350
3E
  0
DICTIONARY
  5
37C
102
{ACAD_REACTORS
330
C
102
}
330
C
100
AcDbDictionary
281
     1
  0
DICTIONARY
  5
17
102
{ACAD_REACTORS
330
C
102
}
330
C
100
AcDbDictionary
281
     1
  3
Standard
350
18
  0
DICTIONARY
  5
19
102
{ACAD_REACTORS
330
C
102
}
330
C
100
AcDbDictionary
281
     1
  0
ACDBDICTIONARYWDFLT
  5
E
102
{ACAD_REACTORS
330
C
102
}
330
C
100
AcDbDictionary
281
     1
  3
Normal
350
F
100
AcDbDictionaryWithDefault
340
F
  0
DICTIONARY
  5
3F
102
{ACAD_REACTORS
330
C
102
}
330
C
100
AcDbDictionary
281
     1
  3
A0
350
40
  3
A1
350
41
  3
A2
350
42
  3
A3
350
43
  3
A4
350
44
  3
A5
350
45
  3
A6
350
46
  3
A7
350
47
  3
A8
350
48
  3
A9
350
49
  3
B0
350
4A
  3
B1
350
4B
  3
B2
350
4C
  3
B3
350
4D
  3
B4
350
4E
  3
B5
350
4F
  3
B6
350
50
  3
B7
350
51
  3
B8
350
52
  3
B9
350
53
  3
C0
350
54
  3
C1
350
55
  3
C2
350
56
  3
C3
350
57
  3
C4
350
58
  3
C5
350
59
  3
C6
350
5A
  3
C7
350
5B
  3
C8
350
5C
  3
C9
350
5D
  3
D0
350
5E
  3
D1
350
5F
  3
D2
350
60
  0
DICTIONARY
  5
37B
102
{ACAD_REACTORS
330
C
102
}
330
C
100
AcDbDictionary
281
     1
  0
DICTIONARY
  5
2A
102
{ACAD_REACTORS
330
C
102
}
330
C
100
AcDbDictionary
281
     1
  3
2dWireframe
350
2F
  3
3D Hidden
350
31
  3
3dWireframe
350
30
  3
Basic
350
32
  3
Brighten
350
36
  3
ColorChange
350
3A
  3
Conceptual
350
34
  3
Dim
350
35
  3
Facepattern
350
39
  3
Flat
350
2B
  3
FlatWithEdges
350
2C
  3
Gouraud
350
2D
  3
GouraudWithEdges
350
2E
  3
Linepattern
350
38
  3
Realistic
350
33
  3
Thicken
350
37
  0
DICTIONARY
  5
352
102
{ACAD_REACTORS
330
C
102
}
330
C
100
AcDbDictionary
281
     1
  3
CANNOSCALE
350
353
  3
MSLTSCALE
350
354
  0
LAYOUT
  5
1E
102
{ACAD_REACTORS
330
1A
102
}
330
1A
100
AcDbPlotSettings
  1

  2
none_device
  4

  6

 40
0.0
 41
0.0
 42
0.0
 43
0.0
 44
0.0
 45
0.0
 46
0.0
 47
0.0
 48
0.0
 49
0.0
140
0.0
141
0.0
142
1.0
143
1.0
 70
   688
 72
     0
 73
     0
 74
     5
  7

 75
    16
 76
     0
 77
     2
 78
   300
147
1.0
148
0.0
149
0.0
100
AcDbLayout
  1
Layout1
 70
     1
 71
     1
 10
0.0
 20
0.0
 11
12.0
 21
9.0
 12
0.0
 22
0.0
 32
0.0
 14
1.000000000000000E+20
 24
1.000000000000000E+20
 34
1.000000000000000E+20
 15
-1.000000000000000E+20
 25
-1.000000000000000E+20
 35
-1.000000000000000E+20
146
0.0
 13
0.0
 23
0.0
 33
0.0
 16
1.0
 26
0.0
 36
0.0
 17
0.0
 27
1.0
 37
0.0
 76
     0
330
1B
  0
LAYOUT
  5
26
102
{ACAD_REACTORS
330
1A
102
}
330
1A
100
AcDbPlotSettings
  1

  2
none_device
  4

  6

 40
0.0
 41
0.0
 42
0.0
 43
0.0
 44
0.0
 45
0.0
 46
0.0
 47
0.0
 48
0.0
 49
0.0
140
0.0
141
0.0
142
1.0
143
1.0
 70
   688
 72
     0
 73
     0
 74
     5
  7

 75
    16
 76
     0
 77
     2
 78
   300
147
1.0
148
0.0
149
0.0
100
AcDbLayout
  1
Layout2
 70
     1
 71
     2
 10
0.0
 20
0.0
 11
0.0
 21
0.0
 12
0.0
 22
0.0
 32
0.0
 14
0.0
 24
0.0
 34
0.0
 15
0.0
 25
0.0
 35
0.0
146
0.0
 13
0.0
 23
0.0
 33
0.0
 16
1.0
 26
0.0
 36
0.0
 17
0.0
 27
1.0
 37
0.0
 76
     0
330
23
  0
LAYOUT
  5
22
102
{ACAD_REACTORS
330
1A
102
}
330
1A
100
AcDbPlotSettings
  1

  2
none_device
  4
Letter_(8.50_x_11.00_Inches)
  6

 40
6.35
 41
6.35
 42
6.35000508
 43
6.35000508
 44
215.9
 45
279.4
 46
0.0
 47
0.0
 48
0.0
 49
0.0
140
0.0
141
0.0
142
1.0
143
1.0
 70
  1712
 72
     0
 73
     0
 74
     0
  7

 75
     0
 76
     0
 77
     2
 78
   300
147
1.0
148
0.0
149
0.0
100
AcDbLayout
  1
Model
 70
     1
 71
     0
 10
0.0
 20
0.0
 11
12.0
 21
9.0
 12
0.0
 22
0.0
 32
0.0
 14
177.983564051914
 24
217.0518746777989
 34
0.0
 15
287.9834403212408
 25
320.9999728631431
 35
0.0
146
0.0
 13
0.0
 23
0.0
 33
0.0
 16
1.0
 26
0.0
 36
0.0
 17
0.0
 27
1.0
 37
0.0
 76
     0
330
1F
331
29
  0
MATERIAL
  5
3D
102
{ACAD_REACTORS
330
3B
102
}
102
{ACAD_XDICTIONARY
360
377
102
}
330
3B
100
AcDbMaterial
  1
ByBlock
  0
MATERIAL
  5
3C
102
{ACAD_REACTORS
330
3B
102
}
102
{ACAD_XDICTIONARY
360
375
102
}
330
3B
100
AcDbMaterial
  1
ByLayer
  0
MATERIAL
  5
3E
102
{ACAD_REACTORS
330
3B
102
}
102
{ACAD_XDICTIONARY
360
379
102
}
330
3B
100
AcDbMaterial
  1
Global
  0
MLINESTYLE
  5
18
102
{ACAD_REACTORS
330
17
102
}
330
17
100
AcDbMlineStyle
  2
Standard
 70
     0
  3

 62
   256
 51
90.0
 52
90.0
 71
     2
 49
0.5
 62
   256
  6
BYLAYER
 49
-0.5
 62
   256
  6
BYLAYER
  0
ACDBPLACEHOLDER
  5
F
102
{ACAD_REACTORS
330
E
102
}
330
E
  0
SCALE
  5
40
102
{ACAD_REACTORS
330
3F
102
}
330
3F
100
AcDbScale
 70
     0
300
1:1
140
1.0
141
1.0
290
     1
  0
SCALE
  5
41
102
{ACAD_REACTORS
330
3F
102
}
330
3F
100
AcDbScale
 70
     0
300
1:2
140
1.0
141
2.0
290
     0
  0
SCALE
  5
42
102
{ACAD_REACTORS
330
3F
102
}
330
3F
100
AcDbScale
 70
     0
300
1:4
140
1.0
141
4.0
290
     0
  0
SCALE
  5
43
102
{ACAD_REACTORS
330
3F
102
}
330
3F
100
AcDbScale
 70
     0
300
1:5
140
1.0
141
5.0
290
     0
  0
SCALE
  5
44
102
{ACAD_REACTORS
330
3F
102
}
330
3F
100
AcDbScale
 70
     0
300
1:8
140
1.0
141
8.0
290
     0
  0
SCALE
  5
45
102
{ACAD_REACTORS
330
3F
102
}
330
3F
100
AcDbScale
 70
     0
300
1:10
140
1.0
141
10.0
290
     0
  0
SCALE
  5
46
102
{ACAD_REACTORS
330
3F
102
}
330
3F
100
AcDbScale
 70
     0
300
1:16
140
1.0
141
16.0
290
     0
  0
SCALE
  5
47
102
{ACAD_REACTORS
330
3F
102
}
330
3F
100
AcDbScale
 70
     0
300
1:20
140
1.0
141
20.0
290
     0
  0
SCALE
  5
48
102
{ACAD_REACTORS
330
3F
102
}
330
3F
100
AcDbScale
 70
     0
300
1:30
140
1.0
141
30.0
290
     0
  0
SCALE
  5
49
102
{ACAD_REACTORS
330
3F
102
}
330
3F
100
AcDbScale
 70
     0
300
1:40
140
1.0
141
40.0
290
     0
  0
SCALE
  5
4A
102
{ACAD_REACTORS
330
3F
102
}
330
3F
100
AcDbScale
 70
     0
300
1:50
140
1.0
141
50.0
290
     0
  0
SCALE
  5
4B
102
{ACAD_REACTORS
330
3F
102
}
330
3F
100
AcDbScale
 70
     0
300
1:100
140
1.0
141
100.0
290
     0
  0
SCALE
  5
4C
102
{ACAD_REACTORS
330
3F
102
}
330
3F
100
AcDbScale
 70
     0
300
2:1
140
2.0
141
1.0
290
     0
  0
SCALE
  5
4D
102
{ACAD_REACTORS
330
3F
102
}
330
3F
100
AcDbScale
 70
     0
300
4:1
140
4.0
141
1.0
290
     0
  0
SCALE
  5
4E
102
{ACAD_REACTORS
330
3F
102
}
330
3F
100
AcDbScale
 70
     0
300
8:1
140
8.0
141
1.0
290
     0
  0
SCALE
  5
4F
102
{ACAD_REACTORS
330
3F
102
}
330
3F
100
AcDbScale
 70
     0
300
10:1
140
10.0
141
1.0
290
     0
  0
SCALE
  5
50
102
{ACAD_REACTORS
330
3F
102
}
330
3F
100
AcDbScale
 70
     0
300
100:1
140
100.0
141
1.0
290
     0
  0
SCALE
  5
51
102
{ACAD_REACTORS
330
3F
102
}
330
3F
100
AcDbScale
 70
     0
300
1/128" = 1'-0"
140
0.0078125
141
12.0
290
     0
  0
SCALE
  5
52
102
{ACAD_REACTORS
330
3F
102
}
330
3F
100
AcDbScale
 70
     0
300
1/64" = 1'-0"
140
0.015625
141
12.0
290
     0
  0
SCALE
  5
53
102
{ACAD_REACTORS
330
3F
102
}
330
3F
100
AcDbScale
 70
     0
300
1/32" = 1'-0"
140
0.03125
141
12.0
290
     0
  0
SCALE
  5
54
102
{ACAD_REACTORS
330
3F
102
}
330
3F
100
AcDbScale
 70
     0
300
1/16" = 1'-0"
140
0.0625
141
12.0
290
     0
  0
SCALE
  5
55
102
{ACAD_REACTORS
330
3F
102
}
330
3F
100
AcDbScale
 70
     0
300
3/32" = 1'-0"
140
0.09375
141
12.0
290
     0
  0
SCALE
  5
56
102
{ACAD_REACTORS
330
3F
102
}
330
3F
100
AcDbScale
 70
     0
300
1/8" = 1'-0"
140
0.125
141
12.0
290
     0
  0
SCALE
  5
57
102
{ACAD_REACTORS
330
3F
102
}
330
3F
100
AcDbScale
 70
     0
300
3/16" = 1'-0"
140
0.1875
141
12.0
290
     0
  0
SCALE
  5
58
102
{ACAD_REACTORS
330
3F
102
}
330
3F
100
AcDbScale
 70
     0
300
1/4" = 1'-0"
140
0.25
141
12.0
290
     0
  0
SCALE
  5
59
102
{ACAD_REACTORS
330
3F
102
}
330
3F
100
AcDbScale
 70
     0
300
3/8" = 1'-0"
140
0.375
141
12.0
290
     0
  0
SCALE
  5
5A
102
{ACAD_REACTORS
330
3F
102
}
330
3F
100
AcDbScale
 70
     0
300
1/2" = 1'-0"
140
0.5
141
12.0
290
     0
  0
SCALE
  5
5B
102
{ACAD_REACTORS
330
3F
102
}
330
3F
100
AcDbScale
 70
     0
300
3/4" = 1'-0"
140
0.75
141
12.0
290
     0
  0
SCALE
  5
5C
102
{ACAD_REACTORS
330
3F
102
}
330
3F
100
AcDbScale
 70
     0
300
1" = 1'-0"
140
1.0
141
12.0
290
     0
  0
SCALE
  5
5D
102
{ACAD_REACTORS
330
3F
102
}
330
3F
100
AcDbScale
 70
     0
300
1-1/2" = 1'-0"
140
1.5
141
12.0
290
     0
  0
SCALE
  5
5E
102
{ACAD_REACTORS
330
3F
102
}
330
3F
100
AcDbScale
 70
     0
300
3" = 1'-0"
140
3.0
141
12.0
290
     0
  0
SCALE
  5
5F
102
{ACAD_REACTORS
330
3F
102
}
330
3F
100
AcDbScale
 70
     0
300
6" = 1'-0"
140
6.0
141
12.0
290
     0
  0
SCALE
  5
60
102
{ACAD_REACTORS
330
3F
102
}
330
3F
100
AcDbScale
 70
     0
300
1'-0" = 1'-0"
140
12.0
141
12.0
290
     0
  0
VISUALSTYLE
  5
2F
102
{ACAD_REACTORS
330
2A
102
}
102
{ACAD_XDICTIONARY
360
35D
102
}
330
2A
100
AcDbVisualStyle
  2
2dWireframe
 70
     4
 71
     0
 72
     2
 73
     0
 90
        0
 40
0.6
 41
30.0
 62
     5
 63
     7
421
 16777215
 74
     1
 91
        4
 64
     7
 65
   257
 75
     1
175
     1
 42
1.0
 92
        0
 66
   257
 43
1.0
 76
     1
 77
     6
 78
     2
 67
     7
 79
     5
170
     0
171
     0
290
     0
174
     0
 93
        1
 44
0.0
173
     0
291
     0
 45
0.0
1001
ACAD
1000
AcDbSavedByObjectVersion
1070
     0
  0
VISUALSTYLE
  5
31
102
{ACAD_REACTORS
330
2A
102
}
102
{ACAD_XDICTIONARY
360
361
102
}
330
2A
100
AcDbVisualStyle
  2
3D Hidden
 70
     6
 71
     1
 72
     2
 73
     2
 90
        0
 40
0.6
 41
30.0
 62
     5
 63
     7
421
 16777215
 74
     2
 91
        2
 64
     7
 65
   257
 75
     2
175
     1
 42
40.0
 92
        0
 66
   257
 43
1.0
 76
     1
 77
     6
 78
     2
 67
     7
 79
     3
170
     0
171
     0
290
     0
174
     0
 93
        1
 44
0.0
173
     0
291
     0
 45
0.0
1001
ACAD
1000
AcDbSavedByObjectVersion
1070
     0
  0
VISUALSTYLE
  5
30
102
{ACAD_REACTORS
330
2A
102
}
102
{ACAD_XDICTIONARY
360
35F
102
}
330
2A
100
AcDbVisualStyle
  2
3dWireframe
 70
     5
 71
     0
 72
     2
 73
     0
 90
        0
 40
0.6
 41
30.0
 62
     5
 63
     7
421
 16777215
 74
     1
 91
        4
 64
     7
 65
   257
 75
     1
175
     1
 42
1.0
 92
        0
 66
   257
 43
1.0
 76
     1
 77
     6
 78
     2
 67
     7
 79
     5
170
     0
171
     0
290
     0
174
     0
 93
        1
 44
0.0
173
     0
291
     0
 45
0.0
1001
ACAD
1000
AcDbSavedByObjectVersion
1070
     0
  0
VISUALSTYLE
  5
32
102
{ACAD_REACTORS
330
2A
102
}
102
{ACAD_XDICTIONARY
360
363
102
}
330
2A
100
AcDbVisualStyle
  2
Basic
 70
     7
 71
     1
 72
     0
 73
     1
 90
        0
 40
0.6
 41
30.0
 62
     5
 63
     7
421
 16777215
 74
     0
 91
        4
 64
     7
 65
   257
 75
     1
175
     1
 42
1.0
 92
        8
 66
     7
 43
1.0
 76
     1
 77
     6
 78
     2
 67
     7
 79
     5
170
     0
171
     0
290
     0
174
     0
 93
        1
 44
0.0
173
     0
291
     1
 45
0.0
1001
ACAD
1000
AcDbSavedByObjectVersion
1070
     0
  0
VISUALSTYLE
  5
36
102
{ACAD_REACTORS
330
2A
102
}
102
{ACAD_XDICTIONARY
360
36B
102
}
330
2A
100
AcDbVisualStyle
  2
Brighten
 70
    12
 71
     2
 72
     2
 73
     0
 90
        0
 40
0.6
 41
30.0
 62
     5
 63
     7
421
 16777215
 74
     1
 91
        4
 64
     7
 65
   257
 75
     1
175
     1
 42
1.0
 92
        8
 66
     7
 43
1.0
 76
     1
 77
     6
 78
     2
 67
     7
 79
     5
170
     0
171
     0
290
     0
174
     0
 93
        1
 44
50.0
173
     0
291
     1
 45
0.0
1001
ACAD
1000
AcDbSavedByObjectVersion
1070
     0
  0
VISUALSTYLE
  5
3A
102
{ACAD_REACTORS
330
2A
102
}
102
{ACAD_XDICTIONARY
360
373
102
}
330
2A
100
AcDbVisualStyle
  2
ColorChange
 70
    16
 71
     2
 72
     2
 73
     3
 90
        0
 40
0.6
 41
30.0
 62
     5
 63
     8
421
  8421504
 74
     1
 91
        4
 64
     7
 65
   257
 75
     1
175
     1
 42
1.0
 92
        8
 66
     8
424
  8421504
 43
1.0
 76
     1
 77
     6
 78
     2
 67
     7
 79
     5
170
     0
171
     0
290
     0
174
     0
 93
        1
 44
0.0
173
     0
291
     1
 45
0.0
1001
ACAD
1000
AcDbSavedByObjectVersion
1070
     0
  0
VISUALSTYLE
  5
34
102
{ACAD_REACTORS
330
2A
102
}
102
{ACAD_XDICTIONARY
360
367
102
}
330
2A
100
AcDbVisualStyle
  2
Conceptual
 70
     9
 71
     3
 72
     2
 73
     0
 90
        0
 40
0.6
 41
30.0
 62
     5
 63
     7
421
 16777215
 74
     2
 91
        2
 64
     7
 65
   257
 75
     1
175
     1
 42
40.0
 92
        8
 66
     7
 43
1.0
 76
     1
 77
     6
 78
     2
 67
     7
 79
     3
170
     0
171
     0
290
     0
174
     0
 93
        1
 44
0.0
173
     0
291
     0
 45
0.0
1001
ACAD
1000
AcDbSavedByObjectVersion
1070
     0
  0
VISUALSTYLE
  5
35
102
{ACAD_REACTORS
330
2A
102
}
102
{ACAD_XDICTIONARY
360
369
102
}
330
2A
100
AcDbVisualStyle
  2
Dim
 70
    11
 71
     2
 72
     2
 73
     0
 90
        0
 40
0.6
 41
30.0
 62
     5
 63
     7
421
 16777215
 74
     1
 91
        4
 64
     7
 65
   257
 75
     1
175
     1
 42
1.0
 92
        8
 66
     7
 43
1.0
 76
     1
 77
     6
 78
     2
 67
     7
 79
     5
170
     0
171
     0
290
     0
174
     0
 93
        1
 44
-50.0
173
     0
291
     1
 45
0.0
1001
ACAD
1000
AcDbSavedByObjectVersion
1070
     0
  0
VISUALSTYLE
  5
39
102
{ACAD_REACTORS
330
2A
102
}
102
{ACAD_XDICTIONARY
360
371
102
}
330
2A
100
AcDbVisualStyle
  2
Facepattern
 70
    15
 71
     2
 72
     2
 73
     0
 90
        0
 40
0.6
 41
30.0
 62
     5
 63
     7
421
 16777215
 74
     1
 91
        4
 64
     7
 65
   257
 75
     1
175
     1
 42
1.0
 92
        8
 66
     7
 43
1.0
 76
     1
 77
     6
 78
     2
 67
     7
 79
     5
170
     0
171
     0
290
     0
174
     0
 93
        1
 44
0.0
173
     0
291
     1
 45
0.0
1001
ACAD
1000
AcDbSavedByObjectVersion
1070
     0
  0
VISUALSTYLE
  5
2B
102
{ACAD_REACTORS
330
2A
102
}
102
{ACAD_XDICTIONARY
360
355
102
}
330
2A
100
AcDbVisualStyle
  2
Flat
 70
     0
 71
     2
 72
     1
 73
     1
 90
        2
 40
0.6
 41
30.0
 62
     5
 63
     7
421
 16777215
 74
     0
 91
        4
 64
     7
 65
   257
 75
     1
175
     1
 42
1.0
 92
        8
 66
     7
 43
1.0
 76
     1
 77
     6
 78
     2
 67
     7
 79
     5
170
     0
171
     0
290
     0
174
     0
 93
       13
 44
0.0
173
     0
291
     1
 45
0.0
1001
ACAD
1000
AcDbSavedByObjectVersion
1070
     0
  0
VISUALSTYLE
  5
2C
102
{ACAD_REACTORS
330
2A
102
}
102
{ACAD_XDICTIONARY
360
357
102
}
330
2A
100
AcDbVisualStyle
  2
FlatWithEdges
 70
     1
 71
     2
 72
     1
 73
     1
 90
        2
 40
0.6
 41
30.0
 62
     5
 63
     7
421
 16777215
 74
     1
 91
        4
 64
     7
 65
   257
 75
     1
175
     1
 42
1.0
 92
        0
 66
   257
 43
1.0
 76
     1
 77
     6
 78
     2
 67
     7
 79
     5
170
     0
171
     0
290
     0
174
     0
 93
       13
 44
0.0
173
     0
291
     1
 45
0.0
1001
ACAD
1000
AcDbSavedByObjectVersion
1070
     0
  0
VISUALSTYLE
  5
2D
102
{ACAD_REACTORS
330
2A
102
}
102
{ACAD_XDICTIONARY
360
359
102
}
330
2A
100
AcDbVisualStyle
  2
Gouraud
 70
     2
 71
     2
 72
     2
 73
     1
 90
        2
 40
0.6
 41
30.0
 62
     5
 63
     7
421
 16777215
 74
     0
 91
        4
 64
     7
 65
   257
 75
     1
175
     1
 42
1.0
 92
        0
 66
     7
 43
1.0
 76
     1
 77
     6
 78
     2
 67
     7
 79
     5
170
     0
171
     0
290
     0
174
     0
 93
       13
 44
0.0
173
     0
291
     1
 45
0.0
1001
ACAD
1000
AcDbSavedByObjectVersion
1070
     0
  0
VISUALSTYLE
  5
2E
102
{ACAD_REACTORS
330
2A
102
}
102
{ACAD_XDICTIONARY
360
35B
102
}
330
2A
100
AcDbVisualStyle
  2
GouraudWithEdges
 70
     3
 71
     2
 72
     2
 73
     1
 90
        2
 40
0.6
 41
30.0
 62
     5
 63
     7
421
 16777215
 74
     1
 91
        4
 64
     7
 65
   257
 75
     1
175
     1
 42
1.0
 92
        0
 66
   257
 43
1.0
 76
     1
 77
     6
 78
     2
 67
     7
 79
     5
170
     0
171
     0
290
     0
174
     0
 93
       13
 44
0.0
173
     0
291
     1
 45
0.0
1001
ACAD
1000
AcDbSavedByObjectVersion
1070
     0
  0
VISUALSTYLE
  5
38
102
{ACAD_REACTORS
330
2A
102
}
102
{ACAD_XDICTIONARY
360
36F
102
}
330
2A
100
AcDbVisualStyle
  2
Linepattern
 70
    14
 71
     2
 72
     2
 73
     0
 90
        0
 40
0.6
 41
30.0
 62
     5
 63
     7
421
 16777215
 74
     1
 91
        4
 64
     7
 65
   257
 75
     7
175
     7
 42
1.0
 92
        8
 66
     7
 43
1.0
 76
     1
 77
     6
 78
     2
 67
     7
 79
     5
170
     0
171
     0
290
     0
174
     0
 93
        1
 44
0.0
173
     0
291
     1
 45
0.0
1001
ACAD
1000
AcDbSavedByObjectVersion
1070
     0
  0
VISUALSTYLE
  5
33
102
{ACAD_REACTORS
330
2A
102
}
102
{ACAD_XDICTIONARY
360
365
102
}
330
2A
100
AcDbVisualStyle
  2
Realistic
 70
     8
 71
     2
 72
     3
 73
     0
 90
        2
 40
0.6
 41
30.0
 62
     5
 63
     7
421
 16777215
 74
     0
 91
        0
 64
     7
 65
   257
 75
     1
175
     1
 42
1.0
 92
        8
 66
   257
 43
1.0
 76
     1
 77
     6
 78
     2
 67
     7
 79
     3
170
     0
171
     0
290
     0
174
     0
 93
       13
 44
0.0
173
     0
291
     0
 45
0.0
1001
ACAD
1000
AcDbSavedByObjectVersion
1070
     0
  0
VISUALSTYLE
  5
37
102
{ACAD_REACTORS
330
2A
102
}
102
{ACAD_XDICTIONARY
360
36D
102
}
330
2A
100
AcDbVisualStyle
  2
Thicken
 70
    13
 71
     2
 72
     2
 73
     0
 90
        0
 40
0.6
 41
30.0
 62
     5
 63
     7
421
 16777215
 74
     1
 91
        4
 64
     7
 65
   257
 75
     1
175
     1
 42
1.0
 92
       12
 66
     7
 43
1.0
 76
     1
 77
     6
 78
     2
 67
     7
 79
     5
170
     0
171
     0
290
     0
174
     0
 93
        1
 44
0.0
173
     0
291
     1
 45
0.0
1001
ACAD
1000
AcDbSavedByObjectVersion
1070
     0
  0
DICTIONARYVAR
  5
353
102
{ACAD_REACTORS
330
352
102
}
330
352
100
DictionaryVariables
280
     0
  1
1:1
  0
DICTIONARYVAR
  5
354
102
{ACAD_REACTORS
330
352
102
}
330
352
100
DictionaryVariables
280
     0
  1
1
  0
DICTIONARY
  5
377
330
3D
100
AcDbDictionary
280
     1
281
     1
  3
ACAD_XREC_ROUNDTRIP
360
378
  0
DICTIONARY
  5
375
330
3C
100
AcDbDictionary
280
     1
281
     1
  3
ACAD_XREC_ROUNDTRIP
360
376
  0
DICTIONARY
  5
379
330
3E
100
AcDbDictionary
280
     1
281
     1
  3
ACAD_XREC_ROUNDTRIP
360
37A
  0
DICTIONARY
  5
35D
330
2F
100
AcDbDictionary
280
     1
281
     1
  3
ACAD_XREC_ROUNDTRIP
360
35E
  0
DICTIONARY
  5
361
330
31
100
AcDbDictionary
280
     1
281
     1
  3
ACAD_XREC_ROUNDTRIP
360
362
  0
DICTIONARY
  5
35F
330
30
100
AcDbDictionary
280
     1
281
     1
  3
ACAD_XREC_ROUNDTRIP
360
360
  0
DICTIONARY
  5
363
330
32
100
AcDbDictionary
280
     1
281
     1
  3
ACAD_XREC_ROUNDTRIP
360
364
  0
DICTIONARY
  5
36B
330
36
100
AcDbDictionary
280
     1
281
     1
  3
ACAD_XREC_ROUNDTRIP
360
36C
  0
DICTIONARY
  5
373
330
3A
100
AcDbDictionary
280
     1
281
     1
  3
ACAD_XREC_ROUNDTRIP
360
374
  0
DICTIONARY
  5
367
330
34
100
AcDbDictionary
280
     1
281
     1
  3
ACAD_XREC_ROUNDTRIP
360
368
  0
DICTIONARY
  5
369
330
35
100
AcDbDictionary
280
     1
281
     1
  3
ACAD_XREC_ROUNDTRIP
360
36A
  0
DICTIONARY
  5
371
330
39
100
AcDbDictionary
280
     1
281
     1
  3
ACAD_XREC_ROUNDTRIP
360
372
  0
DICTIONARY
  5
355
330
2B
100
AcDbDictionary
280
     1
281
     1
  3
ACAD_XREC_ROUNDTRIP
360
356
  0
DICTIONARY
  5
357
330
2C
100
AcDbDictionary
280
     1
281
     1
  3
ACAD_XREC_ROUNDTRIP
360
358
  0
DICTIONARY
  5
359
330
2D
100
AcDbDictionary
280
     1
281
     1
  3
ACAD_XREC_ROUNDTRIP
360
35A
  0
DICTIONARY
  5
35B
330
2E
100
AcDbDictionary
280
     1
281
     1
  3
ACAD_XREC_ROUNDTRIP
360
35C
  0
DICTIONARY
  5
36F
330
38
100
AcDbDictionary
280
     1
281
     1
  3
ACAD_XREC_ROUNDTRIP
360
370
  0
DICTIONARY
  5
365
330
33
100
AcDbDictionary
280
     1
281
     1
  3
ACAD_XREC_ROUNDTRIP
360
366
  0
DICTIONARY
  5
36D
330
37
100
AcDbDictionary
280
     1
281
     1
  3
ACAD_XREC_ROUNDTRIP
360
36E
  0
XRECORD
  5
378
102
{ACAD_REACTORS
330
377
102
}
330
377
100
AcDbXrecord
280
     1
102
MATERIAL
148
0.0
149
0.0
149
0.0
 93
        0
 94
      127
282
     0
 72
     1
 77
     1
171
     1
175
     1
179
     1
273
     0
  0
XRECORD
  5
376
102
{ACAD_REACTORS
330
375
102
}
330
375
100
AcDbXrecord
280
     1
102
MATERIAL
148
0.0
149
0.0
149
0.0
 93
        0
 94
      127
282
     0
 72
     1
 77
     1
171
     1
175
     1
179
     1
273
     0
  0
XRECORD
  5
37A
102
{ACAD_REACTORS
330
379
102
}
330
379
100
AcDbXrecord
280
     1
102
MATERIAL
148
0.0
149
0.0
149
0.0
 93
        0
 94
      127
282
     0
 72
     1
 77
     1
171
     1
175
     1
179
     1
273
     0
  0
XRECORD
  5
35E
102
{ACAD_REACTORS
330
35D
102
}
330
35D
100
AcDbXrecord
280
     1
102
RTVSPropertyOp0
 70
     1
102
RTVSPropertyOp1
 70
     1
102
RTVSPropertyOp2
 70
     1
102
RTVSPropertyOp3
 70
     1
102
RTVSPropertyOp4
 70
     1
102
RTVSPropertyOp5
 70
     1
102
RTVSPropertyOp6
 70
     1
102
RTVSPropertyOp7
 70
     1
102
RTVSPropertyOp8
 70
     1
102
RTVSPropertyOp9
 70
     1
102
RTVSPropertyOp10
 70
     1
102
RTVSPropertyOp11
 70
     1
102
RTVSPropertyOp12
 70
     1
102
RTVSPropertyOp13
 70
     1
102
RTVSPropertyOp14
 70
     1
102
RTVSPropertyOp15
 70
     1
102
RTVSPropertyOp16
 70
     1
102
RTVSPropertyOp17
 70
     1
102
RTVSPropertyOp18
 70
     1
102
RTVSPropertyOp19
 70
     1
102
RTVSPropertyOp20
 70
     1
102
RTVSPropertyOp21
 70
     1
102
RTVSPropertyOp22
 70
     1
102
RTVSPropertyOp23
 70
     1
102
RTVSPropertyOp24
 70
     1
102
RTVSPropertyOp25
 70
     1
102
RTVSPropertyOp26
 70
     1
102
RTVSPropertyOp27
 70
     1
102
RTVSPropertyOp28
 70
     1
102
RTVSPropertyOp29
 70
     1
102
RTVSPropertyOp30
 70
     1
102
RTVSPropertyOp31
 70
     1
102
RTVSPropertyOp32
 70
     1
102
RTVSPropertyOp33
 70
     1
102
RTVSPropertyOp34
 70
     1
102
RTVSPropertyOp35
 70
     1
102
RTVSPropertyOp36
 70
     1
102
RTVSPropertyOp37
 70
     1
102
RTVSPropertyOp38
 70
     1
102
RTVSPropertyOp39
 70
     1
102
RTVSPropertyOp40
 70
     1
102
RTVSPropertyOp41
 70
     1
102
RTVSPropertyOp42
 70
     1
102
RTVSPropertyOp43
 70
     1
102
RTVSPropertyOp44
 70
     1
102
RTVSPropertyOp45
 70
     1
102
RTVSPropertyOp46
 70
     1
102
RTVSPropertyOp47
 70
     1
102
RTVSPropertyOp48
 70
     1
102
RTVSPropertyOp49
 70
     1
102
RTVSPropertyOp50
 70
     1
102
RTVSPropertyOp51
 70
     0
102
RTVSPropertyOp52
 70
     0
102
RTVSPropertyOp53
 70
     1
102
RTVSPropertyOp54
 70
     1
102
RTVSPropertyOp55
 70
     1
102
RTVSPropertyOp56
 70
     1
102
RTVSPropertyOp57
 70
     1
102
RTVSPost2010Prop28
280
     1
102
RTVSPost2010PropOp28
 70
     1
102
RTVSPost2010Prop29
280
     1
102
RTVSPost2010PropOp29
 70
     1
102
RTVSPost2010Prop30
280
     0
102
RTVSPost2010PropOp30
 70
     1
102
RTVSPost2010Prop31
280
     0
102
RTVSPost2010PropOp31
 70
     1
102
RTVSPost2010Prop32
280
     0
102
RTVSPost2010PropOp32
 70
     1
102
RTVSPost2010Prop33
280
     0
102
RTVSPost2010PropOp33
 70
     1
102
RTVSPost2010Prop34
280
     0
102
RTVSPost2010PropOp34
 70
     1
102
RTVSPost2010Prop35
280
     0
102
RTVSPost2010PropOp35
 70
     1
102
RTVSPost2010Prop36
280
     0
102
RTVSPost2010PropOp36
 70
     1
102
RTVSPost2010Prop37
 90
       50
102
RTVSPost2010PropOp37
 70
     1
102
RTVSPost2010Prop38
140
0.0
102
RTVSPost2010PropOp38
 70
     1
102
RTVSPost2010Prop39
140
1.0
102
RTVSPost2010PropOp39
 70
     1
102
RTVSPost2010Prop40
 90
        0
102
RTVSPost2010PropOp40
 70
     1
102
RTVSPost2010Prop41ColorIndex
 90
       18
102
RTVSPost2010Prop41ColorRGB
 90
        0
102
RTVSPost2010PropOp41
 70
     1
102
RTVSPost2010Prop42
 90
       50
102
RTVSPost2010PropOp42
 70
     1
102
RTVSPost2010Prop43
 90
        3
102
RTVSPost2010PropOp43
 70
     1
102
RTVSPost2010Prop44ColorIndex
 90
        5
102
RTVSPost2010Prop44ColorRGB
 90
      255
102
RTVSPost2010PropOp44
 70
     1
102
RTVSPost2010Prop45
280
     0
102
RTVSPost2010PropOp45
 70
     1
102
RTVSPost2010Prop46
 90
       50
102
RTVSPost2010PropOp46
 70
     1
102
RTVSPost2010Prop47
 90
       50
102
RTVSPost2010PropOp47
 70
     1
102
RTVSPost2010Prop48
 90
       50
102
RTVSPost2010PropOp48
 70
     1
102
RTVSPost2010Prop49
280
     0
102
RTVSPost2010PropOp49
 70
     1
102
RTVSPost2010Prop50
 90
       50
102
RTVSPost2010PropOp50
 70
     1
102
RTVSPost2010Prop51ColorIndex
 90
      256
102
RTVSPost2010Prop51ColorRGB
 90
-16777216
102
RTVSPost2010PropOp51
 70
     0
102
RTVSPost2010Prop52
140
1.0
102
RTVSPost2010PropOp52
 70
     0
102
RTVSPost2010Prop53
 90
        2
102
RTVSPost2010PropOp53
 70
     1
102
RTVSPost2010Prop54
  1
strokes_ogs.tif
102
RTVSPost2010PropOp54
 70
     1
102
RTVSPost2010Prop55
280
     0
102
RTVSPost2010PropOp55
 70
     1
102
RTVSPost2010Prop56
140
1.0
102
RTVSPost2010PropOp56
 70
     1
102
RTVSPost2010Prop57
140
1.0
102
RTVSPost2010PropOp57
 70
     1
  0
XRECORD
  5
362
102
{ACAD_REACTORS
330
361
102
}
330
361
100
AcDbXrecord
280
     1
102
RTVSPropertyOp0
 70
     1
102
RTVSPropertyOp1
 70
     1
102
RTVSPropertyOp2
 70
     1
102
RTVSPropertyOp3
 70
     1
102
RTVSPropertyOp4
 70
     1
102
RTVSPropertyOp5
 70
     1
102
RTVSPropertyOp6
 70
     1
102
RTVSPropertyOp7
 70
     1
102
RTVSPropertyOp8
 70
     1
102
RTVSPropertyOp9
 70
     1
102
RTVSPropertyOp10
 70
     1
102
RTVSPropertyOp11
 70
     1
102
RTVSPropertyOp12
 70
     1
102
RTVSPropertyOp13
 70
     1
102
RTVSPropertyOp14
 70
     1
102
RTVSPropertyOp15
 70
     1
102
RTVSPropertyOp16
 70
     1
102
RTVSPropertyOp17
 70
     1
102
RTVSPropertyOp18
 70
     1
102
RTVSPropertyOp19
 70
     1
102
RTVSPropertyOp20
 70
     1
102
RTVSPropertyOp21
 70
     1
102
RTVSPropertyOp22
 70
     1
102
RTVSPropertyOp23
 70
     1
102
RTVSPropertyOp24
 70
     1
102
RTVSPropertyOp25
 70
     1
102
RTVSPropertyOp26
 70
     1
102
RTVSPropertyOp27
 70
     1
102
RTVSPropertyOp28
 70
     1
102
RTVSPropertyOp29
 70
     1
102
RTVSPropertyOp30
 70
     1
102
RTVSPropertyOp31
 70
     1
102
RTVSPropertyOp32
 70
     1
102
RTVSPropertyOp33
 70
     1
102
RTVSPropertyOp34
 70
     1
102
RTVSPropertyOp35
 70
     1
102
RTVSPropertyOp36
 70
     1
102
RTVSPropertyOp37
 70
     1
102
RTVSPropertyOp38
 70
     1
102
RTVSPropertyOp39
 70
     1
102
RTVSPropertyOp40
 70
     1
102
RTVSPropertyOp41
 70
     1
102
RTVSPropertyOp42
 70
     1
102
RTVSPropertyOp43
 70
     1
102
RTVSPropertyOp44
 70
     1
102
RTVSPropertyOp45
 70
     1
102
RTVSPropertyOp46
 70
     1
102
RTVSPropertyOp47
 70
     1
102
RTVSPropertyOp48
 70
     1
102
RTVSPropertyOp49
 70
     1
102
RTVSPropertyOp50
 70
     1
102
RTVSPropertyOp51
 70
     0
102
RTVSPropertyOp52
 70
     0
102
RTVSPropertyOp53
 70
     1
102
RTVSPropertyOp54
 70
     1
102
RTVSPropertyOp55
 70
     1
102
RTVSPropertyOp56
 70
     1
102
RTVSPropertyOp57
 70
     1
102
RTVSPost2010Prop28
280
     0
102
RTVSPost2010PropOp28
 70
     1
102
RTVSPost2010Prop29
280
     1
102
RTVSPost2010PropOp29
 70
     1
102
RTVSPost2010Prop30
280
     1
102
RTVSPost2010PropOp30
 70
     1
102
RTVSPost2010Prop31
280
     0
102
RTVSPost2010PropOp31
 70
     1
102
RTVSPost2010Prop32
280
     0
102
RTVSPost2010PropOp32
 70
     1
102
RTVSPost2010Prop33
280
     0
102
RTVSPost2010PropOp33
 70
     1
102
RTVSPost2010Prop34
280
     0
102
RTVSPost2010PropOp34
 70
     1
102
RTVSPost2010Prop35
280
     0
102
RTVSPost2010PropOp35
 70
     1
102
RTVSPost2010Prop36
280
     0
102
RTVSPost2010PropOp36
 70
     1
102
RTVSPost2010Prop37
 90
       50
102
RTVSPost2010PropOp37
 70
     1
102
RTVSPost2010Prop38
140
0.0
102
RTVSPost2010PropOp38
 70
     1
102
RTVSPost2010Prop39
140
1.0
102
RTVSPost2010PropOp39
 70
     1
102
RTVSPost2010Prop40
 90
        0
102
RTVSPost2010PropOp40
 70
     1
102
RTVSPost2010Prop41ColorIndex
 90
       18
102
RTVSPost2010Prop41ColorRGB
 90
        0
102
RTVSPost2010PropOp41
 70
     1
102
RTVSPost2010Prop42
 90
       50
102
RTVSPost2010PropOp42
 70
     1
102
RTVSPost2010Prop43
 90
        3
102
RTVSPost2010PropOp43
 70
     1
102
RTVSPost2010Prop44ColorIndex
 90
        5
102
RTVSPost2010Prop44ColorRGB
 90
      255
102
RTVSPost2010PropOp44
 70
     1
102
RTVSPost2010Prop45
280
     0
102
RTVSPost2010PropOp45
 70
     1
102
RTVSPost2010Prop46
 90
       50
102
RTVSPost2010PropOp46
 70
     1
102
RTVSPost2010Prop47
 90
       50
102
RTVSPost2010PropOp47
 70
     1
102
RTVSPost2010Prop48
 90
       50
102
RTVSPost2010PropOp48
 70
     1
102
RTVSPost2010Prop49
280
     0
102
RTVSPost2010PropOp49
 70
     1
102
RTVSPost2010Prop50
 90
       50
102
RTVSPost2010PropOp50
 70
     1
102
RTVSPost2010Prop51ColorIndex
 90
      256
102
RTVSPost2010Prop51ColorRGB
 90
-16777216
102
RTVSPost2010PropOp51
 70
     0
102
RTVSPost2010Prop52
140
1.0
102
RTVSPost2010PropOp52
 70
     0
102
RTVSPost2010Prop53
 90
        2
102
RTVSPost2010PropOp53
 70
     1
102
RTVSPost2010Prop54
  1
strokes_ogs.tif
102
RTVSPost2010PropOp54
 70
     1
102
RTVSPost2010Prop55
280
     0
102
RTVSPost2010PropOp55
 70
     1
102
RTVSPost2010Prop56
140
1.0
102
RTVSPost2010PropOp56
 70
     1
102
RTVSPost2010Prop57
140
1.0
102
RTVSPost2010PropOp57
 70
     1
  0
XRECORD
  5
360
102
{ACAD_REACTORS
330
35F
102
}
330
35F
100
AcDbXrecord
280
     1
102
RTVSPropertyOp0
 70
     1
102
RTVSPropertyOp1
 70
     1
102
RTVSPropertyOp2
 70
     1
102
RTVSPropertyOp3
 70
     1
102
RTVSPropertyOp4
 70
     1
102
RTVSPropertyOp5
 70
     1
102
RTVSPropertyOp6
 70
     1
102
RTVSPropertyOp7
 70
     1
102
RTVSPropertyOp8
 70
     1
102
RTVSPropertyOp9
 70
     1
102
RTVSPropertyOp10
 70
     1
102
RTVSPropertyOp11
 70
     1
102
RTVSPropertyOp12
 70
     1
102
RTVSPropertyOp13
 70
     1
102
RTVSPropertyOp14
 70
     1
102
RTVSPropertyOp15
 70
     1
102
RTVSPropertyOp16
 70
     1
102
RTVSPropertyOp17
 70
     1
102
RTVSPropertyOp18
 70
     1
102
RTVSPropertyOp19
 70
     1
102
RTVSPropertyOp20
 70
     1
102
RTVSPropertyOp21
 70
     1
102
RTVSPropertyOp22
 70
     1
102
RTVSPropertyOp23
 70
     1
102
RTVSPropertyOp24
 70
     1
102
RTVSPropertyOp25
 70
     1
102
RTVSPropertyOp26
 70
     1
102
RTVSPropertyOp27
 70
     1
102
RTVSPropertyOp28
 70
     1
102
RTVSPropertyOp29
 70
     1
102
RTVSPropertyOp30
 70
     1
102
RTVSPropertyOp31
 70
     1
102
RTVSPropertyOp32
 70
     1
102
RTVSPropertyOp33
 70
     1
102
RTVSPropertyOp34
 70
     1
102
RTVSPropertyOp35
 70
     1
102
RTVSPropertyOp36
 70
     1
102
RTVSPropertyOp37
 70
     1
102
RTVSPropertyOp38
 70
     1
102
RTVSPropertyOp39
 70
     1
102
RTVSPropertyOp40
 70
     1
102
RTVSPropertyOp41
 70
     1
102
RTVSPropertyOp42
 70
     1
102
RTVSPropertyOp43
 70
     1
102
RTVSPropertyOp44
 70
     1
102
RTVSPropertyOp45
 70
     1
102
RTVSPropertyOp46
 70
     1
102
RTVSPropertyOp47
 70
     1
102
RTVSPropertyOp48
 70
     1
102
RTVSPropertyOp49
 70
     1
102
RTVSPropertyOp50
 70
     1
102
RTVSPropertyOp51
 70
     0
102
RTVSPropertyOp52
 70
     0
102
RTVSPropertyOp53
 70
     1
102
RTVSPropertyOp54
 70
     1
102
RTVSPropertyOp55
 70
     1
102
RTVSPropertyOp56
 70
     1
102
RTVSPropertyOp57
 70
     1
102
RTVSPost2010Prop28
280
     0
102
RTVSPost2010PropOp28
 70
     1
102
RTVSPost2010Prop29
280
     1
102
RTVSPost2010PropOp29
 70
     1
102
RTVSPost2010Prop30
280
     1
102
RTVSPost2010PropOp30
 70
     1
102
RTVSPost2010Prop31
280
     0
102
RTVSPost2010PropOp31
 70
     1
102
RTVSPost2010Prop32
280
     0
102
RTVSPost2010PropOp32
 70
     1
102
RTVSPost2010Prop33
280
     0
102
RTVSPost2010PropOp33
 70
     1
102
RTVSPost2010Prop34
280
     0
102
RTVSPost2010PropOp34
 70
     1
102
RTVSPost2010Prop35
280
     0
102
RTVSPost2010PropOp35
 70
     1
102
RTVSPost2010Prop36
280
     0
102
RTVSPost2010PropOp36
 70
     1
102
RTVSPost2010Prop37
 90
       50
102
RTVSPost2010PropOp37
 70
     1
102
RTVSPost2010Prop38
140
0.0
102
RTVSPost2010PropOp38
 70
     1
102
RTVSPost2010Prop39
140
1.0
102
RTVSPost2010PropOp39
 70
     1
102
RTVSPost2010Prop40
 90
        0
102
RTVSPost2010PropOp40
 70
     1
102
RTVSPost2010Prop41ColorIndex
 90
       18
102
RTVSPost2010Prop41ColorRGB
 90
        0
102
RTVSPost2010PropOp41
 70
     1
102
RTVSPost2010Prop42
 90
       50
102
RTVSPost2010PropOp42
 70
     1
102
RTVSPost2010Prop43
 90
        3
102
RTVSPost2010PropOp43
 70
     1
102
RTVSPost2010Prop44ColorIndex
 90
        5
102
RTVSPost2010Prop44ColorRGB
 90
      255
102
RTVSPost2010PropOp44
 70
     1
102
RTVSPost2010Prop45
280
     0
102
RTVSPost2010PropOp45
 70
     1
102
RTVSPost2010Prop46
 90
       50
102
RTVSPost2010PropOp46
 70
     1
102
RTVSPost2010Prop47
 90
       50
102
RTVSPost2010PropOp47
 70
     1
102
RTVSPost2010Prop48
 90
       50
102
RTVSPost2010PropOp48
 70
     1
102
RTVSPost2010Prop49
280
     0
102
RTVSPost2010PropOp49
 70
     1
102
RTVSPost2010Prop50
 90
       50
102
RTVSPost2010PropOp50
 70
     1
102
RTVSPost2010Prop51ColorIndex
 90
      256
102
RTVSPost2010Prop51ColorRGB
 90
-16777216
102
RTVSPost2010PropOp51
 70
     0
102
RTVSPost2010Prop52
140
1.0
102
RTVSPost2010PropOp52
 70
     0
102
RTVSPost2010Prop53
 90
        2
102
RTVSPost2010PropOp53
 70
     1
102
RTVSPost2010Prop54
  1
strokes_ogs.tif
102
RTVSPost2010PropOp54
 70
     1
102
RTVSPost2010Prop55
280
     0
102
RTVSPost2010PropOp55
 70
     1
102
RTVSPost2010Prop56
140
1.0
102
RTVSPost2010PropOp56
 70
     1
102
RTVSPost2010Prop57
140
1.0
102
RTVSPost2010PropOp57
 70
     1
  0
XRECORD
  5
364
102
{ACAD_REACTORS
330
363
102
}
330
363
100
AcDbXrecord
280
     1
102
RTVSPropertyOp0
 70
     1
102
RTVSPropertyOp1
 70
     1
102
RTVSPropertyOp2
 70
     1
102
RTVSPropertyOp3
 70
     1
102
RTVSPropertyOp4
 70
     1
102
RTVSPropertyOp5
 70
     1
102
RTVSPropertyOp6
 70
     1
102
RTVSPropertyOp7
 70
     1
102
RTVSPropertyOp8
 70
     1
102
RTVSPropertyOp9
 70
     1
102
RTVSPropertyOp10
 70
     1
102
RTVSPropertyOp11
 70
     1
102
RTVSPropertyOp12
 70
     1
102
RTVSPropertyOp13
 70
     1
102
RTVSPropertyOp14
 70
     1
102
RTVSPropertyOp15
 70
     1
102
RTVSPropertyOp16
 70
     1
102
RTVSPropertyOp17
 70
     1
102
RTVSPropertyOp18
 70
     1
102
RTVSPropertyOp19
 70
     1
102
RTVSPropertyOp20
 70
     1
102
RTVSPropertyOp21
 70
     1
102
RTVSPropertyOp22
 70
     1
102
RTVSPropertyOp23
 70
     1
102
RTVSPropertyOp24
 70
     1
102
RTVSPropertyOp25
 70
     1
102
RTVSPropertyOp26
 70
     1
102
RTVSPropertyOp27
 70
     1
102
RTVSPropertyOp28
 70
     1
102
RTVSPropertyOp29
 70
     1
102
RTVSPropertyOp30
 70
     1
102
RTVSPropertyOp31
 70
     1
102
RTVSPropertyOp32
 70
     1
102
RTVSPropertyOp33
 70
     1
102
RTVSPropertyOp34
 70
     1
102
RTVSPropertyOp35
 70
     1
102
RTVSPropertyOp36
 70
     1
102
RTVSPropertyOp37
 70
     1
102
RTVSPropertyOp38
 70
     1
102
RTVSPropertyOp39
 70
     1
102
RTVSPropertyOp40
 70
     1
102
RTVSPropertyOp41
 70
     1
102
RTVSPropertyOp42
 70
     1
102
RTVSPropertyOp43
 70
     1
102
RTVSPropertyOp44
 70
     1
102
RTVSPropertyOp45
 70
     1
102
RTVSPropertyOp46
 70
     1
102
RTVSPropertyOp47
 70
     1
102
RTVSPropertyOp48
 70
     1
102
RTVSPropertyOp49
 70
     1
102
RTVSPropertyOp50
 70
     1
102
RTVSPropertyOp51
 70
     0
102
RTVSPropertyOp52
 70
     0
102
RTVSPropertyOp53
 70
     1
102
RTVSPropertyOp54
 70
     1
102
RTVSPropertyOp55
 70
     1
102
RTVSPropertyOp56
 70
     1
102
RTVSPropertyOp57
 70
     1
102
RTVSPost2010Prop28
280
     0
102
RTVSPost2010PropOp28
 70
     1
102
RTVSPost2010Prop29
280
     1
102
RTVSPost2010PropOp29
 70
     1
102
RTVSPost2010Prop30
280
     1
102
RTVSPost2010PropOp30
 70
     1
102
RTVSPost2010Prop31
280
     0
102
RTVSPost2010PropOp31
 70
     1
102
RTVSPost2010Prop32
280
     0
102
RTVSPost2010PropOp32
 70
     1
102
RTVSPost2010Prop33
280
     0
102
RTVSPost2010PropOp33
 70
     1
102
RTVSPost2010Prop34
280
     0
102
RTVSPost2010PropOp34
 70
     1
102
RTVSPost2010Prop35
280
     0
102
RTVSPost2010PropOp35
 70
     1
102
RTVSPost2010Prop36
280
     0
102
RTVSPost2010PropOp36
 70
     1
102
RTVSPost2010Prop37
 90
       50
102
RTVSPost2010PropOp37
 70
     1
102
RTVSPost2010Prop38
140
0.0
102
RTVSPost2010PropOp38
 70
     1
102
RTVSPost2010Prop39
140
1.0
102
RTVSPost2010PropOp39
 70
     1
102
RTVSPost2010Prop40
 90
        0
102
RTVSPost2010PropOp40
 70
     1
102
RTVSPost2010Prop41ColorIndex
 90
       18
102
RTVSPost2010Prop41ColorRGB
 90
        0
102
RTVSPost2010PropOp41
 70
     1
102
RTVSPost2010Prop42
 90
       50
102
RTVSPost2010PropOp42
 70
     1
102
RTVSPost2010Prop43
 90
        3
102
RTVSPost2010PropOp43
 70
     1
102
RTVSPost2010Prop44ColorIndex
 90
        5
102
RTVSPost2010Prop44ColorRGB
 90
      255
102
RTVSPost2010PropOp44
 70
     1
102
RTVSPost2010Prop45
280
     0
102
RTVSPost2010PropOp45
 70
     1
102
RTVSPost2010Prop46
 90
       50
102
RTVSPost2010PropOp46
 70
     1
102
RTVSPost2010Prop47
 90
       50
102
RTVSPost2010PropOp47
 70
     1
102
RTVSPost2010Prop48
 90
       50
102
RTVSPost2010PropOp48
 70
     1
102
RTVSPost2010Prop49
280
     0
102
RTVSPost2010PropOp49
 70
     1
102
RTVSPost2010Prop50
 90
       50
102
RTVSPost2010PropOp50
 70
     1
102
RTVSPost2010Prop51ColorIndex
 90
      256
102
RTVSPost2010Prop51ColorRGB
 90
-16777216
102
RTVSPost2010PropOp51
 70
     0
102
RTVSPost2010Prop52
140
1.0
102
RTVSPost2010PropOp52
 70
     0
102
RTVSPost2010Prop53
 90
        2
102
RTVSPost2010PropOp53
 70
     1
102
RTVSPost2010Prop54
  1
strokes_ogs.tif
102
RTVSPost2010PropOp54
 70
     1
102
RTVSPost2010Prop55
280
     0
102
RTVSPost2010PropOp55
 70
     1
102
RTVSPost2010Prop56
140
1.0
102
RTVSPost2010PropOp56
 70
     1
102
RTVSPost2010Prop57
140
1.0
102
RTVSPost2010PropOp57
 70
     1
  0
XRECORD
  5
36C
102
{ACAD_REACTORS
330
36B
102
}
330
36B
100
AcDbXrecord
280
     1
102
RTVSPropertyOp0
 70
     1
102
RTVSPropertyOp1
 70
     1
102
RTVSPropertyOp2
 70
     1
102
RTVSPropertyOp3
 70
     1
102
RTVSPropertyOp4
 70
     1
102
RTVSPropertyOp5
 70
     1
102
RTVSPropertyOp6
 70
     1
102
RTVSPropertyOp7
 70
     1
102
RTVSPropertyOp8
 70
     1
102
RTVSPropertyOp9
 70
     1
102
RTVSPropertyOp10
 70
     1
102
RTVSPropertyOp11
 70
     1
102
RTVSPropertyOp12
 70
     1
102
RTVSPropertyOp13
 70
     1
102
RTVSPropertyOp14
 70
     1
102
RTVSPropertyOp15
 70
     1
102
RTVSPropertyOp16
 70
     1
102
RTVSPropertyOp17
 70
     1
102
RTVSPropertyOp18
 70
     1
102
RTVSPropertyOp19
 70
     1
102
RTVSPropertyOp20
 70
     1
102
RTVSPropertyOp21
 70
     1
102
RTVSPropertyOp22
 70
     1
102
RTVSPropertyOp23
 70
     1
102
RTVSPropertyOp24
 70
     1
102
RTVSPropertyOp25
 70
     1
102
RTVSPropertyOp26
 70
     1
102
RTVSPropertyOp27
 70
     1
102
RTVSPropertyOp28
 70
     1
102
RTVSPropertyOp29
 70
     1
102
RTVSPropertyOp30
 70
     1
102
RTVSPropertyOp31
 70
     1
102
RTVSPropertyOp32
 70
     1
102
RTVSPropertyOp33
 70
     1
102
RTVSPropertyOp34
 70
     1
102
RTVSPropertyOp35
 70
     1
102
RTVSPropertyOp36
 70
     1
102
RTVSPropertyOp37
 70
     1
102
RTVSPropertyOp38
 70
     1
102
RTVSPropertyOp39
 70
     1
102
RTVSPropertyOp40
 70
     1
102
RTVSPropertyOp41
 70
     1
102
RTVSPropertyOp42
 70
     1
102
RTVSPropertyOp43
 70
     1
102
RTVSPropertyOp44
 70
     1
102
RTVSPropertyOp45
 70
     1
102
RTVSPropertyOp46
 70
     1
102
RTVSPropertyOp47
 70
     1
102
RTVSPropertyOp48
 70
     1
102
RTVSPropertyOp49
 70
     1
102
RTVSPropertyOp50
 70
     1
102
RTVSPropertyOp51
 70
     0
102
RTVSPropertyOp52
 70
     0
102
RTVSPropertyOp53
 70
     1
102
RTVSPropertyOp54
 70
     1
102
RTVSPropertyOp55
 70
     1
102
RTVSPropertyOp56
 70
     1
102
RTVSPropertyOp57
 70
     1
102
RTVSPost2010Prop28
280
     0
102
RTVSPost2010PropOp28
 70
     1
102
RTVSPost2010Prop29
280
     1
102
RTVSPost2010PropOp29
 70
     1
102
RTVSPost2010Prop30
280
     1
102
RTVSPost2010PropOp30
 70
     1
102
RTVSPost2010Prop31
280
     0
102
RTVSPost2010PropOp31
 70
     1
102
RTVSPost2010Prop32
280
     0
102
RTVSPost2010PropOp32
 70
     1
102
RTVSPost2010Prop33
280
     0
102
RTVSPost2010PropOp33
 70
     1
102
RTVSPost2010Prop34
280
     0
102
RTVSPost2010PropOp34
 70
     1
102
RTVSPost2010Prop35
280
     0
102
RTVSPost2010PropOp35
 70
     1
102
RTVSPost2010Prop36
280
     0
102
RTVSPost2010PropOp36
 70
     1
102
RTVSPost2010Prop37
 90
       50
102
RTVSPost2010PropOp37
 70
     1
102
RTVSPost2010Prop38
140
0.0
102
RTVSPost2010PropOp38
 70
     1
102
RTVSPost2010Prop39
140
1.0
102
RTVSPost2010PropOp39
 70
     1
102
RTVSPost2010Prop40
 90
        0
102
RTVSPost2010PropOp40
 70
     1
102
RTVSPost2010Prop41ColorIndex
 90
       18
102
RTVSPost2010Prop41ColorRGB
 90
        0
102
RTVSPost2010PropOp41
 70
     1
102
RTVSPost2010Prop42
 90
       50
102
RTVSPost2010PropOp42
 70
     1
102
RTVSPost2010Prop43
 90
        3
102
RTVSPost2010PropOp43
 70
     1
102
RTVSPost2010Prop44ColorIndex
 90
        5
102
RTVSPost2010Prop44ColorRGB
 90
      255
102
RTVSPost2010PropOp44
 70
     1
102
RTVSPost2010Prop45
280
     0
102
RTVSPost2010PropOp45
 70
     1
102
RTVSPost2010Prop46
 90
       50
102
RTVSPost2010PropOp46
 70
     1
102
RTVSPost2010Prop47
 90
       50
102
RTVSPost2010PropOp47
 70
     1
102
RTVSPost2010Prop48
 90
       50
102
RTVSPost2010PropOp48
 70
     1
102
RTVSPost2010Prop49
280
     0
102
RTVSPost2010PropOp49
 70
     1
102
RTVSPost2010Prop50
 90
       50
102
RTVSPost2010PropOp50
 70
     1
102
RTVSPost2010Prop51ColorIndex
 90
      256
102
RTVSPost2010Prop51ColorRGB
 90
-16777216
102
RTVSPost2010PropOp51
 70
     0
102
RTVSPost2010Prop52
140
1.0
102
RTVSPost2010PropOp52
 70
     0
102
RTVSPost2010Prop53
 90
        2
102
RTVSPost2010PropOp53
 70
     1
102
RTVSPost2010Prop54
  1
strokes_ogs.tif
102
RTVSPost2010PropOp54
 70
     1
102
RTVSPost2010Prop55
280
     0
102
RTVSPost2010PropOp55
 70
     1
102
RTVSPost2010Prop56
140
1.0
102
RTVSPost2010PropOp56
 70
     1
102
RTVSPost2010Prop57
140
1.0
102
RTVSPost2010PropOp57
 70
     1
  0
XRECORD
  5
374
102
{ACAD_REACTORS
330
373
102
}
330
373
100
AcDbXrecord
280
     1
102
RTVSPropertyOp0
 70
     1
102
RTVSPropertyOp1
 70
     1
102
RTVSPropertyOp2
 70
     1
102
RTVSPropertyOp3
 70
     1
102
RTVSPropertyOp4
 70
     1
102
RTVSPropertyOp5
 70
     1
102
RTVSPropertyOp6
 70
     1
102
RTVSPropertyOp7
 70
     1
102
RTVSPropertyOp8
 70
     1
102
RTVSPropertyOp9
 70
     1
102
RTVSPropertyOp10
 70
     1
102
RTVSPropertyOp11
 70
     1
102
RTVSPropertyOp12
 70
     1
102
RTVSPropertyOp13
 70
     1
102
RTVSPropertyOp14
 70
     1
102
RTVSPropertyOp15
 70
     1
102
RTVSPropertyOp16
 70
     1
102
RTVSPropertyOp17
 70
     1
102
RTVSPropertyOp18
 70
     1
102
RTVSPropertyOp19
 70
     1
102
RTVSPropertyOp20
 70
     1
102
RTVSPropertyOp21
 70
     1
102
RTVSPropertyOp22
 70
     1
102
RTVSPropertyOp23
 70
     1
102
RTVSPropertyOp24
 70
     1
102
RTVSPropertyOp25
 70
     1
102
RTVSPropertyOp26
 70
     1
102
RTVSPropertyOp27
 70
     1
102
RTVSPropertyOp28
 70
     1
102
RTVSPropertyOp29
 70
     1
102
RTVSPropertyOp30
 70
     1
102
RTVSPropertyOp31
 70
     1
102
RTVSPropertyOp32
 70
     1
102
RTVSPropertyOp33
 70
     1
102
RTVSPropertyOp34
 70
     1
102
RTVSPropertyOp35
 70
     1
102
RTVSPropertyOp36
 70
     1
102
RTVSPropertyOp37
 70
     1
102
RTVSPropertyOp38
 70
     1
102
RTVSPropertyOp39
 70
     1
102
RTVSPropertyOp40
 70
     1
102
RTVSPropertyOp41
 70
     1
102
RTVSPropertyOp42
 70
     1
102
RTVSPropertyOp43
 70
     1
102
RTVSPropertyOp44
 70
     1
102
RTVSPropertyOp45
 70
     1
102
RTVSPropertyOp46
 70
     1
102
RTVSPropertyOp47
 70
     1
102
RTVSPropertyOp48
 70
     1
102
RTVSPropertyOp49
 70
     1
102
RTVSPropertyOp50
 70
     1
102
RTVSPropertyOp51
 70
     0
102
RTVSPropertyOp52
 70
     0
102
RTVSPropertyOp53
 70
     1
102
RTVSPropertyOp54
 70
     1
102
RTVSPropertyOp55
 70
     1
102
RTVSPropertyOp56
 70
     1
102
RTVSPropertyOp57
 70
     1
102
RTVSPost2010Prop28
280
     0
102
RTVSPost2010PropOp28
 70
     1
102
RTVSPost2010Prop29
280
     1
102
RTVSPost2010PropOp29
 70
     1
102
RTVSPost2010Prop30
280
     1
102
RTVSPost2010PropOp30
 70
     1
102
RTVSPost2010Prop31
280
     0
102
RTVSPost2010PropOp31
 70
     1
102
RTVSPost2010Prop32
280
     0
102
RTVSPost2010PropOp32
 70
     1
102
RTVSPost2010Prop33
280
     0
102
RTVSPost2010PropOp33
 70
     1
102
RTVSPost2010Prop34
280
     0
102
RTVSPost2010PropOp34
 70
     1
102
RTVSPost2010Prop35
280
     0
102
RTVSPost2010PropOp35
 70
     1
102
RTVSPost2010Prop36
280
     0
102
RTVSPost2010PropOp36
 70
     1
102
RTVSPost2010Prop37
 90
       50
102
RTVSPost2010PropOp37
 70
     1
102
RTVSPost2010Prop38
140
0.0
102
RTVSPost2010PropOp38
 70
     1
102
RTVSPost2010Prop39
140
1.0
102
RTVSPost2010PropOp39
 70
     1
102
RTVSPost2010Prop40
 90
        0
102
RTVSPost2010PropOp40
 70
     1
102
RTVSPost2010Prop41ColorIndex
 90
       18
102
RTVSPost2010Prop41ColorRGB
 90
        0
102
RTVSPost2010PropOp41
 70
     1
102
RTVSPost2010Prop42
 90
       50
102
RTVSPost2010PropOp42
 70
     1
102
RTVSPost2010Prop43
 90
        3
102
RTVSPost2010PropOp43
 70
     1
102
RTVSPost2010Prop44ColorIndex
 90
        5
102
RTVSPost2010Prop44ColorRGB
 90
      255
102
RTVSPost2010PropOp44
 70
     1
102
RTVSPost2010Prop45
280
     0
102
RTVSPost2010PropOp45
 70
     1
102
RTVSPost2010Prop46
 90
       50
102
RTVSPost2010PropOp46
 70
     1
102
RTVSPost2010Prop47
 90
       50
102
RTVSPost2010PropOp47
 70
     1
102
RTVSPost2010Prop48
 90
       50
102
RTVSPost2010PropOp48
 70
     1
102
RTVSPost2010Prop49
280
     0
102
RTVSPost2010PropOp49
 70
     1
102
RTVSPost2010Prop50
 90
       50
102
RTVSPost2010PropOp50
 70
     1
102
RTVSPost2010Prop51ColorIndex
 90
      256
102
RTVSPost2010Prop51ColorRGB
 90
-16777216
102
RTVSPost2010PropOp51
 70
     0
102
RTVSPost2010Prop52
140
1.0
102
RTVSPost2010PropOp52
 70
     0
102
RTVSPost2010Prop53
 90
        2
102
RTVSPost2010PropOp53
 70
     1
102
RTVSPost2010Prop54
  1
strokes_ogs.tif
102
RTVSPost2010PropOp54
 70
     1
102
RTVSPost2010Prop55
280
     0
102
RTVSPost2010PropOp55
 70
     1
102
RTVSPost2010Prop56
140
1.0
102
RTVSPost2010PropOp56
 70
     1
102
RTVSPost2010Prop57
140
1.0
102
RTVSPost2010PropOp57
 70
     1
  0
XRECORD
  5
368
102
{ACAD_REACTORS
330
367
102
}
330
367
100
AcDbXrecord
280
     1
102
RTVSPropertyOp0
 70
     1
102
RTVSPropertyOp1
 70
     1
102
RTVSPropertyOp2
 70
     1
102
RTVSPropertyOp3
 70
     1
102
RTVSPropertyOp4
 70
     1
102
RTVSPropertyOp5
 70
     1
102
RTVSPropertyOp6
 70
     1
102
RTVSPropertyOp7
 70
     1
102
RTVSPropertyOp8
 70
     1
102
RTVSPropertyOp9
 70
     1
102
RTVSPropertyOp10
 70
     1
102
RTVSPropertyOp11
 70
     1
102
RTVSPropertyOp12
 70
     1
102
RTVSPropertyOp13
 70
     1
102
RTVSPropertyOp14
 70
     1
102
RTVSPropertyOp15
 70
     1
102
RTVSPropertyOp16
 70
     1
102
RTVSPropertyOp17
 70
     1
102
RTVSPropertyOp18
 70
     1
102
RTVSPropertyOp19
 70
     1
102
RTVSPropertyOp20
 70
     1
102
RTVSPropertyOp21
 70
     1
102
RTVSPropertyOp22
 70
     1
102
RTVSPropertyOp23
 70
     1
102
RTVSPropertyOp24
 70
     1
102
RTVSPropertyOp25
 70
     1
102
RTVSPropertyOp26
 70
     1
102
RTVSPropertyOp27
 70
     1
102
RTVSPropertyOp28
 70
     1
102
RTVSPropertyOp29
 70
     1
102
RTVSPropertyOp30
 70
     1
102
RTVSPropertyOp31
 70
     1
102
RTVSPropertyOp32
 70
     1
102
RTVSPropertyOp33
 70
     1
102
RTVSPropertyOp34
 70
     1
102
RTVSPropertyOp35
 70
     1
102
RTVSPropertyOp36
 70
     1
102
RTVSPropertyOp37
 70
     1
102
RTVSPropertyOp38
 70
     1
102
RTVSPropertyOp39
 70
     1
102
RTVSPropertyOp40
 70
     1
102
RTVSPropertyOp41
 70
     1
102
RTVSPropertyOp42
 70
     1
102
RTVSPropertyOp43
 70
     1
102
RTVSPropertyOp44
 70
     1
102
RTVSPropertyOp45
 70
     1
102
RTVSPropertyOp46
 70
     1
102
RTVSPropertyOp47
 70
     1
102
RTVSPropertyOp48
 70
     1
102
RTVSPropertyOp49
 70
     1
102
RTVSPropertyOp50
 70
     1
102
RTVSPropertyOp51
 70
     0
102
RTVSPropertyOp52
 70
     0
102
RTVSPropertyOp53
 70
     1
102
RTVSPropertyOp54
 70
     1
102
RTVSPropertyOp55
 70
     1
102
RTVSPropertyOp56
 70
     1
102
RTVSPropertyOp57
 70
     1
102
RTVSPost2010Prop28
280
     0
102
RTVSPost2010PropOp28
 70
     1
102
RTVSPost2010Prop29
280
     1
102
RTVSPost2010PropOp29
 70
     1
102
RTVSPost2010Prop30
280
     1
102
RTVSPost2010PropOp30
 70
     1
102
RTVSPost2010Prop31
280
     0
102
RTVSPost2010PropOp31
 70
     1
102
RTVSPost2010Prop32
280
     0
102
RTVSPost2010PropOp32
 70
     1
102
RTVSPost2010Prop33
280
     0
102
RTVSPost2010PropOp33
 70
     1
102
RTVSPost2010Prop34
280
     0
102
RTVSPost2010PropOp34
 70
     1
102
RTVSPost2010Prop35
280
     0
102
RTVSPost2010PropOp35
 70
     1
102
RTVSPost2010Prop36
280
     0
102
RTVSPost2010PropOp36
 70
     1
102
RTVSPost2010Prop37
 90
       50
102
RTVSPost2010PropOp37
 70
     1
102
RTVSPost2010Prop38
140
0.0
102
RTVSPost2010PropOp38
 70
     1
102
RTVSPost2010Prop39
140
1.0
102
RTVSPost2010PropOp39
 70
     1
102
RTVSPost2010Prop40
 90
        0
102
RTVSPost2010PropOp40
 70
     1
102
RTVSPost2010Prop41ColorIndex
 90
       18
102
RTVSPost2010Prop41ColorRGB
 90
        0
102
RTVSPost2010PropOp41
 70
     1
102
RTVSPost2010Prop42
 90
       50
102
RTVSPost2010PropOp42
 70
     1
102
RTVSPost2010Prop43
 90
        3
102
RTVSPost2010PropOp43
 70
     1
102
RTVSPost2010Prop44ColorIndex
 90
        5
102
RTVSPost2010Prop44ColorRGB
 90
      255
102
RTVSPost2010PropOp44
 70
     1
102
RTVSPost2010Prop45
280
     0
102
RTVSPost2010PropOp45
 70
     1
102
RTVSPost2010Prop46
 90
       50
102
RTVSPost2010PropOp46
 70
     1
102
RTVSPost2010Prop47
 90
       50
102
RTVSPost2010PropOp47
 70
     1
102
RTVSPost2010Prop48
 90
       50
102
RTVSPost2010PropOp48
 70
     1
102
RTVSPost2010Prop49
280
     0
102
RTVSPost2010PropOp49
 70
     1
102
RTVSPost2010Prop50
 90
       50
102
RTVSPost2010PropOp50
 70
     1
102
RTVSPost2010Prop51ColorIndex
 90
      256
102
RTVSPost2010Prop51ColorRGB
 90
-16777216
102
RTVSPost2010PropOp51
 70
     0
102
RTVSPost2010Prop52
140
1.0
102
RTVSPost2010PropOp52
 70
     0
102
RTVSPost2010Prop53
 90
        2
102
RTVSPost2010PropOp53
 70
     1
102
RTVSPost2010Prop54
  1
strokes_ogs.tif
102
RTVSPost2010PropOp54
 70
     1
102
RTVSPost2010Prop55
280
     0
102
RTVSPost2010PropOp55
 70
     1
102
RTVSPost2010Prop56
140
1.0
102
RTVSPost2010PropOp56
 70
     1
102
RTVSPost2010Prop57
140
1.0
102
RTVSPost2010PropOp57
 70
     1
  0
XRECORD
  5
36A
102
{ACAD_REACTORS
330
369
102
}
330
369
100
AcDbXrecord
280
     1
102
RTVSPropertyOp0
 70
     1
102
RTVSPropertyOp1
 70
     1
102
RTVSPropertyOp2
 70
     1
102
RTVSPropertyOp3
 70
     1
102
RTVSPropertyOp4
 70
     1
102
RTVSPropertyOp5
 70
     1
102
RTVSPropertyOp6
 70
     1
102
RTVSPropertyOp7
 70
     1
102
RTVSPropertyOp8
 70
     1
102
RTVSPropertyOp9
 70
     1
102
RTVSPropertyOp10
 70
     1
102
RTVSPropertyOp11
 70
     1
102
RTVSPropertyOp12
 70
     1
102
RTVSPropertyOp13
 70
     1
102
RTVSPropertyOp14
 70
     1
102
RTVSPropertyOp15
 70
     1
102
RTVSPropertyOp16
 70
     1
102
RTVSPropertyOp17
 70
     1
102
RTVSPropertyOp18
 70
     1
102
RTVSPropertyOp19
 70
     1
102
RTVSPropertyOp20
 70
     1
102
RTVSPropertyOp21
 70
     1
102
RTVSPropertyOp22
 70
     1
102
RTVSPropertyOp23
 70
     1
102
RTVSPropertyOp24
 70
     1
102
RTVSPropertyOp25
 70
     1
102
RTVSPropertyOp26
 70
     1
102
RTVSPropertyOp27
 70
     1
102
RTVSPropertyOp28
 70
     1
102
RTVSPropertyOp29
 70
     1
102
RTVSPropertyOp30
 70
     1
102
RTVSPropertyOp31
 70
     1
102
RTVSPropertyOp32
 70
     1
102
RTVSPropertyOp33
 70
     1
102
RTVSPropertyOp34
 70
     1
102
RTVSPropertyOp35
 70
     1
102
RTVSPropertyOp36
 70
     1
102
RTVSPropertyOp37
 70
     1
102
RTVSPropertyOp38
 70
     1
102
RTVSPropertyOp39
 70
     1
102
RTVSPropertyOp40
 70
     1
102
RTVSPropertyOp41
 70
     1
102
RTVSPropertyOp42
 70
     1
102
RTVSPropertyOp43
 70
     1
102
RTVSPropertyOp44
 70
     1
102
RTVSPropertyOp45
 70
     1
102
RTVSPropertyOp46
 70
     1
102
RTVSPropertyOp47
 70
     1
102
RTVSPropertyOp48
 70
     1
102
RTVSPropertyOp49
 70
     1
102
RTVSPropertyOp50
 70
     1
102
RTVSPropertyOp51
 70
     0
102
RTVSPropertyOp52
 70
     0
102
RTVSPropertyOp53
 70
     1
102
RTVSPropertyOp54
 70
     1
102
RTVSPropertyOp55
 70
     1
102
RTVSPropertyOp56
 70
     1
102
RTVSPropertyOp57
 70
     1
102
RTVSPost2010Prop28
280
     0
102
RTVSPost2010PropOp28
 70
     1
102
RTVSPost2010Prop29
280
     1
102
RTVSPost2010PropOp29
 70
     1
102
RTVSPost2010Prop30
280
     1
102
RTVSPost2010PropOp30
 70
     1
102
RTVSPost2010Prop31
280
     0
102
RTVSPost2010PropOp31
 70
     1
102
RTVSPost2010Prop32
280
     0
102
RTVSPost2010PropOp32
 70
     1
102
RTVSPost2010Prop33
280
     0
102
RTVSPost2010PropOp33
 70
     1
102
RTVSPost2010Prop34
280
     0
102
RTVSPost2010PropOp34
 70
     1
102
RTVSPost2010Prop35
280
     0
102
RTVSPost2010PropOp35
 70
     1
102
RTVSPost2010Prop36
280
     0
102
RTVSPost2010PropOp36
 70
     1
102
RTVSPost2010Prop37
 90
       50
102
RTVSPost2010PropOp37
 70
     1
102
RTVSPost2010Prop38
140
0.0
102
RTVSPost2010PropOp38
 70
     1
102
RTVSPost2010Prop39
140
1.0
102
RTVSPost2010PropOp39
 70
     1
102
RTVSPost2010Prop40
 90
        0
102
RTVSPost2010PropOp40
 70
     1
102
RTVSPost2010Prop41ColorIndex
 90
       18
102
RTVSPost2010Prop41ColorRGB
 90
        0
102
RTVSPost2010PropOp41
 70
     1
102
RTVSPost2010Prop42
 90
       50
102
RTVSPost2010PropOp42
 70
     1
102
RTVSPost2010Prop43
 90
        3
102
RTVSPost2010PropOp43
 70
     1
102
RTVSPost2010Prop44ColorIndex
 90
        5
102
RTVSPost2010Prop44ColorRGB
 90
      255
102
RTVSPost2010PropOp44
 70
     1
102
RTVSPost2010Prop45
280
     0
102
RTVSPost2010PropOp45
 70
     1
102
RTVSPost2010Prop46
 90
       50
102
RTVSPost2010PropOp46
 70
     1
102
RTVSPost2010Prop47
 90
       50
102
RTVSPost2010PropOp47
 70
     1
102
RTVSPost2010Prop48
 90
       50
102
RTVSPost2010PropOp48
 70
     1
102
RTVSPost2010Prop49
280
     0
102
RTVSPost2010PropOp49
 70
     1
102
RTVSPost2010Prop50
 90
       50
102
RTVSPost2010PropOp50
 70
     1
102
RTVSPost2010Prop51ColorIndex
 90
      256
102
RTVSPost2010Prop51ColorRGB
 90
-16777216
102
RTVSPost2010PropOp51
 70
     0
102
RTVSPost2010Prop52
140
1.0
102
RTVSPost2010PropOp52
 70
     0
102
RTVSPost2010Prop53
 90
        2
102
RTVSPost2010PropOp53
 70
     1
102
RTVSPost2010Prop54
  1
strokes_ogs.tif
102
RTVSPost2010PropOp54
 70
     1
102
RTVSPost2010Prop55
280
     0
102
RTVSPost2010PropOp55
 70
     1
102
RTVSPost2010Prop56
140
1.0
102
RTVSPost2010PropOp56
 70
     1
102
RTVSPost2010Prop57
140
1.0
102
RTVSPost2010PropOp57
 70
     1
  0
XRECORD
  5
372
102
{ACAD_REACTORS
330
371
102
}
330
371
100
AcDbXrecord
280
     1
102
RTVSPropertyOp0
 70
     1
102
RTVSPropertyOp1
 70
     1
102
RTVSPropertyOp2
 70
     1
102
RTVSPropertyOp3
 70
     1
102
RTVSPropertyOp4
 70
     1
102
RTVSPropertyOp5
 70
     1
102
RTVSPropertyOp6
 70
     1
102
RTVSPropertyOp7
 70
     1
102
RTVSPropertyOp8
 70
     1
102
RTVSPropertyOp9
 70
     1
102
RTVSPropertyOp10
 70
     1
102
RTVSPropertyOp11
 70
     1
102
RTVSPropertyOp12
 70
     1
102
RTVSPropertyOp13
 70
     1
102
RTVSPropertyOp14
 70
     1
102
RTVSPropertyOp15
 70
     1
102
RTVSPropertyOp16
 70
     1
102
RTVSPropertyOp17
 70
     1
102
RTVSPropertyOp18
 70
     1
102
RTVSPropertyOp19
 70
     1
102
RTVSPropertyOp20
 70
     1
102
RTVSPropertyOp21
 70
     1
102
RTVSPropertyOp22
 70
     1
102
RTVSPropertyOp23
 70
     1
102
RTVSPropertyOp24
 70
     1
102
RTVSPropertyOp25
 70
     1
102
RTVSPropertyOp26
 70
     1
102
RTVSPropertyOp27
 70
     1
102
RTVSPropertyOp28
 70
     1
102
RTVSPropertyOp29
 70
     1
102
RTVSPropertyOp30
 70
     1
102
RTVSPropertyOp31
 70
     1
102
RTVSPropertyOp32
 70
     1
102
RTVSPropertyOp33
 70
     1
102
RTVSPropertyOp34
 70
     1
102
RTVSPropertyOp35
 70
     1
102
RTVSPropertyOp36
 70
     1
102
RTVSPropertyOp37
 70
     1
102
RTVSPropertyOp38
 70
     1
102
RTVSPropertyOp39
 70
     1
102
RTVSPropertyOp40
 70
     1
102
RTVSPropertyOp41
 70
     1
102
RTVSPropertyOp42
 70
     1
102
RTVSPropertyOp43
 70
     1
102
RTVSPropertyOp44
 70
     1
102
RTVSPropertyOp45
 70
     1
102
RTVSPropertyOp46
 70
     1
102
RTVSPropertyOp47
 70
     1
102
RTVSPropertyOp48
 70
     1
102
RTVSPropertyOp49
 70
     1
102
RTVSPropertyOp50
 70
     1
102
RTVSPropertyOp51
 70
     0
102
RTVSPropertyOp52
 70
     0
102
RTVSPropertyOp53
 70
     1
102
RTVSPropertyOp54
 70
     1
102
RTVSPropertyOp55
 70
     1
102
RTVSPropertyOp56
 70
     1
102
RTVSPropertyOp57
 70
     1
102
RTVSPost2010Prop28
280
     0
102
RTVSPost2010PropOp28
 70
     1
102
RTVSPost2010Prop29
280
     1
102
RTVSPost2010PropOp29
 70
     1
102
RTVSPost2010Prop30
280
     1
102
RTVSPost2010PropOp30
 70
     1
102
RTVSPost2010Prop31
280
     0
102
RTVSPost2010PropOp31
 70
     1
102
RTVSPost2010Prop32
280
     0
102
RTVSPost2010PropOp32
 70
     1
102
RTVSPost2010Prop33
280
     0
102
RTVSPost2010PropOp33
 70
     1
102
RTVSPost2010Prop34
280
     0
102
RTVSPost2010PropOp34
 70
     1
102
RTVSPost2010Prop35
280
     0
102
RTVSPost2010PropOp35
 70
     1
102
RTVSPost2010Prop36
280
     0
102
RTVSPost2010PropOp36
 70
     1
102
RTVSPost2010Prop37
 90
       50
102
RTVSPost2010PropOp37
 70
     1
102
RTVSPost2010Prop38
140
0.0
102
RTVSPost2010PropOp38
 70
     1
102
RTVSPost2010Prop39
140
1.0
102
RTVSPost2010PropOp39
 70
     1
102
RTVSPost2010Prop40
 90
        0
102
RTVSPost2010PropOp40
 70
     1
102
RTVSPost2010Prop41ColorIndex
 90
       18
102
RTVSPost2010Prop41ColorRGB
 90
        0
102
RTVSPost2010PropOp41
 70
     1
102
RTVSPost2010Prop42
 90
       50
102
RTVSPost2010PropOp42
 70
     1
102
RTVSPost2010Prop43
 90
        3
102
RTVSPost2010PropOp43
 70
     1
102
RTVSPost2010Prop44ColorIndex
 90
        5
102
RTVSPost2010Prop44ColorRGB
 90
      255
102
RTVSPost2010PropOp44
 70
     1
102
RTVSPost2010Prop45
280
     0
102
RTVSPost2010PropOp45
 70
     1
102
RTVSPost2010Prop46
 90
       50
102
RTVSPost2010PropOp46
 70
     1
102
RTVSPost2010Prop47
 90
       50
102
RTVSPost2010PropOp47
 70
     1
102
RTVSPost2010Prop48
 90
       50
102
RTVSPost2010PropOp48
 70
     1
102
RTVSPost2010Prop49
280
     0
102
RTVSPost2010PropOp49
 70
     1
102
RTVSPost2010Prop50
 90
       50
102
RTVSPost2010PropOp50
 70
     1
102
RTVSPost2010Prop51ColorIndex
 90
      256
102
RTVSPost2010Prop51ColorRGB
 90
-16777216
102
RTVSPost2010PropOp51
 70
     0
102
RTVSPost2010Prop52
140
1.0
102
RTVSPost2010PropOp52
 70
     0
102
RTVSPost2010Prop53
 90
        2
102
RTVSPost2010PropOp53
 70
     1
102
RTVSPost2010Prop54
  1
strokes_ogs.tif
102
RTVSPost2010PropOp54
 70
     1
102
RTVSPost2010Prop55
280
     0
102
RTVSPost2010PropOp55
 70
     1
102
RTVSPost2010Prop56
140
1.0
102
RTVSPost2010PropOp56
 70
     1
102
RTVSPost2010Prop57
140
1.0
102
RTVSPost2010PropOp57
 70
     1
  0
XRECORD
  5
356
102
{ACAD_REACTORS
330
355
102
}
330
355
100
AcDbXrecord
280
     1
102
RTVSPropertyOp0
 70
     1
102
RTVSPropertyOp1
 70
     1
102
RTVSPropertyOp2
 70
     1
102
RTVSPropertyOp3
 70
     1
102
RTVSPropertyOp4
 70
     1
102
RTVSPropertyOp5
 70
     1
102
RTVSPropertyOp6
 70
     1
102
RTVSPropertyOp7
 70
     1
102
RTVSPropertyOp8
 70
     1
102
RTVSPropertyOp9
 70
     1
102
RTVSPropertyOp10
 70
     1
102
RTVSPropertyOp11
 70
     1
102
RTVSPropertyOp12
 70
     1
102
RTVSPropertyOp13
 70
     1
102
RTVSPropertyOp14
 70
     1
102
RTVSPropertyOp15
 70
     1
102
RTVSPropertyOp16
 70
     1
102
RTVSPropertyOp17
 70
     1
102
RTVSPropertyOp18
 70
     1
102
RTVSPropertyOp19
 70
     1
102
RTVSPropertyOp20
 70
     1
102
RTVSPropertyOp21
 70
     1
102
RTVSPropertyOp22
 70
     1
102
RTVSPropertyOp23
 70
     1
102
RTVSPropertyOp24
 70
     1
102
RTVSPropertyOp25
 70
     1
102
RTVSPropertyOp26
 70
     1
102
RTVSPropertyOp27
 70
     1
102
RTVSPropertyOp28
 70
     1
102
RTVSPropertyOp29
 70
     1
102
RTVSPropertyOp30
 70
     1
102
RTVSPropertyOp31
 70
     1
102
RTVSPropertyOp32
 70
     1
102
RTVSPropertyOp33
 70
     1
102
RTVSPropertyOp34
 70
     1
102
RTVSPropertyOp35
 70
     1
102
RTVSPropertyOp36
 70
     1
102
RTVSPropertyOp37
 70
     1
102
RTVSPropertyOp38
 70
     1
102
RTVSPropertyOp39
 70
     1
102
RTVSPropertyOp40
 70
     1
102
RTVSPropertyOp41
 70
     1
102
RTVSPropertyOp42
 70
     1
102
RTVSPropertyOp43
 70
     1
102
RTVSPropertyOp44
 70
     1
102
RTVSPropertyOp45
 70
     1
102
RTVSPropertyOp46
 70
     1
102
RTVSPropertyOp47
 70
     1
102
RTVSPropertyOp48
 70
     1
102
RTVSPropertyOp49
 70
     1
102
RTVSPropertyOp50
 70
     1
102
RTVSPropertyOp51
 70
     0
102
RTVSPropertyOp52
 70
     0
102
RTVSPropertyOp53
 70
     1
102
RTVSPropertyOp54
 70
     1
102
RTVSPropertyOp55
 70
     1
102
RTVSPropertyOp56
 70
     1
102
RTVSPropertyOp57
 70
     1
102
RTVSPost2010Prop28
280
     0
102
RTVSPost2010PropOp28
 70
     1
102
RTVSPost2010Prop29
280
     1
102
RTVSPost2010PropOp29
 70
     1
102
RTVSPost2010Prop30
280
     1
102
RTVSPost2010PropOp30
 70
     1
102
RTVSPost2010Prop31
280
     0
102
RTVSPost2010PropOp31
 70
     1
102
RTVSPost2010Prop32
280
     0
102
RTVSPost2010PropOp32
 70
     1
102
RTVSPost2010Prop33
280
     0
102
RTVSPost2010PropOp33
 70
     1
102
RTVSPost2010Prop34
280
     0
102
RTVSPost2010PropOp34
 70
     1
102
RTVSPost2010Prop35
280
     0
102
RTVSPost2010PropOp35
 70
     1
102
RTVSPost2010Prop36
280
     0
102
RTVSPost2010PropOp36
 70
     1
102
RTVSPost2010Prop37
 90
       50
102
RTVSPost2010PropOp37
 70
     1
102
RTVSPost2010Prop38
140
0.0
102
RTVSPost2010PropOp38
 70
     1
102
RTVSPost2010Prop39
140
1.0
102
RTVSPost2010PropOp39
 70
     1
102
RTVSPost2010Prop40
 90
        0
102
RTVSPost2010PropOp40
 70
     1
102
RTVSPost2010Prop41ColorIndex
 90
       18
102
RTVSPost2010Prop41ColorRGB
 90
        0
102
RTVSPost2010PropOp41
 70
     1
102
RTVSPost2010Prop42
 90
       50
102
RTVSPost2010PropOp42
 70
     1
102
RTVSPost2010Prop43
 90
        3
102
RTVSPost2010PropOp43
 70
     1
102
RTVSPost2010Prop44ColorIndex
 90
        5
102
RTVSPost2010Prop44ColorRGB
 90
      255
102
RTVSPost2010PropOp44
 70
     1
102
RTVSPost2010Prop45
280
     0
102
RTVSPost2010PropOp45
 70
     1
102
RTVSPost2010Prop46
 90
       50
102
RTVSPost2010PropOp46
 70
     1
102
RTVSPost2010Prop47
 90
       50
102
RTVSPost2010PropOp47
 70
     1
102
RTVSPost2010Prop48
 90
       50
102
RTVSPost2010PropOp48
 70
     1
102
RTVSPost2010Prop49
280
     0
102
RTVSPost2010PropOp49
 70
     1
102
RTVSPost2010Prop50
 90
       50
102
RTVSPost2010PropOp50
 70
     1
102
RTVSPost2010Prop51ColorIndex
 90
      256
102
RTVSPost2010Prop51ColorRGB
 90
-16777216
102
RTVSPost2010PropOp51
 70
     0
102
RTVSPost2010Prop52
140
1.0
102
RTVSPost2010PropOp52
 70
     0
102
RTVSPost2010Prop53
 90
        2
102
RTVSPost2010PropOp53
 70
     1
102
RTVSPost2010Prop54
  1
strokes_ogs.tif
102
RTVSPost2010PropOp54
 70
     1
102
RTVSPost2010Prop55
280
     0
102
RTVSPost2010PropOp55
 70
     1
102
RTVSPost2010Prop56
140
1.0
102
RTVSPost2010PropOp56
 70
     1
102
RTVSPost2010Prop57
140
1.0
102
RTVSPost2010PropOp57
 70
     1
  0
XRECORD
  5
358
102
{ACAD_REACTORS
330
357
102
}
330
357
100
AcDbXrecord
280
     1
102
RTVSPropertyOp0
 70
     1
102
RTVSPropertyOp1
 70
     1
102
RTVSPropertyOp2
 70
     1
102
RTVSPropertyOp3
 70
     1
102
RTVSPropertyOp4
 70
     1
102
RTVSPropertyOp5
 70
     1
102
RTVSPropertyOp6
 70
     1
102
RTVSPropertyOp7
 70
     1
102
RTVSPropertyOp8
 70
     1
102
RTVSPropertyOp9
 70
     1
102
RTVSPropertyOp10
 70
     1
102
RTVSPropertyOp11
 70
     1
102
RTVSPropertyOp12
 70
     1
102
RTVSPropertyOp13
 70
     1
102
RTVSPropertyOp14
 70
     1
102
RTVSPropertyOp15
 70
     1
102
RTVSPropertyOp16
 70
     1
102
RTVSPropertyOp17
 70
     1
102
RTVSPropertyOp18
 70
     1
102
RTVSPropertyOp19
 70
     1
102
RTVSPropertyOp20
 70
     1
102
RTVSPropertyOp21
 70
     1
102
RTVSPropertyOp22
 70
     1
102
RTVSPropertyOp23
 70
     1
102
RTVSPropertyOp24
 70
     1
102
RTVSPropertyOp25
 70
     1
102
RTVSPropertyOp26
 70
     1
102
RTVSPropertyOp27
 70
     1
102
RTVSPropertyOp28
 70
     1
102
RTVSPropertyOp29
 70
     1
102
RTVSPropertyOp30
 70
     1
102
RTVSPropertyOp31
 70
     1
102
RTVSPropertyOp32
 70
     1
102
RTVSPropertyOp33
 70
     1
102
RTVSPropertyOp34
 70
     1
102
RTVSPropertyOp35
 70
     1
102
RTVSPropertyOp36
 70
     1
102
RTVSPropertyOp37
 70
     1
102
RTVSPropertyOp38
 70
     1
102
RTVSPropertyOp39
 70
     1
102
RTVSPropertyOp40
 70
     1
102
RTVSPropertyOp41
 70
     1
102
RTVSPropertyOp42
 70
     1
102
RTVSPropertyOp43
 70
     1
102
RTVSPropertyOp44
 70
     1
102
RTVSPropertyOp45
 70
     1
102
RTVSPropertyOp46
 70
     1
102
RTVSPropertyOp47
 70
     1
102
RTVSPropertyOp48
 70
     1
102
RTVSPropertyOp49
 70
     1
102
RTVSPropertyOp50
 70
     1
102
RTVSPropertyOp51
 70
     0
102
RTVSPropertyOp52
 70
     0
102
RTVSPropertyOp53
 70
     1
102
RTVSPropertyOp54
 70
     1
102
RTVSPropertyOp55
 70
     1
102
RTVSPropertyOp56
 70
     1
102
RTVSPropertyOp57
 70
     1
102
RTVSPost2010Prop28
280
     0
102
RTVSPost2010PropOp28
 70
     1
102
RTVSPost2010Prop29
280
     1
102
RTVSPost2010PropOp29
 70
     1
102
RTVSPost2010Prop30
280
     1
102
RTVSPost2010PropOp30
 70
     1
102
RTVSPost2010Prop31
280
     0
102
RTVSPost2010PropOp31
 70
     1
102
RTVSPost2010Prop32
280
     0
102
RTVSPost2010PropOp32
 70
     1
102
RTVSPost2010Prop33
280
     0
102
RTVSPost2010PropOp33
 70
     1
102
RTVSPost2010Prop34
280
     0
102
RTVSPost2010PropOp34
 70
     1
102
RTVSPost2010Prop35
280
     0
102
RTVSPost2010PropOp35
 70
     1
102
RTVSPost2010Prop36
280
     0
102
RTVSPost2010PropOp36
 70
     1
102
RTVSPost2010Prop37
 90
       50
102
RTVSPost2010PropOp37
 70
     1
102
RTVSPost2010Prop38
140
0.0
102
RTVSPost2010PropOp38
 70
     1
102
RTVSPost2010Prop39
140
1.0
102
RTVSPost2010PropOp39
 70
     1
102
RTVSPost2010Prop40
 90
        0
102
RTVSPost2010PropOp40
 70
     1
102
RTVSPost2010Prop41ColorIndex
 90
       18
102
RTVSPost2010Prop41ColorRGB
 90
        0
102
RTVSPost2010PropOp41
 70
     1
102
RTVSPost2010Prop42
 90
       50
102
RTVSPost2010PropOp42
 70
     1
102
RTVSPost2010Prop43
 90
        3
102
RTVSPost2010PropOp43
 70
     1
102
RTVSPost2010Prop44ColorIndex
 90
        5
102
RTVSPost2010Prop44ColorRGB
 90
      255
102
RTVSPost2010PropOp44
 70
     1
102
RTVSPost2010Prop45
280
     0
102
RTVSPost2010PropOp45
 70
     1
102
RTVSPost2010Prop46
 90
       50
102
RTVSPost2010PropOp46
 70
     1
102
RTVSPost2010Prop47
 90
       50
102
RTVSPost2010PropOp47
 70
     1
102
RTVSPost2010Prop48
 90
       50
102
RTVSPost2010PropOp48
 70
     1
102
RTVSPost2010Prop49
280
     0
102
RTVSPost2010PropOp49
 70
     1
102
RTVSPost2010Prop50
 90
       50
102
RTVSPost2010PropOp50
 70
     1
102
RTVSPost2010Prop51ColorIndex
 90
      256
102
RTVSPost2010Prop51ColorRGB
 90
-16777216
102
RTVSPost2010PropOp51
 70
     0
102
RTVSPost2010Prop52
140
1.0
102
RTVSPost2010PropOp52
 70
     0
102
RTVSPost2010Prop53
 90
        2
102
RTVSPost2010PropOp53
 70
     1
102
RTVSPost2010Prop54
  1
strokes_ogs.tif
102
RTVSPost2010PropOp54
 70
     1
102
RTVSPost2010Prop55
280
     0
102
RTVSPost2010PropOp55
 70
     1
102
RTVSPost2010Prop56
140
1.0
102
RTVSPost2010PropOp56
 70
     1
102
RTVSPost2010Prop57
140
1.0
102
RTVSPost2010PropOp57
 70
     1
  0
XRECORD
  5
35A
102
{ACAD_REACTORS
330
359
102
}
330
359
100
AcDbXrecord
280
     1
102
RTVSPropertyOp0
 70
     1
102
RTVSPropertyOp1
 70
     1
102
RTVSPropertyOp2
 70
     1
102
RTVSPropertyOp3
 70
     1
102
RTVSPropertyOp4
 70
     1
102
RTVSPropertyOp5
 70
     1
102
RTVSPropertyOp6
 70
     1
102
RTVSPropertyOp7
 70
     1
102
RTVSPropertyOp8
 70
     1
102
RTVSPropertyOp9
 70
     1
102
RTVSPropertyOp10
 70
     1
102
RTVSPropertyOp11
 70
     1
102
RTVSPropertyOp12
 70
     1
102
RTVSPropertyOp13
 70
     1
102
RTVSPropertyOp14
 70
     1
102
RTVSPropertyOp15
 70
     1
102
RTVSPropertyOp16
 70
     1
102
RTVSPropertyOp17
 70
     1
102
RTVSPropertyOp18
 70
     1
102
RTVSPropertyOp19
 70
     1
102
RTVSPropertyOp20
 70
     1
102
RTVSPropertyOp21
 70
     1
102
RTVSPropertyOp22
 70
     1
102
RTVSPropertyOp23
 70
     1
102
RTVSPropertyOp24
 70
     1
102
RTVSPropertyOp25
 70
     1
102
RTVSPropertyOp26
 70
     1
102
RTVSPropertyOp27
 70
     1
102
RTVSPropertyOp28
 70
     1
102
RTVSPropertyOp29
 70
     1
102
RTVSPropertyOp30
 70
     1
102
RTVSPropertyOp31
 70
     1
102
RTVSPropertyOp32
 70
     1
102
RTVSPropertyOp33
 70
     1
102
RTVSPropertyOp34
 70
     1
102
RTVSPropertyOp35
 70
     1
102
RTVSPropertyOp36
 70
     1
102
RTVSPropertyOp37
 70
     1
102
RTVSPropertyOp38
 70
     1
102
RTVSPropertyOp39
 70
     1
102
RTVSPropertyOp40
 70
     1
102
RTVSPropertyOp41
 70
     1
102
RTVSPropertyOp42
 70
     1
102
RTVSPropertyOp43
 70
     1
102
RTVSPropertyOp44
 70
     1
102
RTVSPropertyOp45
 70
     1
102
RTVSPropertyOp46
 70
     1
102
RTVSPropertyOp47
 70
     1
102
RTVSPropertyOp48
 70
     1
102
RTVSPropertyOp49
 70
     1
102
RTVSPropertyOp50
 70
     1
102
RTVSPropertyOp51
 70
     0
102
RTVSPropertyOp52
 70
     0
102
RTVSPropertyOp53
 70
     1
102
RTVSPropertyOp54
 70
     1
102
RTVSPropertyOp55
 70
     1
102
RTVSPropertyOp56
 70
     1
102
RTVSPropertyOp57
 70
     1
102
RTVSPost2010Prop28
280
     0
102
RTVSPost2010PropOp28
 70
     1
102
RTVSPost2010Prop29
280
     1
102
RTVSPost2010PropOp29
 70
     1
102
RTVSPost2010Prop30
280
     1
102
RTVSPost2010PropOp30
 70
     1
102
RTVSPost2010Prop31
280
     0
102
RTVSPost2010PropOp31
 70
     1
102
RTVSPost2010Prop32
280
     0
102
RTVSPost2010PropOp32
 70
     1
102
RTVSPost2010Prop33
280
     0
102
RTVSPost2010PropOp33
 70
     1
102
RTVSPost2010Prop34
280
     0
102
RTVSPost2010PropOp34
 70
     1
102
RTVSPost2010Prop35
280
     0
102
RTVSPost2010PropOp35
 70
     1
102
RTVSPost2010Prop36
280
     0
102
RTVSPost2010PropOp36
 70
     1
102
RTVSPost2010Prop37
 90
       50
102
RTVSPost2010PropOp37
 70
     1
102
RTVSPost2010Prop38
140
0.0
102
RTVSPost2010PropOp38
 70
     1
102
RTVSPost2010Prop39
140
1.0
102
RTVSPost2010PropOp39
 70
     1
102
RTVSPost2010Prop40
 90
        0
102
RTVSPost2010PropOp40
 70
     1
102
RTVSPost2010Prop41ColorIndex
 90
       18
102
RTVSPost2010Prop41ColorRGB
 90
        0
102
RTVSPost2010PropOp41
 70
     1
102
RTVSPost2010Prop42
 90
       50
102
RTVSPost2010PropOp42
 70
     1
102
RTVSPost2010Prop43
 90
        3
102
RTVSPost2010PropOp43
 70
     1
102
RTVSPost2010Prop44ColorIndex
 90
        5
102
RTVSPost2010Prop44ColorRGB
 90
      255
102
RTVSPost2010PropOp44
 70
     1
102
RTVSPost2010Prop45
280
     0
102
RTVSPost2010PropOp45
 70
     1
102
RTVSPost2010Prop46
 90
       50
102
RTVSPost2010PropOp46
 70
     1
102
RTVSPost2010Prop47
 90
       50
102
RTVSPost2010PropOp47
 70
     1
102
RTVSPost2010Prop48
 90
       50
102
RTVSPost2010PropOp48
 70
     1
102
RTVSPost2010Prop49
280
     0
102
RTVSPost2010PropOp49
 70
     1
102
RTVSPost2010Prop50
 90
       50
102
RTVSPost2010PropOp50
 70
     1
102
RTVSPost2010Prop51ColorIndex
 90
      256
102
RTVSPost2010Prop51ColorRGB
 90
-16777216
102
RTVSPost2010PropOp51
 70
     0
102
RTVSPost2010Prop52
140
1.0
102
RTVSPost2010PropOp52
 70
     0
102
RTVSPost2010Prop53
 90
        2
102
RTVSPost2010PropOp53
 70
     1
102
RTVSPost2010Prop54
  1
strokes_ogs.tif
102
RTVSPost2010PropOp54
 70
     1
102
RTVSPost2010Prop55
280
     0
102
RTVSPost2010PropOp55
 70
     1
102
RTVSPost2010Prop56
140
1.0
102
RTVSPost2010PropOp56
 70
     1
102
RTVSPost2010Prop57
140
1.0
102
RTVSPost2010PropOp57
 70
     1
  0
XRECORD
  5
35C
102
{ACAD_REACTORS
330
35B
102
}
330
35B
100
AcDbXrecord
280
     1
102
RTVSPropertyOp0
 70
     1
102
RTVSPropertyOp1
 70
     1
102
RTVSPropertyOp2
 70
     1
102
RTVSPropertyOp3
 70
     1
102
RTVSPropertyOp4
 70
     1
102
RTVSPropertyOp5
 70
     1
102
RTVSPropertyOp6
 70
     1
102
RTVSPropertyOp7
 70
     1
102
RTVSPropertyOp8
 70
     1
102
RTVSPropertyOp9
 70
     1
102
RTVSPropertyOp10
 70
     1
102
RTVSPropertyOp11
 70
     1
102
RTVSPropertyOp12
 70
     1
102
RTVSPropertyOp13
 70
     1
102
RTVSPropertyOp14
 70
     1
102
RTVSPropertyOp15
 70
     1
102
RTVSPropertyOp16
 70
     1
102
RTVSPropertyOp17
 70
     1
102
RTVSPropertyOp18
 70
     1
102
RTVSPropertyOp19
 70
     1
102
RTVSPropertyOp20
 70
     1
102
RTVSPropertyOp21
 70
     1
102
RTVSPropertyOp22
 70
     1
102
RTVSPropertyOp23
 70
     1
102
RTVSPropertyOp24
 70
     1
102
RTVSPropertyOp25
 70
     1
102
RTVSPropertyOp26
 70
     1
102
RTVSPropertyOp27
 70
     1
102
RTVSPropertyOp28
 70
     1
102
RTVSPropertyOp29
 70
     1
102
RTVSPropertyOp30
 70
     1
102
RTVSPropertyOp31
 70
     1
102
RTVSPropertyOp32
 70
     1
102
RTVSPropertyOp33
 70
     1
102
RTVSPropertyOp34
 70
     1
102
RTVSPropertyOp35
 70
     1
102
RTVSPropertyOp36
 70
     1
102
RTVSPropertyOp37
 70
     1
102
RTVSPropertyOp38
 70
     1
102
RTVSPropertyOp39
 70
     1
102
RTVSPropertyOp40
 70
     1
102
RTVSPropertyOp41
 70
     1
102
RTVSPropertyOp42
 70
     1
102
RTVSPropertyOp43
 70
     1
102
RTVSPropertyOp44
 70
     1
102
RTVSPropertyOp45
 70
     1
102
RTVSPropertyOp46
 70
     1
102
RTVSPropertyOp47
 70
     1
102
RTVSPropertyOp48
 70
     1
102
RTVSPropertyOp49
 70
     1
102
RTVSPropertyOp50
 70
     1
102
RTVSPropertyOp51
 70
     0
102
RTVSPropertyOp52
 70
     0
102
RTVSPropertyOp53
 70
     1
102
RTVSPropertyOp54
 70
     1
102
RTVSPropertyOp55
 70
     1
102
RTVSPropertyOp56
 70
     1
102
RTVSPropertyOp57
 70
     1
102
RTVSPost2010Prop28
280
     0
102
RTVSPost2010PropOp28
 70
     1
102
RTVSPost2010Prop29
280
     1
102
RTVSPost2010PropOp29
 70
     1
102
RTVSPost2010Prop30
280
     1
102
RTVSPost2010PropOp30
 70
     1
102
RTVSPost2010Prop31
280
     0
102
RTVSPost2010PropOp31
 70
     1
102
RTVSPost2010Prop32
280
     0
102
RTVSPost2010PropOp32
 70
     1
102
RTVSPost2010Prop33
280
     0
102
RTVSPost2010PropOp33
 70
     1
102
RTVSPost2010Prop34
280
     0
102
RTVSPost2010PropOp34
 70
     1
102
RTVSPost2010Prop35
280
     0
102
RTVSPost2010PropOp35
 70
     1
102
RTVSPost2010Prop36
280
     0
102
RTVSPost2010PropOp36
 70
     1
102
RTVSPost2010Prop37
 90
       50
102
RTVSPost2010PropOp37
 70
     1
102
RTVSPost2010Prop38
140
0.0
102
RTVSPost2010PropOp38
 70
     1
102
RTVSPost2010Prop39
140
1.0
102
RTVSPost2010PropOp39
 70
     1
102
RTVSPost2010Prop40
 90
        0
102
RTVSPost2010PropOp40
 70
     1
102
RTVSPost2010Prop41ColorIndex
 90
       18
102
RTVSPost2010Prop41ColorRGB
 90
        0
102
RTVSPost2010PropOp41
 70
     1
102
RTVSPost2010Prop42
 90
       50
102
RTVSPost2010PropOp42
 70
     1
102
RTVSPost2010Prop43
 90
        3
102
RTVSPost2010PropOp43
 70
     1
102
RTVSPost2010Prop44ColorIndex
 90
        5
102
RTVSPost2010Prop44ColorRGB
 90
      255
102
RTVSPost2010PropOp44
 70
     1
102
RTVSPost2010Prop45
280
     0
102
RTVSPost2010PropOp45
 70
     1
102
RTVSPost2010Prop46
 90
       50
102
RTVSPost2010PropOp46
 70
     1
102
RTVSPost2010Prop47
 90
       50
102
RTVSPost2010PropOp47
 70
     1
102
RTVSPost2010Prop48
 90
       50
102
RTVSPost2010PropOp48
 70
     1
102
RTVSPost2010Prop49
280
     0
102
RTVSPost2010PropOp49
 70
     1
102
RTVSPost2010Prop50
 90
       50
102
RTVSPost2010PropOp50
 70
     1
102
RTVSPost2010Prop51ColorIndex
 90
      256
102
RTVSPost2010Prop51ColorRGB
 90
-16777216
102
RTVSPost2010PropOp51
 70
     0
102
RTVSPost2010Prop52
140
1.0
102
RTVSPost2010PropOp52
 70
     0
102
RTVSPost2010Prop53
 90
        2
102
RTVSPost2010PropOp53
 70
     1
102
RTVSPost2010Prop54
  1
strokes_ogs.tif
102
RTVSPost2010PropOp54
 70
     1
102
RTVSPost2010Prop55
280
     0
102
RTVSPost2010PropOp55
 70
     1
102
RTVSPost2010Prop56
140
1.0
102
RTVSPost2010PropOp56
 70
     1
102
RTVSPost2010Prop57
140
1.0
102
RTVSPost2010PropOp57
 70
     1
  0
XRECORD
  5
370
102
{ACAD_REACTORS
330
36F
102
}
330
36F
100
AcDbXrecord
280
     1
102
RTVSPropertyOp0
 70
     1
102
RTVSPropertyOp1
 70
     1
102
RTVSPropertyOp2
 70
     1
102
RTVSPropertyOp3
 70
     1
102
RTVSPropertyOp4
 70
     1
102
RTVSPropertyOp5
 70
     1
102
RTVSPropertyOp6
 70
     1
102
RTVSPropertyOp7
 70
     1
102
RTVSPropertyOp8
 70
     1
102
RTVSPropertyOp9
 70
     1
102
RTVSPropertyOp10
 70
     1
102
RTVSPropertyOp11
 70
     1
102
RTVSPropertyOp12
 70
     1
102
RTVSPropertyOp13
 70
     1
102
RTVSPropertyOp14
 70
     1
102
RTVSPropertyOp15
 70
     1
102
RTVSPropertyOp16
 70
     1
102
RTVSPropertyOp17
 70
     1
102
RTVSPropertyOp18
 70
     1
102
RTVSPropertyOp19
 70
     1
102
RTVSPropertyOp20
 70
     1
102
RTVSPropertyOp21
 70
     1
102
RTVSPropertyOp22
 70
     1
102
RTVSPropertyOp23
 70
     1
102
RTVSPropertyOp24
 70
     1
102
RTVSPropertyOp25
 70
     1
102
RTVSPropertyOp26
 70
     1
102
RTVSPropertyOp27
 70
     1
102
RTVSPropertyOp28
 70
     1
102
RTVSPropertyOp29
 70
     1
102
RTVSPropertyOp30
 70
     1
102
RTVSPropertyOp31
 70
     1
102
RTVSPropertyOp32
 70
     1
102
RTVSPropertyOp33
 70
     1
102
RTVSPropertyOp34
 70
     1
102
RTVSPropertyOp35
 70
     1
102
RTVSPropertyOp36
 70
     1
102
RTVSPropertyOp37
 70
     1
102
RTVSPropertyOp38
 70
     1
102
RTVSPropertyOp39
 70
     1
102
RTVSPropertyOp40
 70
     1
102
RTVSPropertyOp41
 70
     1
102
RTVSPropertyOp42
 70
     1
102
RTVSPropertyOp43
 70
     1
102
RTVSPropertyOp44
 70
     1
102
RTVSPropertyOp45
 70
     1
102
RTVSPropertyOp46
 70
     1
102
RTVSPropertyOp47
 70
     1
102
RTVSPropertyOp48
 70
     1
102
RTVSPropertyOp49
 70
     1
102
RTVSPropertyOp50
 70
     1
102
RTVSPropertyOp51
 70
     0
102
RTVSPropertyOp52
 70
     0
102
RTVSPropertyOp53
 70
     1
102
RTVSPropertyOp54
 70
     1
102
RTVSPropertyOp55
 70
     1
102
RTVSPropertyOp56
 70
     1
102
RTVSPropertyOp57
 70
     1
102
RTVSPost2010Prop28
280
     0
102
RTVSPost2010PropOp28
 70
     1
102
RTVSPost2010Prop29
280
     1
102
RTVSPost2010PropOp29
 70
     1
102
RTVSPost2010Prop30
280
     1
102
RTVSPost2010PropOp30
 70
     1
102
RTVSPost2010Prop31
280
     0
102
RTVSPost2010PropOp31
 70
     1
102
RTVSPost2010Prop32
280
     0
102
RTVSPost2010PropOp32
 70
     1
102
RTVSPost2010Prop33
280
     0
102
RTVSPost2010PropOp33
 70
     1
102
RTVSPost2010Prop34
280
     0
102
RTVSPost2010PropOp34
 70
     1
102
RTVSPost2010Prop35
280
     0
102
RTVSPost2010PropOp35
 70
     1
102
RTVSPost2010Prop36
280
     0
102
RTVSPost2010PropOp36
 70
     1
102
RTVSPost2010Prop37
 90
       50
102
RTVSPost2010PropOp37
 70
     1
102
RTVSPost2010Prop38
140
0.0
102
RTVSPost2010PropOp38
 70
     1
102
RTVSPost2010Prop39
140
1.0
102
RTVSPost2010PropOp39
 70
     1
102
RTVSPost2010Prop40
 90
        0
102
RTVSPost2010PropOp40
 70
     1
102
RTVSPost2010Prop41ColorIndex
 90
       18
102
RTVSPost2010Prop41ColorRGB
 90
        0
102
RTVSPost2010PropOp41
 70
     1
102
RTVSPost2010Prop42
 90
       50
102
RTVSPost2010PropOp42
 70
     1
102
RTVSPost2010Prop43
 90
        3
102
RTVSPost2010PropOp43
 70
     1
102
RTVSPost2010Prop44ColorIndex
 90
        5
102
RTVSPost2010Prop44ColorRGB
 90
      255
102
RTVSPost2010PropOp44
 70
     1
102
RTVSPost2010Prop45
280
     0
102
RTVSPost2010PropOp45
 70
     1
102
RTVSPost2010Prop46
 90
       50
102
RTVSPost2010PropOp46
 70
     1
102
RTVSPost2010Prop47
 90
       50
102
RTVSPost2010PropOp47
 70
     1
102
RTVSPost2010Prop48
 90
       50
102
RTVSPost2010PropOp48
 70
     1
102
RTVSPost2010Prop49
280
     0
102
RTVSPost2010PropOp49
 70
     1
102
RTVSPost2010Prop50
 90
       50
102
RTVSPost2010PropOp50
 70
     1
102
RTVSPost2010Prop51ColorIndex
 90
      256
102
RTVSPost2010Prop51ColorRGB
 90
-16777216
102
RTVSPost2010PropOp51
 70
     0
102
RTVSPost2010Prop52
140
1.0
102
RTVSPost2010PropOp52
 70
     0
102
RTVSPost2010Prop53
 90
        2
102
RTVSPost2010PropOp53
 70
     1
102
RTVSPost2010Prop54
  1
strokes_ogs.tif
102
RTVSPost2010PropOp54
 70
     1
102
RTVSPost2010Prop55
280
     0
102
RTVSPost2010PropOp55
 70
     1
102
RTVSPost2010Prop56
140
1.0
102
RTVSPost2010PropOp56
 70
     1
102
RTVSPost2010Prop57
140
1.0
102
RTVSPost2010PropOp57
 70
     1
  0
XRECORD
  5
366
102
{ACAD_REACTORS
330
365
102
}
330
365
100
AcDbXrecord
280
     1
102
RTVSPropertyOp0
 70
     1
102
RTVSPropertyOp1
 70
     1
102
RTVSPropertyOp2
 70
     1
102
RTVSPropertyOp3
 70
     1
102
RTVSPropertyOp4
 70
     1
102
RTVSPropertyOp5
 70
     1
102
RTVSPropertyOp6
 70
     1
102
RTVSPropertyOp7
 70
     1
102
RTVSPropertyOp8
 70
     1
102
RTVSPropertyOp9
 70
     1
102
RTVSPropertyOp10
 70
     1
102
RTVSPropertyOp11
 70
     1
102
RTVSPropertyOp12
 70
     1
102
RTVSPropertyOp13
 70
     1
102
RTVSPropertyOp14
 70
     1
102
RTVSPropertyOp15
 70
     1
102
RTVSPropertyOp16
 70
     1
102
RTVSPropertyOp17
 70
     1
102
RTVSPropertyOp18
 70
     1
102
RTVSPropertyOp19
 70
     1
102
RTVSPropertyOp20
 70
     1
102
RTVSPropertyOp21
 70
     1
102
RTVSPropertyOp22
 70
     1
102
RTVSPropertyOp23
 70
     1
102
RTVSPropertyOp24
 70
     1
102
RTVSPropertyOp25
 70
     1
102
RTVSPropertyOp26
 70
     1
102
RTVSPropertyOp27
 70
     1
102
RTVSPropertyOp28
 70
     1
102
RTVSPropertyOp29
 70
     1
102
RTVSPropertyOp30
 70
     1
102
RTVSPropertyOp31
 70
     1
102
RTVSPropertyOp32
 70
     1
102
RTVSPropertyOp33
 70
     1
102
RTVSPropertyOp34
 70
     1
102
RTVSPropertyOp35
 70
     1
102
RTVSPropertyOp36
 70
     1
102
RTVSPropertyOp37
 70
     1
102
RTVSPropertyOp38
 70
     1
102
RTVSPropertyOp39
 70
     1
102
RTVSPropertyOp40
 70
     1
102
RTVSPropertyOp41
 70
     1
102
RTVSPropertyOp42
 70
     1
102
RTVSPropertyOp43
 70
     1
102
RTVSPropertyOp44
 70
     1
102
RTVSPropertyOp45
 70
     1
102
RTVSPropertyOp46
 70
     1
102
RTVSPropertyOp47
 70
     1
102
RTVSPropertyOp48
 70
     1
102
RTVSPropertyOp49
 70
     1
102
RTVSPropertyOp50
 70
     1
102
RTVSPropertyOp51
 70
     0
102
RTVSPropertyOp52
 70
     0
102
RTVSPropertyOp53
 70
     1
102
RTVSPropertyOp54
 70
     1
102
RTVSPropertyOp55
 70
     1
102
RTVSPropertyOp56
 70
     1
102
RTVSPropertyOp57
 70
     1
102
RTVSPost2010Prop28
280
     0
102
RTVSPost2010PropOp28
 70
     1
102
RTVSPost2010Prop29
280
     1
102
RTVSPost2010PropOp29
 70
     1
102
RTVSPost2010Prop30
280
     1
102
RTVSPost2010PropOp30
 70
     1
102
RTVSPost2010Prop31
280
     0
102
RTVSPost2010PropOp31
 70
     1
102
RTVSPost2010Prop32
280
     0
102
RTVSPost2010PropOp32
 70
     1
102
RTVSPost2010Prop33
280
     0
102
RTVSPost2010PropOp33
 70
     1
102
RTVSPost2010Prop34
280
     0
102
RTVSPost2010PropOp34
 70
     1
102
RTVSPost2010Prop35
280
     0
102
RTVSPost2010PropOp35
 70
     1
102
RTVSPost2010Prop36
280
     0
102
RTVSPost2010PropOp36
 70
     1
102
RTVSPost2010Prop37
 90
       50
102
RTVSPost2010PropOp37
 70
     1
102
RTVSPost2010Prop38
140
0.0
102
RTVSPost2010PropOp38
 70
     1
102
RTVSPost2010Prop39
140
1.0
102
RTVSPost2010PropOp39
 70
     1
102
RTVSPost2010Prop40
 90
        0
102
RTVSPost2010PropOp40
 70
     1
102
RTVSPost2010Prop41ColorIndex
 90
       18
102
RTVSPost2010Prop41ColorRGB
 90
        0
102
RTVSPost2010PropOp41
 70
     1
102
RTVSPost2010Prop42
 90
       50
102
RTVSPost2010PropOp42
 70
     1
102
RTVSPost2010Prop43
 90
        3
102
RTVSPost2010PropOp43
 70
     1
102
RTVSPost2010Prop44ColorIndex
 90
        5
102
RTVSPost2010Prop44ColorRGB
 90
      255
102
RTVSPost2010PropOp44
 70
     1
102
RTVSPost2010Prop45
280
     0
102
RTVSPost2010PropOp45
 70
     1
102
RTVSPost2010Prop46
 90
       50
102
RTVSPost2010PropOp46
 70
     1
102
RTVSPost2010Prop47
 90
       50
102
RTVSPost2010PropOp47
 70
     1
102
RTVSPost2010Prop48
 90
       50
102
RTVSPost2010PropOp48
 70
     1
102
RTVSPost2010Prop49
280
     0
102
RTVSPost2010PropOp49
 70
     1
102
RTVSPost2010Prop50
 90
       50
102
RTVSPost2010PropOp50
 70
     1
102
RTVSPost2010Prop51ColorIndex
 90
      256
102
RTVSPost2010Prop51ColorRGB
 90
-16777216
102
RTVSPost2010PropOp51
 70
     0
102
RTVSPost2010Prop52
140
1.0
102
RTVSPost2010PropOp52
 70
     0
102
RTVSPost2010Prop53
 90
        2
102
RTVSPost2010PropOp53
 70
     1
102
RTVSPost2010Prop54
  1
strokes_ogs.tif
102
RTVSPost2010PropOp54
 70
     1
102
RTVSPost2010Prop55
280
     0
102
RTVSPost2010PropOp55
 70
     1
102
RTVSPost2010Prop56
140
1.0
102
RTVSPost2010PropOp56
 70
     1
102
RTVSPost2010Prop57
140
1.0
102
RTVSPost2010PropOp57
 70
     1
  0
XRECORD
  5
36E
102
{ACAD_REACTORS
330
36D
102
}
330
36D
100
AcDbXrecord
280
     1
102
RTVSPropertyOp0
 70
     1
102
RTVSPropertyOp1
 70
     1
102
RTVSPropertyOp2
 70
     1
102
RTVSPropertyOp3
 70
     1
102
RTVSPropertyOp4
 70
     1
102
RTVSPropertyOp5
 70
     1
102
RTVSPropertyOp6
 70
     1
102
RTVSPropertyOp7
 70
     1
102
RTVSPropertyOp8
 70
     1
102
RTVSPropertyOp9
 70
     1
102
RTVSPropertyOp10
 70
     1
102
RTVSPropertyOp11
 70
     1
102
RTVSPropertyOp12
 70
     1
102
RTVSPropertyOp13
 70
     1
102
RTVSPropertyOp14
 70
     1
102
RTVSPropertyOp15
 70
     1
102
RTVSPropertyOp16
 70
     1
102
RTVSPropertyOp17
 70
     1
102
RTVSPropertyOp18
 70
     1
102
RTVSPropertyOp19
 70
     1
102
RTVSPropertyOp20
 70
     1
102
RTVSPropertyOp21
 70
     1
102
RTVSPropertyOp22
 70
     1
102
RTVSPropertyOp23
 70
     1
102
RTVSPropertyOp24
 70
     1
102
RTVSPropertyOp25
 70
     1
102
RTVSPropertyOp26
 70
     1
102
RTVSPropertyOp27
 70
     1
102
RTVSPropertyOp28
 70
     1
102
RTVSPropertyOp29
 70
     1
102
RTVSPropertyOp30
 70
     1
102
RTVSPropertyOp31
 70
     1
102
RTVSPropertyOp32
 70
     1
102
RTVSPropertyOp33
 70
     1
102
RTVSPropertyOp34
 70
     1
102
RTVSPropertyOp35
 70
     1
102
RTVSPropertyOp36
 70
     1
102
RTVSPropertyOp37
 70
     1
102
RTVSPropertyOp38
 70
     1
102
RTVSPropertyOp39
 70
     1
102
RTVSPropertyOp40
 70
     1
102
RTVSPropertyOp41
 70
     1
102
RTVSPropertyOp42
 70
     1
102
RTVSPropertyOp43
 70
     1
102
RTVSPropertyOp44
 70
     1
102
RTVSPropertyOp45
 70
     1
102
RTVSPropertyOp46
 70
     1
102
RTVSPropertyOp47
 70
     1
102
RTVSPropertyOp48
 70
     1
102
RTVSPropertyOp49
 70
     1
102
RTVSPropertyOp50
 70
     1
102
RTVSPropertyOp51
 70
     0
102
RTVSPropertyOp52
 70
     0
102
RTVSPropertyOp53
 70
     1
102
RTVSPropertyOp54
 70
     1
102
RTVSPropertyOp55
 70
     1
102
RTVSPropertyOp56
 70
     1
102
RTVSPropertyOp57
 70
     1
102
RTVSPost2010Prop28
280
     0
102
RTVSPost2010PropOp28
 70
     1
102
RTVSPost2010Prop29
280
     1
102
RTVSPost2010PropOp29
 70
     1
102
RTVSPost2010Prop30
280
     1
102
RTVSPost2010PropOp30
 70
     1
102
RTVSPost2010Prop31
280
     0
102
RTVSPost2010PropOp31
 70
     1
102
RTVSPost2010Prop32
280
     0
102
RTVSPost2010PropOp32
 70
     1
102
RTVSPost2010Prop33
280
     0
102
RTVSPost2010PropOp33
 70
     1
102
RTVSPost2010Prop34
280
     0
102
RTVSPost2010PropOp34
 70
     1
102
RTVSPost2010Prop35
280
     0
102
RTVSPost2010PropOp35
 70
     1
102
RTVSPost2010Prop36
280
     0
102
RTVSPost2010PropOp36
 70
     1
102
RTVSPost2010Prop37
 90
       50
102
RTVSPost2010PropOp37
 70
     1
102
RTVSPost2010Prop38
140
0.0
102
RTVSPost2010PropOp38
 70
     1
102
RTVSPost2010Prop39
140
1.0
102
RTVSPost2010PropOp39
 70
     1
102
RTVSPost2010Prop40
 90
        0
102
RTVSPost2010PropOp40
 70
     1
102
RTVSPost2010Prop41ColorIndex
 90
       18
102
RTVSPost2010Prop41ColorRGB
 90
        0
102
RTVSPost2010PropOp41
 70
     1
102
RTVSPost2010Prop42
 90
       50
102
RTVSPost2010PropOp42
 70
     1
102
RTVSPost2010Prop43
 90
        3
102
RTVSPost2010PropOp43
 70
     1
102
RTVSPost2010Prop44ColorIndex
 90
        5
102
RTVSPost2010Prop44ColorRGB
 90
      255
102
RTVSPost2010PropOp44
 70
     1
102
RTVSPost2010Prop45
280
     0
102
RTVSPost2010PropOp45
 70
     1
102
RTVSPost2010Prop46
 90
       50
102
RTVSPost2010PropOp46
 70
     1
102
RTVSPost2010Prop47
 90
       50
102
RTVSPost2010PropOp47
 70
     1
102
RTVSPost2010Prop48
 90
       50
102
RTVSPost2010PropOp48
 70
     1
102
RTVSPost2010Prop49
280
     0
102
RTVSPost2010PropOp49
 70
     1
102
RTVSPost2010Prop50
 90
       50
102
RTVSPost2010PropOp50
 70
     1
102
RTVSPost2010Prop51ColorIndex
 90
      256
102
RTVSPost2010Prop51ColorRGB
 90
-16777216
102
RTVSPost2010PropOp51
 70
     0
102
RTVSPost2010Prop52
140
1.0
102
RTVSPost2010PropOp52
 70
     0
102
RTVSPost2010Prop53
 90
        2
102
RTVSPost2010PropOp53
 70
     1
102
RTVSPost2010Prop54
  1
strokes_ogs.tif
102
RTVSPost2010PropOp54
 70
     1
102
RTVSPost2010Prop55
280
     0
102
RTVSPost2010PropOp55
 70
     1
102
RTVSPost2010Prop56
140
1.0
102
RTVSPost2010PropOp56
 70
     1
102
RTVSPost2010Prop57
140
1.0
102
RTVSPost2010PropOp57
 70
     1
  0
ENDSEC
  0
EOF
