  0
SECTION
  2
HEADER
  9
$ACADVER
  1
AC1018
  9
$ACADMAINTVER
 70
     0
  9
$DWGCODEPAGE
  3
ANSI_936
  9
$INSBASE
 10
0.0
 20
0.0
 30
0.0
  9
$EXTMIN
 10
-45.94810599180378
 20
397.1148840318078
 30
0.0
  9
$EXTMAX
 10
57.62671757398407
 20
970.8497799333614
 30
0.0
  9
$LIMMIN
 10
0.0
 20
0.0
  9
$LIMMAX
 10
12.0
 20
9.0
  9
$ORTHOMODE
 70
     0
  9
$REGENMODE
 70
     1
  9
$FILLMODE
 70
     1
  9
$QTEXTMODE
 70
     0
  9
$MIRRTEXT
 70
     1
  9
$LTSCALE
 40
1.0
  9
$ATTMODE
 70
     1
  9
$TEXTSIZE
 40
0.2
  9
$TRACEWID
 40
0.05
  9
$TEXTSTYLE
  7
Standard
  9
$CLAYER
  8
0
  9
$CELTYPE
  6
ByLayer
  9
$CECOLOR
 62
   256
  9
$CELTSCALE
 40
1.0
  9
$DISPSILH
 70
     0
  9
$DIMSCALE
 40
1.0
  9
$DIMASZ
 40
0.18
  9
$DIMEXO
 40
0.0625
  9
$DIMDLI
 40
0.38
  9
$DIMRND
 40
0.0
  9
$DIMDLE
 40
0.0
  9
$DIMEXE
 40
0.18
  9
$DIMTP
 40
0.0
  9
$DIMTM
 40
0.0
  9
$DIMTXT
 40
0.18
  9
$DIMCEN
 40
0.09
  9
$DIMTSZ
 40
0.0
  9
$DIMTOL
 70
     0
  9
$DIMLIM
 70
     0
  9
$DIMTIH
 70
     1
  9
$DIMTOH
 70
     1
  9
$DIMSE1
 70
     0
  9
$DIMSE2
 70
     0
  9
$DIMTAD
 70
     0
  9
$DIMZIN
 70
     0
  9
$DIMBLK
  1

  9
$DIMASO
 70
     1
  9
$DIMSHO
 70
     1
  9
$DIMPOST
  1

  9
$DIMAPOST
  1

  9
$DIMALT
 70
     0
  9
$DIMALTD
 70
     2
  9
$DIMALTF
 40
25.4
  9
$DIMLFAC
 40
1.0
  9
$DIMTOFL
 70
     0
  9
$DIMTVP
 40
0.0
  9
$DIMTIX
 70
     0
  9
$DIMSOXD
 70
     0
  9
$DIMSAH
 70
     0
  9
$DIMBLK1
  1

  9
$DIMBLK2
  1

  9
$DIMSTYLE
  2
Standard
  9
$DIMCLRD
 70
     0
  9
$DIMCLRE
 70
     0
  9
$DIMCLRT
 70
     0
  9
$DIMTFAC
 40
1.0
  9
$DIMGAP
 40
0.09
  9
$DIMJUST
 70
     0
  9
$DIMSD1
 70
     0
  9
$DIMSD2
 70
     0
  9
$DIMTOLJ
 70
     1
  9
$DIMTZIN
 70
     0
  9
$DIMALTZ
 70
     0
  9
$DIMALTTZ
 70
     0
  9
$DIMUPT
 70
     0
  9
$DIMDEC
 70
     4
  9
$DIMTDEC
 70
     4
  9
$DIMALTU
 70
     2
  9
$DIMALTTD
 70
     2
  9
$DIMTXSTY
  7
Standard
  9
$DIMAUNIT
 70
     0
  9
$DIMADEC
 70
     0
  9
$DIMALTRND
 40
0.0
  9
$DIMAZIN
 70
     0
  9
$DIMDSEP
 70
    46
  9
$DIMATFIT
 70
     3
  9
$DIMFRAC
 70
     0
  9
$DIMLDRBLK
  1

  9
$DIMLUNIT
 70
     2
  9
$DIMLWD
 70
    -2
  9
$DIMLWE
 70
    -2
  9
$DIMTMOVE
 70
     2
  9
$LUNITS
 70
     2
  9
$LUPREC
 70
     4
  9
$SKETCHINC
 40
0.1
  9
$FILLETRAD
 40
0.5
  9
$AUNITS
 70
     0
  9
$AUPREC
 70
     0
  9
$MENU
  1
.
  9
$ELEVATION
 40
0.0
  9
$PELEVATION
 40
0.0
  9
$THICKNESS
 40
0.0
  9
$LIMCHECK
 70
     0
  9
$CHAMFERA
 40
0.5
  9
$CHAMFERB
 40
0.5
  9
$CHAMFERC
 40
1.0
  9
$CHAMFERD
 40
0.0
  9
$SKPOLY
 70
     0
  9
$TDCREATE
 40
2457809.484999838
  9
$TDUCREATE
 40
2457809.151666505
  9
$TDUPDATE
 40
2457809.485000012
  9
$TDUUPDATE
 40
2457809.151666678
  9
$TDINDWG
 40
0.0000000116
  9
$TDUSRTIMER
 40
0.0000000116
  9
$USRTIMER
 70
     1
  9
$ANGBASE
 50
0.0
  9
$ANGDIR
 70
     0
  9
$PDMODE
 70
     0
  9
$PDSIZE
 40
0.0
  9
$PLINEWID
 40
0.0
  9
$SPLFRAME
 70
     0
  9
$SPLINETYPE
 70
     6
  9
$SPLINESEGS
 70
     8
  9
$HANDSEED
  5
64C
  9
$SURFTAB1
 70
     6
  9
$SURFTAB2
 70
     6
  9
$SURFTYPE
 70
     6
  9
$SURFU
 70
     6
  9
$SURFV
 70
     6
  9
$UCSBASE
  2

  9
$UCSNAME
  2

  9
$UCSORG
 10
0.0
 20
0.0
 30
0.0
  9
$UCSXDIR
 10
1.0
 20
0.0
 30
0.0
  9
$UCSYDIR
 10
0.0
 20
1.0
 30
0.0
  9
$UCSORTHOREF
  2

  9
$UCSORTHOVIEW
 70
     0
  9
$UCSORGTOP
 10
0.0
 20
0.0
 30
0.0
  9
$UCSORGBOTTOM
 10
0.0
 20
0.0
 30
0.0
  9
$UCSORGLEFT
 10
0.0
 20
0.0
 30
0.0
  9
$UCSORGRIGHT
 10
0.0
 20
0.0
 30
0.0
  9
$UCSORGFRONT
 10
0.0
 20
0.0
 30
0.0
  9
$UCSORGBACK
 10
0.0
 20
0.0
 30
0.0
  9
$PUCSBASE
  2

  9
$PUCSNAME
  2

  9
$PUCSORG
 10
0.0
 20
0.0
 30
0.0
  9
$PUCSXDIR
 10
1.0
 20
0.0
 30
0.0
  9
$PUCSYDIR
 10
0.0
 20
1.0
 30
0.0
  9
$PUCSORTHOREF
  2

  9
$PUCSORTHOVIEW
 70
     0
  9
$PUCSORGTOP
 10
0.0
 20
0.0
 30
0.0
  9
$PUCSORGBOTTOM
 10
0.0
 20
0.0
 30
0.0
  9
$PUCSORGLEFT
 10
0.0
 20
0.0
 30
0.0
  9
$PUCSORGRIGHT
 10
0.0
 20
0.0
 30
0.0
  9
$PUCSORGFRONT
 10
0.0
 20
0.0
 30
0.0
  9
$PUCSORGBACK
 10
0.0
 20
0.0
 30
0.0
  9
$USERI1
 70
     0
  9
$USERI2
 70
     0
  9
$USERI3
 70
     0
  9
$USERI4
 70
     0
  9
$USERI5
 70
     0
  9
$USERR1
 40
0.0
  9
$USERR2
 40
0.0
  9
$USERR3
 40
0.0
  9
$USERR4
 40
0.0
  9
$USERR5
 40
0.0
  9
$WORLDVIEW
 70
     1
  9
$SHADEDGE
 70
     3
  9
$SHADEDIF
 70
    70
  9
$TILEMODE
 70
     1
  9
$MAXACTVP
 70
    64
  9
$PINSBASE
 10
0.0
 20
0.0
 30
0.0
  9
$PLIMCHECK
 70
     0
  9
$PEXTMIN
 10
1.000000000000000E+20
 20
1.000000000000000E+20
 30
1.000000000000000E+20
  9
$PEXTMAX
 10
-1.000000000000000E+20
 20
-1.000000000000000E+20
 30
-1.000000000000000E+20
  9
$PLIMMIN
 10
0.0
 20
0.0
  9
$PLIMMAX
 10
12.0
 20
9.0
  9
$UNITMODE
 70
     0
  9
$VISRETAIN
 70
     1
  9
$PLINEGEN
 70
     0
  9
$PSLTSCALE
 70
     1
  9
$TREEDEPTH
 70
  3020
  9
$CMLSTYLE
  2
Standard
  9
$CMLJUST
 70
     0
  9
$CMLSCALE
 40
1.0
  9
$PROXYGRAPHICS
 70
     1
  9
$MEASUREMENT
 70
     0
  9
$CELWEIGHT
370
    -1
  9
$ENDCAPS
280
     0
  9
$JOINSTYLE
280
     0
  9
$LWDISPLAY
290
     0
  9
$INSUNITS
 70
     4
  9
$HYPERLINKBASE
  1

  9
$STYLESHEET
  1

  9
$XEDIT
290
     1
  9
$CEPSNTYPE
380
     0
  9
$PSTYLEMODE
290
     1
  9
$FINGERPRINTGUID
  2
{440FE6C0-97DB-45BD-935A-1D51322650F9}
  9
$VERSIONGUID
  2
{FAEB1C32-E019-11D5-929B-00C0DF256EC4}
  9
$EXTNAMES
290
     1
  9
$PSVPSCALE
 40
0.0
  9
$OLESTARTUP
290
     0
  9
$SORTENTS
280
   127
  9
$INDEXCTL
280
     0
  9
$HIDETEXT
280
     1
  9
$XCLIPFRAME
290
     0
  9
$HALOGAP
280
     0
  9
$OBSCOLOR
 70
   257
  9
$OBSLTYPE
280
     0
  9
$INTERSECTIONDISPLAY
280
     0
  9
$INTERSECTIONCOLOR
 70
   257
  9
$DIMASSOC
280
     2
  9
$PROJECTNAME
  1

  0
ENDSEC
  0
SECTION
  2
CLASSES
  0
CLASS
  1
ACDBDICTIONARYWDFLT
  2
AcDbDictionaryWithDefault
  3
ObjectDBX Classes
 90
        0
 91
        4
280
     0
281
     0
  0
CLASS
  1
VISUALSTYLE
  2
AcDbVisualStyle
  3
ObjectDBX Classes
 90
     4095
 91
        4
280
     0
281
     0
  0
CLASS
  1
MATERIAL
  2
AcDbMaterial
  3
ObjectDBX Classes
 90
     1153
 91
        4
280
     0
281
     0
  0
CLASS
  1
SCALE
  2
AcDbScale
  3
ObjectDBX Classes
 90
     1153
 91
        4
280
     0
281
     0
  0
CLASS
  1
SUN
  2
AcDbSun
  3
SCENEOE
 90
     1153
 91
        4
280
     0
281
     0
  0
CLASS
  1
DICTIONARYVAR
  2
AcDbDictionaryVar
  3
ObjectDBX Classes
 90
        0
 91
        4
280
     0
281
     0
  0
ENDSEC
  0
SECTION
  2
TABLES
  0
TABLE
  2
VPORT
  5
8
330
0
100
AcDbSymbolTable
 70
     1
  0
VPORT
  5
29
330
8
100
AcDbSymbolTableRecord
100
AcDbViewportTableRecord
  2
*Active
 70
     0
 10
0.0
 20
0.0
 11
1.0
 21
1.0
 12
5.839614057047122
 22
683.9820311094637
 13
0.0
 23
0.0
 14
0.5
 24
0.5
 15
0.5
 25
0.5
 16
0.0
 26
0.0
 36
1.0
 17
0.0
 27
0.0
 37
0.0
 40
585.208980038418
 41
0.1805264354751232
 42
50.0
 43
0.0
 44
0.0
 50
0.0
 51
0.0
 71
     0
 72
   100
 73
     1
 74
     3
 75
     0
 76
     0
 77
     0
 78
     0
281
     0
 65
     1
110
0.0
120
0.0
130
0.0
111
1.0
121
0.0
131
0.0
112
0.0
122
1.0
132
0.0
 79
     0
146
0.0
  0
ENDTAB
  0
TABLE
  2
LTYPE
  5
5
330
0
100
AcDbSymbolTable
 70
     1
  0
LTYPE
  5
14
330
5
100
AcDbSymbolTableRecord
100
AcDbLinetypeTableRecord
  2
ByBlock
 70
     0
  3

 72
    65
 73
     0
 40
0.0
  0
LTYPE
  5
15
330
5
100
AcDbSymbolTableRecord
100
AcDbLinetypeTableRecord
  2
ByLayer
 70
     0
  3

 72
    65
 73
     0
 40
0.0
  0
LTYPE
  5
16
330
5
100
AcDbSymbolTableRecord
100
AcDbLinetypeTableRecord
  2
Continuous
 70
     0
  3
Solid line
 72
    65
 73
     0
 40
0.0
  0
ENDTAB
  0
TABLE
  2
LAYER
  5
2
330
0
100
AcDbSymbolTable
 70
     2
  0
LAYER
  5
10
330
2
100
AcDbSymbolTableRecord
100
AcDbLayerTableRecord
  2
0
 70
     0
 62
     7
  6
Continuous
370
    -3
390
F
  0
LAYER
  5
62
330
2
100
AcDbSymbolTableRecord
100
AcDbLayerTableRecord
  2
Make2D$可见线$普通线
 70
     0
 62
    18
420
        0
  6
Continuous
370
    -3
390
F
  0
ENDTAB
  0
TABLE
  2
STYLE
  5
3
330
0
100
AcDbSymbolTable
 70
     1
  0
STYLE
  5
11
330
3
100
AcDbSymbolTableRecord
100
AcDbTextStyleTableRecord
  2
Standard
 70
     0
 40
0.0
 41
1.0
 50
0.0
 71
     0
 42
0.2
  3
txt
  4

  0
ENDTAB
  0
TABLE
  2
VIEW
  5
6
330
0
100
AcDbSymbolTable
 70
     0
  0
ENDTAB
  0
TABLE
  2
UCS
  5
7
330
0
100
AcDbSymbolTable
 70
     0
  0
ENDTAB
  0
TABLE
  2
APPID
  5
9
330
0
100
AcDbSymbolTable
 70
     1
  0
APPID
  5
12
330
9
100
AcDbSymbolTableRecord
100
AcDbRegAppTableRecord
  2
ACAD
 70
     0
  0
ENDTAB
  0
TABLE
  2
DIMSTYLE
  5
A
330
0
100
AcDbSymbolTable
 70
     1
100
AcDbDimStyleTable
  0
DIMSTYLE
105
27
330
A
100
AcDbSymbolTableRecord
100
AcDbDimStyleTableRecord
  2
Standard
 70
     0
178
     0
340
11
  0
ENDTAB
  0
TABLE
  2
BLOCK_RECORD
  5
1
330
0
100
AcDbSymbolTable
 70
     1
  0
BLOCK_RECORD
  5
1F
330
1
100
AcDbSymbolTableRecord
100
AcDbBlockTableRecord
  2
*Model_Space
340
22
  0
BLOCK_RECORD
  5
1B
330
1
100
AcDbSymbolTableRecord
100
AcDbBlockTableRecord
  2
*Paper_Space
340
1E
  0
BLOCK_RECORD
  5
23
330
1
100
AcDbSymbolTableRecord
100
AcDbBlockTableRecord
  2
*Paper_Space0
340
26
  0
ENDTAB
  0
ENDSEC
  0
SECTION
  2
BLOCKS
  0
BLOCK
  5
20
330
1F
100
AcDbEntity
  8
0
100
AcDbBlockBegin
  2
*Model_Space
 70
     0
 10
0.0
 20
0.0
 30
0.0
  3
*Model_Space
  1
*Model_Space
  0
ENDBLK
  5
21
330
1F
100
AcDbEntity
  8
0
100
AcDbBlockEnd
  0
BLOCK
  5
1C
330
1B
100
AcDbEntity
 67
     1
  8
0
100
AcDbBlockBegin
  2
*Paper_Space
 70
     0
 10
0.0
 20
0.0
 30
0.0
  3
*Paper_Space
  1
*Paper_Space
  0
ENDBLK
  5
1D
330
1B
100
AcDbEntity
 67
     1
  8
0
100
AcDbBlockEnd
  0
BLOCK
  5
24
330
23
100
AcDbEntity
  8
0
100
AcDbBlockBegin
  2
*Paper_Space0
 70
     0
 10
0.0
 20
0.0
 30
0.0
  3
*Paper_Space0
  1
*Paper_Space0
  0
ENDBLK
  5
25
330
23
100
AcDbEntity
  8
0
100
AcDbBlockEnd
  0
ENDSEC
  0
SECTION
  2
ENTITIES
  0
LINE
  5
63
330
1F
100
AcDbEntity
  8
Make2D$可见线$普通线
100
AcDbLine
 10
-8.760210196285925
 20
887.8102824619073
 30
0.0
 11
-8.740484535653842
 21
887.7715686731226
 31
0.0
  0
LINE
  5
64
330
1F
100
AcDbEntity
  8
Make2D$可见线$普通线
100
AcDbLine
 10
-9.237340590718311
 20
888.7467035865161
 30
0.0
 11
-9.217614926331244
 21
888.7079897903619
 31
0.0
  0
LINE
  5
65
330
1F
100
AcDbEntity
  8
Make2D$可见线$普通线
100
AcDbLine
 10
-14.31373555400997
 20
898.7096896715659
 30
0.0
 11
-14.26333340926065
 21
898.6107698927809
 31
0.0
  0
LINE
  5
66
330
1F
100
AcDbEntity
  8
Make2D$可见线$普通线
100
AcDbLine
 10
-15.80362729301152
 20
901.6337668505955
 30
0.0
 11
-15.75064999530352
 21
901.5297930495607
 31
0.0
  0
LINE
  5
67
330
1F
100
AcDbEntity
  8
Make2D$可见线$普通线
100
AcDbLine
 10
-17.34250057952659
 20
904.6539757293513
 30
0.0
 11
-17.27019325525939
 21
904.5120646151195
 31
0.0
  0
LINE
  5
68
330
1F
100
AcDbEntity
  8
Make2D$可见线$普通线
100
AcDbLine
 10
-24.79995869890627
 20
919.2900613788104
 30
0.0
 11
-24.70619541489721
 21
919.1060405725837
 31
0.0
  0
LINE
  5
69
330
1F
100
AcDbEntity
  8
Make2D$可见线$普通线
100
AcDbLine
 10
-27.81257086813359
 20
925.2026456711487
 30
0.0
 11
-27.77835008266806
 21
925.1354835980875
 31
0.0
  0
LINE
  5
6A
330
1F
100
AcDbEntity
  8
Make2D$可见线$普通线
100
AcDbLine
 10
-33.35160201652361
 20
936.0736063932991
 30
0.0
 11
-33.33187635212245
 21
936.0348925971174
 31
0.0
  0
LINE
  5
6B
330
1F
100
AcDbEntity
  8
Make2D$可见线$普通线
100
AcDbLine
 10
-5.147566453378399
 20
880.7186600922308
 30
0.0
 11
-5.128202923542606
 21
880.677319291198
 31
0.0
  0
LINE
  5
6C
330
1F
100
AcDbEntity
  8
Make2D$可见线$普通线
100
AcDbLine
 10
-6.057833338218835
 20
882.5038747572122
 30
0.0
 11
-6.046282990076527
 21
882.4799053802706
 31
0.0
  0
LINE
  5
6D
330
1F
100
AcDbEntity
  8
Make2D$可见线$普通线
100
AcDbLine
 10
-3.273676947755483
 20
877.0409889356973
 30
0.0
 11
-3.251519216653588
 21
876.99439109426
 31
0.0
  0
LINE
  5
6E
330
1F
100
AcDbEntity
  8
Make2D$可见线$普通线
100
AcDbLine
 10
-2.568435838430176
 20
875.6535939693244
 30
0.0
 11
-2.547761433412198
 21
875.6159928293948
 31
0.0
  0
LINE
  5
6F
330
1F
100
AcDbEntity
  8
Make2D$可见线$普通线
100
AcDbLine
 10
0.7155498179033515
 20
869.2083474085148
 30
0.0
 11
0.7279706570324151
 21
869.1870323080865
 31
0.0
  0
LINE
  5
70
330
1F
100
AcDbEntity
  8
Make2D$可见线$普通线
100
AcDbLine
 10
-8.715410215625091
 20
887.7187918459585
 30
0.0
 11
-8.694728909401121
 21
887.6806674406073
 31
0.0
  0
LINE
  5
71
330
1F
100
AcDbEntity
  8
Make2D$可见线$普通线
100
AcDbLine
 10
-15.1011737025222
 20
900.2524788026667
 30
0.0
 11
-15.08913103684307
 21
900.2274939573208
 31
0.0
  0
LINE
  5
72
330
1F
100
AcDbEntity
  8
Make2D$可见线$普通线
100
AcDbLine
 10
-27.15830425414418
 20
923.9159298731828
 30
0.0
 11
-27.14626173785899
 21
923.8909453356046
 31
0.0
  0
LINE
  5
73
330
1F
100
AcDbEntity
  8
Make2D$可见线$普通线
100
AcDbLine
 10
-34.00576644029589
 20
937.3561297197654
 30
0.0
 11
-33.96315408940431
 21
937.2697138484193
 31
0.0
  0
LINE
  5
74
330
1F
100
AcDbEntity
  8
Make2D$可见线$普通线
100
AcDbLine
 10
-36.2011535367689
 20
941.6635209995999
 30
0.0
 11
-36.18910976039194
 21
941.638533863087
 31
0.0
  0
LINE
  5
75
330
1F
100
AcDbEntity
  8
Make2D$可见线$普通线
100
AcDbLine
 10
-32.07836463355151
 20
933.5706066525039
 30
0.0
 11
-32.04496629551077
 21
933.5071812932962
 31
0.0
  0
LINE
  5
76
330
1F
100
AcDbEntity
  8
Make2D$可见线$普通线
100
AcDbLine
 10
-10.04874575195336
 20
890.3371644277308
 30
0.0
 11
-10.01712447017186
 21
890.2729848075647
 31
0.0
  0
LINE
  5
77
330
1F
100
AcDbEntity
  8
Make2D$可见线$普通线
100
AcDbLine
 10
-9.695232936502812
 20
889.6424317753084
 30
0.0
 11
-9.731543056436266
 21
889.7157663574084
 31
0.0
  0
LINE
  5
78
330
1F
100
AcDbEntity
  8
Make2D$可见线$普通线
100
AcDbLine
 10
-38.84418695532916
 20
946.848937558664
 30
0.0
 11
-38.82872166679978
 21
946.820735057906
 31
0.0
  0
LINE
  5
79
330
1F
100
AcDbEntity
  8
Make2D$可见线$普通线
100
AcDbLine
 10
-39.54567928139545
 20
948.2284923614168
 30
0.0
 11
-39.52741129772153
 21
948.1896628053311
 31
0.0
  0
LINE
  5
7A
330
1F
100
AcDbEntity
  8
Make2D$可见线$普通线
100
AcDbLine
 10
-42.82138640901098
 20
954.6574592455297
 30
0.0
 11
-42.81144381633366
 21
954.634885334938
 31
0.0
  0
ARC
  5
7B
330
1F
100
AcDbEntity
  8
Make2D$可见线$普通线
100
AcDbCircle
 10
-43.77601498305807
 20
954.2395827557292
 30
0.0
 40
1.04198928569551
100
AcDbArc
 50
358.5392453599632
 51
23.9388342131027
  0
ARC
  5
7C
330
1F
100
AcDbEntity
  8
Make2D$可见线$普通线
100
AcDbCircle
 10
-42.29849285228386
 20
946.9240984745206
 30
0.0
 40
3.046159275796654
100
AcDbArc
 50
10.50001022355092
 51
25.55202609164009
  0
ARC
  5
7D
330
1F
100
AcDbEntity
  8
Make2D$可见线$普通线
100
AcDbCircle
 10
-34.08553549004327
 20
934.4311582152272
 30
0.0
 40
1.399737407773492
100
AcDbArc
 50
28.81952646833379
 51
44.6720627203972
  0
LINE
  5
7E
330
1F
100
AcDbEntity
  8
Make2D$可见线$普通线
100
AcDbLine
 10
-14.31601346739713
 20
898.7141603290756
 30
0.0
 11
-14.28444262580519
 21
898.6507837842036
 31
0.0
  0
ARC
  5
7F
330
1F
100
AcDbEntity
  8
Make2D$可见线$普通线
100
AcDbCircle
 10
2.854505488479369
 20
864.9175906185562
 30
0.0
 40
0.0443955921187824
100
AcDbArc
 50
330.2302381195645
 51
17.72171983186626
  0
LINE
  5
80
330
1F
100
AcDbEntity
  8
Make2D$可见线$普通线
100
AcDbLine
 10
-45.00834815265053
 20
958.951258820073
 30
0.0
 11
-45.03789941967885
 21
958.9540454134947
 31
0.0
  0
ARC
  5
81
330
1F
100
AcDbEntity
  8
Make2D$可见线$普通线
100
AcDbCircle
 10
2.183629756154119
 20
865.6324468638301
 30
0.0
 40
0.3223910943194988
100
AcDbArc
 50
37.53840214925446
 51
80.33881513614936
  0
ARC
  5
82
330
1F
100
AcDbEntity
  8
Make2D$可见线$普通线
100
AcDbCircle
 10
-6.115945851008918
 20
875.6581780736477
 30
0.0
 40
3.160806536719599
100
AcDbArc
 50
10.83776645033232
 51
26.05183666300277
  0
LINE
  5
83
330
1F
100
AcDbEntity
  8
Make2D$可见线$普通线
100
AcDbLine
 10
-18.71243914659921
 20
902.9372530245082
 30
0.0
 11
-19.00215985041745
 21
903.5058619214769
 31
0.0
  0
LINE
  5
84
330
1F
100
AcDbEntity
  8
Make2D$可见线$普通线
100
AcDbLine
 10
-26.65395268378353
 20
918.5233509220027
 30
0.0
 11
-26.9436734980125
 21
919.0919600356651
 31
0.0
  0
LINE
  5
85
330
1F
100
AcDbEntity
  8
Make2D$可见线$普通线
100
AcDbLine
 10
-28.16109402289529
 20
921.4812823473867
 30
0.0
 11
-28.26643402908452
 21
921.6880237501811
 31
0.0
  0
LINE
  5
86
330
1F
100
AcDbEntity
  8
Make2D$可见线$普通线
100
AcDbLine
 10
-17.38967861552822
 20
900.341189309992
 30
0.0
 11
-17.49501862171736
 21
900.5479307127862
 31
0.0
  0
ARC
  5
87
330
1F
100
AcDbEntity
  8
Make2D$可见线$普通线
100
AcDbCircle
 10
59.24972855985532
 20
584.7500559850629
 30
0.0
 40
148.0226766366951
100
AcDbArc
 50
95.36074596363626
 51
95.774459660744
  0
ARC
  5
88
330
1F
100
AcDbEntity
  8
Make2D$可见线$普通线
100
AcDbCircle
 10
25.55001845580037
 20
726.5903517315206
 30
0.0
 40
0.2000000000162079
100
AcDbArc
 50
67.12537461138776
 51
80.96097903818526
  0
POLYLINE
  5
89
330
1F
100
AcDbEntity
  8
Make2D$可见线$普通线
100
AcDb2dPolyline
 66
     1
 10
0.0
 20
0.0
 30
0.0
  0
VERTEX
  5
8A
330
89
100
AcDbEntity
  8
Make2D$可见线$普通线
100
AcDbVertex
100
AcDb2dVertex
 10
6.00001887182168
 20
690.8262954694553
 30
0.0
  0
VERTEX
  5
8B
330
89
100
AcDbEntity
  8
Make2D$可见线$普通线
100
AcDbVertex
100
AcDb2dVertex
 10
6.00001887182168
 20
397.1148840318078
 30
0.0
  0
VERTEX
  5
8C
330
89
100
AcDbEntity
  8
Make2D$可见线$普通线
100
AcDbVertex
100
AcDb2dVertex
 10
20.00001887182168
 20
397.1148840318078
 30
0.0
  0
VERTEX
  5
8D
330
89
100
AcDbEntity
  8
Make2D$可见线$普通线
100
AcDbVertex
100
AcDb2dVertex
 10
20.00001887182168
 20
687.8291939836616
 30
0.0
  0
SEQEND
  5
8E
330
89
100
AcDbEntity
  8
Make2D$可见线$普通线
  0
POLYLINE
  5
8F
330
1F
100
AcDbEntity
  8
Make2D$可见线$普通线
100
AcDb2dPolyline
 66
     1
 10
0.0
 20
0.0
 30
0.0
  0
VERTEX
  5
90
330
8F
100
AcDbEntity
  8
Make2D$可见线$普通线
100
AcDbVertex
100
AcDb2dVertex
 10
-26.20553929377013
 20
917.6432900919692
 30
0.0
 42
-0.4142518948363426
  0
VERTEX
  5
91
330
8F
100
AcDbEntity
  8
Make2D$可见线$普通线
100
AcDbVertex
100
AcDb2dVertex
 10
-26.118133128839
 20
917.9122836873443
 30
0.0
  0
VERTEX
  5
92
330
8F
100
AcDbEntity
  8
Make2D$可见线$普通线
100
AcDbVertex
100
AcDb2dVertex
 10
-24.62569226742673
 20
918.6727080920595
 30
0.0
  0
SEQEND
  5
93
330
8F
100
AcDbEntity
  8
Make2D$可见线$普通线
  0
POLYLINE
  5
94
330
1F
100
AcDbEntity
  8
Make2D$可见线$普通线
100
AcDb2dPolyline
 66
     1
 10
0.0
 20
0.0
 30
0.0
  0
VERTEX
  5
95
330
94
100
AcDbEntity
  8
Make2D$可见线$普通线
100
AcDbVertex
100
AcDb2dVertex
 10
-11.66058055504506
 20
893.2272436406157
 30
0.0
  0
VERTEX
  5
96
330
94
100
AcDbEntity
  8
Make2D$可见线$普通线
100
AcDbVertex
100
AcDb2dVertex
 10
-13.15301154964897
 20
892.4667998711919
 30
0.0
 42
-0.4148254404858617
  0
VERTEX
  5
97
330
94
100
AcDbEntity
  8
Make2D$可见线$普通线
100
AcDbVertex
100
AcDb2dVertex
 10
-13.42218618350234
 20
892.554546982489
 30
0.0
  0
VERTEX
  5
98
330
94
100
AcDbEntity
  8
Make2D$可见线$普通线
100
AcDbVertex
100
AcDb2dVertex
 10
-13.52831903801636
 20
892.7628444377349
 30
0.0
  0
VERTEX
  5
99
330
94
100
AcDbEntity
  8
Make2D$可见线$普通线
100
AcDbVertex
100
AcDb2dVertex
 10
-14.14823039174438
 20
893.9794889730281
 30
0.0
 42
-0.4148254456480673
  0
VERTEX
  5
9A
330
94
100
AcDbEntity
  8
Make2D$可见线$普通线
100
AcDbVertex
100
AcDb2dVertex
 10
-14.0610024159482
 20
894.2488322842714
 30
0.0
  0
VERTEX
  5
9B
330
94
100
AcDbEntity
  8
Make2D$可见线$普通线
100
AcDbVertex
100
AcDb2dVertex
 10
-12.56856155453318
 20
895.0092566889878
 30
0.0
  0
SEQEND
  5
9C
330
94
100
AcDbEntity
  8
Make2D$可见线$普通线
  0
POLYLINE
  5
9D
330
1F
100
AcDbEntity
  8
Make2D$可见线$普通线
100
AcDb2dPolyline
 66
     1
 10
0.0
 20
0.0
 30
0.0
  0
VERTEX
  5
9E
330
9D
100
AcDbEntity
  8
Make2D$可见线$普通线
100
AcDbVertex
100
AcDb2dVertex
 10
-23.71771126793837
 20
916.8906950436874
 30
0.0
  0
VERTEX
  5
9F
330
9D
100
AcDbEntity
  8
Make2D$可见线$普通线
100
AcDbVertex
100
AcDb2dVertex
 10
-25.21014226253977
 20
916.1302512742649
 30
0.0
 42
-0.4148254230024078
  0
VERTEX
  5
A0
330
9D
100
AcDbEntity
  8
Make2D$可见线$普通线
100
AcDbVertex
100
AcDb2dVertex
 10
-25.47931689639322
 20
916.2179983855619
 30
0.0
  0
VERTEX
  5
A1
330
9D
100
AcDbEntity
  8
Make2D$可见线$普通线
100
AcDbVertex
100
AcDb2dVertex
 10
-25.84233900052654
 20
916.9304693808558
 30
0.0
  0
VERTEX
  5
A2
330
9D
100
AcDbEntity
  8
Make2D$可见线$普通线
100
AcDbVertex
100
AcDb2dVertex
 10
-26.09922824800812
 20
917.4346429167081
 30
0.0
  0
VERTEX
  5
A3
330
9D
100
AcDbEntity
  8
Make2D$可见线$普通线
100
AcDbVertex
100
AcDb2dVertex
 10
-26.20518291550083
 20
917.6425906602321
 30
0.0
  0
VERTEX
  5
A4
330
9D
100
AcDbEntity
  8
Make2D$可见线$普通线
100
AcDbVertex
100
AcDb2dVertex
 10
-26.2439071928248
 20
917.7185913337237
 30
0.0
 42
-0.3429664457909842
  0
VERTEX
  5
A5
330
9D
100
AcDbEntity
  8
Make2D$可见线$普通线
100
AcDbVertex
100
AcDb2dVertex
 10
-26.13394458253079
 20
917.9036888922342
 30
0.0
  0
SEQEND
  5
A6
330
9D
100
AcDbEntity
  8
Make2D$可见线$普通线
  0
POLYLINE
  5
A7
330
1F
100
AcDbEntity
  8
Make2D$可见线$普通线
100
AcDb2dPolyline
 66
     1
 10
0.0
 20
0.0
 30
0.0
  0
VERTEX
  5
A8
330
A7
100
AcDbEntity
  8
Make2D$可见线$普通线
100
AcDbVertex
100
AcDb2dVertex
 10
-29.74627662438165
 20
928.722420745225
 30
0.0
  0
VERTEX
  5
A9
330
A7
100
AcDbEntity
  8
Make2D$可见线$普通线
100
AcDbVertex
100
AcDb2dVertex
 10
-31.23870761898532
 20
927.9619769758015
 30
0.0
 42
-0.4148254287095567
  0
VERTEX
  5
AA
330
A7
100
AcDbEntity
  8
Make2D$可见线$普通线
100
AcDbVertex
100
AcDb2dVertex
 10
-31.5078822528387
 20
928.0497240870984
 30
0.0
  0
VERTEX
  5
AB
330
A7
100
AcDbEntity
  8
Make2D$可见线$普通线
100
AcDbVertex
100
AcDb2dVertex
 10
-31.87090435697202
 20
928.7621950823924
 30
0.0
  0
VERTEX
  5
AC
330
A7
100
AcDbEntity
  8
Make2D$可见线$普通线
100
AcDbVertex
100
AcDb2dVertex
 10
-32.23392646108073
 20
929.4746660776375
 30
0.0
 42
-0.41482544564854
  0
VERTEX
  5
AD
330
A7
100
AcDbEntity
  8
Make2D$可见线$普通线
100
AcDbVertex
100
AcDb2dVertex
 10
-32.14669848528448
 20
929.7440093888807
 30
0.0
  0
VERTEX
  5
AE
330
A7
100
AcDbEntity
  8
Make2D$可见线$普通线
100
AcDbVertex
100
AcDb2dVertex
 10
-30.65425762386957
 20
930.5044337935974
 30
0.0
  0
SEQEND
  5
AF
330
A7
100
AcDbEntity
  8
Make2D$可见线$普通线
  0
POLYLINE
  5
B0
330
1F
100
AcDbEntity
  8
Make2D$可见线$普通线
100
AcDb2dPolyline
 66
     1
 10
0.0
 20
0.0
 30
0.0
  0
VERTEX
  5
B1
330
B0
100
AcDbEntity
  8
Make2D$可见线$普通线
100
AcDbVertex
100
AcDb2dVertex
 10
-8.646297876822771
 20
887.3113807898472
 30
0.0
  0
VERTEX
  5
B2
330
B0
100
AcDbEntity
  8
Make2D$可见线$普通线
100
AcDbVertex
100
AcDb2dVertex
 10
-10.13872887142702
 20
886.5509370204234
 30
0.0
 42
-0.4148254455677063
  0
VERTEX
  5
B3
330
B0
100
AcDbEntity
  8
Make2D$可见线$普通线
100
AcDbVertex
100
AcDb2dVertex
 10
-10.4079035052806
 20
886.6386841317202
 30
0.0
  0
VERTEX
  5
B4
330
B0
100
AcDbEntity
  8
Make2D$可见线$普通线
100
AcDbVertex
100
AcDb2dVertex
 10
-11.02781485689536
 20
887.8553286628667
 30
0.0
  0
VERTEX
  5
B5
330
B0
100
AcDbEntity
  8
Make2D$可见线$普通线
100
AcDbVertex
100
AcDb2dVertex
 10
-11.13394771352239
 20
888.0636261222594
 30
0.0
 42
-0.4148254456488658
  0
VERTEX
  5
B6
330
B0
100
AcDbEntity
  8
Make2D$可见线$普通线
100
AcDbVertex
100
AcDb2dVertex
 10
-11.04671973772623
 20
888.3329694335025
 30
0.0
  0
VERTEX
  5
B7
330
B0
100
AcDbEntity
  8
Make2D$可见线$普通线
100
AcDbVertex
100
AcDb2dVertex
 10
-9.554278876309446
 20
889.0933938382201
 30
0.0
  0
SEQEND
  5
B8
330
B0
100
AcDbEntity
  8
Make2D$可见线$普通线
  0
POLYLINE
  5
B9
330
1F
100
AcDbEntity
  8
Make2D$可见线$普通线
100
AcDb2dPolyline
 66
     1
 10
0.0
 20
0.0
 30
0.0
  0
VERTEX
  5
BA
330
B9
100
AcDbEntity
  8
Make2D$可见线$普通线
100
AcDbVertex
100
AcDb2dVertex
 10
-19.45057335083768
 20
904.385922968206
 30
0.0
 42
0.4142518906996281
  0
VERTEX
  5
BB
330
B9
100
AcDbEntity
  8
Make2D$可见线$普通线
100
AcDbVertex
100
AcDb2dVertex
 10
-19.18157690609435
 20
904.2985255727282
 30
0.0
  0
VERTEX
  5
BC
330
B9
100
AcDbEntity
  8
Make2D$可见线$普通线
100
AcDbVertex
100
AcDb2dVertex
 10
-17.68914591149299
 20
905.0589693421509
 30
0.0
  0
SEQEND
  5
BD
330
B9
100
AcDbEntity
  8
Make2D$可见线$普通线
  0
POLYLINE
  5
BE
330
1F
100
AcDbEntity
  8
Make2D$可见线$普通线
100
AcDb2dPolyline
 66
     1
 10
0.0
 20
0.0
 30
0.0
  0
VERTEX
  5
BF
330
BE
100
AcDbEntity
  8
Make2D$可见线$普通线
100
AcDbVertex
100
AcDb2dVertex
 10
-32.76055930260326
 20
934.6382835959939
 30
0.0
  0
VERTEX
  5
C0
330
BE
100
AcDbEntity
  8
Make2D$可见线$普通线
100
AcDbVertex
100
AcDb2dVertex
 10
-34.25299029720882
 20
933.8778398265695
 30
0.0
 42
-0.4148254173110354
  0
VERTEX
  5
C1
330
BE
100
AcDbEntity
  8
Make2D$可见线$普通线
100
AcDbVertex
100
AcDb2dVertex
 10
-34.52216493106219
 20
933.9655869378662
 30
0.0
  0
VERTEX
  5
C2
330
BE
100
AcDbEntity
  8
Make2D$可见线$普通线
100
AcDbVertex
100
AcDb2dVertex
 10
-35.14207628267712
 20
935.1822314690123
 30
0.0
  0
VERTEX
  5
C3
330
BE
100
AcDbEntity
  8
Make2D$可见线$普通线
100
AcDbVertex
100
AcDb2dVertex
 10
-35.24820913930431
 20
935.3905289284054
 30
0.0
 42
-0.4148254456483474
  0
VERTEX
  5
C4
330
BE
100
AcDbEntity
  8
Make2D$可见线$普通线
100
AcDbVertex
100
AcDb2dVertex
 10
-35.16098116350805
 20
935.6598722396487
 30
0.0
  0
VERTEX
  5
C5
330
BE
100
AcDbEntity
  8
Make2D$可见线$普通线
100
AcDbVertex
100
AcDb2dVertex
 10
-33.66854030209227
 20
936.4202966443655
 30
0.0
  0
SEQEND
  5
C6
330
BE
100
AcDbEntity
  8
Make2D$可见线$普通线
  0
POLYLINE
  5
C7
330
1F
100
AcDbEntity
  8
Make2D$可见线$普通线
100
AcDb2dPolyline
 66
     1
 10
0.0
 20
0.0
 30
0.0
  0
VERTEX
  5
C8
330
C7
100
AcDbEntity
  8
Make2D$可见线$普通线
100
AcDbVertex
100
AcDb2dVertex
 10
-26.59316318078536
 20
970.828049301424
 30
0.0
  0
VERTEX
  5
C9
330
C7
100
AcDbEntity
  8
Make2D$可见线$普通线
100
AcDbVertex
100
AcDb2dVertex
 10
-45.83890410325399
 20
961.0218545070496
 30
0.0
 42
0.4142134636154552
  0
VERTEX
  5
CA
330
C7
100
AcDbEntity
  8
Make2D$可见线$普通线
100
AcDbVertex
100
AcDb2dVertex
 10
-45.92630730848661
 20
960.7528551029368
 30
0.0
  0
VERTEX
  5
CB
330
C7
100
AcDbEntity
  8
Make2D$可见线$普通线
100
AcDbVertex
100
AcDb2dVertex
 10
-45.56427964587557
 20
960.0423358090131
 30
0.0
  0
VERTEX
  5
CC
330
C7
100
AcDbEntity
  8
Make2D$可见线$普通线
100
AcDbVertex
100
AcDb2dVertex
 10
-42.8368463313675
 20
954.6894465328946
 30
0.0
  0
VERTEX
  5
CD
330
C7
100
AcDbEntity
  8
Make2D$可见线$普通线
100
AcDbVertex
100
AcDb2dVertex
 10
-42.82317587100796
 20
954.662616743778
 30
0.0
  0
VERTEX
  5
CE
330
C7
100
AcDbEntity
  8
Make2D$可见线$普通线
100
AcDbVertex
100
AcDb2dVertex
 10
-42.04119275119984
 20
953.127888457715
 30
0.0
  0
VERTEX
  5
CF
330
C7
100
AcDbEntity
  8
Make2D$可见线$普通线
100
AcDbVertex
100
AcDb2dVertex
 10
-41.61808702094294
 20
952.2974967065733
 30
0.0
  0
VERTEX
  5
D0
330
C7
100
AcDbEntity
  8
Make2D$可见线$普通线
100
AcDbVertex
100
AcDb2dVertex
 10
-39.659674345924
 20
948.4538954164668
 30
0.0
  0
VERTEX
  5
D1
330
C7
100
AcDbEntity
  8
Make2D$可见线$普通线
100
AcDbVertex
100
AcDb2dVertex
 10
-39.39277276714135
 20
947.9300715740121
 30
0.0
  0
VERTEX
  5
D2
330
C7
100
AcDbEntity
  8
Make2D$可见线$普通线
100
AcDbVertex
100
AcDb2dVertex
 10
-39.2365678544158
 20
947.6235021712855
 30
0.0
  0
VERTEX
  5
D3
330
C7
100
AcDbEntity
  8
Make2D$可见线$普通线
100
AcDbVertex
100
AcDb2dVertex
 10
-39.21919832887306
 20
947.5894125579796
 30
0.0
  0
VERTEX
  5
D4
330
C7
100
AcDbEntity
  8
Make2D$可见线$普通线
100
AcDbVertex
100
AcDb2dVertex
 10
-38.84879744897276
 20
946.862459899839
 30
0.0
  0
VERTEX
  5
D5
330
C7
100
AcDbEntity
  8
Make2D$可见线$普通线
100
AcDbVertex
100
AcDb2dVertex
 10
-38.64293469699974
 20
946.4584315001246
 30
0.0
  0
VERTEX
  5
D6
330
C7
100
AcDbEntity
  8
Make2D$可见线$普通线
100
AcDbVertex
100
AcDb2dVertex
 10
-36.94311940118223
 20
943.1223561431345
 30
0.0
  0
VERTEX
  5
D7
330
C7
100
AcDbEntity
  8
Make2D$可见线$普通线
100
AcDbVertex
100
AcDb2dVertex
 10
-36.25683505664927
 20
941.7754472787904
 30
0.0
  0
VERTEX
  5
D8
330
C7
100
AcDbEntity
  8
Make2D$可见线$普通线
100
AcDbVertex
100
AcDb2dVertex
 10
-36.22228522711086
 20
941.7076394203748
 30
0.0
  0
VERTEX
  5
D9
330
C7
100
AcDbEntity
  8
Make2D$可见线$普通线
100
AcDbVertex
100
AcDb2dVertex
 10
-36.22119583341255
 20
941.7055013648579
 30
0.0
  0
VERTEX
  5
DA
330
C7
100
AcDbEntity
  8
Make2D$可见线$普通线
100
AcDbVertex
100
AcDb2dVertex
 10
-36.02999666650931
 20
941.3302518712499
 30
0.0
  0
VERTEX
  5
DB
330
C7
100
AcDbEntity
  8
Make2D$可见线$普通线
100
AcDbVertex
100
AcDb2dVertex
 10
-36.01371748981058
 20
941.2983021880399
 30
0.0
  0
VERTEX
  5
DC
330
C7
100
AcDbEntity
  8
Make2D$可见线$普通线
100
AcDbVertex
100
AcDb2dVertex
 10
-36.01262735322185
 20
941.2961626745184
 30
0.0
  0
VERTEX
  5
DD
330
C7
100
AcDbEntity
  8
Make2D$可见线$普通线
100
AcDbVertex
100
AcDb2dVertex
 10
-35.8729502467471
 20
941.0220309179724
 30
0.0
  0
VERTEX
  5
DE
330
C7
100
AcDbEntity
  8
Make2D$可见线$普通线
100
AcDbVertex
100
AcDb2dVertex
 10
-35.60933872408378
 20
940.5046641742213
 30
0.0
  0
VERTEX
  5
DF
330
C7
100
AcDbEntity
  8
Make2D$可见线$普通线
100
AcDbVertex
100
AcDb2dVertex
 10
-35.58952167041434
 20
940.4657710165014
 30
0.0
  0
VERTEX
  5
E0
330
C7
100
AcDbEntity
  8
Make2D$可见线$普通线
100
AcDbVertex
100
AcDb2dVertex
 10
-32.08313296554709
 20
933.5840957079444
 30
0.0
  0
VERTEX
  5
E1
330
C7
100
AcDbEntity
  8
Make2D$可见线$普通线
100
AcDbVertex
100
AcDb2dVertex
 10
-30.33339694432946
 20
930.150045410842
 30
0.0
  0
VERTEX
  5
E2
330
C7
100
AcDbEntity
  8
Make2D$可见线$普通线
100
AcDbVertex
100
AcDb2dVertex
 10
-27.60254362553968
 20
924.7904439983918
 30
0.0
  0
VERTEX
  5
E3
330
C7
100
AcDbEntity
  8
Make2D$可见线$普通线
100
AcDbVertex
100
AcDb2dVertex
 10
-24.30483158924982
 20
918.3183197118381
 30
0.0
  0
VERTEX
  5
E4
330
C7
100
AcDbEntity
  8
Make2D$可见线$普通线
100
AcDbVertex
100
AcDb2dVertex
 10
-21.57397826917601
 20
912.9587182968678
 30
0.0
  0
VERTEX
  5
E5
330
C7
100
AcDbEntity
  8
Make2D$可见线$普通线
100
AcDbVertex
100
AcDb2dVertex
 10
-21.17984589106686
 20
912.1851899510311
 30
0.0
  0
VERTEX
  5
E6
330
C7
100
AcDbEntity
  8
Make2D$可见线$普通线
100
AcDbVertex
100
AcDb2dVertex
 10
-20.95858358161143
 20
911.7509382180217
 30
0.0
  0
VERTEX
  5
E7
330
C7
100
AcDbEntity
  8
Make2D$可见线$普通线
100
AcDbVertex
100
AcDb2dVertex
 10
-20.94121396837666
 20
911.7168484326105
 30
0.0
  0
VERTEX
  5
E8
330
C7
100
AcDbEntity
  8
Make2D$可见线$普通线
100
AcDbVertex
100
AcDb2dVertex
 10
-20.92390450843824
 20
911.6828767046909
 30
0.0
  0
VERTEX
  5
E9
330
C7
100
AcDbEntity
  8
Make2D$可见线$普通线
100
AcDbVertex
100
AcDb2dVertex
 10
-20.80153685571513
 20
911.4427166639225
 30
0.0
  0
VERTEX
  5
EA
330
C7
100
AcDbEntity
  8
Make2D$可见线$普通线
100
AcDbVertex
100
AcDb2dVertex
 10
-19.77331299950429
 20
909.4247137217121
 30
0.0
  0
VERTEX
  5
EB
330
C7
100
AcDbEntity
  8
Make2D$可见线$普通线
100
AcDbVertex
100
AcDb2dVertex
 10
-17.05162122911704
 20
904.083092860403
 30
0.0
  0
VERTEX
  5
EC
330
C7
100
AcDbEntity
  8
Make2D$可见线$普通线
100
AcDbVertex
100
AcDb2dVertex
 10
-15.99876979039463
 20
902.0167555660303
 30
0.0
  0
VERTEX
  5
ED
330
C7
100
AcDbEntity
  8
Make2D$可见线$普通线
100
AcDbVertex
100
AcDb2dVertex
 10
-15.54541291837826
 20
901.1269926062681
 30
0.0
  0
VERTEX
  5
EE
330
C7
100
AcDbEntity
  8
Make2D$可见线$普通线
100
AcDbVertex
100
AcDb2dVertex
 10
-15.47125460760003
 20
900.9814487264642
 30
0.0
  0
VERTEX
  5
EF
330
C7
100
AcDbEntity
  8
Make2D$可见线$普通线
100
AcDbVertex
100
AcDb2dVertex
 10
-15.26198355005585
 20
900.5707311504299
 30
0.0
  0
VERTEX
  5
F0
330
C7
100
AcDbEntity
  8
Make2D$可见线$普通线
100
AcDbVertex
100
AcDb2dVertex
 10
-14.75536593033515
 20
899.5764380876919
 30
0.0
  0
VERTEX
  5
F1
330
C7
100
AcDbEntity
  8
Make2D$可见线$普通线
100
AcDbVertex
100
AcDb2dVertex
 10
-6.07945839223413
 20
882.549010808623
 30
0.0
  0
VERTEX
  5
F2
330
C7
100
AcDbEntity
  8
Make2D$可见线$普通线
100
AcDbVertex
100
AcDb2dVertex
 10
-6.078369056765908
 20
882.5468728673892
 30
0.0
  0
VERTEX
  5
F3
330
C7
100
AcDbEntity
  8
Make2D$可见线$普通线
100
AcDbVertex
100
AcDb2dVertex
 10
-5.712517897567448
 20
881.8288495388945
 30
0.0
  0
VERTEX
  5
F4
330
C7
100
AcDbEntity
  8
Make2D$可见线$普通线
100
AcDbVertex
100
AcDb2dVertex
 10
-5.148966245394464
 20
880.7228171459435
 30
0.0
  0
VERTEX
  5
F5
330
C7
100
AcDbEntity
  8
Make2D$可见线$普通线
100
AcDbVertex
100
AcDb2dVertex
 10
-3.488282199525008
 20
877.463541191199
 30
0.0
  0
VERTEX
  5
F6
330
C7
100
AcDbEntity
  8
Make2D$可见线$普通线
100
AcDbVertex
100
AcDb2dVertex
 10
-3.393476562104345
 20
877.2774746512162
 30
0.0
  0
VERTEX
  5
F7
330
C7
100
AcDbEntity
  8
Make2D$可见线$普通线
100
AcDbVertex
100
AcDb2dVertex
 10
-3.275830570138895
 20
877.0465813914543
 30
0.0
  0
VERTEX
  5
F8
330
C7
100
AcDbEntity
  8
Make2D$可见线$普通线
100
AcDbVertex
100
AcDb2dVertex
 10
-3.064086390592664
 20
876.631010040197
 30
0.0
  0
VERTEX
  5
F9
330
C7
100
AcDbEntity
  8
Make2D$可见线$普通线
100
AcDbVertex
100
AcDb2dVertex
 10
-3.047806176393674
 20
876.5990583207781
 30
0.0
  0
VERTEX
  5
FA
330
C7
100
AcDbEntity
  8
Make2D$可见线$普通线
100
AcDbVertex
100
AcDb2dVertex
 10
-2.856608028617108
 20
876.2238108273175
 30
0.0
  0
VERTEX
  5
FB
330
C7
100
AcDbEntity
  8
Make2D$可见线$普通线
100
AcDbVertex
100
AcDb2dVertex
 10
-0.0682023963337048
 20
870.751256639797
 30
0.0
  0
VERTEX
  5
FC
330
C7
100
AcDbEntity
  8
Make2D$可见线$普通线
100
AcDbVertex
100
AcDb2dVertex
 10
-0.0544427640445502
 20
870.7242518409134
 30
0.0
  0
VERTEX
  5
FD
330
C7
100
AcDbEntity
  8
Make2D$可见线$普通线
100
AcDbVertex
100
AcDb2dVertex
 10
-0.0508930363572517
 20
870.7172851080625
 30
0.0
  0
VERTEX
  5
FE
330
C7
100
AcDbEntity
  8
Make2D$可见线$普通线
100
AcDbVertex
100
AcDb2dVertex
 10
-0.0503220086610554
 20
870.7161644031069
 30
0.0
  0
VERTEX
  5
FF
330
C7
100
AcDbEntity
  8
Make2D$可见线$普通线
100
AcDbVertex
100
AcDb2dVertex
 10
0.1413955746240845
 20
870.3398974600391
 30
0.0
  0
VERTEX
  5
100
330
C7
100
AcDbEntity
  8
Make2D$可见线$普通线
100
AcDbVertex
100
AcDb2dVertex
 10
0.6009963201558577
 20
869.4378802083919
 30
0.0
  0
VERTEX
  5
101
330
C7
100
AcDbEntity
  8
Make2D$可见线$普通线
100
AcDbVertex
100
AcDb2dVertex
 10
0.7310902185023576
 20
869.1825565567319
 30
0.0
  0
VERTEX
  5
102
330
C7
100
AcDbEntity
  8
Make2D$可见线$普通线
100
AcDbVertex
100
AcDb2dVertex
 10
0.74476067919292
 20
869.155726766958
 30
0.0
  0
VERTEX
  5
103
330
C7
100
AcDbEntity
  8
Make2D$可见线$普通线
100
AcDbVertex
100
AcDb2dVertex
 10
1.44701050447474
 20
867.7774838827193
 30
0.0
  0
VERTEX
  5
104
330
C7
100
AcDbEntity
  8
Make2D$可见线$普通线
100
AcDbVertex
100
AcDb2dVertex
 10
2.894224958592146
 20
864.9371597598854
 30
0.0
  0
VERTEX
  5
105
330
C7
100
AcDbEntity
  8
Make2D$可见线$普通线
100
AcDbVertex
100
AcDb2dVertex
 10
2.914953134270658
 20
864.896494597572
 30
0.0
  0
VERTEX
  5
106
330
C7
100
AcDbEntity
  8
Make2D$可见线$普通线
100
AcDbVertex
100
AcDb2dVertex
 10
2.989578901500702
 20
864.7500931613827
 30
0.0
  0
VERTEX
  5
107
330
C7
100
AcDbEntity
  8
Make2D$可见线$普通线
100
AcDbVertex
100
AcDb2dVertex
 10
2.990676860251071
 20
864.7479421063831
 30
0.0
 42
-0.036345164545199
  0
VERTEX
  5
108
330
C7
100
AcDbEntity
  8
Make2D$可见线$普通线
100
AcDbVertex
100
AcDb2dVertex
 10
3.627738742756999
 20
863.0343224740502
 30
0.0
 42
-0.0110487193023101
  0
VERTEX
  5
109
330
C7
100
AcDbEntity
  8
Make2D$可见线$普通线
100
AcDbVertex
100
AcDb2dVertex
 10
3.683215859152253
 20
862.840646682735
 30
0.0
 42
-0.0093188066927539
  0
VERTEX
  5
10A
330
C7
100
AcDbEntity
  8
Make2D$可见线$普通线
100
AcDbVertex
100
AcDb2dVertex
 10
3.735138979846069
 20
862.6268014468872
 30
0.0
 42
-0.0149533759823157
  0
VERTEX
  5
10B
330
C7
100
AcDbEntity
  8
Make2D$可见线$普通线
100
AcDbVertex
100
AcDb2dVertex
 10
3.827131800661908
 20
862.1436070169457
 30
0.0
 42
-0.0113675403845801
  0
VERTEX
  5
10C
330
C7
100
AcDbEntity
  8
Make2D$可见线$普通线
100
AcDbVertex
100
AcDb2dVertex
 10
3.897886281218306
 20
861.6271133367068
 30
0.0
 42
-0.0106990348563877
  0
VERTEX
  5
10D
330
C7
100
AcDbEntity
  8
Make2D$可见线$普通线
100
AcDbVertex
100
AcDb2dVertex
 10
3.955653436959206
 20
861.0027096114253
 30
0.0
 42
-0.0178030619106931
  0
VERTEX
  5
10E
330
C7
100
AcDbEntity
  8
Make2D$可见线$普通线
100
AcDbVertex
100
AcDb2dVertex
 10
4.000018871305564
 20
859.729533345749
 30
0.0
  0
VERTEX
  5
10F
330
C7
100
AcDbEntity
  8
Make2D$可见线$普通线
100
AcDbVertex
100
AcDb2dVertex
 10
4.00001887182168
 20
850.918847401372
 30
0.0
  0
VERTEX
  5
110
330
C7
100
AcDbEntity
  8
Make2D$可见线$普通线
100
AcDbVertex
100
AcDb2dVertex
 10
3.98661147186453
 20
849.9066004878252
 30
0.0
  0
VERTEX
  5
111
330
C7
100
AcDbEntity
  8
Make2D$可见线$普通线
100
AcDbVertex
100
AcDb2dVertex
 10
3.942775439408885
 20
848.8952599384193
 30
0.0
  0
VERTEX
  5
112
330
C7
100
AcDbEntity
  8
Make2D$可见线$普通线
100
AcDbVertex
100
AcDb2dVertex
 10
3.911486527779362
 20
848.4394237905644
 30
0.0
  0
VERTEX
  5
113
330
C7
100
AcDbEntity
  8
Make2D$可见线$普通线
100
AcDbVertex
100
AcDb2dVertex
 10
3.871893956461907
 20
847.984251423692
 30
0.0
  0
VERTEX
  5
114
330
C7
100
AcDbEntity
  8
Make2D$可见线$普通线
100
AcDbVertex
100
AcDb2dVertex
 10
3.823001318886377
 20
847.5300283980116
 30
0.0
  0
VERTEX
  5
115
330
C7
100
AcDbEntity
  8
Make2D$可见线$普通线
100
AcDbVertex
100
AcDb2dVertex
 10
3.763812208482626
 20
847.077040273733
 30
0.0
  0
VERTEX
  5
116
330
C7
100
AcDbEntity
  8
Make2D$可见线$普通线
100
AcDbVertex
100
AcDb2dVertex
 10
3.700848773929584
 20
846.6705923256259
 30
0.0
  0
VERTEX
  5
117
330
C7
100
AcDbEntity
  8
Make2D$可见线$普通线
100
AcDbVertex
100
AcDb2dVertex
 10
3.627704824086698
 20
846.2658524195592
 30
0.0
  0
VERTEX
  5
118
330
C7
100
AcDbEntity
  8
Make2D$可见线$普通线
100
AcDbVertex
100
AcDb2dVertex
 10
3.552716253780713
 20
845.9057136729473
 30
0.0
  0
VERTEX
  5
119
330
C7
100
AcDbEntity
  8
Make2D$可见线$普通线
100
AcDbVertex
100
AcDb2dVertex
 10
3.46742302282091
 20
845.5478854413873
 30
0.0
  0
VERTEX
  5
11A
330
C7
100
AcDbEntity
  8
Make2D$可见线$普通线
100
AcDbVertex
100
AcDb2dVertex
 10
3.380850338237652
 20
845.2288037151534
 30
0.0
  0
VERTEX
  5
11B
330
C7
100
AcDbEntity
  8
Make2D$可见线$普通线
100
AcDbVertex
100
AcDb2dVertex
 10
3.333686275823057
 20
845.0703779766458
 30
0.0
  0
VERTEX
  5
11C
330
C7
100
AcDbEntity
  8
Make2D$可见线$普通线
100
AcDbVertex
100
AcDb2dVertex
 10
3.283749444441272
 20
844.912826166269
 30
0.0
  0
VERTEX
  5
11D
330
C7
100
AcDbEntity
  8
Make2D$可见线$普通线
100
AcDbVertex
100
AcDb2dVertex
 10
3.230899127428392
 20
844.7562461678165
 30
0.0
  0
VERTEX
  5
11E
330
C7
100
AcDbEntity
  8
Make2D$可见线$普通线
100
AcDbVertex
100
AcDb2dVertex
 10
3.174994608120507
 20
844.6007358650813
 30
0.0
  0
VERTEX
  5
11F
330
C7
100
AcDbEntity
  8
Make2D$可见线$普通线
100
AcDbVertex
100
AcDb2dVertex
 10
3.115895169853707
 20
844.4463931418572
 30
0.0
  0
VERTEX
  5
120
330
C7
100
AcDbEntity
  8
Make2D$可见线$普通线
100
AcDbVertex
100
AcDb2dVertex
 10
3.053460095964087
 20
844.2933158819374
 30
0.0
  0
VERTEX
  5
121
330
C7
100
AcDbEntity
  8
Make2D$可见线$普通线
100
AcDbVertex
100
AcDb2dVertex
 10
2.997980012931166
 20
844.165030836388
 30
0.0
  0
VERTEX
  5
122
330
C7
100
AcDbEntity
  8
Make2D$可见线$普通线
100
AcDbVertex
100
AcDb2dVertex
 10
2.93986093748335
 20
844.0379032400906
 30
0.0
  0
VERTEX
  5
123
330
C7
100
AcDbEntity
  8
Make2D$可见线$普通线
100
AcDbVertex
100
AcDb2dVertex
 10
2.878946637023522
 20
843.9121168597952
 30
0.0
  0
VERTEX
  5
124
330
C7
100
AcDbEntity
  8
Make2D$可见线$普通线
100
AcDbVertex
100
AcDb2dVertex
 10
2.815080878954569
 20
843.7878554622516
 30
0.0
  0
VERTEX
  5
125
330
C7
100
AcDbEntity
  8
Make2D$可见线$普通线
100
AcDbVertex
100
AcDb2dVertex
 10
2.748107430679376
 20
843.66530281421
 30
0.0
  0
VERTEX
  5
126
330
C7
100
AcDbEntity
  8
Make2D$可见线$普通线
100
AcDbVertex
100
AcDb2dVertex
 10
2.677870059600829
 20
843.5446426824201
 30
0.0
  0
VERTEX
  5
127
330
C7
100
AcDbEntity
  8
Make2D$可见线$普通线
100
AcDbVertex
100
AcDb2dVertex
 10
2.604212533121812
 20
843.4260588336322
 30
0.0
  0
VERTEX
  5
128
330
C7
100
AcDbEntity
  8
Make2D$可见线$普通线
100
AcDbVertex
100
AcDb2dVertex
 10
2.526978618645214
 20
843.3097350345963
 30
0.0
  0
VERTEX
  5
129
330
C7
100
AcDbEntity
  8
Make2D$可见线$普通线
100
AcDbVertex
100
AcDb2dVertex
 10
2.453998378048164
 20
843.2067440657054
 30
0.0
  0
VERTEX
  5
12A
330
C7
100
AcDbEntity
  8
Make2D$可见线$普通线
100
AcDbVertex
100
AcDb2dVertex
 10
2.377914447130704
 20
843.1059824511456
 30
0.0
  0
VERTEX
  5
12B
330
C7
100
AcDbEntity
  8
Make2D$可见线$普通线
100
AcDbVertex
100
AcDb2dVertex
 10
2.298670432220821
 20
843.0076844231487
 30
0.0
  0
VERTEX
  5
12C
330
C7
100
AcDbEntity
  8
Make2D$可见线$普通线
100
AcDbVertex
100
AcDb2dVertex
 10
2.216209939646502
 20
842.912084213947
 30
0.0
  0
VERTEX
  5
12D
330
C7
100
AcDbEntity
  8
Make2D$可见线$普通线
100
AcDbVertex
100
AcDb2dVertex
 10
2.134161591495775
 20
842.8232742310013
 30
0.0
  0
VERTEX
  5
12E
330
C7
100
AcDbEntity
  8
Make2D$可见线$普通线
100
AcDbVertex
100
AcDb2dVertex
 10
2.091996641110765
 20
842.7799611587449
 30
0.0
  0
VERTEX
  5
12F
330
C7
100
AcDbEntity
  8
Make2D$可见线$普通线
100
AcDbVertex
100
AcDb2dVertex
 10
2.049063255345814
 20
842.7374204260005
 30
0.0
  0
VERTEX
  5
130
330
C7
100
AcDbEntity
  8
Make2D$可见线$普通线
100
AcDbVertex
100
AcDb2dVertex
 10
2.00535549582079
 20
842.6956853277941
 30
0.0
  0
VERTEX
  5
131
330
C7
100
AcDbEntity
  8
Make2D$可见线$普通线
100
AcDbVertex
100
AcDb2dVertex
 10
1.960867424155561
 20
842.6547891591513
 30
0.0
  0
VERTEX
  5
132
330
C7
100
AcDbEntity
  8
Make2D$可见线$普通线
100
AcDbVertex
100
AcDb2dVertex
 10
1.915593101969992
 20
842.6147652150978
 30
0.0
  0
VERTEX
  5
133
330
C7
100
AcDbEntity
  8
Make2D$可见线$普通线
100
AcDbVertex
100
AcDb2dVertex
 10
1.869526590883952
 20
842.5756467906598
 30
0.0
  0
VERTEX
  5
134
330
C7
100
AcDbEntity
  8
Make2D$可见线$普通线
100
AcDbVertex
100
AcDb2dVertex
 10
1.825692934831639
 20
842.5398839559418
 30
0.0
  0
VERTEX
  5
135
330
C7
100
AcDbEntity
  8
Make2D$可见线$普通线
100
AcDbVertex
100
AcDb2dVertex
 10
1.781175605411804
 20
842.5049626499244
 30
0.0
  0
VERTEX
  5
136
330
C7
100
AcDbEntity
  8
Make2D$可见线$普通线
100
AcDbVertex
100
AcDb2dVertex
 10
1.73599003113122
 20
842.4709020674637
 30
0.0
  0
VERTEX
  5
137
330
C7
100
AcDbEntity
  8
Make2D$可见线$普通线
100
AcDbVertex
100
AcDb2dVertex
 10
1.690151640496659
 20
842.4377214034157
 30
0.0
  0
VERTEX
  5
138
330
C7
100
AcDbEntity
  8
Make2D$可见线$普通线
100
AcDbVertex
100
AcDb2dVertex
 10
1.643675862014893
 20
842.4054398526364
 30
0.0
  0
VERTEX
  5
139
330
C7
100
AcDbEntity
  8
Make2D$可见线$普通线
100
AcDbVertex
100
AcDb2dVertex
 10
1.596578124192693
 20
842.3740766099817
 30
0.0
  0
VERTEX
  5
13A
330
C7
100
AcDbEntity
  8
Make2D$可见线$普通线
100
AcDbVertex
100
AcDb2dVertex
 10
1.548873855536832
 20
842.3436508703076
 30
0.0
  0
VERTEX
  5
13B
330
C7
100
AcDbEntity
  8
Make2D$可见线$普通线
100
AcDbVertex
100
AcDb2dVertex
 10
1.500578484554083
 20
842.3141818284699
 30
0.0
  0
VERTEX
  5
13C
330
C7
100
AcDbEntity
  8
Make2D$可见线$普通线
100
AcDbVertex
100
AcDb2dVertex
 10
1.451707439751216
 20
842.285688679325
 30
0.0
  0
VERTEX
  5
13D
330
C7
100
AcDbEntity
  8
Make2D$可见线$普通线
100
AcDbVertex
100
AcDb2dVertex
 10
1.402276149635005
 20
842.2581906177288
 30
0.0
  0
VERTEX
  5
13E
330
C7
100
AcDbEntity
  8
Make2D$可见线$普通线
100
AcDbVertex
100
AcDb2dVertex
 10
1.35230004271222
 20
842.2317068385371
 30
0.0
  0
VERTEX
  5
13F
330
C7
100
AcDbEntity
  8
Make2D$可见线$普通线
100
AcDbVertex
100
AcDb2dVertex
 10
1.301794547489636
 20
842.2062565366061
 30
0.0
  0
VERTEX
  5
140
330
C7
100
AcDbEntity
  8
Make2D$可见线$普通线
100
AcDbVertex
100
AcDb2dVertex
 10
1.250775092474022
 20
842.1818589067918
 30
0.0
  0
VERTEX
  5
141
330
C7
100
AcDbEntity
  8
Make2D$可见线$普通线
100
AcDbVertex
100
AcDb2dVertex
 10
1.199257106172152
 20
842.1585331439501
 30
0.0
  0
VERTEX
  5
142
330
C7
100
AcDbEntity
  8
Make2D$可见线$普通线
100
AcDbVertex
100
AcDb2dVertex
 10
1.147256017090797
 20
842.136298442937
 30
0.0
  0
VERTEX
  5
143
330
C7
100
AcDbEntity
  8
Make2D$可见线$普通线
100
AcDbVertex
100
AcDb2dVertex
 10
1.09478725373673
 20
842.1151739986085
 30
0.0
  0
VERTEX
  5
144
330
C7
100
AcDbEntity
  8
Make2D$可见线$普通线
100
AcDbVertex
100
AcDb2dVertex
 10
1.042207402358254
 20
842.0952983968724
 30
0.0
  0
VERTEX
  5
145
330
C7
100
AcDbEntity
  8
Make2D$可见线$普通线
100
AcDbVertex
100
AcDb2dVertex
 10
0.9892111531609251
 20
842.0765302070774
 30
0.0
  0
VERTEX
  5
146
330
C7
100
AcDbEntity
  8
Make2D$可见线$普通线
100
AcDbVertex
100
AcDb2dVertex
 10
0.9358286081643981
 20
842.0588617396678
 30
0.0
  0
VERTEX
  5
147
330
C7
100
AcDbEntity
  8
Make2D$可见线$普通线
100
AcDbVertex
100
AcDb2dVertex
 10
0.8820898693883297
 20
842.0422853050881
 30
0.0
  0
VERTEX
  5
148
330
C7
100
AcDbEntity
  8
Make2D$可见线$普通线
100
AcDbVertex
100
AcDb2dVertex
 10
0.8280250388523767
 20
842.0267932137824
 30
0.0
  0
VERTEX
  5
149
330
C7
100
AcDbEntity
  8
Make2D$可见线$普通线
100
AcDbVertex
100
AcDb2dVertex
 10
0.7736642185761953
 20
842.0123777761951
 30
0.0
  0
VERTEX
  5
14A
330
C7
100
AcDbEntity
  8
Make2D$可见线$普通线
100
AcDbVertex
100
AcDb2dVertex
 10
0.7190375105794423
 20
841.9990313027706
 30
0.0
  0
VERTEX
  5
14B
330
C7
100
AcDbEntity
  8
Make2D$可见线$普通线
100
AcDbVertex
100
AcDb2dVertex
 10
0.6641750168817743
 20
841.9867461039531
 30
0.0
  0
VERTEX
  5
14C
330
C7
100
AcDbEntity
  8
Make2D$可见线$普通线
100
AcDbVertex
100
AcDb2dVertex
 10
0.6054050920302485
 20
841.9747989880287
 30
0.0
  0
VERTEX
  5
14D
330
C7
100
AcDbEntity
  8
Make2D$可见线$普通线
100
AcDbVertex
100
AcDb2dVertex
 10
0.546419480188577
 20
841.964042360125
 30
0.0
  0
VERTEX
  5
14E
330
C7
100
AcDbEntity
  8
Make2D$可见线$普通线
100
AcDbVertex
100
AcDb2dVertex
 10
0.487236683319988
 20
841.9544671090578
 30
0.0
  0
VERTEX
  5
14F
330
C7
100
AcDbEntity
  8
Make2D$可见线$普通线
100
AcDbVertex
100
AcDb2dVertex
 10
0.4278752033877097
 20
841.9460641236428
 30
0.0
  0
VERTEX
  5
150
330
C7
100
AcDbEntity
  8
Make2D$可见线$普通线
100
AcDbVertex
100
AcDb2dVertex
 10
0.3683535423549702
 20
841.9388242926959
 30
0.0
  0
VERTEX
  5
151
330
C7
100
AcDbEntity
  8
Make2D$可见线$普通线
100
AcDbVertex
100
AcDb2dVertex
 10
0.3086902021849978
 20
841.9327385050331
 30
0.0
  0
VERTEX
  5
152
330
C7
100
AcDbEntity
  8
Make2D$可见线$普通线
100
AcDbVertex
100
AcDb2dVertex
 10
0.2489036848410206
 20
841.92779764947
 30
0.0
  0
VERTEX
  5
153
330
C7
100
AcDbEntity
  8
Make2D$可见线$普通线
100
AcDbVertex
100
AcDb2dVertex
 10
0.1890124922862619
 20
841.9239926148224
 30
0.0
 42
0.3981773459177761
  0
VERTEX
  5
154
330
C7
100
AcDbEntity
  8
Make2D$可见线$普通线
100
AcDbVertex
100
AcDb2dVertex
 10
0.000018871821676
 20
841.7242237601399
 30
0.0
  0
VERTEX
  5
155
330
C7
100
AcDbEntity
  8
Make2D$可见线$普通线
100
AcDbVertex
100
AcDb2dVertex
 10
0.0000094359108238
 20
732.1188474013718
 30
0.0
 42
0.4142610759627724
  0
VERTEX
  5
156
330
C7
100
AcDbEntity
  8
Make2D$可见线$普通线
100
AcDbVertex
100
AcDb2dVertex
 10
0.2000095810771399
 20
731.9188474013717
 30
0.0
  0
VERTEX
  5
157
330
C7
100
AcDbEntity
  8
Make2D$可见线$普通线
100
AcDbVertex
100
AcDb2dVertex
 10
25.80002816256622
 20
731.9188474013717
 30
0.0
 42
0.4142610759626458
  0
VERTEX
  5
158
330
C7
100
AcDbEntity
  8
Make2D$可见线$普通线
100
AcDbVertex
100
AcDb2dVertex
 10
26.00002830773247
 20
732.1188474013718
 30
0.0
  0
VERTEX
  5
159
330
C7
100
AcDbEntity
  8
Make2D$可见线$普通线
100
AcDbVertex
100
AcDb2dVertex
 10
26.00001903112187
 20
746.724297609481
 30
0.0
 42
0.3992586639743667
  0
VERTEX
  5
15A
330
C7
100
AcDbEntity
  8
Make2D$可见线$普通线
100
AcDbVertex
100
AcDb2dVertex
 10
25.80562461968145
 20
746.9245279927113
 30
0.0
  0
VERTEX
  5
15B
330
C7
100
AcDbEntity
  8
Make2D$可见线$普通线
100
AcDbVertex
100
AcDb2dVertex
 10
25.68933895974288
 20
746.9328448971437
 30
0.0
  0
VERTEX
  5
15C
330
C7
100
AcDbEntity
  8
Make2D$可见线$普通线
100
AcDbVertex
100
AcDb2dVertex
 10
25.66135692301264
 20
746.9356263023044
 30
0.0
  0
VERTEX
  5
15D
330
C7
100
AcDbEntity
  8
Make2D$可见线$普通线
100
AcDbVertex
100
AcDb2dVertex
 10
25.63000819086332
 20
746.939046970112
 30
0.0
  0
VERTEX
  5
15E
330
C7
100
AcDbEntity
  8
Make2D$可见线$普通线
100
AcDbVertex
100
AcDb2dVertex
 10
25.55224648433709
 20
746.9487988810636
 30
0.0
  0
VERTEX
  5
15F
330
C7
100
AcDbEntity
  8
Make2D$可见线$普通线
100
AcDbVertex
100
AcDb2dVertex
 10
25.47900400442664
 20
746.9597562820951
 30
0.0
  0
VERTEX
  5
160
330
C7
100
AcDbEntity
  8
Make2D$可见线$普通线
100
AcDbVertex
100
AcDb2dVertex
 10
25.42052337787171
 20
746.9698625868907
 30
0.0
  0
VERTEX
  5
161
330
C7
100
AcDbEntity
  8
Make2D$可见线$普通线
100
AcDbVertex
100
AcDb2dVertex
 10
25.41177840849519
 20
746.9714798849072
 30
0.0
  0
VERTEX
  5
162
330
C7
100
AcDbEntity
  8
Make2D$可见线$普通线
100
AcDbVertex
100
AcDb2dVertex
 10
25.27526006223552
 20
747.0003211002679
 30
0.0
  0
VERTEX
  5
163
330
C7
100
AcDbEntity
  8
Make2D$可见线$普通线
100
AcDbVertex
100
AcDb2dVertex
 10
25.02255344056748
 20
747.0725320309887
 30
0.0
  0
VERTEX
  5
164
330
C7
100
AcDbEntity
  8
Make2D$可见线$普通线
100
AcDbVertex
100
AcDb2dVertex
 10
24.74767124053542
 20
747.1827581944739
 30
0.0
  0
VERTEX
  5
165
330
C7
100
AcDbEntity
  8
Make2D$可见线$普通线
100
AcDbVertex
100
AcDb2dVertex
 10
24.6730055049797
 20
747.2188527503713
 30
0.0
  0
VERTEX
  5
166
330
C7
100
AcDbEntity
  8
Make2D$可见线$普通线
100
AcDbVertex
100
AcDb2dVertex
 10
24.66129541072134
 20
747.2247685051994
 30
0.0
 42
-0.0633687615335087
  0
VERTEX
  5
167
330
C7
100
AcDbEntity
  8
Make2D$可见线$普通线
100
AcDbVertex
100
AcDb2dVertex
 10
24.06772118816414
 20
747.629356180365
 30
0.0
 42
-0.0349952154469018
  0
VERTEX
  5
168
330
C7
100
AcDbEntity
  8
Make2D$可见线$普通线
100
AcDbVertex
100
AcDb2dVertex
 10
23.73371509646191
 20
747.9699010214275
 30
0.0
  0
VERTEX
  5
169
330
C7
100
AcDbEntity
  8
Make2D$可见线$普通线
100
AcDbVertex
100
AcDb2dVertex
 10
23.65315019660681
 20
748.0672015693611
 30
0.0
  0
VERTEX
  5
16A
330
C7
100
AcDbEntity
  8
Make2D$可见线$普通线
100
AcDbVertex
100
AcDb2dVertex
 10
23.64292380588875
 20
748.0800214217365
 30
0.0
  0
VERTEX
  5
16B
330
C7
100
AcDbEntity
  8
Make2D$可见线$普通线
100
AcDbVertex
100
AcDb2dVertex
 10
23.61231310703995
 20
748.1190516143242
 30
0.0
  0
VERTEX
  5
16C
330
C7
100
AcDbEntity
  8
Make2D$可见线$普通线
100
AcDbVertex
100
AcDb2dVertex
 10
23.59836375929022
 20
748.1371702781973
 30
0.0
 42
-0.042521044156022
  0
VERTEX
  5
16D
330
C7
100
AcDbEntity
  8
Make2D$可见线$普通线
100
AcDbVertex
100
AcDb2dVertex
 10
23.17634546465917
 20
748.8041823110452
 30
0.0
  0
VERTEX
  5
16E
330
C7
100
AcDbEntity
  8
Make2D$可见线$普通线
100
AcDbVertex
100
AcDb2dVertex
 10
23.16510148757076
 20
748.8256500593795
 30
0.0
  0
VERTEX
  5
16F
330
C7
100
AcDbEntity
  8
Make2D$可见线$普通线
100
AcDbVertex
100
AcDb2dVertex
 10
23.16065340955538
 20
748.834204321372
 30
0.0
  0
VERTEX
  5
170
330
C7
100
AcDbEntity
  8
Make2D$可见线$普通线
100
AcDbVertex
100
AcDb2dVertex
 10
23.07390006670138
 20
749.0083811414165
 30
0.0
  0
VERTEX
  5
171
330
C7
100
AcDbEntity
  8
Make2D$可见线$普通线
100
AcDbVertex
100
AcDb2dVertex
 10
23.06891337585812
 20
749.0188381962953
 30
0.0
  0
VERTEX
  5
172
330
C7
100
AcDbEntity
  8
Make2D$可见线$普通线
100
AcDbVertex
100
AcDb2dVertex
 10
22.93994412121771
 20
749.3082536865309
 30
0.0
  0
VERTEX
  5
173
330
C7
100
AcDbEntity
  8
Make2D$可见线$普通线
100
AcDbVertex
100
AcDb2dVertex
 10
22.93917531193164
 20
749.3100961176683
 30
0.0
  0
VERTEX
  5
174
330
C7
100
AcDbEntity
  8
Make2D$可见线$普通线
100
AcDbVertex
100
AcDb2dVertex
 10
22.9043349144878
 20
749.3951664869834
 30
0.0
  0
VERTEX
  5
175
330
C7
100
AcDbEntity
  8
Make2D$可见线$普通线
100
AcDbVertex
100
AcDb2dVertex
 10
22.89929192811363
 20
749.4077408357308
 30
0.0
 42
-0.0277964386360698
  0
VERTEX
  5
176
330
C7
100
AcDbEntity
  8
Make2D$可见线$普通线
100
AcDbVertex
100
AcDb2dVertex
 10
22.58424078253713
 20
750.3550130056158
 30
0.0
  0
VERTEX
  5
177
330
C7
100
AcDbEntity
  8
Make2D$可见线$普通线
100
AcDbVertex
100
AcDb2dVertex
 10
22.58305682052696
 20
750.359315340261
 30
0.0
  0
VERTEX
  5
178
330
C7
100
AcDbEntity
  8
Make2D$可见线$普通线
100
AcDbVertex
100
AcDb2dVertex
 10
22.56056727504365
 20
750.4423898884431
 30
0.0
  0
VERTEX
  5
179
330
C7
100
AcDbEntity
  8
Make2D$可见线$普通线
100
AcDbVertex
100
AcDb2dVertex
 10
22.55324632853393
 20
750.4700023337672
 30
0.0
  0
VERTEX
  5
17A
330
C7
100
AcDbEntity
  8
Make2D$可见线$普通线
100
AcDbVertex
100
AcDb2dVertex
 10
22.54353866196522
 20
750.507064040378
 30
0.0
 42
-0.0296618831360954
  0
VERTEX
  5
17B
330
C7
100
AcDbEntity
  8
Make2D$可见线$普通线
100
AcDbVertex
100
AcDb2dVertex
 10
22.22197794884539
 20
752.1783948474116
 30
0.0
  0
VERTEX
  5
17C
330
C7
100
AcDbEntity
  8
Make2D$可见线$普通线
100
AcDbVertex
100
AcDb2dVertex
 10
22.21056674331278
 20
752.2635471844192
 30
0.0
  0
VERTEX
  5
17D
330
C7
100
AcDbEntity
  8
Make2D$可见线$普通线
100
AcDbVertex
100
AcDb2dVertex
 10
22.20646257056042
 20
752.2949059018364
 30
0.0
  0
VERTEX
  5
17E
330
C7
100
AcDbEntity
  8
Make2D$可见线$普通线
100
AcDbVertex
100
AcDb2dVertex
 10
22.13144010440899
 20
752.9538797095971
 30
0.0
  0
VERTEX
  5
17F
330
C7
100
AcDbEntity
  8
Make2D$可见线$普通线
100
AcDbVertex
100
AcDb2dVertex
 10
22.12824845791896
 20
752.9864817913943
 30
0.0
  0
VERTEX
  5
180
330
C7
100
AcDbEntity
  8
Make2D$可见线$普通线
100
AcDbVertex
100
AcDb2dVertex
 10
22.11919229370161
 20
753.0816999463458
 30
0.0
  0
VERTEX
  5
181
330
C7
100
AcDbEntity
  8
Make2D$可见线$普通线
100
AcDbVertex
100
AcDb2dVertex
 10
22.10763368088645
 20
753.2096761444107
 30
0.0
  0
VERTEX
  5
182
330
C7
100
AcDbEntity
  8
Make2D$可见线$普通线
100
AcDbVertex
100
AcDb2dVertex
 10
22.09752507615812
 20
753.328418615536
 30
0.0
  0
VERTEX
  5
183
330
C7
100
AcDbEntity
  8
Make2D$可见线$普通线
100
AcDbVertex
100
AcDb2dVertex
 10
22.09155984830873
 20
753.4019147326521
 30
0.0
  0
VERTEX
  5
184
330
C7
100
AcDbEntity
  8
Make2D$可见线$普通线
100
AcDbVertex
100
AcDb2dVertex
 10
22.08835004108303
 20
753.4426282687411
 30
0.0
 42
-0.014019007768676
  0
VERTEX
  5
185
330
C7
100
AcDbEntity
  8
Make2D$可见线$普通线
100
AcDbVertex
100
AcDb2dVertex
 10
22.00909353597338
 20
755.0848250570882
 30
0.0
  0
VERTEX
  5
186
330
C7
100
AcDbEntity
  8
Make2D$可见线$普通线
100
AcDbVertex
100
AcDb2dVertex
 10
22.00788107188337
 20
755.1425329928052
 30
0.0
  0
VERTEX
  5
187
330
C7
100
AcDbEntity
  8
Make2D$可见线$普通线
100
AcDbVertex
100
AcDb2dVertex
 10
22.00549721701831
 20
755.2719019559236
 30
0.0
  0
VERTEX
  5
188
330
C7
100
AcDbEntity
  8
Make2D$可见线$普通线
100
AcDbVertex
100
AcDb2dVertex
 10
22.00409324936648
 20
755.3627241497003
 30
0.0
  0
VERTEX
  5
189
330
C7
100
AcDbEntity
  8
Make2D$可见线$普通线
100
AcDbVertex
100
AcDb2dVertex
 10
22.00147115114171
 20
755.5953834527338
 30
0.0
  0
VERTEX
  5
18A
330
C7
100
AcDbEntity
  8
Make2D$可见线$普通线
100
AcDbVertex
100
AcDb2dVertex
 10
22.00111773069717
 20
755.6407492667306
 30
0.0
  0
VERTEX
  5
18B
330
C7
100
AcDbEntity
  8
Make2D$可见线$普通线
100
AcDbVertex
100
AcDb2dVertex
 10
22.00001887182168
 20
755.9188474013719
 30
0.0
  0
VERTEX
  5
18C
330
C7
100
AcDbEntity
  8
Make2D$可见线$普通线
100
AcDbVertex
100
AcDb2dVertex
 10
22.00001887182168
 20
868.6261958016763
 30
0.0
  0
VERTEX
  5
18D
330
C7
100
AcDbEntity
  8
Make2D$可见线$普通线
100
AcDbVertex
100
AcDb2dVertex
 10
22.01224653892463
 20
874.8441189383084
 30
0.0
  0
VERTEX
  5
18E
330
C7
100
AcDbEntity
  8
Make2D$可见线$普通线
100
AcDbVertex
100
AcDb2dVertex
 10
22.01096691253582
 20
874.911784319151
 30
0.0
  0
VERTEX
  5
18F
330
C7
100
AcDbEntity
  8
Make2D$可见线$普通线
100
AcDbVertex
100
AcDb2dVertex
 10
22.00660058768466
 20
874.996376604441
 30
0.0
  0
VERTEX
  5
190
330
C7
100
AcDbEntity
  8
Make2D$可见线$普通线
100
AcDbVertex
100
AcDb2dVertex
 10
22.00270701650067
 20
875.046176929054
 30
0.0
  0
VERTEX
  5
191
330
C7
100
AcDbEntity
  8
Make2D$可见线$普通线
100
AcDbVertex
100
AcDb2dVertex
 10
21.99211590434668
 20
875.1467722185117
 30
0.0
  0
VERTEX
  5
192
330
C7
100
AcDbEntity
  8
Make2D$可见线$普通线
100
AcDbVertex
100
AcDb2dVertex
 10
21.98473462668603
 20
875.2029437904622
 30
0.0
  0
VERTEX
  5
193
330
C7
100
AcDbEntity
  8
Make2D$可见线$普通线
100
AcDbVertex
100
AcDb2dVertex
 10
21.96907465114677
 20
875.3037707184413
 30
0.0
  0
VERTEX
  5
194
330
C7
100
AcDbEntity
  8
Make2D$可见线$普通线
100
AcDbVertex
100
AcDb2dVertex
 10
21.94755488133787
 20
875.4189045820345
 30
0.0
  0
VERTEX
  5
195
330
C7
100
AcDbEntity
  8
Make2D$可见线$普通线
100
AcDbVertex
100
AcDb2dVertex
 10
21.92316949785586
 20
875.5335028313033
 30
0.0
  0
VERTEX
  5
196
330
C7
100
AcDbEntity
  8
Make2D$可见线$普通线
100
AcDbVertex
100
AcDb2dVertex
 10
21.89593982548151
 20
875.647458746487
 30
0.0
  0
VERTEX
  5
197
330
C7
100
AcDbEntity
  8
Make2D$可见线$普通线
100
AcDbVertex
100
AcDb2dVertex
 10
21.86589247168562
 20
875.7606668008312
 30
0.0
 42
0.0182681876404126
  0
VERTEX
  5
198
330
C7
100
AcDbEntity
  8
Make2D$可见线$普通线
100
AcDbVertex
100
AcDb2dVertex
 10
21.70763804462714
 20
876.2590938682697
 30
0.0
 42
0.0115003472218428
  0
VERTEX
  5
199
330
C7
100
AcDbEntity
  8
Make2D$可见线$普通线
100
AcDbVertex
100
AcDb2dVertex
 10
21.54296071224961
 20
876.6890257177503
 30
0.0
 42
0.0073804033244172
  0
VERTEX
  5
19A
330
C7
100
AcDbEntity
  8
Make2D$可见线$普通线
100
AcDbVertex
100
AcDb2dVertex
 10
21.39663193857946
 20
877.0322088540061
 30
0.0
 42
0.0098642328161606
  0
VERTEX
  5
19B
330
C7
100
AcDbEntity
  8
Make2D$可见线$普通线
100
AcDbVertex
100
AcDb2dVertex
 10
21.12224059079854
 20
877.6179626759105
 30
0.0
  0
VERTEX
  5
19C
330
C7
100
AcDbEntity
  8
Make2D$可见线$普通线
100
AcDbVertex
100
AcDb2dVertex
 10
20.86514091768667
 20
878.1262319781852
 30
0.0
  0
VERTEX
  5
19D
330
C7
100
AcDbEntity
  8
Make2D$可见线$普通线
100
AcDbVertex
100
AcDb2dVertex
 10
20.59349802252453
 20
878.6595225769577
 30
0.0
  0
VERTEX
  5
19E
330
C7
100
AcDbEntity
  8
Make2D$可见线$普通线
100
AcDbVertex
100
AcDb2dVertex
 10
19.38462873467725
 20
881.0320871857525
 30
0.0
  0
VERTEX
  5
19F
330
C7
100
AcDbEntity
  8
Make2D$可见线$普通线
100
AcDbVertex
100
AcDb2dVertex
 10
17.98898670255988
 20
883.7711911262481
 30
0.0
  0
VERTEX
  5
1A0
330
C7
100
AcDbEntity
  8
Make2D$可见线$普通线
100
AcDbVertex
100
AcDb2dVertex
 10
14.68903180536157
 20
890.2477175558868
 30
0.0
  0
VERTEX
  5
1A1
330
C7
100
AcDbEntity
  8
Make2D$可见线$普通线
100
AcDbVertex
100
AcDb2dVertex
 10
14.36104483181018
 20
890.8914282477731
 30
0.0
  0
VERTEX
  5
1A2
330
C7
100
AcDbEntity
  8
Make2D$可见线$普通线
100
AcDbVertex
100
AcDb2dVertex
 10
10.80087472810682
 20
897.8786555085313
 30
0.0
  0
VERTEX
  5
1A3
330
C7
100
AcDbEntity
  8
Make2D$可见线$普通线
100
AcDbVertex
100
AcDb2dVertex
 10
-26.32398456408338
 20
970.7402943733443
 30
0.0
 42
0.4142129929919363
  0
VERTEX
  5
1A4
330
C7
100
AcDbEntity
  8
Make2D$可见线$普通线
100
AcDbVertex
100
AcDb2dVertex
 10
-26.59316318078537
 20
970.8280493014241
 30
0.0
  0
SEQEND
  5
1A5
330
C7
100
AcDbEntity
  8
Make2D$可见线$普通线
  0
POLYLINE
  5
1A6
330
1F
100
AcDbEntity
  8
Make2D$可见线$普通线
100
AcDb2dPolyline
 66
     1
 10
0.0
 20
0.0
 30
0.0
  0
VERTEX
  5
1A7
330
1A6
100
AcDbEntity
  8
Make2D$可见线$普通线
100
AcDbVertex
100
AcDb2dVertex
 10
2.208074724457369
 20
721.8855595654101
 30
0.0
  0
VERTEX
  5
1A8
330
1A6
100
AcDbEntity
  8
Make2D$可见线$普通线
100
AcDbVertex
100
AcDb2dVertex
 10
1.392331584045661
 20
731.2022086807714
 30
0.0
 42
-0.3605267964023544
  0
VERTEX
  5
1A9
330
1A6
100
AcDbEntity
  8
Make2D$可见线$普通线
100
AcDbVertex
100
AcDb2dVertex
 10
1.53743453312907
 20
731.4121877622412
 30
0.0
  0
SEQEND
  5
1AA
330
1A6
100
AcDbEntity
  8
Make2D$可见线$普通线
  0
POLYLINE
  5
1AB
330
1F
100
AcDbEntity
  8
Make2D$可见线$普通线
100
AcDb2dPolyline
 66
     1
 10
0.0
 20
0.0
 30
0.0
  0
VERTEX
  5
1AC
330
1AB
100
AcDbEntity
  8
Make2D$可见线$普通线
100
AcDbVertex
100
AcDb2dVertex
 10
1.553353887407745
 20
731.4159825020448
 30
0.0
  0
VERTEX
  5
1AD
330
1AB
100
AcDbEntity
  8
Make2D$可见线$普通线
100
AcDbVertex
100
AcDb2dVertex
 10
1.56482660853775
 20
731.4178584260936
 30
0.0
  0
VERTEX
  5
1AE
330
1AB
100
AcDbEntity
  8
Make2D$可见线$普通线
100
AcDbVertex
100
AcDb2dVertex
 10
1.565893602971038
 20
731.4179988421066
 30
0.0
  0
VERTEX
  5
1AF
330
1AB
100
AcDbEntity
  8
Make2D$可见线$普通线
100
AcDbVertex
100
AcDb2dVertex
 10
1.589433635127726
 20
731.4195149596509
 30
0.0
  0
SEQEND
  5
1B0
330
1AB
100
AcDbEntity
  8
Make2D$可见线$普通线
  0
POLYLINE
  5
1B1
330
1F
100
AcDbEntity
  8
Make2D$可见线$普通线
100
AcDb2dPolyline
 66
     1
 10
0.0
 20
0.0
 30
0.0
  0
VERTEX
  5
1B2
330
1B1
100
AcDbEntity
  8
Make2D$可见线$普通线
100
AcDbVertex
100
AcDb2dVertex
 10
3.626744263864531
 20
731.4196534454533
 30
0.0
  0
VERTEX
  5
1B3
330
1B1
100
AcDbEntity
  8
Make2D$可见线$普通线
100
AcDbVertex
100
AcDb2dVertex
 10
3.626743973133186
 20
731.7196531635487
 30
0.0
 42
0.333057485872803
  0
VERTEX
  5
1B4
330
1B1
100
AcDbEntity
  8
Make2D$可见线$普通线
100
AcDbVertex
100
AcDb2dVertex
 10
3.482973681027427
 20
731.911559771861
 30
0.0
  0
VERTEX
  5
1B5
330
1B1
100
AcDbEntity
  8
Make2D$可见线$普通线
100
AcDbVertex
100
AcDb2dVertex
 10
3.477442614352242
 20
731.9130927560076
 30
0.0
  0
VERTEX
  5
1B6
330
1B1
100
AcDbEntity
  8
Make2D$可见线$普通线
100
AcDbVertex
100
AcDb2dVertex
 10
3.476335986348488
 20
731.913400355928
 30
0.0
  0
VERTEX
  5
1B7
330
1B1
100
AcDbEntity
  8
Make2D$可见线$普通线
100
AcDbVertex
100
AcDb2dVertex
 10
3.451519069846356
 20
731.9181104156743
 30
0.0
  0
VERTEX
  5
1B8
330
1B1
100
AcDbEntity
  8
Make2D$可见线$普通线
100
AcDbVertex
100
AcDb2dVertex
 10
3.442619081332474
 20
731.9193163441138
 30
0.0
  0
SEQEND
  5
1B9
330
1B1
100
AcDbEntity
  8
Make2D$可见线$普通线
  0
POLYLINE
  5
1BA
330
1F
100
AcDbEntity
  8
Make2D$可见线$普通线
100
AcDb2dPolyline
 66
     1
 10
0.0
 20
0.0
 30
0.0
  0
VERTEX
  5
1BB
330
1BA
100
AcDbEntity
  8
Make2D$可见线$普通线
100
AcDbVertex
100
AcDb2dVertex
 10
4.885921914055537
 20
723.6192084893593
 30
0.0
  0
VERTEX
  5
1BC
330
1BA
100
AcDbEntity
  8
Make2D$可见线$普通线
100
AcDbVertex
100
AcDb2dVertex
 10
4.885921914055548
 20
724.5888212348046
 30
0.0
 42
-0.2659270539024022
  0
VERTEX
  5
1BD
330
1BA
100
AcDbEntity
  8
Make2D$可见线$普通线
100
AcDbVertex
100
AcDb2dVertex
 10
4.984616925109749
 20
724.7612662639484
 30
0.0
 42
-0.0912987863340764
  0
VERTEX
  5
1BE
330
1BA
100
AcDbEntity
  8
Make2D$可见线$普通线
100
AcDbVertex
100
AcDb2dVertex
 10
10.35125387985857
 20
726.7088426117061
 30
0.0
 42
-0.0416699622594254
  0
VERTEX
  5
1BF
330
1BA
100
AcDbEntity
  8
Make2D$可见线$普通线
100
AcDbVertex
100
AcDb2dVertex
 10
13.00001845986775
 20
726.9301126764364
 30
0.0
  0
VERTEX
  5
1C0
330
1BA
100
AcDbEntity
  8
Make2D$可见线$普通线
100
AcDbVertex
100
AcDb2dVertex
 10
21.62674425374193
 20
726.9301126763959
 30
0.0
  0
SEQEND
  5
1C1
330
1BA
100
AcDbEntity
  8
Make2D$可见线$普通线
  0
POLYLINE
  5
1C2
330
1F
100
AcDbEntity
  8
Make2D$可见线$普通线
100
AcDb2dPolyline
 66
     1
 10
0.0
 20
0.0
 30
0.0
  0
VERTEX
  5
1C3
330
1C2
100
AcDbEntity
  8
Make2D$可见线$普通线
100
AcDbVertex
100
AcDb2dVertex
 10
-5.405019948725311
 20
880.9500146769875
 30
0.0
  0
VERTEX
  5
1C4
330
1C2
100
AcDbEntity
  8
Make2D$可见线$普通线
100
AcDbVertex
100
AcDb2dVertex
 10
-6.897448476627721
 20
880.1895660663838
 30
0.0
 42
-0.4142710761112165
  0
VERTEX
  5
1C5
330
1C2
100
AcDbEntity
  8
Make2D$可见线$普通线
100
AcDbVertex
100
AcDb2dVertex
 10
-7.166442454667622
 20
880.2769586206832
 30
0.0
  0
VERTEX
  5
1C6
330
1C2
100
AcDbEntity
  8
Make2D$可见线$普通线
100
AcDbVertex
100
AcDb2dVertex
 10
-7.178211487793114
 20
880.3000566487348
 30
0.0
  0
VERTEX
  5
1C7
330
1C2
100
AcDbEntity
  8
Make2D$可见线$普通线
100
AcDbVertex
100
AcDb2dVertex
 10
-7.191869101670086
 20
880.3268612252095
 30
0.0
  0
VERTEX
  5
1C8
330
1C2
100
AcDbEntity
  8
Make2D$可见线$普通线
100
AcDbVertex
100
AcDb2dVertex
 10
-7.201741070303441
 20
880.3462360545591
 30
0.0
  0
VERTEX
  5
1C9
330
1C2
100
AcDbEntity
  8
Make2D$可见线$普通线
100
AcDbVertex
100
AcDb2dVertex
 10
-7.211501444230038
 20
880.3653918669648
 30
0.0
  0
VERTEX
  5
1CA
330
1C2
100
AcDbEntity
  8
Make2D$可见线$普通线
100
AcDbVertex
100
AcDb2dVertex
 10
-7.212222829826011
 20
880.366807665914
 30
0.0
  0
VERTEX
  5
1CB
330
1C2
100
AcDbEntity
  8
Make2D$可见线$普通线
100
AcDbVertex
100
AcDb2dVertex
 10
-7.223973256481337
 20
880.3898691767117
 30
0.0
  0
VERTEX
  5
1CC
330
1C2
100
AcDbEntity
  8
Make2D$可见线$普通线
100
AcDbVertex
100
AcDb2dVertex
 10
-8.174087958152931
 20
882.254574271624
 30
0.0
  0
VERTEX
  5
1CD
330
1C2
100
AcDbEntity
  8
Make2D$可见线$普通线
100
AcDbVertex
100
AcDb2dVertex
 10
-8.24675301417966
 20
882.3971874739634
 30
0.0
  0
VERTEX
  5
1CE
330
1C2
100
AcDbEntity
  8
Make2D$可见线$普通线
100
AcDbVertex
100
AcDb2dVertex
 10
-8.312261852339887
 20
882.5257558079385
 30
0.0
  0
VERTEX
  5
1CF
330
1C2
100
AcDbEntity
  8
Make2D$可见线$普通线
100
AcDbVertex
100
AcDb2dVertex
 10
-8.329218022948226
 20
882.5590341665072
 30
0.0
  0
VERTEX
  5
1D0
330
1C2
100
AcDbEntity
  8
Make2D$可见线$普通线
100
AcDbVertex
100
AcDb2dVertex
 10
-8.335634524614882
 20
882.5716272600865
 30
0.0
  0
VERTEX
  5
1D1
330
1C2
100
AcDbEntity
  8
Make2D$可见线$普通线
100
AcDbVertex
100
AcDb2dVertex
 10
-8.346843407713077
 20
882.5936259318098
 30
0.0
 42
-0.4142710761111562
  0
VERTEX
  5
1D2
330
1C2
100
AcDbEntity
  8
Make2D$可见线$普通线
100
AcDbVertex
100
AcDb2dVertex
 10
-8.259434776078526
 20
882.8626146860065
 30
0.0
  0
VERTEX
  5
1D3
330
1C2
100
AcDbEntity
  8
Make2D$可见线$普通线
100
AcDbVertex
100
AcDb2dVertex
 10
-6.76699144796001
 20
883.6230342495444
 30
0.0
  0
SEQEND
  5
1D4
330
1C2
100
AcDbEntity
  8
Make2D$可见线$普通线
  0
POLYLINE
  5
1D5
330
1F
100
AcDbEntity
  8
Make2D$可见线$普通线
100
AcDb2dPolyline
 66
     1
 10
0.0
 20
0.0
 30
0.0
  0
VERTEX
  5
1D6
330
1D5
100
AcDbEntity
  8
Make2D$可见线$普通线
100
AcDbVertex
100
AcDb2dVertex
 10
-2.390737270503454
 20
875.0341518262189
 30
0.0
  0
VERTEX
  5
1D7
330
1D5
100
AcDbEntity
  8
Make2D$可见线$普通线
100
AcDbVertex
100
AcDb2dVertex
 10
-3.883165798405809
 20
874.2737032156151
 30
0.0
 42
-0.4142710761109857
  0
VERTEX
  5
1D8
330
1D5
100
AcDbEntity
  8
Make2D$可见线$普通线
100
AcDbVertex
100
AcDb2dVertex
 10
-4.152159776445773
 20
874.3610957699145
 30
0.0
  0
VERTEX
  5
1D9
330
1D5
100
AcDbEntity
  8
Make2D$可见线$普通线
100
AcDbVertex
100
AcDb2dVertex
 10
-4.163368659405933
 20
874.383094441367
 30
0.0
  0
VERTEX
  5
1DA
330
1D5
100
AcDbEntity
  8
Make2D$可见线$普通线
100
AcDbVertex
100
AcDb2dVertex
 10
-4.197940151604126
 20
874.4509448151455
 30
0.0
  0
VERTEX
  5
1DB
330
1D5
100
AcDbEntity
  8
Make2D$可见线$普通线
100
AcDbVertex
100
AcDb2dVertex
 10
-4.208987611560305
 20
874.4726266761143
 30
0.0
  0
VERTEX
  5
1DC
330
1D5
100
AcDbEntity
  8
Make2D$可见线$普通线
100
AcDbVertex
100
AcDb2dVertex
 10
-4.22267930274184
 20
874.4994981330651
 30
0.0
  0
VERTEX
  5
1DD
330
1D5
100
AcDbEntity
  8
Make2D$可见线$普通线
100
AcDbVertex
100
AcDb2dVertex
 10
-4.236275068776697
 20
874.5261813263152
 30
0.0
  0
VERTEX
  5
1DE
330
1D5
100
AcDbEntity
  8
Make2D$可见线$普通线
100
AcDbVertex
100
AcDb2dVertex
 10
-4.236875955674888
 20
874.5273606332541
 30
0.0
  0
VERTEX
  5
1DF
330
1D5
100
AcDbEntity
  8
Make2D$可见线$普通线
100
AcDbVertex
100
AcDb2dVertex
 10
-4.251731446193421
 20
874.55651617501
 30
0.0
  0
VERTEX
  5
1E0
330
1D5
100
AcDbEntity
  8
Make2D$可见线$普通线
100
AcDbVertex
100
AcDb2dVertex
 10
-5.232989057548991
 20
876.4823426716392
 30
0.0
  0
VERTEX
  5
1E1
330
1D5
100
AcDbEntity
  8
Make2D$可见线$普通线
100
AcDbVertex
100
AcDb2dVertex
 10
-5.247844548411088
 20
876.5114982140692
 30
0.0
  0
VERTEX
  5
1E2
330
1D5
100
AcDbEntity
  8
Make2D$可见线$普通线
100
AcDbVertex
100
AcDb2dVertex
 10
-5.248445435284815
 20
876.5126775209601
 30
0.0
  0
VERTEX
  5
1E3
330
1D5
100
AcDbEntity
  8
Make2D$可见线$普通线
100
AcDbVertex
100
AcDb2dVertex
 10
-5.262041201635444
 20
876.5393607148301
 30
0.0
  0
VERTEX
  5
1E4
330
1D5
100
AcDbEntity
  8
Make2D$可见线$普通线
100
AcDbVertex
100
AcDb2dVertex
 10
-5.262703752706772
 20
876.5406610445231
 30
0.0
  0
VERTEX
  5
1E5
330
1D5
100
AcDbEntity
  8
Make2D$可见线$普通线
100
AcDbVertex
100
AcDb2dVertex
 10
-5.2867803531805
 20
876.5879140335489
 30
0.0
  0
VERTEX
  5
1E6
330
1D5
100
AcDbEntity
  8
Make2D$可见线$普通线
100
AcDbVertex
100
AcDb2dVertex
 10
-5.297979174118018
 20
876.6098929571699
 30
0.0
  0
VERTEX
  5
1E7
330
1D5
100
AcDbEntity
  8
Make2D$可见线$普通线
100
AcDbVertex
100
AcDb2dVertex
 10
-5.306444836145376
 20
876.6265077544006
 30
0.0
  0
VERTEX
  5
1E8
330
1D5
100
AcDbEntity
  8
Make2D$可见线$普通线
100
AcDbVertex
100
AcDb2dVertex
 10
-5.321351846392997
 20
876.655764409318
 30
0.0
  0
VERTEX
  5
1E9
330
1D5
100
AcDbEntity
  8
Make2D$可见线$普通线
100
AcDbVertex
100
AcDb2dVertex
 10
-5.332560729491228
 20
876.6777630810411
 30
0.0
 42
-0.4142710761102928
  0
VERTEX
  5
1EA
330
1D5
100
AcDbEntity
  8
Make2D$可见线$普通线
100
AcDbVertex
100
AcDb2dVertex
 10
-5.245152097856657
 20
876.946751835238
 30
0.0
  0
VERTEX
  5
1EB
330
1D5
100
AcDbEntity
  8
Make2D$可见线$普通线
100
AcDbVertex
100
AcDb2dVertex
 10
-3.752708769735996
 20
877.7071713987768
 30
0.0
  0
SEQEND
  5
1EC
330
1D5
100
AcDbEntity
  8
Make2D$可见线$普通线
  0
POLYLINE
  5
1ED
330
1F
100
AcDbEntity
  8
Make2D$可见线$普通线
100
AcDb2dPolyline
 66
     1
 10
0.0
 20
0.0
 30
0.0
  0
VERTEX
  5
1EE
330
1ED
100
AcDbEntity
  8
Make2D$可见线$普通线
100
AcDbVertex
100
AcDb2dVertex
 10
0.6235454077187015
 20
869.1182889754505
 30
0.0
  0
VERTEX
  5
1EF
330
1ED
100
AcDbEntity
  8
Make2D$可见线$普通线
100
AcDbVertex
100
AcDb2dVertex
 10
-0.8688831201839573
 20
868.3578403648467
 30
0.0
 42
-0.4142710761109126
  0
VERTEX
  5
1F0
330
1ED
100
AcDbEntity
  8
Make2D$可见线$普通线
100
AcDbVertex
100
AcDb2dVertex
 10
-1.137877098223848
 20
868.4452329191461
 30
0.0
  0
VERTEX
  5
1F1
330
1ED
100
AcDbEntity
  8
Make2D$可见线$普通线
100
AcDbVertex
100
AcDb2dVertex
 10
-1.156139673902155
 20
868.4810752420294
 30
0.0
  0
VERTEX
  5
1F2
330
1ED
100
AcDbEntity
  8
Make2D$可见线$普通线
100
AcDbVertex
100
AcDb2dVertex
 10
-1.163303745226303
 20
868.4951355236723
 30
0.0
  0
VERTEX
  5
1F3
330
1ED
100
AcDbEntity
  8
Make2D$可见线$普通线
100
AcDbVertex
100
AcDb2dVertex
 10
-1.207734073429926
 20
868.5823349525667
 30
0.0
  0
VERTEX
  5
1F4
330
1ED
100
AcDbEntity
  8
Make2D$可见线$普通线
100
AcDbVertex
100
AcDb2dVertex
 10
-1.222593277452956
 20
868.6114977824855
 30
0.0
  0
VERTEX
  5
1F5
330
1ED
100
AcDbEntity
  8
Make2D$可见线$普通线
100
AcDbVertex
100
AcDb2dVertex
 10
-2.261450214788923
 20
870.6503693213925
 30
0.0
  0
VERTEX
  5
1F6
330
1ED
100
AcDbEntity
  8
Make2D$可见线$普通线
100
AcDbVertex
100
AcDb2dVertex
 10
-2.272497674958599
 20
870.6720511827805
 30
0.0
  0
VERTEX
  5
1F7
330
1ED
100
AcDbEntity
  8
Make2D$可见线$普通线
100
AcDbVertex
100
AcDb2dVertex
 10
-2.273219060540503
 20
870.673466981702
 30
0.0
  0
VERTEX
  5
1F8
330
1ED
100
AcDbEntity
  8
Make2D$可见线$普通线
100
AcDbVertex
100
AcDb2dVertex
 10
-2.307069168171079
 20
870.7399015585493
 30
0.0
  0
VERTEX
  5
1F9
330
1ED
100
AcDbEntity
  8
Make2D$可见线$普通线
100
AcDbVertex
100
AcDb2dVertex
 10
-2.318278051269214
 20
870.7619002302725
 30
0.0
 42
-0.4142710761114052
  0
VERTEX
  5
1FA
330
1ED
100
AcDbEntity
  8
Make2D$可见线$普通线
100
AcDbVertex
100
AcDb2dVertex
 10
-2.230869419634872
 20
871.0308889844696
 30
0.0
  0
VERTEX
  5
1FB
330
1ED
100
AcDbEntity
  8
Make2D$可见线$普通线
100
AcDbVertex
100
AcDb2dVertex
 10
-0.7384260915137091
 20
871.7913085480086
 30
0.0
  0
SEQEND
  5
1FC
330
1ED
100
AcDbEntity
  8
Make2D$可见线$普通线
  0
POLYLINE
  5
1FD
330
1F
100
AcDbEntity
  8
Make2D$可见线$普通线
100
AcDb2dPolyline
 66
     1
 10
0.0
 20
0.0
 30
0.0
  0
VERTEX
  5
1FE
330
1FD
100
AcDbEntity
  8
Make2D$可见线$普通线
100
AcDbVertex
100
AcDb2dVertex
 10
-35.54784673095489
 20
940.1086431846687
 30
0.0
  0
VERTEX
  5
1FF
330
1FD
100
AcDbEntity
  8
Make2D$可见线$普通线
100
AcDbVertex
100
AcDb2dVertex
 10
-37.0402752588549
 20
939.3481945740662
 30
0.0
 42
-0.4142710761124398
  0
VERTEX
  5
200
330
1FD
100
AcDbEntity
  8
Make2D$可见线$普通线
100
AcDbVertex
100
AcDb2dVertex
 10
-37.30926923689485
 20
939.4355871283656
 30
0.0
  0
VERTEX
  5
201
330
1FD
100
AcDbEntity
  8
Make2D$可见线$普通线
100
AcDbVertex
100
AcDb2dVertex
 10
-37.32047811985498
 20
939.4575857998182
 30
0.0
  0
VERTEX
  5
202
330
1FD
100
AcDbEntity
  8
Make2D$可见线$普通线
100
AcDbVertex
100
AcDb2dVertex
 10
-37.32103827002029
 20
939.4586851564172
 30
0.0
  0
VERTEX
  5
203
330
1FD
100
AcDbEntity
  8
Make2D$可见线$普通线
100
AcDbVertex
100
AcDb2dVertex
 10
-37.32753181257314
 20
939.4714294512493
 30
0.0
  0
VERTEX
  5
204
330
1FD
100
AcDbEntity
  8
Make2D$可见线$普通线
100
AcDbVertex
100
AcDb2dVertex
 10
-37.33538512945157
 20
939.4868424534577
 30
0.0
  0
VERTEX
  5
205
330
1FD
100
AcDbEntity
  8
Make2D$可见线$普通线
100
AcDbVertex
100
AcDb2dVertex
 10
-37.36609707200934
 20
939.5471180345653
 30
0.0
  0
VERTEX
  5
206
330
1FD
100
AcDbEntity
  8
Make2D$可见线$普通线
100
AcDbVertex
100
AcDb2dVertex
 10
-37.37912621210097
 20
939.5726891617867
 30
0.0
  0
VERTEX
  5
207
330
1FD
100
AcDbEntity
  8
Make2D$可见线$普通线
100
AcDbVertex
100
AcDb2dVertex
 10
-37.37978876319089
 20
939.5739894915162
 30
0.0
  0
VERTEX
  5
208
330
1FD
100
AcDbEntity
  8
Make2D$可见线$普通线
100
AcDbVertex
100
AcDb2dVertex
 10
-37.39398541612395
 20
939.6018519917052
 30
0.0
  0
VERTEX
  5
209
330
1FD
100
AcDbEntity
  8
Make2D$可见线$普通线
100
AcDbVertex
100
AcDb2dVertex
 10
-37.40884090664248
 20
939.6310075334609
 30
0.0
  0
VERTEX
  5
20A
330
1FD
100
AcDbEntity
  8
Make2D$可见线$普通线
100
AcDbVertex
100
AcDb2dVertex
 10
-37.4093596282549
 20
939.6320255819469
 30
0.0
  0
VERTEX
  5
20B
330
1FD
100
AcDbEntity
  8
Make2D$可见线$普通线
100
AcDbVertex
100
AcDb2dVertex
 10
-37.48202468285412
 20
939.7746387814847
 30
0.0
  0
VERTEX
  5
20C
330
1FD
100
AcDbEntity
  8
Make2D$可见线$普通线
100
AcDbVertex
100
AcDb2dVertex
 10
-38.38957979640682
 20
941.555815981646
 30
0.0
  0
VERTEX
  5
20D
330
1FD
100
AcDbEntity
  8
Make2D$可见线$普通线
100
AcDbVertex
100
AcDb2dVertex
 10
-38.39009851799801
 20
941.5568340300903
 30
0.0
  0
VERTEX
  5
20E
330
1FD
100
AcDbEntity
  8
Make2D$可见线$普通线
100
AcDbVertex
100
AcDb2dVertex
 10
-38.4198132131558
 20
941.615152402974
 30
0.0
  0
VERTEX
  5
20F
330
1FD
100
AcDbEntity
  8
Make2D$可见线$普通线
100
AcDbVertex
100
AcDb2dVertex
 10
-38.43213938677586
 20
941.6393438808129
 30
0.0
  0
VERTEX
  5
210
330
1FD
100
AcDbEntity
  8
Make2D$可见线$普通线
100
AcDbVertex
100
AcDb2dVertex
 10
-38.43284235345987
 20
941.6407235306121
 30
0.0
  0
VERTEX
  5
211
330
1FD
100
AcDbEntity
  8
Make2D$可见线$普通线
100
AcDbVertex
100
AcDb2dVertex
 10
-38.44388981362957
 20
941.662405392
 30
0.0
  0
VERTEX
  5
212
330
1FD
100
AcDbEntity
  8
Make2D$可见线$普通线
100
AcDbVertex
100
AcDb2dVertex
 10
-38.44461119921146
 20
941.6638211909215
 30
0.0
  0
VERTEX
  5
213
330
1FD
100
AcDbEntity
  8
Make2D$可见线$普通线
100
AcDbVertex
100
AcDb2dVertex
 10
-38.45508863456703
 20
941.6843843156208
 30
0.0
  0
VERTEX
  5
214
330
1FD
100
AcDbEntity
  8
Make2D$可见线$普通线
100
AcDbVertex
100
AcDb2dVertex
 10
-38.46355429659442
 20
941.7009991128516
 30
0.0
  0
VERTEX
  5
215
330
1FD
100
AcDbEntity
  8
Make2D$可见线$普通线
100
AcDbVertex
100
AcDb2dVertex
 10
-38.46424354213818
 20
941.7023518333967
 30
0.0
  0
VERTEX
  5
216
330
1FD
100
AcDbEntity
  8
Make2D$可见线$普通线
100
AcDbVertex
100
AcDb2dVertex
 10
-38.47140761406467
 20
941.7164121162216
 30
0.0
  0
VERTEX
  5
217
330
1FD
100
AcDbEntity
  8
Make2D$可见线$普通线
100
AcDbVertex
100
AcDb2dVertex
 10
-38.48967018994032
 20
941.7522544394922
 30
0.0
 42
-0.4142710761106418
  0
VERTEX
  5
218
330
1FD
100
AcDbEntity
  8
Make2D$可见线$普通线
100
AcDbVertex
100
AcDb2dVertex
 10
-38.40226155830574
 20
942.0212431936891
 30
0.0
  0
VERTEX
  5
219
330
1FD
100
AcDbEntity
  8
Make2D$可见线$普通线
100
AcDbVertex
100
AcDb2dVertex
 10
-36.90981823018964
 20
942.7816627572255
 30
0.0
  0
SEQEND
  5
21A
330
1FD
100
AcDbEntity
  8
Make2D$可见线$普通线
  0
POLYLINE
  5
21B
330
1F
100
AcDbEntity
  8
Make2D$可见线$普通线
100
AcDb2dPolyline
 66
     1
 10
0.0
 20
0.0
 30
0.0
  0
VERTEX
  5
21C
330
21B
100
AcDbEntity
  8
Make2D$可见线$普通线
100
AcDbVertex
100
AcDb2dVertex
 10
-14.44786798339595
 20
898.6976032292911
 30
0.0
  0
VERTEX
  5
21D
330
21B
100
AcDbEntity
  8
Make2D$可见线$普通线
100
AcDbVertex
100
AcDb2dVertex
 10
-15.94029651129511
 20
897.937154618689
 30
0.0
 42
-0.4142710761109724
  0
VERTEX
  5
21E
330
21B
100
AcDbEntity
  8
Make2D$可见线$普通线
100
AcDbVertex
100
AcDb2dVertex
 10
-16.20929048933505
 20
898.0245471729884
 30
0.0
  0
VERTEX
  5
21F
330
21B
100
AcDbEntity
  8
Make2D$可见线$普通线
100
AcDbVertex
100
AcDb2dVertex
 10
-16.22105952246054
 20
898.04764520104
 30
0.0
  0
VERTEX
  5
220
330
21B
100
AcDbEntity
  8
Make2D$可见线$普通线
100
AcDbVertex
100
AcDb2dVertex
 10
-16.22691587389082
 20
898.0591389378809
 30
0.0
  0
VERTEX
  5
221
330
21B
100
AcDbEntity
  8
Make2D$可见线$普通线
100
AcDbVertex
100
AcDb2dVertex
 10
-16.24387204373077
 20
898.0924172949415
 30
0.0
  0
VERTEX
  5
222
330
21B
100
AcDbEntity
  8
Make2D$可见线$普通线
100
AcDbVertex
100
AcDb2dVertex
 10
-16.24458910497085
 20
898.0938246068645
 30
0.0
  0
VERTEX
  5
223
330
21B
100
AcDbEntity
  8
Make2D$可见线$普通线
100
AcDbVertex
100
AcDb2dVertex
 10
-16.25507086449341
 20
898.1143962182193
 30
0.0
  0
VERTEX
  5
224
330
21B
100
AcDbEntity
  8
Make2D$可见线$普通线
100
AcDbVertex
100
AcDb2dVertex
 10
-17.21693599282035
 20
900.0021628239293
 30
0.0
  0
VERTEX
  5
225
330
21B
100
AcDbEntity
  8
Make2D$可见线$普通线
100
AcDbVertex
100
AcDb2dVertex
 10
-17.33216063921608
 20
900.2283039254359
 30
0.0
  0
VERTEX
  5
226
330
21B
100
AcDbEntity
  8
Make2D$可见线$普通线
100
AcDbVertex
100
AcDb2dVertex
 10
-17.34391106606979
 20
900.2513654366228
 30
0.0
  0
VERTEX
  5
227
330
21B
100
AcDbEntity
  8
Make2D$可见线$普通线
100
AcDbVertex
100
AcDb2dVertex
 10
-17.34463245165171
 20
900.2527812355445
 30
0.0
  0
VERTEX
  5
228
330
21B
100
AcDbEntity
  8
Make2D$可见线$普通线
100
AcDbVertex
100
AcDb2dVertex
 10
-17.35510988700729
 20
900.2733443602438
 30
0.0
  0
VERTEX
  5
229
330
21B
100
AcDbEntity
  8
Make2D$可见线$普通线
100
AcDbVertex
100
AcDb2dVertex
 10
-17.37142886650489
 20
900.3053721608444
 30
0.0
  0
VERTEX
  5
22A
330
21B
100
AcDbEntity
  8
Make2D$可见线$普通线
100
AcDbVertex
100
AcDb2dVertex
 10
-17.37848255928226
 20
900.3192158123918
 30
0.0
  0
VERTEX
  5
22B
330
21B
100
AcDbEntity
  8
Make2D$可见线$普通线
100
AcDbVertex
100
AcDb2dVertex
 10
-17.38969144238049
 20
900.341214484115
 30
0.0
 42
-0.4142710761111479
  0
VERTEX
  5
22C
330
21B
100
AcDbEntity
  8
Make2D$可见线$普通线
100
AcDbVertex
100
AcDb2dVertex
 10
-17.30228281074611
 20
900.6102032383124
 30
0.0
  0
VERTEX
  5
22D
330
21B
100
AcDbEntity
  8
Make2D$可见线$普通线
100
AcDbVertex
100
AcDb2dVertex
 10
-15.80983949847426
 20
901.3706227937753
 30
0.0
  0
SEQEND
  5
22E
330
21B
100
AcDbEntity
  8
Make2D$可见线$普通线
  0
POLYLINE
  5
22F
330
1F
100
AcDbEntity
  8
Make2D$可见线$普通线
100
AcDb2dPolyline
 66
     1
 10
0.0
 20
0.0
 30
0.0
  0
VERTEX
  5
230
330
22F
100
AcDbEntity
  8
Make2D$可见线$普通线
100
AcDbVertex
100
AcDb2dVertex
 10
-20.47643333984033
 20
910.5293289308279
 30
0.0
  0
VERTEX
  5
231
330
22F
100
AcDbEntity
  8
Make2D$可见线$普通线
100
AcDbVertex
100
AcDb2dVertex
 10
-21.96886186774044
 20
909.7688803202254
 30
0.0
 42
-0.4142710761110344
  0
VERTEX
  5
232
330
22F
100
AcDbEntity
  8
Make2D$可见线$普通线
100
AcDbVertex
100
AcDb2dVertex
 10
-22.23785584578042
 20
909.8562728745248
 30
0.0
  0
VERTEX
  5
233
330
22F
100
AcDbEntity
  8
Make2D$可见线$普通线
100
AcDbVertex
100
AcDb2dVertex
 10
-22.24906472874057
 20
909.8782715459772
 30
0.0
  0
VERTEX
  5
234
330
22F
100
AcDbEntity
  8
Make2D$可见线$普通线
100
AcDbVertex
100
AcDb2dVertex
 10
-22.24962487890592
 20
909.8793709025765
 30
0.0
  0
VERTEX
  5
235
330
22F
100
AcDbEntity
  8
Make2D$可见线$普通线
100
AcDbVertex
100
AcDb2dVertex
 10
-22.25611842145871
 20
909.8921151974082
 30
0.0
  0
VERTEX
  5
236
330
22F
100
AcDbEntity
  8
Make2D$可见线$普通线
100
AcDbVertex
100
AcDb2dVertex
 10
-22.27315446141622
 20
909.9255503084008
 30
0.0
  0
VERTEX
  5
237
330
22F
100
AcDbEntity
  8
Make2D$可见线$普通线
100
AcDbVertex
100
AcDb2dVertex
 10
-22.41061129173971
 20
910.1953245276437
 30
0.0
  0
VERTEX
  5
238
330
22F
100
AcDbEntity
  8
Make2D$可见线$普通线
100
AcDbVertex
100
AcDb2dVertex
 10
-23.24550134926568
 20
911.8338885254656
 30
0.0
  0
VERTEX
  5
239
330
22F
100
AcDbEntity
  8
Make2D$可见线$普通线
100
AcDbVertex
100
AcDb2dVertex
 10
-23.31816640529242
 20
911.976501727805
 30
0.0
  0
VERTEX
  5
23A
330
22F
100
AcDbEntity
  8
Make2D$可见线$普通线
100
AcDbVertex
100
AcDb2dVertex
 10
-23.31868512688362
 20
911.9775197762494
 30
0.0
  0
VERTEX
  5
23B
330
22F
100
AcDbEntity
  8
Make2D$可见线$普通线
100
AcDbVertex
100
AcDb2dVertex
 10
-23.34773727097011
 20
912.0345378194402
 30
0.0
  0
VERTEX
  5
23C
330
22F
100
AcDbEntity
  8
Make2D$可见线$普通线
100
AcDbVertex
100
AcDb2dVertex
 10
-23.34839982204141
 20
912.0358381491332
 30
0.0
  0
VERTEX
  5
23D
330
22F
100
AcDbEntity
  8
Make2D$可见线$普通线
100
AcDbVertex
100
AcDb2dVertex
 10
-23.36072599566145
 20
912.0600296269722
 30
0.0
  0
VERTEX
  5
23E
330
22F
100
AcDbEntity
  8
Make2D$可见线$普通线
100
AcDbVertex
100
AcDb2dVertex
 10
-23.40063141406098
 20
912.1383484203487
 30
0.0
  0
VERTEX
  5
23F
330
22F
100
AcDbEntity
  8
Make2D$可见线$普通线
100
AcDbVertex
100
AcDb2dVertex
 10
-23.41825679882588
 20
912.1729401856512
 30
0.0
 42
-0.4142710761104354
  0
VERTEX
  5
240
330
22F
100
AcDbEntity
  8
Make2D$可见线$普通线
100
AcDbVertex
100
AcDb2dVertex
 10
-23.33084816719145
 20
912.4419289398485
 30
0.0
  0
VERTEX
  5
241
330
22F
100
AcDbEntity
  8
Make2D$可见线$普通线
100
AcDbVertex
100
AcDb2dVertex
 10
-21.83840483907294
 20
913.202348503386
 30
0.0
  0
SEQEND
  5
242
330
22F
100
AcDbEntity
  8
Make2D$可见线$普通线
  0
POLYLINE
  5
243
330
1F
100
AcDbEntity
  8
Make2D$可见线$普通线
100
AcDb2dPolyline
 66
     1
 10
0.0
 20
0.0
 30
0.0
  0
VERTEX
  5
244
330
243
100
AcDbEntity
  8
Make2D$可见线$普通线
100
AcDbVertex
100
AcDb2dVertex
 10
-38.562129409178
 20
946.0245060354366
 30
0.0
  0
VERTEX
  5
245
330
243
100
AcDbEntity
  8
Make2D$可见线$普通线
100
AcDbVertex
100
AcDb2dVertex
 10
-40.05455793707839
 20
945.264057424834
 30
0.0
 42
-0.414271076110155
  0
VERTEX
  5
246
330
243
100
AcDbEntity
  8
Make2D$可见线$普通线
100
AcDbVertex
100
AcDb2dVertex
 10
-40.32355191511824
 20
945.3514499791335
 30
0.0
  0
VERTEX
  5
247
330
243
100
AcDbEntity
  8
Make2D$可见线$普通线
100
AcDbVertex
100
AcDb2dVertex
 10
-40.34181449079667
 20
945.3872923020172
 30
0.0
  0
VERTEX
  5
248
330
243
100
AcDbEntity
  8
Make2D$可见线$普通线
100
AcDbVertex
100
AcDb2dVertex
 10
-40.34897856212078
 20
945.4013525836599
 30
0.0
  0
VERTEX
  5
249
330
243
100
AcDbEntity
  8
Make2D$可见线$普通线
100
AcDbVertex
100
AcDb2dVertex
 10
-40.35885053075414
 20
945.4207274130093
 30
0.0
  0
VERTEX
  5
24A
330
243
100
AcDbEntity
  8
Make2D$可见线$普通线
100
AcDbVertex
100
AcDb2dVertex
 10
-40.36861090468074
 20
945.4398832254151
 30
0.0
  0
VERTEX
  5
24B
330
243
100
AcDbEntity
  8
Make2D$可见线$普通线
100
AcDbVertex
100
AcDb2dVertex
 10
-40.38037975023289
 20
945.4629808853333
 30
0.0
  0
VERTEX
  5
24C
330
243
100
AcDbEntity
  8
Make2D$可见线$普通线
100
AcDbVertex
100
AcDb2dVertex
 10
-40.38108271693206
 20
945.4643605351621
 30
0.0
  0
VERTEX
  5
24D
330
243
100
AcDbEntity
  8
Make2D$可见线$普通线
100
AcDbVertex
100
AcDb2dVertex
 10
-40.39340889032448
 20
945.4885520125544
 30
0.0
  0
VERTEX
  5
24E
330
243
100
AcDbEntity
  8
Make2D$可见线$普通线
100
AcDbVertex
100
AcDb2dVertex
 10
-40.39407144141444
 20
945.4898523422839
 30
0.0
  0
VERTEX
  5
24F
330
243
100
AcDbEntity
  8
Make2D$可见线$普通线
100
AcDbVertex
100
AcDb2dVertex
 10
-40.42312358486597
 20
945.5468703842287
 30
0.0
  0
VERTEX
  5
250
330
243
100
AcDbEntity
  8
Make2D$可见线$普通线
100
AcDbVertex
100
AcDb2dVertex
 10
-40.49630736107765
 20
945.6905016322526
 30
0.0
  0
VERTEX
  5
251
330
243
100
AcDbEntity
  8
Make2D$可见线$普通线
100
AcDbVertex
100
AcDb2dVertex
 10
-41.33119741860365
 20
947.3290656300744
 30
0.0
  0
VERTEX
  5
252
330
243
100
AcDbEntity
  8
Make2D$可见线$普通线
100
AcDbVertex
100
AcDb2dVertex
 10
-41.40386247463034
 20
947.4716788324135
 30
0.0
  0
VERTEX
  5
253
330
243
100
AcDbEntity
  8
Make2D$可见线$普通线
100
AcDbVertex
100
AcDb2dVertex
 10
-41.44642206499938
 20
947.5552067315809
 30
0.0
  0
VERTEX
  5
254
330
243
100
AcDbEntity
  8
Make2D$可见线$普通线
100
AcDbVertex
100
AcDb2dVertex
 10
-41.46865425156302
 20
947.5988398544905
 30
0.0
  0
VERTEX
  5
255
330
243
100
AcDbEntity
  8
Make2D$可见线$普通线
100
AcDbVertex
100
AcDb2dVertex
 10
-41.46937131279057
 20
947.6002471663887
 30
0.0
  0
VERTEX
  5
256
330
243
100
AcDbEntity
  8
Make2D$可见线$普通线
100
AcDbVertex
100
AcDb2dVertex
 10
-41.47852622036172
 20
947.6182146841645
 30
0.0
  0
VERTEX
  5
257
330
243
100
AcDbEntity
  8
Make2D$可见线$普通线
100
AcDbVertex
100
AcDb2dVertex
 10
-41.48569029228818
 20
947.6322749669894
 30
0.0
  0
VERTEX
  5
258
330
243
100
AcDbEntity
  8
Make2D$可见线$普通线
100
AcDbVertex
100
AcDb2dVertex
 10
-41.4863274833989
 20
947.6335255249573
 30
0.0
  0
VERTEX
  5
259
330
243
100
AcDbEntity
  8
Make2D$可见线$普通线
100
AcDbVertex
100
AcDb2dVertex
 10
-41.50395286816372
 20
947.6681172902599
 30
0.0
 42
-0.4142710761113698
  0
VERTEX
  5
25A
330
243
100
AcDbEntity
  8
Make2D$可见线$普通线
100
AcDbVertex
100
AcDb2dVertex
 10
-41.41654423652933
 20
947.9371060444573
 30
0.0
  0
VERTEX
  5
25B
330
243
100
AcDbEntity
  8
Make2D$可见线$普通线
100
AcDbVertex
100
AcDb2dVertex
 10
-39.92410090841159
 20
948.6975256079943
 30
0.0
  0
SEQEND
  5
25C
330
243
100
AcDbEntity
  8
Make2D$可见线$普通线
  0
POLYLINE
  5
25D
330
1F
100
AcDbEntity
  8
Make2D$可见线$普通线
100
AcDb2dPolyline
 66
     1
 10
0.0
 20
0.0
 30
0.0
  0
VERTEX
  5
25E
330
25D
100
AcDbEntity
  8
Make2D$可见线$普通线
100
AcDbVertex
100
AcDb2dVertex
 10
-26.50499871215958
 20
922.3610546242764
 30
0.0
  0
VERTEX
  5
25F
330
25D
100
AcDbEntity
  8
Make2D$可见线$普通线
100
AcDbVertex
100
AcDb2dVertex
 10
-27.99742722418596
 20
921.6006060217618
 30
0.0
 42
-0.414271076110006
  0
VERTEX
  5
260
330
25D
100
AcDbEntity
  8
Make2D$可见线$普通线
100
AcDbVertex
100
AcDb2dVertex
 10
-28.26642120222591
 20
921.6879985760613
 30
0.0
  0
VERTEX
  5
261
330
25D
100
AcDbEntity
  8
Make2D$可见线$普通线
100
AcDbVertex
100
AcDb2dVertex
 10
-28.31148019178829
 20
921.776431822343
 30
0.0
  0
VERTEX
  5
262
330
25D
100
AcDbEntity
  8
Make2D$可见线$普通线
100
AcDbVertex
100
AcDb2dVertex
 10
-28.35113738145506
 20
921.8542634394009
 30
0.0
  0
VERTEX
  5
263
330
25D
100
AcDbEntity
  8
Make2D$可见线$普通线
100
AcDbVertex
100
AcDb2dVertex
 10
-28.36599287197355
 20
921.8834189811566
 30
0.0
  0
VERTEX
  5
264
330
25D
100
AcDbEntity
  8
Make2D$可见线$普通线
100
AcDbVertex
100
AcDb2dVertex
 10
-28.36651159358602
 20
921.8844370296426
 30
0.0
  0
VERTEX
  5
265
330
25D
100
AcDbEntity
  8
Make2D$可见线$普通线
100
AcDbVertex
100
AcDb2dVertex
 10
-29.34673176173792
 20
923.8082274293415
 30
0.0
  0
VERTEX
  5
266
330
25D
100
AcDbEntity
  8
Make2D$可见线$普通线
100
AcDbVertex
100
AcDb2dVertex
 10
-29.34725048332913
 20
923.8092454777859
 30
0.0
  0
VERTEX
  5
267
330
25D
100
AcDbEntity
  8
Make2D$可见线$普通线
100
AcDbVertex
100
AcDb2dVertex
 10
-29.36270686106495
 20
923.8395803271069
 30
0.0
  0
VERTEX
  5
268
330
25D
100
AcDbEntity
  8
Make2D$可见线$普通线
100
AcDbVertex
100
AcDb2dVertex
 10
-29.3763026274156
 20
923.8662635209769
 30
0.0
  0
VERTEX
  5
269
330
25D
100
AcDbEntity
  8
Make2D$可见线$普通线
100
AcDbVertex
100
AcDb2dVertex
 10
-29.37696517848691
 20
923.8675638506699
 30
0.0
  0
VERTEX
  5
26A
330
25D
100
AcDbEntity
  8
Make2D$可见线$普通线
100
AcDbVertex
100
AcDb2dVertex
 10
-29.4115235386706
 20
923.9353884514185
 30
0.0
  0
VERTEX
  5
26B
330
25D
100
AcDbEntity
  8
Make2D$可见线$普通线
100
AcDbVertex
100
AcDb2dVertex
 10
-29.42139550746927
 20
923.9547632810925
 30
0.0
  0
VERTEX
  5
26C
330
25D
100
AcDbEntity
  8
Make2D$可见线$普通线
100
AcDbVertex
100
AcDb2dVertex
 10
-29.44682215527146
 20
924.0046658871879
 30
0.0
 42
-0.4142710761110823
  0
VERTEX
  5
26D
330
25D
100
AcDbEntity
  8
Make2D$可见线$普通线
100
AcDbVertex
100
AcDb2dVertex
 10
-29.35941352363682
 20
924.273654641385
 30
0.0
  0
VERTEX
  5
26E
330
25D
100
AcDbEntity
  8
Make2D$可见线$普通线
100
AcDbVertex
100
AcDb2dVertex
 10
-27.86697019551914
 20
925.0340742049221
 30
0.0
  0
SEQEND
  5
26F
330
25D
100
AcDbEntity
  8
Make2D$可见线$普通线
  0
POLYLINE
  5
270
330
1F
100
AcDbEntity
  8
Make2D$可见线$普通线
100
AcDb2dPolyline
 66
     1
 10
0.0
 20
0.0
 30
0.0
  0
VERTEX
  5
271
330
270
100
AcDbEntity
  8
Make2D$可见线$普通线
100
AcDbVertex
100
AcDb2dVertex
 10
-41.57641208740081
 20
951.9403688862051
 30
0.0
  0
VERTEX
  5
272
330
270
100
AcDbEntity
  8
Make2D$可见线$普通线
100
AcDbVertex
100
AcDb2dVertex
 10
-43.068840615302
 20
951.179920275602
 30
0.0
 42
-0.4142710761115912
  0
VERTEX
  5
273
330
270
100
AcDbEntity
  8
Make2D$可见线$普通线
100
AcDbVertex
100
AcDb2dVertex
 10
-43.33783459334192
 20
951.2673128299015
 30
0.0
  0
VERTEX
  5
274
330
270
100
AcDbEntity
  8
Make2D$可见线$普通线
100
AcDbVertex
100
AcDb2dVertex
 10
-43.34904347630208
 20
951.289311501354
 30
0.0
  0
VERTEX
  5
275
330
270
100
AcDbEntity
  8
Make2D$可见线$普通线
100
AcDbVertex
100
AcDb2dVertex
 10
-43.36326124034434
 20
951.3172154344277
 30
0.0
  0
VERTEX
  5
276
330
270
100
AcDbEntity
  8
Make2D$可见线$普通线
100
AcDbVertex
100
AcDb2dVertex
 10
-43.37241614773761
 20
951.3351829518544
 30
0.0
  0
VERTEX
  5
277
330
270
100
AcDbEntity
  8
Make2D$可见线$普通线
100
AcDbVertex
100
AcDb2dVertex
 10
-43.37313320897771
 20
951.3365902637773
 30
0.0
  0
VERTEX
  5
278
330
270
100
AcDbEntity
  8
Make2D$可见线$普通线
100
AcDbVertex
100
AcDb2dVertex
 10
-43.38289358290431
 20
951.3557460761831
 30
0.0
  0
VERTEX
  5
279
330
270
100
AcDbEntity
  8
Make2D$可见线$普通线
100
AcDbVertex
100
AcDb2dVertex
 10
-43.39536539515564
 20
951.3802233859299
 30
0.0
  0
VERTEX
  5
27A
330
270
100
AcDbEntity
  8
Make2D$可见线$普通线
100
AcDbVertex
100
AcDb2dVertex
 10
-43.42255077257105
 20
951.433577693241
 30
0.0
  0
VERTEX
  5
27B
330
270
100
AcDbEntity
  8
Make2D$可见线$普通线
100
AcDbVertex
100
AcDb2dVertex
 10
-43.51059003930123
 20
951.6063644830202
 30
0.0
  0
VERTEX
  5
27C
330
270
100
AcDbEntity
  8
Make2D$可见线$普通线
100
AcDbVertex
100
AcDb2dVertex
 10
-44.49280889858529
 20
953.5340775349325
 30
0.0
  0
VERTEX
  5
27D
330
270
100
AcDbEntity
  8
Make2D$可见线$普通线
100
AcDbVertex
100
AcDb2dVertex
 10
-44.50702666328912
 20
953.5619814693048
 30
0.0
  0
VERTEX
  5
27E
330
270
100
AcDbEntity
  8
Make2D$可见线$普通线
100
AcDbVertex
100
AcDb2dVertex
 10
-44.51823554638726
 20
953.5839801410281
 30
0.0
 42
-0.4142710761116126
  0
VERTEX
  5
27F
330
270
100
AcDbEntity
  8
Make2D$可见线$普通线
100
AcDbVertex
100
AcDb2dVertex
 10
-44.43082691475295
 20
953.8529688952251
 30
0.0
  0
VERTEX
  5
280
330
270
100
AcDbEntity
  8
Make2D$可见线$普通线
100
AcDbVertex
100
AcDb2dVertex
 10
-42.93838358663355
 20
954.6133884587631
 30
0.0
  0
SEQEND
  5
281
330
270
100
AcDbEntity
  8
Make2D$可见线$普通线
  0
POLYLINE
  5
282
330
1F
100
AcDbEntity
  8
Make2D$可见线$普通线
100
AcDb2dPolyline
 66
     1
 10
0.0
 20
0.0
 30
0.0
  0
VERTEX
  5
283
330
282
100
AcDbEntity
  8
Make2D$可见线$普通线
100
AcDbVertex
100
AcDb2dVertex
 10
4.000018871821695
 20
855.9188474013717
 30
0.0
  0
VERTEX
  5
284
330
282
100
AcDbEntity
  8
Make2D$可见线$普通线
100
AcDbVertex
100
AcDb2dVertex
 10
-2.006356704862533
 20
855.9188311017136
 30
0.0
 42
-0.4142429873059521
  0
VERTEX
  5
285
330
282
100
AcDbEntity
  8
Make2D$可见线$普通线
100
AcDbVertex
100
AcDb2dVertex
 10
-2.506356704660423
 20
856.4188365217033
 30
0.0
  0
VERTEX
  5
286
330
282
100
AcDbEntity
  8
Make2D$可见线$普通线
100
AcDbVertex
100
AcDb2dVertex
 10
-2.506356698957465
 20
856.4619079556442
 30
0.0
  0
VERTEX
  5
287
330
282
100
AcDbEntity
  8
Make2D$可见线$普通线
100
AcDbVertex
100
AcDb2dVertex
 10
-2.506356696168664
 20
856.515113380086
 30
0.0
  0
VERTEX
  5
288
330
282
100
AcDbEntity
  8
Make2D$可见线$普通线
100
AcDbVertex
100
AcDb2dVertex
 10
-2.506356694374059
 20
856.5623667289112
 30
0.0
  0
VERTEX
  5
289
330
282
100
AcDbEntity
  8
Make2D$可见线$普通线
100
AcDbVertex
100
AcDb2dVertex
 10
-2.506356684536641
 20
874.9752407923124
 30
0.0
  0
SEQEND
  5
28A
330
282
100
AcDbEntity
  8
Make2D$可见线$普通线
  0
POLYLINE
  5
28B
330
1F
100
AcDbEntity
  8
Make2D$可见线$普通线
100
AcDb2dPolyline
 66
     1
 10
0.0
 20
0.0
 30
0.0
  0
VERTEX
  5
28C
330
28B
100
AcDbEntity
  8
Make2D$可见线$普通线
100
AcDbVertex
100
AcDb2dVertex
 10
-17.40925847122023
 20
900.4618165548824
 30
0.0
 42
-0.1387175363182093
  0
VERTEX
  5
28D
330
28B
100
AcDbEntity
  8
Make2D$可见线$普通线
100
AcDbVertex
100
AcDb2dVertex
 10
-17.50349592037849
 20
900.5645683481977
 30
0.0
  0
VERTEX
  5
28E
330
28B
100
AcDbEntity
  8
Make2D$可见线$普通线
100
AcDbVertex
100
AcDb2dVertex
 10
-17.90082546334433
 20
901.3443714833604
 30
0.0
  0
SEQEND
  5
28F
330
28B
100
AcDbEntity
  8
Make2D$可见线$普通线
  0
POLYLINE
  5
290
330
1F
100
AcDbEntity
  8
Make2D$可见线$普通线
100
AcDb2dPolyline
 66
     1
 10
0.0
 20
0.0
 30
0.0
  0
VERTEX
  5
291
330
290
100
AcDbEntity
  8
Make2D$可见线$普通线
100
AcDbVertex
100
AcDb2dVertex
 10
21.80880950435513
 20
731.9188474013719
 30
0.0
  0
VERTEX
  5
292
330
290
100
AcDbEntity
  8
Make2D$可见线$普通线
100
AcDbVertex
100
AcDb2dVertex
 10
21.75312532240741
 20
731.9056108237702
 30
0.0
 42
0.3076476272557918
  0
VERTEX
  5
293
330
290
100
AcDbEntity
  8
Make2D$可见线$普通线
100
AcDbVertex
100
AcDb2dVertex
 10
21.62674455459604
 20
731.7196531635485
 30
0.0
  0
VERTEX
  5
294
330
290
100
AcDbEntity
  8
Make2D$可见线$普通线
100
AcDbVertex
100
AcDb2dVertex
 10
21.62674426386453
 20
731.4196534454533
 30
0.0
  0
SEQEND
  5
295
330
290
100
AcDbEntity
  8
Make2D$可见线$普通线
  0
POLYLINE
  5
296
330
1F
100
AcDbEntity
  8
Make2D$可见线$普通线
100
AcDb2dPolyline
 66
     1
 10
0.0
 20
0.0
 30
0.0
  0
VERTEX
  5
297
330
296
100
AcDbEntity
  8
Make2D$可见线$普通线
100
AcDbVertex
100
AcDb2dVertex
 10
-32.02322499846354
 20
933.465490126849
 30
0.0
 42
0.033067651734453
  0
VERTEX
  5
298
330
296
100
AcDbEntity
  8
Make2D$可见线$普通线
100
AcDbVertex
100
AcDb2dVertex
 10
-32.92483183864492
 20
934.9606866009967
 30
0.0
  0
VERTEX
  5
299
330
296
100
AcDbEntity
  8
Make2D$可见线$普通线
100
AcDbVertex
100
AcDb2dVertex
 10
-27.86697019551112
 20
925.0340742049145
 30
0.0
  0
VERTEX
  5
29A
330
296
100
AcDbEntity
  8
Make2D$可见线$普通线
100
AcDbVertex
100
AcDb2dVertex
 10
-27.86509360536767
 20
925.035003986949
 30
0.0
  0
VERTEX
  5
29B
330
296
100
AcDbEntity
  8
Make2D$可见线$普通线
100
AcDbVertex
100
AcDb2dVertex
 10
-27.86321176934588
 20
925.0358836480377
 30
0.0
  0
VERTEX
  5
29C
330
296
100
AcDbEntity
  8
Make2D$可见线$普通线
100
AcDbVertex
100
AcDb2dVertex
 10
-27.86132467761579
 20
925.0367131676145
 30
0.0
  0
VERTEX
  5
29D
330
296
100
AcDbEntity
  8
Make2D$可见线$普通线
100
AcDbVertex
100
AcDb2dVertex
 10
-27.85943232034745
 20
925.0374925251139
 30
0.0
  0
VERTEX
  5
29E
330
296
100
AcDbEntity
  8
Make2D$可见线$普通线
100
AcDbVertex
100
AcDb2dVertex
 10
-27.85753468771089
 20
925.0382216999699
 30
0.0
  0
VERTEX
  5
29F
330
296
100
AcDbEntity
  8
Make2D$可见线$普通线
100
AcDbVertex
100
AcDb2dVertex
 10
-27.85563176987617
 20
925.0389006716166
 30
0.0
  0
VERTEX
  5
2A0
330
296
100
AcDbEntity
  8
Make2D$可见线$普通线
100
AcDbVertex
100
AcDb2dVertex
 10
-27.85372355701332
 20
925.0395294194884
 30
0.0
  0
VERTEX
  5
2A1
330
296
100
AcDbEntity
  8
Make2D$可见线$普通线
100
AcDbVertex
100
AcDb2dVertex
 10
-27.85181003929238
 20
925.0401079230194
 30
0.0
  0
VERTEX
  5
2A2
330
296
100
AcDbEntity
  8
Make2D$可见线$普通线
100
AcDbVertex
100
AcDb2dVertex
 10
-27.84989120688341
 20
925.0406361616436
 30
0.0
  0
VERTEX
  5
2A3
330
296
100
AcDbEntity
  8
Make2D$可见线$普通线
100
AcDbVertex
100
AcDb2dVertex
 10
-27.84796704995645
 20
925.0411141147954
 30
0.0
  0
VERTEX
  5
2A4
330
296
100
AcDbEntity
  8
Make2D$可见线$普通线
100
AcDbVertex
100
AcDb2dVertex
 10
-27.84603755868153
 20
925.0415417619089
 30
0.0
  0
VERTEX
  5
2A5
330
296
100
AcDbEntity
  8
Make2D$可见线$普通线
100
AcDbVertex
100
AcDb2dVertex
 10
-27.84410272322871
 20
925.0419190824184
 30
0.0
  0
VERTEX
  5
2A6
330
296
100
AcDbEntity
  8
Make2D$可见线$普通线
100
AcDbVertex
100
AcDb2dVertex
 10
-27.84216253376803
 20
925.0422460557579
 30
0.0
  0
VERTEX
  5
2A7
330
296
100
AcDbEntity
  8
Make2D$可见线$普通线
100
AcDbVertex
100
AcDb2dVertex
 10
-27.84021698046953
 20
925.0425226613617
 30
0.0
  0
VERTEX
  5
2A8
330
296
100
AcDbEntity
  8
Make2D$可见线$普通线
100
AcDbVertex
100
AcDb2dVertex
 10
-27.83826605350325
 20
925.0427488786638
 30
0.0
  0
VERTEX
  5
2A9
330
296
100
AcDbEntity
  8
Make2D$可见线$普通线
100
AcDbVertex
100
AcDb2dVertex
 10
-27.83630974303924
 20
925.0429246870985
 30
0.0
  0
VERTEX
  5
2AA
330
296
100
AcDbEntity
  8
Make2D$可见线$普通线
100
AcDbVertex
100
AcDb2dVertex
 10
-27.83434803924755
 20
925.0430500661
 30
0.0
  0
VERTEX
  5
2AB
330
296
100
AcDbEntity
  8
Make2D$可见线$普通线
100
AcDbVertex
100
AcDb2dVertex
 10
-27.83238093229821
 20
925.0431249951025
 30
0.0
  0
VERTEX
  5
2AC
330
296
100
AcDbEntity
  8
Make2D$可见线$普通线
100
AcDbVertex
100
AcDb2dVertex
 10
-27.83040841236127
 20
925.0431494535403
 30
0.0
  0
VERTEX
  5
2AD
330
296
100
AcDbEntity
  8
Make2D$可见线$普通线
100
AcDbVertex
100
AcDb2dVertex
 10
-27.82843046960678
 20
925.0431234208472
 30
0.0
  0
VERTEX
  5
2AE
330
296
100
AcDbEntity
  8
Make2D$可见线$普通线
100
AcDbVertex
100
AcDb2dVertex
 10
-27.82644709420477
 20
925.0430468764578
 30
0.0
  0
VERTEX
  5
2AF
330
296
100
AcDbEntity
  8
Make2D$可见线$普通线
100
AcDbVertex
100
AcDb2dVertex
 10
-27.8244582763253
 20
925.0429197998059
 30
0.0
  0
VERTEX
  5
2B0
330
296
100
AcDbEntity
  8
Make2D$可见线$普通线
100
AcDbVertex
100
AcDb2dVertex
 10
-27.8224640061384
 20
925.0427421703258
 30
0.0
  0
VERTEX
  5
2B1
330
296
100
AcDbEntity
  8
Make2D$可见线$普通线
100
AcDbVertex
100
AcDb2dVertex
 10
-27.82046427381412
 20
925.0425139674519
 30
0.0
  0
VERTEX
  5
2B2
330
296
100
AcDbEntity
  8
Make2D$可见线$普通线
100
AcDbVertex
100
AcDb2dVertex
 10
-27.8184590695225
 20
925.0422351706181
 30
0.0
  0
VERTEX
  5
2B3
330
296
100
AcDbEntity
  8
Make2D$可见线$普通线
100
AcDbVertex
100
AcDb2dVertex
 10
-27.81644838343359
 20
925.0419057592588
 30
0.0
  0
VERTEX
  5
2B4
330
296
100
AcDbEntity
  8
Make2D$可见线$普通线
100
AcDbVertex
100
AcDb2dVertex
 10
-27.81443220571742
 20
925.0415257128082
 30
0.0
  0
VERTEX
  5
2B5
330
296
100
AcDbEntity
  8
Make2D$可见线$普通线
100
AcDbVertex
100
AcDb2dVertex
 10
-27.81241052654406
 20
925.0410950107001
 30
0.0
  0
VERTEX
  5
2B6
330
296
100
AcDbEntity
  8
Make2D$可见线$普通线
100
AcDbVertex
100
AcDb2dVertex
 10
-27.81038333608353
 20
925.0406136323691
 30
0.0
  0
VERTEX
  5
2B7
330
296
100
AcDbEntity
  8
Make2D$可见线$普通线
100
AcDbVertex
100
AcDb2dVertex
 10
-27.80835062450588
 20
925.0400815572491
 30
0.0
  0
VERTEX
  5
2B8
330
296
100
AcDbEntity
  8
Make2D$可见线$普通线
100
AcDbVertex
100
AcDb2dVertex
 10
-27.80631238198116
 20
925.0394987647745
 30
0.0
  0
VERTEX
  5
2B9
330
296
100
AcDbEntity
  8
Make2D$可见线$普通线
100
AcDbVertex
100
AcDb2dVertex
 10
-27.8042685986794
 20
925.0388652343793
 30
0.0
  0
VERTEX
  5
2BA
330
296
100
AcDbEntity
  8
Make2D$可见线$普通线
100
AcDbVertex
100
AcDb2dVertex
 10
-27.80221926477067
 20
925.0381809454977
 30
0.0
  0
VERTEX
  5
2BB
330
296
100
AcDbEntity
  8
Make2D$可见线$普通线
100
AcDbVertex
100
AcDb2dVertex
 10
-27.80016437042498
 20
925.0374458775641
 30
0.0
  0
VERTEX
  5
2BC
330
296
100
AcDbEntity
  8
Make2D$可见线$普通线
100
AcDbVertex
100
AcDb2dVertex
 10
-27.7981039058124
 20
925.0366600100124
 30
0.0
  0
VERTEX
  5
2BD
330
296
100
AcDbEntity
  8
Make2D$可见线$普通线
100
AcDbVertex
100
AcDb2dVertex
 10
-27.79603786110296
 20
925.0358233222769
 30
0.0
  0
VERTEX
  5
2BE
330
296
100
AcDbEntity
  8
Make2D$可见线$普通线
100
AcDbVertex
100
AcDb2dVertex
 10
-27.79396622646671
 20
925.0349357937918
 30
0.0
  0
VERTEX
  5
2BF
330
296
100
AcDbEntity
  8
Make2D$可见线$普通线
100
AcDbVertex
100
AcDb2dVertex
 10
-27.79188899207369
 20
925.0339974039912
 30
0.0
  0
VERTEX
  5
2C0
330
296
100
AcDbEntity
  8
Make2D$可见线$普通线
100
AcDbVertex
100
AcDb2dVertex
 10
-27.78980614809394
 20
925.0330081323093
 30
0.0
  0
VERTEX
  5
2C1
330
296
100
AcDbEntity
  8
Make2D$可见线$普通线
100
AcDbVertex
100
AcDb2dVertex
 10
-27.78771768469752
 20
925.0319679581804
 30
0.0
  0
VERTEX
  5
2C2
330
296
100
AcDbEntity
  8
Make2D$可见线$普通线
100
AcDbVertex
100
AcDb2dVertex
 10
-27.78562359205446
 20
925.0308768610387
 30
0.0
  0
VERTEX
  5
2C3
330
296
100
AcDbEntity
  8
Make2D$可见线$普通线
100
AcDbVertex
100
AcDb2dVertex
 10
-27.7835238603348
 20
925.029734820318
 30
0.0
  0
VERTEX
  5
2C4
330
296
100
AcDbEntity
  8
Make2D$可见线$普通线
100
AcDbVertex
100
AcDb2dVertex
 10
-27.77930744034589
 20
925.0272978258773
 30
0.0
  0
VERTEX
  5
2C5
330
296
100
AcDbEntity
  8
Make2D$可见线$普通线
100
AcDbVertex
100
AcDb2dVertex
 10
-27.77506834609113
 20
925.0246568103319
 30
0.0
  0
VERTEX
  5
2C6
330
296
100
AcDbEntity
  8
Make2D$可见线$普通线
100
AcDbVertex
100
AcDb2dVertex
 10
-27.77080649893087
 20
925.0218116091551
 30
0.0
  0
VERTEX
  5
2C7
330
296
100
AcDbEntity
  8
Make2D$可见线$普通线
100
AcDbVertex
100
AcDb2dVertex
 10
-27.76652182022546
 20
925.0187620578204
 30
0.0
  0
VERTEX
  5
2C8
330
296
100
AcDbEntity
  8
Make2D$可见线$普通线
100
AcDbVertex
100
AcDb2dVertex
 10
-27.76221423133526
 20
925.0155079918011
 30
0.0
  0
VERTEX
  5
2C9
330
296
100
AcDbEntity
  8
Make2D$可见线$普通线
100
AcDbVertex
100
AcDb2dVertex
 10
-27.7578836536206
 20
925.0120492465708
 30
0.0
  0
VERTEX
  5
2CA
330
296
100
AcDbEntity
  8
Make2D$可见线$普通线
100
AcDbVertex
100
AcDb2dVertex
 10
-27.75353000844186
 20
925.0083856576028
 30
0.0
  0
VERTEX
  5
2CB
330
296
100
AcDbEntity
  8
Make2D$可见线$普通线
100
AcDbVertex
100
AcDb2dVertex
 10
-27.74915321715937
 20
925.0045170603707
 30
0.0
  0
VERTEX
  5
2CC
330
296
100
AcDbEntity
  8
Make2D$可见线$普通线
100
AcDbVertex
100
AcDb2dVertex
 10
-27.74475320113348
 20
925.0004432903479
 30
0.0
  0
VERTEX
  5
2CD
330
296
100
AcDbEntity
  8
Make2D$可见线$普通线
100
AcDbVertex
100
AcDb2dVertex
 10
-27.74032988172454
 20
924.9961641830076
 30
0.0
  0
VERTEX
  5
2CE
330
296
100
AcDbEntity
  8
Make2D$可见线$普通线
100
AcDbVertex
100
AcDb2dVertex
 10
-27.73588318029291
 20
924.9916795738236
 30
0.0
  0
VERTEX
  5
2CF
330
296
100
AcDbEntity
  8
Make2D$可见线$普通线
100
AcDbVertex
100
AcDb2dVertex
 10
-27.7314337116301
 20
924.9870125233374
 30
0.0
  0
VERTEX
  5
2D0
330
296
100
AcDbEntity
  8
Make2D$可见线$普通线
100
AcDbVertex
100
AcDb2dVertex
 10
-27.72696546175333
 20
924.982149357683
 30
0.0
  0
VERTEX
  5
2D1
330
296
100
AcDbEntity
  8
Make2D$可见线$普通线
100
AcDbVertex
100
AcDb2dVertex
 10
-27.71797065553011
 20
924.9718380517245
 30
0.0
  0
VERTEX
  5
2D2
330
296
100
AcDbEntity
  8
Make2D$可见线$普通线
100
AcDbVertex
100
AcDb2dVertex
 10
-27.70889483596767
 20
924.9607523976589
 30
0.0
  0
VERTEX
  5
2D3
330
296
100
AcDbEntity
  8
Make2D$可见线$普通线
100
AcDbVertex
100
AcDb2dVertex
 10
-27.69973407741045
 20
924.9488991371977
 30
0.0
  0
VERTEX
  5
2D4
330
296
100
AcDbEntity
  8
Make2D$可见线$普通线
100
AcDbVertex
100
AcDb2dVertex
 10
-27.69048445420286
 20
924.936285012052
 30
0.0
  0
VERTEX
  5
2D5
330
296
100
AcDbEntity
  8
Make2D$可见线$普通线
100
AcDbVertex
100
AcDb2dVertex
 10
-27.68114204068934
 20
924.922916763933
 30
0.0
  0
VERTEX
  5
2D6
330
296
100
AcDbEntity
  8
Make2D$可见线$普通线
100
AcDbVertex
100
AcDb2dVertex
 10
-27.67170291121432
 20
924.908801134552
 30
0.0
  0
VERTEX
  5
2D7
330
296
100
AcDbEntity
  8
Make2D$可见线$普通线
100
AcDbVertex
100
AcDb2dVertex
 10
-27.66216314012221
 20
924.8939448656201
 30
0.0
  0
VERTEX
  5
2D8
330
296
100
AcDbEntity
  8
Make2D$可见线$普通线
100
AcDbVertex
100
AcDb2dVertex
 10
-27.64776892519233
 20
924.8704783458843
 30
0.0
  0
VERTEX
  5
2D9
330
296
100
AcDbEntity
  8
Make2D$可见线$普通线
100
AcDbVertex
100
AcDb2dVertex
 10
-27.63316070991583
 20
924.8454764901797
 30
0.0
  0
VERTEX
  5
2DA
330
296
100
AcDbEntity
  8
Make2D$可见线$普通线
100
AcDbVertex
100
AcDb2dVertex
 10
-27.603237173042
 20
924.7910140804445
 30
0.0
  0
VERTEX
  5
2DB
330
296
100
AcDbEntity
  8
Make2D$可见线$普通线
100
AcDbVertex
100
AcDb2dVertex
 10
-27.62304362899782
 20
924.8275218676833
 30
0.0
  0
SEQEND
  5
2DC
330
296
100
AcDbEntity
  8
Make2D$可见线$普通线
  0
POLYLINE
  5
2DD
330
1F
100
AcDbEntity
  8
Make2D$可见线$普通线
100
AcDb2dPolyline
 66
     1
 10
0.0
 20
0.0
 30
0.0
  0
VERTEX
  5
2DE
330
2DD
100
AcDbEntity
  8
Make2D$可见线$普通线
100
AcDbVertex
100
AcDb2dVertex
 10
-26.09406372375635
 20
921.828780824203
 30
0.0
 42
-0.044699912265348
  0
VERTEX
  5
2DF
330
2DD
100
AcDbEntity
  8
Make2D$可见线$普通线
100
AcDbVertex
100
AcDb2dVertex
 10
-25.64875095769989
 20
920.6805738253275
 30
0.0
  0
VERTEX
  5
2E0
330
2DD
100
AcDbEntity
  8
Make2D$可见线$普通线
100
AcDbVertex
100
AcDb2dVertex
 10
-21.8384048390656
 20
913.2023485033781
 30
0.0
  0
VERTEX
  5
2E1
330
2DD
100
AcDbEntity
  8
Make2D$可见线$普通线
100
AcDbVertex
100
AcDb2dVertex
 10
-21.83652824892215
 20
913.2032782854126
 30
0.0
  0
VERTEX
  5
2E2
330
2DD
100
AcDbEntity
  8
Make2D$可见线$普通线
100
AcDbVertex
100
AcDb2dVertex
 10
-21.83464641290036
 20
913.2041579465013
 30
0.0
  0
VERTEX
  5
2E3
330
2DD
100
AcDbEntity
  8
Make2D$可见线$普通线
100
AcDbVertex
100
AcDb2dVertex
 10
-21.83275932117027
 20
913.204987466078
 30
0.0
  0
VERTEX
  5
2E4
330
2DD
100
AcDbEntity
  8
Make2D$可见线$普通线
100
AcDbVertex
100
AcDb2dVertex
 10
-21.83086696390193
 20
913.2057668235774
 30
0.0
  0
VERTEX
  5
2E5
330
2DD
100
AcDbEntity
  8
Make2D$可见线$普通线
100
AcDbVertex
100
AcDb2dVertex
 10
-21.82896933126537
 20
913.2064959984334
 30
0.0
  0
VERTEX
  5
2E6
330
2DD
100
AcDbEntity
  8
Make2D$可见线$普通线
100
AcDbVertex
100
AcDb2dVertex
 10
-21.82706641343064
 20
913.2071749700801
 30
0.0
  0
VERTEX
  5
2E7
330
2DD
100
AcDbEntity
  8
Make2D$可见线$普通线
100
AcDbVertex
100
AcDb2dVertex
 10
-21.82515820056778
 20
913.207803717952
 30
0.0
  0
VERTEX
  5
2E8
330
2DD
100
AcDbEntity
  8
Make2D$可见线$普通线
100
AcDbVertex
100
AcDb2dVertex
 10
-21.82324468284685
 20
913.2083822214829
 30
0.0
  0
VERTEX
  5
2E9
330
2DD
100
AcDbEntity
  8
Make2D$可见线$普通线
100
AcDbVertex
100
AcDb2dVertex
 10
-21.82132585043787
 20
913.2089104601072
 30
0.0
  0
VERTEX
  5
2EA
330
2DD
100
AcDbEntity
  8
Make2D$可见线$普通线
100
AcDbVertex
100
AcDb2dVertex
 10
-21.81940169351091
 20
913.2093884132589
 30
0.0
  0
VERTEX
  5
2EB
330
2DD
100
AcDbEntity
  8
Make2D$可见线$普通线
100
AcDbVertex
100
AcDb2dVertex
 10
-21.817472202236
 20
913.2098160603724
 30
0.0
  0
VERTEX
  5
2EC
330
2DD
100
AcDbEntity
  8
Make2D$可见线$普通线
100
AcDbVertex
100
AcDb2dVertex
 10
-21.81553736678318
 20
913.210193380882
 30
0.0
  0
VERTEX
  5
2ED
330
2DD
100
AcDbEntity
  8
Make2D$可见线$普通线
100
AcDbVertex
100
AcDb2dVertex
 10
-21.8135971773225
 20
913.2105203542214
 30
0.0
  0
VERTEX
  5
2EE
330
2DD
100
AcDbEntity
  8
Make2D$可见线$普通线
100
AcDbVertex
100
AcDb2dVertex
 10
-21.811651624024
 20
913.2107969598252
 30
0.0
  0
VERTEX
  5
2EF
330
2DD
100
AcDbEntity
  8
Make2D$可见线$普通线
100
AcDbVertex
100
AcDb2dVertex
 10
-21.80970069705772
 20
913.2110231771273
 30
0.0
  0
VERTEX
  5
2F0
330
2DD
100
AcDbEntity
  8
Make2D$可见线$普通线
100
AcDbVertex
100
AcDb2dVertex
 10
-21.80774438659371
 20
913.2111989855621
 30
0.0
  0
VERTEX
  5
2F1
330
2DD
100
AcDbEntity
  8
Make2D$可见线$普通线
100
AcDbVertex
100
AcDb2dVertex
 10
-21.80578268280202
 20
913.2113243645636
 30
0.0
  0
VERTEX
  5
2F2
330
2DD
100
AcDbEntity
  8
Make2D$可见线$普通线
100
AcDbVertex
100
AcDb2dVertex
 10
-21.80381557585268
 20
913.211399293566
 30
0.0
  0
VERTEX
  5
2F3
330
2DD
100
AcDbEntity
  8
Make2D$可见线$普通线
100
AcDbVertex
100
AcDb2dVertex
 10
-21.80184305591575
 20
913.2114237520038
 30
0.0
  0
VERTEX
  5
2F4
330
2DD
100
AcDbEntity
  8
Make2D$可见线$普通线
100
AcDbVertex
100
AcDb2dVertex
 10
-21.79986511316125
 20
913.2113977193108
 30
0.0
  0
VERTEX
  5
2F5
330
2DD
100
AcDbEntity
  8
Make2D$可见线$普通线
100
AcDbVertex
100
AcDb2dVertex
 10
-21.79788173775925
 20
913.2113211749213
 30
0.0
  0
VERTEX
  5
2F6
330
2DD
100
AcDbEntity
  8
Make2D$可见线$普通线
100
AcDbVertex
100
AcDb2dVertex
 10
-21.79589291987978
 20
913.2111940982694
 30
0.0
  0
VERTEX
  5
2F7
330
2DD
100
AcDbEntity
  8
Make2D$可见线$普通线
100
AcDbVertex
100
AcDb2dVertex
 10
-21.79389864969288
 20
913.2110164687894
 30
0.0
  0
VERTEX
  5
2F8
330
2DD
100
AcDbEntity
  8
Make2D$可见线$普通线
100
AcDbVertex
100
AcDb2dVertex
 10
-21.79189891736861
 20
913.2107882659154
 30
0.0
  0
VERTEX
  5
2F9
330
2DD
100
AcDbEntity
  8
Make2D$可见线$普通线
100
AcDbVertex
100
AcDb2dVertex
 10
-21.78989371307699
 20
913.2105094690817
 30
0.0
  0
VERTEX
  5
2FA
330
2DD
100
AcDbEntity
  8
Make2D$可见线$普通线
100
AcDbVertex
100
AcDb2dVertex
 10
-21.78788302698809
 20
913.2101800577224
 30
0.0
  0
VERTEX
  5
2FB
330
2DD
100
AcDbEntity
  8
Make2D$可见线$普通线
100
AcDbVertex
100
AcDb2dVertex
 10
-21.78586684927193
 20
913.2098000112717
 30
0.0
  0
VERTEX
  5
2FC
330
2DD
100
AcDbEntity
  8
Make2D$可见线$普通线
100
AcDbVertex
100
AcDb2dVertex
 10
-21.78384517009857
 20
913.2093693091637
 30
0.0
  0
VERTEX
  5
2FD
330
2DD
100
AcDbEntity
  8
Make2D$可见线$普通线
100
AcDbVertex
100
AcDb2dVertex
 10
-21.78181797963804
 20
913.2088879308326
 30
0.0
  0
VERTEX
  5
2FE
330
2DD
100
AcDbEntity
  8
Make2D$可见线$普通线
100
AcDbVertex
100
AcDb2dVertex
 10
-21.7797852680604
 20
913.2083558557126
 30
0.0
  0
VERTEX
  5
2FF
330
2DD
100
AcDbEntity
  8
Make2D$可见线$普通线
100
AcDbVertex
100
AcDb2dVertex
 10
-21.77774702553568
 20
913.207773063238
 30
0.0
  0
VERTEX
  5
300
330
2DD
100
AcDbEntity
  8
Make2D$可见线$普通线
100
AcDbVertex
100
AcDb2dVertex
 10
-21.77570324223393
 20
913.2071395328428
 30
0.0
  0
VERTEX
  5
301
330
2DD
100
AcDbEntity
  8
Make2D$可见线$普通线
100
AcDbVertex
100
AcDb2dVertex
 10
-21.77365390832519
 20
913.2064552439613
 30
0.0
  0
VERTEX
  5
302
330
2DD
100
AcDbEntity
  8
Make2D$可见线$普通线
100
AcDbVertex
100
AcDb2dVertex
 10
-21.77159901397951
 20
913.2057201760276
 30
0.0
  0
VERTEX
  5
303
330
2DD
100
AcDbEntity
  8
Make2D$可见线$普通线
100
AcDbVertex
100
AcDb2dVertex
 10
-21.76953854936693
 20
913.2049343084759
 30
0.0
  0
VERTEX
  5
304
330
2DD
100
AcDbEntity
  8
Make2D$可见线$普通线
100
AcDbVertex
100
AcDb2dVertex
 10
-21.76747250465749
 20
913.2040976207404
 30
0.0
  0
VERTEX
  5
305
330
2DD
100
AcDbEntity
  8
Make2D$可见线$普通线
100
AcDbVertex
100
AcDb2dVertex
 10
-21.76540087002125
 20
913.2032100922553
 30
0.0
  0
VERTEX
  5
306
330
2DD
100
AcDbEntity
  8
Make2D$可见线$普通线
100
AcDbVertex
100
AcDb2dVertex
 10
-21.76332363562823
 20
913.2022717024547
 30
0.0
  0
VERTEX
  5
307
330
2DD
100
AcDbEntity
  8
Make2D$可见线$普通线
100
AcDbVertex
100
AcDb2dVertex
 10
-21.76124079164849
 20
913.2012824307728
 30
0.0
  0
VERTEX
  5
308
330
2DD
100
AcDbEntity
  8
Make2D$可见线$普通线
100
AcDbVertex
100
AcDb2dVertex
 10
-21.75915232825207
 20
913.2002422566438
 30
0.0
  0
VERTEX
  5
309
330
2DD
100
AcDbEntity
  8
Make2D$可见线$普通线
100
AcDbVertex
100
AcDb2dVertex
 10
-21.75705823560901
 20
913.199151159502
 30
0.0
  0
VERTEX
  5
30A
330
2DD
100
AcDbEntity
  8
Make2D$可见线$普通线
100
AcDbVertex
100
AcDb2dVertex
 10
-21.75495850388936
 20
913.1980091187814
 30
0.0
  0
VERTEX
  5
30B
330
2DD
100
AcDbEntity
  8
Make2D$可见线$普通线
100
AcDbVertex
100
AcDb2dVertex
 10
-21.75074208390045
 20
913.1955721243407
 30
0.0
  0
VERTEX
  5
30C
330
2DD
100
AcDbEntity
  8
Make2D$可见线$普通线
100
AcDbVertex
100
AcDb2dVertex
 10
-21.74650298964569
 20
913.1929311087952
 30
0.0
  0
VERTEX
  5
30D
330
2DD
100
AcDbEntity
  8
Make2D$可见线$普通线
100
AcDbVertex
100
AcDb2dVertex
 10
-21.74224114248543
 20
913.1900859076184
 30
0.0
  0
VERTEX
  5
30E
330
2DD
100
AcDbEntity
  8
Make2D$可见线$普通线
100
AcDbVertex
100
AcDb2dVertex
 10
-21.73795646378003
 20
913.1870363562837
 30
0.0
  0
VERTEX
  5
30F
330
2DD
100
AcDbEntity
  8
Make2D$可见线$普通线
100
AcDbVertex
100
AcDb2dVertex
 10
-21.73364887488983
 20
913.1837822902644
 30
0.0
  0
VERTEX
  5
310
330
2DD
100
AcDbEntity
  8
Make2D$可见线$普通线
100
AcDbVertex
100
AcDb2dVertex
 10
-21.72931829717517
 20
913.180323545034
 30
0.0
  0
VERTEX
  5
311
330
2DD
100
AcDbEntity
  8
Make2D$可见线$普通线
100
AcDbVertex
100
AcDb2dVertex
 10
-21.72496465199642
 20
913.176659956066
 30
0.0
  0
VERTEX
  5
312
330
2DD
100
AcDbEntity
  8
Make2D$可见线$普通线
100
AcDbVertex
100
AcDb2dVertex
 10
-21.72058786071392
 20
913.1727913588338
 30
0.0
  0
VERTEX
  5
313
330
2DD
100
AcDbEntity
  8
Make2D$可见线$普通线
100
AcDbVertex
100
AcDb2dVertex
 10
-21.71618784468802
 20
913.168717588811
 30
0.0
  0
VERTEX
  5
314
330
2DD
100
AcDbEntity
  8
Make2D$可见线$普通线
100
AcDbVertex
100
AcDb2dVertex
 10
-21.71176452527907
 20
913.1644384814707
 30
0.0
  0
VERTEX
  5
315
330
2DD
100
AcDbEntity
  8
Make2D$可见线$普通线
100
AcDbVertex
100
AcDb2dVertex
 10
-21.70731782384743
 20
913.1599538722868
 30
0.0
  0
VERTEX
  5
316
330
2DD
100
AcDbEntity
  8
Make2D$可见线$普通线
100
AcDbVertex
100
AcDb2dVertex
 10
-21.70286835518463
 20
913.1552868218007
 30
0.0
  0
VERTEX
  5
317
330
2DD
100
AcDbEntity
  8
Make2D$可见线$普通线
100
AcDbVertex
100
AcDb2dVertex
 10
-21.69840010530785
 20
913.1504236561462
 30
0.0
  0
VERTEX
  5
318
330
2DD
100
AcDbEntity
  8
Make2D$可见线$普通线
100
AcDbVertex
100
AcDb2dVertex
 10
-21.68940529908463
 20
913.1401123501877
 30
0.0
  0
VERTEX
  5
319
330
2DD
100
AcDbEntity
  8
Make2D$可见线$普通线
100
AcDbVertex
100
AcDb2dVertex
 10
-21.68032947952218
 20
913.1290266961222
 30
0.0
  0
VERTEX
  5
31A
330
2DD
100
AcDbEntity
  8
Make2D$可见线$普通线
100
AcDbVertex
100
AcDb2dVertex
 10
-21.67116872096495
 20
913.117173435661
 30
0.0
  0
VERTEX
  5
31B
330
2DD
100
AcDbEntity
  8
Make2D$可见线$普通线
100
AcDbVertex
100
AcDb2dVertex
 10
-21.66191909775736
 20
913.1045593105154
 30
0.0
  0
VERTEX
  5
31C
330
2DD
100
AcDbEntity
  8
Make2D$可见线$普通线
100
AcDbVertex
100
AcDb2dVertex
 10
-21.65257668424384
 20
913.0911910623965
 30
0.0
  0
VERTEX
  5
31D
330
2DD
100
AcDbEntity
  8
Make2D$可见线$普通线
100
AcDbVertex
100
AcDb2dVertex
 10
-21.64313755476883
 20
913.0770754330156
 30
0.0
  0
VERTEX
  5
31E
330
2DD
100
AcDbEntity
  8
Make2D$可见线$普通线
100
AcDbVertex
100
AcDb2dVertex
 10
-21.63359778367677
 20
913.0622191640839
 30
0.0
  0
VERTEX
  5
31F
330
2DD
100
AcDbEntity
  8
Make2D$可见线$普通线
100
AcDbVertex
100
AcDb2dVertex
 10
-21.61920356354839
 20
913.0387526356569
 30
0.0
  0
VERTEX
  5
320
330
2DD
100
AcDbEntity
  8
Make2D$可见线$普通线
100
AcDbVertex
100
AcDb2dVertex
 10
-21.60459534291252
 20
913.0137507701738
 30
0.0
  0
VERTEX
  5
321
330
2DD
100
AcDbEntity
  8
Make2D$可见线$普通线
100
AcDbVertex
100
AcDb2dVertex
 10
-21.57467179476253
 20
912.9592883377813
 30
0.0
  0
VERTEX
  5
322
330
2DD
100
AcDbEntity
  8
Make2D$可见线$普通线
100
AcDbVertex
100
AcDb2dVertex
 10
-21.59447827255237
 20
912.9957961661469
 30
0.0
  0
SEQEND
  5
323
330
2DD
100
AcDbEntity
  8
Make2D$可见线$普通线
  0
POLYLINE
  5
324
330
1F
100
AcDbEntity
  8
Make2D$可见线$普通线
100
AcDb2dPolyline
 66
     1
 10
0.0
 20
0.0
 30
0.0
  0
VERTEX
  5
325
330
324
100
AcDbEntity
  8
Make2D$可见线$普通线
100
AcDbVertex
100
AcDb2dVertex
 10
-19.77378495141681
 20
909.4244775439535
 30
0.0
 42
-0.0520385119351252
  0
VERTEX
  5
326
330
324
100
AcDbEntity
  8
Make2D$可见线$普通线
100
AcDbVertex
100
AcDb2dVertex
 10
-19.41179024218272
 20
908.4398492027834
 30
0.0
  0
VERTEX
  5
327
330
324
100
AcDbEntity
  8
Make2D$可见线$普通线
100
AcDbVertex
100
AcDb2dVertex
 10
-15.80983948262025
 20
901.3706228018417
 30
0.0
  0
VERTEX
  5
328
330
324
100
AcDbEntity
  8
Make2D$可见线$普通线
100
AcDbVertex
100
AcDb2dVertex
 10
-15.8079628924768
 20
901.3715525838762
 30
0.0
  0
VERTEX
  5
329
330
324
100
AcDbEntity
  8
Make2D$可见线$普通线
100
AcDbVertex
100
AcDb2dVertex
 10
-15.80608105645501
 20
901.3724322449648
 30
0.0
  0
VERTEX
  5
32A
330
324
100
AcDbEntity
  8
Make2D$可见线$普通线
100
AcDbVertex
100
AcDb2dVertex
 10
-15.80419396472492
 20
901.3732617645417
 30
0.0
  0
VERTEX
  5
32B
330
324
100
AcDbEntity
  8
Make2D$可见线$普通线
100
AcDbVertex
100
AcDb2dVertex
 10
-15.80230160745658
 20
901.374041122041
 30
0.0
  0
VERTEX
  5
32C
330
324
100
AcDbEntity
  8
Make2D$可见线$普通线
100
AcDbVertex
100
AcDb2dVertex
 10
-15.80040397482002
 20
901.3747702968969
 30
0.0
  0
VERTEX
  5
32D
330
324
100
AcDbEntity
  8
Make2D$可见线$普通线
100
AcDbVertex
100
AcDb2dVertex
 10
-15.79850105698529
 20
901.3754492685438
 30
0.0
  0
VERTEX
  5
32E
330
324
100
AcDbEntity
  8
Make2D$可见线$普通线
100
AcDbVertex
100
AcDb2dVertex
 10
-15.79659284412244
 20
901.3760780164156
 30
0.0
  0
VERTEX
  5
32F
330
324
100
AcDbEntity
  8
Make2D$可见线$普通线
100
AcDbVertex
100
AcDb2dVertex
 10
-15.79467932640151
 20
901.3766565199466
 30
0.0
  0
VERTEX
  5
330
330
324
100
AcDbEntity
  8
Make2D$可见线$普通线
100
AcDbVertex
100
AcDb2dVertex
 10
-15.79276049399254
 20
901.3771847585709
 30
0.0
  0
VERTEX
  5
331
330
324
100
AcDbEntity
  8
Make2D$可见线$普通线
100
AcDbVertex
100
AcDb2dVertex
 10
-15.79083633706558
 20
901.3776627117227
 30
0.0
  0
VERTEX
  5
332
330
324
100
AcDbEntity
  8
Make2D$可见线$普通线
100
AcDbVertex
100
AcDb2dVertex
 10
-15.78890684579067
 20
901.3780903588362
 30
0.0
  0
VERTEX
  5
333
330
324
100
AcDbEntity
  8
Make2D$可见线$普通线
100
AcDbVertex
100
AcDb2dVertex
 10
-15.78697201033785
 20
901.3784676793457
 30
0.0
  0
VERTEX
  5
334
330
324
100
AcDbEntity
  8
Make2D$可见线$普通线
100
AcDbVertex
100
AcDb2dVertex
 10
-15.78503182087717
 20
901.3787946526852
 30
0.0
  0
VERTEX
  5
335
330
324
100
AcDbEntity
  8
Make2D$可见线$普通线
100
AcDbVertex
100
AcDb2dVertex
 10
-15.78308626757867
 20
901.379071258289
 30
0.0
  0
VERTEX
  5
336
330
324
100
AcDbEntity
  8
Make2D$可见线$普通线
100
AcDbVertex
100
AcDb2dVertex
 10
-15.78113534061239
 20
901.3792974755911
 30
0.0
  0
VERTEX
  5
337
330
324
100
AcDbEntity
  8
Make2D$可见线$普通线
100
AcDbVertex
100
AcDb2dVertex
 10
-15.77917903014839
 20
901.3794732840258
 30
0.0
  0
VERTEX
  5
338
330
324
100
AcDbEntity
  8
Make2D$可见线$普通线
100
AcDbVertex
100
AcDb2dVertex
 10
-15.7772173263567
 20
901.3795986630273
 30
0.0
  0
VERTEX
  5
339
330
324
100
AcDbEntity
  8
Make2D$可见线$普通线
100
AcDbVertex
100
AcDb2dVertex
 10
-15.77525021940736
 20
901.3796735920298
 30
0.0
  0
VERTEX
  5
33A
330
324
100
AcDbEntity
  8
Make2D$可见线$普通线
100
AcDbVertex
100
AcDb2dVertex
 10
-15.77327769947043
 20
901.3796980504676
 30
0.0
  0
VERTEX
  5
33B
330
324
100
AcDbEntity
  8
Make2D$可见线$普通线
100
AcDbVertex
100
AcDb2dVertex
 10
-15.77129975671594
 20
901.3796720177745
 30
0.0
  0
VERTEX
  5
33C
330
324
100
AcDbEntity
  8
Make2D$可见线$普通线
100
AcDbVertex
100
AcDb2dVertex
 10
-15.76931638131393
 20
901.379595473385
 30
0.0
  0
VERTEX
  5
33D
330
324
100
AcDbEntity
  8
Make2D$可见线$普通线
100
AcDbVertex
100
AcDb2dVertex
 10
-15.76732756343446
 20
901.3794683967332
 30
0.0
  0
VERTEX
  5
33E
330
324
100
AcDbEntity
  8
Make2D$可见线$普通线
100
AcDbVertex
100
AcDb2dVertex
 10
-15.76533329324756
 20
901.3792907672531
 30
0.0
  0
VERTEX
  5
33F
330
324
100
AcDbEntity
  8
Make2D$可见线$普通线
100
AcDbVertex
100
AcDb2dVertex
 10
-15.76333356092329
 20
901.3790625643792
 30
0.0
  0
VERTEX
  5
340
330
324
100
AcDbEntity
  8
Make2D$可见线$普通线
100
AcDbVertex
100
AcDb2dVertex
 10
-15.76132835663167
 20
901.3787837675454
 30
0.0
  0
VERTEX
  5
341
330
324
100
AcDbEntity
  8
Make2D$可见线$普通线
100
AcDbVertex
100
AcDb2dVertex
 10
-15.75931767054276
 20
901.3784543561861
 30
0.0
  0
VERTEX
  5
342
330
324
100
AcDbEntity
  8
Make2D$可见线$普通线
100
AcDbVertex
100
AcDb2dVertex
 10
-15.75730149282661
 20
901.3780743097354
 30
0.0
  0
VERTEX
  5
343
330
324
100
AcDbEntity
  8
Make2D$可见线$普通线
100
AcDbVertex
100
AcDb2dVertex
 10
-15.75527981365324
 20
901.3776436076274
 30
0.0
  0
VERTEX
  5
344
330
324
100
AcDbEntity
  8
Make2D$可见线$普通线
100
AcDbVertex
100
AcDb2dVertex
 10
-15.75325262319272
 20
901.3771622292963
 30
0.0
  0
VERTEX
  5
345
330
324
100
AcDbEntity
  8
Make2D$可见线$普通线
100
AcDbVertex
100
AcDb2dVertex
 10
-15.75121991161507
 20
901.3766301541764
 30
0.0
  0
VERTEX
  5
346
330
324
100
AcDbEntity
  8
Make2D$可见线$普通线
100
AcDbVertex
100
AcDb2dVertex
 10
-15.74918166909035
 20
901.3760473617018
 30
0.0
  0
VERTEX
  5
347
330
324
100
AcDbEntity
  8
Make2D$可见线$普通线
100
AcDbVertex
100
AcDb2dVertex
 10
-15.7471378857886
 20
901.3754138313066
 30
0.0
  0
VERTEX
  5
348
330
324
100
AcDbEntity
  8
Make2D$可见线$普通线
100
AcDbVertex
100
AcDb2dVertex
 10
-15.74508855187987
 20
901.374729542425
 30
0.0
  0
VERTEX
  5
349
330
324
100
AcDbEntity
  8
Make2D$可见线$普通线
100
AcDbVertex
100
AcDb2dVertex
 10
-15.74303365753419
 20
901.3739944744914
 30
0.0
  0
VERTEX
  5
34A
330
324
100
AcDbEntity
  8
Make2D$可见线$普通线
100
AcDbVertex
100
AcDb2dVertex
 10
-15.74097319292161
 20
901.3732086069397
 30
0.0
  0
VERTEX
  5
34B
330
324
100
AcDbEntity
  8
Make2D$可见线$普通线
100
AcDbVertex
100
AcDb2dVertex
 10
-15.73890714821217
 20
901.3723719192042
 30
0.0
  0
VERTEX
  5
34C
330
324
100
AcDbEntity
  8
Make2D$可见线$普通线
100
AcDbVertex
100
AcDb2dVertex
 10
-15.73683551357592
 20
901.371484390719
 30
0.0
  0
VERTEX
  5
34D
330
324
100
AcDbEntity
  8
Make2D$可见线$普通线
100
AcDbVertex
100
AcDb2dVertex
 10
-15.73475827918291
 20
901.3705460009185
 30
0.0
  0
VERTEX
  5
34E
330
324
100
AcDbEntity
  8
Make2D$可见线$普通线
100
AcDbVertex
100
AcDb2dVertex
 10
-15.73267543520317
 20
901.3695567292366
 30
0.0
  0
VERTEX
  5
34F
330
324
100
AcDbEntity
  8
Make2D$可见线$普通线
100
AcDbVertex
100
AcDb2dVertex
 10
-15.73058697180674
 20
901.3685165551076
 30
0.0
  0
VERTEX
  5
350
330
324
100
AcDbEntity
  8
Make2D$可见线$普通线
100
AcDbVertex
100
AcDb2dVertex
 10
-15.72849287916369
 20
901.3674254579657
 30
0.0
  0
VERTEX
  5
351
330
324
100
AcDbEntity
  8
Make2D$可见线$普通线
100
AcDbVertex
100
AcDb2dVertex
 10
-15.72639314744404
 20
901.3662834172452
 30
0.0
  0
VERTEX
  5
352
330
324
100
AcDbEntity
  8
Make2D$可见线$普通线
100
AcDbVertex
100
AcDb2dVertex
 10
-15.72217672745513
 20
901.3638464228045
 30
0.0
  0
VERTEX
  5
353
330
324
100
AcDbEntity
  8
Make2D$可见线$普通线
100
AcDbVertex
100
AcDb2dVertex
 10
-15.71793763320037
 20
901.3612054072589
 30
0.0
  0
VERTEX
  5
354
330
324
100
AcDbEntity
  8
Make2D$可见线$普通线
100
AcDbVertex
100
AcDb2dVertex
 10
-15.71367578604011
 20
901.3583602060821
 30
0.0
  0
VERTEX
  5
355
330
324
100
AcDbEntity
  8
Make2D$可见线$普通线
100
AcDbVertex
100
AcDb2dVertex
 10
-15.70939110733471
 20
901.3553106547474
 30
0.0
  0
VERTEX
  5
356
330
324
100
AcDbEntity
  8
Make2D$可见线$普通线
100
AcDbVertex
100
AcDb2dVertex
 10
-15.70508351844451
 20
901.3520565887281
 30
0.0
  0
VERTEX
  5
357
330
324
100
AcDbEntity
  8
Make2D$可见线$普通线
100
AcDbVertex
100
AcDb2dVertex
 10
-15.70075294072986
 20
901.3485978434978
 30
0.0
  0
VERTEX
  5
358
330
324
100
AcDbEntity
  8
Make2D$可见线$普通线
100
AcDbVertex
100
AcDb2dVertex
 10
-15.69639929555111
 20
901.3449342545299
 30
0.0
  0
VERTEX
  5
359
330
324
100
AcDbEntity
  8
Make2D$可见线$普通线
100
AcDbVertex
100
AcDb2dVertex
 10
-15.69202250426862
 20
901.3410656572978
 30
0.0
  0
VERTEX
  5
35A
330
324
100
AcDbEntity
  8
Make2D$可见线$普通线
100
AcDbVertex
100
AcDb2dVertex
 10
-15.68762248824272
 20
901.336991887275
 30
0.0
  0
VERTEX
  5
35B
330
324
100
AcDbEntity
  8
Make2D$可见线$普通线
100
AcDbVertex
100
AcDb2dVertex
 10
-15.68319916883378
 20
901.3327127799347
 30
0.0
  0
VERTEX
  5
35C
330
324
100
AcDbEntity
  8
Make2D$可见线$普通线
100
AcDbVertex
100
AcDb2dVertex
 10
-15.67875246740214
 20
901.3282281707507
 30
0.0
  0
VERTEX
  5
35D
330
324
100
AcDbEntity
  8
Make2D$可见线$普通线
100
AcDbVertex
100
AcDb2dVertex
 10
-15.67430299873936
 20
901.3235611202647
 30
0.0
  0
VERTEX
  5
35E
330
324
100
AcDbEntity
  8
Make2D$可见线$普通线
100
AcDbVertex
100
AcDb2dVertex
 10
-15.66983474886261
 20
901.3186979546102
 30
0.0
  0
VERTEX
  5
35F
330
324
100
AcDbEntity
  8
Make2D$可见线$普通线
100
AcDbVertex
100
AcDb2dVertex
 10
-15.66083994263938
 20
901.3083866486515
 30
0.0
  0
VERTEX
  5
360
330
324
100
AcDbEntity
  8
Make2D$可见线$普通线
100
AcDbVertex
100
AcDb2dVertex
 10
-15.6517641230769
 20
901.297300994586
 30
0.0
  0
VERTEX
  5
361
330
324
100
AcDbEntity
  8
Make2D$可见线$普通线
100
AcDbVertex
100
AcDb2dVertex
 10
-15.64260336451962
 20
901.2854477341248
 30
0.0
  0
VERTEX
  5
362
330
324
100
AcDbEntity
  8
Make2D$可见线$普通线
100
AcDbVertex
100
AcDb2dVertex
 10
-15.63335374131199
 20
901.2728336089791
 30
0.0
  0
VERTEX
  5
363
330
324
100
AcDbEntity
  8
Make2D$可见线$普通线
100
AcDbVertex
100
AcDb2dVertex
 10
-15.62401132779845
 20
901.2594653608602
 30
0.0
  0
VERTEX
  5
364
330
324
100
AcDbEntity
  8
Make2D$可见线$普通线
100
AcDbVertex
100
AcDb2dVertex
 10
-15.61457219832345
 20
901.2453497314793
 30
0.0
  0
VERTEX
  5
365
330
324
100
AcDbEntity
  8
Make2D$可见线$普通线
100
AcDbVertex
100
AcDb2dVertex
 10
-15.60503242723142
 20
901.2304934625475
 30
0.0
  0
VERTEX
  5
366
330
324
100
AcDbEntity
  8
Make2D$可见线$普通线
100
AcDbVertex
100
AcDb2dVertex
 10
-15.59170195870507
 20
901.208802267241
 30
0.0
  0
VERTEX
  5
367
330
324
100
AcDbEntity
  8
Make2D$可见线$普通线
100
AcDbVertex
100
AcDb2dVertex
 10
-15.57818877174745
 20
901.1857905603676
 30
0.0
  0
VERTEX
  5
368
330
324
100
AcDbEntity
  8
Make2D$可见线$普通线
100
AcDbVertex
100
AcDb2dVertex
 10
-15.5505624088739
 20
901.1359228179568
 30
0.0
  0
SEQEND
  5
369
330
324
100
AcDbEntity
  8
Make2D$可见线$普通线
  0
POLYLINE
  5
36A
330
1F
100
AcDbEntity
  8
Make2D$可见线$普通线
100
AcDb2dPolyline
 66
     1
 10
0.0
 20
0.0
 30
0.0
  0
VERTEX
  5
36B
330
36A
100
AcDbEntity
  8
Make2D$可见线$普通线
100
AcDbVertex
100
AcDb2dVertex
 10
-44.53228277531241
 20
958.0158184259501
 30
0.0
 42
-0.1900457795948385
  0
VERTEX
  5
36C
330
36A
100
AcDbEntity
  8
Make2D$可见线$普通线
100
AcDbVertex
100
AcDb2dVertex
 10
-44.55244528806366
 20
957.7813611116449
 30
0.0
  0
VERTEX
  5
36D
330
36A
100
AcDbEntity
  8
Make2D$可见线$普通线
100
AcDbVertex
100
AcDb2dVertex
 10
-45.12686831777724
 20
958.9085315831919
 30
0.0
  0
VERTEX
  5
36E
330
36A
100
AcDbEntity
  8
Make2D$可见线$普通线
100
AcDbVertex
100
AcDb2dVertex
 10
-45.09101417824751
 20
958.9295921999309
 30
0.0
  0
VERTEX
  5
36F
330
36A
100
AcDbEntity
  8
Make2D$可见线$普通线
100
AcDbVertex
100
AcDb2dVertex
 10
-45.08663633846754
 20
958.9230302067464
 30
0.0
  0
SEQEND
  5
370
330
36A
100
AcDbEntity
  8
Make2D$可见线$普通线
  0
POLYLINE
  5
371
330
1F
100
AcDbEntity
  8
Make2D$可见线$普通线
100
AcDb2dPolyline
 66
     1
 10
0.0
 20
0.0
 30
0.0
  0
VERTEX
  5
372
330
371
100
AcDbEntity
  8
Make2D$可见线$普通线
100
AcDbVertex
100
AcDb2dVertex
 10
56.62669424696535
 20
723.1494849563605
 30
0.0
 42
0.0004547715934132
  0
VERTEX
  5
373
330
371
100
AcDbEntity
  8
Make2D$可见线$普通线
100
AcDbVertex
100
AcDb2dVertex
 10
50.83261258426341
 20
723.1418531791625
 30
0.0
 42
0.0018806924987548
  0
VERTEX
  5
374
330
371
100
AcDbEntity
  8
Make2D$可见线$普通线
100
AcDbVertex
100
AcDb2dVertex
 10
44.03205037902114
 20
723.1069280002158
 30
0.0
  0
VERTEX
  5
375
330
371
100
AcDbEntity
  8
Make2D$可见线$普通线
100
AcDbVertex
100
AcDb2dVertex
 10
40.75910654207677
 20
723.063912802148
 30
0.0
  0
VERTEX
  5
376
330
371
100
AcDbEntity
  8
Make2D$可见线$普通线
100
AcDbVertex
100
AcDb2dVertex
 10
37.22110065297169
 20
722.9866142533971
 30
0.0
  0
VERTEX
  5
377
330
371
100
AcDbEntity
  8
Make2D$可见线$普通线
100
AcDbVertex
100
AcDb2dVertex
 10
33.81063699698165
 20
722.8733178394697
 30
0.0
  0
VERTEX
  5
378
330
371
100
AcDbEntity
  8
Make2D$可见线$普通线
100
AcDbVertex
100
AcDb2dVertex
 10
32.10365911973246
 20
722.7872828145288
 30
0.0
  0
VERTEX
  5
379
330
371
100
AcDbEntity
  8
Make2D$可见线$普通线
100
AcDbVertex
100
AcDb2dVertex
 10
30.39714092644657
 20
722.6860330563428
 30
0.0
  0
VERTEX
  5
37A
330
371
100
AcDbEntity
  8
Make2D$可见线$普通线
100
AcDbVertex
100
AcDb2dVertex
 10
27.25454852670096
 20
722.4701977533716
 30
0.0
  0
VERTEX
  5
37B
330
371
100
AcDbEntity
  8
Make2D$可见线$普通线
100
AcDbVertex
100
AcDb2dVertex
 10
23.56977129409096
 20
722.1812757446525
 30
0.0
  0
VERTEX
  5
37C
330
371
100
AcDbEntity
  8
Make2D$可见线$普通线
100
AcDbVertex
100
AcDb2dVertex
 10
20.49948812048663
 20
721.9199964123429
 30
0.0
  0
VERTEX
  5
37D
330
371
100
AcDbEntity
  8
Make2D$可见线$普通线
100
AcDbVertex
100
AcDb2dVertex
 10
16.74103589931961
 20
721.5826373842516
 30
0.0
  0
VERTEX
  5
37E
330
371
100
AcDbEntity
  8
Make2D$可见线$普通线
100
AcDbVertex
100
AcDb2dVertex
 10
14.09653002958418
 20
721.3249212160619
 30
0.0
 42
0.0012488152439644
  0
VERTEX
  5
37F
330
371
100
AcDbEntity
  8
Make2D$可见线$普通线
100
AcDbVertex
100
AcDb2dVertex
 10
13.32070391591434
 20
721.2420883537043
 30
0.0
 42
0.0017108458605975
  0
VERTEX
  5
380
330
371
100
AcDbEntity
  8
Make2D$可见线$普通线
100
AcDbVertex
100
AcDb2dVertex
 10
12.43533743336627
 20
721.142278647984
 30
0.0
  0
VERTEX
  5
381
330
371
100
AcDbEntity
  8
Make2D$可见线$普通线
100
AcDbVertex
100
AcDb2dVertex
 10
10.77894068332078
 20
720.9374907736466
 30
0.0
 42
0.0052768512891426
  0
VERTEX
  5
382
330
371
100
AcDbEntity
  8
Make2D$可见线$普通线
100
AcDbVertex
100
AcDb2dVertex
 10
5.802743785745285
 20
720.227987203321
 30
0.0
  0
VERTEX
  5
383
330
371
100
AcDbEntity
  8
Make2D$可见线$普通线
100
AcDbVertex
100
AcDb2dVertex
 10
5.731383593351659
 20
720.2172316762131
 30
0.0
  0
VERTEX
  5
384
330
371
100
AcDbEntity
  8
Make2D$可见线$普通线
100
AcDbVertex
100
AcDb2dVertex
 10
5.714269513083103
 20
720.2146202003152
 30
0.0
  0
VERTEX
  5
385
330
371
100
AcDbEntity
  8
Make2D$可见线$普通线
100
AcDbVertex
100
AcDb2dVertex
 10
5.69716659885421
 20
720.2119304467755
 30
0.0
  0
VERTEX
  5
386
330
371
100
AcDbEntity
  8
Make2D$可见线$普通线
100
AcDbVertex
100
AcDb2dVertex
 10
5.662998637837321
 20
720.2063170818707
 30
0.0
 42
0.1655831194107434
  0
VERTEX
  5
387
330
371
100
AcDbEntity
  8
Make2D$可见线$普通线
100
AcDbVertex
100
AcDb2dVertex
 10
3.444718605574815
 20
718.998969836575
 30
0.0
 42
0.4471489748916647
  0
VERTEX
  5
388
330
371
100
AcDbEntity
  8
Make2D$可见线$普通线
100
AcDbVertex
100
AcDb2dVertex
 10
6.009919528334376
 20
691.7848873981562
 30
0.0
 42
0.1226225385729392
  0
VERTEX
  5
389
330
371
100
AcDbEntity
  8
Make2D$可见线$普通线
100
AcDbVertex
100
AcDb2dVertex
 10
7.66475281192742
 20
691.1011248317491
 30
0.0
  0
VERTEX
  5
38A
330
371
100
AcDbEntity
  8
Make2D$可见线$普通线
100
AcDbVertex
100
AcDb2dVertex
 10
9.496242033991194
 20
690.8290888046613
 30
0.0
  0
VERTEX
  5
38B
330
371
100
AcDbEntity
  8
Make2D$可见线$普通线
100
AcDbVertex
100
AcDb2dVertex
 10
11.8497006835618
 20
690.4011241000692
 30
0.0
  0
VERTEX
  5
38C
330
371
100
AcDbEntity
  8
Make2D$可见线$普通线
100
AcDbVertex
100
AcDb2dVertex
 10
12.934099602301
 20
690.1862459211044
 30
0.0
  0
VERTEX
  5
38D
330
371
100
AcDbEntity
  8
Make2D$可见线$普通线
100
AcDbVertex
100
AcDb2dVertex
 10
14.01627167763957
 20
689.9604011210051
 30
0.0
  0
VERTEX
  5
38E
330
371
100
AcDbEntity
  8
Make2D$可见线$普通线
100
AcDbVertex
100
AcDb2dVertex
 10
15.20294053492299
 20
689.6996266122899
 30
0.0
  0
VERTEX
  5
38F
330
371
100
AcDbEntity
  8
Make2D$可见线$普通线
100
AcDbVertex
100
AcDb2dVertex
 10
16.38652538954384
 20
689.425217046286
 30
0.0
  0
VERTEX
  5
390
330
371
100
AcDbEntity
  8
Make2D$可见线$普通线
100
AcDbVertex
100
AcDb2dVertex
 10
17.45840787214874
 20
689.1636973704274
 30
0.0
  0
VERTEX
  5
391
330
371
100
AcDbEntity
  8
Make2D$可见线$普通线
100
AcDbVertex
100
AcDb2dVertex
 10
18.52725123228898
 20
688.8900269410443
 30
0.0
  0
VERTEX
  5
392
330
371
100
AcDbEntity
  8
Make2D$可见线$普通线
100
AcDbVertex
100
AcDb2dVertex
 10
19.59129298148817
 20
688.6042911927948
 30
0.0
  0
VERTEX
  5
393
330
371
100
AcDbEntity
  8
Make2D$可见线$普通线
100
AcDbVertex
100
AcDb2dVertex
 10
20.65187950650062
 20
688.305980293386
 30
0.0
  0
VERTEX
  5
394
330
371
100
AcDbEntity
  8
Make2D$可见线$普通线
100
AcDbVertex
100
AcDb2dVertex
 10
21.70688536859802
 20
687.9953709524748
 30
0.0
  0
VERTEX
  5
395
330
371
100
AcDbEntity
  8
Make2D$可见线$普通线
100
AcDbVertex
100
AcDb2dVertex
 10
22.75767107246806
 20
687.6708016962859
 30
0.0
  0
VERTEX
  5
396
330
371
100
AcDbEntity
  8
Make2D$可见线$普通线
100
AcDbVertex
100
AcDb2dVertex
 10
23.80151927204111
 20
687.3316719824836
 30
0.0
  0
VERTEX
  5
397
330
371
100
AcDbEntity
  8
Make2D$可见线$普通线
100
AcDbVertex
100
AcDb2dVertex
 10
24.63109342625506
 20
687.0482479666084
 30
0.0
  0
VERTEX
  5
398
330
371
100
AcDbEntity
  8
Make2D$可见线$普通线
100
AcDbVertex
100
AcDb2dVertex
 10
25.60813883270513
 20
686.6948976355563
 30
0.0
  0
VERTEX
  5
399
330
371
100
AcDbEntity
  8
Make2D$可见线$普通线
100
AcDbVertex
100
AcDb2dVertex
 10
26.57888965878581
 20
686.3303038152765
 30
0.0
  0
VERTEX
  5
39A
330
371
100
AcDbEntity
  8
Make2D$可见线$普通线
100
AcDbVertex
100
AcDb2dVertex
 10
27.43943066840043
 20
685.992886600229
 30
0.0
  0
VERTEX
  5
39B
330
371
100
AcDbEntity
  8
Make2D$可见线$普通线
100
AcDbVertex
100
AcDb2dVertex
 10
28.29519491595229
 20
685.6434665128827
 30
0.0
  0
VERTEX
  5
39C
330
371
100
AcDbEntity
  8
Make2D$可见线$普通线
100
AcDbVertex
100
AcDb2dVertex
 10
29.18748727825243
 20
685.2651216294018
 30
0.0
  0
VERTEX
  5
39D
330
371
100
AcDbEntity
  8
Make2D$可见线$普通线
100
AcDbVertex
100
AcDb2dVertex
 10
30.07450976010866
 20
684.87462006818
 30
0.0
  0
VERTEX
  5
39E
330
371
100
AcDbEntity
  8
Make2D$可见线$普通线
100
AcDbVertex
100
AcDb2dVertex
 10
30.95601944049839
 20
684.4718590655523
 30
0.0
  0
VERTEX
  5
39F
330
371
100
AcDbEntity
  8
Make2D$可见线$普通线
100
AcDbVertex
100
AcDb2dVertex
 10
31.83177339839902
 20
684.0567358578539
 30
0.0
  0
VERTEX
  5
3A0
330
371
100
AcDbEntity
  8
Make2D$可见线$普通线
100
AcDbVertex
100
AcDb2dVertex
 10
32.69007221624895
 20
683.6352028193722
 30
0.0
  0
VERTEX
  5
3A1
330
371
100
AcDbEntity
  8
Make2D$可见线$普通线
100
AcDbVertex
100
AcDb2dVertex
 10
33.54305720982045
 20
683.202985877503
 30
0.0
  0
VERTEX
  5
3A2
330
371
100
AcDbEntity
  8
Make2D$可见线$普通线
100
AcDbVertex
100
AcDb2dVertex
 10
34.56712765729574
 20
682.6687667007093
 30
0.0
  0
VERTEX
  5
3A3
330
371
100
AcDbEntity
  8
Make2D$可见线$普通线
100
AcDbVertex
100
AcDb2dVertex
 10
36.31554409401814
 20
681.7243250257844
 30
0.0
  0
VERTEX
  5
3A4
330
371
100
AcDbEntity
  8
Make2D$可见线$普通线
100
AcDbVertex
100
AcDb2dVertex
 10
38.47880461041333
 20
680.499707018844
 30
0.0
  0
VERTEX
  5
3A5
330
371
100
AcDbEntity
  8
Make2D$可见线$普通线
100
AcDbVertex
100
AcDb2dVertex
 10
39.51232933833843
 20
679.8981005392135
 30
0.0
 42
-0.01947925790758
  0
VERTEX
  5
3A6
330
371
100
AcDbEntity
  8
Make2D$可见线$普通线
100
AcDbVertex
100
AcDb2dVertex
 10
45.6853569584996
 20
675.5641766726665
 30
0.0
 42
-0.0442814358688036
  0
VERTEX
  5
3A7
330
371
100
AcDbEntity
  8
Make2D$可见线$普通线
100
AcDbVertex
100
AcDb2dVertex
 10
46.59307671411521
 20
674.6914556218686
 30
0.0
 42
-0.2066941201431405
  0
VERTEX
  5
3A8
330
371
100
AcDbEntity
  8
Make2D$可见线$普通线
100
AcDbVertex
100
AcDb2dVertex
 10
45.90472827789484
 20
674.9561247198601
 30
0.0
  0
VERTEX
  5
3A9
330
371
100
AcDbEntity
  8
Make2D$可见线$普通线
100
AcDbVertex
100
AcDb2dVertex
 10
45.88784432640456
 20
674.9754336618257
 30
0.0
 42
0.0353545516768788
  0
VERTEX
  5
3AA
330
371
100
AcDbEntity
  8
Make2D$可见线$普通线
100
AcDbVertex
100
AcDb2dVertex
 10
45.44017854978181
 20
675.4253147044893
 30
0.0
  0
VERTEX
  5
3AB
330
371
100
AcDbEntity
  8
Make2D$可见线$普通线
100
AcDbVertex
100
AcDb2dVertex
 10
45.07223137512312
 20
675.7285047817442
 30
0.0
  0
VERTEX
  5
3AC
330
371
100
AcDbEntity
  8
Make2D$可见线$普通线
100
AcDbVertex
100
AcDb2dVertex
 10
45.0253593321962
 20
675.7636676287578
 30
0.0
  0
VERTEX
  5
3AD
330
371
100
AcDbEntity
  8
Make2D$可见线$普通线
100
AcDbVertex
100
AcDb2dVertex
 10
45.01970329043249
 20
675.7678427516272
 30
0.0
  0
VERTEX
  5
3AE
330
371
100
AcDbEntity
  8
Make2D$可见线$普通线
100
AcDbVertex
100
AcDb2dVertex
 10
45.00023608403877
 20
675.78212273263
 30
0.0
  0
VERTEX
  5
3AF
330
371
100
AcDbEntity
  8
Make2D$可见线$普通线
100
AcDbVertex
100
AcDb2dVertex
 10
44.99449491486241
 20
675.786307006295
 30
0.0
  0
VERTEX
  5
3B0
330
371
100
AcDbEntity
  8
Make2D$可见线$普通线
100
AcDbVertex
100
AcDb2dVertex
 10
44.97402074519131
 20
675.8011396644993
 30
0.0
  0
VERTEX
  5
3B1
330
371
100
AcDbEntity
  8
Make2D$可见线$普通线
100
AcDbVertex
100
AcDb2dVertex
 10
44.96632717028571
 20
675.8066802282469
 30
0.0
  0
VERTEX
  5
3B2
330
371
100
AcDbEntity
  8
Make2D$可见线$普通线
100
AcDbVertex
100
AcDb2dVertex
 10
44.94674375643518
 20
675.820710820074
 30
0.0
  0
VERTEX
  5
3B3
330
371
100
AcDbEntity
  8
Make2D$可见线$普通线
100
AcDbVertex
100
AcDb2dVertex
 10
44.94063567987597
 20
675.8250673324155
 30
0.0
  0
VERTEX
  5
3B4
330
371
100
AcDbEntity
  8
Make2D$可见线$普通线
100
AcDbVertex
100
AcDb2dVertex
 10
44.91843673160287
 20
675.8408303439655
 30
0.0
  0
VERTEX
  5
3B5
330
371
100
AcDbEntity
  8
Make2D$可见线$普通线
100
AcDbVertex
100
AcDb2dVertex
 10
44.91201292678754
 20
675.8453728561917
 30
0.0
  0
VERTEX
  5
3B6
330
371
100
AcDbEntity
  8
Make2D$可见线$普通线
100
AcDbVertex
100
AcDb2dVertex
 10
44.8891311729178
 20
675.8614923371862
 30
0.0
  0
VERTEX
  5
3B7
330
371
100
AcDbEntity
  8
Make2D$可见线$普通线
100
AcDbVertex
100
AcDb2dVertex
 10
44.8822802634803
 20
675.8663015461271
 30
0.0
  0
VERTEX
  5
3B8
330
371
100
AcDbEntity
  8
Make2D$可见线$普通线
100
AcDbVertex
100
AcDb2dVertex
 10
44.85885848075482
 20
675.8826908209368
 30
0.0
  0
VERTEX
  5
3B9
330
371
100
AcDbEntity
  8
Make2D$可见线$普通线
100
AcDbVertex
100
AcDb2dVertex
 10
44.8514523922354
 20
675.8878588402653
 30
0.0
  0
VERTEX
  5
3BA
330
371
100
AcDbEntity
  8
Make2D$可见线$普通线
100
AcDbVertex
100
AcDb2dVertex
 10
44.82761825929044
 20
675.9044604739532
 30
0.0
  0
VERTEX
  5
3BB
330
371
100
AcDbEntity
  8
Make2D$可见线$普通线
100
AcDbVertex
100
AcDb2dVertex
 10
44.81955581287088
 20
675.9100671997229
 30
0.0
  0
VERTEX
  5
3BC
330
371
100
AcDbEntity
  8
Make2D$可见线$普通线
100
AcDbVertex
100
AcDb2dVertex
 10
44.79547428015171
 20
675.926790866159
 30
0.0
  0
VERTEX
  5
3BD
330
371
100
AcDbEntity
  8
Make2D$可见线$普通线
100
AcDbVertex
100
AcDb2dVertex
 10
44.78661270647125
 20
675.9329429081532
 30
0.0
  0
VERTEX
  5
3BE
330
371
100
AcDbEntity
  8
Make2D$可见线$普通线
100
AcDbVertex
100
AcDb2dVertex
 10
44.74089500762505
 20
675.9646303514393
 30
0.0
  0
VERTEX
  5
3BF
330
371
100
AcDbEntity
  8
Make2D$可见线$普通线
100
AcDbVertex
100
AcDb2dVertex
 10
44.72900587956926
 20
675.9728691741044
 30
0.0
  0
VERTEX
  5
3C0
330
371
100
AcDbEntity
  8
Make2D$可见线$普通线
100
AcDbVertex
100
AcDb2dVertex
 10
44.38008905163055
 20
676.2147484796324
 30
0.0
  0
VERTEX
  5
3C1
330
371
100
AcDbEntity
  8
Make2D$可见线$普通线
100
AcDbVertex
100
AcDb2dVertex
 10
44.37605102997344
 20
676.2175463729136
 30
0.0
  0
VERTEX
  5
3C2
330
371
100
AcDbEntity
  8
Make2D$可见线$普通线
100
AcDbVertex
100
AcDb2dVertex
 10
44.31489067850592
 20
676.2599107128217
 30
0.0
  0
VERTEX
  5
3C3
330
371
100
AcDbEntity
  8
Make2D$可见线$普通线
100
AcDbVertex
100
AcDb2dVertex
 10
44.30202927788234
 20
676.2688161397739
 30
0.0
  0
VERTEX
  5
3C4
330
371
100
AcDbEntity
  8
Make2D$可见线$普通线
100
AcDbVertex
100
AcDb2dVertex
 10
44.24880975093939
 20
676.3056520533327
 30
0.0
  0
VERTEX
  5
3C5
330
371
100
AcDbEntity
  8
Make2D$可见线$普通线
100
AcDbVertex
100
AcDb2dVertex
 10
44.22680729376711
 20
676.3208739164361
 30
0.0
  0
VERTEX
  5
3C6
330
371
100
AcDbEntity
  8
Make2D$可见线$普通线
100
AcDbVertex
100
AcDb2dVertex
 10
44.18184732496786
 20
676.3519641494249
 30
0.0
  0
VERTEX
  5
3C7
330
371
100
AcDbEntity
  8
Make2D$可见线$普通线
100
AcDbVertex
100
AcDb2dVertex
 10
44.15038757889356
 20
676.3737067300294
 30
0.0
  0
VERTEX
  5
3C8
330
371
100
AcDbEntity
  8
Make2D$可见线$普通线
100
AcDbVertex
100
AcDb2dVertex
 10
43.97568620632909
 20
676.4942480366573
 30
0.0
  0
VERTEX
  5
3C9
330
371
100
AcDbEntity
  8
Make2D$可见线$普通线
100
AcDbVertex
100
AcDb2dVertex
 10
43.88530805570162
 20
676.5564783148249
 30
0.0
  0
VERTEX
  5
3CA
330
371
100
AcDbEntity
  8
Make2D$可见线$普通线
100
AcDbVertex
100
AcDb2dVertex
 10
43.83291768857932
 20
676.592534162941
 30
0.0
  0
VERTEX
  5
3CB
330
371
100
AcDbEntity
  8
Make2D$可见线$普通线
100
AcDbVertex
100
AcDb2dVertex
 10
43.79358139525807
 20
676.6195933425303
 30
0.0
  0
VERTEX
  5
3CC
330
371
100
AcDbEntity
  8
Make2D$可见线$普通线
100
AcDbVertex
100
AcDb2dVertex
 10
43.75072468959238
 20
676.6490607357265
 30
0.0
  0
VERTEX
  5
3CD
330
371
100
AcDbEntity
  8
Make2D$可见线$普通线
100
AcDbVertex
100
AcDb2dVertex
 10
43.70050673864121
 20
676.6835703462115
 30
0.0
  0
VERTEX
  5
3CE
330
371
100
AcDbEntity
  8
Make2D$可见线$普通线
100
AcDbVertex
100
AcDb2dVertex
 10
43.66742504876594
 20
676.7062919010247
 30
0.0
  0
VERTEX
  5
3CF
330
371
100
AcDbEntity
  8
Make2D$可见线$普通线
100
AcDbVertex
100
AcDb2dVertex
 10
43.60608874988513
 20
676.7483925426571
 30
0.0
  0
VERTEX
  5
3D0
330
371
100
AcDbEntity
  8
Make2D$可见线$普通线
100
AcDbVertex
100
AcDb2dVertex
 10
43.58302338194557
 20
676.7642148397166
 30
0.0
  0
VERTEX
  5
3D1
330
371
100
AcDbEntity
  8
Make2D$可见线$普通线
100
AcDbVertex
100
AcDb2dVertex
 10
43.51033209535985
 20
676.8140431624043
 30
0.0
  0
VERTEX
  5
3D2
330
371
100
AcDbEntity
  8
Make2D$可见线$普通线
100
AcDbVertex
100
AcDb2dVertex
 10
43.32325231792851
 20
676.9420060197859
 30
0.0
  0
VERTEX
  5
3D3
330
371
100
AcDbEntity
  8
Make2D$可见线$普通线
100
AcDbVertex
100
AcDb2dVertex
 10
43.31482148949022
 20
676.9477626328165
 30
0.0
  0
VERTEX
  5
3D4
330
371
100
AcDbEntity
  8
Make2D$可见线$普通线
100
AcDbVertex
100
AcDb2dVertex
 10
43.23448862273496
 20
677.0025677519869
 30
0.0
  0
VERTEX
  5
3D5
330
371
100
AcDbEntity
  8
Make2D$可见线$普通线
100
AcDbVertex
100
AcDb2dVertex
 10
43.21507688700817
 20
677.0157979901481
 30
0.0
  0
VERTEX
  5
3D6
330
371
100
AcDbEntity
  8
Make2D$可见线$普通线
100
AcDbVertex
100
AcDb2dVertex
 10
43.14464585785488
 20
677.0637569897683
 30
0.0
  0
VERTEX
  5
3D7
330
371
100
AcDbEntity
  8
Make2D$可见线$普通线
100
AcDbVertex
100
AcDb2dVertex
 10
43.08598152615814
 20
677.1036497181473
 30
0.0
  0
VERTEX
  5
3D8
330
371
100
AcDbEntity
  8
Make2D$可见线$普通线
100
AcDbVertex
100
AcDb2dVertex
 10
42.86868860700154
 20
677.2509605099385
 30
0.0
  0
VERTEX
  5
3D9
330
371
100
AcDbEntity
  8
Make2D$可见线$普通线
100
AcDbVertex
100
AcDb2dVertex
 10
42.82137508621513
 20
677.2829371439749
 30
0.0
  0
VERTEX
  5
3DA
330
371
100
AcDbEntity
  8
Make2D$可见线$普通线
100
AcDbVertex
100
AcDb2dVertex
 10
42.77457501029474
 20
677.3145305281564
 30
0.0
  0
VERTEX
  5
3DB
330
371
100
AcDbEntity
  8
Make2D$可见线$普通线
100
AcDbVertex
100
AcDb2dVertex
 10
42.68591563902827
 20
677.3742809672474
 30
0.0
  0
VERTEX
  5
3DC
330
371
100
AcDbEntity
  8
Make2D$可见线$普通线
100
AcDbVertex
100
AcDb2dVertex
 10
42.5831832103664
 20
677.4433460960497
 30
0.0
  0
VERTEX
  5
3DD
330
371
100
AcDbEntity
  8
Make2D$可见线$普通线
100
AcDbVertex
100
AcDb2dVertex
 10
42.54838662774546
 20
677.4666971939319
 30
0.0
  0
VERTEX
  5
3DE
330
371
100
AcDbEntity
  8
Make2D$可见线$普通线
100
AcDbVertex
100
AcDb2dVertex
 10
42.48593106607481
 20
677.5085555399868
 30
0.0
  0
VERTEX
  5
3DF
330
371
100
AcDbEntity
  8
Make2D$可见线$普通线
100
AcDbVertex
100
AcDb2dVertex
 10
42.40881462850184
 20
677.5601410457572
 30
0.0
  0
VERTEX
  5
3E0
330
371
100
AcDbEntity
  8
Make2D$可见线$普通线
100
AcDbVertex
100
AcDb2dVertex
 10
42.28840169997061
 20
677.640461199143
 30
0.0
  0
VERTEX
  5
3E1
330
371
100
AcDbEntity
  8
Make2D$可见线$普通线
100
AcDbVertex
100
AcDb2dVertex
 10
42.2672209766744
 20
677.6545598971564
 30
0.0
  0
VERTEX
  5
3E2
330
371
100
AcDbEntity
  8
Make2D$可见线$普通线
100
AcDbVertex
100
AcDb2dVertex
 10
42.16555793331171
 20
677.722102855871
 30
0.0
  0
VERTEX
  5
3E3
330
371
100
AcDbEntity
  8
Make2D$可见线$普通线
100
AcDbVertex
100
AcDb2dVertex
 10
42.12362562080291
 20
677.7498989014838
 30
0.0
  0
VERTEX
  5
3E4
330
371
100
AcDbEntity
  8
Make2D$可见线$普通线
100
AcDbVertex
100
AcDb2dVertex
 10
42.08686074469609
 20
677.7742371145506
 30
0.0
  0
VERTEX
  5
3E5
330
371
100
AcDbEntity
  8
Make2D$可见线$普通线
100
AcDbVertex
100
AcDb2dVertex
 10
42.01344184862857
 20
677.8227427045164
 30
0.0
  0
VERTEX
  5
3E6
330
371
100
AcDbEntity
  8
Make2D$可见线$普通线
100
AcDbVertex
100
AcDb2dVertex
 10
41.9845853145325
 20
677.8417711736028
 30
0.0
  0
VERTEX
  5
3E7
330
371
100
AcDbEntity
  8
Make2D$可见线$普通线
100
AcDbVertex
100
AcDb2dVertex
 10
41.90210558802429
 20
677.8960447899334
 30
0.0
  0
VERTEX
  5
3E8
330
371
100
AcDbEntity
  8
Make2D$可见线$普通线
100
AcDbVertex
100
AcDb2dVertex
 10
41.88130513149189
 20
677.9097047268548
 30
0.0
  0
VERTEX
  5
3E9
330
371
100
AcDbEntity
  8
Make2D$可见线$普通线
100
AcDbVertex
100
AcDb2dVertex
 10
41.67599675529629
 20
678.0439323453921
 30
0.0
  0
VERTEX
  5
3EA
330
371
100
AcDbEntity
  8
Make2D$可见线$普通线
100
AcDbVertex
100
AcDb2dVertex
 10
41.67173974184834
 20
678.0466970580011
 30
0.0
  0
VERTEX
  5
3EB
330
371
100
AcDbEntity
  8
Make2D$可见线$普通线
100
AcDbVertex
100
AcDb2dVertex
 10
41.54053918466436
 20
678.1318575981259
 30
0.0
  0
VERTEX
  5
3EC
330
371
100
AcDbEntity
  8
Make2D$可见线$普通线
100
AcDbVertex
100
AcDb2dVertex
 10
41.52190553186004
 20
678.1439135261587
 30
0.0
  0
VERTEX
  5
3ED
330
371
100
AcDbEntity
  8
Make2D$可见线$普通线
100
AcDbVertex
100
AcDb2dVertex
 10
41.45818288059099
 20
678.1850675528593
 30
0.0
  0
VERTEX
  5
3EE
330
371
100
AcDbEntity
  8
Make2D$可见线$普通线
100
AcDbVertex
100
AcDb2dVertex
 10
41.36581394759283
 20
678.2445153001846
 30
0.0
  0
VERTEX
  5
3EF
330
371
100
AcDbEntity
  8
Make2D$可见线$普通线
100
AcDbVertex
100
AcDb2dVertex
 10
41.01916600484286
 20
678.4653555575637
 30
0.0
  0
VERTEX
  5
3F0
330
371
100
AcDbEntity
  8
Make2D$可见线$普通线
100
AcDbVertex
100
AcDb2dVertex
 10
40.93959181357161
 20
678.5155131864656
 30
0.0
  0
VERTEX
  5
3F1
330
371
100
AcDbEntity
  8
Make2D$可见线$普通线
100
AcDbVertex
100
AcDb2dVertex
 10
40.90693083593209
 20
678.5360373394007
 30
0.0
  0
VERTEX
  5
3F2
330
371
100
AcDbEntity
  8
Make2D$可见线$普通线
100
AcDbVertex
100
AcDb2dVertex
 10
40.83046709526223
 20
678.5839394706571
 30
0.0
  0
VERTEX
  5
3F3
330
371
100
AcDbEntity
  8
Make2D$可见线$普通线
100
AcDbVertex
100
AcDb2dVertex
 10
40.79368691643005
 20
678.6069073329533
 30
0.0
  0
VERTEX
  5
3F4
330
371
100
AcDbEntity
  8
Make2D$可见线$普通线
100
AcDbVertex
100
AcDb2dVertex
 10
40.70910191217263
 20
678.6595495940916
 30
0.0
  0
VERTEX
  5
3F5
330
371
100
AcDbEntity
  8
Make2D$可见线$普通线
100
AcDbVertex
100
AcDb2dVertex
 10
40.67944078068979
 20
678.6779517387972
 30
0.0
  0
VERTEX
  5
3F6
330
371
100
AcDbEntity
  8
Make2D$可见线$普通线
100
AcDbVertex
100
AcDb2dVertex
 10
40.61202552329325
 20
678.719667780294
 30
0.0
  0
VERTEX
  5
3F7
330
371
100
AcDbEntity
  8
Make2D$可见线$普通线
100
AcDbVertex
100
AcDb2dVertex
 10
40.56421605698176
 20
678.7491614152236
 30
0.0
  0
VERTEX
  5
3F8
330
371
100
AcDbEntity
  8
Make2D$可见线$普通线
100
AcDbVertex
100
AcDb2dVertex
 10
40.47095713451938
 20
678.8064815379691
 30
0.0
  0
VERTEX
  5
3F9
330
371
100
AcDbEntity
  8
Make2D$可见线$普通线
100
AcDbVertex
100
AcDb2dVertex
 10
40.41889840363427
 20
678.8383596229742
 30
0.0
  0
VERTEX
  5
3FA
330
371
100
AcDbEntity
  8
Make2D$可见线$普通线
100
AcDbVertex
100
AcDb2dVertex
 10
40.36161724080493
 20
678.8733392278709
 30
0.0
  0
VERTEX
  5
3FB
330
371
100
AcDbEntity
  8
Make2D$可见线$普通线
100
AcDbVertex
100
AcDb2dVertex
 10
40.30640742878155
 20
678.9069599291535
 30
0.0
  0
VERTEX
  5
3FC
330
371
100
AcDbEntity
  8
Make2D$可见线$普通线
100
AcDbVertex
100
AcDb2dVertex
 10
40.26838702195904
 20
678.9300600983454
 30
0.0
  0
VERTEX
  5
3FD
330
371
100
AcDbEntity
  8
Make2D$可见线$普通线
100
AcDbVertex
100
AcDb2dVertex
 10
40.21290743097833
 20
678.9636918347433
 30
0.0
  0
VERTEX
  5
3FE
330
371
100
AcDbEntity
  8
Make2D$可见线$普通线
100
AcDbVertex
100
AcDb2dVertex
 10
40.13532829346792
 20
679.010571322561
 30
0.0
  0
VERTEX
  5
3FF
330
371
100
AcDbEntity
  8
Make2D$可见线$普通线
100
AcDbVertex
100
AcDb2dVertex
 10
40.08471775847332
 20
679.0410622648117
 30
0.0
  0
VERTEX
  5
400
330
371
100
AcDbEntity
  8
Make2D$可见线$普通线
100
AcDbVertex
100
AcDb2dVertex
 10
40.03101538008919
 20
679.073337901387
 30
0.0
  0
VERTEX
  5
401
330
371
100
AcDbEntity
  8
Make2D$可见线$普通线
100
AcDbVertex
100
AcDb2dVertex
 10
39.97424313185951
 20
679.1073725328671
 30
0.0
  0
VERTEX
  5
402
330
371
100
AcDbEntity
  8
Make2D$可见线$普通线
100
AcDbVertex
100
AcDb2dVertex
 10
39.87711113573447
 20
679.165434752531
 30
0.0
  0
VERTEX
  5
403
330
371
100
AcDbEntity
  8
Make2D$可见线$普通线
100
AcDbVertex
100
AcDb2dVertex
 10
39.85360718908372
 20
679.1794389241617
 30
0.0
  0
VERTEX
  5
404
330
371
100
AcDbEntity
  8
Make2D$可见线$普通线
100
AcDbVertex
100
AcDb2dVertex
 10
39.80895986410636
 20
679.206045197169
 30
0.0
  0
VERTEX
  5
405
330
371
100
AcDbEntity
  8
Make2D$可见线$普通线
100
AcDbVertex
100
AcDb2dVertex
 10
39.76784079721146
 20
679.23052498732
 30
0.0
  0
VERTEX
  5
406
330
371
100
AcDbEntity
  8
Make2D$可见线$普通线
100
AcDbVertex
100
AcDb2dVertex
 10
39.73216514494693
 20
679.2517458910846
 30
0.0
  0
VERTEX
  5
407
330
371
100
AcDbEntity
  8
Make2D$可见线$普通线
100
AcDbVertex
100
AcDb2dVertex
 10
39.65811821980454
 20
679.2957384736085
 30
0.0
  0
VERTEX
  5
408
330
371
100
AcDbEntity
  8
Make2D$可见线$普通线
100
AcDbVertex
100
AcDb2dVertex
 10
39.61002941417692
 20
679.3242718001645
 30
0.0
  0
VERTEX
  5
409
330
371
100
AcDbEntity
  8
Make2D$可见线$普通线
100
AcDbVertex
100
AcDb2dVertex
 10
39.5479452291803
 20
679.3610673590072
 30
0.0
  0
VERTEX
  5
40A
330
371
100
AcDbEntity
  8
Make2D$可见线$普通线
100
AcDbVertex
100
AcDb2dVertex
 10
39.48729635991695
 20
679.3969679528
 30
0.0
  0
VERTEX
  5
40B
330
371
100
AcDbEntity
  8
Make2D$可见线$普通线
100
AcDbVertex
100
AcDb2dVertex
 10
39.43009331448721
 20
679.4307860052454
 30
0.0
  0
VERTEX
  5
40C
330
371
100
AcDbEntity
  8
Make2D$可见线$普通线
100
AcDbVertex
100
AcDb2dVertex
 10
39.36398997630349
 20
679.4698087963444
 30
0.0
  0
VERTEX
  5
40D
330
371
100
AcDbEntity
  8
Make2D$可见线$普通线
100
AcDbVertex
100
AcDb2dVertex
 10
39.31141651134661
 20
679.5007999803933
 30
0.0
  0
VERTEX
  5
40E
330
371
100
AcDbEntity
  8
Make2D$可见线$普通线
100
AcDbVertex
100
AcDb2dVertex
 10
39.24006899510767
 20
679.5427938029355
 30
0.0
  0
VERTEX
  5
40F
330
371
100
AcDbEntity
  8
Make2D$可见线$普通线
100
AcDbVertex
100
AcDb2dVertex
 10
39.1229069056276
 20
679.6115885215214
 30
0.0
  0
VERTEX
  5
410
330
371
100
AcDbEntity
  8
Make2D$可见线$普通线
100
AcDbVertex
100
AcDb2dVertex
 10
39.11553201810736
 20
679.6159118943009
 30
0.0
  0
VERTEX
  5
411
330
371
100
AcDbEntity
  8
Make2D$可见线$普通线
100
AcDbVertex
100
AcDb2dVertex
 10
38.99037764666985
 20
679.6891519642162
 30
0.0
  0
VERTEX
  5
412
330
371
100
AcDbEntity
  8
Make2D$可见线$普通线
100
AcDbVertex
100
AcDb2dVertex
 10
38.06658577093187
 20
680.2220699035596
 30
0.0
  0
VERTEX
  5
413
330
371
100
AcDbEntity
  8
Make2D$可见线$普通线
100
AcDbVertex
100
AcDb2dVertex
 10
37.13726457925659
 20
680.7452907753171
 30
0.0
  0
VERTEX
  5
414
330
371
100
AcDbEntity
  8
Make2D$可见线$普通线
100
AcDbVertex
100
AcDb2dVertex
 10
36.20249933392006
 20
681.2587212299784
 30
0.0
  0
VERTEX
  5
415
330
371
100
AcDbEntity
  8
Make2D$可见线$普通线
100
AcDbVertex
100
AcDb2dVertex
 10
35.2623752971983
 20
681.7622679180332
 30
0.0
  0
VERTEX
  5
416
330
371
100
AcDbEntity
  8
Make2D$可见线$普通线
100
AcDbVertex
100
AcDb2dVertex
 10
34.27179630995303
 20
682.2790613044752
 30
0.0
  0
VERTEX
  5
417
330
371
100
AcDbEntity
  8
Make2D$可见线$普通线
100
AcDbVertex
100
AcDb2dVertex
 10
33.27540944651813
 20
682.7845835416806
 30
0.0
  0
VERTEX
  5
418
330
371
100
AcDbEntity
  8
Make2D$可见线$普通线
100
AcDbVertex
100
AcDb2dVertex
 10
32.40002429375787
 20
683.2164058899024
 30
0.0
  0
VERTEX
  5
419
330
371
100
AcDbEntity
  8
Make2D$可见线$普通线
100
AcDbVertex
100
AcDb2dVertex
 10
31.51928785136396
 20
683.6371386397167
 30
0.0
  0
VERTEX
  5
41A
330
371
100
AcDbEntity
  8
Make2D$可见线$普通线
100
AcDbVertex
100
AcDb2dVertex
 10
30.64385258796661
 20
684.0398281704984
 30
0.0
  0
VERTEX
  5
41B
330
371
100
AcDbEntity
  8
Make2D$可见线$普通线
100
AcDbVertex
100
AcDb2dVertex
 10
29.76262765168922
 20
684.4297254940782
 30
0.0
  0
VERTEX
  5
41C
330
371
100
AcDbEntity
  8
Make2D$可见线$普通线
100
AcDbVertex
100
AcDb2dVertex
 10
28.87591941820744
 20
684.8070322796882
 30
0.0
  0
VERTEX
  5
41D
330
371
100
AcDbEntity
  8
Make2D$可见线$普通线
100
AcDbVertex
100
AcDb2dVertex
 10
27.98403426319695
 20
685.1719501965607
 30
0.0
  0
VERTEX
  5
41E
330
371
100
AcDbEntity
  8
Make2D$可见线$普通线
100
AcDbVertex
100
AcDb2dVertex
 10
27.10271284446695
 20
685.5185495624381
 30
0.0
  0
VERTEX
  5
41F
330
371
100
AcDbEntity
  8
Make2D$可见线$普通线
100
AcDbVertex
100
AcDb2dVertex
 10
26.2165947885804
 20
685.852652051778
 30
0.0
  0
VERTEX
  5
420
330
371
100
AcDbEntity
  8
Make2D$可见线$普通线
100
AcDbVertex
100
AcDb2dVertex
 10
24.77368530997695
 20
686.3680524735817
 30
0.0
  0
VERTEX
  5
421
330
371
100
AcDbEntity
  8
Make2D$可见线$普通线
100
AcDbVertex
100
AcDb2dVertex
 10
23.51766553673751
 20
686.7876121591065
 30
0.0
  0
VERTEX
  5
422
330
371
100
AcDbEntity
  8
Make2D$可见线$普通线
100
AcDbVertex
100
AcDb2dVertex
 10
22.50468606483131
 20
687.1053686178277
 30
0.0
  0
VERTEX
  5
423
330
371
100
AcDbEntity
  8
Make2D$可见线$普通线
100
AcDbVertex
100
AcDb2dVertex
 10
21.53672488805717
 20
687.395019673605
 30
0.0
  0
VERTEX
  5
424
330
371
100
AcDbEntity
  8
Make2D$可见线$普通线
100
AcDbVertex
100
AcDb2dVertex
 10
20.56530550663634
 20
687.6728758890049
 30
0.0
  0
VERTEX
  5
425
330
371
100
AcDbEntity
  8
Make2D$可见线$普通线
100
AcDbVertex
100
AcDb2dVertex
 10
19.51118262493281
 20
687.9613124974642
 30
0.0
  0
VERTEX
  5
426
330
371
100
AcDbEntity
  8
Make2D$可见线$普通线
100
AcDbVertex
100
AcDb2dVertex
 10
18.45380777336115
 20
688.2375908798303
 30
0.0
  0
VERTEX
  5
427
330
371
100
AcDbEntity
  8
Make2D$可见线$普通线
100
AcDbVertex
100
AcDb2dVertex
 10
17.39338518093201
 20
688.5019536291052
 30
0.0
  0
VERTEX
  5
428
330
371
100
AcDbEntity
  8
Make2D$可见线$普通线
100
AcDbVertex
100
AcDb2dVertex
 10
16.33011907665605
 20
688.7546433382904
 30
0.0
  0
VERTEX
  5
429
330
371
100
AcDbEntity
  8
Make2D$可见线$普通线
100
AcDbVertex
100
AcDb2dVertex
 10
15.23584293878508
 20
689.0021541278408
 30
0.0
  0
VERTEX
  5
42A
330
371
100
AcDbEntity
  8
Make2D$可见线$普通线
100
AcDbVertex
100
AcDb2dVertex
 10
14.13895916074252
 20
689.237840653495
 30
0.0
  0
VERTEX
  5
42B
330
371
100
AcDbEntity
  8
Make2D$可见线$普通线
100
AcDbVertex
100
AcDb2dVertex
 10
13.03964153888292
 20
689.4619247506246
 30
0.0
  0
VERTEX
  5
42C
330
371
100
AcDbEntity
  8
Make2D$可见线$普通线
100
AcDbVertex
100
AcDb2dVertex
 10
11.93806386956086
 20
689.6746282546012
 30
0.0
  0
VERTEX
  5
42D
330
371
100
AcDbEntity
  8
Make2D$可见线$普通线
100
AcDbVertex
100
AcDb2dVertex
 10
10.83310606408611
 20
689.876399122888
 30
0.0
  0
VERTEX
  5
42E
330
371
100
AcDbEntity
  8
Make2D$可见线$普通线
100
AcDbVertex
100
AcDb2dVertex
 10
9.72619986192733
 20
690.0671924624598
 30
0.0
  0
VERTEX
  5
42F
330
371
100
AcDbEntity
  8
Make2D$可见线$普通线
100
AcDbVertex
100
AcDb2dVertex
 10
8.617487987686166
 20
690.247215551565
 30
0.0
  0
VERTEX
  5
430
330
371
100
AcDbEntity
  8
Make2D$可见线$普通线
100
AcDbVertex
100
AcDb2dVertex
 10
7.507113165964249
 20
690.4166756684514
 30
0.0
 42
-0.0104032889747895
  0
VERTEX
  5
431
330
371
100
AcDbEntity
  8
Make2D$可见线$普通线
100
AcDbVertex
100
AcDb2dVertex
 10
7.235097485348891
 20
690.4626859569498
 30
0.0
 42
-0.0103752921896819
  0
VERTEX
  5
432
330
371
100
AcDbEntity
  8
Make2D$可见线$普通线
100
AcDbVertex
100
AcDb2dVertex
 10
6.965227763276252
 20
690.5199571308395
 30
0.0
 42
-0.1053397942275342
  0
VERTEX
  5
433
330
371
100
AcDbEntity
  8
Make2D$可见线$普通线
100
AcDbVertex
100
AcDb2dVertex
 10
4.477468859522488
 20
691.693134196859
 30
0.0
 42
-0.015262965095971
  0
VERTEX
  5
434
330
371
100
AcDbEntity
  8
Make2D$可见线$普通线
100
AcDbVertex
100
AcDb2dVertex
 10
4.047681576459555
 20
692.0437662383312
 30
0.0
 42
-0.0039588233273912
  0
VERTEX
  5
435
330
371
100
AcDbEntity
  8
Make2D$可见线$普通线
100
AcDbVertex
100
AcDb2dVertex
 10
3.632126506905561
 20
692.408759779276
 30
0.0
  0
VERTEX
  5
436
330
371
100
AcDbEntity
  8
Make2D$可见线$普通线
100
AcDbVertex
100
AcDb2dVertex
 10
3.220824729159888
 20
692.7829542991203
 30
0.0
  0
VERTEX
  5
437
330
371
100
AcDbEntity
  8
Make2D$可见线$普通线
100
AcDbVertex
100
AcDb2dVertex
 10
2.817175999710905
 20
693.1653917374975
 30
0.0
  0
VERTEX
  5
438
330
371
100
AcDbEntity
  8
Make2D$可见线$普通线
100
AcDbVertex
100
AcDb2dVertex
 10
2.418193026236404
 20
693.5583466992748
 30
0.0
  0
VERTEX
  5
439
330
371
100
AcDbEntity
  8
Make2D$可见线$普通线
100
AcDbVertex
100
AcDb2dVertex
 10
2.026955168855743
 20
693.9590135859277
 30
0.0
  0
VERTEX
  5
43A
330
371
100
AcDbEntity
  8
Make2D$可见线$普通线
100
AcDbVertex
100
AcDb2dVertex
 10
1.638701650536208
 20
694.372622346709
 30
0.0
  0
VERTEX
  5
43B
330
371
100
AcDbEntity
  8
Make2D$可见线$普通线
100
AcDbVertex
100
AcDb2dVertex
 10
1.259283782081511
 20
694.7943046371793
 30
0.0
  0
VERTEX
  5
43C
330
371
100
AcDbEntity
  8
Make2D$可见线$普通线
100
AcDbVertex
100
AcDb2dVertex
 10
0.8899426226807292
 20
695.2248182050442
 30
0.0
  0
VERTEX
  5
43D
330
371
100
AcDbEntity
  8
Make2D$可见线$普通线
100
AcDbVertex
100
AcDb2dVertex
 10
0.5319192315229415
 20
695.66492079801
 30
0.0
  0
VERTEX
  5
43E
330
371
100
AcDbEntity
  8
Make2D$可见线$普通线
100
AcDbVertex
100
AcDb2dVertex
 10
0.1762313838461675
 20
696.1274120846024
 30
0.0
  0
VERTEX
  5
43F
330
371
100
AcDbEntity
  8
Make2D$可见线$普通线
100
AcDbVertex
100
AcDb2dVertex
 10
-0.1667908197220729
 20
696.5994677626086
 30
0.0
  0
VERTEX
  5
440
330
371
100
AcDbEntity
  8
Make2D$可见线$普通线
100
AcDbVertex
100
AcDb2dVertex
 10
-0.496662473306712
 20
697.0808329050765
 30
0.0
  0
VERTEX
  5
441
330
371
100
AcDbEntity
  8
Make2D$可见线$普通线
100
AcDbVertex
100
AcDb2dVertex
 10
-0.8128986710326824
 20
697.571252585054
 30
0.0
  0
VERTEX
  5
442
330
371
100
AcDbEntity
  8
Make2D$可见线$普通线
100
AcDbVertex
100
AcDb2dVertex
 10
-1.115014507024917
 20
698.070471875589
 30
0.0
  0
VERTEX
  5
443
330
371
100
AcDbEntity
  8
Make2D$可见线$普通线
100
AcDbVertex
100
AcDb2dVertex
 10
-1.402525075408347
 20
698.5782358497289
 30
0.0
  0
VERTEX
  5
444
330
371
100
AcDbEntity
  8
Make2D$可见线$普通线
100
AcDbVertex
100
AcDb2dVertex
 10
-1.674945470307907
 20
699.0942895805221
 30
0.0
  0
VERTEX
  5
445
330
371
100
AcDbEntity
  8
Make2D$可见线$普通线
100
AcDbVertex
100
AcDb2dVertex
 10
-1.931790785848527
 20
699.618378141016
 30
0.0
  0
VERTEX
  5
446
330
371
100
AcDbEntity
  8
Make2D$可见线$普通线
100
AcDbVertex
100
AcDb2dVertex
 10
-2.179600954969289
 20
700.1649763800845
 30
0.0
  0
VERTEX
  5
447
330
371
100
AcDbEntity
  8
Make2D$可见线$普通线
100
AcDbVertex
100
AcDb2dVertex
 10
-2.41053287967709
 20
700.7192266756424
 30
0.0
  0
VERTEX
  5
448
330
371
100
AcDbEntity
  8
Make2D$可见线$普通线
100
AcDbVertex
100
AcDb2dVertex
 10
-2.624244283179833
 20
701.2803419757264
 30
0.0
  0
VERTEX
  5
449
330
371
100
AcDbEntity
  8
Make2D$可见线$普通线
100
AcDbVertex
100
AcDb2dVertex
 10
-2.820442100766776
 20
701.8475156098513
 30
0.0
  0
VERTEX
  5
44A
330
371
100
AcDbEntity
  8
Make2D$可见线$普通线
100
AcDbVertex
100
AcDb2dVertex
 10
-3.001372111218457
 20
702.4306924756552
 30
0.0
  0
VERTEX
  5
44B
330
371
100
AcDbEntity
  8
Make2D$可见线$普通线
100
AcDbVertex
100
AcDb2dVertex
 10
-3.163676701027275
 20
703.0196478586622
 30
0.0
  0
VERTEX
  5
44C
330
371
100
AcDbEntity
  8
Make2D$可见线$普通线
100
AcDbVertex
100
AcDb2dVertex
 10
-3.307093355754618
 20
703.6134852827042
 30
0.0
  0
VERTEX
  5
44D
330
371
100
AcDbEntity
  8
Make2D$可见线$普通线
100
AcDbVertex
100
AcDb2dVertex
 10
-3.431417300668691
 20
704.2112933473969
 30
0.0
  0
VERTEX
  5
44E
330
371
100
AcDbEntity
  8
Make2D$可见线$普通线
100
AcDbVertex
100
AcDb2dVertex
 10
-3.53814037504045
 20
704.821273654652
 30
0.0
  0
VERTEX
  5
44F
330
371
100
AcDbEntity
  8
Make2D$可见线$普通线
100
AcDbVertex
100
AcDb2dVertex
 10
-3.625187046974013
 20
705.4346965749481
 30
0.0
  0
VERTEX
  5
450
330
371
100
AcDbEntity
  8
Make2D$可见线$普通线
100
AcDbVertex
100
AcDb2dVertex
 10
-3.692406136575013
 20
706.0506076044261
 30
0.0
  0
VERTEX
  5
451
330
371
100
AcDbEntity
  8
Make2D$可见线$普通线
100
AcDbVertex
100
AcDb2dVertex
 10
-3.739708293930228
 20
706.6680444803507
 30
0.0
  0
VERTEX
  5
452
330
371
100
AcDbEntity
  8
Make2D$可见线$普通线
100
AcDbVertex
100
AcDb2dVertex
 10
-3.767112038977601
 20
707.293376545579
 30
0.0
  0
VERTEX
  5
453
330
371
100
AcDbEntity
  8
Make2D$可见线$普通线
100
AcDbVertex
100
AcDb2dVertex
 10
-3.774407507536044
 20
707.9195898099543
 30
0.0
  0
VERTEX
  5
454
330
371
100
AcDbEntity
  8
Make2D$可见线$普通线
100
AcDbVertex
100
AcDb2dVertex
 10
-3.761567796839055
 20
708.5457139335674
 30
0.0
  0
VERTEX
  5
455
330
371
100
AcDbEntity
  8
Make2D$可见线$普通线
100
AcDbVertex
100
AcDb2dVertex
 10
-3.728628400043725
 20
709.1707788527434
 30
0.0
  0
VERTEX
  5
456
330
371
100
AcDbEntity
  8
Make2D$可见线$普通线
100
AcDbVertex
100
AcDb2dVertex
 10
-3.675441658945392
 20
709.7969718225407
 30
0.0
  0
VERTEX
  5
457
330
371
100
AcDbEntity
  8
Make2D$可见线$普通线
100
AcDbVertex
100
AcDb2dVertex
 10
-3.60209867070393
 20
710.421452787972
 30
0.0
  0
VERTEX
  5
458
330
371
100
AcDbEntity
  8
Make2D$可见线$普通线
100
AcDbVertex
100
AcDb2dVertex
 10
-3.50869773324158
 20
711.0432501303524
 30
0.0
  0
VERTEX
  5
459
330
371
100
AcDbEntity
  8
Make2D$可见线$普通线
100
AcDbVertex
100
AcDb2dVertex
 10
-3.395399426260532
 20
711.6614005638936
 30
0.0
  0
VERTEX
  5
45A
330
371
100
AcDbEntity
  8
Make2D$可见线$普通线
100
AcDbVertex
100
AcDb2dVertex
 10
-3.261310946733028
 20
712.2805127368844
 30
0.0
  0
VERTEX
  5
45B
330
371
100
AcDbEntity
  8
Make2D$可见线$普通线
100
AcDbVertex
100
AcDb2dVertex
 10
-3.107151068913069
 20
712.8952778086607
 30
0.0
  0
VERTEX
  5
45C
330
371
100
AcDbEntity
  8
Make2D$可见线$普通线
100
AcDbVertex
100
AcDb2dVertex
 10
-2.933146952129386
 20
713.5047233999546
 30
0.0
  0
VERTEX
  5
45D
330
371
100
AcDbEntity
  8
Make2D$可见线$普通线
100
AcDbVertex
100
AcDb2dVertex
 10
-2.739588260897342
 20
714.1078938867455
 30
0.0
  0
VERTEX
  5
45E
330
371
100
AcDbEntity
  8
Make2D$可见线$普通线
100
AcDbVertex
100
AcDb2dVertex
 10
-2.528226861228464
 20
714.6997911473578
 30
0.0
  0
VERTEX
  5
45F
330
371
100
AcDbEntity
  8
Make2D$可见线$普通线
100
AcDbVertex
100
AcDb2dVertex
 10
-2.2977092737836
 20
715.284847898763
 30
0.0
  0
VERTEX
  5
460
330
371
100
AcDbEntity
  8
Make2D$可见线$普通线
100
AcDbVertex
100
AcDb2dVertex
 10
-2.048382536070462
 20
715.8621397992328
 30
0.0
  0
VERTEX
  5
461
330
371
100
AcDbEntity
  8
Make2D$可见线$普通线
100
AcDbVertex
100
AcDb2dVertex
 10
-1.780652727627462
 20
716.4307668809489
 30
0.0
  0
VERTEX
  5
462
330
371
100
AcDbEntity
  8
Make2D$可见线$普通线
100
AcDbVertex
100
AcDb2dVertex
 10
-1.493230526045857
 20
716.9928858088111
 30
0.0
  0
VERTEX
  5
463
330
371
100
AcDbEntity
  8
Make2D$可见线$普通线
100
AcDbVertex
100
AcDb2dVertex
 10
-1.187028805555475
 20
717.5454024080523
 30
0.0
  0
VERTEX
  5
464
330
371
100
AcDbEntity
  8
Make2D$可见线$普通线
100
AcDbVertex
100
AcDb2dVertex
 10
-0.8625443460370459
 20
718.087383885226
 30
0.0
  0
VERTEX
  5
465
330
371
100
AcDbEntity
  8
Make2D$可见线$普通线
100
AcDbVertex
100
AcDb2dVertex
 10
-0.5203350765410519
 20
718.6179326830703
 30
0.0
  0
VERTEX
  5
466
330
371
100
AcDbEntity
  8
Make2D$可见线$普通线
100
AcDbVertex
100
AcDb2dVertex
 10
-0.164107058797606
 20
719.1299673028699
 30
0.0
  0
VERTEX
  5
467
330
371
100
AcDbEntity
  8
Make2D$可见线$普通线
100
AcDbVertex
100
AcDb2dVertex
 10
0.2091127560650447
 20
719.6301805458099
 30
0.0
  0
VERTEX
  5
468
330
371
100
AcDbEntity
  8
Make2D$可见线$普通线
100
AcDbVertex
100
AcDb2dVertex
 10
0.598722063793922
 20
720.1177365999717
 30
0.0
  0
VERTEX
  5
469
330
371
100
AcDbEntity
  8
Make2D$可见线$普通线
100
AcDbVertex
100
AcDb2dVertex
 10
1.004064473652086
 20
720.5918414230529
 30
0.0
 42
-0.0099908093980829
  0
VERTEX
  5
46A
330
371
100
AcDbEntity
  8
Make2D$可见线$普通线
100
AcDbVertex
100
AcDb2dVertex
 10
1.827593421794127
 20
721.4904385666824
 30
0.0
  0
VERTEX
  5
46B
330
371
100
AcDbEntity
  8
Make2D$可见线$普通线
100
AcDbVertex
100
AcDb2dVertex
 10
2.66462893212482
 20
722.3370657602449
 30
0.0
  0
VERTEX
  5
46C
330
371
100
AcDbEntity
  8
Make2D$可见线$普通线
100
AcDbVertex
100
AcDb2dVertex
 10
2.665878769555166
 20
722.3382455836485
 30
0.0
 42
-0.1586206864392461
  0
VERTEX
  5
46D
330
371
100
AcDbEntity
  8
Make2D$可见线$普通线
100
AcDbVertex
100
AcDb2dVertex
 10
5.390879517430479
 20
723.725698811326
 30
0.0
  0
VERTEX
  5
46E
330
371
100
AcDbEntity
  8
Make2D$可见线$普通线
100
AcDbVertex
100
AcDb2dVertex
 10
8.578281189277995
 20
724.2241412655068
 30
0.0
  0
VERTEX
  5
46F
330
371
100
AcDbEntity
  8
Make2D$可见线$普通线
100
AcDbVertex
100
AcDb2dVertex
 10
11.78453584464525
 20
724.725896493983
 30
0.0
  0
VERTEX
  5
470
330
371
100
AcDbEntity
  8
Make2D$可见线$普通线
100
AcDbVertex
100
AcDb2dVertex
 10
18.18820628190701
 20
725.6534444988303
 30
0.0
  0
VERTEX
  5
471
330
371
100
AcDbEntity
  8
Make2D$可见线$普通线
100
AcDbVertex
100
AcDb2dVertex
 10
25.38517481137451
 20
726.7374796464256
 30
0.0
 42
0.0267650095532892
  0
VERTEX
  5
472
330
371
100
AcDbEntity
  8
Make2D$可见线$普通线
100
AcDbVertex
100
AcDb2dVertex
 10
30.88524668682727
 20
727.8641634406475
 30
0.0
  0
VERTEX
  5
473
330
371
100
AcDbEntity
  8
Make2D$可见线$普通线
100
AcDbVertex
100
AcDb2dVertex
 10
32.48349241305223
 20
728.3116243931419
 30
0.0
  0
VERTEX
  5
474
330
371
100
AcDbEntity
  8
Make2D$可见线$普通线
100
AcDbVertex
100
AcDb2dVertex
 10
34.11778927509188
 20
728.8237599772228
 30
0.0
 42
0.0416509233942218
  0
VERTEX
  5
475
330
371
100
AcDbEntity
  8
Make2D$可见线$普通线
100
AcDbVertex
100
AcDb2dVertex
 10
40.19312031929322
 20
731.3952779690413
 30
0.0
 42
-0.0292273243594301
  0
VERTEX
  5
476
330
371
100
AcDbEntity
  8
Make2D$可见线$普通线
100
AcDbVertex
100
AcDb2dVertex
 10
40.59016579991668
 20
731.5940444438023
 30
0.0
 42
-0.0306557763568608
  0
VERTEX
  5
477
330
371
100
AcDbEntity
  8
Make2D$可见线$普通线
100
AcDbVertex
100
AcDb2dVertex
 10
56.61738158588797
 20
732.6870055473177
 30
0.0
 42
-0.4169544474879937
  0
VERTEX
  5
478
330
371
100
AcDbEntity
  8
Make2D$可见线$普通线
100
AcDbVertex
100
AcDb2dVertex
 10
57.62671757389391
 20
731.687035040154
 30
0.0
  0
VERTEX
  5
479
330
371
100
AcDbEntity
  8
Make2D$可见线$普通线
100
AcDbVertex
100
AcDb2dVertex
 10
57.62671757389424
 20
675.690802766453
 30
0.0
 42
-0.4142343601325942
  0
VERTEX
  5
47A
330
371
100
AcDbEntity
  8
Make2D$可见线$普通线
100
AcDbVertex
100
AcDb2dVertex
 10
56.62664487818216
 20
674.6907959668438
 30
0.0
  0
VERTEX
  5
47B
330
371
100
AcDbEntity
  8
Make2D$可见线$普通线
100
AcDbVertex
100
AcDb2dVertex
 10
46.59307902312386
 20
674.6914557401948
 30
0.0
  0
SEQEND
  5
47C
330
371
100
AcDbEntity
  8
Make2D$可见线$普通线
  0
POLYLINE
  5
47D
330
1F
100
AcDbEntity
  8
Make2D$可见线$普通线
100
AcDb2dPolyline
 66
     1
 10
0.0
 20
0.0
 30
0.0
  0
VERTEX
  5
47E
330
47D
100
AcDbEntity
  8
Make2D$可见线$普通线
100
AcDbVertex
100
AcDb2dVertex
 10
-36.20462598687638
 20
941.6706693676424
 30
0.0
  0
VERTEX
  5
47F
330
47D
100
AcDbEntity
  8
Make2D$可见线$普通线
100
AcDbVertex
100
AcDb2dVertex
 10
-36.12441760590247
 20
941.4983550068978
 30
0.0
 42
-0.0565473160513668
  0
VERTEX
  5
480
330
47D
100
AcDbEntity
  8
Make2D$可见线$普通线
100
AcDbVertex
100
AcDb2dVertex
 10
-35.88833926960269
 20
940.7768974180626
 30
0.0
  0
VERTEX
  5
481
330
47D
100
AcDbEntity
  8
Make2D$可见线$普通线
100
AcDbVertex
100
AcDb2dVertex
 10
-33.35942583014965
 20
935.8136253343425
 30
0.0
  0
VERTEX
  5
482
330
47D
100
AcDbEntity
  8
Make2D$可见线$普通线
100
AcDbVertex
100
AcDb2dVertex
 10
-33.09012292248106
 20
935.415240849491
 30
0.0
  0
VERTEX
  5
483
330
47D
100
AcDbEntity
  8
Make2D$可见线$普通线
100
AcDbVertex
100
AcDb2dVertex
 10
-32.92483183864532
 20
934.9606866009965
 30
0.0
  0
VERTEX
  5
484
330
47D
100
AcDbEntity
  8
Make2D$可见线$普通线
100
AcDbVertex
100
AcDb2dVertex
 10
-33.35942583014999
 20
935.8136253343423
 30
0.0
 42
0.0333850686847322
  0
VERTEX
  5
485
330
47D
100
AcDbEntity
  8
Make2D$可见线$普通线
100
AcDbVertex
100
AcDb2dVertex
 10
-34.01295878440693
 20
937.3705624537279
 30
0.0
  0
SEQEND
  5
486
330
47D
100
AcDbEntity
  8
Make2D$可见线$普通线
  0
POLYLINE
  5
487
330
1F
100
AcDbEntity
  8
Make2D$可见线$普通线
100
AcDb2dPolyline
 66
     1
 10
0.0
 20
0.0
 30
0.0
  0
VERTEX
  5
488
330
487
100
AcDbEntity
  8
Make2D$可见线$普通线
100
AcDbVertex
100
AcDb2dVertex
 10
1.591568969841752
 20
731.4196534454533
 30
0.0
  0
VERTEX
  5
489
330
487
100
AcDbEntity
  8
Make2D$可见线$普通线
100
AcDbVertex
100
AcDb2dVertex
 10
24.40846803679459
 20
731.4196534454533
 30
0.0
  0
VERTEX
  5
48A
330
487
100
AcDbEntity
  8
Make2D$可见线$普通线
100
AcDbVertex
100
AcDb2dVertex
 10
24.48560232590858
 20
731.4041806831253
 30
0.0
 42
-0.3264583438976666
  0
VERTEX
  5
48B
330
487
100
AcDbEntity
  8
Make2D$可见线$普通线
100
AcDbVertex
100
AcDb2dVertex
 10
24.60770615965541
 20
731.2022086807707
 30
0.0
  0
VERTEX
  5
48C
330
487
100
AcDbEntity
  8
Make2D$可见线$普通线
100
AcDbVertex
100
AcDb2dVertex
 10
24.23284382862385
 20
726.9208868483425
 30
0.0
  0
SEQEND
  5
48D
330
487
100
AcDbEntity
  8
Make2D$可见线$普通线
  0
POLYLINE
  5
48E
330
1F
100
AcDbEntity
  8
Make2D$可见线$普通线
100
AcDb2dPolyline
 66
     1
 10
0.0
 20
0.0
 30
0.0
  0
VERTEX
  5
48F
330
48E
100
AcDbEntity
  8
Make2D$可见线$普通线
100
AcDbVertex
100
AcDb2dVertex
 10
-14.28025569433888
 20
898.6421570450094
 30
0.0
 42
-0.0575781815508483
  0
VERTEX
  5
490
330
48E
100
AcDbEntity
  8
Make2D$可见线$普通线
100
AcDbVertex
100
AcDb2dVertex
 10
-13.98122797363544
 20
897.7817706438657
 30
0.0
  0
VERTEX
  5
491
330
48E
100
AcDbEntity
  8
Make2D$可见线$普通线
100
AcDbVertex
100
AcDb2dVertex
 10
-9.390063171139715
 20
888.7711023700942
 30
0.0
  0
VERTEX
  5
492
330
48E
100
AcDbEntity
  8
Make2D$可见线$普通线
100
AcDbVertex
100
AcDb2dVertex
 10
-9.297749515212672
 20
888.6377337384918
 30
0.0
  0
VERTEX
  5
493
330
48E
100
AcDbEntity
  8
Make2D$可见线$普通线
100
AcDbVertex
100
AcDb2dVertex
 10
-9.227769253612156
 20
888.5343595220168
 30
0.0
  0
VERTEX
  5
494
330
48E
100
AcDbEntity
  8
Make2D$可见线$普通线
100
AcDbVertex
100
AcDb2dVertex
 10
-9.207017987804207
 20
888.5033080711137
 30
0.0
  0
SEQEND
  5
495
330
48E
100
AcDbEntity
  8
Make2D$可见线$普通线
  0
POLYLINE
  5
496
330
1F
100
AcDbEntity
  8
Make2D$可见线$普通线
100
AcDb2dPolyline
 66
     1
 10
0.0
 20
0.0
 30
0.0
  0
VERTEX
  5
497
330
496
100
AcDbEntity
  8
Make2D$可见线$普通线
100
AcDbVertex
100
AcDb2dVertex
 10
-27.16296300529794
 20
923.9255147934323
 30
0.0
  0
VERTEX
  5
498
330
496
100
AcDbEntity
  8
Make2D$可见线$普通线
100
AcDbVertex
100
AcDb2dVertex
 10
-27.08156957123352
 20
923.7507664545935
 30
0.0
 42
-0.0565473160514739
  0
VERTEX
  5
499
330
496
100
AcDbEntity
  8
Make2D$可见线$普通线
100
AcDbVertex
100
AcDb2dVertex
 10
-26.84549123493371
 20
923.0293088657583
 30
0.0
  0
VERTEX
  5
49A
330
496
100
AcDbEntity
  8
Make2D$可见线$普通线
100
AcDbVertex
100
AcDb2dVertex
 10
-25.64875095769969
 20
920.6805738253277
 30
0.0
 42
-0.0444902981555757
  0
VERTEX
  5
49B
330
496
100
AcDbEntity
  8
Make2D$可见线$普通线
100
AcDbVertex
100
AcDb2dVertex
 10
-24.99132228237114
 20
919.6644657507537
 30
0.0
  0
SEQEND
  5
49C
330
496
100
AcDbEntity
  8
Make2D$可见线$普通线
  0
LINE
  5
49D
330
1F
100
AcDbEntity
  8
Make2D$可见线$普通线
100
AcDbLine
 10
21.93765126035501
 20
868.5648420976681
 30
0.0
 11
4.06232541788799
 21
850.9801411409653
 31
0.0
  0
POLYLINE
  5
49E
330
1F
100
AcDbEntity
  8
Make2D$可见线$普通线
100
AcDb2dPolyline
 66
     1
 10
0.0
 20
0.0
 30
0.0
  0
VERTEX
  5
49F
330
49E
100
AcDbEntity
  8
Make2D$可见线$普通线
100
AcDbVertex
100
AcDb2dVertex
 10
-21.13439358554236
 20
912.0937807517919
 30
0.0
  0
VERTEX
  5
4A0
330
49E
100
AcDbEntity
  8
Make2D$可见线$普通线
100
AcDbVertex
100
AcDb2dVertex
 10
-21.053004214788
 20
911.9190407530568
 30
0.0
 42
-0.0565473168044532
  0
VERTEX
  5
4A1
330
49E
100
AcDbEntity
  8
Make2D$可见线$普通线
100
AcDbVertex
100
AcDb2dVertex
 10
-20.8169258784883
 20
911.1975831642218
 30
0.0
  0
VERTEX
  5
4A2
330
49E
100
AcDbEntity
  8
Make2D$可见线$普通线
100
AcDbVertex
100
AcDb2dVertex
 10
-19.41179024218252
 20
908.4398492027835
 30
0.0
 42
-0.0518952564158914
  0
VERTEX
  5
4A3
330
49E
100
AcDbEntity
  8
Make2D$可见线$普通线
100
AcDbVertex
100
AcDb2dVertex
 10
-18.83346030998644
 20
907.5789645946436
 30
0.0
  0
SEQEND
  5
4A4
330
49E
100
AcDbEntity
  8
Make2D$可见线$普通线
  0
POLYLINE
  5
4A5
330
1F
100
AcDbEntity
  8
Make2D$可见线$普通线
100
AcDb2dPolyline
 66
     1
 10
0.0
 20
0.0
 30
0.0
  0
VERTEX
  5
4A6
330
4A5
100
AcDbEntity
  8
Make2D$可见线$普通线
100
AcDbVertex
100
AcDb2dVertex
 10
-15.10583162872751
 20
900.2620620280152
 30
0.0
  0
VERTEX
  5
4A7
330
4A5
100
AcDbEntity
  8
Make2D$可见线$普通线
100
AcDbVertex
100
AcDb2dVertex
 10
-15.02443885834266
 20
900.0873150515207
 30
0.0
 42
-0.0565473168041012
  0
VERTEX
  5
4A8
330
4A5
100
AcDbEntity
  8
Make2D$可见线$普通线
100
AcDbVertex
100
AcDb2dVertex
 10
-14.78836052204279
 20
899.3658574626851
 30
0.0
  0
VERTEX
  5
4A9
330
4A5
100
AcDbEntity
  8
Make2D$可见线$普通线
100
AcDbVertex
100
AcDb2dVertex
 10
-13.98122797363536
 20
897.7817706438656
 30
0.0
 42
-0.0585517785202793
  0
VERTEX
  5
4AA
330
4A5
100
AcDbEntity
  8
Make2D$可见线$普通线
100
AcDbVertex
100
AcDb2dVertex
 10
-13.45775266159138
 20
897.0285339838534
 30
0.0
  0
SEQEND
  5
4AB
330
4A5
100
AcDbEntity
  8
Make2D$可见线$普通线
  0
POLYLINE
  5
4AC
330
1F
100
AcDbEntity
  8
Make2D$可见线$普通线
100
AcDb2dPolyline
 66
     1
 10
0.0
 20
0.0
 30
0.0
  0
VERTEX
  5
4AD
330
4AC
100
AcDbEntity
  8
Make2D$可见线$普通线
100
AcDbVertex
100
AcDb2dVertex
 10
-9.775246724552922
 20
889.8024038166316
 30
0.0
 42
-0.0293861265163608
  0
VERTEX
  5
4AE
330
4AC
100
AcDbEntity
  8
Make2D$可见线$普通线
100
AcDbVertex
100
AcDb2dVertex
 10
-9.207017987804218
 20
888.5033080711137
 30
0.0
  0
VERTEX
  5
4AF
330
4AC
100
AcDbEntity
  8
Make2D$可见线$普通线
100
AcDbVertex
100
AcDb2dVertex
 10
-9.172078425374508
 20
888.3432832180199
 30
0.0
  0
VERTEX
  5
4B0
330
4AC
100
AcDbEntity
  8
Make2D$可见线$普通线
100
AcDbVertex
100
AcDb2dVertex
 10
-6.766991447952847
 20
883.6230342495364
 30
0.0
  0
VERTEX
  5
4B1
330
4AC
100
AcDbEntity
  8
Make2D$可见线$普通线
100
AcDbVertex
100
AcDb2dVertex
 10
-6.765114857809404
 20
883.623964031571
 30
0.0
  0
VERTEX
  5
4B2
330
4AC
100
AcDbEntity
  8
Make2D$可见线$普通线
100
AcDbVertex
100
AcDb2dVertex
 10
-6.763233021787617
 20
883.6248436926596
 30
0.0
  0
VERTEX
  5
4B3
330
4AC
100
AcDbEntity
  8
Make2D$可见线$普通线
100
AcDbVertex
100
AcDb2dVertex
 10
-6.761345930057528
 20
883.6256732122364
 30
0.0
  0
VERTEX
  5
4B4
330
4AC
100
AcDbEntity
  8
Make2D$可见线$普通线
100
AcDbVertex
100
AcDb2dVertex
 10
-6.759453572789185
 20
883.6264525697358
 30
0.0
  0
VERTEX
  5
4B5
330
4AC
100
AcDbEntity
  8
Make2D$可见线$普通线
100
AcDbVertex
100
AcDb2dVertex
 10
-6.757555940152628
 20
883.6271817445918
 30
0.0
  0
VERTEX
  5
4B6
330
4AC
100
AcDbEntity
  8
Make2D$可见线$普通线
100
AcDbVertex
100
AcDb2dVertex
 10
-6.755653022317903
 20
883.6278607162385
 30
0.0
  0
VERTEX
  5
4B7
330
4AC
100
AcDbEntity
  8
Make2D$可见线$普通线
100
AcDbVertex
100
AcDb2dVertex
 10
-6.753744809455052
 20
883.6284894641103
 30
0.0
  0
VERTEX
  5
4B8
330
4AC
100
AcDbEntity
  8
Make2D$可见线$普通线
100
AcDbVertex
100
AcDb2dVertex
 10
-6.751831291734121
 20
883.6290679676413
 30
0.0
  0
VERTEX
  5
4B9
330
4AC
100
AcDbEntity
  8
Make2D$可见线$普通线
100
AcDbVertex
100
AcDb2dVertex
 10
-6.749912459325151
 20
883.6295962062655
 30
0.0
  0
VERTEX
  5
4BA
330
4AC
100
AcDbEntity
  8
Make2D$可见线$普通线
100
AcDbVertex
100
AcDb2dVertex
 10
-6.747988302398188
 20
883.6300741594173
 30
0.0
  0
VERTEX
  5
4BB
330
4AC
100
AcDbEntity
  8
Make2D$可见线$普通线
100
AcDbVertex
100
AcDb2dVertex
 10
-6.746058811123274
 20
883.6305018065308
 30
0.0
  0
VERTEX
  5
4BC
330
4AC
100
AcDbEntity
  8
Make2D$可见线$普通线
100
AcDbVertex
100
AcDb2dVertex
 10
-6.744123975670455
 20
883.6308791270403
 30
0.0
  0
VERTEX
  5
4BD
330
4AC
100
AcDbEntity
  8
Make2D$可见线$普通线
100
AcDbVertex
100
AcDb2dVertex
 10
-6.742183786209774
 20
883.6312061003798
 30
0.0
  0
VERTEX
  5
4BE
330
4AC
100
AcDbEntity
  8
Make2D$可见线$普通线
100
AcDbVertex
100
AcDb2dVertex
 10
-6.740238232911272
 20
883.6314827059836
 30
0.0
  0
VERTEX
  5
4BF
330
4AC
100
AcDbEntity
  8
Make2D$可见线$普通线
100
AcDbVertex
100
AcDb2dVertex
 10
-6.738287305944997
 20
883.6317089232857
 30
0.0
  0
VERTEX
  5
4C0
330
4AC
100
AcDbEntity
  8
Make2D$可见线$普通线
100
AcDbVertex
100
AcDb2dVertex
 10
-6.736330995480991
 20
883.6318847317204
 30
0.0
  0
VERTEX
  5
4C1
330
4AC
100
AcDbEntity
  8
Make2D$可见线$普通线
100
AcDbVertex
100
AcDb2dVertex
 10
-6.734369291689296
 20
883.6320101107219
 30
0.0
  0
VERTEX
  5
4C2
330
4AC
100
AcDbEntity
  8
Make2D$可见线$普通线
100
AcDbVertex
100
AcDb2dVertex
 10
-6.732402184739959
 20
883.6320850397244
 30
0.0
  0
VERTEX
  5
4C3
330
4AC
100
AcDbEntity
  8
Make2D$可见线$普通线
100
AcDbVertex
100
AcDb2dVertex
 10
-6.730429664803021
 20
883.6321094981622
 30
0.0
  0
VERTEX
  5
4C4
330
4AC
100
AcDbEntity
  8
Make2D$可见线$普通线
100
AcDbVertex
100
AcDb2dVertex
 10
-6.728451722048527
 20
883.6320834654691
 30
0.0
  0
VERTEX
  5
4C5
330
4AC
100
AcDbEntity
  8
Make2D$可见线$普通线
100
AcDbVertex
100
AcDb2dVertex
 10
-6.726468346646521
 20
883.6320069210797
 30
0.0
  0
VERTEX
  5
4C6
330
4AC
100
AcDbEntity
  8
Make2D$可见线$普通线
100
AcDbVertex
100
AcDb2dVertex
 10
-6.724479528767047
 20
883.6318798444278
 30
0.0
  0
VERTEX
  5
4C7
330
4AC
100
AcDbEntity
  8
Make2D$可见线$普通线
100
AcDbVertex
100
AcDb2dVertex
 10
-6.722485258580147
 20
883.6317022149477
 30
0.0
  0
VERTEX
  5
4C8
330
4AC
100
AcDbEntity
  8
Make2D$可见线$普通线
100
AcDbVertex
100
AcDb2dVertex
 10
-6.720485526255867
 20
883.6314740120738
 30
0.0
  0
VERTEX
  5
4C9
330
4AC
100
AcDbEntity
  8
Make2D$可见线$普通线
100
AcDbVertex
100
AcDb2dVertex
 10
-6.718480321964249
 20
883.63119521524
 30
0.0
  0
VERTEX
  5
4CA
330
4AC
100
AcDbEntity
  8
Make2D$可见线$普通线
100
AcDbVertex
100
AcDb2dVertex
 10
-6.716469635875338
 20
883.6308658038807
 30
0.0
  0
VERTEX
  5
4CB
330
4AC
100
AcDbEntity
  8
Make2D$可见线$普通线
100
AcDbVertex
100
AcDb2dVertex
 10
-6.714453458159177
 20
883.63048575743
 30
0.0
  0
VERTEX
  5
4CC
330
4AC
100
AcDbEntity
  8
Make2D$可见线$普通线
100
AcDbVertex
100
AcDb2dVertex
 10
-6.71243177898581
 20
883.630055055322
 30
0.0
  0
VERTEX
  5
4CD
330
4AC
100
AcDbEntity
  8
Make2D$可见线$普通线
100
AcDbVertex
100
AcDb2dVertex
 10
-6.710404588525281
 20
883.629573676991
 30
0.0
  0
VERTEX
  5
4CE
330
4AC
100
AcDbEntity
  8
Make2D$可见线$普通线
100
AcDbVertex
100
AcDb2dVertex
 10
-6.708371876947633
 20
883.629041601871
 30
0.0
  0
VERTEX
  5
4CF
330
4AC
100
AcDbEntity
  8
Make2D$可见线$普通线
100
AcDbVertex
100
AcDb2dVertex
 10
-6.706333634422911
 20
883.6284588093964
 30
0.0
  0
VERTEX
  5
4D0
330
4AC
100
AcDbEntity
  8
Make2D$可见线$普通线
100
AcDbVertex
100
AcDb2dVertex
 10
-6.704289851121158
 20
883.6278252790012
 30
0.0
  0
VERTEX
  5
4D1
330
4AC
100
AcDbEntity
  8
Make2D$可见线$普通线
100
AcDbVertex
100
AcDb2dVertex
 10
-6.702240517212417
 20
883.6271409901196
 30
0.0
  0
VERTEX
  5
4D2
330
4AC
100
AcDbEntity
  8
Make2D$可见线$普通线
100
AcDbVertex
100
AcDb2dVertex
 10
-6.700185622866734
 20
883.626405922186
 30
0.0
  0
VERTEX
  5
4D3
330
4AC
100
AcDbEntity
  8
Make2D$可见线$普通线
100
AcDbVertex
100
AcDb2dVertex
 10
-6.69812515825415
 20
883.6256200546343
 30
0.0
  0
VERTEX
  5
4D4
330
4AC
100
AcDbEntity
  8
Make2D$可见线$普通线
100
AcDbVertex
100
AcDb2dVertex
 10
-6.696059113544711
 20
883.6247833668988
 30
0.0
  0
VERTEX
  5
4D5
330
4AC
100
AcDbEntity
  8
Make2D$可见线$普通线
100
AcDbVertex
100
AcDb2dVertex
 10
-6.69398747890846
 20
883.6238958384137
 30
0.0
  0
VERTEX
  5
4D6
330
4AC
100
AcDbEntity
  8
Make2D$可见线$普通线
100
AcDbVertex
100
AcDb2dVertex
 10
-6.691910244515441
 20
883.6229574486131
 30
0.0
  0
VERTEX
  5
4D7
330
4AC
100
AcDbEntity
  8
Make2D$可见线$普通线
100
AcDbVertex
100
AcDb2dVertex
 10
-6.689827400535696
 20
883.6219681769312
 30
0.0
  0
VERTEX
  5
4D8
330
4AC
100
AcDbEntity
  8
Make2D$可见线$普通线
100
AcDbVertex
100
AcDb2dVertex
 10
-6.687738937139272
 20
883.6209280028022
 30
0.0
  0
VERTEX
  5
4D9
330
4AC
100
AcDbEntity
  8
Make2D$可见线$普通线
100
AcDbVertex
100
AcDb2dVertex
 10
-6.685644844496211
 20
883.6198369056603
 30
0.0
  0
VERTEX
  5
4DA
330
4AC
100
AcDbEntity
  8
Make2D$可见线$普通线
100
AcDbVertex
100
AcDb2dVertex
 10
-6.683545112776556
 20
883.6186948649398
 30
0.0
  0
VERTEX
  5
4DB
330
4AC
100
AcDbEntity
  8
Make2D$可见线$普通线
100
AcDbVertex
100
AcDb2dVertex
 10
-6.679328692787641
 20
883.6162578704991
 30
0.0
  0
VERTEX
  5
4DC
330
4AC
100
AcDbEntity
  8
Make2D$可见线$普通线
100
AcDbVertex
100
AcDb2dVertex
 10
-6.675089598532878
 20
883.6136168549535
 30
0.0
  0
VERTEX
  5
4DD
330
4AC
100
AcDbEntity
  8
Make2D$可见线$普通线
100
AcDbVertex
100
AcDb2dVertex
 10
-6.670827751372618
 20
883.6107716537767
 30
0.0
  0
VERTEX
  5
4DE
330
4AC
100
AcDbEntity
  8
Make2D$可见线$普通线
100
AcDbVertex
100
AcDb2dVertex
 10
-6.66654307266721
 20
883.607722102442
 30
0.0
  0
VERTEX
  5
4DF
330
4AC
100
AcDbEntity
  8
Make2D$可见线$普通线
100
AcDbVertex
100
AcDb2dVertex
 10
-6.662235483777006
 20
883.6044680364228
 30
0.0
  0
VERTEX
  5
4E0
330
4AC
100
AcDbEntity
  8
Make2D$可见线$普通线
100
AcDbVertex
100
AcDb2dVertex
 10
-6.657904906062354
 20
883.6010092911924
 30
0.0
  0
VERTEX
  5
4E1
330
4AC
100
AcDbEntity
  8
Make2D$可见线$普通线
100
AcDbVertex
100
AcDb2dVertex
 10
-6.653551260883605
 20
883.5973457022245
 30
0.0
  0
VERTEX
  5
4E2
330
4AC
100
AcDbEntity
  8
Make2D$可见线$普通线
100
AcDbVertex
100
AcDb2dVertex
 10
-6.649174469601109
 20
883.5934771049924
 30
0.0
  0
VERTEX
  5
4E3
330
4AC
100
AcDbEntity
  8
Make2D$可见线$普通线
100
AcDbVertex
100
AcDb2dVertex
 10
-6.644774453575216
 20
883.5894033349696
 30
0.0
  0
VERTEX
  5
4E4
330
4AC
100
AcDbEntity
  8
Make2D$可见线$普通线
100
AcDbVertex
100
AcDb2dVertex
 10
-6.640351134166277
 20
883.5851242276293
 30
0.0
  0
VERTEX
  5
4E5
330
4AC
100
AcDbEntity
  8
Make2D$可见线$普通线
100
AcDbVertex
100
AcDb2dVertex
 10
-6.635904432734641
 20
883.5806396184453
 30
0.0
  0
VERTEX
  5
4E6
330
4AC
100
AcDbEntity
  8
Make2D$可见线$普通线
100
AcDbVertex
100
AcDb2dVertex
 10
-6.631454964071773
 20
883.5759725679591
 30
0.0
  0
VERTEX
  5
4E7
330
4AC
100
AcDbEntity
  8
Make2D$可见线$普通线
100
AcDbVertex
100
AcDb2dVertex
 10
-6.626986714194959
 20
883.5711094023046
 30
0.0
  0
VERTEX
  5
4E8
330
4AC
100
AcDbEntity
  8
Make2D$可见线$普通线
100
AcDbVertex
100
AcDb2dVertex
 10
-6.617991907971691
 20
883.5607980963459
 30
0.0
  0
VERTEX
  5
4E9
330
4AC
100
AcDbEntity
  8
Make2D$可见线$普通线
100
AcDbVertex
100
AcDb2dVertex
 10
-6.608916088409249
 20
883.5497124422805
 30
0.0
  0
VERTEX
  5
4EA
330
4AC
100
AcDbEntity
  8
Make2D$可见线$普通线
100
AcDbVertex
100
AcDb2dVertex
 10
-6.599755329852051
 20
883.5378591818193
 30
0.0
  0
VERTEX
  5
4EB
330
4AC
100
AcDbEntity
  8
Make2D$可见线$普通线
100
AcDbVertex
100
AcDb2dVertex
 10
-6.590505706644506
 20
883.5252450566737
 30
0.0
  0
VERTEX
  5
4EC
330
4AC
100
AcDbEntity
  8
Make2D$可见线$普通线
100
AcDbVertex
100
AcDb2dVertex
 10
-6.58116329313103
 20
883.5118768085549
 30
0.0
  0
VERTEX
  5
4ED
330
4AC
100
AcDbEntity
  8
Make2D$可见线$普通线
100
AcDbVertex
100
AcDb2dVertex
 10
-6.571724163656035
 20
883.497761179174
 30
0.0
  0
VERTEX
  5
4EE
330
4AC
100
AcDbEntity
  8
Make2D$可见线$普通线
100
AcDbVertex
100
AcDb2dVertex
 10
-6.562184392563934
 20
883.482904910242
 30
0.0
  0
VERTEX
  5
4EF
330
4AC
100
AcDbEntity
  8
Make2D$可见线$普通线
100
AcDbVertex
100
AcDb2dVertex
 10
-6.547790177417511
 20
883.459438390144
 30
0.0
  0
VERTEX
  5
4F0
330
4AC
100
AcDbEntity
  8
Make2D$可见线$普通线
100
AcDbVertex
100
AcDb2dVertex
 10
-6.533181961917782
 20
883.4344365340322
 30
0.0
  0
VERTEX
  5
4F1
330
4AC
100
AcDbEntity
  8
Make2D$可见线$普通线
100
AcDbVertex
100
AcDb2dVertex
 10
-6.503258424574238
 20
883.3799741233531
 30
0.0
  0
VERTEX
  5
4F2
330
4AC
100
AcDbEntity
  8
Make2D$可见线$普通线
100
AcDbVertex
100
AcDb2dVertex
 10
-6.523064881439474
 20
883.416481912305
 30
0.0
  0
SEQEND
  5
4F3
330
4AC
100
AcDbEntity
  8
Make2D$可见线$普通线
  0
POLYLINE
  5
4F4
330
1F
100
AcDbEntity
  8
Make2D$可见线$普通线
100
AcDb2dPolyline
 66
     1
 10
0.0
 20
0.0
 30
0.0
  0
VERTEX
  5
4F5
330
4F4
100
AcDbEntity
  8
Make2D$可见线$普通线
100
AcDbVertex
100
AcDb2dVertex
 10
-10.06859317261222
 20
890.3770534157659
 30
0.0
 42
-0.0330231541854016
  0
VERTEX
  5
4F6
330
4F4
100
AcDbEntity
  8
Make2D$可见线$普通线
100
AcDbVertex
100
AcDb2dVertex
 10
-9.390063171139778
 20
888.7711023700942
 30
0.0
  0
VERTEX
  5
4F7
330
4F4
100
AcDbEntity
  8
Make2D$可见线$普通线
100
AcDbVertex
100
AcDb2dVertex
 10
-9.172078425374101
 20
888.34328321802
 30
0.0
 42
-0.0380234647760751
  0
VERTEX
  5
4F8
330
4F4
100
AcDbEntity
  8
Make2D$可见线$普通线
100
AcDbVertex
100
AcDb2dVertex
 10
-8.866280393083555
 20
887.9633993188445
 30
0.0
  0
SEQEND
  5
4F9
330
4F4
100
AcDbEntity
  8
Make2D$可见线$普通线
  0
POLYLINE
  5
4FA
330
1F
100
AcDbEntity
  8
Make2D$可见线$普通线
100
AcDb2dPolyline
 66
     1
 10
0.0
 20
0.0
 30
0.0
  0
VERTEX
  5
4FB
330
4FA
100
AcDbEntity
  8
Make2D$可见线$普通线
100
AcDbVertex
100
AcDb2dVertex
 10
-38.81670639278583
 20
946.7983569532669
 30
0.0
 42
0.0664839820346224
  0
VERTEX
  5
4FC
330
4FA
100
AcDbEntity
  8
Make2D$可见线$普通线
100
AcDbVertex
100
AcDb2dVertex
 10
-39.30331549993522
 20
947.4791796279685
 30
0.0
  0
VERTEX
  5
4FD
330
4FA
100
AcDbEntity
  8
Make2D$可见线$普通线
100
AcDbVertex
100
AcDb2dVertex
 10
-36.90981823018002
 20
942.7816627572188
 30
0.0
  0
VERTEX
  5
4FE
330
4FA
100
AcDbEntity
  8
Make2D$可见线$普通线
100
AcDbVertex
100
AcDb2dVertex
 10
-36.90794164003622
 20
942.7825925392535
 30
0.0
  0
VERTEX
  5
4FF
330
4FA
100
AcDbEntity
  8
Make2D$可见线$普通线
100
AcDbVertex
100
AcDb2dVertex
 10
-36.90605980401411
 20
942.7834722003423
 30
0.0
  0
VERTEX
  5
500
330
4FA
100
AcDbEntity
  8
Make2D$可见线$普通线
100
AcDbVertex
100
AcDb2dVertex
 10
-36.90417271228373
 20
942.7843017199193
 30
0.0
  0
VERTEX
  5
501
330
4FA
100
AcDbEntity
  8
Make2D$可见线$普通线
100
AcDbVertex
100
AcDb2dVertex
 10
-36.90228035501513
 20
942.7850810774189
 30
0.0
  0
VERTEX
  5
502
330
4FA
100
AcDbEntity
  8
Make2D$可见线$普通线
100
AcDbVertex
100
AcDb2dVertex
 10
-36.90038272237835
 20
942.785810252275
 30
0.0
  0
VERTEX
  5
503
330
4FA
100
AcDbEntity
  8
Make2D$可见线$普通线
100
AcDbVertex
100
AcDb2dVertex
 10
-36.89847980454343
 20
942.786489223922
 30
0.0
  0
VERTEX
  5
504
330
4FA
100
AcDbEntity
  8
Make2D$可见线$普通线
100
AcDbVertex
100
AcDb2dVertex
 10
-36.89657159168043
 20
942.787117971794
 30
0.0
  0
VERTEX
  5
505
330
4FA
100
AcDbEntity
  8
Make2D$可见线$普通线
100
AcDbVertex
100
AcDb2dVertex
 10
-36.89465807395936
 20
942.7876964753252
 30
0.0
  0
VERTEX
  5
506
330
4FA
100
AcDbEntity
  8
Make2D$可见线$普通线
100
AcDbVertex
100
AcDb2dVertex
 10
-36.8927392415503
 20
942.7882247139498
 30
0.0
  0
VERTEX
  5
507
330
4FA
100
AcDbEntity
  8
Make2D$可见线$普通线
100
AcDbVertex
100
AcDb2dVertex
 10
-36.89081508462326
 20
942.7887026671017
 30
0.0
  0
VERTEX
  5
508
330
4FA
100
AcDbEntity
  8
Make2D$可见线$普通线
100
AcDbVertex
100
AcDb2dVertex
 10
-36.88888559334829
 20
942.7891303142153
 30
0.0
  0
VERTEX
  5
509
330
4FA
100
AcDbEntity
  8
Make2D$可见线$普通线
100
AcDbVertex
100
AcDb2dVertex
 10
-36.88695075789545
 20
942.789507634725
 30
0.0
  0
VERTEX
  5
50A
330
4FA
100
AcDbEntity
  8
Make2D$可见线$普通线
100
AcDbVertex
100
AcDb2dVertex
 10
-36.88501056843477
 20
942.7898346080648
 30
0.0
  0
VERTEX
  5
50B
330
4FA
100
AcDbEntity
  8
Make2D$可见线$普通线
100
AcDbVertex
100
AcDb2dVertex
 10
-36.88306501513629
 20
942.7901112136688
 30
0.0
  0
VERTEX
  5
50C
330
4FA
100
AcDbEntity
  8
Make2D$可见线$普通线
100
AcDbVertex
100
AcDb2dVertex
 10
-36.88111408817005
 20
942.790337430971
 30
0.0
  0
VERTEX
  5
50D
330
4FA
100
AcDbEntity
  8
Make2D$可见线$普通线
100
AcDbVertex
100
AcDb2dVertex
 10
-36.87915777770611
 20
942.790513239406
 30
0.0
  0
VERTEX
  5
50E
330
4FA
100
AcDbEntity
  8
Make2D$可见线$普通线
100
AcDbVertex
100
AcDb2dVertex
 10
-36.87719607391449
 20
942.7906386184077
 30
0.0
  0
VERTEX
  5
50F
330
4FA
100
AcDbEntity
  8
Make2D$可见线$普通线
100
AcDbVertex
100
AcDb2dVertex
 10
-36.87522896696525
 20
942.7907135474104
 30
0.0
  0
VERTEX
  5
510
330
4FA
100
AcDbEntity
  8
Make2D$可见线$普通线
100
AcDbVertex
100
AcDb2dVertex
 10
-36.87325644702842
 20
942.7907380058482
 30
0.0
  0
VERTEX
  5
511
330
4FA
100
AcDbEntity
  8
Make2D$可见线$普通线
100
AcDbVertex
100
AcDb2dVertex
 10
-36.87127850427406
 20
942.7907119731553
 30
0.0
  0
VERTEX
  5
512
330
4FA
100
AcDbEntity
  8
Make2D$可见线$普通线
100
AcDbVertex
100
AcDb2dVertex
 10
-36.8692951288722
 20
942.790635428766
 30
0.0
  0
VERTEX
  5
513
330
4FA
100
AcDbEntity
  8
Make2D$可见线$普通线
100
AcDbVertex
100
AcDb2dVertex
 10
-36.86730631099287
 20
942.7905083521143
 30
0.0
  0
VERTEX
  5
514
330
4FA
100
AcDbEntity
  8
Make2D$可见线$普通线
100
AcDbVertex
100
AcDb2dVertex
 10
-36.86531204080613
 20
942.7903307226345
 30
0.0
  0
VERTEX
  5
515
330
4FA
100
AcDbEntity
  8
Make2D$可见线$普通线
100
AcDbVertex
100
AcDb2dVertex
 10
-36.86331230848203
 20
942.7901025197607
 30
0.0
  0
VERTEX
  5
516
330
4FA
100
AcDbEntity
  8
Make2D$可见线$普通线
100
AcDbVertex
100
AcDb2dVertex
 10
-36.86130710419059
 20
942.789823722927
 30
0.0
  0
VERTEX
  5
517
330
4FA
100
AcDbEntity
  8
Make2D$可见线$普通线
100
AcDbVertex
100
AcDb2dVertex
 10
-36.85929641810187
 20
942.7894943115679
 30
0.0
  0
VERTEX
  5
518
330
4FA
100
AcDbEntity
  8
Make2D$可见线$普通线
100
AcDbVertex
100
AcDb2dVertex
 10
-36.8572802403859
 20
942.7891142651172
 30
0.0
  0
VERTEX
  5
519
330
4FA
100
AcDbEntity
  8
Make2D$可见线$普通线
100
AcDbVertex
100
AcDb2dVertex
 10
-36.85525856121274
 20
942.7886835630094
 30
0.0
  0
VERTEX
  5
51A
330
4FA
100
AcDbEntity
  8
Make2D$可见线$普通线
100
AcDbVertex
100
AcDb2dVertex
 10
-36.85323137075241
 20
942.7882021846784
 30
0.0
  0
VERTEX
  5
51B
330
4FA
100
AcDbEntity
  8
Make2D$可见线$普通线
100
AcDbVertex
100
AcDb2dVertex
 10
-36.85119865917497
 20
942.7876701095586
 30
0.0
  0
VERTEX
  5
51C
330
4FA
100
AcDbEntity
  8
Make2D$可见线$普通线
100
AcDbVertex
100
AcDb2dVertex
 10
-36.84916041665046
 20
942.787087317084
 30
0.0
  0
VERTEX
  5
51D
330
4FA
100
AcDbEntity
  8
Make2D$可见线$普通线
100
AcDbVertex
100
AcDb2dVertex
 10
-36.84711663334892
 20
942.7864537866889
 30
0.0
  0
VERTEX
  5
51E
330
4FA
100
AcDbEntity
  8
Make2D$可见线$普通线
100
AcDbVertex
100
AcDb2dVertex
 10
-36.84506729944039
 20
942.7857694978075
 30
0.0
  0
VERTEX
  5
51F
330
4FA
100
AcDbEntity
  8
Make2D$可见线$普通线
100
AcDbVertex
100
AcDb2dVertex
 10
-36.8430124050949
 20
942.7850344298738
 30
0.0
  0
VERTEX
  5
520
330
4FA
100
AcDbEntity
  8
Make2D$可见线$普通线
100
AcDbVertex
100
AcDb2dVertex
 10
-36.84095194048253
 20
942.7842485623221
 30
0.0
  0
VERTEX
  5
521
330
4FA
100
AcDbEntity
  8
Make2D$可见线$普通线
100
AcDbVertex
100
AcDb2dVertex
 10
-36.83888589577328
 20
942.7834118745866
 30
0.0
  0
VERTEX
  5
522
330
4FA
100
AcDbEntity
  8
Make2D$可见线$普通线
100
AcDbVertex
100
AcDb2dVertex
 10
-36.83681426113722
 20
942.7825243461015
 30
0.0
  0
VERTEX
  5
523
330
4FA
100
AcDbEntity
  8
Make2D$可见线$普通线
100
AcDbVertex
100
AcDb2dVertex
 10
-36.83473702674438
 20
942.7815859563009
 30
0.0
  0
VERTEX
  5
524
330
4FA
100
AcDbEntity
  8
Make2D$可见线$普通线
100
AcDbVertex
100
AcDb2dVertex
 10
-36.83265418276481
 20
942.780596684619
 30
0.0
  0
VERTEX
  5
525
330
4FA
100
AcDbEntity
  8
Make2D$可见线$普通线
100
AcDbVertex
100
AcDb2dVertex
 10
-36.83056571936855
 20
942.7795565104901
 30
0.0
  0
VERTEX
  5
526
330
4FA
100
AcDbEntity
  8
Make2D$可见线$普通线
100
AcDbVertex
100
AcDb2dVertex
 10
-36.82847162672564
 20
942.7784654133483
 30
0.0
  0
VERTEX
  5
527
330
4FA
100
AcDbEntity
  8
Make2D$可见线$普通线
100
AcDbVertex
100
AcDb2dVertex
 10
-36.82637189500613
 20
942.7773233726275
 30
0.0
  0
VERTEX
  5
528
330
4FA
100
AcDbEntity
  8
Make2D$可见线$普通线
100
AcDbVertex
100
AcDb2dVertex
 10
-36.82215547501747
 20
942.7748863781867
 30
0.0
  0
VERTEX
  5
529
330
4FA
100
AcDbEntity
  8
Make2D$可见线$普通线
100
AcDbVertex
100
AcDb2dVertex
 10
-36.81791638076289
 20
942.772245362641
 30
0.0
  0
VERTEX
  5
52A
330
4FA
100
AcDbEntity
  8
Make2D$可见线$普通线
100
AcDbVertex
100
AcDb2dVertex
 10
-36.81365453360274
 20
942.769400161464
 30
0.0
  0
VERTEX
  5
52B
330
4FA
100
AcDbEntity
  8
Make2D$可见线$普通线
100
AcDbVertex
100
AcDb2dVertex
 10
-36.80936985489735
 20
942.7663506101289
 30
0.0
  0
VERTEX
  5
52C
330
4FA
100
AcDbEntity
  8
Make2D$可见线$普通线
100
AcDbVertex
100
AcDb2dVertex
 10
-36.80506226600708
 20
942.7630965441093
 30
0.0
  0
VERTEX
  5
52D
330
4FA
100
AcDbEntity
  8
Make2D$可见线$普通线
100
AcDbVertex
100
AcDb2dVertex
 10
-36.80073168829227
 20
942.7596377988785
 30
0.0
  0
VERTEX
  5
52E
330
4FA
100
AcDbEntity
  8
Make2D$可见线$普通线
100
AcDbVertex
100
AcDb2dVertex
 10
-36.79637804311324
 20
942.75597420991
 30
0.0
  0
VERTEX
  5
52F
330
4FA
100
AcDbEntity
  8
Make2D$可见线$普通线
100
AcDbVertex
100
AcDb2dVertex
 10
-36.79200125183034
 20
942.7521056126773
 30
0.0
  0
VERTEX
  5
530
330
4FA
100
AcDbEntity
  8
Make2D$可见线$普通线
100
AcDbVertex
100
AcDb2dVertex
 10
-36.78760123580393
 20
942.7480318426537
 30
0.0
  0
VERTEX
  5
531
330
4FA
100
AcDbEntity
  8
Make2D$可见线$普通线
100
AcDbVertex
100
AcDb2dVertex
 10
-36.78317791639432
 20
942.7437527353127
 30
0.0
  0
VERTEX
  5
532
330
4FA
100
AcDbEntity
  8
Make2D$可见线$普通线
100
AcDbVertex
100
AcDb2dVertex
 10
-36.77873121496187
 20
942.7392681261279
 30
0.0
  0
VERTEX
  5
533
330
4FA
100
AcDbEntity
  8
Make2D$可见线$普通线
100
AcDbVertex
100
AcDb2dVertex
 10
-36.77428174629909
 20
942.7346010756419
 30
0.0
  0
VERTEX
  5
534
330
4FA
100
AcDbEntity
  8
Make2D$可见线$普通线
100
AcDbVertex
100
AcDb2dVertex
 10
-36.76981349642233
 20
942.7297379099874
 30
0.0
  0
VERTEX
  5
535
330
4FA
100
AcDbEntity
  8
Make2D$可见线$普通线
100
AcDbVertex
100
AcDb2dVertex
 10
-36.7608186901991
 20
942.7194266040287
 30
0.0
  0
VERTEX
  5
536
330
4FA
100
AcDbEntity
  8
Make2D$可见线$普通线
100
AcDbVertex
100
AcDb2dVertex
 10
-36.75174287063663
 20
942.7083409499631
 30
0.0
  0
VERTEX
  5
537
330
4FA
100
AcDbEntity
  8
Make2D$可见线$普通线
100
AcDbVertex
100
AcDb2dVertex
 10
-36.74258211207934
 20
942.6964876895019
 30
0.0
  0
VERTEX
  5
538
330
4FA
100
AcDbEntity
  8
Make2D$可见线$普通线
100
AcDbVertex
100
AcDb2dVertex
 10
-36.7333324888717
 20
942.6838735643562
 30
0.0
  0
VERTEX
  5
539
330
4FA
100
AcDbEntity
  8
Make2D$可见线$普通线
100
AcDbVertex
100
AcDb2dVertex
 10
-36.72399007535815
 20
942.6705053162372
 30
0.0
  0
VERTEX
  5
53A
330
4FA
100
AcDbEntity
  8
Make2D$可见线$普通线
100
AcDbVertex
100
AcDb2dVertex
 10
-36.71455094588315
 20
942.6563896868563
 30
0.0
  0
VERTEX
  5
53B
330
4FA
100
AcDbEntity
  8
Make2D$可见线$普通线
100
AcDbVertex
100
AcDb2dVertex
 10
-36.70501117479112
 20
942.6415334179245
 30
0.0
  0
VERTEX
  5
53C
330
4FA
100
AcDbEntity
  8
Make2D$可见线$普通线
100
AcDbVertex
100
AcDb2dVertex
 10
-36.69061696355954
 20
942.6180669043341
 30
0.0
  0
VERTEX
  5
53D
330
4FA
100
AcDbEntity
  8
Make2D$可见线$普通线
100
AcDbVertex
100
AcDb2dVertex
 10
-36.676008751325
 20
942.5930650540565
 30
0.0
  0
VERTEX
  5
53E
330
4FA
100
AcDbEntity
  8
Make2D$可见线$普通线
100
AcDbVertex
100
AcDb2dVertex
 10
-36.64608521552279
 20
942.5386026468243
 30
0.0
  0
VERTEX
  5
53F
330
4FA
100
AcDbEntity
  8
Make2D$可见线$普通线
100
AcDbVertex
100
AcDb2dVertex
 10
-36.66589166354932
 20
942.5751104193685
 30
0.0
  0
SEQEND
  5
540
330
4FA
100
AcDbEntity
  8
Make2D$可见线$普通线
  0
POLYLINE
  5
541
330
1F
100
AcDbEntity
  8
Make2D$可见线$普通线
100
AcDb2dPolyline
 66
     1
 10
0.0
 20
0.0
 30
0.0
  0
VERTEX
  5
542
330
541
100
AcDbEntity
  8
Make2D$可见线$普通线
100
AcDbVertex
100
AcDb2dVertex
 10
-8.730786156364758
 20
887.7524716805658
 30
0.0
  0
VERTEX
  5
543
330
541
100
AcDbEntity
  8
Make2D$可见线$普通线
100
AcDbVertex
100
AcDb2dVertex
 10
-8.757764965681346
 20
887.8019841785455
 30
0.0
  0
VERTEX
  5
544
330
541
100
AcDbEntity
  8
Make2D$可见线$普通线
100
AcDbVertex
100
AcDb2dVertex
 10
-8.866280393083578
 20
887.9633993188444
 30
0.0
 42
-0.0323281987340479
  0
VERTEX
  5
545
330
541
100
AcDbEntity
  8
Make2D$可见线$普通线
100
AcDbVertex
100
AcDb2dVertex
 10
-8.669688302909076
 20
887.6326232438907
 30
0.0
  0
SEQEND
  5
546
330
541
100
AcDbEntity
  8
Make2D$可见线$普通线
  0
POLYLINE
  5
547
330
1F
100
AcDbEntity
  8
Make2D$可见线$普通线
100
AcDb2dPolyline
 66
     1
 10
0.0
 20
0.0
 30
0.0
  0
VERTEX
  5
548
330
547
100
AcDbEntity
  8
Make2D$可见线$普通线
100
AcDbVertex
100
AcDb2dVertex
 10
1.402057005498893
 20
867.8645429023925
 30
0.0
 42
-0.1236434102382071
  0
VERTEX
  5
549
330
547
100
AcDbEntity
  8
Make2D$可见线$普通线
100
AcDbVertex
100
AcDb2dVertex
 10
1.479799502397402
 20
867.4377956938728
 30
0.0
  0
VERTEX
  5
54A
330
547
100
AcDbEntity
  8
Make2D$可见线$普通线
100
AcDbVertex
100
AcDb2dVertex
 10
2.23773393712372
 20
865.950265609813
 30
0.0
 42
0.1986433408757853
  0
VERTEX
  5
54B
330
547
100
AcDbEntity
  8
Make2D$可见线$普通线
100
AcDbVertex
100
AcDb2dVertex
 10
2.249909620783684
 20
866.2005229032168
 30
0.0
  0
SEQEND
  5
54C
330
547
100
AcDbEntity
  8
Make2D$可见线$普通线
  0
POLYLINE
  5
54D
330
1F
100
AcDbEntity
  8
Make2D$可见线$普通线
100
AcDb2dPolyline
 66
     1
 10
0.0
 20
0.0
 30
0.0
  0
VERTEX
  5
54E
330
54D
100
AcDbEntity
  8
Make2D$可见线$普通线
100
AcDbVertex
100
AcDb2dVertex
 10
0.3243433391116781
 20
869.9788036398173
 30
0.0
 42
-0.1096066612212586
  0
VERTEX
  5
54F
330
54D
100
AcDbEntity
  8
Make2D$可见线$普通线
100
AcDbVertex
100
AcDb2dVertex
 10
0.4195485170365851
 20
869.518655416189
 30
0.0
  0
VERTEX
  5
550
330
54D
100
AcDbEntity
  8
Make2D$可见线$普通线
100
AcDbVertex
100
AcDb2dVertex
 10
1.479799502397655
 20
867.4377956938729
 30
0.0
 42
-0.122256280358462
  0
VERTEX
  5
551
330
54D
100
AcDbEntity
  8
Make2D$可见线$普通线
100
AcDbVertex
100
AcDb2dVertex
 10
1.770945941910747
 20
867.140603382527
 30
0.0
  0
SEQEND
  5
552
330
54D
100
AcDbEntity
  8
Make2D$可见线$普通线
  0
POLYLINE
  5
553
330
1F
100
AcDbEntity
  8
Make2D$可见线$普通线
100
AcDb2dPolyline
 66
     1
 10
0.0
 20
0.0
 30
0.0
  0
VERTEX
  5
554
330
553
100
AcDbEntity
  8
Make2D$可见线$普通线
100
AcDbVertex
100
AcDb2dVertex
 10
-1.482496918524035
 20
873.5257818376995
 30
0.0
 42
-0.0896414721702462
  0
VERTEX
  5
555
330
553
100
AcDbEntity
  8
Make2D$可见线$普通线
100
AcDbVertex
100
AcDb2dVertex
 10
-1.326109730754193
 20
872.9447026322833
 30
0.0
  0
VERTEX
  5
556
330
553
100
AcDbEntity
  8
Make2D$可见线$普通线
100
AcDbVertex
100
AcDb2dVertex
 10
0.4195485170368123
 20
869.5186554161891
 30
0.0
 42
-0.1108336517579285
  0
VERTEX
  5
557
330
553
100
AcDbEntity
  8
Make2D$可见线$普通线
100
AcDbVertex
100
AcDb2dVertex
 10
0.7298854879420773
 20
869.183616485738
 30
0.0
  0
SEQEND
  5
558
330
553
100
AcDbEntity
  8
Make2D$可见线$普通线
  0
POLYLINE
  5
559
330
1F
100
AcDbEntity
  8
Make2D$可见线$普通线
100
AcDb2dPolyline
 66
     1
 10
0.0
 20
0.0
 30
0.0
  0
VERTEX
  5
55A
330
559
100
AcDbEntity
  8
Make2D$可见线$普通线
100
AcDbVertex
100
AcDb2dVertex
 10
-2.812954797340229
 20
876.0206566202428
 30
0.0
  0
VERTEX
  5
55B
330
559
100
AcDbEntity
  8
Make2D$可见线$普通线
100
AcDbVertex
100
AcDb2dVertex
 10
-2.731229809153533
 20
875.7024060596113
 30
0.0
  0
VERTEX
  5
55C
330
559
100
AcDbEntity
  8
Make2D$可见线$普通线
100
AcDbVertex
100
AcDb2dVertex
 10
-1.326109730753999
 20
872.9447026322833
 30
0.0
 42
-0.0893189666155361
  0
VERTEX
  5
55D
330
559
100
AcDbEntity
  8
Make2D$可见线$普通线
100
AcDbVertex
100
AcDb2dVertex
 10
-0.95289928931521
 20
872.4864098994764
 30
0.0
  0
SEQEND
  5
55E
330
559
100
AcDbEntity
  8
Make2D$可见线$普通线
  0
POLYLINE
  5
55F
330
1F
100
AcDbEntity
  8
Make2D$可见线$普通线
100
AcDb2dPolyline
 66
     1
 10
0.0
 20
0.0
 30
0.0
  0
VERTEX
  5
560
330
55F
100
AcDbEntity
  8
Make2D$可见线$普通线
100
AcDbVertex
100
AcDb2dVertex
 10
-42.41808073911402
 20
953.8655278980584
 30
0.0
 42
0.1095835774124346
  0
VERTEX
  5
561
330
55F
100
AcDbEntity
  8
Make2D$可见线$普通线
100
AcDbVertex
100
AcDb2dVertex
 10
-42.73436455536262
 20
954.2129785646789
 30
0.0
  0
VERTEX
  5
562
330
55F
100
AcDbEntity
  8
Make2D$可见线$普通线
100
AcDbVertex
100
AcDb2dVertex
 10
-39.92410090840362
 20
948.6975256079868
 30
0.0
  0
VERTEX
  5
563
330
55F
100
AcDbEntity
  8
Make2D$可见线$普通线
100
AcDbVertex
100
AcDb2dVertex
 10
-39.92222431825981
 20
948.6984553900215
 30
0.0
  0
VERTEX
  5
564
330
55F
100
AcDbEntity
  8
Make2D$可见线$普通线
100
AcDbVertex
100
AcDb2dVertex
 10
-39.9203424822377
 20
948.6993350511103
 30
0.0
  0
VERTEX
  5
565
330
55F
100
AcDbEntity
  8
Make2D$可见线$普通线
100
AcDbVertex
100
AcDb2dVertex
 10
-39.91845539050733
 20
948.7001645706873
 30
0.0
  0
VERTEX
  5
566
330
55F
100
AcDbEntity
  8
Make2D$可见线$普通线
100
AcDbVertex
100
AcDb2dVertex
 10
-39.91656303323872
 20
948.7009439281869
 30
0.0
  0
VERTEX
  5
567
330
55F
100
AcDbEntity
  8
Make2D$可见线$普通线
100
AcDbVertex
100
AcDb2dVertex
 10
-39.91466540060195
 20
948.701673103043
 30
0.0
  0
VERTEX
  5
568
330
55F
100
AcDbEntity
  8
Make2D$可见线$普通线
100
AcDbVertex
100
AcDb2dVertex
 10
-39.91276248276703
 20
948.70235207469
 30
0.0
  0
VERTEX
  5
569
330
55F
100
AcDbEntity
  8
Make2D$可见线$普通线
100
AcDbVertex
100
AcDb2dVertex
 10
-39.91085426990402
 20
948.702980822562
 30
0.0
  0
VERTEX
  5
56A
330
55F
100
AcDbEntity
  8
Make2D$可见线$普通线
100
AcDbVertex
100
AcDb2dVertex
 10
-39.90894075218296
 20
948.7035593260932
 30
0.0
  0
VERTEX
  5
56B
330
55F
100
AcDbEntity
  8
Make2D$可见线$普通线
100
AcDbVertex
100
AcDb2dVertex
 10
-39.90702191977389
 20
948.7040875647176
 30
0.0
  0
VERTEX
  5
56C
330
55F
100
AcDbEntity
  8
Make2D$可见线$普通线
100
AcDbVertex
100
AcDb2dVertex
 10
-39.90509776284684
 20
948.7045655178697
 30
0.0
  0
VERTEX
  5
56D
330
55F
100
AcDbEntity
  8
Make2D$可见线$普通线
100
AcDbVertex
100
AcDb2dVertex
 10
-39.90316827157187
 20
948.7049931649833
 30
0.0
  0
VERTEX
  5
56E
330
55F
100
AcDbEntity
  8
Make2D$可见线$普通线
100
AcDbVertex
100
AcDb2dVertex
 10
-39.90123343611903
 20
948.705370485493
 30
0.0
  0
VERTEX
  5
56F
330
55F
100
AcDbEntity
  8
Make2D$可见线$普通线
100
AcDbVertex
100
AcDb2dVertex
 10
-39.89929324665835
 20
948.7056974588326
 30
0.0
  0
VERTEX
  5
570
330
55F
100
AcDbEntity
  8
Make2D$可见线$普通线
100
AcDbVertex
100
AcDb2dVertex
 10
-39.89734769335986
 20
948.7059740644365
 30
0.0
  0
VERTEX
  5
571
330
55F
100
AcDbEntity
  8
Make2D$可见线$普通线
100
AcDbVertex
100
AcDb2dVertex
 10
-39.89539676639362
 20
948.7062002817389
 30
0.0
  0
VERTEX
  5
572
330
55F
100
AcDbEntity
  8
Make2D$可见线$普通线
100
AcDbVertex
100
AcDb2dVertex
 10
-39.89344045592968
 20
948.7063760901739
 30
0.0
  0
VERTEX
  5
573
330
55F
100
AcDbEntity
  8
Make2D$可见线$普通线
100
AcDbVertex
100
AcDb2dVertex
 10
-39.89147875213806
 20
948.7065014691757
 30
0.0
  0
VERTEX
  5
574
330
55F
100
AcDbEntity
  8
Make2D$可见线$普通线
100
AcDbVertex
100
AcDb2dVertex
 10
-39.88951164518882
 20
948.7065763981784
 30
0.0
  0
VERTEX
  5
575
330
55F
100
AcDbEntity
  8
Make2D$可见线$普通线
100
AcDbVertex
100
AcDb2dVertex
 10
-39.88753912525199
 20
948.7066008566162
 30
0.0
  0
VERTEX
  5
576
330
55F
100
AcDbEntity
  8
Make2D$可见线$普通线
100
AcDbVertex
100
AcDb2dVertex
 10
-39.88556118249762
 20
948.7065748239233
 30
0.0
  0
VERTEX
  5
577
330
55F
100
AcDbEntity
  8
Make2D$可见线$普通线
100
AcDbVertex
100
AcDb2dVertex
 10
-39.88357780709575
 20
948.706498279534
 30
0.0
  0
VERTEX
  5
578
330
55F
100
AcDbEntity
  8
Make2D$可见线$普通线
100
AcDbVertex
100
AcDb2dVertex
 10
-39.88158898921643
 20
948.7063712028823
 30
0.0
  0
VERTEX
  5
579
330
55F
100
AcDbEntity
  8
Make2D$可见线$普通线
100
AcDbVertex
100
AcDb2dVertex
 10
-39.87959471902968
 20
948.7061935734025
 30
0.0
  0
VERTEX
  5
57A
330
55F
100
AcDbEntity
  8
Make2D$可见线$普通线
100
AcDbVertex
100
AcDb2dVertex
 10
-39.87759498670557
 20
948.7059653705287
 30
0.0
  0
VERTEX
  5
57B
330
55F
100
AcDbEntity
  8
Make2D$可见线$普通线
100
AcDbVertex
100
AcDb2dVertex
 10
-39.87558978241414
 20
948.7056865736951
 30
0.0
  0
VERTEX
  5
57C
330
55F
100
AcDbEntity
  8
Make2D$可见线$普通线
100
AcDbVertex
100
AcDb2dVertex
 10
-39.87357909632541
 20
948.7053571623359
 30
0.0
  0
VERTEX
  5
57D
330
55F
100
AcDbEntity
  8
Make2D$可见线$普通线
100
AcDbVertex
100
AcDb2dVertex
 10
-39.87156291860945
 20
948.7049771158852
 30
0.0
  0
VERTEX
  5
57E
330
55F
100
AcDbEntity
  8
Make2D$可见线$普通线
100
AcDbVertex
100
AcDb2dVertex
 10
-39.86954123943628
 20
948.7045464137773
 30
0.0
  0
VERTEX
  5
57F
330
55F
100
AcDbEntity
  8
Make2D$可见线$普通线
100
AcDbVertex
100
AcDb2dVertex
 10
-39.86751404897596
 20
948.7040650354463
 30
0.0
  0
VERTEX
  5
580
330
55F
100
AcDbEntity
  8
Make2D$可见线$普通线
100
AcDbVertex
100
AcDb2dVertex
 10
-39.86548133739851
 20
948.7035329603264
 30
0.0
  0
VERTEX
  5
581
330
55F
100
AcDbEntity
  8
Make2D$可见线$普通线
100
AcDbVertex
100
AcDb2dVertex
 10
-39.86344309487399
 20
948.7029501678519
 30
0.0
  0
VERTEX
  5
582
330
55F
100
AcDbEntity
  8
Make2D$可见线$普通线
100
AcDbVertex
100
AcDb2dVertex
 10
-39.86139931157244
 20
948.7023166374568
 30
0.0
  0
VERTEX
  5
583
330
55F
100
AcDbEntity
  8
Make2D$可见线$普通线
100
AcDbVertex
100
AcDb2dVertex
 10
-39.85934997766391
 20
948.7016323485752
 30
0.0
  0
VERTEX
  5
584
330
55F
100
AcDbEntity
  8
Make2D$可见线$普通线
100
AcDbVertex
100
AcDb2dVertex
 10
-39.85729508331843
 20
948.7008972806417
 30
0.0
  0
VERTEX
  5
585
330
55F
100
AcDbEntity
  8
Make2D$可见线$普通线
100
AcDbVertex
100
AcDb2dVertex
 10
-39.85523461870604
 20
948.70011141309
 30
0.0
  0
VERTEX
  5
586
330
55F
100
AcDbEntity
  8
Make2D$可见线$普通线
100
AcDbVertex
100
AcDb2dVertex
 10
-39.8531685739968
 20
948.6992747253545
 30
0.0
  0
VERTEX
  5
587
330
55F
100
AcDbEntity
  8
Make2D$可见线$普通线
100
AcDbVertex
100
AcDb2dVertex
 10
-39.85109693936073
 20
948.6983871968694
 30
0.0
  0
VERTEX
  5
588
330
55F
100
AcDbEntity
  8
Make2D$可见线$普通线
100
AcDbVertex
100
AcDb2dVertex
 10
-39.84901970496789
 20
948.6974488070688
 30
0.0
  0
VERTEX
  5
589
330
55F
100
AcDbEntity
  8
Make2D$可见线$普通线
100
AcDbVertex
100
AcDb2dVertex
 10
-39.84693686098832
 20
948.696459535387
 30
0.0
  0
VERTEX
  5
58A
330
55F
100
AcDbEntity
  8
Make2D$可见线$普通线
100
AcDbVertex
100
AcDb2dVertex
 10
-39.84484839759206
 20
948.695419361258
 30
0.0
  0
VERTEX
  5
58B
330
55F
100
AcDbEntity
  8
Make2D$可见线$普通线
100
AcDbVertex
100
AcDb2dVertex
 10
-39.84275430494915
 20
948.694328264116
 30
0.0
  0
VERTEX
  5
58C
330
55F
100
AcDbEntity
  8
Make2D$可见线$普通线
100
AcDbVertex
100
AcDb2dVertex
 10
-39.84065457322963
 20
948.6931862233953
 30
0.0
  0
VERTEX
  5
58D
330
55F
100
AcDbEntity
  8
Make2D$可见线$普通线
100
AcDbVertex
100
AcDb2dVertex
 10
-39.83643815324096
 20
948.6907492289545
 30
0.0
  0
VERTEX
  5
58E
330
55F
100
AcDbEntity
  8
Make2D$可见线$普通线
100
AcDbVertex
100
AcDb2dVertex
 10
-39.83219905898638
 20
948.6881082134088
 30
0.0
  0
VERTEX
  5
58F
330
55F
100
AcDbEntity
  8
Make2D$可见线$普通线
100
AcDbVertex
100
AcDb2dVertex
 10
-39.82793721182622
 20
948.6852630122318
 30
0.0
  0
VERTEX
  5
590
330
55F
100
AcDbEntity
  8
Make2D$可见线$普通线
100
AcDbVertex
100
AcDb2dVertex
 10
-39.82365253312084
 20
948.6822134608967
 30
0.0
  0
VERTEX
  5
591
330
55F
100
AcDbEntity
  8
Make2D$可见线$普通线
100
AcDbVertex
100
AcDb2dVertex
 10
-39.81934494423057
 20
948.6789593948771
 30
0.0
  0
VERTEX
  5
592
330
55F
100
AcDbEntity
  8
Make2D$可见线$普通线
100
AcDbVertex
100
AcDb2dVertex
 10
-39.81501436651575
 20
948.6755006496463
 30
0.0
  0
VERTEX
  5
593
330
55F
100
AcDbEntity
  8
Make2D$可见线$普通线
100
AcDbVertex
100
AcDb2dVertex
 10
-39.81066072133672
 20
948.6718370606778
 30
0.0
  0
VERTEX
  5
594
330
55F
100
AcDbEntity
  8
Make2D$可见线$普通线
100
AcDbVertex
100
AcDb2dVertex
 10
-39.80628393005383
 20
948.667968463445
 30
0.0
  0
VERTEX
  5
595
330
55F
100
AcDbEntity
  8
Make2D$可见线$普通线
100
AcDbVertex
100
AcDb2dVertex
 10
-39.80188391402741
 20
948.6638946934215
 30
0.0
  0
VERTEX
  5
596
330
55F
100
AcDbEntity
  8
Make2D$可见线$普通线
100
AcDbVertex
100
AcDb2dVertex
 10
-39.7974605946178
 20
948.6596155860805
 30
0.0
  0
VERTEX
  5
597
330
55F
100
AcDbEntity
  8
Make2D$可见线$普通线
100
AcDbVertex
100
AcDb2dVertex
 10
-39.79301389318536
 20
948.6551309768956
 30
0.0
  0
VERTEX
  5
598
330
55F
100
AcDbEntity
  8
Make2D$可见线$普通线
100
AcDbVertex
100
AcDb2dVertex
 10
-39.78856442452247
 20
948.6504639264094
 30
0.0
  0
VERTEX
  5
599
330
55F
100
AcDbEntity
  8
Make2D$可见线$普通线
100
AcDbVertex
100
AcDb2dVertex
 10
-39.78409617464565
 20
948.645600760755
 30
0.0
  0
VERTEX
  5
59A
330
55F
100
AcDbEntity
  8
Make2D$可见线$普通线
100
AcDbVertex
100
AcDb2dVertex
 10
-39.77510136842241
 20
948.6352894547963
 30
0.0
  0
VERTEX
  5
59B
330
55F
100
AcDbEntity
  8
Make2D$可见线$普通线
100
AcDbVertex
100
AcDb2dVertex
 10
-39.76602554886004
 20
948.6242038007309
 30
0.0
  0
VERTEX
  5
59C
330
55F
100
AcDbEntity
  8
Make2D$可见线$普通线
100
AcDbVertex
100
AcDb2dVertex
 10
-39.7568647903029
 20
948.6123505402699
 30
0.0
  0
VERTEX
  5
59D
330
55F
100
AcDbEntity
  8
Make2D$可见线$普通线
100
AcDbVertex
100
AcDb2dVertex
 10
-39.7476151670954
 20
948.5997364151243
 30
0.0
  0
VERTEX
  5
59E
330
55F
100
AcDbEntity
  8
Make2D$可见线$普通线
100
AcDbVertex
100
AcDb2dVertex
 10
-39.73827275358195
 20
948.5863681670055
 30
0.0
  0
VERTEX
  5
59F
330
55F
100
AcDbEntity
  8
Make2D$可见线$普通线
100
AcDbVertex
100
AcDb2dVertex
 10
-39.72883362410693
 20
948.5722525376244
 30
0.0
  0
VERTEX
  5
5A0
330
55F
100
AcDbEntity
  8
Make2D$可见线$普通线
100
AcDbVertex
100
AcDb2dVertex
 10
-39.71929385301473
 20
948.5573962686924
 30
0.0
  0
VERTEX
  5
5A1
330
55F
100
AcDbEntity
  8
Make2D$可见线$普通线
100
AcDbVertex
100
AcDb2dVertex
 10
-39.70745284373828
 20
948.5381801403239
 30
0.0
  0
VERTEX
  5
5A2
330
55F
100
AcDbEntity
  8
Make2D$可见线$普通线
100
AcDbVertex
100
AcDb2dVertex
 10
-39.69546858982122
 20
948.5179179871462
 30
0.0
  0
VERTEX
  5
5A3
330
55F
100
AcDbEntity
  8
Make2D$可见线$普通线
100
AcDbVertex
100
AcDb2dVertex
 10
-39.67103393913224
 20
948.4743379340694
 30
0.0
  0
SEQEND
  5
5A4
330
55F
100
AcDbEntity
  8
Make2D$可见线$普通线
  0
POLYLINE
  5
5A5
330
1F
100
AcDbEntity
  8
Make2D$可见线$普通线
100
AcDb2dPolyline
 66
     1
 10
0.0
 20
0.0
 30
0.0
  0
VERTEX
  5
5A6
330
5A5
100
AcDbEntity
  8
Make2D$可见线$普通线
100
AcDbVertex
100
AcDb2dVertex
 10
-44.3429667190174
 20
957.6441537721792
 30
0.0
 42
0.1983994937746006
  0
VERTEX
  5
5A7
330
5A5
100
AcDbEntity
  8
Make2D$可见线$普通线
100
AcDbVertex
100
AcDb2dVertex
 10
-44.55240678778769
 20
957.7810873494419
 30
0.0
  0
VERTEX
  5
5A8
330
5A5
100
AcDbEntity
  8
Make2D$可见线$普通线
100
AcDbVertex
100
AcDb2dVertex
 10
-42.93838358662712
 20
954.6133884587546
 30
0.0
 42
-0.3801276679960267
  0
VERTEX
  5
5A9
330
5A5
100
AcDbEntity
  8
Make2D$可见线$普通线
100
AcDbVertex
100
AcDb2dVertex
 10
-42.77584588260159
 20
954.5343741836118
 30
0.0
  0
SEQEND
  5
5AA
330
5A5
100
AcDbEntity
  8
Make2D$可见线$普通线
  0
POLYLINE
  5
5AB
330
1F
100
AcDbEntity
  8
Make2D$可见线$普通线
100
AcDb2dPolyline
 66
     1
 10
0.0
 20
0.0
 30
0.0
  0
VERTEX
  5
5AC
330
5AB
100
AcDbEntity
  8
Make2D$可见线$普通线
100
AcDbVertex
100
AcDb2dVertex
 10
-5.149452110360169
 20
880.7225761444408
 30
0.0
 42
-0.0750996868074917
  0
VERTEX
  5
5AD
330
5AB
100
AcDbEntity
  8
Make2D$可见线$普通线
100
AcDbVertex
100
AcDb2dVertex
 10
-4.938377287662894
 20
880.034176888081
 30
0.0
  0
VERTEX
  5
5AE
330
5AB
100
AcDbEntity
  8
Make2D$可见线$普通线
100
AcDbVertex
100
AcDb2dVertex
 10
-3.011516960560125
 20
876.2525005675151
 30
0.0
 42
-0.0657772279995641
  0
VERTEX
  5
5AF
330
5AB
100
AcDbEntity
  8
Make2D$可见线$普通线
100
AcDbVertex
100
AcDb2dVertex
 10
-2.542765062304206
 20
875.606691620897
 30
0.0
  0
SEQEND
  5
5B0
330
5AB
100
AcDbEntity
  8
Make2D$可见线$普通线
  0
POLYLINE
  5
5B1
330
1F
100
AcDbEntity
  8
Make2D$可见线$普通线
100
AcDb2dPolyline
 66
     1
 10
0.0
 20
0.0
 30
0.0
  0
VERTEX
  5
5B2
330
5B1
100
AcDbEntity
  8
Make2D$可见线$普通线
100
AcDbVertex
100
AcDb2dVertex
 10
-45.10012473601815
 20
958.9250978787297
 30
0.0
  0
VERTEX
  5
5B3
330
5B1
100
AcDbEntity
  8
Make2D$可见线$普通线
100
AcDbVertex
100
AcDb2dVertex
 10
-45.12811702774569
 20
958.9109823144943
 30
0.0
  0
VERTEX
  5
5B4
330
5B1
100
AcDbEntity
  8
Make2D$可见线$普通线
100
AcDbVertex
100
AcDb2dVertex
 10
-45.12686831777725
 20
958.9085315831919
 30
0.0
 42
-0.3287172566351245
  0
VERTEX
  5
5B5
330
5B1
100
AcDbEntity
  8
Make2D$可见线$普通线
100
AcDbVertex
100
AcDb2dVertex
 10
-44.98970397413395
 20
958.9136490417469
 30
0.0
  0
SEQEND
  5
5B6
330
5B1
100
AcDbEntity
  8
Make2D$可见线$普通线
  0
POLYLINE
  5
5B7
330
1F
100
AcDbEntity
  8
Make2D$可见线$普通线
100
AcDb2dPolyline
 66
     1
 10
0.0
 20
0.0
 30
0.0
  0
VERTEX
  5
5B8
330
5B7
100
AcDbEntity
  8
Make2D$可见线$普通线
100
AcDbVertex
100
AcDb2dVertex
 10
-6.059639388121361
 20
882.5075975475577
 30
0.0
  0
VERTEX
  5
5B9
330
5B7
100
AcDbEntity
  8
Make2D$可见线$普通线
100
AcDbVertex
100
AcDb2dVertex
 10
-5.981590823675188
 20
882.3397264992154
 30
0.0
 42
-0.0565473168043692
  0
VERTEX
  5
5BA
330
5B7
100
AcDbEntity
  8
Make2D$可见线$普通线
100
AcDbVertex
100
AcDb2dVertex
 10
-5.745512487375537
 20
881.6182689103802
 30
0.0
  0
VERTEX
  5
5BB
330
5B7
100
AcDbEntity
  8
Make2D$可见线$普通线
100
AcDbVertex
100
AcDb2dVertex
 10
-4.938377287662736
 20
880.0341768880811
 30
0.0
 42
-0.0749225215878656
  0
VERTEX
  5
5BC
330
5B7
100
AcDbEntity
  8
Make2D$可见线$普通线
100
AcDbVertex
100
AcDb2dVertex
 10
-4.509460337875037
 20
879.4665309806487
 30
0.0
  0
SEQEND
  5
5BD
330
5B7
100
AcDbEntity
  8
Make2D$可见线$普通线
  0
POLYLINE
  5
5BE
330
1F
100
AcDbEntity
  8
Make2D$可见线$普通线
100
AcDb2dPolyline
 66
     1
 10
0.0
 20
0.0
 30
0.0
  0
VERTEX
  5
5BF
330
5BE
100
AcDbEntity
  8
Make2D$可见线$普通线
100
AcDbVertex
100
AcDb2dVertex
 10
-17.08998557186958
 20
903.8830509651391
 30
0.0
  0
VERTEX
  5
5C0
330
5BE
100
AcDbEntity
  8
Make2D$可见线$普通线
100
AcDbVertex
100
AcDb2dVertex
 10
-18.5824214998786
 20
903.1226168780693
 30
0.0
 42
0.3494695684891994
  0
VERTEX
  5
5C1
330
5BE
100
AcDbEntity
  8
Make2D$可见线$普通线
100
AcDbVertex
100
AcDb2dVertex
 10
-18.70820049726865
 20
902.9289342068028
 30
0.0
  0
VERTEX
  5
5C2
330
5BE
100
AcDbEntity
  8
Make2D$可见线$普通线
100
AcDbVertex
100
AcDb2dVertex
 10
-17.90506411267508
 20
901.3526903010659
 30
0.0
 42
0.349559468348985
  0
VERTEX
  5
5C3
330
5BE
100
AcDbEntity
  8
Make2D$可见线$普通线
100
AcDbVertex
100
AcDb2dVertex
 10
-17.67444050039049
 20
901.3406038296969
 30
0.0
  0
VERTEX
  5
5C4
330
5BE
100
AcDbEntity
  8
Make2D$可见线$普通线
100
AcDbVertex
100
AcDb2dVertex
 10
-16.1820045723796
 20
902.1010379167678
 30
0.0
  0
SEQEND
  5
5C5
330
5BE
100
AcDbEntity
  8
Make2D$可见线$普通线
  0
POLYLINE
  5
5C6
330
1F
100
AcDbEntity
  8
Make2D$可见线$普通线
100
AcDb2dPolyline
 66
     1
 10
0.0
 20
0.0
 30
0.0
  0
VERTEX
  5
5C7
330
5C6
100
AcDbEntity
  8
Make2D$可见线$普通线
100
AcDbVertex
100
AcDb2dVertex
 10
-20.21958048571019
 20
905.8951844498926
 30
0.0
  0
VERTEX
  5
5C8
330
5C6
100
AcDbEntity
  8
Make2D$可见线$普通线
100
AcDbVertex
100
AcDb2dVertex
 10
-20.61691002867624
 20
906.6749875850554
 30
0.0
 42
-0.4091463262051976
  0
VERTEX
  5
5C9
330
5C6
100
AcDbEntity
  8
Make2D$可见线$普通线
100
AcDbVertex
100
AcDb2dVertex
 10
-20.54355333873379
 20
906.9715548276396
 30
0.0
  0
VERTEX
  5
5CA
330
5C6
100
AcDbEntity
  8
Make2D$可见线$普通线
100
AcDbVertex
100
AcDb2dVertex
 10
-19.05111741072212
 20
907.7319889147109
 30
0.0
  0
SEQEND
  5
5CB
330
5C6
100
AcDbEntity
  8
Make2D$可见线$普通线
  0
POLYLINE
  5
5CC
330
1F
100
AcDbEntity
  8
Make2D$可见线$普通线
100
AcDb2dPolyline
 66
     1
 10
0.0
 20
0.0
 30
0.0
  0
VERTEX
  5
5CD
330
5CC
100
AcDbEntity
  8
Make2D$可见线$普通线
100
AcDbVertex
100
AcDb2dVertex
 10
-20.18238567140833
 20
905.8221855165943
 30
0.0
  0
VERTEX
  5
5CE
330
5CC
100
AcDbEntity
  8
Make2D$可见线$普通线
100
AcDbVertex
100
AcDb2dVertex
 10
-20.21534183637942
 20
905.8868656321872
 30
0.0
 42
-0.3429664457931336
  0
VERTEX
  5
5CF
330
5CC
100
AcDbEntity
  8
Make2D$可见线$普通线
100
AcDbVertex
100
AcDb2dVertex
 10
-20.1053792260854
 20
906.0719631906978
 30
0.0
  0
SEQEND
  5
5D0
330
5CC
100
AcDbEntity
  8
Make2D$可见线$普通线
  0
POLYLINE
  5
5D1
330
1F
100
AcDbEntity
  8
Make2D$可见线$普通线
100
AcDb2dPolyline
 66
     1
 10
0.0
 20
0.0
 30
0.0
  0
VERTEX
  5
5D2
330
5D1
100
AcDbEntity
  8
Make2D$可见线$普通线
100
AcDbVertex
100
AcDb2dVertex
 10
-19.19782398069971
 20
904.2907857317981
 30
0.0
 42
-0.3430385338471358
  0
VERTEX
  5
5D3
330
5D1
100
AcDbEntity
  8
Make2D$可见线$普通线
100
AcDbVertex
100
AcDb2dVertex
 10
-19.41220545178609
 20
904.3106217264503
 30
0.0
  0
VERTEX
  5
5D4
330
5D1
100
AcDbEntity
  8
Make2D$可见线$普通线
100
AcDbVertex
100
AcDb2dVertex
 10
-20.17679574818979
 20
905.8112146745647
 30
0.0
 42
-0.414825531121183
  0
VERTEX
  5
5D5
330
5D1
100
AcDbEntity
  8
Make2D$可见线$普通线
100
AcDbVertex
100
AcDb2dVertex
 10
-20.0895677723936
 20
906.0805579858078
 30
0.0
  0
VERTEX
  5
5D6
330
5D1
100
AcDbEntity
  8
Make2D$可见线$普通线
100
AcDbVertex
100
AcDb2dVertex
 10
-18.5971269109813
 20
906.840982390523
 30
0.0
  0
SEQEND
  5
5D7
330
5D1
100
AcDbEntity
  8
Make2D$可见线$普通线
  0
POLYLINE
  5
5D8
330
1F
100
AcDbEntity
  8
Make2D$可见线$普通线
100
AcDb2dPolyline
 66
     1
 10
0.0
 20
0.0
 30
0.0
  0
VERTEX
  5
5D9
330
5D8
100
AcDbEntity
  8
Make2D$可见线$普通线
100
AcDbVertex
100
AcDb2dVertex
 10
-45.02067562568386
 20
958.9315132390486
 30
0.0
  0
VERTEX
  5
5DA
330
5D8
100
AcDbEntity
  8
Make2D$可见线$普通线
100
AcDbVertex
100
AcDb2dVertex
 10
-45.03789941967885
 20
958.9540454134947
 30
0.0
  0
VERTEX
  5
5DB
330
5D8
100
AcDbEntity
  8
Make2D$可见线$普通线
100
AcDbVertex
100
AcDb2dVertex
 10
-45.0910263113508
 20
958.9296168700665
 30
0.0
  0
VERTEX
  5
5DC
330
5D8
100
AcDbEntity
  8
Make2D$可见线$普通线
100
AcDbVertex
100
AcDb2dVertex
 10
-45.10825776955392
 20
958.9197741442015
 30
0.0
  0
SEQEND
  5
5DD
330
5D8
100
AcDbEntity
  8
Make2D$可见线$普通线
  0
POLYLINE
  5
5DE
330
1F
100
AcDbEntity
  8
Make2D$可见线$普通线
100
AcDb2dPolyline
 66
     1
 10
0.0
 20
0.0
 30
0.0
  0
VERTEX
  5
5DF
330
5DE
100
AcDbEntity
  8
Make2D$可见线$普通线
100
AcDbVertex
100
AcDb2dVertex
 10
-17.23515541174886
 20
904.1679628179652
 30
0.0
  0
VERTEX
  5
5E0
330
5DE
100
AcDbEntity
  8
Make2D$可见线$普通线
100
AcDbVertex
100
AcDb2dVertex
 10
-18.72759133975762
 20
903.4075287308954
 30
0.0
 42
-0.4090884101941349
  0
VERTEX
  5
5E1
330
5DE
100
AcDbEntity
  8
Make2D$可见线$普通线
100
AcDbVertex
100
AcDb2dVertex
 10
-19.01063727337787
 20
903.5224998008396
 30
0.0
  0
VERTEX
  5
5E2
330
5DE
100
AcDbEntity
  8
Make2D$可见线$普通线
100
AcDbVertex
100
AcDb2dVertex
 10
-19.40796680245531
 20
904.3023029087447
 30
0.0
  0
SEQEND
  5
5E3
330
5DE
100
AcDbEntity
  8
Make2D$可见线$普通线
  0
POLYLINE
  5
5E4
330
1F
100
AcDbEntity
  8
Make2D$可见线$普通线
100
AcDb2dPolyline
 66
     1
 10
0.0
 20
0.0
 30
0.0
  0
VERTEX
  5
5E5
330
5E4
100
AcDbEntity
  8
Make2D$可见线$普通线
100
AcDbVertex
100
AcDb2dVertex
 10
-23.41824397197274
 20
912.1729150115287
 30
0.0
  0
VERTEX
  5
5E6
330
5E4
100
AcDbEntity
  8
Make2D$可见线$普通线
100
AcDbVertex
100
AcDb2dVertex
 10
-23.63119270689888
 20
912.5908504358235
 30
0.0
 42
-0.4091463262070831
  0
VERTEX
  5
5E7
330
5E4
100
AcDbEntity
  8
Make2D$可见线$普通线
100
AcDbVertex
100
AcDb2dVertex
 10
-23.55783601695651
 20
912.8874176784078
 30
0.0
  0
VERTEX
  5
5E8
330
5E4
100
AcDbEntity
  8
Make2D$可见线$普通线
100
AcDbVertex
100
AcDb2dVertex
 10
-22.06540008894635
 20
913.6478517654782
 30
0.0
  0
SEQEND
  5
5E9
330
5E4
100
AcDbEntity
  8
Make2D$可见线$普通线
  0
POLYLINE
  5
5EA
330
1F
100
AcDbEntity
  8
Make2D$可见线$普通线
100
AcDb2dPolyline
 66
     1
 10
0.0
 20
0.0
 30
0.0
  0
VERTEX
  5
5EB
330
5EA
100
AcDbEntity
  8
Make2D$可见线$普通线
100
AcDbVertex
100
AcDb2dVertex
 10
2.811029985298358
 20
865.1003462121473
 30
0.0
 42
-0.0459524112948316
  0
VERTEX
  5
5EC
330
5EA
100
AcDbEntity
  8
Make2D$可见线$普通线
100
AcDbVertex
100
AcDb2dVertex
 10
2.901147144531699
 20
864.8683689638439
 30
0.0
  0
VERTEX
  5
5ED
330
5EA
100
AcDbEntity
  8
Make2D$可见线$普通线
100
AcDbVertex
100
AcDb2dVertex
 10
2.813279745225685
 20
864.8206933604447
 30
0.0
  0
VERTEX
  5
5EE
330
5EA
100
AcDbEntity
  8
Make2D$可见线$普通线
100
AcDbVertex
100
AcDb2dVertex
 10
2.722340069973718
 20
864.9991725224592
 30
0.0
  0
SEQEND
  5
5EF
330
5EA
100
AcDbEntity
  8
Make2D$可见线$普通线
  0
POLYLINE
  5
5F0
330
1F
100
AcDbEntity
  8
Make2D$可见线$普通线
100
AcDb2dPolyline
 66
     1
 10
0.0
 20
0.0
 30
0.0
  0
VERTEX
  5
5F1
330
5F0
100
AcDbEntity
  8
Make2D$可见线$普通线
100
AcDbVertex
100
AcDb2dVertex
 10
-20.24943808996857
 20
910.0838256687348
 30
0.0
  0
VERTEX
  5
5F2
330
5F0
100
AcDbEntity
  8
Make2D$可见线$普通线
100
AcDbVertex
100
AcDb2dVertex
 10
-21.74187401798028
 20
909.3233915816636
 30
0.0
 42
-0.4090883755608465
  0
VERTEX
  5
5F3
330
5F0
100
AcDbEntity
  8
Make2D$可见线$普通线
100
AcDbVertex
100
AcDb2dVertex
 10
-22.02491993771221
 20
909.43836262435
 30
0.0
  0
VERTEX
  5
5F4
330
5F0
100
AcDbEntity
  8
Make2D$可见线$普通线
100
AcDbVertex
100
AcDb2dVertex
 10
-22.23786867263824
 20
909.8562980486449
 30
0.0
  0
SEQEND
  5
5F5
330
5F0
100
AcDbEntity
  8
Make2D$可见线$普通线
  0
POLYLINE
  5
5F6
330
1F
100
AcDbEntity
  8
Make2D$可见线$普通线
100
AcDb2dPolyline
 66
     1
 10
0.0
 20
0.0
 30
0.0
  0
VERTEX
  5
5F7
330
5F6
100
AcDbEntity
  8
Make2D$可见线$普通线
100
AcDbVertex
100
AcDb2dVertex
 10
-25.22638933714509
 20
916.1225114333345
 30
0.0
 42
-0.3430385338468369
  0
VERTEX
  5
5F8
330
5F6
100
AcDbEntity
  8
Make2D$可见线$普通线
100
AcDbVertex
100
AcDb2dVertex
 10
-25.4407708082314
 20
916.1423474279868
 30
0.0
  0
VERTEX
  5
5F9
330
5F6
100
AcDbEntity
  8
Make2D$可见线$普通线
100
AcDbVertex
100
AcDb2dVertex
 10
-25.47372697319726
 20
916.207027543569
 30
0.0
  0
SEQEND
  5
5FA
330
5F6
100
AcDbEntity
  8
Make2D$可见线$普通线
  0
POLYLINE
  5
5FB
330
1F
100
AcDbEntity
  8
Make2D$可见线$普通线
100
AcDb2dPolyline
 66
     1
 10
0.0
 20
0.0
 30
0.0
  0
VERTEX
  5
5FC
330
5FB
100
AcDbEntity
  8
Make2D$可见线$普通线
100
AcDbVertex
100
AcDb2dVertex
 10
-26.24814584215559
 20
917.726910151429
 30
0.0
  0
VERTEX
  5
5FD
330
5FB
100
AcDbEntity
  8
Make2D$可见线$普通线
100
AcDbVertex
100
AcDb2dVertex
 10
-26.64547538512166
 20
918.5067132865918
 30
0.0
 42
-0.4091463262062279
  0
VERTEX
  5
5FE
330
5FB
100
AcDbEntity
  8
Make2D$可见线$普通线
100
AcDbVertex
100
AcDb2dVertex
 10
-26.57211869517923
 20
918.8032805291762
 30
0.0
  0
VERTEX
  5
5FF
330
5FB
100
AcDbEntity
  8
Make2D$可见线$普通线
100
AcDbVertex
100
AcDb2dVertex
 10
-25.07968276717095
 20
919.5637146162455
 30
0.0
  0
SEQEND
  5
600
330
5FB
100
AcDbEntity
  8
Make2D$可见线$普通线
  0
POLYLINE
  5
601
330
1F
100
AcDbEntity
  8
Make2D$可见线$普通线
100
AcDb2dPolyline
 66
     1
 10
0.0
 20
0.0
 30
0.0
  0
VERTEX
  5
602
330
601
100
AcDbEntity
  8
Make2D$可见线$普通线
100
AcDbVertex
100
AcDb2dVertex
 10
-23.26372076819293
 20
915.9996885195022
 30
0.0
  0
VERTEX
  5
603
330
601
100
AcDbEntity
  8
Make2D$可见线$普通线
100
AcDbVertex
100
AcDb2dVertex
 10
-24.75615669620299
 20
915.2392544324318
 30
0.0
 42
-0.4090883755602352
  0
VERTEX
  5
604
330
601
100
AcDbEntity
  8
Make2D$可见线$普通线
100
AcDbVertex
100
AcDb2dVertex
 10
-25.03920261593497
 20
915.3542254751181
 30
0.0
  0
VERTEX
  5
605
330
601
100
AcDbEntity
  8
Make2D$可见线$普通线
100
AcDbVertex
100
AcDb2dVertex
 10
-25.43653215890075
 20
916.1340286102811
 30
0.0
  0
SEQEND
  5
606
330
601
100
AcDbEntity
  8
Make2D$可见线$普通线
  0
POLYLINE
  5
607
330
1F
100
AcDbEntity
  8
Make2D$可见线$普通线
100
AcDb2dPolyline
 66
     1
 10
0.0
 20
0.0
 30
0.0
  0
VERTEX
  5
608
330
607
100
AcDbEntity
  8
Make2D$可见线$普通线
100
AcDbVertex
100
AcDb2dVertex
 10
-27.75528718126735
 20
920.6848415768129
 30
0.0
  0
VERTEX
  5
609
330
607
100
AcDbEntity
  8
Make2D$可见线$普通线
100
AcDbVertex
100
AcDb2dVertex
 10
-28.1526167242334
 20
921.4646447119758
 30
0.0
 42
-0.1387175363187936
  0
VERTEX
  5
60A
330
607
100
AcDbEntity
  8
Make2D$可见线$普通线
100
AcDbVertex
100
AcDb2dVertex
 10
-28.18035328840057
 20
921.6012803986087
 30
0.0
  0
SEQEND
  5
60B
330
607
100
AcDbEntity
  8
Make2D$可见线$普通线
  0
POLYLINE
  5
60C
330
1F
100
AcDbEntity
  8
Make2D$可见线$普通线
100
AcDb2dPolyline
 66
     1
 10
0.0
 20
0.0
 30
0.0
  0
VERTEX
  5
60D
330
60C
100
AcDbEntity
  8
Make2D$可见线$普通线
100
AcDbVertex
100
AcDb2dVertex
 10
-26.13283360653527
 20
921.630639517445
 30
0.0
  0
VERTEX
  5
60E
330
60C
100
AcDbEntity
  8
Make2D$可见线$普通线
100
AcDbVertex
100
AcDb2dVertex
 10
-27.62526953454668
 20
920.8702054303739
 30
0.0
 42
0.3494695684860527
  0
VERTEX
  5
60F
330
60C
100
AcDbEntity
  8
Make2D$可见线$普通线
100
AcDbVertex
100
AcDb2dVertex
 10
-27.75104853193668
 20
920.6765227591075
 30
0.0
  0
VERTEX
  5
610
330
60C
100
AcDbEntity
  8
Make2D$可见线$普通线
100
AcDbVertex
100
AcDb2dVertex
 10
-26.94791214734319
 20
919.1002788533706
 30
0.0
 42
0.349559468350493
  0
VERTEX
  5
611
330
60C
100
AcDbEntity
  8
Make2D$可见线$普通线
100
AcDbVertex
100
AcDb2dVertex
 10
-26.71728853505859
 20
919.0881923820017
 30
0.0
  0
VERTEX
  5
612
330
60C
100
AcDbEntity
  8
Make2D$可见线$普通线
100
AcDbVertex
100
AcDb2dVertex
 10
-25.22485260705014
 20
919.8486264690714
 30
0.0
  0
SEQEND
  5
613
330
60C
100
AcDbEntity
  8
Make2D$可见线$普通线
  0
ARC
  5
614
330
1F
100
AcDbEntity
  8
Make2D$可见线$普通线
100
AcDbCircle
 10
-15.99998061252929
 20
857.9653479505578
 30
0.0
 40
19.99999949864485
100
AcDbArc
 50
0.4202020105880795
 51
23.38651809242749
  0
POLYLINE
  5
615
330
1F
100
AcDbEntity
  8
Make2D$可见线$普通线
100
AcDb2dPolyline
 66
     1
 10
0.0
 20
0.0
 30
0.0
  0
VERTEX
  5
616
330
615
100
AcDbEntity
  8
Make2D$可见线$普通线
100
AcDbVertex
100
AcDb2dVertex
 10
-29.44680932841907
 20
924.004640713065
 30
0.0
  0
VERTEX
  5
617
330
615
100
AcDbEntity
  8
Make2D$可见线$普通线
100
AcDbVertex
100
AcDb2dVertex
 10
-29.6597580633452
 20
924.4225761373597
 30
0.0
 42
-0.4091463262051692
  0
VERTEX
  5
618
330
615
100
AcDbEntity
  8
Make2D$可见线$普通线
100
AcDbVertex
100
AcDb2dVertex
 10
-29.58640137340271
 20
924.719143379944
 30
0.0
  0
VERTEX
  5
619
330
615
100
AcDbEntity
  8
Make2D$可见线$普通线
100
AcDbVertex
100
AcDb2dVertex
 10
-28.0939654453945
 20
925.4795774670133
 30
0.0
  0
SEQEND
  5
61A
330
615
100
AcDbEntity
  8
Make2D$可见线$普通线
  0
POLYLINE
  5
61B
330
1F
100
AcDbEntity
  8
Make2D$可见线$普通线
100
AcDb2dPolyline
 66
     1
 10
0.0
 20
0.0
 30
0.0
  0
VERTEX
  5
61C
330
61B
100
AcDbEntity
  8
Make2D$可见线$普通线
100
AcDbVertex
100
AcDb2dVertex
 10
-14.2208727335269
 20
898.2520999671963
 30
0.0
  0
VERTEX
  5
61D
330
61B
100
AcDbEntity
  8
Make2D$可见线$普通线
100
AcDbVertex
100
AcDb2dVertex
 10
-15.71330866153568
 20
897.4916658801267
 30
0.0
 42
-0.4090883755627112
  0
VERTEX
  5
61E
330
61B
100
AcDbEntity
  8
Make2D$可见线$普通线
100
AcDbVertex
100
AcDb2dVertex
 10
-15.99635458126761
 20
897.6066369228131
 30
0.0
  0
VERTEX
  5
61F
330
61B
100
AcDbEntity
  8
Make2D$可见线$普通线
100
AcDbVertex
100
AcDb2dVertex
 10
-16.20930331619368
 20
898.0245723471082
 30
0.0
  0
SEQEND
  5
620
330
61B
100
AcDbEntity
  8
Make2D$可见线$普通线
  0
ENDSEC
  0
SECTION
  2
OBJECTS
  0
DICTIONARY
  5
C
330
0
100
AcDbDictionary
281
     1
  3
ACAD_GROUP
350
D
  3
ACAD_LAYOUT
350
1A
  3
ACAD_MATERIAL
350
3B
  3
ACAD_MLEADERSTYLE
350
64B
  3
ACAD_MLINESTYLE
350
17
  3
ACAD_PLOTSETTINGS
350
19
  3
ACAD_PLOTSTYLENAME
350
E
  3
ACAD_SCALELIST
350
3F
  3
ACAD_TABLESTYLE
350
64A
  3
ACAD_VISUALSTYLE
350
2A
  3
AcDbVariableDictionary
350
621
  0
DICTIONARY
  5
D
102
{ACAD_REACTORS
330
C
102
}
330
C
100
AcDbDictionary
281
     1
  0
DICTIONARY
  5
1A
102
{ACAD_REACTORS
330
C
102
}
330
C
100
AcDbDictionary
281
     1
  3
Layout1
350
1E
  3
Layout2
350
26
  3
Model
350
22
  0
DICTIONARY
  5
3B
102
{ACAD_REACTORS
330
C
102
}
330
C
100
AcDbDictionary
281
     1
  3
ByBlock
350
3D
  3
ByLayer
350
3C
  3
Global
350
3E
  0
DICTIONARY
  5
64B
102
{ACAD_REACTORS
330
C
102
}
330
C
100
AcDbDictionary
281
     1
  0
DICTIONARY
  5
17
102
{ACAD_REACTORS
330
C
102
}
330
C
100
AcDbDictionary
281
     1
  3
Standard
350
18
  0
DICTIONARY
  5
19
102
{ACAD_REACTORS
330
C
102
}
330
C
100
AcDbDictionary
281
     1
  0
ACDBDICTIONARYWDFLT
  5
E
102
{ACAD_REACTORS
330
C
102
}
330
C
100
AcDbDictionary
281
     1
  3
Normal
350
F
100
AcDbDictionaryWithDefault
340
F
  0
DICTIONARY
  5
3F
102
{ACAD_REACTORS
330
C
102
}
330
C
100
AcDbDictionary
281
     1
  3
A0
350
40
  3
A1
350
41
  3
A2
350
42
  3
A3
350
43
  3
A4
350
44
  3
A5
350
45
  3
A6
350
46
  3
A7
350
47
  3
A8
350
48
  3
A9
350
49
  3
B0
350
4A
  3
B1
350
4B
  3
B2
350
4C
  3
B3
350
4D
  3
B4
350
4E
  3
B5
350
4F
  3
B6
350
50
  3
B7
350
51
  3
B8
350
52
  3
B9
350
53
  3
C0
350
54
  3
C1
350
55
  3
C2
350
56
  3
C3
350
57
  3
C4
350
58
  3
C5
350
59
  3
C6
350
5A
  3
C7
350
5B
  3
C8
350
5C
  3
C9
350
5D
  3
D0
350
5E
  3
D1
350
5F
  3
D2
350
60
  0
DICTIONARY
  5
64A
102
{ACAD_REACTORS
330
C
102
}
330
C
100
AcDbDictionary
281
     1
  0
DICTIONARY
  5
2A
102
{ACAD_REACTORS
330
C
102
}
330
C
100
AcDbDictionary
281
     1
  3
2dWireframe
350
2F
  3
3D Hidden
350
31
  3
3dWireframe
350
30
  3
Basic
350
32
  3
Brighten
350
36
  3
ColorChange
350
3A
  3
Conceptual
350
34
  3
Dim
350
35
  3
Facepattern
350
39
  3
Flat
350
2B
  3
FlatWithEdges
350
2C
  3
Gouraud
350
2D
  3
GouraudWithEdges
350
2E
  3
Linepattern
350
38
  3
Realistic
350
33
  3
Thicken
350
37
  0
DICTIONARY
  5
621
102
{ACAD_REACTORS
330
C
102
}
330
C
100
AcDbDictionary
281
     1
  3
CANNOSCALE
350
622
  3
MSLTSCALE
350
623
  0
LAYOUT
  5
1E
102
{ACAD_REACTORS
330
1A
102
}
330
1A
100
AcDbPlotSettings
  1

  2
none_device
  4

  6

 40
0.0
 41
0.0
 42
0.0
 43
0.0
 44
0.0
 45
0.0
 46
0.0
 47
0.0
 48
0.0
 49
0.0
140
0.0
141
0.0
142
1.0
143
1.0
 70
   688
 72
     0
 73
     0
 74
     5
  7

 75
    16
 76
     0
 77
     2
 78
   300
147
1.0
148
0.0
149
0.0
100
AcDbLayout
  1
Layout1
 70
     1
 71
     1
 10
0.0
 20
0.0
 11
12.0
 21
9.0
 12
0.0
 22
0.0
 32
0.0
 14
1.000000000000000E+20
 24
1.000000000000000E+20
 34
1.000000000000000E+20
 15
-1.000000000000000E+20
 25
-1.000000000000000E+20
 35
-1.000000000000000E+20
146
0.0
 13
0.0
 23
0.0
 33
0.0
 16
1.0
 26
0.0
 36
0.0
 17
0.0
 27
1.0
 37
0.0
 76
     0
330
1B
  0
LAYOUT
  5
26
102
{ACAD_REACTORS
330
1A
102
}
330
1A
100
AcDbPlotSettings
  1

  2
none_device
  4

  6

 40
0.0
 41
0.0
 42
0.0
 43
0.0
 44
0.0
 45
0.0
 46
0.0
 47
0.0
 48
0.0
 49
0.0
140
0.0
141
0.0
142
1.0
143
1.0
 70
   688
 72
     0
 73
     0
 74
     5
  7

 75
    16
 76
     0
 77
     2
 78
   300
147
1.0
148
0.0
149
0.0
100
AcDbLayout
  1
Layout2
 70
     1
 71
     2
 10
0.0
 20
0.0
 11
0.0
 21
0.0
 12
0.0
 22
0.0
 32
0.0
 14
0.0
 24
0.0
 34
0.0
 15
0.0
 25
0.0
 35
0.0
146
0.0
 13
0.0
 23
0.0
 33
0.0
 16
1.0
 26
0.0
 36
0.0
 17
0.0
 27
1.0
 37
0.0
 76
     0
330
23
  0
LAYOUT
  5
22
102
{ACAD_REACTORS
330
1A
102
}
330
1A
100
AcDbPlotSettings
  1

  2
none_device
  4
Letter_(8.50_x_11.00_Inches)
  6

 40
6.35
 41
6.35
 42
6.35000508
 43
6.35000508
 44
215.9
 45
279.4
 46
0.0
 47
0.0
 48
0.0
 49
0.0
140
0.0
141
0.0
142
1.0
143
1.0
 70
  1712
 72
     0
 73
     0
 74
     0
  7

 75
     0
 76
     0
 77
     2
 78
   300
147
1.0
148
0.0
149
0.0
100
AcDbLayout
  1
Model
 70
     1
 71
     0
 10
0.0
 20
0.0
 11
12.0
 21
9.0
 12
0.0
 22
0.0
 32
0.0
 14
-45.94810599180378
 24
397.1148840318078
 34
0.0
 15
57.62671757398407
 25
970.8497799333614
 35
0.0
146
0.0
 13
0.0
 23
0.0
 33
0.0
 16
1.0
 26
0.0
 36
0.0
 17
0.0
 27
1.0
 37
0.0
 76
     0
330
1F
331
29
  0
MATERIAL
  5
3D
102
{ACAD_REACTORS
330
3B
102
}
102
{ACAD_XDICTIONARY
360
646
102
}
330
3B
100
AcDbMaterial
  1
ByBlock
  0
MATERIAL
  5
3C
102
{ACAD_REACTORS
330
3B
102
}
102
{ACAD_XDICTIONARY
360
644
102
}
330
3B
100
AcDbMaterial
  1
ByLayer
  0
MATERIAL
  5
3E
102
{ACAD_REACTORS
330
3B
102
}
102
{ACAD_XDICTIONARY
360
648
102
}
330
3B
100
AcDbMaterial
  1
Global
  0
MLINESTYLE
  5
18
102
{ACAD_REACTORS
330
17
102
}
330
17
100
AcDbMlineStyle
  2
Standard
 70
     0
  3

 62
   256
 51
90.0
 52
90.0
 71
     2
 49
0.5
 62
   256
  6
BYLAYER
 49
-0.5
 62
   256
  6
BYLAYER
  0
ACDBPLACEHOLDER
  5
F
102
{ACAD_REACTORS
330
E
102
}
330
E
  0
SCALE
  5
40
102
{ACAD_REACTORS
330
3F
102
}
330
3F
100
AcDbScale
 70
     0
300
1:1
140
1.0
141
1.0
290
     1
  0
SCALE
  5
41
102
{ACAD_REACTORS
330
3F
102
}
330
3F
100
AcDbScale
 70
     0
300
1:2
140
1.0
141
2.0
290
     0
  0
SCALE
  5
42
102
{ACAD_REACTORS
330
3F
102
}
330
3F
100
AcDbScale
 70
     0
300
1:4
140
1.0
141
4.0
290
     0
  0
SCALE
  5
43
102
{ACAD_REACTORS
330
3F
102
}
330
3F
100
AcDbScale
 70
     0
300
1:5
140
1.0
141
5.0
290
     0
  0
SCALE
  5
44
102
{ACAD_REACTORS
330
3F
102
}
330
3F
100
AcDbScale
 70
     0
300
1:8
140
1.0
141
8.0
290
     0
  0
SCALE
  5
45
102
{ACAD_REACTORS
330
3F
102
}
330
3F
100
AcDbScale
 70
     0
300
1:10
140
1.0
141
10.0
290
     0
  0
SCALE
  5
46
102
{ACAD_REACTORS
330
3F
102
}
330
3F
100
AcDbScale
 70
     0
300
1:16
140
1.0
141
16.0
290
     0
  0
SCALE
  5
47
102
{ACAD_REACTORS
330
3F
102
}
330
3F
100
AcDbScale
 70
     0
300
1:20
140
1.0
141
20.0
290
     0
  0
SCALE
  5
48
102
{ACAD_REACTORS
330
3F
102
}
330
3F
100
AcDbScale
 70
     0
300
1:30
140
1.0
141
30.0
290
     0
  0
SCALE
  5
49
102
{ACAD_REACTORS
330
3F
102
}
330
3F
100
AcDbScale
 70
     0
300
1:40
140
1.0
141
40.0
290
     0
  0
SCALE
  5
4A
102
{ACAD_REACTORS
330
3F
102
}
330
3F
100
AcDbScale
 70
     0
300
1:50
140
1.0
141
50.0
290
     0
  0
SCALE
  5
4B
102
{ACAD_REACTORS
330
3F
102
}
330
3F
100
AcDbScale
 70
     0
300
1:100
140
1.0
141
100.0
290
     0
  0
SCALE
  5
4C
102
{ACAD_REACTORS
330
3F
102
}
330
3F
100
AcDbScale
 70
     0
300
2:1
140
2.0
141
1.0
290
     0
  0
SCALE
  5
4D
102
{ACAD_REACTORS
330
3F
102
}
330
3F
100
AcDbScale
 70
     0
300
4:1
140
4.0
141
1.0
290
     0
  0
SCALE
  5
4E
102
{ACAD_REACTORS
330
3F
102
}
330
3F
100
AcDbScale
 70
     0
300
8:1
140
8.0
141
1.0
290
     0
  0
SCALE
  5
4F
102
{ACAD_REACTORS
330
3F
102
}
330
3F
100
AcDbScale
 70
     0
300
10:1
140
10.0
141
1.0
290
     0
  0
SCALE
  5
50
102
{ACAD_REACTORS
330
3F
102
}
330
3F
100
AcDbScale
 70
     0
300
100:1
140
100.0
141
1.0
290
     0
  0
SCALE
  5
51
102
{ACAD_REACTORS
330
3F
102
}
330
3F
100
AcDbScale
 70
     0
300
1/128" = 1'-0"
140
0.0078125
141
12.0
290
     0
  0
SCALE
  5
52
102
{ACAD_REACTORS
330
3F
102
}
330
3F
100
AcDbScale
 70
     0
300
1/64" = 1'-0"
140
0.015625
141
12.0
290
     0
  0
SCALE
  5
53
102
{ACAD_REACTORS
330
3F
102
}
330
3F
100
AcDbScale
 70
     0
300
1/32" = 1'-0"
140
0.03125
141
12.0
290
     0
  0
SCALE
  5
54
102
{ACAD_REACTORS
330
3F
102
}
330
3F
100
AcDbScale
 70
     0
300
1/16" = 1'-0"
140
0.0625
141
12.0
290
     0
  0
SCALE
  5
55
102
{ACAD_REACTORS
330
3F
102
}
330
3F
100
AcDbScale
 70
     0
300
3/32" = 1'-0"
140
0.09375
141
12.0
290
     0
  0
SCALE
  5
56
102
{ACAD_REACTORS
330
3F
102
}
330
3F
100
AcDbScale
 70
     0
300
1/8" = 1'-0"
140
0.125
141
12.0
290
     0
  0
SCALE
  5
57
102
{ACAD_REACTORS
330
3F
102
}
330
3F
100
AcDbScale
 70
     0
300
3/16" = 1'-0"
140
0.1875
141
12.0
290
     0
  0
SCALE
  5
58
102
{ACAD_REACTORS
330
3F
102
}
330
3F
100
AcDbScale
 70
     0
300
1/4" = 1'-0"
140
0.25
141
12.0
290
     0
  0
SCALE
  5
59
102
{ACAD_REACTORS
330
3F
102
}
330
3F
100
AcDbScale
 70
     0
300
3/8" = 1'-0"
140
0.375
141
12.0
290
     0
  0
SCALE
  5
5A
102
{ACAD_REACTORS
330
3F
102
}
330
3F
100
AcDbScale
 70
     0
300
1/2" = 1'-0"
140
0.5
141
12.0
290
     0
  0
SCALE
  5
5B
102
{ACAD_REACTORS
330
3F
102
}
330
3F
100
AcDbScale
 70
     0
300
3/4" = 1'-0"
140
0.75
141
12.0
290
     0
  0
SCALE
  5
5C
102
{ACAD_REACTORS
330
3F
102
}
330
3F
100
AcDbScale
 70
     0
300
1" = 1'-0"
140
1.0
141
12.0
290
     0
  0
SCALE
  5
5D
102
{ACAD_REACTORS
330
3F
102
}
330
3F
100
AcDbScale
 70
     0
300
1-1/2" = 1'-0"
140
1.5
141
12.0
290
     0
  0
SCALE
  5
5E
102
{ACAD_REACTORS
330
3F
102
}
330
3F
100
AcDbScale
 70
     0
300
3" = 1'-0"
140
3.0
141
12.0
290
     0
  0
SCALE
  5
5F
102
{ACAD_REACTORS
330
3F
102
}
330
3F
100
AcDbScale
 70
     0
300
6" = 1'-0"
140
6.0
141
12.0
290
     0
  0
SCALE
  5
60
102
{ACAD_REACTORS
330
3F
102
}
330
3F
100
AcDbScale
 70
     0
300
1'-0" = 1'-0"
140
12.0
141
12.0
290
     0
  0
VISUALSTYLE
  5
2F
102
{ACAD_REACTORS
330
2A
102
}
102
{ACAD_XDICTIONARY
360
62C
102
}
330
2A
100
AcDbVisualStyle
  2
2dWireframe
 70
     4
 71
     0
 72
     2
 73
     0
 90
        0
 40
0.6
 41
30.0
 62
     5
 63
     7
421
 16777215
 74
     1
 91
        4
 64
     7
 65
   257
 75
     1
175
     1
 42
1.0
 92
        0
 66
   257
 43
1.0
 76
     1
 77
     6
 78
     2
 67
     7
 79
     5
170
     0
171
     0
290
     0
174
     0
 93
        1
 44
0.0
173
     0
291
     0
 45
0.0
1001
ACAD
1000
AcDbSavedByObjectVersion
1070
     0
  0
VISUALSTYLE
  5
31
102
{ACAD_REACTORS
330
2A
102
}
102
{ACAD_XDICTIONARY
360
630
102
}
330
2A
100
AcDbVisualStyle
  2
3D Hidden
 70
     6
 71
     1
 72
     2
 73
     2
 90
        0
 40
0.6
 41
30.0
 62
     5
 63
     7
421
 16777215
 74
     2
 91
        2
 64
     7
 65
   257
 75
     2
175
     1
 42
40.0
 92
        0
 66
   257
 43
1.0
 76
     1
 77
     6
 78
     2
 67
     7
 79
     3
170
     0
171
     0
290
     0
174
     0
 93
        1
 44
0.0
173
     0
291
     0
 45
0.0
1001
ACAD
1000
AcDbSavedByObjectVersion
1070
     0
  0
VISUALSTYLE
  5
30
102
{ACAD_REACTORS
330
2A
102
}
102
{ACAD_XDICTIONARY
360
62E
102
}
330
2A
100
AcDbVisualStyle
  2
3dWireframe
 70
     5
 71
     0
 72
     2
 73
     0
 90
        0
 40
0.6
 41
30.0
 62
     5
 63
     7
421
 16777215
 74
     1
 91
        4
 64
     7
 65
   257
 75
     1
175
     1
 42
1.0
 92
        0
 66
   257
 43
1.0
 76
     1
 77
     6
 78
     2
 67
     7
 79
     5
170
     0
171
     0
290
     0
174
     0
 93
        1
 44
0.0
173
     0
291
     0
 45
0.0
1001
ACAD
1000
AcDbSavedByObjectVersion
1070
     0
  0
VISUALSTYLE
  5
32
102
{ACAD_REACTORS
330
2A
102
}
102
{ACAD_XDICTIONARY
360
632
102
}
330
2A
100
AcDbVisualStyle
  2
Basic
 70
     7
 71
     1
 72
     0
 73
     1
 90
        0
 40
0.6
 41
30.0
 62
     5
 63
     7
421
 16777215
 74
     0
 91
        4
 64
     7
 65
   257
 75
     1
175
     1
 42
1.0
 92
        8
 66
     7
 43
1.0
 76
     1
 77
     6
 78
     2
 67
     7
 79
     5
170
     0
171
     0
290
     0
174
     0
 93
        1
 44
0.0
173
     0
291
     1
 45
0.0
1001
ACAD
1000
AcDbSavedByObjectVersion
1070
     0
  0
VISUALSTYLE
  5
36
102
{ACAD_REACTORS
330
2A
102
}
102
{ACAD_XDICTIONARY
360
63A
102
}
330
2A
100
AcDbVisualStyle
  2
Brighten
 70
    12
 71
     2
 72
     2
 73
     0
 90
        0
 40
0.6
 41
30.0
 62
     5
 63
     7
421
 16777215
 74
     1
 91
        4
 64
     7
 65
   257
 75
     1
175
     1
 42
1.0
 92
        8
 66
     7
 43
1.0
 76
     1
 77
     6
 78
     2
 67
     7
 79
     5
170
     0
171
     0
290
     0
174
     0
 93
        1
 44
50.0
173
     0
291
     1
 45
0.0
1001
ACAD
1000
AcDbSavedByObjectVersion
1070
     0
  0
VISUALSTYLE
  5
3A
102
{ACAD_REACTORS
330
2A
102
}
102
{ACAD_XDICTIONARY
360
642
102
}
330
2A
100
AcDbVisualStyle
  2
ColorChange
 70
    16
 71
     2
 72
     2
 73
     3
 90
        0
 40
0.6
 41
30.0
 62
     5
 63
     8
421
  8421504
 74
     1
 91
        4
 64
     7
 65
   257
 75
     1
175
     1
 42
1.0
 92
        8
 66
     8
424
  8421504
 43
1.0
 76
     1
 77
     6
 78
     2
 67
     7
 79
     5
170
     0
171
     0
290
     0
174
     0
 93
        1
 44
0.0
173
     0
291
     1
 45
0.0
1001
ACAD
1000
AcDbSavedByObjectVersion
1070
     0
  0
VISUALSTYLE
  5
34
102
{ACAD_REACTORS
330
2A
102
}
102
{ACAD_XDICTIONARY
360
636
102
}
330
2A
100
AcDbVisualStyle
  2
Conceptual
 70
     9
 71
     3
 72
     2
 73
     0
 90
        0
 40
0.6
 41
30.0
 62
     5
 63
     7
421
 16777215
 74
     2
 91
        2
 64
     7
 65
   257
 75
     1
175
     1
 42
40.0
 92
        8
 66
     7
 43
1.0
 76
     1
 77
     6
 78
     2
 67
     7
 79
     3
170
     0
171
     0
290
     0
174
     0
 93
        1
 44
0.0
173
     0
291
     0
 45
0.0
1001
ACAD
1000
AcDbSavedByObjectVersion
1070
     0
  0
VISUALSTYLE
  5
35
102
{ACAD_REACTORS
330
2A
102
}
102
{ACAD_XDICTIONARY
360
638
102
}
330
2A
100
AcDbVisualStyle
  2
Dim
 70
    11
 71
     2
 72
     2
 73
     0
 90
        0
 40
0.6
 41
30.0
 62
     5
 63
     7
421
 16777215
 74
     1
 91
        4
 64
     7
 65
   257
 75
     1
175
     1
 42
1.0
 92
        8
 66
     7
 43
1.0
 76
     1
 77
     6
 78
     2
 67
     7
 79
     5
170
     0
171
     0
290
     0
174
     0
 93
        1
 44
-50.0
173
     0
291
     1
 45
0.0
1001
ACAD
1000
AcDbSavedByObjectVersion
1070
     0
  0
VISUALSTYLE
  5
39
102
{ACAD_REACTORS
330
2A
102
}
102
{ACAD_XDICTIONARY
360
640
102
}
330
2A
100
AcDbVisualStyle
  2
Facepattern
 70
    15
 71
     2
 72
     2
 73
     0
 90
        0
 40
0.6
 41
30.0
 62
     5
 63
     7
421
 16777215
 74
     1
 91
        4
 64
     7
 65
   257
 75
     1
175
     1
 42
1.0
 92
        8
 66
     7
 43
1.0
 76
     1
 77
     6
 78
     2
 67
     7
 79
     5
170
     0
171
     0
290
     0
174
     0
 93
        1
 44
0.0
173
     0
291
     1
 45
0.0
1001
ACAD
1000
AcDbSavedByObjectVersion
1070
     0
  0
VISUALSTYLE
  5
2B
102
{ACAD_REACTORS
330
2A
102
}
102
{ACAD_XDICTIONARY
360
624
102
}
330
2A
100
AcDbVisualStyle
  2
Flat
 70
     0
 71
     2
 72
     1
 73
     1
 90
        2
 40
0.6
 41
30.0
 62
     5
 63
     7
421
 16777215
 74
     0
 91
        4
 64
     7
 65
   257
 75
     1
175
     1
 42
1.0
 92
        8
 66
     7
 43
1.0
 76
     1
 77
     6
 78
     2
 67
     7
 79
     5
170
     0
171
     0
290
     0
174
     0
 93
       13
 44
0.0
173
     0
291
     1
 45
0.0
1001
ACAD
1000
AcDbSavedByObjectVersion
1070
     0
  0
VISUALSTYLE
  5
2C
102
{ACAD_REACTORS
330
2A
102
}
102
{ACAD_XDICTIONARY
360
626
102
}
330
2A
100
AcDbVisualStyle
  2
FlatWithEdges
 70
     1
 71
     2
 72
     1
 73
     1
 90
        2
 40
0.6
 41
30.0
 62
     5
 63
     7
421
 16777215
 74
     1
 91
        4
 64
     7
 65
   257
 75
     1
175
     1
 42
1.0
 92
        0
 66
   257
 43
1.0
 76
     1
 77
     6
 78
     2
 67
     7
 79
     5
170
     0
171
     0
290
     0
174
     0
 93
       13
 44
0.0
173
     0
291
     1
 45
0.0
1001
ACAD
1000
AcDbSavedByObjectVersion
1070
     0
  0
VISUALSTYLE
  5
2D
102
{ACAD_REACTORS
330
2A
102
}
102
{ACAD_XDICTIONARY
360
628
102
}
330
2A
100
AcDbVisualStyle
  2
Gouraud
 70
     2
 71
     2
 72
     2
 73
     1
 90
        2
 40
0.6
 41
30.0
 62
     5
 63
     7
421
 16777215
 74
     0
 91
        4
 64
     7
 65
   257
 75
     1
175
     1
 42
1.0
 92
        0
 66
     7
 43
1.0
 76
     1
 77
     6
 78
     2
 67
     7
 79
     5
170
     0
171
     0
290
     0
174
     0
 93
       13
 44
0.0
173
     0
291
     1
 45
0.0
1001
ACAD
1000
AcDbSavedByObjectVersion
1070
     0
  0
VISUALSTYLE
  5
2E
102
{ACAD_REACTORS
330
2A
102
}
102
{ACAD_XDICTIONARY
360
62A
102
}
330
2A
100
AcDbVisualStyle
  2
GouraudWithEdges
 70
     3
 71
     2
 72
     2
 73
     1
 90
        2
 40
0.6
 41
30.0
 62
     5
 63
     7
421
 16777215
 74
     1
 91
        4
 64
     7
 65
   257
 75
     1
175
     1
 42
1.0
 92
        0
 66
   257
 43
1.0
 76
     1
 77
     6
 78
     2
 67
     7
 79
     5
170
     0
171
     0
290
     0
174
     0
 93
       13
 44
0.0
173
     0
291
     1
 45
0.0
1001
ACAD
1000
AcDbSavedByObjectVersion
1070
     0
  0
VISUALSTYLE
  5
38
102
{ACAD_REACTORS
330
2A
102
}
102
{ACAD_XDICTIONARY
360
63E
102
}
330
2A
100
AcDbVisualStyle
  2
Linepattern
 70
    14
 71
     2
 72
     2
 73
     0
 90
        0
 40
0.6
 41
30.0
 62
     5
 63
     7
421
 16777215
 74
     1
 91
        4
 64
     7
 65
   257
 75
     7
175
     7
 42
1.0
 92
        8
 66
     7
 43
1.0
 76
     1
 77
     6
 78
     2
 67
     7
 79
     5
170
     0
171
     0
290
     0
174
     0
 93
        1
 44
0.0
173
     0
291
     1
 45
0.0
1001
ACAD
1000
AcDbSavedByObjectVersion
1070
     0
  0
VISUALSTYLE
  5
33
102
{ACAD_REACTORS
330
2A
102
}
102
{ACAD_XDICTIONARY
360
634
102
}
330
2A
100
AcDbVisualStyle
  2
Realistic
 70
     8
 71
     2
 72
     3
 73
     0
 90
        2
 40
0.6
 41
30.0
 62
     5
 63
     7
421
 16777215
 74
     0
 91
        0
 64
     7
 65
   257
 75
     1
175
     1
 42
1.0
 92
        8
 66
   257
 43
1.0
 76
     1
 77
     6
 78
     2
 67
     7
 79
     3
170
     0
171
     0
290
     0
174
     0
 93
       13
 44
0.0
173
     0
291
     0
 45
0.0
1001
ACAD
1000
AcDbSavedByObjectVersion
1070
     0
  0
VISUALSTYLE
  5
37
102
{ACAD_REACTORS
330
2A
102
}
102
{ACAD_XDICTIONARY
360
63C
102
}
330
2A
100
AcDbVisualStyle
  2
Thicken
 70
    13
 71
     2
 72
     2
 73
     0
 90
        0
 40
0.6
 41
30.0
 62
     5
 63
     7
421
 16777215
 74
     1
 91
        4
 64
     7
 65
   257
 75
     1
175
     1
 42
1.0
 92
       12
 66
     7
 43
1.0
 76
     1
 77
     6
 78
     2
 67
     7
 79
     5
170
     0
171
     0
290
     0
174
     0
 93
        1
 44
0.0
173
     0
291
     1
 45
0.0
1001
ACAD
1000
AcDbSavedByObjectVersion
1070
     0
  0
DICTIONARYVAR
  5
622
102
{ACAD_REACTORS
330
621
102
}
330
621
100
DictionaryVariables
280
     0
  1
1:1
  0
DICTIONARYVAR
  5
623
102
{ACAD_REACTORS
330
621
102
}
330
621
100
DictionaryVariables
280
     0
  1
1
  0
DICTIONARY
  5
646
330
3D
100
AcDbDictionary
280
     1
281
     1
  3
ACAD_XREC_ROUNDTRIP
360
647
  0
DICTIONARY
  5
644
330
3C
100
AcDbDictionary
280
     1
281
     1
  3
ACAD_XREC_ROUNDTRIP
360
645
  0
DICTIONARY
  5
648
330
3E
100
AcDbDictionary
280
     1
281
     1
  3
ACAD_XREC_ROUNDTRIP
360
649
  0
DICTIONARY
  5
62C
330
2F
100
AcDbDictionary
280
     1
281
     1
  3
ACAD_XREC_ROUNDTRIP
360
62D
  0
DICTIONARY
  5
630
330
31
100
AcDbDictionary
280
     1
281
     1
  3
ACAD_XREC_ROUNDTRIP
360
631
  0
DICTIONARY
  5
62E
330
30
100
AcDbDictionary
280
     1
281
     1
  3
ACAD_XREC_ROUNDTRIP
360
62F
  0
DICTIONARY
  5
632
330
32
100
AcDbDictionary
280
     1
281
     1
  3
ACAD_XREC_ROUNDTRIP
360
633
  0
DICTIONARY
  5
63A
330
36
100
AcDbDictionary
280
     1
281
     1
  3
ACAD_XREC_ROUNDTRIP
360
63B
  0
DICTIONARY
  5
642
330
3A
100
AcDbDictionary
280
     1
281
     1
  3
ACAD_XREC_ROUNDTRIP
360
643
  0
DICTIONARY
  5
636
330
34
100
AcDbDictionary
280
     1
281
     1
  3
ACAD_XREC_ROUNDTRIP
360
637
  0
DICTIONARY
  5
638
330
35
100
AcDbDictionary
280
     1
281
     1
  3
ACAD_XREC_ROUNDTRIP
360
639
  0
DICTIONARY
  5
640
330
39
100
AcDbDictionary
280
     1
281
     1
  3
ACAD_XREC_ROUNDTRIP
360
641
  0
DICTIONARY
  5
624
330
2B
100
AcDbDictionary
280
     1
281
     1
  3
ACAD_XREC_ROUNDTRIP
360
625
  0
DICTIONARY
  5
626
330
2C
100
AcDbDictionary
280
     1
281
     1
  3
ACAD_XREC_ROUNDTRIP
360
627
  0
DICTIONARY
  5
628
330
2D
100
AcDbDictionary
280
     1
281
     1
  3
ACAD_XREC_ROUNDTRIP
360
629
  0
DICTIONARY
  5
62A
330
2E
100
AcDbDictionary
280
     1
281
     1
  3
ACAD_XREC_ROUNDTRIP
360
62B
  0
DICTIONARY
  5
63E
330
38
100
AcDbDictionary
280
     1
281
     1
  3
ACAD_XREC_ROUNDTRIP
360
63F
  0
DICTIONARY
  5
634
330
33
100
AcDbDictionary
280
     1
281
     1
  3
ACAD_XREC_ROUNDTRIP
360
635
  0
DICTIONARY
  5
63C
330
37
100
AcDbDictionary
280
     1
281
     1
  3
ACAD_XREC_ROUNDTRIP
360
63D
  0
XRECORD
  5
647
102
{ACAD_REACTORS
330
646
102
}
330
646
100
AcDbXrecord
280
     1
102
MATERIAL
148
0.0
149
0.0
149
0.0
 93
        0
 94
      127
282
     0
 72
     1
 77
     1
171
     1
175
     1
179
     1
273
     0
  0
XRECORD
  5
645
102
{ACAD_REACTORS
330
644
102
}
330
644
100
AcDbXrecord
280
     1
102
MATERIAL
148
0.0
149
0.0
149
0.0
 93
        0
 94
      127
282
     0
 72
     1
 77
     1
171
     1
175
     1
179
     1
273
     0
  0
XRECORD
  5
649
102
{ACAD_REACTORS
330
648
102
}
330
648
100
AcDbXrecord
280
     1
102
MATERIAL
148
0.0
149
0.0
149
0.0
 93
        0
 94
      127
282
     0
 72
     1
 77
     1
171
     1
175
     1
179
     1
273
     0
  0
XRECORD
  5
62D
102
{ACAD_REACTORS
330
62C
102
}
330
62C
100
AcDbXrecord
280
     1
102
RTVSPropertyOp0
 70
     1
102
RTVSPropertyOp1
 70
     1
102
RTVSPropertyOp2
 70
     1
102
RTVSPropertyOp3
 70
     1
102
RTVSPropertyOp4
 70
     1
102
RTVSPropertyOp5
 70
     1
102
RTVSPropertyOp6
 70
     1
102
RTVSPropertyOp7
 70
     1
102
RTVSPropertyOp8
 70
     1
102
RTVSPropertyOp9
 70
     1
102
RTVSPropertyOp10
 70
     1
102
RTVSPropertyOp11
 70
     1
102
RTVSPropertyOp12
 70
     1
102
RTVSPropertyOp13
 70
     1
102
RTVSPropertyOp14
 70
     1
102
RTVSPropertyOp15
 70
     1
102
RTVSPropertyOp16
 70
     1
102
RTVSPropertyOp17
 70
     1
102
RTVSPropertyOp18
 70
     1
102
RTVSPropertyOp19
 70
     1
102
RTVSPropertyOp20
 70
     1
102
RTVSPropertyOp21
 70
     1
102
RTVSPropertyOp22
 70
     1
102
RTVSPropertyOp23
 70
     1
102
RTVSPropertyOp24
 70
     1
102
RTVSPropertyOp25
 70
     1
102
RTVSPropertyOp26
 70
     1
102
RTVSPropertyOp27
 70
     1
102
RTVSPropertyOp28
 70
     1
102
RTVSPropertyOp29
 70
     1
102
RTVSPropertyOp30
 70
     1
102
RTVSPropertyOp31
 70
     1
102
RTVSPropertyOp32
 70
     1
102
RTVSPropertyOp33
 70
     1
102
RTVSPropertyOp34
 70
     1
102
RTVSPropertyOp35
 70
     1
102
RTVSPropertyOp36
 70
     1
102
RTVSPropertyOp37
 70
     1
102
RTVSPropertyOp38
 70
     1
102
RTVSPropertyOp39
 70
     1
102
RTVSPropertyOp40
 70
     1
102
RTVSPropertyOp41
 70
     1
102
RTVSPropertyOp42
 70
     1
102
RTVSPropertyOp43
 70
     1
102
RTVSPropertyOp44
 70
     1
102
RTVSPropertyOp45
 70
     1
102
RTVSPropertyOp46
 70
     1
102
RTVSPropertyOp47
 70
     1
102
RTVSPropertyOp48
 70
     1
102
RTVSPropertyOp49
 70
     1
102
RTVSPropertyOp50
 70
     1
102
RTVSPropertyOp51
 70
     0
102
RTVSPropertyOp52
 70
     0
102
RTVSPropertyOp53
 70
     1
102
RTVSPropertyOp54
 70
     1
102
RTVSPropertyOp55
 70
     1
102
RTVSPropertyOp56
 70
     1
102
RTVSPropertyOp57
 70
     1
102
RTVSPost2010Prop28
280
     1
102
RTVSPost2010PropOp28
 70
     1
102
RTVSPost2010Prop29
280
     1
102
RTVSPost2010PropOp29
 70
     1
102
RTVSPost2010Prop30
280
     0
102
RTVSPost2010PropOp30
 70
     1
102
RTVSPost2010Prop31
280
     0
102
RTVSPost2010PropOp31
 70
     1
102
RTVSPost2010Prop32
280
     0
102
RTVSPost2010PropOp32
 70
     1
102
RTVSPost2010Prop33
280
     0
102
RTVSPost2010PropOp33
 70
     1
102
RTVSPost2010Prop34
280
     0
102
RTVSPost2010PropOp34
 70
     1
102
RTVSPost2010Prop35
280
     0
102
RTVSPost2010PropOp35
 70
     1
102
RTVSPost2010Prop36
280
     0
102
RTVSPost2010PropOp36
 70
     1
102
RTVSPost2010Prop37
 90
       50
102
RTVSPost2010PropOp37
 70
     1
102
RTVSPost2010Prop38
140
0.0
102
RTVSPost2010PropOp38
 70
     1
102
RTVSPost2010Prop39
140
1.0
102
RTVSPost2010PropOp39
 70
     1
102
RTVSPost2010Prop40
 90
        0
102
RTVSPost2010PropOp40
 70
     1
102
RTVSPost2010Prop41ColorIndex
 90
       18
102
RTVSPost2010Prop41ColorRGB
 90
        0
102
RTVSPost2010PropOp41
 70
     1
102
RTVSPost2010Prop42
 90
       50
102
RTVSPost2010PropOp42
 70
     1
102
RTVSPost2010Prop43
 90
        3
102
RTVSPost2010PropOp43
 70
     1
102
RTVSPost2010Prop44ColorIndex
 90
        5
102
RTVSPost2010Prop44ColorRGB
 90
      255
102
RTVSPost2010PropOp44
 70
     1
102
RTVSPost2010Prop45
280
     0
102
RTVSPost2010PropOp45
 70
     1
102
RTVSPost2010Prop46
 90
       50
102
RTVSPost2010PropOp46
 70
     1
102
RTVSPost2010Prop47
 90
       50
102
RTVSPost2010PropOp47
 70
     1
102
RTVSPost2010Prop48
 90
       50
102
RTVSPost2010PropOp48
 70
     1
102
RTVSPost2010Prop49
280
     0
102
RTVSPost2010PropOp49
 70
     1
102
RTVSPost2010Prop50
 90
       50
102
RTVSPost2010PropOp50
 70
     1
102
RTVSPost2010Prop51ColorIndex
 90
      256
102
RTVSPost2010Prop51ColorRGB
 90
-16777216
102
RTVSPost2010PropOp51
 70
     0
102
RTVSPost2010Prop52
140
1.0
102
RTVSPost2010PropOp52
 70
     0
102
RTVSPost2010Prop53
 90
        2
102
RTVSPost2010PropOp53
 70
     1
102
RTVSPost2010Prop54
  1
strokes_ogs.tif
102
RTVSPost2010PropOp54
 70
     1
102
RTVSPost2010Prop55
280
     0
102
RTVSPost2010PropOp55
 70
     1
102
RTVSPost2010Prop56
140
1.0
102
RTVSPost2010PropOp56
 70
     1
102
RTVSPost2010Prop57
140
1.0
102
RTVSPost2010PropOp57
 70
     1
  0
XRECORD
  5
631
102
{ACAD_REACTORS
330
630
102
}
330
630
100
AcDbXrecord
280
     1
102
RTVSPropertyOp0
 70
     1
102
RTVSPropertyOp1
 70
     1
102
RTVSPropertyOp2
 70
     1
102
RTVSPropertyOp3
 70
     1
102
RTVSPropertyOp4
 70
     1
102
RTVSPropertyOp5
 70
     1
102
RTVSPropertyOp6
 70
     1
102
RTVSPropertyOp7
 70
     1
102
RTVSPropertyOp8
 70
     1
102
RTVSPropertyOp9
 70
     1
102
RTVSPropertyOp10
 70
     1
102
RTVSPropertyOp11
 70
     1
102
RTVSPropertyOp12
 70
     1
102
RTVSPropertyOp13
 70
     1
102
RTVSPropertyOp14
 70
     1
102
RTVSPropertyOp15
 70
     1
102
RTVSPropertyOp16
 70
     1
102
RTVSPropertyOp17
 70
     1
102
RTVSPropertyOp18
 70
     1
102
RTVSPropertyOp19
 70
     1
102
RTVSPropertyOp20
 70
     1
102
RTVSPropertyOp21
 70
     1
102
RTVSPropertyOp22
 70
     1
102
RTVSPropertyOp23
 70
     1
102
RTVSPropertyOp24
 70
     1
102
RTVSPropertyOp25
 70
     1
102
RTVSPropertyOp26
 70
     1
102
RTVSPropertyOp27
 70
     1
102
RTVSPropertyOp28
 70
     1
102
RTVSPropertyOp29
 70
     1
102
RTVSPropertyOp30
 70
     1
102
RTVSPropertyOp31
 70
     1
102
RTVSPropertyOp32
 70
     1
102
RTVSPropertyOp33
 70
     1
102
RTVSPropertyOp34
 70
     1
102
RTVSPropertyOp35
 70
     1
102
RTVSPropertyOp36
 70
     1
102
RTVSPropertyOp37
 70
     1
102
RTVSPropertyOp38
 70
     1
102
RTVSPropertyOp39
 70
     1
102
RTVSPropertyOp40
 70
     1
102
RTVSPropertyOp41
 70
     1
102
RTVSPropertyOp42
 70
     1
102
RTVSPropertyOp43
 70
     1
102
RTVSPropertyOp44
 70
     1
102
RTVSPropertyOp45
 70
     1
102
RTVSPropertyOp46
 70
     1
102
RTVSPropertyOp47
 70
     1
102
RTVSPropertyOp48
 70
     1
102
RTVSPropertyOp49
 70
     1
102
RTVSPropertyOp50
 70
     1
102
RTVSPropertyOp51
 70
     0
102
RTVSPropertyOp52
 70
     0
102
RTVSPropertyOp53
 70
     1
102
RTVSPropertyOp54
 70
     1
102
RTVSPropertyOp55
 70
     1
102
RTVSPropertyOp56
 70
     1
102
RTVSPropertyOp57
 70
     1
102
RTVSPost2010Prop28
280
     0
102
RTVSPost2010PropOp28
 70
     1
102
RTVSPost2010Prop29
280
     1
102
RTVSPost2010PropOp29
 70
     1
102
RTVSPost2010Prop30
280
     1
102
RTVSPost2010PropOp30
 70
     1
102
RTVSPost2010Prop31
280
     0
102
RTVSPost2010PropOp31
 70
     1
102
RTVSPost2010Prop32
280
     0
102
RTVSPost2010PropOp32
 70
     1
102
RTVSPost2010Prop33
280
     0
102
RTVSPost2010PropOp33
 70
     1
102
RTVSPost2010Prop34
280
     0
102
RTVSPost2010PropOp34
 70
     1
102
RTVSPost2010Prop35
280
     0
102
RTVSPost2010PropOp35
 70
     1
102
RTVSPost2010Prop36
280
     0
102
RTVSPost2010PropOp36
 70
     1
102
RTVSPost2010Prop37
 90
       50
102
RTVSPost2010PropOp37
 70
     1
102
RTVSPost2010Prop38
140
0.0
102
RTVSPost2010PropOp38
 70
     1
102
RTVSPost2010Prop39
140
1.0
102
RTVSPost2010PropOp39
 70
     1
102
RTVSPost2010Prop40
 90
        0
102
RTVSPost2010PropOp40
 70
     1
102
RTVSPost2010Prop41ColorIndex
 90
       18
102
RTVSPost2010Prop41ColorRGB
 90
        0
102
RTVSPost2010PropOp41
 70
     1
102
RTVSPost2010Prop42
 90
       50
102
RTVSPost2010PropOp42
 70
     1
102
RTVSPost2010Prop43
 90
        3
102
RTVSPost2010PropOp43
 70
     1
102
RTVSPost2010Prop44ColorIndex
 90
        5
102
RTVSPost2010Prop44ColorRGB
 90
      255
102
RTVSPost2010PropOp44
 70
     1
102
RTVSPost2010Prop45
280
     0
102
RTVSPost2010PropOp45
 70
     1
102
RTVSPost2010Prop46
 90
       50
102
RTVSPost2010PropOp46
 70
     1
102
RTVSPost2010Prop47
 90
       50
102
RTVSPost2010PropOp47
 70
     1
102
RTVSPost2010Prop48
 90
       50
102
RTVSPost2010PropOp48
 70
     1
102
RTVSPost2010Prop49
280
     0
102
RTVSPost2010PropOp49
 70
     1
102
RTVSPost2010Prop50
 90
       50
102
RTVSPost2010PropOp50
 70
     1
102
RTVSPost2010Prop51ColorIndex
 90
      256
102
RTVSPost2010Prop51ColorRGB
 90
-16777216
102
RTVSPost2010PropOp51
 70
     0
102
RTVSPost2010Prop52
140
1.0
102
RTVSPost2010PropOp52
 70
     0
102
RTVSPost2010Prop53
 90
        2
102
RTVSPost2010PropOp53
 70
     1
102
RTVSPost2010Prop54
  1
strokes_ogs.tif
102
RTVSPost2010PropOp54
 70
     1
102
RTVSPost2010Prop55
280
     0
102
RTVSPost2010PropOp55
 70
     1
102
RTVSPost2010Prop56
140
1.0
102
RTVSPost2010PropOp56
 70
     1
102
RTVSPost2010Prop57
140
1.0
102
RTVSPost2010PropOp57
 70
     1
  0
XRECORD
  5
62F
102
{ACAD_REACTORS
330
62E
102
}
330
62E
100
AcDbXrecord
280
     1
102
RTVSPropertyOp0
 70
     1
102
RTVSPropertyOp1
 70
     1
102
RTVSPropertyOp2
 70
     1
102
RTVSPropertyOp3
 70
     1
102
RTVSPropertyOp4
 70
     1
102
RTVSPropertyOp5
 70
     1
102
RTVSPropertyOp6
 70
     1
102
RTVSPropertyOp7
 70
     1
102
RTVSPropertyOp8
 70
     1
102
RTVSPropertyOp9
 70
     1
102
RTVSPropertyOp10
 70
     1
102
RTVSPropertyOp11
 70
     1
102
RTVSPropertyOp12
 70
     1
102
RTVSPropertyOp13
 70
     1
102
RTVSPropertyOp14
 70
     1
102
RTVSPropertyOp15
 70
     1
102
RTVSPropertyOp16
 70
     1
102
RTVSPropertyOp17
 70
     1
102
RTVSPropertyOp18
 70
     1
102
RTVSPropertyOp19
 70
     1
102
RTVSPropertyOp20
 70
     1
102
RTVSPropertyOp21
 70
     1
102
RTVSPropertyOp22
 70
     1
102
RTVSPropertyOp23
 70
     1
102
RTVSPropertyOp24
 70
     1
102
RTVSPropertyOp25
 70
     1
102
RTVSPropertyOp26
 70
     1
102
RTVSPropertyOp27
 70
     1
102
RTVSPropertyOp28
 70
     1
102
RTVSPropertyOp29
 70
     1
102
RTVSPropertyOp30
 70
     1
102
RTVSPropertyOp31
 70
     1
102
RTVSPropertyOp32
 70
     1
102
RTVSPropertyOp33
 70
     1
102
RTVSPropertyOp34
 70
     1
102
RTVSPropertyOp35
 70
     1
102
RTVSPropertyOp36
 70
     1
102
RTVSPropertyOp37
 70
     1
102
RTVSPropertyOp38
 70
     1
102
RTVSPropertyOp39
 70
     1
102
RTVSPropertyOp40
 70
     1
102
RTVSPropertyOp41
 70
     1
102
RTVSPropertyOp42
 70
     1
102
RTVSPropertyOp43
 70
     1
102
RTVSPropertyOp44
 70
     1
102
RTVSPropertyOp45
 70
     1
102
RTVSPropertyOp46
 70
     1
102
RTVSPropertyOp47
 70
     1
102
RTVSPropertyOp48
 70
     1
102
RTVSPropertyOp49
 70
     1
102
RTVSPropertyOp50
 70
     1
102
RTVSPropertyOp51
 70
     0
102
RTVSPropertyOp52
 70
     0
102
RTVSPropertyOp53
 70
     1
102
RTVSPropertyOp54
 70
     1
102
RTVSPropertyOp55
 70
     1
102
RTVSPropertyOp56
 70
     1
102
RTVSPropertyOp57
 70
     1
102
RTVSPost2010Prop28
280
     0
102
RTVSPost2010PropOp28
 70
     1
102
RTVSPost2010Prop29
280
     1
102
RTVSPost2010PropOp29
 70
     1
102
RTVSPost2010Prop30
280
     1
102
RTVSPost2010PropOp30
 70
     1
102
RTVSPost2010Prop31
280
     0
102
RTVSPost2010PropOp31
 70
     1
102
RTVSPost2010Prop32
280
     0
102
RTVSPost2010PropOp32
 70
     1
102
RTVSPost2010Prop33
280
     0
102
RTVSPost2010PropOp33
 70
     1
102
RTVSPost2010Prop34
280
     0
102
RTVSPost2010PropOp34
 70
     1
102
RTVSPost2010Prop35
280
     0
102
RTVSPost2010PropOp35
 70
     1
102
RTVSPost2010Prop36
280
     0
102
RTVSPost2010PropOp36
 70
     1
102
RTVSPost2010Prop37
 90
       50
102
RTVSPost2010PropOp37
 70
     1
102
RTVSPost2010Prop38
140
0.0
102
RTVSPost2010PropOp38
 70
     1
102
RTVSPost2010Prop39
140
1.0
102
RTVSPost2010PropOp39
 70
     1
102
RTVSPost2010Prop40
 90
        0
102
RTVSPost2010PropOp40
 70
     1
102
RTVSPost2010Prop41ColorIndex
 90
       18
102
RTVSPost2010Prop41ColorRGB
 90
        0
102
RTVSPost2010PropOp41
 70
     1
102
RTVSPost2010Prop42
 90
       50
102
RTVSPost2010PropOp42
 70
     1
102
RTVSPost2010Prop43
 90
        3
102
RTVSPost2010PropOp43
 70
     1
102
RTVSPost2010Prop44ColorIndex
 90
        5
102
RTVSPost2010Prop44ColorRGB
 90
      255
102
RTVSPost2010PropOp44
 70
     1
102
RTVSPost2010Prop45
280
     0
102
RTVSPost2010PropOp45
 70
     1
102
RTVSPost2010Prop46
 90
       50
102
RTVSPost2010PropOp46
 70
     1
102
RTVSPost2010Prop47
 90
       50
102
RTVSPost2010PropOp47
 70
     1
102
RTVSPost2010Prop48
 90
       50
102
RTVSPost2010PropOp48
 70
     1
102
RTVSPost2010Prop49
280
     0
102
RTVSPost2010PropOp49
 70
     1
102
RTVSPost2010Prop50
 90
       50
102
RTVSPost2010PropOp50
 70
     1
102
RTVSPost2010Prop51ColorIndex
 90
      256
102
RTVSPost2010Prop51ColorRGB
 90
-16777216
102
RTVSPost2010PropOp51
 70
     0
102
RTVSPost2010Prop52
140
1.0
102
RTVSPost2010PropOp52
 70
     0
102
RTVSPost2010Prop53
 90
        2
102
RTVSPost2010PropOp53
 70
     1
102
RTVSPost2010Prop54
  1
strokes_ogs.tif
102
RTVSPost2010PropOp54
 70
     1
102
RTVSPost2010Prop55
280
     0
102
RTVSPost2010PropOp55
 70
     1
102
RTVSPost2010Prop56
140
1.0
102
RTVSPost2010PropOp56
 70
     1
102
RTVSPost2010Prop57
140
1.0
102
RTVSPost2010PropOp57
 70
     1
  0
XRECORD
  5
633
102
{ACAD_REACTORS
330
632
102
}
330
632
100
AcDbXrecord
280
     1
102
RTVSPropertyOp0
 70
     1
102
RTVSPropertyOp1
 70
     1
102
RTVSPropertyOp2
 70
     1
102
RTVSPropertyOp3
 70
     1
102
RTVSPropertyOp4
 70
     1
102
RTVSPropertyOp5
 70
     1
102
RTVSPropertyOp6
 70
     1
102
RTVSPropertyOp7
 70
     1
102
RTVSPropertyOp8
 70
     1
102
RTVSPropertyOp9
 70
     1
102
RTVSPropertyOp10
 70
     1
102
RTVSPropertyOp11
 70
     1
102
RTVSPropertyOp12
 70
     1
102
RTVSPropertyOp13
 70
     1
102
RTVSPropertyOp14
 70
     1
102
RTVSPropertyOp15
 70
     1
102
RTVSPropertyOp16
 70
     1
102
RTVSPropertyOp17
 70
     1
102
RTVSPropertyOp18
 70
     1
102
RTVSPropertyOp19
 70
     1
102
RTVSPropertyOp20
 70
     1
102
RTVSPropertyOp21
 70
     1
102
RTVSPropertyOp22
 70
     1
102
RTVSPropertyOp23
 70
     1
102
RTVSPropertyOp24
 70
     1
102
RTVSPropertyOp25
 70
     1
102
RTVSPropertyOp26
 70
     1
102
RTVSPropertyOp27
 70
     1
102
RTVSPropertyOp28
 70
     1
102
RTVSPropertyOp29
 70
     1
102
RTVSPropertyOp30
 70
     1
102
RTVSPropertyOp31
 70
     1
102
RTVSPropertyOp32
 70
     1
102
RTVSPropertyOp33
 70
     1
102
RTVSPropertyOp34
 70
     1
102
RTVSPropertyOp35
 70
     1
102
RTVSPropertyOp36
 70
     1
102
RTVSPropertyOp37
 70
     1
102
RTVSPropertyOp38
 70
     1
102
RTVSPropertyOp39
 70
     1
102
RTVSPropertyOp40
 70
     1
102
RTVSPropertyOp41
 70
     1
102
RTVSPropertyOp42
 70
     1
102
RTVSPropertyOp43
 70
     1
102
RTVSPropertyOp44
 70
     1
102
RTVSPropertyOp45
 70
     1
102
RTVSPropertyOp46
 70
     1
102
RTVSPropertyOp47
 70
     1
102
RTVSPropertyOp48
 70
     1
102
RTVSPropertyOp49
 70
     1
102
RTVSPropertyOp50
 70
     1
102
RTVSPropertyOp51
 70
     0
102
RTVSPropertyOp52
 70
     0
102
RTVSPropertyOp53
 70
     1
102
RTVSPropertyOp54
 70
     1
102
RTVSPropertyOp55
 70
     1
102
RTVSPropertyOp56
 70
     1
102
RTVSPropertyOp57
 70
     1
102
RTVSPost2010Prop28
280
     0
102
RTVSPost2010PropOp28
 70
     1
102
RTVSPost2010Prop29
280
     1
102
RTVSPost2010PropOp29
 70
     1
102
RTVSPost2010Prop30
280
     1
102
RTVSPost2010PropOp30
 70
     1
102
RTVSPost2010Prop31
280
     0
102
RTVSPost2010PropOp31
 70
     1
102
RTVSPost2010Prop32
280
     0
102
RTVSPost2010PropOp32
 70
     1
102
RTVSPost2010Prop33
280
     0
102
RTVSPost2010PropOp33
 70
     1
102
RTVSPost2010Prop34
280
     0
102
RTVSPost2010PropOp34
 70
     1
102
RTVSPost2010Prop35
280
     0
102
RTVSPost2010PropOp35
 70
     1
102
RTVSPost2010Prop36
280
     0
102
RTVSPost2010PropOp36
 70
     1
102
RTVSPost2010Prop37
 90
       50
102
RTVSPost2010PropOp37
 70
     1
102
RTVSPost2010Prop38
140
0.0
102
RTVSPost2010PropOp38
 70
     1
102
RTVSPost2010Prop39
140
1.0
102
RTVSPost2010PropOp39
 70
     1
102
RTVSPost2010Prop40
 90
        0
102
RTVSPost2010PropOp40
 70
     1
102
RTVSPost2010Prop41ColorIndex
 90
       18
102
RTVSPost2010Prop41ColorRGB
 90
        0
102
RTVSPost2010PropOp41
 70
     1
102
RTVSPost2010Prop42
 90
       50
102
RTVSPost2010PropOp42
 70
     1
102
RTVSPost2010Prop43
 90
        3
102
RTVSPost2010PropOp43
 70
     1
102
RTVSPost2010Prop44ColorIndex
 90
        5
102
RTVSPost2010Prop44ColorRGB
 90
      255
102
RTVSPost2010PropOp44
 70
     1
102
RTVSPost2010Prop45
280
     0
102
RTVSPost2010PropOp45
 70
     1
102
RTVSPost2010Prop46
 90
       50
102
RTVSPost2010PropOp46
 70
     1
102
RTVSPost2010Prop47
 90
       50
102
RTVSPost2010PropOp47
 70
     1
102
RTVSPost2010Prop48
 90
       50
102
RTVSPost2010PropOp48
 70
     1
102
RTVSPost2010Prop49
280
     0
102
RTVSPost2010PropOp49
 70
     1
102
RTVSPost2010Prop50
 90
       50
102
RTVSPost2010PropOp50
 70
     1
102
RTVSPost2010Prop51ColorIndex
 90
      256
102
RTVSPost2010Prop51ColorRGB
 90
-16777216
102
RTVSPost2010PropOp51
 70
     0
102
RTVSPost2010Prop52
140
1.0
102
RTVSPost2010PropOp52
 70
     0
102
RTVSPost2010Prop53
 90
        2
102
RTVSPost2010PropOp53
 70
     1
102
RTVSPost2010Prop54
  1
strokes_ogs.tif
102
RTVSPost2010PropOp54
 70
     1
102
RTVSPost2010Prop55
280
     0
102
RTVSPost2010PropOp55
 70
     1
102
RTVSPost2010Prop56
140
1.0
102
RTVSPost2010PropOp56
 70
     1
102
RTVSPost2010Prop57
140
1.0
102
RTVSPost2010PropOp57
 70
     1
  0
XRECORD
  5
63B
102
{ACAD_REACTORS
330
63A
102
}
330
63A
100
AcDbXrecord
280
     1
102
RTVSPropertyOp0
 70
     1
102
RTVSPropertyOp1
 70
     1
102
RTVSPropertyOp2
 70
     1
102
RTVSPropertyOp3
 70
     1
102
RTVSPropertyOp4
 70
     1
102
RTVSPropertyOp5
 70
     1
102
RTVSPropertyOp6
 70
     1
102
RTVSPropertyOp7
 70
     1
102
RTVSPropertyOp8
 70
     1
102
RTVSPropertyOp9
 70
     1
102
RTVSPropertyOp10
 70
     1
102
RTVSPropertyOp11
 70
     1
102
RTVSPropertyOp12
 70
     1
102
RTVSPropertyOp13
 70
     1
102
RTVSPropertyOp14
 70
     1
102
RTVSPropertyOp15
 70
     1
102
RTVSPropertyOp16
 70
     1
102
RTVSPropertyOp17
 70
     1
102
RTVSPropertyOp18
 70
     1
102
RTVSPropertyOp19
 70
     1
102
RTVSPropertyOp20
 70
     1
102
RTVSPropertyOp21
 70
     1
102
RTVSPropertyOp22
 70
     1
102
RTVSPropertyOp23
 70
     1
102
RTVSPropertyOp24
 70
     1
102
RTVSPropertyOp25
 70
     1
102
RTVSPropertyOp26
 70
     1
102
RTVSPropertyOp27
 70
     1
102
RTVSPropertyOp28
 70
     1
102
RTVSPropertyOp29
 70
     1
102
RTVSPropertyOp30
 70
     1
102
RTVSPropertyOp31
 70
     1
102
RTVSPropertyOp32
 70
     1
102
RTVSPropertyOp33
 70
     1
102
RTVSPropertyOp34
 70
     1
102
RTVSPropertyOp35
 70
     1
102
RTVSPropertyOp36
 70
     1
102
RTVSPropertyOp37
 70
     1
102
RTVSPropertyOp38
 70
     1
102
RTVSPropertyOp39
 70
     1
102
RTVSPropertyOp40
 70
     1
102
RTVSPropertyOp41
 70
     1
102
RTVSPropertyOp42
 70
     1
102
RTVSPropertyOp43
 70
     1
102
RTVSPropertyOp44
 70
     1
102
RTVSPropertyOp45
 70
     1
102
RTVSPropertyOp46
 70
     1
102
RTVSPropertyOp47
 70
     1
102
RTVSPropertyOp48
 70
     1
102
RTVSPropertyOp49
 70
     1
102
RTVSPropertyOp50
 70
     1
102
RTVSPropertyOp51
 70
     0
102
RTVSPropertyOp52
 70
     0
102
RTVSPropertyOp53
 70
     1
102
RTVSPropertyOp54
 70
     1
102
RTVSPropertyOp55
 70
     1
102
RTVSPropertyOp56
 70
     1
102
RTVSPropertyOp57
 70
     1
102
RTVSPost2010Prop28
280
     0
102
RTVSPost2010PropOp28
 70
     1
102
RTVSPost2010Prop29
280
     1
102
RTVSPost2010PropOp29
 70
     1
102
RTVSPost2010Prop30
280
     1
102
RTVSPost2010PropOp30
 70
     1
102
RTVSPost2010Prop31
280
     0
102
RTVSPost2010PropOp31
 70
     1
102
RTVSPost2010Prop32
280
     0
102
RTVSPost2010PropOp32
 70
     1
102
RTVSPost2010Prop33
280
     0
102
RTVSPost2010PropOp33
 70
     1
102
RTVSPost2010Prop34
280
     0
102
RTVSPost2010PropOp34
 70
     1
102
RTVSPost2010Prop35
280
     0
102
RTVSPost2010PropOp35
 70
     1
102
RTVSPost2010Prop36
280
     0
102
RTVSPost2010PropOp36
 70
     1
102
RTVSPost2010Prop37
 90
       50
102
RTVSPost2010PropOp37
 70
     1
102
RTVSPost2010Prop38
140
0.0
102
RTVSPost2010PropOp38
 70
     1
102
RTVSPost2010Prop39
140
1.0
102
RTVSPost2010PropOp39
 70
     1
102
RTVSPost2010Prop40
 90
        0
102
RTVSPost2010PropOp40
 70
     1
102
RTVSPost2010Prop41ColorIndex
 90
       18
102
RTVSPost2010Prop41ColorRGB
 90
        0
102
RTVSPost2010PropOp41
 70
     1
102
RTVSPost2010Prop42
 90
       50
102
RTVSPost2010PropOp42
 70
     1
102
RTVSPost2010Prop43
 90
        3
102
RTVSPost2010PropOp43
 70
     1
102
RTVSPost2010Prop44ColorIndex
 90
        5
102
RTVSPost2010Prop44ColorRGB
 90
      255
102
RTVSPost2010PropOp44
 70
     1
102
RTVSPost2010Prop45
280
     0
102
RTVSPost2010PropOp45
 70
     1
102
RTVSPost2010Prop46
 90
       50
102
RTVSPost2010PropOp46
 70
     1
102
RTVSPost2010Prop47
 90
       50
102
RTVSPost2010PropOp47
 70
     1
102
RTVSPost2010Prop48
 90
       50
102
RTVSPost2010PropOp48
 70
     1
102
RTVSPost2010Prop49
280
     0
102
RTVSPost2010PropOp49
 70
     1
102
RTVSPost2010Prop50
 90
       50
102
RTVSPost2010PropOp50
 70
     1
102
RTVSPost2010Prop51ColorIndex
 90
      256
102
RTVSPost2010Prop51ColorRGB
 90
-16777216
102
RTVSPost2010PropOp51
 70
     0
102
RTVSPost2010Prop52
140
1.0
102
RTVSPost2010PropOp52
 70
     0
102
RTVSPost2010Prop53
 90
        2
102
RTVSPost2010PropOp53
 70
     1
102
RTVSPost2010Prop54
  1
strokes_ogs.tif
102
RTVSPost2010PropOp54
 70
     1
102
RTVSPost2010Prop55
280
     0
102
RTVSPost2010PropOp55
 70
     1
102
RTVSPost2010Prop56
140
1.0
102
RTVSPost2010PropOp56
 70
     1
102
RTVSPost2010Prop57
140
1.0
102
RTVSPost2010PropOp57
 70
     1
  0
XRECORD
  5
643
102
{ACAD_REACTORS
330
642
102
}
330
642
100
AcDbXrecord
280
     1
102
RTVSPropertyOp0
 70
     1
102
RTVSPropertyOp1
 70
     1
102
RTVSPropertyOp2
 70
     1
102
RTVSPropertyOp3
 70
     1
102
RTVSPropertyOp4
 70
     1
102
RTVSPropertyOp5
 70
     1
102
RTVSPropertyOp6
 70
     1
102
RTVSPropertyOp7
 70
     1
102
RTVSPropertyOp8
 70
     1
102
RTVSPropertyOp9
 70
     1
102
RTVSPropertyOp10
 70
     1
102
RTVSPropertyOp11
 70
     1
102
RTVSPropertyOp12
 70
     1
102
RTVSPropertyOp13
 70
     1
102
RTVSPropertyOp14
 70
     1
102
RTVSPropertyOp15
 70
     1
102
RTVSPropertyOp16
 70
     1
102
RTVSPropertyOp17
 70
     1
102
RTVSPropertyOp18
 70
     1
102
RTVSPropertyOp19
 70
     1
102
RTVSPropertyOp20
 70
     1
102
RTVSPropertyOp21
 70
     1
102
RTVSPropertyOp22
 70
     1
102
RTVSPropertyOp23
 70
     1
102
RTVSPropertyOp24
 70
     1
102
RTVSPropertyOp25
 70
     1
102
RTVSPropertyOp26
 70
     1
102
RTVSPropertyOp27
 70
     1
102
RTVSPropertyOp28
 70
     1
102
RTVSPropertyOp29
 70
     1
102
RTVSPropertyOp30
 70
     1
102
RTVSPropertyOp31
 70
     1
102
RTVSPropertyOp32
 70
     1
102
RTVSPropertyOp33
 70
     1
102
RTVSPropertyOp34
 70
     1
102
RTVSPropertyOp35
 70
     1
102
RTVSPropertyOp36
 70
     1
102
RTVSPropertyOp37
 70
     1
102
RTVSPropertyOp38
 70
     1
102
RTVSPropertyOp39
 70
     1
102
RTVSPropertyOp40
 70
     1
102
RTVSPropertyOp41
 70
     1
102
RTVSPropertyOp42
 70
     1
102
RTVSPropertyOp43
 70
     1
102
RTVSPropertyOp44
 70
     1
102
RTVSPropertyOp45
 70
     1
102
RTVSPropertyOp46
 70
     1
102
RTVSPropertyOp47
 70
     1
102
RTVSPropertyOp48
 70
     1
102
RTVSPropertyOp49
 70
     1
102
RTVSPropertyOp50
 70
     1
102
RTVSPropertyOp51
 70
     0
102
RTVSPropertyOp52
 70
     0
102
RTVSPropertyOp53
 70
     1
102
RTVSPropertyOp54
 70
     1
102
RTVSPropertyOp55
 70
     1
102
RTVSPropertyOp56
 70
     1
102
RTVSPropertyOp57
 70
     1
102
RTVSPost2010Prop28
280
     0
102
RTVSPost2010PropOp28
 70
     1
102
RTVSPost2010Prop29
280
     1
102
RTVSPost2010PropOp29
 70
     1
102
RTVSPost2010Prop30
280
     1
102
RTVSPost2010PropOp30
 70
     1
102
RTVSPost2010Prop31
280
     0
102
RTVSPost2010PropOp31
 70
     1
102
RTVSPost2010Prop32
280
     0
102
RTVSPost2010PropOp32
 70
     1
102
RTVSPost2010Prop33
280
     0
102
RTVSPost2010PropOp33
 70
     1
102
RTVSPost2010Prop34
280
     0
102
RTVSPost2010PropOp34
 70
     1
102
RTVSPost2010Prop35
280
     0
102
RTVSPost2010PropOp35
 70
     1
102
RTVSPost2010Prop36
280
     0
102
RTVSPost2010PropOp36
 70
     1
102
RTVSPost2010Prop37
 90
       50
102
RTVSPost2010PropOp37
 70
     1
102
RTVSPost2010Prop38
140
0.0
102
RTVSPost2010PropOp38
 70
     1
102
RTVSPost2010Prop39
140
1.0
102
RTVSPost2010PropOp39
 70
     1
102
RTVSPost2010Prop40
 90
        0
102
RTVSPost2010PropOp40
 70
     1
102
RTVSPost2010Prop41ColorIndex
 90
       18
102
RTVSPost2010Prop41ColorRGB
 90
        0
102
RTVSPost2010PropOp41
 70
     1
102
RTVSPost2010Prop42
 90
       50
102
RTVSPost2010PropOp42
 70
     1
102
RTVSPost2010Prop43
 90
        3
102
RTVSPost2010PropOp43
 70
     1
102
RTVSPost2010Prop44ColorIndex
 90
        5
102
RTVSPost2010Prop44ColorRGB
 90
      255
102
RTVSPost2010PropOp44
 70
     1
102
RTVSPost2010Prop45
280
     0
102
RTVSPost2010PropOp45
 70
     1
102
RTVSPost2010Prop46
 90
       50
102
RTVSPost2010PropOp46
 70
     1
102
RTVSPost2010Prop47
 90
       50
102
RTVSPost2010PropOp47
 70
     1
102
RTVSPost2010Prop48
 90
       50
102
RTVSPost2010PropOp48
 70
     1
102
RTVSPost2010Prop49
280
     0
102
RTVSPost2010PropOp49
 70
     1
102
RTVSPost2010Prop50
 90
       50
102
RTVSPost2010PropOp50
 70
     1
102
RTVSPost2010Prop51ColorIndex
 90
      256
102
RTVSPost2010Prop51ColorRGB
 90
-16777216
102
RTVSPost2010PropOp51
 70
     0
102
RTVSPost2010Prop52
140
1.0
102
RTVSPost2010PropOp52
 70
     0
102
RTVSPost2010Prop53
 90
        2
102
RTVSPost2010PropOp53
 70
     1
102
RTVSPost2010Prop54
  1
strokes_ogs.tif
102
RTVSPost2010PropOp54
 70
     1
102
RTVSPost2010Prop55
280
     0
102
RTVSPost2010PropOp55
 70
     1
102
RTVSPost2010Prop56
140
1.0
102
RTVSPost2010PropOp56
 70
     1
102
RTVSPost2010Prop57
140
1.0
102
RTVSPost2010PropOp57
 70
     1
  0
XRECORD
  5
637
102
{ACAD_REACTORS
330
636
102
}
330
636
100
AcDbXrecord
280
     1
102
RTVSPropertyOp0
 70
     1
102
RTVSPropertyOp1
 70
     1
102
RTVSPropertyOp2
 70
     1
102
RTVSPropertyOp3
 70
     1
102
RTVSPropertyOp4
 70
     1
102
RTVSPropertyOp5
 70
     1
102
RTVSPropertyOp6
 70
     1
102
RTVSPropertyOp7
 70
     1
102
RTVSPropertyOp8
 70
     1
102
RTVSPropertyOp9
 70
     1
102
RTVSPropertyOp10
 70
     1
102
RTVSPropertyOp11
 70
     1
102
RTVSPropertyOp12
 70
     1
102
RTVSPropertyOp13
 70
     1
102
RTVSPropertyOp14
 70
     1
102
RTVSPropertyOp15
 70
     1
102
RTVSPropertyOp16
 70
     1
102
RTVSPropertyOp17
 70
     1
102
RTVSPropertyOp18
 70
     1
102
RTVSPropertyOp19
 70
     1
102
RTVSPropertyOp20
 70
     1
102
RTVSPropertyOp21
 70
     1
102
RTVSPropertyOp22
 70
     1
102
RTVSPropertyOp23
 70
     1
102
RTVSPropertyOp24
 70
     1
102
RTVSPropertyOp25
 70
     1
102
RTVSPropertyOp26
 70
     1
102
RTVSPropertyOp27
 70
     1
102
RTVSPropertyOp28
 70
     1
102
RTVSPropertyOp29
 70
     1
102
RTVSPropertyOp30
 70
     1
102
RTVSPropertyOp31
 70
     1
102
RTVSPropertyOp32
 70
     1
102
RTVSPropertyOp33
 70
     1
102
RTVSPropertyOp34
 70
     1
102
RTVSPropertyOp35
 70
     1
102
RTVSPropertyOp36
 70
     1
102
RTVSPropertyOp37
 70
     1
102
RTVSPropertyOp38
 70
     1
102
RTVSPropertyOp39
 70
     1
102
RTVSPropertyOp40
 70
     1
102
RTVSPropertyOp41
 70
     1
102
RTVSPropertyOp42
 70
     1
102
RTVSPropertyOp43
 70
     1
102
RTVSPropertyOp44
 70
     1
102
RTVSPropertyOp45
 70
     1
102
RTVSPropertyOp46
 70
     1
102
RTVSPropertyOp47
 70
     1
102
RTVSPropertyOp48
 70
     1
102
RTVSPropertyOp49
 70
     1
102
RTVSPropertyOp50
 70
     1
102
RTVSPropertyOp51
 70
     0
102
RTVSPropertyOp52
 70
     0
102
RTVSPropertyOp53
 70
     1
102
RTVSPropertyOp54
 70
     1
102
RTVSPropertyOp55
 70
     1
102
RTVSPropertyOp56
 70
     1
102
RTVSPropertyOp57
 70
     1
102
RTVSPost2010Prop28
280
     0
102
RTVSPost2010PropOp28
 70
     1
102
RTVSPost2010Prop29
280
     1
102
RTVSPost2010PropOp29
 70
     1
102
RTVSPost2010Prop30
280
     1
102
RTVSPost2010PropOp30
 70
     1
102
RTVSPost2010Prop31
280
     0
102
RTVSPost2010PropOp31
 70
     1
102
RTVSPost2010Prop32
280
     0
102
RTVSPost2010PropOp32
 70
     1
102
RTVSPost2010Prop33
280
     0
102
RTVSPost2010PropOp33
 70
     1
102
RTVSPost2010Prop34
280
     0
102
RTVSPost2010PropOp34
 70
     1
102
RTVSPost2010Prop35
280
     0
102
RTVSPost2010PropOp35
 70
     1
102
RTVSPost2010Prop36
280
     0
102
RTVSPost2010PropOp36
 70
     1
102
RTVSPost2010Prop37
 90
       50
102
RTVSPost2010PropOp37
 70
     1
102
RTVSPost2010Prop38
140
0.0
102
RTVSPost2010PropOp38
 70
     1
102
RTVSPost2010Prop39
140
1.0
102
RTVSPost2010PropOp39
 70
     1
102
RTVSPost2010Prop40
 90
        0
102
RTVSPost2010PropOp40
 70
     1
102
RTVSPost2010Prop41ColorIndex
 90
       18
102
RTVSPost2010Prop41ColorRGB
 90
        0
102
RTVSPost2010PropOp41
 70
     1
102
RTVSPost2010Prop42
 90
       50
102
RTVSPost2010PropOp42
 70
     1
102
RTVSPost2010Prop43
 90
        3
102
RTVSPost2010PropOp43
 70
     1
102
RTVSPost2010Prop44ColorIndex
 90
        5
102
RTVSPost2010Prop44ColorRGB
 90
      255
102
RTVSPost2010PropOp44
 70
     1
102
RTVSPost2010Prop45
280
     0
102
RTVSPost2010PropOp45
 70
     1
102
RTVSPost2010Prop46
 90
       50
102
RTVSPost2010PropOp46
 70
     1
102
RTVSPost2010Prop47
 90
       50
102
RTVSPost2010PropOp47
 70
     1
102
RTVSPost2010Prop48
 90
       50
102
RTVSPost2010PropOp48
 70
     1
102
RTVSPost2010Prop49
280
     0
102
RTVSPost2010PropOp49
 70
     1
102
RTVSPost2010Prop50
 90
       50
102
RTVSPost2010PropOp50
 70
     1
102
RTVSPost2010Prop51ColorIndex
 90
      256
102
RTVSPost2010Prop51ColorRGB
 90
-16777216
102
RTVSPost2010PropOp51
 70
     0
102
RTVSPost2010Prop52
140
1.0
102
RTVSPost2010PropOp52
 70
     0
102
RTVSPost2010Prop53
 90
        2
102
RTVSPost2010PropOp53
 70
     1
102
RTVSPost2010Prop54
  1
strokes_ogs.tif
102
RTVSPost2010PropOp54
 70
     1
102
RTVSPost2010Prop55
280
     0
102
RTVSPost2010PropOp55
 70
     1
102
RTVSPost2010Prop56
140
1.0
102
RTVSPost2010PropOp56
 70
     1
102
RTVSPost2010Prop57
140
1.0
102
RTVSPost2010PropOp57
 70
     1
  0
XRECORD
  5
639
102
{ACAD_REACTORS
330
638
102
}
330
638
100
AcDbXrecord
280
     1
102
RTVSPropertyOp0
 70
     1
102
RTVSPropertyOp1
 70
     1
102
RTVSPropertyOp2
 70
     1
102
RTVSPropertyOp3
 70
     1
102
RTVSPropertyOp4
 70
     1
102
RTVSPropertyOp5
 70
     1
102
RTVSPropertyOp6
 70
     1
102
RTVSPropertyOp7
 70
     1
102
RTVSPropertyOp8
 70
     1
102
RTVSPropertyOp9
 70
     1
102
RTVSPropertyOp10
 70
     1
102
RTVSPropertyOp11
 70
     1
102
RTVSPropertyOp12
 70
     1
102
RTVSPropertyOp13
 70
     1
102
RTVSPropertyOp14
 70
     1
102
RTVSPropertyOp15
 70
     1
102
RTVSPropertyOp16
 70
     1
102
RTVSPropertyOp17
 70
     1
102
RTVSPropertyOp18
 70
     1
102
RTVSPropertyOp19
 70
     1
102
RTVSPropertyOp20
 70
     1
102
RTVSPropertyOp21
 70
     1
102
RTVSPropertyOp22
 70
     1
102
RTVSPropertyOp23
 70
     1
102
RTVSPropertyOp24
 70
     1
102
RTVSPropertyOp25
 70
     1
102
RTVSPropertyOp26
 70
     1
102
RTVSPropertyOp27
 70
     1
102
RTVSPropertyOp28
 70
     1
102
RTVSPropertyOp29
 70
     1
102
RTVSPropertyOp30
 70
     1
102
RTVSPropertyOp31
 70
     1
102
RTVSPropertyOp32
 70
     1
102
RTVSPropertyOp33
 70
     1
102
RTVSPropertyOp34
 70
     1
102
RTVSPropertyOp35
 70
     1
102
RTVSPropertyOp36
 70
     1
102
RTVSPropertyOp37
 70
     1
102
RTVSPropertyOp38
 70
     1
102
RTVSPropertyOp39
 70
     1
102
RTVSPropertyOp40
 70
     1
102
RTVSPropertyOp41
 70
     1
102
RTVSPropertyOp42
 70
     1
102
RTVSPropertyOp43
 70
     1
102
RTVSPropertyOp44
 70
     1
102
RTVSPropertyOp45
 70
     1
102
RTVSPropertyOp46
 70
     1
102
RTVSPropertyOp47
 70
     1
102
RTVSPropertyOp48
 70
     1
102
RTVSPropertyOp49
 70
     1
102
RTVSPropertyOp50
 70
     1
102
RTVSPropertyOp51
 70
     0
102
RTVSPropertyOp52
 70
     0
102
RTVSPropertyOp53
 70
     1
102
RTVSPropertyOp54
 70
     1
102
RTVSPropertyOp55
 70
     1
102
RTVSPropertyOp56
 70
     1
102
RTVSPropertyOp57
 70
     1
102
RTVSPost2010Prop28
280
     0
102
RTVSPost2010PropOp28
 70
     1
102
RTVSPost2010Prop29
280
     1
102
RTVSPost2010PropOp29
 70
     1
102
RTVSPost2010Prop30
280
     1
102
RTVSPost2010PropOp30
 70
     1
102
RTVSPost2010Prop31
280
     0
102
RTVSPost2010PropOp31
 70
     1
102
RTVSPost2010Prop32
280
     0
102
RTVSPost2010PropOp32
 70
     1
102
RTVSPost2010Prop33
280
     0
102
RTVSPost2010PropOp33
 70
     1
102
RTVSPost2010Prop34
280
     0
102
RTVSPost2010PropOp34
 70
     1
102
RTVSPost2010Prop35
280
     0
102
RTVSPost2010PropOp35
 70
     1
102
RTVSPost2010Prop36
280
     0
102
RTVSPost2010PropOp36
 70
     1
102
RTVSPost2010Prop37
 90
       50
102
RTVSPost2010PropOp37
 70
     1
102
RTVSPost2010Prop38
140
0.0
102
RTVSPost2010PropOp38
 70
     1
102
RTVSPost2010Prop39
140
1.0
102
RTVSPost2010PropOp39
 70
     1
102
RTVSPost2010Prop40
 90
        0
102
RTVSPost2010PropOp40
 70
     1
102
RTVSPost2010Prop41ColorIndex
 90
       18
102
RTVSPost2010Prop41ColorRGB
 90
        0
102
RTVSPost2010PropOp41
 70
     1
102
RTVSPost2010Prop42
 90
       50
102
RTVSPost2010PropOp42
 70
     1
102
RTVSPost2010Prop43
 90
        3
102
RTVSPost2010PropOp43
 70
     1
102
RTVSPost2010Prop44ColorIndex
 90
        5
102
RTVSPost2010Prop44ColorRGB
 90
      255
102
RTVSPost2010PropOp44
 70
     1
102
RTVSPost2010Prop45
280
     0
102
RTVSPost2010PropOp45
 70
     1
102
RTVSPost2010Prop46
 90
       50
102
RTVSPost2010PropOp46
 70
     1
102
RTVSPost2010Prop47
 90
       50
102
RTVSPost2010PropOp47
 70
     1
102
RTVSPost2010Prop48
 90
       50
102
RTVSPost2010PropOp48
 70
     1
102
RTVSPost2010Prop49
280
     0
102
RTVSPost2010PropOp49
 70
     1
102
RTVSPost2010Prop50
 90
       50
102
RTVSPost2010PropOp50
 70
     1
102
RTVSPost2010Prop51ColorIndex
 90
      256
102
RTVSPost2010Prop51ColorRGB
 90
-16777216
102
RTVSPost2010PropOp51
 70
     0
102
RTVSPost2010Prop52
140
1.0
102
RTVSPost2010PropOp52
 70
     0
102
RTVSPost2010Prop53
 90
        2
102
RTVSPost2010PropOp53
 70
     1
102
RTVSPost2010Prop54
  1
strokes_ogs.tif
102
RTVSPost2010PropOp54
 70
     1
102
RTVSPost2010Prop55
280
     0
102
RTVSPost2010PropOp55
 70
     1
102
RTVSPost2010Prop56
140
1.0
102
RTVSPost2010PropOp56
 70
     1
102
RTVSPost2010Prop57
140
1.0
102
RTVSPost2010PropOp57
 70
     1
  0
XRECORD
  5
641
102
{ACAD_REACTORS
330
640
102
}
330
640
100
AcDbXrecord
280
     1
102
RTVSPropertyOp0
 70
     1
102
RTVSPropertyOp1
 70
     1
102
RTVSPropertyOp2
 70
     1
102
RTVSPropertyOp3
 70
     1
102
RTVSPropertyOp4
 70
     1
102
RTVSPropertyOp5
 70
     1
102
RTVSPropertyOp6
 70
     1
102
RTVSPropertyOp7
 70
     1
102
RTVSPropertyOp8
 70
     1
102
RTVSPropertyOp9
 70
     1
102
RTVSPropertyOp10
 70
     1
102
RTVSPropertyOp11
 70
     1
102
RTVSPropertyOp12
 70
     1
102
RTVSPropertyOp13
 70
     1
102
RTVSPropertyOp14
 70
     1
102
RTVSPropertyOp15
 70
     1
102
RTVSPropertyOp16
 70
     1
102
RTVSPropertyOp17
 70
     1
102
RTVSPropertyOp18
 70
     1
102
RTVSPropertyOp19
 70
     1
102
RTVSPropertyOp20
 70
     1
102
RTVSPropertyOp21
 70
     1
102
RTVSPropertyOp22
 70
     1
102
RTVSPropertyOp23
 70
     1
102
RTVSPropertyOp24
 70
     1
102
RTVSPropertyOp25
 70
     1
102
RTVSPropertyOp26
 70
     1
102
RTVSPropertyOp27
 70
     1
102
RTVSPropertyOp28
 70
     1
102
RTVSPropertyOp29
 70
     1
102
RTVSPropertyOp30
 70
     1
102
RTVSPropertyOp31
 70
     1
102
RTVSPropertyOp32
 70
     1
102
RTVSPropertyOp33
 70
     1
102
RTVSPropertyOp34
 70
     1
102
RTVSPropertyOp35
 70
     1
102
RTVSPropertyOp36
 70
     1
102
RTVSPropertyOp37
 70
     1
102
RTVSPropertyOp38
 70
     1
102
RTVSPropertyOp39
 70
     1
102
RTVSPropertyOp40
 70
     1
102
RTVSPropertyOp41
 70
     1
102
RTVSPropertyOp42
 70
     1
102
RTVSPropertyOp43
 70
     1
102
RTVSPropertyOp44
 70
     1
102
RTVSPropertyOp45
 70
     1
102
RTVSPropertyOp46
 70
     1
102
RTVSPropertyOp47
 70
     1
102
RTVSPropertyOp48
 70
     1
102
RTVSPropertyOp49
 70
     1
102
RTVSPropertyOp50
 70
     1
102
RTVSPropertyOp51
 70
     0
102
RTVSPropertyOp52
 70
     0
102
RTVSPropertyOp53
 70
     1
102
RTVSPropertyOp54
 70
     1
102
RTVSPropertyOp55
 70
     1
102
RTVSPropertyOp56
 70
     1
102
RTVSPropertyOp57
 70
     1
102
RTVSPost2010Prop28
280
     0
102
RTVSPost2010PropOp28
 70
     1
102
RTVSPost2010Prop29
280
     1
102
RTVSPost2010PropOp29
 70
     1
102
RTVSPost2010Prop30
280
     1
102
RTVSPost2010PropOp30
 70
     1
102
RTVSPost2010Prop31
280
     0
102
RTVSPost2010PropOp31
 70
     1
102
RTVSPost2010Prop32
280
     0
102
RTVSPost2010PropOp32
 70
     1
102
RTVSPost2010Prop33
280
     0
102
RTVSPost2010PropOp33
 70
     1
102
RTVSPost2010Prop34
280
     0
102
RTVSPost2010PropOp34
 70
     1
102
RTVSPost2010Prop35
280
     0
102
RTVSPost2010PropOp35
 70
     1
102
RTVSPost2010Prop36
280
     0
102
RTVSPost2010PropOp36
 70
     1
102
RTVSPost2010Prop37
 90
       50
102
RTVSPost2010PropOp37
 70
     1
102
RTVSPost2010Prop38
140
0.0
102
RTVSPost2010PropOp38
 70
     1
102
RTVSPost2010Prop39
140
1.0
102
RTVSPost2010PropOp39
 70
     1
102
RTVSPost2010Prop40
 90
        0
102
RTVSPost2010PropOp40
 70
     1
102
RTVSPost2010Prop41ColorIndex
 90
       18
102
RTVSPost2010Prop41ColorRGB
 90
        0
102
RTVSPost2010PropOp41
 70
     1
102
RTVSPost2010Prop42
 90
       50
102
RTVSPost2010PropOp42
 70
     1
102
RTVSPost2010Prop43
 90
        3
102
RTVSPost2010PropOp43
 70
     1
102
RTVSPost2010Prop44ColorIndex
 90
        5
102
RTVSPost2010Prop44ColorRGB
 90
      255
102
RTVSPost2010PropOp44
 70
     1
102
RTVSPost2010Prop45
280
     0
102
RTVSPost2010PropOp45
 70
     1
102
RTVSPost2010Prop46
 90
       50
102
RTVSPost2010PropOp46
 70
     1
102
RTVSPost2010Prop47
 90
       50
102
RTVSPost2010PropOp47
 70
     1
102
RTVSPost2010Prop48
 90
       50
102
RTVSPost2010PropOp48
 70
     1
102
RTVSPost2010Prop49
280
     0
102
RTVSPost2010PropOp49
 70
     1
102
RTVSPost2010Prop50
 90
       50
102
RTVSPost2010PropOp50
 70
     1
102
RTVSPost2010Prop51ColorIndex
 90
      256
102
RTVSPost2010Prop51ColorRGB
 90
-16777216
102
RTVSPost2010PropOp51
 70
     0
102
RTVSPost2010Prop52
140
1.0
102
RTVSPost2010PropOp52
 70
     0
102
RTVSPost2010Prop53
 90
        2
102
RTVSPost2010PropOp53
 70
     1
102
RTVSPost2010Prop54
  1
strokes_ogs.tif
102
RTVSPost2010PropOp54
 70
     1
102
RTVSPost2010Prop55
280
     0
102
RTVSPost2010PropOp55
 70
     1
102
RTVSPost2010Prop56
140
1.0
102
RTVSPost2010PropOp56
 70
     1
102
RTVSPost2010Prop57
140
1.0
102
RTVSPost2010PropOp57
 70
     1
  0
XRECORD
  5
625
102
{ACAD_REACTORS
330
624
102
}
330
624
100
AcDbXrecord
280
     1
102
RTVSPropertyOp0
 70
     1
102
RTVSPropertyOp1
 70
     1
102
RTVSPropertyOp2
 70
     1
102
RTVSPropertyOp3
 70
     1
102
RTVSPropertyOp4
 70
     1
102
RTVSPropertyOp5
 70
     1
102
RTVSPropertyOp6
 70
     1
102
RTVSPropertyOp7
 70
     1
102
RTVSPropertyOp8
 70
     1
102
RTVSPropertyOp9
 70
     1
102
RTVSPropertyOp10
 70
     1
102
RTVSPropertyOp11
 70
     1
102
RTVSPropertyOp12
 70
     1
102
RTVSPropertyOp13
 70
     1
102
RTVSPropertyOp14
 70
     1
102
RTVSPropertyOp15
 70
     1
102
RTVSPropertyOp16
 70
     1
102
RTVSPropertyOp17
 70
     1
102
RTVSPropertyOp18
 70
     1
102
RTVSPropertyOp19
 70
     1
102
RTVSPropertyOp20
 70
     1
102
RTVSPropertyOp21
 70
     1
102
RTVSPropertyOp22
 70
     1
102
RTVSPropertyOp23
 70
     1
102
RTVSPropertyOp24
 70
     1
102
RTVSPropertyOp25
 70
     1
102
RTVSPropertyOp26
 70
     1
102
RTVSPropertyOp27
 70
     1
102
RTVSPropertyOp28
 70
     1
102
RTVSPropertyOp29
 70
     1
102
RTVSPropertyOp30
 70
     1
102
RTVSPropertyOp31
 70
     1
102
RTVSPropertyOp32
 70
     1
102
RTVSPropertyOp33
 70
     1
102
RTVSPropertyOp34
 70
     1
102
RTVSPropertyOp35
 70
     1
102
RTVSPropertyOp36
 70
     1
102
RTVSPropertyOp37
 70
     1
102
RTVSPropertyOp38
 70
     1
102
RTVSPropertyOp39
 70
     1
102
RTVSPropertyOp40
 70
     1
102
RTVSPropertyOp41
 70
     1
102
RTVSPropertyOp42
 70
     1
102
RTVSPropertyOp43
 70
     1
102
RTVSPropertyOp44
 70
     1
102
RTVSPropertyOp45
 70
     1
102
RTVSPropertyOp46
 70
     1
102
RTVSPropertyOp47
 70
     1
102
RTVSPropertyOp48
 70
     1
102
RTVSPropertyOp49
 70
     1
102
RTVSPropertyOp50
 70
     1
102
RTVSPropertyOp51
 70
     0
102
RTVSPropertyOp52
 70
     0
102
RTVSPropertyOp53
 70
     1
102
RTVSPropertyOp54
 70
     1
102
RTVSPropertyOp55
 70
     1
102
RTVSPropertyOp56
 70
     1
102
RTVSPropertyOp57
 70
     1
102
RTVSPost2010Prop28
280
     0
102
RTVSPost2010PropOp28
 70
     1
102
RTVSPost2010Prop29
280
     1
102
RTVSPost2010PropOp29
 70
     1
102
RTVSPost2010Prop30
280
     1
102
RTVSPost2010PropOp30
 70
     1
102
RTVSPost2010Prop31
280
     0
102
RTVSPost2010PropOp31
 70
     1
102
RTVSPost2010Prop32
280
     0
102
RTVSPost2010PropOp32
 70
     1
102
RTVSPost2010Prop33
280
     0
102
RTVSPost2010PropOp33
 70
     1
102
RTVSPost2010Prop34
280
     0
102
RTVSPost2010PropOp34
 70
     1
102
RTVSPost2010Prop35
280
     0
102
RTVSPost2010PropOp35
 70
     1
102
RTVSPost2010Prop36
280
     0
102
RTVSPost2010PropOp36
 70
     1
102
RTVSPost2010Prop37
 90
       50
102
RTVSPost2010PropOp37
 70
     1
102
RTVSPost2010Prop38
140
0.0
102
RTVSPost2010PropOp38
 70
     1
102
RTVSPost2010Prop39
140
1.0
102
RTVSPost2010PropOp39
 70
     1
102
RTVSPost2010Prop40
 90
        0
102
RTVSPost2010PropOp40
 70
     1
102
RTVSPost2010Prop41ColorIndex
 90
       18
102
RTVSPost2010Prop41ColorRGB
 90
        0
102
RTVSPost2010PropOp41
 70
     1
102
RTVSPost2010Prop42
 90
       50
102
RTVSPost2010PropOp42
 70
     1
102
RTVSPost2010Prop43
 90
        3
102
RTVSPost2010PropOp43
 70
     1
102
RTVSPost2010Prop44ColorIndex
 90
        5
102
RTVSPost2010Prop44ColorRGB
 90
      255
102
RTVSPost2010PropOp44
 70
     1
102
RTVSPost2010Prop45
280
     0
102
RTVSPost2010PropOp45
 70
     1
102
RTVSPost2010Prop46
 90
       50
102
RTVSPost2010PropOp46
 70
     1
102
RTVSPost2010Prop47
 90
       50
102
RTVSPost2010PropOp47
 70
     1
102
RTVSPost2010Prop48
 90
       50
102
RTVSPost2010PropOp48
 70
     1
102
RTVSPost2010Prop49
280
     0
102
RTVSPost2010PropOp49
 70
     1
102
RTVSPost2010Prop50
 90
       50
102
RTVSPost2010PropOp50
 70
     1
102
RTVSPost2010Prop51ColorIndex
 90
      256
102
RTVSPost2010Prop51ColorRGB
 90
-16777216
102
RTVSPost2010PropOp51
 70
     0
102
RTVSPost2010Prop52
140
1.0
102
RTVSPost2010PropOp52
 70
     0
102
RTVSPost2010Prop53
 90
        2
102
RTVSPost2010PropOp53
 70
     1
102
RTVSPost2010Prop54
  1
strokes_ogs.tif
102
RTVSPost2010PropOp54
 70
     1
102
RTVSPost2010Prop55
280
     0
102
RTVSPost2010PropOp55
 70
     1
102
RTVSPost2010Prop56
140
1.0
102
RTVSPost2010PropOp56
 70
     1
102
RTVSPost2010Prop57
140
1.0
102
RTVSPost2010PropOp57
 70
     1
  0
XRECORD
  5
627
102
{ACAD_REACTORS
330
626
102
}
330
626
100
AcDbXrecord
280
     1
102
RTVSPropertyOp0
 70
     1
102
RTVSPropertyOp1
 70
     1
102
RTVSPropertyOp2
 70
     1
102
RTVSPropertyOp3
 70
     1
102
RTVSPropertyOp4
 70
     1
102
RTVSPropertyOp5
 70
     1
102
RTVSPropertyOp6
 70
     1
102
RTVSPropertyOp7
 70
     1
102
RTVSPropertyOp8
 70
     1
102
RTVSPropertyOp9
 70
     1
102
RTVSPropertyOp10
 70
     1
102
RTVSPropertyOp11
 70
     1
102
RTVSPropertyOp12
 70
     1
102
RTVSPropertyOp13
 70
     1
102
RTVSPropertyOp14
 70
     1
102
RTVSPropertyOp15
 70
     1
102
RTVSPropertyOp16
 70
     1
102
RTVSPropertyOp17
 70
     1
102
RTVSPropertyOp18
 70
     1
102
RTVSPropertyOp19
 70
     1
102
RTVSPropertyOp20
 70
     1
102
RTVSPropertyOp21
 70
     1
102
RTVSPropertyOp22
 70
     1
102
RTVSPropertyOp23
 70
     1
102
RTVSPropertyOp24
 70
     1
102
RTVSPropertyOp25
 70
     1
102
RTVSPropertyOp26
 70
     1
102
RTVSPropertyOp27
 70
     1
102
RTVSPropertyOp28
 70
     1
102
RTVSPropertyOp29
 70
     1
102
RTVSPropertyOp30
 70
     1
102
RTVSPropertyOp31
 70
     1
102
RTVSPropertyOp32
 70
     1
102
RTVSPropertyOp33
 70
     1
102
RTVSPropertyOp34
 70
     1
102
RTVSPropertyOp35
 70
     1
102
RTVSPropertyOp36
 70
     1
102
RTVSPropertyOp37
 70
     1
102
RTVSPropertyOp38
 70
     1
102
RTVSPropertyOp39
 70
     1
102
RTVSPropertyOp40
 70
     1
102
RTVSPropertyOp41
 70
     1
102
RTVSPropertyOp42
 70
     1
102
RTVSPropertyOp43
 70
     1
102
RTVSPropertyOp44
 70
     1
102
RTVSPropertyOp45
 70
     1
102
RTVSPropertyOp46
 70
     1
102
RTVSPropertyOp47
 70
     1
102
RTVSPropertyOp48
 70
     1
102
RTVSPropertyOp49
 70
     1
102
RTVSPropertyOp50
 70
     1
102
RTVSPropertyOp51
 70
     0
102
RTVSPropertyOp52
 70
     0
102
RTVSPropertyOp53
 70
     1
102
RTVSPropertyOp54
 70
     1
102
RTVSPropertyOp55
 70
     1
102
RTVSPropertyOp56
 70
     1
102
RTVSPropertyOp57
 70
     1
102
RTVSPost2010Prop28
280
     0
102
RTVSPost2010PropOp28
 70
     1
102
RTVSPost2010Prop29
280
     1
102
RTVSPost2010PropOp29
 70
     1
102
RTVSPost2010Prop30
280
     1
102
RTVSPost2010PropOp30
 70
     1
102
RTVSPost2010Prop31
280
     0
102
RTVSPost2010PropOp31
 70
     1
102
RTVSPost2010Prop32
280
     0
102
RTVSPost2010PropOp32
 70
     1
102
RTVSPost2010Prop33
280
     0
102
RTVSPost2010PropOp33
 70
     1
102
RTVSPost2010Prop34
280
     0
102
RTVSPost2010PropOp34
 70
     1
102
RTVSPost2010Prop35
280
     0
102
RTVSPost2010PropOp35
 70
     1
102
RTVSPost2010Prop36
280
     0
102
RTVSPost2010PropOp36
 70
     1
102
RTVSPost2010Prop37
 90
       50
102
RTVSPost2010PropOp37
 70
     1
102
RTVSPost2010Prop38
140
0.0
102
RTVSPost2010PropOp38
 70
     1
102
RTVSPost2010Prop39
140
1.0
102
RTVSPost2010PropOp39
 70
     1
102
RTVSPost2010Prop40
 90
        0
102
RTVSPost2010PropOp40
 70
     1
102
RTVSPost2010Prop41ColorIndex
 90
       18
102
RTVSPost2010Prop41ColorRGB
 90
        0
102
RTVSPost2010PropOp41
 70
     1
102
RTVSPost2010Prop42
 90
       50
102
RTVSPost2010PropOp42
 70
     1
102
RTVSPost2010Prop43
 90
        3
102
RTVSPost2010PropOp43
 70
     1
102
RTVSPost2010Prop44ColorIndex
 90
        5
102
RTVSPost2010Prop44ColorRGB
 90
      255
102
RTVSPost2010PropOp44
 70
     1
102
RTVSPost2010Prop45
280
     0
102
RTVSPost2010PropOp45
 70
     1
102
RTVSPost2010Prop46
 90
       50
102
RTVSPost2010PropOp46
 70
     1
102
RTVSPost2010Prop47
 90
       50
102
RTVSPost2010PropOp47
 70
     1
102
RTVSPost2010Prop48
 90
       50
102
RTVSPost2010PropOp48
 70
     1
102
RTVSPost2010Prop49
280
     0
102
RTVSPost2010PropOp49
 70
     1
102
RTVSPost2010Prop50
 90
       50
102
RTVSPost2010PropOp50
 70
     1
102
RTVSPost2010Prop51ColorIndex
 90
      256
102
RTVSPost2010Prop51ColorRGB
 90
-16777216
102
RTVSPost2010PropOp51
 70
     0
102
RTVSPost2010Prop52
140
1.0
102
RTVSPost2010PropOp52
 70
     0
102
RTVSPost2010Prop53
 90
        2
102
RTVSPost2010PropOp53
 70
     1
102
RTVSPost2010Prop54
  1
strokes_ogs.tif
102
RTVSPost2010PropOp54
 70
     1
102
RTVSPost2010Prop55
280
     0
102
RTVSPost2010PropOp55
 70
     1
102
RTVSPost2010Prop56
140
1.0
102
RTVSPost2010PropOp56
 70
     1
102
RTVSPost2010Prop57
140
1.0
102
RTVSPost2010PropOp57
 70
     1
  0
XRECORD
  5
629
102
{ACAD_REACTORS
330
628
102
}
330
628
100
AcDbXrecord
280
     1
102
RTVSPropertyOp0
 70
     1
102
RTVSPropertyOp1
 70
     1
102
RTVSPropertyOp2
 70
     1
102
RTVSPropertyOp3
 70
     1
102
RTVSPropertyOp4
 70
     1
102
RTVSPropertyOp5
 70
     1
102
RTVSPropertyOp6
 70
     1
102
RTVSPropertyOp7
 70
     1
102
RTVSPropertyOp8
 70
     1
102
RTVSPropertyOp9
 70
     1
102
RTVSPropertyOp10
 70
     1
102
RTVSPropertyOp11
 70
     1
102
RTVSPropertyOp12
 70
     1
102
RTVSPropertyOp13
 70
     1
102
RTVSPropertyOp14
 70
     1
102
RTVSPropertyOp15
 70
     1
102
RTVSPropertyOp16
 70
     1
102
RTVSPropertyOp17
 70
     1
102
RTVSPropertyOp18
 70
     1
102
RTVSPropertyOp19
 70
     1
102
RTVSPropertyOp20
 70
     1
102
RTVSPropertyOp21
 70
     1
102
RTVSPropertyOp22
 70
     1
102
RTVSPropertyOp23
 70
     1
102
RTVSPropertyOp24
 70
     1
102
RTVSPropertyOp25
 70
     1
102
RTVSPropertyOp26
 70
     1
102
RTVSPropertyOp27
 70
     1
102
RTVSPropertyOp28
 70
     1
102
RTVSPropertyOp29
 70
     1
102
RTVSPropertyOp30
 70
     1
102
RTVSPropertyOp31
 70
     1
102
RTVSPropertyOp32
 70
     1
102
RTVSPropertyOp33
 70
     1
102
RTVSPropertyOp34
 70
     1
102
RTVSPropertyOp35
 70
     1
102
RTVSPropertyOp36
 70
     1
102
RTVSPropertyOp37
 70
     1
102
RTVSPropertyOp38
 70
     1
102
RTVSPropertyOp39
 70
     1
102
RTVSPropertyOp40
 70
     1
102
RTVSPropertyOp41
 70
     1
102
RTVSPropertyOp42
 70
     1
102
RTVSPropertyOp43
 70
     1
102
RTVSPropertyOp44
 70
     1
102
RTVSPropertyOp45
 70
     1
102
RTVSPropertyOp46
 70
     1
102
RTVSPropertyOp47
 70
     1
102
RTVSPropertyOp48
 70
     1
102
RTVSPropertyOp49
 70
     1
102
RTVSPropertyOp50
 70
     1
102
RTVSPropertyOp51
 70
     0
102
RTVSPropertyOp52
 70
     0
102
RTVSPropertyOp53
 70
     1
102
RTVSPropertyOp54
 70
     1
102
RTVSPropertyOp55
 70
     1
102
RTVSPropertyOp56
 70
     1
102
RTVSPropertyOp57
 70
     1
102
RTVSPost2010Prop28
280
     0
102
RTVSPost2010PropOp28
 70
     1
102
RTVSPost2010Prop29
280
     1
102
RTVSPost2010PropOp29
 70
     1
102
RTVSPost2010Prop30
280
     1
102
RTVSPost2010PropOp30
 70
     1
102
RTVSPost2010Prop31
280
     0
102
RTVSPost2010PropOp31
 70
     1
102
RTVSPost2010Prop32
280
     0
102
RTVSPost2010PropOp32
 70
     1
102
RTVSPost2010Prop33
280
     0
102
RTVSPost2010PropOp33
 70
     1
102
RTVSPost2010Prop34
280
     0
102
RTVSPost2010PropOp34
 70
     1
102
RTVSPost2010Prop35
280
     0
102
RTVSPost2010PropOp35
 70
     1
102
RTVSPost2010Prop36
280
     0
102
RTVSPost2010PropOp36
 70
     1
102
RTVSPost2010Prop37
 90
       50
102
RTVSPost2010PropOp37
 70
     1
102
RTVSPost2010Prop38
140
0.0
102
RTVSPost2010PropOp38
 70
     1
102
RTVSPost2010Prop39
140
1.0
102
RTVSPost2010PropOp39
 70
     1
102
RTVSPost2010Prop40
 90
        0
102
RTVSPost2010PropOp40
 70
     1
102
RTVSPost2010Prop41ColorIndex
 90
       18
102
RTVSPost2010Prop41ColorRGB
 90
        0
102
RTVSPost2010PropOp41
 70
     1
102
RTVSPost2010Prop42
 90
       50
102
RTVSPost2010PropOp42
 70
     1
102
RTVSPost2010Prop43
 90
        3
102
RTVSPost2010PropOp43
 70
     1
102
RTVSPost2010Prop44ColorIndex
 90
        5
102
RTVSPost2010Prop44ColorRGB
 90
      255
102
RTVSPost2010PropOp44
 70
     1
102
RTVSPost2010Prop45
280
     0
102
RTVSPost2010PropOp45
 70
     1
102
RTVSPost2010Prop46
 90
       50
102
RTVSPost2010PropOp46
 70
     1
102
RTVSPost2010Prop47
 90
       50
102
RTVSPost2010PropOp47
 70
     1
102
RTVSPost2010Prop48
 90
       50
102
RTVSPost2010PropOp48
 70
     1
102
RTVSPost2010Prop49
280
     0
102
RTVSPost2010PropOp49
 70
     1
102
RTVSPost2010Prop50
 90
       50
102
RTVSPost2010PropOp50
 70
     1
102
RTVSPost2010Prop51ColorIndex
 90
      256
102
RTVSPost2010Prop51ColorRGB
 90
-16777216
102
RTVSPost2010PropOp51
 70
     0
102
RTVSPost2010Prop52
140
1.0
102
RTVSPost2010PropOp52
 70
     0
102
RTVSPost2010Prop53
 90
        2
102
RTVSPost2010PropOp53
 70
     1
102
RTVSPost2010Prop54
  1
strokes_ogs.tif
102
RTVSPost2010PropOp54
 70
     1
102
RTVSPost2010Prop55
280
     0
102
RTVSPost2010PropOp55
 70
     1
102
RTVSPost2010Prop56
140
1.0
102
RTVSPost2010PropOp56
 70
     1
102
RTVSPost2010Prop57
140
1.0
102
RTVSPost2010PropOp57
 70
     1
  0
XRECORD
  5
62B
102
{ACAD_REACTORS
330
62A
102
}
330
62A
100
AcDbXrecord
280
     1
102
RTVSPropertyOp0
 70
     1
102
RTVSPropertyOp1
 70
     1
102
RTVSPropertyOp2
 70
     1
102
RTVSPropertyOp3
 70
     1
102
RTVSPropertyOp4
 70
     1
102
RTVSPropertyOp5
 70
     1
102
RTVSPropertyOp6
 70
     1
102
RTVSPropertyOp7
 70
     1
102
RTVSPropertyOp8
 70
     1
102
RTVSPropertyOp9
 70
     1
102
RTVSPropertyOp10
 70
     1
102
RTVSPropertyOp11
 70
     1
102
RTVSPropertyOp12
 70
     1
102
RTVSPropertyOp13
 70
     1
102
RTVSPropertyOp14
 70
     1
102
RTVSPropertyOp15
 70
     1
102
RTVSPropertyOp16
 70
     1
102
RTVSPropertyOp17
 70
     1
102
RTVSPropertyOp18
 70
     1
102
RTVSPropertyOp19
 70
     1
102
RTVSPropertyOp20
 70
     1
102
RTVSPropertyOp21
 70
     1
102
RTVSPropertyOp22
 70
     1
102
RTVSPropertyOp23
 70
     1
102
RTVSPropertyOp24
 70
     1
102
RTVSPropertyOp25
 70
     1
102
RTVSPropertyOp26
 70
     1
102
RTVSPropertyOp27
 70
     1
102
RTVSPropertyOp28
 70
     1
102
RTVSPropertyOp29
 70
     1
102
RTVSPropertyOp30
 70
     1
102
RTVSPropertyOp31
 70
     1
102
RTVSPropertyOp32
 70
     1
102
RTVSPropertyOp33
 70
     1
102
RTVSPropertyOp34
 70
     1
102
RTVSPropertyOp35
 70
     1
102
RTVSPropertyOp36
 70
     1
102
RTVSPropertyOp37
 70
     1
102
RTVSPropertyOp38
 70
     1
102
RTVSPropertyOp39
 70
     1
102
RTVSPropertyOp40
 70
     1
102
RTVSPropertyOp41
 70
     1
102
RTVSPropertyOp42
 70
     1
102
RTVSPropertyOp43
 70
     1
102
RTVSPropertyOp44
 70
     1
102
RTVSPropertyOp45
 70
     1
102
RTVSPropertyOp46
 70
     1
102
RTVSPropertyOp47
 70
     1
102
RTVSPropertyOp48
 70
     1
102
RTVSPropertyOp49
 70
     1
102
RTVSPropertyOp50
 70
     1
102
RTVSPropertyOp51
 70
     0
102
RTVSPropertyOp52
 70
     0
102
RTVSPropertyOp53
 70
     1
102
RTVSPropertyOp54
 70
     1
102
RTVSPropertyOp55
 70
     1
102
RTVSPropertyOp56
 70
     1
102
RTVSPropertyOp57
 70
     1
102
RTVSPost2010Prop28
280
     0
102
RTVSPost2010PropOp28
 70
     1
102
RTVSPost2010Prop29
280
     1
102
RTVSPost2010PropOp29
 70
     1
102
RTVSPost2010Prop30
280
     1
102
RTVSPost2010PropOp30
 70
     1
102
RTVSPost2010Prop31
280
     0
102
RTVSPost2010PropOp31
 70
     1
102
RTVSPost2010Prop32
280
     0
102
RTVSPost2010PropOp32
 70
     1
102
RTVSPost2010Prop33
280
     0
102
RTVSPost2010PropOp33
 70
     1
102
RTVSPost2010Prop34
280
     0
102
RTVSPost2010PropOp34
 70
     1
102
RTVSPost2010Prop35
280
     0
102
RTVSPost2010PropOp35
 70
     1
102
RTVSPost2010Prop36
280
     0
102
RTVSPost2010PropOp36
 70
     1
102
RTVSPost2010Prop37
 90
       50
102
RTVSPost2010PropOp37
 70
     1
102
RTVSPost2010Prop38
140
0.0
102
RTVSPost2010PropOp38
 70
     1
102
RTVSPost2010Prop39
140
1.0
102
RTVSPost2010PropOp39
 70
     1
102
RTVSPost2010Prop40
 90
        0
102
RTVSPost2010PropOp40
 70
     1
102
RTVSPost2010Prop41ColorIndex
 90
       18
102
RTVSPost2010Prop41ColorRGB
 90
        0
102
RTVSPost2010PropOp41
 70
     1
102
RTVSPost2010Prop42
 90
       50
102
RTVSPost2010PropOp42
 70
     1
102
RTVSPost2010Prop43
 90
        3
102
RTVSPost2010PropOp43
 70
     1
102
RTVSPost2010Prop44ColorIndex
 90
        5
102
RTVSPost2010Prop44ColorRGB
 90
      255
102
RTVSPost2010PropOp44
 70
     1
102
RTVSPost2010Prop45
280
     0
102
RTVSPost2010PropOp45
 70
     1
102
RTVSPost2010Prop46
 90
       50
102
RTVSPost2010PropOp46
 70
     1
102
RTVSPost2010Prop47
 90
       50
102
RTVSPost2010PropOp47
 70
     1
102
RTVSPost2010Prop48
 90
       50
102
RTVSPost2010PropOp48
 70
     1
102
RTVSPost2010Prop49
280
     0
102
RTVSPost2010PropOp49
 70
     1
102
RTVSPost2010Prop50
 90
       50
102
RTVSPost2010PropOp50
 70
     1
102
RTVSPost2010Prop51ColorIndex
 90
      256
102
RTVSPost2010Prop51ColorRGB
 90
-16777216
102
RTVSPost2010PropOp51
 70
     0
102
RTVSPost2010Prop52
140
1.0
102
RTVSPost2010PropOp52
 70
     0
102
RTVSPost2010Prop53
 90
        2
102
RTVSPost2010PropOp53
 70
     1
102
RTVSPost2010Prop54
  1
strokes_ogs.tif
102
RTVSPost2010PropOp54
 70
     1
102
RTVSPost2010Prop55
280
     0
102
RTVSPost2010PropOp55
 70
     1
102
RTVSPost2010Prop56
140
1.0
102
RTVSPost2010PropOp56
 70
     1
102
RTVSPost2010Prop57
140
1.0
102
RTVSPost2010PropOp57
 70
     1
  0
XRECORD
  5
63F
102
{ACAD_REACTORS
330
63E
102
}
330
63E
100
AcDbXrecord
280
     1
102
RTVSPropertyOp0
 70
     1
102
RTVSPropertyOp1
 70
     1
102
RTVSPropertyOp2
 70
     1
102
RTVSPropertyOp3
 70
     1
102
RTVSPropertyOp4
 70
     1
102
RTVSPropertyOp5
 70
     1
102
RTVSPropertyOp6
 70
     1
102
RTVSPropertyOp7
 70
     1
102
RTVSPropertyOp8
 70
     1
102
RTVSPropertyOp9
 70
     1
102
RTVSPropertyOp10
 70
     1
102
RTVSPropertyOp11
 70
     1
102
RTVSPropertyOp12
 70
     1
102
RTVSPropertyOp13
 70
     1
102
RTVSPropertyOp14
 70
     1
102
RTVSPropertyOp15
 70
     1
102
RTVSPropertyOp16
 70
     1
102
RTVSPropertyOp17
 70
     1
102
RTVSPropertyOp18
 70
     1
102
RTVSPropertyOp19
 70
     1
102
RTVSPropertyOp20
 70
     1
102
RTVSPropertyOp21
 70
     1
102
RTVSPropertyOp22
 70
     1
102
RTVSPropertyOp23
 70
     1
102
RTVSPropertyOp24
 70
     1
102
RTVSPropertyOp25
 70
     1
102
RTVSPropertyOp26
 70
     1
102
RTVSPropertyOp27
 70
     1
102
RTVSPropertyOp28
 70
     1
102
RTVSPropertyOp29
 70
     1
102
RTVSPropertyOp30
 70
     1
102
RTVSPropertyOp31
 70
     1
102
RTVSPropertyOp32
 70
     1
102
RTVSPropertyOp33
 70
     1
102
RTVSPropertyOp34
 70
     1
102
RTVSPropertyOp35
 70
     1
102
RTVSPropertyOp36
 70
     1
102
RTVSPropertyOp37
 70
     1
102
RTVSPropertyOp38
 70
     1
102
RTVSPropertyOp39
 70
     1
102
RTVSPropertyOp40
 70
     1
102
RTVSPropertyOp41
 70
     1
102
RTVSPropertyOp42
 70
     1
102
RTVSPropertyOp43
 70
     1
102
RTVSPropertyOp44
 70
     1
102
RTVSPropertyOp45
 70
     1
102
RTVSPropertyOp46
 70
     1
102
RTVSPropertyOp47
 70
     1
102
RTVSPropertyOp48
 70
     1
102
RTVSPropertyOp49
 70
     1
102
RTVSPropertyOp50
 70
     1
102
RTVSPropertyOp51
 70
     0
102
RTVSPropertyOp52
 70
     0
102
RTVSPropertyOp53
 70
     1
102
RTVSPropertyOp54
 70
     1
102
RTVSPropertyOp55
 70
     1
102
RTVSPropertyOp56
 70
     1
102
RTVSPropertyOp57
 70
     1
102
RTVSPost2010Prop28
280
     0
102
RTVSPost2010PropOp28
 70
     1
102
RTVSPost2010Prop29
280
     1
102
RTVSPost2010PropOp29
 70
     1
102
RTVSPost2010Prop30
280
     1
102
RTVSPost2010PropOp30
 70
     1
102
RTVSPost2010Prop31
280
     0
102
RTVSPost2010PropOp31
 70
     1
102
RTVSPost2010Prop32
280
     0
102
RTVSPost2010PropOp32
 70
     1
102
RTVSPost2010Prop33
280
     0
102
RTVSPost2010PropOp33
 70
     1
102
RTVSPost2010Prop34
280
     0
102
RTVSPost2010PropOp34
 70
     1
102
RTVSPost2010Prop35
280
     0
102
RTVSPost2010PropOp35
 70
     1
102
RTVSPost2010Prop36
280
     0
102
RTVSPost2010PropOp36
 70
     1
102
RTVSPost2010Prop37
 90
       50
102
RTVSPost2010PropOp37
 70
     1
102
RTVSPost2010Prop38
140
0.0
102
RTVSPost2010PropOp38
 70
     1
102
RTVSPost2010Prop39
140
1.0
102
RTVSPost2010PropOp39
 70
     1
102
RTVSPost2010Prop40
 90
        0
102
RTVSPost2010PropOp40
 70
     1
102
RTVSPost2010Prop41ColorIndex
 90
       18
102
RTVSPost2010Prop41ColorRGB
 90
        0
102
RTVSPost2010PropOp41
 70
     1
102
RTVSPost2010Prop42
 90
       50
102
RTVSPost2010PropOp42
 70
     1
102
RTVSPost2010Prop43
 90
        3
102
RTVSPost2010PropOp43
 70
     1
102
RTVSPost2010Prop44ColorIndex
 90
        5
102
RTVSPost2010Prop44ColorRGB
 90
      255
102
RTVSPost2010PropOp44
 70
     1
102
RTVSPost2010Prop45
280
     0
102
RTVSPost2010PropOp45
 70
     1
102
RTVSPost2010Prop46
 90
       50
102
RTVSPost2010PropOp46
 70
     1
102
RTVSPost2010Prop47
 90
       50
102
RTVSPost2010PropOp47
 70
     1
102
RTVSPost2010Prop48
 90
       50
102
RTVSPost2010PropOp48
 70
     1
102
RTVSPost2010Prop49
280
     0
102
RTVSPost2010PropOp49
 70
     1
102
RTVSPost2010Prop50
 90
       50
102
RTVSPost2010PropOp50
 70
     1
102
RTVSPost2010Prop51ColorIndex
 90
      256
102
RTVSPost2010Prop51ColorRGB
 90
-16777216
102
RTVSPost2010PropOp51
 70
     0
102
RTVSPost2010Prop52
140
1.0
102
RTVSPost2010PropOp52
 70
     0
102
RTVSPost2010Prop53
 90
        2
102
RTVSPost2010PropOp53
 70
     1
102
RTVSPost2010Prop54
  1
strokes_ogs.tif
102
RTVSPost2010PropOp54
 70
     1
102
RTVSPost2010Prop55
280
     0
102
RTVSPost2010PropOp55
 70
     1
102
RTVSPost2010Prop56
140
1.0
102
RTVSPost2010PropOp56
 70
     1
102
RTVSPost2010Prop57
140
1.0
102
RTVSPost2010PropOp57
 70
     1
  0
XRECORD
  5
635
102
{ACAD_REACTORS
330
634
102
}
330
634
100
AcDbXrecord
280
     1
102
RTVSPropertyOp0
 70
     1
102
RTVSPropertyOp1
 70
     1
102
RTVSPropertyOp2
 70
     1
102
RTVSPropertyOp3
 70
     1
102
RTVSPropertyOp4
 70
     1
102
RTVSPropertyOp5
 70
     1
102
RTVSPropertyOp6
 70
     1
102
RTVSPropertyOp7
 70
     1
102
RTVSPropertyOp8
 70
     1
102
RTVSPropertyOp9
 70
     1
102
RTVSPropertyOp10
 70
     1
102
RTVSPropertyOp11
 70
     1
102
RTVSPropertyOp12
 70
     1
102
RTVSPropertyOp13
 70
     1
102
RTVSPropertyOp14
 70
     1
102
RTVSPropertyOp15
 70
     1
102
RTVSPropertyOp16
 70
     1
102
RTVSPropertyOp17
 70
     1
102
RTVSPropertyOp18
 70
     1
102
RTVSPropertyOp19
 70
     1
102
RTVSPropertyOp20
 70
     1
102
RTVSPropertyOp21
 70
     1
102
RTVSPropertyOp22
 70
     1
102
RTVSPropertyOp23
 70
     1
102
RTVSPropertyOp24
 70
     1
102
RTVSPropertyOp25
 70
     1
102
RTVSPropertyOp26
 70
     1
102
RTVSPropertyOp27
 70
     1
102
RTVSPropertyOp28
 70
     1
102
RTVSPropertyOp29
 70
     1
102
RTVSPropertyOp30
 70
     1
102
RTVSPropertyOp31
 70
     1
102
RTVSPropertyOp32
 70
     1
102
RTVSPropertyOp33
 70
     1
102
RTVSPropertyOp34
 70
     1
102
RTVSPropertyOp35
 70
     1
102
RTVSPropertyOp36
 70
     1
102
RTVSPropertyOp37
 70
     1
102
RTVSPropertyOp38
 70
     1
102
RTVSPropertyOp39
 70
     1
102
RTVSPropertyOp40
 70
     1
102
RTVSPropertyOp41
 70
     1
102
RTVSPropertyOp42
 70
     1
102
RTVSPropertyOp43
 70
     1
102
RTVSPropertyOp44
 70
     1
102
RTVSPropertyOp45
 70
     1
102
RTVSPropertyOp46
 70
     1
102
RTVSPropertyOp47
 70
     1
102
RTVSPropertyOp48
 70
     1
102
RTVSPropertyOp49
 70
     1
102
RTVSPropertyOp50
 70
     1
102
RTVSPropertyOp51
 70
     0
102
RTVSPropertyOp52
 70
     0
102
RTVSPropertyOp53
 70
     1
102
RTVSPropertyOp54
 70
     1
102
RTVSPropertyOp55
 70
     1
102
RTVSPropertyOp56
 70
     1
102
RTVSPropertyOp57
 70
     1
102
RTVSPost2010Prop28
280
     0
102
RTVSPost2010PropOp28
 70
     1
102
RTVSPost2010Prop29
280
     1
102
RTVSPost2010PropOp29
 70
     1
102
RTVSPost2010Prop30
280
     1
102
RTVSPost2010PropOp30
 70
     1
102
RTVSPost2010Prop31
280
     0
102
RTVSPost2010PropOp31
 70
     1
102
RTVSPost2010Prop32
280
     0
102
RTVSPost2010PropOp32
 70
     1
102
RTVSPost2010Prop33
280
     0
102
RTVSPost2010PropOp33
 70
     1
102
RTVSPost2010Prop34
280
     0
102
RTVSPost2010PropOp34
 70
     1
102
RTVSPost2010Prop35
280
     0
102
RTVSPost2010PropOp35
 70
     1
102
RTVSPost2010Prop36
280
     0
102
RTVSPost2010PropOp36
 70
     1
102
RTVSPost2010Prop37
 90
       50
102
RTVSPost2010PropOp37
 70
     1
102
RTVSPost2010Prop38
140
0.0
102
RTVSPost2010PropOp38
 70
     1
102
RTVSPost2010Prop39
140
1.0
102
RTVSPost2010PropOp39
 70
     1
102
RTVSPost2010Prop40
 90
        0
102
RTVSPost2010PropOp40
 70
     1
102
RTVSPost2010Prop41ColorIndex
 90
       18
102
RTVSPost2010Prop41ColorRGB
 90
        0
102
RTVSPost2010PropOp41
 70
     1
102
RTVSPost2010Prop42
 90
       50
102
RTVSPost2010PropOp42
 70
     1
102
RTVSPost2010Prop43
 90
        3
102
RTVSPost2010PropOp43
 70
     1
102
RTVSPost2010Prop44ColorIndex
 90
        5
102
RTVSPost2010Prop44ColorRGB
 90
      255
102
RTVSPost2010PropOp44
 70
     1
102
RTVSPost2010Prop45
280
     0
102
RTVSPost2010PropOp45
 70
     1
102
RTVSPost2010Prop46
 90
       50
102
RTVSPost2010PropOp46
 70
     1
102
RTVSPost2010Prop47
 90
       50
102
RTVSPost2010PropOp47
 70
     1
102
RTVSPost2010Prop48
 90
       50
102
RTVSPost2010PropOp48
 70
     1
102
RTVSPost2010Prop49
280
     0
102
RTVSPost2010PropOp49
 70
     1
102
RTVSPost2010Prop50
 90
       50
102
RTVSPost2010PropOp50
 70
     1
102
RTVSPost2010Prop51ColorIndex
 90
      256
102
RTVSPost2010Prop51ColorRGB
 90
-16777216
102
RTVSPost2010PropOp51
 70
     0
102
RTVSPost2010Prop52
140
1.0
102
RTVSPost2010PropOp52
 70
     0
102
RTVSPost2010Prop53
 90
        2
102
RTVSPost2010PropOp53
 70
     1
102
RTVSPost2010Prop54
  1
strokes_ogs.tif
102
RTVSPost2010PropOp54
 70
     1
102
RTVSPost2010Prop55
280
     0
102
RTVSPost2010PropOp55
 70
     1
102
RTVSPost2010Prop56
140
1.0
102
RTVSPost2010PropOp56
 70
     1
102
RTVSPost2010Prop57
140
1.0
102
RTVSPost2010PropOp57
 70
     1
  0
XRECORD
  5
63D
102
{ACAD_REACTORS
330
63C
102
}
330
63C
100
AcDbXrecord
280
     1
102
RTVSPropertyOp0
 70
     1
102
RTVSPropertyOp1
 70
     1
102
RTVSPropertyOp2
 70
     1
102
RTVSPropertyOp3
 70
     1
102
RTVSPropertyOp4
 70
     1
102
RTVSPropertyOp5
 70
     1
102
RTVSPropertyOp6
 70
     1
102
RTVSPropertyOp7
 70
     1
102
RTVSPropertyOp8
 70
     1
102
RTVSPropertyOp9
 70
     1
102
RTVSPropertyOp10
 70
     1
102
RTVSPropertyOp11
 70
     1
102
RTVSPropertyOp12
 70
     1
102
RTVSPropertyOp13
 70
     1
102
RTVSPropertyOp14
 70
     1
102
RTVSPropertyOp15
 70
     1
102
RTVSPropertyOp16
 70
     1
102
RTVSPropertyOp17
 70
     1
102
RTVSPropertyOp18
 70
     1
102
RTVSPropertyOp19
 70
     1
102
RTVSPropertyOp20
 70
     1
102
RTVSPropertyOp21
 70
     1
102
RTVSPropertyOp22
 70
     1
102
RTVSPropertyOp23
 70
     1
102
RTVSPropertyOp24
 70
     1
102
RTVSPropertyOp25
 70
     1
102
RTVSPropertyOp26
 70
     1
102
RTVSPropertyOp27
 70
     1
102
RTVSPropertyOp28
 70
     1
102
RTVSPropertyOp29
 70
     1
102
RTVSPropertyOp30
 70
     1
102
RTVSPropertyOp31
 70
     1
102
RTVSPropertyOp32
 70
     1
102
RTVSPropertyOp33
 70
     1
102
RTVSPropertyOp34
 70
     1
102
RTVSPropertyOp35
 70
     1
102
RTVSPropertyOp36
 70
     1
102
RTVSPropertyOp37
 70
     1
102
RTVSPropertyOp38
 70
     1
102
RTVSPropertyOp39
 70
     1
102
RTVSPropertyOp40
 70
     1
102
RTVSPropertyOp41
 70
     1
102
RTVSPropertyOp42
 70
     1
102
RTVSPropertyOp43
 70
     1
102
RTVSPropertyOp44
 70
     1
102
RTVSPropertyOp45
 70
     1
102
RTVSPropertyOp46
 70
     1
102
RTVSPropertyOp47
 70
     1
102
RTVSPropertyOp48
 70
     1
102
RTVSPropertyOp49
 70
     1
102
RTVSPropertyOp50
 70
     1
102
RTVSPropertyOp51
 70
     0
102
RTVSPropertyOp52
 70
     0
102
RTVSPropertyOp53
 70
     1
102
RTVSPropertyOp54
 70
     1
102
RTVSPropertyOp55
 70
     1
102
RTVSPropertyOp56
 70
     1
102
RTVSPropertyOp57
 70
     1
102
RTVSPost2010Prop28
280
     0
102
RTVSPost2010PropOp28
 70
     1
102
RTVSPost2010Prop29
280
     1
102
RTVSPost2010PropOp29
 70
     1
102
RTVSPost2010Prop30
280
     1
102
RTVSPost2010PropOp30
 70
     1
102
RTVSPost2010Prop31
280
     0
102
RTVSPost2010PropOp31
 70
     1
102
RTVSPost2010Prop32
280
     0
102
RTVSPost2010PropOp32
 70
     1
102
RTVSPost2010Prop33
280
     0
102
RTVSPost2010PropOp33
 70
     1
102
RTVSPost2010Prop34
280
     0
102
RTVSPost2010PropOp34
 70
     1
102
RTVSPost2010Prop35
280
     0
102
RTVSPost2010PropOp35
 70
     1
102
RTVSPost2010Prop36
280
     0
102
RTVSPost2010PropOp36
 70
     1
102
RTVSPost2010Prop37
 90
       50
102
RTVSPost2010PropOp37
 70
     1
102
RTVSPost2010Prop38
140
0.0
102
RTVSPost2010PropOp38
 70
     1
102
RTVSPost2010Prop39
140
1.0
102
RTVSPost2010PropOp39
 70
     1
102
RTVSPost2010Prop40
 90
        0
102
RTVSPost2010PropOp40
 70
     1
102
RTVSPost2010Prop41ColorIndex
 90
       18
102
RTVSPost2010Prop41ColorRGB
 90
        0
102
RTVSPost2010PropOp41
 70
     1
102
RTVSPost2010Prop42
 90
       50
102
RTVSPost2010PropOp42
 70
     1
102
RTVSPost2010Prop43
 90
        3
102
RTVSPost2010PropOp43
 70
     1
102
RTVSPost2010Prop44ColorIndex
 90
        5
102
RTVSPost2010Prop44ColorRGB
 90
      255
102
RTVSPost2010PropOp44
 70
     1
102
RTVSPost2010Prop45
280
     0
102
RTVSPost2010PropOp45
 70
     1
102
RTVSPost2010Prop46
 90
       50
102
RTVSPost2010PropOp46
 70
     1
102
RTVSPost2010Prop47
 90
       50
102
RTVSPost2010PropOp47
 70
     1
102
RTVSPost2010Prop48
 90
       50
102
RTVSPost2010PropOp48
 70
     1
102
RTVSPost2010Prop49
280
     0
102
RTVSPost2010PropOp49
 70
     1
102
RTVSPost2010Prop50
 90
       50
102
RTVSPost2010PropOp50
 70
     1
102
RTVSPost2010Prop51ColorIndex
 90
      256
102
RTVSPost2010Prop51ColorRGB
 90
-16777216
102
RTVSPost2010PropOp51
 70
     0
102
RTVSPost2010Prop52
140
1.0
102
RTVSPost2010PropOp52
 70
     0
102
RTVSPost2010Prop53
 90
        2
102
RTVSPost2010PropOp53
 70
     1
102
RTVSPost2010Prop54
  1
strokes_ogs.tif
102
RTVSPost2010PropOp54
 70
     1
102
RTVSPost2010Prop55
280
     0
102
RTVSPost2010PropOp55
 70
     1
102
RTVSPost2010Prop56
140
1.0
102
RTVSPost2010PropOp56
 70
     1
102
RTVSPost2010Prop57
140
1.0
102
RTVSPost2010PropOp57
 70
     1
  0
ENDSEC
  0
EOF
