  0
SECTION
  2
HEADER
  9
$ACADVER
  1
AC1018
  9
$ACADMAINTVER
 70
     0
  9
$DWGCODEPAGE
  3
ANSI_1252
  9
$INSBASE
 10
0.0
 20
0.0
 30
0.0
  9
$EXTMIN
 10
333.1670987962898
 20
333.1670987962943
 30
0.0
  9
$EXTMAX
 10
528.7334044208236
 20
501.5288731213791
 30
0.0
  9
$LIMMIN
 10
0.0
 20
0.0
  9
$LIMMAX
 10
12.0
 20
9.0
  9
$ORTHOMODE
 70
     0
  9
$REGENMODE
 70
     1
  9
$FILLMODE
 70
     1
  9
$QTEXTMODE
 70
     0
  9
$MIRRTEXT
 70
     1
  9
$LTSCALE
 40
1.0
  9
$ATTMODE
 70
     1
  9
$TEXTSIZE
 40
0.2
  9
$TRACEWID
 40
0.05
  9
$TEXTSTYLE
  7
Standard
  9
$CLAYER
  8
0
  9
$CELTYPE
  6
ByLayer
  9
$CECOLOR
 62
   256
  9
$CELTSCALE
 40
1.0
  9
$DISPSILH
 70
     0
  9
$DIMSCALE
 40
1.0
  9
$DIMASZ
 40
0.18
  9
$DIMEXO
 40
0.0625
  9
$DIMDLI
 40
0.38
  9
$DIMRND
 40
0.0
  9
$DIMDLE
 40
0.0
  9
$DIMEXE
 40
0.18
  9
$DIMTP
 40
0.0
  9
$DIMTM
 40
0.0
  9
$DIMTXT
 40
0.18
  9
$DIMCEN
 40
0.09
  9
$DIMTSZ
 40
0.0
  9
$DIMTOL
 70
     0
  9
$DIMLIM
 70
     0
  9
$DIMTIH
 70
     1
  9
$DIMTOH
 70
     1
  9
$DIMSE1
 70
     0
  9
$DIMSE2
 70
     0
  9
$DIMTAD
 70
     0
  9
$DIMZIN
 70
     0
  9
$DIMBLK
  1

  9
$DIMASO
 70
     1
  9
$DIMSHO
 70
     1
  9
$DIMPOST
  1

  9
$DIMAPOST
  1

  9
$DIMALT
 70
     0
  9
$DIMALTD
 70
     2
  9
$DIMALTF
 40
25.4
  9
$DIMLFAC
 40
1.0
  9
$DIMTOFL
 70
     0
  9
$DIMTVP
 40
0.0
  9
$DIMTIX
 70
     0
  9
$DIMSOXD
 70
     0
  9
$DIMSAH
 70
     0
  9
$DIMBLK1
  1

  9
$DIMBLK2
  1

  9
$DIMSTYLE
  2
Standard
  9
$DIMCLRD
 70
     0
  9
$DIMCLRE
 70
     0
  9
$DIMCLRT
 70
     0
  9
$DIMTFAC
 40
1.0
  9
$DIMGAP
 40
0.09
  9
$DIMJUST
 70
     0
  9
$DIMSD1
 70
     0
  9
$DIMSD2
 70
     0
  9
$DIMTOLJ
 70
     1
  9
$DIMTZIN
 70
     0
  9
$DIMALTZ
 70
     0
  9
$DIMALTTZ
 70
     0
  9
$DIMUPT
 70
     0
  9
$DIMDEC
 70
     4
  9
$DIMTDEC
 70
     4
  9
$DIMALTU
 70
     2
  9
$DIMALTTD
 70
     2
  9
$DIMTXSTY
  7
Standard
  9
$DIMAUNIT
 70
     0
  9
$DIMADEC
 70
     0
  9
$DIMALTRND
 40
0.0
  9
$DIMAZIN
 70
     0
  9
$DIMDSEP
 70
    46
  9
$DIMATFIT
 70
     3
  9
$DIMFRAC
 70
     0
  9
$DIMLDRBLK
  1

  9
$DIMLUNIT
 70
     2
  9
$DIMLWD
 70
    -2
  9
$DIMLWE
 70
    -2
  9
$DIMTMOVE
 70
     2
  9
$LUNITS
 70
     2
  9
$LUPREC
 70
     3
  9
$SKETCHINC
 40
0.1
  9
$FILLETRAD
 40
0.5
  9
$AUNITS
 70
     0
  9
$AUPREC
 70
     0
  9
$MENU
  1
.
  9
$ELEVATION
 40
0.0
  9
$PELEVATION
 40
0.0
  9
$THICKNESS
 40
0.0
  9
$LIMCHECK
 70
     0
  9
$CHAMFERA
 40
0.5
  9
$CHAMFERB
 40
0.5
  9
$CHAMFERC
 40
1.0
  9
$CHAMFERD
 40
0.0
  9
$SKPOLY
 70
     0
  9
$TDCREATE
 40
2457605.841250127
  9
$TDUCREATE
 40
2457605.507916794
  9
$TDUPDATE
 40
2457605.841250486
  9
$TDUUPDATE
 40
2457605.507917153
  9
$TDINDWG
 40
0.0000000116
  9
$TDUSRTIMER
 40
0.0000000116
  9
$USRTIMER
 70
     1
  9
$ANGBASE
 50
0.0
  9
$ANGDIR
 70
     0
  9
$PDMODE
 70
     0
  9
$PDSIZE
 40
0.0
  9
$PLINEWID
 40
0.0
  9
$SPLFRAME
 70
     0
  9
$SPLINETYPE
 70
     6
  9
$SPLINESEGS
 70
     8
  9
$HANDSEED
  5
256
  9
$SURFTAB1
 70
     6
  9
$SURFTAB2
 70
     6
  9
$SURFTYPE
 70
     6
  9
$SURFU
 70
     6
  9
$SURFV
 70
     6
  9
$UCSBASE
  2

  9
$UCSNAME
  2

  9
$UCSORG
 10
0.0
 20
0.0
 30
0.0
  9
$UCSXDIR
 10
1.0
 20
0.0
 30
0.0
  9
$UCSYDIR
 10
0.0
 20
1.0
 30
0.0
  9
$UCSORTHOREF
  2

  9
$UCSORTHOVIEW
 70
     0
  9
$UCSORGTOP
 10
0.0
 20
0.0
 30
0.0
  9
$UCSORGBOTTOM
 10
0.0
 20
0.0
 30
0.0
  9
$UCSORGLEFT
 10
0.0
 20
0.0
 30
0.0
  9
$UCSORGRIGHT
 10
0.0
 20
0.0
 30
0.0
  9
$UCSORGFRONT
 10
0.0
 20
0.0
 30
0.0
  9
$UCSORGBACK
 10
0.0
 20
0.0
 30
0.0
  9
$PUCSBASE
  2

  9
$PUCSNAME
  2

  9
$PUCSORG
 10
0.0
 20
0.0
 30
0.0
  9
$PUCSXDIR
 10
1.0
 20
0.0
 30
0.0
  9
$PUCSYDIR
 10
0.0
 20
1.0
 30
0.0
  9
$PUCSORTHOREF
  2

  9
$PUCSORTHOVIEW
 70
     0
  9
$PUCSORGTOP
 10
0.0
 20
0.0
 30
0.0
  9
$PUCSORGBOTTOM
 10
0.0
 20
0.0
 30
0.0
  9
$PUCSORGLEFT
 10
0.0
 20
0.0
 30
0.0
  9
$PUCSORGRIGHT
 10
0.0
 20
0.0
 30
0.0
  9
$PUCSORGFRONT
 10
0.0
 20
0.0
 30
0.0
  9
$PUCSORGBACK
 10
0.0
 20
0.0
 30
0.0
  9
$USERI1
 70
     0
  9
$USERI2
 70
     0
  9
$USERI3
 70
     0
  9
$USERI4
 70
     0
  9
$USERI5
 70
     0
  9
$USERR1
 40
0.0
  9
$USERR2
 40
0.0
  9
$USERR3
 40
0.0
  9
$USERR4
 40
0.0
  9
$USERR5
 40
0.0
  9
$WORLDVIEW
 70
     1
  9
$SHADEDGE
 70
     3
  9
$SHADEDIF
 70
    70
  9
$TILEMODE
 70
     1
  9
$MAXACTVP
 70
    64
  9
$PINSBASE
 10
0.0
 20
0.0
 30
0.0
  9
$PLIMCHECK
 70
     0
  9
$PEXTMIN
 10
1.000000000000000E+20
 20
1.000000000000000E+20
 30
1.000000000000000E+20
  9
$PEXTMAX
 10
-1.000000000000000E+20
 20
-1.000000000000000E+20
 30
-1.000000000000000E+20
  9
$PLIMMIN
 10
0.0
 20
0.0
  9
$PLIMMAX
 10
12.0
 20
9.0
  9
$UNITMODE
 70
     0
  9
$VISRETAIN
 70
     1
  9
$PLINEGEN
 70
     0
  9
$PSLTSCALE
 70
     1
  9
$TREEDEPTH
 70
  3020
  9
$CMLSTYLE
  2
Standard
  9
$CMLJUST
 70
     0
  9
$CMLSCALE
 40
1.0
  9
$PROXYGRAPHICS
 70
     1
  9
$MEASUREMENT
 70
     0
  9
$CELWEIGHT
370
    -1
  9
$ENDCAPS
280
     0
  9
$JOINSTYLE
280
     0
  9
$LWDISPLAY
290
     0
  9
$INSUNITS
 70
     4
  9
$HYPERLINKBASE
  1

  9
$STYLESHEET
  1

  9
$XEDIT
290
     1
  9
$CEPSNTYPE
380
     0
  9
$PSTYLEMODE
290
     1
  9
$FINGERPRINTGUID
  2
{FBE210EA-1884-4C63-A1D5-BCCD97CCBEA5}
  9
$VERSIONGUID
  2
{FAEB1C32-E019-11D5-929B-00C0DF256EC4}
  9
$EXTNAMES
290
     1
  9
$PSVPSCALE
 40
0.0
  9
$OLESTARTUP
290
     0
  9
$SORTENTS
280
   127
  9
$INDEXCTL
280
     0
  9
$HIDETEXT
280
     1
  9
$XCLIPFRAME
290
     0
  9
$HALOGAP
280
     0
  9
$OBSCOLOR
 70
   257
  9
$OBSLTYPE
280
     0
  9
$INTERSECTIONDISPLAY
280
     0
  9
$INTERSECTIONCOLOR
 70
   257
  9
$DIMASSOC
280
     2
  9
$PROJECTNAME
  1

  0
ENDSEC
  0
SECTION
  2
CLASSES
  0
CLASS
  1
ACDBDICTIONARYWDFLT
  2
AcDbDictionaryWithDefault
  3
ObjectDBX Classes
 90
        0
 91
        4
280
     0
281
     0
  0
CLASS
  1
VISUALSTYLE
  2
AcDbVisualStyle
  3
ObjectDBX Classes
 90
     4095
 91
        4
280
     0
281
     0
  0
CLASS
  1
MATERIAL
  2
AcDbMaterial
  3
ObjectDBX Classes
 90
     1153
 91
        4
280
     0
281
     0
  0
CLASS
  1
SCALE
  2
AcDbScale
  3
ObjectDBX Classes
 90
     1153
 91
        4
280
     0
281
     0
  0
CLASS
  1
SUN
  2
AcDbSun
  3
SCENEOE
 90
     1153
 91
        4
280
     0
281
     0
  0
CLASS
  1
DICTIONARYVAR
  2
AcDbDictionaryVar
  3
ObjectDBX Classes
 90
        0
 91
        4
280
     0
281
     0
  0
ENDSEC
  0
SECTION
  2
TABLES
  0
TABLE
  2
VPORT
  5
8
330
0
100
AcDbSymbolTable
 70
     1
  0
VPORT
  5
29
330
8
100
AcDbSymbolTableRecord
100
AcDbViewportTableRecord
  2
*Active
 70
     0
 10
0.0
 20
0.0
 11
1.0
 21
1.0
 12
430.9502516085567
 22
417.3479799979091
 13
0.0
 23
0.0
 14
0.5
 24
0.5
 15
0.5
 25
0.5
 16
0.0
 26
0.0
 36
1.0
 17
0.0
 27
0.0
 37
0.0
 40
171.7289976512943
 41
1.161583858668269
 42
50.0
 43
0.0
 44
0.0
 50
0.0
 51
0.0
 71
     0
 72
   100
 73
     1
 74
     3
 75
     0
 76
     0
 77
     0
 78
     0
281
     0
 65
     1
110
0.0
120
0.0
130
0.0
111
1.0
121
0.0
131
0.0
112
0.0
122
1.0
132
0.0
 79
     0
146
0.0
  0
ENDTAB
  0
TABLE
  2
LTYPE
  5
5
330
0
100
AcDbSymbolTable
 70
     1
  0
LTYPE
  5
14
330
5
100
AcDbSymbolTableRecord
100
AcDbLinetypeTableRecord
  2
ByBlock
 70
     0
  3

 72
    65
 73
     0
 40
0.0
  0
LTYPE
  5
15
330
5
100
AcDbSymbolTableRecord
100
AcDbLinetypeTableRecord
  2
ByLayer
 70
     0
  3

 72
    65
 73
     0
 40
0.0
  0
LTYPE
  5
16
330
5
100
AcDbSymbolTableRecord
100
AcDbLinetypeTableRecord
  2
Continuous
 70
     0
  3
Solid line
 72
    65
 73
     0
 40
0.0
  0
ENDTAB
  0
TABLE
  2
LAYER
  5
2
330
0
100
AcDbSymbolTable
 70
     2
  0
LAYER
  5
10
330
2
100
AcDbSymbolTableRecord
100
AcDbLayerTableRecord
  2
0
 70
     0
 62
     7
  6
Continuous
370
    -3
390
F
  0
LAYER
  5
62
330
2
100
AcDbSymbolTableRecord
100
AcDbLayerTableRecord
  2
Make2D$___$___
 70
     0
 62
    18
420
        0
  6
Continuous
370
    -3
390
F
  0
ENDTAB
  0
TABLE
  2
STYLE
  5
3
330
0
100
AcDbSymbolTable
 70
     1
  0
STYLE
  5
11
330
3
100
AcDbSymbolTableRecord
100
AcDbTextStyleTableRecord
  2
Standard
 70
     0
 40
0.0
 41
1.0
 50
0.0
 71
     0
 42
0.2
  3
txt
  4

  0
ENDTAB
  0
TABLE
  2
VIEW
  5
6
330
0
100
AcDbSymbolTable
 70
     0
  0
ENDTAB
  0
TABLE
  2
UCS
  5
7
330
0
100
AcDbSymbolTable
 70
     0
  0
ENDTAB
  0
TABLE
  2
APPID
  5
9
330
0
100
AcDbSymbolTable
 70
     1
  0
APPID
  5
12
330
9
100
AcDbSymbolTableRecord
100
AcDbRegAppTableRecord
  2
ACAD
 70
     0
  0
ENDTAB
  0
TABLE
  2
DIMSTYLE
  5
A
330
0
100
AcDbSymbolTable
 70
     1
100
AcDbDimStyleTable
  0
DIMSTYLE
105
27
330
A
100
AcDbSymbolTableRecord
100
AcDbDimStyleTableRecord
  2
Standard
 70
     0
178
     0
340
11
  0
ENDTAB
  0
TABLE
  2
BLOCK_RECORD
  5
1
330
0
100
AcDbSymbolTable
 70
     1
  0
BLOCK_RECORD
  5
1F
330
1
100
AcDbSymbolTableRecord
100
AcDbBlockTableRecord
  2
*Model_Space
340
22
  0
BLOCK_RECORD
  5
1B
330
1
100
AcDbSymbolTableRecord
100
AcDbBlockTableRecord
  2
*Paper_Space
340
1E
  0
BLOCK_RECORD
  5
23
330
1
100
AcDbSymbolTableRecord
100
AcDbBlockTableRecord
  2
*Paper_Space0
340
26
  0
ENDTAB
  0
ENDSEC
  0
SECTION
  2
BLOCKS
  0
BLOCK
  5
20
330
1F
100
AcDbEntity
  8
0
100
AcDbBlockBegin
  2
*Model_Space
 70
     0
 10
0.0
 20
0.0
 30
0.0
  3
*Model_Space
  1
*Model_Space
  0
ENDBLK
  5
21
330
1F
100
AcDbEntity
  8
0
100
AcDbBlockEnd
  0
BLOCK
  5
1C
330
1B
100
AcDbEntity
 67
     1
  8
0
100
AcDbBlockBegin
  2
*Paper_Space
 70
     0
 10
0.0
 20
0.0
 30
0.0
  3
*Paper_Space
  1
*Paper_Space
  0
ENDBLK
  5
1D
330
1B
100
AcDbEntity
 67
     1
  8
0
100
AcDbBlockEnd
  0
BLOCK
  5
24
330
23
100
AcDbEntity
  8
0
100
AcDbBlockBegin
  2
*Paper_Space0
 70
     0
 10
0.0
 20
0.0
 30
0.0
  3
*Paper_Space0
  1
*Paper_Space0
  0
ENDBLK
  5
25
330
23
100
AcDbEntity
  8
0
100
AcDbBlockEnd
  0
ENDSEC
  0
SECTION
  2
ENTITIES
  0
LINE
  5
63
330
1F
100
AcDbEntity
  8
Make2D$___$___
100
AcDbLine
 10
343.2485787376125
 20
400.9744453727735
 30
0.0
 11
342.9771229985215
 21
411.3409218144398
 31
0.0
  0
ARC
  5
64
330
1F
100
AcDbEntity
  8
Make2D$___$___
100
AcDbCircle
 10
358.2434335065599
 20
401.3670939186429
 30
0.0
 40
14.99999474741228
100
AcDbArc
 50
181.4999788267135
 51
270.0000219201406
  0
LINE
  5
65
330
1F
100
AcDbEntity
  8
Make2D$___$___
100
AcDbLine
 10
410.5437438760234
 20
412.2467919672179
 30
0.0
 11
410.5192254508273
 21
412.2350611051352
 31
0.0
  0
ARC
  5
66
330
1F
100
AcDbEntity
  8
Make2D$___$___
100
AcDbCircle
 10
411.1043416707239
 20
411.4266002119782
 30
0.0
 40
0.9669811839914001
100
AcDbArc
 50
157.9690899726918
 51
181.297791499913
  0
SPLINE
  5
67
330
1F
100
AcDbEntity
  8
Make2D$___$___
100
AcDbSpline
210
0.0
220
0.0
230
1.0
 70
     8
 71
     3
 72
    53
 73
    49
 74
     0
 42
0.000000001
 43
0.0000000001
 12
1.0
 22
0.0
 32
0.0
 13
1.0
 23
0.0
 33
0.0
 40
0.0000000195497746
 40
0.0000000195497746
 40
0.0000000195497746
 40
0.0000000195497746
 40
1.871311192991324
 40
1.871311192991324
 40
1.871311192991324
 40
3.743873709298776
 40
3.743873709298776
 40
3.743873709298776
 40
3.899941166226312
 40
3.899941166226312
 40
3.899941166226312
 40
5.616178420348486
 40
5.616178420348486
 40
5.616178420348486
 40
7.48614346617274
 40
7.48614346617274
 40
7.48614346617274
 40
8.41958498557669
 40
8.41958498557669
 40
8.41958498557669
 40
9.352050310153306
 40
9.352050310153306
 40
9.352050310153306
 40
10.28357635745842
 40
10.28357635745842
 40
10.28357635745842
 40
11.21401559161951
 40
11.21401559161951
 40
11.21401559161951
 40
11.67885278280596
 40
11.67885278280596
 40
11.67885278280596
 40
12.14351796328655
 40
12.14351796328655
 40
12.14351796328655
 40
12.60841588121834
 40
12.60841588121834
 40
12.60841588121834
 40
13.0739148522934
 40
13.0739148522934
 40
13.0739148522934
 40
13.30705780885825
 40
13.30705780885825
 40
13.30705780885825
 40
13.42499916102263
 40
13.42499916102263
 40
13.42499916102263
 40
13.48371701706537
 40
13.48371701706537
 40
13.48371701706537
 40
13.48371701706537
 10
410.9440092969243
 20
413.1885558858967
 30
0.0
 10
410.914305259595
 20
413.0898923534363
 30
0.0
 10
410.88527178319
 20
412.9992139036148
 30
0.0
 10
410.8570088967667
 20
412.916631135196
 30
0.0
 10
410.8286724387311
 20
412.8338333941333
 30
0.0
 10
410.8008913312087
 20
412.7584929370269
 30
0.0
 10
410.7739196199486
 20
412.690452152839
 30
0.0
 10
410.7716736619601
 20
412.684786337225
 30
0.0
 10
410.7695111570936
 20
412.6793657149983
 30
0.0
 10
410.7672778723725
 20
412.6738032419407
 30
0.0
 10
410.7421774019207
 20
412.6112851539888
 30
0.0
 10
410.7194390084862
 20
412.5588512435911
 30
0.0
 10
410.6962238991383
 20
412.5090596303789
 30
0.0
 10
410.6716047432093
 20
412.4562566273326
 30
0.0
 10
410.648422431265
 20
412.411163023397
 30
0.0
 10
410.628030138079
 20
412.3747842323551
 30
0.0
 10
410.6178425312533
 20
412.3566100713351
 30
0.0
 10
410.6082027280858
 20
412.3403193161321
 30
0.0
 10
410.5991939801446
 20
412.325801028936
 30
0.0
 10
410.5901961925821
 20
412.3113004052288
 30
0.0
 10
410.5818948978454
 20
412.2986785676017
 30
0.0
 10
410.5744464760413
 20
412.2878929675776
 30
0.0
 10
410.5670066349829
 20
412.2771197928014
 30
0.0
 10
410.5600577685948
 20
412.2676428612117
 30
0.0
 10
410.5533919418899
 20
412.2589951658401
 30
0.0
 10
410.5467352180143
 20
412.2503592797302
 30
0.0
 10
410.5399507999761
 20
412.242015432772
 30
0.0
 10
410.5325895596592
 20
412.2333981023553
 30
0.0
 10
410.5289125378028
 20
412.2290936494478
 30
0.0
 10
410.525002820114
 20
412.2246205382662
 30
0.0
 10
410.5208848205376
 20
412.2200129847383
 30
0.0
 10
410.5167686279455
 20
412.2154074530117
 30
0.0
 10
410.5123202352113
 20
412.2105289409037
 30
0.0
 10
410.5075392636543
 20
412.2053827082482
 30
0.0
 10
410.5027797242666
 20
412.2002595451568
 30
0.0
 10
410.4988154379988
 20
412.1960910310731
 30
0.0
 10
410.4961886530639
 20
412.1933829374702
 30
0.0
 10
410.4935451405872
 20
412.1906575985467
 30
0.0
 10
410.4916276355303
 20
412.1887574816083
 30
0.0
 10
410.4906768565572
 20
412.1878327322956
 30
0.0
 10
410.4901982798033
 20
412.1873672576307
 30
0.0
 10
410.4842582859902
 20
412.1817387688784
 30
0.0
 10
410.4725582643356
 20
412.1701463594968
 30
0.0
 10
410.4666555822708
 20
412.1642979680182
 30
0.0
 10
410.4597171418272
 20
412.1573240833918
 30
0.0
 10
410.4518513774235
 20
412.1491758830839
 30
0.0
 10
410.4484122337234
 20
412.1456132500939
 30
0.0
 10
410.4454650757395
 20
412.1425266723505
 30
0.0
 10
410.4435347877671
 20
412.1404963090887
 30
0.0
  0
ARC
  5
68
330
1F
100
AcDbEntity
  8
Make2D$___$___
100
AcDbCircle
 10
411.1329496166109
 20
411.4360224645254
 30
0.0
 40
0.9823408719552765
100
AcDbArc
 50
157.9803195952502
 51
181.3263380909023
  0
ARC
  5
69
330
1F
100
AcDbEntity
  8
Make2D$___$___
100
AcDbCircle
 10
411.1750422588872
 20
411.4194540083449
 30
0.0
 40
1.027575312657075
100
AcDbArc
 50
135.4127208197017
 51
157.992131699252
  0
LINE
  5
6A
330
1F
100
AcDbEntity
  8
Make2D$___$___
100
AcDbLine
 10
420.4502516085579
 20
364.2986797279227
 30
0.0
 11
420.4502516085579
 21
364.6419971554769
 31
0.0
  0
LINE
  5
6B
330
1F
100
AcDbEntity
  8
Make2D$___$___
100
AcDbLine
 10
420.4502516085579
 20
365.8919749985545
 30
0.0
 11
420.4502516085579
 21
366.2420180885906
 31
0.0
  0
LINE
  5
6C
330
1F
100
AcDbEntity
  8
Make2D$___$___
100
AcDbLine
 10
420.450251608558
 20
367.4921761111641
 30
0.0
 11
420.4502516085579
 21
367.8423429093217
 31
0.0
  0
LINE
  5
6D
330
1F
100
AcDbEntity
  8
Make2D$___$___
100
AcDbLine
 10
420.4502516085579
 20
369.091851649464
 30
0.0
 11
420.4502516085579
 21
369.4423913063005
 31
0.0
  0
LINE
  5
6E
330
1F
100
AcDbEntity
  8
Make2D$___$___
100
AcDbLine
 10
420.4502516085579
 20
370.691803921708
 30
0.0
 11
420.4502516085579
 21
371.0423724046177
 31
0.0
  0
LINE
  5
6F
330
1F
100
AcDbEntity
  8
Make2D$___$___
100
AcDbLine
 10
420.4502516085579
 20
372.2918264577816
 30
0.0
 11
420.4502516085579
 21
372.6423620523608
 31
0.0
  0
LINE
  5
70
330
1F
100
AcDbEntity
  8
Make2D$___$___
100
AcDbLine
 10
420.4502516085579
 20
373.8918359191621
 30
0.0
 11
420.4502516085579
 21
385.1670987962943
 31
0.0
  0
LINE
  5
71
330
1F
100
AcDbEntity
  8
Make2D$___$___
100
AcDbLine
 10
439.9502516085579
 20
362.6670987962943
 30
0.0
 11
441.2334674132238
 21
363.9503146009599
 31
0.0
  0
LINE
  5
72
330
1F
100
AcDbEntity
  8
Make2D$___$___
100
AcDbLine
 10
441.4018379098283
 20
368.261985722952
 30
0.0
 11
440.2363781796906
 21
367.6543462158758
 31
0.0
  0
LINE
  5
73
330
1F
100
AcDbEntity
  8
Make2D$___$___
100
AcDbLine
 10
441.4023250682606
 20
366.6614722284756
 30
0.0
 11
440.2391260372939
 21
366.0551883845666
 31
0.0
  0
LINE
  5
74
330
1F
100
AcDbEntity
  8
Make2D$___$___
100
AcDbLine
 10
441.4017381241061
 20
365.0622698216386
 30
0.0
 11
440.2372669660019
 21
364.4551146248791
 31
0.0
  0
LINE
  5
75
330
1F
100
AcDbEntity
  8
Make2D$___$___
100
AcDbLine
 10
421.6462372995836
 20
366.8625948736837
 30
0.0
 11
420.4628824868061
 21
367.4794075398119
 31
0.0
  0
LINE
  5
76
330
1F
100
AcDbEntity
  8
Make2D$___$___
100
AcDbLine
 10
421.6523919633782
 20
365.2609663159403
 30
0.0
 11
420.4636709493344
 21
365.880717306263
 31
0.0
  0
LINE
  5
77
330
1F
100
AcDbEntity
  8
Make2D$___$___
100
AcDbLine
 10
421.6482919042996
 20
363.6617088139693
 30
0.0
 11
420.4628837751674
 21
364.2796311248458
 31
0.0
  0
LINE
  5
78
330
1F
100
AcDbEntity
  8
Make2D$___$___
100
AcDbLine
 10
441.4502516085579
 20
373.0918530538502
 30
0.0
 11
441.4502516085579
 21
385.1670987962943
 31
0.0
  0
LINE
  5
79
330
1F
100
AcDbEntity
  8
Make2D$___$___
100
AcDbLine
 10
441.4502516085579
 20
365.0918807330459
 30
0.0
 11
441.4502516085579
 21
365.4419778922211
 31
0.0
  0
LINE
  5
7A
330
1F
100
AcDbEntity
  8
Make2D$___$___
100
AcDbLine
 10
441.4502516085579
 20
366.6922226653153
 30
0.0
 11
441.4502516085579
 21
367.0419397329588
 31
0.0
  0
LINE
  5
7B
330
1F
100
AcDbEntity
  8
Make2D$___$___
100
AcDbLine
 10
441.4502516085579
 20
368.2922719206859
 30
0.0
 11
441.4502516085579
 21
368.6423533854306
 31
0.0
  0
LINE
  5
7C
330
1F
100
AcDbEntity
  8
Make2D$___$___
100
AcDbLine
 10
441.4502516085579
 20
369.8918448963777
 30
0.0
 11
441.4502516085579
 21
370.2424073284437
 31
0.0
  0
LINE
  5
7D
330
1F
100
AcDbEntity
  8
Make2D$___$___
100
AcDbLine
 10
441.450251608558
 20
371.4917940262065
 30
0.0
 11
441.450251608558
 21
371.8423412484914
 31
0.0
  0
LINE
  5
7E
330
1F
100
AcDbEntity
  8
Make2D$___$___
100
AcDbLine
 10
440.2626251359186
 20
372.4670770503814
 30
0.0
 11
441.4374228328618
 21
371.8547296567559
 31
0.0
  0
LINE
  5
7F
330
1F
100
AcDbEntity
  8
Make2D$___$___
100
AcDbLine
 10
440.2531659164092
 20
370.8721664999808
 30
0.0
 11
441.4374779240829
 21
370.2549003890767
 31
0.0
  0
LINE
  5
80
330
1F
100
AcDbEntity
  8
Make2D$___$___
100
AcDbLine
 10
440.2485432159186
 20
369.2745439104994
 30
0.0
 11
441.4374728630089
 21
368.6548371995319
 31
0.0
  0
LINE
  5
81
330
1F
100
AcDbEntity
  8
Make2D$___$___
100
AcDbLine
 10
440.2526243461376
 20
367.6723048909165
 30
0.0
 11
441.4374058928447
 21
367.0547714009581
 31
0.0
  0
LINE
  5
82
330
1F
100
AcDbEntity
  8
Make2D$___$___
100
AcDbLine
 10
420.4981482043568
 20
372.6731641168967
 30
0.0
 11
421.6629414810084
 21
373.2802908743122
 31
0.0
  0
LINE
  5
83
330
1F
100
AcDbEntity
  8
Make2D$___$___
100
AcDbLine
 10
420.4982078736136
 20
371.0730580280824
 30
0.0
 11
421.6632355298225
 21
371.6803017538541
 31
0.0
  0
LINE
  5
84
330
1F
100
AcDbEntity
  8
Make2D$___$___
100
AcDbLine
 10
420.4981047172707
 20
369.473277515077
 30
0.0
 11
421.6629129055904
 21
370.080387049612
 31
0.0
  0
LINE
  5
85
330
1F
100
AcDbEntity
  8
Make2D$___$___
100
AcDbLine
 10
420.4982085082705
 20
367.8730284375762
 30
0.0
 11
421.6634580809198
 21
368.4804029017142
 31
0.0
  0
LINE
  5
86
330
1F
100
AcDbEntity
  8
Make2D$___$___
100
AcDbLine
 10
440.2526402232039
 20
366.0725426581644
 30
0.0
 11
441.4376922809591
 21
365.4548838690702
 31
0.0
  0
LINE
  5
87
330
1F
100
AcDbEntity
  8
Make2D$___$___
100
AcDbLine
 10
440.2599558164086
 20
364.4669463826543
 30
0.0
 11
441.2320606031964
 21
363.9600804618335
 31
0.0
  0
LINE
  5
88
330
1F
100
AcDbEntity
  8
Make2D$___$___
100
AcDbLine
 10
420.498339037725
 20
366.2724615468261
 30
0.0
 11
421.6581135340513
 21
366.8769967336193
 31
0.0
  0
LINE
  5
89
330
1F
100
AcDbEntity
  8
Make2D$___$___
100
AcDbLine
 10
420.4743038365459
 20
364.6597496264914
 30
0.0
 11
421.6631257566503
 21
365.2795494961371
 31
0.0
  0
LINE
  5
8A
330
1F
100
AcDbEntity
  8
Make2D$___$___
100
AcDbLine
 10
421.2184987246095
 20
363.4475418344355
 30
0.0
 11
421.6628980532163
 21
363.6792215692925
 31
0.0
  0
LINE
  5
8B
330
1F
100
AcDbEntity
  8
Make2D$___$___
100
AcDbLine
 10
421.9502516085569
 20
362.6670987962934
 30
0.0
 11
421.1895721304821
 21
363.4277782743682
 31
0.0
  0
LINE
  5
8C
330
1F
100
AcDbEntity
  8
Make2D$___$___
100
AcDbLine
 10
441.4023161084023
 20
373.0611272545418
 30
0.0
 11
440.2370372071651
 21
372.4537376032072
 31
0.0
  0
LINE
  5
8D
330
1F
100
AcDbEntity
  8
Make2D$___$___
100
AcDbLine
 10
441.4023871755644
 20
371.4609297754039
 30
0.0
 11
440.2389995653956
 21
370.8545701527854
 31
0.0
  0
LINE
  5
8E
330
1F
100
AcDbEntity
  8
Make2D$___$___
100
AcDbLine
 10
441.4022882953552
 20
369.8611726204397
 30
0.0
 11
440.2371003625805
 21
369.2538347089412
 31
0.0
  0
LINE
  5
8F
330
1F
100
AcDbEntity
  8
Make2D$___$___
100
AcDbLine
 10
421.6472681539252
 20
373.2622437892044
 30
0.0
 11
420.4630930447883
 21
373.8794723877939
 31
0.0
  0
LINE
  5
90
330
1F
100
AcDbEntity
  8
Make2D$___$___
100
AcDbLine
 10
421.6377122888219
 20
371.6669963555031
 30
0.0
 11
420.4629979974098
 21
372.2792798090873
 31
0.0
  0
LINE
  5
91
330
1F
100
AcDbEntity
  8
Make2D$___$___
100
AcDbLine
 10
421.6534065289216
 20
370.058953796164
 30
0.0
 11
420.4630600358509
 21
370.6793774398201
 31
0.0
  0
LINE
  5
92
330
1F
100
AcDbEntity
  8
Make2D$___$___
100
AcDbLine
 10
421.6378692588914
 20
368.4670629799697
 30
0.0
 11
420.4630557049671
 21
369.0794167471237
 31
0.0
  0
ARC
  5
93
330
1F
100
AcDbEntity
  8
Make2D$___$___
100
AcDbCircle
 10
459.12343948102
 20
416.3632258571317
 30
0.0
 40
3.990886105905391
100
AcDbArc
 50
181.4478053974355
 51
268.5695835111422
  0
ARC
  5
94
330
1F
100
AcDbEntity
  8
Make2D$___$___
100
AcDbCircle
 10
402.7770633196764
 20
416.3632260316093
 30
0.0
 40
3.990886526600432
100
AcDbArc
 50
271.4303266848829
 51
358.5521922494992
  0
LINE
  5
95
330
1F
100
AcDbEntity
  8
Make2D$___$___
100
AcDbLine
 10
407.4375013815227
 20
441.8801872704944
 30
0.0
 11
406.7666757776884
 21
416.2623910030644
 31
0.0
  0
LINE
  5
96
330
1F
100
AcDbEntity
  8
Make2D$___$___
100
AcDbLine
 10
425.1860588321835
 20
442.367098796294
 30
0.0
 11
430.9502516085578
 21
442.3670987962943
 31
0.0
  0
LINE
  5
97
330
1F
100
AcDbEntity
  8
Make2D$___$___
100
AcDbLine
 10
424.652584390206
 20
442.367098796294
 30
0.0
 11
425.0554202164652
 21
442.367098796294
 31
0.0
  0
LINE
  5
98
330
1F
100
AcDbEntity
  8
Make2D$___$___
100
AcDbLine
 10
424.1195276079837
 20
442.367098796294
 30
0.0
 11
424.5957145897073
 21
442.3670987962942
 31
0.0
  0
LINE
  5
99
330
1F
100
AcDbEntity
  8
Make2D$___$___
100
AcDbLine
 10
423.5873955019084
 20
442.367098796294
 30
0.0
 11
424.1085855999722
 21
442.367098796294
 31
0.0
  0
LINE
  5
9A
330
1F
100
AcDbEntity
  8
Make2D$___$___
100
AcDbLine
 10
423.056705239421
 20
442.367098796294
 30
0.0
 11
423.5751237888035
 21
442.367098796294
 31
0.0
  0
LINE
  5
9B
330
1F
100
AcDbEntity
  8
Make2D$___$___
100
AcDbLine
 10
422.5279827977577
 20
442.3670987962942
 30
0.0
 11
423.0430499842843
 21
442.3670987962941
 31
0.0
  0
LINE
  5
9C
330
1F
100
AcDbEntity
  8
Make2D$___$___
100
AcDbLine
 10
422.0017615356704
 20
442.367098796294
 30
0.0
 11
422.3246055633531
 21
442.367098796294
 31
0.0
  0
LINE
  5
9D
330
1F
100
AcDbEntity
  8
Make2D$___$___
100
AcDbLine
 10
421.4785806843497
 20
442.3670987962939
 30
0.0
 11
421.8791833953804
 21
442.367098796294
 31
0.0
  0
LINE
  5
9E
330
1F
100
AcDbEntity
  8
Make2D$___$___
100
AcDbLine
 10
419.909961646398
 20
442.3670987962939
 30
0.0
 11
421.4378162443194
 21
442.367098796294
 31
0.0
  0
LINE
  5
9F
330
1F
100
AcDbEntity
  8
Make2D$___$___
100
AcDbLine
 10
419.4028052356965
 20
442.3670987962939
 30
0.0
 11
419.6222134649207
 21
442.367098796294
 31
0.0
  0
LINE
  5
A0
330
1F
100
AcDbEntity
  8
Make2D$___$___
100
AcDbLine
 10
417.9181230701616
 20
442.367098796294
 30
0.0
 11
419.308591008182
 21
442.367098796294
 31
0.0
  0
LINE
  5
A1
330
1F
100
AcDbEntity
  8
Make2D$___$___
100
AcDbLine
 10
417.4372951053407
 20
442.3670987962939
 30
0.0
 11
417.6480966007807
 21
442.367098796294
 31
0.0
  0
LINE
  5
A2
330
1F
100
AcDbEntity
  8
Make2D$___$___
100
AcDbLine
 10
416.0443346182317
 20
442.367098796294
 30
0.0
 11
417.3510512269193
 21
442.367098796294
 31
0.0
  0
LINE
  5
A3
330
1F
100
AcDbEntity
  8
Make2D$___$___
100
AcDbLine
 10
415.1619123278039
 20
442.3670987962939
 30
0.0
 11
415.9439606823874
 21
442.3670987962939
 31
0.0
  0
LINE
  5
A4
330
1F
100
AcDbEntity
  8
Make2D$___$___
100
AcDbLine
 10
414.7359666273541
 20
442.3670987962941
 30
0.0
 11
414.9239925817394
 21
442.3670987962939
 31
0.0
  0
LINE
  5
A5
330
1F
100
AcDbEntity
  8
Make2D$___$___
100
AcDbLine
 10
414.3207764838186
 20
442.3670987962941
 30
0.0
 11
414.7021654978501
 21
442.367098796294
 31
0.0
  0
LINE
  5
A6
330
1F
100
AcDbEntity
  8
Make2D$___$___
100
AcDbLine
 10
413.9167494607823
 20
442.367098796294
 30
0.0
 11
414.0948909625824
 21
442.367098796294
 31
0.0
  0
LINE
  5
A7
330
1F
100
AcDbEntity
  8
Make2D$___$___
100
AcDbLine
 10
412.9369573347148
 20
442.3670987962941
 30
0.0
 11
413.8893422006123
 21
442.367098796294
 31
0.0
  0
LINE
  5
A8
330
1F
100
AcDbEntity
  8
Make2D$___$___
100
AcDbLine
 10
412.1004913209055
 20
442.3670987962941
 30
0.0
 11
412.1208678830588
 21
442.3670987962941
 31
0.0
  0
LINE
  5
A9
330
1F
100
AcDbEntity
  8
Make2D$___$___
100
AcDbLine
 10
411.7468303059197
 20
442.3670987962941
 30
0.0
 11
411.8902183730421
 21
442.3670987962941
 31
0.0
  0
LINE
  5
AA
330
1F
100
AcDbEntity
  8
Make2D$___$___
100
AcDbLine
 10
411.4508166091636
 20
442.3670987962941
 30
0.0
 11
411.5673632021007
 21
442.3670987962942
 31
0.0
  0
LINE
  5
AB
330
1F
100
AcDbEntity
  8
Make2D$___$___
100
AcDbLine
 10
408.3489684374663
 20
442.3670987962943
 30
0.0
 11
411.2801421634566
 21
442.367098796294
 31
0.0
  0
LINE
  5
AC
330
1F
100
AcDbEntity
  8
Make2D$___$___
100
AcDbLine
 10
408.2536729867498
 20
442.3670987962944
 30
0.0
 11
408.3298461968488
 21
442.3670987962943
 31
0.0
  0
LINE
  5
AD
330
1F
100
AcDbEntity
  8
Make2D$___$___
100
AcDbLine
 10
408.1714051136396
 20
442.3670987962943
 30
0.0
 11
408.2373556747387
 21
442.3670987962944
 31
0.0
  0
LINE
  5
AE
330
1F
100
AcDbEntity
  8
Make2D$___$___
100
AcDbLine
 10
407.942553417698
 20
442.3670987962946
 30
0.0
 11
407.9640605421867
 21
442.3670987962945
 31
0.0
  0
ARC
  5
AF
330
1F
100
AcDbEntity
  8
Make2D$___$___
100
AcDbCircle
 10
407.9373300440179
 20
441.8670987962946
 30
0.0
 40
0.499999999999903
100
AcDbArc
 50
89.99999999998697
 51
178.4999999947972
  0
ARC
  5
B0
330
1F
100
AcDbEntity
  8
Make2D$___$___
100
AcDbCircle
 10
453.963173173098
 20
441.8670987962941
 30
0.0
 40
0.5000000000000568
100
AcDbArc
 50
1.500000005332677
 51
90.00000000000651
  0
LINE
  5
B1
330
1F
100
AcDbEntity
  8
Make2D$___$___
100
AcDbLine
 10
453.9579497995782
 20
442.3670987962935
 30
0.0
 11
453.9625843413705
 21
442.3670987962935
 31
0.0
  0
LINE
  5
B2
330
1F
100
AcDbEntity
  8
Make2D$___$___
100
AcDbLine
 10
453.8924891146292
 20
442.3670987962938
 30
0.0
 11
453.9220563430019
 21
442.3670987962938
 31
0.0
  0
LINE
  5
B3
330
1F
100
AcDbEntity
  8
Make2D$___$___
100
AcDbLine
 10
453.8452973607102
 20
442.3670987962938
 30
0.0
 11
453.884928626763
 21
442.3670987962938
 31
0.0
  0
LINE
  5
B4
330
1F
100
AcDbEntity
  8
Make2D$___$___
100
AcDbLine
 10
453.7856178691748
 20
442.3670987962937
 30
0.0
 11
453.8355311746663
 21
442.3670987962938
 31
0.0
  0
LINE
  5
B5
330
1F
100
AcDbEntity
  8
Make2D$___$___
100
AcDbLine
 10
450.6953859663447
 20
442.3670987962941
 30
0.0
 11
453.7736062501079
 21
442.3670987962938
 31
0.0
  0
LINE
  5
B6
330
1F
100
AcDbEntity
  8
Make2D$___$___
100
AcDbLine
 10
450.0213510402812
 20
442.3670987962942
 30
0.0
 11
450.0637464798797
 21
442.3670987962941
 31
0.0
  0
LINE
  5
B7
330
1F
100
AcDbEntity
  8
Make2D$___$___
100
AcDbLine
 10
449.6908340248938
 20
442.367098796294
 30
0.0
 11
449.8238327347717
 21
442.3670987962942
 31
0.0
  0
LINE
  5
B8
330
1F
100
AcDbEntity
  8
Make2D$___$___
100
AcDbLine
 10
449.3477527713521
 20
442.367098796294
 30
0.0
 11
449.4879165131732
 21
442.3670987962941
 31
0.0
  0
LINE
  5
B9
330
1F
100
AcDbEntity
  8
Make2D$___$___
100
AcDbLine
 10
448.9923710324508
 20
442.367098796294
 30
0.0
 11
449.1269830797038
 21
442.3670987962941
 31
0.0
  0
LINE
  5
BA
330
1F
100
AcDbEntity
  8
Make2D$___$___
100
AcDbLine
 10
448.6249779650817
 20
442.3670987962939
 30
0.0
 11
448.7568030262539
 21
442.3670987962941
 31
0.0
  0
LINE
  5
BB
330
1F
100
AcDbEntity
  8
Make2D$___$___
100
AcDbLine
 10
448.2458873843331
 20
442.3670987962942
 30
0.0
 11
448.4349911923812
 21
442.3670987962942
 31
0.0
  0
LINE
  5
BC
330
1F
100
AcDbEntity
  8
Make2D$___$___
100
AcDbLine
 10
447.8554368928538
 20
442.367098796294
 30
0.0
 11
448.0111610037578
 21
442.367098796294
 31
0.0
  0
LINE
  5
BD
330
1F
100
AcDbEntity
  8
Make2D$___$___
100
AcDbLine
 10
447.4539868903883
 20
442.3670987962942
 30
0.0
 11
447.5797267754375
 21
442.3670987962942
 31
0.0
  0
LINE
  5
BE
330
1F
100
AcDbEntity
  8
Make2D$___$___
100
AcDbLine
 10
447.0333265008928
 20
442.367098796294
 30
0.0
 11
447.198337679902
 21
442.3670987962941
 31
0.0
  0
LINE
  5
BF
330
1F
100
AcDbEntity
  8
Make2D$___$___
100
AcDbLine
 10
446.1605619798795
 20
442.3670987962943
 30
0.0
 11
446.2832270989604
 21
442.3670987962942
 31
0.0
  0
LINE
  5
C0
330
1F
100
AcDbEntity
  8
Make2D$___$___
100
AcDbLine
 10
445.7093749361491
 20
442.367098796294
 30
0.0
 11
445.9565424886449
 21
442.3670987962941
 31
0.0
  0
LINE
  5
C1
330
1F
100
AcDbEntity
  8
Make2D$___$___
100
AcDbLine
 10
445.248959814732
 20
442.367098796294
 30
0.0
 11
445.4006082734142
 21
442.367098796294
 31
0.0
  0
LINE
  5
C2
330
1F
100
AcDbEntity
  8
Make2D$___$___
100
AcDbLine
 10
444.7798181968493
 20
442.3670987962942
 30
0.0
 11
444.93612169513
 21
442.3670987962942
 31
0.0
  0
LINE
  5
C3
330
1F
100
AcDbEntity
  8
Make2D$___$___
100
AcDbLine
 10
444.3024657322529
 20
442.3670987962943
 30
0.0
 11
444.5494520229012
 21
442.3670987962942
 31
0.0
  0
LINE
  5
C4
330
1F
100
AcDbEntity
  8
Make2D$___$___
100
AcDbLine
 10
443.8174303013305
 20
442.3670987962942
 30
0.0
 11
443.9823801599495
 21
442.3670987962942
 31
0.0
  0
LINE
  5
C5
330
1F
100
AcDbEntity
  8
Make2D$___$___
100
AcDbLine
 10
443.3252501384272
 20
442.3670987962942
 30
0.0
 11
443.4941619306509
 21
442.3670987962942
 31
0.0
  0
LINE
  5
C6
330
1F
100
AcDbEntity
  8
Make2D$___$___
100
AcDbLine
 10
442.8264719299597
 20
442.3670987962942
 30
0.0
 11
442.9989427929799
 21
442.3670987962942
 31
0.0
  0
LINE
  5
C7
330
1F
100
AcDbEntity
  8
Make2D$___$___
100
AcDbLine
 10
442.3216489008734
 20
442.3670987962941
 30
0.0
 11
442.5919122212447
 21
442.3670987962942
 31
0.0
  0
LINE
  5
C8
330
1F
100
AcDbEntity
  8
Make2D$___$___
100
AcDbLine
 10
441.811338902819
 20
442.3670987962942
 30
0.0
 11
441.9905415359834
 21
442.3670987962942
 31
0.0
  0
LINE
  5
C9
330
1F
100
AcDbEntity
  8
Make2D$___$___
100
AcDbLine
 10
441.2961025170931
 20
442.3670987962942
 30
0.0
 11
441.4781698943865
 21
442.3670987962942
 31
0.0
  0
LINE
  5
CA
330
1F
100
AcDbEntity
  8
Make2D$___$___
100
AcDbLine
 10
440.7765011849177
 20
442.3670987962942
 30
0.0
 11
440.9611370594918
 21
442.3670987962943
 31
0.0
  0
LINE
  5
CB
330
1F
100
AcDbEntity
  8
Make2D$___$___
100
AcDbLine
 10
440.2530953770274
 20
442.3670987962943
 30
0.0
 11
440.4626869189914
 21
442.3670987962943
 31
0.0
  0
LINE
  5
CC
330
1F
100
AcDbEntity
  8
Make2D$___$___
100
AcDbLine
 10
439.7264428138092
 20
442.3670987962942
 30
0.0
 11
440.0213198234072
 21
442.3670987962942
 31
0.0
  0
LINE
  5
CD
330
1F
100
AcDbEntity
  8
Make2D$___$___
100
AcDbLine
 10
439.1970967464164
 20
442.3670987962943
 30
0.0
 11
439.3876079029934
 21
442.3670987962942
 31
0.0
  0
LINE
  5
CE
330
1F
100
AcDbEntity
  8
Make2D$___$___
100
AcDbLine
 10
438.6656043083586
 20
442.3670987962942
 30
0.0
 11
438.8574532326796
 21
442.3670987962942
 31
0.0
  0
LINE
  5
CF
330
1F
100
AcDbEntity
  8
Make2D$___$___
100
AcDbLine
 10
438.1325049460982
 20
442.3670987962943
 30
0.0
 11
438.3253793963459
 21
442.3670987962942
 31
0.0
  0
LINE
  5
D0
330
1F
100
AcDbEntity
  8
Make2D$___$___
100
AcDbLine
 10
437.5735766444874
 20
442.3670987962942
 30
0.0
 11
437.7919176510858
 21
442.3670987962943
 31
0.0
  0
LINE
  5
D1
330
1F
100
AcDbEntity
  8
Make2D$___$___
100
AcDbLine
 10
437.0410291671922
 20
442.3670987962943
 30
0.0
 11
437.30478863058
 21
442.3670987962943
 31
0.0
  0
LINE
  5
D2
330
1F
100
AcDbEntity
  8
Make2D$___$___
100
AcDbLine
 10
436.5084294770701
 20
442.3670987962943
 30
0.0
 11
436.8450829991684
 21
442.3670987962943
 31
0.0
  0
LINE
  5
D3
330
1F
100
AcDbEntity
  8
Make2D$___$___
100
AcDbLine
 10
435.9762658678578
 20
442.3670987962944
 30
0.0
 11
436.1883677865872
 21
442.3670987962943
 31
0.0
  0
LINE
  5
D4
330
1F
100
AcDbEntity
  8
Make2D$___$___
100
AcDbLine
 10
434.9151301425712
 20
442.3670987962944
 30
0.0
 11
435.6544595244183
 21
442.3670987962943
 31
0.0
  0
LINE
  5
D5
330
1F
100
AcDbEntity
  8
Make2D$___$___
100
AcDbLine
 10
434.3870618734811
 20
442.3670987962943
 30
0.0
 11
434.5904076748926
 21
442.3670987962943
 31
0.0
  0
LINE
  5
D6
330
1F
100
AcDbEntity
  8
Make2D$___$___
100
AcDbLine
 10
433.8612357938335
 20
442.3670987962945
 30
0.0
 11
434.0862577968816
 21
442.3670987962944
 31
0.0
  0
LINE
  5
D7
330
1F
100
AcDbEntity
  8
Make2D$___$___
100
AcDbLine
 10
433.345761298059
 20
442.3670987962944
 30
0.0
 11
433.630235594931
 21
442.3670987962944
 31
0.0
  0
LINE
  5
D8
330
1F
100
AcDbEntity
  8
Make2D$___$___
100
AcDbLine
 10
454.4630018356286
 20
441.8801872689978
 30
0.0
 11
455.1338274394238
 21
416.2623910030645
 31
0.0
  0
LINE
  5
D9
330
1F
100
AcDbEntity
  8
Make2D$___$___
100
AcDbLine
 10
457.3550761349191
 20
412.3971363024216
 30
0.0
 11
457.5363788654546
 21
412.3773206327996
 31
0.0
  0
LINE
  5
DA
330
1F
100
AcDbEntity
  8
Make2D$___$___
100
AcDbLine
 10
457.5363788654546
 20
412.3773206327996
 30
0.0
 11
457.6914966832491
 21
412.3675518712798
 31
0.0
  0
ARC
  5
DB
330
1F
100
AcDbEntity
  8
Make2D$___$___
100
AcDbCircle
 10
450.7254609715134
 20
411.4194540083452
 30
0.0
 40
1.027575312656713
100
AcDbArc
 50
22.00786830074215
 51
44.58727918030044
  0
ARC
  5
DC
330
1F
100
AcDbEntity
  8
Make2D$___$___
100
AcDbCircle
 10
450.7675536137864
 20
411.4360224645248
 30
0.0
 40
0.9823408719583039
100
AcDbArc
 50
358.6736619091383
 51
22.01968040471771
  0
SPLINE
  5
DD
330
1F
100
AcDbEntity
  8
Make2D$___$___
100
AcDbSpline
210
0.0
220
0.0
230
1.0
 70
     8
 71
     3
 72
    53
 73
    49
 74
     0
 42
0.000000001
 43
0.0000000001
 12
1.0
 22
0.0
 32
0.0
 13
1.0
 23
0.0
 33
0.0
 40
0.0000000195497746
 40
0.0000000195497746
 40
0.0000000195497746
 40
0.0000000195497746
 40
1.871311192991324
 40
1.871311192991324
 40
1.871311192991324
 40
3.743873709298776
 40
3.743873709298776
 40
3.743873709298776
 40
3.899941166226312
 40
3.899941166226312
 40
3.899941166226312
 40
5.616178420348486
 40
5.616178420348486
 40
5.616178420348486
 40
7.48614346617274
 40
7.48614346617274
 40
7.48614346617274
 40
8.41958498557669
 40
8.41958498557669
 40
8.41958498557669
 40
9.352050310153306
 40
9.352050310153306
 40
9.352050310153306
 40
10.28357635745842
 40
10.28357635745842
 40
10.28357635745842
 40
11.21401559161951
 40
11.21401559161951
 40
11.21401559161951
 40
11.67885278280596
 40
11.67885278280596
 40
11.67885278280596
 40
12.14351796328655
 40
12.14351796328655
 40
12.14351796328655
 40
12.60841588121834
 40
12.60841588121834
 40
12.60841588121834
 40
13.0739148522934
 40
13.0739148522934
 40
13.0739148522934
 40
13.30705780885825
 40
13.30705780885825
 40
13.30705780885825
 40
13.42499916102263
 40
13.42499916102263
 40
13.42499916102263
 40
13.48371701706537
 40
13.48371701706537
 40
13.48371701706537
 40
13.48371701706537
 10
450.9564939334761
 20
413.1885558858967
 30
0.0
 10
450.9861979708053
 20
413.0898923534363
 30
0.0
 10
451.0152314472103
 20
412.9992139036148
 30
0.0
 10
451.0434943336336
 20
412.916631135196
 30
0.0
 10
451.0718307916692
 20
412.8338333941333
 30
0.0
 10
451.0996118991916
 20
412.7584929370269
 30
0.0
 10
451.1265836104517
 20
412.690452152839
 30
0.0
 10
451.1288295684402
 20
412.684786337225
 30
0.0
 10
451.1309920733067
 20
412.6793657149983
 30
0.0
 10
451.1332253580279
 20
412.6738032419407
 30
0.0
 10
451.1583258284796
 20
412.6112851539888
 30
0.0
 10
451.1810642219141
 20
412.5588512435911
 30
0.0
 10
451.204279331262
 20
412.5090596303789
 30
0.0
 10
451.228898487191
 20
412.4562566273326
 30
0.0
 10
451.2520807991353
 20
412.411163023397
 30
0.0
 10
451.2724730923213
 20
412.3747842323551
 30
0.0
 10
451.282660699147
 20
412.3566100713351
 30
0.0
 10
451.2923005023146
 20
412.3403193161321
 30
0.0
 10
451.3013092502557
 20
412.325801028936
 30
0.0
 10
451.3103070378182
 20
412.3113004052288
 30
0.0
 10
451.318608332555
 20
412.2986785676017
 30
0.0
 10
451.326056754359
 20
412.2878929675776
 30
0.0
 10
451.3334965954174
 20
412.2771197928014
 30
0.0
 10
451.3404454618055
 20
412.2676428612117
 30
0.0
 10
451.3471112885104
 20
412.2589951658401
 30
0.0
 10
451.353768012386
 20
412.2503592797302
 30
0.0
 10
451.3605524304242
 20
412.242015432772
 30
0.0
 10
451.3679136707411
 20
412.2333981023553
 30
0.0
 10
451.3715906925975
 20
412.2290936494478
 30
0.0
 10
451.3755004102863
 20
412.2246205382662
 30
0.0
 10
451.3796184098628
 20
412.2200129847383
 30
0.0
 10
451.3837346024548
 20
412.2154074530117
 30
0.0
 10
451.388182995189
 20
412.2105289409037
 30
0.0
 10
451.392963966746
 20
412.2053827082482
 30
0.0
 10
451.3977235061337
 20
412.2002595451568
 30
0.0
 10
451.4016877924016
 20
412.1960910310731
 30
0.0
 10
451.4043145773364
 20
412.1933829374702
 30
0.0
 10
451.4069580898131
 20
412.1906575985467
 30
0.0
 10
451.40887559487
 20
412.1887574816083
 30
0.0
 10
451.4098263738431
 20
412.1878327322956
 30
0.0
 10
451.410304950597
 20
412.1873672576307
 30
0.0
 10
451.4162449444102
 20
412.1817387688784
 30
0.0
 10
451.4279449660647
 20
412.1701463594968
 30
0.0
 10
451.4338476481295
 20
412.1642979680182
 30
0.0
 10
451.4407860885731
 20
412.1573240833918
 30
0.0
 10
451.4486518529768
 20
412.1491758830839
 30
0.0
 10
451.4520909966769
 20
412.1456132500939
 30
0.0
 10
451.4550381546608
 20
412.1425266723505
 30
0.0
 10
451.4569684426332
 20
412.1404963090887
 30
0.0
  0
ARC
  5
DE
330
1F
100
AcDbEntity
  8
Make2D$___$___
100
AcDbCircle
 10
450.7961615596764
 20
411.4266002119782
 30
0.0
 40
0.9669811839914001
100
AcDbArc
 50
358.702208500087
 51
22.03091002730823
  0
LINE
  5
DF
330
1F
100
AcDbEntity
  8
Make2D$___$___
100
AcDbLine
 10
410.943806253613
 20
413.1895441145514
 30
0.0
 11
414.1067080817382
 21
423.7053969618605
 31
0.0
  0
LINE
  5
E0
330
1F
100
AcDbEntity
  8
Make2D$___$___
100
AcDbLine
 10
447.7937951366027
 20
423.7053969577895
 30
0.0
 11
450.9566969637431
 21
413.1895441137536
 31
0.0
  0
POLYLINE
  5
E1
330
1F
100
AcDbEntity
  8
Make2D$___$___
100
AcDb2dPolyline
 66
     1
 10
0.0
 20
0.0
 30
0.0
  0
VERTEX
  5
E2
330
E1
100
AcDbEntity
  8
Make2D$___$___
100
AcDbVertex
100
AcDb2dVertex
 10
431.4311223667017
 20
427.0041717383665
 30
0.0
 42
-0.0083547068991726
  0
VERTEX
  5
E3
330
E1
100
AcDbEntity
  8
Make2D$___$___
100
AcDbVertex
100
AcDb2dVertex
 10
434.3466959758603
 20
426.95569505199
 30
0.0
 42
-0.0089998292217667
  0
VERTEX
  5
E4
330
E1
100
AcDbEntity
  8
Make2D$___$___
100
AcDbVertex
100
AcDb2dVertex
 10
437.1663737932612
 20
426.8114237519677
 30
0.0
 42
-0.0104321428213372
  0
VERTEX
  5
E5
330
E1
100
AcDbEntity
  8
Make2D$___$___
100
AcDbVertex
100
AcDb2dVertex
 10
439.7982478919367
 20
426.5748602633348
 30
0.0
 42
-0.0132192774939771
  0
VERTEX
  5
E6
330
E1
100
AcDbEntity
  8
Make2D$___$___
100
AcDbVertex
100
AcDb2dVertex
 10
442.1569538943225
 20
426.2513221000149
 30
0.0
 42
-0.0186225834421904
  0
VERTEX
  5
E7
330
E1
100
AcDbEntity
  8
Make2D$___$___
100
AcDbVertex
100
AcDb2dVertex
 10
444.1615376548105
 20
425.8478798139823
 30
0.0
 42
-0.0306103781033763
  0
VERTEX
  5
E8
330
E1
100
AcDbEntity
  8
Make2D$___$___
100
AcDbVertex
100
AcDb2dVertex
 10
445.7678526969693
 20
425.3628310691611
 30
0.0
 42
-0.0634414916480348
  0
VERTEX
  5
E9
330
E1
100
AcDbEntity
  8
Make2D$___$___
100
AcDbVertex
100
AcDb2dVertex
 10
446.9766087383808
 20
424.7506478858967
 30
0.0
 42
-0.1690886606982368
  0
VERTEX
  5
EA
330
E1
100
AcDbEntity
  8
Make2D$___$___
100
AcDbVertex
100
AcDb2dVertex
 10
447.7937356715934
 20
423.7055945875196
 30
0.0
  0
SEQEND
  5
EB
330
E1
100
AcDbEntity
  8
Make2D$___$___
  0
LINE
  5
EC
330
1F
100
AcDbEntity
  8
Make2D$___$___
100
AcDbLine
 10
446.0112137460634
 20
395.7930509756471
 30
0.0
 11
446.0024808318639
 21
395.7039965452117
 31
0.0
  0
LINE
  5
ED
330
1F
100
AcDbEntity
  8
Make2D$___$___
100
AcDbLine
 10
446.0274952349082
 20
395.8387228318417
 30
0.0
 11
446.0120149175756
 21
395.7927925617942
 31
0.0
  0
LINE
  5
EE
330
1F
100
AcDbEntity
  8
Make2D$___$___
100
AcDbLine
 10
415.8976053185964
 20
395.7086654241693
 30
0.0
 11
415.8728147446513
 21
395.8776905791536
 31
0.0
  0
LINE
  5
EF
330
1F
100
AcDbEntity
  8
Make2D$___$___
100
AcDbLine
 10
430.4693808637506
 20
427.0041717383642
 30
0.0
 11
431.4311223666498
 21
427.0041717383642
 31
0.0
  0
POLYLINE
  5
F0
330
1F
100
AcDbEntity
  8
Make2D$___$___
100
AcDb2dPolyline
 66
     1
 10
0.0
 20
0.0
 30
0.0
  0
VERTEX
  5
F1
330
F0
100
AcDbEntity
  8
Make2D$___$___
100
AcDbVertex
100
AcDb2dVertex
 10
414.1067585095087
 20
423.7055645665093
 30
0.0
 42
-0.1668566644690742
  0
VERTEX
  5
F2
330
F0
100
AcDbEntity
  8
Make2D$___$___
100
AcDbVertex
100
AcDb2dVertex
 10
414.8996924814377
 20
424.7333024548848
 30
0.0
 42
-0.0638789603998561
  0
VERTEX
  5
F3
330
F0
100
AcDbEntity
  8
Make2D$___$___
100
AcDbVertex
100
AcDb2dVertex
 10
416.0713171167611
 20
425.3392598995833
 30
0.0
 42
-0.0312282061720603
  0
VERTEX
  5
F4
330
F0
100
AcDbEntity
  8
Make2D$___$___
100
AcDbVertex
100
AcDb2dVertex
 10
417.6438872335003
 20
425.8243883526629
 30
0.0
 42
-0.0176010341397864
  0
VERTEX
  5
F5
330
F0
100
AcDbEntity
  8
Make2D$___$___
100
AcDbVertex
100
AcDb2dVertex
 10
419.4295568015087
 20
426.197667813903
 30
0.0
 42
-0.011395539216047
  0
VERTEX
  5
F6
330
F0
100
AcDbEntity
  8
Make2D$___$___
100
AcDbVertex
100
AcDb2dVertex
 10
421.259485419014
 20
426.4735263205126
 30
0.0
 42
-0.0082623328355706
  0
VERTEX
  5
F7
330
F0
100
AcDbEntity
  8
Make2D$___$___
100
AcDbVertex
100
AcDb2dVertex
 10
423.0552177158453
 20
426.6734705030754
 30
0.0
 42
-0.0064559514121083
  0
VERTEX
  5
F8
330
F0
100
AcDbEntity
  8
Make2D$___$___
100
AcDbVertex
100
AcDb2dVertex
 10
424.7714930162308
 20
426.8140203372782
 30
0.0
 42
-0.0171162876116635
  0
VERTEX
  5
F9
330
F0
100
AcDbEntity
  8
Make2D$___$___
100
AcDbVertex
100
AcDb2dVertex
 10
430.4693808637527
 20
427.0041717383624
 30
0.0
  0
SEQEND
  5
FA
330
F0
100
AcDbEntity
  8
Make2D$___$___
  0
LINE
  5
FB
330
1F
100
AcDbEntity
  8
Make2D$___$___
100
AcDbLine
 10
404.611763706353
 20
412.3703434310482
 30
0.0
 11
404.7012489713927
 21
412.3822805581376
 31
0.0
  0
LINE
  5
FC
330
1F
100
AcDbEntity
  8
Make2D$___$___
100
AcDbLine
 10
404.3689927107037
 20
412.3708419516153
 30
0.0
 11
404.611763706353
 21
412.3703434310482
 31
0.0
  0
LINE
  5
FD
330
1F
100
AcDbEntity
  8
Make2D$___$___
100
AcDbLine
 10
404.278674488315
 20
412.3741129283247
 30
0.0
 11
404.2150276591412
 21
412.3719707518253
 31
0.0
  0
LINE
  5
FE
330
1F
100
AcDbEntity
  8
Make2D$___$___
100
AcDbLine
 10
404.4600067842824
 20
412.3786548994112
 30
0.0
 11
404.3692047744601
 21
412.3766248524304
 31
0.0
  0
LINE
  5
FF
330
1F
100
AcDbEntity
  8
Make2D$___$___
100
AcDbLine
 10
404.2785452523429
 20
412.3653962767802
 30
0.0
 11
404.3688535800513
 21
412.3708321421347
 31
0.0
  0
LINE
  5
100
330
1F
100
AcDbEntity
  8
Make2D$___$___
100
AcDbLine
 10
445.475084092567
 20
385.6409308181746
 30
0.0
 11
446.0024670596501
 21
395.7039972998672
 31
0.0
  0
LINE
  5
101
330
1F
100
AcDbEntity
  8
Make2D$___$___
100
AcDbLine
 10
416.4254191197866
 20
385.6409309090434
 30
0.0
 11
415.8980280306272
 21
395.7041523691838
 31
0.0
  0
ARC
  5
102
330
1F
100
AcDbEntity
  8
Make2D$___$___
100
AcDbCircle
 10
444.9757705050284
 20
385.6670975530126
 30
0.0
 40
0.4999987567194641
100
AcDbArc
 50
269.9998648010452
 51
357.0001351990836
  0
ARC
  5
103
330
1F
100
AcDbEntity
  8
Make2D$___$___
100
AcDbCircle
 10
416.9247327120888
 20
385.667097553014
 30
0.0
 40
0.4999987567210546
100
AcDbArc
 50
182.9998543739373
 51
270.0001351987985
  0
LINE
  5
104
330
1F
100
AcDbEntity
  8
Make2D$___$___
100
AcDbLine
 10
451.3567593543769
 20
412.2467919672179
 30
0.0
 11
451.3812777795731
 21
412.2350611051352
 31
0.0
  0
ARC
  5
105
330
1F
100
AcDbEntity
  8
Make2D$___$___
100
AcDbCircle
 10
439.9502516085582
 20
439.3670987962944
 30
0.0
 40
0.499999999999773
100
AcDbArc
 50
0.0
 51
90.00000213127494
  0
LINE
  5
106
330
1F
100
AcDbEntity
  8
Make2D$___$___
100
AcDbLine
 10
440.4502516085579
 20
426.4977177198313
 30
0.0
 11
440.4502516085579
 21
439.3670987962942
 31
0.0
  0
LINE
  5
107
330
1F
100
AcDbEntity
  8
Make2D$___$___
100
AcDbLine
 10
421.4502516085579
 20
426.4977175914523
 30
0.0
 11
421.4502516085579
 21
439.3670987962942
 31
0.0
  0
ARC
  5
108
330
1F
100
AcDbEntity
  8
Make2D$___$___
100
AcDbCircle
 10
421.9502516085581
 20
439.3670987962936
 30
0.0
 40
0.5000000000002274
100
AcDbArc
 50
89.99999786878368
 51
179.9999999998828
  0
LINE
  5
109
330
1F
100
AcDbEntity
  8
Make2D$___$___
100
AcDbLine
 10
441.9001268598818
 20
395.6600353205554
 30
0.0
 11
441.8035303538473
 21
395.5663968468424
 31
0.0
  0
LINE
  5
10A
330
1F
100
AcDbEntity
  8
Make2D$___$___
100
AcDbLine
 10
420.0969728634257
 20
395.5663968466897
 30
0.0
 11
420.0003773086322
 21
395.6600343982911
 31
0.0
  0
LINE
  5
10B
330
1F
100
AcDbEntity
  8
Make2D$___$___
100
AcDbLine
 10
449.4502516085632
 20
445.3670987962926
 30
0.0
 11
450.6995318428728
 21
442.3688262339495
 31
0.0
  0
LINE
  5
10C
330
1F
100
AcDbEntity
  8
Make2D$___$___
100
AcDbLine
 10
412.4502516085543
 20
445.3670987962965
 30
0.0
 11
411.200971374243
 21
442.3688262339495
 31
0.0
  0
ARC
  5
10D
330
1F
100
AcDbEntity
  8
Make2D$___$___
100
AcDbCircle
 10
407.9686424318373
 20
445.8866638249245
 30
0.0
 40
0.5197117595270934
100
AcDbArc
 50
175.9140599460322
 51
268.6384613613541
  0
ARC
  5
10E
330
1F
100
AcDbEntity
  8
Make2D$___$___
100
AcDbCircle
 10
453.9471957292168
 20
445.8688158000865
 30
0.0
 40
0.4990225199999382
100
AcDbArc
 50
314.9669069195741
 51
359.8274242506963
  0
LINE
  5
10F
330
1F
100
AcDbEntity
  8
Make2D$___$___
100
AcDbLine
 10
454.4502518351126
 20
445.9236501538999
 30
0.0
 11
454.4489623299609
 21
445.8673043644239
 31
0.0
  0
LINE
  5
110
330
1F
100
AcDbEntity
  8
Make2D$___$___
100
AcDbLine
 10
407.4502516085579
 20
445.9236946794991
 30
0.0
 11
407.4502516085579
 21
470.0698142028505
 31
0.0
  0
LINE
  5
111
330
1F
100
AcDbEntity
  8
Make2D$___$___
100
AcDbLine
 10
454.4502516085579
 20
445.9236946974588
 30
0.0
 11
454.4502516085579
 21
470.0707056602209
 31
0.0
  0
ARC
  5
112
330
1F
100
AcDbEntity
  8
Make2D$___$___
100
AcDbCircle
 10
461.334891142563
 20
472.7622974353868
 30
0.0
 40
7.317513924809627
100
AcDbArc
 50
190.2879040820061
 51
197.4332297946011
  0
LINE
  5
113
330
1F
100
AcDbEntity
  8
Make2D$___$___
100
AcDbLine
 10
454.1429211567088
 20
471.3734612336196
 30
0.0
 11
449.5952039871511
 21
494.7198037503936
 31
0.0
  0
LINE
  5
114
330
1F
100
AcDbEntity
  8
Make2D$___$___
100
AcDbLine
 10
449.5873054495884
 20
494.8017722139296
 30
0.0
 11
454.135022619084
 21
471.4554296974732
 31
0.0
  0
POLYLINE
  5
115
330
1F
100
AcDbEntity
  8
Make2D$___$___
100
AcDb2dPolyline
 66
     1
 10
0.0
 20
0.0
 30
0.0
  0
VERTEX
  5
116
330
115
100
AcDbEntity
  8
Make2D$___$___
100
AcDbVertex
100
AcDb2dVertex
 10
412.3132064689594
 20
494.8018168712339
 30
0.0
 42
-0.1077387983043719
  0
VERTEX
  5
117
330
115
100
AcDbEntity
  8
Make2D$___$___
100
AcDbVertex
100
AcDb2dVertex
 10
412.9694570664543
 20
496.2661582264432
 30
0.0
 42
-0.0720793484004852
  0
VERTEX
  5
118
330
115
100
AcDbEntity
  8
Make2D$___$___
100
AcDbVertex
100
AcDb2dVertex
 10
414.2536734755396
 20
497.5655093303304
 30
0.0
 42
-0.0476278338239404
  0
VERTEX
  5
119
330
115
100
AcDbEntity
  8
Make2D$___$___
100
AcDbVertex
100
AcDb2dVertex
 10
416.0923748439124
 20
498.7088199621026
 30
0.0
 42
-0.0336286502793964
  0
VERTEX
  5
11A
330
115
100
AcDbEntity
  8
Make2D$___$___
100
AcDbVertex
100
AcDb2dVertex
 10
418.4224837951273
 20
499.6848892472021
 30
0.0
 42
-0.0257395259542819
  0
VERTEX
  5
11B
330
115
100
AcDbEntity
  8
Make2D$___$___
100
AcDbVertex
100
AcDb2dVertex
 10
421.1723084902953
 20
500.4742788867529
 30
0.0
 42
-0.0212505535004768
  0
VERTEX
  5
11C
330
115
100
AcDbEntity
  8
Make2D$___$___
100
AcDbVertex
100
AcDb2dVertex
 10
424.2534970344964
 20
501.0555716612571
 30
0.0
 42
-0.0710427044004006
  0
VERTEX
  5
11D
330
115
100
AcDbEntity
  8
Make2D$___$___
100
AcDbVertex
100
AcDb2dVertex
 10
437.7116604674802
 20
501.0460464112489
 30
0.0
 42
-0.0213085659332482
  0
VERTEX
  5
11E
330
115
100
AcDbEntity
  8
Make2D$___$___
100
AcDbVertex
100
AcDb2dVertex
 10
440.7859944778206
 20
500.4606436123945
 30
0.0
 42
-0.025854583721017
  0
VERTEX
  5
11F
330
115
100
AcDbEntity
  8
Make2D$___$___
100
AcDbVertex
100
AcDb2dVertex
 10
443.5281249587213
 20
499.6674308301895
 30
0.0
 42
-0.0338831106947146
  0
VERTEX
  5
120
330
115
100
AcDbEntity
  8
Make2D$___$___
100
AcDbVertex
100
AcDb2dVertex
 10
445.8520107830262
 20
498.6864760753751
 30
0.0
 42
-0.0466439088207972
  0
VERTEX
  5
121
330
115
100
AcDbEntity
  8
Make2D$___$___
100
AcDbVertex
100
AcDb2dVertex
 10
447.6421757019373
 20
497.5691252680281
 30
0.0
 42
-0.0709127043260341
  0
VERTEX
  5
122
330
115
100
AcDbEntity
  8
Make2D$___$___
100
AcDbVertex
100
AcDb2dVertex
 10
448.9159484924854
 20
496.2871472876528
 30
0.0
 42
-0.1090964207454328
  0
VERTEX
  5
123
330
115
100
AcDbEntity
  8
Make2D$___$___
100
AcDbVertex
100
AcDb2dVertex
 10
449.5872966574103
 20
494.8018173368836
 30
0.0
  0
SEQEND
  5
124
330
115
100
AcDbEntity
  8
Make2D$___$___
  0
LINE
  5
125
330
1F
100
AcDbEntity
  8
Make2D$___$___
100
AcDbLine
 10
412.3052992351357
 20
494.7198037769499
 30
0.0
 11
407.7575820603936
 21
471.3734612335563
 31
0.0
  0
LINE
  5
126
330
1F
100
AcDbEntity
  8
Make2D$___$___
100
AcDbLine
 10
407.7654806011618
 20
471.4554297135474
 30
0.0
 11
412.3131977726985
 21
494.8017722404866
 31
0.0
  0
ARC
  5
127
330
1F
100
AcDbEntity
  8
Make2D$___$___
100
AcDbCircle
 10
400.5656172979799
 20
472.7622961628531
 30
0.0
 40
7.317508558299435
100
AcDbArc
 50
342.5667667144085
 51
349.7120985454732
  0
ARC
  5
128
330
1F
100
AcDbEntity
  8
Make2D$___$___
100
AcDbCircle
 10
409.086628671611
 20
470.0127435667482
 30
0.0
 40
1.637369428771972
100
AcDbArc
 50
160.102230358206
 51
178.0025466603648
  0
POLYLINE
  5
129
330
1F
100
AcDbEntity
  8
Make2D$___$___
100
AcDb2dPolyline
 66
     1
 10
0.0
 20
0.0
 30
0.0
  0
VERTEX
  5
12A
330
129
100
AcDbEntity
  8
Make2D$___$___
100
AcDbVertex
100
AcDb2dVertex
 10
521.0350457337333
 20
396.5947286428164
 30
0.0
  0
VERTEX
  5
12B
330
129
100
AcDbEntity
  8
Make2D$___$___
100
AcDbVertex
100
AcDb2dVertex
 10
521.8034584210643
 20
391.8753350517613
 30
0.0
  0
VERTEX
  5
12C
330
129
100
AcDbEntity
  8
Make2D$___$___
100
AcDbVertex
100
AcDb2dVertex
 10
522.5832474602796
 20
386.8429367828362
 30
0.0
  0
VERTEX
  5
12D
330
129
100
AcDbEntity
  8
Make2D$___$___
100
AcDbVertex
100
AcDb2dVertex
 10
524.2531604667945
 20
375.8402058617262
 30
0.0
  0
VERTEX
  5
12E
330
129
100
AcDbEntity
  8
Make2D$___$___
100
AcDbVertex
100
AcDb2dVertex
 10
525.0811710875904
 20
370.4411700214312
 30
0.0
  0
VERTEX
  5
12F
330
129
100
AcDbEntity
  8
Make2D$___$___
100
AcDbVertex
100
AcDb2dVertex
 10
525.8953360102507
 20
364.9956498196585
 30
0.0
  0
VERTEX
  5
130
330
129
100
AcDbEntity
  8
Make2D$___$___
100
AcDbVertex
100
AcDb2dVertex
 10
526.2868848530464
 20
362.2672816432739
 30
0.0
  0
VERTEX
  5
131
330
129
100
AcDbEntity
  8
Make2D$___$___
100
AcDbVertex
100
AcDb2dVertex
 10
526.6625624932277
 20
359.5414806485871
 30
0.0
  0
VERTEX
  5
132
330
129
100
AcDbEntity
  8
Make2D$___$___
100
AcDbVertex
100
AcDb2dVertex
 10
527.0182323381011
 20
356.8229762596203
 30
0.0
  0
VERTEX
  5
133
330
129
100
AcDbEntity
  8
Make2D$___$___
100
AcDbVertex
100
AcDb2dVertex
 10
527.3497577949732
 20
354.116497900396
 30
0.0
  0
VERTEX
  5
134
330
129
100
AcDbEntity
  8
Make2D$___$___
100
AcDbVertex
100
AcDb2dVertex
 10
527.6448431120241
 20
351.5027848757958
 30
0.0
  0
VERTEX
  5
135
330
129
100
AcDbEntity
  8
Make2D$___$___
100
AcDbVertex
100
AcDb2dVertex
 10
527.9121869900366
 20
348.88525323869
 30
0.0
  0
VERTEX
  5
136
330
129
100
AcDbEntity
  8
Make2D$___$___
100
AcDbVertex
100
AcDb2dVertex
 10
528.1482130786984
 20
346.265103457701
 30
0.0
  0
VERTEX
  5
137
330
129
100
AcDbEntity
  8
Make2D$___$___
100
AcDbVertex
100
AcDb2dVertex
 10
528.3493450276976
 20
343.6435360014514
 30
0.0
  0
VERTEX
  5
138
330
129
100
AcDbEntity
  8
Make2D$___$___
100
AcDbVertex
100
AcDb2dVertex
 10
528.4357080903512
 20
342.3325957915484
 30
0.0
  0
VERTEX
  5
139
330
129
100
AcDbEntity
  8
Make2D$___$___
100
AcDbVertex
100
AcDb2dVertex
 10
528.5120064867219
 20
341.0217513385635
 30
0.0
  0
VERTEX
  5
13A
330
129
100
AcDbEntity
  8
Make2D$___$___
100
AcDbVertex
100
AcDb2dVertex
 10
528.5777931730208
 20
339.7111527010748
 30
0.0
  0
VERTEX
  5
13B
330
129
100
AcDbEntity
  8
Make2D$___$___
100
AcDbVertex
100
AcDb2dVertex
 10
528.6326211054591
 20
338.4009499376598
 30
0.0
  0
VERTEX
  5
13C
330
129
100
AcDbEntity
  8
Make2D$___$___
100
AcDbVertex
100
AcDb2dVertex
 10
528.6760432402475
 20
337.0912931068964
 30
0.0
  0
VERTEX
  5
13D
330
129
100
AcDbEntity
  8
Make2D$___$___
100
AcDbVertex
100
AcDb2dVertex
 10
528.7076125335972
 20
335.7823322673626
 30
0.0
  0
VERTEX
  5
13E
330
129
100
AcDbEntity
  8
Make2D$___$___
100
AcDbVertex
100
AcDb2dVertex
 10
528.7268819417188
 20
334.474217477636
 30
0.0
  0
VERTEX
  5
13F
330
129
100
AcDbEntity
  8
Make2D$___$___
100
AcDbVertex
100
AcDb2dVertex
 10
528.7334044208236
 20
333.1670987962943
 30
0.0
  0
SEQEND
  5
140
330
129
100
AcDbEntity
  8
Make2D$___$___
  0
SPLINE
  5
141
330
1F
100
AcDbEntity
  8
Make2D$___$___
100
AcDbSpline
210
0.0
220
0.0
230
1.0
 70
     8
 71
     3
 72
    25
 73
    21
 74
     0
 42
0.000000001
 43
0.0000000001
 12
1.0
 22
0.0
 32
0.0
 13
1.0
 23
0.0
 33
0.0
 40
0.0
 40
0.0
 40
0.0
 40
0.0
 40
21.31263003537892
 40
21.31263003537892
 40
43.33926001321637
 40
43.33926001321637
 40
43.33926001321637
 40
46.16014452734437
 40
46.16014452734437
 40
46.16014452734437
 40
48.9850671555248
 40
48.9850671555248
 40
48.9850671555248
 40
50.41026404321651
 40
50.41026404321651
 40
50.41026404321651
 40
51.83081990975229
 40
51.83081990975229
 40
51.83081990975229
 40
54.14987411447468
 40
54.14987411447468
 40
54.14987411447468
 40
54.14987411447468
 10
483.1670987956137
 20
333.1670987962943
 30
0.0
 10
483.1670987956137
 20
340.135475370249
 30
0.0
 10
483.7300416353765
 20
347.1527550679357
 30
0.0
 10
485.3989438180126
 20
361.3135348860137
 30
0.0
 10
486.5488060085576
 20
368.6892967119402
 30
0.0
 10
487.6473427499982
 20
375.8402058614292
 30
0.0
 10
487.7889369153669
 20
376.7619110483865
 30
0.0
 10
487.9302314975544
 20
377.6831880155819
 30
0.0
 10
488.0707552918843
 20
378.6040595608738
 30
0.0
 10
488.2115162527438
 20
379.5264852907048
 30
0.0
 10
488.3514326748373
 20
380.4484986485945
 30
0.0
 10
488.4900405996397
 20
381.3704112378673
 30
0.0
 10
488.560055640245
 20
381.8360970741173
 30
0.0
 10
488.6298886900381
 20
382.3011767750977
 30
0.0
 10
488.6997150337353
 20
382.764811051331
 30
0.0
 10
488.7692198611028
 20
383.2263105173638
 30
0.0
 10
488.8385802957229
 20
383.6865830827742
 30
0.0
 10
488.9077613763514
 20
384.1445557457955
 30
0.0
 10
489.0206337291751
 20
384.8917607841464
 30
0.0
 10
489.1330621413241
 20
385.6336157142279
 30
0.0
 10
489.2447348237467
 20
386.3670987926259
 30
0.0
  0
SPLINE
  5
142
330
1F
100
AcDbEntity
  8
Make2D$___$___
100
AcDbSpline
210
0.0
220
0.0
230
1.0
 70
     8
 71
     3
 72
    25
 73
    21
 74
     0
 42
0.000000001
 43
0.0000000001
 12
1.0
 22
0.0
 32
0.0
 13
1.0
 23
0.0
 33
0.0
 40
39.9459865893277
 40
39.9459865893277
 40
39.9459865893277
 40
39.9459865893277
 40
42.2650407940512
 40
42.2650407940512
 40
42.2650407940512
 40
43.68559666058699
 40
43.68559666058699
 40
43.68559666058699
 40
45.11079354827869
 40
45.11079354827869
 40
45.11079354827869
 40
47.93571617644817
 40
47.93571617644817
 40
47.93571617644817
 40
50.7566006905774
 40
50.7566006905774
 40
50.7566006905774
 40
72.7832306684153
 40
72.7832306684153
 40
94.09586070379378
 40
94.09586070379378
 40
94.09586070379378
 40
94.09586070379378
 10
372.6557683933666
 20
386.367098792627
 30
0.0
 10
372.7674410757893
 20
385.6336157142287
 30
0.0
 10
372.8798694879382
 20
384.8917607841467
 30
0.0
 10
372.992741840762
 20
384.1445557457955
 30
0.0
 10
373.0619229213904
 20
383.6865830827751
 30
0.0
 10
373.1312833560108
 20
383.2263105173629
 30
0.0
 10
373.2007881833781
 20
382.764811051331
 30
0.0
 10
373.2706145270753
 20
382.3011767750977
 30
0.0
 10
373.3404475768684
 20
381.8360970741173
 30
0.0
 10
373.4104626174737
 20
381.3704112378673
 30
0.0
 10
373.5490714839504
 20
380.4484923853065
 30
0.0
 10
373.6889874834968
 20
379.526481888794
 30
0.0
 10
373.8297479252292
 20
378.6040595608738
 30
0.0
 10
373.9702722376827
 20
377.6831846202467
 30
0.0
 10
374.1115668818921
 20
376.7619072719372
 30
0.0
 10
374.2531604671152
 20
375.8402058614292
 30
0.0
 10
375.3516972085558
 20
368.6892967119393
 30
0.0
 10
376.5015593991006
 20
361.3135348860142
 30
0.0
 10
378.1704615817369
 20
347.1527550679357
 30
0.0
 10
378.7334044214997
 20
340.135475370249
 30
0.0
 10
378.7334044214997
 20
333.1670987962943
 30
0.0
  0
POLYLINE
  5
143
330
1F
100
AcDbEntity
  8
Make2D$___$___
100
AcDb2dPolyline
 66
     1
 10
0.0
 20
0.0
 30
0.0
  0
VERTEX
  5
144
330
143
100
AcDbEntity
  8
Make2D$___$___
100
AcDbVertex
100
AcDb2dVertex
 10
333.1670987962898
 20
333.1670987962943
 30
0.0
  0
VERTEX
  5
145
330
143
100
AcDbEntity
  8
Make2D$___$___
100
AcDbVertex
100
AcDb2dVertex
 10
333.1736212753946
 20
334.474217477636
 30
0.0
  0
VERTEX
  5
146
330
143
100
AcDbEntity
  8
Make2D$___$___
100
AcDbVertex
100
AcDb2dVertex
 10
333.1928906835162
 20
335.7823322673626
 30
0.0
  0
VERTEX
  5
147
330
143
100
AcDbEntity
  8
Make2D$___$___
100
AcDbVertex
100
AcDb2dVertex
 10
333.2244599768658
 20
337.0912931068964
 30
0.0
  0
VERTEX
  5
148
330
143
100
AcDbEntity
  8
Make2D$___$___
100
AcDbVertex
100
AcDb2dVertex
 10
333.2678821116542
 20
338.4009499376598
 30
0.0
  0
VERTEX
  5
149
330
143
100
AcDbEntity
  8
Make2D$___$___
100
AcDbVertex
100
AcDb2dVertex
 10
333.3227100440924
 20
339.7111527010748
 30
0.0
  0
VERTEX
  5
14A
330
143
100
AcDbEntity
  8
Make2D$___$___
100
AcDbVertex
100
AcDb2dVertex
 10
333.3884967303915
 20
341.0217513385635
 30
0.0
  0
VERTEX
  5
14B
330
143
100
AcDbEntity
  8
Make2D$___$___
100
AcDbVertex
100
AcDb2dVertex
 10
333.4647951267623
 20
342.3325957915484
 30
0.0
  0
VERTEX
  5
14C
330
143
100
AcDbEntity
  8
Make2D$___$___
100
AcDbVertex
100
AcDb2dVertex
 10
333.5511581894158
 20
343.6435360014514
 30
0.0
  0
VERTEX
  5
14D
330
143
100
AcDbEntity
  8
Make2D$___$___
100
AcDbVertex
100
AcDb2dVertex
 10
333.752290138415
 20
346.265103457701
 30
0.0
  0
VERTEX
  5
14E
330
143
100
AcDbEntity
  8
Make2D$___$___
100
AcDbVertex
100
AcDb2dVertex
 10
333.988316227077
 20
348.88525323869
 30
0.0
  0
VERTEX
  5
14F
330
143
100
AcDbEntity
  8
Make2D$___$___
100
AcDbVertex
100
AcDb2dVertex
 10
334.2556601050894
 20
351.5027848757958
 30
0.0
  0
VERTEX
  5
150
330
143
100
AcDbEntity
  8
Make2D$___$___
100
AcDbVertex
100
AcDb2dVertex
 10
334.5507454221402
 20
354.1164979003961
 30
0.0
  0
VERTEX
  5
151
330
143
100
AcDbEntity
  8
Make2D$___$___
100
AcDbVertex
100
AcDb2dVertex
 10
334.8822708790123
 20
356.8229762596204
 30
0.0
  0
VERTEX
  5
152
330
143
100
AcDbEntity
  8
Make2D$___$___
100
AcDbVertex
100
AcDb2dVertex
 10
335.2379407238858
 20
359.5414806485871
 30
0.0
  0
VERTEX
  5
153
330
143
100
AcDbEntity
  8
Make2D$___$___
100
AcDbVertex
100
AcDb2dVertex
 10
335.6136183640671
 20
362.2672816432739
 30
0.0
  0
VERTEX
  5
154
330
143
100
AcDbEntity
  8
Make2D$___$___
100
AcDbVertex
100
AcDb2dVertex
 10
336.0051672068627
 20
364.9956498196585
 30
0.0
  0
VERTEX
  5
155
330
143
100
AcDbEntity
  8
Make2D$___$___
100
AcDbVertex
100
AcDb2dVertex
 10
336.819332129523
 20
370.4411700214312
 30
0.0
  0
VERTEX
  5
156
330
143
100
AcDbEntity
  8
Make2D$___$___
100
AcDbVertex
100
AcDb2dVertex
 10
338.4900405998931
 20
381.3704112381879
 30
0.0
  0
VERTEX
  5
157
330
143
100
AcDbEntity
  8
Make2D$___$___
100
AcDbVertex
100
AcDb2dVertex
 10
339.3172557568338
 20
386.8429367828362
 30
0.0
  0
VERTEX
  5
158
330
143
100
AcDbEntity
  8
Make2D$___$___
100
AcDbVertex
100
AcDb2dVertex
 10
340.0970447960492
 20
391.8753350517613
 30
0.0
  0
VERTEX
  5
159
330
143
100
AcDbEntity
  8
Make2D$___$___
100
AcDbVertex
100
AcDb2dVertex
 10
340.8654574833805
 20
396.5947286428197
 30
0.0
  0
SEQEND
  5
15A
330
143
100
AcDbEntity
  8
Make2D$___$___
  0
LINE
  5
15B
330
1F
100
AcDbEntity
  8
Make2D$___$___
100
AcDbLine
 10
430.9502516085579
 20
362.6670987962939
 30
0.0
 11
439.9502516085583
 21
362.6670987962939
 31
0.0
  0
SPLINE
  5
15C
330
1F
100
AcDbEntity
  8
Make2D$___$___
100
AcDbSpline
210
0.0
220
0.0
230
1.0
 70
     8
 71
     3
 72
    15
 73
    11
 74
     0
 42
0.000000001
 43
0.0000000001
 12
1.0
 22
0.0
 32
0.0
 13
1.0
 23
0.0
 33
0.0
 40
0.0
 40
0.0
 40
0.0
 40
0.0
 40
0.0174262297463514
 40
0.0319939437998279
 40
0.1002789088448753
 40
0.2310041274379477
 40
0.752881728125053
 40
2.548634528377007
 40
5.58470746792231
 40
10.53575291228841
 40
10.53575291228841
 40
10.53575291228841
 40
10.53575291228841
 10
420.4630254610775
 20
367.4796818728715
 30
0.0
 10
420.4588751221555
 20
367.4806851077446
 30
0.0
 10
420.444843941078
 20
367.4912688570673
 30
0.0
 10
420.4740231763157
 20
367.5128190689333
 30
0.0
 10
420.5436868229598
 20
367.5272815404097
 30
0.0
 10
420.7818770760214
 20
367.5603769440142
 30
0.0
 10
421.5961042136047
 20
367.6181424938122
 30
0.0
 10
423.3792270784169
 20
367.6916439200173
 30
0.0
 10
426.638768997858
 20
367.7880825252005
 30
0.0
 10
429.3003881324031
 20
367.8518947821268
 30
0.0
 10
430.9502453999834
 20
367.892046029081
 30
0.0
  0
SPLINE
  5
15D
330
1F
100
AcDbEntity
  8
Make2D$___$___
100
AcDbSpline
210
0.0
220
0.0
230
1.0
 70
     8
 71
     3
 72
    15
 73
    11
 74
     0
 42
0.000000001
 43
0.0000000001
 12
1.0
 22
0.0
 32
0.0
 13
1.0
 23
0.0
 33
0.0
 40
0.0
 40
0.0
 40
0.0
 40
0.0
 40
0.01743494024789
 40
0.0320132652198714
 40
0.1003060301620741
 40
0.2310351443040272
 40
0.7529159020451768
 40
2.548676009448821
 40
5.584753062708042
 40
10.53579948149337
 40
10.53579948149337
 40
10.53579948149337
 40
10.53579948149337
 10
420.4630177220861
 20
365.8794642002968
 30
0.0
 10
420.4588650641589
 20
365.8804716141482
 30
0.0
 10
420.44483564343
 20
365.8910642249203
 30
0.0
 10
420.4740088143365
 20
365.9126363734889
 30
0.0
 10
420.543677756679
 20
365.9271197144774
 30
0.0
 10
420.7818674842405
 20
365.9602529843281
 30
0.0
 10
421.5960950601428
 20
366.0180904977863
 30
0.0
 10
423.3792204545919
 20
366.0916505257965
 30
0.0
 10
426.6387643661146
 20
366.1881644035566
 30
0.0
 10
429.3003848246035
 20
366.2519940663102
 30
0.0
 10
430.9502424947316
 20
366.2921418576361
 30
0.0
  0
SPLINE
  5
15E
330
1F
100
AcDbEntity
  8
Make2D$___$___
100
AcDbSpline
210
0.0
220
0.0
230
1.0
 70
     8
 71
     3
 72
    16
 73
    12
 74
     0
 42
0.000000001
 43
0.0000000001
 12
1.0
 22
0.0
 32
0.0
 13
1.0
 23
0.0
 33
0.0
 40
0.0
 40
0.0
 40
0.0
 40
0.0
 40
0.003791483919067
 40
0.0059476096584366
 40
0.0073968032198732
 40
0.0394479845588337
 40
0.135907914266861
 40
0.5963742305356808
 40
2.452065911521511
 40
5.580861194199861
 40
10.51789844725657
 40
10.51789844725657
 40
10.51789844725657
 40
10.51789844725657
 10
420.4505837649781
 20
364.2912718319839
 30
0.0
 10
420.450291029698
 20
364.2925646766691
 30
0.0
 10
420.4508218609697
 20
364.2944720898586
 30
0.0
 10
420.4518668500304
 20
364.2967502251133
 30
0.0
 10
420.4608418184354
 20
364.3049971525621
 30
0.0
 10
420.5020584422616
 20
364.3193018722322
 30
0.0
 10
420.6959519985506
 20
364.3519603518377
 30
0.0
 10
421.4979638906914
 20
364.4140509062884
 30
0.0
 10
423.311488774576
 20
364.4893865802866
 30
0.0
 10
426.6171917481158
 20
364.5877121315615
 30
0.0
 10
429.3050657835879
 20
364.6518284404639
 30
0.0
 10
430.9502473427495
 20
364.6919624145949
 30
0.0
  0
LINE
  5
15F
330
1F
100
AcDbEntity
  8
Make2D$___$___
100
AcDbLine
 10
420.4613420486868
 20
364.2808147726802
 30
0.0
 11
420.4507693896954
 21
364.2904858179775
 31
0.0
  0
SPLINE
  5
160
330
1F
100
AcDbEntity
  8
Make2D$___$___
100
AcDbSpline
210
0.0
220
0.0
230
1.0
 70
     8
 71
     3
 72
    13
 73
     9
 74
     0
 42
0.000000001
 43
0.0000000001
 12
1.0
 22
0.0
 32
0.0
 13
1.0
 23
0.0
 33
0.0
 40
0.0
 40
0.0
 40
0.0
 40
0.0
 40
5.131922972400123
 40
8.119482646315037
 40
9.92579590418599
 40
10.3779790155715
 40
10.47731231119364
 40
10.51708586609201
 40
10.51708586609201
 40
10.51708586609201
 40
10.51708586609201
 10
430.9502473427495
 20
364.6919624145949
 30
0.0
 10
432.6603789235816
 20
364.7336966479214
 30
0.0
 10
435.3661099410002
 20
364.7981531808941
 30
0.0
 10
438.6732389774098
 20
364.8976793908205
 30
0.0
 10
440.4204281884785
 20
364.9712501194502
 30
0.0
 10
441.2043037331352
 20
365.0319808405757
 30
0.0
 10
441.3987229801315
 20
365.0648034581316
 30
0.0
 10
441.4437443149355
 20
365.0797011231587
 30
0.0
 10
441.4502497619739
 20
365.0918807330457
 30
0.0
  0
SPLINE
  5
161
330
1F
100
AcDbEntity
  8
Make2D$___$___
100
AcDbSpline
210
0.0
220
0.0
230
1.0
 70
     8
 71
     3
 72
    13
 73
     9
 74
     0
 42
0.000000001
 43
0.0000000001
 12
1.0
 22
0.0
 32
0.0
 13
1.0
 23
0.0
 33
0.0
 40
0.0
 40
0.0
 40
0.0
 40
0.0
 40
5.131922220292046
 40
8.119488588162998
 40
9.925807141444015
 40
10.37799326965661
 40
10.4773299302246
 40
10.51711133076985
 40
10.51711133076985
 40
10.51711133076985
 40
10.51711133076985
 10
430.9502424947316
 20
366.2921418576361
 30
0.0
 10
432.6603739085286
 20
366.3338717853892
 30
0.0
 10
435.3661066732113
 20
366.398341453236
 30
0.0
 10
438.6732381334579
 20
366.4979105681538
 30
0.0
 10
440.4204313303547
 20
366.5715089218618
 30
0.0
 10
441.2043077403214
 20
366.6322849425449
 30
0.0
 10
441.3987285594147
 20
366.6651275109928
 30
0.0
 10
441.4437507355635
 20
366.6800367520308
 30
0.0
 10
441.4502533595181
 20
366.6922216942957
 30
0.0
  0
SPLINE
  5
162
330
1F
100
AcDbEntity
  8
Make2D$___$___
100
AcDbSpline
210
0.0
220
0.0
230
1.0
 70
     8
 71
     3
 72
    13
 73
     9
 74
     0
 42
0.000000001
 43
0.0000000001
 12
1.0
 22
0.0
 32
0.0
 13
1.0
 23
0.0
 33
0.0
 40
0.0
 40
0.0
 40
0.0
 40
0.0
 40
5.131843666029432
 40
8.119347320897834
 40
9.925599315046648
 40
10.37775933469361
 40
10.47708594599853
 40
10.51686069643766
 40
10.51686069643766
 40
10.51686069643766
 40
10.51686069643766
 10
430.9502453999834
 20
367.892046029081
 30
0.0
 10
432.6603501957465
 20
367.933793808635
 30
0.0
 10
435.3660349919824
 20
367.998298324776
 30
0.0
 10
438.6730961194168
 20
368.0979027030816
 30
0.0
 10
440.420236164265
 20
368.17153324753
 30
0.0
 10
441.204076944264
 20
368.2323273272069
 30
0.0
 10
441.3984824810329
 20
368.2651736227837
 30
0.0
 10
441.4434988365193
 20
368.2800854956771
 30
0.0
 10
441.4499952252347
 20
368.2922716240173
 30
0.0
  0
LINE
  5
163
330
1F
100
AcDbEntity
  8
Make2D$___$___
100
AcDbLine
 10
430.9502508201884
 20
374.2918110742448
 30
0.0
 11
430.9502524346555
 21
373.0423856718298
 31
0.0
  0
SPLINE
  5
164
330
1F
100
AcDbEntity
  8
Make2D$___$___
100
AcDbSpline
210
0.0
220
0.0
230
1.0
 70
     8
 71
     3
 72
    15
 73
    11
 74
     0
 42
0.000000001
 43
0.0000000001
 12
1.0
 22
0.0
 32
0.0
 13
1.0
 23
0.0
 33
0.0
 40
0.0
 40
0.0
 40
0.0
 40
0.0
 40
0.0174301081189786
 40
0.0320031618947223
 40
0.1002926771261096
 40
0.2310204890758781
 40
0.752900416109033
 40
2.548657164969601
 40
5.584733250691021
 40
10.53578071048965
 40
10.53578071048965
 40
10.53578071048965
 40
10.53578071048965
 10
441.4374819596763
 20
368.6548546542284
 30
0.0
 10
441.4416334932811
 20
368.6538494321109
 30
0.0
 10
441.4556632657017
 20
368.6432612499577
 30
0.0
 10
441.4264862044357
 20
368.6217006221115
 30
0.0
 10
441.3568196356874
 20
368.6072281541445
 30
0.0
 10
441.1186289247397
 20
368.5741131608165
 30
0.0
 10
440.3044010426599
 20
368.516312030576
 30
0.0
 10
438.521276217631
 20
368.4427797673849
 30
0.0
 10
435.2617322660977
 20
368.3463065533568
 30
0.0
 10
432.6001115246323
 20
368.2824878221654
 30
0.0
 10
430.950253607958
 20
368.242336049771
 30
0.0
  0
SPLINE
  5
165
330
1F
100
AcDbEntity
  8
Make2D$___$___
100
AcDbSpline
210
0.0
220
0.0
230
1.0
 70
     8
 71
     3
 72
    13
 73
     9
 74
     0
 42
0.000000001
 43
0.0000000001
 12
1.0
 22
0.0
 32
0.0
 13
1.0
 23
0.0
 33
0.0
 40
0.0
 40
0.0
 40
0.0
 40
0.0
 40
5.131922560625499
 40
8.119484172022686
 40
9.925797393954719
 40
10.3779815698774
 40
10.47731677558965
 40
10.51709514878675
 40
10.51709514878675
 40
10.51709514878675
 40
10.51709514878675
 10
430.9502516883629
 20
369.8424150601422
 30
0.0
 10
429.2401202689339
 20
369.8006805502413
 30
0.0
 10
426.5343888191911
 20
369.7362182842223
 30
0.0
 10
423.2272600650579
 20
369.6366671397811
 30
0.0
 10
421.4800706342613
 20
369.5630751146078
 30
0.0
 10
420.6961960754854
 20
369.5023158231159
 30
0.0
 10
420.5017763381296
 20
369.4694794756371
 30
0.0
 10
420.4567546133633
 20
369.4545747272115
 30
0.0
 10
420.4502510522701
 20
369.4423916391706
 30
0.0
  0
SPLINE
  5
166
330
1F
100
AcDbEntity
  8
Make2D$___$___
100
AcDbSpline
210
0.0
220
0.0
230
1.0
 70
     8
 71
     3
 72
    15
 73
    11
 74
     0
 42
0.000000001
 43
0.0000000001
 12
1.0
 22
0.0
 32
0.0
 13
1.0
 23
0.0
 33
0.0
 40
0.0
 40
0.0
 40
0.0
 40
0.0
 40
0.0174292903292156
 40
0.0320016548185724
 40
0.1002906367967296
 40
0.2310180627500759
 40
0.752898307446529
 40
2.548656308799025
 40
5.584732464588739
 40
10.53577858500477
 40
10.53577858500477
 40
10.53577858500477
 40
10.53577858500477
 10
441.4374815207497
 20
370.2549072907357
 30
0.0
 10
441.441632926285
 20
370.2539024339754
 30
0.0
 10
441.4556625550246
 20
370.2433148251727
 30
0.0
 10
441.4264849427667
 20
370.2217559505325
 30
0.0
 10
441.3568188705901
 20
370.2072845251441
 30
0.0
 10
441.1186279386772
 20
370.1741725516711
 30
0.0
 10
440.3043991873856
 20
370.1163783243626
 30
0.0
 10
438.5212735688884
 20
370.0428534616456
 30
0.0
 10
435.2617294981118
 20
369.9463838583542
 30
0.0
 10
432.6001093232643
 20
369.8825605072673
 30
0.0
 10
430.9502516883629
 20
369.8424150601422
 30
0.0
  0
SPLINE
  5
167
330
1F
100
AcDbEntity
  8
Make2D$___$___
100
AcDbSpline
210
0.0
220
0.0
230
1.0
 70
     8
 71
     3
 72
    13
 73
     9
 74
     0
 42
0.000000001
 43
0.0000000001
 12
1.0
 22
0.0
 32
0.0
 13
1.0
 23
0.0
 33
0.0
 40
0.0
 40
0.0
 40
0.0
 40
0.0
 40
5.131930289497859
 40
8.119482725690801
 40
9.925797555406959
 40
10.37798042033037
 40
10.47731460031466
 40
10.51709112600508
 40
10.51709112600508
 40
10.51709112600508
 40
10.51709112600508
 10
430.9502532959376
 20
371.4423482787565
 30
0.0
 10
429.2401193341843
 20
371.400612652662
 30
0.0
 10
426.5343880728518
 20
371.336161595221
 30
0.0
 10
423.227259175316
 20
371.2366137320229
 30
0.0
 10
421.4800722952852
 20
371.1630327632804
 30
0.0
 10
420.6961970346462
 20
371.102287520035
 30
0.0
 10
420.5017778551898
 20
371.0694560561956
 30
0.0
 10
420.456756358732
 20
371.0545543760762
 30
0.0
 10
420.4502521875354
 20
371.0423724046177
 30
0.0
  0
SPLINE
  5
168
330
1F
100
AcDbEntity
  8
Make2D$___$___
100
AcDbSpline
210
0.0
220
0.0
230
1.0
 70
     8
 71
     3
 72
    15
 73
    11
 74
     0
 42
0.000000001
 43
0.0000000001
 12
1.0
 22
0.0
 32
0.0
 13
1.0
 23
0.0
 33
0.0
 40
0.0
 40
0.0
 40
0.0
 40
0.0
 40
0.0174297623754199
 40
0.0320020424270712
 40
0.1002905801514177
 40
0.2310178294939696
 40
0.7528983750180923
 40
2.548655302561315
 40
5.584729150282956
 40
10.53577766556495
 40
10.53577766556495
 40
10.53577766556495
 40
10.53577766556495
 10
441.4374811864763
 20
371.8548416243912
 30
0.0
 10
441.4416325256302
 20
371.8538366128603
 30
0.0
 10
441.4556626791854
 20
371.8432490231485
 30
0.0
 10
441.4264856905754
 20
371.821689633156
 30
0.0
 10
441.3568195505042
 20
371.8072188760128
 30
0.0
 10
441.1186286397629
 20
371.7741076572027
 30
0.0
 10
440.3044001044555
 20
371.7163157452311
 30
0.0
 10
438.5212757334805
 20
371.6427851244549
 30
0.0
 10
435.2617319363758
 20
371.5463170032702
 30
0.0
 10
432.6001115747918
 20
371.4824999585209
 30
0.0
 10
430.9502532959376
 20
371.4423482787565
 30
0.0
  0
SPLINE
  5
169
330
1F
100
AcDbEntity
  8
Make2D$___$___
100
AcDbSpline
210
0.0
220
0.0
230
1.0
 70
     8
 71
     3
 72
    13
 73
     9
 74
     0
 42
0.000000001
 43
0.0000000001
 12
1.0
 22
0.0
 32
0.0
 13
1.0
 23
0.0
 33
0.0
 40
0.0
 40
0.0
 40
0.0
 40
0.0
 40
5.131920752114463
 40
8.119484294195367
 40
9.925799295066046
 40
10.37798279436416
 40
10.47731779494341
 40
10.51709607379265
 40
10.51709607379265
 40
10.51709607379265
 40
10.51709607379265
 10
430.9502524346555
 20
373.0423856718298
 30
0.0
 10
429.240121502553
 20
373.0006558326627
 30
0.0
 10
426.5343901117943
 20
372.9361894511294
 30
0.0
 10
423.2272608770065
 20
372.8366333699223
 30
0.0
 10
421.4800701498558
 20
372.7630491542313
 30
0.0
 10
420.6961954389935
 20
372.7022861190085
 30
0.0
 10
420.5017760397778
 20
372.6694507442767
 30
0.0
 10
420.4567544567138
 20
372.6545452682519
 30
0.0
 10
420.4502510409636
 20
372.6423623150564
 30
0.0
  0
LINE
  5
16A
330
1F
100
AcDbEntity
  8
Make2D$___$___
100
AcDbLine
 10
441.4372385363836
 20
367.0544502713876
 30
0.0
 11
441.4500025362327
 21
367.0419400088967
 31
0.0
  0
SPLINE
  5
16B
330
1F
100
AcDbEntity
  8
Make2D$___$___
100
AcDbSpline
210
0.0
220
0.0
230
1.0
 70
     8
 71
     3
 72
    13
 73
     9
 74
     0
 42
0.000000001
 43
0.0000000001
 12
1.0
 22
0.0
 32
0.0
 13
1.0
 23
0.0
 33
0.0
 40
0.0
 40
0.0
 40
0.0
 40
0.0
 40
5.131920490908812
 40
8.119482811500934
 40
9.925797454159413
 40
10.37798134845048
 40
10.47731601559417
 40
10.51709326728192
 40
10.51709326728192
 40
10.51709326728192
 40
10.51709326728192
 10
430.950253607958
 20
368.242336049771
 30
0.0
 10
429.2401227019026
 20
368.2006082421819
 30
0.0
 10
426.5343918731547
 20
368.1361407567439
 30
0.0
 10
423.2272628992891
 20
368.0365955268982
 30
0.0
 10
421.4800725648641
 20
367.9630120282193
 30
0.0
 10
420.6961971689346
 20
367.9022613485575
 30
0.0
 10
420.5017775916506
 20
367.8694281169813
 30
0.0
 10
420.4567560153611
 20
367.8545250486757
 30
0.0
 10
420.45025182309
 20
367.842342909091
 30
0.0
  0
SPLINE
  5
16C
330
1F
100
AcDbEntity
  8
Make2D$___$___
100
AcDbSpline
210
0.0
220
0.0
230
1.0
 70
     8
 71
     3
 72
    15
 73
    11
 74
     0
 42
0.000000001
 43
0.0000000001
 12
1.0
 22
0.0
 32
0.0
 13
1.0
 23
0.0
 33
0.0
 40
0.0
 40
0.0
 40
0.0
 40
0.0
 40
0.0174273933560485
 40
0.0319965387797751
 40
0.100282627382267
 40
0.231008241502404
 40
0.7528841647824753
 40
2.54863888907534
 40
5.584712904669431
 40
10.53575786403566
 40
10.53575786403566
 40
10.53575786403566
 40
10.53575786403566
 10
441.4374786695067
 20
365.454473975167
 30
0.0
 10
441.4416293341157
 20
365.4534702290265
 30
0.0
 10
441.4556603302876
 20
365.4428853026315
 30
0.0
 10
441.426481877674
 20
365.4213322367196
 30
0.0
 10
441.3568176432572
 20
365.4068662261382
 30
0.0
 10
441.1186283501912
 20
365.3737652753505
 30
0.0
 10
440.3044019601538
 20
365.3159828035718
 30
0.0
 10
438.5212785790052
 20
365.2424831251622
 30
0.0
 10
435.2617363517479
 20
365.1460276197537
 30
0.0
 10
432.6001170719994
 20
365.0822115320774
 30
0.0
 10
430.950259882743
 20
365.0420641269143
 30
0.0
  0
SPLINE
  5
16D
330
1F
100
AcDbEntity
  8
Make2D$___$___
100
AcDbSpline
210
0.0
220
0.0
230
1.0
 70
     8
 71
     3
 72
    13
 73
     9
 74
     0
 42
0.000000001
 43
0.0000000001
 12
1.0
 22
0.0
 32
0.0
 13
1.0
 23
0.0
 33
0.0
 40
0.0
 40
0.0
 40
0.0
 40
0.0
 40
5.131923474637447
 40
8.119487645889759
 40
9.92580630804433
 40
10.37799444132633
 40
10.47733164552977
 40
10.51711497476855
 40
10.51711497476855
 40
10.51711497476855
 40
10.51711497476855
 10
430.9502585608547
 20
366.6421428051267
 30
0.0
 10
429.2401268339333
 20
366.6004083639122
 30
0.0
 10
426.5343943862767
 20
366.5359392866685
 30
0.0
 10
423.2272633072371
 20
366.4363650103359
 30
0.0
 10
421.4800710216545
 20
366.3627445832826
 30
0.0
 10
420.696193971654
 20
366.3019669338095
 30
0.0
 10
420.5017724024897
 20
366.2691180409063
 30
0.0
 10
420.4567501331284
 20
366.2542064312887
 30
0.0
 10
420.4502486810321
 20
366.2420195623962
 30
0.0
  0
SPLINE
  5
16E
330
1F
100
AcDbEntity
  8
Make2D$___$___
100
AcDbSpline
210
0.0
220
0.0
230
1.0
 70
     8
 71
     3
 72
    13
 73
     9
 74
     0
 42
0.000000001
 43
0.0000000001
 12
1.0
 22
0.0
 32
0.0
 13
1.0
 23
0.0
 33
0.0
 40
0.0
 40
0.0
 40
0.0
 40
0.0
 40
0.039764475252494
 40
0.1390869631196494
 40
0.5912416306067826
 40
2.397486966864436
 40
5.384985503183978
 40
10.51682400761279
 40
10.51682400761279
 40
10.51682400761279
 40
10.51682400761279
 10
441.4500025362327
 20
367.0419400088967
 30
0.0
 10
441.4435017056696
 20
367.0297616519854
 30
0.0
 10
441.3984860466751
 20
367.0148652832198
 30
0.0
 10
441.204082324116
 20
366.9820505422127
 30
0.0
 10
440.4202422590844
 20
366.9213215044329
 30
0.0
 10
438.6731044469532
 20
366.8477783505388
 30
0.0
 10
435.3660454067729
 20
366.7482928580954
 30
0.0
 10
432.660362515279
 20
366.683855328251
 30
0.0
 10
430.9502585608548
 20
366.6421428051267
 30
0.0
  0
SPLINE
  5
16F
330
1F
100
AcDbEntity
  8
Make2D$___$___
100
AcDbSpline
210
0.0
220
0.0
230
1.0
 70
     8
 71
     3
 72
    18
 73
    14
 74
     0
 42
0.000000001
 43
0.0000000001
 12
1.0
 22
0.0
 32
0.0
 13
1.0
 23
0.0
 33
0.0
 40
0.0
 40
0.0
 40
0.0
 40
0.0
 40
0.0598230128049225
 40
0.1943649503601036
 40
0.667331693725031
 40
2.356462222204685
 40
5.108358052809376
 40
12.65488028203233
 40
15.49908202014233
 40
17.73010507001465
 40
18.31664235390595
 40
18.5045258182583
 40
18.59668234714344
 40
18.59668234714344
 40
18.59668234714344
 40
18.59668234714344
 10
440.2377449420768
 20
364.4541980502177
 30
0.0
 10
440.2198634745127
 20
364.4451345929405
 30
0.0
 10
440.1568777586012
 20
364.4290980535399
 30
0.0
 10
439.936644510548
 20
364.3969010440714
 30
0.0
 10
439.1732507946327
 20
364.3373232844491
 30
0.0
 10
437.536865458566
 20
364.262843430868
 30
0.0
 10
433.5431536666239
 20
364.1317657607574
 30
0.0
 10
429.163557733752
 20
364.02374501156
 30
0.0
 10
424.9583678983805
 20
363.8924982726867
 30
0.0
 10
423.0725526402302
 20
363.8167706137777
 30
0.0
 10
422.0729281724072
 20
363.7483981462465
 30
0.0
 10
421.7862127299586
 20
363.712102344312
 30
0.0
 10
421.6945636856765
 20
363.6935861109423
 30
0.0
 10
421.6660420158831
 20
363.6818155590274
 30
0.0
  0
LINE
  5
170
330
1F
100
AcDbEntity
  8
Make2D$___$___
100
AcDbLine
 10
421.6518238397487
 20
365.2712015062401
 30
0.0
 11
421.6529425855445
 21
365.262022279049
 31
0.0
  0
SPLINE
  5
171
330
1F
100
AcDbEntity
  8
Make2D$___$___
100
AcDbSpline
210
0.0
220
0.0
230
1.0
 70
     8
 71
     3
 72
    19
 73
    15
 74
     0
 42
0.000000001
 43
0.0000000001
 12
1.0
 22
0.0
 32
0.0
 13
1.0
 23
0.0
 33
0.0
 40
0.0
 40
0.0
 40
0.0
 40
0.0
 40
0.0025688155107721
 40
0.0910179005329361
 40
0.2465274644361644
 40
0.8643043016663554
 40
3.088652098848995
 40
6.055275368586582
 40
13.3574946914577
 40
16.32190281770599
 40
17.97680222197026
 40
18.42966072759314
 40
18.53763928144252
 40
18.59852032196849
 40
18.59852032196849
 40
18.59852032196849
 40
18.59852032196849
 10
440.2363581104181
 20
366.0525264832381
 30
0.0
 10
440.235602516132
 20
366.0521282911779
 30
0.0
 10
440.2072848440411
 20
366.040849769464
 30
0.0
 10
440.1267315434065
 20
366.0240712752059
 30
0.0
 10
439.8417041042198
 20
365.9870292037078
 30
0.0
 10
438.8447220212025
 20
365.9180370656734
 30
0.0
 10
436.9099468272093
 20
365.8403709067055
 30
0.0
 10
432.7475667667865
 20
365.7111318405428
 30
0.0
 10
428.337802782592
 20
365.6013611975361
 30
0.0
 10
424.3660520645254
 20
365.471958125211
 30
0.0
 10
422.6770346111091
 20
365.3941096173729
 30
0.0
 10
421.9406443972233
 20
365.334965595064
 30
0.0
 10
421.7356565885497
 20
365.3034471548276
 30
0.0
 10
421.6810194812143
 20
365.2892864020616
 30
0.0
 10
421.6626923196456
 20
365.2803807301062
 30
0.0
  0
LINE
  5
172
330
1F
100
AcDbEntity
  8
Make2D$___$___
100
AcDbLine
 10
440.2512282089528
 20
366.0698339487174
 30
0.0
 11
440.2488720710709
 21
366.0606536878346
 31
0.0
  0
SPLINE
  5
173
330
1F
100
AcDbEntity
  8
Make2D$___$___
100
AcDbSpline
210
0.0
220
0.0
230
1.0
 70
     8
 71
     3
 72
    18
 73
    14
 74
     0
 42
0.000000001
 43
0.0000000001
 12
1.0
 22
0.0
 32
0.0
 13
1.0
 23
0.0
 33
0.0
 40
0.0
 40
0.0
 40
0.0
 40
0.0
 40
0.089944422135395
 40
0.25927254857515
 40
0.8501796750082411
 40
3.061114008725365
 40
5.899890172547807
 40
13.44912562114221
 40
16.29890967026961
 40
17.96502235914494
 40
18.4134773858752
 40
18.54456964379575
 40
18.6049202027565
 40
18.6049202027565
 40
18.6049202027565
 40
18.6049202027565
 10
440.2369125858966
 20
367.6533179157908
 30
0.0
 10
440.2093848947859
 20
367.6410577282171
 30
0.0
 10
440.1246515797333
 20
367.6231177120264
 30
0.0
 10
439.8434136532023
 20
367.5870919045958
 30
0.0
 10
438.8552223817571
 20
367.5188301569336
 30
0.0
 10
436.9764778930365
 20
367.4427652184327
 30
0.0
 10
432.7788903311803
 20
367.3115115744426
 30
0.0
 10
428.3675743641256
 20
367.2027683154597
 30
0.0
 10
424.3480200329198
 20
367.0708717513918
 30
0.0
 10
422.6948633180884
 20
366.9953404376658
 30
0.0
 10
421.9485391782508
 20
366.9355196334728
 30
0.0
 10
421.7374834321866
 20
366.9034401616398
 30
0.0
 10
421.6755331966415
 20
366.8874593720377
 30
0.0
 10
421.6577696196297
 20
366.8776564176603
 30
0.0
  0
SPLINE
  5
174
330
1F
100
AcDbEntity
  8
Make2D$___$___
100
AcDbSpline
210
0.0
220
0.0
230
1.0
 70
     8
 71
     3
 72
    15
 73
    11
 74
     0
 42
0.000000001
 43
0.0000000001
 12
1.0
 22
0.0
 32
0.0
 13
1.0
 23
0.0
 33
0.0
 40
0.0
 40
0.0
 40
0.0
 40
0.0
 40
0.0103502386804666
 40
0.0272770866646697
 40
0.0585221409529974
 40
0.1803672147061882
 40
0.6686637440913725
 40
2.400575644938987
 40
5.315091629269356
 40
10.30187533470006
 40
10.30187533470006
 40
10.30187533470006
 40
10.30187533470006
 10
441.2339282859701
 20
363.9606102957621
 30
0.0
 10
441.2394582155453
 20
363.9584729680244
 30
0.0
 10
441.2348047059125
 20
363.9499724390528
 30
0.0
 10
441.2153163935986
 20
363.9445281019046
 30
0.0
 10
441.1597721932692
 20
363.9341224847146
 30
0.0
 10
440.946826270194
 20
363.9131637669864
 30
0.0
 10
440.16706562199
 20
363.8744816121443
 30
0.0
 10
438.4561043517351
 20
363.8265547180136
 30
0.0
 10
435.245710185513
 20
363.7613652418576
 30
0.0
 10
432.6122778219209
 20
363.7182234154598
 30
0.0
 10
430.9502564337368
 20
363.6903302156293
 30
0.0
  0
LINE
  5
175
330
1F
100
AcDbEntity
  8
Make2D$___$___
100
AcDbLine
 10
420.4634890905891
 20
364.6543545605964
 30
0.0
 11
420.4513382970982
 21
364.6440068716039
 31
0.0
  0
SPLINE
  5
176
330
1F
100
AcDbEntity
  8
Make2D$___$___
100
AcDbSpline
210
0.0
220
0.0
230
1.0
 70
     8
 71
     3
 72
    13
 73
     9
 74
     0
 42
0.000000001
 43
0.0000000001
 12
1.0
 22
0.0
 32
0.0
 13
1.0
 23
0.0
 33
0.0
 40
0.0
 40
0.0
 40
0.0
 40
0.0
 40
4.981174798723195
 40
7.955912712206507
 40
9.802962259058395
 40
10.27029383960451
 40
10.4165043756097
 40
10.49664268557567
 40
10.49664268557567
 40
10.49664268557567
 40
10.49664268557567
 10
430.9502598827431
 20
365.0420641269143
 30
0.0
 10
429.2903682373162
 20
365.0015948339662
 30
0.0
 10
426.6391300495138
 20
364.938264684285
 30
0.0
 10
423.3729235051751
 20
364.8411748947066
 30
0.0
 10
421.6112723758523
 20
364.7690663173833
 30
0.0
 10
420.7930189943631
 20
364.7106505338604
 30
0.0
 10
420.5636202151198
 20
364.6807313319352
 30
0.0
 10
420.489614855433
 20
364.6654028611657
 30
0.0
 10
420.4648625866609
 20
364.6550217894777
 30
0.0
  0
LINE
  5
177
330
1F
100
AcDbEntity
  8
Make2D$___$___
100
AcDbLine
 10
421.9502516085576
 20
362.6670987962939
 30
0.0
 11
430.9502516085579
 21
362.6670987962939
 31
0.0
  0
SPLINE
  5
178
330
1F
100
AcDbEntity
  8
Make2D$___$___
100
AcDbSpline
210
0.0
220
0.0
230
1.0
 70
     8
 71
     3
 72
    13
 73
     9
 74
     0
 42
0.000000001
 43
0.0000000001
 12
1.0
 22
0.0
 32
0.0
 13
1.0
 23
0.0
 33
0.0
 40
0.0
 40
0.0
 40
0.0
 40
0.0
 40
4.687990689903943
 40
7.513076233615695
 40
9.2151397188725
 40
9.640894515344637
 40
9.748554127656623
 40
9.773719650517993
 40
9.773719650517993
 40
9.773719650517993
 40
9.773719650517993
 10
430.9502564337367
 20
363.6903302156293
 30
0.0
 10
429.3878032913107
 20
363.6639738774094
 30
0.0
 10
426.8838090833401
 20
363.6232978617178
 30
0.0
 10
423.8127111578501
 20
363.558503572156
 30
0.0
 10
422.162518163049
 20
363.5097028754227
 30
0.0
 10
421.4181667189044
 20
363.4697686318983
 30
0.0
 10
421.2335678423433
 20
363.4481796078649
 30
0.0
 10
421.1889645567151
 20
363.4365393441364
 30
0.0
 10
421.1894102994735
 20
363.4276164433595
 30
0.0
  0
SPLINE
  5
179
330
1F
100
AcDbEntity
  8
Make2D$___$___
100
AcDbSpline
210
0.0
220
0.0
230
1.0
 70
     8
 71
     3
 72
    18
 73
    14
 74
     0
 42
0.000000001
 43
0.0000000001
 12
1.0
 22
0.0
 32
0.0
 13
1.0
 23
0.0
 33
0.0
 40
0.0
 40
0.0
 40
0.0
 40
0.0
 40
0.0574903230136072
 40
0.1877094054670312
 40
0.6425574055558356
 40
2.329281668934429
 40
5.16745560920239
 40
12.64750736871251
 40
15.54742495672282
 40
17.75958940594388
 40
18.32804058632289
 40
18.50687434071472
 40
18.59881611004199
 40
18.59881611004199
 40
18.59881611004199
 40
18.59881611004199
 10
440.2370589582677
 20
369.253863895249
 30
0.0
 10
440.2196998373689
 20
369.2454447769891
 30
0.0
 10
440.1589626937438
 20
369.2300078424762
 30
0.0
 10
439.9469683704668
 20
369.1980646698086
 30
0.0
 10
439.1919233999158
 20
369.138198981373
 30
0.0
 10
437.5336314183293
 20
369.0625921273001
 30
0.0
 10
433.5341201356433
 20
368.9316191548983
 30
0.0
 10
429.1293596225786
 20
368.8227709489009
 30
0.0
 10
424.9340380552897
 20
368.6917628027996
 30
0.0
 10
423.0419925752107
 20
368.6152716116414
 30
0.0
 10
422.0577211769238
 20
368.5468643691767
 30
0.0
 10
421.7801311378922
 20
368.511405536014
 30
0.0
 10
421.6915184287984
 20
368.4931084124606
 30
0.0
 10
421.6634095798125
 20
368.4804944745891
 30
0.0
  0
LINE
  5
17A
330
1F
100
AcDbEntity
  8
Make2D$___$___
100
AcDbLine
 10
440.2475177705373
 20
369.2725768630573
 30
0.0
 11
440.2468961681444
 21
369.2608579646949
 31
0.0
  0
SPLINE
  5
17B
330
1F
100
AcDbEntity
  8
Make2D$___$___
100
AcDbSpline
210
0.0
220
0.0
230
1.0
 70
     8
 71
     3
 72
    18
 73
    14
 74
     0
 42
0.000000001
 43
0.0000000001
 12
1.0
 22
0.0
 32
0.0
 13
1.0
 23
0.0
 33
0.0
 40
0.0
 40
0.0
 40
0.0
 40
0.0
 40
0.0620818852719715
 40
0.2079258212983495
 40
0.6606868951493305
 40
2.25618276268521
 40
5.22080613383286
 40
12.70305054910449
 40
15.59205495388949
 40
17.78561001968852
 40
18.34344039415959
 40
18.50987404364026
 40
18.60019628639166
 40
18.60019628639166
 40
18.60019628639166
 40
18.60019628639166
 10
440.2389805661808
 20
370.8546065999501
 30
0.0
 10
440.22034308868
 20
370.8452611170819
 30
0.0
 10
440.1529197375775
 20
370.8285917102089
 30
0.0
 10
439.9347983331456
 20
370.7970190764958
 30
0.0
 10
439.2055644392138
 20
370.7393747625052
 30
0.0
 10
437.5362842608364
 20
370.6624027723894
 30
0.0
 10
433.524288103864
 20
370.5314003052783
 30
0.0
 10
429.0803075526817
 20
370.4214148765226
 30
0.0
 10
424.8940957673217
 20
370.2904144061806
 30
0.0
 10
423.0154438900918
 20
370.2139123471724
 30
0.0
 10
422.0450598707994
 20
370.1457304121194
 30
0.0
 10
421.7757318186692
 20
370.1103954270277
 30
0.0
 10
421.6916987278382
 20
370.0931438598791
 30
0.0
 10
421.6640268856434
 20
370.0808937777309
 30
0.0
  0
SPLINE
  5
17C
330
1F
100
AcDbEntity
  8
Make2D$___$___
100
AcDbSpline
210
0.0
220
0.0
230
1.0
 70
     8
 71
     3
 72
    19
 73
    15
 74
     0
 42
0.000000001
 43
0.0000000001
 12
1.0
 22
0.0
 32
0.0
 13
1.0
 23
0.0
 33
0.0
 40
0.0
 40
0.0
 40
0.0
 40
0.0
 40
0.0283314903517272
 40
0.0913163283631966
 40
0.2576977304991481
 40
0.8155691691603669
 40
3.009138669442383
 40
5.89804199312896
 40
13.37989061448758
 40
16.34431835537213
 40
17.93961827345295
 40
18.39300938759621
 40
18.51582622231445
 40
18.59899230742735
 40
18.59899230742735
 40
18.59899230742735
 40
18.59899230742735
 10
440.2370202615508
 20
372.4537507989596
 30
0.0
 10
440.228612884386
 20
372.4494438764143
 30
0.0
 10
440.1996988343925
 20
372.4394474177435
 30
0.0
 10
440.1154840974722
 20
372.422522350873
 30
0.0
 10
439.8550896058523
 20
372.3885036770151
 30
0.0
 10
438.884744415323
 20
372.3202755641568
 30
0.0
 10
437.0060890584271
 20
372.2437912993144
 30
0.0
 10
432.820045471544
 20
372.112784254669
 30
0.0
 10
428.3762951709899
 20
372.0027948593634
 30
0.0
 10
424.3645555670863
 20
371.8718109327482
 30
0.0
 10
422.6952121203971
 20
371.7948098181591
 30
0.0
 10
421.9734483797754
 20
371.7378259226648
 30
0.0
 10
421.7558150931355
 20
371.7066758183557
 30
0.0
 10
421.6885135623311
 20
371.691947499647
 30
0.0
 10
421.6632330153216
 20
371.6802962798108
 30
0.0
  0
SPLINE
  5
17D
330
1F
100
AcDbEntity
  8
Make2D$___$___
100
AcDbSpline
210
0.0
220
0.0
230
1.0
 70
     8
 71
     3
 72
    13
 73
     9
 74
     0
 42
0.000000001
 43
0.0000000001
 12
1.0
 22
0.0
 32
0.0
 13
1.0
 23
0.0
 33
0.0
 40
0.0
 40
0.0
 40
0.0
 40
0.0
 40
4.284552260249155
 40
6.970051423706688
 40
8.661668654512123
 40
9.106129623985208
 40
9.224946419511477
 40
9.299958047993062
 40
9.299958047993062
 40
9.299958047993062
 40
9.299958047993062
 10
430.9502516564364
 20
373.6670976676942
 30
0.0
 10
429.5226141582779
 20
373.6278136904004
 30
0.0
 10
427.2000885272488
 20
373.5650895427188
 30
0.0
 10
424.3144620021461
 20
373.4691620544436
 30
0.0
 10
422.7088414812775
 20
373.3960992585575
 30
0.0
 10
421.9593978618097
 20
373.3365859753994
 30
0.0
 10
421.7488142622475
 20
373.3054295919
 30
0.0
 10
421.6855864112823
 20
373.2911264348407
 30
0.0
 10
421.662895510674
 20
373.2803790564382
 30
0.0
  0
SPLINE
  5
17E
330
1F
100
AcDbEntity
  8
Make2D$___$___
100
AcDbSpline
210
0.0
220
0.0
230
1.0
 70
     8
 71
     3
 72
    15
 73
    11
 74
     0
 42
0.000000001
 43
0.0000000001
 12
1.0
 22
0.0
 32
0.0
 13
1.0
 23
0.0
 33
0.0
 40
0.0
 40
0.0
 40
0.0
 40
0.0
 40
0.0174289688191005
 40
0.0320005057288632
 40
0.1002887711689485
 40
0.2310158003526643
 40
0.7528942355419331
 40
2.548652678372793
 40
5.584729059468833
 40
10.53577527423396
 40
10.53577527423396
 40
10.53577527423396
 40
10.53577527423396
 10
420.4630223895837
 20
373.8793368145039
 30
0.0
 10
420.4588711913631
 20
373.8803414251258
 30
0.0
 10
420.4448410410791
 20
373.8909284123427
 30
0.0
 10
420.4740187719264
 20
373.9124858172007
 30
0.0
 10
420.5436844498425
 20
373.9269561371662
 30
0.0
 10
420.7818747178198
 20
373.9600648632581
 30
0.0
 10
421.596102840862
 20
374.017860514385
 30
0.0
 10
423.3792285286583
 20
374.0913743260762
 30
0.0
 10
426.6387727987633
 20
374.1878443336116
 30
0.0
 10
429.3003932156768
 20
374.2516635360577
 30
0.0
 10
430.9502508201884
 20
374.2918110742448
 30
0.0
  0
SPLINE
  5
17F
330
1F
100
AcDbEntity
  8
Make2D$___$___
100
AcDbSpline
210
0.0
220
0.0
230
1.0
 70
     8
 71
     3
 72
    13
 73
     9
 74
     0
 42
0.000000001
 43
0.0000000001
 12
1.0
 22
0.0
 32
0.0
 13
1.0
 23
0.0
 33
0.0
 40
0.0
 40
0.0
 40
0.0
 40
0.0
 40
5.131923845887722
 40
8.119483362124475
 40
9.925797871356671
 40
10.37798233977054
 40
10.47731695791863
 40
10.51709435763925
 40
10.51709435763925
 40
10.51709435763925
 40
10.51709435763925
 10
430.9502498814736
 20
372.6918499953708
 30
0.0
 10
432.6603817384987
 20
372.7335844834672
 30
0.0
 10
435.3661129336232
 20
372.79804496604
 30
0.0
 10
438.6732419992326
 20
372.8975921836285
 30
0.0
 10
440.4204312494005
 20
372.9711832626099
 30
0.0
 10
441.2043067493082
 20
373.0319333787355
 30
0.0
 10
441.3987265368743
 20
373.0647669610411
 30
0.0
 10
441.4437480989079
 20
373.0796703934639
 30
0.0
 10
441.4502517150927
 20
373.0918530538505
 30
0.0
  0
SPLINE
  5
180
330
1F
100
AcDbEntity
  8
Make2D$___$___
100
AcDbSpline
210
0.0
220
0.0
230
1.0
 70
     8
 71
     3
 72
    15
 73
    11
 74
     0
 42
0.000000001
 43
0.0000000001
 12
1.0
 22
0.0
 32
0.0
 13
1.0
 23
0.0
 33
0.0
 40
0.0
 40
0.0
 40
0.0
 40
0.0
 40
0.0174306717357247
 40
0.0320043351400532
 40
0.1002939066722258
 40
0.2310214827779813
 40
0.7529012620858918
 40
2.548660137639396
 40
5.584727763261342
 40
10.53578308324465
 40
10.53578308324465
 40
10.53578308324465
 40
10.53578308324465
 10
420.4630211047331
 20
372.2793241483366
 30
0.0
 10
420.4588694381149
 20
372.2803296510052
 30
0.0
 10
420.4448397279504
 20
372.2909182777385
 30
0.0
 10
420.4740161371266
 20
372.3124805119835
 30
0.0
 10
420.5436828919043
 20
372.3269532542046
 30
0.0
 10
420.7818732946871
 20
372.3600702256803
 30
0.0
 10
421.5961018812725
 20
372.4178690681005
 30
0.0
 10
423.3792244064413
 20
372.4914044265157
 30
0.0
 10
426.638768624902
 20
372.5878859989769
 30
0.0
 10
429.300389379288
 20
372.6516971134671
 30
0.0
 10
430.9502498814736
 20
372.6918499953708
 30
0.0
  0
SPLINE
  5
181
330
1F
100
AcDbEntity
  8
Make2D$___$___
100
AcDbSpline
210
0.0
220
0.0
230
1.0
 70
     8
 71
     3
 72
    13
 73
     9
 74
     0
 42
0.000000001
 43
0.0000000001
 12
1.0
 22
0.0
 32
0.0
 13
1.0
 23
0.0
 33
0.0
 40
0.0
 40
0.0
 40
0.0
 40
0.0
 40
5.131920398756892
 40
8.119482469076525
 40
9.925796955594985
 40
10.37798093697226
 40
10.47731579077379
 40
10.51709379933094
 40
10.51709379933094
 40
10.51709379933094
 40
10.51709379933094
 10
430.9502515369735
 20
371.0917822216561
 30
0.0
 10
432.6603824095024
 20
371.1335100792857
 30
0.0
 10
435.3661131065462
 20
371.1979785517424
 30
0.0
 10
438.6732417841384
 20
371.2975281686134
 30
0.0
 10
440.4204318368704
 20
371.371116229983
 30
0.0
 10
441.2043069813774
 20
371.4318710503346
 30
0.0
 10
441.3987265452325
 20
371.4647066671879
 30
0.0
 10
441.4437481144614
 20
371.4796109863262
 30
0.0
 10
441.4502518520079
 20
371.4917937940083
 30
0.0
  0
SPLINE
  5
182
330
1F
100
AcDbEntity
  8
Make2D$___$___
100
AcDbSpline
210
0.0
220
0.0
230
1.0
 70
     8
 71
     3
 72
    15
 73
    11
 74
     0
 42
0.000000001
 43
0.0000000001
 12
1.0
 22
0.0
 32
0.0
 13
1.0
 23
0.0
 33
0.0
 40
0.0
 40
0.0
 40
0.0
 40
0.0
 40
0.0174288927280884
 40
0.0320005800326305
 40
0.1002892070279078
 40
0.2310166198949127
 40
0.7528961164902838
 40
2.548652603127937
 40
5.584728672219433
 40
10.53577608486548
 40
10.53577608486548
 40
10.53577608486548
 40
10.53577608486548
 10
420.4630221496245
 20
370.6793047411221
 30
0.0
 10
420.4588709094944
 20
370.6803093958459
 30
0.0
 10
420.4448410049012
 20
370.6908964478387
 30
0.0
 10
420.474019008372
 20
370.7124540847138
 30
0.0
 10
420.5436849298492
 20
370.7269239203981
 30
0.0
 10
420.781875779302
 20
370.7600339478599
 30
0.0
 10
421.5961038150308
 20
370.8178266393197
 30
0.0
 10
423.3792287780153
 20
370.8913495485036
 30
0.0
 10
426.638772865486
 20
370.9878138462934
 30
0.0
 10
429.3003936355128
 20
371.0516305038375
 30
0.0
 10
430.9502515369735
 20
371.0917822216561
 30
0.0
  0
SPLINE
  5
183
330
1F
100
AcDbEntity
  8
Make2D$___$___
100
AcDbSpline
210
0.0
220
0.0
230
1.0
 70
     8
 71
     3
 72
    13
 73
     9
 74
     0
 42
0.000000001
 43
0.0000000001
 12
1.0
 22
0.0
 32
0.0
 13
1.0
 23
0.0
 33
0.0
 40
0.0
 40
0.0
 40
0.0
 40
0.0
 40
5.131922591816529
 40
8.11948406924781
 40
9.925796937495173
 40
10.37798056617123
 40
10.47731519681753
 40
10.51709180347209
 40
10.51709180347209
 40
10.51709180347209
 40
10.51709180347209
 10
430.9502496221657
 20
369.4918613355076
 30
0.0
 10
432.6603810571432
 20
369.5335957778113
 30
0.0
 10
435.3661125126293
 20
369.5980558079449
 30
0.0
 10
438.6732413981777
 20
369.6975974124873
 30
0.0
 10
440.4204308514936
 20
369.771179838204
 30
0.0
 10
441.2043055558504
 20
369.8319299906624
 30
0.0
 10
441.398725098773
 20
369.8647612074595
 30
0.0
 10
441.443746744655
 20
369.8796632353402
 30
0.0
 10
441.450251189217
 20
369.891844896378
 30
0.0
  0
SPLINE
  5
184
330
1F
100
AcDbEntity
  8
Make2D$___$___
100
AcDbSpline
210
0.0
220
0.0
230
1.0
 70
     8
 71
     3
 72
    15
 73
    11
 74
     0
 42
0.000000001
 43
0.0000000001
 12
1.0
 22
0.0
 32
0.0
 13
1.0
 23
0.0
 33
0.0
 40
0.0
 40
0.0
 40
0.0
 40
0.0
 40
0.0174298593787067
 40
0.0320028057819254
 40
0.1002921045459373
 40
0.2310196259279602
 40
0.7528998678920967
 40
2.548657700291724
 40
5.58473366617634
 40
10.53577963539632
 40
10.53577963539632
 40
10.53577963539632
 40
10.53577963539632
 10
420.4630213581018
 20
369.0793508429293
 30
0.0
 10
420.4588698294187
 20
369.0803559528237
 30
0.0
 10
420.4448401996977
 20
369.0909440360795
 30
0.0
 10
420.4740173203473
 20
369.1125042657904
 30
0.0
 10
420.5436836328737
 20
369.1269768635038
 30
0.0
 10
420.7818743787429
 20
369.1600910354232
 30
0.0
 10
421.5961028725728
 20
369.21788909122
 30
0.0
 10
423.3792282082904
 20
369.2914179720464
 30
0.0
 10
426.6387719993752
 20
369.3878915818032
 30
0.0
 10
429.3003920373992
 20
369.4517158794807
 30
0.0
 10
430.9502496221657
 20
369.4918613355076
 30
0.0
  0
LINE
  5
185
330
1F
100
AcDbEntity
  8
Make2D$___$___
100
AcDbLine
 10
358.2434444645805
 20
386.3670987963046
 30
0.0
 11
416.3873622734295
 21
386.3670987962885
 31
0.0
  0
LINE
  5
186
330
1F
100
AcDbEntity
  8
Make2D$___$___
100
AcDbLine
 10
407.9425534178221
 20
442.3670987962942
 30
0.0
 11
407.9379188757705
 21
442.3670987962942
 31
0.0
  0
LINE
  5
187
330
1F
100
AcDbEntity
  8
Make2D$___$___
100
AcDbLine
 10
408.1714051127151
 20
442.3670987962942
 30
0.0
 11
407.9640605413414
 21
442.3670987962942
 31
0.0
  0
LINE
  5
188
330
1F
100
AcDbEntity
  8
Make2D$___$___
100
AcDbLine
 10
408.2536729866712
 20
442.3670987962942
 30
0.0
 11
408.2373556745113
 21
442.3670987962942
 31
0.0
  0
LINE
  5
189
330
1F
100
AcDbEntity
  8
Make2D$___$___
100
AcDbLine
 10
408.3489684374279
 20
442.3670987962943
 30
0.0
 11
408.3298461967829
 21
442.3670987962942
 31
0.0
  0
LINE
  5
18A
330
1F
100
AcDbEntity
  8
Make2D$___$___
100
AcDbLine
 10
411.4508166121608
 20
442.3670987962942
 30
0.0
 11
411.2801421634545
 21
442.3670987962944
 31
0.0
  0
LINE
  5
18B
330
1F
100
AcDbEntity
  8
Make2D$___$___
100
AcDbLine
 10
411.746830319777
 20
442.3670987962944
 30
0.0
 11
411.5673632020997
 21
442.3670987962944
 31
0.0
  0
LINE
  5
18C
330
1F
100
AcDbEntity
  8
Make2D$___$___
100
AcDbLine
 10
412.10049134091
 20
442.3670987962943
 30
0.0
 11
411.8902183730413
 21
442.3670987962943
 31
0.0
  0
LINE
  5
18D
330
1F
100
AcDbEntity
  8
Make2D$___$___
100
AcDbLine
 10
412.9369574146197
 20
442.3670987962942
 30
0.0
 11
412.1208678830376
 21
442.3670987962943
 31
0.0
  0
LINE
  5
18E
330
1F
100
AcDbEntity
  8
Make2D$___$___
100
AcDbLine
 10
413.9167494634202
 20
442.3670987962943
 30
0.0
 11
413.8893422112125
 21
442.3670987962943
 31
0.0
  0
LINE
  5
18F
330
1F
100
AcDbEntity
  8
Make2D$___$___
100
AcDbLine
 10
414.3207764857586
 20
442.3670987962944
 30
0.0
 11
414.0948909686242
 21
442.3670987962944
 31
0.0
  0
LINE
  5
190
330
1F
100
AcDbEntity
  8
Make2D$___$___
100
AcDbLine
 10
414.7359666287654
 20
442.3670987962943
 30
0.0
 11
414.7021655054036
 21
442.3670987962943
 31
0.0
  0
LINE
  5
191
330
1F
100
AcDbEntity
  8
Make2D$___$___
100
AcDbLine
 10
415.1619123288183
 20
442.3670987962943
 30
0.0
 11
414.9239926501813
 21
442.3670987962943
 31
0.0
  0
LINE
  5
192
330
1F
100
AcDbEntity
  8
Make2D$___$___
100
AcDbLine
 10
416.044334618735
 20
442.3670987962943
 30
0.0
 11
415.9439606948818
 21
442.3670987962943
 31
0.0
  0
LINE
  5
193
330
1F
100
AcDbEntity
  8
Make2D$___$___
100
AcDbLine
 10
417.4372951054967
 20
442.3670987962944
 30
0.0
 11
417.3510512310054
 21
442.3670987962943
 31
0.0
  0
LINE
  5
194
330
1F
100
AcDbEntity
  8
Make2D$___$___
100
AcDbLine
 10
417.918123070263
 20
442.3670987962943
 30
0.0
 11
417.648096608312
 21
442.3670987962944
 31
0.0
  0
LINE
  5
195
330
1F
100
AcDbEntity
  8
Make2D$___$___
100
AcDbLine
 10
419.4028052931461
 20
442.3670987962943
 30
0.0
 11
419.308591009213
 21
442.3670987962944
 31
0.0
  0
LINE
  5
196
330
1F
100
AcDbEntity
  8
Make2D$___$___
100
AcDbLine
 10
419.9099616865408
 20
442.3670987962943
 30
0.0
 11
419.6222134670541
 21
442.3670987962943
 31
0.0
  0
LINE
  5
197
330
1F
100
AcDbEntity
  8
Make2D$___$___
100
AcDbLine
 10
421.4785806831088
 20
442.3670987962943
 30
0.0
 11
421.43781628245
 21
442.3670987962942
 31
0.0
  0
LINE
  5
198
330
1F
100
AcDbEntity
  8
Make2D$___$___
100
AcDbLine
 10
422.0017616178365
 20
442.3670987962943
 30
0.0
 11
421.879183416256
 21
442.3670987962942
 31
0.0
  0
LINE
  5
199
330
1F
100
AcDbEntity
  8
Make2D$___$___
100
AcDbLine
 10
422.5279826974289
 20
442.3670987962943
 30
0.0
 11
422.3246055635097
 21
442.3670987962942
 31
0.0
  0
LINE
  5
19A
330
1F
100
AcDbEntity
  8
Make2D$___$___
100
AcDbLine
 10
423.0567051861086
 20
442.3670987962943
 30
0.0
 11
423.0430499862315
 21
442.3670987962943
 31
0.0
  0
LINE
  5
19B
330
1F
100
AcDbEntity
  8
Make2D$___$___
100
AcDbLine
 10
423.5873954783939
 20
442.3670987962943
 30
0.0
 11
423.5751237896669
 21
442.3670987962943
 31
0.0
  0
LINE
  5
19C
330
1F
100
AcDbEntity
  8
Make2D$___$___
100
AcDbLine
 10
424.1195276009149
 20
442.3670987962943
 30
0.0
 11
424.1085856002702
 21
442.3670987962943
 31
0.0
  0
LINE
  5
19D
330
1F
100
AcDbEntity
  8
Make2D$___$___
100
AcDbLine
 10
424.6525843896785
 20
442.3670987962942
 30
0.0
 11
424.5957145906368
 21
442.3670987962942
 31
0.0
  0
LINE
  5
19E
330
1F
100
AcDbEntity
  8
Make2D$___$___
100
AcDbLine
 10
425.1860588321916
 20
442.3670987962942
 30
0.0
 11
425.0554202166171
 21
442.3670987962943
 31
0.0
  0
LINE
  5
19F
330
1F
100
AcDbEntity
  8
Make2D$___$___
100
AcDbLine
 10
433.3457612098139
 20
442.3670987962942
 30
0.0
 11
430.9502516104852
 21
442.3670987962942
 31
0.0
  0
LINE
  5
1A0
330
1F
100
AcDbEntity
  8
Make2D$___$___
100
AcDbLine
 10
433.8612357956563
 20
442.3670987962942
 30
0.0
 11
433.630235595069
 21
442.3670987962941
 31
0.0
  0
LINE
  5
1A1
330
1F
100
AcDbEntity
  8
Make2D$___$___
100
AcDbLine
 10
434.387061875389
 20
442.3670987962942
 30
0.0
 11
434.0862577970009
 21
442.3670987962942
 31
0.0
  0
LINE
  5
1A2
330
1F
100
AcDbEntity
  8
Make2D$___$___
100
AcDbLine
 10
434.9151301443139
 20
442.3670987962942
 30
0.0
 11
434.5904076749682
 21
442.3670987962942
 31
0.0
  0
LINE
  5
1A3
330
1F
100
AcDbEntity
  8
Make2D$___$___
100
AcDbLine
 10
435.9762658719866
 20
442.3670987962942
 30
0.0
 11
435.65445964568
 21
442.3670987962942
 31
0.0
  0
LINE
  5
1A4
330
1F
100
AcDbEntity
  8
Make2D$___$___
100
AcDbLine
 10
436.5084294773482
 20
442.3670987962943
 30
0.0
 11
436.188367790594
 21
442.3670987962943
 31
0.0
  0
LINE
  5
1A5
330
1F
100
AcDbEntity
  8
Make2D$___$___
100
AcDbLine
 10
437.0410291671877
 20
442.3670987962942
 30
0.0
 11
436.8450829996564
 21
442.3670987962943
 31
0.0
  0
LINE
  5
1A6
330
1F
100
AcDbEntity
  8
Make2D$___$___
100
AcDbLine
 10
437.5735766397631
 20
442.3670987962942
 30
0.0
 11
437.3047886317751
 21
442.3670987962942
 31
0.0
  0
LINE
  5
1A7
330
1F
100
AcDbEntity
  8
Make2D$___$___
100
AcDbLine
 10
438.1325049484266
 20
442.3670987962941
 30
0.0
 11
437.7919176581126
 21
442.3670987962942
 31
0.0
  0
LINE
  5
1A8
330
1F
100
AcDbEntity
  8
Make2D$___$___
100
AcDbLine
 10
438.6656043141154
 20
442.3670987962941
 30
0.0
 11
438.3253795434215
 21
442.3670987962942
 31
0.0
  0
LINE
  5
1A9
330
1F
100
AcDbEntity
  8
Make2D$___$___
100
AcDbLine
 10
439.1970967579967
 20
442.3670987962942
 30
0.0
 11
438.8574532119542
 21
442.3670987962942
 31
0.0
  0
LINE
  5
1AA
330
1F
100
AcDbEntity
  8
Make2D$___$___
100
AcDbLine
 10
439.7264428344282
 20
442.3670987962942
 30
0.0
 11
439.3876079031599
 21
442.3670987962942
 31
0.0
  0
LINE
  5
1AB
330
1F
100
AcDbEntity
  8
Make2D$___$___
100
AcDbLine
 10
440.2530954108548
 20
442.3670987962942
 30
0.0
 11
440.0213198237669
 21
442.3670987962942
 31
0.0
  0
LINE
  5
1AC
330
1F
100
AcDbEntity
  8
Make2D$___$___
100
AcDbLine
 10
440.7765012372204
 20
442.3670987962941
 30
0.0
 11
440.4626869196601
 21
442.3670987962941
 31
0.0
  0
LINE
  5
1AD
330
1F
100
AcDbEntity
  8
Make2D$___$___
100
AcDbLine
 10
441.29610259438
 20
442.3670987962942
 30
0.0
 11
440.9611370605184
 21
442.3670987962942
 31
0.0
  0
LINE
  5
1AE
330
1F
100
AcDbEntity
  8
Make2D$___$___
100
AcDbLine
 10
441.8113390129875
 20
442.3670987962942
 30
0.0
 11
441.4781698960203
 21
442.3670987962943
 31
0.0
  0
LINE
  5
1AF
330
1F
100
AcDbEntity
  8
Make2D$___$___
100
AcDbLine
 10
442.321648812389
 20
442.3670987962941
 30
0.0
 11
441.9905415384677
 21
442.367098796294
 31
0.0
  0
LINE
  5
1B0
330
1F
100
AcDbEntity
  8
Make2D$___$___
100
AcDbLine
 10
442.826471897659
 20
442.3670987962942
 30
0.0
 11
442.5919122250656
 21
442.3670987962942
 31
0.0
  0
LINE
  5
1B1
330
1F
100
AcDbEntity
  8
Make2D$___$___
100
AcDbLine
 10
443.3252501386831
 20
442.3670987962941
 30
0.0
 11
442.9989427981507
 21
442.3670987962941
 31
0.0
  0
LINE
  5
1B2
330
1F
100
AcDbEntity
  8
Make2D$___$___
100
AcDbLine
 10
443.8174303017129
 20
442.3670987962942
 30
0.0
 11
443.4941619378159
 21
442.3670987962942
 31
0.0
  0
LINE
  5
1B3
330
1F
100
AcDbEntity
  8
Make2D$___$___
100
AcDbLine
 10
444.3024657328113
 20
442.3670987962941
 30
0.0
 11
443.9823801696517
 21
442.3670987962942
 31
0.0
  0
LINE
  5
1B4
330
1F
100
AcDbEntity
  8
Make2D$___$___
100
AcDbLine
 10
444.7798181976482
 20
442.3670987962941
 30
0.0
 11
444.5494520366334
 21
442.3670987962942
 31
0.0
  0
LINE
  5
1B5
330
1F
100
AcDbEntity
  8
Make2D$___$___
100
AcDbLine
 10
445.2489598158547
 20
442.3670987962942
 30
0.0
 11
444.9361217119505
 21
442.3670987962942
 31
0.0
  0
LINE
  5
1B6
330
1F
100
AcDbEntity
  8
Make2D$___$___
100
AcDbLine
 10
445.7093749377009
 20
442.3670987962941
 30
0.0
 11
445.4006082950419
 21
442.3670987962942
 31
0.0
  0
LINE
  5
1B7
330
1F
100
AcDbEntity
  8
Make2D$___$___
100
AcDbLine
 10
446.1605619819936
 20
442.367098796294
 30
0.0
 11
445.9565424083301
 21
442.3670987962942
 31
0.0
  0
LINE
  5
1B8
330
1F
100
AcDbEntity
  8
Make2D$___$___
100
AcDbLine
 10
447.033326504667
 20
442.3670987962941
 30
0.0
 11
446.283227113702
 21
442.3670987962941
 31
0.0
  0
LINE
  5
1B9
330
1F
100
AcDbEntity
  8
Make2D$___$___
100
AcDbLine
 10
447.4539868953437
 20
442.367098796294
 30
0.0
 11
447.1983376404642
 21
442.3670987962942
 31
0.0
  0
LINE
  5
1BA
330
1F
100
AcDbEntity
  8
Make2D$___$___
100
AcDbLine
 10
447.8554368970335
 20
442.3670987962942
 30
0.0
 11
447.5797266448834
 21
442.3670987962942
 31
0.0
  0
LINE
  5
1BB
330
1F
100
AcDbEntity
  8
Make2D$___$___
100
AcDbLine
 10
448.2458873876826
 20
442.3670987962942
 30
0.0
 11
448.0111609869974
 21
442.3670987962942
 31
0.0
  0
LINE
  5
1BC
330
1F
100
AcDbEntity
  8
Make2D$___$___
100
AcDbLine
 10
448.6249779676022
 20
442.3670987962942
 30
0.0
 11
448.4349911923808
 21
442.3670987962942
 31
0.0
  0
LINE
  5
1BD
330
1F
100
AcDbEntity
  8
Make2D$___$___
100
AcDbLine
 10
448.9923710341971
 20
442.3670987962942
 30
0.0
 11
448.7568030172321
 21
442.3670987962942
 31
0.0
  0
LINE
  5
1BE
330
1F
100
AcDbEntity
  8
Make2D$___$___
100
AcDbLine
 10
449.3477527724309
 20
442.3670987962942
 30
0.0
 11
449.1269830797036
 21
442.3670987962942
 31
0.0
  0
LINE
  5
1BF
330
1F
100
AcDbEntity
  8
Make2D$___$___
100
AcDbLine
 10
449.6908340254541
 20
442.3670987962943
 30
0.0
 11
449.4879165131728
 21
442.3670987962943
 31
0.0
  0
LINE
  5
1C0
330
1F
100
AcDbEntity
  8
Make2D$___$___
100
AcDbLine
 10
450.0213510404969
 20
442.3670987962941
 30
0.0
 11
449.8238327347713
 21
442.3670987962941
 31
0.0
  0
LINE
  5
1C1
330
1F
100
AcDbEntity
  8
Make2D$___$___
100
AcDbLine
 10
450.6953860265618
 20
442.3670987962941
 30
0.0
 11
450.0637464792559
 21
442.3670987962942
 31
0.0
  0
LINE
  5
1C2
330
1F
100
AcDbEntity
  8
Make2D$___$___
100
AcDbLine
 10
453.7856178695628
 20
442.3670987962941
 30
0.0
 11
453.773606250279
 21
442.3670987962942
 31
0.0
  0
LINE
  5
1C3
330
1F
100
AcDbEntity
  8
Make2D$___$___
100
AcDbLine
 10
453.8452973629534
 20
442.3670987962942
 30
0.0
 11
453.8355311751845
 21
442.3670987962942
 31
0.0
  0
LINE
  5
1C4
330
1F
100
AcDbEntity
  8
Make2D$___$___
100
AcDbLine
 10
453.8924891140402
 20
442.3670987962942
 30
0.0
 11
453.8849286286552
 21
442.3670987962942
 31
0.0
  0
LINE
  5
1C5
330
1F
100
AcDbEntity
  8
Make2D$___$___
100
AcDbLine
 10
453.9605967686556
 20
442.3670987962942
 30
0.0
 11
453.9220563430009
 21
442.3670987962942
 31
0.0
  0
LINE
  5
1C6
330
1F
100
AcDbEntity
  8
Make2D$___$___
100
AcDbLine
 10
457.8700393892902
 20
412.3670988234521
 30
0.0
 11
459.7731700027563
 21
412.3670987962942
 31
0.0
  0
SPLINE
  5
1C7
330
1F
100
AcDbEntity
  8
Make2D$___$___
100
AcDbSpline
210
0.0
220
0.0
230
1.0
 70
     8
 71
     3
 72
    12
 73
     8
 74
     0
 42
0.000000001
 43
0.0000000001
 12
1.0
 22
0.0
 32
0.0
 13
1.0
 23
0.0
 33
0.0
 40
0.0
 40
0.0
 40
0.0
 40
0.0
 40
0.433052556794693
 40
0.9014355954805275
 40
1.884156551777254
 40
5.268324573378033
 40
6.201816875839602
 40
6.201816875839602
 40
6.201816875839602
 40
6.201816875839602
 10
451.6741688227565
 20
412.2643549927707
 30
0.0
 10
451.8177440066573
 20
412.2499255304373
 30
0.0
 10
452.1173387937324
 20
412.2246793803498
 30
0.0
 10
452.7446025077266
 20
412.194740828437
 30
0.0
 10
454.3572537420023
 20
412.1924816436309
 30
0.0
 10
456.1203329008374
 20
412.3253869124223
 30
0.0
 10
457.5586847984217
 20
412.3699036657266
 30
0.0
 10
457.8700393892903
 20
412.3670988234522
 30
0.0
  0
LINE
  5
1C8
330
1F
100
AcDbEntity
  8
Make2D$___$___
100
AcDbLine
 10
459.7731700027563
 20
412.3670987962942
 30
0.0
 11
509.6368096656154
 21
412.3670987962778
 31
0.0
  0
LINE
  5
1C9
330
1F
100
AcDbEntity
  8
Make2D$___$___
100
AcDbLine
 10
509.6368096656154
 20
412.3670987962778
 30
0.0
 11
517.923716860748
 21
412.3670987962819
 31
0.0
  0
ARC
  5
1CA
330
1F
100
AcDbEntity
  8
Make2D$___$___
100
AcDbCircle
 10
517.9237228709519
 20
411.3670987733449
 30
0.0
 40
1.000000022955063
100
AcDbArc
 50
358.4999930368439
 51
90.00034435931227
  0
LINE
  5
1CB
330
1F
100
AcDbEntity
  8
Make2D$___$___
100
AcDbLine
 10
518.6519244697034
 20
400.9744449978343
 30
0.0
 11
518.9233802087945
 21
411.3409214395006
 31
0.0
  0
LINE
  5
1CC
330
1F
100
AcDbEntity
  8
Make2D$___$___
100
AcDbLine
 10
503.6570639620787
 20
386.3670987962923
 30
0.0
 11
445.5131409436944
 21
386.3670987962946
 31
0.0
  0
ARC
  5
1CD
330
1F
100
AcDbEntity
  8
Make2D$___$___
100
AcDbCircle
 10
441.0031946195204
 20
407.9381111921923
 30
0.0
 40
5.253006261147448
100
AcDbArc
 50
292.2141035673868
 51
301.6948637070656
  0
ARC
  5
1CE
330
1F
100
AcDbEntity
  8
Make2D$___$___
100
AcDbCircle
 10
431.9616749956073
 20
408.7532090860257
 30
0.0
 40
14.15717247891261
100
AcDbArc
 50
314.5890579213481
 51
317.3278031516454
  0
SPLINE
  5
1CF
330
1F
100
AcDbEntity
  8
Make2D$___$___
100
AcDbSpline
210
0.0
220
0.0
230
1.0
 70
     8
 71
     3
 72
    18
 73
    14
 74
     0
 42
0.000000001
 43
0.0000000001
 12
1.0
 22
0.0
 32
0.0
 13
1.0
 23
0.0
 33
0.0
 40
0.0
 40
0.0
 40
0.0
 40
0.0
 40
0.4522990052759921
 40
0.7525135030967607
 40
0.9761062241530605
 40
1.144561929866812
 40
1.276770142400396
 40
1.439074271103592
 40
1.670674017366636
 40
1.97996275413819
 40
2.854537807256528
 40
3.823772370279138
 40
5.939058148602269
 40
5.939058148602269
 40
5.939058148602269
 40
5.939058148602269
 10
443.7630998287304
 20
403.4685476770569
 30
0.0
 10
443.8910470592925
 20
403.5494273072332
 30
0.0
 10
444.1033698015526
 20
403.6797437726856
 30
0.0
 10
444.391001580967
 20
403.8373674124592
 30
0.0
 10
444.6030393781506
 20
403.9216420176173
 30
0.0
 10
444.7822911407535
 20
403.9536586714871
 30
0.0
 10
444.92339702629
 20
403.8653515589972
 30
0.0
 10
444.957721840372
 20
403.6836144702477
 30
0.0
 10
444.9403338900324
 20
403.4518528981881
 30
0.0
 10
444.8280951099487
 20
402.9910245631027
 30
0.0
 10
444.5579656202971
 20
402.3250499663968
 30
0.0
 10
443.9427758956629
 20
401.1558136659875
 30
0.0
 10
443.348264355981
 20
400.3126395624445
 30
0.0
 10
442.9012395084441
 20
399.7675385924683
 30
0.0
  0
SPLINE
  5
1D0
330
1F
100
AcDbEntity
  8
Make2D$___$___
100
AcDbSpline
210
0.0
220
0.0
230
1.0
 70
     8
 71
     3
 72
    18
 73
    14
 74
     0
 42
0.000000001
 43
0.0000000001
 12
1.0
 22
0.0
 32
0.0
 13
1.0
 23
0.0
 33
0.0
 40
0.0
 40
0.0
 40
0.0
 40
0.0
 40
1.403129858589636
 40
2.743290482064145
 40
3.876230847811389
 40
4.304350607408109
 40
4.55771885095163
 40
4.659239381501175
 40
4.746833313224857
 40
4.841656307697795
 40
4.960493992791164
 40
5.336435514294667
 40
5.927658812518381
 40
5.927658812518381
 40
5.927658812518381
 40
5.927658812518381
 10
418.9994451713602
 20
399.7676875456187
 30
0.0
 10
418.7031052299071
 20
400.1292941082912
 30
0.0
 10
418.1567954210411
 20
400.8647797528716
 30
0.0
 10
417.5024705224982
 20
401.9803486311532
 30
0.0
 10
417.1092657158894
 20
402.867073681675
 30
0.0
 10
416.9550509099882
 20
403.4535860067834
 30
0.0
 10
416.9431958456892
 20
403.717119724274
 30
0.0
 10
416.9917059936892
 20
403.8597135164434
 30
0.0
 10
417.0666685872096
 20
403.9238929760214
 30
0.0
 10
417.1680656273036
 20
403.9428083766044
 30
0.0
 10
417.3626983831735
 20
403.9053324682325
 30
0.0
 10
417.6907131452455
 20
403.7474615806803
 30
0.0
 10
417.9649437476194
 20
403.5792511420017
 30
0.0
 10
418.1318165226321
 20
403.4739035954758
 30
0.0
  0
ARC
  5
1D1
330
1F
100
AcDbEntity
  8
Make2D$___$___
100
AcDbCircle
 10
429.9372238143553
 20
408.7509280557609
 30
0.0
 40
14.15424528053883
100
AcDbArc
 50
222.6723312883045
 51
225.4083811629065
  0
LINE
  5
1D2
330
1F
100
AcDbEntity
  8
Make2D$___$___
100
AcDbLine
 10
418.1318165226321
 20
403.4739035954758
 30
0.0
 11
418.3710476923233
 21
403.200538123976
 31
0.0
  0
ARC
  5
1D3
330
1F
100
AcDbEntity
  8
Make2D$___$___
100
AcDbCircle
 10
420.9821125732223
 20
408.0762989722666
 30
0.0
 40
5.413065720071601
100
AcDbArc
 50
239.1723512270705
 51
247.5126808759637
  0
ARC
  5
1D4
330
1F
100
AcDbEntity
  8
Make2D$___$___
100
AcDbCircle
 10
430.9495120126402
 20
321.5569892273655
 30
0.0
 40
80.37244088098348
100
AcDbArc
 50
89.01962975772686
 51
89.99960104001923
  0
ARC
  5
1D5
330
1F
100
AcDbEntity
  8
Make2D$___$___
100
AcDbCircle
 10
430.9481970282424
 20
321.6690418941054
 30
0.0
 40
80.26038823418794
100
AcDbArc
 50
89.99866175026115
 51
90.97898012310475
  0
SPLINE
  5
1D6
330
1F
100
AcDbEntity
  8
Make2D$___$___
100
AcDbSpline
210
0.0
220
0.0
230
1.0
 70
     8
 71
     3
 72
    10
 73
     6
 74
     0
 42
0.000000001
 43
0.0000000001
 12
1.0
 22
0.0
 32
0.0
 13
1.0
 23
0.0
 33
0.0
 40
0.0
 40
0.0
 40
0.0
 40
0.0
 40
0.4999988280647004
 40
0.4999988280647004
 40
0.9999976561294008
 40
0.9999976561294008
 40
0.9999976561294008
 40
0.9999976561294008
 10
418.9117288956495
 20
403.0748199992572
 30
0.0
 10
419.9972410493858
 20
402.6251239657349
 30
0.0
 10
421.5084540284973
 20
402.3210711076285
 30
0.0
 10
425.2024055794558
 20
401.9504814799629
 30
0.0
 10
427.3204184314399
 20
401.8788943479512
 30
0.0
 10
429.5769005334008
 20
401.9177145649091
 30
0.0
  0
SPLINE
  5
1D7
330
1F
100
AcDbEntity
  8
Make2D$___$___
100
AcDbSpline
210
0.0
220
0.0
230
1.0
 70
     8
 71
     3
 72
    12
 73
     8
 74
     0
 42
0.000000001
 43
0.0000000001
 12
1.0
 22
0.0
 32
0.0
 13
1.0
 23
0.0
 33
0.0
 40
0.0
 40
0.0
 40
0.0
 40
0.0
 40
0.4999426092328694
 40
0.4999426092328694
 40
0.7499516128194433
 40
0.7499516128194433
 40
1.0
 40
1.0
 40
1.0
 40
1.0
 10
432.3246727173249
 20
401.9176648479915
 30
0.0
 10
434.4136613317323
 20
401.8822086374771
 30
0.0
 10
436.5267725627768
 20
401.9395875406408
 30
0.0
 10
439.3287657017348
 20
402.2131868692536
 30
0.0
 10
440.1996152233758
 20
402.3333679836805
 30
0.0
 10
441.7513494055934
 20
402.6501660288559
 30
0.0
 10
442.4303756692892
 20
402.8420167432423
 30
0.0
 10
442.9891917723039
 20
403.074995926358
 30
0.0
  0
ARC
  5
1D8
330
1F
100
AcDbEntity
  8
Make2D$___$___
100
AcDbCircle
 10
343.9767804305458
 20
411.3670986911567
 30
0.0
 40
1.000000105138051
100
AcDbArc
 50
89.99991493637708
 51
181.4999957389925
  0
LINE
  5
1D9
330
1F
100
AcDbEntity
  8
Make2D$___$___
100
AcDbLine
 10
343.9767819151863
 20
412.3670987962937
 30
0.0
 11
352.2636934883707
 21
412.3670987962792
 31
0.0
  0
LINE
  5
1DA
330
1F
100
AcDbEntity
  8
Make2D$___$___
100
AcDbLine
 10
352.2636934883707
 20
412.3670987962792
 30
0.0
 11
402.1273311967651
 21
412.3670987962951
 31
0.0
  0
LINE
  5
1DB
330
1F
100
AcDbEntity
  8
Make2D$___$___
100
AcDbLine
 10
402.1273311967651
 20
412.3670987962951
 30
0.0
 11
404.0304368277097
 21
412.3670988265517
 31
0.0
  0
LINE
  5
1DC
330
1F
100
AcDbEntity
  8
Make2D$___$___
100
AcDbLine
 10
430.9502516085579
 20
385.1670987962943
 30
0.0
 11
444.9684443592906
 21
385.1670987962943
 31
0.0
  0
SPLINE
  5
1DD
330
1F
100
AcDbEntity
  8
Make2D$___$___
100
AcDbSpline
210
0.0
220
0.0
230
1.0
 70
    28
 71
     2
 72
     8
 73
     5
 74
     0
 42
0.000000001
 43
0.0000000001
 12
1.0
 22
0.0
 32
0.0
 13
1.0
 23
0.0
 33
0.0
 40
21.5163251768468
 40
21.5163251768468
 40
21.5163251768468
 40
22.1995414872875
 40
22.1995414872875
 40
44.06246342138972
 40
44.06246342138972
 40
44.06246342138972
 10
416.9320589171391
 20
385.1670987962943
 30
0.0
 41
0.9825223427594799
 10
416.9220134246941
 20
385.1670987962943
 30
0.0
 41
0.9909792736823122
 10
416.9257437598418
 20
385.1670987962943
 30
0.0
 41
1.0
 10
417.0920418075435
 20
385.1670987962943
 30
0.0
 41
0.7113367578339901
 10
430.9502516085579
 20
385.1670987962943
 30
0.0
 41
1.0
  0
ARC
  5
1DE
330
1F
100
AcDbEntity
  8
Make2D$___$___
100
AcDbCircle
 10
503.6570697007561
 20
401.3670935437037
 30
0.0
 40
14.99999474741228
100
AcDbArc
 50
269.9999780798594
 51
358.5000211732865
  0
ARC
  5
1DF
330
1F
100
AcDbEntity
  8
Make2D$___$___
100
AcDbCircle
 10
421.3584759410042
 20
405.5118108931401
 30
0.0
 40
3.777129777290722
100
AcDbArc
 50
213.4825858265417
 51
217.7279150169728
  0
SPLINE
  5
1E0
330
1F
100
AcDbEntity
  8
Make2D$___$___
100
AcDbSpline
210
0.0
220
0.0
230
1.0
 70
    28
 71
     2
 72
     8
 73
     5
 74
     0
 42
0.000000001
 43
0.0000000001
 12
1.0
 22
0.0
 32
0.0
 13
1.0
 23
0.0
 33
0.0
 40
0.0010976028990345
 40
0.0010976028990345
 40
0.0010976028990345
 40
0.0454072586711714
 40
0.0454072586711714
 40
14.15987057048966
 40
14.15987057048966
 40
14.15987057048966
 10
430.950797112937
 20
439.8670987962942
 30
0.0
 41
0.9999998498938858
 10
430.9728189065178
 20
439.8670987962946
 30
0.0
 41
0.9999968950942288
 10
430.9948404282493
 20
439.8670987962942
 30
0.0
 41
1.0
 10
439.9720548681619
 20
439.8670987962944
 30
0.0
 41
0.7079981012708446
 10
439.9500886230566
 20
439.8670987962942
 30
0.0
 41
1.0
  0
LINE
  5
1E1
330
1F
100
AcDbEntity
  8
Make2D$___$___
100
AcDbLine
 10
421.9504145940592
 20
439.8670987962942
 30
0.0
 11
430.9497061041787
 21
439.8670987962942
 31
0.0
  0
SPLINE
  5
1E2
330
1F
100
AcDbEntity
  8
Make2D$___$___
100
AcDbSpline
210
0.0
220
0.0
230
1.0
 70
    12
 71
     2
 72
     8
 73
     5
 74
     0
 42
0.000000001
 43
0.0000000001
 12
1.0
 22
0.0
 32
0.0
 13
1.0
 23
0.0
 33
0.0
 40
0.0
 40
0.0
 40
0.0
 40
15.70796326920109
 40
15.70796326920109
 40
31.41592653715001
 40
31.41592653715001
 40
31.41592653715001
 10
420.9502516085582
 20
396.0260797294268
 30
0.0
 41
1.0
 10
420.9502516085582
 20
394.289597952758
 30
0.0
 41
0.7071067811865482
 10
430.9502516085581
 20
394.2895979527575
 30
0.0
 41
1.0
 10
440.9502516085576
 20
394.2895979527574
 30
0.0
 41
0.707106781186548
 10
440.9502516085576
 20
396.0260797294268
 30
0.0
 41
1.0
  0
ARC
  5
1E3
330
1F
100
AcDbEntity
  8
Make2D$___$___
100
AcDbCircle
 10
440.5864409040028
 20
396.0168116458288
 30
0.0
 40
0.3639287376976473
100
AcDbArc
 50
1.459295284115562
 51
37.20133797085865
  0
ARC
  5
1E4
330
1F
100
AcDbEntity
  8
Make2D$___$___
100
AcDbCircle
 10
421.3140623131083
 20
396.0168116458297
 30
0.0
 40
0.3639287376929515
100
AcDbArc
 50
142.798662028924
 51
178.5407047160805
  0
SPLINE
  5
1E5
330
1F
100
AcDbEntity
  8
Make2D$___$___
100
AcDbSpline
210
0.0
220
0.0
230
1.0
 70
    12
 71
     2
 72
     6
 73
     3
 74
     0
 42
0.000000001
 43
0.0000000001
 12
1.0
 22
0.0
 32
0.0
 13
1.0
 23
0.0
 33
0.0
 40
0.0
 40
0.0
 40
0.0
 40
4.923512766183032
 40
4.923512766183032
 40
4.923512766183032
 10
441.9002516085579
 20
400.5993242157692
 30
0.0
 41
1.0
 10
442.9002516085579
 20
400.2019802628167
 30
0.0
 41
0.9788559627523853
 10
442.9002516085579
 20
399.7683491908729
 30
0.0
 41
1.0
  0
SPLINE
  5
1E6
330
1F
100
AcDbEntity
  8
Make2D$___$___
100
AcDbSpline
210
0.0
220
0.0
230
1.0
 70
    12
 71
     2
 72
     8
 73
     5
 74
     0
 42
0.000000001
 43
0.0000000001
 12
1.0
 22
0.0
 32
0.0
 13
1.0
 23
0.0
 33
0.0
 40
-13.847503339016
 40
-13.847503339016
 40
-13.847503339016
 40
0.0
 40
0.0
 40
13.84750333901692
 40
13.84750333901692
 40
13.84750333901692
 10
441.900251608558
 20
397.6449009567309
 30
0.0
 41
1.0
 10
438.7691590400698
 20
398.8890216549545
 30
0.0
 41
0.836794902602186
 10
430.9502516085579
 20
398.8890216549544
 30
0.0
 41
1.0
 10
423.1313441770455
 20
398.8890216549538
 30
0.0
 41
0.8367949026021704
 10
420.0002516085577
 20
397.6449009567309
 30
0.0
 41
1.0
  0
LINE
  5
1E7
330
1F
100
AcDbEntity
  8
Make2D$___$___
100
AcDbLine
 10
441.9002516085579
 20
397.6449009567309
 30
0.0
 11
441.9002516085579
 21
400.5993242157692
 31
0.0
  0
LINE
  5
1E8
330
1F
100
AcDbEntity
  8
Make2D$___$___
100
AcDbLine
 10
441.9002516085579
 20
395.8291181792092
 30
0.0
 11
441.9002516085579
 21
397.6449009567309
 31
0.0
  0
SPLINE
  5
1E9
330
1F
100
AcDbEntity
  8
Make2D$___$___
100
AcDbSpline
210
0.0
220
0.0
230
1.0
 70
    12
 71
     2
 72
     6
 73
     3
 74
     0
 42
0.000000001
 43
0.0000000001
 12
1.0
 22
0.0
 32
0.0
 13
1.0
 23
0.0
 33
0.0
 40
0.0
 40
0.0
 40
0.0
 40
4.923512766182999
 40
4.923512766182999
 40
4.923512766182999
 10
442.9002516085579
 20
399.7683491908729
 30
0.0
 41
1.0
 10
442.9002516085579
 20
399.3347181189296
 30
0.0
 41
0.9788559627523846
 10
441.9002516085579
 20
398.937374165977
 30
0.0
 41
1.0
  0
LINE
  5
1EA
330
1F
100
AcDbEntity
  8
Make2D$___$___
100
AcDbLine
 10
442.9002516085579
 20
403.0386662835608
 30
0.0
 11
442.9002516085579
 21
399.8214684898185
 31
0.0
  0
LINE
  5
1EB
330
1F
100
AcDbEntity
  8
Make2D$___$___
100
AcDbLine
 10
419.000251608558
 20
399.8214684898194
 30
0.0
 11
419.000251608558
 21
403.0388453685042
 31
0.0
  0
SPLINE
  5
1EC
330
1F
100
AcDbEntity
  8
Make2D$___$___
100
AcDbSpline
210
0.0
220
0.0
230
1.0
 70
    12
 71
     2
 72
     6
 73
     3
 74
     0
 42
0.000000001
 43
0.0000000001
 12
1.0
 22
0.0
 32
0.0
 13
1.0
 23
0.0
 33
0.0
 40
-4.923512766183015
 40
-4.923512766183015
 40
-4.923512766183015
 40
0.0
 40
0.0
 40
0.0
 10
419.000251608558
 20
399.7683491908733
 30
0.0
 41
1.0
 10
419.000251608558
 20
399.3347181189297
 30
0.0
 41
0.9788559627523853
 10
420.0002516085579
 20
398.937374165977
 30
0.0
 41
1.0
  0
SPLINE
  5
1ED
330
1F
100
AcDbEntity
  8
Make2D$___$___
100
AcDbSpline
210
0.0
220
0.0
230
1.0
 70
    12
 71
     2
 72
     6
 73
     3
 74
     0
 42
0.000000001
 43
0.0000000001
 12
1.0
 22
0.0
 32
0.0
 13
1.0
 23
0.0
 33
0.0
 40
-4.923512766183015
 40
-4.923512766183015
 40
-4.923512766183015
 40
0.0
 40
0.0
 40
0.0
 10
420.0002516085578
 20
400.5993242157692
 30
0.0
 41
1.0
 10
419.0002516085581
 20
400.2019802628171
 30
0.0
 41
0.9788559627523898
 10
419.000251608558
 20
399.7683491908733
 30
0.0
 41
1.0
  0
LINE
  5
1EE
330
1F
100
AcDbEntity
  8
Make2D$___$___
100
AcDbLine
 10
420.0002516085577
 20
397.6449009567309
 30
0.0
 11
420.0002516085579
 21
400.5993242157692
 31
0.0
  0
LINE
  5
1EF
330
1F
100
AcDbEntity
  8
Make2D$___$___
100
AcDbLine
 10
420.000251608558
 20
395.8291181784302
 30
0.0
 11
420.0002516085577
 21
397.6449009567309
 31
0.0
  0
SPLINE
  5
1F0
330
1F
100
AcDbEntity
  8
Make2D$___$___
100
AcDbSpline
210
0.0
220
0.0
230
1.0
 70
    24
 71
     3
 72
     9
 73
     5
 74
     0
 42
0.000000001
 43
0.0000000001
 12
1.0
 22
0.0
 32
0.0
 13
1.0
 23
0.0
 33
0.0
 40
0.5
 40
0.5
 40
0.5
 40
0.5
 40
0.6666666666667
 40
1.0
 40
1.0
 40
1.0
 40
1.0
 10
441.9002516085579
 20
395.6664901722652
 30
0.0
 10
441.9002516085579
 20
395.6576597870097
 30
0.0
 10
441.9002516085579
 20
395.6577751328025
 30
0.0
 10
441.9002516085579
 20
395.7384020153809
 30
0.0
 10
441.9002516085579
 20
395.8291181792092
 30
0.0
  0
LINE
  5
1F1
330
1F
100
AcDbEntity
  8
Make2D$___$___
100
AcDbLine
 10
420.000251608558
 20
395.8291181784302
 30
0.0
 11
420.0002516085579
 21
395.6665777417589
 31
0.0
  0
SPLINE
  5
1F2
330
1F
100
AcDbEntity
  8
Make2D$___$___
100
AcDbSpline
210
0.0
220
0.0
230
1.0
 70
    12
 71
     2
 72
     8
 73
     5
 74
     0
 42
0.000000001
 43
0.0000000001
 12
1.0
 22
0.0
 32
0.0
 13
1.0
 23
0.0
 33
0.0
 40
0.0
 40
0.0
 40
0.0
 40
16.02212253330794
 40
16.02212253330794
 40
32.04424506661584
 40
32.04424506661584
 40
32.04424506661584
 10
420.7502516085578
 20
395.829118178824
 30
0.0
 41
1.0
 10
420.7502516085579
 20
394.057906766621
 30
0.0
 41
0.7071067811865478
 10
430.9502516085582
 20
394.0579067666217
 30
0.0
 41
1.0
 10
441.1502516085579
 20
394.0579067666217
 30
0.0
 41
0.7071067811865501
 10
441.1502516085581
 20
395.829118178824
 30
0.0
 41
1.0
  0
SPLINE
  5
1F3
330
1F
100
AcDbEntity
  8
Make2D$___$___
100
AcDbSpline
210
0.0
220
0.0
230
1.0
 70
    12
 71
     2
 72
     8
 73
     5
 74
     0
 42
0.000000001
 43
0.0000000001
 12
1.0
 22
0.0
 32
0.0
 13
1.0
 23
0.0
 33
0.0
 40
0.0
 40
0.0
 40
0.0
 40
16.02212253330794
 40
16.02212253330794
 40
32.04424506661584
 40
32.04424506661584
 40
32.04424506661584
 10
441.150251608558
 20
395.829118178824
 30
0.0
 41
1.0
 10
441.1502516085581
 20
397.6003295910266
 30
0.0
 41
0.707106781186544
 10
430.9502516085583
 20
397.6003295910264
 30
0.0
 41
1.0
 10
420.7502516085577
 20
397.600329591026
 30
0.0
 41
0.707106781186545
 10
420.7502516085578
 20
395.829118178824
 30
0.0
 41
1.0
  0
SPLINE
  5
1F4
330
1F
100
AcDbEntity
  8
Make2D$___$___
100
AcDbSpline
210
0.0
220
0.0
230
1.0
 70
    12
 71
     2
 72
     8
 73
     5
 74
     0
 42
0.000000001
 43
0.0000000001
 12
1.0
 22
0.0
 32
0.0
 13
1.0
 23
0.0
 33
0.0
 40
0.0
 40
0.0
 40
0.0
 40
17.20021978292793
 40
17.20021978292793
 40
34.40043955688066
 40
34.40043955688066
 40
34.40043955688066
 10
420.000251608558
 20
395.8291181788231
 30
0.0
 41
1.0
 10
420.0002516085579
 20
397.7305657242688
 30
0.0
 41
0.707106781185962
 10
430.9502516085217
 20
397.7305657242664
 30
0.0
 41
1.0
 10
441.9002516063322
 20
397.7305657242652
 30
0.0
 41
0.7071067812584103
 10
441.9002516085579
 20
395.8291181788231
 30
0.0
 41
1.0
  0
SPLINE
  5
1F5
330
1F
100
AcDbEntity
  8
Make2D$___$___
100
AcDbSpline
210
0.0
220
0.0
230
1.0
 70
    12
 71
     2
 72
     8
 73
     5
 74
     0
 42
0.000000001
 43
0.0000000001
 12
1.0
 22
0.0
 32
0.0
 13
1.0
 23
0.0
 33
0.0
 40
0.0
 40
0.0
 40
0.0
 40
17.20021978285553
 40
17.20021978285553
 40
34.40043955673585
 40
34.40043955673585
 40
34.40043955673585
 10
441.9002516085579
 20
395.8291181788231
 30
0.0
 41
1.0
 10
441.9002516085579
 20
393.9276706333633
 30
0.0
 41
0.7071067811871322
 10
430.9502516085217
 20
393.9276706333612
 30
0.0
 41
1.0
 10
420.0002516108198
 20
393.9276706333598
 30
0.0
 41
0.7071067812595802
 10
420.000251608558
 20
395.8291181788231
 30
0.0
 41
1.0
  0
ARC
  5
1F6
330
1F
100
AcDbEntity
  8
Make2D$___$___
100
AcDbCircle
 10
430.9502512613194
 20
462.5670988994804
 30
0.0
 40
3.500000103186
100
AcDbArc
 50
198.1561820209976
 51
270.0000056843721
  0
ARC
  5
1F7
330
1F
100
AcDbEntity
  8
Make2D$___$___
100
AcDbCircle
 10
430.9502518525433
 20
462.567098598542
 30
0.0
 40
3.499999802247596
100
AcDbArc
 50
269.9999960059059
 51
341.843573886823
  0
ARC
  5
1F8
330
1F
100
AcDbEntity
  8
Make2D$___$___
100
AcDbCircle
 10
430.951642724592
 20
462.5681065297711
 30
0.0
 40
3.498992543068375
100
AcDbArc
 50
341.8207937534672
 51
90.02277973767455
  0
ARC
  5
1F9
330
1F
100
AcDbEntity
  8
Make2D$___$___
100
AcDbCircle
 10
430.9492830070288
 20
462.5678002058646
 30
0.0
 40
3.499298724479209
100
AcDbArc
 50
89.9841409001806
 51
198.1720332897009
  0
LINE
  5
1FA
330
1F
100
AcDbEntity
  8
Make2D$___$___
100
AcDbLine
 10
408.0696998680534
 20
445.3670987962951
 30
0.0
 11
408.038622879855
 21
445.3670987962951
 31
0.0
  0
LINE
  5
1FB
330
1F
100
AcDbEntity
  8
Make2D$___$___
100
AcDbLine
 10
453.8307979794641
 20
445.3670987962932
 30
0.0
 11
408.069699902447
 21
445.3670987962951
 31
0.0
  0
LINE
  5
1FC
330
1F
100
AcDbEntity
  8
Make2D$___$___
100
AcDbLine
 10
453.861872828368
 20
445.3670987962969
 30
0.0
 11
453.8307979794641
 21
445.3670987962932
 31
0.0
  0
LINE
  5
1FD
330
1F
100
AcDbEntity
  8
Make2D$___$___
100
AcDbLine
 10
453.8793502844176
 20
445.3670987962942
 30
0.0
 11
453.861872828368
 21
445.3670987962969
 31
0.0
  0
LINE
  5
1FE
330
1F
100
AcDbEntity
  8
Make2D$___$___
100
AcDbLine
 10
408.0386224286281
 20
445.3670987962951
 30
0.0
 11
408.0211529327259
 21
445.3670987962942
 31
0.0
  0
LINE
  5
1FF
330
1F
100
AcDbEntity
  8
Make2D$___$___
100
AcDbLine
 10
408.0211523638075
 20
445.3670987962942
 30
0.0
 11
407.956334703945
 21
445.3670987962946
 31
0.0
  0
LINE
  5
200
330
1F
100
AcDbEntity
  8
Make2D$___$___
100
AcDbLine
 10
453.9441677402957
 20
445.3670987962942
 30
0.0
 11
453.8793502844176
 21
445.3670987962942
 31
0.0
  0
ARC
  5
201
330
1F
100
AcDbEntity
  8
Make2D$___$___
100
AcDbCircle
 10
505.9502516085592
 20
399.1670987962922
 30
0.0
 40
14.35000000000247
100
AcDbArc
 50
66.90571507922776
 51
90.000000000005
  0
LINE
  5
202
330
1F
100
AcDbEntity
  8
Make2D$___$___
100
AcDbLine
 10
513.0267973760883
 20
413.5170987962947
 30
0.0
 11
506.4004636368543
 21
413.5170987962947
 31
0.0
  0
ARC
  5
203
330
1F
100
AcDbEntity
  8
Make2D$___$___
100
AcDbCircle
 10
505.9502516084245
 20
399.1670987965154
 30
0.0
 40
15.99999999974153
100
AcDbArc
 50
116.2497074278458
 51
123.7502925721011
  0
LINE
  5
204
330
1F
100
AcDbEntity
  8
Make2D$___$___
100
AcDbLine
 10
505.500039580272
 20
413.5170987962947
 30
0.0
 11
498.8737058410276
 21
413.5170987962947
 31
0.0
  0
ARC
  5
205
330
1F
100
AcDbEntity
  8
Make2D$___$___
100
AcDbCircle
 10
505.9502516085557
 20
399.1670987962951
 30
0.0
 40
14.34999999999955
100
AcDbArc
 50
89.99999999999116
 51
113.0942849207563
  0
LINE
  5
206
330
1F
100
AcDbEntity
  8
Make2D$___$___
100
AcDbLine
 10
497.0610599480198
 20
412.4705672020227
 30
0.0
 11
497.0013224367289
 21
412.3670987973491
 31
0.0
  0
ARC
  5
207
330
1F
100
AcDbEntity
  8
Make2D$___$___
100
AcDbCircle
 10
505.950251608478
 20
399.1670987961684
 30
0.0
 40
15.99999999985091
100
AcDbArc
 50
236.249707427929
 51
243.750292572134
  0
LINE
  5
208
330
1F
100
AcDbEntity
  8
Make2D$___$___
100
AcDbLine
 10
496.7703823284789
 20
386.3670987962328
 30
0.0
 11
497.0610599480194
 21
385.863630390566
 31
0.0
  0
LINE
  5
209
330
1F
100
AcDbEntity
  8
Make2D$___$___
100
AcDbLine
 10
498.8737058410276
 20
384.8170987962935
 30
0.0
 11
505.5000395802681
 21
384.8170987962935
 31
0.0
  0
LINE
  5
20A
330
1F
100
AcDbEntity
  8
Make2D$___$___
100
AcDbLine
 10
506.4004636367949
 20
384.8170987962935
 30
0.0
 11
513.0267973760883
 21
384.8170987962935
 31
0.0
  0
ARC
  5
20B
330
1F
100
AcDbEntity
  8
Make2D$___$___
100
AcDbCircle
 10
505.9502516085599
 20
399.167098796292
 30
0.0
 40
14.34999999999853
100
AcDbArc
 50
269.999999999992
 51
330.0000000000107
  0
LINE
  5
20C
330
1F
100
AcDbEntity
  8
Make2D$___$___
100
AcDbLine
 10
514.8394432690961
 20
385.863630390566
 30
0.0
 11
518.1526101387183
 21
391.6022037427008
 31
0.0
  0
LINE
  5
20D
330
1F
100
AcDbEntity
  8
Make2D$___$___
100
AcDbLine
 10
514.8991807810049
 20
412.3670987962797
 30
0.0
 11
514.8394432690965
 21
412.4705672020227
 31
0.0
  0
ARC
  5
20E
330
1F
100
AcDbEntity
  8
Make2D$___$___
100
AcDbCircle
 10
505.9502516085785
 20
399.1670987963123
 30
0.0
 40
15.99999999997369
100
AcDbArc
 50
56.24970742796674
 51
63.75029257211323
  0
ARC
  5
20F
330
1F
100
AcDbEntity
  8
Make2D$___$___
100
AcDbCircle
 10
505.9502516088579
 20
399.1670987962969
 30
0.0
 40
15.99999999969919
100
AcDbArc
 50
356.2497074278628
 51
3.750292572118855
  0
LINE
  5
210
330
1F
100
AcDbEntity
  8
Make2D$___$___
100
AcDbLine
 10
518.6028221670094
 20
392.38199384988
 30
0.0
 11
521.91598903663
 21
398.1205672020237
 31
0.0
  0
ARC
  5
211
330
1F
100
AcDbEntity
  8
Make2D$___$___
100
AcDbCircle
 10
505.9502516085627
 20
399.1670987962947
 30
0.0
 40
14.34999999999732
100
AcDbArc
 50
329.9999999999961
 51
26.67206251562196
  0
LINE
  5
212
330
1F
100
AcDbEntity
  8
Make2D$___$___
100
AcDbLine
 10
521.9159890366303
 20
400.213630390565
 30
0.0
 11
518.7744858059973
 21
405.6548735981697
 31
0.0
  0
ARC
  5
213
330
1F
100
AcDbEntity
  8
Make2D$___$___
100
AcDbCircle
 10
505.9502516085637
 20
399.1670987962934
 30
0.0
 40
15.99999999999581
100
AcDbArc
 50
296.2497074279065
 51
303.7502925720424
  0
ARC
  5
214
330
1F
100
AcDbEntity
  8
Make2D$___$___
100
AcDbCircle
 10
505.9502516085562
 20
399.1670987962933
 30
0.0
 40
14.34999999999974
100
AcDbArc
 50
243.1238854175005
 51
270.0000000000068
  0
ARC
  5
215
330
1F
100
AcDbEntity
  8
Make2D$___$___
100
AcDbCircle
 10
355.9502516085601
 20
399.1670987962963
 30
0.0
 40
14.34999999999843
100
AcDbArc
 50
66.90571507926707
 51
90.0000000000084
  0
LINE
  5
216
330
1F
100
AcDbEntity
  8
Make2D$___$___
100
AcDbLine
 10
363.0267973760882
 20
413.5170987962947
 30
0.0
 11
356.4004636368542
 21
413.5170987962947
 31
0.0
  0
ARC
  5
217
330
1F
100
AcDbEntity
  8
Make2D$___$___
100
AcDbCircle
 10
355.9502516084328
 20
399.1670987965013
 30
0.0
 40
15.99999999975787
100
AcDbArc
 50
116.2497074278504
 51
123.7502925720978
  0
LINE
  5
218
330
1F
100
AcDbEntity
  8
Make2D$___$___
100
AcDbLine
 10
355.5000395802721
 20
413.5170987962947
 30
0.0
 11
348.8737058410276
 21
413.5170987962947
 31
0.0
  0
ARC
  5
219
330
1F
100
AcDbEntity
  8
Make2D$___$___
100
AcDbCircle
 10
355.9502516085553
 20
399.1670987962988
 30
0.0
 40
14.34999999999594
100
AcDbArc
 50
89.99999999998934
 51
113.0942849207444
  0
LINE
  5
21A
330
1F
100
AcDbEntity
  8
Make2D$___$___
100
AcDbLine
 10
347.0610599480198
 20
412.4705672020227
 30
0.0
 11
347.0013224361147
 21
412.3670987962853
 31
0.0
  0
ARC
  5
21B
330
1F
100
AcDbEntity
  8
Make2D$___$___
100
AcDbCircle
 10
355.9502516085544
 20
399.1670987962939
 30
0.0
 40
14.34999999999866
100
AcDbArc
 50
153.3279374843322
 51
209.9999999999997
  0
ARC
  5
21C
330
1F
100
AcDbEntity
  8
Make2D$___$___
100
AcDbCircle
 10
355.9502516089277
 20
399.1670987962911
 30
0.0
 40
16.00000000036744
100
AcDbArc
 50
176.2497074280188
 51
183.7502925719595
  0
LINE
  5
21D
330
1F
100
AcDbEntity
  8
Make2D$___$___
100
AcDbLine
 10
343.126017411089
 20
405.6548735981178
 30
0.0
 11
339.9845141804859
 21
400.2136303905645
 31
0.0
  0
LINE
  5
21E
330
1F
100
AcDbEntity
  8
Make2D$___$___
100
AcDbLine
 10
339.9845141804855
 20
398.1205672020237
 30
0.0
 11
343.2976810501012
 21
392.3819938498883
 31
0.0
  0
ARC
  5
21F
330
1F
100
AcDbEntity
  8
Make2D$___$___
100
AcDbCircle
 10
355.9502516084851
 20
399.1670987961809
 30
0.0
 40
15.99999999986527
100
AcDbArc
 50
236.2497074279323
 51
243.7502925721306
  0
LINE
  5
220
330
1F
100
AcDbEntity
  8
Make2D$___$___
100
AcDbLine
 10
343.7478930783922
 20
391.6022037427094
 30
0.0
 11
347.0610599480194
 21
385.863630390566
 31
0.0
  0
LINE
  5
221
330
1F
100
AcDbEntity
  8
Make2D$___$___
100
AcDbLine
 10
348.8737058410276
 20
384.8170987962935
 30
0.0
 11
355.5000395802679
 21
384.8170987962935
 31
0.0
  0
LINE
  5
222
330
1F
100
AcDbEntity
  8
Make2D$___$___
100
AcDbLine
 10
356.4004636367948
 20
384.8170987962935
 30
0.0
 11
363.0267973760882
 21
384.8170987962935
 31
0.0
  0
ARC
  5
223
330
1F
100
AcDbEntity
  8
Make2D$___$___
100
AcDbCircle
 10
355.9502516085599
 20
399.1670987962902
 30
0.0
 40
14.3499999999967
100
AcDbArc
 50
269.999999999992
 51
296.8761145825922
  0
LINE
  5
224
330
1F
100
AcDbEntity
  8
Make2D$___$___
100
AcDbLine
 10
364.8394432690961
 20
385.863630390566
 30
0.0
 11
365.1301208831762
 21
386.3670987867753
 31
0.0
  0
LINE
  5
225
330
1F
100
AcDbEntity
  8
Make2D$___$___
100
AcDbLine
 10
364.8991807809017
 20
412.3670987964584
 30
0.0
 11
364.8394432690965
 21
412.4705672020227
 31
0.0
  0
ARC
  5
226
330
1F
100
AcDbEntity
  8
Make2D$___$___
100
AcDbCircle
 10
355.9502516085936
 20
399.1670987963374
 30
0.0
 40
15.99999999994445
100
AcDbArc
 50
56.24970742796189
 51
63.75029257212217
  0
ARC
  5
227
330
1F
100
AcDbEntity
  8
Make2D$___$___
100
AcDbCircle
 10
355.9502516085457
 20
399.1670987963255
 30
0.0
 40
16.00000000003253
100
AcDbArc
 50
296.2497074279132
 51
303.750292572032
  0
ARC
  5
228
330
1F
100
AcDbEntity
  8
Make2D$___$___
100
AcDbCircle
 10
355.9502516085563
 20
399.1670987962938
 30
0.0
 40
14.35000000000031
100
AcDbArc
 50
209.9999999999957
 51
270.0000000000064
  0
LINE
  5
229
330
1F
100
AcDbEntity
  8
Make2D$___$___
100
AcDbLine
 10
528.7277915563152
 20
333.1670987962943
 30
0.0
 11
483.1727116601222
 21
333.1670987962943
 31
0.0
  0
LINE
  5
22A
330
1F
100
AcDbEntity
  8
Make2D$___$___
100
AcDbLine
 10
333.1727116607982
 20
333.1670987962943
 30
0.0
 11
378.7277915569912
 21
333.1670987962943
 31
0.0
  0
ENDSEC
  0
SECTION
  2
OBJECTS
  0
DICTIONARY
  5
C
330
0
100
AcDbDictionary
281
     1
  3
ACAD_GROUP
350
D
  3
ACAD_LAYOUT
350
1A
  3
ACAD_MATERIAL
350
3B
  3
ACAD_MLEADERSTYLE
350
255
  3
ACAD_MLINESTYLE
350
17
  3
ACAD_PLOTSETTINGS
350
19
  3
ACAD_PLOTSTYLENAME
350
E
  3
ACAD_SCALELIST
350
3F
  3
ACAD_TABLESTYLE
350
254
  3
ACAD_VISUALSTYLE
350
2A
  3
AcDbVariableDictionary
350
22B
  0
DICTIONARY
  5
D
102
{ACAD_REACTORS
330
C
102
}
330
C
100
AcDbDictionary
281
     1
  0
DICTIONARY
  5
1A
102
{ACAD_REACTORS
330
C
102
}
330
C
100
AcDbDictionary
281
     1
  3
Layout1
350
1E
  3
Layout2
350
26
  3
Model
350
22
  0
DICTIONARY
  5
3B
102
{ACAD_REACTORS
330
C
102
}
330
C
100
AcDbDictionary
281
     1
  3
ByBlock
350
3D
  3
ByLayer
350
3C
  3
Global
350
3E
  0
DICTIONARY
  5
255
102
{ACAD_REACTORS
330
C
102
}
330
C
100
AcDbDictionary
281
     1
  0
DICTIONARY
  5
17
102
{ACAD_REACTORS
330
C
102
}
330
C
100
AcDbDictionary
281
     1
  3
Standard
350
18
  0
DICTIONARY
  5
19
102
{ACAD_REACTORS
330
C
102
}
330
C
100
AcDbDictionary
281
     1
  0
ACDBDICTIONARYWDFLT
  5
E
102
{ACAD_REACTORS
330
C
102
}
330
C
100
AcDbDictionary
281
     1
  3
Normal
350
F
100
AcDbDictionaryWithDefault
340
F
  0
DICTIONARY
  5
3F
102
{ACAD_REACTORS
330
C
102
}
330
C
100
AcDbDictionary
281
     1
  3
A0
350
40
  3
A1
350
41
  3
A2
350
42
  3
A3
350
43
  3
A4
350
44
  3
A5
350
45
  3
A6
350
46
  3
A7
350
47
  3
A8
350
48
  3
A9
350
49
  3
B0
350
4A
  3
B1
350
4B
  3
B2
350
4C
  3
B3
350
4D
  3
B4
350
4E
  3
B5
350
4F
  3
B6
350
50
  3
B7
350
51
  3
B8
350
52
  3
B9
350
53
  3
C0
350
54
  3
C1
350
55
  3
C2
350
56
  3
C3
350
57
  3
C4
350
58
  3
C5
350
59
  3
C6
350
5A
  3
C7
350
5B
  3
C8
350
5C
  3
C9
350
5D
  3
D0
350
5E
  3
D1
350
5F
  3
D2
350
60
  0
DICTIONARY
  5
254
102
{ACAD_REACTORS
330
C
102
}
330
C
100
AcDbDictionary
281
     1
  0
DICTIONARY
  5
2A
102
{ACAD_REACTORS
330
C
102
}
330
C
100
AcDbDictionary
281
     1
  3
2dWireframe
350
2F
  3
3D Hidden
350
31
  3
3dWireframe
350
30
  3
Basic
350
32
  3
Brighten
350
36
  3
ColorChange
350
3A
  3
Conceptual
350
34
  3
Dim
350
35
  3
Facepattern
350
39
  3
Flat
350
2B
  3
FlatWithEdges
350
2C
  3
Gouraud
350
2D
  3
GouraudWithEdges
350
2E
  3
Linepattern
350
38
  3
Realistic
350
33
  3
Thicken
350
37
  0
DICTIONARY
  5
22B
102
{ACAD_REACTORS
330
C
102
}
330
C
100
AcDbDictionary
281
     1
  3
CANNOSCALE
350
22C
  3
MSLTSCALE
350
22D
  0
LAYOUT
  5
1E
102
{ACAD_REACTORS
330
1A
102
}
330
1A
100
AcDbPlotSettings
  1

  2
none_device
  4

  6

 40
0.0
 41
0.0
 42
0.0
 43
0.0
 44
0.0
 45
0.0
 46
0.0
 47
0.0
 48
0.0
 49
0.0
140
0.0
141
0.0
142
1.0
143
1.0
 70
   688
 72
     0
 73
     0
 74
     5
  7

 75
    16
 76
     0
 77
     2
 78
   300
147
1.0
148
0.0
149
0.0
100
AcDbLayout
  1
Layout1
 70
     1
 71
     1
 10
0.0
 20
0.0
 11
12.0
 21
9.0
 12
0.0
 22
0.0
 32
0.0
 14
1.000000000000000E+20
 24
1.000000000000000E+20
 34
1.000000000000000E+20
 15
-1.000000000000000E+20
 25
-1.000000000000000E+20
 35
-1.000000000000000E+20
146
0.0
 13
0.0
 23
0.0
 33
0.0
 16
1.0
 26
0.0
 36
0.0
 17
0.0
 27
1.0
 37
0.0
 76
     0
330
1B
  0
LAYOUT
  5
26
102
{ACAD_REACTORS
330
1A
102
}
330
1A
100
AcDbPlotSettings
  1

  2
none_device
  4

  6

 40
0.0
 41
0.0
 42
0.0
 43
0.0
 44
0.0
 45
0.0
 46
0.0
 47
0.0
 48
0.0
 49
0.0
140
0.0
141
0.0
142
1.0
143
1.0
 70
   688
 72
     0
 73
     0
 74
     5
  7

 75
    16
 76
     0
 77
     2
 78
   300
147
1.0
148
0.0
149
0.0
100
AcDbLayout
  1
Layout2
 70
     1
 71
     2
 10
0.0
 20
0.0
 11
0.0
 21
0.0
 12
0.0
 22
0.0
 32
0.0
 14
0.0
 24
0.0
 34
0.0
 15
0.0
 25
0.0
 35
0.0
146
0.0
 13
0.0
 23
0.0
 33
0.0
 16
1.0
 26
0.0
 36
0.0
 17
0.0
 27
1.0
 37
0.0
 76
     0
330
23
  0
LAYOUT
  5
22
102
{ACAD_REACTORS
330
1A
102
}
330
1A
100
AcDbPlotSettings
  1

  2
none_device
  4
Letter_(8.50_x_11.00_Inches)
  6

 40
6.35
 41
6.35
 42
6.35000508
 43
6.35000508
 44
215.9
 45
279.4
 46
0.0
 47
0.0
 48
0.0
 49
0.0
140
0.0
141
0.0
142
1.0
143
1.0
 70
  1712
 72
     0
 73
     0
 74
     0
  7

 75
     0
 76
     0
 77
     2
 78
   300
147
1.0
148
0.0
149
0.0
100
AcDbLayout
  1
Model
 70
     1
 71
     0
 10
0.0
 20
0.0
 11
12.0
 21
9.0
 12
0.0
 22
0.0
 32
0.0
 14
333.1670987962898
 24
333.1670987962943
 34
0.0
 15
528.7334044208236
 25
501.5288731213791
 35
0.0
146
0.0
 13
0.0
 23
0.0
 33
0.0
 16
1.0
 26
0.0
 36
0.0
 17
0.0
 27
1.0
 37
0.0
 76
     0
330
1F
331
29
  0
MATERIAL
  5
3D
102
{ACAD_REACTORS
330
3B
102
}
102
{ACAD_XDICTIONARY
360
250
102
}
330
3B
100
AcDbMaterial
  1
ByBlock
  0
MATERIAL
  5
3C
102
{ACAD_REACTORS
330
3B
102
}
102
{ACAD_XDICTIONARY
360
24E
102
}
330
3B
100
AcDbMaterial
  1
ByLayer
  0
MATERIAL
  5
3E
102
{ACAD_REACTORS
330
3B
102
}
102
{ACAD_XDICTIONARY
360
252
102
}
330
3B
100
AcDbMaterial
  1
Global
  0
MLINESTYLE
  5
18
102
{ACAD_REACTORS
330
17
102
}
330
17
100
AcDbMlineStyle
  2
Standard
 70
     0
  3

 62
   256
 51
90.0
 52
90.0
 71
     2
 49
0.5
 62
   256
  6
BYLAYER
 49
-0.5
 62
   256
  6
BYLAYER
  0
ACDBPLACEHOLDER
  5
F
102
{ACAD_REACTORS
330
E
102
}
330
E
  0
SCALE
  5
40
102
{ACAD_REACTORS
330
3F
102
}
330
3F
100
AcDbScale
 70
     0
300
1:1
140
1.0
141
1.0
290
     1
  0
SCALE
  5
41
102
{ACAD_REACTORS
330
3F
102
}
330
3F
100
AcDbScale
 70
     0
300
1:2
140
1.0
141
2.0
290
     0
  0
SCALE
  5
42
102
{ACAD_REACTORS
330
3F
102
}
330
3F
100
AcDbScale
 70
     0
300
1:4
140
1.0
141
4.0
290
     0
  0
SCALE
  5
43
102
{ACAD_REACTORS
330
3F
102
}
330
3F
100
AcDbScale
 70
     0
300
1:5
140
1.0
141
5.0
290
     0
  0
SCALE
  5
44
102
{ACAD_REACTORS
330
3F
102
}
330
3F
100
AcDbScale
 70
     0
300
1:8
140
1.0
141
8.0
290
     0
  0
SCALE
  5
45
102
{ACAD_REACTORS
330
3F
102
}
330
3F
100
AcDbScale
 70
     0
300
1:10
140
1.0
141
10.0
290
     0
  0
SCALE
  5
46
102
{ACAD_REACTORS
330
3F
102
}
330
3F
100
AcDbScale
 70
     0
300
1:16
140
1.0
141
16.0
290
     0
  0
SCALE
  5
47
102
{ACAD_REACTORS
330
3F
102
}
330
3F
100
AcDbScale
 70
     0
300
1:20
140
1.0
141
20.0
290
     0
  0
SCALE
  5
48
102
{ACAD_REACTORS
330
3F
102
}
330
3F
100
AcDbScale
 70
     0
300
1:30
140
1.0
141
30.0
290
     0
  0
SCALE
  5
49
102
{ACAD_REACTORS
330
3F
102
}
330
3F
100
AcDbScale
 70
     0
300
1:40
140
1.0
141
40.0
290
     0
  0
SCALE
  5
4A
102
{ACAD_REACTORS
330
3F
102
}
330
3F
100
AcDbScale
 70
     0
300
1:50
140
1.0
141
50.0
290
     0
  0
SCALE
  5
4B
102
{ACAD_REACTORS
330
3F
102
}
330
3F
100
AcDbScale
 70
     0
300
1:100
140
1.0
141
100.0
290
     0
  0
SCALE
  5
4C
102
{ACAD_REACTORS
330
3F
102
}
330
3F
100
AcDbScale
 70
     0
300
2:1
140
2.0
141
1.0
290
     0
  0
SCALE
  5
4D
102
{ACAD_REACTORS
330
3F
102
}
330
3F
100
AcDbScale
 70
     0
300
4:1
140
4.0
141
1.0
290
     0
  0
SCALE
  5
4E
102
{ACAD_REACTORS
330
3F
102
}
330
3F
100
AcDbScale
 70
     0
300
8:1
140
8.0
141
1.0
290
     0
  0
SCALE
  5
4F
102
{ACAD_REACTORS
330
3F
102
}
330
3F
100
AcDbScale
 70
     0
300
10:1
140
10.0
141
1.0
290
     0
  0
SCALE
  5
50
102
{ACAD_REACTORS
330
3F
102
}
330
3F
100
AcDbScale
 70
     0
300
100:1
140
100.0
141
1.0
290
     0
  0
SCALE
  5
51
102
{ACAD_REACTORS
330
3F
102
}
330
3F
100
AcDbScale
 70
     0
300
1/128" = 1'-0"
140
0.0078125
141
12.0
290
     0
  0
SCALE
  5
52
102
{ACAD_REACTORS
330
3F
102
}
330
3F
100
AcDbScale
 70
     0
300
1/64" = 1'-0"
140
0.015625
141
12.0
290
     0
  0
SCALE
  5
53
102
{ACAD_REACTORS
330
3F
102
}
330
3F
100
AcDbScale
 70
     0
300
1/32" = 1'-0"
140
0.03125
141
12.0
290
     0
  0
SCALE
  5
54
102
{ACAD_REACTORS
330
3F
102
}
330
3F
100
AcDbScale
 70
     0
300
1/16" = 1'-0"
140
0.0625
141
12.0
290
     0
  0
SCALE
  5
55
102
{ACAD_REACTORS
330
3F
102
}
330
3F
100
AcDbScale
 70
     0
300
3/32" = 1'-0"
140
0.09375
141
12.0
290
     0
  0
SCALE
  5
56
102
{ACAD_REACTORS
330
3F
102
}
330
3F
100
AcDbScale
 70
     0
300
1/8" = 1'-0"
140
0.125
141
12.0
290
     0
  0
SCALE
  5
57
102
{ACAD_REACTORS
330
3F
102
}
330
3F
100
AcDbScale
 70
     0
300
3/16" = 1'-0"
140
0.1875
141
12.0
290
     0
  0
SCALE
  5
58
102
{ACAD_REACTORS
330
3F
102
}
330
3F
100
AcDbScale
 70
     0
300
1/4" = 1'-0"
140
0.25
141
12.0
290
     0
  0
SCALE
  5
59
102
{ACAD_REACTORS
330
3F
102
}
330
3F
100
AcDbScale
 70
     0
300
3/8" = 1'-0"
140
0.375
141
12.0
290
     0
  0
SCALE
  5
5A
102
{ACAD_REACTORS
330
3F
102
}
330
3F
100
AcDbScale
 70
     0
300
1/2" = 1'-0"
140
0.5
141
12.0
290
     0
  0
SCALE
  5
5B
102
{ACAD_REACTORS
330
3F
102
}
330
3F
100
AcDbScale
 70
     0
300
3/4" = 1'-0"
140
0.75
141
12.0
290
     0
  0
SCALE
  5
5C
102
{ACAD_REACTORS
330
3F
102
}
330
3F
100
AcDbScale
 70
     0
300
1" = 1'-0"
140
1.0
141
12.0
290
     0
  0
SCALE
  5
5D
102
{ACAD_REACTORS
330
3F
102
}
330
3F
100
AcDbScale
 70
     0
300
1-1/2" = 1'-0"
140
1.5
141
12.0
290
     0
  0
SCALE
  5
5E
102
{ACAD_REACTORS
330
3F
102
}
330
3F
100
AcDbScale
 70
     0
300
3" = 1'-0"
140
3.0
141
12.0
290
     0
  0
SCALE
  5
5F
102
{ACAD_REACTORS
330
3F
102
}
330
3F
100
AcDbScale
 70
     0
300
6" = 1'-0"
140
6.0
141
12.0
290
     0
  0
SCALE
  5
60
102
{ACAD_REACTORS
330
3F
102
}
330
3F
100
AcDbScale
 70
     0
300
1'-0" = 1'-0"
140
12.0
141
12.0
290
     0
  0
VISUALSTYLE
  5
2F
102
{ACAD_REACTORS
330
2A
102
}
102
{ACAD_XDICTIONARY
360
236
102
}
330
2A
100
AcDbVisualStyle
  2
2dWireframe
 70
     4
 71
     0
 72
     2
 73
     0
 90
        0
 40
0.6
 41
30.0
 62
     5
 63
     7
421
 16777215
 74
     1
 91
        4
 64
     7
 65
   257
 75
     1
175
     1
 42
1.0
 92
        0
 66
   257
 43
1.0
 76
     1
 77
     6
 78
     2
 67
     7
 79
     5
170
     0
171
     0
290
     0
174
     0
 93
        1
 44
0.0
173
     0
291
     0
 45
0.0
1001
ACAD
1000
AcDbSavedByObjectVersion
1070
     0
  0
VISUALSTYLE
  5
31
102
{ACAD_REACTORS
330
2A
102
}
102
{ACAD_XDICTIONARY
360
23A
102
}
330
2A
100
AcDbVisualStyle
  2
3D Hidden
 70
     6
 71
     1
 72
     2
 73
     2
 90
        0
 40
0.6
 41
30.0
 62
     5
 63
     7
421
 16777215
 74
     2
 91
        2
 64
     7
 65
   257
 75
     2
175
     1
 42
40.0
 92
        0
 66
   257
 43
1.0
 76
     1
 77
     6
 78
     2
 67
     7
 79
     3
170
     0
171
     0
290
     0
174
     0
 93
        1
 44
0.0
173
     0
291
     0
 45
0.0
1001
ACAD
1000
AcDbSavedByObjectVersion
1070
     0
  0
VISUALSTYLE
  5
30
102
{ACAD_REACTORS
330
2A
102
}
102
{ACAD_XDICTIONARY
360
238
102
}
330
2A
100
AcDbVisualStyle
  2
3dWireframe
 70
     5
 71
     0
 72
     2
 73
     0
 90
        0
 40
0.6
 41
30.0
 62
     5
 63
     7
421
 16777215
 74
     1
 91
        4
 64
     7
 65
   257
 75
     1
175
     1
 42
1.0
 92
        0
 66
   257
 43
1.0
 76
     1
 77
     6
 78
     2
 67
     7
 79
     5
170
     0
171
     0
290
     0
174
     0
 93
        1
 44
0.0
173
     0
291
     0
 45
0.0
1001
ACAD
1000
AcDbSavedByObjectVersion
1070
     0
  0
VISUALSTYLE
  5
32
102
{ACAD_REACTORS
330
2A
102
}
102
{ACAD_XDICTIONARY
360
23C
102
}
330
2A
100
AcDbVisualStyle
  2
Basic
 70
     7
 71
     1
 72
     0
 73
     1
 90
        0
 40
0.6
 41
30.0
 62
     5
 63
     7
421
 16777215
 74
     0
 91
        4
 64
     7
 65
   257
 75
     1
175
     1
 42
1.0
 92
        8
 66
     7
 43
1.0
 76
     1
 77
     6
 78
     2
 67
     7
 79
     5
170
     0
171
     0
290
     0
174
     0
 93
        1
 44
0.0
173
     0
291
     1
 45
0.0
1001
ACAD
1000
AcDbSavedByObjectVersion
1070
     0
  0
VISUALSTYLE
  5
36
102
{ACAD_REACTORS
330
2A
102
}
102
{ACAD_XDICTIONARY
360
244
102
}
330
2A
100
AcDbVisualStyle
  2
Brighten
 70
    12
 71
     2
 72
     2
 73
     0
 90
        0
 40
0.6
 41
30.0
 62
     5
 63
     7
421
 16777215
 74
     1
 91
        4
 64
     7
 65
   257
 75
     1
175
     1
 42
1.0
 92
        8
 66
     7
 43
1.0
 76
     1
 77
     6
 78
     2
 67
     7
 79
     5
170
     0
171
     0
290
     0
174
     0
 93
        1
 44
50.0
173
     0
291
     1
 45
0.0
1001
ACAD
1000
AcDbSavedByObjectVersion
1070
     0
  0
VISUALSTYLE
  5
3A
102
{ACAD_REACTORS
330
2A
102
}
102
{ACAD_XDICTIONARY
360
24C
102
}
330
2A
100
AcDbVisualStyle
  2
ColorChange
 70
    16
 71
     2
 72
     2
 73
     3
 90
        0
 40
0.6
 41
30.0
 62
     5
 63
     8
421
  8421504
 74
     1
 91
        4
 64
     7
 65
   257
 75
     1
175
     1
 42
1.0
 92
        8
 66
     8
424
  8421504
 43
1.0
 76
     1
 77
     6
 78
     2
 67
     7
 79
     5
170
     0
171
     0
290
     0
174
     0
 93
        1
 44
0.0
173
     0
291
     1
 45
0.0
1001
ACAD
1000
AcDbSavedByObjectVersion
1070
     0
  0
VISUALSTYLE
  5
34
102
{ACAD_REACTORS
330
2A
102
}
102
{ACAD_XDICTIONARY
360
240
102
}
330
2A
100
AcDbVisualStyle
  2
Conceptual
 70
     9
 71
     3
 72
     2
 73
     0
 90
        0
 40
0.6
 41
30.0
 62
     5
 63
     7
421
 16777215
 74
     2
 91
        2
 64
     7
 65
   257
 75
     1
175
     1
 42
40.0
 92
        8
 66
     7
 43
1.0
 76
     1
 77
     6
 78
     2
 67
     7
 79
     3
170
     0
171
     0
290
     0
174
     0
 93
        1
 44
0.0
173
     0
291
     0
 45
0.0
1001
ACAD
1000
AcDbSavedByObjectVersion
1070
     0
  0
VISUALSTYLE
  5
35
102
{ACAD_REACTORS
330
2A
102
}
102
{ACAD_XDICTIONARY
360
242
102
}
330
2A
100
AcDbVisualStyle
  2
Dim
 70
    11
 71
     2
 72
     2
 73
     0
 90
        0
 40
0.6
 41
30.0
 62
     5
 63
     7
421
 16777215
 74
     1
 91
        4
 64
     7
 65
   257
 75
     1
175
     1
 42
1.0
 92
        8
 66
     7
 43
1.0
 76
     1
 77
     6
 78
     2
 67
     7
 79
     5
170
     0
171
     0
290
     0
174
     0
 93
        1
 44
-50.0
173
     0
291
     1
 45
0.0
1001
ACAD
1000
AcDbSavedByObjectVersion
1070
     0
  0
VISUALSTYLE
  5
39
102
{ACAD_REACTORS
330
2A
102
}
102
{ACAD_XDICTIONARY
360
24A
102
}
330
2A
100
AcDbVisualStyle
  2
Facepattern
 70
    15
 71
     2
 72
     2
 73
     0
 90
        0
 40
0.6
 41
30.0
 62
     5
 63
     7
421
 16777215
 74
     1
 91
        4
 64
     7
 65
   257
 75
     1
175
     1
 42
1.0
 92
        8
 66
     7
 43
1.0
 76
     1
 77
     6
 78
     2
 67
     7
 79
     5
170
     0
171
     0
290
     0
174
     0
 93
        1
 44
0.0
173
     0
291
     1
 45
0.0
1001
ACAD
1000
AcDbSavedByObjectVersion
1070
     0
  0
VISUALSTYLE
  5
2B
102
{ACAD_REACTORS
330
2A
102
}
102
{ACAD_XDICTIONARY
360
22E
102
}
330
2A
100
AcDbVisualStyle
  2
Flat
 70
     0
 71
     2
 72
     1
 73
     1
 90
        2
 40
0.6
 41
30.0
 62
     5
 63
     7
421
 16777215
 74
     0
 91
        4
 64
     7
 65
   257
 75
     1
175
     1
 42
1.0
 92
        8
 66
     7
 43
1.0
 76
     1
 77
     6
 78
     2
 67
     7
 79
     5
170
     0
171
     0
290
     0
174
     0
 93
       13
 44
0.0
173
     0
291
     1
 45
0.0
1001
ACAD
1000
AcDbSavedByObjectVersion
1070
     0
  0
VISUALSTYLE
  5
2C
102
{ACAD_REACTORS
330
2A
102
}
102
{ACAD_XDICTIONARY
360
230
102
}
330
2A
100
AcDbVisualStyle
  2
FlatWithEdges
 70
     1
 71
     2
 72
     1
 73
     1
 90
        2
 40
0.6
 41
30.0
 62
     5
 63
     7
421
 16777215
 74
     1
 91
        4
 64
     7
 65
   257
 75
     1
175
     1
 42
1.0
 92
        0
 66
   257
 43
1.0
 76
     1
 77
     6
 78
     2
 67
     7
 79
     5
170
     0
171
     0
290
     0
174
     0
 93
       13
 44
0.0
173
     0
291
     1
 45
0.0
1001
ACAD
1000
AcDbSavedByObjectVersion
1070
     0
  0
VISUALSTYLE
  5
2D
102
{ACAD_REACTORS
330
2A
102
}
102
{ACAD_XDICTIONARY
360
232
102
}
330
2A
100
AcDbVisualStyle
  2
Gouraud
 70
     2
 71
     2
 72
     2
 73
     1
 90
        2
 40
0.6
 41
30.0
 62
     5
 63
     7
421
 16777215
 74
     0
 91
        4
 64
     7
 65
   257
 75
     1
175
     1
 42
1.0
 92
        0
 66
     7
 43
1.0
 76
     1
 77
     6
 78
     2
 67
     7
 79
     5
170
     0
171
     0
290
     0
174
     0
 93
       13
 44
0.0
173
     0
291
     1
 45
0.0
1001
ACAD
1000
AcDbSavedByObjectVersion
1070
     0
  0
VISUALSTYLE
  5
2E
102
{ACAD_REACTORS
330
2A
102
}
102
{ACAD_XDICTIONARY
360
234
102
}
330
2A
100
AcDbVisualStyle
  2
GouraudWithEdges
 70
     3
 71
     2
 72
     2
 73
     1
 90
        2
 40
0.6
 41
30.0
 62
     5
 63
     7
421
 16777215
 74
     1
 91
        4
 64
     7
 65
   257
 75
     1
175
     1
 42
1.0
 92
        0
 66
   257
 43
1.0
 76
     1
 77
     6
 78
     2
 67
     7
 79
     5
170
     0
171
     0
290
     0
174
     0
 93
       13
 44
0.0
173
     0
291
     1
 45
0.0
1001
ACAD
1000
AcDbSavedByObjectVersion
1070
     0
  0
VISUALSTYLE
  5
38
102
{ACAD_REACTORS
330
2A
102
}
102
{ACAD_XDICTIONARY
360
248
102
}
330
2A
100
AcDbVisualStyle
  2
Linepattern
 70
    14
 71
     2
 72
     2
 73
     0
 90
        0
 40
0.6
 41
30.0
 62
     5
 63
     7
421
 16777215
 74
     1
 91
        4
 64
     7
 65
   257
 75
     7
175
     7
 42
1.0
 92
        8
 66
     7
 43
1.0
 76
     1
 77
     6
 78
     2
 67
     7
 79
     5
170
     0
171
     0
290
     0
174
     0
 93
        1
 44
0.0
173
     0
291
     1
 45
0.0
1001
ACAD
1000
AcDbSavedByObjectVersion
1070
     0
  0
VISUALSTYLE
  5
33
102
{ACAD_REACTORS
330
2A
102
}
102
{ACAD_XDICTIONARY
360
23E
102
}
330
2A
100
AcDbVisualStyle
  2
Realistic
 70
     8
 71
     2
 72
     3
 73
     0
 90
        2
 40
0.6
 41
30.0
 62
     5
 63
     7
421
 16777215
 74
     0
 91
        0
 64
     7
 65
   257
 75
     1
175
     1
 42
1.0
 92
        8
 66
   257
 43
1.0
 76
     1
 77
     6
 78
     2
 67
     7
 79
     3
170
     0
171
     0
290
     0
174
     0
 93
       13
 44
0.0
173
     0
291
     0
 45
0.0
1001
ACAD
1000
AcDbSavedByObjectVersion
1070
     0
  0
VISUALSTYLE
  5
37
102
{ACAD_REACTORS
330
2A
102
}
102
{ACAD_XDICTIONARY
360
246
102
}
330
2A
100
AcDbVisualStyle
  2
Thicken
 70
    13
 71
     2
 72
     2
 73
     0
 90
        0
 40
0.6
 41
30.0
 62
     5
 63
     7
421
 16777215
 74
     1
 91
        4
 64
     7
 65
   257
 75
     1
175
     1
 42
1.0
 92
       12
 66
     7
 43
1.0
 76
     1
 77
     6
 78
     2
 67
     7
 79
     5
170
     0
171
     0
290
     0
174
     0
 93
        1
 44
0.0
173
     0
291
     1
 45
0.0
1001
ACAD
1000
AcDbSavedByObjectVersion
1070
     0
  0
DICTIONARYVAR
  5
22C
102
{ACAD_REACTORS
330
22B
102
}
330
22B
100
DictionaryVariables
280
     0
  1
1:1
  0
DICTIONARYVAR
  5
22D
102
{ACAD_REACTORS
330
22B
102
}
330
22B
100
DictionaryVariables
280
     0
  1
1
  0
DICTIONARY
  5
250
330
3D
100
AcDbDictionary
280
     1
281
     1
  3
ACAD_XREC_ROUNDTRIP
360
251
  0
DICTIONARY
  5
24E
330
3C
100
AcDbDictionary
280
     1
281
     1
  3
ACAD_XREC_ROUNDTRIP
360
24F
  0
DICTIONARY
  5
252
330
3E
100
AcDbDictionary
280
     1
281
     1
  3
ACAD_XREC_ROUNDTRIP
360
253
  0
DICTIONARY
  5
236
330
2F
100
AcDbDictionary
280
     1
281
     1
  3
ACAD_XREC_ROUNDTRIP
360
237
  0
DICTIONARY
  5
23A
330
31
100
AcDbDictionary
280
     1
281
     1
  3
ACAD_XREC_ROUNDTRIP
360
23B
  0
DICTIONARY
  5
238
330
30
100
AcDbDictionary
280
     1
281
     1
  3
ACAD_XREC_ROUNDTRIP
360
239
  0
DICTIONARY
  5
23C
330
32
100
AcDbDictionary
280
     1
281
     1
  3
ACAD_XREC_ROUNDTRIP
360
23D
  0
DICTIONARY
  5
244
330
36
100
AcDbDictionary
280
     1
281
     1
  3
ACAD_XREC_ROUNDTRIP
360
245
  0
DICTIONARY
  5
24C
330
3A
100
AcDbDictionary
280
     1
281
     1
  3
ACAD_XREC_ROUNDTRIP
360
24D
  0
DICTIONARY
  5
240
330
34
100
AcDbDictionary
280
     1
281
     1
  3
ACAD_XREC_ROUNDTRIP
360
241
  0
DICTIONARY
  5
242
330
35
100
AcDbDictionary
280
     1
281
     1
  3
ACAD_XREC_ROUNDTRIP
360
243
  0
DICTIONARY
  5
24A
330
39
100
AcDbDictionary
280
     1
281
     1
  3
ACAD_XREC_ROUNDTRIP
360
24B
  0
DICTIONARY
  5
22E
330
2B
100
AcDbDictionary
280
     1
281
     1
  3
ACAD_XREC_ROUNDTRIP
360
22F
  0
DICTIONARY
  5
230
330
2C
100
AcDbDictionary
280
     1
281
     1
  3
ACAD_XREC_ROUNDTRIP
360
231
  0
DICTIONARY
  5
232
330
2D
100
AcDbDictionary
280
     1
281
     1
  3
ACAD_XREC_ROUNDTRIP
360
233
  0
DICTIONARY
  5
234
330
2E
100
AcDbDictionary
280
     1
281
     1
  3
ACAD_XREC_ROUNDTRIP
360
235
  0
DICTIONARY
  5
248
330
38
100
AcDbDictionary
280
     1
281
     1
  3
ACAD_XREC_ROUNDTRIP
360
249
  0
DICTIONARY
  5
23E
330
33
100
AcDbDictionary
280
     1
281
     1
  3
ACAD_XREC_ROUNDTRIP
360
23F
  0
DICTIONARY
  5
246
330
37
100
AcDbDictionary
280
     1
281
     1
  3
ACAD_XREC_ROUNDTRIP
360
247
  0
XRECORD
  5
251
102
{ACAD_REACTORS
330
250
102
}
330
250
100
AcDbXrecord
280
     1
102
MATERIAL
148
0.0
149
0.0
149
0.0
 93
        0
 94
      127
282
     0
 72
     1
 77
     1
171
     1
175
     1
179
     1
273
     0
  0
XRECORD
  5
24F
102
{ACAD_REACTORS
330
24E
102
}
330
24E
100
AcDbXrecord
280
     1
102
MATERIAL
148
0.0
149
0.0
149
0.0
 93
        0
 94
      127
282
     0
 72
     1
 77
     1
171
     1
175
     1
179
     1
273
     0
  0
XRECORD
  5
253
102
{ACAD_REACTORS
330
252
102
}
330
252
100
AcDbXrecord
280
     1
102
MATERIAL
148
0.0
149
0.0
149
0.0
 93
        0
 94
      127
282
     0
 72
     1
 77
     1
171
     1
175
     1
179
     1
273
     0
  0
XRECORD
  5
237
102
{ACAD_REACTORS
330
236
102
}
330
236
100
AcDbXrecord
280
     1
102
RTVSPropertyOp0
 70
     1
102
RTVSPropertyOp1
 70
     1
102
RTVSPropertyOp2
 70
     1
102
RTVSPropertyOp3
 70
     1
102
RTVSPropertyOp4
 70
     1
102
RTVSPropertyOp5
 70
     1
102
RTVSPropertyOp6
 70
     1
102
RTVSPropertyOp7
 70
     1
102
RTVSPropertyOp8
 70
     1
102
RTVSPropertyOp9
 70
     1
102
RTVSPropertyOp10
 70
     1
102
RTVSPropertyOp11
 70
     1
102
RTVSPropertyOp12
 70
     1
102
RTVSPropertyOp13
 70
     1
102
RTVSPropertyOp14
 70
     1
102
RTVSPropertyOp15
 70
     1
102
RTVSPropertyOp16
 70
     1
102
RTVSPropertyOp17
 70
     1
102
RTVSPropertyOp18
 70
     1
102
RTVSPropertyOp19
 70
     1
102
RTVSPropertyOp20
 70
     1
102
RTVSPropertyOp21
 70
     1
102
RTVSPropertyOp22
 70
     1
102
RTVSPropertyOp23
 70
     1
102
RTVSPropertyOp24
 70
     1
102
RTVSPropertyOp25
 70
     1
102
RTVSPropertyOp26
 70
     1
102
RTVSPropertyOp27
 70
     1
102
RTVSPropertyOp28
 70
     1
102
RTVSPropertyOp29
 70
     1
102
RTVSPropertyOp30
 70
     1
102
RTVSPropertyOp31
 70
     1
102
RTVSPropertyOp32
 70
     1
102
RTVSPropertyOp33
 70
     1
102
RTVSPropertyOp34
 70
     1
102
RTVSPropertyOp35
 70
     1
102
RTVSPropertyOp36
 70
     1
102
RTVSPropertyOp37
 70
     1
102
RTVSPropertyOp38
 70
     1
102
RTVSPropertyOp39
 70
     1
102
RTVSPropertyOp40
 70
     1
102
RTVSPropertyOp41
 70
     1
102
RTVSPropertyOp42
 70
     1
102
RTVSPropertyOp43
 70
     1
102
RTVSPropertyOp44
 70
     1
102
RTVSPropertyOp45
 70
     1
102
RTVSPropertyOp46
 70
     1
102
RTVSPropertyOp47
 70
     1
102
RTVSPropertyOp48
 70
     1
102
RTVSPropertyOp49
 70
     1
102
RTVSPropertyOp50
 70
     1
102
RTVSPropertyOp51
 70
     0
102
RTVSPropertyOp52
 70
     0
102
RTVSPropertyOp53
 70
     1
102
RTVSPropertyOp54
 70
     1
102
RTVSPropertyOp55
 70
     1
102
RTVSPropertyOp56
 70
     1
102
RTVSPropertyOp57
 70
     1
102
RTVSPost2010Prop28
280
     1
102
RTVSPost2010PropOp28
 70
     1
102
RTVSPost2010Prop29
280
     1
102
RTVSPost2010PropOp29
 70
     1
102
RTVSPost2010Prop30
280
     0
102
RTVSPost2010PropOp30
 70
     1
102
RTVSPost2010Prop31
280
     0
102
RTVSPost2010PropOp31
 70
     1
102
RTVSPost2010Prop32
280
     0
102
RTVSPost2010PropOp32
 70
     1
102
RTVSPost2010Prop33
280
     0
102
RTVSPost2010PropOp33
 70
     1
102
RTVSPost2010Prop34
280
     0
102
RTVSPost2010PropOp34
 70
     1
102
RTVSPost2010Prop35
280
     0
102
RTVSPost2010PropOp35
 70
     1
102
RTVSPost2010Prop36
280
     0
102
RTVSPost2010PropOp36
 70
     1
102
RTVSPost2010Prop37
 90
       50
102
RTVSPost2010PropOp37
 70
     1
102
RTVSPost2010Prop38
140
0.0
102
RTVSPost2010PropOp38
 70
     1
102
RTVSPost2010Prop39
140
1.0
102
RTVSPost2010PropOp39
 70
     1
102
RTVSPost2010Prop40
 90
        0
102
RTVSPost2010PropOp40
 70
     1
102
RTVSPost2010Prop41ColorIndex
 90
       18
102
RTVSPost2010Prop41ColorRGB
 90
        0
102
RTVSPost2010PropOp41
 70
     1
102
RTVSPost2010Prop42
 90
       50
102
RTVSPost2010PropOp42
 70
     1
102
RTVSPost2010Prop43
 90
        3
102
RTVSPost2010PropOp43
 70
     1
102
RTVSPost2010Prop44ColorIndex
 90
        5
102
RTVSPost2010Prop44ColorRGB
 90
      255
102
RTVSPost2010PropOp44
 70
     1
102
RTVSPost2010Prop45
280
     0
102
RTVSPost2010PropOp45
 70
     1
102
RTVSPost2010Prop46
 90
       50
102
RTVSPost2010PropOp46
 70
     1
102
RTVSPost2010Prop47
 90
       50
102
RTVSPost2010PropOp47
 70
     1
102
RTVSPost2010Prop48
 90
       50
102
RTVSPost2010PropOp48
 70
     1
102
RTVSPost2010Prop49
280
     0
102
RTVSPost2010PropOp49
 70
     1
102
RTVSPost2010Prop50
 90
       50
102
RTVSPost2010PropOp50
 70
     1
102
RTVSPost2010Prop51ColorIndex
 90
      256
102
RTVSPost2010Prop51ColorRGB
 90
-16777216
102
RTVSPost2010PropOp51
 70
     0
102
RTVSPost2010Prop52
140
1.0
102
RTVSPost2010PropOp52
 70
     0
102
RTVSPost2010Prop53
 90
        2
102
RTVSPost2010PropOp53
 70
     1
102
RTVSPost2010Prop54
  1
strokes_ogs.tif
102
RTVSPost2010PropOp54
 70
     1
102
RTVSPost2010Prop55
280
     0
102
RTVSPost2010PropOp55
 70
     1
102
RTVSPost2010Prop56
140
1.0
102
RTVSPost2010PropOp56
 70
     1
102
RTVSPost2010Prop57
140
1.0
102
RTVSPost2010PropOp57
 70
     1
  0
XRECORD
  5
23B
102
{ACAD_REACTORS
330
23A
102
}
330
23A
100
AcDbXrecord
280
     1
102
RTVSPropertyOp0
 70
     1
102
RTVSPropertyOp1
 70
     1
102
RTVSPropertyOp2
 70
     1
102
RTVSPropertyOp3
 70
     1
102
RTVSPropertyOp4
 70
     1
102
RTVSPropertyOp5
 70
     1
102
RTVSPropertyOp6
 70
     1
102
RTVSPropertyOp7
 70
     1
102
RTVSPropertyOp8
 70
     1
102
RTVSPropertyOp9
 70
     1
102
RTVSPropertyOp10
 70
     1
102
RTVSPropertyOp11
 70
     1
102
RTVSPropertyOp12
 70
     1
102
RTVSPropertyOp13
 70
     1
102
RTVSPropertyOp14
 70
     1
102
RTVSPropertyOp15
 70
     1
102
RTVSPropertyOp16
 70
     1
102
RTVSPropertyOp17
 70
     1
102
RTVSPropertyOp18
 70
     1
102
RTVSPropertyOp19
 70
     1
102
RTVSPropertyOp20
 70
     1
102
RTVSPropertyOp21
 70
     1
102
RTVSPropertyOp22
 70
     1
102
RTVSPropertyOp23
 70
     1
102
RTVSPropertyOp24
 70
     1
102
RTVSPropertyOp25
 70
     1
102
RTVSPropertyOp26
 70
     1
102
RTVSPropertyOp27
 70
     1
102
RTVSPropertyOp28
 70
     1
102
RTVSPropertyOp29
 70
     1
102
RTVSPropertyOp30
 70
     1
102
RTVSPropertyOp31
 70
     1
102
RTVSPropertyOp32
 70
     1
102
RTVSPropertyOp33
 70
     1
102
RTVSPropertyOp34
 70
     1
102
RTVSPropertyOp35
 70
     1
102
RTVSPropertyOp36
 70
     1
102
RTVSPropertyOp37
 70
     1
102
RTVSPropertyOp38
 70
     1
102
RTVSPropertyOp39
 70
     1
102
RTVSPropertyOp40
 70
     1
102
RTVSPropertyOp41
 70
     1
102
RTVSPropertyOp42
 70
     1
102
RTVSPropertyOp43
 70
     1
102
RTVSPropertyOp44
 70
     1
102
RTVSPropertyOp45
 70
     1
102
RTVSPropertyOp46
 70
     1
102
RTVSPropertyOp47
 70
     1
102
RTVSPropertyOp48
 70
     1
102
RTVSPropertyOp49
 70
     1
102
RTVSPropertyOp50
 70
     1
102
RTVSPropertyOp51
 70
     0
102
RTVSPropertyOp52
 70
     0
102
RTVSPropertyOp53
 70
     1
102
RTVSPropertyOp54
 70
     1
102
RTVSPropertyOp55
 70
     1
102
RTVSPropertyOp56
 70
     1
102
RTVSPropertyOp57
 70
     1
102
RTVSPost2010Prop28
280
     0
102
RTVSPost2010PropOp28
 70
     1
102
RTVSPost2010Prop29
280
     1
102
RTVSPost2010PropOp29
 70
     1
102
RTVSPost2010Prop30
280
     1
102
RTVSPost2010PropOp30
 70
     1
102
RTVSPost2010Prop31
280
     0
102
RTVSPost2010PropOp31
 70
     1
102
RTVSPost2010Prop32
280
     0
102
RTVSPost2010PropOp32
 70
     1
102
RTVSPost2010Prop33
280
     0
102
RTVSPost2010PropOp33
 70
     1
102
RTVSPost2010Prop34
280
     0
102
RTVSPost2010PropOp34
 70
     1
102
RTVSPost2010Prop35
280
     0
102
RTVSPost2010PropOp35
 70
     1
102
RTVSPost2010Prop36
280
     0
102
RTVSPost2010PropOp36
 70
     1
102
RTVSPost2010Prop37
 90
       50
102
RTVSPost2010PropOp37
 70
     1
102
RTVSPost2010Prop38
140
0.0
102
RTVSPost2010PropOp38
 70
     1
102
RTVSPost2010Prop39
140
1.0
102
RTVSPost2010PropOp39
 70
     1
102
RTVSPost2010Prop40
 90
        0
102
RTVSPost2010PropOp40
 70
     1
102
RTVSPost2010Prop41ColorIndex
 90
       18
102
RTVSPost2010Prop41ColorRGB
 90
        0
102
RTVSPost2010PropOp41
 70
     1
102
RTVSPost2010Prop42
 90
       50
102
RTVSPost2010PropOp42
 70
     1
102
RTVSPost2010Prop43
 90
        3
102
RTVSPost2010PropOp43
 70
     1
102
RTVSPost2010Prop44ColorIndex
 90
        5
102
RTVSPost2010Prop44ColorRGB
 90
      255
102
RTVSPost2010PropOp44
 70
     1
102
RTVSPost2010Prop45
280
     0
102
RTVSPost2010PropOp45
 70
     1
102
RTVSPost2010Prop46
 90
       50
102
RTVSPost2010PropOp46
 70
     1
102
RTVSPost2010Prop47
 90
       50
102
RTVSPost2010PropOp47
 70
     1
102
RTVSPost2010Prop48
 90
       50
102
RTVSPost2010PropOp48
 70
     1
102
RTVSPost2010Prop49
280
     0
102
RTVSPost2010PropOp49
 70
     1
102
RTVSPost2010Prop50
 90
       50
102
RTVSPost2010PropOp50
 70
     1
102
RTVSPost2010Prop51ColorIndex
 90
      256
102
RTVSPost2010Prop51ColorRGB
 90
-16777216
102
RTVSPost2010PropOp51
 70
     0
102
RTVSPost2010Prop52
140
1.0
102
RTVSPost2010PropOp52
 70
     0
102
RTVSPost2010Prop53
 90
        2
102
RTVSPost2010PropOp53
 70
     1
102
RTVSPost2010Prop54
  1
strokes_ogs.tif
102
RTVSPost2010PropOp54
 70
     1
102
RTVSPost2010Prop55
280
     0
102
RTVSPost2010PropOp55
 70
     1
102
RTVSPost2010Prop56
140
1.0
102
RTVSPost2010PropOp56
 70
     1
102
RTVSPost2010Prop57
140
1.0
102
RTVSPost2010PropOp57
 70
     1
  0
XRECORD
  5
239
102
{ACAD_REACTORS
330
238
102
}
330
238
100
AcDbXrecord
280
     1
102
RTVSPropertyOp0
 70
     1
102
RTVSPropertyOp1
 70
     1
102
RTVSPropertyOp2
 70
     1
102
RTVSPropertyOp3
 70
     1
102
RTVSPropertyOp4
 70
     1
102
RTVSPropertyOp5
 70
     1
102
RTVSPropertyOp6
 70
     1
102
RTVSPropertyOp7
 70
     1
102
RTVSPropertyOp8
 70
     1
102
RTVSPropertyOp9
 70
     1
102
RTVSPropertyOp10
 70
     1
102
RTVSPropertyOp11
 70
     1
102
RTVSPropertyOp12
 70
     1
102
RTVSPropertyOp13
 70
     1
102
RTVSPropertyOp14
 70
     1
102
RTVSPropertyOp15
 70
     1
102
RTVSPropertyOp16
 70
     1
102
RTVSPropertyOp17
 70
     1
102
RTVSPropertyOp18
 70
     1
102
RTVSPropertyOp19
 70
     1
102
RTVSPropertyOp20
 70
     1
102
RTVSPropertyOp21
 70
     1
102
RTVSPropertyOp22
 70
     1
102
RTVSPropertyOp23
 70
     1
102
RTVSPropertyOp24
 70
     1
102
RTVSPropertyOp25
 70
     1
102
RTVSPropertyOp26
 70
     1
102
RTVSPropertyOp27
 70
     1
102
RTVSPropertyOp28
 70
     1
102
RTVSPropertyOp29
 70
     1
102
RTVSPropertyOp30
 70
     1
102
RTVSPropertyOp31
 70
     1
102
RTVSPropertyOp32
 70
     1
102
RTVSPropertyOp33
 70
     1
102
RTVSPropertyOp34
 70
     1
102
RTVSPropertyOp35
 70
     1
102
RTVSPropertyOp36
 70
     1
102
RTVSPropertyOp37
 70
     1
102
RTVSPropertyOp38
 70
     1
102
RTVSPropertyOp39
 70
     1
102
RTVSPropertyOp40
 70
     1
102
RTVSPropertyOp41
 70
     1
102
RTVSPropertyOp42
 70
     1
102
RTVSPropertyOp43
 70
     1
102
RTVSPropertyOp44
 70
     1
102
RTVSPropertyOp45
 70
     1
102
RTVSPropertyOp46
 70
     1
102
RTVSPropertyOp47
 70
     1
102
RTVSPropertyOp48
 70
     1
102
RTVSPropertyOp49
 70
     1
102
RTVSPropertyOp50
 70
     1
102
RTVSPropertyOp51
 70
     0
102
RTVSPropertyOp52
 70
     0
102
RTVSPropertyOp53
 70
     1
102
RTVSPropertyOp54
 70
     1
102
RTVSPropertyOp55
 70
     1
102
RTVSPropertyOp56
 70
     1
102
RTVSPropertyOp57
 70
     1
102
RTVSPost2010Prop28
280
     0
102
RTVSPost2010PropOp28
 70
     1
102
RTVSPost2010Prop29
280
     1
102
RTVSPost2010PropOp29
 70
     1
102
RTVSPost2010Prop30
280
     1
102
RTVSPost2010PropOp30
 70
     1
102
RTVSPost2010Prop31
280
     0
102
RTVSPost2010PropOp31
 70
     1
102
RTVSPost2010Prop32
280
     0
102
RTVSPost2010PropOp32
 70
     1
102
RTVSPost2010Prop33
280
     0
102
RTVSPost2010PropOp33
 70
     1
102
RTVSPost2010Prop34
280
     0
102
RTVSPost2010PropOp34
 70
     1
102
RTVSPost2010Prop35
280
     0
102
RTVSPost2010PropOp35
 70
     1
102
RTVSPost2010Prop36
280
     0
102
RTVSPost2010PropOp36
 70
     1
102
RTVSPost2010Prop37
 90
       50
102
RTVSPost2010PropOp37
 70
     1
102
RTVSPost2010Prop38
140
0.0
102
RTVSPost2010PropOp38
 70
     1
102
RTVSPost2010Prop39
140
1.0
102
RTVSPost2010PropOp39
 70
     1
102
RTVSPost2010Prop40
 90
        0
102
RTVSPost2010PropOp40
 70
     1
102
RTVSPost2010Prop41ColorIndex
 90
       18
102
RTVSPost2010Prop41ColorRGB
 90
        0
102
RTVSPost2010PropOp41
 70
     1
102
RTVSPost2010Prop42
 90
       50
102
RTVSPost2010PropOp42
 70
     1
102
RTVSPost2010Prop43
 90
        3
102
RTVSPost2010PropOp43
 70
     1
102
RTVSPost2010Prop44ColorIndex
 90
        5
102
RTVSPost2010Prop44ColorRGB
 90
      255
102
RTVSPost2010PropOp44
 70
     1
102
RTVSPost2010Prop45
280
     0
102
RTVSPost2010PropOp45
 70
     1
102
RTVSPost2010Prop46
 90
       50
102
RTVSPost2010PropOp46
 70
     1
102
RTVSPost2010Prop47
 90
       50
102
RTVSPost2010PropOp47
 70
     1
102
RTVSPost2010Prop48
 90
       50
102
RTVSPost2010PropOp48
 70
     1
102
RTVSPost2010Prop49
280
     0
102
RTVSPost2010PropOp49
 70
     1
102
RTVSPost2010Prop50
 90
       50
102
RTVSPost2010PropOp50
 70
     1
102
RTVSPost2010Prop51ColorIndex
 90
      256
102
RTVSPost2010Prop51ColorRGB
 90
-16777216
102
RTVSPost2010PropOp51
 70
     0
102
RTVSPost2010Prop52
140
1.0
102
RTVSPost2010PropOp52
 70
     0
102
RTVSPost2010Prop53
 90
        2
102
RTVSPost2010PropOp53
 70
     1
102
RTVSPost2010Prop54
  1
strokes_ogs.tif
102
RTVSPost2010PropOp54
 70
     1
102
RTVSPost2010Prop55
280
     0
102
RTVSPost2010PropOp55
 70
     1
102
RTVSPost2010Prop56
140
1.0
102
RTVSPost2010PropOp56
 70
     1
102
RTVSPost2010Prop57
140
1.0
102
RTVSPost2010PropOp57
 70
     1
  0
XRECORD
  5
23D
102
{ACAD_REACTORS
330
23C
102
}
330
23C
100
AcDbXrecord
280
     1
102
RTVSPropertyOp0
 70
     1
102
RTVSPropertyOp1
 70
     1
102
RTVSPropertyOp2
 70
     1
102
RTVSPropertyOp3
 70
     1
102
RTVSPropertyOp4
 70
     1
102
RTVSPropertyOp5
 70
     1
102
RTVSPropertyOp6
 70
     1
102
RTVSPropertyOp7
 70
     1
102
RTVSPropertyOp8
 70
     1
102
RTVSPropertyOp9
 70
     1
102
RTVSPropertyOp10
 70
     1
102
RTVSPropertyOp11
 70
     1
102
RTVSPropertyOp12
 70
     1
102
RTVSPropertyOp13
 70
     1
102
RTVSPropertyOp14
 70
     1
102
RTVSPropertyOp15
 70
     1
102
RTVSPropertyOp16
 70
     1
102
RTVSPropertyOp17
 70
     1
102
RTVSPropertyOp18
 70
     1
102
RTVSPropertyOp19
 70
     1
102
RTVSPropertyOp20
 70
     1
102
RTVSPropertyOp21
 70
     1
102
RTVSPropertyOp22
 70
     1
102
RTVSPropertyOp23
 70
     1
102
RTVSPropertyOp24
 70
     1
102
RTVSPropertyOp25
 70
     1
102
RTVSPropertyOp26
 70
     1
102
RTVSPropertyOp27
 70
     1
102
RTVSPropertyOp28
 70
     1
102
RTVSPropertyOp29
 70
     1
102
RTVSPropertyOp30
 70
     1
102
RTVSPropertyOp31
 70
     1
102
RTVSPropertyOp32
 70
     1
102
RTVSPropertyOp33
 70
     1
102
RTVSPropertyOp34
 70
     1
102
RTVSPropertyOp35
 70
     1
102
RTVSPropertyOp36
 70
     1
102
RTVSPropertyOp37
 70
     1
102
RTVSPropertyOp38
 70
     1
102
RTVSPropertyOp39
 70
     1
102
RTVSPropertyOp40
 70
     1
102
RTVSPropertyOp41
 70
     1
102
RTVSPropertyOp42
 70
     1
102
RTVSPropertyOp43
 70
     1
102
RTVSPropertyOp44
 70
     1
102
RTVSPropertyOp45
 70
     1
102
RTVSPropertyOp46
 70
     1
102
RTVSPropertyOp47
 70
     1
102
RTVSPropertyOp48
 70
     1
102
RTVSPropertyOp49
 70
     1
102
RTVSPropertyOp50
 70
     1
102
RTVSPropertyOp51
 70
     0
102
RTVSPropertyOp52
 70
     0
102
RTVSPropertyOp53
 70
     1
102
RTVSPropertyOp54
 70
     1
102
RTVSPropertyOp55
 70
     1
102
RTVSPropertyOp56
 70
     1
102
RTVSPropertyOp57
 70
     1
102
RTVSPost2010Prop28
280
     0
102
RTVSPost2010PropOp28
 70
     1
102
RTVSPost2010Prop29
280
     1
102
RTVSPost2010PropOp29
 70
     1
102
RTVSPost2010Prop30
280
     1
102
RTVSPost2010PropOp30
 70
     1
102
RTVSPost2010Prop31
280
     0
102
RTVSPost2010PropOp31
 70
     1
102
RTVSPost2010Prop32
280
     0
102
RTVSPost2010PropOp32
 70
     1
102
RTVSPost2010Prop33
280
     0
102
RTVSPost2010PropOp33
 70
     1
102
RTVSPost2010Prop34
280
     0
102
RTVSPost2010PropOp34
 70
     1
102
RTVSPost2010Prop35
280
     0
102
RTVSPost2010PropOp35
 70
     1
102
RTVSPost2010Prop36
280
     0
102
RTVSPost2010PropOp36
 70
     1
102
RTVSPost2010Prop37
 90
       50
102
RTVSPost2010PropOp37
 70
     1
102
RTVSPost2010Prop38
140
0.0
102
RTVSPost2010PropOp38
 70
     1
102
RTVSPost2010Prop39
140
1.0
102
RTVSPost2010PropOp39
 70
     1
102
RTVSPost2010Prop40
 90
        0
102
RTVSPost2010PropOp40
 70
     1
102
RTVSPost2010Prop41ColorIndex
 90
       18
102
RTVSPost2010Prop41ColorRGB
 90
        0
102
RTVSPost2010PropOp41
 70
     1
102
RTVSPost2010Prop42
 90
       50
102
RTVSPost2010PropOp42
 70
     1
102
RTVSPost2010Prop43
 90
        3
102
RTVSPost2010PropOp43
 70
     1
102
RTVSPost2010Prop44ColorIndex
 90
        5
102
RTVSPost2010Prop44ColorRGB
 90
      255
102
RTVSPost2010PropOp44
 70
     1
102
RTVSPost2010Prop45
280
     0
102
RTVSPost2010PropOp45
 70
     1
102
RTVSPost2010Prop46
 90
       50
102
RTVSPost2010PropOp46
 70
     1
102
RTVSPost2010Prop47
 90
       50
102
RTVSPost2010PropOp47
 70
     1
102
RTVSPost2010Prop48
 90
       50
102
RTVSPost2010PropOp48
 70
     1
102
RTVSPost2010Prop49
280
     0
102
RTVSPost2010PropOp49
 70
     1
102
RTVSPost2010Prop50
 90
       50
102
RTVSPost2010PropOp50
 70
     1
102
RTVSPost2010Prop51ColorIndex
 90
      256
102
RTVSPost2010Prop51ColorRGB
 90
-16777216
102
RTVSPost2010PropOp51
 70
     0
102
RTVSPost2010Prop52
140
1.0
102
RTVSPost2010PropOp52
 70
     0
102
RTVSPost2010Prop53
 90
        2
102
RTVSPost2010PropOp53
 70
     1
102
RTVSPost2010Prop54
  1
strokes_ogs.tif
102
RTVSPost2010PropOp54
 70
     1
102
RTVSPost2010Prop55
280
     0
102
RTVSPost2010PropOp55
 70
     1
102
RTVSPost2010Prop56
140
1.0
102
RTVSPost2010PropOp56
 70
     1
102
RTVSPost2010Prop57
140
1.0
102
RTVSPost2010PropOp57
 70
     1
  0
XRECORD
  5
245
102
{ACAD_REACTORS
330
244
102
}
330
244
100
AcDbXrecord
280
     1
102
RTVSPropertyOp0
 70
     1
102
RTVSPropertyOp1
 70
     1
102
RTVSPropertyOp2
 70
     1
102
RTVSPropertyOp3
 70
     1
102
RTVSPropertyOp4
 70
     1
102
RTVSPropertyOp5
 70
     1
102
RTVSPropertyOp6
 70
     1
102
RTVSPropertyOp7
 70
     1
102
RTVSPropertyOp8
 70
     1
102
RTVSPropertyOp9
 70
     1
102
RTVSPropertyOp10
 70
     1
102
RTVSPropertyOp11
 70
     1
102
RTVSPropertyOp12
 70
     1
102
RTVSPropertyOp13
 70
     1
102
RTVSPropertyOp14
 70
     1
102
RTVSPropertyOp15
 70
     1
102
RTVSPropertyOp16
 70
     1
102
RTVSPropertyOp17
 70
     1
102
RTVSPropertyOp18
 70
     1
102
RTVSPropertyOp19
 70
     1
102
RTVSPropertyOp20
 70
     1
102
RTVSPropertyOp21
 70
     1
102
RTVSPropertyOp22
 70
     1
102
RTVSPropertyOp23
 70
     1
102
RTVSPropertyOp24
 70
     1
102
RTVSPropertyOp25
 70
     1
102
RTVSPropertyOp26
 70
     1
102
RTVSPropertyOp27
 70
     1
102
RTVSPropertyOp28
 70
     1
102
RTVSPropertyOp29
 70
     1
102
RTVSPropertyOp30
 70
     1
102
RTVSPropertyOp31
 70
     1
102
RTVSPropertyOp32
 70
     1
102
RTVSPropertyOp33
 70
     1
102
RTVSPropertyOp34
 70
     1
102
RTVSPropertyOp35
 70
     1
102
RTVSPropertyOp36
 70
     1
102
RTVSPropertyOp37
 70
     1
102
RTVSPropertyOp38
 70
     1
102
RTVSPropertyOp39
 70
     1
102
RTVSPropertyOp40
 70
     1
102
RTVSPropertyOp41
 70
     1
102
RTVSPropertyOp42
 70
     1
102
RTVSPropertyOp43
 70
     1
102
RTVSPropertyOp44
 70
     1
102
RTVSPropertyOp45
 70
     1
102
RTVSPropertyOp46
 70
     1
102
RTVSPropertyOp47
 70
     1
102
RTVSPropertyOp48
 70
     1
102
RTVSPropertyOp49
 70
     1
102
RTVSPropertyOp50
 70
     1
102
RTVSPropertyOp51
 70
     0
102
RTVSPropertyOp52
 70
     0
102
RTVSPropertyOp53
 70
     1
102
RTVSPropertyOp54
 70
     1
102
RTVSPropertyOp55
 70
     1
102
RTVSPropertyOp56
 70
     1
102
RTVSPropertyOp57
 70
     1
102
RTVSPost2010Prop28
280
     0
102
RTVSPost2010PropOp28
 70
     1
102
RTVSPost2010Prop29
280
     1
102
RTVSPost2010PropOp29
 70
     1
102
RTVSPost2010Prop30
280
     1
102
RTVSPost2010PropOp30
 70
     1
102
RTVSPost2010Prop31
280
     0
102
RTVSPost2010PropOp31
 70
     1
102
RTVSPost2010Prop32
280
     0
102
RTVSPost2010PropOp32
 70
     1
102
RTVSPost2010Prop33
280
     0
102
RTVSPost2010PropOp33
 70
     1
102
RTVSPost2010Prop34
280
     0
102
RTVSPost2010PropOp34
 70
     1
102
RTVSPost2010Prop35
280
     0
102
RTVSPost2010PropOp35
 70
     1
102
RTVSPost2010Prop36
280
     0
102
RTVSPost2010PropOp36
 70
     1
102
RTVSPost2010Prop37
 90
       50
102
RTVSPost2010PropOp37
 70
     1
102
RTVSPost2010Prop38
140
0.0
102
RTVSPost2010PropOp38
 70
     1
102
RTVSPost2010Prop39
140
1.0
102
RTVSPost2010PropOp39
 70
     1
102
RTVSPost2010Prop40
 90
        0
102
RTVSPost2010PropOp40
 70
     1
102
RTVSPost2010Prop41ColorIndex
 90
       18
102
RTVSPost2010Prop41ColorRGB
 90
        0
102
RTVSPost2010PropOp41
 70
     1
102
RTVSPost2010Prop42
 90
       50
102
RTVSPost2010PropOp42
 70
     1
102
RTVSPost2010Prop43
 90
        3
102
RTVSPost2010PropOp43
 70
     1
102
RTVSPost2010Prop44ColorIndex
 90
        5
102
RTVSPost2010Prop44ColorRGB
 90
      255
102
RTVSPost2010PropOp44
 70
     1
102
RTVSPost2010Prop45
280
     0
102
RTVSPost2010PropOp45
 70
     1
102
RTVSPost2010Prop46
 90
       50
102
RTVSPost2010PropOp46
 70
     1
102
RTVSPost2010Prop47
 90
       50
102
RTVSPost2010PropOp47
 70
     1
102
RTVSPost2010Prop48
 90
       50
102
RTVSPost2010PropOp48
 70
     1
102
RTVSPost2010Prop49
280
     0
102
RTVSPost2010PropOp49
 70
     1
102
RTVSPost2010Prop50
 90
       50
102
RTVSPost2010PropOp50
 70
     1
102
RTVSPost2010Prop51ColorIndex
 90
      256
102
RTVSPost2010Prop51ColorRGB
 90
-16777216
102
RTVSPost2010PropOp51
 70
     0
102
RTVSPost2010Prop52
140
1.0
102
RTVSPost2010PropOp52
 70
     0
102
RTVSPost2010Prop53
 90
        2
102
RTVSPost2010PropOp53
 70
     1
102
RTVSPost2010Prop54
  1
strokes_ogs.tif
102
RTVSPost2010PropOp54
 70
     1
102
RTVSPost2010Prop55
280
     0
102
RTVSPost2010PropOp55
 70
     1
102
RTVSPost2010Prop56
140
1.0
102
RTVSPost2010PropOp56
 70
     1
102
RTVSPost2010Prop57
140
1.0
102
RTVSPost2010PropOp57
 70
     1
  0
XRECORD
  5
24D
102
{ACAD_REACTORS
330
24C
102
}
330
24C
100
AcDbXrecord
280
     1
102
RTVSPropertyOp0
 70
     1
102
RTVSPropertyOp1
 70
     1
102
RTVSPropertyOp2
 70
     1
102
RTVSPropertyOp3
 70
     1
102
RTVSPropertyOp4
 70
     1
102
RTVSPropertyOp5
 70
     1
102
RTVSPropertyOp6
 70
     1
102
RTVSPropertyOp7
 70
     1
102
RTVSPropertyOp8
 70
     1
102
RTVSPropertyOp9
 70
     1
102
RTVSPropertyOp10
 70
     1
102
RTVSPropertyOp11
 70
     1
102
RTVSPropertyOp12
 70
     1
102
RTVSPropertyOp13
 70
     1
102
RTVSPropertyOp14
 70
     1
102
RTVSPropertyOp15
 70
     1
102
RTVSPropertyOp16
 70
     1
102
RTVSPropertyOp17
 70
     1
102
RTVSPropertyOp18
 70
     1
102
RTVSPropertyOp19
 70
     1
102
RTVSPropertyOp20
 70
     1
102
RTVSPropertyOp21
 70
     1
102
RTVSPropertyOp22
 70
     1
102
RTVSPropertyOp23
 70
     1
102
RTVSPropertyOp24
 70
     1
102
RTVSPropertyOp25
 70
     1
102
RTVSPropertyOp26
 70
     1
102
RTVSPropertyOp27
 70
     1
102
RTVSPropertyOp28
 70
     1
102
RTVSPropertyOp29
 70
     1
102
RTVSPropertyOp30
 70
     1
102
RTVSPropertyOp31
 70
     1
102
RTVSPropertyOp32
 70
     1
102
RTVSPropertyOp33
 70
     1
102
RTVSPropertyOp34
 70
     1
102
RTVSPropertyOp35
 70
     1
102
RTVSPropertyOp36
 70
     1
102
RTVSPropertyOp37
 70
     1
102
RTVSPropertyOp38
 70
     1
102
RTVSPropertyOp39
 70
     1
102
RTVSPropertyOp40
 70
     1
102
RTVSPropertyOp41
 70
     1
102
RTVSPropertyOp42
 70
     1
102
RTVSPropertyOp43
 70
     1
102
RTVSPropertyOp44
 70
     1
102
RTVSPropertyOp45
 70
     1
102
RTVSPropertyOp46
 70
     1
102
RTVSPropertyOp47
 70
     1
102
RTVSPropertyOp48
 70
     1
102
RTVSPropertyOp49
 70
     1
102
RTVSPropertyOp50
 70
     1
102
RTVSPropertyOp51
 70
     0
102
RTVSPropertyOp52
 70
     0
102
RTVSPropertyOp53
 70
     1
102
RTVSPropertyOp54
 70
     1
102
RTVSPropertyOp55
 70
     1
102
RTVSPropertyOp56
 70
     1
102
RTVSPropertyOp57
 70
     1
102
RTVSPost2010Prop28
280
     0
102
RTVSPost2010PropOp28
 70
     1
102
RTVSPost2010Prop29
280
     1
102
RTVSPost2010PropOp29
 70
     1
102
RTVSPost2010Prop30
280
     1
102
RTVSPost2010PropOp30
 70
     1
102
RTVSPost2010Prop31
280
     0
102
RTVSPost2010PropOp31
 70
     1
102
RTVSPost2010Prop32
280
     0
102
RTVSPost2010PropOp32
 70
     1
102
RTVSPost2010Prop33
280
     0
102
RTVSPost2010PropOp33
 70
     1
102
RTVSPost2010Prop34
280
     0
102
RTVSPost2010PropOp34
 70
     1
102
RTVSPost2010Prop35
280
     0
102
RTVSPost2010PropOp35
 70
     1
102
RTVSPost2010Prop36
280
     0
102
RTVSPost2010PropOp36
 70
     1
102
RTVSPost2010Prop37
 90
       50
102
RTVSPost2010PropOp37
 70
     1
102
RTVSPost2010Prop38
140
0.0
102
RTVSPost2010PropOp38
 70
     1
102
RTVSPost2010Prop39
140
1.0
102
RTVSPost2010PropOp39
 70
     1
102
RTVSPost2010Prop40
 90
        0
102
RTVSPost2010PropOp40
 70
     1
102
RTVSPost2010Prop41ColorIndex
 90
       18
102
RTVSPost2010Prop41ColorRGB
 90
        0
102
RTVSPost2010PropOp41
 70
     1
102
RTVSPost2010Prop42
 90
       50
102
RTVSPost2010PropOp42
 70
     1
102
RTVSPost2010Prop43
 90
        3
102
RTVSPost2010PropOp43
 70
     1
102
RTVSPost2010Prop44ColorIndex
 90
        5
102
RTVSPost2010Prop44ColorRGB
 90
      255
102
RTVSPost2010PropOp44
 70
     1
102
RTVSPost2010Prop45
280
     0
102
RTVSPost2010PropOp45
 70
     1
102
RTVSPost2010Prop46
 90
       50
102
RTVSPost2010PropOp46
 70
     1
102
RTVSPost2010Prop47
 90
       50
102
RTVSPost2010PropOp47
 70
     1
102
RTVSPost2010Prop48
 90
       50
102
RTVSPost2010PropOp48
 70
     1
102
RTVSPost2010Prop49
280
     0
102
RTVSPost2010PropOp49
 70
     1
102
RTVSPost2010Prop50
 90
       50
102
RTVSPost2010PropOp50
 70
     1
102
RTVSPost2010Prop51ColorIndex
 90
      256
102
RTVSPost2010Prop51ColorRGB
 90
-16777216
102
RTVSPost2010PropOp51
 70
     0
102
RTVSPost2010Prop52
140
1.0
102
RTVSPost2010PropOp52
 70
     0
102
RTVSPost2010Prop53
 90
        2
102
RTVSPost2010PropOp53
 70
     1
102
RTVSPost2010Prop54
  1
strokes_ogs.tif
102
RTVSPost2010PropOp54
 70
     1
102
RTVSPost2010Prop55
280
     0
102
RTVSPost2010PropOp55
 70
     1
102
RTVSPost2010Prop56
140
1.0
102
RTVSPost2010PropOp56
 70
     1
102
RTVSPost2010Prop57
140
1.0
102
RTVSPost2010PropOp57
 70
     1
  0
XRECORD
  5
241
102
{ACAD_REACTORS
330
240
102
}
330
240
100
AcDbXrecord
280
     1
102
RTVSPropertyOp0
 70
     1
102
RTVSPropertyOp1
 70
     1
102
RTVSPropertyOp2
 70
     1
102
RTVSPropertyOp3
 70
     1
102
RTVSPropertyOp4
 70
     1
102
RTVSPropertyOp5
 70
     1
102
RTVSPropertyOp6
 70
     1
102
RTVSPropertyOp7
 70
     1
102
RTVSPropertyOp8
 70
     1
102
RTVSPropertyOp9
 70
     1
102
RTVSPropertyOp10
 70
     1
102
RTVSPropertyOp11
 70
     1
102
RTVSPropertyOp12
 70
     1
102
RTVSPropertyOp13
 70
     1
102
RTVSPropertyOp14
 70
     1
102
RTVSPropertyOp15
 70
     1
102
RTVSPropertyOp16
 70
     1
102
RTVSPropertyOp17
 70
     1
102
RTVSPropertyOp18
 70
     1
102
RTVSPropertyOp19
 70
     1
102
RTVSPropertyOp20
 70
     1
102
RTVSPropertyOp21
 70
     1
102
RTVSPropertyOp22
 70
     1
102
RTVSPropertyOp23
 70
     1
102
RTVSPropertyOp24
 70
     1
102
RTVSPropertyOp25
 70
     1
102
RTVSPropertyOp26
 70
     1
102
RTVSPropertyOp27
 70
     1
102
RTVSPropertyOp28
 70
     1
102
RTVSPropertyOp29
 70
     1
102
RTVSPropertyOp30
 70
     1
102
RTVSPropertyOp31
 70
     1
102
RTVSPropertyOp32
 70
     1
102
RTVSPropertyOp33
 70
     1
102
RTVSPropertyOp34
 70
     1
102
RTVSPropertyOp35
 70
     1
102
RTVSPropertyOp36
 70
     1
102
RTVSPropertyOp37
 70
     1
102
RTVSPropertyOp38
 70
     1
102
RTVSPropertyOp39
 70
     1
102
RTVSPropertyOp40
 70
     1
102
RTVSPropertyOp41
 70
     1
102
RTVSPropertyOp42
 70
     1
102
RTVSPropertyOp43
 70
     1
102
RTVSPropertyOp44
 70
     1
102
RTVSPropertyOp45
 70
     1
102
RTVSPropertyOp46
 70
     1
102
RTVSPropertyOp47
 70
     1
102
RTVSPropertyOp48
 70
     1
102
RTVSPropertyOp49
 70
     1
102
RTVSPropertyOp50
 70
     1
102
RTVSPropertyOp51
 70
     0
102
RTVSPropertyOp52
 70
     0
102
RTVSPropertyOp53
 70
     1
102
RTVSPropertyOp54
 70
     1
102
RTVSPropertyOp55
 70
     1
102
RTVSPropertyOp56
 70
     1
102
RTVSPropertyOp57
 70
     1
102
RTVSPost2010Prop28
280
     0
102
RTVSPost2010PropOp28
 70
     1
102
RTVSPost2010Prop29
280
     1
102
RTVSPost2010PropOp29
 70
     1
102
RTVSPost2010Prop30
280
     1
102
RTVSPost2010PropOp30
 70
     1
102
RTVSPost2010Prop31
280
     0
102
RTVSPost2010PropOp31
 70
     1
102
RTVSPost2010Prop32
280
     0
102
RTVSPost2010PropOp32
 70
     1
102
RTVSPost2010Prop33
280
     0
102
RTVSPost2010PropOp33
 70
     1
102
RTVSPost2010Prop34
280
     0
102
RTVSPost2010PropOp34
 70
     1
102
RTVSPost2010Prop35
280
     0
102
RTVSPost2010PropOp35
 70
     1
102
RTVSPost2010Prop36
280
     0
102
RTVSPost2010PropOp36
 70
     1
102
RTVSPost2010Prop37
 90
       50
102
RTVSPost2010PropOp37
 70
     1
102
RTVSPost2010Prop38
140
0.0
102
RTVSPost2010PropOp38
 70
     1
102
RTVSPost2010Prop39
140
1.0
102
RTVSPost2010PropOp39
 70
     1
102
RTVSPost2010Prop40
 90
        0
102
RTVSPost2010PropOp40
 70
     1
102
RTVSPost2010Prop41ColorIndex
 90
       18
102
RTVSPost2010Prop41ColorRGB
 90
        0
102
RTVSPost2010PropOp41
 70
     1
102
RTVSPost2010Prop42
 90
       50
102
RTVSPost2010PropOp42
 70
     1
102
RTVSPost2010Prop43
 90
        3
102
RTVSPost2010PropOp43
 70
     1
102
RTVSPost2010Prop44ColorIndex
 90
        5
102
RTVSPost2010Prop44ColorRGB
 90
      255
102
RTVSPost2010PropOp44
 70
     1
102
RTVSPost2010Prop45
280
     0
102
RTVSPost2010PropOp45
 70
     1
102
RTVSPost2010Prop46
 90
       50
102
RTVSPost2010PropOp46
 70
     1
102
RTVSPost2010Prop47
 90
       50
102
RTVSPost2010PropOp47
 70
     1
102
RTVSPost2010Prop48
 90
       50
102
RTVSPost2010PropOp48
 70
     1
102
RTVSPost2010Prop49
280
     0
102
RTVSPost2010PropOp49
 70
     1
102
RTVSPost2010Prop50
 90
       50
102
RTVSPost2010PropOp50
 70
     1
102
RTVSPost2010Prop51ColorIndex
 90
      256
102
RTVSPost2010Prop51ColorRGB
 90
-16777216
102
RTVSPost2010PropOp51
 70
     0
102
RTVSPost2010Prop52
140
1.0
102
RTVSPost2010PropOp52
 70
     0
102
RTVSPost2010Prop53
 90
        2
102
RTVSPost2010PropOp53
 70
     1
102
RTVSPost2010Prop54
  1
strokes_ogs.tif
102
RTVSPost2010PropOp54
 70
     1
102
RTVSPost2010Prop55
280
     0
102
RTVSPost2010PropOp55
 70
     1
102
RTVSPost2010Prop56
140
1.0
102
RTVSPost2010PropOp56
 70
     1
102
RTVSPost2010Prop57
140
1.0
102
RTVSPost2010PropOp57
 70
     1
  0
XRECORD
  5
243
102
{ACAD_REACTORS
330
242
102
}
330
242
100
AcDbXrecord
280
     1
102
RTVSPropertyOp0
 70
     1
102
RTVSPropertyOp1
 70
     1
102
RTVSPropertyOp2
 70
     1
102
RTVSPropertyOp3
 70
     1
102
RTVSPropertyOp4
 70
     1
102
RTVSPropertyOp5
 70
     1
102
RTVSPropertyOp6
 70
     1
102
RTVSPropertyOp7
 70
     1
102
RTVSPropertyOp8
 70
     1
102
RTVSPropertyOp9
 70
     1
102
RTVSPropertyOp10
 70
     1
102
RTVSPropertyOp11
 70
     1
102
RTVSPropertyOp12
 70
     1
102
RTVSPropertyOp13
 70
     1
102
RTVSPropertyOp14
 70
     1
102
RTVSPropertyOp15
 70
     1
102
RTVSPropertyOp16
 70
     1
102
RTVSPropertyOp17
 70
     1
102
RTVSPropertyOp18
 70
     1
102
RTVSPropertyOp19
 70
     1
102
RTVSPropertyOp20
 70
     1
102
RTVSPropertyOp21
 70
     1
102
RTVSPropertyOp22
 70
     1
102
RTVSPropertyOp23
 70
     1
102
RTVSPropertyOp24
 70
     1
102
RTVSPropertyOp25
 70
     1
102
RTVSPropertyOp26
 70
     1
102
RTVSPropertyOp27
 70
     1
102
RTVSPropertyOp28
 70
     1
102
RTVSPropertyOp29
 70
     1
102
RTVSPropertyOp30
 70
     1
102
RTVSPropertyOp31
 70
     1
102
RTVSPropertyOp32
 70
     1
102
RTVSPropertyOp33
 70
     1
102
RTVSPropertyOp34
 70
     1
102
RTVSPropertyOp35
 70
     1
102
RTVSPropertyOp36
 70
     1
102
RTVSPropertyOp37
 70
     1
102
RTVSPropertyOp38
 70
     1
102
RTVSPropertyOp39
 70
     1
102
RTVSPropertyOp40
 70
     1
102
RTVSPropertyOp41
 70
     1
102
RTVSPropertyOp42
 70
     1
102
RTVSPropertyOp43
 70
     1
102
RTVSPropertyOp44
 70
     1
102
RTVSPropertyOp45
 70
     1
102
RTVSPropertyOp46
 70
     1
102
RTVSPropertyOp47
 70
     1
102
RTVSPropertyOp48
 70
     1
102
RTVSPropertyOp49
 70
     1
102
RTVSPropertyOp50
 70
     1
102
RTVSPropertyOp51
 70
     0
102
RTVSPropertyOp52
 70
     0
102
RTVSPropertyOp53
 70
     1
102
RTVSPropertyOp54
 70
     1
102
RTVSPropertyOp55
 70
     1
102
RTVSPropertyOp56
 70
     1
102
RTVSPropertyOp57
 70
     1
102
RTVSPost2010Prop28
280
     0
102
RTVSPost2010PropOp28
 70
     1
102
RTVSPost2010Prop29
280
     1
102
RTVSPost2010PropOp29
 70
     1
102
RTVSPost2010Prop30
280
     1
102
RTVSPost2010PropOp30
 70
     1
102
RTVSPost2010Prop31
280
     0
102
RTVSPost2010PropOp31
 70
     1
102
RTVSPost2010Prop32
280
     0
102
RTVSPost2010PropOp32
 70
     1
102
RTVSPost2010Prop33
280
     0
102
RTVSPost2010PropOp33
 70
     1
102
RTVSPost2010Prop34
280
     0
102
RTVSPost2010PropOp34
 70
     1
102
RTVSPost2010Prop35
280
     0
102
RTVSPost2010PropOp35
 70
     1
102
RTVSPost2010Prop36
280
     0
102
RTVSPost2010PropOp36
 70
     1
102
RTVSPost2010Prop37
 90
       50
102
RTVSPost2010PropOp37
 70
     1
102
RTVSPost2010Prop38
140
0.0
102
RTVSPost2010PropOp38
 70
     1
102
RTVSPost2010Prop39
140
1.0
102
RTVSPost2010PropOp39
 70
     1
102
RTVSPost2010Prop40
 90
        0
102
RTVSPost2010PropOp40
 70
     1
102
RTVSPost2010Prop41ColorIndex
 90
       18
102
RTVSPost2010Prop41ColorRGB
 90
        0
102
RTVSPost2010PropOp41
 70
     1
102
RTVSPost2010Prop42
 90
       50
102
RTVSPost2010PropOp42
 70
     1
102
RTVSPost2010Prop43
 90
        3
102
RTVSPost2010PropOp43
 70
     1
102
RTVSPost2010Prop44ColorIndex
 90
        5
102
RTVSPost2010Prop44ColorRGB
 90
      255
102
RTVSPost2010PropOp44
 70
     1
102
RTVSPost2010Prop45
280
     0
102
RTVSPost2010PropOp45
 70
     1
102
RTVSPost2010Prop46
 90
       50
102
RTVSPost2010PropOp46
 70
     1
102
RTVSPost2010Prop47
 90
       50
102
RTVSPost2010PropOp47
 70
     1
102
RTVSPost2010Prop48
 90
       50
102
RTVSPost2010PropOp48
 70
     1
102
RTVSPost2010Prop49
280
     0
102
RTVSPost2010PropOp49
 70
     1
102
RTVSPost2010Prop50
 90
       50
102
RTVSPost2010PropOp50
 70
     1
102
RTVSPost2010Prop51ColorIndex
 90
      256
102
RTVSPost2010Prop51ColorRGB
 90
-16777216
102
RTVSPost2010PropOp51
 70
     0
102
RTVSPost2010Prop52
140
1.0
102
RTVSPost2010PropOp52
 70
     0
102
RTVSPost2010Prop53
 90
        2
102
RTVSPost2010PropOp53
 70
     1
102
RTVSPost2010Prop54
  1
strokes_ogs.tif
102
RTVSPost2010PropOp54
 70
     1
102
RTVSPost2010Prop55
280
     0
102
RTVSPost2010PropOp55
 70
     1
102
RTVSPost2010Prop56
140
1.0
102
RTVSPost2010PropOp56
 70
     1
102
RTVSPost2010Prop57
140
1.0
102
RTVSPost2010PropOp57
 70
     1
  0
XRECORD
  5
24B
102
{ACAD_REACTORS
330
24A
102
}
330
24A
100
AcDbXrecord
280
     1
102
RTVSPropertyOp0
 70
     1
102
RTVSPropertyOp1
 70
     1
102
RTVSPropertyOp2
 70
     1
102
RTVSPropertyOp3
 70
     1
102
RTVSPropertyOp4
 70
     1
102
RTVSPropertyOp5
 70
     1
102
RTVSPropertyOp6
 70
     1
102
RTVSPropertyOp7
 70
     1
102
RTVSPropertyOp8
 70
     1
102
RTVSPropertyOp9
 70
     1
102
RTVSPropertyOp10
 70
     1
102
RTVSPropertyOp11
 70
     1
102
RTVSPropertyOp12
 70
     1
102
RTVSPropertyOp13
 70
     1
102
RTVSPropertyOp14
 70
     1
102
RTVSPropertyOp15
 70
     1
102
RTVSPropertyOp16
 70
     1
102
RTVSPropertyOp17
 70
     1
102
RTVSPropertyOp18
 70
     1
102
RTVSPropertyOp19
 70
     1
102
RTVSPropertyOp20
 70
     1
102
RTVSPropertyOp21
 70
     1
102
RTVSPropertyOp22
 70
     1
102
RTVSPropertyOp23
 70
     1
102
RTVSPropertyOp24
 70
     1
102
RTVSPropertyOp25
 70
     1
102
RTVSPropertyOp26
 70
     1
102
RTVSPropertyOp27
 70
     1
102
RTVSPropertyOp28
 70
     1
102
RTVSPropertyOp29
 70
     1
102
RTVSPropertyOp30
 70
     1
102
RTVSPropertyOp31
 70
     1
102
RTVSPropertyOp32
 70
     1
102
RTVSPropertyOp33
 70
     1
102
RTVSPropertyOp34
 70
     1
102
RTVSPropertyOp35
 70
     1
102
RTVSPropertyOp36
 70
     1
102
RTVSPropertyOp37
 70
     1
102
RTVSPropertyOp38
 70
     1
102
RTVSPropertyOp39
 70
     1
102
RTVSPropertyOp40
 70
     1
102
RTVSPropertyOp41
 70
     1
102
RTVSPropertyOp42
 70
     1
102
RTVSPropertyOp43
 70
     1
102
RTVSPropertyOp44
 70
     1
102
RTVSPropertyOp45
 70
     1
102
RTVSPropertyOp46
 70
     1
102
RTVSPropertyOp47
 70
     1
102
RTVSPropertyOp48
 70
     1
102
RTVSPropertyOp49
 70
     1
102
RTVSPropertyOp50
 70
     1
102
RTVSPropertyOp51
 70
     0
102
RTVSPropertyOp52
 70
     0
102
RTVSPropertyOp53
 70
     1
102
RTVSPropertyOp54
 70
     1
102
RTVSPropertyOp55
 70
     1
102
RTVSPropertyOp56
 70
     1
102
RTVSPropertyOp57
 70
     1
102
RTVSPost2010Prop28
280
     0
102
RTVSPost2010PropOp28
 70
     1
102
RTVSPost2010Prop29
280
     1
102
RTVSPost2010PropOp29
 70
     1
102
RTVSPost2010Prop30
280
     1
102
RTVSPost2010PropOp30
 70
     1
102
RTVSPost2010Prop31
280
     0
102
RTVSPost2010PropOp31
 70
     1
102
RTVSPost2010Prop32
280
     0
102
RTVSPost2010PropOp32
 70
     1
102
RTVSPost2010Prop33
280
     0
102
RTVSPost2010PropOp33
 70
     1
102
RTVSPost2010Prop34
280
     0
102
RTVSPost2010PropOp34
 70
     1
102
RTVSPost2010Prop35
280
     0
102
RTVSPost2010PropOp35
 70
     1
102
RTVSPost2010Prop36
280
     0
102
RTVSPost2010PropOp36
 70
     1
102
RTVSPost2010Prop37
 90
       50
102
RTVSPost2010PropOp37
 70
     1
102
RTVSPost2010Prop38
140
0.0
102
RTVSPost2010PropOp38
 70
     1
102
RTVSPost2010Prop39
140
1.0
102
RTVSPost2010PropOp39
 70
     1
102
RTVSPost2010Prop40
 90
        0
102
RTVSPost2010PropOp40
 70
     1
102
RTVSPost2010Prop41ColorIndex
 90
       18
102
RTVSPost2010Prop41ColorRGB
 90
        0
102
RTVSPost2010PropOp41
 70
     1
102
RTVSPost2010Prop42
 90
       50
102
RTVSPost2010PropOp42
 70
     1
102
RTVSPost2010Prop43
 90
        3
102
RTVSPost2010PropOp43
 70
     1
102
RTVSPost2010Prop44ColorIndex
 90
        5
102
RTVSPost2010Prop44ColorRGB
 90
      255
102
RTVSPost2010PropOp44
 70
     1
102
RTVSPost2010Prop45
280
     0
102
RTVSPost2010PropOp45
 70
     1
102
RTVSPost2010Prop46
 90
       50
102
RTVSPost2010PropOp46
 70
     1
102
RTVSPost2010Prop47
 90
       50
102
RTVSPost2010PropOp47
 70
     1
102
RTVSPost2010Prop48
 90
       50
102
RTVSPost2010PropOp48
 70
     1
102
RTVSPost2010Prop49
280
     0
102
RTVSPost2010PropOp49
 70
     1
102
RTVSPost2010Prop50
 90
       50
102
RTVSPost2010PropOp50
 70
     1
102
RTVSPost2010Prop51ColorIndex
 90
      256
102
RTVSPost2010Prop51ColorRGB
 90
-16777216
102
RTVSPost2010PropOp51
 70
     0
102
RTVSPost2010Prop52
140
1.0
102
RTVSPost2010PropOp52
 70
     0
102
RTVSPost2010Prop53
 90
        2
102
RTVSPost2010PropOp53
 70
     1
102
RTVSPost2010Prop54
  1
strokes_ogs.tif
102
RTVSPost2010PropOp54
 70
     1
102
RTVSPost2010Prop55
280
     0
102
RTVSPost2010PropOp55
 70
     1
102
RTVSPost2010Prop56
140
1.0
102
RTVSPost2010PropOp56
 70
     1
102
RTVSPost2010Prop57
140
1.0
102
RTVSPost2010PropOp57
 70
     1
  0
XRECORD
  5
22F
102
{ACAD_REACTORS
330
22E
102
}
330
22E
100
AcDbXrecord
280
     1
102
RTVSPropertyOp0
 70
     1
102
RTVSPropertyOp1
 70
     1
102
RTVSPropertyOp2
 70
     1
102
RTVSPropertyOp3
 70
     1
102
RTVSPropertyOp4
 70
     1
102
RTVSPropertyOp5
 70
     1
102
RTVSPropertyOp6
 70
     1
102
RTVSPropertyOp7
 70
     1
102
RTVSPropertyOp8
 70
     1
102
RTVSPropertyOp9
 70
     1
102
RTVSPropertyOp10
 70
     1
102
RTVSPropertyOp11
 70
     1
102
RTVSPropertyOp12
 70
     1
102
RTVSPropertyOp13
 70
     1
102
RTVSPropertyOp14
 70
     1
102
RTVSPropertyOp15
 70
     1
102
RTVSPropertyOp16
 70
     1
102
RTVSPropertyOp17
 70
     1
102
RTVSPropertyOp18
 70
     1
102
RTVSPropertyOp19
 70
     1
102
RTVSPropertyOp20
 70
     1
102
RTVSPropertyOp21
 70
     1
102
RTVSPropertyOp22
 70
     1
102
RTVSPropertyOp23
 70
     1
102
RTVSPropertyOp24
 70
     1
102
RTVSPropertyOp25
 70
     1
102
RTVSPropertyOp26
 70
     1
102
RTVSPropertyOp27
 70
     1
102
RTVSPropertyOp28
 70
     1
102
RTVSPropertyOp29
 70
     1
102
RTVSPropertyOp30
 70
     1
102
RTVSPropertyOp31
 70
     1
102
RTVSPropertyOp32
 70
     1
102
RTVSPropertyOp33
 70
     1
102
RTVSPropertyOp34
 70
     1
102
RTVSPropertyOp35
 70
     1
102
RTVSPropertyOp36
 70
     1
102
RTVSPropertyOp37
 70
     1
102
RTVSPropertyOp38
 70
     1
102
RTVSPropertyOp39
 70
     1
102
RTVSPropertyOp40
 70
     1
102
RTVSPropertyOp41
 70
     1
102
RTVSPropertyOp42
 70
     1
102
RTVSPropertyOp43
 70
     1
102
RTVSPropertyOp44
 70
     1
102
RTVSPropertyOp45
 70
     1
102
RTVSPropertyOp46
 70
     1
102
RTVSPropertyOp47
 70
     1
102
RTVSPropertyOp48
 70
     1
102
RTVSPropertyOp49
 70
     1
102
RTVSPropertyOp50
 70
     1
102
RTVSPropertyOp51
 70
     0
102
RTVSPropertyOp52
 70
     0
102
RTVSPropertyOp53
 70
     1
102
RTVSPropertyOp54
 70
     1
102
RTVSPropertyOp55
 70
     1
102
RTVSPropertyOp56
 70
     1
102
RTVSPropertyOp57
 70
     1
102
RTVSPost2010Prop28
280
     0
102
RTVSPost2010PropOp28
 70
     1
102
RTVSPost2010Prop29
280
     1
102
RTVSPost2010PropOp29
 70
     1
102
RTVSPost2010Prop30
280
     1
102
RTVSPost2010PropOp30
 70
     1
102
RTVSPost2010Prop31
280
     0
102
RTVSPost2010PropOp31
 70
     1
102
RTVSPost2010Prop32
280
     0
102
RTVSPost2010PropOp32
 70
     1
102
RTVSPost2010Prop33
280
     0
102
RTVSPost2010PropOp33
 70
     1
102
RTVSPost2010Prop34
280
     0
102
RTVSPost2010PropOp34
 70
     1
102
RTVSPost2010Prop35
280
     0
102
RTVSPost2010PropOp35
 70
     1
102
RTVSPost2010Prop36
280
     0
102
RTVSPost2010PropOp36
 70
     1
102
RTVSPost2010Prop37
 90
       50
102
RTVSPost2010PropOp37
 70
     1
102
RTVSPost2010Prop38
140
0.0
102
RTVSPost2010PropOp38
 70
     1
102
RTVSPost2010Prop39
140
1.0
102
RTVSPost2010PropOp39
 70
     1
102
RTVSPost2010Prop40
 90
        0
102
RTVSPost2010PropOp40
 70
     1
102
RTVSPost2010Prop41ColorIndex
 90
       18
102
RTVSPost2010Prop41ColorRGB
 90
        0
102
RTVSPost2010PropOp41
 70
     1
102
RTVSPost2010Prop42
 90
       50
102
RTVSPost2010PropOp42
 70
     1
102
RTVSPost2010Prop43
 90
        3
102
RTVSPost2010PropOp43
 70
     1
102
RTVSPost2010Prop44ColorIndex
 90
        5
102
RTVSPost2010Prop44ColorRGB
 90
      255
102
RTVSPost2010PropOp44
 70
     1
102
RTVSPost2010Prop45
280
     0
102
RTVSPost2010PropOp45
 70
     1
102
RTVSPost2010Prop46
 90
       50
102
RTVSPost2010PropOp46
 70
     1
102
RTVSPost2010Prop47
 90
       50
102
RTVSPost2010PropOp47
 70
     1
102
RTVSPost2010Prop48
 90
       50
102
RTVSPost2010PropOp48
 70
     1
102
RTVSPost2010Prop49
280
     0
102
RTVSPost2010PropOp49
 70
     1
102
RTVSPost2010Prop50
 90
       50
102
RTVSPost2010PropOp50
 70
     1
102
RTVSPost2010Prop51ColorIndex
 90
      256
102
RTVSPost2010Prop51ColorRGB
 90
-16777216
102
RTVSPost2010PropOp51
 70
     0
102
RTVSPost2010Prop52
140
1.0
102
RTVSPost2010PropOp52
 70
     0
102
RTVSPost2010Prop53
 90
        2
102
RTVSPost2010PropOp53
 70
     1
102
RTVSPost2010Prop54
  1
strokes_ogs.tif
102
RTVSPost2010PropOp54
 70
     1
102
RTVSPost2010Prop55
280
     0
102
RTVSPost2010PropOp55
 70
     1
102
RTVSPost2010Prop56
140
1.0
102
RTVSPost2010PropOp56
 70
     1
102
RTVSPost2010Prop57
140
1.0
102
RTVSPost2010PropOp57
 70
     1
  0
XRECORD
  5
231
102
{ACAD_REACTORS
330
230
102
}
330
230
100
AcDbXrecord
280
     1
102
RTVSPropertyOp0
 70
     1
102
RTVSPropertyOp1
 70
     1
102
RTVSPropertyOp2
 70
     1
102
RTVSPropertyOp3
 70
     1
102
RTVSPropertyOp4
 70
     1
102
RTVSPropertyOp5
 70
     1
102
RTVSPropertyOp6
 70
     1
102
RTVSPropertyOp7
 70
     1
102
RTVSPropertyOp8
 70
     1
102
RTVSPropertyOp9
 70
     1
102
RTVSPropertyOp10
 70
     1
102
RTVSPropertyOp11
 70
     1
102
RTVSPropertyOp12
 70
     1
102
RTVSPropertyOp13
 70
     1
102
RTVSPropertyOp14
 70
     1
102
RTVSPropertyOp15
 70
     1
102
RTVSPropertyOp16
 70
     1
102
RTVSPropertyOp17
 70
     1
102
RTVSPropertyOp18
 70
     1
102
RTVSPropertyOp19
 70
     1
102
RTVSPropertyOp20
 70
     1
102
RTVSPropertyOp21
 70
     1
102
RTVSPropertyOp22
 70
     1
102
RTVSPropertyOp23
 70
     1
102
RTVSPropertyOp24
 70
     1
102
RTVSPropertyOp25
 70
     1
102
RTVSPropertyOp26
 70
     1
102
RTVSPropertyOp27
 70
     1
102
RTVSPropertyOp28
 70
     1
102
RTVSPropertyOp29
 70
     1
102
RTVSPropertyOp30
 70
     1
102
RTVSPropertyOp31
 70
     1
102
RTVSPropertyOp32
 70
     1
102
RTVSPropertyOp33
 70
     1
102
RTVSPropertyOp34
 70
     1
102
RTVSPropertyOp35
 70
     1
102
RTVSPropertyOp36
 70
     1
102
RTVSPropertyOp37
 70
     1
102
RTVSPropertyOp38
 70
     1
102
RTVSPropertyOp39
 70
     1
102
RTVSPropertyOp40
 70
     1
102
RTVSPropertyOp41
 70
     1
102
RTVSPropertyOp42
 70
     1
102
RTVSPropertyOp43
 70
     1
102
RTVSPropertyOp44
 70
     1
102
RTVSPropertyOp45
 70
     1
102
RTVSPropertyOp46
 70
     1
102
RTVSPropertyOp47
 70
     1
102
RTVSPropertyOp48
 70
     1
102
RTVSPropertyOp49
 70
     1
102
RTVSPropertyOp50
 70
     1
102
RTVSPropertyOp51
 70
     0
102
RTVSPropertyOp52
 70
     0
102
RTVSPropertyOp53
 70
     1
102
RTVSPropertyOp54
 70
     1
102
RTVSPropertyOp55
 70
     1
102
RTVSPropertyOp56
 70
     1
102
RTVSPropertyOp57
 70
     1
102
RTVSPost2010Prop28
280
     0
102
RTVSPost2010PropOp28
 70
     1
102
RTVSPost2010Prop29
280
     1
102
RTVSPost2010PropOp29
 70
     1
102
RTVSPost2010Prop30
280
     1
102
RTVSPost2010PropOp30
 70
     1
102
RTVSPost2010Prop31
280
     0
102
RTVSPost2010PropOp31
 70
     1
102
RTVSPost2010Prop32
280
     0
102
RTVSPost2010PropOp32
 70
     1
102
RTVSPost2010Prop33
280
     0
102
RTVSPost2010PropOp33
 70
     1
102
RTVSPost2010Prop34
280
     0
102
RTVSPost2010PropOp34
 70
     1
102
RTVSPost2010Prop35
280
     0
102
RTVSPost2010PropOp35
 70
     1
102
RTVSPost2010Prop36
280
     0
102
RTVSPost2010PropOp36
 70
     1
102
RTVSPost2010Prop37
 90
       50
102
RTVSPost2010PropOp37
 70
     1
102
RTVSPost2010Prop38
140
0.0
102
RTVSPost2010PropOp38
 70
     1
102
RTVSPost2010Prop39
140
1.0
102
RTVSPost2010PropOp39
 70
     1
102
RTVSPost2010Prop40
 90
        0
102
RTVSPost2010PropOp40
 70
     1
102
RTVSPost2010Prop41ColorIndex
 90
       18
102
RTVSPost2010Prop41ColorRGB
 90
        0
102
RTVSPost2010PropOp41
 70
     1
102
RTVSPost2010Prop42
 90
       50
102
RTVSPost2010PropOp42
 70
     1
102
RTVSPost2010Prop43
 90
        3
102
RTVSPost2010PropOp43
 70
     1
102
RTVSPost2010Prop44ColorIndex
 90
        5
102
RTVSPost2010Prop44ColorRGB
 90
      255
102
RTVSPost2010PropOp44
 70
     1
102
RTVSPost2010Prop45
280
     0
102
RTVSPost2010PropOp45
 70
     1
102
RTVSPost2010Prop46
 90
       50
102
RTVSPost2010PropOp46
 70
     1
102
RTVSPost2010Prop47
 90
       50
102
RTVSPost2010PropOp47
 70
     1
102
RTVSPost2010Prop48
 90
       50
102
RTVSPost2010PropOp48
 70
     1
102
RTVSPost2010Prop49
280
     0
102
RTVSPost2010PropOp49
 70
     1
102
RTVSPost2010Prop50
 90
       50
102
RTVSPost2010PropOp50
 70
     1
102
RTVSPost2010Prop51ColorIndex
 90
      256
102
RTVSPost2010Prop51ColorRGB
 90
-16777216
102
RTVSPost2010PropOp51
 70
     0
102
RTVSPost2010Prop52
140
1.0
102
RTVSPost2010PropOp52
 70
     0
102
RTVSPost2010Prop53
 90
        2
102
RTVSPost2010PropOp53
 70
     1
102
RTVSPost2010Prop54
  1
strokes_ogs.tif
102
RTVSPost2010PropOp54
 70
     1
102
RTVSPost2010Prop55
280
     0
102
RTVSPost2010PropOp55
 70
     1
102
RTVSPost2010Prop56
140
1.0
102
RTVSPost2010PropOp56
 70
     1
102
RTVSPost2010Prop57
140
1.0
102
RTVSPost2010PropOp57
 70
     1
  0
XRECORD
  5
233
102
{ACAD_REACTORS
330
232
102
}
330
232
100
AcDbXrecord
280
     1
102
RTVSPropertyOp0
 70
     1
102
RTVSPropertyOp1
 70
     1
102
RTVSPropertyOp2
 70
     1
102
RTVSPropertyOp3
 70
     1
102
RTVSPropertyOp4
 70
     1
102
RTVSPropertyOp5
 70
     1
102
RTVSPropertyOp6
 70
     1
102
RTVSPropertyOp7
 70
     1
102
RTVSPropertyOp8
 70
     1
102
RTVSPropertyOp9
 70
     1
102
RTVSPropertyOp10
 70
     1
102
RTVSPropertyOp11
 70
     1
102
RTVSPropertyOp12
 70
     1
102
RTVSPropertyOp13
 70
     1
102
RTVSPropertyOp14
 70
     1
102
RTVSPropertyOp15
 70
     1
102
RTVSPropertyOp16
 70
     1
102
RTVSPropertyOp17
 70
     1
102
RTVSPropertyOp18
 70
     1
102
RTVSPropertyOp19
 70
     1
102
RTVSPropertyOp20
 70
     1
102
RTVSPropertyOp21
 70
     1
102
RTVSPropertyOp22
 70
     1
102
RTVSPropertyOp23
 70
     1
102
RTVSPropertyOp24
 70
     1
102
RTVSPropertyOp25
 70
     1
102
RTVSPropertyOp26
 70
     1
102
RTVSPropertyOp27
 70
     1
102
RTVSPropertyOp28
 70
     1
102
RTVSPropertyOp29
 70
     1
102
RTVSPropertyOp30
 70
     1
102
RTVSPropertyOp31
 70
     1
102
RTVSPropertyOp32
 70
     1
102
RTVSPropertyOp33
 70
     1
102
RTVSPropertyOp34
 70
     1
102
RTVSPropertyOp35
 70
     1
102
RTVSPropertyOp36
 70
     1
102
RTVSPropertyOp37
 70
     1
102
RTVSPropertyOp38
 70
     1
102
RTVSPropertyOp39
 70
     1
102
RTVSPropertyOp40
 70
     1
102
RTVSPropertyOp41
 70
     1
102
RTVSPropertyOp42
 70
     1
102
RTVSPropertyOp43
 70
     1
102
RTVSPropertyOp44
 70
     1
102
RTVSPropertyOp45
 70
     1
102
RTVSPropertyOp46
 70
     1
102
RTVSPropertyOp47
 70
     1
102
RTVSPropertyOp48
 70
     1
102
RTVSPropertyOp49
 70
     1
102
RTVSPropertyOp50
 70
     1
102
RTVSPropertyOp51
 70
     0
102
RTVSPropertyOp52
 70
     0
102
RTVSPropertyOp53
 70
     1
102
RTVSPropertyOp54
 70
     1
102
RTVSPropertyOp55
 70
     1
102
RTVSPropertyOp56
 70
     1
102
RTVSPropertyOp57
 70
     1
102
RTVSPost2010Prop28
280
     0
102
RTVSPost2010PropOp28
 70
     1
102
RTVSPost2010Prop29
280
     1
102
RTVSPost2010PropOp29
 70
     1
102
RTVSPost2010Prop30
280
     1
102
RTVSPost2010PropOp30
 70
     1
102
RTVSPost2010Prop31
280
     0
102
RTVSPost2010PropOp31
 70
     1
102
RTVSPost2010Prop32
280
     0
102
RTVSPost2010PropOp32
 70
     1
102
RTVSPost2010Prop33
280
     0
102
RTVSPost2010PropOp33
 70
     1
102
RTVSPost2010Prop34
280
     0
102
RTVSPost2010PropOp34
 70
     1
102
RTVSPost2010Prop35
280
     0
102
RTVSPost2010PropOp35
 70
     1
102
RTVSPost2010Prop36
280
     0
102
RTVSPost2010PropOp36
 70
     1
102
RTVSPost2010Prop37
 90
       50
102
RTVSPost2010PropOp37
 70
     1
102
RTVSPost2010Prop38
140
0.0
102
RTVSPost2010PropOp38
 70
     1
102
RTVSPost2010Prop39
140
1.0
102
RTVSPost2010PropOp39
 70
     1
102
RTVSPost2010Prop40
 90
        0
102
RTVSPost2010PropOp40
 70
     1
102
RTVSPost2010Prop41ColorIndex
 90
       18
102
RTVSPost2010Prop41ColorRGB
 90
        0
102
RTVSPost2010PropOp41
 70
     1
102
RTVSPost2010Prop42
 90
       50
102
RTVSPost2010PropOp42
 70
     1
102
RTVSPost2010Prop43
 90
        3
102
RTVSPost2010PropOp43
 70
     1
102
RTVSPost2010Prop44ColorIndex
 90
        5
102
RTVSPost2010Prop44ColorRGB
 90
      255
102
RTVSPost2010PropOp44
 70
     1
102
RTVSPost2010Prop45
280
     0
102
RTVSPost2010PropOp45
 70
     1
102
RTVSPost2010Prop46
 90
       50
102
RTVSPost2010PropOp46
 70
     1
102
RTVSPost2010Prop47
 90
       50
102
RTVSPost2010PropOp47
 70
     1
102
RTVSPost2010Prop48
 90
       50
102
RTVSPost2010PropOp48
 70
     1
102
RTVSPost2010Prop49
280
     0
102
RTVSPost2010PropOp49
 70
     1
102
RTVSPost2010Prop50
 90
       50
102
RTVSPost2010PropOp50
 70
     1
102
RTVSPost2010Prop51ColorIndex
 90
      256
102
RTVSPost2010Prop51ColorRGB
 90
-16777216
102
RTVSPost2010PropOp51
 70
     0
102
RTVSPost2010Prop52
140
1.0
102
RTVSPost2010PropOp52
 70
     0
102
RTVSPost2010Prop53
 90
        2
102
RTVSPost2010PropOp53
 70
     1
102
RTVSPost2010Prop54
  1
strokes_ogs.tif
102
RTVSPost2010PropOp54
 70
     1
102
RTVSPost2010Prop55
280
     0
102
RTVSPost2010PropOp55
 70
     1
102
RTVSPost2010Prop56
140
1.0
102
RTVSPost2010PropOp56
 70
     1
102
RTVSPost2010Prop57
140
1.0
102
RTVSPost2010PropOp57
 70
     1
  0
XRECORD
  5
235
102
{ACAD_REACTORS
330
234
102
}
330
234
100
AcDbXrecord
280
     1
102
RTVSPropertyOp0
 70
     1
102
RTVSPropertyOp1
 70
     1
102
RTVSPropertyOp2
 70
     1
102
RTVSPropertyOp3
 70
     1
102
RTVSPropertyOp4
 70
     1
102
RTVSPropertyOp5
 70
     1
102
RTVSPropertyOp6
 70
     1
102
RTVSPropertyOp7
 70
     1
102
RTVSPropertyOp8
 70
     1
102
RTVSPropertyOp9
 70
     1
102
RTVSPropertyOp10
 70
     1
102
RTVSPropertyOp11
 70
     1
102
RTVSPropertyOp12
 70
     1
102
RTVSPropertyOp13
 70
     1
102
RTVSPropertyOp14
 70
     1
102
RTVSPropertyOp15
 70
     1
102
RTVSPropertyOp16
 70
     1
102
RTVSPropertyOp17
 70
     1
102
RTVSPropertyOp18
 70
     1
102
RTVSPropertyOp19
 70
     1
102
RTVSPropertyOp20
 70
     1
102
RTVSPropertyOp21
 70
     1
102
RTVSPropertyOp22
 70
     1
102
RTVSPropertyOp23
 70
     1
102
RTVSPropertyOp24
 70
     1
102
RTVSPropertyOp25
 70
     1
102
RTVSPropertyOp26
 70
     1
102
RTVSPropertyOp27
 70
     1
102
RTVSPropertyOp28
 70
     1
102
RTVSPropertyOp29
 70
     1
102
RTVSPropertyOp30
 70
     1
102
RTVSPropertyOp31
 70
     1
102
RTVSPropertyOp32
 70
     1
102
RTVSPropertyOp33
 70
     1
102
RTVSPropertyOp34
 70
     1
102
RTVSPropertyOp35
 70
     1
102
RTVSPropertyOp36
 70
     1
102
RTVSPropertyOp37
 70
     1
102
RTVSPropertyOp38
 70
     1
102
RTVSPropertyOp39
 70
     1
102
RTVSPropertyOp40
 70
     1
102
RTVSPropertyOp41
 70
     1
102
RTVSPropertyOp42
 70
     1
102
RTVSPropertyOp43
 70
     1
102
RTVSPropertyOp44
 70
     1
102
RTVSPropertyOp45
 70
     1
102
RTVSPropertyOp46
 70
     1
102
RTVSPropertyOp47
 70
     1
102
RTVSPropertyOp48
 70
     1
102
RTVSPropertyOp49
 70
     1
102
RTVSPropertyOp50
 70
     1
102
RTVSPropertyOp51
 70
     0
102
RTVSPropertyOp52
 70
     0
102
RTVSPropertyOp53
 70
     1
102
RTVSPropertyOp54
 70
     1
102
RTVSPropertyOp55
 70
     1
102
RTVSPropertyOp56
 70
     1
102
RTVSPropertyOp57
 70
     1
102
RTVSPost2010Prop28
280
     0
102
RTVSPost2010PropOp28
 70
     1
102
RTVSPost2010Prop29
280
     1
102
RTVSPost2010PropOp29
 70
     1
102
RTVSPost2010Prop30
280
     1
102
RTVSPost2010PropOp30
 70
     1
102
RTVSPost2010Prop31
280
     0
102
RTVSPost2010PropOp31
 70
     1
102
RTVSPost2010Prop32
280
     0
102
RTVSPost2010PropOp32
 70
     1
102
RTVSPost2010Prop33
280
     0
102
RTVSPost2010PropOp33
 70
     1
102
RTVSPost2010Prop34
280
     0
102
RTVSPost2010PropOp34
 70
     1
102
RTVSPost2010Prop35
280
     0
102
RTVSPost2010PropOp35
 70
     1
102
RTVSPost2010Prop36
280
     0
102
RTVSPost2010PropOp36
 70
     1
102
RTVSPost2010Prop37
 90
       50
102
RTVSPost2010PropOp37
 70
     1
102
RTVSPost2010Prop38
140
0.0
102
RTVSPost2010PropOp38
 70
     1
102
RTVSPost2010Prop39
140
1.0
102
RTVSPost2010PropOp39
 70
     1
102
RTVSPost2010Prop40
 90
        0
102
RTVSPost2010PropOp40
 70
     1
102
RTVSPost2010Prop41ColorIndex
 90
       18
102
RTVSPost2010Prop41ColorRGB
 90
        0
102
RTVSPost2010PropOp41
 70
     1
102
RTVSPost2010Prop42
 90
       50
102
RTVSPost2010PropOp42
 70
     1
102
RTVSPost2010Prop43
 90
        3
102
RTVSPost2010PropOp43
 70
     1
102
RTVSPost2010Prop44ColorIndex
 90
        5
102
RTVSPost2010Prop44ColorRGB
 90
      255
102
RTVSPost2010PropOp44
 70
     1
102
RTVSPost2010Prop45
280
     0
102
RTVSPost2010PropOp45
 70
     1
102
RTVSPost2010Prop46
 90
       50
102
RTVSPost2010PropOp46
 70
     1
102
RTVSPost2010Prop47
 90
       50
102
RTVSPost2010PropOp47
 70
     1
102
RTVSPost2010Prop48
 90
       50
102
RTVSPost2010PropOp48
 70
     1
102
RTVSPost2010Prop49
280
     0
102
RTVSPost2010PropOp49
 70
     1
102
RTVSPost2010Prop50
 90
       50
102
RTVSPost2010PropOp50
 70
     1
102
RTVSPost2010Prop51ColorIndex
 90
      256
102
RTVSPost2010Prop51ColorRGB
 90
-16777216
102
RTVSPost2010PropOp51
 70
     0
102
RTVSPost2010Prop52
140
1.0
102
RTVSPost2010PropOp52
 70
     0
102
RTVSPost2010Prop53
 90
        2
102
RTVSPost2010PropOp53
 70
     1
102
RTVSPost2010Prop54
  1
strokes_ogs.tif
102
RTVSPost2010PropOp54
 70
     1
102
RTVSPost2010Prop55
280
     0
102
RTVSPost2010PropOp55
 70
     1
102
RTVSPost2010Prop56
140
1.0
102
RTVSPost2010PropOp56
 70
     1
102
RTVSPost2010Prop57
140
1.0
102
RTVSPost2010PropOp57
 70
     1
  0
XRECORD
  5
249
102
{ACAD_REACTORS
330
248
102
}
330
248
100
AcDbXrecord
280
     1
102
RTVSPropertyOp0
 70
     1
102
RTVSPropertyOp1
 70
     1
102
RTVSPropertyOp2
 70
     1
102
RTVSPropertyOp3
 70
     1
102
RTVSPropertyOp4
 70
     1
102
RTVSPropertyOp5
 70
     1
102
RTVSPropertyOp6
 70
     1
102
RTVSPropertyOp7
 70
     1
102
RTVSPropertyOp8
 70
     1
102
RTVSPropertyOp9
 70
     1
102
RTVSPropertyOp10
 70
     1
102
RTVSPropertyOp11
 70
     1
102
RTVSPropertyOp12
 70
     1
102
RTVSPropertyOp13
 70
     1
102
RTVSPropertyOp14
 70
     1
102
RTVSPropertyOp15
 70
     1
102
RTVSPropertyOp16
 70
     1
102
RTVSPropertyOp17
 70
     1
102
RTVSPropertyOp18
 70
     1
102
RTVSPropertyOp19
 70
     1
102
RTVSPropertyOp20
 70
     1
102
RTVSPropertyOp21
 70
     1
102
RTVSPropertyOp22
 70
     1
102
RTVSPropertyOp23
 70
     1
102
RTVSPropertyOp24
 70
     1
102
RTVSPropertyOp25
 70
     1
102
RTVSPropertyOp26
 70
     1
102
RTVSPropertyOp27
 70
     1
102
RTVSPropertyOp28
 70
     1
102
RTVSPropertyOp29
 70
     1
102
RTVSPropertyOp30
 70
     1
102
RTVSPropertyOp31
 70
     1
102
RTVSPropertyOp32
 70
     1
102
RTVSPropertyOp33
 70
     1
102
RTVSPropertyOp34
 70
     1
102
RTVSPropertyOp35
 70
     1
102
RTVSPropertyOp36
 70
     1
102
RTVSPropertyOp37
 70
     1
102
RTVSPropertyOp38
 70
     1
102
RTVSPropertyOp39
 70
     1
102
RTVSPropertyOp40
 70
     1
102
RTVSPropertyOp41
 70
     1
102
RTVSPropertyOp42
 70
     1
102
RTVSPropertyOp43
 70
     1
102
RTVSPropertyOp44
 70
     1
102
RTVSPropertyOp45
 70
     1
102
RTVSPropertyOp46
 70
     1
102
RTVSPropertyOp47
 70
     1
102
RTVSPropertyOp48
 70
     1
102
RTVSPropertyOp49
 70
     1
102
RTVSPropertyOp50
 70
     1
102
RTVSPropertyOp51
 70
     0
102
RTVSPropertyOp52
 70
     0
102
RTVSPropertyOp53
 70
     1
102
RTVSPropertyOp54
 70
     1
102
RTVSPropertyOp55
 70
     1
102
RTVSPropertyOp56
 70
     1
102
RTVSPropertyOp57
 70
     1
102
RTVSPost2010Prop28
280
     0
102
RTVSPost2010PropOp28
 70
     1
102
RTVSPost2010Prop29
280
     1
102
RTVSPost2010PropOp29
 70
     1
102
RTVSPost2010Prop30
280
     1
102
RTVSPost2010PropOp30
 70
     1
102
RTVSPost2010Prop31
280
     0
102
RTVSPost2010PropOp31
 70
     1
102
RTVSPost2010Prop32
280
     0
102
RTVSPost2010PropOp32
 70
     1
102
RTVSPost2010Prop33
280
     0
102
RTVSPost2010PropOp33
 70
     1
102
RTVSPost2010Prop34
280
     0
102
RTVSPost2010PropOp34
 70
     1
102
RTVSPost2010Prop35
280
     0
102
RTVSPost2010PropOp35
 70
     1
102
RTVSPost2010Prop36
280
     0
102
RTVSPost2010PropOp36
 70
     1
102
RTVSPost2010Prop37
 90
       50
102
RTVSPost2010PropOp37
 70
     1
102
RTVSPost2010Prop38
140
0.0
102
RTVSPost2010PropOp38
 70
     1
102
RTVSPost2010Prop39
140
1.0
102
RTVSPost2010PropOp39
 70
     1
102
RTVSPost2010Prop40
 90
        0
102
RTVSPost2010PropOp40
 70
     1
102
RTVSPost2010Prop41ColorIndex
 90
       18
102
RTVSPost2010Prop41ColorRGB
 90
        0
102
RTVSPost2010PropOp41
 70
     1
102
RTVSPost2010Prop42
 90
       50
102
RTVSPost2010PropOp42
 70
     1
102
RTVSPost2010Prop43
 90
        3
102
RTVSPost2010PropOp43
 70
     1
102
RTVSPost2010Prop44ColorIndex
 90
        5
102
RTVSPost2010Prop44ColorRGB
 90
      255
102
RTVSPost2010PropOp44
 70
     1
102
RTVSPost2010Prop45
280
     0
102
RTVSPost2010PropOp45
 70
     1
102
RTVSPost2010Prop46
 90
       50
102
RTVSPost2010PropOp46
 70
     1
102
RTVSPost2010Prop47
 90
       50
102
RTVSPost2010PropOp47
 70
     1
102
RTVSPost2010Prop48
 90
       50
102
RTVSPost2010PropOp48
 70
     1
102
RTVSPost2010Prop49
280
     0
102
RTVSPost2010PropOp49
 70
     1
102
RTVSPost2010Prop50
 90
       50
102
RTVSPost2010PropOp50
 70
     1
102
RTVSPost2010Prop51ColorIndex
 90
      256
102
RTVSPost2010Prop51ColorRGB
 90
-16777216
102
RTVSPost2010PropOp51
 70
     0
102
RTVSPost2010Prop52
140
1.0
102
RTVSPost2010PropOp52
 70
     0
102
RTVSPost2010Prop53
 90
        2
102
RTVSPost2010PropOp53
 70
     1
102
RTVSPost2010Prop54
  1
strokes_ogs.tif
102
RTVSPost2010PropOp54
 70
     1
102
RTVSPost2010Prop55
280
     0
102
RTVSPost2010PropOp55
 70
     1
102
RTVSPost2010Prop56
140
1.0
102
RTVSPost2010PropOp56
 70
     1
102
RTVSPost2010Prop57
140
1.0
102
RTVSPost2010PropOp57
 70
     1
  0
XRECORD
  5
23F
102
{ACAD_REACTORS
330
23E
102
}
330
23E
100
AcDbXrecord
280
     1
102
RTVSPropertyOp0
 70
     1
102
RTVSPropertyOp1
 70
     1
102
RTVSPropertyOp2
 70
     1
102
RTVSPropertyOp3
 70
     1
102
RTVSPropertyOp4
 70
     1
102
RTVSPropertyOp5
 70
     1
102
RTVSPropertyOp6
 70
     1
102
RTVSPropertyOp7
 70
     1
102
RTVSPropertyOp8
 70
     1
102
RTVSPropertyOp9
 70
     1
102
RTVSPropertyOp10
 70
     1
102
RTVSPropertyOp11
 70
     1
102
RTVSPropertyOp12
 70
     1
102
RTVSPropertyOp13
 70
     1
102
RTVSPropertyOp14
 70
     1
102
RTVSPropertyOp15
 70
     1
102
RTVSPropertyOp16
 70
     1
102
RTVSPropertyOp17
 70
     1
102
RTVSPropertyOp18
 70
     1
102
RTVSPropertyOp19
 70
     1
102
RTVSPropertyOp20
 70
     1
102
RTVSPropertyOp21
 70
     1
102
RTVSPropertyOp22
 70
     1
102
RTVSPropertyOp23
 70
     1
102
RTVSPropertyOp24
 70
     1
102
RTVSPropertyOp25
 70
     1
102
RTVSPropertyOp26
 70
     1
102
RTVSPropertyOp27
 70
     1
102
RTVSPropertyOp28
 70
     1
102
RTVSPropertyOp29
 70
     1
102
RTVSPropertyOp30
 70
     1
102
RTVSPropertyOp31
 70
     1
102
RTVSPropertyOp32
 70
     1
102
RTVSPropertyOp33
 70
     1
102
RTVSPropertyOp34
 70
     1
102
RTVSPropertyOp35
 70
     1
102
RTVSPropertyOp36
 70
     1
102
RTVSPropertyOp37
 70
     1
102
RTVSPropertyOp38
 70
     1
102
RTVSPropertyOp39
 70
     1
102
RTVSPropertyOp40
 70
     1
102
RTVSPropertyOp41
 70
     1
102
RTVSPropertyOp42
 70
     1
102
RTVSPropertyOp43
 70
     1
102
RTVSPropertyOp44
 70
     1
102
RTVSPropertyOp45
 70
     1
102
RTVSPropertyOp46
 70
     1
102
RTVSPropertyOp47
 70
     1
102
RTVSPropertyOp48
 70
     1
102
RTVSPropertyOp49
 70
     1
102
RTVSPropertyOp50
 70
     1
102
RTVSPropertyOp51
 70
     0
102
RTVSPropertyOp52
 70
     0
102
RTVSPropertyOp53
 70
     1
102
RTVSPropertyOp54
 70
     1
102
RTVSPropertyOp55
 70
     1
102
RTVSPropertyOp56
 70
     1
102
RTVSPropertyOp57
 70
     1
102
RTVSPost2010Prop28
280
     0
102
RTVSPost2010PropOp28
 70
     1
102
RTVSPost2010Prop29
280
     1
102
RTVSPost2010PropOp29
 70
     1
102
RTVSPost2010Prop30
280
     1
102
RTVSPost2010PropOp30
 70
     1
102
RTVSPost2010Prop31
280
     0
102
RTVSPost2010PropOp31
 70
     1
102
RTVSPost2010Prop32
280
     0
102
RTVSPost2010PropOp32
 70
     1
102
RTVSPost2010Prop33
280
     0
102
RTVSPost2010PropOp33
 70
     1
102
RTVSPost2010Prop34
280
     0
102
RTVSPost2010PropOp34
 70
     1
102
RTVSPost2010Prop35
280
     0
102
RTVSPost2010PropOp35
 70
     1
102
RTVSPost2010Prop36
280
     0
102
RTVSPost2010PropOp36
 70
     1
102
RTVSPost2010Prop37
 90
       50
102
RTVSPost2010PropOp37
 70
     1
102
RTVSPost2010Prop38
140
0.0
102
RTVSPost2010PropOp38
 70
     1
102
RTVSPost2010Prop39
140
1.0
102
RTVSPost2010PropOp39
 70
     1
102
RTVSPost2010Prop40
 90
        0
102
RTVSPost2010PropOp40
 70
     1
102
RTVSPost2010Prop41ColorIndex
 90
       18
102
RTVSPost2010Prop41ColorRGB
 90
        0
102
RTVSPost2010PropOp41
 70
     1
102
RTVSPost2010Prop42
 90
       50
102
RTVSPost2010PropOp42
 70
     1
102
RTVSPost2010Prop43
 90
        3
102
RTVSPost2010PropOp43
 70
     1
102
RTVSPost2010Prop44ColorIndex
 90
        5
102
RTVSPost2010Prop44ColorRGB
 90
      255
102
RTVSPost2010PropOp44
 70
     1
102
RTVSPost2010Prop45
280
     0
102
RTVSPost2010PropOp45
 70
     1
102
RTVSPost2010Prop46
 90
       50
102
RTVSPost2010PropOp46
 70
     1
102
RTVSPost2010Prop47
 90
       50
102
RTVSPost2010PropOp47
 70
     1
102
RTVSPost2010Prop48
 90
       50
102
RTVSPost2010PropOp48
 70
     1
102
RTVSPost2010Prop49
280
     0
102
RTVSPost2010PropOp49
 70
     1
102
RTVSPost2010Prop50
 90
       50
102
RTVSPost2010PropOp50
 70
     1
102
RTVSPost2010Prop51ColorIndex
 90
      256
102
RTVSPost2010Prop51ColorRGB
 90
-16777216
102
RTVSPost2010PropOp51
 70
     0
102
RTVSPost2010Prop52
140
1.0
102
RTVSPost2010PropOp52
 70
     0
102
RTVSPost2010Prop53
 90
        2
102
RTVSPost2010PropOp53
 70
     1
102
RTVSPost2010Prop54
  1
strokes_ogs.tif
102
RTVSPost2010PropOp54
 70
     1
102
RTVSPost2010Prop55
280
     0
102
RTVSPost2010PropOp55
 70
     1
102
RTVSPost2010Prop56
140
1.0
102
RTVSPost2010PropOp56
 70
     1
102
RTVSPost2010Prop57
140
1.0
102
RTVSPost2010PropOp57
 70
     1
  0
XRECORD
  5
247
102
{ACAD_REACTORS
330
246
102
}
330
246
100
AcDbXrecord
280
     1
102
RTVSPropertyOp0
 70
     1
102
RTVSPropertyOp1
 70
     1
102
RTVSPropertyOp2
 70
     1
102
RTVSPropertyOp3
 70
     1
102
RTVSPropertyOp4
 70
     1
102
RTVSPropertyOp5
 70
     1
102
RTVSPropertyOp6
 70
     1
102
RTVSPropertyOp7
 70
     1
102
RTVSPropertyOp8
 70
     1
102
RTVSPropertyOp9
 70
     1
102
RTVSPropertyOp10
 70
     1
102
RTVSPropertyOp11
 70
     1
102
RTVSPropertyOp12
 70
     1
102
RTVSPropertyOp13
 70
     1
102
RTVSPropertyOp14
 70
     1
102
RTVSPropertyOp15
 70
     1
102
RTVSPropertyOp16
 70
     1
102
RTVSPropertyOp17
 70
     1
102
RTVSPropertyOp18
 70
     1
102
RTVSPropertyOp19
 70
     1
102
RTVSPropertyOp20
 70
     1
102
RTVSPropertyOp21
 70
     1
102
RTVSPropertyOp22
 70
     1
102
RTVSPropertyOp23
 70
     1
102
RTVSPropertyOp24
 70
     1
102
RTVSPropertyOp25
 70
     1
102
RTVSPropertyOp26
 70
     1
102
RTVSPropertyOp27
 70
     1
102
RTVSPropertyOp28
 70
     1
102
RTVSPropertyOp29
 70
     1
102
RTVSPropertyOp30
 70
     1
102
RTVSPropertyOp31
 70
     1
102
RTVSPropertyOp32
 70
     1
102
RTVSPropertyOp33
 70
     1
102
RTVSPropertyOp34
 70
     1
102
RTVSPropertyOp35
 70
     1
102
RTVSPropertyOp36
 70
     1
102
RTVSPropertyOp37
 70
     1
102
RTVSPropertyOp38
 70
     1
102
RTVSPropertyOp39
 70
     1
102
RTVSPropertyOp40
 70
     1
102
RTVSPropertyOp41
 70
     1
102
RTVSPropertyOp42
 70
     1
102
RTVSPropertyOp43
 70
     1
102
RTVSPropertyOp44
 70
     1
102
RTVSPropertyOp45
 70
     1
102
RTVSPropertyOp46
 70
     1
102
RTVSPropertyOp47
 70
     1
102
RTVSPropertyOp48
 70
     1
102
RTVSPropertyOp49
 70
     1
102
RTVSPropertyOp50
 70
     1
102
RTVSPropertyOp51
 70
     0
102
RTVSPropertyOp52
 70
     0
102
RTVSPropertyOp53
 70
     1
102
RTVSPropertyOp54
 70
     1
102
RTVSPropertyOp55
 70
     1
102
RTVSPropertyOp56
 70
     1
102
RTVSPropertyOp57
 70
     1
102
RTVSPost2010Prop28
280
     0
102
RTVSPost2010PropOp28
 70
     1
102
RTVSPost2010Prop29
280
     1
102
RTVSPost2010PropOp29
 70
     1
102
RTVSPost2010Prop30
280
     1
102
RTVSPost2010PropOp30
 70
     1
102
RTVSPost2010Prop31
280
     0
102
RTVSPost2010PropOp31
 70
     1
102
RTVSPost2010Prop32
280
     0
102
RTVSPost2010PropOp32
 70
     1
102
RTVSPost2010Prop33
280
     0
102
RTVSPost2010PropOp33
 70
     1
102
RTVSPost2010Prop34
280
     0
102
RTVSPost2010PropOp34
 70
     1
102
RTVSPost2010Prop35
280
     0
102
RTVSPost2010PropOp35
 70
     1
102
RTVSPost2010Prop36
280
     0
102
RTVSPost2010PropOp36
 70
     1
102
RTVSPost2010Prop37
 90
       50
102
RTVSPost2010PropOp37
 70
     1
102
RTVSPost2010Prop38
140
0.0
102
RTVSPost2010PropOp38
 70
     1
102
RTVSPost2010Prop39
140
1.0
102
RTVSPost2010PropOp39
 70
     1
102
RTVSPost2010Prop40
 90
        0
102
RTVSPost2010PropOp40
 70
     1
102
RTVSPost2010Prop41ColorIndex
 90
       18
102
RTVSPost2010Prop41ColorRGB
 90
        0
102
RTVSPost2010PropOp41
 70
     1
102
RTVSPost2010Prop42
 90
       50
102
RTVSPost2010PropOp42
 70
     1
102
RTVSPost2010Prop43
 90
        3
102
RTVSPost2010PropOp43
 70
     1
102
RTVSPost2010Prop44ColorIndex
 90
        5
102
RTVSPost2010Prop44ColorRGB
 90
      255
102
RTVSPost2010PropOp44
 70
     1
102
RTVSPost2010Prop45
280
     0
102
RTVSPost2010PropOp45
 70
     1
102
RTVSPost2010Prop46
 90
       50
102
RTVSPost2010PropOp46
 70
     1
102
RTVSPost2010Prop47
 90
       50
102
RTVSPost2010PropOp47
 70
     1
102
RTVSPost2010Prop48
 90
       50
102
RTVSPost2010PropOp48
 70
     1
102
RTVSPost2010Prop49
280
     0
102
RTVSPost2010PropOp49
 70
     1
102
RTVSPost2010Prop50
 90
       50
102
RTVSPost2010PropOp50
 70
     1
102
RTVSPost2010Prop51ColorIndex
 90
      256
102
RTVSPost2010Prop51ColorRGB
 90
-16777216
102
RTVSPost2010PropOp51
 70
     0
102
RTVSPost2010Prop52
140
1.0
102
RTVSPost2010PropOp52
 70
     0
102
RTVSPost2010Prop53
 90
        2
102
RTVSPost2010PropOp53
 70
     1
102
RTVSPost2010Prop54
  1
strokes_ogs.tif
102
RTVSPost2010PropOp54
 70
     1
102
RTVSPost2010Prop55
280
     0
102
RTVSPost2010PropOp55
 70
     1
102
RTVSPost2010Prop56
140
1.0
102
RTVSPost2010PropOp56
 70
     1
102
RTVSPost2010Prop57
140
1.0
102
RTVSPost2010PropOp57
 70
     1
  0
ENDSEC
  0
EOF
