  0
SECTION
  2
HEADER
  9
$ACADVER
  1
AC1018
  9
$ACADMAINTVER
 70
     0
  9
$DWGCODEPAGE
  3
ANSI_1252
  9
$INSBASE
 10
0.0
 20
0.0
 30
0.0
  9
$EXTMIN
 10
319.7411807768561
 20
271.597937306856
 30
0.0
  9
$EXTMAX
 10
535.7411807768558
 20
410.4597116319417
 30
0.0
  9
$LIMMIN
 10
0.0
 20
0.0
  9
$LIMMAX
 10
12.0
 20
9.0
  9
$ORTHOMODE
 70
     0
  9
$REGENMODE
 70
     1
  9
$FILLMODE
 70
     1
  9
$QTEXTMODE
 70
     0
  9
$MIRRTEXT
 70
     1
  9
$LTSCALE
 40
1.0
  9
$ATTMODE
 70
     1
  9
$TEXTSIZE
 40
0.2
  9
$TRACEWID
 40
0.05
  9
$TEXTSTYLE
  7
Standard
  9
$CLAYER
  8
0
  9
$CELTYPE
  6
ByLayer
  9
$CECOLOR
 62
   256
  9
$CELTSCALE
 40
1.0
  9
$DISPSILH
 70
     0
  9
$DIMSCALE
 40
1.0
  9
$DIMASZ
 40
0.18
  9
$DIMEXO
 40
0.0625
  9
$DIMDLI
 40
0.38
  9
$DIMRND
 40
0.0
  9
$DIMDLE
 40
0.0
  9
$DIMEXE
 40
0.18
  9
$DIMTP
 40
0.0
  9
$DIMTM
 40
0.0
  9
$DIMTXT
 40
0.18
  9
$DIMCEN
 40
0.09
  9
$DIMTSZ
 40
0.0
  9
$DIMTOL
 70
     0
  9
$DIMLIM
 70
     0
  9
$DIMTIH
 70
     1
  9
$DIMTOH
 70
     1
  9
$DIMSE1
 70
     0
  9
$DIMSE2
 70
     0
  9
$DIMTAD
 70
     0
  9
$DIMZIN
 70
     0
  9
$DIMBLK
  1

  9
$DIMASO
 70
     1
  9
$DIMSHO
 70
     1
  9
$DIMPOST
  1

  9
$DIMAPOST
  1

  9
$DIMALT
 70
     0
  9
$DIMALTD
 70
     2
  9
$DIMALTF
 40
25.4
  9
$DIMLFAC
 40
1.0
  9
$DIMTOFL
 70
     0
  9
$DIMTVP
 40
0.0
  9
$DIMTIX
 70
     0
  9
$DIMSOXD
 70
     0
  9
$DIMSAH
 70
     0
  9
$DIMBLK1
  1

  9
$DIMBLK2
  1

  9
$DIMSTYLE
  2
Standard
  9
$DIMCLRD
 70
     0
  9
$DIMCLRE
 70
     0
  9
$DIMCLRT
 70
     0
  9
$DIMTFAC
 40
1.0
  9
$DIMGAP
 40
0.09
  9
$DIMJUST
 70
     0
  9
$DIMSD1
 70
     0
  9
$DIMSD2
 70
     0
  9
$DIMTOLJ
 70
     1
  9
$DIMTZIN
 70
     0
  9
$DIMALTZ
 70
     0
  9
$DIMALTTZ
 70
     0
  9
$DIMUPT
 70
     0
  9
$DIMDEC
 70
     4
  9
$DIMTDEC
 70
     4
  9
$DIMALTU
 70
     2
  9
$DIMALTTD
 70
     2
  9
$DIMTXSTY
  7
Standard
  9
$DIMAUNIT
 70
     0
  9
$DIMADEC
 70
     0
  9
$DIMALTRND
 40
0.0
  9
$DIMAZIN
 70
     0
  9
$DIMDSEP
 70
    46
  9
$DIMATFIT
 70
     3
  9
$DIMFRAC
 70
     0
  9
$DIMLDRBLK
  1

  9
$DIMLUNIT
 70
     2
  9
$DIMLWD
 70
    -2
  9
$DIMLWE
 70
    -2
  9
$DIMTMOVE
 70
     2
  9
$LUNITS
 70
     2
  9
$LUPREC
 70
     3
  9
$SKETCHINC
 40
0.1
  9
$FILLETRAD
 40
0.5
  9
$AUNITS
 70
     0
  9
$AUPREC
 70
     0
  9
$MENU
  1
.
  9
$ELEVATION
 40
0.0
  9
$PELEVATION
 40
0.0
  9
$THICKNESS
 40
0.0
  9
$LIMCHECK
 70
     0
  9
$CHAMFERA
 40
0.5
  9
$CHAMFERB
 40
0.5
  9
$CHAMFERC
 40
1.0
  9
$CHAMFERD
 40
0.0
  9
$SKPOLY
 70
     0
  9
$TDCREATE
 40
2457604.993435475
  9
$TDUCREATE
 40
2457604.660102141
  9
$TDUPDATE
 40
2457604.993435648
  9
$TDUUPDATE
 40
2457604.660102315
  9
$TDINDWG
 40
0.0000000116
  9
$TDUSRTIMER
 40
0.0000000116
  9
$USRTIMER
 70
     1
  9
$ANGBASE
 50
0.0
  9
$ANGDIR
 70
     0
  9
$PDMODE
 70
     0
  9
$PDSIZE
 40
0.0
  9
$PLINEWID
 40
0.0
  9
$SPLFRAME
 70
     0
  9
$SPLINETYPE
 70
     6
  9
$SPLINESEGS
 70
     8
  9
$HANDSEED
  5
226
  9
$SURFTAB1
 70
     6
  9
$SURFTAB2
 70
     6
  9
$SURFTYPE
 70
     6
  9
$SURFU
 70
     6
  9
$SURFV
 70
     6
  9
$UCSBASE
  2

  9
$UCSNAME
  2

  9
$UCSORG
 10
0.0
 20
0.0
 30
0.0
  9
$UCSXDIR
 10
1.0
 20
0.0
 30
0.0
  9
$UCSYDIR
 10
0.0
 20
1.0
 30
0.0
  9
$UCSORTHOREF
  2

  9
$UCSORTHOVIEW
 70
     0
  9
$UCSORGTOP
 10
0.0
 20
0.0
 30
0.0
  9
$UCSORGBOTTOM
 10
0.0
 20
0.0
 30
0.0
  9
$UCSORGLEFT
 10
0.0
 20
0.0
 30
0.0
  9
$UCSORGRIGHT
 10
0.0
 20
0.0
 30
0.0
  9
$UCSORGFRONT
 10
0.0
 20
0.0
 30
0.0
  9
$UCSORGBACK
 10
0.0
 20
0.0
 30
0.0
  9
$PUCSBASE
  2

  9
$PUCSNAME
  2

  9
$PUCSORG
 10
0.0
 20
0.0
 30
0.0
  9
$PUCSXDIR
 10
1.0
 20
0.0
 30
0.0
  9
$PUCSYDIR
 10
0.0
 20
1.0
 30
0.0
  9
$PUCSORTHOREF
  2

  9
$PUCSORTHOVIEW
 70
     0
  9
$PUCSORGTOP
 10
0.0
 20
0.0
 30
0.0
  9
$PUCSORGBOTTOM
 10
0.0
 20
0.0
 30
0.0
  9
$PUCSORGLEFT
 10
0.0
 20
0.0
 30
0.0
  9
$PUCSORGRIGHT
 10
0.0
 20
0.0
 30
0.0
  9
$PUCSORGFRONT
 10
0.0
 20
0.0
 30
0.0
  9
$PUCSORGBACK
 10
0.0
 20
0.0
 30
0.0
  9
$USERI1
 70
     0
  9
$USERI2
 70
     0
  9
$USERI3
 70
     0
  9
$USERI4
 70
     0
  9
$USERI5
 70
     0
  9
$USERR1
 40
0.0
  9
$USERR2
 40
0.0
  9
$USERR3
 40
0.0
  9
$USERR4
 40
0.0
  9
$USERR5
 40
0.0
  9
$WORLDVIEW
 70
     1
  9
$SHADEDGE
 70
     3
  9
$SHADEDIF
 70
    70
  9
$TILEMODE
 70
     1
  9
$MAXACTVP
 70
    64
  9
$PINSBASE
 10
0.0
 20
0.0
 30
0.0
  9
$PLIMCHECK
 70
     0
  9
$PEXTMIN
 10
1.000000000000000E+20
 20
1.000000000000000E+20
 30
1.000000000000000E+20
  9
$PEXTMAX
 10
-1.000000000000000E+20
 20
-1.000000000000000E+20
 30
-1.000000000000000E+20
  9
$PLIMMIN
 10
0.0
 20
0.0
  9
$PLIMMAX
 10
12.0
 20
9.0
  9
$UNITMODE
 70
     0
  9
$VISRETAIN
 70
     1
  9
$PLINEGEN
 70
     0
  9
$PSLTSCALE
 70
     1
  9
$TREEDEPTH
 70
  3020
  9
$CMLSTYLE
  2
Standard
  9
$CMLJUST
 70
     0
  9
$CMLSCALE
 40
1.0
  9
$PROXYGRAPHICS
 70
     1
  9
$MEASUREMENT
 70
     0
  9
$CELWEIGHT
370
    -1
  9
$ENDCAPS
280
     0
  9
$JOINSTYLE
280
     0
  9
$LWDISPLAY
290
     0
  9
$INSUNITS
 70
     4
  9
$HYPERLINKBASE
  1

  9
$STYLESHEET
  1

  9
$XEDIT
290
     1
  9
$CEPSNTYPE
380
     0
  9
$PSTYLEMODE
290
     1
  9
$FINGERPRINTGUID
  2
{B0E1A4B0-CC5F-46B0-B575-78BD2D8A3014}
  9
$VERSIONGUID
  2
{FAEB1C32-E019-11D5-929B-00C0DF256EC4}
  9
$EXTNAMES
290
     1
  9
$PSVPSCALE
 40
0.0
  9
$OLESTARTUP
290
     0
  9
$SORTENTS
280
   127
  9
$INDEXCTL
280
     0
  9
$HIDETEXT
280
     1
  9
$XCLIPFRAME
290
     0
  9
$HALOGAP
280
     0
  9
$OBSCOLOR
 70
   257
  9
$OBSLTYPE
280
     0
  9
$INTERSECTIONDISPLAY
280
     0
  9
$INTERSECTIONCOLOR
 70
   257
  9
$DIMASSOC
280
     2
  9
$PROJECTNAME
  1

  0
ENDSEC
  0
SECTION
  2
CLASSES
  0
CLASS
  1
ACDBDICTIONARYWDFLT
  2
AcDbDictionaryWithDefault
  3
ObjectDBX Classes
 90
        0
 91
        4
280
     0
281
     0
  0
CLASS
  1
VISUALSTYLE
  2
AcDbVisualStyle
  3
ObjectDBX Classes
 90
     4095
 91
        4
280
     0
281
     0
  0
CLASS
  1
MATERIAL
  2
AcDbMaterial
  3
ObjectDBX Classes
 90
     1153
 91
        4
280
     0
281
     0
  0
CLASS
  1
SCALE
  2
AcDbScale
  3
ObjectDBX Classes
 90
     1153
 91
        4
280
     0
281
     0
  0
CLASS
  1
SUN
  2
AcDbSun
  3
SCENEOE
 90
     1153
 91
        4
280
     0
281
     0
  0
CLASS
  1
DICTIONARYVAR
  2
AcDbDictionaryVar
  3
ObjectDBX Classes
 90
        0
 91
        4
280
     0
281
     0
  0
ENDSEC
  0
SECTION
  2
TABLES
  0
TABLE
  2
VPORT
  5
8
330
0
100
AcDbSymbolTable
 70
     1
  0
VPORT
  5
29
330
8
100
AcDbSymbolTableRecord
100
AcDbViewportTableRecord
  2
*Active
 70
     0
 10
0.0
 20
0.0
 11
1.0
 21
1.0
 12
427.7411807768559
 22
341.0288185084713
 13
0.0
 23
0.0
 14
0.5
 24
0.5
 15
0.5
 25
0.5
 16
0.0
 26
0.0
 36
1.0
 17
0.0
 27
0.0
 37
0.0
 40
141.6389976512951
 41
1.555503806532234
 42
50.0
 43
0.0
 44
0.0
 50
0.0
 51
0.0
 71
     0
 72
   100
 73
     1
 74
     3
 75
     0
 76
     0
 77
     0
 78
     0
281
     0
 65
     1
110
0.0
120
0.0
130
0.0
111
1.0
121
0.0
131
0.0
112
0.0
122
1.0
132
0.0
 79
     0
146
0.0
  0
ENDTAB
  0
TABLE
  2
LTYPE
  5
5
330
0
100
AcDbSymbolTable
 70
     1
  0
LTYPE
  5
14
330
5
100
AcDbSymbolTableRecord
100
AcDbLinetypeTableRecord
  2
ByBlock
 70
     0
  3

 72
    65
 73
     0
 40
0.0
  0
LTYPE
  5
15
330
5
100
AcDbSymbolTableRecord
100
AcDbLinetypeTableRecord
  2
ByLayer
 70
     0
  3

 72
    65
 73
     0
 40
0.0
  0
LTYPE
  5
16
330
5
100
AcDbSymbolTableRecord
100
AcDbLinetypeTableRecord
  2
Continuous
 70
     0
  3
Solid line
 72
    65
 73
     0
 40
0.0
  0
ENDTAB
  0
TABLE
  2
LAYER
  5
2
330
0
100
AcDbSymbolTable
 70
     2
  0
LAYER
  5
10
330
2
100
AcDbSymbolTableRecord
100
AcDbLayerTableRecord
  2
0
 70
     0
 62
     7
  6
Continuous
370
    -3
390
F
  0
LAYER
  5
62
330
2
100
AcDbSymbolTableRecord
100
AcDbLayerTableRecord
  2
Make2D$___$___
 70
     0
 62
    18
420
        0
  6
Continuous
370
    -3
390
F
  0
ENDTAB
  0
TABLE
  2
STYLE
  5
3
330
0
100
AcDbSymbolTable
 70
     1
  0
STYLE
  5
11
330
3
100
AcDbSymbolTableRecord
100
AcDbTextStyleTableRecord
  2
Standard
 70
     0
 40
0.0
 41
1.0
 50
0.0
 71
     0
 42
0.2
  3
txt
  4

  0
ENDTAB
  0
TABLE
  2
VIEW
  5
6
330
0
100
AcDbSymbolTable
 70
     0
  0
ENDTAB
  0
TABLE
  2
UCS
  5
7
330
0
100
AcDbSymbolTable
 70
     0
  0
ENDTAB
  0
TABLE
  2
APPID
  5
9
330
0
100
AcDbSymbolTable
 70
     1
  0
APPID
  5
12
330
9
100
AcDbSymbolTableRecord
100
AcDbRegAppTableRecord
  2
ACAD
 70
     0
  0
ENDTAB
  0
TABLE
  2
DIMSTYLE
  5
A
330
0
100
AcDbSymbolTable
 70
     1
100
AcDbDimStyleTable
  0
DIMSTYLE
105
27
330
A
100
AcDbSymbolTableRecord
100
AcDbDimStyleTableRecord
  2
Standard
 70
     0
178
     0
340
11
  0
ENDTAB
  0
TABLE
  2
BLOCK_RECORD
  5
1
330
0
100
AcDbSymbolTable
 70
     1
  0
BLOCK_RECORD
  5
1F
330
1
100
AcDbSymbolTableRecord
100
AcDbBlockTableRecord
  2
*Model_Space
340
22
  0
BLOCK_RECORD
  5
1B
330
1
100
AcDbSymbolTableRecord
100
AcDbBlockTableRecord
  2
*Paper_Space
340
1E
  0
BLOCK_RECORD
  5
23
330
1
100
AcDbSymbolTableRecord
100
AcDbBlockTableRecord
  2
*Paper_Space0
340
26
  0
ENDTAB
  0
ENDSEC
  0
SECTION
  2
BLOCKS
  0
BLOCK
  5
20
330
1F
100
AcDbEntity
  8
0
100
AcDbBlockBegin
  2
*Model_Space
 70
     0
 10
0.0
 20
0.0
 30
0.0
  3
*Model_Space
  1
*Model_Space
  0
ENDBLK
  5
21
330
1F
100
AcDbEntity
  8
0
100
AcDbBlockEnd
  0
BLOCK
  5
1C
330
1B
100
AcDbEntity
 67
     1
  8
0
100
AcDbBlockBegin
  2
*Paper_Space
 70
     0
 10
0.0
 20
0.0
 30
0.0
  3
*Paper_Space
  1
*Paper_Space
  0
ENDBLK
  5
1D
330
1B
100
AcDbEntity
 67
     1
  8
0
100
AcDbBlockEnd
  0
BLOCK
  5
24
330
23
100
AcDbEntity
  8
0
100
AcDbBlockBegin
  2
*Paper_Space0
 70
     0
 10
0.0
 20
0.0
 30
0.0
  3
*Paper_Space0
  1
*Paper_Space0
  0
ENDBLK
  5
25
330
23
100
AcDbEntity
  8
0
100
AcDbBlockEnd
  0
ENDSEC
  0
SECTION
  2
ENTITIES
  0
SPLINE
  5
63
330
1F
100
AcDbEntity
  8
Make2D$___$___
100
AcDbSpline
210
0.0
220
0.0
230
1.0
 70
     8
 71
     3
 72
    12
 73
     8
 74
     0
 42
0.000000001
 43
0.0000000001
 12
1.0
 22
0.0
 32
0.0
 13
1.0
 23
0.0
 33
0.0
 40
0.0
 40
0.0
 40
0.0
 40
0.0
 40
0.433052556794641
 40
0.9014355954805287
 40
1.884156551777256
 40
5.268324573378032
 40
6.2018168758396
 40
6.2018168758396
 40
6.2018168758396
 40
6.2018168758396
 10
407.0161725538991
 20
321.1951935033336
 30
0.0
 10
406.8725973699987
 20
321.1807640409999
 30
0.0
 10
406.5730025829234
 20
321.1555178909124
 30
0.0
 10
405.9457388689299
 20
321.1255793389998
 30
0.0
 10
404.3330876346541
 20
321.1233201541933
 30
0.0
 10
402.5700084758187
 20
321.2562254229853
 30
0.0
 10
401.1316565782346
 20
321.3007421762888
 30
0.0
 10
400.8203019873653
 20
321.297937334015
 30
0.0
  0
LINE
  5
64
330
1F
100
AcDbEntity
  8
Make2D$___$___
100
AcDbLine
 10
400.8203019873653
 20
321.2979373340149
 30
0.0
 11
398.9171713738994
 21
321.2979373068571
 31
0.0
  0
LINE
  5
65
330
1F
100
AcDbEntity
  8
Make2D$___$___
100
AcDbLine
 10
407.333582022279
 20
321.1776304777809
 30
0.0
 11
407.3090635970826
 21
321.165899615698
 31
0.0
  0
ARC
  5
66
330
1F
100
AcDbEntity
  8
Make2D$___$___
100
AcDbCircle
 10
407.8941798169875
 20
320.3574387225396
 30
0.0
 40
0.966981183999714
100
AcDbArc
 50
157.9690899727963
 51
181.2977914997975
  0
SPLINE
  5
67
330
1F
100
AcDbEntity
  8
Make2D$___$___
100
AcDbSpline
210
0.0
220
0.0
230
1.0
 70
     8
 71
     3
 72
    53
 73
    49
 74
     0
 42
0.000000001
 43
0.0000000001
 12
1.0
 22
0.0
 32
0.0
 13
1.0
 23
0.0
 33
0.0
 40
0.0000000195497293
 40
0.0000000195497293
 40
0.0000000195497293
 40
0.0000000195497293
 40
1.871311192991313
 40
1.871311192991313
 40
1.871311192991313
 40
3.743873709298768
 40
3.743873709298768
 40
3.743873709298768
 40
3.8999411662263
 40
3.8999411662263
 40
3.8999411662263
 40
5.616178420348476
 40
5.616178420348476
 40
5.616178420348476
 40
7.486143466172721
 40
7.486143466172721
 40
7.486143466172721
 40
8.419584985576673
 40
8.419584985576673
 40
8.419584985576673
 40
9.352050310153295
 40
9.352050310153295
 40
9.352050310153295
 40
10.28357635745841
 40
10.28357635745841
 40
10.28357635745841
 40
11.2140155916195
 40
11.2140155916195
 40
11.2140155916195
 40
11.67885278280597
 40
11.67885278280597
 40
11.67885278280597
 40
12.1435179632865
 40
12.1435179632865
 40
12.1435179632865
 40
12.60841588121835
 40
12.60841588121835
 40
12.60841588121835
 40
13.07391485229348
 40
13.07391485229348
 40
13.07391485229348
 40
13.30705780885861
 40
13.30705780885861
 40
13.30705780885861
 40
13.42499916102442
 40
13.42499916102442
 40
13.42499916102442
 40
13.48371701706667
 40
13.48371701706667
 40
13.48371701706667
 40
13.48371701706667
 10
407.7338474431796
 20
322.1193943964594
 30
0.0
 10
407.7041434058502
 20
322.0207308639988
 30
0.0
 10
407.6751099294454
 20
321.9300524141778
 30
0.0
 10
407.646847043022
 20
321.8474696457588
 30
0.0
 10
407.6185105849866
 20
321.7646719046966
 30
0.0
 10
407.5907294774638
 20
321.6893314475892
 30
0.0
 10
407.5637577662039
 20
321.6212906634019
 30
0.0
 10
407.5615118082154
 20
321.6156248477879
 30
0.0
 10
407.5593493033489
 20
321.6102042255612
 30
0.0
 10
407.5571160186278
 20
321.6046417525037
 30
0.0
 10
407.532015548176
 20
321.5421236645515
 30
0.0
 10
407.5092771547415
 20
321.489689754154
 30
0.0
 10
407.4860620453936
 20
321.439898140942
 30
0.0
 10
407.4614428894649
 20
321.387095137896
 30
0.0
 10
407.4382605775198
 20
321.3420015339592
 30
0.0
 10
407.4178682843342
 20
321.3056227429178
 30
0.0
 10
407.4076806775086
 20
321.2874485818977
 30
0.0
 10
407.3980408743409
 20
321.271157826695
 30
0.0
 10
407.3890321263999
 20
321.2566395394986
 30
0.0
 10
407.3800343388374
 20
321.2421389157917
 30
0.0
 10
407.3717330441007
 20
321.2295170781647
 30
0.0
 10
407.3642846222966
 20
321.2187314781403
 30
0.0
 10
407.3568447812381
 20
321.2079583033642
 30
0.0
 10
407.3498959148501
 20
321.1984813717744
 30
0.0
 10
407.3432300881452
 20
321.1898336764028
 30
0.0
 10
407.3365733642696
 20
321.1811977902933
 30
0.0
 10
407.3297889462315
 20
321.1728539433346
 30
0.0
 10
407.3224277059145
 20
321.1642366129182
 30
0.0
 10
407.318750684058
 20
321.1599321600107
 30
0.0
 10
407.3148409663694
 20
321.1554590488294
 30
0.0
 10
407.3107229667932
 20
321.1508514953015
 30
0.0
 10
407.3066067742008
 20
321.1462459635744
 30
0.0
 10
407.3021583814659
 20
321.1413674514657
 30
0.0
 10
407.297377409909
 20
321.1362212188104
 30
0.0
 10
407.292617870522
 20
321.1310980557198
 30
0.0
 10
407.2886535842534
 20
321.1269295416351
 30
0.0
 10
407.2860267993194
 20
321.1242214480333
 30
0.0
 10
407.2833832868426
 20
321.1214961091096
 30
0.0
 10
407.2814657817866
 20
321.1195959921722
 30
0.0
 10
407.2805150028134
 20
321.1186712428595
 30
0.0
 10
407.2800364260597
 20
321.1182057681945
 30
0.0
 10
407.2740964322447
 20
321.1125772794408
 30
0.0
 10
407.2623964105902
 20
321.1009848700591
 30
0.0
 10
407.2564937284998
 20
321.095136478555
 30
0.0
 10
407.2495552881118
 20
321.0881625939851
 30
0.0
 10
407.2416895236735
 20
321.0800143936412
 30
0.0
 10
407.2382503799756
 20
321.0764517606535
 30
0.0
 10
407.2353032219929
 20
321.0733651829114
 30
0.0
 10
407.2333729340212
 20
321.0713348196503
 30
0.0
  0
ARC
  5
68
330
1F
100
AcDbEntity
  8
Make2D$___$___
100
AcDbCircle
 10
407.9227877628638
 20
320.3668609750885
 30
0.0
 40
0.9823408719530305
100
AcDbArc
 50
157.9803195952116
 51
181.3263380909186
  0
ARC
  5
69
330
1F
100
AcDbEntity
  8
Make2D$___$___
100
AcDbCircle
 10
407.9648804051537
 20
320.3502925189007
 30
0.0
 40
1.027575312670013
100
AcDbArc
 50
135.4127208199721
 51
157.9921316991163
  0
LINE
  5
6A
330
1F
100
AcDbEntity
  8
Make2D$___$___
100
AcDbLine
 10
401.153962511201
 20
321.3081591433626
 30
0.0
 11
400.9988446934067
 21
321.2983903818424
 31
0.0
  0
LINE
  5
6B
330
1F
100
AcDbEntity
  8
Make2D$___$___
100
AcDbLine
 10
401.3352652417365
 20
321.3279748129844
 30
0.0
 11
401.153962511201
 21
321.3081591433626
 31
0.0
  0
LINE
  5
6C
330
1F
100
AcDbEntity
  8
Make2D$___$___
100
AcDbLine
 10
417.241180776856
 20
273.2295182384855
 30
0.0
 11
417.241180776856
 21
273.5728356660396
 31
0.0
  0
LINE
  5
6D
330
1F
100
AcDbEntity
  8
Make2D$___$___
100
AcDbLine
 10
417.241180776856
 20
274.8228135091248
 30
0.0
 11
417.241180776856
 21
275.1728565991534
 31
0.0
  0
LINE
  5
6E
330
1F
100
AcDbEntity
  8
Make2D$___$___
100
AcDbLine
 10
417.2411807768559
 20
276.4230146217267
 30
0.0
 11
417.241180776856
 21
276.7731814198845
 31
0.0
  0
LINE
  5
6F
330
1F
100
AcDbEntity
  8
Make2D$___$___
100
AcDbLine
 10
417.241180776856
 20
278.0226901600269
 30
0.0
 11
417.241180776856
 21
278.3732298168632
 31
0.0
  0
LINE
  5
70
330
1F
100
AcDbEntity
  8
Make2D$___$___
100
AcDbLine
 10
417.241180776856
 20
279.622642432271
 30
0.0
 11
417.2411807768559
 21
279.9732109151806
 31
0.0
  0
LINE
  5
71
330
1F
100
AcDbEntity
  8
Make2D$___$___
100
AcDbLine
 10
417.241180776856
 20
281.2226649683445
 30
0.0
 11
417.241180776856
 21
281.5732005629235
 31
0.0
  0
LINE
  5
72
330
1F
100
AcDbEntity
  8
Make2D$___$___
100
AcDbLine
 10
417.241180776856
 20
282.8226744297247
 30
0.0
 11
417.241180776856
 21
294.097937306857
 31
0.0
  0
LINE
  5
73
330
1F
100
AcDbEntity
  8
Make2D$___$___
100
AcDbLine
 10
436.741180776856
 20
271.597937306857
 30
0.0
 11
438.0243965815216
 21
272.8811531115227
 31
0.0
  0
LINE
  5
74
330
1F
100
AcDbEntity
  8
Make2D$___$___
100
AcDbLine
 10
438.1927670781264
 20
277.192824233515
 30
0.0
 11
437.0273073479887
 21
276.5851847264387
 31
0.0
  0
LINE
  5
75
330
1F
100
AcDbEntity
  8
Make2D$___$___
100
AcDbLine
 10
438.1932542365587
 20
275.5923107390384
 30
0.0
 11
437.0300552055919
 21
274.9860268951292
 31
0.0
  0
LINE
  5
76
330
1F
100
AcDbEntity
  8
Make2D$___$___
100
AcDbLine
 10
438.1926672924039
 20
273.9931083322012
 30
0.0
 11
437.0281961343002
 21
273.3859531354421
 31
0.0
  0
LINE
  5
77
330
1F
100
AcDbEntity
  8
Make2D$___$___
100
AcDbLine
 10
418.4371664678818
 20
275.7934333842468
 30
0.0
 11
417.2538116551042
 21
276.4102460503744
 31
0.0
  0
LINE
  5
78
330
1F
100
AcDbEntity
  8
Make2D$___$___
100
AcDbLine
 10
418.4433211316763
 20
274.1918048265033
 30
0.0
 11
417.2546001176324
 21
274.8115558168261
 31
0.0
  0
LINE
  5
79
330
1F
100
AcDbEntity
  8
Make2D$___$___
100
AcDbLine
 10
418.4392210725975
 20
272.592547324532
 30
0.0
 11
417.2538129434654
 21
273.2104696354089
 31
0.0
  0
LINE
  5
7A
330
1F
100
AcDbEntity
  8
Make2D$___$___
100
AcDbLine
 10
438.241180776856
 20
282.0226915644134
 30
0.0
 11
438.241180776856
 21
294.097937306857
 31
0.0
  0
LINE
  5
7B
330
1F
100
AcDbEntity
  8
Make2D$___$___
100
AcDbLine
 10
438.241180776856
 20
274.0227192436085
 30
0.0
 11
438.241180776856
 21
274.3728164027834
 31
0.0
  0
LINE
  5
7C
330
1F
100
AcDbEntity
  8
Make2D$___$___
100
AcDbLine
 10
438.241180776856
 20
275.6230611758767
 30
0.0
 11
438.241180776856
 21
275.9727782435216
 31
0.0
  0
LINE
  5
7D
330
1F
100
AcDbEntity
  8
Make2D$___$___
100
AcDbLine
 10
438.241180776856
 20
277.2231104312488
 30
0.0
 11
438.241180776856
 21
277.5731918959933
 31
0.0
  0
LINE
  5
7E
330
1F
100
AcDbEntity
  8
Make2D$___$___
100
AcDbLine
 10
438.2411807768559
 20
278.8226834069408
 30
0.0
 11
438.2411807768559
 21
279.1732458390068
 31
0.0
  0
LINE
  5
7F
330
1F
100
AcDbEntity
  8
Make2D$___$___
100
AcDbLine
 10
438.241180776856
 20
280.4226325367693
 30
0.0
 11
438.241180776856
 21
280.7731797590542
 31
0.0
  0
LINE
  5
80
330
1F
100
AcDbEntity
  8
Make2D$___$___
100
AcDbLine
 10
437.0535543042159
 20
281.3979155609446
 30
0.0
 11
438.2283520011599
 21
280.7855681673189
 31
0.0
  0
LINE
  5
81
330
1F
100
AcDbEntity
  8
Make2D$___$___
100
AcDbLine
 10
437.0440950847071
 20
279.8030050105438
 30
0.0
 11
438.2284070923808
 21
279.1857388996398
 31
0.0
  0
LINE
  5
82
330
1F
100
AcDbEntity
  8
Make2D$___$___
100
AcDbLine
 10
437.0394723842166
 20
278.2053824210624
 30
0.0
 11
438.2284020313071
 21
277.5856757100947
 31
0.0
  0
LINE
  5
83
330
1F
100
AcDbEntity
  8
Make2D$___$___
100
AcDbLine
 10
437.0435535144355
 20
276.6031434014793
 30
0.0
 11
438.2283350611427
 21
275.9856099115208
 31
0.0
  0
LINE
  5
84
330
1F
100
AcDbEntity
  8
Make2D$___$___
100
AcDbLine
 10
417.2890773726548
 20
281.6040026274592
 30
0.0
 11
418.4538706493067
 21
282.2111293848751
 31
0.0
  0
LINE
  5
85
330
1F
100
AcDbEntity
  8
Make2D$___$___
100
AcDbLine
 10
417.2891370419119
 20
280.0038965386451
 30
0.0
 11
418.4541646981205
 21
280.6111402644167
 31
0.0
  0
LINE
  5
86
330
1F
100
AcDbEntity
  8
Make2D$___$___
100
AcDbLine
 10
417.2890338855686
 20
278.4041160256401
 30
0.0
 11
418.4538420738884
 21
279.0112255601749
 31
0.0
  0
LINE
  5
87
330
1F
100
AcDbEntity
  8
Make2D$___$___
100
AcDbLine
 10
417.2891376765687
 20
276.8038669481391
 30
0.0
 11
418.454387249218
 21
277.411241412277
 31
0.0
  0
LINE
  5
88
330
1F
100
AcDbEntity
  8
Make2D$___$___
100
AcDbLine
 10
437.0435693915017
 20
275.0033811687273
 30
0.0
 11
438.2286214492573
 21
274.3857223796331
 31
0.0
  0
LINE
  5
89
330
1F
100
AcDbEntity
  8
Make2D$___$___
100
AcDbLine
 10
437.0508849847065
 20
273.3977848932169
 30
0.0
 11
438.0229897714917
 21
272.8909189723979
 31
0.0
  0
LINE
  5
8A
330
1F
100
AcDbEntity
  8
Make2D$___$___
100
AcDbLine
 10
417.2892682060231
 20
275.2033000573887
 30
0.0
 11
418.4490427023494
 21
275.8078352441818
 31
0.0
  0
LINE
  5
8B
330
1F
100
AcDbEntity
  8
Make2D$___$___
100
AcDbLine
 10
417.2652330048439
 20
273.5905881370541
 30
0.0
 11
418.4540549249484
 21
274.2103880067
 31
0.0
  0
LINE
  5
8C
330
1F
100
AcDbEntity
  8
Make2D$___$___
100
AcDbLine
 10
418.0094278929073
 20
272.3783803449983
 30
0.0
 11
418.4538272215144
 21
272.6100600798554
 31
0.0
  0
LINE
  5
8D
330
1F
100
AcDbEntity
  8
Make2D$___$___
100
AcDbLine
 10
418.741180776855
 20
271.597937306856
 30
0.0
 11
417.98050129878
 21
272.358616784931
 31
0.0
  0
LINE
  5
8E
330
1F
100
AcDbEntity
  8
Make2D$___$___
100
AcDbLine
 10
438.1932452767006
 20
281.9919657651046
 30
0.0
 11
437.0279663754632
 21
281.3845761137702
 31
0.0
  0
LINE
  5
8F
330
1F
100
AcDbEntity
  8
Make2D$___$___
100
AcDbLine
 10
438.1933163438624
 20
280.3917682859667
 30
0.0
 11
437.0299287336937
 21
279.7854086633483
 31
0.0
  0
LINE
  5
90
330
1F
100
AcDbEntity
  8
Make2D$___$___
100
AcDbLine
 10
438.1932174636534
 20
278.7920111310026
 30
0.0
 11
437.0280295308785
 21
278.1846732195042
 31
0.0
  0
LINE
  5
91
330
1F
100
AcDbEntity
  8
Make2D$___$___
100
AcDbLine
 10
418.4381973222228
 20
282.1930822997671
 30
0.0
 11
417.2540222130864
 21
282.8103108983565
 31
0.0
  0
LINE
  5
92
330
1F
100
AcDbEntity
  8
Make2D$___$___
100
AcDbLine
 10
418.4286414571193
 20
280.5978348660663
 30
0.0
 11
417.253927165708
 21
281.2101183196502
 31
0.0
  0
LINE
  5
93
330
1F
100
AcDbEntity
  8
Make2D$___$___
100
AcDbLine
 10
418.4443356972195
 20
278.9897923067267
 30
0.0
 11
417.2539892041488
 21
279.6102159503831
 31
0.0
  0
LINE
  5
94
330
1F
100
AcDbEntity
  8
Make2D$___$___
100
AcDbLine
 10
418.4287984271894
 20
277.3979014905325
 30
0.0
 11
417.253984873265
 21
278.0102552576863
 31
0.0
  0
ARC
  5
95
330
1F
100
AcDbEntity
  8
Make2D$___$___
100
AcDbCircle
 10
455.9143686493185
 20
325.2940643676944
 30
0.0
 40
3.990886105905794
100
AcDbArc
 50
181.4478053974378
 51
268.5695835111375
  0
ARC
  5
96
330
1F
100
AcDbEntity
  8
Make2D$___$___
100
AcDbCircle
 10
399.5679924879747
 20
325.2940645421718
 30
0.0
 40
3.990886526600079
100
AcDbArc
 50
271.4303266848765
 51
358.5521922495015
  0
LINE
  5
97
330
1F
100
AcDbEntity
  8
Make2D$___$___
100
AcDbLine
 10
404.2284305498208
 20
350.8110257810572
 30
0.0
 11
403.5576049459864
 21
325.1932295136274
 31
0.0
  0
LINE
  5
98
330
1F
100
AcDbEntity
  8
Make2D$___$___
100
AcDbLine
 10
421.9769880004817
 20
351.2979373068571
 30
0.0
 11
427.7411807768561
 21
351.297937306857
 31
0.0
  0
LINE
  5
99
330
1F
100
AcDbEntity
  8
Make2D$___$___
100
AcDbLine
 10
421.4435135585042
 20
351.297937306857
 30
0.0
 11
421.8463493847635
 21
351.2979373068571
 31
0.0
  0
LINE
  5
9A
330
1F
100
AcDbEntity
  8
Make2D$___$___
100
AcDbLine
 10
420.9104567762818
 20
351.2979373068569
 30
0.0
 11
421.3866437580052
 21
351.2979373068569
 31
0.0
  0
LINE
  5
9B
330
1F
100
AcDbEntity
  8
Make2D$___$___
100
AcDbLine
 10
420.3783246702064
 20
351.297937306857
 30
0.0
 11
420.8995147682703
 21
351.297937306857
 31
0.0
  0
LINE
  5
9C
330
1F
100
AcDbEntity
  8
Make2D$___$___
100
AcDbLine
 10
419.8476344077193
 20
351.297937306857
 30
0.0
 11
420.3660529571017
 21
351.297937306857
 31
0.0
  0
LINE
  5
9D
330
1F
100
AcDbEntity
  8
Make2D$___$___
100
AcDbLine
 10
419.3189119660558
 20
351.2979373068571
 30
0.0
 11
419.8339791525822
 21
351.297937306857
 31
0.0
  0
LINE
  5
9E
330
1F
100
AcDbEntity
  8
Make2D$___$___
100
AcDbLine
 10
418.7926907039684
 20
351.297937306857
 30
0.0
 11
419.1155347316511
 21
351.297937306857
 31
0.0
  0
LINE
  5
9F
330
1F
100
AcDbEntity
  8
Make2D$___$___
100
AcDbLine
 10
418.2695098526479
 20
351.297937306857
 30
0.0
 11
418.6701125636785
 21
351.2979373068571
 31
0.0
  0
LINE
  5
A0
330
1F
100
AcDbEntity
  8
Make2D$___$___
100
AcDbLine
 10
416.7008908146959
 20
351.297937306857
 30
0.0
 11
418.2287454126173
 21
351.297937306857
 31
0.0
  0
LINE
  5
A1
330
1F
100
AcDbEntity
  8
Make2D$___$___
100
AcDbLine
 10
416.1937344039946
 20
351.2979373068571
 30
0.0
 11
416.4131426332187
 21
351.297937306857
 31
0.0
  0
LINE
  5
A2
330
1F
100
AcDbEntity
  8
Make2D$___$___
100
AcDbLine
 10
414.7090522384595
 20
351.2979373068569
 30
0.0
 11
416.0995201764799
 21
351.297937306857
 31
0.0
  0
LINE
  5
A3
330
1F
100
AcDbEntity
  8
Make2D$___$___
100
AcDbLine
 10
414.2282242736387
 20
351.297937306857
 30
0.0
 11
414.4390257690787
 21
351.297937306857
 31
0.0
  0
LINE
  5
A4
330
1F
100
AcDbEntity
  8
Make2D$___$___
100
AcDbLine
 10
412.8352637865298
 20
351.2979373068571
 30
0.0
 11
414.1419803952173
 21
351.2979373068571
 31
0.0
  0
LINE
  5
A5
330
1F
100
AcDbEntity
  8
Make2D$___$___
100
AcDbLine
 10
411.9528414961018
 20
351.2979373068571
 30
0.0
 11
412.7348898506855
 21
351.297937306857
 31
0.0
  0
LINE
  5
A6
330
1F
100
AcDbEntity
  8
Make2D$___$___
100
AcDbLine
 10
411.5268957956521
 20
351.2979373068571
 30
0.0
 11
411.7149217500374
 21
351.2979373068571
 31
0.0
  0
LINE
  5
A7
330
1F
100
AcDbEntity
  8
Make2D$___$___
100
AcDbLine
 10
411.1117056521165
 20
351.2979373068569
 30
0.0
 11
411.493094666148
 21
351.297937306857
 31
0.0
  0
LINE
  5
A8
330
1F
100
AcDbEntity
  8
Make2D$___$___
100
AcDbLine
 10
410.7076786290802
 20
351.297937306857
 30
0.0
 11
410.8858201308803
 21
351.2979373068571
 31
0.0
  0
LINE
  5
A9
330
1F
100
AcDbEntity
  8
Make2D$___$___
100
AcDbLine
 10
409.7278865030127
 20
351.297937306857
 30
0.0
 11
410.6802713689102
 21
351.297937306857
 31
0.0
  0
LINE
  5
AA
330
1F
100
AcDbEntity
  8
Make2D$___$___
100
AcDbLine
 10
408.8914204892036
 20
351.297937306857
 30
0.0
 11
408.9117970513568
 21
351.297937306857
 31
0.0
  0
LINE
  5
AB
330
1F
100
AcDbEntity
  8
Make2D$___$___
100
AcDbLine
 10
408.5377594742178
 20
351.297937306857
 30
0.0
 11
408.6811475413401
 21
351.297937306857
 31
0.0
  0
LINE
  5
AC
330
1F
100
AcDbEntity
  8
Make2D$___$___
100
AcDbLine
 10
408.2417457774615
 20
351.2979373068571
 30
0.0
 11
408.3582923703987
 21
351.297937306857
 31
0.0
  0
LINE
  5
AD
330
1F
100
AcDbEntity
  8
Make2D$___$___
100
AcDbLine
 10
405.1398976057644
 20
351.2979373068571
 30
0.0
 11
408.0710713317547
 21
351.2979373068571
 31
0.0
  0
LINE
  5
AE
330
1F
100
AcDbEntity
  8
Make2D$___$___
100
AcDbLine
 10
405.0446021550476
 20
351.2979373068569
 30
0.0
 11
405.1207753651467
 21
351.2979373068569
 31
0.0
  0
LINE
  5
AF
330
1F
100
AcDbEntity
  8
Make2D$___$___
100
AcDbLine
 10
404.9623342819376
 20
351.2979373068569
 30
0.0
 11
405.0282848430367
 21
351.297937306857
 31
0.0
  0
LINE
  5
B0
330
1F
100
AcDbEntity
  8
Make2D$___$___
100
AcDbLine
 10
404.7334825859958
 20
351.297937306857
 30
0.0
 11
404.7549897104847
 21
351.297937306857
 31
0.0
  0
ARC
  5
B1
330
1F
100
AcDbEntity
  8
Make2D$___$___
100
AcDbCircle
 10
404.7282592123161
 20
350.7979373068571
 30
0.0
 40
0.4999999999999732
100
AcDbArc
 50
90.00000000001303
 51
178.4999999947388
  0
ARC
  5
B2
330
1F
100
AcDbEntity
  8
Make2D$___$___
100
AcDbCircle
 10
450.7541023413961
 20
350.7979373068572
 30
0.0
 40
0.4999999999998863
100
AcDbArc
 50
1.50000000526139
 51
90.00000000001303
  0
LINE
  5
B3
330
1F
100
AcDbEntity
  8
Make2D$___$___
100
AcDbLine
 10
450.7488789678764
 20
351.2979373068571
 30
0.0
 11
450.7535135096687
 21
351.2979373068571
 31
0.0
  0
LINE
  5
B4
330
1F
100
AcDbEntity
  8
Make2D$___$___
100
AcDbLine
 10
450.6834182829271
 20
351.2979373068571
 30
0.0
 11
450.7129855112998
 21
351.297937306857
 31
0.0
  0
LINE
  5
B5
330
1F
100
AcDbEntity
  8
Make2D$___$___
100
AcDbLine
 10
450.6362265290078
 20
351.2979373068571
 30
0.0
 11
450.6758577950611
 21
351.2979373068571
 31
0.0
  0
LINE
  5
B6
330
1F
100
AcDbEntity
  8
Make2D$___$___
100
AcDbLine
 10
450.5765470374726
 20
351.2979373068571
 30
0.0
 11
450.6264603429643
 21
351.2979373068572
 31
0.0
  0
LINE
  5
B7
330
1F
100
AcDbEntity
  8
Make2D$___$___
100
AcDbLine
 10
447.4863151346427
 20
351.297937306857
 30
0.0
 11
450.5645354184059
 21
351.297937306857
 31
0.0
  0
LINE
  5
B8
330
1F
100
AcDbEntity
  8
Make2D$___$___
100
AcDbLine
 10
446.8122802085792
 20
351.2979373068569
 30
0.0
 11
446.8546756481778
 21
351.297937306857
 31
0.0
  0
LINE
  5
B9
330
1F
100
AcDbEntity
  8
Make2D$___$___
100
AcDbLine
 10
446.4817631931918
 20
351.2979373068569
 30
0.0
 11
446.6147619030697
 21
351.297937306857
 31
0.0
  0
LINE
  5
BA
330
1F
100
AcDbEntity
  8
Make2D$___$___
100
AcDbLine
 10
446.13868193965
 20
351.297937306857
 30
0.0
 11
446.2788456814712
 21
351.2979373068571
 31
0.0
  0
LINE
  5
BB
330
1F
100
AcDbEntity
  8
Make2D$___$___
100
AcDbLine
 10
445.7833002007489
 20
351.2979373068571
 30
0.0
 11
445.9179122480019
 21
351.297937306857
 31
0.0
  0
LINE
  5
BC
330
1F
100
AcDbEntity
  8
Make2D$___$___
100
AcDbLine
 10
445.4159071333797
 20
351.297937306857
 30
0.0
 11
445.5477321945519
 21
351.297937306857
 31
0.0
  0
LINE
  5
BD
330
1F
100
AcDbEntity
  8
Make2D$___$___
100
AcDbLine
 10
445.036816552631
 20
351.297937306857
 30
0.0
 11
445.2259203606791
 21
351.2979373068569
 31
0.0
  0
LINE
  5
BE
330
1F
100
AcDbEntity
  8
Make2D$___$___
100
AcDbLine
 10
444.6463660611518
 20
351.297937306857
 30
0.0
 11
444.8020901720558
 21
351.297937306857
 31
0.0
  0
LINE
  5
BF
330
1F
100
AcDbEntity
  8
Make2D$___$___
100
AcDbLine
 10
444.2449160586864
 20
351.297937306857
 30
0.0
 11
444.3706559437354
 21
351.297937306857
 31
0.0
  0
LINE
  5
C0
330
1F
100
AcDbEntity
  8
Make2D$___$___
100
AcDbLine
 10
443.8242556691908
 20
351.297937306857
 30
0.0
 11
443.9892668482
 21
351.297937306857
 31
0.0
  0
LINE
  5
C1
330
1F
100
AcDbEntity
  8
Make2D$___$___
100
AcDbLine
 10
442.9514911481777
 20
351.2979373068571
 30
0.0
 11
443.0741562672585
 21
351.297937306857
 31
0.0
  0
LINE
  5
C2
330
1F
100
AcDbEntity
  8
Make2D$___$___
100
AcDbLine
 10
442.5003041044472
 20
351.297937306857
 30
0.0
 11
442.7474716569428
 21
351.2979373068569
 31
0.0
  0
LINE
  5
C3
330
1F
100
AcDbEntity
  8
Make2D$___$___
100
AcDbLine
 10
442.0398889830302
 20
351.2979373068571
 30
0.0
 11
442.1915374417123
 21
351.297937306857
 31
0.0
  0
LINE
  5
C4
330
1F
100
AcDbEntity
  8
Make2D$___$___
100
AcDbLine
 10
441.5707473651472
 20
351.297937306857
 30
0.0
 11
441.727050863428
 21
351.297937306857
 31
0.0
  0
LINE
  5
C5
330
1F
100
AcDbEntity
  8
Make2D$___$___
100
AcDbLine
 10
441.0933949005509
 20
351.297937306857
 30
0.0
 11
441.3403811911992
 21
351.297937306857
 31
0.0
  0
LINE
  5
C6
330
1F
100
AcDbEntity
  8
Make2D$___$___
100
AcDbLine
 10
440.6083594696287
 20
351.2979373068571
 30
0.0
 11
440.7733093282475
 21
351.297937306857
 31
0.0
  0
LINE
  5
C7
330
1F
100
AcDbEntity
  8
Make2D$___$___
100
AcDbLine
 10
440.1161793067253
 20
351.297937306857
 30
0.0
 11
440.285091098949
 21
351.297937306857
 31
0.0
  0
LINE
  5
C8
330
1F
100
AcDbEntity
  8
Make2D$___$___
100
AcDbLine
 10
439.6174010982576
 20
351.297937306857
 30
0.0
 11
439.7898719612778
 21
351.297937306857
 31
0.0
  0
LINE
  5
C9
330
1F
100
AcDbEntity
  8
Make2D$___$___
100
AcDbLine
 10
439.1125780691715
 20
351.2979373068571
 30
0.0
 11
439.3828413895428
 21
351.2979373068571
 31
0.0
  0
LINE
  5
CA
330
1F
100
AcDbEntity
  8
Make2D$___$___
100
AcDbLine
 10
438.6022680711172
 20
351.297937306857
 30
0.0
 11
438.7814707042814
 21
351.297937306857
 31
0.0
  0
LINE
  5
CB
330
1F
100
AcDbEntity
  8
Make2D$___$___
100
AcDbLine
 10
438.0870316853912
 20
351.2979373068571
 30
0.0
 11
438.2690990626846
 21
351.2979373068571
 31
0.0
  0
LINE
  5
CC
330
1F
100
AcDbEntity
  8
Make2D$___$___
100
AcDbLine
 10
437.5674303532157
 20
351.297937306857
 30
0.0
 11
437.7520662277897
 21
351.297937306857
 31
0.0
  0
LINE
  5
CD
330
1F
100
AcDbEntity
  8
Make2D$___$___
100
AcDbLine
 10
437.0440245453253
 20
351.2979373068569
 30
0.0
 11
437.2536160872893
 21
351.297937306857
 31
0.0
  0
LINE
  5
CE
330
1F
100
AcDbEntity
  8
Make2D$___$___
100
AcDbLine
 10
436.5173719821074
 20
351.2979373068569
 30
0.0
 11
436.8122489917053
 21
351.297937306857
 31
0.0
  0
LINE
  5
CF
330
1F
100
AcDbEntity
  8
Make2D$___$___
100
AcDbLine
 10
435.9880259147143
 20
351.297937306857
 30
0.0
 11
436.1785370712913
 21
351.2979373068571
 31
0.0
  0
LINE
  5
D0
330
1F
100
AcDbEntity
  8
Make2D$___$___
100
AcDbLine
 10
435.4565334766567
 20
351.2979373068572
 30
0.0
 11
435.6483824009778
 21
351.2979373068571
 31
0.0
  0
LINE
  5
D1
330
1F
100
AcDbEntity
  8
Make2D$___$___
100
AcDbLine
 10
434.9234341143961
 20
351.297937306857
 30
0.0
 11
435.1163085646438
 21
351.297937306857
 31
0.0
  0
LINE
  5
D2
330
1F
100
AcDbEntity
  8
Make2D$___$___
100
AcDbLine
 10
434.3645058127855
 20
351.297937306857
 30
0.0
 11
434.5828468193839
 21
351.297937306857
 31
0.0
  0
LINE
  5
D3
330
1F
100
AcDbEntity
  8
Make2D$___$___
100
AcDbLine
 10
433.8319583354905
 20
351.2979373068571
 30
0.0
 11
434.0957177988781
 21
351.297937306857
 31
0.0
  0
LINE
  5
D4
330
1F
100
AcDbEntity
  8
Make2D$___$___
100
AcDbLine
 10
433.2993586453682
 20
351.2979373068571
 30
0.0
 11
433.6360121674664
 21
351.297937306857
 31
0.0
  0
LINE
  5
D5
330
1F
100
AcDbEntity
  8
Make2D$___$___
100
AcDbLine
 10
432.7671950361561
 20
351.2979373068571
 30
0.0
 11
432.9792969548853
 21
351.2979373068571
 31
0.0
  0
LINE
  5
D6
330
1F
100
AcDbEntity
  8
Make2D$___$___
100
AcDbLine
 10
431.7060593108692
 20
351.297937306857
 30
0.0
 11
432.4453886927162
 21
351.2979373068571
 31
0.0
  0
LINE
  5
D7
330
1F
100
AcDbEntity
  8
Make2D$___$___
100
AcDbLine
 10
431.1779910417791
 20
351.297937306857
 30
0.0
 11
431.3813368431905
 21
351.297937306857
 31
0.0
  0
LINE
  5
D8
330
1F
100
AcDbEntity
  8
Make2D$___$___
100
AcDbLine
 10
430.6521649621317
 20
351.2979373068571
 30
0.0
 11
430.8771869651796
 21
351.2979373068571
 31
0.0
  0
LINE
  5
D9
330
1F
100
AcDbEntity
  8
Make2D$___$___
100
AcDbLine
 10
430.1366904663569
 20
351.2979373068571
 30
0.0
 11
430.4211647632289
 21
351.2979373068571
 31
0.0
  0
LINE
  5
DA
330
1F
100
AcDbEntity
  8
Make2D$___$___
100
AcDbLine
 10
451.2539310039267
 20
350.8110257795605
 30
0.0
 11
451.9247566077219
 21
325.1932295136272
 31
0.0
  0
LINE
  5
DB
330
1F
100
AcDbEntity
  8
Make2D$___$___
100
AcDbLine
 10
454.1460053032172
 20
321.3279748129844
 30
0.0
 11
454.3273080337527
 21
321.3081591433626
 31
0.0
  0
LINE
  5
DC
330
1F
100
AcDbEntity
  8
Make2D$___$___
100
AcDbLine
 10
454.3273080337527
 20
321.3081591433626
 30
0.0
 11
454.482425851547
 21
321.2983903818424
 31
0.0
  0
ARC
  5
DD
330
1F
100
AcDbEntity
  8
Make2D$___$___
100
AcDbCircle
 10
447.5163901398
 20
320.3502925189007
 30
0.0
 40
1.027575312669932
100
AcDbArc
 50
22.00786830088192
 51
44.58727918002784
  0
ARC
  5
DE
330
1F
100
AcDbEntity
  8
Make2D$___$___
100
AcDbCircle
 10
447.5584827820921
 20
320.3668609750889
 30
0.0
 40
0.9823408719506995
100
AcDbArc
 50
358.6736619090516
 51
22.01968040481482
  0
SPLINE
  5
DF
330
1F
100
AcDbEntity
  8
Make2D$___$___
100
AcDbSpline
210
0.0
220
0.0
230
1.0
 70
     8
 71
     3
 72
    53
 73
    49
 74
     0
 42
0.000000001
 43
0.0000000001
 12
1.0
 22
0.0
 32
0.0
 13
1.0
 23
0.0
 33
0.0
 40
0.0000000195497293
 40
0.0000000195497293
 40
0.0000000195497293
 40
0.0000000195497293
 40
1.871311192991313
 40
1.871311192991313
 40
1.871311192991313
 40
3.743873709298768
 40
3.743873709298768
 40
3.743873709298768
 40
3.8999411662263
 40
3.8999411662263
 40
3.8999411662263
 40
5.616178420348476
 40
5.616178420348476
 40
5.616178420348476
 40
7.486143466172721
 40
7.486143466172721
 40
7.486143466172721
 40
8.419584985576673
 40
8.419584985576673
 40
8.419584985576673
 40
9.352050310153295
 40
9.352050310153295
 40
9.352050310153295
 40
10.28357635745841
 40
10.28357635745841
 40
10.28357635745841
 40
11.2140155916195
 40
11.2140155916195
 40
11.2140155916195
 40
11.67885278280597
 40
11.67885278280597
 40
11.67885278280597
 40
12.1435179632865
 40
12.1435179632865
 40
12.1435179632865
 40
12.60841588121835
 40
12.60841588121835
 40
12.60841588121835
 40
13.07391485229348
 40
13.07391485229348
 40
13.07391485229348
 40
13.30705780885861
 40
13.30705780885861
 40
13.30705780885861
 40
13.42499916102442
 40
13.42499916102442
 40
13.42499916102442
 40
13.48371701706667
 40
13.48371701706667
 40
13.48371701706667
 40
13.48371701706667
 10
447.7474231017741
 20
322.1193943964594
 30
0.0
 10
447.7771271391034
 20
322.0207308639988
 30
0.0
 10
447.8061606155082
 20
321.9300524141778
 30
0.0
 10
447.8344235019317
 20
321.8474696457588
 30
0.0
 10
447.8627599599671
 20
321.7646719046966
 30
0.0
 10
447.8905410674898
 20
321.6893314475892
 30
0.0
 10
447.9175127787497
 20
321.6212906634019
 30
0.0
 10
447.9197587367383
 20
321.6156248477879
 30
0.0
 10
447.9219212416047
 20
321.6102042255612
 30
0.0
 10
447.9241545263259
 20
321.6046417525037
 30
0.0
 10
447.9492549967777
 20
321.5421236645515
 30
0.0
 10
447.9719933902121
 20
321.489689754154
 30
0.0
 10
447.99520849956
 20
321.439898140942
 30
0.0
 10
448.0198276554887
 20
321.387095137896
 30
0.0
 10
448.0430099674338
 20
321.3420015339592
 30
0.0
 10
448.0634022606195
 20
321.3056227429178
 30
0.0
 10
448.0735898674451
 20
321.2874485818977
 30
0.0
 10
448.0832296706127
 20
321.271157826695
 30
0.0
 10
448.0922384185538
 20
321.2566395394986
 30
0.0
 10
448.1012362061162
 20
321.2421389157917
 30
0.0
 10
448.109537500853
 20
321.2295170781647
 30
0.0
 10
448.116985922657
 20
321.2187314781403
 30
0.0
 10
448.1244257637155
 20
321.2079583033642
 30
0.0
 10
448.1313746301036
 20
321.1984813717744
 30
0.0
 10
448.1380404568084
 20
321.1898336764028
 30
0.0
 10
448.144697180684
 20
321.1811977902933
 30
0.0
 10
448.1514815987221
 20
321.1728539433346
 30
0.0
 10
448.1588428390392
 20
321.1642366129182
 30
0.0
 10
448.1625198608956
 20
321.1599321600107
 30
0.0
 10
448.1664295785842
 20
321.1554590488294
 30
0.0
 10
448.1705475781605
 20
321.1508514953015
 30
0.0
 10
448.1746637707529
 20
321.1462459635744
 30
0.0
 10
448.1791121634877
 20
321.1413674514657
 30
0.0
 10
448.1838931350446
 20
321.1362212188104
 30
0.0
 10
448.1886526744316
 20
321.1310980557198
 30
0.0
 10
448.1926169607002
 20
321.1269295416351
 30
0.0
 10
448.1952437456343
 20
321.1242214480333
 30
0.0
 10
448.197887258111
 20
321.1214961091096
 30
0.0
 10
448.199804763167
 20
321.1195959921722
 30
0.0
 10
448.2007555421402
 20
321.1186712428595
 30
0.0
 10
448.201234118894
 20
321.1182057681945
 30
0.0
 10
448.2071741127089
 20
321.1125772794408
 30
0.0
 10
448.2188741343634
 20
321.1009848700591
 30
0.0
 10
448.2247768164539
 20
321.095136478555
 30
0.0
 10
448.2317152568418
 20
321.0881625939851
 30
0.0
 10
448.2395810212802
 20
321.0800143936412
 30
0.0
 10
448.2430201649781
 20
321.0764517606535
 30
0.0
 10
448.2459673229607
 20
321.0733651829114
 30
0.0
 10
448.2478976109325
 20
321.0713348196503
 30
0.0
  0
ARC
  5
E0
330
1F
100
AcDbEntity
  8
Make2D$___$___
100
AcDbCircle
 10
447.5870907279608
 20
320.3574387225386
 30
0.0
 40
0.966981184005034
100
AcDbArc
 50
358.7022085002669
 51
22.03091002713801
  0
LINE
  5
E1
330
1F
100
AcDbEntity
  8
Make2D$___$___
100
AcDbLine
 10
407.734735421911
 20
322.120382625114
 30
0.0
 11
410.8976372500355
 21
332.6362354724243
 31
0.0
  0
LINE
  5
E2
330
1F
100
AcDbEntity
  8
Make2D$___$___
100
AcDbLine
 10
444.5847243049006
 20
332.6362354683526
 30
0.0
 11
447.7476261320414
 21
322.1203826243167
 31
0.0
  0
POLYLINE
  5
E3
330
1F
100
AcDbEntity
  8
Make2D$___$___
100
AcDb2dPolyline
 66
     1
 10
0.0
 20
0.0
 30
0.0
  0
VERTEX
  5
E4
330
E3
100
AcDbEntity
  8
Make2D$___$___
100
AcDbVertex
100
AcDb2dVertex
 10
428.2220515349997
 20
335.9350102489291
 30
0.0
 42
-0.0083547068991341
  0
VERTEX
  5
E5
330
E3
100
AcDbEntity
  8
Make2D$___$___
100
AcDbVertex
100
AcDb2dVertex
 10
431.1376251441583
 20
335.8865335625526
 30
0.0
 42
-0.0089998292216627
  0
VERTEX
  5
E6
330
E3
100
AcDbEntity
  8
Make2D$___$___
100
AcDbVertex
100
AcDb2dVertex
 10
433.9573029615593
 20
335.7422622625303
 30
0.0
 42
-0.0104321428210984
  0
VERTEX
  5
E7
330
E3
100
AcDbEntity
  8
Make2D$___$___
100
AcDbVertex
100
AcDb2dVertex
 10
436.5891770602347
 20
335.5056987738977
 30
0.0
 42
-0.0132192774940857
  0
VERTEX
  5
E8
330
E3
100
AcDbEntity
  8
Make2D$___$___
100
AcDbVertex
100
AcDb2dVertex
 10
438.9478830626206
 20
335.1821606105777
 30
0.0
 42
-0.0186225834423231
  0
VERTEX
  5
E9
330
E3
100
AcDbEntity
  8
Make2D$___$___
100
AcDbVertex
100
AcDb2dVertex
 10
440.9524668231085
 20
334.7787183245448
 30
0.0
 42
-0.0306103781036705
  0
VERTEX
  5
EA
330
E3
100
AcDbEntity
  8
Make2D$___$___
100
AcDbVertex
100
AcDb2dVertex
 10
442.5587818652673
 20
334.293669579724
 30
0.0
 42
-0.0634414916475109
  0
VERTEX
  5
EB
330
E3
100
AcDbEntity
  8
Make2D$___$___
100
AcDbVertex
100
AcDb2dVertex
 10
443.7675379066789
 20
333.6814863964597
 30
0.0
 42
-0.1690886606985829
  0
VERTEX
  5
EC
330
E3
100
AcDbEntity
  8
Make2D$___$___
100
AcDbVertex
100
AcDb2dVertex
 10
444.5846648398914
 20
332.6364330980826
 30
0.0
  0
SEQEND
  5
ED
330
E3
100
AcDbEntity
  8
Make2D$___$___
  0
LINE
  5
EE
330
1F
100
AcDbEntity
  8
Make2D$___$___
100
AcDbLine
 10
442.8021429143616
 20
304.7238894862103
 30
0.0
 11
442.7934100001619
 21
304.6348350557749
 31
0.0
  0
LINE
  5
EF
330
1F
100
AcDbEntity
  8
Make2D$___$___
100
AcDbLine
 10
442.8184244032063
 20
304.7695613424046
 30
0.0
 11
442.8029440858738
 21
304.7236310723577
 31
0.0
  0
LINE
  5
F0
330
1F
100
AcDbEntity
  8
Make2D$___$___
100
AcDbLine
 10
412.6885344868945
 20
304.6395039347323
 30
0.0
 11
412.6637439129494
 21
304.8085290897164
 31
0.0
  0
LINE
  5
F1
330
1F
100
AcDbEntity
  8
Make2D$___$___
100
AcDbLine
 10
427.2603100320487
 20
335.935010248927
 30
0.0
 11
428.2220515349478
 21
335.935010248927
 31
0.0
  0
POLYLINE
  5
F2
330
1F
100
AcDbEntity
  8
Make2D$___$___
100
AcDb2dPolyline
 66
     1
 10
0.0
 20
0.0
 30
0.0
  0
VERTEX
  5
F3
330
F2
100
AcDbEntity
  8
Make2D$___$___
100
AcDbVertex
100
AcDb2dVertex
 10
410.8976876778069
 20
332.636403077072
 30
0.0
 42
-0.1668566644691303
  0
VERTEX
  5
F4
330
F2
100
AcDbEntity
  8
Make2D$___$___
100
AcDbVertex
100
AcDb2dVertex
 10
411.6906216497358
 20
333.6641409654475
 30
0.0
 42
-0.0638789603999681
  0
VERTEX
  5
F5
330
F2
100
AcDbEntity
  8
Make2D$___$___
100
AcDbVertex
100
AcDb2dVertex
 10
412.8622462850591
 20
334.2700984101461
 30
0.0
 42
-0.0312282061724699
  0
VERTEX
  5
F6
330
F2
100
AcDbEntity
  8
Make2D$___$___
100
AcDbVertex
100
AcDb2dVertex
 10
414.4348164017985
 20
334.7552268632256
 30
0.0
 42
-0.0176010341399649
  0
VERTEX
  5
F7
330
F2
100
AcDbEntity
  8
Make2D$___$___
100
AcDbVertex
100
AcDb2dVertex
 10
416.2204859698068
 20
335.1285063244658
 30
0.0
 42
-0.0113955392162136
  0
VERTEX
  5
F8
330
F2
100
AcDbEntity
  8
Make2D$___$___
100
AcDbVertex
100
AcDb2dVertex
 10
418.050414587312
 20
335.4043648310753
 30
0.0
 42
-0.0082623328356645
  0
VERTEX
  5
F9
330
F2
100
AcDbEntity
  8
Make2D$___$___
100
AcDbVertex
100
AcDb2dVertex
 10
419.8461468841434
 20
335.6043090136382
 30
0.0
 42
-0.0064559514119217
  0
VERTEX
  5
FA
330
F2
100
AcDbEntity
  8
Make2D$___$___
100
AcDbVertex
100
AcDb2dVertex
 10
421.5624221845289
 20
335.7448588478412
 30
0.0
 42
-0.0171162876116331
  0
VERTEX
  5
FB
330
F2
100
AcDbEntity
  8
Make2D$___$___
100
AcDbVertex
100
AcDb2dVertex
 10
427.2603100320508
 20
335.9350102489251
 30
0.0
  0
SEQEND
  5
FC
330
F2
100
AcDbEntity
  8
Make2D$___$___
  0
LINE
  5
FD
330
1F
100
AcDbEntity
  8
Make2D$___$___
100
AcDbLine
 10
442.2660132608651
 20
294.5717693287376
 30
0.0
 11
442.7933962279482
 21
304.6348358104302
 31
0.0
  0
LINE
  5
FE
330
1F
100
AcDbEntity
  8
Make2D$___$___
100
AcDbLine
 10
413.2163482880846
 20
294.5717694196064
 30
0.0
 11
412.6889571989253
 21
304.6349908797468
 31
0.0
  0
ARC
  5
FF
330
1F
100
AcDbEntity
  8
Make2D$___$___
100
AcDbCircle
 10
441.7666996733258
 20
294.5979360635758
 30
0.0
 40
0.499998756720223
100
AcDbArc
 50
269.9998648011299
 51
357.0001351990425
  0
ARC
  5
100
330
1F
100
AcDbEntity
  8
Make2D$___$___
100
AcDbCircle
 10
413.7156618803868
 20
294.5979360635768
 30
0.0
 40
0.4999987567211683
100
AcDbArc
 50
182.9998543739366
 51
270.0001351987985
  0
LINE
  5
101
330
1F
100
AcDbEntity
  8
Make2D$___$___
100
AcDbLine
 10
448.1476885226747
 20
321.1776304777809
 30
0.0
 11
448.1722069478711
 21
321.165899615698
 31
0.0
  0
ARC
  5
102
330
1F
100
AcDbEntity
  8
Make2D$___$___
100
AcDbCircle
 10
436.7411807768557
 20
348.2979373068568
 30
0.0
 40
0.5000000000002846
100
AcDbArc
 50
0.0000000000390827
 51
90.00000213120978
  0
LINE
  5
103
330
1F
100
AcDbEntity
  8
Make2D$___$___
100
AcDbLine
 10
437.241180776856
 20
335.4285562303937
 30
0.0
 11
437.241180776856
 21
348.2979373068571
 31
0.0
  0
LINE
  5
104
330
1F
100
AcDbEntity
  8
Make2D$___$___
100
AcDbLine
 10
418.241180776856
 20
335.428556102015
 30
0.0
 11
418.241180776856
 21
348.2979373068571
 31
0.0
  0
ARC
  5
105
330
1F
100
AcDbEntity
  8
Make2D$___$___
100
AcDbCircle
 10
418.7411807768558
 20
348.2979373068574
 30
0.0
 40
0.4999999999998295
100
AcDbArc
 50
89.99999786873809
 51
180.0000000000391
  0
LINE
  5
106
330
1F
100
AcDbEntity
  8
Make2D$___$___
100
AcDbLine
 10
438.6910560282111
 20
304.5908738311485
 30
0.0
 11
438.5944595221452
 21
304.4972353574051
 31
0.0
  0
LINE
  5
107
330
1F
100
AcDbEntity
  8
Make2D$___$___
100
AcDbLine
 10
416.8879020317239
 20
304.4972353572526
 30
0.0
 11
416.7913064769599
 21
304.5908729088255
 31
0.0
  0
LINE
  5
108
330
1F
100
AcDbEntity
  8
Make2D$___$___
100
AcDbLine
 10
446.2411807768609
 20
354.2979373068563
 30
0.0
 11
447.4904610111709
 21
351.2996647445122
 31
0.0
  0
LINE
  5
109
330
1F
100
AcDbEntity
  8
Make2D$___$___
100
AcDbLine
 10
409.2411807768517
 20
354.2979373068578
 30
0.0
 11
407.9919005425411
 21
351.2996647445122
 31
0.0
  0
ARC
  5
10A
330
1F
100
AcDbEntity
  8
Make2D$___$___
100
AcDbCircle
 10
404.7595716001354
 20
354.8175023354879
 30
0.0
 40
0.5197117595272142
100
AcDbArc
 50
175.9140599460711
 51
268.6384613623762
  0
ARC
  5
10B
330
1F
100
AcDbEntity
  8
Make2D$___$___
100
AcDbCircle
 10
450.7381248975166
 20
354.7996543106487
 30
0.0
 40
0.4990225199982103
100
AcDbArc
 50
314.9669069194956
 51
359.8274242507218
  0
LINE
  5
10C
330
1F
100
AcDbEntity
  8
Make2D$___$___
100
AcDbLine
 10
451.2411810034105
 20
354.8544886644628
 30
0.0
 11
451.2398914982589
 21
354.7981428749866
 31
0.0
  0
LINE
  5
10D
330
1F
100
AcDbEntity
  8
Make2D$___$___
100
AcDbLine
 10
404.241180776856
 20
354.8545331900621
 30
0.0
 11
404.241180776856
 21
379.0006527134135
 31
0.0
  0
LINE
  5
10E
330
1F
100
AcDbEntity
  8
Make2D$___$___
100
AcDbLine
 10
451.241180776856
 20
354.854533208022
 30
0.0
 11
451.241180776856
 21
379.0015441707835
 31
0.0
  0
ARC
  5
10F
330
1F
100
AcDbEntity
  8
Make2D$___$___
100
AcDbCircle
 10
458.1258203108363
 20
381.6931359459437
 30
0.0
 40
7.31751392478419
100
AcDbArc
 50
190.2879040820028
 51
197.4332297946144
  0
LINE
  5
110
330
1F
100
AcDbEntity
  8
Make2D$___$___
100
AcDbLine
 10
450.9338503250075
 20
380.3042997441817
 30
0.0
 11
446.3861331554493
 21
403.6506422609563
 31
0.0
  0
LINE
  5
111
330
1F
100
AcDbEntity
  8
Make2D$___$___
100
AcDbLine
 10
446.3782346178864
 20
403.7326107244928
 30
0.0
 11
450.9259517873829
 21
380.386268208036
 31
0.0
  0
POLYLINE
  5
112
330
1F
100
AcDbEntity
  8
Make2D$___$___
100
AcDb2dPolyline
 66
     1
 10
0.0
 20
0.0
 30
0.0
  0
VERTEX
  5
113
330
112
100
AcDbEntity
  8
Make2D$___$___
100
AcDbVertex
100
AcDb2dVertex
 10
409.1041356372574
 20
403.732655381797
 30
0.0
 42
-0.1077387983042449
  0
VERTEX
  5
114
330
112
100
AcDbEntity
  8
Make2D$___$___
100
AcDbVertex
100
AcDb2dVertex
 10
409.7603862347523
 20
405.1969967370061
 30
0.0
 42
-0.0720793484005005
  0
VERTEX
  5
115
330
112
100
AcDbEntity
  8
Make2D$___$___
100
AcDbVertex
100
AcDb2dVertex
 10
411.0446026438378
 20
406.4963478408932
 30
0.0
 42
-0.0476278338237971
  0
VERTEX
  5
116
330
112
100
AcDbEntity
  8
Make2D$___$___
100
AcDbVertex
100
AcDb2dVertex
 10
412.8833040122104
 20
407.6396584726656
 30
0.0
 42
-0.0336286502791961
  0
VERTEX
  5
117
330
112
100
AcDbEntity
  8
Make2D$___$___
100
AcDbVertex
100
AcDb2dVertex
 10
415.2134129634255
 20
408.6157277577649
 30
0.0
 42
-0.0257395259543274
  0
VERTEX
  5
118
330
112
100
AcDbEntity
  8
Make2D$___$___
100
AcDbVertex
100
AcDb2dVertex
 10
417.9632376585934
 20
409.4051173973156
 30
0.0
 42
-0.0212505535005625
  0
VERTEX
  5
119
330
112
100
AcDbEntity
  8
Make2D$___$___
100
AcDbVertex
100
AcDb2dVertex
 10
421.0444262027945
 20
409.9864101718196
 30
0.0
 42
-0.0710427044004057
  0
VERTEX
  5
11A
330
112
100
AcDbEntity
  8
Make2D$___$___
100
AcDbVertex
100
AcDb2dVertex
 10
434.5025896357783
 20
409.9768849218116
 30
0.0
 42
-0.0213085659331909
  0
VERTEX
  5
11B
330
112
100
AcDbEntity
  8
Make2D$___$___
100
AcDbVertex
100
AcDb2dVertex
 10
437.5769236461187
 20
409.3914821229575
 30
0.0
 42
-0.0258545837209369
  0
VERTEX
  5
11C
330
112
100
AcDbEntity
  8
Make2D$___$___
100
AcDbVertex
100
AcDb2dVertex
 10
440.3190541270195
 20
408.5982693407523
 30
0.0
 42
-0.0338831106946695
  0
VERTEX
  5
11D
330
112
100
AcDbEntity
  8
Make2D$___$___
100
AcDbVertex
100
AcDb2dVertex
 10
442.6429399513242
 20
407.6173145859382
 30
0.0
 42
-0.0466439088206825
  0
VERTEX
  5
11E
330
112
100
AcDbEntity
  8
Make2D$___$___
100
AcDbVertex
100
AcDb2dVertex
 10
444.4331048702353
 20
406.4999637785909
 30
0.0
 42
-0.0709127043260789
  0
VERTEX
  5
11F
330
112
100
AcDbEntity
  8
Make2D$___$___
100
AcDbVertex
100
AcDb2dVertex
 10
445.7068776607836
 20
405.2179857982156
 30
0.0
 42
-0.1090964207454995
  0
VERTEX
  5
120
330
112
100
AcDbEntity
  8
Make2D$___$___
100
AcDbVertex
100
AcDb2dVertex
 10
446.3782258257085
 20
403.7326558474464
 30
0.0
  0
SEQEND
  5
121
330
112
100
AcDbEntity
  8
Make2D$___$___
  0
LINE
  5
122
330
1F
100
AcDbEntity
  8
Make2D$___$___
100
AcDbLine
 10
409.0962284034338
 20
403.6506422875126
 30
0.0
 11
404.5485112286918
 21
380.3042997441192
 31
0.0
  0
LINE
  5
123
330
1F
100
AcDbEntity
  8
Make2D$___$___
100
AcDbLine
 10
404.5564097694598
 20
380.3862682241103
 30
0.0
 11
409.1041269409965
 21
403.732610751049
 31
0.0
  0
ARC
  5
124
330
1F
100
AcDbEntity
  8
Make2D$___$___
100
AcDbCircle
 10
397.3565464662098
 20
381.6931346734322
 30
0.0
 40
7.317508558369435
100
AcDbArc
 50
342.5667667144457
 51
349.7120985454442
  0
ARC
  5
125
330
1F
100
AcDbEntity
  8
Make2D$___$___
100
AcDbCircle
 10
405.8775578399153
 20
378.94358207731
 30
0.0
 40
1.63736942877831
100
AcDbArc
 50
160.1022303582526
 51
178.0025466603408
  0
LINE
  5
126
330
1F
100
AcDbEntity
  8
Make2D$___$___
100
AcDbLine
 10
427.741180776856
 20
271.5979373068567
 30
0.0
 11
436.7411807768563
 21
271.5979373068567
 31
0.0
  0
SPLINE
  5
127
330
1F
100
AcDbEntity
  8
Make2D$___$___
100
AcDbSpline
210
0.0
220
0.0
230
1.0
 70
     8
 71
     3
 72
    15
 73
    11
 74
     0
 42
0.000000001
 43
0.0000000001
 12
1.0
 22
0.0
 32
0.0
 13
1.0
 23
0.0
 33
0.0
 40
0.0
 40
0.0
 40
0.0
 40
0.0
 40
0.0174262297464378
 40
0.0319939437998376
 40
0.1002789088449323
 40
0.2310041274380012
 40
0.7528817281251176
 40
2.548634528377064
 40
5.584707467922365
 40
10.53575291228853
 40
10.53575291228853
 40
10.53575291228853
 40
10.53575291228853
 10
417.2539546293755
 20
276.4105203834342
 30
0.0
 10
417.2498042904527
 20
276.411523618307
 30
0.0
 10
417.2357731093758
 20
276.4221073676295
 30
0.0
 10
417.2649523446132
 20
276.4436575794955
 30
0.0
 10
417.3346159912583
 20
276.4581200509726
 30
0.0
 10
417.5728062443191
 20
276.4912154545768
 30
0.0
 10
418.3870333819024
 20
276.5489810043745
 30
0.0
 10
420.1701562467144
 20
276.6224824305796
 30
0.0
 10
423.4296981661552
 20
276.7189210357625
 30
0.0
 10
426.0913173007008
 20
276.7827332926894
 30
0.0
 10
427.7411745682815
 20
276.8228845396441
 30
0.0
  0
SPLINE
  5
128
330
1F
100
AcDbEntity
  8
Make2D$___$___
100
AcDbSpline
210
0.0
220
0.0
230
1.0
 70
     8
 71
     3
 72
    15
 73
    11
 74
     0
 42
0.000000001
 43
0.0000000001
 12
1.0
 22
0.0
 32
0.0
 13
1.0
 23
0.0
 33
0.0
 40
0.0
 40
0.0
 40
0.0
 40
0.0
 40
0.0174349402478651
 40
0.0320132652198038
 40
0.1003060301619429
 40
0.2310351443039484
 40
0.7529159020450232
 40
2.548676009448841
 40
5.584753062708059
 40
10.53579948149333
 40
10.53579948149333
 40
10.53579948149333
 40
10.53579948149333
 10
417.253946890384
 20
274.8103027108598
 30
0.0
 10
417.249794232457
 20
274.811310124711
 30
0.0
 10
417.2357648117297
 20
274.8219027354842
 30
0.0
 10
417.2649379826346
 20
274.8434748840518
 30
0.0
 10
417.3346069249762
 20
274.8579582250398
 30
0.0
 10
417.5727966525371
 20
274.8910914948902
 30
0.0
 10
418.3870242284405
 20
274.9489290083487
 30
0.0
 10
420.1701496228889
 20
275.0224890363585
 30
0.0
 10
423.4296935344125
 20
275.1190029141185
 30
0.0
 10
426.0913139929008
 20
275.1828325768727
 30
0.0
 10
427.7411716630297
 20
275.2229803681987
 30
0.0
  0
SPLINE
  5
129
330
1F
100
AcDbEntity
  8
Make2D$___$___
100
AcDbSpline
210
0.0
220
0.0
230
1.0
 70
     8
 71
     3
 72
    16
 73
    12
 74
     0
 42
0.000000001
 43
0.0000000001
 12
1.0
 22
0.0
 32
0.0
 13
1.0
 23
0.0
 33
0.0
 40
0.0
 40
0.0
 40
0.0
 40
0.0
 40
0.0037914839189964
 40
0.0059476096582232
 40
0.0073968032196296
 40
0.0394479845585648
 40
0.135907914266519
 40
0.5963742305354638
 40
2.452065911521233
 40
5.58086119419953
 40
10.5178984472563
 40
10.5178984472563
 40
10.5178984472563
 40
10.5178984472563
 10
417.2415129332762
 20
273.2221103425469
 30
0.0
 10
417.2412201979958
 20
273.2234031872317
 30
0.0
 10
417.2417510292684
 20
273.2253106004218
 30
0.0
 10
417.2427960183282
 20
273.2275887356764
 30
0.0
 10
417.2517709867328
 20
273.2358356631246
 30
0.0
 10
417.2929876105603
 20
273.2501403827952
 30
0.0
 10
417.4868811668487
 20
273.2827988624007
 30
0.0
 10
418.2888930589904
 20
273.3448894168521
 30
0.0
 10
420.1024179428746
 20
273.4202250908498
 30
0.0
 10
423.4081209164139
 20
273.5185506421247
 30
0.0
 10
426.0959949518862
 20
273.5826669510266
 30
0.0
 10
427.7411765110476
 20
273.6228009251579
 30
0.0
  0
LINE
  5
12A
330
1F
100
AcDbEntity
  8
Make2D$___$___
100
AcDbLine
 10
417.252271216985
 20
273.2116532832429
 30
0.0
 11
417.2416985579936
 21
273.2213243285403
 31
0.0
  0
SPLINE
  5
12B
330
1F
100
AcDbEntity
  8
Make2D$___$___
100
AcDbSpline
210
0.0
220
0.0
230
1.0
 70
     8
 71
     3
 72
    13
 73
     9
 74
     0
 42
0.000000001
 43
0.0000000001
 12
1.0
 22
0.0
 32
0.0
 13
1.0
 23
0.0
 33
0.0
 40
0.0
 40
0.0
 40
0.0
 40
0.0
 40
5.131922972400117
 40
8.119482646315031
 40
9.925795904185984
 40
10.37797901557149
 40
10.47731231119364
 40
10.51708586609201
 40
10.51708586609201
 40
10.51708586609201
 40
10.51708586609201
 10
427.7411765110476
 20
273.6228009251579
 30
0.0
 10
429.4513080918798
 20
273.664535158484
 30
0.0
 10
432.1570391092994
 20
273.7289916914574
 30
0.0
 10
435.4641681457083
 20
273.8285179013835
 30
0.0
 10
437.2113573567776
 20
273.9020886300137
 30
0.0
 10
437.9952329014338
 20
273.9628193511389
 30
0.0
 10
438.1896521484302
 20
273.9956419686944
 30
0.0
 10
438.234673483234
 20
274.0105396337216
 30
0.0
 10
438.241178930272
 20
274.0227192436085
 30
0.0
  0
SPLINE
  5
12C
330
1F
100
AcDbEntity
  8
Make2D$___$___
100
AcDbSpline
210
0.0
220
0.0
230
1.0
 70
     8
 71
     3
 72
    13
 73
     9
 74
     0
 42
0.000000001
 43
0.0000000001
 12
1.0
 22
0.0
 32
0.0
 13
1.0
 23
0.0
 33
0.0
 40
0.0
 40
0.0
 40
0.0
 40
0.0
 40
5.13192222029205
 40
8.119488588162891
 40
9.925807141444018
 40
10.37799326965657
 40
10.47732993022459
 40
10.51711133076978
 40
10.51711133076978
 40
10.51711133076978
 40
10.51711133076978
 10
427.7411716630297
 20
275.2229803681987
 30
0.0
 10
429.4513030768267
 20
275.2647102959518
 30
0.0
 10
432.1570358415102
 20
275.3291799637996
 30
0.0
 10
435.4641673017542
 20
275.4287490787158
 30
0.0
 10
437.2113604986533
 20
275.5023474324249
 30
0.0
 10
437.9952369086195
 20
275.5631234531077
 30
0.0
 10
438.1896577277126
 20
275.5959660215556
 30
0.0
 10
438.2346799038618
 20
275.6108752625939
 30
0.0
 10
438.2411825278161
 20
275.6230602048585
 30
0.0
  0
SPLINE
  5
12D
330
1F
100
AcDbEntity
  8
Make2D$___$___
100
AcDbSpline
210
0.0
220
0.0
230
1.0
 70
     8
 71
     3
 72
    13
 73
     9
 74
     0
 42
0.000000001
 43
0.0000000001
 12
1.0
 22
0.0
 32
0.0
 13
1.0
 23
0.0
 33
0.0
 40
0.0
 40
0.0
 40
0.0
 40
0.0
 40
5.131843666029313
 40
8.119347320897887
 40
9.925599315046577
 40
10.37775933469354
 40
10.47708594599846
 40
10.51686069643754
 40
10.51686069643754
 40
10.51686069643754
 40
10.51686069643754
 10
427.7411745682815
 20
276.8228845396441
 30
0.0
 10
429.4512793640439
 20
276.8646323191975
 30
0.0
 10
432.1569641602804
 20
276.929136835339
 30
0.0
 10
435.4640252877139
 20
277.028741213644
 30
0.0
 10
437.2111653325624
 20
277.1023717580924
 30
0.0
 10
437.9950061125616
 20
277.1631658377693
 30
0.0
 10
438.1894116493307
 20
277.1960121333465
 30
0.0
 10
438.2344280048173
 20
277.2109240062398
 30
0.0
 10
438.2409243935327
 20
277.22311013458
 30
0.0
  0
LINE
  5
12E
330
1F
100
AcDbEntity
  8
Make2D$___$___
100
AcDbLine
 10
427.7411799884865
 20
283.2226495848076
 30
0.0
 11
427.7411816029536
 21
281.9732241823928
 31
0.0
  0
SPLINE
  5
12F
330
1F
100
AcDbEntity
  8
Make2D$___$___
100
AcDbSpline
210
0.0
220
0.0
230
1.0
 70
     8
 71
     3
 72
    15
 73
    11
 74
     0
 42
0.000000001
 43
0.0000000001
 12
1.0
 22
0.0
 32
0.0
 13
1.0
 23
0.0
 33
0.0
 40
0.0
 40
0.0
 40
0.0
 40
0.0
 40
0.0174301081189147
 40
0.0320031618948501
 40
0.1002926771262729
 40
0.2310204890759839
 40
0.7529004161091231
 40
2.548657164969641
 40
5.584733250691062
 40
10.53578071048964
 40
10.53578071048964
 40
10.53578071048964
 40
10.53578071048964
 10
438.2284111279744
 20
277.5856931647911
 30
0.0
 10
438.2325626615784
 20
277.5846879426733
 30
0.0
 10
438.2465924339996
 20
277.5740997605212
 30
0.0
 10
438.2174153727336
 20
277.5525391326742
 30
0.0
 10
438.1477488039848
 20
277.5380666647068
 30
0.0
 10
437.9095580930374
 20
277.5049516713789
 30
0.0
 10
437.0953302109586
 20
277.4471505411391
 30
0.0
 10
435.3122053859286
 20
277.3736182779474
 30
0.0
 10
432.0526614343959
 20
277.2771450639191
 30
0.0
 10
429.3910406929304
 20
277.2133263327281
 30
0.0
 10
427.7411827762561
 20
277.1731745603338
 30
0.0
  0
SPLINE
  5
130
330
1F
100
AcDbEntity
  8
Make2D$___$___
100
AcDbSpline
210
0.0
220
0.0
230
1.0
 70
     8
 71
     3
 72
    13
 73
     9
 74
     0
 42
0.000000001
 43
0.0000000001
 12
1.0
 22
0.0
 32
0.0
 13
1.0
 23
0.0
 33
0.0
 40
0.0
 40
0.0
 40
0.0
 40
0.0
 40
5.131922560625381
 40
8.119484172022684
 40
9.925797393954724
 40
10.37798156987741
 40
10.47731677558958
 40
10.51709514878662
 40
10.51709514878662
 40
10.51709514878662
 40
10.51709514878662
 10
427.7411808566609
 20
278.7732535707049
 30
0.0
 10
426.0310494372321
 20
278.7315190608046
 30
0.0
 10
423.3253179874894
 20
278.6670567947854
 30
0.0
 10
420.0181892333563
 20
278.5675056503442
 30
0.0
 10
418.2709998025596
 20
278.4939136251707
 30
0.0
 10
417.4871252437832
 20
278.4331543336781
 30
0.0
 10
417.2927055064278
 20
278.4003179861999
 30
0.0
 10
417.2476837816613
 20
278.3854132377743
 30
0.0
 10
417.2411802205682
 20
278.3732301497334
 30
0.0
  0
SPLINE
  5
131
330
1F
100
AcDbEntity
  8
Make2D$___$___
100
AcDbSpline
210
0.0
220
0.0
230
1.0
 70
     8
 71
     3
 72
    15
 73
    11
 74
     0
 42
0.000000001
 43
0.0000000001
 12
1.0
 22
0.0
 32
0.0
 13
1.0
 23
0.0
 33
0.0
 40
0.0
 40
0.0
 40
0.0
 40
0.0
 40
0.0174292903292919
 40
0.0320016548185924
 40
0.1002906367967352
 40
0.2310180627501545
 40
0.7528983074465704
 40
2.548656308799123
 40
5.584732464588885
 40
10.53577858500486
 40
10.53577858500486
 40
10.53577858500486
 40
10.53577858500486
 10
438.2284106890478
 20
279.1857458012988
 30
0.0
 10
438.2325620945831
 20
279.1847409445384
 30
0.0
 10
438.2465917233236
 20
279.1741533357369
 30
0.0
 10
438.2174141110653
 20
279.1525944610961
 30
0.0
 10
438.147748038888
 20
279.1381230357071
 30
0.0
 10
437.9095571069747
 20
279.1050110622334
 30
0.0
 10
437.095328355685
 20
279.0472168349257
 30
0.0
 10
435.3122027371855
 20
278.9736919722079
 30
0.0
 10
432.0526586664092
 20
278.8772223689169
 30
0.0
 10
429.3910384915616
 20
278.8133990178293
 30
0.0
 10
427.741180856661
 20
278.7732535707049
 30
0.0
  0
SPLINE
  5
132
330
1F
100
AcDbEntity
  8
Make2D$___$___
100
AcDbSpline
210
0.0
220
0.0
230
1.0
 70
     8
 71
     3
 72
    13
 73
     9
 74
     0
 42
0.000000001
 43
0.0000000001
 12
1.0
 22
0.0
 32
0.0
 13
1.0
 23
0.0
 33
0.0
 40
0.0
 40
0.0
 40
0.0
 40
0.0
 40
5.131930289497864
 40
8.119482725690807
 40
9.925797555406964
 40
10.37798042033025
 40
10.47731460031454
 40
10.51709112600493
 40
10.51709112600493
 40
10.51709112600493
 40
10.51709112600493
 10
427.7411824642356
 20
280.3731867893194
 30
0.0
 10
426.0310485024823
 20
280.3314511632245
 30
0.0
 10
423.32531724115
 20
280.2670001057838
 30
0.0
 10
420.0181883436143
 20
280.1674522425857
 30
0.0
 10
418.2710014635827
 20
280.0938712738431
 30
0.0
 10
417.4871262029438
 20
280.0331260305975
 30
0.0
 10
417.292707023488
 20
280.0002945667583
 30
0.0
 10
417.2476855270301
 20
279.985392886639
 30
0.0
 10
417.2411813558335
 20
279.9732109151806
 30
0.0
  0
SPLINE
  5
133
330
1F
100
AcDbEntity
  8
Make2D$___$___
100
AcDbSpline
210
0.0
220
0.0
230
1.0
 70
     8
 71
     3
 72
    15
 73
    11
 74
     0
 42
0.000000001
 43
0.0000000001
 12
1.0
 22
0.0
 32
0.0
 13
1.0
 23
0.0
 33
0.0
 40
0.0
 40
0.0
 40
0.0
 40
0.0
 40
0.0174297623753671
 40
0.0320020424270097
 40
0.1002905801512947
 40
0.2310178294939107
 40
0.7528983750180112
 40
2.548655302561131
 40
5.584729150282772
 40
10.53577766556487
 40
10.53577766556487
 40
10.53577766556487
 40
10.53577766556487
 10
438.2284103547744
 20
280.785680134954
 30
0.0
 10
438.2325616939272
 20
280.7846751234219
 30
0.0
 10
438.246591847483
 20
280.7740875337107
 30
0.0
 10
438.2174148588738
 20
280.752528143719
 30
0.0
 10
438.1477487188018
 20
280.7380573865751
 30
0.0
 10
437.9095578080612
 20
280.7049461677657
 30
0.0
 10
437.0953292727536
 20
280.6471542557942
 30
0.0
 10
435.3122049017789
 20
280.5736236350175
 30
0.0
 10
432.052661104674
 20
280.4771555138331
 30
0.0
 10
429.3910407430896
 20
280.4133384690838
 30
0.0
 10
427.7411824642356
 20
280.3731867893194
 30
0.0
  0
SPLINE
  5
134
330
1F
100
AcDbEntity
  8
Make2D$___$___
100
AcDbSpline
210
0.0
220
0.0
230
1.0
 70
     8
 71
     3
 72
    13
 73
     9
 74
     0
 42
0.000000001
 43
0.0000000001
 12
1.0
 22
0.0
 32
0.0
 13
1.0
 23
0.0
 33
0.0
 40
0.0
 40
0.0
 40
0.0
 40
0.0
 40
5.131920752114408
 40
8.119484294195361
 40
9.925799295066103
 40
10.37798279436411
 40
10.47731779494348
 40
10.51709607379263
 40
10.51709607379263
 40
10.51709607379263
 40
10.51709607379263
 10
427.7411816029536
 20
281.9732241823928
 30
0.0
 10
426.0310506708507
 20
281.9314943432256
 30
0.0
 10
423.3253192800917
 20
281.8670279616911
 30
0.0
 10
420.0181900453051
 20
281.7674718804855
 30
0.0
 10
418.2709993181544
 20
281.6938876647946
 30
0.0
 10
417.4871246072915
 20
281.6331246295712
 30
0.0
 10
417.2927052080754
 20
281.6002892548393
 30
0.0
 10
417.2476836250118
 20
281.5853837788146
 30
0.0
 10
417.2411802092617
 20
281.5732008256193
 30
0.0
  0
LINE
  5
135
330
1F
100
AcDbEntity
  8
Make2D$___$___
100
AcDbLine
 10
438.2281677046817
 20
275.9852887819504
 30
0.0
 11
438.2409317045308
 21
275.9727785194597
 31
0.0
  0
SPLINE
  5
136
330
1F
100
AcDbEntity
  8
Make2D$___$___
100
AcDbSpline
210
0.0
220
0.0
230
1.0
 70
     8
 71
     3
 72
    13
 73
     9
 74
     0
 42
0.000000001
 43
0.0000000001
 12
1.0
 22
0.0
 32
0.0
 13
1.0
 23
0.0
 33
0.0
 40
0.0
 40
0.0
 40
0.0
 40
0.0
 40
5.131920490908811
 40
8.11948281150094
 40
9.925797454159406
 40
10.37798134845048
 40
10.47731601559412
 40
10.51709326728193
 40
10.51709326728193
 40
10.51709326728193
 40
10.51709326728193
 10
427.7411827762561
 20
277.1731745603338
 30
0.0
 10
426.0310518702004
 20
277.1314467527445
 30
0.0
 10
423.3253210414525
 20
277.0669792673066
 30
0.0
 10
420.0181920675868
 20
276.9674340374609
 30
0.0
 10
418.2710017331619
 20
276.893850538782
 30
0.0
 10
417.4871263372333
 20
276.8330998591206
 30
0.0
 10
417.2927067599492
 20
276.8002666275445
 30
0.0
 10
417.2476851836593
 20
276.7853635592386
 30
0.0
 10
417.241180991388
 20
276.7731814196538
 30
0.0
  0
SPLINE
  5
137
330
1F
100
AcDbEntity
  8
Make2D$___$___
100
AcDbSpline
210
0.0
220
0.0
230
1.0
 70
     8
 71
     3
 72
    15
 73
    11
 74
     0
 42
0.000000001
 43
0.0000000001
 12
1.0
 22
0.0
 32
0.0
 13
1.0
 23
0.0
 33
0.0
 40
0.0
 40
0.0
 40
0.0
 40
0.0
 40
0.0174273933561031
 40
0.0319965387797649
 40
0.1002826273821882
 40
0.2310082415023906
 40
0.7528841647824482
 40
2.548638889075311
 40
5.584712904669349
 40
10.53575786403558
 40
10.53575786403558
 40
10.53575786403558
 40
10.53575786403558
 10
438.2284078378047
 20
274.3853124857297
 30
0.0
 10
438.232558502414
 20
274.3843087395891
 30
0.0
 10
438.2465894985851
 20
274.3737238131936
 30
0.0
 10
438.217411045972
 20
274.3521707472823
 30
0.0
 10
438.1477468115551
 20
274.3377047367009
 30
0.0
 10
437.9095575184908
 20
274.3046037859141
 30
0.0
 10
437.0953311284519
 20
274.2468213141341
 30
0.0
 10
435.3122077473025
 20
274.1733216357247
 30
0.0
 10
432.052665520046
 20
274.0768661303161
 30
0.0
 10
429.3910462402972
 20
274.0130500426405
 30
0.0
 10
427.7411890510411
 20
273.9729026374772
 30
0.0
  0
SPLINE
  5
138
330
1F
100
AcDbEntity
  8
Make2D$___$___
100
AcDbSpline
210
0.0
220
0.0
230
1.0
 70
     8
 71
     3
 72
    13
 73
     9
 74
     0
 42
0.000000001
 43
0.0000000001
 12
1.0
 22
0.0
 32
0.0
 13
1.0
 23
0.0
 33
0.0
 40
0.0
 40
0.0
 40
0.0
 40
0.0
 40
5.131923474637389
 40
8.119487645889762
 40
9.925806308044388
 40
10.37799444132635
 40
10.47733164552984
 40
10.51711497476857
 40
10.51711497476857
 40
10.51711497476857
 40
10.51711497476857
 10
427.7411877291527
 20
275.5729813156895
 30
0.0
 10
426.0310560022317
 20
275.531246874475
 30
0.0
 10
423.3253235545749
 20
275.4667777972317
 30
0.0
 10
420.0181924755357
 20
275.3672035208987
 30
0.0
 10
418.2710001899521
 20
275.2935830938448
 30
0.0
 10
417.4871231399517
 20
275.2328054443719
 30
0.0
 10
417.2927015707874
 20
275.1999565514687
 30
0.0
 10
417.2476793014265
 20
275.1850449418513
 30
0.0
 10
417.2411778493301
 20
275.1728580729589
 30
0.0
  0
SPLINE
  5
139
330
1F
100
AcDbEntity
  8
Make2D$___$___
100
AcDbSpline
210
0.0
220
0.0
230
1.0
 70
     8
 71
     3
 72
    13
 73
     9
 74
     0
 42
0.000000001
 43
0.0000000001
 12
1.0
 22
0.0
 32
0.0
 13
1.0
 23
0.0
 33
0.0
 40
0.0
 40
0.0
 40
0.0
 40
0.0
 40
0.0397644752525551
 40
0.1390869631197091
 40
0.5912416306069045
 40
2.397486966864438
 40
5.384985503183987
 40
10.51682400761297
 40
10.51682400761297
 40
10.51682400761297
 40
10.51682400761297
 10
438.2409317045308
 20
275.9727785194597
 30
0.0
 10
438.2344308739679
 20
275.9606001625481
 30
0.0
 10
438.1894152149733
 20
275.9457037937824
 30
0.0
 10
437.9950114924139
 20
275.9128890527753
 30
0.0
 10
437.2111714273828
 20
275.8521600149962
 30
0.0
 10
435.4640336152517
 20
275.7786168611024
 30
0.0
 10
432.156974575071
 20
275.6791313686581
 30
0.0
 10
429.4512916835773
 20
275.6146938388144
 30
0.0
 10
427.7411877291527
 20
275.5729813156895
 30
0.0
  0
SPLINE
  5
13A
330
1F
100
AcDbEntity
  8
Make2D$___$___
100
AcDbSpline
210
0.0
220
0.0
230
1.0
 70
     8
 71
     3
 72
    18
 73
    14
 74
     0
 42
0.000000001
 43
0.0000000001
 12
1.0
 22
0.0
 32
0.0
 13
1.0
 23
0.0
 33
0.0
 40
0.0
 40
0.0
 40
0.0
 40
0.0
 40
0.0598230128049238
 40
0.194364950360047
 40
0.6673316937250251
 40
2.356462222204571
 40
5.108358052809319
 40
12.65488028203232
 40
15.49908202014227
 40
17.7301050700146
 40
18.316642353906
 40
18.50452581825833
 40
18.59668234714356
 40
18.59668234714356
 40
18.59668234714356
 40
18.59668234714356
 10
437.0286741103748
 20
273.3850365607804
 30
0.0
 10
437.0107926428104
 20
273.3759731035033
 30
0.0
 10
436.9478069269005
 20
273.3599365641033
 30
0.0
 10
436.7275736788451
 20
273.3277395546339
 30
0.0
 10
435.9641799629307
 20
273.268161795012
 30
0.0
 10
434.327794626864
 20
273.1936819414308
 30
0.0
 10
430.3340828349223
 20
273.06260427132
 30
0.0
 10
425.9544869020501
 20
272.9545835221228
 30
0.0
 10
421.749297066679
 20
272.8233367832495
 30
0.0
 10
419.8634818085288
 20
272.747609124341
 30
0.0
 10
418.8638573407054
 20
272.6792366568091
 30
0.0
 10
418.5771418982565
 20
272.642940854875
 30
0.0
 10
418.4854928539744
 20
272.624424621505
 30
0.0
 10
418.456971184181
 20
272.6126540695902
 30
0.0
  0
LINE
  5
13B
330
1F
100
AcDbEntity
  8
Make2D$___$___
100
AcDbLine
 10
418.4427530080467
 20
274.2020400168028
 30
0.0
 11
418.4438717538424
 21
274.1928607896118
 31
0.0
  0
SPLINE
  5
13C
330
1F
100
AcDbEntity
  8
Make2D$___$___
100
AcDbSpline
210
0.0
220
0.0
230
1.0
 70
     8
 71
     3
 72
    19
 73
    15
 74
     0
 42
0.000000001
 43
0.0000000001
 12
1.0
 22
0.0
 32
0.0
 13
1.0
 23
0.0
 33
0.0
 40
0.0
 40
0.0
 40
0.0
 40
0.0
 40
0.0025688155107723
 40
0.0910179005328336
 40
0.246527464436118
 40
0.8643043016664232
 40
3.088652098849013
 40
6.055275368586544
 40
13.35749469145761
 40
16.32190281770601
 40
17.97680222197021
 40
18.42966072759311
 40
18.53763928144249
 40
18.59852032196846
 40
18.59852032196846
 40
18.59852032196846
 40
18.59852032196846
 10
437.0272872787161
 20
274.983364993801
 30
0.0
 10
437.0265316844306
 20
274.9829668017411
 30
0.0
 10
436.998214012339
 20
274.9716882800269
 30
0.0
 10
436.9176607117051
 20
274.9549097857694
 30
0.0
 10
436.6326332725173
 20
274.9178677142704
 30
0.0
 10
435.6356511895021
 20
274.8488755762376
 30
0.0
 10
433.7008759955073
 20
274.7712094172685
 30
0.0
 10
429.5384959350849
 20
274.6419703511058
 30
0.0
 10
425.1287319508905
 20
274.5321997081002
 30
0.0
 10
421.1569812328236
 20
274.402796635774
 30
0.0
 10
419.4679637794071
 20
274.3249481279361
 30
0.0
 10
418.7315735655212
 20
274.2658041056272
 30
0.0
 10
418.5265857568473
 20
274.2342856653904
 30
0.0
 10
418.4719486495121
 20
274.2201249126242
 30
0.0
 10
418.4536214879437
 20
274.2112192406691
 30
0.0
  0
LINE
  5
13D
330
1F
100
AcDbEntity
  8
Make2D$___$___
100
AcDbLine
 10
437.0421573772509
 20
275.0006724592804
 30
0.0
 11
437.039801239369
 21
274.9914921983976
 31
0.0
  0
SPLINE
  5
13E
330
1F
100
AcDbEntity
  8
Make2D$___$___
100
AcDbSpline
210
0.0
220
0.0
230
1.0
 70
     8
 71
     3
 72
    18
 73
    14
 74
     0
 42
0.000000001
 43
0.0000000001
 12
1.0
 22
0.0
 32
0.0
 13
1.0
 23
0.0
 33
0.0
 40
0.0
 40
0.0
 40
0.0
 40
0.0
 40
0.0899444221353778
 40
0.259272548575063
 40
0.8501796750081708
 40
3.061114008725347
 40
5.899890172547736
 40
13.44912562114213
 40
16.29890967026959
 40
17.96502235914487
 40
18.41347738587512
 40
18.54456964379569
 40
18.60492020275646
 40
18.60492020275646
 40
18.60492020275646
 40
18.60492020275646
 10
437.0278417541946
 20
276.5841564263536
 30
0.0
 10
437.0003140630833
 20
276.5718962387793
 30
0.0
 10
436.9155807480304
 20
276.5539562225886
 30
0.0
 10
436.6343428215015
 20
276.5179304151599
 30
0.0
 10
435.6461515500562
 20
276.4496686674976
 30
0.0
 10
433.7674070613345
 20
276.3736037289956
 30
0.0
 10
429.5698194994787
 20
276.242350085005
 30
0.0
 10
425.1585035324245
 20
276.1336068260228
 30
0.0
 10
421.1389492012187
 20
276.0017102619557
 30
0.0
 10
419.4857924863867
 20
275.9261789482298
 30
0.0
 10
418.7394683465485
 20
275.8663581440363
 30
0.0
 10
418.5284126004841
 20
275.8342786722025
 30
0.0
 10
418.4664623649391
 20
275.8182978826002
 30
0.0
 10
418.4486987879278
 20
275.8084949282231
 30
0.0
  0
SPLINE
  5
13F
330
1F
100
AcDbEntity
  8
Make2D$___$___
100
AcDbSpline
210
0.0
220
0.0
230
1.0
 70
     8
 71
     3
 72
    15
 73
    11
 74
     0
 42
0.000000001
 43
0.0000000001
 12
1.0
 22
0.0
 32
0.0
 13
1.0
 23
0.0
 33
0.0
 40
0.0
 40
0.0
 40
0.0
 40
0.0
 40
0.0103502386802108
 40
0.0272770866645919
 40
0.0585221409529074
 40
0.1803672147058144
 40
0.6686637440909455
 40
2.400575644938558
 40
5.315091629268927
 40
10.30187533469962
 40
10.30187533469962
 40
10.30187533469962
 40
10.30187533469962
 10
438.0248574542683
 20
272.8914488063247
 30
0.0
 10
438.0303873838432
 20
272.8893114785872
 30
0.0
 10
438.0257338742107
 20
272.8808109496157
 30
0.0
 10
438.0062455618963
 20
272.8753666124674
 30
0.0
 10
437.9507013615675
 20
272.8649609952777
 30
0.0
 10
437.7377554384923
 20
272.8440022775494
 30
0.0
 10
436.9579947902877
 20
272.8053201227068
 30
0.0
 10
435.2470335200317
 20
272.7573932285751
 30
0.0
 10
432.0366393538122
 20
272.6922037524209
 30
0.0
 10
429.4032069902196
 20
272.6490619260233
 30
0.0
 10
427.7411856020349
 20
272.6211687261924
 30
0.0
  0
LINE
  5
140
330
1F
100
AcDbEntity
  8
Make2D$___$___
100
AcDbLine
 10
417.2544182588866
 20
273.585193071159
 30
0.0
 11
417.2422674653965
 21
273.574845382167
 31
0.0
  0
SPLINE
  5
141
330
1F
100
AcDbEntity
  8
Make2D$___$___
100
AcDbSpline
210
0.0
220
0.0
230
1.0
 70
     8
 71
     3
 72
    13
 73
     9
 74
     0
 42
0.000000001
 43
0.0000000001
 12
1.0
 22
0.0
 32
0.0
 13
1.0
 23
0.0
 33
0.0
 40
0.0
 40
0.0
 40
0.0
 40
0.0
 40
4.981174798723316
 40
7.955912712206561
 40
9.802962259058507
 40
10.2702938396048
 40
10.41650437561004
 40
10.49664268557591
 40
10.49664268557591
 40
10.49664268557591
 40
10.49664268557591
 10
427.7411890510411
 20
273.9729026374772
 30
0.0
 10
426.0812974056151
 20
273.9324333445299
 30
0.0
 10
423.4300592178104
 20
273.8691031948467
 30
0.0
 10
420.1638526734732
 20
273.7720134052693
 30
0.0
 10
418.4022015441491
 20
273.6999048279459
 30
0.0
 10
417.5839481626608
 20
273.6414890444228
 30
0.0
 10
417.3545493834176
 20
273.6115698424981
 30
0.0
 10
417.280544023731
 20
273.5962413717288
 30
0.0
 10
417.2557917549588
 20
273.5858603000405
 30
0.0
  0
LINE
  5
142
330
1F
100
AcDbEntity
  8
Make2D$___$___
100
AcDbLine
 10
418.7411807768557
 20
271.5979373068567
 30
0.0
 11
427.741180776856
 21
271.5979373068567
 31
0.0
  0
SPLINE
  5
143
330
1F
100
AcDbEntity
  8
Make2D$___$___
100
AcDbSpline
210
0.0
220
0.0
230
1.0
 70
     8
 71
     3
 72
    13
 73
     9
 74
     0
 42
0.000000001
 43
0.0000000001
 12
1.0
 22
0.0
 32
0.0
 13
1.0
 23
0.0
 33
0.0
 40
0.0
 40
0.0
 40
0.0
 40
0.0
 40
4.687990689903942
 40
7.513076233615696
 40
9.21513971887239
 40
9.640894515344417
 40
9.748554127656456
 40
9.773719650517982
 40
9.773719650517982
 40
9.773719650517982
 40
9.773719650517982
 10
427.7411856020348
 20
272.6211687261923
 30
0.0
 10
426.1787324596101
 20
272.5948123879731
 30
0.0
 10
423.6747382516368
 20
272.55413637228
 30
0.0
 10
420.6036403261488
 20
272.4893420827192
 30
0.0
 10
418.9534473313473
 20
272.4405413859859
 30
0.0
 10
418.2090958872034
 20
272.4006071424619
 30
0.0
 10
418.024497010641
 20
272.3790181184274
 30
0.0
 10
417.9798937250134
 20
272.3673778546998
 30
0.0
 10
417.9803394677716
 20
272.3584549539225
 30
0.0
  0
SPLINE
  5
144
330
1F
100
AcDbEntity
  8
Make2D$___$___
100
AcDbSpline
210
0.0
220
0.0
230
1.0
 70
     8
 71
     3
 72
    18
 73
    14
 74
     0
 42
0.000000001
 43
0.0000000001
 12
1.0
 22
0.0
 32
0.0
 13
1.0
 23
0.0
 33
0.0
 40
0.0
 40
0.0
 40
0.0
 40
0.0
 40
0.0574903230135242
 40
0.1877094054671268
 40
0.6425574055558095
 40
2.329281668934345
 40
5.167455609202299
 40
12.64750736871242
 40
15.54742495672272
 40
17.75958940594373
 40
18.3280405863228
 40
18.50687434071469
 40
18.59881611004187
 40
18.59881611004187
 40
18.59881611004187
 40
18.59881611004187
 10
437.0279881265656
 20
278.1847024058117
 30
0.0
 10
437.0106290056675
 20
278.1762832875525
 30
0.0
 10
436.9498918620413
 20
278.1608463530383
 30
0.0
 10
436.7378975387654
 20
278.1289031803719
 30
0.0
 10
435.9828525682132
 20
278.0690374919349
 30
0.0
 10
434.3245605866276
 20
277.9934306378639
 30
0.0
 10
430.3250493039393
 20
277.8624576654609
 30
0.0
 10
425.9202887908763
 20
277.7536094594639
 30
0.0
 10
421.7249672235874
 20
277.6226013133624
 30
0.0
 10
419.8329217435095
 20
277.5461101222048
 30
0.0
 10
418.8486503452219
 20
277.4777028797399
 30
0.0
 10
418.5710603061902
 20
277.4422440465771
 30
0.0
 10
418.4824475970967
 20
277.4239469230237
 30
0.0
 10
418.4543387481105
 20
277.4113329851521
 30
0.0
  0
LINE
  5
145
330
1F
100
AcDbEntity
  8
Make2D$___$___
100
AcDbLine
 10
437.0384469388354
 20
278.2034153736201
 30
0.0
 11
437.0378253364424
 21
278.1916964752576
 31
0.0
  0
SPLINE
  5
146
330
1F
100
AcDbEntity
  8
Make2D$___$___
100
AcDbSpline
210
0.0
220
0.0
230
1.0
 70
     8
 71
     3
 72
    18
 73
    14
 74
     0
 42
0.000000001
 43
0.0000000001
 12
1.0
 22
0.0
 32
0.0
 13
1.0
 23
0.0
 33
0.0
 40
0.0
 40
0.0
 40
0.0
 40
0.0
 40
0.0620818852719436
 40
0.2079258212983624
 40
0.6606868951493378
 40
2.256182762685168
 40
5.220806133832926
 40
12.70305054910451
 40
15.59205495388956
 40
17.78561001968849
 40
18.34344039415956
 40
18.50987404364022
 40
18.60019628639143
 40
18.60019628639143
 40
18.60019628639143
 40
18.60019628639143
 10
437.0299097344788
 20
279.785445110513
 30
0.0
 10
437.0112722569781
 20
279.7760996276452
 30
0.0
 10
436.943848905876
 20
279.7594302207725
 30
0.0
 10
436.7257275014423
 20
279.7278575870575
 30
0.0
 10
435.9964936075117
 20
279.6702132730679
 30
0.0
 10
434.3272134291356
 20
279.593241282953
 30
0.0
 10
430.3152172721607
 20
279.4622388158409
 30
0.0
 10
425.8712367209795
 20
279.3522533870847
 30
0.0
 10
421.6850249356195
 20
279.2212529167429
 30
0.0
 10
419.8063730583901
 20
279.1447508577353
 30
0.0
 10
418.8359890390977
 20
279.0765689226819
 30
0.0
 10
418.5666609869668
 20
279.0412339375902
 30
0.0
 10
418.4826278961362
 20
279.0239823704418
 30
0.0
 10
418.4549560539416
 20
279.0117322882938
 30
0.0
  0
SPLINE
  5
147
330
1F
100
AcDbEntity
  8
Make2D$___$___
100
AcDbSpline
210
0.0
220
0.0
230
1.0
 70
     8
 71
     3
 72
    19
 73
    15
 74
     0
 42
0.000000001
 43
0.0000000001
 12
1.0
 22
0.0
 32
0.0
 13
1.0
 23
0.0
 33
0.0
 40
0.0
 40
0.0
 40
0.0
 40
0.0
 40
0.0283314903517004
 40
0.0913163283632667
 40
0.2576977304991954
 40
0.8155691691604207
 40
3.009138669442438
 40
5.898041993129078
 40
13.37989061448759
 40
16.34431835537218
 40
17.93961827345306
 40
18.39300938759627
 40
18.51582622231457
 40
18.59899230742754
 40
18.59899230742754
 40
18.59899230742754
 40
18.59899230742754
 10
437.0279494298488
 20
281.3845893095224
 30
0.0
 10
437.0195420526827
 20
281.3802823869766
 30
0.0
 10
436.9906280026911
 20
281.3702859283069
 30
0.0
 10
436.9064132657704
 20
281.3533608614362
 30
0.0
 10
436.646018774151
 20
281.3193421875792
 30
0.0
 10
435.6756735836204
 20
281.2511140747195
 30
0.0
 10
433.7970182267238
 20
281.1746298098767
 30
0.0
 10
429.61097463984
 20
281.0436227652309
 30
0.0
 10
425.1672243392876
 20
280.9336333699262
 30
0.0
 10
421.1554847353839
 20
280.8026494433113
 30
0.0
 10
419.4861412886956
 20
280.7256483287224
 30
0.0
 10
418.7643775480732
 20
280.6686644332275
 30
0.0
 10
418.546744261434
 20
280.6375143289187
 30
0.0
 10
418.4794427306292
 20
280.6227860102098
 30
0.0
 10
418.4541621836196
 20
280.6111347903733
 30
0.0
  0
SPLINE
  5
148
330
1F
100
AcDbEntity
  8
Make2D$___$___
100
AcDbSpline
210
0.0
220
0.0
230
1.0
 70
     8
 71
     3
 72
    13
 73
     9
 74
     0
 42
0.000000001
 43
0.0000000001
 12
1.0
 22
0.0
 32
0.0
 13
1.0
 23
0.0
 33
0.0
 40
0.0
 40
0.0
 40
0.0
 40
0.0
 40
4.284552260249102
 40
6.970051423706796
 40
8.661668654512068
 40
9.106129623985266
 40
9.224946419511546
 40
9.299958047993044
 40
9.299958047993044
 40
9.299958047993044
 40
9.299958047993044
 10
427.7411808247345
 20
282.597936178257
 30
0.0
 10
426.3135433265753
 20
282.5586522009631
 30
0.0
 10
423.9910176955464
 20
282.4959280532811
 30
0.0
 10
421.1053911704433
 20
282.4000005650058
 30
0.0
 10
419.4997706495752
 20
282.3269377691201
 30
0.0
 10
418.7503270301075
 20
282.267424485962
 30
0.0
 10
418.5397434305453
 20
282.2362681024626
 30
0.0
 10
418.4765155795802
 20
282.2219649454036
 30
0.0
 10
418.4538246789721
 20
282.2112175670011
 30
0.0
  0
SPLINE
  5
149
330
1F
100
AcDbEntity
  8
Make2D$___$___
100
AcDbSpline
210
0.0
220
0.0
230
1.0
 70
     8
 71
     3
 72
    15
 73
    11
 74
     0
 42
0.000000001
 43
0.0000000001
 12
1.0
 22
0.0
 32
0.0
 13
1.0
 23
0.0
 33
0.0
 40
0.0
 40
0.0
 40
0.0
 40
0.0
 40
0.0174289688190866
 40
0.0320005057290208
 40
0.1002887711690047
 40
0.2310158003526831
 40
0.7528942355419613
 40
2.548652678372867
 40
5.584729059468846
 40
10.53577527423398
 40
10.53577527423398
 40
10.53577527423398
 40
10.53577527423398
 10
417.2539515578818
 20
282.8101753250666
 30
0.0
 10
417.249800359661
 20
282.8111799356884
 30
0.0
 10
417.2357702093762
 20
282.8217669229047
 30
0.0
 10
417.2649479402239
 20
282.843324327763
 30
0.0
 10
417.3346136181407
 20
282.8577946477287
 30
0.0
 10
417.5728038861182
 20
282.8909033738212
 30
0.0
 10
418.3870320091606
 20
282.9486990249483
 30
0.0
 10
420.1701576969565
 20
283.0222128366384
 30
0.0
 10
423.4297019670612
 20
283.1186828441739
 30
0.0
 10
426.091322383974
 20
283.18250204662
 30
0.0
 10
427.7411799884865
 20
283.2226495848076
 30
0.0
  0
SPLINE
  5
14A
330
1F
100
AcDbEntity
  8
Make2D$___$___
100
AcDbSpline
210
0.0
220
0.0
230
1.0
 70
     8
 71
     3
 72
    13
 73
     9
 74
     0
 42
0.000000001
 43
0.0000000001
 12
1.0
 22
0.0
 32
0.0
 13
1.0
 23
0.0
 33
0.0
 40
0.0
 40
0.0
 40
0.0
 40
0.0
 40
5.131923845887669
 40
8.119483362124475
 40
9.925797871356671
 40
10.37798233977049
 40
10.47731695791861
 40
10.51709435763924
 40
10.51709435763924
 40
10.51709435763924
 40
10.51709435763924
 10
427.7411790497717
 20
281.6226885059335
 30
0.0
 10
429.4513109067968
 20
281.66442299403
 30
0.0
 10
432.1570421019211
 20
281.7288834766028
 30
0.0
 10
435.4641711675296
 20
281.8284306941911
 30
0.0
 10
437.2113604176991
 20
281.9020217731732
 30
0.0
 10
437.9952359176054
 20
281.9627718892978
 30
0.0
 10
438.1896557051727
 20
281.9956054716041
 30
0.0
 10
438.2346772672054
 20
282.0105089040264
 30
0.0
 10
438.2411808833907
 20
282.0226915644134
 30
0.0
  0
SPLINE
  5
14B
330
1F
100
AcDbEntity
  8
Make2D$___$___
100
AcDbSpline
210
0.0
220
0.0
230
1.0
 70
     8
 71
     3
 72
    15
 73
    11
 74
     0
 42
0.000000001
 43
0.0000000001
 12
1.0
 22
0.0
 32
0.0
 13
1.0
 23
0.0
 33
0.0
 40
0.0
 40
0.0
 40
0.0
 40
0.0
 40
0.0174306717358016
 40
0.0320043351399683
 40
0.1002939066721611
 40
0.231021482777961
 40
0.7529012620858725
 40
2.548660137639319
 40
5.584727763261265
 40
10.53578308324463
 40
10.53578308324463
 40
10.53578308324463
 40
10.53578308324463
 10
417.2539502730312
 20
281.2101626588996
 30
0.0
 10
417.2497986064136
 20
281.2111681615688
 30
0.0
 10
417.2357688962489
 20
281.2217567883019
 30
0.0
 10
417.2649453054235
 20
281.2433190225456
 30
0.0
 10
417.3346120602023
 20
281.257791764768
 30
0.0
 10
417.5728024629847
 20
281.2909087362432
 30
0.0
 10
418.3870310495695
 20
281.3487075786623
 30
0.0
 10
420.1701535747389
 20
281.4222429370778
 30
0.0
 10
423.4296977931995
 20
281.5187245095397
 30
0.0
 10
426.0913185475859
 20
281.5825356240295
 30
0.0
 10
427.7411790497717
 20
281.6226885059335
 30
0.0
  0
SPLINE
  5
14C
330
1F
100
AcDbEntity
  8
Make2D$___$___
100
AcDbSpline
210
0.0
220
0.0
230
1.0
 70
     8
 71
     3
 72
    13
 73
     9
 74
     0
 42
0.000000001
 43
0.0000000001
 12
1.0
 22
0.0
 32
0.0
 13
1.0
 23
0.0
 33
0.0
 40
0.0
 40
0.0
 40
0.0
 40
0.0
 40
5.131920398756835
 40
8.119482469076525
 40
9.92579695559499
 40
10.37798093697227
 40
10.4773157907738
 40
10.51709379933092
 40
10.51709379933092
 40
10.51709379933092
 40
10.51709379933092
 10
427.7411807052716
 20
280.022620732219
 30
0.0
 10
429.4513115778011
 20
280.0643485898494
 30
0.0
 10
432.1570422748437
 20
280.128817062305
 30
0.0
 10
435.4641709524371
 20
280.2283666791769
 30
0.0
 10
437.2113610051686
 20
280.3019547405463
 30
0.0
 10
437.9952361496761
 20
280.362709560898
 30
0.0
 10
438.1896557135304
 20
280.3955451777507
 30
0.0
 10
438.2346772827593
 20
280.4104494968892
 30
0.0
 10
438.2411810203059
 20
280.4226323045713
 30
0.0
  0
SPLINE
  5
14D
330
1F
100
AcDbEntity
  8
Make2D$___$___
100
AcDbSpline
210
0.0
220
0.0
230
1.0
 70
     8
 71
     3
 72
    15
 73
    11
 74
     0
 42
0.000000001
 43
0.0000000001
 12
1.0
 22
0.0
 32
0.0
 13
1.0
 23
0.0
 33
0.0
 40
0.0
 40
0.0
 40
0.0
 40
0.0
 40
0.0174288927280933
 40
0.0320005800325933
 40
0.1002892070279236
 40
0.2310166198950533
 40
0.7528961164903065
 40
2.548652603127899
 40
5.584728672219458
 40
10.53577608486557
 40
10.53577608486557
 40
10.53577608486557
 40
10.53577608486557
 10
417.2539513179225
 20
279.6101432516847
 30
0.0
 10
417.2498000777927
 20
279.6111479064086
 30
0.0
 10
417.2357701731993
 20
279.6217349584016
 30
0.0
 10
417.2649481766699
 20
279.6432925952763
 30
0.0
 10
417.3346140981473
 20
279.6577624309611
 30
0.0
 10
417.5728049476004
 20
279.6908724584231
 30
0.0
 10
418.3870329833282
 20
279.7486651498816
 30
0.0
 10
420.1701579463124
 20
279.8221880590658
 30
0.0
 10
423.4297020337837
 20
279.9186523568561
 30
0.0
 10
426.0913228038107
 20
279.9824690143997
 30
0.0
 10
427.7411807052716
 20
280.022620732219
 30
0.0
  0
SPLINE
  5
14E
330
1F
100
AcDbEntity
  8
Make2D$___$___
100
AcDbSpline
210
0.0
220
0.0
230
1.0
 70
     8
 71
     3
 72
    13
 73
     9
 74
     0
 42
0.000000001
 43
0.0000000001
 12
1.0
 22
0.0
 32
0.0
 13
1.0
 23
0.0
 33
0.0
 40
0.0
 40
0.0
 40
0.0
 40
0.0
 40
5.131922591816524
 40
8.1194840692478
 40
9.925796937495239
 40
10.37798056617111
 40
10.47731519681747
 40
10.51709180347205
 40
10.51709180347205
 40
10.51709180347205
 40
10.51709180347205
 10
427.7411787904638
 20
278.4226998460705
 30
0.0
 10
429.4513102254406
 20
278.4644342883735
 30
0.0
 10
432.1570416809266
 20
278.5288943185069
 30
0.0
 10
435.464170566476
 20
278.6284359230496
 30
0.0
 10
437.2113600197918
 20
278.7020183487663
 30
0.0
 10
437.9952347241475
 20
278.762768501225
 30
0.0
 10
438.1896542670713
 20
278.7955997180225
 30
0.0
 10
438.234675912953
 20
278.8105017459031
 30
0.0
 10
438.241180357515
 20
278.8226834069408
 30
0.0
  0
SPLINE
  5
14F
330
1F
100
AcDbEntity
  8
Make2D$___$___
100
AcDbSpline
210
0.0
220
0.0
230
1.0
 70
     8
 71
     3
 72
    15
 73
    11
 74
     0
 42
0.000000001
 43
0.0000000001
 12
1.0
 22
0.0
 32
0.0
 13
1.0
 23
0.0
 33
0.0
 40
0.0
 40
0.0
 40
0.0
 40
0.0
 40
0.0174298593787316
 40
0.0320028057818385
 40
0.1002921045459056
 40
0.2310196259279841
 40
0.7528998678920455
 40
2.548657700291678
 40
5.584733666176295
 40
10.53577963539633
 40
10.53577963539633
 40
10.53577963539633
 40
10.53577963539633
 10
417.2539505263997
 20
278.0101893534921
 30
0.0
 10
417.2497989977164
 20
278.0111944633863
 30
0.0
 10
417.235769367996
 20
278.0217825466422
 30
0.0
 10
417.2649464886456
 20
278.0433427763535
 30
0.0
 10
417.3346128011709
 20
278.0578153740657
 30
0.0
 10
417.5728035470419
 20
278.0909295459869
 30
0.0
 10
418.3870320408711
 20
278.148727601783
 30
0.0
 10
420.1701573765888
 20
278.2222564826094
 30
0.0
 10
423.4297011676741
 20
278.3187300923663
 30
0.0
 10
426.0913212056973
 20
278.3825543900439
 30
0.0
 10
427.7411787904638
 20
278.4226998460705
 30
0.0
  0
LINE
  5
150
330
1F
100
AcDbEntity
  8
Make2D$___$___
100
AcDbLine
 10
355.0343736328786
 20
295.2979373068674
 30
0.0
 11
413.1782914417276
 21
295.2979373068513
 31
0.0
  0
LINE
  5
151
330
1F
100
AcDbEntity
  8
Make2D$___$___
100
AcDbLine
 10
404.7334825861202
 20
351.2979373068571
 30
0.0
 11
404.7288480440686
 21
351.2979373068571
 31
0.0
  0
LINE
  5
152
330
1F
100
AcDbEntity
  8
Make2D$___$___
100
AcDbLine
 10
404.9623342810132
 20
351.2979373068571
 30
0.0
 11
404.7549897096396
 21
351.2979373068571
 31
0.0
  0
LINE
  5
153
330
1F
100
AcDbEntity
  8
Make2D$___$___
100
AcDbLine
 10
405.0446021549691
 20
351.297937306857
 30
0.0
 11
405.0282848428092
 21
351.297937306857
 31
0.0
  0
LINE
  5
154
330
1F
100
AcDbEntity
  8
Make2D$___$___
100
AcDbLine
 10
405.1398976057259
 20
351.297937306857
 30
0.0
 11
405.1207753650809
 21
351.2979373068571
 31
0.0
  0
LINE
  5
155
330
1F
100
AcDbEntity
  8
Make2D$___$___
100
AcDbLine
 10
408.2417457804588
 20
351.297937306857
 30
0.0
 11
408.0710713317525
 21
351.297937306857
 31
0.0
  0
LINE
  5
156
330
1F
100
AcDbEntity
  8
Make2D$___$___
100
AcDbLine
 10
408.5377594880749
 20
351.2979373068571
 30
0.0
 11
408.3582923703977
 21
351.2979373068571
 31
0.0
  0
LINE
  5
157
330
1F
100
AcDbEntity
  8
Make2D$___$___
100
AcDbLine
 10
408.8914205092079
 20
351.2979373068571
 30
0.0
 11
408.6811475413393
 21
351.297937306857
 31
0.0
  0
LINE
  5
158
330
1F
100
AcDbEntity
  8
Make2D$___$___
100
AcDbLine
 10
409.7278865829179
 20
351.2979373068571
 30
0.0
 11
408.9117970513357
 21
351.2979373068571
 31
0.0
  0
LINE
  5
159
330
1F
100
AcDbEntity
  8
Make2D$___$___
100
AcDbLine
 10
410.7076786317184
 20
351.2979373068572
 30
0.0
 11
410.6802713795105
 21
351.2979373068571
 31
0.0
  0
LINE
  5
15A
330
1F
100
AcDbEntity
  8
Make2D$___$___
100
AcDbLine
 10
411.1117056540566
 20
351.297937306857
 30
0.0
 11
410.8858201369222
 21
351.297937306857
 31
0.0
  0
LINE
  5
15B
330
1F
100
AcDbEntity
  8
Make2D$___$___
100
AcDbLine
 10
411.5268957970632
 20
351.297937306857
 30
0.0
 11
411.4930946737015
 21
351.2979373068571
 31
0.0
  0
LINE
  5
15C
330
1F
100
AcDbEntity
  8
Make2D$___$___
100
AcDbLine
 10
411.9528414971163
 20
351.2979373068571
 30
0.0
 11
411.7149218184794
 21
351.297937306857
 31
0.0
  0
LINE
  5
15D
330
1F
100
AcDbEntity
  8
Make2D$___$___
100
AcDbLine
 10
412.8352637870331
 20
351.297937306857
 30
0.0
 11
412.7348898631797
 21
351.297937306857
 31
0.0
  0
LINE
  5
15E
330
1F
100
AcDbEntity
  8
Make2D$___$___
100
AcDbLine
 10
414.2282242737946
 20
351.297937306857
 30
0.0
 11
414.1419803993032
 21
351.297937306857
 31
0.0
  0
LINE
  5
15F
330
1F
100
AcDbEntity
  8
Make2D$___$___
100
AcDbLine
 10
414.7090522385611
 20
351.297937306857
 30
0.0
 11
414.4390257766099
 21
351.297937306857
 31
0.0
  0
LINE
  5
160
330
1F
100
AcDbEntity
  8
Make2D$___$___
100
AcDbLine
 10
416.1937344614443
 20
351.2979373068571
 30
0.0
 11
416.099520177511
 21
351.297937306857
 31
0.0
  0
LINE
  5
161
330
1F
100
AcDbEntity
  8
Make2D$___$___
100
AcDbLine
 10
416.700890854839
 20
351.297937306857
 30
0.0
 11
416.4131426353522
 21
351.297937306857
 31
0.0
  0
LINE
  5
162
330
1F
100
AcDbEntity
  8
Make2D$___$___
100
AcDbLine
 10
418.2695098514069
 20
351.297937306857
 30
0.0
 11
418.228745450748
 21
351.297937306857
 31
0.0
  0
LINE
  5
163
330
1F
100
AcDbEntity
  8
Make2D$___$___
100
AcDbLine
 10
418.7926907861344
 20
351.297937306857
 30
0.0
 11
418.6701125845539
 21
351.2979373068571
 31
0.0
  0
LINE
  5
164
330
1F
100
AcDbEntity
  8
Make2D$___$___
100
AcDbLine
 10
419.3189118657269
 20
351.297937306857
 30
0.0
 11
419.1155347318078
 21
351.2979373068571
 31
0.0
  0
LINE
  5
165
330
1F
100
AcDbEntity
  8
Make2D$___$___
100
AcDbLine
 10
419.8476343544066
 20
351.297937306857
 30
0.0
 11
419.8339791545295
 21
351.297937306857
 31
0.0
  0
LINE
  5
166
330
1F
100
AcDbEntity
  8
Make2D$___$___
100
AcDbLine
 10
420.3783246466918
 20
351.2979373068571
 30
0.0
 11
420.3660529579649
 21
351.2979373068571
 31
0.0
  0
LINE
  5
167
330
1F
100
AcDbEntity
  8
Make2D$___$___
100
AcDbLine
 10
420.910456769213
 20
351.2979373068571
 30
0.0
 11
420.8995147685682
 21
351.2979373068571
 31
0.0
  0
LINE
  5
168
330
1F
100
AcDbEntity
  8
Make2D$___$___
100
AcDbLine
 10
421.4435135579768
 20
351.2979373068571
 30
0.0
 11
421.386643758935
 21
351.2979373068571
 31
0.0
  0
LINE
  5
169
330
1F
100
AcDbEntity
  8
Make2D$___$___
100
AcDbLine
 10
421.9769880004898
 20
351.2979373068571
 30
0.0
 11
421.8463493849153
 21
351.2979373068571
 31
0.0
  0
LINE
  5
16A
330
1F
100
AcDbEntity
  8
Make2D$___$___
100
AcDbLine
 10
430.136690378112
 20
351.297937306857
 30
0.0
 11
427.7411807787832
 21
351.2979373068571
 31
0.0
  0
LINE
  5
16B
330
1F
100
AcDbEntity
  8
Make2D$___$___
100
AcDbLine
 10
430.6521649639544
 20
351.297937306857
 30
0.0
 11
430.421164763367
 21
351.2979373068571
 31
0.0
  0
LINE
  5
16C
330
1F
100
AcDbEntity
  8
Make2D$___$___
100
AcDbLine
 10
431.1779910436871
 20
351.2979373068572
 30
0.0
 11
430.8771869652988
 21
351.2979373068571
 31
0.0
  0
LINE
  5
16D
330
1F
100
AcDbEntity
  8
Make2D$___$___
100
AcDbLine
 10
431.7060593126117
 20
351.2979373068571
 30
0.0
 11
431.3813368432661
 21
351.2979373068571
 31
0.0
  0
LINE
  5
16E
330
1F
100
AcDbEntity
  8
Make2D$___$___
100
AcDbLine
 10
432.7671950402846
 20
351.2979373068572
 30
0.0
 11
432.445388813978
 21
351.2979373068572
 31
0.0
  0
LINE
  5
16F
330
1F
100
AcDbEntity
  8
Make2D$___$___
100
AcDbLine
 10
433.2993586456461
 20
351.297937306857
 30
0.0
 11
432.979296958892
 21
351.297937306857
 31
0.0
  0
LINE
  5
170
330
1F
100
AcDbEntity
  8
Make2D$___$___
100
AcDbLine
 10
433.8319583354856
 20
351.2979373068572
 30
0.0
 11
433.6360121679543
 21
351.2979373068571
 31
0.0
  0
LINE
  5
171
330
1F
100
AcDbEntity
  8
Make2D$___$___
100
AcDbLine
 10
434.3645058080611
 20
351.2979373068571
 30
0.0
 11
434.0957178000731
 21
351.2979373068571
 31
0.0
  0
LINE
  5
172
330
1F
100
AcDbEntity
  8
Make2D$___$___
100
AcDbLine
 10
434.9234341167244
 20
351.2979373068571
 30
0.0
 11
434.5828468264104
 21
351.2979373068571
 31
0.0
  0
LINE
  5
173
330
1F
100
AcDbEntity
  8
Make2D$___$___
100
AcDbLine
 10
435.4565334824135
 20
351.2979373068571
 30
0.0
 11
435.1163087117195
 21
351.2979373068571
 31
0.0
  0
LINE
  5
174
330
1F
100
AcDbEntity
  8
Make2D$___$___
100
AcDbLine
 10
435.9880259262947
 20
351.2979373068572
 30
0.0
 11
435.6483823802522
 21
351.2979373068571
 31
0.0
  0
LINE
  5
175
330
1F
100
AcDbEntity
  8
Make2D$___$___
100
AcDbLine
 10
436.517372002726
 20
351.2979373068571
 30
0.0
 11
436.1785370714578
 21
351.2979373068571
 31
0.0
  0
LINE
  5
176
330
1F
100
AcDbEntity
  8
Make2D$___$___
100
AcDbLine
 10
437.0440245791527
 20
351.2979373068571
 30
0.0
 11
436.8122489920647
 21
351.297937306857
 31
0.0
  0
LINE
  5
177
330
1F
100
AcDbEntity
  8
Make2D$___$___
100
AcDbLine
 10
437.5674304055185
 20
351.2979373068571
 30
0.0
 11
437.2536160879581
 21
351.297937306857
 31
0.0
  0
LINE
  5
178
330
1F
100
AcDbEntity
  8
Make2D$___$___
100
AcDbLine
 10
438.087031762678
 20
351.2979373068572
 30
0.0
 11
437.7520662288164
 21
351.2979373068571
 31
0.0
  0
LINE
  5
179
330
1F
100
AcDbEntity
  8
Make2D$___$___
100
AcDbLine
 10
438.6022681812856
 20
351.2979373068572
 30
0.0
 11
438.2690990643183
 21
351.2979373068571
 31
0.0
  0
LINE
  5
17A
330
1F
100
AcDbEntity
  8
Make2D$___$___
100
AcDbLine
 10
439.1125779806869
 20
351.2979373068571
 30
0.0
 11
438.7814707067657
 21
351.2979373068571
 31
0.0
  0
LINE
  5
17B
330
1F
100
AcDbEntity
  8
Make2D$___$___
100
AcDbLine
 10
439.6174010659571
 20
351.2979373068572
 30
0.0
 11
439.3828413933637
 21
351.2979373068572
 31
0.0
  0
LINE
  5
17C
330
1F
100
AcDbEntity
  8
Make2D$___$___
100
AcDbLine
 10
440.116179306981
 20
351.297937306857
 30
0.0
 11
439.7898719664484
 21
351.2979373068571
 31
0.0
  0
LINE
  5
17D
330
1F
100
AcDbEntity
  8
Make2D$___$___
100
AcDbLine
 10
440.608359470011
 20
351.2979373068571
 30
0.0
 11
440.285091106114
 21
351.2979373068571
 31
0.0
  0
LINE
  5
17E
330
1F
100
AcDbEntity
  8
Make2D$___$___
100
AcDbLine
 10
441.0933949011093
 20
351.2979373068572
 30
0.0
 11
440.7733093379497
 21
351.2979373068572
 31
0.0
  0
LINE
  5
17F
330
1F
100
AcDbEntity
  8
Make2D$___$___
100
AcDbLine
 10
441.5707473659464
 20
351.2979373068571
 30
0.0
 11
441.3403812049314
 21
351.2979373068571
 31
0.0
  0
LINE
  5
180
330
1F
100
AcDbEntity
  8
Make2D$___$___
100
AcDbLine
 10
442.0398889841528
 20
351.2979373068572
 30
0.0
 11
441.7270508802484
 21
351.2979373068571
 31
0.0
  0
LINE
  5
181
330
1F
100
AcDbEntity
  8
Make2D$___$___
100
AcDbLine
 10
442.5003041059991
 20
351.2979373068571
 30
0.0
 11
442.1915374633399
 21
351.2979373068571
 31
0.0
  0
LINE
  5
182
330
1F
100
AcDbEntity
  8
Make2D$___$___
100
AcDbLine
 10
442.9514911502915
 20
351.2979373068571
 30
0.0
 11
442.7474715766281
 21
351.2979373068571
 31
0.0
  0
LINE
  5
183
330
1F
100
AcDbEntity
  8
Make2D$___$___
100
AcDbLine
 10
443.8242556729649
 20
351.297937306857
 30
0.0
 11
443.074156282
 21
351.2979373068571
 31
0.0
  0
LINE
  5
184
330
1F
100
AcDbEntity
  8
Make2D$___$___
100
AcDbLine
 10
444.2449160636418
 20
351.2979373068571
 30
0.0
 11
443.9892668087622
 21
351.2979373068571
 31
0.0
  0
LINE
  5
185
330
1F
100
AcDbEntity
  8
Make2D$___$___
100
AcDbLine
 10
444.6463660653316
 20
351.2979373068572
 30
0.0
 11
444.3706558131813
 21
351.2979373068571
 31
0.0
  0
LINE
  5
186
330
1F
100
AcDbEntity
  8
Make2D$___$___
100
AcDbLine
 10
445.0368165559806
 20
351.2979373068571
 30
0.0
 11
444.8020901552955
 21
351.2979373068571
 31
0.0
  0
LINE
  5
187
330
1F
100
AcDbEntity
  8
Make2D$___$___
100
AcDbLine
 10
445.4159071359002
 20
351.2979373068571
 30
0.0
 11
445.2259203606789
 21
351.2979373068571
 31
0.0
  0
LINE
  5
188
330
1F
100
AcDbEntity
  8
Make2D$___$___
100
AcDbLine
 10
445.7833002024951
 20
351.2979373068571
 30
0.0
 11
445.54773218553
 21
351.2979373068571
 31
0.0
  0
LINE
  5
189
330
1F
100
AcDbEntity
  8
Make2D$___$___
100
AcDbLine
 10
446.1386819407286
 20
351.2979373068571
 30
0.0
 11
445.9179122480015
 21
351.2979373068571
 31
0.0
  0
LINE
  5
18A
330
1F
100
AcDbEntity
  8
Make2D$___$___
100
AcDbLine
 10
446.4817631937518
 20
351.2979373068572
 30
0.0
 11
446.2788456814708
 21
351.2979373068572
 31
0.0
  0
LINE
  5
18B
330
1F
100
AcDbEntity
  8
Make2D$___$___
100
AcDbLine
 10
446.8122802087949
 20
351.2979373068571
 30
0.0
 11
446.6147619030693
 21
351.2979373068571
 31
0.0
  0
LINE
  5
18C
330
1F
100
AcDbEntity
  8
Make2D$___$___
100
AcDbLine
 10
447.4863151948599
 20
351.2979373068572
 30
0.0
 11
446.8546756475537
 21
351.2979373068571
 31
0.0
  0
LINE
  5
18D
330
1F
100
AcDbEntity
  8
Make2D$___$___
100
AcDbLine
 10
450.5765470378608
 20
351.2979373068571
 30
0.0
 11
450.5645354185771
 21
351.2979373068571
 31
0.0
  0
LINE
  5
18E
330
1F
100
AcDbEntity
  8
Make2D$___$___
100
AcDbLine
 10
450.6362265312513
 20
351.2979373068571
 30
0.0
 11
450.6264603434824
 21
351.2979373068571
 31
0.0
  0
LINE
  5
18F
330
1F
100
AcDbEntity
  8
Make2D$___$___
100
AcDbLine
 10
450.6834182823382
 20
351.2979373068572
 30
0.0
 11
450.6758577969533
 21
351.2979373068571
 31
0.0
  0
LINE
  5
190
330
1F
100
AcDbEntity
  8
Make2D$___$___
100
AcDbLine
 10
450.7515259369537
 20
351.297937306857
 30
0.0
 11
450.7129855112989
 21
351.2979373068571
 31
0.0
  0
LINE
  5
191
330
1F
100
AcDbEntity
  8
Make2D$___$___
100
AcDbLine
 10
454.6609685575883
 20
321.2979373340149
 30
0.0
 11
456.5640991710543
 21
321.2979373068571
 31
0.0
  0
SPLINE
  5
192
330
1F
100
AcDbEntity
  8
Make2D$___$___
100
AcDbSpline
210
0.0
220
0.0
230
1.0
 70
     8
 71
     3
 72
    12
 73
     8
 74
     0
 42
0.000000001
 43
0.0000000001
 12
1.0
 22
0.0
 32
0.0
 13
1.0
 23
0.0
 33
0.0
 40
0.0
 40
0.0
 40
0.0
 40
0.0
 40
0.433052556794641
 40
0.9014355954805287
 40
1.884156551777256
 40
5.268324573378032
 40
6.2018168758396
 40
6.2018168758396
 40
6.2018168758396
 40
6.2018168758396
 10
448.4650979910546
 20
321.1951935033336
 30
0.0
 10
448.6086731749549
 20
321.1807640409999
 30
0.0
 10
448.9082679620303
 20
321.1555178909124
 30
0.0
 10
449.5355316760237
 20
321.1255793389998
 30
0.0
 10
451.1481829102995
 20
321.1233201541933
 30
0.0
 10
452.911262069135
 20
321.2562254229853
 30
0.0
 10
454.349613966719
 20
321.3007421762888
 30
0.0
 10
454.6609685575884
 20
321.297937334015
 30
0.0
  0
LINE
  5
193
330
1F
100
AcDbEntity
  8
Make2D$___$___
100
AcDbLine
 10
456.5640991710543
 20
321.2979373068571
 30
0.0
 11
506.4277388339135
 21
321.2979373068407
 31
0.0
  0
LINE
  5
194
330
1F
100
AcDbEntity
  8
Make2D$___$___
100
AcDbLine
 10
506.4277388339135
 20
321.2979373068407
 30
0.0
 11
514.714646029046
 21
321.2979373068447
 31
0.0
  0
ARC
  5
195
330
1F
100
AcDbEntity
  8
Make2D$___$___
100
AcDbCircle
 10
514.7146520392496
 20
320.2979372839075
 30
0.0
 40
1.000000022955233
100
AcDbArc
 50
358.4999930368604
 51
90.00034435929274
  0
LINE
  5
196
330
1F
100
AcDbEntity
  8
Make2D$___$___
100
AcDbLine
 10
515.4428536380015
 20
309.905283508397
 30
0.0
 11
515.7143093770925
 21
320.2717599500636
 31
0.0
  0
LINE
  5
197
330
1F
100
AcDbEntity
  8
Make2D$___$___
100
AcDbLine
 10
500.4479931303768
 20
295.2979373068553
 30
0.0
 11
442.3040701119925
 21
295.2979373068574
 31
0.0
  0
ARC
  5
198
330
1F
100
AcDbEntity
  8
Make2D$___$___
100
AcDbCircle
 10
437.7941237878037
 20
316.8689497027798
 30
0.0
 40
5.253006261176031
100
AcDbArc
 50
292.2141035674336
 51
301.6948637070618
  0
ARC
  5
199
330
1F
100
AcDbEntity
  8
Make2D$___$___
100
AcDbCircle
 10
428.7526041639142
 20
317.6840475965772
 30
0.0
 40
14.15717247889853
100
AcDbArc
 50
314.5890579213542
 51
317.3278031516535
  0
SPLINE
  5
19A
330
1F
100
AcDbEntity
  8
Make2D$___$___
100
AcDbSpline
210
0.0
220
0.0
230
1.0
 70
     8
 71
     3
 72
    18
 73
    14
 74
     0
 42
0.000000001
 43
0.0000000001
 12
1.0
 22
0.0
 32
0.0
 13
1.0
 23
0.0
 33
0.0
 40
0.0
 40
0.0
 40
0.0
 40
0.0
 40
0.4522990052758743
 40
0.7525135030966376
 40
0.976106224152804
 40
1.14456192986673
 40
1.276770142400186
 40
1.439074271103468
 40
1.670674017366461
 40
1.979962754138058
 40
2.854537807256234
 40
3.823772370278843
 40
5.939058148602005
 40
5.939058148602005
 40
5.939058148602005
 40
5.939058148602005
 10
440.5540289970285
 20
312.3993861876199
 30
0.0
 10
440.6819762275894
 20
312.4802658177949
 30
0.0
 10
440.8942989698509
 20
312.6105822832487
 30
0.0
 10
441.1819307492647
 20
312.7682059230214
 30
0.0
 10
441.3939685464503
 20
312.852480528181
 30
0.0
 10
441.5732203090525
 20
312.8844971820504
 30
0.0
 10
441.7143261945882
 20
312.7961900695594
 30
0.0
 10
441.7486510086702
 20
312.6144529808104
 30
0.0
 10
441.7312630583297
 20
312.3826914087508
 30
0.0
 10
441.6190242782468
 20
311.9218630736657
 30
0.0
 10
441.3488947885959
 20
311.25588847696
 30
0.0
 10
440.7337050639615
 20
310.0866521765503
 30
0.0
 10
440.1391935242792
 20
309.2434780730072
 30
0.0
 10
439.6921686767423
 20
308.6983771030311
 30
0.0
  0
SPLINE
  5
19B
330
1F
100
AcDbEntity
  8
Make2D$___$___
100
AcDbSpline
210
0.0
220
0.0
230
1.0
 70
     8
 71
     3
 72
    18
 73
    14
 74
     0
 42
0.000000001
 43
0.0000000001
 12
1.0
 22
0.0
 32
0.0
 13
1.0
 23
0.0
 33
0.0
 40
0.0
 40
0.0
 40
0.0
 40
0.0
 40
1.403129858589871
 40
2.743290482064428
 40
3.876230847811535
 40
4.304350607408304
 40
4.557718850951769
 40
4.659239381501177
 40
4.74683331322487
 40
4.841656307697799
 40
4.960493992791193
 40
5.33643551429474
 40
5.927658812518315
 40
5.927658812518315
 40
5.927658812518315
 40
5.927658812518315
 10
415.7903743396583
 20
308.6985260561813
 30
0.0
 10
415.4940343982044
 20
309.0601326188534
 30
0.0
 10
414.9477245893386
 20
309.7956182634342
 30
0.0
 10
414.2933996907959
 20
310.9111871417166
 30
0.0
 10
413.9001948841871
 20
311.7979121922378
 30
0.0
 10
413.7459800782863
 20
312.3844245173464
 30
0.0
 10
413.7341250139887
 20
312.6479582348375
 30
0.0
 10
413.7826351619868
 20
312.7905520270057
 30
0.0
 10
413.8575977555076
 20
312.8547314865843
 30
0.0
 10
413.9589947956011
 20
312.8736468871666
 30
0.0
 10
414.1536275514713
 20
312.836170978795
 30
0.0
 10
414.4816423135442
 20
312.6783000912437
 30
0.0
 10
414.7558729159174
 20
312.5100896525644
 30
0.0
 10
414.9227456909302
 20
312.4047421060388
 30
0.0
  0
ARC
  5
19C
330
1F
100
AcDbEntity
  8
Make2D$___$___
100
AcDbCircle
 10
426.7281529832285
 20
317.6817665668804
 30
0.0
 40
14.15424528133914
100
AcDbArc
 50
222.672331288374
 51
225.4083811628304
  0
LINE
  5
19D
330
1F
100
AcDbEntity
  8
Make2D$___$___
100
AcDbLine
 10
414.9227456909301
 20
312.4047421060387
 30
0.0
 11
415.1619768606213
 21
312.131376634539
 31
0.0
  0
ARC
  5
19E
330
1F
100
AcDbEntity
  8
Make2D$___$___
100
AcDbCircle
 10
417.7730417415193
 20
317.0071374828254
 30
0.0
 40
5.413065720067611
100
AcDbArc
 50
239.1723512270579
 51
247.5126808759586
  0
ARC
  5
19F
330
1F
100
AcDbEntity
  8
Make2D$___$___
100
AcDbCircle
 10
427.7404411808919
 20
230.4878277317446
 30
0.0
 40
80.37244088716724
100
AcDbArc
 50
89.01962975776932
 51
89.99960103998623
  0
ARC
  5
1A0
330
1F
100
AcDbEntity
  8
Make2D$___$___
100
AcDbCircle
 10
427.739126196501
 20
230.5998804093079
 30
0.0
 40
80.26038822954824
100
AcDbArc
 50
89.99866175023286
 51
90.97898012313314
  0
SPLINE
  5
1A1
330
1F
100
AcDbEntity
  8
Make2D$___$___
100
AcDbSpline
210
0.0
220
0.0
230
1.0
 70
     8
 71
     3
 72
    10
 73
     6
 74
     0
 42
0.000000001
 43
0.0000000001
 12
1.0
 22
0.0
 32
0.0
 13
1.0
 23
0.0
 33
0.0
 40
0.0
 40
0.0
 40
0.0
 40
0.0
 40
0.4999988280647004
 40
0.4999988280647004
 40
0.9999976561294008
 40
0.9999976561294008
 40
0.9999976561294008
 40
0.9999976561294008
 10
415.7026580639476
 20
312.0056585098199
 30
0.0
 10
416.7881702176838
 20
311.5559624762979
 30
0.0
 10
418.2993831967954
 20
311.2519096181915
 30
0.0
 10
421.9933347477538
 20
310.8813199905256
 30
0.0
 10
424.1113475997379
 20
310.8097328585139
 30
0.0
 10
426.3678297016989
 20
310.848553075472
 30
0.0
  0
SPLINE
  5
1A2
330
1F
100
AcDbEntity
  8
Make2D$___$___
100
AcDbSpline
210
0.0
220
0.0
230
1.0
 70
     8
 71
     3
 72
    12
 73
     8
 74
     0
 42
0.000000001
 43
0.0000000001
 12
1.0
 22
0.0
 32
0.0
 13
1.0
 23
0.0
 33
0.0
 40
0.0
 40
0.0
 40
0.0
 40
0.0
 40
0.4999426092328694
 40
0.4999426092328694
 40
0.7499516128194433
 40
0.7499516128194433
 40
1.0
 40
1.0
 40
1.0
 40
1.0
 10
429.1156018856229
 20
310.8485033585545
 30
0.0
 10
431.2045905000303
 20
310.81304714804
 30
0.0
 10
433.3177017310749
 20
310.8704260512037
 30
0.0
 10
436.1196948700328
 20
311.1440253798163
 30
0.0
 10
436.9905443916738
 20
311.2642064942434
 30
0.0
 10
438.5422785738915
 20
311.5810045394187
 30
0.0
 10
439.2213048375872
 20
311.7728552538052
 30
0.0
 10
439.7801209406019
 20
312.0058344369207
 30
0.0
  0
ARC
  5
1A3
330
1F
100
AcDbEntity
  8
Make2D$___$___
100
AcDbCircle
 10
355.034369529698
 20
310.2979390809106
 30
0.0
 40
15.00000177406464
100
AcDbArc
 50
181.5000059175882
 51
269.9999996820533
  0
LINE
  5
1A4
330
1F
100
AcDbEntity
  8
Make2D$___$___
100
AcDbLine
 10
339.7680521668195
 20
320.2717603250027
 30
0.0
 11
340.0395079221619
 21
309.9052832611626
 31
0.0
  0
ARC
  5
1A5
330
1F
100
AcDbEntity
  8
Make2D$___$___
100
AcDbCircle
 10
340.7677095988435
 20
320.2979372017197
 30
0.0
 40
1.000000105137655
100
AcDbArc
 50
89.99991493635429
 51
181.4999957389963
  0
LINE
  5
1A6
330
1F
100
AcDbEntity
  8
Make2D$___$___
100
AcDbLine
 10
340.7677110834843
 20
321.2979373068563
 30
0.0
 11
349.0546226566688
 21
321.297937306842
 31
0.0
  0
LINE
  5
1A7
330
1F
100
AcDbEntity
  8
Make2D$___$___
100
AcDbLine
 10
349.0546226566688
 20
321.297937306842
 30
0.0
 11
398.9182603650631
 21
321.2979373068578
 31
0.0
  0
LINE
  5
1A8
330
1F
100
AcDbEntity
  8
Make2D$___$___
100
AcDbLine
 10
427.741180776856
 20
294.097937306857
 30
0.0
 11
441.7593735275885
 21
294.097937306857
 31
0.0
  0
SPLINE
  5
1A9
330
1F
100
AcDbEntity
  8
Make2D$___$___
100
AcDbSpline
210
0.0
220
0.0
230
1.0
 70
    28
 71
     2
 72
     8
 73
     5
 74
     0
 42
0.000000001
 43
0.0000000001
 12
1.0
 22
0.0
 32
0.0
 13
1.0
 23
0.0
 33
0.0
 40
21.5163251768468
 40
21.5163251768468
 40
21.5163251768468
 40
22.1995414872875
 40
22.1995414872875
 40
44.06246342138972
 40
44.06246342138972
 40
44.06246342138972
 10
413.7229880854372
 20
294.0979373068571
 30
0.0
 41
0.9825223427594799
 10
413.7129425929922
 20
294.097937306857
 30
0.0
 41
0.9909792736823122
 10
413.7166729281398
 20
294.097937306857
 30
0.0
 41
1.0
 10
413.8829709758415
 20
294.0979373068571
 30
0.0
 41
0.7113367578339901
 10
427.741180776856
 20
294.097937306857
 30
0.0
 41
1.0
  0
ARC
  5
1AA
330
1F
100
AcDbEntity
  8
Make2D$___$___
100
AcDbCircle
 10
500.4479988690542
 20
310.2979320542663
 30
0.0
 40
14.99999474741216
100
AcDbArc
 50
269.9999780798592
 51
358.5000211732867
  0
ARC
  5
1AB
330
1F
100
AcDbEntity
  8
Make2D$___$___
100
AcDbCircle
 10
418.1494051091236
 20
314.4426494035754
 30
0.0
 40
3.777129777071259
100
AcDbArc
 50
213.4825858264227
 51
217.7279150170986
  0
SPLINE
  5
1AC
330
1F
100
AcDbEntity
  8
Make2D$___$___
100
AcDbSpline
210
0.0
220
0.0
230
1.0
 70
    28
 71
     2
 72
     8
 73
     5
 74
     0
 42
0.000000001
 43
0.0000000001
 12
1.0
 22
0.0
 32
0.0
 13
1.0
 23
0.0
 33
0.0
 40
0.0010976028990066
 40
0.0010976028990066
 40
0.0010976028990066
 40
0.0454072586711714
 40
0.0454072586711714
 40
14.15987057048966
 40
14.15987057048966
 40
14.15987057048966
 10
427.7417262812351
 20
348.797937306857
 30
0.0
 41
0.9999998498938858
 10
427.7637480748159
 20
348.7979373068571
 30
0.0
 41
0.9999968950942288
 10
427.7857695965474
 20
348.7979373068571
 30
0.0
 41
1.0
 10
436.76298403646
 20
348.7979373068571
 30
0.0
 41
0.7079981012708446
 10
436.7410177913547
 20
348.7979373068571
 30
0.0
 41
1.0
  0
LINE
  5
1AD
330
1F
100
AcDbEntity
  8
Make2D$___$___
100
AcDbLine
 10
418.7413437623573
 20
348.7979373068571
 30
0.0
 11
427.7406352724768
 21
348.7979373068571
 31
0.0
  0
SPLINE
  5
1AE
330
1F
100
AcDbEntity
  8
Make2D$___$___
100
AcDbSpline
210
0.0
220
0.0
230
1.0
 70
    12
 71
     2
 72
     8
 73
     5
 74
     0
 42
0.000000001
 43
0.0000000001
 12
1.0
 22
0.0
 32
0.0
 13
1.0
 23
0.0
 33
0.0
 40
0.0
 40
0.0
 40
0.0
 40
15.70796326920109
 40
15.70796326920109
 40
31.41592653715001
 40
31.41592653715001
 40
31.41592653715001
 10
417.7411807768563
 20
304.9569182399898
 30
0.0
 41
1.0
 10
417.7411807768563
 20
303.2204364633204
 30
0.0
 41
0.7071067811865482
 10
427.7411807768561
 20
303.2204364633203
 30
0.0
 41
1.0
 10
437.7411807768557
 20
303.2204364633204
 30
0.0
 41
0.707106781186548
 10
437.7411807768557
 20
304.9569182399898
 30
0.0
 41
1.0
  0
ARC
  5
1AF
330
1F
100
AcDbEntity
  8
Make2D$___$___
100
AcDbCircle
 10
437.3773700723034
 20
304.9476501563919
 30
0.0
 40
0.363928737695241
100
AcDbArc
 50
1.459295284044618
 51
37.20133797096644
  0
ARC
  5
1B0
330
1F
100
AcDbEntity
  8
Make2D$___$___
100
AcDbCircle
 10
418.1049914814071
 20
304.9476501563923
 30
0.0
 40
0.3639287376937018
100
AcDbArc
 50
142.7986620289838
 51
178.5407047160119
  0
SPLINE
  5
1B1
330
1F
100
AcDbEntity
  8
Make2D$___$___
100
AcDbSpline
210
0.0
220
0.0
230
1.0
 70
    12
 71
     2
 72
     6
 73
     3
 74
     0
 42
0.000000001
 43
0.0000000001
 12
1.0
 22
0.0
 32
0.0
 13
1.0
 23
0.0
 33
0.0
 40
0.0
 40
0.0
 40
0.0
 40
4.923512766183032
 40
4.923512766183032
 40
4.923512766183032
 10
438.691180776856
 20
309.530162726332
 30
0.0
 41
1.0
 10
439.691180776856
 20
309.1328187733795
 30
0.0
 41
0.9788559627523853
 10
439.691180776856
 20
308.6991877014359
 30
0.0
 41
1.0
  0
SPLINE
  5
1B2
330
1F
100
AcDbEntity
  8
Make2D$___$___
100
AcDbSpline
210
0.0
220
0.0
230
1.0
 70
    12
 71
     2
 72
     8
 73
     5
 74
     0
 42
0.000000001
 43
0.0000000001
 12
1.0
 22
0.0
 32
0.0
 13
1.0
 23
0.0
 33
0.0
 40
-13.847503339016
 40
-13.847503339016
 40
-13.847503339016
 40
0.0
 40
0.0
 40
13.84750333901692
 40
13.84750333901692
 40
13.84750333901692
 10
438.691180776856
 20
306.5757394672937
 30
0.0
 41
1.0
 10
435.5600882083679
 20
307.819860165517
 30
0.0
 41
0.836794902602186
 10
427.741180776856
 20
307.819860165517
 30
0.0
 41
1.0
 10
419.9222733453436
 20
307.8198601655168
 30
0.0
 41
0.8367949026021704
 10
416.7911807768558
 20
306.5757394672935
 30
0.0
 41
1.0
  0
LINE
  5
1B3
330
1F
100
AcDbEntity
  8
Make2D$___$___
100
AcDbLine
 10
438.691180776856
 20
306.5757394672937
 30
0.0
 11
438.691180776856
 21
309.530162726332
 31
0.0
  0
LINE
  5
1B4
330
1F
100
AcDbEntity
  8
Make2D$___$___
100
AcDbLine
 10
438.691180776856
 20
304.7599566897723
 30
0.0
 11
438.691180776856
 21
306.5757394672937
 31
0.0
  0
SPLINE
  5
1B5
330
1F
100
AcDbEntity
  8
Make2D$___$___
100
AcDbSpline
210
0.0
220
0.0
230
1.0
 70
    12
 71
     2
 72
     6
 73
     3
 74
     0
 42
0.000000001
 43
0.0000000001
 12
1.0
 22
0.0
 32
0.0
 13
1.0
 23
0.0
 33
0.0
 40
0.0
 40
0.0
 40
0.0
 40
4.923512766182999
 40
4.923512766182999
 40
4.923512766182999
 10
439.691180776856
 20
308.6991877014359
 30
0.0
 41
1.0
 10
439.691180776856
 20
308.2655566294923
 30
0.0
 41
0.9788559627523846
 10
438.691180776856
 20
307.8682126765398
 30
0.0
 41
1.0
  0
LINE
  5
1B6
330
1F
100
AcDbEntity
  8
Make2D$___$___
100
AcDbLine
 10
439.691180776856
 20
311.969504794123
 30
0.0
 11
439.691180776856
 21
308.7523070003817
 31
0.0
  0
LINE
  5
1B7
330
1F
100
AcDbEntity
  8
Make2D$___$___
100
AcDbLine
 10
415.791180776856
 20
308.7523070003818
 30
0.0
 11
415.791180776856
 21
311.9696838790668
 31
0.0
  0
SPLINE
  5
1B8
330
1F
100
AcDbEntity
  8
Make2D$___$___
100
AcDbSpline
210
0.0
220
0.0
230
1.0
 70
    12
 71
     2
 72
     6
 73
     3
 74
     0
 42
0.000000001
 43
0.0000000001
 12
1.0
 22
0.0
 32
0.0
 13
1.0
 23
0.0
 33
0.0
 40
-4.923512766183015
 40
-4.923512766183015
 40
-4.923512766183015
 40
0.0
 40
0.0
 40
0.0
 10
415.791180776856
 20
308.6991877014359
 30
0.0
 41
1.0
 10
415.791180776856
 20
308.2655566294923
 30
0.0
 41
0.9788559627523853
 10
416.791180776856
 20
307.8682126765398
 30
0.0
 41
1.0
  0
SPLINE
  5
1B9
330
1F
100
AcDbEntity
  8
Make2D$___$___
100
AcDbSpline
210
0.0
220
0.0
230
1.0
 70
    12
 71
     2
 72
     6
 73
     3
 74
     0
 42
0.000000001
 43
0.0000000001
 12
1.0
 22
0.0
 32
0.0
 13
1.0
 23
0.0
 33
0.0
 40
-4.923512766183015
 40
-4.923512766183015
 40
-4.923512766183015
 40
0.0
 40
0.0
 40
0.0
 10
416.7911807768559
 20
309.530162726332
 30
0.0
 41
1.0
 10
415.791180776856
 20
309.1328187733795
 30
0.0
 41
0.9788559627523898
 10
415.791180776856
 20
308.6991877014359
 30
0.0
 41
1.0
  0
LINE
  5
1BA
330
1F
100
AcDbEntity
  8
Make2D$___$___
100
AcDbLine
 10
416.7911807768558
 20
306.5757394672935
 30
0.0
 11
416.7911807768559
 21
309.530162726332
 31
0.0
  0
LINE
  5
1BB
330
1F
100
AcDbEntity
  8
Make2D$___$___
100
AcDbLine
 10
416.791180776856
 20
304.7599566889929
 30
0.0
 11
416.7911807768558
 21
306.5757394672935
 31
0.0
  0
SPLINE
  5
1BC
330
1F
100
AcDbEntity
  8
Make2D$___$___
100
AcDbSpline
210
0.0
220
0.0
230
1.0
 70
    24
 71
     3
 72
     9
 73
     5
 74
     0
 42
0.000000001
 43
0.0000000001
 12
1.0
 22
0.0
 32
0.0
 13
1.0
 23
0.0
 33
0.0
 40
0.5
 40
0.5
 40
0.5
 40
0.5
 40
0.6666666666667
 40
1.0
 40
1.0
 40
1.0
 40
1.0
 10
438.691180776856
 20
304.5973286828279
 30
0.0
 10
438.691180776856
 20
304.5884982975724
 30
0.0
 10
438.691180776856
 20
304.5886136433651
 30
0.0
 10
438.691180776856
 20
304.6692405259436
 30
0.0
 10
438.691180776856
 20
304.7599566897723
 30
0.0
  0
LINE
  5
1BD
330
1F
100
AcDbEntity
  8
Make2D$___$___
100
AcDbLine
 10
416.791180776856
 20
304.7599566889929
 30
0.0
 11
416.791180776856
 21
304.5974162523218
 31
0.0
  0
SPLINE
  5
1BE
330
1F
100
AcDbEntity
  8
Make2D$___$___
100
AcDbSpline
210
0.0
220
0.0
230
1.0
 70
    12
 71
     2
 72
     8
 73
     5
 74
     0
 42
0.000000001
 43
0.0000000001
 12
1.0
 22
0.0
 32
0.0
 13
1.0
 23
0.0
 33
0.0
 40
0.0
 40
0.0
 40
0.0
 40
16.02212253330794
 40
16.02212253330794
 40
32.04424506661584
 40
32.04424506661584
 40
32.04424506661584
 10
417.5411807768559
 20
304.7599566893869
 30
0.0
 41
1.0
 10
417.5411807768559
 20
302.9887452771842
 30
0.0
 41
0.7071067811865478
 10
427.7411807768562
 20
302.9887452771844
 30
0.0
 41
1.0
 10
437.941180776856
 20
302.9887452771841
 30
0.0
 41
0.7071067811865501
 10
437.9411807768561
 20
304.7599566893869
 30
0.0
 41
1.0
  0
SPLINE
  5
1BF
330
1F
100
AcDbEntity
  8
Make2D$___$___
100
AcDbSpline
210
0.0
220
0.0
230
1.0
 70
    12
 71
     2
 72
     8
 73
     5
 74
     0
 42
0.000000001
 43
0.0000000001
 12
1.0
 22
0.0
 32
0.0
 13
1.0
 23
0.0
 33
0.0
 40
0.0
 40
0.0
 40
0.0
 40
16.02212253330794
 40
16.02212253330794
 40
32.04424506661584
 40
32.04424506661584
 40
32.04424506661584
 10
437.9411807768561
 20
304.7599566893869
 30
0.0
 41
1.0
 10
437.9411807768561
 20
306.5311681015891
 30
0.0
 41
0.707106781186544
 10
427.7411807768564
 20
306.5311681015893
 30
0.0
 41
1.0
 10
417.5411807768558
 20
306.5311681015891
 30
0.0
 41
0.707106781186545
 10
417.5411807768559
 20
304.7599566893869
 30
0.0
 41
1.0
  0
SPLINE
  5
1C0
330
1F
100
AcDbEntity
  8
Make2D$___$___
100
AcDbSpline
210
0.0
220
0.0
230
1.0
 70
    12
 71
     2
 72
     8
 73
     5
 74
     0
 42
0.000000001
 43
0.0000000001
 12
1.0
 22
0.0
 32
0.0
 13
1.0
 23
0.0
 33
0.0
 40
0.0
 40
0.0
 40
0.0
 40
17.20021978292793
 40
17.20021978292793
 40
34.40043955688066
 40
34.40043955688066
 40
34.40043955688066
 10
416.791180776856
 20
304.7599566893857
 30
0.0
 41
1.0
 10
416.791180776856
 20
306.6614042348317
 30
0.0
 41
0.707106781185962
 10
427.7411807768197
 20
306.6614042348293
 30
0.0
 41
1.0
 10
438.6911807746303
 20
306.6614042348285
 30
0.0
 41
0.7071067812584103
 10
438.691180776856
 20
304.7599566893857
 30
0.0
 41
1.0
  0
SPLINE
  5
1C1
330
1F
100
AcDbEntity
  8
Make2D$___$___
100
AcDbSpline
210
0.0
220
0.0
230
1.0
 70
    12
 71
     2
 72
     8
 73
     5
 74
     0
 42
0.000000001
 43
0.0000000001
 12
1.0
 22
0.0
 32
0.0
 13
1.0
 23
0.0
 33
0.0
 40
0.0
 40
0.0
 40
0.0
 40
17.20021978285553
 40
17.20021978285553
 40
34.40043955673585
 40
34.40043955673585
 40
34.40043955673585
 10
438.691180776856
 20
304.7599566893857
 30
0.0
 41
1.0
 10
438.691180776856
 20
302.8585091439264
 30
0.0
 41
0.7071067811871322
 10
427.7411807768198
 20
302.8585091439242
 30
0.0
 41
1.0
 10
416.7911807791179
 20
302.8585091439233
 30
0.0
 41
0.7071067812595802
 10
416.791180776856
 20
304.7599566893857
 30
0.0
 41
1.0
  0
ARC
  5
1C2
330
1F
100
AcDbEntity
  8
Make2D$___$___
100
AcDbCircle
 10
427.7411804296181
 20
371.4979374100439
 30
0.0
 40
3.500000103186909
100
AcDbArc
 50
198.1561820210048
 51
270.0000056843609
  0
ARC
  5
1C3
330
1F
100
AcDbEntity
  8
Make2D$___$___
100
AcDbCircle
 10
427.7411810208408
 20
371.4979371091052
 30
0.0
 40
3.499999802248295
100
AcDbArc
 50
269.9999960059133
 51
341.843573886815
  0
ARC
  5
1C4
330
1F
100
AcDbEntity
  8
Make2D$___$___
100
AcDbCircle
 10
427.7425718928906
 20
371.4989450403341
 30
0.0
 40
3.49899254306792
100
AcDbArc
 50
341.8207937534567
 51
90.022779737682
  0
ARC
  5
1C5
330
1F
100
AcDbEntity
  8
Make2D$___$___
100
AcDbCircle
 10
427.7402121753262
 20
371.4986387164275
 30
0.0
 40
3.49929872447865
100
AcDbArc
 50
89.98414090016944
 51
198.1720332897059
  0
LINE
  5
1C6
330
1F
100
AcDbEntity
  8
Make2D$___$___
100
AcDbLine
 10
404.8606290363514
 20
354.297937306858
 30
0.0
 11
404.829552048153
 21
354.297937306858
 31
0.0
  0
LINE
  5
1C7
330
1F
100
AcDbEntity
  8
Make2D$___$___
100
AcDbLine
 10
450.6217271477622
 20
354.2979373068561
 30
0.0
 11
404.8606290707449
 21
354.297937306858
 31
0.0
  0
LINE
  5
1C8
330
1F
100
AcDbEntity
  8
Make2D$___$___
100
AcDbLine
 10
450.6528019966661
 20
354.2979373068598
 30
0.0
 11
450.6217271477622
 21
354.2979373068561
 31
0.0
  0
LINE
  5
1C9
330
1F
100
AcDbEntity
  8
Make2D$___$___
100
AcDbLine
 10
450.6702794527156
 20
354.2979373068571
 30
0.0
 11
450.6528019966661
 21
354.2979373068598
 31
0.0
  0
LINE
  5
1CA
330
1F
100
AcDbEntity
  8
Make2D$___$___
100
AcDbLine
 10
404.8295515969262
 20
354.297937306858
 30
0.0
 11
404.812082101024
 21
354.2979373068571
 31
0.0
  0
LINE
  5
1CB
330
1F
100
AcDbEntity
  8
Make2D$___$___
100
AcDbLine
 10
404.8120815321055
 20
354.2979373068571
 30
0.0
 11
404.7472638722431
 21
354.2979373068574
 31
0.0
  0
LINE
  5
1CC
330
1F
100
AcDbEntity
  8
Make2D$___$___
100
AcDbLine
 10
450.7350969085937
 20
354.2979373068567
 30
0.0
 11
450.6702794527156
 21
354.2979373068571
 31
0.0
  0
ARC
  5
1CD
330
1F
100
AcDbEntity
  8
Make2D$___$___
100
AcDbCircle
 10
502.7411807768572
 20
308.0979373068542
 30
0.0
 40
14.35000000000338
100
AcDbArc
 50
66.90571507922479
 51
90.00000000000477
  0
LINE
  5
1CE
330
1F
100
AcDbEntity
  8
Make2D$___$___
100
AcDbLine
 10
509.8177265443863
 20
322.4479373068577
 30
0.0
 11
503.1913928051522
 21
322.4479373068576
 31
0.0
  0
ARC
  5
1CF
330
1F
100
AcDbEntity
  8
Make2D$___$___
100
AcDbCircle
 10
502.7411807767755
 20
308.0979373069865
 30
0.0
 40
15.99999999984739
100
AcDbArc
 50
116.2497074278704
 51
123.750292572076
  0
LINE
  5
1D0
330
1F
100
AcDbEntity
  8
Make2D$___$___
100
AcDbLine
 10
502.2909687485701
 20
322.4479373068576
 30
0.0
 11
495.6646350093257
 21
322.4479373068577
 31
0.0
  0
ARC
  5
1D1
330
1F
100
AcDbEntity
  8
Make2D$___$___
100
AcDbCircle
 10
502.741180776854
 20
308.0979373068594
 30
0.0
 40
14.34999999999827
100
AcDbArc
 50
89.99999999999206
 51
113.0942849207553
  0
LINE
  5
1D2
330
1F
100
AcDbEntity
  8
Make2D$___$___
100
AcDbLine
 10
493.8519891163178
 20
321.4014057125853
 30
0.0
 11
493.7922516050273
 21
321.2979373079124
 31
0.0
  0
ARC
  5
1D3
330
1F
100
AcDbEntity
  8
Make2D$___$___
100
AcDbCircle
 10
502.7411807768059
 20
308.0979373067859
 30
0.0
 40
15.99999999991308
100
AcDbArc
 50
236.249707427949
 51
243.7502925721244
  0
LINE
  5
1D4
330
1F
100
AcDbEntity
  8
Make2D$___$___
100
AcDbLine
 10
493.5613114967766
 20
295.2979373067961
 30
0.0
 11
493.8519891163174
 21
294.7944689011287
 31
0.0
  0
LINE
  5
1D5
330
1F
100
AcDbEntity
  8
Make2D$___$___
100
AcDbLine
 10
495.6646350093257
 20
293.7479373068564
 30
0.0
 11
502.290968748566
 21
293.7479373068564
 31
0.0
  0
LINE
  5
1D6
330
1F
100
AcDbEntity
  8
Make2D$___$___
100
AcDbLine
 10
503.1913928050929
 20
293.7479373068564
 30
0.0
 11
509.8177265443863
 21
293.7479373068564
 31
0.0
  0
ARC
  5
1D7
330
1F
100
AcDbEntity
  8
Make2D$___$___
100
AcDbCircle
 10
502.741180776858
 20
308.0979373068549
 30
0.0
 40
14.34999999999859
100
AcDbArc
 50
269.9999999999918
 51
330.0000000000098
  0
LINE
  5
1D8
330
1F
100
AcDbEntity
  8
Make2D$___$___
100
AcDbLine
 10
511.6303724373942
 20
294.7944689011288
 30
0.0
 11
514.9435393070165
 21
300.5330422532641
 31
0.0
  0
LINE
  5
1D9
330
1F
100
AcDbEntity
  8
Make2D$___$___
100
AcDbLine
 10
511.6901099493031
 20
321.2979373068424
 30
0.0
 11
511.6303724373946
 21
321.4014057125855
 31
0.0
  0
ARC
  5
1DA
330
1F
100
AcDbEntity
  8
Make2D$___$___
100
AcDbCircle
 10
502.7411807768602
 20
308.0979373068488
 30
0.0
 40
16.00000000000459
100
AcDbArc
 50
56.24970742797041
 51
63.75029257210286
  0
ARC
  5
1DB
330
1F
100
AcDbEntity
  8
Make2D$___$___
100
AcDbCircle
 10
502.7411807771021
 20
308.0979373068597
 30
0.0
 40
15.9999999997529
100
AcDbArc
 50
356.2497074278754
 51
3.750292572106247
  0
LINE
  5
1DC
330
1F
100
AcDbEntity
  8
Make2D$___$___
100
AcDbLine
 10
515.3937513353073
 20
301.3128323604427
 30
0.0
 11
518.706918204928
 21
307.0514057125865
 31
0.0
  0
ARC
  5
1DD
330
1F
100
AcDbEntity
  8
Make2D$___$___
100
AcDbCircle
 10
502.7411807768596
 20
308.0979373068575
 30
0.0
 40
14.34999999999847
100
AcDbArc
 50
329.9999999999978
 51
26.67206251562094
  0
LINE
  5
1DE
330
1F
100
AcDbEntity
  8
Make2D$___$___
100
AcDbLine
 10
518.7069182049283
 20
309.1444689011278
 30
0.0
 11
515.5654149742954
 21
314.5857121087324
 31
0.0
  0
ARC
  5
1DF
330
1F
100
AcDbEntity
  8
Make2D$___$___
100
AcDbCircle
 10
502.7411807768711
 20
308.0979373068419
 30
0.0
 40
15.99999999997868
100
AcDbArc
 50
296.2497074278991
 51
303.7502925720428
  0
ARC
  5
1E0
330
1F
100
AcDbEntity
  8
Make2D$___$___
100
AcDbCircle
 10
502.7411807768536
 20
308.0979373068539
 30
0.0
 40
14.34999999999746
100
AcDbArc
 50
243.1238854174981
 51
270.0000000000093
  0
ARC
  5
1E1
330
1F
100
AcDbEntity
  8
Make2D$___$___
100
AcDbCircle
 10
502.7411807768558
 20
308.097937306857
 30
0.0
 40
33.00000000000006
100
AcDbArc
 50
270.0000000000003
 51
89.99999999999972
  0
ARC
  5
1E2
330
1F
100
AcDbEntity
  8
Make2D$___$___
100
AcDbCircle
 10
502.7411807768559
 20
308.0979373068572
 30
0.0
 40
32.99999999999986
100
AcDbArc
 50
90.0
 51
156.4218215218084
  0
ARC
  5
1E3
330
1F
100
AcDbEntity
  8
Make2D$___$___
100
AcDbCircle
 10
502.7411807768563
 20
308.0979373068575
 30
0.0
 40
33.00000000000045
100
AcDbArc
 50
202.8225755991716
 51
269.9999999999995
  0
ARC
  5
1E4
330
1F
100
AcDbEntity
  8
Make2D$___$___
100
AcDbCircle
 10
352.741180776856
 20
308.0979373068571
 30
0.0
 40
32.99999999999994
100
AcDbArc
 50
90.0000000000001
 51
269.9999999999999
  0
ARC
  5
1E5
330
1F
100
AcDbEntity
  8
Make2D$___$___
100
AcDbCircle
 10
352.7411807768558
 20
308.0979373068569
 30
0.0
 40
33.00000000000017
100
AcDbArc
 50
23.57817847819382
 51
89.99999999999972
  0
ARC
  5
1E6
330
1F
100
AcDbEntity
  8
Make2D$___$___
100
AcDbCircle
 10
352.7411807768561
 20
308.0979373068567
 30
0.0
 40
32.99999999999966
100
AcDbArc
 50
269.9999999999998
 51
337.1774244007062
  0
ARC
  5
1E7
330
1F
100
AcDbEntity
  8
Make2D$___$___
100
AcDbCircle
 10
352.7411807768572
 20
308.0979373068548
 30
0.0
 40
14.35000000000281
100
AcDbArc
 50
66.90571507926012
 51
90.00000000000477
  0
LINE
  5
1E8
330
1F
100
AcDbEntity
  8
Make2D$___$___
100
AcDbLine
 10
359.8177265443863
 20
322.4479373068577
 30
0.0
 11
353.1913928051521
 21
322.4479373068576
 31
0.0
  0
ARC
  5
1E9
330
1F
100
AcDbEntity
  8
Make2D$___$___
100
AcDbCircle
 10
352.7411807767916
 20
308.0979373069584
 30
0.0
 40
15.99999999987969
100
AcDbArc
 50
116.2497074278771
 51
123.7502925720677
  0
LINE
  5
1EA
330
1F
100
AcDbEntity
  8
Make2D$___$___
100
AcDbLine
 10
352.2909687485701
 20
322.4479373068576
 30
0.0
 11
345.6646350093257
 21
322.4479373068577
 31
0.0
  0
ARC
  5
1EB
330
1F
100
AcDbEntity
  8
Make2D$___$___
100
AcDbCircle
 10
352.741180776854
 20
308.0979373068587
 30
0.0
 40
14.34999999999887
100
AcDbArc
 50
89.99999999999206
 51
113.0942849207522
  0
LINE
  5
1EC
330
1F
100
AcDbEntity
  8
Make2D$___$___
100
AcDbLine
 10
343.8519891163178
 20
321.4014057125853
 30
0.0
 11
343.7922516044127
 21
321.2979373068479
 31
0.0
  0
ARC
  5
1ED
330
1F
100
AcDbEntity
  8
Make2D$___$___
100
AcDbCircle
 10
352.7411807768499
 20
308.0979373068566
 30
0.0
 40
14.34999999999625
100
AcDbArc
 50
153.3279374843276
 51
210.000000000004
  0
ARC
  5
1EE
330
1F
100
AcDbEntity
  8
Make2D$___$___
100
AcDbCircle
 10
352.7411807772435
 20
308.0979373068544
 30
0.0
 40
16.00000000038523
100
AcDbArc
 50
176.2497074280238
 51
183.7502925719574
  0
LINE
  5
1EF
330
1F
100
AcDbEntity
  8
Make2D$___$___
100
AcDbLine
 10
339.9169465793871
 20
314.5857121086807
 30
0.0
 11
336.7754433487839
 21
309.1444689011275
 31
0.0
  0
LINE
  5
1F0
330
1F
100
AcDbEntity
  8
Make2D$___$___
100
AcDbLine
 10
336.7754433487836
 20
307.0514057125864
 30
0.0
 11
340.0886102183991
 21
301.3128323604515
 31
0.0
  0
ARC
  5
1F1
330
1F
100
AcDbEntity
  8
Make2D$___$___
100
AcDbCircle
 10
352.7411807767988
 20
308.0979373067737
 30
0.0
 40
15.999999999899
100
AcDbArc
 50
236.2497074279457
 51
243.7502925721277
  0
LINE
  5
1F2
330
1F
100
AcDbEntity
  8
Make2D$___$___
100
AcDbLine
 10
340.53882224669
 20
300.5330422532728
 30
0.0
 11
343.8519891163174
 21
294.7944689011287
 31
0.0
  0
LINE
  5
1F3
330
1F
100
AcDbEntity
  8
Make2D$___$___
100
AcDbLine
 10
345.6646350093257
 20
293.7479373068564
 30
0.0
 11
352.2909687485659
 21
293.7479373068564
 31
0.0
  0
LINE
  5
1F4
330
1F
100
AcDbEntity
  8
Make2D$___$___
100
AcDbLine
 10
353.1913928050928
 20
293.7479373068564
 30
0.0
 11
359.8177265443863
 21
293.7479373068564
 31
0.0
  0
ARC
  5
1F5
330
1F
100
AcDbEntity
  8
Make2D$___$___
100
AcDbCircle
 10
352.7411807768582
 20
308.0979373068536
 30
0.0
 40
14.34999999999717
100
AcDbArc
 50
269.9999999999909
 51
296.8761145825869
  0
LINE
  5
1F6
330
1F
100
AcDbEntity
  8
Make2D$___$___
100
AcDbLine
 10
361.6303724373942
 20
294.7944689011288
 30
0.0
 11
361.9210500514744
 21
295.2979372973383
 31
0.0
  0
LINE
  5
1F7
330
1F
100
AcDbEntity
  8
Make2D$___$___
100
AcDbLine
 10
361.6901099492
 20
321.2979373070209
 30
0.0
 11
361.6303724373945
 21
321.4014057125855
 31
0.0
  0
ARC
  5
1F8
330
1F
100
AcDbEntity
  8
Make2D$___$___
100
AcDbCircle
 10
352.7411807768766
 20
308.0979373068772
 30
0.0
 40
15.99999999997188
100
AcDbArc
 50
56.2497074279629
 51
63.75029257211071
  0
ARC
  5
1F9
330
1F
100
AcDbEntity
  8
Make2D$___$___
100
AcDbCircle
 10
352.7411807768711
 20
308.0979373068419
 30
0.0
 40
15.99999999997868
100
AcDbArc
 50
296.2497074278991
 51
303.7502925720428
  0
ARC
  5
1FA
330
1F
100
AcDbEntity
  8
Make2D$___$___
100
AcDbCircle
 10
352.7411807768541
 20
308.0979373068562
 30
0.0
 40
14.3499999999998
100
AcDbArc
 50
209.9999999999939
 51
270.0000000000074
  0
ENDSEC
  0
SECTION
  2
OBJECTS
  0
DICTIONARY
  5
C
330
0
100
AcDbDictionary
281
     1
  3
ACAD_GROUP
350
D
  3
ACAD_LAYOUT
350
1A
  3
ACAD_MATERIAL
350
3B
  3
ACAD_MLEADERSTYLE
350
225
  3
ACAD_MLINESTYLE
350
17
  3
ACAD_PLOTSETTINGS
350
19
  3
ACAD_PLOTSTYLENAME
350
E
  3
ACAD_SCALELIST
350
3F
  3
ACAD_TABLESTYLE
350
224
  3
ACAD_VISUALSTYLE
350
2A
  3
AcDbVariableDictionary
350
1FB
  0
DICTIONARY
  5
D
102
{ACAD_REACTORS
330
C
102
}
330
C
100
AcDbDictionary
281
     1
  0
DICTIONARY
  5
1A
102
{ACAD_REACTORS
330
C
102
}
330
C
100
AcDbDictionary
281
     1
  3
Layout1
350
1E
  3
Layout2
350
26
  3
Model
350
22
  0
DICTIONARY
  5
3B
102
{ACAD_REACTORS
330
C
102
}
330
C
100
AcDbDictionary
281
     1
  3
ByBlock
350
3D
  3
ByLayer
350
3C
  3
Global
350
3E
  0
DICTIONARY
  5
225
102
{ACAD_REACTORS
330
C
102
}
330
C
100
AcDbDictionary
281
     1
  0
DICTIONARY
  5
17
102
{ACAD_REACTORS
330
C
102
}
330
C
100
AcDbDictionary
281
     1
  3
Standard
350
18
  0
DICTIONARY
  5
19
102
{ACAD_REACTORS
330
C
102
}
330
C
100
AcDbDictionary
281
     1
  0
ACDBDICTIONARYWDFLT
  5
E
102
{ACAD_REACTORS
330
C
102
}
330
C
100
AcDbDictionary
281
     1
  3
Normal
350
F
100
AcDbDictionaryWithDefault
340
F
  0
DICTIONARY
  5
3F
102
{ACAD_REACTORS
330
C
102
}
330
C
100
AcDbDictionary
281
     1
  3
A0
350
40
  3
A1
350
41
  3
A2
350
42
  3
A3
350
43
  3
A4
350
44
  3
A5
350
45
  3
A6
350
46
  3
A7
350
47
  3
A8
350
48
  3
A9
350
49
  3
B0
350
4A
  3
B1
350
4B
  3
B2
350
4C
  3
B3
350
4D
  3
B4
350
4E
  3
B5
350
4F
  3
B6
350
50
  3
B7
350
51
  3
B8
350
52
  3
B9
350
53
  3
C0
350
54
  3
C1
350
55
  3
C2
350
56
  3
C3
350
57
  3
C4
350
58
  3
C5
350
59
  3
C6
350
5A
  3
C7
350
5B
  3
C8
350
5C
  3
C9
350
5D
  3
D0
350
5E
  3
D1
350
5F
  3
D2
350
60
  0
DICTIONARY
  5
224
102
{ACAD_REACTORS
330
C
102
}
330
C
100
AcDbDictionary
281
     1
  0
DICTIONARY
  5
2A
102
{ACAD_REACTORS
330
C
102
}
330
C
100
AcDbDictionary
281
     1
  3
2dWireframe
350
2F
  3
3D Hidden
350
31
  3
3dWireframe
350
30
  3
Basic
350
32
  3
Brighten
350
36
  3
ColorChange
350
3A
  3
Conceptual
350
34
  3
Dim
350
35
  3
Facepattern
350
39
  3
Flat
350
2B
  3
FlatWithEdges
350
2C
  3
Gouraud
350
2D
  3
GouraudWithEdges
350
2E
  3
Linepattern
350
38
  3
Realistic
350
33
  3
Thicken
350
37
  0
DICTIONARY
  5
1FB
102
{ACAD_REACTORS
330
C
102
}
330
C
100
AcDbDictionary
281
     1
  3
CANNOSCALE
350
1FC
  3
MSLTSCALE
350
1FD
  0
LAYOUT
  5
1E
102
{ACAD_REACTORS
330
1A
102
}
330
1A
100
AcDbPlotSettings
  1

  2
none_device
  4

  6

 40
0.0
 41
0.0
 42
0.0
 43
0.0
 44
0.0
 45
0.0
 46
0.0
 47
0.0
 48
0.0
 49
0.0
140
0.0
141
0.0
142
1.0
143
1.0
 70
   688
 72
     0
 73
     0
 74
     5
  7

 75
    16
 76
     0
 77
     2
 78
   300
147
1.0
148
0.0
149
0.0
100
AcDbLayout
  1
Layout1
 70
     1
 71
     1
 10
0.0
 20
0.0
 11
12.0
 21
9.0
 12
0.0
 22
0.0
 32
0.0
 14
1.000000000000000E+20
 24
1.000000000000000E+20
 34
1.000000000000000E+20
 15
-1.000000000000000E+20
 25
-1.000000000000000E+20
 35
-1.000000000000000E+20
146
0.0
 13
0.0
 23
0.0
 33
0.0
 16
1.0
 26
0.0
 36
0.0
 17
0.0
 27
1.0
 37
0.0
 76
     0
330
1B
  0
LAYOUT
  5
26
102
{ACAD_REACTORS
330
1A
102
}
330
1A
100
AcDbPlotSettings
  1

  2
none_device
  4

  6

 40
0.0
 41
0.0
 42
0.0
 43
0.0
 44
0.0
 45
0.0
 46
0.0
 47
0.0
 48
0.0
 49
0.0
140
0.0
141
0.0
142
1.0
143
1.0
 70
   688
 72
     0
 73
     0
 74
     5
  7

 75
    16
 76
     0
 77
     2
 78
   300
147
1.0
148
0.0
149
0.0
100
AcDbLayout
  1
Layout2
 70
     1
 71
     2
 10
0.0
 20
0.0
 11
0.0
 21
0.0
 12
0.0
 22
0.0
 32
0.0
 14
0.0
 24
0.0
 34
0.0
 15
0.0
 25
0.0
 35
0.0
146
0.0
 13
0.0
 23
0.0
 33
0.0
 16
1.0
 26
0.0
 36
0.0
 17
0.0
 27
1.0
 37
0.0
 76
     0
330
23
  0
LAYOUT
  5
22
102
{ACAD_REACTORS
330
1A
102
}
330
1A
100
AcDbPlotSettings
  1

  2
none_device
  4
Letter_(8.50_x_11.00_Inches)
  6

 40
6.35
 41
6.35
 42
6.35000508
 43
6.35000508
 44
215.9
 45
279.4
 46
0.0
 47
0.0
 48
0.0
 49
0.0
140
0.0
141
0.0
142
1.0
143
1.0
 70
  1712
 72
     0
 73
     0
 74
     0
  7

 75
     0
 76
     0
 77
     2
 78
   300
147
1.0
148
0.0
149
0.0
100
AcDbLayout
  1
Model
 70
     1
 71
     0
 10
0.0
 20
0.0
 11
12.0
 21
9.0
 12
0.0
 22
0.0
 32
0.0
 14
319.7411807768561
 24
271.597937306856
 34
0.0
 15
535.7411807768558
 25
410.4597116319417
 35
0.0
146
0.0
 13
0.0
 23
0.0
 33
0.0
 16
1.0
 26
0.0
 36
0.0
 17
0.0
 27
1.0
 37
0.0
 76
     0
330
1F
331
29
  0
MATERIAL
  5
3D
102
{ACAD_REACTORS
330
3B
102
}
102
{ACAD_XDICTIONARY
360
220
102
}
330
3B
100
AcDbMaterial
  1
ByBlock
  0
MATERIAL
  5
3C
102
{ACAD_REACTORS
330
3B
102
}
102
{ACAD_XDICTIONARY
360
21E
102
}
330
3B
100
AcDbMaterial
  1
ByLayer
  0
MATERIAL
  5
3E
102
{ACAD_REACTORS
330
3B
102
}
102
{ACAD_XDICTIONARY
360
222
102
}
330
3B
100
AcDbMaterial
  1
Global
  0
MLINESTYLE
  5
18
102
{ACAD_REACTORS
330
17
102
}
330
17
100
AcDbMlineStyle
  2
Standard
 70
     0
  3

 62
   256
 51
90.0
 52
90.0
 71
     2
 49
0.5
 62
   256
  6
BYLAYER
 49
-0.5
 62
   256
  6
BYLAYER
  0
ACDBPLACEHOLDER
  5
F
102
{ACAD_REACTORS
330
E
102
}
330
E
  0
SCALE
  5
40
102
{ACAD_REACTORS
330
3F
102
}
330
3F
100
AcDbScale
 70
     0
300
1:1
140
1.0
141
1.0
290
     1
  0
SCALE
  5
41
102
{ACAD_REACTORS
330
3F
102
}
330
3F
100
AcDbScale
 70
     0
300
1:2
140
1.0
141
2.0
290
     0
  0
SCALE
  5
42
102
{ACAD_REACTORS
330
3F
102
}
330
3F
100
AcDbScale
 70
     0
300
1:4
140
1.0
141
4.0
290
     0
  0
SCALE
  5
43
102
{ACAD_REACTORS
330
3F
102
}
330
3F
100
AcDbScale
 70
     0
300
1:5
140
1.0
141
5.0
290
     0
  0
SCALE
  5
44
102
{ACAD_REACTORS
330
3F
102
}
330
3F
100
AcDbScale
 70
     0
300
1:8
140
1.0
141
8.0
290
     0
  0
SCALE
  5
45
102
{ACAD_REACTORS
330
3F
102
}
330
3F
100
AcDbScale
 70
     0
300
1:10
140
1.0
141
10.0
290
     0
  0
SCALE
  5
46
102
{ACAD_REACTORS
330
3F
102
}
330
3F
100
AcDbScale
 70
     0
300
1:16
140
1.0
141
16.0
290
     0
  0
SCALE
  5
47
102
{ACAD_REACTORS
330
3F
102
}
330
3F
100
AcDbScale
 70
     0
300
1:20
140
1.0
141
20.0
290
     0
  0
SCALE
  5
48
102
{ACAD_REACTORS
330
3F
102
}
330
3F
100
AcDbScale
 70
     0
300
1:30
140
1.0
141
30.0
290
     0
  0
SCALE
  5
49
102
{ACAD_REACTORS
330
3F
102
}
330
3F
100
AcDbScale
 70
     0
300
1:40
140
1.0
141
40.0
290
     0
  0
SCALE
  5
4A
102
{ACAD_REACTORS
330
3F
102
}
330
3F
100
AcDbScale
 70
     0
300
1:50
140
1.0
141
50.0
290
     0
  0
SCALE
  5
4B
102
{ACAD_REACTORS
330
3F
102
}
330
3F
100
AcDbScale
 70
     0
300
1:100
140
1.0
141
100.0
290
     0
  0
SCALE
  5
4C
102
{ACAD_REACTORS
330
3F
102
}
330
3F
100
AcDbScale
 70
     0
300
2:1
140
2.0
141
1.0
290
     0
  0
SCALE
  5
4D
102
{ACAD_REACTORS
330
3F
102
}
330
3F
100
AcDbScale
 70
     0
300
4:1
140
4.0
141
1.0
290
     0
  0
SCALE
  5
4E
102
{ACAD_REACTORS
330
3F
102
}
330
3F
100
AcDbScale
 70
     0
300
8:1
140
8.0
141
1.0
290
     0
  0
SCALE
  5
4F
102
{ACAD_REACTORS
330
3F
102
}
330
3F
100
AcDbScale
 70
     0
300
10:1
140
10.0
141
1.0
290
     0
  0
SCALE
  5
50
102
{ACAD_REACTORS
330
3F
102
}
330
3F
100
AcDbScale
 70
     0
300
100:1
140
100.0
141
1.0
290
     0
  0
SCALE
  5
51
102
{ACAD_REACTORS
330
3F
102
}
330
3F
100
AcDbScale
 70
     0
300
1/128" = 1'-0"
140
0.0078125
141
12.0
290
     0
  0
SCALE
  5
52
102
{ACAD_REACTORS
330
3F
102
}
330
3F
100
AcDbScale
 70
     0
300
1/64" = 1'-0"
140
0.015625
141
12.0
290
     0
  0
SCALE
  5
53
102
{ACAD_REACTORS
330
3F
102
}
330
3F
100
AcDbScale
 70
     0
300
1/32" = 1'-0"
140
0.03125
141
12.0
290
     0
  0
SCALE
  5
54
102
{ACAD_REACTORS
330
3F
102
}
330
3F
100
AcDbScale
 70
     0
300
1/16" = 1'-0"
140
0.0625
141
12.0
290
     0
  0
SCALE
  5
55
102
{ACAD_REACTORS
330
3F
102
}
330
3F
100
AcDbScale
 70
     0
300
3/32" = 1'-0"
140
0.09375
141
12.0
290
     0
  0
SCALE
  5
56
102
{ACAD_REACTORS
330
3F
102
}
330
3F
100
AcDbScale
 70
     0
300
1/8" = 1'-0"
140
0.125
141
12.0
290
     0
  0
SCALE
  5
57
102
{ACAD_REACTORS
330
3F
102
}
330
3F
100
AcDbScale
 70
     0
300
3/16" = 1'-0"
140
0.1875
141
12.0
290
     0
  0
SCALE
  5
58
102
{ACAD_REACTORS
330
3F
102
}
330
3F
100
AcDbScale
 70
     0
300
1/4" = 1'-0"
140
0.25
141
12.0
290
     0
  0
SCALE
  5
59
102
{ACAD_REACTORS
330
3F
102
}
330
3F
100
AcDbScale
 70
     0
300
3/8" = 1'-0"
140
0.375
141
12.0
290
     0
  0
SCALE
  5
5A
102
{ACAD_REACTORS
330
3F
102
}
330
3F
100
AcDbScale
 70
     0
300
1/2" = 1'-0"
140
0.5
141
12.0
290
     0
  0
SCALE
  5
5B
102
{ACAD_REACTORS
330
3F
102
}
330
3F
100
AcDbScale
 70
     0
300
3/4" = 1'-0"
140
0.75
141
12.0
290
     0
  0
SCALE
  5
5C
102
{ACAD_REACTORS
330
3F
102
}
330
3F
100
AcDbScale
 70
     0
300
1" = 1'-0"
140
1.0
141
12.0
290
     0
  0
SCALE
  5
5D
102
{ACAD_REACTORS
330
3F
102
}
330
3F
100
AcDbScale
 70
     0
300
1-1/2" = 1'-0"
140
1.5
141
12.0
290
     0
  0
SCALE
  5
5E
102
{ACAD_REACTORS
330
3F
102
}
330
3F
100
AcDbScale
 70
     0
300
3" = 1'-0"
140
3.0
141
12.0
290
     0
  0
SCALE
  5
5F
102
{ACAD_REACTORS
330
3F
102
}
330
3F
100
AcDbScale
 70
     0
300
6" = 1'-0"
140
6.0
141
12.0
290
     0
  0
SCALE
  5
60
102
{ACAD_REACTORS
330
3F
102
}
330
3F
100
AcDbScale
 70
     0
300
1'-0" = 1'-0"
140
12.0
141
12.0
290
     0
  0
VISUALSTYLE
  5
2F
102
{ACAD_REACTORS
330
2A
102
}
102
{ACAD_XDICTIONARY
360
206
102
}
330
2A
100
AcDbVisualStyle
  2
2dWireframe
 70
     4
 71
     0
 72
     2
 73
     0
 90
        0
 40
0.6
 41
30.0
 62
     5
 63
     7
421
 16777215
 74
     1
 91
        4
 64
     7
 65
   257
 75
     1
175
     1
 42
1.0
 92
        0
 66
   257
 43
1.0
 76
     1
 77
     6
 78
     2
 67
     7
 79
     5
170
     0
171
     0
290
     0
174
     0
 93
        1
 44
0.0
173
     0
291
     0
 45
0.0
1001
ACAD
1000
AcDbSavedByObjectVersion
1070
     0
  0
VISUALSTYLE
  5
31
102
{ACAD_REACTORS
330
2A
102
}
102
{ACAD_XDICTIONARY
360
20A
102
}
330
2A
100
AcDbVisualStyle
  2
3D Hidden
 70
     6
 71
     1
 72
     2
 73
     2
 90
        0
 40
0.6
 41
30.0
 62
     5
 63
     7
421
 16777215
 74
     2
 91
        2
 64
     7
 65
   257
 75
     2
175
     1
 42
40.0
 92
        0
 66
   257
 43
1.0
 76
     1
 77
     6
 78
     2
 67
     7
 79
     3
170
     0
171
     0
290
     0
174
     0
 93
        1
 44
0.0
173
     0
291
     0
 45
0.0
1001
ACAD
1000
AcDbSavedByObjectVersion
1070
     0
  0
VISUALSTYLE
  5
30
102
{ACAD_REACTORS
330
2A
102
}
102
{ACAD_XDICTIONARY
360
208
102
}
330
2A
100
AcDbVisualStyle
  2
3dWireframe
 70
     5
 71
     0
 72
     2
 73
     0
 90
        0
 40
0.6
 41
30.0
 62
     5
 63
     7
421
 16777215
 74
     1
 91
        4
 64
     7
 65
   257
 75
     1
175
     1
 42
1.0
 92
        0
 66
   257
 43
1.0
 76
     1
 77
     6
 78
     2
 67
     7
 79
     5
170
     0
171
     0
290
     0
174
     0
 93
        1
 44
0.0
173
     0
291
     0
 45
0.0
1001
ACAD
1000
AcDbSavedByObjectVersion
1070
     0
  0
VISUALSTYLE
  5
32
102
{ACAD_REACTORS
330
2A
102
}
102
{ACAD_XDICTIONARY
360
20C
102
}
330
2A
100
AcDbVisualStyle
  2
Basic
 70
     7
 71
     1
 72
     0
 73
     1
 90
        0
 40
0.6
 41
30.0
 62
     5
 63
     7
421
 16777215
 74
     0
 91
        4
 64
     7
 65
   257
 75
     1
175
     1
 42
1.0
 92
        8
 66
     7
 43
1.0
 76
     1
 77
     6
 78
     2
 67
     7
 79
     5
170
     0
171
     0
290
     0
174
     0
 93
        1
 44
0.0
173
     0
291
     1
 45
0.0
1001
ACAD
1000
AcDbSavedByObjectVersion
1070
     0
  0
VISUALSTYLE
  5
36
102
{ACAD_REACTORS
330
2A
102
}
102
{ACAD_XDICTIONARY
360
214
102
}
330
2A
100
AcDbVisualStyle
  2
Brighten
 70
    12
 71
     2
 72
     2
 73
     0
 90
        0
 40
0.6
 41
30.0
 62
     5
 63
     7
421
 16777215
 74
     1
 91
        4
 64
     7
 65
   257
 75
     1
175
     1
 42
1.0
 92
        8
 66
     7
 43
1.0
 76
     1
 77
     6
 78
     2
 67
     7
 79
     5
170
     0
171
     0
290
     0
174
     0
 93
        1
 44
50.0
173
     0
291
     1
 45
0.0
1001
ACAD
1000
AcDbSavedByObjectVersion
1070
     0
  0
VISUALSTYLE
  5
3A
102
{ACAD_REACTORS
330
2A
102
}
102
{ACAD_XDICTIONARY
360
21C
102
}
330
2A
100
AcDbVisualStyle
  2
ColorChange
 70
    16
 71
     2
 72
     2
 73
     3
 90
        0
 40
0.6
 41
30.0
 62
     5
 63
     8
421
  8421504
 74
     1
 91
        4
 64
     7
 65
   257
 75
     1
175
     1
 42
1.0
 92
        8
 66
     8
424
  8421504
 43
1.0
 76
     1
 77
     6
 78
     2
 67
     7
 79
     5
170
     0
171
     0
290
     0
174
     0
 93
        1
 44
0.0
173
     0
291
     1
 45
0.0
1001
ACAD
1000
AcDbSavedByObjectVersion
1070
     0
  0
VISUALSTYLE
  5
34
102
{ACAD_REACTORS
330
2A
102
}
102
{ACAD_XDICTIONARY
360
210
102
}
330
2A
100
AcDbVisualStyle
  2
Conceptual
 70
     9
 71
     3
 72
     2
 73
     0
 90
        0
 40
0.6
 41
30.0
 62
     5
 63
     7
421
 16777215
 74
     2
 91
        2
 64
     7
 65
   257
 75
     1
175
     1
 42
40.0
 92
        8
 66
     7
 43
1.0
 76
     1
 77
     6
 78
     2
 67
     7
 79
     3
170
     0
171
     0
290
     0
174
     0
 93
        1
 44
0.0
173
     0
291
     0
 45
0.0
1001
ACAD
1000
AcDbSavedByObjectVersion
1070
     0
  0
VISUALSTYLE
  5
35
102
{ACAD_REACTORS
330
2A
102
}
102
{ACAD_XDICTIONARY
360
212
102
}
330
2A
100
AcDbVisualStyle
  2
Dim
 70
    11
 71
     2
 72
     2
 73
     0
 90
        0
 40
0.6
 41
30.0
 62
     5
 63
     7
421
 16777215
 74
     1
 91
        4
 64
     7
 65
   257
 75
     1
175
     1
 42
1.0
 92
        8
 66
     7
 43
1.0
 76
     1
 77
     6
 78
     2
 67
     7
 79
     5
170
     0
171
     0
290
     0
174
     0
 93
        1
 44
-50.0
173
     0
291
     1
 45
0.0
1001
ACAD
1000
AcDbSavedByObjectVersion
1070
     0
  0
VISUALSTYLE
  5
39
102
{ACAD_REACTORS
330
2A
102
}
102
{ACAD_XDICTIONARY
360
21A
102
}
330
2A
100
AcDbVisualStyle
  2
Facepattern
 70
    15
 71
     2
 72
     2
 73
     0
 90
        0
 40
0.6
 41
30.0
 62
     5
 63
     7
421
 16777215
 74
     1
 91
        4
 64
     7
 65
   257
 75
     1
175
     1
 42
1.0
 92
        8
 66
     7
 43
1.0
 76
     1
 77
     6
 78
     2
 67
     7
 79
     5
170
     0
171
     0
290
     0
174
     0
 93
        1
 44
0.0
173
     0
291
     1
 45
0.0
1001
ACAD
1000
AcDbSavedByObjectVersion
1070
     0
  0
VISUALSTYLE
  5
2B
102
{ACAD_REACTORS
330
2A
102
}
102
{ACAD_XDICTIONARY
360
1FE
102
}
330
2A
100
AcDbVisualStyle
  2
Flat
 70
     0
 71
     2
 72
     1
 73
     1
 90
        2
 40
0.6
 41
30.0
 62
     5
 63
     7
421
 16777215
 74
     0
 91
        4
 64
     7
 65
   257
 75
     1
175
     1
 42
1.0
 92
        8
 66
     7
 43
1.0
 76
     1
 77
     6
 78
     2
 67
     7
 79
     5
170
     0
171
     0
290
     0
174
     0
 93
       13
 44
0.0
173
     0
291
     1
 45
0.0
1001
ACAD
1000
AcDbSavedByObjectVersion
1070
     0
  0
VISUALSTYLE
  5
2C
102
{ACAD_REACTORS
330
2A
102
}
102
{ACAD_XDICTIONARY
360
200
102
}
330
2A
100
AcDbVisualStyle
  2
FlatWithEdges
 70
     1
 71
     2
 72
     1
 73
     1
 90
        2
 40
0.6
 41
30.0
 62
     5
 63
     7
421
 16777215
 74
     1
 91
        4
 64
     7
 65
   257
 75
     1
175
     1
 42
1.0
 92
        0
 66
   257
 43
1.0
 76
     1
 77
     6
 78
     2
 67
     7
 79
     5
170
     0
171
     0
290
     0
174
     0
 93
       13
 44
0.0
173
     0
291
     1
 45
0.0
1001
ACAD
1000
AcDbSavedByObjectVersion
1070
     0
  0
VISUALSTYLE
  5
2D
102
{ACAD_REACTORS
330
2A
102
}
102
{ACAD_XDICTIONARY
360
202
102
}
330
2A
100
AcDbVisualStyle
  2
Gouraud
 70
     2
 71
     2
 72
     2
 73
     1
 90
        2
 40
0.6
 41
30.0
 62
     5
 63
     7
421
 16777215
 74
     0
 91
        4
 64
     7
 65
   257
 75
     1
175
     1
 42
1.0
 92
        0
 66
     7
 43
1.0
 76
     1
 77
     6
 78
     2
 67
     7
 79
     5
170
     0
171
     0
290
     0
174
     0
 93
       13
 44
0.0
173
     0
291
     1
 45
0.0
1001
ACAD
1000
AcDbSavedByObjectVersion
1070
     0
  0
VISUALSTYLE
  5
2E
102
{ACAD_REACTORS
330
2A
102
}
102
{ACAD_XDICTIONARY
360
204
102
}
330
2A
100
AcDbVisualStyle
  2
GouraudWithEdges
 70
     3
 71
     2
 72
     2
 73
     1
 90
        2
 40
0.6
 41
30.0
 62
     5
 63
     7
421
 16777215
 74
     1
 91
        4
 64
     7
 65
   257
 75
     1
175
     1
 42
1.0
 92
        0
 66
   257
 43
1.0
 76
     1
 77
     6
 78
     2
 67
     7
 79
     5
170
     0
171
     0
290
     0
174
     0
 93
       13
 44
0.0
173
     0
291
     1
 45
0.0
1001
ACAD
1000
AcDbSavedByObjectVersion
1070
     0
  0
VISUALSTYLE
  5
38
102
{ACAD_REACTORS
330
2A
102
}
102
{ACAD_XDICTIONARY
360
218
102
}
330
2A
100
AcDbVisualStyle
  2
Linepattern
 70
    14
 71
     2
 72
     2
 73
     0
 90
        0
 40
0.6
 41
30.0
 62
     5
 63
     7
421
 16777215
 74
     1
 91
        4
 64
     7
 65
   257
 75
     7
175
     7
 42
1.0
 92
        8
 66
     7
 43
1.0
 76
     1
 77
     6
 78
     2
 67
     7
 79
     5
170
     0
171
     0
290
     0
174
     0
 93
        1
 44
0.0
173
     0
291
     1
 45
0.0
1001
ACAD
1000
AcDbSavedByObjectVersion
1070
     0
  0
VISUALSTYLE
  5
33
102
{ACAD_REACTORS
330
2A
102
}
102
{ACAD_XDICTIONARY
360
20E
102
}
330
2A
100
AcDbVisualStyle
  2
Realistic
 70
     8
 71
     2
 72
     3
 73
     0
 90
        2
 40
0.6
 41
30.0
 62
     5
 63
     7
421
 16777215
 74
     0
 91
        0
 64
     7
 65
   257
 75
     1
175
     1
 42
1.0
 92
        8
 66
   257
 43
1.0
 76
     1
 77
     6
 78
     2
 67
     7
 79
     3
170
     0
171
     0
290
     0
174
     0
 93
       13
 44
0.0
173
     0
291
     0
 45
0.0
1001
ACAD
1000
AcDbSavedByObjectVersion
1070
     0
  0
VISUALSTYLE
  5
37
102
{ACAD_REACTORS
330
2A
102
}
102
{ACAD_XDICTIONARY
360
216
102
}
330
2A
100
AcDbVisualStyle
  2
Thicken
 70
    13
 71
     2
 72
     2
 73
     0
 90
        0
 40
0.6
 41
30.0
 62
     5
 63
     7
421
 16777215
 74
     1
 91
        4
 64
     7
 65
   257
 75
     1
175
     1
 42
1.0
 92
       12
 66
     7
 43
1.0
 76
     1
 77
     6
 78
     2
 67
     7
 79
     5
170
     0
171
     0
290
     0
174
     0
 93
        1
 44
0.0
173
     0
291
     1
 45
0.0
1001
ACAD
1000
AcDbSavedByObjectVersion
1070
     0
  0
DICTIONARYVAR
  5
1FC
102
{ACAD_REACTORS
330
1FB
102
}
330
1FB
100
DictionaryVariables
280
     0
  1
1:1
  0
DICTIONARYVAR
  5
1FD
102
{ACAD_REACTORS
330
1FB
102
}
330
1FB
100
DictionaryVariables
280
     0
  1
1
  0
DICTIONARY
  5
220
330
3D
100
AcDbDictionary
280
     1
281
     1
  3
ACAD_XREC_ROUNDTRIP
360
221
  0
DICTIONARY
  5
21E
330
3C
100
AcDbDictionary
280
     1
281
     1
  3
ACAD_XREC_ROUNDTRIP
360
21F
  0
DICTIONARY
  5
222
330
3E
100
AcDbDictionary
280
     1
281
     1
  3
ACAD_XREC_ROUNDTRIP
360
223
  0
DICTIONARY
  5
206
330
2F
100
AcDbDictionary
280
     1
281
     1
  3
ACAD_XREC_ROUNDTRIP
360
207
  0
DICTIONARY
  5
20A
330
31
100
AcDbDictionary
280
     1
281
     1
  3
ACAD_XREC_ROUNDTRIP
360
20B
  0
DICTIONARY
  5
208
330
30
100
AcDbDictionary
280
     1
281
     1
  3
ACAD_XREC_ROUNDTRIP
360
209
  0
DICTIONARY
  5
20C
330
32
100
AcDbDictionary
280
     1
281
     1
  3
ACAD_XREC_ROUNDTRIP
360
20D
  0
DICTIONARY
  5
214
330
36
100
AcDbDictionary
280
     1
281
     1
  3
ACAD_XREC_ROUNDTRIP
360
215
  0
DICTIONARY
  5
21C
330
3A
100
AcDbDictionary
280
     1
281
     1
  3
ACAD_XREC_ROUNDTRIP
360
21D
  0
DICTIONARY
  5
210
330
34
100
AcDbDictionary
280
     1
281
     1
  3
ACAD_XREC_ROUNDTRIP
360
211
  0
DICTIONARY
  5
212
330
35
100
AcDbDictionary
280
     1
281
     1
  3
ACAD_XREC_ROUNDTRIP
360
213
  0
DICTIONARY
  5
21A
330
39
100
AcDbDictionary
280
     1
281
     1
  3
ACAD_XREC_ROUNDTRIP
360
21B
  0
DICTIONARY
  5
1FE
330
2B
100
AcDbDictionary
280
     1
281
     1
  3
ACAD_XREC_ROUNDTRIP
360
1FF
  0
DICTIONARY
  5
200
330
2C
100
AcDbDictionary
280
     1
281
     1
  3
ACAD_XREC_ROUNDTRIP
360
201
  0
DICTIONARY
  5
202
330
2D
100
AcDbDictionary
280
     1
281
     1
  3
ACAD_XREC_ROUNDTRIP
360
203
  0
DICTIONARY
  5
204
330
2E
100
AcDbDictionary
280
     1
281
     1
  3
ACAD_XREC_ROUNDTRIP
360
205
  0
DICTIONARY
  5
218
330
38
100
AcDbDictionary
280
     1
281
     1
  3
ACAD_XREC_ROUNDTRIP
360
219
  0
DICTIONARY
  5
20E
330
33
100
AcDbDictionary
280
     1
281
     1
  3
ACAD_XREC_ROUNDTRIP
360
20F
  0
DICTIONARY
  5
216
330
37
100
AcDbDictionary
280
     1
281
     1
  3
ACAD_XREC_ROUNDTRIP
360
217
  0
XRECORD
  5
221
102
{ACAD_REACTORS
330
220
102
}
330
220
100
AcDbXrecord
280
     1
102
MATERIAL
148
0.0
149
0.0
149
0.0
 93
        0
 94
      127
282
     0
 72
     1
 77
     1
171
     1
175
     1
179
     1
273
     0
  0
XRECORD
  5
21F
102
{ACAD_REACTORS
330
21E
102
}
330
21E
100
AcDbXrecord
280
     1
102
MATERIAL
148
0.0
149
0.0
149
0.0
 93
        0
 94
      127
282
     0
 72
     1
 77
     1
171
     1
175
     1
179
     1
273
     0
  0
XRECORD
  5
223
102
{ACAD_REACTORS
330
222
102
}
330
222
100
AcDbXrecord
280
     1
102
MATERIAL
148
0.0
149
0.0
149
0.0
 93
        0
 94
      127
282
     0
 72
     1
 77
     1
171
     1
175
     1
179
     1
273
     0
  0
XRECORD
  5
207
102
{ACAD_REACTORS
330
206
102
}
330
206
100
AcDbXrecord
280
     1
102
RTVSPropertyOp0
 70
     1
102
RTVSPropertyOp1
 70
     1
102
RTVSPropertyOp2
 70
     1
102
RTVSPropertyOp3
 70
     1
102
RTVSPropertyOp4
 70
     1
102
RTVSPropertyOp5
 70
     1
102
RTVSPropertyOp6
 70
     1
102
RTVSPropertyOp7
 70
     1
102
RTVSPropertyOp8
 70
     1
102
RTVSPropertyOp9
 70
     1
102
RTVSPropertyOp10
 70
     1
102
RTVSPropertyOp11
 70
     1
102
RTVSPropertyOp12
 70
     1
102
RTVSPropertyOp13
 70
     1
102
RTVSPropertyOp14
 70
     1
102
RTVSPropertyOp15
 70
     1
102
RTVSPropertyOp16
 70
     1
102
RTVSPropertyOp17
 70
     1
102
RTVSPropertyOp18
 70
     1
102
RTVSPropertyOp19
 70
     1
102
RTVSPropertyOp20
 70
     1
102
RTVSPropertyOp21
 70
     1
102
RTVSPropertyOp22
 70
     1
102
RTVSPropertyOp23
 70
     1
102
RTVSPropertyOp24
 70
     1
102
RTVSPropertyOp25
 70
     1
102
RTVSPropertyOp26
 70
     1
102
RTVSPropertyOp27
 70
     1
102
RTVSPropertyOp28
 70
     1
102
RTVSPropertyOp29
 70
     1
102
RTVSPropertyOp30
 70
     1
102
RTVSPropertyOp31
 70
     1
102
RTVSPropertyOp32
 70
     1
102
RTVSPropertyOp33
 70
     1
102
RTVSPropertyOp34
 70
     1
102
RTVSPropertyOp35
 70
     1
102
RTVSPropertyOp36
 70
     1
102
RTVSPropertyOp37
 70
     1
102
RTVSPropertyOp38
 70
     1
102
RTVSPropertyOp39
 70
     1
102
RTVSPropertyOp40
 70
     1
102
RTVSPropertyOp41
 70
     1
102
RTVSPropertyOp42
 70
     1
102
RTVSPropertyOp43
 70
     1
102
RTVSPropertyOp44
 70
     1
102
RTVSPropertyOp45
 70
     1
102
RTVSPropertyOp46
 70
     1
102
RTVSPropertyOp47
 70
     1
102
RTVSPropertyOp48
 70
     1
102
RTVSPropertyOp49
 70
     1
102
RTVSPropertyOp50
 70
     1
102
RTVSPropertyOp51
 70
     0
102
RTVSPropertyOp52
 70
     0
102
RTVSPropertyOp53
 70
     1
102
RTVSPropertyOp54
 70
     1
102
RTVSPropertyOp55
 70
     1
102
RTVSPropertyOp56
 70
     1
102
RTVSPropertyOp57
 70
     1
102
RTVSPost2010Prop28
280
     1
102
RTVSPost2010PropOp28
 70
     1
102
RTVSPost2010Prop29
280
     1
102
RTVSPost2010PropOp29
 70
     1
102
RTVSPost2010Prop30
280
     0
102
RTVSPost2010PropOp30
 70
     1
102
RTVSPost2010Prop31
280
     0
102
RTVSPost2010PropOp31
 70
     1
102
RTVSPost2010Prop32
280
     0
102
RTVSPost2010PropOp32
 70
     1
102
RTVSPost2010Prop33
280
     0
102
RTVSPost2010PropOp33
 70
     1
102
RTVSPost2010Prop34
280
     0
102
RTVSPost2010PropOp34
 70
     1
102
RTVSPost2010Prop35
280
     0
102
RTVSPost2010PropOp35
 70
     1
102
RTVSPost2010Prop36
280
     0
102
RTVSPost2010PropOp36
 70
     1
102
RTVSPost2010Prop37
 90
       50
102
RTVSPost2010PropOp37
 70
     1
102
RTVSPost2010Prop38
140
0.0
102
RTVSPost2010PropOp38
 70
     1
102
RTVSPost2010Prop39
140
1.0
102
RTVSPost2010PropOp39
 70
     1
102
RTVSPost2010Prop40
 90
        0
102
RTVSPost2010PropOp40
 70
     1
102
RTVSPost2010Prop41ColorIndex
 90
       18
102
RTVSPost2010Prop41ColorRGB
 90
        0
102
RTVSPost2010PropOp41
 70
     1
102
RTVSPost2010Prop42
 90
       50
102
RTVSPost2010PropOp42
 70
     1
102
RTVSPost2010Prop43
 90
        3
102
RTVSPost2010PropOp43
 70
     1
102
RTVSPost2010Prop44ColorIndex
 90
        5
102
RTVSPost2010Prop44ColorRGB
 90
      255
102
RTVSPost2010PropOp44
 70
     1
102
RTVSPost2010Prop45
280
     0
102
RTVSPost2010PropOp45
 70
     1
102
RTVSPost2010Prop46
 90
       50
102
RTVSPost2010PropOp46
 70
     1
102
RTVSPost2010Prop47
 90
       50
102
RTVSPost2010PropOp47
 70
     1
102
RTVSPost2010Prop48
 90
       50
102
RTVSPost2010PropOp48
 70
     1
102
RTVSPost2010Prop49
280
     0
102
RTVSPost2010PropOp49
 70
     1
102
RTVSPost2010Prop50
 90
       50
102
RTVSPost2010PropOp50
 70
     1
102
RTVSPost2010Prop51ColorIndex
 90
      256
102
RTVSPost2010Prop51ColorRGB
 90
-16777216
102
RTVSPost2010PropOp51
 70
     0
102
RTVSPost2010Prop52
140
1.0
102
RTVSPost2010PropOp52
 70
     0
102
RTVSPost2010Prop53
 90
        2
102
RTVSPost2010PropOp53
 70
     1
102
RTVSPost2010Prop54
  1
strokes_ogs.tif
102
RTVSPost2010PropOp54
 70
     1
102
RTVSPost2010Prop55
280
     0
102
RTVSPost2010PropOp55
 70
     1
102
RTVSPost2010Prop56
140
1.0
102
RTVSPost2010PropOp56
 70
     1
102
RTVSPost2010Prop57
140
1.0
102
RTVSPost2010PropOp57
 70
     1
  0
XRECORD
  5
20B
102
{ACAD_REACTORS
330
20A
102
}
330
20A
100
AcDbXrecord
280
     1
102
RTVSPropertyOp0
 70
     1
102
RTVSPropertyOp1
 70
     1
102
RTVSPropertyOp2
 70
     1
102
RTVSPropertyOp3
 70
     1
102
RTVSPropertyOp4
 70
     1
102
RTVSPropertyOp5
 70
     1
102
RTVSPropertyOp6
 70
     1
102
RTVSPropertyOp7
 70
     1
102
RTVSPropertyOp8
 70
     1
102
RTVSPropertyOp9
 70
     1
102
RTVSPropertyOp10
 70
     1
102
RTVSPropertyOp11
 70
     1
102
RTVSPropertyOp12
 70
     1
102
RTVSPropertyOp13
 70
     1
102
RTVSPropertyOp14
 70
     1
102
RTVSPropertyOp15
 70
     1
102
RTVSPropertyOp16
 70
     1
102
RTVSPropertyOp17
 70
     1
102
RTVSPropertyOp18
 70
     1
102
RTVSPropertyOp19
 70
     1
102
RTVSPropertyOp20
 70
     1
102
RTVSPropertyOp21
 70
     1
102
RTVSPropertyOp22
 70
     1
102
RTVSPropertyOp23
 70
     1
102
RTVSPropertyOp24
 70
     1
102
RTVSPropertyOp25
 70
     1
102
RTVSPropertyOp26
 70
     1
102
RTVSPropertyOp27
 70
     1
102
RTVSPropertyOp28
 70
     1
102
RTVSPropertyOp29
 70
     1
102
RTVSPropertyOp30
 70
     1
102
RTVSPropertyOp31
 70
     1
102
RTVSPropertyOp32
 70
     1
102
RTVSPropertyOp33
 70
     1
102
RTVSPropertyOp34
 70
     1
102
RTVSPropertyOp35
 70
     1
102
RTVSPropertyOp36
 70
     1
102
RTVSPropertyOp37
 70
     1
102
RTVSPropertyOp38
 70
     1
102
RTVSPropertyOp39
 70
     1
102
RTVSPropertyOp40
 70
     1
102
RTVSPropertyOp41
 70
     1
102
RTVSPropertyOp42
 70
     1
102
RTVSPropertyOp43
 70
     1
102
RTVSPropertyOp44
 70
     1
102
RTVSPropertyOp45
 70
     1
102
RTVSPropertyOp46
 70
     1
102
RTVSPropertyOp47
 70
     1
102
RTVSPropertyOp48
 70
     1
102
RTVSPropertyOp49
 70
     1
102
RTVSPropertyOp50
 70
     1
102
RTVSPropertyOp51
 70
     0
102
RTVSPropertyOp52
 70
     0
102
RTVSPropertyOp53
 70
     1
102
RTVSPropertyOp54
 70
     1
102
RTVSPropertyOp55
 70
     1
102
RTVSPropertyOp56
 70
     1
102
RTVSPropertyOp57
 70
     1
102
RTVSPost2010Prop28
280
     0
102
RTVSPost2010PropOp28
 70
     1
102
RTVSPost2010Prop29
280
     1
102
RTVSPost2010PropOp29
 70
     1
102
RTVSPost2010Prop30
280
     1
102
RTVSPost2010PropOp30
 70
     1
102
RTVSPost2010Prop31
280
     0
102
RTVSPost2010PropOp31
 70
     1
102
RTVSPost2010Prop32
280
     0
102
RTVSPost2010PropOp32
 70
     1
102
RTVSPost2010Prop33
280
     0
102
RTVSPost2010PropOp33
 70
     1
102
RTVSPost2010Prop34
280
     0
102
RTVSPost2010PropOp34
 70
     1
102
RTVSPost2010Prop35
280
     0
102
RTVSPost2010PropOp35
 70
     1
102
RTVSPost2010Prop36
280
     0
102
RTVSPost2010PropOp36
 70
     1
102
RTVSPost2010Prop37
 90
       50
102
RTVSPost2010PropOp37
 70
     1
102
RTVSPost2010Prop38
140
0.0
102
RTVSPost2010PropOp38
 70
     1
102
RTVSPost2010Prop39
140
1.0
102
RTVSPost2010PropOp39
 70
     1
102
RTVSPost2010Prop40
 90
        0
102
RTVSPost2010PropOp40
 70
     1
102
RTVSPost2010Prop41ColorIndex
 90
       18
102
RTVSPost2010Prop41ColorRGB
 90
        0
102
RTVSPost2010PropOp41
 70
     1
102
RTVSPost2010Prop42
 90
       50
102
RTVSPost2010PropOp42
 70
     1
102
RTVSPost2010Prop43
 90
        3
102
RTVSPost2010PropOp43
 70
     1
102
RTVSPost2010Prop44ColorIndex
 90
        5
102
RTVSPost2010Prop44ColorRGB
 90
      255
102
RTVSPost2010PropOp44
 70
     1
102
RTVSPost2010Prop45
280
     0
102
RTVSPost2010PropOp45
 70
     1
102
RTVSPost2010Prop46
 90
       50
102
RTVSPost2010PropOp46
 70
     1
102
RTVSPost2010Prop47
 90
       50
102
RTVSPost2010PropOp47
 70
     1
102
RTVSPost2010Prop48
 90
       50
102
RTVSPost2010PropOp48
 70
     1
102
RTVSPost2010Prop49
280
     0
102
RTVSPost2010PropOp49
 70
     1
102
RTVSPost2010Prop50
 90
       50
102
RTVSPost2010PropOp50
 70
     1
102
RTVSPost2010Prop51ColorIndex
 90
      256
102
RTVSPost2010Prop51ColorRGB
 90
-16777216
102
RTVSPost2010PropOp51
 70
     0
102
RTVSPost2010Prop52
140
1.0
102
RTVSPost2010PropOp52
 70
     0
102
RTVSPost2010Prop53
 90
        2
102
RTVSPost2010PropOp53
 70
     1
102
RTVSPost2010Prop54
  1
strokes_ogs.tif
102
RTVSPost2010PropOp54
 70
     1
102
RTVSPost2010Prop55
280
     0
102
RTVSPost2010PropOp55
 70
     1
102
RTVSPost2010Prop56
140
1.0
102
RTVSPost2010PropOp56
 70
     1
102
RTVSPost2010Prop57
140
1.0
102
RTVSPost2010PropOp57
 70
     1
  0
XRECORD
  5
209
102
{ACAD_REACTORS
330
208
102
}
330
208
100
AcDbXrecord
280
     1
102
RTVSPropertyOp0
 70
     1
102
RTVSPropertyOp1
 70
     1
102
RTVSPropertyOp2
 70
     1
102
RTVSPropertyOp3
 70
     1
102
RTVSPropertyOp4
 70
     1
102
RTVSPropertyOp5
 70
     1
102
RTVSPropertyOp6
 70
     1
102
RTVSPropertyOp7
 70
     1
102
RTVSPropertyOp8
 70
     1
102
RTVSPropertyOp9
 70
     1
102
RTVSPropertyOp10
 70
     1
102
RTVSPropertyOp11
 70
     1
102
RTVSPropertyOp12
 70
     1
102
RTVSPropertyOp13
 70
     1
102
RTVSPropertyOp14
 70
     1
102
RTVSPropertyOp15
 70
     1
102
RTVSPropertyOp16
 70
     1
102
RTVSPropertyOp17
 70
     1
102
RTVSPropertyOp18
 70
     1
102
RTVSPropertyOp19
 70
     1
102
RTVSPropertyOp20
 70
     1
102
RTVSPropertyOp21
 70
     1
102
RTVSPropertyOp22
 70
     1
102
RTVSPropertyOp23
 70
     1
102
RTVSPropertyOp24
 70
     1
102
RTVSPropertyOp25
 70
     1
102
RTVSPropertyOp26
 70
     1
102
RTVSPropertyOp27
 70
     1
102
RTVSPropertyOp28
 70
     1
102
RTVSPropertyOp29
 70
     1
102
RTVSPropertyOp30
 70
     1
102
RTVSPropertyOp31
 70
     1
102
RTVSPropertyOp32
 70
     1
102
RTVSPropertyOp33
 70
     1
102
RTVSPropertyOp34
 70
     1
102
RTVSPropertyOp35
 70
     1
102
RTVSPropertyOp36
 70
     1
102
RTVSPropertyOp37
 70
     1
102
RTVSPropertyOp38
 70
     1
102
RTVSPropertyOp39
 70
     1
102
RTVSPropertyOp40
 70
     1
102
RTVSPropertyOp41
 70
     1
102
RTVSPropertyOp42
 70
     1
102
RTVSPropertyOp43
 70
     1
102
RTVSPropertyOp44
 70
     1
102
RTVSPropertyOp45
 70
     1
102
RTVSPropertyOp46
 70
     1
102
RTVSPropertyOp47
 70
     1
102
RTVSPropertyOp48
 70
     1
102
RTVSPropertyOp49
 70
     1
102
RTVSPropertyOp50
 70
     1
102
RTVSPropertyOp51
 70
     0
102
RTVSPropertyOp52
 70
     0
102
RTVSPropertyOp53
 70
     1
102
RTVSPropertyOp54
 70
     1
102
RTVSPropertyOp55
 70
     1
102
RTVSPropertyOp56
 70
     1
102
RTVSPropertyOp57
 70
     1
102
RTVSPost2010Prop28
280
     0
102
RTVSPost2010PropOp28
 70
     1
102
RTVSPost2010Prop29
280
     1
102
RTVSPost2010PropOp29
 70
     1
102
RTVSPost2010Prop30
280
     1
102
RTVSPost2010PropOp30
 70
     1
102
RTVSPost2010Prop31
280
     0
102
RTVSPost2010PropOp31
 70
     1
102
RTVSPost2010Prop32
280
     0
102
RTVSPost2010PropOp32
 70
     1
102
RTVSPost2010Prop33
280
     0
102
RTVSPost2010PropOp33
 70
     1
102
RTVSPost2010Prop34
280
     0
102
RTVSPost2010PropOp34
 70
     1
102
RTVSPost2010Prop35
280
     0
102
RTVSPost2010PropOp35
 70
     1
102
RTVSPost2010Prop36
280
     0
102
RTVSPost2010PropOp36
 70
     1
102
RTVSPost2010Prop37
 90
       50
102
RTVSPost2010PropOp37
 70
     1
102
RTVSPost2010Prop38
140
0.0
102
RTVSPost2010PropOp38
 70
     1
102
RTVSPost2010Prop39
140
1.0
102
RTVSPost2010PropOp39
 70
     1
102
RTVSPost2010Prop40
 90
        0
102
RTVSPost2010PropOp40
 70
     1
102
RTVSPost2010Prop41ColorIndex
 90
       18
102
RTVSPost2010Prop41ColorRGB
 90
        0
102
RTVSPost2010PropOp41
 70
     1
102
RTVSPost2010Prop42
 90
       50
102
RTVSPost2010PropOp42
 70
     1
102
RTVSPost2010Prop43
 90
        3
102
RTVSPost2010PropOp43
 70
     1
102
RTVSPost2010Prop44ColorIndex
 90
        5
102
RTVSPost2010Prop44ColorRGB
 90
      255
102
RTVSPost2010PropOp44
 70
     1
102
RTVSPost2010Prop45
280
     0
102
RTVSPost2010PropOp45
 70
     1
102
RTVSPost2010Prop46
 90
       50
102
RTVSPost2010PropOp46
 70
     1
102
RTVSPost2010Prop47
 90
       50
102
RTVSPost2010PropOp47
 70
     1
102
RTVSPost2010Prop48
 90
       50
102
RTVSPost2010PropOp48
 70
     1
102
RTVSPost2010Prop49
280
     0
102
RTVSPost2010PropOp49
 70
     1
102
RTVSPost2010Prop50
 90
       50
102
RTVSPost2010PropOp50
 70
     1
102
RTVSPost2010Prop51ColorIndex
 90
      256
102
RTVSPost2010Prop51ColorRGB
 90
-16777216
102
RTVSPost2010PropOp51
 70
     0
102
RTVSPost2010Prop52
140
1.0
102
RTVSPost2010PropOp52
 70
     0
102
RTVSPost2010Prop53
 90
        2
102
RTVSPost2010PropOp53
 70
     1
102
RTVSPost2010Prop54
  1
strokes_ogs.tif
102
RTVSPost2010PropOp54
 70
     1
102
RTVSPost2010Prop55
280
     0
102
RTVSPost2010PropOp55
 70
     1
102
RTVSPost2010Prop56
140
1.0
102
RTVSPost2010PropOp56
 70
     1
102
RTVSPost2010Prop57
140
1.0
102
RTVSPost2010PropOp57
 70
     1
  0
XRECORD
  5
20D
102
{ACAD_REACTORS
330
20C
102
}
330
20C
100
AcDbXrecord
280
     1
102
RTVSPropertyOp0
 70
     1
102
RTVSPropertyOp1
 70
     1
102
RTVSPropertyOp2
 70
     1
102
RTVSPropertyOp3
 70
     1
102
RTVSPropertyOp4
 70
     1
102
RTVSPropertyOp5
 70
     1
102
RTVSPropertyOp6
 70
     1
102
RTVSPropertyOp7
 70
     1
102
RTVSPropertyOp8
 70
     1
102
RTVSPropertyOp9
 70
     1
102
RTVSPropertyOp10
 70
     1
102
RTVSPropertyOp11
 70
     1
102
RTVSPropertyOp12
 70
     1
102
RTVSPropertyOp13
 70
     1
102
RTVSPropertyOp14
 70
     1
102
RTVSPropertyOp15
 70
     1
102
RTVSPropertyOp16
 70
     1
102
RTVSPropertyOp17
 70
     1
102
RTVSPropertyOp18
 70
     1
102
RTVSPropertyOp19
 70
     1
102
RTVSPropertyOp20
 70
     1
102
RTVSPropertyOp21
 70
     1
102
RTVSPropertyOp22
 70
     1
102
RTVSPropertyOp23
 70
     1
102
RTVSPropertyOp24
 70
     1
102
RTVSPropertyOp25
 70
     1
102
RTVSPropertyOp26
 70
     1
102
RTVSPropertyOp27
 70
     1
102
RTVSPropertyOp28
 70
     1
102
RTVSPropertyOp29
 70
     1
102
RTVSPropertyOp30
 70
     1
102
RTVSPropertyOp31
 70
     1
102
RTVSPropertyOp32
 70
     1
102
RTVSPropertyOp33
 70
     1
102
RTVSPropertyOp34
 70
     1
102
RTVSPropertyOp35
 70
     1
102
RTVSPropertyOp36
 70
     1
102
RTVSPropertyOp37
 70
     1
102
RTVSPropertyOp38
 70
     1
102
RTVSPropertyOp39
 70
     1
102
RTVSPropertyOp40
 70
     1
102
RTVSPropertyOp41
 70
     1
102
RTVSPropertyOp42
 70
     1
102
RTVSPropertyOp43
 70
     1
102
RTVSPropertyOp44
 70
     1
102
RTVSPropertyOp45
 70
     1
102
RTVSPropertyOp46
 70
     1
102
RTVSPropertyOp47
 70
     1
102
RTVSPropertyOp48
 70
     1
102
RTVSPropertyOp49
 70
     1
102
RTVSPropertyOp50
 70
     1
102
RTVSPropertyOp51
 70
     0
102
RTVSPropertyOp52
 70
     0
102
RTVSPropertyOp53
 70
     1
102
RTVSPropertyOp54
 70
     1
102
RTVSPropertyOp55
 70
     1
102
RTVSPropertyOp56
 70
     1
102
RTVSPropertyOp57
 70
     1
102
RTVSPost2010Prop28
280
     0
102
RTVSPost2010PropOp28
 70
     1
102
RTVSPost2010Prop29
280
     1
102
RTVSPost2010PropOp29
 70
     1
102
RTVSPost2010Prop30
280
     1
102
RTVSPost2010PropOp30
 70
     1
102
RTVSPost2010Prop31
280
     0
102
RTVSPost2010PropOp31
 70
     1
102
RTVSPost2010Prop32
280
     0
102
RTVSPost2010PropOp32
 70
     1
102
RTVSPost2010Prop33
280
     0
102
RTVSPost2010PropOp33
 70
     1
102
RTVSPost2010Prop34
280
     0
102
RTVSPost2010PropOp34
 70
     1
102
RTVSPost2010Prop35
280
     0
102
RTVSPost2010PropOp35
 70
     1
102
RTVSPost2010Prop36
280
     0
102
RTVSPost2010PropOp36
 70
     1
102
RTVSPost2010Prop37
 90
       50
102
RTVSPost2010PropOp37
 70
     1
102
RTVSPost2010Prop38
140
0.0
102
RTVSPost2010PropOp38
 70
     1
102
RTVSPost2010Prop39
140
1.0
102
RTVSPost2010PropOp39
 70
     1
102
RTVSPost2010Prop40
 90
        0
102
RTVSPost2010PropOp40
 70
     1
102
RTVSPost2010Prop41ColorIndex
 90
       18
102
RTVSPost2010Prop41ColorRGB
 90
        0
102
RTVSPost2010PropOp41
 70
     1
102
RTVSPost2010Prop42
 90
       50
102
RTVSPost2010PropOp42
 70
     1
102
RTVSPost2010Prop43
 90
        3
102
RTVSPost2010PropOp43
 70
     1
102
RTVSPost2010Prop44ColorIndex
 90
        5
102
RTVSPost2010Prop44ColorRGB
 90
      255
102
RTVSPost2010PropOp44
 70
     1
102
RTVSPost2010Prop45
280
     0
102
RTVSPost2010PropOp45
 70
     1
102
RTVSPost2010Prop46
 90
       50
102
RTVSPost2010PropOp46
 70
     1
102
RTVSPost2010Prop47
 90
       50
102
RTVSPost2010PropOp47
 70
     1
102
RTVSPost2010Prop48
 90
       50
102
RTVSPost2010PropOp48
 70
     1
102
RTVSPost2010Prop49
280
     0
102
RTVSPost2010PropOp49
 70
     1
102
RTVSPost2010Prop50
 90
       50
102
RTVSPost2010PropOp50
 70
     1
102
RTVSPost2010Prop51ColorIndex
 90
      256
102
RTVSPost2010Prop51ColorRGB
 90
-16777216
102
RTVSPost2010PropOp51
 70
     0
102
RTVSPost2010Prop52
140
1.0
102
RTVSPost2010PropOp52
 70
     0
102
RTVSPost2010Prop53
 90
        2
102
RTVSPost2010PropOp53
 70
     1
102
RTVSPost2010Prop54
  1
strokes_ogs.tif
102
RTVSPost2010PropOp54
 70
     1
102
RTVSPost2010Prop55
280
     0
102
RTVSPost2010PropOp55
 70
     1
102
RTVSPost2010Prop56
140
1.0
102
RTVSPost2010PropOp56
 70
     1
102
RTVSPost2010Prop57
140
1.0
102
RTVSPost2010PropOp57
 70
     1
  0
XRECORD
  5
215
102
{ACAD_REACTORS
330
214
102
}
330
214
100
AcDbXrecord
280
     1
102
RTVSPropertyOp0
 70
     1
102
RTVSPropertyOp1
 70
     1
102
RTVSPropertyOp2
 70
     1
102
RTVSPropertyOp3
 70
     1
102
RTVSPropertyOp4
 70
     1
102
RTVSPropertyOp5
 70
     1
102
RTVSPropertyOp6
 70
     1
102
RTVSPropertyOp7
 70
     1
102
RTVSPropertyOp8
 70
     1
102
RTVSPropertyOp9
 70
     1
102
RTVSPropertyOp10
 70
     1
102
RTVSPropertyOp11
 70
     1
102
RTVSPropertyOp12
 70
     1
102
RTVSPropertyOp13
 70
     1
102
RTVSPropertyOp14
 70
     1
102
RTVSPropertyOp15
 70
     1
102
RTVSPropertyOp16
 70
     1
102
RTVSPropertyOp17
 70
     1
102
RTVSPropertyOp18
 70
     1
102
RTVSPropertyOp19
 70
     1
102
RTVSPropertyOp20
 70
     1
102
RTVSPropertyOp21
 70
     1
102
RTVSPropertyOp22
 70
     1
102
RTVSPropertyOp23
 70
     1
102
RTVSPropertyOp24
 70
     1
102
RTVSPropertyOp25
 70
     1
102
RTVSPropertyOp26
 70
     1
102
RTVSPropertyOp27
 70
     1
102
RTVSPropertyOp28
 70
     1
102
RTVSPropertyOp29
 70
     1
102
RTVSPropertyOp30
 70
     1
102
RTVSPropertyOp31
 70
     1
102
RTVSPropertyOp32
 70
     1
102
RTVSPropertyOp33
 70
     1
102
RTVSPropertyOp34
 70
     1
102
RTVSPropertyOp35
 70
     1
102
RTVSPropertyOp36
 70
     1
102
RTVSPropertyOp37
 70
     1
102
RTVSPropertyOp38
 70
     1
102
RTVSPropertyOp39
 70
     1
102
RTVSPropertyOp40
 70
     1
102
RTVSPropertyOp41
 70
     1
102
RTVSPropertyOp42
 70
     1
102
RTVSPropertyOp43
 70
     1
102
RTVSPropertyOp44
 70
     1
102
RTVSPropertyOp45
 70
     1
102
RTVSPropertyOp46
 70
     1
102
RTVSPropertyOp47
 70
     1
102
RTVSPropertyOp48
 70
     1
102
RTVSPropertyOp49
 70
     1
102
RTVSPropertyOp50
 70
     1
102
RTVSPropertyOp51
 70
     0
102
RTVSPropertyOp52
 70
     0
102
RTVSPropertyOp53
 70
     1
102
RTVSPropertyOp54
 70
     1
102
RTVSPropertyOp55
 70
     1
102
RTVSPropertyOp56
 70
     1
102
RTVSPropertyOp57
 70
     1
102
RTVSPost2010Prop28
280
     0
102
RTVSPost2010PropOp28
 70
     1
102
RTVSPost2010Prop29
280
     1
102
RTVSPost2010PropOp29
 70
     1
102
RTVSPost2010Prop30
280
     1
102
RTVSPost2010PropOp30
 70
     1
102
RTVSPost2010Prop31
280
     0
102
RTVSPost2010PropOp31
 70
     1
102
RTVSPost2010Prop32
280
     0
102
RTVSPost2010PropOp32
 70
     1
102
RTVSPost2010Prop33
280
     0
102
RTVSPost2010PropOp33
 70
     1
102
RTVSPost2010Prop34
280
     0
102
RTVSPost2010PropOp34
 70
     1
102
RTVSPost2010Prop35
280
     0
102
RTVSPost2010PropOp35
 70
     1
102
RTVSPost2010Prop36
280
     0
102
RTVSPost2010PropOp36
 70
     1
102
RTVSPost2010Prop37
 90
       50
102
RTVSPost2010PropOp37
 70
     1
102
RTVSPost2010Prop38
140
0.0
102
RTVSPost2010PropOp38
 70
     1
102
RTVSPost2010Prop39
140
1.0
102
RTVSPost2010PropOp39
 70
     1
102
RTVSPost2010Prop40
 90
        0
102
RTVSPost2010PropOp40
 70
     1
102
RTVSPost2010Prop41ColorIndex
 90
       18
102
RTVSPost2010Prop41ColorRGB
 90
        0
102
RTVSPost2010PropOp41
 70
     1
102
RTVSPost2010Prop42
 90
       50
102
RTVSPost2010PropOp42
 70
     1
102
RTVSPost2010Prop43
 90
        3
102
RTVSPost2010PropOp43
 70
     1
102
RTVSPost2010Prop44ColorIndex
 90
        5
102
RTVSPost2010Prop44ColorRGB
 90
      255
102
RTVSPost2010PropOp44
 70
     1
102
RTVSPost2010Prop45
280
     0
102
RTVSPost2010PropOp45
 70
     1
102
RTVSPost2010Prop46
 90
       50
102
RTVSPost2010PropOp46
 70
     1
102
RTVSPost2010Prop47
 90
       50
102
RTVSPost2010PropOp47
 70
     1
102
RTVSPost2010Prop48
 90
       50
102
RTVSPost2010PropOp48
 70
     1
102
RTVSPost2010Prop49
280
     0
102
RTVSPost2010PropOp49
 70
     1
102
RTVSPost2010Prop50
 90
       50
102
RTVSPost2010PropOp50
 70
     1
102
RTVSPost2010Prop51ColorIndex
 90
      256
102
RTVSPost2010Prop51ColorRGB
 90
-16777216
102
RTVSPost2010PropOp51
 70
     0
102
RTVSPost2010Prop52
140
1.0
102
RTVSPost2010PropOp52
 70
     0
102
RTVSPost2010Prop53
 90
        2
102
RTVSPost2010PropOp53
 70
     1
102
RTVSPost2010Prop54
  1
strokes_ogs.tif
102
RTVSPost2010PropOp54
 70
     1
102
RTVSPost2010Prop55
280
     0
102
RTVSPost2010PropOp55
 70
     1
102
RTVSPost2010Prop56
140
1.0
102
RTVSPost2010PropOp56
 70
     1
102
RTVSPost2010Prop57
140
1.0
102
RTVSPost2010PropOp57
 70
     1
  0
XRECORD
  5
21D
102
{ACAD_REACTORS
330
21C
102
}
330
21C
100
AcDbXrecord
280
     1
102
RTVSPropertyOp0
 70
     1
102
RTVSPropertyOp1
 70
     1
102
RTVSPropertyOp2
 70
     1
102
RTVSPropertyOp3
 70
     1
102
RTVSPropertyOp4
 70
     1
102
RTVSPropertyOp5
 70
     1
102
RTVSPropertyOp6
 70
     1
102
RTVSPropertyOp7
 70
     1
102
RTVSPropertyOp8
 70
     1
102
RTVSPropertyOp9
 70
     1
102
RTVSPropertyOp10
 70
     1
102
RTVSPropertyOp11
 70
     1
102
RTVSPropertyOp12
 70
     1
102
RTVSPropertyOp13
 70
     1
102
RTVSPropertyOp14
 70
     1
102
RTVSPropertyOp15
 70
     1
102
RTVSPropertyOp16
 70
     1
102
RTVSPropertyOp17
 70
     1
102
RTVSPropertyOp18
 70
     1
102
RTVSPropertyOp19
 70
     1
102
RTVSPropertyOp20
 70
     1
102
RTVSPropertyOp21
 70
     1
102
RTVSPropertyOp22
 70
     1
102
RTVSPropertyOp23
 70
     1
102
RTVSPropertyOp24
 70
     1
102
RTVSPropertyOp25
 70
     1
102
RTVSPropertyOp26
 70
     1
102
RTVSPropertyOp27
 70
     1
102
RTVSPropertyOp28
 70
     1
102
RTVSPropertyOp29
 70
     1
102
RTVSPropertyOp30
 70
     1
102
RTVSPropertyOp31
 70
     1
102
RTVSPropertyOp32
 70
     1
102
RTVSPropertyOp33
 70
     1
102
RTVSPropertyOp34
 70
     1
102
RTVSPropertyOp35
 70
     1
102
RTVSPropertyOp36
 70
     1
102
RTVSPropertyOp37
 70
     1
102
RTVSPropertyOp38
 70
     1
102
RTVSPropertyOp39
 70
     1
102
RTVSPropertyOp40
 70
     1
102
RTVSPropertyOp41
 70
     1
102
RTVSPropertyOp42
 70
     1
102
RTVSPropertyOp43
 70
     1
102
RTVSPropertyOp44
 70
     1
102
RTVSPropertyOp45
 70
     1
102
RTVSPropertyOp46
 70
     1
102
RTVSPropertyOp47
 70
     1
102
RTVSPropertyOp48
 70
     1
102
RTVSPropertyOp49
 70
     1
102
RTVSPropertyOp50
 70
     1
102
RTVSPropertyOp51
 70
     0
102
RTVSPropertyOp52
 70
     0
102
RTVSPropertyOp53
 70
     1
102
RTVSPropertyOp54
 70
     1
102
RTVSPropertyOp55
 70
     1
102
RTVSPropertyOp56
 70
     1
102
RTVSPropertyOp57
 70
     1
102
RTVSPost2010Prop28
280
     0
102
RTVSPost2010PropOp28
 70
     1
102
RTVSPost2010Prop29
280
     1
102
RTVSPost2010PropOp29
 70
     1
102
RTVSPost2010Prop30
280
     1
102
RTVSPost2010PropOp30
 70
     1
102
RTVSPost2010Prop31
280
     0
102
RTVSPost2010PropOp31
 70
     1
102
RTVSPost2010Prop32
280
     0
102
RTVSPost2010PropOp32
 70
     1
102
RTVSPost2010Prop33
280
     0
102
RTVSPost2010PropOp33
 70
     1
102
RTVSPost2010Prop34
280
     0
102
RTVSPost2010PropOp34
 70
     1
102
RTVSPost2010Prop35
280
     0
102
RTVSPost2010PropOp35
 70
     1
102
RTVSPost2010Prop36
280
     0
102
RTVSPost2010PropOp36
 70
     1
102
RTVSPost2010Prop37
 90
       50
102
RTVSPost2010PropOp37
 70
     1
102
RTVSPost2010Prop38
140
0.0
102
RTVSPost2010PropOp38
 70
     1
102
RTVSPost2010Prop39
140
1.0
102
RTVSPost2010PropOp39
 70
     1
102
RTVSPost2010Prop40
 90
        0
102
RTVSPost2010PropOp40
 70
     1
102
RTVSPost2010Prop41ColorIndex
 90
       18
102
RTVSPost2010Prop41ColorRGB
 90
        0
102
RTVSPost2010PropOp41
 70
     1
102
RTVSPost2010Prop42
 90
       50
102
RTVSPost2010PropOp42
 70
     1
102
RTVSPost2010Prop43
 90
        3
102
RTVSPost2010PropOp43
 70
     1
102
RTVSPost2010Prop44ColorIndex
 90
        5
102
RTVSPost2010Prop44ColorRGB
 90
      255
102
RTVSPost2010PropOp44
 70
     1
102
RTVSPost2010Prop45
280
     0
102
RTVSPost2010PropOp45
 70
     1
102
RTVSPost2010Prop46
 90
       50
102
RTVSPost2010PropOp46
 70
     1
102
RTVSPost2010Prop47
 90
       50
102
RTVSPost2010PropOp47
 70
     1
102
RTVSPost2010Prop48
 90
       50
102
RTVSPost2010PropOp48
 70
     1
102
RTVSPost2010Prop49
280
     0
102
RTVSPost2010PropOp49
 70
     1
102
RTVSPost2010Prop50
 90
       50
102
RTVSPost2010PropOp50
 70
     1
102
RTVSPost2010Prop51ColorIndex
 90
      256
102
RTVSPost2010Prop51ColorRGB
 90
-16777216
102
RTVSPost2010PropOp51
 70
     0
102
RTVSPost2010Prop52
140
1.0
102
RTVSPost2010PropOp52
 70
     0
102
RTVSPost2010Prop53
 90
        2
102
RTVSPost2010PropOp53
 70
     1
102
RTVSPost2010Prop54
  1
strokes_ogs.tif
102
RTVSPost2010PropOp54
 70
     1
102
RTVSPost2010Prop55
280
     0
102
RTVSPost2010PropOp55
 70
     1
102
RTVSPost2010Prop56
140
1.0
102
RTVSPost2010PropOp56
 70
     1
102
RTVSPost2010Prop57
140
1.0
102
RTVSPost2010PropOp57
 70
     1
  0
XRECORD
  5
211
102
{ACAD_REACTORS
330
210
102
}
330
210
100
AcDbXrecord
280
     1
102
RTVSPropertyOp0
 70
     1
102
RTVSPropertyOp1
 70
     1
102
RTVSPropertyOp2
 70
     1
102
RTVSPropertyOp3
 70
     1
102
RTVSPropertyOp4
 70
     1
102
RTVSPropertyOp5
 70
     1
102
RTVSPropertyOp6
 70
     1
102
RTVSPropertyOp7
 70
     1
102
RTVSPropertyOp8
 70
     1
102
RTVSPropertyOp9
 70
     1
102
RTVSPropertyOp10
 70
     1
102
RTVSPropertyOp11
 70
     1
102
RTVSPropertyOp12
 70
     1
102
RTVSPropertyOp13
 70
     1
102
RTVSPropertyOp14
 70
     1
102
RTVSPropertyOp15
 70
     1
102
RTVSPropertyOp16
 70
     1
102
RTVSPropertyOp17
 70
     1
102
RTVSPropertyOp18
 70
     1
102
RTVSPropertyOp19
 70
     1
102
RTVSPropertyOp20
 70
     1
102
RTVSPropertyOp21
 70
     1
102
RTVSPropertyOp22
 70
     1
102
RTVSPropertyOp23
 70
     1
102
RTVSPropertyOp24
 70
     1
102
RTVSPropertyOp25
 70
     1
102
RTVSPropertyOp26
 70
     1
102
RTVSPropertyOp27
 70
     1
102
RTVSPropertyOp28
 70
     1
102
RTVSPropertyOp29
 70
     1
102
RTVSPropertyOp30
 70
     1
102
RTVSPropertyOp31
 70
     1
102
RTVSPropertyOp32
 70
     1
102
RTVSPropertyOp33
 70
     1
102
RTVSPropertyOp34
 70
     1
102
RTVSPropertyOp35
 70
     1
102
RTVSPropertyOp36
 70
     1
102
RTVSPropertyOp37
 70
     1
102
RTVSPropertyOp38
 70
     1
102
RTVSPropertyOp39
 70
     1
102
RTVSPropertyOp40
 70
     1
102
RTVSPropertyOp41
 70
     1
102
RTVSPropertyOp42
 70
     1
102
RTVSPropertyOp43
 70
     1
102
RTVSPropertyOp44
 70
     1
102
RTVSPropertyOp45
 70
     1
102
RTVSPropertyOp46
 70
     1
102
RTVSPropertyOp47
 70
     1
102
RTVSPropertyOp48
 70
     1
102
RTVSPropertyOp49
 70
     1
102
RTVSPropertyOp50
 70
     1
102
RTVSPropertyOp51
 70
     0
102
RTVSPropertyOp52
 70
     0
102
RTVSPropertyOp53
 70
     1
102
RTVSPropertyOp54
 70
     1
102
RTVSPropertyOp55
 70
     1
102
RTVSPropertyOp56
 70
     1
102
RTVSPropertyOp57
 70
     1
102
RTVSPost2010Prop28
280
     0
102
RTVSPost2010PropOp28
 70
     1
102
RTVSPost2010Prop29
280
     1
102
RTVSPost2010PropOp29
 70
     1
102
RTVSPost2010Prop30
280
     1
102
RTVSPost2010PropOp30
 70
     1
102
RTVSPost2010Prop31
280
     0
102
RTVSPost2010PropOp31
 70
     1
102
RTVSPost2010Prop32
280
     0
102
RTVSPost2010PropOp32
 70
     1
102
RTVSPost2010Prop33
280
     0
102
RTVSPost2010PropOp33
 70
     1
102
RTVSPost2010Prop34
280
     0
102
RTVSPost2010PropOp34
 70
     1
102
RTVSPost2010Prop35
280
     0
102
RTVSPost2010PropOp35
 70
     1
102
RTVSPost2010Prop36
280
     0
102
RTVSPost2010PropOp36
 70
     1
102
RTVSPost2010Prop37
 90
       50
102
RTVSPost2010PropOp37
 70
     1
102
RTVSPost2010Prop38
140
0.0
102
RTVSPost2010PropOp38
 70
     1
102
RTVSPost2010Prop39
140
1.0
102
RTVSPost2010PropOp39
 70
     1
102
RTVSPost2010Prop40
 90
        0
102
RTVSPost2010PropOp40
 70
     1
102
RTVSPost2010Prop41ColorIndex
 90
       18
102
RTVSPost2010Prop41ColorRGB
 90
        0
102
RTVSPost2010PropOp41
 70
     1
102
RTVSPost2010Prop42
 90
       50
102
RTVSPost2010PropOp42
 70
     1
102
RTVSPost2010Prop43
 90
        3
102
RTVSPost2010PropOp43
 70
     1
102
RTVSPost2010Prop44ColorIndex
 90
        5
102
RTVSPost2010Prop44ColorRGB
 90
      255
102
RTVSPost2010PropOp44
 70
     1
102
RTVSPost2010Prop45
280
     0
102
RTVSPost2010PropOp45
 70
     1
102
RTVSPost2010Prop46
 90
       50
102
RTVSPost2010PropOp46
 70
     1
102
RTVSPost2010Prop47
 90
       50
102
RTVSPost2010PropOp47
 70
     1
102
RTVSPost2010Prop48
 90
       50
102
RTVSPost2010PropOp48
 70
     1
102
RTVSPost2010Prop49
280
     0
102
RTVSPost2010PropOp49
 70
     1
102
RTVSPost2010Prop50
 90
       50
102
RTVSPost2010PropOp50
 70
     1
102
RTVSPost2010Prop51ColorIndex
 90
      256
102
RTVSPost2010Prop51ColorRGB
 90
-16777216
102
RTVSPost2010PropOp51
 70
     0
102
RTVSPost2010Prop52
140
1.0
102
RTVSPost2010PropOp52
 70
     0
102
RTVSPost2010Prop53
 90
        2
102
RTVSPost2010PropOp53
 70
     1
102
RTVSPost2010Prop54
  1
strokes_ogs.tif
102
RTVSPost2010PropOp54
 70
     1
102
RTVSPost2010Prop55
280
     0
102
RTVSPost2010PropOp55
 70
     1
102
RTVSPost2010Prop56
140
1.0
102
RTVSPost2010PropOp56
 70
     1
102
RTVSPost2010Prop57
140
1.0
102
RTVSPost2010PropOp57
 70
     1
  0
XRECORD
  5
213
102
{ACAD_REACTORS
330
212
102
}
330
212
100
AcDbXrecord
280
     1
102
RTVSPropertyOp0
 70
     1
102
RTVSPropertyOp1
 70
     1
102
RTVSPropertyOp2
 70
     1
102
RTVSPropertyOp3
 70
     1
102
RTVSPropertyOp4
 70
     1
102
RTVSPropertyOp5
 70
     1
102
RTVSPropertyOp6
 70
     1
102
RTVSPropertyOp7
 70
     1
102
RTVSPropertyOp8
 70
     1
102
RTVSPropertyOp9
 70
     1
102
RTVSPropertyOp10
 70
     1
102
RTVSPropertyOp11
 70
     1
102
RTVSPropertyOp12
 70
     1
102
RTVSPropertyOp13
 70
     1
102
RTVSPropertyOp14
 70
     1
102
RTVSPropertyOp15
 70
     1
102
RTVSPropertyOp16
 70
     1
102
RTVSPropertyOp17
 70
     1
102
RTVSPropertyOp18
 70
     1
102
RTVSPropertyOp19
 70
     1
102
RTVSPropertyOp20
 70
     1
102
RTVSPropertyOp21
 70
     1
102
RTVSPropertyOp22
 70
     1
102
RTVSPropertyOp23
 70
     1
102
RTVSPropertyOp24
 70
     1
102
RTVSPropertyOp25
 70
     1
102
RTVSPropertyOp26
 70
     1
102
RTVSPropertyOp27
 70
     1
102
RTVSPropertyOp28
 70
     1
102
RTVSPropertyOp29
 70
     1
102
RTVSPropertyOp30
 70
     1
102
RTVSPropertyOp31
 70
     1
102
RTVSPropertyOp32
 70
     1
102
RTVSPropertyOp33
 70
     1
102
RTVSPropertyOp34
 70
     1
102
RTVSPropertyOp35
 70
     1
102
RTVSPropertyOp36
 70
     1
102
RTVSPropertyOp37
 70
     1
102
RTVSPropertyOp38
 70
     1
102
RTVSPropertyOp39
 70
     1
102
RTVSPropertyOp40
 70
     1
102
RTVSPropertyOp41
 70
     1
102
RTVSPropertyOp42
 70
     1
102
RTVSPropertyOp43
 70
     1
102
RTVSPropertyOp44
 70
     1
102
RTVSPropertyOp45
 70
     1
102
RTVSPropertyOp46
 70
     1
102
RTVSPropertyOp47
 70
     1
102
RTVSPropertyOp48
 70
     1
102
RTVSPropertyOp49
 70
     1
102
RTVSPropertyOp50
 70
     1
102
RTVSPropertyOp51
 70
     0
102
RTVSPropertyOp52
 70
     0
102
RTVSPropertyOp53
 70
     1
102
RTVSPropertyOp54
 70
     1
102
RTVSPropertyOp55
 70
     1
102
RTVSPropertyOp56
 70
     1
102
RTVSPropertyOp57
 70
     1
102
RTVSPost2010Prop28
280
     0
102
RTVSPost2010PropOp28
 70
     1
102
RTVSPost2010Prop29
280
     1
102
RTVSPost2010PropOp29
 70
     1
102
RTVSPost2010Prop30
280
     1
102
RTVSPost2010PropOp30
 70
     1
102
RTVSPost2010Prop31
280
     0
102
RTVSPost2010PropOp31
 70
     1
102
RTVSPost2010Prop32
280
     0
102
RTVSPost2010PropOp32
 70
     1
102
RTVSPost2010Prop33
280
     0
102
RTVSPost2010PropOp33
 70
     1
102
RTVSPost2010Prop34
280
     0
102
RTVSPost2010PropOp34
 70
     1
102
RTVSPost2010Prop35
280
     0
102
RTVSPost2010PropOp35
 70
     1
102
RTVSPost2010Prop36
280
     0
102
RTVSPost2010PropOp36
 70
     1
102
RTVSPost2010Prop37
 90
       50
102
RTVSPost2010PropOp37
 70
     1
102
RTVSPost2010Prop38
140
0.0
102
RTVSPost2010PropOp38
 70
     1
102
RTVSPost2010Prop39
140
1.0
102
RTVSPost2010PropOp39
 70
     1
102
RTVSPost2010Prop40
 90
        0
102
RTVSPost2010PropOp40
 70
     1
102
RTVSPost2010Prop41ColorIndex
 90
       18
102
RTVSPost2010Prop41ColorRGB
 90
        0
102
RTVSPost2010PropOp41
 70
     1
102
RTVSPost2010Prop42
 90
       50
102
RTVSPost2010PropOp42
 70
     1
102
RTVSPost2010Prop43
 90
        3
102
RTVSPost2010PropOp43
 70
     1
102
RTVSPost2010Prop44ColorIndex
 90
        5
102
RTVSPost2010Prop44ColorRGB
 90
      255
102
RTVSPost2010PropOp44
 70
     1
102
RTVSPost2010Prop45
280
     0
102
RTVSPost2010PropOp45
 70
     1
102
RTVSPost2010Prop46
 90
       50
102
RTVSPost2010PropOp46
 70
     1
102
RTVSPost2010Prop47
 90
       50
102
RTVSPost2010PropOp47
 70
     1
102
RTVSPost2010Prop48
 90
       50
102
RTVSPost2010PropOp48
 70
     1
102
RTVSPost2010Prop49
280
     0
102
RTVSPost2010PropOp49
 70
     1
102
RTVSPost2010Prop50
 90
       50
102
RTVSPost2010PropOp50
 70
     1
102
RTVSPost2010Prop51ColorIndex
 90
      256
102
RTVSPost2010Prop51ColorRGB
 90
-16777216
102
RTVSPost2010PropOp51
 70
     0
102
RTVSPost2010Prop52
140
1.0
102
RTVSPost2010PropOp52
 70
     0
102
RTVSPost2010Prop53
 90
        2
102
RTVSPost2010PropOp53
 70
     1
102
RTVSPost2010Prop54
  1
strokes_ogs.tif
102
RTVSPost2010PropOp54
 70
     1
102
RTVSPost2010Prop55
280
     0
102
RTVSPost2010PropOp55
 70
     1
102
RTVSPost2010Prop56
140
1.0
102
RTVSPost2010PropOp56
 70
     1
102
RTVSPost2010Prop57
140
1.0
102
RTVSPost2010PropOp57
 70
     1
  0
XRECORD
  5
21B
102
{ACAD_REACTORS
330
21A
102
}
330
21A
100
AcDbXrecord
280
     1
102
RTVSPropertyOp0
 70
     1
102
RTVSPropertyOp1
 70
     1
102
RTVSPropertyOp2
 70
     1
102
RTVSPropertyOp3
 70
     1
102
RTVSPropertyOp4
 70
     1
102
RTVSPropertyOp5
 70
     1
102
RTVSPropertyOp6
 70
     1
102
RTVSPropertyOp7
 70
     1
102
RTVSPropertyOp8
 70
     1
102
RTVSPropertyOp9
 70
     1
102
RTVSPropertyOp10
 70
     1
102
RTVSPropertyOp11
 70
     1
102
RTVSPropertyOp12
 70
     1
102
RTVSPropertyOp13
 70
     1
102
RTVSPropertyOp14
 70
     1
102
RTVSPropertyOp15
 70
     1
102
RTVSPropertyOp16
 70
     1
102
RTVSPropertyOp17
 70
     1
102
RTVSPropertyOp18
 70
     1
102
RTVSPropertyOp19
 70
     1
102
RTVSPropertyOp20
 70
     1
102
RTVSPropertyOp21
 70
     1
102
RTVSPropertyOp22
 70
     1
102
RTVSPropertyOp23
 70
     1
102
RTVSPropertyOp24
 70
     1
102
RTVSPropertyOp25
 70
     1
102
RTVSPropertyOp26
 70
     1
102
RTVSPropertyOp27
 70
     1
102
RTVSPropertyOp28
 70
     1
102
RTVSPropertyOp29
 70
     1
102
RTVSPropertyOp30
 70
     1
102
RTVSPropertyOp31
 70
     1
102
RTVSPropertyOp32
 70
     1
102
RTVSPropertyOp33
 70
     1
102
RTVSPropertyOp34
 70
     1
102
RTVSPropertyOp35
 70
     1
102
RTVSPropertyOp36
 70
     1
102
RTVSPropertyOp37
 70
     1
102
RTVSPropertyOp38
 70
     1
102
RTVSPropertyOp39
 70
     1
102
RTVSPropertyOp40
 70
     1
102
RTVSPropertyOp41
 70
     1
102
RTVSPropertyOp42
 70
     1
102
RTVSPropertyOp43
 70
     1
102
RTVSPropertyOp44
 70
     1
102
RTVSPropertyOp45
 70
     1
102
RTVSPropertyOp46
 70
     1
102
RTVSPropertyOp47
 70
     1
102
RTVSPropertyOp48
 70
     1
102
RTVSPropertyOp49
 70
     1
102
RTVSPropertyOp50
 70
     1
102
RTVSPropertyOp51
 70
     0
102
RTVSPropertyOp52
 70
     0
102
RTVSPropertyOp53
 70
     1
102
RTVSPropertyOp54
 70
     1
102
RTVSPropertyOp55
 70
     1
102
RTVSPropertyOp56
 70
     1
102
RTVSPropertyOp57
 70
     1
102
RTVSPost2010Prop28
280
     0
102
RTVSPost2010PropOp28
 70
     1
102
RTVSPost2010Prop29
280
     1
102
RTVSPost2010PropOp29
 70
     1
102
RTVSPost2010Prop30
280
     1
102
RTVSPost2010PropOp30
 70
     1
102
RTVSPost2010Prop31
280
     0
102
RTVSPost2010PropOp31
 70
     1
102
RTVSPost2010Prop32
280
     0
102
RTVSPost2010PropOp32
 70
     1
102
RTVSPost2010Prop33
280
     0
102
RTVSPost2010PropOp33
 70
     1
102
RTVSPost2010Prop34
280
     0
102
RTVSPost2010PropOp34
 70
     1
102
RTVSPost2010Prop35
280
     0
102
RTVSPost2010PropOp35
 70
     1
102
RTVSPost2010Prop36
280
     0
102
RTVSPost2010PropOp36
 70
     1
102
RTVSPost2010Prop37
 90
       50
102
RTVSPost2010PropOp37
 70
     1
102
RTVSPost2010Prop38
140
0.0
102
RTVSPost2010PropOp38
 70
     1
102
RTVSPost2010Prop39
140
1.0
102
RTVSPost2010PropOp39
 70
     1
102
RTVSPost2010Prop40
 90
        0
102
RTVSPost2010PropOp40
 70
     1
102
RTVSPost2010Prop41ColorIndex
 90
       18
102
RTVSPost2010Prop41ColorRGB
 90
        0
102
RTVSPost2010PropOp41
 70
     1
102
RTVSPost2010Prop42
 90
       50
102
RTVSPost2010PropOp42
 70
     1
102
RTVSPost2010Prop43
 90
        3
102
RTVSPost2010PropOp43
 70
     1
102
RTVSPost2010Prop44ColorIndex
 90
        5
102
RTVSPost2010Prop44ColorRGB
 90
      255
102
RTVSPost2010PropOp44
 70
     1
102
RTVSPost2010Prop45
280
     0
102
RTVSPost2010PropOp45
 70
     1
102
RTVSPost2010Prop46
 90
       50
102
RTVSPost2010PropOp46
 70
     1
102
RTVSPost2010Prop47
 90
       50
102
RTVSPost2010PropOp47
 70
     1
102
RTVSPost2010Prop48
 90
       50
102
RTVSPost2010PropOp48
 70
     1
102
RTVSPost2010Prop49
280
     0
102
RTVSPost2010PropOp49
 70
     1
102
RTVSPost2010Prop50
 90
       50
102
RTVSPost2010PropOp50
 70
     1
102
RTVSPost2010Prop51ColorIndex
 90
      256
102
RTVSPost2010Prop51ColorRGB
 90
-16777216
102
RTVSPost2010PropOp51
 70
     0
102
RTVSPost2010Prop52
140
1.0
102
RTVSPost2010PropOp52
 70
     0
102
RTVSPost2010Prop53
 90
        2
102
RTVSPost2010PropOp53
 70
     1
102
RTVSPost2010Prop54
  1
strokes_ogs.tif
102
RTVSPost2010PropOp54
 70
     1
102
RTVSPost2010Prop55
280
     0
102
RTVSPost2010PropOp55
 70
     1
102
RTVSPost2010Prop56
140
1.0
102
RTVSPost2010PropOp56
 70
     1
102
RTVSPost2010Prop57
140
1.0
102
RTVSPost2010PropOp57
 70
     1
  0
XRECORD
  5
1FF
102
{ACAD_REACTORS
330
1FE
102
}
330
1FE
100
AcDbXrecord
280
     1
102
RTVSPropertyOp0
 70
     1
102
RTVSPropertyOp1
 70
     1
102
RTVSPropertyOp2
 70
     1
102
RTVSPropertyOp3
 70
     1
102
RTVSPropertyOp4
 70
     1
102
RTVSPropertyOp5
 70
     1
102
RTVSPropertyOp6
 70
     1
102
RTVSPropertyOp7
 70
     1
102
RTVSPropertyOp8
 70
     1
102
RTVSPropertyOp9
 70
     1
102
RTVSPropertyOp10
 70
     1
102
RTVSPropertyOp11
 70
     1
102
RTVSPropertyOp12
 70
     1
102
RTVSPropertyOp13
 70
     1
102
RTVSPropertyOp14
 70
     1
102
RTVSPropertyOp15
 70
     1
102
RTVSPropertyOp16
 70
     1
102
RTVSPropertyOp17
 70
     1
102
RTVSPropertyOp18
 70
     1
102
RTVSPropertyOp19
 70
     1
102
RTVSPropertyOp20
 70
     1
102
RTVSPropertyOp21
 70
     1
102
RTVSPropertyOp22
 70
     1
102
RTVSPropertyOp23
 70
     1
102
RTVSPropertyOp24
 70
     1
102
RTVSPropertyOp25
 70
     1
102
RTVSPropertyOp26
 70
     1
102
RTVSPropertyOp27
 70
     1
102
RTVSPropertyOp28
 70
     1
102
RTVSPropertyOp29
 70
     1
102
RTVSPropertyOp30
 70
     1
102
RTVSPropertyOp31
 70
     1
102
RTVSPropertyOp32
 70
     1
102
RTVSPropertyOp33
 70
     1
102
RTVSPropertyOp34
 70
     1
102
RTVSPropertyOp35
 70
     1
102
RTVSPropertyOp36
 70
     1
102
RTVSPropertyOp37
 70
     1
102
RTVSPropertyOp38
 70
     1
102
RTVSPropertyOp39
 70
     1
102
RTVSPropertyOp40
 70
     1
102
RTVSPropertyOp41
 70
     1
102
RTVSPropertyOp42
 70
     1
102
RTVSPropertyOp43
 70
     1
102
RTVSPropertyOp44
 70
     1
102
RTVSPropertyOp45
 70
     1
102
RTVSPropertyOp46
 70
     1
102
RTVSPropertyOp47
 70
     1
102
RTVSPropertyOp48
 70
     1
102
RTVSPropertyOp49
 70
     1
102
RTVSPropertyOp50
 70
     1
102
RTVSPropertyOp51
 70
     0
102
RTVSPropertyOp52
 70
     0
102
RTVSPropertyOp53
 70
     1
102
RTVSPropertyOp54
 70
     1
102
RTVSPropertyOp55
 70
     1
102
RTVSPropertyOp56
 70
     1
102
RTVSPropertyOp57
 70
     1
102
RTVSPost2010Prop28
280
     0
102
RTVSPost2010PropOp28
 70
     1
102
RTVSPost2010Prop29
280
     1
102
RTVSPost2010PropOp29
 70
     1
102
RTVSPost2010Prop30
280
     1
102
RTVSPost2010PropOp30
 70
     1
102
RTVSPost2010Prop31
280
     0
102
RTVSPost2010PropOp31
 70
     1
102
RTVSPost2010Prop32
280
     0
102
RTVSPost2010PropOp32
 70
     1
102
RTVSPost2010Prop33
280
     0
102
RTVSPost2010PropOp33
 70
     1
102
RTVSPost2010Prop34
280
     0
102
RTVSPost2010PropOp34
 70
     1
102
RTVSPost2010Prop35
280
     0
102
RTVSPost2010PropOp35
 70
     1
102
RTVSPost2010Prop36
280
     0
102
RTVSPost2010PropOp36
 70
     1
102
RTVSPost2010Prop37
 90
       50
102
RTVSPost2010PropOp37
 70
     1
102
RTVSPost2010Prop38
140
0.0
102
RTVSPost2010PropOp38
 70
     1
102
RTVSPost2010Prop39
140
1.0
102
RTVSPost2010PropOp39
 70
     1
102
RTVSPost2010Prop40
 90
        0
102
RTVSPost2010PropOp40
 70
     1
102
RTVSPost2010Prop41ColorIndex
 90
       18
102
RTVSPost2010Prop41ColorRGB
 90
        0
102
RTVSPost2010PropOp41
 70
     1
102
RTVSPost2010Prop42
 90
       50
102
RTVSPost2010PropOp42
 70
     1
102
RTVSPost2010Prop43
 90
        3
102
RTVSPost2010PropOp43
 70
     1
102
RTVSPost2010Prop44ColorIndex
 90
        5
102
RTVSPost2010Prop44ColorRGB
 90
      255
102
RTVSPost2010PropOp44
 70
     1
102
RTVSPost2010Prop45
280
     0
102
RTVSPost2010PropOp45
 70
     1
102
RTVSPost2010Prop46
 90
       50
102
RTVSPost2010PropOp46
 70
     1
102
RTVSPost2010Prop47
 90
       50
102
RTVSPost2010PropOp47
 70
     1
102
RTVSPost2010Prop48
 90
       50
102
RTVSPost2010PropOp48
 70
     1
102
RTVSPost2010Prop49
280
     0
102
RTVSPost2010PropOp49
 70
     1
102
RTVSPost2010Prop50
 90
       50
102
RTVSPost2010PropOp50
 70
     1
102
RTVSPost2010Prop51ColorIndex
 90
      256
102
RTVSPost2010Prop51ColorRGB
 90
-16777216
102
RTVSPost2010PropOp51
 70
     0
102
RTVSPost2010Prop52
140
1.0
102
RTVSPost2010PropOp52
 70
     0
102
RTVSPost2010Prop53
 90
        2
102
RTVSPost2010PropOp53
 70
     1
102
RTVSPost2010Prop54
  1
strokes_ogs.tif
102
RTVSPost2010PropOp54
 70
     1
102
RTVSPost2010Prop55
280
     0
102
RTVSPost2010PropOp55
 70
     1
102
RTVSPost2010Prop56
140
1.0
102
RTVSPost2010PropOp56
 70
     1
102
RTVSPost2010Prop57
140
1.0
102
RTVSPost2010PropOp57
 70
     1
  0
XRECORD
  5
201
102
{ACAD_REACTORS
330
200
102
}
330
200
100
AcDbXrecord
280
     1
102
RTVSPropertyOp0
 70
     1
102
RTVSPropertyOp1
 70
     1
102
RTVSPropertyOp2
 70
     1
102
RTVSPropertyOp3
 70
     1
102
RTVSPropertyOp4
 70
     1
102
RTVSPropertyOp5
 70
     1
102
RTVSPropertyOp6
 70
     1
102
RTVSPropertyOp7
 70
     1
102
RTVSPropertyOp8
 70
     1
102
RTVSPropertyOp9
 70
     1
102
RTVSPropertyOp10
 70
     1
102
RTVSPropertyOp11
 70
     1
102
RTVSPropertyOp12
 70
     1
102
RTVSPropertyOp13
 70
     1
102
RTVSPropertyOp14
 70
     1
102
RTVSPropertyOp15
 70
     1
102
RTVSPropertyOp16
 70
     1
102
RTVSPropertyOp17
 70
     1
102
RTVSPropertyOp18
 70
     1
102
RTVSPropertyOp19
 70
     1
102
RTVSPropertyOp20
 70
     1
102
RTVSPropertyOp21
 70
     1
102
RTVSPropertyOp22
 70
     1
102
RTVSPropertyOp23
 70
     1
102
RTVSPropertyOp24
 70
     1
102
RTVSPropertyOp25
 70
     1
102
RTVSPropertyOp26
 70
     1
102
RTVSPropertyOp27
 70
     1
102
RTVSPropertyOp28
 70
     1
102
RTVSPropertyOp29
 70
     1
102
RTVSPropertyOp30
 70
     1
102
RTVSPropertyOp31
 70
     1
102
RTVSPropertyOp32
 70
     1
102
RTVSPropertyOp33
 70
     1
102
RTVSPropertyOp34
 70
     1
102
RTVSPropertyOp35
 70
     1
102
RTVSPropertyOp36
 70
     1
102
RTVSPropertyOp37
 70
     1
102
RTVSPropertyOp38
 70
     1
102
RTVSPropertyOp39
 70
     1
102
RTVSPropertyOp40
 70
     1
102
RTVSPropertyOp41
 70
     1
102
RTVSPropertyOp42
 70
     1
102
RTVSPropertyOp43
 70
     1
102
RTVSPropertyOp44
 70
     1
102
RTVSPropertyOp45
 70
     1
102
RTVSPropertyOp46
 70
     1
102
RTVSPropertyOp47
 70
     1
102
RTVSPropertyOp48
 70
     1
102
RTVSPropertyOp49
 70
     1
102
RTVSPropertyOp50
 70
     1
102
RTVSPropertyOp51
 70
     0
102
RTVSPropertyOp52
 70
     0
102
RTVSPropertyOp53
 70
     1
102
RTVSPropertyOp54
 70
     1
102
RTVSPropertyOp55
 70
     1
102
RTVSPropertyOp56
 70
     1
102
RTVSPropertyOp57
 70
     1
102
RTVSPost2010Prop28
280
     0
102
RTVSPost2010PropOp28
 70
     1
102
RTVSPost2010Prop29
280
     1
102
RTVSPost2010PropOp29
 70
     1
102
RTVSPost2010Prop30
280
     1
102
RTVSPost2010PropOp30
 70
     1
102
RTVSPost2010Prop31
280
     0
102
RTVSPost2010PropOp31
 70
     1
102
RTVSPost2010Prop32
280
     0
102
RTVSPost2010PropOp32
 70
     1
102
RTVSPost2010Prop33
280
     0
102
RTVSPost2010PropOp33
 70
     1
102
RTVSPost2010Prop34
280
     0
102
RTVSPost2010PropOp34
 70
     1
102
RTVSPost2010Prop35
280
     0
102
RTVSPost2010PropOp35
 70
     1
102
RTVSPost2010Prop36
280
     0
102
RTVSPost2010PropOp36
 70
     1
102
RTVSPost2010Prop37
 90
       50
102
RTVSPost2010PropOp37
 70
     1
102
RTVSPost2010Prop38
140
0.0
102
RTVSPost2010PropOp38
 70
     1
102
RTVSPost2010Prop39
140
1.0
102
RTVSPost2010PropOp39
 70
     1
102
RTVSPost2010Prop40
 90
        0
102
RTVSPost2010PropOp40
 70
     1
102
RTVSPost2010Prop41ColorIndex
 90
       18
102
RTVSPost2010Prop41ColorRGB
 90
        0
102
RTVSPost2010PropOp41
 70
     1
102
RTVSPost2010Prop42
 90
       50
102
RTVSPost2010PropOp42
 70
     1
102
RTVSPost2010Prop43
 90
        3
102
RTVSPost2010PropOp43
 70
     1
102
RTVSPost2010Prop44ColorIndex
 90
        5
102
RTVSPost2010Prop44ColorRGB
 90
      255
102
RTVSPost2010PropOp44
 70
     1
102
RTVSPost2010Prop45
280
     0
102
RTVSPost2010PropOp45
 70
     1
102
RTVSPost2010Prop46
 90
       50
102
RTVSPost2010PropOp46
 70
     1
102
RTVSPost2010Prop47
 90
       50
102
RTVSPost2010PropOp47
 70
     1
102
RTVSPost2010Prop48
 90
       50
102
RTVSPost2010PropOp48
 70
     1
102
RTVSPost2010Prop49
280
     0
102
RTVSPost2010PropOp49
 70
     1
102
RTVSPost2010Prop50
 90
       50
102
RTVSPost2010PropOp50
 70
     1
102
RTVSPost2010Prop51ColorIndex
 90
      256
102
RTVSPost2010Prop51ColorRGB
 90
-16777216
102
RTVSPost2010PropOp51
 70
     0
102
RTVSPost2010Prop52
140
1.0
102
RTVSPost2010PropOp52
 70
     0
102
RTVSPost2010Prop53
 90
        2
102
RTVSPost2010PropOp53
 70
     1
102
RTVSPost2010Prop54
  1
strokes_ogs.tif
102
RTVSPost2010PropOp54
 70
     1
102
RTVSPost2010Prop55
280
     0
102
RTVSPost2010PropOp55
 70
     1
102
RTVSPost2010Prop56
140
1.0
102
RTVSPost2010PropOp56
 70
     1
102
RTVSPost2010Prop57
140
1.0
102
RTVSPost2010PropOp57
 70
     1
  0
XRECORD
  5
203
102
{ACAD_REACTORS
330
202
102
}
330
202
100
AcDbXrecord
280
     1
102
RTVSPropertyOp0
 70
     1
102
RTVSPropertyOp1
 70
     1
102
RTVSPropertyOp2
 70
     1
102
RTVSPropertyOp3
 70
     1
102
RTVSPropertyOp4
 70
     1
102
RTVSPropertyOp5
 70
     1
102
RTVSPropertyOp6
 70
     1
102
RTVSPropertyOp7
 70
     1
102
RTVSPropertyOp8
 70
     1
102
RTVSPropertyOp9
 70
     1
102
RTVSPropertyOp10
 70
     1
102
RTVSPropertyOp11
 70
     1
102
RTVSPropertyOp12
 70
     1
102
RTVSPropertyOp13
 70
     1
102
RTVSPropertyOp14
 70
     1
102
RTVSPropertyOp15
 70
     1
102
RTVSPropertyOp16
 70
     1
102
RTVSPropertyOp17
 70
     1
102
RTVSPropertyOp18
 70
     1
102
RTVSPropertyOp19
 70
     1
102
RTVSPropertyOp20
 70
     1
102
RTVSPropertyOp21
 70
     1
102
RTVSPropertyOp22
 70
     1
102
RTVSPropertyOp23
 70
     1
102
RTVSPropertyOp24
 70
     1
102
RTVSPropertyOp25
 70
     1
102
RTVSPropertyOp26
 70
     1
102
RTVSPropertyOp27
 70
     1
102
RTVSPropertyOp28
 70
     1
102
RTVSPropertyOp29
 70
     1
102
RTVSPropertyOp30
 70
     1
102
RTVSPropertyOp31
 70
     1
102
RTVSPropertyOp32
 70
     1
102
RTVSPropertyOp33
 70
     1
102
RTVSPropertyOp34
 70
     1
102
RTVSPropertyOp35
 70
     1
102
RTVSPropertyOp36
 70
     1
102
RTVSPropertyOp37
 70
     1
102
RTVSPropertyOp38
 70
     1
102
RTVSPropertyOp39
 70
     1
102
RTVSPropertyOp40
 70
     1
102
RTVSPropertyOp41
 70
     1
102
RTVSPropertyOp42
 70
     1
102
RTVSPropertyOp43
 70
     1
102
RTVSPropertyOp44
 70
     1
102
RTVSPropertyOp45
 70
     1
102
RTVSPropertyOp46
 70
     1
102
RTVSPropertyOp47
 70
     1
102
RTVSPropertyOp48
 70
     1
102
RTVSPropertyOp49
 70
     1
102
RTVSPropertyOp50
 70
     1
102
RTVSPropertyOp51
 70
     0
102
RTVSPropertyOp52
 70
     0
102
RTVSPropertyOp53
 70
     1
102
RTVSPropertyOp54
 70
     1
102
RTVSPropertyOp55
 70
     1
102
RTVSPropertyOp56
 70
     1
102
RTVSPropertyOp57
 70
     1
102
RTVSPost2010Prop28
280
     0
102
RTVSPost2010PropOp28
 70
     1
102
RTVSPost2010Prop29
280
     1
102
RTVSPost2010PropOp29
 70
     1
102
RTVSPost2010Prop30
280
     1
102
RTVSPost2010PropOp30
 70
     1
102
RTVSPost2010Prop31
280
     0
102
RTVSPost2010PropOp31
 70
     1
102
RTVSPost2010Prop32
280
     0
102
RTVSPost2010PropOp32
 70
     1
102
RTVSPost2010Prop33
280
     0
102
RTVSPost2010PropOp33
 70
     1
102
RTVSPost2010Prop34
280
     0
102
RTVSPost2010PropOp34
 70
     1
102
RTVSPost2010Prop35
280
     0
102
RTVSPost2010PropOp35
 70
     1
102
RTVSPost2010Prop36
280
     0
102
RTVSPost2010PropOp36
 70
     1
102
RTVSPost2010Prop37
 90
       50
102
RTVSPost2010PropOp37
 70
     1
102
RTVSPost2010Prop38
140
0.0
102
RTVSPost2010PropOp38
 70
     1
102
RTVSPost2010Prop39
140
1.0
102
RTVSPost2010PropOp39
 70
     1
102
RTVSPost2010Prop40
 90
        0
102
RTVSPost2010PropOp40
 70
     1
102
RTVSPost2010Prop41ColorIndex
 90
       18
102
RTVSPost2010Prop41ColorRGB
 90
        0
102
RTVSPost2010PropOp41
 70
     1
102
RTVSPost2010Prop42
 90
       50
102
RTVSPost2010PropOp42
 70
     1
102
RTVSPost2010Prop43
 90
        3
102
RTVSPost2010PropOp43
 70
     1
102
RTVSPost2010Prop44ColorIndex
 90
        5
102
RTVSPost2010Prop44ColorRGB
 90
      255
102
RTVSPost2010PropOp44
 70
     1
102
RTVSPost2010Prop45
280
     0
102
RTVSPost2010PropOp45
 70
     1
102
RTVSPost2010Prop46
 90
       50
102
RTVSPost2010PropOp46
 70
     1
102
RTVSPost2010Prop47
 90
       50
102
RTVSPost2010PropOp47
 70
     1
102
RTVSPost2010Prop48
 90
       50
102
RTVSPost2010PropOp48
 70
     1
102
RTVSPost2010Prop49
280
     0
102
RTVSPost2010PropOp49
 70
     1
102
RTVSPost2010Prop50
 90
       50
102
RTVSPost2010PropOp50
 70
     1
102
RTVSPost2010Prop51ColorIndex
 90
      256
102
RTVSPost2010Prop51ColorRGB
 90
-16777216
102
RTVSPost2010PropOp51
 70
     0
102
RTVSPost2010Prop52
140
1.0
102
RTVSPost2010PropOp52
 70
     0
102
RTVSPost2010Prop53
 90
        2
102
RTVSPost2010PropOp53
 70
     1
102
RTVSPost2010Prop54
  1
strokes_ogs.tif
102
RTVSPost2010PropOp54
 70
     1
102
RTVSPost2010Prop55
280
     0
102
RTVSPost2010PropOp55
 70
     1
102
RTVSPost2010Prop56
140
1.0
102
RTVSPost2010PropOp56
 70
     1
102
RTVSPost2010Prop57
140
1.0
102
RTVSPost2010PropOp57
 70
     1
  0
XRECORD
  5
205
102
{ACAD_REACTORS
330
204
102
}
330
204
100
AcDbXrecord
280
     1
102
RTVSPropertyOp0
 70
     1
102
RTVSPropertyOp1
 70
     1
102
RTVSPropertyOp2
 70
     1
102
RTVSPropertyOp3
 70
     1
102
RTVSPropertyOp4
 70
     1
102
RTVSPropertyOp5
 70
     1
102
RTVSPropertyOp6
 70
     1
102
RTVSPropertyOp7
 70
     1
102
RTVSPropertyOp8
 70
     1
102
RTVSPropertyOp9
 70
     1
102
RTVSPropertyOp10
 70
     1
102
RTVSPropertyOp11
 70
     1
102
RTVSPropertyOp12
 70
     1
102
RTVSPropertyOp13
 70
     1
102
RTVSPropertyOp14
 70
     1
102
RTVSPropertyOp15
 70
     1
102
RTVSPropertyOp16
 70
     1
102
RTVSPropertyOp17
 70
     1
102
RTVSPropertyOp18
 70
     1
102
RTVSPropertyOp19
 70
     1
102
RTVSPropertyOp20
 70
     1
102
RTVSPropertyOp21
 70
     1
102
RTVSPropertyOp22
 70
     1
102
RTVSPropertyOp23
 70
     1
102
RTVSPropertyOp24
 70
     1
102
RTVSPropertyOp25
 70
     1
102
RTVSPropertyOp26
 70
     1
102
RTVSPropertyOp27
 70
     1
102
RTVSPropertyOp28
 70
     1
102
RTVSPropertyOp29
 70
     1
102
RTVSPropertyOp30
 70
     1
102
RTVSPropertyOp31
 70
     1
102
RTVSPropertyOp32
 70
     1
102
RTVSPropertyOp33
 70
     1
102
RTVSPropertyOp34
 70
     1
102
RTVSPropertyOp35
 70
     1
102
RTVSPropertyOp36
 70
     1
102
RTVSPropertyOp37
 70
     1
102
RTVSPropertyOp38
 70
     1
102
RTVSPropertyOp39
 70
     1
102
RTVSPropertyOp40
 70
     1
102
RTVSPropertyOp41
 70
     1
102
RTVSPropertyOp42
 70
     1
102
RTVSPropertyOp43
 70
     1
102
RTVSPropertyOp44
 70
     1
102
RTVSPropertyOp45
 70
     1
102
RTVSPropertyOp46
 70
     1
102
RTVSPropertyOp47
 70
     1
102
RTVSPropertyOp48
 70
     1
102
RTVSPropertyOp49
 70
     1
102
RTVSPropertyOp50
 70
     1
102
RTVSPropertyOp51
 70
     0
102
RTVSPropertyOp52
 70
     0
102
RTVSPropertyOp53
 70
     1
102
RTVSPropertyOp54
 70
     1
102
RTVSPropertyOp55
 70
     1
102
RTVSPropertyOp56
 70
     1
102
RTVSPropertyOp57
 70
     1
102
RTVSPost2010Prop28
280
     0
102
RTVSPost2010PropOp28
 70
     1
102
RTVSPost2010Prop29
280
     1
102
RTVSPost2010PropOp29
 70
     1
102
RTVSPost2010Prop30
280
     1
102
RTVSPost2010PropOp30
 70
     1
102
RTVSPost2010Prop31
280
     0
102
RTVSPost2010PropOp31
 70
     1
102
RTVSPost2010Prop32
280
     0
102
RTVSPost2010PropOp32
 70
     1
102
RTVSPost2010Prop33
280
     0
102
RTVSPost2010PropOp33
 70
     1
102
RTVSPost2010Prop34
280
     0
102
RTVSPost2010PropOp34
 70
     1
102
RTVSPost2010Prop35
280
     0
102
RTVSPost2010PropOp35
 70
     1
102
RTVSPost2010Prop36
280
     0
102
RTVSPost2010PropOp36
 70
     1
102
RTVSPost2010Prop37
 90
       50
102
RTVSPost2010PropOp37
 70
     1
102
RTVSPost2010Prop38
140
0.0
102
RTVSPost2010PropOp38
 70
     1
102
RTVSPost2010Prop39
140
1.0
102
RTVSPost2010PropOp39
 70
     1
102
RTVSPost2010Prop40
 90
        0
102
RTVSPost2010PropOp40
 70
     1
102
RTVSPost2010Prop41ColorIndex
 90
       18
102
RTVSPost2010Prop41ColorRGB
 90
        0
102
RTVSPost2010PropOp41
 70
     1
102
RTVSPost2010Prop42
 90
       50
102
RTVSPost2010PropOp42
 70
     1
102
RTVSPost2010Prop43
 90
        3
102
RTVSPost2010PropOp43
 70
     1
102
RTVSPost2010Prop44ColorIndex
 90
        5
102
RTVSPost2010Prop44ColorRGB
 90
      255
102
RTVSPost2010PropOp44
 70
     1
102
RTVSPost2010Prop45
280
     0
102
RTVSPost2010PropOp45
 70
     1
102
RTVSPost2010Prop46
 90
       50
102
RTVSPost2010PropOp46
 70
     1
102
RTVSPost2010Prop47
 90
       50
102
RTVSPost2010PropOp47
 70
     1
102
RTVSPost2010Prop48
 90
       50
102
RTVSPost2010PropOp48
 70
     1
102
RTVSPost2010Prop49
280
     0
102
RTVSPost2010PropOp49
 70
     1
102
RTVSPost2010Prop50
 90
       50
102
RTVSPost2010PropOp50
 70
     1
102
RTVSPost2010Prop51ColorIndex
 90
      256
102
RTVSPost2010Prop51ColorRGB
 90
-16777216
102
RTVSPost2010PropOp51
 70
     0
102
RTVSPost2010Prop52
140
1.0
102
RTVSPost2010PropOp52
 70
     0
102
RTVSPost2010Prop53
 90
        2
102
RTVSPost2010PropOp53
 70
     1
102
RTVSPost2010Prop54
  1
strokes_ogs.tif
102
RTVSPost2010PropOp54
 70
     1
102
RTVSPost2010Prop55
280
     0
102
RTVSPost2010PropOp55
 70
     1
102
RTVSPost2010Prop56
140
1.0
102
RTVSPost2010PropOp56
 70
     1
102
RTVSPost2010Prop57
140
1.0
102
RTVSPost2010PropOp57
 70
     1
  0
XRECORD
  5
219
102
{ACAD_REACTORS
330
218
102
}
330
218
100
AcDbXrecord
280
     1
102
RTVSPropertyOp0
 70
     1
102
RTVSPropertyOp1
 70
     1
102
RTVSPropertyOp2
 70
     1
102
RTVSPropertyOp3
 70
     1
102
RTVSPropertyOp4
 70
     1
102
RTVSPropertyOp5
 70
     1
102
RTVSPropertyOp6
 70
     1
102
RTVSPropertyOp7
 70
     1
102
RTVSPropertyOp8
 70
     1
102
RTVSPropertyOp9
 70
     1
102
RTVSPropertyOp10
 70
     1
102
RTVSPropertyOp11
 70
     1
102
RTVSPropertyOp12
 70
     1
102
RTVSPropertyOp13
 70
     1
102
RTVSPropertyOp14
 70
     1
102
RTVSPropertyOp15
 70
     1
102
RTVSPropertyOp16
 70
     1
102
RTVSPropertyOp17
 70
     1
102
RTVSPropertyOp18
 70
     1
102
RTVSPropertyOp19
 70
     1
102
RTVSPropertyOp20
 70
     1
102
RTVSPropertyOp21
 70
     1
102
RTVSPropertyOp22
 70
     1
102
RTVSPropertyOp23
 70
     1
102
RTVSPropertyOp24
 70
     1
102
RTVSPropertyOp25
 70
     1
102
RTVSPropertyOp26
 70
     1
102
RTVSPropertyOp27
 70
     1
102
RTVSPropertyOp28
 70
     1
102
RTVSPropertyOp29
 70
     1
102
RTVSPropertyOp30
 70
     1
102
RTVSPropertyOp31
 70
     1
102
RTVSPropertyOp32
 70
     1
102
RTVSPropertyOp33
 70
     1
102
RTVSPropertyOp34
 70
     1
102
RTVSPropertyOp35
 70
     1
102
RTVSPropertyOp36
 70
     1
102
RTVSPropertyOp37
 70
     1
102
RTVSPropertyOp38
 70
     1
102
RTVSPropertyOp39
 70
     1
102
RTVSPropertyOp40
 70
     1
102
RTVSPropertyOp41
 70
     1
102
RTVSPropertyOp42
 70
     1
102
RTVSPropertyOp43
 70
     1
102
RTVSPropertyOp44
 70
     1
102
RTVSPropertyOp45
 70
     1
102
RTVSPropertyOp46
 70
     1
102
RTVSPropertyOp47
 70
     1
102
RTVSPropertyOp48
 70
     1
102
RTVSPropertyOp49
 70
     1
102
RTVSPropertyOp50
 70
     1
102
RTVSPropertyOp51
 70
     0
102
RTVSPropertyOp52
 70
     0
102
RTVSPropertyOp53
 70
     1
102
RTVSPropertyOp54
 70
     1
102
RTVSPropertyOp55
 70
     1
102
RTVSPropertyOp56
 70
     1
102
RTVSPropertyOp57
 70
     1
102
RTVSPost2010Prop28
280
     0
102
RTVSPost2010PropOp28
 70
     1
102
RTVSPost2010Prop29
280
     1
102
RTVSPost2010PropOp29
 70
     1
102
RTVSPost2010Prop30
280
     1
102
RTVSPost2010PropOp30
 70
     1
102
RTVSPost2010Prop31
280
     0
102
RTVSPost2010PropOp31
 70
     1
102
RTVSPost2010Prop32
280
     0
102
RTVSPost2010PropOp32
 70
     1
102
RTVSPost2010Prop33
280
     0
102
RTVSPost2010PropOp33
 70
     1
102
RTVSPost2010Prop34
280
     0
102
RTVSPost2010PropOp34
 70
     1
102
RTVSPost2010Prop35
280
     0
102
RTVSPost2010PropOp35
 70
     1
102
RTVSPost2010Prop36
280
     0
102
RTVSPost2010PropOp36
 70
     1
102
RTVSPost2010Prop37
 90
       50
102
RTVSPost2010PropOp37
 70
     1
102
RTVSPost2010Prop38
140
0.0
102
RTVSPost2010PropOp38
 70
     1
102
RTVSPost2010Prop39
140
1.0
102
RTVSPost2010PropOp39
 70
     1
102
RTVSPost2010Prop40
 90
        0
102
RTVSPost2010PropOp40
 70
     1
102
RTVSPost2010Prop41ColorIndex
 90
       18
102
RTVSPost2010Prop41ColorRGB
 90
        0
102
RTVSPost2010PropOp41
 70
     1
102
RTVSPost2010Prop42
 90
       50
102
RTVSPost2010PropOp42
 70
     1
102
RTVSPost2010Prop43
 90
        3
102
RTVSPost2010PropOp43
 70
     1
102
RTVSPost2010Prop44ColorIndex
 90
        5
102
RTVSPost2010Prop44ColorRGB
 90
      255
102
RTVSPost2010PropOp44
 70
     1
102
RTVSPost2010Prop45
280
     0
102
RTVSPost2010PropOp45
 70
     1
102
RTVSPost2010Prop46
 90
       50
102
RTVSPost2010PropOp46
 70
     1
102
RTVSPost2010Prop47
 90
       50
102
RTVSPost2010PropOp47
 70
     1
102
RTVSPost2010Prop48
 90
       50
102
RTVSPost2010PropOp48
 70
     1
102
RTVSPost2010Prop49
280
     0
102
RTVSPost2010PropOp49
 70
     1
102
RTVSPost2010Prop50
 90
       50
102
RTVSPost2010PropOp50
 70
     1
102
RTVSPost2010Prop51ColorIndex
 90
      256
102
RTVSPost2010Prop51ColorRGB
 90
-16777216
102
RTVSPost2010PropOp51
 70
     0
102
RTVSPost2010Prop52
140
1.0
102
RTVSPost2010PropOp52
 70
     0
102
RTVSPost2010Prop53
 90
        2
102
RTVSPost2010PropOp53
 70
     1
102
RTVSPost2010Prop54
  1
strokes_ogs.tif
102
RTVSPost2010PropOp54
 70
     1
102
RTVSPost2010Prop55
280
     0
102
RTVSPost2010PropOp55
 70
     1
102
RTVSPost2010Prop56
140
1.0
102
RTVSPost2010PropOp56
 70
     1
102
RTVSPost2010Prop57
140
1.0
102
RTVSPost2010PropOp57
 70
     1
  0
XRECORD
  5
20F
102
{ACAD_REACTORS
330
20E
102
}
330
20E
100
AcDbXrecord
280
     1
102
RTVSPropertyOp0
 70
     1
102
RTVSPropertyOp1
 70
     1
102
RTVSPropertyOp2
 70
     1
102
RTVSPropertyOp3
 70
     1
102
RTVSPropertyOp4
 70
     1
102
RTVSPropertyOp5
 70
     1
102
RTVSPropertyOp6
 70
     1
102
RTVSPropertyOp7
 70
     1
102
RTVSPropertyOp8
 70
     1
102
RTVSPropertyOp9
 70
     1
102
RTVSPropertyOp10
 70
     1
102
RTVSPropertyOp11
 70
     1
102
RTVSPropertyOp12
 70
     1
102
RTVSPropertyOp13
 70
     1
102
RTVSPropertyOp14
 70
     1
102
RTVSPropertyOp15
 70
     1
102
RTVSPropertyOp16
 70
     1
102
RTVSPropertyOp17
 70
     1
102
RTVSPropertyOp18
 70
     1
102
RTVSPropertyOp19
 70
     1
102
RTVSPropertyOp20
 70
     1
102
RTVSPropertyOp21
 70
     1
102
RTVSPropertyOp22
 70
     1
102
RTVSPropertyOp23
 70
     1
102
RTVSPropertyOp24
 70
     1
102
RTVSPropertyOp25
 70
     1
102
RTVSPropertyOp26
 70
     1
102
RTVSPropertyOp27
 70
     1
102
RTVSPropertyOp28
 70
     1
102
RTVSPropertyOp29
 70
     1
102
RTVSPropertyOp30
 70
     1
102
RTVSPropertyOp31
 70
     1
102
RTVSPropertyOp32
 70
     1
102
RTVSPropertyOp33
 70
     1
102
RTVSPropertyOp34
 70
     1
102
RTVSPropertyOp35
 70
     1
102
RTVSPropertyOp36
 70
     1
102
RTVSPropertyOp37
 70
     1
102
RTVSPropertyOp38
 70
     1
102
RTVSPropertyOp39
 70
     1
102
RTVSPropertyOp40
 70
     1
102
RTVSPropertyOp41
 70
     1
102
RTVSPropertyOp42
 70
     1
102
RTVSPropertyOp43
 70
     1
102
RTVSPropertyOp44
 70
     1
102
RTVSPropertyOp45
 70
     1
102
RTVSPropertyOp46
 70
     1
102
RTVSPropertyOp47
 70
     1
102
RTVSPropertyOp48
 70
     1
102
RTVSPropertyOp49
 70
     1
102
RTVSPropertyOp50
 70
     1
102
RTVSPropertyOp51
 70
     0
102
RTVSPropertyOp52
 70
     0
102
RTVSPropertyOp53
 70
     1
102
RTVSPropertyOp54
 70
     1
102
RTVSPropertyOp55
 70
     1
102
RTVSPropertyOp56
 70
     1
102
RTVSPropertyOp57
 70
     1
102
RTVSPost2010Prop28
280
     0
102
RTVSPost2010PropOp28
 70
     1
102
RTVSPost2010Prop29
280
     1
102
RTVSPost2010PropOp29
 70
     1
102
RTVSPost2010Prop30
280
     1
102
RTVSPost2010PropOp30
 70
     1
102
RTVSPost2010Prop31
280
     0
102
RTVSPost2010PropOp31
 70
     1
102
RTVSPost2010Prop32
280
     0
102
RTVSPost2010PropOp32
 70
     1
102
RTVSPost2010Prop33
280
     0
102
RTVSPost2010PropOp33
 70
     1
102
RTVSPost2010Prop34
280
     0
102
RTVSPost2010PropOp34
 70
     1
102
RTVSPost2010Prop35
280
     0
102
RTVSPost2010PropOp35
 70
     1
102
RTVSPost2010Prop36
280
     0
102
RTVSPost2010PropOp36
 70
     1
102
RTVSPost2010Prop37
 90
       50
102
RTVSPost2010PropOp37
 70
     1
102
RTVSPost2010Prop38
140
0.0
102
RTVSPost2010PropOp38
 70
     1
102
RTVSPost2010Prop39
140
1.0
102
RTVSPost2010PropOp39
 70
     1
102
RTVSPost2010Prop40
 90
        0
102
RTVSPost2010PropOp40
 70
     1
102
RTVSPost2010Prop41ColorIndex
 90
       18
102
RTVSPost2010Prop41ColorRGB
 90
        0
102
RTVSPost2010PropOp41
 70
     1
102
RTVSPost2010Prop42
 90
       50
102
RTVSPost2010PropOp42
 70
     1
102
RTVSPost2010Prop43
 90
        3
102
RTVSPost2010PropOp43
 70
     1
102
RTVSPost2010Prop44ColorIndex
 90
        5
102
RTVSPost2010Prop44ColorRGB
 90
      255
102
RTVSPost2010PropOp44
 70
     1
102
RTVSPost2010Prop45
280
     0
102
RTVSPost2010PropOp45
 70
     1
102
RTVSPost2010Prop46
 90
       50
102
RTVSPost2010PropOp46
 70
     1
102
RTVSPost2010Prop47
 90
       50
102
RTVSPost2010PropOp47
 70
     1
102
RTVSPost2010Prop48
 90
       50
102
RTVSPost2010PropOp48
 70
     1
102
RTVSPost2010Prop49
280
     0
102
RTVSPost2010PropOp49
 70
     1
102
RTVSPost2010Prop50
 90
       50
102
RTVSPost2010PropOp50
 70
     1
102
RTVSPost2010Prop51ColorIndex
 90
      256
102
RTVSPost2010Prop51ColorRGB
 90
-16777216
102
RTVSPost2010PropOp51
 70
     0
102
RTVSPost2010Prop52
140
1.0
102
RTVSPost2010PropOp52
 70
     0
102
RTVSPost2010Prop53
 90
        2
102
RTVSPost2010PropOp53
 70
     1
102
RTVSPost2010Prop54
  1
strokes_ogs.tif
102
RTVSPost2010PropOp54
 70
     1
102
RTVSPost2010Prop55
280
     0
102
RTVSPost2010PropOp55
 70
     1
102
RTVSPost2010Prop56
140
1.0
102
RTVSPost2010PropOp56
 70
     1
102
RTVSPost2010Prop57
140
1.0
102
RTVSPost2010PropOp57
 70
     1
  0
XRECORD
  5
217
102
{ACAD_REACTORS
330
216
102
}
330
216
100
AcDbXrecord
280
     1
102
RTVSPropertyOp0
 70
     1
102
RTVSPropertyOp1
 70
     1
102
RTVSPropertyOp2
 70
     1
102
RTVSPropertyOp3
 70
     1
102
RTVSPropertyOp4
 70
     1
102
RTVSPropertyOp5
 70
     1
102
RTVSPropertyOp6
 70
     1
102
RTVSPropertyOp7
 70
     1
102
RTVSPropertyOp8
 70
     1
102
RTVSPropertyOp9
 70
     1
102
RTVSPropertyOp10
 70
     1
102
RTVSPropertyOp11
 70
     1
102
RTVSPropertyOp12
 70
     1
102
RTVSPropertyOp13
 70
     1
102
RTVSPropertyOp14
 70
     1
102
RTVSPropertyOp15
 70
     1
102
RTVSPropertyOp16
 70
     1
102
RTVSPropertyOp17
 70
     1
102
RTVSPropertyOp18
 70
     1
102
RTVSPropertyOp19
 70
     1
102
RTVSPropertyOp20
 70
     1
102
RTVSPropertyOp21
 70
     1
102
RTVSPropertyOp22
 70
     1
102
RTVSPropertyOp23
 70
     1
102
RTVSPropertyOp24
 70
     1
102
RTVSPropertyOp25
 70
     1
102
RTVSPropertyOp26
 70
     1
102
RTVSPropertyOp27
 70
     1
102
RTVSPropertyOp28
 70
     1
102
RTVSPropertyOp29
 70
     1
102
RTVSPropertyOp30
 70
     1
102
RTVSPropertyOp31
 70
     1
102
RTVSPropertyOp32
 70
     1
102
RTVSPropertyOp33
 70
     1
102
RTVSPropertyOp34
 70
     1
102
RTVSPropertyOp35
 70
     1
102
RTVSPropertyOp36
 70
     1
102
RTVSPropertyOp37
 70
     1
102
RTVSPropertyOp38
 70
     1
102
RTVSPropertyOp39
 70
     1
102
RTVSPropertyOp40
 70
     1
102
RTVSPropertyOp41
 70
     1
102
RTVSPropertyOp42
 70
     1
102
RTVSPropertyOp43
 70
     1
102
RTVSPropertyOp44
 70
     1
102
RTVSPropertyOp45
 70
     1
102
RTVSPropertyOp46
 70
     1
102
RTVSPropertyOp47
 70
     1
102
RTVSPropertyOp48
 70
     1
102
RTVSPropertyOp49
 70
     1
102
RTVSPropertyOp50
 70
     1
102
RTVSPropertyOp51
 70
     0
102
RTVSPropertyOp52
 70
     0
102
RTVSPropertyOp53
 70
     1
102
RTVSPropertyOp54
 70
     1
102
RTVSPropertyOp55
 70
     1
102
RTVSPropertyOp56
 70
     1
102
RTVSPropertyOp57
 70
     1
102
RTVSPost2010Prop28
280
     0
102
RTVSPost2010PropOp28
 70
     1
102
RTVSPost2010Prop29
280
     1
102
RTVSPost2010PropOp29
 70
     1
102
RTVSPost2010Prop30
280
     1
102
RTVSPost2010PropOp30
 70
     1
102
RTVSPost2010Prop31
280
     0
102
RTVSPost2010PropOp31
 70
     1
102
RTVSPost2010Prop32
280
     0
102
RTVSPost2010PropOp32
 70
     1
102
RTVSPost2010Prop33
280
     0
102
RTVSPost2010PropOp33
 70
     1
102
RTVSPost2010Prop34
280
     0
102
RTVSPost2010PropOp34
 70
     1
102
RTVSPost2010Prop35
280
     0
102
RTVSPost2010PropOp35
 70
     1
102
RTVSPost2010Prop36
280
     0
102
RTVSPost2010PropOp36
 70
     1
102
RTVSPost2010Prop37
 90
       50
102
RTVSPost2010PropOp37
 70
     1
102
RTVSPost2010Prop38
140
0.0
102
RTVSPost2010PropOp38
 70
     1
102
RTVSPost2010Prop39
140
1.0
102
RTVSPost2010PropOp39
 70
     1
102
RTVSPost2010Prop40
 90
        0
102
RTVSPost2010PropOp40
 70
     1
102
RTVSPost2010Prop41ColorIndex
 90
       18
102
RTVSPost2010Prop41ColorRGB
 90
        0
102
RTVSPost2010PropOp41
 70
     1
102
RTVSPost2010Prop42
 90
       50
102
RTVSPost2010PropOp42
 70
     1
102
RTVSPost2010Prop43
 90
        3
102
RTVSPost2010PropOp43
 70
     1
102
RTVSPost2010Prop44ColorIndex
 90
        5
102
RTVSPost2010Prop44ColorRGB
 90
      255
102
RTVSPost2010PropOp44
 70
     1
102
RTVSPost2010Prop45
280
     0
102
RTVSPost2010PropOp45
 70
     1
102
RTVSPost2010Prop46
 90
       50
102
RTVSPost2010PropOp46
 70
     1
102
RTVSPost2010Prop47
 90
       50
102
RTVSPost2010PropOp47
 70
     1
102
RTVSPost2010Prop48
 90
       50
102
RTVSPost2010PropOp48
 70
     1
102
RTVSPost2010Prop49
280
     0
102
RTVSPost2010PropOp49
 70
     1
102
RTVSPost2010Prop50
 90
       50
102
RTVSPost2010PropOp50
 70
     1
102
RTVSPost2010Prop51ColorIndex
 90
      256
102
RTVSPost2010Prop51ColorRGB
 90
-16777216
102
RTVSPost2010PropOp51
 70
     0
102
RTVSPost2010Prop52
140
1.0
102
RTVSPost2010PropOp52
 70
     0
102
RTVSPost2010Prop53
 90
        2
102
RTVSPost2010PropOp53
 70
     1
102
RTVSPost2010Prop54
  1
strokes_ogs.tif
102
RTVSPost2010PropOp54
 70
     1
102
RTVSPost2010Prop55
280
     0
102
RTVSPost2010PropOp55
 70
     1
102
RTVSPost2010Prop56
140
1.0
102
RTVSPost2010PropOp56
 70
     1
102
RTVSPost2010Prop57
140
1.0
102
RTVSPost2010PropOp57
 70
     1
  0
ENDSEC
  0
EOF
