  0
SECTION
  2
HEADER
  9
$ACADVER
  1
AC1018
  9
$ACADMAINTVER
 70
     0
  9
$DWGCODEPAGE
  3
ANSI_1252
  9
$INSBASE
 10
0.0
 20
0.0
 30
0.0
  9
$EXTMIN
 10
-0.0000000000000059
 20
271.597937306856
 30
0.0
  9
$EXTMAX
 10
167.8567565299966
 20
410.4596387263401
 30
0.0
  9
$LIMMIN
 10
0.0
 20
0.0
  9
$LIMMAX
 10
12.0
 20
9.0
  9
$ORTHOMODE
 70
     0
  9
$REGENMODE
 70
     1
  9
$FILLMODE
 70
     1
  9
$QTEXTMODE
 70
     0
  9
$MIRRTEXT
 70
     1
  9
$LTSCALE
 40
1.0
  9
$ATTMODE
 70
     1
  9
$TEXTSIZE
 40
0.2
  9
$TRACEWID
 40
0.05
  9
$TEXTSTYLE
  7
Standard
  9
$CLAYER
  8
0
  9
$CELTYPE
  6
ByLayer
  9
$CECOLOR
 62
   256
  9
$CELTSCALE
 40
1.0
  9
$DISPSILH
 70
     0
  9
$DIMSCALE
 40
1.0
  9
$DIMASZ
 40
0.18
  9
$DIMEXO
 40
0.0625
  9
$DIMDLI
 40
0.38
  9
$DIMRND
 40
0.0
  9
$DIMDLE
 40
0.0
  9
$DIMEXE
 40
0.18
  9
$DIMTP
 40
0.0
  9
$DIMTM
 40
0.0
  9
$DIMTXT
 40
0.18
  9
$DIMCEN
 40
0.09
  9
$DIMTSZ
 40
0.0
  9
$DIMTOL
 70
     0
  9
$DIMLIM
 70
     0
  9
$DIMTIH
 70
     1
  9
$DIMTOH
 70
     1
  9
$DIMSE1
 70
     0
  9
$DIMSE2
 70
     0
  9
$DIMTAD
 70
     0
  9
$DIMZIN
 70
     0
  9
$DIMBLK
  1

  9
$DIMASO
 70
     1
  9
$DIMSHO
 70
     1
  9
$DIMPOST
  1

  9
$DIMAPOST
  1

  9
$DIMALT
 70
     0
  9
$DIMALTD
 70
     2
  9
$DIMALTF
 40
25.4
  9
$DIMLFAC
 40
1.0
  9
$DIMTOFL
 70
     0
  9
$DIMTVP
 40
0.0
  9
$DIMTIX
 70
     0
  9
$DIMSOXD
 70
     0
  9
$DIMSAH
 70
     0
  9
$DIMBLK1
  1

  9
$DIMBLK2
  1

  9
$DIMSTYLE
  2
Standard
  9
$DIMCLRD
 70
     0
  9
$DIMCLRE
 70
     0
  9
$DIMCLRT
 70
     0
  9
$DIMTFAC
 40
1.0
  9
$DIMGAP
 40
0.09
  9
$DIMJUST
 70
     0
  9
$DIMSD1
 70
     0
  9
$DIMSD2
 70
     0
  9
$DIMTOLJ
 70
     1
  9
$DIMTZIN
 70
     0
  9
$DIMALTZ
 70
     0
  9
$DIMALTTZ
 70
     0
  9
$DIMUPT
 70
     0
  9
$DIMDEC
 70
     4
  9
$DIMTDEC
 70
     4
  9
$DIMALTU
 70
     2
  9
$DIMALTTD
 70
     2
  9
$DIMTXSTY
  7
Standard
  9
$DIMAUNIT
 70
     0
  9
$DIMADEC
 70
     0
  9
$DIMALTRND
 40
0.0
  9
$DIMAZIN
 70
     0
  9
$DIMDSEP
 70
    46
  9
$DIMATFIT
 70
     3
  9
$DIMFRAC
 70
     0
  9
$DIMLDRBLK
  1

  9
$DIMLUNIT
 70
     2
  9
$DIMLWD
 70
    -2
  9
$DIMLWE
 70
    -2
  9
$DIMTMOVE
 70
     2
  9
$LUNITS
 70
     2
  9
$LUPREC
 70
     3
  9
$SKETCHINC
 40
0.1
  9
$FILLETRAD
 40
0.5
  9
$AUNITS
 70
     0
  9
$AUPREC
 70
     0
  9
$MENU
  1
.
  9
$ELEVATION
 40
0.0
  9
$PELEVATION
 40
0.0
  9
$THICKNESS
 40
0.0
  9
$LIMCHECK
 70
     0
  9
$CHAMFERA
 40
0.5
  9
$CHAMFERB
 40
0.5
  9
$CHAMFERC
 40
1.0
  9
$CHAMFERD
 40
0.0
  9
$SKPOLY
 70
     0
  9
$TDCREATE
 40
2457604.993392118
  9
$TDUCREATE
 40
2457604.660058785
  9
$TDUPDATE
 40
2457604.993392118
  9
$TDUUPDATE
 40
2457604.660058785
  9
$TDINDWG
 40
0.0000000116
  9
$TDUSRTIMER
 40
0.0000000116
  9
$USRTIMER
 70
     1
  9
$ANGBASE
 50
0.0
  9
$ANGDIR
 70
     0
  9
$PDMODE
 70
     0
  9
$PDSIZE
 40
0.0
  9
$PLINEWID
 40
0.0
  9
$SPLFRAME
 70
     0
  9
$SPLINETYPE
 70
     6
  9
$SPLINESEGS
 70
     8
  9
$HANDSEED
  5
26A
  9
$SURFTAB1
 70
     6
  9
$SURFTAB2
 70
     6
  9
$SURFTYPE
 70
     6
  9
$SURFU
 70
     6
  9
$SURFV
 70
     6
  9
$UCSBASE
  2

  9
$UCSNAME
  2

  9
$UCSORG
 10
0.0
 20
0.0
 30
0.0
  9
$UCSXDIR
 10
1.0
 20
0.0
 30
0.0
  9
$UCSYDIR
 10
0.0
 20
1.0
 30
0.0
  9
$UCSORTHOREF
  2

  9
$UCSORTHOVIEW
 70
     0
  9
$UCSORGTOP
 10
0.0
 20
0.0
 30
0.0
  9
$UCSORGBOTTOM
 10
0.0
 20
0.0
 30
0.0
  9
$UCSORGLEFT
 10
0.0
 20
0.0
 30
0.0
  9
$UCSORGRIGHT
 10
0.0
 20
0.0
 30
0.0
  9
$UCSORGFRONT
 10
0.0
 20
0.0
 30
0.0
  9
$UCSORGBACK
 10
0.0
 20
0.0
 30
0.0
  9
$PUCSBASE
  2

  9
$PUCSNAME
  2

  9
$PUCSORG
 10
0.0
 20
0.0
 30
0.0
  9
$PUCSXDIR
 10
1.0
 20
0.0
 30
0.0
  9
$PUCSYDIR
 10
0.0
 20
1.0
 30
0.0
  9
$PUCSORTHOREF
  2

  9
$PUCSORTHOVIEW
 70
     0
  9
$PUCSORGTOP
 10
0.0
 20
0.0
 30
0.0
  9
$PUCSORGBOTTOM
 10
0.0
 20
0.0
 30
0.0
  9
$PUCSORGLEFT
 10
0.0
 20
0.0
 30
0.0
  9
$PUCSORGRIGHT
 10
0.0
 20
0.0
 30
0.0
  9
$PUCSORGFRONT
 10
0.0
 20
0.0
 30
0.0
  9
$PUCSORGBACK
 10
0.0
 20
0.0
 30
0.0
  9
$USERI1
 70
     0
  9
$USERI2
 70
     0
  9
$USERI3
 70
     0
  9
$USERI4
 70
     0
  9
$USERI5
 70
     0
  9
$USERR1
 40
0.0
  9
$USERR2
 40
0.0
  9
$USERR3
 40
0.0
  9
$USERR4
 40
0.0
  9
$USERR5
 40
0.0
  9
$WORLDVIEW
 70
     1
  9
$SHADEDGE
 70
     3
  9
$SHADEDIF
 70
    70
  9
$TILEMODE
 70
     1
  9
$MAXACTVP
 70
    64
  9
$PINSBASE
 10
0.0
 20
0.0
 30
0.0
  9
$PLIMCHECK
 70
     0
  9
$PEXTMIN
 10
1.000000000000000E+20
 20
1.000000000000000E+20
 30
1.000000000000000E+20
  9
$PEXTMAX
 10
-1.000000000000000E+20
 20
-1.000000000000000E+20
 30
-1.000000000000000E+20
  9
$PLIMMIN
 10
0.0
 20
0.0
  9
$PLIMMAX
 10
12.0
 20
9.0
  9
$UNITMODE
 70
     0
  9
$VISRETAIN
 70
     1
  9
$PLINEGEN
 70
     0
  9
$PSLTSCALE
 70
     1
  9
$TREEDEPTH
 70
  3020
  9
$CMLSTYLE
  2
Standard
  9
$CMLJUST
 70
     0
  9
$CMLSCALE
 40
1.0
  9
$PROXYGRAPHICS
 70
     1
  9
$MEASUREMENT
 70
     0
  9
$CELWEIGHT
370
    -1
  9
$ENDCAPS
280
     0
  9
$JOINSTYLE
280
     0
  9
$LWDISPLAY
290
     0
  9
$INSUNITS
 70
     4
  9
$HYPERLINKBASE
  1

  9
$STYLESHEET
  1

  9
$XEDIT
290
     1
  9
$CEPSNTYPE
380
     0
  9
$PSTYLEMODE
290
     1
  9
$FINGERPRINTGUID
  2
{6E4B928F-B850-454A-A570-26D16900DFBE}
  9
$VERSIONGUID
  2
{FAEB1C32-E019-11D5-929B-00C0DF256EC4}
  9
$EXTNAMES
290
     1
  9
$PSVPSCALE
 40
0.0
  9
$OLESTARTUP
290
     0
  9
$SORTENTS
280
   127
  9
$INDEXCTL
280
     0
  9
$HIDETEXT
280
     1
  9
$XCLIPFRAME
290
     0
  9
$HALOGAP
280
     0
  9
$OBSCOLOR
 70
   257
  9
$OBSLTYPE
280
     0
  9
$INTERSECTIONDISPLAY
280
     0
  9
$INTERSECTIONCOLOR
 70
   257
  9
$DIMASSOC
280
     2
  9
$PROJECTNAME
  1

  0
ENDSEC
  0
SECTION
  2
CLASSES
  0
CLASS
  1
ACDBDICTIONARYWDFLT
  2
AcDbDictionaryWithDefault
  3
ObjectDBX Classes
 90
        0
 91
        4
280
     0
281
     0
  0
CLASS
  1
VISUALSTYLE
  2
AcDbVisualStyle
  3
ObjectDBX Classes
 90
     4095
 91
        4
280
     0
281
     0
  0
CLASS
  1
MATERIAL
  2
AcDbMaterial
  3
ObjectDBX Classes
 90
     1153
 91
        4
280
     0
281
     0
  0
CLASS
  1
SCALE
  2
AcDbScale
  3
ObjectDBX Classes
 90
     1153
 91
        4
280
     0
281
     0
  0
CLASS
  1
SUN
  2
AcDbSun
  3
SCENEOE
 90
     1153
 91
        4
280
     0
281
     0
  0
CLASS
  1
DICTIONARYVAR
  2
AcDbDictionaryVar
  3
ObjectDBX Classes
 90
        0
 91
        4
280
     0
281
     0
  0
ENDSEC
  0
SECTION
  2
TABLES
  0
TABLE
  2
VPORT
  5
8
330
0
100
AcDbSymbolTable
 70
     1
  0
VPORT
  5
29
330
8
100
AcDbSymbolTableRecord
100
AcDbViewportTableRecord
  2
*Active
 70
     0
 10
0.0
 20
0.0
 11
1.0
 21
1.0
 12
83.92837826499829
 22
341.028788016598
 13
0.0
 23
0.0
 14
0.5
 24
0.5
 15
0.5
 25
0.5
 16
0.0
 26
0.0
 36
1.0
 17
0.0
 27
0.0
 37
0.0
 40
141.6389354478737
 41
1.208805270381371
 42
50.0
 43
0.0
 44
0.0
 50
0.0
 51
0.0
 71
     0
 72
   100
 73
     1
 74
     3
 75
     0
 76
     0
 77
     0
 78
     0
281
     0
 65
     1
110
0.0
120
0.0
130
0.0
111
1.0
121
0.0
131
0.0
112
0.0
122
1.0
132
0.0
 79
     0
146
0.0
  0
ENDTAB
  0
TABLE
  2
LTYPE
  5
5
330
0
100
AcDbSymbolTable
 70
     1
  0
LTYPE
  5
14
330
5
100
AcDbSymbolTableRecord
100
AcDbLinetypeTableRecord
  2
ByBlock
 70
     0
  3

 72
    65
 73
     0
 40
0.0
  0
LTYPE
  5
15
330
5
100
AcDbSymbolTableRecord
100
AcDbLinetypeTableRecord
  2
ByLayer
 70
     0
  3

 72
    65
 73
     0
 40
0.0
  0
LTYPE
  5
16
330
5
100
AcDbSymbolTableRecord
100
AcDbLinetypeTableRecord
  2
Continuous
 70
     0
  3
Solid line
 72
    65
 73
     0
 40
0.0
  0
ENDTAB
  0
TABLE
  2
LAYER
  5
2
330
0
100
AcDbSymbolTable
 70
     2
  0
LAYER
  5
10
330
2
100
AcDbSymbolTableRecord
100
AcDbLayerTableRecord
  2
0
 70
     0
 62
     7
  6
Continuous
370
    -3
390
F
  0
LAYER
  5
62
330
2
100
AcDbSymbolTableRecord
100
AcDbLayerTableRecord
  2
Make2D$___$___
 70
     0
 62
    18
420
        0
  6
Continuous
370
    -3
390
F
  0
ENDTAB
  0
TABLE
  2
STYLE
  5
3
330
0
100
AcDbSymbolTable
 70
     1
  0
STYLE
  5
11
330
3
100
AcDbSymbolTableRecord
100
AcDbTextStyleTableRecord
  2
Standard
 70
     0
 40
0.0
 41
1.0
 50
0.0
 71
     0
 42
0.2
  3
txt
  4

  0
ENDTAB
  0
TABLE
  2
VIEW
  5
6
330
0
100
AcDbSymbolTable
 70
     0
  0
ENDTAB
  0
TABLE
  2
UCS
  5
7
330
0
100
AcDbSymbolTable
 70
     0
  0
ENDTAB
  0
TABLE
  2
APPID
  5
9
330
0
100
AcDbSymbolTable
 70
     1
  0
APPID
  5
12
330
9
100
AcDbSymbolTableRecord
100
AcDbRegAppTableRecord
  2
ACAD
 70
     0
  0
ENDTAB
  0
TABLE
  2
DIMSTYLE
  5
A
330
0
100
AcDbSymbolTable
 70
     1
100
AcDbDimStyleTable
  0
DIMSTYLE
105
27
330
A
100
AcDbSymbolTableRecord
100
AcDbDimStyleTableRecord
  2
Standard
 70
     0
178
     0
340
11
  0
ENDTAB
  0
TABLE
  2
BLOCK_RECORD
  5
1
330
0
100
AcDbSymbolTable
 70
     1
  0
BLOCK_RECORD
  5
1F
330
1
100
AcDbSymbolTableRecord
100
AcDbBlockTableRecord
  2
*Model_Space
340
22
  0
BLOCK_RECORD
  5
1B
330
1
100
AcDbSymbolTableRecord
100
AcDbBlockTableRecord
  2
*Paper_Space
340
1E
  0
BLOCK_RECORD
  5
23
330
1
100
AcDbSymbolTableRecord
100
AcDbBlockTableRecord
  2
*Paper_Space0
340
26
  0
ENDTAB
  0
ENDSEC
  0
SECTION
  2
BLOCKS
  0
BLOCK
  5
20
330
1F
100
AcDbEntity
  8
0
100
AcDbBlockBegin
  2
*Model_Space
 70
     0
 10
0.0
 20
0.0
 30
0.0
  3
*Model_Space
  1
*Model_Space
  0
ENDBLK
  5
21
330
1F
100
AcDbEntity
  8
0
100
AcDbBlockEnd
  0
BLOCK
  5
1C
330
1B
100
AcDbEntity
 67
     1
  8
0
100
AcDbBlockBegin
  2
*Paper_Space
 70
     0
 10
0.0
 20
0.0
 30
0.0
  3
*Paper_Space
  1
*Paper_Space
  0
ENDBLK
  5
1D
330
1B
100
AcDbEntity
 67
     1
  8
0
100
AcDbBlockEnd
  0
BLOCK
  5
24
330
23
100
AcDbEntity
  8
0
100
AcDbBlockBegin
  2
*Paper_Space0
 70
     0
 10
0.0
 20
0.0
 30
0.0
  3
*Paper_Space0
  1
*Paper_Space0
  0
ENDBLK
  5
25
330
23
100
AcDbEntity
  8
0
100
AcDbBlockEnd
  0
ENDSEC
  0
SECTION
  2
ENTITIES
  0
POLYLINE
  5
63
330
1F
100
AcDbEntity
  8
Make2D$___$___
100
AcDb2dPolyline
 66
     1
 10
0.0
 20
0.0
 30
0.0
  0
VERTEX
  5
64
330
63
100
AcDbEntity
  8
Make2D$___$___
100
AcDbVertex
100
AcDb2dVertex
 10
73.81826388019616
 20
388.9312723594848
 30
0.0
 42
0.0094364945568961
  0
VERTEX
  5
65
330
63
100
AcDbEntity
  8
Make2D$___$___
100
AcDbVertex
100
AcDb2dVertex
 10
59.64071661772616
 20
394.7680643386092
 30
0.0
 42
-0.0030748685527761
  0
VERTEX
  5
66
330
63
100
AcDbEntity
  8
Make2D$___$___
100
AcDbVertex
100
AcDb2dVertex
 10
45.38779029081257
 20
400.4249123724403
 30
0.0
  0
SEQEND
  5
67
330
63
100
AcDbEntity
  8
Make2D$___$___
  0
LINE
  5
68
330
1F
100
AcDbEntity
  8
Make2D$___$___
100
AcDbLine
 10
66.85675652999544
 20
273.0979373068564
 30
0.0
 11
66.85675652999544
 21
273.165807593781
 31
0.0
  0
LINE
  5
69
330
1F
100
AcDbEntity
  8
Make2D$___$___
100
AcDbLine
 10
66.28241250395007
 20
272.523593280811
 30
0.0
 11
66.8563921046333
 21
273.0975728814943
 31
0.0
  0
LINE
  5
6A
330
1F
100
AcDbEntity
  8
Make2D$___$___
100
AcDbLine
 10
66.80808862428913
 20
275.9933012682215
 30
0.0
 11
65.64447027993475
 21
275.3865827238097
 31
0.0
  0
LINE
  5
6B
330
1F
100
AcDbEntity
  8
Make2D$___$___
100
AcDbLine
 10
66.80888961571412
 20
274.3917601973503
 30
0.0
 11
65.64558284574088
 21
273.7854480126542
 31
0.0
  0
LINE
  5
6C
330
1F
100
AcDbEntity
  8
Make2D$___$___
100
AcDbLine
 10
66.20352130330113
 20
272.478111463126
 30
0.0
 11
65.6424392334391
 21
272.185543113029
 31
0.0
  0
LINE
  5
6D
330
1F
100
AcDbEntity
  8
Make2D$___$___
100
AcDbLine
 10
47.0568189423306
 20
276.1925567155985
 30
0.0
 11
45.87009225472949
 21
276.8112038898375
 31
0.0
  0
LINE
  5
6E
330
1F
100
AcDbEntity
  8
Make2D$___$___
100
AcDbLine
 10
47.055222358404
 20
274.5928014023453
 30
0.0
 11
45.86986571124771
 21
275.2107685247805
 31
0.0
  0
LINE
  5
6F
330
1F
100
AcDbEntity
  8
Make2D$___$___
100
AcDbLine
 10
47.05306841038617
 20
272.9942544926167
 30
0.0
 11
45.86787185716768
 21
273.6120640514973
 31
0.0
  0
LINE
  5
70
330
1F
100
AcDbEntity
  8
Make2D$___$___
100
AcDbLine
 10
65.66913888048444
 20
281.7979731227523
 30
0.0
 11
66.84392287430992
 21
281.185634761245
 31
0.0
  0
LINE
  5
71
330
1F
100
AcDbEntity
  8
Make2D$___$___
100
AcDbLine
 10
65.65360603669403
 20
280.2060799991852
 30
0.0
 11
66.84393805166665
 21
279.5856639013307
 31
0.0
  0
LINE
  5
72
330
1F
100
AcDbEntity
  8
Make2D$___$___
100
AcDbLine
 10
65.66929584899233
 20
278.5980397480328
 30
0.0
 11
66.8439912235211
 21
277.9857661529496
 31
0.0
  0
LINE
  5
73
330
1F
100
AcDbEntity
  8
Make2D$___$___
100
AcDbLine
 10
65.65973008790186
 20
277.0027974732297
 30
0.0
 11
66.84389211368452
 21
276.3855756916266
 31
0.0
  0
LINE
  5
74
330
1F
100
AcDbEntity
  8
Make2D$___$___
100
AcDbLine
 10
45.90474653706573
 20
280.4038773946041
 30
0.0
 11
47.06990777597292
 21
281.0112013942093
 31
0.0
  0
LINE
  5
75
330
1F
100
AcDbEntity
  8
Make2D$___$___
100
AcDbLine
 10
45.90462654458951
 20
278.8041092364927
 30
0.0
 11
47.06780409366531
 21
279.4103593590915
 31
0.0
  0
LINE
  5
76
330
1F
100
AcDbEntity
  8
Make2D$___$___
100
AcDbLine
 10
45.90472210202142
 20
277.2039245211129
 30
0.0
 11
47.06997093138818
 21
277.8112984999433
 31
0.0
  0
LINE
  5
77
330
1F
100
AcDbEntity
  8
Make2D$___$___
100
AcDbLine
 10
65.65259634216758
 20
275.4051913231286
 30
0.0
 11
66.84326516006034
 21
274.7843726447768
 31
0.0
  0
LINE
  5
78
330
1F
100
AcDbEntity
  8
Make2D$___$___
100
AcDbLine
 10
65.66090292016166
 20
273.8020697775901
 30
0.0
 11
66.84432457780578
 21
273.1852671681843
 31
0.0
  0
LINE
  5
79
330
1F
100
AcDbEntity
  8
Make2D$___$___
100
AcDbLine
 10
65.65669347085438
 20
272.203261570063
 30
0.0
 11
65.84892487119512
 21
272.1030209509493
 31
0.0
  0
LINE
  5
7A
330
1F
100
AcDbEntity
  8
Make2D$___$___
100
AcDbLine
 10
45.90483799784289
 20
275.60367847808
 30
0.0
 11
47.06946489709813
 21
276.2108004599482
 31
0.0
  0
LINE
  5
7B
330
1F
100
AcDbEntity
  8
Make2D$___$___
100
AcDbLine
 10
45.90532227161701
 20
274.0027698595432
 30
0.0
 11
47.07054518524148
 21
274.6102506626829
 31
0.0
  0
LINE
  5
7C
330
1F
100
AcDbEntity
  8
Make2D$___$___
100
AcDbLine
 10
46.35666729922518
 20
272.6394575406487
 30
0.0
 11
47.06375289764971
 21
273.0080579643488
 31
0.0
  0
LINE
  5
7D
330
1F
100
AcDbEntity
  8
Make2D$___$___
100
AcDbLine
 10
66.80876895342408
 20
282.3919916777709
 30
0.0
 11
65.64355038553538
 21
281.7846333723784
 31
0.0
  0
LINE
  5
7E
330
1F
100
AcDbEntity
  8
Make2D$___$___
100
AcDbLine
 10
66.80889327494447
 20
280.7917533004164
 30
0.0
 11
65.64409523296302
 21
280.1846490535386
 31
0.0
  0
LINE
  5
7F
330
1F
100
AcDbEntity
  8
Make2D$___$___
100
AcDbLine
 10
66.80878128395663
 20
279.1919681830277
 30
0.0
 11
65.64377260115667
 21
278.5847343453481
 31
0.0
  0
LINE
  5
80
330
1F
100
AcDbEntity
  8
Make2D$___$___
100
AcDbLine
 10
66.8088472868572
 20
277.5918653949643
 30
0.0
 11
65.64406901214888
 21
276.9847464563201
 31
0.0
  0
LINE
  5
81
330
1F
100
AcDbEntity
  8
Make2D$___$___
100
AcDbLine
 10
47.05823595035842
 20
280.9906115586395
 30
0.0
 11
45.86956168600121
 21
281.6101851395793
 31
0.0
  0
LINE
  5
82
330
1F
100
AcDbEntity
  8
Make2D$___$___
100
AcDbLine
 10
47.05362540453351
 20
279.39298262649
 30
0.0
 11
45.86953472201114
 21
280.010133365056
 31
0.0
  0
LINE
  5
83
330
1F
100
AcDbEntity
  8
Make2D$___$___
100
AcDbLine
 10
47.04438300111306
 20
277.7979590535625
 30
0.0
 11
45.86961652139029
 21
278.4102901778639
 31
0.0
  0
LINE
  5
84
330
1F
100
AcDbEntity
  8
Make2D$___$___
100
AcDbLine
 10
132.1472234113649
 20
293.2979373068564
 30
0.0
 11
101.9666640589944
 21
293.2979373068564
 31
0.0
  0
ARC
  5
85
330
1F
100
AcDbEntity
  8
Make2D$___$___
100
AcDbCircle
 10
132.1493431950669
 20
294.2979933176586
 30
0.0
 40
1.000052128521058
100
AcDbArc
 50
269.8785515825373
 51
358.5115399252968
  0
ARC
  5
86
330
1F
100
AcDbEntity
  8
Make2D$___$___
100
AcDbCircle
 10
86.3461940744339
 20
350.7980158038835
 30
0.0
 40
0.4999215029874038
100
AcDbArc
 50
90.00043690593385
 51
134.1296724052736
  0
LINE
  5
87
330
1F
100
AcDbEntity
  8
Make2D$___$___
100
AcDbLine
 10
132.3583220497539
 20
351.2979373068564
 30
0.0
 11
132.3696780945354
 21
351.2979373068564
 31
0.0
  0
LINE
  5
88
330
1F
100
AcDbEntity
  8
Make2D$___$___
100
AcDbLine
 10
130.3301207958177
 20
351.2979373068565
 30
0.0
 11
130.4211935672942
 21
351.2979373068565
 31
0.0
  0
LINE
  5
89
330
1F
100
AcDbEntity
  8
Make2D$___$___
100
AcDbLine
 10
130.0876302595728
 20
351.2979373068563
 30
0.0
 11
130.184035575697
 21
351.2979373068563
 31
0.0
  0
LINE
  5
8A
330
1F
100
AcDbEntity
  8
Make2D$___$___
100
AcDbLine
 10
129.8312061027906
 20
351.2979373068562
 30
0.0
 11
129.932820142523
 21
351.2979373068564
 31
0.0
  0
LINE
  5
8B
330
1F
100
AcDbEntity
  8
Make2D$___$___
100
AcDbLine
 10
129.5609322620133
 20
351.2979373068565
 30
0.0
 11
129.6676069848888
 21
351.2979373068565
 31
0.0
  0
LINE
  5
8C
330
1F
100
AcDbEntity
  8
Make2D$___$___
100
AcDbLine
 10
129.2769208159325
 20
351.2979373068564
 30
0.0
 11
129.3884841418767
 21
351.2979373068563
 31
0.0
  0
LINE
  5
8D
330
1F
100
AcDbEntity
  8
Make2D$___$___
100
AcDbLine
 10
128.6682748771523
 20
351.2979373068563
 30
0.0
 11
129.1067565299969
 21
351.2979373068563
 31
0.0
  0
LINE
  5
8E
330
1F
100
AcDbEntity
  8
Make2D$___$___
100
AcDbLine
 10
128.3443859549699
 20
351.2979373068563
 30
0.0
 11
128.4702513792573
 21
351.2979373068563
 31
0.0
  0
LINE
  5
8F
330
1F
100
AcDbEntity
  8
Make2D$___$___
100
AcDbLine
 10
128.0067299258751
 20
351.2979373068564
 30
0.0
 11
128.2065168165216
 21
351.2979373068563
 31
0.0
  0
LINE
  5
90
330
1F
100
AcDbEntity
  8
Make2D$___$___
100
AcDbLine
 10
127.6566992228354
 20
351.2979373068562
 30
0.0
 11
127.7893137540757
 21
351.2979373068563
 31
0.0
  0
LINE
  5
91
330
1F
100
AcDbEntity
  8
Make2D$___$___
100
AcDbLine
 10
127.2941929800765
 20
351.2979373068562
 30
0.0
 11
127.4301870487041
 21
351.2979373068563
 31
0.0
  0
LINE
  5
92
330
1F
100
AcDbEntity
  8
Make2D$___$___
100
AcDbLine
 10
126.9195166574053
 20
351.2979373068562
 30
0.0
 11
127.1236000964498
 21
351.2979373068562
 31
0.0
  0
LINE
  5
93
330
1F
100
AcDbEntity
  8
Make2D$___$___
100
AcDbLine
 10
126.5330011552354
 20
351.2979373068563
 30
0.0
 11
126.6747670533995
 21
351.2979373068563
 31
0.0
  0
LINE
  5
94
330
1F
100
AcDbEntity
  8
Make2D$___$___
100
AcDbLine
 10
126.1350018606348
 20
351.2979373068562
 30
0.0
 11
126.2791264596882
 21
351.2979373068563
 31
0.0
  0
LINE
  5
95
330
1F
100
AcDbEntity
  8
Make2D$___$___
100
AcDbLine
 10
125.7258975677391
 20
351.2979373068563
 30
0.0
 11
125.8874178548245
 21
351.2979373068563
 31
0.0
  0
LINE
  5
96
330
1F
100
AcDbEntity
  8
Make2D$___$___
100
AcDbLine
 10
124.8759988975479
 20
351.2979373068563
 30
0.0
 11
125.6048426322452
 21
351.2979373068563
 31
0.0
  0
LINE
  5
97
330
1F
100
AcDbEntity
  8
Make2D$___$___
100
AcDbLine
 10
124.4360678126938
 20
351.2979373068563
 30
0.0
 11
124.6897319812296
 21
351.2979373068563
 31
0.0
  0
LINE
  5
98
330
1F
100
AcDbEntity
  8
Make2D$___$___
100
AcDbLine
 10
123.9867553999654
 20
351.2979373068562
 30
0.0
 11
124.1368684291349
 21
351.2979373068562
 31
0.0
  0
LINE
  5
99
330
1F
100
AcDbEntity
  8
Make2D$___$___
100
AcDbLine
 10
123.5285374349223
 20
351.2979373068563
 30
0.0
 11
123.67891592471
 21
351.2979373068562
 31
0.0
  0
LINE
  5
9A
330
1F
100
AcDbEntity
  8
Make2D$___$___
100
AcDbLine
 10
123.0619044389888
 20
351.2979373068562
 30
0.0
 11
123.3221155106772
 21
351.2979373068562
 31
0.0
  0
LINE
  5
9B
330
1F
100
AcDbEntity
  8
Make2D$___$___
100
AcDbLine
 10
122.1054188486906
 20
351.2979373068563
 30
0.0
 11
122.1970732514414
 21
351.2979373068563
 31
0.0
  0
LINE
  5
9C
330
1F
100
AcDbEntity
  8
Make2D$___$___
100
AcDbLine
 10
121.6166053979089
 20
351.2979373068563
 30
0.0
 11
121.8051445376391
 21
351.2979373068563
 31
0.0
  0
LINE
  5
9D
330
1F
100
AcDbEntity
  8
Make2D$___$___
100
AcDbLine
 10
121.1214516001671
 20
351.2979373068562
 30
0.0
 11
121.4054477273869
 21
351.2979373068563
 31
0.0
  0
LINE
  5
9E
330
1F
100
AcDbEntity
  8
Make2D$___$___
100
AcDbLine
 10
120.584498876552
 20
351.2979373068565
 30
0.0
 11
120.7615083126731
 21
351.2979373068563
 31
0.0
  0
LINE
  5
9F
330
1F
100
AcDbEntity
  8
Make2D$___$___
100
AcDbLine
 10
120.1142783514732
 20
351.2979373068563
 30
0.0
 11
120.2523212002665
 21
351.2979373068563
 31
0.0
  0
LINE
  5
A0
330
1F
100
AcDbEntity
  8
Make2D$___$___
100
AcDbLine
 10
119.6033448878143
 20
351.2979373068565
 30
0.0
 11
119.7378327683761
 21
351.2979373068563
 31
0.0
  0
LINE
  5
A1
330
1F
100
AcDbEntity
  8
Make2D$___$___
100
AcDbLine
 10
119.0882394825427
 20
351.2979373068562
 30
0.0
 11
119.3060213578681
 21
351.2979373068563
 31
0.0
  0
LINE
  5
A2
330
1F
100
AcDbEntity
  8
Make2D$___$___
100
AcDbLine
 10
118.569505452284
 20
351.2979373068562
 30
0.0
 11
118.8691918419824
 21
351.2979373068562
 31
0.0
  0
LINE
  5
A3
330
1F
100
AcDbEntity
  8
Make2D$___$___
100
AcDbLine
 10
118.0476831680989
 20
351.2979373068564
 30
0.0
 11
118.4278247453666
 21
351.2979373068564
 31
0.0
  0
LINE
  5
A4
330
1F
100
AcDbEntity
  8
Make2D$___$___
100
AcDbLine
 10
117.5233084327161
 20
351.2979373068565
 30
0.0
 11
117.6407363941976
 21
351.2979373068564
 31
0.0
  0
LINE
  5
A5
330
1F
100
AcDbEntity
  8
Make2D$___$___
100
AcDbLine
 10
116.9969109255305
 20
351.2979373068563
 30
0.0
 11
117.1091544285326
 21
351.2979373068563
 31
0.0
  0
LINE
  5
A6
330
1F
100
AcDbEntity
  8
Make2D$___$___
100
AcDbLine
 10
116.4690127231511
 20
351.2979373068565
 30
0.0
 11
116.6266271029865
 21
351.2979373068565
 31
0.0
  0
LINE
  5
A7
330
1F
100
AcDbEntity
  8
Make2D$___$___
100
AcDbLine
 10
115.9401269023124
 20
351.2979373068563
 30
0.0
 11
116.1697940588831
 21
351.2979373068563
 31
0.0
  0
LINE
  5
A8
330
1F
100
AcDbEntity
  8
Make2D$___$___
100
AcDbLine
 10
115.4107562309769
 20
351.2979373068563
 30
0.0
 11
115.7112935519647
 21
351.2979373068563
 31
0.0
  0
LINE
  5
A9
330
1F
100
AcDbEntity
  8
Make2D$___$___
100
AcDbLine
 10
114.8813919524421
 20
351.2979373068564
 30
0.0
 11
115.2515879208628
 21
351.2979373068564
 31
0.0
  0
LINE
  5
AA
330
1F
100
AcDbEntity
  8
Make2D$___$___
100
AcDbLine
 10
114.3303683599003
 20
351.2979373068564
 30
0.0
 11
114.7550416925868
 21
351.2979373068564
 31
0.0
  0
LINE
  5
AB
330
1F
100
AcDbEntity
  8
Make2D$___$___
100
AcDbLine
 10
113.8245833087742
 20
351.2979373068563
 30
0.0
 11
114.2219920686529
 21
351.2979373068563
 31
0.0
  0
LINE
  5
AC
330
1F
100
AcDbEntity
  8
Make2D$___$___
100
AcDbLine
 10
113.2980542351251
 20
351.2979373068563
 30
0.0
 11
113.5469463079202
 21
351.2979373068563
 31
0.0
  0
LINE
  5
AD
330
1F
100
AcDbEntity
  8
Make2D$___$___
100
AcDbLine
 10
112.7733604036068
 20
351.2979373068564
 30
0.0
 11
112.9505268142638
 21
351.2979373068564
 31
0.0
  0
LINE
  5
AE
330
1F
100
AcDbEntity
  8
Make2D$___$___
100
AcDbLine
 10
112.2509206624134
 20
351.2979373068563
 30
0.0
 11
112.4927627185498
 21
351.2979373068564
 31
0.0
  0
LINE
  5
AF
330
1F
100
AcDbEntity
  8
Make2D$___$___
100
AcDbLine
 10
111.731137137945
 20
351.2979373068564
 30
0.0
 11
112.0367405166586
 21
351.2979373068565
 31
0.0
  0
LINE
  5
B0
330
1F
100
AcDbEntity
  8
Make2D$___$___
100
AcDbLine
 10
111.131381678318
 20
351.2979373068564
 30
0.0
 11
111.582828957129
 21
351.2979373068564
 31
0.0
  0
LINE
  5
B1
330
1F
100
AcDbEntity
  8
Make2D$___$___
100
AcDbLine
 10
110.6827367446863
 20
351.2979373068563
 30
0.0
 11
111.0603116117246
 21
351.2979373068564
 31
0.0
  0
LINE
  5
B2
330
1F
100
AcDbEntity
  8
Make2D$___$___
100
AcDbLine
 10
110.0302709766813
 20
351.2979373068563
 30
0.0
 11
110.5433600215536
 21
351.2979373068563
 31
0.0
  0
LINE
  5
B3
330
1F
100
AcDbEntity
  8
Make2D$___$___
100
AcDbLine
 10
109.6859965276882
 20
351.2979373068563
 30
0.0
 11
109.7951264103563
 21
351.2979373068564
 31
0.0
  0
LINE
  5
B4
330
1F
100
AcDbEntity
  8
Make2D$___$___
100
AcDbLine
 10
109.1751741812175
 20
351.2979373068563
 30
0.0
 11
109.3567565329934
 21
351.2979373068563
 31
0.0
  0
LINE
  5
B5
330
1F
100
AcDbEntity
  8
Make2D$___$___
100
AcDbLine
 10
108.6598525372742
 20
351.2979373068564
 30
0.0
 11
108.9183866459764
 21
351.2979373068565
 31
0.0
  0
LINE
  5
B6
330
1F
100
AcDbEntity
  8
Make2D$___$___
100
AcDbLine
 10
108.0307763072885
 20
351.2979373068563
 30
0.0
 11
108.1701530696218
 21
351.2979373068563
 31
0.0
  0
LINE
  5
B7
330
1F
100
AcDbEntity
  8
Make2D$___$___
100
AcDbLine
 10
107.4606687404333
 20
351.2979373068563
 30
0.0
 11
107.6532014854652
 21
351.2979373068563
 31
0.0
  0
LINE
  5
B8
330
1F
100
AcDbEntity
  8
Make2D$___$___
100
AcDbLine
 10
106.9363148179998
 20
351.2979373068563
 30
0.0
 11
107.1306841399541
 21
351.2979373068564
 31
0.0
  0
LINE
  5
B9
330
1F
100
AcDbEntity
  8
Make2D$___$___
100
AcDbLine
 10
106.4090384591972
 20
351.2979373068563
 30
0.0
 11
106.676772542569
 21
351.2979373068564
 31
0.0
  0
LINE
  5
BA
330
1F
100
AcDbEntity
  8
Make2D$___$___
100
AcDbLine
 10
105.8792452768886
 20
351.2979373068563
 30
0.0
 11
106.0828122693544
 21
351.2979373068563
 31
0.0
  0
LINE
  5
BB
330
1F
100
AcDbEntity
  8
Make2D$___$___
100
AcDbLine
 10
105.3473582295044
 20
351.2979373068564
 30
0.0
 11
105.5541419580959
 21
351.2979373068564
 31
0.0
  0
LINE
  5
BC
330
1F
100
AcDbEntity
  8
Make2D$___$___
100
AcDbLine
 10
104.8437795608095
 20
351.2979373068564
 30
0.0
 11
105.0235639668569
 21
351.2979373068564
 31
0.0
  0
LINE
  5
BD
330
1F
100
AcDbEntity
  8
Make2D$___$___
100
AcDbLine
 10
104.2790773428254
 20
351.2979373068563
 30
0.0
 11
104.4915209615528
 21
351.2979373068563
 31
0.0
  0
LINE
  5
BE
330
1F
100
AcDbEntity
  8
Make2D$___$___
100
AcDbLine
 10
103.7436100038216
 20
351.2979373068564
 30
0.0
 11
103.9584713570559
 21
351.2979373068565
 31
0.0
  0
LINE
  5
BF
330
1F
100
AcDbEntity
  8
Make2D$___$___
100
AcDbLine
 10
102.6724463068337
 20
351.2979373068564
 30
0.0
 11
103.4619251378682
 21
351.2979373068563
 31
0.0
  0
LINE
  5
C0
330
1F
100
AcDbEntity
  8
Make2D$___$___
100
AcDbLine
 10
102.1377586443724
 20
351.2979373068565
 30
0.0
 11
102.3580848717966
 21
351.2979373068564
 31
0.0
  0
LINE
  5
C1
330
1F
100
AcDbEntity
  8
Make2D$___$___
100
AcDbLine
 10
101.6321897423928
 20
351.2979373068564
 30
0.0
 11
101.8258761329739
 21
351.2979373068564
 31
0.0
  0
LINE
  5
C2
330
1F
100
AcDbEntity
  8
Make2D$___$___
100
AcDbLine
 10
101.0727766650563
 20
351.2979373068564
 30
0.0
 11
101.2951558793662
 21
351.2979373068563
 31
0.0
  0
LINE
  5
C3
330
1F
100
AcDbEntity
  8
Make2D$___$___
100
AcDbLine
 10
100.0172290928654
 20
351.2979373068563
 30
0.0
 11
100.7664555771352
 21
351.2979373068563
 31
0.0
  0
LINE
  5
C4
330
1F
100
AcDbEntity
  8
Make2D$___$___
100
AcDbLine
 10
99.49435896759223
 20
351.2979373068563
 30
0.0
 11
99.7172777565703
 21
351.2979373068564
 31
0.0
  0
LINE
  5
C5
330
1F
100
AcDbEntity
  8
Make2D$___$___
100
AcDbLine
 10
97.4484862975777
 20
351.2979373068563
 30
0.0
 11
99.19789548137598
 21
351.2979373068564
 31
0.0
  0
LINE
  5
C6
330
1F
100
AcDbEntity
  8
Make2D$___$___
100
AcDbLine
 10
96.95118536156211
 20
351.2979373068564
 30
0.0
 11
97.16797196973646
 21
351.2979373068563
 31
0.0
  0
LINE
  5
C7
330
1F
100
AcDbEntity
  8
Make2D$___$___
100
AcDbLine
 10
95.5019783542938
 20
351.2979373068563
 30
0.0
 11
96.67514894990451
 21
351.2979373068564
 31
0.0
  0
LINE
  5
C8
330
1F
100
AcDbEntity
  8
Make2D$___$___
100
AcDbLine
 10
94.12772121647791
 20
351.2979373068563
 30
0.0
 11
95.240510304939
 21
351.2979373068563
 31
0.0
  0
LINE
  5
C9
330
1F
100
AcDbEntity
  8
Make2D$___$___
100
AcDbLine
 10
93.70774566793186
 20
351.2979373068563
 30
0.0
 11
93.88244350462118
 21
351.2979373068563
 31
0.0
  0
LINE
  5
CA
330
1F
100
AcDbEntity
  8
Make2D$___$___
100
AcDbLine
 10
93.2597089353996
 20
351.2979373068564
 30
0.0
 11
93.68859210112035
 21
351.2979373068563
 31
0.0
  0
LINE
  5
CB
330
1F
100
AcDbEntity
  8
Make2D$___$___
100
AcDbLine
 10
92.84150355869646
 20
351.2979373068563
 30
0.0
 11
93.02606390752099
 21
351.2979373068564
 31
0.0
  0
LINE
  5
CC
330
1F
100
AcDbEntity
  8
Make2D$___$___
100
AcDbLine
 10
92.43438657199637
 20
351.2979373068563
 30
0.0
 11
92.82609517403715
 21
351.2979373068564
 31
0.0
  0
LINE
  5
CD
330
1F
100
AcDbEntity
  8
Make2D$___$___
100
AcDbLine
 10
92.0484904531364
 20
351.2979373068563
 30
0.0
 11
92.21299386255512
 21
351.2979373068564
 31
0.0
  0
LINE
  5
CE
330
1F
100
AcDbEntity
  8
Make2D$___$___
100
AcDbLine
 10
91.65494604062356
 20
351.2979373068563
 30
0.0
 11
92.03874599544388
 21
351.2979373068563
 31
0.0
  0
LINE
  5
CF
330
1F
100
AcDbEntity
  8
Make2D$___$___
100
AcDbLine
 10
91.2833260056871
 20
351.2979373068562
 30
0.0
 11
91.58991299043888
 21
351.2979373068562
 31
0.0
  0
LINE
  5
D0
330
1F
100
AcDbEntity
  8
Make2D$___$___
100
AcDbLine
 10
90.924199300268
 20
351.2979373068564
 30
0.0
 11
91.0813633087588
 21
351.2979373068564
 31
0.0
  0
LINE
  5
D1
330
1F
100
AcDbEntity
  8
Make2D$___$___
100
AcDbLine
 10
90.57785260587634
 20
351.2979373068563
 30
0.0
 11
90.72896639047603
 21
351.2979373068563
 31
0.0
  0
LINE
  5
D2
330
1F
100
AcDbEntity
  8
Make2D$___$___
100
AcDbLine
 10
89.93647550147531
 20
351.2979373068563
 30
0.0
 11
89.95433476565364
 21
351.2979373068563
 31
0.0
  0
LINE
  5
D3
330
1F
100
AcDbEntity
  8
Make2D$___$___
100
AcDbLine
 10
86.34619026230894
 20
351.2979373068564
 30
0.0
 11
89.3496107426526
 21
351.2979373068563
 31
0.0
  0
ARC
  5
D4
330
1F
100
AcDbEntity
  8
Make2D$___$___
100
AcDbCircle
 10
86.34626621707244
 20
350.7979421123686
 30
0.0
 40
0.5000246646814879
100
AcDbArc
 50
134.4492735044758
 51
178.5006248346645
  0
LINE
  5
D5
330
1F
100
AcDbEntity
  8
Make2D$___$___
100
AcDbLine
 10
39.0973065576035
 20
302.3240486074131
 30
0.0
 11
32.77393447535468
 21
303.4390297145721
 31
0.0
  0
LINE
  5
D6
330
1F
100
AcDbEntity
  8
Make2D$___$___
100
AcDbLine
 10
78.78463234046326
 20
295.3261022797294
 30
0.0
 11
74.11013978955509
 21
296.1503414375751
 31
0.0
  0
LINE
  5
D7
330
1F
100
AcDbEntity
  8
Make2D$___$___
100
AcDbLine
 10
0.3228040608678018
 20
322.5751387278045
 30
0.0
 11
0.3240658604937731
 21
322.506378211806
 31
0.0
  0
ARC
  5
D8
330
1F
100
AcDbEntity
  8
Make2D$___$___
100
AcDbCircle
 10
16.81756262906208
 20
323.0070896228367
 30
0.0
 40
16.49990097529941
100
AcDbArc
 50
181.7388847060056
 51
227.4065731298397
  0
LINE
  5
D9
330
1F
100
AcDbEntity
  8
Make2D$___$___
100
AcDbLine
 10
41.83192404598634
 20
294.5717693287369
 30
0.0
 11
41.57225063300958
 21
299.5266332159158
 31
0.0
  0
ARC
  5
DA
330
1F
100
AcDbEntity
  8
Make2D$___$___
100
AcDbCircle
 10
42.33548696099464
 20
294.5979213707963
 30
0.0
 40
0.5000640076917686
100
AcDbArc
 50
182.9977872437609
 51
226.147674800639
  0
ARC
  5
DB
330
1F
100
AcDbEntity
  8
Make2D$___$___
100
AcDbCircle
 10
42.3352888640033
 20
294.5977149838981
 30
0.0
 40
0.4997777609909061
100
AcDbArc
 50
226.7286500553126
 51
269.5357019625055
  0
LINE
  5
DC
330
1F
100
AcDbEntity
  8
Make2D$___$___
100
AcDbLine
 10
62.10675652999544
 20
325.1756669809787
 30
0.0
 11
62.10675652999544
 21
330.7979373068564
 31
0.0
  0
ARC
  5
DD
330
1F
100
AcDbEntity
  8
Make2D$___$___
100
AcDbCircle
 10
47.35687059293436
 20
348.2979492142874
 30
0.0
 40
0.4999880925825369
100
AcDbArc
 50
90.01306669848773
 51
111.5984194645956
  0
ARC
  5
DE
330
1F
100
AcDbEntity
  8
Make2D$___$___
100
AcDbCircle
 10
47.35687255013764
 20
348.2979446030175
 30
0.0
 40
0.4999931005369784
100
AcDbArc
 50
111.6016978132069
 51
135.0003905289001
  0
ARC
  5
DF
330
1F
100
AcDbEntity
  8
Make2D$___$___
100
AcDbCircle
 10
47.35687783044669
 20
348.2979393233563
 30
0.0
 40
0.5000005676057825
100
AcDbArc
 50
135.0099808829582
 51
158.3992360511746
  0
ARC
  5
E0
330
1F
100
AcDbEntity
  8
Make2D$___$___
100
AcDbCircle
 10
47.35688244109708
 20
348.2979373667741
 30
0.0
 40
0.5000055747529579
100
AcDbArc
 50
158.4020987020449
 51
180.000006865984
  0
ARC
  5
E1
330
1F
100
AcDbEntity
  8
Make2D$___$___
100
AcDbCircle
 10
47.15702348184586
 20
331.0979366552748
 30
0.0
 40
0.3000042943741431
100
AcDbArc
 50
179.9998755588703
 51
224.9640444913251
  0
ARC
  5
E2
330
1F
100
AcDbEntity
  8
Make2D$___$___
100
AcDbCircle
 10
47.15701154922581
 20
331.0979247298155
 30
0.0
 40
0.2999874235141638
100
AcDbArc
 50
224.9990184119326
 51
269.9513390032741
  0
LINE
  5
E3
330
1F
100
AcDbEntity
  8
Make2D$___$___
100
AcDbLine
 10
7.196072503326097
 20
307.8198601655164
 30
0.0
 11
7.763582126298079
 21
311.0383671727359
 31
0.0
  0
LINE
  5
E4
330
1F
100
AcDbEntity
  8
Make2D$___$___
100
AcDbLine
 10
8.0072320786714
 20
306.6614042348372
 30
0.0
 11
7.198938538280567
 21
307.8157670434088
 31
0.0
  0
LINE
  5
E5
330
1F
100
AcDbEntity
  8
Make2D$___$___
100
AcDbLine
 10
30.73297780031795
 20
303.6696687192774
 30
0.0
 11
30.96836024396997
 21
305.0045888926184
 31
0.0
  0
LINE
  5
E6
330
1F
100
AcDbEntity
  8
Make2D$___$___
100
AcDbLine
 10
29.57452186963887
 20
302.8585091439321
 30
0.0
 11
30.72888467821047
 21
303.6668026843228
 31
0.0
  0
LINE
  5
E7
330
1F
100
AcDbEntity
  8
Make2D$___$___
100
AcDbLine
 10
85.85675652999544
 20
367.9979373068564
 30
0.0
 11
85.85675652999544
 21
354.7979373068564
 31
0.0
  0
ARC
  5
E8
330
1F
100
AcDbEntity
  8
Make2D$___$___
100
AcDbCircle
 10
86.35675652999532
 20
354.7979373068562
 30
0.0
 40
0.4999999999998295
100
AcDbArc
 50
179.999999999987
 51
270.000000000013
  0
LINE
  5
E9
330
1F
100
AcDbEntity
  8
Make2D$___$___
100
AcDbLine
 10
107.8822102334361
 20
354.2979373068565
 30
0.0
 11
108.8277755033309
 21
354.2979373068564
 31
0.0
  0
LINE
  5
EA
330
1F
100
AcDbEntity
  8
Make2D$___$___
100
AcDbLine
 10
132.8567565299954
 20
363.2013415812164
 30
0.0
 11
132.8567565299954
 21
378.7979373068563
 31
0.0
  0
LINE
  5
EB
330
1F
100
AcDbEntity
  8
Make2D$___$___
100
AcDbLine
 10
116.1829436342883
 20
379.2979373068563
 30
0.0
 11
116.1131674008697
 21
379.2979373068563
 31
0.0
  0
LINE
  5
EC
330
1F
100
AcDbEntity
  8
Make2D$___$___
100
AcDbLine
 10
117.6607590420955
 20
379.2979373068563
 30
0.0
 11
116.4974739668447
 21
379.2979373068563
 31
0.0
  0
LINE
  5
ED
330
1F
100
AcDbEntity
  8
Make2D$___$___
100
AcDbLine
 10
118.15021629493
 20
379.2979373068564
 30
0.0
 11
118.0423391967923
 21
379.2979373068563
 31
0.0
  0
LINE
  5
EE
330
1F
100
AcDbEntity
  8
Make2D$___$___
100
AcDbLine
 10
118.637380570376
 20
379.2979373068564
 30
0.0
 11
118.5196523344442
 21
379.2979373068563
 31
0.0
  0
LINE
  5
EF
330
1F
100
AcDbEntity
  8
Make2D$___$___
100
AcDbLine
 10
119.1218129019872
 20
379.2979373068563
 30
0.0
 11
118.9942309191915
 21
379.2979373068563
 31
0.0
  0
LINE
  5
F0
330
1F
100
AcDbEntity
  8
Make2D$___$___
100
AcDbLine
 10
119.6030708189747
 20
379.2979373068563
 30
0.0
 11
119.4656654912276
 21
379.2979373068563
 31
0.0
  0
LINE
  5
F1
330
1F
100
AcDbEntity
  8
Make2D$___$___
100
AcDbLine
 10
120.0807095160697
 20
379.2979373068563
 30
0.0
 11
119.9335453210862
 21
379.2979373068563
 31
0.0
  0
LINE
  5
F2
330
1F
100
AcDbEntity
  8
Make2D$___$___
100
AcDbLine
 10
120.5542830561768
 20
379.2979373068564
 30
0.0
 11
120.3974594809116
 21
379.2979373068564
 31
0.0
  0
LINE
  5
F3
330
1F
100
AcDbEntity
  8
Make2D$___$___
100
AcDbLine
 10
121.0233456072972
 20
379.2979373068564
 30
0.0
 11
120.856997939609
 21
379.2979373068563
 31
0.0
  0
LINE
  5
F4
330
1F
100
AcDbEntity
  8
Make2D$___$___
100
AcDbLine
 10
121.48745270731
 20
379.2979373068563
 30
0.0
 11
121.3117526762931
 21
379.2979373068563
 31
0.0
  0
LINE
  5
F5
330
1F
100
AcDbEntity
  8
Make2D$___$___
100
AcDbLine
 10
121.9461625497873
 20
379.2979373068563
 30
0.0
 11
121.7613188061615
 21
379.2979373068563
 31
0.0
  0
LINE
  5
F6
330
1F
100
AcDbEntity
  8
Make2D$___$___
100
AcDbLine
 10
122.3990372836514
 20
379.2979373068564
 30
0.0
 11
122.2052957126814
 21
379.2979373068563
 31
0.0
  0
LINE
  5
F7
330
1F
100
AcDbEntity
  8
Make2D$___$___
100
AcDbLine
 10
122.7156761332811
 20
379.2979373068563
 30
0.0
 11
122.6432881797967
 21
379.2979373068563
 31
0.0
  0
LINE
  5
F8
330
1F
100
AcDbEntity
  8
Make2D$___$___
100
AcDbLine
 10
123.1549120103345
 20
379.2979373068564
 30
0.0
 11
123.0749075177281
 21
379.2979373068563
 31
0.0
  0
LINE
  5
F9
330
1F
100
AcDbEntity
  8
Make2D$___$___
100
AcDbLine
 10
123.5875167323947
 20
379.2979373068563
 30
0.0
 11
123.3282476138781
 21
379.2979373068563
 31
0.0
  0
LINE
  5
FA
330
1F
100
AcDbEntity
  8
Make2D$___$___
100
AcDbLine
 10
124.0130718652225
 20
379.2979373068563
 30
0.0
 11
123.746205083472
 21
379.2979373068564
 31
0.0
  0
LINE
  5
FB
330
1F
100
AcDbEntity
  8
Make2D$___$___
100
AcDbLine
 10
124.4311672358583
 20
379.2979373068563
 30
0.0
 11
124.1572613726036
 21
379.2979373068563
 31
0.0
  0
LINE
  5
FC
330
1F
100
AcDbEntity
  8
Make2D$___$___
100
AcDbLine
 10
124.8414021953449
 20
379.2979373068563
 30
0.0
 11
124.5610476917958
 21
379.2979373068563
 31
0.0
  0
LINE
  5
FD
330
1F
100
AcDbEntity
  8
Make2D$___$___
100
AcDbLine
 10
125.2433868557043
 20
379.2979373068564
 30
0.0
 11
124.9700549076213
 21
379.2979373068563
 31
0.0
  0
LINE
  5
FE
330
1F
100
AcDbEntity
  8
Make2D$___$___
100
AcDbLine
 10
125.6367432933801
 20
379.2979373068562
 30
0.0
 11
125.3704285414557
 21
379.2979373068562
 31
0.0
  0
LINE
  5
FF
330
1F
100
AcDbEntity
  8
Make2D$___$___
100
AcDbLine
 10
126.0211066235225
 20
379.2979373068565
 30
0.0
 11
125.7617610883089
 21
379.2979373068565
 31
0.0
  0
LINE
  5
100
330
1F
100
AcDbEntity
  8
Make2D$___$___
100
AcDbLine
 10
126.3961264679888
 20
379.2979373068563
 30
0.0
 11
126.1437072497489
 21
379.2979373068564
 31
0.0
  0
LINE
  5
101
330
1F
100
AcDbEntity
  8
Make2D$___$___
100
AcDbLine
 10
126.7614674713593
 20
379.2979373068564
 30
0.0
 11
126.5159377373521
 21
379.2979373068563
 31
0.0
  0
LINE
  5
102
330
1F
100
AcDbEntity
  8
Make2D$___$___
100
AcDbLine
 10
127.1168106513428
 20
379.2979373068562
 30
0.0
 11
126.8781402219681
 21
379.2979373068563
 31
0.0
  0
LINE
  5
103
330
1F
100
AcDbEntity
  8
Make2D$___$___
100
AcDbLine
 10
127.4618542843653
 20
379.2979373068565
 30
0.0
 11
127.2195275295129
 21
379.2979373068565
 31
0.0
  0
LINE
  5
104
330
1F
100
AcDbEntity
  8
Make2D$___$___
100
AcDbLine
 10
127.7963147025735
 20
379.2979373068564
 30
0.0
 11
127.5509556043176
 21
379.2979373068563
 31
0.0
  0
LINE
  5
105
330
1F
100
AcDbEntity
  8
Make2D$___$___
100
AcDbLine
 10
128.2552443757654
 20
379.2979373068564
 30
0.0
 11
127.8721896770586
 21
379.2979373068563
 31
0.0
  0
LINE
  5
106
330
1F
100
AcDbEntity
  8
Make2D$___$___
100
AcDbLine
 10
129.0022370081017
 20
379.2979373068565
 30
0.0
 11
128.7726471447512
 21
379.2979373068564
 31
0.0
  0
LINE
  5
107
330
1F
100
AcDbEntity
  8
Make2D$___$___
100
AcDbLine
 10
129.2724877764092
 20
379.2979373068563
 30
0.0
 11
129.0511163307142
 21
379.2979373068563
 31
0.0
  0
LINE
  5
108
330
1F
100
AcDbEntity
  8
Make2D$___$___
100
AcDbLine
 10
129.5315617694326
 20
379.2979373068564
 30
0.0
 11
129.3184900092665
 21
379.2979373068563
 31
0.0
  0
LINE
  5
109
330
1F
100
AcDbEntity
  8
Make2D$___$___
100
AcDbLine
 10
129.7793369238993
 20
379.2979373068565
 30
0.0
 11
129.5673988690964
 21
379.2979373068565
 31
0.0
  0
LINE
  5
10A
330
1F
100
AcDbEntity
  8
Make2D$___$___
100
AcDbLine
 10
130.0157104576846
 20
379.2979373068564
 30
0.0
 11
129.8214931959293
 21
379.2979373068563
 31
0.0
  0
LINE
  5
10B
330
1F
100
AcDbEntity
  8
Make2D$___$___
100
AcDbLine
 10
130.2405988739249
 20
379.2979373068563
 30
0.0
 11
130.0528972307193
 21
379.2979373068562
 31
0.0
  0
LINE
  5
10C
330
1F
100
AcDbEntity
  8
Make2D$___$___
100
AcDbLine
 10
130.453937888841
 20
379.2979373068564
 30
0.0
 11
130.2748441129144
 21
379.2979373068564
 31
0.0
  0
LINE
  5
10D
330
1F
100
AcDbEntity
  8
Make2D$___$___
100
AcDbLine
 10
130.5256701151509
 20
379.2979373068563
 30
0.0
 11
130.4852688229946
 21
379.2979373068563
 31
0.0
  0
LINE
  5
10E
330
1F
100
AcDbEntity
  8
Make2D$___$___
100
AcDbLine
 10
131.0887566601632
 20
379.2979373068563
 30
0.0
 11
130.8458056944762
 21
379.2979373068564
 31
0.0
  0
LINE
  5
10F
330
1F
100
AcDbEntity
  8
Make2D$___$___
100
AcDbLine
 10
131.2566824489984
 20
379.2979373068563
 30
0.0
 11
131.2114527651101
 21
379.2979373068564
 31
0.0
  0
LINE
  5
110
330
1F
100
AcDbEntity
  8
Make2D$___$___
100
AcDbLine
 10
131.4122526355274
 20
379.2979373068565
 30
0.0
 11
131.3642041476012
 21
379.2979373068565
 31
0.0
  0
LINE
  5
111
330
1F
100
AcDbEntity
  8
Make2D$___$___
100
AcDbLine
 10
131.5555168732728
 20
379.2979373068564
 30
0.0
 11
131.5055318060609
 21
379.2979373068564
 31
0.0
  0
LINE
  5
112
330
1F
100
AcDbEntity
  8
Make2D$___$___
100
AcDbLine
 10
131.6865439519678
 20
379.2979373068564
 30
0.0
 11
131.6355115605814
 21
379.2979373068563
 31
0.0
  0
LINE
  5
113
330
1F
100
AcDbEntity
  8
Make2D$___$___
100
AcDbLine
 10
131.8054210726148
 20
379.2979373068563
 30
0.0
 11
131.75423471237
 21
379.2979373068563
 31
0.0
  0
LINE
  5
114
330
1F
100
AcDbEntity
  8
Make2D$___$___
100
AcDbLine
 10
131.9122531423542
 20
379.2979373068563
 30
0.0
 11
131.861807387366
 21
379.2979373068563
 31
0.0
  0
LINE
  5
115
330
1F
100
AcDbEntity
  8
Make2D$___$___
100
AcDbLine
 10
132.0071620098483
 20
379.2979373068566
 30
0.0
 11
131.9512084223732
 21
379.2979373068564
 31
0.0
  0
LINE
  5
116
330
1F
100
AcDbEntity
  8
Make2D$___$___
100
AcDbLine
 10
132.0902856587696
 20
379.2979373068564
 30
0.0
 11
132.0384760885978
 21
379.2979373068563
 31
0.0
  0
LINE
  5
117
330
1F
100
AcDbEntity
  8
Make2D$___$___
100
AcDbLine
 10
132.1284811194251
 20
379.2979373068563
 30
0.0
 11
132.1148034089533
 21
379.2979373068563
 31
0.0
  0
LINE
  5
118
330
1F
100
AcDbEntity
  8
Make2D$___$___
100
AcDbLine
 10
132.3521999387538
 20
379.2979373068563
 30
0.0
 11
132.3349761320853
 21
379.2979373068564
 31
0.0
  0
ARC
  5
119
330
1F
100
AcDbEntity
  8
Make2D$___$___
100
AcDbCircle
 10
132.3568842000676
 20
378.7980649769285
 30
0.0
 40
0.499872346231693
100
AcDbArc
 50
359.9853663511552
 51
90.01463364915108
  0
ARC
  5
11A
330
1F
100
AcDbEntity
  8
Make2D$___$___
100
AcDbCircle
 10
31.13160212874229
 20
409.9594019253734
 30
0.0
 40
0.5002368009667314
100
AcDbArc
 50
67.94973953592181
 51
157.9723168364974
  0
LINE
  5
11B
330
1F
100
AcDbEntity
  8
Make2D$___$___
100
AcDbLine
 10
30.6678813417336
 20
410.1470179618123
 30
0.0
 11
29.54406134863181
 21
407.3654658713214
 31
0.0
  0
ARC
  5
11C
330
1F
100
AcDbEntity
  8
Make2D$___$___
100
AcDbCircle
 10
30.00748267177089
 20
407.1780866222041
 30
0.0
 40
0.4998699245543039
100
AcDbArc
 50
157.9846027745791
 51
248.0924324686704
  0
LINE
  5
11D
330
1F
100
AcDbEntity
  8
Make2D$___$___
100
AcDbLine
 10
47.3567565299951
 20
271.597937306856
 30
0.0
 11
65.35675652999578
 21
271.597937306856
 31
0.0
  0
LINE
  5
11E
330
1F
100
AcDbEntity
  8
Make2D$___$___
100
AcDbLine
 10
66.47905453326722
 20
273.0974397812832
 30
0.0
 11
66.85634913080528
 21
273.0976158553223
 31
0.0
  0
SPLINE
  5
11F
330
1F
100
AcDbEntity
  8
Make2D$___$___
100
AcDbSpline
210
0.0
220
0.0
230
1.0
 70
     8
 71
     3
 72
    13
 73
     9
 74
     0
 42
0.000000001
 43
0.0000000001
 12
1.0
 22
0.0
 32
0.0
 13
1.0
 23
0.0
 33
0.0
 40
0.0
 40
0.0
 40
0.0
 40
0.0
 40
2.567590656460363
 40
3.579999027616939
 40
4.466896946738151
 40
5.683451667940389
 40
6.072025897403365
 40
6.320937805018706
 40
6.320937805018706
 40
6.320937805018706
 40
6.320937805018706
 10
59.91555704358069
 20
271.8979243968616
 30
0.0
 10
60.76990073125388
 20
271.9491304008633
 30
0.0
 10
61.96088428070089
 20
272.0235487325889
 30
0.0
 10
63.44595622564364
 20
272.1322380836962
 30
0.0
 10
64.48077050329702
 20
272.2200885139351
 30
0.0
 10
65.30751339633429
 20
272.3035841944959
 30
0.0
 10
65.91816152550254
 20
272.3999560798067
 30
0.0
 10
66.12494383387003
 20
272.4505673898492
 30
0.0
 10
66.20276711855519
 20
272.4795579356457
 30
0.0
  0
LINE
  5
120
330
1F
100
AcDbEntity
  8
Make2D$___$___
100
AcDbLine
 10
45.86966525429118
 20
276.8103846776796
 30
0.0
 11
45.85689542906852
 21
276.8228845396434
 31
0.0
  0
LINE
  5
121
330
1F
100
AcDbEntity
  8
Make2D$___$___
100
AcDbLine
 10
45.86971550232141
 20
275.2104803611471
 30
0.0
 11
45.85694533520552
 21
275.222980368198
 31
0.0
  0
LINE
  5
122
330
1F
100
AcDbEntity
  8
Make2D$___$___
100
AcDbLine
 10
45.86543178803076
 20
273.6126007160574
 30
0.0
 11
45.85685188829723
 21
273.6228009251572
 31
0.0
  0
LINE
  5
123
330
1F
100
AcDbEntity
  8
Make2D$___$___
100
AcDbLine
 10
45.85677309384647
 20
283.222649584807
 30
0.0
 11
45.85675652999544
 21
294.0979373068564
 31
0.0
  0
LINE
  5
124
330
1F
100
AcDbEntity
  8
Make2D$___$___
100
AcDbLine
 10
66.85675652999544
 20
294.0979373068564
 30
0.0
 11
66.85671474065038
 21
282.4226980395927
 31
0.0
  0
LINE
  5
125
330
1F
100
AcDbEntity
  8
Make2D$___$___
100
AcDbLine
 10
45.85679335589435
 20
281.6226885059328
 30
0.0
 11
45.85677353452098
 21
281.9732241823921
 31
0.0
  0
LINE
  5
126
330
1F
100
AcDbEntity
  8
Make2D$___$___
100
AcDbLine
 10
45.85685188829723
 20
273.6228009251572
 30
0.0
 11
45.85694096553124
 21
273.9729026374765
 31
0.0
  0
LINE
  5
127
330
1F
100
AcDbEntity
  8
Make2D$___$___
100
AcDbLine
 10
66.85648301455569
 20
274.7727316202923
 30
0.0
 11
66.85674447403954
 21
274.4226409265218
 31
0.0
  0
SPLINE
  5
128
330
1F
100
AcDbEntity
  8
Make2D$___$___
100
AcDbSpline
210
0.0
220
0.0
230
1.0
 70
     8
 71
     3
 72
    18
 73
    14
 74
     0
 42
0.000000001
 43
0.0000000001
 12
1.0
 22
0.0
 32
0.0
 13
1.0
 23
0.0
 33
0.0
 40
0.0
 40
0.0
 40
0.0
 40
0.0
 40
0.058737561000168
 40
0.212329633207291
 40
0.8113673194157197
 40
3.23703322895799
 40
6.497635274379732
 40
15.28528121355991
 40
18.63647820796479
 40
20.44277499288017
 40
20.89495739398272
 40
20.99429265032945
 40
21.03406964047448
 40
21.03406964047448
 40
21.03406964047448
 40
21.03406964047448
 10
45.85685188829723
 20
273.6228009251572
 30
0.0
 10
45.86861079343142
 20
273.638881235998
 30
0.0
 10
45.93856286635442
 20
273.6564985621134
 30
0.0
 10
46.20633625881669
 20
273.693852740551
 30
0.0
 10
47.26376250275477
 20
273.7638373123597
 30
0.0
 10
49.35745708531332
 20
273.841076567315
 30
0.0
 10
54.18023470861619
 20
273.9761959890944
 30
0.0
 10
59.31219793143492
 20
274.0873825252797
 30
0.0
 10
63.95863257007108
 20
274.2233520046007
 30
0.0
 10
65.82693080847004
 20
274.3019595461678
 30
0.0
 10
66.61079715981748
 20
274.3627367929578
 30
0.0
 10
66.80521824415038
 20
274.3955538075443
 30
0.0
 10
66.85023993217683
 20
274.4104607923431
 30
0.0
 10
66.85674447403954
 20
274.4226409265218
 30
0.0
  0
LINE
  5
129
330
1F
100
AcDbEntity
  8
Make2D$___$___
100
AcDbLine
 10
45.85694533520552
 20
275.222980368198
 30
0.0
 11
45.85689998891365
 21
275.5729813156888
 31
0.0
  0
LINE
  5
12A
330
1F
100
AcDbEntity
  8
Make2D$___$___
100
AcDbLine
 10
66.85672255644016
 20
276.3731915865951
 30
0.0
 11
66.85648379556574
 21
276.0231414936609
 31
0.0
  0
SPLINE
  5
12B
330
1F
100
AcDbEntity
  8
Make2D$___$___
100
AcDbSpline
210
0.0
220
0.0
230
1.0
 70
     8
 71
     3
 72
    18
 73
    14
 74
     0
 42
0.000000001
 43
0.0000000001
 12
1.0
 22
0.0
 32
0.0
 13
1.0
 23
0.0
 33
0.0
 40
0.0
 40
0.0
 40
0.0
 40
0.0
 40
0.039776664944005
 40
0.1391102646612629
 40
0.5912854850412393
 40
2.397552286131291
 40
5.748703441849963
 40
14.53619596222923
 40
17.79674568882076
 40
20.22237300091494
 40
20.82140132341103
 40
20.97499122156972
 40
21.03372830582575
 40
21.03372830582575
 40
21.03372830582575
 40
21.03372830582575
 10
45.85694533520552
 20
275.222980368198
 30
0.0
 10
45.8634495540655
 20
275.2351604802219
 30
0.0
 10
45.90847015300623
 20
275.2500688185428
 30
0.0
 10
46.10288753326382
 20
275.2828892788928
 30
0.0
 10
46.88674005553109
 20
275.3436782976692
 30
0.0
 10
48.7550093955449
 20
275.4223135273622
 30
0.0
 10
53.40136564575812
 20
275.5583504366049
 30
0.0
 10
58.53324320371374
 20
275.6696175282477
 30
0.0
 10
63.35593719805175
 20
275.8048147357684
 30
0.0
 10
65.44959726277395
 20
275.8820819766306
 30
0.0
 10
66.50700562901832
 20
275.9520848273221
 30
0.0
 10
66.77477443156269
 20
275.9894422747838
 30
0.0
 10
66.84472526760894
 20
276.0070612099133
 30
0.0
 10
66.85648379556574
 20
276.0231414936608
 30
0.0
  0
LINE
  5
12C
330
1F
100
AcDbEntity
  8
Make2D$___$___
100
AcDbLine
 10
45.85689542906852
 20
276.8228845396434
 30
0.0
 11
45.85679936776262
 21
277.1731745603331
 31
0.0
  0
LINE
  5
12D
330
1F
100
AcDbEntity
  8
Make2D$___$___
100
AcDbLine
 10
66.85673118030167
 20
277.973208151528
 30
0.0
 11
66.85672215750884
 21
277.6226837934225
 31
0.0
  0
SPLINE
  5
12E
330
1F
100
AcDbEntity
  8
Make2D$___$___
100
AcDbSpline
210
0.0
220
0.0
230
1.0
 70
     8
 71
     3
 72
    13
 73
     9
 74
     0
 42
0.000000001
 43
0.0000000001
 12
1.0
 22
0.0
 32
0.0
 13
1.0
 23
0.0
 33
0.0
 40
0.0
 40
0.0
 40
0.0
 40
0.0
 40
0.039777843561834
 40
0.139108878851162
 40
0.5912794381922508
 40
2.397554830916112
 40
5.385082715499261
 40
10.51695842352614
 40
10.51695842352614
 40
10.51695842352614
 40
10.51695842352614
 10
45.85689542906852
 20
276.8228845396434
 30
0.0
 10
45.86339403081558
 20
276.8350704469594
 30
0.0
 10
45.90841285924049
 20
276.8499822761227
 30
0.0
 10
46.1028246237797
 20
276.8828275170408
 30
0.0
 10
46.88667805374238
 20
276.9436239910722
 30
0.0
 10
48.63383760969749
 20
277.017252459803
 30
0.0
 10
51.94092520494404
 20
277.1168593795859
 30
0.0
 10
54.64662886917713
 20
277.1813606850038
 30
0.0
 10
56.35674429947971
 20
277.2231101345793
 30
0.0
  0
LINE
  5
12F
330
1F
100
AcDbEntity
  8
Make2D$___$___
100
AcDbLine
 10
45.85679925983771
 20
278.4226998460698
 30
0.0
 11
45.85675823511247
 21
278.7732535707042
 31
0.0
  0
LINE
  5
130
330
1F
100
AcDbEntity
  8
Make2D$___$___
100
AcDbLine
 10
66.8567450591633
 20
279.5732348112779
 30
0.0
 11
66.85673165252297
 21
279.2226655550867
 31
0.0
  0
LINE
  5
131
330
1F
100
AcDbEntity
  8
Make2D$___$___
100
AcDbLine
 10
45.85675807332495
 20
280.0226207322183
 30
0.0
 11
45.85679300105522
 21
280.3731867893188
 31
0.0
  0
LINE
  5
132
330
1F
100
AcDbEntity
  8
Make2D$___$___
100
AcDbLine
 10
66.85671456348729
 20
281.1731762338122
 30
0.0
 11
66.85674465391429
 21
280.8226405808988
 31
0.0
  0
LINE
  5
133
330
1F
100
AcDbEntity
  8
Make2D$___$___
100
AcDbLine
 10
45.85677309384647
 20
283.222649584807
 30
0.0
 11
45.85677353452098
 21
281.9732241823921
 31
0.0
  0
SPLINE
  5
134
330
1F
100
AcDbEntity
  8
Make2D$___$___
100
AcDbSpline
210
0.0
220
0.0
230
1.0
 70
     8
 71
     3
 72
    18
 73
    14
 74
     0
 42
0.000000001
 43
0.0000000001
 12
1.0
 22
0.0
 32
0.0
 13
1.0
 23
0.0
 33
0.0
 40
0.0
 40
0.0
 40
0.0
 40
0.0
 40
0.0397771073516186
 40
0.1391123785470398
 40
0.5912957330051183
 40
2.397595546050837
 40
5.748808947243592
 40
14.53646445995204
 40
17.79707476485554
 40
20.22274680926966
 40
20.82178584905089
 40
20.97537842328402
 40
21.03411631338165
 40
21.03411631338165
 40
21.03411631338165
 40
21.03411631338165
 10
66.85673118030167
 20
277.973208151528
 30
0.0
 10
66.85022672206767
 20
277.9610280257205
 30
0.0
 10
66.80520526710322
 20
277.9461199865215
 30
0.0
 10
66.61078422994235
 20
277.9133007470733
 30
0.0
 10
65.82691702458115
 20
277.8525164803385
 30
0.0
 10
63.95861272151852
 20
277.7738924600538
 30
0.0
 10
59.31216951485756
 20
277.637884073581
 30
0.0
 10
54.1801959977272
 20
277.5266478314003
 30
0.0
 10
49.35741170816807
 20
277.3914800528665
 30
0.0
 10
47.26371247025527
 20
277.314225629556
 30
0.0
 10
46.20628426603393
 20
277.2442291397667
 30
0.0
 10
45.93851046730796
 20
277.2068733046704
 30
0.0
 10
45.86855831366821
 20
277.1892548353217
 30
0.0
 10
45.85679936776262
 20
277.1731745603331
 30
0.0
  0
LINE
  5
135
330
1F
100
AcDbEntity
  8
Make2D$___$___
100
AcDbLine
 10
66.84396090311871
 20
277.9857079729579
 30
0.0
 11
66.85673118030167
 21
277.973208151528
 31
0.0
  0
SPLINE
  5
136
330
1F
100
AcDbEntity
  8
Make2D$___$___
100
AcDbSpline
210
0.0
220
0.0
230
1.0
 70
     8
 71
     3
 72
    18
 73
    14
 74
     0
 42
0.000000001
 43
0.0000000001
 12
1.0
 22
0.0
 32
0.0
 13
1.0
 23
0.0
 33
0.0
 40
0.0
 40
0.0
 40
0.0
 40
0.0
 40
0.058737902832005
 40
0.2123307850428548
 40
0.8113713299720263
 40
3.237048910573936
 40
6.497666078230605
 40
15.28535295906912
 40
18.63656606656986
 40
20.44287135266712
 40
20.8950560625038
 40
20.99439187014382
 40
21.03416908988772
 40
21.03416908988772
 40
21.03416908988772
 40
21.03416908988772
 10
66.8567450591633
 20
279.5732348112779
 30
0.0
 10
66.84498609650804
 20
279.5571544055401
 30
0.0
 10
66.7750337630385
 20
279.5395365943667
 30
0.0
 10
66.50725928522861
 20
279.502180499214
 30
0.0
 10
65.44982840123994
 20
279.4321885847679
 30
0.0
 10
63.35612443240073
 20
279.3549356271513
 30
0.0
 10
58.53332513554552
 20
279.2197836405113
 30
0.0
 10
53.40133859368466
 20
279.1085627035037
 30
0.0
 10
48.75488300563221
 20
278.972562008948
 30
0.0
 10
46.88657631372121
 20
278.893941989199
 30
0.0
 10
46.10270657651636
 20
278.8331593492453
 30
0.0
 10
45.90828467045284
 20
278.8003410789487
 30
0.0
 10
45.86326281891122
 20
278.7854337459545
 30
0.0
 10
45.85675823511247
 20
278.7732535707042
 30
0.0
  0
LINE
  5
137
330
1F
100
AcDbEntity
  8
Make2D$___$___
100
AcDbLine
 10
66.843974959029
 20
279.5857347217177
 30
0.0
 11
66.8567450591633
 21
279.5732348112779
 31
0.0
  0
SPLINE
  5
138
330
1F
100
AcDbEntity
  8
Make2D$___$___
100
AcDbSpline
210
0.0
220
0.0
230
1.0
 70
     8
 71
     3
 72
    18
 73
    14
 74
     0
 42
0.000000001
 43
0.0000000001
 12
1.0
 22
0.0
 32
0.0
 13
1.0
 23
0.0
 33
0.0
 40
0.0
 40
0.0
 40
0.0
 40
0.0
 40
0.0397771406143358
 40
0.1391126746803352
 40
0.5912960163568884
 40
2.397596163660765
 40
5.748798142915227
 40
14.53645763624744
 40
17.79706497842706
 40
20.2227348596443
 40
20.82177389640554
 40
20.97536638663908
 40
21.03410415938741
 40
21.03410415938741
 40
21.03410415938741
 40
21.03410415938741
 10
66.85671456348729
 20
281.1731762338122
 30
0.0
 10
66.85021001526025
 20
281.1609960329913
 30
0.0
 10
66.80518828700974
 20
281.146088794989
 30
0.0
 10
66.61076697626632
 20
281.1132702897997
 30
0.0
 10
65.826899521897
 20
281.0524876436408
 30
0.0
 10
63.95859874643315
 20
280.9738666628188
 30
0.0
 10
59.31215777318004
 20
280.8378641463978
 30
0.0
 10
54.18018739733856
 20
280.7266409650707
 30
0.0
 10
49.35740311963109
 20
280.5914873900544
 30
0.0
 10
47.2637055619175
 20
280.514232789812
 30
0.0
 10
46.20627788733209
 20
280.4442409415124
 30
0.0
 10
45.93850407767826
 20
280.4068849738849
 30
0.0
 10
45.86855191666741
 20
280.3892671750284
 30
0.0
 10
45.85679300105522
 20
280.3731867893188
 30
0.0
  0
LINE
  5
139
330
1F
100
AcDbEntity
  8
Make2D$___$___
100
AcDbLine
 10
66.84394451619417
 20
281.1856762873323
 30
0.0
 11
66.85671456348729
 21
281.1731762338122
 31
0.0
  0
SPLINE
  5
13A
330
1F
100
AcDbEntity
  8
Make2D$___$___
100
AcDbSpline
210
0.0
220
0.0
230
1.0
 70
     8
 71
     3
 72
    13
 73
     9
 74
     0
 42
0.000000001
 43
0.0000000001
 12
1.0
 22
0.0
 32
0.0
 13
1.0
 23
0.0
 33
0.0
 40
0.0
 40
0.0
 40
0.0
 40
0.0
 40
0.0397854985985232
 40
0.1391226934976882
 40
0.591306572612986
 40
2.397609766117354
 40
5.385166840632441
 40
10.51707646644477
 40
10.51707646644477
 40
10.51707646644477
 40
10.51707646644477
 10
66.85672255644016
 20
276.3731915865951
 30
0.0
 10
66.85022366896976
 20
276.3610023756413
 30
0.0
 10
66.80520214574966
 20
276.3460839171636
 30
0.0
 10
66.61078332167628
 20
276.3132245618797
 30
0.0
 10
65.82691612803035
 20
276.252400212294
 30
0.0
 10
64.07973464999235
 20
276.1787330384014
 30
0.0
 10
60.77261829874834
 20
276.0790742818632
 30
0.0
 10
58.06689426581897
 20
276.0145432750374
 30
0.0
 10
56.35676790955421
 20
275.972778519459
 30
0.0
  0
LINE
  5
13B
330
1F
100
AcDbEntity
  8
Make2D$___$___
100
AcDbLine
 10
66.84395251742326
 20
276.385691594391
 30
0.0
 11
66.85672255644016
 21
276.3731915865951
 31
0.0
  0
SPLINE
  5
13C
330
1F
100
AcDbEntity
  8
Make2D$___$___
100
AcDbSpline
210
0.0
220
0.0
230
1.0
 70
     8
 71
     3
 72
    18
 73
    14
 74
     0
 42
0.000000001
 43
0.0000000001
 12
1.0
 22
0.0
 32
0.0
 13
1.0
 23
0.0
 33
0.0
 40
0.0
 40
0.0
 40
0.0
 40
0.0
 40
0.0397762569245158
 40
0.1737560480846405
 40
0.6608325812528928
 40
2.52991082911312
 40
5.933310553053629
 40
14.34488451922685
 40
17.49373154562439
 40
19.96840680679291
 40
20.6280730085922
 40
20.84116726809486
 40
20.97498423957507
 40
20.97498423957507
 40
20.97498423957507
 40
20.97498423957507
 10
66.85648301455569
 20
274.7727316202923
 30
0.0
 10
66.84994375157781
 20
274.7603360310452
 30
0.0
 10
66.7937481709364
 20
274.7426544533641
 30
0.0
 10
66.57596476947644
 20
274.7092124516477
 30
0.0
 10
65.74794119994193
 20
274.6479185778296
 30
0.0
 10
63.82964316835057
 20
274.5691337928663
 30
0.0
 10
59.2701740831304
 20
274.4372743804828
 30
0.0
 10
54.28339567369391
 20
274.3279276861032
 30
0.0
 10
49.60682094629298
 20
274.1986820563995
 30
0.0
 10
47.51367629970676
 20
274.1243277727841
 30
0.0
 10
46.39970628655956
 20
274.058541768878
 30
0.0
 10
46.06577240654971
 20
274.0249124790408
 30
0.0
 10
45.95131846562631
 20
274.0082096257687
 30
0.0
 10
45.90786001039866
 20
273.997901491489
 30
0.0
  0
LINE
  5
13D
330
1F
100
AcDbEntity
  8
Make2D$___$___
100
AcDbLine
 10
66.84371289719978
 20
274.7852314806787
 30
0.0
 11
66.85648301455569
 21
274.7727316202923
 31
0.0
  0
SPLINE
  5
13E
330
1F
100
AcDbEntity
  8
Make2D$___$___
100
AcDbSpline
210
0.0
220
0.0
230
1.0
 70
     8
 71
     3
 72
    13
 73
     9
 74
     0
 42
0.000000001
 43
0.0000000001
 12
1.0
 22
0.0
 32
0.0
 13
1.0
 23
0.0
 33
0.0
 40
0.0
 40
0.0
 40
0.0
 40
0.0
 40
5.131878215180517
 40
8.119407482220863
 40
9.925682166759586
 40
10.37785002420715
 40
10.47717799800773
 40
10.5169463319973
 40
10.5169463319973
 40
10.5169463319973
 40
10.5169463319973
 10
56.35676790955421
 20
275.972778519459
 30
0.0
 10
54.64665076422042
 20
275.9310643152613
 30
0.0
 10
51.94094427961605
 20
275.8666299707895
 30
0.0
 10
48.63385206404678
 20
275.7671419373068
 30
0.0
 10
46.88668970125818
 20
275.6936008397186
 30
0.0
 10
46.10283376300978
 20
275.6328694077832
 30
0.0
 10
45.9084222898929
 20
275.6000557174391
 30
0.0
 10
45.86340357333616
 20
275.5851594207447
 30
0.0
 10
45.85689998891365
 20
275.5729813156888
 30
0.0
  0
SPLINE
  5
13F
330
1F
100
AcDbEntity
  8
Make2D$___$___
100
AcDbSpline
210
0.0
220
0.0
230
1.0
 70
     8
 71
     3
 72
    12
 73
     8
 74
     0
 42
0.000000001
 43
0.0000000001
 12
1.0
 22
0.0
 32
0.0
 13
1.0
 23
0.0
 33
0.0
 40
0.0
 40
0.0
 40
0.0
 40
0.0
 40
0.0413308293757745
 40
0.12540574139645
 40
0.4035042998589015
 40
1.332847591353719
 40
5.107497467757382
 40
5.107497467757382
 40
5.107497467757382
 40
5.107497467757382
 10
65.64045479495344
 20
272.1833268545889
 30
0.0
 10
65.62790007650032
 20
272.1775859243148
 30
0.0
 10
65.58768445654528
 20
272.165809346787
 30
0.0
 10
65.45514409441513
 20
272.1423509622388
 30
0.0
 10
65.02669359273918
 20
272.0986417987993
 30
0.0
 10
63.36855131490842
 20
272.0041009354493
 30
0.0
 10
61.80113158871456
 20
271.9567868159814
 30
0.0
 10
60.54357860748371
 20
271.9168345554216
 30
0.0
  0
LINE
  5
140
330
1F
100
AcDbEntity
  8
Make2D$___$___
100
AcDbLine
 10
65.65544502510787
 20
272.2008674927071
 30
0.0
 11
65.65302011556935
 21
272.1916876415667
 31
0.0
  0
SPLINE
  5
141
330
1F
100
AcDbEntity
  8
Make2D$___$___
100
AcDbSpline
210
0.0
220
0.0
230
1.0
 70
     8
 71
     3
 72
    18
 73
    14
 74
     0
 42
0.000000001
 43
0.0000000001
 12
1.0
 22
0.0
 32
0.0
 13
1.0
 23
0.0
 33
0.0
 40
0.0
 40
0.0
 40
0.0
 40
0.0
 40
0.0963827221561112
 40
0.2783600331143544
 40
0.8923709560009072
 40
3.012242722250469
 40
5.958662395840846
 40
13.50427739415778
 40
16.25315933606398
 40
17.93921752054872
 40
18.41370874926302
 40
18.54871830705956
 40
18.60830389104851
 40
18.60830389104851
 40
18.60830389104851
 40
18.60830389104851
 10
65.64596404659032
 20
273.7847053977803
 30
0.0
 10
65.61634116902319
 20
273.7718243874614
 30
0.0
 10
65.52522212948377
 20
273.7532905122736
 30
0.0
 10
65.22991647537886
 20
273.7165312026457
 30
0.0
 10
64.26010415892654
 20
273.649827185925
 30
0.0
 10
62.36815062482246
 20
273.5731120081197
 30
0.0
 10
58.16623680690599
 20
273.4418602230013
 30
0.0
 10
53.75389032723914
 20
273.3329729798672
 30
0.0
 10
49.76250816632683
 20
273.2019135603799
 30
0.0
 10
48.12764952096353
 20
273.127330400136
 30
0.0
 10
47.36463004088341
 20
273.0675528408795
 30
0.0
 10
47.14384087184823
 20
273.0349552255408
 30
0.0
 10
47.08086689674062
 20
273.0185136426611
 30
0.0
 10
47.06344103457702
 20
273.008656153579
 30
0.0
  0
SPLINE
  5
142
330
1F
100
AcDbEntity
  8
Make2D$___$___
100
AcDbSpline
210
0.0
220
0.0
230
1.0
 70
     8
 71
     3
 72
    18
 73
    14
 74
     0
 42
0.000000001
 43
0.0000000001
 12
1.0
 22
0.0
 32
0.0
 13
1.0
 23
0.0
 33
0.0
 40
0.0
 40
0.0
 40
0.0
 40
0.0
 40
0.0505779496338996
 40
0.1756927518846851
 40
0.6254644485364332
 40
2.242155855203444
 40
5.188695630490106
 40
12.73916457356331
 40
15.46760320611729
 40
17.71221760663542
 40
18.32026552064328
 40
18.51409164892027
 40
18.60010192858739
 40
18.60010192858739
 40
18.60010192858739
 40
18.60010192858739
 10
65.64464972063813
 20
275.3862386300957
 30
0.0
 10
65.62966807051701
 20
275.3781977713107
 30
0.0
 10
65.5730879050898
 20
275.3626094263824
 30
0.0
 10
65.36688498354879
 20
275.3303307905255
 30
0.0
 10
64.63858313576041
 20
275.2713955539489
 30
0.0
 10
62.96925451511353
 20
275.1943334820837
 30
0.0
 10
58.93351676863762
 20
275.0620423902964
 30
0.0
 10
54.52631222911392
 20
274.9534152268343
 30
0.0
 10
50.35386254459332
 20
274.8227886515598
 30
0.0
 10
48.49490751497736
 20
274.748328662312
 30
0.0
 10
47.48159628328308
 20
274.6795525325271
 30
0.0
 10
47.18780391775972
 20
274.6424993629751
 30
0.0
 10
47.09640707218303
 20
274.6229586664395
 30
0.0
 10
47.07015310960557
 20
274.6110004809635
 30
0.0
  0
LINE
  5
143
330
1F
100
AcDbEntity
  8
Make2D$___$___
100
AcDbLine
 10
65.65228710958179
 20
275.4045983365569
 30
0.0
 11
65.65445878908797
 21
275.3954184925503
 31
0.0
  0
LINE
  5
144
330
1F
100
AcDbEntity
  8
Make2D$___$___
100
AcDbLine
 10
47.05790315182467
 20
276.2032072682096
 30
0.0
 11
47.05758585627876
 21
276.1940276262069
 31
0.0
  0
SPLINE
  5
145
330
1F
100
AcDbEntity
  8
Make2D$___$___
100
AcDbSpline
210
0.0
220
0.0
230
1.0
 70
     8
 71
     3
 72
    13
 73
     9
 74
     0
 42
0.000000001
 43
0.0000000001
 12
1.0
 22
0.0
 32
0.0
 13
1.0
 23
0.0
 33
0.0
 40
0.0
 40
0.0
 40
0.0
 40
0.0
 40
4.379126672015489
 40
6.995937534826161
 40
8.66210709559194
 40
9.094403633663518
 40
9.234543607023515
 40
9.299416585444785
 40
9.299416585444785
 40
9.299416585444785
 40
9.299416585444785
 10
56.35675590516848
 20
276.597947835827
 30
0.0
 10
54.89760541590231
 20
276.557840755257
 30
0.0
 10
52.56645492464346
 20
276.4947300591987
 30
0.0
 10
49.68069780663369
 20
276.3984676897834
 30
0.0
 10
48.11049400561826
 20
276.3263986608108
 30
0.0
 10
47.3664813479925
 20
276.2674104630825
 30
0.0
 10
47.15608528454248
 20
276.2370721522019
 30
0.0
 10
47.08946045013619
 20
276.2212670252349
 30
0.0
 10
47.06974790540708
 20
276.2121002739009
 30
0.0
  0
SPLINE
  5
146
330
1F
100
AcDbEntity
  8
Make2D$___$___
100
AcDbSpline
210
0.0
220
0.0
230
1.0
 70
     8
 71
     3
 72
    12
 73
     8
 74
     0
 42
0.000000001
 43
0.0000000001
 12
1.0
 22
0.0
 32
0.0
 13
1.0
 23
0.0
 33
0.0
 40
0.0
 40
0.0
 40
0.0
 40
0.0
 40
0.0283018376019575
 40
0.1076622590116503
 40
0.3759411961634178
 40
1.458358399784512
 40
5.94458376936578
 40
5.94458376936578
 40
5.94458376936578
 40
5.94458376936578
 10
65.85381723082673
 20
272.0947825447407
 30
0.0
 10
65.84603380011526
 20
272.0891712573646
 30
0.0
 10
65.81106911118638
 20
272.0802882905052
 30
0.0
 10
65.68679482072619
 20
272.0636779253968
 30
0.0
 10
65.21109769894042
 20
272.031371322351
 30
0.0
 10
63.26659458990391
 20
271.962822411008
 30
0.0
 10
61.4106376873887
 20
271.9286715212998
 30
0.0
 10
59.9155570435807
 20
271.8979243968616
 30
0.0
  0
LINE
  5
147
330
1F
100
AcDbEntity
  8
Make2D$___$___
100
AcDbLine
 10
46.33598174023414
 20
272.6286159826664
 30
0.0
 11
46.33343742785371
 21
272.6211687261916
 31
0.0
  0
SPLINE
  5
148
330
1F
100
AcDbEntity
  8
Make2D$___$___
100
AcDbSpline
210
0.0
220
0.0
230
1.0
 70
     8
 71
     3
 72
    16
 73
    12
 74
     0
 42
0.000000001
 43
0.0000000001
 12
1.0
 22
0.0
 32
0.0
 13
1.0
 23
0.0
 33
0.0
 40
0.0
 40
0.0
 40
0.0
 40
0.0
 40
1.409762118051602
 40
3.73321896930133
 40
13.82983896963574
 40
17.12151640155371
 40
19.30771287245121
 40
19.83894545825581
 40
19.99646895620456
 40
20.04407963916591
 40
20.07112890330735
 40
20.07112890330735
 40
20.07112890330735
 40
20.07112890330735
 10
66.40054518205142
 20
273.0974235200044
 30
0.0
 10
65.93116961528402
 20
273.0746677705084
 30
0.0
 10
64.68735498291673
 20
273.034840981667
 30
0.0
 10
60.07842488261637
 20
272.937478853336
 30
0.0
 10
54.84161876535036
 20
272.8654975059142
 30
0.0
 10
49.65107749455579
 20
272.7662125485517
 30
0.0
 10
47.64864012438174
 20
272.7155655642924
 30
0.0
 10
46.69126467541068
 20
272.6715663898289
 30
0.0
 10
46.44665396581266
 20
272.6502172093357
 30
0.0
 10
46.37003781135502
 20
272.6392104674304
 30
0.0
 10
46.34580365464116
 20
272.633137133545
 30
0.0
 10
46.33754832498123
 20
272.6294703149671
 30
0.0
  0
SPLINE
  5
149
330
1F
100
AcDbEntity
  8
Make2D$___$___
100
AcDbSpline
210
0.0
220
0.0
230
1.0
 70
     8
 71
     3
 72
     8
 73
     4
 74
     0
 42
0.000000001
 43
0.0000000001
 12
1.0
 22
0.0
 32
0.0
 13
1.0
 23
0.0
 33
0.0
 40
-0.0999514204347607
 40
-0.0999514204347607
 40
-0.0999514204347607
 40
-0.0999514204347607
 40
0.0
 40
0.0
 40
0.0
 40
0.0
 10
66.84413650790528
 20
273.1849136402832
 30
0.0
 10
66.90081903264108
 20
273.1557486998025
 30
0.0
 10
66.75105123473864
 20
273.1265853142951
 30
0.0
 10
66.40054518205142
 20
273.0974235200044
 30
0.0
  0
LINE
  5
14A
330
1F
100
AcDbEntity
  8
Make2D$___$___
100
AcDbLine
 10
46.33343742785371
 20
272.6211687261916
 30
0.0
 11
47.3567565299951
 21
271.597937306856
 31
0.0
  0
LINE
  5
14B
330
1F
100
AcDbEntity
  8
Make2D$___$___
100
AcDbLine
 10
65.35675652999578
 20
271.597937306856
 30
0.0
 11
65.84439085070292
 21
272.0853602507087
 31
0.0
  0
LINE
  5
14C
330
1F
100
AcDbEntity
  8
Make2D$___$___
100
AcDbLine
 10
65.8504366508064
 20
272.1029844345719
 30
0.0
 11
65.85381723082673
 21
272.0947825447407
 31
0.0
  0
SPLINE
  5
14D
330
1F
100
AcDbEntity
  8
Make2D$___$___
100
AcDbSpline
210
0.0
220
0.0
230
1.0
 70
     8
 71
     3
 72
    13
 73
     9
 74
     0
 42
0.000000001
 43
0.0000000001
 12
1.0
 22
0.0
 32
0.0
 13
1.0
 23
0.0
 33
0.0
 40
0.0
 40
0.0
 40
0.0
 40
0.0
 40
5.131910191113774
 40
8.119466289257806
 40
9.925764722717066
 40
10.37794180582076
 40
10.47727240062661
 40
10.51703883432991
 40
10.51703883432991
 40
10.51703883432991
 40
10.51703883432991
 10
56.35674429947971
 20
277.2231101345793
 30
0.0
 10
58.06687256701669
 20
277.2648058224805
 30
0.0
 10
60.77259944757228
 20
277.3292056083471
 30
0.0
 10
64.0797210494057
 20
277.4286314141669
 30
0.0
 10
65.82690517037932
 20
277.5021273780036
 30
0.0
 10
66.61077545156807
 20
277.5628242816
 30
0.0
 10
66.80519284208373
 20
277.5956218131823
 30
0.0
 10
66.85021381408964
 20
277.610509854316
 30
0.0
 10
66.85672215750884
 20
277.6226837934225
 30
0.0
  0
SPLINE
  5
14E
330
1F
100
AcDbEntity
  8
Make2D$___$___
100
AcDbSpline
210
0.0
220
0.0
230
1.0
 70
     8
 71
     3
 72
    13
 73
     9
 74
     0
 42
0.000000001
 43
0.0000000001
 12
1.0
 22
0.0
 32
0.0
 13
1.0
 23
0.0
 33
0.0
 40
0.0
 40
0.0
 40
0.0
 40
0.0
 40
0.0750024070008167
 40
0.193811483276442
 40
0.6382578658696885
 40
2.329858893416225
 40
5.015363945801496
 40
9.299957380265043
 40
9.299957380265043
 40
9.299957380265043
 40
9.299957380265043
 10
65.64411071931664
 20
276.9846664519707
 30
0.0
 10
65.62142342736729
 20
276.9739185522496
 30
0.0
 10
65.55820122132505
 20
276.9596155475796
 30
0.0
 10
65.34762826639599
 20
276.9284590665495
 30
0.0
 10
64.59819750502413
 20
276.8689456996251
 30
0.0
 10
62.99258528926292
 20
276.7958830589449
 30
0.0
 10
60.10694846657143
 20
276.6999555883384
 30
0.0
 10
57.78440713714706
 20
276.6372316977365
 30
0.0
 10
56.35675590516849
 20
276.597947835827
 30
0.0
  0
SPLINE
  5
14F
330
1F
100
AcDbEntity
  8
Make2D$___$___
100
AcDbSpline
210
0.0
220
0.0
230
1.0
 70
     8
 71
     3
 72
    19
 73
    15
 74
     0
 42
0.000000001
 43
0.0000000001
 12
1.0
 22
0.0
 32
0.0
 13
1.0
 23
0.0
 33
0.0
 40
0.0
 40
0.0
 40
0.0
 40
0.0
 40
0.0831662984591264
 40
0.2059754581134586
 40
0.659352088543375
 40
2.254636315440524
 40
5.219070655479928
 40
12.70101097664728
 40
15.58997579880105
 40
17.78361434839631
 40
18.34151461301542
 40
18.50790929054154
 40
18.57090156923311
 40
18.59901831776747
 40
18.59901831776747
 40
18.59901831776747
 40
18.59901831776747
 10
65.64376780703394
 20
278.5847539965349
 30
0.0
 10
65.61848901101595
 20
278.5730985360887
 30
0.0
 10
65.55118972214622
 20
278.5583700100628
 30
0.0
 10
65.33356407785817
 20
278.5272190664115
 30
0.0
 10
64.61181291375817
 20
278.4702352274059
 30
0.0
 10
62.94247736475769
 20
278.3932340907792
 30
0.0
 10
58.93071018845078
 20
278.2622499927634
 30
0.0
 10
54.4869066337448
 20
278.1522606026872
 30
0.0
 10
50.3007888928112
 20
278.0212538312772
 30
0.0
 10
48.42208042214376
 20
277.9447693511581
 30
0.0
 10
47.45169801697874
 20
277.876541472054
 30
0.0
 10
47.19128709629911
 20
277.8425225312895
 30
0.0
 10
47.10713472563714
 20
277.8256133045742
 30
0.0
 10
47.07828528476706
 20
277.8156475248795
 30
0.0
 10
47.06993027620469
 20
277.8113968295923
 30
0.0
  0
LINE
  5
150
330
1F
100
AcDbEntity
  8
Make2D$___$___
100
AcDbLine
 10
65.65498230570228
 20
278.6018524283538
 30
0.0
 11
65.6517998229674
 21
278.5901338440929
 31
0.0
  0
SPLINE
  5
151
330
1F
100
AcDbEntity
  8
Make2D$___$___
100
AcDbSpline
210
0.0
220
0.0
230
1.0
 70
     8
 71
     3
 72
    18
 73
    14
 74
     0
 42
0.000000001
 43
0.0000000001
 12
1.0
 22
0.0
 32
0.0
 13
1.0
 23
0.0
 33
0.0
 40
0.0
 40
0.0
 40
0.0
 40
0.0
 40
0.0897151571334448
 40
0.2561393818750687
 40
0.8139545460266083
 40
3.007495729204329
 40
5.896512084205743
 40
13.3788556044061
 40
16.34354762053861
 40
17.93909912318232
 40
18.39188565041086
 40
18.53774258439999
 40
18.59983385046397
 40
18.59983385046397
 40
18.59983385046397
 40
18.59983385046397
 10
65.64241828566577
 20
280.1838826467629
 30
0.0
 10
65.6148820350837
 20
280.1718386011019
 30
0.0
 10
65.53106513491328
 20
280.1546137271591
 30
0.0
 10
65.26193851351434
 20
280.119317736476
 30
0.0
 10
64.29157015641337
 20
280.0511309002927
 30
0.0
 10
62.41292256209253
 20
279.9746314442702
 30
0.0
 10
58.22667915279128
 20
279.8436294177018
 30
0.0
 10
53.7826381337554
 20
279.7336448967253
 30
0.0
 10
49.77056777876213
 20
279.6026421187484
 30
0.0
 10
48.10123749432902
 20
279.5256703552414
 30
0.0
 10
47.37197223487659
 20
279.4680259229405
 30
0.0
 10
47.15383469748586
 20
279.4364533865916
 30
0.0
 10
47.0864037346655
 20
279.4197839847564
 30
0.0
 10
47.06776262609259
 20
279.4104389084595
 30
0.0
  0
LINE
  5
152
330
1F
100
AcDbEntity
  8
Make2D$___$___
100
AcDbLine
 10
47.05983142359982
 20
281.0041875437152
 30
0.0
 11
47.05920407183061
 21
280.9924686453527
 31
0.0
  0
SPLINE
  5
153
330
1F
100
AcDbEntity
  8
Make2D$___$___
100
AcDbSpline
210
0.0
220
0.0
230
1.0
 70
     8
 71
     3
 72
    18
 73
    14
 74
     0
 42
0.000000001
 43
0.0000000001
 12
1.0
 22
0.0
 32
0.0
 13
1.0
 23
0.0
 33
0.0
 40
0.0
 40
0.0
 40
0.0
 40
0.0
 40
0.0919489696871933
 40
0.2707910268727658
 40
0.8392271253397885
 40
3.051377893626147
 40
5.951307522784239
 40
13.4314582231822
 40
16.26969740675866
 40
17.95640534028476
 40
18.41089484836861
 40
18.54118439955222
 40
18.59884385838215
 40
18.59884385838215
 40
18.59884385838215
 40
18.59884385838215
 10
65.6435857153376
 20
281.7845677613923
 30
0.0
 10
65.61547901457209
 20
281.7719423118127
 30
0.0
 10
65.52686082917756
 20
281.7536422779285
 30
0.0
 10
65.24927126923187
 20
281.718180951181
 30
0.0
 10
64.26500658283167
 20
281.6497734201359
 30
0.0
 10
62.37296673857999
 20
281.5732822684799
 30
0.0
 10
58.17761271004081
 20
281.4422739411951
 30
0.0
 10
53.77279342260003
 20
281.3334257029079
 30
0.0
 10
49.77323284584925
 20
281.2024537234949
 30
0.0
 10
48.11504374157059
 20
281.1268542274788
 30
0.0
 10
47.36009960698304
 20
281.0670054914171
 30
0.0
 10
47.14814037593557
 20
281.0350998314083
 30
0.0
 10
47.08731677321698
 20
281.0196882561553
 30
0.0
 10
47.06988538751622
 20
281.0112927505514
 30
0.0
  0
SPLINE
  5
154
330
1F
100
AcDbEntity
  8
Make2D$___$___
100
AcDbSpline
210
0.0
220
0.0
230
1.0
 70
     8
 71
     3
 72
    18
 73
    14
 74
     0
 42
0.000000001
 43
0.0000000001
 12
1.0
 22
0.0
 32
0.0
 13
1.0
 23
0.0
 33
0.0
 40
0.0
 40
0.0
 40
0.0
 40
0.0
 40
0.058737791740596
 40
0.2123303043849607
 40
0.8113693838394636
 40
3.237039344936266
 40
6.497646750363712
 40
15.28530637971485
 40
18.6365084310001
 40
20.44280864908893
 40
20.89499202989973
 40
20.99432758198132
 40
21.03410473708406
 40
21.03410473708406
 40
21.03410473708406
 40
21.03410473708406
 10
45.85679335589435
 20
281.6226885059328
 30
0.0
 10
45.86855226815796
 20
281.6387689021561
 30
0.0
 10
45.93850442481805
 20
281.6563867685986
 30
0.0
 10
46.20627822726965
 20
281.6937429935416
 30
0.0
 10
47.26370588308582
 20
281.7637358545672
 30
0.0
 10
49.35740342894766
 20
281.8409924581051
 30
0.0
 10
54.18018767043844
 20
281.9761506451313
 30
0.0
 10
59.31215803043233
 20
282.0873787334818
 30
0.0
 10
63.958598966561
 20
282.2233856935107
 30
0.0
 10
65.82689972754022
 20
282.3020084622958
 30
0.0
 10
66.61076716632746
 20
282.3627918595326
 30
0.0
 10
66.80518846994326
 20
282.3956105517569
 30
0.0
 10
66.85021019405887
 20
282.4105178329155
 30
0.0
 10
66.85671474065038
 20
282.4226980395927
 30
0.0
  0
LINE
  5
155
330
1F
100
AcDbEntity
  8
Make2D$___$___
100
AcDbLine
 10
45.86956345713863
 20
281.610188538041
 30
0.0
 11
45.85679335589435
 21
281.6226885059328
 31
0.0
  0
SPLINE
  5
156
330
1F
100
AcDbEntity
  8
Make2D$___$___
100
AcDbSpline
210
0.0
220
0.0
230
1.0
 70
     8
 71
     3
 72
    18
 73
    14
 74
     0
 42
0.000000001
 43
0.0000000001
 12
1.0
 22
0.0
 32
0.0
 13
1.0
 23
0.0
 33
0.0
 40
0.0
 40
0.0
 40
0.0
 40
0.0
 40
0.0397772477187123
 40
0.1391130904175813
 40
0.5912978775052545
 40
2.397603308042966
 40
5.748816569625494
 40
14.53650375284575
 40
17.79712105727766
 40
20.22279880269793
 40
20.8218394324621
 40
20.97543235844456
 40
21.03417029799374
 40
21.03417029799374
 40
21.03417029799374
 40
21.03417029799374
 10
45.85675807332495
 20
280.0226207322183
 30
0.0
 10
45.86326265403645
 20
280.0348009187384
 30
0.0
 10
45.90828449783416
 20
280.0497083346627
 30
0.0
 10
46.10270639107821
 20
280.0825269644173
 30
0.0
 10
46.8865761019722
 20
280.1433110478342
 30
0.0
 10
48.75488277475274
 20
280.2219345037429
 30
0.0
 10
53.40133831314423
 20
280.357943738184
 30
0.0
 10
58.53332484850472
 20
280.4691741056846
 30
0.0
 10
63.35612409826626
 20
280.6043349558612
 30
0.0
 10
65.44982805410628
 20
280.6815917634844
 30
0.0
 10
66.50725890696377
 20
280.751585624224
 30
0.0
 10
66.77503337217713
 20
280.7889422138906
 30
0.0
 10
66.84498569760456
 20
280.8065601549413
 30
0.0
 10
66.85674465391429
 20
280.8226405808988
 30
0.0
  0
LINE
  5
157
330
1F
100
AcDbEntity
  8
Make2D$___$___
100
AcDbLine
 10
45.86952814364648
 20
280.010120741804
 30
0.0
 11
45.85675807332495
 21
280.0226207322183
 31
0.0
  0
SPLINE
  5
158
330
1F
100
AcDbEntity
  8
Make2D$___$___
100
AcDbSpline
210
0.0
220
0.0
230
1.0
 70
     8
 71
     3
 72
    18
 73
    14
 74
     0
 42
0.000000001
 43
0.0000000001
 12
1.0
 22
0.0
 32
0.0
 13
1.0
 23
0.0
 33
0.0
 40
0.0
 40
0.0
 40
0.0
 40
0.0
 40
0.0587377664859261
 40
0.2123302417453461
 40
0.8113692330136407
 40
3.237041005169681
 40
6.497651093174229
 40
15.28530613781277
 40
18.63651929230578
 40
20.44281886448338
 40
20.89500208634269
 40
20.99433729658248
 40
21.03411435494884
 40
21.03411435494884
 40
21.03411435494884
 40
21.03411435494884
 10
45.85679925983771
 20
278.4226998460698
 30
0.0
 10
45.86855817851723
 20
278.4387800866833
 30
0.0
 10
45.9385103256709
 20
278.4563983218583
 30
0.0
 10
46.20628415130393
 20
278.4937532882893
 30
0.0
 10
47.26371244287658
 20
278.5637463587071
 30
0.0
 10
49.35741175055708
 20
278.6409940139418
 30
0.0
 10
54.18019615801841
 20
278.7761462083243
 30
0.0
 10
59.31216972360037
 20
278.8873658694114
 30
0.0
 10
63.95861305127838
 20
279.0233592407928
 30
0.0
 10
65.82691740146389
 20
279.101977219478
 30
0.0
 10
66.61078465878748
 20
279.1627589482572
 30
0.0
 10
66.80520571986716
 20
279.195577555709
 30
0.0
 10
66.85022718877218
 20
279.2104854490746
 30
0.0
 10
66.85673165252297
 20
279.2226655550867
 30
0.0
  0
LINE
  5
159
330
1F
100
AcDbEntity
  8
Make2D$___$___
100
AcDbLine
 10
45.86956959513915
 20
278.4102001368034
 30
0.0
 11
45.85679925983771
 21
278.4226998460698
 31
0.0
  0
SPLINE
  5
15A
330
1F
100
AcDbEntity
  8
Make2D$___$___
100
AcDbSpline
210
0.0
220
0.0
230
1.0
 70
    24
 71
     3
 72
    11
 73
     7
 74
     0
 42
0.000000001
 43
0.0000000001
 12
1.0
 22
0.0
 32
0.0
 13
1.0
 23
0.0
 33
0.0
 40
0.4687500000002
 40
0.4687500000002
 40
0.4687500000002
 40
0.4687500000002
 40
0.5000000000002
 40
0.7500000000003
 40
0.8750000000003
 40
1.0
 40
1.0
 40
1.0
 40
1.0
 10
133.149189343647
 20
294.27703662275
 30
0.0
 10
133.1491017693309
 20
294.2736922947613
 30
0.0
 10
133.1487070214021
 20
294.2586174815182
 30
0.0
 10
133.1532656140901
 20
294.4327031156822
 30
0.0
 10
133.1671074076439
 20
294.9612998888273
 30
0.0
 10
133.1767515348666
 20
295.3295942504013
 30
0.0
 10
133.1822435406045
 20
295.539325488811
 30
0.0
  0
LINE
  5
15B
330
1F
100
AcDbEntity
  8
Make2D$___$___
100
AcDbLine
 10
129.4266820261213
 20
321.297937306844
 30
0.0
 11
132.8302278127883
 21
321.2979373068564
 31
0.0
  0
ARC
  5
15C
330
1F
100
AcDbEntity
  8
Make2D$___$___
100
AcDbCircle
 10
132.830227812686
 20
320.2979373039918
 30
0.0
 40
1.000000002864567
100
AcDbArc
 50
358.5000619936765
 51
89.99999999413923
  0
LINE
  5
15D
330
1F
100
AcDbEntity
  8
Make2D$___$___
100
AcDbLine
 10
133.8298851684285
 20
320.2717614212135
 30
0.0
 11
133.5584295439457
 21
309.9052902747813
 31
0.0
  0
LINE
  5
15E
330
1F
100
AcDbEntity
  8
Make2D$___$___
100
AcDbLine
 10
133.5584295405203
 20
309.9052901439692
 30
0.0
 11
133.2014208297285
 21
296.2716773636079
 31
0.0
  0
ARC
  5
15F
330
1F
100
AcDbEntity
  8
Make2D$___$___
100
AcDbCircle
 10
132.2017656982748
 20
296.2979373172328
 30
0.0
 40
1.000000010377179
100
AcDbArc
 50
269.9999782995786
 51
358.4858928847128
  0
LINE
  5
160
330
1F
100
AcDbEntity
  8
Make2D$___$___
100
AcDbLine
 10
133.1987221245761
 20
296.1686173171882
 30
0.0
 11
133.182244257478
 21
295.539352865109
 31
0.0
  0
ARC
  5
161
330
1F
100
AcDbEntity
  8
Make2D$___$___
100
AcDbCircle
 10
101.9666640591665
 20
426.7979373067679
 30
0.0
 40
133.4999999999115
100
AcDbArc
 50
259.9999999999222
 51
269.9999999999261
  0
ARC
  5
162
330
1F
100
AcDbEntity
  8
Make2D$___$___
100
AcDbCircle
 10
137.633528634104
 20
321.6865701656064
 30
0.0
 40
3.999999996624839
100
AcDbArc
 50
181.5000001913488
 51
195.4483486018481
  0
LINE
  5
163
330
1F
100
AcDbEntity
  8
Make2D$___$___
100
AcDbLine
 10
89.9364755037665
 20
351.2979373068564
 30
0.0
 11
89.34961074265486
 21
351.2979373068564
 31
0.0
  0
LINE
  5
164
330
1F
100
AcDbEntity
  8
Make2D$___$___
100
AcDbLine
 10
90.57785261131889
 20
351.2979373068563
 30
0.0
 11
89.95433476565461
 21
351.2979373068564
 31
0.0
  0
LINE
  5
165
330
1F
100
AcDbEntity
  8
Make2D$___$___
100
AcDbLine
 10
90.92419930568924
 20
351.2979373068563
 30
0.0
 11
90.72896639047545
 21
351.2979373068563
 31
0.0
  0
LINE
  5
166
330
1F
100
AcDbEntity
  8
Make2D$___$___
100
AcDbLine
 10
91.28332601104256
 20
351.2979373068565
 30
0.0
 11
91.08136330875836
 21
351.2979373068564
 31
0.0
  0
LINE
  5
167
330
1F
100
AcDbEntity
  8
Make2D$___$___
100
AcDbLine
 10
91.65494604586911
 20
351.2979373068563
 30
0.0
 11
91.5899129482908
 21
351.2979373068563
 31
0.0
  0
LINE
  5
168
330
1F
100
AcDbEntity
  8
Make2D$___$___
100
AcDbLine
 10
92.04849038974524
 20
351.2979373068563
 30
0.0
 11
92.03874600053699
 21
351.2979373068563
 31
0.0
  0
LINE
  5
169
330
1F
100
AcDbEntity
  8
Make2D$___$___
100
AcDbLine
 10
92.43438657689683
 20
351.2979373068564
 30
0.0
 11
92.212993862555
 21
351.2979373068564
 31
0.0
  0
LINE
  5
16A
330
1F
100
AcDbEntity
  8
Make2D$___$___
100
AcDbLine
 10
92.84150356336711
 20
351.2979373068563
 30
0.0
 11
92.82609522797716
 21
351.2979373068564
 31
0.0
  0
LINE
  5
16B
330
1F
100
AcDbEntity
  8
Make2D$___$___
100
AcDbLine
 10
93.2597089398073
 20
351.2979373068563
 30
0.0
 11
93.02606395338934
 21
351.2979373068564
 31
0.0
  0
LINE
  5
16C
330
1F
100
AcDbEntity
  8
Make2D$___$___
100
AcDbLine
 10
93.70774561208958
 20
351.2979373068563
 30
0.0
 11
93.68859210523647
 21
351.2979373068564
 31
0.0
  0
LINE
  5
16D
330
1F
100
AcDbEntity
  8
Make2D$___$___
100
AcDbLine
 10
94.12772122027914
 20
351.2979373068564
 30
0.0
 11
93.88244360491225
 21
351.2979373068564
 31
0.0
  0
LINE
  5
16E
330
1F
100
AcDbEntity
  8
Make2D$___$___
100
AcDbLine
 10
95.50197835706948
 20
351.2979373068565
 30
0.0
 11
95.24051022586447
 21
351.2979373068563
 31
0.0
  0
LINE
  5
16F
330
1F
100
AcDbEntity
  8
Make2D$___$___
100
AcDbLine
 10
96.95118536332258
 20
351.2979373068564
 30
0.0
 11
96.67514896149419
 21
351.2979373068563
 31
0.0
  0
LINE
  5
170
330
1F
100
AcDbEntity
  8
Make2D$___$___
100
AcDbLine
 10
97.44848629903046
 20
351.2979373068563
 30
0.0
 11
97.16797197852576
 21
351.2979373068563
 31
0.0
  0
LINE
  5
171
330
1F
100
AcDbEntity
  8
Make2D$___$___
100
AcDbLine
 10
99.49435896808869
 20
351.2979373068563
 30
0.0
 11
99.19789548216701
 21
351.2979373068564
 31
0.0
  0
LINE
  5
172
330
1F
100
AcDbEntity
  8
Make2D$___$___
100
AcDbLine
 10
100.0172290932042
 20
351.2979373068563
 30
0.0
 11
99.71727775784817
 21
351.2979373068563
 31
0.0
  0
LINE
  5
173
330
1F
100
AcDbEntity
  8
Make2D$___$___
100
AcDbLine
 10
101.0727766651797
 20
351.2979373068565
 30
0.0
 11
100.7664555775047
 21
351.2979373068564
 31
0.0
  0
LINE
  5
174
330
1F
100
AcDbEntity
  8
Make2D$___$___
100
AcDbLine
 10
101.6321895895399
 20
351.2979373068563
 30
0.0
 11
101.2951558795263
 21
351.2979373068563
 31
0.0
  0
LINE
  5
175
330
1F
100
AcDbEntity
  8
Make2D$___$___
100
AcDbLine
 10
102.1377586993627
 20
351.2979373068564
 30
0.0
 11
101.8258761493609
 21
351.2979373068564
 31
0.0
  0
LINE
  5
176
330
1F
100
AcDbEntity
  8
Make2D$___$___
100
AcDbLine
 10
102.6724463281125
 20
351.2979373068565
 30
0.0
 11
102.3580847223059
 21
351.2979373068565
 31
0.0
  0
LINE
  5
177
330
1F
100
AcDbEntity
  8
Make2D$___$___
100
AcDbLine
 10
103.7436100019298
 20
351.2979373068564
 30
0.0
 11
103.4619251379933
 21
351.2979373068564
 31
0.0
  0
LINE
  5
178
330
1F
100
AcDbEntity
  8
Make2D$___$___
100
AcDbLine
 10
104.2790773030574
 20
351.2979373068563
 30
0.0
 11
103.9584713669729
 21
351.2979373068563
 31
0.0
  0
LINE
  5
179
330
1F
100
AcDbEntity
  8
Make2D$___$___
100
AcDbLine
 10
104.8437795759303
 20
351.2979373068564
 30
0.0
 11
104.4915210070768
 21
351.2979373068564
 31
0.0
  0
LINE
  5
17A
330
1F
100
AcDbEntity
  8
Make2D$___$___
100
AcDbLine
 10
105.3473582291021
 20
351.2979373068563
 30
0.0
 11
105.0235640724046
 21
351.2979373068563
 31
0.0
  0
LINE
  5
17B
330
1F
100
AcDbEntity
  8
Make2D$___$___
100
AcDbLine
 10
105.8792452760335
 20
351.2979373068563
 30
0.0
 11
105.5541418925015
 21
351.2979373068564
 31
0.0
  0
LINE
  5
17C
330
1F
100
AcDbEntity
  8
Make2D$___$___
100
AcDbLine
 10
106.4090384576649
 20
351.2979373068565
 30
0.0
 11
106.0828122342019
 21
351.2979373068565
 31
0.0
  0
LINE
  5
17D
330
1F
100
AcDbEntity
  8
Make2D$___$___
100
AcDbLine
 10
106.936314815543
 20
351.2979373068563
 30
0.0
 11
106.6767725436653
 21
351.2979373068564
 31
0.0
  0
LINE
  5
17E
330
1F
100
AcDbEntity
  8
Make2D$___$___
100
AcDbLine
 10
107.4606687367927
 20
351.2979373068563
 30
0.0
 11
107.1306841032418
 21
351.2979373068564
 31
0.0
  0
LINE
  5
17F
330
1F
100
AcDbEntity
  8
Make2D$___$___
100
AcDbLine
 10
108.0307763845967
 20
351.2979373068563
 30
0.0
 11
107.6532014477314
 21
351.2979373068563
 31
0.0
  0
LINE
  5
180
330
1F
100
AcDbEntity
  8
Make2D$___$___
100
AcDbLine
 10
108.6598525388407
 20
351.2979373068563
 30
0.0
 11
108.1701530379456
 21
351.2979373068563
 31
0.0
  0
LINE
  5
181
330
1F
100
AcDbEntity
  8
Make2D$___$___
100
AcDbLine
 10
109.1751741833262
 20
351.2979373068564
 30
0.0
 11
108.9183866487892
 21
351.2979373068564
 31
0.0
  0
LINE
  5
182
330
1F
100
AcDbEntity
  8
Make2D$___$___
100
AcDbLine
 10
109.685996518673
 20
351.2979373068564
 30
0.0
 11
109.3567565400374
 21
351.2979373068565
 31
0.0
  0
LINE
  5
183
330
1F
100
AcDbEntity
  8
Make2D$___$___
100
AcDbLine
 10
110.0302709784383
 20
351.2979373068563
 30
0.0
 11
109.7951264146754
 21
351.2979373068563
 31
0.0
  0
LINE
  5
184
330
1F
100
AcDbEntity
  8
Make2D$___$___
100
AcDbLine
 10
110.682736752311
 20
351.2979373068563
 30
0.0
 11
110.5433600228099
 21
351.2979373068564
 31
0.0
  0
LINE
  5
185
330
1F
100
AcDbEntity
  8
Make2D$___$___
100
AcDbLine
 10
111.1313816700214
 20
351.2979373068565
 30
0.0
 11
111.0603116125897
 21
351.2979373068564
 31
0.0
  0
LINE
  5
186
330
1F
100
AcDbEntity
  8
Make2D$___$___
100
AcDbLine
 10
111.7311371219055
 20
351.2979373068565
 30
0.0
 11
111.5828289190574
 21
351.2979373068563
 31
0.0
  0
LINE
  5
187
330
1F
100
AcDbEntity
  8
Make2D$___$___
100
AcDbLine
 10
112.2509206606224
 20
351.2979373068564
 30
0.0
 11
112.03674054867
 21
351.2979373068564
 31
0.0
  0
LINE
  5
188
330
1F
100
AcDbEntity
  8
Make2D$___$___
100
AcDbLine
 10
112.7733604025542
 20
351.2979373068564
 30
0.0
 11
112.4927627527928
 21
351.2979373068564
 31
0.0
  0
LINE
  5
189
330
1F
100
AcDbEntity
  8
Make2D$___$___
100
AcDbLine
 10
113.2980542345883
 20
351.2979373068565
 30
0.0
 11
112.9505268148081
 21
351.2979373068564
 31
0.0
  0
LINE
  5
18A
330
1F
100
AcDbEntity
  8
Make2D$___$___
100
AcDbLine
 10
113.82458340044
 20
351.2979373068563
 30
0.0
 11
113.5469463131673
 21
351.2979373068564
 31
0.0
  0
LINE
  5
18B
330
1F
100
AcDbEntity
  8
Make2D$___$___
100
AcDbLine
 10
114.330368299522
 20
351.2979373068565
 30
0.0
 11
114.2219921072612
 21
351.2979373068564
 31
0.0
  0
LINE
  5
18C
330
1F
100
AcDbEntity
  8
Make2D$___$___
100
AcDbLine
 10
114.8813919414763
 20
351.2979373068563
 30
0.0
 11
114.7550417045744
 21
351.2979373068563
 31
0.0
  0
LINE
  5
18D
330
1F
100
AcDbEntity
  8
Make2D$___$___
100
AcDbLine
 10
115.4107562311595
 20
351.2979373068564
 30
0.0
 11
115.2515879219787
 21
351.2979373068564
 31
0.0
  0
LINE
  5
18E
330
1F
100
AcDbEntity
  8
Make2D$___$___
100
AcDbLine
 10
115.9401269118557
 20
351.2979373068565
 30
0.0
 11
115.7112935528368
 21
351.2979373068564
 31
0.0
  0
LINE
  5
18F
330
1F
100
AcDbEntity
  8
Make2D$___$___
100
AcDbLine
 10
116.469012754265
 20
351.2979373068564
 30
0.0
 11
116.1697940775135
 21
351.2979373068563
 31
0.0
  0
LINE
  5
190
330
1F
100
AcDbEntity
  8
Make2D$___$___
100
AcDbLine
 10
116.9969109888841
 20
351.2979373068563
 30
0.0
 11
116.6266269187719
 21
351.2979373068563
 31
0.0
  0
LINE
  5
191
330
1F
100
AcDbEntity
  8
Make2D$___$___
100
AcDbLine
 10
117.5233085373801
 20
351.2979373068564
 30
0.0
 11
117.1091544383656
 21
351.2979373068565
 31
0.0
  0
LINE
  5
192
330
1F
100
AcDbEntity
  8
Make2D$___$___
100
AcDbLine
 10
118.0476830702141
 20
351.2979373068564
 30
0.0
 11
117.6407363945809
 21
351.2979373068565
 31
0.0
  0
LINE
  5
193
330
1F
100
AcDbEntity
  8
Make2D$___$___
100
AcDbLine
 10
118.5695054103386
 20
351.2979373068563
 30
0.0
 11
118.4278247445341
 21
351.2979373068564
 31
0.0
  0
LINE
  5
194
330
1F
100
AcDbEntity
  8
Make2D$___$___
100
AcDbLine
 10
119.0882394827949
 20
351.2979373068564
 30
0.0
 11
118.8691918431651
 21
351.2979373068564
 31
0.0
  0
LINE
  5
195
330
1F
100
AcDbEntity
  8
Make2D$___$___
100
AcDbLine
 10
119.6033448881586
 20
351.2979373068565
 30
0.0
 11
119.3060213606354
 21
351.2979373068564
 31
0.0
  0
LINE
  5
196
330
1F
100
AcDbEntity
  8
Make2D$___$___
100
AcDbLine
 10
120.1142783519211
 20
351.2979373068564
 30
0.0
 11
119.7378327713384
 21
351.2979373068565
 31
0.0
  0
LINE
  5
197
330
1F
100
AcDbEntity
  8
Make2D$___$___
100
AcDbLine
 10
120.5844987713146
 20
351.2979373068564
 30
0.0
 11
120.2523212044771
 21
351.2979373068564
 31
0.0
  0
LINE
  5
198
330
1F
100
AcDbEntity
  8
Make2D$___$___
100
AcDbLine
 10
121.1214516008441
 20
351.2979373068565
 30
0.0
 11
120.7615083184263
 21
351.2979373068564
 31
0.0
  0
LINE
  5
199
330
1F
100
AcDbEntity
  8
Make2D$___$___
100
AcDbLine
 10
121.6166053987048
 20
351.2979373068564
 30
0.0
 11
121.4054477346363
 21
351.2979373068564
 31
0.0
  0
LINE
  5
19A
330
1F
100
AcDbEntity
  8
Make2D$___$___
100
AcDbLine
 10
122.1054188496041
 20
351.2979373068564
 30
0.0
 11
121.8051445494808
 21
351.2979373068564
 31
0.0
  0
LINE
  5
19B
330
1F
100
AcDbEntity
  8
Make2D$___$___
100
AcDbLine
 10
123.0619044401197
 20
351.2979373068563
 30
0.0
 11
122.1970732540367
 21
351.2979373068563
 31
0.0
  0
LINE
  5
19C
330
1F
100
AcDbEntity
  8
Make2D$___$___
100
AcDbLine
 10
123.5285374361471
 20
351.2979373068564
 30
0.0
 11
123.322115529695
 21
351.2979373068564
 31
0.0
  0
LINE
  5
19D
330
1F
100
AcDbEntity
  8
Make2D$___$___
100
AcDbLine
 10
123.9867554012712
 20
351.2979373068565
 30
0.0
 11
123.6789159468916
 21
351.2979373068565
 31
0.0
  0
LINE
  5
19E
330
1F
100
AcDbEntity
  8
Make2D$___$___
100
AcDbLine
 10
124.4360678140656
 20
351.2979373068563
 30
0.0
 11
124.1368684552199
 21
351.2979373068564
 31
0.0
  0
LINE
  5
19F
330
1F
100
AcDbEntity
  8
Make2D$___$___
100
AcDbLine
 10
124.8759988989694
 20
351.2979373068565
 30
0.0
 11
124.6897319045476
 21
351.2979373068564
 31
0.0
  0
LINE
  5
1A0
330
1F
100
AcDbEntity
  8
Make2D$___$___
100
AcDbLine
 10
125.7258975692053
 20
351.2979373068563
 30
0.0
 11
125.6048426230501
 21
351.2979373068564
 31
0.0
  0
LINE
  5
1A1
330
1F
100
AcDbEntity
  8
Make2D$___$___
100
AcDbLine
 10
126.135001862102
 20
351.2979373068563
 30
0.0
 11
125.8874178041702
 21
351.2979373068563
 31
0.0
  0
LINE
  5
1A2
330
1F
100
AcDbEntity
  8
Make2D$___$___
100
AcDbLine
 10
126.5330011566842
 20
351.2979373068565
 30
0.0
 11
126.2791264133855
 21
351.2979373068565
 31
0.0
  0
LINE
  5
1A3
330
1F
100
AcDbEntity
  8
Make2D$___$___
100
AcDbLine
 10
126.9195166588203
 20
351.2979373068563
 30
0.0
 11
126.6747670152305
 21
351.2979373068564
 31
0.0
  0
LINE
  5
1A4
330
1F
100
AcDbEntity
  8
Make2D$___$___
100
AcDbLine
 10
127.2941929814438
 20
351.2979373068565
 30
0.0
 11
127.1236000964495
 21
351.2979373068564
 31
0.0
  0
LINE
  5
1A5
330
1F
100
AcDbEntity
  8
Make2D$___$___
100
AcDbLine
 10
127.6566992241427
 20
351.2979373068564
 30
0.0
 11
127.4301870487039
 21
351.2979373068564
 31
0.0
  0
LINE
  5
1A6
330
1F
100
AcDbEntity
  8
Make2D$___$___
100
AcDbLine
 10
128.0067299271123
 20
351.2979373068565
 30
0.0
 11
127.7893137540754
 21
351.2979373068564
 31
0.0
  0
LINE
  5
1A7
330
1F
100
AcDbEntity
  8
Make2D$___$___
100
AcDbLine
 10
128.3443859554158
 20
351.2979373068563
 30
0.0
 11
128.2065168165206
 21
351.2979373068563
 31
0.0
  0
LINE
  5
1A8
330
1F
100
AcDbEntity
  8
Make2D$___$___
100
AcDbLine
 10
128.6682748782264
 20
351.2979373068562
 30
0.0
 11
128.4702513792566
 21
351.2979373068563
 31
0.0
  0
LINE
  5
1A9
330
1F
100
AcDbEntity
  8
Make2D$___$___
100
AcDbLine
 10
129.2769208168273
 20
351.2979373068565
 30
0.0
 11
129.1067565299947
 21
351.2979373068564
 31
0.0
  0
LINE
  5
1AA
330
1F
100
AcDbEntity
  8
Make2D$___$___
100
AcDbLine
 10
129.5609322628172
 20
351.2979373068564
 30
0.0
 11
129.3884841418757
 21
351.2979373068563
 31
0.0
  0
LINE
  5
1AB
330
1F
100
AcDbEntity
  8
Make2D$___$___
100
AcDbLine
 10
129.8312061035052
 20
351.2979373068564
 30
0.0
 11
129.6676069848876
 21
351.2979373068563
 31
0.0
  0
LINE
  5
1AC
330
1F
100
AcDbEntity
  8
Make2D$___$___
100
AcDbLine
 10
130.0876302602008
 20
351.2979373068563
 30
0.0
 11
129.9328201425215
 21
351.2979373068564
 31
0.0
  0
LINE
  5
1AD
330
1F
100
AcDbEntity
  8
Make2D$___$___
100
AcDbLine
 10
130.3301207963634
 20
351.2979373068565
 30
0.0
 11
130.1840355756951
 21
351.2979373068564
 31
0.0
  0
LINE
  5
1AE
330
1F
100
AcDbEntity
  8
Make2D$___$___
100
AcDbLine
 10
132.3583220497539
 20
351.2979373068564
 30
0.0
 11
130.4211935673252
 21
351.2979373068563
 31
0.0
  0
ARC
  5
1AF
330
1F
100
AcDbEntity
  8
Make2D$___$___
100
AcDbCircle
 10
132.3696780945372
 20
350.7979373068547
 30
0.0
 40
0.5000000000017053
100
AcDbArc
 50
1.500000005471071
 51
90.0000000001954
  0
LINE
  5
1B0
330
1F
100
AcDbEntity
  8
Make2D$___$___
100
AcDbLine
 10
132.8695067570254
 20
350.8110257810564
 30
0.0
 11
133.6348993379254
 21
321.5818623591092
 31
0.0
  0
LINE
  5
1B1
330
1F
100
AcDbEntity
  8
Make2D$___$___
100
AcDbLine
 10
85.19177206668849
 20
325.9032052016815
 30
0.0
 11
85.84400630296545
 21
350.8110257810564
 31
0.0
  0
LINE
  5
1B2
330
1F
100
AcDbEntity
  8
Make2D$___$___
100
AcDbLine
 10
101.0164772663752
 20
321.2979373340117
 30
0.0
 11
101.8070179713169
 21
321.2979373068564
 31
0.0
  0
SPLINE
  5
1B3
330
1F
100
AcDbEntity
  8
Make2D$___$___
100
AcDbSpline
210
0.0
220
0.0
230
1.0
 70
     8
 71
     3
 72
    14
 73
    10
 74
     0
 42
0.000000001
 43
0.0000000001
 12
1.0
 22
0.0
 32
0.0
 13
1.0
 23
0.0
 33
0.0
 40
0.0
 40
0.0
 40
0.0
 40
0.0
 40
1.117138119775601
 40
2.116904872314057
 40
3.887285653526948
 40
5.363491117930938
 40
6.102307621795014
 40
7.52298880185417
 40
8.289103974503654
 40
8.289103974503654
 40
8.289103974503654
 40
8.289103974503654
 10
92.73186702227292
 20
321.1951935033329
 30
0.0
 10
93.10400548517153
 20
321.1820716823613
 30
0.0
 10
93.80928199402209
 20
321.1586720028869
 30
0.0
 10
95.10464607920595
 20
321.1273241642236
 30
0.0
 10
96.52029104605475
 20
321.1216279349547
 30
0.0
 10
97.84837005246314
 20
321.157731116812
 30
0.0
 10
99.05917184409185
 20
321.2099351424299
 30
0.0
 10
100.0322954636136
 20
321.2753942016657
 30
0.0
 10
100.7609777381133
 20
321.2984683644842
 30
0.0
 10
101.0163901188354
 20
321.2979373340143
 30
0.0
  0
LINE
  5
1B4
330
1F
100
AcDbEntity
  8
Make2D$___$___
100
AcDbLine
 10
101.8070179764406
 20
321.2979373068564
 30
0.0
 11
118.0185792932533
 21
321.29793730684
 31
0.0
  0
LINE
  5
1B5
330
1F
100
AcDbEntity
  8
Make2D$___$___
100
AcDbLine
 10
118.0185794912561
 20
321.29793730684
 30
0.0
 11
129.4266760314832
 21
321.297937306844
 31
0.0
  0
LINE
  5
1B6
330
1F
100
AcDbEntity
  8
Make2D$___$___
100
AcDbLine
 10
129.0275038753304
 20
295.2979373068546
 30
0.0
 11
132.2017644517554
 21
295.2979373068564
 31
0.0
  0
LINE
  5
1B7
330
1F
100
AcDbEntity
  8
Make2D$___$___
100
AcDbLine
 10
129.0274901876288
 20
295.2979373068546
 30
0.0
 11
109.2084750159703
 21
295.2979373068569
 31
0.0
  0
ARC
  5
1B8
330
1F
100
AcDbEntity
  8
Make2D$___$___
100
AcDbCircle
 10
92.92297961807232
 20
421.8277214804127
 30
0.0
 40
100.5348751181751
100
AcDbArc
 50
260.0099657521741
 51
263.1676451952882
  0
ARC
  5
1B9
330
1F
100
AcDbEntity
  8
Make2D$___$___
100
AcDbCircle
 10
81.19314376101413
 20
326.0079582402552
 30
0.0
 40
4.00000019075378
100
AcDbArc
 50
266.6995679652779
 51
358.4993517575355
  0
LINE
  5
1BA
330
1F
100
AcDbEntity
  8
Make2D$___$___
100
AcDbLine
 10
15.84413855621282
 20
333.333014727924
 30
0.0
 11
75.48250291818863
 21
322.8171620056381
 31
0.0
  0
LINE
  5
1BB
330
1F
100
AcDbEntity
  8
Make2D$___$___
100
AcDbLine
 10
1.178079965027074
 20
335.9190365582134
 30
0.0
 11
15.84413722855987
 21
333.333014962025
 31
0.0
  0
ARC
  5
1BC
330
1F
100
AcDbEntity
  8
Make2D$___$___
100
AcDbCircle
 10
-2.174627598090439
 20
376.2436394551005
 30
0.0
 40
65.96290900452144
100
AcDbArc
 50
283.132470568586
 51
284.5608676567381
  0
LINE
  5
1BD
330
1F
100
AcDbEntity
  8
Make2D$___$___
100
AcDbLine
 10
31.93840086092979
 20
304.1455787834951
 30
0.0
 11
32.77393447535468
 21
303.4390297145749
 31
0.0
  0
ARC
  5
1BE
330
1F
100
AcDbEntity
  8
Make2D$___$___
100
AcDbCircle
 10
38.57636201867478
 20
299.3696253387625
 30
0.0
 40
3.000000010495452
100
AcDbArc
 50
3.00000015059639
 51
79.99999992763226
  0
SPLINE
  5
1BF
330
1F
100
AcDbEntity
  8
Make2D$___$___
100
AcDbSpline
210
0.0
220
0.0
230
1.0
 70
     8
 71
     3
 72
    16
 73
    12
 74
     0
 42
0.000000001
 43
0.0000000001
 12
1.0
 22
0.0
 32
0.0
 13
1.0
 23
0.0
 33
0.0
 40
0.0
 40
0.0
 40
0.0
 40
0.0
 40
2.225345192646951
 40
4.169950057042105
 40
6.15663234345549
 40
8.115737043108414
 40
10.22537852230789
 40
12.68382786106768
 40
15.2060141570731
 40
19.37224152562975
 40
20.45259086630816
 40
20.45259086630816
 40
20.45259086630816
 40
20.45259086630816
 10
14.4090094606486
 20
312.3993887740924
 30
0.0
 10
15.12664725203055
 20
312.5859465440195
 30
0.0
 10
16.49455637292963
 20
312.8570515985533
 30
0.0
 10
18.55494204100323
 20
312.9021896293855
 30
0.0
 10
20.49834589109853
 20
312.5563155788225
 30
0.0
 10
22.38758006321898
 20
311.8239896776764
 30
0.0
 10
24.27481893865934
 20
310.7319050510172
 30
0.0
 10
26.17621826377668
 20
309.3240676456674
 30
0.0
 10
28.48887643222283
 20
307.3353942042187
 30
0.0
 10
30.36376867267781
 20
305.5483319317366
 30
0.0
 10
31.66047426030309
 20
304.3748511920933
 30
0.0
 10
31.93840057506421
 20
304.1455790202605
 30
0.0
  0
LINE
  5
1C0
330
1F
100
AcDbEntity
  8
Make2D$___$___
100
AcDbLine
 10
0.0003426750217841
 20
334.9088333007232
 30
0.0
 11
0.323254134461024
 21
322.5773425333953
 31
0.0
  0
ARC
  5
1C1
330
1F
100
AcDbEntity
  8
Make2D$___$___
100
AcDbCircle
 10
1.000000000015191
 20
334.9350102489308
 30
0.0
 40
1.000000000015197
100
AcDbArc
 50
80.0006390374687
 51
181.4999999942263
  0
LINE
  5
1C2
330
1F
100
AcDbEntity
  8
Make2D$___$___
100
AcDbLine
 10
5.654718302585817
 20
310.859527325407
 30
0.0
 11
5.717153456130063
 21
310.8485033585538
 31
0.0
  0
SPLINE
  5
1C3
330
1F
100
AcDbEntity
  8
Make2D$___$___
100
AcDbSpline
210
0.0
220
0.0
230
1.0
 70
     8
 71
     3
 72
    12
 73
     8
 74
     0
 42
0.000000001
 43
0.0000000001
 12
1.0
 22
0.0
 32
0.0
 13
1.0
 23
0.0
 33
0.0
 40
0.0
 40
0.0
 40
0.0
 40
0.0
 40
0.4999426092328694
 40
0.4999426092328694
 40
0.7499516128194433
 40
0.7499516128194433
 40
1.0
 40
1.0
 40
1.0
 40
1.0
 10
5.717153456130063
 20
310.8485033585538
 30
0.0
 10
5.920206265780905
 20
310.8130471480393
 30
0.0
 10
6.639916934363896
 20
310.870426051203
 30
0.0
 10
8.471702610748707
 20
311.1440253798156
 30
0.0
 10
9.207722304185722
 20
311.2642064942427
 30
0.0
 10
10.87807223436624
 20
311.581004539418
 30
0.0
 10
11.81539516043097
 20
311.7728552538046
 30
0.0
 10
12.81235911655637
 20
312.0058344369201
 30
0.0
  0
ARC
  5
1C4
330
1F
100
AcDbEntity
  8
Make2D$___$___
100
AcDbCircle
 10
73.58919525232889
 20
293.1959181712839
 30
0.0
 40
3.000000007875149
100
AcDbArc
 50
79.99999994458366
 51
156.3834011398094
  0
ARC
  5
1C5
330
1F
100
AcDbEntity
  8
Make2D$___$___
100
AcDbCircle
 10
70.38227424663526
 20
294.5979373215988
 30
0.0
 40
0.5000000147424544
100
AcDbArc
 50
270.0000000000228
 51
336.399855719156
  0
LINE
  5
1C6
330
1F
100
AcDbEntity
  8
Make2D$___$___
100
AcDbLine
 10
42.33123881335541
 20
294.0979373068564
 30
0.0
 11
70.3822742466354
 21
294.0979373068564
 31
0.0
  0
LINE
  5
1C7
330
1F
100
AcDbEntity
  8
Make2D$___$___
100
AcDbLine
 10
50.60675652999544
 20
330.7979373068566
 30
0.0
 11
50.60675652999544
 21
327.2034272591159
 31
0.0
  0
LINE
  5
1C8
330
1F
100
AcDbEntity
  8
Make2D$___$___
100
AcDbLine
 10
47.35675656719241
 20
348.7979373068564
 30
0.0
 11
65.35675649279847
 21
348.7979373068564
 31
0.0
  0
ARC
  5
1C9
330
1F
100
AcDbEntity
  8
Make2D$___$___
100
AcDbCircle
 10
65.55675767586709
 20
331.097936160984
 30
0.0
 40
0.2999988541305668
100
AcDbArc
 50
269.9997443203155
 51
0.0002188463390136
  0
LINE
  5
1CA
330
1F
100
AcDbEntity
  8
Make2D$___$___
100
AcDbLine
 10
65.85675652999544
 20
331.0979373068564
 30
0.0
 11
65.85675652999544
 21
348.2979373068564
 31
0.0
  0
LINE
  5
1CB
330
1F
100
AcDbEntity
  8
Make2D$___$___
100
AcDbLine
 10
46.85675652999544
 20
348.2979373068564
 30
0.0
 11
46.85675652999544
 21
331.0979373068564
 31
0.0
  0
ARC
  5
1CC
330
1F
100
AcDbEntity
  8
Make2D$___$___
100
AcDbCircle
 10
65.3567566597171
 20
348.297937436578
 30
0.0
 40
0.4999998702783469
100
AcDbArc
 50
359.9999851349926
 51
90.00001912747203
  0
LINE
  5
1CD
330
1F
100
AcDbEntity
  8
Make2D$___$___
100
AcDbLine
 10
47.15675677146334
 20
330.7979373068564
 30
0.0
 11
65.5567563371365
 21
330.7979373068564
 31
0.0
  0
LINE
  5
1CE
330
1F
100
AcDbEntity
  8
Make2D$___$___
100
AcDbLine
 10
14.77277613357262
 20
309.5301627263314
 30
0.0
 11
19.4854696848231
 21
308.6991877014352
 31
0.0
  0
LINE
  5
1CF
330
1F
100
AcDbEntity
  8
Make2D$___$___
100
AcDbLine
 10
14.25183160057162
 20
306.575739467293
 30
0.0
 11
7.203031660388028
 21
307.8186330783633
 31
0.0
  0
LINE
  5
1D0
330
1F
100
AcDbEntity
  8
Make2D$___$___
100
AcDbLine
 10
14.25183160057162
 20
306.575739467293
 30
0.0
 11
14.77277613357262
 21
309.5301627263314
 31
0.0
  0
ARC
  5
1D1
330
1F
100
AcDbEntity
  8
Make2D$___$___
100
AcDbCircle
 10
21.15469467555185
 20
317.2501488407251
 30
0.0
 40
12.71190521139691
100
AcDbArc
 50
237.1103012380461
 51
259.2832969202408
  0
LINE
  5
1D2
330
1F
100
AcDbEntity
  8
Make2D$___$___
100
AcDbLine
 10
24.19816323607347
 20
307.8682126765391
 30
0.0
 11
23.67721870307253
 21
304.9137894175009
 31
0.0
  0
LINE
  5
1D3
330
1F
100
AcDbEntity
  8
Make2D$___$___
100
AcDbLine
 10
19.4854696848231
 20
308.6991877014352
 30
0.0
 11
24.19816323607347
 21
307.8682126765391
 31
0.0
  0
ARC
  5
1D4
330
1F
100
AcDbEntity
  8
Make2D$___$___
100
AcDbCircle
 10
20.84155439545848
 20
317.3040321129003
 30
0.0
 40
12.71059031345024
100
AcDbArc
 50
260.71554163852
 51
282.8908601818578
  0
LINE
  5
1D5
330
1F
100
AcDbEntity
  8
Make2D$___$___
100
AcDbLine
 10
30.72601864325601
 20
303.6708958064303
 30
0.0
 11
23.67721870307253
 21
304.9137894175009
 31
0.0
  0
LINE
  5
1D6
330
1F
100
AcDbEntity
  8
Make2D$___$___
100
AcDbLine
 10
8.00723207872511
 20
306.6614042348286
 30
0.0
 11
18.34306667961165
 21
304.838917726552
 31
0.0
  0
LINE
  5
1D7
330
1F
100
AcDbEntity
  8
Make2D$___$___
100
AcDbLine
 10
19.23868726869855
 20
304.680995652218
 30
0.0
 11
29.57452186969255
 21
302.8585091439235
 31
0.0
  0
LINE
  5
1D8
330
1F
100
AcDbEntity
  8
Make2D$___$___
100
AcDbLine
 10
90.85675652999296
 20
354.2979373068558
 30
0.0
 11
89.60675652999362
 21
351.2979373068594
 31
0.0
  0
LINE
  5
1D9
330
1F
100
AcDbEntity
  8
Make2D$___$___
100
AcDbLine
 10
129.1067565299973
 20
351.2979373068594
 30
0.0
 11
125.536243675729
 21
359.8671681570975
 31
0.0
  0
ARC
  5
1DA
330
1F
100
AcDbEntity
  8
Make2D$___$___
100
AcDbCircle
 10
124.8900898633267
 20
359.5979373068513
 30
0.0
 40
0.7000000000044969
100
AcDbArc
 50
22.61987213168858
 51
47.922539679988
  0
ARC
  5
1DB
330
1F
100
AcDbEntity
  8
Make2D$___$___
100
AcDbCircle
 10
62.09623102647259
 20
371.5467345223577
 30
0.0
 40
24.02408237332513
100
AcDbArc
 50
351.5052767572644
 51
357.2814927964928
  0
ARC
  5
1DC
330
1F
100
AcDbEntity
  8
Make2D$___$___
100
AcDbCircle
 10
73.93790192205482
 20
370.82860817899
 30
0.0
 40
12.16267445711476
100
AcDbArc
 50
358.0149479705861
 51
20.02677538331741
  0
ARC
  5
1DD
330
1F
100
AcDbEntity
  8
Make2D$___$___
100
AcDbCircle
 10
65.85675652998762
 20
370.5842180805857
 30
0.0
 40
20.00000000000737
100
AcDbArc
 50
12.74932598621368
 51
66.54208458013346
  0
LINE
  5
1DE
330
1F
100
AcDbEntity
  8
Make2D$___$___
100
AcDbLine
 10
107.0156890574154
 20
354.2979373068554
 30
0.0
 11
86.36184919860581
 21
354.2979373068564
 31
0.0
  0
LINE
  5
1DF
330
1F
100
AcDbEntity
  8
Make2D$___$___
100
AcDbLine
 10
107.3301542473978
 20
354.2979373068591
 30
0.0
 11
107.0156890574154
 21
354.2979373068554
 31
0.0
  0
LINE
  5
1E0
330
1F
100
AcDbEntity
  8
Make2D$___$___
100
AcDbLine
 10
107.5521973282135
 20
354.2979373068564
 30
0.0
 11
107.3302202398812
 21
354.2979373068591
 31
0.0
  0
ARC
  5
1E1
330
1F
100
AcDbEntity
  8
Make2D$___$___
100
AcDbCircle
 10
108.8269774533177
 20
357.3024637602506
 30
0.0
 40
3.00452655938192
100
AcDbArc
 50
270.0152186699805
 51
289.9847208707677
  0
LINE
  5
1E2
330
1F
100
AcDbEntity
  8
Make2D$___$___
100
AcDbLine
 10
107.8822102333659
 20
354.2979373068563
 30
0.0
 11
107.5521973282135
 21
354.2979373068564
 31
0.0
  0
ARC
  5
1E3
330
1F
100
AcDbEntity
  8
Make2D$___$___
100
AcDbCircle
 10
112.231137812304
 20
399.1839123614349
 30
0.0
 40
19.88597945212757
100
AcDbArc
 50
256.730397209201
 51
270.0381039187617
  0
ARC
  5
1E4
330
1F
100
AcDbEntity
  8
Make2D$___$___
100
AcDbCircle
 10
112.2474606435584
 20
399.3076941373649
 30
0.0
 40
20.0102069066598
100
AcDbArc
 50
248.0022702021944
 51
256.7662595824987
  0
LINE
  5
1E5
330
1F
100
AcDbEntity
  8
Make2D$___$___
100
AcDbLine
 10
104.7522402238558
 20
380.7542564152814
 30
0.0
 11
46.96805094181246
 21
404.100584006597
 31
0.0
  0
LINE
  5
1E6
330
1F
100
AcDbEntity
  8
Make2D$___$___
100
AcDbLine
 10
31.31970182805498
 20
410.4229274455149
 30
0.0
 11
46.96805010668534
 21
404.1005843440103
 31
0.0
  0
LINE
  5
1E7
330
1F
100
AcDbEntity
  8
Make2D$___$___
100
AcDbLine
 10
45.38779029081263
 20
400.4249123724404
 30
0.0
 11
29.82135923113672
 21
406.714158796652
 31
0.0
  0
LINE
  5
1E8
330
1F
100
AcDbEntity
  8
Make2D$___$___
100
AcDbLine
 10
116.1131674028636
 20
379.2979373068591
 30
0.0
 11
112.2443632319697
 21
379.2979373068595
 31
0.0
  0
LINE
  5
1E9
330
1F
100
AcDbEntity
  8
Make2D$___$___
100
AcDbLine
 10
116.4974739668421
 20
379.297937306859
 30
0.0
 11
116.1829436918575
 21
379.2979373068591
 31
0.0
  0
LINE
  5
1EA
330
1F
100
AcDbEntity
  8
Make2D$___$___
100
AcDbLine
 10
118.0423391181762
 20
379.297937306859
 30
0.0
 11
117.6607590338243
 21
379.297937306859
 31
0.0
  0
LINE
  5
1EB
330
1F
100
AcDbEntity
  8
Make2D$___$___
100
AcDbLine
 10
118.5196523346835
 20
379.2979373068589
 30
0.0
 11
118.1502162953219
 21
379.2979373068589
 31
0.0
  0
LINE
  5
1EC
330
1F
100
AcDbEntity
  8
Make2D$___$___
100
AcDbLine
 10
118.9942309196456
 20
379.2979373068588
 30
0.0
 11
118.6373805711856
 21
379.297937306859
 31
0.0
  0
LINE
  5
1ED
330
1F
100
AcDbEntity
  8
Make2D$___$___
100
AcDbLine
 10
119.4656654920226
 20
379.2979373068588
 30
0.0
 11
119.1218129034673
 21
379.2979373068588
 31
0.0
  0
LINE
  5
1EE
330
1F
100
AcDbEntity
  8
Make2D$___$___
100
AcDbLine
 10
119.9335453223936
 20
379.2979373068587
 30
0.0
 11
119.603070821433
 21
379.2979373068587
 31
0.0
  0
LINE
  5
1EF
330
1F
100
AcDbEntity
  8
Make2D$___$___
100
AcDbLine
 10
120.3974594829543
 20
379.2979373068587
 30
0.0
 11
120.080709519835
 21
379.2979373068587
 31
0.0
  0
LINE
  5
1F0
330
1F
100
AcDbEntity
  8
Make2D$___$___
100
AcDbLine
 10
120.8569979426686
 20
379.2979373068586
 30
0.0
 11
120.5542830615354
 21
379.2979373068585
 31
0.0
  0
LINE
  5
1F1
330
1F
100
AcDbEntity
  8
Make2D$___$___
100
AcDbLine
 10
121.3117526807149
 20
379.2979373068586
 30
0.0
 11
121.023345614391
 21
379.2979373068586
 31
0.0
  0
LINE
  5
1F2
330
1F
100
AcDbEntity
  8
Make2D$___$___
100
AcDbLine
 10
121.7613188123589
 20
379.2979373068586
 30
0.0
 11
121.4874527159867
 21
379.2979373068585
 31
0.0
  0
LINE
  5
1F3
330
1F
100
AcDbEntity
  8
Make2D$___$___
100
AcDbLine
 10
122.2052957211385
 20
379.2979373068584
 30
0.0
 11
121.9461625593938
 21
379.2979373068585
 31
0.0
  0
LINE
  5
1F4
330
1F
100
AcDbEntity
  8
Make2D$___$___
100
AcDbLine
 10
122.6432881910702
 20
379.2979373068584
 30
0.0
 11
122.3990372927621
 21
379.2979373068584
 31
0.0
  0
LINE
  5
1F5
330
1F
100
AcDbEntity
  8
Make2D$___$___
100
AcDbLine
 10
123.0749075324462
 20
379.2979373068584
 30
0.0
 11
122.7156761559806
 21
379.2979373068585
 31
0.0
  0
LINE
  5
1F6
330
1F
100
AcDbEntity
  8
Make2D$___$___
100
AcDbLine
 10
123.3282475703051
 20
379.2979373068583
 30
0.0
 11
123.1549120405169
 21
379.2979373068584
 31
0.0
  0
LINE
  5
1F7
330
1F
100
AcDbEntity
  8
Make2D$___$___
100
AcDbLine
 10
123.7462051312806
 20
379.297937306858
 30
0.0
 11
123.5875167714439
 21
379.2979373068582
 31
0.0
  0
LINE
  5
1F8
330
1F
100
AcDbEntity
  8
Make2D$___$___
100
AcDbLine
 10
124.1572614095264
 20
379.2979373068582
 30
0.0
 11
124.013071914382
 21
379.2979373068582
 31
0.0
  0
LINE
  5
1F9
330
1F
100
AcDbEntity
  8
Make2D$___$___
100
AcDbLine
 10
124.5610477165949
 20
379.2979373068582
 30
0.0
 11
124.4311672960249
 21
379.2979373068582
 31
0.0
  0
LINE
  5
1FA
330
1F
100
AcDbEntity
  8
Make2D$___$___
100
AcDbLine
 10
124.9700549753559
 20
379.297937306858
 30
0.0
 11
124.8414022667869
 21
379.2979373068581
 31
0.0
  0
LINE
  5
1FB
330
1F
100
AcDbEntity
  8
Make2D$___$___
100
AcDbLine
 10
125.3704285417429
 20
379.297937306858
 30
0.0
 11
125.2433867535014
 21
379.297937306858
 31
0.0
  0
LINE
  5
1FC
330
1F
100
AcDbEntity
  8
Make2D$___$___
100
AcDbLine
 10
125.7617610893893
 20
379.2979373068579
 30
0.0
 11
125.6367432036254
 21
379.297937306858
 31
0.0
  0
LINE
  5
1FD
330
1F
100
AcDbEntity
  8
Make2D$___$___
100
AcDbLine
 10
126.1437072525806
 20
379.2979373068579
 30
0.0
 11
126.0211066300651
 21
379.2979373068579
 31
0.0
  0
LINE
  5
1FE
330
1F
100
AcDbEntity
  8
Make2D$___$___
100
AcDbLine
 10
126.5159377434258
 20
379.2979373068579
 30
0.0
 11
126.3961264735432
 21
379.2979373068579
 31
0.0
  0
LINE
  5
1FF
330
1F
100
AcDbEntity
  8
Make2D$___$___
100
AcDbLine
 10
126.8781402334222
 20
379.2979373068576
 30
0.0
 11
126.7614674713593
 21
379.2979373068578
 31
0.0
  0
LINE
  5
200
330
1F
100
AcDbEntity
  8
Make2D$___$___
100
AcDbLine
 10
127.2195275425071
 20
379.2979373068578
 30
0.0
 11
127.1168106513429
 21
379.2979373068578
 31
0.0
  0
LINE
  5
201
330
1F
100
AcDbEntity
  8
Make2D$___$___
100
AcDbLine
 10
127.5509556189187
 20
379.2979373068576
 30
0.0
 11
127.4618542831872
 21
379.2979373068577
 31
0.0
  0
LINE
  5
202
330
1F
100
AcDbEntity
  8
Make2D$___$___
100
AcDbLine
 10
127.872189715672
 20
379.2979373068576
 30
0.0
 11
127.7963146725295
 21
379.2979373068576
 31
0.0
  0
LINE
  5
203
330
1F
100
AcDbEntity
  8
Make2D$___$___
100
AcDbLine
 10
128.772647166023
 20
379.2979373068575
 30
0.0
 11
128.2552443757635
 21
379.2979373068576
 31
0.0
  0
LINE
  5
204
330
1F
100
AcDbEntity
  8
Make2D$___$___
100
AcDbLine
 10
129.0511163535847
 20
379.2979373068575
 30
0.0
 11
129.0022370081039
 21
379.2979373068574
 31
0.0
  0
LINE
  5
205
330
1F
100
AcDbEntity
  8
Make2D$___$___
100
AcDbLine
 10
129.3184900336485
 20
379.2979373068575
 30
0.0
 11
129.2724877764122
 21
379.2979373068574
 31
0.0
  0
LINE
  5
206
330
1F
100
AcDbEntity
  8
Make2D$___$___
100
AcDbLine
 10
129.5673988843923
 20
379.2979373068573
 30
0.0
 11
129.5315617694365
 21
379.2979373068572
 31
0.0
  0
LINE
  5
207
330
1F
100
AcDbEntity
  8
Make2D$___$___
100
AcDbLine
 10
129.8214932269436
 20
379.2979373068573
 30
0.0
 11
129.7793369239046
 21
379.2979373068573
 31
0.0
  0
LINE
  5
208
330
1F
100
AcDbEntity
  8
Make2D$___$___
100
AcDbLine
 10
130.0528972587898
 20
379.2979373068572
 30
0.0
 11
130.0157104576916
 21
379.2979373068572
 31
0.0
  0
LINE
  5
209
330
1F
100
AcDbEntity
  8
Make2D$___$___
100
AcDbLine
 10
130.2748441418245
 20
379.2979373068571
 30
0.0
 11
130.2405988739343
 21
379.2979373068572
 31
0.0
  0
LINE
  5
20A
330
1F
100
AcDbEntity
  8
Make2D$___$___
100
AcDbLine
 10
130.4852688524979
 20
379.2979373068571
 30
0.0
 11
130.4539378888537
 21
379.2979373068572
 31
0.0
  0
LINE
  5
20B
330
1F
100
AcDbEntity
  8
Make2D$___$___
100
AcDbLine
 10
130.8458056944802
 20
379.297937306857
 30
0.0
 11
130.5256701151487
 21
379.297937306857
 31
0.0
  0
LINE
  5
20C
330
1F
100
AcDbEntity
  8
Make2D$___$___
100
AcDbLine
 10
131.2114527940171
 20
379.2979373068571
 30
0.0
 11
131.0887566555758
 21
379.2979373068571
 31
0.0
  0
LINE
  5
20D
330
1F
100
AcDbEntity
  8
Make2D$___$___
100
AcDbLine
 10
131.3642041755255
 20
379.297937306857
 30
0.0
 11
131.2566824605113
 21
379.2979373068569
 31
0.0
  0
LINE
  5
20E
330
1F
100
AcDbEntity
  8
Make2D$___$___
100
AcDbLine
 10
131.5055318326515
 20
379.297937306857
 30
0.0
 11
131.4122526354992
 21
379.2979373068569
 31
0.0
  0
LINE
  5
20F
330
1F
100
AcDbEntity
  8
Make2D$___$___
100
AcDbLine
 10
131.635511585491
 20
379.2979373068569
 30
0.0
 11
131.5555168732215
 21
379.2979373068569
 31
0.0
  0
LINE
  5
210
330
1F
100
AcDbEntity
  8
Make2D$___$___
100
AcDbLine
 10
131.7542347352639
 20
379.2979373068568
 30
0.0
 11
131.686543951878
 21
379.2979373068567
 31
0.0
  0
LINE
  5
211
330
1F
100
AcDbEntity
  8
Make2D$___$___
100
AcDbLine
 10
131.8618074079338
 20
379.2979373068567
 30
0.0
 11
131.8054210724625
 21
379.2979373068569
 31
0.0
  0
LINE
  5
212
330
1F
100
AcDbEntity
  8
Make2D$___$___
100
AcDbLine
 10
131.9512084227536
 20
379.2979373068567
 30
0.0
 11
131.9122531421041
 21
379.2979373068567
 31
0.0
  0
LINE
  5
213
330
1F
100
AcDbEntity
  8
Make2D$___$___
100
AcDbLine
 10
132.0384760891703
 20
379.2979373068566
 30
0.0
 11
132.0071620094527
 21
379.2979373068567
 31
0.0
  0
LINE
  5
214
330
1F
100
AcDbEntity
  8
Make2D$___$___
100
AcDbLine
 10
132.1148034098357
 20
379.2979373068567
 30
0.0
 11
132.0902856581728
 21
379.2979373068567
 31
0.0
  0
LINE
  5
215
330
1F
100
AcDbEntity
  8
Make2D$___$___
100
AcDbLine
 10
132.334976132085
 20
379.2979373068565
 30
0.0
 11
132.1284811163928
 21
379.2979373068567
 31
0.0
  0
ARC
  5
216
330
1F
100
AcDbEntity
  8
Make2D$___$___
100
AcDbCircle
 10
132.3567564768035
 20
363.2013416170219
 30
0.0
 40
0.5000000531927368
100
AcDbArc
 50
289.992688506428
 51
359.9999958969925
  0
LINE
  5
217
330
1F
100
AcDbEntity
  8
Make2D$___$___
100
AcDbLine
 10
109.8538331203201
 20
354.4788583903066
 30
0.0
 11
132.527706608344
 21
362.7314734379344
 31
0.0
  0
LINE
  5
218
330
1F
100
AcDbEntity
  8
Make2D$___$___
100
AcDbLine
 10
134.856756529995
 20
322.4479373068569
 30
0.0
 11
134.8567565299954
 21
315.7765583901779
 31
0.0
  0
LINE
  5
219
330
1F
100
AcDbEntity
  8
Make2D$___$___
100
AcDbLine
 10
135.8093844741557
 20
322.4479373068571
 30
0.0
 11
134.8636149636984
 21
322.4479373068569
 31
0.0
  0
LINE
  5
21A
330
1F
100
AcDbEntity
  8
Make2D$___$___
100
AcDbLine
 10
134.856756529995
 20
293.7479373068558
 30
0.0
 11
135.8093844741557
 21
293.7479373068558
 31
0.0
  0
LINE
  5
21B
330
1F
100
AcDbEntity
  8
Make2D$___$___
100
AcDbLine
 10
134.8567565299954
 20
300.4187889155596
 30
0.0
 11
134.856756529995
 21
293.7479373068558
 31
0.0
  0
ARC
  5
21C
330
1F
100
AcDbEntity
  8
Make2D$___$___
100
AcDbCircle
 10
156.2575206746963
 20
301.1112638795364
 30
0.0
 40
21.40159276491103
100
AcDbArc
 50
180.5041894388001
 51
197.1668541202566
  0
ARC
  5
21D
330
1F
100
AcDbEntity
  8
Make2D$___$___
100
AcDbCircle
 10
126.0605838161265
 20
300.6536252628226
 30
0.0
 40
21.80332436235906
100
AcDbArc
 50
2.132122712391829
 51
17.06350231961412
  0
LINE
  5
21E
330
1F
100
AcDbEntity
  8
Make2D$___$___
100
AcDbLine
 10
146.9041285858356
 20
309.1444689011271
 30
0.0
 11
146.9041285858356
 21
307.0514057125858
 31
0.0
  0
LINE
  5
21F
330
1F
100
AcDbEntity
  8
Make2D$___$___
100
AcDbLine
 10
135.8093844741553
 20
307.0514057125858
 30
0.0
 11
146.9041285858356
 21
307.0514057125858
 31
0.0
  0
ARC
  5
220
330
1F
100
AcDbEntity
  8
Make2D$___$___
100
AcDbCircle
 10
156.2607705253112
 20
315.0841055674195
 30
0.0
 40
21.40484694029578
100
AcDbArc
 50
162.8344214919145
 51
179.4945349490288
  0
LINE
  5
221
330
1F
100
AcDbEntity
  8
Make2D$___$___
100
AcDbLine
 10
146.9041285858356
 20
309.1444689011271
 30
0.0
 11
135.8093844741553
 21
309.1444689011271
 31
0.0
  0
ARC
  5
222
330
1F
100
AcDbEntity
  8
Make2D$___$___
100
AcDbCircle
 10
126.0560691324232
 20
315.5430435068644
 30
0.0
 40
21.80787334790361
100
AcDbArc
 50
342.9379835558672
 51
357.8659830306399
  0
ARC
  5
223
330
1F
100
AcDbEntity
  8
Make2D$___$___
100
AcDbCircle
 10
126.0897572320987
 20
315.0097238373277
 30
0.0
 40
21.77364581428025
100
AcDbArc
 50
2.01942907895305
 51
17.07068685696839
  0
LINE
  5
224
330
1F
100
AcDbEntity
  8
Make2D$___$___
100
AcDbLine
 10
147.8567565299958
 20
322.4479373068569
 30
0.0
 11
146.9041285858352
 21
322.4479373068571
 31
0.0
  0
LINE
  5
225
330
1F
100
AcDbEntity
  8
Make2D$___$___
100
AcDbLine
 10
146.9041285858349
 20
321.4014057125848
 30
0.0
 11
146.9041285858352
 21
322.4479373068571
 31
0.0
  0
LINE
  5
226
330
1F
100
AcDbEntity
  8
Make2D$___$___
100
AcDbLine
 10
135.809384474156
 20
321.4014057125848
 30
0.0
 11
146.9041285858349
 21
321.4014057125848
 31
0.0
  0
LINE
  5
227
330
1F
100
AcDbEntity
  8
Make2D$___$___
100
AcDbLine
 10
135.809384474156
 20
321.4014057125848
 30
0.0
 11
135.8093844741557
 21
322.4479373068571
 31
0.0
  0
LINE
  5
228
330
1F
100
AcDbEntity
  8
Make2D$___$___
100
AcDbLine
 10
146.9041285858352
 20
322.4479373068571
 30
0.0
 11
135.8093844741557
 21
322.4479373068571
 31
0.0
  0
LINE
  5
229
330
1F
100
AcDbEntity
  8
Make2D$___$___
100
AcDbLine
 10
135.8093844741553
 20
309.1444689011271
 30
0.0
 11
135.8093844741553
 21
307.0514057125858
 31
0.0
  0
ARC
  5
22A
330
1F
100
AcDbEntity
  8
Make2D$___$___
100
AcDbCircle
 10
156.2607705248268
 20
300.7341055674983
 30
0.0
 40
21.40484693981075
100
AcDbArc
 50
162.8344214917315
 51
179.4945349492251
  0
LINE
  5
22B
330
1F
100
AcDbEntity
  8
Make2D$___$___
100
AcDbLine
 10
134.8567565299955
 20
314.7687889194849
 30
0.0
 11
134.8567565299955
 21
301.4265583863877
 31
0.0
  0
ARC
  5
22C
330
1F
100
AcDbEntity
  8
Make2D$___$___
100
AcDbCircle
 10
156.2575206749452
 20
315.4612638795716
 30
0.0
 40
21.40159276516023
100
AcDbArc
 50
180.5041894388916
 51
197.1668541201518
  0
LINE
  5
22D
330
1F
100
AcDbEntity
  8
Make2D$___$___
100
AcDbLine
 10
146.9041285858352
 20
293.7479373068558
 30
0.0
 11
147.8498773710836
 21
293.7479373068558
 31
0.0
  0
ARC
  5
22E
330
1F
100
AcDbEntity
  8
Make2D$___$___
100
AcDbCircle
 10
126.0858064892959
 20
301.1868232248613
 30
0.0
 40
21.77761990474148
100
AcDbArc
 50
342.9306731404888
 51
357.9805549710333
  0
LINE
  5
22F
330
1F
100
AcDbEntity
  8
Make2D$___$___
100
AcDbLine
 10
146.9041285858352
 20
293.7479373068558
 30
0.0
 11
146.9041285858349
 21
294.7944689011281
 31
0.0
  0
LINE
  5
230
330
1F
100
AcDbEntity
  8
Make2D$___$___
100
AcDbLine
 10
135.8093844741557
 20
293.7479373068558
 30
0.0
 11
146.9041285858352
 21
293.7479373068558
 31
0.0
  0
LINE
  5
231
330
1F
100
AcDbEntity
  8
Make2D$___$___
100
AcDbLine
 10
135.8093844741557
 20
293.7479373068558
 30
0.0
 11
135.809384474156
 21
294.7944689011281
 31
0.0
  0
LINE
  5
232
330
1F
100
AcDbEntity
  8
Make2D$___$___
100
AcDbLine
 10
146.9041285858349
 20
294.7944689011281
 30
0.0
 11
135.809384474156
 21
294.7944689011281
 31
0.0
  0
ARC
  5
233
330
1F
100
AcDbEntity
  8
Make2D$___$___
100
AcDbCircle
 10
167.3567575152158
 20
340.5979382920766
 30
0.0
 40
0.4999990147807349
100
AcDbArc
 50
359.9998781372378
 51
90.00011289816362
  0
ARC
  5
234
330
1F
100
AcDbEntity
  8
Make2D$___$___
100
AcDbCircle
 10
167.3567575152156
 20
275.5979363216363
 30
0.0
 40
0.4999990147809442
100
AcDbArc
 50
269.9998871018624
 51
0.0001218627361684
  0
LINE
  5
235
330
1F
100
AcDbEntity
  8
Make2D$___$___
100
AcDbLine
 10
167.3567565299954
 20
275.0979373068564
 30
0.0
 11
164.2567565299954
 21
275.0979373068564
 31
0.0
  0
LINE
  5
236
330
1F
100
AcDbEntity
  8
Make2D$___$___
100
AcDbLine
 10
164.2567565299954
 20
341.0979373068564
 30
0.0
 11
167.3567565299954
 21
341.0979373068564
 31
0.0
  0
ARC
  5
237
330
1F
100
AcDbEntity
  8
Make2D$___$___
100
AcDbCircle
 10
164.2567565299948
 20
280.0979373068482
 30
0.0
 40
4.999999999991927
100
AcDbArc
 50
217.9999999999499
 51
270.0000000000065
  0
ARC
  5
238
330
1F
100
AcDbEntity
  8
Make2D$___$___
100
AcDbCircle
 10
164.256756529995
 20
336.0979373068639
 30
0.0
 40
4.99999999999244
100
AcDbArc
 50
89.99999999999511
 51
142.000000000045
  0
LINE
  5
239
330
1F
100
AcDbEntity
  8
Make2D$___$___
100
AcDbLine
 10
160.3167027619649
 20
277.0196299302283
 30
0.0
 11
148.2807350227852
 21
292.4249661233362
 31
0.0
  0
LINE
  5
23A
330
1F
100
AcDbEntity
  8
Make2D$___$___
100
AcDbLine
 10
148.2807350227852
 20
323.7709084903765
 30
0.0
 11
160.3167027619649
 21
339.1762446834845
 31
0.0
  0
ARC
  5
23B
330
1F
100
AcDbEntity
  8
Make2D$___$___
100
AcDbCircle
 10
149.8567565299814
 20
293.6562890739867
 30
0.0
 40
1.999999999985988
100
AcDbArc
 50
180.0000000000097
 51
218.0000000002861
  0
ARC
  5
23C
330
1F
100
AcDbEntity
  8
Make2D$___$___
100
AcDbCircle
 10
149.8567565299795
 20
322.5395855397266
 30
0.0
 40
1.99999999998411
100
AcDbArc
 50
141.9999999996944
 51
180.0000000000049
  0
LINE
  5
23D
330
1F
100
AcDbEntity
  8
Make2D$___$___
100
AcDbLine
 10
167.8567565299954
 20
340.5979372286255
 30
0.0
 11
167.8567565299954
 21
275.5979373850873
 31
0.0
  0
LINE
  5
23E
330
1F
100
AcDbEntity
  8
Make2D$___$___
100
AcDbLine
 10
147.8567565299954
 20
322.5395855397264
 30
0.0
 11
147.8567565299954
 21
293.6562890739864
 31
0.0
  0
ENDSEC
  0
SECTION
  2
OBJECTS
  0
DICTIONARY
  5
C
330
0
100
AcDbDictionary
281
     1
  3
ACAD_GROUP
350
D
  3
ACAD_LAYOUT
350
1A
  3
ACAD_MATERIAL
350
3B
  3
ACAD_MLEADERSTYLE
350
269
  3
ACAD_MLINESTYLE
350
17
  3
ACAD_PLOTSETTINGS
350
19
  3
ACAD_PLOTSTYLENAME
350
E
  3
ACAD_SCALELIST
350
3F
  3
ACAD_TABLESTYLE
350
268
  3
ACAD_VISUALSTYLE
350
2A
  3
AcDbVariableDictionary
350
23F
  0
DICTIONARY
  5
D
102
{ACAD_REACTORS
330
C
102
}
330
C
100
AcDbDictionary
281
     1
  0
DICTIONARY
  5
1A
102
{ACAD_REACTORS
330
C
102
}
330
C
100
AcDbDictionary
281
     1
  3
Layout1
350
1E
  3
Layout2
350
26
  3
Model
350
22
  0
DICTIONARY
  5
3B
102
{ACAD_REACTORS
330
C
102
}
330
C
100
AcDbDictionary
281
     1
  3
ByBlock
350
3D
  3
ByLayer
350
3C
  3
Global
350
3E
  0
DICTIONARY
  5
269
102
{ACAD_REACTORS
330
C
102
}
330
C
100
AcDbDictionary
281
     1
  0
DICTIONARY
  5
17
102
{ACAD_REACTORS
330
C
102
}
330
C
100
AcDbDictionary
281
     1
  3
Standard
350
18
  0
DICTIONARY
  5
19
102
{ACAD_REACTORS
330
C
102
}
330
C
100
AcDbDictionary
281
     1
  0
ACDBDICTIONARYWDFLT
  5
E
102
{ACAD_REACTORS
330
C
102
}
330
C
100
AcDbDictionary
281
     1
  3
Normal
350
F
100
AcDbDictionaryWithDefault
340
F
  0
DICTIONARY
  5
3F
102
{ACAD_REACTORS
330
C
102
}
330
C
100
AcDbDictionary
281
     1
  3
A0
350
40
  3
A1
350
41
  3
A2
350
42
  3
A3
350
43
  3
A4
350
44
  3
A5
350
45
  3
A6
350
46
  3
A7
350
47
  3
A8
350
48
  3
A9
350
49
  3
B0
350
4A
  3
B1
350
4B
  3
B2
350
4C
  3
B3
350
4D
  3
B4
350
4E
  3
B5
350
4F
  3
B6
350
50
  3
B7
350
51
  3
B8
350
52
  3
B9
350
53
  3
C0
350
54
  3
C1
350
55
  3
C2
350
56
  3
C3
350
57
  3
C4
350
58
  3
C5
350
59
  3
C6
350
5A
  3
C7
350
5B
  3
C8
350
5C
  3
C9
350
5D
  3
D0
350
5E
  3
D1
350
5F
  3
D2
350
60
  0
DICTIONARY
  5
268
102
{ACAD_REACTORS
330
C
102
}
330
C
100
AcDbDictionary
281
     1
  0
DICTIONARY
  5
2A
102
{ACAD_REACTORS
330
C
102
}
330
C
100
AcDbDictionary
281
     1
  3
2dWireframe
350
2F
  3
3D Hidden
350
31
  3
3dWireframe
350
30
  3
Basic
350
32
  3
Brighten
350
36
  3
ColorChange
350
3A
  3
Conceptual
350
34
  3
Dim
350
35
  3
Facepattern
350
39
  3
Flat
350
2B
  3
FlatWithEdges
350
2C
  3
Gouraud
350
2D
  3
GouraudWithEdges
350
2E
  3
Linepattern
350
38
  3
Realistic
350
33
  3
Thicken
350
37
  0
DICTIONARY
  5
23F
102
{ACAD_REACTORS
330
C
102
}
330
C
100
AcDbDictionary
281
     1
  3
CANNOSCALE
350
240
  3
MSLTSCALE
350
241
  0
LAYOUT
  5
1E
102
{ACAD_REACTORS
330
1A
102
}
330
1A
100
AcDbPlotSettings
  1

  2
none_device
  4

  6

 40
0.0
 41
0.0
 42
0.0
 43
0.0
 44
0.0
 45
0.0
 46
0.0
 47
0.0
 48
0.0
 49
0.0
140
0.0
141
0.0
142
1.0
143
1.0
 70
   688
 72
     0
 73
     0
 74
     5
  7

 75
    16
 76
     0
 77
     2
 78
   300
147
1.0
148
0.0
149
0.0
100
AcDbLayout
  1
Layout1
 70
     1
 71
     1
 10
0.0
 20
0.0
 11
12.0
 21
9.0
 12
0.0
 22
0.0
 32
0.0
 14
1.000000000000000E+20
 24
1.000000000000000E+20
 34
1.000000000000000E+20
 15
-1.000000000000000E+20
 25
-1.000000000000000E+20
 35
-1.000000000000000E+20
146
0.0
 13
0.0
 23
0.0
 33
0.0
 16
1.0
 26
0.0
 36
0.0
 17
0.0
 27
1.0
 37
0.0
 76
     0
330
1B
  0
LAYOUT
  5
26
102
{ACAD_REACTORS
330
1A
102
}
330
1A
100
AcDbPlotSettings
  1

  2
none_device
  4

  6

 40
0.0
 41
0.0
 42
0.0
 43
0.0
 44
0.0
 45
0.0
 46
0.0
 47
0.0
 48
0.0
 49
0.0
140
0.0
141
0.0
142
1.0
143
1.0
 70
   688
 72
     0
 73
     0
 74
     5
  7

 75
    16
 76
     0
 77
     2
 78
   300
147
1.0
148
0.0
149
0.0
100
AcDbLayout
  1
Layout2
 70
     1
 71
     2
 10
0.0
 20
0.0
 11
0.0
 21
0.0
 12
0.0
 22
0.0
 32
0.0
 14
0.0
 24
0.0
 34
0.0
 15
0.0
 25
0.0
 35
0.0
146
0.0
 13
0.0
 23
0.0
 33
0.0
 16
1.0
 26
0.0
 36
0.0
 17
0.0
 27
1.0
 37
0.0
 76
     0
330
23
  0
LAYOUT
  5
22
102
{ACAD_REACTORS
330
1A
102
}
330
1A
100
AcDbPlotSettings
  1

  2
none_device
  4
Letter_(8.50_x_11.00_Inches)
  6

 40
6.35
 41
6.35
 42
6.35000508
 43
6.35000508
 44
215.9
 45
279.4
 46
0.0
 47
0.0
 48
0.0
 49
0.0
140
0.0
141
0.0
142
1.0
143
1.0
 70
  1712
 72
     0
 73
     0
 74
     0
  7

 75
     0
 76
     0
 77
     2
 78
   300
147
1.0
148
0.0
149
0.0
100
AcDbLayout
  1
Model
 70
     1
 71
     0
 10
0.0
 20
0.0
 11
12.0
 21
9.0
 12
0.0
 22
0.0
 32
0.0
 14
-0.0000000000000059
 24
271.597937306856
 34
0.0
 15
167.8567565299966
 25
410.4596387263401
 35
0.0
146
0.0
 13
0.0
 23
0.0
 33
0.0
 16
1.0
 26
0.0
 36
0.0
 17
0.0
 27
1.0
 37
0.0
 76
     0
330
1F
331
29
  0
MATERIAL
  5
3D
102
{ACAD_REACTORS
330
3B
102
}
102
{ACAD_XDICTIONARY
360
264
102
}
330
3B
100
AcDbMaterial
  1
ByBlock
  0
MATERIAL
  5
3C
102
{ACAD_REACTORS
330
3B
102
}
102
{ACAD_XDICTIONARY
360
262
102
}
330
3B
100
AcDbMaterial
  1
ByLayer
  0
MATERIAL
  5
3E
102
{ACAD_REACTORS
330
3B
102
}
102
{ACAD_XDICTIONARY
360
266
102
}
330
3B
100
AcDbMaterial
  1
Global
  0
MLINESTYLE
  5
18
102
{ACAD_REACTORS
330
17
102
}
330
17
100
AcDbMlineStyle
  2
Standard
 70
     0
  3

 62
   256
 51
90.0
 52
90.0
 71
     2
 49
0.5
 62
   256
  6
BYLAYER
 49
-0.5
 62
   256
  6
BYLAYER
  0
ACDBPLACEHOLDER
  5
F
102
{ACAD_REACTORS
330
E
102
}
330
E
  0
SCALE
  5
40
102
{ACAD_REACTORS
330
3F
102
}
330
3F
100
AcDbScale
 70
     0
300
1:1
140
1.0
141
1.0
290
     1
  0
SCALE
  5
41
102
{ACAD_REACTORS
330
3F
102
}
330
3F
100
AcDbScale
 70
     0
300
1:2
140
1.0
141
2.0
290
     0
  0
SCALE
  5
42
102
{ACAD_REACTORS
330
3F
102
}
330
3F
100
AcDbScale
 70
     0
300
1:4
140
1.0
141
4.0
290
     0
  0
SCALE
  5
43
102
{ACAD_REACTORS
330
3F
102
}
330
3F
100
AcDbScale
 70
     0
300
1:5
140
1.0
141
5.0
290
     0
  0
SCALE
  5
44
102
{ACAD_REACTORS
330
3F
102
}
330
3F
100
AcDbScale
 70
     0
300
1:8
140
1.0
141
8.0
290
     0
  0
SCALE
  5
45
102
{ACAD_REACTORS
330
3F
102
}
330
3F
100
AcDbScale
 70
     0
300
1:10
140
1.0
141
10.0
290
     0
  0
SCALE
  5
46
102
{ACAD_REACTORS
330
3F
102
}
330
3F
100
AcDbScale
 70
     0
300
1:16
140
1.0
141
16.0
290
     0
  0
SCALE
  5
47
102
{ACAD_REACTORS
330
3F
102
}
330
3F
100
AcDbScale
 70
     0
300
1:20
140
1.0
141
20.0
290
     0
  0
SCALE
  5
48
102
{ACAD_REACTORS
330
3F
102
}
330
3F
100
AcDbScale
 70
     0
300
1:30
140
1.0
141
30.0
290
     0
  0
SCALE
  5
49
102
{ACAD_REACTORS
330
3F
102
}
330
3F
100
AcDbScale
 70
     0
300
1:40
140
1.0
141
40.0
290
     0
  0
SCALE
  5
4A
102
{ACAD_REACTORS
330
3F
102
}
330
3F
100
AcDbScale
 70
     0
300
1:50
140
1.0
141
50.0
290
     0
  0
SCALE
  5
4B
102
{ACAD_REACTORS
330
3F
102
}
330
3F
100
AcDbScale
 70
     0
300
1:100
140
1.0
141
100.0
290
     0
  0
SCALE
  5
4C
102
{ACAD_REACTORS
330
3F
102
}
330
3F
100
AcDbScale
 70
     0
300
2:1
140
2.0
141
1.0
290
     0
  0
SCALE
  5
4D
102
{ACAD_REACTORS
330
3F
102
}
330
3F
100
AcDbScale
 70
     0
300
4:1
140
4.0
141
1.0
290
     0
  0
SCALE
  5
4E
102
{ACAD_REACTORS
330
3F
102
}
330
3F
100
AcDbScale
 70
     0
300
8:1
140
8.0
141
1.0
290
     0
  0
SCALE
  5
4F
102
{ACAD_REACTORS
330
3F
102
}
330
3F
100
AcDbScale
 70
     0
300
10:1
140
10.0
141
1.0
290
     0
  0
SCALE
  5
50
102
{ACAD_REACTORS
330
3F
102
}
330
3F
100
AcDbScale
 70
     0
300
100:1
140
100.0
141
1.0
290
     0
  0
SCALE
  5
51
102
{ACAD_REACTORS
330
3F
102
}
330
3F
100
AcDbScale
 70
     0
300
1/128" = 1'-0"
140
0.0078125
141
12.0
290
     0
  0
SCALE
  5
52
102
{ACAD_REACTORS
330
3F
102
}
330
3F
100
AcDbScale
 70
     0
300
1/64" = 1'-0"
140
0.015625
141
12.0
290
     0
  0
SCALE
  5
53
102
{ACAD_REACTORS
330
3F
102
}
330
3F
100
AcDbScale
 70
     0
300
1/32" = 1'-0"
140
0.03125
141
12.0
290
     0
  0
SCALE
  5
54
102
{ACAD_REACTORS
330
3F
102
}
330
3F
100
AcDbScale
 70
     0
300
1/16" = 1'-0"
140
0.0625
141
12.0
290
     0
  0
SCALE
  5
55
102
{ACAD_REACTORS
330
3F
102
}
330
3F
100
AcDbScale
 70
     0
300
3/32" = 1'-0"
140
0.09375
141
12.0
290
     0
  0
SCALE
  5
56
102
{ACAD_REACTORS
330
3F
102
}
330
3F
100
AcDbScale
 70
     0
300
1/8" = 1'-0"
140
0.125
141
12.0
290
     0
  0
SCALE
  5
57
102
{ACAD_REACTORS
330
3F
102
}
330
3F
100
AcDbScale
 70
     0
300
3/16" = 1'-0"
140
0.1875
141
12.0
290
     0
  0
SCALE
  5
58
102
{ACAD_REACTORS
330
3F
102
}
330
3F
100
AcDbScale
 70
     0
300
1/4" = 1'-0"
140
0.25
141
12.0
290
     0
  0
SCALE
  5
59
102
{ACAD_REACTORS
330
3F
102
}
330
3F
100
AcDbScale
 70
     0
300
3/8" = 1'-0"
140
0.375
141
12.0
290
     0
  0
SCALE
  5
5A
102
{ACAD_REACTORS
330
3F
102
}
330
3F
100
AcDbScale
 70
     0
300
1/2" = 1'-0"
140
0.5
141
12.0
290
     0
  0
SCALE
  5
5B
102
{ACAD_REACTORS
330
3F
102
}
330
3F
100
AcDbScale
 70
     0
300
3/4" = 1'-0"
140
0.75
141
12.0
290
     0
  0
SCALE
  5
5C
102
{ACAD_REACTORS
330
3F
102
}
330
3F
100
AcDbScale
 70
     0
300
1" = 1'-0"
140
1.0
141
12.0
290
     0
  0
SCALE
  5
5D
102
{ACAD_REACTORS
330
3F
102
}
330
3F
100
AcDbScale
 70
     0
300
1-1/2" = 1'-0"
140
1.5
141
12.0
290
     0
  0
SCALE
  5
5E
102
{ACAD_REACTORS
330
3F
102
}
330
3F
100
AcDbScale
 70
     0
300
3" = 1'-0"
140
3.0
141
12.0
290
     0
  0
SCALE
  5
5F
102
{ACAD_REACTORS
330
3F
102
}
330
3F
100
AcDbScale
 70
     0
300
6" = 1'-0"
140
6.0
141
12.0
290
     0
  0
SCALE
  5
60
102
{ACAD_REACTORS
330
3F
102
}
330
3F
100
AcDbScale
 70
     0
300
1'-0" = 1'-0"
140
12.0
141
12.0
290
     0
  0
VISUALSTYLE
  5
2F
102
{ACAD_REACTORS
330
2A
102
}
102
{ACAD_XDICTIONARY
360
24A
102
}
330
2A
100
AcDbVisualStyle
  2
2dWireframe
 70
     4
 71
     0
 72
     2
 73
     0
 90
        0
 40
0.6
 41
30.0
 62
     5
 63
     7
421
 16777215
 74
     1
 91
        4
 64
     7
 65
   257
 75
     1
175
     1
 42
1.0
 92
        0
 66
   257
 43
1.0
 76
     1
 77
     6
 78
     2
 67
     7
 79
     5
170
     0
171
     0
290
     0
174
     0
 93
        1
 44
0.0
173
     0
291
     0
 45
0.0
1001
ACAD
1000
AcDbSavedByObjectVersion
1070
     0
  0
VISUALSTYLE
  5
31
102
{ACAD_REACTORS
330
2A
102
}
102
{ACAD_XDICTIONARY
360
24E
102
}
330
2A
100
AcDbVisualStyle
  2
3D Hidden
 70
     6
 71
     1
 72
     2
 73
     2
 90
        0
 40
0.6
 41
30.0
 62
     5
 63
     7
421
 16777215
 74
     2
 91
        2
 64
     7
 65
   257
 75
     2
175
     1
 42
40.0
 92
        0
 66
   257
 43
1.0
 76
     1
 77
     6
 78
     2
 67
     7
 79
     3
170
     0
171
     0
290
     0
174
     0
 93
        1
 44
0.0
173
     0
291
     0
 45
0.0
1001
ACAD
1000
AcDbSavedByObjectVersion
1070
     0
  0
VISUALSTYLE
  5
30
102
{ACAD_REACTORS
330
2A
102
}
102
{ACAD_XDICTIONARY
360
24C
102
}
330
2A
100
AcDbVisualStyle
  2
3dWireframe
 70
     5
 71
     0
 72
     2
 73
     0
 90
        0
 40
0.6
 41
30.0
 62
     5
 63
     7
421
 16777215
 74
     1
 91
        4
 64
     7
 65
   257
 75
     1
175
     1
 42
1.0
 92
        0
 66
   257
 43
1.0
 76
     1
 77
     6
 78
     2
 67
     7
 79
     5
170
     0
171
     0
290
     0
174
     0
 93
        1
 44
0.0
173
     0
291
     0
 45
0.0
1001
ACAD
1000
AcDbSavedByObjectVersion
1070
     0
  0
VISUALSTYLE
  5
32
102
{ACAD_REACTORS
330
2A
102
}
102
{ACAD_XDICTIONARY
360
250
102
}
330
2A
100
AcDbVisualStyle
  2
Basic
 70
     7
 71
     1
 72
     0
 73
     1
 90
        0
 40
0.6
 41
30.0
 62
     5
 63
     7
421
 16777215
 74
     0
 91
        4
 64
     7
 65
   257
 75
     1
175
     1
 42
1.0
 92
        8
 66
     7
 43
1.0
 76
     1
 77
     6
 78
     2
 67
     7
 79
     5
170
     0
171
     0
290
     0
174
     0
 93
        1
 44
0.0
173
     0
291
     1
 45
0.0
1001
ACAD
1000
AcDbSavedByObjectVersion
1070
     0
  0
VISUALSTYLE
  5
36
102
{ACAD_REACTORS
330
2A
102
}
102
{ACAD_XDICTIONARY
360
258
102
}
330
2A
100
AcDbVisualStyle
  2
Brighten
 70
    12
 71
     2
 72
     2
 73
     0
 90
        0
 40
0.6
 41
30.0
 62
     5
 63
     7
421
 16777215
 74
     1
 91
        4
 64
     7
 65
   257
 75
     1
175
     1
 42
1.0
 92
        8
 66
     7
 43
1.0
 76
     1
 77
     6
 78
     2
 67
     7
 79
     5
170
     0
171
     0
290
     0
174
     0
 93
        1
 44
50.0
173
     0
291
     1
 45
0.0
1001
ACAD
1000
AcDbSavedByObjectVersion
1070
     0
  0
VISUALSTYLE
  5
3A
102
{ACAD_REACTORS
330
2A
102
}
102
{ACAD_XDICTIONARY
360
260
102
}
330
2A
100
AcDbVisualStyle
  2
ColorChange
 70
    16
 71
     2
 72
     2
 73
     3
 90
        0
 40
0.6
 41
30.0
 62
     5
 63
     8
421
  8421504
 74
     1
 91
        4
 64
     7
 65
   257
 75
     1
175
     1
 42
1.0
 92
        8
 66
     8
424
  8421504
 43
1.0
 76
     1
 77
     6
 78
     2
 67
     7
 79
     5
170
     0
171
     0
290
     0
174
     0
 93
        1
 44
0.0
173
     0
291
     1
 45
0.0
1001
ACAD
1000
AcDbSavedByObjectVersion
1070
     0
  0
VISUALSTYLE
  5
34
102
{ACAD_REACTORS
330
2A
102
}
102
{ACAD_XDICTIONARY
360
254
102
}
330
2A
100
AcDbVisualStyle
  2
Conceptual
 70
     9
 71
     3
 72
     2
 73
     0
 90
        0
 40
0.6
 41
30.0
 62
     5
 63
     7
421
 16777215
 74
     2
 91
        2
 64
     7
 65
   257
 75
     1
175
     1
 42
40.0
 92
        8
 66
     7
 43
1.0
 76
     1
 77
     6
 78
     2
 67
     7
 79
     3
170
     0
171
     0
290
     0
174
     0
 93
        1
 44
0.0
173
     0
291
     0
 45
0.0
1001
ACAD
1000
AcDbSavedByObjectVersion
1070
     0
  0
VISUALSTYLE
  5
35
102
{ACAD_REACTORS
330
2A
102
}
102
{ACAD_XDICTIONARY
360
256
102
}
330
2A
100
AcDbVisualStyle
  2
Dim
 70
    11
 71
     2
 72
     2
 73
     0
 90
        0
 40
0.6
 41
30.0
 62
     5
 63
     7
421
 16777215
 74
     1
 91
        4
 64
     7
 65
   257
 75
     1
175
     1
 42
1.0
 92
        8
 66
     7
 43
1.0
 76
     1
 77
     6
 78
     2
 67
     7
 79
     5
170
     0
171
     0
290
     0
174
     0
 93
        1
 44
-50.0
173
     0
291
     1
 45
0.0
1001
ACAD
1000
AcDbSavedByObjectVersion
1070
     0
  0
VISUALSTYLE
  5
39
102
{ACAD_REACTORS
330
2A
102
}
102
{ACAD_XDICTIONARY
360
25E
102
}
330
2A
100
AcDbVisualStyle
  2
Facepattern
 70
    15
 71
     2
 72
     2
 73
     0
 90
        0
 40
0.6
 41
30.0
 62
     5
 63
     7
421
 16777215
 74
     1
 91
        4
 64
     7
 65
   257
 75
     1
175
     1
 42
1.0
 92
        8
 66
     7
 43
1.0
 76
     1
 77
     6
 78
     2
 67
     7
 79
     5
170
     0
171
     0
290
     0
174
     0
 93
        1
 44
0.0
173
     0
291
     1
 45
0.0
1001
ACAD
1000
AcDbSavedByObjectVersion
1070
     0
  0
VISUALSTYLE
  5
2B
102
{ACAD_REACTORS
330
2A
102
}
102
{ACAD_XDICTIONARY
360
242
102
}
330
2A
100
AcDbVisualStyle
  2
Flat
 70
     0
 71
     2
 72
     1
 73
     1
 90
        2
 40
0.6
 41
30.0
 62
     5
 63
     7
421
 16777215
 74
     0
 91
        4
 64
     7
 65
   257
 75
     1
175
     1
 42
1.0
 92
        8
 66
     7
 43
1.0
 76
     1
 77
     6
 78
     2
 67
     7
 79
     5
170
     0
171
     0
290
     0
174
     0
 93
       13
 44
0.0
173
     0
291
     1
 45
0.0
1001
ACAD
1000
AcDbSavedByObjectVersion
1070
     0
  0
VISUALSTYLE
  5
2C
102
{ACAD_REACTORS
330
2A
102
}
102
{ACAD_XDICTIONARY
360
244
102
}
330
2A
100
AcDbVisualStyle
  2
FlatWithEdges
 70
     1
 71
     2
 72
     1
 73
     1
 90
        2
 40
0.6
 41
30.0
 62
     5
 63
     7
421
 16777215
 74
     1
 91
        4
 64
     7
 65
   257
 75
     1
175
     1
 42
1.0
 92
        0
 66
   257
 43
1.0
 76
     1
 77
     6
 78
     2
 67
     7
 79
     5
170
     0
171
     0
290
     0
174
     0
 93
       13
 44
0.0
173
     0
291
     1
 45
0.0
1001
ACAD
1000
AcDbSavedByObjectVersion
1070
     0
  0
VISUALSTYLE
  5
2D
102
{ACAD_REACTORS
330
2A
102
}
102
{ACAD_XDICTIONARY
360
246
102
}
330
2A
100
AcDbVisualStyle
  2
Gouraud
 70
     2
 71
     2
 72
     2
 73
     1
 90
        2
 40
0.6
 41
30.0
 62
     5
 63
     7
421
 16777215
 74
     0
 91
        4
 64
     7
 65
   257
 75
     1
175
     1
 42
1.0
 92
        0
 66
     7
 43
1.0
 76
     1
 77
     6
 78
     2
 67
     7
 79
     5
170
     0
171
     0
290
     0
174
     0
 93
       13
 44
0.0
173
     0
291
     1
 45
0.0
1001
ACAD
1000
AcDbSavedByObjectVersion
1070
     0
  0
VISUALSTYLE
  5
2E
102
{ACAD_REACTORS
330
2A
102
}
102
{ACAD_XDICTIONARY
360
248
102
}
330
2A
100
AcDbVisualStyle
  2
GouraudWithEdges
 70
     3
 71
     2
 72
     2
 73
     1
 90
        2
 40
0.6
 41
30.0
 62
     5
 63
     7
421
 16777215
 74
     1
 91
        4
 64
     7
 65
   257
 75
     1
175
     1
 42
1.0
 92
        0
 66
   257
 43
1.0
 76
     1
 77
     6
 78
     2
 67
     7
 79
     5
170
     0
171
     0
290
     0
174
     0
 93
       13
 44
0.0
173
     0
291
     1
 45
0.0
1001
ACAD
1000
AcDbSavedByObjectVersion
1070
     0
  0
VISUALSTYLE
  5
38
102
{ACAD_REACTORS
330
2A
102
}
102
{ACAD_XDICTIONARY
360
25C
102
}
330
2A
100
AcDbVisualStyle
  2
Linepattern
 70
    14
 71
     2
 72
     2
 73
     0
 90
        0
 40
0.6
 41
30.0
 62
     5
 63
     7
421
 16777215
 74
     1
 91
        4
 64
     7
 65
   257
 75
     7
175
     7
 42
1.0
 92
        8
 66
     7
 43
1.0
 76
     1
 77
     6
 78
     2
 67
     7
 79
     5
170
     0
171
     0
290
     0
174
     0
 93
        1
 44
0.0
173
     0
291
     1
 45
0.0
1001
ACAD
1000
AcDbSavedByObjectVersion
1070
     0
  0
VISUALSTYLE
  5
33
102
{ACAD_REACTORS
330
2A
102
}
102
{ACAD_XDICTIONARY
360
252
102
}
330
2A
100
AcDbVisualStyle
  2
Realistic
 70
     8
 71
     2
 72
     3
 73
     0
 90
        2
 40
0.6
 41
30.0
 62
     5
 63
     7
421
 16777215
 74
     0
 91
        0
 64
     7
 65
   257
 75
     1
175
     1
 42
1.0
 92
        8
 66
   257
 43
1.0
 76
     1
 77
     6
 78
     2
 67
     7
 79
     3
170
     0
171
     0
290
     0
174
     0
 93
       13
 44
0.0
173
     0
291
     0
 45
0.0
1001
ACAD
1000
AcDbSavedByObjectVersion
1070
     0
  0
VISUALSTYLE
  5
37
102
{ACAD_REACTORS
330
2A
102
}
102
{ACAD_XDICTIONARY
360
25A
102
}
330
2A
100
AcDbVisualStyle
  2
Thicken
 70
    13
 71
     2
 72
     2
 73
     0
 90
        0
 40
0.6
 41
30.0
 62
     5
 63
     7
421
 16777215
 74
     1
 91
        4
 64
     7
 65
   257
 75
     1
175
     1
 42
1.0
 92
       12
 66
     7
 43
1.0
 76
     1
 77
     6
 78
     2
 67
     7
 79
     5
170
     0
171
     0
290
     0
174
     0
 93
        1
 44
0.0
173
     0
291
     1
 45
0.0
1001
ACAD
1000
AcDbSavedByObjectVersion
1070
     0
  0
DICTIONARYVAR
  5
240
102
{ACAD_REACTORS
330
23F
102
}
330
23F
100
DictionaryVariables
280
     0
  1
1:1
  0
DICTIONARYVAR
  5
241
102
{ACAD_REACTORS
330
23F
102
}
330
23F
100
DictionaryVariables
280
     0
  1
1
  0
DICTIONARY
  5
264
330
3D
100
AcDbDictionary
280
     1
281
     1
  3
ACAD_XREC_ROUNDTRIP
360
265
  0
DICTIONARY
  5
262
330
3C
100
AcDbDictionary
280
     1
281
     1
  3
ACAD_XREC_ROUNDTRIP
360
263
  0
DICTIONARY
  5
266
330
3E
100
AcDbDictionary
280
     1
281
     1
  3
ACAD_XREC_ROUNDTRIP
360
267
  0
DICTIONARY
  5
24A
330
2F
100
AcDbDictionary
280
     1
281
     1
  3
ACAD_XREC_ROUNDTRIP
360
24B
  0
DICTIONARY
  5
24E
330
31
100
AcDbDictionary
280
     1
281
     1
  3
ACAD_XREC_ROUNDTRIP
360
24F
  0
DICTIONARY
  5
24C
330
30
100
AcDbDictionary
280
     1
281
     1
  3
ACAD_XREC_ROUNDTRIP
360
24D
  0
DICTIONARY
  5
250
330
32
100
AcDbDictionary
280
     1
281
     1
  3
ACAD_XREC_ROUNDTRIP
360
251
  0
DICTIONARY
  5
258
330
36
100
AcDbDictionary
280
     1
281
     1
  3
ACAD_XREC_ROUNDTRIP
360
259
  0
DICTIONARY
  5
260
330
3A
100
AcDbDictionary
280
     1
281
     1
  3
ACAD_XREC_ROUNDTRIP
360
261
  0
DICTIONARY
  5
254
330
34
100
AcDbDictionary
280
     1
281
     1
  3
ACAD_XREC_ROUNDTRIP
360
255
  0
DICTIONARY
  5
256
330
35
100
AcDbDictionary
280
     1
281
     1
  3
ACAD_XREC_ROUNDTRIP
360
257
  0
DICTIONARY
  5
25E
330
39
100
AcDbDictionary
280
     1
281
     1
  3
ACAD_XREC_ROUNDTRIP
360
25F
  0
DICTIONARY
  5
242
330
2B
100
AcDbDictionary
280
     1
281
     1
  3
ACAD_XREC_ROUNDTRIP
360
243
  0
DICTIONARY
  5
244
330
2C
100
AcDbDictionary
280
     1
281
     1
  3
ACAD_XREC_ROUNDTRIP
360
245
  0
DICTIONARY
  5
246
330
2D
100
AcDbDictionary
280
     1
281
     1
  3
ACAD_XREC_ROUNDTRIP
360
247
  0
DICTIONARY
  5
248
330
2E
100
AcDbDictionary
280
     1
281
     1
  3
ACAD_XREC_ROUNDTRIP
360
249
  0
DICTIONARY
  5
25C
330
38
100
AcDbDictionary
280
     1
281
     1
  3
ACAD_XREC_ROUNDTRIP
360
25D
  0
DICTIONARY
  5
252
330
33
100
AcDbDictionary
280
     1
281
     1
  3
ACAD_XREC_ROUNDTRIP
360
253
  0
DICTIONARY
  5
25A
330
37
100
AcDbDictionary
280
     1
281
     1
  3
ACAD_XREC_ROUNDTRIP
360
25B
  0
XRECORD
  5
265
102
{ACAD_REACTORS
330
264
102
}
330
264
100
AcDbXrecord
280
     1
102
MATERIAL
148
0.0
149
0.0
149
0.0
 93
        0
 94
      127
282
     0
 72
     1
 77
     1
171
     1
175
     1
179
     1
273
     0
  0
XRECORD
  5
263
102
{ACAD_REACTORS
330
262
102
}
330
262
100
AcDbXrecord
280
     1
102
MATERIAL
148
0.0
149
0.0
149
0.0
 93
        0
 94
      127
282
     0
 72
     1
 77
     1
171
     1
175
     1
179
     1
273
     0
  0
XRECORD
  5
267
102
{ACAD_REACTORS
330
266
102
}
330
266
100
AcDbXrecord
280
     1
102
MATERIAL
148
0.0
149
0.0
149
0.0
 93
        0
 94
      127
282
     0
 72
     1
 77
     1
171
     1
175
     1
179
     1
273
     0
  0
XRECORD
  5
24B
102
{ACAD_REACTORS
330
24A
102
}
330
24A
100
AcDbXrecord
280
     1
102
RTVSPropertyOp0
 70
     1
102
RTVSPropertyOp1
 70
     1
102
RTVSPropertyOp2
 70
     1
102
RTVSPropertyOp3
 70
     1
102
RTVSPropertyOp4
 70
     1
102
RTVSPropertyOp5
 70
     1
102
RTVSPropertyOp6
 70
     1
102
RTVSPropertyOp7
 70
     1
102
RTVSPropertyOp8
 70
     1
102
RTVSPropertyOp9
 70
     1
102
RTVSPropertyOp10
 70
     1
102
RTVSPropertyOp11
 70
     1
102
RTVSPropertyOp12
 70
     1
102
RTVSPropertyOp13
 70
     1
102
RTVSPropertyOp14
 70
     1
102
RTVSPropertyOp15
 70
     1
102
RTVSPropertyOp16
 70
     1
102
RTVSPropertyOp17
 70
     1
102
RTVSPropertyOp18
 70
     1
102
RTVSPropertyOp19
 70
     1
102
RTVSPropertyOp20
 70
     1
102
RTVSPropertyOp21
 70
     1
102
RTVSPropertyOp22
 70
     1
102
RTVSPropertyOp23
 70
     1
102
RTVSPropertyOp24
 70
     1
102
RTVSPropertyOp25
 70
     1
102
RTVSPropertyOp26
 70
     1
102
RTVSPropertyOp27
 70
     1
102
RTVSPropertyOp28
 70
     1
102
RTVSPropertyOp29
 70
     1
102
RTVSPropertyOp30
 70
     1
102
RTVSPropertyOp31
 70
     1
102
RTVSPropertyOp32
 70
     1
102
RTVSPropertyOp33
 70
     1
102
RTVSPropertyOp34
 70
     1
102
RTVSPropertyOp35
 70
     1
102
RTVSPropertyOp36
 70
     1
102
RTVSPropertyOp37
 70
     1
102
RTVSPropertyOp38
 70
     1
102
RTVSPropertyOp39
 70
     1
102
RTVSPropertyOp40
 70
     1
102
RTVSPropertyOp41
 70
     1
102
RTVSPropertyOp42
 70
     1
102
RTVSPropertyOp43
 70
     1
102
RTVSPropertyOp44
 70
     1
102
RTVSPropertyOp45
 70
     1
102
RTVSPropertyOp46
 70
     1
102
RTVSPropertyOp47
 70
     1
102
RTVSPropertyOp48
 70
     1
102
RTVSPropertyOp49
 70
     1
102
RTVSPropertyOp50
 70
     1
102
RTVSPropertyOp51
 70
     0
102
RTVSPropertyOp52
 70
     0
102
RTVSPropertyOp53
 70
     1
102
RTVSPropertyOp54
 70
     1
102
RTVSPropertyOp55
 70
     1
102
RTVSPropertyOp56
 70
     1
102
RTVSPropertyOp57
 70
     1
102
RTVSPost2010Prop28
280
     1
102
RTVSPost2010PropOp28
 70
     1
102
RTVSPost2010Prop29
280
     1
102
RTVSPost2010PropOp29
 70
     1
102
RTVSPost2010Prop30
280
     0
102
RTVSPost2010PropOp30
 70
     1
102
RTVSPost2010Prop31
280
     0
102
RTVSPost2010PropOp31
 70
     1
102
RTVSPost2010Prop32
280
     0
102
RTVSPost2010PropOp32
 70
     1
102
RTVSPost2010Prop33
280
     0
102
RTVSPost2010PropOp33
 70
     1
102
RTVSPost2010Prop34
280
     0
102
RTVSPost2010PropOp34
 70
     1
102
RTVSPost2010Prop35
280
     0
102
RTVSPost2010PropOp35
 70
     1
102
RTVSPost2010Prop36
280
     0
102
RTVSPost2010PropOp36
 70
     1
102
RTVSPost2010Prop37
 90
       50
102
RTVSPost2010PropOp37
 70
     1
102
RTVSPost2010Prop38
140
0.0
102
RTVSPost2010PropOp38
 70
     1
102
RTVSPost2010Prop39
140
1.0
102
RTVSPost2010PropOp39
 70
     1
102
RTVSPost2010Prop40
 90
        0
102
RTVSPost2010PropOp40
 70
     1
102
RTVSPost2010Prop41ColorIndex
 90
       18
102
RTVSPost2010Prop41ColorRGB
 90
        0
102
RTVSPost2010PropOp41
 70
     1
102
RTVSPost2010Prop42
 90
       50
102
RTVSPost2010PropOp42
 70
     1
102
RTVSPost2010Prop43
 90
        3
102
RTVSPost2010PropOp43
 70
     1
102
RTVSPost2010Prop44ColorIndex
 90
        5
102
RTVSPost2010Prop44ColorRGB
 90
      255
102
RTVSPost2010PropOp44
 70
     1
102
RTVSPost2010Prop45
280
     0
102
RTVSPost2010PropOp45
 70
     1
102
RTVSPost2010Prop46
 90
       50
102
RTVSPost2010PropOp46
 70
     1
102
RTVSPost2010Prop47
 90
       50
102
RTVSPost2010PropOp47
 70
     1
102
RTVSPost2010Prop48
 90
       50
102
RTVSPost2010PropOp48
 70
     1
102
RTVSPost2010Prop49
280
     0
102
RTVSPost2010PropOp49
 70
     1
102
RTVSPost2010Prop50
 90
       50
102
RTVSPost2010PropOp50
 70
     1
102
RTVSPost2010Prop51ColorIndex
 90
      256
102
RTVSPost2010Prop51ColorRGB
 90
-16777216
102
RTVSPost2010PropOp51
 70
     0
102
RTVSPost2010Prop52
140
1.0
102
RTVSPost2010PropOp52
 70
     0
102
RTVSPost2010Prop53
 90
        2
102
RTVSPost2010PropOp53
 70
     1
102
RTVSPost2010Prop54
  1
strokes_ogs.tif
102
RTVSPost2010PropOp54
 70
     1
102
RTVSPost2010Prop55
280
     0
102
RTVSPost2010PropOp55
 70
     1
102
RTVSPost2010Prop56
140
1.0
102
RTVSPost2010PropOp56
 70
     1
102
RTVSPost2010Prop57
140
1.0
102
RTVSPost2010PropOp57
 70
     1
  0
XRECORD
  5
24F
102
{ACAD_REACTORS
330
24E
102
}
330
24E
100
AcDbXrecord
280
     1
102
RTVSPropertyOp0
 70
     1
102
RTVSPropertyOp1
 70
     1
102
RTVSPropertyOp2
 70
     1
102
RTVSPropertyOp3
 70
     1
102
RTVSPropertyOp4
 70
     1
102
RTVSPropertyOp5
 70
     1
102
RTVSPropertyOp6
 70
     1
102
RTVSPropertyOp7
 70
     1
102
RTVSPropertyOp8
 70
     1
102
RTVSPropertyOp9
 70
     1
102
RTVSPropertyOp10
 70
     1
102
RTVSPropertyOp11
 70
     1
102
RTVSPropertyOp12
 70
     1
102
RTVSPropertyOp13
 70
     1
102
RTVSPropertyOp14
 70
     1
102
RTVSPropertyOp15
 70
     1
102
RTVSPropertyOp16
 70
     1
102
RTVSPropertyOp17
 70
     1
102
RTVSPropertyOp18
 70
     1
102
RTVSPropertyOp19
 70
     1
102
RTVSPropertyOp20
 70
     1
102
RTVSPropertyOp21
 70
     1
102
RTVSPropertyOp22
 70
     1
102
RTVSPropertyOp23
 70
     1
102
RTVSPropertyOp24
 70
     1
102
RTVSPropertyOp25
 70
     1
102
RTVSPropertyOp26
 70
     1
102
RTVSPropertyOp27
 70
     1
102
RTVSPropertyOp28
 70
     1
102
RTVSPropertyOp29
 70
     1
102
RTVSPropertyOp30
 70
     1
102
RTVSPropertyOp31
 70
     1
102
RTVSPropertyOp32
 70
     1
102
RTVSPropertyOp33
 70
     1
102
RTVSPropertyOp34
 70
     1
102
RTVSPropertyOp35
 70
     1
102
RTVSPropertyOp36
 70
     1
102
RTVSPropertyOp37
 70
     1
102
RTVSPropertyOp38
 70
     1
102
RTVSPropertyOp39
 70
     1
102
RTVSPropertyOp40
 70
     1
102
RTVSPropertyOp41
 70
     1
102
RTVSPropertyOp42
 70
     1
102
RTVSPropertyOp43
 70
     1
102
RTVSPropertyOp44
 70
     1
102
RTVSPropertyOp45
 70
     1
102
RTVSPropertyOp46
 70
     1
102
RTVSPropertyOp47
 70
     1
102
RTVSPropertyOp48
 70
     1
102
RTVSPropertyOp49
 70
     1
102
RTVSPropertyOp50
 70
     1
102
RTVSPropertyOp51
 70
     0
102
RTVSPropertyOp52
 70
     0
102
RTVSPropertyOp53
 70
     1
102
RTVSPropertyOp54
 70
     1
102
RTVSPropertyOp55
 70
     1
102
RTVSPropertyOp56
 70
     1
102
RTVSPropertyOp57
 70
     1
102
RTVSPost2010Prop28
280
     0
102
RTVSPost2010PropOp28
 70
     1
102
RTVSPost2010Prop29
280
     1
102
RTVSPost2010PropOp29
 70
     1
102
RTVSPost2010Prop30
280
     1
102
RTVSPost2010PropOp30
 70
     1
102
RTVSPost2010Prop31
280
     0
102
RTVSPost2010PropOp31
 70
     1
102
RTVSPost2010Prop32
280
     0
102
RTVSPost2010PropOp32
 70
     1
102
RTVSPost2010Prop33
280
     0
102
RTVSPost2010PropOp33
 70
     1
102
RTVSPost2010Prop34
280
     0
102
RTVSPost2010PropOp34
 70
     1
102
RTVSPost2010Prop35
280
     0
102
RTVSPost2010PropOp35
 70
     1
102
RTVSPost2010Prop36
280
     0
102
RTVSPost2010PropOp36
 70
     1
102
RTVSPost2010Prop37
 90
       50
102
RTVSPost2010PropOp37
 70
     1
102
RTVSPost2010Prop38
140
0.0
102
RTVSPost2010PropOp38
 70
     1
102
RTVSPost2010Prop39
140
1.0
102
RTVSPost2010PropOp39
 70
     1
102
RTVSPost2010Prop40
 90
        0
102
RTVSPost2010PropOp40
 70
     1
102
RTVSPost2010Prop41ColorIndex
 90
       18
102
RTVSPost2010Prop41ColorRGB
 90
        0
102
RTVSPost2010PropOp41
 70
     1
102
RTVSPost2010Prop42
 90
       50
102
RTVSPost2010PropOp42
 70
     1
102
RTVSPost2010Prop43
 90
        3
102
RTVSPost2010PropOp43
 70
     1
102
RTVSPost2010Prop44ColorIndex
 90
        5
102
RTVSPost2010Prop44ColorRGB
 90
      255
102
RTVSPost2010PropOp44
 70
     1
102
RTVSPost2010Prop45
280
     0
102
RTVSPost2010PropOp45
 70
     1
102
RTVSPost2010Prop46
 90
       50
102
RTVSPost2010PropOp46
 70
     1
102
RTVSPost2010Prop47
 90
       50
102
RTVSPost2010PropOp47
 70
     1
102
RTVSPost2010Prop48
 90
       50
102
RTVSPost2010PropOp48
 70
     1
102
RTVSPost2010Prop49
280
     0
102
RTVSPost2010PropOp49
 70
     1
102
RTVSPost2010Prop50
 90
       50
102
RTVSPost2010PropOp50
 70
     1
102
RTVSPost2010Prop51ColorIndex
 90
      256
102
RTVSPost2010Prop51ColorRGB
 90
-16777216
102
RTVSPost2010PropOp51
 70
     0
102
RTVSPost2010Prop52
140
1.0
102
RTVSPost2010PropOp52
 70
     0
102
RTVSPost2010Prop53
 90
        2
102
RTVSPost2010PropOp53
 70
     1
102
RTVSPost2010Prop54
  1
strokes_ogs.tif
102
RTVSPost2010PropOp54
 70
     1
102
RTVSPost2010Prop55
280
     0
102
RTVSPost2010PropOp55
 70
     1
102
RTVSPost2010Prop56
140
1.0
102
RTVSPost2010PropOp56
 70
     1
102
RTVSPost2010Prop57
140
1.0
102
RTVSPost2010PropOp57
 70
     1
  0
XRECORD
  5
24D
102
{ACAD_REACTORS
330
24C
102
}
330
24C
100
AcDbXrecord
280
     1
102
RTVSPropertyOp0
 70
     1
102
RTVSPropertyOp1
 70
     1
102
RTVSPropertyOp2
 70
     1
102
RTVSPropertyOp3
 70
     1
102
RTVSPropertyOp4
 70
     1
102
RTVSPropertyOp5
 70
     1
102
RTVSPropertyOp6
 70
     1
102
RTVSPropertyOp7
 70
     1
102
RTVSPropertyOp8
 70
     1
102
RTVSPropertyOp9
 70
     1
102
RTVSPropertyOp10
 70
     1
102
RTVSPropertyOp11
 70
     1
102
RTVSPropertyOp12
 70
     1
102
RTVSPropertyOp13
 70
     1
102
RTVSPropertyOp14
 70
     1
102
RTVSPropertyOp15
 70
     1
102
RTVSPropertyOp16
 70
     1
102
RTVSPropertyOp17
 70
     1
102
RTVSPropertyOp18
 70
     1
102
RTVSPropertyOp19
 70
     1
102
RTVSPropertyOp20
 70
     1
102
RTVSPropertyOp21
 70
     1
102
RTVSPropertyOp22
 70
     1
102
RTVSPropertyOp23
 70
     1
102
RTVSPropertyOp24
 70
     1
102
RTVSPropertyOp25
 70
     1
102
RTVSPropertyOp26
 70
     1
102
RTVSPropertyOp27
 70
     1
102
RTVSPropertyOp28
 70
     1
102
RTVSPropertyOp29
 70
     1
102
RTVSPropertyOp30
 70
     1
102
RTVSPropertyOp31
 70
     1
102
RTVSPropertyOp32
 70
     1
102
RTVSPropertyOp33
 70
     1
102
RTVSPropertyOp34
 70
     1
102
RTVSPropertyOp35
 70
     1
102
RTVSPropertyOp36
 70
     1
102
RTVSPropertyOp37
 70
     1
102
RTVSPropertyOp38
 70
     1
102
RTVSPropertyOp39
 70
     1
102
RTVSPropertyOp40
 70
     1
102
RTVSPropertyOp41
 70
     1
102
RTVSPropertyOp42
 70
     1
102
RTVSPropertyOp43
 70
     1
102
RTVSPropertyOp44
 70
     1
102
RTVSPropertyOp45
 70
     1
102
RTVSPropertyOp46
 70
     1
102
RTVSPropertyOp47
 70
     1
102
RTVSPropertyOp48
 70
     1
102
RTVSPropertyOp49
 70
     1
102
RTVSPropertyOp50
 70
     1
102
RTVSPropertyOp51
 70
     0
102
RTVSPropertyOp52
 70
     0
102
RTVSPropertyOp53
 70
     1
102
RTVSPropertyOp54
 70
     1
102
RTVSPropertyOp55
 70
     1
102
RTVSPropertyOp56
 70
     1
102
RTVSPropertyOp57
 70
     1
102
RTVSPost2010Prop28
280
     0
102
RTVSPost2010PropOp28
 70
     1
102
RTVSPost2010Prop29
280
     1
102
RTVSPost2010PropOp29
 70
     1
102
RTVSPost2010Prop30
280
     1
102
RTVSPost2010PropOp30
 70
     1
102
RTVSPost2010Prop31
280
     0
102
RTVSPost2010PropOp31
 70
     1
102
RTVSPost2010Prop32
280
     0
102
RTVSPost2010PropOp32
 70
     1
102
RTVSPost2010Prop33
280
     0
102
RTVSPost2010PropOp33
 70
     1
102
RTVSPost2010Prop34
280
     0
102
RTVSPost2010PropOp34
 70
     1
102
RTVSPost2010Prop35
280
     0
102
RTVSPost2010PropOp35
 70
     1
102
RTVSPost2010Prop36
280
     0
102
RTVSPost2010PropOp36
 70
     1
102
RTVSPost2010Prop37
 90
       50
102
RTVSPost2010PropOp37
 70
     1
102
RTVSPost2010Prop38
140
0.0
102
RTVSPost2010PropOp38
 70
     1
102
RTVSPost2010Prop39
140
1.0
102
RTVSPost2010PropOp39
 70
     1
102
RTVSPost2010Prop40
 90
        0
102
RTVSPost2010PropOp40
 70
     1
102
RTVSPost2010Prop41ColorIndex
 90
       18
102
RTVSPost2010Prop41ColorRGB
 90
        0
102
RTVSPost2010PropOp41
 70
     1
102
RTVSPost2010Prop42
 90
       50
102
RTVSPost2010PropOp42
 70
     1
102
RTVSPost2010Prop43
 90
        3
102
RTVSPost2010PropOp43
 70
     1
102
RTVSPost2010Prop44ColorIndex
 90
        5
102
RTVSPost2010Prop44ColorRGB
 90
      255
102
RTVSPost2010PropOp44
 70
     1
102
RTVSPost2010Prop45
280
     0
102
RTVSPost2010PropOp45
 70
     1
102
RTVSPost2010Prop46
 90
       50
102
RTVSPost2010PropOp46
 70
     1
102
RTVSPost2010Prop47
 90
       50
102
RTVSPost2010PropOp47
 70
     1
102
RTVSPost2010Prop48
 90
       50
102
RTVSPost2010PropOp48
 70
     1
102
RTVSPost2010Prop49
280
     0
102
RTVSPost2010PropOp49
 70
     1
102
RTVSPost2010Prop50
 90
       50
102
RTVSPost2010PropOp50
 70
     1
102
RTVSPost2010Prop51ColorIndex
 90
      256
102
RTVSPost2010Prop51ColorRGB
 90
-16777216
102
RTVSPost2010PropOp51
 70
     0
102
RTVSPost2010Prop52
140
1.0
102
RTVSPost2010PropOp52
 70
     0
102
RTVSPost2010Prop53
 90
        2
102
RTVSPost2010PropOp53
 70
     1
102
RTVSPost2010Prop54
  1
strokes_ogs.tif
102
RTVSPost2010PropOp54
 70
     1
102
RTVSPost2010Prop55
280
     0
102
RTVSPost2010PropOp55
 70
     1
102
RTVSPost2010Prop56
140
1.0
102
RTVSPost2010PropOp56
 70
     1
102
RTVSPost2010Prop57
140
1.0
102
RTVSPost2010PropOp57
 70
     1
  0
XRECORD
  5
251
102
{ACAD_REACTORS
330
250
102
}
330
250
100
AcDbXrecord
280
     1
102
RTVSPropertyOp0
 70
     1
102
RTVSPropertyOp1
 70
     1
102
RTVSPropertyOp2
 70
     1
102
RTVSPropertyOp3
 70
     1
102
RTVSPropertyOp4
 70
     1
102
RTVSPropertyOp5
 70
     1
102
RTVSPropertyOp6
 70
     1
102
RTVSPropertyOp7
 70
     1
102
RTVSPropertyOp8
 70
     1
102
RTVSPropertyOp9
 70
     1
102
RTVSPropertyOp10
 70
     1
102
RTVSPropertyOp11
 70
     1
102
RTVSPropertyOp12
 70
     1
102
RTVSPropertyOp13
 70
     1
102
RTVSPropertyOp14
 70
     1
102
RTVSPropertyOp15
 70
     1
102
RTVSPropertyOp16
 70
     1
102
RTVSPropertyOp17
 70
     1
102
RTVSPropertyOp18
 70
     1
102
RTVSPropertyOp19
 70
     1
102
RTVSPropertyOp20
 70
     1
102
RTVSPropertyOp21
 70
     1
102
RTVSPropertyOp22
 70
     1
102
RTVSPropertyOp23
 70
     1
102
RTVSPropertyOp24
 70
     1
102
RTVSPropertyOp25
 70
     1
102
RTVSPropertyOp26
 70
     1
102
RTVSPropertyOp27
 70
     1
102
RTVSPropertyOp28
 70
     1
102
RTVSPropertyOp29
 70
     1
102
RTVSPropertyOp30
 70
     1
102
RTVSPropertyOp31
 70
     1
102
RTVSPropertyOp32
 70
     1
102
RTVSPropertyOp33
 70
     1
102
RTVSPropertyOp34
 70
     1
102
RTVSPropertyOp35
 70
     1
102
RTVSPropertyOp36
 70
     1
102
RTVSPropertyOp37
 70
     1
102
RTVSPropertyOp38
 70
     1
102
RTVSPropertyOp39
 70
     1
102
RTVSPropertyOp40
 70
     1
102
RTVSPropertyOp41
 70
     1
102
RTVSPropertyOp42
 70
     1
102
RTVSPropertyOp43
 70
     1
102
RTVSPropertyOp44
 70
     1
102
RTVSPropertyOp45
 70
     1
102
RTVSPropertyOp46
 70
     1
102
RTVSPropertyOp47
 70
     1
102
RTVSPropertyOp48
 70
     1
102
RTVSPropertyOp49
 70
     1
102
RTVSPropertyOp50
 70
     1
102
RTVSPropertyOp51
 70
     0
102
RTVSPropertyOp52
 70
     0
102
RTVSPropertyOp53
 70
     1
102
RTVSPropertyOp54
 70
     1
102
RTVSPropertyOp55
 70
     1
102
RTVSPropertyOp56
 70
     1
102
RTVSPropertyOp57
 70
     1
102
RTVSPost2010Prop28
280
     0
102
RTVSPost2010PropOp28
 70
     1
102
RTVSPost2010Prop29
280
     1
102
RTVSPost2010PropOp29
 70
     1
102
RTVSPost2010Prop30
280
     1
102
RTVSPost2010PropOp30
 70
     1
102
RTVSPost2010Prop31
280
     0
102
RTVSPost2010PropOp31
 70
     1
102
RTVSPost2010Prop32
280
     0
102
RTVSPost2010PropOp32
 70
     1
102
RTVSPost2010Prop33
280
     0
102
RTVSPost2010PropOp33
 70
     1
102
RTVSPost2010Prop34
280
     0
102
RTVSPost2010PropOp34
 70
     1
102
RTVSPost2010Prop35
280
     0
102
RTVSPost2010PropOp35
 70
     1
102
RTVSPost2010Prop36
280
     0
102
RTVSPost2010PropOp36
 70
     1
102
RTVSPost2010Prop37
 90
       50
102
RTVSPost2010PropOp37
 70
     1
102
RTVSPost2010Prop38
140
0.0
102
RTVSPost2010PropOp38
 70
     1
102
RTVSPost2010Prop39
140
1.0
102
RTVSPost2010PropOp39
 70
     1
102
RTVSPost2010Prop40
 90
        0
102
RTVSPost2010PropOp40
 70
     1
102
RTVSPost2010Prop41ColorIndex
 90
       18
102
RTVSPost2010Prop41ColorRGB
 90
        0
102
RTVSPost2010PropOp41
 70
     1
102
RTVSPost2010Prop42
 90
       50
102
RTVSPost2010PropOp42
 70
     1
102
RTVSPost2010Prop43
 90
        3
102
RTVSPost2010PropOp43
 70
     1
102
RTVSPost2010Prop44ColorIndex
 90
        5
102
RTVSPost2010Prop44ColorRGB
 90
      255
102
RTVSPost2010PropOp44
 70
     1
102
RTVSPost2010Prop45
280
     0
102
RTVSPost2010PropOp45
 70
     1
102
RTVSPost2010Prop46
 90
       50
102
RTVSPost2010PropOp46
 70
     1
102
RTVSPost2010Prop47
 90
       50
102
RTVSPost2010PropOp47
 70
     1
102
RTVSPost2010Prop48
 90
       50
102
RTVSPost2010PropOp48
 70
     1
102
RTVSPost2010Prop49
280
     0
102
RTVSPost2010PropOp49
 70
     1
102
RTVSPost2010Prop50
 90
       50
102
RTVSPost2010PropOp50
 70
     1
102
RTVSPost2010Prop51ColorIndex
 90
      256
102
RTVSPost2010Prop51ColorRGB
 90
-16777216
102
RTVSPost2010PropOp51
 70
     0
102
RTVSPost2010Prop52
140
1.0
102
RTVSPost2010PropOp52
 70
     0
102
RTVSPost2010Prop53
 90
        2
102
RTVSPost2010PropOp53
 70
     1
102
RTVSPost2010Prop54
  1
strokes_ogs.tif
102
RTVSPost2010PropOp54
 70
     1
102
RTVSPost2010Prop55
280
     0
102
RTVSPost2010PropOp55
 70
     1
102
RTVSPost2010Prop56
140
1.0
102
RTVSPost2010PropOp56
 70
     1
102
RTVSPost2010Prop57
140
1.0
102
RTVSPost2010PropOp57
 70
     1
  0
XRECORD
  5
259
102
{ACAD_REACTORS
330
258
102
}
330
258
100
AcDbXrecord
280
     1
102
RTVSPropertyOp0
 70
     1
102
RTVSPropertyOp1
 70
     1
102
RTVSPropertyOp2
 70
     1
102
RTVSPropertyOp3
 70
     1
102
RTVSPropertyOp4
 70
     1
102
RTVSPropertyOp5
 70
     1
102
RTVSPropertyOp6
 70
     1
102
RTVSPropertyOp7
 70
     1
102
RTVSPropertyOp8
 70
     1
102
RTVSPropertyOp9
 70
     1
102
RTVSPropertyOp10
 70
     1
102
RTVSPropertyOp11
 70
     1
102
RTVSPropertyOp12
 70
     1
102
RTVSPropertyOp13
 70
     1
102
RTVSPropertyOp14
 70
     1
102
RTVSPropertyOp15
 70
     1
102
RTVSPropertyOp16
 70
     1
102
RTVSPropertyOp17
 70
     1
102
RTVSPropertyOp18
 70
     1
102
RTVSPropertyOp19
 70
     1
102
RTVSPropertyOp20
 70
     1
102
RTVSPropertyOp21
 70
     1
102
RTVSPropertyOp22
 70
     1
102
RTVSPropertyOp23
 70
     1
102
RTVSPropertyOp24
 70
     1
102
RTVSPropertyOp25
 70
     1
102
RTVSPropertyOp26
 70
     1
102
RTVSPropertyOp27
 70
     1
102
RTVSPropertyOp28
 70
     1
102
RTVSPropertyOp29
 70
     1
102
RTVSPropertyOp30
 70
     1
102
RTVSPropertyOp31
 70
     1
102
RTVSPropertyOp32
 70
     1
102
RTVSPropertyOp33
 70
     1
102
RTVSPropertyOp34
 70
     1
102
RTVSPropertyOp35
 70
     1
102
RTVSPropertyOp36
 70
     1
102
RTVSPropertyOp37
 70
     1
102
RTVSPropertyOp38
 70
     1
102
RTVSPropertyOp39
 70
     1
102
RTVSPropertyOp40
 70
     1
102
RTVSPropertyOp41
 70
     1
102
RTVSPropertyOp42
 70
     1
102
RTVSPropertyOp43
 70
     1
102
RTVSPropertyOp44
 70
     1
102
RTVSPropertyOp45
 70
     1
102
RTVSPropertyOp46
 70
     1
102
RTVSPropertyOp47
 70
     1
102
RTVSPropertyOp48
 70
     1
102
RTVSPropertyOp49
 70
     1
102
RTVSPropertyOp50
 70
     1
102
RTVSPropertyOp51
 70
     0
102
RTVSPropertyOp52
 70
     0
102
RTVSPropertyOp53
 70
     1
102
RTVSPropertyOp54
 70
     1
102
RTVSPropertyOp55
 70
     1
102
RTVSPropertyOp56
 70
     1
102
RTVSPropertyOp57
 70
     1
102
RTVSPost2010Prop28
280
     0
102
RTVSPost2010PropOp28
 70
     1
102
RTVSPost2010Prop29
280
     1
102
RTVSPost2010PropOp29
 70
     1
102
RTVSPost2010Prop30
280
     1
102
RTVSPost2010PropOp30
 70
     1
102
RTVSPost2010Prop31
280
     0
102
RTVSPost2010PropOp31
 70
     1
102
RTVSPost2010Prop32
280
     0
102
RTVSPost2010PropOp32
 70
     1
102
RTVSPost2010Prop33
280
     0
102
RTVSPost2010PropOp33
 70
     1
102
RTVSPost2010Prop34
280
     0
102
RTVSPost2010PropOp34
 70
     1
102
RTVSPost2010Prop35
280
     0
102
RTVSPost2010PropOp35
 70
     1
102
RTVSPost2010Prop36
280
     0
102
RTVSPost2010PropOp36
 70
     1
102
RTVSPost2010Prop37
 90
       50
102
RTVSPost2010PropOp37
 70
     1
102
RTVSPost2010Prop38
140
0.0
102
RTVSPost2010PropOp38
 70
     1
102
RTVSPost2010Prop39
140
1.0
102
RTVSPost2010PropOp39
 70
     1
102
RTVSPost2010Prop40
 90
        0
102
RTVSPost2010PropOp40
 70
     1
102
RTVSPost2010Prop41ColorIndex
 90
       18
102
RTVSPost2010Prop41ColorRGB
 90
        0
102
RTVSPost2010PropOp41
 70
     1
102
RTVSPost2010Prop42
 90
       50
102
RTVSPost2010PropOp42
 70
     1
102
RTVSPost2010Prop43
 90
        3
102
RTVSPost2010PropOp43
 70
     1
102
RTVSPost2010Prop44ColorIndex
 90
        5
102
RTVSPost2010Prop44ColorRGB
 90
      255
102
RTVSPost2010PropOp44
 70
     1
102
RTVSPost2010Prop45
280
     0
102
RTVSPost2010PropOp45
 70
     1
102
RTVSPost2010Prop46
 90
       50
102
RTVSPost2010PropOp46
 70
     1
102
RTVSPost2010Prop47
 90
       50
102
RTVSPost2010PropOp47
 70
     1
102
RTVSPost2010Prop48
 90
       50
102
RTVSPost2010PropOp48
 70
     1
102
RTVSPost2010Prop49
280
     0
102
RTVSPost2010PropOp49
 70
     1
102
RTVSPost2010Prop50
 90
       50
102
RTVSPost2010PropOp50
 70
     1
102
RTVSPost2010Prop51ColorIndex
 90
      256
102
RTVSPost2010Prop51ColorRGB
 90
-16777216
102
RTVSPost2010PropOp51
 70
     0
102
RTVSPost2010Prop52
140
1.0
102
RTVSPost2010PropOp52
 70
     0
102
RTVSPost2010Prop53
 90
        2
102
RTVSPost2010PropOp53
 70
     1
102
RTVSPost2010Prop54
  1
strokes_ogs.tif
102
RTVSPost2010PropOp54
 70
     1
102
RTVSPost2010Prop55
280
     0
102
RTVSPost2010PropOp55
 70
     1
102
RTVSPost2010Prop56
140
1.0
102
RTVSPost2010PropOp56
 70
     1
102
RTVSPost2010Prop57
140
1.0
102
RTVSPost2010PropOp57
 70
     1
  0
XRECORD
  5
261
102
{ACAD_REACTORS
330
260
102
}
330
260
100
AcDbXrecord
280
     1
102
RTVSPropertyOp0
 70
     1
102
RTVSPropertyOp1
 70
     1
102
RTVSPropertyOp2
 70
     1
102
RTVSPropertyOp3
 70
     1
102
RTVSPropertyOp4
 70
     1
102
RTVSPropertyOp5
 70
     1
102
RTVSPropertyOp6
 70
     1
102
RTVSPropertyOp7
 70
     1
102
RTVSPropertyOp8
 70
     1
102
RTVSPropertyOp9
 70
     1
102
RTVSPropertyOp10
 70
     1
102
RTVSPropertyOp11
 70
     1
102
RTVSPropertyOp12
 70
     1
102
RTVSPropertyOp13
 70
     1
102
RTVSPropertyOp14
 70
     1
102
RTVSPropertyOp15
 70
     1
102
RTVSPropertyOp16
 70
     1
102
RTVSPropertyOp17
 70
     1
102
RTVSPropertyOp18
 70
     1
102
RTVSPropertyOp19
 70
     1
102
RTVSPropertyOp20
 70
     1
102
RTVSPropertyOp21
 70
     1
102
RTVSPropertyOp22
 70
     1
102
RTVSPropertyOp23
 70
     1
102
RTVSPropertyOp24
 70
     1
102
RTVSPropertyOp25
 70
     1
102
RTVSPropertyOp26
 70
     1
102
RTVSPropertyOp27
 70
     1
102
RTVSPropertyOp28
 70
     1
102
RTVSPropertyOp29
 70
     1
102
RTVSPropertyOp30
 70
     1
102
RTVSPropertyOp31
 70
     1
102
RTVSPropertyOp32
 70
     1
102
RTVSPropertyOp33
 70
     1
102
RTVSPropertyOp34
 70
     1
102
RTVSPropertyOp35
 70
     1
102
RTVSPropertyOp36
 70
     1
102
RTVSPropertyOp37
 70
     1
102
RTVSPropertyOp38
 70
     1
102
RTVSPropertyOp39
 70
     1
102
RTVSPropertyOp40
 70
     1
102
RTVSPropertyOp41
 70
     1
102
RTVSPropertyOp42
 70
     1
102
RTVSPropertyOp43
 70
     1
102
RTVSPropertyOp44
 70
     1
102
RTVSPropertyOp45
 70
     1
102
RTVSPropertyOp46
 70
     1
102
RTVSPropertyOp47
 70
     1
102
RTVSPropertyOp48
 70
     1
102
RTVSPropertyOp49
 70
     1
102
RTVSPropertyOp50
 70
     1
102
RTVSPropertyOp51
 70
     0
102
RTVSPropertyOp52
 70
     0
102
RTVSPropertyOp53
 70
     1
102
RTVSPropertyOp54
 70
     1
102
RTVSPropertyOp55
 70
     1
102
RTVSPropertyOp56
 70
     1
102
RTVSPropertyOp57
 70
     1
102
RTVSPost2010Prop28
280
     0
102
RTVSPost2010PropOp28
 70
     1
102
RTVSPost2010Prop29
280
     1
102
RTVSPost2010PropOp29
 70
     1
102
RTVSPost2010Prop30
280
     1
102
RTVSPost2010PropOp30
 70
     1
102
RTVSPost2010Prop31
280
     0
102
RTVSPost2010PropOp31
 70
     1
102
RTVSPost2010Prop32
280
     0
102
RTVSPost2010PropOp32
 70
     1
102
RTVSPost2010Prop33
280
     0
102
RTVSPost2010PropOp33
 70
     1
102
RTVSPost2010Prop34
280
     0
102
RTVSPost2010PropOp34
 70
     1
102
RTVSPost2010Prop35
280
     0
102
RTVSPost2010PropOp35
 70
     1
102
RTVSPost2010Prop36
280
     0
102
RTVSPost2010PropOp36
 70
     1
102
RTVSPost2010Prop37
 90
       50
102
RTVSPost2010PropOp37
 70
     1
102
RTVSPost2010Prop38
140
0.0
102
RTVSPost2010PropOp38
 70
     1
102
RTVSPost2010Prop39
140
1.0
102
RTVSPost2010PropOp39
 70
     1
102
RTVSPost2010Prop40
 90
        0
102
RTVSPost2010PropOp40
 70
     1
102
RTVSPost2010Prop41ColorIndex
 90
       18
102
RTVSPost2010Prop41ColorRGB
 90
        0
102
RTVSPost2010PropOp41
 70
     1
102
RTVSPost2010Prop42
 90
       50
102
RTVSPost2010PropOp42
 70
     1
102
RTVSPost2010Prop43
 90
        3
102
RTVSPost2010PropOp43
 70
     1
102
RTVSPost2010Prop44ColorIndex
 90
        5
102
RTVSPost2010Prop44ColorRGB
 90
      255
102
RTVSPost2010PropOp44
 70
     1
102
RTVSPost2010Prop45
280
     0
102
RTVSPost2010PropOp45
 70
     1
102
RTVSPost2010Prop46
 90
       50
102
RTVSPost2010PropOp46
 70
     1
102
RTVSPost2010Prop47
 90
       50
102
RTVSPost2010PropOp47
 70
     1
102
RTVSPost2010Prop48
 90
       50
102
RTVSPost2010PropOp48
 70
     1
102
RTVSPost2010Prop49
280
     0
102
RTVSPost2010PropOp49
 70
     1
102
RTVSPost2010Prop50
 90
       50
102
RTVSPost2010PropOp50
 70
     1
102
RTVSPost2010Prop51ColorIndex
 90
      256
102
RTVSPost2010Prop51ColorRGB
 90
-16777216
102
RTVSPost2010PropOp51
 70
     0
102
RTVSPost2010Prop52
140
1.0
102
RTVSPost2010PropOp52
 70
     0
102
RTVSPost2010Prop53
 90
        2
102
RTVSPost2010PropOp53
 70
     1
102
RTVSPost2010Prop54
  1
strokes_ogs.tif
102
RTVSPost2010PropOp54
 70
     1
102
RTVSPost2010Prop55
280
     0
102
RTVSPost2010PropOp55
 70
     1
102
RTVSPost2010Prop56
140
1.0
102
RTVSPost2010PropOp56
 70
     1
102
RTVSPost2010Prop57
140
1.0
102
RTVSPost2010PropOp57
 70
     1
  0
XRECORD
  5
255
102
{ACAD_REACTORS
330
254
102
}
330
254
100
AcDbXrecord
280
     1
102
RTVSPropertyOp0
 70
     1
102
RTVSPropertyOp1
 70
     1
102
RTVSPropertyOp2
 70
     1
102
RTVSPropertyOp3
 70
     1
102
RTVSPropertyOp4
 70
     1
102
RTVSPropertyOp5
 70
     1
102
RTVSPropertyOp6
 70
     1
102
RTVSPropertyOp7
 70
     1
102
RTVSPropertyOp8
 70
     1
102
RTVSPropertyOp9
 70
     1
102
RTVSPropertyOp10
 70
     1
102
RTVSPropertyOp11
 70
     1
102
RTVSPropertyOp12
 70
     1
102
RTVSPropertyOp13
 70
     1
102
RTVSPropertyOp14
 70
     1
102
RTVSPropertyOp15
 70
     1
102
RTVSPropertyOp16
 70
     1
102
RTVSPropertyOp17
 70
     1
102
RTVSPropertyOp18
 70
     1
102
RTVSPropertyOp19
 70
     1
102
RTVSPropertyOp20
 70
     1
102
RTVSPropertyOp21
 70
     1
102
RTVSPropertyOp22
 70
     1
102
RTVSPropertyOp23
 70
     1
102
RTVSPropertyOp24
 70
     1
102
RTVSPropertyOp25
 70
     1
102
RTVSPropertyOp26
 70
     1
102
RTVSPropertyOp27
 70
     1
102
RTVSPropertyOp28
 70
     1
102
RTVSPropertyOp29
 70
     1
102
RTVSPropertyOp30
 70
     1
102
RTVSPropertyOp31
 70
     1
102
RTVSPropertyOp32
 70
     1
102
RTVSPropertyOp33
 70
     1
102
RTVSPropertyOp34
 70
     1
102
RTVSPropertyOp35
 70
     1
102
RTVSPropertyOp36
 70
     1
102
RTVSPropertyOp37
 70
     1
102
RTVSPropertyOp38
 70
     1
102
RTVSPropertyOp39
 70
     1
102
RTVSPropertyOp40
 70
     1
102
RTVSPropertyOp41
 70
     1
102
RTVSPropertyOp42
 70
     1
102
RTVSPropertyOp43
 70
     1
102
RTVSPropertyOp44
 70
     1
102
RTVSPropertyOp45
 70
     1
102
RTVSPropertyOp46
 70
     1
102
RTVSPropertyOp47
 70
     1
102
RTVSPropertyOp48
 70
     1
102
RTVSPropertyOp49
 70
     1
102
RTVSPropertyOp50
 70
     1
102
RTVSPropertyOp51
 70
     0
102
RTVSPropertyOp52
 70
     0
102
RTVSPropertyOp53
 70
     1
102
RTVSPropertyOp54
 70
     1
102
RTVSPropertyOp55
 70
     1
102
RTVSPropertyOp56
 70
     1
102
RTVSPropertyOp57
 70
     1
102
RTVSPost2010Prop28
280
     0
102
RTVSPost2010PropOp28
 70
     1
102
RTVSPost2010Prop29
280
     1
102
RTVSPost2010PropOp29
 70
     1
102
RTVSPost2010Prop30
280
     1
102
RTVSPost2010PropOp30
 70
     1
102
RTVSPost2010Prop31
280
     0
102
RTVSPost2010PropOp31
 70
     1
102
RTVSPost2010Prop32
280
     0
102
RTVSPost2010PropOp32
 70
     1
102
RTVSPost2010Prop33
280
     0
102
RTVSPost2010PropOp33
 70
     1
102
RTVSPost2010Prop34
280
     0
102
RTVSPost2010PropOp34
 70
     1
102
RTVSPost2010Prop35
280
     0
102
RTVSPost2010PropOp35
 70
     1
102
RTVSPost2010Prop36
280
     0
102
RTVSPost2010PropOp36
 70
     1
102
RTVSPost2010Prop37
 90
       50
102
RTVSPost2010PropOp37
 70
     1
102
RTVSPost2010Prop38
140
0.0
102
RTVSPost2010PropOp38
 70
     1
102
RTVSPost2010Prop39
140
1.0
102
RTVSPost2010PropOp39
 70
     1
102
RTVSPost2010Prop40
 90
        0
102
RTVSPost2010PropOp40
 70
     1
102
RTVSPost2010Prop41ColorIndex
 90
       18
102
RTVSPost2010Prop41ColorRGB
 90
        0
102
RTVSPost2010PropOp41
 70
     1
102
RTVSPost2010Prop42
 90
       50
102
RTVSPost2010PropOp42
 70
     1
102
RTVSPost2010Prop43
 90
        3
102
RTVSPost2010PropOp43
 70
     1
102
RTVSPost2010Prop44ColorIndex
 90
        5
102
RTVSPost2010Prop44ColorRGB
 90
      255
102
RTVSPost2010PropOp44
 70
     1
102
RTVSPost2010Prop45
280
     0
102
RTVSPost2010PropOp45
 70
     1
102
RTVSPost2010Prop46
 90
       50
102
RTVSPost2010PropOp46
 70
     1
102
RTVSPost2010Prop47
 90
       50
102
RTVSPost2010PropOp47
 70
     1
102
RTVSPost2010Prop48
 90
       50
102
RTVSPost2010PropOp48
 70
     1
102
RTVSPost2010Prop49
280
     0
102
RTVSPost2010PropOp49
 70
     1
102
RTVSPost2010Prop50
 90
       50
102
RTVSPost2010PropOp50
 70
     1
102
RTVSPost2010Prop51ColorIndex
 90
      256
102
RTVSPost2010Prop51ColorRGB
 90
-16777216
102
RTVSPost2010PropOp51
 70
     0
102
RTVSPost2010Prop52
140
1.0
102
RTVSPost2010PropOp52
 70
     0
102
RTVSPost2010Prop53
 90
        2
102
RTVSPost2010PropOp53
 70
     1
102
RTVSPost2010Prop54
  1
strokes_ogs.tif
102
RTVSPost2010PropOp54
 70
     1
102
RTVSPost2010Prop55
280
     0
102
RTVSPost2010PropOp55
 70
     1
102
RTVSPost2010Prop56
140
1.0
102
RTVSPost2010PropOp56
 70
     1
102
RTVSPost2010Prop57
140
1.0
102
RTVSPost2010PropOp57
 70
     1
  0
XRECORD
  5
257
102
{ACAD_REACTORS
330
256
102
}
330
256
100
AcDbXrecord
280
     1
102
RTVSPropertyOp0
 70
     1
102
RTVSPropertyOp1
 70
     1
102
RTVSPropertyOp2
 70
     1
102
RTVSPropertyOp3
 70
     1
102
RTVSPropertyOp4
 70
     1
102
RTVSPropertyOp5
 70
     1
102
RTVSPropertyOp6
 70
     1
102
RTVSPropertyOp7
 70
     1
102
RTVSPropertyOp8
 70
     1
102
RTVSPropertyOp9
 70
     1
102
RTVSPropertyOp10
 70
     1
102
RTVSPropertyOp11
 70
     1
102
RTVSPropertyOp12
 70
     1
102
RTVSPropertyOp13
 70
     1
102
RTVSPropertyOp14
 70
     1
102
RTVSPropertyOp15
 70
     1
102
RTVSPropertyOp16
 70
     1
102
RTVSPropertyOp17
 70
     1
102
RTVSPropertyOp18
 70
     1
102
RTVSPropertyOp19
 70
     1
102
RTVSPropertyOp20
 70
     1
102
RTVSPropertyOp21
 70
     1
102
RTVSPropertyOp22
 70
     1
102
RTVSPropertyOp23
 70
     1
102
RTVSPropertyOp24
 70
     1
102
RTVSPropertyOp25
 70
     1
102
RTVSPropertyOp26
 70
     1
102
RTVSPropertyOp27
 70
     1
102
RTVSPropertyOp28
 70
     1
102
RTVSPropertyOp29
 70
     1
102
RTVSPropertyOp30
 70
     1
102
RTVSPropertyOp31
 70
     1
102
RTVSPropertyOp32
 70
     1
102
RTVSPropertyOp33
 70
     1
102
RTVSPropertyOp34
 70
     1
102
RTVSPropertyOp35
 70
     1
102
RTVSPropertyOp36
 70
     1
102
RTVSPropertyOp37
 70
     1
102
RTVSPropertyOp38
 70
     1
102
RTVSPropertyOp39
 70
     1
102
RTVSPropertyOp40
 70
     1
102
RTVSPropertyOp41
 70
     1
102
RTVSPropertyOp42
 70
     1
102
RTVSPropertyOp43
 70
     1
102
RTVSPropertyOp44
 70
     1
102
RTVSPropertyOp45
 70
     1
102
RTVSPropertyOp46
 70
     1
102
RTVSPropertyOp47
 70
     1
102
RTVSPropertyOp48
 70
     1
102
RTVSPropertyOp49
 70
     1
102
RTVSPropertyOp50
 70
     1
102
RTVSPropertyOp51
 70
     0
102
RTVSPropertyOp52
 70
     0
102
RTVSPropertyOp53
 70
     1
102
RTVSPropertyOp54
 70
     1
102
RTVSPropertyOp55
 70
     1
102
RTVSPropertyOp56
 70
     1
102
RTVSPropertyOp57
 70
     1
102
RTVSPost2010Prop28
280
     0
102
RTVSPost2010PropOp28
 70
     1
102
RTVSPost2010Prop29
280
     1
102
RTVSPost2010PropOp29
 70
     1
102
RTVSPost2010Prop30
280
     1
102
RTVSPost2010PropOp30
 70
     1
102
RTVSPost2010Prop31
280
     0
102
RTVSPost2010PropOp31
 70
     1
102
RTVSPost2010Prop32
280
     0
102
RTVSPost2010PropOp32
 70
     1
102
RTVSPost2010Prop33
280
     0
102
RTVSPost2010PropOp33
 70
     1
102
RTVSPost2010Prop34
280
     0
102
RTVSPost2010PropOp34
 70
     1
102
RTVSPost2010Prop35
280
     0
102
RTVSPost2010PropOp35
 70
     1
102
RTVSPost2010Prop36
280
     0
102
RTVSPost2010PropOp36
 70
     1
102
RTVSPost2010Prop37
 90
       50
102
RTVSPost2010PropOp37
 70
     1
102
RTVSPost2010Prop38
140
0.0
102
RTVSPost2010PropOp38
 70
     1
102
RTVSPost2010Prop39
140
1.0
102
RTVSPost2010PropOp39
 70
     1
102
RTVSPost2010Prop40
 90
        0
102
RTVSPost2010PropOp40
 70
     1
102
RTVSPost2010Prop41ColorIndex
 90
       18
102
RTVSPost2010Prop41ColorRGB
 90
        0
102
RTVSPost2010PropOp41
 70
     1
102
RTVSPost2010Prop42
 90
       50
102
RTVSPost2010PropOp42
 70
     1
102
RTVSPost2010Prop43
 90
        3
102
RTVSPost2010PropOp43
 70
     1
102
RTVSPost2010Prop44ColorIndex
 90
        5
102
RTVSPost2010Prop44ColorRGB
 90
      255
102
RTVSPost2010PropOp44
 70
     1
102
RTVSPost2010Prop45
280
     0
102
RTVSPost2010PropOp45
 70
     1
102
RTVSPost2010Prop46
 90
       50
102
RTVSPost2010PropOp46
 70
     1
102
RTVSPost2010Prop47
 90
       50
102
RTVSPost2010PropOp47
 70
     1
102
RTVSPost2010Prop48
 90
       50
102
RTVSPost2010PropOp48
 70
     1
102
RTVSPost2010Prop49
280
     0
102
RTVSPost2010PropOp49
 70
     1
102
RTVSPost2010Prop50
 90
       50
102
RTVSPost2010PropOp50
 70
     1
102
RTVSPost2010Prop51ColorIndex
 90
      256
102
RTVSPost2010Prop51ColorRGB
 90
-16777216
102
RTVSPost2010PropOp51
 70
     0
102
RTVSPost2010Prop52
140
1.0
102
RTVSPost2010PropOp52
 70
     0
102
RTVSPost2010Prop53
 90
        2
102
RTVSPost2010PropOp53
 70
     1
102
RTVSPost2010Prop54
  1
strokes_ogs.tif
102
RTVSPost2010PropOp54
 70
     1
102
RTVSPost2010Prop55
280
     0
102
RTVSPost2010PropOp55
 70
     1
102
RTVSPost2010Prop56
140
1.0
102
RTVSPost2010PropOp56
 70
     1
102
RTVSPost2010Prop57
140
1.0
102
RTVSPost2010PropOp57
 70
     1
  0
XRECORD
  5
25F
102
{ACAD_REACTORS
330
25E
102
}
330
25E
100
AcDbXrecord
280
     1
102
RTVSPropertyOp0
 70
     1
102
RTVSPropertyOp1
 70
     1
102
RTVSPropertyOp2
 70
     1
102
RTVSPropertyOp3
 70
     1
102
RTVSPropertyOp4
 70
     1
102
RTVSPropertyOp5
 70
     1
102
RTVSPropertyOp6
 70
     1
102
RTVSPropertyOp7
 70
     1
102
RTVSPropertyOp8
 70
     1
102
RTVSPropertyOp9
 70
     1
102
RTVSPropertyOp10
 70
     1
102
RTVSPropertyOp11
 70
     1
102
RTVSPropertyOp12
 70
     1
102
RTVSPropertyOp13
 70
     1
102
RTVSPropertyOp14
 70
     1
102
RTVSPropertyOp15
 70
     1
102
RTVSPropertyOp16
 70
     1
102
RTVSPropertyOp17
 70
     1
102
RTVSPropertyOp18
 70
     1
102
RTVSPropertyOp19
 70
     1
102
RTVSPropertyOp20
 70
     1
102
RTVSPropertyOp21
 70
     1
102
RTVSPropertyOp22
 70
     1
102
RTVSPropertyOp23
 70
     1
102
RTVSPropertyOp24
 70
     1
102
RTVSPropertyOp25
 70
     1
102
RTVSPropertyOp26
 70
     1
102
RTVSPropertyOp27
 70
     1
102
RTVSPropertyOp28
 70
     1
102
RTVSPropertyOp29
 70
     1
102
RTVSPropertyOp30
 70
     1
102
RTVSPropertyOp31
 70
     1
102
RTVSPropertyOp32
 70
     1
102
RTVSPropertyOp33
 70
     1
102
RTVSPropertyOp34
 70
     1
102
RTVSPropertyOp35
 70
     1
102
RTVSPropertyOp36
 70
     1
102
RTVSPropertyOp37
 70
     1
102
RTVSPropertyOp38
 70
     1
102
RTVSPropertyOp39
 70
     1
102
RTVSPropertyOp40
 70
     1
102
RTVSPropertyOp41
 70
     1
102
RTVSPropertyOp42
 70
     1
102
RTVSPropertyOp43
 70
     1
102
RTVSPropertyOp44
 70
     1
102
RTVSPropertyOp45
 70
     1
102
RTVSPropertyOp46
 70
     1
102
RTVSPropertyOp47
 70
     1
102
RTVSPropertyOp48
 70
     1
102
RTVSPropertyOp49
 70
     1
102
RTVSPropertyOp50
 70
     1
102
RTVSPropertyOp51
 70
     0
102
RTVSPropertyOp52
 70
     0
102
RTVSPropertyOp53
 70
     1
102
RTVSPropertyOp54
 70
     1
102
RTVSPropertyOp55
 70
     1
102
RTVSPropertyOp56
 70
     1
102
RTVSPropertyOp57
 70
     1
102
RTVSPost2010Prop28
280
     0
102
RTVSPost2010PropOp28
 70
     1
102
RTVSPost2010Prop29
280
     1
102
RTVSPost2010PropOp29
 70
     1
102
RTVSPost2010Prop30
280
     1
102
RTVSPost2010PropOp30
 70
     1
102
RTVSPost2010Prop31
280
     0
102
RTVSPost2010PropOp31
 70
     1
102
RTVSPost2010Prop32
280
     0
102
RTVSPost2010PropOp32
 70
     1
102
RTVSPost2010Prop33
280
     0
102
RTVSPost2010PropOp33
 70
     1
102
RTVSPost2010Prop34
280
     0
102
RTVSPost2010PropOp34
 70
     1
102
RTVSPost2010Prop35
280
     0
102
RTVSPost2010PropOp35
 70
     1
102
RTVSPost2010Prop36
280
     0
102
RTVSPost2010PropOp36
 70
     1
102
RTVSPost2010Prop37
 90
       50
102
RTVSPost2010PropOp37
 70
     1
102
RTVSPost2010Prop38
140
0.0
102
RTVSPost2010PropOp38
 70
     1
102
RTVSPost2010Prop39
140
1.0
102
RTVSPost2010PropOp39
 70
     1
102
RTVSPost2010Prop40
 90
        0
102
RTVSPost2010PropOp40
 70
     1
102
RTVSPost2010Prop41ColorIndex
 90
       18
102
RTVSPost2010Prop41ColorRGB
 90
        0
102
RTVSPost2010PropOp41
 70
     1
102
RTVSPost2010Prop42
 90
       50
102
RTVSPost2010PropOp42
 70
     1
102
RTVSPost2010Prop43
 90
        3
102
RTVSPost2010PropOp43
 70
     1
102
RTVSPost2010Prop44ColorIndex
 90
        5
102
RTVSPost2010Prop44ColorRGB
 90
      255
102
RTVSPost2010PropOp44
 70
     1
102
RTVSPost2010Prop45
280
     0
102
RTVSPost2010PropOp45
 70
     1
102
RTVSPost2010Prop46
 90
       50
102
RTVSPost2010PropOp46
 70
     1
102
RTVSPost2010Prop47
 90
       50
102
RTVSPost2010PropOp47
 70
     1
102
RTVSPost2010Prop48
 90
       50
102
RTVSPost2010PropOp48
 70
     1
102
RTVSPost2010Prop49
280
     0
102
RTVSPost2010PropOp49
 70
     1
102
RTVSPost2010Prop50
 90
       50
102
RTVSPost2010PropOp50
 70
     1
102
RTVSPost2010Prop51ColorIndex
 90
      256
102
RTVSPost2010Prop51ColorRGB
 90
-16777216
102
RTVSPost2010PropOp51
 70
     0
102
RTVSPost2010Prop52
140
1.0
102
RTVSPost2010PropOp52
 70
     0
102
RTVSPost2010Prop53
 90
        2
102
RTVSPost2010PropOp53
 70
     1
102
RTVSPost2010Prop54
  1
strokes_ogs.tif
102
RTVSPost2010PropOp54
 70
     1
102
RTVSPost2010Prop55
280
     0
102
RTVSPost2010PropOp55
 70
     1
102
RTVSPost2010Prop56
140
1.0
102
RTVSPost2010PropOp56
 70
     1
102
RTVSPost2010Prop57
140
1.0
102
RTVSPost2010PropOp57
 70
     1
  0
XRECORD
  5
243
102
{ACAD_REACTORS
330
242
102
}
330
242
100
AcDbXrecord
280
     1
102
RTVSPropertyOp0
 70
     1
102
RTVSPropertyOp1
 70
     1
102
RTVSPropertyOp2
 70
     1
102
RTVSPropertyOp3
 70
     1
102
RTVSPropertyOp4
 70
     1
102
RTVSPropertyOp5
 70
     1
102
RTVSPropertyOp6
 70
     1
102
RTVSPropertyOp7
 70
     1
102
RTVSPropertyOp8
 70
     1
102
RTVSPropertyOp9
 70
     1
102
RTVSPropertyOp10
 70
     1
102
RTVSPropertyOp11
 70
     1
102
RTVSPropertyOp12
 70
     1
102
RTVSPropertyOp13
 70
     1
102
RTVSPropertyOp14
 70
     1
102
RTVSPropertyOp15
 70
     1
102
RTVSPropertyOp16
 70
     1
102
RTVSPropertyOp17
 70
     1
102
RTVSPropertyOp18
 70
     1
102
RTVSPropertyOp19
 70
     1
102
RTVSPropertyOp20
 70
     1
102
RTVSPropertyOp21
 70
     1
102
RTVSPropertyOp22
 70
     1
102
RTVSPropertyOp23
 70
     1
102
RTVSPropertyOp24
 70
     1
102
RTVSPropertyOp25
 70
     1
102
RTVSPropertyOp26
 70
     1
102
RTVSPropertyOp27
 70
     1
102
RTVSPropertyOp28
 70
     1
102
RTVSPropertyOp29
 70
     1
102
RTVSPropertyOp30
 70
     1
102
RTVSPropertyOp31
 70
     1
102
RTVSPropertyOp32
 70
     1
102
RTVSPropertyOp33
 70
     1
102
RTVSPropertyOp34
 70
     1
102
RTVSPropertyOp35
 70
     1
102
RTVSPropertyOp36
 70
     1
102
RTVSPropertyOp37
 70
     1
102
RTVSPropertyOp38
 70
     1
102
RTVSPropertyOp39
 70
     1
102
RTVSPropertyOp40
 70
     1
102
RTVSPropertyOp41
 70
     1
102
RTVSPropertyOp42
 70
     1
102
RTVSPropertyOp43
 70
     1
102
RTVSPropertyOp44
 70
     1
102
RTVSPropertyOp45
 70
     1
102
RTVSPropertyOp46
 70
     1
102
RTVSPropertyOp47
 70
     1
102
RTVSPropertyOp48
 70
     1
102
RTVSPropertyOp49
 70
     1
102
RTVSPropertyOp50
 70
     1
102
RTVSPropertyOp51
 70
     0
102
RTVSPropertyOp52
 70
     0
102
RTVSPropertyOp53
 70
     1
102
RTVSPropertyOp54
 70
     1
102
RTVSPropertyOp55
 70
     1
102
RTVSPropertyOp56
 70
     1
102
RTVSPropertyOp57
 70
     1
102
RTVSPost2010Prop28
280
     0
102
RTVSPost2010PropOp28
 70
     1
102
RTVSPost2010Prop29
280
     1
102
RTVSPost2010PropOp29
 70
     1
102
RTVSPost2010Prop30
280
     1
102
RTVSPost2010PropOp30
 70
     1
102
RTVSPost2010Prop31
280
     0
102
RTVSPost2010PropOp31
 70
     1
102
RTVSPost2010Prop32
280
     0
102
RTVSPost2010PropOp32
 70
     1
102
RTVSPost2010Prop33
280
     0
102
RTVSPost2010PropOp33
 70
     1
102
RTVSPost2010Prop34
280
     0
102
RTVSPost2010PropOp34
 70
     1
102
RTVSPost2010Prop35
280
     0
102
RTVSPost2010PropOp35
 70
     1
102
RTVSPost2010Prop36
280
     0
102
RTVSPost2010PropOp36
 70
     1
102
RTVSPost2010Prop37
 90
       50
102
RTVSPost2010PropOp37
 70
     1
102
RTVSPost2010Prop38
140
0.0
102
RTVSPost2010PropOp38
 70
     1
102
RTVSPost2010Prop39
140
1.0
102
RTVSPost2010PropOp39
 70
     1
102
RTVSPost2010Prop40
 90
        0
102
RTVSPost2010PropOp40
 70
     1
102
RTVSPost2010Prop41ColorIndex
 90
       18
102
RTVSPost2010Prop41ColorRGB
 90
        0
102
RTVSPost2010PropOp41
 70
     1
102
RTVSPost2010Prop42
 90
       50
102
RTVSPost2010PropOp42
 70
     1
102
RTVSPost2010Prop43
 90
        3
102
RTVSPost2010PropOp43
 70
     1
102
RTVSPost2010Prop44ColorIndex
 90
        5
102
RTVSPost2010Prop44ColorRGB
 90
      255
102
RTVSPost2010PropOp44
 70
     1
102
RTVSPost2010Prop45
280
     0
102
RTVSPost2010PropOp45
 70
     1
102
RTVSPost2010Prop46
 90
       50
102
RTVSPost2010PropOp46
 70
     1
102
RTVSPost2010Prop47
 90
       50
102
RTVSPost2010PropOp47
 70
     1
102
RTVSPost2010Prop48
 90
       50
102
RTVSPost2010PropOp48
 70
     1
102
RTVSPost2010Prop49
280
     0
102
RTVSPost2010PropOp49
 70
     1
102
RTVSPost2010Prop50
 90
       50
102
RTVSPost2010PropOp50
 70
     1
102
RTVSPost2010Prop51ColorIndex
 90
      256
102
RTVSPost2010Prop51ColorRGB
 90
-16777216
102
RTVSPost2010PropOp51
 70
     0
102
RTVSPost2010Prop52
140
1.0
102
RTVSPost2010PropOp52
 70
     0
102
RTVSPost2010Prop53
 90
        2
102
RTVSPost2010PropOp53
 70
     1
102
RTVSPost2010Prop54
  1
strokes_ogs.tif
102
RTVSPost2010PropOp54
 70
     1
102
RTVSPost2010Prop55
280
     0
102
RTVSPost2010PropOp55
 70
     1
102
RTVSPost2010Prop56
140
1.0
102
RTVSPost2010PropOp56
 70
     1
102
RTVSPost2010Prop57
140
1.0
102
RTVSPost2010PropOp57
 70
     1
  0
XRECORD
  5
245
102
{ACAD_REACTORS
330
244
102
}
330
244
100
AcDbXrecord
280
     1
102
RTVSPropertyOp0
 70
     1
102
RTVSPropertyOp1
 70
     1
102
RTVSPropertyOp2
 70
     1
102
RTVSPropertyOp3
 70
     1
102
RTVSPropertyOp4
 70
     1
102
RTVSPropertyOp5
 70
     1
102
RTVSPropertyOp6
 70
     1
102
RTVSPropertyOp7
 70
     1
102
RTVSPropertyOp8
 70
     1
102
RTVSPropertyOp9
 70
     1
102
RTVSPropertyOp10
 70
     1
102
RTVSPropertyOp11
 70
     1
102
RTVSPropertyOp12
 70
     1
102
RTVSPropertyOp13
 70
     1
102
RTVSPropertyOp14
 70
     1
102
RTVSPropertyOp15
 70
     1
102
RTVSPropertyOp16
 70
     1
102
RTVSPropertyOp17
 70
     1
102
RTVSPropertyOp18
 70
     1
102
RTVSPropertyOp19
 70
     1
102
RTVSPropertyOp20
 70
     1
102
RTVSPropertyOp21
 70
     1
102
RTVSPropertyOp22
 70
     1
102
RTVSPropertyOp23
 70
     1
102
RTVSPropertyOp24
 70
     1
102
RTVSPropertyOp25
 70
     1
102
RTVSPropertyOp26
 70
     1
102
RTVSPropertyOp27
 70
     1
102
RTVSPropertyOp28
 70
     1
102
RTVSPropertyOp29
 70
     1
102
RTVSPropertyOp30
 70
     1
102
RTVSPropertyOp31
 70
     1
102
RTVSPropertyOp32
 70
     1
102
RTVSPropertyOp33
 70
     1
102
RTVSPropertyOp34
 70
     1
102
RTVSPropertyOp35
 70
     1
102
RTVSPropertyOp36
 70
     1
102
RTVSPropertyOp37
 70
     1
102
RTVSPropertyOp38
 70
     1
102
RTVSPropertyOp39
 70
     1
102
RTVSPropertyOp40
 70
     1
102
RTVSPropertyOp41
 70
     1
102
RTVSPropertyOp42
 70
     1
102
RTVSPropertyOp43
 70
     1
102
RTVSPropertyOp44
 70
     1
102
RTVSPropertyOp45
 70
     1
102
RTVSPropertyOp46
 70
     1
102
RTVSPropertyOp47
 70
     1
102
RTVSPropertyOp48
 70
     1
102
RTVSPropertyOp49
 70
     1
102
RTVSPropertyOp50
 70
     1
102
RTVSPropertyOp51
 70
     0
102
RTVSPropertyOp52
 70
     0
102
RTVSPropertyOp53
 70
     1
102
RTVSPropertyOp54
 70
     1
102
RTVSPropertyOp55
 70
     1
102
RTVSPropertyOp56
 70
     1
102
RTVSPropertyOp57
 70
     1
102
RTVSPost2010Prop28
280
     0
102
RTVSPost2010PropOp28
 70
     1
102
RTVSPost2010Prop29
280
     1
102
RTVSPost2010PropOp29
 70
     1
102
RTVSPost2010Prop30
280
     1
102
RTVSPost2010PropOp30
 70
     1
102
RTVSPost2010Prop31
280
     0
102
RTVSPost2010PropOp31
 70
     1
102
RTVSPost2010Prop32
280
     0
102
RTVSPost2010PropOp32
 70
     1
102
RTVSPost2010Prop33
280
     0
102
RTVSPost2010PropOp33
 70
     1
102
RTVSPost2010Prop34
280
     0
102
RTVSPost2010PropOp34
 70
     1
102
RTVSPost2010Prop35
280
     0
102
RTVSPost2010PropOp35
 70
     1
102
RTVSPost2010Prop36
280
     0
102
RTVSPost2010PropOp36
 70
     1
102
RTVSPost2010Prop37
 90
       50
102
RTVSPost2010PropOp37
 70
     1
102
RTVSPost2010Prop38
140
0.0
102
RTVSPost2010PropOp38
 70
     1
102
RTVSPost2010Prop39
140
1.0
102
RTVSPost2010PropOp39
 70
     1
102
RTVSPost2010Prop40
 90
        0
102
RTVSPost2010PropOp40
 70
     1
102
RTVSPost2010Prop41ColorIndex
 90
       18
102
RTVSPost2010Prop41ColorRGB
 90
        0
102
RTVSPost2010PropOp41
 70
     1
102
RTVSPost2010Prop42
 90
       50
102
RTVSPost2010PropOp42
 70
     1
102
RTVSPost2010Prop43
 90
        3
102
RTVSPost2010PropOp43
 70
     1
102
RTVSPost2010Prop44ColorIndex
 90
        5
102
RTVSPost2010Prop44ColorRGB
 90
      255
102
RTVSPost2010PropOp44
 70
     1
102
RTVSPost2010Prop45
280
     0
102
RTVSPost2010PropOp45
 70
     1
102
RTVSPost2010Prop46
 90
       50
102
RTVSPost2010PropOp46
 70
     1
102
RTVSPost2010Prop47
 90
       50
102
RTVSPost2010PropOp47
 70
     1
102
RTVSPost2010Prop48
 90
       50
102
RTVSPost2010PropOp48
 70
     1
102
RTVSPost2010Prop49
280
     0
102
RTVSPost2010PropOp49
 70
     1
102
RTVSPost2010Prop50
 90
       50
102
RTVSPost2010PropOp50
 70
     1
102
RTVSPost2010Prop51ColorIndex
 90
      256
102
RTVSPost2010Prop51ColorRGB
 90
-16777216
102
RTVSPost2010PropOp51
 70
     0
102
RTVSPost2010Prop52
140
1.0
102
RTVSPost2010PropOp52
 70
     0
102
RTVSPost2010Prop53
 90
        2
102
RTVSPost2010PropOp53
 70
     1
102
RTVSPost2010Prop54
  1
strokes_ogs.tif
102
RTVSPost2010PropOp54
 70
     1
102
RTVSPost2010Prop55
280
     0
102
RTVSPost2010PropOp55
 70
     1
102
RTVSPost2010Prop56
140
1.0
102
RTVSPost2010PropOp56
 70
     1
102
RTVSPost2010Prop57
140
1.0
102
RTVSPost2010PropOp57
 70
     1
  0
XRECORD
  5
247
102
{ACAD_REACTORS
330
246
102
}
330
246
100
AcDbXrecord
280
     1
102
RTVSPropertyOp0
 70
     1
102
RTVSPropertyOp1
 70
     1
102
RTVSPropertyOp2
 70
     1
102
RTVSPropertyOp3
 70
     1
102
RTVSPropertyOp4
 70
     1
102
RTVSPropertyOp5
 70
     1
102
RTVSPropertyOp6
 70
     1
102
RTVSPropertyOp7
 70
     1
102
RTVSPropertyOp8
 70
     1
102
RTVSPropertyOp9
 70
     1
102
RTVSPropertyOp10
 70
     1
102
RTVSPropertyOp11
 70
     1
102
RTVSPropertyOp12
 70
     1
102
RTVSPropertyOp13
 70
     1
102
RTVSPropertyOp14
 70
     1
102
RTVSPropertyOp15
 70
     1
102
RTVSPropertyOp16
 70
     1
102
RTVSPropertyOp17
 70
     1
102
RTVSPropertyOp18
 70
     1
102
RTVSPropertyOp19
 70
     1
102
RTVSPropertyOp20
 70
     1
102
RTVSPropertyOp21
 70
     1
102
RTVSPropertyOp22
 70
     1
102
RTVSPropertyOp23
 70
     1
102
RTVSPropertyOp24
 70
     1
102
RTVSPropertyOp25
 70
     1
102
RTVSPropertyOp26
 70
     1
102
RTVSPropertyOp27
 70
     1
102
RTVSPropertyOp28
 70
     1
102
RTVSPropertyOp29
 70
     1
102
RTVSPropertyOp30
 70
     1
102
RTVSPropertyOp31
 70
     1
102
RTVSPropertyOp32
 70
     1
102
RTVSPropertyOp33
 70
     1
102
RTVSPropertyOp34
 70
     1
102
RTVSPropertyOp35
 70
     1
102
RTVSPropertyOp36
 70
     1
102
RTVSPropertyOp37
 70
     1
102
RTVSPropertyOp38
 70
     1
102
RTVSPropertyOp39
 70
     1
102
RTVSPropertyOp40
 70
     1
102
RTVSPropertyOp41
 70
     1
102
RTVSPropertyOp42
 70
     1
102
RTVSPropertyOp43
 70
     1
102
RTVSPropertyOp44
 70
     1
102
RTVSPropertyOp45
 70
     1
102
RTVSPropertyOp46
 70
     1
102
RTVSPropertyOp47
 70
     1
102
RTVSPropertyOp48
 70
     1
102
RTVSPropertyOp49
 70
     1
102
RTVSPropertyOp50
 70
     1
102
RTVSPropertyOp51
 70
     0
102
RTVSPropertyOp52
 70
     0
102
RTVSPropertyOp53
 70
     1
102
RTVSPropertyOp54
 70
     1
102
RTVSPropertyOp55
 70
     1
102
RTVSPropertyOp56
 70
     1
102
RTVSPropertyOp57
 70
     1
102
RTVSPost2010Prop28
280
     0
102
RTVSPost2010PropOp28
 70
     1
102
RTVSPost2010Prop29
280
     1
102
RTVSPost2010PropOp29
 70
     1
102
RTVSPost2010Prop30
280
     1
102
RTVSPost2010PropOp30
 70
     1
102
RTVSPost2010Prop31
280
     0
102
RTVSPost2010PropOp31
 70
     1
102
RTVSPost2010Prop32
280
     0
102
RTVSPost2010PropOp32
 70
     1
102
RTVSPost2010Prop33
280
     0
102
RTVSPost2010PropOp33
 70
     1
102
RTVSPost2010Prop34
280
     0
102
RTVSPost2010PropOp34
 70
     1
102
RTVSPost2010Prop35
280
     0
102
RTVSPost2010PropOp35
 70
     1
102
RTVSPost2010Prop36
280
     0
102
RTVSPost2010PropOp36
 70
     1
102
RTVSPost2010Prop37
 90
       50
102
RTVSPost2010PropOp37
 70
     1
102
RTVSPost2010Prop38
140
0.0
102
RTVSPost2010PropOp38
 70
     1
102
RTVSPost2010Prop39
140
1.0
102
RTVSPost2010PropOp39
 70
     1
102
RTVSPost2010Prop40
 90
        0
102
RTVSPost2010PropOp40
 70
     1
102
RTVSPost2010Prop41ColorIndex
 90
       18
102
RTVSPost2010Prop41ColorRGB
 90
        0
102
RTVSPost2010PropOp41
 70
     1
102
RTVSPost2010Prop42
 90
       50
102
RTVSPost2010PropOp42
 70
     1
102
RTVSPost2010Prop43
 90
        3
102
RTVSPost2010PropOp43
 70
     1
102
RTVSPost2010Prop44ColorIndex
 90
        5
102
RTVSPost2010Prop44ColorRGB
 90
      255
102
RTVSPost2010PropOp44
 70
     1
102
RTVSPost2010Prop45
280
     0
102
RTVSPost2010PropOp45
 70
     1
102
RTVSPost2010Prop46
 90
       50
102
RTVSPost2010PropOp46
 70
     1
102
RTVSPost2010Prop47
 90
       50
102
RTVSPost2010PropOp47
 70
     1
102
RTVSPost2010Prop48
 90
       50
102
RTVSPost2010PropOp48
 70
     1
102
RTVSPost2010Prop49
280
     0
102
RTVSPost2010PropOp49
 70
     1
102
RTVSPost2010Prop50
 90
       50
102
RTVSPost2010PropOp50
 70
     1
102
RTVSPost2010Prop51ColorIndex
 90
      256
102
RTVSPost2010Prop51ColorRGB
 90
-16777216
102
RTVSPost2010PropOp51
 70
     0
102
RTVSPost2010Prop52
140
1.0
102
RTVSPost2010PropOp52
 70
     0
102
RTVSPost2010Prop53
 90
        2
102
RTVSPost2010PropOp53
 70
     1
102
RTVSPost2010Prop54
  1
strokes_ogs.tif
102
RTVSPost2010PropOp54
 70
     1
102
RTVSPost2010Prop55
280
     0
102
RTVSPost2010PropOp55
 70
     1
102
RTVSPost2010Prop56
140
1.0
102
RTVSPost2010PropOp56
 70
     1
102
RTVSPost2010Prop57
140
1.0
102
RTVSPost2010PropOp57
 70
     1
  0
XRECORD
  5
249
102
{ACAD_REACTORS
330
248
102
}
330
248
100
AcDbXrecord
280
     1
102
RTVSPropertyOp0
 70
     1
102
RTVSPropertyOp1
 70
     1
102
RTVSPropertyOp2
 70
     1
102
RTVSPropertyOp3
 70
     1
102
RTVSPropertyOp4
 70
     1
102
RTVSPropertyOp5
 70
     1
102
RTVSPropertyOp6
 70
     1
102
RTVSPropertyOp7
 70
     1
102
RTVSPropertyOp8
 70
     1
102
RTVSPropertyOp9
 70
     1
102
RTVSPropertyOp10
 70
     1
102
RTVSPropertyOp11
 70
     1
102
RTVSPropertyOp12
 70
     1
102
RTVSPropertyOp13
 70
     1
102
RTVSPropertyOp14
 70
     1
102
RTVSPropertyOp15
 70
     1
102
RTVSPropertyOp16
 70
     1
102
RTVSPropertyOp17
 70
     1
102
RTVSPropertyOp18
 70
     1
102
RTVSPropertyOp19
 70
     1
102
RTVSPropertyOp20
 70
     1
102
RTVSPropertyOp21
 70
     1
102
RTVSPropertyOp22
 70
     1
102
RTVSPropertyOp23
 70
     1
102
RTVSPropertyOp24
 70
     1
102
RTVSPropertyOp25
 70
     1
102
RTVSPropertyOp26
 70
     1
102
RTVSPropertyOp27
 70
     1
102
RTVSPropertyOp28
 70
     1
102
RTVSPropertyOp29
 70
     1
102
RTVSPropertyOp30
 70
     1
102
RTVSPropertyOp31
 70
     1
102
RTVSPropertyOp32
 70
     1
102
RTVSPropertyOp33
 70
     1
102
RTVSPropertyOp34
 70
     1
102
RTVSPropertyOp35
 70
     1
102
RTVSPropertyOp36
 70
     1
102
RTVSPropertyOp37
 70
     1
102
RTVSPropertyOp38
 70
     1
102
RTVSPropertyOp39
 70
     1
102
RTVSPropertyOp40
 70
     1
102
RTVSPropertyOp41
 70
     1
102
RTVSPropertyOp42
 70
     1
102
RTVSPropertyOp43
 70
     1
102
RTVSPropertyOp44
 70
     1
102
RTVSPropertyOp45
 70
     1
102
RTVSPropertyOp46
 70
     1
102
RTVSPropertyOp47
 70
     1
102
RTVSPropertyOp48
 70
     1
102
RTVSPropertyOp49
 70
     1
102
RTVSPropertyOp50
 70
     1
102
RTVSPropertyOp51
 70
     0
102
RTVSPropertyOp52
 70
     0
102
RTVSPropertyOp53
 70
     1
102
RTVSPropertyOp54
 70
     1
102
RTVSPropertyOp55
 70
     1
102
RTVSPropertyOp56
 70
     1
102
RTVSPropertyOp57
 70
     1
102
RTVSPost2010Prop28
280
     0
102
RTVSPost2010PropOp28
 70
     1
102
RTVSPost2010Prop29
280
     1
102
RTVSPost2010PropOp29
 70
     1
102
RTVSPost2010Prop30
280
     1
102
RTVSPost2010PropOp30
 70
     1
102
RTVSPost2010Prop31
280
     0
102
RTVSPost2010PropOp31
 70
     1
102
RTVSPost2010Prop32
280
     0
102
RTVSPost2010PropOp32
 70
     1
102
RTVSPost2010Prop33
280
     0
102
RTVSPost2010PropOp33
 70
     1
102
RTVSPost2010Prop34
280
     0
102
RTVSPost2010PropOp34
 70
     1
102
RTVSPost2010Prop35
280
     0
102
RTVSPost2010PropOp35
 70
     1
102
RTVSPost2010Prop36
280
     0
102
RTVSPost2010PropOp36
 70
     1
102
RTVSPost2010Prop37
 90
       50
102
RTVSPost2010PropOp37
 70
     1
102
RTVSPost2010Prop38
140
0.0
102
RTVSPost2010PropOp38
 70
     1
102
RTVSPost2010Prop39
140
1.0
102
RTVSPost2010PropOp39
 70
     1
102
RTVSPost2010Prop40
 90
        0
102
RTVSPost2010PropOp40
 70
     1
102
RTVSPost2010Prop41ColorIndex
 90
       18
102
RTVSPost2010Prop41ColorRGB
 90
        0
102
RTVSPost2010PropOp41
 70
     1
102
RTVSPost2010Prop42
 90
       50
102
RTVSPost2010PropOp42
 70
     1
102
RTVSPost2010Prop43
 90
        3
102
RTVSPost2010PropOp43
 70
     1
102
RTVSPost2010Prop44ColorIndex
 90
        5
102
RTVSPost2010Prop44ColorRGB
 90
      255
102
RTVSPost2010PropOp44
 70
     1
102
RTVSPost2010Prop45
280
     0
102
RTVSPost2010PropOp45
 70
     1
102
RTVSPost2010Prop46
 90
       50
102
RTVSPost2010PropOp46
 70
     1
102
RTVSPost2010Prop47
 90
       50
102
RTVSPost2010PropOp47
 70
     1
102
RTVSPost2010Prop48
 90
       50
102
RTVSPost2010PropOp48
 70
     1
102
RTVSPost2010Prop49
280
     0
102
RTVSPost2010PropOp49
 70
     1
102
RTVSPost2010Prop50
 90
       50
102
RTVSPost2010PropOp50
 70
     1
102
RTVSPost2010Prop51ColorIndex
 90
      256
102
RTVSPost2010Prop51ColorRGB
 90
-16777216
102
RTVSPost2010PropOp51
 70
     0
102
RTVSPost2010Prop52
140
1.0
102
RTVSPost2010PropOp52
 70
     0
102
RTVSPost2010Prop53
 90
        2
102
RTVSPost2010PropOp53
 70
     1
102
RTVSPost2010Prop54
  1
strokes_ogs.tif
102
RTVSPost2010PropOp54
 70
     1
102
RTVSPost2010Prop55
280
     0
102
RTVSPost2010PropOp55
 70
     1
102
RTVSPost2010Prop56
140
1.0
102
RTVSPost2010PropOp56
 70
     1
102
RTVSPost2010Prop57
140
1.0
102
RTVSPost2010PropOp57
 70
     1
  0
XRECORD
  5
25D
102
{ACAD_REACTORS
330
25C
102
}
330
25C
100
AcDbXrecord
280
     1
102
RTVSPropertyOp0
 70
     1
102
RTVSPropertyOp1
 70
     1
102
RTVSPropertyOp2
 70
     1
102
RTVSPropertyOp3
 70
     1
102
RTVSPropertyOp4
 70
     1
102
RTVSPropertyOp5
 70
     1
102
RTVSPropertyOp6
 70
     1
102
RTVSPropertyOp7
 70
     1
102
RTVSPropertyOp8
 70
     1
102
RTVSPropertyOp9
 70
     1
102
RTVSPropertyOp10
 70
     1
102
RTVSPropertyOp11
 70
     1
102
RTVSPropertyOp12
 70
     1
102
RTVSPropertyOp13
 70
     1
102
RTVSPropertyOp14
 70
     1
102
RTVSPropertyOp15
 70
     1
102
RTVSPropertyOp16
 70
     1
102
RTVSPropertyOp17
 70
     1
102
RTVSPropertyOp18
 70
     1
102
RTVSPropertyOp19
 70
     1
102
RTVSPropertyOp20
 70
     1
102
RTVSPropertyOp21
 70
     1
102
RTVSPropertyOp22
 70
     1
102
RTVSPropertyOp23
 70
     1
102
RTVSPropertyOp24
 70
     1
102
RTVSPropertyOp25
 70
     1
102
RTVSPropertyOp26
 70
     1
102
RTVSPropertyOp27
 70
     1
102
RTVSPropertyOp28
 70
     1
102
RTVSPropertyOp29
 70
     1
102
RTVSPropertyOp30
 70
     1
102
RTVSPropertyOp31
 70
     1
102
RTVSPropertyOp32
 70
     1
102
RTVSPropertyOp33
 70
     1
102
RTVSPropertyOp34
 70
     1
102
RTVSPropertyOp35
 70
     1
102
RTVSPropertyOp36
 70
     1
102
RTVSPropertyOp37
 70
     1
102
RTVSPropertyOp38
 70
     1
102
RTVSPropertyOp39
 70
     1
102
RTVSPropertyOp40
 70
     1
102
RTVSPropertyOp41
 70
     1
102
RTVSPropertyOp42
 70
     1
102
RTVSPropertyOp43
 70
     1
102
RTVSPropertyOp44
 70
     1
102
RTVSPropertyOp45
 70
     1
102
RTVSPropertyOp46
 70
     1
102
RTVSPropertyOp47
 70
     1
102
RTVSPropertyOp48
 70
     1
102
RTVSPropertyOp49
 70
     1
102
RTVSPropertyOp50
 70
     1
102
RTVSPropertyOp51
 70
     0
102
RTVSPropertyOp52
 70
     0
102
RTVSPropertyOp53
 70
     1
102
RTVSPropertyOp54
 70
     1
102
RTVSPropertyOp55
 70
     1
102
RTVSPropertyOp56
 70
     1
102
RTVSPropertyOp57
 70
     1
102
RTVSPost2010Prop28
280
     0
102
RTVSPost2010PropOp28
 70
     1
102
RTVSPost2010Prop29
280
     1
102
RTVSPost2010PropOp29
 70
     1
102
RTVSPost2010Prop30
280
     1
102
RTVSPost2010PropOp30
 70
     1
102
RTVSPost2010Prop31
280
     0
102
RTVSPost2010PropOp31
 70
     1
102
RTVSPost2010Prop32
280
     0
102
RTVSPost2010PropOp32
 70
     1
102
RTVSPost2010Prop33
280
     0
102
RTVSPost2010PropOp33
 70
     1
102
RTVSPost2010Prop34
280
     0
102
RTVSPost2010PropOp34
 70
     1
102
RTVSPost2010Prop35
280
     0
102
RTVSPost2010PropOp35
 70
     1
102
RTVSPost2010Prop36
280
     0
102
RTVSPost2010PropOp36
 70
     1
102
RTVSPost2010Prop37
 90
       50
102
RTVSPost2010PropOp37
 70
     1
102
RTVSPost2010Prop38
140
0.0
102
RTVSPost2010PropOp38
 70
     1
102
RTVSPost2010Prop39
140
1.0
102
RTVSPost2010PropOp39
 70
     1
102
RTVSPost2010Prop40
 90
        0
102
RTVSPost2010PropOp40
 70
     1
102
RTVSPost2010Prop41ColorIndex
 90
       18
102
RTVSPost2010Prop41ColorRGB
 90
        0
102
RTVSPost2010PropOp41
 70
     1
102
RTVSPost2010Prop42
 90
       50
102
RTVSPost2010PropOp42
 70
     1
102
RTVSPost2010Prop43
 90
        3
102
RTVSPost2010PropOp43
 70
     1
102
RTVSPost2010Prop44ColorIndex
 90
        5
102
RTVSPost2010Prop44ColorRGB
 90
      255
102
RTVSPost2010PropOp44
 70
     1
102
RTVSPost2010Prop45
280
     0
102
RTVSPost2010PropOp45
 70
     1
102
RTVSPost2010Prop46
 90
       50
102
RTVSPost2010PropOp46
 70
     1
102
RTVSPost2010Prop47
 90
       50
102
RTVSPost2010PropOp47
 70
     1
102
RTVSPost2010Prop48
 90
       50
102
RTVSPost2010PropOp48
 70
     1
102
RTVSPost2010Prop49
280
     0
102
RTVSPost2010PropOp49
 70
     1
102
RTVSPost2010Prop50
 90
       50
102
RTVSPost2010PropOp50
 70
     1
102
RTVSPost2010Prop51ColorIndex
 90
      256
102
RTVSPost2010Prop51ColorRGB
 90
-16777216
102
RTVSPost2010PropOp51
 70
     0
102
RTVSPost2010Prop52
140
1.0
102
RTVSPost2010PropOp52
 70
     0
102
RTVSPost2010Prop53
 90
        2
102
RTVSPost2010PropOp53
 70
     1
102
RTVSPost2010Prop54
  1
strokes_ogs.tif
102
RTVSPost2010PropOp54
 70
     1
102
RTVSPost2010Prop55
280
     0
102
RTVSPost2010PropOp55
 70
     1
102
RTVSPost2010Prop56
140
1.0
102
RTVSPost2010PropOp56
 70
     1
102
RTVSPost2010Prop57
140
1.0
102
RTVSPost2010PropOp57
 70
     1
  0
XRECORD
  5
253
102
{ACAD_REACTORS
330
252
102
}
330
252
100
AcDbXrecord
280
     1
102
RTVSPropertyOp0
 70
     1
102
RTVSPropertyOp1
 70
     1
102
RTVSPropertyOp2
 70
     1
102
RTVSPropertyOp3
 70
     1
102
RTVSPropertyOp4
 70
     1
102
RTVSPropertyOp5
 70
     1
102
RTVSPropertyOp6
 70
     1
102
RTVSPropertyOp7
 70
     1
102
RTVSPropertyOp8
 70
     1
102
RTVSPropertyOp9
 70
     1
102
RTVSPropertyOp10
 70
     1
102
RTVSPropertyOp11
 70
     1
102
RTVSPropertyOp12
 70
     1
102
RTVSPropertyOp13
 70
     1
102
RTVSPropertyOp14
 70
     1
102
RTVSPropertyOp15
 70
     1
102
RTVSPropertyOp16
 70
     1
102
RTVSPropertyOp17
 70
     1
102
RTVSPropertyOp18
 70
     1
102
RTVSPropertyOp19
 70
     1
102
RTVSPropertyOp20
 70
     1
102
RTVSPropertyOp21
 70
     1
102
RTVSPropertyOp22
 70
     1
102
RTVSPropertyOp23
 70
     1
102
RTVSPropertyOp24
 70
     1
102
RTVSPropertyOp25
 70
     1
102
RTVSPropertyOp26
 70
     1
102
RTVSPropertyOp27
 70
     1
102
RTVSPropertyOp28
 70
     1
102
RTVSPropertyOp29
 70
     1
102
RTVSPropertyOp30
 70
     1
102
RTVSPropertyOp31
 70
     1
102
RTVSPropertyOp32
 70
     1
102
RTVSPropertyOp33
 70
     1
102
RTVSPropertyOp34
 70
     1
102
RTVSPropertyOp35
 70
     1
102
RTVSPropertyOp36
 70
     1
102
RTVSPropertyOp37
 70
     1
102
RTVSPropertyOp38
 70
     1
102
RTVSPropertyOp39
 70
     1
102
RTVSPropertyOp40
 70
     1
102
RTVSPropertyOp41
 70
     1
102
RTVSPropertyOp42
 70
     1
102
RTVSPropertyOp43
 70
     1
102
RTVSPropertyOp44
 70
     1
102
RTVSPropertyOp45
 70
     1
102
RTVSPropertyOp46
 70
     1
102
RTVSPropertyOp47
 70
     1
102
RTVSPropertyOp48
 70
     1
102
RTVSPropertyOp49
 70
     1
102
RTVSPropertyOp50
 70
     1
102
RTVSPropertyOp51
 70
     0
102
RTVSPropertyOp52
 70
     0
102
RTVSPropertyOp53
 70
     1
102
RTVSPropertyOp54
 70
     1
102
RTVSPropertyOp55
 70
     1
102
RTVSPropertyOp56
 70
     1
102
RTVSPropertyOp57
 70
     1
102
RTVSPost2010Prop28
280
     0
102
RTVSPost2010PropOp28
 70
     1
102
RTVSPost2010Prop29
280
     1
102
RTVSPost2010PropOp29
 70
     1
102
RTVSPost2010Prop30
280
     1
102
RTVSPost2010PropOp30
 70
     1
102
RTVSPost2010Prop31
280
     0
102
RTVSPost2010PropOp31
 70
     1
102
RTVSPost2010Prop32
280
     0
102
RTVSPost2010PropOp32
 70
     1
102
RTVSPost2010Prop33
280
     0
102
RTVSPost2010PropOp33
 70
     1
102
RTVSPost2010Prop34
280
     0
102
RTVSPost2010PropOp34
 70
     1
102
RTVSPost2010Prop35
280
     0
102
RTVSPost2010PropOp35
 70
     1
102
RTVSPost2010Prop36
280
     0
102
RTVSPost2010PropOp36
 70
     1
102
RTVSPost2010Prop37
 90
       50
102
RTVSPost2010PropOp37
 70
     1
102
RTVSPost2010Prop38
140
0.0
102
RTVSPost2010PropOp38
 70
     1
102
RTVSPost2010Prop39
140
1.0
102
RTVSPost2010PropOp39
 70
     1
102
RTVSPost2010Prop40
 90
        0
102
RTVSPost2010PropOp40
 70
     1
102
RTVSPost2010Prop41ColorIndex
 90
       18
102
RTVSPost2010Prop41ColorRGB
 90
        0
102
RTVSPost2010PropOp41
 70
     1
102
RTVSPost2010Prop42
 90
       50
102
RTVSPost2010PropOp42
 70
     1
102
RTVSPost2010Prop43
 90
        3
102
RTVSPost2010PropOp43
 70
     1
102
RTVSPost2010Prop44ColorIndex
 90
        5
102
RTVSPost2010Prop44ColorRGB
 90
      255
102
RTVSPost2010PropOp44
 70
     1
102
RTVSPost2010Prop45
280
     0
102
RTVSPost2010PropOp45
 70
     1
102
RTVSPost2010Prop46
 90
       50
102
RTVSPost2010PropOp46
 70
     1
102
RTVSPost2010Prop47
 90
       50
102
RTVSPost2010PropOp47
 70
     1
102
RTVSPost2010Prop48
 90
       50
102
RTVSPost2010PropOp48
 70
     1
102
RTVSPost2010Prop49
280
     0
102
RTVSPost2010PropOp49
 70
     1
102
RTVSPost2010Prop50
 90
       50
102
RTVSPost2010PropOp50
 70
     1
102
RTVSPost2010Prop51ColorIndex
 90
      256
102
RTVSPost2010Prop51ColorRGB
 90
-16777216
102
RTVSPost2010PropOp51
 70
     0
102
RTVSPost2010Prop52
140
1.0
102
RTVSPost2010PropOp52
 70
     0
102
RTVSPost2010Prop53
 90
        2
102
RTVSPost2010PropOp53
 70
     1
102
RTVSPost2010Prop54
  1
strokes_ogs.tif
102
RTVSPost2010PropOp54
 70
     1
102
RTVSPost2010Prop55
280
     0
102
RTVSPost2010PropOp55
 70
     1
102
RTVSPost2010Prop56
140
1.0
102
RTVSPost2010PropOp56
 70
     1
102
RTVSPost2010Prop57
140
1.0
102
RTVSPost2010PropOp57
 70
     1
  0
XRECORD
  5
25B
102
{ACAD_REACTORS
330
25A
102
}
330
25A
100
AcDbXrecord
280
     1
102
RTVSPropertyOp0
 70
     1
102
RTVSPropertyOp1
 70
     1
102
RTVSPropertyOp2
 70
     1
102
RTVSPropertyOp3
 70
     1
102
RTVSPropertyOp4
 70
     1
102
RTVSPropertyOp5
 70
     1
102
RTVSPropertyOp6
 70
     1
102
RTVSPropertyOp7
 70
     1
102
RTVSPropertyOp8
 70
     1
102
RTVSPropertyOp9
 70
     1
102
RTVSPropertyOp10
 70
     1
102
RTVSPropertyOp11
 70
     1
102
RTVSPropertyOp12
 70
     1
102
RTVSPropertyOp13
 70
     1
102
RTVSPropertyOp14
 70
     1
102
RTVSPropertyOp15
 70
     1
102
RTVSPropertyOp16
 70
     1
102
RTVSPropertyOp17
 70
     1
102
RTVSPropertyOp18
 70
     1
102
RTVSPropertyOp19
 70
     1
102
RTVSPropertyOp20
 70
     1
102
RTVSPropertyOp21
 70
     1
102
RTVSPropertyOp22
 70
     1
102
RTVSPropertyOp23
 70
     1
102
RTVSPropertyOp24
 70
     1
102
RTVSPropertyOp25
 70
     1
102
RTVSPropertyOp26
 70
     1
102
RTVSPropertyOp27
 70
     1
102
RTVSPropertyOp28
 70
     1
102
RTVSPropertyOp29
 70
     1
102
RTVSPropertyOp30
 70
     1
102
RTVSPropertyOp31
 70
     1
102
RTVSPropertyOp32
 70
     1
102
RTVSPropertyOp33
 70
     1
102
RTVSPropertyOp34
 70
     1
102
RTVSPropertyOp35
 70
     1
102
RTVSPropertyOp36
 70
     1
102
RTVSPropertyOp37
 70
     1
102
RTVSPropertyOp38
 70
     1
102
RTVSPropertyOp39
 70
     1
102
RTVSPropertyOp40
 70
     1
102
RTVSPropertyOp41
 70
     1
102
RTVSPropertyOp42
 70
     1
102
RTVSPropertyOp43
 70
     1
102
RTVSPropertyOp44
 70
     1
102
RTVSPropertyOp45
 70
     1
102
RTVSPropertyOp46
 70
     1
102
RTVSPropertyOp47
 70
     1
102
RTVSPropertyOp48
 70
     1
102
RTVSPropertyOp49
 70
     1
102
RTVSPropertyOp50
 70
     1
102
RTVSPropertyOp51
 70
     0
102
RTVSPropertyOp52
 70
     0
102
RTVSPropertyOp53
 70
     1
102
RTVSPropertyOp54
 70
     1
102
RTVSPropertyOp55
 70
     1
102
RTVSPropertyOp56
 70
     1
102
RTVSPropertyOp57
 70
     1
102
RTVSPost2010Prop28
280
     0
102
RTVSPost2010PropOp28
 70
     1
102
RTVSPost2010Prop29
280
     1
102
RTVSPost2010PropOp29
 70
     1
102
RTVSPost2010Prop30
280
     1
102
RTVSPost2010PropOp30
 70
     1
102
RTVSPost2010Prop31
280
     0
102
RTVSPost2010PropOp31
 70
     1
102
RTVSPost2010Prop32
280
     0
102
RTVSPost2010PropOp32
 70
     1
102
RTVSPost2010Prop33
280
     0
102
RTVSPost2010PropOp33
 70
     1
102
RTVSPost2010Prop34
280
     0
102
RTVSPost2010PropOp34
 70
     1
102
RTVSPost2010Prop35
280
     0
102
RTVSPost2010PropOp35
 70
     1
102
RTVSPost2010Prop36
280
     0
102
RTVSPost2010PropOp36
 70
     1
102
RTVSPost2010Prop37
 90
       50
102
RTVSPost2010PropOp37
 70
     1
102
RTVSPost2010Prop38
140
0.0
102
RTVSPost2010PropOp38
 70
     1
102
RTVSPost2010Prop39
140
1.0
102
RTVSPost2010PropOp39
 70
     1
102
RTVSPost2010Prop40
 90
        0
102
RTVSPost2010PropOp40
 70
     1
102
RTVSPost2010Prop41ColorIndex
 90
       18
102
RTVSPost2010Prop41ColorRGB
 90
        0
102
RTVSPost2010PropOp41
 70
     1
102
RTVSPost2010Prop42
 90
       50
102
RTVSPost2010PropOp42
 70
     1
102
RTVSPost2010Prop43
 90
        3
102
RTVSPost2010PropOp43
 70
     1
102
RTVSPost2010Prop44ColorIndex
 90
        5
102
RTVSPost2010Prop44ColorRGB
 90
      255
102
RTVSPost2010PropOp44
 70
     1
102
RTVSPost2010Prop45
280
     0
102
RTVSPost2010PropOp45
 70
     1
102
RTVSPost2010Prop46
 90
       50
102
RTVSPost2010PropOp46
 70
     1
102
RTVSPost2010Prop47
 90
       50
102
RTVSPost2010PropOp47
 70
     1
102
RTVSPost2010Prop48
 90
       50
102
RTVSPost2010PropOp48
 70
     1
102
RTVSPost2010Prop49
280
     0
102
RTVSPost2010PropOp49
 70
     1
102
RTVSPost2010Prop50
 90
       50
102
RTVSPost2010PropOp50
 70
     1
102
RTVSPost2010Prop51ColorIndex
 90
      256
102
RTVSPost2010Prop51ColorRGB
 90
-16777216
102
RTVSPost2010PropOp51
 70
     0
102
RTVSPost2010Prop52
140
1.0
102
RTVSPost2010PropOp52
 70
     0
102
RTVSPost2010Prop53
 90
        2
102
RTVSPost2010PropOp53
 70
     1
102
RTVSPost2010Prop54
  1
strokes_ogs.tif
102
RTVSPost2010PropOp54
 70
     1
102
RTVSPost2010Prop55
280
     0
102
RTVSPost2010PropOp55
 70
     1
102
RTVSPost2010Prop56
140
1.0
102
RTVSPost2010PropOp56
 70
     1
102
RTVSPost2010Prop57
140
1.0
102
RTVSPost2010PropOp57
 70
     1
  0
ENDSEC
  0
EOF
