  0
SECTION
  2
HEADER
  9
$ACADVER
  1
AC1018
  9
$ACADMAINTVER
 70
     0
  9
$DWGCODEPAGE
  3
ANSI_1252
  9
$INSBASE
 10
0.0
 20
0.0
 30
0.0
  9
$EXTMIN
 10
308.7123744484553
 20
43.99999871022328
 30
0.0
  9
$EXTMAX
 10
524.7123744484553
 20
194.0117730353078
 30
0.0
  9
$LIMMIN
 10
0.0
 20
0.0
  9
$LIMMAX
 10
12.0
 20
9.0
  9
$ORTHOMODE
 70
     0
  9
$REGENMODE
 70
     1
  9
$FILLMODE
 70
     1
  9
$QTEXTMODE
 70
     0
  9
$MIRRTEXT
 70
     1
  9
$LTSCALE
 40
1.0
  9
$ATTMODE
 70
     1
  9
$TEXTSIZE
 40
0.2
  9
$TRACEWID
 40
0.05
  9
$TEXTSTYLE
  7
Standard
  9
$CLAYER
  8
0
  9
$CELTYPE
  6
ByLayer
  9
$CECOLOR
 62
   256
  9
$CELTSCALE
 40
1.0
  9
$DISPSILH
 70
     0
  9
$DIMSCALE
 40
1.0
  9
$DIMASZ
 40
0.18
  9
$DIMEXO
 40
0.0625
  9
$DIMDLI
 40
0.38
  9
$DIMRND
 40
0.0
  9
$DIMDLE
 40
0.0
  9
$DIMEXE
 40
0.18
  9
$DIMTP
 40
0.0
  9
$DIMTM
 40
0.0
  9
$DIMTXT
 40
0.18
  9
$DIMCEN
 40
0.09
  9
$DIMTSZ
 40
0.0
  9
$DIMTOL
 70
     0
  9
$DIMLIM
 70
     0
  9
$DIMTIH
 70
     1
  9
$DIMTOH
 70
     1
  9
$DIMSE1
 70
     0
  9
$DIMSE2
 70
     0
  9
$DIMTAD
 70
     0
  9
$DIMZIN
 70
     0
  9
$DIMBLK
  1

  9
$DIMASO
 70
     1
  9
$DIMSHO
 70
     1
  9
$DIMPOST
  1

  9
$DIMAPOST
  1

  9
$DIMALT
 70
     0
  9
$DIMALTD
 70
     2
  9
$DIMALTF
 40
25.4
  9
$DIMLFAC
 40
1.0
  9
$DIMTOFL
 70
     0
  9
$DIMTVP
 40
0.0
  9
$DIMTIX
 70
     0
  9
$DIMSOXD
 70
     0
  9
$DIMSAH
 70
     0
  9
$DIMBLK1
  1

  9
$DIMBLK2
  1

  9
$DIMSTYLE
  2
Standard
  9
$DIMCLRD
 70
     0
  9
$DIMCLRE
 70
     0
  9
$DIMCLRT
 70
     0
  9
$DIMTFAC
 40
1.0
  9
$DIMGAP
 40
0.09
  9
$DIMJUST
 70
     0
  9
$DIMSD1
 70
     0
  9
$DIMSD2
 70
     0
  9
$DIMTOLJ
 70
     1
  9
$DIMTZIN
 70
     0
  9
$DIMALTZ
 70
     0
  9
$DIMALTTZ
 70
     0
  9
$DIMUPT
 70
     0
  9
$DIMDEC
 70
     4
  9
$DIMTDEC
 70
     4
  9
$DIMALTU
 70
     2
  9
$DIMALTTD
 70
     2
  9
$DIMTXSTY
  7
Standard
  9
$DIMAUNIT
 70
     0
  9
$DIMADEC
 70
     0
  9
$DIMALTRND
 40
0.0
  9
$DIMAZIN
 70
     0
  9
$DIMDSEP
 70
    46
  9
$DIMATFIT
 70
     3
  9
$DIMFRAC
 70
     0
  9
$DIMLDRBLK
  1

  9
$DIMLUNIT
 70
     2
  9
$DIMLWD
 70
    -2
  9
$DIMLWE
 70
    -2
  9
$DIMTMOVE
 70
     2
  9
$LUNITS
 70
     2
  9
$LUPREC
 70
     3
  9
$SKETCHINC
 40
0.1
  9
$FILLETRAD
 40
0.5
  9
$AUNITS
 70
     0
  9
$AUPREC
 70
     0
  9
$MENU
  1
.
  9
$ELEVATION
 40
0.0
  9
$PELEVATION
 40
0.0
  9
$THICKNESS
 40
0.0
  9
$LIMCHECK
 70
     0
  9
$CHAMFERA
 40
0.5
  9
$CHAMFERB
 40
0.5
  9
$CHAMFERC
 40
1.0
  9
$CHAMFERD
 40
0.0
  9
$SKPOLY
 70
     0
  9
$TDCREATE
 40
2457604.841053079
  9
$TDUCREATE
 40
2457604.507719745
  9
$TDUPDATE
 40
2457604.841053079
  9
$TDUUPDATE
 40
2457604.507719745
  9
$TDINDWG
 40
0.0000000116
  9
$TDUSRTIMER
 40
0.0000000116
  9
$USRTIMER
 70
     1
  9
$ANGBASE
 50
0.0
  9
$ANGDIR
 70
     0
  9
$PDMODE
 70
     0
  9
$PDSIZE
 40
0.0
  9
$PLINEWID
 40
0.0
  9
$SPLFRAME
 70
     0
  9
$SPLINETYPE
 70
     6
  9
$SPLINESEGS
 70
     8
  9
$HANDSEED
  5
285
  9
$SURFTAB1
 70
     6
  9
$SURFTAB2
 70
     6
  9
$SURFTYPE
 70
     6
  9
$SURFU
 70
     6
  9
$SURFV
 70
     6
  9
$UCSBASE
  2

  9
$UCSNAME
  2

  9
$UCSORG
 10
0.0
 20
0.0
 30
0.0
  9
$UCSXDIR
 10
1.0
 20
0.0
 30
0.0
  9
$UCSYDIR
 10
0.0
 20
1.0
 30
0.0
  9
$UCSORTHOREF
  2

  9
$UCSORTHOVIEW
 70
     0
  9
$UCSORGTOP
 10
0.0
 20
0.0
 30
0.0
  9
$UCSORGBOTTOM
 10
0.0
 20
0.0
 30
0.0
  9
$UCSORGLEFT
 10
0.0
 20
0.0
 30
0.0
  9
$UCSORGRIGHT
 10
0.0
 20
0.0
 30
0.0
  9
$UCSORGFRONT
 10
0.0
 20
0.0
 30
0.0
  9
$UCSORGBACK
 10
0.0
 20
0.0
 30
0.0
  9
$PUCSBASE
  2

  9
$PUCSNAME
  2

  9
$PUCSORG
 10
0.0
 20
0.0
 30
0.0
  9
$PUCSXDIR
 10
1.0
 20
0.0
 30
0.0
  9
$PUCSYDIR
 10
0.0
 20
1.0
 30
0.0
  9
$PUCSORTHOREF
  2

  9
$PUCSORTHOVIEW
 70
     0
  9
$PUCSORGTOP
 10
0.0
 20
0.0
 30
0.0
  9
$PUCSORGBOTTOM
 10
0.0
 20
0.0
 30
0.0
  9
$PUCSORGLEFT
 10
0.0
 20
0.0
 30
0.0
  9
$PUCSORGRIGHT
 10
0.0
 20
0.0
 30
0.0
  9
$PUCSORGFRONT
 10
0.0
 20
0.0
 30
0.0
  9
$PUCSORGBACK
 10
0.0
 20
0.0
 30
0.0
  9
$USERI1
 70
     0
  9
$USERI2
 70
     0
  9
$USERI3
 70
     0
  9
$USERI4
 70
     0
  9
$USERI5
 70
     0
  9
$USERR1
 40
0.0
  9
$USERR2
 40
0.0
  9
$USERR3
 40
0.0
  9
$USERR4
 40
0.0
  9
$USERR5
 40
0.0
  9
$WORLDVIEW
 70
     1
  9
$SHADEDGE
 70
     3
  9
$SHADEDIF
 70
    70
  9
$TILEMODE
 70
     1
  9
$MAXACTVP
 70
    64
  9
$PINSBASE
 10
0.0
 20
0.0
 30
0.0
  9
$PLIMCHECK
 70
     0
  9
$PEXTMIN
 10
1.000000000000000E+20
 20
1.000000000000000E+20
 30
1.000000000000000E+20
  9
$PEXTMAX
 10
-1.000000000000000E+20
 20
-1.000000000000000E+20
 30
-1.000000000000000E+20
  9
$PLIMMIN
 10
0.0
 20
0.0
  9
$PLIMMAX
 10
12.0
 20
9.0
  9
$UNITMODE
 70
     0
  9
$VISRETAIN
 70
     1
  9
$PLINEGEN
 70
     0
  9
$PSLTSCALE
 70
     1
  9
$TREEDEPTH
 70
  3020
  9
$CMLSTYLE
  2
Standard
  9
$CMLJUST
 70
     0
  9
$CMLSCALE
 40
1.0
  9
$PROXYGRAPHICS
 70
     1
  9
$MEASUREMENT
 70
     0
  9
$CELWEIGHT
370
    -1
  9
$ENDCAPS
280
     0
  9
$JOINSTYLE
280
     0
  9
$LWDISPLAY
290
     0
  9
$INSUNITS
 70
     4
  9
$HYPERLINKBASE
  1

  9
$STYLESHEET
  1

  9
$XEDIT
290
     1
  9
$CEPSNTYPE
380
     0
  9
$PSTYLEMODE
290
     1
  9
$FINGERPRINTGUID
  2
{D98B8AE5-812E-4062-9F43-C22655ED06F1}
  9
$VERSIONGUID
  2
{FAEB1C32-E019-11D5-929B-00C0DF256EC4}
  9
$EXTNAMES
290
     1
  9
$PSVPSCALE
 40
0.0
  9
$OLESTARTUP
290
     0
  9
$SORTENTS
280
   127
  9
$INDEXCTL
280
     0
  9
$HIDETEXT
280
     1
  9
$XCLIPFRAME
290
     0
  9
$HALOGAP
280
     0
  9
$OBSCOLOR
 70
   257
  9
$OBSLTYPE
280
     0
  9
$INTERSECTIONDISPLAY
280
     0
  9
$INTERSECTIONCOLOR
 70
   257
  9
$DIMASSOC
280
     2
  9
$PROJECTNAME
  1

  0
ENDSEC
  0
SECTION
  2
CLASSES
  0
CLASS
  1
ACDBDICTIONARYWDFLT
  2
AcDbDictionaryWithDefault
  3
ObjectDBX Classes
 90
        0
 91
        4
280
     0
281
     0
  0
CLASS
  1
VISUALSTYLE
  2
AcDbVisualStyle
  3
ObjectDBX Classes
 90
     4095
 91
        4
280
     0
281
     0
  0
CLASS
  1
MATERIAL
  2
AcDbMaterial
  3
ObjectDBX Classes
 90
     1153
 91
        4
280
     0
281
     0
  0
CLASS
  1
SCALE
  2
AcDbScale
  3
ObjectDBX Classes
 90
     1153
 91
        4
280
     0
281
     0
  0
CLASS
  1
SUN
  2
AcDbSun
  3
SCENEOE
 90
     1153
 91
        4
280
     0
281
     0
  0
CLASS
  1
DICTIONARYVAR
  2
AcDbDictionaryVar
  3
ObjectDBX Classes
 90
        0
 91
        4
280
     0
281
     0
  0
ENDSEC
  0
SECTION
  2
TABLES
  0
TABLE
  2
VPORT
  5
8
330
0
100
AcDbSymbolTable
 70
     1
  0
VPORT
  5
29
330
8
100
AcDbSymbolTableRecord
100
AcDbViewportTableRecord
  2
*Active
 70
     0
 10
0.0
 20
0.0
 11
1.0
 21
1.0
 12
416.7123744484553
 22
119.0058918336932
 13
0.0
 23
0.0
 14
0.5
 24
0.5
 15
0.5
 25
0.5
 16
0.0
 26
0.0
 36
1.0
 17
0.0
 27
0.0
 37
0.0
 40
153.011997651294
 41
1.439887089782968
 42
50.0
 43
0.0
 44
0.0
 50
0.0
 51
0.0
 71
     0
 72
   100
 73
     1
 74
     3
 75
     0
 76
     0
 77
     0
 78
     0
281
     0
 65
     1
110
0.0
120
0.0
130
0.0
111
1.0
121
0.0
131
0.0
112
0.0
122
1.0
132
0.0
 79
     0
146
0.0
  0
ENDTAB
  0
TABLE
  2
LTYPE
  5
5
330
0
100
AcDbSymbolTable
 70
     1
  0
LTYPE
  5
14
330
5
100
AcDbSymbolTableRecord
100
AcDbLinetypeTableRecord
  2
ByBlock
 70
     0
  3

 72
    65
 73
     0
 40
0.0
  0
LTYPE
  5
15
330
5
100
AcDbSymbolTableRecord
100
AcDbLinetypeTableRecord
  2
ByLayer
 70
     0
  3

 72
    65
 73
     0
 40
0.0
  0
LTYPE
  5
16
330
5
100
AcDbSymbolTableRecord
100
AcDbLinetypeTableRecord
  2
Continuous
 70
     0
  3
Solid line
 72
    65
 73
     0
 40
0.0
  0
ENDTAB
  0
TABLE
  2
LAYER
  5
2
330
0
100
AcDbSymbolTable
 70
     2
  0
LAYER
  5
10
330
2
100
AcDbSymbolTableRecord
100
AcDbLayerTableRecord
  2
0
 70
     0
 62
     7
  6
Continuous
370
    -3
390
F
  0
LAYER
  5
62
330
2
100
AcDbSymbolTableRecord
100
AcDbLayerTableRecord
  2
Make2D$___$___
 70
     0
 62
    18
420
        0
  6
Continuous
370
    -3
390
F
  0
ENDTAB
  0
TABLE
  2
STYLE
  5
3
330
0
100
AcDbSymbolTable
 70
     1
  0
STYLE
  5
11
330
3
100
AcDbSymbolTableRecord
100
AcDbTextStyleTableRecord
  2
Standard
 70
     0
 40
0.0
 41
1.0
 50
0.0
 71
     0
 42
0.2
  3
txt
  4

  0
ENDTAB
  0
TABLE
  2
VIEW
  5
6
330
0
100
AcDbSymbolTable
 70
     0
  0
ENDTAB
  0
TABLE
  2
UCS
  5
7
330
0
100
AcDbSymbolTable
 70
     0
  0
ENDTAB
  0
TABLE
  2
APPID
  5
9
330
0
100
AcDbSymbolTable
 70
     1
  0
APPID
  5
12
330
9
100
AcDbSymbolTableRecord
100
AcDbRegAppTableRecord
  2
ACAD
 70
     0
  0
ENDTAB
  0
TABLE
  2
DIMSTYLE
  5
A
330
0
100
AcDbSymbolTable
 70
     1
100
AcDbDimStyleTable
  0
DIMSTYLE
105
27
330
A
100
AcDbSymbolTableRecord
100
AcDbDimStyleTableRecord
  2
Standard
 70
     0
178
     0
340
11
  0
ENDTAB
  0
TABLE
  2
BLOCK_RECORD
  5
1
330
0
100
AcDbSymbolTable
 70
     1
  0
BLOCK_RECORD
  5
1F
330
1
100
AcDbSymbolTableRecord
100
AcDbBlockTableRecord
  2
*Model_Space
340
22
  0
BLOCK_RECORD
  5
1B
330
1
100
AcDbSymbolTableRecord
100
AcDbBlockTableRecord
  2
*Paper_Space
340
1E
  0
BLOCK_RECORD
  5
23
330
1
100
AcDbSymbolTableRecord
100
AcDbBlockTableRecord
  2
*Paper_Space0
340
26
  0
ENDTAB
  0
ENDSEC
  0
SECTION
  2
BLOCKS
  0
BLOCK
  5
20
330
1F
100
AcDbEntity
  8
0
100
AcDbBlockBegin
  2
*Model_Space
 70
     0
 10
0.0
 20
0.0
 30
0.0
  3
*Model_Space
  1
*Model_Space
  0
ENDBLK
  5
21
330
1F
100
AcDbEntity
  8
0
100
AcDbBlockEnd
  0
BLOCK
  5
1C
330
1B
100
AcDbEntity
 67
     1
  8
0
100
AcDbBlockBegin
  2
*Paper_Space
 70
     0
 10
0.0
 20
0.0
 30
0.0
  3
*Paper_Space
  1
*Paper_Space
  0
ENDBLK
  5
1D
330
1B
100
AcDbEntity
 67
     1
  8
0
100
AcDbBlockEnd
  0
BLOCK
  5
24
330
23
100
AcDbEntity
  8
0
100
AcDbBlockBegin
  2
*Paper_Space0
 70
     0
 10
0.0
 20
0.0
 30
0.0
  3
*Paper_Space0
  1
*Paper_Space0
  0
ENDBLK
  5
25
330
23
100
AcDbEntity
  8
0
100
AcDbBlockEnd
  0
ENDSEC
  0
SECTION
  2
ENTITIES
  0
LINE
  5
63
330
1F
100
AcDbEntity
  8
Make2D$___$___
100
AcDbLine
 10
416.7123744484554
 20
102.7617730353078
 30
0.0
 11
418.7931992700343
 21
102.7617730353078
 31
0.0
  0
LINE
  5
64
330
1F
100
AcDbEntity
  8
Make2D$___$___
100
AcDbLine
 10
418.938446872811
 20
102.7617730353078
 30
0.0
 11
419.3068697234775
 21
102.7617730353078
 31
0.0
  0
LINE
  5
65
330
1F
100
AcDbEntity
  8
Make2D$___$___
100
AcDbLine
 10
419.3923584339166
 20
102.7617730353078
 30
0.0
 11
425.7293572498579
 21
102.7617730353079
 31
0.0
  0
LINE
  5
66
330
1F
100
AcDbEntity
  8
Make2D$___$___
100
AcDbLine
 10
425.7834425833366
 20
102.7617730353079
 30
0.0
 11
426.2248097632909
 21
102.7617730353078
 31
0.0
  0
LINE
  5
67
330
1F
100
AcDbEntity
  8
Make2D$___$___
100
AcDbLine
 10
426.6616392782701
 20
102.7617730353078
 30
0.0
 11
426.7812769341041
 21
102.7617730353078
 31
0.0
  0
LINE
  5
68
330
1F
100
AcDbEntity
  8
Make2D$___$___
100
AcDbLine
 10
427.0934506934275
 20
102.7617730353078
 30
0.0
 11
427.301351456441
 21
102.7617730353078
 31
0.0
  0
LINE
  5
69
330
1F
100
AcDbEntity
  8
Make2D$___$___
100
AcDbLine
 10
427.5197670850666
 20
102.7617730353078
 30
0.0
 11
427.8167642812276
 21
102.7617730353078
 31
0.0
  0
LINE
  5
6A
330
1F
100
AcDbEntity
  8
Make2D$___$___
100
AcDbLine
 10
427.9401167906294
 20
102.7617730353078
 30
0.0
 11
428.3269613494827
 21
102.7617730353078
 31
0.0
  0
LINE
  5
6B
330
1F
100
AcDbEntity
  8
Make2D$___$___
100
AcDbLine
 10
428.3540350471698
 20
102.7617730353078
 30
0.0
 11
428.8313910530399
 21
102.7617730353078
 31
0.0
  0
LINE
  5
6C
330
1F
100
AcDbEntity
  8
Make2D$___$___
100
AcDbLine
 10
429.1607624758307
 20
102.7617730353078
 30
0.0
 11
429.3295059533741
 21
102.7617730353078
 31
0.0
  0
LINE
  5
6D
330
1F
100
AcDbEntity
  8
Make2D$___$___
100
AcDbLine
 10
429.5526911917643
 20
102.7617730353078
 30
0.0
 11
429.8207645483348
 21
102.7617730353078
 31
0.0
  0
LINE
  5
6E
330
1F
100
AcDbEntity
  8
Make2D$___$___
100
AcDbLine
 10
429.9364307318536
 20
102.7617730353078
 30
0.0
 11
430.3046331256949
 21
102.7617730353078
 31
0.0
  0
LINE
  5
6F
330
1F
100
AcDbEntity
  8
Make2D$___$___
100
AcDbLine
 10
430.6777334242486
 20
102.7617730353079
 30
0.0
 11
430.7805876274156
 21
102.7617730353078
 31
0.0
  0
LINE
  5
70
330
1F
100
AcDbEntity
  8
Make2D$___$___
100
AcDbLine
 10
431.0345338985637
 20
102.7617730353078
 30
0.0
 11
431.2481154764839
 21
102.7617730353078
 31
0.0
  0
LINE
  5
71
330
1F
100
AcDbEntity
  8
Make2D$___$___
100
AcDbLine
 10
431.3816224463338
 20
102.7617730353078
 30
0.0
 11
431.7067173686993
 21
102.7617730353078
 31
0.0
  0
LINE
  5
72
330
1F
100
AcDbEntity
  8
Make2D$___$___
100
AcDbLine
 10
432.045350004055
 20
102.7617730353079
 30
0.0
 11
432.1559090165614
 21
102.7617730353079
 31
0.0
  0
LINE
  5
73
330
1F
100
AcDbEntity
  8
Make2D$___$___
100
AcDbLine
 10
432.3613852135192
 20
102.7617730353078
 30
0.0
 11
432.5952228326915
 21
102.7617730353078
 31
0.0
  0
LINE
  5
74
330
1F
100
AcDbEntity
  8
Make2D$___$___
100
AcDbLine
 10
432.6665036741608
 20
102.7617730353078
 30
0.0
 11
433.0242095406369
 21
102.7617730353078
 31
0.0
  0
LINE
  5
75
330
1F
100
AcDbEntity
  8
Make2D$___$___
100
AcDbLine
 10
433.2430357806753
 20
102.7617730353079
 30
0.0
 11
433.442439701487
 21
102.7617730353078
 31
0.0
  0
LINE
  5
76
330
1F
100
AcDbEntity
  8
Make2D$___$___
100
AcDbLine
 10
433.7732837868301
 20
102.7617730353078
 30
0.0
 11
433.8495051454473
 21
102.7617730353078
 31
0.0
  0
LINE
  5
77
330
1F
100
AcDbEntity
  8
Make2D$___$___
100
AcDbLine
 10
434.0206405226561
 20
102.7617730353079
 30
0.0
 11
434.2450202983583
 21
102.7617730353078
 31
0.0
  0
LINE
  5
78
330
1F
100
AcDbEntity
  8
Make2D$___$___
100
AcDbLine
 10
434.4792180149096
 20
102.7617730353078
 30
0.0
 11
434.628623394121
 21
102.7617730353079
 31
0.0
  0
LINE
  5
79
330
1F
100
AcDbEntity
  8
Make2D$___$___
100
AcDbLine
 10
434.6902739130034
 20
102.7617730353078
 30
0.0
 11
435.0756933154016
 21
102.7617730353078
 31
0.0
  0
LINE
  5
7A
330
1F
100
AcDbEntity
  8
Make2D$___$___
100
AcDbLine
 10
435.8258692977166
 20
102.7617730353078
 30
0.0
 11
436.001261701213
 21
102.7617730353078
 31
0.0
  0
LINE
  5
7B
330
1F
100
AcDbEntity
  8
Make2D$___$___
100
AcDbLine
 10
436.4623744484555
 20
102.7617730353078
 30
0.0
 11
436.6630767812984
 21
102.7617730353078
 31
0.0
  0
LINE
  5
7C
330
1F
100
AcDbEntity
  8
Make2D$___$___
100
AcDbLine
 10
437.1955936961728
 20
102.7617730353078
 30
0.0
 11
437.2337995535286
 21
102.7617730353078
 31
0.0
  0
LINE
  5
7D
330
1F
100
AcDbEntity
  8
Make2D$___$___
100
AcDbLine
 10
437.4568784363892
 20
102.7617730353078
 30
0.0
 11
437.4982765385075
 21
102.7617730353078
 31
0.0
  0
LINE
  5
7E
330
1F
100
AcDbEntity
  8
Make2D$___$___
100
AcDbLine
 10
437.7047652414627
 20
102.7617730353078
 30
0.0
 11
437.7487061306816
 21
102.7617730353078
 31
0.0
  0
LINE
  5
7F
330
1F
100
AcDbEntity
  8
Make2D$___$___
100
AcDbLine
 10
437.9391806013266
 20
102.7617730353078
 30
0.0
 11
437.9850303413518
 21
102.7617730353078
 31
0.0
  0
LINE
  5
80
330
1F
100
AcDbEntity
  8
Make2D$___$___
100
AcDbLine
 10
438.1600766873789
 20
102.7617730353078
 30
0.0
 11
438.2072189882065
 21
102.7617730353078
 31
0.0
  0
LINE
  5
81
330
1F
100
AcDbEntity
  8
Make2D$___$___
100
AcDbLine
 10
438.3674309734572
 20
102.7617730353078
 30
0.0
 11
438.4152691557601
 21
102.7617730353078
 31
0.0
  0
LINE
  5
82
330
1F
100
AcDbEntity
  8
Make2D$___$___
100
AcDbLine
 10
438.5612457523433
 20
102.7617730353078
 30
0.0
 11
438.6092045429565
 21
102.7617730353078
 31
0.0
  0
LINE
  5
83
330
1F
100
AcDbEntity
  8
Make2D$___$___
100
AcDbLine
 10
438.7415475540036
 20
102.7617730353078
 30
0.0
 11
438.7890747060135
 21
102.7617730353078
 31
0.0
  0
LINE
  5
84
330
1F
100
AcDbEntity
  8
Make2D$___$___
100
AcDbLine
 10
438.9083864723602
 20
102.7617730353078
 30
0.0
 11
438.954954205168
 21
102.7617730353078
 31
0.0
  0
LINE
  5
85
330
1F
100
AcDbEntity
  8
Make2D$___$___
100
AcDbLine
 10
439.0618354078994
 20
102.7617730353079
 30
0.0
 11
439.1069416644498
 21
102.7617730353079
 31
0.0
  0
LINE
  5
86
330
1F
100
AcDbEntity
  8
Make2D$___$___
100
AcDbLine
 10
439.2019892338107
 20
102.7617730353078
 30
0.0
 11
439.2382923077884
 21
102.7617730353078
 31
0.0
  0
LINE
  5
87
330
1F
100
AcDbEntity
  8
Make2D$___$___
100
AcDbLine
 10
439.328963893666
 20
102.7617730353078
 30
0.0
 11
439.36434785175
 21
102.7617730353078
 31
0.0
  0
LINE
  5
88
330
1F
100
AcDbEntity
  8
Make2D$___$___
100
AcDbLine
 10
439.4428954388299
 20
102.7617730353078
 30
0.0
 11
439.4767908851578
 21
102.7617730353078
 31
0.0
  0
LINE
  5
89
330
1F
100
AcDbEntity
  8
Make2D$___$___
100
AcDbLine
 10
439.5439390139165
 20
102.7617730353079
 30
0.0
 11
439.5757965414622
 21
102.7617730353078
 31
0.0
  0
LINE
  5
8A
330
1F
100
AcDbEntity
  8
Make2D$___$___
100
AcDbLine
 10
439.6615592407105
 20
102.7617730353078
 30
0.0
 11
439.7080719138839
 21
102.7617730353078
 31
0.0
  0
LINE
  5
8B
330
1F
100
AcDbEntity
  8
Make2D$___$___
100
AcDbLine
 10
439.7342914403301
 20
102.7617730353078
 30
0.0
 11
439.771557300822
 21
102.7617730353078
 31
0.0
  0
LINE
  5
8C
330
1F
100
AcDbEntity
  8
Make2D$___$___
100
AcDbLine
 10
439.7942223592189
 20
102.7617730353078
 30
0.0
 11
439.8229445997599
 21
102.7617730353078
 31
0.0
  0
LINE
  5
8D
330
1F
100
AcDbEntity
  8
Make2D$___$___
100
AcDbLine
 10
439.8415966843039
 20
102.7617730353078
 30
0.0
 11
439.8624679356597
 21
102.7617730353078
 31
0.0
  0
LINE
  5
8E
330
1F
100
AcDbEntity
  8
Make2D$___$___
100
AcDbLine
 10
439.8766732683424
 20
102.7617730353078
 30
0.0
 11
439.8903738492324
 21
102.7617730353078
 31
0.0
  0
LINE
  5
8F
330
1F
100
AcDbEntity
  8
Make2D$___$___
100
AcDbLine
 10
393.5184705110826
 20
102.7617730353078
 30
0.0
 11
393.533118937984
 21
102.7617730353078
 31
0.0
  0
LINE
  5
90
330
1F
100
AcDbEntity
  8
Make2D$___$___
100
AcDbLine
 10
393.5343750478476
 20
102.7617730353078
 30
0.0
 11
393.5480756268931
 21
102.7617730353078
 31
0.0
  0
LINE
  5
91
330
1F
100
AcDbEntity
  8
Make2D$___$___
100
AcDbLine
 10
394.4697946986622
 20
102.7617730353078
 30
0.0
 11
394.5163624245586
 21
102.7617730353078
 31
0.0
  0
LINE
  5
92
330
1F
100
AcDbEntity
  8
Make2D$___$___
100
AcDbLine
 10
394.6356741985335
 20
102.7617730353078
 30
0.0
 11
394.6832013429186
 21
102.7617730353078
 31
0.0
  0
LINE
  5
93
330
1F
100
AcDbEntity
  8
Make2D$___$___
100
AcDbLine
 10
394.8155443621811
 20
102.7617730353078
 30
0.0
 11
394.86350314458
 21
102.7617730353078
 31
0.0
  0
LINE
  5
94
330
1F
100
AcDbEntity
  8
Make2D$___$___
100
AcDbLine
 10
395.0094797498335
 20
102.7617730353078
 30
0.0
 11
395.0573179234662
 21
102.7617730353078
 31
0.0
  0
LINE
  5
95
330
1F
100
AcDbEntity
  8
Make2D$___$___
100
AcDbLine
 10
395.2175299177048
 20
102.7617730353078
 30
0.0
 11
395.2646722095436
 21
102.7617730353079
 31
0.0
  0
LINE
  5
96
330
1F
100
AcDbEntity
  8
Make2D$___$___
100
AcDbLine
 10
395.4397185647405
 20
102.7617730353078
 30
0.0
 11
395.4855682955946
 21
102.7617730353078
 31
0.0
  0
LINE
  5
97
330
1F
100
AcDbEntity
  8
Make2D$___$___
100
AcDbLine
 10
395.6760427754591
 20
102.7617730353079
 30
0.0
 11
395.7199836554571
 21
102.7617730353078
 31
0.0
  0
LINE
  5
98
330
1F
100
AcDbEntity
  8
Make2D$___$___
100
AcDbLine
 10
395.9264723675563
 20
102.7617730353078
 30
0.0
 11
395.9678704605285
 21
102.7617730353078
 31
0.0
  0
LINE
  5
99
330
1F
100
AcDbEntity
  8
Make2D$___$___
100
AcDbLine
 10
396.190949352344
 20
102.7617730353079
 30
0.0
 11
396.2291552007433
 21
102.7617730353079
 31
0.0
  0
LINE
  5
9A
330
1F
100
AcDbEntity
  8
Make2D$___$___
100
AcDbLine
 10
396.469387515389
 20
102.7617730353078
 30
0.0
 11
396.4989252386091
 21
102.7617730353078
 31
0.0
  0
LINE
  5
9B
330
1F
100
AcDbEntity
  8
Make2D$___$___
100
AcDbLine
 10
396.7616721238978
 20
102.7617730353078
 30
0.0
 11
396.7935015989219
 21
102.7617730353078
 31
0.0
  0
LINE
  5
9C
330
1F
100
AcDbEntity
  8
Make2D$___$___
100
AcDbLine
 10
396.8332987843908
 20
102.7617730353078
 30
0.0
 11
397.4234871956992
 21
102.7617730353078
 31
0.0
  0
LINE
  5
9D
330
1F
100
AcDbEntity
  8
Make2D$___$___
100
AcDbLine
 10
397.5988795991935
 20
102.7617730353079
 30
0.0
 11
397.7584910343282
 21
102.7617730353078
 31
0.0
  0
LINE
  5
9E
330
1F
100
AcDbEntity
  8
Make2D$___$___
100
AcDbLine
 10
397.8626141619295
 20
102.7617730353078
 30
0.0
 11
398.1065181596875
 21
102.7617730353078
 31
0.0
  0
LINE
  5
9F
330
1F
100
AcDbEntity
  8
Make2D$___$___
100
AcDbLine
 10
398.3490554724605
 20
102.7617730353079
 30
0.0
 11
398.4672958465971
 21
102.7617730353078
 31
0.0
  0
LINE
  5
A0
330
1F
100
AcDbEntity
  8
Make2D$___$___
100
AcDbLine
 10
398.7344750268794
 20
102.7617730353078
 30
0.0
 11
398.8405243826448
 21
102.7617730353078
 31
0.0
  0
LINE
  5
A1
330
1F
100
AcDbEntity
  8
Make2D$___$___
100
AcDbLine
 10
398.9455308820009
 20
102.7617730353078
 30
0.0
 11
399.2258778557887
 21
102.7617730353078
 31
0.0
  0
LINE
  5
A2
330
1F
100
AcDbEntity
  8
Make2D$___$___
100
AcDbLine
 10
399.4041084379051
 20
102.7617730353078
 30
0.0
 11
399.6230050777691
 21
102.7617730353078
 31
0.0
  0
LINE
  5
A3
330
1F
100
AcDbEntity
  8
Make2D$___$___
100
AcDbLine
 10
399.910715110854
 20
102.7617730353078
 30
0.0
 11
400.0315306632252
 21
102.7617730353078
 31
0.0
  0
LINE
  5
A4
330
1F
100
AcDbEntity
  8
Make2D$___$___
100
AcDbLine
 10
400.1817131630338
 20
102.7617730353078
 30
0.0
 11
400.8811612881589
 21
102.7617730353078
 31
0.0
  0
LINE
  5
A5
330
1F
100
AcDbEntity
  8
Make2D$___$___
100
AcDbLine
 10
402.1467687055668
 20
102.7617730353078
 30
0.0
 11
402.1766334216562
 21
102.7617730353078
 31
0.0
  0
LINE
  5
A6
330
1F
100
AcDbEntity
  8
Make2D$___$___
100
AcDbLine
 10
402.3902150135729
 20
102.7617730353078
 30
0.0
 11
404.1396097123592
 21
102.7617730353078
 31
0.0
  0
LINE
  5
A7
330
1F
100
AcDbEntity
  8
Make2D$___$___
100
AcDbLine
 10
404.2639864206042
 20
102.7617730353078
 30
0.0
 11
404.6351946303458
 21
102.7617730353078
 31
0.0
  0
LINE
  5
A8
330
1F
100
AcDbEntity
  8
Make2D$___$___
100
AcDbLine
 10
405.070713781598
 20
102.7617730353078
 30
0.0
 11
405.1370804208092
 21
102.7617730353078
 31
0.0
  0
LINE
  5
A9
330
1F
100
AcDbEntity
  8
Make2D$___$___
100
AcDbLine
 10
405.4846321084019
 20
102.7617730353078
 30
0.0
 11
405.6447328977684
 21
102.7617730353078
 31
0.0
  0
LINE
  5
AA
330
1F
100
AcDbEntity
  8
Make2D$___$___
100
AcDbLine
 10
405.9049818138231
 20
102.7617730353078
 30
0.0
 11
406.1576133194246
 21
102.7617730353078
 31
0.0
  0
LINE
  5
AB
330
1F
100
AcDbEntity
  8
Make2D$___$___
100
AcDbLine
 10
406.3312982037578
 20
102.7617730353078
 30
0.0
 11
406.675180165331
 21
102.7617730353078
 31
0.0
  0
LINE
  5
AC
330
1F
100
AcDbEntity
  8
Make2D$___$___
100
AcDbLine
 10
406.7631096168952
 20
102.7617730353078
 30
0.0
 11
407.7222036521882
 21
102.7617730353078
 31
0.0
  0
LINE
  5
AD
330
1F
100
AcDbEntity
  8
Make2D$___$___
100
AcDbLine
 10
408.0867284104276
 20
102.7617730353078
 30
0.0
 11
408.2505790783459
 21
102.7617730353078
 31
0.0
  0
LINE
  5
AE
330
1F
100
AcDbEntity
  8
Make2D$___$___
100
AcDbLine
 10
408.53572275749
 20
102.7617730353078
 30
0.0
 11
408.781481321465
 21
102.7617730353078
 31
0.0
  0
LINE
  5
AF
330
1F
100
AcDbEntity
  8
Make2D$___$___
100
AcDbLine
 10
408.9878075977345
 20
102.7617730353078
 30
0.0
 11
409.3143809888583
 21
102.7617730353078
 31
0.0
  0
LINE
  5
B0
330
1F
100
AcDbEntity
  8
Make2D$___$___
100
AcDbLine
 10
409.4425040537087
 20
102.7617730353078
 30
0.0
 11
409.8487549874798
 21
102.7617730353078
 31
0.0
  0
LINE
  5
B1
330
1F
100
AcDbEntity
  8
Make2D$___$___
100
AcDbLine
 10
409.899336923245
 20
102.7617730353078
 30
0.0
 11
410.3840889499833
 21
102.7617730353078
 31
0.0
  0
LINE
  5
B2
330
1F
100
AcDbEntity
  8
Make2D$___$___
100
AcDbLine
 10
410.817543056483
 20
102.7617730353078
 30
0.0
 11
410.9198783137238
 21
102.7617730353078
 31
0.0
  0
LINE
  5
B3
330
1F
100
AcDbEntity
  8
Make2D$___$___
100
AcDbLine
 10
411.2779997228141
 20
102.7617730353078
 30
0.0
 11
411.4556295650381
 21
102.7617730353078
 31
0.0
  0
LINE
  5
B4
330
1F
100
AcDbEntity
  8
Make2D$___$___
100
AcDbLine
 10
411.7387626865521
 20
102.7617730353079
 30
0.0
 11
411.9908613777649
 21
102.7617730353078
 31
0.0
  0
LINE
  5
B5
330
1F
100
AcDbEntity
  8
Make2D$___$___
100
AcDbLine
 10
412.1993976043936
 20
102.7617730353078
 30
0.0
 11
412.5251056730007
 21
102.7617730353078
 31
0.0
  0
LINE
  5
B6
330
1F
100
AcDbEntity
  8
Make2D$___$___
100
AcDbLine
 10
412.5335331891856
 20
102.7617730353078
 30
0.0
 11
413.5921738351139
 21
102.7617730353078
 31
0.0
  0
LINE
  5
B7
330
1F
100
AcDbEntity
  8
Make2D$___$___
100
AcDbLine
 10
339.6698181166725
 20
144.8393982097942
 30
0.0
 11
388.7010911212722
 21
137.9485021751345
 31
0.0
  0
LINE
  5
B8
330
1F
100
AcDbEntity
  8
Make2D$___$___
100
AcDbLine
 10
339.0436677064119
 20
144.9273979110905
 30
0.0
 11
339.6698181166725
 21
144.8393982097942
 31
0.0
  0
LINE
  5
B9
330
1F
100
AcDbEntity
  8
Make2D$___$___
100
AcDbLine
 10
330.3247996478754
 20
160.511773035308
 30
0.0
 11
393.2336606847055
 21
160.5117730353078
 31
0.0
  0
LINE
  5
BA
330
1F
100
AcDbEntity
  8
Make2D$___$___
100
AcDbLine
 10
329.8254848804967
 20
160.511773035308
 30
0.0
 11
329.8678052143831
 21
160.511773035308
 31
0.0
  0
LINE
  5
BB
330
1F
100
AcDbEntity
  8
Make2D$___$___
100
AcDbLine
 10
329.2295052640241
 20
160.5117730353078
 30
0.0
 11
329.8254848804967
 21
160.511773035308
 31
0.0
  0
LINE
  5
BC
330
1F
100
AcDbEntity
  8
Make2D$___$___
100
AcDbLine
 10
329.2127910290098
 20
160.5117730353078
 30
0.0
 11
329.2295052640241
 21
160.5117730353078
 31
0.0
  0
LINE
  5
BD
330
1F
100
AcDbEntity
  8
Make2D$___$___
100
AcDbLine
 10
494.3810811802977
 20
144.9273979096571
 30
0.0
 11
493.7549308481157
 21
144.8393982193392
 31
0.0
  0
LINE
  5
BE
330
1F
100
AcDbEntity
  8
Make2D$___$___
100
AcDbLine
 10
493.7549308481157
 20
144.8393982193392
 30
0.0
 11
444.7236780132926
 21
137.9485050193801
 31
0.0
  0
LINE
  5
BF
330
1F
100
AcDbEntity
  8
Make2D$___$___
100
AcDbLine
 10
503.5992640164136
 20
160.5117730353078
 30
0.0
 11
504.1952436328866
 21
160.5117730353078
 31
0.0
  0
LINE
  5
C0
330
1F
100
AcDbEntity
  8
Make2D$___$___
100
AcDbLine
 10
503.0999492490351
 20
160.5117730353078
 30
0.0
 11
503.5992640164136
 21
160.5117730353078
 31
0.0
  0
LINE
  5
C1
330
1F
100
AcDbEntity
  8
Make2D$___$___
100
AcDbLine
 10
440.1910882122054
 20
160.5117730353078
 30
0.0
 11
503.0999492490351
 21
160.5117730353078
 31
0.0
  0
LINE
  5
C2
330
1F
100
AcDbEntity
  8
Make2D$___$___
100
AcDbLine
 10
433.8555622758283
 20
160.5117730353078
 30
0.0
 11
440.1910882122054
 21
160.5117730353078
 31
0.0
  0
LINE
  5
C3
330
1F
100
AcDbEntity
  8
Make2D$___$___
100
AcDbLine
 10
400.2879236469869
 20
160.5117730353078
 30
0.0
 11
400.3630139565565
 21
160.5117730353078
 31
0.0
  0
LINE
  5
C4
330
1F
100
AcDbEntity
  8
Make2D$___$___
100
AcDbLine
 10
400.5832293399769
 20
160.5117730353078
 30
0.0
 11
400.796172226023
 21
160.5117730353078
 31
0.0
  0
LINE
  5
C5
330
1F
100
AcDbEntity
  8
Make2D$___$___
100
AcDbLine
 10
401.0827820462235
 20
160.5117730353078
 30
0.0
 11
401.3302261402767
 21
160.5117730353078
 31
0.0
  0
LINE
  5
C6
330
1F
100
AcDbEntity
  8
Make2D$___$___
100
AcDbLine
 10
401.3641123079459
 20
160.5117730353078
 30
0.0
 11
402.200613752851
 21
160.5117730353078
 31
0.0
  0
LINE
  5
C7
330
1F
100
AcDbEntity
  8
Make2D$___$___
100
AcDbLine
 10
402.4261617288914
 20
160.5117730353079
 30
0.0
 11
402.6735143346516
 21
160.5117730353078
 31
0.0
  0
LINE
  5
C8
330
1F
100
AcDbEntity
  8
Make2D$___$___
100
AcDbLine
 10
402.7667122563363
 20
160.5117730353079
 30
0.0
 11
403.0826768321567
 21
160.5117730353079
 31
0.0
  0
LINE
  5
C9
330
1F
100
AcDbEntity
  8
Make2D$___$___
100
AcDbLine
 10
403.4392128025227
 20
160.5117730353078
 30
0.0
 11
403.7710717752678
 21
160.5117730353078
 31
0.0
  0
LINE
  5
CA
330
1F
100
AcDbEntity
  8
Make2D$___$___
100
AcDbLine
 10
403.919047171812
 20
160.5117730353079
 30
0.0
 11
404.2325790786686
 21
160.5117730353078
 31
0.0
  0
LINE
  5
CB
330
1F
100
AcDbEntity
  8
Make2D$___$___
100
AcDbLine
 10
404.3455714017708
 20
160.5117730353079
 30
0.0
 11
404.6391325471919
 21
160.5117730353079
 31
0.0
  0
LINE
  5
CC
330
1F
100
AcDbEntity
  8
Make2D$___$___
100
AcDbLine
 10
404.8071317001596
 20
160.5117730353078
 30
0.0
 11
405.2135476697101
 21
160.5117730353078
 31
0.0
  0
LINE
  5
CD
330
1F
100
AcDbEntity
  8
Make2D$___$___
100
AcDbLine
 10
405.4708733745591
 20
160.5117730353079
 30
0.0
 11
405.6542869607716
 21
160.5117730353079
 31
0.0
  0
LINE
  5
CE
330
1F
100
AcDbEntity
  8
Make2D$___$___
100
AcDbLine
 10
405.8955865179544
 20
160.5117730353079
 30
0.0
 11
406.3258620893907
 21
160.5117730353078
 31
0.0
  0
LINE
  5
CF
330
1F
100
AcDbEntity
  8
Make2D$___$___
100
AcDbLine
 10
406.5474653560744
 20
160.5117730353078
 30
0.0
 11
406.7614388404596
 21
160.5117730353078
 31
0.0
  0
LINE
  5
D0
330
1F
100
AcDbEntity
  8
Make2D$___$___
100
AcDbLine
 10
406.9991790288954
 20
160.5117730353078
 30
0.0
 11
407.4538251129848
 21
160.5117730353078
 31
0.0
  0
LINE
  5
D1
330
1F
100
AcDbEntity
  8
Make2D$___$___
100
AcDbLine
 10
407.6474074904861
 20
160.5117730353079
 30
0.0
 11
407.9110417376526
 21
160.5117730353079
 31
0.0
  0
LINE
  5
D2
330
1F
100
AcDbEntity
  8
Make2D$___$___
100
AcDbLine
 10
408.0972351312168
 20
160.5117730353078
 30
0.0
 11
408.3704689089858
 21
160.5117730353078
 31
0.0
  0
LINE
  5
D3
330
1F
100
AcDbEntity
  8
Make2D$___$___
100
AcDbLine
 10
408.824349063121
 20
160.5117730353079
 30
0.0
 11
409.0091127205756
 21
160.5117730353079
 31
0.0
  0
LINE
  5
D4
330
1F
100
AcDbEntity
  8
Make2D$___$___
100
AcDbLine
 10
409.2945291813617
 20
160.5117730353079
 30
0.0
 11
409.470558055287
 21
160.5117730353079
 31
0.0
  0
LINE
  5
D5
330
1F
100
AcDbEntity
  8
Make2D$___$___
100
AcDbLine
 10
409.7584589214822
 20
160.5117730353079
 30
0.0
 11
410.2231939865131
 21
160.5117730353078
 31
0.0
  0
LINE
  5
D6
330
1F
100
AcDbEntity
  8
Make2D$___$___
100
AcDbLine
 10
410.402911043697
 20
160.5117730353079
 30
0.0
 11
410.6883954787805
 21
160.5117730353079
 31
0.0
  0
LINE
  5
D7
330
1F
100
AcDbEntity
  8
Make2D$___$___
100
AcDbLine
 10
410.8731856330154
 20
160.5117730353078
 30
0.0
 11
411.3457648201156
 21
160.5117730353078
 31
0.0
  0
LINE
  5
D8
330
1F
100
AcDbEntity
  8
Make2D$___$___
100
AcDbLine
 10
411.6188742975544
 20
160.5117730353079
 30
0.0
 11
411.8203250246976
 21
160.5117730353078
 31
0.0
  0
LINE
  5
D9
330
1F
100
AcDbEntity
  8
Make2D$___$___
100
AcDbLine
 10
412.0835078994136
 20
160.5117730353079
 30
0.0
 11
412.2965411399662
 21
160.5117730353079
 31
0.0
  0
LINE
  5
DA
330
1F
100
AcDbEntity
  8
Make2D$___$___
100
AcDbLine
 10
412.77408737466
 20
160.5117730353078
 30
0.0
 11
413.0100126586188
 21
160.5117730353078
 31
0.0
  0
LINE
  5
DB
330
1F
100
AcDbEntity
  8
Make2D$___$___
100
AcDbLine
 10
413.2526377897383
 20
160.5117730353079
 30
0.0
 11
413.4712894659097
 21
160.5117730353078
 31
0.0
  0
LINE
  5
DC
330
1F
100
AcDbEntity
  8
Make2D$___$___
100
AcDbLine
 10
413.9308680833519
 20
160.5117730353078
 30
0.0
 11
414.024246377754
 21
160.5117730353078
 31
0.0
  0
LINE
  5
DD
330
1F
100
AcDbEntity
  8
Make2D$___$___
100
AcDbLine
 10
414.3884745311994
 20
160.5117730353078
 30
0.0
 11
414.6910699798681
 21
160.5117730353078
 31
0.0
  0
LINE
  5
DE
330
1F
100
AcDbEntity
  8
Make2D$___$___
100
AcDbLine
 10
414.8438450376707
 20
160.5117730353078
 30
0.0
 11
415.1886006192222
 21
160.5117730353078
 31
0.0
  0
LINE
  5
DF
330
1F
100
AcDbEntity
  8
Make2D$___$___
100
AcDbLine
 10
415.649134866599
 20
160.5117730353079
 30
0.0
 11
415.7684856445512
 21
160.5117730353078
 31
0.0
  0
LINE
  5
E0
330
1F
100
AcDbEntity
  8
Make2D$___$___
100
AcDbLine
 10
416.94503651246
 20
160.5117730353078
 30
0.0
 11
417.0786385010775
 21
160.5117730353078
 31
0.0
  0
LINE
  5
E1
330
1F
100
AcDbEntity
  8
Make2D$___$___
100
AcDbLine
 10
417.4993357617034
 20
160.5117730353078
 30
0.0
 11
417.9228955738853
 21
160.5117730353078
 31
0.0
  0
LINE
  5
E2
330
1F
100
AcDbEntity
  8
Make2D$___$___
100
AcDbLine
 10
418.1514042289476
 20
160.5117730353078
 30
0.0
 11
418.3491287505532
 21
160.5117730353078
 31
0.0
  0
LINE
  5
E3
330
1F
100
AcDbEntity
  8
Make2D$___$___
100
AcDbLine
 10
418.7576278249299
 20
160.5117730353078
 30
0.0
 11
418.8964443857019
 21
160.5117730353078
 31
0.0
  0
LINE
  5
E4
330
1F
100
AcDbEntity
  8
Make2D$___$___
100
AcDbLine
 10
419.2088148975515
 20
160.5117730353078
 30
0.0
 11
419.6418460434863
 21
160.5117730353078
 31
0.0
  0
LINE
  5
E5
330
1F
100
AcDbEntity
  8
Make2D$___$___
100
AcDbLine
 10
419.8078213707103
 20
160.5117730353078
 30
0.0
 11
420.0767071053558
 21
160.5117730353078
 31
0.0
  0
LINE
  5
E6
330
1F
100
AcDbEntity
  8
Make2D$___$___
100
AcDbLine
 10
420.5131661077211
 20
160.5117730353078
 30
0.0
 11
420.7179261569672
 21
160.5117730353078
 31
0.0
  0
LINE
  5
E7
330
1F
100
AcDbEntity
  8
Make2D$___$___
100
AcDbLine
 10
420.9509828841383
 20
160.5117730353078
 30
0.0
 11
421.3899096157874
 21
160.5117730353078
 31
0.0
  0
LINE
  5
E8
330
1F
100
AcDbEntity
  8
Make2D$___$___
100
AcDbLine
 10
421.6245264628228
 20
160.5117730353079
 30
0.0
 11
421.8296907021403
 21
160.5117730353078
 31
0.0
  0
LINE
  5
E9
330
1F
100
AcDbEntity
  8
Make2D$___$___
100
AcDbLine
 10
422.2700632843001
 20
160.5117730353078
 30
0.0
 11
422.5253781133471
 21
160.5117730353078
 31
0.0
  0
LINE
  5
EA
330
1F
100
AcDbEntity
  8
Make2D$___$___
100
AcDbLine
 10
422.7107576378222
 20
160.5117730353078
 30
0.0
 11
423.151497412334
 21
160.5117730353078
 31
0.0
  0
LINE
  5
EB
330
1F
100
AcDbEntity
  8
Make2D$___$___
100
AcDbLine
 10
423.4182430106321
 20
160.5117730353078
 30
0.0
 11
423.5946489267523
 21
160.5117730353078
 31
0.0
  0
LINE
  5
EC
330
1F
100
AcDbEntity
  8
Make2D$___$___
100
AcDbLine
 10
424.0319774948701
 20
160.5117730353078
 30
0.0
 11
424.3009075375432
 21
160.5117730353078
 31
0.0
  0
LINE
  5
ED
330
1F
100
AcDbEntity
  8
Make2D$___$___
100
AcDbLine
 10
424.471136081549
 20
160.5117730353078
 30
0.0
 11
424.909177643297
 21
160.5117730353078
 31
0.0
  0
LINE
  5
EE
330
1F
100
AcDbEntity
  8
Make2D$___$___
100
AcDbLine
 10
425.1712007899005
 20
160.5117730353078
 30
0.0
 11
425.3582258513318
 21
160.5117730353078
 31
0.0
  0
LINE
  5
EF
330
1F
100
AcDbEntity
  8
Make2D$___$___
100
AcDbLine
 10
425.7806963283621
 20
160.5117730353078
 30
0.0
 11
426.0270122137844
 21
160.5117730353078
 31
0.0
  0
LINE
  5
F0
330
1F
100
AcDbEntity
  8
Make2D$___$___
100
AcDbLine
 10
426.2135581889526
 20
160.5117730353078
 30
0.0
 11
426.6440737752055
 21
160.5117730353078
 31
0.0
  0
LINE
  5
F1
330
1F
100
AcDbEntity
  8
Make2D$___$___
100
AcDbLine
 10
426.8663088491891
 20
160.5117730353079
 30
0.0
 11
427.6871509774542
 21
160.5117730353078
 31
0.0
  0
LINE
  5
F2
330
1F
100
AcDbEntity
  8
Make2D$___$___
100
AcDbLine
 10
427.9184043069416
 20
160.5117730353078
 30
0.0
 11
428.3363931776066
 21
160.5117730353078
 31
0.0
  0
LINE
  5
F3
330
1F
100
AcDbEntity
  8
Make2D$___$___
100
AcDbLine
 10
428.4877072367863
 20
160.5117730353078
 30
0.0
 11
428.8798388253144
 21
160.5117730353078
 31
0.0
  0
LINE
  5
F4
330
1F
100
AcDbEntity
  8
Make2D$___$___
100
AcDbLine
 10
429.160306159358
 20
160.5117730353078
 30
0.0
 11
429.266267712244
 21
160.5117730353079
 31
0.0
  0
LINE
  5
F5
330
1F
100
AcDbEntity
  8
Make2D$___$___
100
AcDbLine
 10
429.6468011194404
 20
160.5117730353078
 30
0.0
 11
429.966065064814
 21
160.5117730353078
 31
0.0
  0
LINE
  5
F6
330
1F
100
AcDbEntity
  8
Make2D$___$___
100
AcDbLine
 10
430.0212550221552
 20
160.5117730353078
 30
0.0
 11
431.5159699363325
 21
160.5117730353078
 31
0.0
  0
LINE
  5
F7
330
1F
100
AcDbEntity
  8
Make2D$___$___
100
AcDbLine
 10
431.5380570236308
 20
160.5117730353078
 30
0.0
 11
431.785131758009
 21
160.5117730353078
 31
0.0
  0
LINE
  5
F8
330
1F
100
AcDbEntity
  8
Make2D$___$___
100
AcDbLine
 10
432.0606365872265
 20
160.5117730353078
 30
0.0
 11
432.341966806949
 21
160.5117730353078
 31
0.0
  0
LINE
  5
F9
330
1F
100
AcDbEntity
  8
Make2D$___$___
100
AcDbLine
 10
432.5027914429301
 20
160.5117730353078
 30
0.0
 11
432.9198958675734
 21
160.5117730353078
 31
0.0
  0
LINE
  5
FA
330
1F
100
AcDbEntity
  8
Make2D$___$___
100
AcDbLine
 10
432.9668417861541
 20
160.5117730353078
 30
0.0
 11
433.2153332509945
 21
160.5117730353078
 31
0.0
  0
LINE
  5
FB
330
1F
100
AcDbEntity
  8
Make2D$___$___
100
AcDbLine
 10
433.4179382462752
 20
160.5117730353078
 30
0.0
 11
433.8555622758283
 21
160.5117730353078
 31
0.0
  0
LINE
  5
FC
330
1F
100
AcDbEntity
  8
Make2D$___$___
100
AcDbLine
 10
393.2336606847055
 20
160.5117730353078
 30
0.0
 11
399.5691866210677
 21
160.5117730353078
 31
0.0
  0
LINE
  5
FD
330
1F
100
AcDbEntity
  8
Make2D$___$___
100
AcDbLine
 10
406.1709067213097
 20
93.76177303530787
 30
0.0
 11
427.2538421756018
 21
93.76177303530787
 31
0.0
  0
LINE
  5
FE
330
1F
100
AcDbEntity
  8
Make2D$___$___
100
AcDbLine
 10
436.4623744484571
 20
102.7617730353049
 30
0.0
 11
433.6213495012972
 21
95.94331316212575
 31
0.0
  0
LINE
  5
FF
330
1F
100
AcDbEntity
  8
Make2D$___$___
100
AcDbLine
 10
399.8033993956133
 20
95.94331316212597
 30
0.0
 11
396.9623744484535
 21
102.7617730353049
 31
0.0
  0
LINE
  5
100
330
1F
100
AcDbEntity
  8
Make2D$___$___
100
AcDbLine
 10
394.2293852047826
 20
75.16177303530202
 30
0.0
 11
400.2029132673303
 21
75.16177303530438
 31
0.0
  0
LINE
  5
101
330
1F
100
AcDbEntity
  8
Make2D$___$___
100
AcDbLine
 10
400.4654659799922
 20
75.16177303530446
 30
0.0
 11
400.5917099366859
 21
75.16177303530449
 31
0.0
  0
LINE
  5
102
330
1F
100
AcDbEntity
  8
Make2D$___$___
100
AcDbLine
 10
400.8599475887812
 20
75.16177303530458
 30
0.0
 11
400.9898338267041
 21
75.1617730353046
 31
0.0
  0
LINE
  5
103
330
1F
100
AcDbEntity
  8
Make2D$___$___
100
AcDbLine
 10
401.2637539859374
 20
75.16177303530468
 30
0.0
 11
401.3969411312043
 21
75.16177303530472
 31
0.0
  0
LINE
  5
104
330
1F
100
AcDbEntity
  8
Make2D$___$___
100
AcDbLine
 10
401.6765492369009
 20
75.16177303530479
 30
0.0
 11
401.8126725611529
 21
75.16177303530482
 31
0.0
  0
LINE
  5
105
330
1F
100
AcDbEntity
  8
Make2D$___$___
100
AcDbLine
 10
402.0979815307418
 20
75.16177303530489
 30
0.0
 11
402.2366551957299
 21
75.16177303530493
 31
0.0
  0
LINE
  5
106
330
1F
100
AcDbEntity
  8
Make2D$___$___
100
AcDbLine
 10
402.5276841787875
 20
75.161773035305
 30
0.0
 11
402.6685024053712
 21
75.16177303530503
 31
0.0
  0
LINE
  5
107
330
1F
100
AcDbEntity
  8
Make2D$___$___
100
AcDbLine
 10
402.9652766772688
 20
75.16177303530512
 30
0.0
 11
403.1078158044827
 21
75.16177303530515
 31
0.0
  0
LINE
  5
108
330
1F
100
AcDbEntity
  8
Make2D$___$___
100
AcDbLine
 10
403.4103658275338
 20
75.16177303530522
 30
0.0
 11
403.5541862635225
 21
75.16177303530526
 31
0.0
  0
LINE
  5
109
330
1F
100
AcDbEntity
  8
Make2D$___$___
100
AcDbLine
 10
403.8625469069162
 20
75.16177303530534
 30
0.0
 11
404.0071951537984
 21
75.16177303530537
 31
0.0
  0
LINE
  5
10A
330
1F
100
AcDbEntity
  8
Make2D$___$___
100
AcDbLine
 10
404.3214048829803
 20
75.16177303530544
 30
0.0
 11
404.4664156210662
 21
75.16177303530547
 31
0.0
  0
LINE
  5
10B
330
1F
100
AcDbEntity
  8
Make2D$___$___
100
AcDbLine
 10
404.7865156635679
 20
75.16177303530554
 30
0.0
 11
404.9314138799893
 21
75.16177303530559
 31
0.0
  0
LINE
  5
10C
330
1F
100
AcDbEntity
  8
Make2D$___$___
100
AcDbLine
 10
405.2574473748506
 20
75.16177303530566
 30
0.0
 11
405.4017505214669
 21
75.16177303530569
 31
0.0
  0
LINE
  5
10D
330
1F
100
AcDbEntity
  8
Make2D$___$___
100
AcDbLine
 10
405.7337616594629
 20
75.16177303530577
 30
0.0
 11
405.8769818248789
 21
75.1617730353058
 31
0.0
  0
LINE
  5
10E
330
1F
100
AcDbEntity
  8
Make2D$___$___
100
AcDbLine
 10
406.2150149867355
 20
75.16177303530588
 30
0.0
 11
406.3566610674048
 21
75.1617730353059
 31
0.0
  0
LINE
  5
10F
330
1F
100
AcDbEntity
  8
Make2D$___$___
100
AcDbLine
 10
406.700759967082
 20
75.16177303530597
 30
0.0
 11
406.8403398227666
 21
75.161773035306
 31
0.0
  0
LINE
  5
110
330
1F
100
AcDbEntity
  8
Make2D$___$___
100
AcDbLine
 10
407.1905466627014
 20
75.16177303530608
 30
0.0
 11
407.3275692420078
 21
75.16177303530611
 31
0.0
  0
LINE
  5
111
330
1F
100
AcDbEntity
  8
Make2D$___$___
100
AcDbLine
 10
428.9382648439205
 20
75.16177303530671
 30
0.0
 11
429.123175552007
 21
75.1617730353067
 31
0.0
  0
LINE
  5
112
330
1F
100
AcDbEntity
  8
Make2D$___$___
100
AcDbLine
 10
429.3826313793264
 20
75.16177303530665
 30
0.0
 11
429.5676289956
 21
75.16177303530664
 31
0.0
  0
LINE
  5
113
330
1F
100
AcDbEntity
  8
Make2D$___$___
100
AcDbLine
 10
429.8214231528126
 20
75.16177303530661
 30
0.0
 11
430.005909231041
 21
75.16177303530658
 31
0.0
  0
LINE
  5
114
330
1F
100
AcDbEntity
  8
Make2D$___$___
100
AcDbLine
 10
430.2542449831794
 20
75.16177303530654
 30
0.0
 11
430.4376339098541
 21
75.16177303530652
 31
0.0
  0
LINE
  5
115
330
1F
100
AcDbEntity
  8
Make2D$___$___
100
AcDbLine
 10
430.6807076986918
 20
75.1617730353065
 30
0.0
 11
430.8624292433867
 21
75.16177303530648
 31
0.0
  0
LINE
  5
116
330
1F
100
AcDbEntity
  8
Make2D$___$___
100
AcDbLine
 10
431.1004292539171
 20
75.16177303530645
 30
0.0
 11
431.2799310653163
 21
75.16177303530642
 31
0.0
  0
LINE
  5
117
330
1F
100
AcDbEntity
  8
Make2D$___$___
100
AcDbLine
 10
431.513035831361
 20
75.1617730353064
 30
0.0
 11
431.6897858620199
 21
75.16177303530637
 31
0.0
  0
LINE
  5
118
330
1F
100
AcDbEntity
  8
Make2D$___$___
100
AcDbLine
 10
431.9181629214277
 20
75.16177303530634
 30
0.0
 11
432.0916517647408
 21
75.16177303530631
 31
0.0
  0
LINE
  5
119
330
1F
100
AcDbEntity
  8
Make2D$___$___
100
AcDbLine
 10
432.3154563743145
 20
75.16177303530628
 30
0.0
 11
432.4851994977387
 21
75.16177303530625
 31
0.0
  0
LINE
  5
11A
330
1F
100
AcDbEntity
  8
Make2D$___$___
100
AcDbLine
 10
432.7045732343057
 20
75.16177303530623
 30
0.0
 11
432.8701132769129
 21
75.1617730353062
 31
0.0
  0
LINE
  5
11B
330
1F
100
AcDbEntity
  8
Make2D$___$___
100
AcDbLine
 10
433.0851834542881
 20
75.16177303530617
 30
0.0
 11
433.2460916537574
 21
75.16177303530615
 31
0.0
  0
LINE
  5
11C
330
1F
100
AcDbEntity
  8
Make2D$___$___
100
AcDbLine
 10
433.4569697144354
 20
75.16177303530611
 30
0.0
 11
433.612848299913
 21
75.16177303530608
 31
0.0
  0
LINE
  5
11D
330
1F
100
AcDbEntity
  8
Make2D$___$___
100
AcDbLine
 10
433.81962904712
 20
75.16177303530606
 30
0.0
 11
439.2023890540979
 21
75.16177303530492
 31
0.0
  0
ARC
  5
11E
330
1F
100
AcDbEntity
  8
Make2D$___$___
100
AcDbCircle
 10
438.1104720954321
 20
100.1777025513865
 30
0.0
 40
0.0967147680935012
100
AcDbArc
 50
324.0260136744029
 51
350.5198360584481
  0
LINE
  5
11F
330
1F
100
AcDbEntity
  8
Make2D$___$___
100
AcDbLine
 10
438.1862099837567
 20
100.1164560437729
 30
0.0
 11
438.1021441804246
 21
99.98085134545971
 31
0.0
  0
LINE
  5
120
330
1F
100
AcDbEntity
  8
Make2D$___$___
100
AcDbLine
 10
438.2058659992461
 20
100.1617730353077
 30
0.0
 11
439.7062905801931
 21
100.1617730353081
 31
0.0
  0
ARC
  5
121
330
1F
100
AcDbEntity
  8
Make2D$___$___
100
AcDbCircle
 10
385.15287764593
 20
87.48764615817714
 30
0.0
 40
15.9058508971193
100
AcDbArc
 50
40.86173248460513
 51
45.8160427082145
  0
SPLINE
  5
122
330
1F
100
AcDbEntity
  8
Make2D$___$___
100
AcDbSpline
210
0.0
220
0.0
230
1.0
 70
     8
 71
     3
 72
    13
 73
     9
 74
     0
 42
0.000000001
 43
0.0000000001
 12
1.0
 22
0.0
 32
0.0
 13
1.0
 23
0.0
 33
0.0
 40
0.0
 40
0.0
 40
0.0
 40
0.0
 40
0.125
 40
0.25
 40
0.5
 40
0.75
 40
0.875
 40
1.0
 40
1.0
 40
1.0
 40
1.0
 10
416.7123744484554
 20
92.70038323284848
 30
0.0
 10
415.4277956729946
 20
92.70038323284876
 30
0.0
 10
413.0448102398173
 20
92.78594850606564
 30
0.0
 10
408.8091812696434
 20
93.2008258057484
 30
0.0
 10
404.3160229914189
 20
94.08773817358059
 30
0.0
 10
400.7193094847104
 20
95.38665929292992
 30
0.0
 10
398.4471307690317
 20
96.70394431891577
 30
0.0
 10
397.5512325771123
 20
97.4729794244472
 30
0.0
 10
397.1823231342245
 20
97.8938238428768
 30
0.0
  0
SPLINE
  5
123
330
1F
100
AcDbEntity
  8
Make2D$___$___
100
AcDbSpline
210
0.0
220
0.0
230
1.0
 70
     8
 71
     3
 72
    13
 73
     9
 74
     0
 42
0.000000001
 43
0.0000000001
 12
1.0
 22
0.0
 32
0.0
 13
1.0
 23
0.0
 33
0.0
 40
0.0
 40
0.0
 40
0.0
 40
0.0
 40
0.125
 40
0.25
 40
0.5
 40
0.75
 40
0.875
 40
1.0
 40
1.0
 40
1.0
 40
1.0
 10
436.2424257626861
 20
97.8938238428768
 30
0.0
 10
435.8735163197989
 20
97.47297942444851
 30
0.0
 10
434.9776181278795
 20
96.70394431891594
 30
0.0
 10
432.7054394122006
 20
95.38665929292978
 30
0.0
 10
429.108725905492
 20
94.08773817358048
 30
0.0
 10
424.6155676272684
 20
93.20082580574834
 30
0.0
 10
420.3799386570935
 20
92.78594850606561
 30
0.0
 10
417.9969532239161
 20
92.70038323284874
 30
0.0
 10
416.7123744484554
 20
92.70038323284848
 30
0.0
  0
ARC
  5
124
330
1F
100
AcDbEntity
  8
Make2D$___$___
100
AcDbCircle
 10
448.2821331931738
 20
87.47796263453284
 30
0.0
 40
15.9199472274007
100
AcDbArc
 50
134.1861520563538
 51
139.1360727503043
  0
ARC
  5
125
330
1F
100
AcDbEntity
  8
Make2D$___$___
100
AcDbCircle
 10
433.1516316958263
 20
103.2233316442885
 30
0.0
 40
5.917875661794189
100
AcDbArc
 50
312.9794465504856
 51
326.7760546707099
  0
ARC
  5
126
330
1F
100
AcDbEntity
  8
Make2D$___$___
100
AcDbCircle
 10
400.2731170383757
 20
103.2233315306167
 30
0.0
 40
5.917875467703099
100
AcDbArc
 50
213.2239448437945
 51
227.0205538519669
  0
LINE
  5
127
330
1F
100
AcDbEntity
  8
Make2D$___$___
100
AcDbLine
 10
395.3226046886664
 20
99.9808513800811
 30
0.0
 11
395.2381889901033
 21
100.1170658525782
 31
0.0
  0
LINE
  5
128
330
1F
100
AcDbEntity
  8
Make2D$___$___
100
AcDbLine
 10
395.23600791841
 20
100.1208891337552
 30
0.0
 11
395.2179132463601
 21
100.155490590557
 31
0.0
  0
LINE
  5
129
330
1F
100
AcDbEntity
  8
Make2D$___$___
100
AcDbLine
 10
393.7184575438424
 20
100.1617730353074
 30
0.0
 11
395.2179132463601
 21
100.1617730353085
 31
0.0
  0
LINE
  5
12A
330
1F
100
AcDbEntity
  8
Make2D$___$___
100
AcDbLine
 10
395.2235300409312
 20
100.1617730353085
 30
0.0
 11
398.0457077818022
 21
100.1617730353089
 31
0.0
  0
LINE
  5
12B
330
1F
100
AcDbEntity
  8
Make2D$___$___
100
AcDbLine
 10
435.3790411151081
 20
100.1617730353079
 30
0.0
 11
438.2058659992461
 21
100.1617730353077
 31
0.0
  0
LINE
  5
12C
330
1F
100
AcDbEntity
  8
Make2D$___$___
100
AcDbLine
 10
492.7589060427258
 20
161.9644009794677
 30
0.0
 11
492.7589060427258
 21
173.059145091148
 31
0.0
  0
LINE
  5
12D
330
1F
100
AcDbEntity
  8
Make2D$___$___
100
AcDbLine
 10
490.6658428541846
 20
173.059145091148
 30
0.0
 11
492.7589060427258
 21
173.059145091148
 31
0.0
  0
LINE
  5
12E
330
1F
100
AcDbEntity
  8
Make2D$___$___
100
AcDbLine
 10
490.6658428541846
 20
173.059145091148
 30
0.0
 11
490.6658428541846
 21
161.9644009794677
 31
0.0
  0
LINE
  5
12F
330
1F
100
AcDbEntity
  8
Make2D$___$___
100
AcDbLine
 10
492.7589060427258
 20
161.9644009794677
 30
0.0
 11
490.6658428541846
 21
161.9644009794677
 31
0.0
  0
LINE
  5
130
330
1F
100
AcDbEntity
  8
Make2D$___$___
100
AcDbLine
 10
477.3623744484547
 20
161.9644009794681
 30
0.0
 11
477.3623744484548
 21
161.0186314690107
 31
0.0
  0
LINE
  5
131
330
1F
100
AcDbEntity
  8
Make2D$___$___
100
AcDbLine
 10
477.3623744484548
 20
161.0117730353074
 30
0.0
 11
484.033226057235
 21
161.0117730353078
 31
0.0
  0
ARC
  5
132
330
1F
100
AcDbEntity
  8
Make2D$___$___
100
AcDbCircle
 10
484.7262061878922
 20
182.4157870306245
 30
0.0
 40
21.40484694029669
100
AcDbArc
 50
252.8344214919153
 51
269.4945349490289
  0
LINE
  5
133
330
1F
100
AcDbEntity
  8
Make2D$___$___
100
AcDbLine
 10
477.3623744484547
 20
161.9644009794681
 30
0.0
 11
478.4089060427269
 21
161.9644009794684
 31
0.0
  0
LINE
  5
134
330
1F
100
AcDbEntity
  8
Make2D$___$___
100
AcDbLine
 10
477.3623744484547
 20
174.0049151902118
 30
0.0
 11
477.3623744484547
 21
173.0591450911476
 31
0.0
  0
LINE
  5
135
330
1F
100
AcDbEntity
  8
Make2D$___$___
100
AcDbLine
 10
477.3623744484547
 20
173.0591450911476
 30
0.0
 11
477.3623744484547
 21
161.9644009794681
 31
0.0
  0
LINE
  5
136
330
1F
100
AcDbEntity
  8
Make2D$___$___
100
AcDbLine
 10
478.4089060427269
 20
161.9644009794684
 30
0.0
 11
478.4089060427269
 21
173.0591450911473
 31
0.0
  0
LINE
  5
137
330
1F
100
AcDbEntity
  8
Make2D$___$___
100
AcDbLine
 10
477.3623744484547
 20
173.0591450911476
 30
0.0
 11
478.4089060427269
 21
173.0591450911473
 31
0.0
  0
ARC
  5
138
330
1F
100
AcDbEntity
  8
Make2D$___$___
100
AcDbCircle
 10
484.8005034792466
 20
152.2451783047335
 30
0.0
 40
21.77323428378208
100
AcDbArc
 50
92.01785835985909
 51
107.0707869652547
  0
ARC
  5
139
330
1F
100
AcDbEntity
  8
Make2D$___$___
100
AcDbCircle
 10
484.2734037930538
 20
152.2404172461885
 30
0.0
 40
21.77803265294562
100
AcDbArc
 50
72.93077336198223
 51
87.97898392613772
  0
ARC
  5
13A
330
1F
100
AcDbEntity
  8
Make2D$___$___
100
AcDbCircle
 10
484.3490478757407
 20
182.4125371802544
 30
0.0
 40
21.40159276515704
100
AcDbArc
 50
270.5041894388903
 51
287.166854120153
  0
ARC
  5
13B
330
1F
100
AcDbEntity
  8
Make2D$___$___
100
AcDbCircle
 10
499.0762061878134
 20
182.4157870301393
 30
0.0
 40
21.40484693981089
100
AcDbArc
 50
252.8344214917315
 51
269.4945349492251
  0
LINE
  5
13C
330
1F
100
AcDbEntity
  8
Make2D$___$___
100
AcDbLine
 10
485.0409955279868
 20
161.0117730353078
 30
0.0
 11
498.383226061084
 21
161.0117730353078
 31
0.0
  0
ARC
  5
13D
330
1F
100
AcDbEntity
  8
Make2D$___$___
100
AcDbCircle
 10
498.699047875776
 20
182.4125371800049
 30
0.0
 40
21.40159276490715
100
AcDbArc
 50
270.5041894387982
 51
287.1668541202575
  0
LINE
  5
13E
330
1F
100
AcDbEntity
  8
Make2D$___$___
100
AcDbLine
 10
499.3909955317769
 20
161.0117730353078
 30
0.0
 11
506.0553103100423
 21
161.0117730353074
 31
0.0
  0
LINE
  5
13F
330
1F
100
AcDbEntity
  8
Make2D$___$___
100
AcDbLine
 10
506.062374448456
 20
161.0117730353074
 30
0.0
 11
506.062374448456
 21
161.9644009794681
 31
0.0
  0
LINE
  5
140
330
1F
100
AcDbEntity
  8
Make2D$___$___
100
AcDbLine
 10
505.0158428541836
 20
161.9644009794684
 30
0.0
 11
506.062374448456
 21
161.9644009794681
 31
0.0
  0
LINE
  5
141
330
1F
100
AcDbEntity
  8
Make2D$___$___
100
AcDbLine
 10
505.0158428541836
 20
173.0591450911473
 30
0.0
 11
505.0158428541836
 21
161.9644009794684
 31
0.0
  0
LINE
  5
142
330
1F
100
AcDbEntity
  8
Make2D$___$___
100
AcDbLine
 10
506.062374448456
 20
161.9644009794681
 30
0.0
 11
506.062374448456
 21
173.0591450911476
 31
0.0
  0
LINE
  5
143
330
1F
100
AcDbEntity
  8
Make2D$___$___
100
AcDbLine
 10
505.0158428541836
 20
173.0591450911473
 30
0.0
 11
506.062374448456
 21
173.0591450911476
 31
0.0
  0
ARC
  5
144
330
1F
100
AcDbEntity
  8
Make2D$___$___
100
AcDbCircle
 10
499.1505184100071
 20
152.2451067663863
 30
0.0
 40
21.77330705332177
100
AcDbArc
 50
92.01813612086998
 51
107.0707692624695
  0
LINE
  5
145
330
1F
100
AcDbEntity
  8
Make2D$___$___
100
AcDbLine
 10
499.0634835211952
 20
174.0109313650383
 30
0.0
 11
499.2736531142589
 21
174.0077332409008
 31
0.0
  0
ARC
  5
146
330
1F
100
AcDbEntity
  8
Make2D$___$___
100
AcDbCircle
 10
498.6234037930459
 20
152.2404172461628
 30
0.0
 40
21.77803265297141
100
AcDbArc
 50
72.93077336198414
 51
87.97898392613787
  0
LINE
  5
147
330
1F
100
AcDbEntity
  8
Make2D$___$___
100
AcDbLine
 10
506.062374448456
 20
173.0591450911476
 30
0.0
 11
506.062374448456
 21
174.0117730353082
 31
0.0
  0
LINE
  5
148
330
1F
100
AcDbEntity
  8
Make2D$___$___
100
AcDbLine
 10
459.2123745266854
 20
194.0117730353078
 30
0.0
 11
491.7108711010148
 21
194.0117730353078
 31
0.0
  0
LINE
  5
149
330
1F
100
AcDbEntity
  8
Make2D$___$___
100
AcDbLine
 10
491.7138777952434
 20
194.0117730353078
 30
0.0
 11
524.2123743702253
 21
194.0117730353078
 31
0.0
  0
LINE
  5
14A
330
1F
100
AcDbEntity
  8
Make2D$___$___
100
AcDbLine
 10
477.2707262155853
 20
174.0117730353078
 30
0.0
 11
491.7123744484554
 21
174.0117730353078
 31
0.0
  0
LINE
  5
14B
330
1F
100
AcDbEntity
  8
Make2D$___$___
100
AcDbLine
 10
491.7123744484554
 20
174.0117730353078
 30
0.0
 11
499.0634910921813
 21
174.0117730353078
 31
0.0
  0
LINE
  5
14C
330
1F
100
AcDbEntity
  8
Make2D$___$___
100
AcDbLine
 10
499.2737374452646
 20
174.0117730353078
 30
0.0
 11
506.1540226813253
 21
174.0117730353078
 31
0.0
  0
LINE
  5
14D
330
1F
100
AcDbEntity
  8
Make2D$___$___
100
AcDbLine
 10
374.2123743702253
 20
194.0117730353078
 30
0.0
 11
341.7138777958959
 21
194.0117730353078
 31
0.0
  0
LINE
  5
14E
330
1F
100
AcDbEntity
  8
Make2D$___$___
100
AcDbLine
 10
341.7108711016674
 20
194.0117730353078
 30
0.0
 11
309.2123745266854
 21
194.0117730353078
 31
0.0
  0
LINE
  5
14F
330
1F
100
AcDbEntity
  8
Make2D$___$___
100
AcDbLine
 10
356.1540226813253
 20
174.0117730353078
 30
0.0
 11
341.7123744484554
 21
174.0117730353078
 31
0.0
  0
LINE
  5
150
330
1F
100
AcDbEntity
  8
Make2D$___$___
100
AcDbLine
 10
341.7123744484554
 20
174.0117730353078
 30
0.0
 11
335.0409959164608
 21
174.0117730353078
 31
0.0
  0
LINE
  5
151
330
1F
100
AcDbEntity
  8
Make2D$___$___
100
AcDbLine
 10
334.7566658627296
 20
174.0117730353078
 30
0.0
 11
327.2707262155853
 21
174.0117730353078
 31
0.0
  0
LINE
  5
152
330
1F
100
AcDbEntity
  8
Make2D$___$___
100
AcDbLine
 10
340.6658428541849
 20
161.9644009794677
 30
0.0
 11
340.6658428541849
 21
173.059145091148
 31
0.0
  0
LINE
  5
153
330
1F
100
AcDbEntity
  8
Make2D$___$___
100
AcDbLine
 10
342.758906042726
 20
173.059145091148
 30
0.0
 11
340.6658428541849
 21
173.059145091148
 31
0.0
  0
LINE
  5
154
330
1F
100
AcDbEntity
  8
Make2D$___$___
100
AcDbLine
 10
342.758906042726
 20
173.059145091148
 30
0.0
 11
342.758906042726
 21
161.9644009794677
 31
0.0
  0
LINE
  5
155
330
1F
100
AcDbEntity
  8
Make2D$___$___
100
AcDbLine
 10
340.6658428541849
 20
161.9644009794677
 30
0.0
 11
342.758906042726
 21
161.9644009794677
 31
0.0
  0
LINE
  5
156
330
1F
100
AcDbEntity
  8
Make2D$___$___
100
AcDbLine
 10
356.062374448456
 20
161.9644009794681
 30
0.0
 11
356.0623744484559
 21
161.0186314690107
 31
0.0
  0
LINE
  5
157
330
1F
100
AcDbEntity
  8
Make2D$___$___
100
AcDbLine
 10
356.0623744484559
 20
161.0117730353074
 30
0.0
 11
349.3915228396754
 21
161.0117730353078
 31
0.0
  0
ARC
  5
158
330
1F
100
AcDbEntity
  8
Make2D$___$___
100
AcDbCircle
 10
348.6985427090183
 20
182.4157870306248
 30
0.0
 40
21.40484694029707
100
AcDbArc
 50
270.5054650509715
 51
287.1655785080848
  0
LINE
  5
159
330
1F
100
AcDbEntity
  8
Make2D$___$___
100
AcDbLine
 10
356.062374448456
 20
161.9644009794681
 30
0.0
 11
355.0158428541838
 21
161.9644009794684
 31
0.0
  0
LINE
  5
15A
330
1F
100
AcDbEntity
  8
Make2D$___$___
100
AcDbLine
 10
356.0623744484559
 20
174.0117730353082
 30
0.0
 11
356.062374448456
 21
173.0591450911476
 31
0.0
  0
LINE
  5
15B
330
1F
100
AcDbEntity
  8
Make2D$___$___
100
AcDbLine
 10
356.062374448456
 20
173.0591450911476
 30
0.0
 11
356.062374448456
 21
161.9644009794681
 31
0.0
  0
LINE
  5
15C
330
1F
100
AcDbEntity
  8
Make2D$___$___
100
AcDbLine
 10
355.0158428541838
 20
161.9644009794684
 30
0.0
 11
355.0158428541838
 21
173.0591450911473
 31
0.0
  0
LINE
  5
15D
330
1F
100
AcDbEntity
  8
Make2D$___$___
100
AcDbLine
 10
356.062374448456
 20
173.0591450911476
 30
0.0
 11
355.0158428541838
 21
173.0591450911473
 31
0.0
  0
ARC
  5
15E
330
1F
100
AcDbEntity
  8
Make2D$___$___
100
AcDbCircle
 10
348.6242454176644
 20
152.2451783047351
 30
0.0
 40
21.77323428378042
100
AcDbArc
 50
72.92921303474476
 51
87.98214164014136
  0
ARC
  5
15F
330
1F
100
AcDbEntity
  8
Make2D$___$___
100
AcDbCircle
 10
349.1573578401391
 20
152.2116718267395
 30
0.0
 40
21.80727692569727
100
AcDbArc
 50
92.13176962527365
 51
107.0621598682739
  0
ARC
  5
160
330
1F
100
AcDbEntity
  8
Make2D$___$___
100
AcDbCircle
 10
349.0757010211703
 20
182.4125371802556
 30
0.0
 40
21.40159276515824
100
AcDbArc
 50
252.8331458798472
 51
269.4958105611089
  0
ARC
  5
161
330
1F
100
AcDbEntity
  8
Make2D$___$___
100
AcDbCircle
 10
334.3485427090972
 20
182.4157870301407
 30
0.0
 40
21.40484693981229
100
AcDbArc
 50
270.5054650507752
 51
287.1655785082679
  0
LINE
  5
162
330
1F
100
AcDbEntity
  8
Make2D$___$___
100
AcDbLine
 10
348.383753368924
 20
161.0117730353078
 30
0.0
 11
335.0415228358266
 21
161.0117730353078
 31
0.0
  0
ARC
  5
163
330
1F
100
AcDbEntity
  8
Make2D$___$___
100
AcDbCircle
 10
334.7257010211347
 20
182.4125371800046
 30
0.0
 40
21.40159276490691
100
AcDbArc
 50
252.8331458797422
 51
269.4958105612017
  0
LINE
  5
164
330
1F
100
AcDbEntity
  8
Make2D$___$___
100
AcDbLine
 10
334.0337533651338
 20
161.0117730353078
 30
0.0
 11
327.3694385868685
 21
161.0117730353074
 31
0.0
  0
LINE
  5
165
330
1F
100
AcDbEntity
  8
Make2D$___$___
100
AcDbLine
 10
327.3623744484548
 20
161.0117730353074
 30
0.0
 11
327.3623744484547
 21
161.9644009794681
 31
0.0
  0
LINE
  5
166
330
1F
100
AcDbEntity
  8
Make2D$___$___
100
AcDbLine
 10
328.4089060427272
 20
161.9644009794684
 30
0.0
 11
327.3623744484547
 21
161.9644009794681
 31
0.0
  0
LINE
  5
167
330
1F
100
AcDbEntity
  8
Make2D$___$___
100
AcDbLine
 10
328.4089060427272
 20
173.0591450911473
 30
0.0
 11
328.4089060427272
 21
161.9644009794684
 31
0.0
  0
LINE
  5
168
330
1F
100
AcDbEntity
  8
Make2D$___$___
100
AcDbLine
 10
327.3623744484547
 20
161.9644009794681
 30
0.0
 11
327.3623744484547
 21
173.0591450911476
 31
0.0
  0
LINE
  5
169
330
1F
100
AcDbEntity
  8
Make2D$___$___
100
AcDbLine
 10
328.4089060427272
 20
173.0591450911473
 30
0.0
 11
327.3623744484547
 21
173.0591450911476
 31
0.0
  0
ARC
  5
16A
330
1F
100
AcDbEntity
  8
Make2D$___$___
100
AcDbCircle
 10
334.2679885382611
 20
152.2152475297335
 30
0.0
 40
21.80368329889527
100
AcDbArc
 50
72.93658414978665
 51
87.866521360369
  0
ARC
  5
16B
330
1F
100
AcDbEntity
  8
Make2D$___$___
100
AcDbCircle
 10
334.8013451038648
 20
152.240417246163
 30
0.0
 40
21.77803265297121
100
AcDbArc
 50
92.02101607386231
 51
107.0692266380159
  0
LINE
  5
16C
330
1F
100
AcDbEntity
  8
Make2D$___$___
100
AcDbLine
 10
327.3623744484547
 20
173.0591450911476
 30
0.0
 11
327.3623744484548
 21
174.0117730353082
 31
0.0
  0
LINE
  5
16D
330
1F
100
AcDbEntity
  8
Make2D$___$___
100
AcDbLine
 10
418.7931991459837
 20
102.7617730353078
 30
0.0
 11
418.9384468725694
 21
102.7617730353078
 31
0.0
  0
LINE
  5
16E
330
1F
100
AcDbEntity
  8
Make2D$___$___
100
AcDbLine
 10
419.3068697199142
 20
102.7617730353078
 30
0.0
 11
419.3923584360461
 21
102.7617730353078
 31
0.0
  0
LINE
  5
16F
330
1F
100
AcDbEntity
  8
Make2D$___$___
100
AcDbLine
 10
425.7293572129645
 20
102.7617730353078
 30
0.0
 11
425.7834427027582
 21
102.7617730353078
 31
0.0
  0
LINE
  5
170
330
1F
100
AcDbEntity
  8
Make2D$___$___
100
AcDbLine
 10
426.2248097593647
 20
102.7617730353079
 30
0.0
 11
426.6616392792502
 21
102.7617730353078
 31
0.0
  0
LINE
  5
171
330
1F
100
AcDbEntity
  8
Make2D$___$___
100
AcDbLine
 10
426.7812768454702
 20
102.7617730353078
 30
0.0
 11
427.093450691931
 21
102.7617730353078
 31
0.0
  0
LINE
  5
172
330
1F
100
AcDbEntity
  8
Make2D$___$___
100
AcDbLine
 10
427.3013515779593
 20
102.7617730353078
 30
0.0
 11
427.5197670819277
 21
102.7617730353078
 31
0.0
  0
LINE
  5
173
330
1F
100
AcDbEntity
  8
Make2D$___$___
100
AcDbLine
 10
427.8167643565271
 20
102.7617730353078
 30
0.0
 11
427.9401167878896
 21
102.7617730353078
 31
0.0
  0
LINE
  5
174
330
1F
100
AcDbEntity
  8
Make2D$___$___
100
AcDbLine
 10
428.3269613698204
 20
102.7617730353078
 30
0.0
 11
428.3540350566578
 21
102.7617730353078
 31
0.0
  0
LINE
  5
175
330
1F
100
AcDbEntity
  8
Make2D$___$___
100
AcDbLine
 10
428.8313910607005
 20
102.7617730353078
 30
0.0
 11
429.160762472295
 21
102.7617730353078
 31
0.0
  0
LINE
  5
176
330
1F
100
AcDbEntity
  8
Make2D$___$___
100
AcDbLine
 10
429.3295059647442
 20
102.7617730353078
 30
0.0
 11
429.552691178225
 21
102.7617730353078
 31
0.0
  0
LINE
  5
177
330
1F
100
AcDbEntity
  8
Make2D$___$___
100
AcDbLine
 10
429.8207645647461
 20
102.7617730353078
 30
0.0
 11
429.9364307216073
 21
102.7617730353078
 31
0.0
  0
LINE
  5
178
330
1F
100
AcDbEntity
  8
Make2D$___$___
100
AcDbLine
 10
430.3046331488064
 20
102.7617730353078
 30
0.0
 11
430.6777333322416
 21
102.7617730353078
 31
0.0
  0
LINE
  5
179
330
1F
100
AcDbEntity
  8
Make2D$___$___
100
AcDbLine
 10
430.7805876592577
 20
102.7617730353078
 30
0.0
 11
431.034533869515
 21
102.7617730353078
 31
0.0
  0
LINE
  5
17A
330
1F
100
AcDbEntity
  8
Make2D$___$___
100
AcDbLine
 10
431.2481155195007
 20
102.7617730353078
 30
0.0
 11
431.3816224181129
 21
102.7617730353078
 31
0.0
  0
LINE
  5
17B
330
1F
100
AcDbEntity
  8
Make2D$___$___
100
AcDbLine
 10
431.7067173168218
 20
102.7617730353078
 30
0.0
 11
432.0453499030596
 21
102.7617730353078
 31
0.0
  0
LINE
  5
17C
330
1F
100
AcDbEntity
  8
Make2D$___$___
100
AcDbLine
 10
432.1559089844262
 20
102.7617730353078
 30
0.0
 11
432.361385358945
 21
102.7617730353078
 31
0.0
  0
LINE
  5
17D
330
1F
100
AcDbEntity
  8
Make2D$___$___
100
AcDbLine
 10
432.5952228243302
 20
102.7617730353078
 30
0.0
 11
432.6665036488486
 21
102.7617730353078
 31
0.0
  0
LINE
  5
17E
330
1F
100
AcDbEntity
  8
Make2D$___$___
100
AcDbLine
 10
433.0242095378584
 20
102.7617730353078
 30
0.0
 11
433.2430357839365
 21
102.7617730353078
 31
0.0
  0
LINE
  5
17F
330
1F
100
AcDbEntity
  8
Make2D$___$___
100
AcDbLine
 10
433.4424396982094
 20
102.7617730353078
 30
0.0
 11
433.7732838449683
 21
102.7617730353078
 31
0.0
  0
LINE
  5
180
330
1F
100
AcDbEntity
  8
Make2D$___$___
100
AcDbLine
 10
433.8495051416331
 20
102.7617730353078
 30
0.0
 11
434.020640503521
 21
102.7617730353078
 31
0.0
  0
LINE
  5
181
330
1F
100
AcDbEntity
  8
Make2D$___$___
100
AcDbLine
 10
434.245020293977
 20
102.7617730353078
 30
0.0
 11
434.47921801491
 21
102.7617730353078
 31
0.0
  0
LINE
  5
182
330
1F
100
AcDbEntity
  8
Make2D$___$___
100
AcDbLine
 10
434.6286233874678
 20
102.7617730353078
 30
0.0
 11
434.6902738677935
 21
102.7617730353078
 31
0.0
  0
LINE
  5
183
330
1F
100
AcDbEntity
  8
Make2D$___$___
100
AcDbLine
 10
435.0756933699141
 20
102.7617730353078
 30
0.0
 11
435.8258692977171
 21
102.7617730353078
 31
0.0
  0
LINE
  5
184
330
1F
100
AcDbEntity
  8
Make2D$___$___
100
AcDbLine
 10
436.0012617012125
 20
102.7617730353078
 30
0.0
 11
436.4623744708806
 21
102.7617730353078
 31
0.0
  0
LINE
  5
185
330
1F
100
AcDbEntity
  8
Make2D$___$___
100
AcDbLine
 10
436.6630767920628
 20
102.7617730353078
 30
0.0
 11
437.1955936961736
 21
102.7617730353078
 31
0.0
  0
LINE
  5
186
330
1F
100
AcDbEntity
  8
Make2D$___$___
100
AcDbLine
 10
437.2337995673639
 20
102.7617730353078
 30
0.0
 11
437.4568784363918
 21
102.7617730353078
 31
0.0
  0
LINE
  5
187
330
1F
100
AcDbEntity
  8
Make2D$___$___
100
AcDbLine
 10
437.4982765066038
 20
102.7617730353078
 30
0.0
 11
437.7047652414681
 21
102.7617730353078
 31
0.0
  0
LINE
  5
188
330
1F
100
AcDbEntity
  8
Make2D$___$___
100
AcDbLine
 10
437.7487061214514
 20
102.7617730353078
 30
0.0
 11
437.9391806013373
 21
102.7617730353078
 31
0.0
  0
LINE
  5
189
330
1F
100
AcDbEntity
  8
Make2D$___$___
100
AcDbLine
 10
437.9850303321698
 20
102.7617730353078
 30
0.0
 11
438.1600766873979
 21
102.7617730353078
 31
0.0
  0
LINE
  5
18A
330
1F
100
AcDbEntity
  8
Make2D$___$___
100
AcDbLine
 10
438.207218979205
 20
102.7617730353078
 30
0.0
 11
438.3674309734886
 21
102.7617730353079
 31
0.0
  0
LINE
  5
18B
330
1F
100
AcDbEntity
  8
Make2D$___$___
100
AcDbLine
 10
438.4152691470758
 20
102.7617730353079
 30
0.0
 11
438.5612457523936
 21
102.7617730353079
 31
0.0
  0
LINE
  5
18C
330
1F
100
AcDbEntity
  8
Make2D$___$___
100
AcDbLine
 10
438.6092045347268
 20
102.7617730353078
 30
0.0
 11
438.7415475540819
 21
102.7617730353078
 31
0.0
  0
LINE
  5
18D
330
1F
100
AcDbEntity
  8
Make2D$___$___
100
AcDbLine
 10
438.789074698372
 20
102.7617730353078
 30
0.0
 11
438.9083864724807
 21
102.7617730353079
 31
0.0
  0
LINE
  5
18E
330
1F
100
AcDbEntity
  8
Make2D$___$___
100
AcDbLine
 10
438.9549541982387
 20
102.7617730353079
 30
0.0
 11
439.061835408084
 21
102.7617730353079
 31
0.0
  0
LINE
  5
18F
330
1F
100
AcDbEntity
  8
Make2D$___$___
100
AcDbLine
 10
439.1069416583415
 20
102.7617730353079
 30
0.0
 11
439.201989234095
 21
102.7617730353079
 31
0.0
  0
LINE
  5
190
330
1F
100
AcDbEntity
  8
Make2D$___$___
100
AcDbLine
 10
439.2382923077721
 20
102.7617730353079
 30
0.0
 11
439.3289638941093
 21
102.7617730353079
 31
0.0
  0
LINE
  5
191
330
1F
100
AcDbEntity
  8
Make2D$___$___
100
AcDbLine
 10
439.3643478517136
 20
102.7617730353079
 30
0.0
 11
439.4428954395372
 21
102.7617730353079
 31
0.0
  0
LINE
  5
192
330
1F
100
AcDbEntity
  8
Make2D$___$___
100
AcDbLine
 10
439.4767908850759
 20
102.7617730353078
 30
0.0
 11
439.5439390150866
 21
102.7617730353079
 31
0.0
  0
LINE
  5
193
330
1F
100
AcDbEntity
  8
Make2D$___$___
100
AcDbLine
 10
439.5757965412727
 20
102.7617730353079
 30
0.0
 11
439.6615592402492
 21
102.7617730353079
 31
0.0
  0
LINE
  5
194
330
1F
100
AcDbEntity
  8
Make2D$___$___
100
AcDbLine
 10
439.7080719177116
 20
102.7617730353079
 30
0.0
 11
439.7342914391133
 21
102.7617730353079
 31
0.0
  0
LINE
  5
195
330
1F
100
AcDbEntity
  8
Make2D$___$___
100
AcDbLine
 10
439.7715573088307
 20
102.7617730353079
 30
0.0
 11
439.7942223555832
 21
102.7617730353079
 31
0.0
  0
LINE
  5
196
330
1F
100
AcDbEntity
  8
Make2D$___$___
100
AcDbLine
 10
439.8229445973445
 20
102.7617730353079
 30
0.0
 11
439.8415966843056
 21
102.7617730353079
 31
0.0
  0
LINE
  5
197
330
1F
100
AcDbEntity
  8
Make2D$___$___
100
AcDbLine
 10
439.8624679356378
 20
102.7617730353079
 30
0.0
 11
439.87667326837
 21
102.7617730353079
 31
0.0
  0
LINE
  5
198
330
1F
100
AcDbEntity
  8
Make2D$___$___
100
AcDbLine
 10
439.8903738487903
 20
102.7617730353079
 30
0.0
 11
439.9110316450564
 21
102.7617730353079
 31
0.0
  0
ARC
  5
199
330
1F
100
AcDbEntity
  8
Make2D$___$___
100
AcDbCircle
 10
439.9123757691565
 20
103.0617717146067
 30
0.0
 40
0.2999986793017309
100
AcDbArc
 50
269.9997477635427
 51
0.0002522364518103
  0
ARC
  5
19A
330
1F
100
AcDbEntity
  8
Make2D$___$___
100
AcDbCircle
 10
393.5123731277542
 20
103.0617717146067
 30
0.0
 40
0.2999986793017593
100
AcDbArc
 50
179.9997477635482
 51
270.0002522364464
  0
LINE
  5
19B
330
1F
100
AcDbEntity
  8
Make2D$___$___
100
AcDbLine
 10
393.5137172519201
 20
102.7617730353078
 30
0.0
 11
393.5183108819315
 21
102.7617730353078
 31
0.0
  0
LINE
  5
19C
330
1F
100
AcDbEntity
  8
Make2D$___$___
100
AcDbLine
 10
393.5331189391339
 20
102.7617730353078
 30
0.0
 11
393.534375048314
 21
102.7617730353078
 31
0.0
  0
LINE
  5
19D
330
1F
100
AcDbEntity
  8
Make2D$___$___
100
AcDbLine
 10
393.5480756260767
 20
102.7617730353078
 30
0.0
 11
394.4697946986842
 21
102.7617730353078
 31
0.0
  0
LINE
  5
19E
330
1F
100
AcDbEntity
  8
Make2D$___$___
100
AcDbLine
 10
394.5163624186307
 20
102.7617730353078
 30
0.0
 11
394.6356741985467
 21
102.7617730353078
 31
0.0
  0
LINE
  5
19F
330
1F
100
AcDbEntity
  8
Make2D$___$___
100
AcDbLine
 10
394.6832013364053
 20
102.7617730353078
 30
0.0
 11
394.8155443621891
 21
102.7617730353078
 31
0.0
  0
LINE
  5
1A0
330
1F
100
AcDbEntity
  8
Make2D$___$___
100
AcDbLine
 10
394.8635031373308
 20
102.7617730353078
 30
0.0
 11
395.0094797498385
 21
102.7617730353078
 31
0.0
  0
LINE
  5
1A1
330
1F
100
AcDbEntity
  8
Make2D$___$___
100
AcDbLine
 10
395.0573179153337
 20
102.7617730353078
 30
0.0
 11
395.217529917708
 21
102.7617730353078
 31
0.0
  0
LINE
  5
1A2
330
1F
100
AcDbEntity
  8
Make2D$___$___
100
AcDbLine
 10
395.2646722003835
 20
102.7617730353078
 30
0.0
 11
395.4397185647425
 21
102.7617730353078
 31
0.0
  0
LINE
  5
1A3
330
1F
100
AcDbEntity
  8
Make2D$___$___
100
AcDbLine
 10
395.4855682852667
 20
102.7617730353078
 30
0.0
 11
395.6760427754602
 21
102.7617730353078
 31
0.0
  0
LINE
  5
1A4
330
1F
100
AcDbEntity
  8
Make2D$___$___
100
AcDbLine
 10
395.719983643828
 20
102.7617730353078
 30
0.0
 11
395.926472367557
 21
102.7617730353078
 31
0.0
  0
LINE
  5
1A5
330
1F
100
AcDbEntity
  8
Make2D$___$___
100
AcDbLine
 10
395.9678704474763
 20
102.7617730353078
 30
0.0
 11
396.1909493523445
 21
102.7617730353078
 31
0.0
  0
LINE
  5
1A6
330
1F
100
AcDbEntity
  8
Make2D$___$___
100
AcDbLine
 10
396.2291551861612
 20
102.7617730353078
 30
0.0
 11
396.4693875153893
 21
102.7617730353078
 31
0.0
  0
LINE
  5
1A7
330
1F
100
AcDbEntity
  8
Make2D$___$___
100
AcDbLine
 10
396.4989252156328
 20
102.7617730353078
 30
0.0
 11
396.761672123898
 21
102.7617730353078
 31
0.0
  0
LINE
  5
1A8
330
1F
100
AcDbEntity
  8
Make2D$___$___
100
AcDbLine
 10
396.7935015833959
 20
102.7617730353079
 30
0.0
 11
396.8332987843854
 21
102.7617730353078
 31
0.0
  0
LINE
  5
1A9
330
1F
100
AcDbEntity
  8
Make2D$___$___
100
AcDbLine
 10
397.4234871828226
 20
102.7617730353078
 30
0.0
 11
397.598879599195
 21
102.7617730353079
 31
0.0
  0
LINE
  5
1AA
330
1F
100
AcDbEntity
  8
Make2D$___$___
100
AcDbLine
 10
397.7584910301251
 20
102.7617730353078
 30
0.0
 11
397.8626141619296
 21
102.7617730353078
 31
0.0
  0
LINE
  5
1AB
330
1F
100
AcDbEntity
  8
Make2D$___$___
100
AcDbLine
 10
398.1065181571165
 20
102.7617730353078
 30
0.0
 11
398.3490555024709
 21
102.7617730353078
 31
0.0
  0
LINE
  5
1AC
330
1F
100
AcDbEntity
  8
Make2D$___$___
100
AcDbLine
 10
398.4672958450808
 20
102.7617730353078
 30
0.0
 11
398.7344750402579
 21
102.7617730353078
 31
0.0
  0
LINE
  5
1AD
330
1F
100
AcDbEntity
  8
Make2D$___$___
100
AcDbLine
 10
398.8405243817893
 20
102.7617730353078
 30
0.0
 11
398.9455308820011
 21
102.7617730353078
 31
0.0
  0
LINE
  5
1AE
330
1F
100
AcDbEntity
  8
Make2D$___$___
100
AcDbLine
 10
399.2258778553315
 20
102.7617730353078
 30
0.0
 11
399.4041083742546
 21
102.7617730353078
 31
0.0
  0
LINE
  5
1AF
330
1F
100
AcDbEntity
  8
Make2D$___$___
100
AcDbLine
 10
399.623005077541
 20
102.7617730353078
 30
0.0
 11
399.9107151623643
 21
102.7617730353078
 31
0.0
  0
LINE
  5
1B0
330
1F
100
AcDbEntity
  8
Make2D$___$___
100
AcDbLine
 10
400.0315306379268
 20
102.7617730353078
 30
0.0
 11
400.181713101886
 21
102.7617730353079
 31
0.0
  0
LINE
  5
1B1
330
1F
100
AcDbEntity
  8
Make2D$___$___
100
AcDbLine
 10
400.8811611555319
 20
102.7617730353078
 30
0.0
 11
402.1467687058
 21
102.7617730353078
 31
0.0
  0
LINE
  5
1B2
330
1F
100
AcDbEntity
  8
Make2D$___$___
100
AcDbLine
 10
402.176633421647
 20
102.7617730353078
 30
0.0
 11
402.3902150730168
 21
102.7617730353078
 31
0.0
  0
LINE
  5
1B3
330
1F
100
AcDbEntity
  8
Make2D$___$___
100
AcDbLine
 10
404.1396097350459
 20
102.7617730353078
 30
0.0
 11
404.2639864176012
 21
102.7617730353078
 31
0.0
  0
LINE
  5
1B4
330
1F
100
AcDbEntity
  8
Make2D$___$___
100
AcDbLine
 10
404.6351946466712
 20
102.7617730353078
 30
0.0
 11
405.0707138499394
 21
102.7617730353078
 31
0.0
  0
LINE
  5
1B5
330
1F
100
AcDbEntity
  8
Make2D$___$___
100
AcDbLine
 10
405.1370804322386
 20
102.7617730353078
 30
0.0
 11
405.4846321065446
 21
102.7617730353078
 31
0.0
  0
LINE
  5
1B6
330
1F
100
AcDbEntity
  8
Make2D$___$___
100
AcDbLine
 10
405.6447329055151
 20
102.7617730353078
 30
0.0
 11
405.9049818115191
 21
102.7617730353078
 31
0.0
  0
LINE
  5
1B7
330
1F
100
AcDbEntity
  8
Make2D$___$___
100
AcDbLine
 10
406.1576133244749
 20
102.7617730353078
 30
0.0
 11
406.3312982023162
 21
102.7617730353078
 31
0.0
  0
LINE
  5
1B8
330
1F
100
AcDbEntity
  8
Make2D$___$___
100
AcDbLine
 10
406.6751801684703
 20
102.7617730353079
 30
0.0
 11
406.7631096057578
 21
102.7617730353079
 31
0.0
  0
LINE
  5
1B9
330
1F
100
AcDbEntity
  8
Make2D$___$___
100
AcDbLine
 10
407.7222036531809
 20
102.7617730353078
 30
0.0
 11
408.0867284035456
 21
102.7617730353078
 31
0.0
  0
LINE
  5
1BA
330
1F
100
AcDbEntity
  8
Make2D$___$___
100
AcDbLine
 10
408.2505789790926
 20
102.7617730353078
 30
0.0
 11
408.5357227573224
 21
102.7617730353078
 31
0.0
  0
LINE
  5
1BB
330
1F
100
AcDbEntity
  8
Make2D$___$___
100
AcDbLine
 10
408.781481403932
 20
102.7617730353079
 30
0.0
 11
408.9878075976231
 21
102.7617730353078
 31
0.0
  0
LINE
  5
1BC
330
1F
100
AcDbEntity
  8
Make2D$___$___
100
AcDbLine
 10
409.3143810253806
 20
102.7617730353078
 30
0.0
 11
409.4425039343997
 21
102.7617730353078
 31
0.0
  0
LINE
  5
1BD
330
1F
100
AcDbEntity
  8
Make2D$___$___
100
AcDbLine
 10
409.848754998494
 20
102.7617730353079
 30
0.0
 11
409.8993369212468
 21
102.7617730353079
 31
0.0
  0
LINE
  5
1BE
330
1F
100
AcDbEntity
  8
Make2D$___$___
100
AcDbLine
 10
410.3840889508028
 20
102.7617730353078
 30
0.0
 11
410.8175430563129
 21
102.7617730353078
 31
0.0
  0
LINE
  5
1BF
330
1F
100
AcDbEntity
  8
Make2D$___$___
100
AcDbLine
 10
410.9198783137023
 20
102.7617730353078
 30
0.0
 11
411.2779997145529
 21
102.7617730353078
 31
0.0
  0
LINE
  5
1C0
330
1F
100
AcDbEntity
  8
Make2D$___$___
100
AcDbLine
 10
411.4556295648674
 20
102.7617730353078
 30
0.0
 11
411.7387626674205
 21
102.7617730353078
 31
0.0
  0
LINE
  5
1C1
330
1F
100
AcDbEntity
  8
Make2D$___$___
100
AcDbLine
 10
411.9908613774176
 20
102.7617730353078
 30
0.0
 11
412.1993974516338
 21
102.7617730353078
 31
0.0
  0
LINE
  5
1C2
330
1F
100
AcDbEntity
  8
Make2D$___$___
100
AcDbLine
 10
412.5251056725245
 20
102.7617730353079
 30
0.0
 11
412.5335331873383
 21
102.7617730353078
 31
0.0
  0
LINE
  5
1C3
330
1F
100
AcDbEntity
  8
Make2D$___$___
100
AcDbLine
 10
413.5921738740487
 20
102.7617730353078
 30
0.0
 11
416.7123744484554
 21
102.7617730353078
 31
0.0
  0
ARC
  5
1C4
330
1F
100
AcDbEntity
  8
Make2D$___$___
100
AcDbCircle
 10
340.7124248363222
 20
156.8108226688553
 30
0.0
 40
12.00002218957238
100
AcDbArc
 50
180.0003295760103
 51
261.9997016316527
  0
LINE
  5
1C5
330
1F
100
AcDbEntity
  8
Make2D$___$___
100
AcDbLine
 10
328.7123744484554
 20
160.0117730353078
 30
0.0
 11
328.7123744484554
 21
156.8107536676637
 31
0.0
  0
ARC
  5
1C6
330
1F
100
AcDbEntity
  8
Make2D$___$___
100
AcDbCircle
 10
385.212373754344
 20
130.3601891931849
 30
0.0
 40
7.999999439069231
100
AcDbArc
 50
359.9995171014824
 51
79.44362767881368
  0
LINE
  5
1C7
330
1F
100
AcDbEntity
  8
Make2D$___$___
100
AcDbLine
 10
329.8678052143792
 20
160.5117730353084
 30
0.0
 11
330.3247996478757
 21
160.5117730353083
 31
0.0
  0
ARC
  5
1C8
330
1F
100
AcDbEntity
  8
Make2D$___$___
100
AcDbCircle
 10
329.2125393030162
 20
160.0116081807469
 30
0.0
 40
0.5001648817289326
100
AcDbArc
 50
90.01888471391085
 51
179.9811152859947
  0
ARC
  5
1C9
330
1F
100
AcDbEntity
  8
Make2D$___$___
100
AcDbCircle
 10
492.7123222193076
 20
156.8108162493606
 30
0.0
 40
12.00001608881711
100
AcDbArc
 50
278.0003065946369
 51
359.9997308140664
  0
LINE
  5
1CA
330
1F
100
AcDbEntity
  8
Make2D$___$___
100
AcDbLine
 10
504.7123744484554
 20
160.0117730353078
 30
0.0
 11
504.7123744484554
 21
156.8107599535186
 31
0.0
  0
LINE
  5
1CB
330
1F
100
AcDbEntity
  8
Make2D$___$___
100
AcDbLine
 10
504.1952436328849
 20
160.5117730353079
 30
0.0
 11
504.2123744484531
 21
160.5117730353079
 31
0.0
  0
ARC
  5
1CC
330
1F
100
AcDbEntity
  8
Make2D$___$___
100
AcDbCircle
 10
504.2125021185275
 20
160.0119007053799
 30
0.0
 40
0.4998723462317213
100
AcDbArc
 50
359.9853663511584
 51
90.01463364908594
  0
ARC
  5
1CD
330
1F
100
AcDbEntity
  8
Make2D$___$___
100
AcDbCircle
 10
448.2123642703232
 20
130.3601892258143
 30
0.0
 40
7.999998144426253
100
AcDbArc
 50
100.5564256029447
 51
180.0003597407977
  0
LINE
  5
1CE
330
1F
100
AcDbEntity
  8
Make2D$___$___
100
AcDbLine
 10
393.2123744484554
 20
103.0617730353079
 30
0.0
 11
393.2123744484553
 21
130.360121760972
 31
0.0
  0
LINE
  5
1CF
330
1F
100
AcDbEntity
  8
Make2D$___$___
100
AcDbLine
 10
440.2123744484554
 20
103.0617730353079
 30
0.0
 11
440.2123744484554
 21
130.3601389920355
 31
0.0
  0
LINE
  5
1D0
330
1F
100
AcDbEntity
  8
Make2D$___$___
100
AcDbLine
 10
399.5691866209554
 20
160.5117730353078
 30
0.0
 11
400.2879236630468
 21
160.5117730353078
 31
0.0
  0
LINE
  5
1D1
330
1F
100
AcDbEntity
  8
Make2D$___$___
100
AcDbLine
 10
400.3630139780174
 20
160.5117730353078
 30
0.0
 11
400.5832293399768
 21
160.5117730353078
 31
0.0
  0
LINE
  5
1D2
330
1F
100
AcDbEntity
  8
Make2D$___$___
100
AcDbLine
 10
400.7961722182881
 20
160.5117730353078
 30
0.0
 11
401.0827820961509
 21
160.5117730353078
 31
0.0
  0
LINE
  5
1D3
330
1F
100
AcDbEntity
  8
Make2D$___$___
100
AcDbLine
 10
401.330226140454
 20
160.5117730353078
 30
0.0
 11
401.3641123294693
 21
160.5117730353078
 31
0.0
  0
LINE
  5
1D4
330
1F
100
AcDbEntity
  8
Make2D$___$___
100
AcDbLine
 10
402.2006137489145
 20
160.5117730353079
 30
0.0
 11
402.4261617720722
 21
160.5117730353079
 31
0.0
  0
LINE
  5
1D5
330
1F
100
AcDbEntity
  8
Make2D$___$___
100
AcDbLine
 10
402.6735143296026
 20
160.5117730353078
 30
0.0
 11
402.7667122563362
 21
160.5117730353079
 31
0.0
  0
LINE
  5
1D6
330
1F
100
AcDbEntity
  8
Make2D$___$___
100
AcDbLine
 10
403.0826767932028
 20
160.5117730353078
 30
0.0
 11
403.4392127478109
 21
160.5117730353079
 31
0.0
  0
LINE
  5
1D7
330
1F
100
AcDbEntity
  8
Make2D$___$___
100
AcDbLine
 10
403.7710717185326
 20
160.5117730353078
 30
0.0
 11
403.9190471280314
 21
160.5117730353078
 31
0.0
  0
LINE
  5
1D8
330
1F
100
AcDbEntity
  8
Make2D$___$___
100
AcDbLine
 10
404.2325790261404
 20
160.5117730353079
 30
0.0
 11
404.3455713935297
 21
160.5117730353078
 31
0.0
  0
LINE
  5
1D9
330
1F
100
AcDbEntity
  8
Make2D$___$___
100
AcDbLine
 10
404.6391324978217
 20
160.5117730353078
 30
0.0
 11
404.8071317318986
 21
160.5117730353078
 31
0.0
  0
LINE
  5
1DA
330
1F
100
AcDbEntity
  8
Make2D$___$___
100
AcDbLine
 10
405.213547724461
 20
160.5117730353078
 30
0.0
 11
405.4708733564055
 21
160.5117730353079
 31
0.0
  0
LINE
  5
1DB
330
1F
100
AcDbEntity
  8
Make2D$___$___
100
AcDbLine
 10
405.65428700555
 20
160.5117730353078
 30
0.0
 11
405.8955865243601
 21
160.5117730353078
 31
0.0
  0
LINE
  5
1DC
330
1F
100
AcDbEntity
  8
Make2D$___$___
100
AcDbLine
 10
406.3258621157359
 20
160.5117730353078
 30
0.0
 11
406.547465347785
 21
160.5117730353078
 31
0.0
  0
LINE
  5
1DD
330
1F
100
AcDbEntity
  8
Make2D$___$___
100
AcDbLine
 10
406.7614388700508
 20
160.5117730353078
 30
0.0
 11
406.9991790301484
 21
160.5117730353078
 31
0.0
  0
LINE
  5
1DE
330
1F
100
AcDbEntity
  8
Make2D$___$___
100
AcDbLine
 10
407.453825061567
 20
160.5117730353078
 30
0.0
 11
407.6474074876059
 21
160.5117730353078
 31
0.0
  0
LINE
  5
1DF
330
1F
100
AcDbEntity
  8
Make2D$___$___
100
AcDbLine
 10
407.9110417526656
 20
160.5117730353079
 30
0.0
 11
408.0972351330532
 21
160.5117730353079
 31
0.0
  0
LINE
  5
1E0
330
1F
100
AcDbEntity
  8
Make2D$___$___
100
AcDbLine
 10
408.3704689207785
 20
160.5117730353078
 30
0.0
 11
408.82434906259
 21
160.5117730353078
 31
0.0
  0
LINE
  5
1E1
330
1F
100
AcDbEntity
  8
Make2D$___$___
100
AcDbLine
 10
409.0091127417878
 20
160.5117730353078
 30
0.0
 11
409.2945291814297
 21
160.5117730353078
 31
0.0
  0
LINE
  5
1E2
330
1F
100
AcDbEntity
  8
Make2D$___$___
100
AcDbLine
 10
409.4705580816898
 20
160.5117730353078
 30
0.0
 11
409.7584589015322
 21
160.5117730353078
 31
0.0
  0
LINE
  5
1E3
330
1F
100
AcDbEntity
  8
Make2D$___$___
100
AcDbLine
 10
410.223193986925
 20
160.5117730353078
 30
0.0
 11
410.4029110422212
 21
160.5117730353078
 31
0.0
  0
LINE
  5
1E4
330
1F
100
AcDbEntity
  8
Make2D$___$___
100
AcDbLine
 10
410.6883954807187
 20
160.5117730353078
 30
0.0
 11
410.873185633803
 21
160.5117730353078
 31
0.0
  0
LINE
  5
1E5
330
1F
100
AcDbEntity
  8
Make2D$___$___
100
AcDbLine
 10
411.3457648397169
 20
160.5117730353079
 30
0.0
 11
411.6188743898535
 21
160.5117730353079
 31
0.0
  0
LINE
  5
1E6
330
1F
100
AcDbEntity
  8
Make2D$___$___
100
AcDbLine
 10
411.8203250036503
 20
160.5117730353079
 30
0.0
 11
412.0835079038335
 21
160.5117730353079
 31
0.0
  0
LINE
  5
1E7
330
1F
100
AcDbEntity
  8
Make2D$___$___
100
AcDbLine
 10
412.2965411627771
 20
160.5117730353078
 30
0.0
 11
412.7740873810798
 21
160.5117730353079
 31
0.0
  0
LINE
  5
1E8
330
1F
100
AcDbEntity
  8
Make2D$___$___
100
AcDbLine
 10
413.0100126698168
 20
160.5117730353078
 30
0.0
 11
413.2526377917373
 21
160.5117730353078
 31
0.0
  0
LINE
  5
1E9
330
1F
100
AcDbEntity
  8
Make2D$___$___
100
AcDbLine
 10
413.4712894675982
 20
160.5117730353078
 30
0.0
 11
413.93086807522
 21
160.5117730353079
 31
0.0
  0
LINE
  5
1EA
330
1F
100
AcDbEntity
  8
Make2D$___$___
100
AcDbLine
 10
414.024246380581
 20
160.5117730353078
 30
0.0
 11
414.388474598574
 21
160.5117730353078
 31
0.0
  0
LINE
  5
1EB
330
1F
100
AcDbEntity
  8
Make2D$___$___
100
AcDbLine
 10
414.6910699630434
 20
160.5117730353078
 30
0.0
 11
414.8438450569196
 21
160.5117730353078
 31
0.0
  0
LINE
  5
1EC
330
1F
100
AcDbEntity
  8
Make2D$___$___
100
AcDbLine
 10
415.1886006248499
 20
160.5117730353078
 30
0.0
 11
415.6491348740574
 21
160.5117730353078
 31
0.0
  0
LINE
  5
1ED
330
1F
100
AcDbEntity
  8
Make2D$___$___
100
AcDbLine
 10
415.7684856496888
 20
160.5117730353079
 30
0.0
 11
416.9450365048788
 21
160.5117730353079
 31
0.0
  0
LINE
  5
1EE
330
1F
100
AcDbEntity
  8
Make2D$___$___
100
AcDbLine
 10
417.0786384909354
 20
160.5117730353079
 30
0.0
 11
417.4993357801359
 21
160.5117730353078
 31
0.0
  0
LINE
  5
1EF
330
1F
100
AcDbEntity
  8
Make2D$___$___
100
AcDbLine
 10
417.9228955737053
 20
160.5117730353079
 30
0.0
 11
418.1514042221673
 21
160.5117730353079
 31
0.0
  0
LINE
  5
1F0
330
1F
100
AcDbEntity
  8
Make2D$___$___
100
AcDbLine
 10
418.3491287480742
 20
160.5117730353079
 30
0.0
 11
418.7576278203992
 21
160.5117730353079
 31
0.0
  0
LINE
  5
1F1
330
1F
100
AcDbEntity
  8
Make2D$___$___
100
AcDbLine
 10
418.896444455668
 20
160.5117730353078
 30
0.0
 11
419.2088149124847
 21
160.5117730353078
 31
0.0
  0
LINE
  5
1F2
330
1F
100
AcDbEntity
  8
Make2D$___$___
100
AcDbLine
 10
419.6418460464055
 20
160.5117730353078
 30
0.0
 11
419.807821369573
 21
160.5117730353078
 31
0.0
  0
LINE
  5
1F3
330
1F
100
AcDbEntity
  8
Make2D$___$___
100
AcDbLine
 10
420.0767071035858
 20
160.5117730353078
 30
0.0
 11
420.5131660901594
 21
160.5117730353078
 31
0.0
  0
LINE
  5
1F4
330
1F
100
AcDbEntity
  8
Make2D$___$___
100
AcDbLine
 10
420.7179261335069
 20
160.5117730353078
 30
0.0
 11
420.9509829555972
 21
160.5117730353078
 31
0.0
  0
LINE
  5
1F5
330
1F
100
AcDbEntity
  8
Make2D$___$___
100
AcDbLine
 10
421.3899096011615
 20
160.5117730353078
 30
0.0
 11
421.6245264526698
 21
160.5117730353078
 31
0.0
  0
LINE
  5
1F6
330
1F
100
AcDbEntity
  8
Make2D$___$___
100
AcDbLine
 10
421.8296907152817
 20
160.5117730353078
 30
0.0
 11
422.2700632385805
 21
160.5117730353078
 31
0.0
  0
LINE
  5
1F7
330
1F
100
AcDbEntity
  8
Make2D$___$___
100
AcDbLine
 10
422.5253780999693
 20
160.5117730353078
 30
0.0
 11
422.7107576364744
 21
160.5117730353079
 31
0.0
  0
LINE
  5
1F8
330
1F
100
AcDbEntity
  8
Make2D$___$___
100
AcDbLine
 10
423.1514974334789
 20
160.5117730353078
 30
0.0
 11
423.4182430454554
 21
160.5117730353079
 31
0.0
  0
LINE
  5
1F9
330
1F
100
AcDbEntity
  8
Make2D$___$___
100
AcDbLine
 10
423.5946489035549
 20
160.5117730353078
 30
0.0
 11
424.0319774869839
 21
160.5117730353078
 31
0.0
  0
LINE
  5
1FA
330
1F
100
AcDbEntity
  8
Make2D$___$___
100
AcDbLine
 10
424.3009075375338
 20
160.5117730353078
 30
0.0
 11
424.4711361046166
 21
160.5117730353078
 31
0.0
  0
LINE
  5
1FB
330
1F
100
AcDbEntity
  8
Make2D$___$___
100
AcDbLine
 10
424.9091776432707
 20
160.5117730353078
 30
0.0
 11
425.1712007736486
 21
160.5117730353079
 31
0.0
  0
LINE
  5
1FC
330
1F
100
AcDbEntity
  8
Make2D$___$___
100
AcDbLine
 10
425.3582258539026
 20
160.5117730353078
 30
0.0
 11
425.7806963050243
 21
160.5117730353078
 31
0.0
  0
LINE
  5
1FD
330
1F
100
AcDbEntity
  8
Make2D$___$___
100
AcDbLine
 10
426.0270122184303
 20
160.5117730353078
 30
0.0
 11
426.2135581709218
 21
160.5117730353078
 31
0.0
  0
LINE
  5
1FE
330
1F
100
AcDbEntity
  8
Make2D$___$___
100
AcDbLine
 10
426.6440737787688
 20
160.5117730353078
 30
0.0
 11
426.8663088150519
 21
160.5117730353078
 31
0.0
  0
LINE
  5
1FF
330
1F
100
AcDbEntity
  8
Make2D$___$___
100
AcDbLine
 10
427.6871510362463
 20
160.5117730353078
 30
0.0
 11
427.9184042591216
 21
160.5117730353078
 31
0.0
  0
LINE
  5
200
330
1F
100
AcDbEntity
  8
Make2D$___$___
100
AcDbLine
 10
428.3363931837198
 20
160.5117730353079
 30
0.0
 11
428.4877072951616
 21
160.5117730353079
 31
0.0
  0
LINE
  5
201
330
1F
100
AcDbEntity
  8
Make2D$___$___
100
AcDbLine
 10
428.8798388338672
 20
160.5117730353079
 30
0.0
 11
429.1603062158017
 21
160.5117730353078
 31
0.0
  0
LINE
  5
202
330
1F
100
AcDbEntity
  8
Make2D$___$___
100
AcDbLine
 10
429.2662677582153
 20
160.5117730353078
 30
0.0
 11
429.6468011337739
 21
160.5117730353078
 31
0.0
  0
LINE
  5
203
330
1F
100
AcDbEntity
  8
Make2D$___$___
100
AcDbLine
 10
429.9660651655848
 20
160.5117730353078
 30
0.0
 11
430.0212550738667
 21
160.5117730353078
 31
0.0
  0
LINE
  5
204
330
1F
100
AcDbEntity
  8
Make2D$___$___
100
AcDbLine
 10
431.5159699945584
 20
160.5117730353078
 30
0.0
 11
431.538057023631
 21
160.5117730353078
 31
0.0
  0
LINE
  5
205
330
1F
100
AcDbEntity
  8
Make2D$___$___
100
AcDbLine
 10
431.7851317374923
 20
160.5117730353078
 30
0.0
 11
432.0606365879038
 21
160.5117730353078
 31
0.0
  0
LINE
  5
206
330
1F
100
AcDbEntity
  8
Make2D$___$___
100
AcDbLine
 10
432.3419668069488
 20
160.5117730353078
 30
0.0
 11
432.5027914429307
 21
160.5117730353078
 31
0.0
  0
LINE
  5
207
330
1F
100
AcDbEntity
  8
Make2D$___$___
100
AcDbLine
 10
432.919895867574
 20
160.5117730353078
 30
0.0
 11
432.9668417861546
 21
160.5117730353078
 31
0.0
  0
LINE
  5
208
330
1F
100
AcDbEntity
  8
Make2D$___$___
100
AcDbLine
 10
433.2153332509944
 20
160.5117730353078
 30
0.0
 11
433.4179382462756
 21
160.5117730353078
 31
0.0
  0
ARC
  5
209
330
1F
100
AcDbEntity
  8
Make2D$___$___
100
AcDbCircle
 10
394.8487515115132
 20
75.51612826485396
 30
0.0
 40
1.637369428776632
100
AcDbArc
 50
181.9974533396305
 51
199.8977696417307
  0
ARC
  5
20A
330
1F
100
AcDbEntity
  8
Make2D$___$___
100
AcDbCircle
 10
386.3277401393152
 20
72.76657566914204
 30
0.0
 40
7.317508556810171
100
AcDbArc
 50
10.28790145625089
 51
17.4332332860298
  0
LINE
  5
20B
330
1F
100
AcDbEntity
  8
Make2D$___$___
100
AcDbLine
 10
398.0753206125968
 20
50.72709959111685
 30
0.0
 11
393.5276034409923
 21
74.07344211839859
 31
0.0
  0
LINE
  5
20C
330
1F
100
AcDbEntity
  8
Make2D$___$___
100
AcDbLine
 10
398.0674220750341
 20
50.8090680546531
 30
0.0
 11
393.5197049002911
 21
74.15541059804573
 31
0.0
  0
POLYLINE
  5
20D
330
1F
100
AcDbEntity
  8
Make2D$___$___
100
AcDb2dPolyline
 66
     1
 10
0.0
 20
0.0
 30
0.0
  0
VERTEX
  5
20E
330
20D
100
AcDbEntity
  8
Make2D$___$___
100
AcDbVertex
100
AcDb2dVertex
 10
435.3494194973079
 20
50.72705449471852
 30
0.0
 42
-0.1090964207452616
  0
VERTEX
  5
20F
330
20D
100
AcDbEntity
  8
Make2D$___$___
100
AcDbVertex
100
AcDb2dVertex
 10
434.6780713323828
 20
49.24172454394932
 30
0.0
 42
-0.0709127043260894
  0
VERTEX
  5
210
330
20D
100
AcDbEntity
  8
Make2D$___$___
100
AcDbVertex
100
AcDb2dVertex
 10
433.4042985418347
 20
47.95974656357385
 30
0.0
 42
-0.0466439088206191
  0
VERTEX
  5
211
330
20D
100
AcDbEntity
  8
Make2D$___$___
100
AcDbVertex
100
AcDb2dVertex
 10
431.6141336229236
 20
46.84239575622673
 30
0.0
 42
-0.0338831106947591
  0
VERTEX
  5
212
330
20D
100
AcDbEntity
  8
Make2D$___$___
100
AcDbVertex
100
AcDb2dVertex
 10
429.2902477986188
 20
45.86144100141259
 30
0.0
 42
-0.0258545837209387
  0
VERTEX
  5
213
330
20D
100
AcDbEntity
  8
Make2D$___$___
100
AcDbVertex
100
AcDb2dVertex
 10
426.5481173177181
 20
45.06822821920743
 30
0.0
 42
-0.0213085659332769
  0
VERTEX
  5
214
330
20D
100
AcDbEntity
  8
Make2D$___$___
100
AcDbVertex
100
AcDb2dVertex
 10
423.4737833073776
 20
44.48282542035329
 30
0.0
 42
-0.0710427044003841
  0
VERTEX
  5
215
330
20D
100
AcDbEntity
  8
Make2D$___$___
100
AcDbVertex
100
AcDb2dVertex
 10
410.0156198743938
 20
44.47330017034515
 30
0.0
 42
-0.0212505535005653
  0
VERTEX
  5
216
330
20D
100
AcDbEntity
  8
Make2D$___$___
100
AcDbVertex
100
AcDb2dVertex
 10
406.9344313301928
 20
45.05459294484928
 30
0.0
 42
-0.0257395259542875
  0
VERTEX
  5
217
330
20D
100
AcDbEntity
  8
Make2D$___$___
100
AcDbVertex
100
AcDb2dVertex
 10
404.1846066350248
 20
45.8439825844
 30
0.0
 42
-0.0336286502792077
  0
VERTEX
  5
218
330
20D
100
AcDbEntity
  8
Make2D$___$___
100
AcDbVertex
100
AcDb2dVertex
 10
401.8544976838098
 20
46.82005186949933
 30
0.0
 42
-0.0476278338238403
  0
VERTEX
  5
219
330
20D
100
AcDbEntity
  8
Make2D$___$___
100
AcDbVertex
100
AcDb2dVertex
 10
400.0157963154371
 20
47.96336250127167
 30
0.0
 42
-0.0720793484005051
  0
VERTEX
  5
21A
330
20D
100
AcDbEntity
  8
Make2D$___$___
100
AcDbVertex
100
AcDb2dVertex
 10
398.7315799063517
 20
49.26271360515877
 30
0.0
 42
-0.1077387983042761
  0
VERTEX
  5
21B
330
20D
100
AcDbEntity
  8
Make2D$___$___
100
AcDbVertex
100
AcDb2dVertex
 10
398.0753293088568
 20
50.72705496036792
 30
0.0
  0
SEQEND
  5
21C
330
20D
100
AcDbEntity
  8
Make2D$___$___
  0
LINE
  5
21D
330
1F
100
AcDbEntity
  8
Make2D$___$___
100
AcDbLine
 10
439.8971454589822
 20
74.07344213412898
 30
0.0
 11
435.3494282894859
 21
50.72709961767227
 31
0.0
  0
LINE
  5
21E
330
1F
100
AcDbEntity
  8
Make2D$___$___
100
AcDbLine
 10
439.9050439966069
 20
74.15541059798318
 30
0.0
 11
435.3573268270486
 21
50.80906808120858
 31
0.0
  0
ARC
  5
21F
330
1F
100
AcDbEntity
  8
Make2D$___$___
100
AcDbCircle
 10
447.0970139823952
 20
72.76657439623031
 30
0.0
 40
7.317513924742839
100
AcDbArc
 50
162.566770205359
 51
169.7120959180116
  0
ARC
  5
220
330
1F
100
AcDbEntity
  8
Make2D$___$___
100
AcDbCircle
 10
438.6297190109394
 20
75.50810761775723
 30
0.0
 40
1.583418263869046
100
AcDbArc
 50
340.7047668075578
 51
358.2188593358703
  0
LINE
  5
221
330
1F
100
AcDbEntity
  8
Make2D$___$___
100
AcDbLine
 10
393.89436122947
 20
75.16177303530785
 30
0.0
 11
394.2293852047055
 21
75.16177303530783
 31
0.0
  0
LINE
  5
222
330
1F
100
AcDbEntity
  8
Make2D$___$___
100
AcDbLine
 10
400.2029132607227
 20
75.16177303530783
 30
0.0
 11
400.4654659456666
 21
75.16177303530783
 31
0.0
  0
LINE
  5
223
330
1F
100
AcDbEntity
  8
Make2D$___$___
100
AcDbLine
 10
400.5917099013102
 20
75.16177303530785
 30
0.0
 11
400.8599475590022
 21
75.16177303530783
 31
0.0
  0
LINE
  5
224
330
1F
100
AcDbEntity
  8
Make2D$___$___
100
AcDbLine
 10
400.9898337653329
 20
75.16177303530785
 30
0.0
 11
401.2637539604066
 21
75.16177303530785
 31
0.0
  0
LINE
  5
225
330
1F
100
AcDbEntity
  8
Make2D$___$___
100
AcDbLine
 10
401.3969410463943
 20
75.16177303530785
 30
0.0
 11
401.676549215284
 21
75.16177303530783
 31
0.0
  0
LINE
  5
226
330
1F
100
AcDbEntity
  8
Make2D$___$___
100
AcDbLine
 10
401.8126726555185
 20
75.16177303530785
 30
0.0
 11
402.0979815126809
 21
75.16177303530785
 31
0.0
  0
LINE
  5
227
330
1F
100
AcDbEntity
  8
Make2D$___$___
100
AcDbLine
 10
402.2366552751561
 20
75.16177303530785
 30
0.0
 11
402.5276841639111
 21
75.16177303530785
 31
0.0
  0
LINE
  5
228
330
1F
100
AcDbEntity
  8
Make2D$___$___
100
AcDbLine
 10
402.6685024716808
 20
75.16177303530783
 30
0.0
 11
402.9652766652029
 21
75.16177303530783
 31
0.0
  0
LINE
  5
229
330
1F
100
AcDbEntity
  8
Make2D$___$___
100
AcDbLine
 10
403.1078158593329
 20
75.16177303530785
 30
0.0
 11
403.4103658179105
 21
75.16177303530785
 31
0.0
  0
LINE
  5
22A
330
1F
100
AcDbEntity
  8
Make2D$___$___
100
AcDbLine
 10
403.55418630842
 20
75.16177303530785
 30
0.0
 11
403.8625468993813
 21
75.16177303530785
 31
0.0
  0
LINE
  5
22B
330
1F
100
AcDbEntity
  8
Make2D$___$___
100
AcDbLine
 10
404.0071951901108
 20
75.16177303530785
 30
0.0
 11
404.3214048772001
 21
75.16177303530783
 31
0.0
  0
LINE
  5
22C
330
1F
100
AcDbEntity
  8
Make2D$___$___
100
AcDbLine
 10
404.4664156500326
 20
75.16177303530783
 30
0.0
 11
404.7865156592343
 21
75.16177303530783
 31
0.0
  0
LINE
  5
22D
330
1F
100
AcDbEntity
  8
Make2D$___$___
100
AcDbLine
 10
404.9314139027287
 20
75.16177303530783
 30
0.0
 11
405.2574473716852
 21
75.16177303530783
 31
0.0
  0
LINE
  5
22E
330
1F
100
AcDbEntity
  8
Make2D$___$___
100
AcDbLine
 10
405.4017505389867
 20
75.16177303530783
 30
0.0
 11
405.733761657219
 21
75.16177303530783
 31
0.0
  0
LINE
  5
22F
330
1F
100
AcDbEntity
  8
Make2D$___$___
100
AcDbLine
 10
405.8769818380815
 20
75.16177303530783
 30
0.0
 11
406.2150149851994
 21
75.16177303530783
 31
0.0
  0
LINE
  5
230
330
1F
100
AcDbEntity
  8
Make2D$___$___
100
AcDbLine
 10
406.3566610770931
 20
75.16177303530782
 30
0.0
 11
406.7007599660734
 21
75.16177303530783
 31
0.0
  0
LINE
  5
231
330
1F
100
AcDbEntity
  8
Make2D$___$___
100
AcDbLine
 10
406.8403398296499
 20
75.16177303530782
 30
0.0
 11
407.1905466620719
 21
75.16177303530782
 31
0.0
  0
LINE
  5
232
330
1F
100
AcDbEntity
  8
Make2D$___$___
100
AcDbLine
 10
407.3275692467056
 20
75.16177303530783
 30
0.0
 11
428.938264824001
 21
75.16177303530785
 31
0.0
  0
LINE
  5
233
330
1F
100
AcDbEntity
  8
Make2D$___$___
100
AcDbLine
 10
429.1231755608561
 20
75.16177303530785
 30
0.0
 11
429.3826313546779
 21
75.16177303530785
 31
0.0
  0
LINE
  5
234
330
1F
100
AcDbEntity
  8
Make2D$___$___
100
AcDbLine
 10
429.5676290071988
 20
75.16177303530785
 30
0.0
 11
429.8214231226788
 21
75.16177303530785
 31
0.0
  0
LINE
  5
235
330
1F
100
AcDbEntity
  8
Make2D$___$___
100
AcDbLine
 10
430.0059092459371
 20
75.16177303530785
 30
0.0
 11
430.2542449467154
 21
75.16177303530785
 31
0.0
  0
LINE
  5
236
330
1F
100
AcDbEntity
  8
Make2D$___$___
100
AcDbLine
 10
430.4376339286381
 20
75.16177303530785
 30
0.0
 11
430.6807076549508
 21
75.16177303530785
 31
0.0
  0
LINE
  5
237
330
1F
100
AcDbEntity
  8
Make2D$___$___
100
AcDbLine
 10
430.8624292666859
 20
75.16177303530786
 30
0.0
 11
431.1004292018364
 21
75.16177303530786
 31
0.0
  0
LINE
  5
238
330
1F
100
AcDbEntity
  8
Make2D$___$___
100
AcDbLine
 10
431.2799310937836
 20
75.16177303530786
 30
0.0
 11
431.513035769744
 21
75.16177303530786
 31
0.0
  0
LINE
  5
239
330
1F
100
AcDbEntity
  8
Make2D$___$___
100
AcDbLine
 10
431.6897858963232
 20
75.16177303530786
 30
0.0
 11
431.9181628489276
 21
75.16177303530786
 31
0.0
  0
LINE
  5
23A
330
1F
100
AcDbEntity
  8
Make2D$___$___
100
AcDbLine
 10
432.0916518055496
 20
75.16177303530786
 30
0.0
 11
432.3154562893995
 21
75.16177303530786
 31
0.0
  0
LINE
  5
23B
330
1F
100
AcDbEntity
  8
Make2D$___$___
100
AcDbLine
 10
432.4851994528003
 20
75.16177303530786
 30
0.0
 11
432.7045733185191
 21
75.16177303530786
 31
0.0
  0
LINE
  5
23C
330
1F
100
AcDbEntity
  8
Make2D$___$___
100
AcDbLine
 10
432.8701132417791
 20
75.16177303530785
 30
0.0
 11
433.0851835181305
 21
75.16177303530786
 31
0.0
  0
LINE
  5
23D
330
1F
100
AcDbEntity
  8
Make2D$___$___
100
AcDbLine
 10
433.246091629076
 20
75.16177303530786
 30
0.0
 11
433.4569697555527
 21
75.16177303530785
 31
0.0
  0
LINE
  5
23E
330
1F
100
AcDbEntity
  8
Make2D$___$___
100
AcDbLine
 10
433.6128482862577
 20
75.16177303530785
 30
0.0
 11
433.819629062872
 21
75.16177303530786
 31
0.0
  0
LINE
  5
23F
330
1F
100
AcDbEntity
  8
Make2D$___$___
100
AcDbLine
 10
439.2023890542023
 20
75.16177303530785
 30
0.0
 11
439.5303877391053
 21
75.16177303530783
 31
0.0
  0
LINE
  5
240
330
1F
100
AcDbEntity
  8
Make2D$___$___
100
AcDbLine
 10
440.2123744484554
 20
99.60517713414302
 30
0.0
 11
440.2123744484554
 21
75.45889218766416
 31
0.0
  0
LINE
  5
241
330
1F
100
AcDbEntity
  8
Make2D$___$___
100
AcDbLine
 10
393.2123744484554
 20
99.60517715210281
 30
0.0
 11
393.2123744484554
 21
75.45905762875128
 31
0.0
  0
ARC
  5
242
330
1F
100
AcDbEntity
  8
Make2D$___$___
100
AcDbCircle
 10
439.7088797221218
 20
99.6595227388679
 30
0.0
 40
0.4997099693995745
100
AcDbArc
 50
45.04070478442395
 51
90.05270637833009
  0
ARC
  5
243
330
1F
100
AcDbEntity
  8
Make2D$___$___
100
AcDbCircle
 10
439.709318276676
 20
99.66005584964087
 30
0.0
 40
0.4990228553445795
100
AcDbArc
 50
0.042713706009592
 51
45.03308408185192
  0
ARC
  5
244
330
1F
100
AcDbEntity
  8
Make2D$___$___
100
AcDbCircle
 10
393.7307652716669
 20
99.6422080067391
 30
0.0
 40
0.5197117594638727
100
AcDbArc
 50
91.36153863108873
 51
184.0859400614096
  0
ARC
  5
245
330
1F
100
AcDbEntity
  8
Make2D$___$___
100
AcDbCircle
 10
477.270726215586
 20
176.0117730353091
 30
0.0
 40
2.000000000001307
100
AcDbArc
 50
231.9999999999797
 51
269.9999999999821
  0
ARC
  5
246
330
1F
100
AcDbEntity
  8
Make2D$___$___
100
AcDbCircle
 10
506.1540226813256
 20
176.0117730353075
 30
0.0
 40
1.999999999999631
100
AcDbArc
 50
269.9999999999935
 51
308.0000000000343
  0
LINE
  5
247
330
1F
100
AcDbEntity
  8
Make2D$___$___
100
AcDbLine
 10
507.3853456319736
 20
174.4357515281001
 30
0.0
 11
522.7906818250818
 21
186.4717192672793
 31
0.0
  0
LINE
  5
248
330
1F
100
AcDbEntity
  8
Make2D$___$___
100
AcDbLine
 10
476.0394032649371
 20
174.4357515281001
 30
0.0
 11
460.6340670718288
 21
186.4717192672793
 31
0.0
  0
ARC
  5
249
330
1F
100
AcDbEntity
  8
Make2D$___$___
100
AcDbCircle
 10
463.7123744484551
 20
190.4117730353078
 30
0.0
 40
4.99999999999973
100
AcDbArc
 50
179.9999999999994
 51
231.9999999999827
  0
ARC
  5
24A
330
1F
100
AcDbEntity
  8
Make2D$___$___
100
AcDbCircle
 10
519.7123744484555
 20
190.4117730353077
 30
0.0
 40
4.999999999999768
100
AcDbArc
 50
308.0000000000194
 51
0.0000000000016284
  0
LINE
  5
24B
330
1F
100
AcDbEntity
  8
Make2D$___$___
100
AcDbLine
 10
524.7123744484553
 20
190.4117730353078
 30
0.0
 11
524.7123744484553
 21
193.5117730353078
 31
0.0
  0
LINE
  5
24C
330
1F
100
AcDbEntity
  8
Make2D$___$___
100
AcDbLine
 10
458.7123744484554
 20
190.4117730353078
 30
0.0
 11
458.7123744484554
 21
193.5117730353078
 31
0.0
  0
ARC
  5
24D
330
1F
100
AcDbEntity
  8
Make2D$___$___
100
AcDbCircle
 10
459.2123749936189
 20
193.5117724901442
 30
0.0
 40
0.5000005451638133
100
AcDbArc
 50
90.00005351765279
 51
179.9999375289179
  0
ARC
  5
24E
330
1F
100
AcDbEntity
  8
Make2D$___$___
100
AcDbCircle
 10
524.2123739004735
 20
193.5117724873259
 30
0.0
 40
0.5000005479820904
100
AcDbArc
 50
0.000062794034456
 51
89.99994615938834
  0
ARC
  5
24F
330
1F
100
AcDbEntity
  8
Make2D$___$___
100
AcDbCircle
 10
356.1540226813253
 20
176.0117730353082
 30
0.0
 40
2.000000000000369
100
AcDbArc
 50
270.0000000000016
 51
308.0000000000263
  0
LINE
  5
250
330
1F
100
AcDbEntity
  8
Make2D$___$___
100
AcDbLine
 10
335.0409958947807
 20
174.0117730353079
 30
0.0
 11
334.7566658627296
 21
174.0117730353079
 31
0.0
  0
ARC
  5
251
330
1F
100
AcDbEntity
  8
Make2D$___$___
100
AcDbCircle
 10
327.2707262155852
 20
176.0117730353075
 30
0.0
 40
1.999999999999687
100
AcDbArc
 50
231.9999999999662
 51
270.0000000000032
  0
LINE
  5
252
330
1F
100
AcDbEntity
  8
Make2D$___$___
100
AcDbLine
 10
326.0394032649371
 20
174.4357515281001
 30
0.0
 11
310.6340670718288
 21
186.4717192672793
 31
0.0
  0
LINE
  5
253
330
1F
100
AcDbEntity
  8
Make2D$___$___
100
AcDbLine
 10
357.3853456319736
 20
174.4357515281001
 30
0.0
 11
372.7906818250819
 21
186.4717192672793
 31
0.0
  0
ARC
  5
254
330
1F
100
AcDbEntity
  8
Make2D$___$___
100
AcDbCircle
 10
369.7123744484551
 20
190.4117730353079
 30
0.0
 40
5.000000000000226
100
AcDbArc
 50
308.0000000000219
 51
359.999999999999
  0
ARC
  5
255
330
1F
100
AcDbEntity
  8
Make2D$___$___
100
AcDbCircle
 10
313.7123744484556
 20
190.4117730353081
 30
0.0
 40
5.000000000000349
100
AcDbArc
 50
180.0000000000032
 51
231.99999999998
  0
LINE
  5
256
330
1F
100
AcDbEntity
  8
Make2D$___$___
100
AcDbLine
 10
308.7123744484554
 20
190.4117730353078
 30
0.0
 11
308.7123744484554
 21
193.5117730353078
 31
0.0
  0
LINE
  5
257
330
1F
100
AcDbEntity
  8
Make2D$___$___
100
AcDbLine
 10
374.7123744484554
 20
190.4117730353078
 30
0.0
 11
374.7123744484554
 21
193.5117730353078
 31
0.0
  0
ARC
  5
258
330
1F
100
AcDbEntity
  8
Make2D$___$___
100
AcDbCircle
 10
374.2123739004737
 20
193.5117724873261
 30
0.0
 40
0.5000005479819198
100
AcDbArc
 50
0.0000627940149147
 51
89.99994615940138
  0
ARC
  5
259
330
1F
100
AcDbEntity
  8
Make2D$___$___
100
AcDbCircle
 10
309.2123749936186
 20
193.5117724901444
 30
0.0
 40
0.5000005451635859
100
AcDbArc
 50
90.00005351761371
 51
179.9999375289406
  0
ENDSEC
  0
SECTION
  2
OBJECTS
  0
DICTIONARY
  5
C
330
0
100
AcDbDictionary
281
     1
  3
ACAD_GROUP
350
D
  3
ACAD_LAYOUT
350
1A
  3
ACAD_MATERIAL
350
3B
  3
ACAD_MLEADERSTYLE
350
284
  3
ACAD_MLINESTYLE
350
17
  3
ACAD_PLOTSETTINGS
350
19
  3
ACAD_PLOTSTYLENAME
350
E
  3
ACAD_SCALELIST
350
3F
  3
ACAD_TABLESTYLE
350
283
  3
ACAD_VISUALSTYLE
350
2A
  3
AcDbVariableDictionary
350
25A
  0
DICTIONARY
  5
D
102
{ACAD_REACTORS
330
C
102
}
330
C
100
AcDbDictionary
281
     1
  0
DICTIONARY
  5
1A
102
{ACAD_REACTORS
330
C
102
}
330
C
100
AcDbDictionary
281
     1
  3
Layout1
350
1E
  3
Layout2
350
26
  3
Model
350
22
  0
DICTIONARY
  5
3B
102
{ACAD_REACTORS
330
C
102
}
330
C
100
AcDbDictionary
281
     1
  3
ByBlock
350
3D
  3
ByLayer
350
3C
  3
Global
350
3E
  0
DICTIONARY
  5
284
102
{ACAD_REACTORS
330
C
102
}
330
C
100
AcDbDictionary
281
     1
  0
DICTIONARY
  5
17
102
{ACAD_REACTORS
330
C
102
}
330
C
100
AcDbDictionary
281
     1
  3
Standard
350
18
  0
DICTIONARY
  5
19
102
{ACAD_REACTORS
330
C
102
}
330
C
100
AcDbDictionary
281
     1
  0
ACDBDICTIONARYWDFLT
  5
E
102
{ACAD_REACTORS
330
C
102
}
330
C
100
AcDbDictionary
281
     1
  3
Normal
350
F
100
AcDbDictionaryWithDefault
340
F
  0
DICTIONARY
  5
3F
102
{ACAD_REACTORS
330
C
102
}
330
C
100
AcDbDictionary
281
     1
  3
A0
350
40
  3
A1
350
41
  3
A2
350
42
  3
A3
350
43
  3
A4
350
44
  3
A5
350
45
  3
A6
350
46
  3
A7
350
47
  3
A8
350
48
  3
A9
350
49
  3
B0
350
4A
  3
B1
350
4B
  3
B2
350
4C
  3
B3
350
4D
  3
B4
350
4E
  3
B5
350
4F
  3
B6
350
50
  3
B7
350
51
  3
B8
350
52
  3
B9
350
53
  3
C0
350
54
  3
C1
350
55
  3
C2
350
56
  3
C3
350
57
  3
C4
350
58
  3
C5
350
59
  3
C6
350
5A
  3
C7
350
5B
  3
C8
350
5C
  3
C9
350
5D
  3
D0
350
5E
  3
D1
350
5F
  3
D2
350
60
  0
DICTIONARY
  5
283
102
{ACAD_REACTORS
330
C
102
}
330
C
100
AcDbDictionary
281
     1
  0
DICTIONARY
  5
2A
102
{ACAD_REACTORS
330
C
102
}
330
C
100
AcDbDictionary
281
     1
  3
2dWireframe
350
2F
  3
3D Hidden
350
31
  3
3dWireframe
350
30
  3
Basic
350
32
  3
Brighten
350
36
  3
ColorChange
350
3A
  3
Conceptual
350
34
  3
Dim
350
35
  3
Facepattern
350
39
  3
Flat
350
2B
  3
FlatWithEdges
350
2C
  3
Gouraud
350
2D
  3
GouraudWithEdges
350
2E
  3
Linepattern
350
38
  3
Realistic
350
33
  3
Thicken
350
37
  0
DICTIONARY
  5
25A
102
{ACAD_REACTORS
330
C
102
}
330
C
100
AcDbDictionary
281
     1
  3
CANNOSCALE
350
25B
  3
MSLTSCALE
350
25C
  0
LAYOUT
  5
1E
102
{ACAD_REACTORS
330
1A
102
}
330
1A
100
AcDbPlotSettings
  1

  2
none_device
  4

  6

 40
0.0
 41
0.0
 42
0.0
 43
0.0
 44
0.0
 45
0.0
 46
0.0
 47
0.0
 48
0.0
 49
0.0
140
0.0
141
0.0
142
1.0
143
1.0
 70
   688
 72
     0
 73
     0
 74
     5
  7

 75
    16
 76
     0
 77
     2
 78
   300
147
1.0
148
0.0
149
0.0
100
AcDbLayout
  1
Layout1
 70
     1
 71
     1
 10
0.0
 20
0.0
 11
12.0
 21
9.0
 12
0.0
 22
0.0
 32
0.0
 14
1.000000000000000E+20
 24
1.000000000000000E+20
 34
1.000000000000000E+20
 15
-1.000000000000000E+20
 25
-1.000000000000000E+20
 35
-1.000000000000000E+20
146
0.0
 13
0.0
 23
0.0
 33
0.0
 16
1.0
 26
0.0
 36
0.0
 17
0.0
 27
1.0
 37
0.0
 76
     0
330
1B
  0
LAYOUT
  5
26
102
{ACAD_REACTORS
330
1A
102
}
330
1A
100
AcDbPlotSettings
  1

  2
none_device
  4

  6

 40
0.0
 41
0.0
 42
0.0
 43
0.0
 44
0.0
 45
0.0
 46
0.0
 47
0.0
 48
0.0
 49
0.0
140
0.0
141
0.0
142
1.0
143
1.0
 70
   688
 72
     0
 73
     0
 74
     5
  7

 75
    16
 76
     0
 77
     2
 78
   300
147
1.0
148
0.0
149
0.0
100
AcDbLayout
  1
Layout2
 70
     1
 71
     2
 10
0.0
 20
0.0
 11
0.0
 21
0.0
 12
0.0
 22
0.0
 32
0.0
 14
0.0
 24
0.0
 34
0.0
 15
0.0
 25
0.0
 35
0.0
146
0.0
 13
0.0
 23
0.0
 33
0.0
 16
1.0
 26
0.0
 36
0.0
 17
0.0
 27
1.0
 37
0.0
 76
     0
330
23
  0
LAYOUT
  5
22
102
{ACAD_REACTORS
330
1A
102
}
330
1A
100
AcDbPlotSettings
  1

  2
none_device
  4
Letter_(8.50_x_11.00_Inches)
  6

 40
6.35
 41
6.35
 42
6.35000508
 43
6.35000508
 44
215.9
 45
279.4
 46
0.0
 47
0.0
 48
0.0
 49
0.0
140
0.0
141
0.0
142
1.0
143
1.0
 70
  1712
 72
     0
 73
     0
 74
     0
  7

 75
     0
 76
     0
 77
     2
 78
   300
147
1.0
148
0.0
149
0.0
100
AcDbLayout
  1
Model
 70
     1
 71
     0
 10
0.0
 20
0.0
 11
12.0
 21
9.0
 12
0.0
 22
0.0
 32
0.0
 14
308.7123744484553
 24
43.99999871022328
 34
0.0
 15
524.7123744484553
 25
194.0117730353078
 35
0.0
146
0.0
 13
0.0
 23
0.0
 33
0.0
 16
1.0
 26
0.0
 36
0.0
 17
0.0
 27
1.0
 37
0.0
 76
     0
330
1F
331
29
  0
MATERIAL
  5
3D
102
{ACAD_REACTORS
330
3B
102
}
102
{ACAD_XDICTIONARY
360
27F
102
}
330
3B
100
AcDbMaterial
  1
ByBlock
  0
MATERIAL
  5
3C
102
{ACAD_REACTORS
330
3B
102
}
102
{ACAD_XDICTIONARY
360
27D
102
}
330
3B
100
AcDbMaterial
  1
ByLayer
  0
MATERIAL
  5
3E
102
{ACAD_REACTORS
330
3B
102
}
102
{ACAD_XDICTIONARY
360
281
102
}
330
3B
100
AcDbMaterial
  1
Global
  0
MLINESTYLE
  5
18
102
{ACAD_REACTORS
330
17
102
}
330
17
100
AcDbMlineStyle
  2
Standard
 70
     0
  3

 62
   256
 51
90.0
 52
90.0
 71
     2
 49
0.5
 62
   256
  6
BYLAYER
 49
-0.5
 62
   256
  6
BYLAYER
  0
ACDBPLACEHOLDER
  5
F
102
{ACAD_REACTORS
330
E
102
}
330
E
  0
SCALE
  5
40
102
{ACAD_REACTORS
330
3F
102
}
330
3F
100
AcDbScale
 70
     0
300
1:1
140
1.0
141
1.0
290
     1
  0
SCALE
  5
41
102
{ACAD_REACTORS
330
3F
102
}
330
3F
100
AcDbScale
 70
     0
300
1:2
140
1.0
141
2.0
290
     0
  0
SCALE
  5
42
102
{ACAD_REACTORS
330
3F
102
}
330
3F
100
AcDbScale
 70
     0
300
1:4
140
1.0
141
4.0
290
     0
  0
SCALE
  5
43
102
{ACAD_REACTORS
330
3F
102
}
330
3F
100
AcDbScale
 70
     0
300
1:5
140
1.0
141
5.0
290
     0
  0
SCALE
  5
44
102
{ACAD_REACTORS
330
3F
102
}
330
3F
100
AcDbScale
 70
     0
300
1:8
140
1.0
141
8.0
290
     0
  0
SCALE
  5
45
102
{ACAD_REACTORS
330
3F
102
}
330
3F
100
AcDbScale
 70
     0
300
1:10
140
1.0
141
10.0
290
     0
  0
SCALE
  5
46
102
{ACAD_REACTORS
330
3F
102
}
330
3F
100
AcDbScale
 70
     0
300
1:16
140
1.0
141
16.0
290
     0
  0
SCALE
  5
47
102
{ACAD_REACTORS
330
3F
102
}
330
3F
100
AcDbScale
 70
     0
300
1:20
140
1.0
141
20.0
290
     0
  0
SCALE
  5
48
102
{ACAD_REACTORS
330
3F
102
}
330
3F
100
AcDbScale
 70
     0
300
1:30
140
1.0
141
30.0
290
     0
  0
SCALE
  5
49
102
{ACAD_REACTORS
330
3F
102
}
330
3F
100
AcDbScale
 70
     0
300
1:40
140
1.0
141
40.0
290
     0
  0
SCALE
  5
4A
102
{ACAD_REACTORS
330
3F
102
}
330
3F
100
AcDbScale
 70
     0
300
1:50
140
1.0
141
50.0
290
     0
  0
SCALE
  5
4B
102
{ACAD_REACTORS
330
3F
102
}
330
3F
100
AcDbScale
 70
     0
300
1:100
140
1.0
141
100.0
290
     0
  0
SCALE
  5
4C
102
{ACAD_REACTORS
330
3F
102
}
330
3F
100
AcDbScale
 70
     0
300
2:1
140
2.0
141
1.0
290
     0
  0
SCALE
  5
4D
102
{ACAD_REACTORS
330
3F
102
}
330
3F
100
AcDbScale
 70
     0
300
4:1
140
4.0
141
1.0
290
     0
  0
SCALE
  5
4E
102
{ACAD_REACTORS
330
3F
102
}
330
3F
100
AcDbScale
 70
     0
300
8:1
140
8.0
141
1.0
290
     0
  0
SCALE
  5
4F
102
{ACAD_REACTORS
330
3F
102
}
330
3F
100
AcDbScale
 70
     0
300
10:1
140
10.0
141
1.0
290
     0
  0
SCALE
  5
50
102
{ACAD_REACTORS
330
3F
102
}
330
3F
100
AcDbScale
 70
     0
300
100:1
140
100.0
141
1.0
290
     0
  0
SCALE
  5
51
102
{ACAD_REACTORS
330
3F
102
}
330
3F
100
AcDbScale
 70
     0
300
1/128" = 1'-0"
140
0.0078125
141
12.0
290
     0
  0
SCALE
  5
52
102
{ACAD_REACTORS
330
3F
102
}
330
3F
100
AcDbScale
 70
     0
300
1/64" = 1'-0"
140
0.015625
141
12.0
290
     0
  0
SCALE
  5
53
102
{ACAD_REACTORS
330
3F
102
}
330
3F
100
AcDbScale
 70
     0
300
1/32" = 1'-0"
140
0.03125
141
12.0
290
     0
  0
SCALE
  5
54
102
{ACAD_REACTORS
330
3F
102
}
330
3F
100
AcDbScale
 70
     0
300
1/16" = 1'-0"
140
0.0625
141
12.0
290
     0
  0
SCALE
  5
55
102
{ACAD_REACTORS
330
3F
102
}
330
3F
100
AcDbScale
 70
     0
300
3/32" = 1'-0"
140
0.09375
141
12.0
290
     0
  0
SCALE
  5
56
102
{ACAD_REACTORS
330
3F
102
}
330
3F
100
AcDbScale
 70
     0
300
1/8" = 1'-0"
140
0.125
141
12.0
290
     0
  0
SCALE
  5
57
102
{ACAD_REACTORS
330
3F
102
}
330
3F
100
AcDbScale
 70
     0
300
3/16" = 1'-0"
140
0.1875
141
12.0
290
     0
  0
SCALE
  5
58
102
{ACAD_REACTORS
330
3F
102
}
330
3F
100
AcDbScale
 70
     0
300
1/4" = 1'-0"
140
0.25
141
12.0
290
     0
  0
SCALE
  5
59
102
{ACAD_REACTORS
330
3F
102
}
330
3F
100
AcDbScale
 70
     0
300
3/8" = 1'-0"
140
0.375
141
12.0
290
     0
  0
SCALE
  5
5A
102
{ACAD_REACTORS
330
3F
102
}
330
3F
100
AcDbScale
 70
     0
300
1/2" = 1'-0"
140
0.5
141
12.0
290
     0
  0
SCALE
  5
5B
102
{ACAD_REACTORS
330
3F
102
}
330
3F
100
AcDbScale
 70
     0
300
3/4" = 1'-0"
140
0.75
141
12.0
290
     0
  0
SCALE
  5
5C
102
{ACAD_REACTORS
330
3F
102
}
330
3F
100
AcDbScale
 70
     0
300
1" = 1'-0"
140
1.0
141
12.0
290
     0
  0
SCALE
  5
5D
102
{ACAD_REACTORS
330
3F
102
}
330
3F
100
AcDbScale
 70
     0
300
1-1/2" = 1'-0"
140
1.5
141
12.0
290
     0
  0
SCALE
  5
5E
102
{ACAD_REACTORS
330
3F
102
}
330
3F
100
AcDbScale
 70
     0
300
3" = 1'-0"
140
3.0
141
12.0
290
     0
  0
SCALE
  5
5F
102
{ACAD_REACTORS
330
3F
102
}
330
3F
100
AcDbScale
 70
     0
300
6" = 1'-0"
140
6.0
141
12.0
290
     0
  0
SCALE
  5
60
102
{ACAD_REACTORS
330
3F
102
}
330
3F
100
AcDbScale
 70
     0
300
1'-0" = 1'-0"
140
12.0
141
12.0
290
     0
  0
VISUALSTYLE
  5
2F
102
{ACAD_REACTORS
330
2A
102
}
102
{ACAD_XDICTIONARY
360
265
102
}
330
2A
100
AcDbVisualStyle
  2
2dWireframe
 70
     4
 71
     0
 72
     2
 73
     0
 90
        0
 40
0.6
 41
30.0
 62
     5
 63
     7
421
 16777215
 74
     1
 91
        4
 64
     7
 65
   257
 75
     1
175
     1
 42
1.0
 92
        0
 66
   257
 43
1.0
 76
     1
 77
     6
 78
     2
 67
     7
 79
     5
170
     0
171
     0
290
     0
174
     0
 93
        1
 44
0.0
173
     0
291
     0
 45
0.0
1001
ACAD
1000
AcDbSavedByObjectVersion
1070
     0
  0
VISUALSTYLE
  5
31
102
{ACAD_REACTORS
330
2A
102
}
102
{ACAD_XDICTIONARY
360
269
102
}
330
2A
100
AcDbVisualStyle
  2
3D Hidden
 70
     6
 71
     1
 72
     2
 73
     2
 90
        0
 40
0.6
 41
30.0
 62
     5
 63
     7
421
 16777215
 74
     2
 91
        2
 64
     7
 65
   257
 75
     2
175
     1
 42
40.0
 92
        0
 66
   257
 43
1.0
 76
     1
 77
     6
 78
     2
 67
     7
 79
     3
170
     0
171
     0
290
     0
174
     0
 93
        1
 44
0.0
173
     0
291
     0
 45
0.0
1001
ACAD
1000
AcDbSavedByObjectVersion
1070
     0
  0
VISUALSTYLE
  5
30
102
{ACAD_REACTORS
330
2A
102
}
102
{ACAD_XDICTIONARY
360
267
102
}
330
2A
100
AcDbVisualStyle
  2
3dWireframe
 70
     5
 71
     0
 72
     2
 73
     0
 90
        0
 40
0.6
 41
30.0
 62
     5
 63
     7
421
 16777215
 74
     1
 91
        4
 64
     7
 65
   257
 75
     1
175
     1
 42
1.0
 92
        0
 66
   257
 43
1.0
 76
     1
 77
     6
 78
     2
 67
     7
 79
     5
170
     0
171
     0
290
     0
174
     0
 93
        1
 44
0.0
173
     0
291
     0
 45
0.0
1001
ACAD
1000
AcDbSavedByObjectVersion
1070
     0
  0
VISUALSTYLE
  5
32
102
{ACAD_REACTORS
330
2A
102
}
102
{ACAD_XDICTIONARY
360
26B
102
}
330
2A
100
AcDbVisualStyle
  2
Basic
 70
     7
 71
     1
 72
     0
 73
     1
 90
        0
 40
0.6
 41
30.0
 62
     5
 63
     7
421
 16777215
 74
     0
 91
        4
 64
     7
 65
   257
 75
     1
175
     1
 42
1.0
 92
        8
 66
     7
 43
1.0
 76
     1
 77
     6
 78
     2
 67
     7
 79
     5
170
     0
171
     0
290
     0
174
     0
 93
        1
 44
0.0
173
     0
291
     1
 45
0.0
1001
ACAD
1000
AcDbSavedByObjectVersion
1070
     0
  0
VISUALSTYLE
  5
36
102
{ACAD_REACTORS
330
2A
102
}
102
{ACAD_XDICTIONARY
360
273
102
}
330
2A
100
AcDbVisualStyle
  2
Brighten
 70
    12
 71
     2
 72
     2
 73
     0
 90
        0
 40
0.6
 41
30.0
 62
     5
 63
     7
421
 16777215
 74
     1
 91
        4
 64
     7
 65
   257
 75
     1
175
     1
 42
1.0
 92
        8
 66
     7
 43
1.0
 76
     1
 77
     6
 78
     2
 67
     7
 79
     5
170
     0
171
     0
290
     0
174
     0
 93
        1
 44
50.0
173
     0
291
     1
 45
0.0
1001
ACAD
1000
AcDbSavedByObjectVersion
1070
     0
  0
VISUALSTYLE
  5
3A
102
{ACAD_REACTORS
330
2A
102
}
102
{ACAD_XDICTIONARY
360
27B
102
}
330
2A
100
AcDbVisualStyle
  2
ColorChange
 70
    16
 71
     2
 72
     2
 73
     3
 90
        0
 40
0.6
 41
30.0
 62
     5
 63
     8
421
  8421504
 74
     1
 91
        4
 64
     7
 65
   257
 75
     1
175
     1
 42
1.0
 92
        8
 66
     8
424
  8421504
 43
1.0
 76
     1
 77
     6
 78
     2
 67
     7
 79
     5
170
     0
171
     0
290
     0
174
     0
 93
        1
 44
0.0
173
     0
291
     1
 45
0.0
1001
ACAD
1000
AcDbSavedByObjectVersion
1070
     0
  0
VISUALSTYLE
  5
34
102
{ACAD_REACTORS
330
2A
102
}
102
{ACAD_XDICTIONARY
360
26F
102
}
330
2A
100
AcDbVisualStyle
  2
Conceptual
 70
     9
 71
     3
 72
     2
 73
     0
 90
        0
 40
0.6
 41
30.0
 62
     5
 63
     7
421
 16777215
 74
     2
 91
        2
 64
     7
 65
   257
 75
     1
175
     1
 42
40.0
 92
        8
 66
     7
 43
1.0
 76
     1
 77
     6
 78
     2
 67
     7
 79
     3
170
     0
171
     0
290
     0
174
     0
 93
        1
 44
0.0
173
     0
291
     0
 45
0.0
1001
ACAD
1000
AcDbSavedByObjectVersion
1070
     0
  0
VISUALSTYLE
  5
35
102
{ACAD_REACTORS
330
2A
102
}
102
{ACAD_XDICTIONARY
360
271
102
}
330
2A
100
AcDbVisualStyle
  2
Dim
 70
    11
 71
     2
 72
     2
 73
     0
 90
        0
 40
0.6
 41
30.0
 62
     5
 63
     7
421
 16777215
 74
     1
 91
        4
 64
     7
 65
   257
 75
     1
175
     1
 42
1.0
 92
        8
 66
     7
 43
1.0
 76
     1
 77
     6
 78
     2
 67
     7
 79
     5
170
     0
171
     0
290
     0
174
     0
 93
        1
 44
-50.0
173
     0
291
     1
 45
0.0
1001
ACAD
1000
AcDbSavedByObjectVersion
1070
     0
  0
VISUALSTYLE
  5
39
102
{ACAD_REACTORS
330
2A
102
}
102
{ACAD_XDICTIONARY
360
279
102
}
330
2A
100
AcDbVisualStyle
  2
Facepattern
 70
    15
 71
     2
 72
     2
 73
     0
 90
        0
 40
0.6
 41
30.0
 62
     5
 63
     7
421
 16777215
 74
     1
 91
        4
 64
     7
 65
   257
 75
     1
175
     1
 42
1.0
 92
        8
 66
     7
 43
1.0
 76
     1
 77
     6
 78
     2
 67
     7
 79
     5
170
     0
171
     0
290
     0
174
     0
 93
        1
 44
0.0
173
     0
291
     1
 45
0.0
1001
ACAD
1000
AcDbSavedByObjectVersion
1070
     0
  0
VISUALSTYLE
  5
2B
102
{ACAD_REACTORS
330
2A
102
}
102
{ACAD_XDICTIONARY
360
25D
102
}
330
2A
100
AcDbVisualStyle
  2
Flat
 70
     0
 71
     2
 72
     1
 73
     1
 90
        2
 40
0.6
 41
30.0
 62
     5
 63
     7
421
 16777215
 74
     0
 91
        4
 64
     7
 65
   257
 75
     1
175
     1
 42
1.0
 92
        8
 66
     7
 43
1.0
 76
     1
 77
     6
 78
     2
 67
     7
 79
     5
170
     0
171
     0
290
     0
174
     0
 93
       13
 44
0.0
173
     0
291
     1
 45
0.0
1001
ACAD
1000
AcDbSavedByObjectVersion
1070
     0
  0
VISUALSTYLE
  5
2C
102
{ACAD_REACTORS
330
2A
102
}
102
{ACAD_XDICTIONARY
360
25F
102
}
330
2A
100
AcDbVisualStyle
  2
FlatWithEdges
 70
     1
 71
     2
 72
     1
 73
     1
 90
        2
 40
0.6
 41
30.0
 62
     5
 63
     7
421
 16777215
 74
     1
 91
        4
 64
     7
 65
   257
 75
     1
175
     1
 42
1.0
 92
        0
 66
   257
 43
1.0
 76
     1
 77
     6
 78
     2
 67
     7
 79
     5
170
     0
171
     0
290
     0
174
     0
 93
       13
 44
0.0
173
     0
291
     1
 45
0.0
1001
ACAD
1000
AcDbSavedByObjectVersion
1070
     0
  0
VISUALSTYLE
  5
2D
102
{ACAD_REACTORS
330
2A
102
}
102
{ACAD_XDICTIONARY
360
261
102
}
330
2A
100
AcDbVisualStyle
  2
Gouraud
 70
     2
 71
     2
 72
     2
 73
     1
 90
        2
 40
0.6
 41
30.0
 62
     5
 63
     7
421
 16777215
 74
     0
 91
        4
 64
     7
 65
   257
 75
     1
175
     1
 42
1.0
 92
        0
 66
     7
 43
1.0
 76
     1
 77
     6
 78
     2
 67
     7
 79
     5
170
     0
171
     0
290
     0
174
     0
 93
       13
 44
0.0
173
     0
291
     1
 45
0.0
1001
ACAD
1000
AcDbSavedByObjectVersion
1070
     0
  0
VISUALSTYLE
  5
2E
102
{ACAD_REACTORS
330
2A
102
}
102
{ACAD_XDICTIONARY
360
263
102
}
330
2A
100
AcDbVisualStyle
  2
GouraudWithEdges
 70
     3
 71
     2
 72
     2
 73
     1
 90
        2
 40
0.6
 41
30.0
 62
     5
 63
     7
421
 16777215
 74
     1
 91
        4
 64
     7
 65
   257
 75
     1
175
     1
 42
1.0
 92
        0
 66
   257
 43
1.0
 76
     1
 77
     6
 78
     2
 67
     7
 79
     5
170
     0
171
     0
290
     0
174
     0
 93
       13
 44
0.0
173
     0
291
     1
 45
0.0
1001
ACAD
1000
AcDbSavedByObjectVersion
1070
     0
  0
VISUALSTYLE
  5
38
102
{ACAD_REACTORS
330
2A
102
}
102
{ACAD_XDICTIONARY
360
277
102
}
330
2A
100
AcDbVisualStyle
  2
Linepattern
 70
    14
 71
     2
 72
     2
 73
     0
 90
        0
 40
0.6
 41
30.0
 62
     5
 63
     7
421
 16777215
 74
     1
 91
        4
 64
     7
 65
   257
 75
     7
175
     7
 42
1.0
 92
        8
 66
     7
 43
1.0
 76
     1
 77
     6
 78
     2
 67
     7
 79
     5
170
     0
171
     0
290
     0
174
     0
 93
        1
 44
0.0
173
     0
291
     1
 45
0.0
1001
ACAD
1000
AcDbSavedByObjectVersion
1070
     0
  0
VISUALSTYLE
  5
33
102
{ACAD_REACTORS
330
2A
102
}
102
{ACAD_XDICTIONARY
360
26D
102
}
330
2A
100
AcDbVisualStyle
  2
Realistic
 70
     8
 71
     2
 72
     3
 73
     0
 90
        2
 40
0.6
 41
30.0
 62
     5
 63
     7
421
 16777215
 74
     0
 91
        0
 64
     7
 65
   257
 75
     1
175
     1
 42
1.0
 92
        8
 66
   257
 43
1.0
 76
     1
 77
     6
 78
     2
 67
     7
 79
     3
170
     0
171
     0
290
     0
174
     0
 93
       13
 44
0.0
173
     0
291
     0
 45
0.0
1001
ACAD
1000
AcDbSavedByObjectVersion
1070
     0
  0
VISUALSTYLE
  5
37
102
{ACAD_REACTORS
330
2A
102
}
102
{ACAD_XDICTIONARY
360
275
102
}
330
2A
100
AcDbVisualStyle
  2
Thicken
 70
    13
 71
     2
 72
     2
 73
     0
 90
        0
 40
0.6
 41
30.0
 62
     5
 63
     7
421
 16777215
 74
     1
 91
        4
 64
     7
 65
   257
 75
     1
175
     1
 42
1.0
 92
       12
 66
     7
 43
1.0
 76
     1
 77
     6
 78
     2
 67
     7
 79
     5
170
     0
171
     0
290
     0
174
     0
 93
        1
 44
0.0
173
     0
291
     1
 45
0.0
1001
ACAD
1000
AcDbSavedByObjectVersion
1070
     0
  0
DICTIONARYVAR
  5
25B
102
{ACAD_REACTORS
330
25A
102
}
330
25A
100
DictionaryVariables
280
     0
  1
1:1
  0
DICTIONARYVAR
  5
25C
102
{ACAD_REACTORS
330
25A
102
}
330
25A
100
DictionaryVariables
280
     0
  1
1
  0
DICTIONARY
  5
27F
330
3D
100
AcDbDictionary
280
     1
281
     1
  3
ACAD_XREC_ROUNDTRIP
360
280
  0
DICTIONARY
  5
27D
330
3C
100
AcDbDictionary
280
     1
281
     1
  3
ACAD_XREC_ROUNDTRIP
360
27E
  0
DICTIONARY
  5
281
330
3E
100
AcDbDictionary
280
     1
281
     1
  3
ACAD_XREC_ROUNDTRIP
360
282
  0
DICTIONARY
  5
265
330
2F
100
AcDbDictionary
280
     1
281
     1
  3
ACAD_XREC_ROUNDTRIP
360
266
  0
DICTIONARY
  5
269
330
31
100
AcDbDictionary
280
     1
281
     1
  3
ACAD_XREC_ROUNDTRIP
360
26A
  0
DICTIONARY
  5
267
330
30
100
AcDbDictionary
280
     1
281
     1
  3
ACAD_XREC_ROUNDTRIP
360
268
  0
DICTIONARY
  5
26B
330
32
100
AcDbDictionary
280
     1
281
     1
  3
ACAD_XREC_ROUNDTRIP
360
26C
  0
DICTIONARY
  5
273
330
36
100
AcDbDictionary
280
     1
281
     1
  3
ACAD_XREC_ROUNDTRIP
360
274
  0
DICTIONARY
  5
27B
330
3A
100
AcDbDictionary
280
     1
281
     1
  3
ACAD_XREC_ROUNDTRIP
360
27C
  0
DICTIONARY
  5
26F
330
34
100
AcDbDictionary
280
     1
281
     1
  3
ACAD_XREC_ROUNDTRIP
360
270
  0
DICTIONARY
  5
271
330
35
100
AcDbDictionary
280
     1
281
     1
  3
ACAD_XREC_ROUNDTRIP
360
272
  0
DICTIONARY
  5
279
330
39
100
AcDbDictionary
280
     1
281
     1
  3
ACAD_XREC_ROUNDTRIP
360
27A
  0
DICTIONARY
  5
25D
330
2B
100
AcDbDictionary
280
     1
281
     1
  3
ACAD_XREC_ROUNDTRIP
360
25E
  0
DICTIONARY
  5
25F
330
2C
100
AcDbDictionary
280
     1
281
     1
  3
ACAD_XREC_ROUNDTRIP
360
260
  0
DICTIONARY
  5
261
330
2D
100
AcDbDictionary
280
     1
281
     1
  3
ACAD_XREC_ROUNDTRIP
360
262
  0
DICTIONARY
  5
263
330
2E
100
AcDbDictionary
280
     1
281
     1
  3
ACAD_XREC_ROUNDTRIP
360
264
  0
DICTIONARY
  5
277
330
38
100
AcDbDictionary
280
     1
281
     1
  3
ACAD_XREC_ROUNDTRIP
360
278
  0
DICTIONARY
  5
26D
330
33
100
AcDbDictionary
280
     1
281
     1
  3
ACAD_XREC_ROUNDTRIP
360
26E
  0
DICTIONARY
  5
275
330
37
100
AcDbDictionary
280
     1
281
     1
  3
ACAD_XREC_ROUNDTRIP
360
276
  0
XRECORD
  5
280
102
{ACAD_REACTORS
330
27F
102
}
330
27F
100
AcDbXrecord
280
     1
102
MATERIAL
148
0.0
149
0.0
149
0.0
 93
        0
 94
      127
282
     0
 72
     1
 77
     1
171
     1
175
     1
179
     1
273
     0
  0
XRECORD
  5
27E
102
{ACAD_REACTORS
330
27D
102
}
330
27D
100
AcDbXrecord
280
     1
102
MATERIAL
148
0.0
149
0.0
149
0.0
 93
        0
 94
      127
282
     0
 72
     1
 77
     1
171
     1
175
     1
179
     1
273
     0
  0
XRECORD
  5
282
102
{ACAD_REACTORS
330
281
102
}
330
281
100
AcDbXrecord
280
     1
102
MATERIAL
148
0.0
149
0.0
149
0.0
 93
        0
 94
      127
282
     0
 72
     1
 77
     1
171
     1
175
     1
179
     1
273
     0
  0
XRECORD
  5
266
102
{ACAD_REACTORS
330
265
102
}
330
265
100
AcDbXrecord
280
     1
102
RTVSPropertyOp0
 70
     1
102
RTVSPropertyOp1
 70
     1
102
RTVSPropertyOp2
 70
     1
102
RTVSPropertyOp3
 70
     1
102
RTVSPropertyOp4
 70
     1
102
RTVSPropertyOp5
 70
     1
102
RTVSPropertyOp6
 70
     1
102
RTVSPropertyOp7
 70
     1
102
RTVSPropertyOp8
 70
     1
102
RTVSPropertyOp9
 70
     1
102
RTVSPropertyOp10
 70
     1
102
RTVSPropertyOp11
 70
     1
102
RTVSPropertyOp12
 70
     1
102
RTVSPropertyOp13
 70
     1
102
RTVSPropertyOp14
 70
     1
102
RTVSPropertyOp15
 70
     1
102
RTVSPropertyOp16
 70
     1
102
RTVSPropertyOp17
 70
     1
102
RTVSPropertyOp18
 70
     1
102
RTVSPropertyOp19
 70
     1
102
RTVSPropertyOp20
 70
     1
102
RTVSPropertyOp21
 70
     1
102
RTVSPropertyOp22
 70
     1
102
RTVSPropertyOp23
 70
     1
102
RTVSPropertyOp24
 70
     1
102
RTVSPropertyOp25
 70
     1
102
RTVSPropertyOp26
 70
     1
102
RTVSPropertyOp27
 70
     1
102
RTVSPropertyOp28
 70
     1
102
RTVSPropertyOp29
 70
     1
102
RTVSPropertyOp30
 70
     1
102
RTVSPropertyOp31
 70
     1
102
RTVSPropertyOp32
 70
     1
102
RTVSPropertyOp33
 70
     1
102
RTVSPropertyOp34
 70
     1
102
RTVSPropertyOp35
 70
     1
102
RTVSPropertyOp36
 70
     1
102
RTVSPropertyOp37
 70
     1
102
RTVSPropertyOp38
 70
     1
102
RTVSPropertyOp39
 70
     1
102
RTVSPropertyOp40
 70
     1
102
RTVSPropertyOp41
 70
     1
102
RTVSPropertyOp42
 70
     1
102
RTVSPropertyOp43
 70
     1
102
RTVSPropertyOp44
 70
     1
102
RTVSPropertyOp45
 70
     1
102
RTVSPropertyOp46
 70
     1
102
RTVSPropertyOp47
 70
     1
102
RTVSPropertyOp48
 70
     1
102
RTVSPropertyOp49
 70
     1
102
RTVSPropertyOp50
 70
     1
102
RTVSPropertyOp51
 70
     0
102
RTVSPropertyOp52
 70
     0
102
RTVSPropertyOp53
 70
     1
102
RTVSPropertyOp54
 70
     1
102
RTVSPropertyOp55
 70
     1
102
RTVSPropertyOp56
 70
     1
102
RTVSPropertyOp57
 70
     1
102
RTVSPost2010Prop28
280
     1
102
RTVSPost2010PropOp28
 70
     1
102
RTVSPost2010Prop29
280
     1
102
RTVSPost2010PropOp29
 70
     1
102
RTVSPost2010Prop30
280
     0
102
RTVSPost2010PropOp30
 70
     1
102
RTVSPost2010Prop31
280
     0
102
RTVSPost2010PropOp31
 70
     1
102
RTVSPost2010Prop32
280
     0
102
RTVSPost2010PropOp32
 70
     1
102
RTVSPost2010Prop33
280
     0
102
RTVSPost2010PropOp33
 70
     1
102
RTVSPost2010Prop34
280
     0
102
RTVSPost2010PropOp34
 70
     1
102
RTVSPost2010Prop35
280
     0
102
RTVSPost2010PropOp35
 70
     1
102
RTVSPost2010Prop36
280
     0
102
RTVSPost2010PropOp36
 70
     1
102
RTVSPost2010Prop37
 90
       50
102
RTVSPost2010PropOp37
 70
     1
102
RTVSPost2010Prop38
140
0.0
102
RTVSPost2010PropOp38
 70
     1
102
RTVSPost2010Prop39
140
1.0
102
RTVSPost2010PropOp39
 70
     1
102
RTVSPost2010Prop40
 90
        0
102
RTVSPost2010PropOp40
 70
     1
102
RTVSPost2010Prop41ColorIndex
 90
       18
102
RTVSPost2010Prop41ColorRGB
 90
        0
102
RTVSPost2010PropOp41
 70
     1
102
RTVSPost2010Prop42
 90
       50
102
RTVSPost2010PropOp42
 70
     1
102
RTVSPost2010Prop43
 90
        3
102
RTVSPost2010PropOp43
 70
     1
102
RTVSPost2010Prop44ColorIndex
 90
        5
102
RTVSPost2010Prop44ColorRGB
 90
      255
102
RTVSPost2010PropOp44
 70
     1
102
RTVSPost2010Prop45
280
     0
102
RTVSPost2010PropOp45
 70
     1
102
RTVSPost2010Prop46
 90
       50
102
RTVSPost2010PropOp46
 70
     1
102
RTVSPost2010Prop47
 90
       50
102
RTVSPost2010PropOp47
 70
     1
102
RTVSPost2010Prop48
 90
       50
102
RTVSPost2010PropOp48
 70
     1
102
RTVSPost2010Prop49
280
     0
102
RTVSPost2010PropOp49
 70
     1
102
RTVSPost2010Prop50
 90
       50
102
RTVSPost2010PropOp50
 70
     1
102
RTVSPost2010Prop51ColorIndex
 90
      256
102
RTVSPost2010Prop51ColorRGB
 90
-16777216
102
RTVSPost2010PropOp51
 70
     0
102
RTVSPost2010Prop52
140
1.0
102
RTVSPost2010PropOp52
 70
     0
102
RTVSPost2010Prop53
 90
        2
102
RTVSPost2010PropOp53
 70
     1
102
RTVSPost2010Prop54
  1
strokes_ogs.tif
102
RTVSPost2010PropOp54
 70
     1
102
RTVSPost2010Prop55
280
     0
102
RTVSPost2010PropOp55
 70
     1
102
RTVSPost2010Prop56
140
1.0
102
RTVSPost2010PropOp56
 70
     1
102
RTVSPost2010Prop57
140
1.0
102
RTVSPost2010PropOp57
 70
     1
  0
XRECORD
  5
26A
102
{ACAD_REACTORS
330
269
102
}
330
269
100
AcDbXrecord
280
     1
102
RTVSPropertyOp0
 70
     1
102
RTVSPropertyOp1
 70
     1
102
RTVSPropertyOp2
 70
     1
102
RTVSPropertyOp3
 70
     1
102
RTVSPropertyOp4
 70
     1
102
RTVSPropertyOp5
 70
     1
102
RTVSPropertyOp6
 70
     1
102
RTVSPropertyOp7
 70
     1
102
RTVSPropertyOp8
 70
     1
102
RTVSPropertyOp9
 70
     1
102
RTVSPropertyOp10
 70
     1
102
RTVSPropertyOp11
 70
     1
102
RTVSPropertyOp12
 70
     1
102
RTVSPropertyOp13
 70
     1
102
RTVSPropertyOp14
 70
     1
102
RTVSPropertyOp15
 70
     1
102
RTVSPropertyOp16
 70
     1
102
RTVSPropertyOp17
 70
     1
102
RTVSPropertyOp18
 70
     1
102
RTVSPropertyOp19
 70
     1
102
RTVSPropertyOp20
 70
     1
102
RTVSPropertyOp21
 70
     1
102
RTVSPropertyOp22
 70
     1
102
RTVSPropertyOp23
 70
     1
102
RTVSPropertyOp24
 70
     1
102
RTVSPropertyOp25
 70
     1
102
RTVSPropertyOp26
 70
     1
102
RTVSPropertyOp27
 70
     1
102
RTVSPropertyOp28
 70
     1
102
RTVSPropertyOp29
 70
     1
102
RTVSPropertyOp30
 70
     1
102
RTVSPropertyOp31
 70
     1
102
RTVSPropertyOp32
 70
     1
102
RTVSPropertyOp33
 70
     1
102
RTVSPropertyOp34
 70
     1
102
RTVSPropertyOp35
 70
     1
102
RTVSPropertyOp36
 70
     1
102
RTVSPropertyOp37
 70
     1
102
RTVSPropertyOp38
 70
     1
102
RTVSPropertyOp39
 70
     1
102
RTVSPropertyOp40
 70
     1
102
RTVSPropertyOp41
 70
     1
102
RTVSPropertyOp42
 70
     1
102
RTVSPropertyOp43
 70
     1
102
RTVSPropertyOp44
 70
     1
102
RTVSPropertyOp45
 70
     1
102
RTVSPropertyOp46
 70
     1
102
RTVSPropertyOp47
 70
     1
102
RTVSPropertyOp48
 70
     1
102
RTVSPropertyOp49
 70
     1
102
RTVSPropertyOp50
 70
     1
102
RTVSPropertyOp51
 70
     0
102
RTVSPropertyOp52
 70
     0
102
RTVSPropertyOp53
 70
     1
102
RTVSPropertyOp54
 70
     1
102
RTVSPropertyOp55
 70
     1
102
RTVSPropertyOp56
 70
     1
102
RTVSPropertyOp57
 70
     1
102
RTVSPost2010Prop28
280
     0
102
RTVSPost2010PropOp28
 70
     1
102
RTVSPost2010Prop29
280
     1
102
RTVSPost2010PropOp29
 70
     1
102
RTVSPost2010Prop30
280
     1
102
RTVSPost2010PropOp30
 70
     1
102
RTVSPost2010Prop31
280
     0
102
RTVSPost2010PropOp31
 70
     1
102
RTVSPost2010Prop32
280
     0
102
RTVSPost2010PropOp32
 70
     1
102
RTVSPost2010Prop33
280
     0
102
RTVSPost2010PropOp33
 70
     1
102
RTVSPost2010Prop34
280
     0
102
RTVSPost2010PropOp34
 70
     1
102
RTVSPost2010Prop35
280
     0
102
RTVSPost2010PropOp35
 70
     1
102
RTVSPost2010Prop36
280
     0
102
RTVSPost2010PropOp36
 70
     1
102
RTVSPost2010Prop37
 90
       50
102
RTVSPost2010PropOp37
 70
     1
102
RTVSPost2010Prop38
140
0.0
102
RTVSPost2010PropOp38
 70
     1
102
RTVSPost2010Prop39
140
1.0
102
RTVSPost2010PropOp39
 70
     1
102
RTVSPost2010Prop40
 90
        0
102
RTVSPost2010PropOp40
 70
     1
102
RTVSPost2010Prop41ColorIndex
 90
       18
102
RTVSPost2010Prop41ColorRGB
 90
        0
102
RTVSPost2010PropOp41
 70
     1
102
RTVSPost2010Prop42
 90
       50
102
RTVSPost2010PropOp42
 70
     1
102
RTVSPost2010Prop43
 90
        3
102
RTVSPost2010PropOp43
 70
     1
102
RTVSPost2010Prop44ColorIndex
 90
        5
102
RTVSPost2010Prop44ColorRGB
 90
      255
102
RTVSPost2010PropOp44
 70
     1
102
RTVSPost2010Prop45
280
     0
102
RTVSPost2010PropOp45
 70
     1
102
RTVSPost2010Prop46
 90
       50
102
RTVSPost2010PropOp46
 70
     1
102
RTVSPost2010Prop47
 90
       50
102
RTVSPost2010PropOp47
 70
     1
102
RTVSPost2010Prop48
 90
       50
102
RTVSPost2010PropOp48
 70
     1
102
RTVSPost2010Prop49
280
     0
102
RTVSPost2010PropOp49
 70
     1
102
RTVSPost2010Prop50
 90
       50
102
RTVSPost2010PropOp50
 70
     1
102
RTVSPost2010Prop51ColorIndex
 90
      256
102
RTVSPost2010Prop51ColorRGB
 90
-16777216
102
RTVSPost2010PropOp51
 70
     0
102
RTVSPost2010Prop52
140
1.0
102
RTVSPost2010PropOp52
 70
     0
102
RTVSPost2010Prop53
 90
        2
102
RTVSPost2010PropOp53
 70
     1
102
RTVSPost2010Prop54
  1
strokes_ogs.tif
102
RTVSPost2010PropOp54
 70
     1
102
RTVSPost2010Prop55
280
     0
102
RTVSPost2010PropOp55
 70
     1
102
RTVSPost2010Prop56
140
1.0
102
RTVSPost2010PropOp56
 70
     1
102
RTVSPost2010Prop57
140
1.0
102
RTVSPost2010PropOp57
 70
     1
  0
XRECORD
  5
268
102
{ACAD_REACTORS
330
267
102
}
330
267
100
AcDbXrecord
280
     1
102
RTVSPropertyOp0
 70
     1
102
RTVSPropertyOp1
 70
     1
102
RTVSPropertyOp2
 70
     1
102
RTVSPropertyOp3
 70
     1
102
RTVSPropertyOp4
 70
     1
102
RTVSPropertyOp5
 70
     1
102
RTVSPropertyOp6
 70
     1
102
RTVSPropertyOp7
 70
     1
102
RTVSPropertyOp8
 70
     1
102
RTVSPropertyOp9
 70
     1
102
RTVSPropertyOp10
 70
     1
102
RTVSPropertyOp11
 70
     1
102
RTVSPropertyOp12
 70
     1
102
RTVSPropertyOp13
 70
     1
102
RTVSPropertyOp14
 70
     1
102
RTVSPropertyOp15
 70
     1
102
RTVSPropertyOp16
 70
     1
102
RTVSPropertyOp17
 70
     1
102
RTVSPropertyOp18
 70
     1
102
RTVSPropertyOp19
 70
     1
102
RTVSPropertyOp20
 70
     1
102
RTVSPropertyOp21
 70
     1
102
RTVSPropertyOp22
 70
     1
102
RTVSPropertyOp23
 70
     1
102
RTVSPropertyOp24
 70
     1
102
RTVSPropertyOp25
 70
     1
102
RTVSPropertyOp26
 70
     1
102
RTVSPropertyOp27
 70
     1
102
RTVSPropertyOp28
 70
     1
102
RTVSPropertyOp29
 70
     1
102
RTVSPropertyOp30
 70
     1
102
RTVSPropertyOp31
 70
     1
102
RTVSPropertyOp32
 70
     1
102
RTVSPropertyOp33
 70
     1
102
RTVSPropertyOp34
 70
     1
102
RTVSPropertyOp35
 70
     1
102
RTVSPropertyOp36
 70
     1
102
RTVSPropertyOp37
 70
     1
102
RTVSPropertyOp38
 70
     1
102
RTVSPropertyOp39
 70
     1
102
RTVSPropertyOp40
 70
     1
102
RTVSPropertyOp41
 70
     1
102
RTVSPropertyOp42
 70
     1
102
RTVSPropertyOp43
 70
     1
102
RTVSPropertyOp44
 70
     1
102
RTVSPropertyOp45
 70
     1
102
RTVSPropertyOp46
 70
     1
102
RTVSPropertyOp47
 70
     1
102
RTVSPropertyOp48
 70
     1
102
RTVSPropertyOp49
 70
     1
102
RTVSPropertyOp50
 70
     1
102
RTVSPropertyOp51
 70
     0
102
RTVSPropertyOp52
 70
     0
102
RTVSPropertyOp53
 70
     1
102
RTVSPropertyOp54
 70
     1
102
RTVSPropertyOp55
 70
     1
102
RTVSPropertyOp56
 70
     1
102
RTVSPropertyOp57
 70
     1
102
RTVSPost2010Prop28
280
     0
102
RTVSPost2010PropOp28
 70
     1
102
RTVSPost2010Prop29
280
     1
102
RTVSPost2010PropOp29
 70
     1
102
RTVSPost2010Prop30
280
     1
102
RTVSPost2010PropOp30
 70
     1
102
RTVSPost2010Prop31
280
     0
102
RTVSPost2010PropOp31
 70
     1
102
RTVSPost2010Prop32
280
     0
102
RTVSPost2010PropOp32
 70
     1
102
RTVSPost2010Prop33
280
     0
102
RTVSPost2010PropOp33
 70
     1
102
RTVSPost2010Prop34
280
     0
102
RTVSPost2010PropOp34
 70
     1
102
RTVSPost2010Prop35
280
     0
102
RTVSPost2010PropOp35
 70
     1
102
RTVSPost2010Prop36
280
     0
102
RTVSPost2010PropOp36
 70
     1
102
RTVSPost2010Prop37
 90
       50
102
RTVSPost2010PropOp37
 70
     1
102
RTVSPost2010Prop38
140
0.0
102
RTVSPost2010PropOp38
 70
     1
102
RTVSPost2010Prop39
140
1.0
102
RTVSPost2010PropOp39
 70
     1
102
RTVSPost2010Prop40
 90
        0
102
RTVSPost2010PropOp40
 70
     1
102
RTVSPost2010Prop41ColorIndex
 90
       18
102
RTVSPost2010Prop41ColorRGB
 90
        0
102
RTVSPost2010PropOp41
 70
     1
102
RTVSPost2010Prop42
 90
       50
102
RTVSPost2010PropOp42
 70
     1
102
RTVSPost2010Prop43
 90
        3
102
RTVSPost2010PropOp43
 70
     1
102
RTVSPost2010Prop44ColorIndex
 90
        5
102
RTVSPost2010Prop44ColorRGB
 90
      255
102
RTVSPost2010PropOp44
 70
     1
102
RTVSPost2010Prop45
280
     0
102
RTVSPost2010PropOp45
 70
     1
102
RTVSPost2010Prop46
 90
       50
102
RTVSPost2010PropOp46
 70
     1
102
RTVSPost2010Prop47
 90
       50
102
RTVSPost2010PropOp47
 70
     1
102
RTVSPost2010Prop48
 90
       50
102
RTVSPost2010PropOp48
 70
     1
102
RTVSPost2010Prop49
280
     0
102
RTVSPost2010PropOp49
 70
     1
102
RTVSPost2010Prop50
 90
       50
102
RTVSPost2010PropOp50
 70
     1
102
RTVSPost2010Prop51ColorIndex
 90
      256
102
RTVSPost2010Prop51ColorRGB
 90
-16777216
102
RTVSPost2010PropOp51
 70
     0
102
RTVSPost2010Prop52
140
1.0
102
RTVSPost2010PropOp52
 70
     0
102
RTVSPost2010Prop53
 90
        2
102
RTVSPost2010PropOp53
 70
     1
102
RTVSPost2010Prop54
  1
strokes_ogs.tif
102
RTVSPost2010PropOp54
 70
     1
102
RTVSPost2010Prop55
280
     0
102
RTVSPost2010PropOp55
 70
     1
102
RTVSPost2010Prop56
140
1.0
102
RTVSPost2010PropOp56
 70
     1
102
RTVSPost2010Prop57
140
1.0
102
RTVSPost2010PropOp57
 70
     1
  0
XRECORD
  5
26C
102
{ACAD_REACTORS
330
26B
102
}
330
26B
100
AcDbXrecord
280
     1
102
RTVSPropertyOp0
 70
     1
102
RTVSPropertyOp1
 70
     1
102
RTVSPropertyOp2
 70
     1
102
RTVSPropertyOp3
 70
     1
102
RTVSPropertyOp4
 70
     1
102
RTVSPropertyOp5
 70
     1
102
RTVSPropertyOp6
 70
     1
102
RTVSPropertyOp7
 70
     1
102
RTVSPropertyOp8
 70
     1
102
RTVSPropertyOp9
 70
     1
102
RTVSPropertyOp10
 70
     1
102
RTVSPropertyOp11
 70
     1
102
RTVSPropertyOp12
 70
     1
102
RTVSPropertyOp13
 70
     1
102
RTVSPropertyOp14
 70
     1
102
RTVSPropertyOp15
 70
     1
102
RTVSPropertyOp16
 70
     1
102
RTVSPropertyOp17
 70
     1
102
RTVSPropertyOp18
 70
     1
102
RTVSPropertyOp19
 70
     1
102
RTVSPropertyOp20
 70
     1
102
RTVSPropertyOp21
 70
     1
102
RTVSPropertyOp22
 70
     1
102
RTVSPropertyOp23
 70
     1
102
RTVSPropertyOp24
 70
     1
102
RTVSPropertyOp25
 70
     1
102
RTVSPropertyOp26
 70
     1
102
RTVSPropertyOp27
 70
     1
102
RTVSPropertyOp28
 70
     1
102
RTVSPropertyOp29
 70
     1
102
RTVSPropertyOp30
 70
     1
102
RTVSPropertyOp31
 70
     1
102
RTVSPropertyOp32
 70
     1
102
RTVSPropertyOp33
 70
     1
102
RTVSPropertyOp34
 70
     1
102
RTVSPropertyOp35
 70
     1
102
RTVSPropertyOp36
 70
     1
102
RTVSPropertyOp37
 70
     1
102
RTVSPropertyOp38
 70
     1
102
RTVSPropertyOp39
 70
     1
102
RTVSPropertyOp40
 70
     1
102
RTVSPropertyOp41
 70
     1
102
RTVSPropertyOp42
 70
     1
102
RTVSPropertyOp43
 70
     1
102
RTVSPropertyOp44
 70
     1
102
RTVSPropertyOp45
 70
     1
102
RTVSPropertyOp46
 70
     1
102
RTVSPropertyOp47
 70
     1
102
RTVSPropertyOp48
 70
     1
102
RTVSPropertyOp49
 70
     1
102
RTVSPropertyOp50
 70
     1
102
RTVSPropertyOp51
 70
     0
102
RTVSPropertyOp52
 70
     0
102
RTVSPropertyOp53
 70
     1
102
RTVSPropertyOp54
 70
     1
102
RTVSPropertyOp55
 70
     1
102
RTVSPropertyOp56
 70
     1
102
RTVSPropertyOp57
 70
     1
102
RTVSPost2010Prop28
280
     0
102
RTVSPost2010PropOp28
 70
     1
102
RTVSPost2010Prop29
280
     1
102
RTVSPost2010PropOp29
 70
     1
102
RTVSPost2010Prop30
280
     1
102
RTVSPost2010PropOp30
 70
     1
102
RTVSPost2010Prop31
280
     0
102
RTVSPost2010PropOp31
 70
     1
102
RTVSPost2010Prop32
280
     0
102
RTVSPost2010PropOp32
 70
     1
102
RTVSPost2010Prop33
280
     0
102
RTVSPost2010PropOp33
 70
     1
102
RTVSPost2010Prop34
280
     0
102
RTVSPost2010PropOp34
 70
     1
102
RTVSPost2010Prop35
280
     0
102
RTVSPost2010PropOp35
 70
     1
102
RTVSPost2010Prop36
280
     0
102
RTVSPost2010PropOp36
 70
     1
102
RTVSPost2010Prop37
 90
       50
102
RTVSPost2010PropOp37
 70
     1
102
RTVSPost2010Prop38
140
0.0
102
RTVSPost2010PropOp38
 70
     1
102
RTVSPost2010Prop39
140
1.0
102
RTVSPost2010PropOp39
 70
     1
102
RTVSPost2010Prop40
 90
        0
102
RTVSPost2010PropOp40
 70
     1
102
RTVSPost2010Prop41ColorIndex
 90
       18
102
RTVSPost2010Prop41ColorRGB
 90
        0
102
RTVSPost2010PropOp41
 70
     1
102
RTVSPost2010Prop42
 90
       50
102
RTVSPost2010PropOp42
 70
     1
102
RTVSPost2010Prop43
 90
        3
102
RTVSPost2010PropOp43
 70
     1
102
RTVSPost2010Prop44ColorIndex
 90
        5
102
RTVSPost2010Prop44ColorRGB
 90
      255
102
RTVSPost2010PropOp44
 70
     1
102
RTVSPost2010Prop45
280
     0
102
RTVSPost2010PropOp45
 70
     1
102
RTVSPost2010Prop46
 90
       50
102
RTVSPost2010PropOp46
 70
     1
102
RTVSPost2010Prop47
 90
       50
102
RTVSPost2010PropOp47
 70
     1
102
RTVSPost2010Prop48
 90
       50
102
RTVSPost2010PropOp48
 70
     1
102
RTVSPost2010Prop49
280
     0
102
RTVSPost2010PropOp49
 70
     1
102
RTVSPost2010Prop50
 90
       50
102
RTVSPost2010PropOp50
 70
     1
102
RTVSPost2010Prop51ColorIndex
 90
      256
102
RTVSPost2010Prop51ColorRGB
 90
-16777216
102
RTVSPost2010PropOp51
 70
     0
102
RTVSPost2010Prop52
140
1.0
102
RTVSPost2010PropOp52
 70
     0
102
RTVSPost2010Prop53
 90
        2
102
RTVSPost2010PropOp53
 70
     1
102
RTVSPost2010Prop54
  1
strokes_ogs.tif
102
RTVSPost2010PropOp54
 70
     1
102
RTVSPost2010Prop55
280
     0
102
RTVSPost2010PropOp55
 70
     1
102
RTVSPost2010Prop56
140
1.0
102
RTVSPost2010PropOp56
 70
     1
102
RTVSPost2010Prop57
140
1.0
102
RTVSPost2010PropOp57
 70
     1
  0
XRECORD
  5
274
102
{ACAD_REACTORS
330
273
102
}
330
273
100
AcDbXrecord
280
     1
102
RTVSPropertyOp0
 70
     1
102
RTVSPropertyOp1
 70
     1
102
RTVSPropertyOp2
 70
     1
102
RTVSPropertyOp3
 70
     1
102
RTVSPropertyOp4
 70
     1
102
RTVSPropertyOp5
 70
     1
102
RTVSPropertyOp6
 70
     1
102
RTVSPropertyOp7
 70
     1
102
RTVSPropertyOp8
 70
     1
102
RTVSPropertyOp9
 70
     1
102
RTVSPropertyOp10
 70
     1
102
RTVSPropertyOp11
 70
     1
102
RTVSPropertyOp12
 70
     1
102
RTVSPropertyOp13
 70
     1
102
RTVSPropertyOp14
 70
     1
102
RTVSPropertyOp15
 70
     1
102
RTVSPropertyOp16
 70
     1
102
RTVSPropertyOp17
 70
     1
102
RTVSPropertyOp18
 70
     1
102
RTVSPropertyOp19
 70
     1
102
RTVSPropertyOp20
 70
     1
102
RTVSPropertyOp21
 70
     1
102
RTVSPropertyOp22
 70
     1
102
RTVSPropertyOp23
 70
     1
102
RTVSPropertyOp24
 70
     1
102
RTVSPropertyOp25
 70
     1
102
RTVSPropertyOp26
 70
     1
102
RTVSPropertyOp27
 70
     1
102
RTVSPropertyOp28
 70
     1
102
RTVSPropertyOp29
 70
     1
102
RTVSPropertyOp30
 70
     1
102
RTVSPropertyOp31
 70
     1
102
RTVSPropertyOp32
 70
     1
102
RTVSPropertyOp33
 70
     1
102
RTVSPropertyOp34
 70
     1
102
RTVSPropertyOp35
 70
     1
102
RTVSPropertyOp36
 70
     1
102
RTVSPropertyOp37
 70
     1
102
RTVSPropertyOp38
 70
     1
102
RTVSPropertyOp39
 70
     1
102
RTVSPropertyOp40
 70
     1
102
RTVSPropertyOp41
 70
     1
102
RTVSPropertyOp42
 70
     1
102
RTVSPropertyOp43
 70
     1
102
RTVSPropertyOp44
 70
     1
102
RTVSPropertyOp45
 70
     1
102
RTVSPropertyOp46
 70
     1
102
RTVSPropertyOp47
 70
     1
102
RTVSPropertyOp48
 70
     1
102
RTVSPropertyOp49
 70
     1
102
RTVSPropertyOp50
 70
     1
102
RTVSPropertyOp51
 70
     0
102
RTVSPropertyOp52
 70
     0
102
RTVSPropertyOp53
 70
     1
102
RTVSPropertyOp54
 70
     1
102
RTVSPropertyOp55
 70
     1
102
RTVSPropertyOp56
 70
     1
102
RTVSPropertyOp57
 70
     1
102
RTVSPost2010Prop28
280
     0
102
RTVSPost2010PropOp28
 70
     1
102
RTVSPost2010Prop29
280
     1
102
RTVSPost2010PropOp29
 70
     1
102
RTVSPost2010Prop30
280
     1
102
RTVSPost2010PropOp30
 70
     1
102
RTVSPost2010Prop31
280
     0
102
RTVSPost2010PropOp31
 70
     1
102
RTVSPost2010Prop32
280
     0
102
RTVSPost2010PropOp32
 70
     1
102
RTVSPost2010Prop33
280
     0
102
RTVSPost2010PropOp33
 70
     1
102
RTVSPost2010Prop34
280
     0
102
RTVSPost2010PropOp34
 70
     1
102
RTVSPost2010Prop35
280
     0
102
RTVSPost2010PropOp35
 70
     1
102
RTVSPost2010Prop36
280
     0
102
RTVSPost2010PropOp36
 70
     1
102
RTVSPost2010Prop37
 90
       50
102
RTVSPost2010PropOp37
 70
     1
102
RTVSPost2010Prop38
140
0.0
102
RTVSPost2010PropOp38
 70
     1
102
RTVSPost2010Prop39
140
1.0
102
RTVSPost2010PropOp39
 70
     1
102
RTVSPost2010Prop40
 90
        0
102
RTVSPost2010PropOp40
 70
     1
102
RTVSPost2010Prop41ColorIndex
 90
       18
102
RTVSPost2010Prop41ColorRGB
 90
        0
102
RTVSPost2010PropOp41
 70
     1
102
RTVSPost2010Prop42
 90
       50
102
RTVSPost2010PropOp42
 70
     1
102
RTVSPost2010Prop43
 90
        3
102
RTVSPost2010PropOp43
 70
     1
102
RTVSPost2010Prop44ColorIndex
 90
        5
102
RTVSPost2010Prop44ColorRGB
 90
      255
102
RTVSPost2010PropOp44
 70
     1
102
RTVSPost2010Prop45
280
     0
102
RTVSPost2010PropOp45
 70
     1
102
RTVSPost2010Prop46
 90
       50
102
RTVSPost2010PropOp46
 70
     1
102
RTVSPost2010Prop47
 90
       50
102
RTVSPost2010PropOp47
 70
     1
102
RTVSPost2010Prop48
 90
       50
102
RTVSPost2010PropOp48
 70
     1
102
RTVSPost2010Prop49
280
     0
102
RTVSPost2010PropOp49
 70
     1
102
RTVSPost2010Prop50
 90
       50
102
RTVSPost2010PropOp50
 70
     1
102
RTVSPost2010Prop51ColorIndex
 90
      256
102
RTVSPost2010Prop51ColorRGB
 90
-16777216
102
RTVSPost2010PropOp51
 70
     0
102
RTVSPost2010Prop52
140
1.0
102
RTVSPost2010PropOp52
 70
     0
102
RTVSPost2010Prop53
 90
        2
102
RTVSPost2010PropOp53
 70
     1
102
RTVSPost2010Prop54
  1
strokes_ogs.tif
102
RTVSPost2010PropOp54
 70
     1
102
RTVSPost2010Prop55
280
     0
102
RTVSPost2010PropOp55
 70
     1
102
RTVSPost2010Prop56
140
1.0
102
RTVSPost2010PropOp56
 70
     1
102
RTVSPost2010Prop57
140
1.0
102
RTVSPost2010PropOp57
 70
     1
  0
XRECORD
  5
27C
102
{ACAD_REACTORS
330
27B
102
}
330
27B
100
AcDbXrecord
280
     1
102
RTVSPropertyOp0
 70
     1
102
RTVSPropertyOp1
 70
     1
102
RTVSPropertyOp2
 70
     1
102
RTVSPropertyOp3
 70
     1
102
RTVSPropertyOp4
 70
     1
102
RTVSPropertyOp5
 70
     1
102
RTVSPropertyOp6
 70
     1
102
RTVSPropertyOp7
 70
     1
102
RTVSPropertyOp8
 70
     1
102
RTVSPropertyOp9
 70
     1
102
RTVSPropertyOp10
 70
     1
102
RTVSPropertyOp11
 70
     1
102
RTVSPropertyOp12
 70
     1
102
RTVSPropertyOp13
 70
     1
102
RTVSPropertyOp14
 70
     1
102
RTVSPropertyOp15
 70
     1
102
RTVSPropertyOp16
 70
     1
102
RTVSPropertyOp17
 70
     1
102
RTVSPropertyOp18
 70
     1
102
RTVSPropertyOp19
 70
     1
102
RTVSPropertyOp20
 70
     1
102
RTVSPropertyOp21
 70
     1
102
RTVSPropertyOp22
 70
     1
102
RTVSPropertyOp23
 70
     1
102
RTVSPropertyOp24
 70
     1
102
RTVSPropertyOp25
 70
     1
102
RTVSPropertyOp26
 70
     1
102
RTVSPropertyOp27
 70
     1
102
RTVSPropertyOp28
 70
     1
102
RTVSPropertyOp29
 70
     1
102
RTVSPropertyOp30
 70
     1
102
RTVSPropertyOp31
 70
     1
102
RTVSPropertyOp32
 70
     1
102
RTVSPropertyOp33
 70
     1
102
RTVSPropertyOp34
 70
     1
102
RTVSPropertyOp35
 70
     1
102
RTVSPropertyOp36
 70
     1
102
RTVSPropertyOp37
 70
     1
102
RTVSPropertyOp38
 70
     1
102
RTVSPropertyOp39
 70
     1
102
RTVSPropertyOp40
 70
     1
102
RTVSPropertyOp41
 70
     1
102
RTVSPropertyOp42
 70
     1
102
RTVSPropertyOp43
 70
     1
102
RTVSPropertyOp44
 70
     1
102
RTVSPropertyOp45
 70
     1
102
RTVSPropertyOp46
 70
     1
102
RTVSPropertyOp47
 70
     1
102
RTVSPropertyOp48
 70
     1
102
RTVSPropertyOp49
 70
     1
102
RTVSPropertyOp50
 70
     1
102
RTVSPropertyOp51
 70
     0
102
RTVSPropertyOp52
 70
     0
102
RTVSPropertyOp53
 70
     1
102
RTVSPropertyOp54
 70
     1
102
RTVSPropertyOp55
 70
     1
102
RTVSPropertyOp56
 70
     1
102
RTVSPropertyOp57
 70
     1
102
RTVSPost2010Prop28
280
     0
102
RTVSPost2010PropOp28
 70
     1
102
RTVSPost2010Prop29
280
     1
102
RTVSPost2010PropOp29
 70
     1
102
RTVSPost2010Prop30
280
     1
102
RTVSPost2010PropOp30
 70
     1
102
RTVSPost2010Prop31
280
     0
102
RTVSPost2010PropOp31
 70
     1
102
RTVSPost2010Prop32
280
     0
102
RTVSPost2010PropOp32
 70
     1
102
RTVSPost2010Prop33
280
     0
102
RTVSPost2010PropOp33
 70
     1
102
RTVSPost2010Prop34
280
     0
102
RTVSPost2010PropOp34
 70
     1
102
RTVSPost2010Prop35
280
     0
102
RTVSPost2010PropOp35
 70
     1
102
RTVSPost2010Prop36
280
     0
102
RTVSPost2010PropOp36
 70
     1
102
RTVSPost2010Prop37
 90
       50
102
RTVSPost2010PropOp37
 70
     1
102
RTVSPost2010Prop38
140
0.0
102
RTVSPost2010PropOp38
 70
     1
102
RTVSPost2010Prop39
140
1.0
102
RTVSPost2010PropOp39
 70
     1
102
RTVSPost2010Prop40
 90
        0
102
RTVSPost2010PropOp40
 70
     1
102
RTVSPost2010Prop41ColorIndex
 90
       18
102
RTVSPost2010Prop41ColorRGB
 90
        0
102
RTVSPost2010PropOp41
 70
     1
102
RTVSPost2010Prop42
 90
       50
102
RTVSPost2010PropOp42
 70
     1
102
RTVSPost2010Prop43
 90
        3
102
RTVSPost2010PropOp43
 70
     1
102
RTVSPost2010Prop44ColorIndex
 90
        5
102
RTVSPost2010Prop44ColorRGB
 90
      255
102
RTVSPost2010PropOp44
 70
     1
102
RTVSPost2010Prop45
280
     0
102
RTVSPost2010PropOp45
 70
     1
102
RTVSPost2010Prop46
 90
       50
102
RTVSPost2010PropOp46
 70
     1
102
RTVSPost2010Prop47
 90
       50
102
RTVSPost2010PropOp47
 70
     1
102
RTVSPost2010Prop48
 90
       50
102
RTVSPost2010PropOp48
 70
     1
102
RTVSPost2010Prop49
280
     0
102
RTVSPost2010PropOp49
 70
     1
102
RTVSPost2010Prop50
 90
       50
102
RTVSPost2010PropOp50
 70
     1
102
RTVSPost2010Prop51ColorIndex
 90
      256
102
RTVSPost2010Prop51ColorRGB
 90
-16777216
102
RTVSPost2010PropOp51
 70
     0
102
RTVSPost2010Prop52
140
1.0
102
RTVSPost2010PropOp52
 70
     0
102
RTVSPost2010Prop53
 90
        2
102
RTVSPost2010PropOp53
 70
     1
102
RTVSPost2010Prop54
  1
strokes_ogs.tif
102
RTVSPost2010PropOp54
 70
     1
102
RTVSPost2010Prop55
280
     0
102
RTVSPost2010PropOp55
 70
     1
102
RTVSPost2010Prop56
140
1.0
102
RTVSPost2010PropOp56
 70
     1
102
RTVSPost2010Prop57
140
1.0
102
RTVSPost2010PropOp57
 70
     1
  0
XRECORD
  5
270
102
{ACAD_REACTORS
330
26F
102
}
330
26F
100
AcDbXrecord
280
     1
102
RTVSPropertyOp0
 70
     1
102
RTVSPropertyOp1
 70
     1
102
RTVSPropertyOp2
 70
     1
102
RTVSPropertyOp3
 70
     1
102
RTVSPropertyOp4
 70
     1
102
RTVSPropertyOp5
 70
     1
102
RTVSPropertyOp6
 70
     1
102
RTVSPropertyOp7
 70
     1
102
RTVSPropertyOp8
 70
     1
102
RTVSPropertyOp9
 70
     1
102
RTVSPropertyOp10
 70
     1
102
RTVSPropertyOp11
 70
     1
102
RTVSPropertyOp12
 70
     1
102
RTVSPropertyOp13
 70
     1
102
RTVSPropertyOp14
 70
     1
102
RTVSPropertyOp15
 70
     1
102
RTVSPropertyOp16
 70
     1
102
RTVSPropertyOp17
 70
     1
102
RTVSPropertyOp18
 70
     1
102
RTVSPropertyOp19
 70
     1
102
RTVSPropertyOp20
 70
     1
102
RTVSPropertyOp21
 70
     1
102
RTVSPropertyOp22
 70
     1
102
RTVSPropertyOp23
 70
     1
102
RTVSPropertyOp24
 70
     1
102
RTVSPropertyOp25
 70
     1
102
RTVSPropertyOp26
 70
     1
102
RTVSPropertyOp27
 70
     1
102
RTVSPropertyOp28
 70
     1
102
RTVSPropertyOp29
 70
     1
102
RTVSPropertyOp30
 70
     1
102
RTVSPropertyOp31
 70
     1
102
RTVSPropertyOp32
 70
     1
102
RTVSPropertyOp33
 70
     1
102
RTVSPropertyOp34
 70
     1
102
RTVSPropertyOp35
 70
     1
102
RTVSPropertyOp36
 70
     1
102
RTVSPropertyOp37
 70
     1
102
RTVSPropertyOp38
 70
     1
102
RTVSPropertyOp39
 70
     1
102
RTVSPropertyOp40
 70
     1
102
RTVSPropertyOp41
 70
     1
102
RTVSPropertyOp42
 70
     1
102
RTVSPropertyOp43
 70
     1
102
RTVSPropertyOp44
 70
     1
102
RTVSPropertyOp45
 70
     1
102
RTVSPropertyOp46
 70
     1
102
RTVSPropertyOp47
 70
     1
102
RTVSPropertyOp48
 70
     1
102
RTVSPropertyOp49
 70
     1
102
RTVSPropertyOp50
 70
     1
102
RTVSPropertyOp51
 70
     0
102
RTVSPropertyOp52
 70
     0
102
RTVSPropertyOp53
 70
     1
102
RTVSPropertyOp54
 70
     1
102
RTVSPropertyOp55
 70
     1
102
RTVSPropertyOp56
 70
     1
102
RTVSPropertyOp57
 70
     1
102
RTVSPost2010Prop28
280
     0
102
RTVSPost2010PropOp28
 70
     1
102
RTVSPost2010Prop29
280
     1
102
RTVSPost2010PropOp29
 70
     1
102
RTVSPost2010Prop30
280
     1
102
RTVSPost2010PropOp30
 70
     1
102
RTVSPost2010Prop31
280
     0
102
RTVSPost2010PropOp31
 70
     1
102
RTVSPost2010Prop32
280
     0
102
RTVSPost2010PropOp32
 70
     1
102
RTVSPost2010Prop33
280
     0
102
RTVSPost2010PropOp33
 70
     1
102
RTVSPost2010Prop34
280
     0
102
RTVSPost2010PropOp34
 70
     1
102
RTVSPost2010Prop35
280
     0
102
RTVSPost2010PropOp35
 70
     1
102
RTVSPost2010Prop36
280
     0
102
RTVSPost2010PropOp36
 70
     1
102
RTVSPost2010Prop37
 90
       50
102
RTVSPost2010PropOp37
 70
     1
102
RTVSPost2010Prop38
140
0.0
102
RTVSPost2010PropOp38
 70
     1
102
RTVSPost2010Prop39
140
1.0
102
RTVSPost2010PropOp39
 70
     1
102
RTVSPost2010Prop40
 90
        0
102
RTVSPost2010PropOp40
 70
     1
102
RTVSPost2010Prop41ColorIndex
 90
       18
102
RTVSPost2010Prop41ColorRGB
 90
        0
102
RTVSPost2010PropOp41
 70
     1
102
RTVSPost2010Prop42
 90
       50
102
RTVSPost2010PropOp42
 70
     1
102
RTVSPost2010Prop43
 90
        3
102
RTVSPost2010PropOp43
 70
     1
102
RTVSPost2010Prop44ColorIndex
 90
        5
102
RTVSPost2010Prop44ColorRGB
 90
      255
102
RTVSPost2010PropOp44
 70
     1
102
RTVSPost2010Prop45
280
     0
102
RTVSPost2010PropOp45
 70
     1
102
RTVSPost2010Prop46
 90
       50
102
RTVSPost2010PropOp46
 70
     1
102
RTVSPost2010Prop47
 90
       50
102
RTVSPost2010PropOp47
 70
     1
102
RTVSPost2010Prop48
 90
       50
102
RTVSPost2010PropOp48
 70
     1
102
RTVSPost2010Prop49
280
     0
102
RTVSPost2010PropOp49
 70
     1
102
RTVSPost2010Prop50
 90
       50
102
RTVSPost2010PropOp50
 70
     1
102
RTVSPost2010Prop51ColorIndex
 90
      256
102
RTVSPost2010Prop51ColorRGB
 90
-16777216
102
RTVSPost2010PropOp51
 70
     0
102
RTVSPost2010Prop52
140
1.0
102
RTVSPost2010PropOp52
 70
     0
102
RTVSPost2010Prop53
 90
        2
102
RTVSPost2010PropOp53
 70
     1
102
RTVSPost2010Prop54
  1
strokes_ogs.tif
102
RTVSPost2010PropOp54
 70
     1
102
RTVSPost2010Prop55
280
     0
102
RTVSPost2010PropOp55
 70
     1
102
RTVSPost2010Prop56
140
1.0
102
RTVSPost2010PropOp56
 70
     1
102
RTVSPost2010Prop57
140
1.0
102
RTVSPost2010PropOp57
 70
     1
  0
XRECORD
  5
272
102
{ACAD_REACTORS
330
271
102
}
330
271
100
AcDbXrecord
280
     1
102
RTVSPropertyOp0
 70
     1
102
RTVSPropertyOp1
 70
     1
102
RTVSPropertyOp2
 70
     1
102
RTVSPropertyOp3
 70
     1
102
RTVSPropertyOp4
 70
     1
102
RTVSPropertyOp5
 70
     1
102
RTVSPropertyOp6
 70
     1
102
RTVSPropertyOp7
 70
     1
102
RTVSPropertyOp8
 70
     1
102
RTVSPropertyOp9
 70
     1
102
RTVSPropertyOp10
 70
     1
102
RTVSPropertyOp11
 70
     1
102
RTVSPropertyOp12
 70
     1
102
RTVSPropertyOp13
 70
     1
102
RTVSPropertyOp14
 70
     1
102
RTVSPropertyOp15
 70
     1
102
RTVSPropertyOp16
 70
     1
102
RTVSPropertyOp17
 70
     1
102
RTVSPropertyOp18
 70
     1
102
RTVSPropertyOp19
 70
     1
102
RTVSPropertyOp20
 70
     1
102
RTVSPropertyOp21
 70
     1
102
RTVSPropertyOp22
 70
     1
102
RTVSPropertyOp23
 70
     1
102
RTVSPropertyOp24
 70
     1
102
RTVSPropertyOp25
 70
     1
102
RTVSPropertyOp26
 70
     1
102
RTVSPropertyOp27
 70
     1
102
RTVSPropertyOp28
 70
     1
102
RTVSPropertyOp29
 70
     1
102
RTVSPropertyOp30
 70
     1
102
RTVSPropertyOp31
 70
     1
102
RTVSPropertyOp32
 70
     1
102
RTVSPropertyOp33
 70
     1
102
RTVSPropertyOp34
 70
     1
102
RTVSPropertyOp35
 70
     1
102
RTVSPropertyOp36
 70
     1
102
RTVSPropertyOp37
 70
     1
102
RTVSPropertyOp38
 70
     1
102
RTVSPropertyOp39
 70
     1
102
RTVSPropertyOp40
 70
     1
102
RTVSPropertyOp41
 70
     1
102
RTVSPropertyOp42
 70
     1
102
RTVSPropertyOp43
 70
     1
102
RTVSPropertyOp44
 70
     1
102
RTVSPropertyOp45
 70
     1
102
RTVSPropertyOp46
 70
     1
102
RTVSPropertyOp47
 70
     1
102
RTVSPropertyOp48
 70
     1
102
RTVSPropertyOp49
 70
     1
102
RTVSPropertyOp50
 70
     1
102
RTVSPropertyOp51
 70
     0
102
RTVSPropertyOp52
 70
     0
102
RTVSPropertyOp53
 70
     1
102
RTVSPropertyOp54
 70
     1
102
RTVSPropertyOp55
 70
     1
102
RTVSPropertyOp56
 70
     1
102
RTVSPropertyOp57
 70
     1
102
RTVSPost2010Prop28
280
     0
102
RTVSPost2010PropOp28
 70
     1
102
RTVSPost2010Prop29
280
     1
102
RTVSPost2010PropOp29
 70
     1
102
RTVSPost2010Prop30
280
     1
102
RTVSPost2010PropOp30
 70
     1
102
RTVSPost2010Prop31
280
     0
102
RTVSPost2010PropOp31
 70
     1
102
RTVSPost2010Prop32
280
     0
102
RTVSPost2010PropOp32
 70
     1
102
RTVSPost2010Prop33
280
     0
102
RTVSPost2010PropOp33
 70
     1
102
RTVSPost2010Prop34
280
     0
102
RTVSPost2010PropOp34
 70
     1
102
RTVSPost2010Prop35
280
     0
102
RTVSPost2010PropOp35
 70
     1
102
RTVSPost2010Prop36
280
     0
102
RTVSPost2010PropOp36
 70
     1
102
RTVSPost2010Prop37
 90
       50
102
RTVSPost2010PropOp37
 70
     1
102
RTVSPost2010Prop38
140
0.0
102
RTVSPost2010PropOp38
 70
     1
102
RTVSPost2010Prop39
140
1.0
102
RTVSPost2010PropOp39
 70
     1
102
RTVSPost2010Prop40
 90
        0
102
RTVSPost2010PropOp40
 70
     1
102
RTVSPost2010Prop41ColorIndex
 90
       18
102
RTVSPost2010Prop41ColorRGB
 90
        0
102
RTVSPost2010PropOp41
 70
     1
102
RTVSPost2010Prop42
 90
       50
102
RTVSPost2010PropOp42
 70
     1
102
RTVSPost2010Prop43
 90
        3
102
RTVSPost2010PropOp43
 70
     1
102
RTVSPost2010Prop44ColorIndex
 90
        5
102
RTVSPost2010Prop44ColorRGB
 90
      255
102
RTVSPost2010PropOp44
 70
     1
102
RTVSPost2010Prop45
280
     0
102
RTVSPost2010PropOp45
 70
     1
102
RTVSPost2010Prop46
 90
       50
102
RTVSPost2010PropOp46
 70
     1
102
RTVSPost2010Prop47
 90
       50
102
RTVSPost2010PropOp47
 70
     1
102
RTVSPost2010Prop48
 90
       50
102
RTVSPost2010PropOp48
 70
     1
102
RTVSPost2010Prop49
280
     0
102
RTVSPost2010PropOp49
 70
     1
102
RTVSPost2010Prop50
 90
       50
102
RTVSPost2010PropOp50
 70
     1
102
RTVSPost2010Prop51ColorIndex
 90
      256
102
RTVSPost2010Prop51ColorRGB
 90
-16777216
102
RTVSPost2010PropOp51
 70
     0
102
RTVSPost2010Prop52
140
1.0
102
RTVSPost2010PropOp52
 70
     0
102
RTVSPost2010Prop53
 90
        2
102
RTVSPost2010PropOp53
 70
     1
102
RTVSPost2010Prop54
  1
strokes_ogs.tif
102
RTVSPost2010PropOp54
 70
     1
102
RTVSPost2010Prop55
280
     0
102
RTVSPost2010PropOp55
 70
     1
102
RTVSPost2010Prop56
140
1.0
102
RTVSPost2010PropOp56
 70
     1
102
RTVSPost2010Prop57
140
1.0
102
RTVSPost2010PropOp57
 70
     1
  0
XRECORD
  5
27A
102
{ACAD_REACTORS
330
279
102
}
330
279
100
AcDbXrecord
280
     1
102
RTVSPropertyOp0
 70
     1
102
RTVSPropertyOp1
 70
     1
102
RTVSPropertyOp2
 70
     1
102
RTVSPropertyOp3
 70
     1
102
RTVSPropertyOp4
 70
     1
102
RTVSPropertyOp5
 70
     1
102
RTVSPropertyOp6
 70
     1
102
RTVSPropertyOp7
 70
     1
102
RTVSPropertyOp8
 70
     1
102
RTVSPropertyOp9
 70
     1
102
RTVSPropertyOp10
 70
     1
102
RTVSPropertyOp11
 70
     1
102
RTVSPropertyOp12
 70
     1
102
RTVSPropertyOp13
 70
     1
102
RTVSPropertyOp14
 70
     1
102
RTVSPropertyOp15
 70
     1
102
RTVSPropertyOp16
 70
     1
102
RTVSPropertyOp17
 70
     1
102
RTVSPropertyOp18
 70
     1
102
RTVSPropertyOp19
 70
     1
102
RTVSPropertyOp20
 70
     1
102
RTVSPropertyOp21
 70
     1
102
RTVSPropertyOp22
 70
     1
102
RTVSPropertyOp23
 70
     1
102
RTVSPropertyOp24
 70
     1
102
RTVSPropertyOp25
 70
     1
102
RTVSPropertyOp26
 70
     1
102
RTVSPropertyOp27
 70
     1
102
RTVSPropertyOp28
 70
     1
102
RTVSPropertyOp29
 70
     1
102
RTVSPropertyOp30
 70
     1
102
RTVSPropertyOp31
 70
     1
102
RTVSPropertyOp32
 70
     1
102
RTVSPropertyOp33
 70
     1
102
RTVSPropertyOp34
 70
     1
102
RTVSPropertyOp35
 70
     1
102
RTVSPropertyOp36
 70
     1
102
RTVSPropertyOp37
 70
     1
102
RTVSPropertyOp38
 70
     1
102
RTVSPropertyOp39
 70
     1
102
RTVSPropertyOp40
 70
     1
102
RTVSPropertyOp41
 70
     1
102
RTVSPropertyOp42
 70
     1
102
RTVSPropertyOp43
 70
     1
102
RTVSPropertyOp44
 70
     1
102
RTVSPropertyOp45
 70
     1
102
RTVSPropertyOp46
 70
     1
102
RTVSPropertyOp47
 70
     1
102
RTVSPropertyOp48
 70
     1
102
RTVSPropertyOp49
 70
     1
102
RTVSPropertyOp50
 70
     1
102
RTVSPropertyOp51
 70
     0
102
RTVSPropertyOp52
 70
     0
102
RTVSPropertyOp53
 70
     1
102
RTVSPropertyOp54
 70
     1
102
RTVSPropertyOp55
 70
     1
102
RTVSPropertyOp56
 70
     1
102
RTVSPropertyOp57
 70
     1
102
RTVSPost2010Prop28
280
     0
102
RTVSPost2010PropOp28
 70
     1
102
RTVSPost2010Prop29
280
     1
102
RTVSPost2010PropOp29
 70
     1
102
RTVSPost2010Prop30
280
     1
102
RTVSPost2010PropOp30
 70
     1
102
RTVSPost2010Prop31
280
     0
102
RTVSPost2010PropOp31
 70
     1
102
RTVSPost2010Prop32
280
     0
102
RTVSPost2010PropOp32
 70
     1
102
RTVSPost2010Prop33
280
     0
102
RTVSPost2010PropOp33
 70
     1
102
RTVSPost2010Prop34
280
     0
102
RTVSPost2010PropOp34
 70
     1
102
RTVSPost2010Prop35
280
     0
102
RTVSPost2010PropOp35
 70
     1
102
RTVSPost2010Prop36
280
     0
102
RTVSPost2010PropOp36
 70
     1
102
RTVSPost2010Prop37
 90
       50
102
RTVSPost2010PropOp37
 70
     1
102
RTVSPost2010Prop38
140
0.0
102
RTVSPost2010PropOp38
 70
     1
102
RTVSPost2010Prop39
140
1.0
102
RTVSPost2010PropOp39
 70
     1
102
RTVSPost2010Prop40
 90
        0
102
RTVSPost2010PropOp40
 70
     1
102
RTVSPost2010Prop41ColorIndex
 90
       18
102
RTVSPost2010Prop41ColorRGB
 90
        0
102
RTVSPost2010PropOp41
 70
     1
102
RTVSPost2010Prop42
 90
       50
102
RTVSPost2010PropOp42
 70
     1
102
RTVSPost2010Prop43
 90
        3
102
RTVSPost2010PropOp43
 70
     1
102
RTVSPost2010Prop44ColorIndex
 90
        5
102
RTVSPost2010Prop44ColorRGB
 90
      255
102
RTVSPost2010PropOp44
 70
     1
102
RTVSPost2010Prop45
280
     0
102
RTVSPost2010PropOp45
 70
     1
102
RTVSPost2010Prop46
 90
       50
102
RTVSPost2010PropOp46
 70
     1
102
RTVSPost2010Prop47
 90
       50
102
RTVSPost2010PropOp47
 70
     1
102
RTVSPost2010Prop48
 90
       50
102
RTVSPost2010PropOp48
 70
     1
102
RTVSPost2010Prop49
280
     0
102
RTVSPost2010PropOp49
 70
     1
102
RTVSPost2010Prop50
 90
       50
102
RTVSPost2010PropOp50
 70
     1
102
RTVSPost2010Prop51ColorIndex
 90
      256
102
RTVSPost2010Prop51ColorRGB
 90
-16777216
102
RTVSPost2010PropOp51
 70
     0
102
RTVSPost2010Prop52
140
1.0
102
RTVSPost2010PropOp52
 70
     0
102
RTVSPost2010Prop53
 90
        2
102
RTVSPost2010PropOp53
 70
     1
102
RTVSPost2010Prop54
  1
strokes_ogs.tif
102
RTVSPost2010PropOp54
 70
     1
102
RTVSPost2010Prop55
280
     0
102
RTVSPost2010PropOp55
 70
     1
102
RTVSPost2010Prop56
140
1.0
102
RTVSPost2010PropOp56
 70
     1
102
RTVSPost2010Prop57
140
1.0
102
RTVSPost2010PropOp57
 70
     1
  0
XRECORD
  5
25E
102
{ACAD_REACTORS
330
25D
102
}
330
25D
100
AcDbXrecord
280
     1
102
RTVSPropertyOp0
 70
     1
102
RTVSPropertyOp1
 70
     1
102
RTVSPropertyOp2
 70
     1
102
RTVSPropertyOp3
 70
     1
102
RTVSPropertyOp4
 70
     1
102
RTVSPropertyOp5
 70
     1
102
RTVSPropertyOp6
 70
     1
102
RTVSPropertyOp7
 70
     1
102
RTVSPropertyOp8
 70
     1
102
RTVSPropertyOp9
 70
     1
102
RTVSPropertyOp10
 70
     1
102
RTVSPropertyOp11
 70
     1
102
RTVSPropertyOp12
 70
     1
102
RTVSPropertyOp13
 70
     1
102
RTVSPropertyOp14
 70
     1
102
RTVSPropertyOp15
 70
     1
102
RTVSPropertyOp16
 70
     1
102
RTVSPropertyOp17
 70
     1
102
RTVSPropertyOp18
 70
     1
102
RTVSPropertyOp19
 70
     1
102
RTVSPropertyOp20
 70
     1
102
RTVSPropertyOp21
 70
     1
102
RTVSPropertyOp22
 70
     1
102
RTVSPropertyOp23
 70
     1
102
RTVSPropertyOp24
 70
     1
102
RTVSPropertyOp25
 70
     1
102
RTVSPropertyOp26
 70
     1
102
RTVSPropertyOp27
 70
     1
102
RTVSPropertyOp28
 70
     1
102
RTVSPropertyOp29
 70
     1
102
RTVSPropertyOp30
 70
     1
102
RTVSPropertyOp31
 70
     1
102
RTVSPropertyOp32
 70
     1
102
RTVSPropertyOp33
 70
     1
102
RTVSPropertyOp34
 70
     1
102
RTVSPropertyOp35
 70
     1
102
RTVSPropertyOp36
 70
     1
102
RTVSPropertyOp37
 70
     1
102
RTVSPropertyOp38
 70
     1
102
RTVSPropertyOp39
 70
     1
102
RTVSPropertyOp40
 70
     1
102
RTVSPropertyOp41
 70
     1
102
RTVSPropertyOp42
 70
     1
102
RTVSPropertyOp43
 70
     1
102
RTVSPropertyOp44
 70
     1
102
RTVSPropertyOp45
 70
     1
102
RTVSPropertyOp46
 70
     1
102
RTVSPropertyOp47
 70
     1
102
RTVSPropertyOp48
 70
     1
102
RTVSPropertyOp49
 70
     1
102
RTVSPropertyOp50
 70
     1
102
RTVSPropertyOp51
 70
     0
102
RTVSPropertyOp52
 70
     0
102
RTVSPropertyOp53
 70
     1
102
RTVSPropertyOp54
 70
     1
102
RTVSPropertyOp55
 70
     1
102
RTVSPropertyOp56
 70
     1
102
RTVSPropertyOp57
 70
     1
102
RTVSPost2010Prop28
280
     0
102
RTVSPost2010PropOp28
 70
     1
102
RTVSPost2010Prop29
280
     1
102
RTVSPost2010PropOp29
 70
     1
102
RTVSPost2010Prop30
280
     1
102
RTVSPost2010PropOp30
 70
     1
102
RTVSPost2010Prop31
280
     0
102
RTVSPost2010PropOp31
 70
     1
102
RTVSPost2010Prop32
280
     0
102
RTVSPost2010PropOp32
 70
     1
102
RTVSPost2010Prop33
280
     0
102
RTVSPost2010PropOp33
 70
     1
102
RTVSPost2010Prop34
280
     0
102
RTVSPost2010PropOp34
 70
     1
102
RTVSPost2010Prop35
280
     0
102
RTVSPost2010PropOp35
 70
     1
102
RTVSPost2010Prop36
280
     0
102
RTVSPost2010PropOp36
 70
     1
102
RTVSPost2010Prop37
 90
       50
102
RTVSPost2010PropOp37
 70
     1
102
RTVSPost2010Prop38
140
0.0
102
RTVSPost2010PropOp38
 70
     1
102
RTVSPost2010Prop39
140
1.0
102
RTVSPost2010PropOp39
 70
     1
102
RTVSPost2010Prop40
 90
        0
102
RTVSPost2010PropOp40
 70
     1
102
RTVSPost2010Prop41ColorIndex
 90
       18
102
RTVSPost2010Prop41ColorRGB
 90
        0
102
RTVSPost2010PropOp41
 70
     1
102
RTVSPost2010Prop42
 90
       50
102
RTVSPost2010PropOp42
 70
     1
102
RTVSPost2010Prop43
 90
        3
102
RTVSPost2010PropOp43
 70
     1
102
RTVSPost2010Prop44ColorIndex
 90
        5
102
RTVSPost2010Prop44ColorRGB
 90
      255
102
RTVSPost2010PropOp44
 70
     1
102
RTVSPost2010Prop45
280
     0
102
RTVSPost2010PropOp45
 70
     1
102
RTVSPost2010Prop46
 90
       50
102
RTVSPost2010PropOp46
 70
     1
102
RTVSPost2010Prop47
 90
       50
102
RTVSPost2010PropOp47
 70
     1
102
RTVSPost2010Prop48
 90
       50
102
RTVSPost2010PropOp48
 70
     1
102
RTVSPost2010Prop49
280
     0
102
RTVSPost2010PropOp49
 70
     1
102
RTVSPost2010Prop50
 90
       50
102
RTVSPost2010PropOp50
 70
     1
102
RTVSPost2010Prop51ColorIndex
 90
      256
102
RTVSPost2010Prop51ColorRGB
 90
-16777216
102
RTVSPost2010PropOp51
 70
     0
102
RTVSPost2010Prop52
140
1.0
102
RTVSPost2010PropOp52
 70
     0
102
RTVSPost2010Prop53
 90
        2
102
RTVSPost2010PropOp53
 70
     1
102
RTVSPost2010Prop54
  1
strokes_ogs.tif
102
RTVSPost2010PropOp54
 70
     1
102
RTVSPost2010Prop55
280
     0
102
RTVSPost2010PropOp55
 70
     1
102
RTVSPost2010Prop56
140
1.0
102
RTVSPost2010PropOp56
 70
     1
102
RTVSPost2010Prop57
140
1.0
102
RTVSPost2010PropOp57
 70
     1
  0
XRECORD
  5
260
102
{ACAD_REACTORS
330
25F
102
}
330
25F
100
AcDbXrecord
280
     1
102
RTVSPropertyOp0
 70
     1
102
RTVSPropertyOp1
 70
     1
102
RTVSPropertyOp2
 70
     1
102
RTVSPropertyOp3
 70
     1
102
RTVSPropertyOp4
 70
     1
102
RTVSPropertyOp5
 70
     1
102
RTVSPropertyOp6
 70
     1
102
RTVSPropertyOp7
 70
     1
102
RTVSPropertyOp8
 70
     1
102
RTVSPropertyOp9
 70
     1
102
RTVSPropertyOp10
 70
     1
102
RTVSPropertyOp11
 70
     1
102
RTVSPropertyOp12
 70
     1
102
RTVSPropertyOp13
 70
     1
102
RTVSPropertyOp14
 70
     1
102
RTVSPropertyOp15
 70
     1
102
RTVSPropertyOp16
 70
     1
102
RTVSPropertyOp17
 70
     1
102
RTVSPropertyOp18
 70
     1
102
RTVSPropertyOp19
 70
     1
102
RTVSPropertyOp20
 70
     1
102
RTVSPropertyOp21
 70
     1
102
RTVSPropertyOp22
 70
     1
102
RTVSPropertyOp23
 70
     1
102
RTVSPropertyOp24
 70
     1
102
RTVSPropertyOp25
 70
     1
102
RTVSPropertyOp26
 70
     1
102
RTVSPropertyOp27
 70
     1
102
RTVSPropertyOp28
 70
     1
102
RTVSPropertyOp29
 70
     1
102
RTVSPropertyOp30
 70
     1
102
RTVSPropertyOp31
 70
     1
102
RTVSPropertyOp32
 70
     1
102
RTVSPropertyOp33
 70
     1
102
RTVSPropertyOp34
 70
     1
102
RTVSPropertyOp35
 70
     1
102
RTVSPropertyOp36
 70
     1
102
RTVSPropertyOp37
 70
     1
102
RTVSPropertyOp38
 70
     1
102
RTVSPropertyOp39
 70
     1
102
RTVSPropertyOp40
 70
     1
102
RTVSPropertyOp41
 70
     1
102
RTVSPropertyOp42
 70
     1
102
RTVSPropertyOp43
 70
     1
102
RTVSPropertyOp44
 70
     1
102
RTVSPropertyOp45
 70
     1
102
RTVSPropertyOp46
 70
     1
102
RTVSPropertyOp47
 70
     1
102
RTVSPropertyOp48
 70
     1
102
RTVSPropertyOp49
 70
     1
102
RTVSPropertyOp50
 70
     1
102
RTVSPropertyOp51
 70
     0
102
RTVSPropertyOp52
 70
     0
102
RTVSPropertyOp53
 70
     1
102
RTVSPropertyOp54
 70
     1
102
RTVSPropertyOp55
 70
     1
102
RTVSPropertyOp56
 70
     1
102
RTVSPropertyOp57
 70
     1
102
RTVSPost2010Prop28
280
     0
102
RTVSPost2010PropOp28
 70
     1
102
RTVSPost2010Prop29
280
     1
102
RTVSPost2010PropOp29
 70
     1
102
RTVSPost2010Prop30
280
     1
102
RTVSPost2010PropOp30
 70
     1
102
RTVSPost2010Prop31
280
     0
102
RTVSPost2010PropOp31
 70
     1
102
RTVSPost2010Prop32
280
     0
102
RTVSPost2010PropOp32
 70
     1
102
RTVSPost2010Prop33
280
     0
102
RTVSPost2010PropOp33
 70
     1
102
RTVSPost2010Prop34
280
     0
102
RTVSPost2010PropOp34
 70
     1
102
RTVSPost2010Prop35
280
     0
102
RTVSPost2010PropOp35
 70
     1
102
RTVSPost2010Prop36
280
     0
102
RTVSPost2010PropOp36
 70
     1
102
RTVSPost2010Prop37
 90
       50
102
RTVSPost2010PropOp37
 70
     1
102
RTVSPost2010Prop38
140
0.0
102
RTVSPost2010PropOp38
 70
     1
102
RTVSPost2010Prop39
140
1.0
102
RTVSPost2010PropOp39
 70
     1
102
RTVSPost2010Prop40
 90
        0
102
RTVSPost2010PropOp40
 70
     1
102
RTVSPost2010Prop41ColorIndex
 90
       18
102
RTVSPost2010Prop41ColorRGB
 90
        0
102
RTVSPost2010PropOp41
 70
     1
102
RTVSPost2010Prop42
 90
       50
102
RTVSPost2010PropOp42
 70
     1
102
RTVSPost2010Prop43
 90
        3
102
RTVSPost2010PropOp43
 70
     1
102
RTVSPost2010Prop44ColorIndex
 90
        5
102
RTVSPost2010Prop44ColorRGB
 90
      255
102
RTVSPost2010PropOp44
 70
     1
102
RTVSPost2010Prop45
280
     0
102
RTVSPost2010PropOp45
 70
     1
102
RTVSPost2010Prop46
 90
       50
102
RTVSPost2010PropOp46
 70
     1
102
RTVSPost2010Prop47
 90
       50
102
RTVSPost2010PropOp47
 70
     1
102
RTVSPost2010Prop48
 90
       50
102
RTVSPost2010PropOp48
 70
     1
102
RTVSPost2010Prop49
280
     0
102
RTVSPost2010PropOp49
 70
     1
102
RTVSPost2010Prop50
 90
       50
102
RTVSPost2010PropOp50
 70
     1
102
RTVSPost2010Prop51ColorIndex
 90
      256
102
RTVSPost2010Prop51ColorRGB
 90
-16777216
102
RTVSPost2010PropOp51
 70
     0
102
RTVSPost2010Prop52
140
1.0
102
RTVSPost2010PropOp52
 70
     0
102
RTVSPost2010Prop53
 90
        2
102
RTVSPost2010PropOp53
 70
     1
102
RTVSPost2010Prop54
  1
strokes_ogs.tif
102
RTVSPost2010PropOp54
 70
     1
102
RTVSPost2010Prop55
280
     0
102
RTVSPost2010PropOp55
 70
     1
102
RTVSPost2010Prop56
140
1.0
102
RTVSPost2010PropOp56
 70
     1
102
RTVSPost2010Prop57
140
1.0
102
RTVSPost2010PropOp57
 70
     1
  0
XRECORD
  5
262
102
{ACAD_REACTORS
330
261
102
}
330
261
100
AcDbXrecord
280
     1
102
RTVSPropertyOp0
 70
     1
102
RTVSPropertyOp1
 70
     1
102
RTVSPropertyOp2
 70
     1
102
RTVSPropertyOp3
 70
     1
102
RTVSPropertyOp4
 70
     1
102
RTVSPropertyOp5
 70
     1
102
RTVSPropertyOp6
 70
     1
102
RTVSPropertyOp7
 70
     1
102
RTVSPropertyOp8
 70
     1
102
RTVSPropertyOp9
 70
     1
102
RTVSPropertyOp10
 70
     1
102
RTVSPropertyOp11
 70
     1
102
RTVSPropertyOp12
 70
     1
102
RTVSPropertyOp13
 70
     1
102
RTVSPropertyOp14
 70
     1
102
RTVSPropertyOp15
 70
     1
102
RTVSPropertyOp16
 70
     1
102
RTVSPropertyOp17
 70
     1
102
RTVSPropertyOp18
 70
     1
102
RTVSPropertyOp19
 70
     1
102
RTVSPropertyOp20
 70
     1
102
RTVSPropertyOp21
 70
     1
102
RTVSPropertyOp22
 70
     1
102
RTVSPropertyOp23
 70
     1
102
RTVSPropertyOp24
 70
     1
102
RTVSPropertyOp25
 70
     1
102
RTVSPropertyOp26
 70
     1
102
RTVSPropertyOp27
 70
     1
102
RTVSPropertyOp28
 70
     1
102
RTVSPropertyOp29
 70
     1
102
RTVSPropertyOp30
 70
     1
102
RTVSPropertyOp31
 70
     1
102
RTVSPropertyOp32
 70
     1
102
RTVSPropertyOp33
 70
     1
102
RTVSPropertyOp34
 70
     1
102
RTVSPropertyOp35
 70
     1
102
RTVSPropertyOp36
 70
     1
102
RTVSPropertyOp37
 70
     1
102
RTVSPropertyOp38
 70
     1
102
RTVSPropertyOp39
 70
     1
102
RTVSPropertyOp40
 70
     1
102
RTVSPropertyOp41
 70
     1
102
RTVSPropertyOp42
 70
     1
102
RTVSPropertyOp43
 70
     1
102
RTVSPropertyOp44
 70
     1
102
RTVSPropertyOp45
 70
     1
102
RTVSPropertyOp46
 70
     1
102
RTVSPropertyOp47
 70
     1
102
RTVSPropertyOp48
 70
     1
102
RTVSPropertyOp49
 70
     1
102
RTVSPropertyOp50
 70
     1
102
RTVSPropertyOp51
 70
     0
102
RTVSPropertyOp52
 70
     0
102
RTVSPropertyOp53
 70
     1
102
RTVSPropertyOp54
 70
     1
102
RTVSPropertyOp55
 70
     1
102
RTVSPropertyOp56
 70
     1
102
RTVSPropertyOp57
 70
     1
102
RTVSPost2010Prop28
280
     0
102
RTVSPost2010PropOp28
 70
     1
102
RTVSPost2010Prop29
280
     1
102
RTVSPost2010PropOp29
 70
     1
102
RTVSPost2010Prop30
280
     1
102
RTVSPost2010PropOp30
 70
     1
102
RTVSPost2010Prop31
280
     0
102
RTVSPost2010PropOp31
 70
     1
102
RTVSPost2010Prop32
280
     0
102
RTVSPost2010PropOp32
 70
     1
102
RTVSPost2010Prop33
280
     0
102
RTVSPost2010PropOp33
 70
     1
102
RTVSPost2010Prop34
280
     0
102
RTVSPost2010PropOp34
 70
     1
102
RTVSPost2010Prop35
280
     0
102
RTVSPost2010PropOp35
 70
     1
102
RTVSPost2010Prop36
280
     0
102
RTVSPost2010PropOp36
 70
     1
102
RTVSPost2010Prop37
 90
       50
102
RTVSPost2010PropOp37
 70
     1
102
RTVSPost2010Prop38
140
0.0
102
RTVSPost2010PropOp38
 70
     1
102
RTVSPost2010Prop39
140
1.0
102
RTVSPost2010PropOp39
 70
     1
102
RTVSPost2010Prop40
 90
        0
102
RTVSPost2010PropOp40
 70
     1
102
RTVSPost2010Prop41ColorIndex
 90
       18
102
RTVSPost2010Prop41ColorRGB
 90
        0
102
RTVSPost2010PropOp41
 70
     1
102
RTVSPost2010Prop42
 90
       50
102
RTVSPost2010PropOp42
 70
     1
102
RTVSPost2010Prop43
 90
        3
102
RTVSPost2010PropOp43
 70
     1
102
RTVSPost2010Prop44ColorIndex
 90
        5
102
RTVSPost2010Prop44ColorRGB
 90
      255
102
RTVSPost2010PropOp44
 70
     1
102
RTVSPost2010Prop45
280
     0
102
RTVSPost2010PropOp45
 70
     1
102
RTVSPost2010Prop46
 90
       50
102
RTVSPost2010PropOp46
 70
     1
102
RTVSPost2010Prop47
 90
       50
102
RTVSPost2010PropOp47
 70
     1
102
RTVSPost2010Prop48
 90
       50
102
RTVSPost2010PropOp48
 70
     1
102
RTVSPost2010Prop49
280
     0
102
RTVSPost2010PropOp49
 70
     1
102
RTVSPost2010Prop50
 90
       50
102
RTVSPost2010PropOp50
 70
     1
102
RTVSPost2010Prop51ColorIndex
 90
      256
102
RTVSPost2010Prop51ColorRGB
 90
-16777216
102
RTVSPost2010PropOp51
 70
     0
102
RTVSPost2010Prop52
140
1.0
102
RTVSPost2010PropOp52
 70
     0
102
RTVSPost2010Prop53
 90
        2
102
RTVSPost2010PropOp53
 70
     1
102
RTVSPost2010Prop54
  1
strokes_ogs.tif
102
RTVSPost2010PropOp54
 70
     1
102
RTVSPost2010Prop55
280
     0
102
RTVSPost2010PropOp55
 70
     1
102
RTVSPost2010Prop56
140
1.0
102
RTVSPost2010PropOp56
 70
     1
102
RTVSPost2010Prop57
140
1.0
102
RTVSPost2010PropOp57
 70
     1
  0
XRECORD
  5
264
102
{ACAD_REACTORS
330
263
102
}
330
263
100
AcDbXrecord
280
     1
102
RTVSPropertyOp0
 70
     1
102
RTVSPropertyOp1
 70
     1
102
RTVSPropertyOp2
 70
     1
102
RTVSPropertyOp3
 70
     1
102
RTVSPropertyOp4
 70
     1
102
RTVSPropertyOp5
 70
     1
102
RTVSPropertyOp6
 70
     1
102
RTVSPropertyOp7
 70
     1
102
RTVSPropertyOp8
 70
     1
102
RTVSPropertyOp9
 70
     1
102
RTVSPropertyOp10
 70
     1
102
RTVSPropertyOp11
 70
     1
102
RTVSPropertyOp12
 70
     1
102
RTVSPropertyOp13
 70
     1
102
RTVSPropertyOp14
 70
     1
102
RTVSPropertyOp15
 70
     1
102
RTVSPropertyOp16
 70
     1
102
RTVSPropertyOp17
 70
     1
102
RTVSPropertyOp18
 70
     1
102
RTVSPropertyOp19
 70
     1
102
RTVSPropertyOp20
 70
     1
102
RTVSPropertyOp21
 70
     1
102
RTVSPropertyOp22
 70
     1
102
RTVSPropertyOp23
 70
     1
102
RTVSPropertyOp24
 70
     1
102
RTVSPropertyOp25
 70
     1
102
RTVSPropertyOp26
 70
     1
102
RTVSPropertyOp27
 70
     1
102
RTVSPropertyOp28
 70
     1
102
RTVSPropertyOp29
 70
     1
102
RTVSPropertyOp30
 70
     1
102
RTVSPropertyOp31
 70
     1
102
RTVSPropertyOp32
 70
     1
102
RTVSPropertyOp33
 70
     1
102
RTVSPropertyOp34
 70
     1
102
RTVSPropertyOp35
 70
     1
102
RTVSPropertyOp36
 70
     1
102
RTVSPropertyOp37
 70
     1
102
RTVSPropertyOp38
 70
     1
102
RTVSPropertyOp39
 70
     1
102
RTVSPropertyOp40
 70
     1
102
RTVSPropertyOp41
 70
     1
102
RTVSPropertyOp42
 70
     1
102
RTVSPropertyOp43
 70
     1
102
RTVSPropertyOp44
 70
     1
102
RTVSPropertyOp45
 70
     1
102
RTVSPropertyOp46
 70
     1
102
RTVSPropertyOp47
 70
     1
102
RTVSPropertyOp48
 70
     1
102
RTVSPropertyOp49
 70
     1
102
RTVSPropertyOp50
 70
     1
102
RTVSPropertyOp51
 70
     0
102
RTVSPropertyOp52
 70
     0
102
RTVSPropertyOp53
 70
     1
102
RTVSPropertyOp54
 70
     1
102
RTVSPropertyOp55
 70
     1
102
RTVSPropertyOp56
 70
     1
102
RTVSPropertyOp57
 70
     1
102
RTVSPost2010Prop28
280
     0
102
RTVSPost2010PropOp28
 70
     1
102
RTVSPost2010Prop29
280
     1
102
RTVSPost2010PropOp29
 70
     1
102
RTVSPost2010Prop30
280
     1
102
RTVSPost2010PropOp30
 70
     1
102
RTVSPost2010Prop31
280
     0
102
RTVSPost2010PropOp31
 70
     1
102
RTVSPost2010Prop32
280
     0
102
RTVSPost2010PropOp32
 70
     1
102
RTVSPost2010Prop33
280
     0
102
RTVSPost2010PropOp33
 70
     1
102
RTVSPost2010Prop34
280
     0
102
RTVSPost2010PropOp34
 70
     1
102
RTVSPost2010Prop35
280
     0
102
RTVSPost2010PropOp35
 70
     1
102
RTVSPost2010Prop36
280
     0
102
RTVSPost2010PropOp36
 70
     1
102
RTVSPost2010Prop37
 90
       50
102
RTVSPost2010PropOp37
 70
     1
102
RTVSPost2010Prop38
140
0.0
102
RTVSPost2010PropOp38
 70
     1
102
RTVSPost2010Prop39
140
1.0
102
RTVSPost2010PropOp39
 70
     1
102
RTVSPost2010Prop40
 90
        0
102
RTVSPost2010PropOp40
 70
     1
102
RTVSPost2010Prop41ColorIndex
 90
       18
102
RTVSPost2010Prop41ColorRGB
 90
        0
102
RTVSPost2010PropOp41
 70
     1
102
RTVSPost2010Prop42
 90
       50
102
RTVSPost2010PropOp42
 70
     1
102
RTVSPost2010Prop43
 90
        3
102
RTVSPost2010PropOp43
 70
     1
102
RTVSPost2010Prop44ColorIndex
 90
        5
102
RTVSPost2010Prop44ColorRGB
 90
      255
102
RTVSPost2010PropOp44
 70
     1
102
RTVSPost2010Prop45
280
     0
102
RTVSPost2010PropOp45
 70
     1
102
RTVSPost2010Prop46
 90
       50
102
RTVSPost2010PropOp46
 70
     1
102
RTVSPost2010Prop47
 90
       50
102
RTVSPost2010PropOp47
 70
     1
102
RTVSPost2010Prop48
 90
       50
102
RTVSPost2010PropOp48
 70
     1
102
RTVSPost2010Prop49
280
     0
102
RTVSPost2010PropOp49
 70
     1
102
RTVSPost2010Prop50
 90
       50
102
RTVSPost2010PropOp50
 70
     1
102
RTVSPost2010Prop51ColorIndex
 90
      256
102
RTVSPost2010Prop51ColorRGB
 90
-16777216
102
RTVSPost2010PropOp51
 70
     0
102
RTVSPost2010Prop52
140
1.0
102
RTVSPost2010PropOp52
 70
     0
102
RTVSPost2010Prop53
 90
        2
102
RTVSPost2010PropOp53
 70
     1
102
RTVSPost2010Prop54
  1
strokes_ogs.tif
102
RTVSPost2010PropOp54
 70
     1
102
RTVSPost2010Prop55
280
     0
102
RTVSPost2010PropOp55
 70
     1
102
RTVSPost2010Prop56
140
1.0
102
RTVSPost2010PropOp56
 70
     1
102
RTVSPost2010Prop57
140
1.0
102
RTVSPost2010PropOp57
 70
     1
  0
XRECORD
  5
278
102
{ACAD_REACTORS
330
277
102
}
330
277
100
AcDbXrecord
280
     1
102
RTVSPropertyOp0
 70
     1
102
RTVSPropertyOp1
 70
     1
102
RTVSPropertyOp2
 70
     1
102
RTVSPropertyOp3
 70
     1
102
RTVSPropertyOp4
 70
     1
102
RTVSPropertyOp5
 70
     1
102
RTVSPropertyOp6
 70
     1
102
RTVSPropertyOp7
 70
     1
102
RTVSPropertyOp8
 70
     1
102
RTVSPropertyOp9
 70
     1
102
RTVSPropertyOp10
 70
     1
102
RTVSPropertyOp11
 70
     1
102
RTVSPropertyOp12
 70
     1
102
RTVSPropertyOp13
 70
     1
102
RTVSPropertyOp14
 70
     1
102
RTVSPropertyOp15
 70
     1
102
RTVSPropertyOp16
 70
     1
102
RTVSPropertyOp17
 70
     1
102
RTVSPropertyOp18
 70
     1
102
RTVSPropertyOp19
 70
     1
102
RTVSPropertyOp20
 70
     1
102
RTVSPropertyOp21
 70
     1
102
RTVSPropertyOp22
 70
     1
102
RTVSPropertyOp23
 70
     1
102
RTVSPropertyOp24
 70
     1
102
RTVSPropertyOp25
 70
     1
102
RTVSPropertyOp26
 70
     1
102
RTVSPropertyOp27
 70
     1
102
RTVSPropertyOp28
 70
     1
102
RTVSPropertyOp29
 70
     1
102
RTVSPropertyOp30
 70
     1
102
RTVSPropertyOp31
 70
     1
102
RTVSPropertyOp32
 70
     1
102
RTVSPropertyOp33
 70
     1
102
RTVSPropertyOp34
 70
     1
102
RTVSPropertyOp35
 70
     1
102
RTVSPropertyOp36
 70
     1
102
RTVSPropertyOp37
 70
     1
102
RTVSPropertyOp38
 70
     1
102
RTVSPropertyOp39
 70
     1
102
RTVSPropertyOp40
 70
     1
102
RTVSPropertyOp41
 70
     1
102
RTVSPropertyOp42
 70
     1
102
RTVSPropertyOp43
 70
     1
102
RTVSPropertyOp44
 70
     1
102
RTVSPropertyOp45
 70
     1
102
RTVSPropertyOp46
 70
     1
102
RTVSPropertyOp47
 70
     1
102
RTVSPropertyOp48
 70
     1
102
RTVSPropertyOp49
 70
     1
102
RTVSPropertyOp50
 70
     1
102
RTVSPropertyOp51
 70
     0
102
RTVSPropertyOp52
 70
     0
102
RTVSPropertyOp53
 70
     1
102
RTVSPropertyOp54
 70
     1
102
RTVSPropertyOp55
 70
     1
102
RTVSPropertyOp56
 70
     1
102
RTVSPropertyOp57
 70
     1
102
RTVSPost2010Prop28
280
     0
102
RTVSPost2010PropOp28
 70
     1
102
RTVSPost2010Prop29
280
     1
102
RTVSPost2010PropOp29
 70
     1
102
RTVSPost2010Prop30
280
     1
102
RTVSPost2010PropOp30
 70
     1
102
RTVSPost2010Prop31
280
     0
102
RTVSPost2010PropOp31
 70
     1
102
RTVSPost2010Prop32
280
     0
102
RTVSPost2010PropOp32
 70
     1
102
RTVSPost2010Prop33
280
     0
102
RTVSPost2010PropOp33
 70
     1
102
RTVSPost2010Prop34
280
     0
102
RTVSPost2010PropOp34
 70
     1
102
RTVSPost2010Prop35
280
     0
102
RTVSPost2010PropOp35
 70
     1
102
RTVSPost2010Prop36
280
     0
102
RTVSPost2010PropOp36
 70
     1
102
RTVSPost2010Prop37
 90
       50
102
RTVSPost2010PropOp37
 70
     1
102
RTVSPost2010Prop38
140
0.0
102
RTVSPost2010PropOp38
 70
     1
102
RTVSPost2010Prop39
140
1.0
102
RTVSPost2010PropOp39
 70
     1
102
RTVSPost2010Prop40
 90
        0
102
RTVSPost2010PropOp40
 70
     1
102
RTVSPost2010Prop41ColorIndex
 90
       18
102
RTVSPost2010Prop41ColorRGB
 90
        0
102
RTVSPost2010PropOp41
 70
     1
102
RTVSPost2010Prop42
 90
       50
102
RTVSPost2010PropOp42
 70
     1
102
RTVSPost2010Prop43
 90
        3
102
RTVSPost2010PropOp43
 70
     1
102
RTVSPost2010Prop44ColorIndex
 90
        5
102
RTVSPost2010Prop44ColorRGB
 90
      255
102
RTVSPost2010PropOp44
 70
     1
102
RTVSPost2010Prop45
280
     0
102
RTVSPost2010PropOp45
 70
     1
102
RTVSPost2010Prop46
 90
       50
102
RTVSPost2010PropOp46
 70
     1
102
RTVSPost2010Prop47
 90
       50
102
RTVSPost2010PropOp47
 70
     1
102
RTVSPost2010Prop48
 90
       50
102
RTVSPost2010PropOp48
 70
     1
102
RTVSPost2010Prop49
280
     0
102
RTVSPost2010PropOp49
 70
     1
102
RTVSPost2010Prop50
 90
       50
102
RTVSPost2010PropOp50
 70
     1
102
RTVSPost2010Prop51ColorIndex
 90
      256
102
RTVSPost2010Prop51ColorRGB
 90
-16777216
102
RTVSPost2010PropOp51
 70
     0
102
RTVSPost2010Prop52
140
1.0
102
RTVSPost2010PropOp52
 70
     0
102
RTVSPost2010Prop53
 90
        2
102
RTVSPost2010PropOp53
 70
     1
102
RTVSPost2010Prop54
  1
strokes_ogs.tif
102
RTVSPost2010PropOp54
 70
     1
102
RTVSPost2010Prop55
280
     0
102
RTVSPost2010PropOp55
 70
     1
102
RTVSPost2010Prop56
140
1.0
102
RTVSPost2010PropOp56
 70
     1
102
RTVSPost2010Prop57
140
1.0
102
RTVSPost2010PropOp57
 70
     1
  0
XRECORD
  5
26E
102
{ACAD_REACTORS
330
26D
102
}
330
26D
100
AcDbXrecord
280
     1
102
RTVSPropertyOp0
 70
     1
102
RTVSPropertyOp1
 70
     1
102
RTVSPropertyOp2
 70
     1
102
RTVSPropertyOp3
 70
     1
102
RTVSPropertyOp4
 70
     1
102
RTVSPropertyOp5
 70
     1
102
RTVSPropertyOp6
 70
     1
102
RTVSPropertyOp7
 70
     1
102
RTVSPropertyOp8
 70
     1
102
RTVSPropertyOp9
 70
     1
102
RTVSPropertyOp10
 70
     1
102
RTVSPropertyOp11
 70
     1
102
RTVSPropertyOp12
 70
     1
102
RTVSPropertyOp13
 70
     1
102
RTVSPropertyOp14
 70
     1
102
RTVSPropertyOp15
 70
     1
102
RTVSPropertyOp16
 70
     1
102
RTVSPropertyOp17
 70
     1
102
RTVSPropertyOp18
 70
     1
102
RTVSPropertyOp19
 70
     1
102
RTVSPropertyOp20
 70
     1
102
RTVSPropertyOp21
 70
     1
102
RTVSPropertyOp22
 70
     1
102
RTVSPropertyOp23
 70
     1
102
RTVSPropertyOp24
 70
     1
102
RTVSPropertyOp25
 70
     1
102
RTVSPropertyOp26
 70
     1
102
RTVSPropertyOp27
 70
     1
102
RTVSPropertyOp28
 70
     1
102
RTVSPropertyOp29
 70
     1
102
RTVSPropertyOp30
 70
     1
102
RTVSPropertyOp31
 70
     1
102
RTVSPropertyOp32
 70
     1
102
RTVSPropertyOp33
 70
     1
102
RTVSPropertyOp34
 70
     1
102
RTVSPropertyOp35
 70
     1
102
RTVSPropertyOp36
 70
     1
102
RTVSPropertyOp37
 70
     1
102
RTVSPropertyOp38
 70
     1
102
RTVSPropertyOp39
 70
     1
102
RTVSPropertyOp40
 70
     1
102
RTVSPropertyOp41
 70
     1
102
RTVSPropertyOp42
 70
     1
102
RTVSPropertyOp43
 70
     1
102
RTVSPropertyOp44
 70
     1
102
RTVSPropertyOp45
 70
     1
102
RTVSPropertyOp46
 70
     1
102
RTVSPropertyOp47
 70
     1
102
RTVSPropertyOp48
 70
     1
102
RTVSPropertyOp49
 70
     1
102
RTVSPropertyOp50
 70
     1
102
RTVSPropertyOp51
 70
     0
102
RTVSPropertyOp52
 70
     0
102
RTVSPropertyOp53
 70
     1
102
RTVSPropertyOp54
 70
     1
102
RTVSPropertyOp55
 70
     1
102
RTVSPropertyOp56
 70
     1
102
RTVSPropertyOp57
 70
     1
102
RTVSPost2010Prop28
280
     0
102
RTVSPost2010PropOp28
 70
     1
102
RTVSPost2010Prop29
280
     1
102
RTVSPost2010PropOp29
 70
     1
102
RTVSPost2010Prop30
280
     1
102
RTVSPost2010PropOp30
 70
     1
102
RTVSPost2010Prop31
280
     0
102
RTVSPost2010PropOp31
 70
     1
102
RTVSPost2010Prop32
280
     0
102
RTVSPost2010PropOp32
 70
     1
102
RTVSPost2010Prop33
280
     0
102
RTVSPost2010PropOp33
 70
     1
102
RTVSPost2010Prop34
280
     0
102
RTVSPost2010PropOp34
 70
     1
102
RTVSPost2010Prop35
280
     0
102
RTVSPost2010PropOp35
 70
     1
102
RTVSPost2010Prop36
280
     0
102
RTVSPost2010PropOp36
 70
     1
102
RTVSPost2010Prop37
 90
       50
102
RTVSPost2010PropOp37
 70
     1
102
RTVSPost2010Prop38
140
0.0
102
RTVSPost2010PropOp38
 70
     1
102
RTVSPost2010Prop39
140
1.0
102
RTVSPost2010PropOp39
 70
     1
102
RTVSPost2010Prop40
 90
        0
102
RTVSPost2010PropOp40
 70
     1
102
RTVSPost2010Prop41ColorIndex
 90
       18
102
RTVSPost2010Prop41ColorRGB
 90
        0
102
RTVSPost2010PropOp41
 70
     1
102
RTVSPost2010Prop42
 90
       50
102
RTVSPost2010PropOp42
 70
     1
102
RTVSPost2010Prop43
 90
        3
102
RTVSPost2010PropOp43
 70
     1
102
RTVSPost2010Prop44ColorIndex
 90
        5
102
RTVSPost2010Prop44ColorRGB
 90
      255
102
RTVSPost2010PropOp44
 70
     1
102
RTVSPost2010Prop45
280
     0
102
RTVSPost2010PropOp45
 70
     1
102
RTVSPost2010Prop46
 90
       50
102
RTVSPost2010PropOp46
 70
     1
102
RTVSPost2010Prop47
 90
       50
102
RTVSPost2010PropOp47
 70
     1
102
RTVSPost2010Prop48
 90
       50
102
RTVSPost2010PropOp48
 70
     1
102
RTVSPost2010Prop49
280
     0
102
RTVSPost2010PropOp49
 70
     1
102
RTVSPost2010Prop50
 90
       50
102
RTVSPost2010PropOp50
 70
     1
102
RTVSPost2010Prop51ColorIndex
 90
      256
102
RTVSPost2010Prop51ColorRGB
 90
-16777216
102
RTVSPost2010PropOp51
 70
     0
102
RTVSPost2010Prop52
140
1.0
102
RTVSPost2010PropOp52
 70
     0
102
RTVSPost2010Prop53
 90
        2
102
RTVSPost2010PropOp53
 70
     1
102
RTVSPost2010Prop54
  1
strokes_ogs.tif
102
RTVSPost2010PropOp54
 70
     1
102
RTVSPost2010Prop55
280
     0
102
RTVSPost2010PropOp55
 70
     1
102
RTVSPost2010Prop56
140
1.0
102
RTVSPost2010PropOp56
 70
     1
102
RTVSPost2010Prop57
140
1.0
102
RTVSPost2010PropOp57
 70
     1
  0
XRECORD
  5
276
102
{ACAD_REACTORS
330
275
102
}
330
275
100
AcDbXrecord
280
     1
102
RTVSPropertyOp0
 70
     1
102
RTVSPropertyOp1
 70
     1
102
RTVSPropertyOp2
 70
     1
102
RTVSPropertyOp3
 70
     1
102
RTVSPropertyOp4
 70
     1
102
RTVSPropertyOp5
 70
     1
102
RTVSPropertyOp6
 70
     1
102
RTVSPropertyOp7
 70
     1
102
RTVSPropertyOp8
 70
     1
102
RTVSPropertyOp9
 70
     1
102
RTVSPropertyOp10
 70
     1
102
RTVSPropertyOp11
 70
     1
102
RTVSPropertyOp12
 70
     1
102
RTVSPropertyOp13
 70
     1
102
RTVSPropertyOp14
 70
     1
102
RTVSPropertyOp15
 70
     1
102
RTVSPropertyOp16
 70
     1
102
RTVSPropertyOp17
 70
     1
102
RTVSPropertyOp18
 70
     1
102
RTVSPropertyOp19
 70
     1
102
RTVSPropertyOp20
 70
     1
102
RTVSPropertyOp21
 70
     1
102
RTVSPropertyOp22
 70
     1
102
RTVSPropertyOp23
 70
     1
102
RTVSPropertyOp24
 70
     1
102
RTVSPropertyOp25
 70
     1
102
RTVSPropertyOp26
 70
     1
102
RTVSPropertyOp27
 70
     1
102
RTVSPropertyOp28
 70
     1
102
RTVSPropertyOp29
 70
     1
102
RTVSPropertyOp30
 70
     1
102
RTVSPropertyOp31
 70
     1
102
RTVSPropertyOp32
 70
     1
102
RTVSPropertyOp33
 70
     1
102
RTVSPropertyOp34
 70
     1
102
RTVSPropertyOp35
 70
     1
102
RTVSPropertyOp36
 70
     1
102
RTVSPropertyOp37
 70
     1
102
RTVSPropertyOp38
 70
     1
102
RTVSPropertyOp39
 70
     1
102
RTVSPropertyOp40
 70
     1
102
RTVSPropertyOp41
 70
     1
102
RTVSPropertyOp42
 70
     1
102
RTVSPropertyOp43
 70
     1
102
RTVSPropertyOp44
 70
     1
102
RTVSPropertyOp45
 70
     1
102
RTVSPropertyOp46
 70
     1
102
RTVSPropertyOp47
 70
     1
102
RTVSPropertyOp48
 70
     1
102
RTVSPropertyOp49
 70
     1
102
RTVSPropertyOp50
 70
     1
102
RTVSPropertyOp51
 70
     0
102
RTVSPropertyOp52
 70
     0
102
RTVSPropertyOp53
 70
     1
102
RTVSPropertyOp54
 70
     1
102
RTVSPropertyOp55
 70
     1
102
RTVSPropertyOp56
 70
     1
102
RTVSPropertyOp57
 70
     1
102
RTVSPost2010Prop28
280
     0
102
RTVSPost2010PropOp28
 70
     1
102
RTVSPost2010Prop29
280
     1
102
RTVSPost2010PropOp29
 70
     1
102
RTVSPost2010Prop30
280
     1
102
RTVSPost2010PropOp30
 70
     1
102
RTVSPost2010Prop31
280
     0
102
RTVSPost2010PropOp31
 70
     1
102
RTVSPost2010Prop32
280
     0
102
RTVSPost2010PropOp32
 70
     1
102
RTVSPost2010Prop33
280
     0
102
RTVSPost2010PropOp33
 70
     1
102
RTVSPost2010Prop34
280
     0
102
RTVSPost2010PropOp34
 70
     1
102
RTVSPost2010Prop35
280
     0
102
RTVSPost2010PropOp35
 70
     1
102
RTVSPost2010Prop36
280
     0
102
RTVSPost2010PropOp36
 70
     1
102
RTVSPost2010Prop37
 90
       50
102
RTVSPost2010PropOp37
 70
     1
102
RTVSPost2010Prop38
140
0.0
102
RTVSPost2010PropOp38
 70
     1
102
RTVSPost2010Prop39
140
1.0
102
RTVSPost2010PropOp39
 70
     1
102
RTVSPost2010Prop40
 90
        0
102
RTVSPost2010PropOp40
 70
     1
102
RTVSPost2010Prop41ColorIndex
 90
       18
102
RTVSPost2010Prop41ColorRGB
 90
        0
102
RTVSPost2010PropOp41
 70
     1
102
RTVSPost2010Prop42
 90
       50
102
RTVSPost2010PropOp42
 70
     1
102
RTVSPost2010Prop43
 90
        3
102
RTVSPost2010PropOp43
 70
     1
102
RTVSPost2010Prop44ColorIndex
 90
        5
102
RTVSPost2010Prop44ColorRGB
 90
      255
102
RTVSPost2010PropOp44
 70
     1
102
RTVSPost2010Prop45
280
     0
102
RTVSPost2010PropOp45
 70
     1
102
RTVSPost2010Prop46
 90
       50
102
RTVSPost2010PropOp46
 70
     1
102
RTVSPost2010Prop47
 90
       50
102
RTVSPost2010PropOp47
 70
     1
102
RTVSPost2010Prop48
 90
       50
102
RTVSPost2010PropOp48
 70
     1
102
RTVSPost2010Prop49
280
     0
102
RTVSPost2010PropOp49
 70
     1
102
RTVSPost2010Prop50
 90
       50
102
RTVSPost2010PropOp50
 70
     1
102
RTVSPost2010Prop51ColorIndex
 90
      256
102
RTVSPost2010Prop51ColorRGB
 90
-16777216
102
RTVSPost2010PropOp51
 70
     0
102
RTVSPost2010Prop52
140
1.0
102
RTVSPost2010PropOp52
 70
     0
102
RTVSPost2010Prop53
 90
        2
102
RTVSPost2010PropOp53
 70
     1
102
RTVSPost2010Prop54
  1
strokes_ogs.tif
102
RTVSPost2010PropOp54
 70
     1
102
RTVSPost2010Prop55
280
     0
102
RTVSPost2010PropOp55
 70
     1
102
RTVSPost2010Prop56
140
1.0
102
RTVSPost2010PropOp56
 70
     1
102
RTVSPost2010Prop57
140
1.0
102
RTVSPost2010PropOp57
 70
     1
  0
ENDSEC
  0
EOF
