  0
SECTION
  2
HEADER
  9
$ACADVER
  1
AC1018
  9
$ACADMAINTVER
 70
     0
  9
$DWGCODEPAGE
  3
ANSI_1252
  9
$INSBASE
 10
0.0
 20
0.0
 30
0.0
  9
$EXTMIN
 10
0.0000716130995712
 20
286.7241082537188
 30
0.0
  9
$EXTMAX
 10
150.0117730325844
 20
399.5732520364984
 30
0.0
  9
$LIMMIN
 10
0.0
 20
0.0
  9
$LIMMAX
 10
12.0
 20
9.0
  9
$ORTHOMODE
 70
     0
  9
$REGENMODE
 70
     1
  9
$FILLMODE
 70
     1
  9
$QTEXTMODE
 70
     0
  9
$MIRRTEXT
 70
     1
  9
$LTSCALE
 40
1.0
  9
$ATTMODE
 70
     1
  9
$TEXTSIZE
 40
0.2
  9
$TRACEWID
 40
0.05
  9
$TEXTSTYLE
  7
Standard
  9
$CLAYER
  8
0
  9
$CELTYPE
  6
ByLayer
  9
$CECOLOR
 62
   256
  9
$CELTSCALE
 40
1.0
  9
$DISPSILH
 70
     0
  9
$DIMSCALE
 40
1.0
  9
$DIMASZ
 40
0.18
  9
$DIMEXO
 40
0.0625
  9
$DIMDLI
 40
0.38
  9
$DIMRND
 40
0.0
  9
$DIMDLE
 40
0.0
  9
$DIMEXE
 40
0.18
  9
$DIMTP
 40
0.0
  9
$DIMTM
 40
0.0
  9
$DIMTXT
 40
0.18
  9
$DIMCEN
 40
0.09
  9
$DIMTSZ
 40
0.0
  9
$DIMTOL
 70
     0
  9
$DIMLIM
 70
     0
  9
$DIMTIH
 70
     1
  9
$DIMTOH
 70
     1
  9
$DIMSE1
 70
     0
  9
$DIMSE2
 70
     0
  9
$DIMTAD
 70
     0
  9
$DIMZIN
 70
     0
  9
$DIMBLK
  1

  9
$DIMASO
 70
     1
  9
$DIMSHO
 70
     1
  9
$DIMPOST
  1

  9
$DIMAPOST
  1

  9
$DIMALT
 70
     0
  9
$DIMALTD
 70
     2
  9
$DIMALTF
 40
25.4
  9
$DIMLFAC
 40
1.0
  9
$DIMTOFL
 70
     0
  9
$DIMTVP
 40
0.0
  9
$DIMTIX
 70
     0
  9
$DIMSOXD
 70
     0
  9
$DIMSAH
 70
     0
  9
$DIMBLK1
  1

  9
$DIMBLK2
  1

  9
$DIMSTYLE
  2
Standard
  9
$DIMCLRD
 70
     0
  9
$DIMCLRE
 70
     0
  9
$DIMCLRT
 70
     0
  9
$DIMTFAC
 40
1.0
  9
$DIMGAP
 40
0.09
  9
$DIMJUST
 70
     0
  9
$DIMSD1
 70
     0
  9
$DIMSD2
 70
     0
  9
$DIMTOLJ
 70
     1
  9
$DIMTZIN
 70
     0
  9
$DIMALTZ
 70
     0
  9
$DIMALTTZ
 70
     0
  9
$DIMUPT
 70
     0
  9
$DIMDEC
 70
     4
  9
$DIMTDEC
 70
     4
  9
$DIMALTU
 70
     2
  9
$DIMALTTD
 70
     2
  9
$DIMTXSTY
  7
Standard
  9
$DIMAUNIT
 70
     0
  9
$DIMADEC
 70
     0
  9
$DIMALTRND
 40
0.0
  9
$DIMAZIN
 70
     0
  9
$DIMDSEP
 70
    46
  9
$DIMATFIT
 70
     3
  9
$DIMFRAC
 70
     0
  9
$DIMLDRBLK
  1

  9
$DIMLUNIT
 70
     2
  9
$DIMLWD
 70
    -2
  9
$DIMLWE
 70
    -2
  9
$DIMTMOVE
 70
     2
  9
$LUNITS
 70
     2
  9
$LUPREC
 70
     3
  9
$SKETCHINC
 40
0.1
  9
$FILLETRAD
 40
0.5
  9
$AUNITS
 70
     0
  9
$AUPREC
 70
     0
  9
$MENU
  1
.
  9
$ELEVATION
 40
0.0
  9
$PELEVATION
 40
0.0
  9
$THICKNESS
 40
0.0
  9
$LIMCHECK
 70
     0
  9
$CHAMFERA
 40
0.5
  9
$CHAMFERB
 40
0.5
  9
$CHAMFERC
 40
1.0
  9
$CHAMFERD
 40
0.0
  9
$SKPOLY
 70
     0
  9
$TDCREATE
 40
2457604.84084081
  9
$TDUCREATE
 40
2457604.507507477
  9
$TDUPDATE
 40
2457604.84084081
  9
$TDUUPDATE
 40
2457604.507507477
  9
$TDINDWG
 40
0.0000000116
  9
$TDUSRTIMER
 40
0.0000000116
  9
$USRTIMER
 70
     1
  9
$ANGBASE
 50
0.0
  9
$ANGDIR
 70
     0
  9
$PDMODE
 70
     0
  9
$PDSIZE
 40
0.0
  9
$PLINEWID
 40
0.0
  9
$SPLFRAME
 70
     0
  9
$SPLINETYPE
 70
     6
  9
$SPLINESEGS
 70
     8
  9
$HANDSEED
  5
2F1
  9
$SURFTAB1
 70
     6
  9
$SURFTAB2
 70
     6
  9
$SURFTYPE
 70
     6
  9
$SURFU
 70
     6
  9
$SURFV
 70
     6
  9
$UCSBASE
  2

  9
$UCSNAME
  2

  9
$UCSORG
 10
0.0
 20
0.0
 30
0.0
  9
$UCSXDIR
 10
1.0
 20
0.0
 30
0.0
  9
$UCSYDIR
 10
0.0
 20
1.0
 30
0.0
  9
$UCSORTHOREF
  2

  9
$UCSORTHOVIEW
 70
     0
  9
$UCSORGTOP
 10
0.0
 20
0.0
 30
0.0
  9
$UCSORGBOTTOM
 10
0.0
 20
0.0
 30
0.0
  9
$UCSORGLEFT
 10
0.0
 20
0.0
 30
0.0
  9
$UCSORGRIGHT
 10
0.0
 20
0.0
 30
0.0
  9
$UCSORGFRONT
 10
0.0
 20
0.0
 30
0.0
  9
$UCSORGBACK
 10
0.0
 20
0.0
 30
0.0
  9
$PUCSBASE
  2

  9
$PUCSNAME
  2

  9
$PUCSORG
 10
0.0
 20
0.0
 30
0.0
  9
$PUCSXDIR
 10
1.0
 20
0.0
 30
0.0
  9
$PUCSYDIR
 10
0.0
 20
1.0
 30
0.0
  9
$PUCSORTHOREF
  2

  9
$PUCSORTHOVIEW
 70
     0
  9
$PUCSORGTOP
 10
0.0
 20
0.0
 30
0.0
  9
$PUCSORGBOTTOM
 10
0.0
 20
0.0
 30
0.0
  9
$PUCSORGLEFT
 10
0.0
 20
0.0
 30
0.0
  9
$PUCSORGRIGHT
 10
0.0
 20
0.0
 30
0.0
  9
$PUCSORGFRONT
 10
0.0
 20
0.0
 30
0.0
  9
$PUCSORGBACK
 10
0.0
 20
0.0
 30
0.0
  9
$USERI1
 70
     0
  9
$USERI2
 70
     0
  9
$USERI3
 70
     0
  9
$USERI4
 70
     0
  9
$USERI5
 70
     0
  9
$USERR1
 40
0.0
  9
$USERR2
 40
0.0
  9
$USERR3
 40
0.0
  9
$USERR4
 40
0.0
  9
$USERR5
 40
0.0
  9
$WORLDVIEW
 70
     1
  9
$SHADEDGE
 70
     3
  9
$SHADEDIF
 70
    70
  9
$TILEMODE
 70
     1
  9
$MAXACTVP
 70
    64
  9
$PINSBASE
 10
0.0
 20
0.0
 30
0.0
  9
$PLIMCHECK
 70
     0
  9
$PEXTMIN
 10
1.000000000000000E+20
 20
1.000000000000000E+20
 30
1.000000000000000E+20
  9
$PEXTMAX
 10
-1.000000000000000E+20
 20
-1.000000000000000E+20
 30
-1.000000000000000E+20
  9
$PLIMMIN
 10
0.0
 20
0.0
  9
$PLIMMAX
 10
12.0
 20
9.0
  9
$UNITMODE
 70
     0
  9
$VISRETAIN
 70
     1
  9
$PLINEGEN
 70
     0
  9
$PSLTSCALE
 70
     1
  9
$TREEDEPTH
 70
  3020
  9
$CMLSTYLE
  2
Standard
  9
$CMLJUST
 70
     0
  9
$CMLSCALE
 40
1.0
  9
$PROXYGRAPHICS
 70
     1
  9
$MEASUREMENT
 70
     0
  9
$CELWEIGHT
370
    -1
  9
$ENDCAPS
280
     0
  9
$JOINSTYLE
280
     0
  9
$LWDISPLAY
290
     0
  9
$INSUNITS
 70
     4
  9
$HYPERLINKBASE
  1

  9
$STYLESHEET
  1

  9
$XEDIT
290
     1
  9
$CEPSNTYPE
380
     0
  9
$PSTYLEMODE
290
     1
  9
$FINGERPRINTGUID
  2
{55049265-6595-4F3C-9DC4-EB147F7DE99A}
  9
$VERSIONGUID
  2
{FAEB1C32-E019-11D5-929B-00C0DF256EC4}
  9
$EXTNAMES
290
     1
  9
$PSVPSCALE
 40
0.0
  9
$OLESTARTUP
290
     0
  9
$SORTENTS
280
   127
  9
$INDEXCTL
280
     0
  9
$HIDETEXT
280
     1
  9
$XCLIPFRAME
290
     0
  9
$HALOGAP
280
     0
  9
$OBSCOLOR
 70
   257
  9
$OBSLTYPE
280
     0
  9
$INTERSECTIONDISPLAY
280
     0
  9
$INTERSECTIONCOLOR
 70
   257
  9
$DIMASSOC
280
     2
  9
$PROJECTNAME
  1

  0
ENDSEC
  0
SECTION
  2
CLASSES
  0
CLASS
  1
ACDBDICTIONARYWDFLT
  2
AcDbDictionaryWithDefault
  3
ObjectDBX Classes
 90
        0
 91
        4
280
     0
281
     0
  0
CLASS
  1
VISUALSTYLE
  2
AcDbVisualStyle
  3
ObjectDBX Classes
 90
     4095
 91
        4
280
     0
281
     0
  0
CLASS
  1
MATERIAL
  2
AcDbMaterial
  3
ObjectDBX Classes
 90
     1153
 91
        4
280
     0
281
     0
  0
CLASS
  1
SCALE
  2
AcDbScale
  3
ObjectDBX Classes
 90
     1153
 91
        4
280
     0
281
     0
  0
CLASS
  1
SUN
  2
AcDbSun
  3
SCENEOE
 90
     1153
 91
        4
280
     0
281
     0
  0
CLASS
  1
DICTIONARYVAR
  2
AcDbDictionaryVar
  3
ObjectDBX Classes
 90
        0
 91
        4
280
     0
281
     0
  0
ENDSEC
  0
SECTION
  2
TABLES
  0
TABLE
  2
VPORT
  5
8
330
0
100
AcDbSymbolTable
 70
     1
  0
VPORT
  5
29
330
8
100
AcDbSymbolTableRecord
100
AcDbViewportTableRecord
  2
*Active
 70
     0
 10
0.0
 20
0.0
 11
1.0
 21
1.0
 12
75.00592232284195
 22
343.1486801451086
 13
0.0
 23
0.0
 14
0.5
 24
0.5
 15
0.5
 25
0.5
 16
0.0
 26
0.0
 36
1.0
 17
0.0
 27
0.0
 37
0.0
 40
115.1061266584352
 41
1.329311826310693
 42
50.0
 43
0.0
 44
0.0
 50
0.0
 51
0.0
 71
     0
 72
   100
 73
     1
 74
     3
 75
     0
 76
     0
 77
     0
 78
     0
281
     0
 65
     1
110
0.0
120
0.0
130
0.0
111
1.0
121
0.0
131
0.0
112
0.0
122
1.0
132
0.0
 79
     0
146
0.0
  0
ENDTAB
  0
TABLE
  2
LTYPE
  5
5
330
0
100
AcDbSymbolTable
 70
     1
  0
LTYPE
  5
14
330
5
100
AcDbSymbolTableRecord
100
AcDbLinetypeTableRecord
  2
ByBlock
 70
     0
  3

 72
    65
 73
     0
 40
0.0
  0
LTYPE
  5
15
330
5
100
AcDbSymbolTableRecord
100
AcDbLinetypeTableRecord
  2
ByLayer
 70
     0
  3

 72
    65
 73
     0
 40
0.0
  0
LTYPE
  5
16
330
5
100
AcDbSymbolTableRecord
100
AcDbLinetypeTableRecord
  2
Continuous
 70
     0
  3
Solid line
 72
    65
 73
     0
 40
0.0
  0
ENDTAB
  0
TABLE
  2
LAYER
  5
2
330
0
100
AcDbSymbolTable
 70
     2
  0
LAYER
  5
10
330
2
100
AcDbSymbolTableRecord
100
AcDbLayerTableRecord
  2
0
 70
     0
 62
     7
  6
Continuous
370
    -3
390
F
  0
LAYER
  5
62
330
2
100
AcDbSymbolTableRecord
100
AcDbLayerTableRecord
  2
Make2D$___$___
 70
     0
 62
    18
420
        0
  6
Continuous
370
    -3
390
F
  0
ENDTAB
  0
TABLE
  2
STYLE
  5
3
330
0
100
AcDbSymbolTable
 70
     1
  0
STYLE
  5
11
330
3
100
AcDbSymbolTableRecord
100
AcDbTextStyleTableRecord
  2
Standard
 70
     0
 40
0.0
 41
1.0
 50
0.0
 71
     0
 42
0.2
  3
txt
  4

  0
ENDTAB
  0
TABLE
  2
VIEW
  5
6
330
0
100
AcDbSymbolTable
 70
     0
  0
ENDTAB
  0
TABLE
  2
UCS
  5
7
330
0
100
AcDbSymbolTable
 70
     0
  0
ENDTAB
  0
TABLE
  2
APPID
  5
9
330
0
100
AcDbSymbolTable
 70
     1
  0
APPID
  5
12
330
9
100
AcDbSymbolTableRecord
100
AcDbRegAppTableRecord
  2
ACAD
 70
     0
  0
ENDTAB
  0
TABLE
  2
DIMSTYLE
  5
A
330
0
100
AcDbSymbolTable
 70
     1
100
AcDbDimStyleTable
  0
DIMSTYLE
105
27
330
A
100
AcDbSymbolTableRecord
100
AcDbDimStyleTableRecord
  2
Standard
 70
     0
178
     0
340
11
  0
ENDTAB
  0
TABLE
  2
BLOCK_RECORD
  5
1
330
0
100
AcDbSymbolTable
 70
     1
  0
BLOCK_RECORD
  5
1F
330
1
100
AcDbSymbolTableRecord
100
AcDbBlockTableRecord
  2
*Model_Space
340
22
  0
BLOCK_RECORD
  5
1B
330
1
100
AcDbSymbolTableRecord
100
AcDbBlockTableRecord
  2
*Paper_Space
340
1E
  0
BLOCK_RECORD
  5
23
330
1
100
AcDbSymbolTableRecord
100
AcDbBlockTableRecord
  2
*Paper_Space0
340
26
  0
ENDTAB
  0
ENDSEC
  0
SECTION
  2
BLOCKS
  0
BLOCK
  5
20
330
1F
100
AcDbEntity
  8
0
100
AcDbBlockBegin
  2
*Model_Space
 70
     0
 10
0.0
 20
0.0
 30
0.0
  3
*Model_Space
  1
*Model_Space
  0
ENDBLK
  5
21
330
1F
100
AcDbEntity
  8
0
100
AcDbBlockEnd
  0
BLOCK
  5
1C
330
1B
100
AcDbEntity
 67
     1
  8
0
100
AcDbBlockBegin
  2
*Paper_Space
 70
     0
 10
0.0
 20
0.0
 30
0.0
  3
*Paper_Space
  1
*Paper_Space
  0
ENDBLK
  5
1D
330
1B
100
AcDbEntity
 67
     1
  8
0
100
AcDbBlockEnd
  0
BLOCK
  5
24
330
23
100
AcDbEntity
  8
0
100
AcDbBlockBegin
  2
*Paper_Space0
 70
     0
 10
0.0
 20
0.0
 30
0.0
  3
*Paper_Space0
  1
*Paper_Space0
  0
ENDBLK
  5
25
330
23
100
AcDbEntity
  8
0
100
AcDbBlockEnd
  0
ENDSEC
  0
SECTION
  2
ENTITIES
  0
SPLINE
  5
63
330
1F
100
AcDbEntity
  8
Make2D$___$___
100
AcDbSpline
210
0.0
220
0.0
230
1.0
 70
     8
 71
     3
 72
    15
 73
    11
 74
     0
 42
0.000000001
 43
0.0000000001
 12
1.0
 22
0.0
 32
0.0
 13
1.0
 23
0.0
 33
0.0
 40
0.0
 40
0.0
 40
0.0
 40
0.0
 40
0.0183961514440698
 40
0.0332959913735644
 40
0.1020003517339436
 40
0.2337949393808663
 40
0.7581881989381276
 40
2.551266916294219
 40
5.589826654200349
 40
10.54035330891946
 40
10.54035330891946
 40
10.54035330891946
 40
10.54035330891946
 10
93.77407414631647
 20
332.2100587084421
 30
0.0
 10
93.76990500350838
 20
332.211324121959
 30
0.0
 10
93.75500010544853
 20
332.222060258186
 30
0.0
 10
93.78322441303945
 20
332.2452790129586
 30
0.0
 10
93.85365256083188
 20
332.2606875850051
 30
0.0
 10
94.09282630496713
 20
332.2956973840472
 30
0.0
 10
94.90714671875322
 20
332.3571637437869
 30
0.0
 10
96.69082745890648
 20
332.4355029466869
 30
0.0
 10
99.94997463847925
 20
332.5377706444704
 30
0.0
 10
102.6121329512081
 20
332.605850822762
 30
0.0
 10
104.2617593965199
 20
332.6484579651491
 30
0.0
  0
SPLINE
  5
64
330
1F
100
AcDbEntity
  8
Make2D$___$___
100
AcDbSpline
210
0.0
220
0.0
230
1.0
 70
     8
 71
     3
 72
    13
 73
     9
 74
     0
 42
0.000000001
 43
0.0000000001
 12
1.0
 22
0.0
 32
0.0
 13
1.0
 23
0.0
 33
0.0
 40
0.0
 40
0.0
 40
0.0
 40
0.0
 40
4.951251510569384
 40
7.852073057504281
 40
9.773876647852072
 40
10.28878463147265
 40
10.43539554521806
 40
10.49930322624226
 40
10.49930322624226
 40
10.49930322624226
 40
10.49930322624226
 10
104.2617593965199
 20
332.6484579651491
 30
0.0
 10
105.9116128491737
 20
332.6912363144123
 30
0.0
 10
108.5281625313016
 20
332.7575257926772
 30
0.0
 10
111.7844916385075
 20
332.8601329781666
 30
0.0
 10
113.5621500899776
 20
332.9360612733054
 30
0.0
 10
114.4210205734377
 20
333.0001510503234
 30
0.0
 10
114.6606240033093
 20
333.0342186789376
 30
0.0
 10
114.7289433393739
 20
333.0507083538878
 30
0.0
 10
114.7483693585814
 20
333.0597805945632
 30
0.0
  0
LINE
  5
65
330
1F
100
AcDbEntity
  8
Make2D$___$___
100
AcDbLine
 10
114.7490005368863
 20
333.0601052975803
 30
0.0
 11
114.7617709414658
 21
333.0733833705589
 31
0.0
  0
SPLINE
  5
66
330
1F
100
AcDbEntity
  8
Make2D$___$___
100
AcDbSpline
210
0.0
220
0.0
230
1.0
 70
     8
 71
     3
 72
    15
 73
    11
 74
     0
 42
0.000000001
 43
0.0000000001
 12
1.0
 22
0.0
 32
0.0
 13
1.0
 23
0.0
 33
0.0
 40
0.0
 40
0.0
 40
0.0
 40
0.0
 40
0.0179127409745024
 40
0.0330481151221654
 40
0.101734807527152
 40
0.2326604708799989
 40
0.7547936458761885
 40
2.550814422694167
 40
5.587082818798718
 40
10.53833140248537
 40
10.53833140248537
 40
10.53833140248537
 40
10.53833140248537
 10
93.77454765036725
 20
333.9098694006028
 30
0.0
 10
93.7702778130668
 20
333.911107210641
 30
0.0
 10
93.7563255126334
 20
333.9221513582405
 30
0.0
 10
93.78514689691988
 20
333.9448926574702
 30
0.0
 10
93.85508695119537
 20
333.9604416036919
 30
0.0
 10
94.09326549965162
 20
333.9955766566698
 30
0.0
 10
94.90750007525858
 20
334.0569726510245
 30
0.0
 10
96.69067164404163
 20
334.1350449730173
 30
0.0
 10
99.95025718339983
 20
334.2375162552294
 30
0.0
 10
102.6119093913124
 20
334.3053145503101
 30
0.0
 10
104.2617720346014
 20
334.3479721362087
 30
0.0
  0
SPLINE
  5
67
330
1F
100
AcDbEntity
  8
Make2D$___$___
100
AcDbSpline
210
0.0
220
0.0
230
1.0
 70
     8
 71
     3
 72
    13
 73
     9
 74
     0
 42
0.000000001
 43
0.0000000001
 12
1.0
 22
0.0
 32
0.0
 13
1.0
 23
0.0
 33
0.0
 40
0.0
 40
0.0
 40
0.0
 40
0.0
 40
4.768462752075267
 40
7.713586059812435
 40
9.625410382030806
 40
10.15323786575545
 40
10.35334152516351
 40
10.45955370036828
 40
10.45955370036828
 40
10.45955370036828
 40
10.45955370036828
 10
104.2617720346014
 20
334.3479721362087
 30
0.0
 10
105.8507208086475
 20
334.3890897866216
 30
0.0
 10
108.4211074520852
 20
334.4545153413316
 30
0.0
 10
111.6280233116915
 20
334.5541050700694
 30
0.0
 10
113.4214690675879
 20
334.6290399222868
 30
0.0
 10
114.2994087718242
 20
334.6894261003309
 30
0.0
 10
114.5757769418402
 20
334.7208298370182
 30
0.0
 10
114.676522160219
 20
334.7376108091308
 30
0.0
 10
114.7108549890066
 20
334.7464570999291
 30
0.0
  0
SPLINE
  5
68
330
1F
100
AcDbEntity
  8
Make2D$___$___
100
AcDbSpline
210
0.0
220
0.0
230
1.0
 70
     8
 71
     3
 72
    15
 73
    11
 74
     0
 42
0.000000001
 43
0.0000000001
 12
1.0
 22
0.0
 32
0.0
 13
1.0
 23
0.0
 33
0.0
 40
0.0
 40
0.0
 40
0.0
 40
0.0
 40
0.0179235946696437
 40
0.0330713165076791
 40
0.101766329896301
 40
0.232695868329252
 40
0.7548349655162141
 40
2.550860022040899
 40
5.587120566879223
 40
10.53837889522398
 40
10.53837889522398
 40
10.53837889522398
 40
10.53837889522398
 10
93.77453923441541
 20
335.6099555323639
 30
0.0
 10
93.77026688113216
 20
335.6111986438416
 30
0.0
 10
93.75631614840992
 20
335.6222524389098
 30
0.0
 10
93.78512912989972
 20
335.6450199624551
 30
0.0
 10
93.85507496298497
 20
335.6605912148007
 30
0.0
 10
94.09325318625487
 20
335.6957700024337
 30
0.0
 10
94.90748812260847
 20
335.7572306172475
 30
0.0
 10
96.69065670091246
 20
335.8353921644822
 30
0.0
 10
99.95024203893998
 20
335.9379412096891
 30
0.0
 10
102.6118947219317
 20
336.0057466269267
 30
0.0
 10
104.2617604548534
 20
336.0484103414468
 30
0.0
  0
SPLINE
  5
69
330
1F
100
AcDbEntity
  8
Make2D$___$___
100
AcDbSpline
210
0.0
220
0.0
230
1.0
 70
     8
 71
     3
 72
    13
 73
     9
 74
     0
 42
0.000000001
 43
0.0000000001
 12
1.0
 22
0.0
 32
0.0
 13
1.0
 23
0.0
 33
0.0
 40
0.0
 40
0.0
 40
0.0
 40
0.0
 40
4.855305307746741
 40
7.934121942585729
 40
9.796264987556597
 40
10.28923531883237
 40
10.42299696687067
 40
10.50202052503346
 40
10.50202052503346
 40
10.50202052503346
 40
10.50202052503346
 10
104.2617604548535
 20
336.0484103414468
 30
0.0
 10
105.8796504035559
 20
336.0902248977266
 30
0.0
 10
108.5235177093811
 20
336.1575893924596
 30
0.0
 10
111.7873407939327
 20
336.2598653819423
 30
0.0
 10
113.5970458787516
 20
336.3381300054893
 30
0.0
 10
114.4244657975951
 20
336.4010762487887
 30
0.0
 10
114.6574931882123
 20
336.4340311383332
 30
0.0
 10
114.7270782377045
 20
336.4491002413376
 30
0.0
 10
114.7510833594188
 20
336.4601706813597
 30
0.0
  0
ARC
  5
6A
330
1F
100
AcDbEntity
  8
Make2D$___$___
100
AcDbCircle
 10
114.7484715756098
 20
336.4757121859232
 30
0.0
 40
0.0155040128070324
100
AcDbArc
 50
282.7577294460276
 51
358.3381831087967
  0
SPLINE
  5
6B
330
1F
100
AcDbEntity
  8
Make2D$___$___
100
AcDbSpline
210
0.0
220
0.0
230
1.0
 70
     8
 71
     3
 72
    18
 73
    14
 74
     0
 42
0.000000001
 43
0.0000000001
 12
1.0
 22
0.0
 32
0.0
 13
1.0
 23
0.0
 33
0.0
 40
0.0
 40
0.0
 40
0.0
 40
0.0
 40
0.0756445360828139
 40
0.2095522634634449
 40
0.6634305209482
 40
2.263269189034929
 40
5.226263686187227
 40
12.66209782798037
 40
15.61115509241678
 40
17.7365922761289
 40
18.32596041360318
 40
18.50293604032187
 40
18.60166694742979
 40
18.60166694742979
 40
18.60166694742979
 40
18.60166694742979
 10
113.5498790999441
 20
335.8336876011221
 30
0.0
 10
113.5269169008901
 20
335.8229673353054
 30
0.0
 10
113.4588750924167
 20
335.8065312982682
 30
0.0
 10
113.2400566434021
 20
335.7735947294776
 30
0.0
 10
112.5132531067582
 20
335.7123708256253
 30
0.0
 10
110.8429042677939
 20
335.6308009523474
 30
0.0
 10
106.8457349293365
 20
335.4921646254594
 30
0.0
 10
102.3979333976196
 20
335.3748961050016
 30
0.0
 10
98.23011960280046
 20
335.2366439529908
 30
0.0
 10
96.34385634622097
 20
335.1548137610239
 30
0.0
 10
95.38235285024452
 20
335.0841311815054
 30
0.0
 10
95.09634204302348
 20
335.0465028865702
 30
0.0
 10
95.0062409948844
 20
335.0272984216624
 30
0.0
 10
94.97604817893101
 20
335.0138133210619
 30
0.0
  0
SPLINE
  5
6C
330
1F
100
AcDbEntity
  8
Make2D$___$___
100
AcDbSpline
210
0.0
220
0.0
230
1.0
 70
     8
 71
     3
 72
    18
 73
    14
 74
     0
 42
0.000000001
 43
0.0000000001
 12
1.0
 22
0.0
 32
0.0
 13
1.0
 23
0.0
 33
0.0
 40
0.0
 40
0.0
 40
0.0
 40
0.0
 40
0.0823284646877108
 40
0.2607790007026067
 40
0.800044143055261
 40
2.984798645301165
 40
5.932463527100526
 40
13.48968499094812
 40
16.24088678899884
 40
17.9404409367227
 40
18.41487360318346
 40
18.53474850748181
 40
18.59929111966389
 40
18.59929111966389
 40
18.59929111966389
 40
18.59929111966389
 10
113.5415530796612
 20
334.1313514054826
 30
0.0
 10
113.5162003791513
 20
334.1204584262524
 30
0.0
 10
113.4312787746544
 20
334.1014008202251
 30
0.0
 10
113.1669040205773
 20
334.0649692308464
 30
0.0
 10
112.2019569653723
 20
333.9927968796254
 30
0.0
 10
110.313058907874
 20
333.9109160423586
 30
0.0
 10
106.0855356001781
 20
333.7703859686094
 30
0.0
 10
101.6682784865087
 20
333.6547582940909
 30
0.0
 10
97.66805791983015
 20
333.5149623738405
 30
0.0
 10
96.02812795660316
 20
333.4358961147834
 30
0.0
 10
95.26599177534968
 20
333.372041277618
 30
0.0
 10
95.04900738536425
 20
333.3367321052045
 30
0.0
 10
94.98953569304521
 20
333.3204415033462
 30
0.0
 10
94.97075904196942
 20
333.3095579108994
 30
0.0
  0
LINE
  5
6D
330
1F
100
AcDbEntity
  8
Make2D$___$___
100
AcDbLine
 10
94.9623069365561
 20
333.2997898163304
 30
0.0
 11
94.96586080996593
 21
333.2900218445771
 31
0.0
  0
LINE
  5
6E
330
1F
100
AcDbEntity
  8
Make2D$___$___
100
AcDbLine
 10
113.5617122533505
 20
332.4503482674578
 30
0.0
 11
113.5575434381117
 21
332.4405844751672
 31
0.0
  0
SPLINE
  5
6F
330
1F
100
AcDbEntity
  8
Make2D$___$___
100
AcDbSpline
210
0.0
220
0.0
230
1.0
 70
     8
 71
     3
 72
    18
 73
    14
 74
     0
 42
0.000000001
 43
0.0000000001
 12
1.0
 22
0.0
 32
0.0
 13
1.0
 23
0.0
 33
0.0
 40
0.0
 40
0.0
 40
0.0
 40
0.0
 40
0.0797339414304145
 40
0.2597552433277148
 40
0.8838218385781688
 40
3.066625274116924
 40
5.909374688797779
 40
13.34600947084899
 40
16.31688732020065
 40
17.97306524162076
 40
18.39935316724779
 40
18.53673651346871
 40
18.60267373750368
 40
18.60267373750368
 40
18.60267373750368
 40
18.60267373750368
 10
113.5434771925028
 20
332.4318446188565
 30
0.0
 10
113.5189153559605
 20
332.4213269014393
 30
0.0
 10
113.4343861448127
 20
332.4020641549751
 30
0.0
 10
113.1422517943943
 20
332.3623195223936
 30
0.0
 10
112.149090153834
 20
332.2900106107691
 30
0.0
 10
110.2675188940293
 20
332.2094050805684
 30
0.0
 10
106.1157538696909
 20
332.071580005779
 30
0.0
 10
101.7004742725588
 20
331.9553006917984
 30
0.0
 10
97.68164017279274
 20
331.8160607011462
 30
0.0
 10
95.9990928994298
 20
331.7339236048088
 30
0.0
 10
95.26163172919325
 20
331.670890412023
 30
0.0
 10
95.05419788119777
 20
331.638365329429
 30
0.0
 10
94.98818552150965
 20
331.6215321491681
 30
0.0
 10
94.9691232542014
 20
331.6102952792491
 30
0.0
  0
SPLINE
  5
70
330
1F
100
AcDbEntity
  8
Make2D$___$___
100
AcDbSpline
210
0.0
220
0.0
230
1.0
 70
     8
 71
     3
 72
    13
 73
     9
 74
     0
 42
0.000000001
 43
0.0000000001
 12
1.0
 22
0.0
 32
0.0
 13
1.0
 23
0.0
 33
0.0
 40
0.0
 40
0.0
 40
0.0
 40
0.0
 40
4.950534618119034
 40
7.853702738965155
 40
9.772370993852638
 40
10.28870989602138
 40
10.43641621705364
 40
10.50072678764264
 40
10.50072678764264
 40
10.50072678764264
 40
10.50072678764264
 10
104.2617864046183
 20
331.398048256114
 30
0.0
 10
102.6121681479903
 20
331.3553942892216
 30
0.0
 10
99.99508165501932
 20
331.2889259188557
 30
0.0
 10
96.73924462060748
 20
331.1865861037342
 30
0.0
 10
94.96137971993966
 20
331.1104855050766
 30
0.0
 10
94.10271630085548
 20
331.0463402505118
 30
0.0
 10
93.86210676826036
 20
331.0125111109514
 30
0.0
 10
93.79326149417203
 20
330.9960383351379
 30
0.0
 10
93.77368915210998
 20
330.9869746625186
 30
0.0
  0
LINE
  5
71
330
1F
100
AcDbEntity
  8
Make2D$___$___
100
AcDbLine
 10
93.77267878255473
 20
330.9864531285052
 30
0.0
 11
93.76047623106261
 21
330.9731713501581
 31
0.0
  0
LINE
  5
72
330
1F
100
AcDbEntity
  8
Make2D$___$___
100
AcDbLine
 10
114.7524270603162
 20
335.2355527059605
 30
0.0
 11
114.7640360281805
 21
335.2245376435841
 31
0.0
  0
SPLINE
  5
73
330
1F
100
AcDbEntity
  8
Make2D$___$___
100
AcDbSpline
210
0.0
220
0.0
230
1.0
 70
     8
 71
     3
 72
    14
 73
    10
 74
     0
 42
0.000000001
 43
0.0000000001
 12
1.0
 22
0.0
 32
0.0
 13
1.0
 23
0.0
 33
0.0
 40
0.0
 40
0.0
 40
0.0
 40
0.0
 40
0.0152333746156567
 40
0.0468178679397132
 40
0.1460962842987873
 40
0.6166380197225411
 40
2.384704738906152
 40
5.389923802549538
 40
10.52249652538037
 40
10.52249652538037
 40
10.52249652538037
 40
10.52249652538037
 10
114.7641925551469
 20
335.2237206426258
 30
0.0
 10
114.7643254742496
 20
335.2180565808306
 30
0.0
 10
114.751411410408
 20
335.2081192041712
 30
0.0
 10
114.7051672087609
 20
335.1925761387838
 30
0.0
 10
114.5072731524084
 20
335.1585319176421
 30
0.0
 10
113.730384059465
 20
335.0948244687416
 30
0.0
 10
111.9840815604558
 20
335.0165111230477
 30
0.0
 10
108.6838158427387
 20
334.9111753607209
 30
0.0
 10
105.9720621644901
 20
334.8423271227983
 30
0.0
 10
104.2617849180364
 20
334.7980996968703
 30
0.0
  0
SPLINE
  5
74
330
1F
100
AcDbEntity
  8
Make2D$___$___
100
AcDbSpline
210
0.0
220
0.0
230
1.0
 70
     8
 71
     3
 72
    13
 73
     9
 74
     0
 42
0.000000001
 43
0.0000000001
 12
1.0
 22
0.0
 32
0.0
 13
1.0
 23
0.0
 33
0.0
 40
0.0
 40
0.0
 40
0.0
 40
0.0
 40
4.951259129909283
 40
7.852071273252901
 40
9.773643126814356
 40
10.28736661814132
 40
10.43416330803749
 40
10.49857445960751
 40
10.49857445960751
 40
10.49857445960751
 40
10.49857445960751
 10
104.2617849180364
 20
334.7980996968703
 30
0.0
 10
102.611929036274
 20
334.7553201753889
 30
0.0
 10
99.99537935998134
 20
334.6890441798168
 30
0.0
 10
96.73912797454241
 20
334.5864531522783
 30
0.0
 10
94.96194291683472
 20
334.5105692499479
 30
0.0
 10
94.10347985722055
 20
334.4465494503617
 30
0.0
 10
93.86402804473028
 20
334.4125999991909
 30
0.0
 10
93.79546053503597
 20
334.3961886085852
 30
0.0
 10
93.77582103467495
 20
334.3871888840021
 30
0.0
  0
LINE
  5
75
330
1F
100
AcDbEntity
  8
Make2D$___$___
100
AcDbLine
 10
93.77454750157187
 20
334.3865416696823
 30
0.0
 11
93.76177726000871
 21
334.3732678984061
 31
0.0
  0
SPLINE
  5
76
330
1F
100
AcDbEntity
  8
Make2D$___$___
100
AcDbSpline
210
0.0
220
0.0
230
1.0
 70
     8
 71
     3
 72
    15
 73
    11
 74
     0
 42
0.000000001
 43
0.0000000001
 12
1.0
 22
0.0
 32
0.0
 13
1.0
 23
0.0
 33
0.0
 40
0.0
 40
0.0
 40
0.0
 40
0.0
 40
0.0179164608017052
 40
0.0330564474383615
 40
0.1017465525317032
 40
0.2326738942552117
 40
0.7548097902055388
 40
2.550834253497974
 40
5.587103395045314
 40
10.53835255872373
 40
10.53835255872373
 40
10.53835255872373
 40
10.53835255872373
 10
114.7490017764908
 20
333.536759957386
 30
0.0
 10
114.7532725693877
 20
333.5355202702868
 30
0.0
 10
114.7672239198652
 20
333.5244724387639
 30
0.0
 10
114.7384051949353
 20
333.5017219608456
 30
0.0
 10
114.6684629949263
 20
333.4861640311467
 30
0.0
 10
114.4302842067194
 20
333.4510130908851
 30
0.0
 10
113.6160486204162
 20
333.3895909660841
 30
0.0
 10
111.8328758629029
 20
333.311490872097
 30
0.0
 10
108.5732895322442
 20
333.2089894039655
 30
0.0
 10
105.9116370384488
 20
333.1411849923904
 30
0.0
 10
104.2617742024837
 20
333.0985272483583
 30
0.0
  0
SPLINE
  5
77
330
1F
100
AcDbEntity
  8
Make2D$___$___
100
AcDbSpline
210
0.0
220
0.0
230
1.0
 70
     8
 71
     3
 72
    13
 73
     9
 74
     0
 42
0.000000001
 43
0.0000000001
 12
1.0
 22
0.0
 32
0.0
 13
1.0
 23
0.0
 33
0.0
 40
0.0
 40
0.0
 40
0.0
 40
0.0
 40
4.76846342507651
 40
7.713589744508718
 40
9.625415481035857
 40
10.15324418629288
 40
10.35334946845781
 40
10.4595636389029
 40
10.4595636389029
 40
10.4595636389029
 40
10.4595636389029
 10
104.2617742024837
 20
333.0985272483583
 30
0.0
 10
102.6728252156756
 20
333.057409557197
 30
0.0
 10
100.102437480537
 20
332.9919771868474
 30
0.0
 10
96.89552063534137
 20
332.8923646923724
 30
0.0
 10
95.10207404528079
 20
332.8174018560317
 30
0.0
 10
94.22413457389794
 20
332.7569906841986
 30
0.0
 10
93.94776621921903
 20
332.725573289616
 30
0.0
 10
93.84702089806001
 20
332.7087856955794
 30
0.0
 10
93.81268828395052
 20
332.6999356521036
 30
0.0
  0
SPLINE
  5
78
330
1F
100
AcDbEntity
  8
Make2D$___$___
100
AcDbSpline
210
0.0
220
0.0
230
1.0
 70
     8
 71
     3
 72
    15
 73
    11
 74
     0
 42
0.000000001
 43
0.0000000001
 12
1.0
 22
0.0
 32
0.0
 13
1.0
 23
0.0
 33
0.0
 40
0.0
 40
0.0
 40
0.0
 40
0.0
 40
0.0179205130052581
 40
0.0330643708548601
 40
0.1017564837063289
 40
0.23268463806499
 40
0.754822834304473
 40
2.550844079673761
 40
5.587111161955731
 40
10.5383603594442
 40
10.5383603594442
 40
10.5383603594442
 40
10.5383603594442
 10
114.7490037846441
 20
331.8363993707633
 30
0.0
 10
114.7532753304106
 20
331.8351578342561
 30
0.0
 10
114.7672268696974
 20
331.8241070331843
 30
0.0
 10
114.7384117522571
 20
331.801347362143
 30
0.0
 10
114.6684678231177
 20
331.7857826571891
 30
0.0
 10
114.4302893556645
 20
331.7506177766605
 30
0.0
 10
113.6160550301922
 20
331.6891783130126
 30
0.0
 10
111.832884946221
 20
331.6110385318731
 30
0.0
 10
108.5733008181313
 20
331.5085192245025
 30
0.0
 10
105.9116491461791
 20
331.4407105661075
 30
0.0
 10
104.2617864046183
 20
331.398048256114
 30
0.0
  0
SPLINE
  5
79
330
1F
100
AcDbEntity
  8
Make2D$___$___
100
AcDbSpline
210
0.0
220
0.0
230
1.0
 70
     8
 71
     3
 72
    13
 73
     9
 74
     0
 42
0.000000001
 43
0.0000000001
 12
1.0
 22
0.0
 32
0.0
 13
1.0
 23
0.0
 33
0.0
 40
0.0
 40
0.0
 40
0.0
 40
0.0
 40
4.560347170617178
 40
7.326892223319583
 40
9.160639983877012
 40
9.640406627220429
 40
9.777085260737687
 40
9.844520371856273
 40
9.844520371856273
 40
9.844520371856273
 40
9.844520371856273
 10
104.2617730372062
 20
328.1953136063776
 30
0.0
 10
102.7419023024233
 20
328.1682662335314
 30
0.0
 10
100.2999363874867
 20
328.1270948712605
 30
0.0
 10
97.24712824250226
 20
328.0600337431146
 30
0.0
 10
95.55449274451342
 20
328.0093014971413
 30
0.0
 10
94.73876118102979
 20
327.9675072792932
 30
0.0
 10
94.51184075202065
 20
327.9449542658608
 30
0.0
 10
94.44456174938057
 20
327.934068772503
 30
0.0
 10
94.42352941248033
 20
327.9257959554742
 30
0.0
  0
LINE
  5
7A
330
1F
100
AcDbEntity
  8
Make2D$___$___
100
AcDbLine
 10
94.42197811043553
 20
327.9249673037988
 30
0.0
 11
94.41878638114872
 21
327.9162349871781
 31
0.0
  0
LINE
  5
7B
330
1F
100
AcDbEntity
  8
Make2D$___$___
100
AcDbLine
 10
95.26177303258237
 20
327.0732520364966
 30
0.0
 11
104.2617730325832
 21
327.0732520364966
 31
0.0
  0
SPLINE
  5
7C
330
1F
100
AcDbEntity
  8
Make2D$___$___
100
AcDbSpline
210
0.0
220
0.0
230
1.0
 70
     8
 71
     3
 72
    12
 73
     8
 74
     0
 42
0.000000001
 43
0.0000000001
 12
1.0
 22
0.0
 32
0.0
 13
1.0
 23
0.0
 33
0.0
 40
-1.0
 40
-1.0
 40
-1.0
 40
-1.0
 40
-0.875
 40
-0.875
 40
-0.75
 40
-0.75
 40
-0.6338506287175092
 40
-0.6338506287175092
 40
-0.6338506287175092
 40
-0.6338506287175092
 10
104.2617739876629
 20
329.6985340003064
 30
0.0
 10
102.4421380894231
 20
329.6516471584663
 30
0.0
 10
100.6246887436069
 20
329.6047596113631
 30
0.0
 10
97.46626882148988
 20
329.5109829061374
 30
0.0
 10
96.12909481651604
 20
329.4640937480961
 30
0.0
 10
94.35141102213468
 20
329.3736340766666
 30
0.0
 10
93.85602930701347
 20
329.3300636615978
 30
0.0
 10
93.77395433880626
 20
329.2864928805933
 30
0.0
  0
LINE
  5
7D
330
1F
100
AcDbEntity
  8
Make2D$___$___
100
AcDbLine
 10
114.6571307568361
 20
328.4846639023599
 30
0.0
 11
114.6647267023829
 21
328.478741496788
 31
0.0
  0
SPLINE
  5
7E
330
1F
100
AcDbEntity
  8
Make2D$___$___
100
AcDbSpline
210
0.0
220
0.0
230
1.0
 70
     8
 71
     3
 72
    12
 73
     8
 74
     0
 42
0.000000001
 43
0.0000000001
 12
1.0
 22
0.0
 32
0.0
 13
1.0
 23
0.0
 33
0.0
 40
0.2605507645581135
 40
0.2605507645581135
 40
0.2605507645581135
 40
0.2605507645581135
 40
0.50000003921928
 40
0.50000003921928
 40
0.7499996504471428
 40
0.7499996504471428
 40
1.0
 40
1.0
 40
1.0
 40
1.0
 10
114.663236473125
 20
328.4747407093572
 30
0.0
 10
114.6318373771316
 20
328.4444759729136
 30
0.0
 10
114.1446456749178
 20
328.4142461323248
 30
0.0
 10
112.3504212012547
 20
328.3526324549539
 30
0.0
 10
111.0097752281021
 20
328.3215993859131
 30
0.0
 10
107.8618010607622
 20
328.25768064473
 30
0.0
 10
106.0533876274359
 20
328.2268051925302
 30
0.0
 10
104.2617730372062
 20
328.1953136063776
 30
0.0
  0
SPLINE
  5
7F
330
1F
100
AcDbEntity
  8
Make2D$___$___
100
AcDbSpline
210
0.0
220
0.0
230
1.0
 70
     8
 71
     3
 72
    18
 73
    14
 74
     0
 42
0.000000001
 43
0.0000000001
 12
1.0
 22
0.0
 32
0.0
 13
1.0
 23
0.0
 33
0.0
 40
0.0
 40
0.0
 40
0.0
 40
0.0
 40
0.0596286910972419
 40
0.1936069605109611
 40
0.6567479811077366
 40
2.315710668258122
 40
5.133038499141874
 40
12.65485254647919
 40
15.51953468787647
 40
17.74833732571746
 40
18.3401298986322
 40
18.49833452683773
 40
18.59843659919917
 40
18.59843659919917
 40
18.59843659919917
 40
18.59843659919917
 10
113.5470937153994
 20
330.7332054652531
 30
0.0
 10
113.5292344305244
 20
330.7243165693017
 30
0.0
 10
113.4665946171257
 20
330.7079703370387
 30
0.0
 10
113.2501417405096
 20
330.6740464517122
 30
0.0
 10
112.5005605444417
 20
330.6112920617001
 30
0.0
 10
110.8559195514076
 20
330.531435640879
 30
0.0
 10
106.8589661252635
 20
330.3920979619022
 30
0.0
 10
102.459144635481
 20
330.2767276470651
 30
0.0
 10
98.25636428102564
 20
330.1372880869792
 30
0.0
 10
96.3629260590522
 20
330.0562244798362
 30
0.0
 10
95.3724660566115
 20
329.9834241015343
 30
0.0
 10
95.09161837297992
 20
329.9449460292765
 30
0.0
 10
95.0069656210415
 20
329.9275367102648
 30
0.0
 10
94.97650871821054
 20
329.9135564669027
 30
0.0
  0
ARC
  5
80
330
1F
100
AcDbEntity
  8
Make2D$___$___
100
AcDbCircle
 10
94.9734113836874
 20
329.8982597785774
 30
0.0
 40
0.0111860155810815
100
AcDbArc
 50
157.5150655715491
 51
245.4608193263173
  0
SPLINE
  5
81
330
1F
100
AcDbEntity
  8
Make2D$___$___
100
AcDbSpline
210
0.0
220
0.0
230
1.0
 70
     8
 71
     3
 72
    20
 73
    16
 74
     0
 42
0.000000001
 43
0.0000000001
 12
1.0
 22
0.0
 32
0.0
 13
1.0
 23
0.0
 33
0.0
 40
0.0
 40
0.0
 40
0.0
 40
0.0
 40
0.0137763992378592
 40
0.0396396989680969
 40
0.1389931059012833
 40
0.5357896387002506
 40
1.187621927257141
 40
2.201255736088317
 40
5.146293096067553
 40
12.66885299851184
 40
15.6820976995651
 40
17.84914109158121
 40
18.39561631896851
 40
18.55504106210183
 40
18.62516052080544
 40
18.62516052080544
 40
18.62516052080544
 40
18.62516052080544
 10
113.5613539789424
 20
329.0498156763377
 30
0.0
 10
113.562124682206
 20
329.0446896901848
 30
0.0
 10
113.5525518508474
 20
329.0346853984295
 30
0.0
 10
113.5093250435363
 20
329.0170739517287
 30
0.0
 10
113.3380954376269
 20
328.9846578873162
 30
0.0
 10
112.9570778802498
 20
328.9477179681149
 30
0.0
 10
112.2712253764585
 20
328.901164172428
 30
0.0
 10
110.736123860155
 20
328.8269676154194
 30
0.0
 10
106.9113365267658
 20
328.6937963840025
 30
0.0
 10
102.4192287788071
 20
328.5754943175874
 30
0.0
 10
98.1872842029698
 20
328.4351044922217
 30
0.0
 10
96.28007376200445
 20
328.3518100974658
 30
0.0
 10
95.32503454827645
 20
328.278767814645
 30
0.0
 10
95.0688861564705
 20
328.2411141131393
 30
0.0
 10
94.99451971154252
 20
328.2224439913193
 30
0.0
 10
94.97363800673625
 20
328.21151907426
 30
0.0
  0
SPLINE
  5
82
330
1F
100
AcDbEntity
  8
Make2D$___$___
100
AcDbSpline
210
0.0
220
0.0
230
1.0
 70
     8
 71
     3
 72
    16
 73
    12
 74
     0
 42
0.000000001
 43
0.0000000001
 12
1.0
 22
0.0
 32
0.0
 13
1.0
 23
0.0
 33
0.0
 40
0.0
 40
0.0
 40
0.0
 40
0.0
 40
0.019533395195782
 40
0.0363462080783971
 40
0.0608084146111116
 40
0.1128634364936275
 40
0.2454542718570625
 40
0.6999387428878935
 40
2.536435321108851
 40
5.481659458826059
 40
10.53957767669835
 40
10.53957767669835
 40
10.53957767669835
 40
10.53957767669835
 10
114.7471924452816
 20
330.1372764771264
 30
0.0
 10
114.7520093264203
 20
330.1362368474779
 30
0.0
 10
114.7673456823386
 20
330.1241166339072
 30
0.0
 10
114.7497426318757
 20
330.1088918191659
 30
0.0
 10
114.7208476747813
 20
330.0986072930607
 30
0.0
 10
114.6527208798055
 20
330.0830056843268
 30
0.0
 10
114.4417220447612
 20
330.0525667878513
 30
0.0
 10
113.6361193894043
 20
329.9901562670597
 30
0.0
 10
111.8922795556467
 20
329.9138248645125
 30
0.0
 10
108.6140633365938
 20
329.8097363541842
 30
0.0
 10
105.947171330231
 20
329.742217620005
 30
0.0
 10
104.2617739876629
 20
329.6985340003064
 30
0.0
  0
SPLINE
  5
83
330
1F
100
AcDbEntity
  8
Make2D$___$___
100
AcDbSpline
210
0.0
220
0.0
230
1.0
 70
     8
 71
     3
 72
    14
 73
    10
 74
     0
 42
0.000000001
 43
0.0000000001
 12
1.0
 22
0.0
 32
0.0
 13
1.0
 23
0.0
 33
0.0
 40
0.0
 40
0.0
 40
0.0
 40
0.0
 40
5.132435290883868
 40
6.820385479805871
 40
8.1182239788724
 40
9.926787084267426
 40
10.37703394186815
 40
10.47633804701716
 40
10.51729124823723
 40
10.51729124823723
 40
10.51729124823723
 40
10.51729124823723
 10
104.2617718627885
 20
337.7479768206749
 30
0.0
 10
105.9720127334381
 20
337.7921754688766
 30
0.0
 10
108.2447330958878
 20
337.8503341739302
 30
0.0
 10
110.9495484697445
 20
337.9333117641354
 30
0.0
 10
112.54657090232
 20
337.992473807616
 30
0.0
 10
113.7310263588143
 20
338.0443605431933
 30
0.0
 10
114.5146786358904
 20
338.1096200031744
 30
0.0
 10
114.7085213143909
 20
338.1444213340627
 30
0.0
 10
114.7535294937733
 20
338.1605401404801
 30
0.0
 10
114.760175555261
 20
338.173148668981
 30
0.0
  0
SPLINE
  5
84
330
1F
100
AcDbEntity
  8
Make2D$___$___
100
AcDbSpline
210
0.0
220
0.0
230
1.0
 70
     8
 71
     3
 72
    15
 73
    11
 74
     0
 42
0.000000001
 43
0.0000000001
 12
1.0
 22
0.0
 32
0.0
 13
1.0
 23
0.0
 33
0.0
 40
0.0
 40
0.0
 40
0.0
 40
0.0
 40
0.0180488470906072
 40
0.0330493933915862
 40
0.1015876335939291
 40
0.2327045836461388
 40
0.7555719922127057
 40
2.550585096914535
 40
5.586799964153157
 40
10.53823253923287
 40
10.53823253923287
 40
10.53823253923287
 40
10.53823253923287
 10
114.7483386081342
 20
338.6367113746534
 30
0.0
 10
114.7525361150226
 20
338.6354421014321
 30
0.0
 10
114.7668110980639
 20
338.6245348827217
 30
0.0
 10
114.7384079038615
 20
338.6015891612022
 30
0.0
 10
114.668365627213
 20
338.5860839098333
 30
0.0
 10
114.4299615441707
 20
338.5509875226635
 30
0.0
 10
113.6157427513669
 20
338.4895370313039
 30
0.0
 10
111.8326918397211
 20
338.4114003825464
 30
0.0
 10
108.573392185703
 20
338.3089282904306
 30
0.0
 10
105.911700519974
 20
338.2411516744963
 30
0.0
 10
104.2617742196943
 20
338.1985246691731
 30
0.0
  0
SPLINE
  5
85
330
1F
100
AcDbEntity
  8
Make2D$___$___
100
AcDbSpline
210
0.0
220
0.0
230
1.0
 70
     8
 71
     3
 72
    15
 73
    11
 74
     0
 42
0.000000001
 43
0.0000000001
 12
1.0
 22
0.0
 32
0.0
 13
1.0
 23
0.0
 33
0.0
 40
0.0
 40
0.0
 40
0.0
 40
0.0
 40
0.0177722544796755
 40
0.0329736911653398
 40
0.1014318644257782
 40
0.2317806985110313
 40
0.7533629575870544
 40
2.549653224223557
 40
5.586416481483047
 40
10.53757782042825
 40
10.53757782042825
 40
10.53757782042825
 40
10.53757782042825
 10
114.7486734722682
 20
336.9366824059507
 30
0.0
 10
114.7529803797381
 20
336.9354443847179
 30
0.0
 10
114.7666153595663
 20
336.9243191779123
 30
0.0
 10
114.7377349975903
 20
336.9017074653256
 30
0.0
 10
114.668129780472
 20
336.8860694104317
 30
0.0
 10
114.4303963606282
 20
336.8508414266951
 30
0.0
 10
113.6164490374744
 20
336.789554748611
 30
0.0
 10
111.8332097421986
 20
336.711318277343
 30
0.0
 10
108.5733989281665
 20
336.6088896034086
 30
0.0
 10
105.9116123000522
 20
336.5409917391165
 30
0.0
 10
104.2617790071632
 20
336.4983383342898
 30
0.0
  0
SPLINE
  5
86
330
1F
100
AcDbEntity
  8
Make2D$___$___
100
AcDbSpline
210
0.0
220
0.0
230
1.0
 70
     8
 71
     3
 72
    15
 73
    11
 74
     0
 42
0.000000001
 43
0.0000000001
 12
1.0
 22
0.0
 32
0.0
 13
1.0
 23
0.0
 33
0.0
 40
0.0
 40
0.0
 40
0.0
 40
0.0
 40
5.057882125475661
 40
6.710488045772975
 40
8.119742904317254
 40
9.90216841006112
 40
10.34619152463588
 40
10.47069298852917
 40
10.50331320529008
 40
10.51700970087511
 40
10.51700970087511
 40
10.51700970087511
 40
10.51700970087511
 10
104.2617720063009
 20
330.9479717818483
 30
0.0
 10
105.9471782983051
 20
330.9914468976177
 30
0.0
 10
108.1832582268038
 20
331.0487470673657
 30
0.0
 10
110.8886170576471
 20
331.1312443432541
 30
0.0
 10
112.5022587477276
 20
331.1902900909542
 30
0.0
 10
113.7130996155515
 20
331.243933942579
 30
0.0
 10
114.4943128948666
 20
331.3076623791309
 30
0.0
 10
114.6923320567513
 20
331.3402205459659
 30
0.0
 10
114.7467396388913
 20
331.3575165830212
 30
0.0
 10
114.7595041669583
 20
331.3670169868184
 30
0.0
 10
114.761118548494
 20
331.3714534295719
 30
0.0
  0
SPLINE
  5
87
330
1F
100
AcDbEntity
  8
Make2D$___$___
100
AcDbSpline
210
0.0
220
0.0
230
1.0
 70
     8
 71
     3
 72
    13
 73
     9
 74
     0
 42
0.000000001
 43
0.0000000001
 12
1.0
 22
0.0
 32
0.0
 13
1.0
 23
0.0
 33
0.0
 40
0.0
 40
0.0
 40
0.0
 40
0.0
 40
4.951248382955765
 40
7.852070565630044
 40
9.77383319415204
 40
10.28853202928396
 40
10.43517618406142
 40
10.49917376350287
 40
10.49917376350287
 40
10.49917376350287
 40
10.49917376350287
 10
104.2617730241251
 20
329.2479328248194
 30
0.0
 10
105.9116253912402
 20
329.2907115558317
 30
0.0
 10
108.528174237978
 20
329.3570053540981
 30
0.0
 10
111.7844881538296
 20
329.459631281883
 30
0.0
 10
113.5620632033618
 20
329.5355677234704
 30
0.0
 10
114.4208601349561
 20
329.5996709375138
 30
0.0
 10
114.6604355557862
 20
329.6337307988601
 30
0.0
 10
114.7287977962186
 20
329.6502128210178
 30
0.0
 10
114.7482606141601
 20
329.6592753520674
 30
0.0
  0
LINE
  5
88
330
1F
100
AcDbEntity
  8
Make2D$___$___
100
AcDbLine
 10
114.7490032402978
 20
329.6596567101643
 30
0.0
 11
114.7617732017612
 21
329.6729386453654
 31
0.0
  0
SPLINE
  5
89
330
1F
100
AcDbEntity
  8
Make2D$___$___
100
AcDbSpline
210
0.0
220
0.0
230
1.0
 70
     8
 71
     3
 72
    15
 73
    11
 74
     0
 42
0.000000001
 43
0.0000000001
 12
1.0
 22
0.0
 32
0.0
 13
1.0
 23
0.0
 33
0.0
 40
0.0
 40
0.0
 40
0.0
 40
0.0
 40
0.0196129814453379
 40
0.0366101707457318
 40
0.1075698053263001
 40
0.239915910197388
 40
0.7474534987766582
 40
2.598488950187554
 40
5.515922043876826
 40
10.53980746386576
 40
10.53980746386576
 40
10.53980746386576
 40
10.53980746386576
 10
93.77577934695312
 20
328.8091233355529
 30
0.0
 10
93.7709069459365
 20
328.8100114855026
 30
0.0
 10
93.75560020777726
 20
328.8230121079194
 30
0.0
 10
93.7875802760571
 20
328.8454529294824
 30
0.0
 10
93.8590228112285
 20
328.8610543287655
 30
0.0
 10
94.09374579344893
 20
328.8954684912297
 30
0.0
 10
94.92183820701537
 20
328.957916040426
 30
0.0
 10
96.6789524609078
 20
329.0342814552964
 30
0.0
 10
99.94143041743862
 20
329.1374207226917
 30
0.0
 10
102.5877145202889
 20
329.204576316343
 30
0.0
 10
104.2617730241252
 20
329.2479328248194
 30
0.0
  0
SPLINE
  5
8A
330
1F
100
AcDbEntity
  8
Make2D$___$___
100
AcDbSpline
210
0.0
220
0.0
230
1.0
 70
     8
 71
     3
 72
    15
 73
    11
 74
     0
 42
0.000000001
 43
0.0000000001
 12
1.0
 22
0.0
 32
0.0
 13
1.0
 23
0.0
 33
0.0
 40
0.0
 40
0.0
 40
0.0
 40
0.0
 40
0.0179182210116487
 40
0.0330603165791608
 40
0.1017521842705726
 40
0.232680686041758
 40
0.7548184841077605
 40
2.550841962876699
 40
5.587112826620793
 40
10.53836261447254
 40
10.53836261447254
 40
10.53836261447254
 40
10.53836261447254
 10
93.77454277439236
 20
330.5096764328412
 30
0.0
 10
93.77027154460453
 20
330.5109169948742
 30
0.0
 10
93.75632052772792
 20
330.5219664589788
 30
0.0
 10
93.78513817830537
 20
330.5447212793877
 30
0.0
 10
93.85508163774563
 20
330.5602826127069
 30
0.0
 10
94.0932609806558
 20
330.5954412602946
 30
0.0
 10
94.90749646982354
 20
330.6568741932364
 30
0.0
 10
96.69066925262888
 20
330.7349952818951
 30
0.0
 10
99.95025581953023
 20
330.8375047638375
 30
0.0
 10
102.6119089489265
 20
330.9053143910601
 30
0.0
 10
104.2617720063009
 20
330.9479717818483
 30
0.0
  0
LINE
  5
8B
330
1F
100
AcDbEntity
  8
Make2D$___$___
100
AcDbLine
 10
104.2617730325832
 20
327.0732520364966
 30
0.0
 11
113.261773032584
 21
327.0732520364966
 31
0.0
  0
LINE
  5
8C
330
1F
100
AcDbEntity
  8
Make2D$___$___
100
AcDbLine
 10
94.46644167590352
 20
339.5730502568225
 30
0.0
 11
108.686790639305
 21
339.5736351708181
 31
0.0
  0
ARC
  5
8D
330
1F
100
AcDbEntity
  8
Make2D$___$___
100
AcDbCircle
 10
94.52933555811467
 20
336.2516040442522
 30
0.0
 40
3.322041628790544
100
AcDbArc
 50
91.08480558547063
 51
103.086585442487
  0
LINE
  5
8E
330
1F
100
AcDbEntity
  8
Make2D$___$___
100
AcDbLine
 10
93.77645391923335
 20
339.4870233460005
 30
0.0
 11
93.76270410145
 21
339.4739981127874
 31
0.0
  0
SPLINE
  5
8F
330
1F
100
AcDbEntity
  8
Make2D$___$___
100
AcDbSpline
210
0.0
220
0.0
230
1.0
 70
     8
 71
     3
 72
    13
 73
     9
 74
     0
 42
0.000000001
 43
0.0000000001
 12
1.0
 22
0.0
 32
0.0
 13
1.0
 23
0.0
 33
0.0
 40
0.0
 40
0.0
 40
0.0
 40
0.0
 40
0.0905357069029705
 40
0.2569856973856676
 40
0.8813314461528705
 40
3.320941929401395
 40
6.705206141551109
 40
15.19996819694849
 40
15.19996819694849
 40
15.19996819694849
 40
15.19996819694849
 10
93.76869043337967
 20
339.0326440539972
 30
0.0
 10
93.79522471416522
 20
339.047472474064
 30
0.0
 10
93.87934147696247
 20
339.0656551745031
 30
0.0
 10
94.17074000033723
 20
339.1036582201118
 30
0.0
 10
95.24528055449707
 20
339.1767476510612
 30
0.0
 10
97.39315081198576
 20
339.2597297609183
 30
0.0
 10
102.163967452958
 20
339.4002005710153
 30
0.0
 10
106.1226014960556
 20
339.4923510445115
 30
0.0
 10
108.9530228817134
 20
339.573642872507
 30
0.0
  0
SPLINE
  5
90
330
1F
100
AcDbEntity
  8
Make2D$___$___
100
AcDbSpline
210
0.0
220
0.0
230
1.0
 70
     8
 71
     3
 72
    15
 73
    11
 74
     0
 42
0.000000001
 43
0.0000000001
 12
1.0
 22
0.0
 32
0.0
 13
1.0
 23
0.0
 33
0.0
 40
0.0
 40
0.0
 40
0.0
 40
0.0
 40
0.017686519435445
 40
0.0328039205262548
 40
0.1007479970929769
 40
0.2304110327215069
 40
0.7511245358422476
 40
2.549755920808321
 40
5.584338175585279
 40
10.53489587531839
 40
10.53489587531839
 40
10.53489587531839
 40
10.53489587531839
 10
93.77747473574175
 20
337.3097461441955
 30
0.0
 10
93.77321168851616
 20
337.3110197029228
 30
0.0
 10
93.75968466858978
 20
337.3220912372271
 30
0.0
 10
93.78816586201674
 20
337.344729177184
 30
0.0
 10
93.85737465385586
 20
337.3603717246829
 30
0.0
 10
94.09439219466667
 20
337.3956884112288
 30
0.0
 10
94.90861424483995
 20
337.4568728051708
 30
0.0
 10
96.69161747540967
 20
337.5350302570556
 30
0.0
 10
99.95127779681988
 20
337.6375866470598
 30
0.0
 10
102.6121412104691
 20
337.7052665543758
 30
0.0
 10
104.2617718627885
 20
337.7479768206749
 30
0.0
  0
SPLINE
  5
91
330
1F
100
AcDbEntity
  8
Make2D$___$___
100
AcDbSpline
210
0.0
220
0.0
230
1.0
 70
     8
 71
     3
 72
    14
 73
    10
 74
     0
 42
0.000000001
 43
0.0000000001
 12
1.0
 22
0.0
 32
0.0
 13
1.0
 23
0.0
 33
0.0
 40
0.0
 40
0.0
 40
0.0
 40
0.0
 40
5.131874518078759
 40
6.820819041076795
 40
8.119048437940728
 40
9.925553502397284
 40
10.37887600932484
 40
10.47894100185559
 40
10.51951961695963
 40
10.51951961695963
 40
10.51951961695963
 40
10.51951961695963
 10
104.2617742196943
 20
338.1985246691731
 30
0.0
 10
102.5517195362095
 20
338.1543906859669
 30
0.0
 10
100.2788522306846
 20
338.0962258652945
 30
0.0
 10
97.57376380139407
 20
338.0132983053936
 30
0.0
 10
95.97695520218998
 20
337.9542694668182
 30
0.0
 10
94.79205283091886
 20
337.9021026876116
 30
0.0
 10
94.007789680727
 20
337.8369048246584
 30
0.0
 10
93.81278338732378
 20
337.8023156861626
 30
0.0
 10
93.76750635821098
 20
337.7862359929995
 30
0.0
 10
93.76137401254967
 20
337.7734945966174
 30
0.0
  0
SPLINE
  5
92
330
1F
100
AcDbEntity
  8
Make2D$___$___
100
AcDbSpline
210
0.0
220
0.0
230
1.0
 70
     8
 71
     3
 72
    14
 73
    10
 74
     0
 42
0.000000001
 43
0.0000000001
 12
1.0
 22
0.0
 32
0.0
 13
1.0
 23
0.0
 33
0.0
 40
0.0
 40
0.0
 40
0.0
 40
0.0
 40
5.132014219266469
 40
6.822321978246621
 40
8.119708291713511
 40
9.927303827329212
 40
10.37866244438832
 40
10.47794804623581
 40
10.51864788409586
 40
10.51864788409586
 40
10.51864788409586
 40
10.51864788409586
 10
104.2617790071632
 20
336.4983383342898
 30
0.0
 10
102.551674897957
 20
336.4542935906174
 30
0.0
 10
100.2783101109129
 20
336.3960492570083
 30
0.0
 10
97.57299551541153
 20
336.3132683978495
 30
0.0
 10
95.97565458950005
 20
336.2541719608647
 30
0.0
 10
94.7913196713978
 20
336.2020182529064
 30
0.0
 10
94.0076043803027
 20
336.1370027538738
 30
0.0
 10
93.81348396105813
 20
336.1022077844974
 30
0.0
 10
93.76853681086601
 20
336.0860842477919
 30
0.0
 10
93.7621196846204
 20
336.0734388496262
 30
0.0
  0
ARC
  5
93
330
1F
100
AcDbEntity
  8
Make2D$___$___
100
AcDbCircle
 10
94.32711150254221
 20
3220.847947186997
 30
0.0
 40
2881.274900298977
100
AcDbArc
 50
269.9923780997833
 51
270.0027706592296
  0
SPLINE
  5
94
330
1F
100
AcDbEntity
  8
Make2D$___$___
100
AcDbSpline
210
0.0
220
0.0
230
1.0
 70
     8
 71
     3
 72
    18
 73
    14
 74
     0
 42
0.000000001
 43
0.0000000001
 12
1.0
 22
0.0
 32
0.0
 13
1.0
 23
0.0
 33
0.0
 40
0.0
 40
0.0
 40
0.0
 40
0.0
 40
0.0904691006818972
 40
0.2524227288270161
 40
0.863533315792214
 40
3.088393981130328
 40
5.961469078390371
 40
13.44351972377079
 40
16.26414940313561
 40
17.93412129011283
 40
18.39667180281948
 40
18.53649518866159
 40
18.60078768788957
 40
18.60078768788957
 40
18.60078768788957
 40
18.60078768788957
 10
113.5454113973951
 20
339.2311290113482
 30
0.0
 10
113.5175715827484
 20
339.219180663086
 30
0.0
 10
113.4352615961316
 20
339.2010393984209
 30
0.0
 10
113.1498703258079
 20
339.1621948433971
 30
0.0
 10
112.1530737223273
 20
339.0889675554187
 30
0.0
 10
110.2516971972711
 20
339.0077974272732
 30
0.0
 10
106.0606755179328
 20
338.8691162780109
 30
0.0
 10
101.6701989136062
 20
338.7541707614765
 30
0.0
 10
97.68170601940534
 20
338.61575582091
 30
0.0
 10
96.03246965879583
 20
338.5362335786384
 30
0.0
 10
95.27747197003163
 20
338.4731787785464
 30
0.0
 10
95.05766193468072
 20
338.4393917135818
 30
0.0
 10
94.99169514757239
 20
338.4219793938091
 30
0.0
 10
94.97266427954561
 20
338.4118021605605
 30
0.0
  0
SPLINE
  5
95
330
1F
100
AcDbEntity
  8
Make2D$___$___
100
AcDbSpline
210
0.0
220
0.0
230
1.0
 70
     8
 71
     3
 72
    18
 73
    14
 74
     0
 42
0.000000001
 43
0.0000000001
 12
1.0
 22
0.0
 32
0.0
 13
1.0
 23
0.0
 33
0.0
 40
0.0
 40
0.0
 40
0.0
 40
0.0
 40
0.0712414646425091
 40
0.2137148786731709
 40
0.655381406233483
 40
2.321419838587715
 40
5.132220634409025
 40
12.61487738296868
 40
15.49352423303618
 40
17.72882724789424
 40
18.30662540839058
 40
18.50071695080487
 40
18.59874488304924
 40
18.59874488304924
 40
18.59874488304924
 40
18.59874488304924
 10
113.5510172954582
 20
337.5355607896444
 30
0.0
 10
113.5300522689925
 20
337.5240266786736
 30
0.0
 10
113.460811232013
 20
337.5063587585313
 30
0.0
 10
113.2447617656251
 20
337.4729826420161
 30
0.0
 10
112.4971407200693
 20
337.4104389190483
 30
0.0
 10
110.8594633012345
 20
337.3309388117005
 30
0.0
 10
106.8753693397262
 20
337.1922039858805
 30
0.0
 10
102.4861101059511
 20
337.0772554580313
 30
0.0
 10
98.28953446929222
 20
336.9389011386111
 30
0.0
 10
96.39391291656646
 20
336.8582051185647
 30
0.0
 10
95.39395039590107
 20
336.7860932202298
 30
0.0
 10
95.1062999554506
 20
336.748476010851
 30
0.0
 10
95.01070771859527
 20
336.7287404286249
 30
0.0
 10
94.98058895294976
 20
336.715731347226
 30
0.0
  0
LINE
  5
96
330
1F
100
AcDbEntity
  8
Make2D$___$___
100
AcDbLine
 10
94.96417927365556
 20
336.7030584175986
 30
0.0
 11
94.96905257000907
 21
336.6894092806834
 31
0.0
  0
LINE
  5
97
330
1F
100
AcDbEntity
  8
Make2D$___$___
100
AcDbLine
 10
108.9530228817134
 20
339.573642872507
 30
0.0
 11
114.1988189057048
 21
339.573460131498
 31
0.0
  0
LINE
  5
98
330
1F
100
AcDbEntity
  8
Make2D$___$___
100
AcDbLine
 10
104.2617730325832
 20
341.5732520364975
 30
0.0
 11
114.7615100373413
 21
341.5737430375481
 31
0.0
  0
LINE
  5
99
330
1F
100
AcDbEntity
  8
Make2D$___$___
100
AcDbLine
 10
112.6469922640125
 20
344.0732520364975
 30
0.0
 11
104.2617730325832
 21
344.0732520364975
 31
0.0
  0
LINE
  5
9A
330
1F
100
AcDbEntity
  8
Make2D$___$___
100
AcDbLine
 10
93.76177303258319
 20
341.5732520364975
 30
0.0
 11
104.2617730325832
 21
341.5732520364975
 31
0.0
  0
LINE
  5
9B
330
1F
100
AcDbEntity
  8
Make2D$___$___
100
AcDbLine
 10
104.2617730325832
 20
344.0732520364975
 30
0.0
 11
95.87657812971473
 21
344.0732520364975
 31
0.0
  0
LINE
  5
9C
330
1F
100
AcDbEntity
  8
Make2D$___$___
100
AcDbLine
 10
58.76177303258321
 20
386.9351298520484
 30
0.0
 11
58.7617730325832
 21
386.6566125811503
 31
0.0
  0
LINE
  5
9D
330
1F
100
AcDbEntity
  8
Make2D$___$___
100
AcDbLine
 10
58.76177303258319
 20
386.6470188920953
 30
0.0
 11
58.7617730325832
 21
386.3563113687778
 31
0.0
  0
LINE
  5
9E
330
1F
100
AcDbEntity
  8
Make2D$___$___
100
AcDbLine
 10
58.76177303258317
 20
386.1973979171913
 30
0.0
 11
58.76177303258318
 21
386.0424069384841
 31
0.0
  0
LINE
  5
9F
330
1F
100
AcDbEntity
  8
Make2D$___$___
100
AcDbLine
 10
58.76177303258319
 20
385.9029328066025
 30
0.0
 11
58.76177303258319
 21
385.715093875873
 31
0.0
  0
LINE
  5
A0
330
1F
100
AcDbEntity
  8
Make2D$___$___
100
AcDbLine
 10
58.76177303258318
 20
385.5608814606922
 30
0.0
 11
58.76177303258319
 21
385.3745951818922
 31
0.0
  0
LINE
  5
A1
330
1F
100
AcDbEntity
  8
Make2D$___$___
100
AcDbLine
 10
58.76177303258319
 20
385.2730477386207
 30
0.0
 11
58.76177303258319
 21
385.0211618904154
 31
0.0
  0
LINE
  5
A2
330
1F
100
AcDbEntity
  8
Make2D$___$___
100
AcDbLine
 10
58.7617730325832
 20
384.9365709824809
 30
0.0
 11
58.7617730325832
 21
384.6550725422376
 31
0.0
  0
LINE
  5
A3
330
1F
100
AcDbEntity
  8
Make2D$___$___
100
AcDbLine
 10
58.76177303258321
 20
384.5511514446941
 30
0.0
 11
58.7617730325832
 21
384.2766325169728
 31
0.0
  0
LINE
  5
A4
330
1F
100
AcDbEntity
  8
Make2D$___$___
100
AcDbLine
 10
58.76177303258319
 20
384.1168611542371
 30
0.0
 11
58.76177303258319
 21
383.8861732256755
 31
0.0
  0
LINE
  5
A5
330
1F
100
AcDbEntity
  8
Make2D$___$___
100
AcDbLine
 10
58.76177303258319
 20
383.6341614638696
 30
0.0
 11
58.7617730325832
 21
383.4840511647928
 31
0.0
  0
LINE
  5
A6
330
1F
100
AcDbEntity
  8
Make2D$___$___
100
AcDbLine
 10
58.76177303258319
 20
383.3749113639801
 30
0.0
 11
58.76177303258319
 21
383.0706468248779
 31
0.0
  0
LINE
  5
A7
330
1F
100
AcDbEntity
  8
Make2D$___$___
100
AcDbLine
 10
58.76177303258319
 20
382.8213381716001
 30
0.0
 11
58.7617730325832
 21
382.6463635768759
 31
0.0
  0
LINE
  5
A8
330
1F
100
AcDbEntity
  8
Make2D$___$___
100
AcDbLine
 10
58.76177303258319
 20
382.5273811742766
 30
0.0
 11
58.7617730325832
 21
382.2116262698984
 31
0.0
  0
LINE
  5
A9
330
1F
100
AcDbEntity
  8
Make2D$___$___
100
AcDbLine
 10
58.76177303258319
 20
381.9062274987504
 30
0.0
 11
58.76177303258319
 21
381.7668800620037
 31
0.0
  0
LINE
  5
AA
330
1F
100
AcDbEntity
  8
Make2D$___$___
100
AcDbLine
 10
58.76177303258318
 20
381.5795430015576
 30
0.0
 11
58.76177303258319
 21
381.3125880535256
 31
0.0
  0
LINE
  5
AB
330
1F
100
AcDbEntity
  8
Make2D$___$___
100
AcDbLine
 10
58.76177303258319
 20
381.2425000990064
 30
0.0
 11
58.76177303258319
 21
380.8492309620203
 31
0.0
  0
LINE
  5
AC
330
1F
100
AcDbEntity
  8
Make2D$___$___
100
AcDbLine
 10
58.76177303258319
 20
380.5386109713986
 30
0.0
 11
58.7617730325832
 21
380.3773046054087
 31
0.0
  0
LINE
  5
AD
330
1F
100
AcDbEntity
  8
Make2D$___$___
100
AcDbLine
 10
58.7617730325832
 20
380.1724524425172
 30
0.0
 11
58.76177303258319
 21
379.897318377148
 31
0.0
  0
LINE
  5
AE
330
1F
100
AcDbEntity
  8
Make2D$___$___
100
AcDbLine
 10
58.76177303258318
 20
379.7973083570897
 30
0.0
 11
58.76177303258319
 21
379.4097934621192
 31
0.0
  0
LINE
  5
AF
330
1F
100
AcDbEntity
  8
Make2D$___$___
100
AcDbLine
 10
58.76177303258321
 20
379.02164003325
 30
0.0
 11
58.7617730325832
 21
378.9152610158574
 31
0.0
  0
LINE
  5
B0
330
1F
100
AcDbEntity
  8
Make2D$___$___
100
AcDbLine
 10
58.76177303258319
 20
378.6219432192642
 30
0.0
 11
58.76177303258319
 21
378.41426032007
 31
0.0
  0
LINE
  5
B1
330
1F
100
AcDbEntity
  8
Make2D$___$___
100
AcDbLine
 10
58.76177303258319
 20
378.214912648065
 30
0.0
 11
58.76177303258319
 21
377.3806446760184
 31
0.0
  0
LINE
  5
B2
330
1F
100
AcDbEntity
  8
Make2D$___$___
100
AcDbLine
 10
58.7617730325832
 20
376.9543283107109
 30
0.0
 11
58.76177303258319
 21
376.877924510882
 31
0.0
  0
LINE
  5
B3
330
1F
100
AcDbEntity
  8
Make2D$___$___
100
AcDbLine
 10
58.76177303258319
 20
376.5225168624065
 30
0.0
 11
58.76177303258319
 21
376.3565413512819
 31
0.0
  0
LINE
  5
B4
330
1F
100
AcDbEntity
  8
Make2D$___$___
100
AcDbLine
 10
58.76177303258318
 20
376.0856873470466
 30
0.0
 11
58.76177303258319
 21
375.8314436360623
 31
0.0
  0
LINE
  5
B5
330
1F
100
AcDbEntity
  8
Make2D$___$___
100
AcDbLine
 10
58.76177303258318
 20
375.6443202516262
 30
0.0
 11
58.76177303258319
 21
375.303180937701
 31
0.0
  0
LINE
  5
B6
330
1F
100
AcDbEntity
  8
Make2D$___$___
100
AcDbLine
 10
58.76177303258319
 20
375.1618566891033
 30
0.0
 11
58.76177303258319
 21
374.749903727825
 31
0.0
  0
LINE
  5
B7
330
1F
100
AcDbEntity
  8
Make2D$___$___
100
AcDbLine
 10
58.7617730325832
 20
374.2978188896599
 30
0.0
 11
58.76177303258319
 21
374.2393353842655
 31
0.0
  0
LINE
  5
B8
330
1F
100
AcDbEntity
  8
Make2D$___$___
100
AcDbLine
 10
58.76177303258319
 20
373.8431225879369
 30
0.0
 11
58.76177303258319
 21
373.7048231641168
 31
0.0
  0
LINE
  5
B9
330
1F
100
AcDbEntity
  8
Make2D$___$___
100
AcDbLine
 10
58.7617730325832
 20
373.3862895717491
 30
0.0
 11
58.7617730325832
 21
373.1692846491783
 31
0.0
  0
LINE
  5
BA
330
1F
100
AcDbEntity
  8
Make2D$___$___
100
AcDbLine
 10
58.76177303258319
 20
372.9277890683157
 30
0.0
 11
58.76177303258319
 21
372.633232191717
 31
0.0
  0
LINE
  5
BB
330
1F
100
AcDbEntity
  8
Make2D$___$___
100
AcDbLine
 10
58.76177303258319
 20
372.4507467767622
 30
0.0
 11
58.7617730325832
 21
372.0076267747816
 31
0.0
  0
LINE
  5
BC
330
1F
100
AcDbEntity
  8
Make2D$___$___
100
AcDbLine
 10
58.76177303258319
 20
371.9062901288012
 30
0.0
 11
58.76177303258319
 21
371.5468638650396
 31
0.0
  0
LINE
  5
BD
330
1F
100
AcDbEntity
  8
Make2D$___$___
100
AcDbLine
 10
58.7617730325832
 20
371.0862289415076
 30
0.0
 11
58.7617730325832
 21
371.0269341378325
 31
0.0
  0
LINE
  5
BE
330
1F
100
AcDbEntity
  8
Make2D$___$___
100
AcDbLine
 10
58.76177303258321
 20
370.6261450334896
 30
0.0
 11
58.7617730325832
 21
370.4937011080653
 31
0.0
  0
LINE
  5
BF
330
1F
100
AcDbEntity
  8
Make2D$___$___
100
AcDbLine
 10
58.76177303258321
 20
370.1670223209635
 30
0.0
 11
58.7617730325832
 21
369.9623206137708
 31
0.0
  0
LINE
  5
C0
330
1F
100
AcDbEntity
  8
Make2D$___$___
100
AcDbLine
 10
58.76177303258321
 20
369.7092582253401
 30
0.0
 11
58.76177303258319
 21
369.2532360235207
 31
0.0
  0
LINE
  5
C1
330
1F
100
AcDbEntity
  8
Make2D$___$___
100
AcDbLine
 10
58.76177303258319
 20
369.2006334416434
 30
0.0
 11
58.7617730325832
 21
368.799324475903
 31
0.0
  0
LINE
  5
C2
330
1F
100
AcDbEntity
  8
Make2D$___$___
100
AcDbLine
 10
58.76177303258319
 20
368.6660575687334
 30
0.0
 11
58.7617730325832
 21
368.3478771477468
 31
0.0
  0
LINE
  5
C3
330
1F
100
AcDbEntity
  8
Make2D$___$___
100
AcDbLine
 10
58.76177303258319
 20
367.8992322615549
 30
0.0
 11
58.7617730325832
 21
367.6068445197153
 31
0.0
  0
LINE
  5
C4
330
1F
100
AcDbEntity
  8
Make2D$___$___
100
AcDbLine
 10
58.76177303258319
 20
367.4537118518131
 30
0.0
 11
58.76177303258319
 21
367.0829705800272
 31
0.0
  0
LINE
  5
C5
330
1F
100
AcDbEntity
  8
Make2D$___$___
100
AcDbLine
 10
58.76177303258319
 20
367.0116219182775
 30
0.0
 11
58.76177303258319
 21
366.5732520305896
 31
0.0
  0
LINE
  5
C6
330
1F
100
AcDbEntity
  8
Make2D$___$___
100
AcDbLine
 10
58.76177303258319
 20
366.3236437853654
 30
0.0
 11
58.76177303258319
 21
366.1348821555619
 31
0.0
  0
LINE
  5
C7
330
1F
100
AcDbEntity
  8
Make2D$___$___
100
AcDbLine
 10
58.76177303258321
 20
365.8072045319599
 30
0.0
 11
58.7617730325832
 21
365.6927922216237
 31
0.0
  0
LINE
  5
C8
330
1F
100
AcDbEntity
  8
Make2D$___$___
100
AcDbLine
 10
58.76177303258319
 20
365.282886490286
 30
0.0
 11
58.76177303258319
 21
365.2472718114936
 31
0.0
  0
LINE
  5
C9
330
1F
100
AcDbEntity
  8
Make2D$___$___
100
AcDbLine
 10
58.7617730325832
 20
364.7986269270094
 30
0.0
 11
58.76177303258321
 21
364.7630194573254
 31
0.0
  0
LINE
  5
CA
330
1F
100
AcDbEntity
  8
Make2D$___$___
100
AcDbLine
 10
58.76177303258319
 20
364.3471796016894
 30
0.0
 11
58.7617730325832
 21
364.2396935363802
 31
0.0
  0
LINE
  5
CB
330
1F
100
AcDbEntity
  8
Make2D$___$___
100
AcDbLine
 10
58.7617730325832
 20
363.8932680494951
 30
0.0
 11
58.76177303258321
 21
363.7042212640842
 31
0.0
  0
LINE
  5
CC
330
1F
100
AcDbEntity
  8
Make2D$___$___
100
AcDbLine
 10
58.76177303258319
 20
363.4372458477192
 30
0.0
 11
58.76177303258319
 21
362.9794817521426
 31
0.0
  0
LINE
  5
CD
330
1F
100
AcDbEntity
  8
Make2D$___$___
100
AcDbLine
 10
58.76177303258319
 20
362.6528029627344
 30
0.0
 11
58.76177303258319
 21
362.5203590793722
 31
0.0
  0
LINE
  5
CE
330
1F
100
AcDbEntity
  8
Make2D$___$___
100
AcDbLine
 10
58.76177303258319
 20
362.1195699333566
 30
0.0
 11
58.7617730325832
 21
362.0602751758115
 31
0.0
  0
LINE
  5
CF
330
1F
100
AcDbEntity
  8
Make2D$___$___
100
AcDbLine
 10
58.76177303258317
 20
361.5996402058621
 30
0.0
 11
58.76177303258319
 21
361.5604583297927
 31
0.0
  0
LINE
  5
D0
330
1F
100
AcDbEntity
  8
Make2D$___$___
100
AcDbLine
 10
58.7617730325832
 20
361.1388772991007
 30
0.0
 11
58.76177303258321
 21
361.0214032853424
 31
0.0
  0
LINE
  5
D1
330
1F
100
AcDbEntity
  8
Make2D$___$___
100
AcDbLine
 10
58.76177303258317
 20
360.6784206454465
 30
0.0
 11
58.76177303258319
 21
360.4820499388434
 31
0.0
  0
LINE
  5
D2
330
1F
100
AcDbEntity
  8
Make2D$___$___
100
AcDbLine
 10
58.76177303258319
 20
360.2187150138578
 30
0.0
 11
58.76177303258319
 21
359.9428961822033
 31
0.0
  0
LINE
  5
D3
330
1F
100
AcDbEntity
  8
Make2D$___$___
100
AcDbLine
 10
58.7617730325832
 20
359.7602145086838
 30
0.0
 11
58.7617730325832
 21
359.3033814738491
 31
0.0
  0
LINE
  5
D4
330
1F
100
AcDbEntity
  8
Make2D$___$___
100
AcDbLine
 10
58.7617730325832
 20
358.9071688010503
 30
0.0
 11
58.76177303258319
 21
358.8486851652527
 31
0.0
  0
LINE
  5
D5
330
1F
100
AcDbEntity
  8
Make2D$___$___
100
AcDbLine
 10
58.76177303258319
 20
358.3966002460687
 30
0.0
 11
58.76177303258319
 21
358.3317853496287
 31
0.0
  0
LINE
  5
D6
330
1F
100
AcDbEntity
  8
Make2D$___$___
100
AcDbLine
 10
58.76177303258319
 20
357.9476059905639
 30
0.0
 11
58.7617730325832
 21
357.7986317472905
 31
0.0
  0
LINE
  5
D7
330
1F
100
AcDbEntity
  8
Make2D$___$___
100
AcDbLine
 10
58.76177303258321
 20
357.5021838213087
 30
0.0
 11
58.7617730325832
 21
357.2683225565772
 31
0.0
  0
LINE
  5
D8
330
1F
100
AcDbEntity
  8
Make2D$___$___
100
AcDbLine
 10
58.76177303258319
 20
357.060816725357
 30
0.0
 11
58.76177303258319
 21
356.7414078912969
 31
0.0
  0
LINE
  5
D9
330
1F
100
AcDbEntity
  8
Make2D$___$___
100
AcDbLine
 10
58.76177303258319
 20
356.6239872098794
 30
0.0
 11
58.76177303258319
 21
356.1921757990256
 31
0.0
  0
LINE
  5
DA
330
1F
100
AcDbEntity
  8
Make2D$___$___
100
AcDbLine
 10
58.7617730325832
 20
355.7658594044117
 30
0.0
 11
58.7617730325832
 21
355.6999779353517
 31
0.0
  0
LINE
  5
DB
330
1F
100
AcDbEntity
  8
Make2D$___$___
100
AcDbLine
 10
58.76177303258319
 20
355.3455096831153
 30
0.0
 11
58.7617730325832
 21
355.1865725227457
 31
0.0
  0
LINE
  5
DC
330
1F
100
AcDbEntity
  8
Make2D$___$___
100
AcDbLine
 10
58.7617730325832
 20
354.9315914213784
 30
0.0
 11
58.76177303258319
 21
354.6787783444811
 31
0.0
  0
LINE
  5
DD
330
1F
100
AcDbEntity
  8
Make2D$___$___
100
AcDbLine
 10
58.76177303258319
 20
354.5245608487685
 30
0.0
 11
58.76177303258319
 21
353.6822152836455
 31
0.0
  0
LINE
  5
DE
330
1F
100
AcDbEntity
  8
Make2D$___$___
100
AcDbLine
 10
58.76177303258318
 20
353.3491957184531
 30
0.0
 11
58.76177303258318
 21
353.1945262548026
 31
0.0
  0
LINE
  5
DF
330
1F
100
AcDbEntity
  8
Make2D$___$___
100
AcDbLine
 10
58.76177303258321
 20
352.974051616741
 30
0.0
 11
58.76177303258321
 21
352.7146044911409
 31
0.0
  0
LINE
  5
E0
330
1F
100
AcDbEntity
  8
Make2D$___$___
100
AcDbLine
 10
58.7617730325832
 20
352.6078930902202
 30
0.0
 11
58.7617730325832
 21
352.2510926603392
 31
0.0
  0
LINE
  5
E1
330
1F
100
AcDbEntity
  8
Make2D$___$___
100
AcDbLine
 10
58.76177303258319
 20
351.9040039908401
 30
0.0
 11
58.76177303258319
 21
351.7801125702438
 31
0.0
  0
LINE
  5
E2
330
1F
100
AcDbEntity
  8
Make2D$___$___
100
AcDbLine
 10
58.76177303258318
 20
351.5669610438653
 30
0.0
 11
58.76177303258319
 21
351.3265331445726
 31
0.0
  0
LINE
  5
E3
330
1F
100
AcDbEntity
  8
Make2D$___$___
100
AcDbLine
 10
58.76177303258319
 20
351.2402765557926
 30
0.0
 11
58.7617730325832
 21
350.882699000328
 31
0.0
  0
LINE
  5
E4
330
1F
100
AcDbEntity
  8
Make2D$___$___
100
AcDbLine
 10
58.76177303258319
 20
350.6191228779586
 30
0.0
 11
58.76177303258319
 21
350.4490636892735
 31
0.0
  0
LINE
  5
E5
330
1F
100
AcDbEntity
  8
Make2D$___$___
100
AcDbLine
 10
58.7617730325832
 20
350.3251658607367
 30
0.0
 11
58.7617730325832
 21
350.0425906889669
 31
0.0
  0
LINE
  5
E6
330
1F
100
AcDbEntity
  8
Make2D$___$___
100
AcDbLine
 10
58.76177303258319
 20
349.7715927090148
 30
0.0
 11
58.7617730325832
 21
349.6141044367961
 31
0.0
  0
LINE
  5
E7
330
1F
100
AcDbEntity
  8
Make2D$___$___
100
AcDbLine
 10
58.76177303258321
 20
349.5123425601186
 30
0.0
 11
58.7617730325832
 21
348.4482954607296
 31
0.0
  0
LINE
  5
E8
330
1F
100
AcDbEntity
  8
Make2D$___$___
100
AcDbLine
 10
58.76177303258319
 20
344.1734050728866
 30
0.0
 11
58.76177303258319
 21
343.3789022470733
 31
0.0
  0
ARC
  5
E9
330
1F
100
AcDbEntity
  8
Make2D$___$___
100
AcDbCircle
 10
59.06177303258315
 20
343.3732520364975
 30
0.0
 40
0.3000000000000114
100
AcDbArc
 50
180.0000000000108
 51
270.0000000000054
  0
LINE
  5
EA
330
1F
100
AcDbEntity
  8
Make2D$___$___
100
AcDbLine
 10
116.5117730325832
 20
354.1037014082462
 30
0.0
 11
116.5117730325832
 21
350.1012479263483
 31
0.0
  0
LINE
  5
EB
330
1F
100
AcDbEntity
  8
Make2D$___$___
100
AcDbLine
 10
116.5117730325831
 20
367.2274514895485
 30
0.0
 11
116.5117730325831
 21
366.6753027117653
 31
0.0
  0
LINE
  5
EC
330
1F
100
AcDbEntity
  8
Make2D$___$___
100
AcDbLine
 10
116.5117730325831
 20
365.5520299966655
 30
0.0
 11
116.5117730325831
 21
365.3990956164112
 31
0.0
  0
LINE
  5
ED
330
1F
100
AcDbEntity
  8
Make2D$___$___
100
AcDbLine
 10
116.5117730325831
 20
364.9792977689039
 30
0.0
 11
116.5117730325831
 21
364.7843916832614
 31
0.0
  0
LINE
  5
EE
330
1F
100
AcDbEntity
  8
Make2D$___$___
100
AcDbLine
 10
116.5117730325831
 20
364.4022718399817
 30
0.0
 11
116.5117730325831
 21
364.0529883891045
 31
0.0
  0
LINE
  5
EF
330
1F
100
AcDbEntity
  8
Make2D$___$___
100
AcDbLine
 10
116.5117730325831
 20
363.8228526697887
 30
0.0
 11
116.5117730325831
 21
363.5838161621123
 31
0.0
  0
LINE
  5
F0
330
1F
100
AcDbEntity
  8
Make2D$___$___
100
AcDbLine
 10
116.5117730325832
 20
363.2430548280957
 30
0.0
 11
116.5117730325831
 21
363.0131054546025
 31
0.0
  0
LINE
  5
F1
330
1F
100
AcDbEntity
  8
Make2D$___$___
100
AcDbLine
 10
116.5117730325831
 20
362.6320602198473
 30
0.0
 11
116.5117730325831
 21
362.2934464042733
 31
0.0
  0
LINE
  5
F2
330
1F
100
AcDbEntity
  8
Make2D$___$___
100
AcDbLine
 10
116.5117730325832
 20
362.0520043206964
 30
0.0
 11
116.5117730325831
 21
361.5228562957169
 31
0.0
  0
LINE
  5
F3
330
1F
100
AcDbEntity
  8
Make2D$___$___
100
AcDbLine
 10
116.5117730325832
 20
361.4953827225062
 30
0.0
 11
116.5117730325832
 21
361.3192252325924
 31
0.0
  0
LINE
  5
F4
330
1F
100
AcDbEntity
  8
Make2D$___$___
100
AcDbLine
 10
116.5117730325832
 20
361.1938770688584
 30
0.0
 11
116.5117730325832
 21
361.0312738071048
 31
0.0
  0
LINE
  5
F5
330
1F
100
AcDbEntity
  8
Make2D$___$___
100
AcDbLine
 10
116.5117730325832
 20
360.9122071026865
 30
0.0
 11
116.5117730325831
 21
360.7679912196508
 31
0.0
  0
LINE
  5
F6
330
1F
100
AcDbEntity
  8
Make2D$___$___
100
AcDbLine
 10
116.5117730325832
 20
360.372242701504
 30
0.0
 11
116.5117730325832
 21
360.2271871244999
 31
0.0
  0
LINE
  5
F7
330
1F
100
AcDbEntity
  8
Make2D$___$___
100
AcDbLine
 10
116.5117730325832
 20
360.1013136646842
 30
0.0
 11
116.5117730325832
 21
359.6160405712921
 31
0.0
  0
LINE
  5
F8
330
1F
100
AcDbEntity
  8
Make2D$___$___
100
AcDbLine
 10
116.5117730325832
 20
359.5642571408848
 30
0.0
 11
116.5117730325832
 21
359.4404068635394
 31
0.0
  0
LINE
  5
F9
330
1F
100
AcDbEntity
  8
Make2D$___$___
100
AcDbLine
 10
116.5117730325832
 20
359.2887310421181
 30
0.0
 11
116.5117730325832
 21
359.1857492910041
 31
0.0
  0
LINE
  5
FA
330
1F
100
AcDbEntity
  8
Make2D$___$___
100
AcDbLine
 10
116.5117730325832
 20
358.7960171229773
 30
0.0
 11
116.5117730325832
 21
358.4902087684504
 31
0.0
  0
LINE
  5
FB
330
1F
100
AcDbEntity
  8
Make2D$___$___
100
AcDbLine
 10
116.5117730325832
 20
358.2905014337902
 30
0.0
 11
116.5117730325832
 21
357.936250343635
 31
0.0
  0
LINE
  5
FC
330
1F
100
AcDbEntity
  8
Make2D$___$___
100
AcDbLine
 10
116.5117730325831
 20
357.8228784337886
 30
0.0
 11
116.5117730325832
 21
357.6827772997887
 31
0.0
  0
LINE
  5
FD
330
1F
100
AcDbEntity
  8
Make2D$___$___
100
AcDbLine
 10
116.5117730325832
 20
357.6102115357751
 30
0.0
 11
116.5117730325832
 21
357.2496969379638
 31
0.0
  0
LINE
  5
FE
330
1F
100
AcDbEntity
  8
Make2D$___$___
100
AcDbLine
 10
116.5117730325832
 20
357.2267954947694
 30
0.0
 11
116.5117730325832
 21
356.849932793558
 31
0.0
  0
LINE
  5
FF
330
1F
100
AcDbEntity
  8
Make2D$___$___
100
AcDbLine
 10
116.5117730325832
 20
356.7597768831766
 30
0.0
 11
116.5117730325832
 21
356.6576322221196
 31
0.0
  0
LINE
  5
100
330
1F
100
AcDbEntity
  8
Make2D$___$___
100
AcDbLine
 10
116.5117730325832
 20
356.5667832630493
 30
0.0
 11
116.5117730325832
 21
356.4719724912218
 31
0.0
  0
LINE
  5
101
330
1F
100
AcDbEntity
  8
Make2D$___$___
100
AcDbLine
 10
116.5117730325832
 20
356.3806864649601
 30
0.0
 11
116.5117730325832
 21
356.2930680379584
 31
0.0
  0
LINE
  5
102
330
1F
100
AcDbEntity
  8
Make2D$___$___
100
AcDbLine
 10
116.5117730325832
 20
356.2016094911566
 30
0.0
 11
116.5117730325832
 21
355.9559129310604
 31
0.0
  0
LINE
  5
103
330
1F
100
AcDbEntity
  8
Make2D$___$___
100
AcDbLine
 10
116.5117730325832
 20
355.8649323014643
 30
0.0
 11
116.5117730325832
 21
355.646802539312
 31
0.0
  0
LINE
  5
104
330
1F
100
AcDbEntity
  8
Make2D$___$___
100
AcDbLine
 10
116.5117730325832
 20
355.5574356694105
 30
0.0
 11
116.5117730325832
 21
355.3661490350883
 31
0.0
  0
LINE
  5
105
330
1F
100
AcDbEntity
  8
Make2D$___$___
100
AcDbLine
 10
116.5117730325832
 20
355.2795632251306
 30
0.0
 11
116.5117730325832
 21
355.1141455128973
 31
0.0
  0
LINE
  5
106
330
1F
100
AcDbEntity
  8
Make2D$___$___
100
AcDbLine
 10
116.5117730325832
 20
355.0315224445248
 30
0.0
 11
116.5117730325832
 21
354.8907740372778
 31
0.0
  0
LINE
  5
107
330
1F
100
AcDbEntity
  8
Make2D$___$___
100
AcDbLine
 10
116.5117730325832
 20
354.8132929719332
 30
0.0
 11
116.5117730325832
 21
354.6958169028617
 31
0.0
  0
LINE
  5
108
330
1F
100
AcDbEntity
  8
Make2D$___$___
100
AcDbLine
 10
116.5117730325832
 20
354.6246385997983
 30
0.0
 11
116.5117730325832
 21
354.5288706106052
 31
0.0
  0
LINE
  5
109
330
1F
100
AcDbEntity
  8
Make2D$___$___
100
AcDbLine
 10
116.5117730325832
 20
354.4651223446288
 30
0.0
 11
116.5117730325832
 21
354.3893619786352
 31
0.0
  0
LINE
  5
10A
330
1F
100
AcDbEntity
  8
Make2D$___$___
100
AcDbLine
 10
116.5117730325832
 20
354.334124004027
 30
0.0
 11
116.5117730325832
 21
354.2765660074695
 31
0.0
  0
LINE
  5
10B
330
1F
100
AcDbEntity
  8
Make2D$___$___
100
AcDbLine
 10
116.5117730325832
 20
354.2308595560716
 30
0.0
 11
116.5117730325832
 21
354.1896244536955
 31
0.0
  0
LINE
  5
10C
330
1F
100
AcDbEntity
  8
Make2D$___$___
100
AcDbLine
 10
116.5117730325832
 20
354.1544017676145
 30
0.0
 11
116.5117730325832
 21
354.1275653202328
 31
0.0
  0
LINE
  5
10D
330
1F
100
AcDbEntity
  8
Make2D$___$___
100
AcDbLine
 10
116.5117730325832
 20
378.5994200146308
 30
0.0
 11
116.5117730325831
 21
367.2274514895485
 31
0.0
  0
LINE
  5
10E
330
1F
100
AcDbEntity
  8
Make2D$___$___
100
AcDbLine
 10
116.5117730325832
 20
379.0732520364981
 30
0.0
 11
116.5117730325832
 21
378.5994200146308
 31
0.0
  0
LINE
  5
10F
330
1F
100
AcDbEntity
  8
Make2D$___$___
100
AcDbLine
 10
116.5117730325832
 20
381.9065853699739
 30
0.0
 11
116.5117730325832
 21
379.118194681159
 31
0.0
  0
LINE
  5
110
330
1F
100
AcDbEntity
  8
Make2D$___$___
100
AcDbLine
 10
116.5117730325832
 20
350.1012479263483
 30
0.0
 11
116.5117730325832
 21
348.3548435803161
 31
0.0
  0
LINE
  5
111
330
1F
100
AcDbEntity
  8
Make2D$___$___
100
AcDbLine
 10
116.5117730325832
 20
348.3548435803161
 30
0.0
 11
116.5117730325832
 21
348.0687581587998
 31
0.0
  0
LINE
  5
112
330
1F
100
AcDbEntity
  8
Make2D$___$___
100
AcDbLine
 10
116.5117730325832
 20
348.0609632868939
 30
0.0
 11
116.5117730325832
 21
347.7896639857062
 31
0.0
  0
LINE
  5
113
330
1F
100
AcDbEntity
  8
Make2D$___$___
100
AcDbLine
 10
116.5117730325832
 20
347.7759202119187
 30
0.0
 11
116.5117730325832
 21
347.5178131249285
 31
0.0
  0
LINE
  5
114
330
1F
100
AcDbEntity
  8
Make2D$___$___
100
AcDbLine
 10
116.5117730325832
 20
347.499857668029
 30
0.0
 11
116.5117730325832
 21
347.25345114256
 31
0.0
  0
LINE
  5
115
330
1F
100
AcDbEntity
  8
Make2D$___$___
100
AcDbLine
 10
116.5117730325832
 20
347.2329057066519
 30
0.0
 11
116.5117730325832
 21
346.9968164635123
 31
0.0
  0
LINE
  5
116
330
1F
100
AcDbEntity
  8
Make2D$___$___
100
AcDbLine
 10
116.5117730325832
 20
346.9751810225526
 30
0.0
 11
116.5117730325832
 21
346.7481397972322
 31
0.0
  0
LINE
  5
117
330
1F
100
AcDbEntity
  8
Make2D$___$___
100
AcDbLine
 10
116.5117730325832
 20
346.7267866337232
 30
0.0
 11
116.5117730325832
 21
346.5076433081808
 31
0.0
  0
LINE
  5
118
330
1F
100
AcDbEntity
  8
Make2D$___$___
100
AcDbLine
 10
116.5117730325832
 20
346.4878121385219
 30
0.0
 11
116.5117730325832
 21
346.2755403643612
 31
0.0
  0
LINE
  5
119
330
1F
100
AcDbEntity
  8
Make2D$___$___
100
AcDbLine
 10
116.5117730325832
 20
346.258333466572
 30
0.0
 11
116.5117730325832
 21
346.0520346854382
 31
0.0
  0
LINE
  5
11A
330
1F
100
AcDbEntity
  8
Make2D$___$___
100
AcDbLine
 10
116.5117730325832
 20
346.0384129975915
 30
0.0
 11
116.5117730325832
 21
345.8373199099499
 31
0.0
  0
LINE
  5
11B
330
1F
100
AcDbEntity
  8
Make2D$___$___
100
AcDbLine
 10
116.5117730325832
 20
345.8280996251376
 30
0.0
 11
116.5117730325832
 21
345.4349840361429
 31
0.0
  0
LINE
  5
11C
330
1F
100
AcDbEntity
  8
Make2D$___$___
100
AcDbLine
 10
116.5117730325832
 20
345.0698608979363
 30
0.0
 11
116.5117730325832
 21
345.0188185582529
 31
0.0
  0
LINE
  5
11D
330
1F
100
AcDbEntity
  8
Make2D$___$___
100
AcDbLine
 10
116.5117730325832
 20
344.9016171448896
 30
0.0
 11
116.5117730325832
 21
344.8611778480504
 31
0.0
  0
LINE
  5
11E
330
1F
100
AcDbEntity
  8
Make2D$___$___
100
AcDbLine
 10
116.5117730325832
 20
344.7430872318571
 30
0.0
 11
116.5117730325832
 21
344.7123889343586
 31
0.0
  0
LINE
  5
11F
330
1F
100
AcDbEntity
  8
Make2D$___$___
100
AcDbLine
 10
116.5117730325832
 20
344.5943814512158
 30
0.0
 11
116.5117730325832
 21
344.5725400732376
 31
0.0
  0
LINE
  5
120
330
1F
100
AcDbEntity
  8
Make2D$___$___
100
AcDbLine
 10
116.5117730325832
 20
344.4555968364865
 30
0.0
 11
116.5117730325832
 21
344.441708523442
 31
0.0
  0
LINE
  5
121
330
1F
100
AcDbEntity
  8
Make2D$___$___
100
AcDbLine
 10
116.5117730325832
 20
344.3692118831581
 30
0.0
 11
116.5117730325832
 21
344.3199604059586
 31
0.0
  0
LINE
  5
122
330
1F
100
AcDbEntity
  8
Make2D$___$___
100
AcDbLine
 10
116.5117730325832
 20
344.2548270289752
 30
0.0
 11
116.5117730325832
 21
344.207350597863
 31
0.0
  0
LINE
  5
123
330
1F
100
AcDbEntity
  8
Make2D$___$___
100
AcDbLine
 10
116.5117730325832
 20
344.0097088043628
 30
0.0
 11
116.5117730325832
 21
344.0011361323495
 31
0.0
  0
LINE
  5
124
330
1F
100
AcDbEntity
  8
Make2D$___$___
100
AcDbLine
 10
116.5117730325832
 20
343.924729883887
 30
0.0
 11
116.5117730325832
 21
343.9129366156614
 31
0.0
  0
LINE
  5
125
330
1F
100
AcDbEntity
  8
Make2D$___$___
100
AcDbLine
 10
116.5117730325832
 20
343.8489954330925
 30
0.0
 11
116.5117730325832
 21
343.8349534575902
 31
0.0
  0
LINE
  5
126
330
1F
100
AcDbEntity
  8
Make2D$___$___
100
AcDbLine
 10
116.5117730325832
 20
343.815511682084
 30
0.0
 11
116.5117730325832
 21
343.7096262096259
 31
0.0
  0
LINE
  5
127
330
1F
100
AcDbEntity
  8
Make2D$___$___
100
AcDbLine
 10
116.5117730325832
 20
343.614488716846
 30
0.0
 11
116.5117730325832
 21
343.5761685117878
 31
0.0
  0
LINE
  5
128
330
1F
100
AcDbEntity
  8
Make2D$___$___
100
AcDbLine
 10
59.06177303258318
 20
343.0732520364975
 30
0.0
 11
93.46177303258219
 21
343.0732520364978
 31
0.0
  0
LINE
  5
129
330
1F
100
AcDbEntity
  8
Make2D$___$___
100
AcDbLine
 10
116.0117730325832
 20
390.0732520364975
 30
0.0
 11
59.06177303258318
 21
390.0732520364975
 31
0.0
  0
LINE
  5
12A
330
1F
100
AcDbEntity
  8
Make2D$___$___
100
AcDbLine
 10
115.0617730325832
 20
343.0732520364976
 30
0.0
 11
116.0117730325832
 21
343.0732520364975
 31
0.0
  0
ARC
  5
12B
330
1F
100
AcDbEntity
  8
Make2D$___$___
100
AcDbCircle
 10
115.0617730325798
 20
343.3732520365141
 30
0.0
 40
0.3000000000164861
100
AcDbArc
 50
244.8963232900922
 51
270.0000000006459
  0
ARC
  5
12C
330
1F
100
AcDbEntity
  8
Make2D$___$___
100
AcDbCircle
 10
93.46177301524376
 20
343.3732521122487
 30
0.0
 40
0.300000075750916
100
AcDbArc
 50
270.0000033113939
 51
295.3599372321783
  0
LINE
  5
12D
330
1F
100
AcDbEntity
  8
Make2D$___$___
100
AcDbLine
 10
116.5117730325832
 20
389.2840678002903
 30
0.0
 11
116.5117730325832
 21
388.8813740836788
 31
0.0
  0
LINE
  5
12E
330
1F
100
AcDbEntity
  8
Make2D$___$___
100
AcDbLine
 10
116.5117730325832
 20
388.5194202215224
 30
0.0
 11
116.5117730325832
 21
388.4862036230013
 31
0.0
  0
LINE
  5
12F
330
1F
100
AcDbEntity
  8
Make2D$___$___
100
AcDbLine
 10
116.5117730325832
 20
388.3246015567357
 30
0.0
 11
116.5117730325832
 21
388.3001819443253
 31
0.0
  0
LINE
  5
130
330
1F
100
AcDbEntity
  8
Make2D$___$___
100
AcDbLine
 10
116.5117730325832
 20
388.1135237927912
 30
0.0
 11
116.5117730325832
 21
388.0986537971023
 31
0.0
  0
LINE
  5
131
330
1F
100
AcDbEntity
  8
Make2D$___$___
100
AcDbLine
 10
116.5117730325832
 20
387.8863760102233
 30
0.0
 11
116.5117730325832
 21
387.7366330566674
 31
0.0
  0
LINE
  5
132
330
1F
100
AcDbEntity
  8
Make2D$___$___
100
AcDbLine
 10
116.5117730325832
 20
387.6433835128457
 30
0.0
 11
116.5117730325832
 21
387.4938520984238
 31
0.0
  0
LINE
  5
133
330
1F
100
AcDbEntity
  8
Make2D$___$___
100
AcDbLine
 10
116.5117730325832
 20
387.4005273075938
 30
0.0
 11
116.5117730325832
 21
387.236759043654
 31
0.0
  0
LINE
  5
134
330
1F
100
AcDbEntity
  8
Make2D$___$___
100
AcDbLine
 10
116.5117730325832
 20
387.1366317556565
 30
0.0
 11
116.5117730325832
 21
386.9656249184651
 31
0.0
  0
LINE
  5
135
330
1F
100
AcDbEntity
  8
Make2D$___$___
100
AcDbLine
 10
116.5117730325832
 20
386.8572237510564
 30
0.0
 11
116.5117730325832
 21
386.6807491563912
 31
0.0
  0
LINE
  5
136
330
1F
100
AcDbEntity
  8
Make2D$___$___
100
AcDbLine
 10
116.5117730325832
 20
386.5624036130222
 30
0.0
 11
116.5117730325832
 21
386.3824585040886
 31
0.0
  0
LINE
  5
137
330
1F
100
AcDbEntity
  8
Make2D$___$___
100
AcDbLine
 10
116.5117730325832
 20
386.2523068101434
 30
0.0
 11
116.5117730325832
 21
386.0711057919377
 31
0.0
  0
LINE
  5
138
330
1F
100
AcDbEntity
  8
Make2D$___$___
100
AcDbLine
 10
116.5117730325832
 20
385.9271041727658
 30
0.0
 11
116.5117730325832
 21
385.7470685791333
 31
0.0
  0
LINE
  5
139
330
1F
100
AcDbEntity
  8
Make2D$___$___
100
AcDbLine
 10
116.5117730325832
 20
385.5870019167893
 30
0.0
 11
116.5117730325832
 21
385.4107476839598
 31
0.0
  0
LINE
  5
13A
330
1F
100
AcDbEntity
  8
Make2D$___$___
100
AcDbLine
 10
116.5117730325832
 20
385.2322414740826
 30
0.0
 11
116.5117730325832
 21
385.062565610922
 31
0.0
  0
LINE
  5
13B
330
1F
100
AcDbEntity
  8
Make2D$___$___
100
AcDbLine
 10
116.5117730325832
 20
384.8630991264365
 30
0.0
 11
116.5117730325832
 21
384.7029648872142
 31
0.0
  0
LINE
  5
13C
330
1F
100
AcDbEntity
  8
Make2D$___$___
100
AcDbLine
 10
116.5117730325832
 20
384.4798854418526
 30
0.0
 11
116.5117730325832
 21
384.3324063216679
 31
0.0
  0
LINE
  5
13D
330
1F
100
AcDbEntity
  8
Make2D$___$___
100
AcDbLine
 10
116.5117730325832
 20
384.0829445139393
 30
0.0
 11
116.5117730325832
 21
383.9513671997959
 31
0.0
  0
LINE
  5
13E
330
1F
100
AcDbEntity
  8
Make2D$___$___
100
AcDbLine
 10
116.5117730325832
 20
383.6726530072175
 30
0.0
 11
116.5117730325832
 21
383.5603394288595
 31
0.0
  0
LINE
  5
13F
330
1F
100
AcDbEntity
  8
Make2D$___$___
100
AcDbLine
 10
116.5117730325832
 20
383.2494190131828
 30
0.0
 11
116.5117730325832
 21
382.8267895359359
 31
0.0
  0
LINE
  5
140
330
1F
100
AcDbEntity
  8
Make2D$___$___
100
AcDbLine
 10
116.5117730325832
 20
382.8136807239867
 30
0.0
 11
116.5117730325832
 21
381.9065853699739
 31
0.0
  0
LINE
  5
141
330
1F
100
AcDbEntity
  8
Make2D$___$___
100
AcDbLine
 10
55.9808519491329
 20
367.0703286268222
 30
0.0
 11
47.7282369015052
 21
389.7442021148461
 31
0.0
  0
ARC
  5
142
330
1F
100
AcDbEntity
  8
Make2D$___$___
100
AcDbCircle
 10
47.25836872241723
 20
389.5732519833049
 30
0.0
 40
0.5000000531933905
100
AcDbArc
 50
19.99268850647941
 51
89.99999589694038
  0
LINE
  5
143
330
1F
100
AcDbEntity
  8
Make2D$___$___
100
AcDbLine
 10
31.16177303258316
 20
389.5514716385871
 30
0.0
 11
31.16177303258297
 21
389.3449766228946
 31
0.0
  0
LINE
  5
144
330
1F
100
AcDbEntity
  8
Make2D$___$___
100
AcDbLine
 10
31.16177303258297
 20
389.3312989163378
 30
0.0
 11
31.16177303258296
 21
389.3067811646749
 31
0.0
  0
LINE
  5
145
330
1F
100
AcDbEntity
  8
Make2D$___$___
100
AcDbLine
 10
31.16177303258293
 20
389.2549715956724
 30
0.0
 11
31.16177303258291
 21
389.2236575159547
 31
0.0
  0
LINE
  5
146
330
1F
100
AcDbEntity
  8
Make2D$___$___
100
AcDbLine
 10
31.16177303258288
 20
389.1677039292557
 30
0.0
 11
31.16177303258286
 21
389.128748648606
 31
0.0
  0
LINE
  5
147
330
1F
100
AcDbEntity
  8
Make2D$___$___
100
AcDbLine
 10
31.16177303258284
 20
389.0783029144357
 30
0.0
 11
31.16177303258282
 21
389.0219165789645
 31
0.0
  0
LINE
  5
148
330
1F
100
AcDbEntity
  8
Make2D$___$___
100
AcDbLine
 10
31.1617730325828
 20
388.970730241766
 30
0.0
 11
31.16177303258278
 21
388.9030394583802
 31
0.0
  0
LINE
  5
149
330
1F
100
AcDbEntity
  8
Make2D$___$___
100
AcDbLine
 10
31.16177303258276
 20
388.8520070919929
 30
0.0
 11
31.16177303258273
 21
388.7720123797235
 31
0.0
  0
LINE
  5
14A
330
1F
100
AcDbEntity
  8
Make2D$___$___
100
AcDbLine
 10
31.16177303258271
 20
388.7220273391536
 30
0.0
 11
31.16177303258268
 21
388.6287481420012
 31
0.0
  0
LINE
  5
14B
330
1F
100
AcDbEntity
  8
Make2D$___$___
100
AcDbLine
 10
31.16177303258266
 20
388.5806996820276
 30
0.0
 11
31.16177303258262
 21
388.4731779670133
 31
0.0
  0
LINE
  5
14C
330
1F
100
AcDbEntity
  8
Make2D$___$___
100
AcDbLine
 10
31.16177303258262
 20
388.4279483005191
 30
0.0
 11
31.16177303258258
 21
388.3052521620779
 31
0.0
  0
LINE
  5
14D
330
1F
100
AcDbEntity
  8
Make2D$___$___
100
AcDbLine
 10
31.16177303258251
 20
388.0623012009822
 30
0.0
 11
31.16177303258243
 21
387.7421656216505
 31
0.0
  0
LINE
  5
14E
330
1F
100
AcDbEntity
  8
Make2D$___$___
100
AcDbLine
 10
31.16177303258242
 20
387.701764359
 30
0.0
 11
31.16177303258242
 21
387.6704333953558
 31
0.0
  0
LINE
  5
14F
330
1F
100
AcDbEntity
  8
Make2D$___$___
100
AcDbLine
 10
31.16177303258237
 20
387.4913396483266
 30
0.0
 11
31.16177303258236
 21
387.4570943804364
 31
0.0
  0
LINE
  5
150
330
1F
100
AcDbEntity
  8
Make2D$___$___
100
AcDbLine
 10
31.16177303258233
 20
387.2693927652919
 30
0.0
 11
31.16177303258232
 21
387.2322059641936
 31
0.0
  0
LINE
  5
151
330
1F
100
AcDbEntity
  8
Make2D$___$___
100
AcDbLine
 10
31.16177303258227
 20
387.0379887334456
 30
0.0
 11
31.16177303258226
 21
386.9958324304067
 31
0.0
  0
LINE
  5
152
330
1F
100
AcDbEntity
  8
Make2D$___$___
100
AcDbLine
 10
31.16177303258222
 20
386.7838943908943
 30
0.0
 11
31.16177303258221
 21
386.7480572759385
 31
0.0
  0
LINE
  5
153
330
1F
100
AcDbEntity
  8
Make2D$___$___
100
AcDbLine
 10
31.16177303258217
 20
386.5349855401505
 30
0.0
 11
31.16177303258216
 21
386.4889832829142
 31
0.0
  0
LINE
  5
154
330
1F
100
AcDbEntity
  8
Make2D$___$___
100
AcDbLine
 10
31.16177303258212
 20
386.2676118600868
 30
0.0
 11
31.1617730325821
 21
386.218732514606
 31
0.0
  0
LINE
  5
155
330
1F
100
AcDbEntity
  8
Make2D$___$___
100
AcDbLine
 10
31.16177303258206
 20
385.989142672525
 30
0.0
 11
31.16177303258196
 21
385.4717398822654
 31
0.0
  0
LINE
  5
156
330
1F
100
AcDbEntity
  8
Make2D$___$___
100
AcDbLine
 10
31.1617730325819
 20
385.0886852221741
 30
0.0
 11
31.16177303258189
 21
385.0128101790315
 31
0.0
  0
LINE
  5
157
330
1F
100
AcDbEntity
  8
Make2D$___$___
100
AcDbLine
 10
31.16177303258184
 20
384.7674511254206
 30
0.0
 11
31.16177303258182
 21
384.6783497896891
 31
0.0
  0
LINE
  5
158
330
1F
100
AcDbEntity
  8
Make2D$___$___
100
AcDbLine
 10
31.1617730325818
 20
384.4360230490091
 30
0.0
 11
31.16177303258177
 21
384.3333061578449
 31
0.0
  0
LINE
  5
159
330
1F
100
AcDbEntity
  8
Make2D$___$___
100
AcDbLine
 10
31.16177303258174
 20
384.0946357399243
 30
0.0
 11
31.16177303258172
 21
383.9779629778614
 31
0.0
  0
LINE
  5
15A
330
1F
100
AcDbEntity
  8
Make2D$___$___
100
AcDbLine
 10
31.16177303258168
 20
383.7324332499277
 30
0.0
 11
31.16177303258166
 21
383.6126219800453
 31
0.0
  0
LINE
  5
15B
330
1F
100
AcDbEntity
  8
Make2D$___$___
100
AcDbLine
 10
31.16177303258162
 20
383.3602027590825
 30
0.0
 11
31.16177303258161
 21
383.2376021365671
 31
0.0
  0
LINE
  5
15C
330
1F
100
AcDbEntity
  8
Make2D$___$___
100
AcDbLine
 10
31.16177303258157
 20
382.9782565958914
 30
0.0
 11
31.16177303258155
 21
382.8532387101275
 31
0.0
  0
LINE
  5
15D
330
1F
100
AcDbEntity
  8
Make2D$___$___
100
AcDbLine
 10
31.16177303258151
 20
382.5869240482448
 30
0.0
 11
31.16177303258149
 21
382.4598822600036
 31
0.0
  0
LINE
  5
15E
330
1F
100
AcDbEntity
  8
Make2D$___$___
100
AcDbLine
 10
31.16177303258145
 20
382.1865504818579
 30
0.0
 11
31.16177303258144
 21
382.057897773289
 31
0.0
  0
LINE
  5
15F
330
1F
100
AcDbEntity
  8
Make2D$___$___
100
AcDbLine
 10
31.1617730325814
 20
381.7775432230969
 30
0.0
 11
31.16177303258138
 21
381.647662802527
 31
0.0
  0
LINE
  5
160
330
1F
100
AcDbEntity
  8
Make2D$___$___
100
AcDbLine
 10
31.16177303258135
 20
381.3737569160285
 30
0.0
 11
31.16177303258133
 21
381.2295674208841
 31
0.0
  0
LINE
  5
161
330
1F
100
AcDbEntity
  8
Make2D$___$___
100
AcDbLine
 10
31.16177303258129
 20
380.9627006377826
 30
0.0
 11
31.16177303258127
 21
380.804012277946
 31
0.0
  0
LINE
  5
162
330
1F
100
AcDbEntity
  8
Make2D$___$___
100
AcDbLine
 10
31.16177303258123
 20
380.5447430768072
 30
0.0
 11
31.16177303258122
 21
380.3714075470189
 31
0.0
  0
LINE
  5
163
330
1F
100
AcDbEntity
  8
Make2D$___$___
100
AcDbLine
 10
31.16177303258121
 20
380.2914030389483
 30
0.0
 11
31.16177303258116
 21
379.9321716624826
 31
0.0
  0
LINE
  5
164
330
1F
100
AcDbEntity
  8
Make2D$___$___
100
AcDbLine
 10
31.16177303258116
 20
379.8597836975724
 30
0.0
 11
31.16177303258112
 21
379.6155327992641
 31
0.0
  0
LINE
  5
165
330
1F
100
AcDbEntity
  8
Make2D$___$___
100
AcDbLine
 10
31.16177303258111
 20
379.4217912276406
 30
0.0
 11
31.16177303258107
 21
379.1626580658958
 31
0.0
  0
LINE
  5
166
330
1F
100
AcDbEntity
  8
Make2D$___$___
100
AcDbLine
 10
31.16177303258104
 20
378.9778143188609
 30
0.0
 11
31.16177303258101
 21
378.7039482224886
 31
0.0
  0
LINE
  5
167
330
1F
100
AcDbEntity
  8
Make2D$___$___
100
AcDbLine
 10
31.16177303258099
 20
378.5282481872171
 30
0.0
 11
31.16177303258096
 21
378.239841120893
 31
0.0
  0
LINE
  5
168
330
1F
100
AcDbEntity
  8
Make2D$___$___
100
AcDbLine
 10
31.16177303258094
 20
378.0734934491707
 30
0.0
 11
31.16177303258091
 21
377.7707785680374
 31
0.0
  0
LINE
  5
169
330
1F
100
AcDbEntity
  8
Make2D$___$___
100
AcDbLine
 10
31.16177303258089
 20
377.6139549894564
 30
0.0
 11
31.16177303258085
 21
377.2972050263369
 31
0.0
  0
LINE
  5
16A
330
1F
100
AcDbEntity
  8
Make2D$___$___
100
AcDbLine
 10
31.16177303258084
 20
377.1500408288957
 30
0.0
 11
31.16177303258081
 21
376.819566327935
 31
0.0
  0
LINE
  5
16B
330
1F
100
AcDbEntity
  8
Make2D$___$___
100
AcDbLine
 10
31.16177303258079
 20
376.6821609985246
 30
0.0
 11
31.16177303258076
 21
376.3383084099693
 31
0.0
  0
LINE
  5
16C
330
1F
100
AcDbEntity
  8
Make2D$___$___
100
AcDbLine
 10
31.16177303258073
 20
376.2107264261475
 30
0.0
 11
31.1617730325807
 21
375.8538760776875
 31
0.0
  0
LINE
  5
16D
330
1F
100
AcDbEntity
  8
Make2D$___$___
100
AcDbLine
 10
31.16177303258069
 20
375.7361478411854
 30
0.0
 11
31.16177303258065
 21
375.3667118018238
 31
0.0
  0
LINE
  5
16E
330
1F
100
AcDbEntity
  8
Make2D$___$___
100
AcDbLine
 10
31.16177303258065
 20
375.2588346246781
 30
0.0
 11
31.16177303258061
 21
374.8772545403264
 31
0.0
  0
LINE
  5
16F
330
1F
100
AcDbEntity
  8
Make2D$___$___
100
AcDbLine
 10
31.1617730325805
 20
373.7139694733442
 30
0.0
 11
31.16177303258047
 21
373.3994391983595
 31
0.0
  0
LINE
  5
170
330
1F
100
AcDbEntity
  8
Make2D$___$___
100
AcDbLine
 10
31.16177303258046
 20
373.3296629093657
 30
0.0
 11
31.16177303258013
 21
369.4608587384718
 31
0.0
  0
LINE
  5
171
330
1F
100
AcDbEntity
  8
Make2D$___$___
100
AcDbLine
 10
10.03479796699918
 20
302.6042857973147
 30
0.0
 11
3.745551542787563
 21
287.0378547376388
 31
0.0
  0
LINE
  5
172
330
1F
100
AcDbEntity
  8
Make2D$___$___
100
AcDbLine
 10
0.036782893924588
 20
288.536197334557
 30
0.0
 11
6.359125995429231
 21
304.1845456131873
 31
0.0
  0
LINE
  5
173
330
1F
100
AcDbEntity
  8
Make2D$___$___
100
AcDbLine
 10
29.7054539241581
 20
361.9687357303579
 30
0.0
 11
6.359126332842493
 21
304.1845464483145
 31
0.0
  0
ARC
  5
174
330
1F
100
AcDbEntity
  8
Make2D$___$___
100
AcDbCircle
 10
11.15201620205433
 20
369.4639561500672
 30
0.0
 40
20.01020690668114
100
AcDbArc
 50
338.0022702021981
 51
346.7662595824933
  0
ARC
  5
175
330
1F
100
AcDbEntity
  8
Make2D$___$___
100
AcDbCircle
 10
11.27579797800575
 20
369.4476333188064
 30
0.0
 40
19.88597945212649
100
AcDbArc
 50
346.7303972091993
 51
0.0381039187607248
  0
LINE
  5
176
330
1F
100
AcDbEntity
  8
Make2D$___$___
100
AcDbLine
 10
56.16177303258321
 20
365.098705739868
 30
0.0
 11
56.1617730325832
 21
364.7686928347155
 31
0.0
  0
ARC
  5
177
330
1F
100
AcDbEntity
  8
Make2D$___$___
100
AcDbCircle
 10
53.15724657919739
 20
366.0434729598212
 30
0.0
 40
3.004526559373478
100
AcDbArc
 50
0.0152186699520804
 51
19.98472087079608
  0
LINE
  5
178
330
1F
100
AcDbEntity
  8
Make2D$___$___
100
AcDbLine
 10
10.03479796699918
 20
302.6042857973147
 30
0.0
 11
23.44116676502649
 21
335.7862107489841
 31
0.0
  0
LINE
  5
179
330
1F
100
AcDbEntity
  8
Make2D$___$___
100
AcDbLine
 10
56.1617730325832
 20
364.7686928347155
 30
0.0
 11
56.16177303258047
 21
364.5467157463832
 31
0.0
  0
LINE
  5
17A
330
1F
100
AcDbEntity
  8
Make2D$___$___
100
AcDbLine
 10
56.16177303258047
 20
364.5466497538999
 30
0.0
 11
56.16177303258416
 21
364.2321845639175
 31
0.0
  0
LINE
  5
17B
330
1F
100
AcDbEntity
  8
Make2D$___$___
100
AcDbLine
 10
56.16177303258416
 20
364.2321845639175
 30
0.0
 11
56.16177303258322
 21
343.5783447051078
 31
0.0
  0
ARC
  5
17C
330
1F
100
AcDbEntity
  8
Make2D$___$___
100
AcDbCircle
 10
39.87549225885445
 20
323.0732520364891
 30
0.0
 40
20.00000000000803
100
AcDbArc
 50
102.749325986215
 51
156.542084580133
  0
ARC
  5
17D
330
1F
100
AcDbEntity
  8
Make2D$___$___
100
AcDbCircle
 10
39.63110216045094
 20
331.1543974285484
 30
0.0
 40
12.16267445712325
100
AcDbArc
 50
88.01494797059414
 51
110.02677538331
  0
ARC
  5
17E
330
1F
100
AcDbEntity
  8
Make2D$___$___
100
AcDbCircle
 10
38.91297581708444
 20
319.3127265330027
 30
0.0
 40
24.02408237329694
100
AcDbArc
 50
81.50527675726072
 51
87.2814927964959
  0
LINE
  5
17F
330
1F
100
AcDbEntity
  8
Make2D$___$___
100
AcDbLine
 10
117.964400976743
 20
382.5389894645695
 30
0.0
 11
129.0591450884234
 21
382.5389894645695
 31
0.0
  0
LINE
  5
180
330
1F
100
AcDbEntity
  8
Make2D$___$___
100
AcDbLine
 10
129.0591450884235
 20
382.573252036495
 30
0.0
 11
129.0591450884234
 21
382.5389894645695
 31
0.0
  0
LINE
  5
181
330
1F
100
AcDbEntity
  8
Make2D$___$___
100
AcDbLine
 10
117.964400976743
 20
382.5389894645695
 30
0.0
 11
117.9644009767428
 21
382.573252036495
 31
0.0
  0
SPLINE
  5
182
330
1F
100
AcDbEntity
  8
Make2D$___$___
100
AcDbSpline
210
0.0
220
0.0
230
1.0
 70
     8
 71
     3
 72
    10
 73
     6
 74
     0
 42
0.000000001
 43
0.0000000001
 12
1.0
 22
0.0
 32
0.0
 13
1.0
 23
0.0
 33
0.0
 40
-1.0
 40
-1.0
 40
-1.0
 40
-1.0
 40
-0.6666666666667
 40
-0.3333333333333
 40
0.0
 40
0.0
 40
0.0
 40
0.0
 10
117.964400976743
 20
350.607514608425
 30
0.0
 10
117.757493152253
 20
351.0126556207455
 30
0.0
 10
117.4060366543031
 20
351.8141498021245
 30
0.0
 10
117.0854525856531
 20
352.9792295268687
 30
0.0
 10
117.0117730325832
 20
353.7580746107346
 30
0.0
 10
117.0117730325832
 20
354.1457874921884
 30
0.0
  0
LINE
  5
183
330
1F
100
AcDbEntity
  8
Make2D$___$___
100
AcDbLine
 10
117.0117730325832
 20
353.8547172850302
 30
0.0
 11
117.0117730325833
 21
352.2232520364953
 31
0.0
  0
LINE
  5
184
330
1F
100
AcDbEntity
  8
Make2D$___$___
100
AcDbLine
 10
117.964400976743
 20
350.607514608425
 30
0.0
 11
117.9644009767431
 21
350.5732520364982
 31
0.0
  0
LINE
  5
185
330
1F
100
AcDbEntity
  8
Make2D$___$___
100
AcDbLine
 10
129.059145088423
 20
359.4967062689672
 30
0.0
 11
117.9644009767435
 21
359.4967062689672
 31
0.0
  0
LINE
  5
186
330
1F
100
AcDbEntity
  8
Make2D$___$___
100
AcDbLine
 10
117.9644009767437
 20
357.6840603759589
 30
0.0
 11
117.9644009767435
 21
359.4967062689672
 31
0.0
  0
LINE
  5
187
330
1F
100
AcDbEntity
  8
Make2D$___$___
100
AcDbLine
 10
117.9644009767437
 20
357.6840603759589
 30
0.0
 11
129.0591450884227
 21
357.6840603759589
 31
0.0
  0
LINE
  5
188
330
1F
100
AcDbEntity
  8
Make2D$___$___
100
AcDbLine
 10
129.0591450884227
 20
357.6840603759589
 30
0.0
 11
129.059145088423
 21
359.4967062689672
 31
0.0
  0
ARC
  5
189
330
1F
100
AcDbEntity
  8
Make2D$___$___
100
AcDbCircle
 10
101.3058233676738
 20
366.8543805694881
 30
0.0
 40
28.71205735658718
100
AcDbArc
 50
345.1519011350585
 51
358.2772039697285
  0
ARC
  5
18A
330
1F
100
AcDbEntity
  8
Make2D$___$___
100
AcDbCircle
 10
122.1114450103347
 20
353.8992374962352
 30
0.0
 40
7.911726777761211
100
AcDbArc
 50
3.893004737266478
 51
28.5797415241871
  0
ARC
  5
18B
330
1F
100
AcDbEntity
  8
Make2D$___$___
100
AcDbCircle
 10
122.1096962893854
 20
354.3928704478386
 30
0.0
 40
7.913517387447406
100
AcDbArc
 50
331.4229267645132
 51
356.1028393292131
  0
LINE
  5
18C
330
1F
100
AcDbEntity
  8
Make2D$___$___
100
AcDbLine
 10
129.0591450884234
 20
350.607514608425
 30
0.0
 11
117.964400976743
 21
350.607514608425
 31
0.0
  0
SPLINE
  5
18D
330
1F
100
AcDbEntity
  8
Make2D$___$___
100
AcDbSpline
210
0.0
220
0.0
230
1.0
 70
     8
 71
     3
 72
    10
 73
     6
 74
     0
 42
0.000000001
 43
0.0000000001
 12
1.0
 22
0.0
 32
0.0
 13
1.0
 23
0.0
 33
0.0
 40
-1.0
 40
-1.0
 40
-1.0
 40
-1.0
 40
-0.6666666666667
 40
-0.3333333333333
 40
0.0
 40
0.0
 40
0.0
 40
0.0
 10
117.0117730325832
 20
354.1457874921884
 30
0.0
 10
117.0117730325832
 20
354.5330457044251
 30
0.0
 10
117.0851789303734
 20
355.3113101880069
 30
0.0
 10
117.4064338870335
 20
356.4787099202689
 30
0.0
 10
117.7577728891337
 20
357.2794671093997
 30
0.0
 10
117.9644009767437
 20
357.6840603759589
 30
0.0
  0
LINE
  5
18E
330
1F
100
AcDbEntity
  8
Make2D$___$___
100
AcDbLine
 10
129.0591450884234
 20
350.607514608425
 30
0.0
 11
129.0591450884235
 21
350.5732520364999
 31
0.0
  0
SPLINE
  5
18F
330
1F
100
AcDbEntity
  8
Make2D$___$___
100
AcDbSpline
210
0.0
220
0.0
230
1.0
 70
     8
 71
     3
 72
    10
 73
     6
 74
     0
 42
0.000000001
 43
0.0000000001
 12
1.0
 22
0.0
 32
0.0
 13
1.0
 23
0.0
 33
0.0
 40
-1.0
 40
-1.0
 40
-1.0
 40
-1.0
 40
-0.6666666666667
 40
-0.3333333333333
 40
0.0
 40
0.0
 40
0.0
 40
0.0
 10
117.0117730325832
 20
379.0007165808063
 30
0.0
 10
117.0117730325832
 20
379.38797479304
 30
0.0
 10
117.0851789303631
 20
380.166239276625
 30
0.0
 10
117.4064338870331
 20
381.3336390088836
 30
0.0
 10
117.757772889133
 20
382.1343961980133
 30
0.0
 10
117.964400976743
 20
382.5389894645695
 30
0.0
  0
LINE
  5
190
330
1F
100
AcDbEntity
  8
Make2D$___$___
100
AcDbLine
 10
117.0117730325833
 20
380.9232520364997
 30
0.0
 11
117.0117730325832
 21
379.2917867879648
 31
0.0
  0
SPLINE
  5
191
330
1F
100
AcDbEntity
  8
Make2D$___$___
100
AcDbSpline
210
0.0
220
0.0
230
1.0
 70
     8
 71
     3
 72
    10
 73
     6
 74
     0
 42
0.000000001
 43
0.0000000001
 12
1.0
 22
0.0
 32
0.0
 13
1.0
 23
0.0
 33
0.0
 40
-1.0
 40
-1.0
 40
-1.0
 40
-1.0
 40
-0.6666666666667
 40
-0.3333333333333
 40
0.0
 40
0.0
 40
0.0
 40
0.0
 10
117.9644009767437
 20
375.4624436970357
 30
0.0
 10
117.7574931522637
 20
375.8675847093455
 30
0.0
 10
117.4060366543235
 20
376.6690788907075
 30
0.0
 10
117.0854525856434
 20
377.8341586154533
 30
0.0
 10
117.0117730325832
 20
378.6130036993382
 30
0.0
 10
117.0117730325832
 20
379.0007165808063
 30
0.0
  0
LINE
  5
192
330
1F
100
AcDbEntity
  8
Make2D$___$___
100
AcDbLine
 10
117.0117730325832
 20
378.7099508149503
 30
0.0
 11
117.0117730325828
 21
367.15537672046
 31
0.0
  0
ARC
  5
193
330
1F
100
AcDbEntity
  8
Make2D$___$___
100
AcDbCircle
 10
145.2659327346947
 20
366.3721366734675
 30
0.0
 40
28.25487547064555
100
AcDbArc
 50
165.0739658184224
 51
179.5921709577972
  0
LINE
  5
194
330
1F
100
AcDbEntity
  8
Make2D$___$___
100
AcDbLine
 10
117.9644009767437
 20
375.4624436970357
 30
0.0
 11
117.9644009767434
 21
373.6497978040278
 31
0.0
  0
LINE
  5
195
330
1F
100
AcDbEntity
  8
Make2D$___$___
100
AcDbLine
 10
129.0591450884227
 20
375.4624436970357
 30
0.0
 11
117.9644009767437
 21
375.4624436970357
 31
0.0
  0
LINE
  5
196
330
1F
100
AcDbEntity
  8
Make2D$___$___
100
AcDbLine
 10
117.9644009767434
 20
373.6497978040278
 30
0.0
 11
129.059145088423
 21
373.6497978040278
 31
0.0
  0
LINE
  5
197
330
1F
100
AcDbEntity
  8
Make2D$___$___
100
AcDbLine
 10
129.0591450884227
 20
375.4624436970357
 30
0.0
 11
129.059145088423
 21
373.6497978040278
 31
0.0
  0
ARC
  5
198
330
1F
100
AcDbEntity
  8
Make2D$___$___
100
AcDbCircle
 10
122.1113290371285
 20
378.75412459465
 30
0.0
 40
7.911848707235345
100
AcDbArc
 50
3.894417996011636
 51
28.57960678642429
  0
LINE
  5
199
330
1F
100
AcDbEntity
  8
Make2D$___$___
100
AcDbLine
 10
130.0117730325832
 20
379.0007165808063
 30
0.0
 11
130.0103941022001
 21
378.8705370989045
 31
0.0
  0
ARC
  5
19A
330
1F
100
AcDbEntity
  8
Make2D$___$___
100
AcDbCircle
 10
122.1095930964412
 20
379.2478369136185
 30
0.0
 40
7.913625887885018
100
AcDbArc
 50
331.423046499737
 51
356.1015844843481
  0
ARC
  5
19B
330
1F
100
AcDbEntity
  8
Make2D$___$___
100
AcDbCircle
 10
101.3120604914444
 20
366.2930761120704
 30
0.0
 40
28.70578439417395
100
AcDbArc
 50
1.720171219983167
 51
14.84945114982993
  0
ARC
  5
19C
330
1F
100
AcDbEntity
  8
Make2D$___$___
100
AcDbCircle
 10
145.261716841638
 20
366.7737998659218
 30
0.0
 40
28.25065564985458
100
AcDbArc
 50
180.4067389044069
 51
194.9271243193737
  0
LINE
  5
19D
330
1F
100
AcDbEntity
  8
Make2D$___$___
100
AcDbLine
 10
117.0117730325828
 20
365.991711919058
 30
0.0
 11
117.0117730325832
 21
354.4365532580447
 31
0.0
  0
LINE
  5
19E
330
1F
100
AcDbEntity
  8
Make2D$___$___
100
AcDbLine
 10
150.0117730325832
 20
399.0732519582666
 30
0.0
 11
150.0117730325832
 21
334.0732521147283
 31
0.0
  0
ARC
  5
19F
330
1F
100
AcDbEntity
  8
Make2D$___$___
100
AcDbCircle
 10
132.0117730325686
 20
381.0149002693672
 30
0.0
 40
1.999999999985455
100
AcDbArc
 50
141.9999999997059
 51
179.9999999999935
  0
ARC
  5
1A0
330
1F
100
AcDbEntity
  8
Make2D$___$___
100
AcDbCircle
 10
132.0117730325682
 20
352.1316038036276
 30
0.0
 40
1.99999999998505
100
AcDbArc
 50
180.0000000000032
 51
218.0000000002963
  0
LINE
  5
1A1
330
1F
100
AcDbEntity
  8
Make2D$___$___
100
AcDbLine
 10
130.0117730325832
 20
381.0149002693674
 30
0.0
 11
130.0117730325832
 21
379.0007165808026
 31
0.0
  0
LINE
  5
1A2
330
1F
100
AcDbEntity
  8
Make2D$___$___
100
AcDbLine
 10
130.0117730325832
 20
378.8705080980164
 30
0.0
 11
130.0117730325832
 21
352.1316038036275
 31
0.0
  0
LINE
  5
1A3
330
1F
100
AcDbEntity
  8
Make2D$___$___
100
AcDbLine
 10
130.435751525373
 20
382.2462232200177
 30
0.0
 11
142.4717192645526
 21
397.6515594131256
 31
0.0
  0
LINE
  5
1A4
330
1F
100
AcDbEntity
  8
Make2D$___$___
100
AcDbLine
 10
142.4717192645526
 20
335.4949446598694
 30
0.0
 11
130.4357515253729
 21
350.9002808529773
 31
0.0
  0
ARC
  5
1A5
330
1F
100
AcDbEntity
  8
Make2D$___$___
100
AcDbCircle
 10
146.4117730325831
 20
394.5732520365041
 30
0.0
 40
4.999999999993349
100
AcDbArc
 50
89.9999999999987
 51
142.0000000000392
  0
ARC
  5
1A6
330
1F
100
AcDbEntity
  8
Make2D$___$___
100
AcDbCircle
 10
146.4117730325832
 20
338.5732520364907
 30
0.0
 40
4.999999999993295
100
AcDbArc
 50
217.9999999999583
 51
270.0
  0
LINE
  5
1A7
330
1F
100
AcDbEntity
  8
Make2D$___$___
100
AcDbLine
 10
146.4117730325832
 20
399.5732520364975
 30
0.0
 11
149.5117730325832
 21
399.5732520364975
 31
0.0
  0
LINE
  5
1A8
330
1F
100
AcDbEntity
  8
Make2D$___$___
100
AcDbLine
 10
149.5117730325832
 20
333.5732520364975
 30
0.0
 11
146.4117730325832
 21
333.5732520364975
 31
0.0
  0
ARC
  5
1A9
330
1F
100
AcDbEntity
  8
Make2D$___$___
100
AcDbCircle
 10
149.5117740178038
 20
334.0732510512771
 30
0.0
 40
0.4999990147806032
100
AcDbArc
 50
269.9998871018169
 51
0.0001218627752512
  0
ARC
  5
1AA
330
1F
100
AcDbEntity
  8
Make2D$___$___
100
AcDbCircle
 10
149.5117740178033
 20
399.0732530217174
 30
0.0
 40
0.4999990147809907
100
AcDbArc
 50
359.9998781372768
 51
90.0001128981343
  0
LINE
  5
1AB
330
1F
100
AcDbEntity
  8
Make2D$___$___
100
AcDbLine
 10
94.94830787308318
 20
331.5986840081908
 30
0.0
 11
93.77439975917747
 21
332.2106833797171
 31
0.0
  0
LINE
  5
1AC
330
1F
100
AcDbEntity
  8
Make2D$___$___
100
AcDbLine
 10
94.94965577812091
 20
333.2978407307094
 30
0.0
 11
93.77603619845539
 21
333.9097961727033
 31
0.0
  0
LINE
  5
1AD
330
1F
100
AcDbEntity
  8
Make2D$___$___
100
AcDbLine
 10
94.95863533053019
 20
334.9936881248369
 30
0.0
 11
93.77499140378163
 21
335.6108229137508
 31
0.0
  0
LINE
  5
1AE
330
1F
100
AcDbEntity
  8
Make2D$___$___
100
AcDbLine
 10
114.7490487438154
 20
333.0596111974256
 30
0.0
 11
114.7485840576556
 21
333.0593690016711
 31
0.0
  0
LINE
  5
1AF
330
1F
100
AcDbEntity
  8
Make2D$___$___
100
AcDbLine
 10
114.7137712249426
 20
333.041224382342
 30
0.0
 11
113.5468557802761
 21
332.4329286931948
 31
0.0
  0
LINE
  5
1B0
330
1F
100
AcDbEntity
  8
Make2D$___$___
100
AcDbLine
 10
114.7128075537539
 20
334.742712313051
 30
0.0
 11
113.5450455296442
 21
334.1337353896681
 31
0.0
  0
LINE
  5
1B1
330
1F
100
AcDbEntity
  8
Make2D$___$___
100
AcDbLine
 10
114.7516206791706
 20
336.4611080244286
 30
0.0
 11
114.7508200148023
 21
336.4606907256284
 31
0.0
  0
LINE
  5
1B2
330
1F
100
AcDbEntity
  8
Make2D$___$___
100
AcDbLine
 10
114.7389897949666
 20
336.4545249166393
 30
0.0
 11
113.5494746033645
 21
335.8344635878028
 31
0.0
  0
LINE
  5
1B3
330
1F
100
AcDbEntity
  8
Make2D$___$___
100
AcDbLine
 10
93.77366835790265
 20
330.9863154329189
 30
0.0
 11
93.7739540967473
 21
330.9864643731719
 31
0.0
  0
LINE
  5
1B4
330
1F
100
AcDbEntity
  8
Make2D$___$___
100
AcDbLine
 10
93.8083627716899
 20
331.0043998303105
 30
0.0
 11
94.96943393515163
 21
331.6096994392087
 31
0.0
  0
LINE
  5
1B5
330
1F
100
AcDbEntity
  8
Make2D$___$___
100
AcDbLine
 10
93.81061761848365
 20
332.703907353208
 30
0.0
 11
94.97105068690117
 21
333.3089986972021
 31
0.0
  0
LINE
  5
1B6
330
1F
100
AcDbEntity
  8
Make2D$___$___
100
AcDbLine
 10
93.7757259370401
 20
334.3870162486902
 30
0.0
 11
93.77586952158772
 21
334.3870910989131
 31
0.0
  0
LINE
  5
1B7
330
1F
100
AcDbEntity
  8
Make2D$___$___
100
AcDbLine
 10
93.81004320451954
 20
334.4049058138907
 30
0.0
 11
94.97644609063244
 21
335.0130461519979
 31
0.0
  0
LINE
  5
1B8
330
1F
100
AcDbEntity
  8
Make2D$___$___
100
AcDbLine
 10
113.575732943358
 20
332.4479843858301
 30
0.0
 11
114.7489905912062
 21
331.8363740578105
 31
0.0
  0
LINE
  5
1B9
330
1F
100
AcDbEntity
  8
Make2D$___$___
100
AcDbLine
 10
113.562420057842
 20
334.1539014767407
 30
0.0
 11
114.7475485974695
 21
333.5358740175282
 31
0.0
  0
LINE
  5
1BA
330
1F
100
AcDbEntity
  8
Make2D$___$___
100
AcDbLine
 10
113.5662878119015
 20
335.8532482131553
 30
0.0
 11
114.7513287179692
 21
335.2355216778252
 31
0.0
  0
LINE
  5
1BB
330
1F
100
AcDbEntity
  8
Make2D$___$___
100
AcDbLine
 10
95.26177303258069
 20
327.073252036495
 30
0.0
 11
94.41878823152314
 21
327.9162368375525
 31
0.0
  0
LINE
  5
1BC
330
1F
100
AcDbEntity
  8
Make2D$___$___
100
AcDbLine
 10
94.42378737456283
 20
327.9248227803597
 30
0.0
 11
94.42398006345158
 21
327.9249232391093
 31
0.0
  0
LINE
  5
1BD
330
1F
100
AcDbEntity
  8
Make2D$___$___
100
AcDbLine
 10
94.44730048819406
 20
327.9370814315585
 30
0.0
 11
94.97364079952848
 21
328.2115137183435
 31
0.0
  0
LINE
  5
1BE
330
1F
100
AcDbEntity
  8
Make2D$___$___
100
AcDbLine
 10
93.79178529592242
 20
329.2955315348965
 30
0.0
 11
94.97660548606707
 21
329.9132267749162
 31
0.0
  0
LINE
  5
1BF
330
1F
100
AcDbEntity
  8
Make2D$___$___
100
AcDbLine
 10
113.575391787143
 20
329.0482949669311
 30
0.0
 11
114.656993942771
 21
328.4844014417052
 31
0.0
  0
LINE
  5
1C0
330
1F
100
AcDbEntity
  8
Make2D$___$___
100
AcDbLine
 10
113.5755758667005
 20
330.748402838031
 30
0.0
 11
114.7473353629126
 21
330.137532626867
 31
0.0
  0
LINE
  5
1C1
330
1F
100
AcDbEntity
  8
Make2D$___$___
100
AcDbLine
 10
114.7617730325832
 20
338.173148668981
 30
0.0
 11
114.7617730325832
 21
338.6234297127011
 31
0.0
  0
LINE
  5
1C2
330
1F
100
AcDbEntity
  8
Make2D$___$___
100
AcDbLine
 10
114.7617730325832
 20
334.7730263396516
 30
0.0
 11
114.7617730325832
 21
335.2143849819105
 31
0.0
  0
LINE
  5
1C3
330
1F
100
AcDbEntity
  8
Make2D$___$___
100
AcDbLine
 10
114.7617730325832
 20
336.4752625678479
 30
0.0
 11
114.7617730325832
 21
336.9234006681126
 31
0.0
  0
LINE
  5
1C4
330
1F
100
AcDbEntity
  8
Make2D$___$___
100
AcDbLine
 10
114.7617730325832
 20
333.0733833705589
 30
0.0
 11
114.7617730325832
 21
333.5234806581821
 31
0.0
  0
LINE
  5
1C5
330
1F
100
AcDbEntity
  8
Make2D$___$___
100
AcDbLine
 10
114.7617730325832
 20
331.3732737036149
 30
0.0
 11
114.7617730325832
 21
331.8231132364359
 31
0.0
  0
LINE
  5
1C6
330
1F
100
AcDbEntity
  8
Make2D$___$___
100
AcDbLine
 10
114.7617730325832
 20
329.6729386827018
 30
0.0
 11
114.7617730325832
 21
330.1200908730424
 31
0.0
  0
LINE
  5
1C7
330
1F
100
AcDbEntity
  8
Make2D$___$___
100
AcDbLine
 10
94.95970151140615
 20
328.1922126426446
 30
0.0
 11
93.77590191746216
 21
328.8093816129521
 31
0.0
  0
LINE
  5
1C8
330
1F
100
AcDbEntity
  8
Make2D$___$___
100
AcDbLine
 10
94.94808554411478
 20
329.8983556088451
 30
0.0
 11
93.774927951834
 21
330.5099697564056
 31
0.0
  0
LINE
  5
1C9
330
1F
100
AcDbEntity
  8
Make2D$___$___
100
AcDbLine
 10
114.7133582859218
 20
329.6415707612261
 30
0.0
 11
113.5508898391933
 21
329.0355187167777
 31
0.0
  0
LINE
  5
1CA
330
1F
100
AcDbEntity
  8
Make2D$___$___
100
AcDbLine
 10
114.7132884417008
 20
331.3415308290819
 30
0.0
 11
113.546957244186
 21
330.7334803820257
 31
0.0
  0
LINE
  5
1CB
330
1F
100
AcDbEntity
  8
Make2D$___$___
100
AcDbLine
 10
113.2617730325832
 20
327.0732520364975
 30
0.0
 11
114.6501656075767
 21
328.461644611491
 31
0.0
  0
LINE
  5
1CC
330
1F
100
AcDbEntity
  8
Make2D$___$___
100
AcDbLine
 10
114.6632844422887
 20
328.474763446203
 30
0.0
 11
114.6632854766642
 21
328.4747644805785
 31
0.0
  0
LINE
  5
1CD
330
1F
100
AcDbEntity
  8
Make2D$___$___
100
AcDbLine
 10
93.76177303258319
 20
339.0326440539973
 30
0.0
 11
93.76177303258319
 21
339.4733662517305
 31
0.0
  0
LINE
  5
1CE
330
1F
100
AcDbEntity
  8
Make2D$___$___
100
AcDbLine
 10
93.76177303258319
 20
337.3230361928643
 30
0.0
 11
93.76177303258319
 21
337.773494146576
 31
0.0
  0
LINE
  5
1CF
330
1F
100
AcDbEntity
  8
Make2D$___$___
100
AcDbLine
 10
93.76177303258319
 20
335.6232480461265
 30
0.0
 11
93.76177303258319
 21
336.0734388496262
 31
0.0
  0
LINE
  5
1D0
330
1F
100
AcDbEntity
  8
Make2D$___$___
100
AcDbLine
 10
93.76177303258319
 20
333.9231425710274
 30
0.0
 11
93.76177303258319
 21
334.3732678984061
 31
0.0
  0
LINE
  5
1D1
330
1F
100
AcDbEntity
  8
Make2D$___$___
100
AcDbLine
 10
93.76177303258319
 20
332.2233394472811
 30
0.0
 11
93.76177303258319
 21
332.6733536019991
 31
0.0
  0
LINE
  5
1D2
330
1F
100
AcDbEntity
  8
Make2D$___$___
100
AcDbLine
 10
93.76177303258319
 20
330.5229587016188
 30
0.0
 11
93.76177303258319
 21
330.973138869127
 31
0.0
  0
LINE
  5
1D3
330
1F
100
AcDbEntity
  8
Make2D$___$___
100
AcDbLine
 10
93.76177303258319
 20
328.826349467022
 30
0.0
 11
93.76177303258319
 21
329.2735274226367
 31
0.0
  0
LINE
  5
1D4
330
1F
100
AcDbEntity
  8
Make2D$___$___
100
AcDbLine
 10
93.81072342159442
 20
336.1049774686966
 30
0.0
 11
94.97770885333716
 21
336.713385190517
 31
0.0
  0
LINE
  5
1D5
330
1F
100
AcDbEntity
  8
Make2D$___$___
100
AcDbLine
 10
93.80973109817114
 20
337.8052156372229
 30
0.0
 11
94.97281756183214
 21
338.411508160316
 31
0.0
  0
LINE
  5
1D6
330
1F
100
AcDbEntity
  8
Make2D$___$___
100
AcDbLine
 10
93.80879285125062
 20
339.5042073064589
 30
0.0
 11
93.94034879285078
 21
339.5727868424253
 31
0.0
  0
LINE
  5
1D7
330
1F
100
AcDbEntity
  8
Make2D$___$___
100
AcDbLine
 10
113.5634948976028
 20
337.5544023208389
 30
0.0
 11
114.7479088162986
 21
336.9368884217103
 31
0.0
  0
LINE
  5
1D8
330
1F
100
AcDbEntity
  8
Make2D$___$___
100
AcDbLine
 10
113.5754358380197
 20
339.2479225866479
 30
0.0
 11
114.7482226111287
 21
338.6364888439425
 31
0.0
  0
LINE
  5
1D9
330
1F
100
AcDbEntity
  8
Make2D$___$___
100
AcDbLine
 10
94.94949001477322
 20
336.6986708010857
 30
0.0
 11
93.77826251680916
 21
337.3094480808805
 31
0.0
  0
LINE
  5
1DA
330
1F
100
AcDbEntity
  8
Make2D$___$___
100
AcDbLine
 10
94.95903933484276
 20
338.3926665322618
 30
0.0
 11
93.77581720970468
 21
339.009472383665
 31
0.0
  0
LINE
  5
1DB
330
1F
100
AcDbEntity
  8
Make2D$___$___
100
AcDbLine
 10
114.7111404264138
 20
338.141664525563
 30
0.0
 11
113.5505360579198
 21
337.5364835365055
 31
0.0
  0
LINE
  5
1DC
330
1F
100
AcDbEntity
  8
Make2D$___$___
100
AcDbLine
 10
114.1990354769736
 20
339.5730447003587
 30
0.0
 11
113.5468006664087
 21
339.2329917675065
 31
0.0
  0
LINE
  5
1DD
330
1F
100
AcDbEntity
  8
Make2D$___$___
100
AcDbLine
 10
113.5117730325832
 20
339.5733216648087
 30
0.0
 11
113.5117730325832
 21
341.5732520364975
 31
0.0
  0
LINE
  5
1DE
330
1F
100
AcDbEntity
  8
Make2D$___$___
100
AcDbLine
 10
95.01177303258319
 20
339.5732520364975
 30
0.0
 11
95.01177303258319
 21
341.5732520364975
 31
0.0
  0
LINE
  5
1DF
330
1F
100
AcDbEntity
  8
Make2D$___$___
100
AcDbLine
 10
114.7617730325832
 20
341.5737430375481
 30
0.0
 11
114.7617730325832
 21
343.18148083428
 31
0.0
  0
LINE
  5
1E0
330
1F
100
AcDbEntity
  8
Make2D$___$___
100
AcDbLine
 10
93.76177303258319
 20
341.5732520364975
 30
0.0
 11
93.76177303258319
 21
343.1814822348774
 31
0.0
  0
ARC
  5
1E1
330
1F
100
AcDbEntity
  8
Make2D$___$___
100
AcDbCircle
 10
59.06165785414993
 20
389.7673088580984
 30
0.0
 40
0.2998849476308754
100
AcDbArc
 50
134.9908615008588
 51
178.8646489869841
  0
LINE
  5
1E2
330
1F
100
AcDbEntity
  8
Make2D$___$___
100
AcDbLine
 10
58.76177303258319
 20
389.7673156030213
 30
0.0
 11
58.76177303258321
 21
386.9351298520533
 31
0.0
  0
LINE
  5
1E3
330
1F
100
AcDbEntity
  8
Make2D$___$___
100
AcDbLine
 10
58.76177303258319
 20
386.6566125814417
 30
0.0
 11
58.76177303258321
 21
386.6470188920995
 31
0.0
  0
LINE
  5
1E4
330
1F
100
AcDbEntity
  8
Make2D$___$___
100
AcDbLine
 10
58.76177303258321
 20
386.3563113691505
 30
0.0
 11
58.76177303258322
 21
386.1973979171894
 31
0.0
  0
LINE
  5
1E5
330
1F
100
AcDbEntity
  8
Make2D$___$___
100
AcDbLine
 10
58.76177303258321
 20
386.0424069389532
 30
0.0
 11
58.76177303258321
 21
385.9029328066007
 31
0.0
  0
LINE
  5
1E6
330
1F
100
AcDbEntity
  8
Make2D$___$___
100
AcDbLine
 10
58.7617730325832
 20
385.7150938764528
 30
0.0
 11
58.76177303258321
 21
385.560881460691
 31
0.0
  0
LINE
  5
1E7
330
1F
100
AcDbEntity
  8
Make2D$___$___
100
AcDbLine
 10
58.76177303258321
 20
385.3745951825966
 30
0.0
 11
58.76177303258321
 21
385.2730477386204
 31
0.0
  0
LINE
  5
1E8
330
1F
100
AcDbEntity
  8
Make2D$___$___
100
AcDbLine
 10
58.76177303258321
 20
385.0211618912563
 30
0.0
 11
58.76177303258321
 21
384.9365709824809
 31
0.0
  0
LINE
  5
1E9
330
1F
100
AcDbEntity
  8
Make2D$___$___
100
AcDbLine
 10
58.76177303258322
 20
384.655072543224
 30
0.0
 11
58.76177303258321
 21
384.5511514446939
 31
0.0
  0
LINE
  5
1EA
330
1F
100
AcDbEntity
  8
Make2D$___$___
100
AcDbLine
 10
58.76177303258322
 20
384.2766325181105
 30
0.0
 11
58.76177303258321
 21
384.116861171386
 31
0.0
  0
LINE
  5
1EB
330
1F
100
AcDbEntity
  8
Make2D$___$___
100
AcDbLine
 10
58.76177303258319
 20
383.8861732269656
 30
0.0
 11
58.76177303258321
 21
383.6341614330107
 31
0.0
  0
LINE
  5
1EC
330
1F
100
AcDbEntity
  8
Make2D$___$___
100
AcDbLine
 10
58.76177303258322
 20
383.4840511697652
 30
0.0
 11
58.76177303258322
 21
383.3749113639802
 31
0.0
  0
LINE
  5
1ED
330
1F
100
AcDbEntity
  8
Make2D$___$___
100
AcDbLine
 10
58.76177303258321
 20
383.0706468632002
 30
0.0
 11
58.76177303258321
 21
382.821338138698
 31
0.0
  0
LINE
  5
1EE
330
1F
100
AcDbEntity
  8
Make2D$___$___
100
AcDbLine
 10
58.76177303258323
 20
382.6463636454421
 30
0.0
 11
58.76177303258322
 21
382.5273812361518
 31
0.0
  0
LINE
  5
1EF
330
1F
100
AcDbEntity
  8
Make2D$___$___
100
AcDbLine
 10
58.76177303258322
 20
382.211626365732
 30
0.0
 11
58.76177303258322
 21
381.9062274438525
 31
0.0
  0
LINE
  5
1F0
330
1F
100
AcDbEntity
  8
Make2D$___$___
100
AcDbLine
 10
58.7617730325832
 20
381.7668799677224
 30
0.0
 11
58.7617730325832
 21
381.5795429399116
 31
0.0
  0
LINE
  5
1F1
330
1F
100
AcDbEntity
  8
Make2D$___$___
100
AcDbLine
 10
58.76177303258322
 20
381.3125879764777
 30
0.0
 11
58.76177303258323
 21
381.2425000204792
 31
0.0
  0
LINE
  5
1F2
330
1F
100
AcDbEntity
  8
Make2D$___$___
100
AcDbLine
 10
58.76177303258322
 20
380.8492308998995
 30
0.0
 11
58.76177303258322
 21
380.5386110085954
 31
0.0
  0
LINE
  5
1F3
330
1F
100
AcDbEntity
  8
Make2D$___$___
100
AcDbLine
 10
58.76177303258321
 20
380.3773045560765
 30
0.0
 11
58.76177303258321
 21
380.1724523605122
 31
0.0
  0
LINE
  5
1F4
330
1F
100
AcDbEntity
  8
Make2D$___$___
100
AcDbLine
 10
58.76177303258321
 20
379.8973183386378
 30
0.0
 11
58.76177303258321
 21
379.7973083282126
 31
0.0
  0
LINE
  5
1F5
330
1F
100
AcDbEntity
  8
Make2D$___$___
100
AcDbLine
 10
58.76177303258321
 20
379.4097934326404
 30
0.0
 11
58.76177303258321
 21
379.0216400458617
 31
0.0
  0
LINE
  5
1F6
330
1F
100
AcDbEntity
  8
Make2D$___$___
100
AcDbLine
 10
58.76177303258321
 20
378.9152609937955
 30
0.0
 11
58.76177303258322
 21
378.6219432380661
 31
0.0
  0
LINE
  5
1F7
330
1F
100
AcDbEntity
  8
Make2D$___$___
100
AcDbLine
 10
58.76177303258321
 20
378.4142603039883
 30
0.0
 11
58.76177303258321
 21
378.214912686701
 31
0.0
  0
LINE
  5
1F8
330
1F
100
AcDbEntity
  8
Make2D$___$___
100
AcDbLine
 10
58.7617730325832
 20
377.3806446676058
 30
0.0
 11
58.76177303258321
 21
376.9543282769352
 31
0.0
  0
LINE
  5
1F9
330
1F
100
AcDbEntity
  8
Make2D$___$___
100
AcDbLine
 10
58.76177303258321
 20
376.8779245058557
 30
0.0
 11
58.76177303258321
 21
376.5225168670673
 31
0.0
  0
LINE
  5
1FA
330
1F
100
AcDbEntity
  8
Make2D$___$___
100
AcDbLine
 10
58.76177303258322
 20
376.3565413481989
 30
0.0
 11
58.76177303258321
 21
376.0856873502544
 31
0.0
  0
LINE
  5
1FB
330
1F
100
AcDbEntity
  8
Make2D$___$___
100
AcDbLine
 10
58.76177303258321
 20
375.8314436343091
 30
0.0
 11
58.76177303258322
 21
375.6443202515221
 31
0.0
  0
LINE
  5
1FC
330
1F
100
AcDbEntity
  8
Make2D$___$___
100
AcDbLine
 10
58.76177303258321
 20
375.3031809368015
 30
0.0
 11
58.76177303258321
 21
375.1618566874722
 31
0.0
  0
LINE
  5
1FD
330
1F
100
AcDbEntity
  8
Make2D$___$___
100
AcDbLine
 10
58.76177303258321
 20
374.7499037271821
 30
0.0
 11
58.76177303258321
 21
374.2978188870967
 31
0.0
  0
LINE
  5
1FE
330
1F
100
AcDbEntity
  8
Make2D$___$___
100
AcDbLine
 10
58.76177303258321
 20
374.239335272041
 30
0.0
 11
58.76177303258321
 21
373.8431225505226
 31
0.0
  0
LINE
  5
1FF
330
1F
100
AcDbEntity
  8
Make2D$___$___
100
AcDbLine
 10
58.76177303258321
 20
373.7048230596369
 30
0.0
 11
58.76177303258321
 21
373.3862894740181
 31
0.0
  0
LINE
  5
200
330
1F
100
AcDbEntity
  8
Make2D$___$___
100
AcDbLine
 10
58.7617730325832
 20
373.1692846638124
 30
0.0
 11
58.76177303258321
 21
372.9277890627235
 31
0.0
  0
LINE
  5
201
330
1F
100
AcDbEntity
  8
Make2D$___$___
100
AcDbLine
 10
58.7617730325832
 20
372.6332321940814
 30
0.0
 11
58.7617730325832
 21
372.4507467766628
 31
0.0
  0
LINE
  5
202
330
1F
100
AcDbEntity
  8
Make2D$___$___
100
AcDbLine
 10
58.76177303258319
 20
372.0076267732505
 30
0.0
 11
58.7617730325832
 21
371.9062901451071
 31
0.0
  0
LINE
  5
203
330
1F
100
AcDbEntity
  8
Make2D$___$___
100
AcDbLine
 10
58.76177303258319
 20
371.5468638129703
 30
0.0
 11
58.7617730325832
 21
371.0862290021773
 31
0.0
  0
LINE
  5
204
330
1F
100
AcDbEntity
  8
Make2D$___$___
100
AcDbLine
 10
58.76177303258322
 20
371.0269341394898
 30
0.0
 11
58.76177303258321
 21
370.6261449939955
 31
0.0
  0
LINE
  5
205
330
1F
100
AcDbEntity
  8
Make2D$___$___
100
AcDbLine
 10
58.7617730325832
 20
370.4937011098772
 30
0.0
 11
58.76177303258321
 21
370.167022355528
 31
0.0
  0
LINE
  5
206
330
1F
100
AcDbEntity
  8
Make2D$___$___
100
AcDbLine
 10
58.76177303258318
 20
369.9623206150612
 30
0.0
 11
58.76177303258319
 21
369.7092582150387
 31
0.0
  0
LINE
  5
207
330
1F
100
AcDbEntity
  8
Make2D$___$___
100
AcDbLine
 10
58.76177303258321
 20
369.2532360228101
 30
0.0
 11
58.76177303258319
 21
369.2006334426852
 31
0.0
  0
LINE
  5
208
330
1F
100
AcDbEntity
  8
Make2D$___$___
100
AcDbLine
 10
58.76177303258319
 20
368.7993244613469
 30
0.0
 11
58.76177303258319
 21
368.6660575703959
 31
0.0
  0
LINE
  5
209
330
1F
100
AcDbEntity
  8
Make2D$___$___
100
AcDbLine
 10
58.76177303258321
 20
368.3478771817007
 30
0.0
 11
58.7617730325832
 21
367.8992322619087
 31
0.0
  0
LINE
  5
20A
330
1F
100
AcDbEntity
  8
Make2D$___$___
100
AcDbLine
 10
58.76177303258316
 20
367.6068445232538
 30
0.0
 11
58.76177303258319
 21
367.4537118572479
 31
0.0
  0
LINE
  5
20B
330
1F
100
AcDbEntity
  8
Make2D$___$___
100
AcDbLine
 10
58.76177303258321
 20
367.0829705848661
 30
0.0
 11
58.76177303258321
 21
367.0116219255996
 31
0.0
  0
LINE
  5
20C
330
1F
100
AcDbEntity
  8
Make2D$___$___
100
AcDbLine
 10
58.7617730325832
 20
366.5732520347493
 30
0.0
 11
58.7617730325832
 21
366.3236437817675
 31
0.0
  0
LINE
  5
20D
330
1F
100
AcDbEntity
  8
Make2D$___$___
100
AcDbLine
 10
58.7617730325832
 20
366.134882135682
 30
0.0
 11
58.76177303258321
 21
365.8072045338543
 31
0.0
  0
LINE
  5
20E
330
1F
100
AcDbEntity
  8
Make2D$___$___
100
AcDbLine
 10
58.76177303258321
 20
365.6927922159153
 30
0.0
 11
58.76177303258319
 21
365.282886493814
 31
0.0
  0
LINE
  5
20F
330
1F
100
AcDbEntity
  8
Make2D$___$___
100
AcDbLine
 10
58.76177303258318
 20
365.247271811061
 30
0.0
 11
58.76177303258319
 21
364.798626891267
 31
0.0
  0
LINE
  5
210
330
1F
100
AcDbEntity
  8
Make2D$___$___
100
AcDbLine
 10
58.76177303258317
 20
364.7630194597847
 30
0.0
 11
58.76177303258319
 21
364.3471796120147
 31
0.0
  0
LINE
  5
211
330
1F
100
AcDbEntity
  8
Make2D$___$___
100
AcDbLine
 10
58.7617730325832
 20
364.2396935380135
 30
0.0
 11
58.76177303258319
 21
363.8932680512224
 31
0.0
  0
LINE
  5
212
330
1F
100
AcDbEntity
  8
Make2D$___$___
100
AcDbLine
 10
58.7617730325832
 20
363.7042211872653
 30
0.0
 11
58.7617730325832
 21
363.4372458478126
 31
0.0
  0
LINE
  5
213
330
1F
100
AcDbEntity
  8
Make2D$___$___
100
AcDbLine
 10
58.7617730325832
 20
362.9794817577185
 30
0.0
 11
58.76177303258319
 21
362.6528029630338
 31
0.0
  0
LINE
  5
214
330
1F
100
AcDbEntity
  8
Make2D$___$___
100
AcDbLine
 10
58.76177303258319
 20
362.5203591363722
 30
0.0
 11
58.7617730325832
 21
362.1195699334844
 31
0.0
  0
LINE
  5
215
330
1F
100
AcDbEntity
  8
Make2D$___$___
100
AcDbLine
 10
58.76177303258321
 20
362.0602750449747
 30
0.0
 11
58.76177303258319
 21
361.5996401585512
 31
0.0
  0
LINE
  5
216
330
1F
100
AcDbEntity
  8
Make2D$___$___
100
AcDbLine
 10
58.76177303258319
 20
361.5604583692797
 30
0.0
 11
58.76177303258319
 21
361.1388773303362
 31
0.0
  0
LINE
  5
217
330
1F
100
AcDbEntity
  8
Make2D$___$___
100
AcDbLine
 10
58.7617730325832
 20
361.0214032979656
 30
0.0
 11
58.76177303258321
 21
360.6784206480855
 31
0.0
  0
LINE
  5
218
330
1F
100
AcDbEntity
  8
Make2D$___$___
100
AcDbLine
 10
58.76177303258321
 20
360.4820499391183
 30
0.0
 11
58.7617730325832
 21
360.2187150188356
 31
0.0
  0
LINE
  5
219
330
1F
100
AcDbEntity
  8
Make2D$___$___
100
AcDbLine
 10
58.76177303258319
 20
359.9428961708539
 30
0.0
 11
58.76177303258319
 21
359.7602145423905
 31
0.0
  0
LINE
  5
21A
330
1F
100
AcDbEntity
  8
Make2D$___$___
100
AcDbLine
 10
58.7617730325832
 20
359.3033814837517
 30
0.0
 11
58.7617730325832
 21
358.907168800816
 31
0.0
  0
LINE
  5
21B
330
1F
100
AcDbEntity
  8
Make2D$___$___
100
AcDbLine
 10
58.7617730325832
 20
358.8486851858553
 30
0.0
 11
58.7617730325832
 21
358.3966003453477
 31
0.0
  0
LINE
  5
21C
330
1F
100
AcDbEntity
  8
Make2D$___$___
100
AcDbLine
 10
58.76177303258321
 20
358.3317853687499
 30
0.0
 11
58.7617730325832
 21
357.9476059912248
 31
0.0
  0
LINE
  5
21D
330
1F
100
AcDbEntity
  8
Make2D$___$___
100
AcDbLine
 10
58.76177303258321
 20
357.7986317803379
 30
0.0
 11
58.76177303258321
 21
357.5021838230412
 31
0.0
  0
LINE
  5
21E
330
1F
100
AcDbEntity
  8
Make2D$___$___
100
AcDbLine
 10
58.76177303258319
 20
357.2683226089434
 30
0.0
 11
58.7617730325832
 21
357.0608167274528
 31
0.0
  0
LINE
  5
21F
330
1F
100
AcDbEntity
  8
Make2D$___$___
100
AcDbLine
 10
58.76177303258321
 20
356.7414079692086
 30
0.0
 11
58.76177303258321
 21
356.623987197295
 31
0.0
  0
LINE
  5
220
330
1F
100
AcDbEntity
  8
Make2D$___$___
100
AcDbLine
 10
58.7617730325832
 20
356.1921757935146
 30
0.0
 11
58.76177303258321
 21
355.7658593969333
 31
0.0
  0
LINE
  5
221
330
1F
100
AcDbEntity
  8
Make2D$___$___
100
AcDbLine
 10
58.76177303258319
 20
355.6999778408045
 30
0.0
 11
58.7617730325832
 21
355.3455096884304
 31
0.0
  0
LINE
  5
222
330
1F
100
AcDbEntity
  8
Make2D$___$___
100
AcDbLine
 10
58.76177303258321
 20
355.1865724791824
 30
0.0
 11
58.7617730325832
 21
354.9315914329781
 31
0.0
  0
LINE
  5
223
330
1F
100
AcDbEntity
  8
Make2D$___$___
100
AcDbLine
 10
58.7617730325832
 20
354.6787783273966
 30
0.0
 11
58.76177303258321
 21
354.5245608552207
 31
0.0
  0
LINE
  5
224
330
1F
100
AcDbEntity
  8
Make2D$___$___
100
AcDbLine
 10
58.7617730325832
 20
353.6822153109097
 30
0.0
 11
58.76177303258321
 21
353.3491957303566
 31
0.0
  0
LINE
  5
225
330
1F
100
AcDbEntity
  8
Make2D$___$___
100
AcDbLine
 10
58.76177303258319
 20
353.1945262231341
 30
0.0
 11
58.7617730325832
 21
352.9740516454179
 31
0.0
  0
LINE
  5
226
330
1F
100
AcDbEntity
  8
Make2D$___$___
100
AcDbLine
 10
58.76177303258321
 20
352.7146044544635
 30
0.0
 11
58.7617730325832
 21
352.6078931064636
 31
0.0
  0
LINE
  5
227
330
1F
100
AcDbEntity
  8
Make2D$___$___
100
AcDbLine
 10
58.76177303258321
 20
352.2510926116154
 30
0.0
 11
58.76177303258321
 21
351.904004099326
 31
0.0
  0
LINE
  5
228
330
1F
100
AcDbEntity
  8
Make2D$___$___
100
AcDbLine
 10
58.76177303258319
 20
351.7801125250506
 30
0.0
 11
58.76177303258319
 21
351.5669610921791
 31
0.0
  0
LINE
  5
229
330
1F
100
AcDbEntity
  8
Make2D$___$___
100
AcDbLine
 10
58.7617730325832
 20
351.3265330966249
 30
0.0
 11
58.76177303258321
 21
351.2402765790661
 31
0.0
  0
LINE
  5
22A
330
1F
100
AcDbEntity
  8
Make2D$___$___
100
AcDbLine
 10
58.76177303258321
 20
350.8826989511982
 30
0.0
 11
58.76177303258321
 21
350.619122836843
 31
0.0
  0
LINE
  5
22B
330
1F
100
AcDbEntity
  8
Make2D$___$___
100
AcDbLine
 10
58.76177303258321
 20
350.4490637422813
 30
0.0
 11
58.76177303258319
 21
350.3251659126301
 31
0.0
  0
LINE
  5
22C
330
1F
100
AcDbEntity
  8
Make2D$___$___
100
AcDbLine
 10
58.76177303258321
 20
350.0425906899277
 30
0.0
 11
58.7617730325832
 21
349.7715927090146
 31
0.0
  0
LINE
  5
22D
330
1F
100
AcDbEntity
  8
Make2D$___$___
100
AcDbLine
 10
58.7617730325832
 20
349.6141043983027
 30
0.0
 11
58.7617730325832
 21
349.5123426849386
 31
0.0
  0
LINE
  5
22E
330
1F
100
AcDbEntity
  8
Make2D$___$___
100
AcDbLine
 10
58.7617730325832
 20
348.4482954660176
 30
0.0
 11
58.76177303258319
 21
344.1734050728613
 31
0.0
  0
ARC
  5
22F
330
1F
100
AcDbEntity
  8
Make2D$___$___
100
AcDbCircle
 10
59.06176728715349
 20
389.7671979430773
 30
0.0
 40
0.3000408957729977
100
AcDbArc
 50
89.99890285331985
 51
134.1931649538279
  0
LINE
  5
230
330
1F
100
AcDbEntity
  8
Make2D$___$___
100
AcDbLine
 10
116.5117730325832
 20
354.1037014082496
 30
0.0
 11
116.5117730325832
 21
354.1275653205497
 31
0.0
  0
LINE
  5
231
330
1F
100
AcDbEntity
  8
Make2D$___$___
100
AcDbLine
 10
116.5117730325832
 20
354.1544017675512
 30
0.0
 11
116.5117730325832
 21
354.18962445372
 31
0.0
  0
LINE
  5
232
330
1F
100
AcDbEntity
  8
Make2D$___$___
100
AcDbLine
 10
116.5117730325832
 20
354.2308595560971
 30
0.0
 11
116.5117730325832
 21
354.2765660074732
 31
0.0
  0
LINE
  5
233
330
1F
100
AcDbEntity
  8
Make2D$___$___
100
AcDbLine
 10
116.5117730325832
 20
354.3341240025705
 30
0.0
 11
116.5117730325832
 21
354.3893619938431
 31
0.0
  0
LINE
  5
234
330
1F
100
AcDbEntity
  8
Make2D$___$___
100
AcDbLine
 10
116.5117730325832
 20
354.4651223489029
 30
0.0
 11
116.5117730325832
 21
354.5288706025825
 31
0.0
  0
LINE
  5
235
330
1F
100
AcDbEntity
  8
Make2D$___$___
100
AcDbLine
 10
116.5117730325831
 20
354.6246386014853
 30
0.0
 11
116.5117730325832
 21
354.6958168984448
 31
0.0
  0
LINE
  5
236
330
1F
100
AcDbEntity
  8
Make2D$___$___
100
AcDbLine
 10
116.5117730325832
 20
354.8132929726613
 30
0.0
 11
116.5117730325832
 21
354.890774034741
 31
0.0
  0
LINE
  5
237
330
1F
100
AcDbEntity
  8
Make2D$___$___
100
AcDbLine
 10
116.5117730325832
 20
355.0315224448711
 30
0.0
 11
116.5117730325832
 21
355.1141455114082
 31
0.0
  0
LINE
  5
238
330
1F
100
AcDbEntity
  8
Make2D$___$___
100
AcDbLine
 10
116.5117730325832
 20
355.2795632253192
 30
0.0
 11
116.5117730325832
 21
355.3661490342083
 31
0.0
  0
LINE
  5
239
330
1F
100
AcDbEntity
  8
Make2D$___$___
100
AcDbLine
 10
116.5117730325832
 20
355.5574356695332
 30
0.0
 11
116.5117730325832
 21
355.6468025393108
 31
0.0
  0
LINE
  5
23A
330
1F
100
AcDbEntity
  8
Make2D$___$___
100
AcDbLine
 10
116.5117730325832
 20
355.8649323015595
 30
0.0
 11
116.5117730325832
 21
355.9559129310595
 31
0.0
  0
LINE
  5
23B
330
1F
100
AcDbEntity
  8
Make2D$___$___
100
AcDbLine
 10
116.5117730325832
 20
356.201609491241
 30
0.0
 11
116.5117730325832
 21
356.2930680379576
 31
0.0
  0
LINE
  5
23C
330
1F
100
AcDbEntity
  8
Make2D$___$___
100
AcDbLine
 10
116.5117730325832
 20
356.3806864650368
 30
0.0
 11
116.5117730325832
 21
356.4719724912212
 31
0.0
  0
LINE
  5
23D
330
1F
100
AcDbEntity
  8
Make2D$___$___
100
AcDbLine
 10
116.5117730325832
 20
356.5667832631266
 30
0.0
 11
116.5117730325832
 21
356.6576322221191
 31
0.0
  0
LINE
  5
23E
330
1F
100
AcDbEntity
  8
Make2D$___$___
100
AcDbLine
 10
116.5117730325832
 20
356.7597768832541
 30
0.0
 11
116.5117730325832
 21
356.8499327935576
 31
0.0
  0
LINE
  5
23F
330
1F
100
AcDbEntity
  8
Make2D$___$___
100
AcDbLine
 10
116.5117730325832
 20
357.2267955212424
 30
0.0
 11
116.5117730325832
 21
357.2496969620428
 31
0.0
  0
LINE
  5
240
330
1F
100
AcDbEntity
  8
Make2D$___$___
100
AcDbLine
 10
116.5117730325832
 20
357.6102115363419
 30
0.0
 11
116.5117730325832
 21
357.6827773002472
 31
0.0
  0
LINE
  5
241
330
1F
100
AcDbEntity
  8
Make2D$___$___
100
AcDbLine
 10
116.5117730325832
 20
357.8228784543022
 30
0.0
 11
116.5117730325832
 21
357.9362502956351
 31
0.0
  0
LINE
  5
242
330
1F
100
AcDbEntity
  8
Make2D$___$___
100
AcDbLine
 10
116.5117730325832
 20
358.2905014335398
 30
0.0
 11
116.5117730325832
 21
358.4902087774419
 31
0.0
  0
LINE
  5
243
330
1F
100
AcDbEntity
  8
Make2D$___$___
100
AcDbLine
 10
116.5117730325832
 20
358.7960171309837
 30
0.0
 11
116.5117730325832
 21
359.1857493284915
 31
0.0
  0
LINE
  5
244
330
1F
100
AcDbEntity
  8
Make2D$___$___
100
AcDbLine
 10
116.5117730325832
 20
359.2887310370919
 30
0.0
 11
116.5117730325832
 21
359.4404068460204
 31
0.0
  0
LINE
  5
245
330
1F
100
AcDbEntity
  8
Make2D$___$___
100
AcDbLine
 10
116.5117730325832
 20
359.5642571527096
 30
0.0
 11
116.5117730325832
 21
359.6160405713022
 31
0.0
  0
LINE
  5
246
330
1F
100
AcDbEntity
  8
Make2D$___$___
100
AcDbLine
 10
116.5117730325832
 20
360.1013136721051
 30
0.0
 11
116.5117730325832
 21
360.2271871175461
 31
0.0
  0
LINE
  5
247
330
1F
100
AcDbEntity
  8
Make2D$___$___
100
AcDbLine
 10
116.5117730325832
 20
360.3722427065413
 30
0.0
 11
116.5117730325832
 21
360.7679912163308
 31
0.0
  0
LINE
  5
248
330
1F
100
AcDbEntity
  8
Make2D$___$___
100
AcDbLine
 10
116.5117730325832
 20
360.9122071023627
 30
0.0
 11
116.5117730325832
 21
361.0312738053565
 31
0.0
  0
LINE
  5
249
330
1F
100
AcDbEntity
  8
Make2D$___$___
100
AcDbLine
 10
116.5117730325832
 20
361.1938770686933
 30
0.0
 11
116.5117730325832
 21
361.3192252311944
 31
0.0
  0
LINE
  5
24A
330
1F
100
AcDbEntity
  8
Make2D$___$___
100
AcDbLine
 10
116.5117730325832
 20
361.4953827375207
 30
0.0
 11
116.5117730325832
 21
361.5228562982164
 31
0.0
  0
LINE
  5
24B
330
1F
100
AcDbEntity
  8
Make2D$___$___
100
AcDbLine
 10
116.5117730325832
 20
362.0520043206768
 30
0.0
 11
116.5117730325832
 21
362.2934464011086
 31
0.0
  0
LINE
  5
24C
330
1F
100
AcDbEntity
  8
Make2D$___$___
100
AcDbLine
 10
116.5117730325832
 20
362.6320602508071
 30
0.0
 11
116.5117730325832
 21
363.0131054543167
 31
0.0
  0
LINE
  5
24D
330
1F
100
AcDbEntity
  8
Make2D$___$___
100
AcDbLine
 10
116.5117730325832
 20
363.2430548416783
 30
0.0
 11
116.5117730325832
 21
363.5838161493789
 31
0.0
  0
LINE
  5
24E
330
1F
100
AcDbEntity
  8
Make2D$___$___
100
AcDbLine
 10
116.5117730325832
 20
363.8228526686585
 30
0.0
 11
116.5117730325832
 21
364.0529883889978
 31
0.0
  0
LINE
  5
24F
330
1F
100
AcDbEntity
  8
Make2D$___$___
100
AcDbLine
 10
116.5117730325832
 20
364.4022718344792
 30
0.0
 11
116.5117730325832
 21
364.7843916814757
 31
0.0
  0
LINE
  5
250
330
1F
100
AcDbEntity
  8
Make2D$___$___
100
AcDbLine
 10
116.5117730325832
 20
364.979297761008
 30
0.0
 11
116.5117730325832
 21
365.3990956121539
 31
0.0
  0
LINE
  5
251
330
1F
100
AcDbEntity
  8
Make2D$___$___
100
AcDbLine
 10
116.5117730325832
 20
365.5520299896582
 30
0.0
 11
116.5117730325832
 21
366.675302711774
 31
0.0
  0
LINE
  5
252
330
1F
100
AcDbEntity
  8
Make2D$___$___
100
AcDbLine
 10
116.5117730325832
 20
348.0687581741464
 30
0.0
 11
116.5117730325832
 21
348.0609632873203
 31
0.0
  0
LINE
  5
253
330
1F
100
AcDbEntity
  8
Make2D$___$___
100
AcDbLine
 10
116.5117730325832
 20
347.7896639866524
 30
0.0
 11
116.5117730325832
 21
347.7759202152163
 31
0.0
  0
LINE
  5
254
330
1F
100
AcDbEntity
  8
Make2D$___$___
100
AcDbLine
 10
116.5117730325832
 20
347.5178131284523
 30
0.0
 11
116.5117730325832
 21
347.4998576787132
 31
0.0
  0
LINE
  5
255
330
1F
100
AcDbEntity
  8
Make2D$___$___
100
AcDbLine
 10
116.5117730325832
 20
347.2534511517226
 30
0.0
 11
116.5117730325832
 21
347.2329057308073
 31
0.0
  0
LINE
  5
256
330
1F
100
AcDbEntity
  8
Make2D$___$___
100
AcDbLine
 10
116.5117730325832
 20
346.9968164830249
 30
0.0
 11
116.5117730325832
 21
346.9751810100034
 31
0.0
  0
LINE
  5
257
330
1F
100
AcDbEntity
  8
Make2D$___$___
100
AcDbLine
 10
116.5117730325832
 20
346.748139778166
 30
0.0
 11
116.5117730325832
 21
346.726786633723
 31
0.0
  0
LINE
  5
258
330
1F
100
AcDbEntity
  8
Make2D$___$___
100
AcDbLine
 10
116.5117730325832
 20
346.5076433081814
 30
0.0
 11
116.5117730325832
 21
346.4878121385216
 31
0.0
  0
LINE
  5
259
330
1F
100
AcDbEntity
  8
Make2D$___$___
100
AcDbLine
 10
116.5117730325832
 20
346.2755403643617
 30
0.0
 11
116.5117730325832
 21
346.2583334665715
 31
0.0
  0
LINE
  5
25A
330
1F
100
AcDbEntity
  8
Make2D$___$___
100
AcDbLine
 10
116.5117730325832
 20
346.0520346854385
 30
0.0
 11
116.5117730325832
 21
346.0384129975909
 31
0.0
  0
LINE
  5
25B
330
1F
100
AcDbEntity
  8
Make2D$___$___
100
AcDbLine
 10
116.5117730325832
 20
345.8373199099494
 30
0.0
 11
116.5117730325832
 21
345.8280996251362
 31
0.0
  0
LINE
  5
25C
330
1F
100
AcDbEntity
  8
Make2D$___$___
100
AcDbLine
 10
116.5117730325832
 20
345.4349840462141
 30
0.0
 11
116.5117730325832
 21
345.0698608935244
 31
0.0
  0
LINE
  5
25D
330
1F
100
AcDbEntity
  8
Make2D$___$___
100
AcDbLine
 10
116.5117730325832
 20
345.0188185582563
 30
0.0
 11
116.5117730325832
 21
344.9016171274073
 31
0.0
  0
LINE
  5
25E
330
1F
100
AcDbEntity
  8
Make2D$___$___
100
AcDbLine
 10
116.5117730325832
 20
344.8611778480549
 30
0.0
 11
116.5117730325832
 21
344.7430872318431
 31
0.0
  0
LINE
  5
25F
330
1F
100
AcDbEntity
  8
Make2D$___$___
100
AcDbLine
 10
116.5117730325832
 20
344.7123889343645
 30
0.0
 11
116.5117730325832
 21
344.5943814512008
 31
0.0
  0
LINE
  5
260
330
1F
100
AcDbEntity
  8
Make2D$___$___
100
AcDbLine
 10
116.5117730325832
 20
344.5725400732463
 30
0.0
 11
116.5117730325832
 21
344.4555968364754
 31
0.0
  0
LINE
  5
261
330
1F
100
AcDbEntity
  8
Make2D$___$___
100
AcDbLine
 10
116.5117730325832
 20
344.4417085234549
 30
0.0
 11
116.5117730325832
 21
344.3692118831217
 31
0.0
  0
LINE
  5
262
330
1F
100
AcDbEntity
  8
Make2D$___$___
100
AcDbLine
 10
116.5117730325832
 20
344.3199604059794
 30
0.0
 11
116.5117730325832
 21
344.2548270289243
 31
0.0
  0
LINE
  5
263
330
1F
100
AcDbEntity
  8
Make2D$___$___
100
AcDbLine
 10
116.5117730325832
 20
344.2073505978983
 30
0.0
 11
116.5117730325832
 21
344.0097088044796
 31
0.0
  0
LINE
  5
264
330
1F
100
AcDbEntity
  8
Make2D$___$___
100
AcDbLine
 10
116.5117730325832
 20
344.0011361325371
 30
0.0
 11
116.5117730325832
 21
343.9247298841136
 31
0.0
  0
LINE
  5
265
330
1F
100
AcDbEntity
  8
Make2D$___$___
100
AcDbLine
 10
116.5117730325832
 20
343.9129366160379
 30
0.0
 11
116.5117730325832
 21
343.8489954335497
 31
0.0
  0
LINE
  5
266
330
1F
100
AcDbEntity
  8
Make2D$___$___
100
AcDbLine
 10
116.5117730325832
 20
343.8349534581806
 30
0.0
 11
116.5117730325832
 21
343.8155116808313
 31
0.0
  0
LINE
  5
267
330
1F
100
AcDbEntity
  8
Make2D$___$___
100
AcDbLine
 10
116.5117730325832
 20
343.7096262116809
 30
0.0
 11
116.5117730325832
 21
343.6144887168571
 31
0.0
  0
ARC
  5
268
330
1F
100
AcDbEntity
  8
Make2D$___$___
100
AcDbCircle
 10
116.011900702655
 20
343.5731243664257
 30
0.0
 40
0.4998723462320051
100
AcDbArc
 50
269.9853663511894
 51
0.0146336489034836
  0
POLYLINE
  5
269
330
1F
100
AcDbEntity
  8
Make2D$___$___
100
AcDb2dPolyline
 66
     1
 10
0.0
 20
0.0
 30
0.0
  0
VERTEX
  5
26A
330
269
100
AcDbEntity
  8
Make2D$___$___
100
AcDbVertex
100
AcDb2dVertex
 10
114.9345196809615
 20
343.1015783636811
 30
0.0
 42
0.0222066199352389
  0
VERTEX
  5
26B
330
269
100
AcDbEntity
  8
Make2D$___$___
100
AcDbVertex
100
AcDb2dVertex
 10
112.0405095866356
 20
344.2978057394734
 30
0.0
 42
0.0157957030406873
  0
VERTEX
  5
26C
330
269
100
AcDbEntity
  8
Make2D$___$___
100
AcDbVertex
100
AcDb2dVertex
 10
110.3662546874205
 20
344.8400343787934
 30
0.0
 42
0.0201086166301499
  0
VERTEX
  5
26D
330
269
100
AcDbEntity
  8
Make2D$___$___
100
AcDbVertex
100
AcDb2dVertex
 10
108.4624139091481
 20
345.3090231865226
 30
0.0
 42
0.1197763377155791
  0
VERTEX
  5
26E
330
269
100
AcDbEntity
  8
Make2D$___$___
100
AcDbVertex
100
AcDb2dVertex
 10
98.58882322492971
 20
344.9604968577364
 30
0.0
 42
0.0164868406177908
  0
VERTEX
  5
26F
330
269
100
AcDbEntity
  8
Make2D$___$___
100
AcDbVertex
100
AcDb2dVertex
 10
96.89052143507845
 20
344.4404584682644
 30
0.0
 42
0.0124285615882017
  0
VERTEX
  5
270
330
269
100
AcDbEntity
  8
Make2D$___$___
100
AcDbVertex
100
AcDb2dVertex
 10
95.4581772137877
 20
343.9099491788624
 30
0.0
 42
0.0139403077410898
  0
VERTEX
  5
271
330
269
100
AcDbEntity
  8
Make2D$___$___
100
AcDbVertex
100
AcDb2dVertex
 10
93.59026194229304
 20
343.1021560576716
 30
0.0
  0
SEQEND
  5
272
330
269
100
AcDbEntity
  8
Make2D$___$___
  0
ARC
  5
273
330
1F
100
AcDbEntity
  8
Make2D$___$___
100
AcDbCircle
 10
116.0116081780224
 20
389.5730871819366
 30
0.0
 40
0.5001648817289325
100
AcDbArc
 50
0.0188847138782883
 51
89.98111528601102
  0
LINE
  5
274
330
1F
100
AcDbEntity
  8
Make2D$___$___
100
AcDbLine
 10
116.5117730325832
 20
389.5703355614726
 30
0.0
 11
116.5117730325832
 21
389.2840677990365
 31
0.0
  0
LINE
  5
275
330
1F
100
AcDbEntity
  8
Make2D$___$___
100
AcDbLine
 10
116.5117730325832
 20
388.8813740959195
 30
0.0
 11
116.5117730325832
 21
388.5194202213764
 31
0.0
  0
LINE
  5
276
330
1F
100
AcDbEntity
  8
Make2D$___$___
100
AcDbLine
 10
116.5117730325832
 20
388.4862036229661
 30
0.0
 11
116.5117730325832
 21
388.3246015566228
 31
0.0
  0
LINE
  5
277
330
1F
100
AcDbEntity
  8
Make2D$___$___
100
AcDbLine
 10
116.5117730325832
 20
388.3001819442629
 30
0.0
 11
116.5117730325832
 21
388.1135237927087
 31
0.0
  0
LINE
  5
278
330
1F
100
AcDbEntity
  8
Make2D$___$___
100
AcDbLine
 10
116.5117730325832
 20
388.0986537970351
 30
0.0
 11
116.5117730325832
 21
387.8863760101644
 31
0.0
  0
LINE
  5
279
330
1F
100
AcDbEntity
  8
Make2D$___$___
100
AcDbLine
 10
116.5117730325832
 20
387.7366330661338
 30
0.0
 11
116.5117730325832
 21
387.6433835128041
 31
0.0
  0
LINE
  5
27A
330
1F
100
AcDbEntity
  8
Make2D$___$___
100
AcDbLine
 10
116.5117730325832
 20
387.4938521142279
 30
0.0
 11
116.5117730325832
 21
387.4005273048557
 31
0.0
  0
LINE
  5
27B
330
1F
100
AcDbEntity
  8
Make2D$___$___
100
AcDbLine
 10
116.5117730325832
 20
387.2367590695669
 30
0.0
 11
116.5117730325832
 21
387.1366317474553
 31
0.0
  0
LINE
  5
27C
330
1F
100
AcDbEntity
  8
Make2D$___$___
100
AcDbLine
 10
116.5117730325832
 20
386.9656248910445
 30
0.0
 11
116.5117730325832
 21
386.8572237363691
 31
0.0
  0
LINE
  5
27D
330
1F
100
AcDbEntity
  8
Make2D$___$___
100
AcDbLine
 10
116.5117730325832
 20
386.6807491464119
 30
0.0
 11
116.5117730325832
 21
386.5624035928259
 31
0.0
  0
LINE
  5
27E
330
1F
100
AcDbEntity
  8
Make2D$___$___
100
AcDbLine
 10
116.5117730325832
 20
386.3824585040921
 30
0.0
 11
116.5117730325832
 21
386.2523067866514
 31
0.0
  0
LINE
  5
27F
330
1F
100
AcDbEntity
  8
Make2D$___$___
100
AcDbLine
 10
116.5117730325832
 20
386.0711057919404
 30
0.0
 11
116.5117730325832
 21
385.9271041485742
 31
0.0
  0
LINE
  5
280
330
1F
100
AcDbEntity
  8
Make2D$___$___
100
AcDbLine
 10
116.5117730325832
 20
385.7470685791349
 30
0.0
 11
116.5117730325832
 21
385.5870018942277
 31
0.0
  0
LINE
  5
281
330
1F
100
AcDbEntity
  8
Make2D$___$___
100
AcDbLine
 10
116.5117730325832
 20
385.4107476839607
 30
0.0
 11
116.5117730325832
 21
385.2322414548339
 31
0.0
  0
LINE
  5
282
330
1F
100
AcDbEntity
  8
Make2D$___$___
100
AcDbLine
 10
116.5117730325832
 20
385.0625656109223
 30
0.0
 11
116.5117730325832
 21
384.8630991113969
 31
0.0
  0
LINE
  5
283
330
1F
100
AcDbEntity
  8
Make2D$___$___
100
AcDbLine
 10
116.5117730325832
 20
384.702964887214
 30
0.0
 11
116.5117730325832
 21
384.4798854311691
 31
0.0
  0
LINE
  5
284
330
1F
100
AcDbEntity
  8
Make2D$___$___
100
AcDbLine
 10
116.5117730325832
 20
384.3324063216674
 30
0.0
 11
116.5117730325832
 21
384.082944507161
 31
0.0
  0
LINE
  5
285
330
1F
100
AcDbEntity
  8
Make2D$___$___
100
AcDbLine
 10
116.5117730325832
 20
383.9513671997953
 30
0.0
 11
116.5117730325832
 21
383.6726530035079
 31
0.0
  0
LINE
  5
286
330
1F
100
AcDbEntity
  8
Make2D$___$___
100
AcDbLine
 10
116.5117730325832
 20
383.5603394288588
 30
0.0
 11
116.5117730325832
 21
383.2494190115486
 31
0.0
  0
LINE
  5
287
330
1F
100
AcDbEntity
  8
Make2D$___$___
100
AcDbLine
 10
116.5117730325832
 20
382.8267895346311
 30
0.0
 11
116.5117730325832
 21
382.8136807234924
 31
0.0
  0
LINE
  5
288
330
1F
100
AcDbEntity
  8
Make2D$___$___
100
AcDbLine
 10
50.26233667218344
 20
382.7818202196689
 30
0.0
 11
58.76004559492868
 21
386.3225322708126
 31
0.0
  0
LINE
  5
289
330
1F
100
AcDbEntity
  8
Make2D$___$___
100
AcDbLine
 10
56.16177303257952
 20
347.9065853698277
 30
0.0
 11
58.76004559492866
 21
346.8239718021823
 31
0.0
  0
ARC
  5
28A
330
1F
100
AcDbEntity
  8
Make2D$___$___
100
AcDbCircle
 10
3.281623717235421
 20
287.2239781782732
 30
0.0
 40
0.4998699245544931
100
AcDbArc
 50
247.9846027746061
 51
338.0924324686422
  0
LINE
  5
28B
330
1F
100
AcDbEntity
  8
Make2D$___$___
100
AcDbLine
 10
0.3126923776274364
 20
287.8843768482357
 30
0.0
 11
3.094244468118327
 21
286.7605568551339
 31
0.0
  0
ARC
  5
28C
330
1F
100
AcDbEntity
  8
Make2D$___$___
100
AcDbCircle
 10
0.5003084140663926
 20
288.3480976352443
 30
0.0
 40
0.5002368009668213
100
AcDbArc
 50
157.9497395359229
 51
247.9723168364644
  0
ARC
  5
28D
330
1F
100
AcDbEntity
  8
Make2D$___$___
100
AcDbCircle
 10
31.66164536251179
 20
389.5733797065689
 30
0.0
 40
0.4998723462324033
100
AcDbArc
 50
89.98536635123621
 51
180.0146336490664
  0
LINE
  5
28E
330
1F
100
AcDbEntity
  8
Make2D$___$___
100
AcDbLine
 10
31.16177303258323
 20
389.5686954452558
 30
0.0
 11
31.16177303258323
 21
389.5514716385874
 31
0.0
  0
LINE
  5
28F
330
1F
100
AcDbEntity
  8
Make2D$___$___
100
AcDbLine
 10
31.16177303258322
 20
389.344976625927
 30
0.0
 11
31.16177303258322
 21
389.3312989154555
 31
0.0
  0
LINE
  5
290
330
1F
100
AcDbEntity
  8
Make2D$___$___
100
AcDbLine
 10
31.16177303258322
 20
389.3067811652718
 30
0.0
 11
31.16177303258322
 21
389.2549715951
 31
0.0
  0
LINE
  5
291
330
1F
100
AcDbEntity
  8
Make2D$___$___
100
AcDbLine
 10
31.16177303258322
 20
389.2236575163506
 30
0.0
 11
31.16177303258322
 21
389.1677039288753
 31
0.0
  0
LINE
  5
292
330
1F
100
AcDbEntity
  8
Make2D$___$___
100
AcDbLine
 10
31.16177303258322
 20
389.1287486488562
 30
0.0
 11
31.16177303258321
 21
389.078302893868
 31
0.0
  0
LINE
  5
293
330
1F
100
AcDbEntity
  8
Make2D$___$___
100
AcDbLine
 10
31.16177303258321
 20
389.0219165791169
 30
0.0
 11
31.16177303258322
 21
388.9707302188721
 31
0.0
  0
LINE
  5
294
330
1F
100
AcDbEntity
  8
Make2D$___$___
100
AcDbLine
 10
31.16177303258321
 20
388.9030394584699
 30
0.0
 11
31.16177303258321
 21
388.8520070670834
 31
0.0
  0
LINE
  5
295
330
1F
100
AcDbEntity
  8
Make2D$___$___
100
AcDbLine
 10
31.16177303258321
 20
388.7720123797748
 30
0.0
 11
31.1617730325832
 21
388.7220273125628
 31
0.0
  0
LINE
  5
296
330
1F
100
AcDbEntity
  8
Make2D$___$___
100
AcDbLine
 10
31.1617730325832
 20
388.6287481420295
 30
0.0
 11
31.16177303258321
 21
388.5806996541033
 31
0.0
  0
LINE
  5
297
330
1F
100
AcDbEntity
  8
Make2D$___$___
100
AcDbLine
 10
31.16177303258321
 20
388.4731779555003
 30
0.0
 11
31.16177303258321
 21
388.427948271612
 31
0.0
  0
LINE
  5
298
330
1F
100
AcDbEntity
  8
Make2D$___$___
100
AcDbLine
 10
31.16177303258321
 20
388.3052521666653
 30
0.0
 11
31.16177303258321
 21
388.0623012009783
 31
0.0
  0
LINE
  5
299
330
1F
100
AcDbEntity
  8
Make2D$___$___
100
AcDbLine
 10
31.16177303258319
 20
387.742165621653
 30
0.0
 11
31.1617730325832
 21
387.7017643294967
 31
0.0
  0
LINE
  5
29A
330
1F
100
AcDbEntity
  8
Make2D$___$___
100
AcDbLine
 10
31.16177303258321
 20
387.670433395343
 30
0.0
 11
31.1617730325832
 21
387.4913396194165
 31
0.0
  0
LINE
  5
29B
330
1F
100
AcDbEntity
  8
Make2D$___$___
100
AcDbLine
 10
31.1617730325832
 20
387.4570943804268
 30
0.0
 11
31.16177303258319
 21
387.2693927372214
 31
0.0
  0
LINE
  5
29C
330
1F
100
AcDbEntity
  8
Make2D$___$___
100
AcDbLine
 10
31.1617730325832
 20
387.2322059641868
 30
0.0
 11
31.1617730325832
 21
387.0379887024314
 31
0.0
  0
LINE
  5
29D
330
1F
100
AcDbEntity
  8
Make2D$___$___
100
AcDbLine
 10
31.1617730325832
 20
386.9958324304014
 30
0.0
 11
31.1617730325832
 21
386.7838943755983
 31
0.0
  0
LINE
  5
29E
330
1F
100
AcDbEntity
  8
Make2D$___$___
100
AcDbLine
 10
31.1617730325832
 20
386.7480572759347
 30
0.0
 11
31.16177303258321
 21
386.5349855157686
 31
0.0
  0
LINE
  5
29F
330
1F
100
AcDbEntity
  8
Make2D$___$___
100
AcDbLine
 10
31.1617730325832
 20
386.4889832829112
 30
0.0
 11
31.1617730325832
 21
386.2676118372164
 31
0.0
  0
LINE
  5
2A0
330
1F
100
AcDbEntity
  8
Make2D$___$___
100
AcDbLine
 10
31.1617730325832
 20
386.2187325146038
 30
0.0
 11
31.16177303258321
 21
385.9891426512533
 31
0.0
  0
LINE
  5
2A1
330
1F
100
AcDbEntity
  8
Make2D$___$___
100
AcDbLine
 10
31.16177303258319
 20
385.4717398822673
 30
0.0
 11
31.1617730325832
 21
385.0886851835606
 31
0.0
  0
LINE
  5
2A2
330
1F
100
AcDbEntity
  8
Make2D$___$___
100
AcDbLine
 10
31.1617730325832
 20
385.0128102090754
 30
0.0
 11
31.1617730325832
 21
384.7674511108196
 31
0.0
  0
LINE
  5
2A3
330
1F
100
AcDbEntity
  8
Make2D$___$___
100
AcDbLine
 10
31.16177303258321
 20
384.6783497908673
 30
0.0
 11
31.1617730325832
 21
384.4360230360149
 31
0.0
  0
LINE
  5
2A4
330
1F
100
AcDbEntity
  8
Make2D$___$___
100
AcDbLine
 10
31.1617730325832
 20
384.3333061578449
 30
0.0
 11
31.16177303258321
 21
384.0946357284701
 31
0.0
  0
LINE
  5
2A5
330
1F
100
AcDbEntity
  8
Make2D$___$___
100
AcDbLine
 10
31.1617730325832
 20
383.9779629778615
 30
0.0
 11
31.1617730325832
 21
383.7324332438541
 31
0.0
  0
LINE
  5
2A6
330
1F
100
AcDbEntity
  8
Make2D$___$___
100
AcDbLine
 10
31.1617730325832
 20
383.6126219744909
 30
0.0
 11
31.1617730325832
 21
383.3602027562508
 31
0.0
  0
LINE
  5
2A7
330
1F
100
AcDbEntity
  8
Make2D$___$___
100
AcDbLine
 10
31.16177303258321
 20
383.2376021300247
 30
0.0
 11
31.16177303258321
 21
382.9782565948111
 31
0.0
  0
LINE
  5
2A8
330
1F
100
AcDbEntity
  8
Make2D$___$___
100
AcDbLine
 10
31.16177303258321
 20
382.8532387998823
 30
0.0
 11
31.16177303258321
 21
382.5869240479577
 31
0.0
  0
LINE
  5
2A9
330
1F
100
AcDbEntity
  8
Make2D$___$___
100
AcDbLine
 10
31.16177303258321
 20
382.4598823622065
 30
0.0
 11
31.16177303258321
 21
382.1865504141234
 31
0.0
  0
LINE
  5
2AA
330
1F
100
AcDbEntity
  8
Make2D$___$___
100
AcDbLine
 10
31.16177303258321
 20
382.0578977018472
 30
0.0
 11
31.16177303258321
 21
381.777543198298
 31
0.0
  0
LINE
  5
2AB
330
1F
100
AcDbEntity
  8
Make2D$___$___
100
AcDbLine
 10
31.16177303258322
 20
381.6476627423604
 30
0.0
 11
31.16177303258322
 21
381.3737568791058
 31
0.0
  0
LINE
  5
2AC
330
1F
100
AcDbEntity
  8
Make2D$___$___
100
AcDbLine
 10
31.16177303258322
 20
381.2295673717246
 30
0.0
 11
31.16177303258321
 21
380.9627005899741
 31
0.0
  0
LINE
  5
2AD
330
1F
100
AcDbEntity
  8
Make2D$___$___
100
AcDbLine
 10
31.16177303258322
 20
380.8040122388967
 30
0.0
 11
31.16177303258322
 21
380.5447431203803
 31
0.0
  0
LINE
  5
2AE
330
1F
100
AcDbEntity
  8
Make2D$___$___
100
AcDbLine
 10
31.16177303258321
 20
380.3714075168365
 30
0.0
 11
31.16177303258321
 21
380.29140302423
 31
0.0
  0
LINE
  5
2AF
330
1F
100
AcDbEntity
  8
Make2D$___$___
100
AcDbLine
 10
31.16177303258321
 20
379.9321716397831
 30
0.0
 11
31.16177303258321
 21
379.8597836862987
 31
0.0
  0
LINE
  5
2B0
330
1F
100
AcDbEntity
  8
Make2D$___$___
100
AcDbLine
 10
31.16177303258322
 20
379.6155327901535
 30
0.0
 11
31.16177303258322
 21
379.4217912191835
 31
0.0
  0
LINE
  5
2B1
330
1F
100
AcDbEntity
  8
Make2D$___$___
100
AcDbLine
 10
31.16177303258321
 20
379.1626580562893
 30
0.0
 11
31.16177303258321
 21
378.9778143126635
 31
0.0
  0
LINE
  5
2B2
330
1F
100
AcDbEntity
  8
Make2D$___$___
100
AcDbLine
 10
31.16177303258321
 20
378.703948213812
 30
0.0
 11
31.16177303258321
 21
378.5282481827951
 31
0.0
  0
LINE
  5
2B3
330
1F
100
AcDbEntity
  8
Make2D$___$___
100
AcDbLine
 10
31.16177303258321
 20
378.2398411137991
 30
0.0
 11
31.16177303258322
 21
378.073493446111
 31
0.0
  0
LINE
  5
2B4
330
1F
100
AcDbEntity
  8
Make2D$___$___
100
AcDbLine
 10
31.16177303258322
 20
377.7707785626788
 30
0.0
 11
31.16177303258322
 21
377.6139549874136
 31
0.0
  0
LINE
  5
2B5
330
1F
100
AcDbEntity
  8
Make2D$___$___
100
AcDbLine
 10
31.16177303258321
 20
377.2972050225717
 30
0.0
 11
31.16177303258321
 21
377.1500408275883
 31
0.0
  0
LINE
  5
2B6
330
1F
100
AcDbEntity
  8
Make2D$___$___
100
AcDbLine
 10
31.16177303258321
 20
376.8195663254768
 30
0.0
 11
31.16177303258321
 21
376.6821609977296
 31
0.0
  0
LINE
  5
2B7
330
1F
100
AcDbEntity
  8
Make2D$___$___
100
AcDbLine
 10
31.16177303258321
 20
376.3383084084891
 30
0.0
 11
31.16177303258321
 21
376.2107264256935
 31
0.0
  0
LINE
  5
2B8
330
1F
100
AcDbEntity
  8
Make2D$___$___
100
AcDbLine
 10
31.16177303258321
 20
375.8538760768778
 30
0.0
 11
31.16177303258321
 21
375.7361478409462
 31
0.0
  0
LINE
  5
2B9
330
1F
100
AcDbEntity
  8
Make2D$___$___
100
AcDbLine
 10
31.16177303258321
 20
375.3667118014319
 30
0.0
 11
31.16177303258321
 21
375.2588347032943
 31
0.0
  0
LINE
  5
2BA
330
1F
100
AcDbEntity
  8
Make2D$___$___
100
AcDbLine
 10
31.16177303258321
 20
374.8772545485974
 30
0.0
 11
31.16177303258321
 21
373.7139694733467
 31
0.0
  0
LINE
  5
2BB
330
1F
100
AcDbEntity
  8
Make2D$___$___
100
AcDbLine
 10
31.16177303258321
 20
373.3994391407903
 30
0.0
 11
31.16177303258321
 21
373.3296629073716
 31
0.0
  0
LINE
  5
2BC
330
1F
100
AcDbEntity
  8
Make2D$___$___
100
AcDbLine
 10
47.25836875822321
 20
390.0732520364975
 30
0.0
 11
31.66177303258323
 21
390.0732520364975
 31
0.0
  0
LINE
  5
2BD
330
1F
100
AcDbEntity
  8
Make2D$___$___
100
AcDbLine
 10
56.16177303258319
 20
365.0987057399381
 30
0.0
 11
56.16177303258319
 21
366.0442710098329
 31
0.0
  0
ARC
  5
2BE
330
1F
100
AcDbEntity
  8
Make2D$___$___
100
AcDbCircle
 10
55.66177303258335
 20
343.5732520364974
 30
0.0
 40
0.4999999999998508
100
AcDbArc
 50
269.9999999999935
 51
0.0000000000130276
  0
LINE
  5
2BF
330
1F
100
AcDbEntity
  8
Make2D$___$___
100
AcDbLine
 10
42.46177303258318
 20
343.0732520364975
 30
0.0
 11
55.6617730325832
 21
343.0732520364975
 31
0.0
  0
LINE
  5
2C0
330
1F
100
AcDbEntity
  8
Make2D$___$___
100
AcDbLine
 10
117.9644009767432
 20
382.5732520364975
 30
0.0
 11
129.0591450884232
 21
382.5732520364975
 31
0.0
  0
LINE
  5
2C1
330
1F
100
AcDbEntity
  8
Make2D$___$___
100
AcDbLine
 10
117.0117730325833
 20
352.2232520364947
 30
0.0
 11
117.9606889636788
 21
350.5796814317259
 31
0.0
  0
LINE
  5
2C2
330
1F
100
AcDbEntity
  8
Make2D$___$___
100
AcDbLine
 10
117.9644009767432
 20
350.5732520364975
 30
0.0
 11
129.0591450884232
 21
350.5732520364975
 31
0.0
  0
LINE
  5
2C3
330
1F
100
AcDbEntity
  8
Make2D$___$___
100
AcDbLine
 10
130.0117730325831
 20
352.2232520364947
 30
0.0
 11
129.0628571014882
 21
350.579681431727
 31
0.0
  0
LINE
  5
2C4
330
1F
100
AcDbEntity
  8
Make2D$___$___
100
AcDbLine
 10
117.0117730325833
 20
380.9232520365002
 30
0.0
 11
117.9606889636781
 21
382.5668226412678
 31
0.0
  0
LINE
  5
2C5
330
1F
100
AcDbEntity
  8
Make2D$___$___
100
AcDbLine
 10
130.0117730325831
 20
380.9232520365002
 30
0.0
 11
129.0628571014882
 21
382.566822641268
 31
0.0
  0
ENDSEC
  0
SECTION
  2
OBJECTS
  0
DICTIONARY
  5
C
330
0
100
AcDbDictionary
281
     1
  3
ACAD_GROUP
350
D
  3
ACAD_LAYOUT
350
1A
  3
ACAD_MATERIAL
350
3B
  3
ACAD_MLEADERSTYLE
350
2F0
  3
ACAD_MLINESTYLE
350
17
  3
ACAD_PLOTSETTINGS
350
19
  3
ACAD_PLOTSTYLENAME
350
E
  3
ACAD_SCALELIST
350
3F
  3
ACAD_TABLESTYLE
350
2EF
  3
ACAD_VISUALSTYLE
350
2A
  3
AcDbVariableDictionary
350
2C6
  0
DICTIONARY
  5
D
102
{ACAD_REACTORS
330
C
102
}
330
C
100
AcDbDictionary
281
     1
  0
DICTIONARY
  5
1A
102
{ACAD_REACTORS
330
C
102
}
330
C
100
AcDbDictionary
281
     1
  3
Layout1
350
1E
  3
Layout2
350
26
  3
Model
350
22
  0
DICTIONARY
  5
3B
102
{ACAD_REACTORS
330
C
102
}
330
C
100
AcDbDictionary
281
     1
  3
ByBlock
350
3D
  3
ByLayer
350
3C
  3
Global
350
3E
  0
DICTIONARY
  5
2F0
102
{ACAD_REACTORS
330
C
102
}
330
C
100
AcDbDictionary
281
     1
  0
DICTIONARY
  5
17
102
{ACAD_REACTORS
330
C
102
}
330
C
100
AcDbDictionary
281
     1
  3
Standard
350
18
  0
DICTIONARY
  5
19
102
{ACAD_REACTORS
330
C
102
}
330
C
100
AcDbDictionary
281
     1
  0
ACDBDICTIONARYWDFLT
  5
E
102
{ACAD_REACTORS
330
C
102
}
330
C
100
AcDbDictionary
281
     1
  3
Normal
350
F
100
AcDbDictionaryWithDefault
340
F
  0
DICTIONARY
  5
3F
102
{ACAD_REACTORS
330
C
102
}
330
C
100
AcDbDictionary
281
     1
  3
A0
350
40
  3
A1
350
41
  3
A2
350
42
  3
A3
350
43
  3
A4
350
44
  3
A5
350
45
  3
A6
350
46
  3
A7
350
47
  3
A8
350
48
  3
A9
350
49
  3
B0
350
4A
  3
B1
350
4B
  3
B2
350
4C
  3
B3
350
4D
  3
B4
350
4E
  3
B5
350
4F
  3
B6
350
50
  3
B7
350
51
  3
B8
350
52
  3
B9
350
53
  3
C0
350
54
  3
C1
350
55
  3
C2
350
56
  3
C3
350
57
  3
C4
350
58
  3
C5
350
59
  3
C6
350
5A
  3
C7
350
5B
  3
C8
350
5C
  3
C9
350
5D
  3
D0
350
5E
  3
D1
350
5F
  3
D2
350
60
  0
DICTIONARY
  5
2EF
102
{ACAD_REACTORS
330
C
102
}
330
C
100
AcDbDictionary
281
     1
  0
DICTIONARY
  5
2A
102
{ACAD_REACTORS
330
C
102
}
330
C
100
AcDbDictionary
281
     1
  3
2dWireframe
350
2F
  3
3D Hidden
350
31
  3
3dWireframe
350
30
  3
Basic
350
32
  3
Brighten
350
36
  3
ColorChange
350
3A
  3
Conceptual
350
34
  3
Dim
350
35
  3
Facepattern
350
39
  3
Flat
350
2B
  3
FlatWithEdges
350
2C
  3
Gouraud
350
2D
  3
GouraudWithEdges
350
2E
  3
Linepattern
350
38
  3
Realistic
350
33
  3
Thicken
350
37
  0
DICTIONARY
  5
2C6
102
{ACAD_REACTORS
330
C
102
}
330
C
100
AcDbDictionary
281
     1
  3
CANNOSCALE
350
2C7
  3
MSLTSCALE
350
2C8
  0
LAYOUT
  5
1E
102
{ACAD_REACTORS
330
1A
102
}
330
1A
100
AcDbPlotSettings
  1

  2
none_device
  4

  6

 40
0.0
 41
0.0
 42
0.0
 43
0.0
 44
0.0
 45
0.0
 46
0.0
 47
0.0
 48
0.0
 49
0.0
140
0.0
141
0.0
142
1.0
143
1.0
 70
   688
 72
     0
 73
     0
 74
     5
  7

 75
    16
 76
     0
 77
     2
 78
   300
147
1.0
148
0.0
149
0.0
100
AcDbLayout
  1
Layout1
 70
     1
 71
     1
 10
0.0
 20
0.0
 11
12.0
 21
9.0
 12
0.0
 22
0.0
 32
0.0
 14
1.000000000000000E+20
 24
1.000000000000000E+20
 34
1.000000000000000E+20
 15
-1.000000000000000E+20
 25
-1.000000000000000E+20
 35
-1.000000000000000E+20
146
0.0
 13
0.0
 23
0.0
 33
0.0
 16
1.0
 26
0.0
 36
0.0
 17
0.0
 27
1.0
 37
0.0
 76
     0
330
1B
  0
LAYOUT
  5
26
102
{ACAD_REACTORS
330
1A
102
}
330
1A
100
AcDbPlotSettings
  1

  2
none_device
  4

  6

 40
0.0
 41
0.0
 42
0.0
 43
0.0
 44
0.0
 45
0.0
 46
0.0
 47
0.0
 48
0.0
 49
0.0
140
0.0
141
0.0
142
1.0
143
1.0
 70
   688
 72
     0
 73
     0
 74
     5
  7

 75
    16
 76
     0
 77
     2
 78
   300
147
1.0
148
0.0
149
0.0
100
AcDbLayout
  1
Layout2
 70
     1
 71
     2
 10
0.0
 20
0.0
 11
0.0
 21
0.0
 12
0.0
 22
0.0
 32
0.0
 14
0.0
 24
0.0
 34
0.0
 15
0.0
 25
0.0
 35
0.0
146
0.0
 13
0.0
 23
0.0
 33
0.0
 16
1.0
 26
0.0
 36
0.0
 17
0.0
 27
1.0
 37
0.0
 76
     0
330
23
  0
LAYOUT
  5
22
102
{ACAD_REACTORS
330
1A
102
}
330
1A
100
AcDbPlotSettings
  1

  2
none_device
  4
Letter_(8.50_x_11.00_Inches)
  6

 40
6.35
 41
6.35
 42
6.35000508
 43
6.35000508
 44
215.9
 45
279.4
 46
0.0
 47
0.0
 48
0.0
 49
0.0
140
0.0
141
0.0
142
1.0
143
1.0
 70
  1712
 72
     0
 73
     0
 74
     0
  7

 75
     0
 76
     0
 77
     2
 78
   300
147
1.0
148
0.0
149
0.0
100
AcDbLayout
  1
Model
 70
     1
 71
     0
 10
0.0
 20
0.0
 11
12.0
 21
9.0
 12
0.0
 22
0.0
 32
0.0
 14
0.0000716130995712
 24
286.7241082537188
 34
0.0
 15
150.0117730325844
 25
399.5732520364984
 35
0.0
146
0.0
 13
0.0
 23
0.0
 33
0.0
 16
1.0
 26
0.0
 36
0.0
 17
0.0
 27
1.0
 37
0.0
 76
     0
330
1F
331
29
  0
MATERIAL
  5
3D
102
{ACAD_REACTORS
330
3B
102
}
102
{ACAD_XDICTIONARY
360
2EB
102
}
330
3B
100
AcDbMaterial
  1
ByBlock
  0
MATERIAL
  5
3C
102
{ACAD_REACTORS
330
3B
102
}
102
{ACAD_XDICTIONARY
360
2E9
102
}
330
3B
100
AcDbMaterial
  1
ByLayer
  0
MATERIAL
  5
3E
102
{ACAD_REACTORS
330
3B
102
}
102
{ACAD_XDICTIONARY
360
2ED
102
}
330
3B
100
AcDbMaterial
  1
Global
  0
MLINESTYLE
  5
18
102
{ACAD_REACTORS
330
17
102
}
330
17
100
AcDbMlineStyle
  2
Standard
 70
     0
  3

 62
   256
 51
90.0
 52
90.0
 71
     2
 49
0.5
 62
   256
  6
BYLAYER
 49
-0.5
 62
   256
  6
BYLAYER
  0
ACDBPLACEHOLDER
  5
F
102
{ACAD_REACTORS
330
E
102
}
330
E
  0
SCALE
  5
40
102
{ACAD_REACTORS
330
3F
102
}
330
3F
100
AcDbScale
 70
     0
300
1:1
140
1.0
141
1.0
290
     1
  0
SCALE
  5
41
102
{ACAD_REACTORS
330
3F
102
}
330
3F
100
AcDbScale
 70
     0
300
1:2
140
1.0
141
2.0
290
     0
  0
SCALE
  5
42
102
{ACAD_REACTORS
330
3F
102
}
330
3F
100
AcDbScale
 70
     0
300
1:4
140
1.0
141
4.0
290
     0
  0
SCALE
  5
43
102
{ACAD_REACTORS
330
3F
102
}
330
3F
100
AcDbScale
 70
     0
300
1:5
140
1.0
141
5.0
290
     0
  0
SCALE
  5
44
102
{ACAD_REACTORS
330
3F
102
}
330
3F
100
AcDbScale
 70
     0
300
1:8
140
1.0
141
8.0
290
     0
  0
SCALE
  5
45
102
{ACAD_REACTORS
330
3F
102
}
330
3F
100
AcDbScale
 70
     0
300
1:10
140
1.0
141
10.0
290
     0
  0
SCALE
  5
46
102
{ACAD_REACTORS
330
3F
102
}
330
3F
100
AcDbScale
 70
     0
300
1:16
140
1.0
141
16.0
290
     0
  0
SCALE
  5
47
102
{ACAD_REACTORS
330
3F
102
}
330
3F
100
AcDbScale
 70
     0
300
1:20
140
1.0
141
20.0
290
     0
  0
SCALE
  5
48
102
{ACAD_REACTORS
330
3F
102
}
330
3F
100
AcDbScale
 70
     0
300
1:30
140
1.0
141
30.0
290
     0
  0
SCALE
  5
49
102
{ACAD_REACTORS
330
3F
102
}
330
3F
100
AcDbScale
 70
     0
300
1:40
140
1.0
141
40.0
290
     0
  0
SCALE
  5
4A
102
{ACAD_REACTORS
330
3F
102
}
330
3F
100
AcDbScale
 70
     0
300
1:50
140
1.0
141
50.0
290
     0
  0
SCALE
  5
4B
102
{ACAD_REACTORS
330
3F
102
}
330
3F
100
AcDbScale
 70
     0
300
1:100
140
1.0
141
100.0
290
     0
  0
SCALE
  5
4C
102
{ACAD_REACTORS
330
3F
102
}
330
3F
100
AcDbScale
 70
     0
300
2:1
140
2.0
141
1.0
290
     0
  0
SCALE
  5
4D
102
{ACAD_REACTORS
330
3F
102
}
330
3F
100
AcDbScale
 70
     0
300
4:1
140
4.0
141
1.0
290
     0
  0
SCALE
  5
4E
102
{ACAD_REACTORS
330
3F
102
}
330
3F
100
AcDbScale
 70
     0
300
8:1
140
8.0
141
1.0
290
     0
  0
SCALE
  5
4F
102
{ACAD_REACTORS
330
3F
102
}
330
3F
100
AcDbScale
 70
     0
300
10:1
140
10.0
141
1.0
290
     0
  0
SCALE
  5
50
102
{ACAD_REACTORS
330
3F
102
}
330
3F
100
AcDbScale
 70
     0
300
100:1
140
100.0
141
1.0
290
     0
  0
SCALE
  5
51
102
{ACAD_REACTORS
330
3F
102
}
330
3F
100
AcDbScale
 70
     0
300
1/128" = 1'-0"
140
0.0078125
141
12.0
290
     0
  0
SCALE
  5
52
102
{ACAD_REACTORS
330
3F
102
}
330
3F
100
AcDbScale
 70
     0
300
1/64" = 1'-0"
140
0.015625
141
12.0
290
     0
  0
SCALE
  5
53
102
{ACAD_REACTORS
330
3F
102
}
330
3F
100
AcDbScale
 70
     0
300
1/32" = 1'-0"
140
0.03125
141
12.0
290
     0
  0
SCALE
  5
54
102
{ACAD_REACTORS
330
3F
102
}
330
3F
100
AcDbScale
 70
     0
300
1/16" = 1'-0"
140
0.0625
141
12.0
290
     0
  0
SCALE
  5
55
102
{ACAD_REACTORS
330
3F
102
}
330
3F
100
AcDbScale
 70
     0
300
3/32" = 1'-0"
140
0.09375
141
12.0
290
     0
  0
SCALE
  5
56
102
{ACAD_REACTORS
330
3F
102
}
330
3F
100
AcDbScale
 70
     0
300
1/8" = 1'-0"
140
0.125
141
12.0
290
     0
  0
SCALE
  5
57
102
{ACAD_REACTORS
330
3F
102
}
330
3F
100
AcDbScale
 70
     0
300
3/16" = 1'-0"
140
0.1875
141
12.0
290
     0
  0
SCALE
  5
58
102
{ACAD_REACTORS
330
3F
102
}
330
3F
100
AcDbScale
 70
     0
300
1/4" = 1'-0"
140
0.25
141
12.0
290
     0
  0
SCALE
  5
59
102
{ACAD_REACTORS
330
3F
102
}
330
3F
100
AcDbScale
 70
     0
300
3/8" = 1'-0"
140
0.375
141
12.0
290
     0
  0
SCALE
  5
5A
102
{ACAD_REACTORS
330
3F
102
}
330
3F
100
AcDbScale
 70
     0
300
1/2" = 1'-0"
140
0.5
141
12.0
290
     0
  0
SCALE
  5
5B
102
{ACAD_REACTORS
330
3F
102
}
330
3F
100
AcDbScale
 70
     0
300
3/4" = 1'-0"
140
0.75
141
12.0
290
     0
  0
SCALE
  5
5C
102
{ACAD_REACTORS
330
3F
102
}
330
3F
100
AcDbScale
 70
     0
300
1" = 1'-0"
140
1.0
141
12.0
290
     0
  0
SCALE
  5
5D
102
{ACAD_REACTORS
330
3F
102
}
330
3F
100
AcDbScale
 70
     0
300
1-1/2" = 1'-0"
140
1.5
141
12.0
290
     0
  0
SCALE
  5
5E
102
{ACAD_REACTORS
330
3F
102
}
330
3F
100
AcDbScale
 70
     0
300
3" = 1'-0"
140
3.0
141
12.0
290
     0
  0
SCALE
  5
5F
102
{ACAD_REACTORS
330
3F
102
}
330
3F
100
AcDbScale
 70
     0
300
6" = 1'-0"
140
6.0
141
12.0
290
     0
  0
SCALE
  5
60
102
{ACAD_REACTORS
330
3F
102
}
330
3F
100
AcDbScale
 70
     0
300
1'-0" = 1'-0"
140
12.0
141
12.0
290
     0
  0
VISUALSTYLE
  5
2F
102
{ACAD_REACTORS
330
2A
102
}
102
{ACAD_XDICTIONARY
360
2D1
102
}
330
2A
100
AcDbVisualStyle
  2
2dWireframe
 70
     4
 71
     0
 72
     2
 73
     0
 90
        0
 40
0.6
 41
30.0
 62
     5
 63
     7
421
 16777215
 74
     1
 91
        4
 64
     7
 65
   257
 75
     1
175
     1
 42
1.0
 92
        0
 66
   257
 43
1.0
 76
     1
 77
     6
 78
     2
 67
     7
 79
     5
170
     0
171
     0
290
     0
174
     0
 93
        1
 44
0.0
173
     0
291
     0
 45
0.0
1001
ACAD
1000
AcDbSavedByObjectVersion
1070
     0
  0
VISUALSTYLE
  5
31
102
{ACAD_REACTORS
330
2A
102
}
102
{ACAD_XDICTIONARY
360
2D5
102
}
330
2A
100
AcDbVisualStyle
  2
3D Hidden
 70
     6
 71
     1
 72
     2
 73
     2
 90
        0
 40
0.6
 41
30.0
 62
     5
 63
     7
421
 16777215
 74
     2
 91
        2
 64
     7
 65
   257
 75
     2
175
     1
 42
40.0
 92
        0
 66
   257
 43
1.0
 76
     1
 77
     6
 78
     2
 67
     7
 79
     3
170
     0
171
     0
290
     0
174
     0
 93
        1
 44
0.0
173
     0
291
     0
 45
0.0
1001
ACAD
1000
AcDbSavedByObjectVersion
1070
     0
  0
VISUALSTYLE
  5
30
102
{ACAD_REACTORS
330
2A
102
}
102
{ACAD_XDICTIONARY
360
2D3
102
}
330
2A
100
AcDbVisualStyle
  2
3dWireframe
 70
     5
 71
     0
 72
     2
 73
     0
 90
        0
 40
0.6
 41
30.0
 62
     5
 63
     7
421
 16777215
 74
     1
 91
        4
 64
     7
 65
   257
 75
     1
175
     1
 42
1.0
 92
        0
 66
   257
 43
1.0
 76
     1
 77
     6
 78
     2
 67
     7
 79
     5
170
     0
171
     0
290
     0
174
     0
 93
        1
 44
0.0
173
     0
291
     0
 45
0.0
1001
ACAD
1000
AcDbSavedByObjectVersion
1070
     0
  0
VISUALSTYLE
  5
32
102
{ACAD_REACTORS
330
2A
102
}
102
{ACAD_XDICTIONARY
360
2D7
102
}
330
2A
100
AcDbVisualStyle
  2
Basic
 70
     7
 71
     1
 72
     0
 73
     1
 90
        0
 40
0.6
 41
30.0
 62
     5
 63
     7
421
 16777215
 74
     0
 91
        4
 64
     7
 65
   257
 75
     1
175
     1
 42
1.0
 92
        8
 66
     7
 43
1.0
 76
     1
 77
     6
 78
     2
 67
     7
 79
     5
170
     0
171
     0
290
     0
174
     0
 93
        1
 44
0.0
173
     0
291
     1
 45
0.0
1001
ACAD
1000
AcDbSavedByObjectVersion
1070
     0
  0
VISUALSTYLE
  5
36
102
{ACAD_REACTORS
330
2A
102
}
102
{ACAD_XDICTIONARY
360
2DF
102
}
330
2A
100
AcDbVisualStyle
  2
Brighten
 70
    12
 71
     2
 72
     2
 73
     0
 90
        0
 40
0.6
 41
30.0
 62
     5
 63
     7
421
 16777215
 74
     1
 91
        4
 64
     7
 65
   257
 75
     1
175
     1
 42
1.0
 92
        8
 66
     7
 43
1.0
 76
     1
 77
     6
 78
     2
 67
     7
 79
     5
170
     0
171
     0
290
     0
174
     0
 93
        1
 44
50.0
173
     0
291
     1
 45
0.0
1001
ACAD
1000
AcDbSavedByObjectVersion
1070
     0
  0
VISUALSTYLE
  5
3A
102
{ACAD_REACTORS
330
2A
102
}
102
{ACAD_XDICTIONARY
360
2E7
102
}
330
2A
100
AcDbVisualStyle
  2
ColorChange
 70
    16
 71
     2
 72
     2
 73
     3
 90
        0
 40
0.6
 41
30.0
 62
     5
 63
     8
421
  8421504
 74
     1
 91
        4
 64
     7
 65
   257
 75
     1
175
     1
 42
1.0
 92
        8
 66
     8
424
  8421504
 43
1.0
 76
     1
 77
     6
 78
     2
 67
     7
 79
     5
170
     0
171
     0
290
     0
174
     0
 93
        1
 44
0.0
173
     0
291
     1
 45
0.0
1001
ACAD
1000
AcDbSavedByObjectVersion
1070
     0
  0
VISUALSTYLE
  5
34
102
{ACAD_REACTORS
330
2A
102
}
102
{ACAD_XDICTIONARY
360
2DB
102
}
330
2A
100
AcDbVisualStyle
  2
Conceptual
 70
     9
 71
     3
 72
     2
 73
     0
 90
        0
 40
0.6
 41
30.0
 62
     5
 63
     7
421
 16777215
 74
     2
 91
        2
 64
     7
 65
   257
 75
     1
175
     1
 42
40.0
 92
        8
 66
     7
 43
1.0
 76
     1
 77
     6
 78
     2
 67
     7
 79
     3
170
     0
171
     0
290
     0
174
     0
 93
        1
 44
0.0
173
     0
291
     0
 45
0.0
1001
ACAD
1000
AcDbSavedByObjectVersion
1070
     0
  0
VISUALSTYLE
  5
35
102
{ACAD_REACTORS
330
2A
102
}
102
{ACAD_XDICTIONARY
360
2DD
102
}
330
2A
100
AcDbVisualStyle
  2
Dim
 70
    11
 71
     2
 72
     2
 73
     0
 90
        0
 40
0.6
 41
30.0
 62
     5
 63
     7
421
 16777215
 74
     1
 91
        4
 64
     7
 65
   257
 75
     1
175
     1
 42
1.0
 92
        8
 66
     7
 43
1.0
 76
     1
 77
     6
 78
     2
 67
     7
 79
     5
170
     0
171
     0
290
     0
174
     0
 93
        1
 44
-50.0
173
     0
291
     1
 45
0.0
1001
ACAD
1000
AcDbSavedByObjectVersion
1070
     0
  0
VISUALSTYLE
  5
39
102
{ACAD_REACTORS
330
2A
102
}
102
{ACAD_XDICTIONARY
360
2E5
102
}
330
2A
100
AcDbVisualStyle
  2
Facepattern
 70
    15
 71
     2
 72
     2
 73
     0
 90
        0
 40
0.6
 41
30.0
 62
     5
 63
     7
421
 16777215
 74
     1
 91
        4
 64
     7
 65
   257
 75
     1
175
     1
 42
1.0
 92
        8
 66
     7
 43
1.0
 76
     1
 77
     6
 78
     2
 67
     7
 79
     5
170
     0
171
     0
290
     0
174
     0
 93
        1
 44
0.0
173
     0
291
     1
 45
0.0
1001
ACAD
1000
AcDbSavedByObjectVersion
1070
     0
  0
VISUALSTYLE
  5
2B
102
{ACAD_REACTORS
330
2A
102
}
102
{ACAD_XDICTIONARY
360
2C9
102
}
330
2A
100
AcDbVisualStyle
  2
Flat
 70
     0
 71
     2
 72
     1
 73
     1
 90
        2
 40
0.6
 41
30.0
 62
     5
 63
     7
421
 16777215
 74
     0
 91
        4
 64
     7
 65
   257
 75
     1
175
     1
 42
1.0
 92
        8
 66
     7
 43
1.0
 76
     1
 77
     6
 78
     2
 67
     7
 79
     5
170
     0
171
     0
290
     0
174
     0
 93
       13
 44
0.0
173
     0
291
     1
 45
0.0
1001
ACAD
1000
AcDbSavedByObjectVersion
1070
     0
  0
VISUALSTYLE
  5
2C
102
{ACAD_REACTORS
330
2A
102
}
102
{ACAD_XDICTIONARY
360
2CB
102
}
330
2A
100
AcDbVisualStyle
  2
FlatWithEdges
 70
     1
 71
     2
 72
     1
 73
     1
 90
        2
 40
0.6
 41
30.0
 62
     5
 63
     7
421
 16777215
 74
     1
 91
        4
 64
     7
 65
   257
 75
     1
175
     1
 42
1.0
 92
        0
 66
   257
 43
1.0
 76
     1
 77
     6
 78
     2
 67
     7
 79
     5
170
     0
171
     0
290
     0
174
     0
 93
       13
 44
0.0
173
     0
291
     1
 45
0.0
1001
ACAD
1000
AcDbSavedByObjectVersion
1070
     0
  0
VISUALSTYLE
  5
2D
102
{ACAD_REACTORS
330
2A
102
}
102
{ACAD_XDICTIONARY
360
2CD
102
}
330
2A
100
AcDbVisualStyle
  2
Gouraud
 70
     2
 71
     2
 72
     2
 73
     1
 90
        2
 40
0.6
 41
30.0
 62
     5
 63
     7
421
 16777215
 74
     0
 91
        4
 64
     7
 65
   257
 75
     1
175
     1
 42
1.0
 92
        0
 66
     7
 43
1.0
 76
     1
 77
     6
 78
     2
 67
     7
 79
     5
170
     0
171
     0
290
     0
174
     0
 93
       13
 44
0.0
173
     0
291
     1
 45
0.0
1001
ACAD
1000
AcDbSavedByObjectVersion
1070
     0
  0
VISUALSTYLE
  5
2E
102
{ACAD_REACTORS
330
2A
102
}
102
{ACAD_XDICTIONARY
360
2CF
102
}
330
2A
100
AcDbVisualStyle
  2
GouraudWithEdges
 70
     3
 71
     2
 72
     2
 73
     1
 90
        2
 40
0.6
 41
30.0
 62
     5
 63
     7
421
 16777215
 74
     1
 91
        4
 64
     7
 65
   257
 75
     1
175
     1
 42
1.0
 92
        0
 66
   257
 43
1.0
 76
     1
 77
     6
 78
     2
 67
     7
 79
     5
170
     0
171
     0
290
     0
174
     0
 93
       13
 44
0.0
173
     0
291
     1
 45
0.0
1001
ACAD
1000
AcDbSavedByObjectVersion
1070
     0
  0
VISUALSTYLE
  5
38
102
{ACAD_REACTORS
330
2A
102
}
102
{ACAD_XDICTIONARY
360
2E3
102
}
330
2A
100
AcDbVisualStyle
  2
Linepattern
 70
    14
 71
     2
 72
     2
 73
     0
 90
        0
 40
0.6
 41
30.0
 62
     5
 63
     7
421
 16777215
 74
     1
 91
        4
 64
     7
 65
   257
 75
     7
175
     7
 42
1.0
 92
        8
 66
     7
 43
1.0
 76
     1
 77
     6
 78
     2
 67
     7
 79
     5
170
     0
171
     0
290
     0
174
     0
 93
        1
 44
0.0
173
     0
291
     1
 45
0.0
1001
ACAD
1000
AcDbSavedByObjectVersion
1070
     0
  0
VISUALSTYLE
  5
33
102
{ACAD_REACTORS
330
2A
102
}
102
{ACAD_XDICTIONARY
360
2D9
102
}
330
2A
100
AcDbVisualStyle
  2
Realistic
 70
     8
 71
     2
 72
     3
 73
     0
 90
        2
 40
0.6
 41
30.0
 62
     5
 63
     7
421
 16777215
 74
     0
 91
        0
 64
     7
 65
   257
 75
     1
175
     1
 42
1.0
 92
        8
 66
   257
 43
1.0
 76
     1
 77
     6
 78
     2
 67
     7
 79
     3
170
     0
171
     0
290
     0
174
     0
 93
       13
 44
0.0
173
     0
291
     0
 45
0.0
1001
ACAD
1000
AcDbSavedByObjectVersion
1070
     0
  0
VISUALSTYLE
  5
37
102
{ACAD_REACTORS
330
2A
102
}
102
{ACAD_XDICTIONARY
360
2E1
102
}
330
2A
100
AcDbVisualStyle
  2
Thicken
 70
    13
 71
     2
 72
     2
 73
     0
 90
        0
 40
0.6
 41
30.0
 62
     5
 63
     7
421
 16777215
 74
     1
 91
        4
 64
     7
 65
   257
 75
     1
175
     1
 42
1.0
 92
       12
 66
     7
 43
1.0
 76
     1
 77
     6
 78
     2
 67
     7
 79
     5
170
     0
171
     0
290
     0
174
     0
 93
        1
 44
0.0
173
     0
291
     1
 45
0.0
1001
ACAD
1000
AcDbSavedByObjectVersion
1070
     0
  0
DICTIONARYVAR
  5
2C7
102
{ACAD_REACTORS
330
2C6
102
}
330
2C6
100
DictionaryVariables
280
     0
  1
1:1
  0
DICTIONARYVAR
  5
2C8
102
{ACAD_REACTORS
330
2C6
102
}
330
2C6
100
DictionaryVariables
280
     0
  1
1
  0
DICTIONARY
  5
2EB
330
3D
100
AcDbDictionary
280
     1
281
     1
  3
ACAD_XREC_ROUNDTRIP
360
2EC
  0
DICTIONARY
  5
2E9
330
3C
100
AcDbDictionary
280
     1
281
     1
  3
ACAD_XREC_ROUNDTRIP
360
2EA
  0
DICTIONARY
  5
2ED
330
3E
100
AcDbDictionary
280
     1
281
     1
  3
ACAD_XREC_ROUNDTRIP
360
2EE
  0
DICTIONARY
  5
2D1
330
2F
100
AcDbDictionary
280
     1
281
     1
  3
ACAD_XREC_ROUNDTRIP
360
2D2
  0
DICTIONARY
  5
2D5
330
31
100
AcDbDictionary
280
     1
281
     1
  3
ACAD_XREC_ROUNDTRIP
360
2D6
  0
DICTIONARY
  5
2D3
330
30
100
AcDbDictionary
280
     1
281
     1
  3
ACAD_XREC_ROUNDTRIP
360
2D4
  0
DICTIONARY
  5
2D7
330
32
100
AcDbDictionary
280
     1
281
     1
  3
ACAD_XREC_ROUNDTRIP
360
2D8
  0
DICTIONARY
  5
2DF
330
36
100
AcDbDictionary
280
     1
281
     1
  3
ACAD_XREC_ROUNDTRIP
360
2E0
  0
DICTIONARY
  5
2E7
330
3A
100
AcDbDictionary
280
     1
281
     1
  3
ACAD_XREC_ROUNDTRIP
360
2E8
  0
DICTIONARY
  5
2DB
330
34
100
AcDbDictionary
280
     1
281
     1
  3
ACAD_XREC_ROUNDTRIP
360
2DC
  0
DICTIONARY
  5
2DD
330
35
100
AcDbDictionary
280
     1
281
     1
  3
ACAD_XREC_ROUNDTRIP
360
2DE
  0
DICTIONARY
  5
2E5
330
39
100
AcDbDictionary
280
     1
281
     1
  3
ACAD_XREC_ROUNDTRIP
360
2E6
  0
DICTIONARY
  5
2C9
330
2B
100
AcDbDictionary
280
     1
281
     1
  3
ACAD_XREC_ROUNDTRIP
360
2CA
  0
DICTIONARY
  5
2CB
330
2C
100
AcDbDictionary
280
     1
281
     1
  3
ACAD_XREC_ROUNDTRIP
360
2CC
  0
DICTIONARY
  5
2CD
330
2D
100
AcDbDictionary
280
     1
281
     1
  3
ACAD_XREC_ROUNDTRIP
360
2CE
  0
DICTIONARY
  5
2CF
330
2E
100
AcDbDictionary
280
     1
281
     1
  3
ACAD_XREC_ROUNDTRIP
360
2D0
  0
DICTIONARY
  5
2E3
330
38
100
AcDbDictionary
280
     1
281
     1
  3
ACAD_XREC_ROUNDTRIP
360
2E4
  0
DICTIONARY
  5
2D9
330
33
100
AcDbDictionary
280
     1
281
     1
  3
ACAD_XREC_ROUNDTRIP
360
2DA
  0
DICTIONARY
  5
2E1
330
37
100
AcDbDictionary
280
     1
281
     1
  3
ACAD_XREC_ROUNDTRIP
360
2E2
  0
XRECORD
  5
2EC
102
{ACAD_REACTORS
330
2EB
102
}
330
2EB
100
AcDbXrecord
280
     1
102
MATERIAL
148
0.0
149
0.0
149
0.0
 93
        0
 94
      127
282
     0
 72
     1
 77
     1
171
     1
175
     1
179
     1
273
     0
  0
XRECORD
  5
2EA
102
{ACAD_REACTORS
330
2E9
102
}
330
2E9
100
AcDbXrecord
280
     1
102
MATERIAL
148
0.0
149
0.0
149
0.0
 93
        0
 94
      127
282
     0
 72
     1
 77
     1
171
     1
175
     1
179
     1
273
     0
  0
XRECORD
  5
2EE
102
{ACAD_REACTORS
330
2ED
102
}
330
2ED
100
AcDbXrecord
280
     1
102
MATERIAL
148
0.0
149
0.0
149
0.0
 93
        0
 94
      127
282
     0
 72
     1
 77
     1
171
     1
175
     1
179
     1
273
     0
  0
XRECORD
  5
2D2
102
{ACAD_REACTORS
330
2D1
102
}
330
2D1
100
AcDbXrecord
280
     1
102
RTVSPropertyOp0
 70
     1
102
RTVSPropertyOp1
 70
     1
102
RTVSPropertyOp2
 70
     1
102
RTVSPropertyOp3
 70
     1
102
RTVSPropertyOp4
 70
     1
102
RTVSPropertyOp5
 70
     1
102
RTVSPropertyOp6
 70
     1
102
RTVSPropertyOp7
 70
     1
102
RTVSPropertyOp8
 70
     1
102
RTVSPropertyOp9
 70
     1
102
RTVSPropertyOp10
 70
     1
102
RTVSPropertyOp11
 70
     1
102
RTVSPropertyOp12
 70
     1
102
RTVSPropertyOp13
 70
     1
102
RTVSPropertyOp14
 70
     1
102
RTVSPropertyOp15
 70
     1
102
RTVSPropertyOp16
 70
     1
102
RTVSPropertyOp17
 70
     1
102
RTVSPropertyOp18
 70
     1
102
RTVSPropertyOp19
 70
     1
102
RTVSPropertyOp20
 70
     1
102
RTVSPropertyOp21
 70
     1
102
RTVSPropertyOp22
 70
     1
102
RTVSPropertyOp23
 70
     1
102
RTVSPropertyOp24
 70
     1
102
RTVSPropertyOp25
 70
     1
102
RTVSPropertyOp26
 70
     1
102
RTVSPropertyOp27
 70
     1
102
RTVSPropertyOp28
 70
     1
102
RTVSPropertyOp29
 70
     1
102
RTVSPropertyOp30
 70
     1
102
RTVSPropertyOp31
 70
     1
102
RTVSPropertyOp32
 70
     1
102
RTVSPropertyOp33
 70
     1
102
RTVSPropertyOp34
 70
     1
102
RTVSPropertyOp35
 70
     1
102
RTVSPropertyOp36
 70
     1
102
RTVSPropertyOp37
 70
     1
102
RTVSPropertyOp38
 70
     1
102
RTVSPropertyOp39
 70
     1
102
RTVSPropertyOp40
 70
     1
102
RTVSPropertyOp41
 70
     1
102
RTVSPropertyOp42
 70
     1
102
RTVSPropertyOp43
 70
     1
102
RTVSPropertyOp44
 70
     1
102
RTVSPropertyOp45
 70
     1
102
RTVSPropertyOp46
 70
     1
102
RTVSPropertyOp47
 70
     1
102
RTVSPropertyOp48
 70
     1
102
RTVSPropertyOp49
 70
     1
102
RTVSPropertyOp50
 70
     1
102
RTVSPropertyOp51
 70
     0
102
RTVSPropertyOp52
 70
     0
102
RTVSPropertyOp53
 70
     1
102
RTVSPropertyOp54
 70
     1
102
RTVSPropertyOp55
 70
     1
102
RTVSPropertyOp56
 70
     1
102
RTVSPropertyOp57
 70
     1
102
RTVSPost2010Prop28
280
     1
102
RTVSPost2010PropOp28
 70
     1
102
RTVSPost2010Prop29
280
     1
102
RTVSPost2010PropOp29
 70
     1
102
RTVSPost2010Prop30
280
     0
102
RTVSPost2010PropOp30
 70
     1
102
RTVSPost2010Prop31
280
     0
102
RTVSPost2010PropOp31
 70
     1
102
RTVSPost2010Prop32
280
     0
102
RTVSPost2010PropOp32
 70
     1
102
RTVSPost2010Prop33
280
     0
102
RTVSPost2010PropOp33
 70
     1
102
RTVSPost2010Prop34
280
     0
102
RTVSPost2010PropOp34
 70
     1
102
RTVSPost2010Prop35
280
     0
102
RTVSPost2010PropOp35
 70
     1
102
RTVSPost2010Prop36
280
     0
102
RTVSPost2010PropOp36
 70
     1
102
RTVSPost2010Prop37
 90
       50
102
RTVSPost2010PropOp37
 70
     1
102
RTVSPost2010Prop38
140
0.0
102
RTVSPost2010PropOp38
 70
     1
102
RTVSPost2010Prop39
140
1.0
102
RTVSPost2010PropOp39
 70
     1
102
RTVSPost2010Prop40
 90
        0
102
RTVSPost2010PropOp40
 70
     1
102
RTVSPost2010Prop41ColorIndex
 90
       18
102
RTVSPost2010Prop41ColorRGB
 90
        0
102
RTVSPost2010PropOp41
 70
     1
102
RTVSPost2010Prop42
 90
       50
102
RTVSPost2010PropOp42
 70
     1
102
RTVSPost2010Prop43
 90
        3
102
RTVSPost2010PropOp43
 70
     1
102
RTVSPost2010Prop44ColorIndex
 90
        5
102
RTVSPost2010Prop44ColorRGB
 90
      255
102
RTVSPost2010PropOp44
 70
     1
102
RTVSPost2010Prop45
280
     0
102
RTVSPost2010PropOp45
 70
     1
102
RTVSPost2010Prop46
 90
       50
102
RTVSPost2010PropOp46
 70
     1
102
RTVSPost2010Prop47
 90
       50
102
RTVSPost2010PropOp47
 70
     1
102
RTVSPost2010Prop48
 90
       50
102
RTVSPost2010PropOp48
 70
     1
102
RTVSPost2010Prop49
280
     0
102
RTVSPost2010PropOp49
 70
     1
102
RTVSPost2010Prop50
 90
       50
102
RTVSPost2010PropOp50
 70
     1
102
RTVSPost2010Prop51ColorIndex
 90
      256
102
RTVSPost2010Prop51ColorRGB
 90
-16777216
102
RTVSPost2010PropOp51
 70
     0
102
RTVSPost2010Prop52
140
1.0
102
RTVSPost2010PropOp52
 70
     0
102
RTVSPost2010Prop53
 90
        2
102
RTVSPost2010PropOp53
 70
     1
102
RTVSPost2010Prop54
  1
strokes_ogs.tif
102
RTVSPost2010PropOp54
 70
     1
102
RTVSPost2010Prop55
280
     0
102
RTVSPost2010PropOp55
 70
     1
102
RTVSPost2010Prop56
140
1.0
102
RTVSPost2010PropOp56
 70
     1
102
RTVSPost2010Prop57
140
1.0
102
RTVSPost2010PropOp57
 70
     1
  0
XRECORD
  5
2D6
102
{ACAD_REACTORS
330
2D5
102
}
330
2D5
100
AcDbXrecord
280
     1
102
RTVSPropertyOp0
 70
     1
102
RTVSPropertyOp1
 70
     1
102
RTVSPropertyOp2
 70
     1
102
RTVSPropertyOp3
 70
     1
102
RTVSPropertyOp4
 70
     1
102
RTVSPropertyOp5
 70
     1
102
RTVSPropertyOp6
 70
     1
102
RTVSPropertyOp7
 70
     1
102
RTVSPropertyOp8
 70
     1
102
RTVSPropertyOp9
 70
     1
102
RTVSPropertyOp10
 70
     1
102
RTVSPropertyOp11
 70
     1
102
RTVSPropertyOp12
 70
     1
102
RTVSPropertyOp13
 70
     1
102
RTVSPropertyOp14
 70
     1
102
RTVSPropertyOp15
 70
     1
102
RTVSPropertyOp16
 70
     1
102
RTVSPropertyOp17
 70
     1
102
RTVSPropertyOp18
 70
     1
102
RTVSPropertyOp19
 70
     1
102
RTVSPropertyOp20
 70
     1
102
RTVSPropertyOp21
 70
     1
102
RTVSPropertyOp22
 70
     1
102
RTVSPropertyOp23
 70
     1
102
RTVSPropertyOp24
 70
     1
102
RTVSPropertyOp25
 70
     1
102
RTVSPropertyOp26
 70
     1
102
RTVSPropertyOp27
 70
     1
102
RTVSPropertyOp28
 70
     1
102
RTVSPropertyOp29
 70
     1
102
RTVSPropertyOp30
 70
     1
102
RTVSPropertyOp31
 70
     1
102
RTVSPropertyOp32
 70
     1
102
RTVSPropertyOp33
 70
     1
102
RTVSPropertyOp34
 70
     1
102
RTVSPropertyOp35
 70
     1
102
RTVSPropertyOp36
 70
     1
102
RTVSPropertyOp37
 70
     1
102
RTVSPropertyOp38
 70
     1
102
RTVSPropertyOp39
 70
     1
102
RTVSPropertyOp40
 70
     1
102
RTVSPropertyOp41
 70
     1
102
RTVSPropertyOp42
 70
     1
102
RTVSPropertyOp43
 70
     1
102
RTVSPropertyOp44
 70
     1
102
RTVSPropertyOp45
 70
     1
102
RTVSPropertyOp46
 70
     1
102
RTVSPropertyOp47
 70
     1
102
RTVSPropertyOp48
 70
     1
102
RTVSPropertyOp49
 70
     1
102
RTVSPropertyOp50
 70
     1
102
RTVSPropertyOp51
 70
     0
102
RTVSPropertyOp52
 70
     0
102
RTVSPropertyOp53
 70
     1
102
RTVSPropertyOp54
 70
     1
102
RTVSPropertyOp55
 70
     1
102
RTVSPropertyOp56
 70
     1
102
RTVSPropertyOp57
 70
     1
102
RTVSPost2010Prop28
280
     0
102
RTVSPost2010PropOp28
 70
     1
102
RTVSPost2010Prop29
280
     1
102
RTVSPost2010PropOp29
 70
     1
102
RTVSPost2010Prop30
280
     1
102
RTVSPost2010PropOp30
 70
     1
102
RTVSPost2010Prop31
280
     0
102
RTVSPost2010PropOp31
 70
     1
102
RTVSPost2010Prop32
280
     0
102
RTVSPost2010PropOp32
 70
     1
102
RTVSPost2010Prop33
280
     0
102
RTVSPost2010PropOp33
 70
     1
102
RTVSPost2010Prop34
280
     0
102
RTVSPost2010PropOp34
 70
     1
102
RTVSPost2010Prop35
280
     0
102
RTVSPost2010PropOp35
 70
     1
102
RTVSPost2010Prop36
280
     0
102
RTVSPost2010PropOp36
 70
     1
102
RTVSPost2010Prop37
 90
       50
102
RTVSPost2010PropOp37
 70
     1
102
RTVSPost2010Prop38
140
0.0
102
RTVSPost2010PropOp38
 70
     1
102
RTVSPost2010Prop39
140
1.0
102
RTVSPost2010PropOp39
 70
     1
102
RTVSPost2010Prop40
 90
        0
102
RTVSPost2010PropOp40
 70
     1
102
RTVSPost2010Prop41ColorIndex
 90
       18
102
RTVSPost2010Prop41ColorRGB
 90
        0
102
RTVSPost2010PropOp41
 70
     1
102
RTVSPost2010Prop42
 90
       50
102
RTVSPost2010PropOp42
 70
     1
102
RTVSPost2010Prop43
 90
        3
102
RTVSPost2010PropOp43
 70
     1
102
RTVSPost2010Prop44ColorIndex
 90
        5
102
RTVSPost2010Prop44ColorRGB
 90
      255
102
RTVSPost2010PropOp44
 70
     1
102
RTVSPost2010Prop45
280
     0
102
RTVSPost2010PropOp45
 70
     1
102
RTVSPost2010Prop46
 90
       50
102
RTVSPost2010PropOp46
 70
     1
102
RTVSPost2010Prop47
 90
       50
102
RTVSPost2010PropOp47
 70
     1
102
RTVSPost2010Prop48
 90
       50
102
RTVSPost2010PropOp48
 70
     1
102
RTVSPost2010Prop49
280
     0
102
RTVSPost2010PropOp49
 70
     1
102
RTVSPost2010Prop50
 90
       50
102
RTVSPost2010PropOp50
 70
     1
102
RTVSPost2010Prop51ColorIndex
 90
      256
102
RTVSPost2010Prop51ColorRGB
 90
-16777216
102
RTVSPost2010PropOp51
 70
     0
102
RTVSPost2010Prop52
140
1.0
102
RTVSPost2010PropOp52
 70
     0
102
RTVSPost2010Prop53
 90
        2
102
RTVSPost2010PropOp53
 70
     1
102
RTVSPost2010Prop54
  1
strokes_ogs.tif
102
RTVSPost2010PropOp54
 70
     1
102
RTVSPost2010Prop55
280
     0
102
RTVSPost2010PropOp55
 70
     1
102
RTVSPost2010Prop56
140
1.0
102
RTVSPost2010PropOp56
 70
     1
102
RTVSPost2010Prop57
140
1.0
102
RTVSPost2010PropOp57
 70
     1
  0
XRECORD
  5
2D4
102
{ACAD_REACTORS
330
2D3
102
}
330
2D3
100
AcDbXrecord
280
     1
102
RTVSPropertyOp0
 70
     1
102
RTVSPropertyOp1
 70
     1
102
RTVSPropertyOp2
 70
     1
102
RTVSPropertyOp3
 70
     1
102
RTVSPropertyOp4
 70
     1
102
RTVSPropertyOp5
 70
     1
102
RTVSPropertyOp6
 70
     1
102
RTVSPropertyOp7
 70
     1
102
RTVSPropertyOp8
 70
     1
102
RTVSPropertyOp9
 70
     1
102
RTVSPropertyOp10
 70
     1
102
RTVSPropertyOp11
 70
     1
102
RTVSPropertyOp12
 70
     1
102
RTVSPropertyOp13
 70
     1
102
RTVSPropertyOp14
 70
     1
102
RTVSPropertyOp15
 70
     1
102
RTVSPropertyOp16
 70
     1
102
RTVSPropertyOp17
 70
     1
102
RTVSPropertyOp18
 70
     1
102
RTVSPropertyOp19
 70
     1
102
RTVSPropertyOp20
 70
     1
102
RTVSPropertyOp21
 70
     1
102
RTVSPropertyOp22
 70
     1
102
RTVSPropertyOp23
 70
     1
102
RTVSPropertyOp24
 70
     1
102
RTVSPropertyOp25
 70
     1
102
RTVSPropertyOp26
 70
     1
102
RTVSPropertyOp27
 70
     1
102
RTVSPropertyOp28
 70
     1
102
RTVSPropertyOp29
 70
     1
102
RTVSPropertyOp30
 70
     1
102
RTVSPropertyOp31
 70
     1
102
RTVSPropertyOp32
 70
     1
102
RTVSPropertyOp33
 70
     1
102
RTVSPropertyOp34
 70
     1
102
RTVSPropertyOp35
 70
     1
102
RTVSPropertyOp36
 70
     1
102
RTVSPropertyOp37
 70
     1
102
RTVSPropertyOp38
 70
     1
102
RTVSPropertyOp39
 70
     1
102
RTVSPropertyOp40
 70
     1
102
RTVSPropertyOp41
 70
     1
102
RTVSPropertyOp42
 70
     1
102
RTVSPropertyOp43
 70
     1
102
RTVSPropertyOp44
 70
     1
102
RTVSPropertyOp45
 70
     1
102
RTVSPropertyOp46
 70
     1
102
RTVSPropertyOp47
 70
     1
102
RTVSPropertyOp48
 70
     1
102
RTVSPropertyOp49
 70
     1
102
RTVSPropertyOp50
 70
     1
102
RTVSPropertyOp51
 70
     0
102
RTVSPropertyOp52
 70
     0
102
RTVSPropertyOp53
 70
     1
102
RTVSPropertyOp54
 70
     1
102
RTVSPropertyOp55
 70
     1
102
RTVSPropertyOp56
 70
     1
102
RTVSPropertyOp57
 70
     1
102
RTVSPost2010Prop28
280
     0
102
RTVSPost2010PropOp28
 70
     1
102
RTVSPost2010Prop29
280
     1
102
RTVSPost2010PropOp29
 70
     1
102
RTVSPost2010Prop30
280
     1
102
RTVSPost2010PropOp30
 70
     1
102
RTVSPost2010Prop31
280
     0
102
RTVSPost2010PropOp31
 70
     1
102
RTVSPost2010Prop32
280
     0
102
RTVSPost2010PropOp32
 70
     1
102
RTVSPost2010Prop33
280
     0
102
RTVSPost2010PropOp33
 70
     1
102
RTVSPost2010Prop34
280
     0
102
RTVSPost2010PropOp34
 70
     1
102
RTVSPost2010Prop35
280
     0
102
RTVSPost2010PropOp35
 70
     1
102
RTVSPost2010Prop36
280
     0
102
RTVSPost2010PropOp36
 70
     1
102
RTVSPost2010Prop37
 90
       50
102
RTVSPost2010PropOp37
 70
     1
102
RTVSPost2010Prop38
140
0.0
102
RTVSPost2010PropOp38
 70
     1
102
RTVSPost2010Prop39
140
1.0
102
RTVSPost2010PropOp39
 70
     1
102
RTVSPost2010Prop40
 90
        0
102
RTVSPost2010PropOp40
 70
     1
102
RTVSPost2010Prop41ColorIndex
 90
       18
102
RTVSPost2010Prop41ColorRGB
 90
        0
102
RTVSPost2010PropOp41
 70
     1
102
RTVSPost2010Prop42
 90
       50
102
RTVSPost2010PropOp42
 70
     1
102
RTVSPost2010Prop43
 90
        3
102
RTVSPost2010PropOp43
 70
     1
102
RTVSPost2010Prop44ColorIndex
 90
        5
102
RTVSPost2010Prop44ColorRGB
 90
      255
102
RTVSPost2010PropOp44
 70
     1
102
RTVSPost2010Prop45
280
     0
102
RTVSPost2010PropOp45
 70
     1
102
RTVSPost2010Prop46
 90
       50
102
RTVSPost2010PropOp46
 70
     1
102
RTVSPost2010Prop47
 90
       50
102
RTVSPost2010PropOp47
 70
     1
102
RTVSPost2010Prop48
 90
       50
102
RTVSPost2010PropOp48
 70
     1
102
RTVSPost2010Prop49
280
     0
102
RTVSPost2010PropOp49
 70
     1
102
RTVSPost2010Prop50
 90
       50
102
RTVSPost2010PropOp50
 70
     1
102
RTVSPost2010Prop51ColorIndex
 90
      256
102
RTVSPost2010Prop51ColorRGB
 90
-16777216
102
RTVSPost2010PropOp51
 70
     0
102
RTVSPost2010Prop52
140
1.0
102
RTVSPost2010PropOp52
 70
     0
102
RTVSPost2010Prop53
 90
        2
102
RTVSPost2010PropOp53
 70
     1
102
RTVSPost2010Prop54
  1
strokes_ogs.tif
102
RTVSPost2010PropOp54
 70
     1
102
RTVSPost2010Prop55
280
     0
102
RTVSPost2010PropOp55
 70
     1
102
RTVSPost2010Prop56
140
1.0
102
RTVSPost2010PropOp56
 70
     1
102
RTVSPost2010Prop57
140
1.0
102
RTVSPost2010PropOp57
 70
     1
  0
XRECORD
  5
2D8
102
{ACAD_REACTORS
330
2D7
102
}
330
2D7
100
AcDbXrecord
280
     1
102
RTVSPropertyOp0
 70
     1
102
RTVSPropertyOp1
 70
     1
102
RTVSPropertyOp2
 70
     1
102
RTVSPropertyOp3
 70
     1
102
RTVSPropertyOp4
 70
     1
102
RTVSPropertyOp5
 70
     1
102
RTVSPropertyOp6
 70
     1
102
RTVSPropertyOp7
 70
     1
102
RTVSPropertyOp8
 70
     1
102
RTVSPropertyOp9
 70
     1
102
RTVSPropertyOp10
 70
     1
102
RTVSPropertyOp11
 70
     1
102
RTVSPropertyOp12
 70
     1
102
RTVSPropertyOp13
 70
     1
102
RTVSPropertyOp14
 70
     1
102
RTVSPropertyOp15
 70
     1
102
RTVSPropertyOp16
 70
     1
102
RTVSPropertyOp17
 70
     1
102
RTVSPropertyOp18
 70
     1
102
RTVSPropertyOp19
 70
     1
102
RTVSPropertyOp20
 70
     1
102
RTVSPropertyOp21
 70
     1
102
RTVSPropertyOp22
 70
     1
102
RTVSPropertyOp23
 70
     1
102
RTVSPropertyOp24
 70
     1
102
RTVSPropertyOp25
 70
     1
102
RTVSPropertyOp26
 70
     1
102
RTVSPropertyOp27
 70
     1
102
RTVSPropertyOp28
 70
     1
102
RTVSPropertyOp29
 70
     1
102
RTVSPropertyOp30
 70
     1
102
RTVSPropertyOp31
 70
     1
102
RTVSPropertyOp32
 70
     1
102
RTVSPropertyOp33
 70
     1
102
RTVSPropertyOp34
 70
     1
102
RTVSPropertyOp35
 70
     1
102
RTVSPropertyOp36
 70
     1
102
RTVSPropertyOp37
 70
     1
102
RTVSPropertyOp38
 70
     1
102
RTVSPropertyOp39
 70
     1
102
RTVSPropertyOp40
 70
     1
102
RTVSPropertyOp41
 70
     1
102
RTVSPropertyOp42
 70
     1
102
RTVSPropertyOp43
 70
     1
102
RTVSPropertyOp44
 70
     1
102
RTVSPropertyOp45
 70
     1
102
RTVSPropertyOp46
 70
     1
102
RTVSPropertyOp47
 70
     1
102
RTVSPropertyOp48
 70
     1
102
RTVSPropertyOp49
 70
     1
102
RTVSPropertyOp50
 70
     1
102
RTVSPropertyOp51
 70
     0
102
RTVSPropertyOp52
 70
     0
102
RTVSPropertyOp53
 70
     1
102
RTVSPropertyOp54
 70
     1
102
RTVSPropertyOp55
 70
     1
102
RTVSPropertyOp56
 70
     1
102
RTVSPropertyOp57
 70
     1
102
RTVSPost2010Prop28
280
     0
102
RTVSPost2010PropOp28
 70
     1
102
RTVSPost2010Prop29
280
     1
102
RTVSPost2010PropOp29
 70
     1
102
RTVSPost2010Prop30
280
     1
102
RTVSPost2010PropOp30
 70
     1
102
RTVSPost2010Prop31
280
     0
102
RTVSPost2010PropOp31
 70
     1
102
RTVSPost2010Prop32
280
     0
102
RTVSPost2010PropOp32
 70
     1
102
RTVSPost2010Prop33
280
     0
102
RTVSPost2010PropOp33
 70
     1
102
RTVSPost2010Prop34
280
     0
102
RTVSPost2010PropOp34
 70
     1
102
RTVSPost2010Prop35
280
     0
102
RTVSPost2010PropOp35
 70
     1
102
RTVSPost2010Prop36
280
     0
102
RTVSPost2010PropOp36
 70
     1
102
RTVSPost2010Prop37
 90
       50
102
RTVSPost2010PropOp37
 70
     1
102
RTVSPost2010Prop38
140
0.0
102
RTVSPost2010PropOp38
 70
     1
102
RTVSPost2010Prop39
140
1.0
102
RTVSPost2010PropOp39
 70
     1
102
RTVSPost2010Prop40
 90
        0
102
RTVSPost2010PropOp40
 70
     1
102
RTVSPost2010Prop41ColorIndex
 90
       18
102
RTVSPost2010Prop41ColorRGB
 90
        0
102
RTVSPost2010PropOp41
 70
     1
102
RTVSPost2010Prop42
 90
       50
102
RTVSPost2010PropOp42
 70
     1
102
RTVSPost2010Prop43
 90
        3
102
RTVSPost2010PropOp43
 70
     1
102
RTVSPost2010Prop44ColorIndex
 90
        5
102
RTVSPost2010Prop44ColorRGB
 90
      255
102
RTVSPost2010PropOp44
 70
     1
102
RTVSPost2010Prop45
280
     0
102
RTVSPost2010PropOp45
 70
     1
102
RTVSPost2010Prop46
 90
       50
102
RTVSPost2010PropOp46
 70
     1
102
RTVSPost2010Prop47
 90
       50
102
RTVSPost2010PropOp47
 70
     1
102
RTVSPost2010Prop48
 90
       50
102
RTVSPost2010PropOp48
 70
     1
102
RTVSPost2010Prop49
280
     0
102
RTVSPost2010PropOp49
 70
     1
102
RTVSPost2010Prop50
 90
       50
102
RTVSPost2010PropOp50
 70
     1
102
RTVSPost2010Prop51ColorIndex
 90
      256
102
RTVSPost2010Prop51ColorRGB
 90
-16777216
102
RTVSPost2010PropOp51
 70
     0
102
RTVSPost2010Prop52
140
1.0
102
RTVSPost2010PropOp52
 70
     0
102
RTVSPost2010Prop53
 90
        2
102
RTVSPost2010PropOp53
 70
     1
102
RTVSPost2010Prop54
  1
strokes_ogs.tif
102
RTVSPost2010PropOp54
 70
     1
102
RTVSPost2010Prop55
280
     0
102
RTVSPost2010PropOp55
 70
     1
102
RTVSPost2010Prop56
140
1.0
102
RTVSPost2010PropOp56
 70
     1
102
RTVSPost2010Prop57
140
1.0
102
RTVSPost2010PropOp57
 70
     1
  0
XRECORD
  5
2E0
102
{ACAD_REACTORS
330
2DF
102
}
330
2DF
100
AcDbXrecord
280
     1
102
RTVSPropertyOp0
 70
     1
102
RTVSPropertyOp1
 70
     1
102
RTVSPropertyOp2
 70
     1
102
RTVSPropertyOp3
 70
     1
102
RTVSPropertyOp4
 70
     1
102
RTVSPropertyOp5
 70
     1
102
RTVSPropertyOp6
 70
     1
102
RTVSPropertyOp7
 70
     1
102
RTVSPropertyOp8
 70
     1
102
RTVSPropertyOp9
 70
     1
102
RTVSPropertyOp10
 70
     1
102
RTVSPropertyOp11
 70
     1
102
RTVSPropertyOp12
 70
     1
102
RTVSPropertyOp13
 70
     1
102
RTVSPropertyOp14
 70
     1
102
RTVSPropertyOp15
 70
     1
102
RTVSPropertyOp16
 70
     1
102
RTVSPropertyOp17
 70
     1
102
RTVSPropertyOp18
 70
     1
102
RTVSPropertyOp19
 70
     1
102
RTVSPropertyOp20
 70
     1
102
RTVSPropertyOp21
 70
     1
102
RTVSPropertyOp22
 70
     1
102
RTVSPropertyOp23
 70
     1
102
RTVSPropertyOp24
 70
     1
102
RTVSPropertyOp25
 70
     1
102
RTVSPropertyOp26
 70
     1
102
RTVSPropertyOp27
 70
     1
102
RTVSPropertyOp28
 70
     1
102
RTVSPropertyOp29
 70
     1
102
RTVSPropertyOp30
 70
     1
102
RTVSPropertyOp31
 70
     1
102
RTVSPropertyOp32
 70
     1
102
RTVSPropertyOp33
 70
     1
102
RTVSPropertyOp34
 70
     1
102
RTVSPropertyOp35
 70
     1
102
RTVSPropertyOp36
 70
     1
102
RTVSPropertyOp37
 70
     1
102
RTVSPropertyOp38
 70
     1
102
RTVSPropertyOp39
 70
     1
102
RTVSPropertyOp40
 70
     1
102
RTVSPropertyOp41
 70
     1
102
RTVSPropertyOp42
 70
     1
102
RTVSPropertyOp43
 70
     1
102
RTVSPropertyOp44
 70
     1
102
RTVSPropertyOp45
 70
     1
102
RTVSPropertyOp46
 70
     1
102
RTVSPropertyOp47
 70
     1
102
RTVSPropertyOp48
 70
     1
102
RTVSPropertyOp49
 70
     1
102
RTVSPropertyOp50
 70
     1
102
RTVSPropertyOp51
 70
     0
102
RTVSPropertyOp52
 70
     0
102
RTVSPropertyOp53
 70
     1
102
RTVSPropertyOp54
 70
     1
102
RTVSPropertyOp55
 70
     1
102
RTVSPropertyOp56
 70
     1
102
RTVSPropertyOp57
 70
     1
102
RTVSPost2010Prop28
280
     0
102
RTVSPost2010PropOp28
 70
     1
102
RTVSPost2010Prop29
280
     1
102
RTVSPost2010PropOp29
 70
     1
102
RTVSPost2010Prop30
280
     1
102
RTVSPost2010PropOp30
 70
     1
102
RTVSPost2010Prop31
280
     0
102
RTVSPost2010PropOp31
 70
     1
102
RTVSPost2010Prop32
280
     0
102
RTVSPost2010PropOp32
 70
     1
102
RTVSPost2010Prop33
280
     0
102
RTVSPost2010PropOp33
 70
     1
102
RTVSPost2010Prop34
280
     0
102
RTVSPost2010PropOp34
 70
     1
102
RTVSPost2010Prop35
280
     0
102
RTVSPost2010PropOp35
 70
     1
102
RTVSPost2010Prop36
280
     0
102
RTVSPost2010PropOp36
 70
     1
102
RTVSPost2010Prop37
 90
       50
102
RTVSPost2010PropOp37
 70
     1
102
RTVSPost2010Prop38
140
0.0
102
RTVSPost2010PropOp38
 70
     1
102
RTVSPost2010Prop39
140
1.0
102
RTVSPost2010PropOp39
 70
     1
102
RTVSPost2010Prop40
 90
        0
102
RTVSPost2010PropOp40
 70
     1
102
RTVSPost2010Prop41ColorIndex
 90
       18
102
RTVSPost2010Prop41ColorRGB
 90
        0
102
RTVSPost2010PropOp41
 70
     1
102
RTVSPost2010Prop42
 90
       50
102
RTVSPost2010PropOp42
 70
     1
102
RTVSPost2010Prop43
 90
        3
102
RTVSPost2010PropOp43
 70
     1
102
RTVSPost2010Prop44ColorIndex
 90
        5
102
RTVSPost2010Prop44ColorRGB
 90
      255
102
RTVSPost2010PropOp44
 70
     1
102
RTVSPost2010Prop45
280
     0
102
RTVSPost2010PropOp45
 70
     1
102
RTVSPost2010Prop46
 90
       50
102
RTVSPost2010PropOp46
 70
     1
102
RTVSPost2010Prop47
 90
       50
102
RTVSPost2010PropOp47
 70
     1
102
RTVSPost2010Prop48
 90
       50
102
RTVSPost2010PropOp48
 70
     1
102
RTVSPost2010Prop49
280
     0
102
RTVSPost2010PropOp49
 70
     1
102
RTVSPost2010Prop50
 90
       50
102
RTVSPost2010PropOp50
 70
     1
102
RTVSPost2010Prop51ColorIndex
 90
      256
102
RTVSPost2010Prop51ColorRGB
 90
-16777216
102
RTVSPost2010PropOp51
 70
     0
102
RTVSPost2010Prop52
140
1.0
102
RTVSPost2010PropOp52
 70
     0
102
RTVSPost2010Prop53
 90
        2
102
RTVSPost2010PropOp53
 70
     1
102
RTVSPost2010Prop54
  1
strokes_ogs.tif
102
RTVSPost2010PropOp54
 70
     1
102
RTVSPost2010Prop55
280
     0
102
RTVSPost2010PropOp55
 70
     1
102
RTVSPost2010Prop56
140
1.0
102
RTVSPost2010PropOp56
 70
     1
102
RTVSPost2010Prop57
140
1.0
102
RTVSPost2010PropOp57
 70
     1
  0
XRECORD
  5
2E8
102
{ACAD_REACTORS
330
2E7
102
}
330
2E7
100
AcDbXrecord
280
     1
102
RTVSPropertyOp0
 70
     1
102
RTVSPropertyOp1
 70
     1
102
RTVSPropertyOp2
 70
     1
102
RTVSPropertyOp3
 70
     1
102
RTVSPropertyOp4
 70
     1
102
RTVSPropertyOp5
 70
     1
102
RTVSPropertyOp6
 70
     1
102
RTVSPropertyOp7
 70
     1
102
RTVSPropertyOp8
 70
     1
102
RTVSPropertyOp9
 70
     1
102
RTVSPropertyOp10
 70
     1
102
RTVSPropertyOp11
 70
     1
102
RTVSPropertyOp12
 70
     1
102
RTVSPropertyOp13
 70
     1
102
RTVSPropertyOp14
 70
     1
102
RTVSPropertyOp15
 70
     1
102
RTVSPropertyOp16
 70
     1
102
RTVSPropertyOp17
 70
     1
102
RTVSPropertyOp18
 70
     1
102
RTVSPropertyOp19
 70
     1
102
RTVSPropertyOp20
 70
     1
102
RTVSPropertyOp21
 70
     1
102
RTVSPropertyOp22
 70
     1
102
RTVSPropertyOp23
 70
     1
102
RTVSPropertyOp24
 70
     1
102
RTVSPropertyOp25
 70
     1
102
RTVSPropertyOp26
 70
     1
102
RTVSPropertyOp27
 70
     1
102
RTVSPropertyOp28
 70
     1
102
RTVSPropertyOp29
 70
     1
102
RTVSPropertyOp30
 70
     1
102
RTVSPropertyOp31
 70
     1
102
RTVSPropertyOp32
 70
     1
102
RTVSPropertyOp33
 70
     1
102
RTVSPropertyOp34
 70
     1
102
RTVSPropertyOp35
 70
     1
102
RTVSPropertyOp36
 70
     1
102
RTVSPropertyOp37
 70
     1
102
RTVSPropertyOp38
 70
     1
102
RTVSPropertyOp39
 70
     1
102
RTVSPropertyOp40
 70
     1
102
RTVSPropertyOp41
 70
     1
102
RTVSPropertyOp42
 70
     1
102
RTVSPropertyOp43
 70
     1
102
RTVSPropertyOp44
 70
     1
102
RTVSPropertyOp45
 70
     1
102
RTVSPropertyOp46
 70
     1
102
RTVSPropertyOp47
 70
     1
102
RTVSPropertyOp48
 70
     1
102
RTVSPropertyOp49
 70
     1
102
RTVSPropertyOp50
 70
     1
102
RTVSPropertyOp51
 70
     0
102
RTVSPropertyOp52
 70
     0
102
RTVSPropertyOp53
 70
     1
102
RTVSPropertyOp54
 70
     1
102
RTVSPropertyOp55
 70
     1
102
RTVSPropertyOp56
 70
     1
102
RTVSPropertyOp57
 70
     1
102
RTVSPost2010Prop28
280
     0
102
RTVSPost2010PropOp28
 70
     1
102
RTVSPost2010Prop29
280
     1
102
RTVSPost2010PropOp29
 70
     1
102
RTVSPost2010Prop30
280
     1
102
RTVSPost2010PropOp30
 70
     1
102
RTVSPost2010Prop31
280
     0
102
RTVSPost2010PropOp31
 70
     1
102
RTVSPost2010Prop32
280
     0
102
RTVSPost2010PropOp32
 70
     1
102
RTVSPost2010Prop33
280
     0
102
RTVSPost2010PropOp33
 70
     1
102
RTVSPost2010Prop34
280
     0
102
RTVSPost2010PropOp34
 70
     1
102
RTVSPost2010Prop35
280
     0
102
RTVSPost2010PropOp35
 70
     1
102
RTVSPost2010Prop36
280
     0
102
RTVSPost2010PropOp36
 70
     1
102
RTVSPost2010Prop37
 90
       50
102
RTVSPost2010PropOp37
 70
     1
102
RTVSPost2010Prop38
140
0.0
102
RTVSPost2010PropOp38
 70
     1
102
RTVSPost2010Prop39
140
1.0
102
RTVSPost2010PropOp39
 70
     1
102
RTVSPost2010Prop40
 90
        0
102
RTVSPost2010PropOp40
 70
     1
102
RTVSPost2010Prop41ColorIndex
 90
       18
102
RTVSPost2010Prop41ColorRGB
 90
        0
102
RTVSPost2010PropOp41
 70
     1
102
RTVSPost2010Prop42
 90
       50
102
RTVSPost2010PropOp42
 70
     1
102
RTVSPost2010Prop43
 90
        3
102
RTVSPost2010PropOp43
 70
     1
102
RTVSPost2010Prop44ColorIndex
 90
        5
102
RTVSPost2010Prop44ColorRGB
 90
      255
102
RTVSPost2010PropOp44
 70
     1
102
RTVSPost2010Prop45
280
     0
102
RTVSPost2010PropOp45
 70
     1
102
RTVSPost2010Prop46
 90
       50
102
RTVSPost2010PropOp46
 70
     1
102
RTVSPost2010Prop47
 90
       50
102
RTVSPost2010PropOp47
 70
     1
102
RTVSPost2010Prop48
 90
       50
102
RTVSPost2010PropOp48
 70
     1
102
RTVSPost2010Prop49
280
     0
102
RTVSPost2010PropOp49
 70
     1
102
RTVSPost2010Prop50
 90
       50
102
RTVSPost2010PropOp50
 70
     1
102
RTVSPost2010Prop51ColorIndex
 90
      256
102
RTVSPost2010Prop51ColorRGB
 90
-16777216
102
RTVSPost2010PropOp51
 70
     0
102
RTVSPost2010Prop52
140
1.0
102
RTVSPost2010PropOp52
 70
     0
102
RTVSPost2010Prop53
 90
        2
102
RTVSPost2010PropOp53
 70
     1
102
RTVSPost2010Prop54
  1
strokes_ogs.tif
102
RTVSPost2010PropOp54
 70
     1
102
RTVSPost2010Prop55
280
     0
102
RTVSPost2010PropOp55
 70
     1
102
RTVSPost2010Prop56
140
1.0
102
RTVSPost2010PropOp56
 70
     1
102
RTVSPost2010Prop57
140
1.0
102
RTVSPost2010PropOp57
 70
     1
  0
XRECORD
  5
2DC
102
{ACAD_REACTORS
330
2DB
102
}
330
2DB
100
AcDbXrecord
280
     1
102
RTVSPropertyOp0
 70
     1
102
RTVSPropertyOp1
 70
     1
102
RTVSPropertyOp2
 70
     1
102
RTVSPropertyOp3
 70
     1
102
RTVSPropertyOp4
 70
     1
102
RTVSPropertyOp5
 70
     1
102
RTVSPropertyOp6
 70
     1
102
RTVSPropertyOp7
 70
     1
102
RTVSPropertyOp8
 70
     1
102
RTVSPropertyOp9
 70
     1
102
RTVSPropertyOp10
 70
     1
102
RTVSPropertyOp11
 70
     1
102
RTVSPropertyOp12
 70
     1
102
RTVSPropertyOp13
 70
     1
102
RTVSPropertyOp14
 70
     1
102
RTVSPropertyOp15
 70
     1
102
RTVSPropertyOp16
 70
     1
102
RTVSPropertyOp17
 70
     1
102
RTVSPropertyOp18
 70
     1
102
RTVSPropertyOp19
 70
     1
102
RTVSPropertyOp20
 70
     1
102
RTVSPropertyOp21
 70
     1
102
RTVSPropertyOp22
 70
     1
102
RTVSPropertyOp23
 70
     1
102
RTVSPropertyOp24
 70
     1
102
RTVSPropertyOp25
 70
     1
102
RTVSPropertyOp26
 70
     1
102
RTVSPropertyOp27
 70
     1
102
RTVSPropertyOp28
 70
     1
102
RTVSPropertyOp29
 70
     1
102
RTVSPropertyOp30
 70
     1
102
RTVSPropertyOp31
 70
     1
102
RTVSPropertyOp32
 70
     1
102
RTVSPropertyOp33
 70
     1
102
RTVSPropertyOp34
 70
     1
102
RTVSPropertyOp35
 70
     1
102
RTVSPropertyOp36
 70
     1
102
RTVSPropertyOp37
 70
     1
102
RTVSPropertyOp38
 70
     1
102
RTVSPropertyOp39
 70
     1
102
RTVSPropertyOp40
 70
     1
102
RTVSPropertyOp41
 70
     1
102
RTVSPropertyOp42
 70
     1
102
RTVSPropertyOp43
 70
     1
102
RTVSPropertyOp44
 70
     1
102
RTVSPropertyOp45
 70
     1
102
RTVSPropertyOp46
 70
     1
102
RTVSPropertyOp47
 70
     1
102
RTVSPropertyOp48
 70
     1
102
RTVSPropertyOp49
 70
     1
102
RTVSPropertyOp50
 70
     1
102
RTVSPropertyOp51
 70
     0
102
RTVSPropertyOp52
 70
     0
102
RTVSPropertyOp53
 70
     1
102
RTVSPropertyOp54
 70
     1
102
RTVSPropertyOp55
 70
     1
102
RTVSPropertyOp56
 70
     1
102
RTVSPropertyOp57
 70
     1
102
RTVSPost2010Prop28
280
     0
102
RTVSPost2010PropOp28
 70
     1
102
RTVSPost2010Prop29
280
     1
102
RTVSPost2010PropOp29
 70
     1
102
RTVSPost2010Prop30
280
     1
102
RTVSPost2010PropOp30
 70
     1
102
RTVSPost2010Prop31
280
     0
102
RTVSPost2010PropOp31
 70
     1
102
RTVSPost2010Prop32
280
     0
102
RTVSPost2010PropOp32
 70
     1
102
RTVSPost2010Prop33
280
     0
102
RTVSPost2010PropOp33
 70
     1
102
RTVSPost2010Prop34
280
     0
102
RTVSPost2010PropOp34
 70
     1
102
RTVSPost2010Prop35
280
     0
102
RTVSPost2010PropOp35
 70
     1
102
RTVSPost2010Prop36
280
     0
102
RTVSPost2010PropOp36
 70
     1
102
RTVSPost2010Prop37
 90
       50
102
RTVSPost2010PropOp37
 70
     1
102
RTVSPost2010Prop38
140
0.0
102
RTVSPost2010PropOp38
 70
     1
102
RTVSPost2010Prop39
140
1.0
102
RTVSPost2010PropOp39
 70
     1
102
RTVSPost2010Prop40
 90
        0
102
RTVSPost2010PropOp40
 70
     1
102
RTVSPost2010Prop41ColorIndex
 90
       18
102
RTVSPost2010Prop41ColorRGB
 90
        0
102
RTVSPost2010PropOp41
 70
     1
102
RTVSPost2010Prop42
 90
       50
102
RTVSPost2010PropOp42
 70
     1
102
RTVSPost2010Prop43
 90
        3
102
RTVSPost2010PropOp43
 70
     1
102
RTVSPost2010Prop44ColorIndex
 90
        5
102
RTVSPost2010Prop44ColorRGB
 90
      255
102
RTVSPost2010PropOp44
 70
     1
102
RTVSPost2010Prop45
280
     0
102
RTVSPost2010PropOp45
 70
     1
102
RTVSPost2010Prop46
 90
       50
102
RTVSPost2010PropOp46
 70
     1
102
RTVSPost2010Prop47
 90
       50
102
RTVSPost2010PropOp47
 70
     1
102
RTVSPost2010Prop48
 90
       50
102
RTVSPost2010PropOp48
 70
     1
102
RTVSPost2010Prop49
280
     0
102
RTVSPost2010PropOp49
 70
     1
102
RTVSPost2010Prop50
 90
       50
102
RTVSPost2010PropOp50
 70
     1
102
RTVSPost2010Prop51ColorIndex
 90
      256
102
RTVSPost2010Prop51ColorRGB
 90
-16777216
102
RTVSPost2010PropOp51
 70
     0
102
RTVSPost2010Prop52
140
1.0
102
RTVSPost2010PropOp52
 70
     0
102
RTVSPost2010Prop53
 90
        2
102
RTVSPost2010PropOp53
 70
     1
102
RTVSPost2010Prop54
  1
strokes_ogs.tif
102
RTVSPost2010PropOp54
 70
     1
102
RTVSPost2010Prop55
280
     0
102
RTVSPost2010PropOp55
 70
     1
102
RTVSPost2010Prop56
140
1.0
102
RTVSPost2010PropOp56
 70
     1
102
RTVSPost2010Prop57
140
1.0
102
RTVSPost2010PropOp57
 70
     1
  0
XRECORD
  5
2DE
102
{ACAD_REACTORS
330
2DD
102
}
330
2DD
100
AcDbXrecord
280
     1
102
RTVSPropertyOp0
 70
     1
102
RTVSPropertyOp1
 70
     1
102
RTVSPropertyOp2
 70
     1
102
RTVSPropertyOp3
 70
     1
102
RTVSPropertyOp4
 70
     1
102
RTVSPropertyOp5
 70
     1
102
RTVSPropertyOp6
 70
     1
102
RTVSPropertyOp7
 70
     1
102
RTVSPropertyOp8
 70
     1
102
RTVSPropertyOp9
 70
     1
102
RTVSPropertyOp10
 70
     1
102
RTVSPropertyOp11
 70
     1
102
RTVSPropertyOp12
 70
     1
102
RTVSPropertyOp13
 70
     1
102
RTVSPropertyOp14
 70
     1
102
RTVSPropertyOp15
 70
     1
102
RTVSPropertyOp16
 70
     1
102
RTVSPropertyOp17
 70
     1
102
RTVSPropertyOp18
 70
     1
102
RTVSPropertyOp19
 70
     1
102
RTVSPropertyOp20
 70
     1
102
RTVSPropertyOp21
 70
     1
102
RTVSPropertyOp22
 70
     1
102
RTVSPropertyOp23
 70
     1
102
RTVSPropertyOp24
 70
     1
102
RTVSPropertyOp25
 70
     1
102
RTVSPropertyOp26
 70
     1
102
RTVSPropertyOp27
 70
     1
102
RTVSPropertyOp28
 70
     1
102
RTVSPropertyOp29
 70
     1
102
RTVSPropertyOp30
 70
     1
102
RTVSPropertyOp31
 70
     1
102
RTVSPropertyOp32
 70
     1
102
RTVSPropertyOp33
 70
     1
102
RTVSPropertyOp34
 70
     1
102
RTVSPropertyOp35
 70
     1
102
RTVSPropertyOp36
 70
     1
102
RTVSPropertyOp37
 70
     1
102
RTVSPropertyOp38
 70
     1
102
RTVSPropertyOp39
 70
     1
102
RTVSPropertyOp40
 70
     1
102
RTVSPropertyOp41
 70
     1
102
RTVSPropertyOp42
 70
     1
102
RTVSPropertyOp43
 70
     1
102
RTVSPropertyOp44
 70
     1
102
RTVSPropertyOp45
 70
     1
102
RTVSPropertyOp46
 70
     1
102
RTVSPropertyOp47
 70
     1
102
RTVSPropertyOp48
 70
     1
102
RTVSPropertyOp49
 70
     1
102
RTVSPropertyOp50
 70
     1
102
RTVSPropertyOp51
 70
     0
102
RTVSPropertyOp52
 70
     0
102
RTVSPropertyOp53
 70
     1
102
RTVSPropertyOp54
 70
     1
102
RTVSPropertyOp55
 70
     1
102
RTVSPropertyOp56
 70
     1
102
RTVSPropertyOp57
 70
     1
102
RTVSPost2010Prop28
280
     0
102
RTVSPost2010PropOp28
 70
     1
102
RTVSPost2010Prop29
280
     1
102
RTVSPost2010PropOp29
 70
     1
102
RTVSPost2010Prop30
280
     1
102
RTVSPost2010PropOp30
 70
     1
102
RTVSPost2010Prop31
280
     0
102
RTVSPost2010PropOp31
 70
     1
102
RTVSPost2010Prop32
280
     0
102
RTVSPost2010PropOp32
 70
     1
102
RTVSPost2010Prop33
280
     0
102
RTVSPost2010PropOp33
 70
     1
102
RTVSPost2010Prop34
280
     0
102
RTVSPost2010PropOp34
 70
     1
102
RTVSPost2010Prop35
280
     0
102
RTVSPost2010PropOp35
 70
     1
102
RTVSPost2010Prop36
280
     0
102
RTVSPost2010PropOp36
 70
     1
102
RTVSPost2010Prop37
 90
       50
102
RTVSPost2010PropOp37
 70
     1
102
RTVSPost2010Prop38
140
0.0
102
RTVSPost2010PropOp38
 70
     1
102
RTVSPost2010Prop39
140
1.0
102
RTVSPost2010PropOp39
 70
     1
102
RTVSPost2010Prop40
 90
        0
102
RTVSPost2010PropOp40
 70
     1
102
RTVSPost2010Prop41ColorIndex
 90
       18
102
RTVSPost2010Prop41ColorRGB
 90
        0
102
RTVSPost2010PropOp41
 70
     1
102
RTVSPost2010Prop42
 90
       50
102
RTVSPost2010PropOp42
 70
     1
102
RTVSPost2010Prop43
 90
        3
102
RTVSPost2010PropOp43
 70
     1
102
RTVSPost2010Prop44ColorIndex
 90
        5
102
RTVSPost2010Prop44ColorRGB
 90
      255
102
RTVSPost2010PropOp44
 70
     1
102
RTVSPost2010Prop45
280
     0
102
RTVSPost2010PropOp45
 70
     1
102
RTVSPost2010Prop46
 90
       50
102
RTVSPost2010PropOp46
 70
     1
102
RTVSPost2010Prop47
 90
       50
102
RTVSPost2010PropOp47
 70
     1
102
RTVSPost2010Prop48
 90
       50
102
RTVSPost2010PropOp48
 70
     1
102
RTVSPost2010Prop49
280
     0
102
RTVSPost2010PropOp49
 70
     1
102
RTVSPost2010Prop50
 90
       50
102
RTVSPost2010PropOp50
 70
     1
102
RTVSPost2010Prop51ColorIndex
 90
      256
102
RTVSPost2010Prop51ColorRGB
 90
-16777216
102
RTVSPost2010PropOp51
 70
     0
102
RTVSPost2010Prop52
140
1.0
102
RTVSPost2010PropOp52
 70
     0
102
RTVSPost2010Prop53
 90
        2
102
RTVSPost2010PropOp53
 70
     1
102
RTVSPost2010Prop54
  1
strokes_ogs.tif
102
RTVSPost2010PropOp54
 70
     1
102
RTVSPost2010Prop55
280
     0
102
RTVSPost2010PropOp55
 70
     1
102
RTVSPost2010Prop56
140
1.0
102
RTVSPost2010PropOp56
 70
     1
102
RTVSPost2010Prop57
140
1.0
102
RTVSPost2010PropOp57
 70
     1
  0
XRECORD
  5
2E6
102
{ACAD_REACTORS
330
2E5
102
}
330
2E5
100
AcDbXrecord
280
     1
102
RTVSPropertyOp0
 70
     1
102
RTVSPropertyOp1
 70
     1
102
RTVSPropertyOp2
 70
     1
102
RTVSPropertyOp3
 70
     1
102
RTVSPropertyOp4
 70
     1
102
RTVSPropertyOp5
 70
     1
102
RTVSPropertyOp6
 70
     1
102
RTVSPropertyOp7
 70
     1
102
RTVSPropertyOp8
 70
     1
102
RTVSPropertyOp9
 70
     1
102
RTVSPropertyOp10
 70
     1
102
RTVSPropertyOp11
 70
     1
102
RTVSPropertyOp12
 70
     1
102
RTVSPropertyOp13
 70
     1
102
RTVSPropertyOp14
 70
     1
102
RTVSPropertyOp15
 70
     1
102
RTVSPropertyOp16
 70
     1
102
RTVSPropertyOp17
 70
     1
102
RTVSPropertyOp18
 70
     1
102
RTVSPropertyOp19
 70
     1
102
RTVSPropertyOp20
 70
     1
102
RTVSPropertyOp21
 70
     1
102
RTVSPropertyOp22
 70
     1
102
RTVSPropertyOp23
 70
     1
102
RTVSPropertyOp24
 70
     1
102
RTVSPropertyOp25
 70
     1
102
RTVSPropertyOp26
 70
     1
102
RTVSPropertyOp27
 70
     1
102
RTVSPropertyOp28
 70
     1
102
RTVSPropertyOp29
 70
     1
102
RTVSPropertyOp30
 70
     1
102
RTVSPropertyOp31
 70
     1
102
RTVSPropertyOp32
 70
     1
102
RTVSPropertyOp33
 70
     1
102
RTVSPropertyOp34
 70
     1
102
RTVSPropertyOp35
 70
     1
102
RTVSPropertyOp36
 70
     1
102
RTVSPropertyOp37
 70
     1
102
RTVSPropertyOp38
 70
     1
102
RTVSPropertyOp39
 70
     1
102
RTVSPropertyOp40
 70
     1
102
RTVSPropertyOp41
 70
     1
102
RTVSPropertyOp42
 70
     1
102
RTVSPropertyOp43
 70
     1
102
RTVSPropertyOp44
 70
     1
102
RTVSPropertyOp45
 70
     1
102
RTVSPropertyOp46
 70
     1
102
RTVSPropertyOp47
 70
     1
102
RTVSPropertyOp48
 70
     1
102
RTVSPropertyOp49
 70
     1
102
RTVSPropertyOp50
 70
     1
102
RTVSPropertyOp51
 70
     0
102
RTVSPropertyOp52
 70
     0
102
RTVSPropertyOp53
 70
     1
102
RTVSPropertyOp54
 70
     1
102
RTVSPropertyOp55
 70
     1
102
RTVSPropertyOp56
 70
     1
102
RTVSPropertyOp57
 70
     1
102
RTVSPost2010Prop28
280
     0
102
RTVSPost2010PropOp28
 70
     1
102
RTVSPost2010Prop29
280
     1
102
RTVSPost2010PropOp29
 70
     1
102
RTVSPost2010Prop30
280
     1
102
RTVSPost2010PropOp30
 70
     1
102
RTVSPost2010Prop31
280
     0
102
RTVSPost2010PropOp31
 70
     1
102
RTVSPost2010Prop32
280
     0
102
RTVSPost2010PropOp32
 70
     1
102
RTVSPost2010Prop33
280
     0
102
RTVSPost2010PropOp33
 70
     1
102
RTVSPost2010Prop34
280
     0
102
RTVSPost2010PropOp34
 70
     1
102
RTVSPost2010Prop35
280
     0
102
RTVSPost2010PropOp35
 70
     1
102
RTVSPost2010Prop36
280
     0
102
RTVSPost2010PropOp36
 70
     1
102
RTVSPost2010Prop37
 90
       50
102
RTVSPost2010PropOp37
 70
     1
102
RTVSPost2010Prop38
140
0.0
102
RTVSPost2010PropOp38
 70
     1
102
RTVSPost2010Prop39
140
1.0
102
RTVSPost2010PropOp39
 70
     1
102
RTVSPost2010Prop40
 90
        0
102
RTVSPost2010PropOp40
 70
     1
102
RTVSPost2010Prop41ColorIndex
 90
       18
102
RTVSPost2010Prop41ColorRGB
 90
        0
102
RTVSPost2010PropOp41
 70
     1
102
RTVSPost2010Prop42
 90
       50
102
RTVSPost2010PropOp42
 70
     1
102
RTVSPost2010Prop43
 90
        3
102
RTVSPost2010PropOp43
 70
     1
102
RTVSPost2010Prop44ColorIndex
 90
        5
102
RTVSPost2010Prop44ColorRGB
 90
      255
102
RTVSPost2010PropOp44
 70
     1
102
RTVSPost2010Prop45
280
     0
102
RTVSPost2010PropOp45
 70
     1
102
RTVSPost2010Prop46
 90
       50
102
RTVSPost2010PropOp46
 70
     1
102
RTVSPost2010Prop47
 90
       50
102
RTVSPost2010PropOp47
 70
     1
102
RTVSPost2010Prop48
 90
       50
102
RTVSPost2010PropOp48
 70
     1
102
RTVSPost2010Prop49
280
     0
102
RTVSPost2010PropOp49
 70
     1
102
RTVSPost2010Prop50
 90
       50
102
RTVSPost2010PropOp50
 70
     1
102
RTVSPost2010Prop51ColorIndex
 90
      256
102
RTVSPost2010Prop51ColorRGB
 90
-16777216
102
RTVSPost2010PropOp51
 70
     0
102
RTVSPost2010Prop52
140
1.0
102
RTVSPost2010PropOp52
 70
     0
102
RTVSPost2010Prop53
 90
        2
102
RTVSPost2010PropOp53
 70
     1
102
RTVSPost2010Prop54
  1
strokes_ogs.tif
102
RTVSPost2010PropOp54
 70
     1
102
RTVSPost2010Prop55
280
     0
102
RTVSPost2010PropOp55
 70
     1
102
RTVSPost2010Prop56
140
1.0
102
RTVSPost2010PropOp56
 70
     1
102
RTVSPost2010Prop57
140
1.0
102
RTVSPost2010PropOp57
 70
     1
  0
XRECORD
  5
2CA
102
{ACAD_REACTORS
330
2C9
102
}
330
2C9
100
AcDbXrecord
280
     1
102
RTVSPropertyOp0
 70
     1
102
RTVSPropertyOp1
 70
     1
102
RTVSPropertyOp2
 70
     1
102
RTVSPropertyOp3
 70
     1
102
RTVSPropertyOp4
 70
     1
102
RTVSPropertyOp5
 70
     1
102
RTVSPropertyOp6
 70
     1
102
RTVSPropertyOp7
 70
     1
102
RTVSPropertyOp8
 70
     1
102
RTVSPropertyOp9
 70
     1
102
RTVSPropertyOp10
 70
     1
102
RTVSPropertyOp11
 70
     1
102
RTVSPropertyOp12
 70
     1
102
RTVSPropertyOp13
 70
     1
102
RTVSPropertyOp14
 70
     1
102
RTVSPropertyOp15
 70
     1
102
RTVSPropertyOp16
 70
     1
102
RTVSPropertyOp17
 70
     1
102
RTVSPropertyOp18
 70
     1
102
RTVSPropertyOp19
 70
     1
102
RTVSPropertyOp20
 70
     1
102
RTVSPropertyOp21
 70
     1
102
RTVSPropertyOp22
 70
     1
102
RTVSPropertyOp23
 70
     1
102
RTVSPropertyOp24
 70
     1
102
RTVSPropertyOp25
 70
     1
102
RTVSPropertyOp26
 70
     1
102
RTVSPropertyOp27
 70
     1
102
RTVSPropertyOp28
 70
     1
102
RTVSPropertyOp29
 70
     1
102
RTVSPropertyOp30
 70
     1
102
RTVSPropertyOp31
 70
     1
102
RTVSPropertyOp32
 70
     1
102
RTVSPropertyOp33
 70
     1
102
RTVSPropertyOp34
 70
     1
102
RTVSPropertyOp35
 70
     1
102
RTVSPropertyOp36
 70
     1
102
RTVSPropertyOp37
 70
     1
102
RTVSPropertyOp38
 70
     1
102
RTVSPropertyOp39
 70
     1
102
RTVSPropertyOp40
 70
     1
102
RTVSPropertyOp41
 70
     1
102
RTVSPropertyOp42
 70
     1
102
RTVSPropertyOp43
 70
     1
102
RTVSPropertyOp44
 70
     1
102
RTVSPropertyOp45
 70
     1
102
RTVSPropertyOp46
 70
     1
102
RTVSPropertyOp47
 70
     1
102
RTVSPropertyOp48
 70
     1
102
RTVSPropertyOp49
 70
     1
102
RTVSPropertyOp50
 70
     1
102
RTVSPropertyOp51
 70
     0
102
RTVSPropertyOp52
 70
     0
102
RTVSPropertyOp53
 70
     1
102
RTVSPropertyOp54
 70
     1
102
RTVSPropertyOp55
 70
     1
102
RTVSPropertyOp56
 70
     1
102
RTVSPropertyOp57
 70
     1
102
RTVSPost2010Prop28
280
     0
102
RTVSPost2010PropOp28
 70
     1
102
RTVSPost2010Prop29
280
     1
102
RTVSPost2010PropOp29
 70
     1
102
RTVSPost2010Prop30
280
     1
102
RTVSPost2010PropOp30
 70
     1
102
RTVSPost2010Prop31
280
     0
102
RTVSPost2010PropOp31
 70
     1
102
RTVSPost2010Prop32
280
     0
102
RTVSPost2010PropOp32
 70
     1
102
RTVSPost2010Prop33
280
     0
102
RTVSPost2010PropOp33
 70
     1
102
RTVSPost2010Prop34
280
     0
102
RTVSPost2010PropOp34
 70
     1
102
RTVSPost2010Prop35
280
     0
102
RTVSPost2010PropOp35
 70
     1
102
RTVSPost2010Prop36
280
     0
102
RTVSPost2010PropOp36
 70
     1
102
RTVSPost2010Prop37
 90
       50
102
RTVSPost2010PropOp37
 70
     1
102
RTVSPost2010Prop38
140
0.0
102
RTVSPost2010PropOp38
 70
     1
102
RTVSPost2010Prop39
140
1.0
102
RTVSPost2010PropOp39
 70
     1
102
RTVSPost2010Prop40
 90
        0
102
RTVSPost2010PropOp40
 70
     1
102
RTVSPost2010Prop41ColorIndex
 90
       18
102
RTVSPost2010Prop41ColorRGB
 90
        0
102
RTVSPost2010PropOp41
 70
     1
102
RTVSPost2010Prop42
 90
       50
102
RTVSPost2010PropOp42
 70
     1
102
RTVSPost2010Prop43
 90
        3
102
RTVSPost2010PropOp43
 70
     1
102
RTVSPost2010Prop44ColorIndex
 90
        5
102
RTVSPost2010Prop44ColorRGB
 90
      255
102
RTVSPost2010PropOp44
 70
     1
102
RTVSPost2010Prop45
280
     0
102
RTVSPost2010PropOp45
 70
     1
102
RTVSPost2010Prop46
 90
       50
102
RTVSPost2010PropOp46
 70
     1
102
RTVSPost2010Prop47
 90
       50
102
RTVSPost2010PropOp47
 70
     1
102
RTVSPost2010Prop48
 90
       50
102
RTVSPost2010PropOp48
 70
     1
102
RTVSPost2010Prop49
280
     0
102
RTVSPost2010PropOp49
 70
     1
102
RTVSPost2010Prop50
 90
       50
102
RTVSPost2010PropOp50
 70
     1
102
RTVSPost2010Prop51ColorIndex
 90
      256
102
RTVSPost2010Prop51ColorRGB
 90
-16777216
102
RTVSPost2010PropOp51
 70
     0
102
RTVSPost2010Prop52
140
1.0
102
RTVSPost2010PropOp52
 70
     0
102
RTVSPost2010Prop53
 90
        2
102
RTVSPost2010PropOp53
 70
     1
102
RTVSPost2010Prop54
  1
strokes_ogs.tif
102
RTVSPost2010PropOp54
 70
     1
102
RTVSPost2010Prop55
280
     0
102
RTVSPost2010PropOp55
 70
     1
102
RTVSPost2010Prop56
140
1.0
102
RTVSPost2010PropOp56
 70
     1
102
RTVSPost2010Prop57
140
1.0
102
RTVSPost2010PropOp57
 70
     1
  0
XRECORD
  5
2CC
102
{ACAD_REACTORS
330
2CB
102
}
330
2CB
100
AcDbXrecord
280
     1
102
RTVSPropertyOp0
 70
     1
102
RTVSPropertyOp1
 70
     1
102
RTVSPropertyOp2
 70
     1
102
RTVSPropertyOp3
 70
     1
102
RTVSPropertyOp4
 70
     1
102
RTVSPropertyOp5
 70
     1
102
RTVSPropertyOp6
 70
     1
102
RTVSPropertyOp7
 70
     1
102
RTVSPropertyOp8
 70
     1
102
RTVSPropertyOp9
 70
     1
102
RTVSPropertyOp10
 70
     1
102
RTVSPropertyOp11
 70
     1
102
RTVSPropertyOp12
 70
     1
102
RTVSPropertyOp13
 70
     1
102
RTVSPropertyOp14
 70
     1
102
RTVSPropertyOp15
 70
     1
102
RTVSPropertyOp16
 70
     1
102
RTVSPropertyOp17
 70
     1
102
RTVSPropertyOp18
 70
     1
102
RTVSPropertyOp19
 70
     1
102
RTVSPropertyOp20
 70
     1
102
RTVSPropertyOp21
 70
     1
102
RTVSPropertyOp22
 70
     1
102
RTVSPropertyOp23
 70
     1
102
RTVSPropertyOp24
 70
     1
102
RTVSPropertyOp25
 70
     1
102
RTVSPropertyOp26
 70
     1
102
RTVSPropertyOp27
 70
     1
102
RTVSPropertyOp28
 70
     1
102
RTVSPropertyOp29
 70
     1
102
RTVSPropertyOp30
 70
     1
102
RTVSPropertyOp31
 70
     1
102
RTVSPropertyOp32
 70
     1
102
RTVSPropertyOp33
 70
     1
102
RTVSPropertyOp34
 70
     1
102
RTVSPropertyOp35
 70
     1
102
RTVSPropertyOp36
 70
     1
102
RTVSPropertyOp37
 70
     1
102
RTVSPropertyOp38
 70
     1
102
RTVSPropertyOp39
 70
     1
102
RTVSPropertyOp40
 70
     1
102
RTVSPropertyOp41
 70
     1
102
RTVSPropertyOp42
 70
     1
102
RTVSPropertyOp43
 70
     1
102
RTVSPropertyOp44
 70
     1
102
RTVSPropertyOp45
 70
     1
102
RTVSPropertyOp46
 70
     1
102
RTVSPropertyOp47
 70
     1
102
RTVSPropertyOp48
 70
     1
102
RTVSPropertyOp49
 70
     1
102
RTVSPropertyOp50
 70
     1
102
RTVSPropertyOp51
 70
     0
102
RTVSPropertyOp52
 70
     0
102
RTVSPropertyOp53
 70
     1
102
RTVSPropertyOp54
 70
     1
102
RTVSPropertyOp55
 70
     1
102
RTVSPropertyOp56
 70
     1
102
RTVSPropertyOp57
 70
     1
102
RTVSPost2010Prop28
280
     0
102
RTVSPost2010PropOp28
 70
     1
102
RTVSPost2010Prop29
280
     1
102
RTVSPost2010PropOp29
 70
     1
102
RTVSPost2010Prop30
280
     1
102
RTVSPost2010PropOp30
 70
     1
102
RTVSPost2010Prop31
280
     0
102
RTVSPost2010PropOp31
 70
     1
102
RTVSPost2010Prop32
280
     0
102
RTVSPost2010PropOp32
 70
     1
102
RTVSPost2010Prop33
280
     0
102
RTVSPost2010PropOp33
 70
     1
102
RTVSPost2010Prop34
280
     0
102
RTVSPost2010PropOp34
 70
     1
102
RTVSPost2010Prop35
280
     0
102
RTVSPost2010PropOp35
 70
     1
102
RTVSPost2010Prop36
280
     0
102
RTVSPost2010PropOp36
 70
     1
102
RTVSPost2010Prop37
 90
       50
102
RTVSPost2010PropOp37
 70
     1
102
RTVSPost2010Prop38
140
0.0
102
RTVSPost2010PropOp38
 70
     1
102
RTVSPost2010Prop39
140
1.0
102
RTVSPost2010PropOp39
 70
     1
102
RTVSPost2010Prop40
 90
        0
102
RTVSPost2010PropOp40
 70
     1
102
RTVSPost2010Prop41ColorIndex
 90
       18
102
RTVSPost2010Prop41ColorRGB
 90
        0
102
RTVSPost2010PropOp41
 70
     1
102
RTVSPost2010Prop42
 90
       50
102
RTVSPost2010PropOp42
 70
     1
102
RTVSPost2010Prop43
 90
        3
102
RTVSPost2010PropOp43
 70
     1
102
RTVSPost2010Prop44ColorIndex
 90
        5
102
RTVSPost2010Prop44ColorRGB
 90
      255
102
RTVSPost2010PropOp44
 70
     1
102
RTVSPost2010Prop45
280
     0
102
RTVSPost2010PropOp45
 70
     1
102
RTVSPost2010Prop46
 90
       50
102
RTVSPost2010PropOp46
 70
     1
102
RTVSPost2010Prop47
 90
       50
102
RTVSPost2010PropOp47
 70
     1
102
RTVSPost2010Prop48
 90
       50
102
RTVSPost2010PropOp48
 70
     1
102
RTVSPost2010Prop49
280
     0
102
RTVSPost2010PropOp49
 70
     1
102
RTVSPost2010Prop50
 90
       50
102
RTVSPost2010PropOp50
 70
     1
102
RTVSPost2010Prop51ColorIndex
 90
      256
102
RTVSPost2010Prop51ColorRGB
 90
-16777216
102
RTVSPost2010PropOp51
 70
     0
102
RTVSPost2010Prop52
140
1.0
102
RTVSPost2010PropOp52
 70
     0
102
RTVSPost2010Prop53
 90
        2
102
RTVSPost2010PropOp53
 70
     1
102
RTVSPost2010Prop54
  1
strokes_ogs.tif
102
RTVSPost2010PropOp54
 70
     1
102
RTVSPost2010Prop55
280
     0
102
RTVSPost2010PropOp55
 70
     1
102
RTVSPost2010Prop56
140
1.0
102
RTVSPost2010PropOp56
 70
     1
102
RTVSPost2010Prop57
140
1.0
102
RTVSPost2010PropOp57
 70
     1
  0
XRECORD
  5
2CE
102
{ACAD_REACTORS
330
2CD
102
}
330
2CD
100
AcDbXrecord
280
     1
102
RTVSPropertyOp0
 70
     1
102
RTVSPropertyOp1
 70
     1
102
RTVSPropertyOp2
 70
     1
102
RTVSPropertyOp3
 70
     1
102
RTVSPropertyOp4
 70
     1
102
RTVSPropertyOp5
 70
     1
102
RTVSPropertyOp6
 70
     1
102
RTVSPropertyOp7
 70
     1
102
RTVSPropertyOp8
 70
     1
102
RTVSPropertyOp9
 70
     1
102
RTVSPropertyOp10
 70
     1
102
RTVSPropertyOp11
 70
     1
102
RTVSPropertyOp12
 70
     1
102
RTVSPropertyOp13
 70
     1
102
RTVSPropertyOp14
 70
     1
102
RTVSPropertyOp15
 70
     1
102
RTVSPropertyOp16
 70
     1
102
RTVSPropertyOp17
 70
     1
102
RTVSPropertyOp18
 70
     1
102
RTVSPropertyOp19
 70
     1
102
RTVSPropertyOp20
 70
     1
102
RTVSPropertyOp21
 70
     1
102
RTVSPropertyOp22
 70
     1
102
RTVSPropertyOp23
 70
     1
102
RTVSPropertyOp24
 70
     1
102
RTVSPropertyOp25
 70
     1
102
RTVSPropertyOp26
 70
     1
102
RTVSPropertyOp27
 70
     1
102
RTVSPropertyOp28
 70
     1
102
RTVSPropertyOp29
 70
     1
102
RTVSPropertyOp30
 70
     1
102
RTVSPropertyOp31
 70
     1
102
RTVSPropertyOp32
 70
     1
102
RTVSPropertyOp33
 70
     1
102
RTVSPropertyOp34
 70
     1
102
RTVSPropertyOp35
 70
     1
102
RTVSPropertyOp36
 70
     1
102
RTVSPropertyOp37
 70
     1
102
RTVSPropertyOp38
 70
     1
102
RTVSPropertyOp39
 70
     1
102
RTVSPropertyOp40
 70
     1
102
RTVSPropertyOp41
 70
     1
102
RTVSPropertyOp42
 70
     1
102
RTVSPropertyOp43
 70
     1
102
RTVSPropertyOp44
 70
     1
102
RTVSPropertyOp45
 70
     1
102
RTVSPropertyOp46
 70
     1
102
RTVSPropertyOp47
 70
     1
102
RTVSPropertyOp48
 70
     1
102
RTVSPropertyOp49
 70
     1
102
RTVSPropertyOp50
 70
     1
102
RTVSPropertyOp51
 70
     0
102
RTVSPropertyOp52
 70
     0
102
RTVSPropertyOp53
 70
     1
102
RTVSPropertyOp54
 70
     1
102
RTVSPropertyOp55
 70
     1
102
RTVSPropertyOp56
 70
     1
102
RTVSPropertyOp57
 70
     1
102
RTVSPost2010Prop28
280
     0
102
RTVSPost2010PropOp28
 70
     1
102
RTVSPost2010Prop29
280
     1
102
RTVSPost2010PropOp29
 70
     1
102
RTVSPost2010Prop30
280
     1
102
RTVSPost2010PropOp30
 70
     1
102
RTVSPost2010Prop31
280
     0
102
RTVSPost2010PropOp31
 70
     1
102
RTVSPost2010Prop32
280
     0
102
RTVSPost2010PropOp32
 70
     1
102
RTVSPost2010Prop33
280
     0
102
RTVSPost2010PropOp33
 70
     1
102
RTVSPost2010Prop34
280
     0
102
RTVSPost2010PropOp34
 70
     1
102
RTVSPost2010Prop35
280
     0
102
RTVSPost2010PropOp35
 70
     1
102
RTVSPost2010Prop36
280
     0
102
RTVSPost2010PropOp36
 70
     1
102
RTVSPost2010Prop37
 90
       50
102
RTVSPost2010PropOp37
 70
     1
102
RTVSPost2010Prop38
140
0.0
102
RTVSPost2010PropOp38
 70
     1
102
RTVSPost2010Prop39
140
1.0
102
RTVSPost2010PropOp39
 70
     1
102
RTVSPost2010Prop40
 90
        0
102
RTVSPost2010PropOp40
 70
     1
102
RTVSPost2010Prop41ColorIndex
 90
       18
102
RTVSPost2010Prop41ColorRGB
 90
        0
102
RTVSPost2010PropOp41
 70
     1
102
RTVSPost2010Prop42
 90
       50
102
RTVSPost2010PropOp42
 70
     1
102
RTVSPost2010Prop43
 90
        3
102
RTVSPost2010PropOp43
 70
     1
102
RTVSPost2010Prop44ColorIndex
 90
        5
102
RTVSPost2010Prop44ColorRGB
 90
      255
102
RTVSPost2010PropOp44
 70
     1
102
RTVSPost2010Prop45
280
     0
102
RTVSPost2010PropOp45
 70
     1
102
RTVSPost2010Prop46
 90
       50
102
RTVSPost2010PropOp46
 70
     1
102
RTVSPost2010Prop47
 90
       50
102
RTVSPost2010PropOp47
 70
     1
102
RTVSPost2010Prop48
 90
       50
102
RTVSPost2010PropOp48
 70
     1
102
RTVSPost2010Prop49
280
     0
102
RTVSPost2010PropOp49
 70
     1
102
RTVSPost2010Prop50
 90
       50
102
RTVSPost2010PropOp50
 70
     1
102
RTVSPost2010Prop51ColorIndex
 90
      256
102
RTVSPost2010Prop51ColorRGB
 90
-16777216
102
RTVSPost2010PropOp51
 70
     0
102
RTVSPost2010Prop52
140
1.0
102
RTVSPost2010PropOp52
 70
     0
102
RTVSPost2010Prop53
 90
        2
102
RTVSPost2010PropOp53
 70
     1
102
RTVSPost2010Prop54
  1
strokes_ogs.tif
102
RTVSPost2010PropOp54
 70
     1
102
RTVSPost2010Prop55
280
     0
102
RTVSPost2010PropOp55
 70
     1
102
RTVSPost2010Prop56
140
1.0
102
RTVSPost2010PropOp56
 70
     1
102
RTVSPost2010Prop57
140
1.0
102
RTVSPost2010PropOp57
 70
     1
  0
XRECORD
  5
2D0
102
{ACAD_REACTORS
330
2CF
102
}
330
2CF
100
AcDbXrecord
280
     1
102
RTVSPropertyOp0
 70
     1
102
RTVSPropertyOp1
 70
     1
102
RTVSPropertyOp2
 70
     1
102
RTVSPropertyOp3
 70
     1
102
RTVSPropertyOp4
 70
     1
102
RTVSPropertyOp5
 70
     1
102
RTVSPropertyOp6
 70
     1
102
RTVSPropertyOp7
 70
     1
102
RTVSPropertyOp8
 70
     1
102
RTVSPropertyOp9
 70
     1
102
RTVSPropertyOp10
 70
     1
102
RTVSPropertyOp11
 70
     1
102
RTVSPropertyOp12
 70
     1
102
RTVSPropertyOp13
 70
     1
102
RTVSPropertyOp14
 70
     1
102
RTVSPropertyOp15
 70
     1
102
RTVSPropertyOp16
 70
     1
102
RTVSPropertyOp17
 70
     1
102
RTVSPropertyOp18
 70
     1
102
RTVSPropertyOp19
 70
     1
102
RTVSPropertyOp20
 70
     1
102
RTVSPropertyOp21
 70
     1
102
RTVSPropertyOp22
 70
     1
102
RTVSPropertyOp23
 70
     1
102
RTVSPropertyOp24
 70
     1
102
RTVSPropertyOp25
 70
     1
102
RTVSPropertyOp26
 70
     1
102
RTVSPropertyOp27
 70
     1
102
RTVSPropertyOp28
 70
     1
102
RTVSPropertyOp29
 70
     1
102
RTVSPropertyOp30
 70
     1
102
RTVSPropertyOp31
 70
     1
102
RTVSPropertyOp32
 70
     1
102
RTVSPropertyOp33
 70
     1
102
RTVSPropertyOp34
 70
     1
102
RTVSPropertyOp35
 70
     1
102
RTVSPropertyOp36
 70
     1
102
RTVSPropertyOp37
 70
     1
102
RTVSPropertyOp38
 70
     1
102
RTVSPropertyOp39
 70
     1
102
RTVSPropertyOp40
 70
     1
102
RTVSPropertyOp41
 70
     1
102
RTVSPropertyOp42
 70
     1
102
RTVSPropertyOp43
 70
     1
102
RTVSPropertyOp44
 70
     1
102
RTVSPropertyOp45
 70
     1
102
RTVSPropertyOp46
 70
     1
102
RTVSPropertyOp47
 70
     1
102
RTVSPropertyOp48
 70
     1
102
RTVSPropertyOp49
 70
     1
102
RTVSPropertyOp50
 70
     1
102
RTVSPropertyOp51
 70
     0
102
RTVSPropertyOp52
 70
     0
102
RTVSPropertyOp53
 70
     1
102
RTVSPropertyOp54
 70
     1
102
RTVSPropertyOp55
 70
     1
102
RTVSPropertyOp56
 70
     1
102
RTVSPropertyOp57
 70
     1
102
RTVSPost2010Prop28
280
     0
102
RTVSPost2010PropOp28
 70
     1
102
RTVSPost2010Prop29
280
     1
102
RTVSPost2010PropOp29
 70
     1
102
RTVSPost2010Prop30
280
     1
102
RTVSPost2010PropOp30
 70
     1
102
RTVSPost2010Prop31
280
     0
102
RTVSPost2010PropOp31
 70
     1
102
RTVSPost2010Prop32
280
     0
102
RTVSPost2010PropOp32
 70
     1
102
RTVSPost2010Prop33
280
     0
102
RTVSPost2010PropOp33
 70
     1
102
RTVSPost2010Prop34
280
     0
102
RTVSPost2010PropOp34
 70
     1
102
RTVSPost2010Prop35
280
     0
102
RTVSPost2010PropOp35
 70
     1
102
RTVSPost2010Prop36
280
     0
102
RTVSPost2010PropOp36
 70
     1
102
RTVSPost2010Prop37
 90
       50
102
RTVSPost2010PropOp37
 70
     1
102
RTVSPost2010Prop38
140
0.0
102
RTVSPost2010PropOp38
 70
     1
102
RTVSPost2010Prop39
140
1.0
102
RTVSPost2010PropOp39
 70
     1
102
RTVSPost2010Prop40
 90
        0
102
RTVSPost2010PropOp40
 70
     1
102
RTVSPost2010Prop41ColorIndex
 90
       18
102
RTVSPost2010Prop41ColorRGB
 90
        0
102
RTVSPost2010PropOp41
 70
     1
102
RTVSPost2010Prop42
 90
       50
102
RTVSPost2010PropOp42
 70
     1
102
RTVSPost2010Prop43
 90
        3
102
RTVSPost2010PropOp43
 70
     1
102
RTVSPost2010Prop44ColorIndex
 90
        5
102
RTVSPost2010Prop44ColorRGB
 90
      255
102
RTVSPost2010PropOp44
 70
     1
102
RTVSPost2010Prop45
280
     0
102
RTVSPost2010PropOp45
 70
     1
102
RTVSPost2010Prop46
 90
       50
102
RTVSPost2010PropOp46
 70
     1
102
RTVSPost2010Prop47
 90
       50
102
RTVSPost2010PropOp47
 70
     1
102
RTVSPost2010Prop48
 90
       50
102
RTVSPost2010PropOp48
 70
     1
102
RTVSPost2010Prop49
280
     0
102
RTVSPost2010PropOp49
 70
     1
102
RTVSPost2010Prop50
 90
       50
102
RTVSPost2010PropOp50
 70
     1
102
RTVSPost2010Prop51ColorIndex
 90
      256
102
RTVSPost2010Prop51ColorRGB
 90
-16777216
102
RTVSPost2010PropOp51
 70
     0
102
RTVSPost2010Prop52
140
1.0
102
RTVSPost2010PropOp52
 70
     0
102
RTVSPost2010Prop53
 90
        2
102
RTVSPost2010PropOp53
 70
     1
102
RTVSPost2010Prop54
  1
strokes_ogs.tif
102
RTVSPost2010PropOp54
 70
     1
102
RTVSPost2010Prop55
280
     0
102
RTVSPost2010PropOp55
 70
     1
102
RTVSPost2010Prop56
140
1.0
102
RTVSPost2010PropOp56
 70
     1
102
RTVSPost2010Prop57
140
1.0
102
RTVSPost2010PropOp57
 70
     1
  0
XRECORD
  5
2E4
102
{ACAD_REACTORS
330
2E3
102
}
330
2E3
100
AcDbXrecord
280
     1
102
RTVSPropertyOp0
 70
     1
102
RTVSPropertyOp1
 70
     1
102
RTVSPropertyOp2
 70
     1
102
RTVSPropertyOp3
 70
     1
102
RTVSPropertyOp4
 70
     1
102
RTVSPropertyOp5
 70
     1
102
RTVSPropertyOp6
 70
     1
102
RTVSPropertyOp7
 70
     1
102
RTVSPropertyOp8
 70
     1
102
RTVSPropertyOp9
 70
     1
102
RTVSPropertyOp10
 70
     1
102
RTVSPropertyOp11
 70
     1
102
RTVSPropertyOp12
 70
     1
102
RTVSPropertyOp13
 70
     1
102
RTVSPropertyOp14
 70
     1
102
RTVSPropertyOp15
 70
     1
102
RTVSPropertyOp16
 70
     1
102
RTVSPropertyOp17
 70
     1
102
RTVSPropertyOp18
 70
     1
102
RTVSPropertyOp19
 70
     1
102
RTVSPropertyOp20
 70
     1
102
RTVSPropertyOp21
 70
     1
102
RTVSPropertyOp22
 70
     1
102
RTVSPropertyOp23
 70
     1
102
RTVSPropertyOp24
 70
     1
102
RTVSPropertyOp25
 70
     1
102
RTVSPropertyOp26
 70
     1
102
RTVSPropertyOp27
 70
     1
102
RTVSPropertyOp28
 70
     1
102
RTVSPropertyOp29
 70
     1
102
RTVSPropertyOp30
 70
     1
102
RTVSPropertyOp31
 70
     1
102
RTVSPropertyOp32
 70
     1
102
RTVSPropertyOp33
 70
     1
102
RTVSPropertyOp34
 70
     1
102
RTVSPropertyOp35
 70
     1
102
RTVSPropertyOp36
 70
     1
102
RTVSPropertyOp37
 70
     1
102
RTVSPropertyOp38
 70
     1
102
RTVSPropertyOp39
 70
     1
102
RTVSPropertyOp40
 70
     1
102
RTVSPropertyOp41
 70
     1
102
RTVSPropertyOp42
 70
     1
102
RTVSPropertyOp43
 70
     1
102
RTVSPropertyOp44
 70
     1
102
RTVSPropertyOp45
 70
     1
102
RTVSPropertyOp46
 70
     1
102
RTVSPropertyOp47
 70
     1
102
RTVSPropertyOp48
 70
     1
102
RTVSPropertyOp49
 70
     1
102
RTVSPropertyOp50
 70
     1
102
RTVSPropertyOp51
 70
     0
102
RTVSPropertyOp52
 70
     0
102
RTVSPropertyOp53
 70
     1
102
RTVSPropertyOp54
 70
     1
102
RTVSPropertyOp55
 70
     1
102
RTVSPropertyOp56
 70
     1
102
RTVSPropertyOp57
 70
     1
102
RTVSPost2010Prop28
280
     0
102
RTVSPost2010PropOp28
 70
     1
102
RTVSPost2010Prop29
280
     1
102
RTVSPost2010PropOp29
 70
     1
102
RTVSPost2010Prop30
280
     1
102
RTVSPost2010PropOp30
 70
     1
102
RTVSPost2010Prop31
280
     0
102
RTVSPost2010PropOp31
 70
     1
102
RTVSPost2010Prop32
280
     0
102
RTVSPost2010PropOp32
 70
     1
102
RTVSPost2010Prop33
280
     0
102
RTVSPost2010PropOp33
 70
     1
102
RTVSPost2010Prop34
280
     0
102
RTVSPost2010PropOp34
 70
     1
102
RTVSPost2010Prop35
280
     0
102
RTVSPost2010PropOp35
 70
     1
102
RTVSPost2010Prop36
280
     0
102
RTVSPost2010PropOp36
 70
     1
102
RTVSPost2010Prop37
 90
       50
102
RTVSPost2010PropOp37
 70
     1
102
RTVSPost2010Prop38
140
0.0
102
RTVSPost2010PropOp38
 70
     1
102
RTVSPost2010Prop39
140
1.0
102
RTVSPost2010PropOp39
 70
     1
102
RTVSPost2010Prop40
 90
        0
102
RTVSPost2010PropOp40
 70
     1
102
RTVSPost2010Prop41ColorIndex
 90
       18
102
RTVSPost2010Prop41ColorRGB
 90
        0
102
RTVSPost2010PropOp41
 70
     1
102
RTVSPost2010Prop42
 90
       50
102
RTVSPost2010PropOp42
 70
     1
102
RTVSPost2010Prop43
 90
        3
102
RTVSPost2010PropOp43
 70
     1
102
RTVSPost2010Prop44ColorIndex
 90
        5
102
RTVSPost2010Prop44ColorRGB
 90
      255
102
RTVSPost2010PropOp44
 70
     1
102
RTVSPost2010Prop45
280
     0
102
RTVSPost2010PropOp45
 70
     1
102
RTVSPost2010Prop46
 90
       50
102
RTVSPost2010PropOp46
 70
     1
102
RTVSPost2010Prop47
 90
       50
102
RTVSPost2010PropOp47
 70
     1
102
RTVSPost2010Prop48
 90
       50
102
RTVSPost2010PropOp48
 70
     1
102
RTVSPost2010Prop49
280
     0
102
RTVSPost2010PropOp49
 70
     1
102
RTVSPost2010Prop50
 90
       50
102
RTVSPost2010PropOp50
 70
     1
102
RTVSPost2010Prop51ColorIndex
 90
      256
102
RTVSPost2010Prop51ColorRGB
 90
-16777216
102
RTVSPost2010PropOp51
 70
     0
102
RTVSPost2010Prop52
140
1.0
102
RTVSPost2010PropOp52
 70
     0
102
RTVSPost2010Prop53
 90
        2
102
RTVSPost2010PropOp53
 70
     1
102
RTVSPost2010Prop54
  1
strokes_ogs.tif
102
RTVSPost2010PropOp54
 70
     1
102
RTVSPost2010Prop55
280
     0
102
RTVSPost2010PropOp55
 70
     1
102
RTVSPost2010Prop56
140
1.0
102
RTVSPost2010PropOp56
 70
     1
102
RTVSPost2010Prop57
140
1.0
102
RTVSPost2010PropOp57
 70
     1
  0
XRECORD
  5
2DA
102
{ACAD_REACTORS
330
2D9
102
}
330
2D9
100
AcDbXrecord
280
     1
102
RTVSPropertyOp0
 70
     1
102
RTVSPropertyOp1
 70
     1
102
RTVSPropertyOp2
 70
     1
102
RTVSPropertyOp3
 70
     1
102
RTVSPropertyOp4
 70
     1
102
RTVSPropertyOp5
 70
     1
102
RTVSPropertyOp6
 70
     1
102
RTVSPropertyOp7
 70
     1
102
RTVSPropertyOp8
 70
     1
102
RTVSPropertyOp9
 70
     1
102
RTVSPropertyOp10
 70
     1
102
RTVSPropertyOp11
 70
     1
102
RTVSPropertyOp12
 70
     1
102
RTVSPropertyOp13
 70
     1
102
RTVSPropertyOp14
 70
     1
102
RTVSPropertyOp15
 70
     1
102
RTVSPropertyOp16
 70
     1
102
RTVSPropertyOp17
 70
     1
102
RTVSPropertyOp18
 70
     1
102
RTVSPropertyOp19
 70
     1
102
RTVSPropertyOp20
 70
     1
102
RTVSPropertyOp21
 70
     1
102
RTVSPropertyOp22
 70
     1
102
RTVSPropertyOp23
 70
     1
102
RTVSPropertyOp24
 70
     1
102
RTVSPropertyOp25
 70
     1
102
RTVSPropertyOp26
 70
     1
102
RTVSPropertyOp27
 70
     1
102
RTVSPropertyOp28
 70
     1
102
RTVSPropertyOp29
 70
     1
102
RTVSPropertyOp30
 70
     1
102
RTVSPropertyOp31
 70
     1
102
RTVSPropertyOp32
 70
     1
102
RTVSPropertyOp33
 70
     1
102
RTVSPropertyOp34
 70
     1
102
RTVSPropertyOp35
 70
     1
102
RTVSPropertyOp36
 70
     1
102
RTVSPropertyOp37
 70
     1
102
RTVSPropertyOp38
 70
     1
102
RTVSPropertyOp39
 70
     1
102
RTVSPropertyOp40
 70
     1
102
RTVSPropertyOp41
 70
     1
102
RTVSPropertyOp42
 70
     1
102
RTVSPropertyOp43
 70
     1
102
RTVSPropertyOp44
 70
     1
102
RTVSPropertyOp45
 70
     1
102
RTVSPropertyOp46
 70
     1
102
RTVSPropertyOp47
 70
     1
102
RTVSPropertyOp48
 70
     1
102
RTVSPropertyOp49
 70
     1
102
RTVSPropertyOp50
 70
     1
102
RTVSPropertyOp51
 70
     0
102
RTVSPropertyOp52
 70
     0
102
RTVSPropertyOp53
 70
     1
102
RTVSPropertyOp54
 70
     1
102
RTVSPropertyOp55
 70
     1
102
RTVSPropertyOp56
 70
     1
102
RTVSPropertyOp57
 70
     1
102
RTVSPost2010Prop28
280
     0
102
RTVSPost2010PropOp28
 70
     1
102
RTVSPost2010Prop29
280
     1
102
RTVSPost2010PropOp29
 70
     1
102
RTVSPost2010Prop30
280
     1
102
RTVSPost2010PropOp30
 70
     1
102
RTVSPost2010Prop31
280
     0
102
RTVSPost2010PropOp31
 70
     1
102
RTVSPost2010Prop32
280
     0
102
RTVSPost2010PropOp32
 70
     1
102
RTVSPost2010Prop33
280
     0
102
RTVSPost2010PropOp33
 70
     1
102
RTVSPost2010Prop34
280
     0
102
RTVSPost2010PropOp34
 70
     1
102
RTVSPost2010Prop35
280
     0
102
RTVSPost2010PropOp35
 70
     1
102
RTVSPost2010Prop36
280
     0
102
RTVSPost2010PropOp36
 70
     1
102
RTVSPost2010Prop37
 90
       50
102
RTVSPost2010PropOp37
 70
     1
102
RTVSPost2010Prop38
140
0.0
102
RTVSPost2010PropOp38
 70
     1
102
RTVSPost2010Prop39
140
1.0
102
RTVSPost2010PropOp39
 70
     1
102
RTVSPost2010Prop40
 90
        0
102
RTVSPost2010PropOp40
 70
     1
102
RTVSPost2010Prop41ColorIndex
 90
       18
102
RTVSPost2010Prop41ColorRGB
 90
        0
102
RTVSPost2010PropOp41
 70
     1
102
RTVSPost2010Prop42
 90
       50
102
RTVSPost2010PropOp42
 70
     1
102
RTVSPost2010Prop43
 90
        3
102
RTVSPost2010PropOp43
 70
     1
102
RTVSPost2010Prop44ColorIndex
 90
        5
102
RTVSPost2010Prop44ColorRGB
 90
      255
102
RTVSPost2010PropOp44
 70
     1
102
RTVSPost2010Prop45
280
     0
102
RTVSPost2010PropOp45
 70
     1
102
RTVSPost2010Prop46
 90
       50
102
RTVSPost2010PropOp46
 70
     1
102
RTVSPost2010Prop47
 90
       50
102
RTVSPost2010PropOp47
 70
     1
102
RTVSPost2010Prop48
 90
       50
102
RTVSPost2010PropOp48
 70
     1
102
RTVSPost2010Prop49
280
     0
102
RTVSPost2010PropOp49
 70
     1
102
RTVSPost2010Prop50
 90
       50
102
RTVSPost2010PropOp50
 70
     1
102
RTVSPost2010Prop51ColorIndex
 90
      256
102
RTVSPost2010Prop51ColorRGB
 90
-16777216
102
RTVSPost2010PropOp51
 70
     0
102
RTVSPost2010Prop52
140
1.0
102
RTVSPost2010PropOp52
 70
     0
102
RTVSPost2010Prop53
 90
        2
102
RTVSPost2010PropOp53
 70
     1
102
RTVSPost2010Prop54
  1
strokes_ogs.tif
102
RTVSPost2010PropOp54
 70
     1
102
RTVSPost2010Prop55
280
     0
102
RTVSPost2010PropOp55
 70
     1
102
RTVSPost2010Prop56
140
1.0
102
RTVSPost2010PropOp56
 70
     1
102
RTVSPost2010Prop57
140
1.0
102
RTVSPost2010PropOp57
 70
     1
  0
XRECORD
  5
2E2
102
{ACAD_REACTORS
330
2E1
102
}
330
2E1
100
AcDbXrecord
280
     1
102
RTVSPropertyOp0
 70
     1
102
RTVSPropertyOp1
 70
     1
102
RTVSPropertyOp2
 70
     1
102
RTVSPropertyOp3
 70
     1
102
RTVSPropertyOp4
 70
     1
102
RTVSPropertyOp5
 70
     1
102
RTVSPropertyOp6
 70
     1
102
RTVSPropertyOp7
 70
     1
102
RTVSPropertyOp8
 70
     1
102
RTVSPropertyOp9
 70
     1
102
RTVSPropertyOp10
 70
     1
102
RTVSPropertyOp11
 70
     1
102
RTVSPropertyOp12
 70
     1
102
RTVSPropertyOp13
 70
     1
102
RTVSPropertyOp14
 70
     1
102
RTVSPropertyOp15
 70
     1
102
RTVSPropertyOp16
 70
     1
102
RTVSPropertyOp17
 70
     1
102
RTVSPropertyOp18
 70
     1
102
RTVSPropertyOp19
 70
     1
102
RTVSPropertyOp20
 70
     1
102
RTVSPropertyOp21
 70
     1
102
RTVSPropertyOp22
 70
     1
102
RTVSPropertyOp23
 70
     1
102
RTVSPropertyOp24
 70
     1
102
RTVSPropertyOp25
 70
     1
102
RTVSPropertyOp26
 70
     1
102
RTVSPropertyOp27
 70
     1
102
RTVSPropertyOp28
 70
     1
102
RTVSPropertyOp29
 70
     1
102
RTVSPropertyOp30
 70
     1
102
RTVSPropertyOp31
 70
     1
102
RTVSPropertyOp32
 70
     1
102
RTVSPropertyOp33
 70
     1
102
RTVSPropertyOp34
 70
     1
102
RTVSPropertyOp35
 70
     1
102
RTVSPropertyOp36
 70
     1
102
RTVSPropertyOp37
 70
     1
102
RTVSPropertyOp38
 70
     1
102
RTVSPropertyOp39
 70
     1
102
RTVSPropertyOp40
 70
     1
102
RTVSPropertyOp41
 70
     1
102
RTVSPropertyOp42
 70
     1
102
RTVSPropertyOp43
 70
     1
102
RTVSPropertyOp44
 70
     1
102
RTVSPropertyOp45
 70
     1
102
RTVSPropertyOp46
 70
     1
102
RTVSPropertyOp47
 70
     1
102
RTVSPropertyOp48
 70
     1
102
RTVSPropertyOp49
 70
     1
102
RTVSPropertyOp50
 70
     1
102
RTVSPropertyOp51
 70
     0
102
RTVSPropertyOp52
 70
     0
102
RTVSPropertyOp53
 70
     1
102
RTVSPropertyOp54
 70
     1
102
RTVSPropertyOp55
 70
     1
102
RTVSPropertyOp56
 70
     1
102
RTVSPropertyOp57
 70
     1
102
RTVSPost2010Prop28
280
     0
102
RTVSPost2010PropOp28
 70
     1
102
RTVSPost2010Prop29
280
     1
102
RTVSPost2010PropOp29
 70
     1
102
RTVSPost2010Prop30
280
     1
102
RTVSPost2010PropOp30
 70
     1
102
RTVSPost2010Prop31
280
     0
102
RTVSPost2010PropOp31
 70
     1
102
RTVSPost2010Prop32
280
     0
102
RTVSPost2010PropOp32
 70
     1
102
RTVSPost2010Prop33
280
     0
102
RTVSPost2010PropOp33
 70
     1
102
RTVSPost2010Prop34
280
     0
102
RTVSPost2010PropOp34
 70
     1
102
RTVSPost2010Prop35
280
     0
102
RTVSPost2010PropOp35
 70
     1
102
RTVSPost2010Prop36
280
     0
102
RTVSPost2010PropOp36
 70
     1
102
RTVSPost2010Prop37
 90
       50
102
RTVSPost2010PropOp37
 70
     1
102
RTVSPost2010Prop38
140
0.0
102
RTVSPost2010PropOp38
 70
     1
102
RTVSPost2010Prop39
140
1.0
102
RTVSPost2010PropOp39
 70
     1
102
RTVSPost2010Prop40
 90
        0
102
RTVSPost2010PropOp40
 70
     1
102
RTVSPost2010Prop41ColorIndex
 90
       18
102
RTVSPost2010Prop41ColorRGB
 90
        0
102
RTVSPost2010PropOp41
 70
     1
102
RTVSPost2010Prop42
 90
       50
102
RTVSPost2010PropOp42
 70
     1
102
RTVSPost2010Prop43
 90
        3
102
RTVSPost2010PropOp43
 70
     1
102
RTVSPost2010Prop44ColorIndex
 90
        5
102
RTVSPost2010Prop44ColorRGB
 90
      255
102
RTVSPost2010PropOp44
 70
     1
102
RTVSPost2010Prop45
280
     0
102
RTVSPost2010PropOp45
 70
     1
102
RTVSPost2010Prop46
 90
       50
102
RTVSPost2010PropOp46
 70
     1
102
RTVSPost2010Prop47
 90
       50
102
RTVSPost2010PropOp47
 70
     1
102
RTVSPost2010Prop48
 90
       50
102
RTVSPost2010PropOp48
 70
     1
102
RTVSPost2010Prop49
280
     0
102
RTVSPost2010PropOp49
 70
     1
102
RTVSPost2010Prop50
 90
       50
102
RTVSPost2010PropOp50
 70
     1
102
RTVSPost2010Prop51ColorIndex
 90
      256
102
RTVSPost2010Prop51ColorRGB
 90
-16777216
102
RTVSPost2010PropOp51
 70
     0
102
RTVSPost2010Prop52
140
1.0
102
RTVSPost2010PropOp52
 70
     0
102
RTVSPost2010Prop53
 90
        2
102
RTVSPost2010PropOp53
 70
     1
102
RTVSPost2010Prop54
  1
strokes_ogs.tif
102
RTVSPost2010PropOp54
 70
     1
102
RTVSPost2010Prop55
280
     0
102
RTVSPost2010PropOp55
 70
     1
102
RTVSPost2010Prop56
140
1.0
102
RTVSPost2010PropOp56
 70
     1
102
RTVSPost2010Prop57
140
1.0
102
RTVSPost2010PropOp57
 70
     1
  0
ENDSEC
  0
EOF
