  0
SECTION
  2
HEADER
  9
$ACADVER
  1
AC1018
  9
$ACADMAINTVER
 70
     0
  9
$DWGCODEPAGE
  3
ANSI_936
  9
$INSBASE
 10
0.0
 20
0.0
 30
0.0
  9
$EXTMIN
 10
0.0000000000000147
 20
247.2995080498284
 30
0.0
  9
$EXTMAX
 10
79.28949672144722
 20
295.6397169028902
 30
0.0
  9
$LIMMIN
 10
0.0
 20
0.0
  9
$LIMMAX
 10
12.0
 20
9.0
  9
$ORTHOMODE
 70
     0
  9
$REGENMODE
 70
     1
  9
$FILLMODE
 70
     1
  9
$QTEXTMODE
 70
     0
  9
$MIRRTEXT
 70
     1
  9
$LTSCALE
 40
1.0
  9
$ATTMODE
 70
     1
  9
$TEXTSIZE
 40
0.2
  9
$TRACEWID
 40
0.05
  9
$TEXTSTYLE
  7
Standard
  9
$CLAYER
  8
0
  9
$CELTYPE
  6
ByLayer
  9
$CECOLOR
 62
   256
  9
$CELTSCALE
 40
1.0
  9
$DISPSILH
 70
     0
  9
$DIMSCALE
 40
1.0
  9
$DIMASZ
 40
0.18
  9
$DIMEXO
 40
0.0625
  9
$DIMDLI
 40
0.38
  9
$DIMRND
 40
0.0
  9
$DIMDLE
 40
0.0
  9
$DIMEXE
 40
0.18
  9
$DIMTP
 40
0.0
  9
$DIMTM
 40
0.0
  9
$DIMTXT
 40
0.18
  9
$DIMCEN
 40
0.09
  9
$DIMTSZ
 40
0.0
  9
$DIMTOL
 70
     0
  9
$DIMLIM
 70
     0
  9
$DIMTIH
 70
     1
  9
$DIMTOH
 70
     1
  9
$DIMSE1
 70
     0
  9
$DIMSE2
 70
     0
  9
$DIMTAD
 70
     0
  9
$DIMZIN
 70
     0
  9
$DIMBLK
  1

  9
$DIMASO
 70
     1
  9
$DIMSHO
 70
     1
  9
$DIMPOST
  1

  9
$DIMAPOST
  1

  9
$DIMALT
 70
     0
  9
$DIMALTD
 70
     2
  9
$DIMALTF
 40
25.4
  9
$DIMLFAC
 40
1.0
  9
$DIMTOFL
 70
     0
  9
$DIMTVP
 40
0.0
  9
$DIMTIX
 70
     0
  9
$DIMSOXD
 70
     0
  9
$DIMSAH
 70
     0
  9
$DIMBLK1
  1

  9
$DIMBLK2
  1

  9
$DIMSTYLE
  2
Standard
  9
$DIMCLRD
 70
     0
  9
$DIMCLRE
 70
     0
  9
$DIMCLRT
 70
     0
  9
$DIMTFAC
 40
1.0
  9
$DIMGAP
 40
0.09
  9
$DIMJUST
 70
     0
  9
$DIMSD1
 70
     0
  9
$DIMSD2
 70
     0
  9
$DIMTOLJ
 70
     1
  9
$DIMTZIN
 70
     0
  9
$DIMALTZ
 70
     0
  9
$DIMALTTZ
 70
     0
  9
$DIMUPT
 70
     0
  9
$DIMDEC
 70
     4
  9
$DIMTDEC
 70
     4
  9
$DIMALTU
 70
     2
  9
$DIMALTTD
 70
     2
  9
$DIMTXSTY
  7
Standard
  9
$DIMAUNIT
 70
     0
  9
$DIMADEC
 70
     0
  9
$DIMALTRND
 40
0.0
  9
$DIMAZIN
 70
     0
  9
$DIMDSEP
 70
    46
  9
$DIMATFIT
 70
     3
  9
$DIMFRAC
 70
     0
  9
$DIMLDRBLK
  1

  9
$DIMLUNIT
 70
     2
  9
$DIMLWD
 70
    -2
  9
$DIMLWE
 70
    -2
  9
$DIMTMOVE
 70
     2
  9
$LUNITS
 70
     2
  9
$LUPREC
 70
     3
  9
$SKETCHINC
 40
0.1
  9
$FILLETRAD
 40
0.5
  9
$AUNITS
 70
     0
  9
$AUPREC
 70
     0
  9
$MENU
  1
.
  9
$ELEVATION
 40
0.0
  9
$PELEVATION
 40
0.0
  9
$THICKNESS
 40
0.0
  9
$LIMCHECK
 70
     0
  9
$CHAMFERA
 40
0.5
  9
$CHAMFERB
 40
0.5
  9
$CHAMFERC
 40
1.0
  9
$CHAMFERD
 40
0.0
  9
$SKPOLY
 70
     0
  9
$TDCREATE
 40
2456849.709052199
  9
$TDUCREATE
 40
2456849.375718866
  9
$TDUPDATE
 40
2456849.709052893
  9
$TDUUPDATE
 40
2456849.37571956
  9
$TDINDWG
 40
0.0000000116
  9
$TDUSRTIMER
 40
0.0000000116
  9
$USRTIMER
 70
     1
  9
$ANGBASE
 50
0.0
  9
$ANGDIR
 70
     0
  9
$PDMODE
 70
     0
  9
$PDSIZE
 40
0.0
  9
$PLINEWID
 40
0.0
  9
$SPLFRAME
 70
     0
  9
$SPLINETYPE
 70
     6
  9
$SPLINESEGS
 70
     8
  9
$HANDSEED
  5
32F
  9
$SURFTAB1
 70
     6
  9
$SURFTAB2
 70
     6
  9
$SURFTYPE
 70
     6
  9
$SURFU
 70
     6
  9
$SURFV
 70
     6
  9
$UCSBASE
  2

  9
$UCSNAME
  2

  9
$UCSORG
 10
0.0
 20
0.0
 30
0.0
  9
$UCSXDIR
 10
1.0
 20
0.0
 30
0.0
  9
$UCSYDIR
 10
0.0
 20
1.0
 30
0.0
  9
$UCSORTHOREF
  2

  9
$UCSORTHOVIEW
 70
     0
  9
$UCSORGTOP
 10
0.0
 20
0.0
 30
0.0
  9
$UCSORGBOTTOM
 10
0.0
 20
0.0
 30
0.0
  9
$UCSORGLEFT
 10
0.0
 20
0.0
 30
0.0
  9
$UCSORGRIGHT
 10
0.0
 20
0.0
 30
0.0
  9
$UCSORGFRONT
 10
0.0
 20
0.0
 30
0.0
  9
$UCSORGBACK
 10
0.0
 20
0.0
 30
0.0
  9
$PUCSBASE
  2

  9
$PUCSNAME
  2

  9
$PUCSORG
 10
0.0
 20
0.0
 30
0.0
  9
$PUCSXDIR
 10
1.0
 20
0.0
 30
0.0
  9
$PUCSYDIR
 10
0.0
 20
1.0
 30
0.0
  9
$PUCSORTHOREF
  2

  9
$PUCSORTHOVIEW
 70
     0
  9
$PUCSORGTOP
 10
0.0
 20
0.0
 30
0.0
  9
$PUCSORGBOTTOM
 10
0.0
 20
0.0
 30
0.0
  9
$PUCSORGLEFT
 10
0.0
 20
0.0
 30
0.0
  9
$PUCSORGRIGHT
 10
0.0
 20
0.0
 30
0.0
  9
$PUCSORGFRONT
 10
0.0
 20
0.0
 30
0.0
  9
$PUCSORGBACK
 10
0.0
 20
0.0
 30
0.0
  9
$USERI1
 70
     0
  9
$USERI2
 70
     0
  9
$USERI3
 70
     0
  9
$USERI4
 70
     0
  9
$USERI5
 70
     0
  9
$USERR1
 40
0.0
  9
$USERR2
 40
0.0
  9
$USERR3
 40
0.0
  9
$USERR4
 40
0.0
  9
$USERR5
 40
0.0
  9
$WORLDVIEW
 70
     1
  9
$SHADEDGE
 70
     3
  9
$SHADEDIF
 70
    70
  9
$TILEMODE
 70
     1
  9
$MAXACTVP
 70
    64
  9
$PINSBASE
 10
0.0
 20
0.0
 30
0.0
  9
$PLIMCHECK
 70
     0
  9
$PEXTMIN
 10
1.000000000000000E+20
 20
1.000000000000000E+20
 30
1.000000000000000E+20
  9
$PEXTMAX
 10
-1.000000000000000E+20
 20
-1.000000000000000E+20
 30
-1.000000000000000E+20
  9
$PLIMMIN
 10
0.0
 20
0.0
  9
$PLIMMAX
 10
12.0
 20
9.0
  9
$UNITMODE
 70
     0
  9
$VISRETAIN
 70
     1
  9
$PLINEGEN
 70
     0
  9
$PSLTSCALE
 70
     1
  9
$TREEDEPTH
 70
  3020
  9
$CMLSTYLE
  2
Standard
  9
$CMLJUST
 70
     0
  9
$CMLSCALE
 40
1.0
  9
$PROXYGRAPHICS
 70
     1
  9
$MEASUREMENT
 70
     0
  9
$CELWEIGHT
370
    -1
  9
$ENDCAPS
280
     0
  9
$JOINSTYLE
280
     0
  9
$LWDISPLAY
290
     0
  9
$INSUNITS
 70
     4
  9
$HYPERLINKBASE
  1

  9
$STYLESHEET
  1

  9
$XEDIT
290
     1
  9
$CEPSNTYPE
380
     0
  9
$PSTYLEMODE
290
     1
  9
$FINGERPRINTGUID
  2
{2A97C18E-3D6B-40D2-862C-226C624891BB}
  9
$VERSIONGUID
  2
{FAEB1C32-E019-11D5-929B-00C0DF256EC4}
  9
$EXTNAMES
290
     1
  9
$PSVPSCALE
 40
0.0
  9
$OLESTARTUP
290
     0
  9
$SORTENTS
280
   127
  9
$INDEXCTL
280
     0
  9
$HIDETEXT
280
     1
  9
$XCLIPFRAME
290
     0
  9
$HALOGAP
280
     0
  9
$OBSCOLOR
 70
   257
  9
$OBSLTYPE
280
     0
  9
$INTERSECTIONDISPLAY
280
     0
  9
$INTERSECTIONCOLOR
 70
   257
  9
$DIMASSOC
280
     2
  9
$PROJECTNAME
  1

  0
ENDSEC
  0
SECTION
  2
CLASSES
  0
CLASS
  1
ACDBDICTIONARYWDFLT
  2
AcDbDictionaryWithDefault
  3
ObjectDBX Classes
 90
        0
 91
        4
280
     0
281
     0
  0
CLASS
  1
VISUALSTYLE
  2
AcDbVisualStyle
  3
ObjectDBX Classes
 90
     4095
 91
        4
280
     0
281
     0
  0
CLASS
  1
MATERIAL
  2
AcDbMaterial
  3
ObjectDBX Classes
 90
     1153
 91
        4
280
     0
281
     0
  0
CLASS
  1
SCALE
  2
AcDbScale
  3
ObjectDBX Classes
 90
     1153
 91
        4
280
     0
281
     0
  0
CLASS
  1
SUN
  2
AcDbSun
  3
SCENEOE
 90
     1153
 91
        4
280
     0
281
     0
  0
CLASS
  1
DICTIONARYVAR
  2
AcDbDictionaryVar
  3
ObjectDBX Classes
 90
        0
 91
        4
280
     0
281
     0
  0
ENDSEC
  0
SECTION
  2
TABLES
  0
TABLE
  2
VPORT
  5
8
330
0
100
AcDbSymbolTable
 70
     1
  0
VPORT
  5
29
330
8
100
AcDbSymbolTableRecord
100
AcDbViewportTableRecord
  2
*Active
 70
     0
 10
0.0
 20
0.0
 11
1.0
 21
1.0
 12
39.70932324838216
 22
271.4696124763593
 13
0.0
 23
0.0
 14
0.5
 24
0.5
 15
0.5
 25
0.5
 16
0.0
 26
0.0
 36
1.0
 17
0.0
 27
0.0
 37
0.0
 40
49.307013030123
 41
1.637567334198976
 42
50.0
 43
0.0
 44
0.0
 50
0.0
 51
0.0
 71
     0
 72
   100
 73
     1
 74
     3
 75
     0
 76
     0
 77
     0
 78
     0
281
     0
 65
     1
110
0.0
120
0.0
130
0.0
111
1.0
121
0.0
131
0.0
112
0.0
122
1.0
132
0.0
 79
     0
146
0.0
  0
ENDTAB
  0
TABLE
  2
LTYPE
  5
5
330
0
100
AcDbSymbolTable
 70
     1
  0
LTYPE
  5
14
330
5
100
AcDbSymbolTableRecord
100
AcDbLinetypeTableRecord
  2
ByBlock
 70
     0
  3

 72
    65
 73
     0
 40
0.0
  0
LTYPE
  5
15
330
5
100
AcDbSymbolTableRecord
100
AcDbLinetypeTableRecord
  2
ByLayer
 70
     0
  3

 72
    65
 73
     0
 40
0.0
  0
LTYPE
  5
16
330
5
100
AcDbSymbolTableRecord
100
AcDbLinetypeTableRecord
  2
Continuous
 70
     0
  3
Solid line
 72
    65
 73
     0
 40
0.0
  0
ENDTAB
  0
TABLE
  2
LAYER
  5
2
330
0
100
AcDbSymbolTable
 70
     2
  0
LAYER
  5
10
330
2
100
AcDbSymbolTableRecord
100
AcDbLayerTableRecord
  2
0
 70
     0
 62
     7
  6
Continuous
370
    -3
390
F
  0
LAYER
  5
62
330
2
100
AcDbSymbolTableRecord
100
AcDbLayerTableRecord
  2
Make2D$可见线$普通线
 70
     0
 62
    18
420
        0
  6
Continuous
370
    -3
390
F
  0
ENDTAB
  0
TABLE
  2
STYLE
  5
3
330
0
100
AcDbSymbolTable
 70
     1
  0
STYLE
  5
11
330
3
100
AcDbSymbolTableRecord
100
AcDbTextStyleTableRecord
  2
Standard
 70
     0
 40
0.0
 41
1.0
 50
0.0
 71
     0
 42
0.2
  3
txt
  4

  0
ENDTAB
  0
TABLE
  2
VIEW
  5
6
330
0
100
AcDbSymbolTable
 70
     0
  0
ENDTAB
  0
TABLE
  2
UCS
  5
7
330
0
100
AcDbSymbolTable
 70
     0
  0
ENDTAB
  0
TABLE
  2
APPID
  5
9
330
0
100
AcDbSymbolTable
 70
     1
  0
APPID
  5
12
330
9
100
AcDbSymbolTableRecord
100
AcDbRegAppTableRecord
  2
ACAD
 70
     0
  0
ENDTAB
  0
TABLE
  2
DIMSTYLE
  5
A
330
0
100
AcDbSymbolTable
 70
     1
100
AcDbDimStyleTable
  0
DIMSTYLE
105
27
330
A
100
AcDbSymbolTableRecord
100
AcDbDimStyleTableRecord
  2
Standard
 70
     0
178
     0
340
11
  0
ENDTAB
  0
TABLE
  2
BLOCK_RECORD
  5
1
330
0
100
AcDbSymbolTable
 70
     1
  0
BLOCK_RECORD
  5
1F
330
1
100
AcDbSymbolTableRecord
100
AcDbBlockTableRecord
  2
*Model_Space
340
22
  0
BLOCK_RECORD
  5
1B
330
1
100
AcDbSymbolTableRecord
100
AcDbBlockTableRecord
  2
*Paper_Space
340
1E
  0
BLOCK_RECORD
  5
23
330
1
100
AcDbSymbolTableRecord
100
AcDbBlockTableRecord
  2
*Paper_Space0
340
26
  0
ENDTAB
  0
ENDSEC
  0
SECTION
  2
BLOCKS
  0
BLOCK
  5
20
330
1F
100
AcDbEntity
  8
0
100
AcDbBlockBegin
  2
*Model_Space
 70
     0
 10
0.0
 20
0.0
 30
0.0
  3
*Model_Space
  1
*Model_Space
  0
ENDBLK
  5
21
330
1F
100
AcDbEntity
  8
0
100
AcDbBlockEnd
  0
BLOCK
  5
1C
330
1B
100
AcDbEntity
 67
     1
  8
0
100
AcDbBlockBegin
  2
*Paper_Space
 70
     0
 10
0.0
 20
0.0
 30
0.0
  3
*Paper_Space
  1
*Paper_Space
  0
ENDBLK
  5
1D
330
1B
100
AcDbEntity
 67
     1
  8
0
100
AcDbBlockEnd
  0
BLOCK
  5
24
330
23
100
AcDbEntity
  8
0
100
AcDbBlockBegin
  2
*Paper_Space0
 70
     0
 10
0.0
 20
0.0
 30
0.0
  3
*Paper_Space0
  1
*Paper_Space0
  0
ENDBLK
  5
25
330
23
100
AcDbEntity
  8
0
100
AcDbBlockEnd
  0
ENDSEC
  0
SECTION
  2
ENTITIES
  0
SPLINE
  5
63
330
1F
100
AcDbEntity
  8
Make2D$可见线$普通线
100
AcDbSpline
210
0.0
220
0.0
230
1.0
 70
    12
 71
     3
 72
    29
 73
    25
 74
     0
 42
0.000000001
 43
0.0000000001
 12
1.0
 22
0.0
 32
0.0
 13
1.0
 23
0.0
 33
0.0
 40
0.0
 40
0.0
 40
0.0
 40
0.0
 40
1.320464128283585
 40
1.320464128283585
 40
1.320464128283585
 40
3.142648684207785
 40
3.142648684207785
 40
3.142648684207785
 40
5.089617890507851
 40
5.089617890507851
 40
5.089617890507851
 40
7.165878774197775
 40
7.165878774197775
 40
7.165878774197775
 40
9.356553111898933
 40
9.356553111898933
 40
9.356553111898933
 40
11.61287499615842
 40
11.61287499615842
 40
11.61287499615842
 40
13.85617988907364
 40
13.85617988907364
 40
13.85617988907364
 40
14.08488266316195
 40
14.08488266316195
 40
14.08488266316195
 40
14.08488266316195
 10
39.6616168536719
 20
253.6646125170388
 30
0.0
 41
1.0
 10
39.24796904619021
 20
253.8152002452166
 30
0.0
 41
0.9997677652976416
 10
38.83049089380305
 20
253.9548181695371
 30
0.0
 41
0.9997677652976414
 10
38.4094732552538
 20
254.083369017619
 30
0.0
 41
1.0
 10
37.82839541307827
 20
254.2606067861279
 30
0.0
 41
0.9996310361928697
 10
37.24174328525407
 20
254.4184166913071
 30
0.0
 41
0.9996310361928694
 10
36.65016623198881
 20
254.5566240547267
 30
0.0
 41
1.0
 10
36.01806894864264
 20
254.7042391142454
 30
0.0
 41
0.9996451849914227
 10
35.38149265816214
 20
254.8311556529958
 30
0.0
 41
0.9996451849914227
 10
34.74111496101315
 20
254.9372385752995
 30
0.0
 41
1.0
 10
34.05820266941201
 20
255.0502950215482
 30
0.0
 41
0.9996523278040255
 10
33.37199575362056
 20
255.1412402071176
 30
0.0
 41
0.9996523278040258
 10
32.68320993883473
 20
255.209979274671
 30
0.0
 41
1.0
 10
31.95646429086758
 20
255.2824386832061
 30
0.0
 41
0.9996599887471788
 10
31.22777538431369
 20
255.3316533171044
 30
0.0
 41
0.9996599887471784
 10
30.49788650645709
 20
255.3575729757773
 30
0.0
 41
1.0
 10
29.74612989747433
 20
255.3842269764164
 30
0.0
 41
0.9996765155028824
 10
28.99390783347448
 20
255.3874520858987
 30
0.0
 41
0.9996765155028823
 10
28.24195031098586
 20
255.3672451744048
 30
0.0
 41
1.0
 10
27.49434186749037
 20
255.3471508459603
 30
0.0
 41
0.9997054781656671
 10
26.74766093902889
 20
255.3048453156679
 30
0.0
 41
0.999705478165667
 10
26.0025672671116
 20
255.2403659632347
 30
0.0
 41
1.0
 10
25.93505834063198
 20
255.2345324406527
 30
0.0
 41
1.0
 10
25.86781938555368
 20
255.2285409122355
 30
0.0
 41
1.0
 10
25.80085766719543
 20
255.2223967463157
 30
0.0
 41
1.0
  0
POLYLINE
  5
64
330
1F
100
AcDbEntity
  8
Make2D$可见线$普通线
100
AcDb2dPolyline
 66
     1
 10
0.0
 20
0.0
 30
0.0
  0
VERTEX
  5
65
330
64
100
AcDbEntity
  8
Make2D$可见线$普通线
100
AcDbVertex
100
AcDb2dVertex
 10
53.56555866740658
 20
250.0074975868129
 30
0.0
  0
VERTEX
  5
66
330
64
100
AcDbEntity
  8
Make2D$可见线$普通线
100
AcDbVertex
100
AcDb2dVertex
 10
53.54512049553522
 20
250.010846163236
 30
0.0
  0
VERTEX
  5
67
330
64
100
AcDbEntity
  8
Make2D$可见线$普通线
100
AcDbVertex
100
AcDb2dVertex
 10
53.5247277304583
 20
250.0147447431022
 30
0.0
  0
VERTEX
  5
68
330
64
100
AcDbEntity
  8
Make2D$可见线$普通线
100
AcDbVertex
100
AcDb2dVertex
 10
53.50440244964243
 20
250.0191929811212
 30
0.0
  0
VERTEX
  5
69
330
64
100
AcDbEntity
  8
Make2D$可见线$普通线
100
AcDbVertex
100
AcDb2dVertex
 10
53.48416677507429
 20
250.0241893540148
 30
0.0
  0
VERTEX
  5
6A
330
64
100
AcDbEntity
  8
Make2D$可见线$普通线
100
AcDbVertex
100
AcDb2dVertex
 10
53.46404279477992
 20
250.0297311543941
 30
0.0
  0
VERTEX
  5
6B
330
64
100
AcDbEntity
  8
Make2D$可见线$普通线
100
AcDbVertex
100
AcDb2dVertex
 10
53.44405248368527
 20
250.0358144909135
 30
0.0
  0
VERTEX
  5
6C
330
64
100
AcDbEntity
  8
Make2D$可见线$普通线
100
AcDbVertex
100
AcDb2dVertex
 10
53.42421762440419
 20
250.0424342947709
 30
0.0
  0
VERTEX
  5
6D
330
64
100
AcDbEntity
  8
Make2D$可见线$普通线
100
AcDbVertex
100
AcDb2dVertex
 10
53.40455972854775
 20
250.04958433256
 30
0.0
  0
VERTEX
  5
6E
330
64
100
AcDbEntity
  8
Make2D$可见线$普通线
100
AcDbVertex
100
AcDb2dVertex
 10
53.38509995914846
 20
250.0572572254183
 30
0.0
  0
VERTEX
  5
6F
330
64
100
AcDbEntity
  8
Make2D$可见线$普通线
100
AcDbVertex
100
AcDb2dVertex
 10
53.3658590547852
 20
250.0654444743515
 30
0.0
  0
VERTEX
  5
70
330
64
100
AcDbEntity
  8
Make2D$可见线$普通线
100
AcDbVertex
100
AcDb2dVertex
 10
53.34685725597938
 20
250.074136491552
 30
0.0
  0
VERTEX
  5
71
330
64
100
AcDbEntity
  8
Make2D$可见线$普通线
100
AcDbVertex
100
AcDb2dVertex
 10
53.32811423441036
 20
250.0833226374683
 30
0.0
  0
VERTEX
  5
72
330
64
100
AcDbEntity
  8
Make2D$可见线$普通线
100
AcDbVertex
100
AcDb2dVertex
 10
53.30964902546822
 20
250.0929912633294
 30
0.0
  0
VERTEX
  5
73
330
64
100
AcDbEntity
  8
Make2D$可见线$普通线
100
AcDbVertex
100
AcDb2dVertex
 10
53.29147996462608
 20
250.1031297587717
 30
0.0
  0
VERTEX
  5
74
330
64
100
AcDbEntity
  8
Make2D$可见线$普通线
100
AcDbVertex
100
AcDb2dVertex
 10
53.27362462807201
 20
250.1137246041691
 30
0.0
  0
VERTEX
  5
75
330
64
100
AcDbEntity
  8
Make2D$可见线$普通线
100
AcDbVertex
100
AcDb2dVertex
 10
53.2023103603733
 20
250.1592301494568
 30
0.0
  0
VERTEX
  5
76
330
64
100
AcDbEntity
  8
Make2D$可见线$普通线
100
AcDbVertex
100
AcDb2dVertex
 10
53.02396907735277
 20
250.2820875478493
 30
0.0
  0
VERTEX
  5
77
330
64
100
AcDbEntity
  8
Make2D$可见线$普通线
100
AcDbVertex
100
AcDb2dVertex
 10
53.02297333845484
 20
250.282774800867
 30
0.0
  0
SEQEND
  5
78
330
64
100
AcDbEntity
  8
Make2D$可见线$普通线
  0
LINE
  5
79
330
1F
100
AcDbEntity
  8
Make2D$可见线$普通线
100
AcDbLine
 10
42.99523895673241
 20
253.373099633668
 30
0.0
 11
42.99155441190631
 21
253.335410719128
 31
0.0
  0
POLYLINE
  5
7A
330
1F
100
AcDbEntity
  8
Make2D$可见线$普通线
100
AcDb2dPolyline
 66
     1
 10
0.0
 20
0.0
 30
0.0
  0
VERTEX
  5
7B
330
7A
100
AcDbEntity
  8
Make2D$可见线$普通线
100
AcDbVertex
100
AcDb2dVertex
 10
11.28153054997737
 20
256.4819612688489
 30
0.0
  0
VERTEX
  5
7C
330
7A
100
AcDbEntity
  8
Make2D$可见线$普通线
100
AcDbVertex
100
AcDb2dVertex
 10
3.448553841972941
 20
257.2638578817623
 30
0.0
  0
VERTEX
  5
7D
330
7A
100
AcDbEntity
  8
Make2D$可见线$普通线
100
AcDbVertex
100
AcDb2dVertex
 10
3.341805777890027
 20
257.3807799406399
 30
0.0
  0
VERTEX
  5
7E
330
7A
100
AcDbEntity
  8
Make2D$可见线$普通线
100
AcDbVertex
100
AcDb2dVertex
 10
3.23779943237047
 20
257.4988252158467
 30
0.0
  0
VERTEX
  5
7F
330
7A
100
AcDbEntity
  8
Make2D$可见线$普通线
100
AcDbVertex
100
AcDb2dVertex
 10
3.036880845626535
 20
257.7386821412227
 30
0.0
  0
VERTEX
  5
80
330
7A
100
AcDbEntity
  8
Make2D$可见线$普通线
100
AcDbVertex
100
AcDb2dVertex
 10
2.834875012701366
 20
257.9960662777672
 30
0.0
  0
VERTEX
  5
81
330
7A
100
AcDbEntity
  8
Make2D$可见线$普通线
100
AcDbVertex
100
AcDb2dVertex
 10
2.640724426632739
 20
258.2596155405134
 30
0.0
  0
VERTEX
  5
82
330
7A
100
AcDbEntity
  8
Make2D$可见线$普通线
100
AcDbVertex
100
AcDb2dVertex
 10
2.45470577073209
 20
258.5289660994914
 30
0.0
  0
VERTEX
  5
83
330
7A
100
AcDbEntity
  8
Make2D$可见线$普通线
100
AcDbVertex
100
AcDb2dVertex
 10
2.277073026176706
 20
258.8037379290923
 30
0.0
  0
VERTEX
  5
84
330
7A
100
AcDbEntity
  8
Make2D$可见线$普通线
100
AcDbVertex
100
AcDb2dVertex
 10
2.126342304823012
 20
259.0516780645368
 30
0.0
  0
VERTEX
  5
85
330
7A
100
AcDbEntity
  8
Make2D$可见线$普通线
100
AcDbVertex
100
AcDb2dVertex
 10
1.98180722087779
 20
259.3033847256961
 30
0.0
  0
VERTEX
  5
86
330
7A
100
AcDbEntity
  8
Make2D$可见线$普通线
100
AcDbVertex
100
AcDb2dVertex
 10
1.843606030645949
 20
259.5586239561866
 30
0.0
  0
VERTEX
  5
87
330
7A
100
AcDbEntity
  8
Make2D$可见线$普通线
100
AcDbVertex
100
AcDb2dVertex
 10
1.711865132765509
 20
259.8171551863113
 30
0.0
  0
VERTEX
  5
88
330
7A
100
AcDbEntity
  8
Make2D$可见线$普通线
100
AcDbVertex
100
AcDb2dVertex
 10
1.599587947995423
 20
260.0504041414047
 30
0.0
  0
VERTEX
  5
89
330
7A
100
AcDbEntity
  8
Make2D$可见线$普通线
100
AcDbVertex
100
AcDb2dVertex
 10
1.492090026403075
 20
260.2859536522055
 30
0.0
  0
VERTEX
  5
8A
330
7A
100
AcDbEntity
  8
Make2D$可见线$普通线
100
AcDbVertex
100
AcDb2dVertex
 10
1.389440563298591
 20
260.5236561193985
 30
0.0
  0
VERTEX
  5
8B
330
7A
100
AcDbEntity
  8
Make2D$可见线$普通线
100
AcDbVertex
100
AcDb2dVertex
 10
1.291702649843184
 20
260.7633612331226
 30
0.0
  0
VERTEX
  5
8C
330
7A
100
AcDbEntity
  8
Make2D$可见线$普通线
100
AcDbVertex
100
AcDb2dVertex
 10
1.127428025193014
 20
261.1996454402048
 30
0.0
  0
VERTEX
  5
8D
330
7A
100
AcDbEntity
  8
Make2D$可见线$普通线
100
AcDbVertex
100
AcDb2dVertex
 10
0.9779748624313807
 20
261.6412264789664
 30
0.0
  0
VERTEX
  5
8E
330
7A
100
AcDbEntity
  8
Make2D$可见线$普通线
100
AcDbVertex
100
AcDb2dVertex
 10
0.8541671412412316
 20
262.0479329172709
 30
0.0
  0
VERTEX
  5
8F
330
7A
100
AcDbEntity
  8
Make2D$可见线$普通线
100
AcDbVertex
100
AcDb2dVertex
 10
0.7418136758596822
 20
262.4579514261229
 30
0.0
  0
VERTEX
  5
90
330
7A
100
AcDbEntity
  8
Make2D$可见线$普通线
100
AcDbVertex
100
AcDb2dVertex
 10
0.648492539269631
 20
262.8362815227197
 30
0.0
  0
VERTEX
  5
91
330
7A
100
AcDbEntity
  8
Make2D$可见线$普通线
100
AcDbVertex
100
AcDb2dVertex
 10
0.5641408997058874
 20
263.2160557029529
 30
0.0
  0
VERTEX
  5
92
330
7A
100
AcDbEntity
  8
Make2D$可见线$普通线
100
AcDbVertex
100
AcDb2dVertex
 10
0.4950185794336672
 20
263.561487712361
 30
0.0
  0
VERTEX
  5
93
330
7A
100
AcDbEntity
  8
Make2D$可见线$普通线
100
AcDbVertex
100
AcDb2dVertex
 10
0.4325599996351584
 20
263.907644810521
 30
0.0
  0
VERTEX
  5
94
330
7A
100
AcDbEntity
  8
Make2D$可见线$普通线
100
AcDbVertex
100
AcDb2dVertex
 10
0.3353313939027192
 20
264.53528127358
 30
0.0
  0
VERTEX
  5
95
330
7A
100
AcDbEntity
  8
Make2D$可见线$普通线
100
AcDbVertex
100
AcDb2dVertex
 10
0.263325851208156
 20
265.1042648674775
 30
0.0
  0
VERTEX
  5
96
330
7A
100
AcDbEntity
  8
Make2D$可见线$普通线
100
AcDbVertex
100
AcDb2dVertex
 10
0.2178609630179199
 20
265.5356361210079
 30
0.0
  0
SEQEND
  5
97
330
7A
100
AcDbEntity
  8
Make2D$可见线$普通线
  0
POLYLINE
  5
98
330
1F
100
AcDbEntity
  8
Make2D$可见线$普通线
100
AcDb2dPolyline
 66
     1
 10
0.0
 20
0.0
 30
0.0
  0
VERTEX
  5
99
330
98
100
AcDbEntity
  8
Make2D$可见线$普通线
100
AcDbVertex
100
AcDb2dVertex
 10
61.03138446682004
 20
293.6755128889608
 30
0.0
 42
0.1869435416331107
  0
VERTEX
  5
9A
330
98
100
AcDbEntity
  8
Make2D$可见线$普通线
100
AcDbVertex
100
AcDb2dVertex
 10
60.56071102438553
 20
293.4350914319573
 30
0.0
  0
VERTEX
  5
9B
330
98
100
AcDbEntity
  8
Make2D$可见线$普通线
100
AcDbVertex
100
AcDb2dVertex
 10
60.54716942198003
 20
293.4247398895592
 30
0.0
  0
VERTEX
  5
9C
330
98
100
AcDbEntity
  8
Make2D$可见线$普通线
100
AcDbVertex
100
AcDb2dVertex
 10
60.52880539772179
 20
293.4113208707403
 30
0.0
  0
VERTEX
  5
9D
330
98
100
AcDbEntity
  8
Make2D$可见线$普通线
100
AcDbVertex
100
AcDb2dVertex
 10
60.47978872326902
 20
293.3771791402913
 30
0.0
  0
VERTEX
  5
9E
330
98
100
AcDbEntity
  8
Make2D$可见线$普通线
100
AcDbVertex
100
AcDb2dVertex
 10
60.41801828027106
 20
293.336463713512
 30
0.0
  0
VERTEX
  5
9F
330
98
100
AcDbEntity
  8
Make2D$可见线$普通线
100
AcDbVertex
100
AcDb2dVertex
 10
60.3478513479717
 20
293.2929720633043
 30
0.0
  0
VERTEX
  5
A0
330
98
100
AcDbEntity
  8
Make2D$可见线$普通线
100
AcDbVertex
100
AcDb2dVertex
 10
60.17068471661739
 20
293.1906733777342
 30
0.0
  0
VERTEX
  5
A1
330
98
100
AcDbEntity
  8
Make2D$可见线$普通线
100
AcDbVertex
100
AcDb2dVertex
 10
59.95358313629282
 20
293.0725493961978
 30
0.0
  0
VERTEX
  5
A2
330
98
100
AcDbEntity
  8
Make2D$可见线$普通线
100
AcDbVertex
100
AcDb2dVertex
 10
59.71648332006492
 20
292.950055892314
 30
0.0
  0
VERTEX
  5
A3
330
98
100
AcDbEntity
  8
Make2D$可见线$普通线
100
AcDbVertex
100
AcDb2dVertex
 10
59.21578435032474
 20
292.7077414616716
 30
0.0
  0
VERTEX
  5
A4
330
98
100
AcDbEntity
  8
Make2D$可见线$普通线
100
AcDbVertex
100
AcDb2dVertex
 10
58.70840776941424
 20
292.47973982409
 30
0.0
 42
-0.0138551035397305
  0
VERTEX
  5
A5
330
98
100
AcDbEntity
  8
Make2D$可见线$普通线
100
AcDbVertex
100
AcDb2dVertex
 10
57.35510879394246
 20
291.9374473115493
 30
0.0
 42
-0.0629177511554729
  0
VERTEX
  5
A6
330
98
100
AcDbEntity
  8
Make2D$可见线$普通线
100
AcDbVertex
100
AcDb2dVertex
 10
49.51040298379716
 20
290.1394029475013
 30
0.0
  0
SEQEND
  5
A7
330
98
100
AcDbEntity
  8
Make2D$可见线$普通线
  0
POLYLINE
  5
A8
330
1F
100
AcDbEntity
  8
Make2D$可见线$普通线
100
AcDb2dPolyline
 66
     1
 10
0.0
 20
0.0
 30
0.0
  0
VERTEX
  5
A9
330
A8
100
AcDbEntity
  8
Make2D$可见线$普通线
100
AcDbVertex
100
AcDb2dVertex
 10
0.2178793348470774
 20
277.2879593130259
 30
0.0
  0
VERTEX
  5
AA
330
A8
100
AcDbEntity
  8
Make2D$可见线$普通线
100
AcDbVertex
100
AcDb2dVertex
 10
0.2622889904290002
 20
277.7100418158083
 30
0.0
  0
VERTEX
  5
AB
330
A8
100
AcDbEntity
  8
Make2D$可见线$普通线
100
AcDbVertex
100
AcDb2dVertex
 10
0.3338227606772752
 20
278.2772876502354
 30
0.0
  0
VERTEX
  5
AC
330
A8
100
AcDbEntity
  8
Make2D$可见线$普通线
100
AcDbVertex
100
AcDb2dVertex
 10
0.430442681233984
 20
278.9033551046562
 30
0.0
  0
VERTEX
  5
AD
330
A8
100
AcDbEntity
  8
Make2D$可见线$普通线
100
AcDbVertex
100
AcDb2dVertex
 10
0.4925379548292908
 20
279.2488416546755
 30
0.0
  0
VERTEX
  5
AE
330
A8
100
AcDbEntity
  8
Make2D$可见线$普通线
100
AcDbVertex
100
AcDb2dVertex
 10
0.5612571127984196
 20
279.5936134709062
 30
0.0
  0
VERTEX
  5
AF
330
A8
100
AcDbEntity
  8
Make2D$可见线$普通线
100
AcDbVertex
100
AcDb2dVertex
 10
0.6451845117902956
 20
279.9729681191021
 30
0.0
  0
VERTEX
  5
B0
330
A8
100
AcDbEntity
  8
Make2D$可见线$普通线
100
AcDbVertex
100
AcDb2dVertex
 10
0.738042977531095
 20
280.3508943353319
 30
0.0
  0
VERTEX
  5
B1
330
A8
100
AcDbEntity
  8
Make2D$可见线$普通线
100
AcDbVertex
100
AcDb2dVertex
 10
0.8499331250082885
 20
280.760790295763
 30
0.0
  0
VERTEX
  5
B2
330
A8
100
AcDbEntity
  8
Make2D$可见线$普通线
100
AcDbVertex
100
AcDb2dVertex
 10
0.973248190414354
 20
281.1673951384839
 30
0.0
  0
VERTEX
  5
B3
330
A8
100
AcDbEntity
  8
Make2D$可见线$普通线
100
AcDbVertex
100
AcDb2dVertex
 10
1.122137438587318
 20
281.6089178233174
 30
0.0
  0
VERTEX
  5
B4
330
A8
100
AcDbEntity
  8
Make2D$可见线$普通线
100
AcDbVertex
100
AcDb2dVertex
 10
1.285816473885711
 20
282.0451740127841
 30
0.0
  0
VERTEX
  5
B5
330
A8
100
AcDbEntity
  8
Make2D$可见线$普通线
100
AcDbVertex
100
AcDb2dVertex
 10
1.383217402422345
 20
282.2848942358398
 30
0.0
  0
VERTEX
  5
B6
330
A8
100
AcDbEntity
  8
Make2D$可见线$普通线
100
AcDbVertex
100
AcDb2dVertex
 10
1.485521399341969
 20
282.5226222889941
 30
0.0
  0
VERTEX
  5
B7
330
A8
100
AcDbEntity
  8
Make2D$可见线$普通线
100
AcDbVertex
100
AcDb2dVertex
 10
1.592665813187446
 20
282.7582083871067
 30
0.0
  0
VERTEX
  5
B8
330
A8
100
AcDbEntity
  8
Make2D$可见线$普通线
100
AcDbVertex
100
AcDb2dVertex
 10
1.704581920261527
 20
282.9915054320924
 30
0.0
  0
VERTEX
  5
B9
330
A8
100
AcDbEntity
  8
Make2D$可见线$普通线
100
AcDbVertex
100
AcDb2dVertex
 10
1.835920374258794
 20
283.2501258117173
 30
0.0
  0
VERTEX
  5
BA
330
A8
100
AcDbEntity
  8
Make2D$可见线$普通线
100
AcDbVertex
100
AcDb2dVertex
 10
1.97371144124654
 20
283.5054692793848
 30
0.0
  0
VERTEX
  5
BB
330
A8
100
AcDbEntity
  8
Make2D$可见线$普通线
100
AcDbVertex
100
AcDb2dVertex
 10
2.11782948908246
 20
283.7572959120312
 30
0.0
  0
VERTEX
  5
BC
330
A8
100
AcDbEntity
  8
Make2D$可见线$普通线
100
AcDbVertex
100
AcDb2dVertex
 10
2.268137077164519
 20
284.005372350293
 30
0.0
  0
VERTEX
  5
BD
330
A8
100
AcDbEntity
  8
Make2D$可见线$普通线
100
AcDbVertex
100
AcDb2dVertex
 10
2.44534578234209
 20
284.2804080197653
 30
0.0
  0
VERTEX
  5
BE
330
A8
100
AcDbEntity
  8
Make2D$可见线$普通线
100
AcDbVertex
100
AcDb2dVertex
 10
2.630939921344138
 20
284.5500408559495
 30
0.0
  0
VERTEX
  5
BF
330
A8
100
AcDbEntity
  8
Make2D$可见线$普通线
100
AcDbVertex
100
AcDb2dVertex
 10
2.824666620237925
 20
284.8138912243716
 30
0.0
  0
VERTEX
  5
C0
330
A8
100
AcDbEntity
  8
Make2D$可见线$普通线
100
AcDbVertex
100
AcDb2dVertex
 10
3.026250347274844
 20
285.0715956008704
 30
0.0
  0
VERTEX
  5
C1
330
A8
100
AcDbEntity
  8
Make2D$可见线$普通线
100
AcDbVertex
100
AcDb2dVertex
 10
3.23262960015654
 20
285.3186718712863
 30
0.0
  0
VERTEX
  5
C2
330
A8
100
AcDbEntity
  8
Make2D$可见线$普通线
100
AcDbVertex
100
AcDb2dVertex
 10
3.448299969197837
 20
285.559899312897
 30
0.0
  0
VERTEX
  5
C3
330
A8
100
AcDbEntity
  8
Make2D$可见线$普通线
100
AcDbVertex
100
AcDb2dVertex
 10
32.5234876761705
 20
288.4542793355553
 30
0.0
  0
SEQEND
  5
C4
330
A8
100
AcDbEntity
  8
Make2D$可见线$普通线
  0
POLYLINE
  5
C5
330
1F
100
AcDbEntity
  8
Make2D$可见线$普通线
100
AcDb2dPolyline
 66
     1
 10
0.0
 20
0.0
 30
0.0
  0
VERTEX
  5
C6
330
C5
100
AcDbEntity
  8
Make2D$可见线$普通线
100
AcDbVertex
100
AcDb2dVertex
 10
41.60170985391948
 20
289.2856161718258
 30
0.0
 42
0.0563422110619278
  0
VERTEX
  5
C7
330
C5
100
AcDbEntity
  8
Make2D$可见线$普通线
100
AcDbVertex
100
AcDb2dVertex
 10
49.53837194001869
 20
290.0967521737452
 30
0.0
 42
0.3244282166001723
  0
VERTEX
  5
C8
330
C5
100
AcDbEntity
  8
Make2D$可见线$普通线
100
AcDbVertex
100
AcDb2dVertex
 10
49.48790443281927
 20
290.1351627170444
 30
0.0
 42
-0.0563667843031982
  0
VERTEX
  5
C9
330
C5
100
AcDbEntity
  8
Make2D$可见线$普通线
100
AcDbVertex
100
AcDb2dVertex
 10
41.59725993510072
 20
289.3349208031894
 30
0.0
 42
-0.0575549321338117
  0
VERTEX
  5
CA
330
C5
100
AcDbEntity
  8
Make2D$可见线$普通线
100
AcDbVertex
100
AcDb2dVertex
 10
32.54285751048014
 20
288.4541919327353
 30
0.0
 42
0.280222023276718
  0
VERTEX
  5
CB
330
C5
100
AcDbEntity
  8
Make2D$可见线$普通线
100
AcDbVertex
100
AcDb2dVertex
 10
32.49796504411866
 20
288.4086254766748
 30
0.0
  0
SEQEND
  5
CC
330
C5
100
AcDbEntity
  8
Make2D$可见线$普通线
  0
POLYLINE
  5
CD
330
1F
100
AcDbEntity
  8
Make2D$可见线$普通线
100
AcDb2dPolyline
 66
     1
 10
0.0
 20
0.0
 30
0.0
  0
VERTEX
  5
CE
330
CD
100
AcDbEntity
  8
Make2D$可见线$普通线
100
AcDbVertex
100
AcDb2dVertex
 10
49.53837194001869
 20
290.0967521737452
 30
0.0
  0
VERTEX
  5
CF
330
CD
100
AcDbEntity
  8
Make2D$可见线$普通线
100
AcDbVertex
100
AcDb2dVertex
 10
50.36508796913031
 20
290.1901594618845
 30
0.0
  0
VERTEX
  5
D0
330
CD
100
AcDbEntity
  8
Make2D$可见线$普通线
100
AcDbVertex
100
AcDb2dVertex
 10
51.18909224399085
 20
290.3048035371771
 30
0.0
  0
VERTEX
  5
D1
330
CD
100
AcDbEntity
  8
Make2D$可见线$普通线
100
AcDbVertex
100
AcDb2dVertex
 10
51.94475561685677
 20
290.429613021003
 30
0.0
  0
VERTEX
  5
D2
330
CD
100
AcDbEntity
  8
Make2D$可见线$普通线
100
AcDbVertex
100
AcDb2dVertex
 10
52.69724176596144
 20
290.5724552523841
 30
0.0
  0
VERTEX
  5
D3
330
CD
100
AcDbEntity
  8
Make2D$可见线$普通线
100
AcDbVertex
100
AcDb2dVertex
 10
53.49441575443091
 20
290.7437291792488
 30
0.0
  0
VERTEX
  5
D4
330
CD
100
AcDbEntity
  8
Make2D$可见线$普通线
100
AcDbVertex
100
AcDb2dVertex
 10
54.28706315924058
 20
290.9347096955869
 30
0.0
  0
VERTEX
  5
D5
330
CD
100
AcDbEntity
  8
Make2D$可见线$普通线
100
AcDbVertex
100
AcDb2dVertex
 10
55.07469119516625
 20
291.1454271884284
 30
0.0
  0
VERTEX
  5
D6
330
CD
100
AcDbEntity
  8
Make2D$可见线$普通线
100
AcDbVertex
100
AcDb2dVertex
 10
55.85680707698373
 20
291.3759120448033
 30
0.0
  0
VERTEX
  5
D7
330
CD
100
AcDbEntity
  8
Make2D$可见线$普通线
100
AcDbVertex
100
AcDb2dVertex
 10
56.66143735262224
 20
291.63605031965
 30
0.0
  0
VERTEX
  5
D8
330
CD
100
AcDbEntity
  8
Make2D$可见线$普通线
100
AcDbVertex
100
AcDb2dVertex
 10
57.45837525160108
 20
291.9187255595815
 30
0.0
  0
VERTEX
  5
D9
330
CD
100
AcDbEntity
  8
Make2D$可见线$普通线
100
AcDbVertex
100
AcDb2dVertex
 10
58.246386550681
 20
292.2251827726052
 30
0.0
  0
VERTEX
  5
DA
330
CD
100
AcDbEntity
  8
Make2D$可见线$普通线
100
AcDbVertex
100
AcDb2dVertex
 10
59.0242370266228
 20
292.5566669667282
 30
0.0
  0
VERTEX
  5
DB
330
CD
100
AcDbEntity
  8
Make2D$可见线$普通线
100
AcDbVertex
100
AcDb2dVertex
 10
59.362623347115
 20
292.7108308943539
 30
0.0
  0
VERTEX
  5
DC
330
CD
100
AcDbEntity
  8
Make2D$可见线$普通线
100
AcDbVertex
100
AcDb2dVertex
 10
59.69808683536075
 20
292.8711854750008
 30
0.0
  0
VERTEX
  5
DD
330
CD
100
AcDbEntity
  8
Make2D$可见线$普通线
100
AcDbVertex
100
AcDb2dVertex
 10
60.02990775518343
 20
293.0388419864925
 30
0.0
  0
VERTEX
  5
DE
330
CD
100
AcDbEntity
  8
Make2D$可见线$普通线
100
AcDbVertex
100
AcDb2dVertex
 10
60.35736637040637
 20
293.2149117066523
 30
0.0
  0
VERTEX
  5
DF
330
CD
100
AcDbEntity
  8
Make2D$可见线$普通线
100
AcDbVertex
100
AcDb2dVertex
 10
60.5992296059334
 20
293.3540028026821
 30
0.0
  0
VERTEX
  5
E0
330
CD
100
AcDbEntity
  8
Make2D$可见线$普通线
100
AcDbVertex
100
AcDb2dVertex
 10
60.71796510423673
 20
293.4271736531899
 30
0.0
  0
VERTEX
  5
E1
330
CD
100
AcDbEntity
  8
Make2D$可见线$普通线
100
AcDbVertex
100
AcDb2dVertex
 10
60.83463752708844
 20
293.503622353081
 30
0.0
  0
VERTEX
  5
E2
330
CD
100
AcDbEntity
  8
Make2D$可见线$普通线
100
AcDbVertex
100
AcDb2dVertex
 10
60.87134187280291
 20
293.5288773468125
 30
0.0
  0
VERTEX
  5
E3
330
CD
100
AcDbEntity
  8
Make2D$可见线$普通线
100
AcDbVertex
100
AcDb2dVertex
 10
60.90752564888567
 20
293.5548489377204
 30
0.0
  0
VERTEX
  5
E4
330
CD
100
AcDbEntity
  8
Make2D$可见线$普通线
100
AcDbVertex
100
AcDb2dVertex
 10
60.94292442554687
 20
293.5818537000694
 30
0.0
  0
VERTEX
  5
E5
330
CD
100
AcDbEntity
  8
Make2D$可见线$普通线
100
AcDbVertex
100
AcDb2dVertex
 10
60.96024680478507
 20
293.595842449992
 30
0.0
  0
VERTEX
  5
E6
330
CD
100
AcDbEntity
  8
Make2D$可见线$普通线
100
AcDbVertex
100
AcDb2dVertex
 10
60.9772737729967
 20
293.6102082081241
 30
0.0
  0
VERTEX
  5
E7
330
CD
100
AcDbEntity
  8
Make2D$可见线$普通线
100
AcDbVertex
100
AcDb2dVertex
 10
60.9887211842446
 20
293.6203130752671
 30
0.0
  0
VERTEX
  5
E8
330
CD
100
AcDbEntity
  8
Make2D$可见线$普通线
100
AcDbVertex
100
AcDb2dVertex
 10
60.99432797682064
 20
293.6254900391981
 30
0.0
  0
VERTEX
  5
E9
330
CD
100
AcDbEntity
  8
Make2D$可见线$普通线
100
AcDbVertex
100
AcDb2dVertex
 10
60.99982530526057
 20
293.6307773370543
 30
0.0
  0
VERTEX
  5
EA
330
CD
100
AcDbEntity
  8
Make2D$可见线$普通线
100
AcDbVertex
100
AcDb2dVertex
 10
61.00518952798626
 20
293.6361954540997
 30
0.0
  0
VERTEX
  5
EB
330
CD
100
AcDbEntity
  8
Make2D$可见线$普通线
100
AcDbVertex
100
AcDb2dVertex
 10
61.01039700341956
 20
293.6417648755985
 30
0.0
  0
VERTEX
  5
EC
330
CD
100
AcDbEntity
  8
Make2D$可见线$普通线
100
AcDbVertex
100
AcDb2dVertex
 10
61.01542408998237
 20
293.6475060868149
 30
0.0
  0
VERTEX
  5
ED
330
CD
100
AcDbEntity
  8
Make2D$可见线$普通线
100
AcDbVertex
100
AcDb2dVertex
 10
61.01786259944416
 20
293.6504475152122
 30
0.0
  0
VERTEX
  5
EE
330
CD
100
AcDbEntity
  8
Make2D$可见线$普通线
100
AcDbVertex
100
AcDb2dVertex
 10
61.02024714609653
 20
293.653439573013
 30
0.0
  0
VERTEX
  5
EF
330
CD
100
AcDbEntity
  8
Make2D$可见线$普通线
100
AcDbVertex
100
AcDb2dVertex
 10
61.02215324414179
 20
293.6559331371626
 30
0.0
  0
VERTEX
  5
F0
330
CD
100
AcDbEntity
  8
Make2D$可见线$普通线
100
AcDbVertex
100
AcDb2dVertex
 10
61.02398491212269
 20
293.6584758115276
 30
0.0
  0
VERTEX
  5
F1
330
CD
100
AcDbEntity
  8
Make2D$可见线$普通线
100
AcDbVertex
100
AcDb2dVertex
 10
61.02486152110107
 20
293.659769748728
 30
0.0
  0
VERTEX
  5
F2
330
CD
100
AcDbEntity
  8
Make2D$可见线$普通线
100
AcDbVertex
100
AcDb2dVertex
 10
61.02570594607785
 20
293.6610809839067
 30
0.0
  0
VERTEX
  5
F3
330
CD
100
AcDbEntity
  8
Make2D$可见线$普通线
100
AcDbVertex
100
AcDb2dVertex
 10
61.02651366155786
 20
293.6624111905385
 30
0.0
  0
VERTEX
  5
F4
330
CD
100
AcDbEntity
  8
Make2D$可见线$普通线
100
AcDbVertex
100
AcDb2dVertex
 10
61.02728014204592
 20
293.6637620420983
 30
0.0
  0
VERTEX
  5
F5
330
CD
100
AcDbEntity
  8
Make2D$可见线$普通线
100
AcDbVertex
100
AcDb2dVertex
 10
61.02800086204688
 20
293.6651352120608
 30
0.0
  0
VERTEX
  5
F6
330
CD
100
AcDbEntity
  8
Make2D$可见线$普通线
100
AcDbVertex
100
AcDb2dVertex
 10
61.02834264764745
 20
293.665830689404
 30
0.0
  0
VERTEX
  5
F7
330
CD
100
AcDbEntity
  8
Make2D$可见线$普通线
100
AcDbVertex
100
AcDb2dVertex
 10
61.02867129606555
 20
293.666532373901
 30
0.0
  0
VERTEX
  5
F8
330
CD
100
AcDbEntity
  8
Make2D$可见线$普通线
100
AcDbVertex
100
AcDb2dVertex
 10
61.02898624161429
 20
293.667240474736
 30
0.0
  0
VERTEX
  5
F9
330
CD
100
AcDbEntity
  8
Make2D$可见线$普通线
100
AcDbVertex
100
AcDb2dVertex
 10
61.02928691860676
 20
293.6679552010935
 30
0.0
  0
VERTEX
  5
FA
330
CD
100
AcDbEntity
  8
Make2D$可见线$普通线
100
AcDbVertex
100
AcDb2dVertex
 10
61.02957276135609
 20
293.6686767621578
 30
0.0
  0
VERTEX
  5
FB
330
CD
100
AcDbEntity
  8
Make2D$可见线$普通线
100
AcDbVertex
100
AcDb2dVertex
 10
61.02984320417536
 20
293.6694053671133
 30
0.0
  0
VERTEX
  5
FC
330
CD
100
AcDbEntity
  8
Make2D$可见线$普通线
100
AcDbVertex
100
AcDb2dVertex
 10
61.03009768137767
 20
293.6701412251442
 30
0.0
  0
VERTEX
  5
FD
330
CD
100
AcDbEntity
  8
Make2D$可见线$普通线
100
AcDbVertex
100
AcDb2dVertex
 10
61.03033562727614
 20
293.6708845454351
 30
0.0
  0
VERTEX
  5
FE
330
CD
100
AcDbEntity
  8
Make2D$可见线$普通线
100
AcDbVertex
100
AcDb2dVertex
 10
61.03055647618388
 20
293.6716355371701
 30
0.0
  0
VERTEX
  5
FF
330
CD
100
AcDbEntity
  8
Make2D$可见线$普通线
100
AcDbVertex
100
AcDb2dVertex
 10
61.03075966241397
 20
293.6723944095337
 30
0.0
  0
VERTEX
  5
100
330
CD
100
AcDbEntity
  8
Make2D$可见线$普通线
100
AcDbVertex
100
AcDb2dVertex
 10
61.03094462027953
 20
293.6731613717103
 30
0.0
  0
VERTEX
  5
101
330
CD
100
AcDbEntity
  8
Make2D$可见线$普通线
100
AcDbVertex
100
AcDb2dVertex
 10
61.03111078409366
 20
293.6739366328841
 30
0.0
  0
VERTEX
  5
102
330
CD
100
AcDbEntity
  8
Make2D$可见线$普通线
100
AcDbVertex
100
AcDb2dVertex
 10
61.03125758816947
 20
293.6747204022395
 30
0.0
  0
VERTEX
  5
103
330
CD
100
AcDbEntity
  8
Make2D$可见线$普通线
100
AcDbVertex
100
AcDb2dVertex
 10
61.03138446682004
 20
293.6755128889608
 30
0.0
  0
VERTEX
  5
104
330
CD
100
AcDbEntity
  8
Make2D$可见线$普通线
100
AcDbVertex
100
AcDb2dVertex
 10
79.2894966193557
 20
295.6397169028902
 30
0.0
  0
VERTEX
  5
105
330
CD
100
AcDbEntity
  8
Make2D$可见线$普通线
100
AcDbVertex
100
AcDb2dVertex
 10
79.28949662206287
 20
290.7090511788124
 30
0.0
  0
SEQEND
  5
106
330
CD
100
AcDbEntity
  8
Make2D$可见线$普通线
  0
POLYLINE
  5
107
330
1F
100
AcDbEntity
  8
Make2D$可见线$普通线
100
AcDb2dPolyline
 66
     1
 10
0.0
 20
0.0
 30
0.0
  0
VERTEX
  5
108
330
107
100
AcDbEntity
  8
Make2D$可见线$普通线
100
AcDbVertex
100
AcDb2dVertex
 10
3.466562129209024
 20
285.5233415679236
 30
0.0
  0
VERTEX
  5
109
330
107
100
AcDbEntity
  8
Make2D$可见线$普通线
100
AcDbVertex
100
AcDb2dVertex
 10
32.49796504411867
 20
288.4086254766749
 30
0.0
 42
0.0577524373264331
  0
VERTEX
  5
10A
330
107
100
AcDbEntity
  8
Make2D$可见线$普通线
100
AcDbVertex
100
AcDb2dVertex
 10
41.597655851138
 20
289.2858618316282
 30
0.0
  0
VERTEX
  5
10B
330
107
100
AcDbEntity
  8
Make2D$可见线$普通线
100
AcDbVertex
100
AcDb2dVertex
 10
41.59759778930049
 20
289.3328952020107
 30
0.0
  0
SEQEND
  5
10C
330
107
100
AcDbEntity
  8
Make2D$可见线$普通线
  0
POLYLINE
  5
10D
330
1F
100
AcDbEntity
  8
Make2D$可见线$普通线
100
AcDb2dPolyline
 66
     1
 10
0.0
 20
0.0
 30
0.0
  0
VERTEX
  5
10E
330
10D
100
AcDbEntity
  8
Make2D$可见线$普通线
100
AcDbVertex
100
AcDb2dVertex
 10
79.28949661789284
 20
283.7867166813626
 30
0.0
  0
VERTEX
  5
10F
330
10D
100
AcDbEntity
  8
Make2D$可见线$普通线
100
AcDbVertex
100
AcDb2dVertex
 10
79.28949662206286
 20
290.7090511788124
 30
0.0
 42
-0.0047242115275717
  0
VERTEX
  5
110
330
10D
100
AcDbEntity
  8
Make2D$可见线$普通线
100
AcDbVertex
100
AcDb2dVertex
 10
62.3557954498666
 20
288.4331682997638
 30
0.0
 42
0.0102630761736669
  0
VERTEX
  5
111
330
10D
100
AcDbEntity
  8
Make2D$可见线$普通线
100
AcDbVertex
100
AcDb2dVertex
 10
40.44806093503652
 20
286.004134611215
 30
0.0
  0
VERTEX
  5
112
330
10D
100
AcDbEntity
  8
Make2D$可见线$普通线
100
AcDbVertex
100
AcDb2dVertex
 10
37.38075745082661
 20
285.7124421644146
 30
0.0
 42
-0.003458194512434
  0
VERTEX
  5
113
330
10D
100
AcDbEntity
  8
Make2D$可见线$普通线
100
AcDbVertex
100
AcDb2dVertex
 10
19.29536247314357
 20
284.6279347811467
 30
0.0
  0
VERTEX
  5
114
330
10D
100
AcDbEntity
  8
Make2D$可见线$普通线
100
AcDbVertex
100
AcDb2dVertex
 10
8.444106928842501
 20
284.2951974747895
 30
0.0
 42
-0.0148700691696404
  0
VERTEX
  5
115
330
10D
100
AcDbEntity
  8
Make2D$可见线$普通线
100
AcDbVertex
100
AcDb2dVertex
 10
6.710166313155725
 20
284.293223483097
 30
0.0
  0
VERTEX
  5
116
330
10D
100
AcDbEntity
  8
Make2D$可见线$普通线
100
AcDbVertex
100
AcDb2dVertex
 10
6.169590700747502
 20
284.395292445863
 30
0.0
 42
-0.0923592188824919
  0
VERTEX
  5
117
330
10D
100
AcDbEntity
  8
Make2D$可见线$普通线
100
AcDbVertex
100
AcDb2dVertex
 10
3.50081231790452
 20
285.4881778849775
 30
0.0
  0
SEQEND
  5
118
330
10D
100
AcDbEntity
  8
Make2D$可见线$普通线
  0
POLYLINE
  5
119
330
1F
100
AcDbEntity
  8
Make2D$可见线$普通线
100
AcDb2dPolyline
 66
     1
 10
0.0
 20
0.0
 30
0.0
  0
VERTEX
  5
11A
330
119
100
AcDbEntity
  8
Make2D$可见线$普通线
100
AcDbVertex
100
AcDb2dVertex
 10
6.710166313155713
 20
284.293223483097
 30
0.0
  0
VERTEX
  5
11B
330
119
100
AcDbEntity
  8
Make2D$可见线$普通线
100
AcDbVertex
100
AcDb2dVertex
 10
6.52661540943291
 20
284.2254167777359
 30
0.0
  0
VERTEX
  5
11C
330
119
100
AcDbEntity
  8
Make2D$可见线$普通线
100
AcDbVertex
100
AcDb2dVertex
 10
6.345074109691678
 20
284.1526145573894
 30
0.0
  0
VERTEX
  5
11D
330
119
100
AcDbEntity
  8
Make2D$可见线$普通线
100
AcDbVertex
100
AcDb2dVertex
 10
6.165621167447684
 20
284.0749288108893
 30
0.0
  0
VERTEX
  5
11E
330
119
100
AcDbEntity
  8
Make2D$可见线$普通线
100
AcDbVertex
100
AcDb2dVertex
 10
5.988335336216595
 20
283.9924715270671
 30
0.0
  0
VERTEX
  5
11F
330
119
100
AcDbEntity
  8
Make2D$可见线$普通线
100
AcDbVertex
100
AcDb2dVertex
 10
5.813295369514076
 20
283.9053546947545
 30
0.0
  0
VERTEX
  5
120
330
119
100
AcDbEntity
  8
Make2D$可见线$普通线
100
AcDbVertex
100
AcDb2dVertex
 10
5.640580020855795
 20
283.8136903027834
 30
0.0
  0
VERTEX
  5
121
330
119
100
AcDbEntity
  8
Make2D$可见线$普通线
100
AcDbVertex
100
AcDb2dVertex
 10
5.470268043757417
 20
283.7175903399851
 30
0.0
  0
VERTEX
  5
122
330
119
100
AcDbEntity
  8
Make2D$可见线$普通线
100
AcDbVertex
100
AcDb2dVertex
 10
5.30243819173461
 20
283.6171667951913
 30
0.0
  0
VERTEX
  5
123
330
119
100
AcDbEntity
  8
Make2D$可见线$普通线
100
AcDbVertex
100
AcDb2dVertex
 10
5.137169218303039
 20
283.5125316572339
 30
0.0
  0
VERTEX
  5
124
330
119
100
AcDbEntity
  8
Make2D$可见线$普通线
100
AcDbVertex
100
AcDb2dVertex
 10
4.974539876978371
 20
283.4037969149445
 30
0.0
  0
VERTEX
  5
125
330
119
100
AcDbEntity
  8
Make2D$可见线$普通线
100
AcDbVertex
100
AcDb2dVertex
 10
4.81462892127627
 20
283.2910745571546
 30
0.0
  0
VERTEX
  5
126
330
119
100
AcDbEntity
  8
Make2D$可见线$普通线
100
AcDbVertex
100
AcDb2dVertex
 10
4.657515104712406
 20
283.174476572696
 30
0.0
  0
VERTEX
  5
127
330
119
100
AcDbEntity
  8
Make2D$可见线$普通线
100
AcDbVertex
100
AcDb2dVertex
 10
4.503277180802443
 20
283.0541149504003
 30
0.0
  0
VERTEX
  5
128
330
119
100
AcDbEntity
  8
Make2D$可见线$普通线
100
AcDbVertex
100
AcDb2dVertex
 10
4.351993903062048
 20
282.9301016790992
 30
0.0
  0
VERTEX
  5
129
330
119
100
AcDbEntity
  8
Make2D$可见线$普通线
100
AcDbVertex
100
AcDb2dVertex
 10
4.203744025006889
 20
282.8025487476242
 30
0.0
  0
VERTEX
  5
12A
330
119
100
AcDbEntity
  8
Make2D$可见线$普通线
100
AcDbVertex
100
AcDb2dVertex
 10
4.05860630015263
 20
282.6715681448072
 30
0.0
  0
VERTEX
  5
12B
330
119
100
AcDbEntity
  8
Make2D$可见线$普通线
100
AcDbVertex
100
AcDb2dVertex
 10
3.898533640600465
 20
282.5196801166744
 30
0.0
  0
VERTEX
  5
12C
330
119
100
AcDbEntity
  8
Make2D$可见线$普通线
100
AcDbVertex
100
AcDb2dVertex
 10
3.742522920545576
 20
282.3637159443525
 30
0.0
  0
VERTEX
  5
12D
330
119
100
AcDbEntity
  8
Make2D$可见线$普通线
100
AcDbVertex
100
AcDb2dVertex
 10
3.590567218069953
 20
282.2038274520109
 30
0.0
  0
VERTEX
  5
12E
330
119
100
AcDbEntity
  8
Make2D$可见线$普通线
100
AcDbVertex
100
AcDb2dVertex
 10
3.442659611255587
 20
282.0401664638188
 30
0.0
  0
VERTEX
  5
12F
330
119
100
AcDbEntity
  8
Make2D$可见线$普通线
100
AcDbVertex
100
AcDb2dVertex
 10
3.298793178184467
 20
281.8728848039454
 30
0.0
  0
VERTEX
  5
130
330
119
100
AcDbEntity
  8
Make2D$可见线$普通线
100
AcDbVertex
100
AcDb2dVertex
 10
3.158960996938582
 20
281.7021342965601
 30
0.0
  0
VERTEX
  5
131
330
119
100
AcDbEntity
  8
Make2D$可见线$普通线
100
AcDbVertex
100
AcDb2dVertex
 10
3.023156145599922
 20
281.5280667658322
 30
0.0
  0
VERTEX
  5
132
330
119
100
AcDbEntity
  8
Make2D$可见线$普通线
100
AcDbVertex
100
AcDb2dVertex
 10
2.891371702250477
 20
281.3508340359311
 30
0.0
  0
VERTEX
  5
133
330
119
100
AcDbEntity
  8
Make2D$可见线$普通线
100
AcDbVertex
100
AcDb2dVertex
 10
2.763600744972235
 20
281.1705879310259
 30
0.0
  0
VERTEX
  5
134
330
119
100
AcDbEntity
  8
Make2D$可见线$普通线
100
AcDbVertex
100
AcDb2dVertex
 10
2.639836351847188
 20
280.9874802752859
 30
0.0
  0
VERTEX
  5
135
330
119
100
AcDbEntity
  8
Make2D$可见线$普通线
100
AcDbVertex
100
AcDb2dVertex
 10
2.520071600957323
 20
280.8016628928805
 30
0.0
  0
VERTEX
  5
136
330
119
100
AcDbEntity
  8
Make2D$可见线$普通线
100
AcDbVertex
100
AcDb2dVertex
 10
2.40429957038463
 20
280.6132876079788
 30
0.0
  0
VERTEX
  5
137
330
119
100
AcDbEntity
  8
Make2D$可见线$普通线
100
AcDbVertex
100
AcDb2dVertex
 10
2.2925133382111
 20
280.4225062447504
 30
0.0
  0
VERTEX
  5
138
330
119
100
AcDbEntity
  8
Make2D$可见线$普通线
100
AcDbVertex
100
AcDb2dVertex
 10
2.184705982518722
 20
280.2294706273643
 30
0.0
  0
VERTEX
  5
139
330
119
100
AcDbEntity
  8
Make2D$可见线$普通线
100
AcDbVertex
100
AcDb2dVertex
 10
2.080870581389485
 20
280.0343325799901
 30
0.0
  0
VERTEX
  5
13A
330
119
100
AcDbEntity
  8
Make2D$可见线$普通线
100
AcDbVertex
100
AcDb2dVertex
 10
1.981000212905379
 20
279.8372439267966
 30
0.0
  0
VERTEX
  5
13B
330
119
100
AcDbEntity
  8
Make2D$可见线$普通线
100
AcDbVertex
100
AcDb2dVertex
 10
1.876844991171123
 20
279.6208095796522
 30
0.0
  0
VERTEX
  5
13C
330
119
100
AcDbEntity
  8
Make2D$可见线$普通线
100
AcDbVertex
100
AcDb2dVertex
 10
1.777268312167306
 20
279.4023519759849
 30
0.0
  0
VERTEX
  5
13D
330
119
100
AcDbEntity
  8
Make2D$可见线$普通线
100
AcDbVertex
100
AcDb2dVertex
 10
1.68216553883973
 20
279.1819761518939
 30
0.0
  0
VERTEX
  5
13E
330
119
100
AcDbEntity
  8
Make2D$可见线$普通线
100
AcDbVertex
100
AcDb2dVertex
 10
1.591432034134197
 20
278.9597871434787
 30
0.0
  0
VERTEX
  5
13F
330
119
100
AcDbEntity
  8
Make2D$可见线$普通线
100
AcDbVertex
100
AcDb2dVertex
 10
1.504963160996509
 20
278.7358899868386
 30
0.0
  0
VERTEX
  5
140
330
119
100
AcDbEntity
  8
Make2D$可见线$普通线
100
AcDbVertex
100
AcDb2dVertex
 10
1.422654282372466
 20
278.510389718073
 30
0.0
  0
VERTEX
  5
141
330
119
100
AcDbEntity
  8
Make2D$可见线$普通线
100
AcDbVertex
100
AcDb2dVertex
 10
1.270097960448529
 20
278.0549999885627
 30
0.0
  0
VERTEX
  5
142
330
119
100
AcDbEntity
  8
Make2D$可见线$普通线
100
AcDbVertex
100
AcDb2dVertex
 10
1.132925971928798
 20
277.5944582437427
 30
0.0
  0
VERTEX
  5
143
330
119
100
AcDbEntity
  8
Make2D$可见线$普通线
100
AcDbVertex
100
AcDb2dVertex
 10
1.010301220379689
 20
277.129604772408
 30
0.0
  0
VERTEX
  5
144
330
119
100
AcDbEntity
  8
Make2D$可见线$普通线
100
AcDbVertex
100
AcDb2dVertex
 10
0.9013866093676164
 20
276.6612798633533
 30
0.0
  0
VERTEX
  5
145
330
119
100
AcDbEntity
  8
Make2D$可见线$普通线
100
AcDbVertex
100
AcDb2dVertex
 10
0.8053450424589946
 20
276.1903238053737
 30
0.0
  0
VERTEX
  5
146
330
119
100
AcDbEntity
  8
Make2D$可见线$普通线
100
AcDbVertex
100
AcDb2dVertex
 10
0.7022050288623498
 20
275.599058530767
 30
0.0
  0
VERTEX
  5
147
330
119
100
AcDbEntity
  8
Make2D$可见线$普通线
100
AcDbVertex
100
AcDb2dVertex
 10
0.6166775354366354
 20
275.0053453714352
 30
0.0
  0
VERTEX
  5
148
330
119
100
AcDbEntity
  8
Make2D$可见线$普通线
100
AcDbVertex
100
AcDb2dVertex
 10
0.5475730361264628
 20
274.4095340482825
 30
0.0
  0
VERTEX
  5
149
330
119
100
AcDbEntity
  8
Make2D$可见线$普通线
100
AcDbVertex
100
AcDb2dVertex
 10
0.4937020048764436
 20
273.8119742822129
 30
0.0
  0
VERTEX
  5
14A
330
119
100
AcDbEntity
  8
Make2D$可见线$普通线
100
AcDbVertex
100
AcDb2dVertex
 10
0.4538749156311893
 20
273.2130157941301
 30
0.0
  0
VERTEX
  5
14B
330
119
100
AcDbEntity
  8
Make2D$可见线$普通线
100
AcDbVertex
100
AcDb2dVertex
 10
0.4269022423353115
 20
272.6130083049383
 30
0.0
  0
VERTEX
  5
14C
330
119
100
AcDbEntity
  8
Make2D$可见线$普通线
100
AcDbVertex
100
AcDb2dVertex
 10
0.4115944589334216
 20
272.0123015355414
 30
0.0
  0
VERTEX
  5
14D
330
119
100
AcDbEntity
  8
Make2D$可见线$普通线
100
AcDbVertex
100
AcDb2dVertex
 10
0.4116112620683044
 20
270.8102352578595
 30
0.0
  0
VERTEX
  5
14E
330
119
100
AcDbEntity
  8
Make2D$可见线$普通线
100
AcDbVertex
100
AcDb2dVertex
 10
0.4269344832029864
 20
270.2095751859671
 30
0.0
  0
VERTEX
  5
14F
330
119
100
AcDbEntity
  8
Make2D$可见线$普通线
100
AcDbVertex
100
AcDb2dVertex
 10
0.4539212913278798
 20
269.6096147066797
 30
0.0
  0
VERTEX
  5
150
330
119
100
AcDbEntity
  8
Make2D$可见线$普通线
100
AcDbVertex
100
AcDb2dVertex
 10
0.4937612749966875
 20
269.0107035355107
 30
0.0
  0
VERTEX
  5
151
330
119
100
AcDbEntity
  8
Make2D$可见线$普通线
100
AcDbVertex
100
AcDb2dVertex
 10
0.5476440227631122
 20
268.4131913879737
 30
0.0
  0
VERTEX
  5
152
330
119
100
AcDbEntity
  8
Make2D$可见线$普通线
100
AcDbVertex
100
AcDb2dVertex
 10
0.6167591231808567
 20
267.8174279795821
 30
0.0
  0
VERTEX
  5
153
330
119
100
AcDbEntity
  8
Make2D$可见线$普通线
100
AcDbVertex
100
AcDb2dVertex
 10
0.7022961648036239
 20
267.2237630258495
 30
0.0
  0
VERTEX
  5
154
330
119
100
AcDbEntity
  8
Make2D$可见线$普通线
100
AcDbVertex
100
AcDb2dVertex
 10
0.8054447361851165
 20
266.6325462422892
 30
0.0
  0
VERTEX
  5
155
330
119
100
AcDbEntity
  8
Make2D$可见线$普通线
100
AcDbVertex
100
AcDb2dVertex
 10
0.9014904165422846
 20
266.161638395187
 30
0.0
  0
VERTEX
  5
156
330
119
100
AcDbEntity
  8
Make2D$可见线$普通线
100
AcDbVertex
100
AcDb2dVertex
 10
1.010407743882797
 20
265.6933616674058
 30
0.0
  0
VERTEX
  5
157
330
119
100
AcDbEntity
  8
Make2D$可见线$普通线
100
AcDbVertex
100
AcDb2dVertex
 10
1.133033484285355
 20
265.2285562092164
 30
0.0
  0
VERTEX
  5
158
330
119
100
AcDbEntity
  8
Make2D$可见线$普通线
100
AcDbVertex
100
AcDb2dVertex
 10
1.270204403828661
 20
264.7680621708892
 30
0.0
  0
VERTEX
  5
159
330
119
100
AcDbEntity
  8
Make2D$可见线$普通线
100
AcDbVertex
100
AcDb2dVertex
 10
1.422757268591418
 20
264.3127197026947
 30
0.0
  0
VERTEX
  5
15A
330
119
100
AcDbEntity
  8
Make2D$可见线$普通线
100
AcDbVertex
100
AcDb2dVertex
 10
1.505063419829686
 20
264.0872428543567
 30
0.0
  0
VERTEX
  5
15B
330
119
100
AcDbEntity
  8
Make2D$可见线$普通线
100
AcDbVertex
100
AcDb2dVertex
 10
1.591528844652328
 20
263.8633689549034
 30
0.0
  0
VERTEX
  5
15C
330
119
100
AcDbEntity
  8
Make2D$可见线$普通线
100
AcDbVertex
100
AcDb2dVertex
 10
1.682258138819185
 20
263.6412030231186
 30
0.0
  0
VERTEX
  5
15D
330
119
100
AcDbEntity
  8
Make2D$可见线$普通线
100
AcDbVertex
100
AcDb2dVertex
 10
1.777355898090094
 20
263.4208500777859
 30
0.0
  0
VERTEX
  5
15E
330
119
100
AcDbEntity
  8
Make2D$可见线$普通线
100
AcDbVertex
100
AcDb2dVertex
 10
1.876926718224892
 20
263.2024151376894
 30
0.0
  0
VERTEX
  5
15F
330
119
100
AcDbEntity
  8
Make2D$可见线$普通线
100
AcDbVertex
100
AcDb2dVertex
 10
1.981075194983417
 20
262.9860032216128
 30
0.0
  0
VERTEX
  5
160
330
119
100
AcDbEntity
  8
Make2D$可见线$普通线
100
AcDbVertex
100
AcDb2dVertex
 10
2.080939605828078
 20
262.7889329360509
 30
0.0
  0
VERTEX
  5
161
330
119
100
AcDbEntity
  8
Make2D$可见线$普通线
100
AcDbVertex
100
AcDb2dVertex
 10
2.184768355720766
 20
262.593813044782
 30
0.0
  0
VERTEX
  5
162
330
119
100
AcDbEntity
  8
Make2D$可见线$普通线
100
AcDbVertex
100
AcDb2dVertex
 10
2.292568374906782
 20
262.4007953343707
 30
0.0
  0
VERTEX
  5
163
330
119
100
AcDbEntity
  8
Make2D$可见线$普通线
100
AcDbVertex
100
AcDb2dVertex
 10
2.404346593631424
 20
262.2100315913815
 30
0.0
  0
VERTEX
  5
164
330
119
100
AcDbEntity
  8
Make2D$可见线$普通线
100
AcDbVertex
100
AcDb2dVertex
 10
2.520109942139992
 20
262.0216736023789
 30
0.0
  0
VERTEX
  5
165
330
119
100
AcDbEntity
  8
Make2D$可见线$普通线
100
AcDbVertex
100
AcDb2dVertex
 10
2.639865350677784
 20
261.8358731539277
 30
0.0
  0
VERTEX
  5
166
330
119
100
AcDbEntity
  8
Make2D$可见线$普通线
100
AcDbVertex
100
AcDb2dVertex
 10
2.7636197494901
 20
261.652782032592
 30
0.0
  0
VERTEX
  5
167
330
119
100
AcDbEntity
  8
Make2D$可见线$普通线
100
AcDbVertex
100
AcDb2dVertex
 10
2.89138006882224
 20
261.4725520249365
 30
0.0
  0
VERTEX
  5
168
330
119
100
AcDbEntity
  8
Make2D$可见线$普通线
100
AcDbVertex
100
AcDb2dVertex
 10
3.023153238919502
 20
261.2953349175258
 30
0.0
  0
VERTEX
  5
169
330
119
100
AcDbEntity
  8
Make2D$可见线$普通线
100
AcDbVertex
100
AcDb2dVertex
 10
3.158946190027185
 20
261.1212824969244
 30
0.0
  0
VERTEX
  5
16A
330
119
100
AcDbEntity
  8
Make2D$可见线$普通线
100
AcDbVertex
100
AcDb2dVertex
 10
3.298765852390589
 20
260.9505465496969
 30
0.0
  0
VERTEX
  5
16B
330
119
100
AcDbEntity
  8
Make2D$可见线$普通线
100
AcDbVertex
100
AcDb2dVertex
 10
3.442619156255012
 20
260.7832788624076
 30
0.0
  0
VERTEX
  5
16C
330
119
100
AcDbEntity
  8
Make2D$可见线$普通线
100
AcDbVertex
100
AcDb2dVertex
 10
3.590513031865755
 20
260.6196312216212
 30
0.0
  0
VERTEX
  5
16D
330
119
100
AcDbEntity
  8
Make2D$可见线$普通线
100
AcDbVertex
100
AcDb2dVertex
 10
3.742454409468116
 20
260.4597554139023
 30
0.0
  0
VERTEX
  5
16E
330
119
100
AcDbEntity
  8
Make2D$可见线$普通线
100
AcDbVertex
100
AcDb2dVertex
 10
3.898450219307394
 20
260.3038032258154
 30
0.0
  0
VERTEX
  5
16F
330
119
100
AcDbEntity
  8
Make2D$可见线$普通线
100
AcDbVertex
100
AcDb2dVertex
 10
4.058507391628889
 20
260.1519264439248
 30
0.0
  0
VERTEX
  5
170
330
119
100
AcDbEntity
  8
Make2D$可见线$普通线
100
AcDbVertex
100
AcDb2dVertex
 10
4.203649636489428
 20
260.0209386613053
 30
0.0
  0
VERTEX
  5
171
330
119
100
AcDbEntity
  8
Make2D$可见线$普通线
100
AcDbVertex
100
AcDb2dVertex
 10
4.351904373544947
 20
259.8933787836133
 30
0.0
  0
VERTEX
  5
172
330
119
100
AcDbEntity
  8
Make2D$可见线$普通线
100
AcDbVertex
100
AcDb2dVertex
 10
4.50319282030927
 20
259.7693587957742
 30
0.0
  0
VERTEX
  5
173
330
119
100
AcDbEntity
  8
Make2D$可见线$普通线
100
AcDbVertex
100
AcDb2dVertex
 10
4.657436194296217
 20
259.6489906827132
 30
0.0
  0
VERTEX
  5
174
330
119
100
AcDbEntity
  8
Make2D$可见线$普通线
100
AcDbVertex
100
AcDb2dVertex
 10
4.814555713019613
 20
259.5323864293558
 30
0.0
  0
VERTEX
  5
175
330
119
100
AcDbEntity
  8
Make2D$可见线$普通线
100
AcDbVertex
100
AcDb2dVertex
 10
4.97447259399328
 20
259.4196580206269
 30
0.0
  0
VERTEX
  5
176
330
119
100
AcDbEntity
  8
Make2D$可见线$普通线
100
AcDbVertex
100
AcDb2dVertex
 10
5.13710805473104
 20
259.3109174414519
 30
0.0
  0
VERTEX
  5
177
330
119
100
AcDbEntity
  8
Make2D$可见线$普通线
100
AcDbVertex
100
AcDb2dVertex
 10
5.302383312746716
 20
259.2062766767561
 30
0.0
  0
VERTEX
  5
178
330
119
100
AcDbEntity
  8
Make2D$可见线$普通线
100
AcDbVertex
100
AcDb2dVertex
 10
5.470219585554132
 20
259.1058477114649
 30
0.0
  0
VERTEX
  5
179
330
119
100
AcDbEntity
  8
Make2D$可见线$普通线
100
AcDbVertex
100
AcDb2dVertex
 10
5.640538090667111
 20
259.0097425305033
 30
0.0
  0
VERTEX
  5
17A
330
119
100
AcDbEntity
  8
Make2D$可见线$普通线
100
AcDbVertex
100
AcDb2dVertex
 10
5.813260045599473
 20
258.9180731187967
 30
0.0
  0
VERTEX
  5
17B
330
119
100
AcDbEntity
  8
Make2D$可见线$普通线
100
AcDbVertex
100
AcDb2dVertex
 10
5.988306667865044
 20
258.8309514612703
 30
0.0
  0
VERTEX
  5
17C
330
119
100
AcDbEntity
  8
Make2D$可见线$普通线
100
AcDbVertex
100
AcDb2dVertex
 10
6.165599174977645
 20
258.7484895428495
 30
0.0
  0
VERTEX
  5
17D
330
119
100
AcDbEntity
  8
Make2D$可见线$普通线
100
AcDbVertex
100
AcDb2dVertex
 10
6.345058784451098
 20
258.6707993484595
 30
0.0
  0
VERTEX
  5
17E
330
119
100
AcDbEntity
  8
Make2D$可见线$普通线
100
AcDbVertex
100
AcDb2dVertex
 10
6.526606713799227
 20
258.5979928630255
 30
0.0
  0
VERTEX
  5
17F
330
119
100
AcDbEntity
  8
Make2D$可见线$普通线
100
AcDbVertex
100
AcDb2dVertex
 10
6.710164180535855
 20
258.5301820714728
 30
0.0
  0
VERTEX
  5
180
330
119
100
AcDbEntity
  8
Make2D$可见线$普通线
100
AcDbVertex
100
AcDb2dVertex
 10
6.169319572667506
 20
258.4280859833102
 30
0.0
 42
0.0924481121805973
  0
VERTEX
  5
181
330
119
100
AcDbEntity
  8
Make2D$可见线$普通线
100
AcDbVertex
100
AcDb2dVertex
 10
3.500812563433724
 20
257.3352282577683
 30
0.0
  0
SEQEND
  5
182
330
119
100
AcDbEntity
  8
Make2D$可见线$普通线
  0
POLYLINE
  5
183
330
1F
100
AcDbEntity
  8
Make2D$可见线$普通线
100
AcDb2dPolyline
 66
     1
 10
0.0
 20
0.0
 30
0.0
  0
VERTEX
  5
184
330
183
100
AcDbEntity
  8
Make2D$可见线$普通线
100
AcDbVertex
100
AcDb2dVertex
 10
79.28949672144722
 20
249.3282511743568
 30
0.0
  0
VERTEX
  5
185
330
183
100
AcDbEntity
  8
Make2D$可见线$普通线
100
AcDbVertex
100
AcDb2dVertex
 10
79.28949661789284
 20
283.786716681363
 30
0.0
 42
0.0026465620120359
  0
VERTEX
  5
186
330
183
100
AcDbEntity
  8
Make2D$可见线$普通线
100
AcDbVertex
100
AcDb2dVertex
 10
19.32819564926215
 20
283.873074448481
 30
0.0
 42
-0.0052822466383275
  0
VERTEX
  5
187
330
183
100
AcDbEntity
  8
Make2D$可见线$普通线
100
AcDbVertex
100
AcDb2dVertex
 10
8.52091693426651
 20
282.730266677748
 30
0.0
  0
VERTEX
  5
188
330
183
100
AcDbEntity
  8
Make2D$可见线$普通线
100
AcDbVertex
100
AcDb2dVertex
 10
8.438369688214115
 20
282.7222305152691
 30
0.0
  0
VERTEX
  5
189
330
183
100
AcDbEntity
  8
Make2D$可见线$普通线
100
AcDbVertex
100
AcDb2dVertex
 10
8.35605166555084
 20
282.7125556956106
 30
0.0
  0
VERTEX
  5
18A
330
183
100
AcDbEntity
  8
Make2D$可见线$普通线
100
AcDbVertex
100
AcDb2dVertex
 10
8.273982490153434
 20
282.7012623291563
 30
0.0
  0
VERTEX
  5
18B
330
183
100
AcDbEntity
  8
Make2D$可见线$普通线
100
AcDbVertex
100
AcDb2dVertex
 10
8.192181785898644
 20
282.6883705262899
 30
0.0
  0
VERTEX
  5
18C
330
183
100
AcDbEntity
  8
Make2D$可见线$普通线
100
AcDbVertex
100
AcDb2dVertex
 10
8.110669176663219
 20
282.673900397395
 30
0.0
  0
VERTEX
  5
18D
330
183
100
AcDbEntity
  8
Make2D$可见线$普通线
100
AcDbVertex
100
AcDb2dVertex
 10
8.029464286323911
 20
282.6578720528553
 30
0.0
  0
VERTEX
  5
18E
330
183
100
AcDbEntity
  8
Make2D$可见线$普通线
100
AcDbVertex
100
AcDb2dVertex
 10
7.948586738757466
 20
282.6403056030546
 30
0.0
  0
VERTEX
  5
18F
330
183
100
AcDbEntity
  8
Make2D$可见线$普通线
100
AcDbVertex
100
AcDb2dVertex
 10
7.868056157840634
 20
282.6212211583766
 30
0.0
  0
VERTEX
  5
190
330
183
100
AcDbEntity
  8
Make2D$可见线$普通线
100
AcDbVertex
100
AcDb2dVertex
 10
7.787892167450164
 20
282.6006388292048
 30
0.0
  0
VERTEX
  5
191
330
183
100
AcDbEntity
  8
Make2D$可见线$普通线
100
AcDbVertex
100
AcDb2dVertex
 10
7.708114391462805
 20
282.5785787259231
 30
0.0
  0
VERTEX
  5
192
330
183
100
AcDbEntity
  8
Make2D$可见线$普通线
100
AcDbVertex
100
AcDb2dVertex
 10
7.628742453755304
 20
282.5550609589151
 30
0.0
  0
VERTEX
  5
193
330
183
100
AcDbEntity
  8
Make2D$可见线$普通线
100
AcDbVertex
100
AcDb2dVertex
 10
7.549795978204414
 20
282.5301056385646
 30
0.0
  0
VERTEX
  5
194
330
183
100
AcDbEntity
  8
Make2D$可见线$普通线
100
AcDbVertex
100
AcDb2dVertex
 10
7.471294588686881
 20
282.5037328752551
 30
0.0
  0
VERTEX
  5
195
330
183
100
AcDbEntity
  8
Make2D$可见线$普通线
100
AcDbVertex
100
AcDb2dVertex
 10
7.393257909079454
 20
282.4759627793705
 30
0.0
  0
VERTEX
  5
196
330
183
100
AcDbEntity
  8
Make2D$可见线$普通线
100
AcDbVertex
100
AcDb2dVertex
 10
7.315705563258883
 20
282.4468154612945
 30
0.0
  0
VERTEX
  5
197
330
183
100
AcDbEntity
  8
Make2D$可见线$普通线
100
AcDbVertex
100
AcDb2dVertex
 10
7.238657175101919
 20
282.4163110314106
 30
0.0
  0
VERTEX
  5
198
330
183
100
AcDbEntity
  8
Make2D$可见线$普通线
100
AcDbVertex
100
AcDb2dVertex
 10
7.086150767285798
 20
282.3513112777543
 30
0.0
  0
VERTEX
  5
199
330
183
100
AcDbEntity
  8
Make2D$可见线$普通线
100
AcDbVertex
100
AcDb2dVertex
 10
6.935895676645083
 20
282.2811244014714
 30
0.0
  0
VERTEX
  5
19A
330
183
100
AcDbEntity
  8
Make2D$可见线$普通线
100
AcDbVertex
100
AcDb2dVertex
 10
6.788048894193768
 20
282.2059112856313
 30
0.0
  0
VERTEX
  5
19B
330
183
100
AcDbEntity
  8
Make2D$可见线$普通线
100
AcDbVertex
100
AcDb2dVertex
 10
6.642767410945843
 20
282.1258328133036
 30
0.0
  0
VERTEX
  5
19C
330
183
100
AcDbEntity
  8
Make2D$可见线$普通线
100
AcDbVertex
100
AcDb2dVertex
 10
6.500208217915301
 20
282.0410498675579
 30
0.0
  0
VERTEX
  5
19D
330
183
100
AcDbEntity
  8
Make2D$可见线$普通线
100
AcDbVertex
100
AcDb2dVertex
 10
6.360528306116132
 20
281.9517233314639
 30
0.0
  0
VERTEX
  5
19E
330
183
100
AcDbEntity
  8
Make2D$可见线$普通线
100
AcDbVertex
100
AcDb2dVertex
 10
6.223884666562331
 20
281.8580140880911
 30
0.0
  0
VERTEX
  5
19F
330
183
100
AcDbEntity
  8
Make2D$可见线$普通线
100
AcDbVertex
100
AcDb2dVertex
 10
6.090434290267887
 20
281.760083020509
 30
0.0
  0
VERTEX
  5
1A0
330
183
100
AcDbEntity
  8
Make2D$可见线$普通线
100
AcDbVertex
100
AcDb2dVertex
 10
5.945941943666558
 20
281.6464235549618
 30
0.0
  0
VERTEX
  5
1A1
330
183
100
AcDbEntity
  8
Make2D$可见线$普通线
100
AcDbVertex
100
AcDb2dVertex
 10
5.80556698071698
 20
281.5279550436912
 30
0.0
  0
VERTEX
  5
1A2
330
183
100
AcDbEntity
  8
Make2D$可见线$普通线
100
AcDbVertex
100
AcDb2dVertex
 10
5.669284260467481
 20
281.4048897161401
 30
0.0
  0
VERTEX
  5
1A3
330
183
100
AcDbEntity
  8
Make2D$可见线$普通线
100
AcDbVertex
100
AcDb2dVertex
 10
5.537068641966385
 20
281.2774398017516
 30
0.0
  0
VERTEX
  5
1A4
330
183
100
AcDbEntity
  8
Make2D$可见线$普通线
100
AcDbVertex
100
AcDb2dVertex
 10
5.40889498426202
 20
281.1458175299686
 30
0.0
  0
VERTEX
  5
1A5
330
183
100
AcDbEntity
  8
Make2D$可见线$普通线
100
AcDbVertex
100
AcDb2dVertex
 10
5.284738146402708
 20
281.010235130234
 30
0.0
  0
VERTEX
  5
1A6
330
183
100
AcDbEntity
  8
Make2D$可见线$普通线
100
AcDbVertex
100
AcDb2dVertex
 10
5.164572987436776
 20
280.870904831991
 30
0.0
  0
VERTEX
  5
1A7
330
183
100
AcDbEntity
  8
Make2D$可见线$普通线
100
AcDbVertex
100
AcDb2dVertex
 10
5.048374366412549
 20
280.7280388646824
 30
0.0
  0
VERTEX
  5
1A8
330
183
100
AcDbEntity
  8
Make2D$可见线$普通线
100
AcDbVertex
100
AcDb2dVertex
 10
4.936117142378355
 20
280.5818494577513
 30
0.0
  0
VERTEX
  5
1A9
330
183
100
AcDbEntity
  8
Make2D$可见线$普通线
100
AcDbVertex
100
AcDb2dVertex
 10
4.827776174382517
 20
280.4325488406406
 30
0.0
  0
VERTEX
  5
1AA
330
183
100
AcDbEntity
  8
Make2D$可见线$普通线
100
AcDbVertex
100
AcDb2dVertex
 10
4.723326321473362
 20
280.2803492427934
 30
0.0
  0
VERTEX
  5
1AB
330
183
100
AcDbEntity
  8
Make2D$可见线$普通线
100
AcDbVertex
100
AcDb2dVertex
 10
4.622742442699214
 20
280.1254628936526
 30
0.0
  0
VERTEX
  5
1AC
330
183
100
AcDbEntity
  8
Make2D$可见线$普通线
100
AcDbVertex
100
AcDb2dVertex
 10
4.5259993971084
 20
279.9681020226612
 30
0.0
  0
VERTEX
  5
1AD
330
183
100
AcDbEntity
  8
Make2D$可见线$普通线
100
AcDbVertex
100
AcDb2dVertex
 10
4.433072043749245
 20
279.8084788592621
 30
0.0
  0
VERTEX
  5
1AE
330
183
100
AcDbEntity
  8
Make2D$可见线$普通线
100
AcDbVertex
100
AcDb2dVertex
 10
4.343935241670074
 20
279.6468056328985
 30
0.0
  0
VERTEX
  5
1AF
330
183
100
AcDbEntity
  8
Make2D$可见线$普通线
100
AcDbVertex
100
AcDb2dVertex
 10
4.258563849919215
 20
279.4832945730132
 30
0.0
  0
VERTEX
  5
1B0
330
183
100
AcDbEntity
  8
Make2D$可见线$普通线
100
AcDbVertex
100
AcDb2dVertex
 10
4.163435454051038
 20
279.2899664505586
 30
0.0
  0
VERTEX
  5
1B1
330
183
100
AcDbEntity
  8
Make2D$可见线$普通线
100
AcDbVertex
100
AcDb2dVertex
 10
4.073257823659289
 20
279.0945352423837
 30
0.0
  0
VERTEX
  5
1B2
330
183
100
AcDbEntity
  8
Make2D$可见线$普通线
100
AcDbVertex
100
AcDb2dVertex
 10
3.987865075068312
 20
278.8971216720433
 30
0.0
  0
VERTEX
  5
1B3
330
183
100
AcDbEntity
  8
Make2D$可见线$普通线
100
AcDbVertex
100
AcDb2dVertex
 10
3.907091324602453
 20
278.6978464630923
 30
0.0
  0
VERTEX
  5
1B4
330
183
100
AcDbEntity
  8
Make2D$可见线$普通线
100
AcDbVertex
100
AcDb2dVertex
 10
3.830770688586057
 20
278.4968303390852
 30
0.0
  0
VERTEX
  5
1B5
330
183
100
AcDbEntity
  8
Make2D$可见线$普通线
100
AcDbVertex
100
AcDb2dVertex
 10
3.75873728334347
 20
278.2941940235771
 30
0.0
  0
VERTEX
  5
1B6
330
183
100
AcDbEntity
  8
Make2D$可见线$普通线
100
AcDbVertex
100
AcDb2dVertex
 10
3.690825225199036
 20
278.0900582401225
 30
0.0
  0
VERTEX
  5
1B7
330
183
100
AcDbEntity
  8
Make2D$可见线$普通线
100
AcDbVertex
100
AcDb2dVertex
 10
3.626868630477102
 20
277.8845437122762
 30
0.0
  0
VERTEX
  5
1B8
330
183
100
AcDbEntity
  8
Make2D$可见线$普通线
100
AcDbVertex
100
AcDb2dVertex
 10
3.566701615502012
 20
277.677771163593
 30
0.0
  0
VERTEX
  5
1B9
330
183
100
AcDbEntity
  8
Make2D$可见线$普通线
100
AcDbVertex
100
AcDb2dVertex
 10
3.510158296598112
 20
277.4698613176278
 30
0.0
  0
VERTEX
  5
1BA
330
183
100
AcDbEntity
  8
Make2D$可见线$普通线
100
AcDbVertex
100
AcDb2dVertex
 10
3.407279212301262
 20
277.0511126280696
 30
0.0
  0
VERTEX
  5
1BB
330
183
100
AcDbEntity
  8
Make2D$可见线$普通线
100
AcDbVertex
100
AcDb2dVertex
 10
3.316904308181314
 20
276.62926343204
 30
0.0
  0
VERTEX
  5
1BC
330
183
100
AcDbEntity
  8
Make2D$可见线$普通线
100
AcDbVertex
100
AcDb2dVertex
 10
3.237706514833032
 20
276.2052795179769
 30
0.0
  0
VERTEX
  5
1BD
330
183
100
AcDbEntity
  8
Make2D$可见线$普通线
100
AcDbVertex
100
AcDb2dVertex
 10
3.14363183363439
 20
275.6110198065023
 30
0.0
  0
VERTEX
  5
1BE
330
183
100
AcDbEntity
  8
Make2D$可见线$普通线
100
AcDbVertex
100
AcDb2dVertex
 10
3.067198027074448
 20
275.0147651753186
 30
0.0
  0
VERTEX
  5
1BF
330
183
100
AcDbEntity
  8
Make2D$可见线$普通线
100
AcDbVertex
100
AcDb2dVertex
 10
3.006834178641008
 20
274.4168006170966
 30
0.0
  0
VERTEX
  5
1C0
330
183
100
AcDbEntity
  8
Make2D$可见线$普通线
100
AcDbVertex
100
AcDb2dVertex
 10
2.960969371821872
 20
273.8174111245073
 30
0.0
  0
VERTEX
  5
1C1
330
183
100
AcDbEntity
  8
Make2D$可见线$普通线
100
AcDbVertex
100
AcDb2dVertex
 10
2.928032690104841
 20
273.2168816902218
 30
0.0
  0
VERTEX
  5
1C2
330
183
100
AcDbEntity
  8
Make2D$可见线$普通线
100
AcDbVertex
100
AcDb2dVertex
 10
2.906453216977717
 20
272.615497306911
 30
0.0
  0
VERTEX
  5
1C3
330
183
100
AcDbEntity
  8
Make2D$可见线$普通线
100
AcDbVertex
100
AcDb2dVertex
 10
2.891082230444395
 20
271.4113036638975
 30
0.0
  0
VERTEX
  5
1C4
330
183
100
AcDbEntity
  8
Make2D$可见线$普通线
100
AcDbVertex
100
AcDb2dVertex
 10
2.906475894473945
 20
270.2072160279212
 30
0.0
  0
VERTEX
  5
1C5
330
183
100
AcDbEntity
  8
Make2D$可见线$普通线
100
AcDbVertex
100
AcDb2dVertex
 10
2.928065029716966
 20
269.6058848377866
 30
0.0
  0
VERTEX
  5
1C6
330
183
100
AcDbEntity
  8
Make2D$可见线$普通线
100
AcDbVertex
100
AcDb2dVertex
 10
2.961010295623629
 20
269.0054087778901
 30
0.0
  0
VERTEX
  5
1C7
330
183
100
AcDbEntity
  8
Make2D$可见线$普通线
100
AcDbVertex
100
AcDb2dVertex
 10
3.006882638577545
 20
268.4060728819838
 30
0.0
  0
VERTEX
  5
1C8
330
183
100
AcDbEntity
  8
Make2D$可见线$普通线
100
AcDbVertex
100
AcDb2dVertex
 10
3.067253004962322
 20
267.8081621838194
 30
0.0
  0
VERTEX
  5
1C9
330
183
100
AcDbEntity
  8
Make2D$可见线$普通线
100
AcDbVertex
100
AcDb2dVertex
 10
3.143692341161569
 20
267.2119617171487
 30
0.0
  0
VERTEX
  5
1CA
330
183
100
AcDbEntity
  8
Make2D$可见线$普通线
100
AcDbVertex
100
AcDb2dVertex
 10
3.237771593558895
 20
266.6177565157236
 30
0.0
  0
VERTEX
  5
1CB
330
183
100
AcDbEntity
  8
Make2D$可见线$普通线
100
AcDbVertex
100
AcDb2dVertex
 10
3.316970429513774
 20
266.1938197851605
 30
0.0
  0
VERTEX
  5
1CC
330
183
100
AcDbEntity
  8
Make2D$可见线$普通线
100
AcDbVertex
100
AcDb2dVertex
 10
3.407345050150317
 20
265.772017698819
 30
0.0
  0
VERTEX
  5
1CD
330
183
100
AcDbEntity
  8
Make2D$可见线$普通线
100
AcDbVertex
100
AcDb2dVertex
 10
3.510222045000396
 20
265.353315817037
 30
0.0
  0
VERTEX
  5
1CE
330
183
100
AcDbEntity
  8
Make2D$可见线$普通线
100
AcDbVertex
100
AcDb2dVertex
 10
3.566763491984223
 20
265.1454291904616
 30
0.0
  0
VERTEX
  5
1CF
330
183
100
AcDbEntity
  8
Make2D$可见线$普通线
100
AcDbVertex
100
AcDb2dVertex
 10
3.626928003595885
 20
264.9386797001529
 30
0.0
  0
VERTEX
  5
1D0
330
183
100
AcDbEntity
  8
Make2D$可见线$普通线
100
AcDbVertex
100
AcDb2dVertex
 10
3.690881403526868
 20
264.7331880411532
 30
0.0
  0
VERTEX
  5
1D1
330
183
100
AcDbEntity
  8
Make2D$可见线$普通线
100
AcDbVertex
100
AcDb2dVertex
 10
3.758789515468655
 20
264.5290749085049
 30
0.0
  0
VERTEX
  5
1D2
330
183
100
AcDbEntity
  8
Make2D$可见线$普通线
100
AcDbVertex
100
AcDb2dVertex
 10
3.830818163112732
 20
264.3264609972501
 30
0.0
  0
VERTEX
  5
1D3
330
183
100
AcDbEntity
  8
Make2D$可见线$普通线
100
AcDbVertex
100
AcDb2dVertex
 10
3.90713317015058
 20
264.1254670024312
 30
0.0
  0
VERTEX
  5
1D4
330
183
100
AcDbEntity
  8
Make2D$可见线$普通线
100
AcDbVertex
100
AcDb2dVertex
 10
3.987900360273685
 20
263.9262136190903
 30
0.0
  0
VERTEX
  5
1D5
330
183
100
AcDbEntity
  8
Make2D$可见线$普通线
100
AcDbVertex
100
AcDb2dVertex
 10
4.073285557173531
 20
263.72882154227
 30
0.0
  0
VERTEX
  5
1D6
330
183
100
AcDbEntity
  8
Make2D$可见线$普通线
100
AcDbVertex
100
AcDb2dVertex
 10
4.163454584541601
 20
263.5334114670123
 30
0.0
  0
VERTEX
  5
1D7
330
183
100
AcDbEntity
  8
Make2D$可见线$普通线
100
AcDbVertex
100
AcDb2dVertex
 10
4.25857326606938
 20
263.3401040883596
 30
0.0
  0
VERTEX
  5
1D8
330
183
100
AcDbEntity
  8
Make2D$可见线$普通线
100
AcDbVertex
100
AcDb2dVertex
 10
4.3439407480231
 20
263.1766005183531
 30
0.0
  0
VERTEX
  5
1D9
330
183
100
AcDbEntity
  8
Make2D$可见线$普通线
100
AcDbVertex
100
AcDb2dVertex
 10
4.433073249192045
 20
263.0149346456917
 30
0.0
  0
VERTEX
  5
1DA
330
183
100
AcDbEntity
  8
Make2D$可见线$普通线
100
AcDbVertex
100
AcDb2dVertex
 10
4.525995919958639
 20
262.8553186708725
 30
0.0
  0
VERTEX
  5
1DB
330
183
100
AcDbEntity
  8
Make2D$可见线$普通线
100
AcDbVertex
100
AcDb2dVertex
 10
4.622733910705301
 20
262.6979647943922
 30
0.0
  0
VERTEX
  5
1DC
330
183
100
AcDbEntity
  8
Make2D$可见线$普通线
100
AcDbVertex
100
AcDb2dVertex
 10
4.723312371814453
 20
262.5430852167477
 30
0.0
  0
VERTEX
  5
1DD
330
183
100
AcDbEntity
  8
Make2D$可见线$普通线
100
AcDbVertex
100
AcDb2dVertex
 10
4.827756453668515
 20
262.3908921384359
 30
0.0
  0
VERTEX
  5
1DE
330
183
100
AcDbEntity
  8
Make2D$可见线$普通线
100
AcDbVertex
100
AcDb2dVertex
 10
4.93609130664991
 20
262.2415977599537
 30
0.0
  0
VERTEX
  5
1DF
330
183
100
AcDbEntity
  8
Make2D$可见线$普通线
100
AcDbVertex
100
AcDb2dVertex
 10
5.04834208114106
 20
262.0954142817981
 30
0.0
  0
VERTEX
  5
1E0
330
183
100
AcDbEntity
  8
Make2D$可见线$普通线
100
AcDbVertex
100
AcDb2dVertex
 10
5.164533927524383
 20
261.9525539044658
 30
0.0
  0
VERTEX
  5
1E1
330
183
100
AcDbEntity
  8
Make2D$可见线$普通线
100
AcDbVertex
100
AcDb2dVertex
 10
5.284691996182303
 20
261.8132288284537
 30
0.0
  0
VERTEX
  5
1E2
330
183
100
AcDbEntity
  8
Make2D$可见线$普通线
100
AcDbVertex
100
AcDb2dVertex
 10
5.408841437497241
 20
261.6776512542588
 30
0.0
  0
VERTEX
  5
1E3
330
183
100
AcDbEntity
  8
Make2D$可见线$普通线
100
AcDbVertex
100
AcDb2dVertex
 10
5.537007401851616
 20
261.5460333823779
 30
0.0
  0
VERTEX
  5
1E4
330
183
100
AcDbEntity
  8
Make2D$可见线$普通线
100
AcDbVertex
100
AcDb2dVertex
 10
5.669215039627852
 20
261.4185874133079
 30
0.0
  0
VERTEX
  5
1E5
330
183
100
AcDbEntity
  8
Make2D$可见线$普通线
100
AcDbVertex
100
AcDb2dVertex
 10
5.805489501208369
 20
261.2955255475457
 30
0.0
  0
VERTEX
  5
1E6
330
183
100
AcDbEntity
  8
Make2D$可见线$普通线
100
AcDbVertex
100
AcDb2dVertex
 10
5.945855936975587
 20
261.1770599855881
 30
0.0
  0
VERTEX
  5
1E7
330
183
100
AcDbEntity
  8
Make2D$可见线$普通线
100
AcDbVertex
100
AcDb2dVertex
 10
6.090339497311929
 20
261.0634029279321
 30
0.0
  0
VERTEX
  5
1E8
330
183
100
AcDbEntity
  8
Make2D$可见线$普通线
100
AcDbVertex
100
AcDb2dVertex
 10
6.223794047437924
 20
260.9654648174125
 30
0.0
  0
VERTEX
  5
1E9
330
183
100
AcDbEntity
  8
Make2D$可见线$普通线
100
AcDbVertex
100
AcDb2dVertex
 10
6.360442240592306
 20
260.8717488158969
 30
0.0
  0
VERTEX
  5
1EA
330
183
100
AcDbEntity
  8
Make2D$可见线$普通线
100
AcDbVertex
100
AcDb2dVertex
 10
6.500127057868873
 20
260.7824158136991
 30
0.0
  0
VERTEX
  5
1EB
330
183
100
AcDbEntity
  8
Make2D$可见线$普通线
100
AcDbVertex
100
AcDb2dVertex
 10
6.642691480361424
 20
260.697626701133
 30
0.0
  0
VERTEX
  5
1EC
330
183
100
AcDbEntity
  8
Make2D$可见线$普通线
100
AcDbVertex
100
AcDb2dVertex
 10
6.787978489163754
 20
260.6175423685124
 30
0.0
  0
VERTEX
  5
1ED
330
183
100
AcDbEntity
  8
Make2D$可见线$普通线
100
AcDbVertex
100
AcDb2dVertex
 10
6.935831065369664
 20
260.5423237061511
 30
0.0
  0
VERTEX
  5
1EE
330
183
100
AcDbEntity
  8
Make2D$可见线$普通线
100
AcDbVertex
100
AcDb2dVertex
 10
7.08609219007295
 20
260.4721316043631
 30
0.0
  0
VERTEX
  5
1EF
330
183
100
AcDbEntity
  8
Make2D$可见线$普通线
100
AcDbVertex
100
AcDb2dVertex
 10
7.238604844367412
 20
260.407126953462
 30
0.0
  0
VERTEX
  5
1F0
330
183
100
AcDbEntity
  8
Make2D$可见线$普通线
100
AcDbVertex
100
AcDb2dVertex
 10
7.315656426703145
 20
260.3766202003172
 30
0.0
  0
VERTEX
  5
1F1
330
183
100
AcDbEntity
  8
Make2D$可见线$普通线
100
AcDbVertex
100
AcDb2dVertex
 10
7.393212009346845
 20
260.3474706437619
 30
0.0
  0
VERTEX
  5
1F2
330
183
100
AcDbEntity
  8
Make2D$可见线$普通线
100
AcDbVertex
100
AcDb2dVertex
 10
7.47125196493524
 20
260.3196983950852
 30
0.0
  0
VERTEX
  5
1F3
330
183
100
AcDbEntity
  8
Make2D$可见线$普通线
100
AcDbVertex
100
AcDb2dVertex
 10
7.549756666105051
 20
260.2933235655764
 30
0.0
  0
VERTEX
  5
1F4
330
183
100
AcDbEntity
  8
Make2D$可见线$普通线
100
AcDbVertex
100
AcDb2dVertex
 10
7.628706485493003
 20
260.2683662665247
 30
0.0
  0
VERTEX
  5
1F5
330
183
100
AcDbEntity
  8
Make2D$可见线$普通线
100
AcDbVertex
100
AcDb2dVertex
 10
7.708081795735823
 20
260.2448466092195
 30
0.0
  0
VERTEX
  5
1F6
330
183
100
AcDbEntity
  8
Make2D$可见线$普通线
100
AcDbVertex
100
AcDb2dVertex
 10
7.787862969470234
 20
260.2227847049498
 30
0.0
  0
VERTEX
  5
1F7
330
183
100
AcDbEntity
  8
Make2D$可见线$普通线
100
AcDbVertex
100
AcDb2dVertex
 10
7.868030379332962
 20
260.202200665005
 30
0.0
  0
VERTEX
  5
1F8
330
183
100
AcDbEntity
  8
Make2D$可见线$普通线
100
AcDbVertex
100
AcDb2dVertex
 10
7.948564397960732
 20
260.1831146006742
 30
0.0
  0
VERTEX
  5
1F9
330
183
100
AcDbEntity
  8
Make2D$可见线$普通线
100
AcDbVertex
100
AcDb2dVertex
 10
8.029445397990266
 20
260.1655466232467
 30
0.0
  0
VERTEX
  5
1FA
330
183
100
AcDbEntity
  8
Make2D$可见线$普通线
100
AcDbVertex
100
AcDb2dVertex
 10
8.11065375205829
 20
260.1495168440117
 30
0.0
  0
VERTEX
  5
1FB
330
183
100
AcDbEntity
  8
Make2D$可见线$普通线
100
AcDbVertex
100
AcDb2dVertex
 10
8.192169832801532
 20
260.1350453742585
 30
0.0
  0
VERTEX
  5
1FC
330
183
100
AcDbEntity
  8
Make2D$可见线$普通线
100
AcDbVertex
100
AcDb2dVertex
 10
8.273974012856714
 20
260.1221523252761
 30
0.0
  0
VERTEX
  5
1FD
330
183
100
AcDbEntity
  8
Make2D$可见线$普通线
100
AcDbVertex
100
AcDb2dVertex
 10
8.35604666486056
 20
260.1108578083541
 30
0.0
  0
VERTEX
  5
1FE
330
183
100
AcDbEntity
  8
Make2D$可见线$普通线
100
AcDbVertex
100
AcDb2dVertex
 10
8.438368161449796
 20
260.1011819347816
 30
0.0
  0
VERTEX
  5
1FF
330
183
100
AcDbEntity
  8
Make2D$可见线$普通线
100
AcDbVertex
100
AcDb2dVertex
 10
8.520918875261142
 20
260.0931448158476
 30
0.0
 42
-0.0052849974902642
  0
VERTEX
  5
200
330
183
100
AcDbEntity
  8
Make2D$可见线$普通线
100
AcDbVertex
100
AcDb2dVertex
 10
19.32814932558418
 20
258.9503254818032
 30
0.0
 42
0.0026465665333165
  0
VERTEX
  5
201
330
183
100
AcDbEntity
  8
Make2D$可见线$普通线
100
AcDbVertex
100
AcDb2dVertex
 10
79.2894966180844
 20
259.0366892740649
 30
0.0
  0
SEQEND
  5
202
330
183
100
AcDbEntity
  8
Make2D$可见线$普通线
  0
POLYLINE
  5
203
330
1F
100
AcDbEntity
  8
Make2D$可见线$普通线
100
AcDb2dPolyline
 66
     1
 10
0.0
 20
0.0
 30
0.0
  0
VERTEX
  5
204
330
203
100
AcDbEntity
  8
Make2D$可见线$普通线
100
AcDbVertex
100
AcDb2dVertex
 10
39.77489797034289
 20
253.6934023291954
 30
0.0
  0
VERTEX
  5
205
330
203
100
AcDbEntity
  8
Make2D$可见线$普通线
100
AcDbVertex
100
AcDb2dVertex
 10
42.71984821962945
 20
253.4016707812955
 30
0.0
  0
VERTEX
  5
206
330
203
100
AcDbEntity
  8
Make2D$可见线$普通线
100
AcDbVertex
100
AcDb2dVertex
 10
42.71588727564302
 20
253.3616731511347
 30
0.0
  0
SEQEND
  5
207
330
203
100
AcDbEntity
  8
Make2D$可见线$普通线
  0
POLYLINE
  5
208
330
1F
100
AcDbEntity
  8
Make2D$可见线$普通线
100
AcDb3dPolyline
 66
     1
 10
0.0
 20
0.0
 30
0.0
 70
     8
  0
VERTEX
  5
209
330
208
100
AcDbEntity
  8
Make2D$可见线$普通线
100
AcDbVertex
100
AcDb3dPolylineVertex
 10
3.470179118277416
 20
257.2997040623414
 30
0.0
 70
    32
  0
VERTEX
  5
20A
330
208
100
AcDbEntity
  8
Make2D$可见线$普通线
100
AcDbVertex
100
AcDb3dPolylineVertex
 10
11.24889598549515
 20
256.5254633629734
 30
0.0
 70
    32
  0
VERTEX
  5
20B
330
208
100
AcDbEntity
  8
Make2D$可见线$普通线
100
AcDbVertex
100
AcDb3dPolylineVertex
 10
3.470179118277416
 20
257.2997040623414
 30
0.0
 70
    32
  0
SEQEND
  5
20C
330
208
100
AcDbEntity
  8
Make2D$可见线$普通线
  0
POLYLINE
  5
20D
330
1F
100
AcDbEntity
  8
Make2D$可见线$普通线
100
AcDb2dPolyline
 66
     1
 10
0.0
 20
0.0
 30
0.0
  0
VERTEX
  5
20E
330
20D
100
AcDbEntity
  8
Make2D$可见线$普通线
100
AcDbVertex
100
AcDb2dVertex
 10
0.1291499626758537
 20
276.0249137291817
 30
0.0
  0
VERTEX
  5
20F
330
20D
100
AcDbEntity
  8
Make2D$可见线$普通线
100
AcDbVertex
100
AcDb2dVertex
 10
0.1291497753171029
 20
266.7984967293598
 30
0.0
  0
VERTEX
  5
210
330
20D
100
AcDbEntity
  8
Make2D$可见线$普通线
100
AcDbVertex
100
AcDb2dVertex
 10
0.1726782785950995
 20
266.1673121698504
 30
0.0
  0
VERTEX
  5
211
330
20D
100
AcDbEntity
  8
Make2D$可见线$普通线
100
AcDbVertex
100
AcDb2dVertex
 10
0.229621083299745
 20
265.5367760701549
 30
0.0
  0
VERTEX
  5
212
330
20D
100
AcDbEntity
  8
Make2D$可见线$普通线
100
AcDbVertex
100
AcDb2dVertex
 10
0.302017826279513
 20
264.9075903481486
 30
0.0
  0
VERTEX
  5
213
330
20D
100
AcDbEntity
  8
Make2D$可见线$普通线
100
AcDbVertex
100
AcDb2dVertex
 10
0.3919081443828766
 20
264.2804569217068
 30
0.0
  0
VERTEX
  5
214
330
20D
100
AcDbEntity
  8
Make2D$可见线$普通线
100
AcDbVertex
100
AcDb2dVertex
 10
0.5013316744583095
 20
263.6560777087049
 30
0.0
  0
VERTEX
  5
215
330
20D
100
AcDbEntity
  8
Make2D$可见线$普通线
100
AcDbVertex
100
AcDb2dVertex
 10
0.5640057805006999
 20
263.3451402815799
 30
0.0
  0
VERTEX
  5
216
330
20D
100
AcDbEntity
  8
Make2D$可见线$普通线
100
AcDbVertex
100
AcDb2dVertex
 10
0.632328053354285
 20
263.0351546270182
 30
0.0
  0
VERTEX
  5
217
330
20D
100
AcDbEntity
  8
Make2D$可见线$普通线
100
AcDbVertex
100
AcDb2dVertex
 10
0.7065534476251241
 20
262.7262084847541
 30
0.0
  0
VERTEX
  5
218
330
20D
100
AcDbEntity
  8
Make2D$可见线$普通线
100
AcDbVertex
100
AcDb2dVertex
 10
0.7869369179192764
 20
262.4183895945221
 30
0.0
  0
VERTEX
  5
219
330
20D
100
AcDbEntity
  8
Make2D$可见线$普通线
100
AcDbVertex
100
AcDb2dVertex
 10
0.873733418842801
 20
262.1117856960565
 30
0.0
  0
VERTEX
  5
21A
330
20D
100
AcDbEntity
  8
Make2D$可见线$普通线
100
AcDbVertex
100
AcDb2dVertex
 10
0.9671979050017572
 20
261.8064845290918
 30
0.0
  0
VERTEX
  5
21B
330
20D
100
AcDbEntity
  8
Make2D$可见线$普通线
100
AcDbVertex
100
AcDb2dVertex
 10
1.067716154227426
 20
261.5025255481071
 30
0.0
  0
VERTEX
  5
21C
330
20D
100
AcDbEntity
  8
Make2D$可见线$普通线
100
AcDbVertex
100
AcDb2dVertex
 10
1.175508947196323
 20
261.2002906117121
 30
0.0
  0
VERTEX
  5
21D
330
20D
100
AcDbEntity
  8
Make2D$可见线$普通线
100
AcDbVertex
100
AcDb2dVertex
 10
1.290669815018509
 20
260.9001104378953
 30
0.0
  0
VERTEX
  5
21E
330
20D
100
AcDbEntity
  8
Make2D$可见线$普通线
100
AcDbVertex
100
AcDb2dVertex
 10
1.413292288804044
 20
260.6023157446456
 30
0.0
  0
VERTEX
  5
21F
330
20D
100
AcDbEntity
  8
Make2D$可见线$普通线
100
AcDbVertex
100
AcDb2dVertex
 10
1.543469899662988
 20
260.3072372499515
 30
0.0
  0
VERTEX
  5
220
330
20D
100
AcDbEntity
  8
Make2D$可见线$普通线
100
AcDbVertex
100
AcDb2dVertex
 10
1.681296178705403
 20
260.0152056718019
 30
0.0
  0
VERTEX
  5
221
330
20D
100
AcDbEntity
  8
Make2D$可见线$普通线
100
AcDbVertex
100
AcDb2dVertex
 10
1.826864657041348
 20
259.7265517281855
 30
0.0
  0
VERTEX
  5
222
330
20D
100
AcDbEntity
  8
Make2D$可见线$普通线
100
AcDbVertex
100
AcDb2dVertex
 10
1.980268865780884
 20
259.4416061370911
 30
0.0
  0
VERTEX
  5
223
330
20D
100
AcDbEntity
  8
Make2D$可见线$普通线
100
AcDbVertex
100
AcDb2dVertex
 10
2.141602336034073
 20
259.1606996165071
 30
0.0
  0
VERTEX
  5
224
330
20D
100
AcDbEntity
  8
Make2D$可见线$普通线
100
AcDbVertex
100
AcDb2dVertex
 10
2.310958598910973
 20
258.8841628844225
 30
0.0
  0
VERTEX
  5
225
330
20D
100
AcDbEntity
  8
Make2D$可见线$普通线
100
AcDbVertex
100
AcDb2dVertex
 10
2.488431185521646
 20
258.6123266588259
 30
0.0
  0
VERTEX
  5
226
330
20D
100
AcDbEntity
  8
Make2D$可见线$普通线
100
AcDbVertex
100
AcDb2dVertex
 10
2.674113626976154
 20
258.3455216577061
 30
0.0
  0
VERTEX
  5
227
330
20D
100
AcDbEntity
  8
Make2D$可见线$普通线
100
AcDbVertex
100
AcDb2dVertex
 10
2.868099454384555
 20
258.0840785990516
 30
0.0
  0
VERTEX
  5
228
330
20D
100
AcDbEntity
  8
Make2D$可见线$普通线
100
AcDbVertex
100
AcDb2dVertex
 10
3.07048219885691
 20
257.8283282008514
 30
0.0
  0
VERTEX
  5
229
330
20D
100
AcDbEntity
  8
Make2D$可见线$普通线
100
AcDbVertex
100
AcDb2dVertex
 10
3.28135539150328
 20
257.5786011810941
 30
0.0
  0
VERTEX
  5
22A
330
20D
100
AcDbEntity
  8
Make2D$可见线$普通线
100
AcDbVertex
100
AcDb2dVertex
 10
3.500812563433726
 20
257.3352282577683
 30
0.0
  0
VERTEX
  5
22B
330
20D
100
AcDbEntity
  8
Make2D$可见线$普通线
100
AcDbVertex
100
AcDb2dVertex
 10
3.466561806730567
 20
257.3000643005719
 30
0.0
  0
VERTEX
  5
22C
330
20D
100
AcDbEntity
  8
Make2D$可见线$普通线
100
AcDbVertex
100
AcDb2dVertex
 10
3.45109198136104
 20
257.269077586267
 30
0.0
  0
VERTEX
  5
22D
330
20D
100
AcDbEntity
  8
Make2D$可见线$普通线
100
AcDbVertex
100
AcDb2dVertex
 10
3.449800288274259
 20
257.266457616405
 30
0.0
  0
VERTEX
  5
22E
330
20D
100
AcDbEntity
  8
Make2D$可见线$普通线
100
AcDbVertex
100
AcDb2dVertex
 10
3.449564506293088
 20
257.265965469772
 30
0.0
  0
VERTEX
  5
22F
330
20D
100
AcDbEntity
  8
Make2D$可见线$普通线
100
AcDbVertex
100
AcDb2dVertex
 10
3.449554570930024
 20
257.2659429378971
 30
0.0
  0
VERTEX
  5
230
330
20D
100
AcDbEntity
  8
Make2D$可见线$普通线
100
AcDbVertex
100
AcDb2dVertex
 10
3.449551241358134
 20
257.2659349414232
 30
0.0
  0
VERTEX
  5
231
330
20D
100
AcDbEntity
  8
Make2D$可见线$普通线
100
AcDbVertex
100
AcDb2dVertex
 10
3.449549005262043
 20
257.2659291274817
 30
0.0
  0
VERTEX
  5
232
330
20D
100
AcDbEntity
  8
Make2D$可见线$普通线
100
AcDbVertex
100
AcDb2dVertex
 10
3.449547863693777
 20
257.2659254982403
 30
0.0
  0
VERTEX
  5
233
330
20D
100
AcDbEntity
  8
Make2D$可见线$普通线
100
AcDbVertex
100
AcDb2dVertex
 10
3.449547817705364
 20
257.2659240558667
 30
0.0
  0
VERTEX
  5
234
330
20D
100
AcDbEntity
  8
Make2D$可见线$普通线
100
AcDbVertex
100
AcDb2dVertex
 10
3.449548868348831
 20
257.2659248025284
 30
0.0
  0
VERTEX
  5
235
330
20D
100
AcDbEntity
  8
Make2D$可见线$普通线
100
AcDbVertex
100
AcDb2dVertex
 10
3.449551016676207
 20
257.265927740393
 30
0.0
  0
VERTEX
  5
236
330
20D
100
AcDbEntity
  8
Make2D$可见线$普通线
100
AcDbVertex
100
AcDb2dVertex
 10
3.449554263739518
 20
257.2659328716282
 30
0.0
  0
VERTEX
  5
237
330
20D
100
AcDbEntity
  8
Make2D$可见线$普通线
100
AcDbVertex
100
AcDb2dVertex
 10
3.449558610590791
 20
257.2659401984015
 30
0.0
  0
VERTEX
  5
238
330
20D
100
AcDbEntity
  8
Make2D$可见线$普通线
100
AcDbVertex
100
AcDb2dVertex
 10
3.449570607865336
 20
257.2659614472332
 30
0.0
  0
VERTEX
  5
239
330
20D
100
AcDbEntity
  8
Make2D$可见线$普通线
100
AcDbVertex
100
AcDb2dVertex
 10
3.449607846159186
 20
257.2660303867295
 30
0.0
  0
VERTEX
  5
23A
330
20D
100
AcDbEntity
  8
Make2D$可见线$普通线
100
AcDbVertex
100
AcDb2dVertex
 10
3.452658606183089
 20
257.27203826134
 30
0.0
  0
SEQEND
  5
23B
330
20D
100
AcDbEntity
  8
Make2D$可见线$普通线
  0
POLYLINE
  5
23C
330
1F
100
AcDbEntity
  8
Make2D$可见线$普通线
100
AcDb2dPolyline
 66
     1
 10
0.0
 20
0.0
 30
0.0
  0
VERTEX
  5
23D
330
23C
100
AcDbEntity
  8
Make2D$可见线$普通线
100
AcDbVertex
100
AcDb2dVertex
 10
3.451078906534861
 20
285.5543471412519
 30
0.0
  0
VERTEX
  5
23E
330
23C
100
AcDbEntity
  8
Make2D$可见线$普通线
100
AcDbVertex
100
AcDb2dVertex
 10
3.466562129209024
 20
285.5233415679236
 30
0.0
  0
VERTEX
  5
23F
330
23C
100
AcDbEntity
  8
Make2D$可见线$普通线
100
AcDbVertex
100
AcDb2dVertex
 10
3.500812317904518
 20
285.4881778849774
 30
0.0
  0
VERTEX
  5
240
330
23C
100
AcDbEntity
  8
Make2D$可见线$普通线
100
AcDbVertex
100
AcDb2dVertex
 10
3.281387185236319
 20
285.2448405223228
 30
0.0
  0
VERTEX
  5
241
330
23C
100
AcDbEntity
  8
Make2D$可见线$普通线
100
AcDbVertex
100
AcDb2dVertex
 10
3.07054330627956
 20
284.9951509586081
 30
0.0
  0
VERTEX
  5
242
330
23C
100
AcDbEntity
  8
Make2D$可见线$普通线
100
AcDbVertex
100
AcDb2dVertex
 10
2.868187224702263
 20
284.7394397667825
 30
0.0
  0
VERTEX
  5
243
330
23C
100
AcDbEntity
  8
Make2D$可见线$普通线
100
AcDbVertex
100
AcDb2dVertex
 10
2.674225484172451
 20
284.4780375197952
 30
0.0
  0
VERTEX
  5
244
330
23C
100
AcDbEntity
  8
Make2D$可见线$普通线
100
AcDbVertex
100
AcDb2dVertex
 10
2.488564628358146
 20
284.2112747905951
 30
0.0
  0
VERTEX
  5
245
330
23C
100
AcDbEntity
  8
Make2D$可见线$普通线
100
AcDbVertex
100
AcDb2dVertex
 10
2.311111200927368
 20
283.9394821521313
 30
0.0
  0
VERTEX
  5
246
330
23C
100
AcDbEntity
  8
Make2D$可见线$普通线
100
AcDbVertex
100
AcDb2dVertex
 10
2.141771745548142
 20
283.662990177353
 30
0.0
  0
VERTEX
  5
247
330
23C
100
AcDbEntity
  8
Make2D$可见线$普通线
100
AcDbVertex
100
AcDb2dVertex
 10
1.980452805888488
 20
283.3821294392092
 30
0.0
  0
VERTEX
  5
248
330
23C
100
AcDbEntity
  8
Make2D$可见线$普通线
100
AcDbVertex
100
AcDb2dVertex
 10
1.827060925616427
 20
283.0972305106488
 30
0.0
  0
VERTEX
  5
249
330
23C
100
AcDbEntity
  8
Make2D$可见线$普通线
100
AcDbVertex
100
AcDb2dVertex
 10
1.681502648399984
 20
282.8086239646211
 30
0.0
  0
VERTEX
  5
24A
330
23C
100
AcDbEntity
  8
Make2D$可见线$普通线
100
AcDbVertex
100
AcDb2dVertex
 10
1.543684517907178
 20
282.516640374075
 30
0.0
  0
VERTEX
  5
24B
330
23C
100
AcDbEntity
  8
Make2D$可见线$普通线
100
AcDbVertex
100
AcDb2dVertex
 10
1.413513077806032
 20
282.2216103119596
 30
0.0
  0
VERTEX
  5
24C
330
23C
100
AcDbEntity
  8
Make2D$可见线$普通线
100
AcDbVertex
100
AcDb2dVertex
 10
1.290894871764568
 20
281.923864351224
 30
0.0
  0
VERTEX
  5
24D
330
23C
100
AcDbEntity
  8
Make2D$可见线$普通线
100
AcDbVertex
100
AcDb2dVertex
 10
1.175736443450808
 20
281.6237330648173
 30
0.0
  0
VERTEX
  5
24E
330
23C
100
AcDbEntity
  8
Make2D$可见线$普通线
100
AcDbVertex
100
AcDb2dVertex
 10
1.067944336532773
 20
281.3215470256885
 30
0.0
  0
VERTEX
  5
24F
330
23C
100
AcDbEntity
  8
Make2D$可见线$普通线
100
AcDbVertex
100
AcDb2dVertex
 10
0.9674250946784864
 20
281.0176368067866
 30
0.0
  0
VERTEX
  5
250
330
23C
100
AcDbEntity
  8
Make2D$可见线$普通线
100
AcDbVertex
100
AcDb2dVertex
 10
0.873931611138808
 20
280.7122944474763
 30
0.0
  0
VERTEX
  5
251
330
23C
100
AcDbEntity
  8
Make2D$可见线$普通线
100
AcDbVertex
100
AcDb2dVertex
 10
0.7871086035293307
 20
280.4056487512625
 30
0.0
  0
VERTEX
  5
252
330
23C
100
AcDbEntity
  8
Make2D$可见线$普通线
100
AcDbVertex
100
AcDb2dVertex
 10
0.7067010066589976
 20
280.0977874951092
 30
0.0
  0
VERTEX
  5
253
330
23C
100
AcDbEntity
  8
Make2D$可见线$普通线
100
AcDbVertex
100
AcDb2dVertex
 10
0.6324537553367515
 20
279.7887984559801
 30
0.0
  0
VERTEX
  5
254
330
23C
100
AcDbEntity
  8
Make2D$可见线$普通线
100
AcDbVertex
100
AcDb2dVertex
 10
0.5641117843715356
 20
279.4787694108393
 30
0.0
  0
VERTEX
  5
255
330
23C
100
AcDbEntity
  8
Make2D$可见线$普通线
100
AcDbVertex
100
AcDb2dVertex
 10
0.5014200285722932
 20
279.1677881366504
 30
0.0
  0
VERTEX
  5
256
330
23C
100
AcDbEntity
  8
Make2D$可见线$普通线
100
AcDbVertex
100
AcDb2dVertex
 10
0.3919669017074994
 20
278.5433200089847
 30
0.0
  0
VERTEX
  5
257
330
23C
100
AcDbEntity
  8
Make2D$可见线$普通线
100
AcDbVertex
100
AcDb2dVertex
 10
0.3020538532139145
 20
277.9160962886938
 30
0.0
  0
VERTEX
  5
258
330
23C
100
AcDbEntity
  8
Make2D$可见线$普通线
100
AcDbVertex
100
AcDb2dVertex
 10
0.2296403615630826
 20
277.286819191489
 30
0.0
  0
VERTEX
  5
259
330
23C
100
AcDbEntity
  8
Make2D$可见线$普通线
100
AcDbVertex
100
AcDb2dVertex
 10
0.1726859052265476
 20
276.6561909330812
 30
0.0
  0
VERTEX
  5
25A
330
23C
100
AcDbEntity
  8
Make2D$可见线$普通线
100
AcDbVertex
100
AcDb2dVertex
 10
0.1291499626758762
 20
276.0249137291817
 30
0.0
 42
0.0279956713421812
  0
VERTEX
  5
25B
330
23C
100
AcDbEntity
  8
Make2D$可见线$普通线
100
AcDbVertex
100
AcDb2dVertex
 10
0.1291497753171029
 20
266.7984967293598
 30
0.0
  0
SEQEND
  5
25C
330
23C
100
AcDbEntity
  8
Make2D$可见线$普通线
  0
POLYLINE
  5
25D
330
1F
100
AcDbEntity
  8
Make2D$可见线$普通线
100
AcDb2dPolyline
 66
     1
 10
0.0
 20
0.0
 30
0.0
  0
VERTEX
  5
25E
330
25D
100
AcDbEntity
  8
Make2D$可见线$普通线
100
AcDbVertex
100
AcDb2dVertex
 10
53.28960207945851
 20
250.2172163253279
 30
0.0
  0
VERTEX
  5
25F
330
25D
100
AcDbEntity
  8
Make2D$可见线$普通线
100
AcDbVertex
100
AcDb2dVertex
 10
53.18757866472119
 20
250.2875479493391
 30
0.0
  0
VERTEX
  5
260
330
25D
100
AcDbEntity
  8
Make2D$可见线$普通线
100
AcDbVertex
100
AcDb2dVertex
 10
53.07003045338216
 20
250.3648504277572
 30
0.0
  0
VERTEX
  5
261
330
25D
100
AcDbEntity
  8
Make2D$可见线$普通线
100
AcDbVertex
100
AcDb2dVertex
 10
52.93694115203731
 20
250.4486399550109
 30
0.0
  0
VERTEX
  5
262
330
25D
100
AcDbEntity
  8
Make2D$可见线$普通线
100
AcDbVertex
100
AcDb2dVertex
 10
52.78829446728248
 20
250.5384327255283
 30
0.0
  0
VERTEX
  5
263
330
25D
100
AcDbEntity
  8
Make2D$可见线$普通线
100
AcDbVertex
100
AcDb2dVertex
 10
52.44426377392644
 20
250.7340927740685
 30
0.0
  0
VERTEX
  5
264
330
25D
100
AcDbEntity
  8
Make2D$可见线$普通线
100
AcDbVertex
100
AcDb2dVertex
 10
52.03780802608094
 20
250.9479601288051
 30
0.0
  0
VERTEX
  5
265
330
25D
100
AcDbEntity
  8
Make2D$可见线$普通线
100
AcDbVertex
100
AcDb2dVertex
 10
51.56879687651293
 20
251.1761643451656
 30
0.0
  0
VERTEX
  5
266
330
25D
100
AcDbEntity
  8
Make2D$可见线$普通线
100
AcDbVertex
100
AcDb2dVertex
 10
51.03709997798937
 20
251.4148349785773
 30
0.0
  0
VERTEX
  5
267
330
25D
100
AcDbEntity
  8
Make2D$可见线$普通线
100
AcDbVertex
100
AcDb2dVertex
 10
50.44258698327719
 20
251.6601015844676
 30
0.0
  0
VERTEX
  5
268
330
25D
100
AcDbEntity
  8
Make2D$可见线$普通线
100
AcDbVertex
100
AcDb2dVertex
 10
49.78512754514331
 20
251.9080937182639
 30
0.0
  0
VERTEX
  5
269
330
25D
100
AcDbEntity
  8
Make2D$可见线$普通线
100
AcDbVertex
100
AcDb2dVertex
 10
49.0659030291073
 20
252.1531191422443
 30
0.0
  0
VERTEX
  5
26A
330
25D
100
AcDbEntity
  8
Make2D$可见线$普通线
100
AcDbVertex
100
AcDb2dVertex
 10
48.30015171093538
 20
252.3862489916293
 30
0.0
  0
VERTEX
  5
26B
330
25D
100
AcDbEntity
  8
Make2D$可见线$普通线
100
AcDbVertex
100
AcDb2dVertex
 10
47.49263534062187
 20
252.6045882416373
 30
0.0
  0
VERTEX
  5
26C
330
25D
100
AcDbEntity
  8
Make2D$可见线$普通线
100
AcDbVertex
100
AcDb2dVertex
 10
46.64811566816111
 20
252.8052418674867
 30
0.0
  0
VERTEX
  5
26D
330
25D
100
AcDbEntity
  8
Make2D$可见线$普通线
100
AcDbVertex
100
AcDb2dVertex
 10
45.77135444354744
 20
252.9853148443961
 30
0.0
  0
VERTEX
  5
26E
330
25D
100
AcDbEntity
  8
Make2D$可见线$普通线
100
AcDbVertex
100
AcDb2dVertex
 10
44.86711341677521
 20
253.1419121475838
 30
0.0
  0
VERTEX
  5
26F
330
25D
100
AcDbEntity
  8
Make2D$可见线$普通线
100
AcDbVertex
100
AcDb2dVertex
 10
43.94015433783876
 20
253.2721387522683
 30
0.0
  0
VERTEX
  5
270
330
25D
100
AcDbEntity
  8
Make2D$可见线$普通线
100
AcDbVertex
100
AcDb2dVertex
 10
42.99523895673241
 20
253.373099633668
 30
0.0
  0
VERTEX
  5
271
330
25D
100
AcDbEntity
  8
Make2D$可见线$普通线
100
AcDbVertex
100
AcDb2dVertex
 10
42.71984821962945
 20
253.4016707812955
 30
0.0
  0
SEQEND
  5
272
330
25D
100
AcDbEntity
  8
Make2D$可见线$普通线
  0
POLYLINE
  5
273
330
1F
100
AcDbEntity
  8
Make2D$可见线$普通线
100
AcDb2dPolyline
 66
     1
 10
0.0
 20
0.0
 30
0.0
  0
VERTEX
  5
274
330
273
100
AcDbEntity
  8
Make2D$可见线$普通线
100
AcDbVertex
100
AcDb2dVertex
 10
39.71697399243454
 20
253.655043962829
 30
0.0
  0
VERTEX
  5
275
330
273
100
AcDbEntity
  8
Make2D$可见线$普通线
100
AcDbVertex
100
AcDb2dVertex
 10
42.71548135134498
 20
253.3575888113899
 30
0.0
  0
VERTEX
  5
276
330
273
100
AcDbEntity
  8
Make2D$可见线$普通线
100
AcDbVertex
100
AcDb2dVertex
 10
42.99091457321792
 20
253.3289571504502
 30
0.0
 42
-0.0566580881098051
  0
VERTEX
  5
277
330
273
100
AcDbEntity
  8
Make2D$可见线$普通线
100
AcDbVertex
100
AcDb2dVertex
 10
49.06733390527159
 20
252.0989311231477
 30
0.0
 42
-0.0162170742580243
  0
VERTEX
  5
278
330
273
100
AcDbEntity
  8
Make2D$可见线$普通线
100
AcDbVertex
100
AcDb2dVertex
 10
50.44392669368239
 20
251.5975201449137
 30
0.0
 42
-0.0164491479304577
  0
VERTEX
  5
279
330
273
100
AcDbEntity
  8
Make2D$可见线$普通线
100
AcDbVertex
100
AcDb2dVertex
 10
51.58904119103852
 20
251.0938944181077
 30
0.0
 42
-0.0340408321744234
  0
VERTEX
  5
27A
330
273
100
AcDbEntity
  8
Make2D$可见线$普通线
100
AcDbVertex
100
AcDb2dVertex
 10
52.94188914429299
 20
250.3399568553899
 30
0.0
 42
0.1277344274258241
  0
VERTEX
  5
27B
330
273
100
AcDbEntity
  8
Make2D$可见线$普通线
100
AcDbVertex
100
AcDb2dVertex
 10
53.28960207945852
 20
250.2172163253279
 30
0.0
  0
VERTEX
  5
27C
330
273
100
AcDbEntity
  8
Make2D$可见线$普通线
100
AcDbVertex
100
AcDb2dVertex
 10
53.59453831796036
 20
250.0036901977015
 30
0.0
  0
VERTEX
  5
27D
330
273
100
AcDbEntity
  8
Make2D$可见线$普通线
100
AcDbVertex
100
AcDb2dVertex
 10
53.59384391408938
 20
250.0037576182189
 30
0.0
  0
VERTEX
  5
27E
330
273
100
AcDbEntity
  8
Make2D$可见线$普通线
100
AcDbVertex
100
AcDb2dVertex
 10
79.25114566011224
 20
247.3033307946945
 30
0.0
  0
VERTEX
  5
27F
330
273
100
AcDbEntity
  8
Make2D$可见线$普通线
100
AcDbVertex
100
AcDb2dVertex
 10
79.28949664293117
 20
247.2995080498284
 30
0.0
  0
VERTEX
  5
280
330
273
100
AcDbEntity
  8
Make2D$可见线$普通线
100
AcDbVertex
100
AcDb2dVertex
 10
79.289496599941
 20
247.6530196187081
 30
0.0
  0
VERTEX
  5
281
330
273
100
AcDbEntity
  8
Make2D$可见线$普通线
100
AcDbVertex
100
AcDb2dVertex
 10
79.28949672144721
 20
249.3282511743568
 30
0.0
  0
VERTEX
  5
282
330
273
100
AcDbEntity
  8
Make2D$可见线$普通线
100
AcDbVertex
100
AcDb2dVertex
 10
65.83398376305901
 20
251.2495194340248
 30
0.0
  0
VERTEX
  5
283
330
273
100
AcDbEntity
  8
Make2D$可见线$普通线
100
AcDbVertex
100
AcDb2dVertex
 10
61.63678908161253
 20
251.8617806154438
 30
0.0
  0
VERTEX
  5
284
330
273
100
AcDbEntity
  8
Make2D$可见线$普通线
100
AcDbVertex
100
AcDb2dVertex
 10
57.44149501764525
 20
252.4868767842035
 30
0.0
  0
VERTEX
  5
285
330
273
100
AcDbEntity
  8
Make2D$可见线$普通线
100
AcDbVertex
100
AcDb2dVertex
 10
53.97359965672932
 20
253.0183305041015
 30
0.0
  0
VERTEX
  5
286
330
273
100
AcDbEntity
  8
Make2D$可见线$普通线
100
AcDbVertex
100
AcDb2dVertex
 10
50.50907743405409
 20
253.5713662512958
 30
0.0
  0
VERTEX
  5
287
330
273
100
AcDbEntity
  8
Make2D$可见线$普通线
100
AcDbVertex
100
AcDb2dVertex
 10
48.07046200034964
 20
253.9801763816977
 30
0.0
  0
VERTEX
  5
288
330
273
100
AcDbEntity
  8
Make2D$可见线$普通线
100
AcDbVertex
100
AcDb2dVertex
 10
45.63621025128815
 20
254.4138545171961
 30
0.0
  0
VERTEX
  5
289
330
273
100
AcDbEntity
  8
Make2D$可见线$普通线
100
AcDbVertex
100
AcDb2dVertex
 10
43.67758278603695
 20
254.7898274504772
 30
0.0
  0
VERTEX
  5
28A
330
273
100
AcDbEntity
  8
Make2D$可见线$普通线
100
AcDbVertex
100
AcDb2dVertex
 10
42.700820448766
 20
254.9906702254643
 30
0.0
  0
VERTEX
  5
28B
330
273
100
AcDbEntity
  8
Make2D$可见线$普通线
100
AcDbVertex
100
AcDb2dVertex
 10
41.03267676326258
 20
255.3617933286358
 30
0.0
  0
VERTEX
  5
28C
330
273
100
AcDbEntity
  8
Make2D$可见线$普通线
100
AcDbVertex
100
AcDb2dVertex
 10
40.34158354790381
 20
255.5313481638029
 30
0.0
  0
VERTEX
  5
28D
330
273
100
AcDbEntity
  8
Make2D$可见线$普通线
100
AcDbVertex
100
AcDb2dVertex
 10
39.65420324595361
 20
255.714869316002
 30
0.0
  0
VERTEX
  5
28E
330
273
100
AcDbEntity
  8
Make2D$可见线$普通线
100
AcDbVertex
100
AcDb2dVertex
 10
38.97171784527126
 20
255.9160972519487
 30
0.0
  0
VERTEX
  5
28F
330
273
100
AcDbEntity
  8
Make2D$可见线$普通线
100
AcDbVertex
100
AcDb2dVertex
 10
38.51567748681291
 20
256.0644923013068
 30
0.0
  0
VERTEX
  5
290
330
273
100
AcDbEntity
  8
Make2D$可见线$普通线
100
AcDbVertex
100
AcDb2dVertex
 10
38.28967322446613
 20
256.1444672197356
 30
0.0
  0
VERTEX
  5
291
330
273
100
AcDbEntity
  8
Make2D$可见线$普通线
100
AcDbVertex
100
AcDb2dVertex
 10
38.06553627519057
 20
256.2294275803641
 30
0.0
  0
VERTEX
  5
292
330
273
100
AcDbEntity
  8
Make2D$可见线$普通线
100
AcDbVertex
100
AcDb2dVertex
 10
37.8843914602926
 20
256.3031775746142
 30
0.0
  0
VERTEX
  5
293
330
273
100
AcDbEntity
  8
Make2D$可见线$普通线
100
AcDbVertex
100
AcDb2dVertex
 10
37.70550196279186
 20
256.3821096846552
 30
0.0
  0
VERTEX
  5
294
330
273
100
AcDbEntity
  8
Make2D$可见线$普通线
100
AcDbVertex
100
AcDb2dVertex
 10
37.61713754252115
 20
256.4239241903742
 30
0.0
  0
VERTEX
  5
295
330
273
100
AcDbEntity
  8
Make2D$可见线$普通线
100
AcDbVertex
100
AcDb2dVertex
 10
37.52961845294659
 20
256.4675204137732
 30
0.0
  0
VERTEX
  5
296
330
273
100
AcDbEntity
  8
Make2D$可见线$普通线
100
AcDbVertex
100
AcDb2dVertex
 10
37.44303852785045
 20
256.513060417763
 30
0.0
  0
VERTEX
  5
297
330
273
100
AcDbEntity
  8
Make2D$可见线$普通线
100
AcDbVertex
100
AcDb2dVertex
 10
37.35749160101505
 20
256.5607062652543
 30
0.0
  0
VERTEX
  5
298
330
273
100
AcDbEntity
  8
Make2D$可见线$普通线
100
AcDbVertex
100
AcDb2dVertex
 10
37.3030650884103
 20
256.5925913337487
 30
0.0
  0
VERTEX
  5
299
330
273
100
AcDbEntity
  8
Make2D$可见线$普通线
100
AcDbVertex
100
AcDb2dVertex
 10
37.24936298895642
 20
256.6256534547807
 30
0.0
  0
VERTEX
  5
29A
330
273
100
AcDbEntity
  8
Make2D$可见线$普通线
100
AcDbVertex
100
AcDb2dVertex
 10
37.1966430032973
 20
256.6601303569721
 30
0.0
  0
VERTEX
  5
29B
330
273
100
AcDbEntity
  8
Make2D$可见线$普通线
100
AcDbVertex
100
AcDb2dVertex
 10
37.17073183459198
 20
256.6779736411967
 30
0.0
  0
VERTEX
  5
29C
330
273
100
AcDbEntity
  8
Make2D$可见线$普通线
100
AcDbVertex
100
AcDb2dVertex
 10
37.1451628320768
 20
256.6962597689443
 30
0.0
  0
VERTEX
  5
29D
330
273
100
AcDbEntity
  8
Make2D$可见线$普通线
100
AcDbVertex
100
AcDb2dVertex
 10
37.11996820833225
 20
256.7150184562926
 30
0.0
  0
VERTEX
  5
29E
330
273
100
AcDbEntity
  8
Make2D$可见线$普通线
100
AcDbVertex
100
AcDb2dVertex
 10
37.09518017593882
 20
256.7342794193193
 30
0.0
  0
VERTEX
  5
29F
330
273
100
AcDbEntity
  8
Make2D$可见线$普通线
100
AcDbVertex
100
AcDb2dVertex
 10
37.07083094747698
 20
256.754072374102
 30
0.0
  0
VERTEX
  5
2A0
330
273
100
AcDbEntity
  8
Make2D$可见线$普通线
100
AcDbVertex
100
AcDb2dVertex
 10
37.04695273552723
 20
256.7744270367184
 30
0.0
  0
VERTEX
  5
2A1
330
273
100
AcDbEntity
  8
Make2D$可见线$普通线
100
AcDbVertex
100
AcDb2dVertex
 10
37.02357775267006
 20
256.7953731232462
 30
0.0
  0
VERTEX
  5
2A2
330
273
100
AcDbEntity
  8
Make2D$可见线$普通线
100
AcDbVertex
100
AcDb2dVertex
 10
37.00073821148594
 20
256.8169403497633
 30
0.0
  0
VERTEX
  5
2A3
330
273
100
AcDbEntity
  8
Make2D$可见线$普通线
100
AcDbVertex
100
AcDb2dVertex
 10
36.97846632455536
 20
256.8391584323473
 30
0.0
  0
VERTEX
  5
2A4
330
273
100
AcDbEntity
  8
Make2D$可见线$普通线
100
AcDbVertex
100
AcDb2dVertex
 10
36.95679430445881
 20
256.8620570870759
 30
0.0
  0
VERTEX
  5
2A5
330
273
100
AcDbEntity
  8
Make2D$可见线$普通线
100
AcDbVertex
100
AcDb2dVertex
 10
36.94120010243397
 20
256.8794315832363
 30
0.0
  0
VERTEX
  5
2A6
330
273
100
AcDbEntity
  8
Make2D$可见线$普通线
100
AcDbVertex
100
AcDb2dVertex
 10
36.92604615538099
 20
256.8972147037894
 30
0.0
  0
VERTEX
  5
2A7
330
273
100
AcDbEntity
  8
Make2D$可见线$普通线
100
AcDbVertex
100
AcDb2dVertex
 10
36.91142767709582
 20
256.9154273391214
 30
0.0
  0
VERTEX
  5
2A8
330
273
100
AcDbEntity
  8
Make2D$可见线$普通线
100
AcDbVertex
100
AcDb2dVertex
 10
36.90434899305239
 20
256.9247012530755
 30
0.0
  0
VERTEX
  5
2A9
330
273
100
AcDbEntity
  8
Make2D$可见线$普通线
100
AcDbVertex
100
AcDb2dVertex
 10
36.89743988137441
 20
256.9340903796192
 30
0.0
  0
VERTEX
  5
2AA
330
273
100
AcDbEntity
  8
Make2D$可见线$普通线
100
AcDbVertex
100
AcDb2dVertex
 10
36.89071224378635
 20
256.943597330051
 30
0.0
  0
VERTEX
  5
2AB
330
273
100
AcDbEntity
  8
Make2D$可见线$普通线
100
AcDbVertex
100
AcDb2dVertex
 10
36.88417798201272
 20
256.9532247156692
 30
0.0
  0
VERTEX
  5
2AC
330
273
100
AcDbEntity
  8
Make2D$可见线$普通线
100
AcDbVertex
100
AcDb2dVertex
 10
36.877848997778
 20
256.9629751477721
 30
0.0
  0
VERTEX
  5
2AD
330
273
100
AcDbEntity
  8
Make2D$可见线$普通线
100
AcDbVertex
100
AcDb2dVertex
 10
36.87173719280671
 20
256.972851237658
 30
0.0
  0
VERTEX
  5
2AE
330
273
100
AcDbEntity
  8
Make2D$可见线$普通线
100
AcDbVertex
100
AcDb2dVertex
 10
36.86585446882331
 20
256.9828555966253
 30
0.0
  0
VERTEX
  5
2AF
330
273
100
AcDbEntity
  8
Make2D$可见线$普通线
100
AcDbVertex
100
AcDb2dVertex
 10
36.86021272755232
 20
256.9929908359723
 30
0.0
  0
VERTEX
  5
2B0
330
273
100
AcDbEntity
  8
Make2D$可见线$普通线
100
AcDbVertex
100
AcDb2dVertex
 10
36.85482387071821
 20
257.0032595669973
 30
0.0
  0
VERTEX
  5
2B1
330
273
100
AcDbEntity
  8
Make2D$可见线$普通线
100
AcDbVertex
100
AcDb2dVertex
 10
36.84969980004551
 20
257.0136644009986
 30
0.0
  0
VERTEX
  5
2B2
330
273
100
AcDbEntity
  8
Make2D$可见线$普通线
100
AcDbVertex
100
AcDb2dVertex
 10
36.84603323286761
 20
257.0215718145072
 30
0.0
  0
VERTEX
  5
2B3
330
273
100
AcDbEntity
  8
Make2D$可见线$普通线
100
AcDbVertex
100
AcDb2dVertex
 10
36.84253736999993
 20
257.0295559945604
 30
0.0
  0
VERTEX
  5
2B4
330
273
100
AcDbEntity
  8
Make2D$可见线$普通线
100
AcDbVertex
100
AcDb2dVertex
 10
36.83922675508973
 20
257.037615418359
 30
0.0
  0
VERTEX
  5
2B5
330
273
100
AcDbEntity
  8
Make2D$可见线$普通线
100
AcDbVertex
100
AcDb2dVertex
 10
36.83611593178428
 20
257.0457485631036
 30
0.0
  0
VERTEX
  5
2B6
330
273
100
AcDbEntity
  8
Make2D$可见线$普通线
100
AcDbVertex
100
AcDb2dVertex
 10
36.83321944373081
 20
257.0539539059948
 30
0.0
  0
VERTEX
  5
2B7
330
273
100
AcDbEntity
  8
Make2D$可见线$普通线
100
AcDbVertex
100
AcDb2dVertex
 10
36.83055183457658
 20
257.0622299242334
 30
0.0
  0
VERTEX
  5
2B8
330
273
100
AcDbEntity
  8
Make2D$可见线$普通线
100
AcDbVertex
100
AcDb2dVertex
 10
36.82812764796885
 20
257.0705750950199
 30
0.0
  0
VERTEX
  5
2B9
330
273
100
AcDbEntity
  8
Make2D$可见线$普通线
100
AcDbVertex
100
AcDb2dVertex
 10
36.82596142755486
 20
257.078987895555
 30
0.0
  0
VERTEX
  5
2BA
330
273
100
AcDbEntity
  8
Make2D$可见线$普通线
100
AcDbVertex
100
AcDb2dVertex
 10
36.82406771698187
 20
257.0874668030394
 30
0.0
  0
VERTEX
  5
2BB
330
273
100
AcDbEntity
  8
Make2D$可见线$普通线
100
AcDbVertex
100
AcDb2dVertex
 10
36.82246105989712
 20
257.0960102946736
 30
0.0
  0
VERTEX
  5
2BC
330
273
100
AcDbEntity
  8
Make2D$可见线$普通线
100
AcDbVertex
100
AcDb2dVertex
 10
36.82176992130261
 20
257.1003057836722
 30
0.0
  0
VERTEX
  5
2BD
330
273
100
AcDbEntity
  8
Make2D$可见线$普通线
100
AcDbVertex
100
AcDb2dVertex
 10
36.82115599994788
 20
257.1046168476585
 30
0.0
  0
VERTEX
  5
2BE
330
273
100
AcDbEntity
  8
Make2D$可见线$普通线
100
AcDbVertex
100
AcDb2dVertex
 10
36.82062111378885
 20
257.1089432962826
 30
0.0
  0
VERTEX
  5
2BF
330
273
100
AcDbEntity
  8
Make2D$可见线$普通线
100
AcDbVertex
100
AcDb2dVertex
 10
36.8201670807814
 20
257.1132849391945
 30
0.0
  0
VERTEX
  5
2C0
330
273
100
AcDbEntity
  8
Make2D$可见线$普通线
100
AcDbVertex
100
AcDb2dVertex
 10
36.81979571888147
 20
257.1176415860444
 30
0.0
  0
VERTEX
  5
2C1
330
273
100
AcDbEntity
  8
Make2D$可见线$普通线
100
AcDbVertex
100
AcDb2dVertex
 10
36.81950884604493
 20
257.1220130464824
 30
0.0
  0
VERTEX
  5
2C2
330
273
100
AcDbEntity
  8
Make2D$可见线$普通线
100
AcDbVertex
100
AcDb2dVertex
 10
36.81930828022771
 20
257.1263991301585
 30
0.0
  0
VERTEX
  5
2C3
330
273
100
AcDbEntity
  8
Make2D$可见线$普通线
100
AcDbVertex
100
AcDb2dVertex
 10
36.81919583938571
 20
257.1307996467228
 30
0.0
  0
VERTEX
  5
2C4
330
273
100
AcDbEntity
  8
Make2D$可见线$普通线
100
AcDbVertex
100
AcDb2dVertex
 10
36.81917334147484
 20
257.1352144058254
 30
0.0
  0
VERTEX
  5
2C5
330
273
100
AcDbEntity
  8
Make2D$可见线$普通线
100
AcDbVertex
100
AcDb2dVertex
 10
36.81924260445101
 20
257.1396432171163
 30
0.0
  0
VERTEX
  5
2C6
330
273
100
AcDbEntity
  8
Make2D$可见线$普通线
100
AcDbVertex
100
AcDb2dVertex
 10
36.81940544627011
 20
257.1440858902457
 30
0.0
  0
VERTEX
  5
2C7
330
273
100
AcDbEntity
  8
Make2D$可见线$普通线
100
AcDbVertex
100
AcDb2dVertex
 10
36.81966368488806
 20
257.1485422348638
 30
0.0
 42
0.0033396780169874
  0
VERTEX
  5
2C8
330
273
100
AcDbEntity
  8
Make2D$可见线$普通线
100
AcDbVertex
100
AcDb2dVertex
 10
19.29418170566106
 20
258.195534111534
 30
0.0
  0
VERTEX
  5
2C9
330
273
100
AcDbEntity
  8
Make2D$可见线$普通线
100
AcDbVertex
100
AcDb2dVertex
 10
8.443314166912813
 20
258.5282162137427
 30
0.0
 42
0.0148709247412726
  0
VERTEX
  5
2CA
330
273
100
AcDbEntity
  8
Make2D$可见线$普通线
100
AcDbVertex
100
AcDb2dVertex
 10
6.710164180535854
 20
258.5301820714728
 30
0.0
  0
SEQEND
  5
2CB
330
273
100
AcDbEntity
  8
Make2D$可见线$普通线
  0
POLYLINE
  5
2CC
330
1F
100
AcDbEntity
  8
Make2D$可见线$普通线
100
AcDb2dPolyline
 66
     1
 10
0.0
 20
0.0
 30
0.0
  0
VERTEX
  5
2CD
330
2CC
100
AcDbEntity
  8
Make2D$可见线$普通线
100
AcDbVertex
100
AcDb2dVertex
 10
11.24889598549515
 20
256.5254633629734
 30
0.0
  0
VERTEX
  5
2CE
330
2CC
100
AcDbEntity
  8
Make2D$可见线$普通线
100
AcDbVertex
100
AcDb2dVertex
 10
12.06338321809141
 20
256.6037267457632
 30
0.0
  0
VERTEX
  5
2CF
330
2CC
100
AcDbEntity
  8
Make2D$可见线$普通线
100
AcDbVertex
100
AcDb2dVertex
 10
12.90832125376641
 20
256.6687875786942
 30
0.0
  0
VERTEX
  5
2D0
330
2CC
100
AcDbEntity
  8
Make2D$可见线$普通线
100
AcDbVertex
100
AcDb2dVertex
 10
13.78048316222834
 20
256.7186892337111
 30
0.0
  0
VERTEX
  5
2D1
330
2CC
100
AcDbEntity
  8
Make2D$可见线$普通线
100
AcDbVertex
100
AcDb2dVertex
 10
14.67664201318536
 20
256.7514750827586
 30
0.0
  0
VERTEX
  5
2D2
330
2CC
100
AcDbEntity
  8
Make2D$可见线$普通线
100
AcDbVertex
100
AcDb2dVertex
 10
15.59357087634567
 20
256.7651884977816
 30
0.0
  0
VERTEX
  5
2D3
330
2CC
100
AcDbEntity
  8
Make2D$可见线$普通线
100
AcDbVertex
100
AcDb2dVertex
 10
16.52804282141743
 20
256.7578728507246
 30
0.0
  0
VERTEX
  5
2D4
330
2CC
100
AcDbEntity
  8
Make2D$可见线$普通线
100
AcDbVertex
100
AcDb2dVertex
 10
17.47683091810882
 20
256.7275715135324
 30
0.0
  0
VERTEX
  5
2D5
330
2CC
100
AcDbEntity
  8
Make2D$可见线$普通线
100
AcDbVertex
100
AcDb2dVertex
 10
18.43670823612803
 20
256.6723278581497
 30
0.0
  0
VERTEX
  5
2D6
330
2CC
100
AcDbEntity
  8
Make2D$可见线$普通线
100
AcDbVertex
100
AcDb2dVertex
 10
19.41100284077168
 20
256.5890781771001
 30
0.0
  0
VERTEX
  5
2D7
330
2CC
100
AcDbEntity
  8
Make2D$可见线$普通线
100
AcDbVertex
100
AcDb2dVertex
 10
20.37983840290687
 20
256.4782059173367
 30
0.0
  0
VERTEX
  5
2D8
330
2CC
100
AcDbEntity
  8
Make2D$可见线$普通线
100
AcDbVertex
100
AcDb2dVertex
 10
21.33842002534592
 20
256.3405687406961
 30
0.0
  0
VERTEX
  5
2D9
330
2CC
100
AcDbEntity
  8
Make2D$可见线$普通线
100
AcDbVertex
100
AcDb2dVertex
 10
22.28195281090117
 20
256.177024309015
 30
0.0
  0
VERTEX
  5
2DA
330
2CC
100
AcDbEntity
  8
Make2D$可见线$普通线
100
AcDbVertex
100
AcDb2dVertex
 10
23.20564186238494
 20
255.98843028413
 30
0.0
  0
VERTEX
  5
2DB
330
2CC
100
AcDbEntity
  8
Make2D$可见线$普通线
100
AcDbVertex
100
AcDb2dVertex
 10
24.10469228260957
 20
255.7756443278778
 30
0.0
  0
VERTEX
  5
2DC
330
2CC
100
AcDbEntity
  8
Make2D$可见线$普通线
100
AcDbVertex
100
AcDb2dVertex
 10
24.97430917438737
 20
255.5395241020952
 30
0.0
  0
VERTEX
  5
2DD
330
2CC
100
AcDbEntity
  8
Make2D$可见线$普通线
100
AcDbVertex
100
AcDb2dVertex
 10
25.39658164173757
 20
255.4129816574539
 30
0.0
  0
VERTEX
  5
2DE
330
2CC
100
AcDbEntity
  8
Make2D$可见线$普通线
100
AcDbVertex
100
AcDb2dVertex
 10
25.80969764053069
 20
255.2809272686187
 30
0.0
  0
VERTEX
  5
2DF
330
2CC
100
AcDbEntity
  8
Make2D$可见线$普通线
100
AcDbVertex
100
AcDb2dVertex
 10
25.7907301575801
 20
255.2232810675587
 30
0.0
 42
0.0188648266901082
  0
VERTEX
  5
2E0
330
2CC
100
AcDbEntity
  8
Make2D$可见线$普通线
100
AcDbVertex
100
AcDb2dVertex
 10
23.85282901776574
 20
255.7829035565121
 30
0.0
 42
0.0165070264350916
  0
VERTEX
  5
2E1
330
2CC
100
AcDbEntity
  8
Make2D$可见线$普通线
100
AcDbVertex
100
AcDb2dVertex
 10
21.97043130975391
 20
256.1835565743789
 30
0.0
  0
VERTEX
  5
2E2
330
2CC
100
AcDbEntity
  8
Make2D$可见线$普通线
100
AcDbVertex
100
AcDb2dVertex
 10
20.92980772922877
 20
256.3518226429645
 30
0.0
  0
VERTEX
  5
2E3
330
2CC
100
AcDbEntity
  8
Make2D$可见线$普通线
100
AcDbVertex
100
AcDb2dVertex
 10
19.88426497495658
 20
256.4861776025719
 30
0.0
  0
VERTEX
  5
2E4
330
2CC
100
AcDbEntity
  8
Make2D$可见线$普通线
100
AcDbVertex
100
AcDb2dVertex
 10
18.74737864301655
 20
256.5950700349515
 30
0.0
  0
VERTEX
  5
2E5
330
2CC
100
AcDbEntity
  8
Make2D$可见线$普通线
100
AcDbVertex
100
AcDb2dVertex
 10
17.60759806279367
 20
256.6676532460156
 30
0.0
  0
VERTEX
  5
2E6
330
2CC
100
AcDbEntity
  8
Make2D$可见线$普通线
100
AcDbVertex
100
AcDb2dVertex
 10
16.40075207263319
 20
256.7065238734565
 30
0.0
  0
VERTEX
  5
2E7
330
2CC
100
AcDbEntity
  8
Make2D$可见线$普通线
100
AcDbVertex
100
AcDb2dVertex
 10
15.1932814503223
 20
256.7082167704469
 30
0.0
  0
VERTEX
  5
2E8
330
2CC
100
AcDbEntity
  8
Make2D$可见线$普通线
100
AcDbVertex
100
AcDb2dVertex
 10
13.96925441627255
 20
256.6734233868617
 30
0.0
  0
VERTEX
  5
2E9
330
2CC
100
AcDbEntity
  8
Make2D$可见线$普通线
100
AcDbVertex
100
AcDb2dVertex
 10
12.74674224143337
 20
256.6033039031505
 30
0.0
  0
VERTEX
  5
2EA
330
2CC
100
AcDbEntity
  8
Make2D$可见线$普通线
100
AcDbVertex
100
AcDb2dVertex
 10
12.03587512793398
 20
256.54673653823
 30
0.0
  0
VERTEX
  5
2EB
330
2CC
100
AcDbEntity
  8
Make2D$可见线$普通线
100
AcDbVertex
100
AcDb2dVertex
 10
11.32466258329171
 20
256.4791900533584
 30
0.0
  0
VERTEX
  5
2EC
330
2CC
100
AcDbEntity
  8
Make2D$可见线$普通线
100
AcDbVertex
100
AcDb2dVertex
 10
11.31862504507957
 20
256.4797087221125
 30
0.0
 42
-0.2240976514049499
  0
VERTEX
  5
2ED
330
2CC
100
AcDbEntity
  8
Make2D$可见线$普通线
100
AcDbVertex
100
AcDb2dVertex
 10
11.24889598549515
 20
256.5254633629734
 30
0.0
  0
SEQEND
  5
2EE
330
2CC
100
AcDbEntity
  8
Make2D$可见线$普通线
  0
POLYLINE
  5
2EF
330
1F
100
AcDbEntity
  8
Make2D$可见线$普通线
100
AcDb2dPolyline
 66
     1
 10
0.0
 20
0.0
 30
0.0
  0
VERTEX
  5
2F0
330
2EF
100
AcDbEntity
  8
Make2D$可见线$普通线
100
AcDbVertex
100
AcDb2dVertex
 10
25.80969764053069
 20
255.2809272686187
 30
0.0
  0
VERTEX
  5
2F1
330
2EF
100
AcDbEntity
  8
Make2D$可见线$普通线
100
AcDbVertex
100
AcDb2dVertex
 10
26.58328974903652
 20
255.3433500765085
 30
0.0
  0
VERTEX
  5
2F2
330
2EF
100
AcDbEntity
  8
Make2D$可见线$普通线
100
AcDbVertex
100
AcDb2dVertex
 10
27.38147253995315
 20
255.3912553278522
 30
0.0
  0
VERTEX
  5
2F3
330
2EF
100
AcDbEntity
  8
Make2D$可见线$普通线
100
AcDbVertex
100
AcDb2dVertex
 10
28.2030034262153
 20
255.422821462284
 30
0.0
  0
VERTEX
  5
2F4
330
2EF
100
AcDbEntity
  8
Make2D$可见线$普通线
100
AcDbVertex
100
AcDb2dVertex
 10
29.04663982075769
 20
255.4362269194382
 30
0.0
  0
VERTEX
  5
2F5
330
2EF
100
AcDbEntity
  8
Make2D$可见线$普通线
100
AcDbVertex
100
AcDb2dVertex
 10
29.91113913651503
 20
255.4296501389491
 30
0.0
  0
VERTEX
  5
2F6
330
2EF
100
AcDbEntity
  8
Make2D$可见线$普通线
100
AcDbVertex
100
AcDb2dVertex
 10
30.79525878642205
 20
255.4012695604508
 30
0.0
  0
VERTEX
  5
2F7
330
2EF
100
AcDbEntity
  8
Make2D$可见线$普通线
100
AcDbVertex
100
AcDb2dVertex
 10
31.69775618341346
 20
255.3492636235777
 30
0.0
  0
VERTEX
  5
2F8
330
2EF
100
AcDbEntity
  8
Make2D$可见线$普通线
100
AcDbVertex
100
AcDb2dVertex
 10
32.61738874042398
 20
255.2718107679639
 30
0.0
  0
VERTEX
  5
2F9
330
2EF
100
AcDbEntity
  8
Make2D$可见线$普通线
100
AcDbVertex
100
AcDb2dVertex
 10
33.5722787833825
 20
255.1637067892852
 30
0.0
  0
VERTEX
  5
2FA
330
2EF
100
AcDbEntity
  8
Make2D$可见线$普通线
100
AcDbVertex
100
AcDb2dVertex
 10
34.51773664825426
 20
255.0277312365527
 30
0.0
  0
VERTEX
  5
2FB
330
2EF
100
AcDbEntity
  8
Make2D$可见线$普通线
100
AcDbVertex
100
AcDb2dVertex
 10
35.44987822562283
 20
254.8650774573408
 30
0.0
  0
VERTEX
  5
2FC
330
2EF
100
AcDbEntity
  8
Make2D$可见线$普通线
100
AcDbVertex
100
AcDb2dVertex
 10
36.36481940607179
 20
254.676938799224
 30
0.0
  0
VERTEX
  5
2FD
330
2EF
100
AcDbEntity
  8
Make2D$可见线$普通线
100
AcDbVertex
100
AcDb2dVertex
 10
37.2586760801847
 20
254.4645086097766
 30
0.0
  0
VERTEX
  5
2FE
330
2EF
100
AcDbEntity
  8
Make2D$可见线$普通线
100
AcDbVertex
100
AcDb2dVertex
 10
38.12756413854515
 20
254.2289802365731
 30
0.0
  0
VERTEX
  5
2FF
330
2EF
100
AcDbEntity
  8
Make2D$可见线$普通线
100
AcDbVertex
100
AcDb2dVertex
 10
38.96759947173668
 20
253.9715470271879
 30
0.0
  0
VERTEX
  5
300
330
2EF
100
AcDbEntity
  8
Make2D$可见线$普通线
100
AcDbVertex
100
AcDb2dVertex
 10
39.37558358220149
 20
253.8349890300441
 30
0.0
  0
VERTEX
  5
301
330
2EF
100
AcDbEntity
  8
Make2D$可见线$普通线
100
AcDbVertex
100
AcDb2dVertex
 10
39.77489797034288
 20
253.6934023291954
 30
0.0
 42
-0.6801741803148821
  0
VERTEX
  5
302
330
2EF
100
AcDbEntity
  8
Make2D$可见线$普通线
100
AcDbVertex
100
AcDb2dVertex
 10
39.59174316050023
 20
253.7593526442425
 30
0.0
  0
SEQEND
  5
303
330
2EF
100
AcDbEntity
  8
Make2D$可见线$普通线
  0
ENDSEC
  0
SECTION
  2
OBJECTS
  0
DICTIONARY
  5
C
330
0
100
AcDbDictionary
281
     1
  3
ACAD_GROUP
350
D
  3
ACAD_LAYOUT
350
1A
  3
ACAD_MATERIAL
350
3B
  3
ACAD_MLEADERSTYLE
350
32E
  3
ACAD_MLINESTYLE
350
17
  3
ACAD_PLOTSETTINGS
350
19
  3
ACAD_PLOTSTYLENAME
350
E
  3
ACAD_SCALELIST
350
3F
  3
ACAD_TABLESTYLE
350
32D
  3
ACAD_VISUALSTYLE
350
2A
  3
AcDbVariableDictionary
350
304
  0
DICTIONARY
  5
D
102
{ACAD_REACTORS
330
C
102
}
330
C
100
AcDbDictionary
281
     1
  0
DICTIONARY
  5
1A
102
{ACAD_REACTORS
330
C
102
}
330
C
100
AcDbDictionary
281
     1
  3
Layout1
350
1E
  3
Layout2
350
26
  3
Model
350
22
  0
DICTIONARY
  5
3B
102
{ACAD_REACTORS
330
C
102
}
330
C
100
AcDbDictionary
281
     1
  3
ByBlock
350
3D
  3
ByLayer
350
3C
  3
Global
350
3E
  0
DICTIONARY
  5
32E
102
{ACAD_REACTORS
330
C
102
}
330
C
100
AcDbDictionary
281
     1
  0
DICTIONARY
  5
17
102
{ACAD_REACTORS
330
C
102
}
330
C
100
AcDbDictionary
281
     1
  3
Standard
350
18
  0
DICTIONARY
  5
19
102
{ACAD_REACTORS
330
C
102
}
330
C
100
AcDbDictionary
281
     1
  0
ACDBDICTIONARYWDFLT
  5
E
102
{ACAD_REACTORS
330
C
102
}
330
C
100
AcDbDictionary
281
     1
  3
Normal
350
F
100
AcDbDictionaryWithDefault
340
F
  0
DICTIONARY
  5
3F
102
{ACAD_REACTORS
330
C
102
}
330
C
100
AcDbDictionary
281
     1
  3
A0
350
40
  3
A1
350
41
  3
A2
350
42
  3
A3
350
43
  3
A4
350
44
  3
A5
350
45
  3
A6
350
46
  3
A7
350
47
  3
A8
350
48
  3
A9
350
49
  3
B0
350
4A
  3
B1
350
4B
  3
B2
350
4C
  3
B3
350
4D
  3
B4
350
4E
  3
B5
350
4F
  3
B6
350
50
  3
B7
350
51
  3
B8
350
52
  3
B9
350
53
  3
C0
350
54
  3
C1
350
55
  3
C2
350
56
  3
C3
350
57
  3
C4
350
58
  3
C5
350
59
  3
C6
350
5A
  3
C7
350
5B
  3
C8
350
5C
  3
C9
350
5D
  3
D0
350
5E
  3
D1
350
5F
  3
D2
350
60
  0
DICTIONARY
  5
32D
102
{ACAD_REACTORS
330
C
102
}
330
C
100
AcDbDictionary
281
     1
  0
DICTIONARY
  5
2A
102
{ACAD_REACTORS
330
C
102
}
330
C
100
AcDbDictionary
281
     1
  3
2dWireframe
350
2F
  3
3D Hidden
350
31
  3
3dWireframe
350
30
  3
Basic
350
32
  3
Brighten
350
36
  3
ColorChange
350
3A
  3
Conceptual
350
34
  3
Dim
350
35
  3
Facepattern
350
39
  3
Flat
350
2B
  3
FlatWithEdges
350
2C
  3
Gouraud
350
2D
  3
GouraudWithEdges
350
2E
  3
Linepattern
350
38
  3
Realistic
350
33
  3
Thicken
350
37
  0
DICTIONARY
  5
304
102
{ACAD_REACTORS
330
C
102
}
330
C
100
AcDbDictionary
281
     1
  3
CANNOSCALE
350
305
  3
MSLTSCALE
350
306
  0
LAYOUT
  5
1E
102
{ACAD_REACTORS
330
1A
102
}
330
1A
100
AcDbPlotSettings
  1

  2
none_device
  4

  6

 40
0.0
 41
0.0
 42
0.0
 43
0.0
 44
0.0
 45
0.0
 46
0.0
 47
0.0
 48
0.0
 49
0.0
140
0.0
141
0.0
142
1.0
143
1.0
 70
   688
 72
     0
 73
     0
 74
     5
  7

 75
    16
 76
     0
 77
     2
 78
   300
147
1.0
148
0.0
149
0.0
100
AcDbLayout
  1
Layout1
 70
     1
 71
     1
 10
0.0
 20
0.0
 11
12.0
 21
9.0
 12
0.0
 22
0.0
 32
0.0
 14
1.000000000000000E+20
 24
1.000000000000000E+20
 34
1.000000000000000E+20
 15
-1.000000000000000E+20
 25
-1.000000000000000E+20
 35
-1.000000000000000E+20
146
0.0
 13
0.0
 23
0.0
 33
0.0
 16
1.0
 26
0.0
 36
0.0
 17
0.0
 27
1.0
 37
0.0
 76
     0
330
1B
  0
LAYOUT
  5
26
102
{ACAD_REACTORS
330
1A
102
}
330
1A
100
AcDbPlotSettings
  1

  2
none_device
  4

  6

 40
0.0
 41
0.0
 42
0.0
 43
0.0
 44
0.0
 45
0.0
 46
0.0
 47
0.0
 48
0.0
 49
0.0
140
0.0
141
0.0
142
1.0
143
1.0
 70
   688
 72
     0
 73
     0
 74
     5
  7

 75
    16
 76
     0
 77
     2
 78
   300
147
1.0
148
0.0
149
0.0
100
AcDbLayout
  1
Layout2
 70
     1
 71
     2
 10
0.0
 20
0.0
 11
0.0
 21
0.0
 12
0.0
 22
0.0
 32
0.0
 14
0.0
 24
0.0
 34
0.0
 15
0.0
 25
0.0
 35
0.0
146
0.0
 13
0.0
 23
0.0
 33
0.0
 16
1.0
 26
0.0
 36
0.0
 17
0.0
 27
1.0
 37
0.0
 76
     0
330
23
  0
LAYOUT
  5
22
102
{ACAD_REACTORS
330
1A
102
}
330
1A
100
AcDbPlotSettings
  1

  2
none_device
  4
Letter_(8.50_x_11.00_Inches)
  6

 40
6.35
 41
6.35
 42
6.35000508
 43
6.35000508
 44
215.9
 45
279.4
 46
0.0
 47
0.0
 48
0.0
 49
0.0
140
0.0
141
0.0
142
1.0
143
1.0
 70
  1712
 72
     0
 73
     0
 74
     0
  7

 75
     0
 76
     0
 77
     2
 78
   300
147
1.0
148
0.0
149
0.0
100
AcDbLayout
  1
Model
 70
     1
 71
     0
 10
0.0
 20
0.0
 11
12.0
 21
9.0
 12
0.0
 22
0.0
 32
0.0
 14
0.0000000000000147
 24
247.2995080498284
 34
0.0
 15
79.28949672144722
 25
295.6397169028902
 35
0.0
146
0.0
 13
0.0
 23
0.0
 33
0.0
 16
1.0
 26
0.0
 36
0.0
 17
0.0
 27
1.0
 37
0.0
 76
     0
330
1F
331
29
  0
MATERIAL
  5
3D
102
{ACAD_REACTORS
330
3B
102
}
102
{ACAD_XDICTIONARY
360
329
102
}
330
3B
100
AcDbMaterial
  1
ByBlock
  0
MATERIAL
  5
3C
102
{ACAD_REACTORS
330
3B
102
}
102
{ACAD_XDICTIONARY
360
327
102
}
330
3B
100
AcDbMaterial
  1
ByLayer
  0
MATERIAL
  5
3E
102
{ACAD_REACTORS
330
3B
102
}
102
{ACAD_XDICTIONARY
360
32B
102
}
330
3B
100
AcDbMaterial
  1
Global
  0
MLINESTYLE
  5
18
102
{ACAD_REACTORS
330
17
102
}
330
17
100
AcDbMlineStyle
  2
Standard
 70
     0
  3

 62
   256
 51
90.0
 52
90.0
 71
     2
 49
0.5
 62
   256
  6
BYLAYER
 49
-0.5
 62
   256
  6
BYLAYER
  0
ACDBPLACEHOLDER
  5
F
102
{ACAD_REACTORS
330
E
102
}
330
E
  0
SCALE
  5
40
102
{ACAD_REACTORS
330
3F
102
}
330
3F
100
AcDbScale
 70
     0
300
1:1
140
1.0
141
1.0
290
     1
  0
SCALE
  5
41
102
{ACAD_REACTORS
330
3F
102
}
330
3F
100
AcDbScale
 70
     0
300
1:2
140
1.0
141
2.0
290
     0
  0
SCALE
  5
42
102
{ACAD_REACTORS
330
3F
102
}
330
3F
100
AcDbScale
 70
     0
300
1:4
140
1.0
141
4.0
290
     0
  0
SCALE
  5
43
102
{ACAD_REACTORS
330
3F
102
}
330
3F
100
AcDbScale
 70
     0
300
1:5
140
1.0
141
5.0
290
     0
  0
SCALE
  5
44
102
{ACAD_REACTORS
330
3F
102
}
330
3F
100
AcDbScale
 70
     0
300
1:8
140
1.0
141
8.0
290
     0
  0
SCALE
  5
45
102
{ACAD_REACTORS
330
3F
102
}
330
3F
100
AcDbScale
 70
     0
300
1:10
140
1.0
141
10.0
290
     0
  0
SCALE
  5
46
102
{ACAD_REACTORS
330
3F
102
}
330
3F
100
AcDbScale
 70
     0
300
1:16
140
1.0
141
16.0
290
     0
  0
SCALE
  5
47
102
{ACAD_REACTORS
330
3F
102
}
330
3F
100
AcDbScale
 70
     0
300
1:20
140
1.0
141
20.0
290
     0
  0
SCALE
  5
48
102
{ACAD_REACTORS
330
3F
102
}
330
3F
100
AcDbScale
 70
     0
300
1:30
140
1.0
141
30.0
290
     0
  0
SCALE
  5
49
102
{ACAD_REACTORS
330
3F
102
}
330
3F
100
AcDbScale
 70
     0
300
1:40
140
1.0
141
40.0
290
     0
  0
SCALE
  5
4A
102
{ACAD_REACTORS
330
3F
102
}
330
3F
100
AcDbScale
 70
     0
300
1:50
140
1.0
141
50.0
290
     0
  0
SCALE
  5
4B
102
{ACAD_REACTORS
330
3F
102
}
330
3F
100
AcDbScale
 70
     0
300
1:100
140
1.0
141
100.0
290
     0
  0
SCALE
  5
4C
102
{ACAD_REACTORS
330
3F
102
}
330
3F
100
AcDbScale
 70
     0
300
2:1
140
2.0
141
1.0
290
     0
  0
SCALE
  5
4D
102
{ACAD_REACTORS
330
3F
102
}
330
3F
100
AcDbScale
 70
     0
300
4:1
140
4.0
141
1.0
290
     0
  0
SCALE
  5
4E
102
{ACAD_REACTORS
330
3F
102
}
330
3F
100
AcDbScale
 70
     0
300
8:1
140
8.0
141
1.0
290
     0
  0
SCALE
  5
4F
102
{ACAD_REACTORS
330
3F
102
}
330
3F
100
AcDbScale
 70
     0
300
10:1
140
10.0
141
1.0
290
     0
  0
SCALE
  5
50
102
{ACAD_REACTORS
330
3F
102
}
330
3F
100
AcDbScale
 70
     0
300
100:1
140
100.0
141
1.0
290
     0
  0
SCALE
  5
51
102
{ACAD_REACTORS
330
3F
102
}
330
3F
100
AcDbScale
 70
     0
300
1/128" = 1'-0"
140
0.0078125
141
12.0
290
     0
  0
SCALE
  5
52
102
{ACAD_REACTORS
330
3F
102
}
330
3F
100
AcDbScale
 70
     0
300
1/64" = 1'-0"
140
0.015625
141
12.0
290
     0
  0
SCALE
  5
53
102
{ACAD_REACTORS
330
3F
102
}
330
3F
100
AcDbScale
 70
     0
300
1/32" = 1'-0"
140
0.03125
141
12.0
290
     0
  0
SCALE
  5
54
102
{ACAD_REACTORS
330
3F
102
}
330
3F
100
AcDbScale
 70
     0
300
1/16" = 1'-0"
140
0.0625
141
12.0
290
     0
  0
SCALE
  5
55
102
{ACAD_REACTORS
330
3F
102
}
330
3F
100
AcDbScale
 70
     0
300
3/32" = 1'-0"
140
0.09375
141
12.0
290
     0
  0
SCALE
  5
56
102
{ACAD_REACTORS
330
3F
102
}
330
3F
100
AcDbScale
 70
     0
300
1/8" = 1'-0"
140
0.125
141
12.0
290
     0
  0
SCALE
  5
57
102
{ACAD_REACTORS
330
3F
102
}
330
3F
100
AcDbScale
 70
     0
300
3/16" = 1'-0"
140
0.1875
141
12.0
290
     0
  0
SCALE
  5
58
102
{ACAD_REACTORS
330
3F
102
}
330
3F
100
AcDbScale
 70
     0
300
1/4" = 1'-0"
140
0.25
141
12.0
290
     0
  0
SCALE
  5
59
102
{ACAD_REACTORS
330
3F
102
}
330
3F
100
AcDbScale
 70
     0
300
3/8" = 1'-0"
140
0.375
141
12.0
290
     0
  0
SCALE
  5
5A
102
{ACAD_REACTORS
330
3F
102
}
330
3F
100
AcDbScale
 70
     0
300
1/2" = 1'-0"
140
0.5
141
12.0
290
     0
  0
SCALE
  5
5B
102
{ACAD_REACTORS
330
3F
102
}
330
3F
100
AcDbScale
 70
     0
300
3/4" = 1'-0"
140
0.75
141
12.0
290
     0
  0
SCALE
  5
5C
102
{ACAD_REACTORS
330
3F
102
}
330
3F
100
AcDbScale
 70
     0
300
1" = 1'-0"
140
1.0
141
12.0
290
     0
  0
SCALE
  5
5D
102
{ACAD_REACTORS
330
3F
102
}
330
3F
100
AcDbScale
 70
     0
300
1-1/2" = 1'-0"
140
1.5
141
12.0
290
     0
  0
SCALE
  5
5E
102
{ACAD_REACTORS
330
3F
102
}
330
3F
100
AcDbScale
 70
     0
300
3" = 1'-0"
140
3.0
141
12.0
290
     0
  0
SCALE
  5
5F
102
{ACAD_REACTORS
330
3F
102
}
330
3F
100
AcDbScale
 70
     0
300
6" = 1'-0"
140
6.0
141
12.0
290
     0
  0
SCALE
  5
60
102
{ACAD_REACTORS
330
3F
102
}
330
3F
100
AcDbScale
 70
     0
300
1'-0" = 1'-0"
140
12.0
141
12.0
290
     0
  0
VISUALSTYLE
  5
2F
102
{ACAD_REACTORS
330
2A
102
}
102
{ACAD_XDICTIONARY
360
30F
102
}
330
2A
100
AcDbVisualStyle
  2
2dWireframe
 70
     4
 71
     0
 72
     2
 73
     0
 90
        0
 40
0.6
 41
30.0
 62
     5
 63
     7
421
 16777215
 74
     1
 91
        4
 64
     7
 65
   257
 75
     1
175
     1
 42
1.0
 92
        0
 66
   257
 43
1.0
 76
     1
 77
     6
 78
     2
 67
     7
 79
     5
170
     0
171
     0
290
     0
174
     0
 93
        1
 44
0.0
173
     0
291
     0
 45
0.0
1001
ACAD
1000
AcDbSavedByObjectVersion
1070
     0
  0
VISUALSTYLE
  5
31
102
{ACAD_REACTORS
330
2A
102
}
102
{ACAD_XDICTIONARY
360
313
102
}
330
2A
100
AcDbVisualStyle
  2
3D Hidden
 70
     6
 71
     1
 72
     2
 73
     2
 90
        0
 40
0.6
 41
30.0
 62
     5
 63
     7
421
 16777215
 74
     2
 91
        2
 64
     7
 65
   257
 75
     2
175
     1
 42
40.0
 92
        0
 66
   257
 43
1.0
 76
     1
 77
     6
 78
     2
 67
     7
 79
     3
170
     0
171
     0
290
     0
174
     0
 93
        1
 44
0.0
173
     0
291
     0
 45
0.0
1001
ACAD
1000
AcDbSavedByObjectVersion
1070
     0
  0
VISUALSTYLE
  5
30
102
{ACAD_REACTORS
330
2A
102
}
102
{ACAD_XDICTIONARY
360
311
102
}
330
2A
100
AcDbVisualStyle
  2
3dWireframe
 70
     5
 71
     0
 72
     2
 73
     0
 90
        0
 40
0.6
 41
30.0
 62
     5
 63
     7
421
 16777215
 74
     1
 91
        4
 64
     7
 65
   257
 75
     1
175
     1
 42
1.0
 92
        0
 66
   257
 43
1.0
 76
     1
 77
     6
 78
     2
 67
     7
 79
     5
170
     0
171
     0
290
     0
174
     0
 93
        1
 44
0.0
173
     0
291
     0
 45
0.0
1001
ACAD
1000
AcDbSavedByObjectVersion
1070
     0
  0
VISUALSTYLE
  5
32
102
{ACAD_REACTORS
330
2A
102
}
102
{ACAD_XDICTIONARY
360
315
102
}
330
2A
100
AcDbVisualStyle
  2
Basic
 70
     7
 71
     1
 72
     0
 73
     1
 90
        0
 40
0.6
 41
30.0
 62
     5
 63
     7
421
 16777215
 74
     0
 91
        4
 64
     7
 65
   257
 75
     1
175
     1
 42
1.0
 92
        8
 66
     7
 43
1.0
 76
     1
 77
     6
 78
     2
 67
     7
 79
     5
170
     0
171
     0
290
     0
174
     0
 93
        1
 44
0.0
173
     0
291
     1
 45
0.0
1001
ACAD
1000
AcDbSavedByObjectVersion
1070
     0
  0
VISUALSTYLE
  5
36
102
{ACAD_REACTORS
330
2A
102
}
102
{ACAD_XDICTIONARY
360
31D
102
}
330
2A
100
AcDbVisualStyle
  2
Brighten
 70
    12
 71
     2
 72
     2
 73
     0
 90
        0
 40
0.6
 41
30.0
 62
     5
 63
     7
421
 16777215
 74
     1
 91
        4
 64
     7
 65
   257
 75
     1
175
     1
 42
1.0
 92
        8
 66
     7
 43
1.0
 76
     1
 77
     6
 78
     2
 67
     7
 79
     5
170
     0
171
     0
290
     0
174
     0
 93
        1
 44
50.0
173
     0
291
     1
 45
0.0
1001
ACAD
1000
AcDbSavedByObjectVersion
1070
     0
  0
VISUALSTYLE
  5
3A
102
{ACAD_REACTORS
330
2A
102
}
102
{ACAD_XDICTIONARY
360
325
102
}
330
2A
100
AcDbVisualStyle
  2
ColorChange
 70
    16
 71
     2
 72
     2
 73
     3
 90
        0
 40
0.6
 41
30.0
 62
     5
 63
     8
421
  8421504
 74
     1
 91
        4
 64
     7
 65
   257
 75
     1
175
     1
 42
1.0
 92
        8
 66
     8
424
  8421504
 43
1.0
 76
     1
 77
     6
 78
     2
 67
     7
 79
     5
170
     0
171
     0
290
     0
174
     0
 93
        1
 44
0.0
173
     0
291
     1
 45
0.0
1001
ACAD
1000
AcDbSavedByObjectVersion
1070
     0
  0
VISUALSTYLE
  5
34
102
{ACAD_REACTORS
330
2A
102
}
102
{ACAD_XDICTIONARY
360
319
102
}
330
2A
100
AcDbVisualStyle
  2
Conceptual
 70
     9
 71
     3
 72
     2
 73
     0
 90
        0
 40
0.6
 41
30.0
 62
     5
 63
     7
421
 16777215
 74
     2
 91
        2
 64
     7
 65
   257
 75
     1
175
     1
 42
40.0
 92
        8
 66
     7
 43
1.0
 76
     1
 77
     6
 78
     2
 67
     7
 79
     3
170
     0
171
     0
290
     0
174
     0
 93
        1
 44
0.0
173
     0
291
     0
 45
0.0
1001
ACAD
1000
AcDbSavedByObjectVersion
1070
     0
  0
VISUALSTYLE
  5
35
102
{ACAD_REACTORS
330
2A
102
}
102
{ACAD_XDICTIONARY
360
31B
102
}
330
2A
100
AcDbVisualStyle
  2
Dim
 70
    11
 71
     2
 72
     2
 73
     0
 90
        0
 40
0.6
 41
30.0
 62
     5
 63
     7
421
 16777215
 74
     1
 91
        4
 64
     7
 65
   257
 75
     1
175
     1
 42
1.0
 92
        8
 66
     7
 43
1.0
 76
     1
 77
     6
 78
     2
 67
     7
 79
     5
170
     0
171
     0
290
     0
174
     0
 93
        1
 44
-50.0
173
     0
291
     1
 45
0.0
1001
ACAD
1000
AcDbSavedByObjectVersion
1070
     0
  0
VISUALSTYLE
  5
39
102
{ACAD_REACTORS
330
2A
102
}
102
{ACAD_XDICTIONARY
360
323
102
}
330
2A
100
AcDbVisualStyle
  2
Facepattern
 70
    15
 71
     2
 72
     2
 73
     0
 90
        0
 40
0.6
 41
30.0
 62
     5
 63
     7
421
 16777215
 74
     1
 91
        4
 64
     7
 65
   257
 75
     1
175
     1
 42
1.0
 92
        8
 66
     7
 43
1.0
 76
     1
 77
     6
 78
     2
 67
     7
 79
     5
170
     0
171
     0
290
     0
174
     0
 93
        1
 44
0.0
173
     0
291
     1
 45
0.0
1001
ACAD
1000
AcDbSavedByObjectVersion
1070
     0
  0
VISUALSTYLE
  5
2B
102
{ACAD_REACTORS
330
2A
102
}
102
{ACAD_XDICTIONARY
360
307
102
}
330
2A
100
AcDbVisualStyle
  2
Flat
 70
     0
 71
     2
 72
     1
 73
     1
 90
        2
 40
0.6
 41
30.0
 62
     5
 63
     7
421
 16777215
 74
     0
 91
        4
 64
     7
 65
   257
 75
     1
175
     1
 42
1.0
 92
        8
 66
     7
 43
1.0
 76
     1
 77
     6
 78
     2
 67
     7
 79
     5
170
     0
171
     0
290
     0
174
     0
 93
       13
 44
0.0
173
     0
291
     1
 45
0.0
1001
ACAD
1000
AcDbSavedByObjectVersion
1070
     0
  0
VISUALSTYLE
  5
2C
102
{ACAD_REACTORS
330
2A
102
}
102
{ACAD_XDICTIONARY
360
309
102
}
330
2A
100
AcDbVisualStyle
  2
FlatWithEdges
 70
     1
 71
     2
 72
     1
 73
     1
 90
        2
 40
0.6
 41
30.0
 62
     5
 63
     7
421
 16777215
 74
     1
 91
        4
 64
     7
 65
   257
 75
     1
175
     1
 42
1.0
 92
        0
 66
   257
 43
1.0
 76
     1
 77
     6
 78
     2
 67
     7
 79
     5
170
     0
171
     0
290
     0
174
     0
 93
       13
 44
0.0
173
     0
291
     1
 45
0.0
1001
ACAD
1000
AcDbSavedByObjectVersion
1070
     0
  0
VISUALSTYLE
  5
2D
102
{ACAD_REACTORS
330
2A
102
}
102
{ACAD_XDICTIONARY
360
30B
102
}
330
2A
100
AcDbVisualStyle
  2
Gouraud
 70
     2
 71
     2
 72
     2
 73
     1
 90
        2
 40
0.6
 41
30.0
 62
     5
 63
     7
421
 16777215
 74
     0
 91
        4
 64
     7
 65
   257
 75
     1
175
     1
 42
1.0
 92
        0
 66
     7
 43
1.0
 76
     1
 77
     6
 78
     2
 67
     7
 79
     5
170
     0
171
     0
290
     0
174
     0
 93
       13
 44
0.0
173
     0
291
     1
 45
0.0
1001
ACAD
1000
AcDbSavedByObjectVersion
1070
     0
  0
VISUALSTYLE
  5
2E
102
{ACAD_REACTORS
330
2A
102
}
102
{ACAD_XDICTIONARY
360
30D
102
}
330
2A
100
AcDbVisualStyle
  2
GouraudWithEdges
 70
     3
 71
     2
 72
     2
 73
     1
 90
        2
 40
0.6
 41
30.0
 62
     5
 63
     7
421
 16777215
 74
     1
 91
        4
 64
     7
 65
   257
 75
     1
175
     1
 42
1.0
 92
        0
 66
   257
 43
1.0
 76
     1
 77
     6
 78
     2
 67
     7
 79
     5
170
     0
171
     0
290
     0
174
     0
 93
       13
 44
0.0
173
     0
291
     1
 45
0.0
1001
ACAD
1000
AcDbSavedByObjectVersion
1070
     0
  0
VISUALSTYLE
  5
38
102
{ACAD_REACTORS
330
2A
102
}
102
{ACAD_XDICTIONARY
360
321
102
}
330
2A
100
AcDbVisualStyle
  2
Linepattern
 70
    14
 71
     2
 72
     2
 73
     0
 90
        0
 40
0.6
 41
30.0
 62
     5
 63
     7
421
 16777215
 74
     1
 91
        4
 64
     7
 65
   257
 75
     7
175
     7
 42
1.0
 92
        8
 66
     7
 43
1.0
 76
     1
 77
     6
 78
     2
 67
     7
 79
     5
170
     0
171
     0
290
     0
174
     0
 93
        1
 44
0.0
173
     0
291
     1
 45
0.0
1001
ACAD
1000
AcDbSavedByObjectVersion
1070
     0
  0
VISUALSTYLE
  5
33
102
{ACAD_REACTORS
330
2A
102
}
102
{ACAD_XDICTIONARY
360
317
102
}
330
2A
100
AcDbVisualStyle
  2
Realistic
 70
     8
 71
     2
 72
     3
 73
     0
 90
        2
 40
0.6
 41
30.0
 62
     5
 63
     7
421
 16777215
 74
     0
 91
        0
 64
     7
 65
   257
 75
     1
175
     1
 42
1.0
 92
        8
 66
   257
 43
1.0
 76
     1
 77
     6
 78
     2
 67
     7
 79
     3
170
     0
171
     0
290
     0
174
     0
 93
       13
 44
0.0
173
     0
291
     0
 45
0.0
1001
ACAD
1000
AcDbSavedByObjectVersion
1070
     0
  0
VISUALSTYLE
  5
37
102
{ACAD_REACTORS
330
2A
102
}
102
{ACAD_XDICTIONARY
360
31F
102
}
330
2A
100
AcDbVisualStyle
  2
Thicken
 70
    13
 71
     2
 72
     2
 73
     0
 90
        0
 40
0.6
 41
30.0
 62
     5
 63
     7
421
 16777215
 74
     1
 91
        4
 64
     7
 65
   257
 75
     1
175
     1
 42
1.0
 92
       12
 66
     7
 43
1.0
 76
     1
 77
     6
 78
     2
 67
     7
 79
     5
170
     0
171
     0
290
     0
174
     0
 93
        1
 44
0.0
173
     0
291
     1
 45
0.0
1001
ACAD
1000
AcDbSavedByObjectVersion
1070
     0
  0
DICTIONARYVAR
  5
305
102
{ACAD_REACTORS
330
304
102
}
330
304
100
DictionaryVariables
280
     0
  1
1:1
  0
DICTIONARYVAR
  5
306
102
{ACAD_REACTORS
330
304
102
}
330
304
100
DictionaryVariables
280
     0
  1
1
  0
DICTIONARY
  5
329
330
3D
100
AcDbDictionary
280
     1
281
     1
  3
ACAD_XREC_ROUNDTRIP
360
32A
  0
DICTIONARY
  5
327
330
3C
100
AcDbDictionary
280
     1
281
     1
  3
ACAD_XREC_ROUNDTRIP
360
328
  0
DICTIONARY
  5
32B
330
3E
100
AcDbDictionary
280
     1
281
     1
  3
ACAD_XREC_ROUNDTRIP
360
32C
  0
DICTIONARY
  5
30F
330
2F
100
AcDbDictionary
280
     1
281
     1
  3
ACAD_XREC_ROUNDTRIP
360
310
  0
DICTIONARY
  5
313
330
31
100
AcDbDictionary
280
     1
281
     1
  3
ACAD_XREC_ROUNDTRIP
360
314
  0
DICTIONARY
  5
311
330
30
100
AcDbDictionary
280
     1
281
     1
  3
ACAD_XREC_ROUNDTRIP
360
312
  0
DICTIONARY
  5
315
330
32
100
AcDbDictionary
280
     1
281
     1
  3
ACAD_XREC_ROUNDTRIP
360
316
  0
DICTIONARY
  5
31D
330
36
100
AcDbDictionary
280
     1
281
     1
  3
ACAD_XREC_ROUNDTRIP
360
31E
  0
DICTIONARY
  5
325
330
3A
100
AcDbDictionary
280
     1
281
     1
  3
ACAD_XREC_ROUNDTRIP
360
326
  0
DICTIONARY
  5
319
330
34
100
AcDbDictionary
280
     1
281
     1
  3
ACAD_XREC_ROUNDTRIP
360
31A
  0
DICTIONARY
  5
31B
330
35
100
AcDbDictionary
280
     1
281
     1
  3
ACAD_XREC_ROUNDTRIP
360
31C
  0
DICTIONARY
  5
323
330
39
100
AcDbDictionary
280
     1
281
     1
  3
ACAD_XREC_ROUNDTRIP
360
324
  0
DICTIONARY
  5
307
330
2B
100
AcDbDictionary
280
     1
281
     1
  3
ACAD_XREC_ROUNDTRIP
360
308
  0
DICTIONARY
  5
309
330
2C
100
AcDbDictionary
280
     1
281
     1
  3
ACAD_XREC_ROUNDTRIP
360
30A
  0
DICTIONARY
  5
30B
330
2D
100
AcDbDictionary
280
     1
281
     1
  3
ACAD_XREC_ROUNDTRIP
360
30C
  0
DICTIONARY
  5
30D
330
2E
100
AcDbDictionary
280
     1
281
     1
  3
ACAD_XREC_ROUNDTRIP
360
30E
  0
DICTIONARY
  5
321
330
38
100
AcDbDictionary
280
     1
281
     1
  3
ACAD_XREC_ROUNDTRIP
360
322
  0
DICTIONARY
  5
317
330
33
100
AcDbDictionary
280
     1
281
     1
  3
ACAD_XREC_ROUNDTRIP
360
318
  0
DICTIONARY
  5
31F
330
37
100
AcDbDictionary
280
     1
281
     1
  3
ACAD_XREC_ROUNDTRIP
360
320
  0
XRECORD
  5
32A
102
{ACAD_REACTORS
330
329
102
}
330
329
100
AcDbXrecord
280
     1
102
MATERIAL
148
0.0
149
0.0
149
0.0
 93
        0
 94
      127
282
     0
 72
     1
 77
     1
171
     1
175
     1
179
     1
273
     0
  0
XRECORD
  5
328
102
{ACAD_REACTORS
330
327
102
}
330
327
100
AcDbXrecord
280
     1
102
MATERIAL
148
0.0
149
0.0
149
0.0
 93
        0
 94
      127
282
     0
 72
     1
 77
     1
171
     1
175
     1
179
     1
273
     0
  0
XRECORD
  5
32C
102
{ACAD_REACTORS
330
32B
102
}
330
32B
100
AcDbXrecord
280
     1
102
MATERIAL
148
0.0
149
0.0
149
0.0
 93
        0
 94
      127
282
     0
 72
     1
 77
     1
171
     1
175
     1
179
     1
273
     0
  0
XRECORD
  5
310
102
{ACAD_REACTORS
330
30F
102
}
330
30F
100
AcDbXrecord
280
     1
102
RTVSPropertyOp0
 70
     1
102
RTVSPropertyOp1
 70
     1
102
RTVSPropertyOp2
 70
     1
102
RTVSPropertyOp3
 70
     1
102
RTVSPropertyOp4
 70
     1
102
RTVSPropertyOp5
 70
     1
102
RTVSPropertyOp6
 70
     1
102
RTVSPropertyOp7
 70
     1
102
RTVSPropertyOp8
 70
     1
102
RTVSPropertyOp9
 70
     1
102
RTVSPropertyOp10
 70
     1
102
RTVSPropertyOp11
 70
     1
102
RTVSPropertyOp12
 70
     1
102
RTVSPropertyOp13
 70
     1
102
RTVSPropertyOp14
 70
     1
102
RTVSPropertyOp15
 70
     1
102
RTVSPropertyOp16
 70
     1
102
RTVSPropertyOp17
 70
     1
102
RTVSPropertyOp18
 70
     1
102
RTVSPropertyOp19
 70
     1
102
RTVSPropertyOp20
 70
     1
102
RTVSPropertyOp21
 70
     1
102
RTVSPropertyOp22
 70
     1
102
RTVSPropertyOp23
 70
     1
102
RTVSPropertyOp24
 70
     1
102
RTVSPropertyOp25
 70
     1
102
RTVSPropertyOp26
 70
     1
102
RTVSPropertyOp27
 70
     1
102
RTVSPropertyOp28
 70
     1
102
RTVSPropertyOp29
 70
     1
102
RTVSPropertyOp30
 70
     1
102
RTVSPropertyOp31
 70
     1
102
RTVSPropertyOp32
 70
     1
102
RTVSPropertyOp33
 70
     1
102
RTVSPropertyOp34
 70
     1
102
RTVSPropertyOp35
 70
     1
102
RTVSPropertyOp36
 70
     1
102
RTVSPropertyOp37
 70
     1
102
RTVSPropertyOp38
 70
     1
102
RTVSPropertyOp39
 70
     1
102
RTVSPropertyOp40
 70
     1
102
RTVSPropertyOp41
 70
     1
102
RTVSPropertyOp42
 70
     1
102
RTVSPropertyOp43
 70
     1
102
RTVSPropertyOp44
 70
     1
102
RTVSPropertyOp45
 70
     1
102
RTVSPropertyOp46
 70
     1
102
RTVSPropertyOp47
 70
     1
102
RTVSPropertyOp48
 70
     1
102
RTVSPropertyOp49
 70
     1
102
RTVSPropertyOp50
 70
     1
102
RTVSPropertyOp51
 70
     0
102
RTVSPropertyOp52
 70
     0
102
RTVSPropertyOp53
 70
     1
102
RTVSPropertyOp54
 70
     1
102
RTVSPropertyOp55
 70
     1
102
RTVSPropertyOp56
 70
     1
102
RTVSPropertyOp57
 70
     1
102
RTVSPost2010Prop28
280
     1
102
RTVSPost2010PropOp28
 70
     1
102
RTVSPost2010Prop29
280
     1
102
RTVSPost2010PropOp29
 70
     1
102
RTVSPost2010Prop30
280
     0
102
RTVSPost2010PropOp30
 70
     1
102
RTVSPost2010Prop31
280
     0
102
RTVSPost2010PropOp31
 70
     1
102
RTVSPost2010Prop32
280
     0
102
RTVSPost2010PropOp32
 70
     1
102
RTVSPost2010Prop33
280
     0
102
RTVSPost2010PropOp33
 70
     1
102
RTVSPost2010Prop34
280
     0
102
RTVSPost2010PropOp34
 70
     1
102
RTVSPost2010Prop35
280
     0
102
RTVSPost2010PropOp35
 70
     1
102
RTVSPost2010Prop36
280
     0
102
RTVSPost2010PropOp36
 70
     1
102
RTVSPost2010Prop37
 90
       50
102
RTVSPost2010PropOp37
 70
     1
102
RTVSPost2010Prop38
140
0.0
102
RTVSPost2010PropOp38
 70
     1
102
RTVSPost2010Prop39
140
1.0
102
RTVSPost2010PropOp39
 70
     1
102
RTVSPost2010Prop40
 90
        0
102
RTVSPost2010PropOp40
 70
     1
102
RTVSPost2010Prop41ColorIndex
 90
       18
102
RTVSPost2010Prop41ColorRGB
 90
        0
102
RTVSPost2010PropOp41
 70
     1
102
RTVSPost2010Prop42
 90
       50
102
RTVSPost2010PropOp42
 70
     1
102
RTVSPost2010Prop43
 90
        3
102
RTVSPost2010PropOp43
 70
     1
102
RTVSPost2010Prop44ColorIndex
 90
        5
102
RTVSPost2010Prop44ColorRGB
 90
      255
102
RTVSPost2010PropOp44
 70
     1
102
RTVSPost2010Prop45
280
     0
102
RTVSPost2010PropOp45
 70
     1
102
RTVSPost2010Prop46
 90
       50
102
RTVSPost2010PropOp46
 70
     1
102
RTVSPost2010Prop47
 90
       50
102
RTVSPost2010PropOp47
 70
     1
102
RTVSPost2010Prop48
 90
       50
102
RTVSPost2010PropOp48
 70
     1
102
RTVSPost2010Prop49
280
     0
102
RTVSPost2010PropOp49
 70
     1
102
RTVSPost2010Prop50
 90
       50
102
RTVSPost2010PropOp50
 70
     1
102
RTVSPost2010Prop51ColorIndex
 90
      256
102
RTVSPost2010Prop51ColorRGB
 90
-16777216
102
RTVSPost2010PropOp51
 70
     0
102
RTVSPost2010Prop52
140
1.0
102
RTVSPost2010PropOp52
 70
     0
102
RTVSPost2010Prop53
 90
        2
102
RTVSPost2010PropOp53
 70
     1
102
RTVSPost2010Prop54
  1
strokes_ogs.tif
102
RTVSPost2010PropOp54
 70
     1
102
RTVSPost2010Prop55
280
     0
102
RTVSPost2010PropOp55
 70
     1
102
RTVSPost2010Prop56
140
1.0
102
RTVSPost2010PropOp56
 70
     1
102
RTVSPost2010Prop57
140
1.0
102
RTVSPost2010PropOp57
 70
     1
  0
XRECORD
  5
314
102
{ACAD_REACTORS
330
313
102
}
330
313
100
AcDbXrecord
280
     1
102
RTVSPropertyOp0
 70
     1
102
RTVSPropertyOp1
 70
     1
102
RTVSPropertyOp2
 70
     1
102
RTVSPropertyOp3
 70
     1
102
RTVSPropertyOp4
 70
     1
102
RTVSPropertyOp5
 70
     1
102
RTVSPropertyOp6
 70
     1
102
RTVSPropertyOp7
 70
     1
102
RTVSPropertyOp8
 70
     1
102
RTVSPropertyOp9
 70
     1
102
RTVSPropertyOp10
 70
     1
102
RTVSPropertyOp11
 70
     1
102
RTVSPropertyOp12
 70
     1
102
RTVSPropertyOp13
 70
     1
102
RTVSPropertyOp14
 70
     1
102
RTVSPropertyOp15
 70
     1
102
RTVSPropertyOp16
 70
     1
102
RTVSPropertyOp17
 70
     1
102
RTVSPropertyOp18
 70
     1
102
RTVSPropertyOp19
 70
     1
102
RTVSPropertyOp20
 70
     1
102
RTVSPropertyOp21
 70
     1
102
RTVSPropertyOp22
 70
     1
102
RTVSPropertyOp23
 70
     1
102
RTVSPropertyOp24
 70
     1
102
RTVSPropertyOp25
 70
     1
102
RTVSPropertyOp26
 70
     1
102
RTVSPropertyOp27
 70
     1
102
RTVSPropertyOp28
 70
     1
102
RTVSPropertyOp29
 70
     1
102
RTVSPropertyOp30
 70
     1
102
RTVSPropertyOp31
 70
     1
102
RTVSPropertyOp32
 70
     1
102
RTVSPropertyOp33
 70
     1
102
RTVSPropertyOp34
 70
     1
102
RTVSPropertyOp35
 70
     1
102
RTVSPropertyOp36
 70
     1
102
RTVSPropertyOp37
 70
     1
102
RTVSPropertyOp38
 70
     1
102
RTVSPropertyOp39
 70
     1
102
RTVSPropertyOp40
 70
     1
102
RTVSPropertyOp41
 70
     1
102
RTVSPropertyOp42
 70
     1
102
RTVSPropertyOp43
 70
     1
102
RTVSPropertyOp44
 70
     1
102
RTVSPropertyOp45
 70
     1
102
RTVSPropertyOp46
 70
     1
102
RTVSPropertyOp47
 70
     1
102
RTVSPropertyOp48
 70
     1
102
RTVSPropertyOp49
 70
     1
102
RTVSPropertyOp50
 70
     1
102
RTVSPropertyOp51
 70
     0
102
RTVSPropertyOp52
 70
     0
102
RTVSPropertyOp53
 70
     1
102
RTVSPropertyOp54
 70
     1
102
RTVSPropertyOp55
 70
     1
102
RTVSPropertyOp56
 70
     1
102
RTVSPropertyOp57
 70
     1
102
RTVSPost2010Prop28
280
     0
102
RTVSPost2010PropOp28
 70
     1
102
RTVSPost2010Prop29
280
     1
102
RTVSPost2010PropOp29
 70
     1
102
RTVSPost2010Prop30
280
     1
102
RTVSPost2010PropOp30
 70
     1
102
RTVSPost2010Prop31
280
     0
102
RTVSPost2010PropOp31
 70
     1
102
RTVSPost2010Prop32
280
     0
102
RTVSPost2010PropOp32
 70
     1
102
RTVSPost2010Prop33
280
     0
102
RTVSPost2010PropOp33
 70
     1
102
RTVSPost2010Prop34
280
     0
102
RTVSPost2010PropOp34
 70
     1
102
RTVSPost2010Prop35
280
     0
102
RTVSPost2010PropOp35
 70
     1
102
RTVSPost2010Prop36
280
     0
102
RTVSPost2010PropOp36
 70
     1
102
RTVSPost2010Prop37
 90
       50
102
RTVSPost2010PropOp37
 70
     1
102
RTVSPost2010Prop38
140
0.0
102
RTVSPost2010PropOp38
 70
     1
102
RTVSPost2010Prop39
140
1.0
102
RTVSPost2010PropOp39
 70
     1
102
RTVSPost2010Prop40
 90
        0
102
RTVSPost2010PropOp40
 70
     1
102
RTVSPost2010Prop41ColorIndex
 90
       18
102
RTVSPost2010Prop41ColorRGB
 90
        0
102
RTVSPost2010PropOp41
 70
     1
102
RTVSPost2010Prop42
 90
       50
102
RTVSPost2010PropOp42
 70
     1
102
RTVSPost2010Prop43
 90
        3
102
RTVSPost2010PropOp43
 70
     1
102
RTVSPost2010Prop44ColorIndex
 90
        5
102
RTVSPost2010Prop44ColorRGB
 90
      255
102
RTVSPost2010PropOp44
 70
     1
102
RTVSPost2010Prop45
280
     0
102
RTVSPost2010PropOp45
 70
     1
102
RTVSPost2010Prop46
 90
       50
102
RTVSPost2010PropOp46
 70
     1
102
RTVSPost2010Prop47
 90
       50
102
RTVSPost2010PropOp47
 70
     1
102
RTVSPost2010Prop48
 90
       50
102
RTVSPost2010PropOp48
 70
     1
102
RTVSPost2010Prop49
280
     0
102
RTVSPost2010PropOp49
 70
     1
102
RTVSPost2010Prop50
 90
       50
102
RTVSPost2010PropOp50
 70
     1
102
RTVSPost2010Prop51ColorIndex
 90
      256
102
RTVSPost2010Prop51ColorRGB
 90
-16777216
102
RTVSPost2010PropOp51
 70
     0
102
RTVSPost2010Prop52
140
1.0
102
RTVSPost2010PropOp52
 70
     0
102
RTVSPost2010Prop53
 90
        2
102
RTVSPost2010PropOp53
 70
     1
102
RTVSPost2010Prop54
  1
strokes_ogs.tif
102
RTVSPost2010PropOp54
 70
     1
102
RTVSPost2010Prop55
280
     0
102
RTVSPost2010PropOp55
 70
     1
102
RTVSPost2010Prop56
140
1.0
102
RTVSPost2010PropOp56
 70
     1
102
RTVSPost2010Prop57
140
1.0
102
RTVSPost2010PropOp57
 70
     1
  0
XRECORD
  5
312
102
{ACAD_REACTORS
330
311
102
}
330
311
100
AcDbXrecord
280
     1
102
RTVSPropertyOp0
 70
     1
102
RTVSPropertyOp1
 70
     1
102
RTVSPropertyOp2
 70
     1
102
RTVSPropertyOp3
 70
     1
102
RTVSPropertyOp4
 70
     1
102
RTVSPropertyOp5
 70
     1
102
RTVSPropertyOp6
 70
     1
102
RTVSPropertyOp7
 70
     1
102
RTVSPropertyOp8
 70
     1
102
RTVSPropertyOp9
 70
     1
102
RTVSPropertyOp10
 70
     1
102
RTVSPropertyOp11
 70
     1
102
RTVSPropertyOp12
 70
     1
102
RTVSPropertyOp13
 70
     1
102
RTVSPropertyOp14
 70
     1
102
RTVSPropertyOp15
 70
     1
102
RTVSPropertyOp16
 70
     1
102
RTVSPropertyOp17
 70
     1
102
RTVSPropertyOp18
 70
     1
102
RTVSPropertyOp19
 70
     1
102
RTVSPropertyOp20
 70
     1
102
RTVSPropertyOp21
 70
     1
102
RTVSPropertyOp22
 70
     1
102
RTVSPropertyOp23
 70
     1
102
RTVSPropertyOp24
 70
     1
102
RTVSPropertyOp25
 70
     1
102
RTVSPropertyOp26
 70
     1
102
RTVSPropertyOp27
 70
     1
102
RTVSPropertyOp28
 70
     1
102
RTVSPropertyOp29
 70
     1
102
RTVSPropertyOp30
 70
     1
102
RTVSPropertyOp31
 70
     1
102
RTVSPropertyOp32
 70
     1
102
RTVSPropertyOp33
 70
     1
102
RTVSPropertyOp34
 70
     1
102
RTVSPropertyOp35
 70
     1
102
RTVSPropertyOp36
 70
     1
102
RTVSPropertyOp37
 70
     1
102
RTVSPropertyOp38
 70
     1
102
RTVSPropertyOp39
 70
     1
102
RTVSPropertyOp40
 70
     1
102
RTVSPropertyOp41
 70
     1
102
RTVSPropertyOp42
 70
     1
102
RTVSPropertyOp43
 70
     1
102
RTVSPropertyOp44
 70
     1
102
RTVSPropertyOp45
 70
     1
102
RTVSPropertyOp46
 70
     1
102
RTVSPropertyOp47
 70
     1
102
RTVSPropertyOp48
 70
     1
102
RTVSPropertyOp49
 70
     1
102
RTVSPropertyOp50
 70
     1
102
RTVSPropertyOp51
 70
     0
102
RTVSPropertyOp52
 70
     0
102
RTVSPropertyOp53
 70
     1
102
RTVSPropertyOp54
 70
     1
102
RTVSPropertyOp55
 70
     1
102
RTVSPropertyOp56
 70
     1
102
RTVSPropertyOp57
 70
     1
102
RTVSPost2010Prop28
280
     0
102
RTVSPost2010PropOp28
 70
     1
102
RTVSPost2010Prop29
280
     1
102
RTVSPost2010PropOp29
 70
     1
102
RTVSPost2010Prop30
280
     1
102
RTVSPost2010PropOp30
 70
     1
102
RTVSPost2010Prop31
280
     0
102
RTVSPost2010PropOp31
 70
     1
102
RTVSPost2010Prop32
280
     0
102
RTVSPost2010PropOp32
 70
     1
102
RTVSPost2010Prop33
280
     0
102
RTVSPost2010PropOp33
 70
     1
102
RTVSPost2010Prop34
280
     0
102
RTVSPost2010PropOp34
 70
     1
102
RTVSPost2010Prop35
280
     0
102
RTVSPost2010PropOp35
 70
     1
102
RTVSPost2010Prop36
280
     0
102
RTVSPost2010PropOp36
 70
     1
102
RTVSPost2010Prop37
 90
       50
102
RTVSPost2010PropOp37
 70
     1
102
RTVSPost2010Prop38
140
0.0
102
RTVSPost2010PropOp38
 70
     1
102
RTVSPost2010Prop39
140
1.0
102
RTVSPost2010PropOp39
 70
     1
102
RTVSPost2010Prop40
 90
        0
102
RTVSPost2010PropOp40
 70
     1
102
RTVSPost2010Prop41ColorIndex
 90
       18
102
RTVSPost2010Prop41ColorRGB
 90
        0
102
RTVSPost2010PropOp41
 70
     1
102
RTVSPost2010Prop42
 90
       50
102
RTVSPost2010PropOp42
 70
     1
102
RTVSPost2010Prop43
 90
        3
102
RTVSPost2010PropOp43
 70
     1
102
RTVSPost2010Prop44ColorIndex
 90
        5
102
RTVSPost2010Prop44ColorRGB
 90
      255
102
RTVSPost2010PropOp44
 70
     1
102
RTVSPost2010Prop45
280
     0
102
RTVSPost2010PropOp45
 70
     1
102
RTVSPost2010Prop46
 90
       50
102
RTVSPost2010PropOp46
 70
     1
102
RTVSPost2010Prop47
 90
       50
102
RTVSPost2010PropOp47
 70
     1
102
RTVSPost2010Prop48
 90
       50
102
RTVSPost2010PropOp48
 70
     1
102
RTVSPost2010Prop49
280
     0
102
RTVSPost2010PropOp49
 70
     1
102
RTVSPost2010Prop50
 90
       50
102
RTVSPost2010PropOp50
 70
     1
102
RTVSPost2010Prop51ColorIndex
 90
      256
102
RTVSPost2010Prop51ColorRGB
 90
-16777216
102
RTVSPost2010PropOp51
 70
     0
102
RTVSPost2010Prop52
140
1.0
102
RTVSPost2010PropOp52
 70
     0
102
RTVSPost2010Prop53
 90
        2
102
RTVSPost2010PropOp53
 70
     1
102
RTVSPost2010Prop54
  1
strokes_ogs.tif
102
RTVSPost2010PropOp54
 70
     1
102
RTVSPost2010Prop55
280
     0
102
RTVSPost2010PropOp55
 70
     1
102
RTVSPost2010Prop56
140
1.0
102
RTVSPost2010PropOp56
 70
     1
102
RTVSPost2010Prop57
140
1.0
102
RTVSPost2010PropOp57
 70
     1
  0
XRECORD
  5
316
102
{ACAD_REACTORS
330
315
102
}
330
315
100
AcDbXrecord
280
     1
102
RTVSPropertyOp0
 70
     1
102
RTVSPropertyOp1
 70
     1
102
RTVSPropertyOp2
 70
     1
102
RTVSPropertyOp3
 70
     1
102
RTVSPropertyOp4
 70
     1
102
RTVSPropertyOp5
 70
     1
102
RTVSPropertyOp6
 70
     1
102
RTVSPropertyOp7
 70
     1
102
RTVSPropertyOp8
 70
     1
102
RTVSPropertyOp9
 70
     1
102
RTVSPropertyOp10
 70
     1
102
RTVSPropertyOp11
 70
     1
102
RTVSPropertyOp12
 70
     1
102
RTVSPropertyOp13
 70
     1
102
RTVSPropertyOp14
 70
     1
102
RTVSPropertyOp15
 70
     1
102
RTVSPropertyOp16
 70
     1
102
RTVSPropertyOp17
 70
     1
102
RTVSPropertyOp18
 70
     1
102
RTVSPropertyOp19
 70
     1
102
RTVSPropertyOp20
 70
     1
102
RTVSPropertyOp21
 70
     1
102
RTVSPropertyOp22
 70
     1
102
RTVSPropertyOp23
 70
     1
102
RTVSPropertyOp24
 70
     1
102
RTVSPropertyOp25
 70
     1
102
RTVSPropertyOp26
 70
     1
102
RTVSPropertyOp27
 70
     1
102
RTVSPropertyOp28
 70
     1
102
RTVSPropertyOp29
 70
     1
102
RTVSPropertyOp30
 70
     1
102
RTVSPropertyOp31
 70
     1
102
RTVSPropertyOp32
 70
     1
102
RTVSPropertyOp33
 70
     1
102
RTVSPropertyOp34
 70
     1
102
RTVSPropertyOp35
 70
     1
102
RTVSPropertyOp36
 70
     1
102
RTVSPropertyOp37
 70
     1
102
RTVSPropertyOp38
 70
     1
102
RTVSPropertyOp39
 70
     1
102
RTVSPropertyOp40
 70
     1
102
RTVSPropertyOp41
 70
     1
102
RTVSPropertyOp42
 70
     1
102
RTVSPropertyOp43
 70
     1
102
RTVSPropertyOp44
 70
     1
102
RTVSPropertyOp45
 70
     1
102
RTVSPropertyOp46
 70
     1
102
RTVSPropertyOp47
 70
     1
102
RTVSPropertyOp48
 70
     1
102
RTVSPropertyOp49
 70
     1
102
RTVSPropertyOp50
 70
     1
102
RTVSPropertyOp51
 70
     0
102
RTVSPropertyOp52
 70
     0
102
RTVSPropertyOp53
 70
     1
102
RTVSPropertyOp54
 70
     1
102
RTVSPropertyOp55
 70
     1
102
RTVSPropertyOp56
 70
     1
102
RTVSPropertyOp57
 70
     1
102
RTVSPost2010Prop28
280
     0
102
RTVSPost2010PropOp28
 70
     1
102
RTVSPost2010Prop29
280
     1
102
RTVSPost2010PropOp29
 70
     1
102
RTVSPost2010Prop30
280
     1
102
RTVSPost2010PropOp30
 70
     1
102
RTVSPost2010Prop31
280
     0
102
RTVSPost2010PropOp31
 70
     1
102
RTVSPost2010Prop32
280
     0
102
RTVSPost2010PropOp32
 70
     1
102
RTVSPost2010Prop33
280
     0
102
RTVSPost2010PropOp33
 70
     1
102
RTVSPost2010Prop34
280
     0
102
RTVSPost2010PropOp34
 70
     1
102
RTVSPost2010Prop35
280
     0
102
RTVSPost2010PropOp35
 70
     1
102
RTVSPost2010Prop36
280
     0
102
RTVSPost2010PropOp36
 70
     1
102
RTVSPost2010Prop37
 90
       50
102
RTVSPost2010PropOp37
 70
     1
102
RTVSPost2010Prop38
140
0.0
102
RTVSPost2010PropOp38
 70
     1
102
RTVSPost2010Prop39
140
1.0
102
RTVSPost2010PropOp39
 70
     1
102
RTVSPost2010Prop40
 90
        0
102
RTVSPost2010PropOp40
 70
     1
102
RTVSPost2010Prop41ColorIndex
 90
       18
102
RTVSPost2010Prop41ColorRGB
 90
        0
102
RTVSPost2010PropOp41
 70
     1
102
RTVSPost2010Prop42
 90
       50
102
RTVSPost2010PropOp42
 70
     1
102
RTVSPost2010Prop43
 90
        3
102
RTVSPost2010PropOp43
 70
     1
102
RTVSPost2010Prop44ColorIndex
 90
        5
102
RTVSPost2010Prop44ColorRGB
 90
      255
102
RTVSPost2010PropOp44
 70
     1
102
RTVSPost2010Prop45
280
     0
102
RTVSPost2010PropOp45
 70
     1
102
RTVSPost2010Prop46
 90
       50
102
RTVSPost2010PropOp46
 70
     1
102
RTVSPost2010Prop47
 90
       50
102
RTVSPost2010PropOp47
 70
     1
102
RTVSPost2010Prop48
 90
       50
102
RTVSPost2010PropOp48
 70
     1
102
RTVSPost2010Prop49
280
     0
102
RTVSPost2010PropOp49
 70
     1
102
RTVSPost2010Prop50
 90
       50
102
RTVSPost2010PropOp50
 70
     1
102
RTVSPost2010Prop51ColorIndex
 90
      256
102
RTVSPost2010Prop51ColorRGB
 90
-16777216
102
RTVSPost2010PropOp51
 70
     0
102
RTVSPost2010Prop52
140
1.0
102
RTVSPost2010PropOp52
 70
     0
102
RTVSPost2010Prop53
 90
        2
102
RTVSPost2010PropOp53
 70
     1
102
RTVSPost2010Prop54
  1
strokes_ogs.tif
102
RTVSPost2010PropOp54
 70
     1
102
RTVSPost2010Prop55
280
     0
102
RTVSPost2010PropOp55
 70
     1
102
RTVSPost2010Prop56
140
1.0
102
RTVSPost2010PropOp56
 70
     1
102
RTVSPost2010Prop57
140
1.0
102
RTVSPost2010PropOp57
 70
     1
  0
XRECORD
  5
31E
102
{ACAD_REACTORS
330
31D
102
}
330
31D
100
AcDbXrecord
280
     1
102
RTVSPropertyOp0
 70
     1
102
RTVSPropertyOp1
 70
     1
102
RTVSPropertyOp2
 70
     1
102
RTVSPropertyOp3
 70
     1
102
RTVSPropertyOp4
 70
     1
102
RTVSPropertyOp5
 70
     1
102
RTVSPropertyOp6
 70
     1
102
RTVSPropertyOp7
 70
     1
102
RTVSPropertyOp8
 70
     1
102
RTVSPropertyOp9
 70
     1
102
RTVSPropertyOp10
 70
     1
102
RTVSPropertyOp11
 70
     1
102
RTVSPropertyOp12
 70
     1
102
RTVSPropertyOp13
 70
     1
102
RTVSPropertyOp14
 70
     1
102
RTVSPropertyOp15
 70
     1
102
RTVSPropertyOp16
 70
     1
102
RTVSPropertyOp17
 70
     1
102
RTVSPropertyOp18
 70
     1
102
RTVSPropertyOp19
 70
     1
102
RTVSPropertyOp20
 70
     1
102
RTVSPropertyOp21
 70
     1
102
RTVSPropertyOp22
 70
     1
102
RTVSPropertyOp23
 70
     1
102
RTVSPropertyOp24
 70
     1
102
RTVSPropertyOp25
 70
     1
102
RTVSPropertyOp26
 70
     1
102
RTVSPropertyOp27
 70
     1
102
RTVSPropertyOp28
 70
     1
102
RTVSPropertyOp29
 70
     1
102
RTVSPropertyOp30
 70
     1
102
RTVSPropertyOp31
 70
     1
102
RTVSPropertyOp32
 70
     1
102
RTVSPropertyOp33
 70
     1
102
RTVSPropertyOp34
 70
     1
102
RTVSPropertyOp35
 70
     1
102
RTVSPropertyOp36
 70
     1
102
RTVSPropertyOp37
 70
     1
102
RTVSPropertyOp38
 70
     1
102
RTVSPropertyOp39
 70
     1
102
RTVSPropertyOp40
 70
     1
102
RTVSPropertyOp41
 70
     1
102
RTVSPropertyOp42
 70
     1
102
RTVSPropertyOp43
 70
     1
102
RTVSPropertyOp44
 70
     1
102
RTVSPropertyOp45
 70
     1
102
RTVSPropertyOp46
 70
     1
102
RTVSPropertyOp47
 70
     1
102
RTVSPropertyOp48
 70
     1
102
RTVSPropertyOp49
 70
     1
102
RTVSPropertyOp50
 70
     1
102
RTVSPropertyOp51
 70
     0
102
RTVSPropertyOp52
 70
     0
102
RTVSPropertyOp53
 70
     1
102
RTVSPropertyOp54
 70
     1
102
RTVSPropertyOp55
 70
     1
102
RTVSPropertyOp56
 70
     1
102
RTVSPropertyOp57
 70
     1
102
RTVSPost2010Prop28
280
     0
102
RTVSPost2010PropOp28
 70
     1
102
RTVSPost2010Prop29
280
     1
102
RTVSPost2010PropOp29
 70
     1
102
RTVSPost2010Prop30
280
     1
102
RTVSPost2010PropOp30
 70
     1
102
RTVSPost2010Prop31
280
     0
102
RTVSPost2010PropOp31
 70
     1
102
RTVSPost2010Prop32
280
     0
102
RTVSPost2010PropOp32
 70
     1
102
RTVSPost2010Prop33
280
     0
102
RTVSPost2010PropOp33
 70
     1
102
RTVSPost2010Prop34
280
     0
102
RTVSPost2010PropOp34
 70
     1
102
RTVSPost2010Prop35
280
     0
102
RTVSPost2010PropOp35
 70
     1
102
RTVSPost2010Prop36
280
     0
102
RTVSPost2010PropOp36
 70
     1
102
RTVSPost2010Prop37
 90
       50
102
RTVSPost2010PropOp37
 70
     1
102
RTVSPost2010Prop38
140
0.0
102
RTVSPost2010PropOp38
 70
     1
102
RTVSPost2010Prop39
140
1.0
102
RTVSPost2010PropOp39
 70
     1
102
RTVSPost2010Prop40
 90
        0
102
RTVSPost2010PropOp40
 70
     1
102
RTVSPost2010Prop41ColorIndex
 90
       18
102
RTVSPost2010Prop41ColorRGB
 90
        0
102
RTVSPost2010PropOp41
 70
     1
102
RTVSPost2010Prop42
 90
       50
102
RTVSPost2010PropOp42
 70
     1
102
RTVSPost2010Prop43
 90
        3
102
RTVSPost2010PropOp43
 70
     1
102
RTVSPost2010Prop44ColorIndex
 90
        5
102
RTVSPost2010Prop44ColorRGB
 90
      255
102
RTVSPost2010PropOp44
 70
     1
102
RTVSPost2010Prop45
280
     0
102
RTVSPost2010PropOp45
 70
     1
102
RTVSPost2010Prop46
 90
       50
102
RTVSPost2010PropOp46
 70
     1
102
RTVSPost2010Prop47
 90
       50
102
RTVSPost2010PropOp47
 70
     1
102
RTVSPost2010Prop48
 90
       50
102
RTVSPost2010PropOp48
 70
     1
102
RTVSPost2010Prop49
280
     0
102
RTVSPost2010PropOp49
 70
     1
102
RTVSPost2010Prop50
 90
       50
102
RTVSPost2010PropOp50
 70
     1
102
RTVSPost2010Prop51ColorIndex
 90
      256
102
RTVSPost2010Prop51ColorRGB
 90
-16777216
102
RTVSPost2010PropOp51
 70
     0
102
RTVSPost2010Prop52
140
1.0
102
RTVSPost2010PropOp52
 70
     0
102
RTVSPost2010Prop53
 90
        2
102
RTVSPost2010PropOp53
 70
     1
102
RTVSPost2010Prop54
  1
strokes_ogs.tif
102
RTVSPost2010PropOp54
 70
     1
102
RTVSPost2010Prop55
280
     0
102
RTVSPost2010PropOp55
 70
     1
102
RTVSPost2010Prop56
140
1.0
102
RTVSPost2010PropOp56
 70
     1
102
RTVSPost2010Prop57
140
1.0
102
RTVSPost2010PropOp57
 70
     1
  0
XRECORD
  5
326
102
{ACAD_REACTORS
330
325
102
}
330
325
100
AcDbXrecord
280
     1
102
RTVSPropertyOp0
 70
     1
102
RTVSPropertyOp1
 70
     1
102
RTVSPropertyOp2
 70
     1
102
RTVSPropertyOp3
 70
     1
102
RTVSPropertyOp4
 70
     1
102
RTVSPropertyOp5
 70
     1
102
RTVSPropertyOp6
 70
     1
102
RTVSPropertyOp7
 70
     1
102
RTVSPropertyOp8
 70
     1
102
RTVSPropertyOp9
 70
     1
102
RTVSPropertyOp10
 70
     1
102
RTVSPropertyOp11
 70
     1
102
RTVSPropertyOp12
 70
     1
102
RTVSPropertyOp13
 70
     1
102
RTVSPropertyOp14
 70
     1
102
RTVSPropertyOp15
 70
     1
102
RTVSPropertyOp16
 70
     1
102
RTVSPropertyOp17
 70
     1
102
RTVSPropertyOp18
 70
     1
102
RTVSPropertyOp19
 70
     1
102
RTVSPropertyOp20
 70
     1
102
RTVSPropertyOp21
 70
     1
102
RTVSPropertyOp22
 70
     1
102
RTVSPropertyOp23
 70
     1
102
RTVSPropertyOp24
 70
     1
102
RTVSPropertyOp25
 70
     1
102
RTVSPropertyOp26
 70
     1
102
RTVSPropertyOp27
 70
     1
102
RTVSPropertyOp28
 70
     1
102
RTVSPropertyOp29
 70
     1
102
RTVSPropertyOp30
 70
     1
102
RTVSPropertyOp31
 70
     1
102
RTVSPropertyOp32
 70
     1
102
RTVSPropertyOp33
 70
     1
102
RTVSPropertyOp34
 70
     1
102
RTVSPropertyOp35
 70
     1
102
RTVSPropertyOp36
 70
     1
102
RTVSPropertyOp37
 70
     1
102
RTVSPropertyOp38
 70
     1
102
RTVSPropertyOp39
 70
     1
102
RTVSPropertyOp40
 70
     1
102
RTVSPropertyOp41
 70
     1
102
RTVSPropertyOp42
 70
     1
102
RTVSPropertyOp43
 70
     1
102
RTVSPropertyOp44
 70
     1
102
RTVSPropertyOp45
 70
     1
102
RTVSPropertyOp46
 70
     1
102
RTVSPropertyOp47
 70
     1
102
RTVSPropertyOp48
 70
     1
102
RTVSPropertyOp49
 70
     1
102
RTVSPropertyOp50
 70
     1
102
RTVSPropertyOp51
 70
     0
102
RTVSPropertyOp52
 70
     0
102
RTVSPropertyOp53
 70
     1
102
RTVSPropertyOp54
 70
     1
102
RTVSPropertyOp55
 70
     1
102
RTVSPropertyOp56
 70
     1
102
RTVSPropertyOp57
 70
     1
102
RTVSPost2010Prop28
280
     0
102
RTVSPost2010PropOp28
 70
     1
102
RTVSPost2010Prop29
280
     1
102
RTVSPost2010PropOp29
 70
     1
102
RTVSPost2010Prop30
280
     1
102
RTVSPost2010PropOp30
 70
     1
102
RTVSPost2010Prop31
280
     0
102
RTVSPost2010PropOp31
 70
     1
102
RTVSPost2010Prop32
280
     0
102
RTVSPost2010PropOp32
 70
     1
102
RTVSPost2010Prop33
280
     0
102
RTVSPost2010PropOp33
 70
     1
102
RTVSPost2010Prop34
280
     0
102
RTVSPost2010PropOp34
 70
     1
102
RTVSPost2010Prop35
280
     0
102
RTVSPost2010PropOp35
 70
     1
102
RTVSPost2010Prop36
280
     0
102
RTVSPost2010PropOp36
 70
     1
102
RTVSPost2010Prop37
 90
       50
102
RTVSPost2010PropOp37
 70
     1
102
RTVSPost2010Prop38
140
0.0
102
RTVSPost2010PropOp38
 70
     1
102
RTVSPost2010Prop39
140
1.0
102
RTVSPost2010PropOp39
 70
     1
102
RTVSPost2010Prop40
 90
        0
102
RTVSPost2010PropOp40
 70
     1
102
RTVSPost2010Prop41ColorIndex
 90
       18
102
RTVSPost2010Prop41ColorRGB
 90
        0
102
RTVSPost2010PropOp41
 70
     1
102
RTVSPost2010Prop42
 90
       50
102
RTVSPost2010PropOp42
 70
     1
102
RTVSPost2010Prop43
 90
        3
102
RTVSPost2010PropOp43
 70
     1
102
RTVSPost2010Prop44ColorIndex
 90
        5
102
RTVSPost2010Prop44ColorRGB
 90
      255
102
RTVSPost2010PropOp44
 70
     1
102
RTVSPost2010Prop45
280
     0
102
RTVSPost2010PropOp45
 70
     1
102
RTVSPost2010Prop46
 90
       50
102
RTVSPost2010PropOp46
 70
     1
102
RTVSPost2010Prop47
 90
       50
102
RTVSPost2010PropOp47
 70
     1
102
RTVSPost2010Prop48
 90
       50
102
RTVSPost2010PropOp48
 70
     1
102
RTVSPost2010Prop49
280
     0
102
RTVSPost2010PropOp49
 70
     1
102
RTVSPost2010Prop50
 90
       50
102
RTVSPost2010PropOp50
 70
     1
102
RTVSPost2010Prop51ColorIndex
 90
      256
102
RTVSPost2010Prop51ColorRGB
 90
-16777216
102
RTVSPost2010PropOp51
 70
     0
102
RTVSPost2010Prop52
140
1.0
102
RTVSPost2010PropOp52
 70
     0
102
RTVSPost2010Prop53
 90
        2
102
RTVSPost2010PropOp53
 70
     1
102
RTVSPost2010Prop54
  1
strokes_ogs.tif
102
RTVSPost2010PropOp54
 70
     1
102
RTVSPost2010Prop55
280
     0
102
RTVSPost2010PropOp55
 70
     1
102
RTVSPost2010Prop56
140
1.0
102
RTVSPost2010PropOp56
 70
     1
102
RTVSPost2010Prop57
140
1.0
102
RTVSPost2010PropOp57
 70
     1
  0
XRECORD
  5
31A
102
{ACAD_REACTORS
330
319
102
}
330
319
100
AcDbXrecord
280
     1
102
RTVSPropertyOp0
 70
     1
102
RTVSPropertyOp1
 70
     1
102
RTVSPropertyOp2
 70
     1
102
RTVSPropertyOp3
 70
     1
102
RTVSPropertyOp4
 70
     1
102
RTVSPropertyOp5
 70
     1
102
RTVSPropertyOp6
 70
     1
102
RTVSPropertyOp7
 70
     1
102
RTVSPropertyOp8
 70
     1
102
RTVSPropertyOp9
 70
     1
102
RTVSPropertyOp10
 70
     1
102
RTVSPropertyOp11
 70
     1
102
RTVSPropertyOp12
 70
     1
102
RTVSPropertyOp13
 70
     1
102
RTVSPropertyOp14
 70
     1
102
RTVSPropertyOp15
 70
     1
102
RTVSPropertyOp16
 70
     1
102
RTVSPropertyOp17
 70
     1
102
RTVSPropertyOp18
 70
     1
102
RTVSPropertyOp19
 70
     1
102
RTVSPropertyOp20
 70
     1
102
RTVSPropertyOp21
 70
     1
102
RTVSPropertyOp22
 70
     1
102
RTVSPropertyOp23
 70
     1
102
RTVSPropertyOp24
 70
     1
102
RTVSPropertyOp25
 70
     1
102
RTVSPropertyOp26
 70
     1
102
RTVSPropertyOp27
 70
     1
102
RTVSPropertyOp28
 70
     1
102
RTVSPropertyOp29
 70
     1
102
RTVSPropertyOp30
 70
     1
102
RTVSPropertyOp31
 70
     1
102
RTVSPropertyOp32
 70
     1
102
RTVSPropertyOp33
 70
     1
102
RTVSPropertyOp34
 70
     1
102
RTVSPropertyOp35
 70
     1
102
RTVSPropertyOp36
 70
     1
102
RTVSPropertyOp37
 70
     1
102
RTVSPropertyOp38
 70
     1
102
RTVSPropertyOp39
 70
     1
102
RTVSPropertyOp40
 70
     1
102
RTVSPropertyOp41
 70
     1
102
RTVSPropertyOp42
 70
     1
102
RTVSPropertyOp43
 70
     1
102
RTVSPropertyOp44
 70
     1
102
RTVSPropertyOp45
 70
     1
102
RTVSPropertyOp46
 70
     1
102
RTVSPropertyOp47
 70
     1
102
RTVSPropertyOp48
 70
     1
102
RTVSPropertyOp49
 70
     1
102
RTVSPropertyOp50
 70
     1
102
RTVSPropertyOp51
 70
     0
102
RTVSPropertyOp52
 70
     0
102
RTVSPropertyOp53
 70
     1
102
RTVSPropertyOp54
 70
     1
102
RTVSPropertyOp55
 70
     1
102
RTVSPropertyOp56
 70
     1
102
RTVSPropertyOp57
 70
     1
102
RTVSPost2010Prop28
280
     0
102
RTVSPost2010PropOp28
 70
     1
102
RTVSPost2010Prop29
280
     1
102
RTVSPost2010PropOp29
 70
     1
102
RTVSPost2010Prop30
280
     1
102
RTVSPost2010PropOp30
 70
     1
102
RTVSPost2010Prop31
280
     0
102
RTVSPost2010PropOp31
 70
     1
102
RTVSPost2010Prop32
280
     0
102
RTVSPost2010PropOp32
 70
     1
102
RTVSPost2010Prop33
280
     0
102
RTVSPost2010PropOp33
 70
     1
102
RTVSPost2010Prop34
280
     0
102
RTVSPost2010PropOp34
 70
     1
102
RTVSPost2010Prop35
280
     0
102
RTVSPost2010PropOp35
 70
     1
102
RTVSPost2010Prop36
280
     0
102
RTVSPost2010PropOp36
 70
     1
102
RTVSPost2010Prop37
 90
       50
102
RTVSPost2010PropOp37
 70
     1
102
RTVSPost2010Prop38
140
0.0
102
RTVSPost2010PropOp38
 70
     1
102
RTVSPost2010Prop39
140
1.0
102
RTVSPost2010PropOp39
 70
     1
102
RTVSPost2010Prop40
 90
        0
102
RTVSPost2010PropOp40
 70
     1
102
RTVSPost2010Prop41ColorIndex
 90
       18
102
RTVSPost2010Prop41ColorRGB
 90
        0
102
RTVSPost2010PropOp41
 70
     1
102
RTVSPost2010Prop42
 90
       50
102
RTVSPost2010PropOp42
 70
     1
102
RTVSPost2010Prop43
 90
        3
102
RTVSPost2010PropOp43
 70
     1
102
RTVSPost2010Prop44ColorIndex
 90
        5
102
RTVSPost2010Prop44ColorRGB
 90
      255
102
RTVSPost2010PropOp44
 70
     1
102
RTVSPost2010Prop45
280
     0
102
RTVSPost2010PropOp45
 70
     1
102
RTVSPost2010Prop46
 90
       50
102
RTVSPost2010PropOp46
 70
     1
102
RTVSPost2010Prop47
 90
       50
102
RTVSPost2010PropOp47
 70
     1
102
RTVSPost2010Prop48
 90
       50
102
RTVSPost2010PropOp48
 70
     1
102
RTVSPost2010Prop49
280
     0
102
RTVSPost2010PropOp49
 70
     1
102
RTVSPost2010Prop50
 90
       50
102
RTVSPost2010PropOp50
 70
     1
102
RTVSPost2010Prop51ColorIndex
 90
      256
102
RTVSPost2010Prop51ColorRGB
 90
-16777216
102
RTVSPost2010PropOp51
 70
     0
102
RTVSPost2010Prop52
140
1.0
102
RTVSPost2010PropOp52
 70
     0
102
RTVSPost2010Prop53
 90
        2
102
RTVSPost2010PropOp53
 70
     1
102
RTVSPost2010Prop54
  1
strokes_ogs.tif
102
RTVSPost2010PropOp54
 70
     1
102
RTVSPost2010Prop55
280
     0
102
RTVSPost2010PropOp55
 70
     1
102
RTVSPost2010Prop56
140
1.0
102
RTVSPost2010PropOp56
 70
     1
102
RTVSPost2010Prop57
140
1.0
102
RTVSPost2010PropOp57
 70
     1
  0
XRECORD
  5
31C
102
{ACAD_REACTORS
330
31B
102
}
330
31B
100
AcDbXrecord
280
     1
102
RTVSPropertyOp0
 70
     1
102
RTVSPropertyOp1
 70
     1
102
RTVSPropertyOp2
 70
     1
102
RTVSPropertyOp3
 70
     1
102
RTVSPropertyOp4
 70
     1
102
RTVSPropertyOp5
 70
     1
102
RTVSPropertyOp6
 70
     1
102
RTVSPropertyOp7
 70
     1
102
RTVSPropertyOp8
 70
     1
102
RTVSPropertyOp9
 70
     1
102
RTVSPropertyOp10
 70
     1
102
RTVSPropertyOp11
 70
     1
102
RTVSPropertyOp12
 70
     1
102
RTVSPropertyOp13
 70
     1
102
RTVSPropertyOp14
 70
     1
102
RTVSPropertyOp15
 70
     1
102
RTVSPropertyOp16
 70
     1
102
RTVSPropertyOp17
 70
     1
102
RTVSPropertyOp18
 70
     1
102
RTVSPropertyOp19
 70
     1
102
RTVSPropertyOp20
 70
     1
102
RTVSPropertyOp21
 70
     1
102
RTVSPropertyOp22
 70
     1
102
RTVSPropertyOp23
 70
     1
102
RTVSPropertyOp24
 70
     1
102
RTVSPropertyOp25
 70
     1
102
RTVSPropertyOp26
 70
     1
102
RTVSPropertyOp27
 70
     1
102
RTVSPropertyOp28
 70
     1
102
RTVSPropertyOp29
 70
     1
102
RTVSPropertyOp30
 70
     1
102
RTVSPropertyOp31
 70
     1
102
RTVSPropertyOp32
 70
     1
102
RTVSPropertyOp33
 70
     1
102
RTVSPropertyOp34
 70
     1
102
RTVSPropertyOp35
 70
     1
102
RTVSPropertyOp36
 70
     1
102
RTVSPropertyOp37
 70
     1
102
RTVSPropertyOp38
 70
     1
102
RTVSPropertyOp39
 70
     1
102
RTVSPropertyOp40
 70
     1
102
RTVSPropertyOp41
 70
     1
102
RTVSPropertyOp42
 70
     1
102
RTVSPropertyOp43
 70
     1
102
RTVSPropertyOp44
 70
     1
102
RTVSPropertyOp45
 70
     1
102
RTVSPropertyOp46
 70
     1
102
RTVSPropertyOp47
 70
     1
102
RTVSPropertyOp48
 70
     1
102
RTVSPropertyOp49
 70
     1
102
RTVSPropertyOp50
 70
     1
102
RTVSPropertyOp51
 70
     0
102
RTVSPropertyOp52
 70
     0
102
RTVSPropertyOp53
 70
     1
102
RTVSPropertyOp54
 70
     1
102
RTVSPropertyOp55
 70
     1
102
RTVSPropertyOp56
 70
     1
102
RTVSPropertyOp57
 70
     1
102
RTVSPost2010Prop28
280
     0
102
RTVSPost2010PropOp28
 70
     1
102
RTVSPost2010Prop29
280
     1
102
RTVSPost2010PropOp29
 70
     1
102
RTVSPost2010Prop30
280
     1
102
RTVSPost2010PropOp30
 70
     1
102
RTVSPost2010Prop31
280
     0
102
RTVSPost2010PropOp31
 70
     1
102
RTVSPost2010Prop32
280
     0
102
RTVSPost2010PropOp32
 70
     1
102
RTVSPost2010Prop33
280
     0
102
RTVSPost2010PropOp33
 70
     1
102
RTVSPost2010Prop34
280
     0
102
RTVSPost2010PropOp34
 70
     1
102
RTVSPost2010Prop35
280
     0
102
RTVSPost2010PropOp35
 70
     1
102
RTVSPost2010Prop36
280
     0
102
RTVSPost2010PropOp36
 70
     1
102
RTVSPost2010Prop37
 90
       50
102
RTVSPost2010PropOp37
 70
     1
102
RTVSPost2010Prop38
140
0.0
102
RTVSPost2010PropOp38
 70
     1
102
RTVSPost2010Prop39
140
1.0
102
RTVSPost2010PropOp39
 70
     1
102
RTVSPost2010Prop40
 90
        0
102
RTVSPost2010PropOp40
 70
     1
102
RTVSPost2010Prop41ColorIndex
 90
       18
102
RTVSPost2010Prop41ColorRGB
 90
        0
102
RTVSPost2010PropOp41
 70
     1
102
RTVSPost2010Prop42
 90
       50
102
RTVSPost2010PropOp42
 70
     1
102
RTVSPost2010Prop43
 90
        3
102
RTVSPost2010PropOp43
 70
     1
102
RTVSPost2010Prop44ColorIndex
 90
        5
102
RTVSPost2010Prop44ColorRGB
 90
      255
102
RTVSPost2010PropOp44
 70
     1
102
RTVSPost2010Prop45
280
     0
102
RTVSPost2010PropOp45
 70
     1
102
RTVSPost2010Prop46
 90
       50
102
RTVSPost2010PropOp46
 70
     1
102
RTVSPost2010Prop47
 90
       50
102
RTVSPost2010PropOp47
 70
     1
102
RTVSPost2010Prop48
 90
       50
102
RTVSPost2010PropOp48
 70
     1
102
RTVSPost2010Prop49
280
     0
102
RTVSPost2010PropOp49
 70
     1
102
RTVSPost2010Prop50
 90
       50
102
RTVSPost2010PropOp50
 70
     1
102
RTVSPost2010Prop51ColorIndex
 90
      256
102
RTVSPost2010Prop51ColorRGB
 90
-16777216
102
RTVSPost2010PropOp51
 70
     0
102
RTVSPost2010Prop52
140
1.0
102
RTVSPost2010PropOp52
 70
     0
102
RTVSPost2010Prop53
 90
        2
102
RTVSPost2010PropOp53
 70
     1
102
RTVSPost2010Prop54
  1
strokes_ogs.tif
102
RTVSPost2010PropOp54
 70
     1
102
RTVSPost2010Prop55
280
     0
102
RTVSPost2010PropOp55
 70
     1
102
RTVSPost2010Prop56
140
1.0
102
RTVSPost2010PropOp56
 70
     1
102
RTVSPost2010Prop57
140
1.0
102
RTVSPost2010PropOp57
 70
     1
  0
XRECORD
  5
324
102
{ACAD_REACTORS
330
323
102
}
330
323
100
AcDbXrecord
280
     1
102
RTVSPropertyOp0
 70
     1
102
RTVSPropertyOp1
 70
     1
102
RTVSPropertyOp2
 70
     1
102
RTVSPropertyOp3
 70
     1
102
RTVSPropertyOp4
 70
     1
102
RTVSPropertyOp5
 70
     1
102
RTVSPropertyOp6
 70
     1
102
RTVSPropertyOp7
 70
     1
102
RTVSPropertyOp8
 70
     1
102
RTVSPropertyOp9
 70
     1
102
RTVSPropertyOp10
 70
     1
102
RTVSPropertyOp11
 70
     1
102
RTVSPropertyOp12
 70
     1
102
RTVSPropertyOp13
 70
     1
102
RTVSPropertyOp14
 70
     1
102
RTVSPropertyOp15
 70
     1
102
RTVSPropertyOp16
 70
     1
102
RTVSPropertyOp17
 70
     1
102
RTVSPropertyOp18
 70
     1
102
RTVSPropertyOp19
 70
     1
102
RTVSPropertyOp20
 70
     1
102
RTVSPropertyOp21
 70
     1
102
RTVSPropertyOp22
 70
     1
102
RTVSPropertyOp23
 70
     1
102
RTVSPropertyOp24
 70
     1
102
RTVSPropertyOp25
 70
     1
102
RTVSPropertyOp26
 70
     1
102
RTVSPropertyOp27
 70
     1
102
RTVSPropertyOp28
 70
     1
102
RTVSPropertyOp29
 70
     1
102
RTVSPropertyOp30
 70
     1
102
RTVSPropertyOp31
 70
     1
102
RTVSPropertyOp32
 70
     1
102
RTVSPropertyOp33
 70
     1
102
RTVSPropertyOp34
 70
     1
102
RTVSPropertyOp35
 70
     1
102
RTVSPropertyOp36
 70
     1
102
RTVSPropertyOp37
 70
     1
102
RTVSPropertyOp38
 70
     1
102
RTVSPropertyOp39
 70
     1
102
RTVSPropertyOp40
 70
     1
102
RTVSPropertyOp41
 70
     1
102
RTVSPropertyOp42
 70
     1
102
RTVSPropertyOp43
 70
     1
102
RTVSPropertyOp44
 70
     1
102
RTVSPropertyOp45
 70
     1
102
RTVSPropertyOp46
 70
     1
102
RTVSPropertyOp47
 70
     1
102
RTVSPropertyOp48
 70
     1
102
RTVSPropertyOp49
 70
     1
102
RTVSPropertyOp50
 70
     1
102
RTVSPropertyOp51
 70
     0
102
RTVSPropertyOp52
 70
     0
102
RTVSPropertyOp53
 70
     1
102
RTVSPropertyOp54
 70
     1
102
RTVSPropertyOp55
 70
     1
102
RTVSPropertyOp56
 70
     1
102
RTVSPropertyOp57
 70
     1
102
RTVSPost2010Prop28
280
     0
102
RTVSPost2010PropOp28
 70
     1
102
RTVSPost2010Prop29
280
     1
102
RTVSPost2010PropOp29
 70
     1
102
RTVSPost2010Prop30
280
     1
102
RTVSPost2010PropOp30
 70
     1
102
RTVSPost2010Prop31
280
     0
102
RTVSPost2010PropOp31
 70
     1
102
RTVSPost2010Prop32
280
     0
102
RTVSPost2010PropOp32
 70
     1
102
RTVSPost2010Prop33
280
     0
102
RTVSPost2010PropOp33
 70
     1
102
RTVSPost2010Prop34
280
     0
102
RTVSPost2010PropOp34
 70
     1
102
RTVSPost2010Prop35
280
     0
102
RTVSPost2010PropOp35
 70
     1
102
RTVSPost2010Prop36
280
     0
102
RTVSPost2010PropOp36
 70
     1
102
RTVSPost2010Prop37
 90
       50
102
RTVSPost2010PropOp37
 70
     1
102
RTVSPost2010Prop38
140
0.0
102
RTVSPost2010PropOp38
 70
     1
102
RTVSPost2010Prop39
140
1.0
102
RTVSPost2010PropOp39
 70
     1
102
RTVSPost2010Prop40
 90
        0
102
RTVSPost2010PropOp40
 70
     1
102
RTVSPost2010Prop41ColorIndex
 90
       18
102
RTVSPost2010Prop41ColorRGB
 90
        0
102
RTVSPost2010PropOp41
 70
     1
102
RTVSPost2010Prop42
 90
       50
102
RTVSPost2010PropOp42
 70
     1
102
RTVSPost2010Prop43
 90
        3
102
RTVSPost2010PropOp43
 70
     1
102
RTVSPost2010Prop44ColorIndex
 90
        5
102
RTVSPost2010Prop44ColorRGB
 90
      255
102
RTVSPost2010PropOp44
 70
     1
102
RTVSPost2010Prop45
280
     0
102
RTVSPost2010PropOp45
 70
     1
102
RTVSPost2010Prop46
 90
       50
102
RTVSPost2010PropOp46
 70
     1
102
RTVSPost2010Prop47
 90
       50
102
RTVSPost2010PropOp47
 70
     1
102
RTVSPost2010Prop48
 90
       50
102
RTVSPost2010PropOp48
 70
     1
102
RTVSPost2010Prop49
280
     0
102
RTVSPost2010PropOp49
 70
     1
102
RTVSPost2010Prop50
 90
       50
102
RTVSPost2010PropOp50
 70
     1
102
RTVSPost2010Prop51ColorIndex
 90
      256
102
RTVSPost2010Prop51ColorRGB
 90
-16777216
102
RTVSPost2010PropOp51
 70
     0
102
RTVSPost2010Prop52
140
1.0
102
RTVSPost2010PropOp52
 70
     0
102
RTVSPost2010Prop53
 90
        2
102
RTVSPost2010PropOp53
 70
     1
102
RTVSPost2010Prop54
  1
strokes_ogs.tif
102
RTVSPost2010PropOp54
 70
     1
102
RTVSPost2010Prop55
280
     0
102
RTVSPost2010PropOp55
 70
     1
102
RTVSPost2010Prop56
140
1.0
102
RTVSPost2010PropOp56
 70
     1
102
RTVSPost2010Prop57
140
1.0
102
RTVSPost2010PropOp57
 70
     1
  0
XRECORD
  5
308
102
{ACAD_REACTORS
330
307
102
}
330
307
100
AcDbXrecord
280
     1
102
RTVSPropertyOp0
 70
     1
102
RTVSPropertyOp1
 70
     1
102
RTVSPropertyOp2
 70
     1
102
RTVSPropertyOp3
 70
     1
102
RTVSPropertyOp4
 70
     1
102
RTVSPropertyOp5
 70
     1
102
RTVSPropertyOp6
 70
     1
102
RTVSPropertyOp7
 70
     1
102
RTVSPropertyOp8
 70
     1
102
RTVSPropertyOp9
 70
     1
102
RTVSPropertyOp10
 70
     1
102
RTVSPropertyOp11
 70
     1
102
RTVSPropertyOp12
 70
     1
102
RTVSPropertyOp13
 70
     1
102
RTVSPropertyOp14
 70
     1
102
RTVSPropertyOp15
 70
     1
102
RTVSPropertyOp16
 70
     1
102
RTVSPropertyOp17
 70
     1
102
RTVSPropertyOp18
 70
     1
102
RTVSPropertyOp19
 70
     1
102
RTVSPropertyOp20
 70
     1
102
RTVSPropertyOp21
 70
     1
102
RTVSPropertyOp22
 70
     1
102
RTVSPropertyOp23
 70
     1
102
RTVSPropertyOp24
 70
     1
102
RTVSPropertyOp25
 70
     1
102
RTVSPropertyOp26
 70
     1
102
RTVSPropertyOp27
 70
     1
102
RTVSPropertyOp28
 70
     1
102
RTVSPropertyOp29
 70
     1
102
RTVSPropertyOp30
 70
     1
102
RTVSPropertyOp31
 70
     1
102
RTVSPropertyOp32
 70
     1
102
RTVSPropertyOp33
 70
     1
102
RTVSPropertyOp34
 70
     1
102
RTVSPropertyOp35
 70
     1
102
RTVSPropertyOp36
 70
     1
102
RTVSPropertyOp37
 70
     1
102
RTVSPropertyOp38
 70
     1
102
RTVSPropertyOp39
 70
     1
102
RTVSPropertyOp40
 70
     1
102
RTVSPropertyOp41
 70
     1
102
RTVSPropertyOp42
 70
     1
102
RTVSPropertyOp43
 70
     1
102
RTVSPropertyOp44
 70
     1
102
RTVSPropertyOp45
 70
     1
102
RTVSPropertyOp46
 70
     1
102
RTVSPropertyOp47
 70
     1
102
RTVSPropertyOp48
 70
     1
102
RTVSPropertyOp49
 70
     1
102
RTVSPropertyOp50
 70
     1
102
RTVSPropertyOp51
 70
     0
102
RTVSPropertyOp52
 70
     0
102
RTVSPropertyOp53
 70
     1
102
RTVSPropertyOp54
 70
     1
102
RTVSPropertyOp55
 70
     1
102
RTVSPropertyOp56
 70
     1
102
RTVSPropertyOp57
 70
     1
102
RTVSPost2010Prop28
280
     0
102
RTVSPost2010PropOp28
 70
     1
102
RTVSPost2010Prop29
280
     1
102
RTVSPost2010PropOp29
 70
     1
102
RTVSPost2010Prop30
280
     1
102
RTVSPost2010PropOp30
 70
     1
102
RTVSPost2010Prop31
280
     0
102
RTVSPost2010PropOp31
 70
     1
102
RTVSPost2010Prop32
280
     0
102
RTVSPost2010PropOp32
 70
     1
102
RTVSPost2010Prop33
280
     0
102
RTVSPost2010PropOp33
 70
     1
102
RTVSPost2010Prop34
280
     0
102
RTVSPost2010PropOp34
 70
     1
102
RTVSPost2010Prop35
280
     0
102
RTVSPost2010PropOp35
 70
     1
102
RTVSPost2010Prop36
280
     0
102
RTVSPost2010PropOp36
 70
     1
102
RTVSPost2010Prop37
 90
       50
102
RTVSPost2010PropOp37
 70
     1
102
RTVSPost2010Prop38
140
0.0
102
RTVSPost2010PropOp38
 70
     1
102
RTVSPost2010Prop39
140
1.0
102
RTVSPost2010PropOp39
 70
     1
102
RTVSPost2010Prop40
 90
        0
102
RTVSPost2010PropOp40
 70
     1
102
RTVSPost2010Prop41ColorIndex
 90
       18
102
RTVSPost2010Prop41ColorRGB
 90
        0
102
RTVSPost2010PropOp41
 70
     1
102
RTVSPost2010Prop42
 90
       50
102
RTVSPost2010PropOp42
 70
     1
102
RTVSPost2010Prop43
 90
        3
102
RTVSPost2010PropOp43
 70
     1
102
RTVSPost2010Prop44ColorIndex
 90
        5
102
RTVSPost2010Prop44ColorRGB
 90
      255
102
RTVSPost2010PropOp44
 70
     1
102
RTVSPost2010Prop45
280
     0
102
RTVSPost2010PropOp45
 70
     1
102
RTVSPost2010Prop46
 90
       50
102
RTVSPost2010PropOp46
 70
     1
102
RTVSPost2010Prop47
 90
       50
102
RTVSPost2010PropOp47
 70
     1
102
RTVSPost2010Prop48
 90
       50
102
RTVSPost2010PropOp48
 70
     1
102
RTVSPost2010Prop49
280
     0
102
RTVSPost2010PropOp49
 70
     1
102
RTVSPost2010Prop50
 90
       50
102
RTVSPost2010PropOp50
 70
     1
102
RTVSPost2010Prop51ColorIndex
 90
      256
102
RTVSPost2010Prop51ColorRGB
 90
-16777216
102
RTVSPost2010PropOp51
 70
     0
102
RTVSPost2010Prop52
140
1.0
102
RTVSPost2010PropOp52
 70
     0
102
RTVSPost2010Prop53
 90
        2
102
RTVSPost2010PropOp53
 70
     1
102
RTVSPost2010Prop54
  1
strokes_ogs.tif
102
RTVSPost2010PropOp54
 70
     1
102
RTVSPost2010Prop55
280
     0
102
RTVSPost2010PropOp55
 70
     1
102
RTVSPost2010Prop56
140
1.0
102
RTVSPost2010PropOp56
 70
     1
102
RTVSPost2010Prop57
140
1.0
102
RTVSPost2010PropOp57
 70
     1
  0
XRECORD
  5
30A
102
{ACAD_REACTORS
330
309
102
}
330
309
100
AcDbXrecord
280
     1
102
RTVSPropertyOp0
 70
     1
102
RTVSPropertyOp1
 70
     1
102
RTVSPropertyOp2
 70
     1
102
RTVSPropertyOp3
 70
     1
102
RTVSPropertyOp4
 70
     1
102
RTVSPropertyOp5
 70
     1
102
RTVSPropertyOp6
 70
     1
102
RTVSPropertyOp7
 70
     1
102
RTVSPropertyOp8
 70
     1
102
RTVSPropertyOp9
 70
     1
102
RTVSPropertyOp10
 70
     1
102
RTVSPropertyOp11
 70
     1
102
RTVSPropertyOp12
 70
     1
102
RTVSPropertyOp13
 70
     1
102
RTVSPropertyOp14
 70
     1
102
RTVSPropertyOp15
 70
     1
102
RTVSPropertyOp16
 70
     1
102
RTVSPropertyOp17
 70
     1
102
RTVSPropertyOp18
 70
     1
102
RTVSPropertyOp19
 70
     1
102
RTVSPropertyOp20
 70
     1
102
RTVSPropertyOp21
 70
     1
102
RTVSPropertyOp22
 70
     1
102
RTVSPropertyOp23
 70
     1
102
RTVSPropertyOp24
 70
     1
102
RTVSPropertyOp25
 70
     1
102
RTVSPropertyOp26
 70
     1
102
RTVSPropertyOp27
 70
     1
102
RTVSPropertyOp28
 70
     1
102
RTVSPropertyOp29
 70
     1
102
RTVSPropertyOp30
 70
     1
102
RTVSPropertyOp31
 70
     1
102
RTVSPropertyOp32
 70
     1
102
RTVSPropertyOp33
 70
     1
102
RTVSPropertyOp34
 70
     1
102
RTVSPropertyOp35
 70
     1
102
RTVSPropertyOp36
 70
     1
102
RTVSPropertyOp37
 70
     1
102
RTVSPropertyOp38
 70
     1
102
RTVSPropertyOp39
 70
     1
102
RTVSPropertyOp40
 70
     1
102
RTVSPropertyOp41
 70
     1
102
RTVSPropertyOp42
 70
     1
102
RTVSPropertyOp43
 70
     1
102
RTVSPropertyOp44
 70
     1
102
RTVSPropertyOp45
 70
     1
102
RTVSPropertyOp46
 70
     1
102
RTVSPropertyOp47
 70
     1
102
RTVSPropertyOp48
 70
     1
102
RTVSPropertyOp49
 70
     1
102
RTVSPropertyOp50
 70
     1
102
RTVSPropertyOp51
 70
     0
102
RTVSPropertyOp52
 70
     0
102
RTVSPropertyOp53
 70
     1
102
RTVSPropertyOp54
 70
     1
102
RTVSPropertyOp55
 70
     1
102
RTVSPropertyOp56
 70
     1
102
RTVSPropertyOp57
 70
     1
102
RTVSPost2010Prop28
280
     0
102
RTVSPost2010PropOp28
 70
     1
102
RTVSPost2010Prop29
280
     1
102
RTVSPost2010PropOp29
 70
     1
102
RTVSPost2010Prop30
280
     1
102
RTVSPost2010PropOp30
 70
     1
102
RTVSPost2010Prop31
280
     0
102
RTVSPost2010PropOp31
 70
     1
102
RTVSPost2010Prop32
280
     0
102
RTVSPost2010PropOp32
 70
     1
102
RTVSPost2010Prop33
280
     0
102
RTVSPost2010PropOp33
 70
     1
102
RTVSPost2010Prop34
280
     0
102
RTVSPost2010PropOp34
 70
     1
102
RTVSPost2010Prop35
280
     0
102
RTVSPost2010PropOp35
 70
     1
102
RTVSPost2010Prop36
280
     0
102
RTVSPost2010PropOp36
 70
     1
102
RTVSPost2010Prop37
 90
       50
102
RTVSPost2010PropOp37
 70
     1
102
RTVSPost2010Prop38
140
0.0
102
RTVSPost2010PropOp38
 70
     1
102
RTVSPost2010Prop39
140
1.0
102
RTVSPost2010PropOp39
 70
     1
102
RTVSPost2010Prop40
 90
        0
102
RTVSPost2010PropOp40
 70
     1
102
RTVSPost2010Prop41ColorIndex
 90
       18
102
RTVSPost2010Prop41ColorRGB
 90
        0
102
RTVSPost2010PropOp41
 70
     1
102
RTVSPost2010Prop42
 90
       50
102
RTVSPost2010PropOp42
 70
     1
102
RTVSPost2010Prop43
 90
        3
102
RTVSPost2010PropOp43
 70
     1
102
RTVSPost2010Prop44ColorIndex
 90
        5
102
RTVSPost2010Prop44ColorRGB
 90
      255
102
RTVSPost2010PropOp44
 70
     1
102
RTVSPost2010Prop45
280
     0
102
RTVSPost2010PropOp45
 70
     1
102
RTVSPost2010Prop46
 90
       50
102
RTVSPost2010PropOp46
 70
     1
102
RTVSPost2010Prop47
 90
       50
102
RTVSPost2010PropOp47
 70
     1
102
RTVSPost2010Prop48
 90
       50
102
RTVSPost2010PropOp48
 70
     1
102
RTVSPost2010Prop49
280
     0
102
RTVSPost2010PropOp49
 70
     1
102
RTVSPost2010Prop50
 90
       50
102
RTVSPost2010PropOp50
 70
     1
102
RTVSPost2010Prop51ColorIndex
 90
      256
102
RTVSPost2010Prop51ColorRGB
 90
-16777216
102
RTVSPost2010PropOp51
 70
     0
102
RTVSPost2010Prop52
140
1.0
102
RTVSPost2010PropOp52
 70
     0
102
RTVSPost2010Prop53
 90
        2
102
RTVSPost2010PropOp53
 70
     1
102
RTVSPost2010Prop54
  1
strokes_ogs.tif
102
RTVSPost2010PropOp54
 70
     1
102
RTVSPost2010Prop55
280
     0
102
RTVSPost2010PropOp55
 70
     1
102
RTVSPost2010Prop56
140
1.0
102
RTVSPost2010PropOp56
 70
     1
102
RTVSPost2010Prop57
140
1.0
102
RTVSPost2010PropOp57
 70
     1
  0
XRECORD
  5
30C
102
{ACAD_REACTORS
330
30B
102
}
330
30B
100
AcDbXrecord
280
     1
102
RTVSPropertyOp0
 70
     1
102
RTVSPropertyOp1
 70
     1
102
RTVSPropertyOp2
 70
     1
102
RTVSPropertyOp3
 70
     1
102
RTVSPropertyOp4
 70
     1
102
RTVSPropertyOp5
 70
     1
102
RTVSPropertyOp6
 70
     1
102
RTVSPropertyOp7
 70
     1
102
RTVSPropertyOp8
 70
     1
102
RTVSPropertyOp9
 70
     1
102
RTVSPropertyOp10
 70
     1
102
RTVSPropertyOp11
 70
     1
102
RTVSPropertyOp12
 70
     1
102
RTVSPropertyOp13
 70
     1
102
RTVSPropertyOp14
 70
     1
102
RTVSPropertyOp15
 70
     1
102
RTVSPropertyOp16
 70
     1
102
RTVSPropertyOp17
 70
     1
102
RTVSPropertyOp18
 70
     1
102
RTVSPropertyOp19
 70
     1
102
RTVSPropertyOp20
 70
     1
102
RTVSPropertyOp21
 70
     1
102
RTVSPropertyOp22
 70
     1
102
RTVSPropertyOp23
 70
     1
102
RTVSPropertyOp24
 70
     1
102
RTVSPropertyOp25
 70
     1
102
RTVSPropertyOp26
 70
     1
102
RTVSPropertyOp27
 70
     1
102
RTVSPropertyOp28
 70
     1
102
RTVSPropertyOp29
 70
     1
102
RTVSPropertyOp30
 70
     1
102
RTVSPropertyOp31
 70
     1
102
RTVSPropertyOp32
 70
     1
102
RTVSPropertyOp33
 70
     1
102
RTVSPropertyOp34
 70
     1
102
RTVSPropertyOp35
 70
     1
102
RTVSPropertyOp36
 70
     1
102
RTVSPropertyOp37
 70
     1
102
RTVSPropertyOp38
 70
     1
102
RTVSPropertyOp39
 70
     1
102
RTVSPropertyOp40
 70
     1
102
RTVSPropertyOp41
 70
     1
102
RTVSPropertyOp42
 70
     1
102
RTVSPropertyOp43
 70
     1
102
RTVSPropertyOp44
 70
     1
102
RTVSPropertyOp45
 70
     1
102
RTVSPropertyOp46
 70
     1
102
RTVSPropertyOp47
 70
     1
102
RTVSPropertyOp48
 70
     1
102
RTVSPropertyOp49
 70
     1
102
RTVSPropertyOp50
 70
     1
102
RTVSPropertyOp51
 70
     0
102
RTVSPropertyOp52
 70
     0
102
RTVSPropertyOp53
 70
     1
102
RTVSPropertyOp54
 70
     1
102
RTVSPropertyOp55
 70
     1
102
RTVSPropertyOp56
 70
     1
102
RTVSPropertyOp57
 70
     1
102
RTVSPost2010Prop28
280
     0
102
RTVSPost2010PropOp28
 70
     1
102
RTVSPost2010Prop29
280
     1
102
RTVSPost2010PropOp29
 70
     1
102
RTVSPost2010Prop30
280
     1
102
RTVSPost2010PropOp30
 70
     1
102
RTVSPost2010Prop31
280
     0
102
RTVSPost2010PropOp31
 70
     1
102
RTVSPost2010Prop32
280
     0
102
RTVSPost2010PropOp32
 70
     1
102
RTVSPost2010Prop33
280
     0
102
RTVSPost2010PropOp33
 70
     1
102
RTVSPost2010Prop34
280
     0
102
RTVSPost2010PropOp34
 70
     1
102
RTVSPost2010Prop35
280
     0
102
RTVSPost2010PropOp35
 70
     1
102
RTVSPost2010Prop36
280
     0
102
RTVSPost2010PropOp36
 70
     1
102
RTVSPost2010Prop37
 90
       50
102
RTVSPost2010PropOp37
 70
     1
102
RTVSPost2010Prop38
140
0.0
102
RTVSPost2010PropOp38
 70
     1
102
RTVSPost2010Prop39
140
1.0
102
RTVSPost2010PropOp39
 70
     1
102
RTVSPost2010Prop40
 90
        0
102
RTVSPost2010PropOp40
 70
     1
102
RTVSPost2010Prop41ColorIndex
 90
       18
102
RTVSPost2010Prop41ColorRGB
 90
        0
102
RTVSPost2010PropOp41
 70
     1
102
RTVSPost2010Prop42
 90
       50
102
RTVSPost2010PropOp42
 70
     1
102
RTVSPost2010Prop43
 90
        3
102
RTVSPost2010PropOp43
 70
     1
102
RTVSPost2010Prop44ColorIndex
 90
        5
102
RTVSPost2010Prop44ColorRGB
 90
      255
102
RTVSPost2010PropOp44
 70
     1
102
RTVSPost2010Prop45
280
     0
102
RTVSPost2010PropOp45
 70
     1
102
RTVSPost2010Prop46
 90
       50
102
RTVSPost2010PropOp46
 70
     1
102
RTVSPost2010Prop47
 90
       50
102
RTVSPost2010PropOp47
 70
     1
102
RTVSPost2010Prop48
 90
       50
102
RTVSPost2010PropOp48
 70
     1
102
RTVSPost2010Prop49
280
     0
102
RTVSPost2010PropOp49
 70
     1
102
RTVSPost2010Prop50
 90
       50
102
RTVSPost2010PropOp50
 70
     1
102
RTVSPost2010Prop51ColorIndex
 90
      256
102
RTVSPost2010Prop51ColorRGB
 90
-16777216
102
RTVSPost2010PropOp51
 70
     0
102
RTVSPost2010Prop52
140
1.0
102
RTVSPost2010PropOp52
 70
     0
102
RTVSPost2010Prop53
 90
        2
102
RTVSPost2010PropOp53
 70
     1
102
RTVSPost2010Prop54
  1
strokes_ogs.tif
102
RTVSPost2010PropOp54
 70
     1
102
RTVSPost2010Prop55
280
     0
102
RTVSPost2010PropOp55
 70
     1
102
RTVSPost2010Prop56
140
1.0
102
RTVSPost2010PropOp56
 70
     1
102
RTVSPost2010Prop57
140
1.0
102
RTVSPost2010PropOp57
 70
     1
  0
XRECORD
  5
30E
102
{ACAD_REACTORS
330
30D
102
}
330
30D
100
AcDbXrecord
280
     1
102
RTVSPropertyOp0
 70
     1
102
RTVSPropertyOp1
 70
     1
102
RTVSPropertyOp2
 70
     1
102
RTVSPropertyOp3
 70
     1
102
RTVSPropertyOp4
 70
     1
102
RTVSPropertyOp5
 70
     1
102
RTVSPropertyOp6
 70
     1
102
RTVSPropertyOp7
 70
     1
102
RTVSPropertyOp8
 70
     1
102
RTVSPropertyOp9
 70
     1
102
RTVSPropertyOp10
 70
     1
102
RTVSPropertyOp11
 70
     1
102
RTVSPropertyOp12
 70
     1
102
RTVSPropertyOp13
 70
     1
102
RTVSPropertyOp14
 70
     1
102
RTVSPropertyOp15
 70
     1
102
RTVSPropertyOp16
 70
     1
102
RTVSPropertyOp17
 70
     1
102
RTVSPropertyOp18
 70
     1
102
RTVSPropertyOp19
 70
     1
102
RTVSPropertyOp20
 70
     1
102
RTVSPropertyOp21
 70
     1
102
RTVSPropertyOp22
 70
     1
102
RTVSPropertyOp23
 70
     1
102
RTVSPropertyOp24
 70
     1
102
RTVSPropertyOp25
 70
     1
102
RTVSPropertyOp26
 70
     1
102
RTVSPropertyOp27
 70
     1
102
RTVSPropertyOp28
 70
     1
102
RTVSPropertyOp29
 70
     1
102
RTVSPropertyOp30
 70
     1
102
RTVSPropertyOp31
 70
     1
102
RTVSPropertyOp32
 70
     1
102
RTVSPropertyOp33
 70
     1
102
RTVSPropertyOp34
 70
     1
102
RTVSPropertyOp35
 70
     1
102
RTVSPropertyOp36
 70
     1
102
RTVSPropertyOp37
 70
     1
102
RTVSPropertyOp38
 70
     1
102
RTVSPropertyOp39
 70
     1
102
RTVSPropertyOp40
 70
     1
102
RTVSPropertyOp41
 70
     1
102
RTVSPropertyOp42
 70
     1
102
RTVSPropertyOp43
 70
     1
102
RTVSPropertyOp44
 70
     1
102
RTVSPropertyOp45
 70
     1
102
RTVSPropertyOp46
 70
     1
102
RTVSPropertyOp47
 70
     1
102
RTVSPropertyOp48
 70
     1
102
RTVSPropertyOp49
 70
     1
102
RTVSPropertyOp50
 70
     1
102
RTVSPropertyOp51
 70
     0
102
RTVSPropertyOp52
 70
     0
102
RTVSPropertyOp53
 70
     1
102
RTVSPropertyOp54
 70
     1
102
RTVSPropertyOp55
 70
     1
102
RTVSPropertyOp56
 70
     1
102
RTVSPropertyOp57
 70
     1
102
RTVSPost2010Prop28
280
     0
102
RTVSPost2010PropOp28
 70
     1
102
RTVSPost2010Prop29
280
     1
102
RTVSPost2010PropOp29
 70
     1
102
RTVSPost2010Prop30
280
     1
102
RTVSPost2010PropOp30
 70
     1
102
RTVSPost2010Prop31
280
     0
102
RTVSPost2010PropOp31
 70
     1
102
RTVSPost2010Prop32
280
     0
102
RTVSPost2010PropOp32
 70
     1
102
RTVSPost2010Prop33
280
     0
102
RTVSPost2010PropOp33
 70
     1
102
RTVSPost2010Prop34
280
     0
102
RTVSPost2010PropOp34
 70
     1
102
RTVSPost2010Prop35
280
     0
102
RTVSPost2010PropOp35
 70
     1
102
RTVSPost2010Prop36
280
     0
102
RTVSPost2010PropOp36
 70
     1
102
RTVSPost2010Prop37
 90
       50
102
RTVSPost2010PropOp37
 70
     1
102
RTVSPost2010Prop38
140
0.0
102
RTVSPost2010PropOp38
 70
     1
102
RTVSPost2010Prop39
140
1.0
102
RTVSPost2010PropOp39
 70
     1
102
RTVSPost2010Prop40
 90
        0
102
RTVSPost2010PropOp40
 70
     1
102
RTVSPost2010Prop41ColorIndex
 90
       18
102
RTVSPost2010Prop41ColorRGB
 90
        0
102
RTVSPost2010PropOp41
 70
     1
102
RTVSPost2010Prop42
 90
       50
102
RTVSPost2010PropOp42
 70
     1
102
RTVSPost2010Prop43
 90
        3
102
RTVSPost2010PropOp43
 70
     1
102
RTVSPost2010Prop44ColorIndex
 90
        5
102
RTVSPost2010Prop44ColorRGB
 90
      255
102
RTVSPost2010PropOp44
 70
     1
102
RTVSPost2010Prop45
280
     0
102
RTVSPost2010PropOp45
 70
     1
102
RTVSPost2010Prop46
 90
       50
102
RTVSPost2010PropOp46
 70
     1
102
RTVSPost2010Prop47
 90
       50
102
RTVSPost2010PropOp47
 70
     1
102
RTVSPost2010Prop48
 90
       50
102
RTVSPost2010PropOp48
 70
     1
102
RTVSPost2010Prop49
280
     0
102
RTVSPost2010PropOp49
 70
     1
102
RTVSPost2010Prop50
 90
       50
102
RTVSPost2010PropOp50
 70
     1
102
RTVSPost2010Prop51ColorIndex
 90
      256
102
RTVSPost2010Prop51ColorRGB
 90
-16777216
102
RTVSPost2010PropOp51
 70
     0
102
RTVSPost2010Prop52
140
1.0
102
RTVSPost2010PropOp52
 70
     0
102
RTVSPost2010Prop53
 90
        2
102
RTVSPost2010PropOp53
 70
     1
102
RTVSPost2010Prop54
  1
strokes_ogs.tif
102
RTVSPost2010PropOp54
 70
     1
102
RTVSPost2010Prop55
280
     0
102
RTVSPost2010PropOp55
 70
     1
102
RTVSPost2010Prop56
140
1.0
102
RTVSPost2010PropOp56
 70
     1
102
RTVSPost2010Prop57
140
1.0
102
RTVSPost2010PropOp57
 70
     1
  0
XRECORD
  5
322
102
{ACAD_REACTORS
330
321
102
}
330
321
100
AcDbXrecord
280
     1
102
RTVSPropertyOp0
 70
     1
102
RTVSPropertyOp1
 70
     1
102
RTVSPropertyOp2
 70
     1
102
RTVSPropertyOp3
 70
     1
102
RTVSPropertyOp4
 70
     1
102
RTVSPropertyOp5
 70
     1
102
RTVSPropertyOp6
 70
     1
102
RTVSPropertyOp7
 70
     1
102
RTVSPropertyOp8
 70
     1
102
RTVSPropertyOp9
 70
     1
102
RTVSPropertyOp10
 70
     1
102
RTVSPropertyOp11
 70
     1
102
RTVSPropertyOp12
 70
     1
102
RTVSPropertyOp13
 70
     1
102
RTVSPropertyOp14
 70
     1
102
RTVSPropertyOp15
 70
     1
102
RTVSPropertyOp16
 70
     1
102
RTVSPropertyOp17
 70
     1
102
RTVSPropertyOp18
 70
     1
102
RTVSPropertyOp19
 70
     1
102
RTVSPropertyOp20
 70
     1
102
RTVSPropertyOp21
 70
     1
102
RTVSPropertyOp22
 70
     1
102
RTVSPropertyOp23
 70
     1
102
RTVSPropertyOp24
 70
     1
102
RTVSPropertyOp25
 70
     1
102
RTVSPropertyOp26
 70
     1
102
RTVSPropertyOp27
 70
     1
102
RTVSPropertyOp28
 70
     1
102
RTVSPropertyOp29
 70
     1
102
RTVSPropertyOp30
 70
     1
102
RTVSPropertyOp31
 70
     1
102
RTVSPropertyOp32
 70
     1
102
RTVSPropertyOp33
 70
     1
102
RTVSPropertyOp34
 70
     1
102
RTVSPropertyOp35
 70
     1
102
RTVSPropertyOp36
 70
     1
102
RTVSPropertyOp37
 70
     1
102
RTVSPropertyOp38
 70
     1
102
RTVSPropertyOp39
 70
     1
102
RTVSPropertyOp40
 70
     1
102
RTVSPropertyOp41
 70
     1
102
RTVSPropertyOp42
 70
     1
102
RTVSPropertyOp43
 70
     1
102
RTVSPropertyOp44
 70
     1
102
RTVSPropertyOp45
 70
     1
102
RTVSPropertyOp46
 70
     1
102
RTVSPropertyOp47
 70
     1
102
RTVSPropertyOp48
 70
     1
102
RTVSPropertyOp49
 70
     1
102
RTVSPropertyOp50
 70
     1
102
RTVSPropertyOp51
 70
     0
102
RTVSPropertyOp52
 70
     0
102
RTVSPropertyOp53
 70
     1
102
RTVSPropertyOp54
 70
     1
102
RTVSPropertyOp55
 70
     1
102
RTVSPropertyOp56
 70
     1
102
RTVSPropertyOp57
 70
     1
102
RTVSPost2010Prop28
280
     0
102
RTVSPost2010PropOp28
 70
     1
102
RTVSPost2010Prop29
280
     1
102
RTVSPost2010PropOp29
 70
     1
102
RTVSPost2010Prop30
280
     1
102
RTVSPost2010PropOp30
 70
     1
102
RTVSPost2010Prop31
280
     0
102
RTVSPost2010PropOp31
 70
     1
102
RTVSPost2010Prop32
280
     0
102
RTVSPost2010PropOp32
 70
     1
102
RTVSPost2010Prop33
280
     0
102
RTVSPost2010PropOp33
 70
     1
102
RTVSPost2010Prop34
280
     0
102
RTVSPost2010PropOp34
 70
     1
102
RTVSPost2010Prop35
280
     0
102
RTVSPost2010PropOp35
 70
     1
102
RTVSPost2010Prop36
280
     0
102
RTVSPost2010PropOp36
 70
     1
102
RTVSPost2010Prop37
 90
       50
102
RTVSPost2010PropOp37
 70
     1
102
RTVSPost2010Prop38
140
0.0
102
RTVSPost2010PropOp38
 70
     1
102
RTVSPost2010Prop39
140
1.0
102
RTVSPost2010PropOp39
 70
     1
102
RTVSPost2010Prop40
 90
        0
102
RTVSPost2010PropOp40
 70
     1
102
RTVSPost2010Prop41ColorIndex
 90
       18
102
RTVSPost2010Prop41ColorRGB
 90
        0
102
RTVSPost2010PropOp41
 70
     1
102
RTVSPost2010Prop42
 90
       50
102
RTVSPost2010PropOp42
 70
     1
102
RTVSPost2010Prop43
 90
        3
102
RTVSPost2010PropOp43
 70
     1
102
RTVSPost2010Prop44ColorIndex
 90
        5
102
RTVSPost2010Prop44ColorRGB
 90
      255
102
RTVSPost2010PropOp44
 70
     1
102
RTVSPost2010Prop45
280
     0
102
RTVSPost2010PropOp45
 70
     1
102
RTVSPost2010Prop46
 90
       50
102
RTVSPost2010PropOp46
 70
     1
102
RTVSPost2010Prop47
 90
       50
102
RTVSPost2010PropOp47
 70
     1
102
RTVSPost2010Prop48
 90
       50
102
RTVSPost2010PropOp48
 70
     1
102
RTVSPost2010Prop49
280
     0
102
RTVSPost2010PropOp49
 70
     1
102
RTVSPost2010Prop50
 90
       50
102
RTVSPost2010PropOp50
 70
     1
102
RTVSPost2010Prop51ColorIndex
 90
      256
102
RTVSPost2010Prop51ColorRGB
 90
-16777216
102
RTVSPost2010PropOp51
 70
     0
102
RTVSPost2010Prop52
140
1.0
102
RTVSPost2010PropOp52
 70
     0
102
RTVSPost2010Prop53
 90
        2
102
RTVSPost2010PropOp53
 70
     1
102
RTVSPost2010Prop54
  1
strokes_ogs.tif
102
RTVSPost2010PropOp54
 70
     1
102
RTVSPost2010Prop55
280
     0
102
RTVSPost2010PropOp55
 70
     1
102
RTVSPost2010Prop56
140
1.0
102
RTVSPost2010PropOp56
 70
     1
102
RTVSPost2010Prop57
140
1.0
102
RTVSPost2010PropOp57
 70
     1
  0
XRECORD
  5
318
102
{ACAD_REACTORS
330
317
102
}
330
317
100
AcDbXrecord
280
     1
102
RTVSPropertyOp0
 70
     1
102
RTVSPropertyOp1
 70
     1
102
RTVSPropertyOp2
 70
     1
102
RTVSPropertyOp3
 70
     1
102
RTVSPropertyOp4
 70
     1
102
RTVSPropertyOp5
 70
     1
102
RTVSPropertyOp6
 70
     1
102
RTVSPropertyOp7
 70
     1
102
RTVSPropertyOp8
 70
     1
102
RTVSPropertyOp9
 70
     1
102
RTVSPropertyOp10
 70
     1
102
RTVSPropertyOp11
 70
     1
102
RTVSPropertyOp12
 70
     1
102
RTVSPropertyOp13
 70
     1
102
RTVSPropertyOp14
 70
     1
102
RTVSPropertyOp15
 70
     1
102
RTVSPropertyOp16
 70
     1
102
RTVSPropertyOp17
 70
     1
102
RTVSPropertyOp18
 70
     1
102
RTVSPropertyOp19
 70
     1
102
RTVSPropertyOp20
 70
     1
102
RTVSPropertyOp21
 70
     1
102
RTVSPropertyOp22
 70
     1
102
RTVSPropertyOp23
 70
     1
102
RTVSPropertyOp24
 70
     1
102
RTVSPropertyOp25
 70
     1
102
RTVSPropertyOp26
 70
     1
102
RTVSPropertyOp27
 70
     1
102
RTVSPropertyOp28
 70
     1
102
RTVSPropertyOp29
 70
     1
102
RTVSPropertyOp30
 70
     1
102
RTVSPropertyOp31
 70
     1
102
RTVSPropertyOp32
 70
     1
102
RTVSPropertyOp33
 70
     1
102
RTVSPropertyOp34
 70
     1
102
RTVSPropertyOp35
 70
     1
102
RTVSPropertyOp36
 70
     1
102
RTVSPropertyOp37
 70
     1
102
RTVSPropertyOp38
 70
     1
102
RTVSPropertyOp39
 70
     1
102
RTVSPropertyOp40
 70
     1
102
RTVSPropertyOp41
 70
     1
102
RTVSPropertyOp42
 70
     1
102
RTVSPropertyOp43
 70
     1
102
RTVSPropertyOp44
 70
     1
102
RTVSPropertyOp45
 70
     1
102
RTVSPropertyOp46
 70
     1
102
RTVSPropertyOp47
 70
     1
102
RTVSPropertyOp48
 70
     1
102
RTVSPropertyOp49
 70
     1
102
RTVSPropertyOp50
 70
     1
102
RTVSPropertyOp51
 70
     0
102
RTVSPropertyOp52
 70
     0
102
RTVSPropertyOp53
 70
     1
102
RTVSPropertyOp54
 70
     1
102
RTVSPropertyOp55
 70
     1
102
RTVSPropertyOp56
 70
     1
102
RTVSPropertyOp57
 70
     1
102
RTVSPost2010Prop28
280
     0
102
RTVSPost2010PropOp28
 70
     1
102
RTVSPost2010Prop29
280
     1
102
RTVSPost2010PropOp29
 70
     1
102
RTVSPost2010Prop30
280
     1
102
RTVSPost2010PropOp30
 70
     1
102
RTVSPost2010Prop31
280
     0
102
RTVSPost2010PropOp31
 70
     1
102
RTVSPost2010Prop32
280
     0
102
RTVSPost2010PropOp32
 70
     1
102
RTVSPost2010Prop33
280
     0
102
RTVSPost2010PropOp33
 70
     1
102
RTVSPost2010Prop34
280
     0
102
RTVSPost2010PropOp34
 70
     1
102
RTVSPost2010Prop35
280
     0
102
RTVSPost2010PropOp35
 70
     1
102
RTVSPost2010Prop36
280
     0
102
RTVSPost2010PropOp36
 70
     1
102
RTVSPost2010Prop37
 90
       50
102
RTVSPost2010PropOp37
 70
     1
102
RTVSPost2010Prop38
140
0.0
102
RTVSPost2010PropOp38
 70
     1
102
RTVSPost2010Prop39
140
1.0
102
RTVSPost2010PropOp39
 70
     1
102
RTVSPost2010Prop40
 90
        0
102
RTVSPost2010PropOp40
 70
     1
102
RTVSPost2010Prop41ColorIndex
 90
       18
102
RTVSPost2010Prop41ColorRGB
 90
        0
102
RTVSPost2010PropOp41
 70
     1
102
RTVSPost2010Prop42
 90
       50
102
RTVSPost2010PropOp42
 70
     1
102
RTVSPost2010Prop43
 90
        3
102
RTVSPost2010PropOp43
 70
     1
102
RTVSPost2010Prop44ColorIndex
 90
        5
102
RTVSPost2010Prop44ColorRGB
 90
      255
102
RTVSPost2010PropOp44
 70
     1
102
RTVSPost2010Prop45
280
     0
102
RTVSPost2010PropOp45
 70
     1
102
RTVSPost2010Prop46
 90
       50
102
RTVSPost2010PropOp46
 70
     1
102
RTVSPost2010Prop47
 90
       50
102
RTVSPost2010PropOp47
 70
     1
102
RTVSPost2010Prop48
 90
       50
102
RTVSPost2010PropOp48
 70
     1
102
RTVSPost2010Prop49
280
     0
102
RTVSPost2010PropOp49
 70
     1
102
RTVSPost2010Prop50
 90
       50
102
RTVSPost2010PropOp50
 70
     1
102
RTVSPost2010Prop51ColorIndex
 90
      256
102
RTVSPost2010Prop51ColorRGB
 90
-16777216
102
RTVSPost2010PropOp51
 70
     0
102
RTVSPost2010Prop52
140
1.0
102
RTVSPost2010PropOp52
 70
     0
102
RTVSPost2010Prop53
 90
        2
102
RTVSPost2010PropOp53
 70
     1
102
RTVSPost2010Prop54
  1
strokes_ogs.tif
102
RTVSPost2010PropOp54
 70
     1
102
RTVSPost2010Prop55
280
     0
102
RTVSPost2010PropOp55
 70
     1
102
RTVSPost2010Prop56
140
1.0
102
RTVSPost2010PropOp56
 70
     1
102
RTVSPost2010Prop57
140
1.0
102
RTVSPost2010PropOp57
 70
     1
  0
XRECORD
  5
320
102
{ACAD_REACTORS
330
31F
102
}
330
31F
100
AcDbXrecord
280
     1
102
RTVSPropertyOp0
 70
     1
102
RTVSPropertyOp1
 70
     1
102
RTVSPropertyOp2
 70
     1
102
RTVSPropertyOp3
 70
     1
102
RTVSPropertyOp4
 70
     1
102
RTVSPropertyOp5
 70
     1
102
RTVSPropertyOp6
 70
     1
102
RTVSPropertyOp7
 70
     1
102
RTVSPropertyOp8
 70
     1
102
RTVSPropertyOp9
 70
     1
102
RTVSPropertyOp10
 70
     1
102
RTVSPropertyOp11
 70
     1
102
RTVSPropertyOp12
 70
     1
102
RTVSPropertyOp13
 70
     1
102
RTVSPropertyOp14
 70
     1
102
RTVSPropertyOp15
 70
     1
102
RTVSPropertyOp16
 70
     1
102
RTVSPropertyOp17
 70
     1
102
RTVSPropertyOp18
 70
     1
102
RTVSPropertyOp19
 70
     1
102
RTVSPropertyOp20
 70
     1
102
RTVSPropertyOp21
 70
     1
102
RTVSPropertyOp22
 70
     1
102
RTVSPropertyOp23
 70
     1
102
RTVSPropertyOp24
 70
     1
102
RTVSPropertyOp25
 70
     1
102
RTVSPropertyOp26
 70
     1
102
RTVSPropertyOp27
 70
     1
102
RTVSPropertyOp28
 70
     1
102
RTVSPropertyOp29
 70
     1
102
RTVSPropertyOp30
 70
     1
102
RTVSPropertyOp31
 70
     1
102
RTVSPropertyOp32
 70
     1
102
RTVSPropertyOp33
 70
     1
102
RTVSPropertyOp34
 70
     1
102
RTVSPropertyOp35
 70
     1
102
RTVSPropertyOp36
 70
     1
102
RTVSPropertyOp37
 70
     1
102
RTVSPropertyOp38
 70
     1
102
RTVSPropertyOp39
 70
     1
102
RTVSPropertyOp40
 70
     1
102
RTVSPropertyOp41
 70
     1
102
RTVSPropertyOp42
 70
     1
102
RTVSPropertyOp43
 70
     1
102
RTVSPropertyOp44
 70
     1
102
RTVSPropertyOp45
 70
     1
102
RTVSPropertyOp46
 70
     1
102
RTVSPropertyOp47
 70
     1
102
RTVSPropertyOp48
 70
     1
102
RTVSPropertyOp49
 70
     1
102
RTVSPropertyOp50
 70
     1
102
RTVSPropertyOp51
 70
     0
102
RTVSPropertyOp52
 70
     0
102
RTVSPropertyOp53
 70
     1
102
RTVSPropertyOp54
 70
     1
102
RTVSPropertyOp55
 70
     1
102
RTVSPropertyOp56
 70
     1
102
RTVSPropertyOp57
 70
     1
102
RTVSPost2010Prop28
280
     0
102
RTVSPost2010PropOp28
 70
     1
102
RTVSPost2010Prop29
280
     1
102
RTVSPost2010PropOp29
 70
     1
102
RTVSPost2010Prop30
280
     1
102
RTVSPost2010PropOp30
 70
     1
102
RTVSPost2010Prop31
280
     0
102
RTVSPost2010PropOp31
 70
     1
102
RTVSPost2010Prop32
280
     0
102
RTVSPost2010PropOp32
 70
     1
102
RTVSPost2010Prop33
280
     0
102
RTVSPost2010PropOp33
 70
     1
102
RTVSPost2010Prop34
280
     0
102
RTVSPost2010PropOp34
 70
     1
102
RTVSPost2010Prop35
280
     0
102
RTVSPost2010PropOp35
 70
     1
102
RTVSPost2010Prop36
280
     0
102
RTVSPost2010PropOp36
 70
     1
102
RTVSPost2010Prop37
 90
       50
102
RTVSPost2010PropOp37
 70
     1
102
RTVSPost2010Prop38
140
0.0
102
RTVSPost2010PropOp38
 70
     1
102
RTVSPost2010Prop39
140
1.0
102
RTVSPost2010PropOp39
 70
     1
102
RTVSPost2010Prop40
 90
        0
102
RTVSPost2010PropOp40
 70
     1
102
RTVSPost2010Prop41ColorIndex
 90
       18
102
RTVSPost2010Prop41ColorRGB
 90
        0
102
RTVSPost2010PropOp41
 70
     1
102
RTVSPost2010Prop42
 90
       50
102
RTVSPost2010PropOp42
 70
     1
102
RTVSPost2010Prop43
 90
        3
102
RTVSPost2010PropOp43
 70
     1
102
RTVSPost2010Prop44ColorIndex
 90
        5
102
RTVSPost2010Prop44ColorRGB
 90
      255
102
RTVSPost2010PropOp44
 70
     1
102
RTVSPost2010Prop45
280
     0
102
RTVSPost2010PropOp45
 70
     1
102
RTVSPost2010Prop46
 90
       50
102
RTVSPost2010PropOp46
 70
     1
102
RTVSPost2010Prop47
 90
       50
102
RTVSPost2010PropOp47
 70
     1
102
RTVSPost2010Prop48
 90
       50
102
RTVSPost2010PropOp48
 70
     1
102
RTVSPost2010Prop49
280
     0
102
RTVSPost2010PropOp49
 70
     1
102
RTVSPost2010Prop50
 90
       50
102
RTVSPost2010PropOp50
 70
     1
102
RTVSPost2010Prop51ColorIndex
 90
      256
102
RTVSPost2010Prop51ColorRGB
 90
-16777216
102
RTVSPost2010PropOp51
 70
     0
102
RTVSPost2010Prop52
140
1.0
102
RTVSPost2010PropOp52
 70
     0
102
RTVSPost2010Prop53
 90
        2
102
RTVSPost2010PropOp53
 70
     1
102
RTVSPost2010Prop54
  1
strokes_ogs.tif
102
RTVSPost2010PropOp54
 70
     1
102
RTVSPost2010Prop55
280
     0
102
RTVSPost2010PropOp55
 70
     1
102
RTVSPost2010Prop56
140
1.0
102
RTVSPost2010PropOp56
 70
     1
102
RTVSPost2010Prop57
140
1.0
102
RTVSPost2010PropOp57
 70
     1
  0
ENDSEC
  0
EOF
