  0
SECTION
  2
HEADER
  9
$ACADVER
  1
AC1018
  9
$ACADMAINTVER
 70
     0
  9
$DWGCODEPAGE
  3
ANSI_936
  9
$INSBASE
 10
0.0
 20
0.0
 30
0.0
  9
$EXTMIN
 10
420.3229403180819
 20
489.3223324574952
 30
0.0
  9
$EXTMAX
 10
471.3229483911624
 20
776.3223325410601
 30
0.0
  9
$LIMMIN
 10
0.0
 20
0.0
  9
$LIMMAX
 10
12.0
 20
9.0
  9
$ORTHOMODE
 70
     0
  9
$REGENMODE
 70
     1
  9
$FILLMODE
 70
     1
  9
$QTEXTMODE
 70
     0
  9
$MIRRTEXT
 70
     1
  9
$LTSCALE
 40
1.0
  9
$ATTMODE
 70
     1
  9
$TEXTSIZE
 40
0.2
  9
$TRACEWID
 40
0.05
  9
$TEXTSTYLE
  7
Standard
  9
$CLAYER
  8
0
  9
$CELTYPE
  6
ByLayer
  9
$CECOLOR
 62
   256
  9
$CELTSCALE
 40
1.0
  9
$DISPSILH
 70
     0
  9
$DIMSCALE
 40
1.0
  9
$DIMASZ
 40
0.18
  9
$DIMEXO
 40
0.0625
  9
$DIMDLI
 40
0.38
  9
$DIMRND
 40
0.0
  9
$DIMDLE
 40
0.0
  9
$DIMEXE
 40
0.18
  9
$DIMTP
 40
0.0
  9
$DIMTM
 40
0.0
  9
$DIMTXT
 40
0.18
  9
$DIMCEN
 40
0.09
  9
$DIMTSZ
 40
0.0
  9
$DIMTOL
 70
     0
  9
$DIMLIM
 70
     0
  9
$DIMTIH
 70
     1
  9
$DIMTOH
 70
     1
  9
$DIMSE1
 70
     0
  9
$DIMSE2
 70
     0
  9
$DIMTAD
 70
     0
  9
$DIMZIN
 70
     0
  9
$DIMBLK
  1

  9
$DIMASO
 70
     1
  9
$DIMSHO
 70
     1
  9
$DIMPOST
  1

  9
$DIMAPOST
  1

  9
$DIMALT
 70
     0
  9
$DIMALTD
 70
     2
  9
$DIMALTF
 40
25.4
  9
$DIMLFAC
 40
1.0
  9
$DIMTOFL
 70
     0
  9
$DIMTVP
 40
0.0
  9
$DIMTIX
 70
     0
  9
$DIMSOXD
 70
     0
  9
$DIMSAH
 70
     0
  9
$DIMBLK1
  1

  9
$DIMBLK2
  1

  9
$DIMSTYLE
  2
Standard
  9
$DIMCLRD
 70
     0
  9
$DIMCLRE
 70
     0
  9
$DIMCLRT
 70
     0
  9
$DIMTFAC
 40
1.0
  9
$DIMGAP
 40
0.09
  9
$DIMJUST
 70
     0
  9
$DIMSD1
 70
     0
  9
$DIMSD2
 70
     0
  9
$DIMTOLJ
 70
     1
  9
$DIMTZIN
 70
     0
  9
$DIMALTZ
 70
     0
  9
$DIMALTTZ
 70
     0
  9
$DIMUPT
 70
     0
  9
$DIMDEC
 70
     4
  9
$DIMTDEC
 70
     4
  9
$DIMALTU
 70
     2
  9
$DIMALTTD
 70
     2
  9
$DIMTXSTY
  7
Standard
  9
$DIMAUNIT
 70
     0
  9
$DIMADEC
 70
     0
  9
$DIMALTRND
 40
0.0
  9
$DIMAZIN
 70
     0
  9
$DIMDSEP
 70
    46
  9
$DIMATFIT
 70
     3
  9
$DIMFRAC
 70
     0
  9
$DIMLDRBLK
  1

  9
$DIMLUNIT
 70
     2
  9
$DIMLWD
 70
    -2
  9
$DIMLWE
 70
    -2
  9
$DIMTMOVE
 70
     2
  9
$LUNITS
 70
     2
  9
$LUPREC
 70
     3
  9
$SKETCHINC
 40
0.1
  9
$FILLETRAD
 40
0.5
  9
$AUNITS
 70
     0
  9
$AUPREC
 70
     0
  9
$MENU
  1
.
  9
$ELEVATION
 40
0.0
  9
$PELEVATION
 40
0.0
  9
$THICKNESS
 40
0.0
  9
$LIMCHECK
 70
     0
  9
$CHAMFERA
 40
0.5
  9
$CHAMFERB
 40
0.5
  9
$CHAMFERC
 40
1.0
  9
$CHAMFERD
 40
0.0
  9
$SKPOLY
 70
     0
  9
$TDCREATE
 40
2457501.721966921
  9
$TDUCREATE
 40
2457501.388633588
  9
$TDUPDATE
 40
2457501.721967048
  9
$TDUUPDATE
 40
2457501.388633715
  9
$TDINDWG
 40
0.0000000116
  9
$TDUSRTIMER
 40
0.0000000116
  9
$USRTIMER
 70
     1
  9
$ANGBASE
 50
0.0
  9
$ANGDIR
 70
     0
  9
$PDMODE
 70
     0
  9
$PDSIZE
 40
0.0
  9
$PLINEWID
 40
0.0
  9
$SPLFRAME
 70
     0
  9
$SPLINETYPE
 70
     6
  9
$SPLINESEGS
 70
     8
  9
$HANDSEED
  5
63B
  9
$SURFTAB1
 70
     6
  9
$SURFTAB2
 70
     6
  9
$SURFTYPE
 70
     6
  9
$SURFU
 70
     6
  9
$SURFV
 70
     6
  9
$UCSBASE
  2

  9
$UCSNAME
  2

  9
$UCSORG
 10
0.0
 20
0.0
 30
0.0
  9
$UCSXDIR
 10
1.0
 20
0.0
 30
0.0
  9
$UCSYDIR
 10
0.0
 20
1.0
 30
0.0
  9
$UCSORTHOREF
  2

  9
$UCSORTHOVIEW
 70
     0
  9
$UCSORGTOP
 10
0.0
 20
0.0
 30
0.0
  9
$UCSORGBOTTOM
 10
0.0
 20
0.0
 30
0.0
  9
$UCSORGLEFT
 10
0.0
 20
0.0
 30
0.0
  9
$UCSORGRIGHT
 10
0.0
 20
0.0
 30
0.0
  9
$UCSORGFRONT
 10
0.0
 20
0.0
 30
0.0
  9
$UCSORGBACK
 10
0.0
 20
0.0
 30
0.0
  9
$PUCSBASE
  2

  9
$PUCSNAME
  2

  9
$PUCSORG
 10
0.0
 20
0.0
 30
0.0
  9
$PUCSXDIR
 10
1.0
 20
0.0
 30
0.0
  9
$PUCSYDIR
 10
0.0
 20
1.0
 30
0.0
  9
$PUCSORTHOREF
  2

  9
$PUCSORTHOVIEW
 70
     0
  9
$PUCSORGTOP
 10
0.0
 20
0.0
 30
0.0
  9
$PUCSORGBOTTOM
 10
0.0
 20
0.0
 30
0.0
  9
$PUCSORGLEFT
 10
0.0
 20
0.0
 30
0.0
  9
$PUCSORGRIGHT
 10
0.0
 20
0.0
 30
0.0
  9
$PUCSORGFRONT
 10
0.0
 20
0.0
 30
0.0
  9
$PUCSORGBACK
 10
0.0
 20
0.0
 30
0.0
  9
$USERI1
 70
     0
  9
$USERI2
 70
     0
  9
$USERI3
 70
     0
  9
$USERI4
 70
     0
  9
$USERI5
 70
     0
  9
$USERR1
 40
0.0
  9
$USERR2
 40
0.0
  9
$USERR3
 40
0.0
  9
$USERR4
 40
0.0
  9
$USERR5
 40
0.0
  9
$WORLDVIEW
 70
     1
  9
$SHADEDGE
 70
     3
  9
$SHADEDIF
 70
    70
  9
$TILEMODE
 70
     1
  9
$MAXACTVP
 70
    64
  9
$PINSBASE
 10
0.0
 20
0.0
 30
0.0
  9
$PLIMCHECK
 70
     0
  9
$PEXTMIN
 10
1.000000000000000E+20
 20
1.000000000000000E+20
 30
1.000000000000000E+20
  9
$PEXTMAX
 10
-1.000000000000000E+20
 20
-1.000000000000000E+20
 30
-1.000000000000000E+20
  9
$PLIMMIN
 10
0.0
 20
0.0
  9
$PLIMMAX
 10
12.0
 20
9.0
  9
$UNITMODE
 70
     0
  9
$VISRETAIN
 70
     1
  9
$PLINEGEN
 70
     0
  9
$PSLTSCALE
 70
     1
  9
$TREEDEPTH
 70
  3020
  9
$CMLSTYLE
  2
Standard
  9
$CMLJUST
 70
     0
  9
$CMLSCALE
 40
1.0
  9
$PROXYGRAPHICS
 70
     1
  9
$MEASUREMENT
 70
     0
  9
$CELWEIGHT
370
    -1
  9
$ENDCAPS
280
     0
  9
$JOINSTYLE
280
     0
  9
$LWDISPLAY
290
     0
  9
$INSUNITS
 70
     4
  9
$HYPERLINKBASE
  1

  9
$STYLESHEET
  1

  9
$XEDIT
290
     1
  9
$CEPSNTYPE
380
     0
  9
$PSTYLEMODE
290
     1
  9
$FINGERPRINTGUID
  2
{B7249308-3B31-47C3-A870-BB9755314FAF}
  9
$VERSIONGUID
  2
{FAEB1C32-E019-11D5-929B-00C0DF256EC4}
  9
$EXTNAMES
290
     1
  9
$PSVPSCALE
 40
0.0
  9
$OLESTARTUP
290
     0
  9
$SORTENTS
280
   127
  9
$INDEXCTL
280
     0
  9
$HIDETEXT
280
     1
  9
$XCLIPFRAME
290
     0
  9
$HALOGAP
280
     0
  9
$OBSCOLOR
 70
   257
  9
$OBSLTYPE
280
     0
  9
$INTERSECTIONDISPLAY
280
     0
  9
$INTERSECTIONCOLOR
 70
   257
  9
$DIMASSOC
280
     2
  9
$PROJECTNAME
  1

  0
ENDSEC
  0
SECTION
  2
CLASSES
  0
CLASS
  1
ACDBDICTIONARYWDFLT
  2
AcDbDictionaryWithDefault
  3
ObjectDBX Classes
 90
        0
 91
        4
280
     0
281
     0
  0
CLASS
  1
VISUALSTYLE
  2
AcDbVisualStyle
  3
ObjectDBX Classes
 90
     4095
 91
        4
280
     0
281
     0
  0
CLASS
  1
MATERIAL
  2
AcDbMaterial
  3
ObjectDBX Classes
 90
     1153
 91
        4
280
     0
281
     0
  0
CLASS
  1
SCALE
  2
AcDbScale
  3
ObjectDBX Classes
 90
     1153
 91
        4
280
     0
281
     0
  0
CLASS
  1
SUN
  2
AcDbSun
  3
SCENEOE
 90
     1153
 91
        4
280
     0
281
     0
  0
CLASS
  1
DICTIONARYVAR
  2
AcDbDictionaryVar
  3
ObjectDBX Classes
 90
        0
 91
        4
280
     0
281
     0
  0
ENDSEC
  0
SECTION
  2
TABLES
  0
TABLE
  2
VPORT
  5
8
330
0
100
AcDbSymbolTable
 70
     1
  0
VPORT
  5
29
330
8
100
AcDbSymbolTableRecord
100
AcDbViewportTableRecord
  2
*Active
 70
     0
 10
0.0
 20
0.0
 11
1.0
 21
1.0
 12
445.8229443547036
 22
632.8223324574935
 13
0.0
 23
0.0
 14
0.5
 24
0.5
 15
0.5
 25
0.5
 16
0.0
 26
0.0
 36
1.0
 17
0.0
 27
0.0
 37
0.0
 40
292.7399999999956
 41
0.177700376560642
 42
50.0
 43
0.0
 44
0.0
 50
0.0
 51
0.0
 71
     0
 72
   100
 73
     1
 74
     3
 75
     0
 76
     0
 77
     0
 78
     0
281
     0
 65
     1
110
0.0
120
0.0
130
0.0
111
1.0
121
0.0
131
0.0
112
0.0
122
1.0
132
0.0
 79
     0
146
0.0
  0
ENDTAB
  0
TABLE
  2
LTYPE
  5
5
330
0
100
AcDbSymbolTable
 70
     1
  0
LTYPE
  5
14
330
5
100
AcDbSymbolTableRecord
100
AcDbLinetypeTableRecord
  2
ByBlock
 70
     0
  3

 72
    65
 73
     0
 40
0.0
  0
LTYPE
  5
15
330
5
100
AcDbSymbolTableRecord
100
AcDbLinetypeTableRecord
  2
ByLayer
 70
     0
  3

 72
    65
 73
     0
 40
0.0
  0
LTYPE
  5
16
330
5
100
AcDbSymbolTableRecord
100
AcDbLinetypeTableRecord
  2
Continuous
 70
     0
  3
Solid line
 72
    65
 73
     0
 40
0.0
  0
ENDTAB
  0
TABLE
  2
LAYER
  5
2
330
0
100
AcDbSymbolTable
 70
     2
  0
LAYER
  5
10
330
2
100
AcDbSymbolTableRecord
100
AcDbLayerTableRecord
  2
0
 70
     0
 62
     7
  6
Continuous
370
    -3
390
F
  0
LAYER
  5
62
330
2
100
AcDbSymbolTableRecord
100
AcDbLayerTableRecord
  2
Make2D$可见线$普通线
 70
     0
 62
    18
420
        0
  6
Continuous
370
    -3
390
F
  0
ENDTAB
  0
TABLE
  2
STYLE
  5
3
330
0
100
AcDbSymbolTable
 70
     1
  0
STYLE
  5
11
330
3
100
AcDbSymbolTableRecord
100
AcDbTextStyleTableRecord
  2
Standard
 70
     0
 40
0.0
 41
1.0
 50
0.0
 71
     0
 42
0.2
  3
txt
  4

  0
ENDTAB
  0
TABLE
  2
VIEW
  5
6
330
0
100
AcDbSymbolTable
 70
     0
  0
ENDTAB
  0
TABLE
  2
UCS
  5
7
330
0
100
AcDbSymbolTable
 70
     0
  0
ENDTAB
  0
TABLE
  2
APPID
  5
9
330
0
100
AcDbSymbolTable
 70
     1
  0
APPID
  5
12
330
9
100
AcDbSymbolTableRecord
100
AcDbRegAppTableRecord
  2
ACAD
 70
     0
  0
ENDTAB
  0
TABLE
  2
DIMSTYLE
  5
A
330
0
100
AcDbSymbolTable
 70
     1
100
AcDbDimStyleTable
  0
DIMSTYLE
105
27
330
A
100
AcDbSymbolTableRecord
100
AcDbDimStyleTableRecord
  2
Standard
 70
     0
178
     0
340
11
  0
ENDTAB
  0
TABLE
  2
BLOCK_RECORD
  5
1
330
0
100
AcDbSymbolTable
 70
     1
  0
BLOCK_RECORD
  5
1F
330
1
100
AcDbSymbolTableRecord
100
AcDbBlockTableRecord
  2
*Model_Space
340
22
  0
BLOCK_RECORD
  5
1B
330
1
100
AcDbSymbolTableRecord
100
AcDbBlockTableRecord
  2
*Paper_Space
340
1E
  0
BLOCK_RECORD
  5
23
330
1
100
AcDbSymbolTableRecord
100
AcDbBlockTableRecord
  2
*Paper_Space0
340
26
  0
ENDTAB
  0
ENDSEC
  0
SECTION
  2
BLOCKS
  0
BLOCK
  5
20
330
1F
100
AcDbEntity
  8
0
100
AcDbBlockBegin
  2
*Model_Space
 70
     0
 10
0.0
 20
0.0
 30
0.0
  3
*Model_Space
  1
*Model_Space
  0
ENDBLK
  5
21
330
1F
100
AcDbEntity
  8
0
100
AcDbBlockEnd
  0
BLOCK
  5
1C
330
1B
100
AcDbEntity
 67
     1
  8
0
100
AcDbBlockBegin
  2
*Paper_Space
 70
     0
 10
0.0
 20
0.0
 30
0.0
  3
*Paper_Space
  1
*Paper_Space
  0
ENDBLK
  5
1D
330
1B
100
AcDbEntity
 67
     1
  8
0
100
AcDbBlockEnd
  0
BLOCK
  5
24
330
23
100
AcDbEntity
  8
0
100
AcDbBlockBegin
  2
*Paper_Space0
 70
     0
 10
0.0
 20
0.0
 30
0.0
  3
*Paper_Space0
  1
*Paper_Space0
  0
ENDBLK
  5
25
330
23
100
AcDbEntity
  8
0
100
AcDbBlockEnd
  0
ENDSEC
  0
SECTION
  2
ENTITIES
  0
POLYLINE
  5
63
330
1F
100
AcDbEntity
  8
Make2D$可见线$普通线
100
AcDb2dPolyline
 66
     1
 10
0.0
 20
0.0
 30
0.0
  0
VERTEX
  5
64
330
63
100
AcDbEntity
  8
Make2D$可见线$普通线
100
AcDbVertex
100
AcDb2dVertex
 10
457.3229445835032
 20
685.2193327960961
 30
0.0
  0
VERTEX
  5
65
330
63
100
AcDbEntity
  8
Make2D$可见线$普通线
100
AcDbVertex
100
AcDb2dVertex
 10
457.3229483577292
 20
685.2199461294972
 30
0.0
  0
VERTEX
  5
66
330
63
100
AcDbEntity
  8
Make2D$可见线$普通线
100
AcDbVertex
100
AcDb2dVertex
 10
457.3229193997017
 20
685.2205594585794
 30
0.0
  0
VERTEX
  5
67
330
63
100
AcDbEntity
  8
Make2D$可见线$普通线
100
AcDbVertex
100
AcDb2dVertex
 10
457.3228577223833
 20
685.2211727816812
 30
0.0
  0
VERTEX
  5
68
330
63
100
AcDbEntity
  8
Make2D$可见线$普通线
100
AcDbVertex
100
AcDb2dVertex
 10
457.322763338737
 20
685.2217860971407
 30
0.0
  0
VERTEX
  5
69
330
63
100
AcDbEntity
  8
Make2D$可见线$普通线
100
AcDbVertex
100
AcDb2dVertex
 10
457.3226362617255
 20
685.2223994032967
 30
0.0
  0
VERTEX
  5
6A
330
63
100
AcDbEntity
  8
Make2D$可见线$普通线
100
AcDbVertex
100
AcDb2dVertex
 10
457.3224765043117
 20
685.2230126984873
 30
0.0
  0
VERTEX
  5
6B
330
63
100
AcDbEntity
  8
Make2D$可见线$普通线
100
AcDbVertex
100
AcDb2dVertex
 10
457.3222840794583
 20
685.2236259810513
 30
0.0
  0
VERTEX
  5
6C
330
63
100
AcDbEntity
  8
Make2D$可见线$普通线
100
AcDbVertex
100
AcDb2dVertex
 10
457.3220590001282
 20
685.2242392493272
 30
0.0
  0
VERTEX
  5
6D
330
63
100
AcDbEntity
  8
Make2D$可见线$普通线
100
AcDbVertex
100
AcDb2dVertex
 10
457.3218012792842
 20
685.2248525016532
 30
0.0
  0
VERTEX
  5
6E
330
63
100
AcDbEntity
  8
Make2D$可见线$普通线
100
AcDbVertex
100
AcDb2dVertex
 10
457.3215109298891
 20
685.2254657363678
 30
0.0
  0
VERTEX
  5
6F
330
63
100
AcDbEntity
  8
Make2D$可见线$普通线
100
AcDbVertex
100
AcDb2dVertex
 10
457.3211879649057
 20
685.2260789518098
 30
0.0
  0
VERTEX
  5
70
330
63
100
AcDbEntity
  8
Make2D$可见线$普通线
100
AcDbVertex
100
AcDb2dVertex
 10
457.320832397297
 20
685.2266921463172
 30
0.0
  0
VERTEX
  5
71
330
63
100
AcDbEntity
  8
Make2D$可见线$普通线
100
AcDbVertex
100
AcDb2dVertex
 10
457.3204442400255
 20
685.2273053182287
 30
0.0
  0
VERTEX
  5
72
330
63
100
AcDbEntity
  8
Make2D$可见线$普通线
100
AcDbVertex
100
AcDb2dVertex
 10
457.3200235060542
 20
685.2279184658828
 30
0.0
  0
VERTEX
  5
73
330
63
100
AcDbEntity
  8
Make2D$可见线$普通线
100
AcDbVertex
100
AcDb2dVertex
 10
457.3195702083459
 20
685.2285315876178
 30
0.0
  0
VERTEX
  5
74
330
63
100
AcDbEntity
  8
Make2D$可见线$普通线
100
AcDbVertex
100
AcDb2dVertex
 10
457.3190843598634
 20
685.2291446817724
 30
0.0
  0
VERTEX
  5
75
330
63
100
AcDbEntity
  8
Make2D$可见线$普通线
100
AcDbVertex
100
AcDb2dVertex
 10
457.3185659735695
 20
685.2297577466848
 30
0.0
  0
VERTEX
  5
76
330
63
100
AcDbEntity
  8
Make2D$可见线$普通线
100
AcDbVertex
100
AcDb2dVertex
 10
457.3180150624271
 20
685.2303707806936
 30
0.0
  0
VERTEX
  5
77
330
63
100
AcDbEntity
  8
Make2D$可见线$普通线
100
AcDbVertex
100
AcDb2dVertex
 10
457.3174316393989
 20
685.2309837821374
 30
0.0
  0
VERTEX
  5
78
330
63
100
AcDbEntity
  8
Make2D$可见线$普通线
100
AcDbVertex
100
AcDb2dVertex
 10
457.3168157174479
 20
685.2315967493545
 30
0.0
  0
VERTEX
  5
79
330
63
100
AcDbEntity
  8
Make2D$可见线$普通线
100
AcDbVertex
100
AcDb2dVertex
 10
457.3161673095366
 20
685.2322096806835
 30
0.0
  0
VERTEX
  5
7A
330
63
100
AcDbEntity
  8
Make2D$可见线$普通线
100
AcDbVertex
100
AcDb2dVertex
 10
457.3154864286281
 20
685.2328225744625
 30
0.0
  0
VERTEX
  5
7B
330
63
100
AcDbEntity
  8
Make2D$可见线$普通线
100
AcDbVertex
100
AcDb2dVertex
 10
457.3147730876851
 20
685.2334354290304
 30
0.0
  0
VERTEX
  5
7C
330
63
100
AcDbEntity
  8
Make2D$可见线$普通线
100
AcDbVertex
100
AcDb2dVertex
 10
457.3140272996704
 20
685.2340482427253
 30
0.0
  0
VERTEX
  5
7D
330
63
100
AcDbEntity
  8
Make2D$可见线$普通线
100
AcDbVertex
100
AcDb2dVertex
 10
457.3132490775469
 20
685.2346610138859
 30
0.0
  0
VERTEX
  5
7E
330
63
100
AcDbEntity
  8
Make2D$可见线$普通线
100
AcDbVertex
100
AcDb2dVertex
 10
457.3124384342774
 20
685.2352737408507
 30
0.0
  0
VERTEX
  5
7F
330
63
100
AcDbEntity
  8
Make2D$可见线$普通线
100
AcDbVertex
100
AcDb2dVertex
 10
457.3115953828246
 20
685.2358864219581
 30
0.0
  0
VERTEX
  5
80
330
63
100
AcDbEntity
  8
Make2D$可见线$普通线
100
AcDbVertex
100
AcDb2dVertex
 10
457.3107199361514
 20
685.2364990555465
 30
0.0
  0
VERTEX
  5
81
330
63
100
AcDbEntity
  8
Make2D$可见线$普通线
100
AcDbVertex
100
AcDb2dVertex
 10
457.3088719089951
 20
685.2377241735201
 30
0.0
  0
VERTEX
  5
82
330
63
100
AcDbEntity
  8
Make2D$可见线$普通线
100
AcDbVertex
100
AcDb2dVertex
 10
457.3068944565109
 20
685.2389490814794
 30
0.0
  0
VERTEX
  5
83
330
63
100
AcDbEntity
  8
Make2D$可见线$普通线
100
AcDbVertex
100
AcDb2dVertex
 10
457.3047876824014
 20
685.2401737661321
 30
0.0
  0
VERTEX
  5
84
330
63
100
AcDbEntity
  8
Make2D$可见线$普通线
100
AcDbVertex
100
AcDb2dVertex
 10
457.3025516903692
 20
685.2413982141859
 30
0.0
  0
VERTEX
  5
85
330
63
100
AcDbEntity
  8
Make2D$可见线$普通线
100
AcDbVertex
100
AcDb2dVertex
 10
457.3001865841167
 20
685.2426224123486
 30
0.0
  0
VERTEX
  5
86
330
63
100
AcDbEntity
  8
Make2D$可见线$普通线
100
AcDbVertex
100
AcDb2dVertex
 10
457.2976924673465
 20
685.2438463473279
 30
0.0
  0
VERTEX
  5
87
330
63
100
AcDbEntity
  8
Make2D$可见线$普通线
100
AcDbVertex
100
AcDb2dVertex
 10
457.295069443761
 20
685.2450700058314
 30
0.0
  0
VERTEX
  5
88
330
63
100
AcDbEntity
  8
Make2D$可见线$普通线
100
AcDbVertex
100
AcDb2dVertex
 10
457.2923176170628
 20
685.2462933745668
 30
0.0
  0
VERTEX
  5
89
330
63
100
AcDbEntity
  8
Make2D$可见线$普通线
100
AcDbVertex
100
AcDb2dVertex
 10
457.2864279691386
 20
685.2487391895643
 30
0.0
  0
VERTEX
  5
8A
330
63
100
AcDbEntity
  8
Make2D$可见线$普通线
100
AcDbVertex
100
AcDb2dVertex
 10
457.2800243531939
 20
685.251183685982
 30
0.0
  0
VERTEX
  5
8B
330
63
100
AcDbEntity
  8
Make2D$可见线$普通线
100
AcDbVertex
100
AcDb2dVertex
 10
457.2731075988489
 20
685.2536267574819
 30
0.0
  0
VERTEX
  5
8C
330
63
100
AcDbEntity
  8
Make2D$可见线$普通线
100
AcDbVertex
100
AcDb2dVertex
 10
457.265678535724
 20
685.2560682977253
 30
0.0
  0
VERTEX
  5
8D
330
63
100
AcDbEntity
  8
Make2D$可见线$普通线
100
AcDbVertex
100
AcDb2dVertex
 10
457.2577379934392
 20
685.258508200374
 30
0.0
  0
VERTEX
  5
8E
330
63
100
AcDbEntity
  8
Make2D$可见线$普通线
100
AcDbVertex
100
AcDb2dVertex
 10
457.240325789871
 20
685.2633826675342
 30
0.0
  0
VERTEX
  5
8F
330
63
100
AcDbEntity
  8
Make2D$可见线$普通线
100
AcDbVertex
100
AcDb2dVertex
 10
457.2208776251058
 20
685.2682493082557
 30
0.0
  0
VERTEX
  5
90
330
63
100
AcDbEntity
  8
Make2D$可见线$普通线
100
AcDbVertex
100
AcDb2dVertex
 10
457.1994001361053
 20
685.2731072718321
 30
0.0
  0
VERTEX
  5
91
330
63
100
AcDbEntity
  8
Make2D$可见线$普通线
100
AcDbVertex
100
AcDb2dVertex
 10
457.1758999598312
 20
685.2779557075568
 30
0.0
  0
VERTEX
  5
92
330
63
100
AcDbEntity
  8
Make2D$可见线$普通线
100
AcDbVertex
100
AcDb2dVertex
 10
457.1228580933083
 20
685.2876205926241
 30
0.0
  0
VERTEX
  5
93
330
63
100
AcDbEntity
  8
Make2D$可见线$普通线
100
AcDbVertex
100
AcDb2dVertex
 10
457.06180512123
 20
685.2972371578047
 30
0.0
  0
VERTEX
  5
94
330
63
100
AcDbEntity
  8
Make2D$可见线$普通线
100
AcDbVertex
100
AcDb2dVertex
 10
456.9158782431787
 20
685.3162981058948
 30
0.0
  0
VERTEX
  5
95
330
63
100
AcDbEntity
  8
Make2D$可见线$普通线
100
AcDbVertex
100
AcDb2dVertex
 10
456.7385440912205
 20
685.3350841066041
 30
0.0
  0
VERTEX
  5
96
330
63
100
AcDbEntity
  8
Make2D$可见线$普通线
100
AcDbVertex
100
AcDb2dVertex
 10
456.2913530277555
 20
685.3716134849876
 30
0.0
  0
VERTEX
  5
97
330
63
100
AcDbEntity
  8
Make2D$可见线$普通线
100
AcDbVertex
100
AcDb2dVertex
 10
455.2741511732695
 20
685.4288651444917
 30
0.0
  0
VERTEX
  5
98
330
63
100
AcDbEntity
  8
Make2D$可见线$普通线
100
AcDbVertex
100
AcDb2dVertex
 10
453.9548213958864
 20
685.479419723604
 30
0.0
  0
VERTEX
  5
99
330
63
100
AcDbEntity
  8
Make2D$可见线$普通线
100
AcDbVertex
100
AcDb2dVertex
 10
452.3741821317077
 20
685.5216166772026
 30
0.0
  0
VERTEX
  5
9A
330
63
100
AcDbEntity
  8
Make2D$可见线$普通线
100
AcDbVertex
100
AcDb2dVertex
 10
450.5841519791013
 20
685.554150483517
 30
0.0
  0
VERTEX
  5
9B
330
63
100
AcDbEntity
  8
Make2D$可见线$普通线
100
AcDbVertex
100
AcDb2dVertex
 10
448.2587020377364
 20
685.5787923371095
 30
0.0
  0
VERTEX
  5
9C
330
63
100
AcDbEntity
  8
Make2D$可见线$普通线
100
AcDbVertex
100
AcDb2dVertex
 10
445.8229445835032
 20
685.5871445246763
 30
0.0
  0
VERTEX
  5
9D
330
63
100
AcDbEntity
  8
Make2D$可见线$普通线
100
AcDbVertex
100
AcDb2dVertex
 10
443.3871871292515
 20
685.5787923371095
 30
0.0
  0
VERTEX
  5
9E
330
63
100
AcDbEntity
  8
Make2D$可见线$普通线
100
AcDbVertex
100
AcDb2dVertex
 10
441.0617371880421
 20
685.554150483519
 30
0.0
  0
VERTEX
  5
9F
330
63
100
AcDbEntity
  8
Make2D$可见线$普通线
100
AcDbVertex
100
AcDb2dVertex
 10
439.2717070363699
 20
685.5216166772223
 30
0.0
  0
VERTEX
  5
A0
330
63
100
AcDbEntity
  8
Make2D$可见线$普通线
100
AcDbVertex
100
AcDb2dVertex
 10
437.6910677728132
 20
685.4794197236582
 30
0.0
  0
VERTEX
  5
A1
330
63
100
AcDbEntity
  8
Make2D$可见线$普通线
100
AcDbVertex
100
AcDb2dVertex
 10
436.3717379943496
 20
685.4288651445261
 30
0.0
  0
VERTEX
  5
A2
330
63
100
AcDbEntity
  8
Make2D$可见线$普通线
100
AcDbVertex
100
AcDb2dVertex
 10
435.3545361393161
 20
685.371613484992
 30
0.0
  0
VERTEX
  5
A3
330
63
100
AcDbEntity
  8
Make2D$可见线$普通线
100
AcDbVertex
100
AcDb2dVertex
 10
434.9073450758666
 20
685.3350841066077
 30
0.0
  0
VERTEX
  5
A4
330
63
100
AcDbEntity
  8
Make2D$可见线$普通线
100
AcDbVertex
100
AcDb2dVertex
 10
434.7300109238729
 20
685.3162981058964
 30
0.0
  0
VERTEX
  5
A5
330
63
100
AcDbEntity
  8
Make2D$可见线$普通线
100
AcDbVertex
100
AcDb2dVertex
 10
434.5840840457763
 20
685.2972371578041
 30
0.0
  0
VERTEX
  5
A6
330
63
100
AcDbEntity
  8
Make2D$可见线$普通线
100
AcDbVertex
100
AcDb2dVertex
 10
434.523031073676
 20
685.2876205926224
 30
0.0
  0
VERTEX
  5
A7
330
63
100
AcDbEntity
  8
Make2D$可见线$普通线
100
AcDbVertex
100
AcDb2dVertex
 10
434.4699892071338
 20
685.2779557075543
 30
0.0
  0
VERTEX
  5
A8
330
63
100
AcDbEntity
  8
Make2D$可见线$普通线
100
AcDbVertex
100
AcDb2dVertex
 10
434.4464890308516
 20
685.2731072718293
 30
0.0
  0
VERTEX
  5
A9
330
63
100
AcDbEntity
  8
Make2D$可见线$普通线
100
AcDbVertex
100
AcDb2dVertex
 10
434.4250115418445
 20
685.2682493082527
 30
0.0
  0
VERTEX
  5
AA
330
63
100
AcDbEntity
  8
Make2D$可见线$普通线
100
AcDbVertex
100
AcDb2dVertex
 10
434.4055633770742
 20
685.263382667531
 30
0.0
  0
VERTEX
  5
AB
330
63
100
AcDbEntity
  8
Make2D$可见线$普通线
100
AcDbVertex
100
AcDb2dVertex
 10
434.3881511735026
 20
685.2585082003707
 30
0.0
  0
VERTEX
  5
AC
330
63
100
AcDbEntity
  8
Make2D$可见线$普通线
100
AcDbVertex
100
AcDb2dVertex
 10
434.3802106312169
 20
685.256068297722
 30
0.0
  0
VERTEX
  5
AD
330
63
100
AcDbEntity
  8
Make2D$可见线$普通线
100
AcDbVertex
100
AcDb2dVertex
 10
434.3727815680916
 20
685.2536267574785
 30
0.0
  0
VERTEX
  5
AE
330
63
100
AcDbEntity
  8
Make2D$可见线$普通线
100
AcDbVertex
100
AcDb2dVertex
 10
434.3658648137468
 20
685.2511836859787
 30
0.0
  0
VERTEX
  5
AF
330
63
100
AcDbEntity
  8
Make2D$可见线$普通线
100
AcDbVertex
100
AcDb2dVertex
 10
434.3594611978029
 20
685.2487391895611
 30
0.0
  0
VERTEX
  5
B0
330
63
100
AcDbEntity
  8
Make2D$可见线$普通线
100
AcDbVertex
100
AcDb2dVertex
 10
434.35357154988
 20
685.2462933745637
 30
0.0
  0
VERTEX
  5
B1
330
63
100
AcDbEntity
  8
Make2D$可见线$普通线
100
AcDbVertex
100
AcDb2dVertex
 10
434.3508197231828
 20
685.2450700058282
 30
0.0
  0
VERTEX
  5
B2
330
63
100
AcDbEntity
  8
Make2D$可见线$普通线
100
AcDbVertex
100
AcDb2dVertex
 10
434.3481966995985
 20
685.2438463473248
 30
0.0
  0
VERTEX
  5
B3
330
63
100
AcDbEntity
  8
Make2D$可见线$普通线
100
AcDbVertex
100
AcDb2dVertex
 10
434.3457025828295
 20
685.2426224123458
 30
0.0
  0
VERTEX
  5
B4
330
63
100
AcDbEntity
  8
Make2D$可见线$普通线
100
AcDbVertex
100
AcDb2dVertex
 10
434.3433374765784
 20
685.2413982141832
 30
0.0
  0
VERTEX
  5
B5
330
63
100
AcDbEntity
  8
Make2D$可见线$普通线
100
AcDbVertex
100
AcDb2dVertex
 10
434.3411014845477
 20
685.2401737661294
 30
0.0
  0
VERTEX
  5
B6
330
63
100
AcDbEntity
  8
Make2D$可见线$普通线
100
AcDbVertex
100
AcDb2dVertex
 10
434.33899471044
 20
685.2389490814767
 30
0.0
  0
VERTEX
  5
B7
330
63
100
AcDbEntity
  8
Make2D$可见线$普通线
100
AcDbVertex
100
AcDb2dVertex
 10
434.3370172579578
 20
685.2377241735173
 30
0.0
  0
VERTEX
  5
B8
330
63
100
AcDbEntity
  8
Make2D$可见线$普通线
100
AcDbVertex
100
AcDb2dVertex
 10
434.3351692308037
 20
685.2364990555438
 30
0.0
  0
VERTEX
  5
B9
330
63
100
AcDbEntity
  8
Make2D$可见线$普通线
100
AcDbVertex
100
AcDb2dVertex
 10
434.3342937841316
 20
685.2358864219555
 30
0.0
  0
VERTEX
  5
BA
330
63
100
AcDbEntity
  8
Make2D$可见线$普通线
100
AcDbVertex
100
AcDb2dVertex
 10
434.33345073268
 20
685.2352737408482
 30
0.0
  0
VERTEX
  5
BB
330
63
100
AcDbEntity
  8
Make2D$可见线$普通线
100
AcDbVertex
100
AcDb2dVertex
 10
434.3326400894117
 20
685.2346610138836
 30
0.0
  0
VERTEX
  5
BC
330
63
100
AcDbEntity
  8
Make2D$可见线$普通线
100
AcDbVertex
100
AcDb2dVertex
 10
434.3318618672895
 20
685.234048242723
 30
0.0
  0
VERTEX
  5
BD
330
63
100
AcDbEntity
  8
Make2D$可见线$普通线
100
AcDbVertex
100
AcDb2dVertex
 10
434.3311160792762
 20
685.2334354290282
 30
0.0
  0
VERTEX
  5
BE
330
63
100
AcDbEntity
  8
Make2D$可见线$普通线
100
AcDbVertex
100
AcDb2dVertex
 10
434.3304027383346
 20
685.2328225744604
 30
0.0
  0
VERTEX
  5
BF
330
63
100
AcDbEntity
  8
Make2D$可见线$普通线
100
AcDbVertex
100
AcDb2dVertex
 10
434.3297218574274
 20
685.2322096806814
 30
0.0
  0
VERTEX
  5
C0
330
63
100
AcDbEntity
  8
Make2D$可见线$普通线
100
AcDbVertex
100
AcDb2dVertex
 10
434.3290734495177
 20
685.2315967493527
 30
0.0
  0
VERTEX
  5
C1
330
63
100
AcDbEntity
  8
Make2D$可见线$普通线
100
AcDbVertex
100
AcDb2dVertex
 10
434.3284575275681
 20
685.2309837821357
 30
0.0
  0
VERTEX
  5
C2
330
63
100
AcDbEntity
  8
Make2D$可见线$普通线
100
AcDbVertex
100
AcDb2dVertex
 10
434.3278741045415
 20
685.230370780692
 30
0.0
  0
VERTEX
  5
C3
330
63
100
AcDbEntity
  8
Make2D$可见线$普通线
100
AcDbVertex
100
AcDb2dVertex
 10
434.3273231934007
 20
685.2297577466832
 30
0.0
  0
VERTEX
  5
C4
330
63
100
AcDbEntity
  8
Make2D$可见线$普通线
100
AcDbVertex
100
AcDb2dVertex
 10
434.3268048071085
 20
685.2291446817708
 30
0.0
  0
VERTEX
  5
C5
330
63
100
AcDbEntity
  8
Make2D$可见线$普通线
100
AcDbVertex
100
AcDb2dVertex
 10
434.3263189586278
 20
685.2285315876163
 30
0.0
  0
VERTEX
  5
C6
330
63
100
AcDbEntity
  8
Make2D$可见线$普通线
100
AcDbVertex
100
AcDb2dVertex
 10
434.3258656609212
 20
685.2279184658813
 30
0.0
  0
VERTEX
  5
C7
330
63
100
AcDbEntity
  8
Make2D$可见线$普通线
100
AcDbVertex
100
AcDb2dVertex
 10
434.3254449269518
 20
685.2273053182273
 30
0.0
  0
VERTEX
  5
C8
330
63
100
AcDbEntity
  8
Make2D$可见线$普通线
100
AcDbVertex
100
AcDb2dVertex
 10
434.3250567696822
 20
685.2266921463158
 30
0.0
  0
VERTEX
  5
C9
330
63
100
AcDbEntity
  8
Make2D$可见线$普通线
100
AcDbVertex
100
AcDb2dVertex
 10
434.3247012020754
 20
685.2260789518085
 30
0.0
  0
VERTEX
  5
CA
330
63
100
AcDbEntity
  8
Make2D$可见线$普通线
100
AcDbVertex
100
AcDb2dVertex
 10
434.324378237094
 20
685.2254657363668
 30
0.0
  0
VERTEX
  5
CB
330
63
100
AcDbEntity
  8
Make2D$可见线$普通线
100
AcDbVertex
100
AcDb2dVertex
 10
434.324087887701
 20
685.2248525016523
 30
0.0
  0
VERTEX
  5
CC
330
63
100
AcDbEntity
  8
Make2D$可见线$普通线
100
AcDbVertex
100
AcDb2dVertex
 10
434.3238301668592
 20
685.2242392493263
 30
0.0
  0
VERTEX
  5
CD
330
63
100
AcDbEntity
  8
Make2D$可见线$普通线
100
AcDbVertex
100
AcDb2dVertex
 10
434.3236050875313
 20
685.2236259810505
 30
0.0
  0
VERTEX
  5
CE
330
63
100
AcDbEntity
  8
Make2D$可见线$普通线
100
AcDbVertex
100
AcDb2dVertex
 10
434.3234126626801
 20
685.2230126984866
 30
0.0
  0
VERTEX
  5
CF
330
63
100
AcDbEntity
  8
Make2D$可见线$普通线
100
AcDbVertex
100
AcDb2dVertex
 10
434.3232529052686
 20
685.222399403296
 30
0.0
  0
VERTEX
  5
D0
330
63
100
AcDbEntity
  8
Make2D$可见线$普通线
100
AcDbVertex
100
AcDb2dVertex
 10
434.3231258282594
 20
685.2217860971402
 30
0.0
  0
VERTEX
  5
D1
330
63
100
AcDbEntity
  8
Make2D$可见线$普通线
100
AcDbVertex
100
AcDb2dVertex
 10
434.3230314446155
 20
685.2211727816807
 30
0.0
  0
VERTEX
  5
D2
330
63
100
AcDbEntity
  8
Make2D$可见线$普通线
100
AcDbVertex
100
AcDb2dVertex
 10
434.3229697672996
 20
685.2205594585794
 30
0.0
  0
VERTEX
  5
D3
330
63
100
AcDbEntity
  8
Make2D$可见线$普通线
100
AcDbVertex
100
AcDb2dVertex
 10
434.3229408092745
 20
685.2199461294972
 30
0.0
  0
VERTEX
  5
D4
330
63
100
AcDbEntity
  8
Make2D$可见线$普通线
100
AcDbVertex
100
AcDb2dVertex
 10
434.3229445835032
 20
685.2193327960961
 30
0.0
  0
VERTEX
  5
D5
330
63
100
AcDbEntity
  8
Make2D$可见线$普通线
100
AcDbVertex
100
AcDb2dVertex
 10
434.3229408092745
 20
685.2187194626949
 30
0.0
  0
VERTEX
  5
D6
330
63
100
AcDbEntity
  8
Make2D$可见线$普通线
100
AcDbVertex
100
AcDb2dVertex
 10
434.3229697672996
 20
685.2181061336128
 30
0.0
  0
VERTEX
  5
D7
330
63
100
AcDbEntity
  8
Make2D$可见线$普通线
100
AcDbVertex
100
AcDb2dVertex
 10
434.3230314446155
 20
685.2174928105114
 30
0.0
  0
VERTEX
  5
D8
330
63
100
AcDbEntity
  8
Make2D$可见线$普通线
100
AcDbVertex
100
AcDb2dVertex
 10
434.3231258282594
 20
685.2168794950519
 30
0.0
  0
VERTEX
  5
D9
330
63
100
AcDbEntity
  8
Make2D$可见线$普通线
100
AcDbVertex
100
AcDb2dVertex
 10
434.3232529052686
 20
685.2162661888962
 30
0.0
  0
VERTEX
  5
DA
330
63
100
AcDbEntity
  8
Make2D$可见线$普通线
100
AcDbVertex
100
AcDb2dVertex
 10
434.3234126626801
 20
685.2156528937055
 30
0.0
  0
VERTEX
  5
DB
330
63
100
AcDbEntity
  8
Make2D$可见线$普通线
100
AcDbVertex
100
AcDb2dVertex
 10
434.3236050875313
 20
685.2150396111416
 30
0.0
  0
VERTEX
  5
DC
330
63
100
AcDbEntity
  8
Make2D$可见线$普通线
100
AcDbVertex
100
AcDb2dVertex
 10
434.3238301668592
 20
685.2144263428659
 30
0.0
  0
VERTEX
  5
DD
330
63
100
AcDbEntity
  8
Make2D$可见线$普通线
100
AcDbVertex
100
AcDb2dVertex
 10
434.324087887701
 20
685.2138130905398
 30
0.0
  0
VERTEX
  5
DE
330
63
100
AcDbEntity
  8
Make2D$可见线$普通线
100
AcDbVertex
100
AcDb2dVertex
 10
434.324378237094
 20
685.2131998558253
 30
0.0
  0
VERTEX
  5
DF
330
63
100
AcDbEntity
  8
Make2D$可见线$普通线
100
AcDbVertex
100
AcDb2dVertex
 10
434.3247012020754
 20
685.2125866403836
 30
0.0
  0
VERTEX
  5
E0
330
63
100
AcDbEntity
  8
Make2D$可见线$普通线
100
AcDbVertex
100
AcDb2dVertex
 10
434.3250567696822
 20
685.2119734458763
 30
0.0
  0
VERTEX
  5
E1
330
63
100
AcDbEntity
  8
Make2D$可见线$普通线
100
AcDbVertex
100
AcDb2dVertex
 10
434.3254449269518
 20
685.2113602739648
 30
0.0
  0
VERTEX
  5
E2
330
63
100
AcDbEntity
  8
Make2D$可见线$普通线
100
AcDbVertex
100
AcDb2dVertex
 10
434.3258656609212
 20
685.2107471263108
 30
0.0
  0
VERTEX
  5
E3
330
63
100
AcDbEntity
  8
Make2D$可见线$普通线
100
AcDbVertex
100
AcDb2dVertex
 10
434.3263189586278
 20
685.2101340045758
 30
0.0
  0
VERTEX
  5
E4
330
63
100
AcDbEntity
  8
Make2D$可见线$普通线
100
AcDbVertex
100
AcDb2dVertex
 10
434.3268048071085
 20
685.2095209104214
 30
0.0
  0
VERTEX
  5
E5
330
63
100
AcDbEntity
  8
Make2D$可见线$普通线
100
AcDbVertex
100
AcDb2dVertex
 10
434.3273231934007
 20
685.208907845509
 30
0.0
  0
VERTEX
  5
E6
330
63
100
AcDbEntity
  8
Make2D$可见线$普通线
100
AcDbVertex
100
AcDb2dVertex
 10
434.3278741045415
 20
685.2082948115001
 30
0.0
  0
VERTEX
  5
E7
330
63
100
AcDbEntity
  8
Make2D$可见线$普通线
100
AcDbVertex
100
AcDb2dVertex
 10
434.3284575275681
 20
685.2076818100564
 30
0.0
  0
VERTEX
  5
E8
330
63
100
AcDbEntity
  8
Make2D$可见线$普通线
100
AcDbVertex
100
AcDb2dVertex
 10
434.3290734495177
 20
685.2070688428395
 30
0.0
  0
VERTEX
  5
E9
330
63
100
AcDbEntity
  8
Make2D$可见线$普通线
100
AcDbVertex
100
AcDb2dVertex
 10
434.3297218574274
 20
685.2064559115107
 30
0.0
  0
VERTEX
  5
EA
330
63
100
AcDbEntity
  8
Make2D$可见线$普通线
100
AcDbVertex
100
AcDb2dVertex
 10
434.3304027383346
 20
685.2058430177317
 30
0.0
  0
VERTEX
  5
EB
330
63
100
AcDbEntity
  8
Make2D$可见线$普通线
100
AcDbVertex
100
AcDb2dVertex
 10
434.3311160792762
 20
685.205230163164
 30
0.0
  0
VERTEX
  5
EC
330
63
100
AcDbEntity
  8
Make2D$可见线$普通线
100
AcDbVertex
100
AcDb2dVertex
 10
434.3318618672895
 20
685.2046173494691
 30
0.0
  0
VERTEX
  5
ED
330
63
100
AcDbEntity
  8
Make2D$可见线$普通线
100
AcDbVertex
100
AcDb2dVertex
 10
434.3326400894117
 20
685.2040045783085
 30
0.0
  0
VERTEX
  5
EE
330
63
100
AcDbEntity
  8
Make2D$可见线$普通线
100
AcDbVertex
100
AcDb2dVertex
 10
434.33345073268
 20
685.2033918513439
 30
0.0
  0
VERTEX
  5
EF
330
63
100
AcDbEntity
  8
Make2D$可见线$普通线
100
AcDbVertex
100
AcDb2dVertex
 10
434.3342937841316
 20
685.2027791702367
 30
0.0
  0
VERTEX
  5
F0
330
63
100
AcDbEntity
  8
Make2D$可见线$普通线
100
AcDbVertex
100
AcDb2dVertex
 10
434.3351692308037
 20
685.2021665366483
 30
0.0
  0
VERTEX
  5
F1
330
63
100
AcDbEntity
  8
Make2D$可见线$普通线
100
AcDbVertex
100
AcDb2dVertex
 10
434.3370172579578
 20
685.2009414186748
 30
0.0
  0
VERTEX
  5
F2
330
63
100
AcDbEntity
  8
Make2D$可见线$普通线
100
AcDbVertex
100
AcDb2dVertex
 10
434.33899471044
 20
685.1997165107155
 30
0.0
  0
VERTEX
  5
F3
330
63
100
AcDbEntity
  8
Make2D$可见线$普通线
100
AcDbVertex
100
AcDb2dVertex
 10
434.3411014845477
 20
685.1984918260628
 30
0.0
  0
VERTEX
  5
F4
330
63
100
AcDbEntity
  8
Make2D$可见线$普通线
100
AcDbVertex
100
AcDb2dVertex
 10
434.3433374765784
 20
685.197267378009
 30
0.0
  0
VERTEX
  5
F5
330
63
100
AcDbEntity
  8
Make2D$可见线$普通线
100
AcDbVertex
100
AcDb2dVertex
 10
434.3457025828295
 20
685.1960431798464
 30
0.0
  0
VERTEX
  5
F6
330
63
100
AcDbEntity
  8
Make2D$可见线$普通线
100
AcDbVertex
100
AcDb2dVertex
 10
434.3481966995985
 20
685.1948192448673
 30
0.0
  0
VERTEX
  5
F7
330
63
100
AcDbEntity
  8
Make2D$可见线$普通线
100
AcDbVertex
100
AcDb2dVertex
 10
434.3508197231828
 20
685.1935955863639
 30
0.0
  0
VERTEX
  5
F8
330
63
100
AcDbEntity
  8
Make2D$可见线$普通线
100
AcDbVertex
100
AcDb2dVertex
 10
434.35357154988
 20
685.1923722176284
 30
0.0
  0
VERTEX
  5
F9
330
63
100
AcDbEntity
  8
Make2D$可见线$普通线
100
AcDbVertex
100
AcDb2dVertex
 10
434.3594611978029
 20
685.189926402631
 30
0.0
  0
VERTEX
  5
FA
330
63
100
AcDbEntity
  8
Make2D$可见线$普通线
100
AcDbVertex
100
AcDb2dVertex
 10
434.3658648137468
 20
685.1874819062134
 30
0.0
  0
VERTEX
  5
FB
330
63
100
AcDbEntity
  8
Make2D$可见线$普通线
100
AcDbVertex
100
AcDb2dVertex
 10
434.3727815680916
 20
685.1850388347136
 30
0.0
  0
VERTEX
  5
FC
330
63
100
AcDbEntity
  8
Make2D$可见线$普通线
100
AcDbVertex
100
AcDb2dVertex
 10
434.3802106312169
 20
685.1825972944702
 30
0.0
  0
VERTEX
  5
FD
330
63
100
AcDbEntity
  8
Make2D$可见线$普通线
100
AcDbVertex
100
AcDb2dVertex
 10
434.3881511735026
 20
685.1801573918215
 30
0.0
  0
VERTEX
  5
FE
330
63
100
AcDbEntity
  8
Make2D$可见线$普通线
100
AcDbVertex
100
AcDb2dVertex
 10
434.4055633770742
 20
685.1752829246611
 30
0.0
  0
VERTEX
  5
FF
330
63
100
AcDbEntity
  8
Make2D$可见线$普通线
100
AcDbVertex
100
AcDb2dVertex
 10
434.4250115418445
 20
685.1704162839394
 30
0.0
  0
VERTEX
  5
100
330
63
100
AcDbEntity
  8
Make2D$可见线$普通线
100
AcDbVertex
100
AcDb2dVertex
 10
434.4464890308516
 20
685.1655583203628
 30
0.0
  0
VERTEX
  5
101
330
63
100
AcDbEntity
  8
Make2D$可见线$普通线
100
AcDbVertex
100
AcDb2dVertex
 10
434.4699892071338
 20
685.1607098846379
 30
0.0
  0
VERTEX
  5
102
330
63
100
AcDbEntity
  8
Make2D$可见线$普通线
100
AcDbVertex
100
AcDb2dVertex
 10
434.523031073676
 20
685.1510449995698
 30
0.0
  0
VERTEX
  5
103
330
63
100
AcDbEntity
  8
Make2D$可见线$普通线
100
AcDbVertex
100
AcDb2dVertex
 10
434.5840840457763
 20
685.141428434388
 30
0.0
  0
VERTEX
  5
104
330
63
100
AcDbEntity
  8
Make2D$可见线$普通线
100
AcDbVertex
100
AcDb2dVertex
 10
434.7300109238729
 20
685.1223674862957
 30
0.0
  0
VERTEX
  5
105
330
63
100
AcDbEntity
  8
Make2D$可见线$普通线
100
AcDbVertex
100
AcDb2dVertex
 10
434.9073450758666
 20
685.1035814855845
 30
0.0
  0
VERTEX
  5
106
330
63
100
AcDbEntity
  8
Make2D$可见线$普通线
100
AcDbVertex
100
AcDb2dVertex
 10
435.3545361393161
 20
685.0670521072001
 30
0.0
  0
VERTEX
  5
107
330
63
100
AcDbEntity
  8
Make2D$可见线$普通线
100
AcDbVertex
100
AcDb2dVertex
 10
436.3717379943496
 20
685.0098004476661
 30
0.0
  0
VERTEX
  5
108
330
63
100
AcDbEntity
  8
Make2D$可见线$普通线
100
AcDbVertex
100
AcDb2dVertex
 10
437.6910677728133
 20
684.959245868534
 30
0.0
  0
VERTEX
  5
109
330
63
100
AcDbEntity
  8
Make2D$可见线$普通线
100
AcDbVertex
100
AcDb2dVertex
 10
439.27170703637
 20
684.9170489149699
 30
0.0
  0
VERTEX
  5
10A
330
63
100
AcDbEntity
  8
Make2D$可见线$普通线
100
AcDbVertex
100
AcDb2dVertex
 10
441.0617371880421
 20
684.8845151086732
 30
0.0
  0
VERTEX
  5
10B
330
63
100
AcDbEntity
  8
Make2D$可见线$普通线
100
AcDbVertex
100
AcDb2dVertex
 10
443.3871871292515
 20
684.8598732550827
 30
0.0
  0
VERTEX
  5
10C
330
63
100
AcDbEntity
  8
Make2D$可见线$普通线
100
AcDbVertex
100
AcDb2dVertex
 10
445.8229445835032
 20
684.8515210675158
 30
0.0
  0
VERTEX
  5
10D
330
63
100
AcDbEntity
  8
Make2D$可见线$普通线
100
AcDbVertex
100
AcDb2dVertex
 10
448.2587020377364
 20
684.8598732550828
 30
0.0
  0
VERTEX
  5
10E
330
63
100
AcDbEntity
  8
Make2D$可见线$普通线
100
AcDbVertex
100
AcDb2dVertex
 10
450.5841519791014
 20
684.8845151086753
 30
0.0
  0
VERTEX
  5
10F
330
63
100
AcDbEntity
  8
Make2D$可见线$普通线
100
AcDbVertex
100
AcDb2dVertex
 10
452.3741821317078
 20
684.9170489149896
 30
0.0
  0
VERTEX
  5
110
330
63
100
AcDbEntity
  8
Make2D$可见线$普通线
100
AcDbVertex
100
AcDb2dVertex
 10
453.9548213958864
 20
684.9592458685881
 30
0.0
  0
VERTEX
  5
111
330
63
100
AcDbEntity
  8
Make2D$可见线$普通线
100
AcDbVertex
100
AcDb2dVertex
 10
455.2741511732695
 20
685.0098004477004
 30
0.0
  0
VERTEX
  5
112
330
63
100
AcDbEntity
  8
Make2D$可见线$普通线
100
AcDbVertex
100
AcDb2dVertex
 10
456.2913530277555
 20
685.0670521072046
 30
0.0
  0
VERTEX
  5
113
330
63
100
AcDbEntity
  8
Make2D$可见线$普通线
100
AcDbVertex
100
AcDb2dVertex
 10
456.7385440912205
 20
685.103581485588
 30
0.0
  0
VERTEX
  5
114
330
63
100
AcDbEntity
  8
Make2D$可见线$普通线
100
AcDbVertex
100
AcDb2dVertex
 10
456.9158782431788
 20
685.1223674862973
 30
0.0
  0
VERTEX
  5
115
330
63
100
AcDbEntity
  8
Make2D$可见线$普通线
100
AcDbVertex
100
AcDb2dVertex
 10
457.0618051212301
 20
685.1414284343874
 30
0.0
  0
VERTEX
  5
116
330
63
100
AcDbEntity
  8
Make2D$可见线$普通线
100
AcDbVertex
100
AcDb2dVertex
 10
457.1228580933083
 20
685.1510449995681
 30
0.0
  0
VERTEX
  5
117
330
63
100
AcDbEntity
  8
Make2D$可见线$普通线
100
AcDbVertex
100
AcDb2dVertex
 10
457.1758999598312
 20
685.1607098846354
 30
0.0
  0
VERTEX
  5
118
330
63
100
AcDbEntity
  8
Make2D$可见线$普通线
100
AcDbVertex
100
AcDb2dVertex
 10
457.1994001361054
 20
685.16555832036
 30
0.0
  0
VERTEX
  5
119
330
63
100
AcDbEntity
  8
Make2D$可见线$普通线
100
AcDbVertex
100
AcDb2dVertex
 10
457.2208776251059
 20
685.1704162839364
 30
0.0
  0
VERTEX
  5
11A
330
63
100
AcDbEntity
  8
Make2D$可见线$普通线
100
AcDbVertex
100
AcDb2dVertex
 10
457.240325789871
 20
685.175282924658
 30
0.0
  0
VERTEX
  5
11B
330
63
100
AcDbEntity
  8
Make2D$可见线$普通线
100
AcDbVertex
100
AcDb2dVertex
 10
457.2577379934393
 20
685.1801573918182
 30
0.0
  0
VERTEX
  5
11C
330
63
100
AcDbEntity
  8
Make2D$可见线$普通线
100
AcDbVertex
100
AcDb2dVertex
 10
457.265678535724
 20
685.1825972944669
 30
0.0
  0
VERTEX
  5
11D
330
63
100
AcDbEntity
  8
Make2D$可见线$普通线
100
AcDbVertex
100
AcDb2dVertex
 10
457.2731075988489
 20
685.1850388347102
 30
0.0
  0
VERTEX
  5
11E
330
63
100
AcDbEntity
  8
Make2D$可见线$普通线
100
AcDbVertex
100
AcDb2dVertex
 10
457.2800243531939
 20
685.1874819062101
 30
0.0
  0
VERTEX
  5
11F
330
63
100
AcDbEntity
  8
Make2D$可见线$普通线
100
AcDbVertex
100
AcDb2dVertex
 10
457.2864279691386
 20
685.1899264026279
 30
0.0
  0
VERTEX
  5
120
330
63
100
AcDbEntity
  8
Make2D$可见线$普通线
100
AcDbVertex
100
AcDb2dVertex
 10
457.2923176170628
 20
685.1923722176253
 30
0.0
  0
VERTEX
  5
121
330
63
100
AcDbEntity
  8
Make2D$可见线$普通线
100
AcDbVertex
100
AcDb2dVertex
 10
457.295069443761
 20
685.1935955863607
 30
0.0
  0
VERTEX
  5
122
330
63
100
AcDbEntity
  8
Make2D$可见线$普通线
100
AcDbVertex
100
AcDb2dVertex
 10
457.2976924673465
 20
685.1948192448642
 30
0.0
  0
VERTEX
  5
123
330
63
100
AcDbEntity
  8
Make2D$可见线$普通线
100
AcDbVertex
100
AcDb2dVertex
 10
457.3001865841167
 20
685.1960431798435
 30
0.0
  0
VERTEX
  5
124
330
63
100
AcDbEntity
  8
Make2D$可见线$普通线
100
AcDbVertex
100
AcDb2dVertex
 10
457.3025516903692
 20
685.1972673780062
 30
0.0
  0
VERTEX
  5
125
330
63
100
AcDbEntity
  8
Make2D$可见线$普通线
100
AcDbVertex
100
AcDb2dVertex
 10
457.3047876824014
 20
685.19849182606
 30
0.0
  0
VERTEX
  5
126
330
63
100
AcDbEntity
  8
Make2D$可见线$普通线
100
AcDbVertex
100
AcDb2dVertex
 10
457.3068944565109
 20
685.1997165107127
 30
0.0
  0
VERTEX
  5
127
330
63
100
AcDbEntity
  8
Make2D$可见线$普通线
100
AcDbVertex
100
AcDb2dVertex
 10
457.3088719089951
 20
685.2009414186721
 30
0.0
  0
VERTEX
  5
128
330
63
100
AcDbEntity
  8
Make2D$可见线$普通线
100
AcDbVertex
100
AcDb2dVertex
 10
457.3107199361514
 20
685.2021665366458
 30
0.0
  0
VERTEX
  5
129
330
63
100
AcDbEntity
  8
Make2D$可见线$普通线
100
AcDbVertex
100
AcDb2dVertex
 10
457.3115953828246
 20
685.2027791702342
 30
0.0
  0
VERTEX
  5
12A
330
63
100
AcDbEntity
  8
Make2D$可见线$普通线
100
AcDbVertex
100
AcDb2dVertex
 10
457.3124384342774
 20
685.2033918513414
 30
0.0
  0
VERTEX
  5
12B
330
63
100
AcDbEntity
  8
Make2D$可见线$普通线
100
AcDbVertex
100
AcDb2dVertex
 10
457.3132490775469
 20
685.2040045783062
 30
0.0
  0
VERTEX
  5
12C
330
63
100
AcDbEntity
  8
Make2D$可见线$普通线
100
AcDbVertex
100
AcDb2dVertex
 10
457.3140272996704
 20
685.2046173494668
 30
0.0
  0
VERTEX
  5
12D
330
63
100
AcDbEntity
  8
Make2D$可见线$普通线
100
AcDbVertex
100
AcDb2dVertex
 10
457.3147730876851
 20
685.2052301631618
 30
0.0
  0
VERTEX
  5
12E
330
63
100
AcDbEntity
  8
Make2D$可见线$普通线
100
AcDbVertex
100
AcDb2dVertex
 10
457.3154864286281
 20
685.2058430177296
 30
0.0
  0
VERTEX
  5
12F
330
63
100
AcDbEntity
  8
Make2D$可见线$普通线
100
AcDbVertex
100
AcDb2dVertex
 10
457.3161673095366
 20
685.2064559115087
 30
0.0
  0
VERTEX
  5
130
330
63
100
AcDbEntity
  8
Make2D$可见线$普通线
100
AcDbVertex
100
AcDb2dVertex
 10
457.3168157174479
 20
685.2070688428377
 30
0.0
  0
VERTEX
  5
131
330
63
100
AcDbEntity
  8
Make2D$可见线$普通线
100
AcDbVertex
100
AcDb2dVertex
 10
457.3174316393989
 20
685.2076818100547
 30
0.0
  0
VERTEX
  5
132
330
63
100
AcDbEntity
  8
Make2D$可见线$普通线
100
AcDbVertex
100
AcDb2dVertex
 10
457.3180150624271
 20
685.2082948114985
 30
0.0
  0
VERTEX
  5
133
330
63
100
AcDbEntity
  8
Make2D$可见线$普通线
100
AcDbVertex
100
AcDb2dVertex
 10
457.3185659735695
 20
685.2089078455074
 30
0.0
  0
VERTEX
  5
134
330
63
100
AcDbEntity
  8
Make2D$可见线$普通线
100
AcDbVertex
100
AcDb2dVertex
 10
457.3190843598634
 20
685.2095209104198
 30
0.0
  0
VERTEX
  5
135
330
63
100
AcDbEntity
  8
Make2D$可见线$普通线
100
AcDbVertex
100
AcDb2dVertex
 10
457.3195702083459
 20
685.2101340045743
 30
0.0
  0
VERTEX
  5
136
330
63
100
AcDbEntity
  8
Make2D$可见线$普通线
100
AcDbVertex
100
AcDb2dVertex
 10
457.3200235060542
 20
685.2107471263095
 30
0.0
  0
VERTEX
  5
137
330
63
100
AcDbEntity
  8
Make2D$可见线$普通线
100
AcDbVertex
100
AcDb2dVertex
 10
457.3204442400255
 20
685.2113602739637
 30
0.0
  0
VERTEX
  5
138
330
63
100
AcDbEntity
  8
Make2D$可见线$普通线
100
AcDbVertex
100
AcDb2dVertex
 10
457.320832397297
 20
685.2119734458752
 30
0.0
  0
VERTEX
  5
139
330
63
100
AcDbEntity
  8
Make2D$可见线$普通线
100
AcDbVertex
100
AcDb2dVertex
 10
457.3211879649057
 20
685.2125866403826
 30
0.0
  0
VERTEX
  5
13A
330
63
100
AcDbEntity
  8
Make2D$可见线$普通线
100
AcDbVertex
100
AcDb2dVertex
 10
457.3215109298891
 20
685.2131998558244
 30
0.0
  0
VERTEX
  5
13B
330
63
100
AcDbEntity
  8
Make2D$可见线$普通线
100
AcDbVertex
100
AcDb2dVertex
 10
457.3218012792842
 20
685.2138130905391
 30
0.0
  0
VERTEX
  5
13C
330
63
100
AcDbEntity
  8
Make2D$可见线$普通线
100
AcDbVertex
100
AcDb2dVertex
 10
457.3220590001282
 20
685.2144263428652
 30
0.0
  0
VERTEX
  5
13D
330
63
100
AcDbEntity
  8
Make2D$可见线$普通线
100
AcDbVertex
100
AcDb2dVertex
 10
457.3222840794583
 20
685.215039611141
 30
0.0
  0
VERTEX
  5
13E
330
63
100
AcDbEntity
  8
Make2D$可见线$普通线
100
AcDbVertex
100
AcDb2dVertex
 10
457.3224765043117
 20
685.215652893705
 30
0.0
  0
VERTEX
  5
13F
330
63
100
AcDbEntity
  8
Make2D$可见线$普通线
100
AcDbVertex
100
AcDb2dVertex
 10
457.3226362617255
 20
685.2162661888957
 30
0.0
  0
VERTEX
  5
140
330
63
100
AcDbEntity
  8
Make2D$可见线$普通线
100
AcDbVertex
100
AcDb2dVertex
 10
457.322763338737
 20
685.2168794950516
 30
0.0
  0
VERTEX
  5
141
330
63
100
AcDbEntity
  8
Make2D$可见线$普通线
100
AcDbVertex
100
AcDb2dVertex
 10
457.3228577223833
 20
685.2174928105112
 30
0.0
  0
VERTEX
  5
142
330
63
100
AcDbEntity
  8
Make2D$可见线$普通线
100
AcDbVertex
100
AcDb2dVertex
 10
457.3229193997017
 20
685.2181061336128
 30
0.0
  0
VERTEX
  5
143
330
63
100
AcDbEntity
  8
Make2D$可见线$普通线
100
AcDbVertex
100
AcDb2dVertex
 10
457.3229483577292
 20
685.2187194626949
 30
0.0
  0
VERTEX
  5
144
330
63
100
AcDbEntity
  8
Make2D$可见线$普通线
100
AcDbVertex
100
AcDb2dVertex
 10
457.3229445835032
 20
685.2193327960961
 30
0.0
  0
SEQEND
  5
145
330
63
100
AcDbEntity
  8
Make2D$可见线$普通线
  0
POLYLINE
  5
146
330
1F
100
AcDbEntity
  8
Make2D$可见线$普通线
100
AcDb2dPolyline
 66
     1
 10
0.0
 20
0.0
 30
0.0
  0
VERTEX
  5
147
330
146
100
AcDbEntity
  8
Make2D$可见线$普通线
100
AcDbVertex
100
AcDb2dVertex
 10
456.3229445853267
 20
685.2193327960964
 30
0.0
  0
VERTEX
  5
148
330
146
100
AcDbEntity
  8
Make2D$可见线$普通线
100
AcDbVertex
100
AcDb2dVertex
 10
456.3229386421713
 20
685.2188383238351
 30
0.0
  0
VERTEX
  5
149
330
146
100
AcDbEntity
  8
Make2D$可见线$普通线
100
AcDbVertex
100
AcDb2dVertex
 10
456.3229096254813
 20
685.2183438526686
 30
0.0
  0
VERTEX
  5
14A
330
146
100
AcDbEntity
  8
Make2D$可见线$普通线
100
AcDbVertex
100
AcDb2dVertex
 10
456.322857541684
 20
685.2178493836566
 30
0.0
  0
VERTEX
  5
14B
330
146
100
AcDbEntity
  8
Make2D$可见线$普通线
100
AcDbVertex
100
AcDb2dVertex
 10
456.3227823972064
 20
685.2173549178594
 30
0.0
  0
VERTEX
  5
14C
330
146
100
AcDbEntity
  8
Make2D$可见线$普通线
100
AcDbVertex
100
AcDb2dVertex
 10
456.3226841984757
 20
685.2168604563367
 30
0.0
  0
VERTEX
  5
14D
330
146
100
AcDbEntity
  8
Make2D$可见线$普通线
100
AcDbVertex
100
AcDb2dVertex
 10
456.3225629519189
 20
685.2163660001488
 30
0.0
  0
VERTEX
  5
14E
330
146
100
AcDbEntity
  8
Make2D$可见线$普通线
100
AcDbVertex
100
AcDb2dVertex
 10
456.3224186639632
 20
685.2158715503554
 30
0.0
  0
VERTEX
  5
14F
330
146
100
AcDbEntity
  8
Make2D$可见线$普通线
100
AcDbVertex
100
AcDb2dVertex
 10
456.3222513410356
 20
685.2153771080165
 30
0.0
  0
VERTEX
  5
150
330
146
100
AcDbEntity
  8
Make2D$可见线$普通线
100
AcDbVertex
100
AcDb2dVertex
 10
456.3220609895634
 20
685.214882674192
 30
0.0
  0
VERTEX
  5
151
330
146
100
AcDbEntity
  8
Make2D$可见线$普通线
100
AcDbVertex
100
AcDb2dVertex
 10
456.3218476159736
 20
685.2143882499421
 30
0.0
  0
VERTEX
  5
152
330
146
100
AcDbEntity
  8
Make2D$可见线$普通线
100
AcDbVertex
100
AcDb2dVertex
 10
456.3216112266933
 20
685.2138938363266
 30
0.0
  0
VERTEX
  5
153
330
146
100
AcDbEntity
  8
Make2D$可见线$普通线
100
AcDbVertex
100
AcDb2dVertex
 10
456.3213518281497
 20
685.2133994344056
 30
0.0
  0
VERTEX
  5
154
330
146
100
AcDbEntity
  8
Make2D$可见线$普通线
100
AcDbVertex
100
AcDb2dVertex
 10
456.3210694267698
 20
685.2129050452388
 30
0.0
  0
VERTEX
  5
155
330
146
100
AcDbEntity
  8
Make2D$可见线$普通线
100
AcDbVertex
100
AcDb2dVertex
 10
456.3207640289808
 20
685.2124106698864
 30
0.0
  0
VERTEX
  5
156
330
146
100
AcDbEntity
  8
Make2D$可见线$普通线
100
AcDbVertex
100
AcDb2dVertex
 10
456.3204356412097
 20
685.2119163094083
 30
0.0
  0
VERTEX
  5
157
330
146
100
AcDbEntity
  8
Make2D$可见线$普通线
100
AcDbVertex
100
AcDb2dVertex
 10
456.3200842698838
 20
685.2114219648645
 30
0.0
  0
VERTEX
  5
158
330
146
100
AcDbEntity
  8
Make2D$可见线$普通线
100
AcDbVertex
100
AcDb2dVertex
 10
456.31970992143
 20
685.2109276373149
 30
0.0
  0
VERTEX
  5
159
330
146
100
AcDbEntity
  8
Make2D$可见线$普通线
100
AcDbVertex
100
AcDb2dVertex
 10
456.3193126022757
 20
685.2104333278195
 30
0.0
  0
VERTEX
  5
15A
330
146
100
AcDbEntity
  8
Make2D$可见线$普通线
100
AcDbVertex
100
AcDb2dVertex
 10
456.3188923188476
 20
685.2099390374383
 30
0.0
  0
VERTEX
  5
15B
330
146
100
AcDbEntity
  8
Make2D$可见线$普通线
100
AcDbVertex
100
AcDb2dVertex
 10
456.3184490775732
 20
685.2094447672313
 30
0.0
  0
VERTEX
  5
15C
330
146
100
AcDbEntity
  8
Make2D$可见线$普通线
100
AcDbVertex
100
AcDb2dVertex
 10
456.3179828848794
 20
685.2089505182585
 30
0.0
  0
VERTEX
  5
15D
330
146
100
AcDbEntity
  8
Make2D$可见线$普通线
100
AcDbVertex
100
AcDb2dVertex
 10
456.3174937471933
 20
685.2084562915795
 30
0.0
  0
VERTEX
  5
15E
330
146
100
AcDbEntity
  8
Make2D$可见线$普通线
100
AcDbVertex
100
AcDb2dVertex
 10
456.3169816709421
 20
685.2079620882547
 30
0.0
  0
VERTEX
  5
15F
330
146
100
AcDbEntity
  8
Make2D$可见线$普通线
100
AcDbVertex
100
AcDb2dVertex
 10
456.316446662553
 20
685.2074679093439
 30
0.0
  0
VERTEX
  5
160
330
146
100
AcDbEntity
  8
Make2D$可见线$普通线
100
AcDbVertex
100
AcDb2dVertex
 10
456.3158887284529
 20
685.206973755907
 30
0.0
  0
VERTEX
  5
161
330
146
100
AcDbEntity
  8
Make2D$可见线$普通线
100
AcDbVertex
100
AcDb2dVertex
 10
456.3153078750691
 20
685.2064796290042
 30
0.0
  0
VERTEX
  5
162
330
146
100
AcDbEntity
  8
Make2D$可见线$普通线
100
AcDbVertex
100
AcDb2dVertex
 10
456.3147041088286
 20
685.2059855296952
 30
0.0
  0
VERTEX
  5
163
330
146
100
AcDbEntity
  8
Make2D$可见线$普通线
100
AcDbVertex
100
AcDb2dVertex
 10
456.3140774361585
 20
685.2054914590401
 30
0.0
  0
VERTEX
  5
164
330
146
100
AcDbEntity
  8
Make2D$可见线$普通线
100
AcDbVertex
100
AcDb2dVertex
 10
456.3127553972382
 20
685.2045034079314
 30
0.0
  0
VERTEX
  5
165
330
146
100
AcDbEntity
  8
Make2D$可见线$普通线
100
AcDbVertex
100
AcDb2dVertex
 10
456.3113418097251
 20
685.2035154841578
 30
0.0
  0
VERTEX
  5
166
330
146
100
AcDbEntity
  8
Make2D$可见线$普通线
100
AcDbVertex
100
AcDb2dVertex
 10
456.309836725036
 20
685.2025276961992
 30
0.0
  0
VERTEX
  5
167
330
146
100
AcDbEntity
  8
Make2D$可见线$普通线
100
AcDbVertex
100
AcDb2dVertex
 10
456.3082401945878
 20
685.2015400525352
 30
0.0
  0
VERTEX
  5
168
330
146
100
AcDbEntity
  8
Make2D$可见线$普通线
100
AcDbVertex
100
AcDb2dVertex
 10
456.3065522697975
 20
685.2005525616454
 30
0.0
  0
VERTEX
  5
169
330
146
100
AcDbEntity
  8
Make2D$可见线$普通线
100
AcDbVertex
100
AcDb2dVertex
 10
456.304773002082
 20
685.1995652320097
 30
0.0
  0
VERTEX
  5
16A
330
146
100
AcDbEntity
  8
Make2D$可见线$普通线
100
AcDbVertex
100
AcDb2dVertex
 10
456.3029024428581
 20
685.1985780721079
 30
0.0
  0
VERTEX
  5
16B
330
146
100
AcDbEntity
  8
Make2D$可见线$普通线
100
AcDbVertex
100
AcDb2dVertex
 10
456.3009406435428
 20
685.1975910904198
 30
0.0
  0
VERTEX
  5
16C
330
146
100
AcDbEntity
  8
Make2D$可见线$普通线
100
AcDbVertex
100
AcDb2dVertex
 10
456.2967435303054
 20
685.1956176956029
 30
0.0
  0
VERTEX
  5
16D
330
146
100
AcDbEntity
  8
Make2D$可见线$普通线
100
AcDbVertex
100
AcDb2dVertex
 10
456.2921820737052
 20
685.1936451153972
 30
0.0
  0
VERTEX
  5
16E
330
146
100
AcDbEntity
  8
Make2D$可见线$普通线
100
AcDbVertex
100
AcDb2dVertex
 10
456.2872566850773
 20
685.1916734176405
 30
0.0
  0
VERTEX
  5
16F
330
146
100
AcDbEntity
  8
Make2D$可见线$普通线
100
AcDbVertex
100
AcDb2dVertex
 10
456.281967775757
 20
685.1897026701708
 30
0.0
  0
VERTEX
  5
170
330
146
100
AcDbEntity
  8
Make2D$可见线$普通线
100
AcDbVertex
100
AcDb2dVertex
 10
456.2763157570795
 20
685.187732940826
 30
0.0
  0
VERTEX
  5
171
330
146
100
AcDbEntity
  8
Make2D$可见线$普通线
100
AcDbVertex
100
AcDb2dVertex
 10
456.2639240369938
 20
685.1837968078626
 30
0.0
  0
VERTEX
  5
172
330
146
100
AcDbEntity
  8
Make2D$可见线$普通线
100
AcDbVertex
100
AcDb2dVertex
 10
456.2500848155021
 20
685.1798655614534
 30
0.0
  0
VERTEX
  5
173
330
146
100
AcDbEntity
  8
Make2D$可见线$普通线
100
AcDbVertex
100
AcDb2dVertex
 10
456.2348013832862
 20
685.1759397443019
 30
0.0
  0
VERTEX
  5
174
330
146
100
AcDbEntity
  8
Make2D$可见线$普通线
100
AcDbVertex
100
AcDb2dVertex
 10
456.218077031028
 20
685.1720198991114
 30
0.0
  0
VERTEX
  5
175
330
146
100
AcDbEntity
  8
Make2D$可见线$普通线
100
AcDbVertex
100
AcDb2dVertex
 10
456.1803187291118
 20
685.1642002954266
 30
0.0
  0
VERTEX
  5
176
330
146
100
AcDbEntity
  8
Make2D$可见线$普通线
100
AcDbVertex
100
AcDb2dVertex
 10
456.1368362352085
 20
685.156411092025
 30
0.0
  0
VERTEX
  5
177
330
146
100
AcDbEntity
  8
Make2D$可见线$普通线
100
AcDbVertex
100
AcDb2dVertex
 10
456.0328039732592
 20
685.1409412525769
 30
0.0
  0
VERTEX
  5
178
330
146
100
AcDbEntity
  8
Make2D$可见线$普通线
100
AcDbVertex
100
AcDb2dVertex
 10
455.9061908488181
 20
685.1256451137779
 30
0.0
  0
VERTEX
  5
179
330
146
100
AcDbEntity
  8
Make2D$可见线$普通线
100
AcDbVertex
100
AcDb2dVertex
 10
455.5860644270127
 20
685.0957128701696
 30
0.0
  0
VERTEX
  5
17A
330
146
100
AcDbEntity
  8
Make2D$可见线$普通线
100
AcDbVertex
100
AcDb2dVertex
 10
454.5986344190962
 20
685.0349660284687
 30
0.0
  0
VERTEX
  5
17B
330
146
100
AcDbEntity
  8
Make2D$可见线$普通线
100
AcDbVertex
100
AcDb2dVertex
 10
453.24792265799
 20
684.9818550552138
 30
0.0
  0
VERTEX
  5
17C
330
146
100
AcDbEntity
  8
Make2D$可见线$普通线
100
AcDbVertex
100
AcDb2dVertex
 10
451.5873551854884
 20
684.9386543919337
 30
0.0
  0
VERTEX
  5
17D
330
146
100
AcDbEntity
  8
Make2D$可见线$普通线
100
AcDbVertex
100
AcDb2dVertex
 10
449.688044681384
 20
684.9070727973137
 30
0.0
  0
VERTEX
  5
17E
330
146
100
AcDbEntity
  8
Make2D$可见线$普通线
100
AcDbVertex
100
AcDb2dVertex
 10
447.7902543254067
 20
684.889457116369
 30
0.0
  0
VERTEX
  5
17F
330
146
100
AcDbEntity
  8
Make2D$可见线$普通线
100
AcDbVertex
100
AcDb2dVertex
 10
445.822944583525
 20
684.883504695987
 30
0.0
  0
VERTEX
  5
180
330
146
100
AcDbEntity
  8
Make2D$可见线$普通线
100
AcDbVertex
100
AcDb2dVertex
 10
443.8556348416143
 20
684.8894571163687
 30
0.0
  0
VERTEX
  5
181
330
146
100
AcDbEntity
  8
Make2D$可见线$普通线
100
AcDbVertex
100
AcDb2dVertex
 10
441.9578444855742
 20
684.9070727973154
 30
0.0
  0
VERTEX
  5
182
330
146
100
AcDbEntity
  8
Make2D$可见线$普通线
100
AcDbVertex
100
AcDb2dVertex
 10
440.0585339816466
 20
684.9386543919297
 30
0.0
  0
VERTEX
  5
183
330
146
100
AcDbEntity
  8
Make2D$可见线$普通线
100
AcDbVertex
100
AcDb2dVertex
 10
438.3979665092929
 20
684.981855055205
 30
0.0
  0
VERTEX
  5
184
330
146
100
AcDbEntity
  8
Make2D$可见线$普通线
100
AcDbVertex
100
AcDb2dVertex
 10
437.0472547480333
 20
685.0349660284645
 30
0.0
  0
VERTEX
  5
185
330
146
100
AcDbEntity
  8
Make2D$可见线$普通线
100
AcDbVertex
100
AcDb2dVertex
 10
436.0598247399421
 20
685.0957128701712
 30
0.0
  0
VERTEX
  5
186
330
146
100
AcDbEntity
  8
Make2D$可见线$普通线
100
AcDbVertex
100
AcDb2dVertex
 10
435.7396983181304
 20
685.125645113779
 30
0.0
  0
VERTEX
  5
187
330
146
100
AcDbEntity
  8
Make2D$可见线$普通线
100
AcDbVertex
100
AcDb2dVertex
 10
435.6130851936625
 20
685.1409412525772
 30
0.0
  0
VERTEX
  5
188
330
146
100
AcDbEntity
  8
Make2D$可见线$普通线
100
AcDbVertex
100
AcDb2dVertex
 10
435.5090529316413
 20
685.1564110920247
 30
0.0
  0
VERTEX
  5
189
330
146
100
AcDbEntity
  8
Make2D$可见线$普通线
100
AcDbVertex
100
AcDb2dVertex
 10
435.4655704376783
 20
685.1642002954259
 30
0.0
  0
VERTEX
  5
18A
330
146
100
AcDbEntity
  8
Make2D$可见线$普通线
100
AcDbVertex
100
AcDb2dVertex
 10
435.4278121356828
 20
685.1720198991105
 30
0.0
  0
VERTEX
  5
18B
330
146
100
AcDbEntity
  8
Make2D$可见线$普通线
100
AcDbVertex
100
AcDb2dVertex
 10
435.4110877833767
 20
685.1759397443009
 30
0.0
  0
VERTEX
  5
18C
330
146
100
AcDbEntity
  8
Make2D$可见线$普通线
100
AcDbVertex
100
AcDb2dVertex
 10
435.395804351107
 20
685.1798655614521
 30
0.0
  0
VERTEX
  5
18D
330
146
100
AcDbEntity
  8
Make2D$可见线$普通线
100
AcDbVertex
100
AcDb2dVertex
 10
435.3819651295552
 20
685.183796807861
 30
0.0
  0
VERTEX
  5
18E
330
146
100
AcDbEntity
  8
Make2D$可见线$普通线
100
AcDbVertex
100
AcDb2dVertex
 10
435.3695734094029
 20
685.1877329408244
 30
0.0
  0
VERTEX
  5
18F
330
146
100
AcDbEntity
  8
Make2D$可见线$普通线
100
AcDbVertex
100
AcDb2dVertex
 10
435.3639213906895
 20
685.1897026701693
 30
0.0
  0
VERTEX
  5
190
330
146
100
AcDbEntity
  8
Make2D$可见线$普通线
100
AcDbVertex
100
AcDb2dVertex
 10
435.3586324813315
 20
685.1916734176389
 30
0.0
  0
VERTEX
  5
191
330
146
100
AcDbEntity
  8
Make2D$可见线$普通线
100
AcDbVertex
100
AcDb2dVertex
 10
435.3537070926641
 20
685.1936451153956
 30
0.0
  0
VERTEX
  5
192
330
146
100
AcDbEntity
  8
Make2D$可见线$普通线
100
AcDbVertex
100
AcDb2dVertex
 10
435.3491456360225
 20
685.1956176956013
 30
0.0
  0
VERTEX
  5
193
330
146
100
AcDbEntity
  8
Make2D$可见线$普通线
100
AcDbVertex
100
AcDb2dVertex
 10
435.3449485227418
 20
685.1975910904182
 30
0.0
  0
VERTEX
  5
194
330
146
100
AcDbEntity
  8
Make2D$可见线$普通线
100
AcDbVertex
100
AcDb2dVertex
 10
435.3429867234041
 20
685.1985780721063
 30
0.0
  0
VERTEX
  5
195
330
146
100
AcDbEntity
  8
Make2D$可见线$普通线
100
AcDbVertex
100
AcDb2dVertex
 10
435.3411161641574
 20
685.1995652320081
 30
0.0
  0
VERTEX
  5
196
330
146
100
AcDbEntity
  8
Make2D$可见线$普通线
100
AcDbVertex
100
AcDb2dVertex
 10
435.3393368964184
 20
685.2005525616438
 30
0.0
  0
VERTEX
  5
197
330
146
100
AcDbEntity
  8
Make2D$可见线$普通线
100
AcDbVertex
100
AcDb2dVertex
 10
435.3376489716043
 20
685.2015400525336
 30
0.0
  0
VERTEX
  5
198
330
146
100
AcDbEntity
  8
Make2D$可见线$普通线
100
AcDbVertex
100
AcDb2dVertex
 10
435.3360524411318
 20
685.2025276961976
 30
0.0
  0
VERTEX
  5
199
330
146
100
AcDbEntity
  8
Make2D$可见线$普通线
100
AcDbVertex
100
AcDb2dVertex
 10
435.3345473564177
 20
685.2035154841562
 30
0.0
  0
VERTEX
  5
19A
330
146
100
AcDbEntity
  8
Make2D$可见线$普通线
100
AcDbVertex
100
AcDb2dVertex
 10
435.3331337688791
 20
685.2045034079298
 30
0.0
  0
VERTEX
  5
19B
330
146
100
AcDbEntity
  8
Make2D$可见线$普通线
100
AcDbVertex
100
AcDb2dVertex
 10
435.3318117299328
 20
685.2054914590385
 30
0.0
  0
VERTEX
  5
19C
330
146
100
AcDbEntity
  8
Make2D$可见线$普通线
100
AcDbVertex
100
AcDb2dVertex
 10
435.3311850572496
 20
685.2059855296936
 30
0.0
  0
VERTEX
  5
19D
330
146
100
AcDbEntity
  8
Make2D$可见线$普通线
100
AcDbVertex
100
AcDb2dVertex
 10
435.3305812909958
 20
685.2064796290026
 30
0.0
  0
VERTEX
  5
19E
330
146
100
AcDbEntity
  8
Make2D$可见线$普通线
100
AcDbVertex
100
AcDb2dVertex
 10
435.3300004375985
 20
685.2069737559054
 30
0.0
  0
VERTEX
  5
19F
330
146
100
AcDbEntity
  8
Make2D$可见线$普通线
100
AcDbVertex
100
AcDb2dVertex
 10
435.3294425034849
 20
685.2074679093423
 30
0.0
  0
VERTEX
  5
1A0
330
146
100
AcDbEntity
  8
Make2D$可见线$普通线
100
AcDbVertex
100
AcDb2dVertex
 10
435.328907495082
 20
685.2079620882531
 30
0.0
  0
VERTEX
  5
1A1
330
146
100
AcDbEntity
  8
Make2D$可见线$普通线
100
AcDbVertex
100
AcDb2dVertex
 10
435.328395418817
 20
685.2084562915779
 30
0.0
  0
VERTEX
  5
1A2
330
146
100
AcDbEntity
  8
Make2D$可见线$普通线
100
AcDbVertex
100
AcDb2dVertex
 10
435.327906281117
 20
685.2089505182569
 30
0.0
  0
VERTEX
  5
1A3
330
146
100
AcDbEntity
  8
Make2D$可见线$普通线
100
AcDbVertex
100
AcDb2dVertex
 10
435.327440088409
 20
685.2094447672298
 30
0.0
  0
VERTEX
  5
1A4
330
146
100
AcDbEntity
  8
Make2D$可见线$普通线
100
AcDbVertex
100
AcDb2dVertex
 10
435.3269968471203
 20
685.2099390374369
 30
0.0
  0
VERTEX
  5
1A5
330
146
100
AcDbEntity
  8
Make2D$可见线$普通线
100
AcDbVertex
100
AcDb2dVertex
 10
435.3265765636779
 20
685.2104333278181
 30
0.0
  0
VERTEX
  5
1A6
330
146
100
AcDbEntity
  8
Make2D$可见线$普通线
100
AcDbVertex
100
AcDb2dVertex
 10
435.3261792445089
 20
685.2109276373135
 30
0.0
  0
VERTEX
  5
1A7
330
146
100
AcDbEntity
  8
Make2D$可见线$普通线
100
AcDbVertex
100
AcDb2dVertex
 10
435.3258048960405
 20
685.2114219648631
 30
0.0
  0
VERTEX
  5
1A8
330
146
100
AcDbEntity
  8
Make2D$可见线$普通线
100
AcDbVertex
100
AcDb2dVertex
 10
435.3254535246997
 20
685.2119163094069
 30
0.0
  0
VERTEX
  5
1A9
330
146
100
AcDbEntity
  8
Make2D$可见线$普通线
100
AcDbVertex
100
AcDb2dVertex
 10
435.3251251369137
 20
685.212410669885
 30
0.0
  0
VERTEX
  5
1AA
330
146
100
AcDbEntity
  8
Make2D$可见线$普通线
100
AcDbVertex
100
AcDb2dVertex
 10
435.3248197391096
 20
685.2129050452374
 30
0.0
  0
VERTEX
  5
1AB
330
146
100
AcDbEntity
  8
Make2D$可见线$普通线
100
AcDbVertex
100
AcDb2dVertex
 10
435.3245373377144
 20
685.2133994344042
 30
0.0
  0
VERTEX
  5
1AC
330
146
100
AcDbEntity
  8
Make2D$可见线$普通线
100
AcDbVertex
100
AcDb2dVertex
 10
435.3242779391554
 20
685.2138938363253
 30
0.0
  0
VERTEX
  5
1AD
330
146
100
AcDbEntity
  8
Make2D$可见线$普通线
100
AcDbVertex
100
AcDb2dVertex
 10
435.3240415498597
 20
685.2143882499407
 30
0.0
  0
VERTEX
  5
1AE
330
146
100
AcDbEntity
  8
Make2D$可见线$普通线
100
AcDbVertex
100
AcDb2dVertex
 10
435.3238281762542
 20
685.2148826741907
 30
0.0
  0
VERTEX
  5
1AF
330
146
100
AcDbEntity
  8
Make2D$可见线$普通线
100
AcDbVertex
100
AcDb2dVertex
 10
435.3236378247661
 20
685.2153771080152
 30
0.0
  0
VERTEX
  5
1B0
330
146
100
AcDbEntity
  8
Make2D$可见线$普通线
100
AcDbVertex
100
AcDb2dVertex
 10
435.3234705018226
 20
685.2158715503542
 30
0.0
  0
VERTEX
  5
1B1
330
146
100
AcDbEntity
  8
Make2D$可见线$普通线
100
AcDbVertex
100
AcDb2dVertex
 10
435.3233262138508
 20
685.2163660001477
 30
0.0
  0
VERTEX
  5
1B2
330
146
100
AcDbEntity
  8
Make2D$可见线$普通线
100
AcDbVertex
100
AcDb2dVertex
 10
435.3232049672777
 20
685.2168604563356
 30
0.0
  0
VERTEX
  5
1B3
330
146
100
AcDbEntity
  8
Make2D$可见线$普通线
100
AcDbVertex
100
AcDb2dVertex
 10
435.3231067685306
 20
685.2173549178583
 30
0.0
  0
VERTEX
  5
1B4
330
146
100
AcDbEntity
  8
Make2D$可见线$普通线
100
AcDbVertex
100
AcDb2dVertex
 10
435.3230316240364
 20
685.2178493836554
 30
0.0
  0
VERTEX
  5
1B5
330
146
100
AcDbEntity
  8
Make2D$可见线$普通线
100
AcDbVertex
100
AcDb2dVertex
 10
435.3229795402224
 20
685.2183438526674
 30
0.0
  0
VERTEX
  5
1B6
330
146
100
AcDbEntity
  8
Make2D$可见线$普通线
100
AcDbVertex
100
AcDb2dVertex
 10
435.3229505235156
 20
685.218838323834
 30
0.0
  0
VERTEX
  5
1B7
330
146
100
AcDbEntity
  8
Make2D$可见线$普通线
100
AcDbVertex
100
AcDb2dVertex
 10
435.3229445803431
 20
685.2193327960954
 30
0.0
  0
VERTEX
  5
1B8
330
146
100
AcDbEntity
  8
Make2D$可见线$普通线
100
AcDbVertex
100
AcDb2dVertex
 10
435.3229505235156
 20
685.2198272683568
 30
0.0
  0
VERTEX
  5
1B9
330
146
100
AcDbEntity
  8
Make2D$可见线$普通线
100
AcDbVertex
100
AcDb2dVertex
 10
435.3229795402224
 20
685.2203217395233
 30
0.0
  0
VERTEX
  5
1BA
330
146
100
AcDbEntity
  8
Make2D$可见线$普通线
100
AcDbVertex
100
AcDb2dVertex
 10
435.3230316240364
 20
685.2208162085353
 30
0.0
  0
VERTEX
  5
1BB
330
146
100
AcDbEntity
  8
Make2D$可见线$普通线
100
AcDbVertex
100
AcDb2dVertex
 10
435.3231067685306
 20
685.2213106743326
 30
0.0
  0
VERTEX
  5
1BC
330
146
100
AcDbEntity
  8
Make2D$可见线$普通线
100
AcDbVertex
100
AcDb2dVertex
 10
435.3232049672777
 20
685.2218051358552
 30
0.0
  0
VERTEX
  5
1BD
330
146
100
AcDbEntity
  8
Make2D$可见线$普通线
100
AcDbVertex
100
AcDb2dVertex
 10
435.3233262138507
 20
685.2222995920433
 30
0.0
  0
VERTEX
  5
1BE
330
146
100
AcDbEntity
  8
Make2D$可见线$普通线
100
AcDbVertex
100
AcDb2dVertex
 10
435.3234705018226
 20
685.2227940418368
 30
0.0
  0
VERTEX
  5
1BF
330
146
100
AcDbEntity
  8
Make2D$可见线$普通线
100
AcDbVertex
100
AcDb2dVertex
 10
435.323637824766
 20
685.2232884841757
 30
0.0
  0
VERTEX
  5
1C0
330
146
100
AcDbEntity
  8
Make2D$可见线$普通线
100
AcDbVertex
100
AcDb2dVertex
 10
435.323828176254
 20
685.2237829180001
 30
0.0
  0
VERTEX
  5
1C1
330
146
100
AcDbEntity
  8
Make2D$可见线$普通线
100
AcDbVertex
100
AcDb2dVertex
 10
435.3240415498595
 20
685.22427734225
 30
0.0
  0
VERTEX
  5
1C2
330
146
100
AcDbEntity
  8
Make2D$可见线$普通线
100
AcDbVertex
100
AcDb2dVertex
 10
435.3242779391553
 20
685.2247717558656
 30
0.0
  0
VERTEX
  5
1C3
330
146
100
AcDbEntity
  8
Make2D$可见线$普通线
100
AcDbVertex
100
AcDb2dVertex
 10
435.3245373377143
 20
685.2252661577868
 30
0.0
  0
VERTEX
  5
1C4
330
146
100
AcDbEntity
  8
Make2D$可见线$普通线
100
AcDbVertex
100
AcDb2dVertex
 10
435.3248197391094
 20
685.2257605469536
 30
0.0
  0
VERTEX
  5
1C5
330
146
100
AcDbEntity
  8
Make2D$可见线$普通线
100
AcDbVertex
100
AcDb2dVertex
 10
435.3251251369135
 20
685.226254922306
 30
0.0
  0
VERTEX
  5
1C6
330
146
100
AcDbEntity
  8
Make2D$可见线$普通线
100
AcDbVertex
100
AcDb2dVertex
 10
435.3254535246995
 20
685.2267492827841
 30
0.0
  0
VERTEX
  5
1C7
330
146
100
AcDbEntity
  8
Make2D$可见线$普通线
100
AcDbVertex
100
AcDb2dVertex
 10
435.3258048960403
 20
685.2272436273279
 30
0.0
  0
VERTEX
  5
1C8
330
146
100
AcDbEntity
  8
Make2D$可见线$普通线
100
AcDbVertex
100
AcDb2dVertex
 10
435.3261792445087
 20
685.2277379548775
 30
0.0
  0
VERTEX
  5
1C9
330
146
100
AcDbEntity
  8
Make2D$可见线$普通线
100
AcDbVertex
100
AcDb2dVertex
 10
435.3265765636777
 20
685.2282322643729
 30
0.0
  0
VERTEX
  5
1CA
330
146
100
AcDbEntity
  8
Make2D$可见线$普通线
100
AcDbVertex
100
AcDb2dVertex
 10
435.3269968471201
 20
685.2287265547541
 30
0.0
  0
VERTEX
  5
1CB
330
146
100
AcDbEntity
  8
Make2D$可见线$普通线
100
AcDbVertex
100
AcDb2dVertex
 10
435.3274400884088
 20
685.2292208249612
 30
0.0
  0
VERTEX
  5
1CC
330
146
100
AcDbEntity
  8
Make2D$可见线$普通线
100
AcDbVertex
100
AcDb2dVertex
 10
435.3279062811166
 20
685.2297150739341
 30
0.0
  0
VERTEX
  5
1CD
330
146
100
AcDbEntity
  8
Make2D$可见线$普通线
100
AcDbVertex
100
AcDb2dVertex
 10
435.3283954188167
 20
685.2302093006131
 30
0.0
  0
VERTEX
  5
1CE
330
146
100
AcDbEntity
  8
Make2D$可见线$普通线
100
AcDbVertex
100
AcDb2dVertex
 10
435.3289074950816
 20
685.2307035039379
 30
0.0
  0
VERTEX
  5
1CF
330
146
100
AcDbEntity
  8
Make2D$可见线$普通线
100
AcDbVertex
100
AcDb2dVertex
 10
435.3294425034845
 20
685.2311976828487
 30
0.0
  0
VERTEX
  5
1D0
330
146
100
AcDbEntity
  8
Make2D$可见线$普通线
100
AcDbVertex
100
AcDb2dVertex
 10
435.3300004375981
 20
685.2316918362856
 30
0.0
  0
VERTEX
  5
1D1
330
146
100
AcDbEntity
  8
Make2D$可见线$普通线
100
AcDbVertex
100
AcDb2dVertex
 10
435.3305812909954
 20
685.2321859631884
 30
0.0
  0
VERTEX
  5
1D2
330
146
100
AcDbEntity
  8
Make2D$可见线$普通线
100
AcDbVertex
100
AcDb2dVertex
 10
435.3311850572492
 20
685.2326800624975
 30
0.0
  0
VERTEX
  5
1D3
330
146
100
AcDbEntity
  8
Make2D$可见线$普通线
100
AcDbVertex
100
AcDb2dVertex
 10
435.3318117299324
 20
685.2331741331526
 30
0.0
  0
VERTEX
  5
1D4
330
146
100
AcDbEntity
  8
Make2D$可见线$普通线
100
AcDbVertex
100
AcDb2dVertex
 10
435.3331337688786
 20
685.2341621842613
 30
0.0
  0
VERTEX
  5
1D5
330
146
100
AcDbEntity
  8
Make2D$可见线$普通线
100
AcDbVertex
100
AcDb2dVertex
 10
435.3345473564171
 20
685.235150108035
 30
0.0
  0
VERTEX
  5
1D6
330
146
100
AcDbEntity
  8
Make2D$可见线$普通线
100
AcDbVertex
100
AcDb2dVertex
 10
435.3360524411311
 20
685.2361378959937
 30
0.0
  0
VERTEX
  5
1D7
330
146
100
AcDbEntity
  8
Make2D$可见线$普通线
100
AcDbVertex
100
AcDb2dVertex
 10
435.3376489716036
 20
685.2371255396579
 30
0.0
  0
VERTEX
  5
1D8
330
146
100
AcDbEntity
  8
Make2D$可见线$普通线
100
AcDbVertex
100
AcDb2dVertex
 10
435.3393368964178
 20
685.2381130305477
 30
0.0
  0
VERTEX
  5
1D9
330
146
100
AcDbEntity
  8
Make2D$可见线$普通线
100
AcDbVertex
100
AcDb2dVertex
 10
435.3411161641566
 20
685.2391003601832
 30
0.0
  0
VERTEX
  5
1DA
330
146
100
AcDbEntity
  8
Make2D$可见线$普通线
100
AcDbVertex
100
AcDb2dVertex
 10
435.3429867234034
 20
685.240087520085
 30
0.0
  0
VERTEX
  5
1DB
330
146
100
AcDbEntity
  8
Make2D$可见线$普通线
100
AcDbVertex
100
AcDb2dVertex
 10
435.344948522741
 20
685.2410745017733
 30
0.0
  0
VERTEX
  5
1DC
330
146
100
AcDbEntity
  8
Make2D$可见线$普通线
100
AcDbVertex
100
AcDb2dVertex
 10
435.3491456360215
 20
685.2430478965902
 30
0.0
  0
VERTEX
  5
1DD
330
146
100
AcDbEntity
  8
Make2D$可见线$普通线
100
AcDbVertex
100
AcDb2dVertex
 10
435.3537070926631
 20
685.2450204767958
 30
0.0
  0
VERTEX
  5
1DE
330
146
100
AcDbEntity
  8
Make2D$可见线$普通线
100
AcDbVertex
100
AcDb2dVertex
 10
435.3586324813303
 20
685.2469921745526
 30
0.0
  0
VERTEX
  5
1DF
330
146
100
AcDbEntity
  8
Make2D$可见线$普通线
100
AcDbVertex
100
AcDb2dVertex
 10
435.3639213906883
 20
685.2489629220222
 30
0.0
  0
VERTEX
  5
1E0
330
146
100
AcDbEntity
  8
Make2D$可见线$普通线
100
AcDbVertex
100
AcDb2dVertex
 10
435.3695734094017
 20
685.2509326513671
 30
0.0
  0
VERTEX
  5
1E1
330
146
100
AcDbEntity
  8
Make2D$可见线$普通线
100
AcDbVertex
100
AcDb2dVertex
 10
435.3819651295539
 20
685.2548687843305
 30
0.0
  0
VERTEX
  5
1E2
330
146
100
AcDbEntity
  8
Make2D$可见线$普通线
100
AcDbVertex
100
AcDb2dVertex
 10
435.3958043511055
 20
685.2588000307396
 30
0.0
  0
VERTEX
  5
1E3
330
146
100
AcDbEntity
  8
Make2D$可见线$普通线
100
AcDbVertex
100
AcDb2dVertex
 10
435.4110877833751
 20
685.262725847891
 30
0.0
  0
VERTEX
  5
1E4
330
146
100
AcDbEntity
  8
Make2D$可见线$普通线
100
AcDbVertex
100
AcDb2dVertex
 10
435.4278121356811
 20
685.2666456930814
 30
0.0
  0
VERTEX
  5
1E5
330
146
100
AcDbEntity
  8
Make2D$可见线$普通线
100
AcDbVertex
100
AcDb2dVertex
 10
435.4655704376764
 20
685.2744652967662
 30
0.0
  0
VERTEX
  5
1E6
330
146
100
AcDbEntity
  8
Make2D$可见线$普通线
100
AcDbVertex
100
AcDb2dVertex
 10
435.5090529316393
 20
685.2822545001674
 30
0.0
  0
VERTEX
  5
1E7
330
146
100
AcDbEntity
  8
Make2D$可见线$普通线
100
AcDbVertex
100
AcDb2dVertex
 10
435.6130851936604
 20
685.2977243396147
 30
0.0
  0
VERTEX
  5
1E8
330
146
100
AcDbEntity
  8
Make2D$可见线$普通线
100
AcDbVertex
100
AcDb2dVertex
 10
435.7396983181284
 20
685.313020478413
 30
0.0
  0
VERTEX
  5
1E9
330
146
100
AcDbEntity
  8
Make2D$可见线$普通线
100
AcDbVertex
100
AcDb2dVertex
 10
436.0598247399415
 20
685.342952722021
 30
0.0
  0
VERTEX
  5
1EA
330
146
100
AcDbEntity
  8
Make2D$可见线$普通线
100
AcDbVertex
100
AcDb2dVertex
 10
437.0472547480338
 20
685.4036995637275
 30
0.0
  0
VERTEX
  5
1EB
330
146
100
AcDbEntity
  8
Make2D$可见线$普通线
100
AcDbVertex
100
AcDb2dVertex
 10
438.3979665092938
 20
685.4568105369872
 30
0.0
  0
VERTEX
  5
1EC
330
146
100
AcDbEntity
  8
Make2D$可见线$普通线
100
AcDbVertex
100
AcDb2dVertex
 10
440.0585339816452
 20
685.5000112002624
 30
0.0
  0
VERTEX
  5
1ED
330
146
100
AcDbEntity
  8
Make2D$可见线$普通线
100
AcDbVertex
100
AcDb2dVertex
 10
441.9578444855738
 20
685.5315927948766
 30
0.0
  0
VERTEX
  5
1EE
330
146
100
AcDbEntity
  8
Make2D$可见线$普通线
100
AcDbVertex
100
AcDb2dVertex
 10
443.855634841607
 20
685.5492084758234
 30
0.0
  0
VERTEX
  5
1EF
330
146
100
AcDbEntity
  8
Make2D$可见线$普通线
100
AcDbVertex
100
AcDb2dVertex
 10
445.8229445834813
 20
685.5551608962052
 30
0.0
  0
VERTEX
  5
1F0
330
146
100
AcDbEntity
  8
Make2D$可见线$普通线
100
AcDbVertex
100
AcDb2dVertex
 10
447.7902543254207
 20
685.5492084758231
 30
0.0
  0
VERTEX
  5
1F1
330
146
100
AcDbEntity
  8
Make2D$可见线$普通线
100
AcDbVertex
100
AcDb2dVertex
 10
449.6880446813054
 20
685.5315927948782
 30
0.0
  0
VERTEX
  5
1F2
330
146
100
AcDbEntity
  8
Make2D$可见线$普通线
100
AcDbVertex
100
AcDb2dVertex
 10
451.5873551855389
 20
685.5000112002584
 30
0.0
  0
VERTEX
  5
1F3
330
146
100
AcDbEntity
  8
Make2D$可见线$普通线
100
AcDbVertex
100
AcDb2dVertex
 10
453.2479226580957
 20
685.4568105369783
 30
0.0
  0
VERTEX
  5
1F4
330
146
100
AcDbEntity
  8
Make2D$可见线$普通线
100
AcDbVertex
100
AcDb2dVertex
 10
454.5986344189242
 20
685.4036995637235
 30
0.0
  0
VERTEX
  5
1F5
330
146
100
AcDbEntity
  8
Make2D$可见线$普通线
100
AcDbVertex
100
AcDb2dVertex
 10
455.5860644269785
 20
685.3429527220226
 30
0.0
  0
VERTEX
  5
1F6
330
146
100
AcDbEntity
  8
Make2D$可见线$普通线
100
AcDbVertex
100
AcDb2dVertex
 10
455.9061908491891
 20
685.3130204784145
 30
0.0
  0
VERTEX
  5
1F7
330
146
100
AcDbEntity
  8
Make2D$可见线$普通线
100
AcDbVertex
100
AcDb2dVertex
 10
456.0328039738399
 20
685.2977243396156
 30
0.0
  0
VERTEX
  5
1F8
330
146
100
AcDbEntity
  8
Make2D$可见线$普通线
100
AcDbVertex
100
AcDb2dVertex
 10
456.136836235947
 20
685.2822545001675
 30
0.0
  0
VERTEX
  5
1F9
330
146
100
AcDbEntity
  8
Make2D$可见线$普通线
100
AcDbVertex
100
AcDb2dVertex
 10
456.1803187298965
 20
685.2744652967658
 30
0.0
  0
VERTEX
  5
1FA
330
146
100
AcDbEntity
  8
Make2D$可见线$普通线
100
AcDbVertex
100
AcDb2dVertex
 10
456.2180770318298
 20
685.266645693081
 30
0.0
  0
VERTEX
  5
1FB
330
146
100
AcDbEntity
  8
Make2D$可见线$普通线
100
AcDbVertex
100
AcDb2dVertex
 10
456.2348013840841
 20
685.2627258478906
 30
0.0
  0
VERTEX
  5
1FC
330
146
100
AcDbEntity
  8
Make2D$可见线$普通线
100
AcDbVertex
100
AcDb2dVertex
 10
456.2500848162869
 20
685.2588000307392
 30
0.0
  0
VERTEX
  5
1FD
330
146
100
AcDbEntity
  8
Make2D$可见线$普通线
100
AcDbVertex
100
AcDb2dVertex
 10
456.2639240377556
 20
685.25486878433
 30
0.0
  0
VERTEX
  5
1FE
330
146
100
AcDbEntity
  8
Make2D$可见线$普通线
100
AcDbVertex
100
AcDb2dVertex
 10
456.2763157578077
 20
685.2509326513666
 30
0.0
  0
VERTEX
  5
1FF
330
146
100
AcDbEntity
  8
Make2D$可见线$普通线
100
AcDbVertex
100
AcDb2dVertex
 10
456.2819677764642
 20
685.2489629220217
 30
0.0
  0
VERTEX
  5
200
330
146
100
AcDbEntity
  8
Make2D$可见线$普通线
100
AcDbVertex
100
AcDb2dVertex
 10
456.2872566857607
 20
685.2469921745521
 30
0.0
  0
VERTEX
  5
201
330
146
100
AcDbEntity
  8
Make2D$可见线$普通线
100
AcDbVertex
100
AcDb2dVertex
 10
456.2921820743618
 20
685.2450204767954
 30
0.0
  0
VERTEX
  5
202
330
146
100
AcDbEntity
  8
Make2D$可见线$普通线
100
AcDbVertex
100
AcDb2dVertex
 10
456.2967435309322
 20
685.2430478965898
 30
0.0
  0
VERTEX
  5
203
330
146
100
AcDbEntity
  8
Make2D$可见线$普通线
100
AcDbVertex
100
AcDb2dVertex
 10
456.3009406441365
 20
685.241074501773
 30
0.0
  0
VERTEX
  5
204
330
146
100
AcDbEntity
  8
Make2D$可见线$普通线
100
AcDbVertex
100
AcDb2dVertex
 10
456.3029024434342
 20
685.2400875200847
 30
0.0
  0
VERTEX
  5
205
330
146
100
AcDbEntity
  8
Make2D$可见线$普通线
100
AcDbVertex
100
AcDb2dVertex
 10
456.3047730026395
 20
685.239100360183
 30
0.0
  0
VERTEX
  5
206
330
146
100
AcDbEntity
  8
Make2D$可见线$普通线
100
AcDbVertex
100
AcDb2dVertex
 10
456.3065522703357
 20
685.2381130305474
 30
0.0
  0
VERTEX
  5
207
330
146
100
AcDbEntity
  8
Make2D$可见线$普通线
100
AcDbVertex
100
AcDb2dVertex
 10
456.3082401951059
 20
685.2371255396577
 30
0.0
  0
VERTEX
  5
208
330
146
100
AcDbEntity
  8
Make2D$可见线$普通线
100
AcDbVertex
100
AcDb2dVertex
 10
456.3098367255329
 20
685.2361378959936
 30
0.0
  0
VERTEX
  5
209
330
146
100
AcDbEntity
  8
Make2D$可见线$普通线
100
AcDbVertex
100
AcDb2dVertex
 10
456.3113418102002
 20
685.2351501080349
 30
0.0
  0
VERTEX
  5
20A
330
146
100
AcDbEntity
  8
Make2D$可见线$普通线
100
AcDbVertex
100
AcDb2dVertex
 10
456.3127553976906
 20
685.2341621842612
 30
0.0
  0
VERTEX
  5
20B
330
146
100
AcDbEntity
  8
Make2D$可见线$普通线
100
AcDbVertex
100
AcDb2dVertex
 10
456.3140774365873
 20
685.2331741331526
 30
0.0
  0
VERTEX
  5
20C
330
146
100
AcDbEntity
  8
Make2D$可见线$普通线
100
AcDbVertex
100
AcDb2dVertex
 10
456.3147041092452
 20
685.2326800624976
 30
0.0
  0
VERTEX
  5
20D
330
146
100
AcDbEntity
  8
Make2D$可见线$普通线
100
AcDbVertex
100
AcDb2dVertex
 10
456.3153078754733
 20
685.2321859631886
 30
0.0
  0
VERTEX
  5
20E
330
146
100
AcDbEntity
  8
Make2D$可见线$普通线
100
AcDbVertex
100
AcDb2dVertex
 10
456.3158887288446
 20
685.2316918362857
 30
0.0
  0
VERTEX
  5
20F
330
146
100
AcDbEntity
  8
Make2D$可见线$普通线
100
AcDbVertex
100
AcDb2dVertex
 10
456.3164466629318
 20
685.2311976828489
 30
0.0
  0
VERTEX
  5
210
330
146
100
AcDbEntity
  8
Make2D$可见线$普通线
100
AcDbVertex
100
AcDb2dVertex
 10
456.3169816713079
 20
685.2307035039381
 30
0.0
  0
VERTEX
  5
211
330
146
100
AcDbEntity
  8
Make2D$可见线$普通线
100
AcDbVertex
100
AcDb2dVertex
 10
456.3174937475458
 20
685.2302093006133
 30
0.0
  0
VERTEX
  5
212
330
146
100
AcDbEntity
  8
Make2D$可见线$普通线
100
AcDbVertex
100
AcDb2dVertex
 10
456.3179828852183
 20
685.2297150739344
 30
0.0
  0
VERTEX
  5
213
330
146
100
AcDbEntity
  8
Make2D$可见线$普通线
100
AcDbVertex
100
AcDb2dVertex
 10
456.3184490778983
 20
685.2292208249615
 30
0.0
  0
VERTEX
  5
214
330
146
100
AcDbEntity
  8
Make2D$可见线$普通线
100
AcDbVertex
100
AcDb2dVertex
 10
456.3188923191589
 20
685.2287265547545
 30
0.0
  0
VERTEX
  5
215
330
146
100
AcDbEntity
  8
Make2D$可见线$普通线
100
AcDbVertex
100
AcDb2dVertex
 10
456.3193126025726
 20
685.2282322643733
 30
0.0
  0
VERTEX
  5
216
330
146
100
AcDbEntity
  8
Make2D$可见线$普通线
100
AcDbVertex
100
AcDb2dVertex
 10
456.3197099217126
 20
685.227737954878
 30
0.0
  0
VERTEX
  5
217
330
146
100
AcDbEntity
  8
Make2D$可见线$普通线
100
AcDbVertex
100
AcDb2dVertex
 10
456.3200842701517
 20
685.2272436273283
 30
0.0
  0
VERTEX
  5
218
330
146
100
AcDbEntity
  8
Make2D$可见线$普通线
100
AcDbVertex
100
AcDb2dVertex
 10
456.3204356414627
 20
685.2267492827846
 30
0.0
  0
VERTEX
  5
219
330
146
100
AcDbEntity
  8
Make2D$可见线$普通线
100
AcDbVertex
100
AcDb2dVertex
 10
456.3207640292186
 20
685.2262549223065
 30
0.0
  0
VERTEX
  5
21A
330
146
100
AcDbEntity
  8
Make2D$可见线$普通线
100
AcDbVertex
100
AcDb2dVertex
 10
456.3210694269923
 20
685.225760546954
 30
0.0
  0
VERTEX
  5
21B
330
146
100
AcDbEntity
  8
Make2D$可见线$普通线
100
AcDbVertex
100
AcDb2dVertex
 10
456.3213518283565
 20
685.2252661577872
 30
0.0
  0
VERTEX
  5
21C
330
146
100
AcDbEntity
  8
Make2D$可见线$普通线
100
AcDbVertex
100
AcDb2dVertex
 10
456.3216112268843
 20
685.2247717558662
 30
0.0
  0
VERTEX
  5
21D
330
146
100
AcDbEntity
  8
Make2D$可见线$普通线
100
AcDbVertex
100
AcDb2dVertex
 10
456.3218476161484
 20
685.2242773422507
 30
0.0
  0
VERTEX
  5
21E
330
146
100
AcDbEntity
  8
Make2D$可见线$普通线
100
AcDbVertex
100
AcDb2dVertex
 10
456.3220609897219
 20
685.2237829180008
 30
0.0
  0
VERTEX
  5
21F
330
146
100
AcDbEntity
  8
Make2D$可见线$普通线
100
AcDbVertex
100
AcDb2dVertex
 10
456.3222513411775
 20
685.2232884841764
 30
0.0
  0
VERTEX
  5
220
330
146
100
AcDbEntity
  8
Make2D$可见线$普通线
100
AcDbVertex
100
AcDb2dVertex
 10
456.3224186640882
 20
685.2227940418375
 30
0.0
  0
VERTEX
  5
221
330
146
100
AcDbEntity
  8
Make2D$可见线$普通线
100
AcDbVertex
100
AcDb2dVertex
 10
456.3225629520268
 20
685.222299592044
 30
0.0
  0
VERTEX
  5
222
330
146
100
AcDbEntity
  8
Make2D$可见线$普通线
100
AcDbVertex
100
AcDb2dVertex
 10
456.3226841985662
 20
685.2218051358561
 30
0.0
  0
VERTEX
  5
223
330
146
100
AcDbEntity
  8
Make2D$可见线$普通线
100
AcDbVertex
100
AcDb2dVertex
 10
456.3227823972794
 20
685.2213106743334
 30
0.0
  0
VERTEX
  5
224
330
146
100
AcDbEntity
  8
Make2D$可见线$普通线
100
AcDbVertex
100
AcDb2dVertex
 10
456.3228575417391
 20
685.2208162085362
 30
0.0
  0
VERTEX
  5
225
330
146
100
AcDbEntity
  8
Make2D$可见线$普通线
100
AcDbVertex
100
AcDb2dVertex
 10
456.3229096255183
 20
685.2203217395243
 30
0.0
  0
VERTEX
  5
226
330
146
100
AcDbEntity
  8
Make2D$可见线$普通线
100
AcDbVertex
100
AcDb2dVertex
 10
456.3229386421899
 20
685.2198272683577
 30
0.0
  0
VERTEX
  5
227
330
146
100
AcDbEntity
  8
Make2D$可见线$普通线
100
AcDbVertex
100
AcDb2dVertex
 10
456.3229445853267
 20
685.2193327960964
 30
0.0
  0
SEQEND
  5
228
330
146
100
AcDbEntity
  8
Make2D$可见线$普通线
  0
POLYLINE
  5
229
330
1F
100
AcDbEntity
  8
Make2D$可见线$普通线
100
AcDb2dPolyline
 66
     1
 10
0.0
 20
0.0
 30
0.0
  0
VERTEX
  5
22A
330
229
100
AcDbEntity
  8
Make2D$可见线$普通线
100
AcDbVertex
100
AcDb2dVertex
 10
455.3229445835032
 20
685.2193327960961
 30
0.0
  0
VERTEX
  5
22B
330
229
100
AcDbEntity
  8
Make2D$可见线$普通线
100
AcDbVertex
100
AcDb2dVertex
 10
455.3229392064017
 20
685.2197801757611
 30
0.0
  0
VERTEX
  5
22C
330
229
100
AcDbEntity
  8
Make2D$可见线$普通线
100
AcDbVertex
100
AcDb2dVertex
 10
455.3229129532448
 20
685.2202275544357
 30
0.0
  0
VERTEX
  5
22D
330
229
100
AcDbEntity
  8
Make2D$可见线$普通线
100
AcDbVertex
100
AcDb2dVertex
 10
455.3228658298475
 20
685.2206749311608
 30
0.0
  0
VERTEX
  5
22E
330
229
100
AcDbEntity
  8
Make2D$可见线$普通线
100
AcDbVertex
100
AcDb2dVertex
 10
455.3227978420247
 20
685.2211223049774
 30
0.0
  0
VERTEX
  5
22F
330
229
100
AcDbEntity
  8
Make2D$可见线$普通线
100
AcDbVertex
100
AcDb2dVertex
 10
455.3227089955915
 20
685.2215696749265
 30
0.0
  0
VERTEX
  5
230
330
229
100
AcDbEntity
  8
Make2D$可见线$普通线
100
AcDbVertex
100
AcDb2dVertex
 10
455.322599296363
 20
685.2220170400491
 30
0.0
  0
VERTEX
  5
231
330
229
100
AcDbEntity
  8
Make2D$可见线$普通线
100
AcDbVertex
100
AcDb2dVertex
 10
455.322468750154
 20
685.2224643993861
 30
0.0
  0
VERTEX
  5
232
330
229
100
AcDbEntity
  8
Make2D$可见线$普通线
100
AcDbVertex
100
AcDb2dVertex
 10
455.3223173627796
 20
685.2229117519785
 30
0.0
  0
VERTEX
  5
233
330
229
100
AcDbEntity
  8
Make2D$可见线$普通线
100
AcDbVertex
100
AcDb2dVertex
 10
455.3221451400548
 20
685.2233590968672
 30
0.0
  0
VERTEX
  5
234
330
229
100
AcDbEntity
  8
Make2D$可见线$普通线
100
AcDbVertex
100
AcDb2dVertex
 10
455.3219520877948
 20
685.2238064330934
 30
0.0
  0
VERTEX
  5
235
330
229
100
AcDbEntity
  8
Make2D$可见线$普通线
100
AcDbVertex
100
AcDb2dVertex
 10
455.3217382118143
 20
685.2242537596978
 30
0.0
  0
VERTEX
  5
236
330
229
100
AcDbEntity
  8
Make2D$可见线$普通线
100
AcDbVertex
100
AcDb2dVertex
 10
455.3215035179285
 20
685.2247010757219
 30
0.0
  0
VERTEX
  5
237
330
229
100
AcDbEntity
  8
Make2D$可见线$普通线
100
AcDbVertex
100
AcDb2dVertex
 10
455.3212480119524
 20
685.2251483802062
 30
0.0
  0
VERTEX
  5
238
330
229
100
AcDbEntity
  8
Make2D$可见线$普通线
100
AcDbVertex
100
AcDb2dVertex
 10
455.3209716997009
 20
685.2255956721918
 30
0.0
  0
VERTEX
  5
239
330
229
100
AcDbEntity
  8
Make2D$可见线$普通线
100
AcDbVertex
100
AcDb2dVertex
 10
455.3206745869891
 20
685.2260429507197
 30
0.0
  0
VERTEX
  5
23A
330
229
100
AcDbEntity
  8
Make2D$可见线$普通线
100
AcDbVertex
100
AcDb2dVertex
 10
455.3203566796319
 20
685.2264902148307
 30
0.0
  0
VERTEX
  5
23B
330
229
100
AcDbEntity
  8
Make2D$可见线$普通线
100
AcDbVertex
100
AcDb2dVertex
 10
455.3200179834445
 20
685.2269374635661
 30
0.0
  0
VERTEX
  5
23C
330
229
100
AcDbEntity
  8
Make2D$可见线$普通线
100
AcDbVertex
100
AcDb2dVertex
 10
455.3196585042417
 20
685.2273846959667
 30
0.0
  0
VERTEX
  5
23D
330
229
100
AcDbEntity
  8
Make2D$可见线$普通线
100
AcDbVertex
100
AcDb2dVertex
 10
455.3192782478387
 20
685.2278319110735
 30
0.0
  0
VERTEX
  5
23E
330
229
100
AcDbEntity
  8
Make2D$可见线$普通线
100
AcDbVertex
100
AcDb2dVertex
 10
455.3188772200504
 20
685.2282791079276
 30
0.0
  0
VERTEX
  5
23F
330
229
100
AcDbEntity
  8
Make2D$可见线$普通线
100
AcDbVertex
100
AcDb2dVertex
 10
455.3184554266918
 20
685.2287262855698
 30
0.0
  0
VERTEX
  5
240
330
229
100
AcDbEntity
  8
Make2D$可见线$普通线
100
AcDbVertex
100
AcDb2dVertex
 10
455.318012873578
 20
685.2291734430412
 30
0.0
  0
VERTEX
  5
241
330
229
100
AcDbEntity
  8
Make2D$可见线$普通线
100
AcDbVertex
100
AcDb2dVertex
 10
455.3175495665239
 20
685.2296205793828
 30
0.0
  0
VERTEX
  5
242
330
229
100
AcDbEntity
  8
Make2D$可见线$普通线
100
AcDbVertex
100
AcDb2dVertex
 10
455.3170655113445
 20
685.2300676936354
 30
0.0
  0
VERTEX
  5
243
330
229
100
AcDbEntity
  8
Make2D$可见线$普通线
100
AcDbVertex
100
AcDb2dVertex
 10
455.316560713855
 20
685.2305147848404
 30
0.0
  0
VERTEX
  5
244
330
229
100
AcDbEntity
  8
Make2D$可见线$普通线
100
AcDbVertex
100
AcDb2dVertex
 10
455.3160351798702
 20
685.2309618520383
 30
0.0
  0
VERTEX
  5
245
330
229
100
AcDbEntity
  8
Make2D$可见线$普通线
100
AcDbVertex
100
AcDb2dVertex
 10
455.3154889152052
 20
685.2314088942701
 30
0.0
  0
VERTEX
  5
246
330
229
100
AcDbEntity
  8
Make2D$可见线$普通线
100
AcDbVertex
100
AcDb2dVertex
 10
455.314921925675
 20
685.2318559105772
 30
0.0
  0
VERTEX
  5
247
330
229
100
AcDbEntity
  8
Make2D$可见线$普通线
100
AcDbVertex
100
AcDb2dVertex
 10
455.313725795279
 20
685.2327498615804
 30
0.0
  0
VERTEX
  5
248
330
229
100
AcDbEntity
  8
Make2D$可见线$普通线
100
AcDbVertex
100
AcDb2dVertex
 10
455.3124468352022
 20
685.2336436973754
 30
0.0
  0
VERTEX
  5
249
330
229
100
AcDbEntity
  8
Make2D$可见线$普通线
100
AcDbVertex
100
AcDb2dVertex
 10
455.3110850919647
 20
685.2345374102904
 30
0.0
  0
VERTEX
  5
24A
330
229
100
AcDbEntity
  8
Make2D$可见线$普通线
100
AcDbVertex
100
AcDb2dVertex
 10
455.3096406120868
 20
685.2354309926532
 30
0.0
  0
VERTEX
  5
24B
330
229
100
AcDbEntity
  8
Make2D$可见线$普通线
100
AcDbVertex
100
AcDb2dVertex
 10
455.3081134420883
 20
685.2363244367914
 30
0.0
  0
VERTEX
  5
24C
330
229
100
AcDbEntity
  8
Make2D$可见线$普通线
100
AcDbVertex
100
AcDb2dVertex
 10
455.3065036284894
 20
685.2372177350333
 30
0.0
  0
VERTEX
  5
24D
330
229
100
AcDbEntity
  8
Make2D$可见线$普通线
100
AcDbVertex
100
AcDb2dVertex
 10
455.3048112178101
 20
685.2381108797064
 30
0.0
  0
VERTEX
  5
24E
330
229
100
AcDbEntity
  8
Make2D$可见线$普通线
100
AcDbVertex
100
AcDb2dVertex
 10
455.3030362565705
 20
685.2390038631387
 30
0.0
  0
VERTEX
  5
24F
330
229
100
AcDbEntity
  8
Make2D$可见线$普通线
100
AcDbVertex
100
AcDb2dVertex
 10
455.2992388684908
 20
685.2407893155921
 30
0.0
  0
VERTEX
  5
250
330
229
100
AcDbEntity
  8
Make2D$可见线$普通线
100
AcDbVertex
100
AcDb2dVertex
 10
455.2951118364107
 20
685.2425740310164
 30
0.0
  0
VERTEX
  5
251
330
229
100
AcDbEntity
  8
Make2D$可见线$普通线
100
AcDbVertex
100
AcDb2dVertex
 10
455.2906555324909
 20
685.2443579480343
 30
0.0
  0
VERTEX
  5
252
330
229
100
AcDbEntity
  8
Make2D$可见线$普通线
100
AcDbVertex
100
AcDb2dVertex
 10
455.2858703288919
 20
685.2461410052689
 30
0.0
  0
VERTEX
  5
253
330
229
100
AcDbEntity
  8
Make2D$可见线$普通线
100
AcDbVertex
100
AcDb2dVertex
 10
455.2807565977744
 20
685.2479231413428
 30
0.0
  0
VERTEX
  5
254
330
229
100
AcDbEntity
  8
Make2D$可见线$普通线
100
AcDbVertex
100
AcDb2dVertex
 10
455.2695450416257
 20
685.2514844045002
 30
0.0
  0
VERTEX
  5
255
330
229
100
AcDbEntity
  8
Make2D$可见线$普通线
100
AcDbVertex
100
AcDb2dVertex
 10
455.2570238413296
 20
685.2550412464893
 30
0.0
  0
VERTEX
  5
256
330
229
100
AcDbEntity
  8
Make2D$可见线$普通线
100
AcDbVertex
100
AcDb2dVertex
 10
455.2431959741705
 20
685.2585931762928
 30
0.0
  0
VERTEX
  5
257
330
229
100
AcDbEntity
  8
Make2D$可见线$普通线
100
AcDbVertex
100
AcDb2dVertex
 10
455.2280644174331
 20
685.2621397028936
 30
0.0
  0
VERTEX
  5
258
330
229
100
AcDbEntity
  8
Make2D$可见线$普通线
100
AcDbVertex
100
AcDb2dVertex
 10
455.1939021443617
 20
685.2692145824176
 30
0.0
  0
VERTEX
  5
259
330
229
100
AcDbEntity
  8
Make2D$可见线$普通线
100
AcDbVertex
100
AcDb2dVertex
 10
455.154560840392
 20
685.2762619569233
 30
0.0
  0
VERTEX
  5
25A
330
229
100
AcDbEntity
  8
Make2D$可见线$普通线
100
AcDbVertex
100
AcDb2dVertex
 10
455.0604364128645
 20
685.2902584783275
 30
0.0
  0
VERTEX
  5
25B
330
229
100
AcDbEntity
  8
Make2D$可见线$普通线
100
AcDbVertex
100
AcDb2dVertex
 10
454.9458816810642
 20
685.3040978420015
 30
0.0
  0
VERTEX
  5
25C
330
229
100
AcDbEntity
  8
Make2D$可见线$普通线
100
AcDbVertex
100
AcDb2dVertex
 10
454.656243489499
 20
685.3311793957412
 30
0.0
  0
VERTEX
  5
25D
330
229
100
AcDbEntity
  8
Make2D$可见线$普通线
100
AcDbVertex
100
AcDb2dVertex
 10
453.7628544345703
 20
685.3861408239511
 30
0.0
  0
VERTEX
  5
25E
330
229
100
AcDbEntity
  8
Make2D$可见线$普通线
100
AcDbVertex
100
AcDb2dVertex
 10
452.5407818891044
 20
685.4341936092787
 30
0.0
  0
VERTEX
  5
25F
330
229
100
AcDbEntity
  8
Make2D$可见线$普通线
100
AcDbVertex
100
AcDb2dVertex
 10
451.0383636996388
 20
685.4732799236656
 30
0.0
  0
VERTEX
  5
260
330
229
100
AcDbEntity
  8
Make2D$可见线$普通线
100
AcDbVertex
100
AcDb2dVertex
 10
449.3199399100732
 20
685.5018537473741
 30
0.0
  0
VERTEX
  5
261
330
229
100
AcDbEntity
  8
Make2D$可见线$普通线
100
AcDbVertex
100
AcDb2dVertex
 10
447.6028914928742
 20
685.5177917444344
 30
0.0
  0
VERTEX
  5
262
330
229
100
AcDbEntity
  8
Make2D$可见线$普通线
100
AcDbVertex
100
AcDb2dVertex
 10
445.8229445835032
 20
685.5231772675319
 30
0.0
  0
VERTEX
  5
263
330
229
100
AcDbEntity
  8
Make2D$可见线$普通线
100
AcDbVertex
100
AcDb2dVertex
 10
444.0429976741387
 20
685.5177917444347
 30
0.0
  0
VERTEX
  5
264
330
229
100
AcDbEntity
  8
Make2D$可见线$普通线
100
AcDbVertex
100
AcDb2dVertex
 10
442.3259492568893
 20
685.5018537473726
 30
0.0
  0
VERTEX
  5
265
330
229
100
AcDbEntity
  8
Make2D$可见线$普通线
100
AcDbVertex
100
AcDb2dVertex
 10
440.6075254674827
 20
685.4732799236692
 30
0.0
  0
VERTEX
  5
266
330
229
100
AcDbEntity
  8
Make2D$可见线$普通线
100
AcDbVertex
100
AcDb2dVertex
 10
439.1051072781531
 20
685.4341936092868
 30
0.0
  0
VERTEX
  5
267
330
229
100
AcDbEntity
  8
Make2D$可见线$普通线
100
AcDbVertex
100
AcDb2dVertex
 10
437.8830347325479
 20
685.3861408239547
 30
0.0
  0
VERTEX
  5
268
330
229
100
AcDbEntity
  8
Make2D$可见线$普通线
100
AcDbVertex
100
AcDb2dVertex
 10
436.9896456774601
 20
685.3311793957397
 30
0.0
  0
VERTEX
  5
269
330
229
100
AcDbEntity
  8
Make2D$可见线$普通线
100
AcDbVertex
100
AcDb2dVertex
 10
436.700007485907
 20
685.3040978420006
 30
0.0
  0
VERTEX
  5
26A
330
229
100
AcDbEntity
  8
Make2D$可见线$普通线
100
AcDbVertex
100
AcDb2dVertex
 10
436.5854527541272
 20
685.2902584783272
 30
0.0
  0
VERTEX
  5
26B
330
229
100
AcDbEntity
  8
Make2D$可见线$普通线
100
AcDbVertex
100
AcDb2dVertex
 10
436.4913283266221
 20
685.2762619569237
 30
0.0
  0
VERTEX
  5
26C
330
229
100
AcDbEntity
  8
Make2D$可见线$普通线
100
AcDbVertex
100
AcDb2dVertex
 10
436.4519870226625
 20
685.2692145824183
 30
0.0
  0
VERTEX
  5
26D
330
229
100
AcDbEntity
  8
Make2D$可见线$普通线
100
AcDbVertex
100
AcDb2dVertex
 10
436.4178247495995
 20
685.2621397028945
 30
0.0
  0
VERTEX
  5
26E
330
229
100
AcDbEntity
  8
Make2D$可见线$普通线
100
AcDbVertex
100
AcDb2dVertex
 10
436.4026931928654
 20
685.2585931762939
 30
0.0
  0
VERTEX
  5
26F
330
229
100
AcDbEntity
  8
Make2D$可见线$普通线
100
AcDbVertex
100
AcDb2dVertex
 10
436.3888653257089
 20
685.2550412464904
 30
0.0
  0
VERTEX
  5
270
330
229
100
AcDbEntity
  8
Make2D$可见线$普通线
100
AcDbVertex
100
AcDb2dVertex
 10
436.3763441254147
 20
685.2514844045013
 30
0.0
  0
VERTEX
  5
271
330
229
100
AcDbEntity
  8
Make2D$可见线$普通线
100
AcDbVertex
100
AcDb2dVertex
 10
436.365132569267
 20
685.2479231413438
 30
0.0
  0
VERTEX
  5
272
330
229
100
AcDbEntity
  8
Make2D$可见线$普通线
100
AcDbVertex
100
AcDb2dVertex
 10
436.3600188381495
 20
685.2461410052698
 30
0.0
  0
VERTEX
  5
273
330
229
100
AcDbEntity
  8
Make2D$可见线$普通线
100
AcDbVertex
100
AcDb2dVertex
 10
436.3552336345504
 20
685.2443579480353
 30
0.0
  0
VERTEX
  5
274
330
229
100
AcDbEntity
  8
Make2D$可见线$普通线
100
AcDbVertex
100
AcDb2dVertex
 10
436.3507773306302
 20
685.2425740310173
 30
0.0
  0
VERTEX
  5
275
330
229
100
AcDbEntity
  8
Make2D$可见线$普通线
100
AcDbVertex
100
AcDb2dVertex
 10
436.3466502985494
 20
685.2407893155931
 30
0.0
  0
VERTEX
  5
276
330
229
100
AcDbEntity
  8
Make2D$可见线$普通线
100
AcDbVertex
100
AcDb2dVertex
 10
436.3428529104687
 20
685.2390038631398
 30
0.0
  0
VERTEX
  5
277
330
229
100
AcDbEntity
  8
Make2D$可见线$普通线
100
AcDbVertex
100
AcDb2dVertex
 10
436.3410779492285
 20
685.2381108797075
 30
0.0
  0
VERTEX
  5
278
330
229
100
AcDbEntity
  8
Make2D$可见线$普通线
100
AcDbVertex
100
AcDb2dVertex
 10
436.3393855385485
 20
685.2372177350344
 30
0.0
  0
VERTEX
  5
279
330
229
100
AcDbEntity
  8
Make2D$可见线$普通线
100
AcDbVertex
100
AcDb2dVertex
 10
436.3377757249489
 20
685.2363244367925
 30
0.0
  0
VERTEX
  5
27A
330
229
100
AcDbEntity
  8
Make2D$可见线$普通线
100
AcDbVertex
100
AcDb2dVertex
 10
436.3362485549495
 20
685.2354309926542
 30
0.0
  0
VERTEX
  5
27B
330
229
100
AcDbEntity
  8
Make2D$可见线$普通线
100
AcDbVertex
100
AcDb2dVertex
 10
436.3348040750707
 20
685.2345374102913
 30
0.0
  0
VERTEX
  5
27C
330
229
100
AcDbEntity
  8
Make2D$可见线$普通线
100
AcDbVertex
100
AcDb2dVertex
 10
436.3334423318323
 20
685.2336436973762
 30
0.0
  0
VERTEX
  5
27D
330
229
100
AcDbEntity
  8
Make2D$可见线$普通线
100
AcDbVertex
100
AcDb2dVertex
 10
436.3321633717545
 20
685.232749861581
 30
0.0
  0
VERTEX
  5
27E
330
229
100
AcDbEntity
  8
Make2D$可见线$普通线
100
AcDbVertex
100
AcDb2dVertex
 10
436.3309672413573
 20
685.2318559105779
 30
0.0
  0
VERTEX
  5
27F
330
229
100
AcDbEntity
  8
Make2D$可见线$普通线
100
AcDbVertex
100
AcDb2dVertex
 10
436.3304002518265
 20
685.2314088942708
 30
0.0
  0
VERTEX
  5
280
330
229
100
AcDbEntity
  8
Make2D$可见线$普通线
100
AcDbVertex
100
AcDb2dVertex
 10
436.3298539871608
 20
685.230961852039
 30
0.0
  0
VERTEX
  5
281
330
229
100
AcDbEntity
  8
Make2D$可见线$普通线
100
AcDbVertex
100
AcDb2dVertex
 10
436.3293284531754
 20
685.230514784841
 30
0.0
  0
VERTEX
  5
282
330
229
100
AcDbEntity
  8
Make2D$可见线$普通线
100
AcDbVertex
100
AcDb2dVertex
 10
436.3288236556851
 20
685.2300676936361
 30
0.0
  0
VERTEX
  5
283
330
229
100
AcDbEntity
  8
Make2D$可见线$普通线
100
AcDbVertex
100
AcDb2dVertex
 10
436.3283396005051
 20
685.2296205793834
 30
0.0
  0
VERTEX
  5
284
330
229
100
AcDbEntity
  8
Make2D$可见线$普通线
100
AcDbVertex
100
AcDb2dVertex
 10
436.3278762934503
 20
685.2291734430418
 30
0.0
  0
VERTEX
  5
285
330
229
100
AcDbEntity
  8
Make2D$可见线$普通线
100
AcDbVertex
100
AcDb2dVertex
 10
436.3274337403358
 20
685.2287262855704
 30
0.0
  0
VERTEX
  5
286
330
229
100
AcDbEntity
  8
Make2D$可见线$普通线
100
AcDbVertex
100
AcDb2dVertex
 10
436.3270119469764
 20
685.2282791079281
 30
0.0
  0
VERTEX
  5
287
330
229
100
AcDbEntity
  8
Make2D$可见线$普通线
100
AcDbVertex
100
AcDb2dVertex
 10
436.3266109191874
 20
685.2278319110741
 30
0.0
  0
VERTEX
  5
288
330
229
100
AcDbEntity
  8
Make2D$可见线$普通线
100
AcDbVertex
100
AcDb2dVertex
 10
436.3262306627835
 20
685.2273846959672
 30
0.0
  0
VERTEX
  5
289
330
229
100
AcDbEntity
  8
Make2D$可见线$普通线
100
AcDbVertex
100
AcDb2dVertex
 10
436.3258711835799
 20
685.2269374635665
 30
0.0
  0
VERTEX
  5
28A
330
229
100
AcDbEntity
  8
Make2D$可见线$普通线
100
AcDbVertex
100
AcDb2dVertex
 10
436.3255324873916
 20
685.2264902148312
 30
0.0
  0
VERTEX
  5
28B
330
229
100
AcDbEntity
  8
Make2D$可见线$普通线
100
AcDbVertex
100
AcDb2dVertex
 10
436.3252145800336
 20
685.2260429507202
 30
0.0
  0
VERTEX
  5
28C
330
229
100
AcDbEntity
  8
Make2D$可见线$普通线
100
AcDbVertex
100
AcDb2dVertex
 10
436.3249174673208
 20
685.2255956721923
 30
0.0
  0
VERTEX
  5
28D
330
229
100
AcDbEntity
  8
Make2D$可见线$普通线
100
AcDbVertex
100
AcDb2dVertex
 10
436.3246411550683
 20
685.2251483802066
 30
0.0
  0
VERTEX
  5
28E
330
229
100
AcDbEntity
  8
Make2D$可见线$普通线
100
AcDbVertex
100
AcDb2dVertex
 10
436.3243856490913
 20
685.2247010757224
 30
0.0
  0
VERTEX
  5
28F
330
229
100
AcDbEntity
  8
Make2D$可见线$普通线
100
AcDbVertex
100
AcDb2dVertex
 10
436.3241509552045
 20
685.2242537596983
 30
0.0
  0
VERTEX
  5
290
330
229
100
AcDbEntity
  8
Make2D$可见线$普通线
100
AcDbVertex
100
AcDb2dVertex
 10
436.323937079223
 20
685.2238064330938
 30
0.0
  0
VERTEX
  5
291
330
229
100
AcDbEntity
  8
Make2D$可见线$普通线
100
AcDbVertex
100
AcDb2dVertex
 10
436.3237440269619
 20
685.2233590968676
 30
0.0
  0
VERTEX
  5
292
330
229
100
AcDbEntity
  8
Make2D$可见线$普通线
100
AcDbVertex
100
AcDb2dVertex
 10
436.3235718042361
 20
685.2229117519787
 30
0.0
  0
VERTEX
  5
293
330
229
100
AcDbEntity
  8
Make2D$可见线$普通线
100
AcDbVertex
100
AcDb2dVertex
 10
436.3234204168606
 20
685.2224643993864
 30
0.0
  0
VERTEX
  5
294
330
229
100
AcDbEntity
  8
Make2D$可见线$普通线
100
AcDbVertex
100
AcDb2dVertex
 10
436.3232898706506
 20
685.2220170400493
 30
0.0
  0
VERTEX
  5
295
330
229
100
AcDbEntity
  8
Make2D$可见线$普通线
100
AcDbVertex
100
AcDb2dVertex
 10
436.3231801714208
 20
685.2215696749267
 30
0.0
  0
VERTEX
  5
296
330
229
100
AcDbEntity
  8
Make2D$可见线$普通线
100
AcDbVertex
100
AcDb2dVertex
 10
436.3230913249865
 20
685.2211223049776
 30
0.0
  0
VERTEX
  5
297
330
229
100
AcDbEntity
  8
Make2D$可见线$普通线
100
AcDbVertex
100
AcDb2dVertex
 10
436.3230233371626
 20
685.2206749311609
 30
0.0
  0
VERTEX
  5
298
330
229
100
AcDbEntity
  8
Make2D$可见线$普通线
100
AcDbVertex
100
AcDb2dVertex
 10
436.322976213764
 20
685.2202275544358
 30
0.0
  0
VERTEX
  5
299
330
229
100
AcDbEntity
  8
Make2D$可见线$普通线
100
AcDbVertex
100
AcDb2dVertex
 10
436.3229499606059
 20
685.2197801757612
 30
0.0
  0
VERTEX
  5
29A
330
229
100
AcDbEntity
  8
Make2D$可见线$普通线
100
AcDbVertex
100
AcDb2dVertex
 10
436.3229445835032
 20
685.2193327960961
 30
0.0
  0
VERTEX
  5
29B
330
229
100
AcDbEntity
  8
Make2D$可见线$普通线
100
AcDbVertex
100
AcDb2dVertex
 10
436.3229499606059
 20
685.2188854164309
 30
0.0
  0
VERTEX
  5
29C
330
229
100
AcDbEntity
  8
Make2D$可见线$普通线
100
AcDbVertex
100
AcDb2dVertex
 10
436.322976213764
 20
685.2184380377563
 30
0.0
  0
VERTEX
  5
29D
330
229
100
AcDbEntity
  8
Make2D$可见线$普通线
100
AcDbVertex
100
AcDb2dVertex
 10
436.3230233371626
 20
685.2179906610312
 30
0.0
  0
VERTEX
  5
29E
330
229
100
AcDbEntity
  8
Make2D$可见线$普通线
100
AcDbVertex
100
AcDb2dVertex
 10
436.3230913249865
 20
685.2175432872145
 30
0.0
  0
VERTEX
  5
29F
330
229
100
AcDbEntity
  8
Make2D$可见线$普通线
100
AcDbVertex
100
AcDb2dVertex
 10
436.3231801714208
 20
685.2170959172654
 30
0.0
  0
VERTEX
  5
2A0
330
229
100
AcDbEntity
  8
Make2D$可见线$普通线
100
AcDbVertex
100
AcDb2dVertex
 10
436.3232898706506
 20
685.2166485521428
 30
0.0
  0
VERTEX
  5
2A1
330
229
100
AcDbEntity
  8
Make2D$可见线$普通线
100
AcDbVertex
100
AcDb2dVertex
 10
436.3234204168606
 20
685.2162011928058
 30
0.0
  0
VERTEX
  5
2A2
330
229
100
AcDbEntity
  8
Make2D$可见线$普通线
100
AcDbVertex
100
AcDb2dVertex
 10
436.3235718042361
 20
685.2157538402134
 30
0.0
  0
VERTEX
  5
2A3
330
229
100
AcDbEntity
  8
Make2D$可见线$普通线
100
AcDbVertex
100
AcDb2dVertex
 10
436.3237440269619
 20
685.2153064953245
 30
0.0
  0
VERTEX
  5
2A4
330
229
100
AcDbEntity
  8
Make2D$可见线$普通线
100
AcDbVertex
100
AcDb2dVertex
 10
436.323937079223
 20
685.2148591590983
 30
0.0
  0
VERTEX
  5
2A5
330
229
100
AcDbEntity
  8
Make2D$可见线$普通线
100
AcDbVertex
100
AcDb2dVertex
 10
436.3241509552045
 20
685.2144118324939
 30
0.0
  0
VERTEX
  5
2A6
330
229
100
AcDbEntity
  8
Make2D$可见线$普通线
100
AcDbVertex
100
AcDb2dVertex
 10
436.3243856490913
 20
685.2139645164698
 30
0.0
  0
VERTEX
  5
2A7
330
229
100
AcDbEntity
  8
Make2D$可见线$普通线
100
AcDbVertex
100
AcDb2dVertex
 10
436.3246411550683
 20
685.2135172119855
 30
0.0
  0
VERTEX
  5
2A8
330
229
100
AcDbEntity
  8
Make2D$可见线$普通线
100
AcDbVertex
100
AcDb2dVertex
 10
436.3249174673208
 20
685.2130699199998
 30
0.0
  0
VERTEX
  5
2A9
330
229
100
AcDbEntity
  8
Make2D$可见线$普通线
100
AcDbVertex
100
AcDb2dVertex
 10
436.3252145800336
 20
685.212622641472
 30
0.0
  0
VERTEX
  5
2AA
330
229
100
AcDbEntity
  8
Make2D$可见线$普通线
100
AcDbVertex
100
AcDb2dVertex
 10
436.3255324873916
 20
685.212175377361
 30
0.0
  0
VERTEX
  5
2AB
330
229
100
AcDbEntity
  8
Make2D$可见线$普通线
100
AcDbVertex
100
AcDb2dVertex
 10
436.3258711835799
 20
685.2117281286256
 30
0.0
  0
VERTEX
  5
2AC
330
229
100
AcDbEntity
  8
Make2D$可见线$普通线
100
AcDbVertex
100
AcDb2dVertex
 10
436.3262306627835
 20
685.2112808962249
 30
0.0
  0
VERTEX
  5
2AD
330
229
100
AcDbEntity
  8
Make2D$可见线$普通线
100
AcDbVertex
100
AcDb2dVertex
 10
436.3266109191874
 20
685.2108336811181
 30
0.0
  0
VERTEX
  5
2AE
330
229
100
AcDbEntity
  8
Make2D$可见线$普通线
100
AcDbVertex
100
AcDb2dVertex
 10
436.3270119469764
 20
685.2103864842641
 30
0.0
  0
VERTEX
  5
2AF
330
229
100
AcDbEntity
  8
Make2D$可见线$普通线
100
AcDbVertex
100
AcDb2dVertex
 10
436.3274337403358
 20
685.2099393066218
 30
0.0
  0
VERTEX
  5
2B0
330
229
100
AcDbEntity
  8
Make2D$可见线$普通线
100
AcDbVertex
100
AcDb2dVertex
 10
436.3278762934503
 20
685.2094921491504
 30
0.0
  0
VERTEX
  5
2B1
330
229
100
AcDbEntity
  8
Make2D$可见线$普通线
100
AcDbVertex
100
AcDb2dVertex
 10
436.3283396005051
 20
685.2090450128087
 30
0.0
  0
VERTEX
  5
2B2
330
229
100
AcDbEntity
  8
Make2D$可见线$普通线
100
AcDbVertex
100
AcDb2dVertex
 10
436.3288236556851
 20
685.208597898556
 30
0.0
  0
VERTEX
  5
2B3
330
229
100
AcDbEntity
  8
Make2D$可见线$普通线
100
AcDbVertex
100
AcDb2dVertex
 10
436.3293284531754
 20
685.2081508073511
 30
0.0
  0
VERTEX
  5
2B4
330
229
100
AcDbEntity
  8
Make2D$可见线$普通线
100
AcDbVertex
100
AcDb2dVertex
 10
436.3298539871608
 20
685.2077037401532
 30
0.0
  0
VERTEX
  5
2B5
330
229
100
AcDbEntity
  8
Make2D$可见线$普通线
100
AcDbVertex
100
AcDb2dVertex
 10
436.3304002518265
 20
685.2072566979214
 30
0.0
  0
VERTEX
  5
2B6
330
229
100
AcDbEntity
  8
Make2D$可见线$普通线
100
AcDbVertex
100
AcDb2dVertex
 10
436.3309672413573
 20
685.2068096816142
 30
0.0
  0
VERTEX
  5
2B7
330
229
100
AcDbEntity
  8
Make2D$可见线$普通线
100
AcDbVertex
100
AcDb2dVertex
 10
436.3321633717545
 20
685.2059157306111
 30
0.0
  0
VERTEX
  5
2B8
330
229
100
AcDbEntity
  8
Make2D$可见线$普通线
100
AcDbVertex
100
AcDb2dVertex
 10
436.3334423318323
 20
685.2050218948159
 30
0.0
  0
VERTEX
  5
2B9
330
229
100
AcDbEntity
  8
Make2D$可见线$普通线
100
AcDbVertex
100
AcDb2dVertex
 10
436.3348040750707
 20
685.2041281819008
 30
0.0
  0
VERTEX
  5
2BA
330
229
100
AcDbEntity
  8
Make2D$可见线$普通线
100
AcDbVertex
100
AcDb2dVertex
 10
436.3362485549495
 20
685.2032345995381
 30
0.0
  0
VERTEX
  5
2BB
330
229
100
AcDbEntity
  8
Make2D$可见线$普通线
100
AcDbVertex
100
AcDb2dVertex
 10
436.3377757249489
 20
685.2023411553998
 30
0.0
  0
VERTEX
  5
2BC
330
229
100
AcDbEntity
  8
Make2D$可见线$普通线
100
AcDbVertex
100
AcDb2dVertex
 10
436.3393855385485
 20
685.201447857158
 30
0.0
  0
VERTEX
  5
2BD
330
229
100
AcDbEntity
  8
Make2D$可见线$普通线
100
AcDbVertex
100
AcDb2dVertex
 10
436.3410779492285
 20
685.2005547124849
 30
0.0
  0
VERTEX
  5
2BE
330
229
100
AcDbEntity
  8
Make2D$可见线$普通线
100
AcDbVertex
100
AcDb2dVertex
 10
436.3428529104687
 20
685.1996617290525
 30
0.0
  0
VERTEX
  5
2BF
330
229
100
AcDbEntity
  8
Make2D$可见线$普通线
100
AcDbVertex
100
AcDb2dVertex
 10
436.3466502985494
 20
685.1978762765991
 30
0.0
  0
VERTEX
  5
2C0
330
229
100
AcDbEntity
  8
Make2D$可见线$普通线
100
AcDbVertex
100
AcDb2dVertex
 10
436.3507773306302
 20
685.1960915611749
 30
0.0
  0
VERTEX
  5
2C1
330
229
100
AcDbEntity
  8
Make2D$可见线$普通线
100
AcDbVertex
100
AcDb2dVertex
 10
436.3552336345504
 20
685.1943076441569
 30
0.0
  0
VERTEX
  5
2C2
330
229
100
AcDbEntity
  8
Make2D$可见线$普通线
100
AcDbVertex
100
AcDb2dVertex
 10
436.3600188381495
 20
685.1925245869223
 30
0.0
  0
VERTEX
  5
2C3
330
229
100
AcDbEntity
  8
Make2D$可见线$普通线
100
AcDbVertex
100
AcDb2dVertex
 10
436.365132569267
 20
685.1907424508485
 30
0.0
  0
VERTEX
  5
2C4
330
229
100
AcDbEntity
  8
Make2D$可见线$普通线
100
AcDbVertex
100
AcDb2dVertex
 10
436.3763441254147
 20
685.1871811876911
 30
0.0
  0
VERTEX
  5
2C5
330
229
100
AcDbEntity
  8
Make2D$可见线$普通线
100
AcDbVertex
100
AcDb2dVertex
 10
436.3888653257089
 20
685.183624345702
 30
0.0
  0
VERTEX
  5
2C6
330
229
100
AcDbEntity
  8
Make2D$可见线$普通线
100
AcDbVertex
100
AcDb2dVertex
 10
436.4026931928654
 20
685.1800724158985
 30
0.0
  0
VERTEX
  5
2C7
330
229
100
AcDbEntity
  8
Make2D$可见线$普通线
100
AcDbVertex
100
AcDb2dVertex
 10
436.4178247495994
 20
685.1765258892979
 30
0.0
  0
VERTEX
  5
2C8
330
229
100
AcDbEntity
  8
Make2D$可见线$普通线
100
AcDbVertex
100
AcDb2dVertex
 10
436.4519870226625
 20
685.1694510097741
 30
0.0
  0
VERTEX
  5
2C9
330
229
100
AcDbEntity
  8
Make2D$可见线$普通线
100
AcDbVertex
100
AcDb2dVertex
 10
436.4913283266221
 20
685.1624036352687
 30
0.0
  0
VERTEX
  5
2CA
330
229
100
AcDbEntity
  8
Make2D$可见线$普通线
100
AcDbVertex
100
AcDb2dVertex
 10
436.5854527541271
 20
685.148407113865
 30
0.0
  0
VERTEX
  5
2CB
330
229
100
AcDbEntity
  8
Make2D$可见线$普通线
100
AcDbVertex
100
AcDb2dVertex
 10
436.700007485907
 20
685.1345677501915
 30
0.0
  0
VERTEX
  5
2CC
330
229
100
AcDbEntity
  8
Make2D$可见线$普通线
100
AcDbVertex
100
AcDb2dVertex
 10
436.9896456774601
 20
685.1074861964523
 30
0.0
  0
VERTEX
  5
2CD
330
229
100
AcDbEntity
  8
Make2D$可见线$普通线
100
AcDbVertex
100
AcDb2dVertex
 10
437.8830347325479
 20
685.0525247682374
 30
0.0
  0
VERTEX
  5
2CE
330
229
100
AcDbEntity
  8
Make2D$可见线$普通线
100
AcDbVertex
100
AcDb2dVertex
 10
439.105107278153
 20
685.0044719829054
 30
0.0
  0
VERTEX
  5
2CF
330
229
100
AcDbEntity
  8
Make2D$可见线$普通线
100
AcDbVertex
100
AcDb2dVertex
 10
440.6075254674827
 20
684.9653856685229
 30
0.0
  0
VERTEX
  5
2D0
330
229
100
AcDbEntity
  8
Make2D$可见线$普通线
100
AcDbVertex
100
AcDb2dVertex
 10
442.3259492568892
 20
684.9368118448197
 30
0.0
  0
VERTEX
  5
2D1
330
229
100
AcDbEntity
  8
Make2D$可见线$普通线
100
AcDbVertex
100
AcDb2dVertex
 10
444.0429976741387
 20
684.9208738477575
 30
0.0
  0
VERTEX
  5
2D2
330
229
100
AcDbEntity
  8
Make2D$可见线$普通线
100
AcDbVertex
100
AcDb2dVertex
 10
445.8229445835032
 20
684.9154883246603
 30
0.0
  0
VERTEX
  5
2D3
330
229
100
AcDbEntity
  8
Make2D$可见线$普通线
100
AcDbVertex
100
AcDb2dVertex
 10
447.6028914928742
 20
684.9208738477578
 30
0.0
  0
VERTEX
  5
2D4
330
229
100
AcDbEntity
  8
Make2D$可见线$普通线
100
AcDbVertex
100
AcDb2dVertex
 10
449.3199399100732
 20
684.9368118448181
 30
0.0
  0
VERTEX
  5
2D5
330
229
100
AcDbEntity
  8
Make2D$可见线$普通线
100
AcDbVertex
100
AcDb2dVertex
 10
451.0383636996389
 20
684.9653856685266
 30
0.0
  0
VERTEX
  5
2D6
330
229
100
AcDbEntity
  8
Make2D$可见线$普通线
100
AcDbVertex
100
AcDb2dVertex
 10
452.5407818891044
 20
685.0044719829134
 30
0.0
  0
VERTEX
  5
2D7
330
229
100
AcDbEntity
  8
Make2D$可见线$普通线
100
AcDbVertex
100
AcDb2dVertex
 10
453.7628544345703
 20
685.052524768241
 30
0.0
  0
VERTEX
  5
2D8
330
229
100
AcDbEntity
  8
Make2D$可见线$普通线
100
AcDbVertex
100
AcDb2dVertex
 10
454.6562434894991
 20
685.107486196451
 30
0.0
  0
VERTEX
  5
2D9
330
229
100
AcDbEntity
  8
Make2D$可见线$普通线
100
AcDbVertex
100
AcDb2dVertex
 10
454.9458816810642
 20
685.1345677501906
 30
0.0
  0
VERTEX
  5
2DA
330
229
100
AcDbEntity
  8
Make2D$可见线$普通线
100
AcDbVertex
100
AcDb2dVertex
 10
455.0604364128645
 20
685.1484071138647
 30
0.0
  0
VERTEX
  5
2DB
330
229
100
AcDbEntity
  8
Make2D$可见线$普通线
100
AcDbVertex
100
AcDb2dVertex
 10
455.154560840392
 20
685.1624036352688
 30
0.0
  0
VERTEX
  5
2DC
330
229
100
AcDbEntity
  8
Make2D$可见线$普通线
100
AcDbVertex
100
AcDb2dVertex
 10
455.1939021443617
 20
685.1694510097745
 30
0.0
  0
VERTEX
  5
2DD
330
229
100
AcDbEntity
  8
Make2D$可见线$普通线
100
AcDbVertex
100
AcDb2dVertex
 10
455.2280644174331
 20
685.1765258892985
 30
0.0
  0
VERTEX
  5
2DE
330
229
100
AcDbEntity
  8
Make2D$可见线$普通线
100
AcDbVertex
100
AcDb2dVertex
 10
455.2431959741705
 20
685.1800724158993
 30
0.0
  0
VERTEX
  5
2DF
330
229
100
AcDbEntity
  8
Make2D$可见线$普通线
100
AcDbVertex
100
AcDb2dVertex
 10
455.2570238413296
 20
685.1836243457028
 30
0.0
  0
VERTEX
  5
2E0
330
229
100
AcDbEntity
  8
Make2D$可见线$普通线
100
AcDbVertex
100
AcDb2dVertex
 10
455.2695450416257
 20
685.187181187692
 30
0.0
  0
VERTEX
  5
2E1
330
229
100
AcDbEntity
  8
Make2D$可见线$普通线
100
AcDbVertex
100
AcDb2dVertex
 10
455.2807565977744
 20
685.1907424508494
 30
0.0
  0
VERTEX
  5
2E2
330
229
100
AcDbEntity
  8
Make2D$可见线$普通线
100
AcDbVertex
100
AcDb2dVertex
 10
455.2858703288919
 20
685.1925245869232
 30
0.0
  0
VERTEX
  5
2E3
330
229
100
AcDbEntity
  8
Make2D$可见线$普通线
100
AcDbVertex
100
AcDb2dVertex
 10
455.2906555324909
 20
685.1943076441578
 30
0.0
  0
VERTEX
  5
2E4
330
229
100
AcDbEntity
  8
Make2D$可见线$普通线
100
AcDbVertex
100
AcDb2dVertex
 10
455.2951118364107
 20
685.1960915611758
 30
0.0
  0
VERTEX
  5
2E5
330
229
100
AcDbEntity
  8
Make2D$可见线$普通线
100
AcDbVertex
100
AcDb2dVertex
 10
455.2992388684908
 20
685.1978762766
 30
0.0
  0
VERTEX
  5
2E6
330
229
100
AcDbEntity
  8
Make2D$可见线$普通线
100
AcDbVertex
100
AcDb2dVertex
 10
455.3030362565705
 20
685.1996617290534
 30
0.0
  0
VERTEX
  5
2E7
330
229
100
AcDbEntity
  8
Make2D$可见线$普通线
100
AcDbVertex
100
AcDb2dVertex
 10
455.3048112178101
 20
685.2005547124858
 30
0.0
  0
VERTEX
  5
2E8
330
229
100
AcDbEntity
  8
Make2D$可见线$普通线
100
AcDbVertex
100
AcDb2dVertex
 10
455.3065036284894
 20
685.2014478571589
 30
0.0
  0
VERTEX
  5
2E9
330
229
100
AcDbEntity
  8
Make2D$可见线$普通线
100
AcDbVertex
100
AcDb2dVertex
 10
455.3081134420883
 20
685.2023411554007
 30
0.0
  0
VERTEX
  5
2EA
330
229
100
AcDbEntity
  8
Make2D$可见线$普通线
100
AcDbVertex
100
AcDb2dVertex
 10
455.3096406120868
 20
685.203234599539
 30
0.0
  0
VERTEX
  5
2EB
330
229
100
AcDbEntity
  8
Make2D$可见线$普通线
100
AcDbVertex
100
AcDb2dVertex
 10
455.3110850919647
 20
685.2041281819018
 30
0.0
  0
VERTEX
  5
2EC
330
229
100
AcDbEntity
  8
Make2D$可见线$普通线
100
AcDbVertex
100
AcDb2dVertex
 10
455.3124468352022
 20
685.2050218948167
 30
0.0
  0
VERTEX
  5
2ED
330
229
100
AcDbEntity
  8
Make2D$可见线$普通线
100
AcDbVertex
100
AcDb2dVertex
 10
455.313725795279
 20
685.2059157306118
 30
0.0
  0
VERTEX
  5
2EE
330
229
100
AcDbEntity
  8
Make2D$可见线$普通线
100
AcDbVertex
100
AcDb2dVertex
 10
455.314921925675
 20
685.2068096816149
 30
0.0
  0
VERTEX
  5
2EF
330
229
100
AcDbEntity
  8
Make2D$可见线$普通线
100
AcDbVertex
100
AcDb2dVertex
 10
455.3154889152052
 20
685.207256697922
 30
0.0
  0
VERTEX
  5
2F0
330
229
100
AcDbEntity
  8
Make2D$可见线$普通线
100
AcDbVertex
100
AcDb2dVertex
 10
455.3160351798702
 20
685.2077037401539
 30
0.0
  0
VERTEX
  5
2F1
330
229
100
AcDbEntity
  8
Make2D$可见线$普通线
100
AcDbVertex
100
AcDb2dVertex
 10
455.316560713855
 20
685.2081508073518
 30
0.0
  0
VERTEX
  5
2F2
330
229
100
AcDbEntity
  8
Make2D$可见线$普通线
100
AcDbVertex
100
AcDb2dVertex
 10
455.3170655113445
 20
685.2085978985567
 30
0.0
  0
VERTEX
  5
2F3
330
229
100
AcDbEntity
  8
Make2D$可见线$普通线
100
AcDbVertex
100
AcDb2dVertex
 10
455.3175495665239
 20
685.2090450128094
 30
0.0
  0
VERTEX
  5
2F4
330
229
100
AcDbEntity
  8
Make2D$可见线$普通线
100
AcDbVertex
100
AcDb2dVertex
 10
455.318012873578
 20
685.209492149151
 30
0.0
  0
VERTEX
  5
2F5
330
229
100
AcDbEntity
  8
Make2D$可见线$普通线
100
AcDbVertex
100
AcDb2dVertex
 10
455.3184554266918
 20
685.2099393066223
 30
0.0
  0
VERTEX
  5
2F6
330
229
100
AcDbEntity
  8
Make2D$可见线$普通线
100
AcDbVertex
100
AcDb2dVertex
 10
455.3188772200504
 20
685.2103864842645
 30
0.0
  0
VERTEX
  5
2F7
330
229
100
AcDbEntity
  8
Make2D$可见线$普通线
100
AcDbVertex
100
AcDb2dVertex
 10
455.3192782478387
 20
685.2108336811186
 30
0.0
  0
VERTEX
  5
2F8
330
229
100
AcDbEntity
  8
Make2D$可见线$普通线
100
AcDbVertex
100
AcDb2dVertex
 10
455.3196585042417
 20
685.2112808962254
 30
0.0
  0
VERTEX
  5
2F9
330
229
100
AcDbEntity
  8
Make2D$可见线$普通线
100
AcDbVertex
100
AcDb2dVertex
 10
455.3200179834445
 20
685.2117281286261
 30
0.0
  0
VERTEX
  5
2FA
330
229
100
AcDbEntity
  8
Make2D$可见线$普通线
100
AcDbVertex
100
AcDb2dVertex
 10
455.3203566796319
 20
685.2121753773614
 30
0.0
  0
VERTEX
  5
2FB
330
229
100
AcDbEntity
  8
Make2D$可见线$普通线
100
AcDbVertex
100
AcDb2dVertex
 10
455.3206745869891
 20
685.2126226414724
 30
0.0
  0
VERTEX
  5
2FC
330
229
100
AcDbEntity
  8
Make2D$可见线$普通线
100
AcDbVertex
100
AcDb2dVertex
 10
455.3209716997009
 20
685.2130699200003
 30
0.0
  0
VERTEX
  5
2FD
330
229
100
AcDbEntity
  8
Make2D$可见线$普通线
100
AcDbVertex
100
AcDb2dVertex
 10
455.3212480119524
 20
685.213517211986
 30
0.0
  0
VERTEX
  5
2FE
330
229
100
AcDbEntity
  8
Make2D$可见线$普通线
100
AcDbVertex
100
AcDb2dVertex
 10
455.3215035179285
 20
685.2139645164702
 30
0.0
  0
VERTEX
  5
2FF
330
229
100
AcDbEntity
  8
Make2D$可见线$普通线
100
AcDbVertex
100
AcDb2dVertex
 10
455.3217382118143
 20
685.2144118324943
 30
0.0
  0
VERTEX
  5
300
330
229
100
AcDbEntity
  8
Make2D$可见线$普通线
100
AcDbVertex
100
AcDb2dVertex
 10
455.3219520877948
 20
685.2148591590988
 30
0.0
  0
VERTEX
  5
301
330
229
100
AcDbEntity
  8
Make2D$可见线$普通线
100
AcDbVertex
100
AcDb2dVertex
 10
455.3221451400548
 20
685.215306495325
 30
0.0
  0
VERTEX
  5
302
330
229
100
AcDbEntity
  8
Make2D$可见线$普通线
100
AcDbVertex
100
AcDb2dVertex
 10
455.3223173627796
 20
685.2157538402137
 30
0.0
  0
VERTEX
  5
303
330
229
100
AcDbEntity
  8
Make2D$可见线$普通线
100
AcDbVertex
100
AcDb2dVertex
 10
455.322468750154
 20
685.216201192806
 30
0.0
  0
VERTEX
  5
304
330
229
100
AcDbEntity
  8
Make2D$可见线$普通线
100
AcDbVertex
100
AcDb2dVertex
 10
455.322599296363
 20
685.216648552143
 30
0.0
  0
VERTEX
  5
305
330
229
100
AcDbEntity
  8
Make2D$可见线$普通线
100
AcDbVertex
100
AcDb2dVertex
 10
455.3227089955915
 20
685.2170959172656
 30
0.0
  0
VERTEX
  5
306
330
229
100
AcDbEntity
  8
Make2D$可见线$普通线
100
AcDbVertex
100
AcDb2dVertex
 10
455.3227978420247
 20
685.2175432872148
 30
0.0
  0
VERTEX
  5
307
330
229
100
AcDbEntity
  8
Make2D$可见线$普通线
100
AcDbVertex
100
AcDb2dVertex
 10
455.3228658298475
 20
685.2179906610313
 30
0.0
  0
VERTEX
  5
308
330
229
100
AcDbEntity
  8
Make2D$可见线$普通线
100
AcDbVertex
100
AcDb2dVertex
 10
455.3229129532448
 20
685.2184380377564
 30
0.0
  0
VERTEX
  5
309
330
229
100
AcDbEntity
  8
Make2D$可见线$普通线
100
AcDbVertex
100
AcDb2dVertex
 10
455.3229392064017
 20
685.218885416431
 30
0.0
  0
VERTEX
  5
30A
330
229
100
AcDbEntity
  8
Make2D$可见线$普通线
100
AcDbVertex
100
AcDb2dVertex
 10
455.3229445835032
 20
685.2193327960961
 30
0.0
  0
SEQEND
  5
30B
330
229
100
AcDbEntity
  8
Make2D$可见线$普通线
  0
SPLINE
  5
30C
330
1F
100
AcDbEntity
  8
Make2D$可见线$普通线
100
AcDbSpline
210
0.0
220
0.0
230
1.0
 70
    15
 71
     2
 72
    12
 73
     9
 74
     0
 42
0.000000001
 43
0.0000000001
 12
1.0
 22
0.0
 32
0.0
 13
1.0
 23
0.0
 33
0.0
 40
-6.283185307179586
 40
-6.283185307179586
 40
-6.283185307179586
 40
-4.71238898038469
 40
-4.71238898038469
 40
-3.29800995055494
 40
-3.29800995055494
 40
-1.727213623760044
 40
-1.727213623760044
 40
-0.3128345939302941
 40
-0.3128345939302941
 40
-0.3128345939302941
 10
440.8731971151974
 20
685.0610219115437
 30
0.0
 41
1.0
 10
441.580303896384
 20
685.0384060708932
 30
0.0
 41
0.7071067811865476
 10
440.8731971151974
 20
685.0157902302429
 30
0.0
 41
1.0
 10
440.1660903340107
 20
684.997051365524
 30
0.0
 41
0.9996490397951461
 10
439.4589835528241
 20
685.0157902302429
 30
0.0
 41
1.0
 10
438.7518767716377
 20
685.0384060708932
 30
0.0
 41
0.7071067811865476
 10
439.4589835528241
 20
685.0610219115437
 30
0.0
 41
1.0
 10
440.1660903340108
 20
685.0797607762624
 30
0.0
 41
0.999649039795146
 10
440.8731971151974
 20
685.0610219115437
 30
0.0
 41
1.0
  0
SPLINE
  5
30D
330
1F
100
AcDbEntity
  8
Make2D$可见线$普通线
100
AcDbSpline
210
0.0
220
0.0
230
1.0
 70
    15
 71
     2
 72
    12
 73
     9
 74
     0
 42
0.000000001
 43
0.0000000001
 12
1.0
 22
0.0
 32
0.0
 13
1.0
 23
0.0
 33
0.0
 40
-6.283185307179586
 40
-6.283185307179586
 40
-6.283185307179586
 40
-4.71238898038469
 40
-4.71238898038469
 40
-3.141592653589793
 40
-3.141592653589793
 40
-1.570796326794897
 40
-1.570796326794897
 40
0.0
 40
0.0
 40
0.0
 10
445.8229445835032
 20
684.9954473960908
 30
0.0
 41
1.0
 10
446.822944583503
 20
684.9954473960908
 30
0.0
 41
0.7071067811865476
 10
446.8229445835032
 20
684.9634637675186
 30
0.0
 41
1.0
 10
446.822944583503
 20
684.9314801389463
 30
0.0
 41
0.7071067811865476
 10
445.8229445835032
 20
684.9314801389463
 30
0.0
 41
1.0
 10
444.822944583503
 20
684.9314801389463
 30
0.0
 41
0.7071067811865476
 10
444.8229445835032
 20
684.9634637675186
 30
0.0
 41
1.0
 10
444.822944583503
 20
684.9954473960908
 30
0.0
 41
0.7071067811865476
 10
445.8229445835032
 20
684.9954473960908
 30
0.0
 41
1.0
  0
SPLINE
  5
30E
330
1F
100
AcDbEntity
  8
Make2D$可见线$普通线
100
AcDbSpline
210
0.0
220
0.0
230
1.0
 70
    15
 71
     2
 72
    12
 73
     9
 74
     0
 42
0.000000001
 43
0.0000000001
 12
1.0
 22
0.0
 32
0.0
 13
1.0
 23
0.0
 33
0.0
 40
0.0
 40
0.0
 40
0.0
 40
1.414379029829749
 40
1.414379029829749
 40
2.985175356624646
 40
2.985175356624646
 40
4.399554386454396
 40
4.399554386454396
 40
5.970350713249292
 40
5.970350713249292
 40
5.970350713249292
 10
450.7726920518089
 20
685.0610219115437
 30
0.0
 41
1.0
 10
451.4797988329956
 20
685.0797607762624
 30
0.0
 41
0.999649039795146
 10
452.1869056141823
 20
685.0610219115437
 30
0.0
 41
1.0
 10
452.8940123953687
 20
685.0384060708932
 30
0.0
 41
0.7071067811865476
 10
452.1869056141823
 20
685.0157902302429
 30
0.0
 41
1.0
 10
451.4797988329955
 20
684.997051365524
 30
0.0
 41
0.9996490397951461
 10
450.7726920518089
 20
685.0157902302429
 30
0.0
 41
1.0
 10
450.0655852706225
 20
685.0384060708932
 30
0.0
 41
0.7071067811865476
 10
450.7726920518089
 20
685.0610219115437
 30
0.0
 41
1.0
  0
SPLINE
  5
30F
330
1F
100
AcDbEntity
  8
Make2D$可见线$普通线
100
AcDbSpline
210
0.0
220
0.0
230
1.0
 70
    15
 71
     2
 72
    12
 73
     9
 74
     0
 42
0.000000001
 43
0.0000000001
 12
1.0
 22
0.0
 32
0.0
 13
1.0
 23
0.0
 33
0.0
 40
-6.283185307179586
 40
-6.283185307179586
 40
-6.283185307179586
 40
-4.71238898038469
 40
-4.71238898038469
 40
-3.141592653589793
 40
-3.141592653589793
 40
-1.570796326794897
 40
-1.570796326794897
 40
0.0
 40
0.0
 40
0.0
 10
452.8229445835032
 20
685.2193327960961
 30
0.0
 41
1.0
 10
452.8229445835031
 20
685.2513164246682
 30
0.0
 41
0.7071067811865476
 10
453.8229445835032
 20
685.2513164246683
 30
0.0
 41
1.0
 10
454.8229445835031
 20
685.2513164246682
 30
0.0
 41
0.7071067811865476
 10
454.8229445835032
 20
685.2193327960961
 30
0.0
 41
1.0
 10
454.8229445835031
 20
685.1873491675238
 30
0.0
 41
0.7071067811865476
 10
453.8229445835032
 20
685.1873491675238
 30
0.0
 41
1.0
 10
452.8229445835031
 20
685.1873491675238
 30
0.0
 41
0.7071067811865476
 10
452.8229445835032
 20
685.2193327960961
 30
0.0
 41
1.0
  0
SPLINE
  5
310
330
1F
100
AcDbEntity
  8
Make2D$可见线$普通线
100
AcDbSpline
210
0.0
220
0.0
230
1.0
 70
    15
 71
     2
 72
    12
 73
     9
 74
     0
 42
0.000000001
 43
0.0000000001
 12
1.0
 22
0.0
 32
0.0
 13
1.0
 23
0.0
 33
0.0
 40
-6.283185307179586
 40
-6.283185307179586
 40
-6.283185307179586
 40
-4.71238898038469
 40
-4.71238898038469
 40
-3.29800995055494
 40
-3.29800995055494
 40
-1.727213623760044
 40
-1.727213623760044
 40
-0.3128345939302939
 40
-0.3128345939302939
 40
-0.3128345939302939
 10
450.7726920518089
 20
685.3776436806485
 30
0.0
 41
1.0
 10
450.0655852706225
 20
685.4002595212988
 30
0.0
 41
0.7071067811865476
 10
450.7726920518089
 20
685.4228753619492
 30
0.0
 41
1.0
 10
451.4797988329956
 20
685.4416142266682
 30
0.0
 41
0.999649039795146
 10
452.1869056141823
 20
685.4228753619492
 30
0.0
 41
1.0
 10
452.8940123953687
 20
685.4002595212988
 30
0.0
 41
0.7071067811865476
 10
452.1869056141823
 20
685.3776436806485
 30
0.0
 41
1.0
 10
451.4797988329955
 20
685.3589048159298
 30
0.0
 41
0.9996490397951461
 10
450.7726920518089
 20
685.3776436806485
 30
0.0
 41
1.0
  0
SPLINE
  5
311
330
1F
100
AcDbEntity
  8
Make2D$可见线$普通线
100
AcDbSpline
210
0.0
220
0.0
230
1.0
 70
    15
 71
     2
 72
    12
 73
     9
 74
     0
 42
0.000000001
 43
0.0000000001
 12
1.0
 22
0.0
 32
0.0
 13
1.0
 23
0.0
 33
0.0
 40
-6.283185307179586
 40
-6.283185307179586
 40
-6.283185307179586
 40
-4.71238898038469
 40
-4.71238898038469
 40
-3.141592653589793
 40
-3.141592653589793
 40
-1.570796326794897
 40
-1.570796326794897
 40
0.0
 40
0.0
 40
0.0
 10
445.8229445835032
 20
685.4432181961014
 30
0.0
 41
1.0
 10
444.822944583503
 20
685.4432181961013
 30
0.0
 41
0.7071067811865476
 10
444.8229445835032
 20
685.4752018246736
 30
0.0
 41
1.0
 10
444.822944583503
 20
685.5071854532457
 30
0.0
 41
0.7071067811865476
 10
445.8229445835032
 20
685.5071854532458
 30
0.0
 41
1.0
 10
446.822944583503
 20
685.5071854532457
 30
0.0
 41
0.7071067811865476
 10
446.8229445835032
 20
685.4752018246736
 30
0.0
 41
1.0
 10
446.822944583503
 20
685.4432181961013
 30
0.0
 41
0.7071067811865476
 10
445.8229445835032
 20
685.4432181961014
 30
0.0
 41
1.0
  0
SPLINE
  5
312
330
1F
100
AcDbEntity
  8
Make2D$可见线$普通线
100
AcDbSpline
210
0.0
220
0.0
230
1.0
 70
    15
 71
     2
 72
    12
 73
     9
 74
     0
 42
0.000000001
 43
0.0000000001
 12
1.0
 22
0.0
 32
0.0
 13
1.0
 23
0.0
 33
0.0
 40
0.0
 40
0.0
 40
0.0
 40
1.41437902982975
 40
1.41437902982975
 40
2.985175356624646
 40
2.985175356624646
 40
4.399554386454396
 40
4.399554386454396
 40
5.970350713249292
 40
5.970350713249292
 40
5.970350713249292
 10
440.8731971151974
 20
685.3776436806485
 30
0.0
 41
1.0
 10
440.1660903340107
 20
685.3589048159298
 30
0.0
 41
0.9996490397951461
 10
439.4589835528241
 20
685.3776436806485
 30
0.0
 41
1.0
 10
438.7518767716377
 20
685.4002595212988
 30
0.0
 41
0.7071067811865476
 10
439.4589835528241
 20
685.4228753619492
 30
0.0
 41
1.0
 10
440.1660903340108
 20
685.4416142266682
 30
0.0
 41
0.999649039795146
 10
440.8731971151974
 20
685.4228753619492
 30
0.0
 41
1.0
 10
441.580303896384
 20
685.4002595212988
 30
0.0
 41
0.7071067811865476
 10
440.8731971151974
 20
685.3776436806485
 30
0.0
 41
1.0
  0
SPLINE
  5
313
330
1F
100
AcDbEntity
  8
Make2D$可见线$普通线
100
AcDbSpline
210
0.0
220
0.0
230
1.0
 70
    15
 71
     2
 72
    12
 73
     9
 74
     0
 42
0.000000001
 43
0.0000000001
 12
1.0
 22
0.0
 32
0.0
 13
1.0
 23
0.0
 33
0.0
 40
-6.283185307179586
 40
-6.283185307179586
 40
-6.283185307179586
 40
-4.71238898038469
 40
-4.71238898038469
 40
-3.141592653589793
 40
-3.141592653589793
 40
-1.570796326794897
 40
-1.570796326794897
 40
0.0
 40
0.0
 40
0.0
 10
444.3229445835032
 20
685.1362368915499
 30
0.0
 41
1.0
 10
445.1889699872877
 20
685.1202450772638
 30
0.0
 41
0.7071067811865476
 10
444.6889699872877
 20
685.092546442415
 30
0.0
 41
1.0
 10
444.1889699872875
 20
685.0648478075664
 30
0.0
 41
0.7071067811865476
 10
443.3229445835032
 20
685.0808396218525
 30
0.0
 41
1.0
 10
442.4569191797187
 20
685.0968314361386
 30
0.0
 41
0.7071067811865476
 10
442.9569191797186
 20
685.1245300709874
 30
0.0
 41
1.0
 10
443.4569191797187
 20
685.152228705836
 30
0.0
 41
0.7071067811865476
 10
444.3229445835032
 20
685.1362368915499
 30
0.0
 41
1.0
  0
SPLINE
  5
314
330
1F
100
AcDbEntity
  8
Make2D$可见线$普通线
100
AcDbSpline
210
0.0
220
0.0
230
1.0
 70
    15
 71
     2
 72
    12
 73
     9
 74
     0
 42
0.000000001
 43
0.0000000001
 12
1.0
 22
0.0
 32
0.0
 13
1.0
 23
0.0
 33
0.0
 40
-6.283185307179586
 40
-6.283185307179586
 40
-6.283185307179586
 40
-4.71238898038469
 40
-4.71238898038469
 40
-3.141592653589793
 40
-3.141592653589793
 40
-1.570796326794897
 40
-1.570796326794897
 40
0.0
 40
0.0
 40
0.0
 10
447.3229445835032
 20
685.1362368915499
 30
0.0
 41
1.0
 10
448.1889699872875
 20
685.152228705836
 30
0.0
 41
0.7071067811865476
 10
448.6889699872877
 20
685.1245300709874
 30
0.0
 41
1.0
 10
449.1889699872875
 20
685.0968314361386
 30
0.0
 41
0.7071067811865476
 10
448.3229445835032
 20
685.0808396218525
 30
0.0
 41
1.0
 10
447.4569191797186
 20
685.0648478075664
 30
0.0
 41
0.7071067811865476
 10
446.9569191797186
 20
685.092546442415
 30
0.0
 41
1.0
 10
446.4569191797187
 20
685.1202450772638
 30
0.0
 41
0.7071067811865476
 10
447.3229445835032
 20
685.1362368915499
 30
0.0
 41
1.0
  0
SPLINE
  5
315
330
1F
100
AcDbEntity
  8
Make2D$可见线$普通线
100
AcDbSpline
210
0.0
220
0.0
230
1.0
 70
    15
 71
     2
 72
    12
 73
     9
 74
     0
 42
0.000000001
 43
0.0000000001
 12
1.0
 22
0.0
 32
0.0
 13
1.0
 23
0.0
 33
0.0
 40
-6.283185307179586
 40
-6.283185307179586
 40
-6.283185307179586
 40
-4.71238898038469
 40
-4.71238898038469
 40
-3.141592653589793
 40
-3.141592653589793
 40
-1.570796326794897
 40
-1.570796326794897
 40
0.0
 40
0.0
 40
0.0
 10
448.8229445835032
 20
685.2193327960961
 30
0.0
 41
1.0
 10
448.8229445835031
 20
685.2513164246682
 30
0.0
 41
0.7071067811865476
 10
449.8229445835032
 20
685.2513164246683
 30
0.0
 41
1.0
 10
450.8229445835031
 20
685.2513164246682
 30
0.0
 41
0.7071067811865476
 10
450.8229445835032
 20
685.2193327960961
 30
0.0
 41
1.0
 10
450.8229445835031
 20
685.1873491675238
 30
0.0
 41
0.7071067811865476
 10
449.8229445835032
 20
685.1873491675238
 30
0.0
 41
1.0
 10
448.8229445835031
 20
685.1873491675238
 30
0.0
 41
0.7071067811865476
 10
448.8229445835032
 20
685.2193327960961
 30
0.0
 41
1.0
  0
SPLINE
  5
316
330
1F
100
AcDbEntity
  8
Make2D$可见线$普通线
100
AcDbSpline
210
0.0
220
0.0
230
1.0
 70
    15
 71
     2
 72
    12
 73
     9
 74
     0
 42
0.000000001
 43
0.0000000001
 12
1.0
 22
0.0
 32
0.0
 13
1.0
 23
0.0
 33
0.0
 40
-6.283185307179586
 40
-6.283185307179586
 40
-6.283185307179586
 40
-4.71238898038469
 40
-4.71238898038469
 40
-3.141592653589793
 40
-3.141592653589793
 40
-1.570796326794897
 40
-1.570796326794897
 40
0.0
 40
0.0
 40
0.0
 10
447.3229445835032
 20
685.3024287006423
 30
0.0
 41
1.0
 10
446.4569191797187
 20
685.3184205149283
 30
0.0
 41
0.7071067811865476
 10
446.9569191797186
 20
685.3461191497771
 30
0.0
 41
1.0
 10
447.4569191797186
 20
685.3738177846258
 30
0.0
 41
0.7071067811865476
 10
448.3229445835032
 20
685.3578259703397
 30
0.0
 41
1.0
 10
449.1889699872875
 20
685.3418341560536
 30
0.0
 41
0.7071067811865476
 10
448.6889699872877
 20
685.3141355212049
 30
0.0
 41
1.0
 10
448.1889699872875
 20
685.2864368863561
 30
0.0
 41
0.7071067811865476
 10
447.3229445835032
 20
685.3024287006423
 30
0.0
 41
1.0
  0
SPLINE
  5
317
330
1F
100
AcDbEntity
  8
Make2D$可见线$普通线
100
AcDbSpline
210
0.0
220
0.0
230
1.0
 70
    15
 71
     2
 72
    12
 73
     9
 74
     0
 42
0.000000001
 43
0.0000000001
 12
1.0
 22
0.0
 32
0.0
 13
1.0
 23
0.0
 33
0.0
 40
-6.283185307179586
 40
-6.283185307179586
 40
-6.283185307179586
 40
-4.71238898038469
 40
-4.71238898038469
 40
-3.141592653589793
 40
-3.141592653589793
 40
-1.570796326794897
 40
-1.570796326794897
 40
0.0
 40
0.0
 40
0.0
 10
444.3229445835032
 20
685.3024287006423
 30
0.0
 41
1.0
 10
443.4569191797187
 20
685.2864368863561
 30
0.0
 41
0.7071067811865476
 10
442.9569191797186
 20
685.3141355212049
 30
0.0
 41
1.0
 10
442.4569191797187
 20
685.3418341560536
 30
0.0
 41
0.7071067811865476
 10
443.3229445835032
 20
685.3578259703397
 30
0.0
 41
1.0
 10
444.1889699872875
 20
685.3738177846258
 30
0.0
 41
0.7071067811865476
 10
444.6889699872877
 20
685.3461191497771
 30
0.0
 41
1.0
 10
445.1889699872877
 20
685.3184205149283
 30
0.0
 41
0.7071067811865476
 10
444.3229445835032
 20
685.3024287006423
 30
0.0
 41
1.0
  0
SPLINE
  5
318
330
1F
100
AcDbEntity
  8
Make2D$可见线$普通线
100
AcDbSpline
210
0.0
220
0.0
230
1.0
 70
    15
 71
     2
 72
    12
 73
     9
 74
     0
 42
0.000000001
 43
0.0000000001
 12
1.0
 22
0.0
 32
0.0
 13
1.0
 23
0.0
 33
0.0
 40
-6.283185307179586
 40
-6.283185307179586
 40
-6.283185307179586
 40
-4.71238898038469
 40
-4.71238898038469
 40
-3.141592653589793
 40
-3.141592653589793
 40
-1.570796326794897
 40
-1.570796326794897
 40
0.0
 40
0.0
 40
0.0
 10
438.8229445835032
 20
685.2193327960961
 30
0.0
 41
1.0
 10
438.8229445835032
 20
685.1873491675238
 30
0.0
 41
0.7071067811865476
 10
437.8229445835032
 20
685.1873491675238
 30
0.0
 41
1.0
 10
436.8229445835032
 20
685.1873491675238
 30
0.0
 41
0.7071067811865476
 10
436.8229445835032
 20
685.2193327960961
 30
0.0
 41
1.0
 10
436.8229445835032
 20
685.2513164246682
 30
0.0
 41
0.7071067811865476
 10
437.8229445835032
 20
685.2513164246683
 30
0.0
 41
1.0
 10
438.8229445835032
 20
685.2513164246682
 30
0.0
 41
0.7071067811865476
 10
438.8229445835032
 20
685.2193327960961
 30
0.0
 41
1.0
  0
SPLINE
  5
319
330
1F
100
AcDbEntity
  8
Make2D$可见线$普通线
100
AcDbSpline
210
0.0
220
0.0
230
1.0
 70
    15
 71
     2
 72
    12
 73
     9
 74
     0
 42
0.000000001
 43
0.0000000001
 12
1.0
 22
0.0
 32
0.0
 13
1.0
 23
0.0
 33
0.0
 40
-6.283185307179586
 40
-6.283185307179586
 40
-6.283185307179586
 40
-4.71238898038469
 40
-4.71238898038469
 40
-3.141592653589793
 40
-3.141592653589793
 40
-1.570796326794897
 40
-1.570796326794897
 40
0.0
 40
0.0
 40
0.0
 10
446.8229445835032
 20
685.2193327960961
 30
0.0
 41
1.0
 10
446.822944583503
 20
685.1873491675238
 30
0.0
 41
0.7071067811865476
 10
445.8229445835032
 20
685.1873491675238
 30
0.0
 41
1.0
 10
444.822944583503
 20
685.1873491675238
 30
0.0
 41
0.7071067811865476
 10
444.8229445835032
 20
685.2193327960961
 30
0.0
 41
1.0
 10
444.822944583503
 20
685.2513164246682
 30
0.0
 41
0.7071067811865476
 10
445.8229445835032
 20
685.2513164246683
 30
0.0
 41
1.0
 10
446.822944583503
 20
685.2513164246682
 30
0.0
 41
0.7071067811865476
 10
446.8229445835032
 20
685.2193327960961
 30
0.0
 41
1.0
  0
SPLINE
  5
31A
330
1F
100
AcDbEntity
  8
Make2D$可见线$普通线
100
AcDbSpline
210
0.0
220
0.0
230
1.0
 70
    15
 71
     2
 72
    12
 73
     9
 74
     0
 42
0.000000001
 43
0.0000000001
 12
1.0
 22
0.0
 32
0.0
 13
1.0
 23
0.0
 33
0.0
 40
-6.283185307179586
 40
-6.283185307179586
 40
-6.283185307179586
 40
-4.71238898038469
 40
-4.71238898038469
 40
-3.141592653589793
 40
-3.141592653589793
 40
-1.570796326794897
 40
-1.570796326794897
 40
0.0
 40
0.0
 40
0.0
 10
442.8229445835032
 20
685.2193327960961
 30
0.0
 41
1.0
 10
442.822944583503
 20
685.1873491675238
 30
0.0
 41
0.7071067811865476
 10
441.8229445835032
 20
685.1873491675238
 30
0.0
 41
1.0
 10
440.8229445835032
 20
685.1873491675238
 30
0.0
 41
0.7071067811865476
 10
440.8229445835032
 20
685.2193327960961
 30
0.0
 41
1.0
 10
440.8229445835032
 20
685.2513164246682
 30
0.0
 41
0.7071067811865476
 10
441.8229445835032
 20
685.2513164246683
 30
0.0
 41
1.0
 10
442.822944583503
 20
685.2513164246682
 30
0.0
 41
0.7071067811865476
 10
442.8229445835032
 20
685.2193327960961
 30
0.0
 41
1.0
  0
POLYLINE
  5
31B
330
1F
100
AcDbEntity
  8
Make2D$可见线$普通线
100
AcDb2dPolyline
 66
     1
 10
0.0
 20
0.0
 30
0.0
  0
VERTEX
  5
31C
330
31B
100
AcDbEntity
  8
Make2D$可见线$普通线
100
AcDbVertex
100
AcDb2dVertex
 10
424.3229445835032
 20
691.2446703289615
 30
0.0
  0
VERTEX
  5
31D
330
31B
100
AcDbEntity
  8
Make2D$可见线$普通线
100
AcDbVertex
100
AcDb2dVertex
 10
424.3229445835032
 20
685.579038925145
 30
0.0
 42
0.3549016440139658
  0
VERTEX
  5
31E
330
31B
100
AcDbEntity
  8
Make2D$可见线$普通线
100
AcDbVertex
100
AcDb2dVertex
 10
425.1175915327299
 20
684.6009476093751
 30
0.0
  0
SEQEND
  5
31F
330
31B
100
AcDbEntity
  8
Make2D$可见线$普通线
  0
POLYLINE
  5
320
330
1F
100
AcDbEntity
  8
Make2D$可见线$普通线
100
AcDb2dPolyline
 66
     1
 10
0.0
 20
0.0
 30
0.0
  0
VERTEX
  5
321
330
320
100
AcDbEntity
  8
Make2D$可见线$普通线
100
AcDbVertex
100
AcDb2dVertex
 10
466.5282990145716
 20
684.6009478986649
 30
0.0
 42
0.3549011631313874
  0
VERTEX
  5
322
330
320
100
AcDbEntity
  8
Make2D$可见线$普通线
100
AcDbVertex
100
AcDb2dVertex
 10
467.3229445835031
 20
685.5790389251456
 30
0.0
  0
VERTEX
  5
323
330
320
100
AcDbEntity
  8
Make2D$可见线$普通线
100
AcDbVertex
100
AcDb2dVertex
 10
467.3229445835032
 20
691.2446703289614
 30
0.0
  0
SEQEND
  5
324
330
320
100
AcDbEntity
  8
Make2D$可见线$普通线
  0
POLYLINE
  5
325
330
1F
100
AcDbEntity
  8
Make2D$可见线$普通线
100
AcDb2dPolyline
 66
     1
 10
0.0
 20
0.0
 30
0.0
  0
VERTEX
  5
326
330
325
100
AcDbEntity
  8
Make2D$可见线$普通线
100
AcDbVertex
100
AcDb2dVertex
 10
433.2583464335341
 20
689.7474951402354
 30
0.0
  0
VERTEX
  5
327
330
325
100
AcDbEntity
  8
Make2D$可见线$普通线
100
AcDbVertex
100
AcDb2dVertex
 10
433.121068672808
 20
689.7673344051316
 30
0.0
  0
VERTEX
  5
328
330
325
100
AcDbEntity
  8
Make2D$可见线$普通线
100
AcDbVertex
100
AcDb2dVertex
 10
433.0422223544124
 20
689.780971714222
 30
0.0
  0
VERTEX
  5
329
330
325
100
AcDbEntity
  8
Make2D$可见线$普通线
100
AcDbVertex
100
AcDb2dVertex
 10
433.0072949475857
 20
689.7878204301596
 30
0.0
  0
VERTEX
  5
32A
330
325
100
AcDbEntity
  8
Make2D$可见线$普通线
100
AcDbVertex
100
AcDb2dVertex
 10
432.9753735315276
 20
689.7946870248587
 30
0.0
  0
VERTEX
  5
32B
330
325
100
AcDbEntity
  8
Make2D$可见线$普通线
100
AcDbVertex
100
AcDb2dVertex
 10
432.946464723129
 20
689.801569876694
 30
0.0
  0
VERTEX
  5
32C
330
325
100
AcDbEntity
  8
Make2D$可见线$普通线
100
AcDbVertex
100
AcDb2dVertex
 10
432.9205751392808
 20
689.8084673640403
 30
0.0
  0
VERTEX
  5
32D
330
325
100
AcDbEntity
  8
Make2D$可见线$普通线
100
AcDbVertex
100
AcDb2dVertex
 10
432.9087646243415
 20
689.8119210892723
 30
0.0
  0
VERTEX
  5
32E
330
325
100
AcDbEntity
  8
Make2D$可见线$普通线
100
AcDbVertex
100
AcDb2dVertex
 10
432.8977113968738
 20
689.8153778652725
 30
0.0
  0
VERTEX
  5
32F
330
325
100
AcDbEntity
  8
Make2D$可见线$普通线
100
AcDbVertex
100
AcDb2dVertex
 10
432.8874162839892
 20
689.818837489338
 30
0.0
  0
VERTEX
  5
330
330
325
100
AcDbEntity
  8
Make2D$可见线$普通线
100
AcDbVertex
100
AcDb2dVertex
 10
432.8778801127991
 20
689.8222997587652
 30
0.0
  0
VERTEX
  5
331
330
325
100
AcDbEntity
  8
Make2D$可见线$普通线
100
AcDbVertex
100
AcDb2dVertex
 10
432.8691037104147
 20
689.8257644708515
 30
0.0
  0
VERTEX
  5
332
330
325
100
AcDbEntity
  8
Make2D$可见线$普通线
100
AcDbVertex
100
AcDb2dVertex
 10
432.8610879039474
 20
689.8292314228934
 30
0.0
  0
VERTEX
  5
333
330
325
100
AcDbEntity
  8
Make2D$可见线$普通线
100
AcDbVertex
100
AcDb2dVertex
 10
432.8573654826549
 20
689.830965675553
 30
0.0
  0
VERTEX
  5
334
330
325
100
AcDbEntity
  8
Make2D$可见线$普通线
100
AcDbVertex
100
AcDb2dVertex
 10
432.8538335205085
 20
689.8327004121877
 30
0.0
  0
VERTEX
  5
335
330
325
100
AcDbEntity
  8
Make2D$可见线$普通线
100
AcDbVertex
100
AcDb2dVertex
 10
432.8504921208971
 20
689.8344356074599
 30
0.0
  0
VERTEX
  5
336
330
325
100
AcDbEntity
  8
Make2D$可见线$普通线
100
AcDbVertex
100
AcDb2dVertex
 10
432.8473413872096
 20
689.8361712360315
 30
0.0
  0
VERTEX
  5
337
330
325
100
AcDbEntity
  8
Make2D$可见线$普通线
100
AcDbVertex
100
AcDb2dVertex
 10
432.8443814228348
 20
689.8379072725647
 30
0.0
  0
VERTEX
  5
338
330
325
100
AcDbEntity
  8
Make2D$可见线$普通线
100
AcDbVertex
100
AcDb2dVertex
 10
432.8416123311618
 20
689.8396436917217
 30
0.0
  0
VERTEX
  5
339
330
325
100
AcDbEntity
  8
Make2D$可见线$普通线
100
AcDbVertex
100
AcDb2dVertex
 10
432.8390342155794
 20
689.8413804681643
 30
0.0
  0
VERTEX
  5
33A
330
325
100
AcDbEntity
  8
Make2D$可见线$普通线
100
AcDbVertex
100
AcDb2dVertex
 10
432.8378168061312
 20
689.8422489824497
 30
0.0
  0
VERTEX
  5
33B
330
325
100
AcDbEntity
  8
Make2D$可见线$普通线
100
AcDbVertex
100
AcDb2dVertex
 10
432.8366471794766
 20
689.843117576555
 30
0.0
  0
VERTEX
  5
33C
330
325
100
AcDbEntity
  8
Make2D$可见线$普通线
100
AcDbVertex
100
AcDb2dVertex
 10
432.8355253485391
 20
689.8439862473126
 30
0.0
  0
VERTEX
  5
33D
330
325
100
AcDbEntity
  8
Make2D$可见线$普通线
100
AcDbVertex
100
AcDb2dVertex
 10
432.8344513262423
 20
689.8448549915556
 30
0.0
  0
VERTEX
  5
33E
330
325
100
AcDbEntity
  8
Make2D$可见线$普通线
100
AcDbVertex
100
AcDb2dVertex
 10
432.8334251255098
 20
689.8457238061164
 30
0.0
  0
VERTEX
  5
33F
330
325
100
AcDbEntity
  8
Make2D$可见线$普通线
100
AcDbVertex
100
AcDb2dVertex
 10
432.8324467592654
 20
689.8465926878282
 30
0.0
  0
VERTEX
  5
340
330
325
100
AcDbEntity
  8
Make2D$可见线$普通线
100
AcDbVertex
100
AcDb2dVertex
 10
432.8315162404325
 20
689.8474616335234
 30
0.0
  0
VERTEX
  5
341
330
325
100
AcDbEntity
  8
Make2D$可见线$普通线
100
AcDbVertex
100
AcDb2dVertex
 10
432.8306335819348
 20
689.848330640035
 30
0.0
  0
VERTEX
  5
342
330
325
100
AcDbEntity
  8
Make2D$可见线$普通线
100
AcDbVertex
100
AcDb2dVertex
 10
432.8297987966959
 20
689.8491997041956
 30
0.0
  0
VERTEX
  5
343
330
325
100
AcDbEntity
  8
Make2D$可见线$普通线
100
AcDbVertex
100
AcDb2dVertex
 10
432.8290118976395
 20
689.8500688228381
 30
0.0
  0
VERTEX
  5
344
330
325
100
AcDbEntity
  8
Make2D$可见线$普通线
100
AcDbVertex
100
AcDb2dVertex
 10
432.8282728976891
 20
689.8509379927953
 30
0.0
  0
VERTEX
  5
345
330
325
100
AcDbEntity
  8
Make2D$可见线$普通线
100
AcDbVertex
100
AcDb2dVertex
 10
432.8275818097683
 20
689.8518072108997
 30
0.0
  0
VERTEX
  5
346
330
325
100
AcDbEntity
  8
Make2D$可见线$普通线
100
AcDbVertex
100
AcDb2dVertex
 10
432.8272542368577
 20
689.8522418370173
 30
0.0
  0
VERTEX
  5
347
330
325
100
AcDbEntity
  8
Make2D$可见线$普通线
100
AcDbVertex
100
AcDb2dVertex
 10
432.8269386468008
 20
689.8526764739843
 30
0.0
  0
VERTEX
  5
348
330
325
100
AcDbEntity
  8
Make2D$可见线$普通线
100
AcDbVertex
100
AcDb2dVertex
 10
432.8266350412132
 20
689.8531111214044
 30
0.0
  0
VERTEX
  5
349
330
325
100
AcDbEntity
  8
Make2D$可见线$普通线
100
AcDbVertex
100
AcDb2dVertex
 10
432.8263434217102
 20
689.8535457788818
 30
0.0
  0
VERTEX
  5
34A
330
325
100
AcDbEntity
  8
Make2D$可见线$普通线
100
AcDbVertex
100
AcDb2dVertex
 10
432.8260637899074
 20
689.8539804460206
 30
0.0
  0
VERTEX
  5
34B
330
325
100
AcDbEntity
  8
Make2D$可见线$普通线
100
AcDbVertex
100
AcDb2dVertex
 10
432.8257961474201
 20
689.854415122425
 30
0.0
  0
VERTEX
  5
34C
330
325
100
AcDbEntity
  8
Make2D$可见线$普通线
100
AcDbVertex
100
AcDb2dVertex
 10
432.8255404958639
 20
689.8548498076989
 30
0.0
  0
VERTEX
  5
34D
330
325
100
AcDbEntity
  8
Make2D$可见线$普通线
100
AcDbVertex
100
AcDb2dVertex
 10
432.8252968368541
 20
689.8552845014465
 30
0.0
  0
VERTEX
  5
34E
330
325
100
AcDbEntity
  8
Make2D$可见线$普通线
100
AcDbVertex
100
AcDb2dVertex
 10
432.8250651720064
 20
689.855719203272
 30
0.0
  0
VERTEX
  5
34F
330
325
100
AcDbEntity
  8
Make2D$可见线$普通线
100
AcDbVertex
100
AcDb2dVertex
 10
432.8248455029359
 20
689.8561539127792
 30
0.0
  0
VERTEX
  5
350
330
325
100
AcDbEntity
  8
Make2D$可见线$普通线
100
AcDbVertex
100
AcDb2dVertex
 10
432.8246378312583
 20
689.8565886295725
 30
0.0
  0
VERTEX
  5
351
330
325
100
AcDbEntity
  8
Make2D$可见线$普通线
100
AcDbVertex
100
AcDb2dVertex
 10
432.824442158589
 20
689.857023353256
 30
0.0
  0
VERTEX
  5
352
330
325
100
AcDbEntity
  8
Make2D$可见线$普通线
100
AcDbVertex
100
AcDb2dVertex
 10
432.8242584865434
 20
689.8574580834336
 30
0.0
  0
VERTEX
  5
353
330
325
100
AcDbEntity
  8
Make2D$可见线$普通线
100
AcDbVertex
100
AcDb2dVertex
 10
432.824086816737
 20
689.8578928197094
 30
0.0
  0
VERTEX
  5
354
330
325
100
AcDbEntity
  8
Make2D$可见线$普通线
100
AcDbVertex
100
AcDb2dVertex
 10
432.8239271507853
 20
689.8583275616877
 30
0.0
  0
VERTEX
  5
355
330
325
100
AcDbEntity
  8
Make2D$可见线$普通线
100
AcDbVertex
100
AcDb2dVertex
 10
432.8237794903037
 20
689.8587623089724
 30
0.0
  0
VERTEX
  5
356
330
325
100
AcDbEntity
  8
Make2D$可见线$普通线
100
AcDbVertex
100
AcDb2dVertex
 10
432.8236438369075
 20
689.8591970611676
 30
0.0
  0
VERTEX
  5
357
330
325
100
AcDbEntity
  8
Make2D$可见线$普通线
100
AcDbVertex
100
AcDb2dVertex
 10
432.8235201922125
 20
689.8596318178775
 30
0.0
  0
VERTEX
  5
358
330
325
100
AcDbEntity
  8
Make2D$可见线$普通线
100
AcDbVertex
100
AcDb2dVertex
 10
432.8234085578338
 20
689.8600665787062
 30
0.0
  0
VERTEX
  5
359
330
325
100
AcDbEntity
  8
Make2D$可见线$普通线
100
AcDbVertex
100
AcDb2dVertex
 10
432.8233089353871
 20
689.8605013432575
 30
0.0
  0
VERTEX
  5
35A
330
325
100
AcDbEntity
  8
Make2D$可见线$普通线
100
AcDbVertex
100
AcDb2dVertex
 10
432.8232213264878
 20
689.8609361111361
 30
0.0
  0
VERTEX
  5
35B
330
325
100
AcDbEntity
  8
Make2D$可见线$普通线
100
AcDbVertex
100
AcDb2dVertex
 10
432.8231457327512
 20
689.8613708819455
 30
0.0
  0
VERTEX
  5
35C
330
325
100
AcDbEntity
  8
Make2D$可见线$普通线
100
AcDbVertex
100
AcDb2dVertex
 10
432.8230821557929
 20
689.86180565529
 30
0.0
  0
VERTEX
  5
35D
330
325
100
AcDbEntity
  8
Make2D$可见线$普通线
100
AcDbVertex
100
AcDb2dVertex
 10
432.8230305972283
 20
689.8622404307739
 30
0.0
  0
VERTEX
  5
35E
330
325
100
AcDbEntity
  8
Make2D$可见线$普通线
100
AcDbVertex
100
AcDb2dVertex
 10
432.8229910586729
 20
689.8626752080011
 30
0.0
  0
VERTEX
  5
35F
330
325
100
AcDbEntity
  8
Make2D$可见线$普通线
100
AcDbVertex
100
AcDb2dVertex
 10
432.822963541742
 20
689.8631099865756
 30
0.0
  0
VERTEX
  5
360
330
325
100
AcDbEntity
  8
Make2D$可见线$普通线
100
AcDbVertex
100
AcDb2dVertex
 10
432.8229480480513
 20
689.8635447661015
 30
0.0
  0
VERTEX
  5
361
330
325
100
AcDbEntity
  8
Make2D$可见线$普通线
100
AcDbVertex
100
AcDb2dVertex
 10
432.822944579216
 20
689.8639795461833
 30
0.0
  0
VERTEX
  5
362
330
325
100
AcDbEntity
  8
Make2D$可见线$普通线
100
AcDbVertex
100
AcDb2dVertex
 10
432.822973561462
 20
689.8644454424818
 30
0.0
  0
VERTEX
  5
363
330
325
100
AcDbEntity
  8
Make2D$可见线$普通线
100
AcDbVertex
100
AcDb2dVertex
 10
432.8230120866388
 20
689.8649062778892
 30
0.0
  0
VERTEX
  5
364
330
325
100
AcDbEntity
  8
Make2D$可见线$普通线
100
AcDbVertex
100
AcDb2dVertex
 10
432.8230600152475
 20
689.8653621078382
 30
0.0
  0
VERTEX
  5
365
330
325
100
AcDbEntity
  8
Make2D$可见线$普通线
100
AcDbVertex
100
AcDb2dVertex
 10
432.8231172077896
 20
689.8658129877618
 30
0.0
  0
VERTEX
  5
366
330
325
100
AcDbEntity
  8
Make2D$可见线$普通线
100
AcDbVertex
100
AcDb2dVertex
 10
432.8231835247663
 20
689.8662589730927
 30
0.0
  0
VERTEX
  5
367
330
325
100
AcDbEntity
  8
Make2D$可见线$普通线
100
AcDbVertex
100
AcDb2dVertex
 10
432.823258826679
 20
689.8667001192637
 30
0.0
  0
VERTEX
  5
368
330
325
100
AcDbEntity
  8
Make2D$可见线$普通线
100
AcDbVertex
100
AcDb2dVertex
 10
432.823342974029
 20
689.8671364817073
 30
0.0
  0
VERTEX
  5
369
330
325
100
AcDbEntity
  8
Make2D$可见线$普通线
100
AcDbVertex
100
AcDb2dVertex
 10
432.8234358273176
 20
689.8675681158567
 30
0.0
  0
VERTEX
  5
36A
330
325
100
AcDbEntity
  8
Make2D$可见线$普通线
100
AcDbVertex
100
AcDb2dVertex
 10
432.8235372470461
 20
689.8679950771444
 30
0.0
  0
VERTEX
  5
36B
330
325
100
AcDbEntity
  8
Make2D$可见线$普通线
100
AcDbVertex
100
AcDb2dVertex
 10
432.8236470937159
 20
689.8684174210035
 30
0.0
  0
VERTEX
  5
36C
330
325
100
AcDbEntity
  8
Make2D$可见线$普通线
100
AcDbVertex
100
AcDb2dVertex
 10
432.8237652278282
 20
689.8688352028666
 30
0.0
  0
VERTEX
  5
36D
330
325
100
AcDbEntity
  8
Make2D$可见线$普通线
100
AcDbVertex
100
AcDb2dVertex
 10
432.8238915098843
 20
689.8692484781666
 30
0.0
  0
VERTEX
  5
36E
330
325
100
AcDbEntity
  8
Make2D$可见线$普通线
100
AcDbVertex
100
AcDb2dVertex
 10
432.8240258003856
 20
689.8696573023362
 30
0.0
  0
VERTEX
  5
36F
330
325
100
AcDbEntity
  8
Make2D$可见线$普通线
100
AcDbVertex
100
AcDb2dVertex
 10
432.8241679598335
 20
689.8700617308082
 30
0.0
  0
VERTEX
  5
370
330
325
100
AcDbEntity
  8
Make2D$可见线$普通线
100
AcDbVertex
100
AcDb2dVertex
 10
432.824317848729
 20
689.8704618190154
 30
0.0
  0
VERTEX
  5
371
330
325
100
AcDbEntity
  8
Make2D$可见线$普通线
100
AcDbVertex
100
AcDb2dVertex
 10
432.8244753275737
 20
689.8708576223906
 30
0.0
  0
VERTEX
  5
372
330
325
100
AcDbEntity
  8
Make2D$可见线$普通线
100
AcDbVertex
100
AcDb2dVertex
 10
432.8246402568689
 20
689.8712491963666
 30
0.0
  0
VERTEX
  5
373
330
325
100
AcDbEntity
  8
Make2D$可见线$普通线
100
AcDbVertex
100
AcDb2dVertex
 10
432.8248124971157
 20
689.8716365963764
 30
0.0
  0
VERTEX
  5
374
330
325
100
AcDbEntity
  8
Make2D$可见线$普通线
100
AcDbVertex
100
AcDb2dVertex
 10
432.8249919088155
 20
689.8720198778526
 30
0.0
  0
VERTEX
  5
375
330
325
100
AcDbEntity
  8
Make2D$可见线$普通线
100
AcDbVertex
100
AcDb2dVertex
 10
432.8251783524698
 20
689.8723990962279
 30
0.0
  0
VERTEX
  5
376
330
325
100
AcDbEntity
  8
Make2D$可见线$普通线
100
AcDbVertex
100
AcDb2dVertex
 10
432.8253716885797
 20
689.8727743069353
 30
0.0
  0
VERTEX
  5
377
330
325
100
AcDbEntity
  8
Make2D$可见线$普通线
100
AcDbVertex
100
AcDb2dVertex
 10
432.8255717776466
 20
689.8731455654074
 30
0.0
  0
VERTEX
  5
378
330
325
100
AcDbEntity
  8
Make2D$可见线$普通线
100
AcDbVertex
100
AcDb2dVertex
 10
432.8257784801718
 20
689.8735129270772
 30
0.0
  0
VERTEX
  5
379
330
325
100
AcDbEntity
  8
Make2D$可见线$普通线
100
AcDbVertex
100
AcDb2dVertex
 10
432.8259916566565
 20
689.8738764473774
 30
0.0
  0
VERTEX
  5
37A
330
325
100
AcDbEntity
  8
Make2D$可见线$普通线
100
AcDbVertex
100
AcDb2dVertex
 10
432.8264368735101
 20
689.8745921856001
 30
0.0
  0
VERTEX
  5
37B
330
325
100
AcDbEntity
  8
Make2D$可见线$普通线
100
AcDbVertex
100
AcDb2dVertex
 10
432.8269063122179
 20
689.8752932235379
 30
0.0
  0
VERTEX
  5
37C
330
325
100
AcDbEntity
  8
Make2D$可见线$普通线
100
AcDbVertex
100
AcDb2dVertex
 10
432.8273988567905
 20
689.8759800046533
 30
0.0
  0
VERTEX
  5
37D
330
325
100
AcDbEntity
  8
Make2D$可见线$普通线
100
AcDbVertex
100
AcDb2dVertex
 10
432.8279133912382
 20
689.8766529724087
 30
0.0
  0
VERTEX
  5
37E
330
325
100
AcDbEntity
  8
Make2D$可见线$普通线
100
AcDbVertex
100
AcDb2dVertex
 10
432.8284487995716
 20
689.8773125702663
 30
0.0
  0
VERTEX
  5
37F
330
325
100
AcDbEntity
  8
Make2D$可见线$普通线
100
AcDbVertex
100
AcDb2dVertex
 10
432.8290039658012
 20
689.8779592416886
 30
0.0
  0
VERTEX
  5
380
330
325
100
AcDbEntity
  8
Make2D$可见线$普通线
100
AcDbVertex
100
AcDb2dVertex
 10
432.8295777739374
 20
689.8785934301379
 30
0.0
  0
VERTEX
  5
381
330
325
100
AcDbEntity
  8
Make2D$可见线$普通线
100
AcDbVertex
100
AcDb2dVertex
 10
432.830169107991
 20
689.8792155790768
 30
0.0
  0
VERTEX
  5
382
330
325
100
AcDbEntity
  8
Make2D$可见线$普通线
100
AcDbVertex
100
AcDb2dVertex
 10
432.8307768519721
 20
689.8798261319673
 30
0.0
  0
VERTEX
  5
383
330
325
100
AcDbEntity
  8
Make2D$可见线$普通线
100
AcDbVertex
100
AcDb2dVertex
 10
432.8313998898915
 20
689.880425532272
 30
0.0
  0
VERTEX
  5
384
330
325
100
AcDbEntity
  8
Make2D$可见线$普通线
100
AcDbVertex
100
AcDb2dVertex
 10
432.8320371057596
 20
689.8810142234533
 30
0.0
  0
VERTEX
  5
385
330
325
100
AcDbEntity
  8
Make2D$可见线$普通线
100
AcDbVertex
100
AcDb2dVertex
 10
432.8326873835868
 20
689.8815926489737
 30
0.0
  0
VERTEX
  5
386
330
325
100
AcDbEntity
  8
Make2D$可见线$普通线
100
AcDbVertex
100
AcDb2dVertex
 10
432.834022661161
 20
689.8827204768804
 30
0.0
  0
VERTEX
  5
387
330
325
100
AcDbEntity
  8
Make2D$可见线$普通线
100
AcDbVertex
100
AcDb2dVertex
 10
432.8353967946981
 20
689.8838125636913
 30
0.0
  0
VERTEX
  5
388
330
325
100
AcDbEntity
  8
Make2D$可见线$普通线
100
AcDbVertex
100
AcDb2dVertex
 10
432.836800856282
 20
689.8848724571054
 30
0.0
  0
VERTEX
  5
389
330
325
100
AcDbEntity
  8
Make2D$可见线$普通线
100
AcDbVertex
100
AcDb2dVertex
 10
432.8382259179969
 20
689.8859037048219
 30
0.0
  0
VERTEX
  5
38A
330
325
100
AcDbEntity
  8
Make2D$可见线$普通线
100
AcDbVertex
100
AcDb2dVertex
 10
432.8408814991847
 20
689.8877349467273
 30
0.0
  0
VERTEX
  5
38B
330
325
100
AcDbEntity
  8
Make2D$可见线$普通线
100
AcDbVertex
100
AcDb2dVertex
 10
432.8435757444702
 20
689.889485497291
 30
0.0
  0
VERTEX
  5
38C
330
325
100
AcDbEntity
  8
Make2D$可见线$普通线
100
AcDbVertex
100
AcDb2dVertex
 10
432.846306459906
 20
689.891159608587
 30
0.0
  0
VERTEX
  5
38D
330
325
100
AcDbEntity
  8
Make2D$可见线$普通线
100
AcDbVertex
100
AcDb2dVertex
 10
432.8490714515444
 20
689.8927615326893
 30
0.0
  0
VERTEX
  5
38E
330
325
100
AcDbEntity
  8
Make2D$可见线$普通线
100
AcDbVertex
100
AcDb2dVertex
 10
432.851868525438
 20
689.8942955216718
 30
0.0
  0
VERTEX
  5
38F
330
325
100
AcDbEntity
  8
Make2D$可见线$普通线
100
AcDbVertex
100
AcDb2dVertex
 10
432.8546954876392
 20
689.8957658276081
 30
0.0
  0
VERTEX
  5
390
330
325
100
AcDbEntity
  8
Make2D$可见线$普通线
100
AcDbVertex
100
AcDb2dVertex
 10
432.8575501442006
 20
689.8971767025726
 30
0.0
  0
VERTEX
  5
391
330
325
100
AcDbEntity
  8
Make2D$可见线$普通线
100
AcDbVertex
100
AcDb2dVertex
 10
432.8604303011745
 20
689.898532398639
 30
0.0
  0
VERTEX
  5
392
330
325
100
AcDbEntity
  8
Make2D$可见线$普通线
100
AcDbVertex
100
AcDb2dVertex
 10
432.8662583405701
 20
689.9010952623729
 30
0.0
  0
VERTEX
  5
393
330
325
100
AcDbEntity
  8
Make2D$可见线$普通线
100
AcDbVertex
100
AcDb2dVertex
 10
432.8721620542458
 20
689.9034884354016
 30
0.0
  0
VERTEX
  5
394
330
325
100
AcDbEntity
  8
Make2D$可见线$普通线
100
AcDbVertex
100
AcDb2dVertex
 10
432.8841262981174
 20
689.9079017757086
 30
0.0
  0
VERTEX
  5
395
330
325
100
AcDbEntity
  8
Make2D$可见线$普通线
100
AcDbVertex
100
AcDb2dVertex
 10
432.9029664342179
 20
689.914177319313
 30
0.0
  0
VERTEX
  5
396
330
325
100
AcDbEntity
  8
Make2D$可见线$普通线
100
AcDbVertex
100
AcDb2dVertex
 10
432.9219916322376
 20
689.9198790943805
 30
0.0
  0
VERTEX
  5
397
330
325
100
AcDbEntity
  8
Make2D$可见线$普通线
100
AcDbVertex
100
AcDb2dVertex
 10
432.941163770633
 20
689.925089137718
 30
0.0
  0
VERTEX
  5
398
330
325
100
AcDbEntity
  8
Make2D$可见线$普通线
100
AcDbVertex
100
AcDb2dVertex
 10
432.9604447278614
 20
689.9298894861324
 30
0.0
  0
VERTEX
  5
399
330
325
100
AcDbEntity
  8
Make2D$可见线$普通线
100
AcDbVertex
100
AcDb2dVertex
 10
432.9869612203595
 20
689.9359288658495
 30
0.0
  0
VERTEX
  5
39A
330
325
100
AcDbEntity
  8
Make2D$可见线$普通线
100
AcDbVertex
100
AcDb2dVertex
 10
433.0135850597153
 20
689.9414583361329
 30
0.0
  0
VERTEX
  5
39B
330
325
100
AcDbEntity
  8
Make2D$可见线$普通线
100
AcDbVertex
100
AcDb2dVertex
 10
433.0670541055405
 20
689.9514045642761
 30
0.0
  0
VERTEX
  5
39C
330
325
100
AcDbEntity
  8
Make2D$可见线$普通线
100
AcDbVertex
100
AcDb2dVertex
 10
433.145323842189
 20
689.9643397728494
 30
0.0
  0
VERTEX
  5
39D
330
325
100
AcDbEntity
  8
Make2D$可见线$普通线
100
AcDbVertex
100
AcDb2dVertex
 10
433.2238142009759
 20
689.9758530387721
 30
0.0
  0
VERTEX
  5
39E
330
325
100
AcDbEntity
  8
Make2D$可见线$普通线
100
AcDbVertex
100
AcDb2dVertex
 10
433.3812550722942
 20
689.99563877837
 30
0.0
  0
VERTEX
  5
39F
330
325
100
AcDbEntity
  8
Make2D$可见线$普通线
100
AcDbVertex
100
AcDb2dVertex
 10
433.7923421639891
 20
690.0358155266998
 30
0.0
  0
VERTEX
  5
3A0
330
325
100
AcDbEntity
  8
Make2D$可见线$普通线
100
AcDbVertex
100
AcDb2dVertex
 10
434.9930754138983
 20
690.1150005618338
 30
0.0
  0
VERTEX
  5
3A1
330
325
100
AcDbEntity
  8
Make2D$可见线$普通线
100
AcDbVertex
100
AcDb2dVertex
 10
436.6146593772572
 20
690.1843439750849
 30
0.0
  0
VERTEX
  5
3A2
330
325
100
AcDbEntity
  8
Make2D$可见线$普通线
100
AcDbVertex
100
AcDb2dVertex
 10
438.5942392133269
 20
690.2412081960827
 30
0.0
  0
VERTEX
  5
3A3
330
325
100
AcDbEntity
  8
Make2D$可见线$普通线
100
AcDbVertex
100
AcDb2dVertex
 10
440.8479651435752
 20
690.2832741081438
 30
0.0
  0
VERTEX
  5
3A4
330
325
100
AcDbEntity
  8
Make2D$可见线$普通线
100
AcDbVertex
100
AcDb2dVertex
 10
443.3353916645865
 20
690.3094842418703
 30
0.0
  0
VERTEX
  5
3A5
330
325
100
AcDbEntity
  8
Make2D$可见线$普通线
100
AcDbVertex
100
AcDb2dVertex
 10
445.8229445835227
 20
690.3178478903918
 30
0.0
  0
VERTEX
  5
3A6
330
325
100
AcDbEntity
  8
Make2D$可见线$普通线
100
AcDbVertex
100
AcDb2dVertex
 10
448.3591848767602
 20
690.3091196093822
 30
0.0
  0
VERTEX
  5
3A7
330
325
100
AcDbEntity
  8
Make2D$可见线$普通线
100
AcDbVertex
100
AcDb2dVertex
 10
450.7979300384649
 20
690.2832982599962
 30
0.0
  0
VERTEX
  5
3A8
330
325
100
AcDbEntity
  8
Make2D$可见线$普通线
100
AcDbVertex
100
AcDb2dVertex
 10
453.0516514429966
 20
690.2411938434136
 30
0.0
  0
VERTEX
  5
3A9
330
325
100
AcDbEntity
  8
Make2D$可见线$普通线
100
AcDbVertex
100
AcDb2dVertex
 10
455.0312220888239
 20
690.1843515499302
 30
0.0
  0
VERTEX
  5
3AA
330
325
100
AcDbEntity
  8
Make2D$可见线$普通线
100
AcDbVertex
100
AcDb2dVertex
 10
456.6528242496178
 20
690.1149969514913
 30
0.0
  0
VERTEX
  5
3AB
330
325
100
AcDbEntity
  8
Make2D$可见线$普通线
100
AcDbVertex
100
AcDb2dVertex
 10
457.8535389990261
 20
690.0358170778503
 30
0.0
  0
VERTEX
  5
3AC
330
325
100
AcDbEntity
  8
Make2D$可见线$普通线
100
AcDbVertex
100
AcDb2dVertex
 10
458.2646410181795
 20
689.9956375487086
 30
0.0
  0
VERTEX
  5
3AD
330
325
100
AcDbEntity
  8
Make2D$可见线$普通线
100
AcDbVertex
100
AcDb2dVertex
 10
458.4220839907417
 20
689.9758542378512
 30
0.0
  0
VERTEX
  5
3AE
330
325
100
AcDbEntity
  8
Make2D$可见线$普通线
100
AcDbVertex
100
AcDb2dVertex
 10
458.5005753372588
 20
689.9643415567693
 30
0.0
  0
VERTEX
  5
3AF
330
325
100
AcDbEntity
  8
Make2D$可见线$普通线
100
AcDbVertex
100
AcDb2dVertex
 10
458.5788459435063
 20
689.9514054979174
 30
0.0
  0
VERTEX
  5
3B0
330
325
100
AcDbEntity
  8
Make2D$可见线$普通线
100
AcDbVertex
100
AcDb2dVertex
 10
458.6323119743429
 20
689.941458389222
 30
0.0
  0
VERTEX
  5
3B1
330
325
100
AcDbEntity
  8
Make2D$可见线$普通线
100
AcDbVertex
100
AcDb2dVertex
 10
458.6589342876754
 20
689.9359285286223
 30
0.0
  0
VERTEX
  5
3B2
330
325
100
AcDbEntity
  8
Make2D$可见线$普通线
100
AcDbVertex
100
AcDb2dVertex
 10
458.6854492450311
 20
689.929889004185
 30
0.0
  0
VERTEX
  5
3B3
330
325
100
AcDbEntity
  8
Make2D$可见线$普通线
100
AcDbVertex
100
AcDb2dVertex
 10
458.7047286289496
 20
689.9250888742943
 30
0.0
  0
VERTEX
  5
3B4
330
325
100
AcDbEntity
  8
Make2D$可见线$普通线
100
AcDbVertex
100
AcDb2dVertex
 10
458.7238991844611
 20
689.9198791192935
 30
0.0
  0
VERTEX
  5
3B5
330
325
100
AcDbEntity
  8
Make2D$可见线$普通线
100
AcDbVertex
100
AcDb2dVertex
 10
458.7429227807442
 20
689.9141775410491
 30
0.0
  0
VERTEX
  5
3B6
330
325
100
AcDbEntity
  8
Make2D$可见线$普通线
100
AcDbVertex
100
AcDb2dVertex
 10
458.7617612869777
 20
689.907901941428
 30
0.0
  0
VERTEX
  5
3B7
330
325
100
AcDbEntity
  8
Make2D$可见线$普通线
100
AcDbVertex
100
AcDb2dVertex
 10
458.7737247720447
 20
689.9034882829314
 30
0.0
  0
VERTEX
  5
3B8
330
325
100
AcDbEntity
  8
Make2D$可见线$普通线
100
AcDbVertex
100
AcDb2dVertex
 10
458.7796281052674
 20
689.9010949441702
 30
0.0
  0
VERTEX
  5
3B9
330
325
100
AcDbEntity
  8
Make2D$可见线$普通线
100
AcDbVertex
100
AcDb2dVertex
 10
458.7854557669717
 20
689.8985319436637
 30
0.0
  0
VERTEX
  5
3BA
330
325
100
AcDbEntity
  8
Make2D$可见线$普通线
100
AcDbVertex
100
AcDb2dVertex
 10
458.7883357369471
 20
689.8971761978959
 30
0.0
  0
VERTEX
  5
3BB
330
325
100
AcDbEntity
  8
Make2D$可见线$普通线
100
AcDbVertex
100
AcDb2dVertex
 10
458.791190208174
 20
689.8957652898596
 30
0.0
  0
VERTEX
  5
3BC
330
325
100
AcDbEntity
  8
Make2D$可见线$普通线
100
AcDbVertex
100
AcDb2dVertex
 10
458.7940169870296
 20
689.8942949706111
 30
0.0
  0
VERTEX
  5
3BD
330
325
100
AcDbEntity
  8
Make2D$可见线$普通线
100
AcDbVertex
100
AcDb2dVertex
 10
458.796813879891
 20
689.8927609912059
 30
0.0
  0
VERTEX
  5
3BE
330
325
100
AcDbEntity
  8
Make2D$可见线$普通线
100
AcDbVertex
100
AcDb2dVertex
 10
458.7995786931352
 20
689.8911591027004
 30
0.0
  0
VERTEX
  5
3BF
330
325
100
AcDbEntity
  8
Make2D$可见线$普通线
100
AcDbVertex
100
AcDb2dVertex
 10
458.8023092331392
 20
689.8894850561502
 30
0.0
  0
VERTEX
  5
3C0
330
325
100
AcDbEntity
  8
Make2D$可见线$普通线
100
AcDbVertex
100
AcDb2dVertex
 10
458.80500330628
 20
689.8877346026113
 30
0.0
  0
VERTEX
  5
3C1
330
325
100
AcDbEntity
  8
Make2D$可见线$普通线
100
AcDbVertex
100
AcDb2dVertex
 10
458.8076587189349
 20
689.88590349314
 30
0.0
  0
VERTEX
  5
3C2
330
325
100
AcDbEntity
  8
Make2D$可见线$普通线
100
AcDbVertex
100
AcDb2dVertex
 10
458.8090838444302
 20
689.8848722210066
 30
0.0
  0
VERTEX
  5
3C3
330
325
100
AcDbEntity
  8
Make2D$可见线$普通线
100
AcDbVertex
100
AcDb2dVertex
 10
458.8104879737707
 20
689.8838123089917
 30
0.0
  0
VERTEX
  5
3C4
330
325
100
AcDbEntity
  8
Make2D$可见线$普通线
100
AcDbVertex
100
AcDb2dVertex
 10
458.8118621844516
 20
689.8827202092257
 30
0.0
  0
VERTEX
  5
3C5
330
325
100
AcDbEntity
  8
Make2D$可见线$普通线
100
AcDbVertex
100
AcDb2dVertex
 10
458.8131975539683
 20
689.8815923738387
 30
0.0
  0
VERTEX
  5
3C6
330
325
100
AcDbEntity
  8
Make2D$可见线$普通线
100
AcDbVertex
100
AcDb2dVertex
 10
458.8138478850072
 20
689.881013946578
 30
0.0
  0
VERTEX
  5
3C7
330
325
100
AcDbEntity
  8
Make2D$可见线$普通线
100
AcDbVertex
100
AcDb2dVertex
 10
458.8144851598159
 20
689.8804252549611
 30
0.0
  0
VERTEX
  5
3C8
330
325
100
AcDbEntity
  8
Make2D$可见线$普通线
100
AcDbVertex
100
AcDb2dVertex
 10
458.8151082630812
 20
689.8798258555039
 30
0.0
  0
VERTEX
  5
3C9
330
325
100
AcDbEntity
  8
Make2D$可见线$普通线
100
AcDbVertex
100
AcDb2dVertex
 10
458.8157160794901
 20
689.8792153047231
 30
0.0
  0
VERTEX
  5
3CA
330
325
100
AcDbEntity
  8
Make2D$可见线$普通线
100
AcDbVertex
100
AcDb2dVertex
 10
458.8163074937293
 20
689.8785931591347
 30
0.0
  0
VERTEX
  5
3CB
330
325
100
AcDbEntity
  8
Make2D$可见线$普通线
100
AcDbVertex
100
AcDb2dVertex
 10
458.8168813904858
 20
689.8779589752551
 30
0.0
  0
VERTEX
  5
3CC
330
325
100
AcDbEntity
  8
Make2D$可见线$普通线
100
AcDbVertex
100
AcDb2dVertex
 10
458.8174366544466
 20
689.8773123096003
 30
0.0
  0
VERTEX
  5
3CD
330
325
100
AcDbEntity
  8
Make2D$可见线$普通线
100
AcDbVertex
100
AcDb2dVertex
 10
458.8179721702986
 20
689.8766527186871
 30
0.0
  0
VERTEX
  5
3CE
330
325
100
AcDbEntity
  8
Make2D$可见线$普通线
100
AcDbVertex
100
AcDb2dVertex
 10
458.8184868227287
 20
689.8759797590313
 30
0.0
  0
VERTEX
  5
3CF
330
325
100
AcDbEntity
  8
Make2D$可见线$普通线
100
AcDbVertex
100
AcDb2dVertex
 10
458.8189794964237
 20
689.8752929871496
 30
0.0
  0
VERTEX
  5
3D0
330
325
100
AcDbEntity
  8
Make2D$可见线$普通线
100
AcDbVertex
100
AcDb2dVertex
 10
458.8194490760707
 20
689.8745919595578
 30
0.0
  0
VERTEX
  5
3D1
330
325
100
AcDbEntity
  8
Make2D$可见线$普通线
100
AcDbVertex
100
AcDb2dVertex
 10
458.8198944463565
 20
689.8738762327728
 30
0.0
  0
VERTEX
  5
3D2
330
325
100
AcDbEntity
  8
Make2D$可见线$普通线
100
AcDbVertex
100
AcDb2dVertex
 10
458.8201077044536
 20
689.873512718594
 30
0.0
  0
VERTEX
  5
3D3
330
325
100
AcDbEntity
  8
Make2D$可见线$普通线
100
AcDbVertex
100
AcDb2dVertex
 10
458.820314491968
 20
689.8731453633104
 30
0.0
  0
VERTEX
  5
3D4
330
325
100
AcDbEntity
  8
Make2D$可见线$普通线
100
AcDbVertex
100
AcDb2dVertex
 10
458.8205146694856
 20
689.8727741114867
 30
0.0
  0
VERTEX
  5
3D5
330
325
100
AcDbEntity
  8
Make2D$可见线$普通线
100
AcDbVertex
100
AcDb2dVertex
 10
458.8207080975922
 20
689.8723989076873
 30
0.0
  0
VERTEX
  5
3D6
330
325
100
AcDbEntity
  8
Make2D$可见线$普通线
100
AcDbVertex
100
AcDb2dVertex
 10
458.8208946368737
 20
689.8720196964766
 30
0.0
  0
VERTEX
  5
3D7
330
325
100
AcDbEntity
  8
Make2D$可见线$普通线
100
AcDbVertex
100
AcDb2dVertex
 10
458.821074147916
 20
689.8716364224192
 30
0.0
  0
VERTEX
  5
3D8
330
325
100
AcDbEntity
  8
Make2D$可见线$普通线
100
AcDbVertex
100
AcDb2dVertex
 10
458.8212464913049
 20
689.8712490300798
 30
0.0
  0
VERTEX
  5
3D9
330
325
100
AcDbEntity
  8
Make2D$可见线$普通线
100
AcDbVertex
100
AcDb2dVertex
 10
458.8214115276262
 20
689.8708574640227
 30
0.0
  0
VERTEX
  5
3DA
330
325
100
AcDbEntity
  8
Make2D$可见线$普通线
100
AcDbVertex
100
AcDb2dVertex
 10
458.8215691174659
 20
689.8704616688126
 30
0.0
  0
VERTEX
  5
3DB
330
325
100
AcDbEntity
  8
Make2D$可见线$普通线
100
AcDbVertex
100
AcDb2dVertex
 10
458.8217191214098
 20
689.8700615890141
 30
0.0
  0
VERTEX
  5
3DC
330
325
100
AcDbEntity
  8
Make2D$可见线$普通线
100
AcDbVertex
100
AcDb2dVertex
 10
458.8218614000438
 20
689.8696571691917
 30
0.0
  0
VERTEX
  5
3DD
330
325
100
AcDbEntity
  8
Make2D$可见线$普通线
100
AcDbVertex
100
AcDb2dVertex
 10
458.8219958139538
 20
689.8692483539098
 30
0.0
  0
VERTEX
  5
3DE
330
325
100
AcDbEntity
  8
Make2D$可见线$普通线
100
AcDbVertex
100
AcDb2dVertex
 10
458.8221222237256
 20
689.868835087733
 30
0.0
  0
VERTEX
  5
3DF
330
325
100
AcDbEntity
  8
Make2D$可见线$普通线
100
AcDbVertex
100
AcDb2dVertex
 10
458.822240489945
 20
689.8684173152259
 30
0.0
  0
VERTEX
  5
3E0
330
325
100
AcDbEntity
  8
Make2D$可见线$普通线
100
AcDbVertex
100
AcDb2dVertex
 10
458.822350473198
 20
689.867994980953
 30
0.0
  0
VERTEX
  5
3E1
330
325
100
AcDbEntity
  8
Make2D$可见线$普通线
100
AcDbVertex
100
AcDb2dVertex
 10
458.8224520340704
 20
689.8675680294789
 30
0.0
  0
VERTEX
  5
3E2
330
325
100
AcDbEntity
  8
Make2D$可见线$普通线
100
AcDbVertex
100
AcDb2dVertex
 10
458.822545033148
 20
689.867136405368
 30
0.0
  0
VERTEX
  5
3E3
330
325
100
AcDbEntity
  8
Make2D$可见线$普通线
100
AcDbVertex
100
AcDb2dVertex
 10
458.8226293310167
 20
689.8667000531848
 30
0.0
  0
VERTEX
  5
3E4
330
325
100
AcDbEntity
  8
Make2D$可见线$普通线
100
AcDbVertex
100
AcDb2dVertex
 10
458.8227047882625
 20
689.866258917494
 30
0.0
  0
VERTEX
  5
3E5
330
325
100
AcDbEntity
  8
Make2D$可见线$普通线
100
AcDbVertex
100
AcDb2dVertex
 10
458.8227712654711
 20
689.86581294286
 30
0.0
  0
VERTEX
  5
3E6
330
325
100
AcDbEntity
  8
Make2D$可见线$普通线
100
AcDbVertex
100
AcDb2dVertex
 10
458.8228286232284
 20
689.8653620738473
 30
0.0
  0
VERTEX
  5
3E7
330
325
100
AcDbEntity
  8
Make2D$可见线$普通线
100
AcDbVertex
100
AcDb2dVertex
 10
458.8228767221203
 20
689.8649062550205
 30
0.0
  0
VERTEX
  5
3E8
330
325
100
AcDbEntity
  8
Make2D$可见线$普通线
100
AcDbVertex
100
AcDb2dVertex
 10
458.8229154227327
 20
689.8644454309443
 30
0.0
  0
VERTEX
  5
3E9
330
325
100
AcDbEntity
  8
Make2D$可见线$普通线
100
AcDbVertex
100
AcDb2dVertex
 10
458.8229445856514
 20
689.8639795461833
 30
0.0
  0
VERTEX
  5
3EA
330
325
100
AcDbEntity
  8
Make2D$可见线$普通线
100
AcDbVertex
100
AcDb2dVertex
 10
458.8229412818867
 20
689.8635447591789
 30
0.0
  0
VERTEX
  5
3EB
330
325
100
AcDbEntity
  8
Make2D$可见线$普通线
100
AcDbVertex
100
AcDb2dVertex
 10
458.8229259493023
 20
689.8631099728794
 30
0.0
  0
VERTEX
  5
3EC
330
325
100
AcDbEntity
  8
Make2D$可见线$普通线
100
AcDbVertex
100
AcDb2dVertex
 10
458.8228985895408
 20
689.8626751876797
 30
0.0
  0
VERTEX
  5
3ED
330
325
100
AcDbEntity
  8
Make2D$可见线$普通线
100
AcDbVertex
100
AcDb2dVertex
 10
458.822859204245
 20
689.8622404039745
 30
0.0
  0
VERTEX
  5
3EE
330
325
100
AcDbEntity
  8
Make2D$可见线$普通线
100
AcDbVertex
100
AcDb2dVertex
 10
458.8228077950575
 20
689.8618056221588
 30
0.0
  0
VERTEX
  5
3EF
330
325
100
AcDbEntity
  8
Make2D$可见线$普通线
100
AcDbVertex
100
AcDb2dVertex
 10
458.8227443636209
 20
689.8613708426276
 30
0.0
  0
VERTEX
  5
3F0
330
325
100
AcDbEntity
  8
Make2D$可见线$普通线
100
AcDbVertex
100
AcDb2dVertex
 10
458.8226689115781
 20
689.8609360657758
 30
0.0
  0
VERTEX
  5
3F1
330
325
100
AcDbEntity
  8
Make2D$可见线$普通线
100
AcDbVertex
100
AcDb2dVertex
 10
458.8225814405717
 20
689.8605012919984
 30
0.0
  0
VERTEX
  5
3F2
330
325
100
AcDbEntity
  8
Make2D$可见线$普通线
100
AcDbVertex
100
AcDb2dVertex
 10
458.8224819522443
 20
689.8600665216902
 30
0.0
  0
VERTEX
  5
3F3
330
325
100
AcDbEntity
  8
Make2D$可见线$普通线
100
AcDbVertex
100
AcDb2dVertex
 10
458.8223704482386
 20
689.8596317552463
 30
0.0
  0
VERTEX
  5
3F4
330
325
100
AcDbEntity
  8
Make2D$可见线$普通线
100
AcDbVertex
100
AcDb2dVertex
 10
458.8222469301974
 20
689.8591969930613
 30
0.0
  0
VERTEX
  5
3F5
330
325
100
AcDbEntity
  8
Make2D$可见线$普通线
100
AcDbVertex
100
AcDb2dVertex
 10
458.8221113997632
 20
689.8587622355304
 30
0.0
  0
VERTEX
  5
3F6
330
325
100
AcDbEntity
  8
Make2D$可见线$普通线
100
AcDbVertex
100
AcDb2dVertex
 10
458.8219638585789
 20
689.8583274830485
 30
0.0
  0
VERTEX
  5
3F7
330
325
100
AcDbEntity
  8
Make2D$可见线$普通线
100
AcDbVertex
100
AcDb2dVertex
 10
458.8218043082869
 20
689.8578927360105
 30
0.0
  0
VERTEX
  5
3F8
330
325
100
AcDbEntity
  8
Make2D$可见线$普通线
100
AcDbVertex
100
AcDb2dVertex
 10
458.8216327505301
 20
689.8574579948113
 30
0.0
  0
VERTEX
  5
3F9
330
325
100
AcDbEntity
  8
Make2D$可见线$普通线
100
AcDbVertex
100
AcDb2dVertex
 10
458.8214491869512
 20
689.8570232598458
 30
0.0
  0
VERTEX
  5
3FA
330
325
100
AcDbEntity
  8
Make2D$可见线$普通线
100
AcDbVertex
100
AcDb2dVertex
 10
458.8212536191928
 20
689.856588531509
 30
0.0
  0
VERTEX
  5
3FB
330
325
100
AcDbEntity
  8
Make2D$可见线$普通线
100
AcDbVertex
100
AcDb2dVertex
 10
458.8210460488975
 20
689.8561538101958
 30
0.0
  0
VERTEX
  5
3FC
330
325
100
AcDbEntity
  8
Make2D$可见线$普通线
100
AcDbVertex
100
AcDb2dVertex
 10
458.8208264777081
 20
689.8557190963012
 30
0.0
  0
VERTEX
  5
3FD
330
325
100
AcDbEntity
  8
Make2D$可见线$普通线
100
AcDbVertex
100
AcDb2dVertex
 10
458.8205949072673
 20
689.8552843902199
 30
0.0
  0
VERTEX
  5
3FE
330
325
100
AcDbEntity
  8
Make2D$可见线$普通线
100
AcDbVertex
100
AcDb2dVertex
 10
458.8203513392176
 20
689.854849692347
 30
0.0
  0
VERTEX
  5
3FF
330
325
100
AcDbEntity
  8
Make2D$可见线$普通线
100
AcDbVertex
100
AcDb2dVertex
 10
458.8200957752019
 20
689.8544150030774
 30
0.0
  0
VERTEX
  5
400
330
325
100
AcDbEntity
  8
Make2D$可见线$普通线
100
AcDbVertex
100
AcDb2dVertex
 10
458.8198282168628
 20
689.8539803228061
 30
0.0
  0
VERTEX
  5
401
330
325
100
AcDbEntity
  8
Make2D$可见线$普通线
100
AcDbVertex
100
AcDb2dVertex
 10
458.8195486658429
 20
689.8535456519279
 30
0.0
  0
VERTEX
  5
402
330
325
100
AcDbEntity
  8
Make2D$可见线$普通线
100
AcDbVertex
100
AcDb2dVertex
 10
458.8192571237851
 20
689.8531109908379
 30
0.0
  0
VERTEX
  5
403
330
325
100
AcDbEntity
  8
Make2D$可见线$普通线
100
AcDbVertex
100
AcDb2dVertex
 10
458.8189535923318
 20
689.8526763399308
 30
0.0
  0
VERTEX
  5
404
330
325
100
AcDbEntity
  8
Make2D$可见线$普通线
100
AcDbVertex
100
AcDb2dVertex
 10
458.818638073126
 20
689.8522416996016
 30
0.0
  0
VERTEX
  5
405
330
325
100
AcDbEntity
  8
Make2D$可见线$普通线
100
AcDbVertex
100
AcDb2dVertex
 10
458.81831056781
 20
689.8518070702452
 30
0.0
  0
VERTEX
  5
406
330
325
100
AcDbEntity
  8
Make2D$可见线$普通线
100
AcDbVertex
100
AcDb2dVertex
 10
458.8176196054189
 20
689.8509378460307
 30
0.0
  0
VERTEX
  5
407
330
325
100
AcDbEntity
  8
Make2D$可见线$普通线
100
AcDbVertex
100
AcDb2dVertex
 10
458.8168807183
 20
689.8500686704468
 30
0.0
  0
VERTEX
  5
408
330
325
100
AcDbEntity
  8
Make2D$可见线$普通线
100
AcDbVertex
100
AcDb2dVertex
 10
458.8160939195948
 20
689.8491995466529
 30
0.0
  0
VERTEX
  5
409
330
325
100
AcDbEntity
  8
Make2D$可见线$普通线
100
AcDbVertex
100
AcDb2dVertex
 10
458.8152592224446
 20
689.8483304778083
 30
0.0
  0
VERTEX
  5
40A
330
325
100
AcDbEntity
  8
Make2D$可见线$普通线
100
AcDbVertex
100
AcDb2dVertex
 10
458.814376639991
 20
689.8474614670724
 30
0.0
  0
VERTEX
  5
40B
330
325
100
AcDbEntity
  8
Make2D$可见线$普通线
100
AcDbVertex
100
AcDb2dVertex
 10
458.8134461853754
 20
689.8465925176047
 30
0.0
  0
VERTEX
  5
40C
330
325
100
AcDbEntity
  8
Make2D$可见线$普通线
100
AcDbVertex
100
AcDb2dVertex
 10
458.8124678717393
 20
689.8457236325646
 30
0.0
  0
VERTEX
  5
40D
330
325
100
AcDbEntity
  8
Make2D$可见线$普通线
100
AcDbVertex
100
AcDb2dVertex
 10
458.811441712224
 20
689.8448548151114
 30
0.0
  0
VERTEX
  5
40E
330
325
100
AcDbEntity
  8
Make2D$可见线$普通线
100
AcDbVertex
100
AcDb2dVertex
 10
458.8103677199712
 20
689.8439860684045
 30
0.0
  0
VERTEX
  5
40F
330
325
100
AcDbEntity
  8
Make2D$可见线$普通线
100
AcDbVertex
100
AcDb2dVertex
 10
458.8092459081221
 20
689.8431173956036
 30
0.0
  0
VERTEX
  5
410
330
325
100
AcDbEntity
  8
Make2D$可见线$普通线
100
AcDbVertex
100
AcDb2dVertex
 10
458.8080762898184
 20
689.8422487998678
 30
0.0
  0
VERTEX
  5
411
330
325
100
AcDbEntity
  8
Make2D$可见线$普通线
100
AcDbVertex
100
AcDb2dVertex
 10
458.8068588782014
 20
689.8413802843568
 30
0.0
  0
VERTEX
  5
412
330
325
100
AcDbEntity
  8
Make2D$可见线$普通线
100
AcDbVertex
100
AcDb2dVertex
 10
458.8042807275933
 20
689.8396435066459
 30
0.0
  0
VERTEX
  5
413
330
325
100
AcDbEntity
  8
Make2D$可见线$普通线
100
AcDbVertex
100
AcDb2dVertex
 10
458.8015115614296
 20
689.8379070877464
 30
0.0
  0
VERTEX
  5
414
330
325
100
AcDbEntity
  8
Make2D$可见线$普通线
100
AcDbVertex
100
AcDb2dVertex
 10
458.7985514848419
 20
689.8361710529337
 30
0.0
  0
VERTEX
  5
415
330
325
100
AcDbEntity
  8
Make2D$可见线$普通线
100
AcDbVertex
100
AcDb2dVertex
 10
458.7954006029619
 20
689.8344354274828
 30
0.0
  0
VERTEX
  5
416
330
325
100
AcDbEntity
  8
Make2D$可见线$普通线
100
AcDbVertex
100
AcDb2dVertex
 10
458.7920590209211
 20
689.8327002366692
 30
0.0
  0
VERTEX
  5
417
330
325
100
AcDbEntity
  8
Make2D$可见线$普通线
100
AcDbVertex
100
AcDb2dVertex
 10
458.7885268438512
 20
689.8309655057681
 30
0.0
  0
VERTEX
  5
418
330
325
100
AcDbEntity
  8
Make2D$可见线$普通线
100
AcDbVertex
100
AcDb2dVertex
 10
458.7848041768838
 20
689.8292312600546
 30
0.0
  0
VERTEX
  5
419
330
325
100
AcDbEntity
  8
Make2D$可见线$普通线
100
AcDbVertex
100
AcDb2dVertex
 10
458.7767877937831
 20
689.8257643252921
 30
0.0
  0
VERTEX
  5
41A
330
325
100
AcDbEntity
  8
Make2D$可见线$普通线
100
AcDbVertex
100
AcDb2dVertex
 10
458.7680107126721
 20
689.8222996345839
 30
0.0
  0
VERTEX
  5
41B
330
325
100
AcDbEntity
  8
Make2D$可见线$普通线
100
AcDbVertex
100
AcDb2dVertex
 10
458.7584737746037
 20
689.8188373901322
 30
0.0
  0
VERTEX
  5
41C
330
325
100
AcDbEntity
  8
Make2D$可见线$普通线
100
AcDbVertex
100
AcDb2dVertex
 10
458.748177820631
 20
689.8153777941391
 30
0.0
  0
VERTEX
  5
41D
330
325
100
AcDbEntity
  8
Make2D$可见线$普通线
100
AcDbVertex
100
AcDb2dVertex
 10
458.7371236918071
 20
689.8119210488068
 30
0.0
  0
VERTEX
  5
41E
330
325
100
AcDbEntity
  8
Make2D$可见线$普通线
100
AcDbVertex
100
AcDb2dVertex
 10
458.7253122291851
 20
689.8084673563375
 30
0.0
  0
VERTEX
  5
41F
330
325
100
AcDbEntity
  8
Make2D$可见线$普通线
100
AcDbVertex
100
AcDb2dVertex
 10
458.6994206667587
 20
689.8015699387968
 30
0.0
  0
VERTEX
  5
420
330
325
100
AcDbEntity
  8
Make2D$可见线$普通线
100
AcDbVertex
100
AcDb2dVertex
 10
458.6705098617761
 20
689.7946871591344
 30
0.0
  0
VERTEX
  5
421
330
325
100
AcDbEntity
  8
Make2D$可见线$普通线
100
AcDbVertex
100
AcDb2dVertex
 10
458.6385865426618
 20
689.7878206349676
 30
0.0
  0
VERTEX
  5
422
330
325
100
AcDbEntity
  8
Make2D$可见线$普通线
100
AcDbVertex
100
AcDb2dVertex
 10
458.6036574378398
 20
689.7809719839142
 30
0.0
  0
VERTEX
  5
423
330
325
100
AcDbEntity
  8
Make2D$可见线$普通线
100
AcDbVertex
100
AcDb2dVertex
 10
458.5248087847712
 20
689.7673347716175
 30
0.0
  0
VERTEX
  5
424
330
325
100
AcDbEntity
  8
Make2D$可见线$普通线
100
AcDbVertex
100
AcDb2dVertex
 10
458.3875529435049
 20
689.7474983028382
 30
0.0
  0
SEQEND
  5
425
330
325
100
AcDbEntity
  8
Make2D$可见线$普通线
  0
POLYLINE
  5
426
330
1F
100
AcDbEntity
  8
Make2D$可见线$普通线
100
AcDb2dPolyline
 66
     1
 10
0.0
 20
0.0
 30
0.0
  0
VERTEX
  5
427
330
426
100
AcDbEntity
  8
Make2D$可见线$普通线
100
AcDbVertex
100
AcDb2dVertex
 10
424.3229445835032
 20
493.3223324574958
 30
0.0
  0
VERTEX
  5
428
330
426
100
AcDbEntity
  8
Make2D$可见线$普通线
100
AcDbVertex
100
AcDb2dVertex
 10
424.3229411716891
 20
683.578101048569
 30
0.0
  0
VERTEX
  5
429
330
426
100
AcDbEntity
  8
Make2D$可见线$普通线
100
AcDbVertex
100
AcDb2dVertex
 10
424.3231759657957
 20
683.6009201512989
 30
0.0
  0
VERTEX
  5
42A
330
426
100
AcDbEntity
  8
Make2D$可见线$普通线
100
AcDbVertex
100
AcDb2dVertex
 10
424.3239079007645
 20
683.623705342865
 30
0.0
  0
VERTEX
  5
42B
330
426
100
AcDbEntity
  8
Make2D$可见线$普通线
100
AcDbVertex
100
AcDb2dVertex
 10
424.325137777207
 20
683.6464487932383
 30
0.0
  0
VERTEX
  5
42C
330
426
100
AcDbEntity
  8
Make2D$可见线$普通线
100
AcDbVertex
100
AcDb2dVertex
 10
424.3268663957347
 20
683.6691426723892
 30
0.0
  0
VERTEX
  5
42D
330
426
100
AcDbEntity
  8
Make2D$可见线$普通线
100
AcDbVertex
100
AcDb2dVertex
 10
424.3290945569592
 20
683.6917791502883
 30
0.0
  0
VERTEX
  5
42E
330
426
100
AcDbEntity
  8
Make2D$可见线$普通线
100
AcDbVertex
100
AcDb2dVertex
 10
424.3318230614921
 20
683.7143503969063
 30
0.0
  0
VERTEX
  5
42F
330
426
100
AcDbEntity
  8
Make2D$可见线$普通线
100
AcDbVertex
100
AcDb2dVertex
 10
424.3350527099448
 20
683.7368485822137
 30
0.0
  0
VERTEX
  5
430
330
426
100
AcDbEntity
  8
Make2D$可见线$普通线
100
AcDbVertex
100
AcDb2dVertex
 10
424.338784302929
 20
683.7592658761813
 30
0.0
  0
VERTEX
  5
431
330
426
100
AcDbEntity
  8
Make2D$可见线$普通线
100
AcDbVertex
100
AcDb2dVertex
 10
424.3437681831786
 20
683.7852860653525
 30
0.0
  0
VERTEX
  5
432
330
426
100
AcDbEntity
  8
Make2D$可见线$普通线
100
AcDbVertex
100
AcDb2dVertex
 10
424.3494302220425
 20
683.8111679957585
 30
0.0
  0
VERTEX
  5
433
330
426
100
AcDbEntity
  8
Make2D$可见线$普通线
100
AcDbVertex
100
AcDb2dVertex
 10
424.3557653266603
 20
683.8368939846503
 30
0.0
  0
VERTEX
  5
434
330
426
100
AcDbEntity
  8
Make2D$可见线$普通线
100
AcDbVertex
100
AcDb2dVertex
 10
424.3627684041711
 20
683.8624463492781
 30
0.0
  0
VERTEX
  5
435
330
426
100
AcDbEntity
  8
Make2D$可见线$普通线
100
AcDbVertex
100
AcDb2dVertex
 10
424.3704343617146
 20
683.887807406893
 30
0.0
  0
VERTEX
  5
436
330
426
100
AcDbEntity
  8
Make2D$可见线$普通线
100
AcDbVertex
100
AcDb2dVertex
 10
424.37875810643
 20
683.9129594747458
 30
0.0
  0
VERTEX
  5
437
330
426
100
AcDbEntity
  8
Make2D$可见线$普通线
100
AcDbVertex
100
AcDb2dVertex
 10
424.3877345454571
 20
683.9378848700873
 30
0.0
  0
VERTEX
  5
438
330
426
100
AcDbEntity
  8
Make2D$可见线$普通线
100
AcDbVertex
100
AcDb2dVertex
 10
424.3973585859349
 20
683.962565910168
 30
0.0
  0
VERTEX
  5
439
330
426
100
AcDbEntity
  8
Make2D$可见线$普通线
100
AcDbVertex
100
AcDb2dVertex
 10
424.4066430996215
 20
683.9847272238092
 30
0.0
  0
VERTEX
  5
43A
330
426
100
AcDbEntity
  8
Make2D$可见线$普通线
100
AcDbVertex
100
AcDb2dVertex
 10
424.4164476509142
 20
684.0066631848215
 30
0.0
  0
VERTEX
  5
43B
330
426
100
AcDbEntity
  8
Make2D$可见线$普通线
100
AcDbVertex
100
AcDb2dVertex
 10
424.4267636617349
 20
684.0283640289807
 30
0.0
  0
VERTEX
  5
43C
330
426
100
AcDbEntity
  8
Make2D$可见线$普通线
100
AcDbVertex
100
AcDb2dVertex
 10
424.4375825540056
 20
684.0498199920627
 30
0.0
  0
VERTEX
  5
43D
330
426
100
AcDbEntity
  8
Make2D$可见线$普通线
100
AcDbVertex
100
AcDb2dVertex
 10
424.4488957496482
 20
684.0710213098431
 30
0.0
  0
VERTEX
  5
43E
330
426
100
AcDbEntity
  8
Make2D$可见线$普通线
100
AcDbVertex
100
AcDb2dVertex
 10
424.4606946705843
 20
684.0919582180976
 30
0.0
  0
VERTEX
  5
43F
330
426
100
AcDbEntity
  8
Make2D$可见线$普通线
100
AcDbVertex
100
AcDb2dVertex
 10
424.4729707387361
 20
684.1126209526021
 30
0.0
  0
VERTEX
  5
440
330
426
100
AcDbEntity
  8
Make2D$可见线$普通线
100
AcDbVertex
100
AcDb2dVertex
 10
424.4857153760253
 20
684.1329997491321
 30
0.0
  0
VERTEX
  5
441
330
426
100
AcDbEntity
  8
Make2D$可见线$普通线
100
AcDbVertex
100
AcDb2dVertex
 10
424.4989200043738
 20
684.1530848434635
 30
0.0
  0
VERTEX
  5
442
330
426
100
AcDbEntity
  8
Make2D$可见线$普通线
100
AcDbVertex
100
AcDb2dVertex
 10
424.5125760457034
 20
684.1728664713721
 30
0.0
  0
VERTEX
  5
443
330
426
100
AcDbEntity
  8
Make2D$可见线$普通线
100
AcDbVertex
100
AcDb2dVertex
 10
424.5266749219361
 20
684.1923348686335
 30
0.0
  0
VERTEX
  5
444
330
426
100
AcDbEntity
  8
Make2D$可见线$普通线
100
AcDbVertex
100
AcDb2dVertex
 10
424.5412080549938
 20
684.2114802710234
 30
0.0
  0
VERTEX
  5
445
330
426
100
AcDbEntity
  8
Make2D$可见线$普通线
100
AcDbVertex
100
AcDb2dVertex
 10
424.5561668667982
 20
684.2302929143177
 30
0.0
  0
VERTEX
  5
446
330
426
100
AcDbEntity
  8
Make2D$可见线$普通线
100
AcDbVertex
100
AcDb2dVertex
 10
424.5715427792714
 20
684.2487630342921
 30
0.0
  0
VERTEX
  5
447
330
426
100
AcDbEntity
  8
Make2D$可见线$普通线
100
AcDbVertex
100
AcDb2dVertex
 10
424.5873272143351
 20
684.2668808667222
 30
0.0
  0
VERTEX
  5
448
330
426
100
AcDbEntity
  8
Make2D$可见线$普通线
100
AcDbVertex
100
AcDb2dVertex
 10
424.6035115939113
 20
684.2846366473841
 30
0.0
  0
VERTEX
  5
449
330
426
100
AcDbEntity
  8
Make2D$可见线$普通线
100
AcDbVertex
100
AcDb2dVertex
 10
424.620070083485
 20
684.3020033720315
 30
0.0
  0
VERTEX
  5
44A
330
426
100
AcDbEntity
  8
Make2D$可见线$普通线
100
AcDbVertex
100
AcDb2dVertex
 10
424.6370110094311
 20
684.3189924883468
 30
0.0
  0
VERTEX
  5
44B
330
426
100
AcDbEntity
  8
Make2D$可见线$普通线
100
AcDbVertex
100
AcDb2dVertex
 10
424.6543262501301
 20
684.3355974359336
 30
0.0
  0
VERTEX
  5
44C
330
426
100
AcDbEntity
  8
Make2D$可见线$普通线
100
AcDbVertex
100
AcDb2dVertex
 10
424.6720076839621
 20
684.3518116543958
 30
0.0
  0
VERTEX
  5
44D
330
426
100
AcDbEntity
  8
Make2D$可见线$普通线
100
AcDbVertex
100
AcDb2dVertex
 10
424.6900471893073
 20
684.3676285833371
 30
0.0
  0
VERTEX
  5
44E
330
426
100
AcDbEntity
  8
Make2D$可见线$普通线
100
AcDbVertex
100
AcDb2dVertex
 10
424.7084366445457
 20
684.3830416623616
 30
0.0
  0
VERTEX
  5
44F
330
426
100
AcDbEntity
  8
Make2D$可见线$普通线
100
AcDbVertex
100
AcDb2dVertex
 10
424.7271679280577
 20
684.3980443310728
 30
0.0
  0
VERTEX
  5
450
330
426
100
AcDbEntity
  8
Make2D$可见线$普通线
100
AcDbVertex
100
AcDb2dVertex
 10
424.7462329182234
 20
684.4126300290745
 30
0.0
  0
VERTEX
  5
451
330
426
100
AcDbEntity
  8
Make2D$可见线$普通线
100
AcDbVertex
100
AcDb2dVertex
 10
424.765644736832
 20
684.426809449081
 30
0.0
  0
VERTEX
  5
452
330
426
100
AcDbEntity
  8
Make2D$可见线$普通线
100
AcDbVertex
100
AcDb2dVertex
 10
424.7853671518892
 20
684.4405649508067
 30
0.0
  0
VERTEX
  5
453
330
426
100
AcDbEntity
  8
Make2D$可见线$普通线
100
AcDbVertex
100
AcDb2dVertex
 10
424.8053844247075
 20
684.4538971228322
 30
0.0
  0
VERTEX
  5
454
330
426
100
AcDbEntity
  8
Make2D$可见线$普通线
100
AcDbVertex
100
AcDb2dVertex
 10
424.8256808165996
 20
684.4668065537386
 30
0.0
  0
VERTEX
  5
455
330
426
100
AcDbEntity
  8
Make2D$可见线$普通线
100
AcDbVertex
100
AcDb2dVertex
 10
424.8462405888781
 20
684.4792938321066
 30
0.0
  0
VERTEX
  5
456
330
426
100
AcDbEntity
  8
Make2D$可见线$普通线
100
AcDbVertex
100
AcDb2dVertex
 10
424.8670480028554
 20
684.4913595465171
 30
0.0
  0
VERTEX
  5
457
330
426
100
AcDbEntity
  8
Make2D$可见线$普通线
100
AcDbVertex
100
AcDb2dVertex
 10
424.8880873198441
 20
684.5030042855508
 30
0.0
  0
VERTEX
  5
458
330
426
100
AcDbEntity
  8
Make2D$可见线$普通线
100
AcDbVertex
100
AcDb2dVertex
 10
424.9093428011569
 20
684.5142286377886
 30
0.0
  0
VERTEX
  5
459
330
426
100
AcDbEntity
  8
Make2D$可见线$普通线
100
AcDbVertex
100
AcDb2dVertex
 10
424.9338602402518
 20
684.5265353942848
 30
0.0
  0
VERTEX
  5
45A
330
426
100
AcDbEntity
  8
Make2D$可见线$普通线
100
AcDbVertex
100
AcDb2dVertex
 10
424.9586242621206
 20
684.5383132237798
 30
0.0
  0
VERTEX
  5
45B
330
426
100
AcDbEntity
  8
Make2D$可见线$普通线
100
AcDbVertex
100
AcDb2dVertex
 10
424.9836201038919
 20
684.5495805964888
 30
0.0
  0
VERTEX
  5
45C
330
426
100
AcDbEntity
  8
Make2D$可见线$普通线
100
AcDbVertex
100
AcDb2dVertex
 10
425.0088330026942
 20
684.560355982627
 30
0.0
  0
VERTEX
  5
45D
330
426
100
AcDbEntity
  8
Make2D$可见线$普通线
100
AcDbVertex
100
AcDb2dVertex
 10
425.034248195656
 20
684.5706578524093
 30
0.0
  0
VERTEX
  5
45E
330
426
100
AcDbEntity
  8
Make2D$可见线$普通线
100
AcDbVertex
100
AcDb2dVertex
 10
425.0598509199056
 20
684.580504676051
 30
0.0
  0
VERTEX
  5
45F
330
426
100
AcDbEntity
  8
Make2D$可见线$普通线
100
AcDbVertex
100
AcDb2dVertex
 10
425.1115599107822
 20
684.5989070657724
 30
0.0
  0
VERTEX
  5
460
330
426
100
AcDbEntity
  8
Make2D$可见线$普通线
100
AcDbVertex
100
AcDb2dVertex
 10
425.1638418723516
 20
684.6157109135122
 30
0.0
  0
VERTEX
  5
461
330
426
100
AcDbEntity
  8
Make2D$可见线$普通线
100
AcDbVertex
100
AcDb2dVertex
 10
425.2165787016412
 20
684.6310639809908
 30
0.0
  0
VERTEX
  5
462
330
426
100
AcDbEntity
  8
Make2D$可见线$普通线
100
AcDbVertex
100
AcDb2dVertex
 10
425.2696522956787
 20
684.6451140299291
 30
0.0
  0
VERTEX
  5
463
330
426
100
AcDbEntity
  8
Make2D$可见线$普通线
100
AcDbVertex
100
AcDb2dVertex
 10
425.3229445514916
 20
684.6580088220477
 30
0.0
  0
VERTEX
  5
464
330
426
100
AcDbEntity
  8
Make2D$可见线$普通线
100
AcDbVertex
100
AcDb2dVertex
 10
425.9460678321932
 20
684.7151562417503
 30
0.0
  0
VERTEX
  5
465
330
426
100
AcDbEntity
  8
Make2D$可见线$普通线
100
AcDbVertex
100
AcDb2dVertex
 10
427.3450335043871
 20
684.808269193452
 30
0.0
  0
VERTEX
  5
466
330
426
100
AcDbEntity
  8
Make2D$可见线$普通线
100
AcDbVertex
100
AcDb2dVertex
 10
429.1342151646674
 20
684.8936626489356
 30
0.0
  0
VERTEX
  5
467
330
426
100
AcDbEntity
  8
Make2D$可见线$普通线
100
AcDbVertex
100
AcDb2dVertex
 10
431.3263617991216
 20
684.9710113845831
 30
0.0
  0
VERTEX
  5
468
330
426
100
AcDbEntity
  8
Make2D$可见线$普通线
100
AcDbVertex
100
AcDb2dVertex
 10
433.8378654668177
 20
685.0367192710848
 30
0.0
  0
VERTEX
  5
469
330
426
100
AcDbEntity
  8
Make2D$可见线$普通线
100
AcDbVertex
100
AcDb2dVertex
 10
436.6138504523596
 20
685.0892704279277
 30
0.0
  0
VERTEX
  5
46A
330
426
100
AcDbEntity
  8
Make2D$可见线$普通线
100
AcDbVertex
100
AcDb2dVertex
 10
439.5927966196348
 20
685.1275803159263
 30
0.0
  0
VERTEX
  5
46B
330
426
100
AcDbEntity
  8
Make2D$可见线$普通线
100
AcDbVertex
100
AcDb2dVertex
 10
442.6738867620955
 20
685.1505726690955
 30
0.0
  0
VERTEX
  5
46C
330
426
100
AcDbEntity
  8
Make2D$可见线$普通线
100
AcDbVertex
100
AcDb2dVertex
 10
445.8229445740392
 20
685.1582996508447
 30
0.0
  0
VERTEX
  5
46D
330
426
100
AcDbEntity
  8
Make2D$可见线$普通线
100
AcDbVertex
100
AcDb2dVertex
 10
448.9720007974959
 20
685.1505726872374
 30
0.0
  0
VERTEX
  5
46E
330
426
100
AcDbEntity
  8
Make2D$可见线$普通线
100
AcDbVertex
100
AcDb2dVertex
 10
452.0530967607738
 20
685.1275802002206
 30
0.0
  0
VERTEX
  5
46F
330
426
100
AcDbEntity
  8
Make2D$可见线$普通线
100
AcDbVertex
100
AcDb2dVertex
 10
455.0023093700748
 20
685.0897391419173
 30
0.0
  0
VERTEX
  5
470
330
426
100
AcDbEntity
  8
Make2D$可见线$普通线
100
AcDbVertex
100
AcDb2dVertex
 10
457.7533476695426
 20
685.0379371758675
 30
0.0
  0
VERTEX
  5
471
330
426
100
AcDbEntity
  8
Make2D$可见线$普通线
100
AcDbVertex
100
AcDb2dVertex
 10
460.2464756647533
 20
684.9732239147756
 30
0.0
  0
VERTEX
  5
472
330
426
100
AcDbEntity
  8
Make2D$可见线$普通线
100
AcDbVertex
100
AcDb2dVertex
 10
462.4283270803784
 20
684.8970596527935
 30
0.0
  0
VERTEX
  5
473
330
426
100
AcDbEntity
  8
Make2D$可见线$普通线
100
AcDbVertex
100
AcDb2dVertex
 10
464.258599767429
 20
684.8106229909113
 30
0.0
  0
VERTEX
  5
474
330
426
100
AcDbEntity
  8
Make2D$可见线$普通线
100
AcDbVertex
100
AcDb2dVertex
 10
465.6872393636985
 20
684.7161716298002
 30
0.0
  0
VERTEX
  5
475
330
426
100
AcDbEntity
  8
Make2D$可见线$普通线
100
AcDbVertex
100
AcDb2dVertex
 10
466.3229445920034
 20
684.6580094071381
 30
0.0
  0
VERTEX
  5
476
330
426
100
AcDbEntity
  8
Make2D$可见线$普通线
100
AcDbVertex
100
AcDb2dVertex
 10
466.379884294345
 20
684.6441025260337
 30
0.0
  0
VERTEX
  5
477
330
426
100
AcDbEntity
  8
Make2D$可见线$普通线
100
AcDbVertex
100
AcDb2dVertex
 10
466.4365292243147
 20
684.6289860970364
 30
0.0
  0
VERTEX
  5
478
330
426
100
AcDbEntity
  8
Make2D$可见线$普通线
100
AcDbVertex
100
AcDb2dVertex
 10
466.4927564880462
 20
684.6124101580582
 30
0.0
  0
VERTEX
  5
479
330
426
100
AcDbEntity
  8
Make2D$可见线$普通线
100
AcDbVertex
100
AcDb2dVertex
 10
466.5484431916735
 20
684.5941247470109
 30
0.0
  0
VERTEX
  5
47A
330
426
100
AcDbEntity
  8
Make2D$可见线$普通线
100
AcDbVertex
100
AcDb2dVertex
 10
466.5964962308865
 20
684.5765886662087
 30
0.0
  0
VERTEX
  5
47B
330
426
100
AcDbEntity
  8
Make2D$可见线$普通线
100
AcDbVertex
100
AcDb2dVertex
 10
466.6439394630295
 20
684.5574718560117
 30
0.0
  0
VERTEX
  5
47C
330
426
100
AcDbEntity
  8
Make2D$可见线$普通线
100
AcDbVertex
100
AcDb2dVertex
 10
466.6673997197503
 20
684.5472929885657
 30
0.0
  0
VERTEX
  5
47D
330
426
100
AcDbEntity
  8
Make2D$可见线$普通线
100
AcDbVertex
100
AcDb2dVertex
 10
466.6906683066642
 20
684.5366857121819
 30
0.0
  0
VERTEX
  5
47E
330
426
100
AcDbEntity
  8
Make2D$可见线$普通线
100
AcDbVertex
100
AcDb2dVertex
 10
466.7137321510915
 20
684.5256389513306
 30
0.0
  0
VERTEX
  5
47F
330
426
100
AcDbEntity
  8
Make2D$可见线$普通线
100
AcDbVertex
100
AcDb2dVertex
 10
466.7365781803525
 20
684.5141416304818
 30
0.0
  0
VERTEX
  5
480
330
426
100
AcDbEntity
  8
Make2D$可见线$普通线
100
AcDbVertex
100
AcDb2dVertex
 10
466.7578329531595
 20
684.5029195624313
 30
0.0
  0
VERTEX
  5
481
330
426
100
AcDbEntity
  8
Make2D$可见线$普通线
100
AcDbVertex
100
AcDb2dVertex
 10
466.7788688332695
 20
684.4912867335203
 30
0.0
  0
VERTEX
  5
482
330
426
100
AcDbEntity
  8
Make2D$可见线$普通线
100
AcDbVertex
100
AcDb2dVertex
 10
466.7996707572158
 20
684.4792399176104
 30
0.0
  0
VERTEX
  5
483
330
426
100
AcDbEntity
  8
Make2D$可见线$普通线
100
AcDbVertex
100
AcDb2dVertex
 10
466.8202236615317
 20
684.4667758885633
 30
0.0
  0
VERTEX
  5
484
330
426
100
AcDbEntity
  8
Make2D$可见线$普通线
100
AcDbVertex
100
AcDb2dVertex
 10
466.8405124827503
 20
684.4538914202406
 30
0.0
  0
VERTEX
  5
485
330
426
100
AcDbEntity
  8
Make2D$可见线$普通线
100
AcDbVertex
100
AcDb2dVertex
 10
466.8605221574051
 20
684.4405832865036
 30
0.0
  0
VERTEX
  5
486
330
426
100
AcDbEntity
  8
Make2D$可见线$普通线
100
AcDbVertex
100
AcDb2dVertex
 10
466.8802376220294
 20
684.426848261214
 30
0.0
  0
VERTEX
  5
487
330
426
100
AcDbEntity
  8
Make2D$可见线$普通线
100
AcDbVertex
100
AcDb2dVertex
 10
466.8996438131564
 20
684.4126831182333
 30
0.0
  0
VERTEX
  5
488
330
426
100
AcDbEntity
  8
Make2D$可见线$普通线
100
AcDbVertex
100
AcDb2dVertex
 10
466.9187057335928
 20
684.3981030010823
 30
0.0
  0
VERTEX
  5
489
330
426
100
AcDbEntity
  8
Make2D$可见线$普通线
100
AcDbVertex
100
AcDb2dVertex
 10
466.9374356644219
 20
684.3830986210935
 30
0.0
  0
VERTEX
  5
48A
330
426
100
AcDbEntity
  8
Make2D$可见线$普通线
100
AcDbVertex
100
AcDb2dVertex
 10
466.9558252318362
 20
684.3676780957187
 30
0.0
  0
VERTEX
  5
48B
330
426
100
AcDbEntity
  8
Make2D$可见线$普通线
100
AcDbVertex
100
AcDb2dVertex
 10
466.9738660620287
 20
684.3518495424089
 30
0.0
  0
VERTEX
  5
48C
330
426
100
AcDbEntity
  8
Make2D$可见线$普通线
100
AcDbVertex
100
AcDb2dVertex
 10
466.9915497811924
 20
684.3356210786158
 30
0.0
  0
VERTEX
  5
48D
330
426
100
AcDbEntity
  8
Make2D$可见线$普通线
100
AcDbVertex
100
AcDb2dVertex
 10
467.00886801552
 20
684.3190008217905
 30
0.0
  0
VERTEX
  5
48E
330
426
100
AcDbEntity
  8
Make2D$可见线$普通线
100
AcDbVertex
100
AcDb2dVertex
 10
467.0258123912045
 20
684.3019968893847
 30
0.0
  0
VERTEX
  5
48F
330
426
100
AcDbEntity
  8
Make2D$可见线$普通线
100
AcDbVertex
100
AcDb2dVertex
 10
467.0423745344386
 20
684.2846173988496
 30
0.0
  0
VERTEX
  5
490
330
426
100
AcDbEntity
  8
Make2D$可见线$普通线
100
AcDbVertex
100
AcDb2dVertex
 10
467.0585625813967
 20
684.2668521009458
 30
0.0
  0
VERTEX
  5
491
330
426
100
AcDbEntity
  8
Make2D$可见线$普通线
100
AcDbVertex
100
AcDb2dVertex
 10
467.074350558085
 20
684.2487280117168
 30
0.0
  0
VERTEX
  5
492
330
426
100
AcDbEntity
  8
Make2D$可见线$普通线
100
AcDbVertex
100
AcDb2dVertex
 10
467.0897298104462
 20
684.2302545424347
 30
0.0
  0
VERTEX
  5
493
330
426
100
AcDbEntity
  8
Make2D$可见线$普通线
100
AcDbVertex
100
AcDb2dVertex
 10
467.1046916844228
 20
684.2114411043711
 30
0.0
  0
VERTEX
  5
494
330
426
100
AcDbEntity
  8
Make2D$可见线$普通线
100
AcDbVertex
100
AcDb2dVertex
 10
467.1192275259575
 20
684.1922971087981
 30
0.0
  0
VERTEX
  5
495
330
426
100
AcDbEntity
  8
Make2D$可见线$普通线
100
AcDbVertex
100
AcDb2dVertex
 10
467.1333286809929
 20
684.1728319669876
 30
0.0
  0
VERTEX
  5
496
330
426
100
AcDbEntity
  8
Make2D$可见线$普通线
100
AcDbVertex
100
AcDb2dVertex
 10
467.1469864954715
 20
684.1530550902114
 30
0.0
  0
VERTEX
  5
497
330
426
100
AcDbEntity
  8
Make2D$可见线$普通线
100
AcDbVertex
100
AcDb2dVertex
 10
467.1601923153361
 20
684.1329758897414
 30
0.0
  0
VERTEX
  5
498
330
426
100
AcDbEntity
  8
Make2D$可见线$普通线
100
AcDbVertex
100
AcDb2dVertex
 10
467.172937486529
 20
684.1126037768495
 30
0.0
  0
VERTEX
  5
499
330
426
100
AcDbEntity
  8
Make2D$可见线$普通线
100
AcDbVertex
100
AcDb2dVertex
 10
467.185213354993
 20
684.0919481628073
 30
0.0
  0
VERTEX
  5
49A
330
426
100
AcDbEntity
  8
Make2D$可见线$普通线
100
AcDbVertex
100
AcDb2dVertex
 10
467.1970112666708
 20
684.071018458887
 30
0.0
  0
VERTEX
  5
49B
330
426
100
AcDbEntity
  8
Make2D$可见线$普通线
100
AcDbVertex
100
AcDb2dVertex
 10
467.2083225675048
 20
684.0498240763603
 30
0.0
  0
VERTEX
  5
49C
330
426
100
AcDbEntity
  8
Make2D$可见线$普通线
100
AcDbVertex
100
AcDb2dVertex
 10
467.2191386034376
 20
684.0283744264991
 30
0.0
  0
VERTEX
  5
49D
330
426
100
AcDbEntity
  8
Make2D$可见线$普通线
100
AcDbVertex
100
AcDb2dVertex
 10
467.229450720412
 20
684.0066789205755
 30
0.0
  0
VERTEX
  5
49E
330
426
100
AcDbEntity
  8
Make2D$可见线$普通线
100
AcDbVertex
100
AcDb2dVertex
 10
467.2392502643705
 20
683.9847469698611
 30
0.0
  0
VERTEX
  5
49F
330
426
100
AcDbEntity
  8
Make2D$可见线$普通线
100
AcDbVertex
100
AcDb2dVertex
 10
467.2485285812556
 20
683.9625879856278
 30
0.0
  0
VERTEX
  5
4A0
330
426
100
AcDbEntity
  8
Make2D$可见线$普通线
100
AcDbVertex
100
AcDb2dVertex
 10
467.2574821178123
 20
683.9396705499416
 30
0.0
  0
VERTEX
  5
4A1
330
426
100
AcDbEntity
  8
Make2D$可见线$普通线
100
AcDbVertex
100
AcDb2dVertex
 10
467.2658767794709
 20
683.916538972279
 30
0.0
  0
VERTEX
  5
4A2
330
426
100
AcDbEntity
  8
Make2D$可见线$普通线
100
AcDbVertex
100
AcDb2dVertex
 10
467.2737094016358
 20
683.8932073409543
 30
0.0
  0
VERTEX
  5
4A3
330
426
100
AcDbEntity
  8
Make2D$可见线$普通线
100
AcDbVertex
100
AcDb2dVertex
 10
467.2809768197111
 20
683.8696897442818
 30
0.0
  0
VERTEX
  5
4A4
330
426
100
AcDbEntity
  8
Make2D$可见线$普通线
100
AcDbVertex
100
AcDb2dVertex
 10
467.2876758691011
 20
683.846000270576
 30
0.0
  0
VERTEX
  5
4A5
330
426
100
AcDbEntity
  8
Make2D$可见线$普通线
100
AcDbVertex
100
AcDb2dVertex
 10
467.29380338521
 20
683.8221530081514
 30
0.0
  0
VERTEX
  5
4A6
330
426
100
AcDbEntity
  8
Make2D$可见线$普通线
100
AcDbVertex
100
AcDb2dVertex
 10
467.299356203442
 20
683.7981620453222
 30
0.0
  0
VERTEX
  5
4A7
330
426
100
AcDbEntity
  8
Make2D$可见线$普通线
100
AcDbVertex
100
AcDb2dVertex
 10
467.3043311592013
 20
683.774041470403
 30
0.0
  0
VERTEX
  5
4A8
330
426
100
AcDbEntity
  8
Make2D$可见线$普通线
100
AcDbVertex
100
AcDb2dVertex
 10
467.3087250878921
 20
683.749805371708
 30
0.0
  0
VERTEX
  5
4A9
330
426
100
AcDbEntity
  8
Make2D$可见线$普通线
100
AcDbVertex
100
AcDb2dVertex
 10
467.3125348249185
 20
683.725467837552
 30
0.0
  0
VERTEX
  5
4AA
330
426
100
AcDbEntity
  8
Make2D$可见线$普通线
100
AcDbVertex
100
AcDb2dVertex
 10
467.3157572056848
 20
683.701042956249
 30
0.0
  0
VERTEX
  5
4AB
330
426
100
AcDbEntity
  8
Make2D$可见线$普通线
100
AcDbVertex
100
AcDb2dVertex
 10
467.3183890655952
 20
683.6765448161137
 30
0.0
  0
VERTEX
  5
4AC
330
426
100
AcDbEntity
  8
Make2D$可见线$普通线
100
AcDbVertex
100
AcDb2dVertex
 10
467.3204272400538
 20
683.6519875054604
 30
0.0
  0
VERTEX
  5
4AD
330
426
100
AcDbEntity
  8
Make2D$可见线$普通线
100
AcDbVertex
100
AcDb2dVertex
 10
467.321868564465
 20
683.6273851126034
 30
0.0
  0
VERTEX
  5
4AE
330
426
100
AcDbEntity
  8
Make2D$可见线$普通线
100
AcDbVertex
100
AcDb2dVertex
 10
467.3227098742328
 20
683.6027517258572
 30
0.0
  0
VERTEX
  5
4AF
330
426
100
AcDbEntity
  8
Make2D$可见线$普通线
100
AcDbVertex
100
AcDb2dVertex
 10
467.3229480047614
 20
683.5781014335361
 30
0.0
  0
VERTEX
  5
4B0
330
426
100
AcDbEntity
  8
Make2D$可见线$普通线
100
AcDbVertex
100
AcDb2dVertex
 10
467.3229445835032
 20
493.3223324574958
 30
0.0
  0
SEQEND
  5
4B1
330
426
100
AcDbEntity
  8
Make2D$可见线$普通线
  0
POLYLINE
  5
4B2
330
1F
100
AcDbEntity
  8
Make2D$可见线$普通线
100
AcDb2dPolyline
 66
     1
 10
0.0
 20
0.0
 30
0.0
  0
VERTEX
  5
4B3
330
4B2
100
AcDbEntity
  8
Make2D$可见线$普通线
100
AcDbVertex
100
AcDb2dVertex
 10
429.3229445834185
 20
704.4200059561764
 30
0.0
  0
VERTEX
  5
4B4
330
4B2
100
AcDbEntity
  8
Make2D$可见线$普通线
100
AcDbVertex
100
AcDb2dVertex
 10
462.3229445835878
 20
704.4200059561764
 30
0.0
 42
-0.0034143762135352
  0
VERTEX
  5
4B5
330
4B2
100
AcDbEntity
  8
Make2D$可见线$普通线
100
AcDbVertex
100
AcDb2dVertex
 10
463.8091777180084
 20
704.410115467591
 30
0.0
  0
VERTEX
  5
4B6
330
4B2
100
AcDbEntity
  8
Make2D$可见线$普通线
100
AcDbVertex
100
AcDb2dVertex
 10
465.1863830905043
 20
704.378522433586
 30
0.0
  0
VERTEX
  5
4B7
330
4B2
100
AcDbEntity
  8
Make2D$可见线$普通线
100
AcDbVertex
100
AcDb2dVertex
 10
465.7205523759787
 20
704.3557868843711
 30
0.0
  0
VERTEX
  5
4B8
330
4B2
100
AcDbEntity
  8
Make2D$可见线$普通线
100
AcDbVertex
100
AcDb2dVertex
 10
466.130009423264
 20
704.327950396938
 30
0.0
  0
VERTEX
  5
4B9
330
4B2
100
AcDbEntity
  8
Make2D$可见线$普通线
100
AcDbVertex
100
AcDb2dVertex
 10
466.2115442557068
 20
704.3202857112948
 30
0.0
  0
VERTEX
  5
4BA
330
4B2
100
AcDbEntity
  8
Make2D$可见线$普通线
100
AcDbVertex
100
AcDb2dVertex
 10
466.2929245430108
 20
704.3110606535156
 30
0.0
  0
VERTEX
  5
4BB
330
4B2
100
AcDbEntity
  8
Make2D$可见线$普通线
100
AcDbVertex
100
AcDb2dVertex
 10
466.3628521092809
 20
704.3016341476232
 30
0.0
  0
VERTEX
  5
4BC
330
4B2
100
AcDbEntity
  8
Make2D$可见线$普通线
100
AcDbVertex
100
AcDb2dVertex
 10
466.4324827244512
 20
704.2902071439258
 30
0.0
  0
VERTEX
  5
4BD
330
4B2
100
AcDbEntity
  8
Make2D$可见线$普通线
100
AcDbVertex
100
AcDb2dVertex
 10
466.4876024293808
 20
704.2792100029633
 30
0.0
  0
VERTEX
  5
4BE
330
4B2
100
AcDbEntity
  8
Make2D$可见线$普通线
100
AcDbVertex
100
AcDb2dVertex
 10
466.5150041603058
 20
704.2729729751571
 30
0.0
  0
VERTEX
  5
4BF
330
4B2
100
AcDbEntity
  8
Make2D$可见线$普通线
100
AcDbVertex
100
AcDb2dVertex
 10
466.5422688248336
 20
704.2661951005545
 30
0.0
  0
VERTEX
  5
4C0
330
4B2
100
AcDbEntity
  8
Make2D$可见线$普通线
100
AcDbVertex
100
AcDb2dVertex
 10
466.5693726839366
 20
704.2588399727207
 30
0.0
  0
VERTEX
  5
4C1
330
4B2
100
AcDbEntity
  8
Make2D$可见线$普通线
100
AcDbVertex
100
AcDb2dVertex
 10
466.5962919985871
 20
704.2508711852212
 30
0.0
  0
VERTEX
  5
4C2
330
4B2
100
AcDbEntity
  8
Make2D$可见线$普通线
100
AcDbVertex
100
AcDb2dVertex
 10
466.623003029757
 20
704.2422523316211
 30
0.0
  0
VERTEX
  5
4C3
330
4B2
100
AcDbEntity
  8
Make2D$可见线$普通线
100
AcDbVertex
100
AcDb2dVertex
 10
466.6494820384186
 20
704.2329470054859
 30
0.0
  0
VERTEX
  5
4C4
330
4B2
100
AcDbEntity
  8
Make2D$可见线$普通线
100
AcDbVertex
100
AcDb2dVertex
 10
466.6757947788086
 20
704.2228916150176
 30
0.0
  0
VERTEX
  5
4C5
330
4B2
100
AcDbEntity
  8
Make2D$可见线$普通线
100
AcDbVertex
100
AcDb2dVertex
 10
466.7018318180483
 20
704.2121203659276
 30
0.0
  0
VERTEX
  5
4C6
330
4B2
100
AcDbEntity
  8
Make2D$可见线$普通线
100
AcDbVertex
100
AcDb2dVertex
 10
466.7275749553934
 20
704.2006451932707
 30
0.0
  0
VERTEX
  5
4C7
330
4B2
100
AcDbEntity
  8
Make2D$可见线$普通线
100
AcDbVertex
100
AcDb2dVertex
 10
466.7530059901003
 20
704.1884780321018
 30
0.0
  0
VERTEX
  5
4C8
330
4B2
100
AcDbEntity
  8
Make2D$可见线$普通线
100
AcDbVertex
100
AcDb2dVertex
 10
466.7781067214248
 20
704.1756308174754
 30
0.0
  0
VERTEX
  5
4C9
330
4B2
100
AcDbEntity
  8
Make2D$可见线$普通线
100
AcDbVertex
100
AcDb2dVertex
 10
466.8028589486231
 20
704.1621154844463
 30
0.0
  0
VERTEX
  5
4CA
330
4B2
100
AcDbEntity
  8
Make2D$可见线$普通线
100
AcDbVertex
100
AcDb2dVertex
 10
466.8272444709511
 20
704.1479439680693
 30
0.0
  0
VERTEX
  5
4CB
330
4B2
100
AcDbEntity
  8
Make2D$可见线$普通线
100
AcDbVertex
100
AcDb2dVertex
 10
466.8512450876649
 20
704.1331282033991
 30
0.0
  0
VERTEX
  5
4CC
330
4B2
100
AcDbEntity
  8
Make2D$可见线$普通线
100
AcDbVertex
100
AcDb2dVertex
 10
466.8748425980207
 20
704.1176801254906
 30
0.0
  0
VERTEX
  5
4CD
330
4B2
100
AcDbEntity
  8
Make2D$可见线$普通线
100
AcDbVertex
100
AcDb2dVertex
 10
466.8980188012744
 20
704.101611669398
 30
0.0
  0
VERTEX
  5
4CE
330
4B2
100
AcDbEntity
  8
Make2D$可见线$普通线
100
AcDbVertex
100
AcDb2dVertex
 10
466.920755496682
 20
704.0849347701767
 30
0.0
  0
VERTEX
  5
4CF
330
4B2
100
AcDbEntity
  8
Make2D$可见线$普通线
100
AcDbVertex
100
AcDb2dVertex
 10
466.9430344834997
 20
704.0676613628809
 30
0.0
  0
VERTEX
  5
4D0
330
4B2
100
AcDbEntity
  8
Make2D$可见线$普通线
100
AcDbVertex
100
AcDb2dVertex
 10
466.9648375609834
 20
704.0498033825656
 30
0.0
  0
VERTEX
  5
4D1
330
4B2
100
AcDbEntity
  8
Make2D$可见线$普通线
100
AcDbVertex
100
AcDb2dVertex
 10
466.9861465283893
 20
704.0313727642856
 30
0.0
  0
VERTEX
  5
4D2
330
4B2
100
AcDbEntity
  8
Make2D$可见线$普通线
100
AcDbVertex
100
AcDb2dVertex
 10
467.0069431849734
 20
704.0123814430954
 30
0.0
  0
VERTEX
  5
4D3
330
4B2
100
AcDbEntity
  8
Make2D$可见线$普通线
100
AcDbVertex
100
AcDb2dVertex
 10
467.0272093299918
 20
703.9928413540498
 30
0.0
  0
VERTEX
  5
4D4
330
4B2
100
AcDbEntity
  8
Make2D$可见线$普通线
100
AcDbVertex
100
AcDb2dVertex
 10
467.044108310916
 20
703.9755765062524
 30
0.0
  0
VERTEX
  5
4D5
330
4B2
100
AcDbEntity
  8
Make2D$可见线$普通线
100
AcDbVertex
100
AcDb2dVertex
 10
467.060661296645
 20
703.9578306441508
 30
0.0
  0
VERTEX
  5
4D6
330
4B2
100
AcDbEntity
  8
Make2D$可见线$普通线
100
AcDbVertex
100
AcDb2dVertex
 10
467.0768487454535
 20
703.9396135203092
 30
0.0
  0
VERTEX
  5
4D7
330
4B2
100
AcDbEntity
  8
Make2D$可见线$普通线
100
AcDbVertex
100
AcDb2dVertex
 10
467.0926514487269
 20
703.9209359099809
 30
0.0
  0
VERTEX
  5
4D8
330
4B2
100
AcDbEntity
  8
Make2D$可见线$普通线
100
AcDbVertex
100
AcDb2dVertex
 10
467.1080505962309
 20
703.9018095993285
 30
0.0
  0
VERTEX
  5
4D9
330
4B2
100
AcDbEntity
  8
Make2D$可见线$普通线
100
AcDbVertex
100
AcDb2dVertex
 10
467.1230278411145
 20
703.8822473687378
 30
0.0
  0
VERTEX
  5
4DA
330
4B2
100
AcDbEntity
  8
Make2D$可见线$普通线
100
AcDbVertex
100
AcDb2dVertex
 10
467.1375653642149
 20
703.8622629711984
 30
0.0
  0
VERTEX
  5
4DB
330
4B2
100
AcDbEntity
  8
Make2D$可见线$普通线
100
AcDbVertex
100
AcDb2dVertex
 10
467.1516459372388
 20
703.8418711057716
 30
0.0
  0
VERTEX
  5
4DC
330
4B2
100
AcDbEntity
  8
Make2D$可见线$普通线
100
AcDbVertex
100
AcDb2dVertex
 10
467.1652529843817
 20
703.8210873862022
 30
0.0
  0
VERTEX
  5
4DD
330
4B2
100
AcDbEntity
  8
Make2D$可见线$普通线
100
AcDbVertex
100
AcDb2dVertex
 10
467.178370641957
 20
703.7999283047803
 30
0.0
  0
VERTEX
  5
4DE
330
4B2
100
AcDbEntity
  8
Make2D$可见线$普通线
100
AcDbVertex
100
AcDb2dVertex
 10
467.190983815612
 20
703.7784111916005
 30
0.0
  0
VERTEX
  5
4DF
330
4B2
100
AcDbEntity
  8
Make2D$可见线$普通线
100
AcDbVertex
100
AcDb2dVertex
 10
467.2030782347175
 20
703.7565541694051
 30
0.0
  0
VERTEX
  5
4E0
330
4B2
100
AcDbEntity
  8
Make2D$可见线$普通线
100
AcDbVertex
100
AcDb2dVertex
 10
467.2146405035419
 20
703.7343761042468
 30
0.0
  0
VERTEX
  5
4E1
330
4B2
100
AcDbEntity
  8
Make2D$可见线$普通线
100
AcDbVertex
100
AcDb2dVertex
 10
467.2256581488344
 20
703.7118965522387
 30
0.0
  0
VERTEX
  5
4E2
330
4B2
100
AcDbEntity
  8
Make2D$可见线$普通线
100
AcDbVertex
100
AcDb2dVertex
 10
467.2361196634761
 20
703.689135702702
 30
0.0
  0
VERTEX
  5
4E3
330
4B2
100
AcDbEntity
  8
Make2D$可见线$普通线
100
AcDbVertex
100
AcDb2dVertex
 10
467.2460145458816
 20
703.6661143180515
 30
0.0
  0
VERTEX
  5
4E4
330
4B2
100
AcDbEntity
  8
Make2D$可见线$普通线
100
AcDbVertex
100
AcDb2dVertex
 10
467.255333334877
 20
703.6428536707967
 30
0.0
  0
VERTEX
  5
4E5
330
4B2
100
AcDbEntity
  8
Make2D$可见线$普通线
100
AcDbVertex
100
AcDb2dVertex
 10
467.264067639805
 20
703.6193754780525
 30
0.0
  0
VERTEX
  5
4E6
330
4B2
100
AcDbEntity
  8
Make2D$可见线$普通线
100
AcDbVertex
100
AcDb2dVertex
 10
467.2722101656644
 20
703.5957018339896
 30
0.0
  0
VERTEX
  5
4E7
330
4B2
100
AcDbEntity
  8
Make2D$可见线$普通线
100
AcDbVertex
100
AcDb2dVertex
 10
467.2797547331205
 20
703.5718551406597
 30
0.0
  0
VERTEX
  5
4E8
330
4B2
100
AcDbEntity
  8
Make2D$可见线$普通线
100
AcDbVertex
100
AcDb2dVertex
 10
467.286696293276
 20
703.5478580376521
 30
0.0
  0
VERTEX
  5
4E9
330
4B2
100
AcDbEntity
  8
Make2D$可见线$普通线
100
AcDbVertex
100
AcDb2dVertex
 10
467.2930309371336
 20
703.5237333310414
 30
0.0
  0
VERTEX
  5
4EA
330
4B2
100
AcDbEntity
  8
Make2D$可见线$普通线
100
AcDbVertex
100
AcDb2dVertex
 10
467.2987558997306
 20
703.4995039220936
 30
0.0
  0
VERTEX
  5
4EB
330
4B2
100
AcDbEntity
  8
Make2D$可见线$普通线
100
AcDbVertex
100
AcDb2dVertex
 10
467.3038695589694
 20
703.4751927361873
 30
0.0
  0
VERTEX
  5
4EC
330
4B2
100
AcDbEntity
  8
Make2D$可见线$普通线
100
AcDbVertex
100
AcDb2dVertex
 10
467.3083714292142
 20
703.4508226524118
 30
0.0
  0
VERTEX
  5
4ED
330
4B2
100
AcDbEntity
  8
Make2D$可见线$普通线
100
AcDbVertex
100
AcDb2dVertex
 10
467.3122621497673
 20
703.4264164342745
 30
0.0
  0
VERTEX
  5
4EE
330
4B2
100
AcDbEntity
  8
Make2D$可见线$普通线
100
AcDbVertex
100
AcDb2dVertex
 10
467.3155434683806
 20
703.4019966619513
 30
0.0
  0
VERTEX
  5
4EF
330
4B2
100
AcDbEntity
  8
Make2D$可见线$普通线
100
AcDbVertex
100
AcDb2dVertex
 10
467.3182182199984
 20
703.377585666477
 30
0.0
  0
VERTEX
  5
4F0
330
4B2
100
AcDbEntity
  8
Make2D$可见线$普通线
100
AcDbVertex
100
AcDb2dVertex
 10
467.3202903009574
 20
703.3532054662586
 30
0.0
  0
VERTEX
  5
4F1
330
4B2
100
AcDbEntity
  8
Make2D$可见线$普通线
100
AcDbVertex
100
AcDb2dVertex
 10
467.321764638914
 20
703.3288777062583
 30
0.0
  0
VERTEX
  5
4F2
330
4B2
100
AcDbEntity
  8
Make2D$可见线$普通线
100
AcDbVertex
100
AcDb2dVertex
 10
467.3226471587844
 20
703.3046236001645
 30
0.0
  0
VERTEX
  5
4F3
330
4B2
100
AcDbEntity
  8
Make2D$可见线$普通线
100
AcDbVertex
100
AcDb2dVertex
 10
467.3229447450205
 20
703.280463875839
 30
0.0
  0
VERTEX
  5
4F4
330
4B2
100
AcDbEntity
  8
Make2D$可见线$普通线
100
AcDbVertex
100
AcDb2dVertex
 10
467.3229445835238
 20
691.2892233953163
 30
0.0
  0
VERTEX
  5
4F5
330
4B2
100
AcDbEntity
  8
Make2D$可见线$普通线
100
AcDbVertex
100
AcDb2dVertex
 10
467.3228909371625
 20
691.2788720066497
 30
0.0
 42
-0.4111801143916036
  0
VERTEX
  5
4F6
330
4B2
100
AcDbEntity
  8
Make2D$可见线$普通线
100
AcDbVertex
100
AcDb2dVertex
 10
466.3229445865713
 20
690.2898330329365
 30
0.0
  0
VERTEX
  5
4F7
330
4B2
100
AcDbEntity
  8
Make2D$可见线$普通线
100
AcDbVertex
100
AcDb2dVertex
 10
466.3229423222191
 20
690.2900386524559
 30
0.0
  0
VERTEX
  5
4F8
330
4B2
100
AcDbEntity
  8
Make2D$可见线$普通线
100
AcDbVertex
100
AcDb2dVertex
 10
466.3229312681685
 20
690.2902442715201
 30
0.0
  0
VERTEX
  5
4F9
330
4B2
100
AcDbEntity
  8
Make2D$可见线$普通线
100
AcDbVertex
100
AcDb2dVertex
 10
466.3229114268674
 20
690.2904498896885
 30
0.0
  0
VERTEX
  5
4FA
330
4B2
100
AcDbEntity
  8
Make2D$可见线$普通线
100
AcDbVertex
100
AcDb2dVertex
 10
466.3228828007644
 20
690.2906555065202
 30
0.0
  0
VERTEX
  5
4FB
330
4B2
100
AcDbEntity
  8
Make2D$可见线$普通线
100
AcDbVertex
100
AcDb2dVertex
 10
466.3228453923076
 20
690.2908611215744
 30
0.0
  0
VERTEX
  5
4FC
330
4B2
100
AcDbEntity
  8
Make2D$可见线$普通线
100
AcDbVertex
100
AcDb2dVertex
 10
466.3227992039454
 20
690.2910667344106
 30
0.0
  0
VERTEX
  5
4FD
330
4B2
100
AcDbEntity
  8
Make2D$可见线$普通线
100
AcDbVertex
100
AcDb2dVertex
 10
466.3227442381259
 20
690.2912723445877
 30
0.0
  0
VERTEX
  5
4FE
330
4B2
100
AcDbEntity
  8
Make2D$可见线$普通线
100
AcDbVertex
100
AcDb2dVertex
 10
466.3226804972976
 20
690.2914779516649
 30
0.0
  0
VERTEX
  5
4FF
330
4B2
100
AcDbEntity
  8
Make2D$可见线$普通线
100
AcDbVertex
100
AcDb2dVertex
 10
466.3226079839086
 20
690.2916835552018
 30
0.0
  0
VERTEX
  5
500
330
4B2
100
AcDbEntity
  8
Make2D$可见线$普通线
100
AcDbVertex
100
AcDb2dVertex
 10
466.3225267004073
 20
690.2918891547573
 30
0.0
  0
VERTEX
  5
501
330
4B2
100
AcDbEntity
  8
Make2D$可见线$普通线
100
AcDbVertex
100
AcDb2dVertex
 10
466.3224366492418
 20
690.2920947498908
 30
0.0
  0
VERTEX
  5
502
330
4B2
100
AcDbEntity
  8
Make2D$可见线$普通线
100
AcDbVertex
100
AcDb2dVertex
 10
466.3223378328605
 20
690.2923003401615
 30
0.0
  0
VERTEX
  5
503
330
4B2
100
AcDbEntity
  8
Make2D$可见线$普通线
100
AcDbVertex
100
AcDb2dVertex
 10
466.3222302537117
 20
690.2925059251288
 30
0.0
  0
VERTEX
  5
504
330
4B2
100
AcDbEntity
  8
Make2D$可见线$普通线
100
AcDbVertex
100
AcDb2dVertex
 10
466.3221139142436
 20
690.2927115043517
 30
0.0
  0
VERTEX
  5
505
330
4B2
100
AcDbEntity
  8
Make2D$可见线$普通线
100
AcDbVertex
100
AcDb2dVertex
 10
466.3219888169045
 20
690.2929170773895
 30
0.0
  0
VERTEX
  5
506
330
4B2
100
AcDbEntity
  8
Make2D$可见线$普通线
100
AcDbVertex
100
AcDb2dVertex
 10
466.3218549641427
 20
690.2931226438014
 30
0.0
  0
VERTEX
  5
507
330
4B2
100
AcDbEntity
  8
Make2D$可见线$普通线
100
AcDbVertex
100
AcDb2dVertex
 10
466.3217123584064
 20
690.2933282031468
 30
0.0
  0
VERTEX
  5
508
330
4B2
100
AcDbEntity
  8
Make2D$可见线$普通线
100
AcDbVertex
100
AcDb2dVertex
 10
466.3215610021441
 20
690.2935337549848
 30
0.0
  0
VERTEX
  5
509
330
4B2
100
AcDbEntity
  8
Make2D$可见线$普通线
100
AcDbVertex
100
AcDb2dVertex
 10
466.3214008978038
 20
690.2937392988747
 30
0.0
  0
VERTEX
  5
50A
330
4B2
100
AcDbEntity
  8
Make2D$可见线$普通线
100
AcDbVertex
100
AcDb2dVertex
 10
466.3212320478339
 20
690.2939448343757
 30
0.0
  0
VERTEX
  5
50B
330
4B2
100
AcDbEntity
  8
Make2D$可见线$普通线
100
AcDbVertex
100
AcDb2dVertex
 10
466.3210544546826
 20
690.2941503610471
 30
0.0
  0
VERTEX
  5
50C
330
4B2
100
AcDbEntity
  8
Make2D$可见线$普通线
100
AcDbVertex
100
AcDb2dVertex
 10
466.3208681207983
 20
690.294355878448
 30
0.0
  0
VERTEX
  5
50D
330
4B2
100
AcDbEntity
  8
Make2D$可见线$普通线
100
AcDbVertex
100
AcDb2dVertex
 10
466.3206730486291
 20
690.2945613861377
 30
0.0
  0
VERTEX
  5
50E
330
4B2
100
AcDbEntity
  8
Make2D$可见线$普通线
100
AcDbVertex
100
AcDb2dVertex
 10
466.3204692406235
 20
690.2947668836755
 30
0.0
  0
VERTEX
  5
50F
330
4B2
100
AcDbEntity
  8
Make2D$可见线$普通线
100
AcDbVertex
100
AcDb2dVertex
 10
466.3202566992296
 20
690.2949723706206
 30
0.0
  0
VERTEX
  5
510
330
4B2
100
AcDbEntity
  8
Make2D$可见线$普通线
100
AcDbVertex
100
AcDb2dVertex
 10
466.3200354268957
 20
690.2951778465322
 30
0.0
  0
VERTEX
  5
511
330
4B2
100
AcDbEntity
  8
Make2D$可见线$普通线
100
AcDbVertex
100
AcDb2dVertex
 10
466.3198054260702
 20
690.2953833109696
 30
0.0
  0
VERTEX
  5
512
330
4B2
100
AcDbEntity
  8
Make2D$可见线$普通线
100
AcDbVertex
100
AcDb2dVertex
 10
466.3195666992012
 20
690.2955887634921
 30
0.0
  0
VERTEX
  5
513
330
4B2
100
AcDbEntity
  8
Make2D$可见线$普通线
100
AcDbVertex
100
AcDb2dVertex
 10
466.3190630771261
 20
690.295999631029
 30
0.0
  0
VERTEX
  5
514
330
4B2
100
AcDbEntity
  8
Make2D$可见线$普通线
100
AcDbVertex
100
AcDb2dVertex
 10
466.3185245802567
 20
690.2964104456165
 30
0.0
  0
VERTEX
  5
515
330
4B2
100
AcDbEntity
  8
Make2D$可见线$普通线
100
AcDbVertex
100
AcDb2dVertex
 10
466.3179512281791
 20
690.296821203729
 30
0.0
  0
VERTEX
  5
516
330
4B2
100
AcDbEntity
  8
Make2D$可见线$普通线
100
AcDbVertex
100
AcDb2dVertex
 10
466.3173430404795
 20
690.2972319018401
 30
0.0
  0
VERTEX
  5
517
330
4B2
100
AcDbEntity
  8
Make2D$可见线$普通线
100
AcDbVertex
100
AcDb2dVertex
 10
466.3167000367441
 20
690.2976425364238
 30
0.0
  0
VERTEX
  5
518
330
4B2
100
AcDbEntity
  8
Make2D$可见线$普通线
100
AcDbVertex
100
AcDb2dVertex
 10
466.3160222365591
 20
690.2980531039539
 30
0.0
  0
VERTEX
  5
519
330
4B2
100
AcDbEntity
  8
Make2D$可见线$普通线
100
AcDbVertex
100
AcDb2dVertex
 10
466.3153096595108
 20
690.2984636009044
 30
0.0
  0
VERTEX
  5
51A
330
4B2
100
AcDbEntity
  8
Make2D$可见线$普通线
100
AcDbVertex
100
AcDb2dVertex
 10
466.3145623251854
 20
690.298874023749
 30
0.0
  0
VERTEX
  5
51B
330
4B2
100
AcDbEntity
  8
Make2D$可见线$普通线
100
AcDbVertex
100
AcDb2dVertex
 10
466.3137802531689
 20
690.2992843689619
 30
0.0
  0
VERTEX
  5
51C
330
4B2
100
AcDbEntity
  8
Make2D$可见线$普通线
100
AcDbVertex
100
AcDb2dVertex
 10
466.3129634630478
 20
690.299694633017
 30
0.0
  0
VERTEX
  5
51D
330
4B2
100
AcDbEntity
  8
Make2D$可见线$普通线
100
AcDbVertex
100
AcDb2dVertex
 10
466.3112258068359
 20
690.3005149035488
 30
0.0
  0
VERTEX
  5
51E
330
4B2
100
AcDbEntity
  8
Make2D$可见线$普通线
100
AcDbVertex
100
AcDb2dVertex
 10
466.3093495132393
 20
690.3013348071354
 30
0.0
  0
VERTEX
  5
51F
330
4B2
100
AcDbEntity
  8
Make2D$可见线$普通线
100
AcDbVertex
100
AcDb2dVertex
 10
466.3073347389477
 20
690.3021543155683
 30
0.0
  0
VERTEX
  5
520
330
4B2
100
AcDbEntity
  8
Make2D$可见线$普通线
100
AcDbVertex
100
AcDb2dVertex
 10
466.3051816406506
 20
690.3029734006385
 30
0.0
  0
VERTEX
  5
521
330
4B2
100
AcDbEntity
  8
Make2D$可见线$普通线
100
AcDbVertex
100
AcDb2dVertex
 10
466.3028903750377
 20
690.3037920341371
 30
0.0
  0
VERTEX
  5
522
330
4B2
100
AcDbEntity
  8
Make2D$可见线$普通线
100
AcDbVertex
100
AcDb2dVertex
 10
466.3004610987985
 20
690.3046101878557
 30
0.0
  0
VERTEX
  5
523
330
4B2
100
AcDbEntity
  8
Make2D$可见线$普通线
100
AcDbVertex
100
AcDb2dVertex
 10
466.2951891411997
 20
690.3062449431163
 30
0.0
  0
VERTEX
  5
524
330
4B2
100
AcDbEntity
  8
Make2D$可见线$普通线
100
AcDbVertex
100
AcDb2dVertex
 10
466.2893670213712
 20
690.3078774407498
 30
0.0
  0
VERTEX
  5
525
330
4B2
100
AcDbEntity
  8
Make2D$可见线$普通线
100
AcDbVertex
100
AcDb2dVertex
 10
466.2829959928297
 20
690.3095074550858
 30
0.0
  0
VERTEX
  5
526
330
4B2
100
AcDbEntity
  8
Make2D$可见线$普通线
100
AcDbVertex
100
AcDb2dVertex
 10
466.2686122236752
 20
690.3127591311826
 30
0.0
  0
VERTEX
  5
527
330
4B2
100
AcDbEntity
  8
Make2D$可见线$普通线
100
AcDbVertex
100
AcDb2dVertex
 10
466.2520478618707
 20
690.315998166042
 30
0.0
  0
VERTEX
  5
528
330
4B2
100
AcDbEntity
  8
Make2D$可见线$普通线
100
AcDbVertex
100
AcDb2dVertex
 10
466.2333129355507
 20
690.3192227542995
 30
0.0
  0
VERTEX
  5
529
330
4B2
100
AcDbEntity
  8
Make2D$可见线$普通线
100
AcDbVertex
100
AcDb2dVertex
 10
466.21241747285
 20
690.3224310905904
 30
0.0
  0
VERTEX
  5
52A
330
4B2
100
AcDbEntity
  8
Make2D$可见线$普通线
100
AcDbVertex
100
AcDb2dVertex
 10
466.1641850508444
 20
690.3287917858142
 30
0.0
  0
VERTEX
  5
52B
330
4B2
100
AcDbEntity
  8
Make2D$可见线$普通线
100
AcDbVertex
100
AcDb2dVertex
 10
466.0422350081847
 20
690.3412387166218
 30
0.0
  0
VERTEX
  5
52C
330
4B2
100
AcDbEntity
  8
Make2D$可见线$普通线
100
AcDbVertex
100
AcDb2dVertex
 10
465.6660732814264
 20
690.3664998859963
 30
0.0
  0
VERTEX
  5
52D
330
4B2
100
AcDbEntity
  8
Make2D$可见线$普通线
100
AcDbVertex
100
AcDb2dVertex
 10
465.1515174127088
 20
690.3885857482832
 30
0.0
  0
VERTEX
  5
52E
330
4B2
100
AcDbEntity
  8
Make2D$可见线$普通线
100
AcDbVertex
100
AcDb2dVertex
 10
463.7953703448012
 20
690.419683548921
 30
0.0
  0
VERTEX
  5
52F
330
4B2
100
AcDbEntity
  8
Make2D$可见线$普通线
100
AcDbVertex
100
AcDb2dVertex
 10
462.3229445835907
 20
690.4294842314818
 30
0.0
  0
VERTEX
  5
530
330
4B2
100
AcDbEntity
  8
Make2D$可见线$普通线
100
AcDbVertex
100
AcDb2dVertex
 10
429.3229445834156
 20
690.4294842314818
 30
0.0
  0
VERTEX
  5
531
330
4B2
100
AcDbEntity
  8
Make2D$可见线$普通线
100
AcDbVertex
100
AcDb2dVertex
 10
427.850518822196
 20
690.4196835489204
 30
0.0
  0
VERTEX
  5
532
330
4B2
100
AcDbEntity
  8
Make2D$可见线$普通线
100
AcDbVertex
100
AcDb2dVertex
 10
426.4943717539369
 20
690.3885857482703
 30
0.0
  0
VERTEX
  5
533
330
4B2
100
AcDbEntity
  8
Make2D$可见线$普通线
100
AcDbVertex
100
AcDb2dVertex
 10
425.9798158854402
 20
690.3664998859883
 30
0.0
  0
VERTEX
  5
534
330
4B2
100
AcDbEntity
  8
Make2D$可见线$普通线
100
AcDbVertex
100
AcDb2dVertex
 10
425.6036541588131
 20
690.3412387166213
 30
0.0
  0
VERTEX
  5
535
330
4B2
100
AcDbEntity
  8
Make2D$可见线$普通线
100
AcDbVertex
100
AcDb2dVertex
 10
425.4817041161564
 20
690.3287917858138
 30
0.0
  0
VERTEX
  5
536
330
4B2
100
AcDbEntity
  8
Make2D$可见线$普通线
100
AcDbVertex
100
AcDb2dVertex
 10
425.4334716941544
 20
690.32243109059
 30
0.0
  0
VERTEX
  5
537
330
4B2
100
AcDbEntity
  8
Make2D$可见线$普通线
100
AcDbVertex
100
AcDb2dVertex
 10
425.4125762314557
 20
690.3192227542993
 30
0.0
  0
VERTEX
  5
538
330
4B2
100
AcDbEntity
  8
Make2D$可见线$普通线
100
AcDbVertex
100
AcDb2dVertex
 10
425.3938413051376
 20
690.3159981660419
 30
0.0
  0
VERTEX
  5
539
330
4B2
100
AcDbEntity
  8
Make2D$可见线$普通线
100
AcDbVertex
100
AcDb2dVertex
 10
425.3772769433347
 20
690.3127591311826
 30
0.0
  0
VERTEX
  5
53A
330
4B2
100
AcDbEntity
  8
Make2D$可见线$普通线
100
AcDbVertex
100
AcDb2dVertex
 10
425.3628931741815
 20
690.3095074550858
 30
0.0
  0
VERTEX
  5
53B
330
4B2
100
AcDbEntity
  8
Make2D$可见线$普通线
100
AcDbVertex
100
AcDb2dVertex
 10
425.3565221456406
 20
690.3078774407498
 30
0.0
  0
VERTEX
  5
53C
330
4B2
100
AcDbEntity
  8
Make2D$可见线$普通线
100
AcDbVertex
100
AcDb2dVertex
 10
425.3507000258124
 20
690.3062449431163
 30
0.0
  0
VERTEX
  5
53D
330
4B2
100
AcDbEntity
  8
Make2D$可见线$普通线
100
AcDbVertex
100
AcDb2dVertex
 10
425.3454280682139
 20
690.3046101878558
 30
0.0
  0
VERTEX
  5
53E
330
4B2
100
AcDbEntity
  8
Make2D$可见线$普通线
100
AcDbVertex
100
AcDb2dVertex
 10
425.3429987919749
 20
690.3037920341374
 30
0.0
  0
VERTEX
  5
53F
330
4B2
100
AcDbEntity
  8
Make2D$可见线$普通线
100
AcDbVertex
100
AcDb2dVertex
 10
425.3407075263619
 20
690.3029734006386
 30
0.0
  0
VERTEX
  5
540
330
4B2
100
AcDbEntity
  8
Make2D$可见线$普通线
100
AcDbVertex
100
AcDb2dVertex
 10
425.3385544280648
 20
690.3021543155685
 30
0.0
  0
VERTEX
  5
541
330
4B2
100
AcDbEntity
  8
Make2D$可见线$普通线
100
AcDbVertex
100
AcDb2dVertex
 10
425.3365396537732
 20
690.3013348071356
 30
0.0
  0
VERTEX
  5
542
330
4B2
100
AcDbEntity
  8
Make2D$可见线$普通线
100
AcDbVertex
100
AcDb2dVertex
 10
425.3346633601765
 20
690.300514903549
 30
0.0
  0
VERTEX
  5
543
330
4B2
100
AcDbEntity
  8
Make2D$可见线$普通线
100
AcDbVertex
100
AcDb2dVertex
 10
425.3329257039645
 20
690.2996946330172
 30
0.0
  0
VERTEX
  5
544
330
4B2
100
AcDbEntity
  8
Make2D$可见线$普通线
100
AcDbVertex
100
AcDb2dVertex
 10
425.3321089138432
 20
690.2992843689622
 30
0.0
  0
VERTEX
  5
545
330
4B2
100
AcDbEntity
  8
Make2D$可见线$普通线
100
AcDbVertex
100
AcDb2dVertex
 10
425.3313268418267
 20
690.2988740237492
 30
0.0
  0
VERTEX
  5
546
330
4B2
100
AcDbEntity
  8
Make2D$可见线$普通线
100
AcDbVertex
100
AcDb2dVertex
 10
425.3305795075012
 20
690.2984636009046
 30
0.0
  0
VERTEX
  5
547
330
4B2
100
AcDbEntity
  8
Make2D$可见线$普通线
100
AcDbVertex
100
AcDb2dVertex
 10
425.3298669304527
 20
690.298053103954
 30
0.0
  0
VERTEX
  5
548
330
4B2
100
AcDbEntity
  8
Make2D$可见线$普通线
100
AcDbVertex
100
AcDb2dVertex
 10
425.3291891302677
 20
690.2976425364238
 30
0.0
  0
VERTEX
  5
549
330
4B2
100
AcDbEntity
  8
Make2D$可见线$普通线
100
AcDbVertex
100
AcDb2dVertex
 10
425.3285461265322
 20
690.2972319018402
 30
0.0
  0
VERTEX
  5
54A
330
4B2
100
AcDbEntity
  8
Make2D$可见线$普通线
100
AcDbVertex
100
AcDb2dVertex
 10
425.3279379388324
 20
690.2968212037291
 30
0.0
  0
VERTEX
  5
54B
330
4B2
100
AcDbEntity
  8
Make2D$可见线$普通线
100
AcDbVertex
100
AcDb2dVertex
 10
425.3273645867546
 20
690.2964104456166
 30
0.0
  0
VERTEX
  5
54C
330
4B2
100
AcDbEntity
  8
Make2D$可见线$普通线
100
AcDbVertex
100
AcDb2dVertex
 10
425.3268260898849
 20
690.295999631029
 30
0.0
  0
VERTEX
  5
54D
330
4B2
100
AcDbEntity
  8
Make2D$可见线$普通线
100
AcDbVertex
100
AcDb2dVertex
 10
425.3263224678096
 20
690.2955887634921
 30
0.0
  0
VERTEX
  5
54E
330
4B2
100
AcDbEntity
  8
Make2D$可见线$普通线
100
AcDbVertex
100
AcDb2dVertex
 10
425.3260837409406
 20
690.2953833109696
 30
0.0
  0
VERTEX
  5
54F
330
4B2
100
AcDbEntity
  8
Make2D$可见线$普通线
100
AcDbVertex
100
AcDb2dVertex
 10
425.325853740115
 20
690.2951778465322
 30
0.0
  0
VERTEX
  5
550
330
4B2
100
AcDbEntity
  8
Make2D$可见线$普通线
100
AcDbVertex
100
AcDb2dVertex
 10
425.325632467781
 20
690.2949723706206
 30
0.0
  0
VERTEX
  5
551
330
4B2
100
AcDbEntity
  8
Make2D$可见线$普通线
100
AcDbVertex
100
AcDb2dVertex
 10
425.325419926387
 20
690.2947668836755
 30
0.0
  0
VERTEX
  5
552
330
4B2
100
AcDbEntity
  8
Make2D$可见线$普通线
100
AcDbVertex
100
AcDb2dVertex
 10
425.3252161183813
 20
690.2945613861377
 30
0.0
  0
VERTEX
  5
553
330
4B2
100
AcDbEntity
  8
Make2D$可见线$普通线
100
AcDbVertex
100
AcDb2dVertex
 10
425.325021046212
 20
690.294355878448
 30
0.0
  0
VERTEX
  5
554
330
4B2
100
AcDbEntity
  8
Make2D$可见线$普通线
100
AcDbVertex
100
AcDb2dVertex
 10
425.3248347123275
 20
690.2941503610471
 30
0.0
  0
VERTEX
  5
555
330
4B2
100
AcDbEntity
  8
Make2D$可见线$普通线
100
AcDbVertex
100
AcDb2dVertex
 10
425.3246571191761
 20
690.2939448343757
 30
0.0
  0
VERTEX
  5
556
330
4B2
100
AcDbEntity
  8
Make2D$可见线$普通线
100
AcDbVertex
100
AcDb2dVertex
 10
425.324488269206
 20
690.2937392988747
 30
0.0
  0
VERTEX
  5
557
330
4B2
100
AcDbEntity
  8
Make2D$可见线$普通线
100
AcDbVertex
100
AcDb2dVertex
 10
425.3243281648656
 20
690.2935337549848
 30
0.0
  0
VERTEX
  5
558
330
4B2
100
AcDbEntity
  8
Make2D$可见线$普通线
100
AcDbVertex
100
AcDb2dVertex
 10
425.3241768086031
 20
690.2933282031468
 30
0.0
  0
VERTEX
  5
559
330
4B2
100
AcDbEntity
  8
Make2D$可见线$普通线
100
AcDbVertex
100
AcDb2dVertex
 10
425.3240342028666
 20
690.2931226438014
 30
0.0
  0
VERTEX
  5
55A
330
4B2
100
AcDbEntity
  8
Make2D$可见线$普通线
100
AcDbVertex
100
AcDb2dVertex
 10
425.3239003501047
 20
690.2929170773895
 30
0.0
  0
VERTEX
  5
55B
330
4B2
100
AcDbEntity
  8
Make2D$可见线$普通线
100
AcDbVertex
100
AcDb2dVertex
 10
425.3237752527655
 20
690.2927115043517
 30
0.0
  0
VERTEX
  5
55C
330
4B2
100
AcDbEntity
  8
Make2D$可见线$普通线
100
AcDbVertex
100
AcDb2dVertex
 10
425.3236589132972
 20
690.2925059251288
 30
0.0
  0
VERTEX
  5
55D
330
4B2
100
AcDbEntity
  8
Make2D$可见线$普通线
100
AcDbVertex
100
AcDb2dVertex
 10
425.3235513341482
 20
690.2923003401615
 30
0.0
  0
VERTEX
  5
55E
330
4B2
100
AcDbEntity
  8
Make2D$可见线$普通线
100
AcDbVertex
100
AcDb2dVertex
 10
425.3234525177667
 20
690.2920947498908
 30
0.0
  0
VERTEX
  5
55F
330
4B2
100
AcDbEntity
  8
Make2D$可见线$普通线
100
AcDbVertex
100
AcDb2dVertex
 10
425.3233624666011
 20
690.2918891547573
 30
0.0
  0
VERTEX
  5
560
330
4B2
100
AcDbEntity
  8
Make2D$可见线$普通线
100
AcDbVertex
100
AcDb2dVertex
 10
425.3232811830996
 20
690.2916835552018
 30
0.0
  0
VERTEX
  5
561
330
4B2
100
AcDbEntity
  8
Make2D$可见线$普通线
100
AcDbVertex
100
AcDb2dVertex
 10
425.3232086697104
 20
690.2914779516649
 30
0.0
  0
VERTEX
  5
562
330
4B2
100
AcDbEntity
  8
Make2D$可见线$普通线
100
AcDbVertex
100
AcDb2dVertex
 10
425.3231449288818
 20
690.2912723445877
 30
0.0
  0
VERTEX
  5
563
330
4B2
100
AcDbEntity
  8
Make2D$可见线$普通线
100
AcDbVertex
100
AcDb2dVertex
 10
425.3230899630622
 20
690.2910667344106
 30
0.0
  0
VERTEX
  5
564
330
4B2
100
AcDbEntity
  8
Make2D$可见线$普通线
100
AcDbVertex
100
AcDb2dVertex
 10
425.3230437746998
 20
690.2908611215744
 30
0.0
  0
VERTEX
  5
565
330
4B2
100
AcDbEntity
  8
Make2D$可见线$普通线
100
AcDbVertex
100
AcDb2dVertex
 10
425.3230063662428
 20
690.2906555065202
 30
0.0
  0
VERTEX
  5
566
330
4B2
100
AcDbEntity
  8
Make2D$可见线$普通线
100
AcDbVertex
100
AcDb2dVertex
 10
425.3229777401395
 20
690.2904498896885
 30
0.0
  0
VERTEX
  5
567
330
4B2
100
AcDbEntity
  8
Make2D$可见线$普通线
100
AcDbVertex
100
AcDb2dVertex
 10
425.3229578988383
 20
690.2902442715201
 30
0.0
  0
VERTEX
  5
568
330
4B2
100
AcDbEntity
  8
Make2D$可见线$普通线
100
AcDbVertex
100
AcDb2dVertex
 10
425.3229468447873
 20
690.2900386524559
 30
0.0
  0
VERTEX
  5
569
330
4B2
100
AcDbEntity
  8
Make2D$可见线$普通线
100
AcDbVertex
100
AcDb2dVertex
 10
425.322944580435
 20
690.2898330329367
 30
0.0
 42
-0.41421188481532
  0
VERTEX
  5
56A
330
4B2
100
AcDbEntity
  8
Make2D$可见线$普通线
100
AcDbVertex
100
AcDb2dVertex
 10
424.322944422994
 20
691.2892233953063
 30
0.0
  0
VERTEX
  5
56B
330
4B2
100
AcDbEntity
  8
Make2D$可见线$普通线
100
AcDbVertex
100
AcDb2dVertex
 10
424.3229444219858
 20
703.280463875839
 30
0.0
  0
VERTEX
  5
56C
330
4B2
100
AcDbEntity
  8
Make2D$可见线$普通线
100
AcDbVertex
100
AcDb2dVertex
 10
424.3232420082218
 20
703.3046236001645
 30
0.0
  0
VERTEX
  5
56D
330
4B2
100
AcDbEntity
  8
Make2D$可见线$普通线
100
AcDbVertex
100
AcDb2dVertex
 10
424.3241245280924
 20
703.3288777062579
 30
0.0
  0
VERTEX
  5
56E
330
4B2
100
AcDbEntity
  8
Make2D$可见线$普通线
100
AcDbVertex
100
AcDb2dVertex
 10
424.3255988660488
 20
703.3532054662583
 30
0.0
  0
VERTEX
  5
56F
330
4B2
100
AcDbEntity
  8
Make2D$可见线$普通线
100
AcDbVertex
100
AcDb2dVertex
 10
424.3276709470078
 20
703.3775856664768
 30
0.0
  0
VERTEX
  5
570
330
4B2
100
AcDbEntity
  8
Make2D$可见线$普通线
100
AcDbVertex
100
AcDb2dVertex
 10
424.3303456986254
 20
703.4019966619512
 30
0.0
  0
VERTEX
  5
571
330
4B2
100
AcDbEntity
  8
Make2D$可见线$普通线
100
AcDbVertex
100
AcDb2dVertex
 10
424.3336270172389
 20
703.4264164342745
 30
0.0
  0
VERTEX
  5
572
330
4B2
100
AcDbEntity
  8
Make2D$可见线$普通线
100
AcDbVertex
100
AcDb2dVertex
 10
424.3375177377919
 20
703.4508226524118
 30
0.0
  0
VERTEX
  5
573
330
4B2
100
AcDbEntity
  8
Make2D$可见线$普通线
100
AcDbVertex
100
AcDb2dVertex
 10
424.3420196080367
 20
703.4751927361873
 30
0.0
  0
VERTEX
  5
574
330
4B2
100
AcDbEntity
  8
Make2D$可见线$普通线
100
AcDbVertex
100
AcDb2dVertex
 10
424.3471332672755
 20
703.4995039220933
 30
0.0
  0
VERTEX
  5
575
330
4B2
100
AcDbEntity
  8
Make2D$可见线$普通线
100
AcDbVertex
100
AcDb2dVertex
 10
424.3528582298724
 20
703.5237333310414
 30
0.0
  0
VERTEX
  5
576
330
4B2
100
AcDbEntity
  8
Make2D$可见线$普通线
100
AcDbVertex
100
AcDb2dVertex
 10
424.35919287373
 20
703.5478580376522
 30
0.0
  0
VERTEX
  5
577
330
4B2
100
AcDbEntity
  8
Make2D$可见线$普通线
100
AcDbVertex
100
AcDb2dVertex
 10
424.3661344338856
 20
703.5718551406597
 30
0.0
  0
VERTEX
  5
578
330
4B2
100
AcDbEntity
  8
Make2D$可见线$普通线
100
AcDbVertex
100
AcDb2dVertex
 10
424.3736790013417
 20
703.5957018339897
 30
0.0
  0
VERTEX
  5
579
330
4B2
100
AcDbEntity
  8
Make2D$可见线$普通线
100
AcDbVertex
100
AcDb2dVertex
 10
424.3818215272011
 20
703.6193754780525
 30
0.0
  0
VERTEX
  5
57A
330
4B2
100
AcDbEntity
  8
Make2D$可见线$普通线
100
AcDbVertex
100
AcDb2dVertex
 10
424.3905558321291
 20
703.6428536707966
 30
0.0
  0
VERTEX
  5
57B
330
4B2
100
AcDbEntity
  8
Make2D$可见线$普通线
100
AcDbVertex
100
AcDb2dVertex
 10
424.3998746211244
 20
703.6661143180517
 30
0.0
  0
VERTEX
  5
57C
330
4B2
100
AcDbEntity
  8
Make2D$可见线$普通线
100
AcDbVertex
100
AcDb2dVertex
 10
424.4097695035301
 20
703.6891357027021
 30
0.0
  0
VERTEX
  5
57D
330
4B2
100
AcDbEntity
  8
Make2D$可见线$普通线
100
AcDbVertex
100
AcDb2dVertex
 10
424.4202310181716
 20
703.7118965522388
 30
0.0
  0
VERTEX
  5
57E
330
4B2
100
AcDbEntity
  8
Make2D$可见线$普通线
100
AcDbVertex
100
AcDb2dVertex
 10
424.4312486634641
 20
703.7343761042467
 30
0.0
  0
VERTEX
  5
57F
330
4B2
100
AcDbEntity
  8
Make2D$可见线$普通线
100
AcDbVertex
100
AcDb2dVertex
 10
424.4428109322886
 20
703.7565541694054
 30
0.0
  0
VERTEX
  5
580
330
4B2
100
AcDbEntity
  8
Make2D$可见线$普通线
100
AcDbVertex
100
AcDb2dVertex
 10
424.4549053513941
 20
703.7784111916008
 30
0.0
  0
VERTEX
  5
581
330
4B2
100
AcDbEntity
  8
Make2D$可见线$普通线
100
AcDbVertex
100
AcDb2dVertex
 10
424.4675185250491
 20
703.7999283047807
 30
0.0
  0
VERTEX
  5
582
330
4B2
100
AcDbEntity
  8
Make2D$可见线$普通线
100
AcDbVertex
100
AcDb2dVertex
 10
424.4806361826245
 20
703.8210873862025
 30
0.0
  0
VERTEX
  5
583
330
4B2
100
AcDbEntity
  8
Make2D$可见线$普通线
100
AcDbVertex
100
AcDb2dVertex
 10
424.4942432297673
 20
703.8418711057718
 30
0.0
  0
VERTEX
  5
584
330
4B2
100
AcDbEntity
  8
Make2D$可见线$普通线
100
AcDbVertex
100
AcDb2dVertex
 10
424.5083238027913
 20
703.8622629711984
 30
0.0
  0
VERTEX
  5
585
330
4B2
100
AcDbEntity
  8
Make2D$可见线$普通线
100
AcDbVertex
100
AcDb2dVertex
 10
424.5228613258917
 20
703.8822473687378
 30
0.0
  0
VERTEX
  5
586
330
4B2
100
AcDbEntity
  8
Make2D$可见线$普通线
100
AcDbVertex
100
AcDb2dVertex
 10
424.5378385707752
 20
703.9018095993288
 30
0.0
  0
VERTEX
  5
587
330
4B2
100
AcDbEntity
  8
Make2D$可见线$普通线
100
AcDbVertex
100
AcDb2dVertex
 10
424.5532377182794
 20
703.920935909981
 30
0.0
  0
VERTEX
  5
588
330
4B2
100
AcDbEntity
  8
Make2D$可见线$普通线
100
AcDbVertex
100
AcDb2dVertex
 10
424.5690404215528
 20
703.9396135203092
 30
0.0
  0
VERTEX
  5
589
330
4B2
100
AcDbEntity
  8
Make2D$可见线$普通线
100
AcDbVertex
100
AcDb2dVertex
 10
424.5852278703613
 20
703.9578306441507
 30
0.0
  0
VERTEX
  5
58A
330
4B2
100
AcDbEntity
  8
Make2D$可见线$普通线
100
AcDbVertex
100
AcDb2dVertex
 10
424.60178085609
 20
703.9755765062524
 30
0.0
  0
VERTEX
  5
58B
330
4B2
100
AcDbEntity
  8
Make2D$可见线$普通线
100
AcDbVertex
100
AcDb2dVertex
 10
424.6186798370144
 20
703.9928413540498
 30
0.0
  0
VERTEX
  5
58C
330
4B2
100
AcDbEntity
  8
Make2D$可见线$普通线
100
AcDbVertex
100
AcDb2dVertex
 10
424.6386456471375
 20
704.0121380282785
 30
0.0
  0
VERTEX
  5
58D
330
4B2
100
AcDbEntity
  8
Make2D$可见线$普通线
100
AcDbVertex
100
AcDb2dVertex
 10
424.6591370031601
 20
704.0309682739089
 30
0.0
  0
VERTEX
  5
58E
330
4B2
100
AcDbEntity
  8
Make2D$可见线$普通线
100
AcDbVertex
100
AcDb2dVertex
 10
424.6801373205582
 20
704.0492631974107
 30
0.0
  0
VERTEX
  5
58F
330
4B2
100
AcDbEntity
  8
Make2D$可见线$普通线
100
AcDbVertex
100
AcDb2dVertex
 10
424.7016300148077
 20
704.0669539052537
 30
0.0
  0
VERTEX
  5
590
330
4B2
100
AcDbEntity
  8
Make2D$可见线$普通线
100
AcDbVertex
100
AcDb2dVertex
 10
424.7228026036637
 20
704.0833892282941
 30
0.0
  0
VERTEX
  5
591
330
4B2
100
AcDbEntity
  8
Make2D$可见线$普通线
100
AcDbVertex
100
AcDb2dVertex
 10
424.7443968978828
 20
704.0992264021154
 30
0.0
  0
VERTEX
  5
592
330
4B2
100
AcDbEntity
  8
Make2D$可见线$普通线
100
AcDbVertex
100
AcDb2dVertex
 10
424.7663922857925
 20
704.1144930287853
 30
0.0
  0
VERTEX
  5
593
330
4B2
100
AcDbEntity
  8
Make2D$可见线$普通线
100
AcDbVertex
100
AcDb2dVertex
 10
424.7887681557204
 20
704.129216710372
 30
0.0
  0
VERTEX
  5
594
330
4B2
100
AcDbEntity
  8
Make2D$可见线$普通线
100
AcDbVertex
100
AcDb2dVertex
 10
424.813428546135
 20
704.1445844952609
 30
0.0
  0
VERTEX
  5
595
330
4B2
100
AcDbEntity
  8
Make2D$可见线$普通线
100
AcDbVertex
100
AcDb2dVertex
 10
424.8384938148994
 20
704.1593214732732
 30
0.0
  0
VERTEX
  5
596
330
4B2
100
AcDbEntity
  8
Make2D$可见线$普通线
100
AcDbVertex
100
AcDb2dVertex
 10
424.8639460498833
 20
704.1734022836978
 30
0.0
  0
VERTEX
  5
597
330
4B2
100
AcDbEntity
  8
Make2D$可见线$普通线
100
AcDbVertex
100
AcDb2dVertex
 10
424.8897673389563
 20
704.1868015658238
 30
0.0
  0
VERTEX
  5
598
330
4B2
100
AcDbEntity
  8
Make2D$可见线$普通线
100
AcDbVertex
100
AcDb2dVertex
 10
424.9159397699882
 20
704.1994939589401
 30
0.0
  0
VERTEX
  5
599
330
4B2
100
AcDbEntity
  8
Make2D$可见线$普通线
100
AcDbVertex
100
AcDb2dVertex
 10
424.9424454308488
 20
704.2114541023357
 30
0.0
  0
VERTEX
  5
59A
330
4B2
100
AcDbEntity
  8
Make2D$可见线$普通线
100
AcDbVertex
100
AcDb2dVertex
 10
424.9692664094077
 20
704.2226566352995
 30
0.0
  0
VERTEX
  5
59B
330
4B2
100
AcDbEntity
  8
Make2D$可见线$普通线
100
AcDbVertex
100
AcDb2dVertex
 10
424.9963847935346
 20
704.2330761971202
 30
0.0
  0
VERTEX
  5
59C
330
4B2
100
AcDbEntity
  8
Make2D$可见线$普通线
100
AcDbVertex
100
AcDb2dVertex
 10
425.0228613956718
 20
704.2423907688558
 30
0.0
  0
VERTEX
  5
59D
330
4B2
100
AcDbEntity
  8
Make2D$可见线$普通线
100
AcDbVertex
100
AcDb2dVertex
 10
425.0495741895693
 20
704.2509942785663
 30
0.0
  0
VERTEX
  5
59E
330
4B2
100
AcDbEntity
  8
Make2D$可见线$普通线
100
AcDbVertex
100
AcDb2dVertex
 10
425.0764982398561
 20
704.2589308783
 30
0.0
  0
VERTEX
  5
59F
330
4B2
100
AcDbEntity
  8
Make2D$可见线$普通线
100
AcDbVertex
100
AcDb2dVertex
 10
425.1036086111617
 20
704.266244720106
 30
0.0
  0
VERTEX
  5
5A0
330
4B2
100
AcDbEntity
  8
Make2D$可见线$普通线
100
AcDbVertex
100
AcDb2dVertex
 10
425.1308803681152
 20
704.2729799560327
 30
0.0
  0
VERTEX
  5
5A1
330
4B2
100
AcDbEntity
  8
Make2D$可见线$普通线
100
AcDbVertex
100
AcDb2dVertex
 10
425.158288575346
 20
704.2791807381293
 30
0.0
  0
VERTEX
  5
5A2
330
4B2
100
AcDbEntity
  8
Make2D$可见线$普通线
100
AcDbVertex
100
AcDb2dVertex
 10
425.2134145991564
 20
704.2901555490263
 30
0.0
  0
VERTEX
  5
5A3
330
4B2
100
AcDbEntity
  8
Make2D$可见线$普通线
100
AcDbVertex
100
AcDb2dVertex
 10
425.250975600076
 20
704.2966588367424
 30
0.0
  0
VERTEX
  5
5A4
330
4B2
100
AcDbEntity
  8
Make2D$可见线$普通线
100
AcDbVertex
100
AcDb2dVertex
 10
425.2886358043143
 20
704.3024992648516
 30
0.0
  0
VERTEX
  5
5A5
330
4B2
100
AcDbEntity
  8
Make2D$可见线$普通线
100
AcDbVertex
100
AcDb2dVertex
 10
425.3641966401974
 20
704.3125007290482
 30
0.0
  0
VERTEX
  5
5A6
330
4B2
100
AcDbEntity
  8
Make2D$可见线$普通线
100
AcDbVertex
100
AcDb2dVertex
 10
425.5158797437423
 20
704.3279503969379
 30
0.0
  0
VERTEX
  5
5A7
330
4B2
100
AcDbEntity
  8
Make2D$可见线$普通线
100
AcDbVertex
100
AcDb2dVertex
 10
425.9253367910275
 20
704.3557868843712
 30
0.0
  0
VERTEX
  5
5A8
330
4B2
100
AcDbEntity
  8
Make2D$可见线$普通线
100
AcDbVertex
100
AcDb2dVertex
 10
426.459506076502
 20
704.378522433586
 30
0.0
  0
VERTEX
  5
5A9
330
4B2
100
AcDbEntity
  8
Make2D$可见线$普通线
100
AcDbVertex
100
AcDb2dVertex
 10
427.8367114489978
 20
704.410115467591
 30
0.0
  0
VERTEX
  5
5AA
330
4B2
100
AcDbEntity
  8
Make2D$可见线$普通线
100
AcDbVertex
100
AcDb2dVertex
 10
429.3229445834185
 20
704.4200059561764
 30
0.0
  0
SEQEND
  5
5AB
330
4B2
100
AcDbEntity
  8
Make2D$可见线$普通线
  0
POLYLINE
  5
5AC
330
1F
100
AcDbEntity
  8
Make2D$可见线$普通线
100
AcDb2dPolyline
 66
     1
 10
0.0
 20
0.0
 30
0.0
  0
VERTEX
  5
5AD
330
5AC
100
AcDbEntity
  8
Make2D$可见线$普通线
100
AcDbVertex
100
AcDb2dVertex
 10
441.8229444542892
 20
714.3223324574911
 30
0.0
  0
VERTEX
  5
5AE
330
5AC
100
AcDbEntity
  8
Make2D$可见线$普通线
100
AcDbVertex
100
AcDb2dVertex
 10
441.8229444542894
 20
775.3223324574911
 30
0.0
 42
-0.4143333574616793
  0
VERTEX
  5
5AF
330
5AC
100
AcDbEntity
  8
Make2D$可见线$普通线
100
AcDbVertex
100
AcDb2dVertex
 10
442.8233531998957
 20
776.322332457491
 30
0.0
  0
VERTEX
  5
5B0
330
5AC
100
AcDbEntity
  8
Make2D$可见线$普通线
100
AcDbVertex
100
AcDb2dVertex
 10
443.0334817711063
 20
776.3223324574914
 30
0.0
  0
VERTEX
  5
5B1
330
5AC
100
AcDbEntity
  8
Make2D$可见线$普通线
100
AcDbVertex
100
AcDb2dVertex
 10
448.6124073959527
 20
776.3223324574911
 30
0.0
  0
VERTEX
  5
5B2
330
5AC
100
AcDbEntity
  8
Make2D$可见线$普通线
100
AcDbVertex
100
AcDb2dVertex
 10
448.8229445835039
 20
776.3223324574911
 30
0.0
 42
-0.4142137105099376
  0
VERTEX
  5
5B3
330
5AC
100
AcDbEntity
  8
Make2D$可见线$普通线
100
AcDbVertex
100
AcDb2dVertex
 10
449.8229447127172
 20
775.3223324574911
 30
0.0
  0
VERTEX
  5
5B4
330
5AC
100
AcDbEntity
  8
Make2D$可见线$普通线
100
AcDbVertex
100
AcDb2dVertex
 10
449.8229447127172
 20
714.3223324574911
 30
0.0
 42
-0.414213730551575
  0
VERTEX
  5
5B5
330
5AC
100
AcDbEntity
  8
Make2D$可见线$普通线
100
AcDbVertex
100
AcDb2dVertex
 10
448.8229445835038
 20
713.3223324574913
 30
0.0
  0
VERTEX
  5
5B6
330
5AC
100
AcDbEntity
  8
Make2D$可见线$普通线
100
AcDbVertex
100
AcDb2dVertex
 10
448.6124073959523
 20
713.3223324574913
 30
0.0
  0
VERTEX
  5
5B7
330
5AC
100
AcDbEntity
  8
Make2D$可见线$普通线
100
AcDbVertex
100
AcDb2dVertex
 10
448.5663464350954
 20
713.3223324574913
 30
0.0
  0
VERTEX
  5
5B8
330
5AC
100
AcDbEntity
  8
Make2D$可见线$普通线
100
AcDbVertex
100
AcDb2dVertex
 10
448.5591091830702
 20
713.3223324574913
 30
0.0
  0
VERTEX
  5
5B9
330
5AC
100
AcDbEntity
  8
Make2D$可见线$普通线
100
AcDbVertex
100
AcDb2dVertex
 10
448.5532386036745
 20
713.3223324574913
 30
0.0
  0
VERTEX
  5
5BA
330
5AC
100
AcDbEntity
  8
Make2D$可见线$普通线
100
AcDbVertex
100
AcDb2dVertex
 10
448.5497608193884
 20
713.3223324574913
 30
0.0
  0
VERTEX
  5
5BB
330
5AC
100
AcDbEntity
  8
Make2D$可见线$普通线
100
AcDbVertex
100
AcDb2dVertex
 10
443.0334817711062
 20
713.3223324574913
 30
0.0
  0
VERTEX
  5
5BC
330
5AC
100
AcDbEntity
  8
Make2D$可见线$普通线
100
AcDbVertex
100
AcDb2dVertex
 10
442.8233531998956
 20
713.3223324574914
 30
0.0
 42
-0.4143333374795594
  0
VERTEX
  5
5BD
330
5AC
100
AcDbEntity
  8
Make2D$可见线$普通线
100
AcDbVertex
100
AcDb2dVertex
 10
441.8229444542893
 20
714.3223324574911
 30
0.0
  0
SEQEND
  5
5BE
330
5AC
100
AcDbEntity
  8
Make2D$可见线$普通线
  0
POLYLINE
  5
5BF
330
1F
100
AcDbEntity
  8
Make2D$可见线$普通线
100
AcDb2dPolyline
 66
     1
 10
0.0
 20
0.0
 30
0.0
  0
VERTEX
  5
5C0
330
5BF
100
AcDbEntity
  8
Make2D$可见线$普通线
100
AcDbVertex
100
AcDb2dVertex
 10
458.4553964633798
 20
689.7719487602443
 30
0.0
 42
0.3187775702729381
  0
VERTEX
  5
5C1
330
5BF
100
AcDbEntity
  8
Make2D$可见线$普通线
100
AcDbVertex
100
AcDb2dVertex
 10
457.8229446970697
 20
688.8646300607971
 30
0.0
  0
VERTEX
  5
5C2
330
5BF
100
AcDbEntity
  8
Make2D$可见线$普通线
100
AcDbVertex
100
AcDb2dVertex
 10
457.8229445835032
 20
685.7233270577791
 30
0.0
  0
SEQEND
  5
5C3
330
5BF
100
AcDbEntity
  8
Make2D$可见线$普通线
  0
POLYLINE
  5
5C4
330
1F
100
AcDbEntity
  8
Make2D$可见线$普通线
100
AcDb2dPolyline
 66
     1
 10
0.0
 20
0.0
 30
0.0
  0
VERTEX
  5
5C5
330
5C4
100
AcDbEntity
  8
Make2D$可见线$普通线
100
AcDbVertex
100
AcDb2dVertex
 10
433.1903876321068
 20
689.7719826867548
 30
0.0
 42
-0.3171811098452962
  0
VERTEX
  5
5C6
330
5C4
100
AcDbEntity
  8
Make2D$可见线$普通线
100
AcDbVertex
100
AcDb2dVertex
 10
433.8229259133594
 20
688.8706078628112
 30
0.0
  0
VERTEX
  5
5C7
330
5C4
100
AcDbEntity
  8
Make2D$可见线$普通线
100
AcDbVertex
100
AcDb2dVertex
 10
433.8229445835032
 20
685.7233270577791
 30
0.0
  0
SEQEND
  5
5C8
330
5C4
100
AcDbEntity
  8
Make2D$可见线$普通线
  0
POLYLINE
  5
5C9
330
1F
100
AcDbEntity
  8
Make2D$可见线$普通线
100
AcDb2dPolyline
 66
     1
 10
0.0
 20
0.0
 30
0.0
  0
VERTEX
  5
5CA
330
5C9
100
AcDbEntity
  8
Make2D$可见线$普通线
100
AcDbVertex
100
AcDb2dVertex
 10
448.5505139891784
 20
713.3208729984254
 30
0.0
 42
0.3892799246194713
  0
VERTEX
  5
5CB
330
5C9
100
AcDbEntity
  8
Make2D$可见线$普通线
100
AcDbVertex
100
AcDb2dVertex
 10
448.3229717504037
 20
713.0723324574913
 30
0.0
  0
VERTEX
  5
5CC
330
5C9
100
AcDbEntity
  8
Make2D$可见线$普通线
100
AcDbVertex
100
AcDb2dVertex
 10
448.3229717504036
 20
704.5723324574911
 30
0.0
 42
0.1651831481931322
  0
VERTEX
  5
5CD
330
5C9
100
AcDbEntity
  8
Make2D$可见线$普通线
100
AcDbVertex
100
AcDb2dVertex
 10
448.3747645424653
 20
704.4200059561539
 30
0.0
  0
SEQEND
  5
5CE
330
5C9
100
AcDbEntity
  8
Make2D$可见线$普通线
  0
POLYLINE
  5
5CF
330
1F
100
AcDbEntity
  8
Make2D$可见线$普通线
100
AcDb2dPolyline
 66
     1
 10
0.0
 20
0.0
 30
0.0
  0
VERTEX
  5
5D0
330
5CF
100
AcDbEntity
  8
Make2D$可见线$普通线
100
AcDbVertex
100
AcDb2dVertex
 10
443.271124624136
 20
704.420005956177
 30
0.0
 42
0.1651831470590571
  0
VERTEX
  5
5D1
330
5CF
100
AcDbEntity
  8
Make2D$可见线$普通线
100
AcDbVertex
100
AcDb2dVertex
 10
443.3229174166012
 20
704.5723324574911
 30
0.0
  0
VERTEX
  5
5D2
330
5CF
100
AcDbEntity
  8
Make2D$可见线$普通线
100
AcDbVertex
100
AcDb2dVertex
 10
443.3229174166012
 20
713.0723324574911
 30
0.0
 42
0.399241981245222
  0
VERTEX
  5
5D3
330
5CF
100
AcDbEntity
  8
Make2D$可见线$普通线
100
AcDbVertex
100
AcDb2dVertex
 10
443.086732754035
 20
713.3214986380099
 30
0.0
  0
SEQEND
  5
5D4
330
5CF
100
AcDbEntity
  8
Make2D$可见线$普通线
  0
POLYLINE
  5
5D5
330
1F
100
AcDbEntity
  8
Make2D$可见线$普通线
100
AcDb2dPolyline
 66
     1
 10
0.0
 20
0.0
 30
0.0
  0
VERTEX
  5
5D6
330
5D5
100
AcDbEntity
  8
Make2D$可见线$普通线
100
AcDbVertex
100
AcDb2dVertex
 10
433.0137472657766
 20
685.1363438999769
 30
0.0
  0
VERTEX
  5
5D7
330
5D5
100
AcDbEntity
  8
Make2D$可见线$普通线
100
AcDbVertex
100
AcDb2dVertex
 10
430.8227928187855
 20
685.0659956532479
 30
0.0
  0
VERTEX
  5
5D8
330
5D5
100
AcDbEntity
  8
Make2D$可见线$普通线
100
AcDbVertex
100
AcDb2dVertex
 10
434.4140349192406
 20
685.1730990922443
 30
0.0
  0
SEQEND
  5
5D9
330
5D5
100
AcDbEntity
  8
Make2D$可见线$普通线
  0
LINE
  5
5DA
330
1F
100
AcDbEntity
  8
Make2D$可见线$普通线
100
AcDbLine
 10
455.4612568915244
 20
685.3525880958172
 30
0.0
 11
455.3204457747507
 21
685.2119218656829
 31
0.0
  0
LINE
  5
5DB
330
1F
100
AcDbEntity
  8
Make2D$可见线$普通线
100
AcDbLine
 10
436.3254427879906
 20
685.2119224693473
 30
0.0
 11
436.1846322754749
 21
685.3525880958326
 31
0.0
  0
ARC
  5
5DC
330
1F
100
AcDbEntity
  8
Make2D$可见线$普通线
100
AcDbCircle
 10
451.3121085672444
 20
424.819241599162
 30
0.0
 40
260.4211474717306
100
AcDbArc
 50
87.9069917460263
 51
88.69747338294646
  0
LINE
  5
5DD
330
1F
100
AcDbEntity
  8
Make2D$可见线$普通线
100
AcDbLine
 10
457.8164045364087
 20
685.7061297371309
 30
0.0
 11
457.3191799085538
 21
685.2094252616699
 31
0.0
  0
LINE
  5
5DE
330
1F
100
AcDbEntity
  8
Make2D$可见线$普通线
100
AcDbLine
 10
434.3267092584155
 20
685.209425261669
 30
0.0
 11
433.8294846306231
 21
685.7061297371562
 31
0.0
  0
ARC
  5
5DF
330
1F
100
AcDbEntity
  8
Make2D$可见线$普通线
100
AcDbCircle
 10
452.1514617461016
 20
451.3266492158095
 30
0.0
 40
233.8995090158052
100
AcDbArc
 50
87.88455094062549
 51
88.4277007627457
  0
ARC
  5
5E0
330
1F
100
AcDbEntity
  8
Make2D$可见线$普通线
100
AcDbCircle
 10
466.3236939980229
 20
703.2802558997495
 30
0.0
 40
0.9992872034619896
100
AcDbArc
 50
30.26429952438852
 51
33.19180776616236
  0
ARC
  5
5E1
330
1F
100
AcDbEntity
  8
Make2D$可见线$普通线
100
AcDbCircle
 10
425.3221951688669
 20
703.2802558998202
 30
0.0
 40
0.9992872033258107
100
AcDbArc
 50
146.8081922335747
 51
149.735700475742
  0
POLYLINE
  5
5E2
330
1F
100
AcDbEntity
  8
Make2D$可见线$普通线
100
AcDb2dPolyline
 66
     1
 10
0.0
 20
0.0
 30
0.0
  0
VERTEX
  5
5E3
330
5E2
100
AcDbEntity
  8
Make2D$可见线$普通线
100
AcDbVertex
100
AcDb2dVertex
 10
470.4585336921573
 20
489.3315823078512
 30
0.0
  0
VERTEX
  5
5E4
330
5E2
100
AcDbEntity
  8
Make2D$可见线$普通线
100
AcDbVertex
100
AcDb2dVertex
 10
470.4391442859747
 20
489.3292796650264
 30
0.0
  0
VERTEX
  5
5E5
330
5E2
100
AcDbEntity
  8
Make2D$可见线$普通线
100
AcDbVertex
100
AcDb2dVertex
 10
470.3433422059027
 20
489.3230386182341
 30
0.0
  0
VERTEX
  5
5E6
330
5E2
100
AcDbEntity
  8
Make2D$可见线$普通线
100
AcDbVertex
100
AcDb2dVertex
 10
470.3229512353
 20
489.3223324574957
 30
0.0
  0
VERTEX
  5
5E7
330
5E2
100
AcDbEntity
  8
Make2D$可见线$普通线
100
AcDbVertex
100
AcDb2dVertex
 10
421.322940485516
 20
489.3223324574958
 30
0.0
 42
-0.4142141467838538
  0
VERTEX
  5
5E8
330
5E2
100
AcDbEntity
  8
Make2D$可见线$普通线
100
AcDbVertex
100
AcDb2dVertex
 10
420.3229403182519
 20
490.3223324574958
 30
0.0
  0
VERTEX
  5
5E9
330
5E2
100
AcDbEntity
  8
Make2D$可见线$普通线
100
AcDbVertex
100
AcDb2dVertex
 10
420.3229403182519
 20
492.3223324574958
 30
0.0
 42
-0.3755388419712208
  0
VERTEX
  5
5EA
330
5E2
100
AcDbEntity
  8
Make2D$可见线$普通线
100
AcDbVertex
100
AcDb2dVertex
 10
421.1894456408031
 20
493.3133488160346
 30
0.0
  0
VERTEX
  5
5EB
330
5E2
100
AcDbEntity
  8
Make2D$可见线$普通线
100
AcDbVertex
100
AcDb2dVertex
 10
421.2311252291942
 20
493.3197762368916
 30
0.0
  0
SEQEND
  5
5EC
330
5E2
100
AcDbEntity
  8
Make2D$可见线$普通线
  0
POLYLINE
  5
5ED
330
1F
100
AcDbEntity
  8
Make2D$可见线$普通线
100
AcDb2dPolyline
 66
     1
 10
0.0
 20
0.0
 30
0.0
  0
VERTEX
  5
5EE
330
5ED
100
AcDbEntity
  8
Make2D$可见线$普通线
100
AcDbVertex
100
AcDb2dVertex
 10
470.4896143988556
 20
489.3345997560792
 30
0.0
 42
0.0510820753431065
  0
VERTEX
  5
5EF
330
5ED
100
AcDbEntity
  8
Make2D$可见线$普通线
100
AcDbVertex
100
AcDb2dVertex
 10
470.4586454309822
 20
489.3315359720153
 30
0.0
 42
0.3748739909622537
  0
VERTEX
  5
5F0
330
5ED
100
AcDbEntity
  8
Make2D$可见线$普通线
100
AcDbVertex
100
AcDb2dVertex
 10
471.3229483911553
 20
490.3223324574958
 30
0.0
  0
VERTEX
  5
5F1
330
5ED
100
AcDbEntity
  8
Make2D$可见线$普通线
100
AcDbVertex
100
AcDb2dVertex
 10
471.3229483911554
 20
492.3223324574958
 30
0.0
 42
0.4142148401662548
  0
VERTEX
  5
5F2
330
5ED
100
AcDbEntity
  8
Make2D$可见线$普通线
100
AcDbVertex
100
AcDb2dVertex
 10
470.3229482418342
 20
493.3223324574959
 30
0.0
  0
VERTEX
  5
5F3
330
5ED
100
AcDbEntity
  8
Make2D$可见线$普通线
100
AcDbVertex
100
AcDb2dVertex
 10
421.3229401147253
 20
493.3223324574943
 30
0.0
  0
VERTEX
  5
5F4
330
5ED
100
AcDbEntity
  8
Make2D$可见线$普通线
100
AcDbVertex
100
AcDb2dVertex
 10
421.2090199575649
 20
493.3158227974927
 30
0.0
  0
SEQEND
  5
5F5
330
5ED
100
AcDbEntity
  8
Make2D$可见线$普通线
  0
POLYLINE
  5
5F6
330
1F
100
AcDbEntity
  8
Make2D$可见线$普通线
100
AcDb2dPolyline
 66
     1
 10
0.0
 20
0.0
 30
0.0
  0
VERTEX
  5
5F7
330
5F6
100
AcDbEntity
  8
Make2D$可见线$普通线
100
AcDbVertex
100
AcDb2dVertex
 10
470.4231481796932
 20
489.3273646748191
 30
0.0
  0
VERTEX
  5
5F8
330
5F6
100
AcDbEntity
  8
Make2D$可见线$普通线
100
AcDbVertex
100
AcDb2dVertex
 10
470.4196999328321
 20
489.3270235058672
 30
0.0
  0
VERTEX
  5
5F9
330
5F6
100
AcDbEntity
  8
Make2D$可见线$普通线
100
AcDbVertex
100
AcDb2dVertex
 10
470.3461868565255
 20
489.3226024455341
 30
0.0
  0
SEQEND
  5
5FA
330
5F6
100
AcDbEntity
  8
Make2D$可见线$普通线
  0
POLYLINE
  5
5FB
330
1F
100
AcDbEntity
  8
Make2D$可见线$普通线
100
AcDb2dPolyline
 66
     1
 10
0.0
 20
0.0
 30
0.0
  0
VERTEX
  5
5FC
330
5FB
100
AcDbEntity
  8
Make2D$可见线$普通线
100
AcDbVertex
100
AcDb2dVertex
 10
470.382801383108
 20
489.325852626202
 30
0.0
  0
VERTEX
  5
5FD
330
5FB
100
AcDbEntity
  8
Make2D$可见线$普通线
100
AcDbVertex
100
AcDb2dVertex
 10
470.4127527755491
 20
489.3271620235965
 30
0.0
  0
VERTEX
  5
5FE
330
5FB
100
AcDbEntity
  8
Make2D$可见线$普通线
100
AcDbVertex
100
AcDb2dVertex
 10
470.4196411965941
 20
489.3276307110178
 30
0.0
  0
SEQEND
  5
5FF
330
5FB
100
AcDbEntity
  8
Make2D$可见线$普通线
  0
POLYLINE
  5
600
330
1F
100
AcDbEntity
  8
Make2D$可见线$普通线
100
AcDb2dPolyline
 66
     1
 10
0.0
 20
0.0
 30
0.0
  0
VERTEX
  5
601
330
600
100
AcDbEntity
  8
Make2D$可见线$普通线
100
AcDbVertex
100
AcDb2dVertex
 10
421.2227407251836
 20
493.317300124844
 30
0.0
  0
VERTEX
  5
602
330
600
100
AcDbEntity
  8
Make2D$可见线$普通线
100
AcDbVertex
100
AcDb2dVertex
 10
421.2262137515893
 20
493.3174238143188
 30
0.0
  0
VERTEX
  5
603
330
600
100
AcDbEntity
  8
Make2D$可见线$普通线
100
AcDbVertex
100
AcDb2dVertex
 10
421.311546091398
 20
493.3216446576674
 30
0.0
  0
SEQEND
  5
604
330
600
100
AcDbEntity
  8
Make2D$可见线$普通线
  0
POLYLINE
  5
605
330
1F
100
AcDbEntity
  8
Make2D$可见线$普通线
100
AcDb2dPolyline
 66
     1
 10
0.0
 20
0.0
 30
0.0
  0
VERTEX
  5
606
330
605
100
AcDbEntity
  8
Make2D$可见线$普通线
100
AcDbVertex
100
AcDb2dVertex
 10
470.4162355378998
 20
489.3266935682253
 30
0.0
  0
VERTEX
  5
607
330
605
100
AcDbEntity
  8
Make2D$可见线$普通线
100
AcDbVertex
100
AcDb2dVertex
 10
470.4299969895011
 20
489.3276929973109
 30
0.0
  0
VERTEX
  5
608
330
605
100
AcDbEntity
  8
Make2D$可见线$普通线
100
AcDbVertex
100
AcDb2dVertex
 10
470.4069870325433
 20
489.3234190929941
 30
0.0
  0
SEQEND
  5
609
330
605
100
AcDbEntity
  8
Make2D$可见线$普通线
  0
LINE
  5
60A
330
1F
100
AcDbEntity
  8
Make2D$可见线$普通线
100
AcDbLine
 10
470.4148504236673
 20
489.3241632736425
 30
0.0
 11
470.4839339249467
 21
489.3336323537586
 31
0.0
  0
LINE
  5
60B
330
1F
100
AcDbEntity
  8
Make2D$可见线$普通线
100
AcDbLine
 10
421.2960551699176
 20
493.3219710686089
 30
0.0
 11
421.3025315011157
 21
493.3221241984138
 31
0.0
  0
LINE
  5
60C
330
1F
100
AcDbEntity
  8
Make2D$可见线$普通线
100
AcDbLine
 10
421.2262697241676
 20
493.3166748122196
 30
0.0
 11
421.2630871575153
 21
493.3188237883771
 31
0.0
  0
LINE
  5
60D
330
1F
100
AcDbEntity
  8
Make2D$可见线$普通线
100
AcDbLine
 10
421.1620299923819
 20
493.3103068896628
 30
0.0
 11
421.1753535064692
 21
493.3117816979136
 31
0.0
  0
ARC
  5
60E
330
1F
100
AcDbEntity
  8
Make2D$可见线$普通线
100
AcDbCircle
 10
421.4370915086672
 20
491.5456794587734
 30
0.0
 40
1.786593111059963
100
AcDbArc
 50
96.36901451391164
 51
99.04325245606458
  0
ARC
  5
60F
330
1F
100
AcDbEntity
  8
Make2D$可见线$普通线
100
AcDbCircle
 10
470.3229445835291
 20
490.322332456909
 30
0.0
 40
0.999999999412684
100
AcDbArc
 50
271.5613768638172
 51
272.5551066521597
  0
ENDSEC
  0
SECTION
  2
OBJECTS
  0
DICTIONARY
  5
C
330
0
100
AcDbDictionary
281
     1
  3
ACAD_GROUP
350
D
  3
ACAD_LAYOUT
350
1A
  3
ACAD_MATERIAL
350
3B
  3
ACAD_MLEADERSTYLE
350
63A
  3
ACAD_MLINESTYLE
350
17
  3
ACAD_PLOTSETTINGS
350
19
  3
ACAD_PLOTSTYLENAME
350
E
  3
ACAD_SCALELIST
350
3F
  3
ACAD_TABLESTYLE
350
639
  3
ACAD_VISUALSTYLE
350
2A
  3
AcDbVariableDictionary
350
610
  0
DICTIONARY
  5
D
102
{ACAD_REACTORS
330
C
102
}
330
C
100
AcDbDictionary
281
     1
  0
DICTIONARY
  5
1A
102
{ACAD_REACTORS
330
C
102
}
330
C
100
AcDbDictionary
281
     1
  3
Layout1
350
1E
  3
Layout2
350
26
  3
Model
350
22
  0
DICTIONARY
  5
3B
102
{ACAD_REACTORS
330
C
102
}
330
C
100
AcDbDictionary
281
     1
  3
ByBlock
350
3D
  3
ByLayer
350
3C
  3
Global
350
3E
  0
DICTIONARY
  5
63A
102
{ACAD_REACTORS
330
C
102
}
330
C
100
AcDbDictionary
281
     1
  0
DICTIONARY
  5
17
102
{ACAD_REACTORS
330
C
102
}
330
C
100
AcDbDictionary
281
     1
  3
Standard
350
18
  0
DICTIONARY
  5
19
102
{ACAD_REACTORS
330
C
102
}
330
C
100
AcDbDictionary
281
     1
  0
ACDBDICTIONARYWDFLT
  5
E
102
{ACAD_REACTORS
330
C
102
}
330
C
100
AcDbDictionary
281
     1
  3
Normal
350
F
100
AcDbDictionaryWithDefault
340
F
  0
DICTIONARY
  5
3F
102
{ACAD_REACTORS
330
C
102
}
330
C
100
AcDbDictionary
281
     1
  3
A0
350
40
  3
A1
350
41
  3
A2
350
42
  3
A3
350
43
  3
A4
350
44
  3
A5
350
45
  3
A6
350
46
  3
A7
350
47
  3
A8
350
48
  3
A9
350
49
  3
B0
350
4A
  3
B1
350
4B
  3
B2
350
4C
  3
B3
350
4D
  3
B4
350
4E
  3
B5
350
4F
  3
B6
350
50
  3
B7
350
51
  3
B8
350
52
  3
B9
350
53
  3
C0
350
54
  3
C1
350
55
  3
C2
350
56
  3
C3
350
57
  3
C4
350
58
  3
C5
350
59
  3
C6
350
5A
  3
C7
350
5B
  3
C8
350
5C
  3
C9
350
5D
  3
D0
350
5E
  3
D1
350
5F
  3
D2
350
60
  0
DICTIONARY
  5
639
102
{ACAD_REACTORS
330
C
102
}
330
C
100
AcDbDictionary
281
     1
  0
DICTIONARY
  5
2A
102
{ACAD_REACTORS
330
C
102
}
330
C
100
AcDbDictionary
281
     1
  3
2dWireframe
350
2F
  3
3D Hidden
350
31
  3
3dWireframe
350
30
  3
Basic
350
32
  3
Brighten
350
36
  3
ColorChange
350
3A
  3
Conceptual
350
34
  3
Dim
350
35
  3
Facepattern
350
39
  3
Flat
350
2B
  3
FlatWithEdges
350
2C
  3
Gouraud
350
2D
  3
GouraudWithEdges
350
2E
  3
Linepattern
350
38
  3
Realistic
350
33
  3
Thicken
350
37
  0
DICTIONARY
  5
610
102
{ACAD_REACTORS
330
C
102
}
330
C
100
AcDbDictionary
281
     1
  3
CANNOSCALE
350
611
  3
MSLTSCALE
350
612
  0
LAYOUT
  5
1E
102
{ACAD_REACTORS
330
1A
102
}
330
1A
100
AcDbPlotSettings
  1

  2
none_device
  4

  6

 40
0.0
 41
0.0
 42
0.0
 43
0.0
 44
0.0
 45
0.0
 46
0.0
 47
0.0
 48
0.0
 49
0.0
140
0.0
141
0.0
142
1.0
143
1.0
 70
   688
 72
     0
 73
     0
 74
     5
  7

 75
    16
 76
     0
 77
     2
 78
   300
147
1.0
148
0.0
149
0.0
100
AcDbLayout
  1
Layout1
 70
     1
 71
     1
 10
0.0
 20
0.0
 11
12.0
 21
9.0
 12
0.0
 22
0.0
 32
0.0
 14
1.000000000000000E+20
 24
1.000000000000000E+20
 34
1.000000000000000E+20
 15
-1.000000000000000E+20
 25
-1.000000000000000E+20
 35
-1.000000000000000E+20
146
0.0
 13
0.0
 23
0.0
 33
0.0
 16
1.0
 26
0.0
 36
0.0
 17
0.0
 27
1.0
 37
0.0
 76
     0
330
1B
  0
LAYOUT
  5
26
102
{ACAD_REACTORS
330
1A
102
}
330
1A
100
AcDbPlotSettings
  1

  2
none_device
  4

  6

 40
0.0
 41
0.0
 42
0.0
 43
0.0
 44
0.0
 45
0.0
 46
0.0
 47
0.0
 48
0.0
 49
0.0
140
0.0
141
0.0
142
1.0
143
1.0
 70
   688
 72
     0
 73
     0
 74
     5
  7

 75
    16
 76
     0
 77
     2
 78
   300
147
1.0
148
0.0
149
0.0
100
AcDbLayout
  1
Layout2
 70
     1
 71
     2
 10
0.0
 20
0.0
 11
0.0
 21
0.0
 12
0.0
 22
0.0
 32
0.0
 14
0.0
 24
0.0
 34
0.0
 15
0.0
 25
0.0
 35
0.0
146
0.0
 13
0.0
 23
0.0
 33
0.0
 16
1.0
 26
0.0
 36
0.0
 17
0.0
 27
1.0
 37
0.0
 76
     0
330
23
  0
LAYOUT
  5
22
102
{ACAD_REACTORS
330
1A
102
}
330
1A
100
AcDbPlotSettings
  1

  2
none_device
  4
Letter_(8.50_x_11.00_Inches)
  6

 40
6.35
 41
6.35
 42
6.35000508
 43
6.35000508
 44
215.9
 45
279.4
 46
0.0
 47
0.0
 48
0.0
 49
0.0
140
0.0
141
0.0
142
1.0
143
1.0
 70
  1712
 72
     0
 73
     0
 74
     0
  7

 75
     0
 76
     0
 77
     2
 78
   300
147
1.0
148
0.0
149
0.0
100
AcDbLayout
  1
Model
 70
     1
 71
     0
 10
0.0
 20
0.0
 11
12.0
 21
9.0
 12
0.0
 22
0.0
 32
0.0
 14
420.3229403180819
 24
489.3223324574952
 34
0.0
 15
471.3229483911624
 25
776.3223325410601
 35
0.0
146
0.0
 13
0.0
 23
0.0
 33
0.0
 16
1.0
 26
0.0
 36
0.0
 17
0.0
 27
1.0
 37
0.0
 76
     0
330
1F
331
29
  0
MATERIAL
  5
3D
102
{ACAD_REACTORS
330
3B
102
}
102
{ACAD_XDICTIONARY
360
635
102
}
330
3B
100
AcDbMaterial
  1
ByBlock
  0
MATERIAL
  5
3C
102
{ACAD_REACTORS
330
3B
102
}
102
{ACAD_XDICTIONARY
360
633
102
}
330
3B
100
AcDbMaterial
  1
ByLayer
  0
MATERIAL
  5
3E
102
{ACAD_REACTORS
330
3B
102
}
102
{ACAD_XDICTIONARY
360
637
102
}
330
3B
100
AcDbMaterial
  1
Global
  0
MLINESTYLE
  5
18
102
{ACAD_REACTORS
330
17
102
}
330
17
100
AcDbMlineStyle
  2
Standard
 70
     0
  3

 62
   256
 51
90.0
 52
90.0
 71
     2
 49
0.5
 62
   256
  6
BYLAYER
 49
-0.5
 62
   256
  6
BYLAYER
  0
ACDBPLACEHOLDER
  5
F
102
{ACAD_REACTORS
330
E
102
}
330
E
  0
SCALE
  5
40
102
{ACAD_REACTORS
330
3F
102
}
330
3F
100
AcDbScale
 70
     0
300
1:1
140
1.0
141
1.0
290
     1
  0
SCALE
  5
41
102
{ACAD_REACTORS
330
3F
102
}
330
3F
100
AcDbScale
 70
     0
300
1:2
140
1.0
141
2.0
290
     0
  0
SCALE
  5
42
102
{ACAD_REACTORS
330
3F
102
}
330
3F
100
AcDbScale
 70
     0
300
1:4
140
1.0
141
4.0
290
     0
  0
SCALE
  5
43
102
{ACAD_REACTORS
330
3F
102
}
330
3F
100
AcDbScale
 70
     0
300
1:5
140
1.0
141
5.0
290
     0
  0
SCALE
  5
44
102
{ACAD_REACTORS
330
3F
102
}
330
3F
100
AcDbScale
 70
     0
300
1:8
140
1.0
141
8.0
290
     0
  0
SCALE
  5
45
102
{ACAD_REACTORS
330
3F
102
}
330
3F
100
AcDbScale
 70
     0
300
1:10
140
1.0
141
10.0
290
     0
  0
SCALE
  5
46
102
{ACAD_REACTORS
330
3F
102
}
330
3F
100
AcDbScale
 70
     0
300
1:16
140
1.0
141
16.0
290
     0
  0
SCALE
  5
47
102
{ACAD_REACTORS
330
3F
102
}
330
3F
100
AcDbScale
 70
     0
300
1:20
140
1.0
141
20.0
290
     0
  0
SCALE
  5
48
102
{ACAD_REACTORS
330
3F
102
}
330
3F
100
AcDbScale
 70
     0
300
1:30
140
1.0
141
30.0
290
     0
  0
SCALE
  5
49
102
{ACAD_REACTORS
330
3F
102
}
330
3F
100
AcDbScale
 70
     0
300
1:40
140
1.0
141
40.0
290
     0
  0
SCALE
  5
4A
102
{ACAD_REACTORS
330
3F
102
}
330
3F
100
AcDbScale
 70
     0
300
1:50
140
1.0
141
50.0
290
     0
  0
SCALE
  5
4B
102
{ACAD_REACTORS
330
3F
102
}
330
3F
100
AcDbScale
 70
     0
300
1:100
140
1.0
141
100.0
290
     0
  0
SCALE
  5
4C
102
{ACAD_REACTORS
330
3F
102
}
330
3F
100
AcDbScale
 70
     0
300
2:1
140
2.0
141
1.0
290
     0
  0
SCALE
  5
4D
102
{ACAD_REACTORS
330
3F
102
}
330
3F
100
AcDbScale
 70
     0
300
4:1
140
4.0
141
1.0
290
     0
  0
SCALE
  5
4E
102
{ACAD_REACTORS
330
3F
102
}
330
3F
100
AcDbScale
 70
     0
300
8:1
140
8.0
141
1.0
290
     0
  0
SCALE
  5
4F
102
{ACAD_REACTORS
330
3F
102
}
330
3F
100
AcDbScale
 70
     0
300
10:1
140
10.0
141
1.0
290
     0
  0
SCALE
  5
50
102
{ACAD_REACTORS
330
3F
102
}
330
3F
100
AcDbScale
 70
     0
300
100:1
140
100.0
141
1.0
290
     0
  0
SCALE
  5
51
102
{ACAD_REACTORS
330
3F
102
}
330
3F
100
AcDbScale
 70
     0
300
1/128" = 1'-0"
140
0.0078125
141
12.0
290
     0
  0
SCALE
  5
52
102
{ACAD_REACTORS
330
3F
102
}
330
3F
100
AcDbScale
 70
     0
300
1/64" = 1'-0"
140
0.015625
141
12.0
290
     0
  0
SCALE
  5
53
102
{ACAD_REACTORS
330
3F
102
}
330
3F
100
AcDbScale
 70
     0
300
1/32" = 1'-0"
140
0.03125
141
12.0
290
     0
  0
SCALE
  5
54
102
{ACAD_REACTORS
330
3F
102
}
330
3F
100
AcDbScale
 70
     0
300
1/16" = 1'-0"
140
0.0625
141
12.0
290
     0
  0
SCALE
  5
55
102
{ACAD_REACTORS
330
3F
102
}
330
3F
100
AcDbScale
 70
     0
300
3/32" = 1'-0"
140
0.09375
141
12.0
290
     0
  0
SCALE
  5
56
102
{ACAD_REACTORS
330
3F
102
}
330
3F
100
AcDbScale
 70
     0
300
1/8" = 1'-0"
140
0.125
141
12.0
290
     0
  0
SCALE
  5
57
102
{ACAD_REACTORS
330
3F
102
}
330
3F
100
AcDbScale
 70
     0
300
3/16" = 1'-0"
140
0.1875
141
12.0
290
     0
  0
SCALE
  5
58
102
{ACAD_REACTORS
330
3F
102
}
330
3F
100
AcDbScale
 70
     0
300
1/4" = 1'-0"
140
0.25
141
12.0
290
     0
  0
SCALE
  5
59
102
{ACAD_REACTORS
330
3F
102
}
330
3F
100
AcDbScale
 70
     0
300
3/8" = 1'-0"
140
0.375
141
12.0
290
     0
  0
SCALE
  5
5A
102
{ACAD_REACTORS
330
3F
102
}
330
3F
100
AcDbScale
 70
     0
300
1/2" = 1'-0"
140
0.5
141
12.0
290
     0
  0
SCALE
  5
5B
102
{ACAD_REACTORS
330
3F
102
}
330
3F
100
AcDbScale
 70
     0
300
3/4" = 1'-0"
140
0.75
141
12.0
290
     0
  0
SCALE
  5
5C
102
{ACAD_REACTORS
330
3F
102
}
330
3F
100
AcDbScale
 70
     0
300
1" = 1'-0"
140
1.0
141
12.0
290
     0
  0
SCALE
  5
5D
102
{ACAD_REACTORS
330
3F
102
}
330
3F
100
AcDbScale
 70
     0
300
1-1/2" = 1'-0"
140
1.5
141
12.0
290
     0
  0
SCALE
  5
5E
102
{ACAD_REACTORS
330
3F
102
}
330
3F
100
AcDbScale
 70
     0
300
3" = 1'-0"
140
3.0
141
12.0
290
     0
  0
SCALE
  5
5F
102
{ACAD_REACTORS
330
3F
102
}
330
3F
100
AcDbScale
 70
     0
300
6" = 1'-0"
140
6.0
141
12.0
290
     0
  0
SCALE
  5
60
102
{ACAD_REACTORS
330
3F
102
}
330
3F
100
AcDbScale
 70
     0
300
1'-0" = 1'-0"
140
12.0
141
12.0
290
     0
  0
VISUALSTYLE
  5
2F
102
{ACAD_REACTORS
330
2A
102
}
102
{ACAD_XDICTIONARY
360
61B
102
}
330
2A
100
AcDbVisualStyle
  2
2dWireframe
 70
     4
 71
     0
 72
     2
 73
     0
 90
        0
 40
0.6
 41
30.0
 62
     5
 63
     7
421
 16777215
 74
     1
 91
        4
 64
     7
 65
   257
 75
     1
175
     1
 42
1.0
 92
        0
 66
   257
 43
1.0
 76
     1
 77
     6
 78
     2
 67
     7
 79
     5
170
     0
171
     0
290
     0
174
     0
 93
        1
 44
0.0
173
     0
291
     0
 45
0.0
1001
ACAD
1000
AcDbSavedByObjectVersion
1070
     0
  0
VISUALSTYLE
  5
31
102
{ACAD_REACTORS
330
2A
102
}
102
{ACAD_XDICTIONARY
360
61F
102
}
330
2A
100
AcDbVisualStyle
  2
3D Hidden
 70
     6
 71
     1
 72
     2
 73
     2
 90
        0
 40
0.6
 41
30.0
 62
     5
 63
     7
421
 16777215
 74
     2
 91
        2
 64
     7
 65
   257
 75
     2
175
     1
 42
40.0
 92
        0
 66
   257
 43
1.0
 76
     1
 77
     6
 78
     2
 67
     7
 79
     3
170
     0
171
     0
290
     0
174
     0
 93
        1
 44
0.0
173
     0
291
     0
 45
0.0
1001
ACAD
1000
AcDbSavedByObjectVersion
1070
     0
  0
VISUALSTYLE
  5
30
102
{ACAD_REACTORS
330
2A
102
}
102
{ACAD_XDICTIONARY
360
61D
102
}
330
2A
100
AcDbVisualStyle
  2
3dWireframe
 70
     5
 71
     0
 72
     2
 73
     0
 90
        0
 40
0.6
 41
30.0
 62
     5
 63
     7
421
 16777215
 74
     1
 91
        4
 64
     7
 65
   257
 75
     1
175
     1
 42
1.0
 92
        0
 66
   257
 43
1.0
 76
     1
 77
     6
 78
     2
 67
     7
 79
     5
170
     0
171
     0
290
     0
174
     0
 93
        1
 44
0.0
173
     0
291
     0
 45
0.0
1001
ACAD
1000
AcDbSavedByObjectVersion
1070
     0
  0
VISUALSTYLE
  5
32
102
{ACAD_REACTORS
330
2A
102
}
102
{ACAD_XDICTIONARY
360
621
102
}
330
2A
100
AcDbVisualStyle
  2
Basic
 70
     7
 71
     1
 72
     0
 73
     1
 90
        0
 40
0.6
 41
30.0
 62
     5
 63
     7
421
 16777215
 74
     0
 91
        4
 64
     7
 65
   257
 75
     1
175
     1
 42
1.0
 92
        8
 66
     7
 43
1.0
 76
     1
 77
     6
 78
     2
 67
     7
 79
     5
170
     0
171
     0
290
     0
174
     0
 93
        1
 44
0.0
173
     0
291
     1
 45
0.0
1001
ACAD
1000
AcDbSavedByObjectVersion
1070
     0
  0
VISUALSTYLE
  5
36
102
{ACAD_REACTORS
330
2A
102
}
102
{ACAD_XDICTIONARY
360
629
102
}
330
2A
100
AcDbVisualStyle
  2
Brighten
 70
    12
 71
     2
 72
     2
 73
     0
 90
        0
 40
0.6
 41
30.0
 62
     5
 63
     7
421
 16777215
 74
     1
 91
        4
 64
     7
 65
   257
 75
     1
175
     1
 42
1.0
 92
        8
 66
     7
 43
1.0
 76
     1
 77
     6
 78
     2
 67
     7
 79
     5
170
     0
171
     0
290
     0
174
     0
 93
        1
 44
50.0
173
     0
291
     1
 45
0.0
1001
ACAD
1000
AcDbSavedByObjectVersion
1070
     0
  0
VISUALSTYLE
  5
3A
102
{ACAD_REACTORS
330
2A
102
}
102
{ACAD_XDICTIONARY
360
631
102
}
330
2A
100
AcDbVisualStyle
  2
ColorChange
 70
    16
 71
     2
 72
     2
 73
     3
 90
        0
 40
0.6
 41
30.0
 62
     5
 63
     8
421
  8421504
 74
     1
 91
        4
 64
     7
 65
   257
 75
     1
175
     1
 42
1.0
 92
        8
 66
     8
424
  8421504
 43
1.0
 76
     1
 77
     6
 78
     2
 67
     7
 79
     5
170
     0
171
     0
290
     0
174
     0
 93
        1
 44
0.0
173
     0
291
     1
 45
0.0
1001
ACAD
1000
AcDbSavedByObjectVersion
1070
     0
  0
VISUALSTYLE
  5
34
102
{ACAD_REACTORS
330
2A
102
}
102
{ACAD_XDICTIONARY
360
625
102
}
330
2A
100
AcDbVisualStyle
  2
Conceptual
 70
     9
 71
     3
 72
     2
 73
     0
 90
        0
 40
0.6
 41
30.0
 62
     5
 63
     7
421
 16777215
 74
     2
 91
        2
 64
     7
 65
   257
 75
     1
175
     1
 42
40.0
 92
        8
 66
     7
 43
1.0
 76
     1
 77
     6
 78
     2
 67
     7
 79
     3
170
     0
171
     0
290
     0
174
     0
 93
        1
 44
0.0
173
     0
291
     0
 45
0.0
1001
ACAD
1000
AcDbSavedByObjectVersion
1070
     0
  0
VISUALSTYLE
  5
35
102
{ACAD_REACTORS
330
2A
102
}
102
{ACAD_XDICTIONARY
360
627
102
}
330
2A
100
AcDbVisualStyle
  2
Dim
 70
    11
 71
     2
 72
     2
 73
     0
 90
        0
 40
0.6
 41
30.0
 62
     5
 63
     7
421
 16777215
 74
     1
 91
        4
 64
     7
 65
   257
 75
     1
175
     1
 42
1.0
 92
        8
 66
     7
 43
1.0
 76
     1
 77
     6
 78
     2
 67
     7
 79
     5
170
     0
171
     0
290
     0
174
     0
 93
        1
 44
-50.0
173
     0
291
     1
 45
0.0
1001
ACAD
1000
AcDbSavedByObjectVersion
1070
     0
  0
VISUALSTYLE
  5
39
102
{ACAD_REACTORS
330
2A
102
}
102
{ACAD_XDICTIONARY
360
62F
102
}
330
2A
100
AcDbVisualStyle
  2
Facepattern
 70
    15
 71
     2
 72
     2
 73
     0
 90
        0
 40
0.6
 41
30.0
 62
     5
 63
     7
421
 16777215
 74
     1
 91
        4
 64
     7
 65
   257
 75
     1
175
     1
 42
1.0
 92
        8
 66
     7
 43
1.0
 76
     1
 77
     6
 78
     2
 67
     7
 79
     5
170
     0
171
     0
290
     0
174
     0
 93
        1
 44
0.0
173
     0
291
     1
 45
0.0
1001
ACAD
1000
AcDbSavedByObjectVersion
1070
     0
  0
VISUALSTYLE
  5
2B
102
{ACAD_REACTORS
330
2A
102
}
102
{ACAD_XDICTIONARY
360
613
102
}
330
2A
100
AcDbVisualStyle
  2
Flat
 70
     0
 71
     2
 72
     1
 73
     1
 90
        2
 40
0.6
 41
30.0
 62
     5
 63
     7
421
 16777215
 74
     0
 91
        4
 64
     7
 65
   257
 75
     1
175
     1
 42
1.0
 92
        8
 66
     7
 43
1.0
 76
     1
 77
     6
 78
     2
 67
     7
 79
     5
170
     0
171
     0
290
     0
174
     0
 93
       13
 44
0.0
173
     0
291
     1
 45
0.0
1001
ACAD
1000
AcDbSavedByObjectVersion
1070
     0
  0
VISUALSTYLE
  5
2C
102
{ACAD_REACTORS
330
2A
102
}
102
{ACAD_XDICTIONARY
360
615
102
}
330
2A
100
AcDbVisualStyle
  2
FlatWithEdges
 70
     1
 71
     2
 72
     1
 73
     1
 90
        2
 40
0.6
 41
30.0
 62
     5
 63
     7
421
 16777215
 74
     1
 91
        4
 64
     7
 65
   257
 75
     1
175
     1
 42
1.0
 92
        0
 66
   257
 43
1.0
 76
     1
 77
     6
 78
     2
 67
     7
 79
     5
170
     0
171
     0
290
     0
174
     0
 93
       13
 44
0.0
173
     0
291
     1
 45
0.0
1001
ACAD
1000
AcDbSavedByObjectVersion
1070
     0
  0
VISUALSTYLE
  5
2D
102
{ACAD_REACTORS
330
2A
102
}
102
{ACAD_XDICTIONARY
360
617
102
}
330
2A
100
AcDbVisualStyle
  2
Gouraud
 70
     2
 71
     2
 72
     2
 73
     1
 90
        2
 40
0.6
 41
30.0
 62
     5
 63
     7
421
 16777215
 74
     0
 91
        4
 64
     7
 65
   257
 75
     1
175
     1
 42
1.0
 92
        0
 66
     7
 43
1.0
 76
     1
 77
     6
 78
     2
 67
     7
 79
     5
170
     0
171
     0
290
     0
174
     0
 93
       13
 44
0.0
173
     0
291
     1
 45
0.0
1001
ACAD
1000
AcDbSavedByObjectVersion
1070
     0
  0
VISUALSTYLE
  5
2E
102
{ACAD_REACTORS
330
2A
102
}
102
{ACAD_XDICTIONARY
360
619
102
}
330
2A
100
AcDbVisualStyle
  2
GouraudWithEdges
 70
     3
 71
     2
 72
     2
 73
     1
 90
        2
 40
0.6
 41
30.0
 62
     5
 63
     7
421
 16777215
 74
     1
 91
        4
 64
     7
 65
   257
 75
     1
175
     1
 42
1.0
 92
        0
 66
   257
 43
1.0
 76
     1
 77
     6
 78
     2
 67
     7
 79
     5
170
     0
171
     0
290
     0
174
     0
 93
       13
 44
0.0
173
     0
291
     1
 45
0.0
1001
ACAD
1000
AcDbSavedByObjectVersion
1070
     0
  0
VISUALSTYLE
  5
38
102
{ACAD_REACTORS
330
2A
102
}
102
{ACAD_XDICTIONARY
360
62D
102
}
330
2A
100
AcDbVisualStyle
  2
Linepattern
 70
    14
 71
     2
 72
     2
 73
     0
 90
        0
 40
0.6
 41
30.0
 62
     5
 63
     7
421
 16777215
 74
     1
 91
        4
 64
     7
 65
   257
 75
     7
175
     7
 42
1.0
 92
        8
 66
     7
 43
1.0
 76
     1
 77
     6
 78
     2
 67
     7
 79
     5
170
     0
171
     0
290
     0
174
     0
 93
        1
 44
0.0
173
     0
291
     1
 45
0.0
1001
ACAD
1000
AcDbSavedByObjectVersion
1070
     0
  0
VISUALSTYLE
  5
33
102
{ACAD_REACTORS
330
2A
102
}
102
{ACAD_XDICTIONARY
360
623
102
}
330
2A
100
AcDbVisualStyle
  2
Realistic
 70
     8
 71
     2
 72
     3
 73
     0
 90
        2
 40
0.6
 41
30.0
 62
     5
 63
     7
421
 16777215
 74
     0
 91
        0
 64
     7
 65
   257
 75
     1
175
     1
 42
1.0
 92
        8
 66
   257
 43
1.0
 76
     1
 77
     6
 78
     2
 67
     7
 79
     3
170
     0
171
     0
290
     0
174
     0
 93
       13
 44
0.0
173
     0
291
     0
 45
0.0
1001
ACAD
1000
AcDbSavedByObjectVersion
1070
     0
  0
VISUALSTYLE
  5
37
102
{ACAD_REACTORS
330
2A
102
}
102
{ACAD_XDICTIONARY
360
62B
102
}
330
2A
100
AcDbVisualStyle
  2
Thicken
 70
    13
 71
     2
 72
     2
 73
     0
 90
        0
 40
0.6
 41
30.0
 62
     5
 63
     7
421
 16777215
 74
     1
 91
        4
 64
     7
 65
   257
 75
     1
175
     1
 42
1.0
 92
       12
 66
     7
 43
1.0
 76
     1
 77
     6
 78
     2
 67
     7
 79
     5
170
     0
171
     0
290
     0
174
     0
 93
        1
 44
0.0
173
     0
291
     1
 45
0.0
1001
ACAD
1000
AcDbSavedByObjectVersion
1070
     0
  0
DICTIONARYVAR
  5
611
102
{ACAD_REACTORS
330
610
102
}
330
610
100
DictionaryVariables
280
     0
  1
1:1
  0
DICTIONARYVAR
  5
612
102
{ACAD_REACTORS
330
610
102
}
330
610
100
DictionaryVariables
280
     0
  1
1
  0
DICTIONARY
  5
635
330
3D
100
AcDbDictionary
280
     1
281
     1
  3
ACAD_XREC_ROUNDTRIP
360
636
  0
DICTIONARY
  5
633
330
3C
100
AcDbDictionary
280
     1
281
     1
  3
ACAD_XREC_ROUNDTRIP
360
634
  0
DICTIONARY
  5
637
330
3E
100
AcDbDictionary
280
     1
281
     1
  3
ACAD_XREC_ROUNDTRIP
360
638
  0
DICTIONARY
  5
61B
330
2F
100
AcDbDictionary
280
     1
281
     1
  3
ACAD_XREC_ROUNDTRIP
360
61C
  0
DICTIONARY
  5
61F
330
31
100
AcDbDictionary
280
     1
281
     1
  3
ACAD_XREC_ROUNDTRIP
360
620
  0
DICTIONARY
  5
61D
330
30
100
AcDbDictionary
280
     1
281
     1
  3
ACAD_XREC_ROUNDTRIP
360
61E
  0
DICTIONARY
  5
621
330
32
100
AcDbDictionary
280
     1
281
     1
  3
ACAD_XREC_ROUNDTRIP
360
622
  0
DICTIONARY
  5
629
330
36
100
AcDbDictionary
280
     1
281
     1
  3
ACAD_XREC_ROUNDTRIP
360
62A
  0
DICTIONARY
  5
631
330
3A
100
AcDbDictionary
280
     1
281
     1
  3
ACAD_XREC_ROUNDTRIP
360
632
  0
DICTIONARY
  5
625
330
34
100
AcDbDictionary
280
     1
281
     1
  3
ACAD_XREC_ROUNDTRIP
360
626
  0
DICTIONARY
  5
627
330
35
100
AcDbDictionary
280
     1
281
     1
  3
ACAD_XREC_ROUNDTRIP
360
628
  0
DICTIONARY
  5
62F
330
39
100
AcDbDictionary
280
     1
281
     1
  3
ACAD_XREC_ROUNDTRIP
360
630
  0
DICTIONARY
  5
613
330
2B
100
AcDbDictionary
280
     1
281
     1
  3
ACAD_XREC_ROUNDTRIP
360
614
  0
DICTIONARY
  5
615
330
2C
100
AcDbDictionary
280
     1
281
     1
  3
ACAD_XREC_ROUNDTRIP
360
616
  0
DICTIONARY
  5
617
330
2D
100
AcDbDictionary
280
     1
281
     1
  3
ACAD_XREC_ROUNDTRIP
360
618
  0
DICTIONARY
  5
619
330
2E
100
AcDbDictionary
280
     1
281
     1
  3
ACAD_XREC_ROUNDTRIP
360
61A
  0
DICTIONARY
  5
62D
330
38
100
AcDbDictionary
280
     1
281
     1
  3
ACAD_XREC_ROUNDTRIP
360
62E
  0
DICTIONARY
  5
623
330
33
100
AcDbDictionary
280
     1
281
     1
  3
ACAD_XREC_ROUNDTRIP
360
624
  0
DICTIONARY
  5
62B
330
37
100
AcDbDictionary
280
     1
281
     1
  3
ACAD_XREC_ROUNDTRIP
360
62C
  0
XRECORD
  5
636
102
{ACAD_REACTORS
330
635
102
}
330
635
100
AcDbXrecord
280
     1
102
MATERIAL
148
0.0
149
0.0
149
0.0
 93
        0
 94
      127
282
     0
 72
     1
 77
     1
171
     1
175
     1
179
     1
273
     0
  0
XRECORD
  5
634
102
{ACAD_REACTORS
330
633
102
}
330
633
100
AcDbXrecord
280
     1
102
MATERIAL
148
0.0
149
0.0
149
0.0
 93
        0
 94
      127
282
     0
 72
     1
 77
     1
171
     1
175
     1
179
     1
273
     0
  0
XRECORD
  5
638
102
{ACAD_REACTORS
330
637
102
}
330
637
100
AcDbXrecord
280
     1
102
MATERIAL
148
0.0
149
0.0
149
0.0
 93
        0
 94
      127
282
     0
 72
     1
 77
     1
171
     1
175
     1
179
     1
273
     0
  0
XRECORD
  5
61C
102
{ACAD_REACTORS
330
61B
102
}
330
61B
100
AcDbXrecord
280
     1
102
RTVSPropertyOp0
 70
     1
102
RTVSPropertyOp1
 70
     1
102
RTVSPropertyOp2
 70
     1
102
RTVSPropertyOp3
 70
     1
102
RTVSPropertyOp4
 70
     1
102
RTVSPropertyOp5
 70
     1
102
RTVSPropertyOp6
 70
     1
102
RTVSPropertyOp7
 70
     1
102
RTVSPropertyOp8
 70
     1
102
RTVSPropertyOp9
 70
     1
102
RTVSPropertyOp10
 70
     1
102
RTVSPropertyOp11
 70
     1
102
RTVSPropertyOp12
 70
     1
102
RTVSPropertyOp13
 70
     1
102
RTVSPropertyOp14
 70
     1
102
RTVSPropertyOp15
 70
     1
102
RTVSPropertyOp16
 70
     1
102
RTVSPropertyOp17
 70
     1
102
RTVSPropertyOp18
 70
     1
102
RTVSPropertyOp19
 70
     1
102
RTVSPropertyOp20
 70
     1
102
RTVSPropertyOp21
 70
     1
102
RTVSPropertyOp22
 70
     1
102
RTVSPropertyOp23
 70
     1
102
RTVSPropertyOp24
 70
     1
102
RTVSPropertyOp25
 70
     1
102
RTVSPropertyOp26
 70
     1
102
RTVSPropertyOp27
 70
     1
102
RTVSPropertyOp28
 70
     1
102
RTVSPropertyOp29
 70
     1
102
RTVSPropertyOp30
 70
     1
102
RTVSPropertyOp31
 70
     1
102
RTVSPropertyOp32
 70
     1
102
RTVSPropertyOp33
 70
     1
102
RTVSPropertyOp34
 70
     1
102
RTVSPropertyOp35
 70
     1
102
RTVSPropertyOp36
 70
     1
102
RTVSPropertyOp37
 70
     1
102
RTVSPropertyOp38
 70
     1
102
RTVSPropertyOp39
 70
     1
102
RTVSPropertyOp40
 70
     1
102
RTVSPropertyOp41
 70
     1
102
RTVSPropertyOp42
 70
     1
102
RTVSPropertyOp43
 70
     1
102
RTVSPropertyOp44
 70
     1
102
RTVSPropertyOp45
 70
     1
102
RTVSPropertyOp46
 70
     1
102
RTVSPropertyOp47
 70
     1
102
RTVSPropertyOp48
 70
     1
102
RTVSPropertyOp49
 70
     1
102
RTVSPropertyOp50
 70
     1
102
RTVSPropertyOp51
 70
     0
102
RTVSPropertyOp52
 70
     0
102
RTVSPropertyOp53
 70
     1
102
RTVSPropertyOp54
 70
     1
102
RTVSPropertyOp55
 70
     1
102
RTVSPropertyOp56
 70
     1
102
RTVSPropertyOp57
 70
     1
102
RTVSPost2010Prop28
280
     1
102
RTVSPost2010PropOp28
 70
     1
102
RTVSPost2010Prop29
280
     1
102
RTVSPost2010PropOp29
 70
     1
102
RTVSPost2010Prop30
280
     0
102
RTVSPost2010PropOp30
 70
     1
102
RTVSPost2010Prop31
280
     0
102
RTVSPost2010PropOp31
 70
     1
102
RTVSPost2010Prop32
280
     0
102
RTVSPost2010PropOp32
 70
     1
102
RTVSPost2010Prop33
280
     0
102
RTVSPost2010PropOp33
 70
     1
102
RTVSPost2010Prop34
280
     0
102
RTVSPost2010PropOp34
 70
     1
102
RTVSPost2010Prop35
280
     0
102
RTVSPost2010PropOp35
 70
     1
102
RTVSPost2010Prop36
280
     0
102
RTVSPost2010PropOp36
 70
     1
102
RTVSPost2010Prop37
 90
       50
102
RTVSPost2010PropOp37
 70
     1
102
RTVSPost2010Prop38
140
0.0
102
RTVSPost2010PropOp38
 70
     1
102
RTVSPost2010Prop39
140
1.0
102
RTVSPost2010PropOp39
 70
     1
102
RTVSPost2010Prop40
 90
        0
102
RTVSPost2010PropOp40
 70
     1
102
RTVSPost2010Prop41ColorIndex
 90
       18
102
RTVSPost2010Prop41ColorRGB
 90
        0
102
RTVSPost2010PropOp41
 70
     1
102
RTVSPost2010Prop42
 90
       50
102
RTVSPost2010PropOp42
 70
     1
102
RTVSPost2010Prop43
 90
        3
102
RTVSPost2010PropOp43
 70
     1
102
RTVSPost2010Prop44ColorIndex
 90
        5
102
RTVSPost2010Prop44ColorRGB
 90
      255
102
RTVSPost2010PropOp44
 70
     1
102
RTVSPost2010Prop45
280
     0
102
RTVSPost2010PropOp45
 70
     1
102
RTVSPost2010Prop46
 90
       50
102
RTVSPost2010PropOp46
 70
     1
102
RTVSPost2010Prop47
 90
       50
102
RTVSPost2010PropOp47
 70
     1
102
RTVSPost2010Prop48
 90
       50
102
RTVSPost2010PropOp48
 70
     1
102
RTVSPost2010Prop49
280
     0
102
RTVSPost2010PropOp49
 70
     1
102
RTVSPost2010Prop50
 90
       50
102
RTVSPost2010PropOp50
 70
     1
102
RTVSPost2010Prop51ColorIndex
 90
      256
102
RTVSPost2010Prop51ColorRGB
 90
-16777216
102
RTVSPost2010PropOp51
 70
     0
102
RTVSPost2010Prop52
140
1.0
102
RTVSPost2010PropOp52
 70
     0
102
RTVSPost2010Prop53
 90
        2
102
RTVSPost2010PropOp53
 70
     1
102
RTVSPost2010Prop54
  1
strokes_ogs.tif
102
RTVSPost2010PropOp54
 70
     1
102
RTVSPost2010Prop55
280
     0
102
RTVSPost2010PropOp55
 70
     1
102
RTVSPost2010Prop56
140
1.0
102
RTVSPost2010PropOp56
 70
     1
102
RTVSPost2010Prop57
140
1.0
102
RTVSPost2010PropOp57
 70
     1
  0
XRECORD
  5
620
102
{ACAD_REACTORS
330
61F
102
}
330
61F
100
AcDbXrecord
280
     1
102
RTVSPropertyOp0
 70
     1
102
RTVSPropertyOp1
 70
     1
102
RTVSPropertyOp2
 70
     1
102
RTVSPropertyOp3
 70
     1
102
RTVSPropertyOp4
 70
     1
102
RTVSPropertyOp5
 70
     1
102
RTVSPropertyOp6
 70
     1
102
RTVSPropertyOp7
 70
     1
102
RTVSPropertyOp8
 70
     1
102
RTVSPropertyOp9
 70
     1
102
RTVSPropertyOp10
 70
     1
102
RTVSPropertyOp11
 70
     1
102
RTVSPropertyOp12
 70
     1
102
RTVSPropertyOp13
 70
     1
102
RTVSPropertyOp14
 70
     1
102
RTVSPropertyOp15
 70
     1
102
RTVSPropertyOp16
 70
     1
102
RTVSPropertyOp17
 70
     1
102
RTVSPropertyOp18
 70
     1
102
RTVSPropertyOp19
 70
     1
102
RTVSPropertyOp20
 70
     1
102
RTVSPropertyOp21
 70
     1
102
RTVSPropertyOp22
 70
     1
102
RTVSPropertyOp23
 70
     1
102
RTVSPropertyOp24
 70
     1
102
RTVSPropertyOp25
 70
     1
102
RTVSPropertyOp26
 70
     1
102
RTVSPropertyOp27
 70
     1
102
RTVSPropertyOp28
 70
     1
102
RTVSPropertyOp29
 70
     1
102
RTVSPropertyOp30
 70
     1
102
RTVSPropertyOp31
 70
     1
102
RTVSPropertyOp32
 70
     1
102
RTVSPropertyOp33
 70
     1
102
RTVSPropertyOp34
 70
     1
102
RTVSPropertyOp35
 70
     1
102
RTVSPropertyOp36
 70
     1
102
RTVSPropertyOp37
 70
     1
102
RTVSPropertyOp38
 70
     1
102
RTVSPropertyOp39
 70
     1
102
RTVSPropertyOp40
 70
     1
102
RTVSPropertyOp41
 70
     1
102
RTVSPropertyOp42
 70
     1
102
RTVSPropertyOp43
 70
     1
102
RTVSPropertyOp44
 70
     1
102
RTVSPropertyOp45
 70
     1
102
RTVSPropertyOp46
 70
     1
102
RTVSPropertyOp47
 70
     1
102
RTVSPropertyOp48
 70
     1
102
RTVSPropertyOp49
 70
     1
102
RTVSPropertyOp50
 70
     1
102
RTVSPropertyOp51
 70
     0
102
RTVSPropertyOp52
 70
     0
102
RTVSPropertyOp53
 70
     1
102
RTVSPropertyOp54
 70
     1
102
RTVSPropertyOp55
 70
     1
102
RTVSPropertyOp56
 70
     1
102
RTVSPropertyOp57
 70
     1
102
RTVSPost2010Prop28
280
     0
102
RTVSPost2010PropOp28
 70
     1
102
RTVSPost2010Prop29
280
     1
102
RTVSPost2010PropOp29
 70
     1
102
RTVSPost2010Prop30
280
     1
102
RTVSPost2010PropOp30
 70
     1
102
RTVSPost2010Prop31
280
     0
102
RTVSPost2010PropOp31
 70
     1
102
RTVSPost2010Prop32
280
     0
102
RTVSPost2010PropOp32
 70
     1
102
RTVSPost2010Prop33
280
     0
102
RTVSPost2010PropOp33
 70
     1
102
RTVSPost2010Prop34
280
     0
102
RTVSPost2010PropOp34
 70
     1
102
RTVSPost2010Prop35
280
     0
102
RTVSPost2010PropOp35
 70
     1
102
RTVSPost2010Prop36
280
     0
102
RTVSPost2010PropOp36
 70
     1
102
RTVSPost2010Prop37
 90
       50
102
RTVSPost2010PropOp37
 70
     1
102
RTVSPost2010Prop38
140
0.0
102
RTVSPost2010PropOp38
 70
     1
102
RTVSPost2010Prop39
140
1.0
102
RTVSPost2010PropOp39
 70
     1
102
RTVSPost2010Prop40
 90
        0
102
RTVSPost2010PropOp40
 70
     1
102
RTVSPost2010Prop41ColorIndex
 90
       18
102
RTVSPost2010Prop41ColorRGB
 90
        0
102
RTVSPost2010PropOp41
 70
     1
102
RTVSPost2010Prop42
 90
       50
102
RTVSPost2010PropOp42
 70
     1
102
RTVSPost2010Prop43
 90
        3
102
RTVSPost2010PropOp43
 70
     1
102
RTVSPost2010Prop44ColorIndex
 90
        5
102
RTVSPost2010Prop44ColorRGB
 90
      255
102
RTVSPost2010PropOp44
 70
     1
102
RTVSPost2010Prop45
280
     0
102
RTVSPost2010PropOp45
 70
     1
102
RTVSPost2010Prop46
 90
       50
102
RTVSPost2010PropOp46
 70
     1
102
RTVSPost2010Prop47
 90
       50
102
RTVSPost2010PropOp47
 70
     1
102
RTVSPost2010Prop48
 90
       50
102
RTVSPost2010PropOp48
 70
     1
102
RTVSPost2010Prop49
280
     0
102
RTVSPost2010PropOp49
 70
     1
102
RTVSPost2010Prop50
 90
       50
102
RTVSPost2010PropOp50
 70
     1
102
RTVSPost2010Prop51ColorIndex
 90
      256
102
RTVSPost2010Prop51ColorRGB
 90
-16777216
102
RTVSPost2010PropOp51
 70
     0
102
RTVSPost2010Prop52
140
1.0
102
RTVSPost2010PropOp52
 70
     0
102
RTVSPost2010Prop53
 90
        2
102
RTVSPost2010PropOp53
 70
     1
102
RTVSPost2010Prop54
  1
strokes_ogs.tif
102
RTVSPost2010PropOp54
 70
     1
102
RTVSPost2010Prop55
280
     0
102
RTVSPost2010PropOp55
 70
     1
102
RTVSPost2010Prop56
140
1.0
102
RTVSPost2010PropOp56
 70
     1
102
RTVSPost2010Prop57
140
1.0
102
RTVSPost2010PropOp57
 70
     1
  0
XRECORD
  5
61E
102
{ACAD_REACTORS
330
61D
102
}
330
61D
100
AcDbXrecord
280
     1
102
RTVSPropertyOp0
 70
     1
102
RTVSPropertyOp1
 70
     1
102
RTVSPropertyOp2
 70
     1
102
RTVSPropertyOp3
 70
     1
102
RTVSPropertyOp4
 70
     1
102
RTVSPropertyOp5
 70
     1
102
RTVSPropertyOp6
 70
     1
102
RTVSPropertyOp7
 70
     1
102
RTVSPropertyOp8
 70
     1
102
RTVSPropertyOp9
 70
     1
102
RTVSPropertyOp10
 70
     1
102
RTVSPropertyOp11
 70
     1
102
RTVSPropertyOp12
 70
     1
102
RTVSPropertyOp13
 70
     1
102
RTVSPropertyOp14
 70
     1
102
RTVSPropertyOp15
 70
     1
102
RTVSPropertyOp16
 70
     1
102
RTVSPropertyOp17
 70
     1
102
RTVSPropertyOp18
 70
     1
102
RTVSPropertyOp19
 70
     1
102
RTVSPropertyOp20
 70
     1
102
RTVSPropertyOp21
 70
     1
102
RTVSPropertyOp22
 70
     1
102
RTVSPropertyOp23
 70
     1
102
RTVSPropertyOp24
 70
     1
102
RTVSPropertyOp25
 70
     1
102
RTVSPropertyOp26
 70
     1
102
RTVSPropertyOp27
 70
     1
102
RTVSPropertyOp28
 70
     1
102
RTVSPropertyOp29
 70
     1
102
RTVSPropertyOp30
 70
     1
102
RTVSPropertyOp31
 70
     1
102
RTVSPropertyOp32
 70
     1
102
RTVSPropertyOp33
 70
     1
102
RTVSPropertyOp34
 70
     1
102
RTVSPropertyOp35
 70
     1
102
RTVSPropertyOp36
 70
     1
102
RTVSPropertyOp37
 70
     1
102
RTVSPropertyOp38
 70
     1
102
RTVSPropertyOp39
 70
     1
102
RTVSPropertyOp40
 70
     1
102
RTVSPropertyOp41
 70
     1
102
RTVSPropertyOp42
 70
     1
102
RTVSPropertyOp43
 70
     1
102
RTVSPropertyOp44
 70
     1
102
RTVSPropertyOp45
 70
     1
102
RTVSPropertyOp46
 70
     1
102
RTVSPropertyOp47
 70
     1
102
RTVSPropertyOp48
 70
     1
102
RTVSPropertyOp49
 70
     1
102
RTVSPropertyOp50
 70
     1
102
RTVSPropertyOp51
 70
     0
102
RTVSPropertyOp52
 70
     0
102
RTVSPropertyOp53
 70
     1
102
RTVSPropertyOp54
 70
     1
102
RTVSPropertyOp55
 70
     1
102
RTVSPropertyOp56
 70
     1
102
RTVSPropertyOp57
 70
     1
102
RTVSPost2010Prop28
280
     0
102
RTVSPost2010PropOp28
 70
     1
102
RTVSPost2010Prop29
280
     1
102
RTVSPost2010PropOp29
 70
     1
102
RTVSPost2010Prop30
280
     1
102
RTVSPost2010PropOp30
 70
     1
102
RTVSPost2010Prop31
280
     0
102
RTVSPost2010PropOp31
 70
     1
102
RTVSPost2010Prop32
280
     0
102
RTVSPost2010PropOp32
 70
     1
102
RTVSPost2010Prop33
280
     0
102
RTVSPost2010PropOp33
 70
     1
102
RTVSPost2010Prop34
280
     0
102
RTVSPost2010PropOp34
 70
     1
102
RTVSPost2010Prop35
280
     0
102
RTVSPost2010PropOp35
 70
     1
102
RTVSPost2010Prop36
280
     0
102
RTVSPost2010PropOp36
 70
     1
102
RTVSPost2010Prop37
 90
       50
102
RTVSPost2010PropOp37
 70
     1
102
RTVSPost2010Prop38
140
0.0
102
RTVSPost2010PropOp38
 70
     1
102
RTVSPost2010Prop39
140
1.0
102
RTVSPost2010PropOp39
 70
     1
102
RTVSPost2010Prop40
 90
        0
102
RTVSPost2010PropOp40
 70
     1
102
RTVSPost2010Prop41ColorIndex
 90
       18
102
RTVSPost2010Prop41ColorRGB
 90
        0
102
RTVSPost2010PropOp41
 70
     1
102
RTVSPost2010Prop42
 90
       50
102
RTVSPost2010PropOp42
 70
     1
102
RTVSPost2010Prop43
 90
        3
102
RTVSPost2010PropOp43
 70
     1
102
RTVSPost2010Prop44ColorIndex
 90
        5
102
RTVSPost2010Prop44ColorRGB
 90
      255
102
RTVSPost2010PropOp44
 70
     1
102
RTVSPost2010Prop45
280
     0
102
RTVSPost2010PropOp45
 70
     1
102
RTVSPost2010Prop46
 90
       50
102
RTVSPost2010PropOp46
 70
     1
102
RTVSPost2010Prop47
 90
       50
102
RTVSPost2010PropOp47
 70
     1
102
RTVSPost2010Prop48
 90
       50
102
RTVSPost2010PropOp48
 70
     1
102
RTVSPost2010Prop49
280
     0
102
RTVSPost2010PropOp49
 70
     1
102
RTVSPost2010Prop50
 90
       50
102
RTVSPost2010PropOp50
 70
     1
102
RTVSPost2010Prop51ColorIndex
 90
      256
102
RTVSPost2010Prop51ColorRGB
 90
-16777216
102
RTVSPost2010PropOp51
 70
     0
102
RTVSPost2010Prop52
140
1.0
102
RTVSPost2010PropOp52
 70
     0
102
RTVSPost2010Prop53
 90
        2
102
RTVSPost2010PropOp53
 70
     1
102
RTVSPost2010Prop54
  1
strokes_ogs.tif
102
RTVSPost2010PropOp54
 70
     1
102
RTVSPost2010Prop55
280
     0
102
RTVSPost2010PropOp55
 70
     1
102
RTVSPost2010Prop56
140
1.0
102
RTVSPost2010PropOp56
 70
     1
102
RTVSPost2010Prop57
140
1.0
102
RTVSPost2010PropOp57
 70
     1
  0
XRECORD
  5
622
102
{ACAD_REACTORS
330
621
102
}
330
621
100
AcDbXrecord
280
     1
102
RTVSPropertyOp0
 70
     1
102
RTVSPropertyOp1
 70
     1
102
RTVSPropertyOp2
 70
     1
102
RTVSPropertyOp3
 70
     1
102
RTVSPropertyOp4
 70
     1
102
RTVSPropertyOp5
 70
     1
102
RTVSPropertyOp6
 70
     1
102
RTVSPropertyOp7
 70
     1
102
RTVSPropertyOp8
 70
     1
102
RTVSPropertyOp9
 70
     1
102
RTVSPropertyOp10
 70
     1
102
RTVSPropertyOp11
 70
     1
102
RTVSPropertyOp12
 70
     1
102
RTVSPropertyOp13
 70
     1
102
RTVSPropertyOp14
 70
     1
102
RTVSPropertyOp15
 70
     1
102
RTVSPropertyOp16
 70
     1
102
RTVSPropertyOp17
 70
     1
102
RTVSPropertyOp18
 70
     1
102
RTVSPropertyOp19
 70
     1
102
RTVSPropertyOp20
 70
     1
102
RTVSPropertyOp21
 70
     1
102
RTVSPropertyOp22
 70
     1
102
RTVSPropertyOp23
 70
     1
102
RTVSPropertyOp24
 70
     1
102
RTVSPropertyOp25
 70
     1
102
RTVSPropertyOp26
 70
     1
102
RTVSPropertyOp27
 70
     1
102
RTVSPropertyOp28
 70
     1
102
RTVSPropertyOp29
 70
     1
102
RTVSPropertyOp30
 70
     1
102
RTVSPropertyOp31
 70
     1
102
RTVSPropertyOp32
 70
     1
102
RTVSPropertyOp33
 70
     1
102
RTVSPropertyOp34
 70
     1
102
RTVSPropertyOp35
 70
     1
102
RTVSPropertyOp36
 70
     1
102
RTVSPropertyOp37
 70
     1
102
RTVSPropertyOp38
 70
     1
102
RTVSPropertyOp39
 70
     1
102
RTVSPropertyOp40
 70
     1
102
RTVSPropertyOp41
 70
     1
102
RTVSPropertyOp42
 70
     1
102
RTVSPropertyOp43
 70
     1
102
RTVSPropertyOp44
 70
     1
102
RTVSPropertyOp45
 70
     1
102
RTVSPropertyOp46
 70
     1
102
RTVSPropertyOp47
 70
     1
102
RTVSPropertyOp48
 70
     1
102
RTVSPropertyOp49
 70
     1
102
RTVSPropertyOp50
 70
     1
102
RTVSPropertyOp51
 70
     0
102
RTVSPropertyOp52
 70
     0
102
RTVSPropertyOp53
 70
     1
102
RTVSPropertyOp54
 70
     1
102
RTVSPropertyOp55
 70
     1
102
RTVSPropertyOp56
 70
     1
102
RTVSPropertyOp57
 70
     1
102
RTVSPost2010Prop28
280
     0
102
RTVSPost2010PropOp28
 70
     1
102
RTVSPost2010Prop29
280
     1
102
RTVSPost2010PropOp29
 70
     1
102
RTVSPost2010Prop30
280
     1
102
RTVSPost2010PropOp30
 70
     1
102
RTVSPost2010Prop31
280
     0
102
RTVSPost2010PropOp31
 70
     1
102
RTVSPost2010Prop32
280
     0
102
RTVSPost2010PropOp32
 70
     1
102
RTVSPost2010Prop33
280
     0
102
RTVSPost2010PropOp33
 70
     1
102
RTVSPost2010Prop34
280
     0
102
RTVSPost2010PropOp34
 70
     1
102
RTVSPost2010Prop35
280
     0
102
RTVSPost2010PropOp35
 70
     1
102
RTVSPost2010Prop36
280
     0
102
RTVSPost2010PropOp36
 70
     1
102
RTVSPost2010Prop37
 90
       50
102
RTVSPost2010PropOp37
 70
     1
102
RTVSPost2010Prop38
140
0.0
102
RTVSPost2010PropOp38
 70
     1
102
RTVSPost2010Prop39
140
1.0
102
RTVSPost2010PropOp39
 70
     1
102
RTVSPost2010Prop40
 90
        0
102
RTVSPost2010PropOp40
 70
     1
102
RTVSPost2010Prop41ColorIndex
 90
       18
102
RTVSPost2010Prop41ColorRGB
 90
        0
102
RTVSPost2010PropOp41
 70
     1
102
RTVSPost2010Prop42
 90
       50
102
RTVSPost2010PropOp42
 70
     1
102
RTVSPost2010Prop43
 90
        3
102
RTVSPost2010PropOp43
 70
     1
102
RTVSPost2010Prop44ColorIndex
 90
        5
102
RTVSPost2010Prop44ColorRGB
 90
      255
102
RTVSPost2010PropOp44
 70
     1
102
RTVSPost2010Prop45
280
     0
102
RTVSPost2010PropOp45
 70
     1
102
RTVSPost2010Prop46
 90
       50
102
RTVSPost2010PropOp46
 70
     1
102
RTVSPost2010Prop47
 90
       50
102
RTVSPost2010PropOp47
 70
     1
102
RTVSPost2010Prop48
 90
       50
102
RTVSPost2010PropOp48
 70
     1
102
RTVSPost2010Prop49
280
     0
102
RTVSPost2010PropOp49
 70
     1
102
RTVSPost2010Prop50
 90
       50
102
RTVSPost2010PropOp50
 70
     1
102
RTVSPost2010Prop51ColorIndex
 90
      256
102
RTVSPost2010Prop51ColorRGB
 90
-16777216
102
RTVSPost2010PropOp51
 70
     0
102
RTVSPost2010Prop52
140
1.0
102
RTVSPost2010PropOp52
 70
     0
102
RTVSPost2010Prop53
 90
        2
102
RTVSPost2010PropOp53
 70
     1
102
RTVSPost2010Prop54
  1
strokes_ogs.tif
102
RTVSPost2010PropOp54
 70
     1
102
RTVSPost2010Prop55
280
     0
102
RTVSPost2010PropOp55
 70
     1
102
RTVSPost2010Prop56
140
1.0
102
RTVSPost2010PropOp56
 70
     1
102
RTVSPost2010Prop57
140
1.0
102
RTVSPost2010PropOp57
 70
     1
  0
XRECORD
  5
62A
102
{ACAD_REACTORS
330
629
102
}
330
629
100
AcDbXrecord
280
     1
102
RTVSPropertyOp0
 70
     1
102
RTVSPropertyOp1
 70
     1
102
RTVSPropertyOp2
 70
     1
102
RTVSPropertyOp3
 70
     1
102
RTVSPropertyOp4
 70
     1
102
RTVSPropertyOp5
 70
     1
102
RTVSPropertyOp6
 70
     1
102
RTVSPropertyOp7
 70
     1
102
RTVSPropertyOp8
 70
     1
102
RTVSPropertyOp9
 70
     1
102
RTVSPropertyOp10
 70
     1
102
RTVSPropertyOp11
 70
     1
102
RTVSPropertyOp12
 70
     1
102
RTVSPropertyOp13
 70
     1
102
RTVSPropertyOp14
 70
     1
102
RTVSPropertyOp15
 70
     1
102
RTVSPropertyOp16
 70
     1
102
RTVSPropertyOp17
 70
     1
102
RTVSPropertyOp18
 70
     1
102
RTVSPropertyOp19
 70
     1
102
RTVSPropertyOp20
 70
     1
102
RTVSPropertyOp21
 70
     1
102
RTVSPropertyOp22
 70
     1
102
RTVSPropertyOp23
 70
     1
102
RTVSPropertyOp24
 70
     1
102
RTVSPropertyOp25
 70
     1
102
RTVSPropertyOp26
 70
     1
102
RTVSPropertyOp27
 70
     1
102
RTVSPropertyOp28
 70
     1
102
RTVSPropertyOp29
 70
     1
102
RTVSPropertyOp30
 70
     1
102
RTVSPropertyOp31
 70
     1
102
RTVSPropertyOp32
 70
     1
102
RTVSPropertyOp33
 70
     1
102
RTVSPropertyOp34
 70
     1
102
RTVSPropertyOp35
 70
     1
102
RTVSPropertyOp36
 70
     1
102
RTVSPropertyOp37
 70
     1
102
RTVSPropertyOp38
 70
     1
102
RTVSPropertyOp39
 70
     1
102
RTVSPropertyOp40
 70
     1
102
RTVSPropertyOp41
 70
     1
102
RTVSPropertyOp42
 70
     1
102
RTVSPropertyOp43
 70
     1
102
RTVSPropertyOp44
 70
     1
102
RTVSPropertyOp45
 70
     1
102
RTVSPropertyOp46
 70
     1
102
RTVSPropertyOp47
 70
     1
102
RTVSPropertyOp48
 70
     1
102
RTVSPropertyOp49
 70
     1
102
RTVSPropertyOp50
 70
     1
102
RTVSPropertyOp51
 70
     0
102
RTVSPropertyOp52
 70
     0
102
RTVSPropertyOp53
 70
     1
102
RTVSPropertyOp54
 70
     1
102
RTVSPropertyOp55
 70
     1
102
RTVSPropertyOp56
 70
     1
102
RTVSPropertyOp57
 70
     1
102
RTVSPost2010Prop28
280
     0
102
RTVSPost2010PropOp28
 70
     1
102
RTVSPost2010Prop29
280
     1
102
RTVSPost2010PropOp29
 70
     1
102
RTVSPost2010Prop30
280
     1
102
RTVSPost2010PropOp30
 70
     1
102
RTVSPost2010Prop31
280
     0
102
RTVSPost2010PropOp31
 70
     1
102
RTVSPost2010Prop32
280
     0
102
RTVSPost2010PropOp32
 70
     1
102
RTVSPost2010Prop33
280
     0
102
RTVSPost2010PropOp33
 70
     1
102
RTVSPost2010Prop34
280
     0
102
RTVSPost2010PropOp34
 70
     1
102
RTVSPost2010Prop35
280
     0
102
RTVSPost2010PropOp35
 70
     1
102
RTVSPost2010Prop36
280
     0
102
RTVSPost2010PropOp36
 70
     1
102
RTVSPost2010Prop37
 90
       50
102
RTVSPost2010PropOp37
 70
     1
102
RTVSPost2010Prop38
140
0.0
102
RTVSPost2010PropOp38
 70
     1
102
RTVSPost2010Prop39
140
1.0
102
RTVSPost2010PropOp39
 70
     1
102
RTVSPost2010Prop40
 90
        0
102
RTVSPost2010PropOp40
 70
     1
102
RTVSPost2010Prop41ColorIndex
 90
       18
102
RTVSPost2010Prop41ColorRGB
 90
        0
102
RTVSPost2010PropOp41
 70
     1
102
RTVSPost2010Prop42
 90
       50
102
RTVSPost2010PropOp42
 70
     1
102
RTVSPost2010Prop43
 90
        3
102
RTVSPost2010PropOp43
 70
     1
102
RTVSPost2010Prop44ColorIndex
 90
        5
102
RTVSPost2010Prop44ColorRGB
 90
      255
102
RTVSPost2010PropOp44
 70
     1
102
RTVSPost2010Prop45
280
     0
102
RTVSPost2010PropOp45
 70
     1
102
RTVSPost2010Prop46
 90
       50
102
RTVSPost2010PropOp46
 70
     1
102
RTVSPost2010Prop47
 90
       50
102
RTVSPost2010PropOp47
 70
     1
102
RTVSPost2010Prop48
 90
       50
102
RTVSPost2010PropOp48
 70
     1
102
RTVSPost2010Prop49
280
     0
102
RTVSPost2010PropOp49
 70
     1
102
RTVSPost2010Prop50
 90
       50
102
RTVSPost2010PropOp50
 70
     1
102
RTVSPost2010Prop51ColorIndex
 90
      256
102
RTVSPost2010Prop51ColorRGB
 90
-16777216
102
RTVSPost2010PropOp51
 70
     0
102
RTVSPost2010Prop52
140
1.0
102
RTVSPost2010PropOp52
 70
     0
102
RTVSPost2010Prop53
 90
        2
102
RTVSPost2010PropOp53
 70
     1
102
RTVSPost2010Prop54
  1
strokes_ogs.tif
102
RTVSPost2010PropOp54
 70
     1
102
RTVSPost2010Prop55
280
     0
102
RTVSPost2010PropOp55
 70
     1
102
RTVSPost2010Prop56
140
1.0
102
RTVSPost2010PropOp56
 70
     1
102
RTVSPost2010Prop57
140
1.0
102
RTVSPost2010PropOp57
 70
     1
  0
XRECORD
  5
632
102
{ACAD_REACTORS
330
631
102
}
330
631
100
AcDbXrecord
280
     1
102
RTVSPropertyOp0
 70
     1
102
RTVSPropertyOp1
 70
     1
102
RTVSPropertyOp2
 70
     1
102
RTVSPropertyOp3
 70
     1
102
RTVSPropertyOp4
 70
     1
102
RTVSPropertyOp5
 70
     1
102
RTVSPropertyOp6
 70
     1
102
RTVSPropertyOp7
 70
     1
102
RTVSPropertyOp8
 70
     1
102
RTVSPropertyOp9
 70
     1
102
RTVSPropertyOp10
 70
     1
102
RTVSPropertyOp11
 70
     1
102
RTVSPropertyOp12
 70
     1
102
RTVSPropertyOp13
 70
     1
102
RTVSPropertyOp14
 70
     1
102
RTVSPropertyOp15
 70
     1
102
RTVSPropertyOp16
 70
     1
102
RTVSPropertyOp17
 70
     1
102
RTVSPropertyOp18
 70
     1
102
RTVSPropertyOp19
 70
     1
102
RTVSPropertyOp20
 70
     1
102
RTVSPropertyOp21
 70
     1
102
RTVSPropertyOp22
 70
     1
102
RTVSPropertyOp23
 70
     1
102
RTVSPropertyOp24
 70
     1
102
RTVSPropertyOp25
 70
     1
102
RTVSPropertyOp26
 70
     1
102
RTVSPropertyOp27
 70
     1
102
RTVSPropertyOp28
 70
     1
102
RTVSPropertyOp29
 70
     1
102
RTVSPropertyOp30
 70
     1
102
RTVSPropertyOp31
 70
     1
102
RTVSPropertyOp32
 70
     1
102
RTVSPropertyOp33
 70
     1
102
RTVSPropertyOp34
 70
     1
102
RTVSPropertyOp35
 70
     1
102
RTVSPropertyOp36
 70
     1
102
RTVSPropertyOp37
 70
     1
102
RTVSPropertyOp38
 70
     1
102
RTVSPropertyOp39
 70
     1
102
RTVSPropertyOp40
 70
     1
102
RTVSPropertyOp41
 70
     1
102
RTVSPropertyOp42
 70
     1
102
RTVSPropertyOp43
 70
     1
102
RTVSPropertyOp44
 70
     1
102
RTVSPropertyOp45
 70
     1
102
RTVSPropertyOp46
 70
     1
102
RTVSPropertyOp47
 70
     1
102
RTVSPropertyOp48
 70
     1
102
RTVSPropertyOp49
 70
     1
102
RTVSPropertyOp50
 70
     1
102
RTVSPropertyOp51
 70
     0
102
RTVSPropertyOp52
 70
     0
102
RTVSPropertyOp53
 70
     1
102
RTVSPropertyOp54
 70
     1
102
RTVSPropertyOp55
 70
     1
102
RTVSPropertyOp56
 70
     1
102
RTVSPropertyOp57
 70
     1
102
RTVSPost2010Prop28
280
     0
102
RTVSPost2010PropOp28
 70
     1
102
RTVSPost2010Prop29
280
     1
102
RTVSPost2010PropOp29
 70
     1
102
RTVSPost2010Prop30
280
     1
102
RTVSPost2010PropOp30
 70
     1
102
RTVSPost2010Prop31
280
     0
102
RTVSPost2010PropOp31
 70
     1
102
RTVSPost2010Prop32
280
     0
102
RTVSPost2010PropOp32
 70
     1
102
RTVSPost2010Prop33
280
     0
102
RTVSPost2010PropOp33
 70
     1
102
RTVSPost2010Prop34
280
     0
102
RTVSPost2010PropOp34
 70
     1
102
RTVSPost2010Prop35
280
     0
102
RTVSPost2010PropOp35
 70
     1
102
RTVSPost2010Prop36
280
     0
102
RTVSPost2010PropOp36
 70
     1
102
RTVSPost2010Prop37
 90
       50
102
RTVSPost2010PropOp37
 70
     1
102
RTVSPost2010Prop38
140
0.0
102
RTVSPost2010PropOp38
 70
     1
102
RTVSPost2010Prop39
140
1.0
102
RTVSPost2010PropOp39
 70
     1
102
RTVSPost2010Prop40
 90
        0
102
RTVSPost2010PropOp40
 70
     1
102
RTVSPost2010Prop41ColorIndex
 90
       18
102
RTVSPost2010Prop41ColorRGB
 90
        0
102
RTVSPost2010PropOp41
 70
     1
102
RTVSPost2010Prop42
 90
       50
102
RTVSPost2010PropOp42
 70
     1
102
RTVSPost2010Prop43
 90
        3
102
RTVSPost2010PropOp43
 70
     1
102
RTVSPost2010Prop44ColorIndex
 90
        5
102
RTVSPost2010Prop44ColorRGB
 90
      255
102
RTVSPost2010PropOp44
 70
     1
102
RTVSPost2010Prop45
280
     0
102
RTVSPost2010PropOp45
 70
     1
102
RTVSPost2010Prop46
 90
       50
102
RTVSPost2010PropOp46
 70
     1
102
RTVSPost2010Prop47
 90
       50
102
RTVSPost2010PropOp47
 70
     1
102
RTVSPost2010Prop48
 90
       50
102
RTVSPost2010PropOp48
 70
     1
102
RTVSPost2010Prop49
280
     0
102
RTVSPost2010PropOp49
 70
     1
102
RTVSPost2010Prop50
 90
       50
102
RTVSPost2010PropOp50
 70
     1
102
RTVSPost2010Prop51ColorIndex
 90
      256
102
RTVSPost2010Prop51ColorRGB
 90
-16777216
102
RTVSPost2010PropOp51
 70
     0
102
RTVSPost2010Prop52
140
1.0
102
RTVSPost2010PropOp52
 70
     0
102
RTVSPost2010Prop53
 90
        2
102
RTVSPost2010PropOp53
 70
     1
102
RTVSPost2010Prop54
  1
strokes_ogs.tif
102
RTVSPost2010PropOp54
 70
     1
102
RTVSPost2010Prop55
280
     0
102
RTVSPost2010PropOp55
 70
     1
102
RTVSPost2010Prop56
140
1.0
102
RTVSPost2010PropOp56
 70
     1
102
RTVSPost2010Prop57
140
1.0
102
RTVSPost2010PropOp57
 70
     1
  0
XRECORD
  5
626
102
{ACAD_REACTORS
330
625
102
}
330
625
100
AcDbXrecord
280
     1
102
RTVSPropertyOp0
 70
     1
102
RTVSPropertyOp1
 70
     1
102
RTVSPropertyOp2
 70
     1
102
RTVSPropertyOp3
 70
     1
102
RTVSPropertyOp4
 70
     1
102
RTVSPropertyOp5
 70
     1
102
RTVSPropertyOp6
 70
     1
102
RTVSPropertyOp7
 70
     1
102
RTVSPropertyOp8
 70
     1
102
RTVSPropertyOp9
 70
     1
102
RTVSPropertyOp10
 70
     1
102
RTVSPropertyOp11
 70
     1
102
RTVSPropertyOp12
 70
     1
102
RTVSPropertyOp13
 70
     1
102
RTVSPropertyOp14
 70
     1
102
RTVSPropertyOp15
 70
     1
102
RTVSPropertyOp16
 70
     1
102
RTVSPropertyOp17
 70
     1
102
RTVSPropertyOp18
 70
     1
102
RTVSPropertyOp19
 70
     1
102
RTVSPropertyOp20
 70
     1
102
RTVSPropertyOp21
 70
     1
102
RTVSPropertyOp22
 70
     1
102
RTVSPropertyOp23
 70
     1
102
RTVSPropertyOp24
 70
     1
102
RTVSPropertyOp25
 70
     1
102
RTVSPropertyOp26
 70
     1
102
RTVSPropertyOp27
 70
     1
102
RTVSPropertyOp28
 70
     1
102
RTVSPropertyOp29
 70
     1
102
RTVSPropertyOp30
 70
     1
102
RTVSPropertyOp31
 70
     1
102
RTVSPropertyOp32
 70
     1
102
RTVSPropertyOp33
 70
     1
102
RTVSPropertyOp34
 70
     1
102
RTVSPropertyOp35
 70
     1
102
RTVSPropertyOp36
 70
     1
102
RTVSPropertyOp37
 70
     1
102
RTVSPropertyOp38
 70
     1
102
RTVSPropertyOp39
 70
     1
102
RTVSPropertyOp40
 70
     1
102
RTVSPropertyOp41
 70
     1
102
RTVSPropertyOp42
 70
     1
102
RTVSPropertyOp43
 70
     1
102
RTVSPropertyOp44
 70
     1
102
RTVSPropertyOp45
 70
     1
102
RTVSPropertyOp46
 70
     1
102
RTVSPropertyOp47
 70
     1
102
RTVSPropertyOp48
 70
     1
102
RTVSPropertyOp49
 70
     1
102
RTVSPropertyOp50
 70
     1
102
RTVSPropertyOp51
 70
     0
102
RTVSPropertyOp52
 70
     0
102
RTVSPropertyOp53
 70
     1
102
RTVSPropertyOp54
 70
     1
102
RTVSPropertyOp55
 70
     1
102
RTVSPropertyOp56
 70
     1
102
RTVSPropertyOp57
 70
     1
102
RTVSPost2010Prop28
280
     0
102
RTVSPost2010PropOp28
 70
     1
102
RTVSPost2010Prop29
280
     1
102
RTVSPost2010PropOp29
 70
     1
102
RTVSPost2010Prop30
280
     1
102
RTVSPost2010PropOp30
 70
     1
102
RTVSPost2010Prop31
280
     0
102
RTVSPost2010PropOp31
 70
     1
102
RTVSPost2010Prop32
280
     0
102
RTVSPost2010PropOp32
 70
     1
102
RTVSPost2010Prop33
280
     0
102
RTVSPost2010PropOp33
 70
     1
102
RTVSPost2010Prop34
280
     0
102
RTVSPost2010PropOp34
 70
     1
102
RTVSPost2010Prop35
280
     0
102
RTVSPost2010PropOp35
 70
     1
102
RTVSPost2010Prop36
280
     0
102
RTVSPost2010PropOp36
 70
     1
102
RTVSPost2010Prop37
 90
       50
102
RTVSPost2010PropOp37
 70
     1
102
RTVSPost2010Prop38
140
0.0
102
RTVSPost2010PropOp38
 70
     1
102
RTVSPost2010Prop39
140
1.0
102
RTVSPost2010PropOp39
 70
     1
102
RTVSPost2010Prop40
 90
        0
102
RTVSPost2010PropOp40
 70
     1
102
RTVSPost2010Prop41ColorIndex
 90
       18
102
RTVSPost2010Prop41ColorRGB
 90
        0
102
RTVSPost2010PropOp41
 70
     1
102
RTVSPost2010Prop42
 90
       50
102
RTVSPost2010PropOp42
 70
     1
102
RTVSPost2010Prop43
 90
        3
102
RTVSPost2010PropOp43
 70
     1
102
RTVSPost2010Prop44ColorIndex
 90
        5
102
RTVSPost2010Prop44ColorRGB
 90
      255
102
RTVSPost2010PropOp44
 70
     1
102
RTVSPost2010Prop45
280
     0
102
RTVSPost2010PropOp45
 70
     1
102
RTVSPost2010Prop46
 90
       50
102
RTVSPost2010PropOp46
 70
     1
102
RTVSPost2010Prop47
 90
       50
102
RTVSPost2010PropOp47
 70
     1
102
RTVSPost2010Prop48
 90
       50
102
RTVSPost2010PropOp48
 70
     1
102
RTVSPost2010Prop49
280
     0
102
RTVSPost2010PropOp49
 70
     1
102
RTVSPost2010Prop50
 90
       50
102
RTVSPost2010PropOp50
 70
     1
102
RTVSPost2010Prop51ColorIndex
 90
      256
102
RTVSPost2010Prop51ColorRGB
 90
-16777216
102
RTVSPost2010PropOp51
 70
     0
102
RTVSPost2010Prop52
140
1.0
102
RTVSPost2010PropOp52
 70
     0
102
RTVSPost2010Prop53
 90
        2
102
RTVSPost2010PropOp53
 70
     1
102
RTVSPost2010Prop54
  1
strokes_ogs.tif
102
RTVSPost2010PropOp54
 70
     1
102
RTVSPost2010Prop55
280
     0
102
RTVSPost2010PropOp55
 70
     1
102
RTVSPost2010Prop56
140
1.0
102
RTVSPost2010PropOp56
 70
     1
102
RTVSPost2010Prop57
140
1.0
102
RTVSPost2010PropOp57
 70
     1
  0
XRECORD
  5
628
102
{ACAD_REACTORS
330
627
102
}
330
627
100
AcDbXrecord
280
     1
102
RTVSPropertyOp0
 70
     1
102
RTVSPropertyOp1
 70
     1
102
RTVSPropertyOp2
 70
     1
102
RTVSPropertyOp3
 70
     1
102
RTVSPropertyOp4
 70
     1
102
RTVSPropertyOp5
 70
     1
102
RTVSPropertyOp6
 70
     1
102
RTVSPropertyOp7
 70
     1
102
RTVSPropertyOp8
 70
     1
102
RTVSPropertyOp9
 70
     1
102
RTVSPropertyOp10
 70
     1
102
RTVSPropertyOp11
 70
     1
102
RTVSPropertyOp12
 70
     1
102
RTVSPropertyOp13
 70
     1
102
RTVSPropertyOp14
 70
     1
102
RTVSPropertyOp15
 70
     1
102
RTVSPropertyOp16
 70
     1
102
RTVSPropertyOp17
 70
     1
102
RTVSPropertyOp18
 70
     1
102
RTVSPropertyOp19
 70
     1
102
RTVSPropertyOp20
 70
     1
102
RTVSPropertyOp21
 70
     1
102
RTVSPropertyOp22
 70
     1
102
RTVSPropertyOp23
 70
     1
102
RTVSPropertyOp24
 70
     1
102
RTVSPropertyOp25
 70
     1
102
RTVSPropertyOp26
 70
     1
102
RTVSPropertyOp27
 70
     1
102
RTVSPropertyOp28
 70
     1
102
RTVSPropertyOp29
 70
     1
102
RTVSPropertyOp30
 70
     1
102
RTVSPropertyOp31
 70
     1
102
RTVSPropertyOp32
 70
     1
102
RTVSPropertyOp33
 70
     1
102
RTVSPropertyOp34
 70
     1
102
RTVSPropertyOp35
 70
     1
102
RTVSPropertyOp36
 70
     1
102
RTVSPropertyOp37
 70
     1
102
RTVSPropertyOp38
 70
     1
102
RTVSPropertyOp39
 70
     1
102
RTVSPropertyOp40
 70
     1
102
RTVSPropertyOp41
 70
     1
102
RTVSPropertyOp42
 70
     1
102
RTVSPropertyOp43
 70
     1
102
RTVSPropertyOp44
 70
     1
102
RTVSPropertyOp45
 70
     1
102
RTVSPropertyOp46
 70
     1
102
RTVSPropertyOp47
 70
     1
102
RTVSPropertyOp48
 70
     1
102
RTVSPropertyOp49
 70
     1
102
RTVSPropertyOp50
 70
     1
102
RTVSPropertyOp51
 70
     0
102
RTVSPropertyOp52
 70
     0
102
RTVSPropertyOp53
 70
     1
102
RTVSPropertyOp54
 70
     1
102
RTVSPropertyOp55
 70
     1
102
RTVSPropertyOp56
 70
     1
102
RTVSPropertyOp57
 70
     1
102
RTVSPost2010Prop28
280
     0
102
RTVSPost2010PropOp28
 70
     1
102
RTVSPost2010Prop29
280
     1
102
RTVSPost2010PropOp29
 70
     1
102
RTVSPost2010Prop30
280
     1
102
RTVSPost2010PropOp30
 70
     1
102
RTVSPost2010Prop31
280
     0
102
RTVSPost2010PropOp31
 70
     1
102
RTVSPost2010Prop32
280
     0
102
RTVSPost2010PropOp32
 70
     1
102
RTVSPost2010Prop33
280
     0
102
RTVSPost2010PropOp33
 70
     1
102
RTVSPost2010Prop34
280
     0
102
RTVSPost2010PropOp34
 70
     1
102
RTVSPost2010Prop35
280
     0
102
RTVSPost2010PropOp35
 70
     1
102
RTVSPost2010Prop36
280
     0
102
RTVSPost2010PropOp36
 70
     1
102
RTVSPost2010Prop37
 90
       50
102
RTVSPost2010PropOp37
 70
     1
102
RTVSPost2010Prop38
140
0.0
102
RTVSPost2010PropOp38
 70
     1
102
RTVSPost2010Prop39
140
1.0
102
RTVSPost2010PropOp39
 70
     1
102
RTVSPost2010Prop40
 90
        0
102
RTVSPost2010PropOp40
 70
     1
102
RTVSPost2010Prop41ColorIndex
 90
       18
102
RTVSPost2010Prop41ColorRGB
 90
        0
102
RTVSPost2010PropOp41
 70
     1
102
RTVSPost2010Prop42
 90
       50
102
RTVSPost2010PropOp42
 70
     1
102
RTVSPost2010Prop43
 90
        3
102
RTVSPost2010PropOp43
 70
     1
102
RTVSPost2010Prop44ColorIndex
 90
        5
102
RTVSPost2010Prop44ColorRGB
 90
      255
102
RTVSPost2010PropOp44
 70
     1
102
RTVSPost2010Prop45
280
     0
102
RTVSPost2010PropOp45
 70
     1
102
RTVSPost2010Prop46
 90
       50
102
RTVSPost2010PropOp46
 70
     1
102
RTVSPost2010Prop47
 90
       50
102
RTVSPost2010PropOp47
 70
     1
102
RTVSPost2010Prop48
 90
       50
102
RTVSPost2010PropOp48
 70
     1
102
RTVSPost2010Prop49
280
     0
102
RTVSPost2010PropOp49
 70
     1
102
RTVSPost2010Prop50
 90
       50
102
RTVSPost2010PropOp50
 70
     1
102
RTVSPost2010Prop51ColorIndex
 90
      256
102
RTVSPost2010Prop51ColorRGB
 90
-16777216
102
RTVSPost2010PropOp51
 70
     0
102
RTVSPost2010Prop52
140
1.0
102
RTVSPost2010PropOp52
 70
     0
102
RTVSPost2010Prop53
 90
        2
102
RTVSPost2010PropOp53
 70
     1
102
RTVSPost2010Prop54
  1
strokes_ogs.tif
102
RTVSPost2010PropOp54
 70
     1
102
RTVSPost2010Prop55
280
     0
102
RTVSPost2010PropOp55
 70
     1
102
RTVSPost2010Prop56
140
1.0
102
RTVSPost2010PropOp56
 70
     1
102
RTVSPost2010Prop57
140
1.0
102
RTVSPost2010PropOp57
 70
     1
  0
XRECORD
  5
630
102
{ACAD_REACTORS
330
62F
102
}
330
62F
100
AcDbXrecord
280
     1
102
RTVSPropertyOp0
 70
     1
102
RTVSPropertyOp1
 70
     1
102
RTVSPropertyOp2
 70
     1
102
RTVSPropertyOp3
 70
     1
102
RTVSPropertyOp4
 70
     1
102
RTVSPropertyOp5
 70
     1
102
RTVSPropertyOp6
 70
     1
102
RTVSPropertyOp7
 70
     1
102
RTVSPropertyOp8
 70
     1
102
RTVSPropertyOp9
 70
     1
102
RTVSPropertyOp10
 70
     1
102
RTVSPropertyOp11
 70
     1
102
RTVSPropertyOp12
 70
     1
102
RTVSPropertyOp13
 70
     1
102
RTVSPropertyOp14
 70
     1
102
RTVSPropertyOp15
 70
     1
102
RTVSPropertyOp16
 70
     1
102
RTVSPropertyOp17
 70
     1
102
RTVSPropertyOp18
 70
     1
102
RTVSPropertyOp19
 70
     1
102
RTVSPropertyOp20
 70
     1
102
RTVSPropertyOp21
 70
     1
102
RTVSPropertyOp22
 70
     1
102
RTVSPropertyOp23
 70
     1
102
RTVSPropertyOp24
 70
     1
102
RTVSPropertyOp25
 70
     1
102
RTVSPropertyOp26
 70
     1
102
RTVSPropertyOp27
 70
     1
102
RTVSPropertyOp28
 70
     1
102
RTVSPropertyOp29
 70
     1
102
RTVSPropertyOp30
 70
     1
102
RTVSPropertyOp31
 70
     1
102
RTVSPropertyOp32
 70
     1
102
RTVSPropertyOp33
 70
     1
102
RTVSPropertyOp34
 70
     1
102
RTVSPropertyOp35
 70
     1
102
RTVSPropertyOp36
 70
     1
102
RTVSPropertyOp37
 70
     1
102
RTVSPropertyOp38
 70
     1
102
RTVSPropertyOp39
 70
     1
102
RTVSPropertyOp40
 70
     1
102
RTVSPropertyOp41
 70
     1
102
RTVSPropertyOp42
 70
     1
102
RTVSPropertyOp43
 70
     1
102
RTVSPropertyOp44
 70
     1
102
RTVSPropertyOp45
 70
     1
102
RTVSPropertyOp46
 70
     1
102
RTVSPropertyOp47
 70
     1
102
RTVSPropertyOp48
 70
     1
102
RTVSPropertyOp49
 70
     1
102
RTVSPropertyOp50
 70
     1
102
RTVSPropertyOp51
 70
     0
102
RTVSPropertyOp52
 70
     0
102
RTVSPropertyOp53
 70
     1
102
RTVSPropertyOp54
 70
     1
102
RTVSPropertyOp55
 70
     1
102
RTVSPropertyOp56
 70
     1
102
RTVSPropertyOp57
 70
     1
102
RTVSPost2010Prop28
280
     0
102
RTVSPost2010PropOp28
 70
     1
102
RTVSPost2010Prop29
280
     1
102
RTVSPost2010PropOp29
 70
     1
102
RTVSPost2010Prop30
280
     1
102
RTVSPost2010PropOp30
 70
     1
102
RTVSPost2010Prop31
280
     0
102
RTVSPost2010PropOp31
 70
     1
102
RTVSPost2010Prop32
280
     0
102
RTVSPost2010PropOp32
 70
     1
102
RTVSPost2010Prop33
280
     0
102
RTVSPost2010PropOp33
 70
     1
102
RTVSPost2010Prop34
280
     0
102
RTVSPost2010PropOp34
 70
     1
102
RTVSPost2010Prop35
280
     0
102
RTVSPost2010PropOp35
 70
     1
102
RTVSPost2010Prop36
280
     0
102
RTVSPost2010PropOp36
 70
     1
102
RTVSPost2010Prop37
 90
       50
102
RTVSPost2010PropOp37
 70
     1
102
RTVSPost2010Prop38
140
0.0
102
RTVSPost2010PropOp38
 70
     1
102
RTVSPost2010Prop39
140
1.0
102
RTVSPost2010PropOp39
 70
     1
102
RTVSPost2010Prop40
 90
        0
102
RTVSPost2010PropOp40
 70
     1
102
RTVSPost2010Prop41ColorIndex
 90
       18
102
RTVSPost2010Prop41ColorRGB
 90
        0
102
RTVSPost2010PropOp41
 70
     1
102
RTVSPost2010Prop42
 90
       50
102
RTVSPost2010PropOp42
 70
     1
102
RTVSPost2010Prop43
 90
        3
102
RTVSPost2010PropOp43
 70
     1
102
RTVSPost2010Prop44ColorIndex
 90
        5
102
RTVSPost2010Prop44ColorRGB
 90
      255
102
RTVSPost2010PropOp44
 70
     1
102
RTVSPost2010Prop45
280
     0
102
RTVSPost2010PropOp45
 70
     1
102
RTVSPost2010Prop46
 90
       50
102
RTVSPost2010PropOp46
 70
     1
102
RTVSPost2010Prop47
 90
       50
102
RTVSPost2010PropOp47
 70
     1
102
RTVSPost2010Prop48
 90
       50
102
RTVSPost2010PropOp48
 70
     1
102
RTVSPost2010Prop49
280
     0
102
RTVSPost2010PropOp49
 70
     1
102
RTVSPost2010Prop50
 90
       50
102
RTVSPost2010PropOp50
 70
     1
102
RTVSPost2010Prop51ColorIndex
 90
      256
102
RTVSPost2010Prop51ColorRGB
 90
-16777216
102
RTVSPost2010PropOp51
 70
     0
102
RTVSPost2010Prop52
140
1.0
102
RTVSPost2010PropOp52
 70
     0
102
RTVSPost2010Prop53
 90
        2
102
RTVSPost2010PropOp53
 70
     1
102
RTVSPost2010Prop54
  1
strokes_ogs.tif
102
RTVSPost2010PropOp54
 70
     1
102
RTVSPost2010Prop55
280
     0
102
RTVSPost2010PropOp55
 70
     1
102
RTVSPost2010Prop56
140
1.0
102
RTVSPost2010PropOp56
 70
     1
102
RTVSPost2010Prop57
140
1.0
102
RTVSPost2010PropOp57
 70
     1
  0
XRECORD
  5
614
102
{ACAD_REACTORS
330
613
102
}
330
613
100
AcDbXrecord
280
     1
102
RTVSPropertyOp0
 70
     1
102
RTVSPropertyOp1
 70
     1
102
RTVSPropertyOp2
 70
     1
102
RTVSPropertyOp3
 70
     1
102
RTVSPropertyOp4
 70
     1
102
RTVSPropertyOp5
 70
     1
102
RTVSPropertyOp6
 70
     1
102
RTVSPropertyOp7
 70
     1
102
RTVSPropertyOp8
 70
     1
102
RTVSPropertyOp9
 70
     1
102
RTVSPropertyOp10
 70
     1
102
RTVSPropertyOp11
 70
     1
102
RTVSPropertyOp12
 70
     1
102
RTVSPropertyOp13
 70
     1
102
RTVSPropertyOp14
 70
     1
102
RTVSPropertyOp15
 70
     1
102
RTVSPropertyOp16
 70
     1
102
RTVSPropertyOp17
 70
     1
102
RTVSPropertyOp18
 70
     1
102
RTVSPropertyOp19
 70
     1
102
RTVSPropertyOp20
 70
     1
102
RTVSPropertyOp21
 70
     1
102
RTVSPropertyOp22
 70
     1
102
RTVSPropertyOp23
 70
     1
102
RTVSPropertyOp24
 70
     1
102
RTVSPropertyOp25
 70
     1
102
RTVSPropertyOp26
 70
     1
102
RTVSPropertyOp27
 70
     1
102
RTVSPropertyOp28
 70
     1
102
RTVSPropertyOp29
 70
     1
102
RTVSPropertyOp30
 70
     1
102
RTVSPropertyOp31
 70
     1
102
RTVSPropertyOp32
 70
     1
102
RTVSPropertyOp33
 70
     1
102
RTVSPropertyOp34
 70
     1
102
RTVSPropertyOp35
 70
     1
102
RTVSPropertyOp36
 70
     1
102
RTVSPropertyOp37
 70
     1
102
RTVSPropertyOp38
 70
     1
102
RTVSPropertyOp39
 70
     1
102
RTVSPropertyOp40
 70
     1
102
RTVSPropertyOp41
 70
     1
102
RTVSPropertyOp42
 70
     1
102
RTVSPropertyOp43
 70
     1
102
RTVSPropertyOp44
 70
     1
102
RTVSPropertyOp45
 70
     1
102
RTVSPropertyOp46
 70
     1
102
RTVSPropertyOp47
 70
     1
102
RTVSPropertyOp48
 70
     1
102
RTVSPropertyOp49
 70
     1
102
RTVSPropertyOp50
 70
     1
102
RTVSPropertyOp51
 70
     0
102
RTVSPropertyOp52
 70
     0
102
RTVSPropertyOp53
 70
     1
102
RTVSPropertyOp54
 70
     1
102
RTVSPropertyOp55
 70
     1
102
RTVSPropertyOp56
 70
     1
102
RTVSPropertyOp57
 70
     1
102
RTVSPost2010Prop28
280
     0
102
RTVSPost2010PropOp28
 70
     1
102
RTVSPost2010Prop29
280
     1
102
RTVSPost2010PropOp29
 70
     1
102
RTVSPost2010Prop30
280
     1
102
RTVSPost2010PropOp30
 70
     1
102
RTVSPost2010Prop31
280
     0
102
RTVSPost2010PropOp31
 70
     1
102
RTVSPost2010Prop32
280
     0
102
RTVSPost2010PropOp32
 70
     1
102
RTVSPost2010Prop33
280
     0
102
RTVSPost2010PropOp33
 70
     1
102
RTVSPost2010Prop34
280
     0
102
RTVSPost2010PropOp34
 70
     1
102
RTVSPost2010Prop35
280
     0
102
RTVSPost2010PropOp35
 70
     1
102
RTVSPost2010Prop36
280
     0
102
RTVSPost2010PropOp36
 70
     1
102
RTVSPost2010Prop37
 90
       50
102
RTVSPost2010PropOp37
 70
     1
102
RTVSPost2010Prop38
140
0.0
102
RTVSPost2010PropOp38
 70
     1
102
RTVSPost2010Prop39
140
1.0
102
RTVSPost2010PropOp39
 70
     1
102
RTVSPost2010Prop40
 90
        0
102
RTVSPost2010PropOp40
 70
     1
102
RTVSPost2010Prop41ColorIndex
 90
       18
102
RTVSPost2010Prop41ColorRGB
 90
        0
102
RTVSPost2010PropOp41
 70
     1
102
RTVSPost2010Prop42
 90
       50
102
RTVSPost2010PropOp42
 70
     1
102
RTVSPost2010Prop43
 90
        3
102
RTVSPost2010PropOp43
 70
     1
102
RTVSPost2010Prop44ColorIndex
 90
        5
102
RTVSPost2010Prop44ColorRGB
 90
      255
102
RTVSPost2010PropOp44
 70
     1
102
RTVSPost2010Prop45
280
     0
102
RTVSPost2010PropOp45
 70
     1
102
RTVSPost2010Prop46
 90
       50
102
RTVSPost2010PropOp46
 70
     1
102
RTVSPost2010Prop47
 90
       50
102
RTVSPost2010PropOp47
 70
     1
102
RTVSPost2010Prop48
 90
       50
102
RTVSPost2010PropOp48
 70
     1
102
RTVSPost2010Prop49
280
     0
102
RTVSPost2010PropOp49
 70
     1
102
RTVSPost2010Prop50
 90
       50
102
RTVSPost2010PropOp50
 70
     1
102
RTVSPost2010Prop51ColorIndex
 90
      256
102
RTVSPost2010Prop51ColorRGB
 90
-16777216
102
RTVSPost2010PropOp51
 70
     0
102
RTVSPost2010Prop52
140
1.0
102
RTVSPost2010PropOp52
 70
     0
102
RTVSPost2010Prop53
 90
        2
102
RTVSPost2010PropOp53
 70
     1
102
RTVSPost2010Prop54
  1
strokes_ogs.tif
102
RTVSPost2010PropOp54
 70
     1
102
RTVSPost2010Prop55
280
     0
102
RTVSPost2010PropOp55
 70
     1
102
RTVSPost2010Prop56
140
1.0
102
RTVSPost2010PropOp56
 70
     1
102
RTVSPost2010Prop57
140
1.0
102
RTVSPost2010PropOp57
 70
     1
  0
XRECORD
  5
616
102
{ACAD_REACTORS
330
615
102
}
330
615
100
AcDbXrecord
280
     1
102
RTVSPropertyOp0
 70
     1
102
RTVSPropertyOp1
 70
     1
102
RTVSPropertyOp2
 70
     1
102
RTVSPropertyOp3
 70
     1
102
RTVSPropertyOp4
 70
     1
102
RTVSPropertyOp5
 70
     1
102
RTVSPropertyOp6
 70
     1
102
RTVSPropertyOp7
 70
     1
102
RTVSPropertyOp8
 70
     1
102
RTVSPropertyOp9
 70
     1
102
RTVSPropertyOp10
 70
     1
102
RTVSPropertyOp11
 70
     1
102
RTVSPropertyOp12
 70
     1
102
RTVSPropertyOp13
 70
     1
102
RTVSPropertyOp14
 70
     1
102
RTVSPropertyOp15
 70
     1
102
RTVSPropertyOp16
 70
     1
102
RTVSPropertyOp17
 70
     1
102
RTVSPropertyOp18
 70
     1
102
RTVSPropertyOp19
 70
     1
102
RTVSPropertyOp20
 70
     1
102
RTVSPropertyOp21
 70
     1
102
RTVSPropertyOp22
 70
     1
102
RTVSPropertyOp23
 70
     1
102
RTVSPropertyOp24
 70
     1
102
RTVSPropertyOp25
 70
     1
102
RTVSPropertyOp26
 70
     1
102
RTVSPropertyOp27
 70
     1
102
RTVSPropertyOp28
 70
     1
102
RTVSPropertyOp29
 70
     1
102
RTVSPropertyOp30
 70
     1
102
RTVSPropertyOp31
 70
     1
102
RTVSPropertyOp32
 70
     1
102
RTVSPropertyOp33
 70
     1
102
RTVSPropertyOp34
 70
     1
102
RTVSPropertyOp35
 70
     1
102
RTVSPropertyOp36
 70
     1
102
RTVSPropertyOp37
 70
     1
102
RTVSPropertyOp38
 70
     1
102
RTVSPropertyOp39
 70
     1
102
RTVSPropertyOp40
 70
     1
102
RTVSPropertyOp41
 70
     1
102
RTVSPropertyOp42
 70
     1
102
RTVSPropertyOp43
 70
     1
102
RTVSPropertyOp44
 70
     1
102
RTVSPropertyOp45
 70
     1
102
RTVSPropertyOp46
 70
     1
102
RTVSPropertyOp47
 70
     1
102
RTVSPropertyOp48
 70
     1
102
RTVSPropertyOp49
 70
     1
102
RTVSPropertyOp50
 70
     1
102
RTVSPropertyOp51
 70
     0
102
RTVSPropertyOp52
 70
     0
102
RTVSPropertyOp53
 70
     1
102
RTVSPropertyOp54
 70
     1
102
RTVSPropertyOp55
 70
     1
102
RTVSPropertyOp56
 70
     1
102
RTVSPropertyOp57
 70
     1
102
RTVSPost2010Prop28
280
     0
102
RTVSPost2010PropOp28
 70
     1
102
RTVSPost2010Prop29
280
     1
102
RTVSPost2010PropOp29
 70
     1
102
RTVSPost2010Prop30
280
     1
102
RTVSPost2010PropOp30
 70
     1
102
RTVSPost2010Prop31
280
     0
102
RTVSPost2010PropOp31
 70
     1
102
RTVSPost2010Prop32
280
     0
102
RTVSPost2010PropOp32
 70
     1
102
RTVSPost2010Prop33
280
     0
102
RTVSPost2010PropOp33
 70
     1
102
RTVSPost2010Prop34
280
     0
102
RTVSPost2010PropOp34
 70
     1
102
RTVSPost2010Prop35
280
     0
102
RTVSPost2010PropOp35
 70
     1
102
RTVSPost2010Prop36
280
     0
102
RTVSPost2010PropOp36
 70
     1
102
RTVSPost2010Prop37
 90
       50
102
RTVSPost2010PropOp37
 70
     1
102
RTVSPost2010Prop38
140
0.0
102
RTVSPost2010PropOp38
 70
     1
102
RTVSPost2010Prop39
140
1.0
102
RTVSPost2010PropOp39
 70
     1
102
RTVSPost2010Prop40
 90
        0
102
RTVSPost2010PropOp40
 70
     1
102
RTVSPost2010Prop41ColorIndex
 90
       18
102
RTVSPost2010Prop41ColorRGB
 90
        0
102
RTVSPost2010PropOp41
 70
     1
102
RTVSPost2010Prop42
 90
       50
102
RTVSPost2010PropOp42
 70
     1
102
RTVSPost2010Prop43
 90
        3
102
RTVSPost2010PropOp43
 70
     1
102
RTVSPost2010Prop44ColorIndex
 90
        5
102
RTVSPost2010Prop44ColorRGB
 90
      255
102
RTVSPost2010PropOp44
 70
     1
102
RTVSPost2010Prop45
280
     0
102
RTVSPost2010PropOp45
 70
     1
102
RTVSPost2010Prop46
 90
       50
102
RTVSPost2010PropOp46
 70
     1
102
RTVSPost2010Prop47
 90
       50
102
RTVSPost2010PropOp47
 70
     1
102
RTVSPost2010Prop48
 90
       50
102
RTVSPost2010PropOp48
 70
     1
102
RTVSPost2010Prop49
280
     0
102
RTVSPost2010PropOp49
 70
     1
102
RTVSPost2010Prop50
 90
       50
102
RTVSPost2010PropOp50
 70
     1
102
RTVSPost2010Prop51ColorIndex
 90
      256
102
RTVSPost2010Prop51ColorRGB
 90
-16777216
102
RTVSPost2010PropOp51
 70
     0
102
RTVSPost2010Prop52
140
1.0
102
RTVSPost2010PropOp52
 70
     0
102
RTVSPost2010Prop53
 90
        2
102
RTVSPost2010PropOp53
 70
     1
102
RTVSPost2010Prop54
  1
strokes_ogs.tif
102
RTVSPost2010PropOp54
 70
     1
102
RTVSPost2010Prop55
280
     0
102
RTVSPost2010PropOp55
 70
     1
102
RTVSPost2010Prop56
140
1.0
102
RTVSPost2010PropOp56
 70
     1
102
RTVSPost2010Prop57
140
1.0
102
RTVSPost2010PropOp57
 70
     1
  0
XRECORD
  5
618
102
{ACAD_REACTORS
330
617
102
}
330
617
100
AcDbXrecord
280
     1
102
RTVSPropertyOp0
 70
     1
102
RTVSPropertyOp1
 70
     1
102
RTVSPropertyOp2
 70
     1
102
RTVSPropertyOp3
 70
     1
102
RTVSPropertyOp4
 70
     1
102
RTVSPropertyOp5
 70
     1
102
RTVSPropertyOp6
 70
     1
102
RTVSPropertyOp7
 70
     1
102
RTVSPropertyOp8
 70
     1
102
RTVSPropertyOp9
 70
     1
102
RTVSPropertyOp10
 70
     1
102
RTVSPropertyOp11
 70
     1
102
RTVSPropertyOp12
 70
     1
102
RTVSPropertyOp13
 70
     1
102
RTVSPropertyOp14
 70
     1
102
RTVSPropertyOp15
 70
     1
102
RTVSPropertyOp16
 70
     1
102
RTVSPropertyOp17
 70
     1
102
RTVSPropertyOp18
 70
     1
102
RTVSPropertyOp19
 70
     1
102
RTVSPropertyOp20
 70
     1
102
RTVSPropertyOp21
 70
     1
102
RTVSPropertyOp22
 70
     1
102
RTVSPropertyOp23
 70
     1
102
RTVSPropertyOp24
 70
     1
102
RTVSPropertyOp25
 70
     1
102
RTVSPropertyOp26
 70
     1
102
RTVSPropertyOp27
 70
     1
102
RTVSPropertyOp28
 70
     1
102
RTVSPropertyOp29
 70
     1
102
RTVSPropertyOp30
 70
     1
102
RTVSPropertyOp31
 70
     1
102
RTVSPropertyOp32
 70
     1
102
RTVSPropertyOp33
 70
     1
102
RTVSPropertyOp34
 70
     1
102
RTVSPropertyOp35
 70
     1
102
RTVSPropertyOp36
 70
     1
102
RTVSPropertyOp37
 70
     1
102
RTVSPropertyOp38
 70
     1
102
RTVSPropertyOp39
 70
     1
102
RTVSPropertyOp40
 70
     1
102
RTVSPropertyOp41
 70
     1
102
RTVSPropertyOp42
 70
     1
102
RTVSPropertyOp43
 70
     1
102
RTVSPropertyOp44
 70
     1
102
RTVSPropertyOp45
 70
     1
102
RTVSPropertyOp46
 70
     1
102
RTVSPropertyOp47
 70
     1
102
RTVSPropertyOp48
 70
     1
102
RTVSPropertyOp49
 70
     1
102
RTVSPropertyOp50
 70
     1
102
RTVSPropertyOp51
 70
     0
102
RTVSPropertyOp52
 70
     0
102
RTVSPropertyOp53
 70
     1
102
RTVSPropertyOp54
 70
     1
102
RTVSPropertyOp55
 70
     1
102
RTVSPropertyOp56
 70
     1
102
RTVSPropertyOp57
 70
     1
102
RTVSPost2010Prop28
280
     0
102
RTVSPost2010PropOp28
 70
     1
102
RTVSPost2010Prop29
280
     1
102
RTVSPost2010PropOp29
 70
     1
102
RTVSPost2010Prop30
280
     1
102
RTVSPost2010PropOp30
 70
     1
102
RTVSPost2010Prop31
280
     0
102
RTVSPost2010PropOp31
 70
     1
102
RTVSPost2010Prop32
280
     0
102
RTVSPost2010PropOp32
 70
     1
102
RTVSPost2010Prop33
280
     0
102
RTVSPost2010PropOp33
 70
     1
102
RTVSPost2010Prop34
280
     0
102
RTVSPost2010PropOp34
 70
     1
102
RTVSPost2010Prop35
280
     0
102
RTVSPost2010PropOp35
 70
     1
102
RTVSPost2010Prop36
280
     0
102
RTVSPost2010PropOp36
 70
     1
102
RTVSPost2010Prop37
 90
       50
102
RTVSPost2010PropOp37
 70
     1
102
RTVSPost2010Prop38
140
0.0
102
RTVSPost2010PropOp38
 70
     1
102
RTVSPost2010Prop39
140
1.0
102
RTVSPost2010PropOp39
 70
     1
102
RTVSPost2010Prop40
 90
        0
102
RTVSPost2010PropOp40
 70
     1
102
RTVSPost2010Prop41ColorIndex
 90
       18
102
RTVSPost2010Prop41ColorRGB
 90
        0
102
RTVSPost2010PropOp41
 70
     1
102
RTVSPost2010Prop42
 90
       50
102
RTVSPost2010PropOp42
 70
     1
102
RTVSPost2010Prop43
 90
        3
102
RTVSPost2010PropOp43
 70
     1
102
RTVSPost2010Prop44ColorIndex
 90
        5
102
RTVSPost2010Prop44ColorRGB
 90
      255
102
RTVSPost2010PropOp44
 70
     1
102
RTVSPost2010Prop45
280
     0
102
RTVSPost2010PropOp45
 70
     1
102
RTVSPost2010Prop46
 90
       50
102
RTVSPost2010PropOp46
 70
     1
102
RTVSPost2010Prop47
 90
       50
102
RTVSPost2010PropOp47
 70
     1
102
RTVSPost2010Prop48
 90
       50
102
RTVSPost2010PropOp48
 70
     1
102
RTVSPost2010Prop49
280
     0
102
RTVSPost2010PropOp49
 70
     1
102
RTVSPost2010Prop50
 90
       50
102
RTVSPost2010PropOp50
 70
     1
102
RTVSPost2010Prop51ColorIndex
 90
      256
102
RTVSPost2010Prop51ColorRGB
 90
-16777216
102
RTVSPost2010PropOp51
 70
     0
102
RTVSPost2010Prop52
140
1.0
102
RTVSPost2010PropOp52
 70
     0
102
RTVSPost2010Prop53
 90
        2
102
RTVSPost2010PropOp53
 70
     1
102
RTVSPost2010Prop54
  1
strokes_ogs.tif
102
RTVSPost2010PropOp54
 70
     1
102
RTVSPost2010Prop55
280
     0
102
RTVSPost2010PropOp55
 70
     1
102
RTVSPost2010Prop56
140
1.0
102
RTVSPost2010PropOp56
 70
     1
102
RTVSPost2010Prop57
140
1.0
102
RTVSPost2010PropOp57
 70
     1
  0
XRECORD
  5
61A
102
{ACAD_REACTORS
330
619
102
}
330
619
100
AcDbXrecord
280
     1
102
RTVSPropertyOp0
 70
     1
102
RTVSPropertyOp1
 70
     1
102
RTVSPropertyOp2
 70
     1
102
RTVSPropertyOp3
 70
     1
102
RTVSPropertyOp4
 70
     1
102
RTVSPropertyOp5
 70
     1
102
RTVSPropertyOp6
 70
     1
102
RTVSPropertyOp7
 70
     1
102
RTVSPropertyOp8
 70
     1
102
RTVSPropertyOp9
 70
     1
102
RTVSPropertyOp10
 70
     1
102
RTVSPropertyOp11
 70
     1
102
RTVSPropertyOp12
 70
     1
102
RTVSPropertyOp13
 70
     1
102
RTVSPropertyOp14
 70
     1
102
RTVSPropertyOp15
 70
     1
102
RTVSPropertyOp16
 70
     1
102
RTVSPropertyOp17
 70
     1
102
RTVSPropertyOp18
 70
     1
102
RTVSPropertyOp19
 70
     1
102
RTVSPropertyOp20
 70
     1
102
RTVSPropertyOp21
 70
     1
102
RTVSPropertyOp22
 70
     1
102
RTVSPropertyOp23
 70
     1
102
RTVSPropertyOp24
 70
     1
102
RTVSPropertyOp25
 70
     1
102
RTVSPropertyOp26
 70
     1
102
RTVSPropertyOp27
 70
     1
102
RTVSPropertyOp28
 70
     1
102
RTVSPropertyOp29
 70
     1
102
RTVSPropertyOp30
 70
     1
102
RTVSPropertyOp31
 70
     1
102
RTVSPropertyOp32
 70
     1
102
RTVSPropertyOp33
 70
     1
102
RTVSPropertyOp34
 70
     1
102
RTVSPropertyOp35
 70
     1
102
RTVSPropertyOp36
 70
     1
102
RTVSPropertyOp37
 70
     1
102
RTVSPropertyOp38
 70
     1
102
RTVSPropertyOp39
 70
     1
102
RTVSPropertyOp40
 70
     1
102
RTVSPropertyOp41
 70
     1
102
RTVSPropertyOp42
 70
     1
102
RTVSPropertyOp43
 70
     1
102
RTVSPropertyOp44
 70
     1
102
RTVSPropertyOp45
 70
     1
102
RTVSPropertyOp46
 70
     1
102
RTVSPropertyOp47
 70
     1
102
RTVSPropertyOp48
 70
     1
102
RTVSPropertyOp49
 70
     1
102
RTVSPropertyOp50
 70
     1
102
RTVSPropertyOp51
 70
     0
102
RTVSPropertyOp52
 70
     0
102
RTVSPropertyOp53
 70
     1
102
RTVSPropertyOp54
 70
     1
102
RTVSPropertyOp55
 70
     1
102
RTVSPropertyOp56
 70
     1
102
RTVSPropertyOp57
 70
     1
102
RTVSPost2010Prop28
280
     0
102
RTVSPost2010PropOp28
 70
     1
102
RTVSPost2010Prop29
280
     1
102
RTVSPost2010PropOp29
 70
     1
102
RTVSPost2010Prop30
280
     1
102
RTVSPost2010PropOp30
 70
     1
102
RTVSPost2010Prop31
280
     0
102
RTVSPost2010PropOp31
 70
     1
102
RTVSPost2010Prop32
280
     0
102
RTVSPost2010PropOp32
 70
     1
102
RTVSPost2010Prop33
280
     0
102
RTVSPost2010PropOp33
 70
     1
102
RTVSPost2010Prop34
280
     0
102
RTVSPost2010PropOp34
 70
     1
102
RTVSPost2010Prop35
280
     0
102
RTVSPost2010PropOp35
 70
     1
102
RTVSPost2010Prop36
280
     0
102
RTVSPost2010PropOp36
 70
     1
102
RTVSPost2010Prop37
 90
       50
102
RTVSPost2010PropOp37
 70
     1
102
RTVSPost2010Prop38
140
0.0
102
RTVSPost2010PropOp38
 70
     1
102
RTVSPost2010Prop39
140
1.0
102
RTVSPost2010PropOp39
 70
     1
102
RTVSPost2010Prop40
 90
        0
102
RTVSPost2010PropOp40
 70
     1
102
RTVSPost2010Prop41ColorIndex
 90
       18
102
RTVSPost2010Prop41ColorRGB
 90
        0
102
RTVSPost2010PropOp41
 70
     1
102
RTVSPost2010Prop42
 90
       50
102
RTVSPost2010PropOp42
 70
     1
102
RTVSPost2010Prop43
 90
        3
102
RTVSPost2010PropOp43
 70
     1
102
RTVSPost2010Prop44ColorIndex
 90
        5
102
RTVSPost2010Prop44ColorRGB
 90
      255
102
RTVSPost2010PropOp44
 70
     1
102
RTVSPost2010Prop45
280
     0
102
RTVSPost2010PropOp45
 70
     1
102
RTVSPost2010Prop46
 90
       50
102
RTVSPost2010PropOp46
 70
     1
102
RTVSPost2010Prop47
 90
       50
102
RTVSPost2010PropOp47
 70
     1
102
RTVSPost2010Prop48
 90
       50
102
RTVSPost2010PropOp48
 70
     1
102
RTVSPost2010Prop49
280
     0
102
RTVSPost2010PropOp49
 70
     1
102
RTVSPost2010Prop50
 90
       50
102
RTVSPost2010PropOp50
 70
     1
102
RTVSPost2010Prop51ColorIndex
 90
      256
102
RTVSPost2010Prop51ColorRGB
 90
-16777216
102
RTVSPost2010PropOp51
 70
     0
102
RTVSPost2010Prop52
140
1.0
102
RTVSPost2010PropOp52
 70
     0
102
RTVSPost2010Prop53
 90
        2
102
RTVSPost2010PropOp53
 70
     1
102
RTVSPost2010Prop54
  1
strokes_ogs.tif
102
RTVSPost2010PropOp54
 70
     1
102
RTVSPost2010Prop55
280
     0
102
RTVSPost2010PropOp55
 70
     1
102
RTVSPost2010Prop56
140
1.0
102
RTVSPost2010PropOp56
 70
     1
102
RTVSPost2010Prop57
140
1.0
102
RTVSPost2010PropOp57
 70
     1
  0
XRECORD
  5
62E
102
{ACAD_REACTORS
330
62D
102
}
330
62D
100
AcDbXrecord
280
     1
102
RTVSPropertyOp0
 70
     1
102
RTVSPropertyOp1
 70
     1
102
RTVSPropertyOp2
 70
     1
102
RTVSPropertyOp3
 70
     1
102
RTVSPropertyOp4
 70
     1
102
RTVSPropertyOp5
 70
     1
102
RTVSPropertyOp6
 70
     1
102
RTVSPropertyOp7
 70
     1
102
RTVSPropertyOp8
 70
     1
102
RTVSPropertyOp9
 70
     1
102
RTVSPropertyOp10
 70
     1
102
RTVSPropertyOp11
 70
     1
102
RTVSPropertyOp12
 70
     1
102
RTVSPropertyOp13
 70
     1
102
RTVSPropertyOp14
 70
     1
102
RTVSPropertyOp15
 70
     1
102
RTVSPropertyOp16
 70
     1
102
RTVSPropertyOp17
 70
     1
102
RTVSPropertyOp18
 70
     1
102
RTVSPropertyOp19
 70
     1
102
RTVSPropertyOp20
 70
     1
102
RTVSPropertyOp21
 70
     1
102
RTVSPropertyOp22
 70
     1
102
RTVSPropertyOp23
 70
     1
102
RTVSPropertyOp24
 70
     1
102
RTVSPropertyOp25
 70
     1
102
RTVSPropertyOp26
 70
     1
102
RTVSPropertyOp27
 70
     1
102
RTVSPropertyOp28
 70
     1
102
RTVSPropertyOp29
 70
     1
102
RTVSPropertyOp30
 70
     1
102
RTVSPropertyOp31
 70
     1
102
RTVSPropertyOp32
 70
     1
102
RTVSPropertyOp33
 70
     1
102
RTVSPropertyOp34
 70
     1
102
RTVSPropertyOp35
 70
     1
102
RTVSPropertyOp36
 70
     1
102
RTVSPropertyOp37
 70
     1
102
RTVSPropertyOp38
 70
     1
102
RTVSPropertyOp39
 70
     1
102
RTVSPropertyOp40
 70
     1
102
RTVSPropertyOp41
 70
     1
102
RTVSPropertyOp42
 70
     1
102
RTVSPropertyOp43
 70
     1
102
RTVSPropertyOp44
 70
     1
102
RTVSPropertyOp45
 70
     1
102
RTVSPropertyOp46
 70
     1
102
RTVSPropertyOp47
 70
     1
102
RTVSPropertyOp48
 70
     1
102
RTVSPropertyOp49
 70
     1
102
RTVSPropertyOp50
 70
     1
102
RTVSPropertyOp51
 70
     0
102
RTVSPropertyOp52
 70
     0
102
RTVSPropertyOp53
 70
     1
102
RTVSPropertyOp54
 70
     1
102
RTVSPropertyOp55
 70
     1
102
RTVSPropertyOp56
 70
     1
102
RTVSPropertyOp57
 70
     1
102
RTVSPost2010Prop28
280
     0
102
RTVSPost2010PropOp28
 70
     1
102
RTVSPost2010Prop29
280
     1
102
RTVSPost2010PropOp29
 70
     1
102
RTVSPost2010Prop30
280
     1
102
RTVSPost2010PropOp30
 70
     1
102
RTVSPost2010Prop31
280
     0
102
RTVSPost2010PropOp31
 70
     1
102
RTVSPost2010Prop32
280
     0
102
RTVSPost2010PropOp32
 70
     1
102
RTVSPost2010Prop33
280
     0
102
RTVSPost2010PropOp33
 70
     1
102
RTVSPost2010Prop34
280
     0
102
RTVSPost2010PropOp34
 70
     1
102
RTVSPost2010Prop35
280
     0
102
RTVSPost2010PropOp35
 70
     1
102
RTVSPost2010Prop36
280
     0
102
RTVSPost2010PropOp36
 70
     1
102
RTVSPost2010Prop37
 90
       50
102
RTVSPost2010PropOp37
 70
     1
102
RTVSPost2010Prop38
140
0.0
102
RTVSPost2010PropOp38
 70
     1
102
RTVSPost2010Prop39
140
1.0
102
RTVSPost2010PropOp39
 70
     1
102
RTVSPost2010Prop40
 90
        0
102
RTVSPost2010PropOp40
 70
     1
102
RTVSPost2010Prop41ColorIndex
 90
       18
102
RTVSPost2010Prop41ColorRGB
 90
        0
102
RTVSPost2010PropOp41
 70
     1
102
RTVSPost2010Prop42
 90
       50
102
RTVSPost2010PropOp42
 70
     1
102
RTVSPost2010Prop43
 90
        3
102
RTVSPost2010PropOp43
 70
     1
102
RTVSPost2010Prop44ColorIndex
 90
        5
102
RTVSPost2010Prop44ColorRGB
 90
      255
102
RTVSPost2010PropOp44
 70
     1
102
RTVSPost2010Prop45
280
     0
102
RTVSPost2010PropOp45
 70
     1
102
RTVSPost2010Prop46
 90
       50
102
RTVSPost2010PropOp46
 70
     1
102
RTVSPost2010Prop47
 90
       50
102
RTVSPost2010PropOp47
 70
     1
102
RTVSPost2010Prop48
 90
       50
102
RTVSPost2010PropOp48
 70
     1
102
RTVSPost2010Prop49
280
     0
102
RTVSPost2010PropOp49
 70
     1
102
RTVSPost2010Prop50
 90
       50
102
RTVSPost2010PropOp50
 70
     1
102
RTVSPost2010Prop51ColorIndex
 90
      256
102
RTVSPost2010Prop51ColorRGB
 90
-16777216
102
RTVSPost2010PropOp51
 70
     0
102
RTVSPost2010Prop52
140
1.0
102
RTVSPost2010PropOp52
 70
     0
102
RTVSPost2010Prop53
 90
        2
102
RTVSPost2010PropOp53
 70
     1
102
RTVSPost2010Prop54
  1
strokes_ogs.tif
102
RTVSPost2010PropOp54
 70
     1
102
RTVSPost2010Prop55
280
     0
102
RTVSPost2010PropOp55
 70
     1
102
RTVSPost2010Prop56
140
1.0
102
RTVSPost2010PropOp56
 70
     1
102
RTVSPost2010Prop57
140
1.0
102
RTVSPost2010PropOp57
 70
     1
  0
XRECORD
  5
624
102
{ACAD_REACTORS
330
623
102
}
330
623
100
AcDbXrecord
280
     1
102
RTVSPropertyOp0
 70
     1
102
RTVSPropertyOp1
 70
     1
102
RTVSPropertyOp2
 70
     1
102
RTVSPropertyOp3
 70
     1
102
RTVSPropertyOp4
 70
     1
102
RTVSPropertyOp5
 70
     1
102
RTVSPropertyOp6
 70
     1
102
RTVSPropertyOp7
 70
     1
102
RTVSPropertyOp8
 70
     1
102
RTVSPropertyOp9
 70
     1
102
RTVSPropertyOp10
 70
     1
102
RTVSPropertyOp11
 70
     1
102
RTVSPropertyOp12
 70
     1
102
RTVSPropertyOp13
 70
     1
102
RTVSPropertyOp14
 70
     1
102
RTVSPropertyOp15
 70
     1
102
RTVSPropertyOp16
 70
     1
102
RTVSPropertyOp17
 70
     1
102
RTVSPropertyOp18
 70
     1
102
RTVSPropertyOp19
 70
     1
102
RTVSPropertyOp20
 70
     1
102
RTVSPropertyOp21
 70
     1
102
RTVSPropertyOp22
 70
     1
102
RTVSPropertyOp23
 70
     1
102
RTVSPropertyOp24
 70
     1
102
RTVSPropertyOp25
 70
     1
102
RTVSPropertyOp26
 70
     1
102
RTVSPropertyOp27
 70
     1
102
RTVSPropertyOp28
 70
     1
102
RTVSPropertyOp29
 70
     1
102
RTVSPropertyOp30
 70
     1
102
RTVSPropertyOp31
 70
     1
102
RTVSPropertyOp32
 70
     1
102
RTVSPropertyOp33
 70
     1
102
RTVSPropertyOp34
 70
     1
102
RTVSPropertyOp35
 70
     1
102
RTVSPropertyOp36
 70
     1
102
RTVSPropertyOp37
 70
     1
102
RTVSPropertyOp38
 70
     1
102
RTVSPropertyOp39
 70
     1
102
RTVSPropertyOp40
 70
     1
102
RTVSPropertyOp41
 70
     1
102
RTVSPropertyOp42
 70
     1
102
RTVSPropertyOp43
 70
     1
102
RTVSPropertyOp44
 70
     1
102
RTVSPropertyOp45
 70
     1
102
RTVSPropertyOp46
 70
     1
102
RTVSPropertyOp47
 70
     1
102
RTVSPropertyOp48
 70
     1
102
RTVSPropertyOp49
 70
     1
102
RTVSPropertyOp50
 70
     1
102
RTVSPropertyOp51
 70
     0
102
RTVSPropertyOp52
 70
     0
102
RTVSPropertyOp53
 70
     1
102
RTVSPropertyOp54
 70
     1
102
RTVSPropertyOp55
 70
     1
102
RTVSPropertyOp56
 70
     1
102
RTVSPropertyOp57
 70
     1
102
RTVSPost2010Prop28
280
     0
102
RTVSPost2010PropOp28
 70
     1
102
RTVSPost2010Prop29
280
     1
102
RTVSPost2010PropOp29
 70
     1
102
RTVSPost2010Prop30
280
     1
102
RTVSPost2010PropOp30
 70
     1
102
RTVSPost2010Prop31
280
     0
102
RTVSPost2010PropOp31
 70
     1
102
RTVSPost2010Prop32
280
     0
102
RTVSPost2010PropOp32
 70
     1
102
RTVSPost2010Prop33
280
     0
102
RTVSPost2010PropOp33
 70
     1
102
RTVSPost2010Prop34
280
     0
102
RTVSPost2010PropOp34
 70
     1
102
RTVSPost2010Prop35
280
     0
102
RTVSPost2010PropOp35
 70
     1
102
RTVSPost2010Prop36
280
     0
102
RTVSPost2010PropOp36
 70
     1
102
RTVSPost2010Prop37
 90
       50
102
RTVSPost2010PropOp37
 70
     1
102
RTVSPost2010Prop38
140
0.0
102
RTVSPost2010PropOp38
 70
     1
102
RTVSPost2010Prop39
140
1.0
102
RTVSPost2010PropOp39
 70
     1
102
RTVSPost2010Prop40
 90
        0
102
RTVSPost2010PropOp40
 70
     1
102
RTVSPost2010Prop41ColorIndex
 90
       18
102
RTVSPost2010Prop41ColorRGB
 90
        0
102
RTVSPost2010PropOp41
 70
     1
102
RTVSPost2010Prop42
 90
       50
102
RTVSPost2010PropOp42
 70
     1
102
RTVSPost2010Prop43
 90
        3
102
RTVSPost2010PropOp43
 70
     1
102
RTVSPost2010Prop44ColorIndex
 90
        5
102
RTVSPost2010Prop44ColorRGB
 90
      255
102
RTVSPost2010PropOp44
 70
     1
102
RTVSPost2010Prop45
280
     0
102
RTVSPost2010PropOp45
 70
     1
102
RTVSPost2010Prop46
 90
       50
102
RTVSPost2010PropOp46
 70
     1
102
RTVSPost2010Prop47
 90
       50
102
RTVSPost2010PropOp47
 70
     1
102
RTVSPost2010Prop48
 90
       50
102
RTVSPost2010PropOp48
 70
     1
102
RTVSPost2010Prop49
280
     0
102
RTVSPost2010PropOp49
 70
     1
102
RTVSPost2010Prop50
 90
       50
102
RTVSPost2010PropOp50
 70
     1
102
RTVSPost2010Prop51ColorIndex
 90
      256
102
RTVSPost2010Prop51ColorRGB
 90
-16777216
102
RTVSPost2010PropOp51
 70
     0
102
RTVSPost2010Prop52
140
1.0
102
RTVSPost2010PropOp52
 70
     0
102
RTVSPost2010Prop53
 90
        2
102
RTVSPost2010PropOp53
 70
     1
102
RTVSPost2010Prop54
  1
strokes_ogs.tif
102
RTVSPost2010PropOp54
 70
     1
102
RTVSPost2010Prop55
280
     0
102
RTVSPost2010PropOp55
 70
     1
102
RTVSPost2010Prop56
140
1.0
102
RTVSPost2010PropOp56
 70
     1
102
RTVSPost2010Prop57
140
1.0
102
RTVSPost2010PropOp57
 70
     1
  0
XRECORD
  5
62C
102
{ACAD_REACTORS
330
62B
102
}
330
62B
100
AcDbXrecord
280
     1
102
RTVSPropertyOp0
 70
     1
102
RTVSPropertyOp1
 70
     1
102
RTVSPropertyOp2
 70
     1
102
RTVSPropertyOp3
 70
     1
102
RTVSPropertyOp4
 70
     1
102
RTVSPropertyOp5
 70
     1
102
RTVSPropertyOp6
 70
     1
102
RTVSPropertyOp7
 70
     1
102
RTVSPropertyOp8
 70
     1
102
RTVSPropertyOp9
 70
     1
102
RTVSPropertyOp10
 70
     1
102
RTVSPropertyOp11
 70
     1
102
RTVSPropertyOp12
 70
     1
102
RTVSPropertyOp13
 70
     1
102
RTVSPropertyOp14
 70
     1
102
RTVSPropertyOp15
 70
     1
102
RTVSPropertyOp16
 70
     1
102
RTVSPropertyOp17
 70
     1
102
RTVSPropertyOp18
 70
     1
102
RTVSPropertyOp19
 70
     1
102
RTVSPropertyOp20
 70
     1
102
RTVSPropertyOp21
 70
     1
102
RTVSPropertyOp22
 70
     1
102
RTVSPropertyOp23
 70
     1
102
RTVSPropertyOp24
 70
     1
102
RTVSPropertyOp25
 70
     1
102
RTVSPropertyOp26
 70
     1
102
RTVSPropertyOp27
 70
     1
102
RTVSPropertyOp28
 70
     1
102
RTVSPropertyOp29
 70
     1
102
RTVSPropertyOp30
 70
     1
102
RTVSPropertyOp31
 70
     1
102
RTVSPropertyOp32
 70
     1
102
RTVSPropertyOp33
 70
     1
102
RTVSPropertyOp34
 70
     1
102
RTVSPropertyOp35
 70
     1
102
RTVSPropertyOp36
 70
     1
102
RTVSPropertyOp37
 70
     1
102
RTVSPropertyOp38
 70
     1
102
RTVSPropertyOp39
 70
     1
102
RTVSPropertyOp40
 70
     1
102
RTVSPropertyOp41
 70
     1
102
RTVSPropertyOp42
 70
     1
102
RTVSPropertyOp43
 70
     1
102
RTVSPropertyOp44
 70
     1
102
RTVSPropertyOp45
 70
     1
102
RTVSPropertyOp46
 70
     1
102
RTVSPropertyOp47
 70
     1
102
RTVSPropertyOp48
 70
     1
102
RTVSPropertyOp49
 70
     1
102
RTVSPropertyOp50
 70
     1
102
RTVSPropertyOp51
 70
     0
102
RTVSPropertyOp52
 70
     0
102
RTVSPropertyOp53
 70
     1
102
RTVSPropertyOp54
 70
     1
102
RTVSPropertyOp55
 70
     1
102
RTVSPropertyOp56
 70
     1
102
RTVSPropertyOp57
 70
     1
102
RTVSPost2010Prop28
280
     0
102
RTVSPost2010PropOp28
 70
     1
102
RTVSPost2010Prop29
280
     1
102
RTVSPost2010PropOp29
 70
     1
102
RTVSPost2010Prop30
280
     1
102
RTVSPost2010PropOp30
 70
     1
102
RTVSPost2010Prop31
280
     0
102
RTVSPost2010PropOp31
 70
     1
102
RTVSPost2010Prop32
280
     0
102
RTVSPost2010PropOp32
 70
     1
102
RTVSPost2010Prop33
280
     0
102
RTVSPost2010PropOp33
 70
     1
102
RTVSPost2010Prop34
280
     0
102
RTVSPost2010PropOp34
 70
     1
102
RTVSPost2010Prop35
280
     0
102
RTVSPost2010PropOp35
 70
     1
102
RTVSPost2010Prop36
280
     0
102
RTVSPost2010PropOp36
 70
     1
102
RTVSPost2010Prop37
 90
       50
102
RTVSPost2010PropOp37
 70
     1
102
RTVSPost2010Prop38
140
0.0
102
RTVSPost2010PropOp38
 70
     1
102
RTVSPost2010Prop39
140
1.0
102
RTVSPost2010PropOp39
 70
     1
102
RTVSPost2010Prop40
 90
        0
102
RTVSPost2010PropOp40
 70
     1
102
RTVSPost2010Prop41ColorIndex
 90
       18
102
RTVSPost2010Prop41ColorRGB
 90
        0
102
RTVSPost2010PropOp41
 70
     1
102
RTVSPost2010Prop42
 90
       50
102
RTVSPost2010PropOp42
 70
     1
102
RTVSPost2010Prop43
 90
        3
102
RTVSPost2010PropOp43
 70
     1
102
RTVSPost2010Prop44ColorIndex
 90
        5
102
RTVSPost2010Prop44ColorRGB
 90
      255
102
RTVSPost2010PropOp44
 70
     1
102
RTVSPost2010Prop45
280
     0
102
RTVSPost2010PropOp45
 70
     1
102
RTVSPost2010Prop46
 90
       50
102
RTVSPost2010PropOp46
 70
     1
102
RTVSPost2010Prop47
 90
       50
102
RTVSPost2010PropOp47
 70
     1
102
RTVSPost2010Prop48
 90
       50
102
RTVSPost2010PropOp48
 70
     1
102
RTVSPost2010Prop49
280
     0
102
RTVSPost2010PropOp49
 70
     1
102
RTVSPost2010Prop50
 90
       50
102
RTVSPost2010PropOp50
 70
     1
102
RTVSPost2010Prop51ColorIndex
 90
      256
102
RTVSPost2010Prop51ColorRGB
 90
-16777216
102
RTVSPost2010PropOp51
 70
     0
102
RTVSPost2010Prop52
140
1.0
102
RTVSPost2010PropOp52
 70
     0
102
RTVSPost2010Prop53
 90
        2
102
RTVSPost2010PropOp53
 70
     1
102
RTVSPost2010Prop54
  1
strokes_ogs.tif
102
RTVSPost2010PropOp54
 70
     1
102
RTVSPost2010Prop55
280
     0
102
RTVSPost2010PropOp55
 70
     1
102
RTVSPost2010Prop56
140
1.0
102
RTVSPost2010PropOp56
 70
     1
102
RTVSPost2010Prop57
140
1.0
102
RTVSPost2010PropOp57
 70
     1
  0
ENDSEC
  0
EOF
