  0
SECTION
  2
HEADER
  9
$ACADVER
  1
AC1018
  9
$ACADMAINTVER
 70
     0
  9
$DWGCODEPAGE
  3
ANSI_936
  9
$INSBASE
 10
0.0
 20
0.0
 30
0.0
  9
$EXTMIN
 10
245.8544562054754
 20
116.9999999999894
 30
0.0
  9
$EXTMAX
 10
402.7118523395809
 20
177.6916961341264
 30
0.0
  9
$LIMMIN
 10
0.0
 20
0.0
  9
$LIMMAX
 10
12.0
 20
9.0
  9
$ORTHOMODE
 70
     0
  9
$REGENMODE
 70
     1
  9
$FILLMODE
 70
     1
  9
$QTEXTMODE
 70
     0
  9
$MIRRTEXT
 70
     1
  9
$LTSCALE
 40
1.0
  9
$ATTMODE
 70
     1
  9
$TEXTSIZE
 40
0.2
  9
$TRACEWID
 40
0.05
  9
$TEXTSTYLE
  7
Standard
  9
$CLAYER
  8
0
  9
$CELTYPE
  6
ByLayer
  9
$CECOLOR
 62
   256
  9
$CELTSCALE
 40
1.0
  9
$DISPSILH
 70
     0
  9
$DIMSCALE
 40
1.0
  9
$DIMASZ
 40
0.18
  9
$DIMEXO
 40
0.0625
  9
$DIMDLI
 40
0.38
  9
$DIMRND
 40
0.0
  9
$DIMDLE
 40
0.0
  9
$DIMEXE
 40
0.18
  9
$DIMTP
 40
0.0
  9
$DIMTM
 40
0.0
  9
$DIMTXT
 40
0.18
  9
$DIMCEN
 40
0.09
  9
$DIMTSZ
 40
0.0
  9
$DIMTOL
 70
     0
  9
$DIMLIM
 70
     0
  9
$DIMTIH
 70
     1
  9
$DIMTOH
 70
     1
  9
$DIMSE1
 70
     0
  9
$DIMSE2
 70
     0
  9
$DIMTAD
 70
     0
  9
$DIMZIN
 70
     0
  9
$DIMBLK
  1

  9
$DIMASO
 70
     1
  9
$DIMSHO
 70
     1
  9
$DIMPOST
  1

  9
$DIMAPOST
  1

  9
$DIMALT
 70
     0
  9
$DIMALTD
 70
     2
  9
$DIMALTF
 40
25.4
  9
$DIMLFAC
 40
1.0
  9
$DIMTOFL
 70
     0
  9
$DIMTVP
 40
0.0
  9
$DIMTIX
 70
     0
  9
$DIMSOXD
 70
     0
  9
$DIMSAH
 70
     0
  9
$DIMBLK1
  1

  9
$DIMBLK2
  1

  9
$DIMSTYLE
  2
Standard
  9
$DIMCLRD
 70
     0
  9
$DIMCLRE
 70
     0
  9
$DIMCLRT
 70
     0
  9
$DIMTFAC
 40
1.0
  9
$DIMGAP
 40
0.09
  9
$DIMJUST
 70
     0
  9
$DIMSD1
 70
     0
  9
$DIMSD2
 70
     0
  9
$DIMTOLJ
 70
     1
  9
$DIMTZIN
 70
     0
  9
$DIMALTZ
 70
     0
  9
$DIMALTTZ
 70
     0
  9
$DIMUPT
 70
     0
  9
$DIMDEC
 70
     4
  9
$DIMTDEC
 70
     4
  9
$DIMALTU
 70
     2
  9
$DIMALTTD
 70
     2
  9
$DIMTXSTY
  7
Standard
  9
$DIMAUNIT
 70
     0
  9
$DIMADEC
 70
     0
  9
$DIMALTRND
 40
0.0
  9
$DIMAZIN
 70
     0
  9
$DIMDSEP
 70
    46
  9
$DIMATFIT
 70
     3
  9
$DIMFRAC
 70
     0
  9
$DIMLDRBLK
  1

  9
$DIMLUNIT
 70
     2
  9
$DIMLWD
 70
    -2
  9
$DIMLWE
 70
    -2
  9
$DIMTMOVE
 70
     2
  9
$LUNITS
 70
     2
  9
$LUPREC
 70
     2
  9
$SKETCHINC
 40
0.1
  9
$FILLETRAD
 40
0.5
  9
$AUNITS
 70
     0
  9
$AUPREC
 70
     0
  9
$MENU
  1
.
  9
$ELEVATION
 40
0.0
  9
$PELEVATION
 40
0.0
  9
$THICKNESS
 40
0.0
  9
$LIMCHECK
 70
     0
  9
$CHAMFERA
 40
0.5
  9
$CHAMFERB
 40
0.5
  9
$CHAMFERC
 40
1.0
  9
$CHAMFERD
 40
0.0
  9
$SKPOLY
 70
     0
  9
$TDCREATE
 40
2456719.630562176
  9
$TDUCREATE
 40
2456719.297228843
  9
$TDUPDATE
 40
2456719.630563669
  9
$TDUUPDATE
 40
2456719.297230335
  9
$TDINDWG
 40
0.0000000116
  9
$TDUSRTIMER
 40
0.0000000116
  9
$USRTIMER
 70
     1
  9
$ANGBASE
 50
0.0
  9
$ANGDIR
 70
     0
  9
$PDMODE
 70
     0
  9
$PDSIZE
 40
0.0
  9
$PLINEWID
 40
0.0
  9
$SPLFRAME
 70
     0
  9
$SPLINETYPE
 70
     6
  9
$SPLINESEGS
 70
     8
  9
$HANDSEED
  5
4E0
  9
$SURFTAB1
 70
     6
  9
$SURFTAB2
 70
     6
  9
$SURFTYPE
 70
     6
  9
$SURFU
 70
     6
  9
$SURFV
 70
     6
  9
$UCSBASE
  2

  9
$UCSNAME
  2

  9
$UCSORG
 10
0.0
 20
0.0
 30
0.0
  9
$UCSXDIR
 10
1.0
 20
0.0
 30
0.0
  9
$UCSYDIR
 10
0.0
 20
1.0
 30
0.0
  9
$UCSORTHOREF
  2

  9
$UCSORTHOVIEW
 70
     0
  9
$UCSORGTOP
 10
0.0
 20
0.0
 30
0.0
  9
$UCSORGBOTTOM
 10
0.0
 20
0.0
 30
0.0
  9
$UCSORGLEFT
 10
0.0
 20
0.0
 30
0.0
  9
$UCSORGRIGHT
 10
0.0
 20
0.0
 30
0.0
  9
$UCSORGFRONT
 10
0.0
 20
0.0
 30
0.0
  9
$UCSORGBACK
 10
0.0
 20
0.0
 30
0.0
  9
$PUCSBASE
  2

  9
$PUCSNAME
  2

  9
$PUCSORG
 10
0.0
 20
0.0
 30
0.0
  9
$PUCSXDIR
 10
1.0
 20
0.0
 30
0.0
  9
$PUCSYDIR
 10
0.0
 20
1.0
 30
0.0
  9
$PUCSORTHOREF
  2

  9
$PUCSORTHOVIEW
 70
     0
  9
$PUCSORGTOP
 10
0.0
 20
0.0
 30
0.0
  9
$PUCSORGBOTTOM
 10
0.0
 20
0.0
 30
0.0
  9
$PUCSORGLEFT
 10
0.0
 20
0.0
 30
0.0
  9
$PUCSORGRIGHT
 10
0.0
 20
0.0
 30
0.0
  9
$PUCSORGFRONT
 10
0.0
 20
0.0
 30
0.0
  9
$PUCSORGBACK
 10
0.0
 20
0.0
 30
0.0
  9
$USERI1
 70
     0
  9
$USERI2
 70
     0
  9
$USERI3
 70
     0
  9
$USERI4
 70
     0
  9
$USERI5
 70
     0
  9
$USERR1
 40
0.0
  9
$USERR2
 40
0.0
  9
$USERR3
 40
0.0
  9
$USERR4
 40
0.0
  9
$USERR5
 40
0.0
  9
$WORLDVIEW
 70
     1
  9
$SHADEDGE
 70
     3
  9
$SHADEDIF
 70
    70
  9
$TILEMODE
 70
     1
  9
$MAXACTVP
 70
    64
  9
$PINSBASE
 10
0.0
 20
0.0
 30
0.0
  9
$PLIMCHECK
 70
     0
  9
$PEXTMIN
 10
1.000000000000000E+20
 20
1.000000000000000E+20
 30
1.000000000000000E+20
  9
$PEXTMAX
 10
-1.000000000000000E+20
 20
-1.000000000000000E+20
 30
-1.000000000000000E+20
  9
$PLIMMIN
 10
0.0
 20
0.0
  9
$PLIMMAX
 10
12.0
 20
9.0
  9
$UNITMODE
 70
     0
  9
$VISRETAIN
 70
     1
  9
$PLINEGEN
 70
     0
  9
$PSLTSCALE
 70
     1
  9
$TREEDEPTH
 70
  3020
  9
$CMLSTYLE
  2
Standard
  9
$CMLJUST
 70
     0
  9
$CMLSCALE
 40
1.0
  9
$PROXYGRAPHICS
 70
     1
  9
$MEASUREMENT
 70
     0
  9
$CELWEIGHT
370
    -1
  9
$ENDCAPS
280
     0
  9
$JOINSTYLE
280
     0
  9
$LWDISPLAY
290
     0
  9
$INSUNITS
 70
     4
  9
$HYPERLINKBASE
  1

  9
$STYLESHEET
  1

  9
$XEDIT
290
     1
  9
$CEPSNTYPE
380
     0
  9
$PSTYLEMODE
290
     1
  9
$FINGERPRINTGUID
  2
{76B25148-1A2A-45C8-8423-1332BA5B71C8}
  9
$VERSIONGUID
  2
{FAEB1C32-E019-11D5-929B-00C0DF256EC4}
  9
$EXTNAMES
290
     1
  9
$PSVPSCALE
 40
0.0
  9
$OLESTARTUP
290
     0
  9
$SORTENTS
280
   127
  9
$INDEXCTL
280
     0
  9
$HIDETEXT
280
     1
  9
$XCLIPFRAME
290
     0
  9
$HALOGAP
280
     0
  9
$OBSCOLOR
 70
   257
  9
$OBSLTYPE
280
     0
  9
$INTERSECTIONDISPLAY
280
     0
  9
$INTERSECTIONCOLOR
 70
   257
  9
$DIMASSOC
280
     2
  9
$PROJECTNAME
  1

  0
ENDSEC
  0
SECTION
  2
CLASSES
  0
CLASS
  1
ACDBDICTIONARYWDFLT
  2
AcDbDictionaryWithDefault
  3
ObjectDBX Classes
 90
        0
 91
        4
280
     0
281
     0
  0
CLASS
  1
VISUALSTYLE
  2
AcDbVisualStyle
  3
ObjectDBX Classes
 90
     4095
 91
        4
280
     0
281
     0
  0
CLASS
  1
MATERIAL
  2
AcDbMaterial
  3
ObjectDBX Classes
 90
     1153
 91
        4
280
     0
281
     0
  0
CLASS
  1
SCALE
  2
AcDbScale
  3
ObjectDBX Classes
 90
     1153
 91
        4
280
     0
281
     0
  0
CLASS
  1
SUN
  2
AcDbSun
  3
SCENEOE
 90
     1153
 91
        4
280
     0
281
     0
  0
CLASS
  1
DICTIONARYVAR
  2
AcDbDictionaryVar
  3
ObjectDBX Classes
 90
        0
 91
        4
280
     0
281
     0
  0
ENDSEC
  0
SECTION
  2
TABLES
  0
TABLE
  2
VPORT
  5
8
330
0
100
AcDbSymbolTable
 70
     1
  0
VPORT
  5
29
330
8
100
AcDbSymbolTableRecord
100
AcDbViewportTableRecord
  2
*Active
 70
     0
 10
0.0
 20
0.0
 11
1.0
 21
1.0
 12
324.285348818592
 22
147.3784496556833
 13
0.0
 23
0.0
 14
0.5
 24
0.5
 15
0.5
 25
0.5
 16
0.0
 26
0.0
 36
1.0
 17
0.0
 27
0.0
 37
0.0
 40
61.83762923734549
 41
2.587260688289693
 42
50.0
 43
0.0
 44
0.0
 50
0.0
 51
0.0
 71
     0
 72
   100
 73
     1
 74
     3
 75
     0
 76
     0
 77
     0
 78
     0
281
     0
 65
     1
110
0.0
120
0.0
130
0.0
111
1.0
121
0.0
131
0.0
112
0.0
122
1.0
132
0.0
 79
     0
146
0.0
  0
ENDTAB
  0
TABLE
  2
LTYPE
  5
5
330
0
100
AcDbSymbolTable
 70
     1
  0
LTYPE
  5
14
330
5
100
AcDbSymbolTableRecord
100
AcDbLinetypeTableRecord
  2
ByBlock
 70
     0
  3

 72
    65
 73
     0
 40
0.0
  0
LTYPE
  5
15
330
5
100
AcDbSymbolTableRecord
100
AcDbLinetypeTableRecord
  2
ByLayer
 70
     0
  3

 72
    65
 73
     0
 40
0.0
  0
LTYPE
  5
16
330
5
100
AcDbSymbolTableRecord
100
AcDbLinetypeTableRecord
  2
Continuous
 70
     0
  3
Solid line
 72
    65
 73
     0
 40
0.0
  0
ENDTAB
  0
TABLE
  2
LAYER
  5
2
330
0
100
AcDbSymbolTable
 70
     2
  0
LAYER
  5
10
330
2
100
AcDbSymbolTableRecord
100
AcDbLayerTableRecord
  2
0
 70
     0
 62
     7
  6
Continuous
370
    -3
390
F
  0
LAYER
  5
62
330
2
100
AcDbSymbolTableRecord
100
AcDbLayerTableRecord
  2
图层 02
 70
     0
 62
    18
420
        0
  6
Continuous
370
    -3
390
F
  0
ENDTAB
  0
TABLE
  2
STYLE
  5
3
330
0
100
AcDbSymbolTable
 70
     1
  0
STYLE
  5
11
330
3
100
AcDbSymbolTableRecord
100
AcDbTextStyleTableRecord
  2
Standard
 70
     0
 40
0.0
 41
1.0
 50
0.0
 71
     0
 42
0.2
  3
txt
  4

  0
ENDTAB
  0
TABLE
  2
VIEW
  5
6
330
0
100
AcDbSymbolTable
 70
     0
  0
ENDTAB
  0
TABLE
  2
UCS
  5
7
330
0
100
AcDbSymbolTable
 70
     0
  0
ENDTAB
  0
TABLE
  2
APPID
  5
9
330
0
100
AcDbSymbolTable
 70
     1
  0
APPID
  5
12
330
9
100
AcDbSymbolTableRecord
100
AcDbRegAppTableRecord
  2
ACAD
 70
     0
  0
ENDTAB
  0
TABLE
  2
DIMSTYLE
  5
A
330
0
100
AcDbSymbolTable
 70
     1
100
AcDbDimStyleTable
  0
DIMSTYLE
105
27
330
A
100
AcDbSymbolTableRecord
100
AcDbDimStyleTableRecord
  2
Standard
 70
     0
178
     0
340
11
  0
ENDTAB
  0
TABLE
  2
BLOCK_RECORD
  5
1
330
0
100
AcDbSymbolTable
 70
     1
  0
BLOCK_RECORD
  5
1F
330
1
100
AcDbSymbolTableRecord
100
AcDbBlockTableRecord
  2
*Model_Space
340
22
  0
BLOCK_RECORD
  5
1B
330
1
100
AcDbSymbolTableRecord
100
AcDbBlockTableRecord
  2
*Paper_Space
340
1E
  0
BLOCK_RECORD
  5
23
330
1
100
AcDbSymbolTableRecord
100
AcDbBlockTableRecord
  2
*Paper_Space0
340
26
  0
ENDTAB
  0
ENDSEC
  0
SECTION
  2
BLOCKS
  0
BLOCK
  5
20
330
1F
100
AcDbEntity
  8
0
100
AcDbBlockBegin
  2
*Model_Space
 70
     0
 10
0.0
 20
0.0
 30
0.0
  3
*Model_Space
  1
*Model_Space
  0
ENDBLK
  5
21
330
1F
100
AcDbEntity
  8
0
100
AcDbBlockEnd
  0
BLOCK
  5
1C
330
1B
100
AcDbEntity
 67
     1
  8
0
100
AcDbBlockBegin
  2
*Paper_Space
 70
     0
 10
0.0
 20
0.0
 30
0.0
  3
*Paper_Space
  1
*Paper_Space
  0
ENDBLK
  5
1D
330
1B
100
AcDbEntity
 67
     1
  8
0
100
AcDbBlockEnd
  0
BLOCK
  5
24
330
23
100
AcDbEntity
  8
0
100
AcDbBlockBegin
  2
*Paper_Space0
 70
     0
 10
0.0
 20
0.0
 30
0.0
  3
*Paper_Space0
  1
*Paper_Space0
  0
ENDBLK
  5
25
330
23
100
AcDbEntity
  8
0
100
AcDbBlockEnd
  0
ENDSEC
  0
SECTION
  2
ENTITIES
  0
LINE
  5
63
330
1F
100
AcDbEntity
  8
图层 02
100
AcDbLine
 10
381.9197221580415
 20
142.1855781938053
 30
0.0
 11
381.9197221580415
 21
142.0634436827519
 31
0.0
  0
LINE
  5
64
330
1F
100
AcDbEntity
  8
图层 02
100
AcDbLine
 10
381.9197221580414
 20
147.9366131270212
 30
0.0
 11
381.9197221580414
 21
147.8143908268997
 31
0.0
  0
POLYLINE
  5
65
330
1F
100
AcDbEntity
  8
图层 02
100
AcDb2dPolyline
 66
     1
 10
0.0
 20
0.0
 30
0.0
  0
VERTEX
  5
66
330
65
100
AcDbEntity
  8
图层 02
100
AcDbVertex
100
AcDb2dVertex
 10
378.9613161458432
 20
137.4518347956865
 30
0.0
 42
0.4093997518222242
  0
VERTEX
  5
67
330
65
100
AcDbEntity
  8
图层 02
100
AcDbVertex
100
AcDb2dVertex
 10
381.4197221580414
 20
139.9514887719792
 30
0.0
  0
VERTEX
  5
68
330
65
100
AcDbEntity
  8
图层 02
100
AcDbVertex
100
AcDb2dVertex
 10
381.4197221702437
 20
150.0506728840253
 30
0.0
 42
0.4093373194859871
  0
VERTEX
  5
69
330
65
100
AcDbEntity
  8
图层 02
100
AcDbVertex
100
AcDb2dVertex
 10
378.9614646632792
 20
152.5503243723772
 30
0.0
  0
VERTEX
  5
6A
330
65
100
AcDbEntity
  8
图层 02
100
AcDbVertex
100
AcDb2dVertex
 10
268.0327603154917
 20
154.4027594199111
 30
0.0
 42
0.419099039667707
  0
VERTEX
  5
6B
330
65
100
AcDbEntity
  8
图层 02
100
AcDbVertex
100
AcDb2dVertex
 10
262.4409402749479
 20
148.9035393934082
 30
0.0
  0
VERTEX
  5
6C
330
65
100
AcDbEntity
  8
图层 02
100
AcDbVertex
100
AcDb2dVertex
 10
262.4409402746209
 20
141.1052149638489
 30
0.0
 42
0.4190815782797949
  0
VERTEX
  5
6D
330
65
100
AcDbEntity
  8
图层 02
100
AcDbVertex
100
AcDb2dVertex
 10
268.0324335777841
 20
135.6059894901217
 30
0.0
  0
VERTEX
  5
6E
330
65
100
AcDbEntity
  8
图层 02
100
AcDbVertex
100
AcDb2dVertex
 10
378.9613161458432
 20
137.4518347956865
 30
0.0
  0
SEQEND
  5
6F
330
65
100
AcDbEntity
  8
图层 02
  0
POLYLINE
  5
70
330
1F
100
AcDbEntity
  8
图层 02
100
AcDb2dPolyline
 66
     1
 10
0.0
 20
0.0
 30
0.0
  0
VERTEX
  5
71
330
70
100
AcDbEntity
  8
图层 02
100
AcDbVertex
100
AcDb2dVertex
 10
381.9197221580415
 20
139.9514887719792
 30
0.0
 42
-0.4093486527455235
  0
VERTEX
  5
72
330
70
100
AcDbEntity
  8
图层 02
100
AcDbVertex
100
AcDb2dVertex
 10
378.9696349431514
 20
136.9519040150699
 30
0.0
  0
VERTEX
  5
73
330
70
100
AcDbEntity
  8
图层 02
100
AcDbVertex
100
AcDb2dVertex
 10
268.0407658453966
 20
135.1060589216733
 30
0.0
 42
-0.4190952651097702
  0
VERTEX
  5
74
330
70
100
AcDbEntity
  8
图层 02
100
AcDbVertex
100
AcDb2dVertex
 10
261.9409402751767
 20
141.1052284354917
 30
0.0
  0
VERTEX
  5
75
330
70
100
AcDbEntity
  8
图层 02
100
AcDbVertex
100
AcDb2dVertex
 10
261.9409402751767
 20
148.9035259200046
 30
0.0
 42
-0.419112727985312
  0
VERTEX
  5
76
330
70
100
AcDbEntity
  8
图层 02
100
AcDbVertex
100
AcDb2dVertex
 10
268.0411222877476
 20
154.9026894920668
 30
0.0
  0
VERTEX
  5
77
330
70
100
AcDbEntity
  8
图层 02
100
AcDbVertex
100
AcDb2dVertex
 10
325.0014302055868
 20
153.9514905098553
 30
0.0
  0
VERTEX
  5
78
330
70
100
AcDbEntity
  8
图层 02
100
AcDbVertex
100
AcDb2dVertex
 10
326.7862241829142
 20
153.9216856461397
 30
0.0
  0
VERTEX
  5
79
330
70
100
AcDbEntity
  8
图层 02
100
AcDbVertex
100
AcDb2dVertex
 10
329.4628251453348
 20
153.8769882032307
 30
0.0
  0
VERTEX
  5
7A
330
70
100
AcDbEntity
  8
图层 02
100
AcDbVertex
100
AcDb2dVertex
 10
378.9698131643237
 20
153.0502546700492
 30
0.0
 42
-0.4093313100214246
  0
VERTEX
  5
7B
330
70
100
AcDbEntity
  8
图层 02
100
AcDbVertex
100
AcDb2dVertex
 10
381.9197221580415
 20
150.0506728840182
 30
0.0
  0
VERTEX
  5
7C
330
70
100
AcDbEntity
  8
图层 02
100
AcDbVertex
100
AcDb2dVertex
 10
381.9197221580415
 20
139.9514887719792
 30
0.0
  0
SEQEND
  5
7D
330
70
100
AcDbEntity
  8
图层 02
  0
POLYLINE
  5
7E
330
1F
100
AcDbEntity
  8
图层 02
100
AcDb2dPolyline
 66
     1
 10
0.0
 20
0.0
 30
0.0
  0
VERTEX
  5
7F
330
7E
100
AcDbEntity
  8
图层 02
100
AcDbVertex
100
AcDb2dVertex
 10
265.2559345338031
 20
164.5084825934723
 30
0.0
 42
-0.2206236547639747
  0
VERTEX
  5
80
330
7E
100
AcDbEntity
  8
图层 02
100
AcDbVertex
100
AcDb2dVertex
 10
287.2609417643777
 20
172.9341136959356
 30
0.0
  0
VERTEX
  5
81
330
7E
100
AcDbEntity
  8
图层 02
100
AcDbVertex
100
AcDb2dVertex
 10
388.7402691836882
 20
165.9601667818616
 30
0.0
 42
-0.3942565519989627
  0
VERTEX
  5
82
330
7E
100
AcDbEntity
  8
图层 02
100
AcDbVertex
100
AcDb2dVertex
 10
402.7118523395808
 20
150.9954630161749
 30
0.0
  0
VERTEX
  5
83
330
7E
100
AcDbEntity
  8
图层 02
100
AcDbVertex
100
AcDb2dVertex
 10
402.7118523395807
 20
139.0045369838039
 30
0.0
 42
-0.3942565519989485
  0
VERTEX
  5
84
330
7E
100
AcDbEntity
  8
图层 02
100
AcDbVertex
100
AcDb2dVertex
 10
388.7402691836885
 20
124.0398332181171
 30
0.0
  0
VERTEX
  5
85
330
7E
100
AcDbEntity
  8
图层 02
100
AcDbVertex
100
AcDb2dVertex
 10
287.2609417643777
 20
117.0658863040433
 30
0.0
 42
-0.612252943280025
  0
VERTEX
  5
86
330
7E
100
AcDbEntity
  8
图层 02
100
AcDbVertex
100
AcDb2dVertex
 10
261.5900202531927
 20
159.8283519066206
 30
0.0
  0
SEQEND
  5
87
330
7E
100
AcDbEntity
  8
图层 02
  0
POLYLINE
  5
88
330
1F
100
AcDbEntity
  8
图层 02
100
AcDb2dPolyline
 66
     1
 10
0.0
 20
0.0
 30
0.0
  0
VERTEX
  5
89
330
88
100
AcDbEntity
  8
图层 02
100
AcDbVertex
100
AcDb2dVertex
 10
273.5527067716475
 20
139.6063414379673
 30
0.0
  0
VERTEX
  5
8A
330
88
100
AcDbEntity
  8
图层 02
100
AcDbVertex
100
AcDb2dVertex
 10
273.5585277795761
 20
139.6206255137331
 30
0.0
  0
VERTEX
  5
8B
330
88
100
AcDbEntity
  8
图层 02
100
AcDbVertex
100
AcDb2dVertex
 10
273.5850915380815
 20
139.6190993495342
 30
0.0
  0
VERTEX
  5
8C
330
88
100
AcDbEntity
  8
图层 02
100
AcDbVertex
100
AcDb2dVertex
 10
273.6150545740223
 20
139.5939725588084
 30
0.0
  0
VERTEX
  5
8D
330
88
100
AcDbEntity
  8
图层 02
100
AcDbVertex
100
AcDb2dVertex
 10
273.6380396807675
 20
139.5976386317068
 30
0.0
  0
VERTEX
  5
8E
330
88
100
AcDbEntity
  8
图层 02
100
AcDbVertex
100
AcDb2dVertex
 10
273.7928899731638
 20
139.4805042167905
 30
0.0
  0
VERTEX
  5
8F
330
88
100
AcDbEntity
  8
图层 02
100
AcDbVertex
100
AcDb2dVertex
 10
273.8515683879667
 20
139.447341745582
 30
0.0
  0
VERTEX
  5
90
330
88
100
AcDbEntity
  8
图层 02
100
AcDbVertex
100
AcDb2dVertex
 10
273.9346170220253
 20
139.3903369236327
 30
0.0
  0
VERTEX
  5
91
330
88
100
AcDbEntity
  8
图层 02
100
AcDbVertex
100
AcDb2dVertex
 10
273.96868665106
 20
139.3678939466822
 30
0.0
  0
VERTEX
  5
92
330
88
100
AcDbEntity
  8
图层 02
100
AcDbVertex
100
AcDb2dVertex
 10
274.0628469312587
 20
139.2777241631358
 30
0.0
  0
VERTEX
  5
93
330
88
100
AcDbEntity
  8
图层 02
100
AcDbVertex
100
AcDb2dVertex
 10
274.1205314606001
 20
139.2459538750745
 30
0.0
  0
VERTEX
  5
94
330
88
100
AcDbEntity
  8
图层 02
100
AcDbVertex
100
AcDb2dVertex
 10
274.1940028963547
 20
139.174439913891
 30
0.0
  0
VERTEX
  5
95
330
88
100
AcDbEntity
  8
图层 02
100
AcDbVertex
100
AcDb2dVertex
 10
274.2710779194907
 20
139.1334426261608
 30
0.0
  0
VERTEX
  5
96
330
88
100
AcDbEntity
  8
图层 02
100
AcDbVertex
100
AcDb2dVertex
 10
274.2923793614826
 20
139.1040665564193
 30
0.0
  0
VERTEX
  5
97
330
88
100
AcDbEntity
  8
图层 02
100
AcDbVertex
100
AcDb2dVertex
 10
274.3566487401786
 20
139.0633739057571
 30
0.0
  0
VERTEX
  5
98
330
88
100
AcDbEntity
  8
图层 02
100
AcDbVertex
100
AcDb2dVertex
 10
274.62652911405
 20
138.8280895194493
 30
0.0
  0
VERTEX
  5
99
330
88
100
AcDbEntity
  8
图层 02
100
AcDbVertex
100
AcDb2dVertex
 10
274.7105391448001
 20
138.765398000562
 30
0.0
  0
VERTEX
  5
9A
330
88
100
AcDbEntity
  8
图层 02
100
AcDbVertex
100
AcDb2dVertex
 10
274.7466317697334
 20
138.7255094431896
 30
0.0
  0
VERTEX
  5
9B
330
88
100
AcDbEntity
  8
图层 02
100
AcDbVertex
100
AcDb2dVertex
 10
274.7502555441057
 20
138.6896606068747
 30
0.0
  0
VERTEX
  5
9C
330
88
100
AcDbEntity
  8
图层 02
100
AcDbVertex
100
AcDb2dVertex
 10
274.742596883269
 20
138.6615299282238
 30
0.0
  0
VERTEX
  5
9D
330
88
100
AcDbEntity
  8
图层 02
100
AcDbVertex
100
AcDb2dVertex
 10
274.7248749500035
 20
138.6571301413117
 30
0.0
  0
VERTEX
  5
9E
330
88
100
AcDbEntity
  8
图层 02
100
AcDbVertex
100
AcDb2dVertex
 10
274.6782225368148
 20
138.666951064625
 30
0.0
  0
VERTEX
  5
9F
330
88
100
AcDbEntity
  8
图层 02
100
AcDbVertex
100
AcDb2dVertex
 10
274.6182469474971
 20
138.6993478329152
 30
0.0
  0
VERTEX
  5
A0
330
88
100
AcDbEntity
  8
图层 02
100
AcDbVertex
100
AcDb2dVertex
 10
274.5432886163638
 20
138.6999868868997
 30
0.0
  0
VERTEX
  5
A1
330
88
100
AcDbEntity
  8
图层 02
100
AcDbVertex
100
AcDb2dVertex
 10
274.4981172954126
 20
138.7295607092382
 30
0.0
  0
VERTEX
  5
A2
330
88
100
AcDbEntity
  8
图层 02
100
AcDbVertex
100
AcDb2dVertex
 10
274.427794688403
 20
138.7598755465501
 30
0.0
  0
VERTEX
  5
A3
330
88
100
AcDbEntity
  8
图层 02
100
AcDbVertex
100
AcDb2dVertex
 10
274.242702293819
 20
138.8605499396751
 30
0.0
  0
VERTEX
  5
A4
330
88
100
AcDbEntity
  8
图层 02
100
AcDbVertex
100
AcDb2dVertex
 10
274.1962599473836
 20
138.90159834873
 30
0.0
  0
VERTEX
  5
A5
330
88
100
AcDbEntity
  8
图层 02
100
AcDbVertex
100
AcDb2dVertex
 10
274.1350640841448
 20
138.9442814147713
 30
0.0
  0
VERTEX
  5
A6
330
88
100
AcDbEntity
  8
图层 02
100
AcDbVertex
100
AcDb2dVertex
 10
273.8967278537069
 20
139.1520814920321
 30
0.0
  0
VERTEX
  5
A7
330
88
100
AcDbEntity
  8
图层 02
100
AcDbVertex
100
AcDb2dVertex
 10
273.7609825818361
 20
139.2905233459085
 30
0.0
  0
VERTEX
  5
A8
330
88
100
AcDbEntity
  8
图层 02
100
AcDbVertex
100
AcDb2dVertex
 10
273.657141716135
 20
139.4296913447546
 30
0.0
  0
VERTEX
  5
A9
330
88
100
AcDbEntity
  8
图层 02
100
AcDbVertex
100
AcDb2dVertex
 10
273.5900217746959
 20
139.5086213743958
 30
0.0
  0
VERTEX
  5
AA
330
88
100
AcDbEntity
  8
图层 02
100
AcDbVertex
100
AcDb2dVertex
 10
273.5645893387165
 20
139.5659293295135
 30
0.0
  0
VERTEX
  5
AB
330
88
100
AcDbEntity
  8
图层 02
100
AcDbVertex
100
AcDb2dVertex
 10
273.5521654682092
 20
139.5773810656792
 30
0.0
  0
VERTEX
  5
AC
330
88
100
AcDbEntity
  8
图层 02
100
AcDbVertex
100
AcDb2dVertex
 10
273.5527067716475
 20
139.6063414379673
 30
0.0
  0
SEQEND
  5
AD
330
88
100
AcDbEntity
  8
图层 02
  0
POLYLINE
  5
AE
330
1F
100
AcDbEntity
  8
图层 02
100
AcDb2dPolyline
 66
     1
 10
0.0
 20
0.0
 30
0.0
  0
VERTEX
  5
AF
330
AE
100
AcDbEntity
  8
图层 02
100
AcDbVertex
100
AcDb2dVertex
 10
274.9158311657491
 20
138.5536450561506
 30
0.0
  0
VERTEX
  5
B0
330
AE
100
AcDbEntity
  8
图层 02
100
AcDbVertex
100
AcDb2dVertex
 10
274.9143041878374
 20
138.6706113378842
 30
0.0
  0
VERTEX
  5
B1
330
AE
100
AcDbEntity
  8
图层 02
100
AcDbVertex
100
AcDb2dVertex
 10
274.9021495537817
 20
138.693149443221
 30
0.0
  0
VERTEX
  5
B2
330
AE
100
AcDbEntity
  8
图层 02
100
AcDbVertex
100
AcDb2dVertex
 10
274.8488606966434
 20
138.7567688469518
 30
0.0
  0
VERTEX
  5
B3
330
AE
100
AcDbEntity
  8
图层 02
100
AcDbVertex
100
AcDb2dVertex
 10
274.5357275670424
 20
139.0199811927205
 30
0.0
  0
VERTEX
  5
B4
330
AE
100
AcDbEntity
  8
图层 02
100
AcDbVertex
100
AcDb2dVertex
 10
274.2200002563602
 20
139.2697009141635
 30
0.0
  0
VERTEX
  5
B5
330
AE
100
AcDbEntity
  8
图层 02
100
AcDbVertex
100
AcDb2dVertex
 10
274.0687816097854
 20
139.4031429754426
 30
0.0
  0
VERTEX
  5
B6
330
AE
100
AcDbEntity
  8
图层 02
100
AcDbVertex
100
AcDb2dVertex
 10
273.5477321554241
 20
139.7564063049858
 30
0.0
  0
VERTEX
  5
B7
330
AE
100
AcDbEntity
  8
图层 02
100
AcDbVertex
100
AcDb2dVertex
 10
273.4441718992034
 20
139.8429691106498
 30
0.0
  0
VERTEX
  5
B8
330
AE
100
AcDbEntity
  8
图层 02
100
AcDbVertex
100
AcDb2dVertex
 10
273.2962420976239
 20
139.9796000927477
 30
0.0
  0
VERTEX
  5
B9
330
AE
100
AcDbEntity
  8
图层 02
100
AcDbVertex
100
AcDb2dVertex
 10
273.22691021526
 20
140.1342808740287
 30
0.0
  0
VERTEX
  5
BA
330
AE
100
AcDbEntity
  8
图层 02
100
AcDbVertex
100
AcDb2dVertex
 10
273.1777474621009
 20
140.2543876454478
 30
0.0
  0
VERTEX
  5
BB
330
AE
100
AcDbEntity
  8
图层 02
100
AcDbVertex
100
AcDb2dVertex
 10
273.1618343689992
 20
140.3412068372787
 30
0.0
  0
VERTEX
  5
BC
330
AE
100
AcDbEntity
  8
图层 02
100
AcDbVertex
100
AcDb2dVertex
 10
273.1355163884563
 20
140.4319509470797
 30
0.0
  0
VERTEX
  5
BD
330
AE
100
AcDbEntity
  8
图层 02
100
AcDbVertex
100
AcDb2dVertex
 10
273.1286042010093
 20
140.4825378437695
 30
0.0
  0
VERTEX
  5
BE
330
AE
100
AcDbEntity
  8
图层 02
100
AcDbVertex
100
AcDb2dVertex
 10
273.1015934402541
 20
140.5837592258924
 30
0.0
  0
VERTEX
  5
BF
330
AE
100
AcDbEntity
  8
图层 02
100
AcDbVertex
100
AcDb2dVertex
 10
273.1045389787321
 20
140.6745713415183
 30
0.0
  0
VERTEX
  5
C0
330
AE
100
AcDbEntity
  8
图层 02
100
AcDbVertex
100
AcDb2dVertex
 10
273.1119057207947
 20
140.7561871525333
 30
0.0
  0
VERTEX
  5
C1
330
AE
100
AcDbEntity
  8
图层 02
100
AcDbVertex
100
AcDb2dVertex
 10
273.0839063423372
 20
140.8162265229213
 30
0.0
  0
VERTEX
  5
C2
330
AE
100
AcDbEntity
  8
图层 02
100
AcDbVertex
100
AcDb2dVertex
 10
272.985016624517
 20
140.9381048833944
 30
0.0
  0
VERTEX
  5
C3
330
AE
100
AcDbEntity
  8
图层 02
100
AcDbVertex
100
AcDb2dVertex
 10
272.9620323387049
 20
140.9833181903485
 30
0.0
  0
VERTEX
  5
C4
330
AE
100
AcDbEntity
  8
图层 02
100
AcDbVertex
100
AcDb2dVertex
 10
272.9707895176457
 20
141.0463318604902
 30
0.0
  0
VERTEX
  5
C5
330
AE
100
AcDbEntity
  8
图层 02
100
AcDbVertex
100
AcDb2dVertex
 10
272.964765853305
 20
141.1016479960814
 30
0.0
  0
VERTEX
  5
C6
330
AE
100
AcDbEntity
  8
图层 02
100
AcDbVertex
100
AcDb2dVertex
 10
272.9341173811368
 20
141.1592667457531
 30
0.0
  0
VERTEX
  5
C7
330
AE
100
AcDbEntity
  8
图层 02
100
AcDbVertex
100
AcDb2dVertex
 10
272.8288869231022
 20
141.3213359038919
 30
0.0
  0
VERTEX
  5
C8
330
AE
100
AcDbEntity
  8
图层 02
100
AcDbVertex
100
AcDb2dVertex
 10
272.8272436052108
 20
141.3565705269283
 30
0.0
  0
VERTEX
  5
C9
330
AE
100
AcDbEntity
  8
图层 02
100
AcDbVertex
100
AcDb2dVertex
 10
272.8419949199783
 20
141.374486473393
 30
0.0
  0
VERTEX
  5
CA
330
AE
100
AcDbEntity
  8
图层 02
100
AcDbVertex
100
AcDb2dVertex
 10
272.9150940877913
 20
141.399604201635
 30
0.0
  0
VERTEX
  5
CB
330
AE
100
AcDbEntity
  8
图层 02
100
AcDbVertex
100
AcDb2dVertex
 10
272.9732915072765
 20
141.4621439827519
 30
0.0
  0
VERTEX
  5
CC
330
AE
100
AcDbEntity
  8
图层 02
100
AcDbVertex
100
AcDb2dVertex
 10
272.9979655530607
 20
141.5433643837976
 30
0.0
  0
VERTEX
  5
CD
330
AE
100
AcDbEntity
  8
图层 02
100
AcDbVertex
100
AcDb2dVertex
 10
272.9872179176377
 20
141.6137178371355
 30
0.0
  0
VERTEX
  5
CE
330
AE
100
AcDbEntity
  8
图层 02
100
AcDbVertex
100
AcDb2dVertex
 10
272.9138574828542
 20
141.7802538546719
 30
0.0
  0
VERTEX
  5
CF
330
AE
100
AcDbEntity
  8
图层 02
100
AcDbVertex
100
AcDb2dVertex
 10
272.9014616063442
 20
141.8325230706297
 30
0.0
  0
VERTEX
  5
D0
330
AE
100
AcDbEntity
  8
图层 02
100
AcDbVertex
100
AcDb2dVertex
 10
272.9146663899215
 20
141.8759605137444
 30
0.0
  0
VERTEX
  5
D1
330
AE
100
AcDbEntity
  8
图层 02
100
AcDbVertex
100
AcDb2dVertex
 10
272.9548485970162
 20
141.9424262637354
 30
0.0
  0
VERTEX
  5
D2
330
AE
100
AcDbEntity
  8
图层 02
100
AcDbVertex
100
AcDb2dVertex
 10
272.9543107492876
 20
142.0312664374625
 30
0.0
  0
VERTEX
  5
D3
330
AE
100
AcDbEntity
  8
图层 02
100
AcDbVertex
100
AcDb2dVertex
 10
272.9250769081894
 20
142.112719066778
 30
0.0
  0
VERTEX
  5
D4
330
AE
100
AcDbEntity
  8
图层 02
100
AcDbVertex
100
AcDb2dVertex
 10
272.7685815377631
 20
142.2921968827884
 30
0.0
  0
VERTEX
  5
D5
330
AE
100
AcDbEntity
  8
图层 02
100
AcDbVertex
100
AcDb2dVertex
 10
272.6394551633665
 20
142.34997525822
 30
0.0
  0
VERTEX
  5
D6
330
AE
100
AcDbEntity
  8
图层 02
100
AcDbVertex
100
AcDb2dVertex
 10
272.5715718826353
 20
142.3567946928802
 30
0.0
  0
VERTEX
  5
D7
330
AE
100
AcDbEntity
  8
图层 02
100
AcDbVertex
100
AcDb2dVertex
 10
272.5337075462994
 20
142.4038174807682
 30
0.0
  0
VERTEX
  5
D8
330
AE
100
AcDbEntity
  8
图层 02
100
AcDbVertex
100
AcDb2dVertex
 10
272.4944329381887
 20
142.5212815694032
 30
0.0
  0
VERTEX
  5
D9
330
AE
100
AcDbEntity
  8
图层 02
100
AcDbVertex
100
AcDb2dVertex
 10
272.4456297982639
 20
142.6315025684028
 30
0.0
  0
VERTEX
  5
DA
330
AE
100
AcDbEntity
  8
图层 02
100
AcDbVertex
100
AcDb2dVertex
 10
272.4556969759171
 20
142.6681633782783
 30
0.0
  0
VERTEX
  5
DB
330
AE
100
AcDbEntity
  8
图层 02
100
AcDbVertex
100
AcDb2dVertex
 10
272.4974171401376
 20
142.6763291523405
 30
0.0
  0
VERTEX
  5
DC
330
AE
100
AcDbEntity
  8
图层 02
100
AcDbVertex
100
AcDb2dVertex
 10
272.5568214993557
 20
142.6469258633146
 30
0.0
  0
VERTEX
  5
DD
330
AE
100
AcDbEntity
  8
图层 02
100
AcDbVertex
100
AcDb2dVertex
 10
272.6565858294786
 20
142.5931391270333
 30
0.0
  0
VERTEX
  5
DE
330
AE
100
AcDbEntity
  8
图层 02
100
AcDbVertex
100
AcDb2dVertex
 10
272.7555075938054
 20
142.5556431746236
 30
0.0
  0
VERTEX
  5
DF
330
AE
100
AcDbEntity
  8
图层 02
100
AcDbVertex
100
AcDb2dVertex
 10
272.8384223520411
 20
142.5581082104681
 30
0.0
  0
VERTEX
  5
E0
330
AE
100
AcDbEntity
  8
图层 02
100
AcDbVertex
100
AcDb2dVertex
 10
272.903232945009
 20
142.5697645855315
 30
0.0
  0
VERTEX
  5
E1
330
AE
100
AcDbEntity
  8
图层 02
100
AcDbVertex
100
AcDb2dVertex
 10
272.9514517912448
 20
142.6192994192147
 30
0.0
  0
VERTEX
  5
E2
330
AE
100
AcDbEntity
  8
图层 02
100
AcDbVertex
100
AcDb2dVertex
 10
272.9726969558549
 20
142.7081552206431
 30
0.0
  0
VERTEX
  5
E3
330
AE
100
AcDbEntity
  8
图层 02
100
AcDbVertex
100
AcDb2dVertex
 10
272.9714847639214
 20
142.7810880688315
 30
0.0
  0
VERTEX
  5
E4
330
AE
100
AcDbEntity
  8
图层 02
100
AcDbVertex
100
AcDb2dVertex
 10
272.9185888556402
 20
142.8562599689845
 30
0.0
  0
VERTEX
  5
E5
330
AE
100
AcDbEntity
  8
图层 02
100
AcDbVertex
100
AcDb2dVertex
 10
272.7957320570486
 20
142.9838083527541
 30
0.0
  0
VERTEX
  5
E6
330
AE
100
AcDbEntity
  8
图层 02
100
AcDbVertex
100
AcDb2dVertex
 10
272.65646412269
 20
143.0495321660199
 30
0.0
  0
VERTEX
  5
E7
330
AE
100
AcDbEntity
  8
图层 02
100
AcDbVertex
100
AcDb2dVertex
 10
272.5168338575562
 20
143.0576933918409
 30
0.0
  0
VERTEX
  5
E8
330
AE
100
AcDbEntity
  8
图层 02
100
AcDbVertex
100
AcDb2dVertex
 10
272.4702249613617
 20
143.0375225439311
 30
0.0
  0
VERTEX
  5
E9
330
AE
100
AcDbEntity
  8
图层 02
100
AcDbVertex
100
AcDb2dVertex
 10
272.3970264376597
 20
142.9852315772434
 30
0.0
  0
VERTEX
  5
EA
330
AE
100
AcDbEntity
  8
图层 02
100
AcDbVertex
100
AcDb2dVertex
 10
272.3462774418414
 20
142.9353690078699
 30
0.0
  0
VERTEX
  5
EB
330
AE
100
AcDbEntity
  8
图层 02
100
AcDbVertex
100
AcDb2dVertex
 10
272.3132480546933
 20
142.9237880119421
 30
0.0
  0
VERTEX
  5
EC
330
AE
100
AcDbEntity
  8
图层 02
100
AcDbVertex
100
AcDb2dVertex
 10
272.2852998887212
 20
142.9320015205045
 30
0.0
  0
VERTEX
  5
ED
330
AE
100
AcDbEntity
  8
图层 02
100
AcDbVertex
100
AcDb2dVertex
 10
272.2454073460314
 20
142.9640998225353
 30
0.0
  0
VERTEX
  5
EE
330
AE
100
AcDbEntity
  8
图层 02
100
AcDbVertex
100
AcDb2dVertex
 10
272.0791027446588
 20
143.1475676998116
 30
0.0
  0
VERTEX
  5
EF
330
AE
100
AcDbEntity
  8
图层 02
100
AcDbVertex
100
AcDb2dVertex
 10
271.8460538691006
 20
143.3849034132421
 30
0.0
  0
VERTEX
  5
F0
330
AE
100
AcDbEntity
  8
图层 02
100
AcDbVertex
100
AcDb2dVertex
 10
271.7698560177001
 20
143.4473778032368
 30
0.0
  0
VERTEX
  5
F1
330
AE
100
AcDbEntity
  8
图层 02
100
AcDbVertex
100
AcDb2dVertex
 10
271.7256841929814
 20
143.4494377421005
 30
0.0
  0
VERTEX
  5
F2
330
AE
100
AcDbEntity
  8
图层 02
100
AcDbVertex
100
AcDb2dVertex
 10
271.7091184049876
 20
143.4264997483068
 30
0.0
  0
VERTEX
  5
F3
330
AE
100
AcDbEntity
  8
图层 02
100
AcDbVertex
100
AcDb2dVertex
 10
271.7073267375882
 20
143.4034477596196
 30
0.0
  0
VERTEX
  5
F4
330
AE
100
AcDbEntity
  8
图层 02
100
AcDbVertex
100
AcDb2dVertex
 10
271.7258772006255
 20
143.361975865854
 30
0.0
  0
VERTEX
  5
F5
330
AE
100
AcDbEntity
  8
图层 02
100
AcDbVertex
100
AcDb2dVertex
 10
272.1623629610998
 20
142.9253974837515
 30
0.0
  0
VERTEX
  5
F6
330
AE
100
AcDbEntity
  8
图层 02
100
AcDbVertex
100
AcDb2dVertex
 10
272.3305009766746
 20
142.7000889982195
 30
0.0
  0
VERTEX
  5
F7
330
AE
100
AcDbEntity
  8
图层 02
100
AcDbVertex
100
AcDb2dVertex
 10
272.3751263719245
 20
142.5978018207729
 30
0.0
  0
VERTEX
  5
F8
330
AE
100
AcDbEntity
  8
图层 02
100
AcDbVertex
100
AcDb2dVertex
 10
272.4122865605192
 20
142.5016516576114
 30
0.0
  0
VERTEX
  5
F9
330
AE
100
AcDbEntity
  8
图层 02
100
AcDbVertex
100
AcDb2dVertex
 10
272.4188008077665
 20
142.4355495875829
 30
0.0
  0
VERTEX
  5
FA
330
AE
100
AcDbEntity
  8
图层 02
100
AcDbVertex
100
AcDb2dVertex
 10
272.4469271610741
 20
142.3973352895179
 30
0.0
  0
VERTEX
  5
FB
330
AE
100
AcDbEntity
  8
图层 02
100
AcDbVertex
100
AcDb2dVertex
 10
272.4465343767977
 20
142.2523665608616
 30
0.0
  0
VERTEX
  5
FC
330
AE
100
AcDbEntity
  8
图层 02
100
AcDbVertex
100
AcDb2dVertex
 10
272.4697320191267
 20
142.2101301726658
 30
0.0
  0
VERTEX
  5
FD
330
AE
100
AcDbEntity
  8
图层 02
100
AcDbVertex
100
AcDb2dVertex
 10
272.5190751212718
 20
142.1531429058101
 30
0.0
  0
VERTEX
  5
FE
330
AE
100
AcDbEntity
  8
图层 02
100
AcDbVertex
100
AcDb2dVertex
 10
272.5852109828401
 20
142.05596433194
 30
0.0
  0
VERTEX
  5
FF
330
AE
100
AcDbEntity
  8
图层 02
100
AcDbVertex
100
AcDb2dVertex
 10
272.6212720029471
 20
142.0359171489836
 30
0.0
  0
VERTEX
  5
100
330
AE
100
AcDbEntity
  8
图层 02
100
AcDbVertex
100
AcDb2dVertex
 10
272.7726619289501
 20
141.8532828080934
 30
0.0
  0
VERTEX
  5
101
330
AE
100
AcDbEntity
  8
图层 02
100
AcDbVertex
100
AcDb2dVertex
 10
272.8918327300786
 20
141.6379281812011
 30
0.0
  0
VERTEX
  5
102
330
AE
100
AcDbEntity
  8
图层 02
100
AcDbVertex
100
AcDb2dVertex
 10
272.8989683081924
 20
141.599155547363
 30
0.0
  0
VERTEX
  5
103
330
AE
100
AcDbEntity
  8
图层 02
100
AcDbVertex
100
AcDb2dVertex
 10
272.894552962281
 20
141.5183460838219
 30
0.0
  0
VERTEX
  5
104
330
AE
100
AcDbEntity
  8
图层 02
100
AcDbVertex
100
AcDb2dVertex
 10
272.8748733857025
 20
141.496537297712
 30
0.0
  0
VERTEX
  5
105
330
AE
100
AcDbEntity
  8
图层 02
100
AcDbVertex
100
AcDb2dVertex
 10
272.8355137833431
 20
141.4837402109868
 30
0.0
  0
VERTEX
  5
106
330
AE
100
AcDbEntity
  8
图层 02
100
AcDbVertex
100
AcDb2dVertex
 10
272.7896352639251
 20
141.4930424874166
 30
0.0
  0
VERTEX
  5
107
330
AE
100
AcDbEntity
  8
图层 02
100
AcDbVertex
100
AcDb2dVertex
 10
272.6306639775886
 20
141.6204423530795
 30
0.0
  0
VERTEX
  5
108
330
AE
100
AcDbEntity
  8
图层 02
100
AcDbVertex
100
AcDb2dVertex
 10
272.5419923998116
 20
141.726079840521
 30
0.0
  0
VERTEX
  5
109
330
AE
100
AcDbEntity
  8
图层 02
100
AcDbVertex
100
AcDb2dVertex
 10
272.5281466974927
 20
141.7691273205875
 30
0.0
  0
VERTEX
  5
10A
330
AE
100
AcDbEntity
  8
图层 02
100
AcDbVertex
100
AcDb2dVertex
 10
272.5360238564697
 20
141.7904127327608
 30
0.0
  0
VERTEX
  5
10B
330
AE
100
AcDbEntity
  8
图层 02
100
AcDbVertex
100
AcDb2dVertex
 10
272.5700489687875
 20
141.8002236730882
 30
0.0
  0
VERTEX
  5
10C
330
AE
100
AcDbEntity
  8
图层 02
100
AcDbVertex
100
AcDb2dVertex
 10
272.5938610241129
 20
141.8143968370936
 30
0.0
  0
VERTEX
  5
10D
330
AE
100
AcDbEntity
  8
图层 02
100
AcDbVertex
100
AcDb2dVertex
 10
272.604144451798
 20
141.8592545972282
 30
0.0
  0
VERTEX
  5
10E
330
AE
100
AcDbEntity
  8
图层 02
100
AcDbVertex
100
AcDb2dVertex
 10
272.5845218235286
 20
141.8894035687949
 30
0.0
  0
VERTEX
  5
10F
330
AE
100
AcDbEntity
  8
图层 02
100
AcDbVertex
100
AcDb2dVertex
 10
272.5227884472591
 20
141.9425355108287
 30
0.0
  0
VERTEX
  5
110
330
AE
100
AcDbEntity
  8
图层 02
100
AcDbVertex
100
AcDb2dVertex
 10
272.4787395100636
 20
141.9541017867795
 30
0.0
  0
VERTEX
  5
111
330
AE
100
AcDbEntity
  8
图层 02
100
AcDbVertex
100
AcDb2dVertex
 10
272.4365798977505
 20
141.9361566659723
 30
0.0
  0
VERTEX
  5
112
330
AE
100
AcDbEntity
  8
图层 02
100
AcDbVertex
100
AcDb2dVertex
 10
272.4119445199968
 20
141.8916155372635
 30
0.0
  0
VERTEX
  5
113
330
AE
100
AcDbEntity
  8
图层 02
100
AcDbVertex
100
AcDb2dVertex
 10
272.4176751316248
 20
141.8250450808595
 30
0.0
  0
VERTEX
  5
114
330
AE
100
AcDbEntity
  8
图层 02
100
AcDbVertex
100
AcDb2dVertex
 10
272.4607446400501
 20
141.7018596689283
 30
0.0
  0
VERTEX
  5
115
330
AE
100
AcDbEntity
  8
图层 02
100
AcDbVertex
100
AcDb2dVertex
 10
272.5293020340048
 20
141.6060483361267
 30
0.0
  0
VERTEX
  5
116
330
AE
100
AcDbEntity
  8
图层 02
100
AcDbVertex
100
AcDb2dVertex
 10
272.6184438278672
 20
141.4998860760962
 30
0.0
  0
VERTEX
  5
117
330
AE
100
AcDbEntity
  8
图层 02
100
AcDbVertex
100
AcDb2dVertex
 10
272.7114093746868
 20
141.3517892315262
 30
0.0
  0
VERTEX
  5
118
330
AE
100
AcDbEntity
  8
图层 02
100
AcDbVertex
100
AcDb2dVertex
 10
272.8166498861001
 20
141.1571333421788
 30
0.0
  0
VERTEX
  5
119
330
AE
100
AcDbEntity
  8
图层 02
100
AcDbVertex
100
AcDb2dVertex
 10
272.8056986015224
 20
141.1239349462824
 30
0.0
  0
VERTEX
  5
11A
330
AE
100
AcDbEntity
  8
图层 02
100
AcDbVertex
100
AcDb2dVertex
 10
272.7795060338065
 20
141.1134401481518
 30
0.0
  0
VERTEX
  5
11B
330
AE
100
AcDbEntity
  8
图层 02
100
AcDbVertex
100
AcDb2dVertex
 10
272.7511646971701
 20
141.1367742741045
 30
0.0
  0
VERTEX
  5
11C
330
AE
100
AcDbEntity
  8
图层 02
100
AcDbVertex
100
AcDb2dVertex
 10
272.6747801255668
 20
141.2119274438258
 30
0.0
  0
VERTEX
  5
11D
330
AE
100
AcDbEntity
  8
图层 02
100
AcDbVertex
100
AcDb2dVertex
 10
272.624435463251
 20
141.2285596705754
 30
0.0
  0
VERTEX
  5
11E
330
AE
100
AcDbEntity
  8
图层 02
100
AcDbVertex
100
AcDb2dVertex
 10
272.5783344250369
 20
141.2137403180029
 30
0.0
  0
VERTEX
  5
11F
330
AE
100
AcDbEntity
  8
图层 02
100
AcDbVertex
100
AcDb2dVertex
 10
272.5288081470445
 20
141.1752867243682
 30
0.0
  0
VERTEX
  5
120
330
AE
100
AcDbEntity
  8
图层 02
100
AcDbVertex
100
AcDb2dVertex
 10
272.5287107802683
 20
141.1353763552767
 30
0.0
  0
VERTEX
  5
121
330
AE
100
AcDbEntity
  8
图层 02
100
AcDbVertex
100
AcDb2dVertex
 10
272.5647499757424
 20
141.0371735424698
 30
0.0
  0
VERTEX
  5
122
330
AE
100
AcDbEntity
  8
图层 02
100
AcDbVertex
100
AcDb2dVertex
 10
272.6587278925462
 20
140.9101660777478
 30
0.0
  0
VERTEX
  5
123
330
AE
100
AcDbEntity
  8
图层 02
100
AcDbVertex
100
AcDb2dVertex
 10
272.7630940634976
 20
140.8294759170298
 30
0.0
  0
VERTEX
  5
124
330
AE
100
AcDbEntity
  8
图层 02
100
AcDbVertex
100
AcDb2dVertex
 10
272.9270179158017
 20
140.6823015383264
 30
0.0
  0
VERTEX
  5
125
330
AE
100
AcDbEntity
  8
图层 02
100
AcDbVertex
100
AcDb2dVertex
 10
272.993199300997
 20
140.6543809207897
 30
0.0
  0
VERTEX
  5
126
330
AE
100
AcDbEntity
  8
图层 02
100
AcDbVertex
100
AcDb2dVertex
 10
273.0243705557591
 20
140.5944426494811
 30
0.0
  0
VERTEX
  5
127
330
AE
100
AcDbEntity
  8
图层 02
100
AcDbVertex
100
AcDb2dVertex
 10
273.0266311161508
 20
140.5666635754737
 30
0.0
  0
VERTEX
  5
128
330
AE
100
AcDbEntity
  8
图层 02
100
AcDbVertex
100
AcDb2dVertex
 10
273.0494172600437
 20
140.5087825293028
 30
0.0
  0
VERTEX
  5
129
330
AE
100
AcDbEntity
  8
图层 02
100
AcDbVertex
100
AcDb2dVertex
 10
273.0986801768897
 20
140.2578250004659
 30
0.0
  0
VERTEX
  5
12A
330
AE
100
AcDbEntity
  8
图层 02
100
AcDbVertex
100
AcDb2dVertex
 10
273.1363347587098
 20
140.1794378444636
 30
0.0
  0
VERTEX
  5
12B
330
AE
100
AcDbEntity
  8
图层 02
100
AcDbVertex
100
AcDb2dVertex
 10
273.1460118757548
 20
140.1280058693237
 30
0.0
  0
VERTEX
  5
12C
330
AE
100
AcDbEntity
  8
图层 02
100
AcDbVertex
100
AcDb2dVertex
 10
273.1350259856705
 20
140.0976893959039
 30
0.0
  0
VERTEX
  5
12D
330
AE
100
AcDbEntity
  8
图层 02
100
AcDbVertex
100
AcDb2dVertex
 10
273.1052254051052
 20
140.0922342777022
 30
0.0
  0
VERTEX
  5
12E
330
AE
100
AcDbEntity
  8
图层 02
100
AcDbVertex
100
AcDb2dVertex
 10
273.0551608194691
 20
140.1097589317562
 30
0.0
  0
VERTEX
  5
12F
330
AE
100
AcDbEntity
  8
图层 02
100
AcDbVertex
100
AcDb2dVertex
 10
272.8473035641192
 20
140.2395819886037
 30
0.0
  0
VERTEX
  5
130
330
AE
100
AcDbEntity
  8
图层 02
100
AcDbVertex
100
AcDb2dVertex
 10
272.7899328350075
 20
140.2737286552515
 30
0.0
  0
VERTEX
  5
131
330
AE
100
AcDbEntity
  8
图层 02
100
AcDbVertex
100
AcDb2dVertex
 10
272.6976220475
 20
140.3397026383134
 30
0.0
  0
VERTEX
  5
132
330
AE
100
AcDbEntity
  8
图层 02
100
AcDbVertex
100
AcDb2dVertex
 10
272.6330147096044
 20
140.3717340190358
 30
0.0
  0
VERTEX
  5
133
330
AE
100
AcDbEntity
  8
图层 02
100
AcDbVertex
100
AcDb2dVertex
 10
272.5569439081663
 20
140.4402550833631
 30
0.0
  0
VERTEX
  5
134
330
AE
100
AcDbEntity
  8
图层 02
100
AcDbVertex
100
AcDb2dVertex
 10
272.4681532498656
 20
140.4880066299428
 30
0.0
  0
VERTEX
  5
135
330
AE
100
AcDbEntity
  8
图层 02
100
AcDbVertex
100
AcDb2dVertex
 10
272.3779862284528
 20
140.5500403982089
 30
0.0
  0
VERTEX
  5
136
330
AE
100
AcDbEntity
  8
图层 02
100
AcDbVertex
100
AcDb2dVertex
 10
272.3195391603427
 20
140.5677974238653
 30
0.0
  0
VERTEX
  5
137
330
AE
100
AcDbEntity
  8
图层 02
100
AcDbVertex
100
AcDb2dVertex
 10
272.252613279941
 20
140.6187648017298
 30
0.0
  0
VERTEX
  5
138
330
AE
100
AcDbEntity
  8
图层 02
100
AcDbVertex
100
AcDb2dVertex
 10
272.214734134615
 20
140.6528681078519
 30
0.0
  0
VERTEX
  5
139
330
AE
100
AcDbEntity
  8
图层 02
100
AcDbVertex
100
AcDb2dVertex
 10
272.1333691951883
 20
140.6962996200517
 30
0.0
  0
VERTEX
  5
13A
330
AE
100
AcDbEntity
  8
图层 02
100
AcDbVertex
100
AcDb2dVertex
 10
272.087659249832
 20
140.7236542853734
 30
0.0
  0
VERTEX
  5
13B
330
AE
100
AcDbEntity
  8
图层 02
100
AcDbVertex
100
AcDb2dVertex
 10
271.970191164559
 20
140.8047589666211
 30
0.0
  0
VERTEX
  5
13C
330
AE
100
AcDbEntity
  8
图层 02
100
AcDbVertex
100
AcDb2dVertex
 10
271.785096241685
 20
140.9154839252513
 30
0.0
  0
VERTEX
  5
13D
330
AE
100
AcDbEntity
  8
图层 02
100
AcDbVertex
100
AcDb2dVertex
 10
271.7455057396191
 20
140.9227590658672
 30
0.0
  0
VERTEX
  5
13E
330
AE
100
AcDbEntity
  8
图层 02
100
AcDbVertex
100
AcDb2dVertex
 10
271.7189111894426
 20
140.9539185191307
 30
0.0
  0
VERTEX
  5
13F
330
AE
100
AcDbEntity
  8
图层 02
100
AcDbVertex
100
AcDb2dVertex
 10
271.6277882160646
 20
141.0112874666222
 30
0.0
  0
VERTEX
  5
140
330
AE
100
AcDbEntity
  8
图层 02
100
AcDbVertex
100
AcDb2dVertex
 10
271.5790945146534
 20
141.0606789618612
 30
0.0
  0
VERTEX
  5
141
330
AE
100
AcDbEntity
  8
图层 02
100
AcDbVertex
100
AcDb2dVertex
 10
271.50167741009
 20
141.0983477352342
 30
0.0
  0
VERTEX
  5
142
330
AE
100
AcDbEntity
  8
图层 02
100
AcDbVertex
100
AcDb2dVertex
 10
271.0933104272431
 20
141.3297552119285
 30
0.0
  0
VERTEX
  5
143
330
AE
100
AcDbEntity
  8
图层 02
100
AcDbVertex
100
AcDb2dVertex
 10
271.0201798967969
 20
141.3551111058619
 30
0.0
  0
VERTEX
  5
144
330
AE
100
AcDbEntity
  8
图层 02
100
AcDbVertex
100
AcDb2dVertex
 10
270.9900363241229
 20
141.3705447218348
 30
0.0
  0
VERTEX
  5
145
330
AE
100
AcDbEntity
  8
图层 02
100
AcDbVertex
100
AcDb2dVertex
 10
270.8570702321618
 20
141.4130750880292
 30
0.0
  0
VERTEX
  5
146
330
AE
100
AcDbEntity
  8
图层 02
100
AcDbVertex
100
AcDb2dVertex
 10
270.7899775931505
 20
141.4180037463693
 30
0.0
  0
VERTEX
  5
147
330
AE
100
AcDbEntity
  8
图层 02
100
AcDbVertex
100
AcDb2dVertex
 10
270.7427221797631
 20
141.4360266955455
 30
0.0
  0
VERTEX
  5
148
330
AE
100
AcDbEntity
  8
图层 02
100
AcDbVertex
100
AcDb2dVertex
 10
270.6511464449869
 20
141.4343079953248
 30
0.0
  0
VERTEX
  5
149
330
AE
100
AcDbEntity
  8
图层 02
100
AcDbVertex
100
AcDb2dVertex
 10
270.6078512075144
 20
141.4113006050526
 30
0.0
  0
VERTEX
  5
14A
330
AE
100
AcDbEntity
  8
图层 02
100
AcDbVertex
100
AcDb2dVertex
 10
270.5811831033735
 20
141.3647444270418
 30
0.0
  0
VERTEX
  5
14B
330
AE
100
AcDbEntity
  8
图层 02
100
AcDbVertex
100
AcDb2dVertex
 10
270.5778487533181
 20
141.3003195081387
 30
0.0
  0
VERTEX
  5
14C
330
AE
100
AcDbEntity
  8
图层 02
100
AcDbVertex
100
AcDb2dVertex
 10
270.5853538213992
 20
141.2533153213868
 30
0.0
  0
VERTEX
  5
14D
330
AE
100
AcDbEntity
  8
图层 02
100
AcDbVertex
100
AcDb2dVertex
 10
270.6024577177923
 20
141.2214960098826
 30
0.0
  0
VERTEX
  5
14E
330
AE
100
AcDbEntity
  8
图层 02
100
AcDbVertex
100
AcDb2dVertex
 10
270.6136167852127
 20
141.1840443017289
 30
0.0
  0
VERTEX
  5
14F
330
AE
100
AcDbEntity
  8
图层 02
100
AcDbVertex
100
AcDb2dVertex
 10
270.6652605233291
 20
141.1029686359335
 30
0.0
  0
VERTEX
  5
150
330
AE
100
AcDbEntity
  8
图层 02
100
AcDbVertex
100
AcDb2dVertex
 10
270.7177720293162
 20
141.0472744328882
 30
0.0
  0
VERTEX
  5
151
330
AE
100
AcDbEntity
  8
图层 02
100
AcDbVertex
100
AcDb2dVertex
 10
270.7586312988148
 20
141.0056348072463
 30
0.0
  0
VERTEX
  5
152
330
AE
100
AcDbEntity
  8
图层 02
100
AcDbVertex
100
AcDb2dVertex
 10
270.7994582110082
 20
140.9387484045523
 30
0.0
  0
VERTEX
  5
153
330
AE
100
AcDbEntity
  8
图层 02
100
AcDbVertex
100
AcDb2dVertex
 10
270.8668617652883
 20
140.8535787900734
 30
0.0
  0
VERTEX
  5
154
330
AE
100
AcDbEntity
  8
图层 02
100
AcDbVertex
100
AcDb2dVertex
 10
270.9552416139998
 20
140.75043087418
 30
0.0
  0
VERTEX
  5
155
330
AE
100
AcDbEntity
  8
图层 02
100
AcDbVertex
100
AcDb2dVertex
 10
271.0217952284106
 20
140.6648542306169
 30
0.0
  0
VERTEX
  5
156
330
AE
100
AcDbEntity
  8
图层 02
100
AcDbVertex
100
AcDb2dVertex
 10
271.0786993900288
 20
140.6190950153515
 30
0.0
  0
VERTEX
  5
157
330
AE
100
AcDbEntity
  8
图层 02
100
AcDbVertex
100
AcDb2dVertex
 10
271.1344635487523
 20
140.5490705464105
 30
0.0
  0
VERTEX
  5
158
330
AE
100
AcDbEntity
  8
图层 02
100
AcDbVertex
100
AcDb2dVertex
 10
271.2091184264864
 20
140.4841353840333
 30
0.0
  0
VERTEX
  5
159
330
AE
100
AcDbEntity
  8
图层 02
100
AcDbVertex
100
AcDb2dVertex
 10
271.2687723874853
 20
140.3991564565588
 30
0.0
  0
VERTEX
  5
15A
330
AE
100
AcDbEntity
  8
图层 02
100
AcDbVertex
100
AcDb2dVertex
 10
271.3158462513387
 20
140.3646310933278
 30
0.0
  0
VERTEX
  5
15B
330
AE
100
AcDbEntity
  8
图层 02
100
AcDbVertex
100
AcDb2dVertex
 10
271.3856612535361
 20
140.2879732377016
 30
0.0
  0
VERTEX
  5
15C
330
AE
100
AcDbEntity
  8
图层 02
100
AcDbVertex
100
AcDb2dVertex
 10
271.4713245145201
 20
140.183001670106
 30
0.0
  0
VERTEX
  5
15D
330
AE
100
AcDbEntity
  8
图层 02
100
AcDbVertex
100
AcDb2dVertex
 10
271.5157874148364
 20
140.1533775717163
 30
0.0
  0
VERTEX
  5
15E
330
AE
100
AcDbEntity
  8
图层 02
100
AcDbVertex
100
AcDb2dVertex
 10
271.6003097146441
 20
140.0305184241226
 30
0.0
  0
VERTEX
  5
15F
330
AE
100
AcDbEntity
  8
图层 02
100
AcDbVertex
100
AcDb2dVertex
 10
271.7086936187145
 20
139.9434151605718
 30
0.0
  0
VERTEX
  5
160
330
AE
100
AcDbEntity
  8
图层 02
100
AcDbVertex
100
AcDb2dVertex
 10
271.7270270060353
 20
139.9129368779605
 30
0.0
  0
VERTEX
  5
161
330
AE
100
AcDbEntity
  8
图层 02
100
AcDbVertex
100
AcDb2dVertex
 10
271.81121095525
 20
139.8119851038273
 30
0.0
  0
VERTEX
  5
162
330
AE
100
AcDbEntity
  8
图层 02
100
AcDbVertex
100
AcDb2dVertex
 10
272.0890257753546
 20
139.53869288572
 30
0.0
  0
VERTEX
  5
163
330
AE
100
AcDbEntity
  8
图层 02
100
AcDbVertex
100
AcDb2dVertex
 10
272.1628664684782
 20
139.4320077116185
 30
0.0
  0
VERTEX
  5
164
330
AE
100
AcDbEntity
  8
图层 02
100
AcDbVertex
100
AcDb2dVertex
 10
272.3586823350511
 20
139.2140662206092
 30
0.0
  0
VERTEX
  5
165
330
AE
100
AcDbEntity
  8
图层 02
100
AcDbVertex
100
AcDb2dVertex
 10
272.4313861223696
 20
139.1412721333089
 30
0.0
  0
VERTEX
  5
166
330
AE
100
AcDbEntity
  8
图层 02
100
AcDbVertex
100
AcDb2dVertex
 10
272.5087345784112
 20
139.0403373266204
 30
0.0
  0
VERTEX
  5
167
330
AE
100
AcDbEntity
  8
图层 02
100
AcDbVertex
100
AcDb2dVertex
 10
272.5763675267452
 20
138.9804634722766
 30
0.0
  0
VERTEX
  5
168
330
AE
100
AcDbEntity
  8
图层 02
100
AcDbVertex
100
AcDb2dVertex
 10
272.620958868757
 20
138.926702698655
 30
0.0
  0
VERTEX
  5
169
330
AE
100
AcDbEntity
  8
图层 02
100
AcDbVertex
100
AcDb2dVertex
 10
272.6655643499603
 20
138.9028938068917
 30
0.0
  0
VERTEX
  5
16A
330
AE
100
AcDbEntity
  8
图层 02
100
AcDbVertex
100
AcDb2dVertex
 10
272.7352976591145
 20
138.8226662800639
 30
0.0
  0
VERTEX
  5
16B
330
AE
100
AcDbEntity
  8
图层 02
100
AcDbVertex
100
AcDb2dVertex
 10
272.8605098272186
 20
138.7346783567644
 30
0.0
  0
VERTEX
  5
16C
330
AE
100
AcDbEntity
  8
图层 02
100
AcDbVertex
100
AcDb2dVertex
 10
272.9397788676497
 20
138.6820360657052
 30
0.0
  0
VERTEX
  5
16D
330
AE
100
AcDbEntity
  8
图层 02
100
AcDbVertex
100
AcDb2dVertex
 10
272.9763925840885
 20
138.6850448665609
 30
0.0
  0
VERTEX
  5
16E
330
AE
100
AcDbEntity
  8
图层 02
100
AcDbVertex
100
AcDb2dVertex
 10
273.0174521553756
 20
138.7037798902509
 30
0.0
  0
VERTEX
  5
16F
330
AE
100
AcDbEntity
  8
图层 02
100
AcDbVertex
100
AcDb2dVertex
 10
273.0443252820511
 20
138.7512268447669
 30
0.0
  0
VERTEX
  5
170
330
AE
100
AcDbEntity
  8
图层 02
100
AcDbVertex
100
AcDb2dVertex
 10
273.0413349486164
 20
138.8079381776677
 30
0.0
  0
VERTEX
  5
171
330
AE
100
AcDbEntity
  8
图层 02
100
AcDbVertex
100
AcDb2dVertex
 10
272.9896316763408
 20
138.8730996636946
 30
0.0
  0
VERTEX
  5
172
330
AE
100
AcDbEntity
  8
图层 02
100
AcDbVertex
100
AcDb2dVertex
 10
272.9025014562984
 20
138.8811076346039
 30
0.0
  0
VERTEX
  5
173
330
AE
100
AcDbEntity
  8
图层 02
100
AcDbVertex
100
AcDb2dVertex
 10
272.8253731469525
 20
138.9069769737405
 30
0.0
  0
VERTEX
  5
174
330
AE
100
AcDbEntity
  8
图层 02
100
AcDbVertex
100
AcDb2dVertex
 10
272.4293997977124
 20
139.2541879285766
 30
0.0
  0
VERTEX
  5
175
330
AE
100
AcDbEntity
  8
图层 02
100
AcDbVertex
100
AcDb2dVertex
 10
272.2958869325668
 20
139.3871269911767
 30
0.0
  0
VERTEX
  5
176
330
AE
100
AcDbEntity
  8
图层 02
100
AcDbVertex
100
AcDb2dVertex
 10
272.2222591616028
 20
139.4810949821163
 30
0.0
  0
VERTEX
  5
177
330
AE
100
AcDbEntity
  8
图层 02
100
AcDbVertex
100
AcDb2dVertex
 10
272.1636753932746
 20
139.5385865445753
 30
0.0
  0
VERTEX
  5
178
330
AE
100
AcDbEntity
  8
图层 02
100
AcDbVertex
100
AcDb2dVertex
 10
272.1132997742286
 20
139.6080156299676
 30
0.0
  0
VERTEX
  5
179
330
AE
100
AcDbEntity
  8
图层 02
100
AcDbVertex
100
AcDb2dVertex
 10
272.0204911524436
 20
139.7086808547386
 30
0.0
  0
VERTEX
  5
17A
330
AE
100
AcDbEntity
  8
图层 02
100
AcDbVertex
100
AcDb2dVertex
 10
271.7460524104089
 20
139.9780285792369
 30
0.0
  0
VERTEX
  5
17B
330
AE
100
AcDbEntity
  8
图层 02
100
AcDbVertex
100
AcDb2dVertex
 10
271.4318355138705
 20
140.3048108477211
 30
0.0
  0
VERTEX
  5
17C
330
AE
100
AcDbEntity
  8
图层 02
100
AcDbVertex
100
AcDb2dVertex
 10
271.2962694184079
 20
140.4659723481708
 30
0.0
  0
VERTEX
  5
17D
330
AE
100
AcDbEntity
  8
图层 02
100
AcDbVertex
100
AcDb2dVertex
 10
270.8497294691157
 20
140.9624462976017
 30
0.0
  0
VERTEX
  5
17E
330
AE
100
AcDbEntity
  8
图层 02
100
AcDbVertex
100
AcDb2dVertex
 10
270.7933624866491
 20
141.0390819762777
 30
0.0
  0
VERTEX
  5
17F
330
AE
100
AcDbEntity
  8
图层 02
100
AcDbVertex
100
AcDb2dVertex
 10
270.755352829401
 20
141.0991154389932
 30
0.0
  0
VERTEX
  5
180
330
AE
100
AcDbEntity
  8
图层 02
100
AcDbVertex
100
AcDb2dVertex
 10
270.7152754264641
 20
141.1545357143885
 30
0.0
  0
VERTEX
  5
181
330
AE
100
AcDbEntity
  8
图层 02
100
AcDbVertex
100
AcDb2dVertex
 10
270.6651846676072
 20
141.2556451232392
 30
0.0
  0
VERTEX
  5
182
330
AE
100
AcDbEntity
  8
图层 02
100
AcDbVertex
100
AcDb2dVertex
 10
270.6675545957423
 20
141.3002246483356
 30
0.0
  0
VERTEX
  5
183
330
AE
100
AcDbEntity
  8
图层 02
100
AcDbVertex
100
AcDb2dVertex
 10
270.6943888035082
 20
141.3288471713683
 30
0.0
  0
VERTEX
  5
184
330
AE
100
AcDbEntity
  8
图层 02
100
AcDbVertex
100
AcDb2dVertex
 10
270.815099396257
 20
141.3336110057844
 30
0.0
  0
VERTEX
  5
185
330
AE
100
AcDbEntity
  8
图层 02
100
AcDbVertex
100
AcDb2dVertex
 10
270.8599757752296
 20
141.3179042586958
 30
0.0
  0
VERTEX
  5
186
330
AE
100
AcDbEntity
  8
图层 02
100
AcDbVertex
100
AcDb2dVertex
 10
270.8887096033179
 20
141.3134223423302
 30
0.0
  0
VERTEX
  5
187
330
AE
100
AcDbEntity
  8
图层 02
100
AcDbVertex
100
AcDb2dVertex
 10
270.942067841085
 20
141.2848371074053
 30
0.0
  0
VERTEX
  5
188
330
AE
100
AcDbEntity
  8
图层 02
100
AcDbVertex
100
AcDb2dVertex
 10
270.9979263961056
 20
141.2699830604945
 30
0.0
  0
VERTEX
  5
189
330
AE
100
AcDbEntity
  8
图层 02
100
AcDbVertex
100
AcDb2dVertex
 10
271.0570108251012
 20
141.2379114390416
 30
0.0
  0
VERTEX
  5
18A
330
AE
100
AcDbEntity
  8
图层 02
100
AcDbVertex
100
AcDb2dVertex
 10
271.1616986771947
 20
141.2016293220634
 30
0.0
  0
VERTEX
  5
18B
330
AE
100
AcDbEntity
  8
图层 02
100
AcDbVertex
100
AcDb2dVertex
 10
271.2328412617471
 20
141.1512291969062
 30
0.0
  0
VERTEX
  5
18C
330
AE
100
AcDbEntity
  8
图层 02
100
AcDbVertex
100
AcDb2dVertex
 10
271.3393288948154
 20
141.0906446112181
 30
0.0
  0
VERTEX
  5
18D
330
AE
100
AcDbEntity
  8
图层 02
100
AcDbVertex
100
AcDb2dVertex
 10
271.3891044612506
 20
141.0541021580443
 30
0.0
  0
VERTEX
  5
18E
330
AE
100
AcDbEntity
  8
图层 02
100
AcDbVertex
100
AcDb2dVertex
 10
271.5165678056214
 20
140.9883015337905
 30
0.0
  0
VERTEX
  5
18F
330
AE
100
AcDbEntity
  8
图层 02
100
AcDbVertex
100
AcDb2dVertex
 10
271.5843868763609
 20
140.9241227789073
 30
0.0
  0
VERTEX
  5
190
330
AE
100
AcDbEntity
  8
图层 02
100
AcDbVertex
100
AcDb2dVertex
 10
271.6312026968413
 20
140.9116179176314
 30
0.0
  0
VERTEX
  5
191
330
AE
100
AcDbEntity
  8
图层 02
100
AcDbVertex
100
AcDb2dVertex
 10
271.9434435045986
 20
140.7109683790787
 30
0.0
  0
VERTEX
  5
192
330
AE
100
AcDbEntity
  8
图层 02
100
AcDbVertex
100
AcDb2dVertex
 10
272.0233666981804
 20
140.6759774728809
 30
0.0
  0
VERTEX
  5
193
330
AE
100
AcDbEntity
  8
图层 02
100
AcDbVertex
100
AcDb2dVertex
 10
272.1775578953198
 20
140.5635936355152
 30
0.0
  0
VERTEX
  5
194
330
AE
100
AcDbEntity
  8
图层 02
100
AcDbVertex
100
AcDb2dVertex
 10
272.2479913350058
 20
140.5292335597076
 30
0.0
  0
VERTEX
  5
195
330
AE
100
AcDbEntity
  8
图层 02
100
AcDbVertex
100
AcDb2dVertex
 10
272.3373493101432
 20
140.4579781553465
 30
0.0
  0
VERTEX
  5
196
330
AE
100
AcDbEntity
  8
图层 02
100
AcDbVertex
100
AcDb2dVertex
 10
272.4607055541408
 20
140.397516084271
 30
0.0
  0
VERTEX
  5
197
330
AE
100
AcDbEntity
  8
图层 02
100
AcDbVertex
100
AcDb2dVertex
 10
272.6175606883065
 20
140.2964211348597
 30
0.0
  0
VERTEX
  5
198
330
AE
100
AcDbEntity
  8
图层 02
100
AcDbVertex
100
AcDb2dVertex
 10
272.6708757586492
 20
140.2403233677908
 30
0.0
  0
VERTEX
  5
199
330
AE
100
AcDbEntity
  8
图层 02
100
AcDbVertex
100
AcDb2dVertex
 10
273.240283145679
 20
139.9072057272195
 30
0.0
  0
VERTEX
  5
19A
330
AE
100
AcDbEntity
  8
图层 02
100
AcDbVertex
100
AcDb2dVertex
 10
273.4860071372515
 20
139.5113633686288
 30
0.0
  0
VERTEX
  5
19B
330
AE
100
AcDbEntity
  8
图层 02
100
AcDbVertex
100
AcDb2dVertex
 10
273.8576614987043
 20
139.0675691848984
 30
0.0
  0
VERTEX
  5
19C
330
AE
100
AcDbEntity
  8
图层 02
100
AcDbVertex
100
AcDb2dVertex
 10
274.0329719657146
 20
138.9246578101466
 30
0.0
  0
VERTEX
  5
19D
330
AE
100
AcDbEntity
  8
图层 02
100
AcDbVertex
100
AcDb2dVertex
 10
274.14523280769
 20
138.8224640641477
 30
0.0
  0
VERTEX
  5
19E
330
AE
100
AcDbEntity
  8
图层 02
100
AcDbVertex
100
AcDb2dVertex
 10
274.190706866057
 20
138.8085552860405
 30
0.0
  0
VERTEX
  5
19F
330
AE
100
AcDbEntity
  8
图层 02
100
AcDbVertex
100
AcDb2dVertex
 10
274.4793072729079
 20
138.6385278877895
 30
0.0
  0
VERTEX
  5
1A0
330
AE
100
AcDbEntity
  8
图层 02
100
AcDbVertex
100
AcDb2dVertex
 10
274.5138663903639
 20
138.6378663031802
 30
0.0
  0
VERTEX
  5
1A1
330
AE
100
AcDbEntity
  8
图层 02
100
AcDbVertex
100
AcDb2dVertex
 10
274.5862504555485
 20
138.5997102950396
 30
0.0
  0
VERTEX
  5
1A2
330
AE
100
AcDbEntity
  8
图层 02
100
AcDbVertex
100
AcDb2dVertex
 10
274.8032064846551
 20
138.5438552153934
 30
0.0
  0
VERTEX
  5
1A3
330
AE
100
AcDbEntity
  8
图层 02
100
AcDbVertex
100
AcDb2dVertex
 10
274.8648999656795
 20
138.5539071004312
 30
0.0
  0
VERTEX
  5
1A4
330
AE
100
AcDbEntity
  8
图层 02
100
AcDbVertex
100
AcDb2dVertex
 10
274.8987463661497
 20
138.5789551897579
 30
0.0
  0
VERTEX
  5
1A5
330
AE
100
AcDbEntity
  8
图层 02
100
AcDbVertex
100
AcDb2dVertex
 10
274.9125629377329
 20
138.6068375102156
 30
0.0
  0
SEQEND
  5
1A6
330
AE
100
AcDbEntity
  8
图层 02
  0
POLYLINE
  5
1A7
330
1F
100
AcDbEntity
  8
图层 02
100
AcDb2dPolyline
 66
     1
 10
0.0
 20
0.0
 30
0.0
  0
VERTEX
  5
1A8
330
1A7
100
AcDbEntity
  8
图层 02
100
AcDbVertex
100
AcDb2dVertex
 10
273.3488861405284
 20
143.8060633162435
 30
0.0
  0
VERTEX
  5
1A9
330
1A7
100
AcDbEntity
  8
图层 02
100
AcDbVertex
100
AcDb2dVertex
 10
273.5129872299272
 20
143.7274116233837
 30
0.0
  0
VERTEX
  5
1AA
330
1A7
100
AcDbEntity
  8
图层 02
100
AcDbVertex
100
AcDb2dVertex
 10
273.5128784058553
 20
143.8867902642619
 30
0.0
  0
VERTEX
  5
1AB
330
1A7
100
AcDbEntity
  8
图层 02
100
AcDbVertex
100
AcDb2dVertex
 10
273.3488861405284
 20
143.8060633162435
 30
0.0
  0
SEQEND
  5
1AC
330
1A7
100
AcDbEntity
  8
图层 02
  0
POLYLINE
  5
1AD
330
1F
100
AcDbEntity
  8
图层 02
100
AcDb2dPolyline
 66
     1
 10
0.0
 20
0.0
 30
0.0
  0
VERTEX
  5
1AE
330
1AD
100
AcDbEntity
  8
图层 02
100
AcDbVertex
100
AcDb2dVertex
 10
273.2455656103057
 20
143.799094739014
 30
0.0
  0
VERTEX
  5
1AF
330
1AD
100
AcDbEntity
  8
图层 02
100
AcDbVertex
100
AcDb2dVertex
 10
273.6615528483081
 20
143.6000545363896
 30
0.0
  0
VERTEX
  5
1B0
330
1AD
100
AcDbEntity
  8
图层 02
100
AcDbVertex
100
AcDb2dVertex
 10
273.6614864584221
 20
143.6574516347979
 30
0.0
  0
VERTEX
  5
1B1
330
1AD
100
AcDbEntity
  8
图层 02
100
AcDbVertex
100
AcDb2dVertex
 10
273.5555772102335
 20
143.7044312520891
 30
0.0
  0
VERTEX
  5
1B2
330
1AD
100
AcDbEntity
  8
图层 02
100
AcDbVertex
100
AcDb2dVertex
 10
273.5554108111968
 20
143.9076730098609
 30
0.0
  0
VERTEX
  5
1B3
330
1AD
100
AcDbEntity
  8
图层 02
100
AcDbVertex
100
AcDb2dVertex
 10
273.6611373398527
 20
143.9592806346571
 30
0.0
  0
VERTEX
  5
1B4
330
1AD
100
AcDbEntity
  8
图层 02
100
AcDbVertex
100
AcDb2dVertex
 10
273.6610691610535
 20
144.0182243304778
 30
0.0
  0
VERTEX
  5
1B5
330
1AD
100
AcDbEntity
  8
图层 02
100
AcDbVertex
100
AcDb2dVertex
 10
273.2455681801285
 20
143.8141168720626
 30
0.0
  0
VERTEX
  5
1B6
330
1AD
100
AcDbEntity
  8
图层 02
100
AcDbVertex
100
AcDb2dVertex
 10
273.2455656103057
 20
143.799094739014
 30
0.0
  0
SEQEND
  5
1B7
330
1AD
100
AcDbEntity
  8
图层 02
  0
POLYLINE
  5
1B8
330
1F
100
AcDbEntity
  8
图层 02
100
AcDb2dPolyline
 66
     1
 10
0.0
 20
0.0
 30
0.0
  0
VERTEX
  5
1B9
330
1B8
100
AcDbEntity
  8
图层 02
100
AcDbVertex
100
AcDb2dVertex
 10
272.4795716871876
 20
142.7833253544995
 30
0.0
  0
VERTEX
  5
1BA
330
1B8
100
AcDbEntity
  8
图层 02
100
AcDbVertex
100
AcDb2dVertex
 10
272.4450267010344
 20
142.8300266338532
 30
0.0
  0
VERTEX
  5
1BB
330
1B8
100
AcDbEntity
  8
图层 02
100
AcDbVertex
100
AcDb2dVertex
 10
272.4534850927379
 20
142.9110605067506
 30
0.0
  0
VERTEX
  5
1BC
330
1B8
100
AcDbEntity
  8
图层 02
100
AcDbVertex
100
AcDb2dVertex
 10
272.5064232749774
 20
142.9587258188269
 30
0.0
  0
VERTEX
  5
1BD
330
1B8
100
AcDbEntity
  8
图层 02
100
AcDbVertex
100
AcDb2dVertex
 10
272.5703544989295
 20
142.9661010091667
 30
0.0
  0
VERTEX
  5
1BE
330
1B8
100
AcDbEntity
  8
图层 02
100
AcDbVertex
100
AcDb2dVertex
 10
272.6732291580806
 20
142.9565247581096
 30
0.0
  0
VERTEX
  5
1BF
330
1B8
100
AcDbEntity
  8
图层 02
100
AcDbVertex
100
AcDb2dVertex
 10
272.7642050444231
 20
142.9075635445886
 30
0.0
  0
VERTEX
  5
1C0
330
1B8
100
AcDbEntity
  8
图层 02
100
AcDbVertex
100
AcDb2dVertex
 10
272.846826505986
 20
142.799771166223
 30
0.0
  0
VERTEX
  5
1C1
330
1B8
100
AcDbEntity
  8
图层 02
100
AcDbVertex
100
AcDb2dVertex
 10
272.8788836138057
 20
142.7353670368806
 30
0.0
  0
VERTEX
  5
1C2
330
1B8
100
AcDbEntity
  8
图层 02
100
AcDbVertex
100
AcDb2dVertex
 10
272.8678056985517
 20
142.6920910356855
 30
0.0
  0
VERTEX
  5
1C3
330
1B8
100
AcDbEntity
  8
图层 02
100
AcDbVertex
100
AcDb2dVertex
 10
272.8510522340943
 20
142.6697572189125
 30
0.0
  0
VERTEX
  5
1C4
330
1B8
100
AcDbEntity
  8
图层 02
100
AcDbVertex
100
AcDb2dVertex
 10
272.8104739215787
 20
142.6585412271041
 30
0.0
  0
VERTEX
  5
1C5
330
1B8
100
AcDbEntity
  8
图层 02
100
AcDbVertex
100
AcDb2dVertex
 10
272.7319495124463
 20
142.6569867669287
 30
0.0
  0
VERTEX
  5
1C6
330
1B8
100
AcDbEntity
  8
图层 02
100
AcDbVertex
100
AcDb2dVertex
 10
272.6231702811845
 20
142.704325561795
 30
0.0
  0
VERTEX
  5
1C7
330
1B8
100
AcDbEntity
  8
图层 02
100
AcDbVertex
100
AcDb2dVertex
 10
272.5097494131856
 20
142.7576134999369
 30
0.0
  0
VERTEX
  5
1C8
330
1B8
100
AcDbEntity
  8
图层 02
100
AcDbVertex
100
AcDb2dVertex
 10
272.4795716871876
 20
142.7833253544995
 30
0.0
  0
SEQEND
  5
1C9
330
1B8
100
AcDbEntity
  8
图层 02
  0
POLYLINE
  5
1CA
330
1F
100
AcDbEntity
  8
图层 02
100
AcDb2dPolyline
 66
     1
 10
0.0
 20
0.0
 30
0.0
  0
VERTEX
  5
1CB
330
1CA
100
AcDbEntity
  8
图层 02
100
AcDbVertex
100
AcDb2dVertex
 10
272.2970007597237
 20
145.5094505586875
 30
0.0
  0
VERTEX
  5
1CC
330
1CA
100
AcDbEntity
  8
图层 02
100
AcDbVertex
100
AcDb2dVertex
 10
272.3059945308874
 20
145.5150891827103
 30
0.0
  0
VERTEX
  5
1CD
330
1CA
100
AcDbEntity
  8
图层 02
100
AcDbVertex
100
AcDb2dVertex
 10
272.3282375704888
 20
145.4996863477158
 30
0.0
  0
VERTEX
  5
1CE
330
1CA
100
AcDbEntity
  8
图层 02
100
AcDbVertex
100
AcDb2dVertex
 10
272.4431958256315
 20
145.3180139626359
 30
0.0
  0
VERTEX
  5
1CF
330
1CA
100
AcDbEntity
  8
图层 02
100
AcDbVertex
100
AcDb2dVertex
 10
272.5618863827883
 20
145.0161821385298
 30
0.0
  0
VERTEX
  5
1D0
330
1CA
100
AcDbEntity
  8
图层 02
100
AcDbVertex
100
AcDb2dVertex
 10
272.6386437307686
 20
144.8468863379971
 30
0.0
  0
VERTEX
  5
1D1
330
1CA
100
AcDbEntity
  8
图层 02
100
AcDbVertex
100
AcDb2dVertex
 10
272.7428635428845
 20
144.5326177404725
 30
0.0
  0
VERTEX
  5
1D2
330
1CA
100
AcDbEntity
  8
图层 02
100
AcDbVertex
100
AcDb2dVertex
 10
272.7752268703008
 20
144.3930719442738
 30
0.0
  0
VERTEX
  5
1D3
330
1CA
100
AcDbEntity
  8
图层 02
100
AcDbVertex
100
AcDb2dVertex
 10
272.7980718578406
 20
144.3321901751114
 30
0.0
  0
VERTEX
  5
1D4
330
1CA
100
AcDbEntity
  8
图层 02
100
AcDbVertex
100
AcDb2dVertex
 10
272.8019783471797
 20
144.2580603614587
 30
0.0
  0
VERTEX
  5
1D5
330
1CA
100
AcDbEntity
  8
图层 02
100
AcDbVertex
100
AcDb2dVertex
 10
272.8472787412138
 20
144.0945619471122
 30
0.0
  0
VERTEX
  5
1D6
330
1CA
100
AcDbEntity
  8
图层 02
100
AcDbVertex
100
AcDb2dVertex
 10
272.8665856715548
 20
143.9510374901094
 30
0.0
  0
VERTEX
  5
1D7
330
1CA
100
AcDbEntity
  8
图层 02
100
AcDbVertex
100
AcDb2dVertex
 10
272.8689410336796
 20
143.8176167633693
 30
0.0
  0
VERTEX
  5
1D8
330
1CA
100
AcDbEntity
  8
图层 02
100
AcDbVertex
100
AcDb2dVertex
 10
272.8787006058847
 20
143.6132691120358
 30
0.0
  0
VERTEX
  5
1D9
330
1CA
100
AcDbEntity
  8
图层 02
100
AcDbVertex
100
AcDb2dVertex
 10
272.8534416823854
 20
143.5437235897801
 30
0.0
  0
VERTEX
  5
1DA
330
1CA
100
AcDbEntity
  8
图层 02
100
AcDbVertex
100
AcDb2dVertex
 10
272.8173486099391
 20
143.5264644657096
 30
0.0
  0
VERTEX
  5
1DB
330
1CA
100
AcDbEntity
  8
图层 02
100
AcDbVertex
100
AcDb2dVertex
 10
272.7726270694466
 20
143.5288507497533
 30
0.0
  0
VERTEX
  5
1DC
330
1CA
100
AcDbEntity
  8
图层 02
100
AcDbVertex
100
AcDb2dVertex
 10
272.7155869084812
 20
143.5716833377654
 30
0.0
  0
VERTEX
  5
1DD
330
1CA
100
AcDbEntity
  8
图层 02
100
AcDbVertex
100
AcDb2dVertex
 10
272.6526480635179
 20
143.6660420022323
 30
0.0
  0
VERTEX
  5
1DE
330
1CA
100
AcDbEntity
  8
图层 02
100
AcDbVertex
100
AcDb2dVertex
 10
272.5562843617215
 20
143.8374162483502
 30
0.0
  0
VERTEX
  5
1DF
330
1CA
100
AcDbEntity
  8
图层 02
100
AcDbVertex
100
AcDb2dVertex
 10
272.4377055671108
 20
144.1512326339501
 30
0.0
  0
VERTEX
  5
1E0
330
1CA
100
AcDbEntity
  8
图层 02
100
AcDbVertex
100
AcDb2dVertex
 10
272.3804050848361
 20
144.3393590892924
 30
0.0
  0
VERTEX
  5
1E1
330
1CA
100
AcDbEntity
  8
图层 02
100
AcDbVertex
100
AcDb2dVertex
 10
272.3438625562324
 20
144.5947968611207
 30
0.0
  0
VERTEX
  5
1E2
330
1CA
100
AcDbEntity
  8
图层 02
100
AcDbVertex
100
AcDb2dVertex
 10
272.3134374377088
 20
144.6960623723613
 30
0.0
  0
VERTEX
  5
1E3
330
1CA
100
AcDbEntity
  8
图层 02
100
AcDbVertex
100
AcDb2dVertex
 10
272.3026356012886
 20
144.9019345580548
 30
0.0
  0
VERTEX
  5
1E4
330
1CA
100
AcDbEntity
  8
图层 02
100
AcDbVertex
100
AcDb2dVertex
 10
272.2970007597237
 20
145.5094505586875
 30
0.0
  0
SEQEND
  5
1E5
330
1CA
100
AcDbEntity
  8
图层 02
  0
POLYLINE
  5
1E6
330
1F
100
AcDbEntity
  8
图层 02
100
AcDb2dPolyline
 66
     1
 10
0.0
 20
0.0
 30
0.0
  0
VERTEX
  5
1E7
330
1E6
100
AcDbEntity
  8
图层 02
100
AcDbVertex
100
AcDb2dVertex
 10
272.2062975758834
 20
146.0131141189538
 30
0.0
  0
VERTEX
  5
1E8
330
1E6
100
AcDbEntity
  8
图层 02
100
AcDbVertex
100
AcDb2dVertex
 10
272.2068614454321
 20
146.0390703241456
 30
0.0
  0
VERTEX
  5
1E9
330
1E6
100
AcDbEntity
  8
图层 02
100
AcDbVertex
100
AcDb2dVertex
 10
272.2492518501621
 20
146.0390047378125
 30
0.0
  0
VERTEX
  5
1EA
330
1E6
100
AcDbEntity
  8
图层 02
100
AcDbVertex
100
AcDb2dVertex
 10
272.2717285591727
 20
146.0271564808789
 30
0.0
  0
VERTEX
  5
1EB
330
1E6
100
AcDbEntity
  8
图层 02
100
AcDbVertex
100
AcDb2dVertex
 10
272.3761350114016
 20
145.9274398664188
 30
0.0
  0
VERTEX
  5
1EC
330
1E6
100
AcDbEntity
  8
图层 02
100
AcDbVertex
100
AcDb2dVertex
 10
272.3717047470494
 20
145.9035383264789
 30
0.0
  0
VERTEX
  5
1ED
330
1E6
100
AcDbEntity
  8
图层 02
100
AcDbVertex
100
AcDb2dVertex
 10
272.3567054339791
 20
145.9029631944423
 30
0.0
  0
VERTEX
  5
1EE
330
1E6
100
AcDbEntity
  8
图层 02
100
AcDbVertex
100
AcDb2dVertex
 10
272.3184658131049
 20
145.9194063361365
 30
0.0
  0
VERTEX
  5
1EF
330
1E6
100
AcDbEntity
  8
图层 02
100
AcDbVertex
100
AcDb2dVertex
 10
272.259140202869
 20
145.9739520737569
 30
0.0
  0
VERTEX
  5
1F0
330
1E6
100
AcDbEntity
  8
图层 02
100
AcDbVertex
100
AcDb2dVertex
 10
272.2062975758834
 20
146.0131141189538
 30
0.0
  0
SEQEND
  5
1F1
330
1E6
100
AcDbEntity
  8
图层 02
  0
POLYLINE
  5
1F2
330
1F
100
AcDbEntity
  8
图层 02
100
AcDb2dPolyline
 66
     1
 10
0.0
 20
0.0
 30
0.0
  0
VERTEX
  5
1F3
330
1F2
100
AcDbEntity
  8
图层 02
100
AcDbVertex
100
AcDb2dVertex
 10
272.3360891605149
 20
147.2241011348934
 30
0.0
  0
VERTEX
  5
1F4
330
1F2
100
AcDbEntity
  8
图层 02
100
AcDbVertex
100
AcDb2dVertex
 10
272.3601941949249
 20
147.2255283878869
 30
0.0
  0
VERTEX
  5
1F5
330
1F2
100
AcDbEntity
  8
图层 02
100
AcDbVertex
100
AcDb2dVertex
 10
272.398920687765
 20
147.1955411868231
 30
0.0
  0
VERTEX
  5
1F6
330
1F2
100
AcDbEntity
  8
图层 02
100
AcDbVertex
100
AcDb2dVertex
 10
272.5124964672655
 20
147.0722752571156
 30
0.0
  0
VERTEX
  5
1F7
330
1F2
100
AcDbEntity
  8
图层 02
100
AcDbVertex
100
AcDb2dVertex
 10
272.5175277519058
 20
147.0350016516292
 30
0.0
  0
VERTEX
  5
1F8
330
1F2
100
AcDbEntity
  8
图层 02
100
AcDbVertex
100
AcDb2dVertex
 10
272.4976359293168
 20
147.0217573243666
 30
0.0
  0
VERTEX
  5
1F9
330
1F2
100
AcDbEntity
  8
图层 02
100
AcDbVertex
100
AcDb2dVertex
 10
272.4621181810841
 20
147.0399412915916
 30
0.0
  0
VERTEX
  5
1FA
330
1F2
100
AcDbEntity
  8
图层 02
100
AcDbVertex
100
AcDb2dVertex
 10
272.4078452897592
 20
147.1083938804775
 30
0.0
  0
VERTEX
  5
1FB
330
1F2
100
AcDbEntity
  8
图层 02
100
AcDbVertex
100
AcDb2dVertex
 10
272.3336116707296
 20
147.1966005505124
 30
0.0
  0
VERTEX
  5
1FC
330
1F2
100
AcDbEntity
  8
图层 02
100
AcDbVertex
100
AcDb2dVertex
 10
272.3360891605149
 20
147.2241011348934
 30
0.0
  0
SEQEND
  5
1FD
330
1F2
100
AcDbEntity
  8
图层 02
  0
POLYLINE
  5
1FE
330
1F
100
AcDbEntity
  8
图层 02
100
AcDb2dPolyline
 66
     1
 10
0.0
 20
0.0
 30
0.0
  0
VERTEX
  5
1FF
330
1FE
100
AcDbEntity
  8
图层 02
100
AcDbVertex
100
AcDb2dVertex
 10
272.2451838834635
 20
149.1227555229701
 30
0.0
  0
VERTEX
  5
200
330
1FE
100
AcDbEntity
  8
图层 02
100
AcDbVertex
100
AcDb2dVertex
 10
272.2400207614888
 20
149.1583877151594
 30
0.0
  0
VERTEX
  5
201
330
1FE
100
AcDbEntity
  8
图层 02
100
AcDbVertex
100
AcDb2dVertex
 10
272.2451795038024
 20
149.1795136457289
 30
0.0
  0
VERTEX
  5
202
330
1FE
100
AcDbEntity
  8
图层 02
100
AcDbVertex
100
AcDb2dVertex
 10
272.2666506031192
 20
149.2161181308443
 30
0.0
  0
VERTEX
  5
203
330
1FE
100
AcDbEntity
  8
图层 02
100
AcDbVertex
100
AcDb2dVertex
 10
272.2989537883356
 20
149.2569512600868
 30
0.0
  0
VERTEX
  5
204
330
1FE
100
AcDbEntity
  8
图层 02
100
AcDbVertex
100
AcDb2dVertex
 10
272.3544407574212
 20
149.2737544928412
 30
0.0
  0
VERTEX
  5
205
330
1FE
100
AcDbEntity
  8
图层 02
100
AcDbVertex
100
AcDb2dVertex
 10
272.4598261300412
 20
149.2622898147053
 30
0.0
  0
VERTEX
  5
206
330
1FE
100
AcDbEntity
  8
图层 02
100
AcDbVertex
100
AcDb2dVertex
 10
272.5100294683765
 20
149.2041831642167
 30
0.0
  0
VERTEX
  5
207
330
1FE
100
AcDbEntity
  8
图层 02
100
AcDbVertex
100
AcDb2dVertex
 10
272.518727916848
 20
149.1326461557753
 30
0.0
  0
VERTEX
  5
208
330
1FE
100
AcDbEntity
  8
图层 02
100
AcDbVertex
100
AcDb2dVertex
 10
272.5378478619415
 20
149.0864226676033
 30
0.0
  0
VERTEX
  5
209
330
1FE
100
AcDbEntity
  8
图层 02
100
AcDbVertex
100
AcDb2dVertex
 10
272.5479359037212
 20
148.9777991890205
 30
0.0
  0
VERTEX
  5
20A
330
1FE
100
AcDbEntity
  8
图层 02
100
AcDbVertex
100
AcDb2dVertex
 10
272.5210842520858
 20
148.8936225816562
 30
0.0
  0
VERTEX
  5
20B
330
1FE
100
AcDbEntity
  8
图层 02
100
AcDbVertex
100
AcDb2dVertex
 10
272.477998746546
 20
148.8538096073072
 30
0.0
  0
VERTEX
  5
20C
330
1FE
100
AcDbEntity
  8
图层 02
100
AcDbVertex
100
AcDb2dVertex
 10
272.4186137817882
 20
148.8538123349283
 30
0.0
  0
VERTEX
  5
20D
330
1FE
100
AcDbEntity
  8
图层 02
100
AcDbVertex
100
AcDb2dVertex
 10
272.3919876174527
 20
148.8991624516629
 30
0.0
  0
VERTEX
  5
20E
330
1FE
100
AcDbEntity
  8
图层 02
100
AcDbVertex
100
AcDb2dVertex
 10
272.2957406295631
 20
149.0722370194663
 30
0.0
  0
VERTEX
  5
20F
330
1FE
100
AcDbEntity
  8
图层 02
100
AcDbVertex
100
AcDb2dVertex
 10
272.2451838834635
 20
149.1227555229701
 30
0.0
  0
SEQEND
  5
210
330
1FE
100
AcDbEntity
  8
图层 02
  0
POLYLINE
  5
211
330
1F
100
AcDbEntity
  8
图层 02
100
AcDb2dPolyline
 66
     1
 10
0.0
 20
0.0
 30
0.0
  0
VERTEX
  5
212
330
211
100
AcDbEntity
  8
图层 02
100
AcDbVertex
100
AcDb2dVertex
 10
272.7084453114754
 20
147.999683185806
 30
0.0
  0
VERTEX
  5
213
330
211
100
AcDbEntity
  8
图层 02
100
AcDbVertex
100
AcDb2dVertex
 10
272.8987814285553
 20
147.992476560568
 30
0.0
  0
VERTEX
  5
214
330
211
100
AcDbEntity
  8
图层 02
100
AcDbVertex
100
AcDb2dVertex
 10
272.9393036966954
 20
147.9728025371199
 30
0.0
  0
VERTEX
  5
215
330
211
100
AcDbEntity
  8
图层 02
100
AcDbVertex
100
AcDb2dVertex
 10
273.0436730938031
 20
147.9583487352393
 30
0.0
  0
VERTEX
  5
216
330
211
100
AcDbEntity
  8
图层 02
100
AcDbVertex
100
AcDb2dVertex
 10
273.1100771129376
 20
147.9327315561549
 30
0.0
  0
VERTEX
  5
217
330
211
100
AcDbEntity
  8
图层 02
100
AcDbVertex
100
AcDb2dVertex
 10
273.148083704718
 20
147.9260264016472
 30
0.0
  0
VERTEX
  5
218
330
211
100
AcDbEntity
  8
图层 02
100
AcDbVertex
100
AcDb2dVertex
 10
273.2467017520754
 20
147.9058295128543
 30
0.0
  0
VERTEX
  5
219
330
211
100
AcDbEntity
  8
图层 02
100
AcDbVertex
100
AcDb2dVertex
 10
273.3030265516181
 20
147.8719344220432
 30
0.0
  0
VERTEX
  5
21A
330
211
100
AcDbEntity
  8
图层 02
100
AcDbVertex
100
AcDb2dVertex
 10
273.3508335258727
 20
147.854774460588
 30
0.0
  0
VERTEX
  5
21B
330
211
100
AcDbEntity
  8
图层 02
100
AcDbVertex
100
AcDb2dVertex
 10
273.3992532736464
 20
147.8349490617064
 30
0.0
  0
VERTEX
  5
21C
330
211
100
AcDbEntity
  8
图层 02
100
AcDbVertex
100
AcDb2dVertex
 10
273.4333944974704
 20
147.8162197844817
 30
0.0
  0
VERTEX
  5
21D
330
211
100
AcDbEntity
  8
图层 02
100
AcDbVertex
100
AcDb2dVertex
 10
273.4795718989549
 20
147.7952521717386
 30
0.0
  0
VERTEX
  5
21E
330
211
100
AcDbEntity
  8
图层 02
100
AcDbVertex
100
AcDb2dVertex
 10
273.6085470757452
 20
147.7248127618538
 30
0.0
  0
VERTEX
  5
21F
330
211
100
AcDbEntity
  8
图层 02
100
AcDbVertex
100
AcDb2dVertex
 10
273.636482002964
 20
147.6983682300741
 30
0.0
  0
VERTEX
  5
220
330
211
100
AcDbEntity
  8
图层 02
100
AcDbVertex
100
AcDb2dVertex
 10
273.7039275779961
 20
147.6579697670361
 30
0.0
  0
VERTEX
  5
221
330
211
100
AcDbEntity
  8
图层 02
100
AcDbVertex
100
AcDb2dVertex
 10
273.7743774007022
 20
147.6360081279733
 30
0.0
  0
VERTEX
  5
222
330
211
100
AcDbEntity
  8
图层 02
100
AcDbVertex
100
AcDb2dVertex
 10
273.8384130671959
 20
147.5875181676143
 30
0.0
  0
VERTEX
  5
223
330
211
100
AcDbEntity
  8
图层 02
100
AcDbVertex
100
AcDb2dVertex
 10
273.9734674562062
 20
147.4951134646979
 30
0.0
  0
VERTEX
  5
224
330
211
100
AcDbEntity
  8
图层 02
100
AcDbVertex
100
AcDb2dVertex
 10
274.0496973275573
 20
147.4316589966741
 30
0.0
  0
VERTEX
  5
225
330
211
100
AcDbEntity
  8
图层 02
100
AcDbVertex
100
AcDb2dVertex
 10
274.1165871883455
 20
147.365841523252
 30
0.0
  0
VERTEX
  5
226
330
211
100
AcDbEntity
  8
图层 02
100
AcDbVertex
100
AcDb2dVertex
 10
274.1812035807125
 20
147.2788087167243
 30
0.0
  0
VERTEX
  5
227
330
211
100
AcDbEntity
  8
图层 02
100
AcDbVertex
100
AcDb2dVertex
 10
274.2456916240272
 20
147.201438208267
 30
0.0
  0
VERTEX
  5
228
330
211
100
AcDbEntity
  8
图层 02
100
AcDbVertex
100
AcDb2dVertex
 10
274.277972865148
 20
147.1389815951136
 30
0.0
  0
VERTEX
  5
229
330
211
100
AcDbEntity
  8
图层 02
100
AcDbVertex
100
AcDb2dVertex
 10
274.2725759324565
 20
147.0963806631418
 30
0.0
  0
VERTEX
  5
22A
330
211
100
AcDbEntity
  8
图层 02
100
AcDbVertex
100
AcDb2dVertex
 10
274.2516556044362
 20
147.0617100997492
 30
0.0
  0
VERTEX
  5
22B
330
211
100
AcDbEntity
  8
图层 02
100
AcDbVertex
100
AcDb2dVertex
 10
274.1873850547057
 20
147.0566643411521
 30
0.0
  0
VERTEX
  5
22C
330
211
100
AcDbEntity
  8
图层 02
100
AcDbVertex
100
AcDb2dVertex
 10
274.1084576614326
 20
147.0750495907679
 30
0.0
  0
VERTEX
  5
22D
330
211
100
AcDbEntity
  8
图层 02
100
AcDbVertex
100
AcDb2dVertex
 10
273.948911317831
 20
147.1084230720793
 30
0.0
  0
VERTEX
  5
22E
330
211
100
AcDbEntity
  8
图层 02
100
AcDbVertex
100
AcDb2dVertex
 10
273.9186766002211
 20
147.1255711095197
 30
0.0
  0
VERTEX
  5
22F
330
211
100
AcDbEntity
  8
图层 02
100
AcDbVertex
100
AcDb2dVertex
 10
273.8426272745671
 20
147.1567857983182
 30
0.0
  0
VERTEX
  5
230
330
211
100
AcDbEntity
  8
图层 02
100
AcDbVertex
100
AcDb2dVertex
 10
273.7695606832681
 20
147.1934346590802
 30
0.0
  0
VERTEX
  5
231
330
211
100
AcDbEntity
  8
图层 02
100
AcDbVertex
100
AcDb2dVertex
 10
273.6520566350431
 20
147.2705330328132
 30
0.0
  0
VERTEX
  5
232
330
211
100
AcDbEntity
  8
图层 02
100
AcDbVertex
100
AcDb2dVertex
 10
273.4467775839769
 20
147.3964367579002
 30
0.0
  0
VERTEX
  5
233
330
211
100
AcDbEntity
  8
图层 02
100
AcDbVertex
100
AcDb2dVertex
 10
273.2661762643564
 20
147.5215764757807
 30
0.0
  0
VERTEX
  5
234
330
211
100
AcDbEntity
  8
图层 02
100
AcDbVertex
100
AcDb2dVertex
 10
273.1859095677613
 20
147.586511254427
 30
0.0
  0
VERTEX
  5
235
330
211
100
AcDbEntity
  8
图层 02
100
AcDbVertex
100
AcDb2dVertex
 10
273.062355593553
 20
147.6767986507157
 30
0.0
  0
VERTEX
  5
236
330
211
100
AcDbEntity
  8
图层 02
100
AcDbVertex
100
AcDb2dVertex
 10
273.0260735137506
 20
147.6977807407561
 30
0.0
  0
VERTEX
  5
237
330
211
100
AcDbEntity
  8
图层 02
100
AcDbVertex
100
AcDb2dVertex
 10
272.9770211953432
 20
147.7450829274209
 30
0.0
  0
VERTEX
  5
238
330
211
100
AcDbEntity
  8
图层 02
100
AcDbVertex
100
AcDb2dVertex
 10
272.9138401142259
 20
147.7879424676591
 30
0.0
  0
VERTEX
  5
239
330
211
100
AcDbEntity
  8
图层 02
100
AcDbVertex
100
AcDb2dVertex
 10
272.807055355506
 20
147.8765235575287
 30
0.0
  0
VERTEX
  5
23A
330
211
100
AcDbEntity
  8
图层 02
100
AcDbVertex
100
AcDb2dVertex
 10
272.7710175143884
 20
147.8963023419353
 30
0.0
  0
VERTEX
  5
23B
330
211
100
AcDbEntity
  8
图层 02
100
AcDbVertex
100
AcDb2dVertex
 10
272.7164672036174
 20
147.94094889095
 30
0.0
  0
VERTEX
  5
23C
330
211
100
AcDbEntity
  8
图层 02
100
AcDbVertex
100
AcDb2dVertex
 10
272.6993242155676
 20
147.9571988886916
 30
0.0
  0
VERTEX
  5
23D
330
211
100
AcDbEntity
  8
图层 02
100
AcDbVertex
100
AcDb2dVertex
 10
272.701182317021
 20
147.9831151501251
 30
0.0
  0
VERTEX
  5
23E
330
211
100
AcDbEntity
  8
图层 02
100
AcDbVertex
100
AcDb2dVertex
 10
272.7084453114754
 20
147.999683185806
 30
0.0
  0
SEQEND
  5
23F
330
211
100
AcDbEntity
  8
图层 02
  0
POLYLINE
  5
240
330
1F
100
AcDbEntity
  8
图层 02
100
AcDb2dPolyline
 66
     1
 10
0.0
 20
0.0
 30
0.0
  0
VERTEX
  5
241
330
240
100
AcDbEntity
  8
图层 02
100
AcDbVertex
100
AcDb2dVertex
 10
271.1651099184539
 20
147.3797122484906
 30
0.0
  0
VERTEX
  5
242
330
240
100
AcDbEntity
  8
图层 02
100
AcDbVertex
100
AcDb2dVertex
 10
271.1986374616301
 20
147.3783434729313
 30
0.0
  0
VERTEX
  5
243
330
240
100
AcDbEntity
  8
图层 02
100
AcDbVertex
100
AcDb2dVertex
 10
271.3077376111565
 20
147.3036503351373
 30
0.0
  0
VERTEX
  5
244
330
240
100
AcDbEntity
  8
图层 02
100
AcDbVertex
100
AcDb2dVertex
 10
271.4518278167481
 20
147.2091203294191
 30
0.0
  0
VERTEX
  5
245
330
240
100
AcDbEntity
  8
图层 02
100
AcDbVertex
100
AcDb2dVertex
 10
271.6846364765735
 20
147.0222527381916
 30
0.0
  0
VERTEX
  5
246
330
240
100
AcDbEntity
  8
图层 02
100
AcDbVertex
100
AcDb2dVertex
 10
271.819855369677
 20
146.9302989621883
 30
0.0
  0
VERTEX
  5
247
330
240
100
AcDbEntity
  8
图层 02
100
AcDbVertex
100
AcDb2dVertex
 10
271.8414745157305
 20
146.8978772335593
 30
0.0
  0
VERTEX
  5
248
330
240
100
AcDbEntity
  8
图层 02
100
AcDbVertex
100
AcDb2dVertex
 10
271.8773322332543
 20
146.8795210088922
 30
0.0
  0
VERTEX
  5
249
330
240
100
AcDbEntity
  8
图层 02
100
AcDbVertex
100
AcDb2dVertex
 10
271.9817037179488
 20
146.787471621823
 30
0.0
  0
VERTEX
  5
24A
330
240
100
AcDbEntity
  8
图层 02
100
AcDbVertex
100
AcDb2dVertex
 10
272.0452009152783
 20
146.7132720964558
 30
0.0
  0
VERTEX
  5
24B
330
240
100
AcDbEntity
  8
图层 02
100
AcDbVertex
100
AcDb2dVertex
 10
272.0410707995837
 20
146.6918216174286
 30
0.0
  0
VERTEX
  5
24C
330
240
100
AcDbEntity
  8
图层 02
100
AcDbVertex
100
AcDb2dVertex
 10
272.0004329376839
 20
146.6857763932941
 30
0.0
  0
VERTEX
  5
24D
330
240
100
AcDbEntity
  8
图层 02
100
AcDbVertex
100
AcDb2dVertex
 10
271.9192252795632
 20
146.725381877869
 30
0.0
  0
VERTEX
  5
24E
330
240
100
AcDbEntity
  8
图层 02
100
AcDbVertex
100
AcDb2dVertex
 10
271.8876587756607
 20
146.755002517841
 30
0.0
  0
VERTEX
  5
24F
330
240
100
AcDbEntity
  8
图层 02
100
AcDbVertex
100
AcDb2dVertex
 10
271.8454856473945
 20
146.7851253475017
 30
0.0
  0
VERTEX
  5
250
330
240
100
AcDbEntity
  8
图层 02
100
AcDbVertex
100
AcDb2dVertex
 10
271.6374236681862
 20
146.9219704764279
 30
0.0
  0
VERTEX
  5
251
330
240
100
AcDbEntity
  8
图层 02
100
AcDbVertex
100
AcDb2dVertex
 10
271.4918219987476
 20
147.029555175261
 30
0.0
  0
VERTEX
  5
252
330
240
100
AcDbEntity
  8
图层 02
100
AcDbVertex
100
AcDb2dVertex
 10
271.4280280722877
 20
147.0909202572043
 30
0.0
  0
VERTEX
  5
253
330
240
100
AcDbEntity
  8
图层 02
100
AcDbVertex
100
AcDb2dVertex
 10
271.2772203308152
 20
147.2094160770237
 30
0.0
  0
VERTEX
  5
254
330
240
100
AcDbEntity
  8
图层 02
100
AcDbVertex
100
AcDb2dVertex
 10
271.2276787898722
 20
147.2607052274085
 30
0.0
  0
VERTEX
  5
255
330
240
100
AcDbEntity
  8
图层 02
100
AcDbVertex
100
AcDb2dVertex
 10
271.1863975770383
 20
147.2961865716165
 30
0.0
  0
VERTEX
  5
256
330
240
100
AcDbEntity
  8
图层 02
100
AcDbVertex
100
AcDb2dVertex
 10
271.1614295665266
 20
147.3438027365005
 30
0.0
  0
VERTEX
  5
257
330
240
100
AcDbEntity
  8
图层 02
100
AcDbVertex
100
AcDb2dVertex
 10
271.1651099184539
 20
147.3797122484906
 30
0.0
  0
SEQEND
  5
258
330
240
100
AcDbEntity
  8
图层 02
  0
POLYLINE
  5
259
330
1F
100
AcDbEntity
  8
图层 02
100
AcDb2dPolyline
 66
     1
 10
0.0
 20
0.0
 30
0.0
  0
VERTEX
  5
25A
330
259
100
AcDbEntity
  8
图层 02
100
AcDbVertex
100
AcDb2dVertex
 10
272.6504809773003
 20
142.1228766486838
 30
0.0
  0
VERTEX
  5
25B
330
259
100
AcDbEntity
  8
图层 02
100
AcDbVertex
100
AcDb2dVertex
 10
272.5998327926958
 20
142.1947574108357
 30
0.0
  0
VERTEX
  5
25C
330
259
100
AcDbEntity
  8
图层 02
100
AcDbVertex
100
AcDb2dVertex
 10
272.6068174229076
 20
142.231267750164
 30
0.0
  0
VERTEX
  5
25D
330
259
100
AcDbEntity
  8
图层 02
100
AcDbVertex
100
AcDb2dVertex
 10
272.6391988637212
 20
142.2493321927293
 30
0.0
  0
VERTEX
  5
25E
330
259
100
AcDbEntity
  8
图层 02
100
AcDbVertex
100
AcDb2dVertex
 10
272.6715008941703
 20
142.2452403095669
 30
0.0
  0
VERTEX
  5
25F
330
259
100
AcDbEntity
  8
图层 02
100
AcDbVertex
100
AcDb2dVertex
 10
272.7600811914864
 20
142.1848796163282
 30
0.0
  0
VERTEX
  5
260
330
259
100
AcDbEntity
  8
图层 02
100
AcDbVertex
100
AcDb2dVertex
 10
272.7944789585981
 20
142.1256263141139
 30
0.0
  0
VERTEX
  5
261
330
259
100
AcDbEntity
  8
图层 02
100
AcDbVertex
100
AcDb2dVertex
 10
272.8345941983679
 20
142.0678072440294
 30
0.0
  0
VERTEX
  5
262
330
259
100
AcDbEntity
  8
图层 02
100
AcDbVertex
100
AcDb2dVertex
 10
272.8460132584534
 20
142.0263854108694
 30
0.0
  0
VERTEX
  5
263
330
259
100
AcDbEntity
  8
图层 02
100
AcDbVertex
100
AcDb2dVertex
 10
272.8412710160627
 20
142.0013771960394
 30
0.0
  0
VERTEX
  5
264
330
259
100
AcDbEntity
  8
图层 02
100
AcDbVertex
100
AcDb2dVertex
 10
272.8184638165235
 20
141.9874402455623
 30
0.0
  0
VERTEX
  5
265
330
259
100
AcDbEntity
  8
图层 02
100
AcDbVertex
100
AcDb2dVertex
 10
272.7912689377913
 20
141.9939037270969
 30
0.0
  0
VERTEX
  5
266
330
259
100
AcDbEntity
  8
图层 02
100
AcDbVertex
100
AcDb2dVertex
 10
272.6884382615986
 20
142.0834449859042
 30
0.0
  0
VERTEX
  5
267
330
259
100
AcDbEntity
  8
图层 02
100
AcDbVertex
100
AcDb2dVertex
 10
272.6504809773003
 20
142.1228766486838
 30
0.0
  0
SEQEND
  5
268
330
259
100
AcDbEntity
  8
图层 02
  0
POLYLINE
  5
269
330
1F
100
AcDbEntity
  8
图层 02
100
AcDb2dPolyline
 66
     1
 10
0.0
 20
0.0
 30
0.0
  0
VERTEX
  5
26A
330
269
100
AcDbEntity
  8
图层 02
100
AcDbVertex
100
AcDb2dVertex
 10
272.8885088442546
 20
140.840449211466
 30
0.0
  0
VERTEX
  5
26B
330
269
100
AcDbEntity
  8
图层 02
100
AcDbVertex
100
AcDb2dVertex
 10
272.8430699259949
 20
140.8519471929961
 30
0.0
  0
VERTEX
  5
26C
330
269
100
AcDbEntity
  8
图层 02
100
AcDbVertex
100
AcDb2dVertex
 10
272.7703027345443
 20
140.9090932273275
 30
0.0
  0
VERTEX
  5
26D
330
269
100
AcDbEntity
  8
图层 02
100
AcDbVertex
100
AcDb2dVertex
 10
272.7296213085374
 20
140.9621928181101
 30
0.0
  0
VERTEX
  5
26E
330
269
100
AcDbEntity
  8
图层 02
100
AcDbVertex
100
AcDb2dVertex
 10
272.7532597470328
 20
140.9833349992354
 30
0.0
  0
VERTEX
  5
26F
330
269
100
AcDbEntity
  8
图层 02
100
AcDbVertex
100
AcDb2dVertex
 10
272.8132139739596
 20
140.9687319474366
 30
0.0
  0
VERTEX
  5
270
330
269
100
AcDbEntity
  8
图层 02
100
AcDbVertex
100
AcDb2dVertex
 10
272.8704506063647
 20
140.9264703780805
 30
0.0
  0
VERTEX
  5
271
330
269
100
AcDbEntity
  8
图层 02
100
AcDbVertex
100
AcDb2dVertex
 10
272.9021953698582
 20
140.8899005562228
 30
0.0
  0
VERTEX
  5
272
330
269
100
AcDbEntity
  8
图层 02
100
AcDbVertex
100
AcDb2dVertex
 10
272.9112442568419
 20
140.865937631784
 30
0.0
  0
VERTEX
  5
273
330
269
100
AcDbEntity
  8
图层 02
100
AcDbVertex
100
AcDb2dVertex
 10
272.8995948070839
 20
140.8427952545987
 30
0.0
  0
VERTEX
  5
274
330
269
100
AcDbEntity
  8
图层 02
100
AcDbVertex
100
AcDb2dVertex
 10
272.8885088442546
 20
140.840449211466
 30
0.0
  0
SEQEND
  5
275
330
269
100
AcDbEntity
  8
图层 02
  0
POLYLINE
  5
276
330
1F
100
AcDbEntity
  8
图层 02
100
AcDb2dPolyline
 66
     1
 10
0.0
 20
0.0
 30
0.0
  0
VERTEX
  5
277
330
276
100
AcDbEntity
  8
图层 02
100
AcDbVertex
100
AcDb2dVertex
 10
271.0532691022622
 20
143.8555657498334
 30
0.0
  0
VERTEX
  5
278
330
276
100
AcDbEntity
  8
图层 02
100
AcDbVertex
100
AcDb2dVertex
 10
271.0392582451209
 20
143.8540332505067
 30
0.0
  0
VERTEX
  5
279
330
276
100
AcDbEntity
  8
图层 02
100
AcDbVertex
100
AcDb2dVertex
 10
271.0089758220726
 20
143.8340555741553
 30
0.0
  0
VERTEX
  5
27A
330
276
100
AcDbEntity
  8
图层 02
100
AcDbVertex
100
AcDb2dVertex
 10
270.9666314065386
 20
143.8214340064538
 30
0.0
  0
VERTEX
  5
27B
330
276
100
AcDbEntity
  8
图层 02
100
AcDbVertex
100
AcDb2dVertex
 10
270.9271780828284
 20
143.8253792448172
 30
0.0
  0
VERTEX
  5
27C
330
276
100
AcDbEntity
  8
图层 02
100
AcDbVertex
100
AcDb2dVertex
 10
270.8736660737586
 20
143.8890455166147
 30
0.0
  0
VERTEX
  5
27D
330
276
100
AcDbEntity
  8
图层 02
100
AcDbVertex
100
AcDb2dVertex
 10
270.7924789064742
 20
144.1193662439939
 30
0.0
  0
VERTEX
  5
27E
330
276
100
AcDbEntity
  8
图层 02
100
AcDbVertex
100
AcDb2dVertex
 10
270.7349772964196
 20
144.4995687723307
 30
0.0
  0
VERTEX
  5
27F
330
276
100
AcDbEntity
  8
图层 02
100
AcDbVertex
100
AcDb2dVertex
 10
270.7084574084561
 20
144.9389826245157
 30
0.0
  0
VERTEX
  5
280
330
276
100
AcDbEntity
  8
图层 02
100
AcDbVertex
100
AcDb2dVertex
 10
270.7449846629628
 20
145.2097335280964
 30
0.0
  0
VERTEX
  5
281
330
276
100
AcDbEntity
  8
图层 02
100
AcDbVertex
100
AcDb2dVertex
 10
270.8528321361759
 20
145.5269797292237
 30
0.0
  0
VERTEX
  5
282
330
276
100
AcDbEntity
  8
图层 02
100
AcDbVertex
100
AcDb2dVertex
 10
271.0327625637192
 20
145.7539768760483
 30
0.0
  0
VERTEX
  5
283
330
276
100
AcDbEntity
  8
图层 02
100
AcDbVertex
100
AcDb2dVertex
 10
271.2804552589307
 20
145.9447925498345
 30
0.0
  0
VERTEX
  5
284
330
276
100
AcDbEntity
  8
图层 02
100
AcDbVertex
100
AcDb2dVertex
 10
271.4697343921782
 20
146.0311577360206
 30
0.0
  0
VERTEX
  5
285
330
276
100
AcDbEntity
  8
图层 02
100
AcDbVertex
100
AcDb2dVertex
 10
271.8039433745546
 20
146.0306651986528
 30
0.0
  0
VERTEX
  5
286
330
276
100
AcDbEntity
  8
图层 02
100
AcDbVertex
100
AcDb2dVertex
 10
271.9804512257678
 20
145.9419733803522
 30
0.0
  0
VERTEX
  5
287
330
276
100
AcDbEntity
  8
图层 02
100
AcDbVertex
100
AcDb2dVertex
 10
272.1234344572572
 20
145.8223396456439
 30
0.0
  0
VERTEX
  5
288
330
276
100
AcDbEntity
  8
图层 02
100
AcDbVertex
100
AcDb2dVertex
 10
272.1774762414266
 20
145.7424205953807
 30
0.0
  0
VERTEX
  5
289
330
276
100
AcDbEntity
  8
图层 02
100
AcDbVertex
100
AcDb2dVertex
 10
272.2123286242168
 20
145.6431701201128
 30
0.0
  0
VERTEX
  5
28A
330
276
100
AcDbEntity
  8
图层 02
100
AcDbVertex
100
AcDb2dVertex
 10
272.2367885463235
 20
145.508913799968
 30
0.0
  0
VERTEX
  5
28B
330
276
100
AcDbEntity
  8
图层 02
100
AcDbVertex
100
AcDb2dVertex
 10
272.2416809149371
 20
144.7898703821022
 30
0.0
  0
VERTEX
  5
28C
330
276
100
AcDbEntity
  8
图层 02
100
AcDbVertex
100
AcDb2dVertex
 10
272.2472119746924
 20
144.6879341641741
 30
0.0
  0
VERTEX
  5
28D
330
276
100
AcDbEntity
  8
图层 02
100
AcDbVertex
100
AcDb2dVertex
 10
272.2646152814058
 20
144.6213352652406
 30
0.0
  0
VERTEX
  5
28E
330
276
100
AcDbEntity
  8
图层 02
100
AcDbVertex
100
AcDb2dVertex
 10
272.2745740405977
 20
144.5239300682613
 30
0.0
  0
VERTEX
  5
28F
330
276
100
AcDbEntity
  8
图层 02
100
AcDbVertex
100
AcDb2dVertex
 10
272.2964356938794
 20
144.4742859823685
 30
0.0
  0
VERTEX
  5
290
330
276
100
AcDbEntity
  8
图层 02
100
AcDbVertex
100
AcDb2dVertex
 10
272.3141673234653
 20
144.358819864758
 30
0.0
  0
VERTEX
  5
291
330
276
100
AcDbEntity
  8
图层 02
100
AcDbVertex
100
AcDb2dVertex
 10
272.3062115168364
 20
144.3163240742648
 30
0.0
  0
VERTEX
  5
292
330
276
100
AcDbEntity
  8
图层 02
100
AcDbVertex
100
AcDb2dVertex
 10
272.2748784310805
 20
144.3082949235225
 30
0.0
  0
VERTEX
  5
293
330
276
100
AcDbEntity
  8
图层 02
100
AcDbVertex
100
AcDb2dVertex
 10
272.2095722084532
 20
144.3128633034828
 30
0.0
  0
VERTEX
  5
294
330
276
100
AcDbEntity
  8
图层 02
100
AcDbVertex
100
AcDb2dVertex
 10
272.1651793550314
 20
144.3406845816322
 30
0.0
  0
VERTEX
  5
295
330
276
100
AcDbEntity
  8
图层 02
100
AcDbVertex
100
AcDb2dVertex
 10
272.1049567191959
 20
144.3590200864684
 30
0.0
  0
VERTEX
  5
296
330
276
100
AcDbEntity
  8
图层 02
100
AcDbVertex
100
AcDb2dVertex
 10
272.0458793517663
 20
144.3951287277647
 30
0.0
  0
VERTEX
  5
297
330
276
100
AcDbEntity
  8
图层 02
100
AcDbVertex
100
AcDb2dVertex
 10
271.9462105382872
 20
144.4453848630763
 30
0.0
  0
VERTEX
  5
298
330
276
100
AcDbEntity
  8
图层 02
100
AcDbVertex
100
AcDb2dVertex
 10
271.8333314690889
 20
144.5124083650921
 30
0.0
  0
VERTEX
  5
299
330
276
100
AcDbEntity
  8
图层 02
100
AcDbVertex
100
AcDb2dVertex
 10
271.768427947592
 20
144.5446897027406
 30
0.0
  0
VERTEX
  5
29A
330
276
100
AcDbEntity
  8
图层 02
100
AcDbVertex
100
AcDb2dVertex
 10
271.595013244148
 20
144.6406072624377
 30
0.0
  0
VERTEX
  5
29B
330
276
100
AcDbEntity
  8
图层 02
100
AcDbVertex
100
AcDb2dVertex
 10
271.5221489227594
 20
144.7053333671705
 30
0.0
  0
VERTEX
  5
29C
330
276
100
AcDbEntity
  8
图层 02
100
AcDbVertex
100
AcDb2dVertex
 10
271.4519381227734
 20
144.7401149463932
 30
0.0
  0
VERTEX
  5
29D
330
276
100
AcDbEntity
  8
图层 02
100
AcDbVertex
100
AcDb2dVertex
 10
271.3795112940234
 20
144.7996558283376
 30
0.0
  0
VERTEX
  5
29E
330
276
100
AcDbEntity
  8
图层 02
100
AcDbVertex
100
AcDb2dVertex
 10
271.3112456902808
 20
144.8631172653378
 30
0.0
  0
VERTEX
  5
29F
330
276
100
AcDbEntity
  8
图层 02
100
AcDbVertex
100
AcDb2dVertex
 10
271.252734485374
 20
144.8889515998453
 30
0.0
  0
VERTEX
  5
2A0
330
276
100
AcDbEntity
  8
图层 02
100
AcDbVertex
100
AcDb2dVertex
 10
271.2064545265544
 20
144.8733935693975
 30
0.0
  0
VERTEX
  5
2A1
330
276
100
AcDbEntity
  8
图层 02
100
AcDbVertex
100
AcDb2dVertex
 10
271.2049837001214
 20
144.8232006030521
 30
0.0
  0
VERTEX
  5
2A2
330
276
100
AcDbEntity
  8
图层 02
100
AcDbVertex
100
AcDb2dVertex
 10
271.2636279781817
 20
144.7565063735498
 30
0.0
  0
VERTEX
  5
2A3
330
276
100
AcDbEntity
  8
图层 02
100
AcDbVertex
100
AcDb2dVertex
 10
271.4674878029107
 20
144.6175494334664
 30
0.0
  0
VERTEX
  5
2A4
330
276
100
AcDbEntity
  8
图层 02
100
AcDbVertex
100
AcDb2dVertex
 10
271.7927746559311
 20
144.4111815528661
 30
0.0
  0
VERTEX
  5
2A5
330
276
100
AcDbEntity
  8
图层 02
100
AcDbVertex
100
AcDb2dVertex
 10
272.0972385291163
 20
144.2560350382765
 30
0.0
  0
VERTEX
  5
2A6
330
276
100
AcDbEntity
  8
图层 02
100
AcDbVertex
100
AcDb2dVertex
 10
272.2818687532143
 20
144.2183407552723
 30
0.0
  0
VERTEX
  5
2A7
330
276
100
AcDbEntity
  8
图层 02
100
AcDbVertex
100
AcDb2dVertex
 10
272.3357634804431
 20
144.2042382997467
 30
0.0
  0
VERTEX
  5
2A8
330
276
100
AcDbEntity
  8
图层 02
100
AcDbVertex
100
AcDb2dVertex
 10
272.3863935396403
 20
144.0980974894144
 30
0.0
  0
VERTEX
  5
2A9
330
276
100
AcDbEntity
  8
图层 02
100
AcDbVertex
100
AcDb2dVertex
 10
272.4036619527998
 20
144.0335695709542
 30
0.0
  0
VERTEX
  5
2AA
330
276
100
AcDbEntity
  8
图层 02
100
AcDbVertex
100
AcDb2dVertex
 10
272.4454186975639
 20
143.8907215228832
 30
0.0
  0
VERTEX
  5
2AB
330
276
100
AcDbEntity
  8
图层 02
100
AcDbVertex
100
AcDb2dVertex
 10
272.4829987165249
 20
143.8231726040093
 30
0.0
  0
VERTEX
  5
2AC
330
276
100
AcDbEntity
  8
图层 02
100
AcDbVertex
100
AcDb2dVertex
 10
272.5572033167932
 20
143.6577273149295
 30
0.0
  0
VERTEX
  5
2AD
330
276
100
AcDbEntity
  8
图层 02
100
AcDbVertex
100
AcDb2dVertex
 10
272.6691049021038
 20
143.4853115351924
 30
0.0
  0
VERTEX
  5
2AE
330
276
100
AcDbEntity
  8
图层 02
100
AcDbVertex
100
AcDb2dVertex
 10
272.7317364342462
 20
143.4295199836964
 30
0.0
  0
VERTEX
  5
2AF
330
276
100
AcDbEntity
  8
图层 02
100
AcDbVertex
100
AcDb2dVertex
 10
272.7986770910961
 20
143.4064304560148
 30
0.0
  0
VERTEX
  5
2B0
330
276
100
AcDbEntity
  8
图层 02
100
AcDbVertex
100
AcDb2dVertex
 10
272.8412635220429
 20
143.4210935699947
 30
0.0
  0
VERTEX
  5
2B1
330
276
100
AcDbEntity
  8
图层 02
100
AcDbVertex
100
AcDb2dVertex
 10
272.914993691561
 20
143.4940073088175
 30
0.0
  0
VERTEX
  5
2B2
330
276
100
AcDbEntity
  8
图层 02
100
AcDbVertex
100
AcDb2dVertex
 10
272.9490266804619
 20
143.5928757436805
 30
0.0
  0
VERTEX
  5
2B3
330
276
100
AcDbEntity
  8
图层 02
100
AcDbVertex
100
AcDb2dVertex
 10
272.9470549957154
 20
143.7604103591928
 30
0.0
  0
VERTEX
  5
2B4
330
276
100
AcDbEntity
  8
图层 02
100
AcDbVertex
100
AcDb2dVertex
 10
272.91701106938
 20
144.0778445064175
 30
0.0
  0
VERTEX
  5
2B5
330
276
100
AcDbEntity
  8
图层 02
100
AcDbVertex
100
AcDb2dVertex
 10
272.8697761513548
 20
144.3376583738761
 30
0.0
  0
VERTEX
  5
2B6
330
276
100
AcDbEntity
  8
图层 02
100
AcDbVertex
100
AcDb2dVertex
 10
272.6891196710006
 20
144.8950289333314
 30
0.0
  0
VERTEX
  5
2B7
330
276
100
AcDbEntity
  8
图层 02
100
AcDbVertex
100
AcDb2dVertex
 10
272.5742817002284
 20
145.2056282486917
 30
0.0
  0
VERTEX
  5
2B8
330
276
100
AcDbEntity
  8
图层 02
100
AcDbVertex
100
AcDb2dVertex
 10
272.3829181541797
 20
145.5697007161336
 30
0.0
  0
VERTEX
  5
2B9
330
276
100
AcDbEntity
  8
图层 02
100
AcDbVertex
100
AcDb2dVertex
 10
272.3510212863921
 20
145.6337238638035
 30
0.0
  0
VERTEX
  5
2BA
330
276
100
AcDbEntity
  8
图层 02
100
AcDbVertex
100
AcDb2dVertex
 10
272.3182135748739
 20
145.6700144599322
 30
0.0
  0
VERTEX
  5
2BB
330
276
100
AcDbEntity
  8
图层 02
100
AcDbVertex
100
AcDb2dVertex
 10
272.3038383221501
 20
145.6973789491357
 30
0.0
  0
VERTEX
  5
2BC
330
276
100
AcDbEntity
  8
图层 02
100
AcDbVertex
100
AcDb2dVertex
 10
272.2735818773145
 20
145.786719411339
 30
0.0
  0
VERTEX
  5
2BD
330
276
100
AcDbEntity
  8
图层 02
100
AcDbVertex
100
AcDb2dVertex
 10
272.2809554327341
 20
145.828611053804
 30
0.0
  0
VERTEX
  5
2BE
330
276
100
AcDbEntity
  8
图层 02
100
AcDbVertex
100
AcDb2dVertex
 10
272.3203160295486
 20
145.8274089027245
 30
0.0
  0
VERTEX
  5
2BF
330
276
100
AcDbEntity
  8
图层 02
100
AcDbVertex
100
AcDb2dVertex
 10
272.3547243078906
 20
145.7960724145438
 30
0.0
  0
VERTEX
  5
2C0
330
276
100
AcDbEntity
  8
图层 02
100
AcDbVertex
100
AcDb2dVertex
 10
272.4171167078514
 20
145.7588950627485
 30
0.0
  0
VERTEX
  5
2C1
330
276
100
AcDbEntity
  8
图层 02
100
AcDbVertex
100
AcDb2dVertex
 10
272.4706659114512
 20
145.7421953279642
 30
0.0
  0
VERTEX
  5
2C2
330
276
100
AcDbEntity
  8
图层 02
100
AcDbVertex
100
AcDb2dVertex
 10
272.5208690401872
 20
145.7138892437583
 30
0.0
  0
VERTEX
  5
2C3
330
276
100
AcDbEntity
  8
图层 02
100
AcDbVertex
100
AcDb2dVertex
 10
272.5682915455581
 20
145.6246621285082
 30
0.0
  0
VERTEX
  5
2C4
330
276
100
AcDbEntity
  8
图层 02
100
AcDbVertex
100
AcDb2dVertex
 10
272.6324162466963
 20
145.5203466501085
 30
0.0
  0
VERTEX
  5
2C5
330
276
100
AcDbEntity
  8
图层 02
100
AcDbVertex
100
AcDb2dVertex
 10
272.640708212597
 20
145.4759105789373
 30
0.0
  0
VERTEX
  5
2C6
330
276
100
AcDbEntity
  8
图层 02
100
AcDbVertex
100
AcDb2dVertex
 10
272.6289140108063
 20
145.4520260841253
 30
0.0
  0
VERTEX
  5
2C7
330
276
100
AcDbEntity
  8
图层 02
100
AcDbVertex
100
AcDb2dVertex
 10
272.5930357472707
 20
145.4257604135488
 30
0.0
  0
VERTEX
  5
2C8
330
276
100
AcDbEntity
  8
图层 02
100
AcDbVertex
100
AcDb2dVertex
 10
272.5908199031106
 20
145.3995057489098
 30
0.0
  0
VERTEX
  5
2C9
330
276
100
AcDbEntity
  8
图层 02
100
AcDbVertex
100
AcDb2dVertex
 10
272.638893166707
 20
145.3203628594227
 30
0.0
  0
VERTEX
  5
2CA
330
276
100
AcDbEntity
  8
图层 02
100
AcDbVertex
100
AcDb2dVertex
 10
272.7238104527482
 20
145.2388091313927
 30
0.0
  0
VERTEX
  5
2CB
330
276
100
AcDbEntity
  8
图层 02
100
AcDbVertex
100
AcDb2dVertex
 10
272.7670912829692
 20
145.2514263494311
 30
0.0
  0
VERTEX
  5
2CC
330
276
100
AcDbEntity
  8
图层 02
100
AcDbVertex
100
AcDb2dVertex
 10
272.7927959656947
 20
145.3117914505108
 30
0.0
  0
VERTEX
  5
2CD
330
276
100
AcDbEntity
  8
图层 02
100
AcDbVertex
100
AcDb2dVertex
 10
272.7833552840751
 20
145.4067360313618
 30
0.0
  0
VERTEX
  5
2CE
330
276
100
AcDbEntity
  8
图层 02
100
AcDbVertex
100
AcDb2dVertex
 10
272.6639044272187
 20
145.6552827213769
 30
0.0
  0
VERTEX
  5
2CF
330
276
100
AcDbEntity
  8
图层 02
100
AcDbVertex
100
AcDb2dVertex
 10
272.6402598200992
 20
145.7278662288085
 30
0.0
  0
VERTEX
  5
2D0
330
276
100
AcDbEntity
  8
图层 02
100
AcDbVertex
100
AcDb2dVertex
 10
272.6537222685873
 20
145.7676765561099
 30
0.0
  0
VERTEX
  5
2D1
330
276
100
AcDbEntity
  8
图层 02
100
AcDbVertex
100
AcDb2dVertex
 10
272.6741163376137
 20
145.8228807061342
 30
0.0
  0
VERTEX
  5
2D2
330
276
100
AcDbEntity
  8
图层 02
100
AcDbVertex
100
AcDb2dVertex
 10
272.6909281146966
 20
145.8929454039052
 30
0.0
  0
VERTEX
  5
2D3
330
276
100
AcDbEntity
  8
图层 02
100
AcDbVertex
100
AcDb2dVertex
 10
272.6922905359784
 20
145.950277209175
 30
0.0
  0
VERTEX
  5
2D4
330
276
100
AcDbEntity
  8
图层 02
100
AcDbVertex
100
AcDb2dVertex
 10
272.6366507112357
 20
146.0847319325187
 30
0.0
  0
VERTEX
  5
2D5
330
276
100
AcDbEntity
  8
图层 02
100
AcDbVertex
100
AcDb2dVertex
 10
272.552108032536
 20
146.2503833830586
 30
0.0
  0
VERTEX
  5
2D6
330
276
100
AcDbEntity
  8
图层 02
100
AcDbVertex
100
AcDb2dVertex
 10
272.4791232428462
 20
146.3423378085204
 30
0.0
  0
VERTEX
  5
2D7
330
276
100
AcDbEntity
  8
图层 02
100
AcDbVertex
100
AcDb2dVertex
 10
272.4419850023662
 20
146.4058748870363
 30
0.0
  0
VERTEX
  5
2D8
330
276
100
AcDbEntity
  8
图层 02
100
AcDbVertex
100
AcDb2dVertex
 10
272.4370695644339
 20
146.4285063709275
 30
0.0
  0
VERTEX
  5
2D9
330
276
100
AcDbEntity
  8
图层 02
100
AcDbVertex
100
AcDb2dVertex
 10
272.4436156600696
 20
146.4558889718791
 30
0.0
  0
VERTEX
  5
2DA
330
276
100
AcDbEntity
  8
图层 02
100
AcDbVertex
100
AcDb2dVertex
 10
272.4690510897171
 20
146.4814457631857
 30
0.0
  0
VERTEX
  5
2DB
330
276
100
AcDbEntity
  8
图层 02
100
AcDbVertex
100
AcDb2dVertex
 10
272.5238343446761
 20
146.5131720276594
 30
0.0
  0
VERTEX
  5
2DC
330
276
100
AcDbEntity
  8
图层 02
100
AcDbVertex
100
AcDb2dVertex
 10
272.5562358782884
 20
146.5451596359547
 30
0.0
  0
VERTEX
  5
2DD
330
276
100
AcDbEntity
  8
图层 02
100
AcDbVertex
100
AcDb2dVertex
 10
272.6036721323361
 20
146.6021644612445
 30
0.0
  0
VERTEX
  5
2DE
330
276
100
AcDbEntity
  8
图层 02
100
AcDbVertex
100
AcDb2dVertex
 10
272.6249475025335
 20
146.6724622349298
 30
0.0
  0
VERTEX
  5
2DF
330
276
100
AcDbEntity
  8
图层 02
100
AcDbVertex
100
AcDb2dVertex
 10
272.6308296421971
 20
146.7313331362705
 30
0.0
  0
VERTEX
  5
2E0
330
276
100
AcDbEntity
  8
图层 02
100
AcDbVertex
100
AcDb2dVertex
 10
272.6146299903554
 20
146.7889670381858
 30
0.0
  0
VERTEX
  5
2E1
330
276
100
AcDbEntity
  8
图层 02
100
AcDbVertex
100
AcDb2dVertex
 10
272.5894343925893
 20
146.8656300097035
 30
0.0
  0
VERTEX
  5
2E2
330
276
100
AcDbEntity
  8
图层 02
100
AcDbVertex
100
AcDb2dVertex
 10
272.5869231855908
 20
146.9040304607527
 30
0.0
  0
VERTEX
  5
2E3
330
276
100
AcDbEntity
  8
图层 02
100
AcDbVertex
100
AcDb2dVertex
 10
272.612390591408
 20
146.985655620399
 30
0.0
  0
VERTEX
  5
2E4
330
276
100
AcDbEntity
  8
图层 02
100
AcDbVertex
100
AcDb2dVertex
 10
272.6094271973287
 20
147.0327100204874
 30
0.0
  0
VERTEX
  5
2E5
330
276
100
AcDbEntity
  8
图层 02
100
AcDbVertex
100
AcDb2dVertex
 10
272.5881694896127
 20
147.0725881171268
 30
0.0
  0
VERTEX
  5
2E6
330
276
100
AcDbEntity
  8
图层 02
100
AcDbVertex
100
AcDb2dVertex
 10
272.5394952472265
 20
147.126725576919
 30
0.0
  0
VERTEX
  5
2E7
330
276
100
AcDbEntity
  8
图层 02
100
AcDbVertex
100
AcDb2dVertex
 10
272.5085165507695
 20
147.1625907137598
 30
0.0
  0
VERTEX
  5
2E8
330
276
100
AcDbEntity
  8
图层 02
100
AcDbVertex
100
AcDb2dVertex
 10
272.4969801324027
 20
147.20966904966
 30
0.0
  0
VERTEX
  5
2E9
330
276
100
AcDbEntity
  8
图层 02
100
AcDbVertex
100
AcDb2dVertex
 10
272.5081175935449
 20
147.2393309132106
 30
0.0
  0
VERTEX
  5
2EA
330
276
100
AcDbEntity
  8
图层 02
100
AcDbVertex
100
AcDb2dVertex
 10
272.5448660146811
 20
147.2807432398319
 30
0.0
  0
VERTEX
  5
2EB
330
276
100
AcDbEntity
  8
图层 02
100
AcDbVertex
100
AcDb2dVertex
 10
272.570492720234
 20
147.3493468310492
 30
0.0
  0
VERTEX
  5
2EC
330
276
100
AcDbEntity
  8
图层 02
100
AcDbVertex
100
AcDb2dVertex
 10
272.5580070443447
 20
147.4499595926888
 30
0.0
  0
VERTEX
  5
2ED
330
276
100
AcDbEntity
  8
图层 02
100
AcDbVertex
100
AcDb2dVertex
 10
272.5280419095435
 20
147.5598796042426
 30
0.0
  0
VERTEX
  5
2EE
330
276
100
AcDbEntity
  8
图层 02
100
AcDbVertex
100
AcDb2dVertex
 10
272.4083958086832
 20
147.7774483624978
 30
0.0
  0
VERTEX
  5
2EF
330
276
100
AcDbEntity
  8
图层 02
100
AcDbVertex
100
AcDb2dVertex
 10
272.3347482635692
 20
147.8830670564587
 30
0.0
  0
VERTEX
  5
2F0
330
276
100
AcDbEntity
  8
图层 02
100
AcDbVertex
100
AcDb2dVertex
 10
272.2696593244746
 20
147.99991494013
 30
0.0
  0
VERTEX
  5
2F1
330
276
100
AcDbEntity
  8
图层 02
100
AcDbVertex
100
AcDb2dVertex
 10
272.1790700254341
 20
148.1076883866554
 30
0.0
  0
VERTEX
  5
2F2
330
276
100
AcDbEntity
  8
图层 02
100
AcDbVertex
100
AcDb2dVertex
 10
272.0992467370799
 20
148.2103536229061
 30
0.0
  0
VERTEX
  5
2F3
330
276
100
AcDbEntity
  8
图层 02
100
AcDbVertex
100
AcDb2dVertex
 10
272.0633225189744
 20
148.2784335481315
 30
0.0
  0
VERTEX
  5
2F4
330
276
100
AcDbEntity
  8
图层 02
100
AcDbVertex
100
AcDb2dVertex
 10
272.0664555784947
 20
148.307385785438
 30
0.0
  0
VERTEX
  5
2F5
330
276
100
AcDbEntity
  8
图层 02
100
AcDbVertex
100
AcDb2dVertex
 10
272.1006273783266
 20
148.3071068082332
 30
0.0
  0
VERTEX
  5
2F6
330
276
100
AcDbEntity
  8
图层 02
100
AcDbVertex
100
AcDb2dVertex
 10
272.1654635630232
 20
148.2397477959101
 30
0.0
  0
VERTEX
  5
2F7
330
276
100
AcDbEntity
  8
图层 02
100
AcDbVertex
100
AcDb2dVertex
 10
272.325963999428
 20
148.1354871121683
 30
0.0
  0
VERTEX
  5
2F8
330
276
100
AcDbEntity
  8
图层 02
100
AcDbVertex
100
AcDb2dVertex
 10
272.3832943488656
 20
148.0952079422121
 30
0.0
  0
VERTEX
  5
2F9
330
276
100
AcDbEntity
  8
图层 02
100
AcDbVertex
100
AcDb2dVertex
 10
272.4047276278765
 20
148.0545290258564
 30
0.0
  0
VERTEX
  5
2FA
330
276
100
AcDbEntity
  8
图层 02
100
AcDbVertex
100
AcDb2dVertex
 10
272.403014127009
 20
148.0006243831578
 30
0.0
  0
VERTEX
  5
2FB
330
276
100
AcDbEntity
  8
图层 02
100
AcDbVertex
100
AcDb2dVertex
 10
272.406648638618
 20
147.9535228029858
 30
0.0
  0
VERTEX
  5
2FC
330
276
100
AcDbEntity
  8
图层 02
100
AcDbVertex
100
AcDb2dVertex
 10
272.4259450229215
 20
147.9346785097656
 30
0.0
  0
VERTEX
  5
2FD
330
276
100
AcDbEntity
  8
图层 02
100
AcDbVertex
100
AcDb2dVertex
 10
272.4523260011305
 20
147.9291586275648
 30
0.0
  0
VERTEX
  5
2FE
330
276
100
AcDbEntity
  8
图层 02
100
AcDbVertex
100
AcDb2dVertex
 10
272.4866842220598
 20
147.934970751899
 30
0.0
  0
VERTEX
  5
2FF
330
276
100
AcDbEntity
  8
图层 02
100
AcDbVertex
100
AcDb2dVertex
 10
272.521031933182
 20
147.95679427258
 30
0.0
  0
VERTEX
  5
300
330
276
100
AcDbEntity
  8
图层 02
100
AcDbVertex
100
AcDb2dVertex
 10
272.5684620696668
 20
147.9566249979207
 30
0.0
  0
VERTEX
  5
301
330
276
100
AcDbEntity
  8
图层 02
100
AcDbVertex
100
AcDb2dVertex
 10
272.6091968015324
 20
147.9330206918375
 30
0.0
  0
VERTEX
  5
302
330
276
100
AcDbEntity
  8
图层 02
100
AcDbVertex
100
AcDb2dVertex
 10
272.721677037421
 20
147.8305759482392
 30
0.0
  0
VERTEX
  5
303
330
276
100
AcDbEntity
  8
图层 02
100
AcDbVertex
100
AcDb2dVertex
 10
272.8162327352277
 20
147.7695580565094
 30
0.0
  0
VERTEX
  5
304
330
276
100
AcDbEntity
  8
图层 02
100
AcDbVertex
100
AcDb2dVertex
 10
272.9306637582123
 20
147.6759311377012
 30
0.0
  0
VERTEX
  5
305
330
276
100
AcDbEntity
  8
图层 02
100
AcDbVertex
100
AcDb2dVertex
 10
273.0216038231947
 20
147.6251879503032
 30
0.0
  0
VERTEX
  5
306
330
276
100
AcDbEntity
  8
图层 02
100
AcDbVertex
100
AcDb2dVertex
 10
273.100696593113
 20
147.5509966936448
 30
0.0
  0
VERTEX
  5
307
330
276
100
AcDbEntity
  8
图层 02
100
AcDbVertex
100
AcDb2dVertex
 10
273.2030502977996
 20
147.4915099500877
 30
0.0
  0
VERTEX
  5
308
330
276
100
AcDbEntity
  8
图层 02
100
AcDbVertex
100
AcDb2dVertex
 10
273.4407796617842
 20
147.3078320123105
 30
0.0
  0
VERTEX
  5
309
330
276
100
AcDbEntity
  8
图层 02
100
AcDbVertex
100
AcDb2dVertex
 10
273.4892841684145
 20
147.2842913789181
 30
0.0
  0
VERTEX
  5
30A
330
276
100
AcDbEntity
  8
图层 02
100
AcDbVertex
100
AcDb2dVertex
 10
273.6077322415651
 20
147.2081758630836
 30
0.0
  0
VERTEX
  5
30B
330
276
100
AcDbEntity
  8
图层 02
100
AcDbVertex
100
AcDb2dVertex
 10
273.6739306217972
 20
147.1744505721288
 30
0.0
  0
VERTEX
  5
30C
330
276
100
AcDbEntity
  8
图层 02
100
AcDbVertex
100
AcDb2dVertex
 10
273.7569377095168
 20
147.103935598697
 30
0.0
  0
VERTEX
  5
30D
330
276
100
AcDbEntity
  8
图层 02
100
AcDbVertex
100
AcDb2dVertex
 10
273.7900276767389
 20
147.0951586919497
 30
0.0
  0
VERTEX
  5
30E
330
276
100
AcDbEntity
  8
图层 02
100
AcDbVertex
100
AcDb2dVertex
 10
273.8853813911858
 20
147.040852094063
 30
0.0
  0
VERTEX
  5
30F
330
276
100
AcDbEntity
  8
图层 02
100
AcDbVertex
100
AcDb2dVertex
 10
273.9315004656922
 20
147.0385095246961
 30
0.0
  0
VERTEX
  5
310
330
276
100
AcDbEntity
  8
图层 02
100
AcDbVertex
100
AcDb2dVertex
 10
273.9569129160834
 20
147.0231217014351
 30
0.0
  0
VERTEX
  5
311
330
276
100
AcDbEntity
  8
图层 02
100
AcDbVertex
100
AcDb2dVertex
 10
274.1054869249367
 20
146.9811742186051
 30
0.0
  0
VERTEX
  5
312
330
276
100
AcDbEntity
  8
图层 02
100
AcDbVertex
100
AcDb2dVertex
 10
274.1501852672271
 20
146.9662357201987
 30
0.0
  0
VERTEX
  5
313
330
276
100
AcDbEntity
  8
图层 02
100
AcDbVertex
100
AcDb2dVertex
 10
274.1908338646464
 20
146.9712635235474
 30
0.0
  0
VERTEX
  5
314
330
276
100
AcDbEntity
  8
图层 02
100
AcDbVertex
100
AcDb2dVertex
 10
274.2091850120164
 20
146.9696412090352
 30
0.0
  0
VERTEX
  5
315
330
276
100
AcDbEntity
  8
图层 02
100
AcDbVertex
100
AcDb2dVertex
 10
274.2843906353716
 20
146.978562704208
 30
0.0
  0
VERTEX
  5
316
330
276
100
AcDbEntity
  8
图层 02
100
AcDbVertex
100
AcDb2dVertex
 10
274.3462737453376
 20
147.0162479273885
 30
0.0
  0
VERTEX
  5
317
330
276
100
AcDbEntity
  8
图层 02
100
AcDbVertex
100
AcDb2dVertex
 10
274.376108892772
 20
147.0568966672061
 30
0.0
  0
VERTEX
  5
318
330
276
100
AcDbEntity
  8
图层 02
100
AcDbVertex
100
AcDb2dVertex
 10
274.3765797139899
 20
147.1088572610534
 30
0.0
  0
VERTEX
  5
319
330
276
100
AcDbEntity
  8
图层 02
100
AcDbVertex
100
AcDb2dVertex
 10
274.3522807166388
 20
147.1740535557132
 30
0.0
  0
VERTEX
  5
31A
330
276
100
AcDbEntity
  8
图层 02
100
AcDbVertex
100
AcDb2dVertex
 10
274.2924682713839
 20
147.2729091545361
 30
0.0
  0
VERTEX
  5
31B
330
276
100
AcDbEntity
  8
图层 02
100
AcDbVertex
100
AcDb2dVertex
 10
274.1365730495698
 20
147.4362853709776
 30
0.0
  0
VERTEX
  5
31C
330
276
100
AcDbEntity
  8
图层 02
100
AcDbVertex
100
AcDb2dVertex
 10
273.9787870356694
 20
147.569894385847
 30
0.0
  0
VERTEX
  5
31D
330
276
100
AcDbEntity
  8
图层 02
100
AcDbVertex
100
AcDb2dVertex
 10
273.9496393304329
 20
147.5831996287879
 30
0.0
  0
VERTEX
  5
31E
330
276
100
AcDbEntity
  8
图层 02
100
AcDbVertex
100
AcDb2dVertex
 10
273.9154567803911
 20
147.6021588550792
 30
0.0
  0
VERTEX
  5
31F
330
276
100
AcDbEntity
  8
图层 02
100
AcDbVertex
100
AcDb2dVertex
 10
273.7641548850354
 20
147.7138295063996
 30
0.0
  0
VERTEX
  5
320
330
276
100
AcDbEntity
  8
图层 02
100
AcDbVertex
100
AcDb2dVertex
 10
273.6446642920665
 20
147.7895141240471
 30
0.0
  0
VERTEX
  5
321
330
276
100
AcDbEntity
  8
图层 02
100
AcDbVertex
100
AcDb2dVertex
 10
273.5859608291026
 20
147.8087275562907
 30
0.0
  0
VERTEX
  5
322
330
276
100
AcDbEntity
  8
图层 02
100
AcDbVertex
100
AcDb2dVertex
 10
273.5073729687529
 20
147.8683071851585
 30
0.0
  0
VERTEX
  5
323
330
276
100
AcDbEntity
  8
图层 02
100
AcDbVertex
100
AcDb2dVertex
 10
273.4116510341514
 20
147.9103903756438
 30
0.0
  0
VERTEX
  5
324
330
276
100
AcDbEntity
  8
图层 02
100
AcDbVertex
100
AcDb2dVertex
 10
273.338239877077
 20
147.9497880892669
 30
0.0
  0
VERTEX
  5
325
330
276
100
AcDbEntity
  8
图层 02
100
AcDbVertex
100
AcDb2dVertex
 10
273.2417618246363
 20
147.9807584997775
 30
0.0
  0
VERTEX
  5
326
330
276
100
AcDbEntity
  8
图层 02
100
AcDbVertex
100
AcDb2dVertex
 10
273.1357255010661
 20
148.0203399300139
 30
0.0
  0
VERTEX
  5
327
330
276
100
AcDbEntity
  8
图层 02
100
AcDbVertex
100
AcDb2dVertex
 10
273.0989317859629
 20
148.0373684668402
 30
0.0
  0
VERTEX
  5
328
330
276
100
AcDbEntity
  8
图层 02
100
AcDbVertex
100
AcDb2dVertex
 10
273.0155248937823
 20
148.0458742705705
 30
0.0
  0
VERTEX
  5
329
330
276
100
AcDbEntity
  8
图层 02
100
AcDbVertex
100
AcDb2dVertex
 10
272.9939943609401
 20
148.0631672446362
 30
0.0
  0
VERTEX
  5
32A
330
276
100
AcDbEntity
  8
图层 02
100
AcDbVertex
100
AcDb2dVertex
 10
272.8685769624903
 20
148.0869503796609
 30
0.0
  0
VERTEX
  5
32B
330
276
100
AcDbEntity
  8
图层 02
100
AcDbVertex
100
AcDb2dVertex
 10
272.744151121584
 20
148.1009095213091
 30
0.0
  0
VERTEX
  5
32C
330
276
100
AcDbEntity
  8
图层 02
100
AcDbVertex
100
AcDb2dVertex
 10
272.6519172519351
 20
148.0958593729069
 30
0.0
  0
VERTEX
  5
32D
330
276
100
AcDbEntity
  8
图层 02
100
AcDbVertex
100
AcDb2dVertex
 10
272.6131642291377
 20
148.0984333036258
 30
0.0
  0
VERTEX
  5
32E
330
276
100
AcDbEntity
  8
图层 02
100
AcDbVertex
100
AcDb2dVertex
 10
272.5969906958485
 20
148.1093094549213
 30
0.0
  0
VERTEX
  5
32F
330
276
100
AcDbEntity
  8
图层 02
100
AcDbVertex
100
AcDb2dVertex
 10
272.5859464492881
 20
148.128319070135
 30
0.0
  0
VERTEX
  5
330
330
276
100
AcDbEntity
  8
图层 02
100
AcDbVertex
100
AcDb2dVertex
 10
272.5804990615202
 20
148.1545845806596
 30
0.0
  0
VERTEX
  5
331
330
276
100
AcDbEntity
  8
图层 02
100
AcDbVertex
100
AcDb2dVertex
 10
272.5812995033264
 20
148.2665621884807
 30
0.0
  0
VERTEX
  5
332
330
276
100
AcDbEntity
  8
图层 02
100
AcDbVertex
100
AcDb2dVertex
 10
272.5616511567667
 20
148.3911528126298
 30
0.0
  0
VERTEX
  5
333
330
276
100
AcDbEntity
  8
图层 02
100
AcDbVertex
100
AcDb2dVertex
 10
272.5343261838927
 20
148.4622917503418
 30
0.0
  0
VERTEX
  5
334
330
276
100
AcDbEntity
  8
图层 02
100
AcDbVertex
100
AcDb2dVertex
 10
272.5344195959885
 20
148.4999673406675
 30
0.0
  0
VERTEX
  5
335
330
276
100
AcDbEntity
  8
图层 02
100
AcDbVertex
100
AcDb2dVertex
 10
272.4761390718358
 20
148.7309273178305
 30
0.0
  0
VERTEX
  5
336
330
276
100
AcDbEntity
  8
图层 02
100
AcDbVertex
100
AcDb2dVertex
 10
272.4800166428888
 20
148.7532696304487
 30
0.0
  0
VERTEX
  5
337
330
276
100
AcDbEntity
  8
图层 02
100
AcDbVertex
100
AcDb2dVertex
 10
272.5015962024017
 20
148.7731301531304
 30
0.0
  0
VERTEX
  5
338
330
276
100
AcDbEntity
  8
图层 02
100
AcDbVertex
100
AcDb2dVertex
 10
272.5463624214672
 20
148.7893908686834
 30
0.0
  0
VERTEX
  5
339
330
276
100
AcDbEntity
  8
图层 02
100
AcDbVertex
100
AcDb2dVertex
 10
272.5988779726324
 20
148.8470644991593
 30
0.0
  0
VERTEX
  5
33A
330
276
100
AcDbEntity
  8
图层 02
100
AcDbVertex
100
AcDb2dVertex
 10
272.6343343537503
 20
148.9872572279889
 30
0.0
  0
VERTEX
  5
33B
330
276
100
AcDbEntity
  8
图层 02
100
AcDbVertex
100
AcDb2dVertex
 10
272.626838948418
 20
149.0851910202467
 30
0.0
  0
VERTEX
  5
33C
330
276
100
AcDbEntity
  8
图层 02
100
AcDbVertex
100
AcDb2dVertex
 10
272.5826551697379
 20
149.2504152111611
 30
0.0
  0
VERTEX
  5
33D
330
276
100
AcDbEntity
  8
图层 02
100
AcDbVertex
100
AcDb2dVertex
 10
272.5469022406199
 20
149.3123551766897
 30
0.0
  0
VERTEX
  5
33E
330
276
100
AcDbEntity
  8
图层 02
100
AcDbVertex
100
AcDb2dVertex
 10
272.5107927087807
 20
149.3468134321226
 30
0.0
  0
VERTEX
  5
33F
330
276
100
AcDbEntity
  8
图层 02
100
AcDbVertex
100
AcDb2dVertex
 10
272.4733775409768
 20
149.3575624815854
 30
0.0
  0
VERTEX
  5
340
330
276
100
AcDbEntity
  8
图层 02
100
AcDbVertex
100
AcDb2dVertex
 10
272.3969688884276
 20
149.3566686144097
 30
0.0
  0
VERTEX
  5
341
330
276
100
AcDbEntity
  8
图层 02
100
AcDbVertex
100
AcDb2dVertex
 10
272.3717210502086
 20
149.3640817494465
 30
0.0
  0
VERTEX
  5
342
330
276
100
AcDbEntity
  8
图层 02
100
AcDbVertex
100
AcDb2dVertex
 10
272.3626770219335
 20
149.3830383699893
 30
0.0
  0
VERTEX
  5
343
330
276
100
AcDbEntity
  8
图层 02
100
AcDbVertex
100
AcDb2dVertex
 10
272.3697081615613
 20
149.403675642054
 30
0.0
  0
VERTEX
  5
344
330
276
100
AcDbEntity
  8
图层 02
100
AcDbVertex
100
AcDb2dVertex
 10
272.391958994371
 20
149.4622657336869
 30
0.0
  0
VERTEX
  5
345
330
276
100
AcDbEntity
  8
图层 02
100
AcDbVertex
100
AcDb2dVertex
 10
272.4481586001272
 20
149.5324390063193
 30
0.0
  0
VERTEX
  5
346
330
276
100
AcDbEntity
  8
图层 02
100
AcDbVertex
100
AcDb2dVertex
 10
272.4934946314348
 20
149.5464198601991
 30
0.0
  0
VERTEX
  5
347
330
276
100
AcDbEntity
  8
图层 02
100
AcDbVertex
100
AcDb2dVertex
 10
272.5569362188909
 20
149.5227846185847
 30
0.0
  0
VERTEX
  5
348
330
276
100
AcDbEntity
  8
图层 02
100
AcDbVertex
100
AcDb2dVertex
 10
272.6001753066365
 20
149.5289310544969
 30
0.0
  0
VERTEX
  5
349
330
276
100
AcDbEntity
  8
图层 02
100
AcDbVertex
100
AcDb2dVertex
 10
272.623286342441
 20
149.5668004708044
 30
0.0
  0
VERTEX
  5
34A
330
276
100
AcDbEntity
  8
图层 02
100
AcDbVertex
100
AcDb2dVertex
 10
272.6147793792314
 20
149.6234439624503
 30
0.0
  0
VERTEX
  5
34B
330
276
100
AcDbEntity
  8
图层 02
100
AcDbVertex
100
AcDb2dVertex
 10
272.5707450810956
 20
149.6723478164083
 30
0.0
  0
VERTEX
  5
34C
330
276
100
AcDbEntity
  8
图层 02
100
AcDbVertex
100
AcDb2dVertex
 10
272.4653088493662
 20
149.8118715080698
 30
0.0
  0
VERTEX
  5
34D
330
276
100
AcDbEntity
  8
图层 02
100
AcDbVertex
100
AcDb2dVertex
 10
272.4308045669852
 20
149.8780413533516
 30
0.0
  0
VERTEX
  5
34E
330
276
100
AcDbEntity
  8
图层 02
100
AcDbVertex
100
AcDb2dVertex
 10
272.4357798976334
 20
149.9335064416462
 30
0.0
  0
VERTEX
  5
34F
330
276
100
AcDbEntity
  8
图层 02
100
AcDbVertex
100
AcDb2dVertex
 10
272.464818076248
 20
149.985639053961
 30
0.0
  0
VERTEX
  5
350
330
276
100
AcDbEntity
  8
图层 02
100
AcDbVertex
100
AcDb2dVertex
 10
272.4988476836115
 20
150.1219357825026
 30
0.0
  0
VERTEX
  5
351
330
276
100
AcDbEntity
  8
图层 02
100
AcDbVertex
100
AcDb2dVertex
 10
272.5310928387213
 20
150.4129674735629
 30
0.0
  0
VERTEX
  5
352
330
276
100
AcDbEntity
  8
图层 02
100
AcDbVertex
100
AcDb2dVertex
 10
272.5251915171914
 20
151.0184074874047
 30
0.0
  0
VERTEX
  5
353
330
276
100
AcDbEntity
  8
图层 02
100
AcDbVertex
100
AcDb2dVertex
 10
272.5059754041454
 20
151.3960264199566
 30
0.0
  0
VERTEX
  5
354
330
276
100
AcDbEntity
  8
图层 02
100
AcDbVertex
100
AcDb2dVertex
 10
272.4848640008885
 20
151.451035011017
 30
0.0
  0
VERTEX
  5
355
330
276
100
AcDbEntity
  8
图层 02
100
AcDbVertex
100
AcDb2dVertex
 10
272.4596834861356
 20
151.4648963932492
 30
0.0
  0
VERTEX
  5
356
330
276
100
AcDbEntity
  8
图层 02
100
AcDbVertex
100
AcDb2dVertex
 10
272.4456100738878
 20
151.4612785496491
 30
0.0
  0
VERTEX
  5
357
330
276
100
AcDbEntity
  8
图层 02
100
AcDbVertex
100
AcDb2dVertex
 10
272.4370135124723
 20
151.428318716237
 30
0.0
  0
VERTEX
  5
358
330
276
100
AcDbEntity
  8
图层 02
100
AcDbVertex
100
AcDb2dVertex
 10
272.4474382895592
 20
151.354716235269
 30
0.0
  0
VERTEX
  5
359
330
276
100
AcDbEntity
  8
图层 02
100
AcDbVertex
100
AcDb2dVertex
 10
272.4679538038392
 20
151.303703873773
 30
0.0
  0
VERTEX
  5
35A
330
276
100
AcDbEntity
  8
图层 02
100
AcDbVertex
100
AcDb2dVertex
 10
272.4566768081709
 20
151.1485593272617
 30
0.0
  0
VERTEX
  5
35B
330
276
100
AcDbEntity
  8
图层 02
100
AcDbVertex
100
AcDb2dVertex
 10
272.4615655269811
 20
150.9517672260247
 30
0.0
  0
VERTEX
  5
35C
330
276
100
AcDbEntity
  8
图层 02
100
AcDbVertex
100
AcDb2dVertex
 10
272.4409562741381
 20
150.8656432748415
 30
0.0
  0
VERTEX
  5
35D
330
276
100
AcDbEntity
  8
图层 02
100
AcDbVertex
100
AcDb2dVertex
 10
272.444776170788
 20
150.7739534358348
 30
0.0
  0
VERTEX
  5
35E
330
276
100
AcDbEntity
  8
图层 02
100
AcDbVertex
100
AcDb2dVertex
 10
272.4335525684838
 20
150.6500903304212
 30
0.0
  0
VERTEX
  5
35F
330
276
100
AcDbEntity
  8
图层 02
100
AcDbVertex
100
AcDb2dVertex
 10
272.4453589501705
 20
150.4955423096477
 30
0.0
  0
VERTEX
  5
360
330
276
100
AcDbEntity
  8
图层 02
100
AcDbVertex
100
AcDb2dVertex
 10
272.4285948080607
 20
150.3409795928625
 30
0.0
  0
VERTEX
  5
361
330
276
100
AcDbEntity
  8
图层 02
100
AcDbVertex
100
AcDb2dVertex
 10
272.4120618892557
 20
150.2749994993237
 30
0.0
  0
VERTEX
  5
362
330
276
100
AcDbEntity
  8
图层 02
100
AcDbVertex
100
AcDb2dVertex
 10
272.3815960841173
 20
150.1078236238579
 30
0.0
  0
VERTEX
  5
363
330
276
100
AcDbEntity
  8
图层 02
100
AcDbVertex
100
AcDb2dVertex
 10
272.2924870762712
 20
149.9921723187654
 30
0.0
  0
VERTEX
  5
364
330
276
100
AcDbEntity
  8
图层 02
100
AcDbVertex
100
AcDb2dVertex
 10
272.2895114365016
 20
149.9189246562981
 30
0.0
  0
VERTEX
  5
365
330
276
100
AcDbEntity
  8
图层 02
100
AcDbVertex
100
AcDb2dVertex
 10
272.3846339196651
 20
149.7544954412824
 30
0.0
  0
VERTEX
  5
366
330
276
100
AcDbEntity
  8
图层 02
100
AcDbVertex
100
AcDb2dVertex
 10
272.4088034109549
 20
149.6935873397073
 30
0.0
  0
VERTEX
  5
367
330
276
100
AcDbEntity
  8
图层 02
100
AcDbVertex
100
AcDb2dVertex
 10
272.3924757618504
 20
149.6378210564634
 30
0.0
  0
VERTEX
  5
368
330
276
100
AcDbEntity
  8
图层 02
100
AcDbVertex
100
AcDb2dVertex
 10
272.3239700504933
 20
149.5760195217879
 30
0.0
  0
VERTEX
  5
369
330
276
100
AcDbEntity
  8
图层 02
100
AcDbVertex
100
AcDb2dVertex
 10
272.286891711358
 20
149.5016693296082
 30
0.0
  0
VERTEX
  5
36A
330
276
100
AcDbEntity
  8
图层 02
100
AcDbVertex
100
AcDb2dVertex
 10
272.2410969272634
 20
149.38418460356
 30
0.0
  0
VERTEX
  5
36B
330
276
100
AcDbEntity
  8
图层 02
100
AcDbVertex
100
AcDb2dVertex
 10
272.233222404593
 20
149.3387055723908
 30
0.0
  0
VERTEX
  5
36C
330
276
100
AcDbEntity
  8
图层 02
100
AcDbVertex
100
AcDb2dVertex
 10
272.2202675125513
 20
149.3140616205372
 30
0.0
  0
VERTEX
  5
36D
330
276
100
AcDbEntity
  8
图层 02
100
AcDbVertex
100
AcDb2dVertex
 10
272.1788660775096
 20
149.2633680573232
 30
0.0
  0
VERTEX
  5
36E
330
276
100
AcDbEntity
  8
图层 02
100
AcDbVertex
100
AcDb2dVertex
 10
272.170243739567
 20
149.2333729739234
 30
0.0
  0
VERTEX
  5
36F
330
276
100
AcDbEntity
  8
图层 02
100
AcDbVertex
100
AcDb2dVertex
 10
272.1500802212095
 20
149.1477199070125
 30
0.0
  0
VERTEX
  5
370
330
276
100
AcDbEntity
  8
图层 02
100
AcDbVertex
100
AcDb2dVertex
 10
272.1546746339188
 20
149.116361132019
 30
0.0
  0
VERTEX
  5
371
330
276
100
AcDbEntity
  8
图层 02
100
AcDbVertex
100
AcDb2dVertex
 10
272.1542293194964
 20
149.0871528039461
 30
0.0
  0
VERTEX
  5
372
330
276
100
AcDbEntity
  8
图层 02
100
AcDbVertex
100
AcDb2dVertex
 10
272.1702326300056
 20
149.0468575311981
 30
0.0
  0
VERTEX
  5
373
330
276
100
AcDbEntity
  8
图层 02
100
AcDbVertex
100
AcDb2dVertex
 10
272.1757041688037
 20
149.0116426028377
 30
0.0
  0
VERTEX
  5
374
330
276
100
AcDbEntity
  8
图层 02
100
AcDbVertex
100
AcDb2dVertex
 10
272.2024722023875
 20
148.9324668432373
 30
0.0
  0
VERTEX
  5
375
330
276
100
AcDbEntity
  8
图层 02
100
AcDbVertex
100
AcDb2dVertex
 10
272.2586242689928
 20
148.8574432570047
 30
0.0
  0
VERTEX
  5
376
330
276
100
AcDbEntity
  8
图层 02
100
AcDbVertex
100
AcDb2dVertex
 10
272.3254669988427
 20
148.8009751438033
 30
0.0
  0
VERTEX
  5
377
330
276
100
AcDbEntity
  8
图层 02
100
AcDbVertex
100
AcDb2dVertex
 10
272.3732884389131
 20
148.746049328794
 30
0.0
  0
VERTEX
  5
378
330
276
100
AcDbEntity
  8
图层 02
100
AcDbVertex
100
AcDb2dVertex
 10
272.3946671884005
 20
148.6679077585136
 30
0.0
  0
VERTEX
  5
379
330
276
100
AcDbEntity
  8
图层 02
100
AcDbVertex
100
AcDb2dVertex
 10
272.4094393050978
 20
148.6408227573466
 30
0.0
  0
VERTEX
  5
37A
330
276
100
AcDbEntity
  8
图层 02
100
AcDbVertex
100
AcDb2dVertex
 10
272.4190463071544
 20
148.5619963112139
 30
0.0
  0
VERTEX
  5
37B
330
276
100
AcDbEntity
  8
图层 02
100
AcDbVertex
100
AcDb2dVertex
 10
272.4379069510818
 20
148.52905017738
 30
0.0
  0
VERTEX
  5
37C
330
276
100
AcDbEntity
  8
图层 02
100
AcDbVertex
100
AcDb2dVertex
 10
272.4527417081105
 20
148.4119593629752
 30
0.0
  0
VERTEX
  5
37D
330
276
100
AcDbEntity
  8
图层 02
100
AcDbVertex
100
AcDb2dVertex
 10
272.4648030182145
 20
148.3889983059497
 30
0.0
  0
VERTEX
  5
37E
330
276
100
AcDbEntity
  8
图层 02
100
AcDbVertex
100
AcDb2dVertex
 10
272.4647090987839
 20
148.3542663330489
 30
0.0
  0
VERTEX
  5
37F
330
276
100
AcDbEntity
  8
图层 02
100
AcDbVertex
100
AcDb2dVertex
 10
272.4728682680814
 20
148.2889392012959
 30
0.0
  0
VERTEX
  5
380
330
276
100
AcDbEntity
  8
图层 02
100
AcDbVertex
100
AcDb2dVertex
 10
272.4855812181173
 20
148.2264532088574
 30
0.0
  0
VERTEX
  5
381
330
276
100
AcDbEntity
  8
图层 02
100
AcDbVertex
100
AcDb2dVertex
 10
272.4718335145399
 20
148.1855073030217
 30
0.0
  0
VERTEX
  5
382
330
276
100
AcDbEntity
  8
图层 02
100
AcDbVertex
100
AcDb2dVertex
 10
272.4490573313626
 20
148.1751877790758
 30
0.0
  0
VERTEX
  5
383
330
276
100
AcDbEntity
  8
图层 02
100
AcDbVertex
100
AcDb2dVertex
 10
272.4080849525212
 20
148.180324473886
 30
0.0
  0
VERTEX
  5
384
330
276
100
AcDbEntity
  8
图层 02
100
AcDbVertex
100
AcDb2dVertex
 10
272.3436182558751
 20
148.2100199492708
 30
0.0
  0
VERTEX
  5
385
330
276
100
AcDbEntity
  8
图层 02
100
AcDbVertex
100
AcDb2dVertex
 10
272.2469827679423
 20
148.3031784536239
 30
0.0
  0
VERTEX
  5
386
330
276
100
AcDbEntity
  8
图层 02
100
AcDbVertex
100
AcDb2dVertex
 10
272.1128166787237
 20
148.3842234483096
 30
0.0
  0
VERTEX
  5
387
330
276
100
AcDbEntity
  8
图层 02
100
AcDbVertex
100
AcDb2dVertex
 10
272.052696376072
 20
148.4494072467306
 30
0.0
  0
VERTEX
  5
388
330
276
100
AcDbEntity
  8
图层 02
100
AcDbVertex
100
AcDb2dVertex
 10
271.9443500104717
 20
148.5181697397682
 30
0.0
  0
VERTEX
  5
389
330
276
100
AcDbEntity
  8
图层 02
100
AcDbVertex
100
AcDb2dVertex
 10
271.8450839159555
 20
148.597701395554
 30
0.0
  0
VERTEX
  5
38A
330
276
100
AcDbEntity
  8
图层 02
100
AcDbVertex
100
AcDb2dVertex
 10
271.7611646836852
 20
148.6730652869874
 30
0.0
  0
VERTEX
  5
38B
330
276
100
AcDbEntity
  8
图层 02
100
AcDbVertex
100
AcDb2dVertex
 10
271.6361813482019
 20
148.7611282769831
 30
0.0
  0
VERTEX
  5
38C
330
276
100
AcDbEntity
  8
图层 02
100
AcDbVertex
100
AcDb2dVertex
 10
271.5660348744501
 20
148.8371097419219
 30
0.0
  0
VERTEX
  5
38D
330
276
100
AcDbEntity
  8
图层 02
100
AcDbVertex
100
AcDb2dVertex
 10
271.4622884878338
 20
148.9394114706965
 30
0.0
  0
VERTEX
  5
38E
330
276
100
AcDbEntity
  8
图层 02
100
AcDbVertex
100
AcDb2dVertex
 10
271.3669524819057
 20
149.0104250893458
 30
0.0
  0
VERTEX
  5
38F
330
276
100
AcDbEntity
  8
图层 02
100
AcDbVertex
100
AcDb2dVertex
 10
271.3104628560438
 20
149.0712195232717
 30
0.0
  0
VERTEX
  5
390
330
276
100
AcDbEntity
  8
图层 02
100
AcDbVertex
100
AcDb2dVertex
 10
271.2078223810805
 20
149.1740160649233
 30
0.0
  0
VERTEX
  5
391
330
276
100
AcDbEntity
  8
图层 02
100
AcDbVertex
100
AcDb2dVertex
 10
271.0677655706006
 20
149.3252371178583
 30
0.0
  0
VERTEX
  5
392
330
276
100
AcDbEntity
  8
图层 02
100
AcDbVertex
100
AcDb2dVertex
 10
271.0328604717708
 20
149.3543646031551
 30
0.0
  0
VERTEX
  5
393
330
276
100
AcDbEntity
  8
图层 02
100
AcDbVertex
100
AcDb2dVertex
 10
270.9764900848474
 20
149.4079607454813
 30
0.0
  0
VERTEX
  5
394
330
276
100
AcDbEntity
  8
图层 02
100
AcDbVertex
100
AcDb2dVertex
 10
270.9361696261159
 20
149.4629140239097
 30
0.0
  0
VERTEX
  5
395
330
276
100
AcDbEntity
  8
图层 02
100
AcDbVertex
100
AcDb2dVertex
 10
270.8954464427891
 20
149.5016568300834
 30
0.0
  0
VERTEX
  5
396
330
276
100
AcDbEntity
  8
图层 02
100
AcDbVertex
100
AcDb2dVertex
 10
270.8454879193721
 20
149.5166650661078
 30
0.0
  0
VERTEX
  5
397
330
276
100
AcDbEntity
  8
图层 02
100
AcDbVertex
100
AcDb2dVertex
 10
270.8191201880014
 20
149.5010971322687
 30
0.0
  0
VERTEX
  5
398
330
276
100
AcDbEntity
  8
图层 02
100
AcDbVertex
100
AcDb2dVertex
 10
270.8056008123284
 20
149.4772681460238
 30
0.0
  0
VERTEX
  5
399
330
276
100
AcDbEntity
  8
图层 02
100
AcDbVertex
100
AcDb2dVertex
 10
270.8100001979686
 20
149.4395974113247
 30
0.0
  0
VERTEX
  5
39A
330
276
100
AcDbEntity
  8
图层 02
100
AcDbVertex
100
AcDb2dVertex
 10
270.839132260163
 20
149.3889110645268
 30
0.0
  0
VERTEX
  5
39B
330
276
100
AcDbEntity
  8
图层 02
100
AcDbVertex
100
AcDb2dVertex
 10
270.9255207313774
 20
149.3217590952719
 30
0.0
  0
VERTEX
  5
39C
330
276
100
AcDbEntity
  8
图层 02
100
AcDbVertex
100
AcDb2dVertex
 10
271.0336457554876
 20
149.2224527731487
 30
0.0
  0
VERTEX
  5
39D
330
276
100
AcDbEntity
  8
图层 02
100
AcDbVertex
100
AcDb2dVertex
 10
271.2177938327508
 20
149.0316555264543
 30
0.0
  0
VERTEX
  5
39E
330
276
100
AcDbEntity
  8
图层 02
100
AcDbVertex
100
AcDb2dVertex
 10
271.3325658021734
 20
148.9314062759179
 30
0.0
  0
VERTEX
  5
39F
330
276
100
AcDbEntity
  8
图层 02
100
AcDbVertex
100
AcDb2dVertex
 10
271.4425676229934
 20
148.8185765642001
 30
0.0
  0
VERTEX
  5
3A0
330
276
100
AcDbEntity
  8
图层 02
100
AcDbVertex
100
AcDb2dVertex
 10
271.5881016082552
 20
148.6970264410198
 30
0.0
  0
VERTEX
  5
3A1
330
276
100
AcDbEntity
  8
图层 02
100
AcDbVertex
100
AcDb2dVertex
 10
271.7140166075781
 20
148.5638218973363
 30
0.0
  0
VERTEX
  5
3A2
330
276
100
AcDbEntity
  8
图层 02
100
AcDbVertex
100
AcDb2dVertex
 10
271.7467541696636
 20
148.5338247304772
 30
0.0
  0
VERTEX
  5
3A3
330
276
100
AcDbEntity
  8
图层 02
100
AcDbVertex
100
AcDb2dVertex
 10
271.8464807897622
 20
148.4340688646435
 30
0.0
  0
VERTEX
  5
3A4
330
276
100
AcDbEntity
  8
图层 02
100
AcDbVertex
100
AcDb2dVertex
 10
271.930399935756
 20
148.3187464452087
 30
0.0
  0
VERTEX
  5
3A5
330
276
100
AcDbEntity
  8
图层 02
100
AcDbVertex
100
AcDb2dVertex
 10
272.018453000727
 20
148.2180625308269
 30
0.0
  0
VERTEX
  5
3A6
330
276
100
AcDbEntity
  8
图层 02
100
AcDbVertex
100
AcDb2dVertex
 10
272.0722977640769
 20
148.1467142635663
 30
0.0
  0
VERTEX
  5
3A7
330
276
100
AcDbEntity
  8
图层 02
100
AcDbVertex
100
AcDb2dVertex
 10
272.1117554476825
 20
148.0742294762686
 30
0.0
  0
VERTEX
  5
3A8
330
276
100
AcDbEntity
  8
图层 02
100
AcDbVertex
100
AcDb2dVertex
 10
272.1516499025594
 20
148.0213491290975
 30
0.0
  0
VERTEX
  5
3A9
330
276
100
AcDbEntity
  8
图层 02
100
AcDbVertex
100
AcDb2dVertex
 10
272.2039464970102
 20
147.9655262786811
 30
0.0
  0
VERTEX
  5
3AA
330
276
100
AcDbEntity
  8
图层 02
100
AcDbVertex
100
AcDb2dVertex
 10
272.2155367782336
 20
147.9304769945959
 30
0.0
  0
VERTEX
  5
3AB
330
276
100
AcDbEntity
  8
图层 02
100
AcDbVertex
100
AcDb2dVertex
 10
272.2467584050806
 20
147.8787054722463
 30
0.0
  0
VERTEX
  5
3AC
330
276
100
AcDbEntity
  8
图层 02
100
AcDbVertex
100
AcDb2dVertex
 10
272.3279688192082
 20
147.7561993611472
 30
0.0
  0
VERTEX
  5
3AD
330
276
100
AcDbEntity
  8
图层 02
100
AcDbVertex
100
AcDb2dVertex
 10
272.3648060316589
 20
147.6893760878669
 30
0.0
  0
VERTEX
  5
3AE
330
276
100
AcDbEntity
  8
图层 02
100
AcDbVertex
100
AcDb2dVertex
 10
272.441027303123
 20
147.5248345365019
 30
0.0
  0
VERTEX
  5
3AF
330
276
100
AcDbEntity
  8
图层 02
100
AcDbVertex
100
AcDb2dVertex
 10
272.4493782918639
 20
147.4850743059547
 30
0.0
  0
VERTEX
  5
3B0
330
276
100
AcDbEntity
  8
图层 02
100
AcDbVertex
100
AcDb2dVertex
 10
272.4567474768371
 20
147.4296565984159
 30
0.0
  0
VERTEX
  5
3B1
330
276
100
AcDbEntity
  8
图层 02
100
AcDbVertex
100
AcDb2dVertex
 10
272.4544039671481
 20
147.3820581721924
 30
0.0
  0
VERTEX
  5
3B2
330
276
100
AcDbEntity
  8
图层 02
100
AcDbVertex
100
AcDb2dVertex
 10
272.4364968217976
 20
147.3595563279128
 30
0.0
  0
VERTEX
  5
3B3
330
276
100
AcDbEntity
  8
图层 02
100
AcDbVertex
100
AcDb2dVertex
 10
272.4004117436661
 20
147.3480478936553
 30
0.0
  0
VERTEX
  5
3B4
330
276
100
AcDbEntity
  8
图层 02
100
AcDbVertex
100
AcDb2dVertex
 10
272.3270952215245
 20
147.3600642244694
 30
0.0
  0
VERTEX
  5
3B5
330
276
100
AcDbEntity
  8
图层 02
100
AcDbVertex
100
AcDb2dVertex
 10
272.3003185972065
 20
147.3755180692986
 30
0.0
  0
VERTEX
  5
3B6
330
276
100
AcDbEntity
  8
图层 02
100
AcDbVertex
100
AcDb2dVertex
 10
272.2593950465254
 20
147.3840590414971
 30
0.0
  0
VERTEX
  5
3B7
330
276
100
AcDbEntity
  8
图层 02
100
AcDbVertex
100
AcDb2dVertex
 10
272.2243816506724
 20
147.3663677724584
 30
0.0
  0
VERTEX
  5
3B8
330
276
100
AcDbEntity
  8
图层 02
100
AcDbVertex
100
AcDb2dVertex
 10
272.1944744862466
 20
147.3174817185521
 30
0.0
  0
VERTEX
  5
3B9
330
276
100
AcDbEntity
  8
图层 02
100
AcDbVertex
100
AcDb2dVertex
 10
272.1948479327079
 20
147.2893831768212
 30
0.0
  0
VERTEX
  5
3BA
330
276
100
AcDbEntity
  8
图层 02
100
AcDbVertex
100
AcDb2dVertex
 10
272.2159632950068
 20
147.2308483022948
 30
0.0
  0
VERTEX
  5
3BB
330
276
100
AcDbEntity
  8
图层 02
100
AcDbVertex
100
AcDb2dVertex
 10
272.2920615614477
 20
147.1472720503001
 30
0.0
  0
VERTEX
  5
3BC
330
276
100
AcDbEntity
  8
图层 02
100
AcDbVertex
100
AcDb2dVertex
 10
272.4163340180995
 20
146.9998248667603
 30
0.0
  0
VERTEX
  5
3BD
330
276
100
AcDbEntity
  8
图层 02
100
AcDbVertex
100
AcDb2dVertex
 10
272.4909772645381
 20
146.8650555984754
 30
0.0
  0
VERTEX
  5
3BE
330
276
100
AcDbEntity
  8
图层 02
100
AcDbVertex
100
AcDb2dVertex
 10
272.4946832559909
 20
146.8310976142846
 30
0.0
  0
VERTEX
  5
3BF
330
276
100
AcDbEntity
  8
图层 02
100
AcDbVertex
100
AcDb2dVertex
 10
272.5154489044802
 20
146.7933680655472
 30
0.0
  0
VERTEX
  5
3C0
330
276
100
AcDbEntity
  8
图层 02
100
AcDbVertex
100
AcDb2dVertex
 10
272.5322598813042
 20
146.6922236511829
 30
0.0
  0
VERTEX
  5
3C1
330
276
100
AcDbEntity
  8
图层 02
100
AcDbVertex
100
AcDb2dVertex
 10
272.5083663469325
 20
146.6186776239956
 30
0.0
  0
VERTEX
  5
3C2
330
276
100
AcDbEntity
  8
图层 02
100
AcDbVertex
100
AcDb2dVertex
 10
272.4464863286823
 20
146.5645633182697
 30
0.0
  0
VERTEX
  5
3C3
330
276
100
AcDbEntity
  8
图层 02
100
AcDbVertex
100
AcDb2dVertex
 10
272.3561375083989
 20
146.5552369246505
 30
0.0
  0
VERTEX
  5
3C4
330
276
100
AcDbEntity
  8
图层 02
100
AcDbVertex
100
AcDb2dVertex
 10
272.3106489181796
 20
146.5670230069592
 30
0.0
  0
VERTEX
  5
3C5
330
276
100
AcDbEntity
  8
图层 02
100
AcDbVertex
100
AcDb2dVertex
 10
272.0782870170428
 20
146.7958335461412
 30
0.0
  0
VERTEX
  5
3C6
330
276
100
AcDbEntity
  8
图层 02
100
AcDbVertex
100
AcDb2dVertex
 10
271.9808439223425
 20
146.8841461253058
 30
0.0
  0
VERTEX
  5
3C7
330
276
100
AcDbEntity
  8
图层 02
100
AcDbVertex
100
AcDb2dVertex
 10
271.8477282451322
 20
146.9952642423006
 30
0.0
  0
VERTEX
  5
3C8
330
276
100
AcDbEntity
  8
图层 02
100
AcDbVertex
100
AcDb2dVertex
 10
271.7668538719836
 20
147.0405000683275
 30
0.0
  0
VERTEX
  5
3C9
330
276
100
AcDbEntity
  8
图层 02
100
AcDbVertex
100
AcDb2dVertex
 10
271.6020563954399
 20
147.1818322530572
 30
0.0
  0
VERTEX
  5
3CA
330
276
100
AcDbEntity
  8
图层 02
100
AcDbVertex
100
AcDb2dVertex
 10
271.5700379431786
 20
147.1924986596807
 30
0.0
  0
VERTEX
  5
3CB
330
276
100
AcDbEntity
  8
图层 02
100
AcDbVertex
100
AcDb2dVertex
 10
271.5322715255686
 20
147.2245450305994
 30
0.0
  0
VERTEX
  5
3CC
330
276
100
AcDbEntity
  8
图层 02
100
AcDbVertex
100
AcDb2dVertex
 10
271.48871662582
 20
147.2524549219795
 30
0.0
  0
VERTEX
  5
3CD
330
276
100
AcDbEntity
  8
图层 02
100
AcDbVertex
100
AcDb2dVertex
 10
271.3781749272101
 20
147.3382859747569
 30
0.0
  0
VERTEX
  5
3CE
330
276
100
AcDbEntity
  8
图层 02
100
AcDbVertex
100
AcDb2dVertex
 10
271.3104427784228
 20
147.3876840221242
 30
0.0
  0
VERTEX
  5
3CF
330
276
100
AcDbEntity
  8
图层 02
100
AcDbVertex
100
AcDb2dVertex
 10
271.2066486032276
 20
147.4467816257908
 30
0.0
  0
VERTEX
  5
3D0
330
276
100
AcDbEntity
  8
图层 02
100
AcDbVertex
100
AcDb2dVertex
 10
271.1068678654086
 20
147.5317086536783
 30
0.0
  0
VERTEX
  5
3D1
330
276
100
AcDbEntity
  8
图层 02
100
AcDbVertex
100
AcDb2dVertex
 10
270.988423091076
 20
147.6140744536983
 30
0.0
  0
VERTEX
  5
3D2
330
276
100
AcDbEntity
  8
图层 02
100
AcDbVertex
100
AcDb2dVertex
 10
270.9291426963132
 20
147.6256804837088
 30
0.0
  0
VERTEX
  5
3D3
330
276
100
AcDbEntity
  8
图层 02
100
AcDbVertex
100
AcDb2dVertex
 10
270.8906666765062
 20
147.6158892704632
 30
0.0
  0
VERTEX
  5
3D4
330
276
100
AcDbEntity
  8
图层 02
100
AcDbVertex
100
AcDb2dVertex
 10
270.8792173319711
 20
147.5786272098013
 30
0.0
  0
VERTEX
  5
3D5
330
276
100
AcDbEntity
  8
图层 02
100
AcDbVertex
100
AcDb2dVertex
 10
270.8924956187009
 20
147.532372375026
 30
0.0
  0
VERTEX
  5
3D6
330
276
100
AcDbEntity
  8
图层 02
100
AcDbVertex
100
AcDb2dVertex
 10
270.9541962822796
 20
147.4492842269414
 30
0.0
  0
VERTEX
  5
3D7
330
276
100
AcDbEntity
  8
图层 02
100
AcDbVertex
100
AcDb2dVertex
 10
271.1458298745124
 20
147.221462375017
 30
0.0
  0
VERTEX
  5
3D8
330
276
100
AcDbEntity
  8
图层 02
100
AcDbVertex
100
AcDb2dVertex
 10
271.4721367743039
 20
146.9467810930585
 30
0.0
  0
VERTEX
  5
3D9
330
276
100
AcDbEntity
  8
图层 02
100
AcDbVertex
100
AcDb2dVertex
 10
271.5445376890783
 20
146.8825169906585
 30
0.0
  0
VERTEX
  5
3DA
330
276
100
AcDbEntity
  8
图层 02
100
AcDbVertex
100
AcDb2dVertex
 10
271.6521010588457
 20
146.8228450063706
 30
0.0
  0
VERTEX
  5
3DB
330
276
100
AcDbEntity
  8
图层 02
100
AcDbVertex
100
AcDb2dVertex
 10
271.7008276526441
 20
146.784188784585
 30
0.0
  0
VERTEX
  5
3DC
330
276
100
AcDbEntity
  8
图层 02
100
AcDbVertex
100
AcDb2dVertex
 10
271.7982318802532
 20
146.735323533126
 30
0.0
  0
VERTEX
  5
3DD
330
276
100
AcDbEntity
  8
图层 02
100
AcDbVertex
100
AcDb2dVertex
 10
271.8971938129797
 20
146.6602654016014
 30
0.0
  0
VERTEX
  5
3DE
330
276
100
AcDbEntity
  8
图层 02
100
AcDbVertex
100
AcDb2dVertex
 10
271.9964164175928
 20
146.6149799717169
 30
0.0
  0
VERTEX
  5
3DF
330
276
100
AcDbEntity
  8
图层 02
100
AcDbVertex
100
AcDb2dVertex
 10
272.0498548222512
 20
146.5675289601628
 30
0.0
  0
VERTEX
  5
3E0
330
276
100
AcDbEntity
  8
图层 02
100
AcDbVertex
100
AcDb2dVertex
 10
272.0940250034487
 20
146.558594095414
 30
0.0
  0
VERTEX
  5
3E1
330
276
100
AcDbEntity
  8
图层 02
100
AcDbVertex
100
AcDb2dVertex
 10
272.1448605302871
 20
146.5334661068561
 30
0.0
  0
VERTEX
  5
3E2
330
276
100
AcDbEntity
  8
图层 02
100
AcDbVertex
100
AcDb2dVertex
 10
272.2947649736803
 20
146.4639210825651
 30
0.0
  0
VERTEX
  5
3E3
330
276
100
AcDbEntity
  8
图层 02
100
AcDbVertex
100
AcDb2dVertex
 10
272.3618176935804
 20
146.3838789552076
 30
0.0
  0
VERTEX
  5
3E4
330
276
100
AcDbEntity
  8
图层 02
100
AcDbVertex
100
AcDb2dVertex
 10
272.5004119732954
 20
146.1629491828218
 30
0.0
  0
VERTEX
  5
3E5
330
276
100
AcDbEntity
  8
图层 02
100
AcDbVertex
100
AcDb2dVertex
 10
272.5551525329277
 20
146.0606421680423
 30
0.0
  0
VERTEX
  5
3E6
330
276
100
AcDbEntity
  8
图层 02
100
AcDbVertex
100
AcDb2dVertex
 10
272.5773698994093
 20
146.0045611632454
 30
0.0
  0
VERTEX
  5
3E7
330
276
100
AcDbEntity
  8
图层 02
100
AcDbVertex
100
AcDb2dVertex
 10
272.5828754292963
 20
145.9696124783318
 30
0.0
  0
VERTEX
  5
3E8
330
276
100
AcDbEntity
  8
图层 02
100
AcDbVertex
100
AcDb2dVertex
 10
272.598620141446
 20
145.9357994200986
 30
0.0
  0
VERTEX
  5
3E9
330
276
100
AcDbEntity
  8
图层 02
100
AcDbVertex
100
AcDb2dVertex
 10
272.5933459153488
 20
145.8841776809416
 30
0.0
  0
VERTEX
  5
3EA
330
276
100
AcDbEntity
  8
图层 02
100
AcDbVertex
100
AcDb2dVertex
 10
272.5773316832519
 20
145.859701425266
 30
0.0
  0
VERTEX
  5
3EB
330
276
100
AcDbEntity
  8
图层 02
100
AcDbVertex
100
AcDb2dVertex
 10
272.5539288771166
 20
145.862436259867
 30
0.0
  0
VERTEX
  5
3EC
330
276
100
AcDbEntity
  8
图层 02
100
AcDbVertex
100
AcDb2dVertex
 10
272.5238388386107
 20
145.8774609936444
 30
0.0
  0
VERTEX
  5
3ED
330
276
100
AcDbEntity
  8
图层 02
100
AcDbVertex
100
AcDb2dVertex
 10
272.4653486200236
 20
145.9418466159392
 30
0.0
  0
VERTEX
  5
3EE
330
276
100
AcDbEntity
  8
图层 02
100
AcDbVertex
100
AcDb2dVertex
 10
272.4181913683852
 20
145.9997581731891
 30
0.0
  0
VERTEX
  5
3EF
330
276
100
AcDbEntity
  8
图层 02
100
AcDbVertex
100
AcDb2dVertex
 10
272.3126106232905
 20
146.0865531029915
 30
0.0
  0
VERTEX
  5
3F0
330
276
100
AcDbEntity
  8
图层 02
100
AcDbVertex
100
AcDb2dVertex
 10
272.2238426552487
 20
146.1360097390362
 30
0.0
  0
VERTEX
  5
3F1
330
276
100
AcDbEntity
  8
图层 02
100
AcDbVertex
100
AcDb2dVertex
 10
272.1473892378848
 20
146.1608554713509
 30
0.0
  0
VERTEX
  5
3F2
330
276
100
AcDbEntity
  8
图层 02
100
AcDbVertex
100
AcDb2dVertex
 10
272.1310045655749
 20
146.1575542588303
 30
0.0
  0
VERTEX
  5
3F3
330
276
100
AcDbEntity
  8
图层 02
100
AcDbVertex
100
AcDb2dVertex
 10
272.1125823079855
 20
146.1334403664097
 30
0.0
  0
VERTEX
  5
3F4
330
276
100
AcDbEntity
  8
图层 02
100
AcDbVertex
100
AcDb2dVertex
 10
272.1006545271927
 20
146.096185759536
 30
0.0
  0
VERTEX
  5
3F5
330
276
100
AcDbEntity
  8
图层 02
100
AcDbVertex
100
AcDb2dVertex
 10
272.1127625413711
 20
146.0412837775065
 30
0.0
  0
VERTEX
  5
3F6
330
276
100
AcDbEntity
  8
图层 02
100
AcDbVertex
100
AcDb2dVertex
 10
272.1270787994099
 20
145.9935128714497
 30
0.0
  0
VERTEX
  5
3F7
330
276
100
AcDbEntity
  8
图层 02
100
AcDbVertex
100
AcDb2dVertex
 10
272.1642730738286
 20
145.9578994505188
 30
0.0
  0
VERTEX
  5
3F8
330
276
100
AcDbEntity
  8
图层 02
100
AcDbVertex
100
AcDb2dVertex
 10
272.1993529686746
 20
145.9153244021128
 30
0.0
  0
VERTEX
  5
3F9
330
276
100
AcDbEntity
  8
图层 02
100
AcDbVertex
100
AcDb2dVertex
 10
272.2048508231759
 20
145.8930512639203
 30
0.0
  0
VERTEX
  5
3FA
330
276
100
AcDbEntity
  8
图层 02
100
AcDbVertex
100
AcDb2dVertex
 10
272.1977717008151
 20
145.8828361942947
 30
0.0
  0
VERTEX
  5
3FB
330
276
100
AcDbEntity
  8
图层 02
100
AcDbVertex
100
AcDb2dVertex
 10
272.1810378949431
 20
145.8830533421329
 30
0.0
  0
VERTEX
  5
3FC
330
276
100
AcDbEntity
  8
图层 02
100
AcDbVertex
100
AcDb2dVertex
 10
272.1667088851245
 20
145.8972870160202
 30
0.0
  0
VERTEX
  5
3FD
330
276
100
AcDbEntity
  8
图层 02
100
AcDbVertex
100
AcDb2dVertex
 10
271.9195154342898
 20
146.0780889016986
 30
0.0
  0
VERTEX
  5
3FE
330
276
100
AcDbEntity
  8
图层 02
100
AcDbVertex
100
AcDb2dVertex
 10
271.8119670132182
 20
146.1215098248426
 30
0.0
  0
VERTEX
  5
3FF
330
276
100
AcDbEntity
  8
图层 02
100
AcDbVertex
100
AcDb2dVertex
 10
271.6996282988557
 20
146.1435992527875
 30
0.0
  0
VERTEX
  5
400
330
276
100
AcDbEntity
  8
图层 02
100
AcDbVertex
100
AcDb2dVertex
 10
271.5828643653987
 20
146.1335831528849
 30
0.0
  0
VERTEX
  5
401
330
276
100
AcDbEntity
  8
图层 02
100
AcDbVertex
100
AcDb2dVertex
 10
271.4064192826369
 20
146.0907066689374
 30
0.0
  0
VERTEX
  5
402
330
276
100
AcDbEntity
  8
图层 02
100
AcDbVertex
100
AcDb2dVertex
 10
271.1449491560647
 20
145.9571814625075
 30
0.0
  0
VERTEX
  5
403
330
276
100
AcDbEntity
  8
图层 02
100
AcDbVertex
100
AcDb2dVertex
 10
271.0466599706531
 20
145.881864744341
 30
0.0
  0
VERTEX
  5
404
330
276
100
AcDbEntity
  8
图层 02
100
AcDbVertex
100
AcDb2dVertex
 10
270.9596393313963
 20
145.7948019031633
 30
0.0
  0
VERTEX
  5
405
330
276
100
AcDbEntity
  8
图层 02
100
AcDbVertex
100
AcDb2dVertex
 10
270.8682625817224
 20
145.6673507361115
 30
0.0
  0
VERTEX
  5
406
330
276
100
AcDbEntity
  8
图层 02
100
AcDbVertex
100
AcDb2dVertex
 10
270.7903974443739
 20
145.5633633572592
 30
0.0
  0
VERTEX
  5
407
330
276
100
AcDbEntity
  8
图层 02
100
AcDbVertex
100
AcDb2dVertex
 10
270.7321608996363
 20
145.4330415237134
 30
0.0
  0
VERTEX
  5
408
330
276
100
AcDbEntity
  8
图层 02
100
AcDbVertex
100
AcDb2dVertex
 10
270.7316509807558
 20
145.4135806003878
 30
0.0
  0
VERTEX
  5
409
330
276
100
AcDbEntity
  8
图层 02
100
AcDbVertex
100
AcDb2dVertex
 10
270.7271697745753
 20
145.3837189502413
 30
0.0
  0
VERTEX
  5
40A
330
276
100
AcDbEntity
  8
图层 02
100
AcDbVertex
100
AcDb2dVertex
 10
270.7079172875294
 20
145.3442059201891
 30
0.0
  0
VERTEX
  5
40B
330
276
100
AcDbEntity
  8
图层 02
100
AcDbVertex
100
AcDb2dVertex
 10
270.7077527854009
 20
145.3244250953146
 30
0.0
  0
VERTEX
  5
40C
330
276
100
AcDbEntity
  8
图层 02
100
AcDbVertex
100
AcDb2dVertex
 10
270.6820739946957
 20
145.2584765499853
 30
0.0
  0
VERTEX
  5
40D
330
276
100
AcDbEntity
  8
图层 02
100
AcDbVertex
100
AcDb2dVertex
 10
270.6807044417596
 20
145.2335543160039
 30
0.0
  0
VERTEX
  5
40E
330
276
100
AcDbEntity
  8
图层 02
100
AcDbVertex
100
AcDb2dVertex
 10
270.6751150987981
 20
145.2130718957837
 30
0.0
  0
VERTEX
  5
40F
330
276
100
AcDbEntity
  8
图层 02
100
AcDbVertex
100
AcDb2dVertex
 10
270.6590208107939
 20
145.1680935439292
 30
0.0
  0
VERTEX
  5
410
330
276
100
AcDbEntity
  8
图层 02
100
AcDbVertex
100
AcDb2dVertex
 10
270.6596192077727
 20
145.1360107114354
 30
0.0
  0
VERTEX
  5
411
330
276
100
AcDbEntity
  8
图层 02
100
AcDbVertex
100
AcDb2dVertex
 10
270.6401943254399
 20
145.0013135637795
 30
0.0
  0
VERTEX
  5
412
330
276
100
AcDbEntity
  8
图层 02
100
AcDbVertex
100
AcDb2dVertex
 10
270.6378711614618
 20
144.8994259499543
 30
0.0
  0
VERTEX
  5
413
330
276
100
AcDbEntity
  8
图层 02
100
AcDbVertex
100
AcDb2dVertex
 10
270.6429320542893
 20
144.6641429105476
 30
0.0
  0
VERTEX
  5
414
330
276
100
AcDbEntity
  8
图层 02
100
AcDbVertex
100
AcDb2dVertex
 10
270.650619890286
 20
144.6187054085905
 30
0.0
  0
VERTEX
  5
415
330
276
100
AcDbEntity
  8
图层 02
100
AcDbVertex
100
AcDb2dVertex
 10
270.6540075880823
 20
144.5500227061468
 30
0.0
  0
VERTEX
  5
416
330
276
100
AcDbEntity
  8
图层 02
100
AcDbVertex
100
AcDb2dVertex
 10
270.663334188452
 20
144.4828131454072
 30
0.0
  0
VERTEX
  5
417
330
276
100
AcDbEntity
  8
图层 02
100
AcDbVertex
100
AcDb2dVertex
 10
270.6720056147381
 20
144.4680689743246
 30
0.0
  0
VERTEX
  5
418
330
276
100
AcDbEntity
  8
图层 02
100
AcDbVertex
100
AcDb2dVertex
 10
270.6784761552507
 20
144.4533467183656
 30
0.0
  0
VERTEX
  5
419
330
276
100
AcDbEntity
  8
图层 02
100
AcDbVertex
100
AcDb2dVertex
 10
270.6776670346957
 20
144.3568706825403
 30
0.0
  0
VERTEX
  5
41A
330
276
100
AcDbEntity
  8
图层 02
100
AcDbVertex
100
AcDb2dVertex
 10
270.6843914486876
 20
144.3065866243542
 30
0.0
  0
VERTEX
  5
41B
330
276
100
AcDbEntity
  8
图层 02
100
AcDbVertex
100
AcDb2dVertex
 10
270.6960010714286
 20
144.2489329362046
 30
0.0
  0
VERTEX
  5
41C
330
276
100
AcDbEntity
  8
图层 02
100
AcDbVertex
100
AcDb2dVertex
 10
270.7095580100593
 20
144.2274030947781
 30
0.0
  0
VERTEX
  5
41D
330
276
100
AcDbEntity
  8
图层 02
100
AcDbVertex
100
AcDb2dVertex
 10
270.7080251078837
 20
144.1688592271371
 30
0.0
  0
VERTEX
  5
41E
330
276
100
AcDbEntity
  8
图层 02
100
AcDbVertex
100
AcDb2dVertex
 10
270.7165174107949
 20
144.1448133197807
 30
0.0
  0
VERTEX
  5
41F
330
276
100
AcDbEntity
  8
图层 02
100
AcDbVertex
100
AcDb2dVertex
 10
270.7142636768106
 20
144.1233669678864
 30
0.0
  0
VERTEX
  5
420
330
276
100
AcDbEntity
  8
图层 02
100
AcDbVertex
100
AcDb2dVertex
 10
270.7268674021067
 20
144.054472844907
 30
0.0
  0
VERTEX
  5
421
330
276
100
AcDbEntity
  8
图层 02
100
AcDbVertex
100
AcDb2dVertex
 10
270.7425017067918
 20
144.0205706797942
 30
0.0
  0
VERTEX
  5
422
330
276
100
AcDbEntity
  8
图层 02
100
AcDbVertex
100
AcDb2dVertex
 10
270.747115747075
 20
143.981049152476
 30
0.0
  0
VERTEX
  5
423
330
276
100
AcDbEntity
  8
图层 02
100
AcDbVertex
100
AcDb2dVertex
 10
270.7840007523936
 20
143.866478139963
 30
0.0
  0
VERTEX
  5
424
330
276
100
AcDbEntity
  8
图层 02
100
AcDbVertex
100
AcDb2dVertex
 10
270.8222072878684
 20
143.7847287863565
 30
0.0
  0
VERTEX
  5
425
330
276
100
AcDbEntity
  8
图层 02
100
AcDbVertex
100
AcDb2dVertex
 10
270.8627101471326
 20
143.7205231221792
 30
0.0
  0
VERTEX
  5
426
330
276
100
AcDbEntity
  8
图层 02
100
AcDbVertex
100
AcDb2dVertex
 10
270.8990999857631
 20
143.6941233793821
 30
0.0
  0
VERTEX
  5
427
330
276
100
AcDbEntity
  8
图层 02
100
AcDbVertex
100
AcDb2dVertex
 10
270.9219943789892
 20
143.6908057548623
 30
0.0
  0
VERTEX
  5
428
330
276
100
AcDbEntity
  8
图层 02
100
AcDbVertex
100
AcDb2dVertex
 10
270.9455243996371
 20
143.7015743017745
 30
0.0
  0
VERTEX
  5
429
330
276
100
AcDbEntity
  8
图层 02
100
AcDbVertex
100
AcDb2dVertex
 10
271.0467843709645
 20
143.7837160491084
 30
0.0
  0
VERTEX
  5
42A
330
276
100
AcDbEntity
  8
图层 02
100
AcDbVertex
100
AcDb2dVertex
 10
271.0654994012582
 20
143.8213447700869
 30
0.0
  0
VERTEX
  5
42B
330
276
100
AcDbEntity
  8
图层 02
100
AcDbVertex
100
AcDb2dVertex
 10
271.0651336795985
 20
143.8460326437462
 30
0.0
  0
VERTEX
  5
42C
330
276
100
AcDbEntity
  8
图层 02
100
AcDbVertex
100
AcDb2dVertex
 10
271.0532691022622
 20
143.8555657498334
 30
0.0
  0
SEQEND
  5
42D
330
276
100
AcDbEntity
  8
图层 02
  0
POLYLINE
  5
42E
330
1F
100
AcDbEntity
  8
图层 02
100
AcDb2dPolyline
 66
     1
 10
0.0
 20
0.0
 30
0.0
  0
VERTEX
  5
42F
330
42E
100
AcDbEntity
  8
图层 02
100
AcDbVertex
100
AcDb2dVertex
 10
273.3736233974654
 20
144.6951811679577
 30
0.0
  0
VERTEX
  5
430
330
42E
100
AcDbEntity
  8
图层 02
100
AcDbVertex
100
AcDb2dVertex
 10
273.3950119799647
 20
144.6917575100732
 30
0.0
  0
VERTEX
  5
431
330
42E
100
AcDbEntity
  8
图层 02
100
AcDbVertex
100
AcDb2dVertex
 10
273.4156690886179
 20
144.6760455172199
 30
0.0
  0
VERTEX
  5
432
330
42E
100
AcDbEntity
  8
图层 02
100
AcDbVertex
100
AcDb2dVertex
 10
273.4323284256994
 20
144.6468741374964
 30
0.0
  0
VERTEX
  5
433
330
42E
100
AcDbEntity
  8
图层 02
100
AcDbVertex
100
AcDb2dVertex
 10
273.4393323691189
 20
144.6156745968989
 30
0.0
  0
VERTEX
  5
434
330
42E
100
AcDbEntity
  8
图层 02
100
AcDbVertex
100
AcDb2dVertex
 10
273.4393578347635
 20
144.5589465793987
 30
0.0
  0
VERTEX
  5
435
330
42E
100
AcDbEntity
  8
图层 02
100
AcDbVertex
100
AcDb2dVertex
 10
273.2991324754045
 20
144.560469968481
 30
0.0
  0
VERTEX
  5
436
330
42E
100
AcDbEntity
  8
图层 02
100
AcDbVertex
100
AcDb2dVertex
 10
273.2991324754045
 20
144.5935316571297
 30
0.0
  0
VERTEX
  5
437
330
42E
100
AcDbEntity
  8
图层 02
100
AcDbVertex
100
AcDb2dVertex
 10
273.3026242092329
 20
144.6310653840037
 30
0.0
  0
VERTEX
  5
438
330
42E
100
AcDbEntity
  8
图层 02
100
AcDbVertex
100
AcDb2dVertex
 10
273.3102046487227
 20
144.6637170916336
 30
0.0
  0
VERTEX
  5
439
330
42E
100
AcDbEntity
  8
图层 02
100
AcDbVertex
100
AcDb2dVertex
 10
273.322841937014
 20
144.6830680750117
 30
0.0
  0
VERTEX
  5
43A
330
42E
100
AcDbEntity
  8
图层 02
100
AcDbVertex
100
AcDb2dVertex
 10
273.3413209987512
 20
144.6944105227632
 30
0.0
  0
VERTEX
  5
43B
330
42E
100
AcDbEntity
  8
图层 02
100
AcDbVertex
100
AcDb2dVertex
 10
273.3736233974654
 20
144.6951811679577
 30
0.0
  0
SEQEND
  5
43C
330
42E
100
AcDbEntity
  8
图层 02
  0
POLYLINE
  5
43D
330
1F
100
AcDbEntity
  8
图层 02
100
AcDb2dPolyline
 66
     1
 10
0.0
 20
0.0
 30
0.0
  0
VERTEX
  5
43E
330
43D
100
AcDbEntity
  8
图层 02
100
AcDbVertex
100
AcDb2dVertex
 10
273.482669987709
 20
144.6434659769918
 30
0.0
  0
VERTEX
  5
43F
330
43D
100
AcDbEntity
  8
图层 02
100
AcDbVertex
100
AcDb2dVertex
 10
273.6601858881646
 20
144.7818542143853
 30
0.0
  0
VERTEX
  5
440
330
43D
100
AcDbEntity
  8
图层 02
100
AcDbVertex
100
AcDb2dVertex
 10
273.660265888654
 20
144.7126901256721
 30
0.0
  0
VERTEX
  5
441
330
43D
100
AcDbEntity
  8
图层 02
100
AcDbVertex
100
AcDb2dVertex
 10
273.4876816377024
 20
144.5865962543909
 30
0.0
  0
VERTEX
  5
442
330
43D
100
AcDbEntity
  8
图层 02
100
AcDbVertex
100
AcDb2dVertex
 10
273.4876988261992
 20
144.5581225258125
 30
0.0
  0
VERTEX
  5
443
330
43D
100
AcDbEntity
  8
图层 02
100
AcDbVertex
100
AcDb2dVertex
 10
273.660446843189
 20
144.5562466388301
 30
0.0
  0
VERTEX
  5
444
330
43D
100
AcDbEntity
  8
图层 02
100
AcDbVertex
100
AcDb2dVertex
 10
273.660877657239
 20
144.5049448324901
 30
0.0
  0
VERTEX
  5
445
330
43D
100
AcDbEntity
  8
图层 02
100
AcDbVertex
100
AcDb2dVertex
 10
273.2504921503066
 20
144.5090644333744
 30
0.0
  0
VERTEX
  5
446
330
43D
100
AcDbEntity
  8
图层 02
100
AcDbVertex
100
AcDb2dVertex
 10
273.2505057871017
 20
144.5966544649692
 30
0.0
  0
VERTEX
  5
447
330
43D
100
AcDbEntity
  8
图层 02
100
AcDbVertex
100
AcDb2dVertex
 10
273.2545923749442
 20
144.6404745111979
 30
0.0
  0
VERTEX
  5
448
330
43D
100
AcDbEntity
  8
图层 02
100
AcDbVertex
100
AcDb2dVertex
 10
273.265168673356
 20
144.6859625344711
 30
0.0
  0
VERTEX
  5
449
330
43D
100
AcDbEntity
  8
图层 02
100
AcDbVertex
100
AcDb2dVertex
 10
273.2890049000075
 20
144.7224167158205
 30
0.0
  0
VERTEX
  5
44A
330
43D
100
AcDbEntity
  8
图层 02
100
AcDbVertex
100
AcDb2dVertex
 10
273.3273591500553
 20
144.7459172571669
 30
0.0
  0
VERTEX
  5
44B
330
43D
100
AcDbEntity
  8
图层 02
100
AcDbVertex
100
AcDb2dVertex
 10
273.3760962961446
 20
144.7470394828362
 30
0.0
  0
VERTEX
  5
44C
330
43D
100
AcDbEntity
  8
图层 02
100
AcDbVertex
100
AcDb2dVertex
 10
273.413170892412
 20
144.7410750322688
 30
0.0
  0
VERTEX
  5
44D
330
43D
100
AcDbEntity
  8
图层 02
100
AcDbVertex
100
AcDb2dVertex
 10
273.4516016011938
 20
144.7118114285783
 30
0.0
  0
VERTEX
  5
44E
330
43D
100
AcDbEntity
  8
图层 02
100
AcDbVertex
100
AcDb2dVertex
 10
273.4775231182606
 20
144.6663949718184
 30
0.0
  0
VERTEX
  5
44F
330
43D
100
AcDbEntity
  8
图层 02
100
AcDbVertex
100
AcDb2dVertex
 10
273.482669987709
 20
144.6434659769918
 30
0.0
  0
SEQEND
  5
450
330
43D
100
AcDbEntity
  8
图层 02
  0
POLYLINE
  5
451
330
1F
100
AcDbEntity
  8
图层 02
100
AcDb2dPolyline
 66
     1
 10
0.0
 20
0.0
 30
0.0
  0
VERTEX
  5
452
330
451
100
AcDbEntity
  8
图层 02
100
AcDbVertex
100
AcDb2dVertex
 10
273.440058497004
 20
142.9981308068009
 30
0.0
  0
VERTEX
  5
453
330
451
100
AcDbEntity
  8
图层 02
100
AcDbVertex
100
AcDb2dVertex
 10
273.2991324754045
 20
142.9961549826812
 30
0.0
  0
VERTEX
  5
454
330
451
100
AcDbEntity
  8
图层 02
100
AcDbVertex
100
AcDb2dVertex
 10
273.2991324754044
 20
143.0295486229543
 30
0.0
  0
VERTEX
  5
455
330
451
100
AcDbEntity
  8
图层 02
100
AcDbVertex
100
AcDb2dVertex
 10
273.3026416905843
 20
143.0675466543683
 30
0.0
  0
VERTEX
  5
456
330
451
100
AcDbEntity
  8
图层 02
100
AcDbVertex
100
AcDb2dVertex
 10
273.3102600689548
 20
143.1007160419145
 30
0.0
  0
VERTEX
  5
457
330
451
100
AcDbEntity
  8
图层 02
100
AcDbVertex
100
AcDb2dVertex
 10
273.3229605800119
 20
143.1205778462002
 30
0.0
  0
VERTEX
  5
458
330
451
100
AcDbEntity
  8
图层 02
100
AcDbVertex
100
AcDb2dVertex
 10
273.3415320413757
 20
143.1324970595458
 30
0.0
  0
VERTEX
  5
459
330
451
100
AcDbEntity
  8
图层 02
100
AcDbVertex
100
AcDb2dVertex
 10
273.3739958346653
 20
143.1340846861463
 30
0.0
  0
VERTEX
  5
45A
330
451
100
AcDbEntity
  8
图层 02
100
AcDbVertex
100
AcDb2dVertex
 10
273.3954911958263
 20
143.131162523892
 30
0.0
  0
VERTEX
  5
45B
330
451
100
AcDbEntity
  8
图层 02
100
AcDbVertex
100
AcDb2dVertex
 10
273.4162513872347
 20
143.1158104894608
 30
0.0
  0
VERTEX
  5
45C
330
451
100
AcDbEntity
  8
图层 02
100
AcDbVertex
100
AcDb2dVertex
 10
273.4329938506087
 20
143.0867639890576
 30
0.0
  0
VERTEX
  5
45D
330
451
100
AcDbEntity
  8
图层 02
100
AcDbVertex
100
AcDb2dVertex
 10
273.4400327762592
 20
143.0554270929351
 30
0.0
  0
VERTEX
  5
45E
330
451
100
AcDbEntity
  8
图层 02
100
AcDbVertex
100
AcDb2dVertex
 10
273.440058497004
 20
142.9981308068009
 30
0.0
  0
SEQEND
  5
45F
330
451
100
AcDbEntity
  8
图层 02
  0
POLYLINE
  5
460
330
1F
100
AcDbEntity
  8
图层 02
100
AcDb2dPolyline
 66
     1
 10
0.0
 20
0.0
 30
0.0
  0
VERTEX
  5
461
330
460
100
AcDbEntity
  8
图层 02
100
AcDbVertex
100
AcDb2dVertex
 10
273.6623057521381
 20
142.949134677453
 30
0.0
  0
VERTEX
  5
462
330
460
100
AcDbEntity
  8
图层 02
100
AcDbVertex
100
AcDb2dVertex
 10
273.6622458244679
 20
143.0009448942263
 30
0.0
  0
VERTEX
  5
463
330
460
100
AcDbEntity
  8
图层 02
100
AcDbVertex
100
AcDb2dVertex
 10
273.4886403043724
 20
142.9985100577655
 30
0.0
  0
VERTEX
  5
464
330
460
100
AcDbEntity
  8
图层 02
100
AcDbVertex
100
AcDb2dVertex
 10
273.488601825955
 20
143.0622517580367
 30
0.0
  0
VERTEX
  5
465
330
460
100
AcDbEntity
  8
图层 02
100
AcDbVertex
100
AcDb2dVertex
 10
273.4784136253865
 20
143.1076128775998
 30
0.0
  0
VERTEX
  5
466
330
460
100
AcDbEntity
  8
图层 02
100
AcDbVertex
100
AcDb2dVertex
 10
273.4523629163982
 20
143.1528351633786
 30
0.0
  0
VERTEX
  5
467
330
460
100
AcDbEntity
  8
图层 02
100
AcDbVertex
100
AcDb2dVertex
 10
273.413740611663
 20
143.1814294580609
 30
0.0
  0
VERTEX
  5
468
330
460
100
AcDbEntity
  8
图层 02
100
AcDbVertex
100
AcDb2dVertex
 10
273.3764810176825
 20
143.186525063907
 30
0.0
  0
VERTEX
  5
469
330
460
100
AcDbEntity
  8
图层 02
100
AcDbVertex
100
AcDb2dVertex
 10
273.3275003585355
 20
143.1841708054464
 30
0.0
  0
VERTEX
  5
46A
330
460
100
AcDbEntity
  8
图层 02
100
AcDbVertex
100
AcDb2dVertex
 10
273.2889542001811
 20
143.1594736981918
 30
0.0
  0
VERTEX
  5
46B
330
460
100
AcDbEntity
  8
图层 02
100
AcDbVertex
100
AcDb2dVertex
 10
273.2649985616864
 20
143.1220564457753
 30
0.0
  0
VERTEX
  5
46C
330
460
100
AcDbEntity
  8
图层 02
100
AcDbVertex
100
AcDb2dVertex
 10
273.2543692202071
 20
143.0758466960501
 30
0.0
  0
VERTEX
  5
46D
330
460
100
AcDbEntity
  8
图层 02
100
AcDbVertex
100
AcDb2dVertex
 10
273.2502621074717
 20
143.0314841683351
 30
0.0
  0
VERTEX
  5
46E
330
460
100
AcDbEntity
  8
图层 02
100
AcDbVertex
100
AcDb2dVertex
 10
273.2502483336406
 20
142.9430139448232
 30
0.0
  0
VERTEX
  5
46F
330
460
100
AcDbEntity
  8
图层 02
100
AcDbVertex
100
AcDb2dVertex
 10
273.6623057521381
 20
142.949134677453
 30
0.0
  0
SEQEND
  5
470
330
460
100
AcDbEntity
  8
图层 02
  0
POLYLINE
  5
471
330
1F
100
AcDbEntity
  8
图层 02
100
AcDb2dPolyline
 66
     1
 10
0.0
 20
0.0
 30
0.0
  0
VERTEX
  5
472
330
471
100
AcDbEntity
  8
图层 02
100
AcDbVertex
100
AcDb2dVertex
 10
273.6596202406471
 20
145.2708824110278
 30
0.0
  0
VERTEX
  5
473
330
471
100
AcDbEntity
  8
图层 02
100
AcDbVertex
100
AcDb2dVertex
 10
273.6595593658851
 20
145.3235114320767
 30
0.0
  0
VERTEX
  5
474
330
471
100
AcDbEntity
  8
图层 02
100
AcDbVertex
100
AcDb2dVertex
 10
273.245828028287
 20
145.3330828977837
 30
0.0
  0
VERTEX
  5
475
330
471
100
AcDbEntity
  8
图层 02
100
AcDbVertex
100
AcDb2dVertex
 10
273.2458189657605
 20
145.2801070757248
 30
0.0
  0
VERTEX
  5
476
330
471
100
AcDbEntity
  8
图层 02
100
AcDbVertex
100
AcDb2dVertex
 10
273.6596202406471
 20
145.2708824110278
 30
0.0
  0
SEQEND
  5
477
330
471
100
AcDbEntity
  8
图层 02
  0
POLYLINE
  5
478
330
1F
100
AcDbEntity
  8
图层 02
100
AcDb2dPolyline
 66
     1
 10
0.0
 20
0.0
 30
0.0
  0
VERTEX
  5
479
330
478
100
AcDbEntity
  8
图层 02
100
AcDbVertex
100
AcDb2dVertex
 10
273.5546709743483
 20
145.8370240512774
 30
0.0
  0
VERTEX
  5
47A
330
478
100
AcDbEntity
  8
图层 02
100
AcDbVertex
100
AcDb2dVertex
 10
273.5803054048343
 20
145.8395689419466
 30
0.0
  0
VERTEX
  5
47B
330
478
100
AcDbEntity
  8
图层 02
100
AcDbVertex
100
AcDb2dVertex
 10
273.6079516295882
 20
145.8536983939698
 30
0.0
  0
VERTEX
  5
47C
330
478
100
AcDbEntity
  8
图层 02
100
AcDbVertex
100
AcDb2dVertex
 10
273.6406079194626
 20
145.8851350608491
 30
0.0
  0
VERTEX
  5
47D
330
478
100
AcDbEntity
  8
图层 02
100
AcDbVertex
100
AcDb2dVertex
 10
273.6600388630937
 20
145.9226871346213
 30
0.0
  0
VERTEX
  5
47E
330
478
100
AcDbEntity
  8
图层 02
100
AcDbVertex
100
AcDb2dVertex
 10
273.6652616800945
 20
145.941959257466
 30
0.0
  0
VERTEX
  5
47F
330
478
100
AcDbEntity
  8
图层 02
100
AcDbVertex
100
AcDb2dVertex
 10
273.6667001896658
 20
145.9680764166547
 30
0.0
  0
VERTEX
  5
480
330
478
100
AcDbEntity
  8
图层 02
100
AcDbVertex
100
AcDb2dVertex
 10
273.6635184023492
 20
145.9909240824631
 30
0.0
  0
VERTEX
  5
481
330
478
100
AcDbEntity
  8
图层 02
100
AcDbVertex
100
AcDb2dVertex
 10
273.6568195344283
 20
146.0193062248832
 30
0.0
  0
VERTEX
  5
482
330
478
100
AcDbEntity
  8
图层 02
100
AcDbVertex
100
AcDb2dVertex
 10
273.6450092655316
 20
146.0433304504876
 30
0.0
  0
VERTEX
  5
483
330
478
100
AcDbEntity
  8
图层 02
100
AcDbVertex
100
AcDb2dVertex
 10
273.6220988239344
 20
146.0742424554427
 30
0.0
  0
VERTEX
  5
484
330
478
100
AcDbEntity
  8
图层 02
100
AcDbVertex
100
AcDb2dVertex
 10
273.591725311913
 20
146.0960500732864
 30
0.0
  0
VERTEX
  5
485
330
478
100
AcDbEntity
  8
图层 02
100
AcDbVertex
100
AcDb2dVertex
 10
273.5658493132473
 20
146.1061024861195
 30
0.0
  0
VERTEX
  5
486
330
478
100
AcDbEntity
  8
图层 02
100
AcDbVertex
100
AcDb2dVertex
 10
273.5355608235514
 20
146.1090164346394
 30
0.0
  0
VERTEX
  5
487
330
478
100
AcDbEntity
  8
图层 02
100
AcDbVertex
100
AcDb2dVertex
 10
273.5045599190669
 20
146.1057085158816
 30
0.0
  0
VERTEX
  5
488
330
478
100
AcDbEntity
  8
图层 02
100
AcDbVertex
100
AcDb2dVertex
 10
273.4726227790044
 20
146.091623141329
 30
0.0
  0
VERTEX
  5
489
330
478
100
AcDbEntity
  8
图层 02
100
AcDbVertex
100
AcDb2dVertex
 10
273.4447421146611
 20
146.0613711572013
 30
0.0
  0
VERTEX
  5
48A
330
478
100
AcDbEntity
  8
图层 02
100
AcDbVertex
100
AcDb2dVertex
 10
273.4217783653619
 20
146.0170335183134
 30
0.0
  0
VERTEX
  5
48B
330
478
100
AcDbEntity
  8
图层 02
100
AcDbVertex
100
AcDb2dVertex
 10
273.4006279825555
 20
145.9585486978416
 30
0.0
  0
VERTEX
  5
48C
330
478
100
AcDbEntity
  8
图层 02
100
AcDbVertex
100
AcDb2dVertex
 10
273.3815992006066
 20
145.9284118544417
 30
0.0
  0
VERTEX
  5
48D
330
478
100
AcDbEntity
  8
图层 02
100
AcDbVertex
100
AcDb2dVertex
 10
273.3648672719342
 20
145.9149209962634
 30
0.0
  0
VERTEX
  5
48E
330
478
100
AcDbEntity
  8
图层 02
100
AcDbVertex
100
AcDb2dVertex
 10
273.338608884295
 20
145.912459543324
 30
0.0
  0
VERTEX
  5
48F
330
478
100
AcDbEntity
  8
图层 02
100
AcDbVertex
100
AcDb2dVertex
 10
273.3137119390674
 20
145.9217336693694
 30
0.0
  0
VERTEX
  5
490
330
478
100
AcDbEntity
  8
图层 02
100
AcDbVertex
100
AcDb2dVertex
 10
273.2960656475753
 20
145.9451428119345
 30
0.0
  0
VERTEX
  5
491
330
478
100
AcDbEntity
  8
图层 02
100
AcDbVertex
100
AcDb2dVertex
 10
273.2853357636299
 20
145.9742247627285
 30
0.0
  0
VERTEX
  5
492
330
478
100
AcDbEntity
  8
图层 02
100
AcDbVertex
100
AcDb2dVertex
 10
273.284991612875
 20
146.0099539104043
 30
0.0
  0
VERTEX
  5
493
330
478
100
AcDbEntity
  8
图层 02
100
AcDbVertex
100
AcDb2dVertex
 10
273.2957197526009
 20
146.0342532010494
 30
0.0
  0
VERTEX
  5
494
330
478
100
AcDbEntity
  8
图层 02
100
AcDbVertex
100
AcDb2dVertex
 10
273.3230395895746
 20
146.0594330521367
 30
0.0
  0
VERTEX
  5
495
330
478
100
AcDbEntity
  8
图层 02
100
AcDbVertex
100
AcDb2dVertex
 10
273.2933156624041
 20
146.098878691841
 30
0.0
  0
VERTEX
  5
496
330
478
100
AcDbEntity
  8
图层 02
100
AcDbVertex
100
AcDb2dVertex
 10
273.2590803407002
 20
146.0668337322413
 30
0.0
  0
VERTEX
  5
497
330
478
100
AcDbEntity
  8
图层 02
100
AcDbVertex
100
AcDb2dVertex
 10
273.2427623053027
 20
146.0327147755904
 30
0.0
  0
VERTEX
  5
498
330
478
100
AcDbEntity
  8
图层 02
100
AcDbVertex
100
AcDb2dVertex
 10
273.2367529447789
 20
145.9892501547003
 30
0.0
  0
VERTEX
  5
499
330
478
100
AcDbEntity
  8
图层 02
100
AcDbVertex
100
AcDb2dVertex
 10
273.2408496394317
 20
145.9551143135682
 30
0.0
  0
VERTEX
  5
49A
330
478
100
AcDbEntity
  8
图层 02
100
AcDbVertex
100
AcDb2dVertex
 10
273.2591098059796
 20
145.9091093277167
 30
0.0
  0
VERTEX
  5
49B
330
478
100
AcDbEntity
  8
图层 02
100
AcDbVertex
100
AcDb2dVertex
 10
273.2919072497975
 20
145.8768742053686
 30
0.0
  0
VERTEX
  5
49C
330
478
100
AcDbEntity
  8
图层 02
100
AcDbVertex
100
AcDb2dVertex
 10
273.3323399451589
 20
145.8622331437664
 30
0.0
  0
VERTEX
  5
49D
330
478
100
AcDbEntity
  8
图层 02
100
AcDbVertex
100
AcDb2dVertex
 10
273.3750178137004
 20
145.8636786528767
 30
0.0
  0
VERTEX
  5
49E
330
478
100
AcDbEntity
  8
图层 02
100
AcDbVertex
100
AcDb2dVertex
 10
273.4092130876465
 20
145.8870694500847
 30
0.0
  0
VERTEX
  5
49F
330
478
100
AcDbEntity
  8
图层 02
100
AcDbVertex
100
AcDb2dVertex
 10
273.4321419537728
 20
145.9180775141122
 30
0.0
  0
VERTEX
  5
4A0
330
478
100
AcDbEntity
  8
图层 02
100
AcDbVertex
100
AcDb2dVertex
 10
273.4662316331228
 20
146.000156590907
 30
0.0
  0
VERTEX
  5
4A1
330
478
100
AcDbEntity
  8
图层 02
100
AcDbVertex
100
AcDb2dVertex
 10
273.4954264435946
 20
146.0417666884122
 30
0.0
  0
VERTEX
  5
4A2
330
478
100
AcDbEntity
  8
图层 02
100
AcDbVertex
100
AcDb2dVertex
 10
273.5267181905878
 20
146.0558567044172
 30
0.0
  0
VERTEX
  5
4A3
330
478
100
AcDbEntity
  8
图层 02
100
AcDbVertex
100
AcDb2dVertex
 10
273.5622319726377
 20
146.0527981683888
 30
0.0
  0
VERTEX
  5
4A4
330
478
100
AcDbEntity
  8
图层 02
100
AcDbVertex
100
AcDb2dVertex
 10
273.5973845425307
 20
146.0304414882279
 30
0.0
  0
VERTEX
  5
4A5
330
478
100
AcDbEntity
  8
图层 02
100
AcDbVertex
100
AcDb2dVertex
 10
273.616845136372
 20
145.9962524973286
 30
0.0
  0
VERTEX
  5
4A6
330
478
100
AcDbEntity
  8
图层 02
100
AcDbVertex
100
AcDb2dVertex
 10
273.6209687442754
 20
145.962225056483
 30
0.0
  0
VERTEX
  5
4A7
330
478
100
AcDbEntity
  8
图层 02
100
AcDbVertex
100
AcDb2dVertex
 10
273.6124778902648
 20
145.9340755377434
 30
0.0
  0
VERTEX
  5
4A8
330
478
100
AcDbEntity
  8
图层 02
100
AcDbVertex
100
AcDb2dVertex
 10
273.5979679521133
 20
145.9099938749099
 30
0.0
  0
VERTEX
  5
4A9
330
478
100
AcDbEntity
  8
图层 02
100
AcDbVertex
100
AcDb2dVertex
 10
273.5720817182803
 20
145.8915178536783
 30
0.0
  0
VERTEX
  5
4AA
330
478
100
AcDbEntity
  8
图层 02
100
AcDbVertex
100
AcDb2dVertex
 10
273.5435950325921
 20
145.8874951160647
 30
0.0
  0
VERTEX
  5
4AB
330
478
100
AcDbEntity
  8
图层 02
100
AcDbVertex
100
AcDb2dVertex
 10
273.5546709743483
 20
145.8370240512774
 30
0.0
  0
SEQEND
  5
4AC
330
478
100
AcDbEntity
  8
图层 02
  0
POLYLINE
  5
4AD
330
1F
100
AcDbEntity
  8
图层 02
100
AcDb2dPolyline
 66
     1
 10
0.0
 20
0.0
 30
0.0
  0
VERTEX
  5
4AE
330
4AD
100
AcDbEntity
  8
图层 02
100
AcDbVertex
100
AcDb2dVertex
 10
264.6222188022406
 20
163.834079792845
 30
0.0
  0
VERTEX
  5
4AF
330
4AD
100
AcDbEntity
  8
图层 02
100
AcDbVertex
100
AcDb2dVertex
 10
249.1627600713387
 20
177.2044224790305
 30
0.0
 42
1.000000000000001
  0
VERTEX
  5
4B0
330
4AD
100
AcDbEntity
  8
图层 02
100
AcDbVertex
100
AcDb2dVertex
 10
246.5461523396121
 20
174.1789697892222
 30
0.0
  0
VERTEX
  5
4B1
330
4AD
100
AcDbEntity
  8
图层 02
100
AcDbVertex
100
AcDb2dVertex
 10
262.1474349937376
 20
160.6859685748432
 30
0.0
  0
SEQEND
  5
4B2
330
4AD
100
AcDbEntity
  8
图层 02
  0
CIRCLE
  5
4B3
330
1F
100
AcDbEntity
  8
图层 02
100
AcDbCircle
 10
303.6750631939045
 20
123.3345821797248
 30
0.0
 40
2.0
  0
CIRCLE
  5
4B4
330
1F
100
AcDbEntity
  8
图层 02
100
AcDbCircle
 10
303.6750631939046
 20
166.6654207892801
 30
0.0
 40
1.999999999999943
  0
ENDSEC
  0
SECTION
  2
OBJECTS
  0
DICTIONARY
  5
C
330
0
100
AcDbDictionary
281
     1
  3
ACAD_GROUP
350
D
  3
ACAD_LAYOUT
350
1A
  3
ACAD_MATERIAL
350
3B
  3
ACAD_MLEADERSTYLE
350
4DF
  3
ACAD_MLINESTYLE
350
17
  3
ACAD_PLOTSETTINGS
350
19
  3
ACAD_PLOTSTYLENAME
350
E
  3
ACAD_SCALELIST
350
3F
  3
ACAD_TABLESTYLE
350
4DE
  3
ACAD_VISUALSTYLE
350
2A
  3
AcDbVariableDictionary
350
4B5
  0
DICTIONARY
  5
D
102
{ACAD_REACTORS
330
C
102
}
330
C
100
AcDbDictionary
281
     1
  0
DICTIONARY
  5
1A
102
{ACAD_REACTORS
330
C
102
}
330
C
100
AcDbDictionary
281
     1
  3
Layout1
350
1E
  3
Layout2
350
26
  3
Model
350
22
  0
DICTIONARY
  5
3B
102
{ACAD_REACTORS
330
C
102
}
330
C
100
AcDbDictionary
281
     1
  3
ByBlock
350
3D
  3
ByLayer
350
3C
  3
Global
350
3E
  0
DICTIONARY
  5
4DF
102
{ACAD_REACTORS
330
C
102
}
330
C
100
AcDbDictionary
281
     1
  0
DICTIONARY
  5
17
102
{ACAD_REACTORS
330
C
102
}
330
C
100
AcDbDictionary
281
     1
  3
Standard
350
18
  0
DICTIONARY
  5
19
102
{ACAD_REACTORS
330
C
102
}
330
C
100
AcDbDictionary
281
     1
  0
ACDBDICTIONARYWDFLT
  5
E
102
{ACAD_REACTORS
330
C
102
}
330
C
100
AcDbDictionary
281
     1
  3
Normal
350
F
100
AcDbDictionaryWithDefault
340
F
  0
DICTIONARY
  5
3F
102
{ACAD_REACTORS
330
C
102
}
330
C
100
AcDbDictionary
281
     1
  3
A0
350
40
  3
A1
350
41
  3
A2
350
42
  3
A3
350
43
  3
A4
350
44
  3
A5
350
45
  3
A6
350
46
  3
A7
350
47
  3
A8
350
48
  3
A9
350
49
  3
B0
350
4A
  3
B1
350
4B
  3
B2
350
4C
  3
B3
350
4D
  3
B4
350
4E
  3
B5
350
4F
  3
B6
350
50
  3
B7
350
51
  3
B8
350
52
  3
B9
350
53
  3
C0
350
54
  3
C1
350
55
  3
C2
350
56
  3
C3
350
57
  3
C4
350
58
  3
C5
350
59
  3
C6
350
5A
  3
C7
350
5B
  3
C8
350
5C
  3
C9
350
5D
  3
D0
350
5E
  3
D1
350
5F
  3
D2
350
60
  0
DICTIONARY
  5
4DE
102
{ACAD_REACTORS
330
C
102
}
330
C
100
AcDbDictionary
281
     1
  0
DICTIONARY
  5
2A
102
{ACAD_REACTORS
330
C
102
}
330
C
100
AcDbDictionary
281
     1
  3
2dWireframe
350
2F
  3
3D Hidden
350
31
  3
3dWireframe
350
30
  3
Basic
350
32
  3
Brighten
350
36
  3
ColorChange
350
3A
  3
Conceptual
350
34
  3
Dim
350
35
  3
Facepattern
350
39
  3
Flat
350
2B
  3
FlatWithEdges
350
2C
  3
Gouraud
350
2D
  3
GouraudWithEdges
350
2E
  3
Linepattern
350
38
  3
Realistic
350
33
  3
Thicken
350
37
  0
DICTIONARY
  5
4B5
102
{ACAD_REACTORS
330
C
102
}
330
C
100
AcDbDictionary
281
     1
  3
CANNOSCALE
350
4B6
  3
MSLTSCALE
350
4B7
  0
LAYOUT
  5
1E
102
{ACAD_REACTORS
330
1A
102
}
330
1A
100
AcDbPlotSettings
  1

  2
none_device
  4

  6

 40
0.0
 41
0.0
 42
0.0
 43
0.0
 44
0.0
 45
0.0
 46
0.0
 47
0.0
 48
0.0
 49
0.0
140
0.0
141
0.0
142
1.0
143
1.0
 70
   688
 72
     0
 73
     0
 74
     5
  7

 75
    16
 76
     0
 77
     2
 78
   300
147
1.0
148
0.0
149
0.0
100
AcDbLayout
  1
Layout1
 70
     1
 71
     1
 10
0.0
 20
0.0
 11
12.0
 21
9.0
 12
0.0
 22
0.0
 32
0.0
 14
1.000000000000000E+20
 24
1.000000000000000E+20
 34
1.000000000000000E+20
 15
-1.000000000000000E+20
 25
-1.000000000000000E+20
 35
-1.000000000000000E+20
146
0.0
 13
0.0
 23
0.0
 33
0.0
 16
1.0
 26
0.0
 36
0.0
 17
0.0
 27
1.0
 37
0.0
 76
     0
330
1B
  0
LAYOUT
  5
26
102
{ACAD_REACTORS
330
1A
102
}
330
1A
100
AcDbPlotSettings
  1

  2
none_device
  4

  6

 40
0.0
 41
0.0
 42
0.0
 43
0.0
 44
0.0
 45
0.0
 46
0.0
 47
0.0
 48
0.0
 49
0.0
140
0.0
141
0.0
142
1.0
143
1.0
 70
   688
 72
     0
 73
     0
 74
     5
  7

 75
    16
 76
     0
 77
     2
 78
   300
147
1.0
148
0.0
149
0.0
100
AcDbLayout
  1
Layout2
 70
     1
 71
     2
 10
0.0
 20
0.0
 11
0.0
 21
0.0
 12
0.0
 22
0.0
 32
0.0
 14
0.0
 24
0.0
 34
0.0
 15
0.0
 25
0.0
 35
0.0
146
0.0
 13
0.0
 23
0.0
 33
0.0
 16
1.0
 26
0.0
 36
0.0
 17
0.0
 27
1.0
 37
0.0
 76
     0
330
23
  0
LAYOUT
  5
22
102
{ACAD_REACTORS
330
1A
102
}
330
1A
100
AcDbPlotSettings
  1

  2
none_device
  4
Letter_(8.50_x_11.00_Inches)
  6

 40
6.35
 41
6.35
 42
6.35000508
 43
6.35000508
 44
215.9
 45
279.4
 46
0.0
 47
0.0
 48
0.0
 49
0.0
140
0.0
141
0.0
142
1.0
143
1.0
 70
  1712
 72
     0
 73
     0
 74
     0
  7

 75
     0
 76
     0
 77
     2
 78
   300
147
1.0
148
0.0
149
0.0
100
AcDbLayout
  1
Model
 70
     1
 71
     0
 10
0.0
 20
0.0
 11
12.0
 21
9.0
 12
0.0
 22
0.0
 32
0.0
 14
245.8544562054754
 24
116.9999999999894
 34
0.0
 15
402.7118523395809
 25
177.6916961341264
 35
0.0
146
0.0
 13
0.0
 23
0.0
 33
0.0
 16
1.0
 26
0.0
 36
0.0
 17
0.0
 27
1.0
 37
0.0
 76
     0
330
1F
331
29
  0
MATERIAL
  5
3D
102
{ACAD_REACTORS
330
3B
102
}
102
{ACAD_XDICTIONARY
360
4DA
102
}
330
3B
100
AcDbMaterial
  1
ByBlock
  0
MATERIAL
  5
3C
102
{ACAD_REACTORS
330
3B
102
}
102
{ACAD_XDICTIONARY
360
4D8
102
}
330
3B
100
AcDbMaterial
  1
ByLayer
  0
MATERIAL
  5
3E
102
{ACAD_REACTORS
330
3B
102
}
102
{ACAD_XDICTIONARY
360
4DC
102
}
330
3B
100
AcDbMaterial
  1
Global
  0
MLINESTYLE
  5
18
102
{ACAD_REACTORS
330
17
102
}
330
17
100
AcDbMlineStyle
  2
Standard
 70
     0
  3

 62
   256
 51
90.0
 52
90.0
 71
     2
 49
0.5
 62
   256
  6
BYLAYER
 49
-0.5
 62
   256
  6
BYLAYER
  0
ACDBPLACEHOLDER
  5
F
102
{ACAD_REACTORS
330
E
102
}
330
E
  0
SCALE
  5
40
102
{ACAD_REACTORS
330
3F
102
}
330
3F
100
AcDbScale
 70
     0
300
1:1
140
1.0
141
1.0
290
     1
  0
SCALE
  5
41
102
{ACAD_REACTORS
330
3F
102
}
330
3F
100
AcDbScale
 70
     0
300
1:2
140
1.0
141
2.0
290
     0
  0
SCALE
  5
42
102
{ACAD_REACTORS
330
3F
102
}
330
3F
100
AcDbScale
 70
     0
300
1:4
140
1.0
141
4.0
290
     0
  0
SCALE
  5
43
102
{ACAD_REACTORS
330
3F
102
}
330
3F
100
AcDbScale
 70
     0
300
1:5
140
1.0
141
5.0
290
     0
  0
SCALE
  5
44
102
{ACAD_REACTORS
330
3F
102
}
330
3F
100
AcDbScale
 70
     0
300
1:8
140
1.0
141
8.0
290
     0
  0
SCALE
  5
45
102
{ACAD_REACTORS
330
3F
102
}
330
3F
100
AcDbScale
 70
     0
300
1:10
140
1.0
141
10.0
290
     0
  0
SCALE
  5
46
102
{ACAD_REACTORS
330
3F
102
}
330
3F
100
AcDbScale
 70
     0
300
1:16
140
1.0
141
16.0
290
     0
  0
SCALE
  5
47
102
{ACAD_REACTORS
330
3F
102
}
330
3F
100
AcDbScale
 70
     0
300
1:20
140
1.0
141
20.0
290
     0
  0
SCALE
  5
48
102
{ACAD_REACTORS
330
3F
102
}
330
3F
100
AcDbScale
 70
     0
300
1:30
140
1.0
141
30.0
290
     0
  0
SCALE
  5
49
102
{ACAD_REACTORS
330
3F
102
}
330
3F
100
AcDbScale
 70
     0
300
1:40
140
1.0
141
40.0
290
     0
  0
SCALE
  5
4A
102
{ACAD_REACTORS
330
3F
102
}
330
3F
100
AcDbScale
 70
     0
300
1:50
140
1.0
141
50.0
290
     0
  0
SCALE
  5
4B
102
{ACAD_REACTORS
330
3F
102
}
330
3F
100
AcDbScale
 70
     0
300
1:100
140
1.0
141
100.0
290
     0
  0
SCALE
  5
4C
102
{ACAD_REACTORS
330
3F
102
}
330
3F
100
AcDbScale
 70
     0
300
2:1
140
2.0
141
1.0
290
     0
  0
SCALE
  5
4D
102
{ACAD_REACTORS
330
3F
102
}
330
3F
100
AcDbScale
 70
     0
300
4:1
140
4.0
141
1.0
290
     0
  0
SCALE
  5
4E
102
{ACAD_REACTORS
330
3F
102
}
330
3F
100
AcDbScale
 70
     0
300
8:1
140
8.0
141
1.0
290
     0
  0
SCALE
  5
4F
102
{ACAD_REACTORS
330
3F
102
}
330
3F
100
AcDbScale
 70
     0
300
10:1
140
10.0
141
1.0
290
     0
  0
SCALE
  5
50
102
{ACAD_REACTORS
330
3F
102
}
330
3F
100
AcDbScale
 70
     0
300
100:1
140
100.0
141
1.0
290
     0
  0
SCALE
  5
51
102
{ACAD_REACTORS
330
3F
102
}
330
3F
100
AcDbScale
 70
     0
300
1/128" = 1'-0"
140
0.0078125
141
12.0
290
     0
  0
SCALE
  5
52
102
{ACAD_REACTORS
330
3F
102
}
330
3F
100
AcDbScale
 70
     0
300
1/64" = 1'-0"
140
0.015625
141
12.0
290
     0
  0
SCALE
  5
53
102
{ACAD_REACTORS
330
3F
102
}
330
3F
100
AcDbScale
 70
     0
300
1/32" = 1'-0"
140
0.03125
141
12.0
290
     0
  0
SCALE
  5
54
102
{ACAD_REACTORS
330
3F
102
}
330
3F
100
AcDbScale
 70
     0
300
1/16" = 1'-0"
140
0.0625
141
12.0
290
     0
  0
SCALE
  5
55
102
{ACAD_REACTORS
330
3F
102
}
330
3F
100
AcDbScale
 70
     0
300
3/32" = 1'-0"
140
0.09375
141
12.0
290
     0
  0
SCALE
  5
56
102
{ACAD_REACTORS
330
3F
102
}
330
3F
100
AcDbScale
 70
     0
300
1/8" = 1'-0"
140
0.125
141
12.0
290
     0
  0
SCALE
  5
57
102
{ACAD_REACTORS
330
3F
102
}
330
3F
100
AcDbScale
 70
     0
300
3/16" = 1'-0"
140
0.1875
141
12.0
290
     0
  0
SCALE
  5
58
102
{ACAD_REACTORS
330
3F
102
}
330
3F
100
AcDbScale
 70
     0
300
1/4" = 1'-0"
140
0.25
141
12.0
290
     0
  0
SCALE
  5
59
102
{ACAD_REACTORS
330
3F
102
}
330
3F
100
AcDbScale
 70
     0
300
3/8" = 1'-0"
140
0.375
141
12.0
290
     0
  0
SCALE
  5
5A
102
{ACAD_REACTORS
330
3F
102
}
330
3F
100
AcDbScale
 70
     0
300
1/2" = 1'-0"
140
0.5
141
12.0
290
     0
  0
SCALE
  5
5B
102
{ACAD_REACTORS
330
3F
102
}
330
3F
100
AcDbScale
 70
     0
300
3/4" = 1'-0"
140
0.75
141
12.0
290
     0
  0
SCALE
  5
5C
102
{ACAD_REACTORS
330
3F
102
}
330
3F
100
AcDbScale
 70
     0
300
1" = 1'-0"
140
1.0
141
12.0
290
     0
  0
SCALE
  5
5D
102
{ACAD_REACTORS
330
3F
102
}
330
3F
100
AcDbScale
 70
     0
300
1-1/2" = 1'-0"
140
1.5
141
12.0
290
     0
  0
SCALE
  5
5E
102
{ACAD_REACTORS
330
3F
102
}
330
3F
100
AcDbScale
 70
     0
300
3" = 1'-0"
140
3.0
141
12.0
290
     0
  0
SCALE
  5
5F
102
{ACAD_REACTORS
330
3F
102
}
330
3F
100
AcDbScale
 70
     0
300
6" = 1'-0"
140
6.0
141
12.0
290
     0
  0
SCALE
  5
60
102
{ACAD_REACTORS
330
3F
102
}
330
3F
100
AcDbScale
 70
     0
300
1'-0" = 1'-0"
140
12.0
141
12.0
290
     0
  0
VISUALSTYLE
  5
2F
102
{ACAD_REACTORS
330
2A
102
}
102
{ACAD_XDICTIONARY
360
4C0
102
}
330
2A
100
AcDbVisualStyle
  2
2dWireframe
 70
     4
 71
     0
 72
     2
 73
     0
 90
        0
 40
0.6
 41
30.0
 62
     5
 63
     7
421
 16777215
 74
     1
 91
        4
 64
     7
 65
   257
 75
     1
175
     1
 42
1.0
 92
        0
 66
   257
 43
1.0
 76
     1
 77
     6
 78
     2
 67
     7
 79
     5
170
     0
171
     0
290
     0
174
     0
 93
        1
 44
0.0
173
     0
291
     0
 45
0.0
1001
ACAD
1000
AcDbSavedByObjectVersion
1070
     0
  0
VISUALSTYLE
  5
31
102
{ACAD_REACTORS
330
2A
102
}
102
{ACAD_XDICTIONARY
360
4C4
102
}
330
2A
100
AcDbVisualStyle
  2
3D Hidden
 70
     6
 71
     1
 72
     2
 73
     2
 90
        0
 40
0.6
 41
30.0
 62
     5
 63
     7
421
 16777215
 74
     2
 91
        2
 64
     7
 65
   257
 75
     2
175
     1
 42
40.0
 92
        0
 66
   257
 43
1.0
 76
     1
 77
     6
 78
     2
 67
     7
 79
     3
170
     0
171
     0
290
     0
174
     0
 93
        1
 44
0.0
173
     0
291
     0
 45
0.0
1001
ACAD
1000
AcDbSavedByObjectVersion
1070
     0
  0
VISUALSTYLE
  5
30
102
{ACAD_REACTORS
330
2A
102
}
102
{ACAD_XDICTIONARY
360
4C2
102
}
330
2A
100
AcDbVisualStyle
  2
3dWireframe
 70
     5
 71
     0
 72
     2
 73
     0
 90
        0
 40
0.6
 41
30.0
 62
     5
 63
     7
421
 16777215
 74
     1
 91
        4
 64
     7
 65
   257
 75
     1
175
     1
 42
1.0
 92
        0
 66
   257
 43
1.0
 76
     1
 77
     6
 78
     2
 67
     7
 79
     5
170
     0
171
     0
290
     0
174
     0
 93
        1
 44
0.0
173
     0
291
     0
 45
0.0
1001
ACAD
1000
AcDbSavedByObjectVersion
1070
     0
  0
VISUALSTYLE
  5
32
102
{ACAD_REACTORS
330
2A
102
}
102
{ACAD_XDICTIONARY
360
4C6
102
}
330
2A
100
AcDbVisualStyle
  2
Basic
 70
     7
 71
     1
 72
     0
 73
     1
 90
        0
 40
0.6
 41
30.0
 62
     5
 63
     7
421
 16777215
 74
     0
 91
        4
 64
     7
 65
   257
 75
     1
175
     1
 42
1.0
 92
        8
 66
     7
 43
1.0
 76
     1
 77
     6
 78
     2
 67
     7
 79
     5
170
     0
171
     0
290
     0
174
     0
 93
        1
 44
0.0
173
     0
291
     1
 45
0.0
1001
ACAD
1000
AcDbSavedByObjectVersion
1070
     0
  0
VISUALSTYLE
  5
36
102
{ACAD_REACTORS
330
2A
102
}
102
{ACAD_XDICTIONARY
360
4CE
102
}
330
2A
100
AcDbVisualStyle
  2
Brighten
 70
    12
 71
     2
 72
     2
 73
     0
 90
        0
 40
0.6
 41
30.0
 62
     5
 63
     7
421
 16777215
 74
     1
 91
        4
 64
     7
 65
   257
 75
     1
175
     1
 42
1.0
 92
        8
 66
     7
 43
1.0
 76
     1
 77
     6
 78
     2
 67
     7
 79
     5
170
     0
171
     0
290
     0
174
     0
 93
        1
 44
50.0
173
     0
291
     1
 45
0.0
1001
ACAD
1000
AcDbSavedByObjectVersion
1070
     0
  0
VISUALSTYLE
  5
3A
102
{ACAD_REACTORS
330
2A
102
}
102
{ACAD_XDICTIONARY
360
4D6
102
}
330
2A
100
AcDbVisualStyle
  2
ColorChange
 70
    16
 71
     2
 72
     2
 73
     3
 90
        0
 40
0.6
 41
30.0
 62
     5
 63
     8
421
  8421504
 74
     1
 91
        4
 64
     7
 65
   257
 75
     1
175
     1
 42
1.0
 92
        8
 66
     8
424
  8421504
 43
1.0
 76
     1
 77
     6
 78
     2
 67
     7
 79
     5
170
     0
171
     0
290
     0
174
     0
 93
        1
 44
0.0
173
     0
291
     1
 45
0.0
1001
ACAD
1000
AcDbSavedByObjectVersion
1070
     0
  0
VISUALSTYLE
  5
34
102
{ACAD_REACTORS
330
2A
102
}
102
{ACAD_XDICTIONARY
360
4CA
102
}
330
2A
100
AcDbVisualStyle
  2
Conceptual
 70
     9
 71
     3
 72
     2
 73
     0
 90
        0
 40
0.6
 41
30.0
 62
     5
 63
     7
421
 16777215
 74
     2
 91
        2
 64
     7
 65
   257
 75
     1
175
     1
 42
40.0
 92
        8
 66
     7
 43
1.0
 76
     1
 77
     6
 78
     2
 67
     7
 79
     3
170
     0
171
     0
290
     0
174
     0
 93
        1
 44
0.0
173
     0
291
     0
 45
0.0
1001
ACAD
1000
AcDbSavedByObjectVersion
1070
     0
  0
VISUALSTYLE
  5
35
102
{ACAD_REACTORS
330
2A
102
}
102
{ACAD_XDICTIONARY
360
4CC
102
}
330
2A
100
AcDbVisualStyle
  2
Dim
 70
    11
 71
     2
 72
     2
 73
     0
 90
        0
 40
0.6
 41
30.0
 62
     5
 63
     7
421
 16777215
 74
     1
 91
        4
 64
     7
 65
   257
 75
     1
175
     1
 42
1.0
 92
        8
 66
     7
 43
1.0
 76
     1
 77
     6
 78
     2
 67
     7
 79
     5
170
     0
171
     0
290
     0
174
     0
 93
        1
 44
-50.0
173
     0
291
     1
 45
0.0
1001
ACAD
1000
AcDbSavedByObjectVersion
1070
     0
  0
VISUALSTYLE
  5
39
102
{ACAD_REACTORS
330
2A
102
}
102
{ACAD_XDICTIONARY
360
4D4
102
}
330
2A
100
AcDbVisualStyle
  2
Facepattern
 70
    15
 71
     2
 72
     2
 73
     0
 90
        0
 40
0.6
 41
30.0
 62
     5
 63
     7
421
 16777215
 74
     1
 91
        4
 64
     7
 65
   257
 75
     1
175
     1
 42
1.0
 92
        8
 66
     7
 43
1.0
 76
     1
 77
     6
 78
     2
 67
     7
 79
     5
170
     0
171
     0
290
     0
174
     0
 93
        1
 44
0.0
173
     0
291
     1
 45
0.0
1001
ACAD
1000
AcDbSavedByObjectVersion
1070
     0
  0
VISUALSTYLE
  5
2B
102
{ACAD_REACTORS
330
2A
102
}
102
{ACAD_XDICTIONARY
360
4B8
102
}
330
2A
100
AcDbVisualStyle
  2
Flat
 70
     0
 71
     2
 72
     1
 73
     1
 90
        2
 40
0.6
 41
30.0
 62
     5
 63
     7
421
 16777215
 74
     0
 91
        4
 64
     7
 65
   257
 75
     1
175
     1
 42
1.0
 92
        8
 66
     7
 43
1.0
 76
     1
 77
     6
 78
     2
 67
     7
 79
     5
170
     0
171
     0
290
     0
174
     0
 93
       13
 44
0.0
173
     0
291
     1
 45
0.0
1001
ACAD
1000
AcDbSavedByObjectVersion
1070
     0
  0
VISUALSTYLE
  5
2C
102
{ACAD_REACTORS
330
2A
102
}
102
{ACAD_XDICTIONARY
360
4BA
102
}
330
2A
100
AcDbVisualStyle
  2
FlatWithEdges
 70
     1
 71
     2
 72
     1
 73
     1
 90
        2
 40
0.6
 41
30.0
 62
     5
 63
     7
421
 16777215
 74
     1
 91
        4
 64
     7
 65
   257
 75
     1
175
     1
 42
1.0
 92
        0
 66
   257
 43
1.0
 76
     1
 77
     6
 78
     2
 67
     7
 79
     5
170
     0
171
     0
290
     0
174
     0
 93
       13
 44
0.0
173
     0
291
     1
 45
0.0
1001
ACAD
1000
AcDbSavedByObjectVersion
1070
     0
  0
VISUALSTYLE
  5
2D
102
{ACAD_REACTORS
330
2A
102
}
102
{ACAD_XDICTIONARY
360
4BC
102
}
330
2A
100
AcDbVisualStyle
  2
Gouraud
 70
     2
 71
     2
 72
     2
 73
     1
 90
        2
 40
0.6
 41
30.0
 62
     5
 63
     7
421
 16777215
 74
     0
 91
        4
 64
     7
 65
   257
 75
     1
175
     1
 42
1.0
 92
        0
 66
     7
 43
1.0
 76
     1
 77
     6
 78
     2
 67
     7
 79
     5
170
     0
171
     0
290
     0
174
     0
 93
       13
 44
0.0
173
     0
291
     1
 45
0.0
1001
ACAD
1000
AcDbSavedByObjectVersion
1070
     0
  0
VISUALSTYLE
  5
2E
102
{ACAD_REACTORS
330
2A
102
}
102
{ACAD_XDICTIONARY
360
4BE
102
}
330
2A
100
AcDbVisualStyle
  2
GouraudWithEdges
 70
     3
 71
     2
 72
     2
 73
     1
 90
        2
 40
0.6
 41
30.0
 62
     5
 63
     7
421
 16777215
 74
     1
 91
        4
 64
     7
 65
   257
 75
     1
175
     1
 42
1.0
 92
        0
 66
   257
 43
1.0
 76
     1
 77
     6
 78
     2
 67
     7
 79
     5
170
     0
171
     0
290
     0
174
     0
 93
       13
 44
0.0
173
     0
291
     1
 45
0.0
1001
ACAD
1000
AcDbSavedByObjectVersion
1070
     0
  0
VISUALSTYLE
  5
38
102
{ACAD_REACTORS
330
2A
102
}
102
{ACAD_XDICTIONARY
360
4D2
102
}
330
2A
100
AcDbVisualStyle
  2
Linepattern
 70
    14
 71
     2
 72
     2
 73
     0
 90
        0
 40
0.6
 41
30.0
 62
     5
 63
     7
421
 16777215
 74
     1
 91
        4
 64
     7
 65
   257
 75
     7
175
     7
 42
1.0
 92
        8
 66
     7
 43
1.0
 76
     1
 77
     6
 78
     2
 67
     7
 79
     5
170
     0
171
     0
290
     0
174
     0
 93
        1
 44
0.0
173
     0
291
     1
 45
0.0
1001
ACAD
1000
AcDbSavedByObjectVersion
1070
     0
  0
VISUALSTYLE
  5
33
102
{ACAD_REACTORS
330
2A
102
}
102
{ACAD_XDICTIONARY
360
4C8
102
}
330
2A
100
AcDbVisualStyle
  2
Realistic
 70
     8
 71
     2
 72
     3
 73
     0
 90
        2
 40
0.6
 41
30.0
 62
     5
 63
     7
421
 16777215
 74
     0
 91
        0
 64
     7
 65
   257
 75
     1
175
     1
 42
1.0
 92
        8
 66
   257
 43
1.0
 76
     1
 77
     6
 78
     2
 67
     7
 79
     3
170
     0
171
     0
290
     0
174
     0
 93
       13
 44
0.0
173
     0
291
     0
 45
0.0
1001
ACAD
1000
AcDbSavedByObjectVersion
1070
     0
  0
VISUALSTYLE
  5
37
102
{ACAD_REACTORS
330
2A
102
}
102
{ACAD_XDICTIONARY
360
4D0
102
}
330
2A
100
AcDbVisualStyle
  2
Thicken
 70
    13
 71
     2
 72
     2
 73
     0
 90
        0
 40
0.6
 41
30.0
 62
     5
 63
     7
421
 16777215
 74
     1
 91
        4
 64
     7
 65
   257
 75
     1
175
     1
 42
1.0
 92
       12
 66
     7
 43
1.0
 76
     1
 77
     6
 78
     2
 67
     7
 79
     5
170
     0
171
     0
290
     0
174
     0
 93
        1
 44
0.0
173
     0
291
     1
 45
0.0
1001
ACAD
1000
AcDbSavedByObjectVersion
1070
     0
  0
DICTIONARYVAR
  5
4B6
102
{ACAD_REACTORS
330
4B5
102
}
330
4B5
100
DictionaryVariables
280
     0
  1
1:1
  0
DICTIONARYVAR
  5
4B7
102
{ACAD_REACTORS
330
4B5
102
}
330
4B5
100
DictionaryVariables
280
     0
  1
1
  0
DICTIONARY
  5
4DA
330
3D
100
AcDbDictionary
280
     1
281
     1
  3
ACAD_XREC_ROUNDTRIP
360
4DB
  0
DICTIONARY
  5
4D8
330
3C
100
AcDbDictionary
280
     1
281
     1
  3
ACAD_XREC_ROUNDTRIP
360
4D9
  0
DICTIONARY
  5
4DC
330
3E
100
AcDbDictionary
280
     1
281
     1
  3
ACAD_XREC_ROUNDTRIP
360
4DD
  0
DICTIONARY
  5
4C0
330
2F
100
AcDbDictionary
280
     1
281
     1
  3
ACAD_XREC_ROUNDTRIP
360
4C1
  0
DICTIONARY
  5
4C4
330
31
100
AcDbDictionary
280
     1
281
     1
  3
ACAD_XREC_ROUNDTRIP
360
4C5
  0
DICTIONARY
  5
4C2
330
30
100
AcDbDictionary
280
     1
281
     1
  3
ACAD_XREC_ROUNDTRIP
360
4C3
  0
DICTIONARY
  5
4C6
330
32
100
AcDbDictionary
280
     1
281
     1
  3
ACAD_XREC_ROUNDTRIP
360
4C7
  0
DICTIONARY
  5
4CE
330
36
100
AcDbDictionary
280
     1
281
     1
  3
ACAD_XREC_ROUNDTRIP
360
4CF
  0
DICTIONARY
  5
4D6
330
3A
100
AcDbDictionary
280
     1
281
     1
  3
ACAD_XREC_ROUNDTRIP
360
4D7
  0
DICTIONARY
  5
4CA
330
34
100
AcDbDictionary
280
     1
281
     1
  3
ACAD_XREC_ROUNDTRIP
360
4CB
  0
DICTIONARY
  5
4CC
330
35
100
AcDbDictionary
280
     1
281
     1
  3
ACAD_XREC_ROUNDTRIP
360
4CD
  0
DICTIONARY
  5
4D4
330
39
100
AcDbDictionary
280
     1
281
     1
  3
ACAD_XREC_ROUNDTRIP
360
4D5
  0
DICTIONARY
  5
4B8
330
2B
100
AcDbDictionary
280
     1
281
     1
  3
ACAD_XREC_ROUNDTRIP
360
4B9
  0
DICTIONARY
  5
4BA
330
2C
100
AcDbDictionary
280
     1
281
     1
  3
ACAD_XREC_ROUNDTRIP
360
4BB
  0
DICTIONARY
  5
4BC
330
2D
100
AcDbDictionary
280
     1
281
     1
  3
ACAD_XREC_ROUNDTRIP
360
4BD
  0
DICTIONARY
  5
4BE
330
2E
100
AcDbDictionary
280
     1
281
     1
  3
ACAD_XREC_ROUNDTRIP
360
4BF
  0
DICTIONARY
  5
4D2
330
38
100
AcDbDictionary
280
     1
281
     1
  3
ACAD_XREC_ROUNDTRIP
360
4D3
  0
DICTIONARY
  5
4C8
330
33
100
AcDbDictionary
280
     1
281
     1
  3
ACAD_XREC_ROUNDTRIP
360
4C9
  0
DICTIONARY
  5
4D0
330
37
100
AcDbDictionary
280
     1
281
     1
  3
ACAD_XREC_ROUNDTRIP
360
4D1
  0
XRECORD
  5
4DB
102
{ACAD_REACTORS
330
4DA
102
}
330
4DA
100
AcDbXrecord
280
     1
102
MATERIAL
148
0.0
149
0.0
149
0.0
 93
        0
 94
      127
282
     0
 72
     1
 77
     1
171
     1
175
     1
179
     1
273
     0
  0
XRECORD
  5
4D9
102
{ACAD_REACTORS
330
4D8
102
}
330
4D8
100
AcDbXrecord
280
     1
102
MATERIAL
148
0.0
149
0.0
149
0.0
 93
        0
 94
      127
282
     0
 72
     1
 77
     1
171
     1
175
     1
179
     1
273
     0
  0
XRECORD
  5
4DD
102
{ACAD_REACTORS
330
4DC
102
}
330
4DC
100
AcDbXrecord
280
     1
102
MATERIAL
148
0.0
149
0.0
149
0.0
 93
        0
 94
      127
282
     0
 72
     1
 77
     1
171
     1
175
     1
179
     1
273
     0
  0
XRECORD
  5
4C1
102
{ACAD_REACTORS
330
4C0
102
}
330
4C0
100
AcDbXrecord
280
     1
102
RTVSPropertyOp0
 70
     1
102
RTVSPropertyOp1
 70
     1
102
RTVSPropertyOp2
 70
     1
102
RTVSPropertyOp3
 70
     1
102
RTVSPropertyOp4
 70
     1
102
RTVSPropertyOp5
 70
     1
102
RTVSPropertyOp6
 70
     1
102
RTVSPropertyOp7
 70
     1
102
RTVSPropertyOp8
 70
     1
102
RTVSPropertyOp9
 70
     1
102
RTVSPropertyOp10
 70
     1
102
RTVSPropertyOp11
 70
     1
102
RTVSPropertyOp12
 70
     1
102
RTVSPropertyOp13
 70
     1
102
RTVSPropertyOp14
 70
     1
102
RTVSPropertyOp15
 70
     1
102
RTVSPropertyOp16
 70
     1
102
RTVSPropertyOp17
 70
     1
102
RTVSPropertyOp18
 70
     1
102
RTVSPropertyOp19
 70
     1
102
RTVSPropertyOp20
 70
     1
102
RTVSPropertyOp21
 70
     1
102
RTVSPropertyOp22
 70
     1
102
RTVSPropertyOp23
 70
     1
102
RTVSPropertyOp24
 70
     1
102
RTVSPropertyOp25
 70
     1
102
RTVSPropertyOp26
 70
     1
102
RTVSPropertyOp27
 70
     1
102
RTVSPropertyOp28
 70
     1
102
RTVSPropertyOp29
 70
     1
102
RTVSPropertyOp30
 70
     1
102
RTVSPropertyOp31
 70
     1
102
RTVSPropertyOp32
 70
     1
102
RTVSPropertyOp33
 70
     1
102
RTVSPropertyOp34
 70
     1
102
RTVSPropertyOp35
 70
     1
102
RTVSPropertyOp36
 70
     1
102
RTVSPropertyOp37
 70
     1
102
RTVSPropertyOp38
 70
     1
102
RTVSPropertyOp39
 70
     1
102
RTVSPropertyOp40
 70
     1
102
RTVSPropertyOp41
 70
     1
102
RTVSPropertyOp42
 70
     1
102
RTVSPropertyOp43
 70
     1
102
RTVSPropertyOp44
 70
     1
102
RTVSPropertyOp45
 70
     1
102
RTVSPropertyOp46
 70
     1
102
RTVSPropertyOp47
 70
     1
102
RTVSPropertyOp48
 70
     1
102
RTVSPropertyOp49
 70
     1
102
RTVSPropertyOp50
 70
     1
102
RTVSPropertyOp51
 70
     0
102
RTVSPropertyOp52
 70
     0
102
RTVSPropertyOp53
 70
     1
102
RTVSPropertyOp54
 70
     1
102
RTVSPropertyOp55
 70
     1
102
RTVSPropertyOp56
 70
     1
102
RTVSPropertyOp57
 70
     1
102
RTVSPost2010Prop28
280
     1
102
RTVSPost2010PropOp28
 70
     1
102
RTVSPost2010Prop29
280
     1
102
RTVSPost2010PropOp29
 70
     1
102
RTVSPost2010Prop30
280
     0
102
RTVSPost2010PropOp30
 70
     1
102
RTVSPost2010Prop31
280
     0
102
RTVSPost2010PropOp31
 70
     1
102
RTVSPost2010Prop32
280
     0
102
RTVSPost2010PropOp32
 70
     1
102
RTVSPost2010Prop33
280
     0
102
RTVSPost2010PropOp33
 70
     1
102
RTVSPost2010Prop34
280
     0
102
RTVSPost2010PropOp34
 70
     1
102
RTVSPost2010Prop35
280
     0
102
RTVSPost2010PropOp35
 70
     1
102
RTVSPost2010Prop36
280
     0
102
RTVSPost2010PropOp36
 70
     1
102
RTVSPost2010Prop37
 90
       50
102
RTVSPost2010PropOp37
 70
     1
102
RTVSPost2010Prop38
140
0.0
102
RTVSPost2010PropOp38
 70
     1
102
RTVSPost2010Prop39
140
1.0
102
RTVSPost2010PropOp39
 70
     1
102
RTVSPost2010Prop40
 90
        0
102
RTVSPost2010PropOp40
 70
     1
102
RTVSPost2010Prop41ColorIndex
 90
       18
102
RTVSPost2010Prop41ColorRGB
 90
        0
102
RTVSPost2010PropOp41
 70
     1
102
RTVSPost2010Prop42
 90
       50
102
RTVSPost2010PropOp42
 70
     1
102
RTVSPost2010Prop43
 90
        3
102
RTVSPost2010PropOp43
 70
     1
102
RTVSPost2010Prop44ColorIndex
 90
        5
102
RTVSPost2010Prop44ColorRGB
 90
      255
102
RTVSPost2010PropOp44
 70
     1
102
RTVSPost2010Prop45
280
     0
102
RTVSPost2010PropOp45
 70
     1
102
RTVSPost2010Prop46
 90
       50
102
RTVSPost2010PropOp46
 70
     1
102
RTVSPost2010Prop47
 90
       50
102
RTVSPost2010PropOp47
 70
     1
102
RTVSPost2010Prop48
 90
       50
102
RTVSPost2010PropOp48
 70
     1
102
RTVSPost2010Prop49
280
     0
102
RTVSPost2010PropOp49
 70
     1
102
RTVSPost2010Prop50
 90
       50
102
RTVSPost2010PropOp50
 70
     1
102
RTVSPost2010Prop51ColorIndex
 90
      256
102
RTVSPost2010Prop51ColorRGB
 90
-16777216
102
RTVSPost2010PropOp51
 70
     0
102
RTVSPost2010Prop52
140
1.0
102
RTVSPost2010PropOp52
 70
     0
102
RTVSPost2010Prop53
 90
        2
102
RTVSPost2010PropOp53
 70
     1
102
RTVSPost2010Prop54
  1
strokes_ogs.tif
102
RTVSPost2010PropOp54
 70
     1
102
RTVSPost2010Prop55
280
     0
102
RTVSPost2010PropOp55
 70
     1
102
RTVSPost2010Prop56
140
1.0
102
RTVSPost2010PropOp56
 70
     1
102
RTVSPost2010Prop57
140
1.0
102
RTVSPost2010PropOp57
 70
     1
  0
XRECORD
  5
4C5
102
{ACAD_REACTORS
330
4C4
102
}
330
4C4
100
AcDbXrecord
280
     1
102
RTVSPropertyOp0
 70
     1
102
RTVSPropertyOp1
 70
     1
102
RTVSPropertyOp2
 70
     1
102
RTVSPropertyOp3
 70
     1
102
RTVSPropertyOp4
 70
     1
102
RTVSPropertyOp5
 70
     1
102
RTVSPropertyOp6
 70
     1
102
RTVSPropertyOp7
 70
     1
102
RTVSPropertyOp8
 70
     1
102
RTVSPropertyOp9
 70
     1
102
RTVSPropertyOp10
 70
     1
102
RTVSPropertyOp11
 70
     1
102
RTVSPropertyOp12
 70
     1
102
RTVSPropertyOp13
 70
     1
102
RTVSPropertyOp14
 70
     1
102
RTVSPropertyOp15
 70
     1
102
RTVSPropertyOp16
 70
     1
102
RTVSPropertyOp17
 70
     1
102
RTVSPropertyOp18
 70
     1
102
RTVSPropertyOp19
 70
     1
102
RTVSPropertyOp20
 70
     1
102
RTVSPropertyOp21
 70
     1
102
RTVSPropertyOp22
 70
     1
102
RTVSPropertyOp23
 70
     1
102
RTVSPropertyOp24
 70
     1
102
RTVSPropertyOp25
 70
     1
102
RTVSPropertyOp26
 70
     1
102
RTVSPropertyOp27
 70
     1
102
RTVSPropertyOp28
 70
     1
102
RTVSPropertyOp29
 70
     1
102
RTVSPropertyOp30
 70
     1
102
RTVSPropertyOp31
 70
     1
102
RTVSPropertyOp32
 70
     1
102
RTVSPropertyOp33
 70
     1
102
RTVSPropertyOp34
 70
     1
102
RTVSPropertyOp35
 70
     1
102
RTVSPropertyOp36
 70
     1
102
RTVSPropertyOp37
 70
     1
102
RTVSPropertyOp38
 70
     1
102
RTVSPropertyOp39
 70
     1
102
RTVSPropertyOp40
 70
     1
102
RTVSPropertyOp41
 70
     1
102
RTVSPropertyOp42
 70
     1
102
RTVSPropertyOp43
 70
     1
102
RTVSPropertyOp44
 70
     1
102
RTVSPropertyOp45
 70
     1
102
RTVSPropertyOp46
 70
     1
102
RTVSPropertyOp47
 70
     1
102
RTVSPropertyOp48
 70
     1
102
RTVSPropertyOp49
 70
     1
102
RTVSPropertyOp50
 70
     1
102
RTVSPropertyOp51
 70
     0
102
RTVSPropertyOp52
 70
     0
102
RTVSPropertyOp53
 70
     1
102
RTVSPropertyOp54
 70
     1
102
RTVSPropertyOp55
 70
     1
102
RTVSPropertyOp56
 70
     1
102
RTVSPropertyOp57
 70
     1
102
RTVSPost2010Prop28
280
     0
102
RTVSPost2010PropOp28
 70
     1
102
RTVSPost2010Prop29
280
     1
102
RTVSPost2010PropOp29
 70
     1
102
RTVSPost2010Prop30
280
     1
102
RTVSPost2010PropOp30
 70
     1
102
RTVSPost2010Prop31
280
     0
102
RTVSPost2010PropOp31
 70
     1
102
RTVSPost2010Prop32
280
     0
102
RTVSPost2010PropOp32
 70
     1
102
RTVSPost2010Prop33
280
     0
102
RTVSPost2010PropOp33
 70
     1
102
RTVSPost2010Prop34
280
     0
102
RTVSPost2010PropOp34
 70
     1
102
RTVSPost2010Prop35
280
     0
102
RTVSPost2010PropOp35
 70
     1
102
RTVSPost2010Prop36
280
     0
102
RTVSPost2010PropOp36
 70
     1
102
RTVSPost2010Prop37
 90
       50
102
RTVSPost2010PropOp37
 70
     1
102
RTVSPost2010Prop38
140
0.0
102
RTVSPost2010PropOp38
 70
     1
102
RTVSPost2010Prop39
140
1.0
102
RTVSPost2010PropOp39
 70
     1
102
RTVSPost2010Prop40
 90
        0
102
RTVSPost2010PropOp40
 70
     1
102
RTVSPost2010Prop41ColorIndex
 90
       18
102
RTVSPost2010Prop41ColorRGB
 90
        0
102
RTVSPost2010PropOp41
 70
     1
102
RTVSPost2010Prop42
 90
       50
102
RTVSPost2010PropOp42
 70
     1
102
RTVSPost2010Prop43
 90
        3
102
RTVSPost2010PropOp43
 70
     1
102
RTVSPost2010Prop44ColorIndex
 90
        5
102
RTVSPost2010Prop44ColorRGB
 90
      255
102
RTVSPost2010PropOp44
 70
     1
102
RTVSPost2010Prop45
280
     0
102
RTVSPost2010PropOp45
 70
     1
102
RTVSPost2010Prop46
 90
       50
102
RTVSPost2010PropOp46
 70
     1
102
RTVSPost2010Prop47
 90
       50
102
RTVSPost2010PropOp47
 70
     1
102
RTVSPost2010Prop48
 90
       50
102
RTVSPost2010PropOp48
 70
     1
102
RTVSPost2010Prop49
280
     0
102
RTVSPost2010PropOp49
 70
     1
102
RTVSPost2010Prop50
 90
       50
102
RTVSPost2010PropOp50
 70
     1
102
RTVSPost2010Prop51ColorIndex
 90
      256
102
RTVSPost2010Prop51ColorRGB
 90
-16777216
102
RTVSPost2010PropOp51
 70
     0
102
RTVSPost2010Prop52
140
1.0
102
RTVSPost2010PropOp52
 70
     0
102
RTVSPost2010Prop53
 90
        2
102
RTVSPost2010PropOp53
 70
     1
102
RTVSPost2010Prop54
  1
strokes_ogs.tif
102
RTVSPost2010PropOp54
 70
     1
102
RTVSPost2010Prop55
280
     0
102
RTVSPost2010PropOp55
 70
     1
102
RTVSPost2010Prop56
140
1.0
102
RTVSPost2010PropOp56
 70
     1
102
RTVSPost2010Prop57
140
1.0
102
RTVSPost2010PropOp57
 70
     1
  0
XRECORD
  5
4C3
102
{ACAD_REACTORS
330
4C2
102
}
330
4C2
100
AcDbXrecord
280
     1
102
RTVSPropertyOp0
 70
     1
102
RTVSPropertyOp1
 70
     1
102
RTVSPropertyOp2
 70
     1
102
RTVSPropertyOp3
 70
     1
102
RTVSPropertyOp4
 70
     1
102
RTVSPropertyOp5
 70
     1
102
RTVSPropertyOp6
 70
     1
102
RTVSPropertyOp7
 70
     1
102
RTVSPropertyOp8
 70
     1
102
RTVSPropertyOp9
 70
     1
102
RTVSPropertyOp10
 70
     1
102
RTVSPropertyOp11
 70
     1
102
RTVSPropertyOp12
 70
     1
102
RTVSPropertyOp13
 70
     1
102
RTVSPropertyOp14
 70
     1
102
RTVSPropertyOp15
 70
     1
102
RTVSPropertyOp16
 70
     1
102
RTVSPropertyOp17
 70
     1
102
RTVSPropertyOp18
 70
     1
102
RTVSPropertyOp19
 70
     1
102
RTVSPropertyOp20
 70
     1
102
RTVSPropertyOp21
 70
     1
102
RTVSPropertyOp22
 70
     1
102
RTVSPropertyOp23
 70
     1
102
RTVSPropertyOp24
 70
     1
102
RTVSPropertyOp25
 70
     1
102
RTVSPropertyOp26
 70
     1
102
RTVSPropertyOp27
 70
     1
102
RTVSPropertyOp28
 70
     1
102
RTVSPropertyOp29
 70
     1
102
RTVSPropertyOp30
 70
     1
102
RTVSPropertyOp31
 70
     1
102
RTVSPropertyOp32
 70
     1
102
RTVSPropertyOp33
 70
     1
102
RTVSPropertyOp34
 70
     1
102
RTVSPropertyOp35
 70
     1
102
RTVSPropertyOp36
 70
     1
102
RTVSPropertyOp37
 70
     1
102
RTVSPropertyOp38
 70
     1
102
RTVSPropertyOp39
 70
     1
102
RTVSPropertyOp40
 70
     1
102
RTVSPropertyOp41
 70
     1
102
RTVSPropertyOp42
 70
     1
102
RTVSPropertyOp43
 70
     1
102
RTVSPropertyOp44
 70
     1
102
RTVSPropertyOp45
 70
     1
102
RTVSPropertyOp46
 70
     1
102
RTVSPropertyOp47
 70
     1
102
RTVSPropertyOp48
 70
     1
102
RTVSPropertyOp49
 70
     1
102
RTVSPropertyOp50
 70
     1
102
RTVSPropertyOp51
 70
     0
102
RTVSPropertyOp52
 70
     0
102
RTVSPropertyOp53
 70
     1
102
RTVSPropertyOp54
 70
     1
102
RTVSPropertyOp55
 70
     1
102
RTVSPropertyOp56
 70
     1
102
RTVSPropertyOp57
 70
     1
102
RTVSPost2010Prop28
280
     0
102
RTVSPost2010PropOp28
 70
     1
102
RTVSPost2010Prop29
280
     1
102
RTVSPost2010PropOp29
 70
     1
102
RTVSPost2010Prop30
280
     1
102
RTVSPost2010PropOp30
 70
     1
102
RTVSPost2010Prop31
280
     0
102
RTVSPost2010PropOp31
 70
     1
102
RTVSPost2010Prop32
280
     0
102
RTVSPost2010PropOp32
 70
     1
102
RTVSPost2010Prop33
280
     0
102
RTVSPost2010PropOp33
 70
     1
102
RTVSPost2010Prop34
280
     0
102
RTVSPost2010PropOp34
 70
     1
102
RTVSPost2010Prop35
280
     0
102
RTVSPost2010PropOp35
 70
     1
102
RTVSPost2010Prop36
280
     0
102
RTVSPost2010PropOp36
 70
     1
102
RTVSPost2010Prop37
 90
       50
102
RTVSPost2010PropOp37
 70
     1
102
RTVSPost2010Prop38
140
0.0
102
RTVSPost2010PropOp38
 70
     1
102
RTVSPost2010Prop39
140
1.0
102
RTVSPost2010PropOp39
 70
     1
102
RTVSPost2010Prop40
 90
        0
102
RTVSPost2010PropOp40
 70
     1
102
RTVSPost2010Prop41ColorIndex
 90
       18
102
RTVSPost2010Prop41ColorRGB
 90
        0
102
RTVSPost2010PropOp41
 70
     1
102
RTVSPost2010Prop42
 90
       50
102
RTVSPost2010PropOp42
 70
     1
102
RTVSPost2010Prop43
 90
        3
102
RTVSPost2010PropOp43
 70
     1
102
RTVSPost2010Prop44ColorIndex
 90
        5
102
RTVSPost2010Prop44ColorRGB
 90
      255
102
RTVSPost2010PropOp44
 70
     1
102
RTVSPost2010Prop45
280
     0
102
RTVSPost2010PropOp45
 70
     1
102
RTVSPost2010Prop46
 90
       50
102
RTVSPost2010PropOp46
 70
     1
102
RTVSPost2010Prop47
 90
       50
102
RTVSPost2010PropOp47
 70
     1
102
RTVSPost2010Prop48
 90
       50
102
RTVSPost2010PropOp48
 70
     1
102
RTVSPost2010Prop49
280
     0
102
RTVSPost2010PropOp49
 70
     1
102
RTVSPost2010Prop50
 90
       50
102
RTVSPost2010PropOp50
 70
     1
102
RTVSPost2010Prop51ColorIndex
 90
      256
102
RTVSPost2010Prop51ColorRGB
 90
-16777216
102
RTVSPost2010PropOp51
 70
     0
102
RTVSPost2010Prop52
140
1.0
102
RTVSPost2010PropOp52
 70
     0
102
RTVSPost2010Prop53
 90
        2
102
RTVSPost2010PropOp53
 70
     1
102
RTVSPost2010Prop54
  1
strokes_ogs.tif
102
RTVSPost2010PropOp54
 70
     1
102
RTVSPost2010Prop55
280
     0
102
RTVSPost2010PropOp55
 70
     1
102
RTVSPost2010Prop56
140
1.0
102
RTVSPost2010PropOp56
 70
     1
102
RTVSPost2010Prop57
140
1.0
102
RTVSPost2010PropOp57
 70
     1
  0
XRECORD
  5
4C7
102
{ACAD_REACTORS
330
4C6
102
}
330
4C6
100
AcDbXrecord
280
     1
102
RTVSPropertyOp0
 70
     1
102
RTVSPropertyOp1
 70
     1
102
RTVSPropertyOp2
 70
     1
102
RTVSPropertyOp3
 70
     1
102
RTVSPropertyOp4
 70
     1
102
RTVSPropertyOp5
 70
     1
102
RTVSPropertyOp6
 70
     1
102
RTVSPropertyOp7
 70
     1
102
RTVSPropertyOp8
 70
     1
102
RTVSPropertyOp9
 70
     1
102
RTVSPropertyOp10
 70
     1
102
RTVSPropertyOp11
 70
     1
102
RTVSPropertyOp12
 70
     1
102
RTVSPropertyOp13
 70
     1
102
RTVSPropertyOp14
 70
     1
102
RTVSPropertyOp15
 70
     1
102
RTVSPropertyOp16
 70
     1
102
RTVSPropertyOp17
 70
     1
102
RTVSPropertyOp18
 70
     1
102
RTVSPropertyOp19
 70
     1
102
RTVSPropertyOp20
 70
     1
102
RTVSPropertyOp21
 70
     1
102
RTVSPropertyOp22
 70
     1
102
RTVSPropertyOp23
 70
     1
102
RTVSPropertyOp24
 70
     1
102
RTVSPropertyOp25
 70
     1
102
RTVSPropertyOp26
 70
     1
102
RTVSPropertyOp27
 70
     1
102
RTVSPropertyOp28
 70
     1
102
RTVSPropertyOp29
 70
     1
102
RTVSPropertyOp30
 70
     1
102
RTVSPropertyOp31
 70
     1
102
RTVSPropertyOp32
 70
     1
102
RTVSPropertyOp33
 70
     1
102
RTVSPropertyOp34
 70
     1
102
RTVSPropertyOp35
 70
     1
102
RTVSPropertyOp36
 70
     1
102
RTVSPropertyOp37
 70
     1
102
RTVSPropertyOp38
 70
     1
102
RTVSPropertyOp39
 70
     1
102
RTVSPropertyOp40
 70
     1
102
RTVSPropertyOp41
 70
     1
102
RTVSPropertyOp42
 70
     1
102
RTVSPropertyOp43
 70
     1
102
RTVSPropertyOp44
 70
     1
102
RTVSPropertyOp45
 70
     1
102
RTVSPropertyOp46
 70
     1
102
RTVSPropertyOp47
 70
     1
102
RTVSPropertyOp48
 70
     1
102
RTVSPropertyOp49
 70
     1
102
RTVSPropertyOp50
 70
     1
102
RTVSPropertyOp51
 70
     0
102
RTVSPropertyOp52
 70
     0
102
RTVSPropertyOp53
 70
     1
102
RTVSPropertyOp54
 70
     1
102
RTVSPropertyOp55
 70
     1
102
RTVSPropertyOp56
 70
     1
102
RTVSPropertyOp57
 70
     1
102
RTVSPost2010Prop28
280
     0
102
RTVSPost2010PropOp28
 70
     1
102
RTVSPost2010Prop29
280
     1
102
RTVSPost2010PropOp29
 70
     1
102
RTVSPost2010Prop30
280
     1
102
RTVSPost2010PropOp30
 70
     1
102
RTVSPost2010Prop31
280
     0
102
RTVSPost2010PropOp31
 70
     1
102
RTVSPost2010Prop32
280
     0
102
RTVSPost2010PropOp32
 70
     1
102
RTVSPost2010Prop33
280
     0
102
RTVSPost2010PropOp33
 70
     1
102
RTVSPost2010Prop34
280
     0
102
RTVSPost2010PropOp34
 70
     1
102
RTVSPost2010Prop35
280
     0
102
RTVSPost2010PropOp35
 70
     1
102
RTVSPost2010Prop36
280
     0
102
RTVSPost2010PropOp36
 70
     1
102
RTVSPost2010Prop37
 90
       50
102
RTVSPost2010PropOp37
 70
     1
102
RTVSPost2010Prop38
140
0.0
102
RTVSPost2010PropOp38
 70
     1
102
RTVSPost2010Prop39
140
1.0
102
RTVSPost2010PropOp39
 70
     1
102
RTVSPost2010Prop40
 90
        0
102
RTVSPost2010PropOp40
 70
     1
102
RTVSPost2010Prop41ColorIndex
 90
       18
102
RTVSPost2010Prop41ColorRGB
 90
        0
102
RTVSPost2010PropOp41
 70
     1
102
RTVSPost2010Prop42
 90
       50
102
RTVSPost2010PropOp42
 70
     1
102
RTVSPost2010Prop43
 90
        3
102
RTVSPost2010PropOp43
 70
     1
102
RTVSPost2010Prop44ColorIndex
 90
        5
102
RTVSPost2010Prop44ColorRGB
 90
      255
102
RTVSPost2010PropOp44
 70
     1
102
RTVSPost2010Prop45
280
     0
102
RTVSPost2010PropOp45
 70
     1
102
RTVSPost2010Prop46
 90
       50
102
RTVSPost2010PropOp46
 70
     1
102
RTVSPost2010Prop47
 90
       50
102
RTVSPost2010PropOp47
 70
     1
102
RTVSPost2010Prop48
 90
       50
102
RTVSPost2010PropOp48
 70
     1
102
RTVSPost2010Prop49
280
     0
102
RTVSPost2010PropOp49
 70
     1
102
RTVSPost2010Prop50
 90
       50
102
RTVSPost2010PropOp50
 70
     1
102
RTVSPost2010Prop51ColorIndex
 90
      256
102
RTVSPost2010Prop51ColorRGB
 90
-16777216
102
RTVSPost2010PropOp51
 70
     0
102
RTVSPost2010Prop52
140
1.0
102
RTVSPost2010PropOp52
 70
     0
102
RTVSPost2010Prop53
 90
        2
102
RTVSPost2010PropOp53
 70
     1
102
RTVSPost2010Prop54
  1
strokes_ogs.tif
102
RTVSPost2010PropOp54
 70
     1
102
RTVSPost2010Prop55
280
     0
102
RTVSPost2010PropOp55
 70
     1
102
RTVSPost2010Prop56
140
1.0
102
RTVSPost2010PropOp56
 70
     1
102
RTVSPost2010Prop57
140
1.0
102
RTVSPost2010PropOp57
 70
     1
  0
XRECORD
  5
4CF
102
{ACAD_REACTORS
330
4CE
102
}
330
4CE
100
AcDbXrecord
280
     1
102
RTVSPropertyOp0
 70
     1
102
RTVSPropertyOp1
 70
     1
102
RTVSPropertyOp2
 70
     1
102
RTVSPropertyOp3
 70
     1
102
RTVSPropertyOp4
 70
     1
102
RTVSPropertyOp5
 70
     1
102
RTVSPropertyOp6
 70
     1
102
RTVSPropertyOp7
 70
     1
102
RTVSPropertyOp8
 70
     1
102
RTVSPropertyOp9
 70
     1
102
RTVSPropertyOp10
 70
     1
102
RTVSPropertyOp11
 70
     1
102
RTVSPropertyOp12
 70
     1
102
RTVSPropertyOp13
 70
     1
102
RTVSPropertyOp14
 70
     1
102
RTVSPropertyOp15
 70
     1
102
RTVSPropertyOp16
 70
     1
102
RTVSPropertyOp17
 70
     1
102
RTVSPropertyOp18
 70
     1
102
RTVSPropertyOp19
 70
     1
102
RTVSPropertyOp20
 70
     1
102
RTVSPropertyOp21
 70
     1
102
RTVSPropertyOp22
 70
     1
102
RTVSPropertyOp23
 70
     1
102
RTVSPropertyOp24
 70
     1
102
RTVSPropertyOp25
 70
     1
102
RTVSPropertyOp26
 70
     1
102
RTVSPropertyOp27
 70
     1
102
RTVSPropertyOp28
 70
     1
102
RTVSPropertyOp29
 70
     1
102
RTVSPropertyOp30
 70
     1
102
RTVSPropertyOp31
 70
     1
102
RTVSPropertyOp32
 70
     1
102
RTVSPropertyOp33
 70
     1
102
RTVSPropertyOp34
 70
     1
102
RTVSPropertyOp35
 70
     1
102
RTVSPropertyOp36
 70
     1
102
RTVSPropertyOp37
 70
     1
102
RTVSPropertyOp38
 70
     1
102
RTVSPropertyOp39
 70
     1
102
RTVSPropertyOp40
 70
     1
102
RTVSPropertyOp41
 70
     1
102
RTVSPropertyOp42
 70
     1
102
RTVSPropertyOp43
 70
     1
102
RTVSPropertyOp44
 70
     1
102
RTVSPropertyOp45
 70
     1
102
RTVSPropertyOp46
 70
     1
102
RTVSPropertyOp47
 70
     1
102
RTVSPropertyOp48
 70
     1
102
RTVSPropertyOp49
 70
     1
102
RTVSPropertyOp50
 70
     1
102
RTVSPropertyOp51
 70
     0
102
RTVSPropertyOp52
 70
     0
102
RTVSPropertyOp53
 70
     1
102
RTVSPropertyOp54
 70
     1
102
RTVSPropertyOp55
 70
     1
102
RTVSPropertyOp56
 70
     1
102
RTVSPropertyOp57
 70
     1
102
RTVSPost2010Prop28
280
     0
102
RTVSPost2010PropOp28
 70
     1
102
RTVSPost2010Prop29
280
     1
102
RTVSPost2010PropOp29
 70
     1
102
RTVSPost2010Prop30
280
     1
102
RTVSPost2010PropOp30
 70
     1
102
RTVSPost2010Prop31
280
     0
102
RTVSPost2010PropOp31
 70
     1
102
RTVSPost2010Prop32
280
     0
102
RTVSPost2010PropOp32
 70
     1
102
RTVSPost2010Prop33
280
     0
102
RTVSPost2010PropOp33
 70
     1
102
RTVSPost2010Prop34
280
     0
102
RTVSPost2010PropOp34
 70
     1
102
RTVSPost2010Prop35
280
     0
102
RTVSPost2010PropOp35
 70
     1
102
RTVSPost2010Prop36
280
     0
102
RTVSPost2010PropOp36
 70
     1
102
RTVSPost2010Prop37
 90
       50
102
RTVSPost2010PropOp37
 70
     1
102
RTVSPost2010Prop38
140
0.0
102
RTVSPost2010PropOp38
 70
     1
102
RTVSPost2010Prop39
140
1.0
102
RTVSPost2010PropOp39
 70
     1
102
RTVSPost2010Prop40
 90
        0
102
RTVSPost2010PropOp40
 70
     1
102
RTVSPost2010Prop41ColorIndex
 90
       18
102
RTVSPost2010Prop41ColorRGB
 90
        0
102
RTVSPost2010PropOp41
 70
     1
102
RTVSPost2010Prop42
 90
       50
102
RTVSPost2010PropOp42
 70
     1
102
RTVSPost2010Prop43
 90
        3
102
RTVSPost2010PropOp43
 70
     1
102
RTVSPost2010Prop44ColorIndex
 90
        5
102
RTVSPost2010Prop44ColorRGB
 90
      255
102
RTVSPost2010PropOp44
 70
     1
102
RTVSPost2010Prop45
280
     0
102
RTVSPost2010PropOp45
 70
     1
102
RTVSPost2010Prop46
 90
       50
102
RTVSPost2010PropOp46
 70
     1
102
RTVSPost2010Prop47
 90
       50
102
RTVSPost2010PropOp47
 70
     1
102
RTVSPost2010Prop48
 90
       50
102
RTVSPost2010PropOp48
 70
     1
102
RTVSPost2010Prop49
280
     0
102
RTVSPost2010PropOp49
 70
     1
102
RTVSPost2010Prop50
 90
       50
102
RTVSPost2010PropOp50
 70
     1
102
RTVSPost2010Prop51ColorIndex
 90
      256
102
RTVSPost2010Prop51ColorRGB
 90
-16777216
102
RTVSPost2010PropOp51
 70
     0
102
RTVSPost2010Prop52
140
1.0
102
RTVSPost2010PropOp52
 70
     0
102
RTVSPost2010Prop53
 90
        2
102
RTVSPost2010PropOp53
 70
     1
102
RTVSPost2010Prop54
  1
strokes_ogs.tif
102
RTVSPost2010PropOp54
 70
     1
102
RTVSPost2010Prop55
280
     0
102
RTVSPost2010PropOp55
 70
     1
102
RTVSPost2010Prop56
140
1.0
102
RTVSPost2010PropOp56
 70
     1
102
RTVSPost2010Prop57
140
1.0
102
RTVSPost2010PropOp57
 70
     1
  0
XRECORD
  5
4D7
102
{ACAD_REACTORS
330
4D6
102
}
330
4D6
100
AcDbXrecord
280
     1
102
RTVSPropertyOp0
 70
     1
102
RTVSPropertyOp1
 70
     1
102
RTVSPropertyOp2
 70
     1
102
RTVSPropertyOp3
 70
     1
102
RTVSPropertyOp4
 70
     1
102
RTVSPropertyOp5
 70
     1
102
RTVSPropertyOp6
 70
     1
102
RTVSPropertyOp7
 70
     1
102
RTVSPropertyOp8
 70
     1
102
RTVSPropertyOp9
 70
     1
102
RTVSPropertyOp10
 70
     1
102
RTVSPropertyOp11
 70
     1
102
RTVSPropertyOp12
 70
     1
102
RTVSPropertyOp13
 70
     1
102
RTVSPropertyOp14
 70
     1
102
RTVSPropertyOp15
 70
     1
102
RTVSPropertyOp16
 70
     1
102
RTVSPropertyOp17
 70
     1
102
RTVSPropertyOp18
 70
     1
102
RTVSPropertyOp19
 70
     1
102
RTVSPropertyOp20
 70
     1
102
RTVSPropertyOp21
 70
     1
102
RTVSPropertyOp22
 70
     1
102
RTVSPropertyOp23
 70
     1
102
RTVSPropertyOp24
 70
     1
102
RTVSPropertyOp25
 70
     1
102
RTVSPropertyOp26
 70
     1
102
RTVSPropertyOp27
 70
     1
102
RTVSPropertyOp28
 70
     1
102
RTVSPropertyOp29
 70
     1
102
RTVSPropertyOp30
 70
     1
102
RTVSPropertyOp31
 70
     1
102
RTVSPropertyOp32
 70
     1
102
RTVSPropertyOp33
 70
     1
102
RTVSPropertyOp34
 70
     1
102
RTVSPropertyOp35
 70
     1
102
RTVSPropertyOp36
 70
     1
102
RTVSPropertyOp37
 70
     1
102
RTVSPropertyOp38
 70
     1
102
RTVSPropertyOp39
 70
     1
102
RTVSPropertyOp40
 70
     1
102
RTVSPropertyOp41
 70
     1
102
RTVSPropertyOp42
 70
     1
102
RTVSPropertyOp43
 70
     1
102
RTVSPropertyOp44
 70
     1
102
RTVSPropertyOp45
 70
     1
102
RTVSPropertyOp46
 70
     1
102
RTVSPropertyOp47
 70
     1
102
RTVSPropertyOp48
 70
     1
102
RTVSPropertyOp49
 70
     1
102
RTVSPropertyOp50
 70
     1
102
RTVSPropertyOp51
 70
     0
102
RTVSPropertyOp52
 70
     0
102
RTVSPropertyOp53
 70
     1
102
RTVSPropertyOp54
 70
     1
102
RTVSPropertyOp55
 70
     1
102
RTVSPropertyOp56
 70
     1
102
RTVSPropertyOp57
 70
     1
102
RTVSPost2010Prop28
280
     0
102
RTVSPost2010PropOp28
 70
     1
102
RTVSPost2010Prop29
280
     1
102
RTVSPost2010PropOp29
 70
     1
102
RTVSPost2010Prop30
280
     1
102
RTVSPost2010PropOp30
 70
     1
102
RTVSPost2010Prop31
280
     0
102
RTVSPost2010PropOp31
 70
     1
102
RTVSPost2010Prop32
280
     0
102
RTVSPost2010PropOp32
 70
     1
102
RTVSPost2010Prop33
280
     0
102
RTVSPost2010PropOp33
 70
     1
102
RTVSPost2010Prop34
280
     0
102
RTVSPost2010PropOp34
 70
     1
102
RTVSPost2010Prop35
280
     0
102
RTVSPost2010PropOp35
 70
     1
102
RTVSPost2010Prop36
280
     0
102
RTVSPost2010PropOp36
 70
     1
102
RTVSPost2010Prop37
 90
       50
102
RTVSPost2010PropOp37
 70
     1
102
RTVSPost2010Prop38
140
0.0
102
RTVSPost2010PropOp38
 70
     1
102
RTVSPost2010Prop39
140
1.0
102
RTVSPost2010PropOp39
 70
     1
102
RTVSPost2010Prop40
 90
        0
102
RTVSPost2010PropOp40
 70
     1
102
RTVSPost2010Prop41ColorIndex
 90
       18
102
RTVSPost2010Prop41ColorRGB
 90
        0
102
RTVSPost2010PropOp41
 70
     1
102
RTVSPost2010Prop42
 90
       50
102
RTVSPost2010PropOp42
 70
     1
102
RTVSPost2010Prop43
 90
        3
102
RTVSPost2010PropOp43
 70
     1
102
RTVSPost2010Prop44ColorIndex
 90
        5
102
RTVSPost2010Prop44ColorRGB
 90
      255
102
RTVSPost2010PropOp44
 70
     1
102
RTVSPost2010Prop45
280
     0
102
RTVSPost2010PropOp45
 70
     1
102
RTVSPost2010Prop46
 90
       50
102
RTVSPost2010PropOp46
 70
     1
102
RTVSPost2010Prop47
 90
       50
102
RTVSPost2010PropOp47
 70
     1
102
RTVSPost2010Prop48
 90
       50
102
RTVSPost2010PropOp48
 70
     1
102
RTVSPost2010Prop49
280
     0
102
RTVSPost2010PropOp49
 70
     1
102
RTVSPost2010Prop50
 90
       50
102
RTVSPost2010PropOp50
 70
     1
102
RTVSPost2010Prop51ColorIndex
 90
      256
102
RTVSPost2010Prop51ColorRGB
 90
-16777216
102
RTVSPost2010PropOp51
 70
     0
102
RTVSPost2010Prop52
140
1.0
102
RTVSPost2010PropOp52
 70
     0
102
RTVSPost2010Prop53
 90
        2
102
RTVSPost2010PropOp53
 70
     1
102
RTVSPost2010Prop54
  1
strokes_ogs.tif
102
RTVSPost2010PropOp54
 70
     1
102
RTVSPost2010Prop55
280
     0
102
RTVSPost2010PropOp55
 70
     1
102
RTVSPost2010Prop56
140
1.0
102
RTVSPost2010PropOp56
 70
     1
102
RTVSPost2010Prop57
140
1.0
102
RTVSPost2010PropOp57
 70
     1
  0
XRECORD
  5
4CB
102
{ACAD_REACTORS
330
4CA
102
}
330
4CA
100
AcDbXrecord
280
     1
102
RTVSPropertyOp0
 70
     1
102
RTVSPropertyOp1
 70
     1
102
RTVSPropertyOp2
 70
     1
102
RTVSPropertyOp3
 70
     1
102
RTVSPropertyOp4
 70
     1
102
RTVSPropertyOp5
 70
     1
102
RTVSPropertyOp6
 70
     1
102
RTVSPropertyOp7
 70
     1
102
RTVSPropertyOp8
 70
     1
102
RTVSPropertyOp9
 70
     1
102
RTVSPropertyOp10
 70
     1
102
RTVSPropertyOp11
 70
     1
102
RTVSPropertyOp12
 70
     1
102
RTVSPropertyOp13
 70
     1
102
RTVSPropertyOp14
 70
     1
102
RTVSPropertyOp15
 70
     1
102
RTVSPropertyOp16
 70
     1
102
RTVSPropertyOp17
 70
     1
102
RTVSPropertyOp18
 70
     1
102
RTVSPropertyOp19
 70
     1
102
RTVSPropertyOp20
 70
     1
102
RTVSPropertyOp21
 70
     1
102
RTVSPropertyOp22
 70
     1
102
RTVSPropertyOp23
 70
     1
102
RTVSPropertyOp24
 70
     1
102
RTVSPropertyOp25
 70
     1
102
RTVSPropertyOp26
 70
     1
102
RTVSPropertyOp27
 70
     1
102
RTVSPropertyOp28
 70
     1
102
RTVSPropertyOp29
 70
     1
102
RTVSPropertyOp30
 70
     1
102
RTVSPropertyOp31
 70
     1
102
RTVSPropertyOp32
 70
     1
102
RTVSPropertyOp33
 70
     1
102
RTVSPropertyOp34
 70
     1
102
RTVSPropertyOp35
 70
     1
102
RTVSPropertyOp36
 70
     1
102
RTVSPropertyOp37
 70
     1
102
RTVSPropertyOp38
 70
     1
102
RTVSPropertyOp39
 70
     1
102
RTVSPropertyOp40
 70
     1
102
RTVSPropertyOp41
 70
     1
102
RTVSPropertyOp42
 70
     1
102
RTVSPropertyOp43
 70
     1
102
RTVSPropertyOp44
 70
     1
102
RTVSPropertyOp45
 70
     1
102
RTVSPropertyOp46
 70
     1
102
RTVSPropertyOp47
 70
     1
102
RTVSPropertyOp48
 70
     1
102
RTVSPropertyOp49
 70
     1
102
RTVSPropertyOp50
 70
     1
102
RTVSPropertyOp51
 70
     0
102
RTVSPropertyOp52
 70
     0
102
RTVSPropertyOp53
 70
     1
102
RTVSPropertyOp54
 70
     1
102
RTVSPropertyOp55
 70
     1
102
RTVSPropertyOp56
 70
     1
102
RTVSPropertyOp57
 70
     1
102
RTVSPost2010Prop28
280
     0
102
RTVSPost2010PropOp28
 70
     1
102
RTVSPost2010Prop29
280
     1
102
RTVSPost2010PropOp29
 70
     1
102
RTVSPost2010Prop30
280
     1
102
RTVSPost2010PropOp30
 70
     1
102
RTVSPost2010Prop31
280
     0
102
RTVSPost2010PropOp31
 70
     1
102
RTVSPost2010Prop32
280
     0
102
RTVSPost2010PropOp32
 70
     1
102
RTVSPost2010Prop33
280
     0
102
RTVSPost2010PropOp33
 70
     1
102
RTVSPost2010Prop34
280
     0
102
RTVSPost2010PropOp34
 70
     1
102
RTVSPost2010Prop35
280
     0
102
RTVSPost2010PropOp35
 70
     1
102
RTVSPost2010Prop36
280
     0
102
RTVSPost2010PropOp36
 70
     1
102
RTVSPost2010Prop37
 90
       50
102
RTVSPost2010PropOp37
 70
     1
102
RTVSPost2010Prop38
140
0.0
102
RTVSPost2010PropOp38
 70
     1
102
RTVSPost2010Prop39
140
1.0
102
RTVSPost2010PropOp39
 70
     1
102
RTVSPost2010Prop40
 90
        0
102
RTVSPost2010PropOp40
 70
     1
102
RTVSPost2010Prop41ColorIndex
 90
       18
102
RTVSPost2010Prop41ColorRGB
 90
        0
102
RTVSPost2010PropOp41
 70
     1
102
RTVSPost2010Prop42
 90
       50
102
RTVSPost2010PropOp42
 70
     1
102
RTVSPost2010Prop43
 90
        3
102
RTVSPost2010PropOp43
 70
     1
102
RTVSPost2010Prop44ColorIndex
 90
        5
102
RTVSPost2010Prop44ColorRGB
 90
      255
102
RTVSPost2010PropOp44
 70
     1
102
RTVSPost2010Prop45
280
     0
102
RTVSPost2010PropOp45
 70
     1
102
RTVSPost2010Prop46
 90
       50
102
RTVSPost2010PropOp46
 70
     1
102
RTVSPost2010Prop47
 90
       50
102
RTVSPost2010PropOp47
 70
     1
102
RTVSPost2010Prop48
 90
       50
102
RTVSPost2010PropOp48
 70
     1
102
RTVSPost2010Prop49
280
     0
102
RTVSPost2010PropOp49
 70
     1
102
RTVSPost2010Prop50
 90
       50
102
RTVSPost2010PropOp50
 70
     1
102
RTVSPost2010Prop51ColorIndex
 90
      256
102
RTVSPost2010Prop51ColorRGB
 90
-16777216
102
RTVSPost2010PropOp51
 70
     0
102
RTVSPost2010Prop52
140
1.0
102
RTVSPost2010PropOp52
 70
     0
102
RTVSPost2010Prop53
 90
        2
102
RTVSPost2010PropOp53
 70
     1
102
RTVSPost2010Prop54
  1
strokes_ogs.tif
102
RTVSPost2010PropOp54
 70
     1
102
RTVSPost2010Prop55
280
     0
102
RTVSPost2010PropOp55
 70
     1
102
RTVSPost2010Prop56
140
1.0
102
RTVSPost2010PropOp56
 70
     1
102
RTVSPost2010Prop57
140
1.0
102
RTVSPost2010PropOp57
 70
     1
  0
XRECORD
  5
4CD
102
{ACAD_REACTORS
330
4CC
102
}
330
4CC
100
AcDbXrecord
280
     1
102
RTVSPropertyOp0
 70
     1
102
RTVSPropertyOp1
 70
     1
102
RTVSPropertyOp2
 70
     1
102
RTVSPropertyOp3
 70
     1
102
RTVSPropertyOp4
 70
     1
102
RTVSPropertyOp5
 70
     1
102
RTVSPropertyOp6
 70
     1
102
RTVSPropertyOp7
 70
     1
102
RTVSPropertyOp8
 70
     1
102
RTVSPropertyOp9
 70
     1
102
RTVSPropertyOp10
 70
     1
102
RTVSPropertyOp11
 70
     1
102
RTVSPropertyOp12
 70
     1
102
RTVSPropertyOp13
 70
     1
102
RTVSPropertyOp14
 70
     1
102
RTVSPropertyOp15
 70
     1
102
RTVSPropertyOp16
 70
     1
102
RTVSPropertyOp17
 70
     1
102
RTVSPropertyOp18
 70
     1
102
RTVSPropertyOp19
 70
     1
102
RTVSPropertyOp20
 70
     1
102
RTVSPropertyOp21
 70
     1
102
RTVSPropertyOp22
 70
     1
102
RTVSPropertyOp23
 70
     1
102
RTVSPropertyOp24
 70
     1
102
RTVSPropertyOp25
 70
     1
102
RTVSPropertyOp26
 70
     1
102
RTVSPropertyOp27
 70
     1
102
RTVSPropertyOp28
 70
     1
102
RTVSPropertyOp29
 70
     1
102
RTVSPropertyOp30
 70
     1
102
RTVSPropertyOp31
 70
     1
102
RTVSPropertyOp32
 70
     1
102
RTVSPropertyOp33
 70
     1
102
RTVSPropertyOp34
 70
     1
102
RTVSPropertyOp35
 70
     1
102
RTVSPropertyOp36
 70
     1
102
RTVSPropertyOp37
 70
     1
102
RTVSPropertyOp38
 70
     1
102
RTVSPropertyOp39
 70
     1
102
RTVSPropertyOp40
 70
     1
102
RTVSPropertyOp41
 70
     1
102
RTVSPropertyOp42
 70
     1
102
RTVSPropertyOp43
 70
     1
102
RTVSPropertyOp44
 70
     1
102
RTVSPropertyOp45
 70
     1
102
RTVSPropertyOp46
 70
     1
102
RTVSPropertyOp47
 70
     1
102
RTVSPropertyOp48
 70
     1
102
RTVSPropertyOp49
 70
     1
102
RTVSPropertyOp50
 70
     1
102
RTVSPropertyOp51
 70
     0
102
RTVSPropertyOp52
 70
     0
102
RTVSPropertyOp53
 70
     1
102
RTVSPropertyOp54
 70
     1
102
RTVSPropertyOp55
 70
     1
102
RTVSPropertyOp56
 70
     1
102
RTVSPropertyOp57
 70
     1
102
RTVSPost2010Prop28
280
     0
102
RTVSPost2010PropOp28
 70
     1
102
RTVSPost2010Prop29
280
     1
102
RTVSPost2010PropOp29
 70
     1
102
RTVSPost2010Prop30
280
     1
102
RTVSPost2010PropOp30
 70
     1
102
RTVSPost2010Prop31
280
     0
102
RTVSPost2010PropOp31
 70
     1
102
RTVSPost2010Prop32
280
     0
102
RTVSPost2010PropOp32
 70
     1
102
RTVSPost2010Prop33
280
     0
102
RTVSPost2010PropOp33
 70
     1
102
RTVSPost2010Prop34
280
     0
102
RTVSPost2010PropOp34
 70
     1
102
RTVSPost2010Prop35
280
     0
102
RTVSPost2010PropOp35
 70
     1
102
RTVSPost2010Prop36
280
     0
102
RTVSPost2010PropOp36
 70
     1
102
RTVSPost2010Prop37
 90
       50
102
RTVSPost2010PropOp37
 70
     1
102
RTVSPost2010Prop38
140
0.0
102
RTVSPost2010PropOp38
 70
     1
102
RTVSPost2010Prop39
140
1.0
102
RTVSPost2010PropOp39
 70
     1
102
RTVSPost2010Prop40
 90
        0
102
RTVSPost2010PropOp40
 70
     1
102
RTVSPost2010Prop41ColorIndex
 90
       18
102
RTVSPost2010Prop41ColorRGB
 90
        0
102
RTVSPost2010PropOp41
 70
     1
102
RTVSPost2010Prop42
 90
       50
102
RTVSPost2010PropOp42
 70
     1
102
RTVSPost2010Prop43
 90
        3
102
RTVSPost2010PropOp43
 70
     1
102
RTVSPost2010Prop44ColorIndex
 90
        5
102
RTVSPost2010Prop44ColorRGB
 90
      255
102
RTVSPost2010PropOp44
 70
     1
102
RTVSPost2010Prop45
280
     0
102
RTVSPost2010PropOp45
 70
     1
102
RTVSPost2010Prop46
 90
       50
102
RTVSPost2010PropOp46
 70
     1
102
RTVSPost2010Prop47
 90
       50
102
RTVSPost2010PropOp47
 70
     1
102
RTVSPost2010Prop48
 90
       50
102
RTVSPost2010PropOp48
 70
     1
102
RTVSPost2010Prop49
280
     0
102
RTVSPost2010PropOp49
 70
     1
102
RTVSPost2010Prop50
 90
       50
102
RTVSPost2010PropOp50
 70
     1
102
RTVSPost2010Prop51ColorIndex
 90
      256
102
RTVSPost2010Prop51ColorRGB
 90
-16777216
102
RTVSPost2010PropOp51
 70
     0
102
RTVSPost2010Prop52
140
1.0
102
RTVSPost2010PropOp52
 70
     0
102
RTVSPost2010Prop53
 90
        2
102
RTVSPost2010PropOp53
 70
     1
102
RTVSPost2010Prop54
  1
strokes_ogs.tif
102
RTVSPost2010PropOp54
 70
     1
102
RTVSPost2010Prop55
280
     0
102
RTVSPost2010PropOp55
 70
     1
102
RTVSPost2010Prop56
140
1.0
102
RTVSPost2010PropOp56
 70
     1
102
RTVSPost2010Prop57
140
1.0
102
RTVSPost2010PropOp57
 70
     1
  0
XRECORD
  5
4D5
102
{ACAD_REACTORS
330
4D4
102
}
330
4D4
100
AcDbXrecord
280
     1
102
RTVSPropertyOp0
 70
     1
102
RTVSPropertyOp1
 70
     1
102
RTVSPropertyOp2
 70
     1
102
RTVSPropertyOp3
 70
     1
102
RTVSPropertyOp4
 70
     1
102
RTVSPropertyOp5
 70
     1
102
RTVSPropertyOp6
 70
     1
102
RTVSPropertyOp7
 70
     1
102
RTVSPropertyOp8
 70
     1
102
RTVSPropertyOp9
 70
     1
102
RTVSPropertyOp10
 70
     1
102
RTVSPropertyOp11
 70
     1
102
RTVSPropertyOp12
 70
     1
102
RTVSPropertyOp13
 70
     1
102
RTVSPropertyOp14
 70
     1
102
RTVSPropertyOp15
 70
     1
102
RTVSPropertyOp16
 70
     1
102
RTVSPropertyOp17
 70
     1
102
RTVSPropertyOp18
 70
     1
102
RTVSPropertyOp19
 70
     1
102
RTVSPropertyOp20
 70
     1
102
RTVSPropertyOp21
 70
     1
102
RTVSPropertyOp22
 70
     1
102
RTVSPropertyOp23
 70
     1
102
RTVSPropertyOp24
 70
     1
102
RTVSPropertyOp25
 70
     1
102
RTVSPropertyOp26
 70
     1
102
RTVSPropertyOp27
 70
     1
102
RTVSPropertyOp28
 70
     1
102
RTVSPropertyOp29
 70
     1
102
RTVSPropertyOp30
 70
     1
102
RTVSPropertyOp31
 70
     1
102
RTVSPropertyOp32
 70
     1
102
RTVSPropertyOp33
 70
     1
102
RTVSPropertyOp34
 70
     1
102
RTVSPropertyOp35
 70
     1
102
RTVSPropertyOp36
 70
     1
102
RTVSPropertyOp37
 70
     1
102
RTVSPropertyOp38
 70
     1
102
RTVSPropertyOp39
 70
     1
102
RTVSPropertyOp40
 70
     1
102
RTVSPropertyOp41
 70
     1
102
RTVSPropertyOp42
 70
     1
102
RTVSPropertyOp43
 70
     1
102
RTVSPropertyOp44
 70
     1
102
RTVSPropertyOp45
 70
     1
102
RTVSPropertyOp46
 70
     1
102
RTVSPropertyOp47
 70
     1
102
RTVSPropertyOp48
 70
     1
102
RTVSPropertyOp49
 70
     1
102
RTVSPropertyOp50
 70
     1
102
RTVSPropertyOp51
 70
     0
102
RTVSPropertyOp52
 70
     0
102
RTVSPropertyOp53
 70
     1
102
RTVSPropertyOp54
 70
     1
102
RTVSPropertyOp55
 70
     1
102
RTVSPropertyOp56
 70
     1
102
RTVSPropertyOp57
 70
     1
102
RTVSPost2010Prop28
280
     0
102
RTVSPost2010PropOp28
 70
     1
102
RTVSPost2010Prop29
280
     1
102
RTVSPost2010PropOp29
 70
     1
102
RTVSPost2010Prop30
280
     1
102
RTVSPost2010PropOp30
 70
     1
102
RTVSPost2010Prop31
280
     0
102
RTVSPost2010PropOp31
 70
     1
102
RTVSPost2010Prop32
280
     0
102
RTVSPost2010PropOp32
 70
     1
102
RTVSPost2010Prop33
280
     0
102
RTVSPost2010PropOp33
 70
     1
102
RTVSPost2010Prop34
280
     0
102
RTVSPost2010PropOp34
 70
     1
102
RTVSPost2010Prop35
280
     0
102
RTVSPost2010PropOp35
 70
     1
102
RTVSPost2010Prop36
280
     0
102
RTVSPost2010PropOp36
 70
     1
102
RTVSPost2010Prop37
 90
       50
102
RTVSPost2010PropOp37
 70
     1
102
RTVSPost2010Prop38
140
0.0
102
RTVSPost2010PropOp38
 70
     1
102
RTVSPost2010Prop39
140
1.0
102
RTVSPost2010PropOp39
 70
     1
102
RTVSPost2010Prop40
 90
        0
102
RTVSPost2010PropOp40
 70
     1
102
RTVSPost2010Prop41ColorIndex
 90
       18
102
RTVSPost2010Prop41ColorRGB
 90
        0
102
RTVSPost2010PropOp41
 70
     1
102
RTVSPost2010Prop42
 90
       50
102
RTVSPost2010PropOp42
 70
     1
102
RTVSPost2010Prop43
 90
        3
102
RTVSPost2010PropOp43
 70
     1
102
RTVSPost2010Prop44ColorIndex
 90
        5
102
RTVSPost2010Prop44ColorRGB
 90
      255
102
RTVSPost2010PropOp44
 70
     1
102
RTVSPost2010Prop45
280
     0
102
RTVSPost2010PropOp45
 70
     1
102
RTVSPost2010Prop46
 90
       50
102
RTVSPost2010PropOp46
 70
     1
102
RTVSPost2010Prop47
 90
       50
102
RTVSPost2010PropOp47
 70
     1
102
RTVSPost2010Prop48
 90
       50
102
RTVSPost2010PropOp48
 70
     1
102
RTVSPost2010Prop49
280
     0
102
RTVSPost2010PropOp49
 70
     1
102
RTVSPost2010Prop50
 90
       50
102
RTVSPost2010PropOp50
 70
     1
102
RTVSPost2010Prop51ColorIndex
 90
      256
102
RTVSPost2010Prop51ColorRGB
 90
-16777216
102
RTVSPost2010PropOp51
 70
     0
102
RTVSPost2010Prop52
140
1.0
102
RTVSPost2010PropOp52
 70
     0
102
RTVSPost2010Prop53
 90
        2
102
RTVSPost2010PropOp53
 70
     1
102
RTVSPost2010Prop54
  1
strokes_ogs.tif
102
RTVSPost2010PropOp54
 70
     1
102
RTVSPost2010Prop55
280
     0
102
RTVSPost2010PropOp55
 70
     1
102
RTVSPost2010Prop56
140
1.0
102
RTVSPost2010PropOp56
 70
     1
102
RTVSPost2010Prop57
140
1.0
102
RTVSPost2010PropOp57
 70
     1
  0
XRECORD
  5
4B9
102
{ACAD_REACTORS
330
4B8
102
}
330
4B8
100
AcDbXrecord
280
     1
102
RTVSPropertyOp0
 70
     1
102
RTVSPropertyOp1
 70
     1
102
RTVSPropertyOp2
 70
     1
102
RTVSPropertyOp3
 70
     1
102
RTVSPropertyOp4
 70
     1
102
RTVSPropertyOp5
 70
     1
102
RTVSPropertyOp6
 70
     1
102
RTVSPropertyOp7
 70
     1
102
RTVSPropertyOp8
 70
     1
102
RTVSPropertyOp9
 70
     1
102
RTVSPropertyOp10
 70
     1
102
RTVSPropertyOp11
 70
     1
102
RTVSPropertyOp12
 70
     1
102
RTVSPropertyOp13
 70
     1
102
RTVSPropertyOp14
 70
     1
102
RTVSPropertyOp15
 70
     1
102
RTVSPropertyOp16
 70
     1
102
RTVSPropertyOp17
 70
     1
102
RTVSPropertyOp18
 70
     1
102
RTVSPropertyOp19
 70
     1
102
RTVSPropertyOp20
 70
     1
102
RTVSPropertyOp21
 70
     1
102
RTVSPropertyOp22
 70
     1
102
RTVSPropertyOp23
 70
     1
102
RTVSPropertyOp24
 70
     1
102
RTVSPropertyOp25
 70
     1
102
RTVSPropertyOp26
 70
     1
102
RTVSPropertyOp27
 70
     1
102
RTVSPropertyOp28
 70
     1
102
RTVSPropertyOp29
 70
     1
102
RTVSPropertyOp30
 70
     1
102
RTVSPropertyOp31
 70
     1
102
RTVSPropertyOp32
 70
     1
102
RTVSPropertyOp33
 70
     1
102
RTVSPropertyOp34
 70
     1
102
RTVSPropertyOp35
 70
     1
102
RTVSPropertyOp36
 70
     1
102
RTVSPropertyOp37
 70
     1
102
RTVSPropertyOp38
 70
     1
102
RTVSPropertyOp39
 70
     1
102
RTVSPropertyOp40
 70
     1
102
RTVSPropertyOp41
 70
     1
102
RTVSPropertyOp42
 70
     1
102
RTVSPropertyOp43
 70
     1
102
RTVSPropertyOp44
 70
     1
102
RTVSPropertyOp45
 70
     1
102
RTVSPropertyOp46
 70
     1
102
RTVSPropertyOp47
 70
     1
102
RTVSPropertyOp48
 70
     1
102
RTVSPropertyOp49
 70
     1
102
RTVSPropertyOp50
 70
     1
102
RTVSPropertyOp51
 70
     0
102
RTVSPropertyOp52
 70
     0
102
RTVSPropertyOp53
 70
     1
102
RTVSPropertyOp54
 70
     1
102
RTVSPropertyOp55
 70
     1
102
RTVSPropertyOp56
 70
     1
102
RTVSPropertyOp57
 70
     1
102
RTVSPost2010Prop28
280
     0
102
RTVSPost2010PropOp28
 70
     1
102
RTVSPost2010Prop29
280
     1
102
RTVSPost2010PropOp29
 70
     1
102
RTVSPost2010Prop30
280
     1
102
RTVSPost2010PropOp30
 70
     1
102
RTVSPost2010Prop31
280
     0
102
RTVSPost2010PropOp31
 70
     1
102
RTVSPost2010Prop32
280
     0
102
RTVSPost2010PropOp32
 70
     1
102
RTVSPost2010Prop33
280
     0
102
RTVSPost2010PropOp33
 70
     1
102
RTVSPost2010Prop34
280
     0
102
RTVSPost2010PropOp34
 70
     1
102
RTVSPost2010Prop35
280
     0
102
RTVSPost2010PropOp35
 70
     1
102
RTVSPost2010Prop36
280
     0
102
RTVSPost2010PropOp36
 70
     1
102
RTVSPost2010Prop37
 90
       50
102
RTVSPost2010PropOp37
 70
     1
102
RTVSPost2010Prop38
140
0.0
102
RTVSPost2010PropOp38
 70
     1
102
RTVSPost2010Prop39
140
1.0
102
RTVSPost2010PropOp39
 70
     1
102
RTVSPost2010Prop40
 90
        0
102
RTVSPost2010PropOp40
 70
     1
102
RTVSPost2010Prop41ColorIndex
 90
       18
102
RTVSPost2010Prop41ColorRGB
 90
        0
102
RTVSPost2010PropOp41
 70
     1
102
RTVSPost2010Prop42
 90
       50
102
RTVSPost2010PropOp42
 70
     1
102
RTVSPost2010Prop43
 90
        3
102
RTVSPost2010PropOp43
 70
     1
102
RTVSPost2010Prop44ColorIndex
 90
        5
102
RTVSPost2010Prop44ColorRGB
 90
      255
102
RTVSPost2010PropOp44
 70
     1
102
RTVSPost2010Prop45
280
     0
102
RTVSPost2010PropOp45
 70
     1
102
RTVSPost2010Prop46
 90
       50
102
RTVSPost2010PropOp46
 70
     1
102
RTVSPost2010Prop47
 90
       50
102
RTVSPost2010PropOp47
 70
     1
102
RTVSPost2010Prop48
 90
       50
102
RTVSPost2010PropOp48
 70
     1
102
RTVSPost2010Prop49
280
     0
102
RTVSPost2010PropOp49
 70
     1
102
RTVSPost2010Prop50
 90
       50
102
RTVSPost2010PropOp50
 70
     1
102
RTVSPost2010Prop51ColorIndex
 90
      256
102
RTVSPost2010Prop51ColorRGB
 90
-16777216
102
RTVSPost2010PropOp51
 70
     0
102
RTVSPost2010Prop52
140
1.0
102
RTVSPost2010PropOp52
 70
     0
102
RTVSPost2010Prop53
 90
        2
102
RTVSPost2010PropOp53
 70
     1
102
RTVSPost2010Prop54
  1
strokes_ogs.tif
102
RTVSPost2010PropOp54
 70
     1
102
RTVSPost2010Prop55
280
     0
102
RTVSPost2010PropOp55
 70
     1
102
RTVSPost2010Prop56
140
1.0
102
RTVSPost2010PropOp56
 70
     1
102
RTVSPost2010Prop57
140
1.0
102
RTVSPost2010PropOp57
 70
     1
  0
XRECORD
  5
4BB
102
{ACAD_REACTORS
330
4BA
102
}
330
4BA
100
AcDbXrecord
280
     1
102
RTVSPropertyOp0
 70
     1
102
RTVSPropertyOp1
 70
     1
102
RTVSPropertyOp2
 70
     1
102
RTVSPropertyOp3
 70
     1
102
RTVSPropertyOp4
 70
     1
102
RTVSPropertyOp5
 70
     1
102
RTVSPropertyOp6
 70
     1
102
RTVSPropertyOp7
 70
     1
102
RTVSPropertyOp8
 70
     1
102
RTVSPropertyOp9
 70
     1
102
RTVSPropertyOp10
 70
     1
102
RTVSPropertyOp11
 70
     1
102
RTVSPropertyOp12
 70
     1
102
RTVSPropertyOp13
 70
     1
102
RTVSPropertyOp14
 70
     1
102
RTVSPropertyOp15
 70
     1
102
RTVSPropertyOp16
 70
     1
102
RTVSPropertyOp17
 70
     1
102
RTVSPropertyOp18
 70
     1
102
RTVSPropertyOp19
 70
     1
102
RTVSPropertyOp20
 70
     1
102
RTVSPropertyOp21
 70
     1
102
RTVSPropertyOp22
 70
     1
102
RTVSPropertyOp23
 70
     1
102
RTVSPropertyOp24
 70
     1
102
RTVSPropertyOp25
 70
     1
102
RTVSPropertyOp26
 70
     1
102
RTVSPropertyOp27
 70
     1
102
RTVSPropertyOp28
 70
     1
102
RTVSPropertyOp29
 70
     1
102
RTVSPropertyOp30
 70
     1
102
RTVSPropertyOp31
 70
     1
102
RTVSPropertyOp32
 70
     1
102
RTVSPropertyOp33
 70
     1
102
RTVSPropertyOp34
 70
     1
102
RTVSPropertyOp35
 70
     1
102
RTVSPropertyOp36
 70
     1
102
RTVSPropertyOp37
 70
     1
102
RTVSPropertyOp38
 70
     1
102
RTVSPropertyOp39
 70
     1
102
RTVSPropertyOp40
 70
     1
102
RTVSPropertyOp41
 70
     1
102
RTVSPropertyOp42
 70
     1
102
RTVSPropertyOp43
 70
     1
102
RTVSPropertyOp44
 70
     1
102
RTVSPropertyOp45
 70
     1
102
RTVSPropertyOp46
 70
     1
102
RTVSPropertyOp47
 70
     1
102
RTVSPropertyOp48
 70
     1
102
RTVSPropertyOp49
 70
     1
102
RTVSPropertyOp50
 70
     1
102
RTVSPropertyOp51
 70
     0
102
RTVSPropertyOp52
 70
     0
102
RTVSPropertyOp53
 70
     1
102
RTVSPropertyOp54
 70
     1
102
RTVSPropertyOp55
 70
     1
102
RTVSPropertyOp56
 70
     1
102
RTVSPropertyOp57
 70
     1
102
RTVSPost2010Prop28
280
     0
102
RTVSPost2010PropOp28
 70
     1
102
RTVSPost2010Prop29
280
     1
102
RTVSPost2010PropOp29
 70
     1
102
RTVSPost2010Prop30
280
     1
102
RTVSPost2010PropOp30
 70
     1
102
RTVSPost2010Prop31
280
     0
102
RTVSPost2010PropOp31
 70
     1
102
RTVSPost2010Prop32
280
     0
102
RTVSPost2010PropOp32
 70
     1
102
RTVSPost2010Prop33
280
     0
102
RTVSPost2010PropOp33
 70
     1
102
RTVSPost2010Prop34
280
     0
102
RTVSPost2010PropOp34
 70
     1
102
RTVSPost2010Prop35
280
     0
102
RTVSPost2010PropOp35
 70
     1
102
RTVSPost2010Prop36
280
     0
102
RTVSPost2010PropOp36
 70
     1
102
RTVSPost2010Prop37
 90
       50
102
RTVSPost2010PropOp37
 70
     1
102
RTVSPost2010Prop38
140
0.0
102
RTVSPost2010PropOp38
 70
     1
102
RTVSPost2010Prop39
140
1.0
102
RTVSPost2010PropOp39
 70
     1
102
RTVSPost2010Prop40
 90
        0
102
RTVSPost2010PropOp40
 70
     1
102
RTVSPost2010Prop41ColorIndex
 90
       18
102
RTVSPost2010Prop41ColorRGB
 90
        0
102
RTVSPost2010PropOp41
 70
     1
102
RTVSPost2010Prop42
 90
       50
102
RTVSPost2010PropOp42
 70
     1
102
RTVSPost2010Prop43
 90
        3
102
RTVSPost2010PropOp43
 70
     1
102
RTVSPost2010Prop44ColorIndex
 90
        5
102
RTVSPost2010Prop44ColorRGB
 90
      255
102
RTVSPost2010PropOp44
 70
     1
102
RTVSPost2010Prop45
280
     0
102
RTVSPost2010PropOp45
 70
     1
102
RTVSPost2010Prop46
 90
       50
102
RTVSPost2010PropOp46
 70
     1
102
RTVSPost2010Prop47
 90
       50
102
RTVSPost2010PropOp47
 70
     1
102
RTVSPost2010Prop48
 90
       50
102
RTVSPost2010PropOp48
 70
     1
102
RTVSPost2010Prop49
280
     0
102
RTVSPost2010PropOp49
 70
     1
102
RTVSPost2010Prop50
 90
       50
102
RTVSPost2010PropOp50
 70
     1
102
RTVSPost2010Prop51ColorIndex
 90
      256
102
RTVSPost2010Prop51ColorRGB
 90
-16777216
102
RTVSPost2010PropOp51
 70
     0
102
RTVSPost2010Prop52
140
1.0
102
RTVSPost2010PropOp52
 70
     0
102
RTVSPost2010Prop53
 90
        2
102
RTVSPost2010PropOp53
 70
     1
102
RTVSPost2010Prop54
  1
strokes_ogs.tif
102
RTVSPost2010PropOp54
 70
     1
102
RTVSPost2010Prop55
280
     0
102
RTVSPost2010PropOp55
 70
     1
102
RTVSPost2010Prop56
140
1.0
102
RTVSPost2010PropOp56
 70
     1
102
RTVSPost2010Prop57
140
1.0
102
RTVSPost2010PropOp57
 70
     1
  0
XRECORD
  5
4BD
102
{ACAD_REACTORS
330
4BC
102
}
330
4BC
100
AcDbXrecord
280
     1
102
RTVSPropertyOp0
 70
     1
102
RTVSPropertyOp1
 70
     1
102
RTVSPropertyOp2
 70
     1
102
RTVSPropertyOp3
 70
     1
102
RTVSPropertyOp4
 70
     1
102
RTVSPropertyOp5
 70
     1
102
RTVSPropertyOp6
 70
     1
102
RTVSPropertyOp7
 70
     1
102
RTVSPropertyOp8
 70
     1
102
RTVSPropertyOp9
 70
     1
102
RTVSPropertyOp10
 70
     1
102
RTVSPropertyOp11
 70
     1
102
RTVSPropertyOp12
 70
     1
102
RTVSPropertyOp13
 70
     1
102
RTVSPropertyOp14
 70
     1
102
RTVSPropertyOp15
 70
     1
102
RTVSPropertyOp16
 70
     1
102
RTVSPropertyOp17
 70
     1
102
RTVSPropertyOp18
 70
     1
102
RTVSPropertyOp19
 70
     1
102
RTVSPropertyOp20
 70
     1
102
RTVSPropertyOp21
 70
     1
102
RTVSPropertyOp22
 70
     1
102
RTVSPropertyOp23
 70
     1
102
RTVSPropertyOp24
 70
     1
102
RTVSPropertyOp25
 70
     1
102
RTVSPropertyOp26
 70
     1
102
RTVSPropertyOp27
 70
     1
102
RTVSPropertyOp28
 70
     1
102
RTVSPropertyOp29
 70
     1
102
RTVSPropertyOp30
 70
     1
102
RTVSPropertyOp31
 70
     1
102
RTVSPropertyOp32
 70
     1
102
RTVSPropertyOp33
 70
     1
102
RTVSPropertyOp34
 70
     1
102
RTVSPropertyOp35
 70
     1
102
RTVSPropertyOp36
 70
     1
102
RTVSPropertyOp37
 70
     1
102
RTVSPropertyOp38
 70
     1
102
RTVSPropertyOp39
 70
     1
102
RTVSPropertyOp40
 70
     1
102
RTVSPropertyOp41
 70
     1
102
RTVSPropertyOp42
 70
     1
102
RTVSPropertyOp43
 70
     1
102
RTVSPropertyOp44
 70
     1
102
RTVSPropertyOp45
 70
     1
102
RTVSPropertyOp46
 70
     1
102
RTVSPropertyOp47
 70
     1
102
RTVSPropertyOp48
 70
     1
102
RTVSPropertyOp49
 70
     1
102
RTVSPropertyOp50
 70
     1
102
RTVSPropertyOp51
 70
     0
102
RTVSPropertyOp52
 70
     0
102
RTVSPropertyOp53
 70
     1
102
RTVSPropertyOp54
 70
     1
102
RTVSPropertyOp55
 70
     1
102
RTVSPropertyOp56
 70
     1
102
RTVSPropertyOp57
 70
     1
102
RTVSPost2010Prop28
280
     0
102
RTVSPost2010PropOp28
 70
     1
102
RTVSPost2010Prop29
280
     1
102
RTVSPost2010PropOp29
 70
     1
102
RTVSPost2010Prop30
280
     1
102
RTVSPost2010PropOp30
 70
     1
102
RTVSPost2010Prop31
280
     0
102
RTVSPost2010PropOp31
 70
     1
102
RTVSPost2010Prop32
280
     0
102
RTVSPost2010PropOp32
 70
     1
102
RTVSPost2010Prop33
280
     0
102
RTVSPost2010PropOp33
 70
     1
102
RTVSPost2010Prop34
280
     0
102
RTVSPost2010PropOp34
 70
     1
102
RTVSPost2010Prop35
280
     0
102
RTVSPost2010PropOp35
 70
     1
102
RTVSPost2010Prop36
280
     0
102
RTVSPost2010PropOp36
 70
     1
102
RTVSPost2010Prop37
 90
       50
102
RTVSPost2010PropOp37
 70
     1
102
RTVSPost2010Prop38
140
0.0
102
RTVSPost2010PropOp38
 70
     1
102
RTVSPost2010Prop39
140
1.0
102
RTVSPost2010PropOp39
 70
     1
102
RTVSPost2010Prop40
 90
        0
102
RTVSPost2010PropOp40
 70
     1
102
RTVSPost2010Prop41ColorIndex
 90
       18
102
RTVSPost2010Prop41ColorRGB
 90
        0
102
RTVSPost2010PropOp41
 70
     1
102
RTVSPost2010Prop42
 90
       50
102
RTVSPost2010PropOp42
 70
     1
102
RTVSPost2010Prop43
 90
        3
102
RTVSPost2010PropOp43
 70
     1
102
RTVSPost2010Prop44ColorIndex
 90
        5
102
RTVSPost2010Prop44ColorRGB
 90
      255
102
RTVSPost2010PropOp44
 70
     1
102
RTVSPost2010Prop45
280
     0
102
RTVSPost2010PropOp45
 70
     1
102
RTVSPost2010Prop46
 90
       50
102
RTVSPost2010PropOp46
 70
     1
102
RTVSPost2010Prop47
 90
       50
102
RTVSPost2010PropOp47
 70
     1
102
RTVSPost2010Prop48
 90
       50
102
RTVSPost2010PropOp48
 70
     1
102
RTVSPost2010Prop49
280
     0
102
RTVSPost2010PropOp49
 70
     1
102
RTVSPost2010Prop50
 90
       50
102
RTVSPost2010PropOp50
 70
     1
102
RTVSPost2010Prop51ColorIndex
 90
      256
102
RTVSPost2010Prop51ColorRGB
 90
-16777216
102
RTVSPost2010PropOp51
 70
     0
102
RTVSPost2010Prop52
140
1.0
102
RTVSPost2010PropOp52
 70
     0
102
RTVSPost2010Prop53
 90
        2
102
RTVSPost2010PropOp53
 70
     1
102
RTVSPost2010Prop54
  1
strokes_ogs.tif
102
RTVSPost2010PropOp54
 70
     1
102
RTVSPost2010Prop55
280
     0
102
RTVSPost2010PropOp55
 70
     1
102
RTVSPost2010Prop56
140
1.0
102
RTVSPost2010PropOp56
 70
     1
102
RTVSPost2010Prop57
140
1.0
102
RTVSPost2010PropOp57
 70
     1
  0
XRECORD
  5
4BF
102
{ACAD_REACTORS
330
4BE
102
}
330
4BE
100
AcDbXrecord
280
     1
102
RTVSPropertyOp0
 70
     1
102
RTVSPropertyOp1
 70
     1
102
RTVSPropertyOp2
 70
     1
102
RTVSPropertyOp3
 70
     1
102
RTVSPropertyOp4
 70
     1
102
RTVSPropertyOp5
 70
     1
102
RTVSPropertyOp6
 70
     1
102
RTVSPropertyOp7
 70
     1
102
RTVSPropertyOp8
 70
     1
102
RTVSPropertyOp9
 70
     1
102
RTVSPropertyOp10
 70
     1
102
RTVSPropertyOp11
 70
     1
102
RTVSPropertyOp12
 70
     1
102
RTVSPropertyOp13
 70
     1
102
RTVSPropertyOp14
 70
     1
102
RTVSPropertyOp15
 70
     1
102
RTVSPropertyOp16
 70
     1
102
RTVSPropertyOp17
 70
     1
102
RTVSPropertyOp18
 70
     1
102
RTVSPropertyOp19
 70
     1
102
RTVSPropertyOp20
 70
     1
102
RTVSPropertyOp21
 70
     1
102
RTVSPropertyOp22
 70
     1
102
RTVSPropertyOp23
 70
     1
102
RTVSPropertyOp24
 70
     1
102
RTVSPropertyOp25
 70
     1
102
RTVSPropertyOp26
 70
     1
102
RTVSPropertyOp27
 70
     1
102
RTVSPropertyOp28
 70
     1
102
RTVSPropertyOp29
 70
     1
102
RTVSPropertyOp30
 70
     1
102
RTVSPropertyOp31
 70
     1
102
RTVSPropertyOp32
 70
     1
102
RTVSPropertyOp33
 70
     1
102
RTVSPropertyOp34
 70
     1
102
RTVSPropertyOp35
 70
     1
102
RTVSPropertyOp36
 70
     1
102
RTVSPropertyOp37
 70
     1
102
RTVSPropertyOp38
 70
     1
102
RTVSPropertyOp39
 70
     1
102
RTVSPropertyOp40
 70
     1
102
RTVSPropertyOp41
 70
     1
102
RTVSPropertyOp42
 70
     1
102
RTVSPropertyOp43
 70
     1
102
RTVSPropertyOp44
 70
     1
102
RTVSPropertyOp45
 70
     1
102
RTVSPropertyOp46
 70
     1
102
RTVSPropertyOp47
 70
     1
102
RTVSPropertyOp48
 70
     1
102
RTVSPropertyOp49
 70
     1
102
RTVSPropertyOp50
 70
     1
102
RTVSPropertyOp51
 70
     0
102
RTVSPropertyOp52
 70
     0
102
RTVSPropertyOp53
 70
     1
102
RTVSPropertyOp54
 70
     1
102
RTVSPropertyOp55
 70
     1
102
RTVSPropertyOp56
 70
     1
102
RTVSPropertyOp57
 70
     1
102
RTVSPost2010Prop28
280
     0
102
RTVSPost2010PropOp28
 70
     1
102
RTVSPost2010Prop29
280
     1
102
RTVSPost2010PropOp29
 70
     1
102
RTVSPost2010Prop30
280
     1
102
RTVSPost2010PropOp30
 70
     1
102
RTVSPost2010Prop31
280
     0
102
RTVSPost2010PropOp31
 70
     1
102
RTVSPost2010Prop32
280
     0
102
RTVSPost2010PropOp32
 70
     1
102
RTVSPost2010Prop33
280
     0
102
RTVSPost2010PropOp33
 70
     1
102
RTVSPost2010Prop34
280
     0
102
RTVSPost2010PropOp34
 70
     1
102
RTVSPost2010Prop35
280
     0
102
RTVSPost2010PropOp35
 70
     1
102
RTVSPost2010Prop36
280
     0
102
RTVSPost2010PropOp36
 70
     1
102
RTVSPost2010Prop37
 90
       50
102
RTVSPost2010PropOp37
 70
     1
102
RTVSPost2010Prop38
140
0.0
102
RTVSPost2010PropOp38
 70
     1
102
RTVSPost2010Prop39
140
1.0
102
RTVSPost2010PropOp39
 70
     1
102
RTVSPost2010Prop40
 90
        0
102
RTVSPost2010PropOp40
 70
     1
102
RTVSPost2010Prop41ColorIndex
 90
       18
102
RTVSPost2010Prop41ColorRGB
 90
        0
102
RTVSPost2010PropOp41
 70
     1
102
RTVSPost2010Prop42
 90
       50
102
RTVSPost2010PropOp42
 70
     1
102
RTVSPost2010Prop43
 90
        3
102
RTVSPost2010PropOp43
 70
     1
102
RTVSPost2010Prop44ColorIndex
 90
        5
102
RTVSPost2010Prop44ColorRGB
 90
      255
102
RTVSPost2010PropOp44
 70
     1
102
RTVSPost2010Prop45
280
     0
102
RTVSPost2010PropOp45
 70
     1
102
RTVSPost2010Prop46
 90
       50
102
RTVSPost2010PropOp46
 70
     1
102
RTVSPost2010Prop47
 90
       50
102
RTVSPost2010PropOp47
 70
     1
102
RTVSPost2010Prop48
 90
       50
102
RTVSPost2010PropOp48
 70
     1
102
RTVSPost2010Prop49
280
     0
102
RTVSPost2010PropOp49
 70
     1
102
RTVSPost2010Prop50
 90
       50
102
RTVSPost2010PropOp50
 70
     1
102
RTVSPost2010Prop51ColorIndex
 90
      256
102
RTVSPost2010Prop51ColorRGB
 90
-16777216
102
RTVSPost2010PropOp51
 70
     0
102
RTVSPost2010Prop52
140
1.0
102
RTVSPost2010PropOp52
 70
     0
102
RTVSPost2010Prop53
 90
        2
102
RTVSPost2010PropOp53
 70
     1
102
RTVSPost2010Prop54
  1
strokes_ogs.tif
102
RTVSPost2010PropOp54
 70
     1
102
RTVSPost2010Prop55
280
     0
102
RTVSPost2010PropOp55
 70
     1
102
RTVSPost2010Prop56
140
1.0
102
RTVSPost2010PropOp56
 70
     1
102
RTVSPost2010Prop57
140
1.0
102
RTVSPost2010PropOp57
 70
     1
  0
XRECORD
  5
4D3
102
{ACAD_REACTORS
330
4D2
102
}
330
4D2
100
AcDbXrecord
280
     1
102
RTVSPropertyOp0
 70
     1
102
RTVSPropertyOp1
 70
     1
102
RTVSPropertyOp2
 70
     1
102
RTVSPropertyOp3
 70
     1
102
RTVSPropertyOp4
 70
     1
102
RTVSPropertyOp5
 70
     1
102
RTVSPropertyOp6
 70
     1
102
RTVSPropertyOp7
 70
     1
102
RTVSPropertyOp8
 70
     1
102
RTVSPropertyOp9
 70
     1
102
RTVSPropertyOp10
 70
     1
102
RTVSPropertyOp11
 70
     1
102
RTVSPropertyOp12
 70
     1
102
RTVSPropertyOp13
 70
     1
102
RTVSPropertyOp14
 70
     1
102
RTVSPropertyOp15
 70
     1
102
RTVSPropertyOp16
 70
     1
102
RTVSPropertyOp17
 70
     1
102
RTVSPropertyOp18
 70
     1
102
RTVSPropertyOp19
 70
     1
102
RTVSPropertyOp20
 70
     1
102
RTVSPropertyOp21
 70
     1
102
RTVSPropertyOp22
 70
     1
102
RTVSPropertyOp23
 70
     1
102
RTVSPropertyOp24
 70
     1
102
RTVSPropertyOp25
 70
     1
102
RTVSPropertyOp26
 70
     1
102
RTVSPropertyOp27
 70
     1
102
RTVSPropertyOp28
 70
     1
102
RTVSPropertyOp29
 70
     1
102
RTVSPropertyOp30
 70
     1
102
RTVSPropertyOp31
 70
     1
102
RTVSPropertyOp32
 70
     1
102
RTVSPropertyOp33
 70
     1
102
RTVSPropertyOp34
 70
     1
102
RTVSPropertyOp35
 70
     1
102
RTVSPropertyOp36
 70
     1
102
RTVSPropertyOp37
 70
     1
102
RTVSPropertyOp38
 70
     1
102
RTVSPropertyOp39
 70
     1
102
RTVSPropertyOp40
 70
     1
102
RTVSPropertyOp41
 70
     1
102
RTVSPropertyOp42
 70
     1
102
RTVSPropertyOp43
 70
     1
102
RTVSPropertyOp44
 70
     1
102
RTVSPropertyOp45
 70
     1
102
RTVSPropertyOp46
 70
     1
102
RTVSPropertyOp47
 70
     1
102
RTVSPropertyOp48
 70
     1
102
RTVSPropertyOp49
 70
     1
102
RTVSPropertyOp50
 70
     1
102
RTVSPropertyOp51
 70
     0
102
RTVSPropertyOp52
 70
     0
102
RTVSPropertyOp53
 70
     1
102
RTVSPropertyOp54
 70
     1
102
RTVSPropertyOp55
 70
     1
102
RTVSPropertyOp56
 70
     1
102
RTVSPropertyOp57
 70
     1
102
RTVSPost2010Prop28
280
     0
102
RTVSPost2010PropOp28
 70
     1
102
RTVSPost2010Prop29
280
     1
102
RTVSPost2010PropOp29
 70
     1
102
RTVSPost2010Prop30
280
     1
102
RTVSPost2010PropOp30
 70
     1
102
RTVSPost2010Prop31
280
     0
102
RTVSPost2010PropOp31
 70
     1
102
RTVSPost2010Prop32
280
     0
102
RTVSPost2010PropOp32
 70
     1
102
RTVSPost2010Prop33
280
     0
102
RTVSPost2010PropOp33
 70
     1
102
RTVSPost2010Prop34
280
     0
102
RTVSPost2010PropOp34
 70
     1
102
RTVSPost2010Prop35
280
     0
102
RTVSPost2010PropOp35
 70
     1
102
RTVSPost2010Prop36
280
     0
102
RTVSPost2010PropOp36
 70
     1
102
RTVSPost2010Prop37
 90
       50
102
RTVSPost2010PropOp37
 70
     1
102
RTVSPost2010Prop38
140
0.0
102
RTVSPost2010PropOp38
 70
     1
102
RTVSPost2010Prop39
140
1.0
102
RTVSPost2010PropOp39
 70
     1
102
RTVSPost2010Prop40
 90
        0
102
RTVSPost2010PropOp40
 70
     1
102
RTVSPost2010Prop41ColorIndex
 90
       18
102
RTVSPost2010Prop41ColorRGB
 90
        0
102
RTVSPost2010PropOp41
 70
     1
102
RTVSPost2010Prop42
 90
       50
102
RTVSPost2010PropOp42
 70
     1
102
RTVSPost2010Prop43
 90
        3
102
RTVSPost2010PropOp43
 70
     1
102
RTVSPost2010Prop44ColorIndex
 90
        5
102
RTVSPost2010Prop44ColorRGB
 90
      255
102
RTVSPost2010PropOp44
 70
     1
102
RTVSPost2010Prop45
280
     0
102
RTVSPost2010PropOp45
 70
     1
102
RTVSPost2010Prop46
 90
       50
102
RTVSPost2010PropOp46
 70
     1
102
RTVSPost2010Prop47
 90
       50
102
RTVSPost2010PropOp47
 70
     1
102
RTVSPost2010Prop48
 90
       50
102
RTVSPost2010PropOp48
 70
     1
102
RTVSPost2010Prop49
280
     0
102
RTVSPost2010PropOp49
 70
     1
102
RTVSPost2010Prop50
 90
       50
102
RTVSPost2010PropOp50
 70
     1
102
RTVSPost2010Prop51ColorIndex
 90
      256
102
RTVSPost2010Prop51ColorRGB
 90
-16777216
102
RTVSPost2010PropOp51
 70
     0
102
RTVSPost2010Prop52
140
1.0
102
RTVSPost2010PropOp52
 70
     0
102
RTVSPost2010Prop53
 90
        2
102
RTVSPost2010PropOp53
 70
     1
102
RTVSPost2010Prop54
  1
strokes_ogs.tif
102
RTVSPost2010PropOp54
 70
     1
102
RTVSPost2010Prop55
280
     0
102
RTVSPost2010PropOp55
 70
     1
102
RTVSPost2010Prop56
140
1.0
102
RTVSPost2010PropOp56
 70
     1
102
RTVSPost2010Prop57
140
1.0
102
RTVSPost2010PropOp57
 70
     1
  0
XRECORD
  5
4C9
102
{ACAD_REACTORS
330
4C8
102
}
330
4C8
100
AcDbXrecord
280
     1
102
RTVSPropertyOp0
 70
     1
102
RTVSPropertyOp1
 70
     1
102
RTVSPropertyOp2
 70
     1
102
RTVSPropertyOp3
 70
     1
102
RTVSPropertyOp4
 70
     1
102
RTVSPropertyOp5
 70
     1
102
RTVSPropertyOp6
 70
     1
102
RTVSPropertyOp7
 70
     1
102
RTVSPropertyOp8
 70
     1
102
RTVSPropertyOp9
 70
     1
102
RTVSPropertyOp10
 70
     1
102
RTVSPropertyOp11
 70
     1
102
RTVSPropertyOp12
 70
     1
102
RTVSPropertyOp13
 70
     1
102
RTVSPropertyOp14
 70
     1
102
RTVSPropertyOp15
 70
     1
102
RTVSPropertyOp16
 70
     1
102
RTVSPropertyOp17
 70
     1
102
RTVSPropertyOp18
 70
     1
102
RTVSPropertyOp19
 70
     1
102
RTVSPropertyOp20
 70
     1
102
RTVSPropertyOp21
 70
     1
102
RTVSPropertyOp22
 70
     1
102
RTVSPropertyOp23
 70
     1
102
RTVSPropertyOp24
 70
     1
102
RTVSPropertyOp25
 70
     1
102
RTVSPropertyOp26
 70
     1
102
RTVSPropertyOp27
 70
     1
102
RTVSPropertyOp28
 70
     1
102
RTVSPropertyOp29
 70
     1
102
RTVSPropertyOp30
 70
     1
102
RTVSPropertyOp31
 70
     1
102
RTVSPropertyOp32
 70
     1
102
RTVSPropertyOp33
 70
     1
102
RTVSPropertyOp34
 70
     1
102
RTVSPropertyOp35
 70
     1
102
RTVSPropertyOp36
 70
     1
102
RTVSPropertyOp37
 70
     1
102
RTVSPropertyOp38
 70
     1
102
RTVSPropertyOp39
 70
     1
102
RTVSPropertyOp40
 70
     1
102
RTVSPropertyOp41
 70
     1
102
RTVSPropertyOp42
 70
     1
102
RTVSPropertyOp43
 70
     1
102
RTVSPropertyOp44
 70
     1
102
RTVSPropertyOp45
 70
     1
102
RTVSPropertyOp46
 70
     1
102
RTVSPropertyOp47
 70
     1
102
RTVSPropertyOp48
 70
     1
102
RTVSPropertyOp49
 70
     1
102
RTVSPropertyOp50
 70
     1
102
RTVSPropertyOp51
 70
     0
102
RTVSPropertyOp52
 70
     0
102
RTVSPropertyOp53
 70
     1
102
RTVSPropertyOp54
 70
     1
102
RTVSPropertyOp55
 70
     1
102
RTVSPropertyOp56
 70
     1
102
RTVSPropertyOp57
 70
     1
102
RTVSPost2010Prop28
280
     0
102
RTVSPost2010PropOp28
 70
     1
102
RTVSPost2010Prop29
280
     1
102
RTVSPost2010PropOp29
 70
     1
102
RTVSPost2010Prop30
280
     1
102
RTVSPost2010PropOp30
 70
     1
102
RTVSPost2010Prop31
280
     0
102
RTVSPost2010PropOp31
 70
     1
102
RTVSPost2010Prop32
280
     0
102
RTVSPost2010PropOp32
 70
     1
102
RTVSPost2010Prop33
280
     0
102
RTVSPost2010PropOp33
 70
     1
102
RTVSPost2010Prop34
280
     0
102
RTVSPost2010PropOp34
 70
     1
102
RTVSPost2010Prop35
280
     0
102
RTVSPost2010PropOp35
 70
     1
102
RTVSPost2010Prop36
280
     0
102
RTVSPost2010PropOp36
 70
     1
102
RTVSPost2010Prop37
 90
       50
102
RTVSPost2010PropOp37
 70
     1
102
RTVSPost2010Prop38
140
0.0
102
RTVSPost2010PropOp38
 70
     1
102
RTVSPost2010Prop39
140
1.0
102
RTVSPost2010PropOp39
 70
     1
102
RTVSPost2010Prop40
 90
        0
102
RTVSPost2010PropOp40
 70
     1
102
RTVSPost2010Prop41ColorIndex
 90
       18
102
RTVSPost2010Prop41ColorRGB
 90
        0
102
RTVSPost2010PropOp41
 70
     1
102
RTVSPost2010Prop42
 90
       50
102
RTVSPost2010PropOp42
 70
     1
102
RTVSPost2010Prop43
 90
        3
102
RTVSPost2010PropOp43
 70
     1
102
RTVSPost2010Prop44ColorIndex
 90
        5
102
RTVSPost2010Prop44ColorRGB
 90
      255
102
RTVSPost2010PropOp44
 70
     1
102
RTVSPost2010Prop45
280
     0
102
RTVSPost2010PropOp45
 70
     1
102
RTVSPost2010Prop46
 90
       50
102
RTVSPost2010PropOp46
 70
     1
102
RTVSPost2010Prop47
 90
       50
102
RTVSPost2010PropOp47
 70
     1
102
RTVSPost2010Prop48
 90
       50
102
RTVSPost2010PropOp48
 70
     1
102
RTVSPost2010Prop49
280
     0
102
RTVSPost2010PropOp49
 70
     1
102
RTVSPost2010Prop50
 90
       50
102
RTVSPost2010PropOp50
 70
     1
102
RTVSPost2010Prop51ColorIndex
 90
      256
102
RTVSPost2010Prop51ColorRGB
 90
-16777216
102
RTVSPost2010PropOp51
 70
     0
102
RTVSPost2010Prop52
140
1.0
102
RTVSPost2010PropOp52
 70
     0
102
RTVSPost2010Prop53
 90
        2
102
RTVSPost2010PropOp53
 70
     1
102
RTVSPost2010Prop54
  1
strokes_ogs.tif
102
RTVSPost2010PropOp54
 70
     1
102
RTVSPost2010Prop55
280
     0
102
RTVSPost2010PropOp55
 70
     1
102
RTVSPost2010Prop56
140
1.0
102
RTVSPost2010PropOp56
 70
     1
102
RTVSPost2010Prop57
140
1.0
102
RTVSPost2010PropOp57
 70
     1
  0
XRECORD
  5
4D1
102
{ACAD_REACTORS
330
4D0
102
}
330
4D0
100
AcDbXrecord
280
     1
102
RTVSPropertyOp0
 70
     1
102
RTVSPropertyOp1
 70
     1
102
RTVSPropertyOp2
 70
     1
102
RTVSPropertyOp3
 70
     1
102
RTVSPropertyOp4
 70
     1
102
RTVSPropertyOp5
 70
     1
102
RTVSPropertyOp6
 70
     1
102
RTVSPropertyOp7
 70
     1
102
RTVSPropertyOp8
 70
     1
102
RTVSPropertyOp9
 70
     1
102
RTVSPropertyOp10
 70
     1
102
RTVSPropertyOp11
 70
     1
102
RTVSPropertyOp12
 70
     1
102
RTVSPropertyOp13
 70
     1
102
RTVSPropertyOp14
 70
     1
102
RTVSPropertyOp15
 70
     1
102
RTVSPropertyOp16
 70
     1
102
RTVSPropertyOp17
 70
     1
102
RTVSPropertyOp18
 70
     1
102
RTVSPropertyOp19
 70
     1
102
RTVSPropertyOp20
 70
     1
102
RTVSPropertyOp21
 70
     1
102
RTVSPropertyOp22
 70
     1
102
RTVSPropertyOp23
 70
     1
102
RTVSPropertyOp24
 70
     1
102
RTVSPropertyOp25
 70
     1
102
RTVSPropertyOp26
 70
     1
102
RTVSPropertyOp27
 70
     1
102
RTVSPropertyOp28
 70
     1
102
RTVSPropertyOp29
 70
     1
102
RTVSPropertyOp30
 70
     1
102
RTVSPropertyOp31
 70
     1
102
RTVSPropertyOp32
 70
     1
102
RTVSPropertyOp33
 70
     1
102
RTVSPropertyOp34
 70
     1
102
RTVSPropertyOp35
 70
     1
102
RTVSPropertyOp36
 70
     1
102
RTVSPropertyOp37
 70
     1
102
RTVSPropertyOp38
 70
     1
102
RTVSPropertyOp39
 70
     1
102
RTVSPropertyOp40
 70
     1
102
RTVSPropertyOp41
 70
     1
102
RTVSPropertyOp42
 70
     1
102
RTVSPropertyOp43
 70
     1
102
RTVSPropertyOp44
 70
     1
102
RTVSPropertyOp45
 70
     1
102
RTVSPropertyOp46
 70
     1
102
RTVSPropertyOp47
 70
     1
102
RTVSPropertyOp48
 70
     1
102
RTVSPropertyOp49
 70
     1
102
RTVSPropertyOp50
 70
     1
102
RTVSPropertyOp51
 70
     0
102
RTVSPropertyOp52
 70
     0
102
RTVSPropertyOp53
 70
     1
102
RTVSPropertyOp54
 70
     1
102
RTVSPropertyOp55
 70
     1
102
RTVSPropertyOp56
 70
     1
102
RTVSPropertyOp57
 70
     1
102
RTVSPost2010Prop28
280
     0
102
RTVSPost2010PropOp28
 70
     1
102
RTVSPost2010Prop29
280
     1
102
RTVSPost2010PropOp29
 70
     1
102
RTVSPost2010Prop30
280
     1
102
RTVSPost2010PropOp30
 70
     1
102
RTVSPost2010Prop31
280
     0
102
RTVSPost2010PropOp31
 70
     1
102
RTVSPost2010Prop32
280
     0
102
RTVSPost2010PropOp32
 70
     1
102
RTVSPost2010Prop33
280
     0
102
RTVSPost2010PropOp33
 70
     1
102
RTVSPost2010Prop34
280
     0
102
RTVSPost2010PropOp34
 70
     1
102
RTVSPost2010Prop35
280
     0
102
RTVSPost2010PropOp35
 70
     1
102
RTVSPost2010Prop36
280
     0
102
RTVSPost2010PropOp36
 70
     1
102
RTVSPost2010Prop37
 90
       50
102
RTVSPost2010PropOp37
 70
     1
102
RTVSPost2010Prop38
140
0.0
102
RTVSPost2010PropOp38
 70
     1
102
RTVSPost2010Prop39
140
1.0
102
RTVSPost2010PropOp39
 70
     1
102
RTVSPost2010Prop40
 90
        0
102
RTVSPost2010PropOp40
 70
     1
102
RTVSPost2010Prop41ColorIndex
 90
       18
102
RTVSPost2010Prop41ColorRGB
 90
        0
102
RTVSPost2010PropOp41
 70
     1
102
RTVSPost2010Prop42
 90
       50
102
RTVSPost2010PropOp42
 70
     1
102
RTVSPost2010Prop43
 90
        3
102
RTVSPost2010PropOp43
 70
     1
102
RTVSPost2010Prop44ColorIndex
 90
        5
102
RTVSPost2010Prop44ColorRGB
 90
      255
102
RTVSPost2010PropOp44
 70
     1
102
RTVSPost2010Prop45
280
     0
102
RTVSPost2010PropOp45
 70
     1
102
RTVSPost2010Prop46
 90
       50
102
RTVSPost2010PropOp46
 70
     1
102
RTVSPost2010Prop47
 90
       50
102
RTVSPost2010PropOp47
 70
     1
102
RTVSPost2010Prop48
 90
       50
102
RTVSPost2010PropOp48
 70
     1
102
RTVSPost2010Prop49
280
     0
102
RTVSPost2010PropOp49
 70
     1
102
RTVSPost2010Prop50
 90
       50
102
RTVSPost2010PropOp50
 70
     1
102
RTVSPost2010Prop51ColorIndex
 90
      256
102
RTVSPost2010Prop51ColorRGB
 90
-16777216
102
RTVSPost2010PropOp51
 70
     0
102
RTVSPost2010Prop52
140
1.0
102
RTVSPost2010PropOp52
 70
     0
102
RTVSPost2010Prop53
 90
        2
102
RTVSPost2010PropOp53
 70
     1
102
RTVSPost2010Prop54
  1
strokes_ogs.tif
102
RTVSPost2010PropOp54
 70
     1
102
RTVSPost2010Prop55
280
     0
102
RTVSPost2010PropOp55
 70
     1
102
RTVSPost2010Prop56
140
1.0
102
RTVSPost2010PropOp56
 70
     1
102
RTVSPost2010Prop57
140
1.0
102
RTVSPost2010PropOp57
 70
     1
  0
ENDSEC
  0
EOF
