  0
SECTION
  2
HEADER
  9
$ACADVER
  1
AC1018
  9
$ACADMAINTVER
 70
     0
  9
$DWGCODEPAGE
  3
ANSI_936
  9
$INSBASE
 10
0.0
 20
0.0
 30
0.0
  9
$EXTMIN
 10
0.0000000939461708
 20
394.7323377921602
 30
0.0
  9
$EXTMAX
 10
60.69294517991648
 20
539.0207407242247
 30
0.0
  9
$LIMMIN
 10
0.0
 20
0.0
  9
$LIMMAX
 10
12.0
 20
9.0
  9
$ORTHOMODE
 70
     0
  9
$REGENMODE
 70
     1
  9
$FILLMODE
 70
     1
  9
$QTEXTMODE
 70
     0
  9
$MIRRTEXT
 70
     1
  9
$LTSCALE
 40
1.0
  9
$ATTMODE
 70
     1
  9
$TEXTSIZE
 40
0.2
  9
$TRACEWID
 40
0.05
  9
$TEXTSTYLE
  7
Standard
  9
$CLAYER
  8
E72279
  9
$CELTYPE
  6
ByLayer
  9
$CECOLOR
 62
   256
  9
$CELTSCALE
 40
1.0
  9
$DISPSILH
 70
     0
  9
$DIMSCALE
 40
1.0
  9
$DIMASZ
 40
0.18
  9
$DIMEXO
 40
0.0625
  9
$DIMDLI
 40
0.38
  9
$DIMRND
 40
0.0
  9
$DIMDLE
 40
0.0
  9
$DIMEXE
 40
0.18
  9
$DIMTP
 40
0.0
  9
$DIMTM
 40
0.0
  9
$DIMTXT
 40
0.18
  9
$DIMCEN
 40
0.09
  9
$DIMTSZ
 40
0.0
  9
$DIMTOL
 70
     0
  9
$DIMLIM
 70
     0
  9
$DIMTIH
 70
     1
  9
$DIMTOH
 70
     1
  9
$DIMSE1
 70
     0
  9
$DIMSE2
 70
     0
  9
$DIMTAD
 70
     0
  9
$DIMZIN
 70
     0
  9
$DIMBLK
  1

  9
$DIMASO
 70
     1
  9
$DIMSHO
 70
     1
  9
$DIMPOST
  1

  9
$DIMAPOST
  1

  9
$DIMALT
 70
     0
  9
$DIMALTD
 70
     2
  9
$DIMALTF
 40
25.4
  9
$DIMLFAC
 40
1.0
  9
$DIMTOFL
 70
     0
  9
$DIMTVP
 40
0.0
  9
$DIMTIX
 70
     0
  9
$DIMSOXD
 70
     0
  9
$DIMSAH
 70
     0
  9
$DIMBLK1
  1

  9
$DIMBLK2
  1

  9
$DIMSTYLE
  2
Standard
  9
$DIMCLRD
 70
     0
  9
$DIMCLRE
 70
     0
  9
$DIMCLRT
 70
     0
  9
$DIMTFAC
 40
1.0
  9
$DIMGAP
 40
0.09
  9
$DIMJUST
 70
     0
  9
$DIMSD1
 70
     0
  9
$DIMSD2
 70
     0
  9
$DIMTOLJ
 70
     1
  9
$DIMTZIN
 70
     0
  9
$DIMALTZ
 70
     0
  9
$DIMALTTZ
 70
     0
  9
$DIMUPT
 70
     0
  9
$DIMDEC
 70
     4
  9
$DIMTDEC
 70
     4
  9
$DIMALTU
 70
     2
  9
$DIMALTTD
 70
     2
  9
$DIMTXSTY
  7
Standard
  9
$DIMAUNIT
 70
     0
  9
$DIMADEC
 70
     0
  9
$DIMALTRND
 40
0.0
  9
$DIMAZIN
 70
     0
  9
$DIMDSEP
 70
    46
  9
$DIMATFIT
 70
     3
  9
$DIMFRAC
 70
     0
  9
$DIMLDRBLK
  1

  9
$DIMLUNIT
 70
     2
  9
$DIMLWD
 70
    -2
  9
$DIMLWE
 70
    -2
  9
$DIMTMOVE
 70
     2
  9
$LUNITS
 70
     2
  9
$LUPREC
 70
     2
  9
$SKETCHINC
 40
0.1
  9
$FILLETRAD
 40
0.5
  9
$AUNITS
 70
     0
  9
$AUPREC
 70
     0
  9
$MENU
  1
.
  9
$ELEVATION
 40
0.0
  9
$PELEVATION
 40
0.0
  9
$THICKNESS
 40
0.0
  9
$LIMCHECK
 70
     0
  9
$CHAMFERA
 40
0.5
  9
$CHAMFERB
 40
0.5
  9
$CHAMFERC
 40
1.0
  9
$CHAMFERD
 40
0.0
  9
$SKPOLY
 70
     0
  9
$TDCREATE
 40
2456717.665678854
  9
$TDUCREATE
 40
2456717.332345521
  9
$TDUPDATE
 40
2456717.665680058
  9
$TDUUPDATE
 40
2456717.332346724
  9
$TDINDWG
 40
0.0000000116
  9
$TDUSRTIMER
 40
0.0000000116
  9
$USRTIMER
 70
     1
  9
$ANGBASE
 50
0.0
  9
$ANGDIR
 70
     0
  9
$PDMODE
 70
     0
  9
$PDSIZE
 40
0.0
  9
$PLINEWID
 40
0.0
  9
$SPLFRAME
 70
     0
  9
$SPLINETYPE
 70
     6
  9
$SPLINESEGS
 70
     8
  9
$HANDSEED
  5
374
  9
$SURFTAB1
 70
     6
  9
$SURFTAB2
 70
     6
  9
$SURFTYPE
 70
     6
  9
$SURFU
 70
     6
  9
$SURFV
 70
     6
  9
$UCSBASE
  2

  9
$UCSNAME
  2

  9
$UCSORG
 10
0.0
 20
0.0
 30
0.0
  9
$UCSXDIR
 10
1.0
 20
0.0
 30
0.0
  9
$UCSYDIR
 10
0.0
 20
1.0
 30
0.0
  9
$UCSORTHOREF
  2

  9
$UCSORTHOVIEW
 70
     0
  9
$UCSORGTOP
 10
0.0
 20
0.0
 30
0.0
  9
$UCSORGBOTTOM
 10
0.0
 20
0.0
 30
0.0
  9
$UCSORGLEFT
 10
0.0
 20
0.0
 30
0.0
  9
$UCSORGRIGHT
 10
0.0
 20
0.0
 30
0.0
  9
$UCSORGFRONT
 10
0.0
 20
0.0
 30
0.0
  9
$UCSORGBACK
 10
0.0
 20
0.0
 30
0.0
  9
$PUCSBASE
  2

  9
$PUCSNAME
  2

  9
$PUCSORG
 10
0.0
 20
0.0
 30
0.0
  9
$PUCSXDIR
 10
1.0
 20
0.0
 30
0.0
  9
$PUCSYDIR
 10
0.0
 20
1.0
 30
0.0
  9
$PUCSORTHOREF
  2

  9
$PUCSORTHOVIEW
 70
     0
  9
$PUCSORGTOP
 10
0.0
 20
0.0
 30
0.0
  9
$PUCSORGBOTTOM
 10
0.0
 20
0.0
 30
0.0
  9
$PUCSORGLEFT
 10
0.0
 20
0.0
 30
0.0
  9
$PUCSORGRIGHT
 10
0.0
 20
0.0
 30
0.0
  9
$PUCSORGFRONT
 10
0.0
 20
0.0
 30
0.0
  9
$PUCSORGBACK
 10
0.0
 20
0.0
 30
0.0
  9
$USERI1
 70
     0
  9
$USERI2
 70
     0
  9
$USERI3
 70
     0
  9
$USERI4
 70
     0
  9
$USERI5
 70
     0
  9
$USERR1
 40
0.0
  9
$USERR2
 40
0.0
  9
$USERR3
 40
0.0
  9
$USERR4
 40
0.0
  9
$USERR5
 40
0.0
  9
$WORLDVIEW
 70
     1
  9
$SHADEDGE
 70
     3
  9
$SHADEDIF
 70
    70
  9
$TILEMODE
 70
     1
  9
$MAXACTVP
 70
    64
  9
$PINSBASE
 10
0.0
 20
0.0
 30
0.0
  9
$PLIMCHECK
 70
     0
  9
$PEXTMIN
 10
1.000000000000000E+20
 20
1.000000000000000E+20
 30
1.000000000000000E+20
  9
$PEXTMAX
 10
-1.000000000000000E+20
 20
-1.000000000000000E+20
 30
-1.000000000000000E+20
  9
$PLIMMIN
 10
0.0
 20
0.0
  9
$PLIMMAX
 10
12.0
 20
9.0
  9
$UNITMODE
 70
     0
  9
$VISRETAIN
 70
     1
  9
$PLINEGEN
 70
     0
  9
$PSLTSCALE
 70
     1
  9
$TREEDEPTH
 70
  3020
  9
$CMLSTYLE
  2
Standard
  9
$CMLJUST
 70
     0
  9
$CMLSCALE
 40
1.0
  9
$PROXYGRAPHICS
 70
     1
  9
$MEASUREMENT
 70
     0
  9
$CELWEIGHT
370
    -1
  9
$ENDCAPS
280
     0
  9
$JOINSTYLE
280
     0
  9
$LWDISPLAY
290
     0
  9
$INSUNITS
 70
     4
  9
$HYPERLINKBASE
  1

  9
$STYLESHEET
  1

  9
$XEDIT
290
     1
  9
$CEPSNTYPE
380
     0
  9
$PSTYLEMODE
290
     1
  9
$FINGERPRINTGUID
  2
{F6791E65-B80D-4743-8143-01B185AA91D8}
  9
$VERSIONGUID
  2
{FAEB1C32-E019-11D5-929B-00C0DF256EC4}
  9
$EXTNAMES
290
     1
  9
$PSVPSCALE
 40
0.0
  9
$OLESTARTUP
290
     0
  9
$SORTENTS
280
   127
  9
$INDEXCTL
280
     0
  9
$HIDETEXT
280
     1
  9
$XCLIPFRAME
290
     0
  9
$HALOGAP
280
     0
  9
$OBSCOLOR
 70
   257
  9
$OBSLTYPE
280
     0
  9
$INTERSECTIONDISPLAY
280
     0
  9
$INTERSECTIONCOLOR
 70
   257
  9
$DIMASSOC
280
     2
  9
$PROJECTNAME
  1

  0
ENDSEC
  0
SECTION
  2
CLASSES
  0
CLASS
  1
ACDBDICTIONARYWDFLT
  2
AcDbDictionaryWithDefault
  3
ObjectDBX Classes
 90
        0
 91
        4
280
     0
281
     0
  0
CLASS
  1
VISUALSTYLE
  2
AcDbVisualStyle
  3
ObjectDBX Classes
 90
     4095
 91
        4
280
     0
281
     0
  0
CLASS
  1
MATERIAL
  2
AcDbMaterial
  3
ObjectDBX Classes
 90
     1153
 91
        4
280
     0
281
     0
  0
CLASS
  1
SCALE
  2
AcDbScale
  3
ObjectDBX Classes
 90
     1153
 91
        4
280
     0
281
     0
  0
CLASS
  1
SUN
  2
AcDbSun
  3
SCENEOE
 90
     1153
 91
        4
280
     0
281
     0
  0
CLASS
  1
DICTIONARYVAR
  2
AcDbDictionaryVar
  3
ObjectDBX Classes
 90
        0
 91
        4
280
     0
281
     0
  0
ENDSEC
  0
SECTION
  2
TABLES
  0
TABLE
  2
VPORT
  5
8
330
0
100
AcDbSymbolTable
 70
     1
  0
VPORT
  5
29
330
8
100
AcDbSymbolTableRecord
100
AcDbViewportTableRecord
  2
*Active
 70
     0
 10
0.0
 20
0.0
 11
1.0
 21
1.0
 12
30.34220681396179
 22
466.8765390783283
 13
0.0
 23
0.0
 14
0.5
 24
0.5
 15
0.5
 25
0.5
 16
0.0
 26
0.0
 36
1.0
 17
0.0
 27
0.0
 37
0.0
 40
147.1741645890665
 41
0.4205772248251666
 42
50.0
 43
0.0
 44
0.0
 50
0.0
 51
0.0
 71
     0
 72
   100
 73
     1
 74
     3
 75
     0
 76
     0
 77
     0
 78
     0
281
     0
 65
     1
110
0.0
120
0.0
130
0.0
111
1.0
121
0.0
131
0.0
112
0.0
122
1.0
132
0.0
 79
     0
146
0.0
  0
ENDTAB
  0
TABLE
  2
LTYPE
  5
5
330
0
100
AcDbSymbolTable
 70
     1
  0
LTYPE
  5
14
330
5
100
AcDbSymbolTableRecord
100
AcDbLinetypeTableRecord
  2
ByBlock
 70
     0
  3

 72
    65
 73
     0
 40
0.0
  0
LTYPE
  5
15
330
5
100
AcDbSymbolTableRecord
100
AcDbLinetypeTableRecord
  2
ByLayer
 70
     0
  3

 72
    65
 73
     0
 40
0.0
  0
LTYPE
  5
16
330
5
100
AcDbSymbolTableRecord
100
AcDbLinetypeTableRecord
  2
Continuous
 70
     0
  3
Solid line
 72
    65
 73
     0
 40
0.0
  0
ENDTAB
  0
TABLE
  2
LAYER
  5
2
330
0
100
AcDbSymbolTable
 70
     3
  0
LAYER
  5
10
330
2
100
AcDbSymbolTableRecord
100
AcDbLayerTableRecord
  2
0
 70
     0
 62
     7
  6
Continuous
370
    -3
390
F
  0
LAYER
  5
62
330
2
100
AcDbSymbolTableRecord
100
AcDbLayerTableRecord
  2
Make2D$可见线$普通线
 70
     0
 62
    18
420
        0
  6
Continuous
370
    -3
390
F
  0
LAYER
  5
214
330
2
100
AcDbSymbolTableRecord
100
AcDbLayerTableRecord
  2
E72279
 70
     0
 62
    18
420
        0
  6
Continuous
370
    -3
390
F
  0
ENDTAB
  0
TABLE
  2
STYLE
  5
3
330
0
100
AcDbSymbolTable
 70
     1
  0
STYLE
  5
11
330
3
100
AcDbSymbolTableRecord
100
AcDbTextStyleTableRecord
  2
Standard
 70
     0
 40
0.0
 41
1.0
 50
0.0
 71
     0
 42
0.2
  3
txt
  4

  0
ENDTAB
  0
TABLE
  2
VIEW
  5
6
330
0
100
AcDbSymbolTable
 70
     0
  0
ENDTAB
  0
TABLE
  2
UCS
  5
7
330
0
100
AcDbSymbolTable
 70
     0
  0
ENDTAB
  0
TABLE
  2
APPID
  5
9
330
0
100
AcDbSymbolTable
 70
     1
  0
APPID
  5
12
330
9
100
AcDbSymbolTableRecord
100
AcDbRegAppTableRecord
  2
ACAD
 70
     0
  0
ENDTAB
  0
TABLE
  2
DIMSTYLE
  5
A
330
0
100
AcDbSymbolTable
 70
     1
100
AcDbDimStyleTable
  0
DIMSTYLE
105
27
330
A
100
AcDbSymbolTableRecord
100
AcDbDimStyleTableRecord
  2
Standard
 70
     0
178
     0
340
11
  0
ENDTAB
  0
TABLE
  2
BLOCK_RECORD
  5
1
330
0
100
AcDbSymbolTable
 70
     1
  0
BLOCK_RECORD
  5
1F
330
1
100
AcDbSymbolTableRecord
100
AcDbBlockTableRecord
  2
*Model_Space
340
22
  0
BLOCK_RECORD
  5
1B
330
1
100
AcDbSymbolTableRecord
100
AcDbBlockTableRecord
  2
*Paper_Space
340
1E
  0
BLOCK_RECORD
  5
23
330
1
100
AcDbSymbolTableRecord
100
AcDbBlockTableRecord
  2
*Paper_Space0
340
26
  0
ENDTAB
  0
ENDSEC
  0
SECTION
  2
BLOCKS
  0
BLOCK
  5
20
330
1F
100
AcDbEntity
  8
0
100
AcDbBlockBegin
  2
*Model_Space
 70
     0
 10
0.0
 20
0.0
 30
0.0
  3
*Model_Space
  1
*Model_Space
  0
ENDBLK
  5
21
330
1F
100
AcDbEntity
  8
0
100
AcDbBlockEnd
  0
BLOCK
  5
1C
330
1B
100
AcDbEntity
 67
     1
  8
0
100
AcDbBlockBegin
  2
*Paper_Space
 70
     0
 10
0.0
 20
0.0
 30
0.0
  3
*Paper_Space
  1
*Paper_Space
  0
ENDBLK
  5
1D
330
1B
100
AcDbEntity
 67
     1
  8
0
100
AcDbBlockEnd
  0
BLOCK
  5
24
330
23
100
AcDbEntity
  8
0
100
AcDbBlockBegin
  2
*Paper_Space0
 70
     0
 10
0.0
 20
0.0
 30
0.0
  3
*Paper_Space0
  1
*Paper_Space0
  0
ENDBLK
  5
25
330
23
100
AcDbEntity
  8
0
100
AcDbBlockEnd
  0
ENDSEC
  0
SECTION
  2
ENTITIES
  0
LINE
  5
63
330
1F
100
AcDbEntity
  8
Make2D$可见线$普通线
100
AcDbLine
 10
4.153062626951445
 20
539.0040383942028
 30
0.0
 11
4.230900352324346
 21
539.0154125980599
 31
0.0
  0
LINE
  5
64
330
1F
100
AcDbEntity
  8
Make2D$可见线$普通线
100
AcDbLine
 10
51.84943543272533
 20
539.0040383942028
 30
0.0
 11
51.77159770736268
 21
539.0154125980589
 31
0.0
  0
ARC
  5
65
330
1F
100
AcDbEntity
  8
Make2D$可见线$普通线
100
AcDbCircle
 10
28.00124902988501
 20
487.732340750371
 30
0.0
 40
4.999999999951897
100
AcDbArc
 50
13.55686438993436
 51
16.44313561133326
  0
ARC
  5
66
330
1F
100
AcDbEntity
  8
Make2D$可见线$普通线
100
AcDbCircle
 10
28.00124902979078
 20
487.7323407503315
 30
0.0
 40
5.000000000055
100
AcDbArc
 50
28.55686439274697
 51
31.44313560741028
  0
ARC
  5
67
330
1F
100
AcDbEntity
  8
Make2D$可见线$普通线
100
AcDbCircle
 10
28.00124902975038
 20
487.7323407502725
 30
0.0
 40
5.000000000123269
100
AcDbArc
 50
43.55686439280313
 51
46.44313560716987
  0
ARC
  5
68
330
1F
100
AcDbEntity
  8
Make2D$可见线$普通线
100
AcDbCircle
 10
28.00124902982205
 20
487.7323407503317
 30
0.0
 40
5.000000000031743
100
AcDbArc
 50
58.55686439257691
 51
61.44313560725428
  0
ARC
  5
69
330
1F
100
AcDbEntity
  8
Make2D$可见线$普通线
100
AcDbCircle
 10
28.0012490299216
 20
487.7323407506792
 30
0.0
 40
4.999999999669293
100
AcDbArc
 50
73.55686438856
 51
76.4431356101245
  0
ARC
  5
6A
330
1F
100
AcDbEntity
  8
Make2D$可见线$普通线
100
AcDbCircle
 10
28.00124902983844
 20
487.7323407508347
 30
0.0
 40
4.999999999524277
100
AcDbArc
 50
88.55686439154599
 51
91.44313560845409
  0
ARC
  5
6B
330
1F
100
AcDbEntity
  8
Make2D$可见线$普通线
100
AcDbCircle
 10
28.00124902977527
 20
487.7323407505936
 30
0.0
 40
4.999999999757104
100
AcDbArc
 50
103.5568643898693
 51
106.4431356113816
  0
ARC
  5
6C
330
1F
100
AcDbEntity
  8
Make2D$可见线$普通线
100
AcDbCircle
 10
28.00124902985254
 20
487.7323407503329
 30
0.0
 40
5.000000000029596
100
AcDbArc
 50
118.5568643927305
 51
121.4431356074078
  0
ARC
  5
6D
330
1F
100
AcDbEntity
  8
Make2D$可见线$普通线
100
AcDbCircle
 10
28.00124902997078
 20
487.7323407502265
 30
0.0
 40
5.000000000187219
100
AcDbArc
 50
133.5568643928351
 51
136.4431356071624
  0
ARC
  5
6E
330
1F
100
AcDbEntity
  8
Make2D$可见线$普通线
100
AcDbCircle
 10
28.00124902976425
 20
487.7323407504005
 30
0.0
 40
4.999999999915014
100
AcDbArc
 50
148.5568643925373
 51
151.443135607281
  0
ARC
  5
6F
330
1F
100
AcDbEntity
  8
Make2D$可见线$普通线
100
AcDbCircle
 10
28.00124902988582
 20
487.7323407503457
 30
0.0
 40
5.000000000049207
100
AcDbArc
 50
163.556864388695
 51
166.4431356100377
  0
ARC
  5
70
330
1F
100
AcDbEntity
  8
Make2D$可见线$普通线
100
AcDbCircle
 10
28.00124902984217
 20
487.7323407503589
 30
0.0
 40
5.000000000003751
100
AcDbArc
 50
178.5568643916826
 51
181.4431356083167
  0
ARC
  5
71
330
1F
100
AcDbEntity
  8
Make2D$可见线$普通线
100
AcDbCircle
 10
28.00124902984359
 20
487.7323407503607
 30
0.0
 40
5.00000000000548
100
AcDbArc
 50
193.5568643899491
 51
196.4431356113171
  0
ARC
  5
72
330
1F
100
AcDbEntity
  8
Make2D$可见线$普通线
100
AcDbCircle
 10
28.0012490298873
 20
487.7323407503873
 30
0.0
 40
5.000000000056547
100
AcDbArc
 50
208.5568643927499
 51
211.4431356074124
  0
ARC
  5
73
330
1F
100
AcDbEntity
  8
Make2D$可见线$普通线
100
AcDbCircle
 10
28.00124902979189
 20
487.7323407503123
 30
0.0
 40
4.999999999934198
100
AcDbArc
 50
223.5568643927631
 51
226.4431356072365
  0
ARC
  5
74
330
1F
100
AcDbEntity
  8
Make2D$可见线$普通线
100
AcDbCircle
 10
28.00124902981275
 20
487.7323407503175
 30
0.0
 40
4.999999999951299
100
AcDbArc
 50
238.5568643925762
 51
241.4431356073006
  0
ARC
  5
75
330
1F
100
AcDbEntity
  8
Make2D$可见线$普通线
100
AcDbCircle
 10
28.00124902983943
 20
487.7323407503686
 30
0.0
 40
5.000000000009589
100
AcDbArc
 50
253.5568643887056
 51
256.4431356100724
  0
ARC
  5
76
330
1F
100
AcDbEntity
  8
Make2D$可见线$普通线
100
AcDbCircle
 10
28.00124902983727
 20
487.7323407506922
 30
0.0
 40
5.000000000333216
100
AcDbArc
 50
268.556864391792
 51
271.4431356082338
  0
ARC
  5
77
330
1F
100
AcDbEntity
  8
Make2D$可见线$普通线
100
AcDbCircle
 10
28.00124902990221
 20
487.7323407501219
 30
0.0
 40
4.999999999754622
100
AcDbArc
 50
283.556864389868
 51
286.4431356113819
  0
ARC
  5
78
330
1F
100
AcDbEntity
  8
Make2D$可见线$普通线
100
AcDbCircle
 10
28.00124902986784
 20
487.7323407503118
 30
0.0
 40
4.999999999944602
100
AcDbArc
 50
298.5568643926919
 51
301.4431356074182
  0
ARC
  5
79
330
1F
100
AcDbEntity
  8
Make2D$可见线$普通线
100
AcDbCircle
 10
28.00124902958646
 20
487.7323407506115
 30
0.0
 40
5.000000000356601
100
AcDbArc
 50
313.55686439288
 51
316.4431356071105
  0
ARC
  5
7A
330
1F
100
AcDbEntity
  8
Make2D$可见线$普通线
100
AcDbCircle
 10
28.00124902977986
 20
487.7323407503918
 30
0.0
 40
5.000000000067143
100
AcDbArc
 50
328.5568643926015
 51
331.443135607259
  0
ARC
  5
7B
330
1F
100
AcDbEntity
  8
Make2D$可见线$普通线
100
AcDbCircle
 10
28.00124902981025
 20
487.7323407503666
 30
0.0
 40
5.000000000029181
100
AcDbArc
 50
343.5568643886938
 51
346.4431356100474
  0
POLYLINE
  5
7C
330
1F
100
AcDbEntity
  8
Make2D$可见线$普通线
100
AcDb2dPolyline
 66
     1
 10
0.0
 20
0.0
 30
0.0
  0
VERTEX
  5
7D
330
7C
100
AcDbEntity
  8
Make2D$可见线$普通线
100
AcDbVertex
100
AcDb2dVertex
 10
10.36448062698635
 20
483.9224109539383
 30
0.0
 42
0.1135805719774288
  0
VERTEX
  5
7E
330
7C
100
AcDbEntity
  8
Make2D$可见线$普通线
100
AcDbVertex
100
AcDb2dVertex
 10
12.98058183144015
 20
477.8517055597799
 30
0.0
 42
-0.0587252783680181
  0
VERTEX
  5
7F
330
7C
100
AcDbEntity
  8
Make2D$可见线$普通线
100
AcDbVertex
100
AcDb2dVertex
 10
11.27465802451621
 20
480.8499215249693
 30
0.0
  0
SEQEND
  5
80
330
7C
100
AcDbEntity
  8
Make2D$可见线$普通线
  0
POLYLINE
  5
81
330
1F
100
AcDbEntity
  8
Make2D$可见线$普通线
100
AcDb2dPolyline
 66
     1
 10
0.0
 20
0.0
 30
0.0
  0
VERTEX
  5
82
330
81
100
AcDbEntity
  8
Make2D$可见线$普通线
100
AcDbVertex
100
AcDb2dVertex
 10
4.24929114507438
 20
473.6596487603413
 30
0.0
  0
VERTEX
  5
83
330
81
100
AcDbEntity
  8
Make2D$可见线$普通线
100
AcDbVertex
100
AcDb2dVertex
 10
4.250943508137973
 20
473.6687848105984
 30
0.0
  0
VERTEX
  5
84
330
81
100
AcDbEntity
  8
Make2D$可见线$普通线
100
AcDbVertex
100
AcDb2dVertex
 10
4.496094486172765
 20
475.3152385947793
 30
0.0
  0
VERTEX
  5
85
330
81
100
AcDbEntity
  8
Make2D$可见线$普通线
100
AcDbVertex
100
AcDb2dVertex
 10
4.752034209323517
 20
476.8393875498217
 30
0.0
  0
VERTEX
  5
86
330
81
100
AcDbEntity
  8
Make2D$可见线$普通线
100
AcDbVertex
100
AcDb2dVertex
 10
5.003458948991061
 20
478.1759742255131
 30
0.0
  0
VERTEX
  5
87
330
81
100
AcDbEntity
  8
Make2D$可见线$普通线
100
AcDbVertex
100
AcDb2dVertex
 10
5.26318077776283
 20
479.4275470588648
 30
0.0
  0
VERTEX
  5
88
330
81
100
AcDbEntity
  8
Make2D$可见线$普通线
100
AcDbVertex
100
AcDb2dVertex
 10
5.532392050061151
 20
480.6033577891318
 30
0.0
  0
VERTEX
  5
89
330
81
100
AcDbEntity
  8
Make2D$可见线$普通线
100
AcDbVertex
100
AcDb2dVertex
 10
5.830634051091086
 20
481.7721423250344
 30
0.0
  0
VERTEX
  5
8A
330
81
100
AcDbEntity
  8
Make2D$可见线$普通线
100
AcDbVertex
100
AcDb2dVertex
 10
6.100554071153242
 20
482.7169412878051
 30
0.0
  0
VERTEX
  5
8B
330
81
100
AcDbEntity
  8
Make2D$可见线$普通线
100
AcDbVertex
100
AcDb2dVertex
 10
6.402195647068028
 20
483.6520959578798
 30
0.0
  0
VERTEX
  5
8C
330
81
100
AcDbEntity
  8
Make2D$可见线$普通线
100
AcDbVertex
100
AcDb2dVertex
 10
6.532199324099856
 20
484.0201065705717
 30
0.0
  0
VERTEX
  5
8D
330
81
100
AcDbEntity
  8
Make2D$可见线$普通线
100
AcDbVertex
100
AcDb2dVertex
 10
6.671383720963689
 20
484.3848739959893
 30
0.0
  0
VERTEX
  5
8E
330
81
100
AcDbEntity
  8
Make2D$可见线$普通线
100
AcDbVertex
100
AcDb2dVertex
 10
6.819623210860082
 20
484.7460562555363
 30
0.0
  0
VERTEX
  5
8F
330
81
100
AcDbEntity
  8
Make2D$可见线$普通线
100
AcDbVertex
100
AcDb2dVertex
 10
6.976775271267551
 20
485.1033180601074
 30
0.0
  0
VERTEX
  5
90
330
81
100
AcDbEntity
  8
Make2D$可见线$普通线
100
AcDbVertex
100
AcDb2dVertex
 10
7.090036802747443
 20
485.3423180393499
 30
0.0
  0
VERTEX
  5
91
330
81
100
AcDbEntity
  8
Make2D$可见线$普通线
100
AcDbVertex
100
AcDb2dVertex
 10
7.211515102502353
 20
485.5774241113143
 30
0.0
  0
VERTEX
  5
92
330
81
100
AcDbEntity
  8
Make2D$可见线$普通线
100
AcDbVertex
100
AcDb2dVertex
 10
7.341002140473408
 20
485.8082161159058
 30
0.0
  0
VERTEX
  5
93
330
81
100
AcDbEntity
  8
Make2D$可见线$普通线
100
AcDbVertex
100
AcDb2dVertex
 10
7.478261521869691
 20
486.0342891722613
 30
0.0
  0
VERTEX
  5
94
330
81
100
AcDbEntity
  8
Make2D$可见线$普通线
100
AcDbVertex
100
AcDb2dVertex
 10
7.531570409735159
 20
486.1169807507184
 30
0.0
  0
VERTEX
  5
95
330
81
100
AcDbEntity
  8
Make2D$可见线$普通线
100
AcDbVertex
100
AcDb2dVertex
 10
7.587161363862942
 20
486.1982873230106
 30
0.0
  0
VERTEX
  5
96
330
81
100
AcDbEntity
  8
Make2D$可见线$普通线
100
AcDbVertex
100
AcDb2dVertex
 10
7.64497926612029
 20
486.2781152289193
 30
0.0
  0
VERTEX
  5
97
330
81
100
AcDbEntity
  8
Make2D$可见线$普通线
100
AcDbVertex
100
AcDb2dVertex
 10
7.70496391399038
 20
486.3563738003373
 30
0.0
  0
VERTEX
  5
98
330
81
100
AcDbEntity
  8
Make2D$可见线$普通线
100
AcDbVertex
100
AcDb2dVertex
 10
7.767050228251308
 20
486.4329757034599
 30
0.0
  0
VERTEX
  5
99
330
81
100
AcDbEntity
  8
Make2D$可见线$普通线
100
AcDbVertex
100
AcDb2dVertex
 10
7.831168488039887
 20
486.5078372633214
 30
0.0
  0
VERTEX
  5
9A
330
81
100
AcDbEntity
  8
Make2D$可见线$普通线
100
AcDbVertex
100
AcDb2dVertex
 10
7.897244591520177
 20
486.5808787681497
 30
0.0
  0
VERTEX
  5
9B
330
81
100
AcDbEntity
  8
Make2D$可见线$普通线
100
AcDbVertex
100
AcDb2dVertex
 10
7.965200340113291
 20
486.6520247512153
 30
0.0
  0
VERTEX
  5
9C
330
81
100
AcDbEntity
  8
Make2D$可见线$普通线
100
AcDbVertex
100
AcDb2dVertex
 10
7.982043420512432
 20
486.6703154499535
 30
0.0
  0
VERTEX
  5
9D
330
81
100
AcDbEntity
  8
Make2D$可见线$普通线
100
AcDbVertex
100
AcDb2dVertex
 10
7.999268469980521
 20
486.6883378058541
 30
0.0
  0
VERTEX
  5
9E
330
81
100
AcDbEntity
  8
Make2D$可见线$普通线
100
AcDbVertex
100
AcDb2dVertex
 10
8.016869295142419
 20
486.7060802057329
 30
0.0
  0
VERTEX
  5
9F
330
81
100
AcDbEntity
  8
Make2D$可见线$普通线
100
AcDbVertex
100
AcDb2dVertex
 10
8.03483924204537
 20
486.7235312186543
 30
0.0
  0
VERTEX
  5
A0
330
81
100
AcDbEntity
  8
Make2D$可见线$普通线
100
AcDbVertex
100
AcDb2dVertex
 10
8.053171202448137
 20
486.7406796183936
 30
0.0
  0
VERTEX
  5
A1
330
81
100
AcDbEntity
  8
Make2D$可见线$普通线
100
AcDbVertex
100
AcDb2dVertex
 10
8.07185762140845
 20
486.7575144056632
 30
0.0
  0
VERTEX
  5
A2
330
81
100
AcDbEntity
  8
Make2D$可见线$普通线
100
AcDbVertex
100
AcDb2dVertex
 10
8.090890506160681
 20
486.7740248300196
 30
0.0
  0
VERTEX
  5
A3
330
81
100
AcDbEntity
  8
Make2D$可见线$普通线
100
AcDbVertex
100
AcDb2dVertex
 10
8.110261436268981
 20
486.7902004113608
 30
0.0
  0
VERTEX
  5
A4
330
81
100
AcDbEntity
  8
Make2D$可见线$普通线
100
AcDbVertex
100
AcDb2dVertex
 10
8.129961575034562
 20
486.8060309609313
 30
0.0
  0
VERTEX
  5
A5
330
81
100
AcDbEntity
  8
Make2D$可见线$普通线
100
AcDbVertex
100
AcDb2dVertex
 10
8.14998168212925
 20
486.8215066017482
 30
0.0
  0
VERTEX
  5
A6
330
81
100
AcDbEntity
  8
Make2D$可见线$普通线
100
AcDbVertex
100
AcDb2dVertex
 10
8.170312127420804
 20
486.8366177883654
 30
0.0
  0
VERTEX
  5
A7
330
81
100
AcDbEntity
  8
Make2D$可见线$普通线
100
AcDbVertex
100
AcDb2dVertex
 10
8.190942905949308
 20
486.8513553258973
 30
0.0
  0
VERTEX
  5
A8
330
81
100
AcDbEntity
  8
Make2D$可见线$普通线
100
AcDbVertex
100
AcDb2dVertex
 10
8.211863654007626
 20
486.8657103882214
 30
0.0
  0
VERTEX
  5
A9
330
81
100
AcDbEntity
  8
Make2D$可见线$普通线
100
AcDbVertex
100
AcDb2dVertex
 10
8.233063666272967
 20
486.8796745352881
 30
0.0
  0
VERTEX
  5
AA
330
81
100
AcDbEntity
  8
Make2D$可见线$普通线
100
AcDbVertex
100
AcDb2dVertex
 10
8.25453191393109
 20
486.893239729467
 30
0.0
  0
VERTEX
  5
AB
330
81
100
AcDbEntity
  8
Make2D$可见线$普通线
100
AcDbVertex
100
AcDb2dVertex
 10
8.276257063729114
 20
486.9063983508618
 30
0.0
  0
VERTEX
  5
AC
330
81
100
AcDbEntity
  8
Make2D$可见线$普通线
100
AcDbVertex
100
AcDb2dVertex
 10
8.298227497888229
 20
486.9191432115366
 30
0.0
  0
VERTEX
  5
AD
330
81
100
AcDbEntity
  8
Make2D$可见线$普通线
100
AcDbVertex
100
AcDb2dVertex
 10
8.320431334802903
 20
486.9314675685943
 30
0.0
  0
VERTEX
  5
AE
330
81
100
AcDbEntity
  8
Make2D$可见线$普通线
100
AcDbVertex
100
AcDb2dVertex
 10
8.342856450449185
 20
486.9433651360603
 30
0.0
  0
VERTEX
  5
AF
330
81
100
AcDbEntity
  8
Make2D$可见线$普通线
100
AcDbVertex
100
AcDb2dVertex
 10
8.365490500421165
 20
486.9548300955242
 30
0.0
  0
VERTEX
  5
B0
330
81
100
AcDbEntity
  8
Make2D$可见线$普通线
100
AcDbVertex
100
AcDb2dVertex
 10
8.388320942511646
 20
486.9658571055065
 30
0.0
  0
VERTEX
  5
B1
330
81
100
AcDbEntity
  8
Make2D$可见线$普通线
100
AcDbVertex
100
AcDb2dVertex
 10
8.41133505975046
 20
486.9764413095131
 30
0.0
  0
VERTEX
  5
B2
330
81
100
AcDbEntity
  8
Make2D$可见线$普通线
100
AcDbVertex
100
AcDb2dVertex
 10
8.434519983812176
 20
486.986578342759
 30
0.0
  0
VERTEX
  5
B3
330
81
100
AcDbEntity
  8
Make2D$可见线$普通线
100
AcDbVertex
100
AcDb2dVertex
 10
8.457862718703375
 20
486.9962643375395
 30
0.0
  0
VERTEX
  5
B4
330
81
100
AcDbEntity
  8
Make2D$可见线$普通线
100
AcDbVertex
100
AcDb2dVertex
 10
8.481350164639052
 20
487.0054959272404
 30
0.0
  0
VERTEX
  5
B5
330
81
100
AcDbEntity
  8
Make2D$可见线$普通线
100
AcDbVertex
100
AcDb2dVertex
 10
8.504969142017499
 20
487.0142702489814
 30
0.0
  0
VERTEX
  5
B6
330
81
100
AcDbEntity
  8
Make2D$可见线$普通线
100
AcDbVertex
100
AcDb2dVertex
 10
8.528706415403452
 20
487.0225849448973
 30
0.0
  0
VERTEX
  5
B7
330
81
100
AcDbEntity
  8
Make2D$可见线$普通线
100
AcDbVertex
100
AcDb2dVertex
 10
8.552548717430174
 20
487.0304381620654
 30
0.0
  0
VERTEX
  5
B8
330
81
100
AcDbEntity
  8
Make2D$可见线$普通线
100
AcDbVertex
100
AcDb2dVertex
 10
8.576482772532868
 20
487.0378285510958
 30
0.0
  0
VERTEX
  5
B9
330
81
100
AcDbEntity
  8
Make2D$可见线$普通线
100
AcDbVertex
100
AcDb2dVertex
 10
8.600495320427653
 20
487.0447552634067
 30
0.0
  0
VERTEX
  5
BA
330
81
100
AcDbEntity
  8
Make2D$可见线$普通线
100
AcDbVertex
100
AcDb2dVertex
 10
8.62457313925313
 20
487.0512179472142
 30
0.0
  0
VERTEX
  5
BB
330
81
100
AcDbEntity
  8
Make2D$可见线$普通线
100
AcDbVertex
100
AcDb2dVertex
 10
8.648703068294452
 20
487.0572167422704
 30
0.0
  0
VERTEX
  5
BC
330
81
100
AcDbEntity
  8
Make2D$可见线$普通线
100
AcDbVertex
100
AcDb2dVertex
 10
8.68138135363181
 20
487.0646079283587
 30
0.0
  0
VERTEX
  5
BD
330
81
100
AcDbEntity
  8
Make2D$可见线$普通线
100
AcDbVertex
100
AcDb2dVertex
 10
8.714299113374716
 20
487.0712138820119
 30
0.0
  0
VERTEX
  5
BE
330
81
100
AcDbEntity
  8
Make2D$可见线$普通线
100
AcDbVertex
100
AcDb2dVertex
 10
8.747428057400333
 20
487.0770240399674
 30
0.0
  0
VERTEX
  5
BF
330
81
100
AcDbEntity
  8
Make2D$可见线$普通线
100
AcDbVertex
100
AcDb2dVertex
 10
8.780739309626544
 20
487.0820292003085
 30
0.0
  0
VERTEX
  5
C0
330
81
100
AcDbEntity
  8
Make2D$可见线$普通线
100
AcDbVertex
100
AcDb2dVertex
 10
8.814203490192265
 20
487.0862215614839
 30
0.0
  0
VERTEX
  5
C1
330
81
100
AcDbEntity
  8
Make2D$可见线$普通线
100
AcDbVertex
100
AcDb2dVertex
 10
8.847790800660883
 20
487.0895947553454
 30
0.0
  0
VERTEX
  5
C2
330
81
100
AcDbEntity
  8
Make2D$可见线$普通线
100
AcDbVertex
100
AcDb2dVertex
 10
8.881471111735541
 20
487.0921438739358
 30
0.0
  0
VERTEX
  5
C3
330
81
100
AcDbEntity
  8
Make2D$可见线$普通线
100
AcDbVertex
100
AcDb2dVertex
 10
8.915214052948926
 20
487.093865489811
 30
0.0
  0
VERTEX
  5
C4
330
81
100
AcDbEntity
  8
Make2D$可见线$普通线
100
AcDbVertex
100
AcDb2dVertex
 10
8.948989103769547
 20
487.0947576697346
 30
0.0
  0
VERTEX
  5
C5
330
81
100
AcDbEntity
  8
Make2D$可见线$普通线
100
AcDbVertex
100
AcDb2dVertex
 10
8.982765685551906
 20
487.094819981636
 30
0.0
  0
VERTEX
  5
C6
330
81
100
AcDbEntity
  8
Make2D$可见线$普通线
100
AcDbVertex
100
AcDb2dVertex
 10
9.016513253749418
 20
487.0940534947821
 30
0.0
  0
VERTEX
  5
C7
330
81
100
AcDbEntity
  8
Make2D$可见线$普通线
100
AcDbVertex
100
AcDb2dVertex
 10
9.050201389806702
 20
487.0924607731661
 30
0.0
  0
VERTEX
  5
C8
330
81
100
AcDbEntity
  8
Make2D$可见线$普通线
100
AcDbVertex
100
AcDb2dVertex
 10
9.083799892152083
 20
487.0900458621812
 30
0.0
  0
VERTEX
  5
C9
330
81
100
AcDbEntity
  8
Make2D$可见线$普通线
100
AcDbVertex
100
AcDb2dVertex
 10
9.1172788657213
 20
487.0868142686932
 30
0.0
  0
VERTEX
  5
CA
330
81
100
AcDbEntity
  8
Make2D$可见线$普通线
100
AcDbVertex
100
AcDb2dVertex
 10
9.15060880946003
 20
487.0827729346892
 30
0.0
  0
VERTEX
  5
CB
330
81
100
AcDbEntity
  8
Make2D$可见线$普通线
100
AcDbVertex
100
AcDb2dVertex
 10
9.215659722534266
 20
487.072992161183
 30
0.0
  0
VERTEX
  5
CC
330
81
100
AcDbEntity
  8
Make2D$可见线$普通线
100
AcDbVertex
100
AcDb2dVertex
 10
9.247500433277972
 20
487.0674633273117
 30
0.0
  0
VERTEX
  5
CD
330
81
100
AcDbEntity
  8
Make2D$可见线$普通线
100
AcDbVertex
100
AcDb2dVertex
 10
9.27926647080592
 20
487.0613445607136
 30
0.0
  0
VERTEX
  5
CE
330
81
100
AcDbEntity
  8
Make2D$可见线$普通线
100
AcDbVertex
100
AcDb2dVertex
 10
9.31094148179234
 20
487.0546373221238
 30
0.0
  0
VERTEX
  5
CF
330
81
100
AcDbEntity
  8
Make2D$可见线$普通线
100
AcDbVertex
100
AcDb2dVertex
 10
9.34250915005031
 20
487.0473436757478
 30
0.0
  0
VERTEX
  5
D0
330
81
100
AcDbEntity
  8
Make2D$可见线$普通线
100
AcDbVertex
100
AcDb2dVertex
 10
9.373953224343069
 20
487.039466288064
 30
0.0
  0
VERTEX
  5
D1
330
81
100
AcDbEntity
  8
Make2D$可见线$普通线
100
AcDbVertex
100
AcDb2dVertex
 10
9.40525754614331
 20
487.0310084250878
 30
0.0
  0
VERTEX
  5
D2
330
81
100
AcDbEntity
  8
Make2D$可见线$普通线
100
AcDbVertex
100
AcDb2dVertex
 10
9.43640607724132
 20
487.0219739481026
 30
0.0
  0
VERTEX
  5
D3
330
81
100
AcDbEntity
  8
Make2D$可见线$普通线
100
AcDbVertex
100
AcDb2dVertex
 10
9.467382927103177
 20
487.0123673078683
 30
0.0
  0
VERTEX
  5
D4
330
81
100
AcDbEntity
  8
Make2D$可见线$普通线
100
AcDbVertex
100
AcDb2dVertex
 10
9.498172379881131
 20
487.0021935373218
 30
0.0
  0
VERTEX
  5
D5
330
81
100
AcDbEntity
  8
Make2D$可见线$普通线
100
AcDbVertex
100
AcDb2dVertex
 10
9.528758920979834
 20
486.9914582427999
 30
0.0
  0
VERTEX
  5
D6
330
81
100
AcDbEntity
  8
Make2D$可见线$普通线
100
AcDbVertex
100
AcDb2dVertex
 10
9.559127263084124
 20
486.9801675938135
 30
0.0
  0
VERTEX
  5
D7
330
81
100
AcDbEntity
  8
Make2D$可见线$普通线
100
AcDbVertex
100
AcDb2dVertex
 10
9.589262371556817
 20
486.96832831141
 30
0.0
  0
VERTEX
  5
D8
330
81
100
AcDbEntity
  8
Make2D$可见线$普通线
100
AcDbVertex
100
AcDb2dVertex
 10
9.619149489118207
 20
486.9559476551761
 30
0.0
  0
VERTEX
  5
D9
330
81
100
AcDbEntity
  8
Make2D$可见线$普通线
100
AcDbVertex
100
AcDb2dVertex
 10
9.648774159722617
 20
486.9430334089255
 30
0.0
  0
VERTEX
  5
DA
330
81
100
AcDbEntity
  8
Make2D$可见线$普通线
100
AcDbVertex
100
AcDb2dVertex
 10
9.707889613182308
 20
486.9153632547932
 30
0.0
  0
VERTEX
  5
DB
330
81
100
AcDbEntity
  8
Make2D$可见线$普通线
100
AcDbVertex
100
AcDb2dVertex
 10
9.737497874036201
 20
486.900529394946
 30
0.0
  0
VERTEX
  5
DC
330
81
100
AcDbEntity
  8
Make2D$可见线$普通线
100
AcDbVertex
100
AcDb2dVertex
 10
9.766951222573924
 20
486.8850629578077
 30
0.0
  0
VERTEX
  5
DD
330
81
100
AcDbEntity
  8
Make2D$可见线$普通线
100
AcDbVertex
100
AcDb2dVertex
 10
9.796253847256024
 20
486.8689346155952
 30
0.0
  0
VERTEX
  5
DE
330
81
100
AcDbEntity
  8
Make2D$可见线$普通线
100
AcDbVertex
100
AcDb2dVertex
 10
9.82540806098029
 20
486.8521134952593
 30
0.0
  0
VERTEX
  5
DF
330
81
100
AcDbEntity
  8
Make2D$可见线$普通线
100
AcDbVertex
100
AcDb2dVertex
 10
9.854408674393445
 20
486.8345625426902
 30
0.0
  0
VERTEX
  5
E0
330
81
100
AcDbEntity
  8
Make2D$可见线$普通线
100
AcDbVertex
100
AcDb2dVertex
 10
9.883248622579458
 20
486.8162431585119
 30
0.0
  0
VERTEX
  5
E1
330
81
100
AcDbEntity
  8
Make2D$可见线$普通线
100
AcDbVertex
100
AcDb2dVertex
 10
9.927038385695441
 20
486.7868575272137
 30
0.0
  0
VERTEX
  5
E2
330
81
100
AcDbEntity
  8
Make2D$可见线$普通线
100
AcDbVertex
100
AcDb2dVertex
 10
9.941894853156088
 20
486.7761907645136
 30
0.0
  0
VERTEX
  5
E3
330
81
100
AcDbEntity
  8
Make2D$可见线$普通线
100
AcDbVertex
100
AcDb2dVertex
 10
9.956473907861856
 20
486.7651266169685
 30
0.0
  0
VERTEX
  5
E4
330
81
100
AcDbEntity
  8
Make2D$可见线$普通线
100
AcDbVertex
100
AcDb2dVertex
 10
9.970759753258797
 20
486.753676112089
 30
0.0
  0
VERTEX
  5
E5
330
81
100
AcDbEntity
  8
Make2D$可见线$普通线
100
AcDbVertex
100
AcDb2dVertex
 10
9.984737188259047
 20
486.7418511067394
 30
0.0
  0
VERTEX
  5
E6
330
81
100
AcDbEntity
  8
Make2D$可见线$普通线
100
AcDbVertex
100
AcDb2dVertex
 10
9.99839166110398
 20
486.7296642462603
 30
0.0
  0
VERTEX
  5
E7
330
81
100
AcDbEntity
  8
Make2D$可见线$普通线
100
AcDbVertex
100
AcDb2dVertex
 10
10.01170931981261
 20
486.7171289194424
 30
0.0
  0
VERTEX
  5
E8
330
81
100
AcDbEntity
  8
Make2D$可见线$普通线
100
AcDbVertex
100
AcDb2dVertex
 10
10.02467705884843
 20
486.7042592096926
 30
0.0
  0
VERTEX
  5
E9
330
81
100
AcDbEntity
  8
Make2D$可见线$普通线
100
AcDbVertex
100
AcDb2dVertex
 10
10.05230842366383
 20
486.6741697410795
 30
0.0
  0
VERTEX
  5
EA
330
81
100
AcDbEntity
  8
Make2D$可见线$普通线
100
AcDbVertex
100
AcDb2dVertex
 10
10.06604977083335
 20
486.6589781235854
 30
0.0
  0
VERTEX
  5
EB
330
81
100
AcDbEntity
  8
Make2D$可见线$普通线
100
AcDbVertex
100
AcDb2dVertex
 10
10.07975108072618
 20
486.6443734700123
 30
0.0
  0
VERTEX
  5
EC
330
81
100
AcDbEntity
  8
Make2D$可见线$普通线
100
AcDbVertex
100
AcDb2dVertex
 10
10.10711025163805
 20
486.6173577951154
 30
0.0
  0
VERTEX
  5
ED
330
81
100
AcDbEntity
  8
Make2D$可见线$普通线
100
AcDbVertex
100
AcDb2dVertex
 10
10.11738876917607
 20
486.6075296355658
 30
0.0
  0
VERTEX
  5
EE
330
81
100
AcDbEntity
  8
Make2D$可见线$普通线
100
AcDbVertex
100
AcDb2dVertex
 10
10.12080631293299
 20
486.6044910905478
 30
0.0
 42
0.0574787050615913
  0
VERTEX
  5
EF
330
81
100
AcDbEntity
  8
Make2D$可见线$普通线
100
AcDbVertex
100
AcDb2dVertex
 10
10.50108043920337
 20
483.2434833812084
 30
0.0
  0
SEQEND
  5
F0
330
81
100
AcDbEntity
  8
Make2D$可见线$普通线
  0
POLYLINE
  5
F1
330
1F
100
AcDbEntity
  8
Make2D$可见线$普通线
100
AcDb2dPolyline
 66
     1
 10
0.0
 20
0.0
 30
0.0
  0
VERTEX
  5
F2
330
F1
100
AcDbEntity
  8
Make2D$可见线$普通线
100
AcDbVertex
100
AcDb2dVertex
 10
3.268293590331857
 20
500.0295786700707
 30
0.0
 42
0.3640141673114949
  0
VERTEX
  5
F3
330
F1
100
AcDbEntity
  8
Make2D$可见线$普通线
100
AcDbVertex
100
AcDb2dVertex
 10
5.074591427032317
 20
501.8607488384306
 30
0.0
 42
-0.0125263253945046
  0
VERTEX
  5
F4
330
F1
100
AcDbEntity
  8
Make2D$可见线$普通线
100
AcDbVertex
100
AcDb2dVertex
 10
5.197808359239797
 20
503.0212643912131
 30
0.0
  0
SEQEND
  5
F5
330
F1
100
AcDbEntity
  8
Make2D$可见线$普通线
  0
POLYLINE
  5
F6
330
1F
100
AcDbEntity
  8
Make2D$可见线$普通线
100
AcDb2dPolyline
 66
     1
 10
0.0
 20
0.0
 30
0.0
  0
VERTEX
  5
F7
330
F6
100
AcDbEntity
  8
Make2D$可见线$普通线
100
AcDbVertex
100
AcDb2dVertex
 10
51.79027587564435
 20
539.0207374063019
 30
0.0
  0
VERTEX
  5
F8
330
F6
100
AcDbEntity
  8
Make2D$可见线$普通线
100
AcDbVertex
100
AcDb2dVertex
 10
52.00240420730547
 20
539.0207374063019
 30
0.0
 42
-0.4152961461972015
  0
VERTEX
  5
F9
330
F6
100
AcDbEntity
  8
Make2D$可见线$普通线
100
AcDbVertex
100
AcDb2dVertex
 10
53.00386541253643
 20
538.020737406302
 30
0.0
  0
VERTEX
  5
FA
330
F6
100
AcDbEntity
  8
Make2D$可见线$普通线
100
AcDbVertex
100
AcDb2dVertex
 10
53.00123370911377
 20
503.8958549445948
 30
0.0
  0
VERTEX
  5
FB
330
F6
100
AcDbEntity
  8
Make2D$可见线$普通线
100
AcDbVertex
100
AcDb2dVertex
 10
53.00118097999925
 20
503.8582168982765
 30
0.0
  0
VERTEX
  5
FC
330
F6
100
AcDbEntity
  8
Make2D$可见线$普通线
100
AcDbVertex
100
AcDb2dVertex
 10
53.00027669034696
 20
503.8205807394368
 30
0.0
  0
VERTEX
  5
FD
330
F6
100
AcDbEntity
  8
Make2D$可见线$普通线
100
AcDbVertex
100
AcDb2dVertex
 10
52.99851971230733
 20
503.782972697627
 30
0.0
  0
VERTEX
  5
FE
330
F6
100
AcDbEntity
  8
Make2D$可见线$普通线
100
AcDbVertex
100
AcDb2dVertex
 10
52.99591023599151
 20
503.7454190130135
 30
0.0
  0
VERTEX
  5
FF
330
F6
100
AcDbEntity
  8
Make2D$可见线$普通线
100
AcDbVertex
100
AcDb2dVertex
 10
52.99244977153159
 20
503.707945868691
 30
0.0
  0
VERTEX
  5
100
330
F6
100
AcDbEntity
  8
Make2D$可见线$普通线
100
AcDbVertex
100
AcDb2dVertex
 10
52.98814114603645
 20
503.6705793231109
 30
0.0
  0
VERTEX
  5
101
330
F6
100
AcDbEntity
  8
Make2D$可见线$普通线
100
AcDbVertex
100
AcDb2dVertex
 10
52.982988495456
 20
503.6333452429924
 30
0.0
  0
VERTEX
  5
102
330
F6
100
AcDbEntity
  8
Make2D$可见线$普通线
100
AcDbVertex
100
AcDb2dVertex
 10
52.97699725140161
 20
503.5962692370782
 30
0.0
  0
VERTEX
  5
103
330
F6
100
AcDbEntity
  8
Make2D$可见线$普通线
100
AcDbVertex
100
AcDb2dVertex
 10
52.97161868744748
 20
503.5689143891387
 30
0.0
  0
VERTEX
  5
104
330
F6
100
AcDbEntity
  8
Make2D$可见线$普通线
100
AcDbVertex
100
AcDb2dVertex
 10
52.96554810310919
 20
503.5416452838937
 30
0.0
  0
VERTEX
  5
105
330
F6
100
AcDbEntity
  8
Make2D$可见线$普通线
100
AcDbVertex
100
AcDb2dVertex
 10
52.95874924035389
 20
503.5145081632204
 30
0.0
  0
VERTEX
  5
106
330
F6
100
AcDbEntity
  8
Make2D$可见线$普通线
100
AcDbVertex
100
AcDb2dVertex
 10
52.95118584114879
 20
503.4875492689963
 30
0.0
  0
VERTEX
  5
107
330
F6
100
AcDbEntity
  8
Make2D$可见线$普通线
100
AcDbVertex
100
AcDb2dVertex
 10
52.94282164746106
 20
503.4608148430987
 30
0.0
  0
VERTEX
  5
108
330
F6
100
AcDbEntity
  8
Make2D$可见线$普通线
100
AcDbVertex
100
AcDb2dVertex
 10
52.93362040125788
 20
503.4343511274047
 30
0.0
  0
VERTEX
  5
109
330
F6
100
AcDbEntity
  8
Make2D$可见线$普通线
100
AcDbVertex
100
AcDb2dVertex
 10
52.92354584450646
 20
503.4082043637919
 30
0.0
  0
VERTEX
  5
10A
330
F6
100
AcDbEntity
  8
Make2D$可见线$普通线
100
AcDbVertex
100
AcDb2dVertex
 10
52.9181697440399
 20
503.3952642896026
 30
0.0
  0
VERTEX
  5
10B
330
F6
100
AcDbEntity
  8
Make2D$可见线$普通线
100
AcDbVertex
100
AcDb2dVertex
 10
52.91256171917397
 20
503.3824207941375
 30
0.0
  0
VERTEX
  5
10C
330
F6
100
AcDbEntity
  8
Make2D$可见线$普通线
100
AcDbVertex
100
AcDb2dVertex
 10
52.90671723765456
 20
503.3696796576313
 30
0.0
  0
VERTEX
  5
10D
330
F6
100
AcDbEntity
  8
Make2D$可见线$普通线
100
AcDbVertex
100
AcDb2dVertex
 10
52.90063176722759
 20
503.3570466603187
 30
0.0
  0
VERTEX
  5
10E
330
F6
100
AcDbEntity
  8
Make2D$可见线$普通线
100
AcDbVertex
100
AcDb2dVertex
 10
52.89430077563894
 20
503.3445275824344
 30
0.0
  0
VERTEX
  5
10F
330
F6
100
AcDbEntity
  8
Make2D$可见线$普通线
100
AcDbVertex
100
AcDb2dVertex
 10
52.88771973063452
 20
503.3321282042129
 30
0.0
  0
VERTEX
  5
110
330
F6
100
AcDbEntity
  8
Make2D$可见线$普通线
100
AcDbVertex
100
AcDb2dVertex
 10
52.88088409996021
 20
503.3198543058892
 30
0.0
  0
VERTEX
  5
111
330
F6
100
AcDbEntity
  8
Make2D$可见线$普通线
100
AcDbVertex
100
AcDb2dVertex
 10
52.87378935136194
 20
503.3077116676976
 30
0.0
  0
VERTEX
  5
112
330
F6
100
AcDbEntity
  8
Make2D$可见线$普通线
100
AcDbVertex
100
AcDb2dVertex
 10
52.86643095258557
 20
503.2957060698728
 30
0.0
  0
VERTEX
  5
113
330
F6
100
AcDbEntity
  8
Make2D$可见线$普通线
100
AcDbVertex
100
AcDb2dVertex
 10
52.85880437137703
 20
503.2838432926497
 30
0.0
  0
VERTEX
  5
114
330
F6
100
AcDbEntity
  8
Make2D$可见线$普通线
100
AcDbVertex
100
AcDb2dVertex
 10
52.8509050754822
 20
503.2721291162629
 30
0.0
  0
VERTEX
  5
115
330
F6
100
AcDbEntity
  8
Make2D$可见线$普通线
100
AcDbVertex
100
AcDb2dVertex
 10
52.84272853264699
 20
503.2605693209468
 30
0.0
  0
VERTEX
  5
116
330
F6
100
AcDbEntity
  8
Make2D$可见线$普通线
100
AcDbVertex
100
AcDb2dVertex
 10
52.83427021061729
 20
503.2491696869365
 30
0.0
  0
VERTEX
  5
117
330
F6
100
AcDbEntity
  8
Make2D$可见线$普通线
100
AcDbVertex
100
AcDb2dVertex
 10
52.825525577139
 20
503.2379359944663
 30
0.0
  0
VERTEX
  5
118
330
F6
100
AcDbEntity
  8
Make2D$可见线$普通线
100
AcDbVertex
100
AcDb2dVertex
 10
52.81649009995802
 20
503.226874023771
 30
0.0
  0
VERTEX
  5
119
330
F6
100
AcDbEntity
  8
Make2D$可见线$普通线
100
AcDbVertex
100
AcDb2dVertex
 10
52.80715924682024
 20
503.2159895550852
 30
0.0
  0
VERTEX
  5
11A
330
F6
100
AcDbEntity
  8
Make2D$可见线$普通线
100
AcDbVertex
100
AcDb2dVertex
 10
52.79752848547157
 20
503.2052883686438
 30
0.0
  0
VERTEX
  5
11B
330
F6
100
AcDbEntity
  8
Make2D$可见线$普通线
100
AcDbVertex
100
AcDb2dVertex
 10
52.7875932836579
 20
503.1947762446811
 30
0.0
  0
VERTEX
  5
11C
330
F6
100
AcDbEntity
  8
Make2D$可见线$普通线
100
AcDbVertex
100
AcDb2dVertex
 10
52.77849754675336
 20
503.1855907106673
 30
0.0
  0
VERTEX
  5
11D
330
F6
100
AcDbEntity
  8
Make2D$可见线$普通线
100
AcDbVertex
100
AcDb2dVertex
 10
52.76926315810677
 20
503.1766689114158
 30
0.0
  0
VERTEX
  5
11E
330
F6
100
AcDbEntity
  8
Make2D$可见线$普通线
100
AcDbVertex
100
AcDb2dVertex
 10
52.75989288995591
 20
503.1680097107652
 30
0.0
  0
VERTEX
  5
11F
330
F6
100
AcDbEntity
  8
Make2D$可见线$普通线
100
AcDbVertex
100
AcDb2dVertex
 10
52.75038951453858
 20
503.1596119725539
 30
0.0
  0
VERTEX
  5
120
330
F6
100
AcDbEntity
  8
Make2D$可见线$普通线
100
AcDbVertex
100
AcDb2dVertex
 10
52.74075580409257
 20
503.1514745606207
 30
0.0
  0
VERTEX
  5
121
330
F6
100
AcDbEntity
  8
Make2D$可见线$普通线
100
AcDbVertex
100
AcDb2dVertex
 10
52.73099453085568
 20
503.1435963388041
 30
0.0
  0
VERTEX
  5
122
330
F6
100
AcDbEntity
  8
Make2D$可见线$普通线
100
AcDbVertex
100
AcDb2dVertex
 10
52.72110846706568
 20
503.1359761709427
 30
0.0
  0
VERTEX
  5
123
330
F6
100
AcDbEntity
  8
Make2D$可见线$普通线
100
AcDbVertex
100
AcDb2dVertex
 10
52.71110038496037
 20
503.1286129208749
 30
0.0
  0
VERTEX
  5
124
330
F6
100
AcDbEntity
  8
Make2D$可见线$普通线
100
AcDbVertex
100
AcDb2dVertex
 10
52.70097305677754
 20
503.1215054524394
 30
0.0
  0
VERTEX
  5
125
330
F6
100
AcDbEntity
  8
Make2D$可见线$普通线
100
AcDbVertex
100
AcDb2dVertex
 10
52.69072925475497
 20
503.1146526294748
 30
0.0
  0
VERTEX
  5
126
330
F6
100
AcDbEntity
  8
Make2D$可见线$普通线
100
AcDbVertex
100
AcDb2dVertex
 10
52.68037175113047
 20
503.1080533158197
 30
0.0
  0
VERTEX
  5
127
330
F6
100
AcDbEntity
  8
Make2D$可见线$普通线
100
AcDbVertex
100
AcDb2dVertex
 10
52.6699033181418
 20
503.1017063753125
 30
0.0
  0
VERTEX
  5
128
330
F6
100
AcDbEntity
  8
Make2D$可见线$普通线
100
AcDbVertex
100
AcDb2dVertex
 10
52.65932672802677
 20
503.0956106717919
 30
0.0
  0
VERTEX
  5
129
330
F6
100
AcDbEntity
  8
Make2D$可见线$普通线
100
AcDbVertex
100
AcDb2dVertex
 10
52.64864475302316
 20
503.0897650690964
 30
0.0
  0
VERTEX
  5
12A
330
F6
100
AcDbEntity
  8
Make2D$可见线$普通线
100
AcDbVertex
100
AcDb2dVertex
 10
52.63786016536876
 20
503.0841684310645
 30
0.0
  0
VERTEX
  5
12B
330
F6
100
AcDbEntity
  8
Make2D$可见线$普通线
100
AcDbVertex
100
AcDb2dVertex
 10
52.62697573730137
 20
503.078819621535
 30
0.0
  0
VERTEX
  5
12C
330
F6
100
AcDbEntity
  8
Make2D$可见线$普通线
100
AcDbVertex
100
AcDb2dVertex
 10
52.61599424105878
 20
503.0737175043463
 30
0.0
  0
VERTEX
  5
12D
330
F6
100
AcDbEntity
  8
Make2D$可见线$普通线
100
AcDbVertex
100
AcDb2dVertex
 10
52.60491844887876
 20
503.068860943337
 30
0.0
  0
VERTEX
  5
12E
330
F6
100
AcDbEntity
  8
Make2D$可见线$普通线
100
AcDbVertex
100
AcDb2dVertex
 10
52.59375113299912
 20
503.0642488023457
 30
0.0
  0
VERTEX
  5
12F
330
F6
100
AcDbEntity
  8
Make2D$可见线$普通线
100
AcDbVertex
100
AcDb2dVertex
 10
52.58249506565762
 20
503.0598799452109
 30
0.0
  0
VERTEX
  5
130
330
F6
100
AcDbEntity
  8
Make2D$可见线$普通线
100
AcDbVertex
100
AcDb2dVertex
 10
52.57115301909209
 20
503.0557532357712
 30
0.0
  0
VERTEX
  5
131
330
F6
100
AcDbEntity
  8
Make2D$可见线$普通线
100
AcDbVertex
100
AcDb2dVertex
 10
52.55972776554029
 20
503.0518675378653
 30
0.0
  0
VERTEX
  5
132
330
F6
100
AcDbEntity
  8
Make2D$可见线$普通线
100
AcDbVertex
100
AcDb2dVertex
 10
52.54822207724001
 20
503.0482217153315
 30
0.0
  0
VERTEX
  5
133
330
F6
100
AcDbEntity
  8
Make2D$可见线$普通线
100
AcDbVertex
100
AcDb2dVertex
 10
52.53663872642906
 20
503.0448146320086
 30
0.0
  0
VERTEX
  5
134
330
F6
100
AcDbEntity
  8
Make2D$可见线$普通线
100
AcDbVertex
100
AcDb2dVertex
 10
52.52498048534522
 20
503.0416451517351
 30
0.0
  0
VERTEX
  5
135
330
F6
100
AcDbEntity
  8
Make2D$可见线$普通线
100
AcDbVertex
100
AcDb2dVertex
 10
52.51325012622627
 20
503.0387121383494
 30
0.0
  0
VERTEX
  5
136
330
F6
100
AcDbEntity
  8
Make2D$可见线$普通线
100
AcDbVertex
100
AcDb2dVertex
 10
52.50145042131
 20
503.0360144556903
 30
0.0
  0
VERTEX
  5
137
330
F6
100
AcDbEntity
  8
Make2D$可见线$普通线
100
AcDbVertex
100
AcDb2dVertex
 10
52.48958414283422
 20
503.0335509675964
 30
0.0
  0
VERTEX
  5
138
330
F6
100
AcDbEntity
  8
Make2D$可见线$普通线
100
AcDbVertex
100
AcDb2dVertex
 10
52.4776540630367
 20
503.0313205379061
 30
0.0
  0
VERTEX
  5
139
330
F6
100
AcDbEntity
  8
Make2D$可见线$普通线
100
AcDbVertex
100
AcDb2dVertex
 10
52.46566295415523
 20
503.029322030458
 30
0.0
  0
VERTEX
  5
13A
330
F6
100
AcDbEntity
  8
Make2D$可见线$普通线
100
AcDbVertex
100
AcDb2dVertex
 10
52.45361358842761
 20
503.0275543090906
 30
0.0
  0
VERTEX
  5
13B
330
F6
100
AcDbEntity
  8
Make2D$可见线$普通线
100
AcDbVertex
100
AcDb2dVertex
 10
52.44150873809161
 20
503.0260162376428
 30
0.0
  0
SEQEND
  5
13C
330
F6
100
AcDbEntity
  8
Make2D$可见线$普通线
  0
POLYLINE
  5
13D
330
1F
100
AcDbEntity
  8
Make2D$可见线$普通线
100
AcDb2dPolyline
 66
     1
 10
0.0
 20
0.0
 30
0.0
  0
VERTEX
  5
13E
330
13D
100
AcDbEntity
  8
Make2D$可见线$普通线
100
AcDbVertex
100
AcDb2dVertex
 10
3.54440375739272
 20
503.0281838238396
 30
0.0
  0
VERTEX
  5
13F
330
13D
100
AcDbEntity
  8
Make2D$可见线$普通线
100
AcDbVertex
100
AcDb2dVertex
 10
3.532889948693677
 20
503.0299529532543
 30
0.0
  0
VERTEX
  5
140
330
13D
100
AcDbEntity
  8
Make2D$可见线$普通线
100
AcDbVertex
100
AcDb2dVertex
 10
3.521430344993734
 20
503.0319338544307
 30
0.0
  0
VERTEX
  5
141
330
13D
100
AcDbEntity
  8
Make2D$可见线$普通线
100
AcDbVertex
100
AcDb2dVertex
 10
3.510027377184653
 20
503.0341275236355
 30
0.0
  0
VERTEX
  5
142
330
13D
100
AcDbEntity
  8
Make2D$可见线$普通线
100
AcDbVertex
100
AcDb2dVertex
 10
3.4986834761582
 20
503.0365349571351
 30
0.0
  0
VERTEX
  5
143
330
13D
100
AcDbEntity
  8
Make2D$可见线$普通线
100
AcDbVertex
100
AcDb2dVertex
 10
3.487401072806136
 20
503.0391571511961
 30
0.0
  0
VERTEX
  5
144
330
13D
100
AcDbEntity
  8
Make2D$可见线$普通线
100
AcDbVertex
100
AcDb2dVertex
 10
3.476182598020227
 20
503.0419951020849
 30
0.0
  0
VERTEX
  5
145
330
13D
100
AcDbEntity
  8
Make2D$可见线$普通线
100
AcDbVertex
100
AcDb2dVertex
 10
3.465030482692236
 20
503.045049806068
 30
0.0
  0
VERTEX
  5
146
330
13D
100
AcDbEntity
  8
Make2D$可见线$普通线
100
AcDbVertex
100
AcDb2dVertex
 10
3.453947157713928
 20
503.048322259412
 30
0.0
  0
VERTEX
  5
147
330
13D
100
AcDbEntity
  8
Make2D$可见线$普通线
100
AcDbVertex
100
AcDb2dVertex
 10
3.442935053977065
 20
503.0518134583833
 30
0.0
  0
VERTEX
  5
148
330
13D
100
AcDbEntity
  8
Make2D$可见线$普通线
100
AcDbVertex
100
AcDb2dVertex
 10
3.431996602373411
 20
503.0555243992485
 30
0.0
  0
VERTEX
  5
149
330
13D
100
AcDbEntity
  8
Make2D$可见线$普通线
100
AcDbVertex
100
AcDb2dVertex
 10
3.421134233794731
 20
503.059456078274
 30
0.0
  0
VERTEX
  5
14A
330
13D
100
AcDbEntity
  8
Make2D$可见线$普通线
100
AcDbVertex
100
AcDb2dVertex
 10
3.410350379132789
 20
503.0636094917265
 30
0.0
  0
VERTEX
  5
14B
330
13D
100
AcDbEntity
  8
Make2D$可见线$普通线
100
AcDbVertex
100
AcDb2dVertex
 10
3.399647469279349
 20
503.0679856358723
 30
0.0
  0
VERTEX
  5
14C
330
13D
100
AcDbEntity
  8
Make2D$可见线$普通线
100
AcDbVertex
100
AcDb2dVertex
 10
3.389027935126173
 20
503.072585506978
 30
0.0
  0
VERTEX
  5
14D
330
13D
100
AcDbEntity
  8
Make2D$可见线$普通线
100
AcDbVertex
100
AcDb2dVertex
 10
3.378494207565025
 20
503.0774101013101
 30
0.0
  0
VERTEX
  5
14E
330
13D
100
AcDbEntity
  8
Make2D$可见线$普通线
100
AcDbVertex
100
AcDb2dVertex
 10
3.368048717487672
 20
503.082460415135
 30
0.0
  0
VERTEX
  5
14F
330
13D
100
AcDbEntity
  8
Make2D$可见线$普通线
100
AcDbVertex
100
AcDb2dVertex
 10
3.357693895785874
 20
503.0877374447193
 30
0.0
  0
VERTEX
  5
150
330
13D
100
AcDbEntity
  8
Make2D$可见线$普通线
100
AcDbVertex
100
AcDb2dVertex
 10
3.347432173351398
 20
503.0932421863296
 30
0.0
  0
VERTEX
  5
151
330
13D
100
AcDbEntity
  8
Make2D$可见线$普通线
100
AcDbVertex
100
AcDb2dVertex
 10
3.337265981076005
 20
503.0989756362322
 30
0.0
  0
VERTEX
  5
152
330
13D
100
AcDbEntity
  8
Make2D$可见线$普通线
100
AcDbVertex
100
AcDb2dVertex
 10
3.327197749851461
 20
503.1049387906937
 30
0.0
  0
VERTEX
  5
153
330
13D
100
AcDbEntity
  8
Make2D$可见线$普通线
100
AcDbVertex
100
AcDb2dVertex
 10
3.317229910569528
 20
503.1111326459807
 30
0.0
  0
VERTEX
  5
154
330
13D
100
AcDbEntity
  8
Make2D$可见线$普通线
100
AcDbVertex
100
AcDb2dVertex
 10
3.307364894121972
 20
503.1175581983595
 30
0.0
  0
VERTEX
  5
155
330
13D
100
AcDbEntity
  8
Make2D$可见线$普通线
100
AcDbVertex
100
AcDb2dVertex
 10
3.297605131400555
 20
503.1242164440966
 30
0.0
  0
VERTEX
  5
156
330
13D
100
AcDbEntity
  8
Make2D$可见线$普通线
100
AcDbVertex
100
AcDb2dVertex
 10
3.287953053297042
 20
503.1311083794589
 30
0.0
  0
VERTEX
  5
157
330
13D
100
AcDbEntity
  8
Make2D$可见线$普通线
100
AcDbVertex
100
AcDb2dVertex
 10
3.278411090703196
 20
503.1382350007124
 30
0.0
  0
VERTEX
  5
158
330
13D
100
AcDbEntity
  8
Make2D$可见线$普通线
100
AcDbVertex
100
AcDb2dVertex
 10
3.268981674510782
 20
503.1455973041239
 30
0.0
  0
VERTEX
  5
159
330
13D
100
AcDbEntity
  8
Make2D$可见线$普通线
100
AcDbVertex
100
AcDb2dVertex
 10
3.259667235611563
 20
503.1531962859599
 30
0.0
  0
VERTEX
  5
15A
330
13D
100
AcDbEntity
  8
Make2D$可见线$普通线
100
AcDbVertex
100
AcDb2dVertex
 10
3.250470204897303
 20
503.1610329424867
 30
0.0
  0
VERTEX
  5
15B
330
13D
100
AcDbEntity
  8
Make2D$可见线$普通线
100
AcDbVertex
100
AcDb2dVertex
 10
3.241393013259765
 20
503.169108269971
 30
0.0
  0
VERTEX
  5
15C
330
13D
100
AcDbEntity
  8
Make2D$可见线$普通线
100
AcDbVertex
100
AcDb2dVertex
 10
3.232438091590715
 20
503.1774232646792
 30
0.0
  0
VERTEX
  5
15D
330
13D
100
AcDbEntity
  8
Make2D$可见线$普通线
100
AcDbVertex
100
AcDb2dVertex
 10
3.223607870781914
 20
503.1859789228779
 30
0.0
  0
VERTEX
  5
15E
330
13D
100
AcDbEntity
  8
Make2D$可见线$普通线
100
AcDbVertex
100
AcDb2dVertex
 10
3.214904781725129
 20
503.1947762408336
 30
0.0
  0
VERTEX
  5
15F
330
13D
100
AcDbEntity
  8
Make2D$可见线$普通线
100
AcDbVertex
100
AcDb2dVertex
 10
3.204969579441979
 20
503.205288364917
 30
0.0
  0
VERTEX
  5
160
330
13D
100
AcDbEntity
  8
Make2D$可见线$普通线
100
AcDbVertex
100
AcDb2dVertex
 10
3.195338817650837
 20
503.2159895514821
 30
0.0
  0
VERTEX
  5
161
330
13D
100
AcDbEntity
  8
Make2D$可见线$普通线
100
AcDbVertex
100
AcDb2dVertex
 10
3.186007964096778
 20
503.2268740202937
 30
0.0
  0
VERTEX
  5
162
330
13D
100
AcDbEntity
  8
Make2D$可见线$普通线
100
AcDbVertex
100
AcDb2dVertex
 10
3.176972486524879
 20
503.2379359911171
 30
0.0
  0
VERTEX
  5
163
330
13D
100
AcDbEntity
  8
Make2D$可见线$普通线
100
AcDbVertex
100
AcDb2dVertex
 10
3.168227852680213
 20
503.2491696837171
 30
0.0
  0
VERTEX
  5
164
330
13D
100
AcDbEntity
  8
Make2D$可见线$普通线
100
AcDbVertex
100
AcDb2dVertex
 10
3.159769530307859
 20
503.2605693178591
 30
0.0
  0
VERTEX
  5
165
330
13D
100
AcDbEntity
  8
Make2D$可见线$普通线
100
AcDbVertex
100
AcDb2dVertex
 10
3.151592987152889
 20
503.2721291133079
 30
0.0
  0
VERTEX
  5
166
330
13D
100
AcDbEntity
  8
Make2D$可见线$普通线
100
AcDbVertex
100
AcDb2dVertex
 10
3.143693690960381
 20
503.2838432898286
 30
0.0
  0
VERTEX
  5
167
330
13D
100
AcDbEntity
  8
Make2D$可见线$普通线
100
AcDbVertex
100
AcDb2dVertex
 10
3.136067109475411
 20
503.2957060671863
 30
0.0
  0
VERTEX
  5
168
330
13D
100
AcDbEntity
  8
Make2D$可见线$普通线
100
AcDbVertex
100
AcDb2dVertex
 10
3.128708710443052
 20
503.3077116651461
 30
0.0
  0
VERTEX
  5
169
330
13D
100
AcDbEntity
  8
Make2D$可见线$普通线
100
AcDbVertex
100
AcDb2dVertex
 10
3.121613961608382
 20
503.3198543034732
 30
0.0
  0
VERTEX
  5
16A
330
13D
100
AcDbEntity
  8
Make2D$可见线$普通线
100
AcDbVertex
100
AcDb2dVertex
 10
3.114778330716476
 20
503.3321282019323
 30
0.0
  0
VERTEX
  5
16B
330
13D
100
AcDbEntity
  8
Make2D$可见线$普通线
100
AcDbVertex
100
AcDb2dVertex
 10
3.108197285512409
 20
503.3445275802888
 30
0.0
  0
VERTEX
  5
16C
330
13D
100
AcDbEntity
  8
Make2D$可见线$普通线
100
AcDbVertex
100
AcDb2dVertex
 10
3.101866293741258
 20
503.3570466583076
 30
0.0
  0
VERTEX
  5
16D
330
13D
100
AcDbEntity
  8
Make2D$可见线$普通线
100
AcDbVertex
100
AcDb2dVertex
 10
3.095780823148098
 20
503.3696796557538
 30
0.0
  0
VERTEX
  5
16E
330
13D
100
AcDbEntity
  8
Make2D$可见线$普通线
100
AcDbVertex
100
AcDb2dVertex
 10
3.089936341478003
 20
503.3824207923924
 30
0.0
  0
VERTEX
  5
16F
330
13D
100
AcDbEntity
  8
Make2D$可见线$普通线
100
AcDbVertex
100
AcDb2dVertex
 10
3.084328316476051
 20
503.3952642879886
 30
0.0
  0
VERTEX
  5
170
330
13D
100
AcDbEntity
  8
Make2D$可见线$普通线
100
AcDbVertex
100
AcDb2dVertex
 10
3.078952215887317
 20
503.4082043623073
 30
0.0
  0
VERTEX
  5
171
330
13D
100
AcDbEntity
  8
Make2D$可见线$普通线
100
AcDbVertex
100
AcDb2dVertex
 10
3.068877658929804
 20
503.4343511261729
 30
0.0
  0
VERTEX
  5
172
330
13D
100
AcDbEntity
  8
Make2D$可见线$普通线
100
AcDbVertex
100
AcDb2dVertex
 10
3.059676412566068
 20
503.4608148421096
 30
0.0
  0
VERTEX
  5
173
330
13D
100
AcDbEntity
  8
Make2D$可见线$普通线
100
AcDbVertex
100
AcDb2dVertex
 10
3.051312218756716
 20
503.487549268238
 30
0.0
  0
VERTEX
  5
174
330
13D
100
AcDbEntity
  8
Make2D$可见线$普通线
100
AcDbVertex
100
AcDb2dVertex
 10
3.043748819462353
 20
503.5145081626785
 30
0.0
  0
VERTEX
  5
175
330
13D
100
AcDbEntity
  8
Make2D$可见线$普通线
100
AcDbVertex
100
AcDb2dVertex
 10
3.036949956643582
 20
503.5416452835518
 30
0.0
  0
VERTEX
  5
176
330
13D
100
AcDbEntity
  8
Make2D$可见线$普通线
100
AcDbVertex
100
AcDb2dVertex
 10
3.030879372261009
 20
503.5689143889782
 30
0.0
  0
VERTEX
  5
177
330
13D
100
AcDbEntity
  8
Make2D$可见线$普通线
100
AcDbVertex
100
AcDb2dVertex
 10
3.02550080827524
 20
503.5962692370783
 30
0.0
  0
VERTEX
  5
178
330
13D
100
AcDbEntity
  8
Make2D$可见线$普通线
100
AcDbVertex
100
AcDb2dVertex
 10
3.019509564220846
 20
503.6333452429924
 30
0.0
  0
VERTEX
  5
179
330
13D
100
AcDbEntity
  8
Make2D$可见线$普通线
100
AcDbVertex
100
AcDb2dVertex
 10
3.014356913640383
 20
503.6705793231107
 30
0.0
  0
VERTEX
  5
17A
330
13D
100
AcDbEntity
  8
Make2D$可见线$普通线
100
AcDbVertex
100
AcDb2dVertex
 10
3.010048288145244
 20
503.7079458686908
 30
0.0
  0
VERTEX
  5
17B
330
13D
100
AcDbEntity
  8
Make2D$可见线$普通线
100
AcDbVertex
100
AcDb2dVertex
 10
3.006587823685306
 20
503.7454190130131
 30
0.0
  0
VERTEX
  5
17C
330
13D
100
AcDbEntity
  8
Make2D$可见线$普通线
100
AcDbVertex
100
AcDb2dVertex
 10
3.003978347369503
 20
503.7829726976262
 30
0.0
  0
VERTEX
  5
17D
330
13D
100
AcDbEntity
  8
Make2D$可见线$普通线
100
AcDbVertex
100
AcDb2dVertex
 10
3.002221369329858
 20
503.8205807394352
 30
0.0
  0
VERTEX
  5
17E
330
13D
100
AcDbEntity
  8
Make2D$可见线$普通线
100
AcDbVertex
100
AcDb2dVertex
 10
3.001317079677579
 20
503.8582168982741
 30
0.0
  0
VERTEX
  5
17F
330
13D
100
AcDbEntity
  8
Make2D$可见线$普通线
100
AcDbVertex
100
AcDb2dVertex
 10
3.001264350563065
 20
503.8958549445913
 30
0.0
  0
VERTEX
  5
180
330
13D
100
AcDbEntity
  8
Make2D$可见线$普通线
100
AcDbVertex
100
AcDb2dVertex
 10
2.998632647140435
 20
538.020737406302
 30
0.0
 42
-0.415296146737016
  0
VERTEX
  5
181
330
13D
100
AcDbEntity
  8
Make2D$可见线$普通线
100
AcDbVertex
100
AcDb2dVertex
 10
4.000093852371355
 20
539.020737406302
 30
0.0
  0
VERTEX
  5
182
330
13D
100
AcDbEntity
  8
Make2D$可见线$普通线
100
AcDbVertex
100
AcDb2dVertex
 10
4.212222184032433
 20
539.020737406302
 30
0.0
  0
SEQEND
  5
183
330
13D
100
AcDbEntity
  8
Make2D$可见线$普通线
  0
POLYLINE
  5
184
330
1F
100
AcDbEntity
  8
Make2D$可见线$普通线
100
AcDb2dPolyline
 66
     1
 10
0.0
 20
0.0
 30
0.0
  0
VERTEX
  5
185
330
184
100
AcDbEntity
  8
Make2D$可见线$普通线
100
AcDbVertex
100
AcDb2dVertex
 10
52.74934221582692
 20
500.0281394486246
 30
0.0
  0
VERTEX
  5
186
330
184
100
AcDbEntity
  8
Make2D$可见线$普通线
100
AcDbVertex
100
AcDb2dVertex
 10
52.68546333913233
 20
500.0346731863795
 30
0.0
  0
VERTEX
  5
187
330
184
100
AcDbEntity
  8
Make2D$可见线$普通线
100
AcDbVertex
100
AcDb2dVertex
 10
52.73420969730942
 20
500.0299392879489
 30
0.0
  0
VERTEX
  5
188
330
184
100
AcDbEntity
  8
Make2D$可见线$普通线
100
AcDbVertex
100
AcDb2dVertex
 10
52.73380991071208
 20
500.029922091767
 30
0.0
  0
VERTEX
  5
189
330
184
100
AcDbEntity
  8
Make2D$可见线$普通线
100
AcDbVertex
100
AcDb2dVertex
 10
52.73335470976259
 20
500.029913896752
 30
0.0
  0
VERTEX
  5
18A
330
184
100
AcDbEntity
  8
Make2D$可见线$普通线
100
AcDbVertex
100
AcDb2dVertex
 10
52.73228636467027
 20
500.0299233542914
 30
0.0
  0
VERTEX
  5
18B
330
184
100
AcDbEntity
  8
Make2D$可见线$普通线
100
AcDbVertex
100
AcDb2dVertex
 10
52.72957600075408
 20
500.0300375681359
 30
0.0
  0
VERTEX
  5
18C
330
184
100
AcDbEntity
  8
Make2D$可见线$普通线
100
AcDbVertex
100
AcDb2dVertex
 10
52.7223253703298
 20
500.0305824587833
 30
0.0
  0
VERTEX
  5
18D
330
184
100
AcDbEntity
  8
Make2D$可见线$普通线
100
AcDbVertex
100
AcDb2dVertex
 10
52.7042228377879
 20
500.0324202350821
 30
0.0
  0
VERTEX
  5
18E
330
184
100
AcDbEntity
  8
Make2D$可见线$普通线
100
AcDbVertex
100
AcDb2dVertex
 10
52.68344729460989
 20
500.0349039906436
 30
0.0
  0
VERTEX
  5
18F
330
184
100
AcDbEntity
  8
Make2D$可见线$普通线
100
AcDbVertex
100
AcDb2dVertex
 10
52.68326339401908
 20
500.0349311738817
 30
0.0
  0
VERTEX
  5
190
330
184
100
AcDbEntity
  8
Make2D$可见线$普通线
100
AcDbVertex
100
AcDb2dVertex
 10
52.68314442709125
 20
500.0349505972953
 30
0.0
  0
VERTEX
  5
191
330
184
100
AcDbEntity
  8
Make2D$可见线$普通线
100
AcDbVertex
100
AcDb2dVertex
 10
52.68312507440419
 20
500.034954206811
 30
0.0
  0
VERTEX
  5
192
330
184
100
AcDbEntity
  8
Make2D$可见线$普通线
100
AcDbVertex
100
AcDb2dVertex
 10
52.68310994217775
 20
500.0349573087609
 30
0.0
  0
VERTEX
  5
193
330
184
100
AcDbEntity
  8
Make2D$可见线$普通线
100
AcDbVertex
100
AcDb2dVertex
 10
52.6830990628333
 20
500.0349598986296
 30
0.0
  0
VERTEX
  5
194
330
184
100
AcDbEntity
  8
Make2D$可见线$普通线
100
AcDbVertex
100
AcDb2dVertex
 10
52.68309246879217
 20
500.0349619719018
 30
0.0
  0
VERTEX
  5
195
330
184
100
AcDbEntity
  8
Make2D$可见线$普通线
100
AcDbVertex
100
AcDb2dVertex
 10
52.68309019247569
 20
500.0349635240622
 30
0.0
  0
VERTEX
  5
196
330
184
100
AcDbEntity
  8
Make2D$可见线$普通线
100
AcDbVertex
100
AcDb2dVertex
 10
52.68309226630521
 20
500.0349645505954
 30
0.0
  0
VERTEX
  5
197
330
184
100
AcDbEntity
  8
Make2D$可见线$普通线
100
AcDbVertex
100
AcDb2dVertex
 10
52.68309872270208
 20
500.034965046986
 30
0.0
  0
VERTEX
  5
198
330
184
100
AcDbEntity
  8
Make2D$可见线$普通线
100
AcDbVertex
100
AcDb2dVertex
 10
52.68310959408763
 20
500.0349650087187
 30
0.0
  0
VERTEX
  5
199
330
184
100
AcDbEntity
  8
Make2D$可见线$普通线
100
AcDbVertex
100
AcDb2dVertex
 10
52.68312491288319
 20
500.0349644312781
 30
0.0
  0
VERTEX
  5
19A
330
184
100
AcDbEntity
  8
Make2D$可见线$普通线
100
AcDbVertex
100
AcDb2dVertex
 10
52.6831978779434
 20
500.0349594187633
 30
0.0
  0
VERTEX
  5
19B
330
184
100
AcDbEntity
  8
Make2D$可见线$普通线
100
AcDbVertex
100
AcDb2dVertex
 10
52.68511902170678
 20
500.0347544711284
 30
0.0
  0
VERTEX
  5
19C
330
184
100
AcDbEntity
  8
Make2D$可见线$普通线
100
AcDbVertex
100
AcDb2dVertex
 10
52.68592226656498
 20
500.0346582954145
 30
0.0
  0
VERTEX
  5
19D
330
184
100
AcDbEntity
  8
Make2D$可见线$普通线
100
AcDbVertex
100
AcDb2dVertex
 10
52.68594869221538
 20
500.0346543348894
 30
0.0
  0
VERTEX
  5
19E
330
184
100
AcDbEntity
  8
Make2D$可见线$普通线
100
AcDbVertex
100
AcDb2dVertex
 10
52.68595702919213
 20
500.0346528765426
 30
0.0
  0
VERTEX
  5
19F
330
184
100
AcDbEntity
  8
Make2D$可见线$普通线
100
AcDbVertex
100
AcDb2dVertex
 10
52.68595993303093
 20
500.0346522830299
 30
0.0
  0
VERTEX
  5
1A0
330
184
100
AcDbEntity
  8
Make2D$可见线$普通线
100
AcDbVertex
100
AcDb2dVertex
 10
52.68596106307699
 20
500.0346520208366
 30
0.0
  0
VERTEX
  5
1A1
330
184
100
AcDbEntity
  8
Make2D$可见线$普通线
100
AcDbVertex
100
AcDb2dVertex
 10
52.68596197636524
 20
500.0346517819319
 30
0.0
  0
VERTEX
  5
1A2
330
184
100
AcDbEntity
  8
Make2D$可见线$普通线
100
AcDbVertex
100
AcDb2dVertex
 10
52.68596267126398
 20
500.0346515665009
 30
0.0
  0
VERTEX
  5
1A3
330
184
100
AcDbEntity
  8
Make2D$可见线$普通线
100
AcDbVertex
100
AcDb2dVertex
 10
52.68596314614152
 20
500.0346513747288
 30
0.0
  0
VERTEX
  5
1A4
330
184
100
AcDbEntity
  8
Make2D$可见线$普通线
100
AcDbVertex
100
AcDb2dVertex
 10
52.6859634293062
 20
500.0346510629014
 30
0.0
  0
VERTEX
  5
1A5
330
184
100
AcDbEntity
  8
Make2D$可见线$普通线
100
AcDbVertex
100
AcDb2dVertex
 10
52.68596281280571
 20
500.03465084793
 30
0.0
  0
VERTEX
  5
1A6
330
184
100
AcDbEntity
  8
Make2D$可见线$普通线
100
AcDbVertex
100
AcDb2dVertex
 10
52.68596216310179
 20
500.0346507772281
 30
0.0
  0
VERTEX
  5
1A7
330
184
100
AcDbEntity
  8
Make2D$可见线$普通线
100
AcDbVertex
100
AcDb2dVertex
 10
52.68596128358649
 20
500.0346507312953
 30
0.0
  0
VERTEX
  5
1A8
330
184
100
AcDbEntity
  8
Make2D$可见线$普通线
100
AcDbVertex
100
AcDb2dVertex
 10
52.68596017262811
 20
500.0346507103169
 30
0.0
  0
VERTEX
  5
1A9
330
184
100
AcDbEntity
  8
Make2D$可见线$普通线
100
AcDbVertex
100
AcDb2dVertex
 10
52.68595882859498
 20
500.0346507144777
 30
0.0
  0
VERTEX
  5
1AA
330
184
100
AcDbEntity
  8
Make2D$可见线$普通线
100
AcDbVertex
100
AcDb2dVertex
 10
52.6859554347776
 20
500.0346507989579
 30
0.0
  0
VERTEX
  5
1AB
330
184
100
AcDbEntity
  8
Make2D$可见线$普通线
100
AcDbVertex
100
AcDb2dVertex
 10
52.68594577845104
 20
500.0346512777332
 30
0.0
  0
VERTEX
  5
1AC
330
184
100
AcDbEntity
  8
Make2D$可见线$普通线
100
AcDbVertex
100
AcDb2dVertex
 10
52.6857929062408
 20
500.0346642941678
 30
0.0
  0
VERTEX
  5
1AD
330
184
100
AcDbEntity
  8
Make2D$可见线$普通线
100
AcDbVertex
100
AcDb2dVertex
 10
52.67666526195829
 20
500.0357449838733
 30
0.0
  0
VERTEX
  5
1AE
330
184
100
AcDbEntity
  8
Make2D$可见线$普通线
100
AcDbVertex
100
AcDb2dVertex
 10
52.63189429671681
 20
500.0417675963425
 30
0.0
  0
VERTEX
  5
1AF
330
184
100
AcDbEntity
  8
Make2D$可见线$普通线
100
AcDbVertex
100
AcDb2dVertex
 10
52.59374436777458
 20
500.0477419204622
 30
0.0
  0
VERTEX
  5
1B0
330
184
100
AcDbEntity
  8
Make2D$可见线$普通线
100
AcDbVertex
100
AcDb2dVertex
 10
52.55475785811777
 20
500.0545945179938
 30
0.0
  0
VERTEX
  5
1B1
330
184
100
AcDbEntity
  8
Make2D$可见线$普通线
100
AcDbVertex
100
AcDb2dVertex
 10
52.51422954852173
 20
500.0625621372723
 30
0.0
  0
VERTEX
  5
1B2
330
184
100
AcDbEntity
  8
Make2D$可见线$普通线
100
AcDbVertex
100
AcDb2dVertex
 10
52.47405868974705
 20
500.0713360472834
 30
0.0
  0
VERTEX
  5
1B3
330
184
100
AcDbEntity
  8
Make2D$可见线$普通线
100
AcDbVertex
100
AcDb2dVertex
 10
52.43418871806482
 20
500.0809188790291
 30
0.0
  0
VERTEX
  5
1B4
330
184
100
AcDbEntity
  8
Make2D$可见线$普通线
100
AcDbVertex
100
AcDb2dVertex
 10
52.39456306974613
 20
500.0913132635117
 30
0.0
  0
VERTEX
  5
1B5
330
184
100
AcDbEntity
  8
Make2D$可见线$普通线
100
AcDbVertex
100
AcDb2dVertex
 10
52.35366382422708
 20
500.1029564959229
 30
0.0
  0
VERTEX
  5
1B6
330
184
100
AcDbEntity
  8
Make2D$可见线$普通线
100
AcDbVertex
100
AcDb2dVertex
 10
52.31299060490104
 20
500.1154701263387
 30
0.0
  0
VERTEX
  5
1B7
330
184
100
AcDbEntity
  8
Make2D$可见线$普通线
100
AcDbVertex
100
AcDb2dVertex
 10
52.27256733374011
 20
500.1288481664702
 30
0.0
  0
VERTEX
  5
1B8
330
184
100
AcDbEntity
  8
Make2D$可见线$普通线
100
AcDbVertex
100
AcDb2dVertex
 10
52.23241793271637
 20
500.1430846280289
 30
0.0
  0
VERTEX
  5
1B9
330
184
100
AcDbEntity
  8
Make2D$可见线$普通线
100
AcDbVertex
100
AcDb2dVertex
 10
52.19256632380192
 20
500.1581735227259
 30
0.0
  0
VERTEX
  5
1BA
330
184
100
AcDbEntity
  8
Make2D$可见线$普通线
100
AcDbVertex
100
AcDb2dVertex
 10
52.15303642896883
 20
500.1741088622725
 30
0.0
  0
VERTEX
  5
1BB
330
184
100
AcDbEntity
  8
Make2D$可见线$普通线
100
AcDbVertex
100
AcDb2dVertex
 10
52.1138521701892
 20
500.1908846583799
 30
0.0
  0
VERTEX
  5
1BC
330
184
100
AcDbEntity
  8
Make2D$可见线$普通线
100
AcDbVertex
100
AcDb2dVertex
 10
52.0750374694351
 20
500.2084949227594
 30
0.0
  0
VERTEX
  5
1BD
330
184
100
AcDbEntity
  8
Make2D$可见线$普通线
100
AcDbVertex
100
AcDb2dVertex
 10
52.03600357734794
 20
500.2272344154598
 30
0.0
  0
VERTEX
  5
1BE
330
184
100
AcDbEntity
  8
Make2D$可见线$普通线
100
AcDbVertex
100
AcDb2dVertex
 10
51.99739204743337
 20
500.2468176414894
 30
0.0
  0
VERTEX
  5
1BF
330
184
100
AcDbEntity
  8
Make2D$可见线$普通线
100
AcDbVertex
100
AcDb2dVertex
 10
51.95921907441237
 20
500.2672331405066
 30
0.0
  0
VERTEX
  5
1C0
330
184
100
AcDbEntity
  8
Make2D$可见线$普通线
100
AcDbVertex
100
AcDb2dVertex
 10
51.92150085300594
 20
500.2884694521699
 30
0.0
  0
VERTEX
  5
1C1
330
184
100
AcDbEntity
  8
Make2D$可见线$普通线
100
AcDbVertex
100
AcDb2dVertex
 10
51.88425357793508
 20
500.3105151161378
 30
0.0
  0
VERTEX
  5
1C2
330
184
100
AcDbEntity
  8
Make2D$可见线$普通线
100
AcDbVertex
100
AcDb2dVertex
 10
51.8474934439208
 20
500.3333586720688
 30
0.0
  0
VERTEX
  5
1C3
330
184
100
AcDbEntity
  8
Make2D$可见线$普通线
100
AcDbVertex
100
AcDb2dVertex
 10
51.81123664568408
 20
500.3569886596214
 30
0.0
  0
VERTEX
  5
1C4
330
184
100
AcDbEntity
  8
Make2D$可见线$普通线
100
AcDbVertex
100
AcDb2dVertex
 10
51.77549937794593
 20
500.3813936184539
 30
0.0
  0
VERTEX
  5
1C5
330
184
100
AcDbEntity
  8
Make2D$可见线$普通线
100
AcDbVertex
100
AcDb2dVertex
 10
51.74029783542734
 20
500.406562088225
 30
0.0
  0
VERTEX
  5
1C6
330
184
100
AcDbEntity
  8
Make2D$可见线$普通线
100
AcDbVertex
100
AcDb2dVertex
 10
51.70564821284932
 20
500.432482608593
 30
0.0
  0
VERTEX
  5
1C7
330
184
100
AcDbEntity
  8
Make2D$可见线$普通线
100
AcDbVertex
100
AcDb2dVertex
 10
51.67156670493286
 20
500.4591437192166
 30
0.0
  0
VERTEX
  5
1C8
330
184
100
AcDbEntity
  8
Make2D$可见线$普通线
100
AcDbVertex
100
AcDb2dVertex
 10
51.63806950639897
 20
500.4865339597541
 30
0.0
  0
VERTEX
  5
1C9
330
184
100
AcDbEntity
  8
Make2D$可见线$普通线
100
AcDbVertex
100
AcDb2dVertex
 10
51.60517281196863
 20
500.514641869864
 30
0.0
  0
VERTEX
  5
1CA
330
184
100
AcDbEntity
  8
Make2D$可见线$普通线
100
AcDbVertex
100
AcDb2dVertex
 10
51.57289281636286
 20
500.5434559892049
 30
0.0
  0
VERTEX
  5
1CB
330
184
100
AcDbEntity
  8
Make2D$可见线$普通线
100
AcDbVertex
100
AcDb2dVertex
 10
51.54124571430263
 20
500.5729648574351
 30
0.0
  0
VERTEX
  5
1CC
330
184
100
AcDbEntity
  8
Make2D$可见线$普通线
100
AcDbVertex
100
AcDb2dVertex
 10
51.51024770050898
 20
500.6031570142133
 30
0.0
  0
VERTEX
  5
1CD
330
184
100
AcDbEntity
  8
Make2D$可见线$普通线
100
AcDbVertex
100
AcDb2dVertex
 10
51.47766173761872
 20
500.6363663079461
 30
0.0
  0
VERTEX
  5
1CE
330
184
100
AcDbEntity
  8
Make2D$可见线$普通线
100
AcDbVertex
100
AcDb2dVertex
 10
51.44585958168021
 20
500.6703313001161
 30
0.0
  0
VERTEX
  5
1CF
330
184
100
AcDbEntity
  8
Make2D$可见线$普通线
100
AcDbVertex
100
AcDb2dVertex
 10
51.41485599963089
 20
500.7050310831399
 30
0.0
  0
VERTEX
  5
1D0
330
184
100
AcDbEntity
  8
Make2D$可见线$普通线
100
AcDbVertex
100
AcDb2dVertex
 10
51.38466575840816
 20
500.7404447494341
 30
0.0
  0
VERTEX
  5
1D1
330
184
100
AcDbEntity
  8
Make2D$可见线$普通线
100
AcDbVertex
100
AcDb2dVertex
 10
51.35530362494949
 20
500.7765513914155
 30
0.0
  0
VERTEX
  5
1D2
330
184
100
AcDbEntity
  8
Make2D$可见线$普通线
100
AcDbVertex
100
AcDb2dVertex
 10
51.32678436619229
 20
500.8133301015006
 30
0.0
  0
VERTEX
  5
1D3
330
184
100
AcDbEntity
  8
Make2D$可见线$普通线
100
AcDbVertex
100
AcDb2dVertex
 10
51.29912274907401
 20
500.8507599721062
 30
0.0
  0
VERTEX
  5
1D4
330
184
100
AcDbEntity
  8
Make2D$可见线$普通线
100
AcDbVertex
100
AcDb2dVertex
 10
51.27233354053209
 20
500.888820095649
 30
0.0
  0
VERTEX
  5
1D5
330
184
100
AcDbEntity
  8
Make2D$可见线$普通线
100
AcDbVertex
100
AcDb2dVertex
 10
51.24643150750395
 20
500.9274895645455
 30
0.0
  0
VERTEX
  5
1D6
330
184
100
AcDbEntity
  8
Make2D$可见线$普通线
100
AcDbVertex
100
AcDb2dVertex
 10
51.22143141692703
 20
500.9667474712124
 30
0.0
  0
VERTEX
  5
1D7
330
184
100
AcDbEntity
  8
Make2D$可见线$普通线
100
AcDbVertex
100
AcDb2dVertex
 10
51.19734803573878
 20
501.0065729080666
 30
0.0
  0
VERTEX
  5
1D8
330
184
100
AcDbEntity
  8
Make2D$可见线$普通线
100
AcDbVertex
100
AcDb2dVertex
 10
51.17419613087661
 20
501.0469449675245
 30
0.0
  0
VERTEX
  5
1D9
330
184
100
AcDbEntity
  8
Make2D$可见线$普通线
100
AcDbVertex
100
AcDb2dVertex
 10
51.15199046927797
 20
501.0878427420029
 30
0.0
  0
VERTEX
  5
1DA
330
184
100
AcDbEntity
  8
Make2D$可见线$普通线
100
AcDbVertex
100
AcDb2dVertex
 10
51.13074581788029
 20
501.1292453239184
 30
0.0
  0
VERTEX
  5
1DB
330
184
100
AcDbEntity
  8
Make2D$可见线$普通线
100
AcDbVertex
100
AcDb2dVertex
 10
51.11047694362101
 20
501.1711318056877
 30
0.0
  0
VERTEX
  5
1DC
330
184
100
AcDbEntity
  8
Make2D$可见线$普通线
100
AcDbVertex
100
AcDb2dVertex
 10
51.09119861343756
 20
501.2134812797275
 30
0.0
  0
VERTEX
  5
1DD
330
184
100
AcDbEntity
  8
Make2D$可见线$普通线
100
AcDbVertex
100
AcDb2dVertex
 10
51.07297052747681
 20
501.2561593329663
 30
0.0
  0
VERTEX
  5
1DE
330
184
100
AcDbEntity
  8
Make2D$可见线$普通线
100
AcDbVertex
100
AcDb2dVertex
 10
51.0557470001112
 20
501.2992524815405
 30
0.0
  0
VERTEX
  5
1DF
330
184
100
AcDbEntity
  8
Make2D$可见线$普通线
100
AcDbVertex
100
AcDb2dVertex
 10
51.03953254812277
 20
501.3427360532251
 30
0.0
  0
VERTEX
  5
1E0
330
184
100
AcDbEntity
  8
Make2D$可见线$普通线
100
AcDbVertex
100
AcDb2dVertex
 10
51.02433168829357
 20
501.3865853757944
 30
0.0
  0
VERTEX
  5
1E1
330
184
100
AcDbEntity
  8
Make2D$可见线$普通线
100
AcDbVertex
100
AcDb2dVertex
 10
51.01014893740566
 20
501.4307757770236
 30
0.0
  0
VERTEX
  5
1E2
330
184
100
AcDbEntity
  8
Make2D$可见线$普通线
100
AcDbVertex
100
AcDb2dVertex
 10
50.99698881224108
 20
501.4752825846872
 30
0.0
  0
VERTEX
  5
1E3
330
184
100
AcDbEntity
  8
Make2D$可见线$普通线
100
AcDbVertex
100
AcDb2dVertex
 10
50.98485582958187
 20
501.5200811265599
 30
0.0
  0
VERTEX
  5
1E4
330
184
100
AcDbEntity
  8
Make2D$可见线$普通线
100
AcDbVertex
100
AcDb2dVertex
 10
50.9737545062101
 20
501.5651467304167
 30
0.0
  0
VERTEX
  5
1E5
330
184
100
AcDbEntity
  8
Make2D$可见线$普通线
100
AcDbVertex
100
AcDb2dVertex
 10
50.96555599054835
 20
501.6016723075891
 30
0.0
  0
VERTEX
  5
1E6
330
184
100
AcDbEntity
  8
Make2D$可见线$普通线
100
AcDbVertex
100
AcDb2dVertex
 10
50.95803739796498
 20
501.6383434512933
 30
0.0
  0
VERTEX
  5
1E7
330
184
100
AcDbEntity
  8
Make2D$可见线$普通线
100
AcDbVertex
100
AcDb2dVertex
 10
50.95120459427952
 20
501.675148047739
 30
0.0
  0
VERTEX
  5
1E8
330
184
100
AcDbEntity
  8
Make2D$可见线$普通线
100
AcDbVertex
100
AcDb2dVertex
 10
50.94506344531148
 20
501.712073983136
 30
0.0
  0
VERTEX
  5
1E9
330
184
100
AcDbEntity
  8
Make2D$可见线$普通线
100
AcDbVertex
100
AcDb2dVertex
 10
50.93961981688039
 20
501.7491091436939
 30
0.0
  0
VERTEX
  5
1EA
330
184
100
AcDbEntity
  8
Make2D$可见线$普通线
100
AcDbVertex
100
AcDb2dVertex
 10
50.93487957480578
 20
501.7862414156225
 30
0.0
  0
VERTEX
  5
1EB
330
184
100
AcDbEntity
  8
Make2D$可见线$普通线
100
AcDbVertex
100
AcDb2dVertex
 10
50.93084858490715
 20
501.8234586851315
 30
0.0
  0
VERTEX
  5
1EC
330
184
100
AcDbEntity
  8
Make2D$可见线$普通线
100
AcDbVertex
100
AcDb2dVertex
 10
50.92753271300404
 20
501.8607488384307
 30
0.0
 42
0.0126860336953911
  0
VERTEX
  5
1ED
330
184
100
AcDbEntity
  8
Make2D$可见线$普通线
100
AcDbVertex
100
AcDb2dVertex
 10
50.80468970043386
 20
503.0212643912371
 30
0.0
  0
SEQEND
  5
1EE
330
184
100
AcDbEntity
  8
Make2D$可见线$普通线
  0
POLYLINE
  5
1EF
330
1F
100
AcDbEntity
  8
Make2D$可见线$普通线
100
AcDb2dPolyline
 66
     1
 10
0.0
 20
0.0
 30
0.0
  0
VERTEX
  5
1F0
330
1EF
100
AcDbEntity
  8
Make2D$可见线$普通线
100
AcDbVertex
100
AcDb2dVertex
 10
56.00249787178478
 20
449.7323407503589
 30
0.0
  0
VERTEX
  5
1F1
330
1EF
100
AcDbEntity
  8
Make2D$可见线$普通线
100
AcDbVertex
100
AcDb2dVertex
 10
58.69294516397525
 20
449.7323407503588
 30
0.0
 42
-1.000000000000007
  0
VERTEX
  5
1F2
330
1EF
100
AcDbEntity
  8
Make2D$可见线$普通线
100
AcDbVertex
100
AcDb2dVertex
 10
58.69294519585767
 20
445.7323407503588
 30
0.0
  0
VERTEX
  5
1F3
330
1EF
100
AcDbEntity
  8
Make2D$可见线$普通线
100
AcDbVertex
100
AcDb2dVertex
 10
56.00249787178478
 20
445.7323407503589
 30
0.0
  0
SEQEND
  5
1F4
330
1EF
100
AcDbEntity
  8
Make2D$可见线$普通线
  0
LINE
  5
1F5
330
1F
100
AcDbEntity
  8
Make2D$可见线$普通线
100
AcDbLine
 10
51.66533615339202
 20
539.020737406302
 30
0.0
 11
4.337161906284834
 21
539.020737406302
 31
0.0
  0
POLYLINE
  5
1F6
330
1F
100
AcDbEntity
  8
Make2D$可见线$普通线
100
AcDb2dPolyline
 66
     1
 10
0.0
 20
0.0
 30
0.0
  0
VERTEX
  5
1F7
330
1F6
100
AcDbEntity
  8
Make2D$可见线$普通线
100
AcDbVertex
100
AcDb2dVertex
 10
14.78461113739384
 20
530.9105835067444
 30
0.0
  0
VERTEX
  5
1F8
330
1F6
100
AcDbEntity
  8
Make2D$可见线$普通线
100
AcDbVertex
100
AcDb2dVertex
 10
28.00124902983842
 20
530.9106123993615
 30
0.0
  0
VERTEX
  5
1F9
330
1F6
100
AcDbEntity
  8
Make2D$可见线$普通线
100
AcDbVertex
100
AcDb2dVertex
 10
41.21788692228301
 20
530.9105835067444
 30
0.0
  0
SEQEND
  5
1FA
330
1F6
100
AcDbEntity
  8
Make2D$可见线$普通线
  0
POLYLINE
  5
1FB
330
1F
100
AcDbEntity
  8
Make2D$可见线$普通线
100
AcDb2dPolyline
 66
     1
 10
0.0
 20
0.0
 30
0.0
  0
VERTEX
  5
1FC
330
1FB
100
AcDbEntity
  8
Make2D$可见线$普通线
100
AcDbVertex
100
AcDb2dVertex
 10
44.38486710522153
 20
500.0207488384307
 30
0.0
  0
VERTEX
  5
1FD
330
1FB
100
AcDbEntity
  8
Make2D$可见线$普通线
100
AcDbVertex
100
AcDb2dVertex
 10
1.000000187754923
 20
500.0207488384308
 30
0.0
 42
0.4142164900410566
  0
VERTEX
  5
1FE
330
1FB
100
AcDbEntity
  8
Make2D$可见线$普通线
100
AcDbVertex
100
AcDb2dVertex
 10
0.0000000960736736
 20
499.0207488384307
 30
0.0
  0
VERTEX
  5
1FF
330
1FB
100
AcDbEntity
  8
Make2D$可见线$普通线
100
AcDbVertex
100
AcDb2dVertex
 10
0.0000000939461708
 20
395.7323407503545
 30
0.0
 42
0.4148267192013879
  0
VERTEX
  5
200
330
1FB
100
AcDbEntity
  8
Make2D$可见线$普通线
100
AcDbVertex
100
AcDb2dVertex
 10
1.002774840522509
 20
394.7323407503545
 30
0.0
  0
VERTEX
  5
201
330
1FB
100
AcDbEntity
  8
Make2D$可见线$普通线
100
AcDbVertex
100
AcDb2dVertex
 10
55.00249796050693
 20
394.7323407503634
 30
0.0
 42
0.4142164640929837
  0
VERTEX
  5
202
330
1FB
100
AcDbEntity
  8
Make2D$可见线$普通线
100
AcDbVertex
100
AcDb2dVertex
 10
56.00249796360312
 20
395.7323407503589
 30
0.0
  0
VERTEX
  5
203
330
1FB
100
AcDbEntity
  8
Make2D$可见线$普通线
100
AcDbVertex
100
AcDb2dVertex
 10
56.0024979657306
 20
499.0207488384307
 30
0.0
 42
0.4148267191987752
  0
VERTEX
  5
204
330
1FB
100
AcDbEntity
  8
Make2D$可见线$普通线
100
AcDbVertex
100
AcDb2dVertex
 10
54.99972321918709
 20
500.0207488384307
 30
0.0
  0
VERTEX
  5
205
330
1FB
100
AcDbEntity
  8
Make2D$可见线$普通线
100
AcDbVertex
100
AcDb2dVertex
 10
44.38486710522153
 20
500.0207488384307
 30
0.0
  0
SEQEND
  5
206
330
1FB
100
AcDbEntity
  8
Make2D$可见线$普通线
  0
POLYLINE
  5
207
330
1F
100
AcDbEntity
  8
Make2D$可见线$普通线
100
AcDb2dPolyline
 66
     1
 10
0.0
 20
0.0
 30
0.0
  0
VERTEX
  5
208
330
207
100
AcDbEntity
  8
Make2D$可见线$普通线
100
AcDbVertex
100
AcDb2dVertex
 10
3.643592789817177
 20
503.0215347882587
 30
0.0
  0
VERTEX
  5
209
330
207
100
AcDbEntity
  8
Make2D$可见线$普通线
100
AcDbVertex
100
AcDb2dVertex
 10
3.816283747850761
 20
503.0214752964722
 30
0.0
  0
VERTEX
  5
20A
330
207
100
AcDbEntity
  8
Make2D$可见线$普通线
100
AcDbVertex
100
AcDb2dVertex
 10
25.10578463899742
 20
503.0207488386478
 30
0.0
  0
VERTEX
  5
20B
330
207
100
AcDbEntity
  8
Make2D$可见线$普通线
100
AcDbVertex
100
AcDb2dVertex
 10
30.89671342067942
 20
503.0207488386478
 30
0.0
  0
VERTEX
  5
20C
330
207
100
AcDbEntity
  8
Make2D$可见线$普通线
100
AcDbVertex
100
AcDb2dVertex
 10
52.18621431182606
 20
503.0214752964722
 30
0.0
  0
VERTEX
  5
20D
330
207
100
AcDbEntity
  8
Make2D$可见线$普通线
100
AcDbVertex
100
AcDb2dVertex
 10
52.35890541447372
 20
503.0215347882574
 30
0.0
  0
SEQEND
  5
20E
330
207
100
AcDbEntity
  8
Make2D$可见线$普通线
  0
POLYLINE
  5
20F
330
1F
100
AcDbEntity
  8
Make2D$可见线$普通线
100
AcDb2dPolyline
 66
     1
 10
0.0
 20
0.0
 30
0.0
  0
VERTEX
  5
210
330
20F
100
AcDbEntity
  8
Make2D$可见线$普通线
100
AcDbVertex
100
AcDb2dVertex
 10
32.99966309233515
 20
487.8582647744169
 30
0.0
  0
VERTEX
  5
211
330
20F
100
AcDbEntity
  8
Make2D$可见线$普通线
100
AcDbVertex
100
AcDb2dVertex
 10
33.00124902983842
 20
487.7323407503589
 30
0.0
  0
VERTEX
  5
212
330
20F
100
AcDbEntity
  8
Make2D$可见线$普通线
100
AcDbVertex
100
AcDb2dVertex
 10
32.99966309233515
 20
487.606416726301
 30
0.0
  0
SEQEND
  5
213
330
20F
100
AcDbEntity
  8
Make2D$可见线$普通线
  0
POLYLINE
  5
215
330
1F
100
AcDbEntity
  8
E72279
100
AcDb2dPolyline
 66
     1
 10
0.0
 20
0.0
 30
0.0
  0
VERTEX
  5
216
330
215
100
AcDbEntity
  8
E72279
100
AcDbVertex
100
AcDb2dVertex
 10
51.75481784919106
 20
473.6487125549398
 30
0.0
  0
VERTEX
  5
217
330
215
100
AcDbEntity
  8
E72279
100
AcDbVertex
100
AcDb2dVertex
 10
51.51366869268131
 20
475.2716519127847
 30
0.0
  0
VERTEX
  5
218
330
215
100
AcDbEntity
  8
E72279
100
AcDbVertex
100
AcDb2dVertex
 10
51.25088377762549
 20
476.8409043859988
 30
0.0
  0
VERTEX
  5
219
330
215
100
AcDbEntity
  8
E72279
100
AcDbVertex
100
AcDb2dVertex
 10
51.00778463183848
 20
478.1370694420821
 30
0.0
  0
VERTEX
  5
21A
330
215
100
AcDbEntity
  8
E72279
100
AcDbVertex
100
AcDb2dVertex
 10
50.73955176393672
 20
479.4282674036165
 30
0.0
  0
VERTEX
  5
21B
330
215
100
AcDbEntity
  8
E72279
100
AcDbVertex
100
AcDb2dVertex
 10
50.47014523020749
 20
480.6043833639264
 30
0.0
  0
VERTEX
  5
21C
330
215
100
AcDbEntity
  8
E72279
100
AcDbVertex
100
AcDb2dVertex
 10
50.17212898165073
 20
481.7735775086722
 30
0.0
  0
VERTEX
  5
21D
330
215
100
AcDbEntity
  8
E72279
100
AcDbVertex
100
AcDb2dVertex
 10
49.88760458715582
 20
482.7661636248303
 30
0.0
  0
VERTEX
  5
21E
330
215
100
AcDbEntity
  8
E72279
100
AcDbVertex
100
AcDb2dVertex
 10
49.74430667149772
 20
483.2227472874803
 30
0.0
  0
VERTEX
  5
21F
330
215
100
AcDbEntity
  8
E72279
100
AcDbVertex
100
AcDb2dVertex
 10
49.60059826938314
 20
483.6527266578756
 30
0.0
  0
VERTEX
  5
220
330
215
100
AcDbEntity
  8
E72279
100
AcDbVertex
100
AcDb2dVertex
 10
49.4566893751751
 20
484.0560032145397
 30
0.0
  0
VERTEX
  5
221
330
215
100
AcDbEntity
  8
E72279
100
AcDbVertex
100
AcDb2dVertex
 10
49.31278998323656
 20
484.4324784359958
 30
0.0
  0
VERTEX
  5
222
330
215
100
AcDbEntity
  8
E72279
100
AcDbVertex
100
AcDb2dVertex
 10
49.16911008793053
 20
484.7820538007676
 30
0.0
  0
VERTEX
  5
223
330
215
100
AcDbEntity
  8
E72279
100
AcDbVertex
100
AcDb2dVertex
 10
49.02585968361998
 20
485.1046307873785
 30
0.0
  0
VERTEX
  5
224
330
215
100
AcDbEntity
  8
E72279
100
AcDbVertex
100
AcDb2dVertex
 10
48.89950800146534
 20
485.3677884345982
 30
0.0
  0
VERTEX
  5
225
330
215
100
AcDbEntity
  8
E72279
100
AcDbVertex
100
AcDb2dVertex
 10
48.77375706003833
 20
485.6101481870809
 30
0.0
  0
VERTEX
  5
226
330
215
100
AcDbEntity
  8
E72279
100
AcDbVertex
100
AcDb2dVertex
 10
48.7111378458959
 20
485.7236715886673
 30
0.0
  0
VERTEX
  5
227
330
215
100
AcDbEntity
  8
E72279
100
AcDbVertex
100
AcDb2dVertex
 10
48.6487059914932
 20
485.8321667996151
 30
0.0
  0
VERTEX
  5
228
330
215
100
AcDbEntity
  8
E72279
100
AcDbVertex
100
AcDb2dVertex
 10
48.58647388834953
 20
485.9356909142728
 30
0.0
  0
VERTEX
  5
229
330
215
100
AcDbEntity
  8
E72279
100
AcDbVertex
100
AcDb2dVertex
 10
48.52445392798417
 20
486.0343010269889
 30
0.0
  0
VERTEX
  5
22A
330
215
100
AcDbEntity
  8
E72279
100
AcDbVertex
100
AcDb2dVertex
 10
48.46265850191638
 20
486.1280542321122
 30
0.0
  0
VERTEX
  5
22B
330
215
100
AcDbEntity
  8
E72279
100
AcDbVertex
100
AcDb2dVertex
 10
48.40110000166546
 20
486.2170076239912
 30
0.0
  0
VERTEX
  5
22C
330
215
100
AcDbEntity
  8
E72279
100
AcDbVertex
100
AcDb2dVertex
 10
48.33979081875068
 20
486.3012182969742
 30
0.0
  0
VERTEX
  5
22D
330
215
100
AcDbEntity
  8
E72279
100
AcDbVertex
100
AcDb2dVertex
 10
48.27874334469131
 20
486.3807433454101
 30
0.0
  0
VERTEX
  5
22E
330
215
100
AcDbEntity
  8
E72279
100
AcDbVertex
100
AcDb2dVertex
 10
48.21796997100665
 20
486.4556398636471
 30
0.0
  0
VERTEX
  5
22F
330
215
100
AcDbEntity
  8
E72279
100
AcDbVertex
100
AcDb2dVertex
 10
48.15748308921595
 20
486.5259649460341
 30
0.0
  0
VERTEX
  5
230
330
215
100
AcDbEntity
  8
E72279
100
AcDbVertex
100
AcDb2dVertex
 10
48.09729509083852
 20
486.5917756869194
 30
0.0
  0
VERTEX
  5
231
330
215
100
AcDbEntity
  8
E72279
100
AcDbVertex
100
AcDb2dVertex
 10
48.03741836739361
 20
486.6531291806518
 30
0.0
 42
0.1509019268640406
  0
VERTEX
  5
232
330
215
100
AcDbEntity
  8
E72279
100
AcDbVertex
100
AcDb2dVertex
 10
47.35389685320212
 20
487.0576200517471
 30
0.0
  0
VERTEX
  5
233
330
215
100
AcDbEntity
  8
E72279
100
AcDbVertex
100
AcDb2dVertex
 10
47.32103406983168
 20
487.0634910037637
 30
0.0
  0
VERTEX
  5
234
330
215
100
AcDbEntity
  8
E72279
100
AcDbVertex
100
AcDb2dVertex
 10
47.2880216789713
 20
487.0687360993872
 30
0.0
  0
VERTEX
  5
235
330
215
100
AcDbEntity
  8
E72279
100
AcDbVertex
100
AcDb2dVertex
 10
47.25487755590886
 20
487.0733501427273
 30
0.0
  0
VERTEX
  5
236
330
215
100
AcDbEntity
  8
E72279
100
AcDbVertex
100
AcDb2dVertex
 10
47.22161980289477
 20
487.0773286194164
 30
0.0
  0
VERTEX
  5
237
330
215
100
AcDbEntity
  8
E72279
100
AcDbVertex
100
AcDb2dVertex
 10
47.18826671658952
 20
487.0806677085082
 30
0.0
  0
VERTEX
  5
238
330
215
100
AcDbEntity
  8
E72279
100
AcDbVertex
100
AcDb2dVertex
 10
47.15483675478568
 20
487.0833642925051
 30
0.0
  0
VERTEX
  5
239
330
215
100
AcDbEntity
  8
E72279
100
AcDbVertex
100
AcDb2dVertex
 10
47.12134850253064
 20
487.0854159654631
 30
0.0
  0
VERTEX
  5
23A
330
215
100
AcDbEntity
  8
E72279
100
AcDbVertex
100
AcDb2dVertex
 10
47.08782063777981
 20
487.0868210391342
 30
0.0
  0
VERTEX
  5
23B
330
215
100
AcDbEntity
  8
E72279
100
AcDbVertex
100
AcDb2dVertex
 10
47.0542718967133
 20
487.0875785471168
 30
0.0
  0
VERTEX
  5
23C
330
215
100
AcDbEntity
  8
E72279
100
AcDbVertex
100
AcDb2dVertex
 10
47.02072103885106
 20
487.0876882469922
 30
0.0
  0
VERTEX
  5
23D
330
215
100
AcDbEntity
  8
E72279
100
AcDbVertex
100
AcDb2dVertex
 10
46.98718681210288
 20
487.0871506204397
 30
0.0
  0
VERTEX
  5
23E
330
215
100
AcDbEntity
  8
E72279
100
AcDbVertex
100
AcDb2dVertex
 10
46.95368791788968
 20
487.0859668713285
 30
0.0
  0
VERTEX
  5
23F
330
215
100
AcDbEntity
  8
E72279
100
AcDbVertex
100
AcDb2dVertex
 10
46.92024297647245
 20
487.0841389218004
 30
0.0
  0
VERTEX
  5
240
330
215
100
AcDbEntity
  8
E72279
100
AcDbVertex
100
AcDb2dVertex
 10
46.88687049262332
 20
487.0816694063639
 30
0.0
  0
VERTEX
  5
241
330
215
100
AcDbEntity
  8
E72279
100
AcDbVertex
100
AcDb2dVertex
 10
46.85358882177082
 20
487.0785616640308
 30
0.0
  0
VERTEX
  5
242
330
215
100
AcDbEntity
  8
E72279
100
AcDbVertex
100
AcDb2dVertex
 10
46.82041613674858
 20
487.07481972854
 30
0.0
  0
VERTEX
  5
243
330
215
100
AcDbEntity
  8
E72279
100
AcDbVertex
100
AcDb2dVertex
 10
46.78858261967277
 20
487.0704605410542
 30
0.0
  0
VERTEX
  5
244
330
215
100
AcDbEntity
  8
E72279
100
AcDbVertex
100
AcDb2dVertex
 10
46.75679771761082
 20
487.065472913823
 30
0.0
  0
VERTEX
  5
245
330
215
100
AcDbEntity
  8
E72279
100
AcDbVertex
100
AcDb2dVertex
 10
46.72507998078861
 20
487.0598573685317
 30
0.0
  0
VERTEX
  5
246
330
215
100
AcDbEntity
  8
E72279
100
AcDbVertex
100
AcDb2dVertex
 10
46.69344796757045
 20
487.0536151556221
 30
0.0
  0
VERTEX
  5
247
330
215
100
AcDbEntity
  8
E72279
100
AcDbVertex
100
AcDb2dVertex
 10
46.66192020869928
 20
487.0467482557465
 30
0.0
  0
VERTEX
  5
248
330
215
100
AcDbEntity
  8
E72279
100
AcDbVertex
100
AcDb2dVertex
 10
46.63051517140966
 20
487.0392593791159
 30
0.0
  0
VERTEX
  5
249
330
215
100
AcDbEntity
  8
E72279
100
AcDbVertex
100
AcDb2dVertex
 10
46.59925122355841
 20
487.0311519627323
 30
0.0
  0
VERTEX
  5
24A
330
215
100
AcDbEntity
  8
E72279
100
AcDbVertex
100
AcDb2dVertex
 10
46.56814659791846
 20
487.0224301655065
 30
0.0
  0
VERTEX
  5
24B
330
215
100
AcDbEntity
  8
E72279
100
AcDbVertex
100
AcDb2dVertex
 10
46.53721935678107
 20
487.0130988612741
 30
0.0
  0
VERTEX
  5
24C
330
215
100
AcDbEntity
  8
E72279
100
AcDbVertex
100
AcDb2dVertex
 10
46.50648735701085
 20
487.0031636297325
 30
0.0
  0
VERTEX
  5
24D
330
215
100
AcDbEntity
  8
E72279
100
AcDbVertex
100
AcDb2dVertex
 10
46.47596821569497
 20
486.9926307453367
 30
0.0
  0
VERTEX
  5
24E
330
215
100
AcDbEntity
  8
E72279
100
AcDbVertex
100
AcDb2dVertex
 10
46.44567927652579
 20
486.9815071641981
 30
0.0
  0
VERTEX
  5
24F
330
215
100
AcDbEntity
  8
E72279
100
AcDbVertex
100
AcDb2dVertex
 10
46.41563757705092
 20
486.9698005090438
 30
0.0
  0
VERTEX
  5
250
330
215
100
AcDbEntity
  8
E72279
100
AcDbVertex
100
AcDb2dVertex
 10
46.38585981692042
 20
486.957519052304
 30
0.0
  0
VERTEX
  5
251
330
215
100
AcDbEntity
  8
E72279
100
AcDbVertex
100
AcDb2dVertex
 10
46.35636232725454
 20
486.9446716974052
 30
0.0
  0
VERTEX
  5
252
330
215
100
AcDbEntity
  8
E72279
100
AcDbVertex
100
AcDb2dVertex
 10
46.32716104124863
 20
486.9312679583541
 30
0.0
  0
VERTEX
  5
253
330
215
100
AcDbEntity
  8
E72279
100
AcDbVertex
100
AcDb2dVertex
 10
46.28122337572076
 20
486.9089521791212
 30
0.0
  0
VERTEX
  5
254
330
215
100
AcDbEntity
  8
E72279
100
AcDbVertex
100
AcDb2dVertex
 10
46.23567706716177
 20
486.885135920807
 30
0.0
  0
VERTEX
  5
255
330
215
100
AcDbEntity
  8
E72279
100
AcDbVertex
100
AcDb2dVertex
 10
46.19052414482542
 20
486.8597859172265
 30
0.0
  0
VERTEX
  5
256
330
215
100
AcDbEntity
  8
E72279
100
AcDbVertex
100
AcDb2dVertex
 10
46.1457628253964
 20
486.8329063009835
 30
0.0
  0
VERTEX
  5
257
330
215
100
AcDbEntity
  8
E72279
100
AcDbVertex
100
AcDb2dVertex
 10
46.10167456313812
 20
486.8046360443232
 30
0.0
  0
VERTEX
  5
258
330
215
100
AcDbEntity
  8
E72279
100
AcDbVertex
100
AcDb2dVertex
 10
46.05797585899877
 20
486.7745691875527
 30
0.0
  0
VERTEX
  5
259
330
215
100
AcDbEntity
  8
E72279
100
AcDbVertex
100
AcDb2dVertex
 10
46.0525574585517
 20
486.7706721505428
 30
0.0
  0
VERTEX
  5
25A
330
215
100
AcDbEntity
  8
E72279
100
AcDbVertex
100
AcDb2dVertex
 10
46.03905401910627
 20
486.7603766564346
 30
0.0
  0
VERTEX
  5
25B
330
215
100
AcDbEntity
  8
E72279
100
AcDbVertex
100
AcDb2dVertex
 10
46.03296459258598
 20
486.7559976270936
 30
0.0
  0
VERTEX
  5
25C
330
215
100
AcDbEntity
  8
E72279
100
AcDbVertex
100
AcDb2dVertex
 10
46.032289423378
 20
486.7554728657095
 30
0.0
  0
VERTEX
  5
25D
330
215
100
AcDbEntity
  8
E72279
100
AcDbVertex
100
AcDb2dVertex
 10
46.03161555832608
 20
486.7549188112905
 30
0.0
  0
VERTEX
  5
25E
330
215
100
AcDbEntity
  8
E72279
100
AcDbVertex
100
AcDb2dVertex
 10
46.03094329730887
 20
486.7543290952401
 30
0.0
  0
VERTEX
  5
25F
330
215
100
AcDbEntity
  8
E72279
100
AcDbVertex
100
AcDb2dVertex
 10
46.03027287544774
 20
486.7536994004039
 30
0.0
  0
VERTEX
  5
260
330
215
100
AcDbEntity
  8
E72279
100
AcDbVertex
100
AcDb2dVertex
 10
46.02960426883474
 20
486.7530336153926
 30
0.0
  0
VERTEX
  5
261
330
215
100
AcDbEntity
  8
E72279
100
AcDbVertex
100
AcDb2dVertex
 10
46.02893738880462
 20
486.7523376802587
 30
0.0
  0
VERTEX
  5
262
330
215
100
AcDbEntity
  8
E72279
100
AcDbVertex
100
AcDb2dVertex
 10
46.02827214669216
 20
486.7516175350551
 30
0.0
  0
VERTEX
  5
263
330
215
100
AcDbEntity
  8
E72279
100
AcDbVertex
100
AcDb2dVertex
 10
46.0203792160994
 20
486.7427679004793
 30
0.0
  0
VERTEX
  5
264
330
215
100
AcDbEntity
  8
E72279
100
AcDbVertex
100
AcDb2dVertex
 10
46.01776008708892
 20
486.7400240355645
 30
0.0
  0
VERTEX
  5
265
330
215
100
AcDbEntity
  8
E72279
100
AcDbVertex
100
AcDb2dVertex
 10
46.01513065330422
 20
486.7374247107507
 30
0.0
  0
VERTEX
  5
266
330
215
100
AcDbEntity
  8
E72279
100
AcDbVertex
100
AcDb2dVertex
 10
46.01282076233277
 20
486.7352814683133
 30
0.0
  0
VERTEX
  5
267
330
215
100
AcDbEntity
  8
E72279
100
AcDbVertex
100
AcDb2dVertex
 10
46.01049848145205
 20
486.7332326471732
 30
0.0
  0
VERTEX
  5
268
330
215
100
AcDbEntity
  8
E72279
100
AcDbVertex
100
AcDb2dVertex
 10
45.99880396839094
 20
486.7233504387568
 30
0.0
  0
VERTEX
  5
269
330
215
100
AcDbEntity
  8
E72279
100
AcDbVertex
100
AcDb2dVertex
 10
45.99646899204351
 20
486.7212354920947
 30
0.0
  0
VERTEX
  5
26A
330
215
100
AcDbEntity
  8
E72279
100
AcDbVertex
100
AcDb2dVertex
 10
45.99414144534287
 20
486.7190126388416
 30
0.0
  0
VERTEX
  5
26B
330
215
100
AcDbEntity
  8
E72279
100
AcDbVertex
100
AcDb2dVertex
 10
45.99182062151569
 20
486.7166945353845
 30
0.0
  0
VERTEX
  5
26C
330
215
100
AcDbEntity
  8
E72279
100
AcDbVertex
100
AcDb2dVertex
 10
45.97795648693486
 20
486.7019735846603
 30
0.0
  0
VERTEX
  5
26D
330
215
100
AcDbEntity
  8
E72279
100
AcDbVertex
100
AcDb2dVertex
 10
45.95028623884934
 20
486.6742820682557
 30
0.0
  0
VERTEX
  5
26E
330
215
100
AcDbEntity
  8
E72279
100
AcDbVertex
100
AcDb2dVertex
 10
45.91364407236512
 20
486.6343609319155
 30
0.0
  0
VERTEX
  5
26F
330
215
100
AcDbEntity
  8
E72279
100
AcDbVertex
100
AcDb2dVertex
 10
45.909099709099
 20
486.6296954338254
 30
0.0
  0
VERTEX
  5
270
330
215
100
AcDbEntity
  8
E72279
100
AcDbVertex
100
AcDb2dVertex
 10
45.90458082967484
 20
486.6252862839362
 30
0.0
  0
VERTEX
  5
271
330
215
100
AcDbEntity
  8
E72279
100
AcDbVertex
100
AcDb2dVertex
 10
45.9000811681215
 20
486.6211499437854
 30
0.0
  0
VERTEX
  5
272
330
215
100
AcDbEntity
  8
E72279
100
AcDbVertex
100
AcDb2dVertex
 10
45.88612093612397
 20
486.6087996715528
 30
0.0
  0
VERTEX
  5
273
330
215
100
AcDbEntity
  8
E72279
100
AcDbVertex
100
AcDb2dVertex
 10
45.88538070544996
 20
486.6081151864677
 30
0.0
  0
VERTEX
  5
274
330
215
100
AcDbEntity
  8
E72279
100
AcDbVertex
100
AcDb2dVertex
 10
45.88501876734124
 20
486.6077649434775
 30
0.0
  0
VERTEX
  5
275
330
215
100
AcDbEntity
  8
E72279
100
AcDbVertex
100
AcDb2dVertex
 10
45.88466769012651
 20
486.6074070048127
 30
0.0
  0
VERTEX
  5
276
330
215
100
AcDbEntity
  8
E72279
100
AcDbVertex
100
AcDb2dVertex
 10
45.8844974921845
 20
486.6072245959984
 30
0.0
  0
VERTEX
  5
277
330
215
100
AcDbEntity
  8
E72279
100
AcDbVertex
100
AcDb2dVertex
 10
45.88433153086213
 20
486.6070395989409
 30
0.0
  0
VERTEX
  5
278
330
215
100
AcDbEntity
  8
E72279
100
AcDbVertex
100
AcDb2dVertex
 10
45.88417031329145
 20
486.6068517921987
 30
0.0
  0
VERTEX
  5
279
330
215
100
AcDbEntity
  8
E72279
100
AcDbVertex
100
AcDb2dVertex
 10
45.88401434660449
 20
486.6066609543302
 30
0.0
  0
VERTEX
  5
27A
330
215
100
AcDbEntity
  8
E72279
100
AcDbVertex
100
AcDb2dVertex
 10
45.88386413793329
 20
486.6064668638938
 30
0.0
  0
VERTEX
  5
27B
330
215
100
AcDbEntity
  8
E72279
100
AcDbVertex
100
AcDb2dVertex
 10
45.88372019440991
 20
486.6062692994482
 30
0.0
  0
VERTEX
  5
27C
330
215
100
AcDbEntity
  8
E72279
100
AcDbVertex
100
AcDb2dVertex
 10
45.88358302316639
 20
486.6060680395517
 30
0.0
  0
VERTEX
  5
27D
330
215
100
AcDbEntity
  8
E72279
100
AcDbVertex
100
AcDb2dVertex
 10
45.88351713562834
 20
486.6059659546089
 30
0.0
  0
VERTEX
  5
27E
330
215
100
AcDbEntity
  8
E72279
100
AcDbVertex
100
AcDb2dVertex
 10
45.88345313133476
 20
486.6058628627628
 30
0.0
  0
VERTEX
  5
27F
330
215
100
AcDbEntity
  8
E72279
100
AcDbVertex
100
AcDb2dVertex
 10
45.88339107367717
 20
486.6057587363333
 30
0.0
  0
VERTEX
  5
280
330
215
100
AcDbEntity
  8
E72279
100
AcDbVertex
100
AcDb2dVertex
 10
45.88333102604708
 20
486.60565354764
 30
0.0
  0
VERTEX
  5
281
330
215
100
AcDbEntity
  8
E72279
100
AcDbVertex
100
AcDb2dVertex
 10
45.88327305183599
 20
486.605547269003
 30
0.0
  0
VERTEX
  5
282
330
215
100
AcDbEntity
  8
E72279
100
AcDbVertex
100
AcDb2dVertex
 10
45.8832172144354
 20
486.6054398727419
 30
0.0
  0
VERTEX
  5
283
330
215
100
AcDbEntity
  8
E72279
100
AcDbVertex
100
AcDb2dVertex
 10
45.88316357723683
 20
486.6053313311766
 30
0.0
  0
VERTEX
  5
284
330
215
100
AcDbEntity
  8
E72279
100
AcDbVertex
100
AcDb2dVertex
 10
45.88311220363176
 20
486.6052216166267
 30
0.0
  0
VERTEX
  5
285
330
215
100
AcDbEntity
  8
E72279
100
AcDbVertex
100
AcDb2dVertex
 10
45.88306315701172
 20
486.6051107014124
 30
0.0
  0
VERTEX
  5
286
330
215
100
AcDbEntity
  8
E72279
100
AcDbVertex
100
AcDb2dVertex
 10
45.88301650076821
 20
486.6049985578532
 30
0.0
  0
VERTEX
  5
287
330
215
100
AcDbEntity
  8
E72279
100
AcDbVertex
100
AcDb2dVertex
 10
45.88297229829271
 20
486.604885158269
 30
0.0
  0
VERTEX
  5
288
330
215
100
AcDbEntity
  8
E72279
100
AcDbVertex
100
AcDb2dVertex
 10
45.88293061297677
 20
486.6047704749797
 30
0.0
  0
VERTEX
  5
289
330
215
100
AcDbEntity
  8
E72279
100
AcDbVertex
100
AcDb2dVertex
 10
45.88289150821188
 20
486.604654480305
 30
0.0
  0
VERTEX
  5
28A
330
215
100
AcDbEntity
  8
E72279
100
AcDbVertex
100
AcDb2dVertex
 10
45.88285504738952
 20
486.6045371465647
 30
0.0
  0
VERTEX
  5
28B
330
215
100
AcDbEntity
  8
E72279
100
AcDbVertex
100
AcDb2dVertex
 10
45.88282129390122
 20
486.6044184460786
 30
0.0
  0
VERTEX
  5
28C
330
215
100
AcDbEntity
  8
E72279
100
AcDbVertex
100
AcDb2dVertex
 10
45.88279031113849
 20
486.6042983511666
 30
0.0
  0
VERTEX
  5
28D
330
215
100
AcDbEntity
  8
E72279
100
AcDbVertex
100
AcDb2dVertex
 10
45.8827621624928
 20
486.6041768341483
 30
0.0
  0
VERTEX
  5
28E
330
215
100
AcDbEntity
  8
E72279
100
AcDbVertex
100
AcDb2dVertex
 10
45.8827369113557
 20
486.6040538673439
 30
0.0
  0
VERTEX
  5
28F
330
215
100
AcDbEntity
  8
E72279
100
AcDbVertex
100
AcDb2dVertex
 10
45.88271462111867
 20
486.6039294230728
 30
0.0
  0
VERTEX
  5
290
330
215
100
AcDbEntity
  8
E72279
100
AcDbVertex
100
AcDb2dVertex
 10
45.88269535517323
 20
486.6038034736551
 30
0.0
  0
VERTEX
  5
291
330
215
100
AcDbEntity
  8
E72279
100
AcDbVertex
100
AcDb2dVertex
 10
45.88267917691087
 20
486.6036759914105
 30
0.0
  0
VERTEX
  5
292
330
215
100
AcDbEntity
  8
E72279
100
AcDbVertex
100
AcDb2dVertex
 10
45.88266614972311
 20
486.6035469486587
 30
0.0
  0
VERTEX
  5
293
330
215
100
AcDbEntity
  8
E72279
100
AcDbVertex
100
AcDb2dVertex
 10
45.88265633700144
 20
486.6034163177197
 30
0.0
  0
VERTEX
  5
294
330
215
100
AcDbEntity
  8
E72279
100
AcDbVertex
100
AcDb2dVertex
 10
45.88264980213739
 20
486.6032840709133
 30
0.0
  0
VERTEX
  5
295
330
215
100
AcDbEntity
  8
E72279
100
AcDbVertex
100
AcDb2dVertex
 10
45.88264660852244
 20
486.6031501805592
 30
0.0
  0
VERTEX
  5
296
330
215
100
AcDbEntity
  8
E72279
100
AcDbVertex
100
AcDb2dVertex
 10
45.88264681954811
 20
486.6030146189772
 30
0.0
  0
VERTEX
  5
297
330
215
100
AcDbEntity
  8
E72279
100
AcDbVertex
100
AcDb2dVertex
 10
45.8826504986059
 20
486.6028773584873
 30
0.0
  0
VERTEX
  5
298
330
215
100
AcDbEntity
  8
E72279
100
AcDbVertex
100
AcDb2dVertex
 10
45.88265770908732
 20
486.602738371409
 30
0.0
  0
VERTEX
  5
299
330
215
100
AcDbEntity
  8
E72279
100
AcDbVertex
100
AcDb2dVertex
 10
45.88266851438386
 20
486.6025976300623
 30
0.0
  0
VERTEX
  5
29A
330
215
100
AcDbEntity
  8
E72279
100
AcDbVertex
100
AcDb2dVertex
 10
45.88268297788705
 20
486.6024551067671
 30
0.0
  0
VERTEX
  5
29B
330
215
100
AcDbEntity
  8
E72279
100
AcDbVertex
100
AcDb2dVertex
 10
45.88270116298838
 20
486.602310773843
 30
0.0
  0
VERTEX
  5
29C
330
215
100
AcDbEntity
  8
E72279
100
AcDbVertex
100
AcDb2dVertex
 10
45.88272313307936
 20
486.6021646036099
 30
0.0
  0
VERTEX
  5
29D
330
215
100
AcDbEntity
  8
E72279
100
AcDbVertex
100
AcDb2dVertex
 10
45.8827489515515
 20
486.6020165683877
 30
0.0
  0
VERTEX
  5
29E
330
215
100
AcDbEntity
  8
E72279
100
AcDbVertex
100
AcDb2dVertex
 10
45.88277868179627
 20
486.601866640496
 30
0.0
 42
-0.0468568433940885
  0
VERTEX
  5
29F
330
215
100
AcDbEntity
  8
E72279
100
AcDbVertex
100
AcDb2dVertex
 10
45.64261552582615
 20
483.9220177561363
 30
0.0
 42
-0.0474219991305457
  0
VERTEX
  5
2A0
330
215
100
AcDbEntity
  8
E72279
100
AcDbVertex
100
AcDb2dVertex
 10
44.86460981442731
 20
481.1900236549469
 30
0.0
 42
-0.0258670367429697
  0
VERTEX
  5
2A1
330
215
100
AcDbEntity
  8
E72279
100
AcDbVertex
100
AcDb2dVertex
 10
44.2576604447578
 20
479.8465086510379
 30
0.0
  0
VERTEX
  5
2A2
330
215
100
AcDbEntity
  8
E72279
100
AcDbVertex
100
AcDb2dVertex
 10
43.89866724903406
 20
479.1914181772393
 30
0.0
  0
VERTEX
  5
2A3
330
215
100
AcDbEntity
  8
E72279
100
AcDbVertex
100
AcDb2dVertex
 10
43.50843239523225
 20
478.5552467648288
 30
0.0
 42
-0.1892729971065783
  0
VERTEX
  5
2A4
330
215
100
AcDbEntity
  8
E72279
100
AcDbVertex
100
AcDb2dVertex
 10
34.81066813468858
 20
472.3360140163718
 30
0.0
 42
-0.0655157239345533
  0
VERTEX
  5
2A5
330
215
100
AcDbEntity
  8
E72279
100
AcDbVertex
100
AcDb2dVertex
 10
31.08332601013352
 20
471.8538628047906
 30
0.0
  0
VERTEX
  5
2A6
330
215
100
AcDbEntity
  8
E72279
100
AcDbVertex
100
AcDb2dVertex
 10
24.91936022728816
 20
471.85386280479
 30
0.0
 42
-0.0655135605007273
  0
VERTEX
  5
2A7
330
215
100
AcDbEntity
  8
E72279
100
AcDbVertex
100
AcDb2dVertex
 10
21.19195447151534
 20
472.33600636712
 30
0.0
 42
-0.0839876760101661
  0
VERTEX
  5
2A8
330
215
100
AcDbEntity
  8
E72279
100
AcDbVertex
100
AcDb2dVertex
 10
16.73418450472851
 20
474.2932612512929
 30
0.0
  0
VERTEX
  5
2A9
330
215
100
AcDbEntity
  8
E72279
100
AcDbVertex
100
AcDb2dVertex
 10
16.11695251652053
 20
474.7217924451912
 30
0.0
  0
VERTEX
  5
2AA
330
215
100
AcDbEntity
  8
E72279
100
AcDbVertex
100
AcDb2dVertex
 10
15.51922249113603
 20
475.1843303149853
 30
0.0
 42
-0.0257370878300309
  0
VERTEX
  5
2AB
330
215
100
AcDbEntity
  8
E72279
100
AcDbVertex
100
AcDb2dVertex
 10
14.40028688297663
 20
476.1975761592938
 30
0.0
 42
-0.0259856495977833
  0
VERTEX
  5
2AC
330
215
100
AcDbEntity
  8
E72279
100
AcDbVertex
100
AcDb2dVertex
 10
13.38172314697379
 20
477.3335806739132
 30
0.0
 42
-0.0255965815006427
  0
VERTEX
  5
2AD
330
215
100
AcDbEntity
  8
E72279
100
AcDbVertex
100
AcDb2dVertex
 10
12.49794331841509
 20
478.5524137598263
 30
0.0
 42
-0.0253041245551834
  0
VERTEX
  5
2AE
330
215
100
AcDbEntity
  8
E72279
100
AcDbVertex
100
AcDb2dVertex
 10
11.75077144661363
 20
479.8417053905521
 30
0.0
  0
SEQEND
  5
2AF
330
215
100
AcDbEntity
  8
E72279
  0
CIRCLE
  5
2B0
330
1F
100
AcDbEntity
  8
Make2D$可见线$普通线
100
AcDbCircle
 10
28.00129212042584
 20
518.7323709124339
 30
0.0
 40
4.999969838110501
  0
POLYLINE
  5
2B1
330
1F
100
AcDbEntity
  8
Make2D$可见线$普通线
100
AcDb2dPolyline
 66
     1
 10
0.0
 20
0.0
 30
0.0
  0
VERTEX
  5
2B2
330
2B1
100
AcDbEntity
  8
Make2D$可见线$普通线
100
AcDbVertex
100
AcDb2dVertex
 10
28.00249787624054
 20
477.7323408283398
 30
0.0
 42
1.000124892439272
  0
VERTEX
  5
2B3
330
2B1
100
AcDbEntity
  8
Make2D$可见线$普通线
100
AcDbVertex
100
AcDb2dVertex
 10
28.00249787624054
 20
497.7323406723781
 30
0.0
 42
1.000124892439277
  0
VERTEX
  5
2B4
330
2B1
100
AcDbEntity
  8
Make2D$可见线$普通线
100
AcDbVertex
100
AcDb2dVertex
 10
28.00249787624054
 20
477.7323408283398
 30
0.0
  0
SEQEND
  5
2B5
330
2B1
100
AcDbEntity
  8
Make2D$可见线$普通线
  0
CIRCLE
  5
2B6
330
1F
100
AcDbEntity
  8
Make2D$可见线$普通线
100
AcDbCircle
 10
28.8012490298384
 20
487.7323407503587
 30
0.0
 40
0.2350000000000136
  0
CIRCLE
  5
2B7
330
1F
100
AcDbEntity
  8
Make2D$可见线$普通线
100
AcDbCircle
 10
29.60124902983845
 20
487.732340750359
 30
0.0
 40
0.2349999999999817
  0
CIRCLE
  5
2B8
330
1F
100
AcDbEntity
  8
Make2D$可见线$普通线
100
AcDbCircle
 10
30.4012490298384
 20
487.732340750359
 30
0.0
 40
0.2350000000000101
  0
CIRCLE
  5
2B9
330
1F
100
AcDbEntity
  8
Make2D$可见线$普通线
100
AcDbCircle
 10
31.20124902983838
 20
487.732340750359
 30
0.0
 40
0.2350000000000385
  0
CIRCLE
  5
2BA
330
1F
100
AcDbEntity
  8
Make2D$可见线$普通线
100
AcDbCircle
 10
32.00124902983841
 20
487.7323407503588
 30
0.0
 40
0.2350000000000279
  0
CIRCLE
  5
2BB
330
1F
100
AcDbEntity
  8
Make2D$可见线$普通线
100
AcDbCircle
 10
32.80124902983847
 20
487.732340750359
 30
0.0
 40
0.2349999999999426
  0
CIRCLE
  5
2BC
330
1F
100
AcDbEntity
  8
Make2D$可见线$普通线
100
AcDbCircle
 10
33.60124902983844
 20
487.732340750359
 30
0.0
 40
0.2349999999999852
  0
CIRCLE
  5
2BD
330
1F
100
AcDbEntity
  8
Make2D$可见线$普通线
100
AcDbCircle
 10
34.4012490298384
 20
487.732340750359
 30
0.0
 40
0.2350000000000136
  0
CIRCLE
  5
2BE
330
1F
100
AcDbEntity
  8
Make2D$可见线$普通线
100
AcDbCircle
 10
28.00124902983833
 20
488.5323407503589
 30
0.0
 40
0.2350000000000136
  0
CIRCLE
  5
2BF
330
1F
100
AcDbEntity
  8
Make2D$可见线$普通线
100
AcDbCircle
 10
27.20124902983849
 20
487.732340750359
 30
0.0
 40
0.2350000000000705
  0
CIRCLE
  5
2C0
330
1F
100
AcDbEntity
  8
Make2D$可见线$普通线
100
AcDbCircle
 10
28.00124902983845
 20
486.9323407503589
 30
0.0
 40
0.2350000000000136
  0
CIRCLE
  5
2C1
330
1F
100
AcDbEntity
  8
Make2D$可见线$普通线
100
AcDbCircle
 10
29.13261987973697
 20
488.8637116002573
 30
0.0
 40
0.2349999999999892
  0
CIRCLE
  5
2C2
330
1F
100
AcDbEntity
  8
Make2D$可见线$普通线
100
AcDbCircle
 10
28.00124902983839
 20
489.3323407503589
 30
0.0
 40
0.2350000000000136
  0
CIRCLE
  5
2C3
330
1F
100
AcDbEntity
  8
Make2D$可见线$普通线
100
AcDbCircle
 10
26.86987817993997
 20
488.8637116002574
 30
0.0
 40
0.2350000000000194
  0
CIRCLE
  5
2C4
330
1F
100
AcDbEntity
  8
Make2D$可见线$普通线
100
AcDbCircle
 10
26.40124902983843
 20
487.732340750359
 30
0.0
 40
0.2350000000000136
  0
CIRCLE
  5
2C5
330
1F
100
AcDbEntity
  8
Make2D$可见线$普通线
100
AcDbCircle
 10
26.86987817993999
 20
486.6009699004603
 30
0.0
 40
0.2349999999999541
  0
CIRCLE
  5
2C6
330
1F
100
AcDbEntity
  8
Make2D$可见线$普通线
100
AcDbCircle
 10
28.00124902983839
 20
486.1323407503589
 30
0.0
 40
0.2350000000000136
  0
CIRCLE
  5
2C7
330
1F
100
AcDbEntity
  8
Make2D$可见线$普通线
100
AcDbCircle
 10
29.13261987973682
 20
486.6009699004604
 30
0.0
 40
0.2350000000000546
  0
CIRCLE
  5
2C8
330
1F
100
AcDbEntity
  8
Make2D$可见线$普通线
100
AcDbCircle
 10
30.0797099989211
 20
488.9323407503589
 30
0.0
 40
0.2349999999999867
  0
CIRCLE
  5
2C9
330
1F
100
AcDbEntity
  8
Make2D$可见线$普通线
100
AcDbCircle
 10
29.20124902983835
 20
489.8108017194415
 30
0.0
 40
0.2350000000000275
  0
CIRCLE
  5
2CA
330
1F
100
AcDbEntity
  8
Make2D$可见线$普通线
100
AcDbCircle
 10
28.00124902983839
 20
490.1323407503589
 30
0.0
 40
0.2349999999999568
  0
CIRCLE
  5
2CB
330
1F
100
AcDbEntity
  8
Make2D$可见线$普通线
100
AcDbCircle
 10
26.80124902983839
 20
489.8108017194415
 30
0.0
 40
0.2349999999999778
  0
CIRCLE
  5
2CC
330
1F
100
AcDbEntity
  8
Make2D$可见线$普通线
100
AcDbCircle
 10
25.92278806075581
 20
488.932340750359
 30
0.0
 40
0.2349999999999915
  0
CIRCLE
  5
2CD
330
1F
100
AcDbEntity
  8
Make2D$可见线$普通线
100
AcDbCircle
 10
25.60124902983847
 20
487.732340750359
 30
0.0
 40
0.2350000000000421
  0
CIRCLE
  5
2CE
330
1F
100
AcDbEntity
  8
Make2D$可见线$普通线
100
AcDbCircle
 10
25.92278806075562
 20
486.532340750359
 30
0.0
 40
0.2349999999999167
  0
CIRCLE
  5
2CF
330
1F
100
AcDbEntity
  8
Make2D$可见线$普通线
100
AcDbCircle
 10
26.80124902983846
 20
485.6538797812762
 30
0.0
 40
0.2350000000000133
  0
CIRCLE
  5
2D0
330
1F
100
AcDbEntity
  8
Make2D$可见线$普通线
100
AcDbCircle
 10
28.00124902983845
 20
485.3323407503589
 30
0.0
 40
0.2350000000000136
  0
CIRCLE
  5
2D1
330
1F
100
AcDbEntity
  8
Make2D$可见线$普通线
100
AcDbCircle
 10
29.20124902983845
 20
485.6538797812762
 30
0.0
 40
0.2349999999999285
  0
CIRCLE
  5
2D2
330
1F
100
AcDbEntity
  8
Make2D$可见线$普通线
100
AcDbCircle
 10
30.07970999892106
 20
486.5323407503589
 30
0.0
 40
0.2349999999999952
  0
CIRCLE
  5
2D3
330
1F
100
AcDbEntity
  8
Make2D$可见线$普通线
100
AcDbCircle
 10
30.95766353387452
 20
488.9569277339272
 30
0.0
 40
0.235000000000032
  0
CIRCLE
  5
2D4
330
1F
100
AcDbEntity
  8
Make2D$可见线$普通线
100
AcDbCircle
 10
30.26399072963534
 20
489.9950824501558
 30
0.0
 40
0.2350000000000244
  0
CIRCLE
  5
2D5
330
1F
100
AcDbEntity
  8
Make2D$可见线$普通线
100
AcDbCircle
 10
29.22583601340675
 20
490.6887552543951
 30
0.0
 40
0.2349999999999772
  0
CIRCLE
  5
2D6
330
1F
100
AcDbEntity
  8
Make2D$可见线$普通线
100
AcDbCircle
 10
28.00124902983846
 20
490.9323407503589
 30
0.0
 40
0.2350000000000136
  0
CIRCLE
  5
2D7
330
1F
100
AcDbEntity
  8
Make2D$可见线$普通线
100
AcDbCircle
 10
26.77666204627024
 20
490.6887552543951
 30
0.0
 40
0.2349999999999831
  0
CIRCLE
  5
2D8
330
1F
100
AcDbEntity
  8
Make2D$可见线$普通线
100
AcDbCircle
 10
25.7385073300415
 20
489.9950824501559
 30
0.0
 40
0.2349999999999842
  0
CIRCLE
  5
2D9
330
1F
100
AcDbEntity
  8
Make2D$可见线$普通线
100
AcDbCircle
 10
25.04483452580228
 20
488.9569277339272
 30
0.0
 40
0.2349999999999741
  0
CIRCLE
  5
2DA
330
1F
100
AcDbEntity
  8
Make2D$可见线$普通线
100
AcDbCircle
 10
24.80124902983843
 20
487.7323407503588
 30
0.0
 40
0.2350000000000101
  0
CIRCLE
  5
2DB
330
1F
100
AcDbEntity
  8
Make2D$可见线$普通线
100
AcDbCircle
 10
25.04483452580232
 20
486.5077537667907
 30
0.0
 40
0.2350000000000537
  0
CIRCLE
  5
2DC
330
1F
100
AcDbEntity
  8
Make2D$可见线$普通线
100
AcDbCircle
 10
25.73850733004147
 20
485.4695990505618
 30
0.0
 40
0.2349999999999214
  0
CIRCLE
  5
2DD
330
1F
100
AcDbEntity
  8
Make2D$可见线$普通线
100
AcDbCircle
 10
26.77666204627011
 20
484.7759262463229
 30
0.0
 40
0.2350000000000903
  0
CIRCLE
  5
2DE
330
1F
100
AcDbEntity
  8
Make2D$可见线$普通线
100
AcDbCircle
 10
28.00124902983839
 20
484.5323407503589
 30
0.0
 40
0.2350000000000136
  0
CIRCLE
  5
2DF
330
1F
100
AcDbEntity
  8
Make2D$可见线$普通线
100
AcDbCircle
 10
29.22583601340673
 20
484.7759262463227
 30
0.0
 40
0.2349999999999315
  0
CIRCLE
  5
2E0
330
1F
100
AcDbEntity
  8
Make2D$可见线$普通线
100
AcDbCircle
 10
30.26399072963536
 20
485.469599050562
 30
0.0
 40
0.2350000000000093
  0
CIRCLE
  5
2E1
330
1F
100
AcDbEntity
  8
Make2D$可见线$普通线
100
AcDbCircle
 10
30.95766353387454
 20
486.5077537667906
 30
0.0
 40
0.2350000000000123
  0
CIRCLE
  5
2E2
330
1F
100
AcDbEntity
  8
Make2D$可见线$普通线
100
AcDbCircle
 10
31.80547509501901
 20
488.9684087278586
 30
0.0
 40
0.235000000000077
  0
CIRCLE
  5
2E3
330
1F
100
AcDbEntity
  8
Make2D$可见线$普通线
100
AcDbCircle
 10
31.23731700733826
 20
490.0834817595287
 30
0.0
 40
0.2350000000000412
  0
CIRCLE
  5
2E4
330
1F
100
AcDbEntity
  8
Make2D$可见线$普通线
100
AcDbCircle
 10
30.35239003900824
 20
490.9684087278588
 30
0.0
 40
0.2349999999999675
  0
CIRCLE
  5
2E5
330
1F
100
AcDbEntity
  8
Make2D$可见线$普通线
100
AcDbCircle
 10
29.23731700733823
 20
491.5365668155394
 30
0.0
 40
0.2350000000000838
  0
CIRCLE
  5
2E6
330
1F
100
AcDbEntity
  8
Make2D$可见线$普通线
100
AcDbCircle
 10
28.00124902983833
 20
491.7323407503588
 30
0.0
 40
0.2350000000000705
  0
CIRCLE
  5
2E7
330
1F
100
AcDbEntity
  8
Make2D$可见线$普通线
100
AcDbCircle
 10
26.76518105233865
 20
491.5365668155396
 30
0.0
 40
0.2349999999999337
  0
CIRCLE
  5
2E8
330
1F
100
AcDbEntity
  8
Make2D$可见线$普通线
100
AcDbCircle
 10
25.65010802066848
 20
490.9684087278587
 30
0.0
 40
0.2349999999999425
  0
CIRCLE
  5
2E9
330
1F
100
AcDbEntity
  8
Make2D$可见线$普通线
100
AcDbCircle
 10
24.76518105233869
 20
490.083481759529
 30
0.0
 40
0.2349999999999603
  0
CIRCLE
  5
2EA
330
1F
100
AcDbEntity
  8
Make2D$可见线$普通线
100
AcDbCircle
 10
24.19702296465775
 20
488.9684087278587
 30
0.0
 40
0.2349999999999432
  0
CIRCLE
  5
2EB
330
1F
100
AcDbEntity
  8
Make2D$可见线$普通线
100
AcDbCircle
 10
24.00124902983839
 20
487.732340750359
 30
0.0
 40
0.2349999999999852
  0
CIRCLE
  5
2EC
330
1F
100
AcDbEntity
  8
Make2D$可见线$普通线
100
AcDbCircle
 10
24.19702296465782
 20
486.496272772859
 30
0.0
 40
0.234999999999979
  0
CIRCLE
  5
2ED
330
1F
100
AcDbEntity
  8
Make2D$可见线$普通线
100
AcDbCircle
 10
24.7651810523386
 20
485.381199741189
 30
0.0
 40
0.2349999999999916
  0
CIRCLE
  5
2EE
330
1F
100
AcDbEntity
  8
Make2D$可见线$普通线
100
AcDbCircle
 10
25.65010802066855
 20
484.4962727728592
 30
0.0
 40
0.2350000000000344
  0
CIRCLE
  5
2EF
330
1F
100
AcDbEntity
  8
Make2D$可见线$普通线
100
AcDbCircle
 10
26.76518105233859
 20
483.9281146851783
 30
0.0
 40
0.2349999999999702
  0
CIRCLE
  5
2F0
330
1F
100
AcDbEntity
  8
Make2D$可见线$普通线
100
AcDbCircle
 10
28.0012490298385
 20
483.732340750359
 30
0.0
 40
0.2350000000000705
  0
CIRCLE
  5
2F1
330
1F
100
AcDbEntity
  8
Make2D$可见线$普通线
100
AcDbCircle
 10
29.23731700733818
 20
483.9281146851783
 30
0.0
 40
0.2349999999999911
  0
CIRCLE
  5
2F2
330
1F
100
AcDbEntity
  8
Make2D$可见线$普通线
100
AcDbCircle
 10
30.35239003900823
 20
484.496272772859
 30
0.0
 40
0.2349999999999759
  0
CIRCLE
  5
2F3
330
1F
100
AcDbEntity
  8
Make2D$可见线$普通线
100
AcDbCircle
 10
31.23731700733821
 20
485.3811997411891
 30
0.0
 40
0.2350000000000785
  0
CIRCLE
  5
2F4
330
1F
100
AcDbEntity
  8
Make2D$可见线$普通线
100
AcDbCircle
 10
31.80547509501907
 20
486.4962727728591
 30
0.0
 40
0.2349999999999635
  0
CIRCLE
  5
2F5
330
1F
100
AcDbEntity
  8
Make2D$可见线$普通线
100
AcDbCircle
 10
32.63769299602598
 20
488.974672166851
 30
0.0
 40
0.2349999999999625
  0
CIRCLE
  5
2F6
330
1F
100
AcDbEntity
  8
Make2D$可见线$普通线
100
AcDbCircle
 10
32.15817096800371
 20
490.1323407503589
 30
0.0
 40
0.2349999999999891
  0
CIRCLE
  5
2F7
330
1F
100
AcDbEntity
  8
Make2D$可见线$普通线
100
AcDbCircle
 10
31.39536157953382
 20
491.1264533000544
 30
0.0
 40
0.2349999999999817
  0
CIRCLE
  5
2F8
330
1F
100
AcDbEntity
  8
Make2D$可见线$普通线
100
AcDbCircle
 10
30.40124902983841
 20
491.8892626885242
 30
0.0
 40
0.2350000000000062
  0
CIRCLE
  5
2F9
330
1F
100
AcDbEntity
  8
Make2D$可见线$普通线
100
AcDbCircle
 10
29.24358044633048
 20
492.3687847165465
 30
0.0
 40
0.2349999999999471
  0
CIRCLE
  5
2FA
330
1F
100
AcDbEntity
  8
Make2D$可见线$普通线
100
AcDbCircle
 10
28.00124902983845
 20
492.5323407503589
 30
0.0
 40
0.2350000000000136
  0
CIRCLE
  5
2FB
330
1F
100
AcDbEntity
  8
Make2D$可见线$普通线
100
AcDbCircle
 10
26.75891761334634
 20
492.3687847165464
 30
0.0
 40
0.2349999999999974
  0
CIRCLE
  5
2FC
330
1F
100
AcDbEntity
  8
Make2D$可见线$普通线
100
AcDbCircle
 10
25.6012490298384
 20
491.8892626885241
 30
0.0
 40
0.2350000000000904
  0
CIRCLE
  5
2FD
330
1F
100
AcDbEntity
  8
Make2D$可见线$普通线
100
AcDbCircle
 10
24.60713648014296
 20
491.1264533000543
 30
0.0
 40
0.2350000000000194
  0
CIRCLE
  5
2FE
330
1F
100
AcDbEntity
  8
Make2D$可见线$普通线
100
AcDbCircle
 10
23.84432709167316
 20
490.1323407503588
 30
0.0
 40
0.2350000000001052
  0
CIRCLE
  5
2FF
330
1F
100
AcDbEntity
  8
Make2D$可见线$普通线
100
AcDbCircle
 10
23.36480506365085
 20
488.9746721668509
 30
0.0
 40
0.2349999999999783
  0
CIRCLE
  5
300
330
1F
100
AcDbEntity
  8
Make2D$可见线$普通线
100
AcDbCircle
 10
23.20124902983838
 20
487.7323407503588
 30
0.0
 40
0.2349999999999568
  0
CIRCLE
  5
301
330
1F
100
AcDbEntity
  8
Make2D$可见线$普通线
100
AcDbCircle
 10
23.36480506365098
 20
486.4900093338668
 30
0.0
 40
0.2350000000000724
  0
CIRCLE
  5
302
330
1F
100
AcDbEntity
  8
Make2D$可见线$普通线
100
AcDbCircle
 10
23.84432709167308
 20
485.3323407503588
 30
0.0
 40
0.2349999999999207
  0
CIRCLE
  5
303
330
1F
100
AcDbEntity
  8
Make2D$可见线$普通线
100
AcDbCircle
 10
24.60713648014296
 20
484.3382282006636
 30
0.0
 40
0.2350000000000546
  0
CIRCLE
  5
304
330
1F
100
AcDbEntity
  8
Make2D$可见线$普通线
100
AcDbCircle
 10
25.60124902983841
 20
483.5754188121936
 30
0.0
 40
0.2349999999999481
  0
CIRCLE
  5
305
330
1F
100
AcDbEntity
  8
Make2D$可见线$普通线
100
AcDbCircle
 10
26.75891761334634
 20
483.0958967841714
 30
0.0
 40
0.2349999999999974
  0
CIRCLE
  5
306
330
1F
100
AcDbEntity
  8
Make2D$可见线$普通线
100
AcDbCircle
 10
28.00124902983839
 20
482.9323407503587
 30
0.0
 40
0.2349999999998431
  0
CIRCLE
  5
307
330
1F
100
AcDbEntity
  8
Make2D$可见线$普通线
100
AcDbCircle
 10
29.24358044633064
 20
483.0958967841714
 30
0.0
 40
0.2349999999999606
  0
CIRCLE
  5
308
330
1F
100
AcDbEntity
  8
Make2D$可见线$普通线
100
AcDbCircle
 10
30.40124902983841
 20
483.5754188121936
 30
0.0
 40
0.2350000000000062
  0
CIRCLE
  5
309
330
1F
100
AcDbEntity
  8
Make2D$可见线$普通线
100
AcDbCircle
 10
31.39536157953383
 20
484.3382282006635
 30
0.0
 40
0.2350000000000143
  0
CIRCLE
  5
30A
330
1F
100
AcDbEntity
  8
Make2D$可见线$普通线
100
AcDbCircle
 10
32.15817096800374
 20
485.3323407503589
 30
0.0
 40
0.2349999999999645
  0
CIRCLE
  5
30B
330
1F
100
AcDbEntity
  8
Make2D$可见线$普通线
100
AcDbCircle
 10
32.63769299602595
 20
486.4900093338669
 30
0.0
 40
0.2350000000000194
  0
CIRCLE
  5
30C
330
1F
100
AcDbEntity
  8
Make2D$可见线$普通线
100
AcDbCircle
 10
33.46084533805663
 20
488.9784579805144
 30
0.0
 40
0.2349999999999757
  0
CIRCLE
  5
30D
330
1F
100
AcDbEntity
  8
Make2D$可见线$普通线
100
AcDbCircle
 10
33.04667469009194
 20
490.1620896894173
 30
0.0
 40
0.2350000000000118
  0
CIRCLE
  5
30E
330
1F
100
AcDbEntity
  8
Make2D$可见线$普通线
100
AcDbCircle
 10
32.3795053316593
 20
491.2238836407679
 30
0.0
 40
0.2350000000000138
  0
CIRCLE
  5
30F
330
1F
100
AcDbEntity
  8
Make2D$可见线$普通线
100
AcDbCircle
 10
31.49279192024732
 20
492.1105970521799
 30
0.0
 40
0.2349999999999937
  0
CIRCLE
  5
310
330
1F
100
AcDbEntity
  8
Make2D$可见线$普通线
100
AcDbCircle
 10
30.43099796889672
 20
492.7777664106124
 30
0.0
 40
0.2350000000000557
  0
CIRCLE
  5
311
330
1F
100
AcDbEntity
  8
Make2D$可见线$普通线
100
AcDbCircle
 10
29.2473662599938
 20
493.191937058577
 30
0.0
 40
0.2350000000001482
  0
CIRCLE
  5
312
330
1F
100
AcDbEntity
  8
Make2D$可见线$普通线
100
AcDbCircle
 10
28.0012490298385
 20
493.332340750359
 30
0.0
 40
0.2349999999999
  0
CIRCLE
  5
313
330
1F
100
AcDbEntity
  8
Make2D$可见线$普通线
100
AcDbCircle
 10
26.75513179968313
 20
493.1919370585771
 30
0.0
 40
0.2350000000000018
  0
CIRCLE
  5
314
330
1F
100
AcDbEntity
  8
Make2D$可见线$普通线
100
AcDbCircle
 10
25.57150009078017
 20
492.7777664106125
 30
0.0
 40
0.2349999999999733
  0
CIRCLE
  5
315
330
1F
100
AcDbEntity
  8
Make2D$可见线$普通线
100
AcDbCircle
 10
24.50970613942964
 20
492.1105970521799
 30
0.0
 40
0.2350000000000667
  0
CIRCLE
  5
316
330
1F
100
AcDbEntity
  8
Make2D$可见线$普通线
100
AcDbCircle
 10
23.62299272801744
 20
491.2238836407677
 30
0.0
 40
0.2350000000000834
  0
CIRCLE
  5
317
330
1F
100
AcDbEntity
  8
Make2D$可见线$普通线
100
AcDbCircle
 10
22.95582336958492
 20
490.1620896894172
 30
0.0
 40
0.2350000000000804
  0
CIRCLE
  5
318
330
1F
100
AcDbEntity
  8
Make2D$可见线$普通线
100
AcDbCircle
 10
22.54165272162027
 20
488.9784579805144
 30
0.0
 40
0.2350000000000311
  0
CIRCLE
  5
319
330
1F
100
AcDbEntity
  8
Make2D$可见线$普通线
100
AcDbCircle
 10
22.4012490298384
 20
487.7323407503588
 30
0.0
 40
0.2349999999999852
  0
CIRCLE
  5
31A
330
1F
100
AcDbEntity
  8
Make2D$可见线$普通线
100
AcDbCircle
 10
22.54165272162016
 20
486.4862235202035
 30
0.0
 40
0.2349999999999399
  0
CIRCLE
  5
31B
330
1F
100
AcDbEntity
  8
Make2D$可见线$普通线
100
AcDbCircle
 10
22.9558233695849
 20
485.3025918113006
 30
0.0
 40
0.2350000000000397
  0
CIRCLE
  5
31C
330
1F
100
AcDbEntity
  8
Make2D$可见线$普通线
100
AcDbCircle
 10
23.62299272801743
 20
484.24079785995
 30
0.0
 40
0.2350000000000042
  0
CIRCLE
  5
31D
330
1F
100
AcDbEntity
  8
Make2D$可见线$普通线
100
AcDbCircle
 10
24.50970613942948
 20
483.3540844485379
 30
0.0
 40
0.2350000000000159
  0
CIRCLE
  5
31E
330
1F
100
AcDbEntity
  8
Make2D$可见线$普通线
100
AcDbCircle
 10
25.57150009078009
 20
482.6869150901053
 30
0.0
 40
0.2349999999999409
  0
CIRCLE
  5
31F
330
1F
100
AcDbEntity
  8
Make2D$可见线$普通线
100
AcDbCircle
 10
26.75513179968311
 20
482.2727444421406
 30
0.0
 40
0.2349999999999432
  0
CIRCLE
  5
320
330
1F
100
AcDbEntity
  8
Make2D$可见线$普通线
100
AcDbCircle
 10
28.0012490298385
 20
482.1323407503588
 30
0.0
 40
0.2349999999999
  0
CIRCLE
  5
321
330
1F
100
AcDbEntity
  8
Make2D$可见线$普通线
100
AcDbCircle
 10
29.24736625999376
 20
482.2727444421407
 30
0.0
 40
0.2350000000000469
  0
CIRCLE
  5
322
330
1F
100
AcDbEntity
  8
Make2D$可见线$普通线
100
AcDbCircle
 10
30.43099796889686
 20
482.6869150901054
 30
0.0
 40
0.234999999999994
  0
CIRCLE
  5
323
330
1F
100
AcDbEntity
  8
Make2D$可见线$普通线
100
AcDbCircle
 10
31.49279192024734
 20
483.3540844485379
 30
0.0
 40
0.2349999999999826
  0
CIRCLE
  5
324
330
1F
100
AcDbEntity
  8
Make2D$可见线$普通线
100
AcDbCircle
 10
32.37950533165932
 20
484.2407978599499
 30
0.0
 40
0.2350000000000027
  0
CIRCLE
  5
325
330
1F
100
AcDbEntity
  8
Make2D$可见线$普通线
100
AcDbCircle
 10
33.04667469009195
 20
485.3025918113006
 30
0.0
 40
0.2350000000000301
  0
CIRCLE
  5
326
330
1F
100
AcDbEntity
  8
Make2D$可见线$普通线
100
AcDbCircle
 10
33.46084533805657
 20
486.4862235202036
 30
0.0
 40
0.2350000000000818
  0
CIRCLE
  5
327
330
1F
100
AcDbEntity
  8
Make2D$可见线$普通线
100
AcDbCircle
 10
34.27827482441911
 20
488.9809188112623
 30
0.0
 40
0.2349999999999692
  0
CIRCLE
  5
328
330
1F
100
AcDbEntity
  8
Make2D$可见线$普通线
100
AcDbCircle
 10
33.91407803791061
 20
490.1815147174955
 30
0.0
 40
0.2350000000000016
  0
CIRCLE
  5
329
330
1F
100
AcDbEntity
  8
Make2D$可见线$普通线
100
AcDbCircle
 10
33.32265454857463
 20
491.2879902416843
 30
0.0
 40
0.2350000000000712
  0
CIRCLE
  5
32A
330
1F
100
AcDbEntity
  8
Make2D$可见线$普通线
100
AcDbCircle
 10
32.5267324294323
 20
492.2578241499529
 30
0.0
 40
0.234999999999934
  0
CIRCLE
  5
32B
330
1F
100
AcDbEntity
  8
Make2D$可见线$普通线
100
AcDbCircle
 10
31.55689852116384
 20
493.0537462690952
 30
0.0
 40
0.2350000000000397
  0
CIRCLE
  5
32C
330
1F
100
AcDbEntity
  8
Make2D$可见线$普通线
100
AcDbCircle
 10
30.45042299697499
 20
493.6451697584312
 30
0.0
 40
0.2349999999999423
  0
CIRCLE
  5
32D
330
1F
100
AcDbEntity
  8
Make2D$可见线$普通线
100
AcDbCircle
 10
29.24982709074169
 20
494.0093665449396
 30
0.0
 40
0.2350000000000262
  0
CIRCLE
  5
32E
330
1F
100
AcDbEntity
  8
Make2D$可见线$普通线
100
AcDbCircle
 10
28.00124902983839
 20
494.1323407503589
 30
0.0
 40
0.2349999999999568
  0
CIRCLE
  5
32F
330
1F
100
AcDbEntity
  8
Make2D$可见线$普通线
100
AcDbCircle
 10
26.75267096893524
 20
494.0093665449396
 30
0.0
 40
0.2350000000000387
  0
CIRCLE
  5
330
330
1F
100
AcDbEntity
  8
Make2D$可见线$普通线
100
AcDbCircle
 10
25.55207506270191
 20
493.6451697584312
 30
0.0
 40
0.2349999999999682
  0
CIRCLE
  5
331
330
1F
100
AcDbEntity
  8
Make2D$可见线$普通线
100
AcDbCircle
 10
24.44559953851296
 20
493.0537462690952
 30
0.0
 40
0.235000000000022
  0
CIRCLE
  5
332
330
1F
100
AcDbEntity
  8
Make2D$可见线$普通线
100
AcDbCircle
 10
23.4757656302445
 20
492.2578241499529
 30
0.0
 40
0.234999999999944
  0
CIRCLE
  5
333
330
1F
100
AcDbEntity
  8
Make2D$可见线$普通线
100
AcDbCircle
 10
22.67984351110216
 20
491.2879902416843
 30
0.0
 40
0.2350000000000299
  0
CIRCLE
  5
334
330
1F
100
AcDbEntity
  8
Make2D$可见线$普通线
100
AcDbCircle
 10
22.08842002176613
 20
490.1815147174952
 30
0.0
 40
0.2350000000000468
  0
CIRCLE
  5
335
330
1F
100
AcDbEntity
  8
Make2D$可见线$普通线
100
AcDbCircle
 10
21.72422323525775
 20
488.980918811262
 30
0.0
 40
0.2350000000000386
  0
CIRCLE
  5
336
330
1F
100
AcDbEntity
  8
Make2D$可见线$普通线
100
AcDbCircle
 10
21.60124902983843
 20
487.7323407503587
 30
0.0
 40
0.2349999999999994
  0
CIRCLE
  5
337
330
1F
100
AcDbEntity
  8
Make2D$可见线$普通线
100
AcDbCircle
 10
21.72422323525765
 20
486.4837626894556
 30
0.0
 40
0.2349999999998967
  0
CIRCLE
  5
338
330
1F
100
AcDbEntity
  8
Make2D$可见线$普通线
100
AcDbCircle
 10
22.0884200217662
 20
485.2831667832223
 30
0.0
 40
0.2349999999999819
  0
CIRCLE
  5
339
330
1F
100
AcDbEntity
  8
Make2D$可见线$普通线
100
AcDbCircle
 10
22.67984351110211
 20
484.1766912590335
 30
0.0
 40
0.2350000000000201
  0
CIRCLE
  5
33A
330
1F
100
AcDbEntity
  8
Make2D$可见线$普通线
100
AcDbCircle
 10
23.47576563024457
 20
483.2068573507649
 30
0.0
 40
0.2349999999999541
  0
CIRCLE
  5
33B
330
1F
100
AcDbEntity
  8
Make2D$可见线$普通线
100
AcDbCircle
 10
24.44559953851294
 20
482.4109352316227
 30
0.0
 40
0.2350000000000574
  0
CIRCLE
  5
33C
330
1F
100
AcDbEntity
  8
Make2D$可见线$普通线
100
AcDbCircle
 10
25.55207506270187
 20
481.8195117422866
 30
0.0
 40
0.2349999999999007
  0
CIRCLE
  5
33D
330
1F
100
AcDbEntity
  8
Make2D$可见线$普通线
100
AcDbCircle
 10
26.7526709689351
 20
481.4553149557783
 30
0.0
 40
0.235000000000073
  0
CIRCLE
  5
33E
330
1F
100
AcDbEntity
  8
Make2D$可见线$普通线
100
AcDbCircle
 10
28.00124902983868
 20
481.3323407503588
 30
0.0
 40
0.2349999999998431
  0
CIRCLE
  5
33F
330
1F
100
AcDbEntity
  8
Make2D$可见线$普通线
100
AcDbCircle
 10
29.24982709074169
 20
481.4553149557782
 30
0.0
 40
0.2350000000000262
  0
CIRCLE
  5
340
330
1F
100
AcDbEntity
  8
Make2D$可见线$普通线
100
AcDbCircle
 10
30.4504229969749
 20
481.8195117422866
 30
0.0
 40
0.2350000000000315
  0
CIRCLE
  5
341
330
1F
100
AcDbEntity
  8
Make2D$可见线$普通线
100
AcDbCircle
 10
31.55689852116383
 20
482.4109352316226
 30
0.0
 40
0.2350000000000496
  0
CIRCLE
  5
342
330
1F
100
AcDbEntity
  8
Make2D$可见线$普通线
100
AcDbCircle
 10
32.5267324294323
 20
483.2068573507649
 30
0.0
 40
0.2349999999999742
  0
CIRCLE
  5
343
330
1F
100
AcDbEntity
  8
Make2D$可见线$普通线
100
AcDbCircle
 10
33.32265454857463
 20
484.1766912590335
 30
0.0
 40
0.2350000000000712
  0
CIRCLE
  5
344
330
1F
100
AcDbEntity
  8
Make2D$可见线$普通线
100
AcDbCircle
 10
33.91407803791066
 20
485.2831667832223
 30
0.0
 40
0.2349999999999622
  0
CIRCLE
  5
345
330
1F
100
AcDbEntity
  8
Make2D$可见线$普通线
100
AcDbCircle
 10
34.27827482441904
 20
486.4837626894557
 30
0.0
 40
0.2350000000000652
  0
CIRCLE
  5
346
330
1F
100
AcDbEntity
  8
Make2D$可见线$普通线
100
AcDbCircle
 10
28.00124902983845
 20
487.7323407503588
 30
0.0
 40
0.2349999999999817
  0
CIRCLE
  5
347
330
1F
100
AcDbEntity
  8
Make2D$可见线$普通线
100
AcDbCircle
 10
28.00124902983842
 20
487.7323407503588
 30
0.0
 40
8.0
  0
CIRCLE
  5
348
330
1F
100
AcDbEntity
  8
Make2D$可见线$普通线
100
AcDbCircle
 10
28.00124902983845
 20
487.7323407503588
 30
0.0
 40
6.999999999999972
  0
ENDSEC
  0
SECTION
  2
OBJECTS
  0
DICTIONARY
  5
C
330
0
100
AcDbDictionary
281
     1
  3
ACAD_GROUP
350
D
  3
ACAD_LAYOUT
350
1A
  3
ACAD_MATERIAL
350
3B
  3
ACAD_MLEADERSTYLE
350
373
  3
ACAD_MLINESTYLE
350
17
  3
ACAD_PLOTSETTINGS
350
19
  3
ACAD_PLOTSTYLENAME
350
E
  3
ACAD_SCALELIST
350
3F
  3
ACAD_TABLESTYLE
350
372
  3
ACAD_VISUALSTYLE
350
2A
  3
AcDbVariableDictionary
350
349
  0
DICTIONARY
  5
D
102
{ACAD_REACTORS
330
C
102
}
330
C
100
AcDbDictionary
281
     1
  0
DICTIONARY
  5
1A
102
{ACAD_REACTORS
330
C
102
}
330
C
100
AcDbDictionary
281
     1
  3
Layout1
350
1E
  3
Layout2
350
26
  3
Model
350
22
  0
DICTIONARY
  5
3B
102
{ACAD_REACTORS
330
C
102
}
330
C
100
AcDbDictionary
281
     1
  3
ByBlock
350
3D
  3
ByLayer
350
3C
  3
Global
350
3E
  0
DICTIONARY
  5
373
102
{ACAD_REACTORS
330
C
102
}
330
C
100
AcDbDictionary
281
     1
  0
DICTIONARY
  5
17
102
{ACAD_REACTORS
330
C
102
}
330
C
100
AcDbDictionary
281
     1
  3
Standard
350
18
  0
DICTIONARY
  5
19
102
{ACAD_REACTORS
330
C
102
}
330
C
100
AcDbDictionary
281
     1
  0
ACDBDICTIONARYWDFLT
  5
E
102
{ACAD_REACTORS
330
C
102
}
330
C
100
AcDbDictionary
281
     1
  3
Normal
350
F
100
AcDbDictionaryWithDefault
340
F
  0
DICTIONARY
  5
3F
102
{ACAD_REACTORS
330
C
102
}
330
C
100
AcDbDictionary
281
     1
  3
A0
350
40
  3
A1
350
41
  3
A2
350
42
  3
A3
350
43
  3
A4
350
44
  3
A5
350
45
  3
A6
350
46
  3
A7
350
47
  3
A8
350
48
  3
A9
350
49
  3
B0
350
4A
  3
B1
350
4B
  3
B2
350
4C
  3
B3
350
4D
  3
B4
350
4E
  3
B5
350
4F
  3
B6
350
50
  3
B7
350
51
  3
B8
350
52
  3
B9
350
53
  3
C0
350
54
  3
C1
350
55
  3
C2
350
56
  3
C3
350
57
  3
C4
350
58
  3
C5
350
59
  3
C6
350
5A
  3
C7
350
5B
  3
C8
350
5C
  3
C9
350
5D
  3
D0
350
5E
  3
D1
350
5F
  3
D2
350
60
  0
DICTIONARY
  5
372
102
{ACAD_REACTORS
330
C
102
}
330
C
100
AcDbDictionary
281
     1
  0
DICTIONARY
  5
2A
102
{ACAD_REACTORS
330
C
102
}
330
C
100
AcDbDictionary
281
     1
  3
2dWireframe
350
2F
  3
3D Hidden
350
31
  3
3dWireframe
350
30
  3
Basic
350
32
  3
Brighten
350
36
  3
ColorChange
350
3A
  3
Conceptual
350
34
  3
Dim
350
35
  3
Facepattern
350
39
  3
Flat
350
2B
  3
FlatWithEdges
350
2C
  3
Gouraud
350
2D
  3
GouraudWithEdges
350
2E
  3
Linepattern
350
38
  3
Realistic
350
33
  3
Thicken
350
37
  0
DICTIONARY
  5
349
102
{ACAD_REACTORS
330
C
102
}
330
C
100
AcDbDictionary
281
     1
  3
CANNOSCALE
350
34A
  3
MSLTSCALE
350
34B
  0
LAYOUT
  5
1E
102
{ACAD_REACTORS
330
1A
102
}
330
1A
100
AcDbPlotSettings
  1

  2
none_device
  4

  6

 40
0.0
 41
0.0
 42
0.0
 43
0.0
 44
0.0
 45
0.0
 46
0.0
 47
0.0
 48
0.0
 49
0.0
140
0.0
141
0.0
142
1.0
143
1.0
 70
   688
 72
     0
 73
     0
 74
     5
  7

 75
    16
 76
     0
 77
     2
 78
   300
147
1.0
148
0.0
149
0.0
100
AcDbLayout
  1
Layout1
 70
     1
 71
     1
 10
0.0
 20
0.0
 11
12.0
 21
9.0
 12
0.0
 22
0.0
 32
0.0
 14
1.000000000000000E+20
 24
1.000000000000000E+20
 34
1.000000000000000E+20
 15
-1.000000000000000E+20
 25
-1.000000000000000E+20
 35
-1.000000000000000E+20
146
0.0
 13
0.0
 23
0.0
 33
0.0
 16
1.0
 26
0.0
 36
0.0
 17
0.0
 27
1.0
 37
0.0
 76
     0
330
1B
  0
LAYOUT
  5
26
102
{ACAD_REACTORS
330
1A
102
}
330
1A
100
AcDbPlotSettings
  1

  2
none_device
  4

  6

 40
0.0
 41
0.0
 42
0.0
 43
0.0
 44
0.0
 45
0.0
 46
0.0
 47
0.0
 48
0.0
 49
0.0
140
0.0
141
0.0
142
1.0
143
1.0
 70
   688
 72
     0
 73
     0
 74
     5
  7

 75
    16
 76
     0
 77
     2
 78
   300
147
1.0
148
0.0
149
0.0
100
AcDbLayout
  1
Layout2
 70
     1
 71
     2
 10
0.0
 20
0.0
 11
0.0
 21
0.0
 12
0.0
 22
0.0
 32
0.0
 14
0.0
 24
0.0
 34
0.0
 15
0.0
 25
0.0
 35
0.0
146
0.0
 13
0.0
 23
0.0
 33
0.0
 16
1.0
 26
0.0
 36
0.0
 17
0.0
 27
1.0
 37
0.0
 76
     0
330
23
  0
LAYOUT
  5
22
102
{ACAD_REACTORS
330
1A
102
}
330
1A
100
AcDbPlotSettings
  1

  2
none_device
  4
Letter_(8.50_x_11.00_Inches)
  6

 40
6.35
 41
6.35
 42
6.35000508
 43
6.35000508
 44
215.9
 45
279.4
 46
0.0
 47
0.0
 48
0.0
 49
0.0
140
0.0
141
0.0
142
1.0
143
1.0
 70
  1712
 72
     0
 73
     0
 74
     0
  7

 75
     0
 76
     0
 77
     2
 78
   300
147
1.0
148
0.0
149
0.0
100
AcDbLayout
  1
Model
 70
     1
 71
     0
 10
0.0
 20
0.0
 11
12.0
 21
9.0
 12
0.0
 22
0.0
 32
0.0
 14
0.0000000939461708
 24
394.7323377921602
 34
0.0
 15
60.69294517991648
 25
539.0207407242247
 35
0.0
146
0.0
 13
0.0
 23
0.0
 33
0.0
 16
1.0
 26
0.0
 36
0.0
 17
0.0
 27
1.0
 37
0.0
 76
     0
330
1F
331
29
  0
MATERIAL
  5
3D
102
{ACAD_REACTORS
330
3B
102
}
102
{ACAD_XDICTIONARY
360
36E
102
}
330
3B
100
AcDbMaterial
  1
ByBlock
  0
MATERIAL
  5
3C
102
{ACAD_REACTORS
330
3B
102
}
102
{ACAD_XDICTIONARY
360
36C
102
}
330
3B
100
AcDbMaterial
  1
ByLayer
  0
MATERIAL
  5
3E
102
{ACAD_REACTORS
330
3B
102
}
102
{ACAD_XDICTIONARY
360
370
102
}
330
3B
100
AcDbMaterial
  1
Global
  0
MLINESTYLE
  5
18
102
{ACAD_REACTORS
330
17
102
}
330
17
100
AcDbMlineStyle
  2
Standard
 70
     0
  3

 62
   256
 51
90.0
 52
90.0
 71
     2
 49
0.5
 62
   256
  6
BYLAYER
 49
-0.5
 62
   256
  6
BYLAYER
  0
ACDBPLACEHOLDER
  5
F
102
{ACAD_REACTORS
330
E
102
}
330
E
  0
SCALE
  5
40
102
{ACAD_REACTORS
330
3F
102
}
330
3F
100
AcDbScale
 70
     0
300
1:1
140
1.0
141
1.0
290
     1
  0
SCALE
  5
41
102
{ACAD_REACTORS
330
3F
102
}
330
3F
100
AcDbScale
 70
     0
300
1:2
140
1.0
141
2.0
290
     0
  0
SCALE
  5
42
102
{ACAD_REACTORS
330
3F
102
}
330
3F
100
AcDbScale
 70
     0
300
1:4
140
1.0
141
4.0
290
     0
  0
SCALE
  5
43
102
{ACAD_REACTORS
330
3F
102
}
330
3F
100
AcDbScale
 70
     0
300
1:5
140
1.0
141
5.0
290
     0
  0
SCALE
  5
44
102
{ACAD_REACTORS
330
3F
102
}
330
3F
100
AcDbScale
 70
     0
300
1:8
140
1.0
141
8.0
290
     0
  0
SCALE
  5
45
102
{ACAD_REACTORS
330
3F
102
}
330
3F
100
AcDbScale
 70
     0
300
1:10
140
1.0
141
10.0
290
     0
  0
SCALE
  5
46
102
{ACAD_REACTORS
330
3F
102
}
330
3F
100
AcDbScale
 70
     0
300
1:16
140
1.0
141
16.0
290
     0
  0
SCALE
  5
47
102
{ACAD_REACTORS
330
3F
102
}
330
3F
100
AcDbScale
 70
     0
300
1:20
140
1.0
141
20.0
290
     0
  0
SCALE
  5
48
102
{ACAD_REACTORS
330
3F
102
}
330
3F
100
AcDbScale
 70
     0
300
1:30
140
1.0
141
30.0
290
     0
  0
SCALE
  5
49
102
{ACAD_REACTORS
330
3F
102
}
330
3F
100
AcDbScale
 70
     0
300
1:40
140
1.0
141
40.0
290
     0
  0
SCALE
  5
4A
102
{ACAD_REACTORS
330
3F
102
}
330
3F
100
AcDbScale
 70
     0
300
1:50
140
1.0
141
50.0
290
     0
  0
SCALE
  5
4B
102
{ACAD_REACTORS
330
3F
102
}
330
3F
100
AcDbScale
 70
     0
300
1:100
140
1.0
141
100.0
290
     0
  0
SCALE
  5
4C
102
{ACAD_REACTORS
330
3F
102
}
330
3F
100
AcDbScale
 70
     0
300
2:1
140
2.0
141
1.0
290
     0
  0
SCALE
  5
4D
102
{ACAD_REACTORS
330
3F
102
}
330
3F
100
AcDbScale
 70
     0
300
4:1
140
4.0
141
1.0
290
     0
  0
SCALE
  5
4E
102
{ACAD_REACTORS
330
3F
102
}
330
3F
100
AcDbScale
 70
     0
300
8:1
140
8.0
141
1.0
290
     0
  0
SCALE
  5
4F
102
{ACAD_REACTORS
330
3F
102
}
330
3F
100
AcDbScale
 70
     0
300
10:1
140
10.0
141
1.0
290
     0
  0
SCALE
  5
50
102
{ACAD_REACTORS
330
3F
102
}
330
3F
100
AcDbScale
 70
     0
300
100:1
140
100.0
141
1.0
290
     0
  0
SCALE
  5
51
102
{ACAD_REACTORS
330
3F
102
}
330
3F
100
AcDbScale
 70
     0
300
1/128" = 1'-0"
140
0.0078125
141
12.0
290
     0
  0
SCALE
  5
52
102
{ACAD_REACTORS
330
3F
102
}
330
3F
100
AcDbScale
 70
     0
300
1/64" = 1'-0"
140
0.015625
141
12.0
290
     0
  0
SCALE
  5
53
102
{ACAD_REACTORS
330
3F
102
}
330
3F
100
AcDbScale
 70
     0
300
1/32" = 1'-0"
140
0.03125
141
12.0
290
     0
  0
SCALE
  5
54
102
{ACAD_REACTORS
330
3F
102
}
330
3F
100
AcDbScale
 70
     0
300
1/16" = 1'-0"
140
0.0625
141
12.0
290
     0
  0
SCALE
  5
55
102
{ACAD_REACTORS
330
3F
102
}
330
3F
100
AcDbScale
 70
     0
300
3/32" = 1'-0"
140
0.09375
141
12.0
290
     0
  0
SCALE
  5
56
102
{ACAD_REACTORS
330
3F
102
}
330
3F
100
AcDbScale
 70
     0
300
1/8" = 1'-0"
140
0.125
141
12.0
290
     0
  0
SCALE
  5
57
102
{ACAD_REACTORS
330
3F
102
}
330
3F
100
AcDbScale
 70
     0
300
3/16" = 1'-0"
140
0.1875
141
12.0
290
     0
  0
SCALE
  5
58
102
{ACAD_REACTORS
330
3F
102
}
330
3F
100
AcDbScale
 70
     0
300
1/4" = 1'-0"
140
0.25
141
12.0
290
     0
  0
SCALE
  5
59
102
{ACAD_REACTORS
330
3F
102
}
330
3F
100
AcDbScale
 70
     0
300
3/8" = 1'-0"
140
0.375
141
12.0
290
     0
  0
SCALE
  5
5A
102
{ACAD_REACTORS
330
3F
102
}
330
3F
100
AcDbScale
 70
     0
300
1/2" = 1'-0"
140
0.5
141
12.0
290
     0
  0
SCALE
  5
5B
102
{ACAD_REACTORS
330
3F
102
}
330
3F
100
AcDbScale
 70
     0
300
3/4" = 1'-0"
140
0.75
141
12.0
290
     0
  0
SCALE
  5
5C
102
{ACAD_REACTORS
330
3F
102
}
330
3F
100
AcDbScale
 70
     0
300
1" = 1'-0"
140
1.0
141
12.0
290
     0
  0
SCALE
  5
5D
102
{ACAD_REACTORS
330
3F
102
}
330
3F
100
AcDbScale
 70
     0
300
1-1/2" = 1'-0"
140
1.5
141
12.0
290
     0
  0
SCALE
  5
5E
102
{ACAD_REACTORS
330
3F
102
}
330
3F
100
AcDbScale
 70
     0
300
3" = 1'-0"
140
3.0
141
12.0
290
     0
  0
SCALE
  5
5F
102
{ACAD_REACTORS
330
3F
102
}
330
3F
100
AcDbScale
 70
     0
300
6" = 1'-0"
140
6.0
141
12.0
290
     0
  0
SCALE
  5
60
102
{ACAD_REACTORS
330
3F
102
}
330
3F
100
AcDbScale
 70
     0
300
1'-0" = 1'-0"
140
12.0
141
12.0
290
     0
  0
VISUALSTYLE
  5
2F
102
{ACAD_REACTORS
330
2A
102
}
102
{ACAD_XDICTIONARY
360
354
102
}
330
2A
100
AcDbVisualStyle
  2
2dWireframe
 70
     4
 71
     0
 72
     2
 73
     0
 90
        0
 40
0.6
 41
30.0
 62
     5
 63
     7
421
 16777215
 74
     1
 91
        4
 64
     7
 65
   257
 75
     1
175
     1
 42
1.0
 92
        0
 66
   257
 43
1.0
 76
     1
 77
     6
 78
     2
 67
     7
 79
     5
170
     0
171
     0
290
     0
174
     0
 93
        1
 44
0.0
173
     0
291
     0
 45
0.0
1001
ACAD
1000
AcDbSavedByObjectVersion
1070
     0
  0
VISUALSTYLE
  5
31
102
{ACAD_REACTORS
330
2A
102
}
102
{ACAD_XDICTIONARY
360
358
102
}
330
2A
100
AcDbVisualStyle
  2
3D Hidden
 70
     6
 71
     1
 72
     2
 73
     2
 90
        0
 40
0.6
 41
30.0
 62
     5
 63
     7
421
 16777215
 74
     2
 91
        2
 64
     7
 65
   257
 75
     2
175
     1
 42
40.0
 92
        0
 66
   257
 43
1.0
 76
     1
 77
     6
 78
     2
 67
     7
 79
     3
170
     0
171
     0
290
     0
174
     0
 93
        1
 44
0.0
173
     0
291
     0
 45
0.0
1001
ACAD
1000
AcDbSavedByObjectVersion
1070
     0
  0
VISUALSTYLE
  5
30
102
{ACAD_REACTORS
330
2A
102
}
102
{ACAD_XDICTIONARY
360
356
102
}
330
2A
100
AcDbVisualStyle
  2
3dWireframe
 70
     5
 71
     0
 72
     2
 73
     0
 90
        0
 40
0.6
 41
30.0
 62
     5
 63
     7
421
 16777215
 74
     1
 91
        4
 64
     7
 65
   257
 75
     1
175
     1
 42
1.0
 92
        0
 66
   257
 43
1.0
 76
     1
 77
     6
 78
     2
 67
     7
 79
     5
170
     0
171
     0
290
     0
174
     0
 93
        1
 44
0.0
173
     0
291
     0
 45
0.0
1001
ACAD
1000
AcDbSavedByObjectVersion
1070
     0
  0
VISUALSTYLE
  5
32
102
{ACAD_REACTORS
330
2A
102
}
102
{ACAD_XDICTIONARY
360
35A
102
}
330
2A
100
AcDbVisualStyle
  2
Basic
 70
     7
 71
     1
 72
     0
 73
     1
 90
        0
 40
0.6
 41
30.0
 62
     5
 63
     7
421
 16777215
 74
     0
 91
        4
 64
     7
 65
   257
 75
     1
175
     1
 42
1.0
 92
        8
 66
     7
 43
1.0
 76
     1
 77
     6
 78
     2
 67
     7
 79
     5
170
     0
171
     0
290
     0
174
     0
 93
        1
 44
0.0
173
     0
291
     1
 45
0.0
1001
ACAD
1000
AcDbSavedByObjectVersion
1070
     0
  0
VISUALSTYLE
  5
36
102
{ACAD_REACTORS
330
2A
102
}
102
{ACAD_XDICTIONARY
360
362
102
}
330
2A
100
AcDbVisualStyle
  2
Brighten
 70
    12
 71
     2
 72
     2
 73
     0
 90
        0
 40
0.6
 41
30.0
 62
     5
 63
     7
421
 16777215
 74
     1
 91
        4
 64
     7
 65
   257
 75
     1
175
     1
 42
1.0
 92
        8
 66
     7
 43
1.0
 76
     1
 77
     6
 78
     2
 67
     7
 79
     5
170
     0
171
     0
290
     0
174
     0
 93
        1
 44
50.0
173
     0
291
     1
 45
0.0
1001
ACAD
1000
AcDbSavedByObjectVersion
1070
     0
  0
VISUALSTYLE
  5
3A
102
{ACAD_REACTORS
330
2A
102
}
102
{ACAD_XDICTIONARY
360
36A
102
}
330
2A
100
AcDbVisualStyle
  2
ColorChange
 70
    16
 71
     2
 72
     2
 73
     3
 90
        0
 40
0.6
 41
30.0
 62
     5
 63
     8
421
  8421504
 74
     1
 91
        4
 64
     7
 65
   257
 75
     1
175
     1
 42
1.0
 92
        8
 66
     8
424
  8421504
 43
1.0
 76
     1
 77
     6
 78
     2
 67
     7
 79
     5
170
     0
171
     0
290
     0
174
     0
 93
        1
 44
0.0
173
     0
291
     1
 45
0.0
1001
ACAD
1000
AcDbSavedByObjectVersion
1070
     0
  0
VISUALSTYLE
  5
34
102
{ACAD_REACTORS
330
2A
102
}
102
{ACAD_XDICTIONARY
360
35E
102
}
330
2A
100
AcDbVisualStyle
  2
Conceptual
 70
     9
 71
     3
 72
     2
 73
     0
 90
        0
 40
0.6
 41
30.0
 62
     5
 63
     7
421
 16777215
 74
     2
 91
        2
 64
     7
 65
   257
 75
     1
175
     1
 42
40.0
 92
        8
 66
     7
 43
1.0
 76
     1
 77
     6
 78
     2
 67
     7
 79
     3
170
     0
171
     0
290
     0
174
     0
 93
        1
 44
0.0
173
     0
291
     0
 45
0.0
1001
ACAD
1000
AcDbSavedByObjectVersion
1070
     0
  0
VISUALSTYLE
  5
35
102
{ACAD_REACTORS
330
2A
102
}
102
{ACAD_XDICTIONARY
360
360
102
}
330
2A
100
AcDbVisualStyle
  2
Dim
 70
    11
 71
     2
 72
     2
 73
     0
 90
        0
 40
0.6
 41
30.0
 62
     5
 63
     7
421
 16777215
 74
     1
 91
        4
 64
     7
 65
   257
 75
     1
175
     1
 42
1.0
 92
        8
 66
     7
 43
1.0
 76
     1
 77
     6
 78
     2
 67
     7
 79
     5
170
     0
171
     0
290
     0
174
     0
 93
        1
 44
-50.0
173
     0
291
     1
 45
0.0
1001
ACAD
1000
AcDbSavedByObjectVersion
1070
     0
  0
VISUALSTYLE
  5
39
102
{ACAD_REACTORS
330
2A
102
}
102
{ACAD_XDICTIONARY
360
368
102
}
330
2A
100
AcDbVisualStyle
  2
Facepattern
 70
    15
 71
     2
 72
     2
 73
     0
 90
        0
 40
0.6
 41
30.0
 62
     5
 63
     7
421
 16777215
 74
     1
 91
        4
 64
     7
 65
   257
 75
     1
175
     1
 42
1.0
 92
        8
 66
     7
 43
1.0
 76
     1
 77
     6
 78
     2
 67
     7
 79
     5
170
     0
171
     0
290
     0
174
     0
 93
        1
 44
0.0
173
     0
291
     1
 45
0.0
1001
ACAD
1000
AcDbSavedByObjectVersion
1070
     0
  0
VISUALSTYLE
  5
2B
102
{ACAD_REACTORS
330
2A
102
}
102
{ACAD_XDICTIONARY
360
34C
102
}
330
2A
100
AcDbVisualStyle
  2
Flat
 70
     0
 71
     2
 72
     1
 73
     1
 90
        2
 40
0.6
 41
30.0
 62
     5
 63
     7
421
 16777215
 74
     0
 91
        4
 64
     7
 65
   257
 75
     1
175
     1
 42
1.0
 92
        8
 66
     7
 43
1.0
 76
     1
 77
     6
 78
     2
 67
     7
 79
     5
170
     0
171
     0
290
     0
174
     0
 93
       13
 44
0.0
173
     0
291
     1
 45
0.0
1001
ACAD
1000
AcDbSavedByObjectVersion
1070
     0
  0
VISUALSTYLE
  5
2C
102
{ACAD_REACTORS
330
2A
102
}
102
{ACAD_XDICTIONARY
360
34E
102
}
330
2A
100
AcDbVisualStyle
  2
FlatWithEdges
 70
     1
 71
     2
 72
     1
 73
     1
 90
        2
 40
0.6
 41
30.0
 62
     5
 63
     7
421
 16777215
 74
     1
 91
        4
 64
     7
 65
   257
 75
     1
175
     1
 42
1.0
 92
        0
 66
   257
 43
1.0
 76
     1
 77
     6
 78
     2
 67
     7
 79
     5
170
     0
171
     0
290
     0
174
     0
 93
       13
 44
0.0
173
     0
291
     1
 45
0.0
1001
ACAD
1000
AcDbSavedByObjectVersion
1070
     0
  0
VISUALSTYLE
  5
2D
102
{ACAD_REACTORS
330
2A
102
}
102
{ACAD_XDICTIONARY
360
350
102
}
330
2A
100
AcDbVisualStyle
  2
Gouraud
 70
     2
 71
     2
 72
     2
 73
     1
 90
        2
 40
0.6
 41
30.0
 62
     5
 63
     7
421
 16777215
 74
     0
 91
        4
 64
     7
 65
   257
 75
     1
175
     1
 42
1.0
 92
        0
 66
     7
 43
1.0
 76
     1
 77
     6
 78
     2
 67
     7
 79
     5
170
     0
171
     0
290
     0
174
     0
 93
       13
 44
0.0
173
     0
291
     1
 45
0.0
1001
ACAD
1000
AcDbSavedByObjectVersion
1070
     0
  0
VISUALSTYLE
  5
2E
102
{ACAD_REACTORS
330
2A
102
}
102
{ACAD_XDICTIONARY
360
352
102
}
330
2A
100
AcDbVisualStyle
  2
GouraudWithEdges
 70
     3
 71
     2
 72
     2
 73
     1
 90
        2
 40
0.6
 41
30.0
 62
     5
 63
     7
421
 16777215
 74
     1
 91
        4
 64
     7
 65
   257
 75
     1
175
     1
 42
1.0
 92
        0
 66
   257
 43
1.0
 76
     1
 77
     6
 78
     2
 67
     7
 79
     5
170
     0
171
     0
290
     0
174
     0
 93
       13
 44
0.0
173
     0
291
     1
 45
0.0
1001
ACAD
1000
AcDbSavedByObjectVersion
1070
     0
  0
VISUALSTYLE
  5
38
102
{ACAD_REACTORS
330
2A
102
}
102
{ACAD_XDICTIONARY
360
366
102
}
330
2A
100
AcDbVisualStyle
  2
Linepattern
 70
    14
 71
     2
 72
     2
 73
     0
 90
        0
 40
0.6
 41
30.0
 62
     5
 63
     7
421
 16777215
 74
     1
 91
        4
 64
     7
 65
   257
 75
     7
175
     7
 42
1.0
 92
        8
 66
     7
 43
1.0
 76
     1
 77
     6
 78
     2
 67
     7
 79
     5
170
     0
171
     0
290
     0
174
     0
 93
        1
 44
0.0
173
     0
291
     1
 45
0.0
1001
ACAD
1000
AcDbSavedByObjectVersion
1070
     0
  0
VISUALSTYLE
  5
33
102
{ACAD_REACTORS
330
2A
102
}
102
{ACAD_XDICTIONARY
360
35C
102
}
330
2A
100
AcDbVisualStyle
  2
Realistic
 70
     8
 71
     2
 72
     3
 73
     0
 90
        2
 40
0.6
 41
30.0
 62
     5
 63
     7
421
 16777215
 74
     0
 91
        0
 64
     7
 65
   257
 75
     1
175
     1
 42
1.0
 92
        8
 66
   257
 43
1.0
 76
     1
 77
     6
 78
     2
 67
     7
 79
     3
170
     0
171
     0
290
     0
174
     0
 93
       13
 44
0.0
173
     0
291
     0
 45
0.0
1001
ACAD
1000
AcDbSavedByObjectVersion
1070
     0
  0
VISUALSTYLE
  5
37
102
{ACAD_REACTORS
330
2A
102
}
102
{ACAD_XDICTIONARY
360
364
102
}
330
2A
100
AcDbVisualStyle
  2
Thicken
 70
    13
 71
     2
 72
     2
 73
     0
 90
        0
 40
0.6
 41
30.0
 62
     5
 63
     7
421
 16777215
 74
     1
 91
        4
 64
     7
 65
   257
 75
     1
175
     1
 42
1.0
 92
       12
 66
     7
 43
1.0
 76
     1
 77
     6
 78
     2
 67
     7
 79
     5
170
     0
171
     0
290
     0
174
     0
 93
        1
 44
0.0
173
     0
291
     1
 45
0.0
1001
ACAD
1000
AcDbSavedByObjectVersion
1070
     0
  0
DICTIONARYVAR
  5
34A
102
{ACAD_REACTORS
330
349
102
}
330
349
100
DictionaryVariables
280
     0
  1
1:1
  0
DICTIONARYVAR
  5
34B
102
{ACAD_REACTORS
330
349
102
}
330
349
100
DictionaryVariables
280
     0
  1
1
  0
DICTIONARY
  5
36E
330
3D
100
AcDbDictionary
280
     1
281
     1
  3
ACAD_XREC_ROUNDTRIP
360
36F
  0
DICTIONARY
  5
36C
330
3C
100
AcDbDictionary
280
     1
281
     1
  3
ACAD_XREC_ROUNDTRIP
360
36D
  0
DICTIONARY
  5
370
330
3E
100
AcDbDictionary
280
     1
281
     1
  3
ACAD_XREC_ROUNDTRIP
360
371
  0
DICTIONARY
  5
354
330
2F
100
AcDbDictionary
280
     1
281
     1
  3
ACAD_XREC_ROUNDTRIP
360
355
  0
DICTIONARY
  5
358
330
31
100
AcDbDictionary
280
     1
281
     1
  3
ACAD_XREC_ROUNDTRIP
360
359
  0
DICTIONARY
  5
356
330
30
100
AcDbDictionary
280
     1
281
     1
  3
ACAD_XREC_ROUNDTRIP
360
357
  0
DICTIONARY
  5
35A
330
32
100
AcDbDictionary
280
     1
281
     1
  3
ACAD_XREC_ROUNDTRIP
360
35B
  0
DICTIONARY
  5
362
330
36
100
AcDbDictionary
280
     1
281
     1
  3
ACAD_XREC_ROUNDTRIP
360
363
  0
DICTIONARY
  5
36A
330
3A
100
AcDbDictionary
280
     1
281
     1
  3
ACAD_XREC_ROUNDTRIP
360
36B
  0
DICTIONARY
  5
35E
330
34
100
AcDbDictionary
280
     1
281
     1
  3
ACAD_XREC_ROUNDTRIP
360
35F
  0
DICTIONARY
  5
360
330
35
100
AcDbDictionary
280
     1
281
     1
  3
ACAD_XREC_ROUNDTRIP
360
361
  0
DICTIONARY
  5
368
330
39
100
AcDbDictionary
280
     1
281
     1
  3
ACAD_XREC_ROUNDTRIP
360
369
  0
DICTIONARY
  5
34C
330
2B
100
AcDbDictionary
280
     1
281
     1
  3
ACAD_XREC_ROUNDTRIP
360
34D
  0
DICTIONARY
  5
34E
330
2C
100
AcDbDictionary
280
     1
281
     1
  3
ACAD_XREC_ROUNDTRIP
360
34F
  0
DICTIONARY
  5
350
330
2D
100
AcDbDictionary
280
     1
281
     1
  3
ACAD_XREC_ROUNDTRIP
360
351
  0
DICTIONARY
  5
352
330
2E
100
AcDbDictionary
280
     1
281
     1
  3
ACAD_XREC_ROUNDTRIP
360
353
  0
DICTIONARY
  5
366
330
38
100
AcDbDictionary
280
     1
281
     1
  3
ACAD_XREC_ROUNDTRIP
360
367
  0
DICTIONARY
  5
35C
330
33
100
AcDbDictionary
280
     1
281
     1
  3
ACAD_XREC_ROUNDTRIP
360
35D
  0
DICTIONARY
  5
364
330
37
100
AcDbDictionary
280
     1
281
     1
  3
ACAD_XREC_ROUNDTRIP
360
365
  0
XRECORD
  5
36F
102
{ACAD_REACTORS
330
36E
102
}
330
36E
100
AcDbXrecord
280
     1
102
MATERIAL
148
0.0
149
0.0
149
0.0
 93
        0
 94
      127
282
     0
 72
     1
 77
     1
171
     1
175
     1
179
     1
273
     0
  0
XRECORD
  5
36D
102
{ACAD_REACTORS
330
36C
102
}
330
36C
100
AcDbXrecord
280
     1
102
MATERIAL
148
0.0
149
0.0
149
0.0
 93
        0
 94
      127
282
     0
 72
     1
 77
     1
171
     1
175
     1
179
     1
273
     0
  0
XRECORD
  5
371
102
{ACAD_REACTORS
330
370
102
}
330
370
100
AcDbXrecord
280
     1
102
MATERIAL
148
0.0
149
0.0
149
0.0
 93
        0
 94
      127
282
     0
 72
     1
 77
     1
171
     1
175
     1
179
     1
273
     0
  0
XRECORD
  5
355
102
{ACAD_REACTORS
330
354
102
}
330
354
100
AcDbXrecord
280
     1
102
RTVSPropertyOp0
 70
     1
102
RTVSPropertyOp1
 70
     1
102
RTVSPropertyOp2
 70
     1
102
RTVSPropertyOp3
 70
     1
102
RTVSPropertyOp4
 70
     1
102
RTVSPropertyOp5
 70
     1
102
RTVSPropertyOp6
 70
     1
102
RTVSPropertyOp7
 70
     1
102
RTVSPropertyOp8
 70
     1
102
RTVSPropertyOp9
 70
     1
102
RTVSPropertyOp10
 70
     1
102
RTVSPropertyOp11
 70
     1
102
RTVSPropertyOp12
 70
     1
102
RTVSPropertyOp13
 70
     1
102
RTVSPropertyOp14
 70
     1
102
RTVSPropertyOp15
 70
     1
102
RTVSPropertyOp16
 70
     1
102
RTVSPropertyOp17
 70
     1
102
RTVSPropertyOp18
 70
     1
102
RTVSPropertyOp19
 70
     1
102
RTVSPropertyOp20
 70
     1
102
RTVSPropertyOp21
 70
     1
102
RTVSPropertyOp22
 70
     1
102
RTVSPropertyOp23
 70
     1
102
RTVSPropertyOp24
 70
     1
102
RTVSPropertyOp25
 70
     1
102
RTVSPropertyOp26
 70
     1
102
RTVSPropertyOp27
 70
     1
102
RTVSPropertyOp28
 70
     1
102
RTVSPropertyOp29
 70
     1
102
RTVSPropertyOp30
 70
     1
102
RTVSPropertyOp31
 70
     1
102
RTVSPropertyOp32
 70
     1
102
RTVSPropertyOp33
 70
     1
102
RTVSPropertyOp34
 70
     1
102
RTVSPropertyOp35
 70
     1
102
RTVSPropertyOp36
 70
     1
102
RTVSPropertyOp37
 70
     1
102
RTVSPropertyOp38
 70
     1
102
RTVSPropertyOp39
 70
     1
102
RTVSPropertyOp40
 70
     1
102
RTVSPropertyOp41
 70
     1
102
RTVSPropertyOp42
 70
     1
102
RTVSPropertyOp43
 70
     1
102
RTVSPropertyOp44
 70
     1
102
RTVSPropertyOp45
 70
     1
102
RTVSPropertyOp46
 70
     1
102
RTVSPropertyOp47
 70
     1
102
RTVSPropertyOp48
 70
     1
102
RTVSPropertyOp49
 70
     1
102
RTVSPropertyOp50
 70
     1
102
RTVSPropertyOp51
 70
     0
102
RTVSPropertyOp52
 70
     0
102
RTVSPropertyOp53
 70
     1
102
RTVSPropertyOp54
 70
     1
102
RTVSPropertyOp55
 70
     1
102
RTVSPropertyOp56
 70
     1
102
RTVSPropertyOp57
 70
     1
102
RTVSPost2010Prop28
280
     1
102
RTVSPost2010PropOp28
 70
     1
102
RTVSPost2010Prop29
280
     1
102
RTVSPost2010PropOp29
 70
     1
102
RTVSPost2010Prop30
280
     0
102
RTVSPost2010PropOp30
 70
     1
102
RTVSPost2010Prop31
280
     0
102
RTVSPost2010PropOp31
 70
     1
102
RTVSPost2010Prop32
280
     0
102
RTVSPost2010PropOp32
 70
     1
102
RTVSPost2010Prop33
280
     0
102
RTVSPost2010PropOp33
 70
     1
102
RTVSPost2010Prop34
280
     0
102
RTVSPost2010PropOp34
 70
     1
102
RTVSPost2010Prop35
280
     0
102
RTVSPost2010PropOp35
 70
     1
102
RTVSPost2010Prop36
280
     0
102
RTVSPost2010PropOp36
 70
     1
102
RTVSPost2010Prop37
 90
       50
102
RTVSPost2010PropOp37
 70
     1
102
RTVSPost2010Prop38
140
0.0
102
RTVSPost2010PropOp38
 70
     1
102
RTVSPost2010Prop39
140
1.0
102
RTVSPost2010PropOp39
 70
     1
102
RTVSPost2010Prop40
 90
        0
102
RTVSPost2010PropOp40
 70
     1
102
RTVSPost2010Prop41ColorIndex
 90
       18
102
RTVSPost2010Prop41ColorRGB
 90
        0
102
RTVSPost2010PropOp41
 70
     1
102
RTVSPost2010Prop42
 90
       50
102
RTVSPost2010PropOp42
 70
     1
102
RTVSPost2010Prop43
 90
        3
102
RTVSPost2010PropOp43
 70
     1
102
RTVSPost2010Prop44ColorIndex
 90
        5
102
RTVSPost2010Prop44ColorRGB
 90
      255
102
RTVSPost2010PropOp44
 70
     1
102
RTVSPost2010Prop45
280
     0
102
RTVSPost2010PropOp45
 70
     1
102
RTVSPost2010Prop46
 90
       50
102
RTVSPost2010PropOp46
 70
     1
102
RTVSPost2010Prop47
 90
       50
102
RTVSPost2010PropOp47
 70
     1
102
RTVSPost2010Prop48
 90
       50
102
RTVSPost2010PropOp48
 70
     1
102
RTVSPost2010Prop49
280
     0
102
RTVSPost2010PropOp49
 70
     1
102
RTVSPost2010Prop50
 90
       50
102
RTVSPost2010PropOp50
 70
     1
102
RTVSPost2010Prop51ColorIndex
 90
      256
102
RTVSPost2010Prop51ColorRGB
 90
-16777216
102
RTVSPost2010PropOp51
 70
     0
102
RTVSPost2010Prop52
140
1.0
102
RTVSPost2010PropOp52
 70
     0
102
RTVSPost2010Prop53
 90
        2
102
RTVSPost2010PropOp53
 70
     1
102
RTVSPost2010Prop54
  1
strokes_ogs.tif
102
RTVSPost2010PropOp54
 70
     1
102
RTVSPost2010Prop55
280
     0
102
RTVSPost2010PropOp55
 70
     1
102
RTVSPost2010Prop56
140
1.0
102
RTVSPost2010PropOp56
 70
     1
102
RTVSPost2010Prop57
140
1.0
102
RTVSPost2010PropOp57
 70
     1
  0
XRECORD
  5
359
102
{ACAD_REACTORS
330
358
102
}
330
358
100
AcDbXrecord
280
     1
102
RTVSPropertyOp0
 70
     1
102
RTVSPropertyOp1
 70
     1
102
RTVSPropertyOp2
 70
     1
102
RTVSPropertyOp3
 70
     1
102
RTVSPropertyOp4
 70
     1
102
RTVSPropertyOp5
 70
     1
102
RTVSPropertyOp6
 70
     1
102
RTVSPropertyOp7
 70
     1
102
RTVSPropertyOp8
 70
     1
102
RTVSPropertyOp9
 70
     1
102
RTVSPropertyOp10
 70
     1
102
RTVSPropertyOp11
 70
     1
102
RTVSPropertyOp12
 70
     1
102
RTVSPropertyOp13
 70
     1
102
RTVSPropertyOp14
 70
     1
102
RTVSPropertyOp15
 70
     1
102
RTVSPropertyOp16
 70
     1
102
RTVSPropertyOp17
 70
     1
102
RTVSPropertyOp18
 70
     1
102
RTVSPropertyOp19
 70
     1
102
RTVSPropertyOp20
 70
     1
102
RTVSPropertyOp21
 70
     1
102
RTVSPropertyOp22
 70
     1
102
RTVSPropertyOp23
 70
     1
102
RTVSPropertyOp24
 70
     1
102
RTVSPropertyOp25
 70
     1
102
RTVSPropertyOp26
 70
     1
102
RTVSPropertyOp27
 70
     1
102
RTVSPropertyOp28
 70
     1
102
RTVSPropertyOp29
 70
     1
102
RTVSPropertyOp30
 70
     1
102
RTVSPropertyOp31
 70
     1
102
RTVSPropertyOp32
 70
     1
102
RTVSPropertyOp33
 70
     1
102
RTVSPropertyOp34
 70
     1
102
RTVSPropertyOp35
 70
     1
102
RTVSPropertyOp36
 70
     1
102
RTVSPropertyOp37
 70
     1
102
RTVSPropertyOp38
 70
     1
102
RTVSPropertyOp39
 70
     1
102
RTVSPropertyOp40
 70
     1
102
RTVSPropertyOp41
 70
     1
102
RTVSPropertyOp42
 70
     1
102
RTVSPropertyOp43
 70
     1
102
RTVSPropertyOp44
 70
     1
102
RTVSPropertyOp45
 70
     1
102
RTVSPropertyOp46
 70
     1
102
RTVSPropertyOp47
 70
     1
102
RTVSPropertyOp48
 70
     1
102
RTVSPropertyOp49
 70
     1
102
RTVSPropertyOp50
 70
     1
102
RTVSPropertyOp51
 70
     0
102
RTVSPropertyOp52
 70
     0
102
RTVSPropertyOp53
 70
     1
102
RTVSPropertyOp54
 70
     1
102
RTVSPropertyOp55
 70
     1
102
RTVSPropertyOp56
 70
     1
102
RTVSPropertyOp57
 70
     1
102
RTVSPost2010Prop28
280
     0
102
RTVSPost2010PropOp28
 70
     1
102
RTVSPost2010Prop29
280
     1
102
RTVSPost2010PropOp29
 70
     1
102
RTVSPost2010Prop30
280
     1
102
RTVSPost2010PropOp30
 70
     1
102
RTVSPost2010Prop31
280
     0
102
RTVSPost2010PropOp31
 70
     1
102
RTVSPost2010Prop32
280
     0
102
RTVSPost2010PropOp32
 70
     1
102
RTVSPost2010Prop33
280
     0
102
RTVSPost2010PropOp33
 70
     1
102
RTVSPost2010Prop34
280
     0
102
RTVSPost2010PropOp34
 70
     1
102
RTVSPost2010Prop35
280
     0
102
RTVSPost2010PropOp35
 70
     1
102
RTVSPost2010Prop36
280
     0
102
RTVSPost2010PropOp36
 70
     1
102
RTVSPost2010Prop37
 90
       50
102
RTVSPost2010PropOp37
 70
     1
102
RTVSPost2010Prop38
140
0.0
102
RTVSPost2010PropOp38
 70
     1
102
RTVSPost2010Prop39
140
1.0
102
RTVSPost2010PropOp39
 70
     1
102
RTVSPost2010Prop40
 90
        0
102
RTVSPost2010PropOp40
 70
     1
102
RTVSPost2010Prop41ColorIndex
 90
       18
102
RTVSPost2010Prop41ColorRGB
 90
        0
102
RTVSPost2010PropOp41
 70
     1
102
RTVSPost2010Prop42
 90
       50
102
RTVSPost2010PropOp42
 70
     1
102
RTVSPost2010Prop43
 90
        3
102
RTVSPost2010PropOp43
 70
     1
102
RTVSPost2010Prop44ColorIndex
 90
        5
102
RTVSPost2010Prop44ColorRGB
 90
      255
102
RTVSPost2010PropOp44
 70
     1
102
RTVSPost2010Prop45
280
     0
102
RTVSPost2010PropOp45
 70
     1
102
RTVSPost2010Prop46
 90
       50
102
RTVSPost2010PropOp46
 70
     1
102
RTVSPost2010Prop47
 90
       50
102
RTVSPost2010PropOp47
 70
     1
102
RTVSPost2010Prop48
 90
       50
102
RTVSPost2010PropOp48
 70
     1
102
RTVSPost2010Prop49
280
     0
102
RTVSPost2010PropOp49
 70
     1
102
RTVSPost2010Prop50
 90
       50
102
RTVSPost2010PropOp50
 70
     1
102
RTVSPost2010Prop51ColorIndex
 90
      256
102
RTVSPost2010Prop51ColorRGB
 90
-16777216
102
RTVSPost2010PropOp51
 70
     0
102
RTVSPost2010Prop52
140
1.0
102
RTVSPost2010PropOp52
 70
     0
102
RTVSPost2010Prop53
 90
        2
102
RTVSPost2010PropOp53
 70
     1
102
RTVSPost2010Prop54
  1
strokes_ogs.tif
102
RTVSPost2010PropOp54
 70
     1
102
RTVSPost2010Prop55
280
     0
102
RTVSPost2010PropOp55
 70
     1
102
RTVSPost2010Prop56
140
1.0
102
RTVSPost2010PropOp56
 70
     1
102
RTVSPost2010Prop57
140
1.0
102
RTVSPost2010PropOp57
 70
     1
  0
XRECORD
  5
357
102
{ACAD_REACTORS
330
356
102
}
330
356
100
AcDbXrecord
280
     1
102
RTVSPropertyOp0
 70
     1
102
RTVSPropertyOp1
 70
     1
102
RTVSPropertyOp2
 70
     1
102
RTVSPropertyOp3
 70
     1
102
RTVSPropertyOp4
 70
     1
102
RTVSPropertyOp5
 70
     1
102
RTVSPropertyOp6
 70
     1
102
RTVSPropertyOp7
 70
     1
102
RTVSPropertyOp8
 70
     1
102
RTVSPropertyOp9
 70
     1
102
RTVSPropertyOp10
 70
     1
102
RTVSPropertyOp11
 70
     1
102
RTVSPropertyOp12
 70
     1
102
RTVSPropertyOp13
 70
     1
102
RTVSPropertyOp14
 70
     1
102
RTVSPropertyOp15
 70
     1
102
RTVSPropertyOp16
 70
     1
102
RTVSPropertyOp17
 70
     1
102
RTVSPropertyOp18
 70
     1
102
RTVSPropertyOp19
 70
     1
102
RTVSPropertyOp20
 70
     1
102
RTVSPropertyOp21
 70
     1
102
RTVSPropertyOp22
 70
     1
102
RTVSPropertyOp23
 70
     1
102
RTVSPropertyOp24
 70
     1
102
RTVSPropertyOp25
 70
     1
102
RTVSPropertyOp26
 70
     1
102
RTVSPropertyOp27
 70
     1
102
RTVSPropertyOp28
 70
     1
102
RTVSPropertyOp29
 70
     1
102
RTVSPropertyOp30
 70
     1
102
RTVSPropertyOp31
 70
     1
102
RTVSPropertyOp32
 70
     1
102
RTVSPropertyOp33
 70
     1
102
RTVSPropertyOp34
 70
     1
102
RTVSPropertyOp35
 70
     1
102
RTVSPropertyOp36
 70
     1
102
RTVSPropertyOp37
 70
     1
102
RTVSPropertyOp38
 70
     1
102
RTVSPropertyOp39
 70
     1
102
RTVSPropertyOp40
 70
     1
102
RTVSPropertyOp41
 70
     1
102
RTVSPropertyOp42
 70
     1
102
RTVSPropertyOp43
 70
     1
102
RTVSPropertyOp44
 70
     1
102
RTVSPropertyOp45
 70
     1
102
RTVSPropertyOp46
 70
     1
102
RTVSPropertyOp47
 70
     1
102
RTVSPropertyOp48
 70
     1
102
RTVSPropertyOp49
 70
     1
102
RTVSPropertyOp50
 70
     1
102
RTVSPropertyOp51
 70
     0
102
RTVSPropertyOp52
 70
     0
102
RTVSPropertyOp53
 70
     1
102
RTVSPropertyOp54
 70
     1
102
RTVSPropertyOp55
 70
     1
102
RTVSPropertyOp56
 70
     1
102
RTVSPropertyOp57
 70
     1
102
RTVSPost2010Prop28
280
     0
102
RTVSPost2010PropOp28
 70
     1
102
RTVSPost2010Prop29
280
     1
102
RTVSPost2010PropOp29
 70
     1
102
RTVSPost2010Prop30
280
     1
102
RTVSPost2010PropOp30
 70
     1
102
RTVSPost2010Prop31
280
     0
102
RTVSPost2010PropOp31
 70
     1
102
RTVSPost2010Prop32
280
     0
102
RTVSPost2010PropOp32
 70
     1
102
RTVSPost2010Prop33
280
     0
102
RTVSPost2010PropOp33
 70
     1
102
RTVSPost2010Prop34
280
     0
102
RTVSPost2010PropOp34
 70
     1
102
RTVSPost2010Prop35
280
     0
102
RTVSPost2010PropOp35
 70
     1
102
RTVSPost2010Prop36
280
     0
102
RTVSPost2010PropOp36
 70
     1
102
RTVSPost2010Prop37
 90
       50
102
RTVSPost2010PropOp37
 70
     1
102
RTVSPost2010Prop38
140
0.0
102
RTVSPost2010PropOp38
 70
     1
102
RTVSPost2010Prop39
140
1.0
102
RTVSPost2010PropOp39
 70
     1
102
RTVSPost2010Prop40
 90
        0
102
RTVSPost2010PropOp40
 70
     1
102
RTVSPost2010Prop41ColorIndex
 90
       18
102
RTVSPost2010Prop41ColorRGB
 90
        0
102
RTVSPost2010PropOp41
 70
     1
102
RTVSPost2010Prop42
 90
       50
102
RTVSPost2010PropOp42
 70
     1
102
RTVSPost2010Prop43
 90
        3
102
RTVSPost2010PropOp43
 70
     1
102
RTVSPost2010Prop44ColorIndex
 90
        5
102
RTVSPost2010Prop44ColorRGB
 90
      255
102
RTVSPost2010PropOp44
 70
     1
102
RTVSPost2010Prop45
280
     0
102
RTVSPost2010PropOp45
 70
     1
102
RTVSPost2010Prop46
 90
       50
102
RTVSPost2010PropOp46
 70
     1
102
RTVSPost2010Prop47
 90
       50
102
RTVSPost2010PropOp47
 70
     1
102
RTVSPost2010Prop48
 90
       50
102
RTVSPost2010PropOp48
 70
     1
102
RTVSPost2010Prop49
280
     0
102
RTVSPost2010PropOp49
 70
     1
102
RTVSPost2010Prop50
 90
       50
102
RTVSPost2010PropOp50
 70
     1
102
RTVSPost2010Prop51ColorIndex
 90
      256
102
RTVSPost2010Prop51ColorRGB
 90
-16777216
102
RTVSPost2010PropOp51
 70
     0
102
RTVSPost2010Prop52
140
1.0
102
RTVSPost2010PropOp52
 70
     0
102
RTVSPost2010Prop53
 90
        2
102
RTVSPost2010PropOp53
 70
     1
102
RTVSPost2010Prop54
  1
strokes_ogs.tif
102
RTVSPost2010PropOp54
 70
     1
102
RTVSPost2010Prop55
280
     0
102
RTVSPost2010PropOp55
 70
     1
102
RTVSPost2010Prop56
140
1.0
102
RTVSPost2010PropOp56
 70
     1
102
RTVSPost2010Prop57
140
1.0
102
RTVSPost2010PropOp57
 70
     1
  0
XRECORD
  5
35B
102
{ACAD_REACTORS
330
35A
102
}
330
35A
100
AcDbXrecord
280
     1
102
RTVSPropertyOp0
 70
     1
102
RTVSPropertyOp1
 70
     1
102
RTVSPropertyOp2
 70
     1
102
RTVSPropertyOp3
 70
     1
102
RTVSPropertyOp4
 70
     1
102
RTVSPropertyOp5
 70
     1
102
RTVSPropertyOp6
 70
     1
102
RTVSPropertyOp7
 70
     1
102
RTVSPropertyOp8
 70
     1
102
RTVSPropertyOp9
 70
     1
102
RTVSPropertyOp10
 70
     1
102
RTVSPropertyOp11
 70
     1
102
RTVSPropertyOp12
 70
     1
102
RTVSPropertyOp13
 70
     1
102
RTVSPropertyOp14
 70
     1
102
RTVSPropertyOp15
 70
     1
102
RTVSPropertyOp16
 70
     1
102
RTVSPropertyOp17
 70
     1
102
RTVSPropertyOp18
 70
     1
102
RTVSPropertyOp19
 70
     1
102
RTVSPropertyOp20
 70
     1
102
RTVSPropertyOp21
 70
     1
102
RTVSPropertyOp22
 70
     1
102
RTVSPropertyOp23
 70
     1
102
RTVSPropertyOp24
 70
     1
102
RTVSPropertyOp25
 70
     1
102
RTVSPropertyOp26
 70
     1
102
RTVSPropertyOp27
 70
     1
102
RTVSPropertyOp28
 70
     1
102
RTVSPropertyOp29
 70
     1
102
RTVSPropertyOp30
 70
     1
102
RTVSPropertyOp31
 70
     1
102
RTVSPropertyOp32
 70
     1
102
RTVSPropertyOp33
 70
     1
102
RTVSPropertyOp34
 70
     1
102
RTVSPropertyOp35
 70
     1
102
RTVSPropertyOp36
 70
     1
102
RTVSPropertyOp37
 70
     1
102
RTVSPropertyOp38
 70
     1
102
RTVSPropertyOp39
 70
     1
102
RTVSPropertyOp40
 70
     1
102
RTVSPropertyOp41
 70
     1
102
RTVSPropertyOp42
 70
     1
102
RTVSPropertyOp43
 70
     1
102
RTVSPropertyOp44
 70
     1
102
RTVSPropertyOp45
 70
     1
102
RTVSPropertyOp46
 70
     1
102
RTVSPropertyOp47
 70
     1
102
RTVSPropertyOp48
 70
     1
102
RTVSPropertyOp49
 70
     1
102
RTVSPropertyOp50
 70
     1
102
RTVSPropertyOp51
 70
     0
102
RTVSPropertyOp52
 70
     0
102
RTVSPropertyOp53
 70
     1
102
RTVSPropertyOp54
 70
     1
102
RTVSPropertyOp55
 70
     1
102
RTVSPropertyOp56
 70
     1
102
RTVSPropertyOp57
 70
     1
102
RTVSPost2010Prop28
280
     0
102
RTVSPost2010PropOp28
 70
     1
102
RTVSPost2010Prop29
280
     1
102
RTVSPost2010PropOp29
 70
     1
102
RTVSPost2010Prop30
280
     1
102
RTVSPost2010PropOp30
 70
     1
102
RTVSPost2010Prop31
280
     0
102
RTVSPost2010PropOp31
 70
     1
102
RTVSPost2010Prop32
280
     0
102
RTVSPost2010PropOp32
 70
     1
102
RTVSPost2010Prop33
280
     0
102
RTVSPost2010PropOp33
 70
     1
102
RTVSPost2010Prop34
280
     0
102
RTVSPost2010PropOp34
 70
     1
102
RTVSPost2010Prop35
280
     0
102
RTVSPost2010PropOp35
 70
     1
102
RTVSPost2010Prop36
280
     0
102
RTVSPost2010PropOp36
 70
     1
102
RTVSPost2010Prop37
 90
       50
102
RTVSPost2010PropOp37
 70
     1
102
RTVSPost2010Prop38
140
0.0
102
RTVSPost2010PropOp38
 70
     1
102
RTVSPost2010Prop39
140
1.0
102
RTVSPost2010PropOp39
 70
     1
102
RTVSPost2010Prop40
 90
        0
102
RTVSPost2010PropOp40
 70
     1
102
RTVSPost2010Prop41ColorIndex
 90
       18
102
RTVSPost2010Prop41ColorRGB
 90
        0
102
RTVSPost2010PropOp41
 70
     1
102
RTVSPost2010Prop42
 90
       50
102
RTVSPost2010PropOp42
 70
     1
102
RTVSPost2010Prop43
 90
        3
102
RTVSPost2010PropOp43
 70
     1
102
RTVSPost2010Prop44ColorIndex
 90
        5
102
RTVSPost2010Prop44ColorRGB
 90
      255
102
RTVSPost2010PropOp44
 70
     1
102
RTVSPost2010Prop45
280
     0
102
RTVSPost2010PropOp45
 70
     1
102
RTVSPost2010Prop46
 90
       50
102
RTVSPost2010PropOp46
 70
     1
102
RTVSPost2010Prop47
 90
       50
102
RTVSPost2010PropOp47
 70
     1
102
RTVSPost2010Prop48
 90
       50
102
RTVSPost2010PropOp48
 70
     1
102
RTVSPost2010Prop49
280
     0
102
RTVSPost2010PropOp49
 70
     1
102
RTVSPost2010Prop50
 90
       50
102
RTVSPost2010PropOp50
 70
     1
102
RTVSPost2010Prop51ColorIndex
 90
      256
102
RTVSPost2010Prop51ColorRGB
 90
-16777216
102
RTVSPost2010PropOp51
 70
     0
102
RTVSPost2010Prop52
140
1.0
102
RTVSPost2010PropOp52
 70
     0
102
RTVSPost2010Prop53
 90
        2
102
RTVSPost2010PropOp53
 70
     1
102
RTVSPost2010Prop54
  1
strokes_ogs.tif
102
RTVSPost2010PropOp54
 70
     1
102
RTVSPost2010Prop55
280
     0
102
RTVSPost2010PropOp55
 70
     1
102
RTVSPost2010Prop56
140
1.0
102
RTVSPost2010PropOp56
 70
     1
102
RTVSPost2010Prop57
140
1.0
102
RTVSPost2010PropOp57
 70
     1
  0
XRECORD
  5
363
102
{ACAD_REACTORS
330
362
102
}
330
362
100
AcDbXrecord
280
     1
102
RTVSPropertyOp0
 70
     1
102
RTVSPropertyOp1
 70
     1
102
RTVSPropertyOp2
 70
     1
102
RTVSPropertyOp3
 70
     1
102
RTVSPropertyOp4
 70
     1
102
RTVSPropertyOp5
 70
     1
102
RTVSPropertyOp6
 70
     1
102
RTVSPropertyOp7
 70
     1
102
RTVSPropertyOp8
 70
     1
102
RTVSPropertyOp9
 70
     1
102
RTVSPropertyOp10
 70
     1
102
RTVSPropertyOp11
 70
     1
102
RTVSPropertyOp12
 70
     1
102
RTVSPropertyOp13
 70
     1
102
RTVSPropertyOp14
 70
     1
102
RTVSPropertyOp15
 70
     1
102
RTVSPropertyOp16
 70
     1
102
RTVSPropertyOp17
 70
     1
102
RTVSPropertyOp18
 70
     1
102
RTVSPropertyOp19
 70
     1
102
RTVSPropertyOp20
 70
     1
102
RTVSPropertyOp21
 70
     1
102
RTVSPropertyOp22
 70
     1
102
RTVSPropertyOp23
 70
     1
102
RTVSPropertyOp24
 70
     1
102
RTVSPropertyOp25
 70
     1
102
RTVSPropertyOp26
 70
     1
102
RTVSPropertyOp27
 70
     1
102
RTVSPropertyOp28
 70
     1
102
RTVSPropertyOp29
 70
     1
102
RTVSPropertyOp30
 70
     1
102
RTVSPropertyOp31
 70
     1
102
RTVSPropertyOp32
 70
     1
102
RTVSPropertyOp33
 70
     1
102
RTVSPropertyOp34
 70
     1
102
RTVSPropertyOp35
 70
     1
102
RTVSPropertyOp36
 70
     1
102
RTVSPropertyOp37
 70
     1
102
RTVSPropertyOp38
 70
     1
102
RTVSPropertyOp39
 70
     1
102
RTVSPropertyOp40
 70
     1
102
RTVSPropertyOp41
 70
     1
102
RTVSPropertyOp42
 70
     1
102
RTVSPropertyOp43
 70
     1
102
RTVSPropertyOp44
 70
     1
102
RTVSPropertyOp45
 70
     1
102
RTVSPropertyOp46
 70
     1
102
RTVSPropertyOp47
 70
     1
102
RTVSPropertyOp48
 70
     1
102
RTVSPropertyOp49
 70
     1
102
RTVSPropertyOp50
 70
     1
102
RTVSPropertyOp51
 70
     0
102
RTVSPropertyOp52
 70
     0
102
RTVSPropertyOp53
 70
     1
102
RTVSPropertyOp54
 70
     1
102
RTVSPropertyOp55
 70
     1
102
RTVSPropertyOp56
 70
     1
102
RTVSPropertyOp57
 70
     1
102
RTVSPost2010Prop28
280
     0
102
RTVSPost2010PropOp28
 70
     1
102
RTVSPost2010Prop29
280
     1
102
RTVSPost2010PropOp29
 70
     1
102
RTVSPost2010Prop30
280
     1
102
RTVSPost2010PropOp30
 70
     1
102
RTVSPost2010Prop31
280
     0
102
RTVSPost2010PropOp31
 70
     1
102
RTVSPost2010Prop32
280
     0
102
RTVSPost2010PropOp32
 70
     1
102
RTVSPost2010Prop33
280
     0
102
RTVSPost2010PropOp33
 70
     1
102
RTVSPost2010Prop34
280
     0
102
RTVSPost2010PropOp34
 70
     1
102
RTVSPost2010Prop35
280
     0
102
RTVSPost2010PropOp35
 70
     1
102
RTVSPost2010Prop36
280
     0
102
RTVSPost2010PropOp36
 70
     1
102
RTVSPost2010Prop37
 90
       50
102
RTVSPost2010PropOp37
 70
     1
102
RTVSPost2010Prop38
140
0.0
102
RTVSPost2010PropOp38
 70
     1
102
RTVSPost2010Prop39
140
1.0
102
RTVSPost2010PropOp39
 70
     1
102
RTVSPost2010Prop40
 90
        0
102
RTVSPost2010PropOp40
 70
     1
102
RTVSPost2010Prop41ColorIndex
 90
       18
102
RTVSPost2010Prop41ColorRGB
 90
        0
102
RTVSPost2010PropOp41
 70
     1
102
RTVSPost2010Prop42
 90
       50
102
RTVSPost2010PropOp42
 70
     1
102
RTVSPost2010Prop43
 90
        3
102
RTVSPost2010PropOp43
 70
     1
102
RTVSPost2010Prop44ColorIndex
 90
        5
102
RTVSPost2010Prop44ColorRGB
 90
      255
102
RTVSPost2010PropOp44
 70
     1
102
RTVSPost2010Prop45
280
     0
102
RTVSPost2010PropOp45
 70
     1
102
RTVSPost2010Prop46
 90
       50
102
RTVSPost2010PropOp46
 70
     1
102
RTVSPost2010Prop47
 90
       50
102
RTVSPost2010PropOp47
 70
     1
102
RTVSPost2010Prop48
 90
       50
102
RTVSPost2010PropOp48
 70
     1
102
RTVSPost2010Prop49
280
     0
102
RTVSPost2010PropOp49
 70
     1
102
RTVSPost2010Prop50
 90
       50
102
RTVSPost2010PropOp50
 70
     1
102
RTVSPost2010Prop51ColorIndex
 90
      256
102
RTVSPost2010Prop51ColorRGB
 90
-16777216
102
RTVSPost2010PropOp51
 70
     0
102
RTVSPost2010Prop52
140
1.0
102
RTVSPost2010PropOp52
 70
     0
102
RTVSPost2010Prop53
 90
        2
102
RTVSPost2010PropOp53
 70
     1
102
RTVSPost2010Prop54
  1
strokes_ogs.tif
102
RTVSPost2010PropOp54
 70
     1
102
RTVSPost2010Prop55
280
     0
102
RTVSPost2010PropOp55
 70
     1
102
RTVSPost2010Prop56
140
1.0
102
RTVSPost2010PropOp56
 70
     1
102
RTVSPost2010Prop57
140
1.0
102
RTVSPost2010PropOp57
 70
     1
  0
XRECORD
  5
36B
102
{ACAD_REACTORS
330
36A
102
}
330
36A
100
AcDbXrecord
280
     1
102
RTVSPropertyOp0
 70
     1
102
RTVSPropertyOp1
 70
     1
102
RTVSPropertyOp2
 70
     1
102
RTVSPropertyOp3
 70
     1
102
RTVSPropertyOp4
 70
     1
102
RTVSPropertyOp5
 70
     1
102
RTVSPropertyOp6
 70
     1
102
RTVSPropertyOp7
 70
     1
102
RTVSPropertyOp8
 70
     1
102
RTVSPropertyOp9
 70
     1
102
RTVSPropertyOp10
 70
     1
102
RTVSPropertyOp11
 70
     1
102
RTVSPropertyOp12
 70
     1
102
RTVSPropertyOp13
 70
     1
102
RTVSPropertyOp14
 70
     1
102
RTVSPropertyOp15
 70
     1
102
RTVSPropertyOp16
 70
     1
102
RTVSPropertyOp17
 70
     1
102
RTVSPropertyOp18
 70
     1
102
RTVSPropertyOp19
 70
     1
102
RTVSPropertyOp20
 70
     1
102
RTVSPropertyOp21
 70
     1
102
RTVSPropertyOp22
 70
     1
102
RTVSPropertyOp23
 70
     1
102
RTVSPropertyOp24
 70
     1
102
RTVSPropertyOp25
 70
     1
102
RTVSPropertyOp26
 70
     1
102
RTVSPropertyOp27
 70
     1
102
RTVSPropertyOp28
 70
     1
102
RTVSPropertyOp29
 70
     1
102
RTVSPropertyOp30
 70
     1
102
RTVSPropertyOp31
 70
     1
102
RTVSPropertyOp32
 70
     1
102
RTVSPropertyOp33
 70
     1
102
RTVSPropertyOp34
 70
     1
102
RTVSPropertyOp35
 70
     1
102
RTVSPropertyOp36
 70
     1
102
RTVSPropertyOp37
 70
     1
102
RTVSPropertyOp38
 70
     1
102
RTVSPropertyOp39
 70
     1
102
RTVSPropertyOp40
 70
     1
102
RTVSPropertyOp41
 70
     1
102
RTVSPropertyOp42
 70
     1
102
RTVSPropertyOp43
 70
     1
102
RTVSPropertyOp44
 70
     1
102
RTVSPropertyOp45
 70
     1
102
RTVSPropertyOp46
 70
     1
102
RTVSPropertyOp47
 70
     1
102
RTVSPropertyOp48
 70
     1
102
RTVSPropertyOp49
 70
     1
102
RTVSPropertyOp50
 70
     1
102
RTVSPropertyOp51
 70
     0
102
RTVSPropertyOp52
 70
     0
102
RTVSPropertyOp53
 70
     1
102
RTVSPropertyOp54
 70
     1
102
RTVSPropertyOp55
 70
     1
102
RTVSPropertyOp56
 70
     1
102
RTVSPropertyOp57
 70
     1
102
RTVSPost2010Prop28
280
     0
102
RTVSPost2010PropOp28
 70
     1
102
RTVSPost2010Prop29
280
     1
102
RTVSPost2010PropOp29
 70
     1
102
RTVSPost2010Prop30
280
     1
102
RTVSPost2010PropOp30
 70
     1
102
RTVSPost2010Prop31
280
     0
102
RTVSPost2010PropOp31
 70
     1
102
RTVSPost2010Prop32
280
     0
102
RTVSPost2010PropOp32
 70
     1
102
RTVSPost2010Prop33
280
     0
102
RTVSPost2010PropOp33
 70
     1
102
RTVSPost2010Prop34
280
     0
102
RTVSPost2010PropOp34
 70
     1
102
RTVSPost2010Prop35
280
     0
102
RTVSPost2010PropOp35
 70
     1
102
RTVSPost2010Prop36
280
     0
102
RTVSPost2010PropOp36
 70
     1
102
RTVSPost2010Prop37
 90
       50
102
RTVSPost2010PropOp37
 70
     1
102
RTVSPost2010Prop38
140
0.0
102
RTVSPost2010PropOp38
 70
     1
102
RTVSPost2010Prop39
140
1.0
102
RTVSPost2010PropOp39
 70
     1
102
RTVSPost2010Prop40
 90
        0
102
RTVSPost2010PropOp40
 70
     1
102
RTVSPost2010Prop41ColorIndex
 90
       18
102
RTVSPost2010Prop41ColorRGB
 90
        0
102
RTVSPost2010PropOp41
 70
     1
102
RTVSPost2010Prop42
 90
       50
102
RTVSPost2010PropOp42
 70
     1
102
RTVSPost2010Prop43
 90
        3
102
RTVSPost2010PropOp43
 70
     1
102
RTVSPost2010Prop44ColorIndex
 90
        5
102
RTVSPost2010Prop44ColorRGB
 90
      255
102
RTVSPost2010PropOp44
 70
     1
102
RTVSPost2010Prop45
280
     0
102
RTVSPost2010PropOp45
 70
     1
102
RTVSPost2010Prop46
 90
       50
102
RTVSPost2010PropOp46
 70
     1
102
RTVSPost2010Prop47
 90
       50
102
RTVSPost2010PropOp47
 70
     1
102
RTVSPost2010Prop48
 90
       50
102
RTVSPost2010PropOp48
 70
     1
102
RTVSPost2010Prop49
280
     0
102
RTVSPost2010PropOp49
 70
     1
102
RTVSPost2010Prop50
 90
       50
102
RTVSPost2010PropOp50
 70
     1
102
RTVSPost2010Prop51ColorIndex
 90
      256
102
RTVSPost2010Prop51ColorRGB
 90
-16777216
102
RTVSPost2010PropOp51
 70
     0
102
RTVSPost2010Prop52
140
1.0
102
RTVSPost2010PropOp52
 70
     0
102
RTVSPost2010Prop53
 90
        2
102
RTVSPost2010PropOp53
 70
     1
102
RTVSPost2010Prop54
  1
strokes_ogs.tif
102
RTVSPost2010PropOp54
 70
     1
102
RTVSPost2010Prop55
280
     0
102
RTVSPost2010PropOp55
 70
     1
102
RTVSPost2010Prop56
140
1.0
102
RTVSPost2010PropOp56
 70
     1
102
RTVSPost2010Prop57
140
1.0
102
RTVSPost2010PropOp57
 70
     1
  0
XRECORD
  5
35F
102
{ACAD_REACTORS
330
35E
102
}
330
35E
100
AcDbXrecord
280
     1
102
RTVSPropertyOp0
 70
     1
102
RTVSPropertyOp1
 70
     1
102
RTVSPropertyOp2
 70
     1
102
RTVSPropertyOp3
 70
     1
102
RTVSPropertyOp4
 70
     1
102
RTVSPropertyOp5
 70
     1
102
RTVSPropertyOp6
 70
     1
102
RTVSPropertyOp7
 70
     1
102
RTVSPropertyOp8
 70
     1
102
RTVSPropertyOp9
 70
     1
102
RTVSPropertyOp10
 70
     1
102
RTVSPropertyOp11
 70
     1
102
RTVSPropertyOp12
 70
     1
102
RTVSPropertyOp13
 70
     1
102
RTVSPropertyOp14
 70
     1
102
RTVSPropertyOp15
 70
     1
102
RTVSPropertyOp16
 70
     1
102
RTVSPropertyOp17
 70
     1
102
RTVSPropertyOp18
 70
     1
102
RTVSPropertyOp19
 70
     1
102
RTVSPropertyOp20
 70
     1
102
RTVSPropertyOp21
 70
     1
102
RTVSPropertyOp22
 70
     1
102
RTVSPropertyOp23
 70
     1
102
RTVSPropertyOp24
 70
     1
102
RTVSPropertyOp25
 70
     1
102
RTVSPropertyOp26
 70
     1
102
RTVSPropertyOp27
 70
     1
102
RTVSPropertyOp28
 70
     1
102
RTVSPropertyOp29
 70
     1
102
RTVSPropertyOp30
 70
     1
102
RTVSPropertyOp31
 70
     1
102
RTVSPropertyOp32
 70
     1
102
RTVSPropertyOp33
 70
     1
102
RTVSPropertyOp34
 70
     1
102
RTVSPropertyOp35
 70
     1
102
RTVSPropertyOp36
 70
     1
102
RTVSPropertyOp37
 70
     1
102
RTVSPropertyOp38
 70
     1
102
RTVSPropertyOp39
 70
     1
102
RTVSPropertyOp40
 70
     1
102
RTVSPropertyOp41
 70
     1
102
RTVSPropertyOp42
 70
     1
102
RTVSPropertyOp43
 70
     1
102
RTVSPropertyOp44
 70
     1
102
RTVSPropertyOp45
 70
     1
102
RTVSPropertyOp46
 70
     1
102
RTVSPropertyOp47
 70
     1
102
RTVSPropertyOp48
 70
     1
102
RTVSPropertyOp49
 70
     1
102
RTVSPropertyOp50
 70
     1
102
RTVSPropertyOp51
 70
     0
102
RTVSPropertyOp52
 70
     0
102
RTVSPropertyOp53
 70
     1
102
RTVSPropertyOp54
 70
     1
102
RTVSPropertyOp55
 70
     1
102
RTVSPropertyOp56
 70
     1
102
RTVSPropertyOp57
 70
     1
102
RTVSPost2010Prop28
280
     0
102
RTVSPost2010PropOp28
 70
     1
102
RTVSPost2010Prop29
280
     1
102
RTVSPost2010PropOp29
 70
     1
102
RTVSPost2010Prop30
280
     1
102
RTVSPost2010PropOp30
 70
     1
102
RTVSPost2010Prop31
280
     0
102
RTVSPost2010PropOp31
 70
     1
102
RTVSPost2010Prop32
280
     0
102
RTVSPost2010PropOp32
 70
     1
102
RTVSPost2010Prop33
280
     0
102
RTVSPost2010PropOp33
 70
     1
102
RTVSPost2010Prop34
280
     0
102
RTVSPost2010PropOp34
 70
     1
102
RTVSPost2010Prop35
280
     0
102
RTVSPost2010PropOp35
 70
     1
102
RTVSPost2010Prop36
280
     0
102
RTVSPost2010PropOp36
 70
     1
102
RTVSPost2010Prop37
 90
       50
102
RTVSPost2010PropOp37
 70
     1
102
RTVSPost2010Prop38
140
0.0
102
RTVSPost2010PropOp38
 70
     1
102
RTVSPost2010Prop39
140
1.0
102
RTVSPost2010PropOp39
 70
     1
102
RTVSPost2010Prop40
 90
        0
102
RTVSPost2010PropOp40
 70
     1
102
RTVSPost2010Prop41ColorIndex
 90
       18
102
RTVSPost2010Prop41ColorRGB
 90
        0
102
RTVSPost2010PropOp41
 70
     1
102
RTVSPost2010Prop42
 90
       50
102
RTVSPost2010PropOp42
 70
     1
102
RTVSPost2010Prop43
 90
        3
102
RTVSPost2010PropOp43
 70
     1
102
RTVSPost2010Prop44ColorIndex
 90
        5
102
RTVSPost2010Prop44ColorRGB
 90
      255
102
RTVSPost2010PropOp44
 70
     1
102
RTVSPost2010Prop45
280
     0
102
RTVSPost2010PropOp45
 70
     1
102
RTVSPost2010Prop46
 90
       50
102
RTVSPost2010PropOp46
 70
     1
102
RTVSPost2010Prop47
 90
       50
102
RTVSPost2010PropOp47
 70
     1
102
RTVSPost2010Prop48
 90
       50
102
RTVSPost2010PropOp48
 70
     1
102
RTVSPost2010Prop49
280
     0
102
RTVSPost2010PropOp49
 70
     1
102
RTVSPost2010Prop50
 90
       50
102
RTVSPost2010PropOp50
 70
     1
102
RTVSPost2010Prop51ColorIndex
 90
      256
102
RTVSPost2010Prop51ColorRGB
 90
-16777216
102
RTVSPost2010PropOp51
 70
     0
102
RTVSPost2010Prop52
140
1.0
102
RTVSPost2010PropOp52
 70
     0
102
RTVSPost2010Prop53
 90
        2
102
RTVSPost2010PropOp53
 70
     1
102
RTVSPost2010Prop54
  1
strokes_ogs.tif
102
RTVSPost2010PropOp54
 70
     1
102
RTVSPost2010Prop55
280
     0
102
RTVSPost2010PropOp55
 70
     1
102
RTVSPost2010Prop56
140
1.0
102
RTVSPost2010PropOp56
 70
     1
102
RTVSPost2010Prop57
140
1.0
102
RTVSPost2010PropOp57
 70
     1
  0
XRECORD
  5
361
102
{ACAD_REACTORS
330
360
102
}
330
360
100
AcDbXrecord
280
     1
102
RTVSPropertyOp0
 70
     1
102
RTVSPropertyOp1
 70
     1
102
RTVSPropertyOp2
 70
     1
102
RTVSPropertyOp3
 70
     1
102
RTVSPropertyOp4
 70
     1
102
RTVSPropertyOp5
 70
     1
102
RTVSPropertyOp6
 70
     1
102
RTVSPropertyOp7
 70
     1
102
RTVSPropertyOp8
 70
     1
102
RTVSPropertyOp9
 70
     1
102
RTVSPropertyOp10
 70
     1
102
RTVSPropertyOp11
 70
     1
102
RTVSPropertyOp12
 70
     1
102
RTVSPropertyOp13
 70
     1
102
RTVSPropertyOp14
 70
     1
102
RTVSPropertyOp15
 70
     1
102
RTVSPropertyOp16
 70
     1
102
RTVSPropertyOp17
 70
     1
102
RTVSPropertyOp18
 70
     1
102
RTVSPropertyOp19
 70
     1
102
RTVSPropertyOp20
 70
     1
102
RTVSPropertyOp21
 70
     1
102
RTVSPropertyOp22
 70
     1
102
RTVSPropertyOp23
 70
     1
102
RTVSPropertyOp24
 70
     1
102
RTVSPropertyOp25
 70
     1
102
RTVSPropertyOp26
 70
     1
102
RTVSPropertyOp27
 70
     1
102
RTVSPropertyOp28
 70
     1
102
RTVSPropertyOp29
 70
     1
102
RTVSPropertyOp30
 70
     1
102
RTVSPropertyOp31
 70
     1
102
RTVSPropertyOp32
 70
     1
102
RTVSPropertyOp33
 70
     1
102
RTVSPropertyOp34
 70
     1
102
RTVSPropertyOp35
 70
     1
102
RTVSPropertyOp36
 70
     1
102
RTVSPropertyOp37
 70
     1
102
RTVSPropertyOp38
 70
     1
102
RTVSPropertyOp39
 70
     1
102
RTVSPropertyOp40
 70
     1
102
RTVSPropertyOp41
 70
     1
102
RTVSPropertyOp42
 70
     1
102
RTVSPropertyOp43
 70
     1
102
RTVSPropertyOp44
 70
     1
102
RTVSPropertyOp45
 70
     1
102
RTVSPropertyOp46
 70
     1
102
RTVSPropertyOp47
 70
     1
102
RTVSPropertyOp48
 70
     1
102
RTVSPropertyOp49
 70
     1
102
RTVSPropertyOp50
 70
     1
102
RTVSPropertyOp51
 70
     0
102
RTVSPropertyOp52
 70
     0
102
RTVSPropertyOp53
 70
     1
102
RTVSPropertyOp54
 70
     1
102
RTVSPropertyOp55
 70
     1
102
RTVSPropertyOp56
 70
     1
102
RTVSPropertyOp57
 70
     1
102
RTVSPost2010Prop28
280
     0
102
RTVSPost2010PropOp28
 70
     1
102
RTVSPost2010Prop29
280
     1
102
RTVSPost2010PropOp29
 70
     1
102
RTVSPost2010Prop30
280
     1
102
RTVSPost2010PropOp30
 70
     1
102
RTVSPost2010Prop31
280
     0
102
RTVSPost2010PropOp31
 70
     1
102
RTVSPost2010Prop32
280
     0
102
RTVSPost2010PropOp32
 70
     1
102
RTVSPost2010Prop33
280
     0
102
RTVSPost2010PropOp33
 70
     1
102
RTVSPost2010Prop34
280
     0
102
RTVSPost2010PropOp34
 70
     1
102
RTVSPost2010Prop35
280
     0
102
RTVSPost2010PropOp35
 70
     1
102
RTVSPost2010Prop36
280
     0
102
RTVSPost2010PropOp36
 70
     1
102
RTVSPost2010Prop37
 90
       50
102
RTVSPost2010PropOp37
 70
     1
102
RTVSPost2010Prop38
140
0.0
102
RTVSPost2010PropOp38
 70
     1
102
RTVSPost2010Prop39
140
1.0
102
RTVSPost2010PropOp39
 70
     1
102
RTVSPost2010Prop40
 90
        0
102
RTVSPost2010PropOp40
 70
     1
102
RTVSPost2010Prop41ColorIndex
 90
       18
102
RTVSPost2010Prop41ColorRGB
 90
        0
102
RTVSPost2010PropOp41
 70
     1
102
RTVSPost2010Prop42
 90
       50
102
RTVSPost2010PropOp42
 70
     1
102
RTVSPost2010Prop43
 90
        3
102
RTVSPost2010PropOp43
 70
     1
102
RTVSPost2010Prop44ColorIndex
 90
        5
102
RTVSPost2010Prop44ColorRGB
 90
      255
102
RTVSPost2010PropOp44
 70
     1
102
RTVSPost2010Prop45
280
     0
102
RTVSPost2010PropOp45
 70
     1
102
RTVSPost2010Prop46
 90
       50
102
RTVSPost2010PropOp46
 70
     1
102
RTVSPost2010Prop47
 90
       50
102
RTVSPost2010PropOp47
 70
     1
102
RTVSPost2010Prop48
 90
       50
102
RTVSPost2010PropOp48
 70
     1
102
RTVSPost2010Prop49
280
     0
102
RTVSPost2010PropOp49
 70
     1
102
RTVSPost2010Prop50
 90
       50
102
RTVSPost2010PropOp50
 70
     1
102
RTVSPost2010Prop51ColorIndex
 90
      256
102
RTVSPost2010Prop51ColorRGB
 90
-16777216
102
RTVSPost2010PropOp51
 70
     0
102
RTVSPost2010Prop52
140
1.0
102
RTVSPost2010PropOp52
 70
     0
102
RTVSPost2010Prop53
 90
        2
102
RTVSPost2010PropOp53
 70
     1
102
RTVSPost2010Prop54
  1
strokes_ogs.tif
102
RTVSPost2010PropOp54
 70
     1
102
RTVSPost2010Prop55
280
     0
102
RTVSPost2010PropOp55
 70
     1
102
RTVSPost2010Prop56
140
1.0
102
RTVSPost2010PropOp56
 70
     1
102
RTVSPost2010Prop57
140
1.0
102
RTVSPost2010PropOp57
 70
     1
  0
XRECORD
  5
369
102
{ACAD_REACTORS
330
368
102
}
330
368
100
AcDbXrecord
280
     1
102
RTVSPropertyOp0
 70
     1
102
RTVSPropertyOp1
 70
     1
102
RTVSPropertyOp2
 70
     1
102
RTVSPropertyOp3
 70
     1
102
RTVSPropertyOp4
 70
     1
102
RTVSPropertyOp5
 70
     1
102
RTVSPropertyOp6
 70
     1
102
RTVSPropertyOp7
 70
     1
102
RTVSPropertyOp8
 70
     1
102
RTVSPropertyOp9
 70
     1
102
RTVSPropertyOp10
 70
     1
102
RTVSPropertyOp11
 70
     1
102
RTVSPropertyOp12
 70
     1
102
RTVSPropertyOp13
 70
     1
102
RTVSPropertyOp14
 70
     1
102
RTVSPropertyOp15
 70
     1
102
RTVSPropertyOp16
 70
     1
102
RTVSPropertyOp17
 70
     1
102
RTVSPropertyOp18
 70
     1
102
RTVSPropertyOp19
 70
     1
102
RTVSPropertyOp20
 70
     1
102
RTVSPropertyOp21
 70
     1
102
RTVSPropertyOp22
 70
     1
102
RTVSPropertyOp23
 70
     1
102
RTVSPropertyOp24
 70
     1
102
RTVSPropertyOp25
 70
     1
102
RTVSPropertyOp26
 70
     1
102
RTVSPropertyOp27
 70
     1
102
RTVSPropertyOp28
 70
     1
102
RTVSPropertyOp29
 70
     1
102
RTVSPropertyOp30
 70
     1
102
RTVSPropertyOp31
 70
     1
102
RTVSPropertyOp32
 70
     1
102
RTVSPropertyOp33
 70
     1
102
RTVSPropertyOp34
 70
     1
102
RTVSPropertyOp35
 70
     1
102
RTVSPropertyOp36
 70
     1
102
RTVSPropertyOp37
 70
     1
102
RTVSPropertyOp38
 70
     1
102
RTVSPropertyOp39
 70
     1
102
RTVSPropertyOp40
 70
     1
102
RTVSPropertyOp41
 70
     1
102
RTVSPropertyOp42
 70
     1
102
RTVSPropertyOp43
 70
     1
102
RTVSPropertyOp44
 70
     1
102
RTVSPropertyOp45
 70
     1
102
RTVSPropertyOp46
 70
     1
102
RTVSPropertyOp47
 70
     1
102
RTVSPropertyOp48
 70
     1
102
RTVSPropertyOp49
 70
     1
102
RTVSPropertyOp50
 70
     1
102
RTVSPropertyOp51
 70
     0
102
RTVSPropertyOp52
 70
     0
102
RTVSPropertyOp53
 70
     1
102
RTVSPropertyOp54
 70
     1
102
RTVSPropertyOp55
 70
     1
102
RTVSPropertyOp56
 70
     1
102
RTVSPropertyOp57
 70
     1
102
RTVSPost2010Prop28
280
     0
102
RTVSPost2010PropOp28
 70
     1
102
RTVSPost2010Prop29
280
     1
102
RTVSPost2010PropOp29
 70
     1
102
RTVSPost2010Prop30
280
     1
102
RTVSPost2010PropOp30
 70
     1
102
RTVSPost2010Prop31
280
     0
102
RTVSPost2010PropOp31
 70
     1
102
RTVSPost2010Prop32
280
     0
102
RTVSPost2010PropOp32
 70
     1
102
RTVSPost2010Prop33
280
     0
102
RTVSPost2010PropOp33
 70
     1
102
RTVSPost2010Prop34
280
     0
102
RTVSPost2010PropOp34
 70
     1
102
RTVSPost2010Prop35
280
     0
102
RTVSPost2010PropOp35
 70
     1
102
RTVSPost2010Prop36
280
     0
102
RTVSPost2010PropOp36
 70
     1
102
RTVSPost2010Prop37
 90
       50
102
RTVSPost2010PropOp37
 70
     1
102
RTVSPost2010Prop38
140
0.0
102
RTVSPost2010PropOp38
 70
     1
102
RTVSPost2010Prop39
140
1.0
102
RTVSPost2010PropOp39
 70
     1
102
RTVSPost2010Prop40
 90
        0
102
RTVSPost2010PropOp40
 70
     1
102
RTVSPost2010Prop41ColorIndex
 90
       18
102
RTVSPost2010Prop41ColorRGB
 90
        0
102
RTVSPost2010PropOp41
 70
     1
102
RTVSPost2010Prop42
 90
       50
102
RTVSPost2010PropOp42
 70
     1
102
RTVSPost2010Prop43
 90
        3
102
RTVSPost2010PropOp43
 70
     1
102
RTVSPost2010Prop44ColorIndex
 90
        5
102
RTVSPost2010Prop44ColorRGB
 90
      255
102
RTVSPost2010PropOp44
 70
     1
102
RTVSPost2010Prop45
280
     0
102
RTVSPost2010PropOp45
 70
     1
102
RTVSPost2010Prop46
 90
       50
102
RTVSPost2010PropOp46
 70
     1
102
RTVSPost2010Prop47
 90
       50
102
RTVSPost2010PropOp47
 70
     1
102
RTVSPost2010Prop48
 90
       50
102
RTVSPost2010PropOp48
 70
     1
102
RTVSPost2010Prop49
280
     0
102
RTVSPost2010PropOp49
 70
     1
102
RTVSPost2010Prop50
 90
       50
102
RTVSPost2010PropOp50
 70
     1
102
RTVSPost2010Prop51ColorIndex
 90
      256
102
RTVSPost2010Prop51ColorRGB
 90
-16777216
102
RTVSPost2010PropOp51
 70
     0
102
RTVSPost2010Prop52
140
1.0
102
RTVSPost2010PropOp52
 70
     0
102
RTVSPost2010Prop53
 90
        2
102
RTVSPost2010PropOp53
 70
     1
102
RTVSPost2010Prop54
  1
strokes_ogs.tif
102
RTVSPost2010PropOp54
 70
     1
102
RTVSPost2010Prop55
280
     0
102
RTVSPost2010PropOp55
 70
     1
102
RTVSPost2010Prop56
140
1.0
102
RTVSPost2010PropOp56
 70
     1
102
RTVSPost2010Prop57
140
1.0
102
RTVSPost2010PropOp57
 70
     1
  0
XRECORD
  5
34D
102
{ACAD_REACTORS
330
34C
102
}
330
34C
100
AcDbXrecord
280
     1
102
RTVSPropertyOp0
 70
     1
102
RTVSPropertyOp1
 70
     1
102
RTVSPropertyOp2
 70
     1
102
RTVSPropertyOp3
 70
     1
102
RTVSPropertyOp4
 70
     1
102
RTVSPropertyOp5
 70
     1
102
RTVSPropertyOp6
 70
     1
102
RTVSPropertyOp7
 70
     1
102
RTVSPropertyOp8
 70
     1
102
RTVSPropertyOp9
 70
     1
102
RTVSPropertyOp10
 70
     1
102
RTVSPropertyOp11
 70
     1
102
RTVSPropertyOp12
 70
     1
102
RTVSPropertyOp13
 70
     1
102
RTVSPropertyOp14
 70
     1
102
RTVSPropertyOp15
 70
     1
102
RTVSPropertyOp16
 70
     1
102
RTVSPropertyOp17
 70
     1
102
RTVSPropertyOp18
 70
     1
102
RTVSPropertyOp19
 70
     1
102
RTVSPropertyOp20
 70
     1
102
RTVSPropertyOp21
 70
     1
102
RTVSPropertyOp22
 70
     1
102
RTVSPropertyOp23
 70
     1
102
RTVSPropertyOp24
 70
     1
102
RTVSPropertyOp25
 70
     1
102
RTVSPropertyOp26
 70
     1
102
RTVSPropertyOp27
 70
     1
102
RTVSPropertyOp28
 70
     1
102
RTVSPropertyOp29
 70
     1
102
RTVSPropertyOp30
 70
     1
102
RTVSPropertyOp31
 70
     1
102
RTVSPropertyOp32
 70
     1
102
RTVSPropertyOp33
 70
     1
102
RTVSPropertyOp34
 70
     1
102
RTVSPropertyOp35
 70
     1
102
RTVSPropertyOp36
 70
     1
102
RTVSPropertyOp37
 70
     1
102
RTVSPropertyOp38
 70
     1
102
RTVSPropertyOp39
 70
     1
102
RTVSPropertyOp40
 70
     1
102
RTVSPropertyOp41
 70
     1
102
RTVSPropertyOp42
 70
     1
102
RTVSPropertyOp43
 70
     1
102
RTVSPropertyOp44
 70
     1
102
RTVSPropertyOp45
 70
     1
102
RTVSPropertyOp46
 70
     1
102
RTVSPropertyOp47
 70
     1
102
RTVSPropertyOp48
 70
     1
102
RTVSPropertyOp49
 70
     1
102
RTVSPropertyOp50
 70
     1
102
RTVSPropertyOp51
 70
     0
102
RTVSPropertyOp52
 70
     0
102
RTVSPropertyOp53
 70
     1
102
RTVSPropertyOp54
 70
     1
102
RTVSPropertyOp55
 70
     1
102
RTVSPropertyOp56
 70
     1
102
RTVSPropertyOp57
 70
     1
102
RTVSPost2010Prop28
280
     0
102
RTVSPost2010PropOp28
 70
     1
102
RTVSPost2010Prop29
280
     1
102
RTVSPost2010PropOp29
 70
     1
102
RTVSPost2010Prop30
280
     1
102
RTVSPost2010PropOp30
 70
     1
102
RTVSPost2010Prop31
280
     0
102
RTVSPost2010PropOp31
 70
     1
102
RTVSPost2010Prop32
280
     0
102
RTVSPost2010PropOp32
 70
     1
102
RTVSPost2010Prop33
280
     0
102
RTVSPost2010PropOp33
 70
     1
102
RTVSPost2010Prop34
280
     0
102
RTVSPost2010PropOp34
 70
     1
102
RTVSPost2010Prop35
280
     0
102
RTVSPost2010PropOp35
 70
     1
102
RTVSPost2010Prop36
280
     0
102
RTVSPost2010PropOp36
 70
     1
102
RTVSPost2010Prop37
 90
       50
102
RTVSPost2010PropOp37
 70
     1
102
RTVSPost2010Prop38
140
0.0
102
RTVSPost2010PropOp38
 70
     1
102
RTVSPost2010Prop39
140
1.0
102
RTVSPost2010PropOp39
 70
     1
102
RTVSPost2010Prop40
 90
        0
102
RTVSPost2010PropOp40
 70
     1
102
RTVSPost2010Prop41ColorIndex
 90
       18
102
RTVSPost2010Prop41ColorRGB
 90
        0
102
RTVSPost2010PropOp41
 70
     1
102
RTVSPost2010Prop42
 90
       50
102
RTVSPost2010PropOp42
 70
     1
102
RTVSPost2010Prop43
 90
        3
102
RTVSPost2010PropOp43
 70
     1
102
RTVSPost2010Prop44ColorIndex
 90
        5
102
RTVSPost2010Prop44ColorRGB
 90
      255
102
RTVSPost2010PropOp44
 70
     1
102
RTVSPost2010Prop45
280
     0
102
RTVSPost2010PropOp45
 70
     1
102
RTVSPost2010Prop46
 90
       50
102
RTVSPost2010PropOp46
 70
     1
102
RTVSPost2010Prop47
 90
       50
102
RTVSPost2010PropOp47
 70
     1
102
RTVSPost2010Prop48
 90
       50
102
RTVSPost2010PropOp48
 70
     1
102
RTVSPost2010Prop49
280
     0
102
RTVSPost2010PropOp49
 70
     1
102
RTVSPost2010Prop50
 90
       50
102
RTVSPost2010PropOp50
 70
     1
102
RTVSPost2010Prop51ColorIndex
 90
      256
102
RTVSPost2010Prop51ColorRGB
 90
-16777216
102
RTVSPost2010PropOp51
 70
     0
102
RTVSPost2010Prop52
140
1.0
102
RTVSPost2010PropOp52
 70
     0
102
RTVSPost2010Prop53
 90
        2
102
RTVSPost2010PropOp53
 70
     1
102
RTVSPost2010Prop54
  1
strokes_ogs.tif
102
RTVSPost2010PropOp54
 70
     1
102
RTVSPost2010Prop55
280
     0
102
RTVSPost2010PropOp55
 70
     1
102
RTVSPost2010Prop56
140
1.0
102
RTVSPost2010PropOp56
 70
     1
102
RTVSPost2010Prop57
140
1.0
102
RTVSPost2010PropOp57
 70
     1
  0
XRECORD
  5
34F
102
{ACAD_REACTORS
330
34E
102
}
330
34E
100
AcDbXrecord
280
     1
102
RTVSPropertyOp0
 70
     1
102
RTVSPropertyOp1
 70
     1
102
RTVSPropertyOp2
 70
     1
102
RTVSPropertyOp3
 70
     1
102
RTVSPropertyOp4
 70
     1
102
RTVSPropertyOp5
 70
     1
102
RTVSPropertyOp6
 70
     1
102
RTVSPropertyOp7
 70
     1
102
RTVSPropertyOp8
 70
     1
102
RTVSPropertyOp9
 70
     1
102
RTVSPropertyOp10
 70
     1
102
RTVSPropertyOp11
 70
     1
102
RTVSPropertyOp12
 70
     1
102
RTVSPropertyOp13
 70
     1
102
RTVSPropertyOp14
 70
     1
102
RTVSPropertyOp15
 70
     1
102
RTVSPropertyOp16
 70
     1
102
RTVSPropertyOp17
 70
     1
102
RTVSPropertyOp18
 70
     1
102
RTVSPropertyOp19
 70
     1
102
RTVSPropertyOp20
 70
     1
102
RTVSPropertyOp21
 70
     1
102
RTVSPropertyOp22
 70
     1
102
RTVSPropertyOp23
 70
     1
102
RTVSPropertyOp24
 70
     1
102
RTVSPropertyOp25
 70
     1
102
RTVSPropertyOp26
 70
     1
102
RTVSPropertyOp27
 70
     1
102
RTVSPropertyOp28
 70
     1
102
RTVSPropertyOp29
 70
     1
102
RTVSPropertyOp30
 70
     1
102
RTVSPropertyOp31
 70
     1
102
RTVSPropertyOp32
 70
     1
102
RTVSPropertyOp33
 70
     1
102
RTVSPropertyOp34
 70
     1
102
RTVSPropertyOp35
 70
     1
102
RTVSPropertyOp36
 70
     1
102
RTVSPropertyOp37
 70
     1
102
RTVSPropertyOp38
 70
     1
102
RTVSPropertyOp39
 70
     1
102
RTVSPropertyOp40
 70
     1
102
RTVSPropertyOp41
 70
     1
102
RTVSPropertyOp42
 70
     1
102
RTVSPropertyOp43
 70
     1
102
RTVSPropertyOp44
 70
     1
102
RTVSPropertyOp45
 70
     1
102
RTVSPropertyOp46
 70
     1
102
RTVSPropertyOp47
 70
     1
102
RTVSPropertyOp48
 70
     1
102
RTVSPropertyOp49
 70
     1
102
RTVSPropertyOp50
 70
     1
102
RTVSPropertyOp51
 70
     0
102
RTVSPropertyOp52
 70
     0
102
RTVSPropertyOp53
 70
     1
102
RTVSPropertyOp54
 70
     1
102
RTVSPropertyOp55
 70
     1
102
RTVSPropertyOp56
 70
     1
102
RTVSPropertyOp57
 70
     1
102
RTVSPost2010Prop28
280
     0
102
RTVSPost2010PropOp28
 70
     1
102
RTVSPost2010Prop29
280
     1
102
RTVSPost2010PropOp29
 70
     1
102
RTVSPost2010Prop30
280
     1
102
RTVSPost2010PropOp30
 70
     1
102
RTVSPost2010Prop31
280
     0
102
RTVSPost2010PropOp31
 70
     1
102
RTVSPost2010Prop32
280
     0
102
RTVSPost2010PropOp32
 70
     1
102
RTVSPost2010Prop33
280
     0
102
RTVSPost2010PropOp33
 70
     1
102
RTVSPost2010Prop34
280
     0
102
RTVSPost2010PropOp34
 70
     1
102
RTVSPost2010Prop35
280
     0
102
RTVSPost2010PropOp35
 70
     1
102
RTVSPost2010Prop36
280
     0
102
RTVSPost2010PropOp36
 70
     1
102
RTVSPost2010Prop37
 90
       50
102
RTVSPost2010PropOp37
 70
     1
102
RTVSPost2010Prop38
140
0.0
102
RTVSPost2010PropOp38
 70
     1
102
RTVSPost2010Prop39
140
1.0
102
RTVSPost2010PropOp39
 70
     1
102
RTVSPost2010Prop40
 90
        0
102
RTVSPost2010PropOp40
 70
     1
102
RTVSPost2010Prop41ColorIndex
 90
       18
102
RTVSPost2010Prop41ColorRGB
 90
        0
102
RTVSPost2010PropOp41
 70
     1
102
RTVSPost2010Prop42
 90
       50
102
RTVSPost2010PropOp42
 70
     1
102
RTVSPost2010Prop43
 90
        3
102
RTVSPost2010PropOp43
 70
     1
102
RTVSPost2010Prop44ColorIndex
 90
        5
102
RTVSPost2010Prop44ColorRGB
 90
      255
102
RTVSPost2010PropOp44
 70
     1
102
RTVSPost2010Prop45
280
     0
102
RTVSPost2010PropOp45
 70
     1
102
RTVSPost2010Prop46
 90
       50
102
RTVSPost2010PropOp46
 70
     1
102
RTVSPost2010Prop47
 90
       50
102
RTVSPost2010PropOp47
 70
     1
102
RTVSPost2010Prop48
 90
       50
102
RTVSPost2010PropOp48
 70
     1
102
RTVSPost2010Prop49
280
     0
102
RTVSPost2010PropOp49
 70
     1
102
RTVSPost2010Prop50
 90
       50
102
RTVSPost2010PropOp50
 70
     1
102
RTVSPost2010Prop51ColorIndex
 90
      256
102
RTVSPost2010Prop51ColorRGB
 90
-16777216
102
RTVSPost2010PropOp51
 70
     0
102
RTVSPost2010Prop52
140
1.0
102
RTVSPost2010PropOp52
 70
     0
102
RTVSPost2010Prop53
 90
        2
102
RTVSPost2010PropOp53
 70
     1
102
RTVSPost2010Prop54
  1
strokes_ogs.tif
102
RTVSPost2010PropOp54
 70
     1
102
RTVSPost2010Prop55
280
     0
102
RTVSPost2010PropOp55
 70
     1
102
RTVSPost2010Prop56
140
1.0
102
RTVSPost2010PropOp56
 70
     1
102
RTVSPost2010Prop57
140
1.0
102
RTVSPost2010PropOp57
 70
     1
  0
XRECORD
  5
351
102
{ACAD_REACTORS
330
350
102
}
330
350
100
AcDbXrecord
280
     1
102
RTVSPropertyOp0
 70
     1
102
RTVSPropertyOp1
 70
     1
102
RTVSPropertyOp2
 70
     1
102
RTVSPropertyOp3
 70
     1
102
RTVSPropertyOp4
 70
     1
102
RTVSPropertyOp5
 70
     1
102
RTVSPropertyOp6
 70
     1
102
RTVSPropertyOp7
 70
     1
102
RTVSPropertyOp8
 70
     1
102
RTVSPropertyOp9
 70
     1
102
RTVSPropertyOp10
 70
     1
102
RTVSPropertyOp11
 70
     1
102
RTVSPropertyOp12
 70
     1
102
RTVSPropertyOp13
 70
     1
102
RTVSPropertyOp14
 70
     1
102
RTVSPropertyOp15
 70
     1
102
RTVSPropertyOp16
 70
     1
102
RTVSPropertyOp17
 70
     1
102
RTVSPropertyOp18
 70
     1
102
RTVSPropertyOp19
 70
     1
102
RTVSPropertyOp20
 70
     1
102
RTVSPropertyOp21
 70
     1
102
RTVSPropertyOp22
 70
     1
102
RTVSPropertyOp23
 70
     1
102
RTVSPropertyOp24
 70
     1
102
RTVSPropertyOp25
 70
     1
102
RTVSPropertyOp26
 70
     1
102
RTVSPropertyOp27
 70
     1
102
RTVSPropertyOp28
 70
     1
102
RTVSPropertyOp29
 70
     1
102
RTVSPropertyOp30
 70
     1
102
RTVSPropertyOp31
 70
     1
102
RTVSPropertyOp32
 70
     1
102
RTVSPropertyOp33
 70
     1
102
RTVSPropertyOp34
 70
     1
102
RTVSPropertyOp35
 70
     1
102
RTVSPropertyOp36
 70
     1
102
RTVSPropertyOp37
 70
     1
102
RTVSPropertyOp38
 70
     1
102
RTVSPropertyOp39
 70
     1
102
RTVSPropertyOp40
 70
     1
102
RTVSPropertyOp41
 70
     1
102
RTVSPropertyOp42
 70
     1
102
RTVSPropertyOp43
 70
     1
102
RTVSPropertyOp44
 70
     1
102
RTVSPropertyOp45
 70
     1
102
RTVSPropertyOp46
 70
     1
102
RTVSPropertyOp47
 70
     1
102
RTVSPropertyOp48
 70
     1
102
RTVSPropertyOp49
 70
     1
102
RTVSPropertyOp50
 70
     1
102
RTVSPropertyOp51
 70
     0
102
RTVSPropertyOp52
 70
     0
102
RTVSPropertyOp53
 70
     1
102
RTVSPropertyOp54
 70
     1
102
RTVSPropertyOp55
 70
     1
102
RTVSPropertyOp56
 70
     1
102
RTVSPropertyOp57
 70
     1
102
RTVSPost2010Prop28
280
     0
102
RTVSPost2010PropOp28
 70
     1
102
RTVSPost2010Prop29
280
     1
102
RTVSPost2010PropOp29
 70
     1
102
RTVSPost2010Prop30
280
     1
102
RTVSPost2010PropOp30
 70
     1
102
RTVSPost2010Prop31
280
     0
102
RTVSPost2010PropOp31
 70
     1
102
RTVSPost2010Prop32
280
     0
102
RTVSPost2010PropOp32
 70
     1
102
RTVSPost2010Prop33
280
     0
102
RTVSPost2010PropOp33
 70
     1
102
RTVSPost2010Prop34
280
     0
102
RTVSPost2010PropOp34
 70
     1
102
RTVSPost2010Prop35
280
     0
102
RTVSPost2010PropOp35
 70
     1
102
RTVSPost2010Prop36
280
     0
102
RTVSPost2010PropOp36
 70
     1
102
RTVSPost2010Prop37
 90
       50
102
RTVSPost2010PropOp37
 70
     1
102
RTVSPost2010Prop38
140
0.0
102
RTVSPost2010PropOp38
 70
     1
102
RTVSPost2010Prop39
140
1.0
102
RTVSPost2010PropOp39
 70
     1
102
RTVSPost2010Prop40
 90
        0
102
RTVSPost2010PropOp40
 70
     1
102
RTVSPost2010Prop41ColorIndex
 90
       18
102
RTVSPost2010Prop41ColorRGB
 90
        0
102
RTVSPost2010PropOp41
 70
     1
102
RTVSPost2010Prop42
 90
       50
102
RTVSPost2010PropOp42
 70
     1
102
RTVSPost2010Prop43
 90
        3
102
RTVSPost2010PropOp43
 70
     1
102
RTVSPost2010Prop44ColorIndex
 90
        5
102
RTVSPost2010Prop44ColorRGB
 90
      255
102
RTVSPost2010PropOp44
 70
     1
102
RTVSPost2010Prop45
280
     0
102
RTVSPost2010PropOp45
 70
     1
102
RTVSPost2010Prop46
 90
       50
102
RTVSPost2010PropOp46
 70
     1
102
RTVSPost2010Prop47
 90
       50
102
RTVSPost2010PropOp47
 70
     1
102
RTVSPost2010Prop48
 90
       50
102
RTVSPost2010PropOp48
 70
     1
102
RTVSPost2010Prop49
280
     0
102
RTVSPost2010PropOp49
 70
     1
102
RTVSPost2010Prop50
 90
       50
102
RTVSPost2010PropOp50
 70
     1
102
RTVSPost2010Prop51ColorIndex
 90
      256
102
RTVSPost2010Prop51ColorRGB
 90
-16777216
102
RTVSPost2010PropOp51
 70
     0
102
RTVSPost2010Prop52
140
1.0
102
RTVSPost2010PropOp52
 70
     0
102
RTVSPost2010Prop53
 90
        2
102
RTVSPost2010PropOp53
 70
     1
102
RTVSPost2010Prop54
  1
strokes_ogs.tif
102
RTVSPost2010PropOp54
 70
     1
102
RTVSPost2010Prop55
280
     0
102
RTVSPost2010PropOp55
 70
     1
102
RTVSPost2010Prop56
140
1.0
102
RTVSPost2010PropOp56
 70
     1
102
RTVSPost2010Prop57
140
1.0
102
RTVSPost2010PropOp57
 70
     1
  0
XRECORD
  5
353
102
{ACAD_REACTORS
330
352
102
}
330
352
100
AcDbXrecord
280
     1
102
RTVSPropertyOp0
 70
     1
102
RTVSPropertyOp1
 70
     1
102
RTVSPropertyOp2
 70
     1
102
RTVSPropertyOp3
 70
     1
102
RTVSPropertyOp4
 70
     1
102
RTVSPropertyOp5
 70
     1
102
RTVSPropertyOp6
 70
     1
102
RTVSPropertyOp7
 70
     1
102
RTVSPropertyOp8
 70
     1
102
RTVSPropertyOp9
 70
     1
102
RTVSPropertyOp10
 70
     1
102
RTVSPropertyOp11
 70
     1
102
RTVSPropertyOp12
 70
     1
102
RTVSPropertyOp13
 70
     1
102
RTVSPropertyOp14
 70
     1
102
RTVSPropertyOp15
 70
     1
102
RTVSPropertyOp16
 70
     1
102
RTVSPropertyOp17
 70
     1
102
RTVSPropertyOp18
 70
     1
102
RTVSPropertyOp19
 70
     1
102
RTVSPropertyOp20
 70
     1
102
RTVSPropertyOp21
 70
     1
102
RTVSPropertyOp22
 70
     1
102
RTVSPropertyOp23
 70
     1
102
RTVSPropertyOp24
 70
     1
102
RTVSPropertyOp25
 70
     1
102
RTVSPropertyOp26
 70
     1
102
RTVSPropertyOp27
 70
     1
102
RTVSPropertyOp28
 70
     1
102
RTVSPropertyOp29
 70
     1
102
RTVSPropertyOp30
 70
     1
102
RTVSPropertyOp31
 70
     1
102
RTVSPropertyOp32
 70
     1
102
RTVSPropertyOp33
 70
     1
102
RTVSPropertyOp34
 70
     1
102
RTVSPropertyOp35
 70
     1
102
RTVSPropertyOp36
 70
     1
102
RTVSPropertyOp37
 70
     1
102
RTVSPropertyOp38
 70
     1
102
RTVSPropertyOp39
 70
     1
102
RTVSPropertyOp40
 70
     1
102
RTVSPropertyOp41
 70
     1
102
RTVSPropertyOp42
 70
     1
102
RTVSPropertyOp43
 70
     1
102
RTVSPropertyOp44
 70
     1
102
RTVSPropertyOp45
 70
     1
102
RTVSPropertyOp46
 70
     1
102
RTVSPropertyOp47
 70
     1
102
RTVSPropertyOp48
 70
     1
102
RTVSPropertyOp49
 70
     1
102
RTVSPropertyOp50
 70
     1
102
RTVSPropertyOp51
 70
     0
102
RTVSPropertyOp52
 70
     0
102
RTVSPropertyOp53
 70
     1
102
RTVSPropertyOp54
 70
     1
102
RTVSPropertyOp55
 70
     1
102
RTVSPropertyOp56
 70
     1
102
RTVSPropertyOp57
 70
     1
102
RTVSPost2010Prop28
280
     0
102
RTVSPost2010PropOp28
 70
     1
102
RTVSPost2010Prop29
280
     1
102
RTVSPost2010PropOp29
 70
     1
102
RTVSPost2010Prop30
280
     1
102
RTVSPost2010PropOp30
 70
     1
102
RTVSPost2010Prop31
280
     0
102
RTVSPost2010PropOp31
 70
     1
102
RTVSPost2010Prop32
280
     0
102
RTVSPost2010PropOp32
 70
     1
102
RTVSPost2010Prop33
280
     0
102
RTVSPost2010PropOp33
 70
     1
102
RTVSPost2010Prop34
280
     0
102
RTVSPost2010PropOp34
 70
     1
102
RTVSPost2010Prop35
280
     0
102
RTVSPost2010PropOp35
 70
     1
102
RTVSPost2010Prop36
280
     0
102
RTVSPost2010PropOp36
 70
     1
102
RTVSPost2010Prop37
 90
       50
102
RTVSPost2010PropOp37
 70
     1
102
RTVSPost2010Prop38
140
0.0
102
RTVSPost2010PropOp38
 70
     1
102
RTVSPost2010Prop39
140
1.0
102
RTVSPost2010PropOp39
 70
     1
102
RTVSPost2010Prop40
 90
        0
102
RTVSPost2010PropOp40
 70
     1
102
RTVSPost2010Prop41ColorIndex
 90
       18
102
RTVSPost2010Prop41ColorRGB
 90
        0
102
RTVSPost2010PropOp41
 70
     1
102
RTVSPost2010Prop42
 90
       50
102
RTVSPost2010PropOp42
 70
     1
102
RTVSPost2010Prop43
 90
        3
102
RTVSPost2010PropOp43
 70
     1
102
RTVSPost2010Prop44ColorIndex
 90
        5
102
RTVSPost2010Prop44ColorRGB
 90
      255
102
RTVSPost2010PropOp44
 70
     1
102
RTVSPost2010Prop45
280
     0
102
RTVSPost2010PropOp45
 70
     1
102
RTVSPost2010Prop46
 90
       50
102
RTVSPost2010PropOp46
 70
     1
102
RTVSPost2010Prop47
 90
       50
102
RTVSPost2010PropOp47
 70
     1
102
RTVSPost2010Prop48
 90
       50
102
RTVSPost2010PropOp48
 70
     1
102
RTVSPost2010Prop49
280
     0
102
RTVSPost2010PropOp49
 70
     1
102
RTVSPost2010Prop50
 90
       50
102
RTVSPost2010PropOp50
 70
     1
102
RTVSPost2010Prop51ColorIndex
 90
      256
102
RTVSPost2010Prop51ColorRGB
 90
-16777216
102
RTVSPost2010PropOp51
 70
     0
102
RTVSPost2010Prop52
140
1.0
102
RTVSPost2010PropOp52
 70
     0
102
RTVSPost2010Prop53
 90
        2
102
RTVSPost2010PropOp53
 70
     1
102
RTVSPost2010Prop54
  1
strokes_ogs.tif
102
RTVSPost2010PropOp54
 70
     1
102
RTVSPost2010Prop55
280
     0
102
RTVSPost2010PropOp55
 70
     1
102
RTVSPost2010Prop56
140
1.0
102
RTVSPost2010PropOp56
 70
     1
102
RTVSPost2010Prop57
140
1.0
102
RTVSPost2010PropOp57
 70
     1
  0
XRECORD
  5
367
102
{ACAD_REACTORS
330
366
102
}
330
366
100
AcDbXrecord
280
     1
102
RTVSPropertyOp0
 70
     1
102
RTVSPropertyOp1
 70
     1
102
RTVSPropertyOp2
 70
     1
102
RTVSPropertyOp3
 70
     1
102
RTVSPropertyOp4
 70
     1
102
RTVSPropertyOp5
 70
     1
102
RTVSPropertyOp6
 70
     1
102
RTVSPropertyOp7
 70
     1
102
RTVSPropertyOp8
 70
     1
102
RTVSPropertyOp9
 70
     1
102
RTVSPropertyOp10
 70
     1
102
RTVSPropertyOp11
 70
     1
102
RTVSPropertyOp12
 70
     1
102
RTVSPropertyOp13
 70
     1
102
RTVSPropertyOp14
 70
     1
102
RTVSPropertyOp15
 70
     1
102
RTVSPropertyOp16
 70
     1
102
RTVSPropertyOp17
 70
     1
102
RTVSPropertyOp18
 70
     1
102
RTVSPropertyOp19
 70
     1
102
RTVSPropertyOp20
 70
     1
102
RTVSPropertyOp21
 70
     1
102
RTVSPropertyOp22
 70
     1
102
RTVSPropertyOp23
 70
     1
102
RTVSPropertyOp24
 70
     1
102
RTVSPropertyOp25
 70
     1
102
RTVSPropertyOp26
 70
     1
102
RTVSPropertyOp27
 70
     1
102
RTVSPropertyOp28
 70
     1
102
RTVSPropertyOp29
 70
     1
102
RTVSPropertyOp30
 70
     1
102
RTVSPropertyOp31
 70
     1
102
RTVSPropertyOp32
 70
     1
102
RTVSPropertyOp33
 70
     1
102
RTVSPropertyOp34
 70
     1
102
RTVSPropertyOp35
 70
     1
102
RTVSPropertyOp36
 70
     1
102
RTVSPropertyOp37
 70
     1
102
RTVSPropertyOp38
 70
     1
102
RTVSPropertyOp39
 70
     1
102
RTVSPropertyOp40
 70
     1
102
RTVSPropertyOp41
 70
     1
102
RTVSPropertyOp42
 70
     1
102
RTVSPropertyOp43
 70
     1
102
RTVSPropertyOp44
 70
     1
102
RTVSPropertyOp45
 70
     1
102
RTVSPropertyOp46
 70
     1
102
RTVSPropertyOp47
 70
     1
102
RTVSPropertyOp48
 70
     1
102
RTVSPropertyOp49
 70
     1
102
RTVSPropertyOp50
 70
     1
102
RTVSPropertyOp51
 70
     0
102
RTVSPropertyOp52
 70
     0
102
RTVSPropertyOp53
 70
     1
102
RTVSPropertyOp54
 70
     1
102
RTVSPropertyOp55
 70
     1
102
RTVSPropertyOp56
 70
     1
102
RTVSPropertyOp57
 70
     1
102
RTVSPost2010Prop28
280
     0
102
RTVSPost2010PropOp28
 70
     1
102
RTVSPost2010Prop29
280
     1
102
RTVSPost2010PropOp29
 70
     1
102
RTVSPost2010Prop30
280
     1
102
RTVSPost2010PropOp30
 70
     1
102
RTVSPost2010Prop31
280
     0
102
RTVSPost2010PropOp31
 70
     1
102
RTVSPost2010Prop32
280
     0
102
RTVSPost2010PropOp32
 70
     1
102
RTVSPost2010Prop33
280
     0
102
RTVSPost2010PropOp33
 70
     1
102
RTVSPost2010Prop34
280
     0
102
RTVSPost2010PropOp34
 70
     1
102
RTVSPost2010Prop35
280
     0
102
RTVSPost2010PropOp35
 70
     1
102
RTVSPost2010Prop36
280
     0
102
RTVSPost2010PropOp36
 70
     1
102
RTVSPost2010Prop37
 90
       50
102
RTVSPost2010PropOp37
 70
     1
102
RTVSPost2010Prop38
140
0.0
102
RTVSPost2010PropOp38
 70
     1
102
RTVSPost2010Prop39
140
1.0
102
RTVSPost2010PropOp39
 70
     1
102
RTVSPost2010Prop40
 90
        0
102
RTVSPost2010PropOp40
 70
     1
102
RTVSPost2010Prop41ColorIndex
 90
       18
102
RTVSPost2010Prop41ColorRGB
 90
        0
102
RTVSPost2010PropOp41
 70
     1
102
RTVSPost2010Prop42
 90
       50
102
RTVSPost2010PropOp42
 70
     1
102
RTVSPost2010Prop43
 90
        3
102
RTVSPost2010PropOp43
 70
     1
102
RTVSPost2010Prop44ColorIndex
 90
        5
102
RTVSPost2010Prop44ColorRGB
 90
      255
102
RTVSPost2010PropOp44
 70
     1
102
RTVSPost2010Prop45
280
     0
102
RTVSPost2010PropOp45
 70
     1
102
RTVSPost2010Prop46
 90
       50
102
RTVSPost2010PropOp46
 70
     1
102
RTVSPost2010Prop47
 90
       50
102
RTVSPost2010PropOp47
 70
     1
102
RTVSPost2010Prop48
 90
       50
102
RTVSPost2010PropOp48
 70
     1
102
RTVSPost2010Prop49
280
     0
102
RTVSPost2010PropOp49
 70
     1
102
RTVSPost2010Prop50
 90
       50
102
RTVSPost2010PropOp50
 70
     1
102
RTVSPost2010Prop51ColorIndex
 90
      256
102
RTVSPost2010Prop51ColorRGB
 90
-16777216
102
RTVSPost2010PropOp51
 70
     0
102
RTVSPost2010Prop52
140
1.0
102
RTVSPost2010PropOp52
 70
     0
102
RTVSPost2010Prop53
 90
        2
102
RTVSPost2010PropOp53
 70
     1
102
RTVSPost2010Prop54
  1
strokes_ogs.tif
102
RTVSPost2010PropOp54
 70
     1
102
RTVSPost2010Prop55
280
     0
102
RTVSPost2010PropOp55
 70
     1
102
RTVSPost2010Prop56
140
1.0
102
RTVSPost2010PropOp56
 70
     1
102
RTVSPost2010Prop57
140
1.0
102
RTVSPost2010PropOp57
 70
     1
  0
XRECORD
  5
35D
102
{ACAD_REACTORS
330
35C
102
}
330
35C
100
AcDbXrecord
280
     1
102
RTVSPropertyOp0
 70
     1
102
RTVSPropertyOp1
 70
     1
102
RTVSPropertyOp2
 70
     1
102
RTVSPropertyOp3
 70
     1
102
RTVSPropertyOp4
 70
     1
102
RTVSPropertyOp5
 70
     1
102
RTVSPropertyOp6
 70
     1
102
RTVSPropertyOp7
 70
     1
102
RTVSPropertyOp8
 70
     1
102
RTVSPropertyOp9
 70
     1
102
RTVSPropertyOp10
 70
     1
102
RTVSPropertyOp11
 70
     1
102
RTVSPropertyOp12
 70
     1
102
RTVSPropertyOp13
 70
     1
102
RTVSPropertyOp14
 70
     1
102
RTVSPropertyOp15
 70
     1
102
RTVSPropertyOp16
 70
     1
102
RTVSPropertyOp17
 70
     1
102
RTVSPropertyOp18
 70
     1
102
RTVSPropertyOp19
 70
     1
102
RTVSPropertyOp20
 70
     1
102
RTVSPropertyOp21
 70
     1
102
RTVSPropertyOp22
 70
     1
102
RTVSPropertyOp23
 70
     1
102
RTVSPropertyOp24
 70
     1
102
RTVSPropertyOp25
 70
     1
102
RTVSPropertyOp26
 70
     1
102
RTVSPropertyOp27
 70
     1
102
RTVSPropertyOp28
 70
     1
102
RTVSPropertyOp29
 70
     1
102
RTVSPropertyOp30
 70
     1
102
RTVSPropertyOp31
 70
     1
102
RTVSPropertyOp32
 70
     1
102
RTVSPropertyOp33
 70
     1
102
RTVSPropertyOp34
 70
     1
102
RTVSPropertyOp35
 70
     1
102
RTVSPropertyOp36
 70
     1
102
RTVSPropertyOp37
 70
     1
102
RTVSPropertyOp38
 70
     1
102
RTVSPropertyOp39
 70
     1
102
RTVSPropertyOp40
 70
     1
102
RTVSPropertyOp41
 70
     1
102
RTVSPropertyOp42
 70
     1
102
RTVSPropertyOp43
 70
     1
102
RTVSPropertyOp44
 70
     1
102
RTVSPropertyOp45
 70
     1
102
RTVSPropertyOp46
 70
     1
102
RTVSPropertyOp47
 70
     1
102
RTVSPropertyOp48
 70
     1
102
RTVSPropertyOp49
 70
     1
102
RTVSPropertyOp50
 70
     1
102
RTVSPropertyOp51
 70
     0
102
RTVSPropertyOp52
 70
     0
102
RTVSPropertyOp53
 70
     1
102
RTVSPropertyOp54
 70
     1
102
RTVSPropertyOp55
 70
     1
102
RTVSPropertyOp56
 70
     1
102
RTVSPropertyOp57
 70
     1
102
RTVSPost2010Prop28
280
     0
102
RTVSPost2010PropOp28
 70
     1
102
RTVSPost2010Prop29
280
     1
102
RTVSPost2010PropOp29
 70
     1
102
RTVSPost2010Prop30
280
     1
102
RTVSPost2010PropOp30
 70
     1
102
RTVSPost2010Prop31
280
     0
102
RTVSPost2010PropOp31
 70
     1
102
RTVSPost2010Prop32
280
     0
102
RTVSPost2010PropOp32
 70
     1
102
RTVSPost2010Prop33
280
     0
102
RTVSPost2010PropOp33
 70
     1
102
RTVSPost2010Prop34
280
     0
102
RTVSPost2010PropOp34
 70
     1
102
RTVSPost2010Prop35
280
     0
102
RTVSPost2010PropOp35
 70
     1
102
RTVSPost2010Prop36
280
     0
102
RTVSPost2010PropOp36
 70
     1
102
RTVSPost2010Prop37
 90
       50
102
RTVSPost2010PropOp37
 70
     1
102
RTVSPost2010Prop38
140
0.0
102
RTVSPost2010PropOp38
 70
     1
102
RTVSPost2010Prop39
140
1.0
102
RTVSPost2010PropOp39
 70
     1
102
RTVSPost2010Prop40
 90
        0
102
RTVSPost2010PropOp40
 70
     1
102
RTVSPost2010Prop41ColorIndex
 90
       18
102
RTVSPost2010Prop41ColorRGB
 90
        0
102
RTVSPost2010PropOp41
 70
     1
102
RTVSPost2010Prop42
 90
       50
102
RTVSPost2010PropOp42
 70
     1
102
RTVSPost2010Prop43
 90
        3
102
RTVSPost2010PropOp43
 70
     1
102
RTVSPost2010Prop44ColorIndex
 90
        5
102
RTVSPost2010Prop44ColorRGB
 90
      255
102
RTVSPost2010PropOp44
 70
     1
102
RTVSPost2010Prop45
280
     0
102
RTVSPost2010PropOp45
 70
     1
102
RTVSPost2010Prop46
 90
       50
102
RTVSPost2010PropOp46
 70
     1
102
RTVSPost2010Prop47
 90
       50
102
RTVSPost2010PropOp47
 70
     1
102
RTVSPost2010Prop48
 90
       50
102
RTVSPost2010PropOp48
 70
     1
102
RTVSPost2010Prop49
280
     0
102
RTVSPost2010PropOp49
 70
     1
102
RTVSPost2010Prop50
 90
       50
102
RTVSPost2010PropOp50
 70
     1
102
RTVSPost2010Prop51ColorIndex
 90
      256
102
RTVSPost2010Prop51ColorRGB
 90
-16777216
102
RTVSPost2010PropOp51
 70
     0
102
RTVSPost2010Prop52
140
1.0
102
RTVSPost2010PropOp52
 70
     0
102
RTVSPost2010Prop53
 90
        2
102
RTVSPost2010PropOp53
 70
     1
102
RTVSPost2010Prop54
  1
strokes_ogs.tif
102
RTVSPost2010PropOp54
 70
     1
102
RTVSPost2010Prop55
280
     0
102
RTVSPost2010PropOp55
 70
     1
102
RTVSPost2010Prop56
140
1.0
102
RTVSPost2010PropOp56
 70
     1
102
RTVSPost2010Prop57
140
1.0
102
RTVSPost2010PropOp57
 70
     1
  0
XRECORD
  5
365
102
{ACAD_REACTORS
330
364
102
}
330
364
100
AcDbXrecord
280
     1
102
RTVSPropertyOp0
 70
     1
102
RTVSPropertyOp1
 70
     1
102
RTVSPropertyOp2
 70
     1
102
RTVSPropertyOp3
 70
     1
102
RTVSPropertyOp4
 70
     1
102
RTVSPropertyOp5
 70
     1
102
RTVSPropertyOp6
 70
     1
102
RTVSPropertyOp7
 70
     1
102
RTVSPropertyOp8
 70
     1
102
RTVSPropertyOp9
 70
     1
102
RTVSPropertyOp10
 70
     1
102
RTVSPropertyOp11
 70
     1
102
RTVSPropertyOp12
 70
     1
102
RTVSPropertyOp13
 70
     1
102
RTVSPropertyOp14
 70
     1
102
RTVSPropertyOp15
 70
     1
102
RTVSPropertyOp16
 70
     1
102
RTVSPropertyOp17
 70
     1
102
RTVSPropertyOp18
 70
     1
102
RTVSPropertyOp19
 70
     1
102
RTVSPropertyOp20
 70
     1
102
RTVSPropertyOp21
 70
     1
102
RTVSPropertyOp22
 70
     1
102
RTVSPropertyOp23
 70
     1
102
RTVSPropertyOp24
 70
     1
102
RTVSPropertyOp25
 70
     1
102
RTVSPropertyOp26
 70
     1
102
RTVSPropertyOp27
 70
     1
102
RTVSPropertyOp28
 70
     1
102
RTVSPropertyOp29
 70
     1
102
RTVSPropertyOp30
 70
     1
102
RTVSPropertyOp31
 70
     1
102
RTVSPropertyOp32
 70
     1
102
RTVSPropertyOp33
 70
     1
102
RTVSPropertyOp34
 70
     1
102
RTVSPropertyOp35
 70
     1
102
RTVSPropertyOp36
 70
     1
102
RTVSPropertyOp37
 70
     1
102
RTVSPropertyOp38
 70
     1
102
RTVSPropertyOp39
 70
     1
102
RTVSPropertyOp40
 70
     1
102
RTVSPropertyOp41
 70
     1
102
RTVSPropertyOp42
 70
     1
102
RTVSPropertyOp43
 70
     1
102
RTVSPropertyOp44
 70
     1
102
RTVSPropertyOp45
 70
     1
102
RTVSPropertyOp46
 70
     1
102
RTVSPropertyOp47
 70
     1
102
RTVSPropertyOp48
 70
     1
102
RTVSPropertyOp49
 70
     1
102
RTVSPropertyOp50
 70
     1
102
RTVSPropertyOp51
 70
     0
102
RTVSPropertyOp52
 70
     0
102
RTVSPropertyOp53
 70
     1
102
RTVSPropertyOp54
 70
     1
102
RTVSPropertyOp55
 70
     1
102
RTVSPropertyOp56
 70
     1
102
RTVSPropertyOp57
 70
     1
102
RTVSPost2010Prop28
280
     0
102
RTVSPost2010PropOp28
 70
     1
102
RTVSPost2010Prop29
280
     1
102
RTVSPost2010PropOp29
 70
     1
102
RTVSPost2010Prop30
280
     1
102
RTVSPost2010PropOp30
 70
     1
102
RTVSPost2010Prop31
280
     0
102
RTVSPost2010PropOp31
 70
     1
102
RTVSPost2010Prop32
280
     0
102
RTVSPost2010PropOp32
 70
     1
102
RTVSPost2010Prop33
280
     0
102
RTVSPost2010PropOp33
 70
     1
102
RTVSPost2010Prop34
280
     0
102
RTVSPost2010PropOp34
 70
     1
102
RTVSPost2010Prop35
280
     0
102
RTVSPost2010PropOp35
 70
     1
102
RTVSPost2010Prop36
280
     0
102
RTVSPost2010PropOp36
 70
     1
102
RTVSPost2010Prop37
 90
       50
102
RTVSPost2010PropOp37
 70
     1
102
RTVSPost2010Prop38
140
0.0
102
RTVSPost2010PropOp38
 70
     1
102
RTVSPost2010Prop39
140
1.0
102
RTVSPost2010PropOp39
 70
     1
102
RTVSPost2010Prop40
 90
        0
102
RTVSPost2010PropOp40
 70
     1
102
RTVSPost2010Prop41ColorIndex
 90
       18
102
RTVSPost2010Prop41ColorRGB
 90
        0
102
RTVSPost2010PropOp41
 70
     1
102
RTVSPost2010Prop42
 90
       50
102
RTVSPost2010PropOp42
 70
     1
102
RTVSPost2010Prop43
 90
        3
102
RTVSPost2010PropOp43
 70
     1
102
RTVSPost2010Prop44ColorIndex
 90
        5
102
RTVSPost2010Prop44ColorRGB
 90
      255
102
RTVSPost2010PropOp44
 70
     1
102
RTVSPost2010Prop45
280
     0
102
RTVSPost2010PropOp45
 70
     1
102
RTVSPost2010Prop46
 90
       50
102
RTVSPost2010PropOp46
 70
     1
102
RTVSPost2010Prop47
 90
       50
102
RTVSPost2010PropOp47
 70
     1
102
RTVSPost2010Prop48
 90
       50
102
RTVSPost2010PropOp48
 70
     1
102
RTVSPost2010Prop49
280
     0
102
RTVSPost2010PropOp49
 70
     1
102
RTVSPost2010Prop50
 90
       50
102
RTVSPost2010PropOp50
 70
     1
102
RTVSPost2010Prop51ColorIndex
 90
      256
102
RTVSPost2010Prop51ColorRGB
 90
-16777216
102
RTVSPost2010PropOp51
 70
     0
102
RTVSPost2010Prop52
140
1.0
102
RTVSPost2010PropOp52
 70
     0
102
RTVSPost2010Prop53
 90
        2
102
RTVSPost2010PropOp53
 70
     1
102
RTVSPost2010Prop54
  1
strokes_ogs.tif
102
RTVSPost2010PropOp54
 70
     1
102
RTVSPost2010Prop55
280
     0
102
RTVSPost2010PropOp55
 70
     1
102
RTVSPost2010Prop56
140
1.0
102
RTVSPost2010PropOp56
 70
     1
102
RTVSPost2010Prop57
140
1.0
102
RTVSPost2010PropOp57
 70
     1
  0
ENDSEC
  0
EOF
