  0
SECTION
  2
HEADER
  9
$ACADVER
  1
AC1018
  9
$ACADMAINTVER
 70
     0
  9
$DWGCODEPAGE
  3
ANSI_936
  9
$INSBASE
 10
0.0
 20
0.0
 30
0.0
  9
$EXTMIN
 10
246.0326951410901
 20
118.9999999999896
 30
0.0
  9
$EXTMAX
 10
402.8900912751955
 20
179.6929449805284
 30
0.0
  9
$LIMMIN
 10
0.0
 20
0.0
  9
$LIMMAX
 10
12.0
 20
9.0
  9
$ORTHOMODE
 70
     0
  9
$REGENMODE
 70
     1
  9
$FILLMODE
 70
     1
  9
$QTEXTMODE
 70
     0
  9
$MIRRTEXT
 70
     1
  9
$LTSCALE
 40
1.0
  9
$ATTMODE
 70
     1
  9
$TEXTSIZE
 40
0.2
  9
$TRACEWID
 40
0.05
  9
$TEXTSTYLE
  7
Standard
  9
$CLAYER
  8
0
  9
$CELTYPE
  6
ByLayer
  9
$CECOLOR
 62
   256
  9
$CELTSCALE
 40
1.0
  9
$DISPSILH
 70
     0
  9
$DIMSCALE
 40
1.0
  9
$DIMASZ
 40
0.18
  9
$DIMEXO
 40
0.0625
  9
$DIMDLI
 40
0.38
  9
$DIMRND
 40
0.0
  9
$DIMDLE
 40
0.0
  9
$DIMEXE
 40
0.18
  9
$DIMTP
 40
0.0
  9
$DIMTM
 40
0.0
  9
$DIMTXT
 40
0.18
  9
$DIMCEN
 40
0.09
  9
$DIMTSZ
 40
0.0
  9
$DIMTOL
 70
     0
  9
$DIMLIM
 70
     0
  9
$DIMTIH
 70
     1
  9
$DIMTOH
 70
     1
  9
$DIMSE1
 70
     0
  9
$DIMSE2
 70
     0
  9
$DIMTAD
 70
     0
  9
$DIMZIN
 70
     0
  9
$DIMBLK
  1

  9
$DIMASO
 70
     1
  9
$DIMSHO
 70
     1
  9
$DIMPOST
  1

  9
$DIMAPOST
  1

  9
$DIMALT
 70
     0
  9
$DIMALTD
 70
     2
  9
$DIMALTF
 40
25.4
  9
$DIMLFAC
 40
1.0
  9
$DIMTOFL
 70
     0
  9
$DIMTVP
 40
0.0
  9
$DIMTIX
 70
     0
  9
$DIMSOXD
 70
     0
  9
$DIMSAH
 70
     0
  9
$DIMBLK1
  1

  9
$DIMBLK2
  1

  9
$DIMSTYLE
  2
Standard
  9
$DIMCLRD
 70
     0
  9
$DIMCLRE
 70
     0
  9
$DIMCLRT
 70
     0
  9
$DIMTFAC
 40
1.0
  9
$DIMGAP
 40
0.09
  9
$DIMJUST
 70
     0
  9
$DIMSD1
 70
     0
  9
$DIMSD2
 70
     0
  9
$DIMTOLJ
 70
     1
  9
$DIMTZIN
 70
     0
  9
$DIMALTZ
 70
     0
  9
$DIMALTTZ
 70
     0
  9
$DIMUPT
 70
     0
  9
$DIMDEC
 70
     4
  9
$DIMTDEC
 70
     4
  9
$DIMALTU
 70
     2
  9
$DIMALTTD
 70
     2
  9
$DIMTXSTY
  7
Standard
  9
$DIMAUNIT
 70
     0
  9
$DIMADEC
 70
     0
  9
$DIMALTRND
 40
0.0
  9
$DIMAZIN
 70
     0
  9
$DIMDSEP
 70
    46
  9
$DIMATFIT
 70
     3
  9
$DIMFRAC
 70
     0
  9
$DIMLDRBLK
  1

  9
$DIMLUNIT
 70
     2
  9
$DIMLWD
 70
    -2
  9
$DIMLWE
 70
    -2
  9
$DIMTMOVE
 70
     2
  9
$LUNITS
 70
     2
  9
$LUPREC
 70
     2
  9
$SKETCHINC
 40
0.1
  9
$FILLETRAD
 40
0.5
  9
$AUNITS
 70
     0
  9
$AUPREC
 70
     0
  9
$MENU
  1
.
  9
$ELEVATION
 40
0.0
  9
$PELEVATION
 40
0.0
  9
$THICKNESS
 40
0.0
  9
$LIMCHECK
 70
     0
  9
$CHAMFERA
 40
0.5
  9
$CHAMFERB
 40
0.5
  9
$CHAMFERC
 40
1.0
  9
$CHAMFERD
 40
0.0
  9
$SKPOLY
 70
     0
  9
$TDCREATE
 40
2456716.656005475
  9
$TDUCREATE
 40
2456716.322672141
  9
$TDUPDATE
 40
2456716.656008368
  9
$TDUUPDATE
 40
2456716.322675035
  9
$TDINDWG
 40
0.0000000116
  9
$TDUSRTIMER
 40
0.0000000116
  9
$USRTIMER
 70
     1
  9
$ANGBASE
 50
0.0
  9
$ANGDIR
 70
     0
  9
$PDMODE
 70
     0
  9
$PDSIZE
 40
0.0
  9
$PLINEWID
 40
0.0
  9
$SPLFRAME
 70
     0
  9
$SPLINETYPE
 70
     6
  9
$SPLINESEGS
 70
     8
  9
$HANDSEED
  5
4B3
  9
$SURFTAB1
 70
     6
  9
$SURFTAB2
 70
     6
  9
$SURFTYPE
 70
     6
  9
$SURFU
 70
     6
  9
$SURFV
 70
     6
  9
$UCSBASE
  2

  9
$UCSNAME
  2

  9
$UCSORG
 10
0.0
 20
0.0
 30
0.0
  9
$UCSXDIR
 10
1.0
 20
0.0
 30
0.0
  9
$UCSYDIR
 10
0.0
 20
1.0
 30
0.0
  9
$UCSORTHOREF
  2

  9
$UCSORTHOVIEW
 70
     0
  9
$UCSORGTOP
 10
0.0
 20
0.0
 30
0.0
  9
$UCSORGBOTTOM
 10
0.0
 20
0.0
 30
0.0
  9
$UCSORGLEFT
 10
0.0
 20
0.0
 30
0.0
  9
$UCSORGRIGHT
 10
0.0
 20
0.0
 30
0.0
  9
$UCSORGFRONT
 10
0.0
 20
0.0
 30
0.0
  9
$UCSORGBACK
 10
0.0
 20
0.0
 30
0.0
  9
$PUCSBASE
  2

  9
$PUCSNAME
  2

  9
$PUCSORG
 10
0.0
 20
0.0
 30
0.0
  9
$PUCSXDIR
 10
1.0
 20
0.0
 30
0.0
  9
$PUCSYDIR
 10
0.0
 20
1.0
 30
0.0
  9
$PUCSORTHOREF
  2

  9
$PUCSORTHOVIEW
 70
     0
  9
$PUCSORGTOP
 10
0.0
 20
0.0
 30
0.0
  9
$PUCSORGBOTTOM
 10
0.0
 20
0.0
 30
0.0
  9
$PUCSORGLEFT
 10
0.0
 20
0.0
 30
0.0
  9
$PUCSORGRIGHT
 10
0.0
 20
0.0
 30
0.0
  9
$PUCSORGFRONT
 10
0.0
 20
0.0
 30
0.0
  9
$PUCSORGBACK
 10
0.0
 20
0.0
 30
0.0
  9
$USERI1
 70
     0
  9
$USERI2
 70
     0
  9
$USERI3
 70
     0
  9
$USERI4
 70
     0
  9
$USERI5
 70
     0
  9
$USERR1
 40
0.0
  9
$USERR2
 40
0.0
  9
$USERR3
 40
0.0
  9
$USERR4
 40
0.0
  9
$USERR5
 40
0.0
  9
$WORLDVIEW
 70
     1
  9
$SHADEDGE
 70
     3
  9
$SHADEDIF
 70
    70
  9
$TILEMODE
 70
     1
  9
$MAXACTVP
 70
    64
  9
$PINSBASE
 10
0.0
 20
0.0
 30
0.0
  9
$PLIMCHECK
 70
     0
  9
$PEXTMIN
 10
1.000000000000000E+20
 20
1.000000000000000E+20
 30
1.000000000000000E+20
  9
$PEXTMAX
 10
-1.000000000000000E+20
 20
-1.000000000000000E+20
 30
-1.000000000000000E+20
  9
$PLIMMIN
 10
0.0
 20
0.0
  9
$PLIMMAX
 10
12.0
 20
9.0
  9
$UNITMODE
 70
     0
  9
$VISRETAIN
 70
     1
  9
$PLINEGEN
 70
     0
  9
$PSLTSCALE
 70
     1
  9
$TREEDEPTH
 70
  3020
  9
$CMLSTYLE
  2
Standard
  9
$CMLJUST
 70
     0
  9
$CMLSCALE
 40
1.0
  9
$PROXYGRAPHICS
 70
     1
  9
$MEASUREMENT
 70
     0
  9
$CELWEIGHT
370
    -1
  9
$ENDCAPS
280
     0
  9
$JOINSTYLE
280
     0
  9
$LWDISPLAY
290
     0
  9
$INSUNITS
 70
     4
  9
$HYPERLINKBASE
  1

  9
$STYLESHEET
  1

  9
$XEDIT
290
     1
  9
$CEPSNTYPE
380
     0
  9
$PSTYLEMODE
290
     1
  9
$FINGERPRINTGUID
  2
{6E65A1CD-D0FE-4076-9D0F-6CC77A105294}
  9
$VERSIONGUID
  2
{FAEB1C32-E019-11D5-929B-00C0DF256EC4}
  9
$EXTNAMES
290
     1
  9
$PSVPSCALE
 40
0.0
  9
$OLESTARTUP
290
     0
  9
$SORTENTS
280
   127
  9
$INDEXCTL
280
     0
  9
$HIDETEXT
280
     1
  9
$XCLIPFRAME
290
     0
  9
$HALOGAP
280
     0
  9
$OBSCOLOR
 70
   257
  9
$OBSLTYPE
280
     0
  9
$INTERSECTIONDISPLAY
280
     0
  9
$INTERSECTIONCOLOR
 70
   257
  9
$DIMASSOC
280
     2
  9
$PROJECTNAME
  1

  0
ENDSEC
  0
SECTION
  2
CLASSES
  0
CLASS
  1
ACDBDICTIONARYWDFLT
  2
AcDbDictionaryWithDefault
  3
ObjectDBX Classes
 90
        0
 91
        4
280
     0
281
     0
  0
CLASS
  1
VISUALSTYLE
  2
AcDbVisualStyle
  3
ObjectDBX Classes
 90
     4095
 91
        4
280
     0
281
     0
  0
CLASS
  1
MATERIAL
  2
AcDbMaterial
  3
ObjectDBX Classes
 90
     1153
 91
        4
280
     0
281
     0
  0
CLASS
  1
SCALE
  2
AcDbScale
  3
ObjectDBX Classes
 90
     1153
 91
        4
280
     0
281
     0
  0
CLASS
  1
SUN
  2
AcDbSun
  3
SCENEOE
 90
     1153
 91
        4
280
     0
281
     0
  0
CLASS
  1
DICTIONARYVAR
  2
AcDbDictionaryVar
  3
ObjectDBX Classes
 90
        0
 91
        4
280
     0
281
     0
  0
ENDSEC
  0
SECTION
  2
TABLES
  0
TABLE
  2
VPORT
  5
8
330
0
100
AcDbSymbolTable
 70
     1
  0
VPORT
  5
29
330
8
100
AcDbSymbolTableRecord
100
AcDbViewportTableRecord
  2
*Active
 70
     0
 10
0.0
 20
0.0
 11
1.0
 21
1.0
 12
324.46400841216
 22
149.3768004382688
 13
0.0
 23
0.0
 14
0.5
 24
0.5
 15
0.5
 25
0.5
 16
0.0
 26
0.0
 36
1.0
 17
0.0
 27
0.0
 37
0.0
 40
61.83426483381979
 41
2.587387583091111
 42
50.0
 43
0.0
 44
0.0
 50
0.0
 51
0.0
 71
     0
 72
   100
 73
     1
 74
     3
 75
     0
 76
     0
 77
     0
 78
     0
281
     0
 65
     1
110
0.0
120
0.0
130
0.0
111
1.0
121
0.0
131
0.0
112
0.0
122
1.0
132
0.0
 79
     0
146
0.0
  0
ENDTAB
  0
TABLE
  2
LTYPE
  5
5
330
0
100
AcDbSymbolTable
 70
     1
  0
LTYPE
  5
14
330
5
100
AcDbSymbolTableRecord
100
AcDbLinetypeTableRecord
  2
ByBlock
 70
     0
  3

 72
    65
 73
     0
 40
0.0
  0
LTYPE
  5
15
330
5
100
AcDbSymbolTableRecord
100
AcDbLinetypeTableRecord
  2
ByLayer
 70
     0
  3

 72
    65
 73
     0
 40
0.0
  0
LTYPE
  5
16
330
5
100
AcDbSymbolTableRecord
100
AcDbLinetypeTableRecord
  2
Continuous
 70
     0
  3
Solid line
 72
    65
 73
     0
 40
0.0
  0
ENDTAB
  0
TABLE
  2
LAYER
  5
2
330
0
100
AcDbSymbolTable
 70
     2
  0
LAYER
  5
10
330
2
100
AcDbSymbolTableRecord
100
AcDbLayerTableRecord
  2
0
 70
     0
 62
     7
  6
Continuous
370
    -3
390
F
  0
LAYER
  5
62
330
2
100
AcDbSymbolTableRecord
100
AcDbLayerTableRecord
  2
Make2D$可见线$普通线
 70
     0
 62
    18
420
        0
  6
Continuous
370
    -3
390
F
  0
ENDTAB
  0
TABLE
  2
STYLE
  5
3
330
0
100
AcDbSymbolTable
 70
     1
  0
STYLE
  5
11
330
3
100
AcDbSymbolTableRecord
100
AcDbTextStyleTableRecord
  2
Standard
 70
     0
 40
0.0
 41
1.0
 50
0.0
 71
     0
 42
0.2
  3
txt
  4

  0
ENDTAB
  0
TABLE
  2
VIEW
  5
6
330
0
100
AcDbSymbolTable
 70
     0
  0
ENDTAB
  0
TABLE
  2
UCS
  5
7
330
0
100
AcDbSymbolTable
 70
     0
  0
ENDTAB
  0
TABLE
  2
APPID
  5
9
330
0
100
AcDbSymbolTable
 70
     1
  0
APPID
  5
12
330
9
100
AcDbSymbolTableRecord
100
AcDbRegAppTableRecord
  2
ACAD
 70
     0
  0
ENDTAB
  0
TABLE
  2
DIMSTYLE
  5
A
330
0
100
AcDbSymbolTable
 70
     1
100
AcDbDimStyleTable
  0
DIMSTYLE
105
27
330
A
100
AcDbSymbolTableRecord
100
AcDbDimStyleTableRecord
  2
Standard
 70
     0
178
     0
340
11
  0
ENDTAB
  0
TABLE
  2
BLOCK_RECORD
  5
1
330
0
100
AcDbSymbolTable
 70
     1
  0
BLOCK_RECORD
  5
1F
330
1
100
AcDbSymbolTableRecord
100
AcDbBlockTableRecord
  2
*Model_Space
340
22
  0
BLOCK_RECORD
  5
1B
330
1
100
AcDbSymbolTableRecord
100
AcDbBlockTableRecord
  2
*Paper_Space
340
1E
  0
BLOCK_RECORD
  5
23
330
1
100
AcDbSymbolTableRecord
100
AcDbBlockTableRecord
  2
*Paper_Space0
340
26
  0
ENDTAB
  0
ENDSEC
  0
SECTION
  2
BLOCKS
  0
BLOCK
  5
20
330
1F
100
AcDbEntity
  8
0
100
AcDbBlockBegin
  2
*Model_Space
 70
     0
 10
0.0
 20
0.0
 30
0.0
  3
*Model_Space
  1
*Model_Space
  0
ENDBLK
  5
21
330
1F
100
AcDbEntity
  8
0
100
AcDbBlockEnd
  0
BLOCK
  5
1C
330
1B
100
AcDbEntity
 67
     1
  8
0
100
AcDbBlockBegin
  2
*Paper_Space
 70
     0
 10
0.0
 20
0.0
 30
0.0
  3
*Paper_Space
  1
*Paper_Space
  0
ENDBLK
  5
1D
330
1B
100
AcDbEntity
 67
     1
  8
0
100
AcDbBlockEnd
  0
BLOCK
  5
24
330
23
100
AcDbEntity
  8
0
100
AcDbBlockBegin
  2
*Paper_Space0
 70
     0
 10
0.0
 20
0.0
 30
0.0
  3
*Paper_Space0
  1
*Paper_Space0
  0
ENDBLK
  5
25
330
23
100
AcDbEntity
  8
0
100
AcDbBlockEnd
  0
ENDSEC
  0
SECTION
  2
ENTITIES
  0
ARC
  5
63
330
1F
100
AcDbEntity
  8
Make2D$可见线$普通线
100
AcDbCircle
 10
303.8533020473363
 20
168.6654209471534
 30
0.0
 40
1.999999836689323
100
AcDbArc
 50
26.4484385991057
 51
140.9274497893277
  0
ARC
  5
64
330
1F
100
AcDbEntity
  8
Make2D$可见线$普通线
100
AcDbCircle
 10
303.8533019653239
 20
125.3345818652044
 30
0.0
 40
1.999999674491345
100
AcDbArc
 50
218.9881168581444
 51
333.6359947559891
  0
POLYLINE
  5
65
330
1F
100
AcDbEntity
  8
Make2D$可见线$普通线
100
AcDb2dPolyline
 66
     1
 10
0.0
 20
0.0
 30
0.0
  0
VERTEX
  5
66
330
65
100
AcDbEntity
  8
Make2D$可见线$普通线
100
AcDbVertex
100
AcDb2dVertex
 10
365.0435848410997
 20
131.0167215988279
 30
0.0
  0
VERTEX
  5
67
330
65
100
AcDbEntity
  8
Make2D$可见线$普通线
100
AcDbVertex
100
AcDb2dVertex
 10
286.659474479986
 20
122.3463407611079
 30
0.0
 42
-1.181894720071121
  0
VERTEX
  5
68
330
65
100
AcDbEntity
  8
Make2D$可见线$普通线
100
AcDbVertex
100
AcDb2dVertex
 10
286.659474479986
 20
171.6561569316753
 30
0.0
  0
VERTEX
  5
69
330
65
100
AcDbEntity
  8
Make2D$可见线$普通线
100
AcDbVertex
100
AcDb2dVertex
 10
365.0435848410997
 20
162.9857760939553
 30
0.0
 42
-0.3823026158725638
  0
VERTEX
  5
6A
330
65
100
AcDbEntity
  8
Make2D$可见线$普通线
100
AcDbVertex
100
AcDb2dVertex
 10
373.944150326163
 20
153.0463976552718
 30
0.0
  0
VERTEX
  5
6B
330
65
100
AcDbEntity
  8
Make2D$可见线$普通线
100
AcDbVertex
100
AcDb2dVertex
 10
373.944150326163
 20
140.9561000375114
 30
0.0
 42
-0.3823026158725961
  0
VERTEX
  5
6C
330
65
100
AcDbEntity
  8
Make2D$可见线$普通线
100
AcDbVertex
100
AcDb2dVertex
 10
365.0435848410997
 20
131.0167215988279
 30
0.0
  0
SEQEND
  5
6D
330
65
100
AcDbEntity
  8
Make2D$可见线$普通线
  0
POLYLINE
  5
6E
330
1F
100
AcDbEntity
  8
Make2D$可见线$普通线
100
AcDb2dPolyline
 66
     1
 10
0.0
 20
0.0
 30
0.0
  0
VERTEX
  5
6F
330
6E
100
AcDbEntity
  8
Make2D$可见线$普通线
100
AcDbVertex
100
AcDb2dVertex
 10
284.4448689175257
 20
141.8222513896327
 30
0.0
  0
VERTEX
  5
70
330
6E
100
AcDbEntity
  8
Make2D$可见线$普通线
100
AcDbVertex
100
AcDb2dVertex
 10
284.4449715266388
 20
141.6522735222428
 30
0.0
  0
VERTEX
  5
71
330
6E
100
AcDbEntity
  8
Make2D$可见线$普通线
100
AcDbVertex
100
AcDb2dVertex
 10
284.9079195802269
 20
141.6587664194725
 30
0.0
  0
VERTEX
  5
72
330
6E
100
AcDbEntity
  8
Make2D$可见线$普通线
100
AcDbVertex
100
AcDb2dVertex
 10
284.9080793873472
 20
141.5206058414094
 30
0.0
  0
VERTEX
  5
73
330
6E
100
AcDbEntity
  8
Make2D$可见线$普通线
100
AcDbVertex
100
AcDb2dVertex
 10
283.8092596046873
 20
141.5042838877296
 30
0.0
  0
VERTEX
  5
74
330
6E
100
AcDbEntity
  8
Make2D$可见线$普通线
100
AcDbVertex
100
AcDb2dVertex
 10
283.8092963349036
 20
141.7402044837619
 30
0.0
  0
VERTEX
  5
75
330
6E
100
AcDbEntity
  8
Make2D$可见线$普通线
100
AcDbVertex
100
AcDb2dVertex
 10
283.8202486355316
 20
141.8585045576677
 30
0.0
  0
VERTEX
  5
76
330
6E
100
AcDbEntity
  8
Make2D$可见线$普通线
100
AcDbVertex
100
AcDb2dVertex
 10
283.8485935461429
 20
141.9817305569351
 30
0.0
  0
VERTEX
  5
77
330
6E
100
AcDbEntity
  8
Make2D$可见线$普通线
100
AcDbVertex
100
AcDb2dVertex
 10
283.9124752487954
 20
142.0815098967126
 30
0.0
  0
VERTEX
  5
78
330
6E
100
AcDbEntity
  8
Make2D$可见线$普通线
100
AcDbVertex
100
AcDb2dVertex
 10
284.015265004407
 20
142.1473688493915
 30
0.0
  0
VERTEX
  5
79
330
6E
100
AcDbEntity
  8
Make2D$可见线$普通线
100
AcDbVertex
100
AcDb2dVertex
 10
284.1458800954657
 20
142.1536468719529
 30
0.0
  0
VERTEX
  5
7A
330
6E
100
AcDbEntity
  8
Make2D$可见线$普通线
100
AcDbVertex
100
AcDb2dVertex
 10
284.245239012747
 20
142.1400585896967
 30
0.0
  0
VERTEX
  5
7B
330
6E
100
AcDbEntity
  8
Make2D$可见线$普通线
100
AcDbVertex
100
AcDb2dVertex
 10
284.3482318253745
 20
142.0638071372108
 30
0.0
  0
VERTEX
  5
7C
330
6E
100
AcDbEntity
  8
Make2D$可见线$普通线
100
AcDbVertex
100
AcDb2dVertex
 10
284.4177003826762
 20
141.9432143751334
 30
0.0
  0
VERTEX
  5
7D
330
6E
100
AcDbEntity
  8
Make2D$可见线$普通线
100
AcDbVertex
100
AcDb2dVertex
 10
284.4448689175257
 20
141.8222513896327
 30
0.0
  0
SEQEND
  5
7E
330
6E
100
AcDbEntity
  8
Make2D$可见线$普通线
  0
POLYLINE
  5
7F
330
1F
100
AcDbEntity
  8
Make2D$可见线$普通线
100
AcDb2dPolyline
 66
     1
 10
0.0
 20
0.0
 30
0.0
  0
VERTEX
  5
80
330
7F
100
AcDbEntity
  8
Make2D$可见线$普通线
100
AcDbVertex
100
AcDb2dVertex
 10
284.3462016514958
 20
146.2210771777438
 30
0.0
  0
VERTEX
  5
81
330
7F
100
AcDbEntity
  8
Make2D$可见线$普通线
100
AcDbVertex
100
AcDb2dVertex
 10
284.4153256970073
 20
146.099966626383
 30
0.0
  0
VERTEX
  5
82
330
7F
100
AcDbEntity
  8
Make2D$可见线$普通线
100
AcDbVertex
100
AcDb2dVertex
 10
284.4290506822028
 20
146.0388226401794
 30
0.0
  0
VERTEX
  5
83
330
7F
100
AcDbEntity
  8
Make2D$可见线$普通线
100
AcDbVertex
100
AcDb2dVertex
 10
284.9024264167513
 20
146.4078579398955
 30
0.0
  0
VERTEX
  5
84
330
7F
100
AcDbEntity
  8
Make2D$可见线$普通线
100
AcDbVertex
100
AcDb2dVertex
 10
284.9026397513895
 20
146.2234203699941
 30
0.0
  0
VERTEX
  5
85
330
7F
100
AcDbEntity
  8
Make2D$可见线$普通线
100
AcDbVertex
100
AcDb2dVertex
 10
284.4424150821856
 20
145.887170046577
 30
0.0
  0
VERTEX
  5
86
330
7F
100
AcDbEntity
  8
Make2D$可见线$普通线
100
AcDbVertex
100
AcDb2dVertex
 10
284.4424609181771
 20
145.8112401037002
 30
0.0
  0
VERTEX
  5
87
330
7F
100
AcDbEntity
  8
Make2D$可见线$普通线
100
AcDbVertex
100
AcDb2dVertex
 10
284.9031222968163
 20
145.806237738414
 30
0.0
  0
VERTEX
  5
88
330
7F
100
AcDbEntity
  8
Make2D$可见线$普通线
100
AcDbVertex
100
AcDb2dVertex
 10
284.9042711342831
 20
145.669432921508
 30
0.0
  0
VERTEX
  5
89
330
7F
100
AcDbEntity
  8
Make2D$可见线$普通线
100
AcDbVertex
100
AcDb2dVertex
 10
283.8099097824635
 20
145.680418523866
 30
0.0
  0
VERTEX
  5
8A
330
7F
100
AcDbEntity
  8
Make2D$可见线$普通线
100
AcDbVertex
100
AcDb2dVertex
 10
283.8099461472501
 20
145.9139919414514
 30
0.0
  0
VERTEX
  5
8B
330
7F
100
AcDbEntity
  8
Make2D$可见线$普通线
100
AcDbVertex
100
AcDb2dVertex
 10
283.8208437148304
 20
146.030845398063
 30
0.0
  0
VERTEX
  5
8C
330
7F
100
AcDbEntity
  8
Make2D$可见线$普通线
100
AcDbVertex
100
AcDb2dVertex
 10
283.849047177262
 20
146.1521467934574
 30
0.0
  0
VERTEX
  5
8D
330
7F
100
AcDbEntity
  8
Make2D$可见线$普通线
100
AcDbVertex
100
AcDb2dVertex
 10
283.9126104483325
 20
146.2493579437225
 30
0.0
  0
VERTEX
  5
8E
330
7F
100
AcDbEntity
  8
Make2D$可见线$普通线
100
AcDbVertex
100
AcDb2dVertex
 10
284.0148884484597
 20
146.3120260539791
 30
0.0
  0
VERTEX
  5
8F
330
7F
100
AcDbEntity
  8
Make2D$可见线$普通线
100
AcDbVertex
100
AcDb2dVertex
 10
284.144854171365
 20
146.3150186557649
 30
0.0
  0
VERTEX
  5
90
330
7F
100
AcDbEntity
  8
Make2D$可见线$普通线
100
AcDbVertex
100
AcDb2dVertex
 10
284.2437197614111
 20
146.2991134542508
 30
0.0
  0
VERTEX
  5
91
330
7F
100
AcDbEntity
  8
Make2D$可见线$普通线
100
AcDbVertex
100
AcDb2dVertex
 10
284.3462016514958
 20
146.2210771777438
 30
0.0
  0
SEQEND
  5
92
330
7F
100
AcDbEntity
  8
Make2D$可见线$普通线
  0
POLYLINE
  5
93
330
1F
100
AcDbEntity
  8
Make2D$可见线$普通线
100
AcDb2dPolyline
 66
     1
 10
0.0
 20
0.0
 30
0.0
  0
VERTEX
  5
94
330
93
100
AcDbEntity
  8
Make2D$可见线$普通线
100
AcDbVertex
100
AcDb2dVertex
 10
277.7196144657488
 20
143.8467373854112
 30
0.0
  0
VERTEX
  5
95
330
93
100
AcDbEntity
  8
Make2D$可见线$普通线
100
AcDbVertex
100
AcDb2dVertex
 10
277.8325329071727
 20
143.8803948992817
 30
0.0
  0
VERTEX
  5
96
330
93
100
AcDbEntity
  8
Make2D$可见线$普通线
100
AcDbVertex
100
AcDb2dVertex
 10
277.9132860353017
 20
143.9336687028855
 30
0.0
  0
VERTEX
  5
97
330
93
100
AcDbEntity
  8
Make2D$可见线$普通线
100
AcDbVertex
100
AcDb2dVertex
 10
277.9506483210116
 20
143.9377553677573
 30
0.0
  0
VERTEX
  5
98
330
93
100
AcDbEntity
  8
Make2D$可见线$普通线
100
AcDbVertex
100
AcDb2dVertex
 10
277.9822871939084
 20
143.9123337515248
 30
0.0
  0
VERTEX
  5
99
330
93
100
AcDbEntity
  8
Make2D$可见线$普通线
100
AcDbVertex
100
AcDb2dVertex
 10
277.9832624516675
 20
143.8464994217663
 30
0.0
  0
VERTEX
  5
9A
330
93
100
AcDbEntity
  8
Make2D$可见线$普通线
100
AcDbVertex
100
AcDb2dVertex
 10
277.9333557042178
 20
143.7461561658238
 30
0.0
  0
VERTEX
  5
9B
330
93
100
AcDbEntity
  8
Make2D$可见线$普通线
100
AcDbVertex
100
AcDb2dVertex
 10
277.6633291140114
 20
143.5271115062656
 30
0.0
  0
VERTEX
  5
9C
330
93
100
AcDbEntity
  8
Make2D$可见线$普通线
100
AcDbVertex
100
AcDb2dVertex
 10
277.6005823922836
 20
143.4983953811677
 30
0.0
  0
VERTEX
  5
9D
330
93
100
AcDbEntity
  8
Make2D$可见线$普通线
100
AcDbVertex
100
AcDb2dVertex
 10
277.5395306770139
 20
143.507242379887
 30
0.0
  0
VERTEX
  5
9E
330
93
100
AcDbEntity
  8
Make2D$可见线$普通线
100
AcDbVertex
100
AcDb2dVertex
 10
277.442491107333
 20
143.577641694012
 30
0.0
  0
VERTEX
  5
9F
330
93
100
AcDbEntity
  8
Make2D$可见线$普通线
100
AcDbVertex
100
AcDb2dVertex
 10
277.3344834826281
 20
143.7488567984856
 30
0.0
  0
VERTEX
  5
A0
330
93
100
AcDbEntity
  8
Make2D$可见线$普通线
100
AcDbVertex
100
AcDb2dVertex
 10
277.2325993880288
 20
143.9668550747693
 30
0.0
  0
VERTEX
  5
A1
330
93
100
AcDbEntity
  8
Make2D$可见线$普通线
100
AcDbVertex
100
AcDb2dVertex
 10
277.1342393738457
 20
144.2723777748045
 30
0.0
  0
VERTEX
  5
A2
330
93
100
AcDbEntity
  8
Make2D$可见线$普通线
100
AcDbVertex
100
AcDb2dVertex
 10
277.1219352664237
 20
144.3777685143202
 30
0.0
  0
VERTEX
  5
A3
330
93
100
AcDbEntity
  8
Make2D$可见线$普通线
100
AcDbVertex
100
AcDb2dVertex
 10
277.0802437872635
 20
144.4681742879527
 30
0.0
  0
VERTEX
  5
A4
330
93
100
AcDbEntity
  8
Make2D$可见线$普通线
100
AcDbVertex
100
AcDb2dVertex
 10
277.0466338531407
 20
144.6518919492321
 30
0.0
  0
VERTEX
  5
A5
330
93
100
AcDbEntity
  8
Make2D$可见线$普通线
100
AcDbVertex
100
AcDb2dVertex
 10
277.0526438104322
 20
144.70908222095
 30
0.0
  0
VERTEX
  5
A6
330
93
100
AcDbEntity
  8
Make2D$可见线$普通线
100
AcDbVertex
100
AcDb2dVertex
 10
277.0299976693354
 20
144.7732046405667
 30
0.0
  0
VERTEX
  5
A7
330
93
100
AcDbEntity
  8
Make2D$可见线$普通线
100
AcDbVertex
100
AcDb2dVertex
 10
277.0340854084706
 20
144.9293216209426
 30
0.0
  0
VERTEX
  5
A8
330
93
100
AcDbEntity
  8
Make2D$可见线$普通线
100
AcDbVertex
100
AcDb2dVertex
 10
276.9979335721221
 20
144.9867345314135
 30
0.0
  0
VERTEX
  5
A9
330
93
100
AcDbEntity
  8
Make2D$可见线$普通线
100
AcDbVertex
100
AcDb2dVertex
 10
276.949042807501
 20
145.2745685216427
 30
0.0
  0
VERTEX
  5
AA
330
93
100
AcDbEntity
  8
Make2D$可见线$普通线
100
AcDbVertex
100
AcDb2dVertex
 10
276.9512004623143
 20
145.5318379505095
 30
0.0
  0
VERTEX
  5
AB
330
93
100
AcDbEntity
  8
Make2D$可见线$普通线
100
AcDbVertex
100
AcDb2dVertex
 10
276.9339456876141
 20
145.571097299733
 30
0.0
  0
VERTEX
  5
AC
330
93
100
AcDbEntity
  8
Make2D$可见线$普通线
100
AcDbVertex
100
AcDb2dVertex
 10
276.9108218841844
 20
145.6104150892875
 30
0.0
  0
VERTEX
  5
AD
330
93
100
AcDbEntity
  8
Make2D$可见线$普通线
100
AcDbVertex
100
AcDb2dVertex
 10
276.885950949865
 20
145.7896405845934
 30
0.0
  0
VERTEX
  5
AE
330
93
100
AcDbEntity
  8
Make2D$可见线$普通线
100
AcDbVertex
100
AcDb2dVertex
 10
276.8769170890753
 20
145.9727944577766
 30
0.0
  0
VERTEX
  5
AF
330
93
100
AcDbEntity
  8
Make2D$可见线$普通线
100
AcDbVertex
100
AcDb2dVertex
 10
276.8564161930839
 20
146.0939611296614
 30
0.0
  0
VERTEX
  5
B0
330
93
100
AcDbEntity
  8
Make2D$可见线$普通线
100
AcDbVertex
100
AcDb2dVertex
 10
276.8491155828186
 20
146.9930828716127
 30
0.0
  0
VERTEX
  5
B1
330
93
100
AcDbEntity
  8
Make2D$可见线$普通线
100
AcDbVertex
100
AcDb2dVertex
 10
276.9009152690397
 20
147.3522752653627
 30
0.0
  0
VERTEX
  5
B2
330
93
100
AcDbEntity
  8
Make2D$可见线$普通线
100
AcDbVertex
100
AcDb2dVertex
 10
276.8993195437628
 20
147.4378294853464
 30
0.0
  0
VERTEX
  5
B3
330
93
100
AcDbEntity
  8
Make2D$可见线$普通线
100
AcDbVertex
100
AcDb2dVertex
 10
276.9422376451073
 20
147.5577717569573
 30
0.0
  0
VERTEX
  5
B4
330
93
100
AcDbEntity
  8
Make2D$可见线$普通线
100
AcDbVertex
100
AcDb2dVertex
 10
276.9571425596715
 20
147.6123915442116
 30
0.0
  0
VERTEX
  5
B5
330
93
100
AcDbEntity
  8
Make2D$可见线$普通线
100
AcDbVertex
100
AcDb2dVertex
 10
276.960794700834
 20
147.6788508348291
 30
0.0
  0
VERTEX
  5
B6
330
93
100
AcDbEntity
  8
Make2D$可见线$普通线
100
AcDbVertex
100
AcDb2dVertex
 10
277.0292714760482
 20
147.854713622373
 30
0.0
  0
VERTEX
  5
B7
330
93
100
AcDbEntity
  8
Make2D$可见线$普通线
100
AcDbVertex
100
AcDb2dVertex
 10
277.0297101483911
 20
147.9074624887053
 30
0.0
  0
VERTEX
  5
B8
330
93
100
AcDbEntity
  8
Make2D$可见线$普通线
100
AcDbVertex
100
AcDb2dVertex
 10
277.0810501138465
 20
148.0128305688455
 30
0.0
  0
VERTEX
  5
B9
330
93
100
AcDbEntity
  8
Make2D$可见线$普通线
100
AcDbVertex
100
AcDb2dVertex
 10
277.0929999969945
 20
148.0924616359023
 30
0.0
  0
VERTEX
  5
BA
330
93
100
AcDbEntity
  8
Make2D$可见线$普通线
100
AcDbVertex
100
AcDb2dVertex
 10
277.0943597806759
 20
148.1443574314372
 30
0.0
  0
VERTEX
  5
BB
330
93
100
AcDbEntity
  8
Make2D$可见线$普通线
100
AcDbVertex
100
AcDb2dVertex
 10
277.2496572333092
 20
148.4918823208923
 30
0.0
  0
VERTEX
  5
BC
330
93
100
AcDbEntity
  8
Make2D$可见线$普通线
100
AcDbVertex
100
AcDb2dVertex
 10
277.7009689320359
 20
149.109051776637
 30
0.0
  0
VERTEX
  5
BD
330
93
100
AcDbEntity
  8
Make2D$可见线$普通线
100
AcDbVertex
100
AcDb2dVertex
 10
277.933023970054
 20
149.341219353111
 30
0.0
  0
VERTEX
  5
BE
330
93
100
AcDbEntity
  8
Make2D$可见线$普通线
100
AcDbVertex
100
AcDb2dVertex
 10
278.1951284644848
 20
149.5420639348881
 30
0.0
  0
VERTEX
  5
BF
330
93
100
AcDbEntity
  8
Make2D$可见线$普通线
100
AcDbVertex
100
AcDb2dVertex
 10
278.8923821353441
 20
149.8981311520344
 30
0.0
  0
VERTEX
  5
C0
330
93
100
AcDbEntity
  8
Make2D$可见线$普通线
100
AcDbVertex
100
AcDb2dVertex
 10
279.3629023560422
 20
150.0124684425615
 30
0.0
  0
VERTEX
  5
C1
330
93
100
AcDbEntity
  8
Make2D$可见线$普通线
100
AcDbVertex
100
AcDb2dVertex
 10
279.6742728452609
 20
150.039178042301
 30
0.0
  0
VERTEX
  5
C2
330
93
100
AcDbEntity
  8
Make2D$可见线$普通线
100
AcDbVertex
100
AcDb2dVertex
 10
279.9738427502277
 20
149.9802729011155
 30
0.0
  0
VERTEX
  5
C3
330
93
100
AcDbEntity
  8
Make2D$可见线$普通线
100
AcDbVertex
100
AcDb2dVertex
 10
280.2606385397521
 20
149.8644837727309
 30
0.0
  0
VERTEX
  5
C4
330
93
100
AcDbEntity
  8
Make2D$可见线$普通线
100
AcDbVertex
100
AcDb2dVertex
 10
280.9198210753111
 20
149.3823454109219
 30
0.0
  0
VERTEX
  5
C5
330
93
100
AcDbEntity
  8
Make2D$可见线$普通线
100
AcDbVertex
100
AcDb2dVertex
 10
280.9580317681609
 20
149.3443889472228
 30
0.0
  0
VERTEX
  5
C6
330
93
100
AcDbEntity
  8
Make2D$可见线$普通线
100
AcDbVertex
100
AcDb2dVertex
 10
281.0026552504861
 20
149.343809886321
 30
0.0
  0
VERTEX
  5
C7
330
93
100
AcDbEntity
  8
Make2D$可见线$普通线
100
AcDbVertex
100
AcDb2dVertex
 10
281.0215329101148
 20
149.3710500719887
 30
0.0
  0
VERTEX
  5
C8
330
93
100
AcDbEntity
  8
Make2D$可见线$普通线
100
AcDbVertex
100
AcDb2dVertex
 10
281.0068719647783
 20
149.4304451071688
 30
0.0
  0
VERTEX
  5
C9
330
93
100
AcDbEntity
  8
Make2D$可见线$普通线
100
AcDbVertex
100
AcDb2dVertex
 10
280.9133255785222
 20
149.5439785695851
 30
0.0
  0
VERTEX
  5
CA
330
93
100
AcDbEntity
  8
Make2D$可见线$普通线
100
AcDbVertex
100
AcDb2dVertex
 10
280.8141408467387
 20
149.638947692068
 30
0.0
  0
VERTEX
  5
CB
330
93
100
AcDbEntity
  8
Make2D$可见线$普通线
100
AcDbVertex
100
AcDb2dVertex
 10
280.7759641586355
 20
149.7663367748854
 30
0.0
  0
VERTEX
  5
CC
330
93
100
AcDbEntity
  8
Make2D$可见线$普通线
100
AcDbVertex
100
AcDb2dVertex
 10
280.7436761208263
 20
149.9127420602981
 30
0.0
  0
VERTEX
  5
CD
330
93
100
AcDbEntity
  8
Make2D$可见线$普通线
100
AcDbVertex
100
AcDb2dVertex
 10
280.7754835362736
 20
150.0120876786265
 30
0.0
  0
VERTEX
  5
CE
330
93
100
AcDbEntity
  8
Make2D$可见线$普通线
100
AcDbVertex
100
AcDb2dVertex
 10
280.8246095565123
 20
150.0763913917488
 30
0.0
  0
VERTEX
  5
CF
330
93
100
AcDbEntity
  8
Make2D$可见线$普通线
100
AcDbVertex
100
AcDb2dVertex
 10
280.8683020160054
 20
150.0851946251371
 30
0.0
  0
VERTEX
  5
D0
330
93
100
AcDbEntity
  8
Make2D$可见线$普通线
100
AcDbVertex
100
AcDb2dVertex
 10
281.0721777956423
 20
150.0189393389647
 30
0.0
  0
VERTEX
  5
D1
330
93
100
AcDbEntity
  8
Make2D$可见线$普通线
100
AcDbVertex
100
AcDb2dVertex
 10
281.3088923770872
 20
149.8870549761788
 30
0.0
  0
VERTEX
  5
D2
330
93
100
AcDbEntity
  8
Make2D$可见线$普通线
100
AcDbVertex
100
AcDb2dVertex
 10
281.590441030673
 20
149.6556018300394
 30
0.0
  0
VERTEX
  5
D3
330
93
100
AcDbEntity
  8
Make2D$可见线$普通线
100
AcDbVertex
100
AcDb2dVertex
 10
281.7161937017089
 20
149.5011710107063
 30
0.0
  0
VERTEX
  5
D4
330
93
100
AcDbEntity
  8
Make2D$可见线$普通线
100
AcDbVertex
100
AcDb2dVertex
 10
281.8721676179412
 20
149.32947601792
 30
0.0
  0
VERTEX
  5
D5
330
93
100
AcDbEntity
  8
Make2D$可见线$普通线
100
AcDbVertex
100
AcDb2dVertex
 10
281.9524077206235
 20
149.2894100611804
 30
0.0
  0
VERTEX
  5
D6
330
93
100
AcDbEntity
  8
Make2D$可见线$普通线
100
AcDbVertex
100
AcDb2dVertex
 10
282.0148152036509
 20
149.2821171689104
 30
0.0
  0
VERTEX
  5
D7
330
93
100
AcDbEntity
  8
Make2D$可见线$普通线
100
AcDbVertex
100
AcDb2dVertex
 10
282.0575198225758
 20
149.3473871840463
 30
0.0
  0
VERTEX
  5
D8
330
93
100
AcDbEntity
  8
Make2D$可见线$普通线
100
AcDbVertex
100
AcDb2dVertex
 10
282.0715844255019
 20
149.4850451551301
 30
0.0
  0
VERTEX
  5
D9
330
93
100
AcDbEntity
  8
Make2D$可见线$普通线
100
AcDbVertex
100
AcDb2dVertex
 10
282.0295985264361
 20
149.5752133104196
 30
0.0
  0
VERTEX
  5
DA
330
93
100
AcDbEntity
  8
Make2D$可见线$普通线
100
AcDbVertex
100
AcDb2dVertex
 10
282.0149171134038
 20
149.6684098035217
 30
0.0
  0
VERTEX
  5
DB
330
93
100
AcDbEntity
  8
Make2D$可见线$普通线
100
AcDbVertex
100
AcDb2dVertex
 10
281.9556708027861
 20
149.8179591496472
 30
0.0
  0
VERTEX
  5
DC
330
93
100
AcDbEntity
  8
Make2D$可见线$普通线
100
AcDbVertex
100
AcDb2dVertex
 10
281.8096959771
 20
150.0907778557264
 30
0.0
  0
VERTEX
  5
DD
330
93
100
AcDbEntity
  8
Make2D$可见线$普通线
100
AcDbVertex
100
AcDb2dVertex
 10
281.4401112311936
 20
150.6799239154219
 30
0.0
  0
VERTEX
  5
DE
330
93
100
AcDbEntity
  8
Make2D$可见线$普通线
100
AcDbVertex
100
AcDb2dVertex
 10
281.2613039781265
 20
150.8933695883748
 30
0.0
  0
VERTEX
  5
DF
330
93
100
AcDbEntity
  8
Make2D$可见线$普通线
100
AcDbVertex
100
AcDb2dVertex
 10
280.8615587957448
 20
151.0788229864834
 30
0.0
  0
VERTEX
  5
E0
330
93
100
AcDbEntity
  8
Make2D$可见线$普通线
100
AcDbVertex
100
AcDb2dVertex
 10
280.7259973908424
 20
151.145830955972
 30
0.0
  0
VERTEX
  5
E1
330
93
100
AcDbEntity
  8
Make2D$可见线$普通线
100
AcDbVertex
100
AcDb2dVertex
 10
280.6082102409823
 20
151.169657261969
 30
0.0
  0
VERTEX
  5
E2
330
93
100
AcDbEntity
  8
Make2D$可见线$普通线
100
AcDbVertex
100
AcDb2dVertex
 10
280.4657078285599
 20
151.2961932927793
 30
0.0
  0
VERTEX
  5
E3
330
93
100
AcDbEntity
  8
Make2D$可见线$普通线
100
AcDbVertex
100
AcDb2dVertex
 10
280.2011142162582
 20
151.4169544391389
 30
0.0
  0
VERTEX
  5
E4
330
93
100
AcDbEntity
  8
Make2D$可见线$普通线
100
AcDbVertex
100
AcDb2dVertex
 10
279.9372157289877
 20
151.6171094565367
 30
0.0
  0
VERTEX
  5
E5
330
93
100
AcDbEntity
  8
Make2D$可见线$普通线
100
AcDbVertex
100
AcDb2dVertex
 10
279.6774711220301
 20
151.7474167937612
 30
0.0
  0
VERTEX
  5
E6
330
93
100
AcDbEntity
  8
Make2D$可见线$普通线
100
AcDbVertex
100
AcDb2dVertex
 10
279.5475335385676
 20
151.8505000518558
 30
0.0
  0
VERTEX
  5
E7
330
93
100
AcDbEntity
  8
Make2D$可见线$普通线
100
AcDbVertex
100
AcDb2dVertex
 10
279.2606978858546
 20
152.0096253432903
 30
0.0
  0
VERTEX
  5
E8
330
93
100
AcDbEntity
  8
Make2D$可见线$普通线
100
AcDbVertex
100
AcDb2dVertex
 10
278.1974770470121
 20
152.9134797015799
 30
0.0
  0
VERTEX
  5
E9
330
93
100
AcDbEntity
  8
Make2D$可见线$普通线
100
AcDbVertex
100
AcDb2dVertex
 10
277.6864541343913
 20
153.5210046400441
 30
0.0
  0
VERTEX
  5
EA
330
93
100
AcDbEntity
  8
Make2D$可见线$普通线
100
AcDbVertex
100
AcDb2dVertex
 10
277.5219190315148
 20
153.7425730349374
 30
0.0
  0
VERTEX
  5
EB
330
93
100
AcDbEntity
  8
Make2D$可见线$普通线
100
AcDbVertex
100
AcDb2dVertex
 10
277.4865102669021
 20
153.8659192610041
 30
0.0
  0
VERTEX
  5
EC
330
93
100
AcDbEntity
  8
Make2D$可见线$普通线
100
AcDbVertex
100
AcDb2dVertex
 10
277.5170418523288
 20
153.9652847561031
 30
0.0
  0
VERTEX
  5
ED
330
93
100
AcDbEntity
  8
Make2D$可见线$普通线
100
AcDbVertex
100
AcDb2dVertex
 10
277.6196445718143
 20
153.9913946580918
 30
0.0
  0
VERTEX
  5
EE
330
93
100
AcDbEntity
  8
Make2D$可见线$普通线
100
AcDbVertex
100
AcDb2dVertex
 10
277.7777256245151
 20
153.9604452447298
 30
0.0
  0
VERTEX
  5
EF
330
93
100
AcDbEntity
  8
Make2D$可见线$普通线
100
AcDbVertex
100
AcDb2dVertex
 10
278.0935783560687
 20
153.7408031113437
 30
0.0
  0
VERTEX
  5
F0
330
93
100
AcDbEntity
  8
Make2D$可见线$普通线
100
AcDbVertex
100
AcDb2dVertex
 10
278.359660323586
 20
153.5143310369775
 30
0.0
  0
VERTEX
  5
F1
330
93
100
AcDbEntity
  8
Make2D$可见线$普通线
100
AcDbVertex
100
AcDb2dVertex
 10
278.636444790773
 20
153.3567374271989
 30
0.0
  0
VERTEX
  5
F2
330
93
100
AcDbEntity
  8
Make2D$可见线$普通线
100
AcDbVertex
100
AcDb2dVertex
 10
278.8170638542059
 20
153.2250093008863
 30
0.0
  0
VERTEX
  5
F3
330
93
100
AcDbEntity
  8
Make2D$可见线$普通线
100
AcDbVertex
100
AcDb2dVertex
 10
279.1118417171656
 20
152.9961264934797
 30
0.0
  0
VERTEX
  5
F4
330
93
100
AcDbEntity
  8
Make2D$可见线$普通线
100
AcDbVertex
100
AcDb2dVertex
 10
279.2279881164952
 20
152.9217001164668
 30
0.0
  0
VERTEX
  5
F5
330
93
100
AcDbEntity
  8
Make2D$可见线$普通线
100
AcDbVertex
100
AcDb2dVertex
 10
279.3286985634552
 20
152.8362431273497
 30
0.0
  0
VERTEX
  5
F6
330
93
100
AcDbEntity
  8
Make2D$可见线$普通线
100
AcDbVertex
100
AcDb2dVertex
 10
279.414081102819
 20
152.8077993763542
 30
0.0
  0
VERTEX
  5
F7
330
93
100
AcDbEntity
  8
Make2D$可见线$普通线
100
AcDbVertex
100
AcDb2dVertex
 10
279.8535410402684
 20
152.4309135504078
 30
0.0
  0
VERTEX
  5
F8
330
93
100
AcDbEntity
  8
Make2D$可见线$普通线
100
AcDbVertex
100
AcDb2dVertex
 10
280.0692060353315
 20
152.3102846810026
 30
0.0
  0
VERTEX
  5
F9
330
93
100
AcDbEntity
  8
Make2D$可见线$普通线
100
AcDbVertex
100
AcDb2dVertex
 10
280.4241811745591
 20
152.0139697023494
 30
0.0
  0
VERTEX
  5
FA
330
93
100
AcDbEntity
  8
Make2D$可见线$普通线
100
AcDbVertex
100
AcDb2dVertex
 10
280.6834512218361
 20
151.7789935180903
 30
0.0
  0
VERTEX
  5
FB
330
93
100
AcDbEntity
  8
Make2D$可见线$普通线
100
AcDbVertex
100
AcDb2dVertex
 10
281.3036611634581
 20
151.1683080534254
 30
0.0
  0
VERTEX
  5
FC
330
93
100
AcDbEntity
  8
Make2D$可见线$普通线
100
AcDbVertex
100
AcDb2dVertex
 10
281.4249640707094
 20
151.1368785006024
 30
0.0
  0
VERTEX
  5
FD
330
93
100
AcDbEntity
  8
Make2D$可见线$普通线
100
AcDbVertex
100
AcDb2dVertex
 10
281.665894258132
 20
151.1617488835875
 30
0.0
  0
VERTEX
  5
FE
330
93
100
AcDbEntity
  8
Make2D$可见线$普通线
100
AcDbVertex
100
AcDb2dVertex
 10
281.8309076401324
 20
151.3060536988561
 30
0.0
  0
VERTEX
  5
FF
330
93
100
AcDbEntity
  8
Make2D$可见线$普通线
100
AcDbVertex
100
AcDb2dVertex
 10
281.8946237317901
 20
151.5021764380214
 30
0.0
  0
VERTEX
  5
100
330
93
100
AcDbEntity
  8
Make2D$可见线$普通线
100
AcDbVertex
100
AcDb2dVertex
 10
281.8497944602595
 20
151.7718948763273
 30
0.0
  0
VERTEX
  5
101
330
93
100
AcDbEntity
  8
Make2D$可见线$普通线
100
AcDbVertex
100
AcDb2dVertex
 10
281.7944193976215
 20
151.872507006294
 30
0.0
  0
VERTEX
  5
102
330
93
100
AcDbEntity
  8
Make2D$可见线$普通线
100
AcDbVertex
100
AcDb2dVertex
 10
281.7845367537471
 20
151.9630616308023
 30
0.0
  0
VERTEX
  5
103
330
93
100
AcDbEntity
  8
Make2D$可见线$普通线
100
AcDbVertex
100
AcDb2dVertex
 10
281.5854880965777
 20
152.3224463462291
 30
0.0
  0
VERTEX
  5
104
330
93
100
AcDbEntity
  8
Make2D$可见线$普通线
100
AcDbVertex
100
AcDb2dVertex
 10
281.2540948788395
 20
152.7156388356678
 30
0.0
  0
VERTEX
  5
105
330
93
100
AcDbEntity
  8
Make2D$可见线$普通线
100
AcDbVertex
100
AcDb2dVertex
 10
281.0511661683305
 20
152.9385088409879
 30
0.0
  0
VERTEX
  5
106
330
93
100
AcDbEntity
  8
Make2D$可见线$普通线
100
AcDbVertex
100
AcDb2dVertex
 10
280.9948585355335
 20
153.0946018397235
 30
0.0
  0
VERTEX
  5
107
330
93
100
AcDbEntity
  8
Make2D$可见线$普通线
100
AcDbVertex
100
AcDb2dVertex
 10
280.9938626783032
 20
153.1695312843411
 30
0.0
  0
VERTEX
  5
108
330
93
100
AcDbEntity
  8
Make2D$可见线$普通线
100
AcDbVertex
100
AcDb2dVertex
 10
281.0736151167721
 20
153.2998940947572
 30
0.0
  0
VERTEX
  5
109
330
93
100
AcDbEntity
  8
Make2D$可见线$普通线
100
AcDbVertex
100
AcDb2dVertex
 10
281.16698417238
 20
153.3470708121937
 30
0.0
  0
VERTEX
  5
10A
330
93
100
AcDbEntity
  8
Make2D$可见线$普通线
100
AcDbVertex
100
AcDb2dVertex
 10
281.2761136408629
 20
153.3242948863307
 30
0.0
  0
VERTEX
  5
10B
330
93
100
AcDbEntity
  8
Make2D$可见线$普通线
100
AcDbVertex
100
AcDb2dVertex
 10
281.3475179723778
 20
153.2830846334527
 30
0.0
  0
VERTEX
  5
10C
330
93
100
AcDbEntity
  8
Make2D$可见线$普通线
100
AcDbVertex
100
AcDb2dVertex
 10
281.5430286980887
 20
153.2510410846155
 30
0.0
  0
VERTEX
  5
10D
330
93
100
AcDbEntity
  8
Make2D$可见线$普通线
100
AcDbVertex
100
AcDb2dVertex
 10
281.6392555731062
 20
153.2817302426354
 30
0.0
  0
VERTEX
  5
10E
330
93
100
AcDbEntity
  8
Make2D$可见线$普通线
100
AcDbVertex
100
AcDb2dVertex
 10
281.6870079607072
 20
153.3417351607143
 30
0.0
  0
VERTEX
  5
10F
330
93
100
AcDbEntity
  8
Make2D$可见线$普通线
100
AcDbVertex
100
AcDb2dVertex
 10
281.6932573198777
 20
153.4686642973101
 30
0.0
  0
VERTEX
  5
110
330
93
100
AcDbEntity
  8
Make2D$可见线$普通线
100
AcDbVertex
100
AcDb2dVertex
 10
281.6736061599495
 20
153.6164448507469
 30
0.0
  0
VERTEX
  5
111
330
93
100
AcDbEntity
  8
Make2D$可见线$普通线
100
AcDbVertex
100
AcDb2dVertex
 10
281.6513368566406
 20
153.7224721322062
 30
0.0
  0
VERTEX
  5
112
330
93
100
AcDbEntity
  8
Make2D$可见线$普通线
100
AcDbVertex
100
AcDb2dVertex
 10
281.4480801327362
 20
154.1612496025131
 30
0.0
  0
VERTEX
  5
113
330
93
100
AcDbEntity
  8
Make2D$可见线$普通线
100
AcDbVertex
100
AcDb2dVertex
 10
281.3498475662011
 20
154.3394449979272
 30
0.0
  0
VERTEX
  5
114
330
93
100
AcDbEntity
  8
Make2D$可见线$普通线
100
AcDbVertex
100
AcDb2dVertex
 10
281.1332864618606
 20
154.666127960858
 30
0.0
  0
VERTEX
  5
115
330
93
100
AcDbEntity
  8
Make2D$可见线$普通线
100
AcDbVertex
100
AcDb2dVertex
 10
281.0500287902688
 20
154.8041853537902
 30
0.0
  0
VERTEX
  5
116
330
93
100
AcDbEntity
  8
Make2D$可见线$普通线
100
AcDbVertex
100
AcDb2dVertex
 10
281.019121373673
 20
154.8976501113517
 30
0.0
  0
VERTEX
  5
117
330
93
100
AcDbEntity
  8
Make2D$可见线$普通线
100
AcDbVertex
100
AcDb2dVertex
 10
280.8796637884708
 20
155.0465110457955
 30
0.0
  0
VERTEX
  5
118
330
93
100
AcDbEntity
  8
Make2D$可见线$普通线
100
AcDbVertex
100
AcDb2dVertex
 10
280.773278575466
 20
155.1875253049175
 30
0.0
  0
VERTEX
  5
119
330
93
100
AcDbEntity
  8
Make2D$可见线$普通线
100
AcDbVertex
100
AcDb2dVertex
 10
280.668058085851
 20
155.3808180710452
 30
0.0
  0
VERTEX
  5
11A
330
93
100
AcDbEntity
  8
Make2D$可见线$普通线
100
AcDbVertex
100
AcDb2dVertex
 10
280.5244720502512
 20
155.5710801170733
 30
0.0
  0
VERTEX
  5
11B
330
93
100
AcDbEntity
  8
Make2D$可见线$普通线
100
AcDbVertex
100
AcDb2dVertex
 10
280.289663876995
 20
155.8395705554246
 30
0.0
  0
VERTEX
  5
11C
330
93
100
AcDbEntity
  8
Make2D$可见线$普通线
100
AcDbVertex
100
AcDb2dVertex
 10
280.065879487678
 20
156.1470970072511
 30
0.0
  0
VERTEX
  5
11D
330
93
100
AcDbEntity
  8
Make2D$可见线$普通线
100
AcDbVertex
100
AcDb2dVertex
 10
279.7999418340819
 20
156.4131126494739
 30
0.0
  0
VERTEX
  5
11E
330
93
100
AcDbEntity
  8
Make2D$可见线$普通线
100
AcDbVertex
100
AcDb2dVertex
 10
279.7126416685209
 20
156.4931050944314
 30
0.0
  0
VERTEX
  5
11F
330
93
100
AcDbEntity
  8
Make2D$可见线$普通线
100
AcDbVertex
100
AcDb2dVertex
 10
279.376868336993
 20
156.8483172109213
 30
0.0
  0
VERTEX
  5
120
330
93
100
AcDbEntity
  8
Make2D$可见线$普通线
100
AcDbVertex
100
AcDb2dVertex
 10
278.9887777096277
 20
157.1724508727355
 30
0.0
  0
VERTEX
  5
121
330
93
100
AcDbEntity
  8
Make2D$可见线$普通线
100
AcDbVertex
100
AcDb2dVertex
 10
278.6954395207749
 20
157.4733301039824
 30
0.0
  0
VERTEX
  5
122
330
93
100
AcDbEntity
  8
Make2D$可见线$普通线
100
AcDbVertex
100
AcDb2dVertex
 10
278.389380935648
 20
157.7406614387464
 30
0.0
  0
VERTEX
  5
123
330
93
100
AcDbEntity
  8
Make2D$可见线$普通线
100
AcDbVertex
100
AcDb2dVertex
 10
277.8983193962792
 20
158.2494540965981
 30
0.0
  0
VERTEX
  5
124
330
93
100
AcDbEntity
  8
Make2D$可见线$普通线
100
AcDbVertex
100
AcDb2dVertex
 10
277.6099859986523
 20
158.5142709555932
 30
0.0
  0
VERTEX
  5
125
330
93
100
AcDbEntity
  8
Make2D$可见线$普通线
100
AcDbVertex
100
AcDb2dVertex
 10
277.3796167420804
 20
158.6933428736054
 30
0.0
  0
VERTEX
  5
126
330
93
100
AcDbEntity
  8
Make2D$可见线$普通线
100
AcDbVertex
100
AcDb2dVertex
 10
277.3019312428954
 20
158.8285064650678
 30
0.0
  0
VERTEX
  5
127
330
93
100
AcDbEntity
  8
Make2D$可见线$普通线
100
AcDbVertex
100
AcDb2dVertex
 10
277.2901995478546
 20
158.9289617575979
 30
0.0
  0
VERTEX
  5
128
330
93
100
AcDbEntity
  8
Make2D$可见线$普通线
100
AcDbVertex
100
AcDb2dVertex
 10
277.3262512163159
 20
158.9925057209178
 30
0.0
  0
VERTEX
  5
129
330
93
100
AcDbEntity
  8
Make2D$可见线$普通线
100
AcDbVertex
100
AcDb2dVertex
 10
277.3965651666382
 20
159.034020211156
 30
0.0
  0
VERTEX
  5
12A
330
93
100
AcDbEntity
  8
Make2D$可见线$普通线
100
AcDbVertex
100
AcDb2dVertex
 10
277.5297878957498
 20
158.9939982484237
 30
0.0
  0
VERTEX
  5
12B
330
93
100
AcDbEntity
  8
Make2D$可见线$普通线
100
AcDbVertex
100
AcDb2dVertex
 10
277.6383830512883
 20
158.8906840986276
 30
0.0
  0
VERTEX
  5
12C
330
93
100
AcDbEntity
  8
Make2D$可见线$普通线
100
AcDbVertex
100
AcDb2dVertex
 10
277.7459042745722
 20
158.7441420228188
 30
0.0
  0
VERTEX
  5
12D
330
93
100
AcDbEntity
  8
Make2D$可见线$普通线
100
AcDbVertex
100
AcDb2dVertex
 10
277.8962253063683
 20
158.6012189766146
 30
0.0
  0
VERTEX
  5
12E
330
93
100
AcDbEntity
  8
Make2D$可见线$普通线
100
AcDbVertex
100
AcDb2dVertex
 10
277.9893055699143
 20
158.5235456824901
 30
0.0
  0
VERTEX
  5
12F
330
93
100
AcDbEntity
  8
Make2D$可见线$普通线
100
AcDbVertex
100
AcDb2dVertex
 10
278.3627903978607
 20
158.1202895413306
 30
0.0
  0
VERTEX
  5
130
330
93
100
AcDbEntity
  8
Make2D$可见线$普通线
100
AcDbVertex
100
AcDb2dVertex
 10
278.6364983310958
 20
157.8461654302598
 30
0.0
  0
VERTEX
  5
131
330
93
100
AcDbEntity
  8
Make2D$可见线$普通线
100
AcDbVertex
100
AcDb2dVertex
 10
278.7871373333945
 20
157.6840469397895
 30
0.0
  0
VERTEX
  5
132
330
93
100
AcDbEntity
  8
Make2D$可见线$普通线
100
AcDbVertex
100
AcDb2dVertex
 10
279.0413666825359
 20
157.4946772900595
 30
0.0
  0
VERTEX
  5
133
330
93
100
AcDbEntity
  8
Make2D$可见线$普通线
100
AcDbVertex
100
AcDb2dVertex
 10
279.3180237135126
 20
157.2218726799935
 30
0.0
  0
VERTEX
  5
134
330
93
100
AcDbEntity
  8
Make2D$可见线$普通线
100
AcDbVertex
100
AcDb2dVertex
 10
279.5050809768509
 20
157.019255440156
 30
0.0
  0
VERTEX
  5
135
330
93
100
AcDbEntity
  8
Make2D$可见线$普通线
100
AcDbVertex
100
AcDb2dVertex
 10
279.8383698714731
 20
156.7844208001678
 30
0.0
  0
VERTEX
  5
136
330
93
100
AcDbEntity
  8
Make2D$可见线$普通线
100
AcDbVertex
100
AcDb2dVertex
 10
280.0621544908605
 20
156.5834504230123
 30
0.0
  0
VERTEX
  5
137
330
93
100
AcDbEntity
  8
Make2D$可见线$普通线
100
AcDbVertex
100
AcDb2dVertex
 10
280.326864076237
 20
156.3713660075828
 30
0.0
  0
VERTEX
  5
138
330
93
100
AcDbEntity
  8
Make2D$可见线$普通线
100
AcDbVertex
100
AcDb2dVertex
 10
280.6157877178381
 20
156.187999359483
 30
0.0
  0
VERTEX
  5
139
330
93
100
AcDbEntity
  8
Make2D$可见线$普通线
100
AcDbVertex
100
AcDb2dVertex
 10
280.7761085249089
 20
156.014175897027
 30
0.0
  0
VERTEX
  5
13A
330
93
100
AcDbEntity
  8
Make2D$可见线$普通线
100
AcDbVertex
100
AcDb2dVertex
 10
281.1338847628252
 20
155.798055911198
 30
0.0
  0
VERTEX
  5
13B
330
93
100
AcDbEntity
  8
Make2D$可见线$普通线
100
AcDbVertex
100
AcDb2dVertex
 10
281.391579397313
 20
155.5496332329236
 30
0.0
  0
VERTEX
  5
13C
330
93
100
AcDbEntity
  8
Make2D$可见线$普通线
100
AcDbVertex
100
AcDb2dVertex
 10
281.5634905883691
 20
155.4704452985644
 30
0.0
  0
VERTEX
  5
13D
330
93
100
AcDbEntity
  8
Make2D$可见线$普通线
100
AcDbVertex
100
AcDb2dVertex
 10
281.6727502652794
 20
155.4567474457367
 30
0.0
  0
VERTEX
  5
13E
330
93
100
AcDbEntity
  8
Make2D$可见线$普通线
100
AcDbVertex
100
AcDb2dVertex
 10
281.7334867537519
 20
155.4842661762599
 30
0.0
  0
VERTEX
  5
13F
330
93
100
AcDbEntity
  8
Make2D$可见线$普通线
100
AcDbVertex
100
AcDb2dVertex
 10
281.7701472966254
 20
155.593455258488
 30
0.0
  0
VERTEX
  5
140
330
93
100
AcDbEntity
  8
Make2D$可见线$普通线
100
AcDbVertex
100
AcDb2dVertex
 10
281.7362460965295
 20
155.7600845716563
 30
0.0
  0
VERTEX
  5
141
330
93
100
AcDbEntity
  8
Make2D$可见线$普通线
100
AcDbVertex
100
AcDb2dVertex
 10
281.7144883117363
 20
155.9342902563321
 30
0.0
  0
VERTEX
  5
142
330
93
100
AcDbEntity
  8
Make2D$可见线$普通线
100
AcDbVertex
100
AcDb2dVertex
 10
281.7147387635511
 20
156.0269088507337
 30
0.0
  0
VERTEX
  5
143
330
93
100
AcDbEntity
  8
Make2D$可见线$普通线
100
AcDbVertex
100
AcDb2dVertex
 10
281.6825752699403
 20
156.0881383361356
 30
0.0
  0
VERTEX
  5
144
330
93
100
AcDbEntity
  8
Make2D$可见线$普通线
100
AcDbVertex
100
AcDb2dVertex
 10
281.6430159178639
 20
156.4003805078814
 30
0.0
  0
VERTEX
  5
145
330
93
100
AcDbEntity
  8
Make2D$可见线$普通线
100
AcDbVertex
100
AcDb2dVertex
 10
281.5927208673909
 20
156.4882368647715
 30
0.0
  0
VERTEX
  5
146
330
93
100
AcDbEntity
  8
Make2D$可见线$普通线
100
AcDbVertex
100
AcDb2dVertex
 10
281.56710219524
 20
156.6984407211254
 30
0.0
  0
VERTEX
  5
147
330
93
100
AcDbEntity
  8
Make2D$可见线$普通线
100
AcDbVertex
100
AcDb2dVertex
 10
281.527709884047
 20
156.7706673909049
 30
0.0
  0
VERTEX
  5
148
330
93
100
AcDbEntity
  8
Make2D$可见线$普通线
100
AcDbVertex
100
AcDb2dVertex
 10
281.4706998854139
 20
156.9790449116514
 30
0.0
  0
VERTEX
  5
149
330
93
100
AcDbEntity
  8
Make2D$可见线$普通线
100
AcDbVertex
100
AcDb2dVertex
 10
281.3431760452262
 20
157.1255137516764
 30
0.0
  0
VERTEX
  5
14A
330
93
100
AcDbEntity
  8
Make2D$可见线$普通线
100
AcDbVertex
100
AcDb2dVertex
 10
281.1649287656265
 20
157.2760953868808
 30
0.0
  0
VERTEX
  5
14B
330
93
100
AcDbEntity
  8
Make2D$可见线$普通线
100
AcDbVertex
100
AcDb2dVertex
 10
281.0151899213456
 20
157.4761582835001
 30
0.0
  0
VERTEX
  5
14C
330
93
100
AcDbEntity
  8
Make2D$可见线$普通线
100
AcDbVertex
100
AcDb2dVertex
 10
280.9438084984554
 20
157.6872936424352
 30
0.0
  0
VERTEX
  5
14D
330
93
100
AcDbEntity
  8
Make2D$可见线$普通线
100
AcDbVertex
100
AcDb2dVertex
 10
280.9292177283271
 20
157.7812001180629
 30
0.0
  0
VERTEX
  5
14E
330
93
100
AcDbEntity
  8
Make2D$可见线$普通线
100
AcDbVertex
100
AcDb2dVertex
 10
280.8865422336362
 20
157.8886541787242
 30
0.0
  0
VERTEX
  5
14F
330
93
100
AcDbEntity
  8
Make2D$可见线$普通线
100
AcDbVertex
100
AcDb2dVertex
 10
280.8877297387626
 20
157.9665430535849
 30
0.0
  0
VERTEX
  5
150
330
93
100
AcDbEntity
  8
Make2D$可见线$普通线
100
AcDbVertex
100
AcDb2dVertex
 10
280.8754779715376
 20
158.0501664535676
 30
0.0
  0
VERTEX
  5
151
330
93
100
AcDbEntity
  8
Make2D$可见线$普通线
100
AcDbVertex
100
AcDb2dVertex
 10
280.9522402550047
 20
158.3585615210632
 30
0.0
  0
VERTEX
  5
152
330
93
100
AcDbEntity
  8
Make2D$可见线$普通线
100
AcDbVertex
100
AcDb2dVertex
 10
281.0626440817827
 20
158.4937443562999
 30
0.0
  0
VERTEX
  5
153
330
93
100
AcDbEntity
  8
Make2D$可见线$普通线
100
AcDbVertex
100
AcDb2dVertex
 10
281.0971904605603
 20
158.5594615612448
 30
0.0
  0
VERTEX
  5
154
330
93
100
AcDbEntity
  8
Make2D$可见线$普通线
100
AcDbVertex
100
AcDb2dVertex
 10
281.1181891876814
 20
158.6807389776943
 30
0.0
  0
VERTEX
  5
155
330
93
100
AcDbEntity
  8
Make2D$可见线$普通线
100
AcDbVertex
100
AcDb2dVertex
 10
281.2403086119339
 20
158.9940315804903
 30
0.0
  0
VERTEX
  5
156
330
93
100
AcDbEntity
  8
Make2D$可见线$普通线
100
AcDbVertex
100
AcDb2dVertex
 10
281.3391841829615
 20
159.1922987596363
 30
0.0
  0
VERTEX
  5
157
330
93
100
AcDbEntity
  8
Make2D$可见线$普通线
100
AcDbVertex
100
AcDb2dVertex
 10
281.5218660799135
 20
159.3571028521031
 30
0.0
  0
VERTEX
  5
158
330
93
100
AcDbEntity
  8
Make2D$可见线$普通线
100
AcDbVertex
100
AcDb2dVertex
 10
281.5659609970879
 20
159.507706875072
 30
0.0
  0
VERTEX
  5
159
330
93
100
AcDbEntity
  8
Make2D$可见线$普通线
100
AcDbVertex
100
AcDb2dVertex
 10
281.5009545007529
 20
159.6682345449548
 30
0.0
  0
VERTEX
  5
15A
330
93
100
AcDbEntity
  8
Make2D$可见线$普通线
100
AcDbVertex
100
AcDb2dVertex
 10
281.2472945456499
 20
160.1067124516634
 30
0.0
  0
VERTEX
  5
15B
330
93
100
AcDbEntity
  8
Make2D$可见线$普通线
100
AcDbVertex
100
AcDb2dVertex
 10
281.2552295850354
 20
160.3020395515757
 30
0.0
  0
VERTEX
  5
15C
330
93
100
AcDbEntity
  8
Make2D$可见线$普通线
100
AcDbVertex
100
AcDb2dVertex
 10
281.4928536059584
 20
160.6104430318226
 30
0.0
  0
VERTEX
  5
15D
330
93
100
AcDbEntity
  8
Make2D$可见线$普通线
100
AcDbVertex
100
AcDb2dVertex
 10
281.5740957529946
 20
161.0562453663978
 30
0.0
  0
VERTEX
  5
15E
330
93
100
AcDbEntity
  8
Make2D$可见线$普通线
100
AcDbVertex
100
AcDb2dVertex
 10
281.6181835364742
 20
161.2321922825014
 30
0.0
  0
VERTEX
  5
15F
330
93
100
AcDbEntity
  8
Make2D$可见线$普通线
100
AcDbVertex
100
AcDb2dVertex
 10
281.6628879154339
 20
161.6443595272623
 30
0.0
  0
VERTEX
  5
160
330
93
100
AcDbEntity
  8
Make2D$可见线$普通线
100
AcDbVertex
100
AcDb2dVertex
 10
281.6314042309358
 20
162.0564875826585
 30
0.0
  0
VERTEX
  5
161
330
93
100
AcDbEntity
  8
Make2D$可见线$普通线
100
AcDbVertex
100
AcDb2dVertex
 10
281.6613338370803
 20
162.386789197094
 30
0.0
  0
VERTEX
  5
162
330
93
100
AcDbEntity
  8
Make2D$可见线$普通线
100
AcDbVertex
100
AcDb2dVertex
 10
281.651147446014
 20
162.6312954344457
 30
0.0
  0
VERTEX
  5
163
330
93
100
AcDbEntity
  8
Make2D$可见线$普通线
100
AcDbVertex
100
AcDb2dVertex
 10
281.7061054535955
 20
162.8609593042671
 30
0.0
  0
VERTEX
  5
164
330
93
100
AcDbEntity
  8
Make2D$可见线$普通线
100
AcDbVertex
100
AcDb2dVertex
 10
281.6930688701016
 20
163.3857382408992
 30
0.0
  0
VERTEX
  5
165
330
93
100
AcDbEntity
  8
Make2D$可见线$普通线
100
AcDbVertex
100
AcDb2dVertex
 10
281.7231408585503
 20
163.7994570315961
 30
0.0
  0
VERTEX
  5
166
330
93
100
AcDbEntity
  8
Make2D$可见线$普通线
100
AcDbVertex
100
AcDb2dVertex
 10
281.6684328204702
 20
163.9354899955854
 30
0.0
  0
VERTEX
  5
167
330
93
100
AcDbEntity
  8
Make2D$可见线$普通线
100
AcDbVertex
100
AcDb2dVertex
 10
281.640633414905
 20
164.1317632781664
 30
0.0
  0
VERTEX
  5
168
330
93
100
AcDbEntity
  8
Make2D$可见线$普通线
100
AcDbVertex
100
AcDb2dVertex
 10
281.6635575786797
 20
164.2196561672656
 30
0.0
  0
VERTEX
  5
169
330
93
100
AcDbEntity
  8
Make2D$可见线$普通线
100
AcDbVertex
100
AcDb2dVertex
 10
281.7010866780074
 20
164.2293037501994
 30
0.0
  0
VERTEX
  5
16A
330
93
100
AcDbEntity
  8
Make2D$可见线$普通线
100
AcDbVertex
100
AcDb2dVertex
 10
281.7682347173485
 20
164.1923400642472
 30
0.0
  0
VERTEX
  5
16B
330
93
100
AcDbEntity
  8
Make2D$可见线$普通线
100
AcDbVertex
100
AcDb2dVertex
 10
281.8245317926999
 20
164.0456504880855
 30
0.0
 42
-0.0159570440951046
  0
VERTEX
  5
16C
330
93
100
AcDbEntity
  8
Make2D$可见线$普通线
100
AcDbVertex
100
AcDb2dVertex
 10
281.891511618236
 20
161.4241599643686
 30
0.0
  0
VERTEX
  5
16D
330
93
100
AcDbEntity
  8
Make2D$可见线$普通线
100
AcDbVertex
100
AcDb2dVertex
 10
281.8055245379429
 20
160.6480754548754
 30
0.0
  0
VERTEX
  5
16E
330
93
100
AcDbEntity
  8
Make2D$可见线$普通线
100
AcDbVertex
100
AcDb2dVertex
 10
281.7147789183072
 20
160.2846175120978
 30
0.0
  0
VERTEX
  5
16F
330
93
100
AcDbEntity
  8
Make2D$可见线$普通线
100
AcDbVertex
100
AcDb2dVertex
 10
281.6373437753348
 20
160.1455972125918
 30
0.0
  0
VERTEX
  5
170
330
93
100
AcDbEntity
  8
Make2D$可见线$普通线
100
AcDbVertex
100
AcDb2dVertex
 10
281.6240762269397
 20
159.9976903104726
 30
0.0
  0
VERTEX
  5
171
330
93
100
AcDbEntity
  8
Make2D$可见线$普通线
100
AcDbVertex
100
AcDb2dVertex
 10
281.7160876466222
 20
159.8212373897204
 30
0.0
  0
VERTEX
  5
172
330
93
100
AcDbEntity
  8
Make2D$可见线$普通线
100
AcDbVertex
100
AcDb2dVertex
 10
281.9972509312341
 20
159.4491742119559
 30
0.0
  0
VERTEX
  5
173
330
93
100
AcDbEntity
  8
Make2D$可见线$普通线
100
AcDbVertex
100
AcDb2dVertex
 10
282.1146757262627
 20
159.3187639347353
 30
0.0
  0
VERTEX
  5
174
330
93
100
AcDbEntity
  8
Make2D$可见线$普通线
100
AcDbVertex
100
AcDb2dVertex
 10
282.1373609614882
 20
159.1677146236793
 30
0.0
  0
VERTEX
  5
175
330
93
100
AcDbEntity
  8
Make2D$可见线$普通线
100
AcDbVertex
100
AcDb2dVertex
 10
282.0757315326766
 20
159.0667295135264
 30
0.0
  0
VERTEX
  5
176
330
93
100
AcDbEntity
  8
Make2D$可见线$普通线
100
AcDbVertex
100
AcDb2dVertex
 10
281.9604272986882
 20
159.0503390177603
 30
0.0
  0
VERTEX
  5
177
330
93
100
AcDbEntity
  8
Make2D$可见线$普通线
100
AcDbVertex
100
AcDb2dVertex
 10
281.7912497321386
 20
159.1133663287316
 30
0.0
  0
VERTEX
  5
178
330
93
100
AcDbEntity
  8
Make2D$可见线$普通线
100
AcDbVertex
100
AcDb2dVertex
 10
281.6703536486516
 20
159.0760840517191
 30
0.0
  0
VERTEX
  5
179
330
93
100
AcDbEntity
  8
Make2D$可见线$普通线
100
AcDbVertex
100
AcDb2dVertex
 10
281.5204880333017
 20
158.8889553246997
 30
0.0
  0
VERTEX
  5
17A
330
93
100
AcDbEntity
  8
Make2D$可见线$普通线
100
AcDbVertex
100
AcDb2dVertex
 10
281.4424027734684
 20
158.6776823548399
 30
0.0
  0
VERTEX
  5
17B
330
93
100
AcDbEntity
  8
Make2D$可见线$普通线
100
AcDbVertex
100
AcDb2dVertex
 10
281.4665201822021
 20
158.6271313667247
 30
0.0
  0
VERTEX
  5
17C
330
93
100
AcDbEntity
  8
Make2D$可见线$普通线
100
AcDbVertex
100
AcDb2dVertex
 10
281.5338477507861
 20
158.6073630066276
 30
0.0
  0
VERTEX
  5
17D
330
93
100
AcDbEntity
  8
Make2D$可见线$普通线
100
AcDbVertex
100
AcDb2dVertex
 10
281.7376041575839
 20
158.6097466524292
 30
0.0
  0
VERTEX
  5
17E
330
93
100
AcDbEntity
  8
Make2D$可见线$普通线
100
AcDbVertex
100
AcDb2dVertex
 10
281.8373779383944
 20
158.5810825205285
 30
0.0
  0
VERTEX
  5
17F
330
93
100
AcDbEntity
  8
Make2D$可见线$普通线
100
AcDbVertex
100
AcDb2dVertex
 10
281.933670023299
 20
158.4891938393745
 30
0.0
  0
VERTEX
  5
180
330
93
100
AcDbEntity
  8
Make2D$可见线$普通线
100
AcDbVertex
100
AcDb2dVertex
 10
282.0290111676136
 20
158.324020597964
 30
0.0
  0
VERTEX
  5
181
330
93
100
AcDbEntity
  8
Make2D$可见线$普通线
100
AcDbVertex
100
AcDb2dVertex
 10
282.1468345774271
 20
157.8834227555261
 30
0.0
  0
VERTEX
  5
182
330
93
100
AcDbEntity
  8
Make2D$可见线$普通线
100
AcDbVertex
100
AcDb2dVertex
 10
282.1668223249798
 20
157.6222659761712
 30
0.0
  0
VERTEX
  5
183
330
93
100
AcDbEntity
  8
Make2D$可见线$普通线
100
AcDbVertex
100
AcDb2dVertex
 10
282.0722719753321
 20
157.2484186992926
 30
0.0
  0
VERTEX
  5
184
330
93
100
AcDbEntity
  8
Make2D$可见线$普通线
100
AcDbVertex
100
AcDb2dVertex
 10
281.9322305055583
 20
157.0946223513567
 30
0.0
  0
VERTEX
  5
185
330
93
100
AcDbEntity
  8
Make2D$可见线$普通线
100
AcDbVertex
100
AcDb2dVertex
 10
281.8128539213837
 20
157.0512604432151
 30
0.0
  0
VERTEX
  5
186
330
93
100
AcDbEntity
  8
Make2D$可见线$普通线
100
AcDbVertex
100
AcDb2dVertex
 10
281.7553084293489
 20
156.9982990493984
 30
0.0
  0
VERTEX
  5
187
330
93
100
AcDbEntity
  8
Make2D$可见线$普通线
100
AcDbVertex
100
AcDb2dVertex
 10
281.7449682398747
 20
156.9387195490831
 30
0.0
  0
VERTEX
  5
188
330
93
100
AcDbEntity
  8
Make2D$可见线$普通线
100
AcDbVertex
100
AcDb2dVertex
 10
281.9003829709486
 20
156.3228262766482
 30
0.0
  0
VERTEX
  5
189
330
93
100
AcDbEntity
  8
Make2D$可见线$普通线
100
AcDbVertex
100
AcDb2dVertex
 10
281.9001338720265
 20
156.2223580357794
 30
0.0
  0
VERTEX
  5
18A
330
93
100
AcDbEntity
  8
Make2D$可见线$普通线
100
AcDbVertex
100
AcDb2dVertex
 10
281.9730004663571
 20
156.0326542018802
 30
0.0
  0
VERTEX
  5
18B
330
93
100
AcDbEntity
  8
Make2D$可见线$普通线
100
AcDbVertex
100
AcDb2dVertex
 10
282.0253960571829
 20
155.7004125374834
 30
0.0
  0
VERTEX
  5
18C
330
93
100
AcDbEntity
  8
Make2D$可见线$普通线
100
AcDbVertex
100
AcDb2dVertex
 10
282.0232615456996
 20
155.4018055832934
 30
0.0
  0
VERTEX
  5
18D
330
93
100
AcDbEntity
  8
Make2D$可见线$普通线
100
AcDbVertex
100
AcDb2dVertex
 10
282.0377879130807
 20
155.3317642218939
 30
0.0
  0
VERTEX
  5
18E
330
93
100
AcDbEntity
  8
Make2D$可见线$普通线
100
AcDbVertex
100
AcDb2dVertex
 10
282.0672392372419
 20
155.2810719146581
 30
0.0
  0
VERTEX
  5
18F
330
93
100
AcDbEntity
  8
Make2D$可见线$普通线
100
AcDbVertex
100
AcDb2dVertex
 10
282.1103686593465
 20
155.2520688445369
 30
0.0
  0
VERTEX
  5
190
330
93
100
AcDbEntity
  8
Make2D$可见线$普通线
100
AcDbVertex
100
AcDb2dVertex
 10
282.2137100534727
 20
155.2452050292865
 30
0.0
  0
VERTEX
  5
191
330
93
100
AcDbEntity
  8
Make2D$可见线$普通线
100
AcDbVertex
100
AcDb2dVertex
 10
282.4596670392031
 20
155.2586720916921
 30
0.0
  0
VERTEX
  5
192
330
93
100
AcDbEntity
  8
Make2D$可见线$普通线
100
AcDbVertex
100
AcDb2dVertex
 10
282.7914692816196
 20
155.2214477139638
 30
0.0
  0
VERTEX
  5
193
330
93
100
AcDbEntity
  8
Make2D$可见线$普通线
100
AcDbVertex
100
AcDb2dVertex
 10
283.1259156774862
 20
155.1580260205643
 30
0.0
  0
VERTEX
  5
194
330
93
100
AcDbEntity
  8
Make2D$可见线$普通线
100
AcDbVertex
100
AcDb2dVertex
 10
283.1833304317317
 20
155.1119114230563
 30
0.0
  0
VERTEX
  5
195
330
93
100
AcDbEntity
  8
Make2D$可见线$普通线
100
AcDbVertex
100
AcDb2dVertex
 10
283.40574881088
 20
155.0892292797747
 30
0.0
  0
VERTEX
  5
196
330
93
100
AcDbEntity
  8
Make2D$可见线$普通线
100
AcDbVertex
100
AcDb2dVertex
 10
283.5038653844887
 20
155.0438198482383
 30
0.0
  0
VERTEX
  5
197
330
93
100
AcDbEntity
  8
Make2D$可见线$普通线
100
AcDbVertex
100
AcDb2dVertex
 10
283.7866289140092
 20
154.938269367608
 30
0.0
  0
VERTEX
  5
198
330
93
100
AcDbEntity
  8
Make2D$可见线$普通线
100
AcDbVertex
100
AcDb2dVertex
 10
284.0439037205176
 20
154.8556816062468
 30
0.0
  0
VERTEX
  5
199
330
93
100
AcDbEntity
  8
Make2D$可见线$普通线
100
AcDbVertex
100
AcDb2dVertex
 10
284.2396668060497
 20
154.7506210365849
 30
0.0
  0
VERTEX
  5
19A
330
93
100
AcDbEntity
  8
Make2D$可见线$普通线
100
AcDbVertex
100
AcDb2dVertex
 10
284.4949252983201
 20
154.6383991952906
 30
0.0
  0
VERTEX
  5
19B
330
93
100
AcDbEntity
  8
Make2D$可见线$普通线
100
AcDbVertex
100
AcDb2dVertex
 10
284.7044929259196
 20
154.4795201849763
 30
0.0
  0
VERTEX
  5
19C
330
93
100
AcDbEntity
  8
Make2D$可见线$普通线
100
AcDbVertex
100
AcDb2dVertex
 10
284.8610354938231
 20
154.4282843656611
 30
0.0
  0
VERTEX
  5
19D
330
93
100
AcDbEntity
  8
Make2D$可见线$普通线
100
AcDbVertex
100
AcDb2dVertex
 10
285.1796770750733
 20
154.2264587186002
 30
0.0
  0
VERTEX
  5
19E
330
93
100
AcDbEntity
  8
Make2D$可见线$普通线
100
AcDbVertex
100
AcDb2dVertex
 10
285.5831487960219
 20
153.9286703150796
 30
0.0
  0
VERTEX
  5
19F
330
93
100
AcDbEntity
  8
Make2D$可见线$普通线
100
AcDbVertex
100
AcDb2dVertex
 10
285.6743022628001
 20
153.8781123783018
 30
0.0
  0
VERTEX
  5
1A0
330
93
100
AcDbEntity
  8
Make2D$可见线$普通线
100
AcDbVertex
100
AcDb2dVertex
 10
285.7520294767641
 20
153.8426317304607
 30
0.0
  0
VERTEX
  5
1A1
330
93
100
AcDbEntity
  8
Make2D$可见线$普通线
100
AcDbVertex
100
AcDb2dVertex
 10
286.1727921804987
 20
153.4863410241421
 30
0.0
  0
VERTEX
  5
1A2
330
93
100
AcDbEntity
  8
Make2D$可见线$普通线
100
AcDbVertex
100
AcDb2dVertex
 10
286.5885127720028
 20
153.050671113631
 30
0.0
  0
VERTEX
  5
1A3
330
93
100
AcDbEntity
  8
Make2D$可见线$普通线
100
AcDbVertex
100
AcDb2dVertex
 10
286.7480126260158
 20
152.7870561834359
 30
0.0
  0
VERTEX
  5
1A4
330
93
100
AcDbEntity
  8
Make2D$可见线$普通线
100
AcDbVertex
100
AcDb2dVertex
 10
286.8128099522855
 20
152.6131993976767
 30
0.0
  0
VERTEX
  5
1A5
330
93
100
AcDbEntity
  8
Make2D$可见线$普通线
100
AcDbVertex
100
AcDb2dVertex
 10
286.8115544290376
 20
152.4746378140833
 30
0.0
  0
VERTEX
  5
1A6
330
93
100
AcDbEntity
  8
Make2D$可见线$普通线
100
AcDbVertex
100
AcDb2dVertex
 10
286.7319940358794
 20
152.3662411745707
 30
0.0
  0
VERTEX
  5
1A7
330
93
100
AcDbEntity
  8
Make2D$可见线$普通线
100
AcDbVertex
100
AcDb2dVertex
 10
286.5669724093033
 20
152.2657472460888
 30
0.0
  0
VERTEX
  5
1A8
330
93
100
AcDbEntity
  8
Make2D$可见线$普通线
100
AcDbVertex
100
AcDb2dVertex
 10
286.3664240803562
 20
152.2419565922962
 30
0.0
  0
VERTEX
  5
1A9
330
93
100
AcDbEntity
  8
Make2D$可见线$普通线
100
AcDbVertex
100
AcDb2dVertex
 10
286.3174876873696
 20
152.2462827643276
 30
0.0
  0
VERTEX
  5
1AA
330
93
100
AcDbEntity
  8
Make2D$可见线$普通线
100
AcDbVertex
100
AcDb2dVertex
 10
286.2090914275846
 20
152.2328752887316
 30
0.0
  0
VERTEX
  5
1AB
330
93
100
AcDbEntity
  8
Make2D$可见线$普通线
100
AcDbVertex
100
AcDb2dVertex
 10
286.0898958481437
 20
152.2727112844826
 30
0.0
  0
VERTEX
  5
1AC
330
93
100
AcDbEntity
  8
Make2D$可见线$普通线
100
AcDbVertex
100
AcDb2dVertex
 10
285.6936984912015
 20
152.384571238695
 30
0.0
  0
VERTEX
  5
1AD
330
93
100
AcDbEntity
  8
Make2D$可见线$普通线
100
AcDbVertex
100
AcDb2dVertex
 10
285.6259319568247
 20
152.4256054340581
 30
0.0
  0
VERTEX
  5
1AE
330
93
100
AcDbEntity
  8
Make2D$可见线$普通线
100
AcDbVertex
100
AcDb2dVertex
 10
285.5029477581411
 20
152.4318522857019
 30
0.0
  0
VERTEX
  5
1AF
330
93
100
AcDbEntity
  8
Make2D$可见线$普通线
100
AcDbVertex
100
AcDb2dVertex
 10
285.2486711862829
 20
152.5766698800675
 30
0.0
  0
VERTEX
  5
1B0
330
93
100
AcDbEntity
  8
Make2D$可见线$普通线
100
AcDbVertex
100
AcDb2dVertex
 10
285.1604312736907
 20
152.6000749647274
 30
0.0
  0
VERTEX
  5
1B1
330
93
100
AcDbEntity
  8
Make2D$可见线$普通线
100
AcDbVertex
100
AcDb2dVertex
 10
284.9390790397716
 20
152.7881148938785
 30
0.0
  0
VERTEX
  5
1B2
330
93
100
AcDbEntity
  8
Make2D$可见线$普通线
100
AcDbVertex
100
AcDb2dVertex
 10
284.7625500258197
 20
152.8780490030916
 30
0.0
  0
VERTEX
  5
1B3
330
93
100
AcDbEntity
  8
Make2D$可见线$普通线
100
AcDbVertex
100
AcDb2dVertex
 10
284.4466884974175
 20
153.0810237119829
 30
0.0
  0
VERTEX
  5
1B4
330
93
100
AcDbEntity
  8
Make2D$可见线$普通线
100
AcDbVertex
100
AcDb2dVertex
 10
284.3173431464036
 20
153.143798734363
 30
0.0
  0
VERTEX
  5
1B5
330
93
100
AcDbEntity
  8
Make2D$可见线$普通线
100
AcDbVertex
100
AcDb2dVertex
 10
283.6833981757778
 20
153.6336065684353
 30
0.0
  0
VERTEX
  5
1B6
330
93
100
AcDbEntity
  8
Make2D$可见线$普通线
100
AcDbVertex
100
AcDb2dVertex
 10
283.4104549632806
 20
153.7922378845877
 30
0.0
  0
VERTEX
  5
1B7
330
93
100
AcDbEntity
  8
Make2D$可见线$普通线
100
AcDbVertex
100
AcDb2dVertex
 10
283.199540910165
 20
153.9900812356764
 30
0.0
  0
VERTEX
  5
1B8
330
93
100
AcDbEntity
  8
Make2D$可见线$普通线
100
AcDbVertex
100
AcDb2dVertex
 10
282.9570340702119
 20
154.1253964020709
 30
0.0
  0
VERTEX
  5
1B9
330
93
100
AcDbEntity
  8
Make2D$可见线$普通线
100
AcDbVertex
100
AcDb2dVertex
 10
282.6518846755864
 20
154.3750681855603
 30
0.0
  0
VERTEX
  5
1BA
330
93
100
AcDbEntity
  8
Make2D$可见线$普通线
100
AcDbVertex
100
AcDb2dVertex
 10
282.3997361481017
 20
154.5377825635061
 30
0.0
  0
VERTEX
  5
1BB
330
93
100
AcDbEntity
  8
Make2D$可见线$普通线
100
AcDbVertex
100
AcDb2dVertex
 10
282.0997888523989
 20
154.810968546435
 30
0.0
  0
VERTEX
  5
1BC
330
93
100
AcDbEntity
  8
Make2D$可见线$普通线
100
AcDbVertex
100
AcDb2dVertex
 10
281.9911629007573
 20
154.8739133626561
 30
0.0
  0
VERTEX
  5
1BD
330
93
100
AcDbEntity
  8
Make2D$可见线$普通线
100
AcDbVertex
100
AcDb2dVertex
 10
281.8646825367978
 20
154.8743647617473
 30
0.0
  0
VERTEX
  5
1BE
330
93
100
AcDbEntity
  8
Make2D$可见线$普通线
100
AcDbVertex
100
AcDb2dVertex
 10
281.7730886404718
 20
154.8161687065987
 30
0.0
  0
VERTEX
  5
1BF
330
93
100
AcDbEntity
  8
Make2D$可见线$普通线
100
AcDbVertex
100
AcDb2dVertex
 10
281.6814667179937
 20
154.8006697083733
 30
0.0
  0
VERTEX
  5
1C0
330
93
100
AcDbEntity
  8
Make2D$可见线$普通线
100
AcDbVertex
100
AcDb2dVertex
 10
281.6111174427699
 20
154.8153893942427
 30
0.0
  0
VERTEX
  5
1C1
330
93
100
AcDbEntity
  8
Make2D$可见线$普通线
100
AcDbVertex
100
AcDb2dVertex
 10
281.5596604179603
 20
154.8656408428301
 30
0.0
  0
VERTEX
  5
1C2
330
93
100
AcDbEntity
  8
Make2D$可见线$普通线
100
AcDbVertex
100
AcDb2dVertex
 10
281.5499683870029
 20
154.991245056622
 30
0.0
  0
VERTEX
  5
1C3
330
93
100
AcDbEntity
  8
Make2D$可见线$普通线
100
AcDbVertex
100
AcDb2dVertex
 10
281.5545377226496
 20
155.1349907704845
 30
0.0
  0
VERTEX
  5
1C4
330
93
100
AcDbEntity
  8
Make2D$可见线$普通线
100
AcDbVertex
100
AcDb2dVertex
 10
281.4973823119541
 20
155.2434678807666
 30
0.0
  0
VERTEX
  5
1C5
330
93
100
AcDbEntity
  8
Make2D$可见线$普通线
100
AcDbVertex
100
AcDb2dVertex
 10
281.3445013801204
 20
155.3508790006499
 30
0.0
  0
VERTEX
  5
1C6
330
93
100
AcDbEntity
  8
Make2D$可见线$普通线
100
AcDbVertex
100
AcDb2dVertex
 10
280.9165002163744
 20
155.6289074906281
 30
0.0
  0
VERTEX
  5
1C7
330
93
100
AcDbEntity
  8
Make2D$可见线$普通线
100
AcDbVertex
100
AcDb2dVertex
 10
280.7436037238501
 20
155.8085315234896
 30
0.0
  0
VERTEX
  5
1C8
330
93
100
AcDbEntity
  8
Make2D$可见线$普通线
100
AcDbVertex
100
AcDb2dVertex
 10
280.6524789242983
 20
155.8092754627023
 30
0.0
  0
VERTEX
  5
1C9
330
93
100
AcDbEntity
  8
Make2D$可见线$普通线
100
AcDbVertex
100
AcDb2dVertex
 10
280.6441240989105
 20
155.7320694965525
 30
0.0
  0
VERTEX
  5
1CA
330
93
100
AcDbEntity
  8
Make2D$可见线$普通线
100
AcDbVertex
100
AcDb2dVertex
 10
280.7399220138589
 20
155.5505230292838
 30
0.0
  0
VERTEX
  5
1CB
330
93
100
AcDbEntity
  8
Make2D$可见线$普通线
100
AcDbVertex
100
AcDb2dVertex
 10
280.9527841161369
 20
155.2767490659498
 30
0.0
  0
VERTEX
  5
1CC
330
93
100
AcDbEntity
  8
Make2D$可见线$普通线
100
AcDbVertex
100
AcDb2dVertex
 10
281.1943555802442
 20
154.9893532085475
 30
0.0
  0
VERTEX
  5
1CD
330
93
100
AcDbEntity
  8
Make2D$可见线$普通线
100
AcDbVertex
100
AcDb2dVertex
 10
281.3679260844968
 20
154.6777588520913
 30
0.0
  0
VERTEX
  5
1CE
330
93
100
AcDbEntity
  8
Make2D$可见线$普通线
100
AcDbVertex
100
AcDb2dVertex
 10
281.5643195381341
 20
154.3961090015289
 30
0.0
  0
VERTEX
  5
1CF
330
93
100
AcDbEntity
  8
Make2D$可见线$普通线
100
AcDbVertex
100
AcDb2dVertex
 10
281.883375807095
 20
153.8159256461812
 30
0.0
  0
VERTEX
  5
1D0
330
93
100
AcDbEntity
  8
Make2D$可见线$普通线
100
AcDbVertex
100
AcDb2dVertex
 10
281.9632828332317
 20
153.5228056153707
 30
0.0
  0
VERTEX
  5
1D1
330
93
100
AcDbEntity
  8
Make2D$可见线$普通线
100
AcDbVertex
100
AcDb2dVertex
 10
281.9965779689364
 20
153.2545049176658
 30
0.0
  0
VERTEX
  5
1D2
330
93
100
AcDbEntity
  8
Make2D$可见线$普通线
100
AcDbVertex
100
AcDb2dVertex
 10
281.9282400874622
 20
153.0715620077525
 30
0.0
  0
VERTEX
  5
1D3
330
93
100
AcDbEntity
  8
Make2D$可见线$普通线
100
AcDbVertex
100
AcDb2dVertex
 10
281.830244297765
 20
152.9611291367623
 30
0.0
  0
VERTEX
  5
1D4
330
93
100
AcDbEntity
  8
Make2D$可见线$普通线
100
AcDbVertex
100
AcDb2dVertex
 10
281.8005444013861
 20
152.8820308339615
 30
0.0
  0
VERTEX
  5
1D5
330
93
100
AcDbEntity
  8
Make2D$可见线$普通线
100
AcDbVertex
100
AcDb2dVertex
 10
281.8313081836975
 20
152.7564886048935
 30
0.0
  0
VERTEX
  5
1D6
330
93
100
AcDbEntity
  8
Make2D$可见线$普通线
100
AcDbVertex
100
AcDb2dVertex
 10
282.0437160206129
 20
152.5164816805403
 30
0.0
  0
VERTEX
  5
1D7
330
93
100
AcDbEntity
  8
Make2D$可见线$普通线
100
AcDbVertex
100
AcDb2dVertex
 10
282.1004032411889
 20
152.4101400895007
 30
0.0
  0
VERTEX
  5
1D8
330
93
100
AcDbEntity
  8
Make2D$可见线$普通线
100
AcDbVertex
100
AcDb2dVertex
 10
282.1083056254002
 20
152.2846616892645
 30
0.0
  0
VERTEX
  5
1D9
330
93
100
AcDbEntity
  8
Make2D$可见线$普通线
100
AcDbVertex
100
AcDb2dVertex
 10
282.0403925432214
 20
152.066994596875
 30
0.0
  0
VERTEX
  5
1DA
330
93
100
AcDbEntity
  8
Make2D$可见线$普通线
100
AcDbVertex
100
AcDb2dVertex
 10
282.0470890952172
 20
151.9645933940781
 30
0.0
  0
VERTEX
  5
1DB
330
93
100
AcDbEntity
  8
Make2D$可见线$普通线
100
AcDbVertex
100
AcDb2dVertex
 10
282.1574764275048
 20
151.6064683982562
 30
0.0
  0
VERTEX
  5
1DC
330
93
100
AcDbEntity
  8
Make2D$可见线$普通线
100
AcDbVertex
100
AcDb2dVertex
 10
282.1417907217351
 20
151.449479328014
 30
0.0
  0
VERTEX
  5
1DD
330
93
100
AcDbEntity
  8
Make2D$可见线$普通线
100
AcDbVertex
100
AcDb2dVertex
 10
282.0850564012087
 20
151.2620185981867
 30
0.0
  0
VERTEX
  5
1DE
330
93
100
AcDbEntity
  8
Make2D$可见线$普通线
100
AcDbVertex
100
AcDb2dVertex
 10
281.958559723748
 20
151.1100057307476
 30
0.0
  0
VERTEX
  5
1DF
330
93
100
AcDbEntity
  8
Make2D$可见线$普通线
100
AcDbVertex
100
AcDb2dVertex
 10
281.8721556341154
 20
151.0247054419598
 30
0.0
  0
VERTEX
  5
1E0
330
93
100
AcDbEntity
  8
Make2D$可见线$普通线
100
AcDbVertex
100
AcDb2dVertex
 10
281.7260669542248
 20
150.9401020700301
 30
0.0
  0
VERTEX
  5
1E1
330
93
100
AcDbEntity
  8
Make2D$可见线$普通线
100
AcDbVertex
100
AcDb2dVertex
 10
281.6582391418311
 20
150.8719506265463
 30
0.0
  0
VERTEX
  5
1E2
330
93
100
AcDbEntity
  8
Make2D$可见线$普通线
100
AcDbVertex
100
AcDb2dVertex
 10
281.6407828868026
 20
150.7989303573405
 30
0.0
  0
VERTEX
  5
1E3
330
93
100
AcDbEntity
  8
Make2D$可见线$普通线
100
AcDbVertex
100
AcDb2dVertex
 10
281.6538907212889
 20
150.7385797336319
 30
0.0
  0
VERTEX
  5
1E4
330
93
100
AcDbEntity
  8
Make2D$可见线$普通线
100
AcDbVertex
100
AcDb2dVertex
 10
281.7529260292358
 20
150.5691475242553
 30
0.0
  0
VERTEX
  5
1E5
330
93
100
AcDbEntity
  8
Make2D$可见线$普通线
100
AcDbVertex
100
AcDb2dVertex
 10
281.9475521350751
 20
150.3239357230246
 30
0.0
  0
VERTEX
  5
1E6
330
93
100
AcDbEntity
  8
Make2D$可见线$普通线
100
AcDbVertex
100
AcDb2dVertex
 10
282.1729992782742
 20
149.882198521584
 30
0.0
  0
VERTEX
  5
1E7
330
93
100
AcDbEntity
  8
Make2D$可见线$普通线
100
AcDbVertex
100
AcDb2dVertex
 10
282.321372144255
 20
149.5236525926681
 30
0.0
  0
VERTEX
  5
1E8
330
93
100
AcDbEntity
  8
Make2D$可见线$普通线
100
AcDbVertex
100
AcDb2dVertex
 10
282.3177390208369
 20
149.3707677786157
 30
0.0
  0
VERTEX
  5
1E9
330
93
100
AcDbEntity
  8
Make2D$可见线$普通线
100
AcDbVertex
100
AcDb2dVertex
 10
282.2729076152823
 20
149.1839285845593
 30
0.0
  0
VERTEX
  5
1EA
330
93
100
AcDbEntity
  8
Make2D$可见线$普通线
100
AcDbVertex
100
AcDb2dVertex
 10
282.1826235685768
 20
148.9305566450244
 30
0.0
  0
VERTEX
  5
1EB
330
93
100
AcDbEntity
  8
Make2D$可见线$普通线
100
AcDbVertex
100
AcDb2dVertex
 10
282.2456758542288
 20
148.7370006252061
 30
0.0
  0
VERTEX
  5
1EC
330
93
100
AcDbEntity
  8
Make2D$可见线$普通线
100
AcDbVertex
100
AcDb2dVertex
 10
282.5642114725127
 20
148.0742094518328
 30
0.0
  0
VERTEX
  5
1ED
330
93
100
AcDbEntity
  8
Make2D$可见线$普通线
100
AcDbVertex
100
AcDb2dVertex
 10
282.5893866234985
 20
147.8210239028967
 30
0.0
  0
VERTEX
  5
1EE
330
93
100
AcDbEntity
  8
Make2D$可见线$普通线
100
AcDbVertex
100
AcDb2dVertex
 10
282.5208408028973
 20
147.6600503000174
 30
0.0
  0
VERTEX
  5
1EF
330
93
100
AcDbEntity
  8
Make2D$可见线$普通线
100
AcDbVertex
100
AcDb2dVertex
 10
282.405425255641
 20
147.6264043852486
 30
0.0
  0
VERTEX
  5
1F0
330
93
100
AcDbEntity
  8
Make2D$可见线$普通线
100
AcDbVertex
100
AcDb2dVertex
 10
282.1789791595309
 20
147.8438809933285
 30
0.0
  0
VERTEX
  5
1F1
330
93
100
AcDbEntity
  8
Make2D$可见线$普通线
100
AcDbVertex
100
AcDb2dVertex
 10
282.0507837899405
 20
148.0549286986272
 30
0.0
  0
VERTEX
  5
1F2
330
93
100
AcDbEntity
  8
Make2D$可见线$普通线
100
AcDbVertex
100
AcDb2dVertex
 10
282.0566927077011
 20
148.124941137665
 30
0.0
  0
VERTEX
  5
1F3
330
93
100
AcDbEntity
  8
Make2D$可见线$普通线
100
AcDbVertex
100
AcDb2dVertex
 10
282.1523680771293
 20
148.1949829258681
 30
0.0
  0
VERTEX
  5
1F4
330
93
100
AcDbEntity
  8
Make2D$可见线$普通线
100
AcDbVertex
100
AcDb2dVertex
 10
282.1838192819046
 20
148.2586749120343
 30
0.0
  0
VERTEX
  5
1F5
330
93
100
AcDbEntity
  8
Make2D$可见线$普通线
100
AcDbVertex
100
AcDb2dVertex
 10
282.161707372836
 20
148.3771711018247
 30
0.0
  0
VERTEX
  5
1F6
330
93
100
AcDbEntity
  8
Make2D$可见线$普通线
100
AcDbVertex
100
AcDb2dVertex
 10
281.9907081698009
 20
148.6553457108894
 30
0.0
  0
VERTEX
  5
1F7
330
93
100
AcDbEntity
  8
Make2D$可见线$普通线
100
AcDbVertex
100
AcDb2dVertex
 10
281.8642481554783
 20
148.8932846848893
 30
0.0
  0
VERTEX
  5
1F8
330
93
100
AcDbEntity
  8
Make2D$可见线$普通线
100
AcDbVertex
100
AcDb2dVertex
 10
281.7303731455156
 20
148.9687675761057
 30
0.0
  0
VERTEX
  5
1F9
330
93
100
AcDbEntity
  8
Make2D$可见线$普通线
100
AcDbVertex
100
AcDb2dVertex
 10
281.5875752692497
 20
149.0133002021968
 30
0.0
  0
VERTEX
  5
1FA
330
93
100
AcDbEntity
  8
Make2D$可见线$普通线
100
AcDbVertex
100
AcDb2dVertex
 10
281.4211955360208
 20
149.1124398069852
 30
0.0
  0
VERTEX
  5
1FB
330
93
100
AcDbEntity
  8
Make2D$可见线$普通线
100
AcDbVertex
100
AcDb2dVertex
 10
281.3294401271087
 20
149.1960037754659
 30
0.0
  0
VERTEX
  5
1FC
330
93
100
AcDbEntity
  8
Make2D$可见线$普通线
100
AcDbVertex
100
AcDb2dVertex
 10
281.2244785356032
 20
149.1992095116779
 30
0.0
  0
VERTEX
  5
1FD
330
93
100
AcDbEntity
  8
Make2D$可见线$普通线
100
AcDbVertex
100
AcDb2dVertex
 10
281.204815721151
 20
149.0874984651044
 30
0.0
  0
VERTEX
  5
1FE
330
93
100
AcDbEntity
  8
Make2D$可见线$普通线
100
AcDbVertex
100
AcDb2dVertex
 10
281.285499574046
 20
148.8492572325637
 30
0.0
  0
VERTEX
  5
1FF
330
93
100
AcDbEntity
  8
Make2D$可见线$普通线
100
AcDbVertex
100
AcDb2dVertex
 10
281.3238335813097
 20
148.7762852613539
 30
0.0
  0
VERTEX
  5
200
330
93
100
AcDbEntity
  8
Make2D$可见线$普通线
100
AcDbVertex
100
AcDb2dVertex
 10
281.4113208120247
 20
148.6795103383446
 30
0.0
  0
VERTEX
  5
201
330
93
100
AcDbEntity
  8
Make2D$可见线$普通线
100
AcDbVertex
100
AcDb2dVertex
 10
282.0066819155882
 20
147.5379220313794
 30
0.0
 42
-0.014701059408559
  0
VERTEX
  5
202
330
93
100
AcDbEntity
  8
Make2D$可见线$普通线
100
AcDbVertex
100
AcDb2dVertex
 10
282.794667118592
 20
145.2233356985378
 30
0.0
  0
VERTEX
  5
203
330
93
100
AcDbEntity
  8
Make2D$可见线$普通线
100
AcDbVertex
100
AcDb2dVertex
 10
282.9206268999925
 20
144.5304987186482
 30
0.0
  0
VERTEX
  5
204
330
93
100
AcDbEntity
  8
Make2D$可见线$普通线
100
AcDbVertex
100
AcDb2dVertex
 10
283.0007440368868
 20
143.6840076593821
 30
0.0
  0
VERTEX
  5
205
330
93
100
AcDbEntity
  8
Make2D$可见线$普通线
100
AcDbVertex
100
AcDb2dVertex
 10
283.0060018628774
 20
143.2372486846823
 30
0.0
  0
VERTEX
  5
206
330
93
100
AcDbEntity
  8
Make2D$可见线$普通线
100
AcDbVertex
100
AcDb2dVertex
 10
282.9152472258083
 20
142.9735995250479
 30
0.0
  0
VERTEX
  5
207
330
93
100
AcDbEntity
  8
Make2D$可见线$普通线
100
AcDbVertex
100
AcDb2dVertex
 10
282.7186334404269
 20
142.7791628881872
 30
0.0
  0
VERTEX
  5
208
330
93
100
AcDbEntity
  8
Make2D$可见线$普通线
100
AcDbVertex
100
AcDb2dVertex
 10
282.6050696245685
 20
142.7400612509075
 30
0.0
  0
VERTEX
  5
209
330
93
100
AcDbEntity
  8
Make2D$可见线$普通线
100
AcDbVertex
100
AcDb2dVertex
 10
282.4265612063023
 20
142.8016333247251
 30
0.0
  0
VERTEX
  5
20A
330
93
100
AcDbEntity
  8
Make2D$可见线$普通线
100
AcDbVertex
100
AcDb2dVertex
 10
282.2595437872559
 20
142.9504107953809
 30
0.0
  0
VERTEX
  5
20B
330
93
100
AcDbEntity
  8
Make2D$可见线$普通线
100
AcDbVertex
100
AcDb2dVertex
 10
281.961139559761
 20
143.4101862080132
 30
0.0
  0
VERTEX
  5
20C
330
93
100
AcDbEntity
  8
Make2D$可见线$普通线
100
AcDbVertex
100
AcDb2dVertex
 10
281.7632606257124
 20
143.851373645559
 30
0.0
  0
VERTEX
  5
20D
330
93
100
AcDbEntity
  8
Make2D$可见线$普通线
100
AcDbVertex
100
AcDb2dVertex
 10
281.6630472418162
 20
144.03150409589
 30
0.0
  0
VERTEX
  5
20E
330
93
100
AcDbEntity
  8
Make2D$可见线$普通线
100
AcDbVertex
100
AcDb2dVertex
 10
281.5056468206865
 20
144.5845066733066
 30
0.0
  0
VERTEX
  5
20F
330
93
100
AcDbEntity
  8
Make2D$可见线$普通线
100
AcDbVertex
100
AcDb2dVertex
 10
281.370633329494
 20
144.8675488341919
 30
0.0
  0
VERTEX
  5
210
330
93
100
AcDbEntity
  8
Make2D$可见线$普通线
100
AcDbVertex
100
AcDb2dVertex
 10
281.2269140568839
 20
144.9051553822603
 30
0.0
  0
VERTEX
  5
211
330
93
100
AcDbEntity
  8
Make2D$可见线$普通线
100
AcDbVertex
100
AcDb2dVertex
 10
280.7345667926227
 20
145.0056734702723
 30
0.0
  0
VERTEX
  5
212
330
93
100
AcDbEntity
  8
Make2D$可见线$普通线
100
AcDbVertex
100
AcDb2dVertex
 10
279.9226631307953
 20
145.4193975091774
 30
0.0
  0
VERTEX
  5
213
330
93
100
AcDbEntity
  8
Make2D$可见线$普通线
100
AcDbVertex
100
AcDb2dVertex
 10
279.0552315227411
 20
145.9697118574456
 30
0.0
  0
VERTEX
  5
214
330
93
100
AcDbEntity
  8
Make2D$可见线$普通线
100
AcDbVertex
100
AcDb2dVertex
 10
278.5116053234636
 20
146.340263697667
 30
0.0
  0
VERTEX
  5
215
330
93
100
AcDbEntity
  8
Make2D$可见线$普通线
100
AcDbVertex
100
AcDb2dVertex
 10
278.3552205819695
 20
146.5181149763399
 30
0.0
  0
VERTEX
  5
216
330
93
100
AcDbEntity
  8
Make2D$可见线$普通线
100
AcDbVertex
100
AcDb2dVertex
 10
278.3591427857907
 20
146.651962886594
 30
0.0
  0
VERTEX
  5
217
330
93
100
AcDbEntity
  8
Make2D$可见线$普通线
100
AcDbVertex
100
AcDb2dVertex
 10
278.4825560093101
 20
146.6934509677884
 30
0.0
  0
VERTEX
  5
218
330
93
100
AcDbEntity
  8
Make2D$可见线$普通线
100
AcDbVertex
100
AcDb2dVertex
 10
278.638585889061
 20
146.6245594091021
 30
0.0
  0
VERTEX
  5
219
330
93
100
AcDbEntity
  8
Make2D$可见线$普通线
100
AcDbVertex
100
AcDb2dVertex
 10
278.8206274990413
 20
146.4553289104342
 30
0.0
  0
VERTEX
  5
21A
330
93
100
AcDbEntity
  8
Make2D$可见线$普通线
100
AcDbVertex
100
AcDb2dVertex
 10
279.0137657090416
 20
146.2965532252506
 30
0.0
  0
VERTEX
  5
21B
330
93
100
AcDbEntity
  8
Make2D$可见线$普通线
100
AcDbVertex
100
AcDb2dVertex
 10
279.200994509004
 20
146.2038023473234
 30
0.0
  0
VERTEX
  5
21C
330
93
100
AcDbEntity
  8
Make2D$可见线$普通线
100
AcDbVertex
100
AcDb2dVertex
 10
279.3952993660406
 20
146.0311994013683
 30
0.0
  0
VERTEX
  5
21D
330
93
100
AcDbEntity
  8
Make2D$可见线$普通线
100
AcDbVertex
100
AcDb2dVertex
 10
279.8577385752243
 20
145.775419242176
 30
0.0
  0
VERTEX
  5
21E
330
93
100
AcDbEntity
  8
Make2D$可见线$普通线
100
AcDbVertex
100
AcDb2dVertex
 10
280.0308146325493
 20
145.6893356751143
 30
0.0
  0
VERTEX
  5
21F
330
93
100
AcDbEntity
  8
Make2D$可见线$普通线
100
AcDbVertex
100
AcDb2dVertex
 10
280.3318254837448
 20
145.5106063364047
 30
0.0
  0
VERTEX
  5
220
330
93
100
AcDbEntity
  8
Make2D$可见线$普通线
100
AcDbVertex
100
AcDb2dVertex
 10
280.5976089863559
 20
145.376589975574
 30
0.0
  0
VERTEX
  5
221
330
93
100
AcDbEntity
  8
Make2D$可见线$普通线
100
AcDbVertex
100
AcDb2dVertex
 10
280.755148632835
 20
145.28030026545
 30
0.0
  0
VERTEX
  5
222
330
93
100
AcDbEntity
  8
Make2D$可见线$普通线
100
AcDbVertex
100
AcDb2dVertex
 10
280.9157423283962
 20
145.231405585887
 30
0.0
  0
VERTEX
  5
223
330
93
100
AcDbEntity
  8
Make2D$可见线$普通线
100
AcDbVertex
100
AcDb2dVertex
 10
281.0341232708543
 20
145.1572155108216
 30
0.0
  0
VERTEX
  5
224
330
93
100
AcDbEntity
  8
Make2D$可见线$普通线
100
AcDbVertex
100
AcDb2dVertex
 10
281.2082731978603
 20
145.1450331642609
 30
0.0
  0
VERTEX
  5
225
330
93
100
AcDbEntity
  8
Make2D$可见线$普通线
100
AcDbVertex
100
AcDb2dVertex
 10
281.2918280932095
 20
145.1664442329081
 30
0.0
  0
VERTEX
  5
226
330
93
100
AcDbEntity
  8
Make2D$可见线$普通线
100
AcDbVertex
100
AcDb2dVertex
 10
281.3130435775533
 20
145.2797663408898
 30
0.0
  0
VERTEX
  5
227
330
93
100
AcDbEntity
  8
Make2D$可见线$普通线
100
AcDbVertex
100
AcDb2dVertex
 10
281.2657592319911
 20
145.5876759878507
 30
0.0
  0
VERTEX
  5
228
330
93
100
AcDbEntity
  8
Make2D$可见线$普通线
100
AcDbVertex
100
AcDb2dVertex
 10
281.2074614899061
 20
145.7200602168979
 30
0.0
  0
VERTEX
  5
229
330
93
100
AcDbEntity
  8
Make2D$可见线$普通线
100
AcDbVertex
100
AcDb2dVertex
 10
281.180904798728
 20
145.979807408844
 30
0.0
  0
VERTEX
  5
22A
330
93
100
AcDbEntity
  8
Make2D$可见线$普通线
100
AcDbVertex
100
AcDb2dVertex
 10
281.1344959808255
 20
146.1574044726653
 30
0.0
 42
-0.0144205334514059
  0
VERTEX
  5
22B
330
93
100
AcDbEntity
  8
Make2D$可见线$普通线
100
AcDbVertex
100
AcDb2dVertex
 10
281.1067001718416
 20
148.3466835014492
 30
0.0
  0
VERTEX
  5
22C
330
93
100
AcDbEntity
  8
Make2D$可见线$普通线
100
AcDbVertex
100
AcDb2dVertex
 10
281.0414737128904
 20
148.7047003551695
 30
0.0
  0
VERTEX
  5
22D
330
93
100
AcDbEntity
  8
Make2D$可见线$普通线
100
AcDbVertex
100
AcDb2dVertex
 10
280.9485340254502
 20
148.969368289216
 30
0.0
  0
VERTEX
  5
22E
330
93
100
AcDbEntity
  8
Make2D$可见线$普通线
100
AcDbVertex
100
AcDb2dVertex
 10
280.8044226009984
 20
149.182485756585
 30
0.0
  0
VERTEX
  5
22F
330
93
100
AcDbEntity
  8
Make2D$可见线$普通线
100
AcDbVertex
100
AcDb2dVertex
 10
280.4231339836932
 20
149.5015090491405
 30
0.0
  0
VERTEX
  5
230
330
93
100
AcDbEntity
  8
Make2D$可见线$普通线
100
AcDbVertex
100
AcDb2dVertex
 10
279.9524463804579
 20
149.7380205646086
 30
0.0
  0
VERTEX
  5
231
330
93
100
AcDbEntity
  8
Make2D$可见线$普通线
100
AcDbVertex
100
AcDb2dVertex
 10
279.0612224274544
 20
149.7393339975897
 30
0.0
  0
VERTEX
  5
232
330
93
100
AcDbEntity
  8
Make2D$可见线$普通线
100
AcDbVertex
100
AcDb2dVertex
 10
278.5564780721276
 20
149.5090268344264
 30
0.0
  0
VERTEX
  5
233
330
93
100
AcDbEntity
  8
Make2D$可见线$普通线
100
AcDbVertex
100
AcDb2dVertex
 10
277.8959642182302
 20
149.0001850376631
 30
0.0
  0
VERTEX
  5
234
330
93
100
AcDbEntity
  8
Make2D$可见线$普通线
100
AcDbVertex
100
AcDb2dVertex
 10
277.4161497447816
 20
148.3948593127971
 30
0.0
  0
VERTEX
  5
235
330
93
100
AcDbEntity
  8
Make2D$可见线$普通线
100
AcDbVertex
100
AcDb2dVertex
 10
277.1285564828797
 20
147.5488694431248
 30
0.0
  0
VERTEX
  5
236
330
93
100
AcDbEntity
  8
Make2D$可见线$普通线
100
AcDbVertex
100
AcDb2dVertex
 10
277.0311504708623
 20
146.8268670335759
 30
0.0
  0
VERTEX
  5
237
330
93
100
AcDbEntity
  8
Make2D$可见线$普通线
100
AcDbVertex
100
AcDb2dVertex
 10
277.101870172098
 20
145.6550967610826
 30
0.0
  0
VERTEX
  5
238
330
93
100
AcDbEntity
  8
Make2D$可见线$普通线
100
AcDbVertex
100
AcDb2dVertex
 10
277.2552077989103
 20
144.6412233521849
 30
0.0
  0
VERTEX
  5
239
330
93
100
AcDbEntity
  8
Make2D$可见线$普通线
100
AcDbVertex
100
AcDb2dVertex
 10
277.4717069116684
 20
144.0270347458406
 30
0.0
  0
VERTEX
  5
23A
330
93
100
AcDbEntity
  8
Make2D$可见线$普通线
100
AcDbVertex
100
AcDb2dVertex
 10
277.6144056025217
 20
143.8572580210463
 30
0.0
  0
VERTEX
  5
23B
330
93
100
AcDbEntity
  8
Make2D$可见线$普通线
100
AcDbVertex
100
AcDb2dVertex
 10
277.7196144657488
 20
143.8467373854112
 30
0.0
  0
SEQEND
  5
23C
330
93
100
AcDbEntity
  8
Make2D$可见线$普通线
  0
POLYLINE
  5
23D
330
1F
100
AcDbEntity
  8
Make2D$可见线$普通线
100
AcDb2dPolyline
 66
     1
 10
0.0
 20
0.0
 30
0.0
  0
VERTEX
  5
23E
330
23D
100
AcDbEntity
  8
Make2D$可见线$普通线
100
AcDbVertex
100
AcDb2dVertex
 10
284.6234699422685
 20
143.5347300404383
 30
0.0
  0
VERTEX
  5
23F
330
23D
100
AcDbEntity
  8
Make2D$可见线$普通线
100
AcDbVertex
100
AcDb2dVertex
 10
284.9058946041048
 20
143.4094510609958
 30
0.0
  0
VERTEX
  5
240
330
23D
100
AcDbEntity
  8
Make2D$可见线$普通线
100
AcDbVertex
100
AcDb2dVertex
 10
284.9060716438007
 20
143.2563921319069
 30
0.0
  0
VERTEX
  5
241
330
23D
100
AcDbEntity
  8
Make2D$可见线$普通线
100
AcDbVertex
100
AcDb2dVertex
 10
283.7967723424609
 20
143.7871660055719
 30
0.0
  0
VERTEX
  5
242
330
23D
100
AcDbEntity
  8
Make2D$可见线$普通线
100
AcDbVertex
100
AcDb2dVertex
 10
283.7967791953218
 20
143.8272250270351
 30
0.0
  0
VERTEX
  5
243
330
23D
100
AcDbEntity
  8
Make2D$可见线$普通线
100
AcDbVertex
100
AcDb2dVertex
 10
284.9047818111218
 20
144.371511582809
 30
0.0
  0
VERTEX
  5
244
330
23D
100
AcDbEntity
  8
Make2D$可见线$普通线
100
AcDbVertex
100
AcDb2dVertex
 10
284.9049636212527
 20
144.2143283939529
 30
0.0
  0
VERTEX
  5
245
330
23D
100
AcDbEntity
  8
Make2D$可见线$普通线
100
AcDbVertex
100
AcDb2dVertex
 10
284.6230262115038
 20
144.0767080611627
 30
0.0
  0
VERTEX
  5
246
330
23D
100
AcDbEntity
  8
Make2D$可见线$普通线
100
AcDbVertex
100
AcDb2dVertex
 10
284.6234699422685
 20
143.5347300404383
 30
0.0
  0
SEQEND
  5
247
330
23D
100
AcDbEntity
  8
Make2D$可见线$普通线
  0
POLYLINE
  5
248
330
1F
100
AcDbEntity
  8
Make2D$可见线$普通线
100
AcDb2dPolyline
 66
     1
 10
0.0
 20
0.0
 30
0.0
  0
VERTEX
  5
249
330
248
100
AcDbEntity
  8
Make2D$可见线$普通线
100
AcDbVertex
100
AcDb2dVertex
 10
288.2143295250639
 20
130.1713118834579
 30
0.0
  0
VERTEX
  5
24A
330
248
100
AcDbEntity
  8
Make2D$可见线$普通线
100
AcDbVertex
100
AcDb2dVertex
 10
288.2467418825456
 20
130.1112102692259
 30
0.0
  0
VERTEX
  5
24B
330
248
100
AcDbEntity
  8
Make2D$可见线$普通线
100
AcDbVertex
100
AcDb2dVertex
 10
288.2420985489334
 20
129.9411467287763
 30
0.0
  0
VERTEX
  5
24C
330
248
100
AcDbEntity
  8
Make2D$可见线$普通线
100
AcDbVertex
100
AcDb2dVertex
 10
288.2052543580453
 20
129.8667938742221
 30
0.0
  0
VERTEX
  5
24D
330
248
100
AcDbEntity
  8
Make2D$可见线$普通线
100
AcDbVertex
100
AcDb2dVertex
 10
288.1149972901245
 20
129.7999989693512
 30
0.0
  0
VERTEX
  5
24E
330
248
100
AcDbEntity
  8
Make2D$可见线$普通线
100
AcDbVertex
100
AcDb2dVertex
 10
287.9504813407259
 20
129.7731939425838
 30
0.0
  0
VERTEX
  5
24F
330
248
100
AcDbEntity
  8
Make2D$可见线$普通线
100
AcDbVertex
100
AcDb2dVertex
 10
287.3719319297753
 20
129.9221408216403
 30
0.0
  0
VERTEX
  5
250
330
248
100
AcDbEntity
  8
Make2D$可见线$普通线
100
AcDbVertex
100
AcDb2dVertex
 10
287.1789077559497
 20
130.0238901766818
 30
0.0
  0
VERTEX
  5
251
330
248
100
AcDbEntity
  8
Make2D$可见线$普通线
100
AcDbVertex
100
AcDb2dVertex
 10
287.0867501094003
 20
130.025654402306
 30
0.0
  0
VERTEX
  5
252
330
248
100
AcDbEntity
  8
Make2D$可见线$普通线
100
AcDbVertex
100
AcDb2dVertex
 10
286.3171490244644
 20
130.4790607976424
 30
0.0
  0
VERTEX
  5
253
330
248
100
AcDbEntity
  8
Make2D$可见线$普通线
100
AcDbVertex
100
AcDb2dVertex
 10
286.1958848688191
 20
130.5161508725951
 30
0.0
  0
VERTEX
  5
254
330
248
100
AcDbEntity
  8
Make2D$可见线$普通线
100
AcDbVertex
100
AcDb2dVertex
 10
285.8965226235516
 20
130.7886675285922
 30
0.0
  0
VERTEX
  5
255
330
248
100
AcDbEntity
  8
Make2D$可见线$普通线
100
AcDbVertex
100
AcDb2dVertex
 10
285.4290280448569
 20
131.1697645279298
 30
0.0
  0
VERTEX
  5
256
330
248
100
AcDbEntity
  8
Make2D$可见线$普通线
100
AcDbVertex
100
AcDb2dVertex
 10
284.4379497476497
 20
132.3532156845447
 30
0.0
  0
VERTEX
  5
257
330
248
100
AcDbEntity
  8
Make2D$可见线$普通线
100
AcDbVertex
100
AcDb2dVertex
 10
283.7826857701232
 20
133.4087953074543
 30
0.0
  0
VERTEX
  5
258
330
248
100
AcDbEntity
  8
Make2D$可见线$普通线
100
AcDbVertex
100
AcDb2dVertex
 10
282.2642660713766
 20
134.2971090156437
 30
0.0
  0
VERTEX
  5
259
330
248
100
AcDbEntity
  8
Make2D$可见线$普通线
100
AcDbVertex
100
AcDb2dVertex
 10
282.1220925504629
 20
134.4467030611607
 30
0.0
  0
VERTEX
  5
25A
330
248
100
AcDbEntity
  8
Make2D$可见线$普通线
100
AcDbVertex
100
AcDb2dVertex
 10
281.7038121926879
 20
134.7162895929243
 30
0.0
  0
VERTEX
  5
25B
330
248
100
AcDbEntity
  8
Make2D$可见线$普通线
100
AcDbVertex
100
AcDb2dVertex
 10
281.3748622086943
 20
134.877521782459
 30
0.0
  0
VERTEX
  5
25C
330
248
100
AcDbEntity
  8
Make2D$可见线$普通线
100
AcDbVertex
100
AcDb2dVertex
 10
281.1365742749946
 20
135.0675361940885
 30
0.0
  0
VERTEX
  5
25D
330
248
100
AcDbEntity
  8
Make2D$可见线$普通线
100
AcDbVertex
100
AcDb2dVertex
 10
280.9487517691651
 20
135.1591630629083
 30
0.0
  0
VERTEX
  5
25E
330
248
100
AcDbEntity
  8
Make2D$可见线$普通线
100
AcDbVertex
100
AcDb2dVertex
 10
280.5375752434603
 20
135.4588532958832
 30
0.0
  0
VERTEX
  5
25F
330
248
100
AcDbEntity
  8
Make2D$可见线$普通线
100
AcDbVertex
100
AcDb2dVertex
 10
280.3244467272422
 20
135.5521623790777
 30
0.0
  0
VERTEX
  5
260
330
248
100
AcDbEntity
  8
Make2D$可见线$普通线
100
AcDbVertex
100
AcDb2dVertex
 10
279.4918045732227
 20
136.0872278152187
 30
0.0
  0
VERTEX
  5
261
330
248
100
AcDbEntity
  8
Make2D$可见线$普通线
100
AcDbVertex
100
AcDb2dVertex
 10
279.3669623852745
 20
136.1205741119543
 30
0.0
  0
VERTEX
  5
262
330
248
100
AcDbEntity
  8
Make2D$可见线$普通线
100
AcDbVertex
100
AcDb2dVertex
 10
279.1861115299698
 20
136.2917174583099
 30
0.0
  0
VERTEX
  5
263
330
248
100
AcDbEntity
  8
Make2D$可见线$普通线
100
AcDbVertex
100
AcDb2dVertex
 10
278.8462092783142
 20
136.4671857896527
 30
0.0
  0
VERTEX
  5
264
330
248
100
AcDbEntity
  8
Make2D$可见线$普通线
100
AcDbVertex
100
AcDb2dVertex
 10
278.7134744344868
 20
136.5646323314495
 30
0.0
  0
VERTEX
  5
265
330
248
100
AcDbEntity
  8
Make2D$可见线$普通线
100
AcDbVertex
100
AcDb2dVertex
 10
278.4295074129715
 20
136.726191226618
 30
0.0
  0
VERTEX
  5
266
330
248
100
AcDbEntity
  8
Make2D$可见线$普通线
100
AcDbVertex
100
AcDb2dVertex
 10
278.2397938541648
 20
136.8605915603697
 30
0.0
  0
VERTEX
  5
267
330
248
100
AcDbEntity
  8
Make2D$可见线$普通线
100
AcDbVertex
100
AcDb2dVertex
 10
277.9606262485823
 20
136.9573438723114
 30
0.0
  0
VERTEX
  5
268
330
248
100
AcDbEntity
  8
Make2D$可见线$普通线
100
AcDbVertex
100
AcDb2dVertex
 10
277.8030677712608
 20
137.042868196187
 30
0.0
  0
VERTEX
  5
269
330
248
100
AcDbEntity
  8
Make2D$可见线$普通线
100
AcDbVertex
100
AcDb2dVertex
 10
277.654111624539
 20
137.0824789879498
 30
0.0
  0
VERTEX
  5
26A
330
248
100
AcDbEntity
  8
Make2D$可见线$普通线
100
AcDbVertex
100
AcDb2dVertex
 10
277.5118229904936
 20
137.158706281082
 30
0.0
  0
VERTEX
  5
26B
330
248
100
AcDbEntity
  8
Make2D$可见线$普通线
100
AcDbVertex
100
AcDb2dVertex
 10
277.4351994489248
 20
137.1706580580569
 30
0.0
  0
VERTEX
  5
26C
330
248
100
AcDbEntity
  8
Make2D$可见线$普通线
100
AcDbVertex
100
AcDb2dVertex
 10
277.3155291049978
 20
137.2125427169598
 30
0.0
  0
VERTEX
  5
26D
330
248
100
AcDbEntity
  8
Make2D$可见线$普通线
100
AcDbVertex
100
AcDb2dVertex
 10
276.9936341910011
 20
137.1998391585166
 30
0.0
  0
VERTEX
  5
26E
330
248
100
AcDbEntity
  8
Make2D$可见线$普通线
100
AcDbVertex
100
AcDb2dVertex
 10
276.9220763036251
 20
137.1235124304297
 30
0.0
  0
VERTEX
  5
26F
330
248
100
AcDbEntity
  8
Make2D$可见线$普通线
100
AcDbVertex
100
AcDb2dVertex
 10
276.9157564952649
 20
137.0046336968384
 30
0.0
  0
VERTEX
  5
270
330
248
100
AcDbEntity
  8
Make2D$可见线$普通线
100
AcDbVertex
100
AcDb2dVertex
 10
277.0493318522166
 20
136.7350086065712
 30
0.0
  0
VERTEX
  5
271
330
248
100
AcDbEntity
  8
Make2D$可见线$普通线
100
AcDbVertex
100
AcDb2dVertex
 10
277.1562049267148
 20
136.5872212055161
 30
0.0
  0
VERTEX
  5
272
330
248
100
AcDbEntity
  8
Make2D$可见线$普通线
100
AcDbVertex
100
AcDb2dVertex
 10
277.2575640127098
 20
136.4271319716086
 30
0.0
  0
VERTEX
  5
273
330
248
100
AcDbEntity
  8
Make2D$可见线$普通线
100
AcDbVertex
100
AcDb2dVertex
 10
277.4078759659545
 20
136.222770161805
 30
0.0
 42
-0.0091604693026188
  0
VERTEX
  5
274
330
248
100
AcDbEntity
  8
Make2D$可见线$普通线
100
AcDbVertex
100
AcDb2dVertex
 10
278.9587301777002
 20
134.470561331007
 30
0.0
 42
0.0133038887993024
  0
VERTEX
  5
275
330
248
100
AcDbEntity
  8
Make2D$可见线$普通线
100
AcDbVertex
100
AcDb2dVertex
 10
280.5299071214954
 20
132.8793956475042
 30
0.0
  0
VERTEX
  5
276
330
248
100
AcDbEntity
  8
Make2D$可见线$普通线
100
AcDbVertex
100
AcDb2dVertex
 10
280.7773967795885
 20
132.610955048116
 30
0.0
  0
VERTEX
  5
277
330
248
100
AcDbEntity
  8
Make2D$可见线$普通线
100
AcDbVertex
100
AcDb2dVertex
 10
280.911731763711
 20
132.4258108204024
 30
0.0
  0
VERTEX
  5
278
330
248
100
AcDbEntity
  8
Make2D$可见线$普通线
100
AcDbVertex
100
AcDb2dVertex
 10
281.0679551459198
 20
132.2724999871788
 30
0.0
  0
VERTEX
  5
279
330
248
100
AcDbEntity
  8
Make2D$可见线$普通线
100
AcDbVertex
100
AcDb2dVertex
 10
281.2642958684904
 20
132.0219186780054
 30
0.0
  0
VERTEX
  5
27A
330
248
100
AcDbEntity
  8
Make2D$可见线$普通线
100
AcDbVertex
100
AcDb2dVertex
 10
281.6203301755455
 20
131.6674145110718
 30
0.0
  0
VERTEX
  5
27B
330
248
100
AcDbEntity
  8
Make2D$可见线$普通线
100
AcDbVertex
100
AcDb2dVertex
 10
282.6762591068524
 20
130.7415186315097
 30
0.0
  0
VERTEX
  5
27C
330
248
100
AcDbEntity
  8
Make2D$可见线$普通线
100
AcDbVertex
100
AcDb2dVertex
 10
282.8819345984415
 20
130.6725337271456
 30
0.0
  0
VERTEX
  5
27D
330
248
100
AcDbEntity
  8
Make2D$可见线$普通线
100
AcDbVertex
100
AcDb2dVertex
 10
283.114281851888
 20
130.6511791380537
 30
0.0
  0
VERTEX
  5
27E
330
248
100
AcDbEntity
  8
Make2D$可见线$普通线
100
AcDbVertex
100
AcDb2dVertex
 10
283.2521572446228
 20
130.4774151753152
 30
0.0
  0
VERTEX
  5
27F
330
248
100
AcDbEntity
  8
Make2D$可见线$普通线
100
AcDbVertex
100
AcDb2dVertex
 10
283.2601314671153
 20
130.3261849542459
 30
0.0
  0
VERTEX
  5
280
330
248
100
AcDbEntity
  8
Make2D$可见线$普通线
100
AcDbVertex
100
AcDb2dVertex
 10
283.1884697959805
 20
130.1996597422035
 30
0.0
  0
VERTEX
  5
281
330
248
100
AcDbEntity
  8
Make2D$可见线$普通线
100
AcDbVertex
100
AcDb2dVertex
 10
283.0789776058816
 20
130.1496996790311
 30
0.0
  0
VERTEX
  5
282
330
248
100
AcDbEntity
  8
Make2D$可见线$普通线
100
AcDbVertex
100
AcDb2dVertex
 10
282.9813410287115
 20
130.1416762100814
 30
0.0
  0
VERTEX
  5
283
330
248
100
AcDbEntity
  8
Make2D$可见线$普通线
100
AcDbVertex
100
AcDb2dVertex
 10
282.4360578059509
 20
130.5166901150384
 30
0.0
  0
VERTEX
  5
284
330
248
100
AcDbEntity
  8
Make2D$可见线$普通线
100
AcDbVertex
100
AcDb2dVertex
 10
282.2501023148731
 20
130.7306301865785
 30
0.0
  0
VERTEX
  5
285
330
248
100
AcDbEntity
  8
Make2D$可见线$普通线
100
AcDbVertex
100
AcDb2dVertex
 10
282.1311543649977
 20
130.7941205646159
 30
0.0
  0
VERTEX
  5
286
330
248
100
AcDbEntity
  8
Make2D$可见线$普通线
100
AcDbVertex
100
AcDb2dVertex
 10
282.0122441196332
 20
130.9374826276056
 30
0.0
  0
VERTEX
  5
287
330
248
100
AcDbEntity
  8
Make2D$可见线$普通线
100
AcDbVertex
100
AcDb2dVertex
 10
281.8318895907423
 20
131.097146239189
 30
0.0
  0
VERTEX
  5
288
330
248
100
AcDbEntity
  8
Make2D$可见线$普通线
100
AcDbVertex
100
AcDb2dVertex
 10
281.6256270412981
 20
131.3663057236919
 30
0.0
  0
VERTEX
  5
289
330
248
100
AcDbEntity
  8
Make2D$可见线$普通线
100
AcDbVertex
100
AcDb2dVertex
 10
281.4317502751153
 20
131.5604232898265
 30
0.0
  0
VERTEX
  5
28A
330
248
100
AcDbEntity
  8
Make2D$可见线$普通线
100
AcDbVertex
100
AcDb2dVertex
 10
280.909574630921
 20
132.141600599184
 30
0.0
  0
VERTEX
  5
28B
330
248
100
AcDbEntity
  8
Make2D$可见线$普通线
100
AcDbVertex
100
AcDb2dVertex
 10
280.7126661159247
 20
132.4260943967876
 30
0.0
  0
VERTEX
  5
28C
330
248
100
AcDbEntity
  8
Make2D$可见线$普通线
100
AcDbVertex
100
AcDb2dVertex
 10
279.9718265956457
 20
133.1548736450742
 30
0.0
  0
VERTEX
  5
28D
330
248
100
AcDbEntity
  8
Make2D$可见线$普通线
100
AcDbVertex
100
AcDb2dVertex
 10
279.7473360644067
 20
133.4240783760961
 30
0.0
  0
VERTEX
  5
28E
330
248
100
AcDbEntity
  8
Make2D$可见线$普通线
100
AcDbVertex
100
AcDb2dVertex
 10
279.6984470315509
 20
133.5053537963934
 30
0.0
  0
VERTEX
  5
28F
330
248
100
AcDbEntity
  8
Make2D$可见线$普通线
100
AcDbVertex
100
AcDb2dVertex
 10
279.4094232873634
 20
133.7376291658619
 30
0.0
  0
VERTEX
  5
290
330
248
100
AcDbEntity
  8
Make2D$可见线$普通线
100
AcDbVertex
100
AcDb2dVertex
 10
279.1840304878762
 20
134.0652535594444
 30
0.0
  0
VERTEX
  5
291
330
248
100
AcDbEntity
  8
Make2D$可见线$普通线
100
AcDbVertex
100
AcDb2dVertex
 10
279.0654627536993
 20
134.1442511551506
 30
0.0
  0
VERTEX
  5
292
330
248
100
AcDbEntity
  8
Make2D$可见线$普通线
100
AcDbVertex
100
AcDb2dVertex
 10
278.8370273910751
 20
134.4241753354057
 30
0.0
  0
VERTEX
  5
293
330
248
100
AcDbEntity
  8
Make2D$可见线$普通线
100
AcDbVertex
100
AcDb2dVertex
 10
278.6508540518822
 20
134.6285962837426
 30
0.0
  0
VERTEX
  5
294
330
248
100
AcDbEntity
  8
Make2D$可见线$普通线
100
AcDbVertex
100
AcDb2dVertex
 10
278.5253237482735
 20
134.7206639190254
 30
0.0
  0
VERTEX
  5
295
330
248
100
AcDbEntity
  8
Make2D$可见线$普通线
100
AcDbVertex
100
AcDb2dVertex
 10
278.3662465189427
 20
134.94727439229
 30
0.0
  0
VERTEX
  5
296
330
248
100
AcDbEntity
  8
Make2D$可见线$普通线
100
AcDbVertex
100
AcDb2dVertex
 10
278.1671668449851
 20
135.1204348252968
 30
0.0
  0
VERTEX
  5
297
330
248
100
AcDbEntity
  8
Make2D$可见线$普通线
100
AcDbVertex
100
AcDb2dVertex
 10
278.0184624217223
 20
135.3071667424721
 30
0.0
  0
VERTEX
  5
298
330
248
100
AcDbEntity
  8
Make2D$可见线$普通线
100
AcDbVertex
100
AcDb2dVertex
 10
277.8667179907408
 20
135.4291913165123
 30
0.0
  0
VERTEX
  5
299
330
248
100
AcDbEntity
  8
Make2D$可见线$普通线
100
AcDbVertex
100
AcDb2dVertex
 10
277.2738192776676
 20
136.159575780341
 30
0.0
  0
VERTEX
  5
29A
330
248
100
AcDbEntity
  8
Make2D$可见线$普通线
100
AcDbVertex
100
AcDb2dVertex
 10
277.1649475118187
 20
136.3379395208577
 30
0.0
  0
VERTEX
  5
29B
330
248
100
AcDbEntity
  8
Make2D$可见线$普通线
100
AcDbVertex
100
AcDb2dVertex
 10
276.9159587771903
 20
136.5974963973573
 30
0.0
  0
VERTEX
  5
29C
330
248
100
AcDbEntity
  8
Make2D$可见线$普通线
100
AcDbVertex
100
AcDb2dVertex
 10
276.7782421422128
 20
136.8136981728114
 30
0.0
  0
VERTEX
  5
29D
330
248
100
AcDbEntity
  8
Make2D$可见线$普通线
100
AcDbVertex
100
AcDb2dVertex
 10
276.748484629092
 20
136.9135693945552
 30
0.0
  0
VERTEX
  5
29E
330
248
100
AcDbEntity
  8
Make2D$可见线$普通线
100
AcDbVertex
100
AcDb2dVertex
 10
276.7028742387105
 20
136.9984208918992
 30
0.0
  0
VERTEX
  5
29F
330
248
100
AcDbEntity
  8
Make2D$可见线$普通线
100
AcDbVertex
100
AcDb2dVertex
 10
276.6828607238273
 20
137.1237653899045
 30
0.0
  0
VERTEX
  5
2A0
330
248
100
AcDbEntity
  8
Make2D$可见线$普通线
100
AcDbVertex
100
AcDb2dVertex
 10
276.6917523239753
 20
137.295565173646
 30
0.0
  0
VERTEX
  5
2A1
330
248
100
AcDbEntity
  8
Make2D$可见线$普通线
100
AcDbVertex
100
AcDb2dVertex
 10
276.7628672683506
 20
137.4197149816748
 30
0.0
  0
VERTEX
  5
2A2
330
248
100
AcDbEntity
  8
Make2D$可见线$普通线
100
AcDbVertex
100
AcDb2dVertex
 10
276.8783212349442
 20
137.4810680224011
 30
0.0
  0
VERTEX
  5
2A3
330
248
100
AcDbEntity
  8
Make2D$可见线$普通线
100
AcDbVertex
100
AcDb2dVertex
 10
277.1225231943472
 20
137.4856512229891
 30
0.0
  0
VERTEX
  5
2A4
330
248
100
AcDbEntity
  8
Make2D$可见线$普通线
100
AcDbVertex
100
AcDb2dVertex
 10
277.2485376300472
 20
137.4375900251864
 30
0.0
  0
VERTEX
  5
2A5
330
248
100
AcDbEntity
  8
Make2D$可见线$普通线
100
AcDbVertex
100
AcDb2dVertex
 10
277.4274513340774
 20
137.4244469362789
 30
0.0
  0
VERTEX
  5
2A6
330
248
100
AcDbEntity
  8
Make2D$可见线$普通线
100
AcDbVertex
100
AcDb2dVertex
 10
277.7820275793069
 20
137.311032626427
 30
0.0
  0
VERTEX
  5
2A7
330
248
100
AcDbEntity
  8
Make2D$可见线$普通线
100
AcDbVertex
100
AcDb2dVertex
 10
277.8624104397708
 20
137.2698763171654
 30
0.0
  0
VERTEX
  5
2A8
330
248
100
AcDbEntity
  8
Make2D$可见线$普通线
100
AcDbVertex
100
AcDb2dVertex
 10
278.0574251876272
 20
137.2022606000108
 30
0.0
  0
VERTEX
  5
2A9
330
248
100
AcDbEntity
  8
Make2D$可见线$普通线
100
AcDbVertex
100
AcDb2dVertex
 10
279.1464038085523
 20
136.5851739954925
 30
0.0
  0
VERTEX
  5
2AA
330
248
100
AcDbEntity
  8
Make2D$可见线$普通线
100
AcDbVertex
100
AcDb2dVertex
 10
279.3528494207214
 20
136.4847239331643
 30
0.0
  0
VERTEX
  5
2AB
330
248
100
AcDbEntity
  8
Make2D$可见线$普通线
100
AcDbVertex
100
AcDb2dVertex
 10
279.4826992911513
 20
136.3530132791947
 30
0.0
  0
VERTEX
  5
2AC
330
248
100
AcDbEntity
  8
Make2D$可见线$普通线
100
AcDbVertex
100
AcDb2dVertex
 10
279.7256938868262
 20
136.200029419217
 30
0.0
  0
VERTEX
  5
2AD
330
248
100
AcDbEntity
  8
Make2D$可见线$普通线
100
AcDbVertex
100
AcDb2dVertex
 10
279.7966126872966
 20
136.1169375438478
 30
0.0
  0
VERTEX
  5
2AE
330
248
100
AcDbEntity
  8
Make2D$可见线$普通线
100
AcDbVertex
100
AcDb2dVertex
 10
279.9021873594725
 20
136.0975371688711
 30
0.0
  0
VERTEX
  5
2AF
330
248
100
AcDbEntity
  8
Make2D$可见线$普通线
100
AcDbVertex
100
AcDb2dVertex
 10
280.3957738204697
 20
135.8022706125241
 30
0.0
  0
VERTEX
  5
2B0
330
248
100
AcDbEntity
  8
Make2D$可见线$普通线
100
AcDbVertex
100
AcDb2dVertex
 10
280.7090220478646
 20
135.5859914625305
 30
0.0
  0
VERTEX
  5
2B1
330
248
100
AcDbEntity
  8
Make2D$可见线$普通线
100
AcDbVertex
100
AcDb2dVertex
 10
280.830915235481
 20
135.5130456883395
 30
0.0
  0
VERTEX
  5
2B2
330
248
100
AcDbEntity
  8
Make2D$可见线$普通线
100
AcDbVertex
100
AcDb2dVertex
 10
281.0478884072858
 20
135.3972283224726
 30
0.0
  0
VERTEX
  5
2B3
330
248
100
AcDbEntity
  8
Make2D$可见线$普通线
100
AcDbVertex
100
AcDb2dVertex
 10
281.1488994614884
 20
135.306286172814
 30
0.0
  0
VERTEX
  5
2B4
330
248
100
AcDbEntity
  8
Make2D$可见线$普通线
100
AcDbVertex
100
AcDb2dVertex
 10
281.3273684758933
 20
135.1703731651758
 30
0.0
  0
VERTEX
  5
2B5
330
248
100
AcDbEntity
  8
Make2D$可见线$普通线
100
AcDbVertex
100
AcDb2dVertex
 10
281.4832273241865
 20
135.1230210967576
 30
0.0
  0
VERTEX
  5
2B6
330
248
100
AcDbEntity
  8
Make2D$可见线$普通线
100
AcDbVertex
100
AcDb2dVertex
 10
281.7236727146209
 20
134.9575977147155
 30
0.0
  0
VERTEX
  5
2B7
330
248
100
AcDbEntity
  8
Make2D$可见线$普通线
100
AcDbVertex
100
AcDb2dVertex
 10
281.9604478034224
 20
134.8302602571695
 30
0.0
  0
VERTEX
  5
2B8
330
248
100
AcDbEntity
  8
Make2D$可见线$普通线
100
AcDbVertex
100
AcDb2dVertex
 10
282.1633032739243
 20
134.6475374189642
 30
0.0
  0
VERTEX
  5
2B9
330
248
100
AcDbEntity
  8
Make2D$可见线$普通线
100
AcDbVertex
100
AcDb2dVertex
 10
282.3355895083124
 20
134.5621204037036
 30
0.0
  0
VERTEX
  5
2BA
330
248
100
AcDbEntity
  8
Make2D$可见线$普通线
100
AcDbVertex
100
AcDb2dVertex
 10
282.5817516083325
 20
134.3861897822064
 30
0.0
  0
VERTEX
  5
2BB
330
248
100
AcDbEntity
  8
Make2D$可见线$普通线
100
AcDbVertex
100
AcDb2dVertex
 10
283.2890262335634
 20
133.9489371862178
 30
0.0
  0
VERTEX
  5
2BC
330
248
100
AcDbEntity
  8
Make2D$可见线$普通线
100
AcDbVertex
100
AcDb2dVertex
 10
283.4225317952595
 20
133.9022047754072
 30
0.0
  0
VERTEX
  5
2BD
330
248
100
AcDbEntity
  8
Make2D$可见线$普通线
100
AcDbVertex
100
AcDb2dVertex
 10
283.5020000101005
 20
133.9167517572785
 30
0.0
  0
VERTEX
  5
2BE
330
248
100
AcDbEntity
  8
Make2D$可见线$普通线
100
AcDbVertex
100
AcDb2dVertex
 10
283.5312957169918
 20
133.997595686398
 30
0.0
  0
VERTEX
  5
2BF
330
248
100
AcDbEntity
  8
Make2D$可见线$普通线
100
AcDbVertex
100
AcDb2dVertex
 10
283.505490071539
 20
134.1347476201048
 30
0.0
  0
VERTEX
  5
2C0
330
248
100
AcDbEntity
  8
Make2D$可见线$普通线
100
AcDbVertex
100
AcDb2dVertex
 10
283.4050778533521
 20
134.3437800361104
 30
0.0
  0
VERTEX
  5
2C1
330
248
100
AcDbEntity
  8
Make2D$可见线$普通线
100
AcDbVertex
100
AcDb2dVertex
 10
283.2737100750953
 20
135.0130001130087
 30
0.0
  0
VERTEX
  5
2C2
330
248
100
AcDbEntity
  8
Make2D$可见线$普通线
100
AcDbVertex
100
AcDb2dVertex
 10
283.2129470247147
 20
135.1673495694645
 30
0.0
  0
VERTEX
  5
2C3
330
248
100
AcDbEntity
  8
Make2D$可见线$普通线
100
AcDbVertex
100
AcDb2dVertex
 10
283.20691886367
 20
135.2414271001506
 30
0.0
  0
VERTEX
  5
2C4
330
248
100
AcDbEntity
  8
Make2D$可见线$普通线
100
AcDbVertex
100
AcDb2dVertex
 10
283.123795517638
 20
135.401262490307
 30
0.0
  0
VERTEX
  5
2C5
330
248
100
AcDbEntity
  8
Make2D$可见线$普通线
100
AcDbVertex
100
AcDb2dVertex
 10
282.9473118237836
 20
135.475717470405
 30
0.0
  0
VERTEX
  5
2C6
330
248
100
AcDbEntity
  8
Make2D$可见线$普通线
100
AcDbVertex
100
AcDb2dVertex
 10
282.5101815509729
 20
135.8681824802807
 30
0.0
  0
VERTEX
  5
2C7
330
248
100
AcDbEntity
  8
Make2D$可见线$普通线
100
AcDbVertex
100
AcDb2dVertex
 10
282.2318717617688
 20
136.0833562421956
 30
0.0
  0
VERTEX
  5
2C8
330
248
100
AcDbEntity
  8
Make2D$可见线$普通线
100
AcDbVertex
100
AcDb2dVertex
 10
281.9812639836256
 20
136.4220428147878
 30
0.0
  0
VERTEX
  5
2C9
330
248
100
AcDbEntity
  8
Make2D$可见线$普通线
100
AcDbVertex
100
AcDb2dVertex
 10
281.8851594623612
 20
136.6839169822717
 30
0.0
  0
VERTEX
  5
2CA
330
248
100
AcDbEntity
  8
Make2D$可见线$普通线
100
AcDbVertex
100
AcDb2dVertex
 10
281.8854191070978
 20
136.7903446331842
 30
0.0
  0
VERTEX
  5
2CB
330
248
100
AcDbEntity
  8
Make2D$可见线$普通线
100
AcDbVertex
100
AcDb2dVertex
 10
282.0174891817443
 20
136.8928875495416
 30
0.0
  0
VERTEX
  5
2CC
330
248
100
AcDbEntity
  8
Make2D$可见线$普通线
100
AcDbVertex
100
AcDb2dVertex
 10
282.1404252836486
 20
136.9324058230694
 30
0.0
  0
VERTEX
  5
2CD
330
248
100
AcDbEntity
  8
Make2D$可见线$普通线
100
AcDbVertex
100
AcDb2dVertex
 10
282.2746777164906
 20
136.8880532184038
 30
0.0
  0
VERTEX
  5
2CE
330
248
100
AcDbEntity
  8
Make2D$可见线$普通线
100
AcDbVertex
100
AcDb2dVertex
 10
282.4783699074325
 20
136.6876447658137
 30
0.0
  0
VERTEX
  5
2CF
330
248
100
AcDbEntity
  8
Make2D$可见线$普通线
100
AcDbVertex
100
AcDb2dVertex
 10
282.5539468051295
 20
136.6254204299395
 30
0.0
  0
VERTEX
  5
2D0
330
248
100
AcDbEntity
  8
Make2D$可见线$普通线
100
AcDbVertex
100
AcDb2dVertex
 10
282.623793652372
 20
136.6534065582877
 30
0.0
  0
VERTEX
  5
2D1
330
248
100
AcDbEntity
  8
Make2D$可见线$普通线
100
AcDbVertex
100
AcDb2dVertex
 10
282.6529970779125
 20
136.741935614011
 30
0.0
  0
VERTEX
  5
2D2
330
248
100
AcDbEntity
  8
Make2D$可见线$普通线
100
AcDbVertex
100
AcDb2dVertex
 10
282.3723557141437
 20
137.2610179856049
 30
0.0
  0
VERTEX
  5
2D3
330
248
100
AcDbEntity
  8
Make2D$可见线$普通线
100
AcDbVertex
100
AcDb2dVertex
 10
282.1244475892915
 20
137.6559429044574
 30
0.0
  0
VERTEX
  5
2D4
330
248
100
AcDbEntity
  8
Make2D$可见线$普通线
100
AcDbVertex
100
AcDb2dVertex
 10
281.8867361389919
 20
137.9390422645398
 30
0.0
  0
VERTEX
  5
2D5
330
248
100
AcDbEntity
  8
Make2D$可见线$普通线
100
AcDbVertex
100
AcDb2dVertex
 10
281.7039164217792
 20
138.1945391520101
 30
0.0
  0
VERTEX
  5
2D6
330
248
100
AcDbEntity
  8
Make2D$可见线$普通线
100
AcDbVertex
100
AcDb2dVertex
 10
281.5890643993118
 20
138.5230335838266
 30
0.0
  0
VERTEX
  5
2D7
330
248
100
AcDbEntity
  8
Make2D$可见线$普通线
100
AcDbVertex
100
AcDb2dVertex
 10
281.5737827683039
 20
138.7005548009047
 30
0.0
  0
VERTEX
  5
2D8
330
248
100
AcDbEntity
  8
Make2D$可见线$普通线
100
AcDbVertex
100
AcDb2dVertex
 10
281.6394771089806
 20
138.8193311441277
 30
0.0
  0
VERTEX
  5
2D9
330
248
100
AcDbEntity
  8
Make2D$可见线$普通线
100
AcDbVertex
100
AcDb2dVertex
 10
281.7519027418152
 20
138.867184799613
 30
0.0
  0
VERTEX
  5
2DA
330
248
100
AcDbEntity
  8
Make2D$可见线$普通线
100
AcDbVertex
100
AcDb2dVertex
 10
281.8693665743368
 20
138.8363413970776
 30
0.0
  0
VERTEX
  5
2DB
330
248
100
AcDbEntity
  8
Make2D$可见线$普通线
100
AcDbVertex
100
AcDb2dVertex
 10
282.0339889110553
 20
138.6946562183208
 30
0.0
  0
VERTEX
  5
2DC
330
248
100
AcDbEntity
  8
Make2D$可见线$普通线
100
AcDbVertex
100
AcDb2dVertex
 10
282.0863159197739
 20
138.6142589608096
 30
0.0
  0
VERTEX
  5
2DD
330
248
100
AcDbEntity
  8
Make2D$可见线$普通线
100
AcDbVertex
100
AcDb2dVertex
 10
282.058893445947
 20
138.4946382671176
 30
0.0
  0
VERTEX
  5
2DE
330
248
100
AcDbEntity
  8
Make2D$可见线$普通线
100
AcDbVertex
100
AcDb2dVertex
 10
281.9953946317459
 20
138.4568431631035
 30
0.0
  0
VERTEX
  5
2DF
330
248
100
AcDbEntity
  8
Make2D$可见线$普通线
100
AcDbVertex
100
AcDb2dVertex
 10
281.904660998898
 20
138.4306806555624
 30
0.0
  0
VERTEX
  5
2E0
330
248
100
AcDbEntity
  8
Make2D$可见线$普通线
100
AcDbVertex
100
AcDb2dVertex
 10
281.8836552416262
 20
138.373919556435
 30
0.0
  0
VERTEX
  5
2E1
330
248
100
AcDbEntity
  8
Make2D$可见线$普通线
100
AcDbVertex
100
AcDb2dVertex
 10
281.9205771144765
 20
138.2591262762571
 30
0.0
  0
VERTEX
  5
2E2
330
248
100
AcDbEntity
  8
Make2D$可见线$普通线
100
AcDbVertex
100
AcDb2dVertex
 10
282.1570346552153
 20
137.9774263097471
 30
0.0
  0
VERTEX
  5
2E3
330
248
100
AcDbEntity
  8
Make2D$可见线$普通线
100
AcDbVertex
100
AcDb2dVertex
 10
282.5809580854461
 20
137.6376933346451
 30
0.0
  0
VERTEX
  5
2E4
330
248
100
AcDbEntity
  8
Make2D$可见线$普通线
100
AcDbVertex
100
AcDb2dVertex
 10
282.7033008038941
 20
137.6128872641664
 30
0.0
  0
VERTEX
  5
2E5
330
248
100
AcDbEntity
  8
Make2D$可见线$普通线
100
AcDbVertex
100
AcDb2dVertex
 10
282.808259743519
 20
137.6470128287668
 30
0.0
  0
VERTEX
  5
2E6
330
248
100
AcDbEntity
  8
Make2D$可见线$普通线
100
AcDbVertex
100
AcDb2dVertex
 10
282.8607386143949
 20
137.7051695917268
 30
0.0
  0
VERTEX
  5
2E7
330
248
100
AcDbEntity
  8
Make2D$可见线$普通线
100
AcDbVertex
100
AcDb2dVertex
 10
282.8725128701586
 20
137.9206614945028
 30
0.0
  0
VERTEX
  5
2E8
330
248
100
AcDbEntity
  8
Make2D$可见线$普通线
100
AcDbVertex
100
AcDb2dVertex
 10
282.8534846618553
 20
138.0240551847378
 30
0.0
  0
VERTEX
  5
2E9
330
248
100
AcDbEntity
  8
Make2D$可见线$普通线
100
AcDbVertex
100
AcDb2dVertex
 10
282.5356958588459
 20
138.5983341897836
 30
0.0
  0
VERTEX
  5
2EA
330
248
100
AcDbEntity
  8
Make2D$可见线$普通线
100
AcDbVertex
100
AcDb2dVertex
 10
282.1319893895047
 20
139.0853590988241
 30
0.0
  0
VERTEX
  5
2EB
330
248
100
AcDbEntity
  8
Make2D$可见线$普通线
100
AcDbVertex
100
AcDb2dVertex
 10
282.0358266692193
 20
139.138818253375
 30
0.0
  0
VERTEX
  5
2EC
330
248
100
AcDbEntity
  8
Make2D$可见线$普通线
100
AcDbVertex
100
AcDb2dVertex
 10
281.8594643717037
 20
139.397961117029
 30
0.0
  0
VERTEX
  5
2ED
330
248
100
AcDbEntity
  8
Make2D$可见线$普通线
100
AcDbVertex
100
AcDb2dVertex
 10
281.7278827659834
 20
139.5499271619765
 30
0.0
  0
VERTEX
  5
2EE
330
248
100
AcDbEntity
  8
Make2D$可见线$普通线
100
AcDbVertex
100
AcDb2dVertex
 10
281.6660223864397
 20
139.6625575304988
 30
0.0
  0
VERTEX
  5
2EF
330
248
100
AcDbEntity
  8
Make2D$可见线$普通线
100
AcDbVertex
100
AcDb2dVertex
 10
281.6670698111767
 20
140.0491408069159
 30
0.0
  0
VERTEX
  5
2F0
330
248
100
AcDbEntity
  8
Make2D$可见线$普通线
100
AcDbVertex
100
AcDb2dVertex
 10
281.5920662023564
 20
140.1510456017558
 30
0.0
  0
VERTEX
  5
2F1
330
248
100
AcDbEntity
  8
Make2D$可见线$普通线
100
AcDbVertex
100
AcDb2dVertex
 10
281.5746948763638
 20
140.3273177884981
 30
0.0
  0
VERTEX
  5
2F2
330
248
100
AcDbEntity
  8
Make2D$可见线$普通线
100
AcDbVertex
100
AcDb2dVertex
 10
281.3565999861113
 20
140.8564840301206
 30
0.0
  0
VERTEX
  5
2F3
330
248
100
AcDbEntity
  8
Make2D$可见线$普通线
100
AcDbVertex
100
AcDb2dVertex
 10
280.9082319445787
 20
141.4573066582054
 30
0.0
  0
VERTEX
  5
2F4
330
248
100
AcDbEntity
  8
Make2D$可见线$普通线
100
AcDbVertex
100
AcDb2dVertex
 10
279.744269916647
 20
142.6215156771456
 30
0.0
  0
VERTEX
  5
2F5
330
248
100
AcDbEntity
  8
Make2D$可见线$普通线
100
AcDbVertex
100
AcDb2dVertex
 10
279.6948020152142
 20
142.7321073938532
 30
0.0
  0
VERTEX
  5
2F6
330
248
100
AcDbEntity
  8
Make2D$可见线$普通线
100
AcDbVertex
100
AcDb2dVertex
 10
279.6995797949462
 20
142.7935793636859
 30
0.0
  0
VERTEX
  5
2F7
330
248
100
AcDbEntity
  8
Make2D$可见线$普通线
100
AcDbVertex
100
AcDb2dVertex
 10
279.743755229596
 20
142.8547473471358
 30
0.0
  0
VERTEX
  5
2F8
330
248
100
AcDbEntity
  8
Make2D$可见线$普通线
100
AcDbVertex
100
AcDb2dVertex
 10
279.8615467621795
 20
142.8492541768326
 30
0.0
  0
VERTEX
  5
2F9
330
248
100
AcDbEntity
  8
Make2D$可见线$普通线
100
AcDbVertex
100
AcDb2dVertex
 10
280.0647410325805
 20
142.6826558035141
 30
0.0
 42
-0.0170467204982811
  0
VERTEX
  5
2FA
330
248
100
AcDbEntity
  8
Make2D$可见线$普通线
100
AcDbVertex
100
AcDb2dVertex
 10
281.1296836377293
 20
141.5605128949622
 30
0.0
  0
VERTEX
  5
2FB
330
248
100
AcDbEntity
  8
Make2D$可见线$普通线
100
AcDbVertex
100
AcDb2dVertex
 10
281.236063751569
 20
141.4749174228795
 30
0.0
  0
VERTEX
  5
2FC
330
248
100
AcDbEntity
  8
Make2D$可见线$普通线
100
AcDbVertex
100
AcDb2dVertex
 10
281.3105921941611
 20
141.4530147333802
 30
0.0
  0
VERTEX
  5
2FD
330
248
100
AcDbEntity
  8
Make2D$可见线$普通线
100
AcDbVertex
100
AcDb2dVertex
 10
281.3986705598896
 20
141.4838973891872
 30
0.0
  0
VERTEX
  5
2FE
330
248
100
AcDbEntity
  8
Make2D$可见线$普通线
100
AcDbVertex
100
AcDb2dVertex
 10
281.5340012154051
 20
141.6168642408501
 30
0.0
  0
VERTEX
  5
2FF
330
248
100
AcDbEntity
  8
Make2D$可见线$普通线
100
AcDbVertex
100
AcDb2dVertex
 10
281.7291972786105
 20
141.7563068186838
 30
0.0
  0
VERTEX
  5
300
330
248
100
AcDbEntity
  8
Make2D$可见线$普通线
100
AcDbVertex
100
AcDb2dVertex
 10
281.8534876684622
 20
141.8100957464432
 30
0.0
  0
VERTEX
  5
301
330
248
100
AcDbEntity
  8
Make2D$可见线$普通线
100
AcDbVertex
100
AcDb2dVertex
 10
282.2258350421522
 20
141.7883324775877
 30
0.0
  0
VERTEX
  5
302
330
248
100
AcDbEntity
  8
Make2D$可见线$普通线
100
AcDbVertex
100
AcDb2dVertex
 10
282.5972162004419
 20
141.6130689755457
 30
0.0
  0
VERTEX
  5
303
330
248
100
AcDbEntity
  8
Make2D$可见线$普通线
100
AcDbVertex
100
AcDb2dVertex
 10
282.9248343300196
 20
141.2729399521593
 30
0.0
  0
VERTEX
  5
304
330
248
100
AcDbEntity
  8
Make2D$可见线$普通线
100
AcDbVertex
100
AcDb2dVertex
 10
283.0658900854361
 20
141.0724815517523
 30
0.0
  0
VERTEX
  5
305
330
248
100
AcDbEntity
  8
Make2D$可见线$普通线
100
AcDbVertex
100
AcDb2dVertex
 10
283.0691225972588
 20
140.8779939565821
 30
0.0
  0
VERTEX
  5
306
330
248
100
AcDbEntity
  8
Make2D$可见线$普通线
100
AcDbVertex
100
AcDb2dVertex
 10
283.0124688249651
 20
140.6410451527747
 30
0.0
  0
VERTEX
  5
307
330
248
100
AcDbEntity
  8
Make2D$可见线$普通线
100
AcDbVertex
100
AcDb2dVertex
 10
282.883885235003
 20
140.5089522629521
 30
0.0
  0
VERTEX
  5
308
330
248
100
AcDbEntity
  8
Make2D$可见线$普通线
100
AcDbVertex
100
AcDb2dVertex
 10
282.7110569870887
 20
140.4778685961159
 30
0.0
  0
VERTEX
  5
309
330
248
100
AcDbEntity
  8
Make2D$可见线$普通线
100
AcDbVertex
100
AcDb2dVertex
 10
282.4899509651268
 20
140.4712951671976
 30
0.0
  0
VERTEX
  5
30A
330
248
100
AcDbEntity
  8
Make2D$可见线$普通线
100
AcDbVertex
100
AcDb2dVertex
 10
282.2261595935885
 20
140.5712843736226
 30
0.0
  0
VERTEX
  5
30B
330
248
100
AcDbEntity
  8
Make2D$可见线$普通线
100
AcDbVertex
100
AcDb2dVertex
 10
281.9601213799278
 20
140.7147156703737
 30
0.0
  0
VERTEX
  5
30C
330
248
100
AcDbEntity
  8
Make2D$可见线$普通线
100
AcDbVertex
100
AcDb2dVertex
 10
281.8017097553465
 20
140.7931244411092
 30
0.0
  0
VERTEX
  5
30D
330
248
100
AcDbEntity
  8
Make2D$可见线$普通线
100
AcDbVertex
100
AcDb2dVertex
 10
281.6904559840914
 20
140.7713490436104
 30
0.0
  0
VERTEX
  5
30E
330
248
100
AcDbEntity
  8
Make2D$可见线$普通线
100
AcDbVertex
100
AcDb2dVertex
 10
281.663610177016
 20
140.6735868839423
 30
0.0
  0
VERTEX
  5
30F
330
248
100
AcDbEntity
  8
Make2D$可见线$普通线
100
AcDbVertex
100
AcDb2dVertex
 10
281.7937518834824
 20
140.379664219943
 30
0.0
  0
VERTEX
  5
310
330
248
100
AcDbEntity
  8
Make2D$可见线$普通线
100
AcDbVertex
100
AcDb2dVertex
 10
281.8984841717777
 20
140.0664266502503
 30
0.0
  0
VERTEX
  5
311
330
248
100
AcDbEntity
  8
Make2D$可见线$普通线
100
AcDbVertex
100
AcDb2dVertex
 10
281.99945573534
 20
139.9410325492153
 30
0.0
  0
VERTEX
  5
312
330
248
100
AcDbEntity
  8
Make2D$可见线$普通线
100
AcDbVertex
100
AcDb2dVertex
 10
282.1804778172897
 20
139.9228473901211
 30
0.0
  0
VERTEX
  5
313
330
248
100
AcDbEntity
  8
Make2D$可见线$普通线
100
AcDbVertex
100
AcDb2dVertex
 10
282.5248148156807
 20
139.7687717223042
 30
0.0
  0
VERTEX
  5
314
330
248
100
AcDbEntity
  8
Make2D$可见线$普通线
100
AcDbVertex
100
AcDb2dVertex
 10
282.942135803484
 20
139.2901642129419
 30
0.0
  0
VERTEX
  5
315
330
248
100
AcDbEntity
  8
Make2D$可见线$普通线
100
AcDbVertex
100
AcDb2dVertex
 10
283.0200927130793
 20
139.0729572014343
 30
0.0
  0
VERTEX
  5
316
330
248
100
AcDbEntity
  8
Make2D$可见线$普通线
100
AcDbVertex
100
AcDb2dVertex
 10
283.0215269736891
 20
138.8360500714964
 30
0.0
  0
VERTEX
  5
317
330
248
100
AcDbEntity
  8
Make2D$可见线$普通线
100
AcDbVertex
100
AcDb2dVertex
 10
282.9143744214364
 20
138.65880807152
 30
0.0
  0
VERTEX
  5
318
330
248
100
AcDbEntity
  8
Make2D$可见线$普通线
100
AcDbVertex
100
AcDb2dVertex
 10
282.8791616652301
 20
138.5429748898808
 30
0.0
  0
VERTEX
  5
319
330
248
100
AcDbEntity
  8
Make2D$可见线$普通线
100
AcDbVertex
100
AcDb2dVertex
 10
282.9122173359237
 20
138.4035903139932
 30
0.0
  0
VERTEX
  5
31A
330
248
100
AcDbEntity
  8
Make2D$可见线$普通线
100
AcDbVertex
100
AcDb2dVertex
 10
283.1078451620129
 20
137.9594942672296
 30
0.0
  0
VERTEX
  5
31B
330
248
100
AcDbEntity
  8
Make2D$可见线$普通线
100
AcDbVertex
100
AcDb2dVertex
 10
283.1365055231408
 20
137.7718850583281
 30
0.0
  0
VERTEX
  5
31C
330
248
100
AcDbEntity
  8
Make2D$可见线$普通线
100
AcDbVertex
100
AcDb2dVertex
 10
283.0707080677163
 20
137.5552973222066
 30
0.0
  0
VERTEX
  5
31D
330
248
100
AcDbEntity
  8
Make2D$可见线$普通线
100
AcDbVertex
100
AcDb2dVertex
 10
282.9155149490891
 20
137.3885245725617
 30
0.0
  0
VERTEX
  5
31E
330
248
100
AcDbEntity
  8
Make2D$可见线$普通线
100
AcDbVertex
100
AcDb2dVertex
 10
282.7205838349213
 20
137.3215439639159
 30
0.0
  0
VERTEX
  5
31F
330
248
100
AcDbEntity
  8
Make2D$可见线$普通线
100
AcDbVertex
100
AcDb2dVertex
 10
282.6812469955412
 20
137.2737681066762
 30
0.0
  0
VERTEX
  5
320
330
248
100
AcDbEntity
  8
Make2D$可见线$普通线
100
AcDbVertex
100
AcDb2dVertex
 10
282.6856291765849
 20
137.1798091119126
 30
0.0
  0
VERTEX
  5
321
330
248
100
AcDbEntity
  8
Make2D$可见线$普通线
100
AcDbVertex
100
AcDb2dVertex
 10
282.9662437313439
 20
136.7476246902094
 30
0.0
  0
VERTEX
  5
322
330
248
100
AcDbEntity
  8
Make2D$可见线$普通线
100
AcDbVertex
100
AcDb2dVertex
 10
283.0479729904592
 20
136.5939746910844
 30
0.0
  0
VERTEX
  5
323
330
248
100
AcDbEntity
  8
Make2D$可见线$普通线
100
AcDbVertex
100
AcDb2dVertex
 10
283.0640360953678
 20
136.446464996176
 30
0.0
  0
VERTEX
  5
324
330
248
100
AcDbEntity
  8
Make2D$可见线$普通线
100
AcDbVertex
100
AcDb2dVertex
 10
283.0406836181921
 20
136.2784285424638
 30
0.0
  0
VERTEX
  5
325
330
248
100
AcDbEntity
  8
Make2D$可见线$普通线
100
AcDbVertex
100
AcDb2dVertex
 10
283.1019750470244
 20
136.1578597239203
 30
0.0
  0
VERTEX
  5
326
330
248
100
AcDbEntity
  8
Make2D$可见线$普通线
100
AcDbVertex
100
AcDb2dVertex
 10
283.3656809612114
 20
135.832850762658
 30
0.0
  0
VERTEX
  5
327
330
248
100
AcDbEntity
  8
Make2D$可见线$普通线
100
AcDbVertex
100
AcDb2dVertex
 10
283.4403459704316
 20
135.672745774957
 30
0.0
  0
VERTEX
  5
328
330
248
100
AcDbEntity
  8
Make2D$可见线$普通线
100
AcDbVertex
100
AcDb2dVertex
 10
283.4128465556565
 20
135.2129379705808
 30
0.0
  0
VERTEX
  5
329
330
248
100
AcDbEntity
  8
Make2D$可见线$普通线
100
AcDbVertex
100
AcDb2dVertex
 10
283.484875251004
 20
134.9430142849196
 30
0.0
  0
VERTEX
  5
32A
330
248
100
AcDbEntity
  8
Make2D$可见线$普通线
100
AcDbVertex
100
AcDb2dVertex
 10
283.5033077508624
 20
134.808115893748
 30
0.0
  0
VERTEX
  5
32B
330
248
100
AcDbEntity
  8
Make2D$可见线$普通线
100
AcDbVertex
100
AcDb2dVertex
 10
283.5734890323102
 20
134.5661316009445
 30
0.0
  0
VERTEX
  5
32C
330
248
100
AcDbEntity
  8
Make2D$可见线$普通线
100
AcDbVertex
100
AcDb2dVertex
 10
283.6159239472482
 20
134.3346137560619
 30
0.0
  0
VERTEX
  5
32D
330
248
100
AcDbEntity
  8
Make2D$可见线$普通线
100
AcDbVertex
100
AcDb2dVertex
 10
283.9319096419761
 20
133.6018469488623
 30
0.0
  0
VERTEX
  5
32E
330
248
100
AcDbEntity
  8
Make2D$可见线$普通线
100
AcDbVertex
100
AcDb2dVertex
 10
284.3263891128548
 20
133.2374976632685
 30
0.0
  0
VERTEX
  5
32F
330
248
100
AcDbEntity
  8
Make2D$可见线$普通线
100
AcDbVertex
100
AcDb2dVertex
 10
284.6025497961101
 20
133.0066635148303
 30
0.0
  0
VERTEX
  5
330
330
248
100
AcDbEntity
  8
Make2D$可见线$普通线
100
AcDbVertex
100
AcDb2dVertex
 10
285.99201500774
 20
132.0646279693809
 30
0.0
  0
VERTEX
  5
331
330
248
100
AcDbEntity
  8
Make2D$可见线$普通线
100
AcDbVertex
100
AcDb2dVertex
 10
286.3952647319398
 20
131.7087824726377
 30
0.0
 42
-0.0146547290407102
  0
VERTEX
  5
332
330
248
100
AcDbEntity
  8
Make2D$可见线$普通线
100
AcDbVertex
100
AcDb2dVertex
 10
288.0722259060283
 20
130.3409636267403
 30
0.0
  0
VERTEX
  5
333
330
248
100
AcDbEntity
  8
Make2D$可见线$普通线
100
AcDbVertex
100
AcDb2dVertex
 10
288.2143295250639
 20
130.1713118834579
 30
0.0
  0
SEQEND
  5
334
330
248
100
AcDbEntity
  8
Make2D$可见线$普通线
  0
POLYLINE
  5
335
330
1F
100
AcDbEntity
  8
Make2D$可见线$普通线
100
AcDb2dPolyline
 66
     1
 10
0.0
 20
0.0
 30
0.0
  0
VERTEX
  5
336
330
335
100
AcDbEntity
  8
Make2D$可见线$普通线
100
AcDbVertex
100
AcDb2dVertex
 10
284.8502185002126
 20
149.349940197132
 30
0.0
  0
VERTEX
  5
337
330
335
100
AcDbEntity
  8
Make2D$可见线$普通线
100
AcDbVertex
100
AcDb2dVertex
 10
284.7631350605479
 20
149.2661090854536
 30
0.0
  0
VERTEX
  5
338
330
335
100
AcDbEntity
  8
Make2D$可见线$普通线
100
AcDbVertex
100
AcDb2dVertex
 10
284.6894117945372
 20
149.2284305467258
 30
0.0
  0
VERTEX
  5
339
330
335
100
AcDbEntity
  8
Make2D$可见线$普通线
100
AcDbVertex
100
AcDb2dVertex
 10
284.6210533132414
 20
149.2216441716081
 30
0.0
  0
VERTEX
  5
33A
330
335
100
AcDbEntity
  8
Make2D$可见线$普通线
100
AcDbVertex
100
AcDb2dVertex
 10
284.5915174685579
 20
149.356233677707
 30
0.0
  0
VERTEX
  5
33B
330
335
100
AcDbEntity
  8
Make2D$可见线$普通线
100
AcDbVertex
100
AcDb2dVertex
 10
284.6674819637265
 20
149.3669609780101
 30
0.0
  0
VERTEX
  5
33C
330
335
100
AcDbEntity
  8
Make2D$可见线$普通线
100
AcDbVertex
100
AcDb2dVertex
 10
284.7365119206144
 20
149.416230367961
 30
0.0
  0
VERTEX
  5
33D
330
335
100
AcDbEntity
  8
Make2D$可见线$普通线
100
AcDbVertex
100
AcDb2dVertex
 10
284.7752050890186
 20
149.4804481355172
 30
0.0
  0
VERTEX
  5
33E
330
335
100
AcDbEntity
  8
Make2D$可见线$普通线
100
AcDbVertex
100
AcDb2dVertex
 10
284.7978473663802
 20
149.5555135188225
 30
0.0
  0
VERTEX
  5
33F
330
335
100
AcDbEntity
  8
Make2D$可见线$普通线
100
AcDbVertex
100
AcDb2dVertex
 10
284.7868510786382
 20
149.6462533610776
 30
0.0
  0
VERTEX
  5
340
330
335
100
AcDbEntity
  8
Make2D$可见线$普通线
100
AcDbVertex
100
AcDb2dVertex
 10
284.7349561617276
 20
149.7374240034756
 30
0.0
  0
VERTEX
  5
341
330
335
100
AcDbEntity
  8
Make2D$可见线$普通线
100
AcDbVertex
100
AcDb2dVertex
 10
284.6412159753461
 20
149.7970418172384
 30
0.0
  0
VERTEX
  5
342
330
335
100
AcDbEntity
  8
Make2D$可见线$普通线
100
AcDbVertex
100
AcDb2dVertex
 10
284.5465125565462
 20
149.805197913314
 30
0.0
  0
VERTEX
  5
343
330
335
100
AcDbEntity
  8
Make2D$可见线$普通线
100
AcDbVertex
100
AcDb2dVertex
 10
284.4630678978982
 20
149.7676245373
 30
0.0
  0
VERTEX
  5
344
330
335
100
AcDbEntity
  8
Make2D$可见线$普通线
100
AcDbVertex
100
AcDb2dVertex
 10
284.3852150699734
 20
149.6566642772873
 30
0.0
  0
VERTEX
  5
345
330
335
100
AcDbEntity
  8
Make2D$可见线$普通线
100
AcDbVertex
100
AcDb2dVertex
 10
284.2943092583735
 20
149.437786739167
 30
0.0
  0
VERTEX
  5
346
330
335
100
AcDbEntity
  8
Make2D$可见线$普通线
100
AcDbVertex
100
AcDb2dVertex
 10
284.2331656153698
 20
149.3550985684269
 30
0.0
  0
VERTEX
  5
347
330
335
100
AcDbEntity
  8
Make2D$可见线$普通线
100
AcDbVertex
100
AcDb2dVertex
 10
284.1419782181802
 20
149.2927231092058
 30
0.0
  0
VERTEX
  5
348
330
335
100
AcDbEntity
  8
Make2D$可见线$普通线
100
AcDbVertex
100
AcDb2dVertex
 10
284.0281705687363
 20
149.2888684182448
 30
0.0
  0
VERTEX
  5
349
330
335
100
AcDbEntity
  8
Make2D$可见线$普通线
100
AcDbVertex
100
AcDb2dVertex
 10
283.9203500477726
 20
149.3279112491845
 30
0.0
  0
VERTEX
  5
34A
330
335
100
AcDbEntity
  8
Make2D$可见线$普通线
100
AcDbVertex
100
AcDb2dVertex
 10
283.8328901975913
 20
149.4138715754458
 30
0.0
  0
VERTEX
  5
34B
330
335
100
AcDbEntity
  8
Make2D$可见线$普通线
100
AcDbVertex
100
AcDb2dVertex
 10
283.7841964201305
 20
149.5365515377166
 30
0.0
  0
VERTEX
  5
34C
330
335
100
AcDbEntity
  8
Make2D$可见线$普通线
100
AcDbVertex
100
AcDb2dVertex
 10
283.7732719010563
 20
149.6275804474021
 30
0.0
  0
VERTEX
  5
34D
330
335
100
AcDbEntity
  8
Make2D$可见线$普通线
100
AcDbVertex
100
AcDb2dVertex
 10
283.7892968624532
 20
149.7434861031098
 30
0.0
  0
VERTEX
  5
34E
330
335
100
AcDbEntity
  8
Make2D$可见线$普通线
100
AcDbVertex
100
AcDb2dVertex
 10
283.832811623513
 20
149.8344699875109
 30
0.0
  0
VERTEX
  5
34F
330
335
100
AcDbEntity
  8
Make2D$可见线$普通线
100
AcDbVertex
100
AcDb2dVertex
 10
283.9139507071513
 20
149.9129625689859
 30
0.0
  0
VERTEX
  5
350
330
335
100
AcDbEntity
  8
Make2D$可见线$普通线
100
AcDbVertex
100
AcDb2dVertex
 10
283.9342609222954
 20
149.9268838572368
 30
0.0
  0
VERTEX
  5
351
330
335
100
AcDbEntity
  8
Make2D$可见线$普通线
100
AcDbVertex
100
AcDb2dVertex
 10
284.0033696205113
 20
149.8147348405663
 30
0.0
  0
VERTEX
  5
352
330
335
100
AcDbEntity
  8
Make2D$可见线$普通线
100
AcDbVertex
100
AcDb2dVertex
 10
283.9305167219146
 20
149.7475885709996
 30
0.0
  0
VERTEX
  5
353
330
335
100
AcDbEntity
  8
Make2D$可见线$普通线
100
AcDbVertex
100
AcDb2dVertex
 10
283.9019083493123
 20
149.682790462613
 30
0.0
  0
VERTEX
  5
354
330
335
100
AcDbEntity
  8
Make2D$可见线$普通线
100
AcDbVertex
100
AcDb2dVertex
 10
283.902826084659
 20
149.5875127354774
 30
0.0
  0
VERTEX
  5
355
330
335
100
AcDbEntity
  8
Make2D$可见线$普通线
100
AcDbVertex
100
AcDb2dVertex
 10
283.9314391085132
 20
149.5099608666935
 30
0.0
  0
VERTEX
  5
356
330
335
100
AcDbEntity
  8
Make2D$可见线$普通线
100
AcDbVertex
100
AcDb2dVertex
 10
283.9784958858254
 20
149.4475364865203
 30
0.0
  0
VERTEX
  5
357
330
335
100
AcDbEntity
  8
Make2D$可见线$普通线
100
AcDbVertex
100
AcDb2dVertex
 10
284.0448877397657
 20
149.4228054837322
 30
0.0
  0
VERTEX
  5
358
330
335
100
AcDbEntity
  8
Make2D$可见线$普通线
100
AcDbVertex
100
AcDb2dVertex
 10
284.1149101068039
 20
149.4293693582364
 30
0.0
  0
VERTEX
  5
359
330
335
100
AcDbEntity
  8
Make2D$可见线$普通线
100
AcDbVertex
100
AcDb2dVertex
 10
284.1595285832636
 20
149.4653449800459
 30
0.0
  0
VERTEX
  5
35A
330
335
100
AcDbEntity
  8
Make2D$可见线$普通线
100
AcDbVertex
100
AcDb2dVertex
 10
284.2102720017939
 20
149.5457098957791
 30
0.0
  0
VERTEX
  5
35B
330
335
100
AcDbEntity
  8
Make2D$可见线$普通线
100
AcDbVertex
100
AcDb2dVertex
 10
284.2666730226108
 20
149.7016694170372
 30
0.0
  0
VERTEX
  5
35C
330
335
100
AcDbEntity
  8
Make2D$可见线$普通线
100
AcDbVertex
100
AcDb2dVertex
 10
284.3279096874087
 20
149.8199031207379
 30
0.0
  0
VERTEX
  5
35D
330
335
100
AcDbEntity
  8
Make2D$可见线$普通线
100
AcDbVertex
100
AcDb2dVertex
 10
284.4022581256572
 20
149.9005750784123
 30
0.0
  0
VERTEX
  5
35E
330
335
100
AcDbEntity
  8
Make2D$可见线$普通线
100
AcDbVertex
100
AcDb2dVertex
 10
284.487423832491
 20
149.9381360772189
 30
0.0
  0
VERTEX
  5
35F
330
335
100
AcDbEntity
  8
Make2D$可见线$普通线
100
AcDbVertex
100
AcDb2dVertex
 10
284.5700929111161
 20
149.9469571939056
 30
0.0
  0
VERTEX
  5
360
330
335
100
AcDbEntity
  8
Make2D$可见线$普通线
100
AcDbVertex
100
AcDb2dVertex
 10
284.6508622169717
 20
149.9391866645196
 30
0.0
  0
VERTEX
  5
361
330
335
100
AcDbEntity
  8
Make2D$可见线$普通线
100
AcDbVertex
100
AcDb2dVertex
 10
284.7198648800804
 20
149.9123802302985
 30
0.0
  0
VERTEX
  5
362
330
335
100
AcDbEntity
  8
Make2D$可见线$普通线
100
AcDbVertex
100
AcDb2dVertex
 10
284.8008609121375
 20
149.8542265827148
 30
0.0
  0
VERTEX
  5
363
330
335
100
AcDbEntity
  8
Make2D$可见线$普通线
100
AcDbVertex
100
AcDb2dVertex
 10
284.8619554230634
 20
149.771794569502
 30
0.0
  0
VERTEX
  5
364
330
335
100
AcDbEntity
  8
Make2D$可见线$普通线
100
AcDbVertex
100
AcDb2dVertex
 10
284.8934494734546
 20
149.7077299678901
 30
0.0
  0
VERTEX
  5
365
330
335
100
AcDbEntity
  8
Make2D$可见线$普通线
100
AcDbVertex
100
AcDb2dVertex
 10
284.9113131212436
 20
149.6320442547692
 30
0.0
  0
VERTEX
  5
366
330
335
100
AcDbEntity
  8
Make2D$可见线$普通线
100
AcDbVertex
100
AcDb2dVertex
 10
284.9197978874213
 20
149.5711171459476
 30
0.0
  0
VERTEX
  5
367
330
335
100
AcDbEntity
  8
Make2D$可见线$普通线
100
AcDbVertex
100
AcDb2dVertex
 10
284.915961861898
 20
149.5014713881097
 30
0.0
  0
VERTEX
  5
368
330
335
100
AcDbEntity
  8
Make2D$可见线$普通线
100
AcDbVertex
100
AcDb2dVertex
 10
284.9020343498959
 20
149.4500790605249
 30
0.0
  0
VERTEX
  5
369
330
335
100
AcDbEntity
  8
Make2D$可见线$普通线
100
AcDbVertex
100
AcDb2dVertex
 10
284.8502185002126
 20
149.349940197132
 30
0.0
  0
SEQEND
  5
36A
330
335
100
AcDbEntity
  8
Make2D$可见线$普通线
  0
POLYLINE
  5
36B
330
1F
100
AcDbEntity
  8
Make2D$可见线$普通线
100
AcDb2dPolyline
 66
     1
 10
0.0
 20
0.0
 30
0.0
  0
VERTEX
  5
36C
330
36B
100
AcDbEntity
  8
Make2D$可见线$普通线
100
AcDbVertex
100
AcDb2dVertex
 10
283.797447957007
 20
147.7365322368012
 30
0.0
  0
VERTEX
  5
36D
330
36B
100
AcDbEntity
  8
Make2D$可见线$普通线
100
AcDbVertex
100
AcDb2dVertex
 10
283.7974721237443
 20
147.8778010956248
 30
0.0
  0
VERTEX
  5
36E
330
36B
100
AcDbEntity
  8
Make2D$可见线$普通线
100
AcDbVertex
100
AcDb2dVertex
 10
284.9007556906728
 20
147.8522771870729
 30
0.0
  0
VERTEX
  5
36F
330
36B
100
AcDbEntity
  8
Make2D$可见线$普通线
100
AcDbVertex
100
AcDb2dVertex
 10
284.9009180233713
 20
147.7119331309422
 30
0.0
  0
VERTEX
  5
370
330
36B
100
AcDbEntity
  8
Make2D$可见线$普通线
100
AcDbVertex
100
AcDb2dVertex
 10
283.797447957007
 20
147.7365322368012
 30
0.0
  0
SEQEND
  5
371
330
36B
100
AcDbEntity
  8
Make2D$可见线$普通线
  0
POLYLINE
  5
372
330
1F
100
AcDbEntity
  8
Make2D$可见线$普通线
100
AcDb2dPolyline
 66
     1
 10
0.0
 20
0.0
 30
0.0
  0
VERTEX
  5
373
330
372
100
AcDbEntity
  8
Make2D$可见线$普通线
100
AcDbVertex
100
AcDb2dVertex
 10
278.6292310113967
 20
153.1326475952338
 30
0.0
  0
VERTEX
  5
374
330
372
100
AcDbEntity
  8
Make2D$可见线$普通线
100
AcDbVertex
100
AcDb2dVertex
 10
278.338297279326
 20
153.3318292960189
 30
0.0
  0
VERTEX
  5
375
330
372
100
AcDbEntity
  8
Make2D$可见线$普通线
100
AcDbVertex
100
AcDb2dVertex
 10
278.2612587072989
 20
153.3356424083248
 30
0.0
  0
VERTEX
  5
376
330
372
100
AcDbEntity
  8
Make2D$可见线$普通线
100
AcDbVertex
100
AcDb2dVertex
 10
278.2365222877468
 20
153.3353163200281
 30
0.0
  0
VERTEX
  5
377
330
372
100
AcDbEntity
  8
Make2D$可见线$普通线
100
AcDbVertex
100
AcDb2dVertex
 10
278.2390762257165
 20
153.2397206655365
 30
0.0
  0
VERTEX
  5
378
330
372
100
AcDbEntity
  8
Make2D$可见线$普通线
100
AcDbVertex
100
AcDb2dVertex
 10
278.3056575870812
 20
153.1127442258455
 30
0.0
  0
VERTEX
  5
379
330
372
100
AcDbEntity
  8
Make2D$可见线$普通线
100
AcDbVertex
100
AcDb2dVertex
 10
278.4157408213049
 20
153.0181273079572
 30
0.0
  0
VERTEX
  5
37A
330
372
100
AcDbEntity
  8
Make2D$可见线$普通线
100
AcDbVertex
100
AcDb2dVertex
 10
278.5478515971529
 20
152.8813562402642
 30
0.0
  0
VERTEX
  5
37B
330
372
100
AcDbEntity
  8
Make2D$可见线$普通线
100
AcDbVertex
100
AcDb2dVertex
 10
278.9500055744127
 20
152.5653673874134
 30
0.0
  0
VERTEX
  5
37C
330
372
100
AcDbEntity
  8
Make2D$可见线$普通线
100
AcDbVertex
100
AcDb2dVertex
 10
279.1201227116396
 20
152.4017271688977
 30
0.0
  0
VERTEX
  5
37D
330
372
100
AcDbEntity
  8
Make2D$可见线$普通线
100
AcDbVertex
100
AcDb2dVertex
 10
279.5083938301425
 20
152.1148346386763
 30
0.0
  0
VERTEX
  5
37E
330
372
100
AcDbEntity
  8
Make2D$可见线$普通线
100
AcDbVertex
100
AcDb2dVertex
 10
280.0632257746977
 20
151.749914294872
 30
0.0
  0
VERTEX
  5
37F
330
372
100
AcDbEntity
  8
Make2D$可见线$普通线
100
AcDbVertex
100
AcDb2dVertex
 10
280.1756874500743
 20
151.6695867491101
 30
0.0
  0
VERTEX
  5
380
330
372
100
AcDbEntity
  8
Make2D$可见线$普通线
100
AcDbVertex
100
AcDb2dVertex
 10
280.2598647938144
 20
151.5905983758522
 30
0.0
  0
VERTEX
  5
381
330
372
100
AcDbEntity
  8
Make2D$可见线$普通线
100
AcDbVertex
100
AcDb2dVertex
 10
280.4764185488027
 20
151.4849837503194
 30
0.0
  0
VERTEX
  5
382
330
372
100
AcDbEntity
  8
Make2D$可见线$普通线
100
AcDbVertex
100
AcDb2dVertex
 10
280.5847861805357
 20
151.5011043480105
 30
0.0
  0
VERTEX
  5
383
330
372
100
AcDbEntity
  8
Make2D$可见线$普通线
100
AcDbVertex
100
AcDb2dVertex
 10
280.5957998223878
 20
151.5583056254169
 30
0.0
  0
VERTEX
  5
384
330
372
100
AcDbEntity
  8
Make2D$可见线$普通线
100
AcDbVertex
100
AcDb2dVertex
 10
280.4264739628424
 20
151.7561710263955
 30
0.0
  0
VERTEX
  5
385
330
372
100
AcDbEntity
  8
Make2D$可见线$普通线
100
AcDbVertex
100
AcDb2dVertex
 10
280.1481500036573
 20
152.0016360585798
 30
0.0
  0
VERTEX
  5
386
330
372
100
AcDbEntity
  8
Make2D$可见线$普通线
100
AcDbVertex
100
AcDb2dVertex
 10
280.0525294235938
 20
152.0505859910267
 30
0.0
  0
VERTEX
  5
387
330
372
100
AcDbEntity
  8
Make2D$可见线$普通线
100
AcDbVertex
100
AcDb2dVertex
 10
279.9948783674514
 20
152.1370439340367
 30
0.0
  0
VERTEX
  5
388
330
372
100
AcDbEntity
  8
Make2D$可见线$普通线
100
AcDbVertex
100
AcDb2dVertex
 10
279.6342946525084
 20
152.3822540033793
 30
0.0
  0
VERTEX
  5
389
330
372
100
AcDbEntity
  8
Make2D$可见线$普通线
100
AcDbVertex
100
AcDb2dVertex
 10
279.0134715596406
 20
152.880567579985
 30
0.0
  0
VERTEX
  5
38A
330
372
100
AcDbEntity
  8
Make2D$可见线$普通线
100
AcDbVertex
100
AcDb2dVertex
 10
278.6292310113967
 20
153.1326475952338
 30
0.0
  0
SEQEND
  5
38B
330
372
100
AcDbEntity
  8
Make2D$可见线$普通线
  0
POLYLINE
  5
38C
330
1F
100
AcDbEntity
  8
Make2D$可见线$普通线
100
AcDb2dPolyline
 66
     1
 10
0.0
 20
0.0
 30
0.0
  0
VERTEX
  5
38D
330
38C
100
AcDbEntity
  8
Make2D$可见线$普通线
100
AcDbVertex
100
AcDb2dVertex
 10
283.2583922984541
 20
154.8785099955063
 30
0.0
  0
VERTEX
  5
38E
330
38C
100
AcDbEntity
  8
Make2D$可见线$普通线
100
AcDbVertex
100
AcDb2dVertex
 10
282.9800739061668
 20
154.9170534671878
 30
0.0
  0
VERTEX
  5
38F
330
38C
100
AcDbEntity
  8
Make2D$可见线$普通线
100
AcDbVertex
100
AcDb2dVertex
 10
282.87201452446
 20
154.9695175297163
 30
0.0
  0
VERTEX
  5
390
330
38C
100
AcDbEntity
  8
Make2D$可见线$普通线
100
AcDbVertex
100
AcDb2dVertex
 10
282.3644515455801
 20
154.9887351970186
 30
0.0
  0
VERTEX
  5
391
330
38C
100
AcDbEntity
  8
Make2D$可见线$普通线
100
AcDbVertex
100
AcDb2dVertex
 10
282.3450835603684
 20
154.9445537685352
 30
0.0
  0
VERTEX
  5
392
330
38C
100
AcDbEntity
  8
Make2D$可见线$普通线
100
AcDbVertex
100
AcDb2dVertex
 10
282.3401286231594
 20
154.8754437380454
 30
0.0
  0
VERTEX
  5
393
330
38C
100
AcDbEntity
  8
Make2D$可见线$普通线
100
AcDbVertex
100
AcDb2dVertex
 10
282.3858432579591
 20
154.8321104107347
 30
0.0
  0
VERTEX
  5
394
330
38C
100
AcDbEntity
  8
Make2D$可见线$普通线
100
AcDbVertex
100
AcDb2dVertex
 10
282.5313107533484
 20
154.7130529466957
 30
0.0
  0
VERTEX
  5
395
330
38C
100
AcDbEntity
  8
Make2D$可见线$普通线
100
AcDbVertex
100
AcDb2dVertex
 10
282.6274116629949
 20
154.6603095216115
 30
0.0
  0
VERTEX
  5
396
330
38C
100
AcDbEntity
  8
Make2D$可见线$普通线
100
AcDbVertex
100
AcDb2dVertex
 10
282.9121710195814
 20
154.424093281959
 30
0.0
  0
VERTEX
  5
397
330
38C
100
AcDbEntity
  8
Make2D$可见线$普通线
100
AcDbVertex
100
AcDb2dVertex
 10
283.0806539025609
 20
154.3098011746565
 30
0.0
  0
VERTEX
  5
398
330
38C
100
AcDbEntity
  8
Make2D$可见线$普通线
100
AcDbVertex
100
AcDb2dVertex
 10
283.2114600849809
 20
154.1836620102176
 30
0.0
  0
VERTEX
  5
399
330
38C
100
AcDbEntity
  8
Make2D$可见线$普通线
100
AcDbVertex
100
AcDb2dVertex
 10
283.3082122977871
 20
154.1277097701096
 30
0.0
  0
VERTEX
  5
39A
330
38C
100
AcDbEntity
  8
Make2D$可见线$普通线
100
AcDbVertex
100
AcDb2dVertex
 10
283.6376895623425
 20
153.8869433800068
 30
0.0
  0
VERTEX
  5
39B
330
38C
100
AcDbEntity
  8
Make2D$可见线$普通线
100
AcDbVertex
100
AcDb2dVertex
 10
283.8517340865961
 20
153.713783970283
 30
0.0
  0
VERTEX
  5
39C
330
38C
100
AcDbEntity
  8
Make2D$可见线$普通线
100
AcDbVertex
100
AcDb2dVertex
 10
284.3333376055841
 20
153.3800780559352
 30
0.0
  0
VERTEX
  5
39D
330
38C
100
AcDbEntity
  8
Make2D$可见线$普通线
100
AcDbVertex
100
AcDb2dVertex
 10
284.8807484084274
 20
153.0443347890374
 30
0.0
  0
VERTEX
  5
39E
330
38C
100
AcDbEntity
  8
Make2D$可见线$普通线
100
AcDbVertex
100
AcDb2dVertex
 10
285.1940925370274
 20
152.8387391257482
 30
0.0
  0
VERTEX
  5
39F
330
38C
100
AcDbEntity
  8
Make2D$可见线$普通线
100
AcDbVertex
100
AcDb2dVertex
 10
285.3889367804915
 20
152.7410088303832
 30
0.0
  0
VERTEX
  5
3A0
330
38C
100
AcDbEntity
  8
Make2D$可见线$普通线
100
AcDbVertex
100
AcDb2dVertex
 10
285.5917349822353
 20
152.657769660254
 30
0.0
  0
VERTEX
  5
3A1
330
38C
100
AcDbEntity
  8
Make2D$可见线$普通线
100
AcDbVertex
100
AcDb2dVertex
 10
285.6723608958617
 20
152.6120415604129
 30
0.0
  0
VERTEX
  5
3A2
330
38C
100
AcDbEntity
  8
Make2D$可见线$普通线
100
AcDbVertex
100
AcDb2dVertex
 10
286.0978178121326
 20
152.5230456102491
 30
0.0
  0
VERTEX
  5
3A3
330
38C
100
AcDbEntity
  8
Make2D$可见线$普通线
100
AcDbVertex
100
AcDb2dVertex
 10
286.3082908608607
 20
152.4740182779399
 30
0.0
  0
VERTEX
  5
3A4
330
38C
100
AcDbEntity
  8
Make2D$可见线$普通线
100
AcDbVertex
100
AcDb2dVertex
 10
286.4796789934755
 20
152.4874736341991
 30
0.0
  0
VERTEX
  5
3A5
330
38C
100
AcDbEntity
  8
Make2D$可见线$普通线
100
AcDbVertex
100
AcDb2dVertex
 10
286.5354665348632
 20
152.5799284699126
 30
0.0
  0
VERTEX
  5
3A6
330
38C
100
AcDbEntity
  8
Make2D$可见线$普通线
100
AcDbVertex
100
AcDb2dVertex
 10
286.5498583553738
 20
152.6935309551711
 30
0.0
  0
VERTEX
  5
3A7
330
38C
100
AcDbEntity
  8
Make2D$可见线$普通线
100
AcDbVertex
100
AcDb2dVertex
 10
286.4637750457184
 20
152.8600819235794
 30
0.0
  0
VERTEX
  5
3A8
330
38C
100
AcDbEntity
  8
Make2D$可见线$普通线
100
AcDbVertex
100
AcDb2dVertex
 10
286.2918069302121
 20
153.0664032794666
 30
0.0
  0
VERTEX
  5
3A9
330
38C
100
AcDbEntity
  8
Make2D$可见线$普通线
100
AcDbVertex
100
AcDb2dVertex
 10
286.1194965505671
 20
153.2984907635404
 30
0.0
  0
VERTEX
  5
3AA
330
38C
100
AcDbEntity
  8
Make2D$可见线$普通线
100
AcDbVertex
100
AcDb2dVertex
 10
285.9411235884653
 20
153.4740040259996
 30
0.0
  0
VERTEX
  5
3AB
330
38C
100
AcDbEntity
  8
Make2D$可见线$普通线
100
AcDbVertex
100
AcDb2dVertex
 10
285.737843931529
 20
153.6432159407292
 30
0.0
  0
VERTEX
  5
3AC
330
38C
100
AcDbEntity
  8
Make2D$可见线$普通线
100
AcDbVertex
100
AcDb2dVertex
 10
285.3776988941681
 20
153.8896284818393
 30
0.0
  0
VERTEX
  5
3AD
330
38C
100
AcDbEntity
  8
Make2D$可见线$普通线
100
AcDbVertex
100
AcDb2dVertex
 10
285.2069371168517
 20
154.0189350427964
 30
0.0
  0
VERTEX
  5
3AE
330
38C
100
AcDbEntity
  8
Make2D$可见线$普通线
100
AcDbVertex
100
AcDb2dVertex
 10
285.0190709229687
 20
154.0774994136309
 30
0.0
  0
VERTEX
  5
3AF
330
38C
100
AcDbEntity
  8
Make2D$可见线$普通线
100
AcDbVertex
100
AcDb2dVertex
 10
284.8392160562166
 20
154.1852286483988
 30
0.0
  0
VERTEX
  5
3B0
330
38C
100
AcDbEntity
  8
Make2D$可见线$普通线
100
AcDbVertex
100
AcDb2dVertex
 10
284.7647229169662
 20
154.2557473998119
 30
0.0
  0
VERTEX
  5
3B1
330
38C
100
AcDbEntity
  8
Make2D$可见线$普通线
100
AcDbVertex
100
AcDb2dVertex
 10
284.4207891121923
 20
154.4435858261705
 30
0.0
  0
VERTEX
  5
3B2
330
38C
100
AcDbEntity
  8
Make2D$可见线$普通线
100
AcDbVertex
100
AcDb2dVertex
 10
284.2976493749001
 20
154.4994994601534
 30
0.0
  0
VERTEX
  5
3B3
330
38C
100
AcDbEntity
  8
Make2D$可见线$普通线
100
AcDbVertex
100
AcDb2dVertex
 10
284.2066061113694
 20
154.5494441994181
 30
0.0
  0
VERTEX
  5
3B4
330
38C
100
AcDbEntity
  8
Make2D$可见线$普通线
100
AcDbVertex
100
AcDb2dVertex
 10
284.077486783973
 20
154.6023119297689
 30
0.0
  0
VERTEX
  5
3B5
330
38C
100
AcDbEntity
  8
Make2D$可见线$普通线
100
AcDbVertex
100
AcDb2dVertex
 10
283.950001519294
 20
154.6480718269836
 30
0.0
  0
VERTEX
  5
3B6
330
38C
100
AcDbEntity
  8
Make2D$可见线$普通线
100
AcDbVertex
100
AcDb2dVertex
 10
283.7998020538469
 20
154.7384587358127
 30
0.0
  0
VERTEX
  5
3B7
330
38C
100
AcDbEntity
  8
Make2D$可见线$普通线
100
AcDbVertex
100
AcDb2dVertex
 10
283.536820594227
 20
154.7923171059267
 30
0.0
  0
VERTEX
  5
3B8
330
38C
100
AcDbEntity
  8
Make2D$可见线$普通线
100
AcDbVertex
100
AcDb2dVertex
 10
283.4354696828128
 20
154.8101975179487
 30
0.0
  0
VERTEX
  5
3B9
330
38C
100
AcDbEntity
  8
Make2D$可见线$普通线
100
AcDbVertex
100
AcDb2dVertex
 10
283.2583922984541
 20
154.8785099955063
 30
0.0
  0
SEQEND
  5
3BA
330
38C
100
AcDbEntity
  8
Make2D$可见线$普通线
  0
POLYLINE
  5
3BB
330
1F
100
AcDbEntity
  8
Make2D$可见线$普通线
100
AcDb2dPolyline
 66
     1
 10
0.0
 20
0.0
 30
0.0
  0
VERTEX
  5
3BC
330
3BB
100
AcDbEntity
  8
Make2D$可见线$普通线
100
AcDbVertex
100
AcDb2dVertex
 10
281.1863323232969
 20
158.23256171712
 30
0.0
  0
VERTEX
  5
3BD
330
3BB
100
AcDbEntity
  8
Make2D$可见线$普通线
100
AcDbVertex
100
AcDb2dVertex
 10
281.1290760584523
 20
158.1349497568119
 30
0.0
  0
VERTEX
  5
3BE
330
3BB
100
AcDbEntity
  8
Make2D$可见线$普通线
100
AcDbVertex
100
AcDb2dVertex
 10
281.1153194122826
 20
158.0786139419599
 30
0.0
  0
VERTEX
  5
3BF
330
3BB
100
AcDbEntity
  8
Make2D$可见线$普通线
100
AcDbVertex
100
AcDb2dVertex
 10
281.1290877375488
 20
157.983594762788
 30
0.0
  0
VERTEX
  5
3C0
330
3BB
100
AcDbEntity
  8
Make2D$可见线$普通线
100
AcDbVertex
100
AcDb2dVertex
 10
281.2639057271474
 20
157.8488787534443
 30
0.0
  0
VERTEX
  5
3C1
330
3BB
100
AcDbEntity
  8
Make2D$可见线$普通线
100
AcDbVertex
100
AcDb2dVertex
 10
281.5915674664141
 20
157.2664129280093
 30
0.0
  0
VERTEX
  5
3C2
330
3BB
100
AcDbEntity
  8
Make2D$可见线$普通线
100
AcDbVertex
100
AcDb2dVertex
 10
281.7499273724353
 20
157.2664056543545
 30
0.0
  0
VERTEX
  5
3C3
330
3BB
100
AcDbEntity
  8
Make2D$可见线$普通线
100
AcDbVertex
100
AcDb2dVertex
 10
281.8648220538746
 20
157.3725735859513
 30
0.0
  0
VERTEX
  5
3C4
330
3BB
100
AcDbEntity
  8
Make2D$可见线$普通线
100
AcDbVertex
100
AcDb2dVertex
 10
281.9364264582355
 20
157.5970445389229
 30
0.0
  0
VERTEX
  5
3C5
330
3BB
100
AcDbEntity
  8
Make2D$可见线$普通线
100
AcDbVertex
100
AcDb2dVertex
 10
281.9095250134897
 20
157.8867071484771
 30
0.0
  0
VERTEX
  5
3C6
330
3BB
100
AcDbEntity
  8
Make2D$可见线$普通线
100
AcDbVertex
100
AcDb2dVertex
 10
281.8585384932404
 20
158.0099697836023
 30
0.0
  0
VERTEX
  5
3C7
330
3BB
100
AcDbEntity
  8
Make2D$可见线$普通线
100
AcDbVertex
100
AcDb2dVertex
 10
281.83534263065
 20
158.2007351394454
 30
0.0
  0
VERTEX
  5
3C8
330
3BB
100
AcDbEntity
  8
Make2D$可见线$普通线
100
AcDbVertex
100
AcDb2dVertex
 10
281.7014670617558
 20
158.3556862074161
 30
0.0
  0
VERTEX
  5
3C9
330
3BB
100
AcDbEntity
  8
Make2D$可见线$普通线
100
AcDbVertex
100
AcDb2dVertex
 10
281.4204394014358
 20
158.3862586824445
 30
0.0
  0
VERTEX
  5
3CA
330
3BB
100
AcDbEntity
  8
Make2D$可见线$普通线
100
AcDbVertex
100
AcDb2dVertex
 10
281.2724741505406
 20
158.3414500617671
 30
0.0
  0
VERTEX
  5
3CB
330
3BB
100
AcDbEntity
  8
Make2D$可见线$普通线
100
AcDbVertex
100
AcDb2dVertex
 10
281.1863323232969
 20
158.23256171712
 30
0.0
  0
SEQEND
  5
3CC
330
3BB
100
AcDbEntity
  8
Make2D$可见线$普通线
  0
POLYLINE
  5
3CD
330
1F
100
AcDbEntity
  8
Make2D$可见线$普通线
100
AcDb2dPolyline
 66
     1
 10
0.0
 20
0.0
 30
0.0
  0
VERTEX
  5
3CE
330
3CD
100
AcDbEntity
  8
Make2D$可见线$普通线
100
AcDbVertex
100
AcDb2dVertex
 10
281.5390525490192
 20
152.8443565330633
 30
0.0
  0
VERTEX
  5
3CF
330
3CD
100
AcDbEntity
  8
Make2D$可见线$普通线
100
AcDbVertex
100
AcDb2dVertex
 10
281.4357819014457
 20
152.9243224025655
 30
0.0
  0
VERTEX
  5
3D0
330
3CD
100
AcDbEntity
  8
Make2D$可见线$普通线
100
AcDbVertex
100
AcDb2dVertex
 10
281.3688754616918
 20
152.9301282251718
 30
0.0
  0
VERTEX
  5
3D1
330
3CD
100
AcDbEntity
  8
Make2D$可见线$普通线
100
AcDbVertex
100
AcDb2dVertex
 10
281.3706936027475
 20
152.9112025983356
 30
0.0
  0
VERTEX
  5
3D2
330
3CD
100
AcDbEntity
  8
Make2D$可见线$普通线
100
AcDbVertex
100
AcDb2dVertex
 10
281.3648951702583
 20
152.8471815029011
 30
0.0
  0
VERTEX
  5
3D3
330
3CD
100
AcDbEntity
  8
Make2D$可见线$普通线
100
AcDbVertex
100
AcDb2dVertex
 10
281.7075791978699
 20
152.4294234791122
 30
0.0
  0
VERTEX
  5
3D4
330
3CD
100
AcDbEntity
  8
Make2D$可见线$普通线
100
AcDbVertex
100
AcDb2dVertex
 10
281.8022931931572
 20
152.3809328998449
 30
0.0
  0
VERTEX
  5
3D5
330
3CD
100
AcDbEntity
  8
Make2D$可见线$普通线
100
AcDbVertex
100
AcDb2dVertex
 10
281.8553380533947
 20
152.4162511058788
 30
0.0
  0
VERTEX
  5
3D6
330
3CD
100
AcDbEntity
  8
Make2D$可见线$普通线
100
AcDbVertex
100
AcDb2dVertex
 10
281.8419212943537
 20
152.5156473871765
 30
0.0
  0
VERTEX
  5
3D7
330
3CD
100
AcDbEntity
  8
Make2D$可见线$普通线
100
AcDbVertex
100
AcDb2dVertex
 10
281.5390525490192
 20
152.8443565330633
 30
0.0
  0
SEQEND
  5
3D8
330
3CD
100
AcDbEntity
  8
Make2D$可见线$普通线
  0
POLYLINE
  5
3D9
330
1F
100
AcDbEntity
  8
Make2D$可见线$普通线
100
AcDb2dPolyline
 66
     1
 10
0.0
 20
0.0
 30
0.0
  0
VERTEX
  5
3DA
330
3D9
100
AcDbEntity
  8
Make2D$可见线$普通线
100
AcDbVertex
100
AcDb2dVertex
 10
281.1399356487445
 20
149.7602593357004
 30
0.0
  0
VERTEX
  5
3DB
330
3D9
100
AcDbEntity
  8
Make2D$可见线$普通线
100
AcDbVertex
100
AcDb2dVertex
 10
281.037439131469
 20
149.7674178882775
 30
0.0
  0
VERTEX
  5
3DC
330
3D9
100
AcDbEntity
  8
Make2D$可见线$普通线
100
AcDbVertex
100
AcDb2dVertex
 10
281.0163500074603
 20
149.7534505769016
 30
0.0
  0
VERTEX
  5
3DD
330
3D9
100
AcDbEntity
  8
Make2D$可见线$普通线
100
AcDbVertex
100
AcDb2dVertex
 10
281.0253909173344
 20
149.6912176854113
 30
0.0
  0
VERTEX
  5
3DE
330
3D9
100
AcDbEntity
  8
Make2D$可见线$普通线
100
AcDbVertex
100
AcDb2dVertex
 10
281.1663045892965
 20
149.5867855648858
 30
0.0
  0
VERTEX
  5
3DF
330
3D9
100
AcDbEntity
  8
Make2D$可见线$普通线
100
AcDbVertex
100
AcDb2dVertex
 10
281.3245062165923
 20
149.4413302645659
 30
0.0
  0
VERTEX
  5
3E0
330
3D9
100
AcDbEntity
  8
Make2D$可见线$普通线
100
AcDbVertex
100
AcDb2dVertex
 10
281.4264785389233
 20
149.3974818867147
 30
0.0
  0
VERTEX
  5
3E1
330
3D9
100
AcDbEntity
  8
Make2D$可见线$普通线
100
AcDbVertex
100
AcDb2dVertex
 10
281.466476707111
 20
149.3990155721449
 30
0.0
  0
VERTEX
  5
3E2
330
3D9
100
AcDbEntity
  8
Make2D$可见线$普通线
100
AcDbVertex
100
AcDb2dVertex
 10
281.4847184344139
 20
149.4526142960818
 30
0.0
  0
VERTEX
  5
3E3
330
3D9
100
AcDbEntity
  8
Make2D$可见线$普通线
100
AcDbVertex
100
AcDb2dVertex
 10
281.4718630563527
 20
149.4728917278883
 30
0.0
  0
VERTEX
  5
3E4
330
3D9
100
AcDbEntity
  8
Make2D$可见线$普通线
100
AcDbVertex
100
AcDb2dVertex
 10
281.1998735394395
 20
149.7286639838788
 30
0.0
  0
VERTEX
  5
3E5
330
3D9
100
AcDbEntity
  8
Make2D$可见线$普通线
100
AcDbVertex
100
AcDb2dVertex
 10
281.1399356487445
 20
149.7602593357004
 30
0.0
  0
SEQEND
  5
3E6
330
3D9
100
AcDbEntity
  8
Make2D$可见线$普通线
  0
POLYLINE
  5
3E7
330
1F
100
AcDbEntity
  8
Make2D$可见线$普通线
100
AcDb2dPolyline
 66
     1
 10
0.0
 20
0.0
 30
0.0
  0
VERTEX
  5
3E8
330
3E7
100
AcDbEntity
  8
Make2D$可见线$普通线
100
AcDbVertex
100
AcDb2dVertex
 10
284.7070331181513
 20
132.6316050856676
 30
0.0
  0
VERTEX
  5
3E9
330
3E7
100
AcDbEntity
  8
Make2D$可见线$普通线
100
AcDbVertex
100
AcDb2dVertex
 10
284.6973165149084
 20
132.6494181815827
 30
0.0
  0
VERTEX
  5
3EA
330
3E7
100
AcDbEntity
  8
Make2D$可见线$普通线
100
AcDbVertex
100
AcDb2dVertex
 10
284.6313381271823
 20
132.6445814048232
 30
0.0
  0
VERTEX
  5
3EB
330
3E7
100
AcDbEntity
  8
Make2D$可见线$普通线
100
AcDbVertex
100
AcDb2dVertex
 10
284.6158154393725
 20
132.6064905361135
 30
0.0
  0
VERTEX
  5
3EC
330
3E7
100
AcDbEntity
  8
Make2D$可见线$普通线
100
AcDbVertex
100
AcDb2dVertex
 10
284.614371963537
 20
132.5292628766796
 30
0.0
  0
VERTEX
  5
3ED
330
3E7
100
AcDbEntity
  8
Make2D$可见线$普通线
100
AcDbVertex
100
AcDb2dVertex
 10
284.6475022848897
 20
132.4987249135713
 30
0.0
  0
VERTEX
  5
3EE
330
3E7
100
AcDbEntity
  8
Make2D$可见线$普通线
100
AcDbVertex
100
AcDb2dVertex
 10
284.7153221141682
 20
132.3459036999238
 30
0.0
  0
VERTEX
  5
3EF
330
3E7
100
AcDbEntity
  8
Make2D$可见线$普通线
100
AcDbVertex
100
AcDb2dVertex
 10
284.8943086246721
 20
132.1354236208797
 30
0.0
  0
VERTEX
  5
3F0
330
3E7
100
AcDbEntity
  8
Make2D$可见线$普通线
100
AcDbVertex
100
AcDb2dVertex
 10
285.1712175998754
 20
131.7643089572902
 30
0.0
  0
VERTEX
  5
3F1
330
3E7
100
AcDbEntity
  8
Make2D$可见线$普通线
100
AcDbVertex
100
AcDb2dVertex
 10
285.5332049915309
 20
131.3951306802869
 30
0.0
  0
VERTEX
  5
3F2
330
3E7
100
AcDbEntity
  8
Make2D$可见线$普通线
100
AcDbVertex
100
AcDb2dVertex
 10
286.1687682726985
 20
130.8409971409245
 30
0.0
  0
VERTEX
  5
3F3
330
3E7
100
AcDbEntity
  8
Make2D$可见线$普通线
100
AcDbVertex
100
AcDb2dVertex
 10
286.3319572413353
 20
130.7271756314818
 30
0.0
  0
VERTEX
  5
3F4
330
3E7
100
AcDbEntity
  8
Make2D$可见线$普通线
100
AcDbVertex
100
AcDb2dVertex
 10
286.4558034984964
 20
130.6177132073348
 30
0.0
  0
VERTEX
  5
3F5
330
3E7
100
AcDbEntity
  8
Make2D$可见线$普通线
100
AcDbVertex
100
AcDb2dVertex
 10
286.949383217387
 20
130.3492481590011
 30
0.0
  0
VERTEX
  5
3F6
330
3E7
100
AcDbEntity
  8
Make2D$可见线$普通线
100
AcDbVertex
100
AcDb2dVertex
 10
287.1369101694129
 20
130.2684085928367
 30
0.0
  0
VERTEX
  5
3F7
330
3E7
100
AcDbEntity
  8
Make2D$可见线$普通线
100
AcDbVertex
100
AcDb2dVertex
 10
287.2573670252827
 20
130.189545066601
 30
0.0
  0
VERTEX
  5
3F8
330
3E7
100
AcDbEntity
  8
Make2D$可见线$普通线
100
AcDbVertex
100
AcDb2dVertex
 10
287.4572559083047
 20
130.187840922642
 30
0.0
  0
VERTEX
  5
3F9
330
3E7
100
AcDbEntity
  8
Make2D$可见线$普通线
100
AcDbVertex
100
AcDb2dVertex
 10
287.6171908131519
 20
130.1014495405348
 30
0.0
  0
VERTEX
  5
3FA
330
3E7
100
AcDbEntity
  8
Make2D$可见线$普通线
100
AcDbVertex
100
AcDb2dVertex
 10
287.7415972483216
 20
130.0752604116994
 30
0.0
  0
VERTEX
  5
3FB
330
3E7
100
AcDbEntity
  8
Make2D$可见线$普通线
100
AcDbVertex
100
AcDb2dVertex
 10
287.7888557370298
 20
130.086993176798
 30
0.0
  0
VERTEX
  5
3FC
330
3E7
100
AcDbEntity
  8
Make2D$可见线$普通线
100
AcDbVertex
100
AcDb2dVertex
 10
287.8092788325943
 20
130.1620083198662
 30
0.0
  0
VERTEX
  5
3FD
330
3E7
100
AcDbEntity
  8
Make2D$可见线$普通线
100
AcDbVertex
100
AcDb2dVertex
 10
287.7996154342679
 20
130.2576052167066
 30
0.0
  0
VERTEX
  5
3FE
330
3E7
100
AcDbEntity
  8
Make2D$可见线$普通线
100
AcDbVertex
100
AcDb2dVertex
 10
287.7033684344459
 20
130.363974703034
 30
0.0
  0
VERTEX
  5
3FF
330
3E7
100
AcDbEntity
  8
Make2D$可见线$普通线
100
AcDbVertex
100
AcDb2dVertex
 10
287.4793416857791
 20
130.5311520867327
 30
0.0
  0
VERTEX
  5
400
330
3E7
100
AcDbEntity
  8
Make2D$可见线$普通线
100
AcDbVertex
100
AcDb2dVertex
 10
286.7596606887885
 20
131.1585771168867
 30
0.0
  0
VERTEX
  5
401
330
3E7
100
AcDbEntity
  8
Make2D$可见线$普通线
100
AcDbVertex
100
AcDb2dVertex
 10
286.5882756789327
 20
131.2670908519865
 30
0.0
  0
VERTEX
  5
402
330
3E7
100
AcDbEntity
  8
Make2D$可见线$普通线
100
AcDbVertex
100
AcDb2dVertex
 10
286.531471833621
 20
131.3454270379631
 30
0.0
  0
VERTEX
  5
403
330
3E7
100
AcDbEntity
  8
Make2D$可见线$普通线
100
AcDbVertex
100
AcDb2dVertex
 10
286.3259384385915
 20
131.4547531385775
 30
0.0
  0
VERTEX
  5
404
330
3E7
100
AcDbEntity
  8
Make2D$可见线$普通线
100
AcDbVertex
100
AcDb2dVertex
 10
286.1300146099126
 20
131.6454570350661
 30
0.0
  0
VERTEX
  5
405
330
3E7
100
AcDbEntity
  8
Make2D$可见线$普通线
100
AcDbVertex
100
AcDb2dVertex
 10
285.9761891983359
 20
131.7301778032306
 30
0.0
  0
VERTEX
  5
406
330
3E7
100
AcDbEntity
  8
Make2D$可见线$普通线
100
AcDbVertex
100
AcDb2dVertex
 10
285.7250951178057
 20
131.9706305593535
 30
0.0
  0
VERTEX
  5
407
330
3E7
100
AcDbEntity
  8
Make2D$可见线$普通线
100
AcDbVertex
100
AcDb2dVertex
 10
285.4127797495569
 20
132.1824913564202
 30
0.0
  0
VERTEX
  5
408
330
3E7
100
AcDbEntity
  8
Make2D$可见线$普通线
100
AcDbVertex
100
AcDb2dVertex
 10
285.2563039767492
 20
132.2709246129749
 30
0.0
  0
VERTEX
  5
409
330
3E7
100
AcDbEntity
  8
Make2D$可见线$普通线
100
AcDbVertex
100
AcDb2dVertex
 10
284.8433698636924
 20
132.5832830527527
 30
0.0
  0
VERTEX
  5
40A
330
3E7
100
AcDbEntity
  8
Make2D$可见线$普通线
100
AcDbVertex
100
AcDb2dVertex
 10
284.7820762457053
 20
132.5735068583567
 30
0.0
  0
VERTEX
  5
40B
330
3E7
100
AcDbEntity
  8
Make2D$可见线$普通线
100
AcDbVertex
100
AcDb2dVertex
 10
284.7070331181513
 20
132.6316050856676
 30
0.0
  0
SEQEND
  5
40C
330
3E7
100
AcDbEntity
  8
Make2D$可见线$普通线
  0
POLYLINE
  5
40D
330
1F
100
AcDbEntity
  8
Make2D$可见线$普通线
100
AcDb2dPolyline
 66
     1
 10
0.0
 20
0.0
 30
0.0
  0
VERTEX
  5
40E
330
40D
100
AcDbEntity
  8
Make2D$可见线$普通线
100
AcDbVertex
100
AcDb2dVertex
 10
281.6571195833299
 20
147.8376172685639
 30
0.0
  0
VERTEX
  5
40F
330
40D
100
AcDbEntity
  8
Make2D$可见线$普通线
100
AcDbVertex
100
AcDb2dVertex
 10
281.3505642362825
 20
148.3220769621098
 30
0.0
  0
VERTEX
  5
410
330
40D
100
AcDbEntity
  8
Make2D$可见线$普通线
100
AcDbVertex
100
AcDb2dVertex
 10
281.291249464012
 20
148.3631511887626
 30
0.0
  0
VERTEX
  5
411
330
40D
100
AcDbEntity
  8
Make2D$可见线$普通线
100
AcDbVertex
100
AcDb2dVertex
 10
281.2672660742425
 20
148.3481148580345
 30
0.0
 42
0.0161708408692651
  0
VERTEX
  5
412
330
40D
100
AcDbEntity
  8
Make2D$可见线$普通线
100
AcDbVertex
100
AcDb2dVertex
 10
281.3110972155361
 20
146.1790796944985
 30
0.0
  0
VERTEX
  5
413
330
40D
100
AcDbEntity
  8
Make2D$可见线$普通线
100
AcDbVertex
100
AcDb2dVertex
 10
281.3922308649322
 20
145.9090383311893
 30
0.0
  0
VERTEX
  5
414
330
40D
100
AcDbEntity
  8
Make2D$可见线$普通线
100
AcDbVertex
100
AcDb2dVertex
 10
281.4896776078751
 20
145.2278709396476
 30
0.0
 42
0.0242740339987083
  0
VERTEX
  5
415
330
40D
100
AcDbEntity
  8
Make2D$可见线$普通线
100
AcDbVertex
100
AcDb2dVertex
 10
281.9586890129029
 20
143.8893566971349
 30
0.0
  0
VERTEX
  5
416
330
40D
100
AcDbEntity
  8
Make2D$可见线$普通线
100
AcDbVertex
100
AcDb2dVertex
 10
282.21565888436
 20
143.4323587074881
 30
0.0
  0
VERTEX
  5
417
330
40D
100
AcDbEntity
  8
Make2D$可见线$普通线
100
AcDbVertex
100
AcDb2dVertex
 10
282.3834958042621
 20
143.1807356022426
 30
0.0
  0
VERTEX
  5
418
330
40D
100
AcDbEntity
  8
Make2D$可见线$普通线
100
AcDbVertex
100
AcDb2dVertex
 10
282.5356029001699
 20
143.0665153675433
 30
0.0
  0
VERTEX
  5
419
330
40D
100
AcDbEntity
  8
Make2D$可见线$普通线
100
AcDbVertex
100
AcDb2dVertex
 10
282.6548603414836
 20
143.0601519434264
 30
0.0
  0
VERTEX
  5
41A
330
40D
100
AcDbEntity
  8
Make2D$可见线$普通线
100
AcDbVertex
100
AcDb2dVertex
 10
282.7511085346734
 20
143.1061762742817
 30
0.0
  0
VERTEX
  5
41B
330
40D
100
AcDbEntity
  8
Make2D$可见线$普通线
100
AcDbVertex
100
AcDb2dVertex
 10
282.818465664005
 20
143.2916310002959
 30
0.0
  0
VERTEX
  5
41C
330
40D
100
AcDbEntity
  8
Make2D$可见线$普通线
100
AcDbVertex
100
AcDb2dVertex
 10
282.7861591724585
 20
144.1923466751597
 30
0.0
  0
VERTEX
  5
41D
330
40D
100
AcDbEntity
  8
Make2D$可见线$普通线
100
AcDbVertex
100
AcDb2dVertex
 10
282.7346740248827
 20
144.5750785605009
 30
0.0
  0
VERTEX
  5
41E
330
40D
100
AcDbEntity
  8
Make2D$可见线$普通线
100
AcDbVertex
100
AcDb2dVertex
 10
282.6138729741249
 20
145.0110743320917
 30
0.0
  0
VERTEX
  5
41F
330
40D
100
AcDbEntity
  8
Make2D$可见线$普通线
100
AcDbVertex
100
AcDb2dVertex
 10
282.6034556692208
 20
145.2087538351656
 30
0.0
  0
VERTEX
  5
420
330
40D
100
AcDbEntity
  8
Make2D$可见线$普通线
100
AcDbVertex
100
AcDb2dVertex
 10
282.542535702448
 20
145.3711052195978
 30
0.0
  0
VERTEX
  5
421
330
40D
100
AcDbEntity
  8
Make2D$可见线$普通线
100
AcDbVertex
100
AcDb2dVertex
 10
282.4562334960045
 20
145.7432273427954
 30
0.0
  0
VERTEX
  5
422
330
40D
100
AcDbEntity
  8
Make2D$可见线$普通线
100
AcDbVertex
100
AcDb2dVertex
 10
282.1783139970288
 20
146.5812769361938
 30
0.0
 42
-0.0186020981313727
  0
VERTEX
  5
423
330
40D
100
AcDbEntity
  8
Make2D$可见线$普通线
100
AcDbVertex
100
AcDb2dVertex
 10
281.6571195833299
 20
147.8376172685639
 30
0.0
  0
SEQEND
  5
424
330
40D
100
AcDbEntity
  8
Make2D$可见线$普通线
  0
POLYLINE
  5
425
330
1F
100
AcDbEntity
  8
Make2D$可见线$普通线
100
AcDb2dPolyline
 66
     1
 10
0.0
 20
0.0
 30
0.0
  0
VERTEX
  5
426
330
425
100
AcDbEntity
  8
Make2D$可见线$普通线
100
AcDbVertex
100
AcDb2dVertex
 10
284.2948065168442
 20
146.0479110681918
 30
0.0
  0
VERTEX
  5
427
330
425
100
AcDbEntity
  8
Make2D$可见线$普通线
100
AcDbVertex
100
AcDb2dVertex
 10
284.2503816179602
 20
146.1257014141211
 30
0.0
  0
VERTEX
  5
428
330
425
100
AcDbEntity
  8
Make2D$可见线$普通线
100
AcDbVertex
100
AcDb2dVertex
 10
284.1952959948851
 20
146.1676000617299
 30
0.0
  0
VERTEX
  5
429
330
425
100
AcDbEntity
  8
Make2D$可见线$普通线
100
AcDbVertex
100
AcDb2dVertex
 10
284.1382597748869
 20
146.1767298160886
 30
0.0
  0
VERTEX
  5
42A
330
425
100
AcDbEntity
  8
Make2D$可见线$普通线
100
AcDbVertex
100
AcDb2dVertex
 10
284.0521200449823
 20
146.1746747622365
 30
0.0
  0
VERTEX
  5
42B
330
425
100
AcDbEntity
  8
Make2D$可见线$普通线
100
AcDbVertex
100
AcDb2dVertex
 10
284.0028425470164
 20
146.1444282348992
 30
0.0
  0
VERTEX
  5
42C
330
425
100
AcDbEntity
  8
Make2D$可见线$普通线
100
AcDbVertex
100
AcDb2dVertex
 10
283.9691431115729
 20
146.0928256125577
 30
0.0
  0
VERTEX
  5
42D
330
425
100
AcDbEntity
  8
Make2D$可见线$普通线
100
AcDbVertex
100
AcDb2dVertex
 10
283.9489286062669
 20
146.0057543922113
 30
0.0
  0
VERTEX
  5
42E
330
425
100
AcDbEntity
  8
Make2D$可见线$普通线
100
AcDbVertex
100
AcDb2dVertex
 10
283.9396173160577
 20
145.9056644538806
 30
0.0
  0
VERTEX
  5
42F
330
425
100
AcDbEntity
  8
Make2D$可见线$普通线
100
AcDbVertex
100
AcDb2dVertex
 10
283.9396173160577
 20
145.8174999508173
 30
0.0
  0
VERTEX
  5
430
330
425
100
AcDbEntity
  8
Make2D$可见线$普通线
100
AcDbVertex
100
AcDb2dVertex
 10
284.3135516076818
 20
145.8134375799311
 30
0.0
  0
VERTEX
  5
431
330
425
100
AcDbEntity
  8
Make2D$可见线$普通线
100
AcDbVertex
100
AcDb2dVertex
 10
284.3134836992959
 20
145.9647122932653
 30
0.0
  0
VERTEX
  5
432
330
425
100
AcDbEntity
  8
Make2D$可见线$普通线
100
AcDbVertex
100
AcDb2dVertex
 10
284.2948065168442
 20
146.0479110681918
 30
0.0
  0
SEQEND
  5
433
330
425
100
AcDbEntity
  8
Make2D$可见线$普通线
  0
POLYLINE
  5
434
330
1F
100
AcDbEntity
  8
Make2D$可见线$普通线
100
AcDb2dPolyline
 66
     1
 10
0.0
 20
0.0
 30
0.0
  0
VERTEX
  5
435
330
434
100
AcDbEntity
  8
Make2D$可见线$普通线
100
AcDbVertex
100
AcDb2dVertex
 10
283.9489752232041
 20
141.8363711131835
 30
0.0
  0
VERTEX
  5
436
330
434
100
AcDbEntity
  8
Make2D$可见线$普通线
100
AcDbVertex
100
AcDb2dVertex
 10
283.9396173160576
 20
141.7350430294127
 30
0.0
  0
VERTEX
  5
437
330
434
100
AcDbEntity
  8
Make2D$可见线$普通线
100
AcDbVertex
100
AcDb2dVertex
 10
283.9396173160577
 20
141.6459933220183
 30
0.0
  0
VERTEX
  5
438
330
434
100
AcDbEntity
  8
Make2D$可见线$普通线
100
AcDbVertex
100
AcDb2dVertex
 10
284.3154200403231
 20
141.6512621863371
 30
0.0
  0
VERTEX
  5
439
330
434
100
AcDbEntity
  8
Make2D$可见线$普通线
100
AcDbVertex
100
AcDb2dVertex
 10
284.3153514516704
 20
141.8040522826951
 30
0.0
  0
VERTEX
  5
43A
330
434
100
AcDbEntity
  8
Make2D$可见线$普通线
100
AcDbVertex
100
AcDb2dVertex
 10
284.2965809832688
 20
141.8876173390215
 30
0.0
  0
VERTEX
  5
43B
330
434
100
AcDbEntity
  8
Make2D$可见线$普通线
100
AcDbVertex
100
AcDb2dVertex
 10
284.2519344142717
 20
141.9650746734297
 30
0.0
  0
VERTEX
  5
43C
330
434
100
AcDbEntity
  8
Make2D$可见线$普通线
100
AcDbVertex
100
AcDb2dVertex
 10
284.196573903849
 20
142.0060134319137
 30
0.0
  0
VERTEX
  5
43D
330
434
100
AcDbEntity
  8
Make2D$可见线$普通线
100
AcDbVertex
100
AcDb2dVertex
 10
284.1392529407532
 20
142.0138058645909
 30
0.0
  0
VERTEX
  5
43E
330
434
100
AcDbEntity
  8
Make2D$可见线$普通线
100
AcDbVertex
100
AcDb2dVertex
 10
284.0526828253143
 20
142.0095721936566
 30
0.0
  0
VERTEX
  5
43F
330
434
100
AcDbEntity
  8
Make2D$可见线$普通线
100
AcDbVertex
100
AcDb2dVertex
 10
284.0031589283442
 20
141.9777876247355
 30
0.0
  0
VERTEX
  5
440
330
434
100
AcDbEntity
  8
Make2D$可见线$普通线
100
AcDbVertex
100
AcDb2dVertex
 10
283.9692908988586
 20
141.9248228133068
 30
0.0
  0
VERTEX
  5
441
330
434
100
AcDbEntity
  8
Make2D$可见线$普通线
100
AcDbVertex
100
AcDb2dVertex
 10
283.9489752232041
 20
141.8363711131835
 30
0.0
  0
SEQEND
  5
442
330
434
100
AcDbEntity
  8
Make2D$可见线$普通线
  0
POLYLINE
  5
443
330
1F
100
AcDbEntity
  8
Make2D$可见线$普通线
100
AcDb2dPolyline
 66
     1
 10
0.0
 20
0.0
 30
0.0
  0
VERTEX
  5
444
330
443
100
AcDbEntity
  8
Make2D$可见线$普通线
100
AcDbVertex
100
AcDb2dVertex
 10
282.420920871079
 20
136.2220942164944
 30
0.0
  0
VERTEX
  5
445
330
443
100
AcDbEntity
  8
Make2D$可见线$普通线
100
AcDbVertex
100
AcDb2dVertex
 10
282.5294046737639
 20
136.0804953077406
 30
0.0
  0
VERTEX
  5
446
330
443
100
AcDbEntity
  8
Make2D$可见线$普通线
100
AcDbVertex
100
AcDb2dVertex
 10
282.7234505176323
 20
135.9281058828574
 30
0.0
  0
VERTEX
  5
447
330
443
100
AcDbEntity
  8
Make2D$可见线$普通线
100
AcDbVertex
100
AcDb2dVertex
 10
282.8446209663246
 20
135.8974445987775
 30
0.0
  0
VERTEX
  5
448
330
443
100
AcDbEntity
  8
Make2D$可见线$普通线
100
AcDbVertex
100
AcDb2dVertex
 10
282.8741835338691
 20
135.9037007137978
 30
0.0
  0
VERTEX
  5
449
330
443
100
AcDbEntity
  8
Make2D$可见线$普通线
100
AcDbVertex
100
AcDb2dVertex
 10
282.9052487332241
 20
135.9654137196252
 30
0.0
  0
VERTEX
  5
44A
330
443
100
AcDbEntity
  8
Make2D$可见线$普通线
100
AcDbVertex
100
AcDb2dVertex
 10
282.8811183679342
 20
136.0293148514628
 30
0.0
  0
VERTEX
  5
44B
330
443
100
AcDbEntity
  8
Make2D$可见线$普通线
100
AcDbVertex
100
AcDb2dVertex
 10
282.7964656652849
 20
136.126834376416
 30
0.0
  0
VERTEX
  5
44C
330
443
100
AcDbEntity
  8
Make2D$可见线$普通线
100
AcDbVertex
100
AcDb2dVertex
 10
282.6438346455383
 20
136.2395318946989
 30
0.0
  0
VERTEX
  5
44D
330
443
100
AcDbEntity
  8
Make2D$可见线$普通线
100
AcDbVertex
100
AcDb2dVertex
 10
282.4839567070665
 20
136.278473366162
 30
0.0
  0
VERTEX
  5
44E
330
443
100
AcDbEntity
  8
Make2D$可见线$普通线
100
AcDbVertex
100
AcDb2dVertex
 10
282.420920871079
 20
136.2220942164944
 30
0.0
  0
SEQEND
  5
44F
330
443
100
AcDbEntity
  8
Make2D$可见线$普通线
  0
POLYLINE
  5
450
330
1F
100
AcDbEntity
  8
Make2D$可见线$普通线
100
AcDb2dPolyline
 66
     1
 10
0.0
 20
0.0
 30
0.0
  0
VERTEX
  5
451
330
450
100
AcDbEntity
  8
Make2D$可见线$普通线
100
AcDbVertex
100
AcDb2dVertex
 10
282.1797943515689
 20
139.6544658821462
 30
0.0
  0
VERTEX
  5
452
330
450
100
AcDbEntity
  8
Make2D$可见线$普通线
100
AcDbVertex
100
AcDb2dVertex
 10
282.0934438427328
 20
139.6062940353058
 30
0.0
  0
VERTEX
  5
453
330
450
100
AcDbEntity
  8
Make2D$可见线$普通线
100
AcDbVertex
100
AcDb2dVertex
 10
282.0748181621678
 20
139.5089331304303
 30
0.0
  0
VERTEX
  5
454
330
450
100
AcDbEntity
  8
Make2D$可见线$普通线
100
AcDbVertex
100
AcDb2dVertex
 10
282.2098799877799
 20
139.3172510980246
 30
0.0
  0
VERTEX
  5
455
330
450
100
AcDbEntity
  8
Make2D$可见线$普通线
100
AcDbVertex
100
AcDb2dVertex
 10
282.3110994125755
 20
139.21209999728
 30
0.0
  0
VERTEX
  5
456
330
450
100
AcDbEntity
  8
Make2D$可见线$普通线
100
AcDbVertex
100
AcDb2dVertex
 10
282.585314549089
 20
138.973323307127
 30
0.0
  0
VERTEX
  5
457
330
450
100
AcDbEntity
  8
Make2D$可见线$普通线
100
AcDbVertex
100
AcDb2dVertex
 10
282.6578342257083
 20
138.9560873563669
 30
0.0
  0
VERTEX
  5
458
330
450
100
AcDbEntity
  8
Make2D$可见线$普通线
100
AcDbVertex
100
AcDb2dVertex
 10
282.7186534244795
 20
138.9932525576402
 30
0.0
  0
VERTEX
  5
459
330
450
100
AcDbEntity
  8
Make2D$可见线$普通线
100
AcDbVertex
100
AcDb2dVertex
 10
282.7312994041881
 20
139.0599411305199
 30
0.0
  0
VERTEX
  5
45A
330
450
100
AcDbEntity
  8
Make2D$可见线$普通线
100
AcDbVertex
100
AcDb2dVertex
 10
282.7008485772934
 20
139.1703993522807
 30
0.0
  0
VERTEX
  5
45B
330
450
100
AcDbEntity
  8
Make2D$可见线$普通线
100
AcDbVertex
100
AcDb2dVertex
 10
282.5938746045739
 20
139.3245835391721
 30
0.0
  0
VERTEX
  5
45C
330
450
100
AcDbEntity
  8
Make2D$可见线$普通线
100
AcDbVertex
100
AcDb2dVertex
 10
282.5021472256095
 20
139.4825923450761
 30
0.0
  0
VERTEX
  5
45D
330
450
100
AcDbEntity
  8
Make2D$可见线$普通线
100
AcDbVertex
100
AcDb2dVertex
 10
282.265933099433
 20
139.6435541937126
 30
0.0
  0
VERTEX
  5
45E
330
450
100
AcDbEntity
  8
Make2D$可见线$普通线
100
AcDbVertex
100
AcDb2dVertex
 10
282.1797943515689
 20
139.6544658821462
 30
0.0
  0
SEQEND
  5
45F
330
450
100
AcDbEntity
  8
Make2D$可见线$普通线
  0
POLYLINE
  5
460
330
1F
100
AcDbEntity
  8
Make2D$可见线$普通线
100
AcDb2dPolyline
 66
     1
 10
0.0
 20
0.0
 30
0.0
  0
VERTEX
  5
461
330
460
100
AcDbEntity
  8
Make2D$可见线$普通线
100
AcDbVertex
100
AcDb2dVertex
 10
281.8257261149189
 20
141.5461822184069
 30
0.0
  0
VERTEX
  5
462
330
460
100
AcDbEntity
  8
Make2D$可见线$普通线
100
AcDbVertex
100
AcDb2dVertex
 10
281.6845576289467
 20
141.419074719537
 30
0.0
  0
VERTEX
  5
463
330
460
100
AcDbEntity
  8
Make2D$可见线$普通线
100
AcDbVertex
100
AcDb2dVertex
 10
281.6620019177376
 20
141.2029843918098
 30
0.0
  0
VERTEX
  5
464
330
460
100
AcDbEntity
  8
Make2D$可见线$普通线
100
AcDbVertex
100
AcDb2dVertex
 10
281.7541218808124
 20
141.0784476468668
 30
0.0
  0
VERTEX
  5
465
330
460
100
AcDbEntity
  8
Make2D$可见线$普通线
100
AcDbVertex
100
AcDb2dVertex
 10
281.8345958168073
 20
141.0098827013663
 30
0.0
  0
VERTEX
  5
466
330
460
100
AcDbEntity
  8
Make2D$可见线$普通线
100
AcDbVertex
100
AcDb2dVertex
 10
282.1370514648044
 20
140.8677815329867
 30
0.0
  0
VERTEX
  5
467
330
460
100
AcDbEntity
  8
Make2D$可见线$普通线
100
AcDbVertex
100
AcDb2dVertex
 10
282.4271294148357
 20
140.7415447466774
 30
0.0
  0
VERTEX
  5
468
330
460
100
AcDbEntity
  8
Make2D$可见线$普通线
100
AcDbVertex
100
AcDb2dVertex
 10
282.6365278391888
 20
140.745689973812
 30
0.0
  0
VERTEX
  5
469
330
460
100
AcDbEntity
  8
Make2D$可见线$普通线
100
AcDbVertex
100
AcDb2dVertex
 10
282.7447366725638
 20
140.7755992853004
 30
0.0
  0
VERTEX
  5
46A
330
460
100
AcDbEntity
  8
Make2D$可见线$普通线
100
AcDbVertex
100
AcDb2dVertex
 10
282.7894125777837
 20
140.8351561300291
 30
0.0
  0
VERTEX
  5
46B
330
460
100
AcDbEntity
  8
Make2D$可见线$普通线
100
AcDbVertex
100
AcDb2dVertex
 10
282.8189536851276
 20
140.950558799883
 30
0.0
  0
VERTEX
  5
46C
330
460
100
AcDbEntity
  8
Make2D$可见线$普通线
100
AcDbVertex
100
AcDb2dVertex
 10
282.7334680642751
 20
141.1223031447956
 30
0.0
  0
VERTEX
  5
46D
330
460
100
AcDbEntity
  8
Make2D$可见线$普通线
100
AcDbVertex
100
AcDb2dVertex
 10
282.5131441667741
 20
141.4097494871038
 30
0.0
  0
VERTEX
  5
46E
330
460
100
AcDbEntity
  8
Make2D$可见线$普通线
100
AcDbVertex
100
AcDb2dVertex
 10
282.270541803194
 20
141.5403127231602
 30
0.0
  0
VERTEX
  5
46F
330
460
100
AcDbEntity
  8
Make2D$可见线$普通线
100
AcDbVertex
100
AcDb2dVertex
 10
281.996209378791
 20
141.565849392646
 30
0.0
  0
VERTEX
  5
470
330
460
100
AcDbEntity
  8
Make2D$可见线$普通线
100
AcDbVertex
100
AcDb2dVertex
 10
281.8257261149189
 20
141.5461822184069
 30
0.0
  0
SEQEND
  5
471
330
460
100
AcDbEntity
  8
Make2D$可见线$普通线
  0
POLYLINE
  5
472
330
1F
100
AcDbEntity
  8
Make2D$可见线$普通线
100
AcDb2dPolyline
 66
     1
 10
0.0
 20
0.0
 30
0.0
  0
VERTEX
  5
473
330
472
100
AcDbEntity
  8
Make2D$可见线$普通线
100
AcDbVertex
100
AcDb2dVertex
 10
284.5098966614516
 20
143.596011030558
 30
0.0
  0
VERTEX
  5
474
330
472
100
AcDbEntity
  8
Make2D$可见线$普通线
100
AcDbVertex
100
AcDb2dVertex
 10
284.5096064639266
 20
144.0210207395666
 30
0.0
  0
VERTEX
  5
475
330
472
100
AcDbEntity
  8
Make2D$可见线$普通线
100
AcDbVertex
100
AcDb2dVertex
 10
284.072293756388
 20
143.8057488781839
 30
0.0
  0
VERTEX
  5
476
330
472
100
AcDbEntity
  8
Make2D$可见线$普通线
100
AcDbVertex
100
AcDb2dVertex
 10
284.5098966614516
 20
143.596011030558
 30
0.0
  0
SEQEND
  5
477
330
472
100
AcDbEntity
  8
Make2D$可见线$普通线
  0
POLYLINE
  5
478
330
1F
100
AcDbEntity
  8
Make2D$可见线$普通线
100
AcDb2dPolyline
 66
     1
 10
0.0
 20
0.0
 30
0.0
  0
VERTEX
  5
479
330
478
100
AcDbEntity
  8
Make2D$可见线$普通线
100
AcDbVertex
100
AcDb2dVertex
 10
257.5987351859185
 20
149.1053761889513
 30
0.0
 42
-0.4122677193132587
  0
VERTEX
  5
47A
330
478
100
AcDbEntity
  8
Make2D$可见线$普通线
100
AcDbVertex
100
AcDb2dVertex
 10
287.4391806999923
 20
174.9341136959356
 30
0.0
  0
VERTEX
  5
47B
330
478
100
AcDbEntity
  8
Make2D$可见线$普通线
100
AcDbVertex
100
AcDb2dVertex
 10
393.5757025046006
 20
167.6401111879043
 30
0.0
 42
-0.3942565519989403
  0
VERTEX
  5
47C
330
478
100
AcDbEntity
  8
Make2D$可见线$普通线
100
AcDbVertex
100
AcDb2dVertex
 10
402.8900912751954
 20
157.6636420107799
 30
0.0
  0
VERTEX
  5
47D
330
478
100
AcDbEntity
  8
Make2D$可见线$普通线
100
AcDbVertex
100
AcDb2dVertex
 10
402.8900912751955
 20
136.336357989199
 30
0.0
 42
-0.3942565519989537
  0
VERTEX
  5
47E
330
478
100
AcDbEntity
  8
Make2D$可见线$普通线
100
AcDbVertex
100
AcDb2dVertex
 10
393.575702504601
 20
126.3598888120746
 30
0.0
  0
VERTEX
  5
47F
330
478
100
AcDbEntity
  8
Make2D$可见线$普通线
100
AcDbVertex
100
AcDb2dVertex
 10
287.4391806999923
 20
119.0658863040434
 30
0.0
 42
-0.411787592972772
  0
VERTEX
  5
480
330
478
100
AcDbEntity
  8
Make2D$可见线$普通线
100
AcDbVertex
100
AcDb2dVertex
 10
257.6022293885824
 20
144.8487868319514
 30
0.0
  0
SEQEND
  5
481
330
478
100
AcDbEntity
  8
Make2D$可见线$普通线
  0
POLYLINE
  5
482
330
1F
100
AcDbEntity
  8
Make2D$可见线$普通线
100
AcDb2dPolyline
 66
     1
 10
0.0
 20
0.0
 30
0.0
  0
VERTEX
  5
483
330
482
100
AcDbEntity
  8
Make2D$可见线$普通线
100
AcDbVertex
100
AcDb2dVertex
 10
264.8010933127008
 20
165.8347789528943
 30
0.0
  0
VERTEX
  5
484
330
482
100
AcDbEntity
  8
Make2D$可见线$普通线
100
AcDbVertex
100
AcDb2dVertex
 10
249.3409990069533
 20
179.2056713254327
 30
0.0
 42
0.9999999999999999
  0
VERTEX
  5
485
330
482
100
AcDbEntity
  8
Make2D$可见线$普通线
100
AcDbVertex
100
AcDb2dVertex
 10
246.724391275227
 20
176.1802186356242
 30
0.0
  0
VERTEX
  5
486
330
482
100
AcDbEntity
  8
Make2D$可见线$普通线
100
AcDbVertex
100
AcDb2dVertex
 10
262.326230668357
 20
162.6867359172414
 30
0.0
  0
SEQEND
  5
487
330
482
100
AcDbEntity
  8
Make2D$可见线$普通线
  0
ENDSEC
  0
SECTION
  2
OBJECTS
  0
DICTIONARY
  5
C
330
0
100
AcDbDictionary
281
     1
  3
ACAD_GROUP
350
D
  3
ACAD_LAYOUT
350
1A
  3
ACAD_MATERIAL
350
3B
  3
ACAD_MLEADERSTYLE
350
4B2
  3
ACAD_MLINESTYLE
350
17
  3
ACAD_PLOTSETTINGS
350
19
  3
ACAD_PLOTSTYLENAME
350
E
  3
ACAD_SCALELIST
350
3F
  3
ACAD_TABLESTYLE
350
4B1
  3
ACAD_VISUALSTYLE
350
2A
  3
AcDbVariableDictionary
350
488
  0
DICTIONARY
  5
D
102
{ACAD_REACTORS
330
C
102
}
330
C
100
AcDbDictionary
281
     1
  0
DICTIONARY
  5
1A
102
{ACAD_REACTORS
330
C
102
}
330
C
100
AcDbDictionary
281
     1
  3
Layout1
350
1E
  3
Layout2
350
26
  3
Model
350
22
  0
DICTIONARY
  5
3B
102
{ACAD_REACTORS
330
C
102
}
330
C
100
AcDbDictionary
281
     1
  3
ByBlock
350
3D
  3
ByLayer
350
3C
  3
Global
350
3E
  0
DICTIONARY
  5
4B2
102
{ACAD_REACTORS
330
C
102
}
330
C
100
AcDbDictionary
281
     1
  0
DICTIONARY
  5
17
102
{ACAD_REACTORS
330
C
102
}
330
C
100
AcDbDictionary
281
     1
  3
Standard
350
18
  0
DICTIONARY
  5
19
102
{ACAD_REACTORS
330
C
102
}
330
C
100
AcDbDictionary
281
     1
  0
ACDBDICTIONARYWDFLT
  5
E
102
{ACAD_REACTORS
330
C
102
}
330
C
100
AcDbDictionary
281
     1
  3
Normal
350
F
100
AcDbDictionaryWithDefault
340
F
  0
DICTIONARY
  5
3F
102
{ACAD_REACTORS
330
C
102
}
330
C
100
AcDbDictionary
281
     1
  3
A0
350
40
  3
A1
350
41
  3
A2
350
42
  3
A3
350
43
  3
A4
350
44
  3
A5
350
45
  3
A6
350
46
  3
A7
350
47
  3
A8
350
48
  3
A9
350
49
  3
B0
350
4A
  3
B1
350
4B
  3
B2
350
4C
  3
B3
350
4D
  3
B4
350
4E
  3
B5
350
4F
  3
B6
350
50
  3
B7
350
51
  3
B8
350
52
  3
B9
350
53
  3
C0
350
54
  3
C1
350
55
  3
C2
350
56
  3
C3
350
57
  3
C4
350
58
  3
C5
350
59
  3
C6
350
5A
  3
C7
350
5B
  3
C8
350
5C
  3
C9
350
5D
  3
D0
350
5E
  3
D1
350
5F
  3
D2
350
60
  0
DICTIONARY
  5
4B1
102
{ACAD_REACTORS
330
C
102
}
330
C
100
AcDbDictionary
281
     1
  0
DICTIONARY
  5
2A
102
{ACAD_REACTORS
330
C
102
}
330
C
100
AcDbDictionary
281
     1
  3
2dWireframe
350
2F
  3
3D Hidden
350
31
  3
3dWireframe
350
30
  3
Basic
350
32
  3
Brighten
350
36
  3
ColorChange
350
3A
  3
Conceptual
350
34
  3
Dim
350
35
  3
Facepattern
350
39
  3
Flat
350
2B
  3
FlatWithEdges
350
2C
  3
Gouraud
350
2D
  3
GouraudWithEdges
350
2E
  3
Linepattern
350
38
  3
Realistic
350
33
  3
Thicken
350
37
  0
DICTIONARY
  5
488
102
{ACAD_REACTORS
330
C
102
}
330
C
100
AcDbDictionary
281
     1
  3
CANNOSCALE
350
489
  3
MSLTSCALE
350
48A
  0
LAYOUT
  5
1E
102
{ACAD_REACTORS
330
1A
102
}
330
1A
100
AcDbPlotSettings
  1

  2
none_device
  4

  6

 40
0.0
 41
0.0
 42
0.0
 43
0.0
 44
0.0
 45
0.0
 46
0.0
 47
0.0
 48
0.0
 49
0.0
140
0.0
141
0.0
142
1.0
143
1.0
 70
   688
 72
     0
 73
     0
 74
     5
  7

 75
    16
 76
     0
 77
     2
 78
   300
147
1.0
148
0.0
149
0.0
100
AcDbLayout
  1
Layout1
 70
     1
 71
     1
 10
0.0
 20
0.0
 11
12.0
 21
9.0
 12
0.0
 22
0.0
 32
0.0
 14
1.000000000000000E+20
 24
1.000000000000000E+20
 34
1.000000000000000E+20
 15
-1.000000000000000E+20
 25
-1.000000000000000E+20
 35
-1.000000000000000E+20
146
0.0
 13
0.0
 23
0.0
 33
0.0
 16
1.0
 26
0.0
 36
0.0
 17
0.0
 27
1.0
 37
0.0
 76
     0
330
1B
  0
LAYOUT
  5
26
102
{ACAD_REACTORS
330
1A
102
}
330
1A
100
AcDbPlotSettings
  1

  2
none_device
  4

  6

 40
0.0
 41
0.0
 42
0.0
 43
0.0
 44
0.0
 45
0.0
 46
0.0
 47
0.0
 48
0.0
 49
0.0
140
0.0
141
0.0
142
1.0
143
1.0
 70
   688
 72
     0
 73
     0
 74
     5
  7

 75
    16
 76
     0
 77
     2
 78
   300
147
1.0
148
0.0
149
0.0
100
AcDbLayout
  1
Layout2
 70
     1
 71
     2
 10
0.0
 20
0.0
 11
0.0
 21
0.0
 12
0.0
 22
0.0
 32
0.0
 14
0.0
 24
0.0
 34
0.0
 15
0.0
 25
0.0
 35
0.0
146
0.0
 13
0.0
 23
0.0
 33
0.0
 16
1.0
 26
0.0
 36
0.0
 17
0.0
 27
1.0
 37
0.0
 76
     0
330
23
  0
LAYOUT
  5
22
102
{ACAD_REACTORS
330
1A
102
}
330
1A
100
AcDbPlotSettings
  1

  2
none_device
  4
Letter_(8.50_x_11.00_Inches)
  6

 40
6.35
 41
6.35
 42
6.35000508
 43
6.35000508
 44
215.9
 45
279.4
 46
0.0
 47
0.0
 48
0.0
 49
0.0
140
0.0
141
0.0
142
1.0
143
1.0
 70
  1712
 72
     0
 73
     0
 74
     0
  7

 75
     0
 76
     0
 77
     2
 78
   300
147
1.0
148
0.0
149
0.0
100
AcDbLayout
  1
Model
 70
     1
 71
     0
 10
0.0
 20
0.0
 11
12.0
 21
9.0
 12
0.0
 22
0.0
 32
0.0
 14
246.0326951410901
 24
118.9999999999896
 34
0.0
 15
402.8900912751955
 25
179.6929449805284
 35
0.0
146
0.0
 13
0.0
 23
0.0
 33
0.0
 16
1.0
 26
0.0
 36
0.0
 17
0.0
 27
1.0
 37
0.0
 76
     0
330
1F
331
29
  0
MATERIAL
  5
3D
102
{ACAD_REACTORS
330
3B
102
}
102
{ACAD_XDICTIONARY
360
4AD
102
}
330
3B
100
AcDbMaterial
  1
ByBlock
  0
MATERIAL
  5
3C
102
{ACAD_REACTORS
330
3B
102
}
102
{ACAD_XDICTIONARY
360
4AB
102
}
330
3B
100
AcDbMaterial
  1
ByLayer
  0
MATERIAL
  5
3E
102
{ACAD_REACTORS
330
3B
102
}
102
{ACAD_XDICTIONARY
360
4AF
102
}
330
3B
100
AcDbMaterial
  1
Global
  0
MLINESTYLE
  5
18
102
{ACAD_REACTORS
330
17
102
}
330
17
100
AcDbMlineStyle
  2
Standard
 70
     0
  3

 62
   256
 51
90.0
 52
90.0
 71
     2
 49
0.5
 62
   256
  6
BYLAYER
 49
-0.5
 62
   256
  6
BYLAYER
  0
ACDBPLACEHOLDER
  5
F
102
{ACAD_REACTORS
330
E
102
}
330
E
  0
SCALE
  5
40
102
{ACAD_REACTORS
330
3F
102
}
330
3F
100
AcDbScale
 70
     0
300
1:1
140
1.0
141
1.0
290
     1
  0
SCALE
  5
41
102
{ACAD_REACTORS
330
3F
102
}
330
3F
100
AcDbScale
 70
     0
300
1:2
140
1.0
141
2.0
290
     0
  0
SCALE
  5
42
102
{ACAD_REACTORS
330
3F
102
}
330
3F
100
AcDbScale
 70
     0
300
1:4
140
1.0
141
4.0
290
     0
  0
SCALE
  5
43
102
{ACAD_REACTORS
330
3F
102
}
330
3F
100
AcDbScale
 70
     0
300
1:5
140
1.0
141
5.0
290
     0
  0
SCALE
  5
44
102
{ACAD_REACTORS
330
3F
102
}
330
3F
100
AcDbScale
 70
     0
300
1:8
140
1.0
141
8.0
290
     0
  0
SCALE
  5
45
102
{ACAD_REACTORS
330
3F
102
}
330
3F
100
AcDbScale
 70
     0
300
1:10
140
1.0
141
10.0
290
     0
  0
SCALE
  5
46
102
{ACAD_REACTORS
330
3F
102
}
330
3F
100
AcDbScale
 70
     0
300
1:16
140
1.0
141
16.0
290
     0
  0
SCALE
  5
47
102
{ACAD_REACTORS
330
3F
102
}
330
3F
100
AcDbScale
 70
     0
300
1:20
140
1.0
141
20.0
290
     0
  0
SCALE
  5
48
102
{ACAD_REACTORS
330
3F
102
}
330
3F
100
AcDbScale
 70
     0
300
1:30
140
1.0
141
30.0
290
     0
  0
SCALE
  5
49
102
{ACAD_REACTORS
330
3F
102
}
330
3F
100
AcDbScale
 70
     0
300
1:40
140
1.0
141
40.0
290
     0
  0
SCALE
  5
4A
102
{ACAD_REACTORS
330
3F
102
}
330
3F
100
AcDbScale
 70
     0
300
1:50
140
1.0
141
50.0
290
     0
  0
SCALE
  5
4B
102
{ACAD_REACTORS
330
3F
102
}
330
3F
100
AcDbScale
 70
     0
300
1:100
140
1.0
141
100.0
290
     0
  0
SCALE
  5
4C
102
{ACAD_REACTORS
330
3F
102
}
330
3F
100
AcDbScale
 70
     0
300
2:1
140
2.0
141
1.0
290
     0
  0
SCALE
  5
4D
102
{ACAD_REACTORS
330
3F
102
}
330
3F
100
AcDbScale
 70
     0
300
4:1
140
4.0
141
1.0
290
     0
  0
SCALE
  5
4E
102
{ACAD_REACTORS
330
3F
102
}
330
3F
100
AcDbScale
 70
     0
300
8:1
140
8.0
141
1.0
290
     0
  0
SCALE
  5
4F
102
{ACAD_REACTORS
330
3F
102
}
330
3F
100
AcDbScale
 70
     0
300
10:1
140
10.0
141
1.0
290
     0
  0
SCALE
  5
50
102
{ACAD_REACTORS
330
3F
102
}
330
3F
100
AcDbScale
 70
     0
300
100:1
140
100.0
141
1.0
290
     0
  0
SCALE
  5
51
102
{ACAD_REACTORS
330
3F
102
}
330
3F
100
AcDbScale
 70
     0
300
1/128" = 1'-0"
140
0.0078125
141
12.0
290
     0
  0
SCALE
  5
52
102
{ACAD_REACTORS
330
3F
102
}
330
3F
100
AcDbScale
 70
     0
300
1/64" = 1'-0"
140
0.015625
141
12.0
290
     0
  0
SCALE
  5
53
102
{ACAD_REACTORS
330
3F
102
}
330
3F
100
AcDbScale
 70
     0
300
1/32" = 1'-0"
140
0.03125
141
12.0
290
     0
  0
SCALE
  5
54
102
{ACAD_REACTORS
330
3F
102
}
330
3F
100
AcDbScale
 70
     0
300
1/16" = 1'-0"
140
0.0625
141
12.0
290
     0
  0
SCALE
  5
55
102
{ACAD_REACTORS
330
3F
102
}
330
3F
100
AcDbScale
 70
     0
300
3/32" = 1'-0"
140
0.09375
141
12.0
290
     0
  0
SCALE
  5
56
102
{ACAD_REACTORS
330
3F
102
}
330
3F
100
AcDbScale
 70
     0
300
1/8" = 1'-0"
140
0.125
141
12.0
290
     0
  0
SCALE
  5
57
102
{ACAD_REACTORS
330
3F
102
}
330
3F
100
AcDbScale
 70
     0
300
3/16" = 1'-0"
140
0.1875
141
12.0
290
     0
  0
SCALE
  5
58
102
{ACAD_REACTORS
330
3F
102
}
330
3F
100
AcDbScale
 70
     0
300
1/4" = 1'-0"
140
0.25
141
12.0
290
     0
  0
SCALE
  5
59
102
{ACAD_REACTORS
330
3F
102
}
330
3F
100
AcDbScale
 70
     0
300
3/8" = 1'-0"
140
0.375
141
12.0
290
     0
  0
SCALE
  5
5A
102
{ACAD_REACTORS
330
3F
102
}
330
3F
100
AcDbScale
 70
     0
300
1/2" = 1'-0"
140
0.5
141
12.0
290
     0
  0
SCALE
  5
5B
102
{ACAD_REACTORS
330
3F
102
}
330
3F
100
AcDbScale
 70
     0
300
3/4" = 1'-0"
140
0.75
141
12.0
290
     0
  0
SCALE
  5
5C
102
{ACAD_REACTORS
330
3F
102
}
330
3F
100
AcDbScale
 70
     0
300
1" = 1'-0"
140
1.0
141
12.0
290
     0
  0
SCALE
  5
5D
102
{ACAD_REACTORS
330
3F
102
}
330
3F
100
AcDbScale
 70
     0
300
1-1/2" = 1'-0"
140
1.5
141
12.0
290
     0
  0
SCALE
  5
5E
102
{ACAD_REACTORS
330
3F
102
}
330
3F
100
AcDbScale
 70
     0
300
3" = 1'-0"
140
3.0
141
12.0
290
     0
  0
SCALE
  5
5F
102
{ACAD_REACTORS
330
3F
102
}
330
3F
100
AcDbScale
 70
     0
300
6" = 1'-0"
140
6.0
141
12.0
290
     0
  0
SCALE
  5
60
102
{ACAD_REACTORS
330
3F
102
}
330
3F
100
AcDbScale
 70
     0
300
1'-0" = 1'-0"
140
12.0
141
12.0
290
     0
  0
VISUALSTYLE
  5
2F
102
{ACAD_REACTORS
330
2A
102
}
102
{ACAD_XDICTIONARY
360
493
102
}
330
2A
100
AcDbVisualStyle
  2
2dWireframe
 70
     4
 71
     0
 72
     2
 73
     0
 90
        0
 40
0.6
 41
30.0
 62
     5
 63
     7
421
 16777215
 74
     1
 91
        4
 64
     7
 65
   257
 75
     1
175
     1
 42
1.0
 92
        0
 66
   257
 43
1.0
 76
     1
 77
     6
 78
     2
 67
     7
 79
     5
170
     0
171
     0
290
     0
174
     0
 93
        1
 44
0.0
173
     0
291
     0
 45
0.0
1001
ACAD
1000
AcDbSavedByObjectVersion
1070
     0
  0
VISUALSTYLE
  5
31
102
{ACAD_REACTORS
330
2A
102
}
102
{ACAD_XDICTIONARY
360
497
102
}
330
2A
100
AcDbVisualStyle
  2
3D Hidden
 70
     6
 71
     1
 72
     2
 73
     2
 90
        0
 40
0.6
 41
30.0
 62
     5
 63
     7
421
 16777215
 74
     2
 91
        2
 64
     7
 65
   257
 75
     2
175
     1
 42
40.0
 92
        0
 66
   257
 43
1.0
 76
     1
 77
     6
 78
     2
 67
     7
 79
     3
170
     0
171
     0
290
     0
174
     0
 93
        1
 44
0.0
173
     0
291
     0
 45
0.0
1001
ACAD
1000
AcDbSavedByObjectVersion
1070
     0
  0
VISUALSTYLE
  5
30
102
{ACAD_REACTORS
330
2A
102
}
102
{ACAD_XDICTIONARY
360
495
102
}
330
2A
100
AcDbVisualStyle
  2
3dWireframe
 70
     5
 71
     0
 72
     2
 73
     0
 90
        0
 40
0.6
 41
30.0
 62
     5
 63
     7
421
 16777215
 74
     1
 91
        4
 64
     7
 65
   257
 75
     1
175
     1
 42
1.0
 92
        0
 66
   257
 43
1.0
 76
     1
 77
     6
 78
     2
 67
     7
 79
     5
170
     0
171
     0
290
     0
174
     0
 93
        1
 44
0.0
173
     0
291
     0
 45
0.0
1001
ACAD
1000
AcDbSavedByObjectVersion
1070
     0
  0
VISUALSTYLE
  5
32
102
{ACAD_REACTORS
330
2A
102
}
102
{ACAD_XDICTIONARY
360
499
102
}
330
2A
100
AcDbVisualStyle
  2
Basic
 70
     7
 71
     1
 72
     0
 73
     1
 90
        0
 40
0.6
 41
30.0
 62
     5
 63
     7
421
 16777215
 74
     0
 91
        4
 64
     7
 65
   257
 75
     1
175
     1
 42
1.0
 92
        8
 66
     7
 43
1.0
 76
     1
 77
     6
 78
     2
 67
     7
 79
     5
170
     0
171
     0
290
     0
174
     0
 93
        1
 44
0.0
173
     0
291
     1
 45
0.0
1001
ACAD
1000
AcDbSavedByObjectVersion
1070
     0
  0
VISUALSTYLE
  5
36
102
{ACAD_REACTORS
330
2A
102
}
102
{ACAD_XDICTIONARY
360
4A1
102
}
330
2A
100
AcDbVisualStyle
  2
Brighten
 70
    12
 71
     2
 72
     2
 73
     0
 90
        0
 40
0.6
 41
30.0
 62
     5
 63
     7
421
 16777215
 74
     1
 91
        4
 64
     7
 65
   257
 75
     1
175
     1
 42
1.0
 92
        8
 66
     7
 43
1.0
 76
     1
 77
     6
 78
     2
 67
     7
 79
     5
170
     0
171
     0
290
     0
174
     0
 93
        1
 44
50.0
173
     0
291
     1
 45
0.0
1001
ACAD
1000
AcDbSavedByObjectVersion
1070
     0
  0
VISUALSTYLE
  5
3A
102
{ACAD_REACTORS
330
2A
102
}
102
{ACAD_XDICTIONARY
360
4A9
102
}
330
2A
100
AcDbVisualStyle
  2
ColorChange
 70
    16
 71
     2
 72
     2
 73
     3
 90
        0
 40
0.6
 41
30.0
 62
     5
 63
     8
421
  8421504
 74
     1
 91
        4
 64
     7
 65
   257
 75
     1
175
     1
 42
1.0
 92
        8
 66
     8
424
  8421504
 43
1.0
 76
     1
 77
     6
 78
     2
 67
     7
 79
     5
170
     0
171
     0
290
     0
174
     0
 93
        1
 44
0.0
173
     0
291
     1
 45
0.0
1001
ACAD
1000
AcDbSavedByObjectVersion
1070
     0
  0
VISUALSTYLE
  5
34
102
{ACAD_REACTORS
330
2A
102
}
102
{ACAD_XDICTIONARY
360
49D
102
}
330
2A
100
AcDbVisualStyle
  2
Conceptual
 70
     9
 71
     3
 72
     2
 73
     0
 90
        0
 40
0.6
 41
30.0
 62
     5
 63
     7
421
 16777215
 74
     2
 91
        2
 64
     7
 65
   257
 75
     1
175
     1
 42
40.0
 92
        8
 66
     7
 43
1.0
 76
     1
 77
     6
 78
     2
 67
     7
 79
     3
170
     0
171
     0
290
     0
174
     0
 93
        1
 44
0.0
173
     0
291
     0
 45
0.0
1001
ACAD
1000
AcDbSavedByObjectVersion
1070
     0
  0
VISUALSTYLE
  5
35
102
{ACAD_REACTORS
330
2A
102
}
102
{ACAD_XDICTIONARY
360
49F
102
}
330
2A
100
AcDbVisualStyle
  2
Dim
 70
    11
 71
     2
 72
     2
 73
     0
 90
        0
 40
0.6
 41
30.0
 62
     5
 63
     7
421
 16777215
 74
     1
 91
        4
 64
     7
 65
   257
 75
     1
175
     1
 42
1.0
 92
        8
 66
     7
 43
1.0
 76
     1
 77
     6
 78
     2
 67
     7
 79
     5
170
     0
171
     0
290
     0
174
     0
 93
        1
 44
-50.0
173
     0
291
     1
 45
0.0
1001
ACAD
1000
AcDbSavedByObjectVersion
1070
     0
  0
VISUALSTYLE
  5
39
102
{ACAD_REACTORS
330
2A
102
}
102
{ACAD_XDICTIONARY
360
4A7
102
}
330
2A
100
AcDbVisualStyle
  2
Facepattern
 70
    15
 71
     2
 72
     2
 73
     0
 90
        0
 40
0.6
 41
30.0
 62
     5
 63
     7
421
 16777215
 74
     1
 91
        4
 64
     7
 65
   257
 75
     1
175
     1
 42
1.0
 92
        8
 66
     7
 43
1.0
 76
     1
 77
     6
 78
     2
 67
     7
 79
     5
170
     0
171
     0
290
     0
174
     0
 93
        1
 44
0.0
173
     0
291
     1
 45
0.0
1001
ACAD
1000
AcDbSavedByObjectVersion
1070
     0
  0
VISUALSTYLE
  5
2B
102
{ACAD_REACTORS
330
2A
102
}
102
{ACAD_XDICTIONARY
360
48B
102
}
330
2A
100
AcDbVisualStyle
  2
Flat
 70
     0
 71
     2
 72
     1
 73
     1
 90
        2
 40
0.6
 41
30.0
 62
     5
 63
     7
421
 16777215
 74
     0
 91
        4
 64
     7
 65
   257
 75
     1
175
     1
 42
1.0
 92
        8
 66
     7
 43
1.0
 76
     1
 77
     6
 78
     2
 67
     7
 79
     5
170
     0
171
     0
290
     0
174
     0
 93
       13
 44
0.0
173
     0
291
     1
 45
0.0
1001
ACAD
1000
AcDbSavedByObjectVersion
1070
     0
  0
VISUALSTYLE
  5
2C
102
{ACAD_REACTORS
330
2A
102
}
102
{ACAD_XDICTIONARY
360
48D
102
}
330
2A
100
AcDbVisualStyle
  2
FlatWithEdges
 70
     1
 71
     2
 72
     1
 73
     1
 90
        2
 40
0.6
 41
30.0
 62
     5
 63
     7
421
 16777215
 74
     1
 91
        4
 64
     7
 65
   257
 75
     1
175
     1
 42
1.0
 92
        0
 66
   257
 43
1.0
 76
     1
 77
     6
 78
     2
 67
     7
 79
     5
170
     0
171
     0
290
     0
174
     0
 93
       13
 44
0.0
173
     0
291
     1
 45
0.0
1001
ACAD
1000
AcDbSavedByObjectVersion
1070
     0
  0
VISUALSTYLE
  5
2D
102
{ACAD_REACTORS
330
2A
102
}
102
{ACAD_XDICTIONARY
360
48F
102
}
330
2A
100
AcDbVisualStyle
  2
Gouraud
 70
     2
 71
     2
 72
     2
 73
     1
 90
        2
 40
0.6
 41
30.0
 62
     5
 63
     7
421
 16777215
 74
     0
 91
        4
 64
     7
 65
   257
 75
     1
175
     1
 42
1.0
 92
        0
 66
     7
 43
1.0
 76
     1
 77
     6
 78
     2
 67
     7
 79
     5
170
     0
171
     0
290
     0
174
     0
 93
       13
 44
0.0
173
     0
291
     1
 45
0.0
1001
ACAD
1000
AcDbSavedByObjectVersion
1070
     0
  0
VISUALSTYLE
  5
2E
102
{ACAD_REACTORS
330
2A
102
}
102
{ACAD_XDICTIONARY
360
491
102
}
330
2A
100
AcDbVisualStyle
  2
GouraudWithEdges
 70
     3
 71
     2
 72
     2
 73
     1
 90
        2
 40
0.6
 41
30.0
 62
     5
 63
     7
421
 16777215
 74
     1
 91
        4
 64
     7
 65
   257
 75
     1
175
     1
 42
1.0
 92
        0
 66
   257
 43
1.0
 76
     1
 77
     6
 78
     2
 67
     7
 79
     5
170
     0
171
     0
290
     0
174
     0
 93
       13
 44
0.0
173
     0
291
     1
 45
0.0
1001
ACAD
1000
AcDbSavedByObjectVersion
1070
     0
  0
VISUALSTYLE
  5
38
102
{ACAD_REACTORS
330
2A
102
}
102
{ACAD_XDICTIONARY
360
4A5
102
}
330
2A
100
AcDbVisualStyle
  2
Linepattern
 70
    14
 71
     2
 72
     2
 73
     0
 90
        0
 40
0.6
 41
30.0
 62
     5
 63
     7
421
 16777215
 74
     1
 91
        4
 64
     7
 65
   257
 75
     7
175
     7
 42
1.0
 92
        8
 66
     7
 43
1.0
 76
     1
 77
     6
 78
     2
 67
     7
 79
     5
170
     0
171
     0
290
     0
174
     0
 93
        1
 44
0.0
173
     0
291
     1
 45
0.0
1001
ACAD
1000
AcDbSavedByObjectVersion
1070
     0
  0
VISUALSTYLE
  5
33
102
{ACAD_REACTORS
330
2A
102
}
102
{ACAD_XDICTIONARY
360
49B
102
}
330
2A
100
AcDbVisualStyle
  2
Realistic
 70
     8
 71
     2
 72
     3
 73
     0
 90
        2
 40
0.6
 41
30.0
 62
     5
 63
     7
421
 16777215
 74
     0
 91
        0
 64
     7
 65
   257
 75
     1
175
     1
 42
1.0
 92
        8
 66
   257
 43
1.0
 76
     1
 77
     6
 78
     2
 67
     7
 79
     3
170
     0
171
     0
290
     0
174
     0
 93
       13
 44
0.0
173
     0
291
     0
 45
0.0
1001
ACAD
1000
AcDbSavedByObjectVersion
1070
     0
  0
VISUALSTYLE
  5
37
102
{ACAD_REACTORS
330
2A
102
}
102
{ACAD_XDICTIONARY
360
4A3
102
}
330
2A
100
AcDbVisualStyle
  2
Thicken
 70
    13
 71
     2
 72
     2
 73
     0
 90
        0
 40
0.6
 41
30.0
 62
     5
 63
     7
421
 16777215
 74
     1
 91
        4
 64
     7
 65
   257
 75
     1
175
     1
 42
1.0
 92
       12
 66
     7
 43
1.0
 76
     1
 77
     6
 78
     2
 67
     7
 79
     5
170
     0
171
     0
290
     0
174
     0
 93
        1
 44
0.0
173
     0
291
     1
 45
0.0
1001
ACAD
1000
AcDbSavedByObjectVersion
1070
     0
  0
DICTIONARYVAR
  5
489
102
{ACAD_REACTORS
330
488
102
}
330
488
100
DictionaryVariables
280
     0
  1
1:1
  0
DICTIONARYVAR
  5
48A
102
{ACAD_REACTORS
330
488
102
}
330
488
100
DictionaryVariables
280
     0
  1
1
  0
DICTIONARY
  5
4AD
330
3D
100
AcDbDictionary
280
     1
281
     1
  3
ACAD_XREC_ROUNDTRIP
360
4AE
  0
DICTIONARY
  5
4AB
330
3C
100
AcDbDictionary
280
     1
281
     1
  3
ACAD_XREC_ROUNDTRIP
360
4AC
  0
DICTIONARY
  5
4AF
330
3E
100
AcDbDictionary
280
     1
281
     1
  3
ACAD_XREC_ROUNDTRIP
360
4B0
  0
DICTIONARY
  5
493
330
2F
100
AcDbDictionary
280
     1
281
     1
  3
ACAD_XREC_ROUNDTRIP
360
494
  0
DICTIONARY
  5
497
330
31
100
AcDbDictionary
280
     1
281
     1
  3
ACAD_XREC_ROUNDTRIP
360
498
  0
DICTIONARY
  5
495
330
30
100
AcDbDictionary
280
     1
281
     1
  3
ACAD_XREC_ROUNDTRIP
360
496
  0
DICTIONARY
  5
499
330
32
100
AcDbDictionary
280
     1
281
     1
  3
ACAD_XREC_ROUNDTRIP
360
49A
  0
DICTIONARY
  5
4A1
330
36
100
AcDbDictionary
280
     1
281
     1
  3
ACAD_XREC_ROUNDTRIP
360
4A2
  0
DICTIONARY
  5
4A9
330
3A
100
AcDbDictionary
280
     1
281
     1
  3
ACAD_XREC_ROUNDTRIP
360
4AA
  0
DICTIONARY
  5
49D
330
34
100
AcDbDictionary
280
     1
281
     1
  3
ACAD_XREC_ROUNDTRIP
360
49E
  0
DICTIONARY
  5
49F
330
35
100
AcDbDictionary
280
     1
281
     1
  3
ACAD_XREC_ROUNDTRIP
360
4A0
  0
DICTIONARY
  5
4A7
330
39
100
AcDbDictionary
280
     1
281
     1
  3
ACAD_XREC_ROUNDTRIP
360
4A8
  0
DICTIONARY
  5
48B
330
2B
100
AcDbDictionary
280
     1
281
     1
  3
ACAD_XREC_ROUNDTRIP
360
48C
  0
DICTIONARY
  5
48D
330
2C
100
AcDbDictionary
280
     1
281
     1
  3
ACAD_XREC_ROUNDTRIP
360
48E
  0
DICTIONARY
  5
48F
330
2D
100
AcDbDictionary
280
     1
281
     1
  3
ACAD_XREC_ROUNDTRIP
360
490
  0
DICTIONARY
  5
491
330
2E
100
AcDbDictionary
280
     1
281
     1
  3
ACAD_XREC_ROUNDTRIP
360
492
  0
DICTIONARY
  5
4A5
330
38
100
AcDbDictionary
280
     1
281
     1
  3
ACAD_XREC_ROUNDTRIP
360
4A6
  0
DICTIONARY
  5
49B
330
33
100
AcDbDictionary
280
     1
281
     1
  3
ACAD_XREC_ROUNDTRIP
360
49C
  0
DICTIONARY
  5
4A3
330
37
100
AcDbDictionary
280
     1
281
     1
  3
ACAD_XREC_ROUNDTRIP
360
4A4
  0
XRECORD
  5
4AE
102
{ACAD_REACTORS
330
4AD
102
}
330
4AD
100
AcDbXrecord
280
     1
102
MATERIAL
148
0.0
149
0.0
149
0.0
 93
        0
 94
      127
282
     0
 72
     1
 77
     1
171
     1
175
     1
179
     1
273
     0
  0
XRECORD
  5
4AC
102
{ACAD_REACTORS
330
4AB
102
}
330
4AB
100
AcDbXrecord
280
     1
102
MATERIAL
148
0.0
149
0.0
149
0.0
 93
        0
 94
      127
282
     0
 72
     1
 77
     1
171
     1
175
     1
179
     1
273
     0
  0
XRECORD
  5
4B0
102
{ACAD_REACTORS
330
4AF
102
}
330
4AF
100
AcDbXrecord
280
     1
102
MATERIAL
148
0.0
149
0.0
149
0.0
 93
        0
 94
      127
282
     0
 72
     1
 77
     1
171
     1
175
     1
179
     1
273
     0
  0
XRECORD
  5
494
102
{ACAD_REACTORS
330
493
102
}
330
493
100
AcDbXrecord
280
     1
102
RTVSPropertyOp0
 70
     1
102
RTVSPropertyOp1
 70
     1
102
RTVSPropertyOp2
 70
     1
102
RTVSPropertyOp3
 70
     1
102
RTVSPropertyOp4
 70
     1
102
RTVSPropertyOp5
 70
     1
102
RTVSPropertyOp6
 70
     1
102
RTVSPropertyOp7
 70
     1
102
RTVSPropertyOp8
 70
     1
102
RTVSPropertyOp9
 70
     1
102
RTVSPropertyOp10
 70
     1
102
RTVSPropertyOp11
 70
     1
102
RTVSPropertyOp12
 70
     1
102
RTVSPropertyOp13
 70
     1
102
RTVSPropertyOp14
 70
     1
102
RTVSPropertyOp15
 70
     1
102
RTVSPropertyOp16
 70
     1
102
RTVSPropertyOp17
 70
     1
102
RTVSPropertyOp18
 70
     1
102
RTVSPropertyOp19
 70
     1
102
RTVSPropertyOp20
 70
     1
102
RTVSPropertyOp21
 70
     1
102
RTVSPropertyOp22
 70
     1
102
RTVSPropertyOp23
 70
     1
102
RTVSPropertyOp24
 70
     1
102
RTVSPropertyOp25
 70
     1
102
RTVSPropertyOp26
 70
     1
102
RTVSPropertyOp27
 70
     1
102
RTVSPropertyOp28
 70
     1
102
RTVSPropertyOp29
 70
     1
102
RTVSPropertyOp30
 70
     1
102
RTVSPropertyOp31
 70
     1
102
RTVSPropertyOp32
 70
     1
102
RTVSPropertyOp33
 70
     1
102
RTVSPropertyOp34
 70
     1
102
RTVSPropertyOp35
 70
     1
102
RTVSPropertyOp36
 70
     1
102
RTVSPropertyOp37
 70
     1
102
RTVSPropertyOp38
 70
     1
102
RTVSPropertyOp39
 70
     1
102
RTVSPropertyOp40
 70
     1
102
RTVSPropertyOp41
 70
     1
102
RTVSPropertyOp42
 70
     1
102
RTVSPropertyOp43
 70
     1
102
RTVSPropertyOp44
 70
     1
102
RTVSPropertyOp45
 70
     1
102
RTVSPropertyOp46
 70
     1
102
RTVSPropertyOp47
 70
     1
102
RTVSPropertyOp48
 70
     1
102
RTVSPropertyOp49
 70
     1
102
RTVSPropertyOp50
 70
     1
102
RTVSPropertyOp51
 70
     0
102
RTVSPropertyOp52
 70
     0
102
RTVSPropertyOp53
 70
     1
102
RTVSPropertyOp54
 70
     1
102
RTVSPropertyOp55
 70
     1
102
RTVSPropertyOp56
 70
     1
102
RTVSPropertyOp57
 70
     1
102
RTVSPost2010Prop28
280
     1
102
RTVSPost2010PropOp28
 70
     1
102
RTVSPost2010Prop29
280
     1
102
RTVSPost2010PropOp29
 70
     1
102
RTVSPost2010Prop30
280
     0
102
RTVSPost2010PropOp30
 70
     1
102
RTVSPost2010Prop31
280
     0
102
RTVSPost2010PropOp31
 70
     1
102
RTVSPost2010Prop32
280
     0
102
RTVSPost2010PropOp32
 70
     1
102
RTVSPost2010Prop33
280
     0
102
RTVSPost2010PropOp33
 70
     1
102
RTVSPost2010Prop34
280
     0
102
RTVSPost2010PropOp34
 70
     1
102
RTVSPost2010Prop35
280
     0
102
RTVSPost2010PropOp35
 70
     1
102
RTVSPost2010Prop36
280
     0
102
RTVSPost2010PropOp36
 70
     1
102
RTVSPost2010Prop37
 90
       50
102
RTVSPost2010PropOp37
 70
     1
102
RTVSPost2010Prop38
140
0.0
102
RTVSPost2010PropOp38
 70
     1
102
RTVSPost2010Prop39
140
1.0
102
RTVSPost2010PropOp39
 70
     1
102
RTVSPost2010Prop40
 90
        0
102
RTVSPost2010PropOp40
 70
     1
102
RTVSPost2010Prop41ColorIndex
 90
       18
102
RTVSPost2010Prop41ColorRGB
 90
        0
102
RTVSPost2010PropOp41
 70
     1
102
RTVSPost2010Prop42
 90
       50
102
RTVSPost2010PropOp42
 70
     1
102
RTVSPost2010Prop43
 90
        3
102
RTVSPost2010PropOp43
 70
     1
102
RTVSPost2010Prop44ColorIndex
 90
        5
102
RTVSPost2010Prop44ColorRGB
 90
      255
102
RTVSPost2010PropOp44
 70
     1
102
RTVSPost2010Prop45
280
     0
102
RTVSPost2010PropOp45
 70
     1
102
RTVSPost2010Prop46
 90
       50
102
RTVSPost2010PropOp46
 70
     1
102
RTVSPost2010Prop47
 90
       50
102
RTVSPost2010PropOp47
 70
     1
102
RTVSPost2010Prop48
 90
       50
102
RTVSPost2010PropOp48
 70
     1
102
RTVSPost2010Prop49
280
     0
102
RTVSPost2010PropOp49
 70
     1
102
RTVSPost2010Prop50
 90
       50
102
RTVSPost2010PropOp50
 70
     1
102
RTVSPost2010Prop51ColorIndex
 90
      256
102
RTVSPost2010Prop51ColorRGB
 90
-16777216
102
RTVSPost2010PropOp51
 70
     0
102
RTVSPost2010Prop52
140
1.0
102
RTVSPost2010PropOp52
 70
     0
102
RTVSPost2010Prop53
 90
        2
102
RTVSPost2010PropOp53
 70
     1
102
RTVSPost2010Prop54
  1
strokes_ogs.tif
102
RTVSPost2010PropOp54
 70
     1
102
RTVSPost2010Prop55
280
     0
102
RTVSPost2010PropOp55
 70
     1
102
RTVSPost2010Prop56
140
1.0
102
RTVSPost2010PropOp56
 70
     1
102
RTVSPost2010Prop57
140
1.0
102
RTVSPost2010PropOp57
 70
     1
  0
XRECORD
  5
498
102
{ACAD_REACTORS
330
497
102
}
330
497
100
AcDbXrecord
280
     1
102
RTVSPropertyOp0
 70
     1
102
RTVSPropertyOp1
 70
     1
102
RTVSPropertyOp2
 70
     1
102
RTVSPropertyOp3
 70
     1
102
RTVSPropertyOp4
 70
     1
102
RTVSPropertyOp5
 70
     1
102
RTVSPropertyOp6
 70
     1
102
RTVSPropertyOp7
 70
     1
102
RTVSPropertyOp8
 70
     1
102
RTVSPropertyOp9
 70
     1
102
RTVSPropertyOp10
 70
     1
102
RTVSPropertyOp11
 70
     1
102
RTVSPropertyOp12
 70
     1
102
RTVSPropertyOp13
 70
     1
102
RTVSPropertyOp14
 70
     1
102
RTVSPropertyOp15
 70
     1
102
RTVSPropertyOp16
 70
     1
102
RTVSPropertyOp17
 70
     1
102
RTVSPropertyOp18
 70
     1
102
RTVSPropertyOp19
 70
     1
102
RTVSPropertyOp20
 70
     1
102
RTVSPropertyOp21
 70
     1
102
RTVSPropertyOp22
 70
     1
102
RTVSPropertyOp23
 70
     1
102
RTVSPropertyOp24
 70
     1
102
RTVSPropertyOp25
 70
     1
102
RTVSPropertyOp26
 70
     1
102
RTVSPropertyOp27
 70
     1
102
RTVSPropertyOp28
 70
     1
102
RTVSPropertyOp29
 70
     1
102
RTVSPropertyOp30
 70
     1
102
RTVSPropertyOp31
 70
     1
102
RTVSPropertyOp32
 70
     1
102
RTVSPropertyOp33
 70
     1
102
RTVSPropertyOp34
 70
     1
102
RTVSPropertyOp35
 70
     1
102
RTVSPropertyOp36
 70
     1
102
RTVSPropertyOp37
 70
     1
102
RTVSPropertyOp38
 70
     1
102
RTVSPropertyOp39
 70
     1
102
RTVSPropertyOp40
 70
     1
102
RTVSPropertyOp41
 70
     1
102
RTVSPropertyOp42
 70
     1
102
RTVSPropertyOp43
 70
     1
102
RTVSPropertyOp44
 70
     1
102
RTVSPropertyOp45
 70
     1
102
RTVSPropertyOp46
 70
     1
102
RTVSPropertyOp47
 70
     1
102
RTVSPropertyOp48
 70
     1
102
RTVSPropertyOp49
 70
     1
102
RTVSPropertyOp50
 70
     1
102
RTVSPropertyOp51
 70
     0
102
RTVSPropertyOp52
 70
     0
102
RTVSPropertyOp53
 70
     1
102
RTVSPropertyOp54
 70
     1
102
RTVSPropertyOp55
 70
     1
102
RTVSPropertyOp56
 70
     1
102
RTVSPropertyOp57
 70
     1
102
RTVSPost2010Prop28
280
     0
102
RTVSPost2010PropOp28
 70
     1
102
RTVSPost2010Prop29
280
     1
102
RTVSPost2010PropOp29
 70
     1
102
RTVSPost2010Prop30
280
     1
102
RTVSPost2010PropOp30
 70
     1
102
RTVSPost2010Prop31
280
     0
102
RTVSPost2010PropOp31
 70
     1
102
RTVSPost2010Prop32
280
     0
102
RTVSPost2010PropOp32
 70
     1
102
RTVSPost2010Prop33
280
     0
102
RTVSPost2010PropOp33
 70
     1
102
RTVSPost2010Prop34
280
     0
102
RTVSPost2010PropOp34
 70
     1
102
RTVSPost2010Prop35
280
     0
102
RTVSPost2010PropOp35
 70
     1
102
RTVSPost2010Prop36
280
     0
102
RTVSPost2010PropOp36
 70
     1
102
RTVSPost2010Prop37
 90
       50
102
RTVSPost2010PropOp37
 70
     1
102
RTVSPost2010Prop38
140
0.0
102
RTVSPost2010PropOp38
 70
     1
102
RTVSPost2010Prop39
140
1.0
102
RTVSPost2010PropOp39
 70
     1
102
RTVSPost2010Prop40
 90
        0
102
RTVSPost2010PropOp40
 70
     1
102
RTVSPost2010Prop41ColorIndex
 90
       18
102
RTVSPost2010Prop41ColorRGB
 90
        0
102
RTVSPost2010PropOp41
 70
     1
102
RTVSPost2010Prop42
 90
       50
102
RTVSPost2010PropOp42
 70
     1
102
RTVSPost2010Prop43
 90
        3
102
RTVSPost2010PropOp43
 70
     1
102
RTVSPost2010Prop44ColorIndex
 90
        5
102
RTVSPost2010Prop44ColorRGB
 90
      255
102
RTVSPost2010PropOp44
 70
     1
102
RTVSPost2010Prop45
280
     0
102
RTVSPost2010PropOp45
 70
     1
102
RTVSPost2010Prop46
 90
       50
102
RTVSPost2010PropOp46
 70
     1
102
RTVSPost2010Prop47
 90
       50
102
RTVSPost2010PropOp47
 70
     1
102
RTVSPost2010Prop48
 90
       50
102
RTVSPost2010PropOp48
 70
     1
102
RTVSPost2010Prop49
280
     0
102
RTVSPost2010PropOp49
 70
     1
102
RTVSPost2010Prop50
 90
       50
102
RTVSPost2010PropOp50
 70
     1
102
RTVSPost2010Prop51ColorIndex
 90
      256
102
RTVSPost2010Prop51ColorRGB
 90
-16777216
102
RTVSPost2010PropOp51
 70
     0
102
RTVSPost2010Prop52
140
1.0
102
RTVSPost2010PropOp52
 70
     0
102
RTVSPost2010Prop53
 90
        2
102
RTVSPost2010PropOp53
 70
     1
102
RTVSPost2010Prop54
  1
strokes_ogs.tif
102
RTVSPost2010PropOp54
 70
     1
102
RTVSPost2010Prop55
280
     0
102
RTVSPost2010PropOp55
 70
     1
102
RTVSPost2010Prop56
140
1.0
102
RTVSPost2010PropOp56
 70
     1
102
RTVSPost2010Prop57
140
1.0
102
RTVSPost2010PropOp57
 70
     1
  0
XRECORD
  5
496
102
{ACAD_REACTORS
330
495
102
}
330
495
100
AcDbXrecord
280
     1
102
RTVSPropertyOp0
 70
     1
102
RTVSPropertyOp1
 70
     1
102
RTVSPropertyOp2
 70
     1
102
RTVSPropertyOp3
 70
     1
102
RTVSPropertyOp4
 70
     1
102
RTVSPropertyOp5
 70
     1
102
RTVSPropertyOp6
 70
     1
102
RTVSPropertyOp7
 70
     1
102
RTVSPropertyOp8
 70
     1
102
RTVSPropertyOp9
 70
     1
102
RTVSPropertyOp10
 70
     1
102
RTVSPropertyOp11
 70
     1
102
RTVSPropertyOp12
 70
     1
102
RTVSPropertyOp13
 70
     1
102
RTVSPropertyOp14
 70
     1
102
RTVSPropertyOp15
 70
     1
102
RTVSPropertyOp16
 70
     1
102
RTVSPropertyOp17
 70
     1
102
RTVSPropertyOp18
 70
     1
102
RTVSPropertyOp19
 70
     1
102
RTVSPropertyOp20
 70
     1
102
RTVSPropertyOp21
 70
     1
102
RTVSPropertyOp22
 70
     1
102
RTVSPropertyOp23
 70
     1
102
RTVSPropertyOp24
 70
     1
102
RTVSPropertyOp25
 70
     1
102
RTVSPropertyOp26
 70
     1
102
RTVSPropertyOp27
 70
     1
102
RTVSPropertyOp28
 70
     1
102
RTVSPropertyOp29
 70
     1
102
RTVSPropertyOp30
 70
     1
102
RTVSPropertyOp31
 70
     1
102
RTVSPropertyOp32
 70
     1
102
RTVSPropertyOp33
 70
     1
102
RTVSPropertyOp34
 70
     1
102
RTVSPropertyOp35
 70
     1
102
RTVSPropertyOp36
 70
     1
102
RTVSPropertyOp37
 70
     1
102
RTVSPropertyOp38
 70
     1
102
RTVSPropertyOp39
 70
     1
102
RTVSPropertyOp40
 70
     1
102
RTVSPropertyOp41
 70
     1
102
RTVSPropertyOp42
 70
     1
102
RTVSPropertyOp43
 70
     1
102
RTVSPropertyOp44
 70
     1
102
RTVSPropertyOp45
 70
     1
102
RTVSPropertyOp46
 70
     1
102
RTVSPropertyOp47
 70
     1
102
RTVSPropertyOp48
 70
     1
102
RTVSPropertyOp49
 70
     1
102
RTVSPropertyOp50
 70
     1
102
RTVSPropertyOp51
 70
     0
102
RTVSPropertyOp52
 70
     0
102
RTVSPropertyOp53
 70
     1
102
RTVSPropertyOp54
 70
     1
102
RTVSPropertyOp55
 70
     1
102
RTVSPropertyOp56
 70
     1
102
RTVSPropertyOp57
 70
     1
102
RTVSPost2010Prop28
280
     0
102
RTVSPost2010PropOp28
 70
     1
102
RTVSPost2010Prop29
280
     1
102
RTVSPost2010PropOp29
 70
     1
102
RTVSPost2010Prop30
280
     1
102
RTVSPost2010PropOp30
 70
     1
102
RTVSPost2010Prop31
280
     0
102
RTVSPost2010PropOp31
 70
     1
102
RTVSPost2010Prop32
280
     0
102
RTVSPost2010PropOp32
 70
     1
102
RTVSPost2010Prop33
280
     0
102
RTVSPost2010PropOp33
 70
     1
102
RTVSPost2010Prop34
280
     0
102
RTVSPost2010PropOp34
 70
     1
102
RTVSPost2010Prop35
280
     0
102
RTVSPost2010PropOp35
 70
     1
102
RTVSPost2010Prop36
280
     0
102
RTVSPost2010PropOp36
 70
     1
102
RTVSPost2010Prop37
 90
       50
102
RTVSPost2010PropOp37
 70
     1
102
RTVSPost2010Prop38
140
0.0
102
RTVSPost2010PropOp38
 70
     1
102
RTVSPost2010Prop39
140
1.0
102
RTVSPost2010PropOp39
 70
     1
102
RTVSPost2010Prop40
 90
        0
102
RTVSPost2010PropOp40
 70
     1
102
RTVSPost2010Prop41ColorIndex
 90
       18
102
RTVSPost2010Prop41ColorRGB
 90
        0
102
RTVSPost2010PropOp41
 70
     1
102
RTVSPost2010Prop42
 90
       50
102
RTVSPost2010PropOp42
 70
     1
102
RTVSPost2010Prop43
 90
        3
102
RTVSPost2010PropOp43
 70
     1
102
RTVSPost2010Prop44ColorIndex
 90
        5
102
RTVSPost2010Prop44ColorRGB
 90
      255
102
RTVSPost2010PropOp44
 70
     1
102
RTVSPost2010Prop45
280
     0
102
RTVSPost2010PropOp45
 70
     1
102
RTVSPost2010Prop46
 90
       50
102
RTVSPost2010PropOp46
 70
     1
102
RTVSPost2010Prop47
 90
       50
102
RTVSPost2010PropOp47
 70
     1
102
RTVSPost2010Prop48
 90
       50
102
RTVSPost2010PropOp48
 70
     1
102
RTVSPost2010Prop49
280
     0
102
RTVSPost2010PropOp49
 70
     1
102
RTVSPost2010Prop50
 90
       50
102
RTVSPost2010PropOp50
 70
     1
102
RTVSPost2010Prop51ColorIndex
 90
      256
102
RTVSPost2010Prop51ColorRGB
 90
-16777216
102
RTVSPost2010PropOp51
 70
     0
102
RTVSPost2010Prop52
140
1.0
102
RTVSPost2010PropOp52
 70
     0
102
RTVSPost2010Prop53
 90
        2
102
RTVSPost2010PropOp53
 70
     1
102
RTVSPost2010Prop54
  1
strokes_ogs.tif
102
RTVSPost2010PropOp54
 70
     1
102
RTVSPost2010Prop55
280
     0
102
RTVSPost2010PropOp55
 70
     1
102
RTVSPost2010Prop56
140
1.0
102
RTVSPost2010PropOp56
 70
     1
102
RTVSPost2010Prop57
140
1.0
102
RTVSPost2010PropOp57
 70
     1
  0
XRECORD
  5
49A
102
{ACAD_REACTORS
330
499
102
}
330
499
100
AcDbXrecord
280
     1
102
RTVSPropertyOp0
 70
     1
102
RTVSPropertyOp1
 70
     1
102
RTVSPropertyOp2
 70
     1
102
RTVSPropertyOp3
 70
     1
102
RTVSPropertyOp4
 70
     1
102
RTVSPropertyOp5
 70
     1
102
RTVSPropertyOp6
 70
     1
102
RTVSPropertyOp7
 70
     1
102
RTVSPropertyOp8
 70
     1
102
RTVSPropertyOp9
 70
     1
102
RTVSPropertyOp10
 70
     1
102
RTVSPropertyOp11
 70
     1
102
RTVSPropertyOp12
 70
     1
102
RTVSPropertyOp13
 70
     1
102
RTVSPropertyOp14
 70
     1
102
RTVSPropertyOp15
 70
     1
102
RTVSPropertyOp16
 70
     1
102
RTVSPropertyOp17
 70
     1
102
RTVSPropertyOp18
 70
     1
102
RTVSPropertyOp19
 70
     1
102
RTVSPropertyOp20
 70
     1
102
RTVSPropertyOp21
 70
     1
102
RTVSPropertyOp22
 70
     1
102
RTVSPropertyOp23
 70
     1
102
RTVSPropertyOp24
 70
     1
102
RTVSPropertyOp25
 70
     1
102
RTVSPropertyOp26
 70
     1
102
RTVSPropertyOp27
 70
     1
102
RTVSPropertyOp28
 70
     1
102
RTVSPropertyOp29
 70
     1
102
RTVSPropertyOp30
 70
     1
102
RTVSPropertyOp31
 70
     1
102
RTVSPropertyOp32
 70
     1
102
RTVSPropertyOp33
 70
     1
102
RTVSPropertyOp34
 70
     1
102
RTVSPropertyOp35
 70
     1
102
RTVSPropertyOp36
 70
     1
102
RTVSPropertyOp37
 70
     1
102
RTVSPropertyOp38
 70
     1
102
RTVSPropertyOp39
 70
     1
102
RTVSPropertyOp40
 70
     1
102
RTVSPropertyOp41
 70
     1
102
RTVSPropertyOp42
 70
     1
102
RTVSPropertyOp43
 70
     1
102
RTVSPropertyOp44
 70
     1
102
RTVSPropertyOp45
 70
     1
102
RTVSPropertyOp46
 70
     1
102
RTVSPropertyOp47
 70
     1
102
RTVSPropertyOp48
 70
     1
102
RTVSPropertyOp49
 70
     1
102
RTVSPropertyOp50
 70
     1
102
RTVSPropertyOp51
 70
     0
102
RTVSPropertyOp52
 70
     0
102
RTVSPropertyOp53
 70
     1
102
RTVSPropertyOp54
 70
     1
102
RTVSPropertyOp55
 70
     1
102
RTVSPropertyOp56
 70
     1
102
RTVSPropertyOp57
 70
     1
102
RTVSPost2010Prop28
280
     0
102
RTVSPost2010PropOp28
 70
     1
102
RTVSPost2010Prop29
280
     1
102
RTVSPost2010PropOp29
 70
     1
102
RTVSPost2010Prop30
280
     1
102
RTVSPost2010PropOp30
 70
     1
102
RTVSPost2010Prop31
280
     0
102
RTVSPost2010PropOp31
 70
     1
102
RTVSPost2010Prop32
280
     0
102
RTVSPost2010PropOp32
 70
     1
102
RTVSPost2010Prop33
280
     0
102
RTVSPost2010PropOp33
 70
     1
102
RTVSPost2010Prop34
280
     0
102
RTVSPost2010PropOp34
 70
     1
102
RTVSPost2010Prop35
280
     0
102
RTVSPost2010PropOp35
 70
     1
102
RTVSPost2010Prop36
280
     0
102
RTVSPost2010PropOp36
 70
     1
102
RTVSPost2010Prop37
 90
       50
102
RTVSPost2010PropOp37
 70
     1
102
RTVSPost2010Prop38
140
0.0
102
RTVSPost2010PropOp38
 70
     1
102
RTVSPost2010Prop39
140
1.0
102
RTVSPost2010PropOp39
 70
     1
102
RTVSPost2010Prop40
 90
        0
102
RTVSPost2010PropOp40
 70
     1
102
RTVSPost2010Prop41ColorIndex
 90
       18
102
RTVSPost2010Prop41ColorRGB
 90
        0
102
RTVSPost2010PropOp41
 70
     1
102
RTVSPost2010Prop42
 90
       50
102
RTVSPost2010PropOp42
 70
     1
102
RTVSPost2010Prop43
 90
        3
102
RTVSPost2010PropOp43
 70
     1
102
RTVSPost2010Prop44ColorIndex
 90
        5
102
RTVSPost2010Prop44ColorRGB
 90
      255
102
RTVSPost2010PropOp44
 70
     1
102
RTVSPost2010Prop45
280
     0
102
RTVSPost2010PropOp45
 70
     1
102
RTVSPost2010Prop46
 90
       50
102
RTVSPost2010PropOp46
 70
     1
102
RTVSPost2010Prop47
 90
       50
102
RTVSPost2010PropOp47
 70
     1
102
RTVSPost2010Prop48
 90
       50
102
RTVSPost2010PropOp48
 70
     1
102
RTVSPost2010Prop49
280
     0
102
RTVSPost2010PropOp49
 70
     1
102
RTVSPost2010Prop50
 90
       50
102
RTVSPost2010PropOp50
 70
     1
102
RTVSPost2010Prop51ColorIndex
 90
      256
102
RTVSPost2010Prop51ColorRGB
 90
-16777216
102
RTVSPost2010PropOp51
 70
     0
102
RTVSPost2010Prop52
140
1.0
102
RTVSPost2010PropOp52
 70
     0
102
RTVSPost2010Prop53
 90
        2
102
RTVSPost2010PropOp53
 70
     1
102
RTVSPost2010Prop54
  1
strokes_ogs.tif
102
RTVSPost2010PropOp54
 70
     1
102
RTVSPost2010Prop55
280
     0
102
RTVSPost2010PropOp55
 70
     1
102
RTVSPost2010Prop56
140
1.0
102
RTVSPost2010PropOp56
 70
     1
102
RTVSPost2010Prop57
140
1.0
102
RTVSPost2010PropOp57
 70
     1
  0
XRECORD
  5
4A2
102
{ACAD_REACTORS
330
4A1
102
}
330
4A1
100
AcDbXrecord
280
     1
102
RTVSPropertyOp0
 70
     1
102
RTVSPropertyOp1
 70
     1
102
RTVSPropertyOp2
 70
     1
102
RTVSPropertyOp3
 70
     1
102
RTVSPropertyOp4
 70
     1
102
RTVSPropertyOp5
 70
     1
102
RTVSPropertyOp6
 70
     1
102
RTVSPropertyOp7
 70
     1
102
RTVSPropertyOp8
 70
     1
102
RTVSPropertyOp9
 70
     1
102
RTVSPropertyOp10
 70
     1
102
RTVSPropertyOp11
 70
     1
102
RTVSPropertyOp12
 70
     1
102
RTVSPropertyOp13
 70
     1
102
RTVSPropertyOp14
 70
     1
102
RTVSPropertyOp15
 70
     1
102
RTVSPropertyOp16
 70
     1
102
RTVSPropertyOp17
 70
     1
102
RTVSPropertyOp18
 70
     1
102
RTVSPropertyOp19
 70
     1
102
RTVSPropertyOp20
 70
     1
102
RTVSPropertyOp21
 70
     1
102
RTVSPropertyOp22
 70
     1
102
RTVSPropertyOp23
 70
     1
102
RTVSPropertyOp24
 70
     1
102
RTVSPropertyOp25
 70
     1
102
RTVSPropertyOp26
 70
     1
102
RTVSPropertyOp27
 70
     1
102
RTVSPropertyOp28
 70
     1
102
RTVSPropertyOp29
 70
     1
102
RTVSPropertyOp30
 70
     1
102
RTVSPropertyOp31
 70
     1
102
RTVSPropertyOp32
 70
     1
102
RTVSPropertyOp33
 70
     1
102
RTVSPropertyOp34
 70
     1
102
RTVSPropertyOp35
 70
     1
102
RTVSPropertyOp36
 70
     1
102
RTVSPropertyOp37
 70
     1
102
RTVSPropertyOp38
 70
     1
102
RTVSPropertyOp39
 70
     1
102
RTVSPropertyOp40
 70
     1
102
RTVSPropertyOp41
 70
     1
102
RTVSPropertyOp42
 70
     1
102
RTVSPropertyOp43
 70
     1
102
RTVSPropertyOp44
 70
     1
102
RTVSPropertyOp45
 70
     1
102
RTVSPropertyOp46
 70
     1
102
RTVSPropertyOp47
 70
     1
102
RTVSPropertyOp48
 70
     1
102
RTVSPropertyOp49
 70
     1
102
RTVSPropertyOp50
 70
     1
102
RTVSPropertyOp51
 70
     0
102
RTVSPropertyOp52
 70
     0
102
RTVSPropertyOp53
 70
     1
102
RTVSPropertyOp54
 70
     1
102
RTVSPropertyOp55
 70
     1
102
RTVSPropertyOp56
 70
     1
102
RTVSPropertyOp57
 70
     1
102
RTVSPost2010Prop28
280
     0
102
RTVSPost2010PropOp28
 70
     1
102
RTVSPost2010Prop29
280
     1
102
RTVSPost2010PropOp29
 70
     1
102
RTVSPost2010Prop30
280
     1
102
RTVSPost2010PropOp30
 70
     1
102
RTVSPost2010Prop31
280
     0
102
RTVSPost2010PropOp31
 70
     1
102
RTVSPost2010Prop32
280
     0
102
RTVSPost2010PropOp32
 70
     1
102
RTVSPost2010Prop33
280
     0
102
RTVSPost2010PropOp33
 70
     1
102
RTVSPost2010Prop34
280
     0
102
RTVSPost2010PropOp34
 70
     1
102
RTVSPost2010Prop35
280
     0
102
RTVSPost2010PropOp35
 70
     1
102
RTVSPost2010Prop36
280
     0
102
RTVSPost2010PropOp36
 70
     1
102
RTVSPost2010Prop37
 90
       50
102
RTVSPost2010PropOp37
 70
     1
102
RTVSPost2010Prop38
140
0.0
102
RTVSPost2010PropOp38
 70
     1
102
RTVSPost2010Prop39
140
1.0
102
RTVSPost2010PropOp39
 70
     1
102
RTVSPost2010Prop40
 90
        0
102
RTVSPost2010PropOp40
 70
     1
102
RTVSPost2010Prop41ColorIndex
 90
       18
102
RTVSPost2010Prop41ColorRGB
 90
        0
102
RTVSPost2010PropOp41
 70
     1
102
RTVSPost2010Prop42
 90
       50
102
RTVSPost2010PropOp42
 70
     1
102
RTVSPost2010Prop43
 90
        3
102
RTVSPost2010PropOp43
 70
     1
102
RTVSPost2010Prop44ColorIndex
 90
        5
102
RTVSPost2010Prop44ColorRGB
 90
      255
102
RTVSPost2010PropOp44
 70
     1
102
RTVSPost2010Prop45
280
     0
102
RTVSPost2010PropOp45
 70
     1
102
RTVSPost2010Prop46
 90
       50
102
RTVSPost2010PropOp46
 70
     1
102
RTVSPost2010Prop47
 90
       50
102
RTVSPost2010PropOp47
 70
     1
102
RTVSPost2010Prop48
 90
       50
102
RTVSPost2010PropOp48
 70
     1
102
RTVSPost2010Prop49
280
     0
102
RTVSPost2010PropOp49
 70
     1
102
RTVSPost2010Prop50
 90
       50
102
RTVSPost2010PropOp50
 70
     1
102
RTVSPost2010Prop51ColorIndex
 90
      256
102
RTVSPost2010Prop51ColorRGB
 90
-16777216
102
RTVSPost2010PropOp51
 70
     0
102
RTVSPost2010Prop52
140
1.0
102
RTVSPost2010PropOp52
 70
     0
102
RTVSPost2010Prop53
 90
        2
102
RTVSPost2010PropOp53
 70
     1
102
RTVSPost2010Prop54
  1
strokes_ogs.tif
102
RTVSPost2010PropOp54
 70
     1
102
RTVSPost2010Prop55
280
     0
102
RTVSPost2010PropOp55
 70
     1
102
RTVSPost2010Prop56
140
1.0
102
RTVSPost2010PropOp56
 70
     1
102
RTVSPost2010Prop57
140
1.0
102
RTVSPost2010PropOp57
 70
     1
  0
XRECORD
  5
4AA
102
{ACAD_REACTORS
330
4A9
102
}
330
4A9
100
AcDbXrecord
280
     1
102
RTVSPropertyOp0
 70
     1
102
RTVSPropertyOp1
 70
     1
102
RTVSPropertyOp2
 70
     1
102
RTVSPropertyOp3
 70
     1
102
RTVSPropertyOp4
 70
     1
102
RTVSPropertyOp5
 70
     1
102
RTVSPropertyOp6
 70
     1
102
RTVSPropertyOp7
 70
     1
102
RTVSPropertyOp8
 70
     1
102
RTVSPropertyOp9
 70
     1
102
RTVSPropertyOp10
 70
     1
102
RTVSPropertyOp11
 70
     1
102
RTVSPropertyOp12
 70
     1
102
RTVSPropertyOp13
 70
     1
102
RTVSPropertyOp14
 70
     1
102
RTVSPropertyOp15
 70
     1
102
RTVSPropertyOp16
 70
     1
102
RTVSPropertyOp17
 70
     1
102
RTVSPropertyOp18
 70
     1
102
RTVSPropertyOp19
 70
     1
102
RTVSPropertyOp20
 70
     1
102
RTVSPropertyOp21
 70
     1
102
RTVSPropertyOp22
 70
     1
102
RTVSPropertyOp23
 70
     1
102
RTVSPropertyOp24
 70
     1
102
RTVSPropertyOp25
 70
     1
102
RTVSPropertyOp26
 70
     1
102
RTVSPropertyOp27
 70
     1
102
RTVSPropertyOp28
 70
     1
102
RTVSPropertyOp29
 70
     1
102
RTVSPropertyOp30
 70
     1
102
RTVSPropertyOp31
 70
     1
102
RTVSPropertyOp32
 70
     1
102
RTVSPropertyOp33
 70
     1
102
RTVSPropertyOp34
 70
     1
102
RTVSPropertyOp35
 70
     1
102
RTVSPropertyOp36
 70
     1
102
RTVSPropertyOp37
 70
     1
102
RTVSPropertyOp38
 70
     1
102
RTVSPropertyOp39
 70
     1
102
RTVSPropertyOp40
 70
     1
102
RTVSPropertyOp41
 70
     1
102
RTVSPropertyOp42
 70
     1
102
RTVSPropertyOp43
 70
     1
102
RTVSPropertyOp44
 70
     1
102
RTVSPropertyOp45
 70
     1
102
RTVSPropertyOp46
 70
     1
102
RTVSPropertyOp47
 70
     1
102
RTVSPropertyOp48
 70
     1
102
RTVSPropertyOp49
 70
     1
102
RTVSPropertyOp50
 70
     1
102
RTVSPropertyOp51
 70
     0
102
RTVSPropertyOp52
 70
     0
102
RTVSPropertyOp53
 70
     1
102
RTVSPropertyOp54
 70
     1
102
RTVSPropertyOp55
 70
     1
102
RTVSPropertyOp56
 70
     1
102
RTVSPropertyOp57
 70
     1
102
RTVSPost2010Prop28
280
     0
102
RTVSPost2010PropOp28
 70
     1
102
RTVSPost2010Prop29
280
     1
102
RTVSPost2010PropOp29
 70
     1
102
RTVSPost2010Prop30
280
     1
102
RTVSPost2010PropOp30
 70
     1
102
RTVSPost2010Prop31
280
     0
102
RTVSPost2010PropOp31
 70
     1
102
RTVSPost2010Prop32
280
     0
102
RTVSPost2010PropOp32
 70
     1
102
RTVSPost2010Prop33
280
     0
102
RTVSPost2010PropOp33
 70
     1
102
RTVSPost2010Prop34
280
     0
102
RTVSPost2010PropOp34
 70
     1
102
RTVSPost2010Prop35
280
     0
102
RTVSPost2010PropOp35
 70
     1
102
RTVSPost2010Prop36
280
     0
102
RTVSPost2010PropOp36
 70
     1
102
RTVSPost2010Prop37
 90
       50
102
RTVSPost2010PropOp37
 70
     1
102
RTVSPost2010Prop38
140
0.0
102
RTVSPost2010PropOp38
 70
     1
102
RTVSPost2010Prop39
140
1.0
102
RTVSPost2010PropOp39
 70
     1
102
RTVSPost2010Prop40
 90
        0
102
RTVSPost2010PropOp40
 70
     1
102
RTVSPost2010Prop41ColorIndex
 90
       18
102
RTVSPost2010Prop41ColorRGB
 90
        0
102
RTVSPost2010PropOp41
 70
     1
102
RTVSPost2010Prop42
 90
       50
102
RTVSPost2010PropOp42
 70
     1
102
RTVSPost2010Prop43
 90
        3
102
RTVSPost2010PropOp43
 70
     1
102
RTVSPost2010Prop44ColorIndex
 90
        5
102
RTVSPost2010Prop44ColorRGB
 90
      255
102
RTVSPost2010PropOp44
 70
     1
102
RTVSPost2010Prop45
280
     0
102
RTVSPost2010PropOp45
 70
     1
102
RTVSPost2010Prop46
 90
       50
102
RTVSPost2010PropOp46
 70
     1
102
RTVSPost2010Prop47
 90
       50
102
RTVSPost2010PropOp47
 70
     1
102
RTVSPost2010Prop48
 90
       50
102
RTVSPost2010PropOp48
 70
     1
102
RTVSPost2010Prop49
280
     0
102
RTVSPost2010PropOp49
 70
     1
102
RTVSPost2010Prop50
 90
       50
102
RTVSPost2010PropOp50
 70
     1
102
RTVSPost2010Prop51ColorIndex
 90
      256
102
RTVSPost2010Prop51ColorRGB
 90
-16777216
102
RTVSPost2010PropOp51
 70
     0
102
RTVSPost2010Prop52
140
1.0
102
RTVSPost2010PropOp52
 70
     0
102
RTVSPost2010Prop53
 90
        2
102
RTVSPost2010PropOp53
 70
     1
102
RTVSPost2010Prop54
  1
strokes_ogs.tif
102
RTVSPost2010PropOp54
 70
     1
102
RTVSPost2010Prop55
280
     0
102
RTVSPost2010PropOp55
 70
     1
102
RTVSPost2010Prop56
140
1.0
102
RTVSPost2010PropOp56
 70
     1
102
RTVSPost2010Prop57
140
1.0
102
RTVSPost2010PropOp57
 70
     1
  0
XRECORD
  5
49E
102
{ACAD_REACTORS
330
49D
102
}
330
49D
100
AcDbXrecord
280
     1
102
RTVSPropertyOp0
 70
     1
102
RTVSPropertyOp1
 70
     1
102
RTVSPropertyOp2
 70
     1
102
RTVSPropertyOp3
 70
     1
102
RTVSPropertyOp4
 70
     1
102
RTVSPropertyOp5
 70
     1
102
RTVSPropertyOp6
 70
     1
102
RTVSPropertyOp7
 70
     1
102
RTVSPropertyOp8
 70
     1
102
RTVSPropertyOp9
 70
     1
102
RTVSPropertyOp10
 70
     1
102
RTVSPropertyOp11
 70
     1
102
RTVSPropertyOp12
 70
     1
102
RTVSPropertyOp13
 70
     1
102
RTVSPropertyOp14
 70
     1
102
RTVSPropertyOp15
 70
     1
102
RTVSPropertyOp16
 70
     1
102
RTVSPropertyOp17
 70
     1
102
RTVSPropertyOp18
 70
     1
102
RTVSPropertyOp19
 70
     1
102
RTVSPropertyOp20
 70
     1
102
RTVSPropertyOp21
 70
     1
102
RTVSPropertyOp22
 70
     1
102
RTVSPropertyOp23
 70
     1
102
RTVSPropertyOp24
 70
     1
102
RTVSPropertyOp25
 70
     1
102
RTVSPropertyOp26
 70
     1
102
RTVSPropertyOp27
 70
     1
102
RTVSPropertyOp28
 70
     1
102
RTVSPropertyOp29
 70
     1
102
RTVSPropertyOp30
 70
     1
102
RTVSPropertyOp31
 70
     1
102
RTVSPropertyOp32
 70
     1
102
RTVSPropertyOp33
 70
     1
102
RTVSPropertyOp34
 70
     1
102
RTVSPropertyOp35
 70
     1
102
RTVSPropertyOp36
 70
     1
102
RTVSPropertyOp37
 70
     1
102
RTVSPropertyOp38
 70
     1
102
RTVSPropertyOp39
 70
     1
102
RTVSPropertyOp40
 70
     1
102
RTVSPropertyOp41
 70
     1
102
RTVSPropertyOp42
 70
     1
102
RTVSPropertyOp43
 70
     1
102
RTVSPropertyOp44
 70
     1
102
RTVSPropertyOp45
 70
     1
102
RTVSPropertyOp46
 70
     1
102
RTVSPropertyOp47
 70
     1
102
RTVSPropertyOp48
 70
     1
102
RTVSPropertyOp49
 70
     1
102
RTVSPropertyOp50
 70
     1
102
RTVSPropertyOp51
 70
     0
102
RTVSPropertyOp52
 70
     0
102
RTVSPropertyOp53
 70
     1
102
RTVSPropertyOp54
 70
     1
102
RTVSPropertyOp55
 70
     1
102
RTVSPropertyOp56
 70
     1
102
RTVSPropertyOp57
 70
     1
102
RTVSPost2010Prop28
280
     0
102
RTVSPost2010PropOp28
 70
     1
102
RTVSPost2010Prop29
280
     1
102
RTVSPost2010PropOp29
 70
     1
102
RTVSPost2010Prop30
280
     1
102
RTVSPost2010PropOp30
 70
     1
102
RTVSPost2010Prop31
280
     0
102
RTVSPost2010PropOp31
 70
     1
102
RTVSPost2010Prop32
280
     0
102
RTVSPost2010PropOp32
 70
     1
102
RTVSPost2010Prop33
280
     0
102
RTVSPost2010PropOp33
 70
     1
102
RTVSPost2010Prop34
280
     0
102
RTVSPost2010PropOp34
 70
     1
102
RTVSPost2010Prop35
280
     0
102
RTVSPost2010PropOp35
 70
     1
102
RTVSPost2010Prop36
280
     0
102
RTVSPost2010PropOp36
 70
     1
102
RTVSPost2010Prop37
 90
       50
102
RTVSPost2010PropOp37
 70
     1
102
RTVSPost2010Prop38
140
0.0
102
RTVSPost2010PropOp38
 70
     1
102
RTVSPost2010Prop39
140
1.0
102
RTVSPost2010PropOp39
 70
     1
102
RTVSPost2010Prop40
 90
        0
102
RTVSPost2010PropOp40
 70
     1
102
RTVSPost2010Prop41ColorIndex
 90
       18
102
RTVSPost2010Prop41ColorRGB
 90
        0
102
RTVSPost2010PropOp41
 70
     1
102
RTVSPost2010Prop42
 90
       50
102
RTVSPost2010PropOp42
 70
     1
102
RTVSPost2010Prop43
 90
        3
102
RTVSPost2010PropOp43
 70
     1
102
RTVSPost2010Prop44ColorIndex
 90
        5
102
RTVSPost2010Prop44ColorRGB
 90
      255
102
RTVSPost2010PropOp44
 70
     1
102
RTVSPost2010Prop45
280
     0
102
RTVSPost2010PropOp45
 70
     1
102
RTVSPost2010Prop46
 90
       50
102
RTVSPost2010PropOp46
 70
     1
102
RTVSPost2010Prop47
 90
       50
102
RTVSPost2010PropOp47
 70
     1
102
RTVSPost2010Prop48
 90
       50
102
RTVSPost2010PropOp48
 70
     1
102
RTVSPost2010Prop49
280
     0
102
RTVSPost2010PropOp49
 70
     1
102
RTVSPost2010Prop50
 90
       50
102
RTVSPost2010PropOp50
 70
     1
102
RTVSPost2010Prop51ColorIndex
 90
      256
102
RTVSPost2010Prop51ColorRGB
 90
-16777216
102
RTVSPost2010PropOp51
 70
     0
102
RTVSPost2010Prop52
140
1.0
102
RTVSPost2010PropOp52
 70
     0
102
RTVSPost2010Prop53
 90
        2
102
RTVSPost2010PropOp53
 70
     1
102
RTVSPost2010Prop54
  1
strokes_ogs.tif
102
RTVSPost2010PropOp54
 70
     1
102
RTVSPost2010Prop55
280
     0
102
RTVSPost2010PropOp55
 70
     1
102
RTVSPost2010Prop56
140
1.0
102
RTVSPost2010PropOp56
 70
     1
102
RTVSPost2010Prop57
140
1.0
102
RTVSPost2010PropOp57
 70
     1
  0
XRECORD
  5
4A0
102
{ACAD_REACTORS
330
49F
102
}
330
49F
100
AcDbXrecord
280
     1
102
RTVSPropertyOp0
 70
     1
102
RTVSPropertyOp1
 70
     1
102
RTVSPropertyOp2
 70
     1
102
RTVSPropertyOp3
 70
     1
102
RTVSPropertyOp4
 70
     1
102
RTVSPropertyOp5
 70
     1
102
RTVSPropertyOp6
 70
     1
102
RTVSPropertyOp7
 70
     1
102
RTVSPropertyOp8
 70
     1
102
RTVSPropertyOp9
 70
     1
102
RTVSPropertyOp10
 70
     1
102
RTVSPropertyOp11
 70
     1
102
RTVSPropertyOp12
 70
     1
102
RTVSPropertyOp13
 70
     1
102
RTVSPropertyOp14
 70
     1
102
RTVSPropertyOp15
 70
     1
102
RTVSPropertyOp16
 70
     1
102
RTVSPropertyOp17
 70
     1
102
RTVSPropertyOp18
 70
     1
102
RTVSPropertyOp19
 70
     1
102
RTVSPropertyOp20
 70
     1
102
RTVSPropertyOp21
 70
     1
102
RTVSPropertyOp22
 70
     1
102
RTVSPropertyOp23
 70
     1
102
RTVSPropertyOp24
 70
     1
102
RTVSPropertyOp25
 70
     1
102
RTVSPropertyOp26
 70
     1
102
RTVSPropertyOp27
 70
     1
102
RTVSPropertyOp28
 70
     1
102
RTVSPropertyOp29
 70
     1
102
RTVSPropertyOp30
 70
     1
102
RTVSPropertyOp31
 70
     1
102
RTVSPropertyOp32
 70
     1
102
RTVSPropertyOp33
 70
     1
102
RTVSPropertyOp34
 70
     1
102
RTVSPropertyOp35
 70
     1
102
RTVSPropertyOp36
 70
     1
102
RTVSPropertyOp37
 70
     1
102
RTVSPropertyOp38
 70
     1
102
RTVSPropertyOp39
 70
     1
102
RTVSPropertyOp40
 70
     1
102
RTVSPropertyOp41
 70
     1
102
RTVSPropertyOp42
 70
     1
102
RTVSPropertyOp43
 70
     1
102
RTVSPropertyOp44
 70
     1
102
RTVSPropertyOp45
 70
     1
102
RTVSPropertyOp46
 70
     1
102
RTVSPropertyOp47
 70
     1
102
RTVSPropertyOp48
 70
     1
102
RTVSPropertyOp49
 70
     1
102
RTVSPropertyOp50
 70
     1
102
RTVSPropertyOp51
 70
     0
102
RTVSPropertyOp52
 70
     0
102
RTVSPropertyOp53
 70
     1
102
RTVSPropertyOp54
 70
     1
102
RTVSPropertyOp55
 70
     1
102
RTVSPropertyOp56
 70
     1
102
RTVSPropertyOp57
 70
     1
102
RTVSPost2010Prop28
280
     0
102
RTVSPost2010PropOp28
 70
     1
102
RTVSPost2010Prop29
280
     1
102
RTVSPost2010PropOp29
 70
     1
102
RTVSPost2010Prop30
280
     1
102
RTVSPost2010PropOp30
 70
     1
102
RTVSPost2010Prop31
280
     0
102
RTVSPost2010PropOp31
 70
     1
102
RTVSPost2010Prop32
280
     0
102
RTVSPost2010PropOp32
 70
     1
102
RTVSPost2010Prop33
280
     0
102
RTVSPost2010PropOp33
 70
     1
102
RTVSPost2010Prop34
280
     0
102
RTVSPost2010PropOp34
 70
     1
102
RTVSPost2010Prop35
280
     0
102
RTVSPost2010PropOp35
 70
     1
102
RTVSPost2010Prop36
280
     0
102
RTVSPost2010PropOp36
 70
     1
102
RTVSPost2010Prop37
 90
       50
102
RTVSPost2010PropOp37
 70
     1
102
RTVSPost2010Prop38
140
0.0
102
RTVSPost2010PropOp38
 70
     1
102
RTVSPost2010Prop39
140
1.0
102
RTVSPost2010PropOp39
 70
     1
102
RTVSPost2010Prop40
 90
        0
102
RTVSPost2010PropOp40
 70
     1
102
RTVSPost2010Prop41ColorIndex
 90
       18
102
RTVSPost2010Prop41ColorRGB
 90
        0
102
RTVSPost2010PropOp41
 70
     1
102
RTVSPost2010Prop42
 90
       50
102
RTVSPost2010PropOp42
 70
     1
102
RTVSPost2010Prop43
 90
        3
102
RTVSPost2010PropOp43
 70
     1
102
RTVSPost2010Prop44ColorIndex
 90
        5
102
RTVSPost2010Prop44ColorRGB
 90
      255
102
RTVSPost2010PropOp44
 70
     1
102
RTVSPost2010Prop45
280
     0
102
RTVSPost2010PropOp45
 70
     1
102
RTVSPost2010Prop46
 90
       50
102
RTVSPost2010PropOp46
 70
     1
102
RTVSPost2010Prop47
 90
       50
102
RTVSPost2010PropOp47
 70
     1
102
RTVSPost2010Prop48
 90
       50
102
RTVSPost2010PropOp48
 70
     1
102
RTVSPost2010Prop49
280
     0
102
RTVSPost2010PropOp49
 70
     1
102
RTVSPost2010Prop50
 90
       50
102
RTVSPost2010PropOp50
 70
     1
102
RTVSPost2010Prop51ColorIndex
 90
      256
102
RTVSPost2010Prop51ColorRGB
 90
-16777216
102
RTVSPost2010PropOp51
 70
     0
102
RTVSPost2010Prop52
140
1.0
102
RTVSPost2010PropOp52
 70
     0
102
RTVSPost2010Prop53
 90
        2
102
RTVSPost2010PropOp53
 70
     1
102
RTVSPost2010Prop54
  1
strokes_ogs.tif
102
RTVSPost2010PropOp54
 70
     1
102
RTVSPost2010Prop55
280
     0
102
RTVSPost2010PropOp55
 70
     1
102
RTVSPost2010Prop56
140
1.0
102
RTVSPost2010PropOp56
 70
     1
102
RTVSPost2010Prop57
140
1.0
102
RTVSPost2010PropOp57
 70
     1
  0
XRECORD
  5
4A8
102
{ACAD_REACTORS
330
4A7
102
}
330
4A7
100
AcDbXrecord
280
     1
102
RTVSPropertyOp0
 70
     1
102
RTVSPropertyOp1
 70
     1
102
RTVSPropertyOp2
 70
     1
102
RTVSPropertyOp3
 70
     1
102
RTVSPropertyOp4
 70
     1
102
RTVSPropertyOp5
 70
     1
102
RTVSPropertyOp6
 70
     1
102
RTVSPropertyOp7
 70
     1
102
RTVSPropertyOp8
 70
     1
102
RTVSPropertyOp9
 70
     1
102
RTVSPropertyOp10
 70
     1
102
RTVSPropertyOp11
 70
     1
102
RTVSPropertyOp12
 70
     1
102
RTVSPropertyOp13
 70
     1
102
RTVSPropertyOp14
 70
     1
102
RTVSPropertyOp15
 70
     1
102
RTVSPropertyOp16
 70
     1
102
RTVSPropertyOp17
 70
     1
102
RTVSPropertyOp18
 70
     1
102
RTVSPropertyOp19
 70
     1
102
RTVSPropertyOp20
 70
     1
102
RTVSPropertyOp21
 70
     1
102
RTVSPropertyOp22
 70
     1
102
RTVSPropertyOp23
 70
     1
102
RTVSPropertyOp24
 70
     1
102
RTVSPropertyOp25
 70
     1
102
RTVSPropertyOp26
 70
     1
102
RTVSPropertyOp27
 70
     1
102
RTVSPropertyOp28
 70
     1
102
RTVSPropertyOp29
 70
     1
102
RTVSPropertyOp30
 70
     1
102
RTVSPropertyOp31
 70
     1
102
RTVSPropertyOp32
 70
     1
102
RTVSPropertyOp33
 70
     1
102
RTVSPropertyOp34
 70
     1
102
RTVSPropertyOp35
 70
     1
102
RTVSPropertyOp36
 70
     1
102
RTVSPropertyOp37
 70
     1
102
RTVSPropertyOp38
 70
     1
102
RTVSPropertyOp39
 70
     1
102
RTVSPropertyOp40
 70
     1
102
RTVSPropertyOp41
 70
     1
102
RTVSPropertyOp42
 70
     1
102
RTVSPropertyOp43
 70
     1
102
RTVSPropertyOp44
 70
     1
102
RTVSPropertyOp45
 70
     1
102
RTVSPropertyOp46
 70
     1
102
RTVSPropertyOp47
 70
     1
102
RTVSPropertyOp48
 70
     1
102
RTVSPropertyOp49
 70
     1
102
RTVSPropertyOp50
 70
     1
102
RTVSPropertyOp51
 70
     0
102
RTVSPropertyOp52
 70
     0
102
RTVSPropertyOp53
 70
     1
102
RTVSPropertyOp54
 70
     1
102
RTVSPropertyOp55
 70
     1
102
RTVSPropertyOp56
 70
     1
102
RTVSPropertyOp57
 70
     1
102
RTVSPost2010Prop28
280
     0
102
RTVSPost2010PropOp28
 70
     1
102
RTVSPost2010Prop29
280
     1
102
RTVSPost2010PropOp29
 70
     1
102
RTVSPost2010Prop30
280
     1
102
RTVSPost2010PropOp30
 70
     1
102
RTVSPost2010Prop31
280
     0
102
RTVSPost2010PropOp31
 70
     1
102
RTVSPost2010Prop32
280
     0
102
RTVSPost2010PropOp32
 70
     1
102
RTVSPost2010Prop33
280
     0
102
RTVSPost2010PropOp33
 70
     1
102
RTVSPost2010Prop34
280
     0
102
RTVSPost2010PropOp34
 70
     1
102
RTVSPost2010Prop35
280
     0
102
RTVSPost2010PropOp35
 70
     1
102
RTVSPost2010Prop36
280
     0
102
RTVSPost2010PropOp36
 70
     1
102
RTVSPost2010Prop37
 90
       50
102
RTVSPost2010PropOp37
 70
     1
102
RTVSPost2010Prop38
140
0.0
102
RTVSPost2010PropOp38
 70
     1
102
RTVSPost2010Prop39
140
1.0
102
RTVSPost2010PropOp39
 70
     1
102
RTVSPost2010Prop40
 90
        0
102
RTVSPost2010PropOp40
 70
     1
102
RTVSPost2010Prop41ColorIndex
 90
       18
102
RTVSPost2010Prop41ColorRGB
 90
        0
102
RTVSPost2010PropOp41
 70
     1
102
RTVSPost2010Prop42
 90
       50
102
RTVSPost2010PropOp42
 70
     1
102
RTVSPost2010Prop43
 90
        3
102
RTVSPost2010PropOp43
 70
     1
102
RTVSPost2010Prop44ColorIndex
 90
        5
102
RTVSPost2010Prop44ColorRGB
 90
      255
102
RTVSPost2010PropOp44
 70
     1
102
RTVSPost2010Prop45
280
     0
102
RTVSPost2010PropOp45
 70
     1
102
RTVSPost2010Prop46
 90
       50
102
RTVSPost2010PropOp46
 70
     1
102
RTVSPost2010Prop47
 90
       50
102
RTVSPost2010PropOp47
 70
     1
102
RTVSPost2010Prop48
 90
       50
102
RTVSPost2010PropOp48
 70
     1
102
RTVSPost2010Prop49
280
     0
102
RTVSPost2010PropOp49
 70
     1
102
RTVSPost2010Prop50
 90
       50
102
RTVSPost2010PropOp50
 70
     1
102
RTVSPost2010Prop51ColorIndex
 90
      256
102
RTVSPost2010Prop51ColorRGB
 90
-16777216
102
RTVSPost2010PropOp51
 70
     0
102
RTVSPost2010Prop52
140
1.0
102
RTVSPost2010PropOp52
 70
     0
102
RTVSPost2010Prop53
 90
        2
102
RTVSPost2010PropOp53
 70
     1
102
RTVSPost2010Prop54
  1
strokes_ogs.tif
102
RTVSPost2010PropOp54
 70
     1
102
RTVSPost2010Prop55
280
     0
102
RTVSPost2010PropOp55
 70
     1
102
RTVSPost2010Prop56
140
1.0
102
RTVSPost2010PropOp56
 70
     1
102
RTVSPost2010Prop57
140
1.0
102
RTVSPost2010PropOp57
 70
     1
  0
XRECORD
  5
48C
102
{ACAD_REACTORS
330
48B
102
}
330
48B
100
AcDbXrecord
280
     1
102
RTVSPropertyOp0
 70
     1
102
RTVSPropertyOp1
 70
     1
102
RTVSPropertyOp2
 70
     1
102
RTVSPropertyOp3
 70
     1
102
RTVSPropertyOp4
 70
     1
102
RTVSPropertyOp5
 70
     1
102
RTVSPropertyOp6
 70
     1
102
RTVSPropertyOp7
 70
     1
102
RTVSPropertyOp8
 70
     1
102
RTVSPropertyOp9
 70
     1
102
RTVSPropertyOp10
 70
     1
102
RTVSPropertyOp11
 70
     1
102
RTVSPropertyOp12
 70
     1
102
RTVSPropertyOp13
 70
     1
102
RTVSPropertyOp14
 70
     1
102
RTVSPropertyOp15
 70
     1
102
RTVSPropertyOp16
 70
     1
102
RTVSPropertyOp17
 70
     1
102
RTVSPropertyOp18
 70
     1
102
RTVSPropertyOp19
 70
     1
102
RTVSPropertyOp20
 70
     1
102
RTVSPropertyOp21
 70
     1
102
RTVSPropertyOp22
 70
     1
102
RTVSPropertyOp23
 70
     1
102
RTVSPropertyOp24
 70
     1
102
RTVSPropertyOp25
 70
     1
102
RTVSPropertyOp26
 70
     1
102
RTVSPropertyOp27
 70
     1
102
RTVSPropertyOp28
 70
     1
102
RTVSPropertyOp29
 70
     1
102
RTVSPropertyOp30
 70
     1
102
RTVSPropertyOp31
 70
     1
102
RTVSPropertyOp32
 70
     1
102
RTVSPropertyOp33
 70
     1
102
RTVSPropertyOp34
 70
     1
102
RTVSPropertyOp35
 70
     1
102
RTVSPropertyOp36
 70
     1
102
RTVSPropertyOp37
 70
     1
102
RTVSPropertyOp38
 70
     1
102
RTVSPropertyOp39
 70
     1
102
RTVSPropertyOp40
 70
     1
102
RTVSPropertyOp41
 70
     1
102
RTVSPropertyOp42
 70
     1
102
RTVSPropertyOp43
 70
     1
102
RTVSPropertyOp44
 70
     1
102
RTVSPropertyOp45
 70
     1
102
RTVSPropertyOp46
 70
     1
102
RTVSPropertyOp47
 70
     1
102
RTVSPropertyOp48
 70
     1
102
RTVSPropertyOp49
 70
     1
102
RTVSPropertyOp50
 70
     1
102
RTVSPropertyOp51
 70
     0
102
RTVSPropertyOp52
 70
     0
102
RTVSPropertyOp53
 70
     1
102
RTVSPropertyOp54
 70
     1
102
RTVSPropertyOp55
 70
     1
102
RTVSPropertyOp56
 70
     1
102
RTVSPropertyOp57
 70
     1
102
RTVSPost2010Prop28
280
     0
102
RTVSPost2010PropOp28
 70
     1
102
RTVSPost2010Prop29
280
     1
102
RTVSPost2010PropOp29
 70
     1
102
RTVSPost2010Prop30
280
     1
102
RTVSPost2010PropOp30
 70
     1
102
RTVSPost2010Prop31
280
     0
102
RTVSPost2010PropOp31
 70
     1
102
RTVSPost2010Prop32
280
     0
102
RTVSPost2010PropOp32
 70
     1
102
RTVSPost2010Prop33
280
     0
102
RTVSPost2010PropOp33
 70
     1
102
RTVSPost2010Prop34
280
     0
102
RTVSPost2010PropOp34
 70
     1
102
RTVSPost2010Prop35
280
     0
102
RTVSPost2010PropOp35
 70
     1
102
RTVSPost2010Prop36
280
     0
102
RTVSPost2010PropOp36
 70
     1
102
RTVSPost2010Prop37
 90
       50
102
RTVSPost2010PropOp37
 70
     1
102
RTVSPost2010Prop38
140
0.0
102
RTVSPost2010PropOp38
 70
     1
102
RTVSPost2010Prop39
140
1.0
102
RTVSPost2010PropOp39
 70
     1
102
RTVSPost2010Prop40
 90
        0
102
RTVSPost2010PropOp40
 70
     1
102
RTVSPost2010Prop41ColorIndex
 90
       18
102
RTVSPost2010Prop41ColorRGB
 90
        0
102
RTVSPost2010PropOp41
 70
     1
102
RTVSPost2010Prop42
 90
       50
102
RTVSPost2010PropOp42
 70
     1
102
RTVSPost2010Prop43
 90
        3
102
RTVSPost2010PropOp43
 70
     1
102
RTVSPost2010Prop44ColorIndex
 90
        5
102
RTVSPost2010Prop44ColorRGB
 90
      255
102
RTVSPost2010PropOp44
 70
     1
102
RTVSPost2010Prop45
280
     0
102
RTVSPost2010PropOp45
 70
     1
102
RTVSPost2010Prop46
 90
       50
102
RTVSPost2010PropOp46
 70
     1
102
RTVSPost2010Prop47
 90
       50
102
RTVSPost2010PropOp47
 70
     1
102
RTVSPost2010Prop48
 90
       50
102
RTVSPost2010PropOp48
 70
     1
102
RTVSPost2010Prop49
280
     0
102
RTVSPost2010PropOp49
 70
     1
102
RTVSPost2010Prop50
 90
       50
102
RTVSPost2010PropOp50
 70
     1
102
RTVSPost2010Prop51ColorIndex
 90
      256
102
RTVSPost2010Prop51ColorRGB
 90
-16777216
102
RTVSPost2010PropOp51
 70
     0
102
RTVSPost2010Prop52
140
1.0
102
RTVSPost2010PropOp52
 70
     0
102
RTVSPost2010Prop53
 90
        2
102
RTVSPost2010PropOp53
 70
     1
102
RTVSPost2010Prop54
  1
strokes_ogs.tif
102
RTVSPost2010PropOp54
 70
     1
102
RTVSPost2010Prop55
280
     0
102
RTVSPost2010PropOp55
 70
     1
102
RTVSPost2010Prop56
140
1.0
102
RTVSPost2010PropOp56
 70
     1
102
RTVSPost2010Prop57
140
1.0
102
RTVSPost2010PropOp57
 70
     1
  0
XRECORD
  5
48E
102
{ACAD_REACTORS
330
48D
102
}
330
48D
100
AcDbXrecord
280
     1
102
RTVSPropertyOp0
 70
     1
102
RTVSPropertyOp1
 70
     1
102
RTVSPropertyOp2
 70
     1
102
RTVSPropertyOp3
 70
     1
102
RTVSPropertyOp4
 70
     1
102
RTVSPropertyOp5
 70
     1
102
RTVSPropertyOp6
 70
     1
102
RTVSPropertyOp7
 70
     1
102
RTVSPropertyOp8
 70
     1
102
RTVSPropertyOp9
 70
     1
102
RTVSPropertyOp10
 70
     1
102
RTVSPropertyOp11
 70
     1
102
RTVSPropertyOp12
 70
     1
102
RTVSPropertyOp13
 70
     1
102
RTVSPropertyOp14
 70
     1
102
RTVSPropertyOp15
 70
     1
102
RTVSPropertyOp16
 70
     1
102
RTVSPropertyOp17
 70
     1
102
RTVSPropertyOp18
 70
     1
102
RTVSPropertyOp19
 70
     1
102
RTVSPropertyOp20
 70
     1
102
RTVSPropertyOp21
 70
     1
102
RTVSPropertyOp22
 70
     1
102
RTVSPropertyOp23
 70
     1
102
RTVSPropertyOp24
 70
     1
102
RTVSPropertyOp25
 70
     1
102
RTVSPropertyOp26
 70
     1
102
RTVSPropertyOp27
 70
     1
102
RTVSPropertyOp28
 70
     1
102
RTVSPropertyOp29
 70
     1
102
RTVSPropertyOp30
 70
     1
102
RTVSPropertyOp31
 70
     1
102
RTVSPropertyOp32
 70
     1
102
RTVSPropertyOp33
 70
     1
102
RTVSPropertyOp34
 70
     1
102
RTVSPropertyOp35
 70
     1
102
RTVSPropertyOp36
 70
     1
102
RTVSPropertyOp37
 70
     1
102
RTVSPropertyOp38
 70
     1
102
RTVSPropertyOp39
 70
     1
102
RTVSPropertyOp40
 70
     1
102
RTVSPropertyOp41
 70
     1
102
RTVSPropertyOp42
 70
     1
102
RTVSPropertyOp43
 70
     1
102
RTVSPropertyOp44
 70
     1
102
RTVSPropertyOp45
 70
     1
102
RTVSPropertyOp46
 70
     1
102
RTVSPropertyOp47
 70
     1
102
RTVSPropertyOp48
 70
     1
102
RTVSPropertyOp49
 70
     1
102
RTVSPropertyOp50
 70
     1
102
RTVSPropertyOp51
 70
     0
102
RTVSPropertyOp52
 70
     0
102
RTVSPropertyOp53
 70
     1
102
RTVSPropertyOp54
 70
     1
102
RTVSPropertyOp55
 70
     1
102
RTVSPropertyOp56
 70
     1
102
RTVSPropertyOp57
 70
     1
102
RTVSPost2010Prop28
280
     0
102
RTVSPost2010PropOp28
 70
     1
102
RTVSPost2010Prop29
280
     1
102
RTVSPost2010PropOp29
 70
     1
102
RTVSPost2010Prop30
280
     1
102
RTVSPost2010PropOp30
 70
     1
102
RTVSPost2010Prop31
280
     0
102
RTVSPost2010PropOp31
 70
     1
102
RTVSPost2010Prop32
280
     0
102
RTVSPost2010PropOp32
 70
     1
102
RTVSPost2010Prop33
280
     0
102
RTVSPost2010PropOp33
 70
     1
102
RTVSPost2010Prop34
280
     0
102
RTVSPost2010PropOp34
 70
     1
102
RTVSPost2010Prop35
280
     0
102
RTVSPost2010PropOp35
 70
     1
102
RTVSPost2010Prop36
280
     0
102
RTVSPost2010PropOp36
 70
     1
102
RTVSPost2010Prop37
 90
       50
102
RTVSPost2010PropOp37
 70
     1
102
RTVSPost2010Prop38
140
0.0
102
RTVSPost2010PropOp38
 70
     1
102
RTVSPost2010Prop39
140
1.0
102
RTVSPost2010PropOp39
 70
     1
102
RTVSPost2010Prop40
 90
        0
102
RTVSPost2010PropOp40
 70
     1
102
RTVSPost2010Prop41ColorIndex
 90
       18
102
RTVSPost2010Prop41ColorRGB
 90
        0
102
RTVSPost2010PropOp41
 70
     1
102
RTVSPost2010Prop42
 90
       50
102
RTVSPost2010PropOp42
 70
     1
102
RTVSPost2010Prop43
 90
        3
102
RTVSPost2010PropOp43
 70
     1
102
RTVSPost2010Prop44ColorIndex
 90
        5
102
RTVSPost2010Prop44ColorRGB
 90
      255
102
RTVSPost2010PropOp44
 70
     1
102
RTVSPost2010Prop45
280
     0
102
RTVSPost2010PropOp45
 70
     1
102
RTVSPost2010Prop46
 90
       50
102
RTVSPost2010PropOp46
 70
     1
102
RTVSPost2010Prop47
 90
       50
102
RTVSPost2010PropOp47
 70
     1
102
RTVSPost2010Prop48
 90
       50
102
RTVSPost2010PropOp48
 70
     1
102
RTVSPost2010Prop49
280
     0
102
RTVSPost2010PropOp49
 70
     1
102
RTVSPost2010Prop50
 90
       50
102
RTVSPost2010PropOp50
 70
     1
102
RTVSPost2010Prop51ColorIndex
 90
      256
102
RTVSPost2010Prop51ColorRGB
 90
-16777216
102
RTVSPost2010PropOp51
 70
     0
102
RTVSPost2010Prop52
140
1.0
102
RTVSPost2010PropOp52
 70
     0
102
RTVSPost2010Prop53
 90
        2
102
RTVSPost2010PropOp53
 70
     1
102
RTVSPost2010Prop54
  1
strokes_ogs.tif
102
RTVSPost2010PropOp54
 70
     1
102
RTVSPost2010Prop55
280
     0
102
RTVSPost2010PropOp55
 70
     1
102
RTVSPost2010Prop56
140
1.0
102
RTVSPost2010PropOp56
 70
     1
102
RTVSPost2010Prop57
140
1.0
102
RTVSPost2010PropOp57
 70
     1
  0
XRECORD
  5
490
102
{ACAD_REACTORS
330
48F
102
}
330
48F
100
AcDbXrecord
280
     1
102
RTVSPropertyOp0
 70
     1
102
RTVSPropertyOp1
 70
     1
102
RTVSPropertyOp2
 70
     1
102
RTVSPropertyOp3
 70
     1
102
RTVSPropertyOp4
 70
     1
102
RTVSPropertyOp5
 70
     1
102
RTVSPropertyOp6
 70
     1
102
RTVSPropertyOp7
 70
     1
102
RTVSPropertyOp8
 70
     1
102
RTVSPropertyOp9
 70
     1
102
RTVSPropertyOp10
 70
     1
102
RTVSPropertyOp11
 70
     1
102
RTVSPropertyOp12
 70
     1
102
RTVSPropertyOp13
 70
     1
102
RTVSPropertyOp14
 70
     1
102
RTVSPropertyOp15
 70
     1
102
RTVSPropertyOp16
 70
     1
102
RTVSPropertyOp17
 70
     1
102
RTVSPropertyOp18
 70
     1
102
RTVSPropertyOp19
 70
     1
102
RTVSPropertyOp20
 70
     1
102
RTVSPropertyOp21
 70
     1
102
RTVSPropertyOp22
 70
     1
102
RTVSPropertyOp23
 70
     1
102
RTVSPropertyOp24
 70
     1
102
RTVSPropertyOp25
 70
     1
102
RTVSPropertyOp26
 70
     1
102
RTVSPropertyOp27
 70
     1
102
RTVSPropertyOp28
 70
     1
102
RTVSPropertyOp29
 70
     1
102
RTVSPropertyOp30
 70
     1
102
RTVSPropertyOp31
 70
     1
102
RTVSPropertyOp32
 70
     1
102
RTVSPropertyOp33
 70
     1
102
RTVSPropertyOp34
 70
     1
102
RTVSPropertyOp35
 70
     1
102
RTVSPropertyOp36
 70
     1
102
RTVSPropertyOp37
 70
     1
102
RTVSPropertyOp38
 70
     1
102
RTVSPropertyOp39
 70
     1
102
RTVSPropertyOp40
 70
     1
102
RTVSPropertyOp41
 70
     1
102
RTVSPropertyOp42
 70
     1
102
RTVSPropertyOp43
 70
     1
102
RTVSPropertyOp44
 70
     1
102
RTVSPropertyOp45
 70
     1
102
RTVSPropertyOp46
 70
     1
102
RTVSPropertyOp47
 70
     1
102
RTVSPropertyOp48
 70
     1
102
RTVSPropertyOp49
 70
     1
102
RTVSPropertyOp50
 70
     1
102
RTVSPropertyOp51
 70
     0
102
RTVSPropertyOp52
 70
     0
102
RTVSPropertyOp53
 70
     1
102
RTVSPropertyOp54
 70
     1
102
RTVSPropertyOp55
 70
     1
102
RTVSPropertyOp56
 70
     1
102
RTVSPropertyOp57
 70
     1
102
RTVSPost2010Prop28
280
     0
102
RTVSPost2010PropOp28
 70
     1
102
RTVSPost2010Prop29
280
     1
102
RTVSPost2010PropOp29
 70
     1
102
RTVSPost2010Prop30
280
     1
102
RTVSPost2010PropOp30
 70
     1
102
RTVSPost2010Prop31
280
     0
102
RTVSPost2010PropOp31
 70
     1
102
RTVSPost2010Prop32
280
     0
102
RTVSPost2010PropOp32
 70
     1
102
RTVSPost2010Prop33
280
     0
102
RTVSPost2010PropOp33
 70
     1
102
RTVSPost2010Prop34
280
     0
102
RTVSPost2010PropOp34
 70
     1
102
RTVSPost2010Prop35
280
     0
102
RTVSPost2010PropOp35
 70
     1
102
RTVSPost2010Prop36
280
     0
102
RTVSPost2010PropOp36
 70
     1
102
RTVSPost2010Prop37
 90
       50
102
RTVSPost2010PropOp37
 70
     1
102
RTVSPost2010Prop38
140
0.0
102
RTVSPost2010PropOp38
 70
     1
102
RTVSPost2010Prop39
140
1.0
102
RTVSPost2010PropOp39
 70
     1
102
RTVSPost2010Prop40
 90
        0
102
RTVSPost2010PropOp40
 70
     1
102
RTVSPost2010Prop41ColorIndex
 90
       18
102
RTVSPost2010Prop41ColorRGB
 90
        0
102
RTVSPost2010PropOp41
 70
     1
102
RTVSPost2010Prop42
 90
       50
102
RTVSPost2010PropOp42
 70
     1
102
RTVSPost2010Prop43
 90
        3
102
RTVSPost2010PropOp43
 70
     1
102
RTVSPost2010Prop44ColorIndex
 90
        5
102
RTVSPost2010Prop44ColorRGB
 90
      255
102
RTVSPost2010PropOp44
 70
     1
102
RTVSPost2010Prop45
280
     0
102
RTVSPost2010PropOp45
 70
     1
102
RTVSPost2010Prop46
 90
       50
102
RTVSPost2010PropOp46
 70
     1
102
RTVSPost2010Prop47
 90
       50
102
RTVSPost2010PropOp47
 70
     1
102
RTVSPost2010Prop48
 90
       50
102
RTVSPost2010PropOp48
 70
     1
102
RTVSPost2010Prop49
280
     0
102
RTVSPost2010PropOp49
 70
     1
102
RTVSPost2010Prop50
 90
       50
102
RTVSPost2010PropOp50
 70
     1
102
RTVSPost2010Prop51ColorIndex
 90
      256
102
RTVSPost2010Prop51ColorRGB
 90
-16777216
102
RTVSPost2010PropOp51
 70
     0
102
RTVSPost2010Prop52
140
1.0
102
RTVSPost2010PropOp52
 70
     0
102
RTVSPost2010Prop53
 90
        2
102
RTVSPost2010PropOp53
 70
     1
102
RTVSPost2010Prop54
  1
strokes_ogs.tif
102
RTVSPost2010PropOp54
 70
     1
102
RTVSPost2010Prop55
280
     0
102
RTVSPost2010PropOp55
 70
     1
102
RTVSPost2010Prop56
140
1.0
102
RTVSPost2010PropOp56
 70
     1
102
RTVSPost2010Prop57
140
1.0
102
RTVSPost2010PropOp57
 70
     1
  0
XRECORD
  5
492
102
{ACAD_REACTORS
330
491
102
}
330
491
100
AcDbXrecord
280
     1
102
RTVSPropertyOp0
 70
     1
102
RTVSPropertyOp1
 70
     1
102
RTVSPropertyOp2
 70
     1
102
RTVSPropertyOp3
 70
     1
102
RTVSPropertyOp4
 70
     1
102
RTVSPropertyOp5
 70
     1
102
RTVSPropertyOp6
 70
     1
102
RTVSPropertyOp7
 70
     1
102
RTVSPropertyOp8
 70
     1
102
RTVSPropertyOp9
 70
     1
102
RTVSPropertyOp10
 70
     1
102
RTVSPropertyOp11
 70
     1
102
RTVSPropertyOp12
 70
     1
102
RTVSPropertyOp13
 70
     1
102
RTVSPropertyOp14
 70
     1
102
RTVSPropertyOp15
 70
     1
102
RTVSPropertyOp16
 70
     1
102
RTVSPropertyOp17
 70
     1
102
RTVSPropertyOp18
 70
     1
102
RTVSPropertyOp19
 70
     1
102
RTVSPropertyOp20
 70
     1
102
RTVSPropertyOp21
 70
     1
102
RTVSPropertyOp22
 70
     1
102
RTVSPropertyOp23
 70
     1
102
RTVSPropertyOp24
 70
     1
102
RTVSPropertyOp25
 70
     1
102
RTVSPropertyOp26
 70
     1
102
RTVSPropertyOp27
 70
     1
102
RTVSPropertyOp28
 70
     1
102
RTVSPropertyOp29
 70
     1
102
RTVSPropertyOp30
 70
     1
102
RTVSPropertyOp31
 70
     1
102
RTVSPropertyOp32
 70
     1
102
RTVSPropertyOp33
 70
     1
102
RTVSPropertyOp34
 70
     1
102
RTVSPropertyOp35
 70
     1
102
RTVSPropertyOp36
 70
     1
102
RTVSPropertyOp37
 70
     1
102
RTVSPropertyOp38
 70
     1
102
RTVSPropertyOp39
 70
     1
102
RTVSPropertyOp40
 70
     1
102
RTVSPropertyOp41
 70
     1
102
RTVSPropertyOp42
 70
     1
102
RTVSPropertyOp43
 70
     1
102
RTVSPropertyOp44
 70
     1
102
RTVSPropertyOp45
 70
     1
102
RTVSPropertyOp46
 70
     1
102
RTVSPropertyOp47
 70
     1
102
RTVSPropertyOp48
 70
     1
102
RTVSPropertyOp49
 70
     1
102
RTVSPropertyOp50
 70
     1
102
RTVSPropertyOp51
 70
     0
102
RTVSPropertyOp52
 70
     0
102
RTVSPropertyOp53
 70
     1
102
RTVSPropertyOp54
 70
     1
102
RTVSPropertyOp55
 70
     1
102
RTVSPropertyOp56
 70
     1
102
RTVSPropertyOp57
 70
     1
102
RTVSPost2010Prop28
280
     0
102
RTVSPost2010PropOp28
 70
     1
102
RTVSPost2010Prop29
280
     1
102
RTVSPost2010PropOp29
 70
     1
102
RTVSPost2010Prop30
280
     1
102
RTVSPost2010PropOp30
 70
     1
102
RTVSPost2010Prop31
280
     0
102
RTVSPost2010PropOp31
 70
     1
102
RTVSPost2010Prop32
280
     0
102
RTVSPost2010PropOp32
 70
     1
102
RTVSPost2010Prop33
280
     0
102
RTVSPost2010PropOp33
 70
     1
102
RTVSPost2010Prop34
280
     0
102
RTVSPost2010PropOp34
 70
     1
102
RTVSPost2010Prop35
280
     0
102
RTVSPost2010PropOp35
 70
     1
102
RTVSPost2010Prop36
280
     0
102
RTVSPost2010PropOp36
 70
     1
102
RTVSPost2010Prop37
 90
       50
102
RTVSPost2010PropOp37
 70
     1
102
RTVSPost2010Prop38
140
0.0
102
RTVSPost2010PropOp38
 70
     1
102
RTVSPost2010Prop39
140
1.0
102
RTVSPost2010PropOp39
 70
     1
102
RTVSPost2010Prop40
 90
        0
102
RTVSPost2010PropOp40
 70
     1
102
RTVSPost2010Prop41ColorIndex
 90
       18
102
RTVSPost2010Prop41ColorRGB
 90
        0
102
RTVSPost2010PropOp41
 70
     1
102
RTVSPost2010Prop42
 90
       50
102
RTVSPost2010PropOp42
 70
     1
102
RTVSPost2010Prop43
 90
        3
102
RTVSPost2010PropOp43
 70
     1
102
RTVSPost2010Prop44ColorIndex
 90
        5
102
RTVSPost2010Prop44ColorRGB
 90
      255
102
RTVSPost2010PropOp44
 70
     1
102
RTVSPost2010Prop45
280
     0
102
RTVSPost2010PropOp45
 70
     1
102
RTVSPost2010Prop46
 90
       50
102
RTVSPost2010PropOp46
 70
     1
102
RTVSPost2010Prop47
 90
       50
102
RTVSPost2010PropOp47
 70
     1
102
RTVSPost2010Prop48
 90
       50
102
RTVSPost2010PropOp48
 70
     1
102
RTVSPost2010Prop49
280
     0
102
RTVSPost2010PropOp49
 70
     1
102
RTVSPost2010Prop50
 90
       50
102
RTVSPost2010PropOp50
 70
     1
102
RTVSPost2010Prop51ColorIndex
 90
      256
102
RTVSPost2010Prop51ColorRGB
 90
-16777216
102
RTVSPost2010PropOp51
 70
     0
102
RTVSPost2010Prop52
140
1.0
102
RTVSPost2010PropOp52
 70
     0
102
RTVSPost2010Prop53
 90
        2
102
RTVSPost2010PropOp53
 70
     1
102
RTVSPost2010Prop54
  1
strokes_ogs.tif
102
RTVSPost2010PropOp54
 70
     1
102
RTVSPost2010Prop55
280
     0
102
RTVSPost2010PropOp55
 70
     1
102
RTVSPost2010Prop56
140
1.0
102
RTVSPost2010PropOp56
 70
     1
102
RTVSPost2010Prop57
140
1.0
102
RTVSPost2010PropOp57
 70
     1
  0
XRECORD
  5
4A6
102
{ACAD_REACTORS
330
4A5
102
}
330
4A5
100
AcDbXrecord
280
     1
102
RTVSPropertyOp0
 70
     1
102
RTVSPropertyOp1
 70
     1
102
RTVSPropertyOp2
 70
     1
102
RTVSPropertyOp3
 70
     1
102
RTVSPropertyOp4
 70
     1
102
RTVSPropertyOp5
 70
     1
102
RTVSPropertyOp6
 70
     1
102
RTVSPropertyOp7
 70
     1
102
RTVSPropertyOp8
 70
     1
102
RTVSPropertyOp9
 70
     1
102
RTVSPropertyOp10
 70
     1
102
RTVSPropertyOp11
 70
     1
102
RTVSPropertyOp12
 70
     1
102
RTVSPropertyOp13
 70
     1
102
RTVSPropertyOp14
 70
     1
102
RTVSPropertyOp15
 70
     1
102
RTVSPropertyOp16
 70
     1
102
RTVSPropertyOp17
 70
     1
102
RTVSPropertyOp18
 70
     1
102
RTVSPropertyOp19
 70
     1
102
RTVSPropertyOp20
 70
     1
102
RTVSPropertyOp21
 70
     1
102
RTVSPropertyOp22
 70
     1
102
RTVSPropertyOp23
 70
     1
102
RTVSPropertyOp24
 70
     1
102
RTVSPropertyOp25
 70
     1
102
RTVSPropertyOp26
 70
     1
102
RTVSPropertyOp27
 70
     1
102
RTVSPropertyOp28
 70
     1
102
RTVSPropertyOp29
 70
     1
102
RTVSPropertyOp30
 70
     1
102
RTVSPropertyOp31
 70
     1
102
RTVSPropertyOp32
 70
     1
102
RTVSPropertyOp33
 70
     1
102
RTVSPropertyOp34
 70
     1
102
RTVSPropertyOp35
 70
     1
102
RTVSPropertyOp36
 70
     1
102
RTVSPropertyOp37
 70
     1
102
RTVSPropertyOp38
 70
     1
102
RTVSPropertyOp39
 70
     1
102
RTVSPropertyOp40
 70
     1
102
RTVSPropertyOp41
 70
     1
102
RTVSPropertyOp42
 70
     1
102
RTVSPropertyOp43
 70
     1
102
RTVSPropertyOp44
 70
     1
102
RTVSPropertyOp45
 70
     1
102
RTVSPropertyOp46
 70
     1
102
RTVSPropertyOp47
 70
     1
102
RTVSPropertyOp48
 70
     1
102
RTVSPropertyOp49
 70
     1
102
RTVSPropertyOp50
 70
     1
102
RTVSPropertyOp51
 70
     0
102
RTVSPropertyOp52
 70
     0
102
RTVSPropertyOp53
 70
     1
102
RTVSPropertyOp54
 70
     1
102
RTVSPropertyOp55
 70
     1
102
RTVSPropertyOp56
 70
     1
102
RTVSPropertyOp57
 70
     1
102
RTVSPost2010Prop28
280
     0
102
RTVSPost2010PropOp28
 70
     1
102
RTVSPost2010Prop29
280
     1
102
RTVSPost2010PropOp29
 70
     1
102
RTVSPost2010Prop30
280
     1
102
RTVSPost2010PropOp30
 70
     1
102
RTVSPost2010Prop31
280
     0
102
RTVSPost2010PropOp31
 70
     1
102
RTVSPost2010Prop32
280
     0
102
RTVSPost2010PropOp32
 70
     1
102
RTVSPost2010Prop33
280
     0
102
RTVSPost2010PropOp33
 70
     1
102
RTVSPost2010Prop34
280
     0
102
RTVSPost2010PropOp34
 70
     1
102
RTVSPost2010Prop35
280
     0
102
RTVSPost2010PropOp35
 70
     1
102
RTVSPost2010Prop36
280
     0
102
RTVSPost2010PropOp36
 70
     1
102
RTVSPost2010Prop37
 90
       50
102
RTVSPost2010PropOp37
 70
     1
102
RTVSPost2010Prop38
140
0.0
102
RTVSPost2010PropOp38
 70
     1
102
RTVSPost2010Prop39
140
1.0
102
RTVSPost2010PropOp39
 70
     1
102
RTVSPost2010Prop40
 90
        0
102
RTVSPost2010PropOp40
 70
     1
102
RTVSPost2010Prop41ColorIndex
 90
       18
102
RTVSPost2010Prop41ColorRGB
 90
        0
102
RTVSPost2010PropOp41
 70
     1
102
RTVSPost2010Prop42
 90
       50
102
RTVSPost2010PropOp42
 70
     1
102
RTVSPost2010Prop43
 90
        3
102
RTVSPost2010PropOp43
 70
     1
102
RTVSPost2010Prop44ColorIndex
 90
        5
102
RTVSPost2010Prop44ColorRGB
 90
      255
102
RTVSPost2010PropOp44
 70
     1
102
RTVSPost2010Prop45
280
     0
102
RTVSPost2010PropOp45
 70
     1
102
RTVSPost2010Prop46
 90
       50
102
RTVSPost2010PropOp46
 70
     1
102
RTVSPost2010Prop47
 90
       50
102
RTVSPost2010PropOp47
 70
     1
102
RTVSPost2010Prop48
 90
       50
102
RTVSPost2010PropOp48
 70
     1
102
RTVSPost2010Prop49
280
     0
102
RTVSPost2010PropOp49
 70
     1
102
RTVSPost2010Prop50
 90
       50
102
RTVSPost2010PropOp50
 70
     1
102
RTVSPost2010Prop51ColorIndex
 90
      256
102
RTVSPost2010Prop51ColorRGB
 90
-16777216
102
RTVSPost2010PropOp51
 70
     0
102
RTVSPost2010Prop52
140
1.0
102
RTVSPost2010PropOp52
 70
     0
102
RTVSPost2010Prop53
 90
        2
102
RTVSPost2010PropOp53
 70
     1
102
RTVSPost2010Prop54
  1
strokes_ogs.tif
102
RTVSPost2010PropOp54
 70
     1
102
RTVSPost2010Prop55
280
     0
102
RTVSPost2010PropOp55
 70
     1
102
RTVSPost2010Prop56
140
1.0
102
RTVSPost2010PropOp56
 70
     1
102
RTVSPost2010Prop57
140
1.0
102
RTVSPost2010PropOp57
 70
     1
  0
XRECORD
  5
49C
102
{ACAD_REACTORS
330
49B
102
}
330
49B
100
AcDbXrecord
280
     1
102
RTVSPropertyOp0
 70
     1
102
RTVSPropertyOp1
 70
     1
102
RTVSPropertyOp2
 70
     1
102
RTVSPropertyOp3
 70
     1
102
RTVSPropertyOp4
 70
     1
102
RTVSPropertyOp5
 70
     1
102
RTVSPropertyOp6
 70
     1
102
RTVSPropertyOp7
 70
     1
102
RTVSPropertyOp8
 70
     1
102
RTVSPropertyOp9
 70
     1
102
RTVSPropertyOp10
 70
     1
102
RTVSPropertyOp11
 70
     1
102
RTVSPropertyOp12
 70
     1
102
RTVSPropertyOp13
 70
     1
102
RTVSPropertyOp14
 70
     1
102
RTVSPropertyOp15
 70
     1
102
RTVSPropertyOp16
 70
     1
102
RTVSPropertyOp17
 70
     1
102
RTVSPropertyOp18
 70
     1
102
RTVSPropertyOp19
 70
     1
102
RTVSPropertyOp20
 70
     1
102
RTVSPropertyOp21
 70
     1
102
RTVSPropertyOp22
 70
     1
102
RTVSPropertyOp23
 70
     1
102
RTVSPropertyOp24
 70
     1
102
RTVSPropertyOp25
 70
     1
102
RTVSPropertyOp26
 70
     1
102
RTVSPropertyOp27
 70
     1
102
RTVSPropertyOp28
 70
     1
102
RTVSPropertyOp29
 70
     1
102
RTVSPropertyOp30
 70
     1
102
RTVSPropertyOp31
 70
     1
102
RTVSPropertyOp32
 70
     1
102
RTVSPropertyOp33
 70
     1
102
RTVSPropertyOp34
 70
     1
102
RTVSPropertyOp35
 70
     1
102
RTVSPropertyOp36
 70
     1
102
RTVSPropertyOp37
 70
     1
102
RTVSPropertyOp38
 70
     1
102
RTVSPropertyOp39
 70
     1
102
RTVSPropertyOp40
 70
     1
102
RTVSPropertyOp41
 70
     1
102
RTVSPropertyOp42
 70
     1
102
RTVSPropertyOp43
 70
     1
102
RTVSPropertyOp44
 70
     1
102
RTVSPropertyOp45
 70
     1
102
RTVSPropertyOp46
 70
     1
102
RTVSPropertyOp47
 70
     1
102
RTVSPropertyOp48
 70
     1
102
RTVSPropertyOp49
 70
     1
102
RTVSPropertyOp50
 70
     1
102
RTVSPropertyOp51
 70
     0
102
RTVSPropertyOp52
 70
     0
102
RTVSPropertyOp53
 70
     1
102
RTVSPropertyOp54
 70
     1
102
RTVSPropertyOp55
 70
     1
102
RTVSPropertyOp56
 70
     1
102
RTVSPropertyOp57
 70
     1
102
RTVSPost2010Prop28
280
     0
102
RTVSPost2010PropOp28
 70
     1
102
RTVSPost2010Prop29
280
     1
102
RTVSPost2010PropOp29
 70
     1
102
RTVSPost2010Prop30
280
     1
102
RTVSPost2010PropOp30
 70
     1
102
RTVSPost2010Prop31
280
     0
102
RTVSPost2010PropOp31
 70
     1
102
RTVSPost2010Prop32
280
     0
102
RTVSPost2010PropOp32
 70
     1
102
RTVSPost2010Prop33
280
     0
102
RTVSPost2010PropOp33
 70
     1
102
RTVSPost2010Prop34
280
     0
102
RTVSPost2010PropOp34
 70
     1
102
RTVSPost2010Prop35
280
     0
102
RTVSPost2010PropOp35
 70
     1
102
RTVSPost2010Prop36
280
     0
102
RTVSPost2010PropOp36
 70
     1
102
RTVSPost2010Prop37
 90
       50
102
RTVSPost2010PropOp37
 70
     1
102
RTVSPost2010Prop38
140
0.0
102
RTVSPost2010PropOp38
 70
     1
102
RTVSPost2010Prop39
140
1.0
102
RTVSPost2010PropOp39
 70
     1
102
RTVSPost2010Prop40
 90
        0
102
RTVSPost2010PropOp40
 70
     1
102
RTVSPost2010Prop41ColorIndex
 90
       18
102
RTVSPost2010Prop41ColorRGB
 90
        0
102
RTVSPost2010PropOp41
 70
     1
102
RTVSPost2010Prop42
 90
       50
102
RTVSPost2010PropOp42
 70
     1
102
RTVSPost2010Prop43
 90
        3
102
RTVSPost2010PropOp43
 70
     1
102
RTVSPost2010Prop44ColorIndex
 90
        5
102
RTVSPost2010Prop44ColorRGB
 90
      255
102
RTVSPost2010PropOp44
 70
     1
102
RTVSPost2010Prop45
280
     0
102
RTVSPost2010PropOp45
 70
     1
102
RTVSPost2010Prop46
 90
       50
102
RTVSPost2010PropOp46
 70
     1
102
RTVSPost2010Prop47
 90
       50
102
RTVSPost2010PropOp47
 70
     1
102
RTVSPost2010Prop48
 90
       50
102
RTVSPost2010PropOp48
 70
     1
102
RTVSPost2010Prop49
280
     0
102
RTVSPost2010PropOp49
 70
     1
102
RTVSPost2010Prop50
 90
       50
102
RTVSPost2010PropOp50
 70
     1
102
RTVSPost2010Prop51ColorIndex
 90
      256
102
RTVSPost2010Prop51ColorRGB
 90
-16777216
102
RTVSPost2010PropOp51
 70
     0
102
RTVSPost2010Prop52
140
1.0
102
RTVSPost2010PropOp52
 70
     0
102
RTVSPost2010Prop53
 90
        2
102
RTVSPost2010PropOp53
 70
     1
102
RTVSPost2010Prop54
  1
strokes_ogs.tif
102
RTVSPost2010PropOp54
 70
     1
102
RTVSPost2010Prop55
280
     0
102
RTVSPost2010PropOp55
 70
     1
102
RTVSPost2010Prop56
140
1.0
102
RTVSPost2010PropOp56
 70
     1
102
RTVSPost2010Prop57
140
1.0
102
RTVSPost2010PropOp57
 70
     1
  0
XRECORD
  5
4A4
102
{ACAD_REACTORS
330
4A3
102
}
330
4A3
100
AcDbXrecord
280
     1
102
RTVSPropertyOp0
 70
     1
102
RTVSPropertyOp1
 70
     1
102
RTVSPropertyOp2
 70
     1
102
RTVSPropertyOp3
 70
     1
102
RTVSPropertyOp4
 70
     1
102
RTVSPropertyOp5
 70
     1
102
RTVSPropertyOp6
 70
     1
102
RTVSPropertyOp7
 70
     1
102
RTVSPropertyOp8
 70
     1
102
RTVSPropertyOp9
 70
     1
102
RTVSPropertyOp10
 70
     1
102
RTVSPropertyOp11
 70
     1
102
RTVSPropertyOp12
 70
     1
102
RTVSPropertyOp13
 70
     1
102
RTVSPropertyOp14
 70
     1
102
RTVSPropertyOp15
 70
     1
102
RTVSPropertyOp16
 70
     1
102
RTVSPropertyOp17
 70
     1
102
RTVSPropertyOp18
 70
     1
102
RTVSPropertyOp19
 70
     1
102
RTVSPropertyOp20
 70
     1
102
RTVSPropertyOp21
 70
     1
102
RTVSPropertyOp22
 70
     1
102
RTVSPropertyOp23
 70
     1
102
RTVSPropertyOp24
 70
     1
102
RTVSPropertyOp25
 70
     1
102
RTVSPropertyOp26
 70
     1
102
RTVSPropertyOp27
 70
     1
102
RTVSPropertyOp28
 70
     1
102
RTVSPropertyOp29
 70
     1
102
RTVSPropertyOp30
 70
     1
102
RTVSPropertyOp31
 70
     1
102
RTVSPropertyOp32
 70
     1
102
RTVSPropertyOp33
 70
     1
102
RTVSPropertyOp34
 70
     1
102
RTVSPropertyOp35
 70
     1
102
RTVSPropertyOp36
 70
     1
102
RTVSPropertyOp37
 70
     1
102
RTVSPropertyOp38
 70
     1
102
RTVSPropertyOp39
 70
     1
102
RTVSPropertyOp40
 70
     1
102
RTVSPropertyOp41
 70
     1
102
RTVSPropertyOp42
 70
     1
102
RTVSPropertyOp43
 70
     1
102
RTVSPropertyOp44
 70
     1
102
RTVSPropertyOp45
 70
     1
102
RTVSPropertyOp46
 70
     1
102
RTVSPropertyOp47
 70
     1
102
RTVSPropertyOp48
 70
     1
102
RTVSPropertyOp49
 70
     1
102
RTVSPropertyOp50
 70
     1
102
RTVSPropertyOp51
 70
     0
102
RTVSPropertyOp52
 70
     0
102
RTVSPropertyOp53
 70
     1
102
RTVSPropertyOp54
 70
     1
102
RTVSPropertyOp55
 70
     1
102
RTVSPropertyOp56
 70
     1
102
RTVSPropertyOp57
 70
     1
102
RTVSPost2010Prop28
280
     0
102
RTVSPost2010PropOp28
 70
     1
102
RTVSPost2010Prop29
280
     1
102
RTVSPost2010PropOp29
 70
     1
102
RTVSPost2010Prop30
280
     1
102
RTVSPost2010PropOp30
 70
     1
102
RTVSPost2010Prop31
280
     0
102
RTVSPost2010PropOp31
 70
     1
102
RTVSPost2010Prop32
280
     0
102
RTVSPost2010PropOp32
 70
     1
102
RTVSPost2010Prop33
280
     0
102
RTVSPost2010PropOp33
 70
     1
102
RTVSPost2010Prop34
280
     0
102
RTVSPost2010PropOp34
 70
     1
102
RTVSPost2010Prop35
280
     0
102
RTVSPost2010PropOp35
 70
     1
102
RTVSPost2010Prop36
280
     0
102
RTVSPost2010PropOp36
 70
     1
102
RTVSPost2010Prop37
 90
       50
102
RTVSPost2010PropOp37
 70
     1
102
RTVSPost2010Prop38
140
0.0
102
RTVSPost2010PropOp38
 70
     1
102
RTVSPost2010Prop39
140
1.0
102
RTVSPost2010PropOp39
 70
     1
102
RTVSPost2010Prop40
 90
        0
102
RTVSPost2010PropOp40
 70
     1
102
RTVSPost2010Prop41ColorIndex
 90
       18
102
RTVSPost2010Prop41ColorRGB
 90
        0
102
RTVSPost2010PropOp41
 70
     1
102
RTVSPost2010Prop42
 90
       50
102
RTVSPost2010PropOp42
 70
     1
102
RTVSPost2010Prop43
 90
        3
102
RTVSPost2010PropOp43
 70
     1
102
RTVSPost2010Prop44ColorIndex
 90
        5
102
RTVSPost2010Prop44ColorRGB
 90
      255
102
RTVSPost2010PropOp44
 70
     1
102
RTVSPost2010Prop45
280
     0
102
RTVSPost2010PropOp45
 70
     1
102
RTVSPost2010Prop46
 90
       50
102
RTVSPost2010PropOp46
 70
     1
102
RTVSPost2010Prop47
 90
       50
102
RTVSPost2010PropOp47
 70
     1
102
RTVSPost2010Prop48
 90
       50
102
RTVSPost2010PropOp48
 70
     1
102
RTVSPost2010Prop49
280
     0
102
RTVSPost2010PropOp49
 70
     1
102
RTVSPost2010Prop50
 90
       50
102
RTVSPost2010PropOp50
 70
     1
102
RTVSPost2010Prop51ColorIndex
 90
      256
102
RTVSPost2010Prop51ColorRGB
 90
-16777216
102
RTVSPost2010PropOp51
 70
     0
102
RTVSPost2010Prop52
140
1.0
102
RTVSPost2010PropOp52
 70
     0
102
RTVSPost2010Prop53
 90
        2
102
RTVSPost2010PropOp53
 70
     1
102
RTVSPost2010Prop54
  1
strokes_ogs.tif
102
RTVSPost2010PropOp54
 70
     1
102
RTVSPost2010Prop55
280
     0
102
RTVSPost2010PropOp55
 70
     1
102
RTVSPost2010Prop56
140
1.0
102
RTVSPost2010PropOp56
 70
     1
102
RTVSPost2010Prop57
140
1.0
102
RTVSPost2010PropOp57
 70
     1
  0
ENDSEC
  0
EOF
