999
DXF file: e6d153-00-e.dxf
999
Pro/ENGINEER 2016130 by Parametric Technology Corporation
  0
SECTION
  2
HEADER
  9
$ACADVER
  1
AC1027
  9
$DWGCODEPAGE
  3
ANSI_1252
  9
$EXTMAX
 10
1189.0
 20
841.0
 30
0.0
  9
$EXTMIN
 10
0.0
 20
0.0
 30
0.0
  9
$LIMMIN
 10
0.0
 20
0.0
  9
$LIMMAX
 10
1189.0
 20
841.0
  9
$VIEWCTR
 10
594.5
 20
420.5
  9
$VIEWSIZE
 40
841.0
  9
$CLAYER
  8
0
  9
$LTSCALE
 40
65.395
  9
$CELTYPE
  6
BYLAYER
  9
$DIMSCALE
 40
1.0
  9
$DIMASZ
 40
3.5
  9
$DIMEXO
 40
1.0
  9
$DIMDLI
 40
45.182
  9
$DIMEXE
 40
1.5
  9
$DIMCEN
 40
10.701
  9
$DIMLFAC
 40
1.0
  9
$DIMBLK
  1
_FILLED
  9
$DIMALT
 70
0
  9
$DIMALTF
 40
0.0393700787
  9
$DIMTXT
 40
3.5
  9
$DIMTOL
 70
1
  9
$DIMLIM
 70
0
  9
$DIMTFAC
 40
1.0
  9
$DIMTP
 40
0.1
  9
$DIMTM
 40
0.1
  9
$DIMGAP
 40
0.625
  9
$DIMDSEP
 70
46
  9
$AUNITS
 70
0
  9
$PDMODE
 70
0
  9
$PDSIZE
 40
0.3125
  9
$HANDSEED
  5
304
  9
$TILEMODE
 70
1
  9
$MEASUREMENT
 70
1
  9
$INSUNITS
 70
4
  0
ENDSEC
  0
SECTION
  2
CLASSES
  0
CLASS
  1
ACDBDICTIONARYWDFLT
  2
AcDbDictionaryWithDefault
  3
AutoCAD 2000
 90
0
 91
1
280
0
281
0
  0
CLASS
  1
ACDBPLACEHOLDER
  2
AcDbPlaceHolder
  3
AutoCAD 2000
 90
0
 91
1
280
0
281
0
  0
CLASS
  1
LAYOUT
  2
AcDbLayout
  3
AutoCAD 2000
 90
0
 91
0
280
0
281
0
  0
ENDSEC
  0
SECTION
  2
TABLES
  0
TABLE
  2
VPORT
  5
8
100
AcDbSymbolTable
 70
2
  0
VPORT
  5
1F4
100
AcDbSymbolTableRecord
100
AcDbViewportTableRecord
  2
*ACTIVE
 70
0
 10
0.0
 20
0.0
 11
1.0
 21
1.0
 12
594.5
 22
420.5
 13
0.0
 23
0.0
 14
1.0
 24
1.0
 15
0.0
 25
0.0
 16
0.0
 26
0.0
 36
1.0
 17
0.0
 27
0.0
 37
0.0
 40
841.0
 41
1.4137931034
 42
50.0
 43
0.0
 44
0.0
 50
0.0
 51
0.0
 71
0
 72
100
 73
1
 74
1
 75
0
 76
0
 77
0
 78
0
  0
ENDTAB
  0
TABLE
  2
LTYPE
  5
5
100
AcDbSymbolTable
 70
6
  0
LTYPE
  5
14
100
AcDbSymbolTableRecord
100
AcDbLinetypeTableRecord
  2
BYBLOCK
 70
0
  3

 72
65
 73
0
 40
0.0
  0
LTYPE
  5
15
100
AcDbSymbolTableRecord
100
AcDbLinetypeTableRecord
  2
BYLAYER
 70
0
  3

 72
65
 73
0
 40
0.0
  0
LTYPE
  5
16
100
AcDbSymbolTableRecord
100
AcDbLinetypeTableRecord
  2
CONTINUOUS
 70
64
  3
Solid line
 72
65
 73
0
 40
0.0
  0
LTYPE
  5
1F5
100
AcDbSymbolTableRecord
100
AcDbLinetypeTableRecord
  2
CENTER
 70
64
  3
____ _ ____ _ ____ _ ____ _ ____ _ ____ _ ____
 72
65
 73
4
 40
0.6
 49
0.375
 74
0
 49
-0.075
 74
0
 49
0.075
 74
0
 49
-0.075
 74
0
  0
LTYPE
  5
1F6
100
AcDbSymbolTableRecord
100
AcDbLinetypeTableRecord
  2
HIDDEN
 70
64
  3
- - - - - - - - - - - - - - - - - - - -
 72
65
 73
2
 40
0.2
 49
0.1
 74
0
 49
-0.1
 74
0
  0
LTYPE
  5
1F7
100
AcDbSymbolTableRecord
100
AcDbLinetypeTableRecord
  2
PHANTOM
 70
64
  3
_____ _ _ _____ _ _ _____ _ _ _____
 72
65
 73
6
 40
0.8
 49
0.45
 74
0
 49
-0.05
 74
0
 49
0.1
 74
0
 49
-0.05
 74
0
 49
0.1
 74
0
 49
-0.05
 74
0
  0
LTYPE
  5
1F8
100
AcDbSymbolTableRecord
100
AcDbLinetypeTableRecord
  2
DOT
 70
64
  3
. . . . . . . . . . . . . . . . . . . .
 72
65
 73
2
 40
0.2
 49
0.1
 74
0
 49
-0.1
 74
0
  0
LTYPE
  5
1F9
100
AcDbSymbolTableRecord
100
AcDbLinetypeTableRecord
  2
DASHED
 70
64
  3
- - - - - - - - - - - - - - - - - - - -
 72
65
 73
2
 40
0.2
 49
0.1
 74
0
 49
-0.1
 74
0
  0
ENDTAB
  0
TABLE
  2
LAYER
  5
2
100
AcDbSymbolTable
 70
36
  0
LAYER
  5
10
100
AcDbSymbolTableRecord
100
AcDbLayerTableRecord
  2
0
 70
0
 62
7
  6
CONTINUOUS
370
-3
390
F
  0
LAYER
  5
1FA
100
AcDbSymbolTableRecord
100
AcDbLayerTableRecord
  2
DEFAULT_1
 70
0
 62
7
  6
CENTER
370
-3
390
F
  0
LAYER
  5
1FB
100
AcDbSymbolTableRecord
100
AcDbLayerTableRecord
  2
DEFAULT_2
 70
0
 62
8
  6
HIDDEN
370
-3
390
F
  0
LAYER
  5
1FC
100
AcDbSymbolTableRecord
100
AcDbLayerTableRecord
  2
DEFAULT_3
 70
0
 62
7
  6
PHANTOM
370
-3
390
F
  0
LAYER
  5
1FD
100
AcDbSymbolTableRecord
100
AcDbLayerTableRecord
  2
DATUM_CSYS
 70
0
 62
7
  6
CONTINUOUS
370
-3
390
F
  0
LAYER
  5
1FE
100
AcDbSymbolTableRecord
100
AcDbLayerTableRecord
  2
DATUM_PLANE
 70
0
 62
7
  6
CONTINUOUS
370
-3
390
F
  0
LAYER
  5
1FF
100
AcDbSymbolTableRecord
100
AcDbLayerTableRecord
  2
NONE
 70
0
 62
7
  6
CONTINUOUS
370
-3
390
F
  0
ENDTAB
  0
TABLE
  2
STYLE
  5
3
100
AcDbSymbolTable
 70
1
  0
STYLE
  5
11
100
AcDbSymbolTableRecord
100
AcDbTextStyleTableRecord
  2
STANDARD
 70
0
 40
0.0
 41
0.85
 50
0.0
 71
0
 42
0.2
  3
txt
  4

  0
STYLE
  5
200
100
AcDbSymbolTableRecord
100
AcDbTextStyleTableRecord
  2
TEXTSTYLE_1
 70
0
 40
0.0
 41
0.8
 50
0.0
 71
0
 42
0.2
  3
gdt
  4

  0
ENDTAB
  0
TABLE
  2
VIEW
  5
6
100
AcDbSymbolTable
 70
0
  0
ENDTAB
  0
TABLE
  2
UCS
  5
7
100
AcDbSymbolTable
 70
0
  0
ENDTAB
  0
TABLE
  2
APPID
  5
9
100
AcDbSymbolTable
 70
1
  0
APPID
  5
201
100
AcDbSymbolTableRecord
100
AcDbRegAppTableRecord
  2
ACAD
 70
0
  0
ENDTAB
  0
TABLE
  2
BLOCK_RECORD
  5
1
100
AcDbSymbolTable
 70
0
  0
BLOCK_RECORD
  5
202
100
AcDbSymbolTableRecord
100
AcDbBlockTableRecord
  2
*Model_Space
  0
BLOCK_RECORD
  5
203
100
AcDbSymbolTableRecord
100
AcDbBlockTableRecord
  2
*Paper_Space
  0
ENDTAB
  0
TABLE
  2
DIMSTYLE
  5
A
100
AcDbSymbolTable
 70
1
100
AcDbDimStyleTable
 71
0
  0
DIMSTYLE
105
204
100
AcDbSymbolTableRecord
100
AcDbDimStyleTableRecord
  2
STANDARD
 70
0
  3

  4

 40
1.0
 41
3.5
 42
1.0
 43
0.38
 44
1.5
 45
0.0
 46
0.0
 47
0.1
 48
0.1
140
3.5
141
0.09
142
0.0
143
25.4
144
1.0
145
0.0
146
1.0
147
0.625
 71
1.0
 72
0.0
 73
0
 74
0
 75
0
 76
0
 77
1
 78
8
170
0
171
2
172
0
173
0
174
0
175
0
176
0
177
0
178
0
270
2
271
1
272
1
273
2
274
2
275
0
280
0
281
0
282
0
283
1
284
8
285
0
286
0
287
3
288
0
340
11
278
46
  0
ENDTAB
  0
ENDSEC
  0
SECTION
  2
BLOCKS
  0
BLOCK
  5
20
100
AcDbEntity
  8
0
100
AcDbBlockBegin
  2
*Model_Space
 70
0
 10
0.0
 20
0.0
 30
0.0
  3
*Model_Space
  1

  0
ENDBLK
  5
21
100
AcDbEntity
  8
0
100
AcDbBlockEnd
  0
BLOCK
  5
1C
100
AcDbEntity
  8
0
100
AcDbBlockBegin
  2
*Paper_Space
 70
0
 10
0.0
 20
0.0
 30
0.0
  3
*Paper_Space
  1

  0
ENDBLK
  5
1D
100
AcDbEntity
  8
0
100
AcDbBlockEnd
  0
ENDSEC
  0
SECTION
  2
ENTITIES
  0
LINE
  5
205
100
AcDbEntity
  8
0
100
AcDbLine
 62
7
  6
CONTINUOUS
 10
0.0
 20
0.0
 11
0.0
 21
841.0
  0
LINE
  5
206
100
AcDbEntity
  8
0
100
AcDbLine
 62
7
  6
CONTINUOUS
 10
0.0
 20
0.0
 11
1189.0
 21
0.0
  0
LINE
  5
207
100
AcDbEntity
  8
0
100
AcDbLine
 62
7
  6
CONTINUOUS
 10
0.0
 20
841.0
 11
1189.0
 21
841.0
  0
LINE
  5
208
100
AcDbEntity
  8
0
100
AcDbLine
 62
7
  6
CONTINUOUS
 10
1189.0
 20
0.0
 11
1189.0
 21
841.0
  0
LWPOLYLINE
  5
209
100
AcDbEntity
  8
0
100
AcDbPolyline
 62
7
  6
CONTINUOUS
 90
6
 70
0
 10
-2218.6597226178
 20
636.4572824952
 10
-2218.6841850294
 20
636.2852587184
 10
-2218.7037688574
 20
636.1114482234
 10
-2218.7183783036
 20
635.9356760795
 10
-2218.7278628964
 20
635.7583128282
 10
-2218.7314236677
 20
635.6313481373
  0
LINE
  5
20A
100
AcDbEntity
  8
0
100
AcDbLine
 62
7
  6
CONTINUOUS
 10
-2218.630522591
 20
636.6272766318
 11
-2218.6597226178
 21
636.4572824952
  0
LWPOLYLINE
  5
20B
100
AcDbEntity
  8
0
100
AcDbPolyline
 62
7
  6
CONTINUOUS
 90
9
 70
0
 10
-2218.5597184231
 20
636.9544821446
 10
-2218.5997003503
 20
636.7802379582
 10
-2218.6347563417
 20
636.6033317258
 10
-2218.6646913201
 20
636.4240557162
 10
-2218.6893352218
 20
636.2426867267
 10
-2218.7085750749
 20
636.0590889254
 10
-2218.7222345844
 20
635.873665684
 10
-2218.7301754401
 20
635.6866830366
 10
-2218.7314236676
 20
635.6303384402
  0
LINE
  5
20C
100
AcDbEntity
  8
0
100
AcDbLine
 62
7
  6
CONTINUOUS
 10
-2208.9774337378
 20
619.5364187536
 11
-2208.9774337378
 21
635.5315330722
  0
LINE
  5
20D
100
AcDbEntity
  8
0
100
AcDbLine
 62
7
  6
CONTINUOUS
 10
-2208.9774351719
 20
635.6328267812
 11
-2208.9712212252
 21
641.5280958849
  0
LINE
  5
20E
100
AcDbEntity
  8
0
100
AcDbLine
 62
7
  6
CONTINUOUS
 10
-2218.7314236674
 20
635.6303384544
 11
-2219.0123438676
 21
619.5364309611
  0
LWPOLYLINE
  5
20F
100
AcDbEntity
  8
0
100
AcDbPolyline
 62
7
  6
CONTINUOUS
 90
7
 70
0
 10
-2218.2422541117
 20
637.9016771832
 10
-2218.3046579197
 20
637.7513260399
 10
-2218.3633104392
 20
637.5983848935
 10
-2218.4181745681
 20
637.442688134
 10
-2218.4690776917
 20
637.2844216192
 10
-2218.5158649738
 20
637.1237608468
 10
-2218.5584790556
 20
636.960536985
  0
LWPOLYLINE
  5
210
100
AcDbEntity
  8
0
100
AcDbPolyline
 62
7
  6
CONTINUOUS
 90
4
 70
0
 10
-2218.0339826552
 20
638.3360068138
 10
-2218.1068227626
 20
638.1940153118
 10
-2218.1762525356
 20
638.0492917383
 10
-2218.2422541117
 20
637.9016771832
  0
LWPOLYLINE
  5
211
100
AcDbEntity
  8
0
100
AcDbPolyline
 62
7
  6
CONTINUOUS
 90
10
 70
0
 10
-2217.244118697
 20
639.4818675792
 10
-2217.3426499611
 20
639.3665633962
 10
-2217.4386988796
 20
639.2482194186
 10
-2217.5322317415
 20
639.1267794992
 10
-2217.6230845162
 20
639.002353065
 10
-2217.7111347081
 20
638.8750074811
 10
-2217.796387241
 20
638.7446184927
 10
-2217.8786829031
 20
638.6112977553
 10
-2217.9578814729
 20
638.4751436816
 10
-2218.0339826552
 20
638.3360068138
  0
LWPOLYLINE
  5
212
100
AcDbEntity
  8
0
100
AcDbPolyline
 62
7
  6
CONTINUOUS
 90
5
 70
0
 10
-2216.827630978
 20
639.9116801273
 10
-2216.9349258591
 20
639.8089587151
 10
-2217.0401759985
 20
639.7030651627
 10
-2217.1432464874
 20
639.5940567483
 10
-2217.244118697
 20
639.4818675792
  0
LWPOLYLINE
  5
213
100
AcDbEntity
  8
0
100
AcDbPolyline
 62
7
  6
CONTINUOUS
 90
16
 70
0
 10
-1974.3302995951
 20
247.4015718494
 10
-1969.5615389837
 20
239.7976918987
 10
-1965.331373089
 20
234.0886416536
 10
-1961.3025814443
 20
229.4527497198
 10
-1956.7812254989
 20
225.0145873727
 10
-1951.4335065827
 20
220.5401078818
 10
-1945.6718966134
 20
216.4337061244
 10
-1939.7873305492
 20
212.8676515268
 10
-1934.0833692137
 20
209.9467721568
 10
-1928.448665285
 20
207.5489163258
 10
-1922.5607659138
 20
205.5558714649
 10
-1916.367512939
 20
203.9942165846
 10
-1910.0469197283
 20
202.8793900326
 10
-1903.6393033508
 20
202.1461977998
 10
-1897.1735521388
 20
201.7081201635
 10
-1890.6668355133
 20
201.4606930173
  0
LINE
  5
214
100
AcDbEntity
  8
0
100
AcDbLine
 62
7
  6
CONTINUOUS
 10
-1974.3302995951
 20
247.4015718494
 11
-1974.2194318244
 21
247.2104669991
  0
LINE
  5
215
100
AcDbEntity
  8
0
100
AcDbLine
 62
7
  6
CONTINUOUS
 10
-2164.2569153458
 20
619.5364187536
 11
-1981.5468601506
 21
260.9477449663
  0
LWPOLYLINE
  5
216
100
AcDbEntity
  8
0
100
AcDbPolyline
 62
7
  6
CONTINUOUS
 90
31
 70
0
 10
-2215.2890567837
 20
640.9536381555
 10
-2215.4159467567
 20
640.8920363971
 10
-2215.5418209154
 20
640.8272213026
 10
-2215.6667796775
 20
640.7590904645
 10
-2215.7907032296
 20
640.6876500516
 10
-2215.9134588271
 20
640.612919288
 10
-2216.0351137783
 20
640.5347923904
 10
-2216.1555402174
 20
640.4532781668
 10
-2216.2745953282
 20
640.3684016794
 10
-2216.3923081421
 20
640.2800635239
 10
-2216.5085306225
 20
640.1882885006
 10
-2216.6231214643
 20
640.0931035738
 10
-2216.736101342
 20
639.9943978438
 10
-2216.847310802
 20
639.8922078609
 10
-2216.9565987847
 20
639.7865713194
 10
-2217.0639760286
 20
639.6773656725
 10
-2217.1692749466
 20
639.5646379101
 10
-2217.2723294768
 20
639.4484439475
 10
-2217.3731267837
 20
639.3286641948
 10
-2217.4714899222
 20
639.2053618727
 10
-2217.5672407313
 20
639.0786148536
 10
-2217.6603373656
 20
638.9483199439
 10
-2217.7505825522
 20
638.814581874
 10
-2217.8378039477
 20
638.6774864513
 10
-2217.9219656337
 20
638.5368997772
 10
-2218.0028661803
 20
638.3929480076
 10
-2218.0803211538
 20
638.2457504828
 10
-2218.1542817847
 20
638.0951638947
 10
-2218.2245404028
 20
637.9413475701
 10
-2218.2909077484
 20
637.7844529055
 10
-2218.3533193922
 20
637.6243312393
  0
LWPOLYLINE
  5
217
100
AcDbEntity
  8
0
100
AcDbPolyline
 62
7
  6
CONTINUOUS
 90
4
 70
0
 10
-2214.9079068056
 20
641.118331793
 10
-2215.0356278512
 20
641.0669431717
 10
-2215.1627328532
 20
641.012373519
 10
-2215.2891058851
 20
640.9546247602
  0
LWPOLYLINE
  5
218
100
AcDbEntity
  8
0
100
AcDbPolyline
 62
7
  6
CONTINUOUS
 90
15
 70
0
 10
-745.0854197309
 20
201.530120643
 10
-736.9500027465
 20
201.9372459814
 10
-729.4958758426
 20
202.6644186157
 10
-723.0762755637
 20
203.6919953326
 10
-717.4738471069
 20
204.9748789846
 10
-711.8810277081
 20
206.6832396612
 10
-706.1095656272
 20
208.9388470763
 10
-700.4853491007
 20
211.6214036235
 10
-694.9661345097
 20
214.7362263689
 10
-689.5909680494
 20
218.2715333824
 10
-684.4625347412
 20
222.1789784886
 10
-679.6477998063
 20
226.4350577931
 10
-675.4694740216
 20
230.7401946924
 10
-671.6928496667
 20
235.2662112654
 10
-667.7153281286
 20
240.8012563105
  0
LINE
  5
219
100
AcDbEntity
  8
0
100
AcDbLine
 62
7
  6
CONTINUOUS
 10
-1273.1222834319
 20
187.6875778501
 11
-745.0854197309
 21
201.530120643
  0
LINE
  5
21A
100
AcDbEntity
  8
0
100
AcDbLine
 62
7
  6
CONTINUOUS
 10
-1290.421648897
 20
166.5369358108
 11
-1347.533218578
 21
166.5369358108
  0
LINE
  5
21B
100
AcDbEntity
  8
0
100
AcDbLine
 62
7
  6
CONTINUOUS
 10
-1347.7451800322
 20
168.3638022338
 11
-1290.2096874434
 21
168.3638022338
  0
LINE
  5
21C
100
AcDbEntity
  8
0
100
AcDbLine
 62
7
  6
CONTINUOUS
 10
-1289.6636938223
 20
169.7769415893
 11
-1348.2852942334
 21
169.7769408752
  0
LINE
  5
21D
100
AcDbEntity
  8
0
100
AcDbLine
 62
7
  6
CONTINUOUS
 10
-1358.9421038395
 20
184.5720203905
 11
-1279.012763636
 21
184.5720204249
  0
LINE
  5
21E
100
AcDbEntity
  8
0
100
AcDbLine
 62
7
  6
CONTINUOUS
 10
-1273.1222834319
 20
187.6875778501
 11
-1364.8325840931
 21
187.6875778527
  0
LINE
  5
21F
100
AcDbEntity
  8
0
100
AcDbLine
 62
7
  6
CONTINUOUS
 10
-1890.6668355133
 20
201.4606930173
 11
-1364.8325840436
 21
187.6875778501
  0
LINE
  5
220
100
AcDbEntity
  8
0
100
AcDbLine
 62
7
  6
CONTINUOUS
 10
-1348.2911736533
 20
169.7769415893
 11
-1358.9421063406
 21
184.5720204077
  0
LINE
  5
221
100
AcDbEntity
  8
0
100
AcDbLine
 62
7
  6
CONTINUOUS
 10
-1981.5468601506
 20
260.9477449663
 11
-1972.8521974067
 21
261.3868394246
  0
LINE
  5
222
100
AcDbEntity
  8
0
100
AcDbLine
 62
7
  6
CONTINUOUS
 10
-656.4357294198
 20
260.948954518
 11
-656.408007325
 21
260.9477449663
  0
LINE
  5
223
100
AcDbEntity
  8
0
100
AcDbLine
 62
7
  6
CONTINUOUS
 10
-665.0915124732
 20
261.3835151638
 11
-656.4358611187
 21
260.9486795424
  0
LINE
  5
224
100
AcDbEntity
  8
0
100
AcDbLine
 62
7
  6
CONTINUOUS
 10
-1348.2911736533
 20
169.7769415894
 11
-1347.7451800322
 21
168.3638022338
  0
LINE
  5
225
100
AcDbEntity
  8
0
100
AcDbLine
 62
7
  6
CONTINUOUS
 10
-1347.537034895
 20
166.5369358108
 11
-1347.7451800322
 21
168.3638022338
  0
LINE
  5
226
100
AcDbEntity
  8
0
100
AcDbLine
 62
7
  6
CONTINUOUS
 10
-1290.4178325806
 20
166.5369358108
 11
-1290.2096874434
 21
168.3638022338
  0
LINE
  5
227
100
AcDbEntity
  8
0
100
AcDbLine
 62
7
  6
CONTINUOUS
 10
-1289.6636938223
 20
169.7769415894
 11
-1290.2096874434
 21
168.3638022338
  0
LINE
  5
228
100
AcDbEntity
  8
0
100
AcDbLine
 62
7
  6
CONTINUOUS
 10
-1289.6636938223
 20
169.7769415893
 11
-1279.0127611349
 21
184.5720204077
  0
LWPOLYLINE
  5
229
100
AcDbEntity
  8
0
100
AcDbPolyline
 62
7
  6
CONTINUOUS
 90
8
 70
0
 10
-2212.816544995
 20
641.5264181061
 10
-2212.8712319819
 20
641.5252820942
 10
-2212.9393528515
 20
641.5232422162
 10
-2213.0282784615
 20
641.5194603703
 10
-2213.1340981329
 20
641.513264196
 10
-2213.2463549733
 20
641.5046512487
 10
-2213.3627395702
 20
641.493486497
 10
-2213.4858417794
 20
641.479183523
  0
LWPOLYLINE
  5
22A
100
AcDbEntity
  8
0
100
AcDbPolyline
 62
7
  6
CONTINUOUS
 90
14
 70
0
 10
-2212.78378463
 20
641.5259025927
 10
-2212.8307981386
 20
641.5251523624
 10
-2212.8992971945
 20
641.5235176338
 10
-2212.9838779542
 20
641.520498201
 10
-2213.0777309958
 20
641.5157858518
 10
-2213.1822974936
 20
641.5088140932
 10
-2213.2977525211
 20
641.498992296
 10
-2213.4146327745
 20
641.4867610811
 10
-2213.5293294914
 20
641.4725043426
 10
-2213.6453604017
 20
641.4557922441
 10
-2213.7635796191
 20
641.4363756807
 10
-2213.8843169476
 20
641.4140312193
 10
-2214.0071317389
 20
641.3886654253
 10
-2214.1316990248
 20
641.360185485
  0
LINE
  5
22B
100
AcDbEntity
  8
0
100
AcDbLine
 62
7
  6
CONTINUOUS
 10
-2218.6479626008
 20
635.631191547
 11
-2218.7314232296
 21
635.6303635368
  0
LINE
  5
22C
100
AcDbEntity
  8
0
100
AcDbLine
 62
7
  6
CONTINUOUS
 10
-2212.6522267794
 20
641.5280457808
 11
-2212.7687760719
 21
641.5271022582
  0
LINE
  5
22D
100
AcDbEntity
  8
0
100
AcDbLine
 62
7
  6
CONTINUOUS
 10
-661.8956326533
 20
641.0152224918
 11
-859.0650459023
 21
640.7877476588
  0
LINE
  5
22E
100
AcDbEntity
  8
0
100
AcDbLine
 62
7
  6
CONTINUOUS
 10
-418.9425236079
 20
619.5364309611
 11
-2219.0123438677
 21
619.5364309611
  0
LINE
  5
22F
100
AcDbEntity
  8
0
100
AcDbLine
 62
7
  6
CONTINUOUS
 10
-858.4277818279
 20
640.7887824921
 11
-1765.0083672306
 21
640.8046427764
  0
LINE
  5
230
100
AcDbEntity
  8
0
100
AcDbLine
 62
7
  6
CONTINUOUS
 10
-2208.9774337378
 20
635.6328267803
 11
-2218.7314232304
 21
635.6303634481
  0
LINE
  5
231
100
AcDbEntity
  8
0
100
AcDbLine
 62
7
  6
CONTINUOUS
 10
-1761.2745385762
 20
640.8051466281
 11
-1965.1118492577
 21
641.034599207
  0
LINE
  5
232
100
AcDbEntity
  8
0
100
AcDbLine
 62
7
  6
CONTINUOUS
 10
-419.2234244066
 20
635.6292269413
 11
-428.9774337378
 21
635.6319109227
  0
LINE
  5
233
100
AcDbEntity
  8
0
100
AcDbLine
 62
7
  6
CONTINUOUS
 10
-1965.1118492577
 20
641.034599207
 11
-2212.6060276754
 21
641.528279018
  0
LINE
  5
234
100
AcDbEntity
  8
0
100
AcDbLine
 62
7
  6
CONTINUOUS
 10
-425.6357567547
 20
641.528262661
 11
-662.1128229979
 21
641.0137711996
  0
LINE
  5
235
100
AcDbEntity
  8
0
100
AcDbLine
 62
7
  6
CONTINUOUS
 10
-425.3132845654
 20
641.5261292769
 11
-425.6635507461
 21
641.52730813
  0
LINE
  5
236
100
AcDbEntity
  8
0
100
AcDbLine
 62
7
  6
CONTINUOUS
 10
-425.2379587751
 20
641.5256011303
 11
-425.2731954127
 21
641.5258751228
  0
LINE
  5
237
100
AcDbEntity
  8
0
100
AcDbLine
 62
7
  6
CONTINUOUS
 10
-419.2234244066
 20
635.6292269413
 11
-419.3068864678
 21
635.6301332463
  0
LWPOLYLINE
  5
238
100
AcDbEntity
  8
0
100
AcDbPolyline
 62
7
  6
CONTINUOUS
 90
3
 70
0
 10
-425.1170712145
 20
641.5239618405
 10
-425.165253385
 20
641.5247892465
 10
-425.2050273552
 20
641.5252835245
  0
LWPOLYLINE
  5
239
100
AcDbEntity
  8
0
100
AcDbPolyline
 62
7
  6
CONTINUOUS
 90
3
 70
0
 10
-2213.4858417794
 20
641.479183523
 10
-2213.6117446139
 20
641.4618818675
 10
-2213.7398872017
 20
641.4414710983
  0
LWPOLYLINE
  5
23A
100
AcDbEntity
  8
0
100
AcDbPolyline
 62
7
  6
CONTINUOUS
 90
4
 70
0
 10
-424.5063372353
 20
641.4816822968
 10
-424.6377712091
 20
641.4960310369
 10
-424.765242459
 20
641.5071642151
 10
-424.8857138522
 20
641.5151889267
  0
LWPOLYLINE
  5
23B
100
AcDbEntity
  8
0
100
AcDbPolyline
 62
7
  6
CONTINUOUS
 90
12
 70
0
 10
-423.9104862576
 20
641.3803497168
 10
-424.045547087
 20
641.4089924219
 10
-424.1793981995
 20
641.4341976286
 10
-424.3115190706
 20
641.4560115206
 10
-424.4400425701
 20
641.4743419493
 10
-424.5667244875
 20
641.489647999
 10
-424.6897358863
 20
641.5019088447
 10
-424.8021177105
 20
641.5108871378
 10
-424.9047646632
 20
641.5172469456
 10
-424.9976884637
 20
641.5215080518
 10
-425.0733427067
 20
641.5239545452
 10
-425.1265583046
 20
641.525158757
  0
LWPOLYLINE
  5
23C
100
AcDbEntity
  8
0
100
AcDbPolyline
 62
7
  6
CONTINUOUS
 90
7
 70
0
 10
-2214.1318594082
 20
641.3611567801
 10
-2214.2619633961
 20
641.3284037011
 10
-2214.3918929319
 20
641.2925803006
 10
-2214.5215075901
 20
641.2536846243
 10
-2214.6507362406
 20
641.2116990902
 10
-2214.7795734393
 20
641.1665831546
 10
-2214.9079068056
 20
641.118331793
  0
LWPOLYLINE
  5
23D
100
AcDbEntity
  8
0
100
AcDbPolyline
 62
7
  6
CONTINUOUS
 90
8
 70
0
 10
-423.4945946921
 20
641.2703464549
 10
-423.6436592795
 20
641.3130842773
 10
-423.7915557126
 20
641.3514106814
 10
-423.9382746972
 20
641.3854987731
 10
-424.0835339262
 20
641.415455764
 10
-424.2262918261
 20
641.4412769794
 10
-424.3676645481
 20
641.4633581122
 10
-424.4775984774
 20
641.4778847624
  0
LINE
  5
23E
100
AcDbEntity
  8
0
100
AcDbLine
 62
7
  6
CONTINUOUS
 10
-656.408007325
 20
260.9477449663
 11
-473.6979521298
 21
619.5364187536
  0
LINE
  5
23F
100
AcDbEntity
  8
0
100
AcDbLine
 62
7
  6
CONTINUOUS
 10
-666.613271839
 20
242.4871174183
 11
-666.449849071
 21
242.7429158082
  0
LINE
  5
240
100
AcDbEntity
  8
0
100
AcDbLine
 62
7
  6
CONTINUOUS
 10
-667.7153281286
 20
240.8012563105
 11
-666.449849071
 21
242.7429158082
  0
LWPOLYLINE
  5
241
100
AcDbEntity
  8
0
100
AcDbPolyline
 62
7
  6
CONTINUOUS
 90
13
 70
0
 10
-421.8476350724
 20
640.4864020699
 10
-421.9810967871
 20
640.5746171205
 10
-422.1158512134
 20
640.6586304487
 10
-422.2517061118
 20
640.7384354098
 10
-422.3885272896
 20
640.8140658119
 10
-422.526145053
 20
640.8855390188
 10
-422.6643780682
 20
640.9528732211
 10
-422.8030826349
 20
641.0161109244
 10
-422.9421038278
 20
641.0752931712
 10
-423.0812729102
 20
641.1304604321
 10
-423.2204335508
 20
641.1816639707
 10
-423.3595029107
 20
641.2289841439
 10
-423.4982730732
 20
641.2724611814
  0
LWPOLYLINE
  5
242
100
AcDbEntity
  8
0
100
AcDbPolyline
 62
7
  6
CONTINUOUS
 90
12
 70
0
 10
-421.5823475699
 20
640.2941361969
 10
-421.7226939248
 20
640.3980521633
 10
-421.864881779
 20
640.4970816024
 10
-422.0087594086
 20
640.5912597763
 10
-422.1541036487
 20
640.6805782677
 10
-422.3006755761
 20
640.7650303363
 10
-422.4483113444
 20
640.8446608397
 10
-422.5968024879
 20
640.9194945019
 10
-422.7459249789
 20
640.9895571515
 10
-422.895502424
 20
641.0549048509
 10
-423.0453549653
 20
641.115596406
 10
-423.195267637
 20
641.1716829121
  0
LWPOLYLINE
  5
243
100
AcDbEntity
  8
0
100
AcDbPolyline
 62
7
  6
CONTINUOUS
 90
3
 70
0
 10
-421.3300560974
 20
640.0915797002
 10
-421.4566629455
 20
640.1965479478
 10
-421.5852556702
 20
640.2973639912
  0
LWPOLYLINE
  5
244
100
AcDbEntity
  8
0
100
AcDbPolyline
 62
7
  6
CONTINUOUS
 90
3
 70
0
 10
-419.2457784315
 20
636.0524076429
 10
-419.2680197793
 20
636.262103399
 10
-419.2880339216
 20
636.403430423
  0
LWPOLYLINE
  5
245
100
AcDbEntity
  8
0
100
AcDbPolyline
 62
7
  6
CONTINUOUS
 90
3
 70
0
 10
-419.2239747143
 20
635.6580646286
 10
-419.2317009654
 20
635.8574865058
 10
-419.2458783768
 20
636.0545476886
  0
LINE
  5
246
100
AcDbEntity
  8
0
100
AcDbLine
 62
7
  6
CONTINUOUS
 10
-418.9425236079
 20
619.5364309611
 11
-419.2234244066
 21
635.6292269409
  0
LINE
  5
247
100
AcDbEntity
  8
0
100
AcDbLine
 62
7
  6
CONTINUOUS
 10
-428.9843188788
 20
641.5272098102
 11
-428.9774337378
 21
619.5364187536
  0
LWPOLYLINE
  5
248
100
AcDbEntity
  8
0
100
AcDbPolyline
 62
7
  6
CONTINUOUS
 90
6
 70
0
 10
-420.7322762999
 20
639.5052018533
 10
-420.846557601
 20
639.630530686
 10
-420.9636517487
 20
639.7518901477
 10
-421.083352099
 20
639.8691885556
 10
-421.2055509068
 20
639.9824394592
 10
-421.3300560974
 20
640.0915797002
  0
LWPOLYLINE
  5
249
100
AcDbEntity
  8
0
100
AcDbPolyline
 62
7
  6
CONTINUOUS
 90
6
 70
0
 10
-420.2088005421
 20
638.8213899611
 10
-420.3066496752
 20
638.965630916
 10
-420.4079913283
 20
639.1060870713
 10
-420.5128256079
 20
639.2429019425
 10
-420.6209995542
 20
639.3759956123
 10
-420.7322762999
 20
639.5052018533
  0
LWPOLYLINE
  5
24A
100
AcDbEntity
  8
0
100
AcDbPolyline
 62
7
  6
CONTINUOUS
 90
12
 70
0
 10
-420.0232719708
 20
638.5191649956
 10
-420.1205836978
 20
638.6821019824
 10
-420.2223306673
 20
638.8408710325
 10
-420.3282345196
 20
638.995261556
 10
-420.4383134996
 20
639.1454930075
 10
-420.5523783913
 20
639.2914624006
 10
-420.6701308823
 20
639.4329508438
 10
-420.7914699787
 20
639.5699958714
 10
-420.9161648199
 20
639.7024843033
 10
-421.0439507103
 20
639.8302883493
 10
-421.1746962382
 20
639.9534258847
 10
-421.3081619784
 20
640.0718146289
  0
LINE
  5
24B
100
AcDbEntity
  8
0
100
AcDbLine
 62
7
  6
CONTINUOUS
 10
-419.9380746473
 20
638.3671343417
 11
-420.0244324591
 21
638.5221886213
  0
LWPOLYLINE
  5
24C
100
AcDbEntity
  8
0
100
AcDbPolyline
 62
7
  6
CONTINUOUS
 90
4
 70
0
 10
-419.70423602
 20
637.8810816884
 10
-419.777869317
 20
638.0466129618
 10
-419.8558195803
 20
638.2085517399
 10
-419.9380746473
 20
638.3671343417
  0
LWPOLYLINE
  5
24D
100
AcDbEntity
  8
0
100
AcDbPolyline
 62
7
  6
CONTINUOUS
 90
3
 70
0
 10
-419.6817929734
 20
637.8267857769
 10
-419.7596199814
 20
638.0058111029
 10
-419.8426509366
 20
638.1810383344
  0
LWPOLYLINE
  5
24E
100
AcDbEntity
  8
0
100
AcDbPolyline
 62
7
  6
CONTINUOUS
 90
6
 70
0
 10
-419.4076452337
 20
637.00449012
 10
-419.4568534237
 20
637.1860053155
 10
-419.511320408
 20
637.3646293612
 10
-419.5708342661
 20
637.5401102667
 10
-419.635154533
 20
637.7121782623
 10
-419.70423602
 20
637.8810816884
  0
LWPOLYLINE
  5
24F
100
AcDbEntity
  8
0
100
AcDbPolyline
 62
7
  6
CONTINUOUS
 90
8
 70
0
 10
-419.2973579803
 20
636.4692709393
 10
-419.3335535613
 20
636.6735068908
 10
-419.3763145707
 20
636.8743259556
 10
-419.4255148437
 20
637.0720415204
 10
-419.4808934023
 20
637.2663045475
 10
-419.5421490957
 20
637.4567398927
 10
-419.6092031376
 20
637.6436611517
 10
-419.6817929734
 20
637.8267857769
  0
LWPOLYLINE
  5
250
100
AcDbEntity
  8
0
100
AcDbPolyline
 62
7
  6
CONTINUOUS
 90
4
 70
0
 10
-419.2929736965
 20
636.4423613718
 10
-419.3254831212
 20
636.6323509132
 10
-419.3637758815
 20
636.8198295484
 10
-419.4076452337
 20
637.00449012
  0
LINE
  5
251
100
AcDbEntity
  8
0
100
AcDbLine
 62
7
  6
CONTINUOUS
 10
192.7269692131
 20
635.5441231271
 11
192.4475522663
 21
619.5374528674
  0
LINE
  5
252
100
AcDbEntity
  8
0
100
AcDbLine
 62
7
  6
CONTINUOUS
 10
202.4824623962
 20
619.5374406599
 11
202.4938406983
 21
641.52661242
  0
LWPOLYLINE
  5
253
100
AcDbEntity
  8
0
100
AcDbPolyline
 62
7
  6
CONTINUOUS
 90
45
 70
0
 10
340.9277154798
 20
245.5786742178
 10
341.1951444846
 20
244.5711411286
 10
341.48199009
 20
243.5183901442
 10
341.7877563109
 20
242.4295588212
 10
342.1173557501
 20
241.2952804077
 10
342.4654471029
 20
240.141793597
 10
342.8305833617
 20
238.9800243505
 10
343.2179406485
 20
237.7998064598
 10
343.6316406694
 20
236.5960470136
 10
344.0747915613
 20
235.3678493996
 10
344.5497305797
 20
234.117101925
 10
345.0600453635
 20
232.84294348
 10
345.6092306557
 20
231.5455861188
 10
346.2006226358
 20
230.2262494557
 10
346.8380018035
 20
228.8857021189
 10
347.5253282231
 20
227.5249396523
 10
348.2667901627
 20
226.1451522215
 10
349.0669001826
 20
224.7475584813
 10
349.9293710705
 20
223.3352270403
 10
350.8597709184
 20
221.9084389707
 10
351.8643011955
 20
220.4659880297
 10
352.9434977356
 20
219.0144997014
 10
354.0984262317
 20
217.5563200075
 10
355.3362534794
 20
216.085480726
 10
356.6568472066
 20
214.6066410993
 10
358.0615846966
 20
213.1228975813
 10
359.5627153253
 20
211.6269558801
 10
361.1587876258
 20
210.1267994268
 10
362.8525088001
 20
208.6267765105
 10
364.6645015486
 20
207.1175177995
 10
366.5904119886
 20
205.6130903786
 10
368.6345589105
 20
204.1211853643
 10
370.8331416383
 20
202.6303356267
 10
373.1735122735
 20
201.1672291165
 10
375.6666423608
 20
199.7451612365
 10
378.3868859396
 20
198.3515920456
 10
381.3075191157
 20
197.0403481421
 10
384.4280287878
 20
195.8487678238
 10
387.8614379451
 20
194.7705059
 10
391.5539017421
 20
193.8543010986
 10
395.5254954148
 20
193.1148221871
 10
399.9928579613
 20
192.538971872
 10
404.992185911
 20
192.1446559417
 10
410.3929295236
 20
191.9150066585
 10
571.6267866939
 20
187.6876336357
  0
LINE
  5
254
100
AcDbEntity
  8
0
100
AcDbLine
 62
7
  6
CONTINUOUS
 10
340.4865921345
 20
247.290314665
 11
340.9277154798
 21
245.5786742178
  0
LINE
  5
255
100
AcDbEntity
  8
0
100
AcDbLine
 62
7
  6
CONTINUOUS
 10
337.6146160938
 20
259.010454256
 11
337.5993650954
 21
259.0718120762
  0
LINE
  5
256
100
AcDbEntity
  8
0
100
AcDbLine
 62
7
  6
CONTINUOUS
 10
340.0521027888
 20
249.0262477836
 11
340.4865921345
 21
247.290314665
  0
LINE
  5
257
100
AcDbEntity
  8
0
100
AcDbLine
 62
7
  6
CONTINUOUS
 10
338.1976267321
 20
256.6280620023
 11
338.5797709251
 21
255.093805039
  0
LINE
  5
258
100
AcDbEntity
  8
0
100
AcDbLine
 62
7
  6
CONTINUOUS
 10
339.3225655646
 20
252.0050904932
 11
339.3265295586
 21
251.9888315392
  0
LINE
  5
259
100
AcDbEntity
  8
0
100
AcDbLine
 62
7
  6
CONTINUOUS
 10
340.0521027888
 20
249.0262477836
 11
339.3633671899
 21
251.8377338122
  0
LINE
  5
25A
100
AcDbEntity
  8
0
100
AcDbLine
 62
7
  6
CONTINUOUS
 10
339.2628676051
 20
252.2499684219
 11
338.9345895089
 21
253.596712561
  0
LINE
  5
25B
100
AcDbEntity
  8
0
100
AcDbLine
 62
7
  6
CONTINUOUS
 10
249.7280451302
 20
619.5373831854
 11
338.8923632214
 21
253.7698940934
  0
LWPOLYLINE
  5
25C
100
AcDbEntity
  8
0
100
AcDbPolyline
 62
7
  6
CONTINUOUS
 90
15
 70
0
 10
413.1687287371
 20
193.7386160858
 10
413.2718174398
 20
193.4936347428
 10
413.3133648097
 20
193.2608258037
 10
413.325861534
 20
193.0403514026
 10
413.4030965161
 20
192.8320492518
 10
413.4560997658
 20
192.6413432675
 10
413.4603513903
 20
192.4688891964
 10
413.4991715033
 20
192.3140312202
 10
413.5611267659
 20
192.1802260097
 10
413.5654580892
 20
192.0686848337
 10
413.5626313736
 20
191.9781964601
 10
413.6223744135
 20
191.9085839488
 10
413.7000759134
 20
191.8597884021
 10
413.7170872803
 20
191.8318688675
 10
413.6411524795
 20
191.8248253844
  0
LINE
  5
25D
100
AcDbEntity
  8
0
100
AcDbLine
 62
7
  6
CONTINUOUS
 10
646.0415124765
 20
166.536901068
 11
588.9223101622
 21
166.5369705537
  0
LINE
  5
25E
100
AcDbEntity
  8
0
100
AcDbLine
 62
7
  6
CONTINUOUS
 10
588.7141672474
 20
168.3638372299
 11
646.2496598361
 21
168.3637672377
  0
LINE
  5
25F
100
AcDbEntity
  8
0
100
AcDbLine
 62
7
  6
CONTINUOUS
 10
646.7956551763
 20
169.7769059291
 11
588.2030186192
 21
169.7769772073
  0
LINE
  5
260
100
AcDbEntity
  8
0
100
AcDbLine
 62
7
  6
CONTINUOUS
 10
413.2024620153
 20
193.7379643905
 11
413.6411524921
 21
191.8248250913
  0
LWPOLYLINE
  5
261
100
AcDbEntity
  8
0
100
AcDbPolyline
 62
7
  6
CONTINUOUS
 90
45
 70
0
 10
824.5708523274
 20
191.9144996419
 10
829.9714048958
 20
192.1441218919
 10
834.9705682962
 20
192.5383955092
 10
839.4378048294
 20
193.1141898208
 10
843.4093074249
 20
193.8536040417
 10
847.1016953026
 20
194.7697342685
 10
850.5350415208
 20
195.8479138099
 10
853.6555062833
 20
197.0394110378
 10
856.5761057044
 20
198.3505724955
 10
859.2963224531
 20
199.744063693
 10
861.7894328835
 20
201.166059189
 10
864.1297888348
 20
202.6290964608
 10
866.3283617493
 20
204.119880107
 10
868.3725039032
 20
205.6117228804
 10
870.298413653
 20
207.1160905567
 10
872.1104094342
 20
208.6252917612
 10
873.8041373501
 20
210.1252597248
 10
875.4002200238
 20
211.6253632304
 10
876.9013645089
 20
213.1212538411
 10
878.3061189812
 20
214.60494784
 10
879.6267327694
 20
216.0837390895
 10
880.8645831143
 20
217.5545311681
 10
882.0195387136
 20
219.0126656296
 10
883.0987669227
 20
220.4641107785
 10
884.1033313085
 20
221.9065211063
 10
885.0337669502
 20
223.3332717571
 10
885.896273709
 20
224.7455681701
 10
886.6964185882
 20
226.1431283796
 10
887.4379143912
 20
227.5228841195
 10
888.1252744185
 20
228.8836184719
 10
888.7626867833
 20
230.2241414226
 10
889.3541111363
 20
231.5434569889
 10
889.9033281253
 20
232.8407973133
 10
890.4136744588
 20
234.1149446554
 10
890.8886439168
 20
235.3656850185
 10
891.3318223384
 20
236.5938745539
 10
891.7455470895
 20
237.7976248824
 10
892.1329264977
 20
238.9778326412
 10
892.4980810475
 20
240.1395860117
 10
892.8461826057
 20
241.293035261
 10
893.1757892669
 20
242.4272704467
 10
893.4815712536
 20
243.5160957257
 10
893.7684430911
 20
244.5688876387
 10
894.0359050566
 20
245.5764977673
 10
894.4771275113
 20
247.2884597987
  0
LINE
  5
262
100
AcDbEntity
  8
0
100
AcDbLine
 62
7
  6
CONTINUOUS
 10
824.5708523274
 20
191.9144996419
 11
663.3370874045
 21
187.6875220697
  0
LINE
  5
263
100
AcDbEntity
  8
0
100
AcDbLine
 62
7
  6
CONTINUOUS
 10
577.5172606563
 20
184.5720690249
 11
657.4466058619
 21
184.5719717905
  0
LINE
  5
264
100
AcDbEntity
  8
0
100
AcDbLine
 62
7
  6
CONTINUOUS
 10
663.3370874045
 20
187.6875220697
 11
571.6267866939
 21
187.6876336357
  0
LINE
  5
265
100
AcDbEntity
  8
0
100
AcDbLine
 62
7
  6
CONTINUOUS
 10
577.5172606563
 20
184.5720690249
 11
588.1681753453
 21
169.7769772497
  0
LINE
  5
266
100
AcDbEntity
  8
0
100
AcDbLine
 62
7
  6
CONTINUOUS
 10
588.1681753453
 20
169.7769772497
 11
588.7141672474
 21
168.3638372299
  0
LINE
  5
267
100
AcDbEntity
  8
0
100
AcDbLine
 62
7
  6
CONTINUOUS
 10
588.7141672474
 20
168.3638372299
 11
588.9223101622
 21
166.5369705537
  0
LINE
  5
268
100
AcDbEntity
  8
0
100
AcDbLine
 62
7
  6
CONTINUOUS
 10
617.4824623959
 20
619.5369358105
 11
617.4844224527
 21
201.363956948
  0
LINE
  5
269
100
AcDbEntity
  8
0
100
AcDbLine
 62
7
  6
CONTINUOUS
 10
617.4836603
 20
640.7186037068
 11
617.4837010618
 21
634.8231856333
  0
LINE
  5
26A
100
AcDbEntity
  8
0
100
AcDbLine
 62
7
  6
CONTINUOUS
 10
646.2496598361
 20
168.3637672377
 11
646.0415124765
 21
166.536901068
  0
LINE
  5
26B
100
AcDbEntity
  8
0
100
AcDbLine
 62
7
  6
CONTINUOUS
 10
657.446605862
 20
184.5719717905
 11
646.7956551763
 21
169.7769059291
  0
LINE
  5
26C
100
AcDbEntity
  8
0
100
AcDbLine
 62
7
  6
CONTINUOUS
 10
1040.2205698824
 20
635.6339330298
 11
1032.4824819739
 21
635.6303635368
  0
LINE
  5
26D
100
AcDbEntity
  8
0
100
AcDbLine
 62
7
  6
CONTINUOUS
 10
1042.5173725255
 20
619.5364187536
 11
192.4475522663
 21
619.5374528674
  0
LINE
  5
26E
100
AcDbEntity
  8
0
100
AcDbLine
 62
7
  6
CONTINUOUS
 10
202.4824819745
 20
635.6313484481
 11
194.7443955014
 21
635.6349302826
  0
LINE
  5
26F
100
AcDbEntity
  8
0
100
AcDbLine
 62
7
  6
CONTINUOUS
 10
198.7405651896
 20
641.5291222727
 11
198.7536153494
 21
641.5293741092
  0
LINE
  5
270
100
AcDbEntity
  8
0
100
AcDbLine
 62
7
  6
CONTINUOUS
 10
198.7536153494
 20
641.5293741092
 11
198.7791271476
 21
641.5295665307
  0
LINE
  5
271
100
AcDbEntity
  8
0
100
AcDbLine
 62
7
  6
CONTINUOUS
 10
817.9522951335
 20
641.1634220226
 11
655.9156451144
 21
640.7380296427
  0
LINE
  5
272
100
AcDbEntity
  8
0
100
AcDbLine
 62
7
  6
CONTINUOUS
 10
193.0609075145
 20
635.6346544779
 11
192.7285353424
 21
635.6338403576
  0
LINE
  5
273
100
AcDbEntity
  8
0
100
AcDbLine
 62
7
  6
CONTINUOUS
 10
817.9522951335
 20
641.1634220226
 11
1033.9191947273
 21
641.527797038
  0
LINE
  5
274
100
AcDbEntity
  8
0
100
AcDbLine
 62
7
  6
CONTINUOUS
 10
1032.4700726238
 20
641.5256011559
 11
1036.2014413737
 21
641.5284816458
  0
LINE
  5
275
100
AcDbEntity
  8
0
100
AcDbLine
 62
7
  6
CONTINUOUS
 10
194.7443955014
 20
635.6349302826
 11
192.7285353421
 21
635.6338403307
  0
LINE
  5
276
100
AcDbEntity
  8
0
100
AcDbLine
 62
7
  6
CONTINUOUS
 10
1042.2364282655
 20
635.6328267803
 11
1040.2205698824
 21
635.6339330298
  0
LINE
  5
277
100
AcDbEntity
  8
0
100
AcDbLine
 62
7
  6
CONTINUOUS
 10
657.8853178179
 20
640.7423171579
 11
577.0410654048
 21
640.7409931927
  0
LINE
  5
278
100
AcDbEntity
  8
0
100
AcDbLine
 62
7
  6
CONTINUOUS
 10
198.7791271476
 20
641.5295665307
 11
202.4949157646
 21
641.5266107988
  0
LINE
  5
279
100
AcDbEntity
  8
0
100
AcDbLine
 62
7
  6
CONTINUOUS
 10
577.7826398837
 20
640.7405826449
 11
201.0457936093
 21
641.5288102149
  0
LINE
  5
27A
100
AcDbEntity
  8
0
100
AcDbLine
 62
7
  6
CONTINUOUS
 10
1042.2364282655
 20
635.6328267803
 11
1042.1529736933
 21
635.63330071
  0
LINE
  5
27B
100
AcDbEntity
  8
0
100
AcDbLine
 62
7
  6
CONTINUOUS
 10
1036.1858535778
 20
641.5285477746
 11
1036.1981634613
 21
641.5284708059
  0
LINE
  5
27C
100
AcDbEntity
  8
0
100
AcDbLine
 62
7
  6
CONTINUOUS
 10
1036.1981634613
 20
641.5284708059
 11
1036.2244170538
 21
641.5281033791
  0
LINE
  5
27D
100
AcDbEntity
  8
0
100
AcDbLine
 62
7
  6
CONTINUOUS
 10
895.9406038691
 20
253.2315480147
 11
896.0196200917
 21
253.5557307139
  0
LINE
  5
27E
100
AcDbEntity
  8
0
100
AcDbLine
 62
7
  6
CONTINUOUS
 10
895.8736481456
 20
252.956871135
 11
895.7115432207
 21
252.2918713717
  0
LINE
  5
27F
100
AcDbEntity
  8
0
100
AcDbLine
 62
7
  6
CONTINUOUS
 10
897.3493534878
 20
259.0104110901
 11
985.2367374738
 21
619.5364884358
  0
LINE
  5
280
100
AcDbEntity
  8
0
100
AcDbLine
 62
7
  6
CONTINUOUS
 10
896.0795625874
 20
253.8015916575
 11
897.2705985826
 21
258.6854760094
  0
LINE
  5
281
100
AcDbEntity
  8
0
100
AcDbLine
 62
7
  6
CONTINUOUS
 10
894.8019756463
 20
248.5824348774
 11
895.6556817543
 21
252.06282038
  0
LINE
  5
282
100
AcDbEntity
  8
0
100
AcDbLine
 62
7
  6
CONTINUOUS
 10
894.4771275113
 20
247.2884597987
 11
894.8019756463
 21
248.5824348774
  0
LINE
  5
283
100
AcDbEntity
  8
0
100
AcDbLine
 62
7
  6
CONTINUOUS
 10
1032.4711398778
 20
641.5256132956
 11
1032.4824623956
 21
619.5364309611
  0
LINE
  5
284
100
AcDbEntity
  8
0
100
AcDbLine
 62
7
  6
CONTINUOUS
 10
1042.5173725254
 20
619.5364187536
 11
1042.2381962305
 21
635.5315330722
  0
LINE
  5
285
100
AcDbEntity
  8
0
100
AcDbLine
 62
7
  6
CONTINUOUS
 10
-2219.0123438677
 20
-1082.0677644614
 11
-2219.0123438677
 21
-252.0677644624
  0
LINE
  5
286
100
AcDbEntity
  8
0
100
AcDbLine
 62
7
  6
CONTINUOUS
 10
-2208.9774337378
 20
-242.0328543324
 11
-2208.9712222696
 21
-248.3287777836
  0
LINE
  5
287
100
AcDbEntity
  8
0
100
AcDbLine
 62
7
  6
CONTINUOUS
 10
-2208.9774337378
 20
-1092.1026745915
 11
-2208.971220697
 21
-1085.8097348753
  0
LINE
  5
288
100
AcDbEntity
  8
0
100
AcDbLine
 62
7
  6
CONTINUOUS
 10
-428.977433738
 20
-1092.1026745915
 11
-2208.9774337376
 21
-1092.1026745915
  0
LINE
  5
289
100
AcDbEntity
  8
0
100
AcDbLine
 62
7
  6
CONTINUOUS
 10
-418.9425236079
 20
-1082.0677644616
 11
-419.2234244066
 21
-1082.0677840386
  0
LINE
  5
28A
100
AcDbEntity
  8
0
100
AcDbLine
 62
7
  6
CONTINUOUS
 10
-2218.7314236674
 20
-1082.0677840399
 11
-2219.0123438676
 21
-1082.0677644616
  0
LINE
  5
28B
100
AcDbEntity
  8
0
100
AcDbLine
 62
7
  6
CONTINUOUS
 10
-750.9471836771
 20
-667.0672606206
 11
-467.0510334649
 21
-667.0673476321
  0
LINE
  5
28C
100
AcDbEntity
  8
0
100
AcDbLine
 62
7
  6
CONTINUOUS
 10
-2166.2954240317
 20
-667.0677800466
 11
-1887.0077559934
 21
-667.0672606256
  0
LINE
  5
28D
100
AcDbEntity
  8
0
100
AcDbLine
 62
7
  6
CONTINUOUS
 10
-425.9464206892
 20
-667.0668612201
 11
-419.2093493166
 21
-667.0668871387
  0
LINE
  5
28E
100
AcDbEntity
  8
0
100
AcDbLine
 62
7
  6
CONTINUOUS
 10
-2212.0084412655
 20
-667.0689278989
 11
-2218.745521383
 21
-667.0690031278
  0
LINE
  5
28F
100
AcDbEntity
  8
0
100
AcDbLine
 62
7
  6
CONTINUOUS
 10
-419.2234244056
 20
-252.0677840392
 11
-418.9425236079
 21
-252.0677644622
  0
LINE
  5
290
100
AcDbEntity
  8
0
100
AcDbLine
 62
7
  6
CONTINUOUS
 10
-2208.9774337376
 20
-242.0328543323
 11
-428.977433738
 21
-242.0328543323
  0
LINE
  5
291
100
AcDbEntity
  8
0
100
AcDbLine
 62
7
  6
CONTINUOUS
 10
-2219.0123438676
 20
-252.0677644622
 11
-2218.7314236622
 21
-252.0677840405
  0
LINE
  5
292
100
AcDbEntity
  8
0
100
AcDbLine
 62
7
  6
CONTINUOUS
 10
-428.98431947
 20
-1085.8035268647
 11
-428.9774337378
 21
-1092.1026745915
  0
LINE
  5
293
100
AcDbEntity
  8
0
100
AcDbLine
 62
7
  6
CONTINUOUS
 10
-418.9425236079
 20
-252.0677644624
 11
-418.9425236079
 21
-1082.0677644614
  0
LINE
  5
294
100
AcDbEntity
  8
0
100
AcDbLine
 62
7
  6
CONTINUOUS
 10
-428.9774337378
 20
-242.0328543324
 11
-428.9843214344
 21
-248.327198577
  0
ARC
  5
295
100
AcDbEntity
  8
0
100
AcDbCircle
 62
7
  6
CONTINUOUS
 10
-1316.1462961187
 20
542104.0271948855
 40
541469.2299278209
100
AcDbArc
 50
269.9055246795
 51
270.093876164
  0
ARC
  5
296
100
AcDbEntity
  8
0
100
AcDbCircle
 62
7
  6
CONTINUOUS
 10
-1319.3261082644
 20
8140.0539068982
 40
7948.2295824489
100
AcDbArc
 50
270.0025134627
 51
270.3323026963
  0
ARC
  5
297
100
AcDbEntity
  8
0
100
AcDbCircle
 62
7
  6
CONTINUOUS
 10
-1318.6510448311
 20
8136.6220936644
 40
7944.7977675626
100
AcDbArc
 50
269.66771461
 51
269.9976461696
  0
ARC
  5
298
100
AcDbEntity
  8
0
100
AcDbCircle
 62
7
  6
CONTINUOUS
 10
-1842.2481859463
 20
323.8912340794
 40
152.6314291815
100
AcDbArc
 50
209.7327683482
 51
210.0754278573
  0
ARC
  5
299
100
AcDbEntity
  8
0
100
AcDbCircle
 62
7
  6
CONTINUOUS
 10
-759.8864746161
 20
302.2477031601
 40
110.7755296286
100
AcDbArc
 50
326.7669850471
 51
327.3521195075
  0
ARC
  5
29A
100
AcDbEntity
  8
0
100
AcDbCircle
 62
7
  6
CONTINUOUS
 10
-1318.9831813572
 20
562.7230947402
 40
26.6542118753
100
AcDbArc
 50
264.0693208974
 51
275.9505339749
  0
ARC
  5
29B
100
AcDbEntity
  8
0
100
AcDbCircle
 62
7
  6
CONTINUOUS
 10
-1318.971686003
 20
563.6704508882
 40
26.6542107117
100
AcDbArc
 50
264.049428567
 51
275.9306644211
  0
ARC
  5
29C
100
AcDbEntity
  8
0
100
AcDbCircle
 62
7
  6
CONTINUOUS
 10
-1320.432002215
 20
561.3232906766
 40
24.5454982258
100
AcDbArc
 50
174.0297645522
 51
178.8810280374
  0
ARC
  5
29D
100
AcDbEntity
  8
0
100
AcDbCircle
 62
7
  6
CONTINUOUS
 10
-1317.5003879697
 20
561.3332175627
 40
24.5229531825
100
AcDbArc
 50
354.0429080712
 51
359.9905037629
  0
ARC
  5
29E
100
AcDbEntity
  8
0
100
AcDbCircle
 62
7
  6
CONTINUOUS
 10
-1320.4610672622
 20
561.3324557196
 40
24.516365537
100
AcDbArc
 50
180.0077183301
 51
186.3934372576
  0
ARC
  5
29F
100
AcDbEntity
  8
0
100
AcDbCircle
 62
7
  6
CONTINUOUS
 10
-1320.5949841057
 20
561.3283604287
 40
24.3824484839
100
AcDbArc
 50
178.8854598905
 51
179.9981372879
  0
ARC
  5
2A0
100
AcDbEntity
  8
0
100
AcDbCircle
 62
7
  6
CONTINUOUS
 10
-1317.3363701048
 20
561.329796329
 40
24.3589349892
100
AcDbArc
 50
359.9984870633
 51
2.2205320226
  0
ARC
  5
2A1
100
AcDbEntity
  8
0
100
AcDbCircle
 62
7
  6
CONTINUOUS
 10
-1272.9266639305
 20
180.1914882469
 40
7.4986417282
100
AcDbArc
 50
91.4948847593
 51
144.0051182462
  0
ARC
  5
2A2
100
AcDbEntity
  8
0
100
AcDbCircle
 62
7
  6
CONTINUOUS
 10
-1365.0281387475
 20
180.1916036462
 40
7.4985246386
100
AcDbArc
 50
35.7444098869
 51
88.505587176
  0
ARC
  5
2A3
100
AcDbEntity
  8
0
100
AcDbCircle
 62
7
  6
CONTINUOUS
 10
-425.2242107524
 20
635.5579724659
 40
5.9665239313
100
AcDbArc
 50
1.0127543461
 51
90.1008268254
  0
ARC
  5
2A4
100
AcDbEntity
  8
0
100
AcDbCircle
 62
7
  6
CONTINUOUS
 10
-2212.7959725745
 20
635.5271454272
 40
5.9363657135
100
AcDbArc
 50
89.9224770769
 51
178.9942162732
  0
ARC
  5
2A5
100
AcDbEntity
  8
0
100
AcDbCircle
 62
7
  6
CONTINUOUS
 10
352.7925030225
 20
111.2550874344
 40
149.9600547781
100
AcDbArc
 50
93.2582970645
 51
93.5646664731
  0
ARC
  5
2A6
100
AcDbEntity
  8
0
100
AcDbCircle
 62
7
  6
CONTINUOUS
 10
571.4304504609
 20
180.1902039373
 40
7.5
100
AcDbArc
 50
35.7499302994
 51
88.4999302994
  0
ARC
  5
2A7
100
AcDbEntity
  8
0
100
AcDbCircle
 62
7
  6
CONTINUOUS
 10
663.5334053961
 20
180.1900918936
 40
7.5
100
AcDbArc
 50
91.4999302994
 51
144.2499302994
  0
ARC
  5
2A8
100
AcDbEntity
  8
0
100
AcDbCircle
 62
7
  6
CONTINUOUS
 10
198.7304298343
 20
635.5263708543
 40
6.0030553134
100
AcDbArc
 50
89.8754781237
 51
179.8161102585
  0
ARC
  5
2A9
100
AcDbEntity
  8
0
100
AcDbCircle
 62
7
  6
CONTINUOUS
 10
1036.2345826903
 20
635.5253368687
 40
6.0030449931
100
AcDbArc
 50
1.0341291822
 51
90.0968794757
  0
ARC
  5
2AA
100
AcDbEntity
  8
0
100
AcDbCircle
 62
7
  6
CONTINUOUS
 10
649.2299404982
 20
168.0242272411
 40
2.9998257788
100
AcDbArc
 50
144.2492591411
 51
173.5009596641
  0
ARC
  5
2AB
100
AcDbEntity
  8
0
100
AcDbCircle
 62
7
  6
CONTINUOUS
 10
-2167.1332177074
 20
862.7503704254
 40
1529.8183798775
100
AcDbArc
 50
269.8587807259
 51
270.0313776047
  0
CIRCLE
  5
2AC
100
AcDbEntity
  8
0
100
AcDbCircle
 62
7
  6
CONTINUOUS
 10
-1318.9774337378
 20
-667.0672439796
 40
45.7504425621
  0
CIRCLE
  5
2AD
100
AcDbEntity
  8
0
100
AcDbCircle
 62
7
  6
CONTINUOUS
 10
-1318.9774337378
 20
-667.0672381681
 40
36.718376675
  0
CIRCLE
  5
2AE
100
AcDbEntity
  8
0
100
AcDbCircle
 62
7
  6
CONTINUOUS
 10
-1318.9774337378
 20
-667.0672201698
 40
26.0674439877
  0
CIRCLE
  5
2AF
100
AcDbEntity
  8
0
100
AcDbCircle
 62
7
  6
CONTINUOUS
 10
-1318.9774337378
 20
-667.0672161586
 40
24.7934588717
  0
CIRCLE
  5
2B0
100
AcDbEntity
  8
0
100
AcDbCircle
 62
7
  6
CONTINUOUS
 10
-1318.9774337378
 20
-667.0672133854
 40
24.5337222264
  0
ARC
  5
2B1
100
AcDbEntity
  8
0
100
AcDbCircle
 62
7
  6
CONTINUOUS
 10
-2208.9774337378
 20
-1082.0677644616
 40
10.0349101299
100
AcDbArc
 50
179.9999999988
 51
270.0000000012
  0
ARC
  5
2B2
100
AcDbEntity
  8
0
100
AcDbCircle
 62
7
  6
CONTINUOUS
 10
-2208.9774337378
 20
-252.0677644622
 40
10.0349101299
100
AcDbArc
 50
89.9999999987
 51
180.0000000012
  0
ARC
  5
2B3
100
AcDbEntity
  8
0
100
AcDbCircle
 62
7
  6
CONTINUOUS
 10
-428.9774337378
 20
-252.0677644622
 40
10.0349101299
100
AcDbArc
 50
0.0
 51
90.0000000012
  0
ARC
  5
2B4
100
AcDbEntity
  8
0
100
AcDbCircle
 62
7
  6
CONTINUOUS
 10
-428.9774337378
 20
-1082.0677644616
 40
10.0349101299
100
AcDbArc
 50
269.9999999988
 51
360.0
  0
ARC
  5
2B5
100
AcDbEntity
  8
0
100
AcDbCircle
 62
7
  6
CONTINUOUS
 10
-428.977510988
 20
-252.0679082513
 40
9.7540861179
100
AcDbArc
 50
0.0007296252
 51
89.9995462299
  0
ARC
  5
2B6
100
AcDbEntity
  8
0
100
AcDbCircle
 62
7
  6
CONTINUOUS
 10
-428.9775105171
 20
-1082.0676602059
 40
9.7540861112
100
AcDbArc
 50
270.0004510037
 51
359.9992726033
  0
ARC
  5
2B7
100
AcDbEntity
  8
0
100
AcDbCircle
 62
7
  6
CONTINUOUS
 10
-2208.9773638014
 20
-1082.067670903
 40
9.7540594288
100
AcDbArc
 50
180.0006645714
 51
269.9995891908
  0
ARC
  5
2B8
100
AcDbEntity
  8
0
100
AcDbCircle
 62
7
  6
CONTINUOUS
 10
-2208.9773642401
 20
-252.067896831
 40
9.7540594228
100
AcDbArc
 50
90.0004082325
 51
179.9993374639
  0
ARC
  5
2B9
100
AcDbEntity
  8
0
100
AcDbCircle
 62
7
  6
CONTINUOUS
 10
-2208.9707652488
 20
-1082.0592831872
 40
3.7499796964
100
AcDbArc
 50
179.9402913602
 51
269.9800395152
  0
ARC
  5
2BA
100
AcDbEntity
  8
0
100
AcDbCircle
 62
7
  6
CONTINUOUS
 10
-2208.9707647117
 20
-252.0762990159
 40
3.7499764274
100
AcDbArc
 50
90.0214327689
 51
180.0598663009
  0
SPLINE
  5
2BB
100
AcDbEntity
  8
0
100
AcDbSpline
 62
7
  6
CONTINUOUS
 70
0
 71
3
 72
16
 73
12
 74
0
 42
0.0000001
 43
0.0000001
 44
0.0000000001
 40
0.0
 40
0.0
 40
0.0
 40
0.0
 40
0.1266005563
 40
0.2531973866
 40
0.3163329521
 40
0.3793043394
 40
0.5046306651
 40
0.6292953546
 40
0.7533080151
 40
0.8768020515
 40
1.0
 40
1.0
 40
1.0
 40
1.0
 10
-1318.9774337378
 20
586.5894227425
 30
0.0
 10
-1317.3206235149
 20
586.5894227425
 30
0.0
 10
-1313.9997062439
 20
586.2774691195
 30
0.0
 10
-1309.9955464294
 20
585.1315195188
 30
0.0
 10
-1306.9728027766
 20
583.7789475188
 30
0.0
 10
-1304.1043898129
 20
582.1581972676
 30
0.0
 10
-1300.83939874
 20
579.6412006061
 30
0.0
 10
-1297.5795841034
 20
575.950658106
 30
0.0
 10
-1295.1044084962
 20
571.7194129379
 30
0.0
 10
-1293.5030786819
 20
567.1085468214
 30
0.0
 10
-1293.0582248624
 20
563.8858948128
 30
0.0
 10
-1292.9957620601
 20
562.2748246335
 30
0.0
  0
SPLINE
  5
2BC
100
AcDbEntity
  8
0
100
AcDbSpline
 62
7
  6
CONTINUOUS
 70
0
 71
3
 72
9
 73
5
 74
0
 42
0.0000001
 43
0.0000001
 44
0.0000000001
 40
0.0
 40
0.0
 40
0.0
 40
0.0
 40
0.2452784953
 40
1.0
 40
1.0
 40
1.0
 40
1.0
 10
-1981.546570304
 20
260.9471761131
 30
0.0
 10
-1981.0107294658
 20
259.8955291818
 30
0.0
 10
-1978.8263207112
 20
255.6081730986
 30
0.0
 10
-1976.5866577646
 20
251.3464332968
 30
0.0
 10
-1974.7853840248
 20
248.1928569535
 30
0.0
  0
SPLINE
  5
2BD
100
AcDbEntity
  8
0
100
AcDbSpline
 62
7
  6
CONTINUOUS
 70
0
 71
3
 72
20
 73
16
 74
0
 42
0.0000001
 43
0.0000001
 44
0.0000000001
 40
0.0
 40
0.0
 40
0.0
 40
0.0
 40
0.1131247894
 40
0.2306296591
 40
0.291211954
 40
0.353293786
 40
0.4171531051
 40
0.4824801801
 40
0.5487178753
 40
0.6154513196
 40
0.6821770248
 40
0.7483929134
 40
0.8136856502
 40
0.8774916092
 40
1.0
 40
1.0
 40
1.0
 40
1.0
 10
-750.8424690214
 20
201.363956108
 30
0.0
 10
-747.1804485839
 20
201.459849486
 30
0.0
 10
-739.7147043992
 20
201.6580743634
 30
0.0
 10
-730.3043735176
 20
202.4428938749
 30
0.0
 10
-722.6269794772
 20
203.7141090287
 30
0.0
 10
-716.7406124766
 20
205.0913673765
 30
0.0
 10
-710.8306451218
 20
206.9672772816
 30
0.0
 10
-704.9657938317
 20
209.3610759142
 30
0.0
 10
-699.2071713206
 20
212.2142597114
 30
0.0
 10
-693.6222003663
 20
215.4842011814
 30
0.0
 10
-688.2744759519
 20
219.1280299196
 30
0.0
 10
-683.2301872489
 20
223.106743577
 30
0.0
 10
-678.556864958
 20
227.3782520869
 30
0.0
 10
-672.9978855257
 20
233.3453614182
 30
0.0
 10
-669.4027245397
 20
238.2194642278
 30
0.0
 10
-667.2284315319
 20
241.5376956134
 30
0.0
  0
SPLINE
  5
2BE
100
AcDbEntity
  8
0
100
AcDbSpline
 62
7
  6
CONTINUOUS
 70
0
 71
3
 72
15
 73
11
 74
0
 42
0.0000001
 43
0.0000001
 44
0.0000000001
 40
0.0
 40
0.0
 40
0.0
 40
0.0
 40
0.1233090985
 40
0.2470005328
 40
0.3711805232
 40
0.4959253951
 40
0.621202105
 40
0.7470057647
 40
0.8733501776
 40
1.0
 40
1.0
 40
1.0
 40
1.0
 10
-1344.4309569218
 20
557.1273765625
 30
0.0
 10
-1344.1531924682
 20
555.8300609341
 30
0.0
 10
-1343.3845852627
 20
553.2717740378
 30
0.0
 10
-1341.6293205
 20
549.6664305142
 30
0.0
 10
-1339.314903052
 20
546.3718563572
 30
0.0
 10
-1336.4972827999
 20
543.4727210533
 30
0.0
 10
-1333.2492241259
 20
541.0368228655
 30
0.0
 10
-1329.6470713163
 20
539.1265358516
 30
0.0
 10
-1325.7810219493
 20
537.7884830705
 30
0.0
 10
-1323.0902803576
 20
537.3009309858
 30
0.0
 10
-1321.7349402658
 20
537.1598610316
 30
0.0
  0
SPLINE
  5
2BF
100
AcDbEntity
  8
0
100
AcDbSpline
 62
7
  6
CONTINUOUS
 70
0
 71
3
 72
15
 73
11
 74
0
 42
0.0000001
 43
0.0000001
 44
0.0000000001
 40
0.0
 40
0.0
 40
0.0
 40
0.0
 40
0.1231983401
 40
0.2467479749
 40
0.3708339689
 40
0.4955687351
 40
0.6209269464
 40
0.7469059303
 40
0.8734746166
 40
1.0
 40
1.0
 40
1.0
 40
1.0
 10
-1344.844367195
 20
563.8763122656
 30
0.0
 10
-1344.6835891989
 20
565.4143433871
 30
0.0
 10
-1344.0699926532
 20
568.472435265
 30
0.0
 10
-1342.3019304038
 20
572.806611239
 30
0.0
 10
-1339.7511204664
 20
576.7558526902
 30
0.0
 10
-1336.4996811897
 20
580.1820026695
 30
0.0
 10
-1332.6619237576
 20
582.9748865692
 30
0.0
 10
-1328.3622611971
 20
585.0401947304
 30
0.0
 10
-1323.7494116577
 20
586.302406928
 30
0.0
 10
-1320.5656072406
 20
586.5894227423
 30
0.0
 10
-1318.9774337378
 20
586.5894227423
 30
0.0
  0
SPLINE
  5
2C0
100
AcDbEntity
  8
0
100
AcDbSpline
 62
7
  6
CONTINUOUS
 70
0
 71
3
 72
15
 73
11
 74
0
 42
0.0000001
 43
0.0000001
 44
0.0000000001
 40
0.0
 40
0.0
 40
0.0
 40
0.0
 40
0.126639476
 40
0.2529730583
 40
0.3787683741
 40
0.5040424549
 40
0.6287899284
 40
0.7529784679
 40
0.8766812207
 40
1.0
 40
1.0
 40
1.0
 40
1.0
 10
-1316.2290152784
 20
537.1589064508
 30
0.0
 10
-1314.8813465063
 20
537.2987061636
 30
0.0
 10
-1312.2057043953
 20
537.7813938139
 30
0.0
 10
-1308.3596130399
 20
539.1053479143
 30
0.0
 10
-1304.7732096939
 20
540.995537671
 30
0.0
 10
-1301.5352071435
 20
543.4063308528
 30
0.0
 10
-1298.7207341229
 20
546.2766748684
 30
0.0
 10
-1296.4018087067
 20
549.5404303592
 30
0.0
 10
-1294.6336568803
 20
553.1145046572
 30
0.0
 10
-1293.8508710721
 20
555.6528702971
 30
0.0
 10
-1293.5646560515
 20
556.9408241735
 30
0.0
  0
SPLINE
  5
2C1
100
AcDbEntity
  8
0
100
AcDbSpline
 62
7
  6
CONTINUOUS
 70
0
 71
3
 72
9
 73
5
 74
0
 42
0.0000001
 43
0.0000001
 44
0.0000000001
 40
0.0
 40
0.0
 40
0.0
 40
0.0
 40
0.4910613558
 40
1.0
 40
1.0
 40
1.0
 40
1.0
 10
-2218.5220728395
 20
637.1007246914
 30
0.0
 10
-2218.3904691467
 20
637.5862323767
 30
0.0
 10
-2217.9925746794
 20
638.543315722
 30
0.0
 10
-2217.3675756425
 20
639.3713334505
 30
0.0
 10
-2217.0015016747
 20
639.742529229
 30
0.0
  0
SPLINE
  5
2C2
100
AcDbEntity
  8
0
100
AcDbSpline
 62
7
  6
CONTINUOUS
 70
0
 71
3
 72
9
 73
5
 74
0
 42
0.0000001
 43
0.0000001
 44
0.0000000001
 40
0.0
 40
0.0
 40
0.0
 40
0.0
 40
0.508838352
 40
1.0
 40
1.0
 40
1.0
 40
1.0
 10
-666.449849071
 20
242.7429158082
 30
0.0
 10
-664.5547804416
 20
245.7178981792
 30
0.0
 10
-661.1029759028
 20
251.7381697
 30
0.0
 10
-657.9540251988
 20
257.9135140104
 30
0.0
 10
-656.4082972113
 20
260.947176032
 30
0.0
  0
SPLINE
  5
2C3
100
AcDbEntity
  8
0
100
AcDbSpline
 62
7
  6
CONTINUOUS
 70
0
 71
3
 72
10
 73
6
 74
0
 42
0.0000001
 43
0.0000001
 44
0.0000000001
 40
0.0
 40
0.0
 40
0.0
 40
0.0
 40
0.6643540889
 40
0.8879556081
 40
1.0
 40
1.0
 40
1.0
 40
1.0
 10
-2208.9721676477
 20
641.5291222937
 30
0.0
 10
-2209.7946299269
 20
641.529975836
 30
0.0
 10
-2210.893915899
 20
641.5310069773
 30
0.0
 10
-2212.1318915214
 20
641.5291130904
 30
0.0
 10
-2212.547428888
 20
641.5291172425
 30
0.0
 10
-2212.6861292047
 20
641.5275065538
 30
0.0
  0
SPLINE
  5
2C4
100
AcDbEntity
  8
0
100
AcDbSpline
 62
7
  6
CONTINUOUS
 70
0
 71
3
 72
15
 73
11
 74
0
 42
0.0000001
 43
0.0000001
 44
0.0000000001
 40
0.0
 40
0.0
 40
0.0
 40
0.0
 40
0.1267825819
 40
0.2531967716
 40
0.3790273408
 40
0.5042980413
 40
0.6289773031
 40
0.7530761369
 40
0.8766951732
 40
1.0
 40
1.0
 40
1.0
 40
1.0
 10
-1321.7258588941
 20
536.2115498417
 30
0.0
 10
-1323.1859073492
 20
536.3630075784
 30
0.0
 10
-1326.0829765066
 20
536.9042511203
 30
0.0
 10
-1330.2221442007
 20
538.4191977566
 30
0.0
 10
-1334.0395474732
 20
540.5901777147
 30
0.0
 10
-1337.4233197406
 20
543.3575446634
 30
0.0
 10
-1340.2823502808
 20
546.6382317229
 30
0.0
 10
-1342.5277176324
 20
550.3442823838
 30
0.0
 10
-1344.1000711618
 20
554.3639032977
 30
0.0
 10
-1344.6660927867
 20
557.1836821914
 30
0.0
 10
-1344.8249576878
 20
558.6024332893
 30
0.0
  0
SPLINE
  5
2C5
100
AcDbEntity
  8
0
100
AcDbSpline
 62
7
  6
CONTINUOUS
 70
0
 71
3
 72
61
 73
57
 74
0
 42
0.0000001
 43
0.0000001
 44
0.0000000001
 40
0.0
 40
0.0
 40
0.0
 40
0.0
 40
0.0908942917
 40
0.1817791457
 40
0.27265544
 40
0.3635253376
 40
0.4543890259
 40
0.4999185054
 40
0.5464789653
 40
0.5938025461
 40
0.6412532706
 40
0.6881930681
 40
0.7339873146
 40
0.7779989649
 40
0.8195919802
 40
0.8583348795
 40
0.8768043887
 40
0.8947732504
 40
0.9123117816
 40
0.929442008
 40
0.945730879
 40
0.9533613549
 40
0.9605546725
 40
0.9672454031
 40
0.9733748673
 40
0.9788874226
 40
0.9837335041
 40
0.9878657824
 40
0.9896508466
 40
0.991241605
 40
0.9926331602
 40
0.9938228023
 40
0.9948085416
 40
0.9952234668
 40
0.9955852502
 40
0.9958930067
 40
0.9961464234
 40
0.9963468253
 40
0.9964950346
 40
0.9965881733
 40
0.9966129182
 40
0.9966261259
 40
0.996641279
 40
0.9966593344
 40
0.9966935205
 40
0.9967300687
 40
0.9968087758
 40
0.9968932572
 40
0.9969875115
 40
0.997197777
 40
0.9977073149
 40
0.9983012918
 40
0.9989495356
 40
0.999521074
 40
0.9998818641
 40
1.0
 40
1.0
 40
1.0
 40
1.0
 10
-1364.7264355212
 20
191.957932994
 30
0.0
 10
-1380.6593954096
 20
192.0496635975
 30
0.0
 10
-1412.5231710664
 20
192.3256212115
 30
0.0
 10
-1460.3139272882
 20
192.9606118761
 30
0.0
 10
-1508.0979371428
 20
193.7574139259
 30
0.0
 10
-1555.8761615451
 20
194.6682688484
 30
0.0
 10
-1595.7054610735
 20
195.4943569048
 30
0.0
 10
-1627.7686311032
 20
196.1880903157
 30
0.0
 10
-1652.200991224
 20
196.7293459203
 30
0.0
 10
-1676.9698038102
 20
197.2891093024
 30
0.0
 10
-1701.8048777612
 20
197.8599018075
 30
0.0
 10
-1726.3717531899
 20
198.4325704337
 30
0.0
 10
-1750.3357874732
 20
198.9978293884
 30
0.0
 10
-1773.3626961266
 20
199.5463586321
 30
0.0
 10
-1795.1537943116
 20
200.0697199265
 30
0.0
 10
-1812.4687317935
 20
200.4883758085
 30
0.0
 10
-1825.6436721656
 20
200.8083562384
 30
0.0
 10
-1835.1026999191
 20
201.0385093497
 30
0.0
 10
-1844.3270008184
 20
201.2640559718
 30
0.0
 10
-1853.2569418877
 20
201.4807491645
 30
0.0
 10
-1860.4509587797
 20
201.6387060739
 30
0.0
 10
-1865.9036752606
 20
201.7505753417
 30
0.0
 10
-1869.6743314138
 20
201.8238399552
 30
0.0
 10
-1873.1819955508
 20
201.8879256675
 30
0.0
 10
-1876.3951555764
 20
201.9424221799
 30
0.0
 10
-1879.2850783036
 20
201.9870071885
 30
0.0
 10
-1881.8250174344
 20
202.0214030308
 30
0.0
 10
-1883.7116678265
 20
202.0423699411
 30
0.0
 10
-1885.0277475415
 20
202.0533869187
 30
0.0
 10
-1885.8634253296
 20
202.0585361531
 30
0.0
 10
-1886.5947410189
 20
202.0609859759
 30
0.0
 10
-1887.2200062393
 20
202.0607405168
 30
0.0
 10
-1887.6740654115
 20
202.0582611483
 30
0.0
 10
-1887.982996864
 20
202.0546416639
 30
0.0
 10
-1888.1730586915
 20
202.0513998051
 30
0.0
 10
-1888.3348375459
 20
202.0475100759
 30
0.0
 10
-1888.4681628337
 20
202.0428876902
 30
0.0
 10
-1888.5738328628
 20
202.0378162374
 30
0.0
 10
-1888.6504624117
 20
202.0319397799
 30
0.0
 10
-1888.6979198921
 20
202.0269975551
 30
0.0
 10
-1888.7192484723
 20
202.0213692507
 30
0.0
 10
-1888.7289496153
 20
202.017048979
 30
0.0
 10
-1888.727174814
 20
202.0072865338
 30
0.0
 10
-1888.7195997962
 20
201.9985865923
 30
0.0
 10
-1888.7138657028
 20
201.9836595893
 30
0.0
 10
-1888.69809653
 20
201.9626766971
 30
0.0
 10
-1888.6751522585
 20
201.9362076053
 30
0.0
 10
-1888.6428244498
 20
201.9045779376
 30
0.0
 10
-1888.5884491396
 20
201.8632606437
 30
0.0
 10
-1888.4677422404
 20
201.7866837748
 30
0.0
 10
-1888.2561605205
 20
201.6934188189
 30
0.0
 10
-1887.9663283834
 20
201.5920039601
 30
0.0
 10
-1887.6608735351
 20
201.503272502
 30
0.0
 10
-1887.3929645297
 20
201.4325584684
 30
0.0
 10
-1887.2138808475
 20
201.3897453111
 30
0.0
 10
-1887.1326658198
 20
201.3683665039
 30
0.0
 10
-1887.1124321665
 20
201.3639572307
 30
0.0
  0
SPLINE
  5
2C6
100
AcDbEntity
  8
0
100
AcDbSpline
 62
7
  6
CONTINUOUS
 70
0
 71
3
 72
14
 73
10
 74
0
 42
0.0000001
 43
0.0000001
 44
0.0000000001
 40
0.0
 40
0.0
 40
0.0
 40
0.0
 40
0.0194099762
 40
0.0713203055
 40
0.1577031611
 40
0.2771624799
 40
0.4254855703
 40
0.5983514052
 40
1.0
 40
1.0
 40
1.0
 40
1.0
 10
-425.2347132514
 20
641.5254945524
 30
0.0
 10
-425.2524369807
 20
641.5275484504
 30
0.0
 10
-425.3182397334
 20
641.5253538855
 30
0.0
 10
-425.4629802677
 20
641.528816666
 30
0.0
 10
-425.7000402617
 20
641.527936992
 30
0.0
 10
-426.0255468891
 20
641.529063787
 30
0.0
 10
-426.4306264455
 20
641.5291328334
 30
0.0
 10
-427.095075453
 20
641.529451762
 30
0.0
 10
-427.6231933612
 20
641.5292612474
 30
0.0
 10
-427.9924029551
 20
641.5290513967
 30
0.0
  0
LINE
  5
2C7
100
AcDbEntity
  8
0
100
AcDbLine
 62
7
  6
CONTINUOUS
 10
-427.9924029551
 20
641.5290513967
 11
-428.4744944084
 21
641.5287145643
  0
LINE
  5
2C8
100
AcDbEntity
  8
0
100
AcDbLine
 62
7
  6
CONTINUOUS
 10
-428.4744944084
 20
641.5287145643
 11
-428.9833297024
 21
641.5282236898
  0
SPLINE
  5
2C9
100
AcDbEntity
  8
0
100
AcDbSpline
 62
7
  6
CONTINUOUS
 70
0
 71
3
 72
59
 73
55
 74
0
 42
0.0000001
 43
0.0000001
 44
0.0000000001
 40
0.0
 40
0.0
 40
0.0
 40
0.0
 40
0.0001184063
 40
0.0004787694
 40
0.0010498026
 40
0.0016993683
 40
0.0022924455
 40
0.0028030887
 40
0.003013514
 40
0.0031076222
 40
0.0031924738
 40
0.0032708245
 40
0.0033079475
 40
0.0033415072
 40
0.0033740615
 40
0.0034108277
 40
0.0035068174
 40
0.0036532298
 40
0.0038549099
 40
0.0041109623
 40
0.0044185743
 40
0.0047786059
 40
0.0051928541
 40
0.0061798766
 40
0.0073704852
 40
0.0087626329
 40
0.0103538949
 40
0.0121394254
 40
0.0162726165
 40
0.0211196821
 40
0.0266331992
 40
0.0327634745
 40
0.0394548732
 40
0.0466487739
 40
0.0542797537
 40
0.0705693257
 40
0.0876997355
 40
0.1052382117
 40
0.1232070459
 40
0.141676529
 40
0.1804195551
 40
0.2220126339
 40
0.2660241934
 40
0.3118175586
 40
0.3587581716
 40
0.4062077777
 40
0.4535298112
 40
0.5000893807
 40
0.5456180612
 40
0.6364803874
 40
0.7273486662
 40
0.8182234405
 40
0.9091067602
 40
1.0
 40
1.0
 40
1.0
 40
1.0
 10
-750.8424668606
 20
201.3639564607
 30
0.0
 10
-750.822136249
 20
201.3681368507
 30
0.0
 10
-750.7410598285
 20
201.3900461985
 30
0.0
 10
-750.561999212
 20
201.432392926
 30
0.0
 10
-750.2941239652
 20
201.5035485194
 30
0.0
 10
-749.9885423338
 20
201.5917638286
 30
0.0
 10
-749.6985756423
 20
201.6937114542
 30
0.0
 10
-749.4869210136
 20
201.7867313791
 30
0.0
 10
-749.3657908215
 20
201.8631988685
 30
0.0
 10
-749.3116452735
 20
201.9047701779
 30
0.0
 10
-749.2788022614
 20
201.9360874483
 30
0.0
 10
-749.2566914088
 20
201.9628422299
 30
0.0
 10
-749.2398092869
 20
201.9838516208
 30
0.0
 10
-749.2343096383
 20
201.999616754
 30
0.0
 10
-749.2206507944
 20
202.0195873164
 30
0.0
 10
-749.2593752965
 20
202.0269072959
 30
0.0
 10
-749.300814053
 20
202.0317713403
 30
0.0
 10
-749.3822010516
 20
202.0380261304
 30
0.0
 10
-749.4863915888
 20
202.0429008804
 30
0.0
 10
-749.6210892735
 20
202.0474938277
 30
0.0
 10
-749.7827456185
 20
202.0514024585
 30
0.0
 10
-749.9724407084
 20
202.0546909706
 30
0.0
 10
-750.2811357325
 20
202.058314111
 30
0.0
 10
-750.7354932712
 20
202.0607603794
 30
0.0
 10
-751.3612486329
 20
202.0610013155
 30
0.0
 10
-752.0929298656
 20
202.0585432146
 30
0.0
 10
-752.9288816468
 20
202.0533878702
 30
0.0
 10
-754.2452935189
 20
202.0423617075
 30
0.0
 10
-756.1323603982
 20
202.0213832023
 30
0.0
 10
-758.6728040508
 20
201.9869723268
 30
0.0
 10
-761.5632137862
 20
201.9423725798
 30
0.0
 10
-764.7768059003
 20
201.8878627638
 30
0.0
 10
-768.284836144
 20
201.8237649779
 30
0.0
 10
-772.0558049231
 20
201.7504888863
 30
0.0
 10
-777.5088420315
 20
201.6386056245
 30
0.0
 10
-784.7031118002
 20
201.4806339241
 30
0.0
 10
-793.6332100964
 20
201.2639268396
 30
0.0
 10
-802.8575412513
 20
201.0383813789
 30
0.0
 10
-812.3165627839
 20
200.8082272081
 30
0.0
 10
-825.4915338766
 20
200.4882455908
 30
0.0
 10
-842.8065236416
 20
200.0695875113
 30
0.0
 10
-864.5976688805
 20
199.5462247633
 30
0.0
 10
-887.624449609
 20
198.9976990363
 30
0.0
 10
-911.5884890266
 20
198.4324401141
 30
0.0
 10
-936.1551903928
 20
197.8597787294
 30
0.0
 10
-960.9899738978
 20
197.288994788
 30
0.0
 10
-985.7581969827
 20
196.729246771
 30
0.0
 10
-1010.1900231508
 20
196.1880063995
 30
0.0
 10
-1042.2527020689
 20
195.4942885743
 30
0.0
 10
-1082.0813933459
 20
194.6682166851
 30
0.0
 10
-1129.8588942286
 20
193.7573973929
 30
0.0
 10
-1177.6421488491
 20
192.9605488868
 30
0.0
 10
-1225.432250127
 20
192.3255264531
 30
0.0
 10
-1257.29561706
 20
192.049730724
 30
0.0
 10
-1273.2284142232
 20
191.9580029776
 30
0.0
  0
SPLINE
  5
2CA
100
AcDbEntity
  8
0
100
AcDbSpline
 62
7
  6
CONTINUOUS
 70
0
 71
3
 72
9
 73
5
 74
0
 42
0.0000001
 43
0.0000001
 44
0.0000000001
 40
0.0
 40
0.0
 40
0.0
 40
0.0
 40
0.4893762117
 40
1.0
 40
1.0
 40
1.0
 40
1.0
 10
-419.4414981114
 20
637.1318864373
 30
0.0
 10
-419.5738202496
 20
637.6092239865
 30
0.0
 10
-419.9705031568
 20
638.5529412361
 30
0.0
 10
-420.5879601984
 20
639.3710092032
 30
0.0
 10
-420.9508955123
 20
639.7389857171
 30
0.0
  0
SPLINE
  5
2CB
100
AcDbEntity
  8
0
100
AcDbSpline
 62
7
  6
CONTINUOUS
 70
0
 71
3
 72
15
 73
11
 74
0
 42
0.0000001
 43
0.0000001
 44
0.0000000001
 40
0.0
 40
0.0
 40
0.0
 40
0.0
 40
0.1232987839
 40
0.2469077726
 40
0.3709971179
 40
0.4956725661
 40
0.620944753
 40
0.7467828323
 40
0.8732075739
 40
1.0
 40
1.0
 40
1.0
 40
1.0
 10
-1293.1098612725
 20
558.7881359876
 30
0.0
 10
-1293.2586790194
 20
557.3610519532
 30
0.0
 10
-1293.8073055274
 20
554.5229124604
 30
0.0
 10
-1295.3625135498
 20
550.4731398332
 30
0.0
 10
-1297.5995766461
 20
546.7363498223
 30
0.0
 10
-1300.458924606
 20
543.4264593837
 30
0.0
 10
-1303.8505655916
 20
540.6331175868
 30
0.0
 10
-1307.6823322886
 20
538.441235507
 30
0.0
 10
-1311.8405775621
 20
536.9115366557
 30
0.0
 10
-1314.7523943653
 20
536.3652502194
 30
0.0
 10
-1316.2199443056
 20
536.2125019198
 30
0.0
  0
SPLINE
  5
2CC
100
AcDbEntity
  8
0
100
AcDbSpline
 62
7
  6
CONTINUOUS
 70
0
 71
3
 72
75
 73
71
 74
0
 42
0.0000001
 43
0.0000001
 44
0.0000000001
 40
0.0
 40
0.0
 40
0.0
 40
0.0
 40
0.0029529867
 40
0.0037936973
 40
0.0046745025
 40
0.0051309762
 40
0.005597159
 40
0.0061255246
 40
0.0067394852
 40
0.0074357974
 40
0.0082151347
 40
0.0100202733
 40
0.0121494647
 40
0.0145958513
 40
0.0173499841
 40
0.0204011371
 40
0.0273420711
 40
0.0352975086
 40
0.0441237283
 40
0.0536582274
 40
0.0637245908
 40
0.074137194
 40
0.0847064178
 40
0.0952273139
 40
0.1002716697
 40
0.1052539536
 40
0.1150128703
 40
0.1244694479
 40
0.1424628764
 40
0.1763076412
 40
0.2083834525
 40
0.2398453329
 40
0.3044445915
 40
0.3696380487
 40
0.434831815
 40
0.5000257416
 40
0.5652196037
 40
0.6304135422
 40
0.6956068795
 40
0.7602041941
 40
0.7916664065
 40
0.8237439791
 40
0.8575932063
 40
0.8755908219
 40
0.8850494197
 40
0.8948104258
 40
0.8997935872
 40
0.9048391682
 40
0.9153628992
 40
0.9259316129
 40
0.9363422649
 40
0.946405259
 40
0.9559350028
 40
0.9647552199
 40
0.9727034997
 40
0.9796362271
 40
0.9826830954
 40
0.9854328096
 40
0.9878741608
 40
0.9899987881
 40
0.9917988694
 40
0.9925758868
 40
0.9932701216
 40
0.9938815624
 40
0.9944066874
 40
0.9948731525
 40
0.9953288212
 40
0.9962089669
 40
0.9970492444
 40
1.0
 40
1.0
 40
1.0
 40
1.0
 10
-1972.8521974067
 20
261.3868394246
 30
0.0
 10
-1971.566520487
 20
261.4548580148
 30
0.0
 10
-1969.914948863
 20
261.5448345255
 30
0.0
 10
-1967.8800311813
 20
261.6575397925
 30
0.0
 10
-1966.932042759
 20
261.7127278507
 30
0.0
 10
-1966.1469336639
 20
261.7555322541
 30
0.0
 10
-1965.5155206182
 20
261.7960868074
 30
0.0
 10
-1964.8142964506
 20
261.8120977339
 30
0.0
 10
-1964.0129372132
 20
261.8315204632
 30
0.0
 10
-1963.1020037755
 20
261.8472836873
 30
0.0
 10
-1961.6717249747
 20
261.8651551554
 30
0.0
 10
-1959.6166620819
 20
261.8817226391
 30
0.0
 10
-1956.8347347704
 20
261.8902199086
 30
0.0
 10
-1953.6390436805
 20
261.8889394161
 30
0.0
 10
-1950.0414054977
 20
261.8773466466
 30
0.0
 10
-1944.4842527972
 20
261.8465600163
 30
0.0
 10
-1936.6595655281
 20
261.7798223837
 30
0.0
 10
-1926.3173971905
 20
261.6618809807
 30
0.0
 10
-1914.8448743336
 20
261.5039029244
 30
0.0
 10
-1902.4524671651
 20
261.3081678663
 30
0.0
 10
-1889.3688970025
 20
261.0777040979
 30
0.0
 10
-1875.8346715029
 20
260.8172136283
 30
0.0
 10
-1862.1027889102
 20
260.5294827722
 30
0.0
 10
-1850.7111357559
 20
260.2791165337
 30
0.0
 10
-1841.7553326081
 20
260.0577427934
 30
0.0
 10
-1833.1314766583
 20
259.8515863781
 30
0.0
 10
-1822.5844394856
 20
259.601228389
 30
0.0
 10
-1806.366065055
 20
259.2245846228
 30
0.0
 10
-1779.6489979741
 20
258.6178867529
 30
0.0
 10
-1743.0724285465
 20
257.7991124303
 30
0.0
 10
-1700.6245614696
 20
256.8781712039
 30
0.0
 10
-1644.7702487016
 20
255.7098795706
 30
0.0
 10
-1574.4779752468
 20
254.3418899219
 30
0.0
 10
-1489.476841408
 20
252.9510703944
 30
0.0
 10
-1404.2102991606
 20
251.9779785801
 30
0.0
 10
-1318.9383603797
 20
251.6198394585
 30
0.0
 10
-1233.6663466596
 20
251.9780963962
 30
0.0
 10
-1148.3998130154
 20
252.9515284531
 30
0.0
 10
-1063.3995134644
 20
254.3429485355
 30
0.0
 10
-993.1080088318
 20
255.7116344676
 30
0.0
 10
-937.2536384935
 20
256.8802821563
 30
0.0
 10
-894.8029150854
 20
257.8013391139
 30
0.0
 10
-858.2218028676
 20
258.6199938889
 30
0.0
 10
-831.5000816314
 20
259.2266425282
 30
0.0
 10
-815.2780861396
 20
259.6031663116
 30
0.0
 10
-804.7288757381
 20
259.8535964988
 30
0.0
 10
-796.1031879185
 20
260.0596015376
 30
0.0
 10
-787.1452352279
 20
260.2811409014
 30
0.0
 10
-775.7520111932
 20
260.5305084053
 30
0.0
 10
-762.0199509773
 20
260.8175211596
 30
0.0
 10
-748.4882465732
 20
261.0769075517
 30
0.0
 10
-735.4090498576
 20
261.3062179821
 30
0.0
 10
-723.0227839223
 20
261.5007588737
 30
0.0
 10
-711.5580572426
 20
261.657599379
 30
0.0
 10
-701.2251938581
 20
261.7745301314
 30
0.0
 10
-693.409068011
 20
261.8405864224
 30
0.0
 10
-687.8592855373
 20
261.8709299925
 30
0.0
 10
-684.2676369813
 20
261.8823466601
 30
0.0
 10
-681.0780570386
 20
261.8834828234
 30
0.0
 10
-678.3025219181
 20
261.8747169084
 30
0.0
 10
-676.2526617038
 20
261.8586047338
 30
0.0
 10
-674.826509455
 20
261.8402492277
 30
0.0
 10
-673.918592765
 20
261.8248470268
 30
0.0
 10
-673.1206092055
 20
261.8066614529
 30
0.0
 10
-672.4218839377
 20
261.7875978001
 30
0.0
 10
-671.7919959108
 20
261.7494262279
 30
0.0
 10
-671.0074355485
 20
261.7059606488
 30
0.0
 10
-670.0602792616
 20
261.6507454807
 30
0.0
 10
-668.0266845004
 20
261.5403406361
 30
0.0
 10
-666.3762728042
 20
261.4504383623
 30
0.0
 10
-665.0915124732
 20
261.3835151638
 30
0.0
  0
LINE
  5
2CD
100
AcDbEntity
  8
0
100
AcDbLine
 62
7
  6
CONTINUOUS
 10
897.3227013847
 20
258.9027049709
 11
897.2793357517
 21
258.7213116316
  0
LINE
  5
2CE
100
AcDbEntity
  8
0
100
AcDbLine
 62
7
  6
CONTINUOUS
 10
896.952192053
 20
257.3808106278
 11
896.9245008176
 21
257.2671539977
  0
SPLINE
  5
2CF
100
AcDbEntity
  8
0
100
AcDbSpline
 62
7
  6
CONTINUOUS
 70
0
 71
3
 72
8
 73
4
 74
0
 42
0.0000001
 43
0.0000001
 44
0.0000000001
 40
0.0
 40
0.0
 40
0.0
 40
0.0
 40
1.0
 40
1.0
 40
1.0
 40
1.0
 10
897.3495606657
 20
259.0103030142
 30
0.0
 10
897.3405362526
 20
258.9744548783
 30
0.0
 10
897.331429764
 20
258.9386263332
 30
0.0
 10
897.3227013847
 20
258.9027049709
 30
0.0
  0
LINE
  5
2D0
100
AcDbEntity
  8
0
100
AcDbLine
 62
7
  6
CONTINUOUS
 10
338.039712678
 20
257.2671363265
 11
338.0130554614
 21
257.376545777
  0
SPLINE
  5
2D1
100
AcDbEntity
  8
0
100
AcDbSpline
 62
7
  6
CONTINUOUS
 70
0
 71
3
 72
8
 73
4
 74
0
 42
0.0000001
 43
0.0000001
 44
0.0000000001
 40
0.0
 40
0.0
 40
0.0
 40
0.0
 40
1.0
 40
1.0
 40
1.0
 40
1.0
 10
337.6402122428
 20
258.9080446633
 30
0.0
 10
337.6318772201
 20
258.9422298357
 30
0.0
 10
337.623205895
 20
258.9763322113
 30
0.0
 10
337.6146160938
 20
259.010454256
 30
0.0
  0
SPLINE
  5
2D2
100
AcDbEntity
  8
0
100
AcDbSpline
 62
7
  6
CONTINUOUS
 70
0
 71
3
 72
75
 73
71
 74
0
 42
0.0000001
 43
0.0000001
 44
0.0000000001
 40
0.0
 40
0.0
 40
0.0
 40
0.0
 40
0.0000124502
 40
0.0000496319
 40
0.0001112546
 40
0.0001970281
 40
0.0003066621
 40
0.0004398663
 40
0.000775824
 40
0.0012021273
 40
0.0017141994
 40
0.0023070143
 40
0.0029755456
 40
0.0045192736
 40
0.0063039658
 40
0.0082913375
 40
0.0104476676
 40
0.0127442902
 40
0.0151573957
 40
0.020259323
 40
0.0229736554
 40
0.0258018413
 40
0.0286934505
 40
0.0315964331
 40
0.0344581245
 40
0.0372254803
 40
0.0385572344
 40
0.0398455932
 40
0.0410887214
 40
0.0422937475
 40
0.0428831292
 40
0.0434642978
 40
0.0440376307
 40
0.0443215665
 40
0.0446037517
 40
0.0448840786
 40
0.0450237208
 40
0.0451632212
 40
0.0452994104
 40
0.0455068594
 40
0.045853293
 40
0.0463483917
 40
0.0469939109
 40
0.0477901267
 40
0.0487366041
 40
0.0498321636
 40
0.052464347
 40
0.0556731352
 40
0.0594435736
 40
0.0637587428
 40
0.0739531188
 40
0.0861116094
 40
0.1000739362
 40
0.1156730613
 40
0.1327308621
 40
0.1510627271
 40
0.1704693347
 40
0.1907448445
 40
0.2116708728
 40
0.254574718
 40
0.2981489468
 40
0.3425107355
 40
0.3878637996
 40
0.4344121716
 40
0.4823574849
 40
0.5319022231
 40
0.6412854706
 40
0.7618357265
 40
0.8826931435
 40
1.0
 40
1.0
 40
1.0
 40
1.0
 10
821.3228713206
 20
191.8243328009
 30
0.0
 10
821.3219760211
 20
191.8242979609
 30
0.0
 10
821.3253822162
 20
191.8299966046
 30
0.0
 10
821.3245910859
 20
191.8356843328
 30
0.0
 10
821.3289221775
 20
191.8498527359
 30
0.0
 10
821.332333304
 20
191.867374544
 30
0.0
 10
821.3377484481
 20
191.8906533342
 30
0.0
 10
821.3467582366
 20
191.9311988577
 30
0.0
 10
821.3609752711
 20
191.9941316304
 30
0.0
 10
821.381116684
 20
192.0835656754
 30
0.0
 10
821.4054332905
 20
192.1910527301
 30
0.0
 10
821.4336643546
 20
192.3155106798
 30
0.0
 10
821.4784715795
 20
192.5123430017
 30
0.0
 10
821.5426596157
 20
192.7927281883
 30
0.0
 10
821.6285922211
 20
193.165501507
 30
0.0
 10
821.7250241385
 20
193.5810955013
 30
0.0
 10
821.8303924539
 20
194.0324353125
 30
0.0
 10
821.9432884482
 20
194.5134789551
 30
0.0
 10
822.1053349746
 20
195.2007256627
 30
0.0
 10
822.2752455527
 20
195.9170023556
 30
0.0
 10
822.4527647284
 20
196.6621735421
 30
0.0
 10
822.5937550207
 20
197.2525306149
 30
0.0
 10
822.7381821135
 20
197.856024759
 30
0.0
 10
822.8834026976
 20
198.4618082635
 30
0.0
 10
823.0267344077
 20
199.0588493256
 30
0.0
 10
823.1437781484
 20
199.5459155978
 30
0.0
 10
823.2344413152
 20
199.922873555
 30
0.0
 10
823.2994267771
 20
200.1931888014
 30
0.0
 10
823.3624740053
 20
200.454590079
 30
0.0
 10
823.4134187893
 20
200.6671664011
 30
0.0
 10
823.4525861699
 20
200.8335775267
 30
0.0
 10
823.4808637144
 20
200.9558475128
 30
0.0
 10
823.5035276653
 20
201.0568577282
 30
0.0
 10
823.5211857599
 20
201.1369257162
 30
0.0
 10
823.5340645618
 20
201.1964896008
 30
0.0
 10
823.5446725794
 20
201.2458118812
 30
0.0
 10
823.5522878567
 20
201.2855210882
 30
0.0
 10
823.5604963069
 20
201.3138300699
 30
0.0
 10
823.560018838
 20
201.3516407836
 30
0.0
 10
823.5122157418
 20
201.3798663094
 30
0.0
 10
823.4442154791
 20
201.406119935
 30
0.0
 10
823.3392035348
 20
201.4331059414
 30
0.0
 10
823.2029002985
 20
201.4598798325
 30
0.0
 10
823.0328829431
 20
201.4864910765
 30
0.0
 10
822.8303715926
 20
201.5127314062
 30
0.0
 10
822.4959600591
 20
201.5494642478
 30
0.0
 10
821.9986099421
 20
201.5926539319
 30
0.0
 10
821.3085386547
 20
201.6402025082
 30
0.0
 10
820.4970011878
 20
201.6857299799
 30
0.0
 10
819.182902184
 20
201.7470230503
 30
0.0
 10
817.2648924902
 20
201.8148739237
 30
0.0
 10
814.6523538435
 20
201.8831970618
 30
0.0
 10
811.6505335315
 20
201.9412798269
 30
0.0
 10
808.2959147893
 20
201.988548309
 30
0.0
 10
804.6266891235
 20
202.0245425477
 30
0.0
 10
800.6833597645
 20
202.0488506454
 30
0.0
 10
796.5084129204
 20
202.0612379282
 30
0.0
 10
792.1467619107
 20
202.061241263
 30
0.0
 10
786.0941523644
 20
202.0457968473
 30
0.0
 10
778.3650392631
 20
201.9886456775
 30
0.0
 10
768.9494308468
 20
201.922114368
 30
0.0
 10
759.3575399208
 20
201.8573353542
 30
0.0
 10
749.5516003277
 20
201.7945550357
 30
0.0
 10
739.4877548156
 20
201.7338658409
 30
0.0
 10
729.122237962
 20
201.6755438605
 30
0.0
 10
714.2348650136
 20
201.5982802181
 30
0.0
 10
694.1224944679
 20
201.5088577961
 30
0.0
 10
668.87806305
 20
201.4261098331
 30
0.0
 10
643.063325832
 20
201.3751179425
 30
0.0
 10
625.9239053736
 20
201.3639462985
 30
0.0
 10
617.4819536869
 20
201.363956951
 30
0.0
  0
SPLINE
  5
2D3
100
AcDbEntity
  8
0
100
AcDbSpline
 62
7
  6
CONTINUOUS
 70
0
 71
3
 72
31
 73
27
 74
0
 42
0.0000001
 43
0.0000001
 44
0.0000000001
 40
0.0
 40
0.0
 40
0.0
 40
0.0
 40
0.123839921
 40
0.244325017
 40
0.3737770182
 40
0.4450893758
 40
0.5197759643
 40
0.5581637595
 40
0.5971278662
 40
0.6167915985
 40
0.6365733663
 40
0.6465514251
 40
0.6567477538
 40
0.6669507227
 40
0.6771108828
 40
0.7172783864
 40
0.7563222423
 40
0.8291893787
 40
0.8923268099
 40
0.9193545895
 40
0.9429759329
 40
0.9629733162
 40
0.9791938127
 40
0.9915437838
 40
0.9962569297
 40
1.0
 40
1.0
 40
1.0
 40
1.0
 10
617.4820261958
 20
260.9471760261
 30
0.0
 10
628.9567991393
 20
260.9475780794
 30
0.0
 10
651.5954966796
 20
260.9648999947
 30
0.0
 10
686.2288900323
 20
261.0455469396
 30
0.0
 10
715.995010368
 20
261.1724155394
 30
0.0
 10
741.5173390911
 20
261.3222805386
 30
0.0
 10
758.6018370269
 20
261.4441844741
 30
0.0
 10
772.6889626227
 20
261.5598198445
 30
0.0
 10
781.6778903465
 20
261.6400589204
 30
0.0
 10
788.9428378022
 20
261.7103606967
 30
0.0
 10
793.5221062413
 20
261.7553705577
 30
0.0
 10
797.2241662976
 20
261.7948925087
 30
0.0
 10
800.0388481483
 20
261.808891755
 30
0.0
 10
802.8703884111
 20
261.8237729211
 30
0.0
 10
808.4789687704
 20
261.8527440016
 30
0.0
 10
816.759929316
 20
261.8800203161
 30
0.0
 10
830.8512321073
 20
261.8979295865
 30
0.0
 10
847.0709129953
 20
261.8581626788
 30
0.0
 10
862.1767850168
 20
261.7265520542
 30
0.0
 10
872.7187281231
 20
261.5573386717
 30
0.0
 10
879.2631344825
 20
261.4124251342
 30
0.0
 10
884.8053231036
 20
261.2453779421
 30
0.0
 10
889.301671552
 20
261.0580008635
 30
0.0
 10
892.3808183841
 20
260.8777938759
 30
0.0
 10
894.3018724896
 20
260.7149663993
 30
0.0
 10
895.0809408416
 20
260.6297724309
 30
0.0
 10
895.4247614452
 20
260.5842143218
 30
0.0
  0
SPLINE
  5
2D4
100
AcDbEntity
  8
0
100
AcDbSpline
 62
7
  6
CONTINUOUS
 70
0
 71
3
 72
20
 73
16
 74
0
 42
0.0000001
 43
0.0000001
 44
0.0000000001
 40
0.0
 40
0.0
 40
0.0
 40
0.0
 40
0.2248045713
 40
0.3142471811
 40
0.3884805303
 40
0.448249116
 40
0.493904042
 40
0.5261636885
 40
0.5531832939
 40
0.6041134073
 40
0.6511288318
 40
0.7348755101
 40
0.8737692003
 40
0.9371767636
 40
1.0
 40
1.0
 40
1.0
 40
1.0
 10
895.4247614452
 20
260.5842143218
 30
0.0
 10
895.6410940645
 20
260.5555490673
 30
0.0
 10
895.9430989071
 20
260.5113305169
 30
0.0
 10
896.3133705139
 20
260.4397709719
 30
0.0
 10
896.5247072759
 20
260.3901385026
 30
0.0
 10
896.6914331323
 20
260.3391971429
 30
0.0
 10
896.8168809183
 20
260.2913376856
 30
0.0
 10
896.9023795964
 20
260.2343903035
 30
0.0
 10
896.9787681602
 20
260.1592684367
 30
0.0
 10
897.0648928094
 20
260.0738567522
 30
0.0
 10
897.1793891561
 20
259.9393427142
 30
0.0
 10
897.3259160601
 20
259.7218234169
 30
0.0
 10
897.4137290715
 20
259.4470799354
 30
0.0
 10
897.3960354585
 20
259.1880900674
 30
0.0
 10
897.3644483194
 20
259.0694419995
 30
0.0
 10
897.3495606657
 20
259.0103030142
 30
0.0
  0
SPLINE
  5
2D5
100
AcDbEntity
  8
0
100
AcDbSpline
 62
7
  6
CONTINUOUS
 70
0
 71
3
 72
55
 73
51
 74
0
 42
0.0000001
 43
0.0000001
 44
0.0000000001
 40
0.0
 40
0.0
 40
0.0
 40
0.0
 40
0.0910894618
 40
0.1834647994
 40
0.2783823715
 40
0.3711095322
 40
0.4566486335
 40
0.5337845256
 40
0.6071296905
 40
0.6775068832
 40
0.711817161
 40
0.7456666315
 40
0.7791436974
 40
0.8119885329
 40
0.8434012784
 40
0.8725837132
 40
0.8987941367
 40
0.9213518013
 40
0.9310625256
 40
0.939627423
 40
0.9469772188
 40
0.9501762118
 40
0.9530472152
 40
0.955582477
 40
0.9577751094
 40
0.9596186157
 40
0.9611071058
 40
0.9622363575
 40
0.9626661038
 40
0.9630062405
 40
0.9632582803
 40
0.9634274504
 40
0.963538648
 40
0.963645428
 40
0.9638624402
 40
0.9640798286
 40
0.9642983727
 40
0.9645179734
 40
0.9649603297
 40
0.9654071347
 40
0.9663151159
 40
0.9672433799
 40
0.9691676163
 40
0.9711978617
 40
0.9755122271
 40
0.980002856
 40
0.9844755917
 40
0.9887407298
 40
0.9927317822
 40
1.0
 40
1.0
 40
1.0
 40
1.0
 10
617.4819536866
 20
201.3639526071
 30
0.0
 10
610.9863159296
 20
201.3639602204
 30
0.0
 10
597.9033429804
 20
201.3705445914
 30
0.0
 10
578.0517682056
 20
201.400624937
 30
0.0
 10
558.0834492804
 20
201.4512171327
 30
0.0
 10
538.6026831319
 20
201.5197863966
 30
0.0
 10
520.3899954788
 20
201.600146733
 30
0.0
 10
503.5594969782
 20
201.6872446817
 30
0.0
 10
487.8102459072
 20
201.7792322282
 30
0.0
 10
475.1149043129
 20
201.86057456
 30
0.0
 10
465.2359934787
 20
201.9282869725
 30
0.0
 10
457.988392444
 20
201.9784173122
 30
0.0
 10
450.8453342825
 20
202.0345361189
 30
0.0
 10
443.875860639
 20
202.0627910233
 30
0.0
 10
437.212584207
 20
202.0620945397
 30
0.0
 10
431.0224708505
 20
202.0332731125
 30
0.0
 10
425.464032733
 20
201.9772206813
 30
0.0
 10
421.2944194192
 20
201.9064685405
 30
0.0
 10
418.3834633487
 20
201.8339145382
 30
0.0
 10
416.5569955148
 20
201.7762959227
 30
0.0
 10
415.1950594534
 20
201.7215351783
 30
0.0
 10
414.239273715
 20
201.6737273186
 30
0.0
 10
413.626648387
 20
201.6382443915
 30
0.0
 10
413.0859962067
 20
201.6015354767
 30
0.0
 10
412.6189132802
 20
201.5636698462
 30
0.0
 10
412.2268003298
 20
201.5248717694
 30
0.0
 10
411.9111960092
 20
201.4851321894
 30
0.0
 10
411.6965393391
 20
201.449444325
 30
0.0
 10
411.5648051652
 20
201.4185370976
 30
0.0
 10
411.4945662645
 20
201.3976886806
 30
0.0
 10
411.4452525087
 20
201.3763176575
 30
0.0
 10
411.4113070984
 20
201.3558907223
 30
0.0
 10
411.401232468
 20
201.3280010395
 30
0.0
 10
411.409009054
 20
201.2973720165
 30
0.0
 10
411.4168086081
 20
201.2598566327
 30
0.0
 10
411.4262443958
 20
201.2141700788
 30
0.0
 10
411.4361087139
 20
201.1685001955
 30
0.0
 10
411.4494993368
 20
201.1071477208
 30
0.0
 10
411.4666159132
 20
201.0299598941
 30
0.0
 10
411.49490974
 20
200.9049650022
 30
0.0
 10
411.5319650178
 20
200.7464317495
 30
0.0
 10
411.5941145515
 20
200.4855707102
 30
0.0
 10
411.675877176
 20
200.1471151472
 30
0.0
 10
411.8136438503
 20
199.5737789851
 30
0.0
 10
411.9942450872
 20
198.8225153618
 30
0.0
 10
412.215066604
 20
197.9017832323
 30
0.0
 10
412.4345626706
 20
196.9843433433
 30
0.0
 10
412.645072925
 20
196.1013842273
 30
0.0
 10
412.9007308362
 20
195.0242551747
 30
0.0
 10
413.0847311429
 20
194.242716617
 30
0.0
 10
413.2024620153
 20
193.7379643905
 30
0.0
  0
SPLINE
  5
2D6
100
AcDbEntity
  8
0
100
AcDbSpline
 62
7
  6
CONTINUOUS
 70
0
 71
3
 72
20
 73
16
 74
0
 42
0.0000001
 43
0.0000001
 44
0.0000000001
 40
0.0
 40
0.0
 40
0.0
 40
0.0
 40
0.0319943916
 40
0.0650100022
 40
0.1014353211
 40
0.1439857329
 40
0.1683882831
 40
0.1815153064
 40
0.1952758098
 40
0.2385783879
 40
0.3165012973
 40
0.431178594
 40
0.5830992977
 40
0.7726460857
 40
1.0
 40
1.0
 40
1.0
 40
1.0
 10
337.5993650954
 20
259.0718120762
 30
0.0
 10
337.58220174
 20
259.1422037712
 30
0.0
 10
337.5516891981
 20
259.2875119604
 30
0.0
 10
337.572719208
 20
259.5197181587
 30
0.0
 10
337.6624898632
 20
259.759691618
 30
0.0
 10
337.794988107
 20
259.9548025888
 30
0.0
 10
337.9150883537
 20
260.0910524096
 30
0.0
 10
337.9983233018
 20
260.1718372571
 30
0.0
 10
338.1115643018
 20
260.2849167017
 30
0.0
 10
338.4099514272
 20
260.3886286739
 30
0.0
 10
338.9276962243
 20
260.4993614054
 30
0.0
 10
339.7027808543
 20
260.6107856445
 30
0.0
 10
340.7288986884
 20
260.7212655188
 30
0.0
 10
342.0130012995
 20
260.829113746
 30
0.0
 10
342.954866873
 20
260.8929736625
 30
0.0
 10
343.4687308977
 20
260.9250086023
 30
0.0
  0
SPLINE
  5
2D7
100
AcDbEntity
  8
0
100
AcDbSpline
 62
7
  6
CONTINUOUS
 70
0
 71
3
 72
24
 73
20
 74
0
 42
0.0000001
 43
0.0000001
 44
0.0000000001
 40
0.0
 40
0.0
 40
0.0
 40
0.0
 40
0.0145067642
 40
0.0324880312
 40
0.0783601892
 40
0.1361149813
 40
0.2035491262
 40
0.2778991753
 40
0.355609567
 40
0.3746432855
 40
0.3935603
 40
0.4310599379
 40
0.4680370057
 40
0.5044130963
 40
0.5750620901
 40
0.6423716355
 40
0.7648162231
 40
0.8807028092
 40
1.0
 40
1.0
 40
1.0
 40
1.0
 10
344.2691686301
 20
260.9727243376
 30
0.0
 10
345.5882393008
 20
261.0479899575
 30
0.0
 10
348.5441427848
 20
261.184096
 30
0.0
 10
355.6768883477
 20
261.4248033759
 30
0.0
 10
366.7505872782
 20
261.6498797038
 30
0.0
 10
382.3292581146
 20
261.8212499029
 30
0.0
 10
400.5024147889
 20
261.9000034597
 30
0.0
 10
420.4930840712
 20
261.8825906979
 30
0.0
 10
436.0756237596
 20
261.8137175901
 30
0.0
 10
446.6089943097
 20
261.7036739953
 30
0.0
 10
453.480395181
 20
261.6386917649
 30
0.0
 10
461.9859660917
 20
261.562102437
 30
0.0
 10
472.0816402935
 20
261.4789982492
 30
0.0
 10
485.196387213
 20
261.3797143721
 30
0.0
 10
501.0737242459
 20
261.2748338914
 30
0.0
 10
524.7898159388
 20
261.145183372
 30
0.0
 10
552.6261086724
 20
261.034053461
 30
0.0
 10
585.1973594225
 20
260.9627651791
 30
0.0
 10
606.6169301364
 20
260.94699994
 30
0.0
 10
617.4820261164
 20
260.9465925618
 30
0.0
  0
SPLINE
  5
2D8
100
AcDbEntity
  8
0
100
AcDbSpline
 62
7
  6
CONTINUOUS
 70
0
 71
3
 72
11
 73
7
 74
0
 42
0.0000001
 43
0.0000001
 44
0.0000000001
 40
0.0
 40
0.0
 40
0.0
 40
0.0
 40
0.2500042559
 40
0.5000018191
 40
0.7500058176
 40
1.0
 40
1.0
 40
1.0
 40
1.0
 10
617.4837010638
 20
634.8233177827
 30
0.0
 10
582.8996115895
 20
634.8077859354
 30
0.0
 10
513.732424918
 20
634.9916071767
 30
0.0
 10
409.9816438361
 20
635.308944891
 30
0.0
 10
306.2318073648
 20
635.4718773136
 30
0.0
 10
237.0651195099
 20
635.5659018145
 30
0.0
 10
202.4824819739
 20
635.631348153
 30
0.0
  0
SPLINE
  5
2D9
100
AcDbEntity
  8
0
100
AcDbSpline
 62
7
  6
CONTINUOUS
 70
0
 71
3
 72
11
 73
7
 74
0
 42
0.0000001
 43
0.0000001
 44
0.0000000001
 40
0.0
 40
0.0
 40
0.0
 40
0.0
 40
0.2499941702
 40
0.4999981812
 40
0.7499957442
 40
1.0
 40
1.0
 40
1.0
 40
1.0
 10
1032.4824819739
 20
635.6303384542
 30
0.0
 10
997.9000492894
 20
635.5649838513
 30
0.0
 10
928.7337678487
 20
635.4711297329
 30
0.0
 10
824.9845410245
 20
635.3084416608
 30
0.0
 10
721.2343675032
 20
634.9913651325
 30
0.0
 10
652.0675871485
 20
634.8077067568
 30
0.0
 10
617.4837010637
 20
634.8233177827
 30
0.0
  0
SPLINE
  5
2DA
100
AcDbEntity
  8
0
100
AcDbSpline
 62
7
  6
CONTINUOUS
 70
0
 71
3
 72
14
 73
10
 74
0
 42
0.0000001
 43
0.0000001
 44
0.0000000001
 40
0.0
 40
0.0
 40
0.0
 40
0.0
 40
0.0763203573
 40
0.1598376134
 40
0.2559365967
 40
0.3680229793
 40
0.4980258457
 40
0.6466905856
 40
1.0
 40
1.0
 40
1.0
 40
1.0
 10
-1292.9774349011
 20
-1016.7461895179
 30
0.0
 10
-1292.977453342
 20
-1016.907656058
 30
0.0
 10
-1293.0365952506
 20
-1017.2477249157
 30
0.0
 10
-1293.288170776
 20
-1017.734088852
 30
0.0
 10
-1293.6920681777
 20
-1018.2059858906
 30
0.0
 10
-1294.2442385628
 20
-1018.6648184244
 30
0.0
 10
-1294.9424708498
 20
-1019.1104303425
 30
0.0
 10
-1296.1333455903
 20
-1019.7212210048
 30
0.0
 10
-1297.1304135745
 20
-1020.0972518191
 30
0.0
 10
-1297.8401079311
 20
-1020.3318889003
 30
0.0
  0
SPLINE
  5
2DB
100
AcDbEntity
  8
0
100
AcDbSpline
 62
7
  6
CONTINUOUS
 70
0
 71
3
 72
12
 73
8
 74
0
 42
0.0000001
 43
0.0000001
 44
0.0000000001
 40
0.0
 40
0.0
 40
0.0
 40
0.0
 40
0.0946592186
 40
0.2008253535
 40
0.44263723
 40
0.7139315665
 40
1.0
 40
1.0
 40
1.0
 40
1.0
 10
-1297.8401079311
 20
-1020.3318889003
 30
0.0
 10
-1298.4801886386
 20
-1020.5435105197
 30
0.0
 10
-1299.8559120949
 20
-1020.939233437
 30
0.0
 10
-1302.9309492388
 20
-1021.6385228872
 30
0.0
 10
-1307.295600014
 20
-1022.3093349077
 30
0.0
 10
-1312.9694922043
 20
-1022.7945098617
 30
0.0
 10
-1316.9400737831
 20
-1022.9040120448
 30
0.0
 10
-1318.9774337378
 20
-1022.9040120448
 30
0.0
  0
SPLINE
  5
2DC
100
AcDbEntity
  8
0
100
AcDbSpline
 62
7
  6
CONTINUOUS
 70
0
 71
3
 72
9
 73
5
 74
0
 42
0.0000001
 43
0.0000001
 44
0.0000000001
 40
0.0
 40
0.0
 40
0.0
 40
0.0
 40
0.4431194713
 40
1.0
 40
1.0
 40
1.0
 40
1.0
 10
-1294.307169499
 20
-1018.6883139699
 30
0.0
 10
-1294.777017249
 20
-1018.3539339585
 30
0.0
 10
-1295.9315402662
 20
-1017.7345426986
 30
0.0
 10
-1297.1507225527
 20
-1017.2746492867
 30
0.0
 10
-1297.8388152759
 20
-1017.047112933
 30
0.0
  0
SPLINE
  5
2DD
100
AcDbEntity
  8
0
100
AcDbSpline
 62
7
  6
CONTINUOUS
 70
0
 71
3
 72
12
 73
8
 74
0
 42
0.0000001
 43
0.0000001
 44
0.0000000001
 40
0.0
 40
0.0
 40
0.0
 40
0.0
 40
0.0946536054
 40
0.2008160743
 40
0.4426259694
 40
0.7139243698
 40
1.0
 40
1.0
 40
1.0
 40
1.0
 10
-1297.8388152759
 20
-1017.047112933
 30
0.0
 10
-1298.478887365
 20
-1016.8354558928
 30
0.0
 10
-1299.8546188405
 20
-1016.4396680942
 30
0.0
 10
-1302.9297535407
 20
-1015.7402622187
 30
0.0
 10
-1307.2946620515
 20
-1015.0693391396
 30
0.0
 10
-1312.9689780376
 20
-1014.5840837234
 30
0.0
 10
-1316.9398928271
 20
-1014.4745623185
 30
0.0
 10
-1318.9774337378
 20
-1014.4745623185
 30
0.0
  0
SPLINE
  5
2DE
100
AcDbEntity
  8
0
100
AcDbSpline
 62
7
  6
CONTINUOUS
 70
0
 71
3
 72
12
 73
8
 74
0
 42
0.0000001
 43
0.0000001
 44
0.0000000001
 40
0.0
 40
0.0
 40
0.0
 40
0.0
 40
0.2854938513
 40
0.5564573015
 40
0.7984086098
 40
0.9048741849
 40
1.0
 40
1.0
 40
1.0
 40
1.0
 10
-1318.9774337378
 20
-1014.4745623194
 30
0.0
 10
-1320.9999366317
 20
-1014.4745623195
 30
0.0
 10
-1324.9430589659
 20
-1014.5825480763
 30
0.0
 10
-1330.5817785084
 20
-1015.0609958073
 30
0.0
 10
-1334.9248012657
 20
-1015.7226823572
 30
0.0
 10
-1337.9914519524
 20
-1016.4122945221
 30
0.0
 10
-1339.3664179747
 20
-1016.8026613911
 30
0.0
 10
-1340.007175127
 20
-1017.0113758103
 30
0.0
  0
SPLINE
  5
2DF
100
AcDbEntity
  8
0
100
AcDbSpline
 62
7
  6
CONTINUOUS
 70
0
 71
3
 72
9
 73
5
 74
0
 42
0.0000001
 43
0.0000001
 44
0.0000000001
 40
0.0
 40
0.0
 40
0.0
 40
0.0
 40
0.5579282368
 40
1.0
 40
1.0
 40
1.0
 40
1.0
 10
-1340.007175127
 20
-1017.0113758103
 30
0.0
 10
-1340.7180055287
 20
-1017.2429152537
 30
0.0
 10
-1341.9752355439
 20
-1017.711038292
 30
0.0
 10
-1343.1661380777
 20
-1018.3453984486
 30
0.0
 10
-1343.6486547412
 20
-1018.6889899959
 30
0.0
  0
SPLINE
  5
2E0
100
AcDbEntity
  8
0
100
AcDbSpline
 62
7
  6
CONTINUOUS
 70
0
 71
3
 72
8
 73
4
 74
0
 42
0.0000001
 43
0.0000001
 44
0.0000000001
 40
0.0
 40
0.0
 40
0.0
 40
0.0
 40
1.0
 40
1.0
 40
1.0
 40
1.0
 10
-2208.9774337378
 20
-242.3122712792
 30
0.0
 10
-1615.6441006407
 20
-242.2955278872
 30
0.0
 10
-1022.3107668402
 20
-242.2954329076
 30
0.0
 10
-428.9774337378
 20
-242.3119863408
 30
0.0
  0
SPLINE
  5
2E1
100
AcDbEntity
  8
0
100
AcDbSpline
 62
7
  6
CONTINUOUS
 70
0
 71
3
 72
12
 73
8
 74
0
 42
0.0000001
 43
0.0000001
 44
0.0000000001
 40
0.0
 40
0.0
 40
0.0
 40
0.0
 40
0.2854872127
 40
0.5564469231
 40
0.7984000533
 40
0.904869005
 40
1.0
 40
1.0
 40
1.0
 40
1.0
 10
-1318.9774337378
 20
-1022.9040120458
 30
0.0
 10
-1320.9997677575
 20
-1022.9040120458
 30
0.0
 10
-1324.9425787944
 20
-1022.796044086
 30
0.0
 10
-1330.580901216
 20
-1022.3176710441
 30
0.0
 10
-1334.923680794
 20
-1021.6560876497
 30
0.0
 10
-1337.990236677
 20
-1020.9665835615
 30
0.0
 10
-1339.365192757
 20
-1020.5762770066
 30
0.0
 10
-1340.0059565237
 20
-1020.3675955069
 30
0.0
  0
SPLINE
  5
2E2
100
AcDbEntity
  8
0
100
AcDbSpline
 62
7
  6
CONTINUOUS
 70
0
 71
3
 72
14
 73
10
 74
0
 42
0.0000001
 43
0.0000001
 44
0.0000000001
 40
0.0
 40
0.0
 40
0.0
 40
0.0
 40
0.3540060107
 40
0.5029060334
 40
0.6330217624
 40
0.7450762653
 40
0.840984103
 40
0.9241472547
 40
1.0
 40
1.0
 40
1.0
 40
1.0
 10
-1340.0059565237
 20
-1020.3675955069
 30
0.0
 10
-1340.7309218319
 20
-1020.1314915704
 30
0.0
 10
-1341.7495935529
 20
-1019.7527800081
 30
0.0
 10
-1342.967204708
 20
-1019.1364167209
 30
0.0
 10
-1343.6811460051
 20
-1018.686456332
 30
0.0
 10
-1344.245857382
 20
-1018.2228852167
 30
0.0
 10
-1344.6591227986
 20
-1017.7459295187
 30
0.0
 10
-1344.9168066328
 20
-1017.2540127265
 30
0.0
 10
-1344.9774526577
 20
-1016.9095579767
 30
0.0
 10
-1344.9774323527
 20
-1016.7461895189
 30
0.0
  0
SPLINE
  5
2E3
100
AcDbEntity
  8
0
100
AcDbSpline
 62
7
  6
CONTINUOUS
 70
0
 71
3
 72
8
 73
4
 74
0
 42
0.0000001
 43
0.0000001
 44
0.0000000001
 40
0.0
 40
0.0
 40
0.0
 40
0.0
 40
1.0
 40
1.0
 40
1.0
 40
1.0
 10
-2208.9774337378
 20
-1091.8234982966
 30
0.0
 10
-1615.6441006403
 20
-1091.8402270468
 30
0.0
 10
-1022.31076682
 20
-1091.8408939262
 30
0.0
 10
-428.9774337378
 20
-1091.8236323374
 30
0.0
  0
SPLINE
  5
2E4
100
AcDbEntity
  8
0
100
AcDbSpline
 62
7
  6
CONTINUOUS
 70
0
 71
3
 72
19
 73
15
 74
0
 42
0.0000001
 43
0.0000001
 44
0.0000000001
 40
0.0
 40
0.0
 40
0.0
 40
0.0
 40
0.0222470291
 40
0.0477006303
 40
0.078474267
 40
0.1156765573
 40
0.1597043394
 40
0.2105833203
 40
0.2681650019
 40
0.3320863569
 40
0.4768780291
 40
0.640365982
 40
0.8170514992
 40
1.0
 40
1.0
 40
1.0
 40
1.0
 10
-1344.9774323527
 20
-1016.7461895189
 30
0.0
 10
-1344.9774068119
 20
-1016.5406950458
 30
0.0
 10
-1344.8771603838
 20
-1016.0972335578
 30
0.0
 10
-1344.4688819467
 20
-1015.4857756864
 30
0.0
 10
-1343.8265059117
 20
-1014.9011746263
 30
0.0
 10
-1342.9537305719
 20
-1014.339700688
 30
0.0
 10
-1341.8567119016
 20
-1013.8009578312
 30
0.0
 10
-1340.5431304594
 20
-1013.2890237501
 30
0.0
 10
-1339.0237924018
 20
-1012.8095717456
 30
0.0
 10
-1336.6415536046
 20
-1012.1934602737
 30
0.0
 10
-1333.2596562884
 20
-1011.5548818033
 30
0.0
 10
-1328.8118741133
 20
-1011.0038835679
 30
0.0
 10
-1323.989733344
 20
-1010.6651136457
 30
0.0
 10
-1320.6673180801
 20
-1010.5883669919
 30
0.0
 10
-1318.9774337378
 20
-1010.5883669919
 30
0.0
  0
SPLINE
  5
2E5
100
AcDbEntity
  8
0
100
AcDbSpline
 62
7
  6
CONTINUOUS
 70
0
 71
3
 72
9
 73
5
 74
0
 42
0.0000001
 43
0.0000001
 44
0.0000000001
 40
0.0
 40
0.0
 40
0.0
 40
0.0
 40
0.4999986376
 40
1.0
 40
1.0
 40
1.0
 40
1.0
 10
-419.2234244057
 20
-252.0677840392
 30
0.0
 10
-419.2209174694
 20
-321.2341127518
 30
0.0
 10
-419.2198716858
 20
-459.5671472112
 30
0.0
 10
-419.2088413855
 20
-597.9001814493
 30
0.0
 10
-419.2093489145
 20
-667.0668871362
 30
0.0
  0
SPLINE
  5
2E6
100
AcDbEntity
  8
0
100
AcDbSpline
 62
7
  6
CONTINUOUS
 70
0
 71
3
 72
9
 73
5
 74
0
 42
0.0000001
 43
0.0000001
 44
0.0000000001
 40
0.0
 40
0.0
 40
0.0
 40
0.0
 40
0.5000013639
 40
1.0
 40
1.0
 40
1.0
 40
1.0
 10
-419.2093489145
 20
-667.0668871362
 30
0.0
 10
-419.2088412609
 20
-736.2338920017
 30
0.0
 10
-419.219870336
 20
-874.567524175
 30
0.0
 10
-419.2209200656
 20
-1012.9011565695
 30
0.0
 10
-419.2234244056
 20
-1082.0677840387
 30
0.0
  0
SPLINE
  5
2E7
100
AcDbEntity
  8
0
100
AcDbSpline
 62
7
  6
CONTINUOUS
 70
0
 71
3
 72
16
 73
12
 74
0
 42
0.0000001
 43
0.0000001
 44
0.0000000001
 40
0.0
 40
0.0
 40
0.0
 40
0.0
 40
0.0055834287
 40
0.0196242358
 40
0.0426531694
 40
0.0752001003
 40
0.1694614184
 40
0.2991185068
 40
0.4581473054
 40
0.6356088071
 40
1.0
 40
1.0
 40
1.0
 40
1.0
 10
-2218.7314236622
 20
-252.0677823275
 30
0.0
 10
-2218.7203027656
 20
-252.0689888785
 30
0.0
 10
-2218.6808759751
 20
-252.0684361338
 30
0.0
 10
-2218.5955289679
 20
-252.0704984162
 30
0.0
 10
-2218.4560022339
 20
-252.0708596076
 30
0.0
 10
-2218.1558483509
 20
-252.0727831997
 30
0.0
 10
-2217.6420077312
 20
-252.0741556255
 30
0.0
 10
-2216.8748037103
 20
-252.0760117948
 30
0.0
 10
-2215.9408941826
 20
-252.0773424699
 30
0.0
 10
-2214.5367109725
 20
-252.0787443204
 30
0.0
 10
-2213.4511318653
 20
-252.0791211177
 30
0.0
 10
-2212.7210899356
 20
-252.0791427643
 30
0.0
  0
SPLINE
  5
2E8
100
AcDbEntity
  8
0
100
AcDbSpline
 62
7
  6
CONTINUOUS
 70
0
 71
3
 72
19
 73
15
 74
0
 42
0.0000001
 43
0.0000001
 44
0.0000000001
 40
0.0
 40
0.0
 40
0.0
 40
0.0
 40
0.0624999874
 40
0.0937500095
 40
0.1250000275
 40
0.1875001278
 40
0.2500002132
 40
0.3125002807
 40
0.3750003526
 40
0.5000004579
 40
0.6250003316
 40
0.7499999716
 40
0.8749997772
 40
1.0
 40
1.0
 40
1.0
 40
1.0
 10
-425.2347107434
 20
-252.0802289505
 30
0.0
 10
-425.2525654099
 20
-260.7257777478
 30
0.0
 10
-425.283487557
 20
-273.6940967255
 30
0.0
 10
-425.3120405659
 20
-290.9852152456
 30
0.0
 10
-425.3418671976
 20
-308.2763472691
 30
0.0
 10
-425.363504087
 20
-329.8902884912
 30
0.0
 10
-425.397719544
 20
-355.8270077773
 30
0.0
 10
-425.4345884333
 20
-381.7637197244
 30
0.0
 10
-425.4841533149
 20
-416.345993704
 30
0.0
 10
-425.5449629259
 20
-459.573804888
 30
0.0
 10
-425.660041477
 20
-511.4470441901
 30
0.0
 10
-425.8019654468
 20
-563.3201679773
 30
0.0
 10
-425.9251746013
 20
-615.1933980803
 30
0.0
 10
-425.9499589913
 20
-649.7756928007
 30
0.0
 10
-425.9464206892
 20
-667.0668612201
 30
0.0
  0
SPLINE
  5
2E9
100
AcDbEntity
  8
0
100
AcDbSpline
 62
7
  6
CONTINUOUS
 70
0
 71
3
 72
16
 73
12
 74
0
 42
0.0000001
 43
0.0000001
 44
0.0000000001
 40
0.0
 40
0.0
 40
0.0
 40
0.0
 40
0.0053515664
 40
0.0188135379
 40
0.0409816556
 40
0.0724506192
 40
0.1642521047
 40
0.2918884275
 40
0.4502467058
 40
0.6287500908
 40
1.0
 40
1.0
 40
1.0
 40
1.0
 10
-419.2234248079
 20
-252.0677801983
 30
0.0
 10
-419.2340731799
 20
-252.0690459997
 30
0.0
 10
-419.2718967337
 20
-252.0685102154
 30
0.0
 10
-419.3538927217
 20
-252.0706774546
 30
0.0
 10
-419.4884044823
 20
-252.0710930557
 30
0.0
 10
-419.7797862485
 20
-252.0731649193
 30
0.0
 10
-420.2825745416
 20
-252.0746772038
 30
0.0
 10
-421.0395767259
 20
-252.0767165823
 30
0.0
 10
-421.9703309772
 20
-252.0781985432
 30
0.0
 10
-423.389225276
 20
-252.0797804647
 30
0.0
 10
-424.4908089231
 20
-252.0802051643
 30
0.0
 10
-425.2347107434
 20
-252.0802289505
 30
0.0
  0
SPLINE
  5
2EA
100
AcDbEntity
  8
0
100
AcDbSpline
 62
7
  6
CONTINUOUS
 70
0
 71
3
 72
66
 73
62
 74
0
 42
0.0000001
 43
0.0000001
 44
0.0000000001
 40
0.0
 40
0.0
 40
0.0
 40
0.0
 40
0.0334164811
 40
0.0678453513
 40
0.1021881366
 40
0.1183585177
 40
0.1333503913
 40
0.1474652567
 40
0.1611243149
 40
0.1743851676
 40
0.1873052209
 40
0.1999426052
 40
0.2030645919
 40
0.206173448
 40
0.2092700823
 40
0.212355391
 40
0.2154302971
 40
0.2184955551
 40
0.2215520683
 40
0.2246007018
 40
0.2306768667
 40
0.2367325154
 40
0.2427757693
 40
0.2488143013
 40
0.2608851078
 40
0.2730204482
 40
0.2791398233
 40
0.2852967768
 40
0.2914990088
 40
0.2946204738
 40
0.2977560001
 40
0.2993294371
 40
0.3009067029
 40
0.3024879118
 40
0.3040732415
 40
0.3056627977
 40
0.3072566397
 40
0.3104577772
 40
0.313677485
 40
0.3169167106
 40
0.3234573165
 40
0.3300868431
 40
0.3368125061
 40
0.3505812732
 40
0.3648236014
 40
0.3796358863
 40
0.3950058082
 40
0.4108678782
 40
0.4271559374
 40
0.4607480141
 40
0.4952557873
 40
0.5301545715
 40
0.5649174996
 40
0.5990180253
 40
0.6324429
 40
0.6658535641
 40
0.7326768749
 40
0.7995026426
 40
0.8663318931
 40
0.9331647645
 40
1.0
 40
1.0
 40
1.0
 40
1.0
 10
-1887.0075569372
 20
-667.067260617
 30
0.0
 10
-1887.0075569371
 20
-675.5077747495
 30
0.0
 10
-1887.0528137395
 20
-692.644555947
 30
0.0
 10
-1887.2612119325
 20
-718.4550545163
 30
0.0
 10
-1887.5319747569
 20
-739.9085080132
 30
0.0
 10
-1887.7704330216
 20
-756.452402928
 30
0.0
 10
-1887.9406328159
 20
-767.8874747492
 30
0.0
 10
-1888.0997848505
 20
-778.6883170817
 30
0.0
 10
-1888.2451329737
 20
-789.0520831006
 30
0.0
 10
-1888.3738191211
 20
-799.1142574154
 30
0.0
 10
-1888.4805463371
 20
-808.9186121749
 30
0.0
 10
-1888.5452932867
 20
-816.1623382426
 30
0.0
 10
-1888.5767161066
 20
-820.9280720043
 30
0.0
 10
-1888.5910622438
 20
-823.2840154111
 30
0.0
 10
-1888.6058003875
 20
-825.6306782392
 30
0.0
 10
-1888.6158067893
 20
-827.968845301
 30
0.0
 10
-1888.6246128701
 20
-830.29888876
 30
0.0
 10
-1888.6372061208
 20
-832.6223942268
 30
0.0
 10
-1888.5039953999
 20
-834.936451734
 30
0.0
 10
-1888.1657592492
 20
-837.9957777105
 30
0.0
 10
-1887.4186958877
 20
-841.7656334141
 30
0.0
 10
-1886.0382232246
 20
-846.1531797425
 30
0.0
 10
-1884.1827617968
 20
-850.3526850889
 30
0.0
 10
-1881.1143088349
 20
-855.6372865459
 30
0.0
 10
-1876.2044149448
 20
-861.5753527523
 30
0.0
 10
-1870.0985791332
 20
-866.3094726716
 30
0.0
 10
-1864.6599689106
 20
-869.2374418471
 30
0.0
 10
-1860.3213728369
 20
-870.9848749964
 30
0.0
 10
-1856.5448120914
 20
-872.0324041269
 30
0.0
 10
-1853.4507271658
 20
-872.6145451644
 30
0.0
 10
-1851.4881353316
 20
-872.869373866
 30
0.0
 10
-1849.906093765
 20
-873.0066005117
 30
0.0
 10
-1848.7127150852
 20
-873.0756689875
 30
0.0
 10
-1847.5147854831
 20
-873.1101642593
 30
0.0
 10
-1846.313387085
 20
-873.107220553
 30
0.0
 10
-1845.1089194802
 20
-873.0997549396
 30
0.0
 10
-1843.4962922615
 20
-873.0917380694
 30
0.0
 10
-1841.4719306544
 20
-873.0811351919
 30
0.0
 10
-1839.0319722257
 20
-873.0680291369
 30
0.0
 10
-1835.7485278561
 20
-873.0501502765
 30
0.0
 10
-1831.6038275875
 20
-873.0271812289
 30
0.0
 10
-1826.5785224674
 20
-872.9985329495
 30
0.0
 10
-1819.727522898
 20
-872.9588364404
 30
0.0
 10
-1810.9536780972
 20
-872.9071838746
 30
0.0
 10
-1800.137307651
 20
-872.8432849549
 30
0.0
 10
-1788.9165134795
 20
-872.7774166249
 30
0.0
 10
-1777.2866021039
 20
-872.7093503309
 30
0.0
 10
-1765.283936311
 20
-872.6394126469
 30
0.0
 10
-1748.6786964282
 20
-872.543102094
 30
0.0
 10
-1727.3638984317
 20
-872.4204305023
 30
0.0
 10
-1701.3483708752
 20
-872.2725577175
 30
0.0
 10
-1675.0370955953
 20
-872.1252292896
 30
0.0
 10
-1648.8286688698
 20
-871.9811010178
 30
0.0
 10
-1622.9925079271
 20
-871.8420610645
 30
0.0
 10
-1597.4978855638
 20
-871.708347791
 30
0.0
 10
-1563.7380519116
 20
-871.5367688518
 30
0.0
 10
-1521.5416888915
 20
-871.3344775163
 30
0.0
 10
-1470.9042474507
 20
-871.1199442161
 30
0.0
 10
-1420.2642296211
 20
-870.9464162023
 30
0.0
 10
-1369.6216494882
 20
-870.8307342541
 30
0.0
 10
-1335.8590362225
 20
-870.8033270632
 30
0.0
 10
-1318.9774337378
 20
-870.8033307767
 30
0.0
  0
SPLINE
  5
2EB
100
AcDbEntity
  8
0
100
AcDbSpline
 62
7
  6
CONTINUOUS
 70
0
 71
3
 72
66
 73
62
 74
0
 42
0.0000001
 43
0.0000001
 44
0.0000000001
 40
0.0
 40
0.0
 40
0.0
 40
0.0
 40
0.066835217
 40
0.1336680693
 40
0.2004973
 40
0.2673230473
 40
0.334146337
 40
0.3675569905
 40
0.4009818544
 40
0.435082367
 40
0.4698452795
 40
0.5047440477
 40
0.5392518065
 40
0.5728438723
 40
0.589131928
 40
0.6049939961
 40
0.6203639182
 40
0.6351762053
 40
0.6494185382
 40
0.6631873126
 40
0.6699129802
 40
0.6765425119
 40
0.6830831235
 40
0.686322352
 40
0.6895420629
 40
0.6927432035
 40
0.694337047
 40
0.6959266048
 40
0.6975119362
 40
0.6990931468
 40
0.7006704142
 40
0.702243853
 40
0.7053793829
 40
0.7085008518
 40
0.7147030919
 40
0.720860054
 40
0.7269794382
 40
0.7391147976
 40
0.7511856234
 40
0.7572241649
 40
0.7632674281
 40
0.7693230856
 40
0.7753992589
 40
0.7784478963
 40
0.7815044133
 40
0.7845696749
 40
0.7876445847
 40
0.7907298971
 40
0.7938265351
 40
0.7969353949
 40
0.8000573854
 40
0.8126947838
 40
0.8256148494
 40
0.8388757124
 40
0.8525347786
 40
0.8666496493
 40
0.8816415244
 40
0.8978119023
 40
0.9321546735
 40
0.9665835291
 40
1.0
 40
1.0
 40
1.0
 40
1.0
 10
-1318.9774337378
 20
-463.3309996744
 30
0.0
 10
-1335.8590367587
 20
-463.3310033901
 30
0.0
 10
-1369.6216509535
 20
-463.3035968484
 30
0.0
 10
-1420.2642322363
 20
-463.1879174057
 30
0.0
 10
-1470.9042507252
 20
-463.014392527
 30
0.0
 10
-1521.5416923326
 20
-462.7998620119
 30
0.0
 10
-1563.7380552138
 20
-462.5975721016
 30
0.0
 10
-1597.4978885735
 20
-462.425993713
 30
0.0
 10
-1622.9925100655
 20
-462.2922806244
 30
0.0
 10
-1648.8286689979
 20
-462.1532407946
 30
0.0
 10
-1675.0370925072
 20
-462.0091127761
 30
0.0
 10
-1701.3483643007
 20
-461.8617849278
 30
0.0
 10
-1727.3638894737
 20
-461.7139132505
 30
0.0
 10
-1748.6786867974
 20
-461.5912431967
 30
0.0
 10
-1765.2839277319
 20
-461.4949343207
 30
0.0
 10
-1777.2865959127
 20
-461.4249981044
 30
0.0
 10
-1788.9165109981
 20
-461.3569335051
 30
0.0
 10
-1800.1373104086
 20
-461.2910670843
 30
0.0
 10
-1810.9536878104
 20
-461.2271703531
 30
0.0
 10
-1819.7275395333
 20
-461.1755200641
 30
0.0
 10
-1826.5785455318
 20
-461.1358256156
 30
0.0
 10
-1831.6038560823
 20
-461.107179038
 30
0.0
 10
-1835.7485611051
 20
-461.0842114098
 30
0.0
 10
-1839.0320094436
 20
-461.0663342256
 30
0.0
 10
-1841.4719709477
 20
-461.0532296844
 30
0.0
 10
-1843.4963351501
 20
-461.0426282976
 30
0.0
 10
-1845.1089644655
 20
-461.0346127532
 30
0.0
 10
-1846.3134336589
 20
-461.0271482034
 30
0.0
 10
-1847.5148336601
 20
-461.0242056201
 30
0.0
 10
-1848.7127648589
 20
-461.0587020133
 30
0.0
 10
-1849.9061451399
 20
-461.1277716131
 30
0.0
 10
-1851.4881888711
 20
-461.2649997629
 30
0.0
 10
-1853.4507834221
 20
-461.5198303608
 30
0.0
 10
-1856.5448727578
 20
-462.1019744672
 30
0.0
 10
-1860.3214390447
 20
-463.1495075182
 30
0.0
 10
-1864.6600417483
 20
-464.8969454674
 30
0.0
 10
-1870.0986610572
 20
-467.8249213054
 30
0.0
 10
-1876.2045081745
 20
-472.5590498956
 30
0.0
 10
-1881.1144135046
 20
-478.4971252613
 30
0.0
 10
-1884.182875742
 20
-483.7817346225
 30
0.0
 10
-1886.0383440971
 20
-487.9812460587
 30
0.0
 10
-1887.41882367
 20
-492.3687986891
 30
0.0
 10
-1888.1658927578
 20
-496.1386599019
 30
0.0
 10
-1888.504133453
 20
-499.1979904207
 30
0.0
 10
-1888.6373475491
 20
-501.5120513254
 30
0.0
 10
-1888.6247576794
 20
-503.8355603251
 30
0.0
 10
-1888.6159547062
 20
-506.1656072906
 30
0.0
 10
-1888.6059511486
 20
-508.5037778849
 30
0.0
 10
-1888.5912155847
 20
-510.8504442723
 30
0.0
 10
-1888.5768717681
 20
-513.2063912449
 30
0.0
 10
-1888.5454529805
 20
-517.9721319388
 30
0.0
 10
-1888.4807117889
 20
-525.2158679079
 30
0.0
 10
-1888.3739916832
 20
-535.0202350552
 30
0.0
 10
-1888.2453119861
 20
-545.0824203094
 30
0.0
 10
-1888.0999695662
 20
-555.4461955812
 30
0.0
 10
-1887.9408224765
 20
-566.247045038
 30
0.0
 10
-1887.7706266105
 20
-577.6821213565
 30
0.0
 10
-1887.5321721713
 20
-594.2260174359
 30
0.0
 10
-1887.2614113914
 20
-615.6794695319
 30
0.0
 10
-1887.0530118415
 20
-641.4899662292
 30
0.0
 10
-1887.0077556716
 20
-658.6267464542
 30
0.0
 10
-1887.0077559934
 20
-667.067260617
 30
0.0
  0
SPLINE
  5
2EC
100
AcDbEntity
  8
0
100
AcDbSpline
 62
7
  6
CONTINUOUS
 70
0
 71
3
 72
68
 73
64
 74
0
 42
0.0000001
 43
0.0000001
 44
0.0000000001
 40
0.0
 40
0.0
 40
0.0
 40
0.0
 40
0.0334163851
 40
0.0678451583
 40
0.1021878413
 40
0.118358177
 40
0.1333499477
 40
0.1474648293
 40
0.161124214
 40
0.174384629
 40
0.1873047125
 40
0.1999420768
 40
0.2030640562
 40
0.2061729073
 40
0.2092695214
 40
0.2123548816
 40
0.2154296507
 40
0.218494998
 40
0.2200243871
 40
0.2215517611
 40
0.2246005774
 40
0.2276424605
 40
0.2306787183
 40
0.2367346368
 40
0.2427779545
 40
0.2488163821
 40
0.2608871757
 40
0.2730224994
 40
0.2791418542
 40
0.2852987973
 40
0.2915010237
 40
0.2946224834
 40
0.2977580082
 40
0.2993314396
 40
0.3009087002
 40
0.3024899074
 40
0.3040752327
 40
0.3056647859
 40
0.3072586263
 40
0.3104597561
 40
0.3136794549
 40
0.316918676
 40
0.323459267
 40
0.3300887737
 40
0.336814445
 40
0.3505831663
 40
0.3648254464
 40
0.3796376203
 40
0.3950076623
 40
0.4108695519
 40
0.427157717
 40
0.4607493874
 40
0.4952580365
 40
0.5301563537
 40
0.5649187822
 40
0.5990192016
 40
0.6324439728
 40
0.6658545341
 40
0.7326773501
 40
0.7995032829
 40
0.8663320523
 40
0.933165069
 40
1.0
 40
1.0
 40
1.0
 40
1.0
 10
-750.9471836771
 20
-667.067260617
 30
0.0
 10
-750.9471837789
 20
-658.6267463871
 30
0.0
 10
-750.9017365372
 20
-641.4899651222
 30
0.0
 10
-750.6936619159
 20
-615.6794653812
 30
0.0
 10
-750.4233021025
 20
-594.226005628
 30
0.0
 10
-750.1842031419
 20
-577.6821354244
 30
0.0
 10
-750.013710698
 20
-566.247068428
 30
0.0
 10
-749.8550676282
 20
-555.4461266555
 30
0.0
 10
-749.7104119275
 20
-545.0823455129
 30
0.0
 10
-749.5807018019
 20
-535.0201758631
 30
0.0
 10
-749.4741651142
 20
-525.2158978092
 30
0.0
 10
-749.4097621705
 20
-517.9721475708
 30
0.0
 10
-749.377912027
 20
-513.2064117523
 30
0.0
 10
-749.3632375723
 20
-510.8504705664
 30
0.0
 10
-749.3498089224
 20
-508.5037906818
 30
0.0
 10
-749.337332471
 20
-506.1656431596
 30
0.0
 10
-749.3331414488
 20
-503.8356155029
 30
0.0
 10
-749.316846011
 20
-501.8978323675
 30
0.0
 10
-749.3860777977
 20
-500.3527006899
 30
0.0
 10
-749.4910674803
 20
-498.8139710155
 30
0.0
 10
-749.707777175
 20
-496.90088552
 30
0.0
 10
-750.0877094522
 20
-494.6258734995
 30
0.0
 10
-750.7668660736
 20
-491.6357672899
 30
0.0
 10
-751.916642271
 20
-487.9810887029
 30
0.0
 10
-753.7719810737
 20
-483.781760338
 30
0.0
 10
-756.8404490816
 20
-478.4970507825
 30
0.0
 10
-761.7504597122
 20
-472.5591548741
 30
0.0
 10
-767.8562488891
 20
-467.8249611406
 30
0.0
 10
-773.2948634181
 20
-464.8969832319
 30
0.0
 10
-777.6334650004
 20
-463.1495526374
 30
0.0
 10
-781.4100317999
 20
-462.1020240071
 30
0.0
 10
-784.5041220378
 20
-461.519878803
 30
0.0
 10
-786.4667167821
 20
-461.2650524373
 30
0.0
 10
-788.0487596882
 20
-461.1278245447
 30
0.0
 10
-789.24213865
 20
-461.0587553519
 30
0.0
 10
-790.4400688669
 20
-461.0242603669
 30
0.0
 10
-791.6414684272
 20
-461.027203635
 30
0.0
 10
-792.84593723
 20
-461.0346683518
 30
0.0
 10
-794.4585660159
 20
-461.0426839326
 30
0.0
 10
-796.4829288471
 20
-461.0532863594
 30
0.0
 10
-798.9228889759
 20
-461.0663918369
 30
0.0
 10
-802.2063356419
 20
-461.0842673408
 30
0.0
 10
-806.3510379463
 20
-461.1072381445
 30
0.0
 10
-811.3763508241
 20
-461.1358911029
 30
0.0
 10
-818.2273559553
 20
-461.1755381845
 30
0.0
 10
-827.0012040723
 20
-461.2272506938
 30
0.0
 10
-837.8175541218
 20
-461.291122839
 30
0.0
 10
-849.0383707629
 20
-461.3569961947
 30
0.0
 10
-860.6682724221
 20
-461.4250595051
 30
0.0
 10
-872.6709843569
 20
-461.4949966616
 30
0.0
 10
-889.2761507123
 20
-461.5913055522
 30
0.0
 10
-910.5911555844
 20
-461.7139764227
 30
0.0
 10
-936.6067588601
 20
-461.8618482656
 30
0.0
 10
-962.9180871321
 20
-462.0091737854
 30
0.0
 10
-989.1263184179
 20
-462.1533029967
 30
0.0
 10
-1014.9623746707
 20
-462.2923428387
 30
0.0
 10
-1040.456991624
 20
-462.4260552284
 30
0.0
 10
-1074.2167455547
 20
-462.5976373577
 30
0.0
 10
-1116.4131210629
 20
-462.7999254519
 30
0.0
 10
-1167.0505038013
 20
-463.0144435499
 30
0.0
 10
-1217.6906244409
 20
-463.1880175473
 30
0.0
 10
-1268.3331890824
 20
-463.3036286671
 30
0.0
 10
-1302.0958594697
 20
-463.3310567361
 30
0.0
 10
-1318.9774337378
 20
-463.331060451
 30
0.0
  0
SPLINE
  5
2ED
100
AcDbEntity
  8
0
100
AcDbSpline
 62
7
  6
CONTINUOUS
 70
0
 71
3
 72
68
 73
64
 74
0
 42
0.0000001
 43
0.0000001
 44
0.0000000001
 40
0.0
 40
0.0
 40
0.0
 40
0.0
 40
0.0668349429
 40
0.1336679715
 40
0.2004967533
 40
0.2673226993
 40
0.3341455292
 40
0.3675560977
 40
0.4009808763
 40
0.4350813047
 40
0.4698437436
 40
0.5047420714
 40
0.53925073
 40
0.5728424072
 40
0.5891305745
 40
0.604992465
 40
0.6203625067
 40
0.6351746789
 40
0.6494169555
 40
0.6631856717
 40
0.6699113398
 40
0.6765408431
 40
0.6830814302
 40
0.6863206493
 40
0.689540346
 40
0.6927414737
 40
0.6943353131
 40
0.6959248652
 40
0.6975101894
 40
0.6990913956
 40
0.700668655
 40
0.7022420852
 40
0.7053776076
 40
0.7084990648
 40
0.7147012858
 40
0.7208582232
 40
0.726977572
 40
0.7391128833
 40
0.7511836645
 40
0.757222086
 40
0.7632653978
 40
0.7693213107
 40
0.7723575658
 40
0.7753994463
 40
0.7784482601
 40
0.7799756329
 40
0.7815050208
 40
0.7845703658
 40
0.7876451326
 40
0.7907304905
 40
0.7938271023
 40
0.796935951
 40
0.800057928
 40
0.8126952834
 40
0.8256153592
 40
0.8388757677
 40
0.8525351475
 40
0.8666500257
 40
0.8816417956
 40
0.8978121334
 40
0.9321548256
 40
0.9665836083
 40
1.0
 40
1.0
 40
1.0
 40
1.0
 10
-1318.9774337378
 20
-870.8033307766
 30
0.0
 10
-1302.0958598526
 20
-870.80333449
 30
0.0
 10
-1268.3331901964
 20
-870.830763066
 30
0.0
 10
-1217.6906265233
 20
-870.9463761941
 30
0.0
 10
-1167.050506526
 20
-871.1199528161
 30
0.0
 10
-1116.4131239321
 20
-871.3344734681
 30
0.0
 10
-1074.2167481908
 20
-871.5367632084
 30
0.0
 10
-1040.4569937933
 20
-871.7083463155
 30
0.0
 10
-1014.9623759732
 20
-871.8420593118
 30
0.0
 10
-989.1263181074
 20
-871.9810997405
 30
0.0
 10
-962.918084471
 20
-872.125229639
 30
0.0
 10
-936.6067537651
 20
-872.2725560635
 30
0.0
 10
-910.5911489032
 20
-872.4204291489
 30
0.0
 10
-889.2761436583
 20
-872.5431014409
 30
0.0
 10
-872.6709781217
 20
-872.639411748
 30
0.0
 10
-860.6682679021
 20
-872.7093500893
 30
0.0
 10
-849.0383688525
 20
-872.7774147246
 30
0.0
 10
-837.8175558428
 20
-872.8432895317
 30
0.0
 10
-827.0012105576
 20
-872.9071632985
 30
0.0
 10
-818.2273671482
 20
-872.9588774425
 30
0.0
 10
-811.3763663619
 20
-872.9985259818
 30
0.0
 10
-806.3510571348
 20
-873.0271801305
 30
0.0
 10
-802.2063580187
 20
-873.0501519261
 30
0.0
 10
-798.9229140083
 20
-873.0680285675
 30
0.0
 10
-796.4829559331
 20
-873.0811350612
 30
0.0
 10
-794.4585948331
 20
-873.0917384809
 30
0.0
 10
-792.8459674446
 20
-873.0997549407
 30
0.0
 10
-791.6414996998
 20
-873.1072203608
 30
0.0
 10
-790.4401012064
 20
-873.1101643701
 30
0.0
 10
-789.2421720515
 20
-873.0756701248
 30
0.0
 10
-788.0487941542
 20
-873.0066016729
 30
0.0
 10
-786.4667526856
 20
-872.8693747713
 30
0.0
 10
-784.5041597434
 20
-872.6145496535
 30
0.0
 10
-781.4100724253
 20
-872.0324064657
 30
0.0
 10
-777.6335092852
 20
-870.9848804044
 30
0.0
 10
-773.2949120711
 20
-869.2374529455
 30
0.0
 10
-767.8563034921
 20
-866.3094793672
 30
0.0
 10
-761.7505216804
 20
-861.5752912322
 30
0.0
 10
-756.8405184675
 20
-855.6374012333
 30
0.0
 10
-753.7720564201
 20
-850.3526967581
 30
0.0
 10
-751.9167220394
 20
-846.1533722866
 30
0.0
 10
-750.7669495114
 20
-842.4986970964
 30
0.0
 10
-750.0877957833
 20
-839.5085936785
 30
0.0
 10
-749.7078656627
 20
-837.2335837545
 30
0.0
 10
-749.4911577449
 20
-835.3205000436
 30
0.0
 10
-749.3861694785
 20
-833.7817718172
 30
0.0
 10
-749.3169390944
 20
-832.2366415669
 30
0.0
 10
-749.3332363
 20
-830.2988602901
 30
0.0
 10
-749.3374292459
 20
-827.9688348495
 30
0.0
 10
-749.3499074572
 20
-825.6306895669
 30
0.0
 10
-749.3633376864
 20
-823.2840119355
 30
0.0
 10
-749.3780135539
 20
-820.9280730086
 30
0.0
 10
-749.4098661153
 20
-816.1623415817
 30
0.0
 10
-749.4742724631
 20
-808.9185976148
 30
0.0
 10
-749.5808132535
 20
-799.1143274053
 30
0.0
 10
-749.7105270107
 20
-789.0521646793
 30
0.0
 10
-749.855185849
 20
-778.6883893872
 30
0.0
 10
-750.013831587
 20
-767.8874521102
 30
0.0
 10
-750.184326131
 20
-756.4523879367
 30
0.0
 10
-750.4234271779
 20
-739.90851842
 30
0.0
 10
-750.6937883052
 20
-718.4550577183
 30
0.0
 10
-750.9018629346
 20
-692.6445567423
 30
0.0
 10
-750.9473105385
 20
-675.5077748325
 30
0.0
 10
-750.9473105385
 20
-667.067260617
 30
0.0
  0
SPLINE
  5
2EE
100
AcDbEntity
  8
0
100
AcDbSpline
 62
7
  6
CONTINUOUS
 70
0
 71
3
 72
137
 73
133
 74
0
 42
0.0000001
 43
0.0000001
 44
0.0000000001
 40
0.0
 40
0.0
 40
0.0
 40
0.0
 40
0.0145474835
 40
0.0287479826
 40
0.0429798662
 40
0.0504427884
 40
0.0583147938
 40
0.0666017384
 40
0.0752198388
 40
0.0796400642
 40
0.0841272478
 40
0.0886762747
 40
0.0932817103
 40
0.0956040548
 40
0.0979384989
 40
0.1002842815
 40
0.1014619189
 40
0.1026410688
 40
0.1038231937
 40
0.1050085198
 40
0.1061954514
 40
0.1073842362
 40
0.1097705405
 40
0.112163102
 40
0.1145645785
 40
0.1169723834
 40
0.1218054459
 40
0.1266581626
 40
0.1315251557
 40
0.1364013558
 40
0.1412814231
 40
0.1510256166
 40
0.1607219068
 40
0.165541926
 40
0.1703341848
 40
0.1750932673
 40
0.1798140826
 40
0.1844913147
 40
0.1891194493
 40
0.1914143724
 40
0.193694159
 40
0.1948295885
 40
0.1959605034
 40
0.1970867731
 40
0.1982105239
 40
0.2004442742
 40
0.2026615204
 40
0.2070428518
 40
0.2155748744
 40
0.2197152086
 40
0.2237670905
 40
0.2277548096
 40
0.2316926218
 40
0.2394255162
 40
0.2469884356
 40
0.2544040773
 40
0.2616950164
 40
0.2688840882
 40
0.2830472941
 40
0.2970758688
 40
0.3111517233
 40
0.3254568835
 40
0.3545405978
 40
0.3836303967
 40
0.4127212531
 40
0.4418135054
 40
0.4709065672
 40
0.5000004289
 40
0.5290942663
 40
0.5581874366
 40
0.5872795994
 40
0.6163705709
 40
0.6454602705
 40
0.6745439803
 40
0.6888491279
 40
0.7029248583
 40
0.7169533789
 40
0.7311167369
 40
0.7383058899
 40
0.7455969233
 40
0.7530122941
 40
0.7605755162
 40
0.7683081177
 40
0.7722461591
 40
0.7762335845
 40
0.7802856743
 40
0.7844261003
 40
0.7929581026
 40
0.7973393595
 40
0.7995565814
 40
0.8017903421
 40
0.8029140847
 40
0.8040403611
 40
0.8051712764
 40
0.8063066997
 40
0.80858649
 40
0.8108814086
 40
0.8155095455
 40
0.820186779
 40
0.8249075903
 40
0.8296666819
 40
0.8344589369
 40
0.8392789437
 40
0.8489752425
 40
0.8587194496
 40
0.8635994919
 40
0.8684756802
 40
0.8733426983
 40
0.8781954163
 40
0.8830284775
 40
0.8878366342
 40
0.8902301662
 40
0.8926153108
 40
0.8949917221
 40
0.896176287
 40
0.8973595221
 40
0.898537655
 40
0.8997159157
 40
0.9020615
 40
0.9043959257
 40
0.906718361
 40
0.9113236104
 40
0.9158728451
 40
0.9203599358
 40
0.9247801296
 40
0.9333982501
 40
0.9416852363
 40
0.9495572095
 40
0.9570201322
 40
0.9712520154
 40
0.9854525173
 40
1.0
 40
1.0
 40
1.0
 40
1.0
 10
-659.9720208044
 20
-667.0673304457
 30
0.0
 10
-659.9720208041
 20
-675.5081991331
 30
0.0
 10
-660.1674305454
 20
-692.1893959248
 30
0.0
 10
-661.0731603467
 20
-717.1134912755
 30
0.0
 10
-662.3576126649
 20
-737.9038729762
 30
0.0
 10
-663.7529695479
 20
-755.0029844099
 30
0.0
 10
-665.0584987151
 20
-768.6472513459
 30
0.0
 10
-666.6385163737
 20
-782.9370540325
 30
0.0
 10
-668.1868894539
 20
-795.2138675403
 30
0.0
 10
-669.5742725545
 20
-805.2876635231
 30
0.0
 10
-670.699284754
 20
-813.0140862594
 30
0.0
 10
-671.9020226197
 20
-820.8375277134
 30
0.0
 10
-672.9637622407
 20
-827.4115840354
 30
0.0
 10
-673.8509436575
 20
-832.7120717034
 30
0.0
 10
-674.5377770687
 20
-836.7167000634
 30
0.0
 10
-675.122532552
 20
-840.0649323334
 30
0.0
 10
-675.6022580159
 20
-842.7509991982
 30
0.0
 10
-675.9646099499
 20
-844.7721493367
 30
0.0
 10
-676.3335513651
 20
-846.7966692044
 30
0.0
 10
-676.7344062563
 20
-848.8198331453
 30
0.0
 10
-677.1790835687
 20
-850.8377692292
 30
0.0
 10
-677.8174659194
 20
-853.5261756645
 30
0.0
 10
-678.7100692721
 20
-856.872631687
 30
0.0
 10
-679.9279997794
 20
-860.857756817
 30
0.0
 10
-681.2914405456
 20
-864.8087948639
 30
0.0
 10
-683.3075388834
 20
-870.0287429828
 30
0.0
 10
-686.1859139271
 20
-876.4354337395
 30
0.0
 10
-690.1928179045
 20
-883.8761645238
 30
0.0
 10
-694.7349927177
 20
-891.0325585415
 30
0.0
 10
-699.7863273491
 20
-897.8592397328
 30
0.0
 10
-707.1507550403
 20
-906.4597763569
 30
0.0
 10
-717.455269306
 20
-916.1748796352
 30
0.0
 10
-728.9990102721
 20
-924.317616574
 30
0.0
 10
-738.7925355919
 20
-929.7743526114
 30
0.0
 10
-746.3499143395
 20
-933.3154064549
 30
0.0
 10
-754.0830910571
 20
-936.2962764298
 30
0.0
 10
-761.941641036
 20
-938.7108468573
 30
0.0
 10
-769.87508693
 20
-940.554066507
 30
0.0
 10
-776.5266825747
 20
-941.6218097893
 30
0.0
 10
-781.8369430011
 20
-942.1903020483
 30
0.0
 10
-785.142083706
 20
-942.4312034992
 30
0.0
 10
-787.7771402891
 20
-942.554338712
 30
0.0
 10
-789.7448928804
 20
-942.6101443237
 30
0.0
 10
-791.705935653
 20
-942.6610667853
 30
0.0
 10
-794.3067289194
 20
-942.726562642
 30
0.0
 10
-797.5405524856
 20
-942.7989334024
 30
0.0
 10
-802.6643351721
 20
-942.8998894605
 30
0.0
 10
-811.4425706996
 20
-943.0337452148
 30
0.0
 10
-821.3375648575
 20
-943.1031378935
 30
0.0
 10
-831.0414829023
 20
-943.1030587613
 30
0.0
 10
-838.1085489324
 20
-943.0656148866
 30
0.0
 10
-845.0580717152
 20
-943.0259702104
 30
0.0
 10
-854.1434076253
 20
-942.9764742463
 30
0.0
 10
-865.3031403318
 20
-942.914850975
 30
0.0
 10
-878.4807850909
 20
-942.8430311353
 30
0.0
 10
-891.4020012007
 20
-942.7731594429
 30
0.0
 10
-904.1063067404
 20
-942.7050811838
 30
0.0
 10
-920.7256912454
 20
-942.6168050589
 30
0.0
 10
-941.2543991798
 20
-942.5093661256
 30
0.0
 10
-965.7789763152
 20
-942.3837779739
 30
0.0
 10
-990.3859347145
 20
-942.2610028383
 30
0.0
 10
-1023.7282345814
 20
-942.0996885929
 30
0.0
 10
-1065.7820078662
 20
-941.907187738
 30
0.0
 10
-1116.4148809813
 20
-941.6988869825
 30
0.0
 10
-1167.0528275162
 20
-941.5214936307
 30
0.0
 10
-1217.6927941033
 20
-941.3840417396
 30
0.0
 10
-1268.3346178979
 20
-941.2962507008
 30
0.0
 10
-1318.9774306572
 20
-941.2659231181
 30
0.0
 10
-1369.6203063644
 20
-941.2962479958
 30
0.0
 10
-1420.2621270128
 20
-941.3840462046
 30
0.0
 10
-1470.902171387
 20
-941.5214918061
 30
0.0
 10
-1521.5400752198
 20
-941.6988839247
 30
0.0
 10
-1572.1729549256
 20
-941.90718943
 30
0.0
 10
-1614.2266606652
 20
-942.0996945661
 30
0.0
 10
-1647.5688786483
 20
-942.260986406
 30
0.0
 10
-1672.1757257212
 20
-942.3838798375
 30
0.0
 10
-1696.7002893368
 20
-942.5091467256
 30
0.0
 10
-1717.2290988389
 20
-942.617059541
 30
0.0
 10
-1733.8486748268
 20
-942.7050662461
 30
0.0
 10
-1746.5529273169
 20
-942.7727251951
 30
0.0
 10
-1759.474211193
 20
-942.843593092
 30
0.0
 10
-1772.6517125856
 20
-942.9139234865
 30
0.0
 10
-1783.8115729487
 20
-942.9775634823
 30
0.0
 10
-1792.8967112375
 20
-943.0252496166
 30
0.0
 10
-1799.846309123
 20
-943.0664222738
 30
0.0
 10
-1806.9133841931
 20
-943.1025307741
 30
0.0
 10
-1816.6174630148
 20
-943.1037682053
 30
0.0
 10
-1826.5124517436
 20
-943.0334061387
 30
0.0
 10
-1835.2906227244
 20
-942.8999547433
 30
0.0
 10
-1840.4143528887
 20
-942.7989180556
 30
0.0
 10
-1843.6481636496
 20
-942.7265534716
 30
0.0
 10
-1846.2489625375
 20
-942.661076976
 30
0.0
 10
-1848.2100051074
 20
-942.6101685389
 30
0.0
 10
-1850.1777564547
 20
-942.5543066764
 30
0.0
 10
-1852.8128129153
 20
-942.4312017579
 30
0.0
 10
-1856.1179504215
 20
-942.1903035506
 30
0.0
 10
-1861.4282107874
 20
-941.6218046604
 30
0.0
 10
-1868.079806595
 20
-940.5540640067
 30
0.0
 10
-1876.0132496449
 20
-938.7108354632
 30
0.0
 10
-1883.8718106924
 20
-936.2962856806
 30
0.0
 10
-1891.6049713792
 20
-933.3153718718
 30
0.0
 10
-1899.1623597233
 20
-929.7743527189
 30
0.0
 10
-1908.9559126031
 20
-924.3176733989
 30
0.0
 10
-1920.4996276721
 20
-916.1748706734
 30
0.0
 10
-1930.8040359332
 20
-906.4596734162
 30
0.0
 10
-1938.1686081691
 20
-897.8592919779
 30
0.0
 10
-1943.2200066277
 20
-891.0326322822
 30
0.0
 10
-1947.7617885325
 20
-883.8760500027
 30
0.0
 10
-1951.7690820874
 20
-876.4352929468
 30
0.0
 10
-1955.2190538874
 20
-868.7579908131
 30
0.0
 10
-1957.619158535
 20
-862.1935367869
 30
0.0
 10
-1959.2449498694
 20
-856.8728227004
 30
0.0
 10
-1960.3143571965
 20
-852.8604071393
 30
0.0
 10
-1961.084193404
 20
-849.4964365939
 30
0.0
 10
-1961.6223106213
 20
-846.7966708029
 30
0.0
 10
-1961.9904913532
 20
-844.7723863516
 30
0.0
 10
-1962.3519859757
 20
-842.7506660124
 30
0.0
 10
-1962.8331117336
 20
-840.0651957949
 30
0.0
 10
-1963.4163345894
 20
-836.7164550105
 30
0.0
 10
-1964.1043031802
 20
-832.7120976168
 30
0.0
 10
-1964.991235518
 20
-827.4116324996
 30
0.0
 10
-1966.0525993828
 20
-820.8374519995
 30
0.0
 10
-1967.2556083932
 20
-813.0140931678
 30
0.0
 10
-1968.3803484515
 20
-805.2875837488
 30
0.0
 10
-1969.7689738239
 20
-795.2140188909
 30
0.0
 10
-1971.3158659725
 20
-782.9369936578
 30
0.0
 10
-1972.8962066995
 20
-768.6472208007
 30
0.0
 10
-1974.2021885616
 20
-755.0029883764
 30
0.0
 10
-1975.5976372764
 20
-737.9039011369
 30
0.0
 10
-1976.8816244042
 20
-717.1134879657
 30
0.0
 10
-1977.7873634538
 20
-692.1893968934
 30
0.0
 10
-1977.9828466627
 20
-675.508198688
 30
0.0
 10
-1977.9828466711
 20
-667.0673304457
 30
0.0
  0
SPLINE
  5
2EF
100
AcDbEntity
  8
0
100
AcDbSpline
 62
7
  6
CONTINUOUS
 70
0
 71
3
 72
85
 73
81
 74
0
 42
0.0000001
 43
0.0000001
 44
0.0000000001
 40
0.0
 40
0.0
 40
0.0
 40
0.0
 40
0.015543665
 40
0.0310867972
 40
0.0466286006
 40
0.062168822
 40
0.0932126703
 40
0.1242474559
 40
0.1397740393
 40
0.1552959591
 40
0.1708158065
 40
0.1863344817
 40
0.201851811
 40
0.2173682231
 40
0.2328838615
 40
0.2406446447
 40
0.2484063166
 40
0.2522876227
 40
0.2561695162
 40
0.2600525148
 40
0.2639370955
 40
0.2678204227
 40
0.2717065442
 40
0.2756413923
 40
0.2795783728
 40
0.2835134422
 40
0.2874494017
 40
0.2913858587
 40
0.2953224203
 40
0.3031949237
 40
0.3110669567
 40
0.3189390766
 40
0.3268113392
 40
0.3425560146
 40
0.358300549
 40
0.3740449923
 40
0.3897894797
 40
0.4055340026
 40
0.4370230406
 40
0.4685120681
 40
0.5000010827
 40
0.5314900776
 40
0.5629790577
 40
0.5944680425
 40
0.6102125489
 40
0.6259570326
 40
0.6417014833
 40
0.657446012
 40
0.6731906449
 40
0.6810628717
 40
0.688934947
 40
0.6968069369
 40
0.7046794464
 40
0.7086160432
 40
0.7125525441
 40
0.7164885382
 40
0.7204236147
 40
0.724360571
 40
0.7282954192
 40
0.7321815639
 40
0.7360647408
 40
0.7399491775
 40
0.743832091
 40
0.7477139371
 40
0.7515952055
 40
0.7593567413
 40
0.7671173117
 40
0.7826326019
 40
0.7981488194
 40
0.8136658456
 40
0.8291843252
 40
0.8447041124
 40
0.8602259938
 40
0.8757525449
 40
0.9067873097
 40
0.9378311804
 40
0.9533713961
 40
0.9689131914
 40
0.9844563316
 40
1.0
 40
1.0
 40
1.0
 40
1.0
 10
-2166.2954232239
 20
-667.0677800453
 30
0.0
 10
-2166.2917016054
 20
-678.0192300647
 30
0.0
 10
-2165.307039505
 20
-699.9339113518
 30
0.0
 10
-2160.9183103537
 20
-732.5334783272
 30
0.0
 10
-2153.6356410587
 20
-764.6135036807
 30
0.0
 10
-2140.179472594
 20
-806.3157804118
 30
0.0
 10
-2116.476439479
 20
-855.9411052019
 30
0.0
 10
-2084.3613338886
 20
-900.573800922
 30
0.0
 10
-2054.277334063
 20
-932.3941073081
 30
0.0
 10
-2029.6531613215
 20
-954.1481804208
 30
0.0
 10
-2003.1558940107
 20
-973.5643641743
 30
0.0
 10
-1975.0114663755
 20
-990.4990049678
 30
0.0
 10
-1945.4461315261
 20
-1004.8052481362
 30
0.0
 10
-1914.7037738372
 20
-1016.3573802184
 30
0.0
 10
-1888.3075902334
 20
-1023.6081052731
 30
0.0
 10
-1866.8646536887
 20
-1027.9309332565
 30
0.0
 10
-1853.3494030525
 20
-1030.0239909028
 30
0.0
 10
-1842.4894400514
 20
-1031.3358222668
 30
0.0
 10
-1834.3227363006
 20
-1032.1394691843
 30
0.0
 10
-1826.1380959279
 20
-1032.7638122044
 30
0.0
 10
-1817.9408595281
 20
-1033.2095987064
 30
0.0
 10
-1809.7334215416
 20
-1033.4785045589
 30
0.0
 10
-1801.4867388138
 20
-1033.5375436434
 30
0.0
 10
-1793.2026340617
 20
-1033.5209590252
 30
0.0
 10
-1784.8839394732
 20
-1033.5258899792
 30
0.0
 10
-1776.564490153
 20
-1033.5281817313
 30
0.0
 10
-1768.2454015976
 20
-1033.5286787609
 30
0.0
 10
-1759.9252638711
 20
-1033.528077629
 30
0.0
 10
-1748.8315927504
 20
-1033.5267919994
 30
0.0
 10
-1734.9650707221
 20
-1033.5260892881
 30
0.0
 10
-1718.3257101353
 20
-1033.5259360429
 30
0.0
 10
-1701.6865192571
 20
-1033.5257135004
 30
0.0
 10
-1679.5005763992
 20
-1033.5253697705
 30
0.0
 10
-1651.7680421485
 20
-1033.5249367168
 30
0.0
 10
-1618.4890811528
 20
-1033.5246830563
 30
0.0
 10
-1585.2102526163
 20
-1033.5242534118
 30
0.0
 10
-1551.931432199
 20
-1033.5232057998
 30
0.0
 10
-1507.5595939723
 20
-1033.5217405237
 30
0.0
 10
-1452.094776467
 20
-1033.5211971161
 30
0.0
 10
-1385.5370137448
 20
-1033.5226253143
 30
0.0
 10
-1318.9792814674
 20
-1033.5248471623
 30
0.0
 10
-1252.421582619
 20
-1033.5265760244
 30
0.0
 10
-1185.8639046751
 20
-1033.527412148
 30
0.0
 10
-1130.399169739
 20
-1033.5270318413
 30
0.0
 10
-1086.0273832399
 20
-1033.5265320228
 30
0.0
 10
-1052.7485718794
 20
-1033.5258535243
 30
0.0
 10
-1019.469744754
 20
-1033.5246655363
 30
0.0
 10
-986.1908125539
 20
-1033.5233144437
 30
0.0
 10
-958.4583374724
 20
-1033.5223412844
 30
0.0
 10
-936.272481224
 20
-1033.5208472994
 30
0.0
 10
-919.633377408
 20
-1033.5191673496
 30
0.0
 10
-902.9940745127
 20
-1033.5167259297
 30
0.0
 10
-889.1275538288
 20
-1033.515227111
 30
0.0
 10
-878.033822549
 20
-1033.5150503572
 30
0.0
 10
-869.7136046769
 20
-1033.5146902917
 30
0.0
 10
-861.3944559785
 20
-1033.5133539832
 30
0.0
 10
-853.0749944948
 20
-1033.5103307683
 30
0.0
 10
-844.7563126973
 20
-1033.504763112
 30
0.0
 10
-836.472205723
 20
-1033.5203768629
 30
0.0
 10
-828.2256227781
 20
-1033.4606767489
 30
0.0
 10
-820.0183706697
 20
-1033.192017361
 30
0.0
 10
-811.8214072078
 20
-1032.7460603359
 30
0.0
 10
-803.6369897666
 20
-1032.12135423
 30
0.0
 10
-795.4704411702
 20
-1031.3173643157
 30
0.0
 10
-784.6106552283
 20
-1030.0053957125
 30
0.0
 10
-771.0955524681
 20
-1027.9132990109
 30
0.0
 10
-749.6526508475
 20
-1023.5926866646
 30
0.0
 10
-723.2567863271
 20
-1016.3429007109
 30
0.0
 10
-692.5133177291
 20
-1004.7956968955
 30
0.0
 10
-662.9462590847
 20
-990.4939938832
 30
0.0
 10
-634.8007680527
 20
-973.5617739445
 30
0.0
 10
-608.3028416285
 20
-954.1468040502
 30
0.0
 10
-583.6781190631
 20
-932.3934767585
 30
0.0
 10
-553.5936131858
 20
-900.5737206947
 30
0.0
 10
-521.4782879741
 20
-855.9411522511
 30
0.0
 10
-497.7753835848
 20
-806.3157705327
 30
0.0
 10
-484.3191711492
 20
-764.6135053722
 30
0.0
 10
-477.0364685718
 20
-732.53349028
 30
0.0
 10
-472.6477546915
 20
-699.9339175397
 30
0.0
 10
-471.6631334657
 20
-678.0192250861
 30
0.0
 10
-471.6594437047
 20
-667.0677726796
 30
0.0
  0
SPLINE
  5
2F0
100
AcDbEntity
  8
0
100
AcDbSpline
 62
7
  6
CONTINUOUS
 70
0
 71
3
 72
19
 73
15
 74
0
 42
0.0000001
 43
0.0000001
 44
0.0000000001
 40
0.0
 40
0.0
 40
0.0
 40
0.0
 40
0.1829523696
 40
0.3596311442
 40
0.5231108204
 40
0.6679007977
 40
0.7318228905
 40
0.789402986
 40
0.8402849274
 40
0.8843171167
 40
0.9215200497
 40
0.9522958894
 40
0.97775231
 40
1.0
 40
1.0
 40
1.0
 40
1.0
 10
-1318.9774337378
 20
-1010.588366991
 30
0.0
 10
-1317.2875134657
 20
-1010.5883669909
 30
0.0
 10
-1313.9651237901
 20
-1010.6651033754
 30
0.0
 10
-1309.1430869526
 20
-1011.0038813924
 30
0.0
 10
-1304.695453809
 20
-1011.5548389228
 30
0.0
 10
-1301.3136432683
 20
-1012.1934028336
 30
0.0
 10
-1298.9314060285
 20
-1012.8094316493
 30
0.0
 10
-1297.4120623179
 20
-1013.2889345003
 30
0.0
 10
-1296.0984256265
 20
-1013.8008642906
 30
0.0
 10
-1295.0012971123
 20
-1014.3395564084
 30
0.0
 10
-1294.1284848761
 20
-1014.901106247
 30
0.0
 10
-1293.4860831162
 20
-1015.4857433774
 30
0.0
 10
-1293.0776788148
 20
-1016.097174733
 30
0.0
 10
-1292.9774114311
 20
-1016.5406889154
 30
0.0
 10
-1292.9774349011
 20
-1016.7461895179
 30
0.0
  0
SPLINE
  5
2F1
100
AcDbEntity
  8
0
100
AcDbSpline
 62
7
  6
CONTINUOUS
 70
0
 71
3
 72
9
 73
5
 74
0
 42
0.0000001
 43
0.0000001
 44
0.0000000001
 40
0.0
 40
0.0
 40
0.0
 40
0.0
 40
0.4999984763
 40
1.0
 40
1.0
 40
1.0
 40
1.0
 10
-2218.7314236674
 20
-1082.0677840399
 30
0.0
 10
-2218.7337026789
 20
-1012.9015313242
 30
0.0
 10
-2218.7351093543
 20
-874.5686042733
 30
0.0
 10
-2218.7460625833
 20
-736.2356774257
 30
0.0
 10
-2218.7455190777
 20
-667.0690031297
 30
0.0
  0
SPLINE
  5
2F2
100
AcDbEntity
  8
0
100
AcDbSpline
 62
7
  6
CONTINUOUS
 70
0
 71
3
 72
137
 73
133
 74
0
 42
0.0000001
 43
0.0000001
 44
0.0000000001
 40
0.0
 40
0.0
 40
0.0
 40
0.0
 40
0.0145474831
 40
0.0287479854
 40
0.0429798691
 40
0.0504427919
 40
0.0583147649
 40
0.0666017509
 40
0.075219871
 40
0.0796400646
 40
0.084127155
 40
0.0886763895
 40
0.0932816386
 40
0.0956040738
 40
0.0979384993
 40
0.1002840834
 40
0.1014623441
 40
0.1026404769
 40
0.103823712
 40
0.1050082768
 40
0.107384688
 40
0.1097698325
 40
0.1121633644
 40
0.1169715209
 40
0.1218045819
 40
0.1266572998
 40
0.1315243178
 40
0.136400506
 40
0.1412805483
 40
0.1510247552
 40
0.1607210541
 40
0.1655410609
 40
0.1703333159
 40
0.1750924074
 40
0.1798132188
 40
0.1844904523
 40
0.1891185891
 40
0.1914135077
 40
0.193693298
 40
0.1948287212
 40
0.1959596365
 40
0.1970859129
 40
0.1982096555
 40
0.2004434161
 40
0.202660638
 40
0.2070418948
 40
0.215573897
 40
0.219714323
 40
0.2237664127
 40
0.2277538381
 40
0.2316918795
 40
0.2394244811
 40
0.2469877033
 40
0.2544030743
 40
0.2616941078
 40
0.268883261
 40
0.2830466193
 40
0.2970751401
 40
0.3111508705
 40
0.325456018
 40
0.3545397273
 40
0.3836294267
 40
0.4127203984
 40
0.4418125616
 40
0.4709057328
 40
0.4999995711
 40
0.5290934337
 40
0.5581864964
 40
0.5872787491
 40
0.6163696057
 40
0.6454594043
 40
0.6745431182
 40
0.6888482784
 40
0.702924133
 40
0.716952708
 40
0.7311159142
 40
0.7383049861
 40
0.7455959254
 40
0.7530115672
 40
0.7605744866
 40
0.7683073811
 40
0.7722451933
 40
0.7762329124
 40
0.7802847943
 40
0.7844251284
 40
0.7929571508
 40
0.7973384821
 40
0.7995557282
 40
0.8017894784
 40
0.8029132292
 40
0.8040394989
 40
0.8051704137
 40
0.8063058432
 40
0.8085856297
 40
0.8108805528
 40
0.8155086873
 40
0.8201859194
 40
0.8249067346
 40
0.8296658172
 40
0.8344580759
 40
0.8392780952
 40
0.8489743854
 40
0.8587185788
 40
0.8635986461
 40
0.8684748461
 40
0.8733418391
 40
0.8781945557
 40
0.883027618
 40
0.8854354229
 40
0.8878368993
 40
0.8902294607
 40
0.8926157649
 40
0.8938045496
 40
0.8949914812
 40
0.8961768073
 40
0.8973589321
 40
0.8985380819
 40
0.8997157193
 40
0.9020615018
 40
0.9043959457
 40
0.9067182901
 40
0.9113237254
 40
0.9158727521
 40
0.9203599354
 40
0.9247801606
 40
0.9333982606
 40
0.9416852049
 40
0.9495572102
 40
0.9570201325
 40
0.9712520165
 40
0.9854525162
 40
1.0
 40
1.0
 40
1.0
 40
1.0
 10
-1977.9828340538
 20
-667.0673304457
 30
0.0
 10
-1977.9828340525
 20
-658.6264620883
 30
0.0
 10
-1977.7873509051
 20
-641.9452635738
 30
0.0
 10
-1976.8816121119
 20
-617.0211719824
 30
0.0
 10
-1975.5976254107
 20
-596.2307583875
 30
0.0
 10
-1974.202177146
 20
-579.1316710265
 30
0.0
 10
-1972.8961957184
 20
-565.487438899
 30
0.0
 10
-1971.3158555227
 20
-551.1976666037
 30
0.0
 10
-1969.7689638971
 20
-538.9206419644
 30
0.0
 10
-1968.380338997
 20
-528.8470776495
 30
0.0
 10
-1967.2555993267
 20
-521.1205686803
 30
0.0
 10
-1966.0525907322
 20
-513.2972103192
 30
0.0
 10
-1964.9912272395
 20
-506.7230302203
 30
0.0
 10
-1964.1042952122
 20
-501.4225654314
 30
0.0
 10
-1963.4163268649
 20
-497.418208288
 30
0.0
 10
-1962.8331042178
 20
-494.0694677137
 30
0.0
 10
-1962.3519786289
 20
-491.3839976664
 30
0.0
 10
-1961.9904841418
 20
-489.3622774492
 30
0.0
 10
-1961.6223035252
 20
-487.3379931139
 30
0.0
 10
-1961.0841864195
 20
-484.6382274657
 30
0.0
 10
-1960.3143503798
 20
-481.2742570811
 30
0.0
 10
-1959.2449432521
 20
-477.2618417027
 30
0.0
 10
-1957.6191521902
 20
-471.9411278414
 30
0.0
 10
-1955.2190479026
 20
-465.3766740558
 30
0.0
 10
-1951.7690765373
 20
-457.6993721508
 30
0.0
 10
-1947.7617834099
 20
-450.2586152467
 30
0.0
 10
-1943.2200019162
 20
-443.1020330427
 30
0.0
 10
-1938.1686038473
 20
-436.2753733515
 30
0.0
 10
-1930.8040320812
 20
-427.6749918157
 30
0.0
 10
-1920.4996243442
 20
-417.9597943156
 30
0.0
 10
-1908.9559097411
 20
-409.8169912362
 30
0.0
 10
-1899.1623571793
 20
-404.3603115722
 30
0.0
 10
-1891.6049690537
 20
-400.8192921414
 30
0.0
 10
-1883.871808575
 20
-397.8383780419
 30
0.0
 10
-1876.0132477316
 20
-395.4238279589
 30
0.0
 10
-1868.0798048823
 20
-393.5805991087
 30
0.0
 10
-1861.4282092366
 20
-392.512858188
 30
0.0
 10
-1856.1179489975
 20
-391.9443590759
 30
0.0
 10
-1852.8128115709
 20
-391.7034607275
 30
0.0
 10
-1850.1777551776
 20
-391.5803556963
 30
0.0
 10
-1848.2100038904
 20
-391.5244937453
 30
0.0
 10
-1846.248961389
 20
-391.4735852136
 30
0.0
 10
-1843.6481625953
 20
-391.4081085929
 30
0.0
 10
-1840.4143519478
 20
-391.3357438511
 30
0.0
 10
-1835.2906219525
 20
-391.2347069068
 30
0.0
 10
-1826.5124512211
 20
-391.1012550612
 30
0.0
 10
-1816.6174627401
 20
-391.03089246
 30
0.0
 10
-1806.9133841164
 20
-391.0321293477
 30
0.0
 10
-1799.8463091393
 20
-391.0682374419
 30
0.0
 10
-1792.8967113136
 20
-391.1094097013
 30
0.0
 10
-1783.8115730529
 20
-391.1570953207
 30
0.0
 10
-1772.6517126742
 20
-391.2207346903
 30
0.0
 10
-1759.474211217
 20
-391.2910643568
 30
0.0
 10
-1746.5529272309
 20
-391.3619315497
 30
0.0
 10
-1733.8486746063
 20
-391.4295898166
 30
0.0
 10
-1717.22909844
 20
-391.5175956421
 30
0.0
 10
-1696.7002887728
 20
-391.6255073936
 30
0.0
 10
-1672.1757250876
 20
-391.7507730477
 30
0.0
 10
-1647.5688781839
 20
-391.8736652779
 30
0.0
 10
-1614.2266608597
 20
-392.0349555409
 30
0.0
 10
-1572.1729560415
 20
-392.2274587944
 30
0.0
 10
-1521.5400771888
 20
-392.4357622448
 30
0.0
 10
-1470.9021736194
 20
-392.6131525925
 30
0.0
 10
-1420.2621288987
 20
-392.7505968084
 30
0.0
 10
-1369.6203074325
 20
-392.8383941266
 30
0.0
 10
-1318.9774306701
 20
-392.8687186961
 30
0.0
 10
-1268.3346168864
 20
-392.8383914216
 30
0.0
 10
-1217.6927923481
 20
-392.7506012732
 30
0.0
 10
-1167.0528254842
 20
-392.6131507678
 30
0.0
 10
-1116.4148792248
 20
-392.4357591868
 30
0.0
 10
-1065.7820068832
 20
-392.2274604861
 30
0.0
 10
-1023.7282343951
 20
-392.034961514
 30
0.0
 10
-990.3859350556
 20
-391.8736488457
 30
0.0
 10
-965.778976731
 20
-391.7508749117
 30
0.0
 10
-941.2543994593
 20
-391.6252879942
 30
0.0
 10
-920.72569133
 20
-391.5178501246
 30
0.0
 10
-904.1063066498
 20
-391.4295748793
 30
0.0
 10
-891.402001002
 20
-391.3614973022
 30
0.0
 10
-878.4807848258
 20
-391.2916263136
 30
0.0
 10
-865.3031400628
 20
-391.219807202
 30
0.0
 10
-854.1434074018
 20
-391.1581845566
 30
0.0
 10
-845.0580715766
 20
-391.1086891074
 30
0.0
 10
-838.1085489017
 20
-391.0690448289
 30
0.0
 10
-831.0414830156
 20
-391.0316013603
 30
0.0
 10
-821.3375652418
 20
-391.0315227708
 30
0.0
 10
-811.4425714077
 20
-391.1009159822
 30
0.0
 10
-802.6643361974
 20
-391.2347721841
 30
0.0
 10
-797.5405537195
 20
-391.3357284975
 30
0.0
 10
-794.3067302915
 20
-391.408099414
 30
0.0
 10
-791.7059371392
 20
-391.4735953948
 30
0.0
 10
-789.7448944499
 20
-391.5245179508
 30
0.0
 10
-787.7771419333
 20
-391.5803236471
 30
0.0
 10
-785.1420854359
 20
-391.7034589635
 30
0.0
 10
-781.8369448328
 20
-391.944360544
 30
0.0
 10
-776.5266845663
 20
-392.5128530049
 30
0.0
 10
-769.8750891201
 20
-393.5805965252
 30
0.0
 10
-761.9416434627
 20
-395.4238164429
 30
0.0
 10
-754.083093714
 20
-397.8383871295
 30
0.0
 10
-746.3499172197
 20
-400.8192573538
 30
0.0
 10
-738.7925386942
 20
-404.3603114356
 30
0.0
 10
-728.9990136765
 20
-409.8170477726
 30
0.0
 10
-717.4552731312
 20
-417.9597850271
 30
0.0
 10
-707.1507593309
 20
-427.6748885303
 30
0.0
 10
-699.7863320525
 20
-436.2754252581
 30
0.0
 10
-694.7349977638
 20
-443.1021064631
 30
0.0
 10
-690.1928233155
 20
-450.2585004331
 30
0.0
 10
-686.1859197216
 20
-457.6992311012
 30
0.0
 10
-683.3075450048
 20
-464.1059217108
 30
0.0
 10
-681.2914469323
 20
-469.3258696774
 30
0.0
 10
-679.9280063635
 20
-473.2769075895
 30
0.0
 10
-678.7100760478
 20
-477.2620325737
 30
0.0
 10
-677.8174728483
 20
-480.6084884638
 30
0.0
 10
-677.1790906219
 20
-483.2968947893
 30
0.0
 10
-676.7344133966
 20
-485.3148307838
 30
0.0
 10
-676.3335585956
 20
-487.3379946272
 30
0.0
 10
-675.9646172879
 20
-489.3625143858
 30
0.0
 10
-675.6022654824
 20
-491.3836644055
 30
0.0
 10
-675.1225401899
 20
-494.0697311064
 30
0.0
 10
-674.5377849055
 20
-497.4179631679
 30
0.0
 10
-673.8509517429
 20
-501.4225912834
 30
0.0
 10
-672.9637706294
 20
-506.7230786297
 30
0.0
 10
-671.9020313635
 20
-513.2971345571
 30
0.0
 10
-670.6992939126
 20
-521.120575552
 30
0.0
 10
-669.5742820857
 20
-528.8469978457
 30
0.0
 10
-668.1868994365
 20
-538.9207932955
 30
0.0
 10
-666.6385268571
 20
-551.1976062194
 30
0.0
 10
-665.0585096991
 20
-565.487408352
 30
0.0
 10
-663.7529809393
 20
-579.131674995
 30
0.0
 10
-662.3576244803
 20
-596.2307865493
 30
0.0
 10
-661.073172585
 20
-617.0211686729
 30
0.0
 10
-660.1674431058
 20
-641.9452645433
 30
0.0
 10
-659.9720334221
 20
-658.6264616433
 30
0.0
 10
-659.9720334217
 20
-667.0673304457
 30
0.0
  0
SPLINE
  5
2F3
100
AcDbEntity
  8
0
100
AcDbSpline
 62
7
  6
CONTINUOUS
 70
0
 71
3
 72
85
 73
81
 74
0
 42
0.0000001
 43
0.0000001
 44
0.0000000001
 40
0.0
 40
0.0
 40
0.0
 40
0.0
 40
0.0155429097
 40
0.0310855435
 40
0.0466272609
 40
0.0621675906
 40
0.0932115007
 40
0.1242463022
 40
0.1397728743
 40
0.1552947727
 40
0.170814575
 40
0.1863330762
 40
0.2018501226
 40
0.2173663052
 40
0.2328815505
 40
0.2406421217
 40
0.2484036685
 40
0.2522849424
 40
0.2561667936
 40
0.2600497117
 40
0.2639341528
 40
0.2678173351
 40
0.2717034852
 40
0.2756383242
 40
0.2795752846
 40
0.2835103679
 40
0.2874463671
 40
0.2913828724
 40
0.2953194736
 40
0.3031919939
 40
0.3110639959
 40
0.3189360827
 40
0.3268083202
 40
0.3425529737
 40
0.3582975235
 40
0.3740419958
 40
0.389786501
 40
0.4055310288
 40
0.4370200564
 40
0.4685090792
 40
0.4999981169
 40
0.5314871742
 40
0.5629762446
 40
0.5944653256
 40
0.6102098696
 40
0.6259543784
 40
0.6416988435
 40
0.6574433996
 40
0.6731880963
 40
0.6810603694
 40
0.6889324998
 40
0.6968045435
 40
0.7046770576
 40
0.7086136246
 40
0.7125500869
 40
0.7164860515
 40
0.7204211257
 40
0.7243581122
 40
0.7282929716
 40
0.7321790985
 40
0.7360624321
 40
0.7399470187
 40
0.7438300222
 40
0.74771192
 40
0.7515932303
 40
0.7593549129
 40
0.7671157173
 40
0.7826314385
 40
0.7981479248
 40
0.8136652735
 40
0.8291839654
 40
0.8447038364
 40
0.8602257799
 40
0.8757523851
 40
0.9067872081
 40
0.9378310945
 40
0.9533713361
 40
0.9689131603
 40
0.9844563138
 40
1.0
 40
1.0
 40
1.0
 40
1.0
 10
-471.6594434187
 20
-667.0677726798
 30
0.0
 10
-471.6631215022
 20
-656.1168548706
 30
0.0
 10
-472.6476181323
 20
-634.2030529823
 30
0.0
 10
-477.0360652811
 20
-601.6044001063
 30
0.0
 10
-484.318512454
 20
-569.524671185
 30
0.0
 10
-497.7743462865
 20
-527.8222277482
 30
0.0
 10
-521.4770148084
 20
-478.1965766743
 30
0.0
 10
-553.5920643902
 20
-433.563730348
 30
0.0
 10
-583.6763974015
 20
-401.7437369539
 30
0.0
 10
-608.3010104722
 20
-379.9902296841
 30
0.0
 10
-634.7988399821
 20
-360.575063755
 30
0.0
 10
-662.9442571277
 20
-343.6426432228
 30
0.0
 10
-692.5112298292
 20
-329.3407503896
 30
0.0
 10
-723.2545905946
 20
-317.7933810222
 30
0.0
 10
-749.6503500404
 20
-310.5434251558
 30
0.0
 10
-771.0932007815
 20
-306.2226777132
 30
0.0
 10
-784.6083018955
 20
-304.1304908137
 30
0.0
 10
-795.4680943665
 20
-302.8184494094
 30
0.0
 10
-803.6346484204
 20
-302.0144057019
 30
0.0
 10
-811.8190716863
 20
-301.3896471467
 30
0.0
 10
-820.0160426243
 20
-300.9436395004
 30
0.0
 10
-828.2233037119
 20
-300.6749317955
 30
0.0
 10
-836.4698874854
 20
-300.6151693435
 30
0.0
 10
-844.7539946652
 20
-300.6307957668
 30
0.0
 10
-853.0726776016
 20
-300.6252263498
 30
0.0
 10
-861.3921503753
 20
-300.6222023093
 30
0.0
 10
-869.7113105189
 20
-300.620865818
 30
0.0
 10
-878.0315381337
 20
-300.6205059662
 30
0.0
 10
-889.1252831329
 20
-300.6203296776
 30
0.0
 10
-902.9918229785
 20
-300.6188311276
 30
0.0
 10
-919.6311500114
 20
-300.6163897399
 30
0.0
 10
-936.2702779173
 20
-300.6147097498
 30
0.0
 10
-958.456164245
 20
-300.6132156666
 30
0.0
 10
-986.1886761793
 20
-300.6122423931
 30
0.0
 10
-1019.4676528353
 20
-300.6108914749
 30
0.0
 10
-1052.7465250635
 20
-300.6097036864
 30
0.0
 10
-1086.025381753
 20
-300.6090251273
 30
0.0
 10
-1130.3972284567
 20
-300.6085251162
 30
0.0
 10
-1185.8620385327
 20
-300.6081447981
 30
0.0
 10
-1252.4198066282
 20
-300.6089808704
 30
0.0
 10
-1318.9775956339
 20
-300.6107097004
 30
0.0
 10
-1385.5354181122
 20
-300.6129315922
 30
0.0
 10
-1452.0932710989
 20
-300.6143597989
 30
0.0
 10
-1507.5581637337
 20
-300.6138162762
 30
0.0
 10
-1551.9300619883
 20
-300.612350893
 30
0.0
 10
-1585.2089276059
 20
-300.6113032526
 30
0.0
 10
-1618.4878017324
 20
-300.6108736912
 30
0.0
 10
-1651.7668082575
 20
-300.6106199916
 30
0.0
 10
-1679.4993801313
 20
-300.6101866085
 30
0.0
 10
-1701.6853527336
 20
-300.6098427587
 30
0.0
 10
-1718.3245658664
 20
-300.6096202783
 30
0.0
 10
-1734.9639488581
 20
-300.609467328
 30
0.0
 10
-1748.8304896939
 20
-300.6087648118
 30
0.0
 10
-1759.9241759092
 20
-300.6074791596
 30
0.0
 10
-1768.2443247508
 20
-300.6068779485
 30
0.0
 10
-1776.5634239099
 20
-300.6073748633
 30
0.0
 10
-1784.8828843651
 20
-300.6096664978
 30
0.0
 10
-1793.2015944499
 20
-300.6145973442
 30
0.0
 10
-1801.4857152259
 20
-300.5980173826
 30
0.0
 10
-1809.7324143096
 20
-300.6570302634
 30
0.0
 10
-1817.9398655288
 20
-300.9259155862
 30
0.0
 10
-1826.1371151325
 20
-301.3716813348
 30
0.0
 10
-1834.3217677661
 20
-301.9960035745
 30
0.0
 10
-1842.4884829708
 20
-302.7996298194
 30
0.0
 10
-1853.3484627933
 20
-304.1114341551
 30
0.0
 10
-1866.8637439904
 20
-306.2044603957
 30
0.0
 10
-1888.306770294
 20
-310.5272514301
 30
0.0
 10
-1914.7030934704
 20
-317.7779446534
 30
0.0
 10
-1945.4455859039
 20
-329.330073091
 30
0.0
 10
-1975.0110132388
 20
-343.6363033041
 30
0.0
 10
-2003.1554987317
 20
-360.5709298734
 30
0.0
 10
-2029.6528272346
 20
-379.9871064372
 30
0.0
 10
-2054.2770612051
 20
-401.7411839958
 30
0.0
 10
-2084.3611328834
 20
-433.561503026
 30
0.0
 10
-2116.4763119408
 20
-478.1942313979
 30
0.0
 10
-2140.1794046321
 20
-527.8196032165
 30
0.0
 10
-2153.6356075327
 20
-569.5219274419
 30
0.0
 10
-2160.9182960519
 20
-601.6019934997
 30
0.0
 10
-2165.307037297
 20
-634.2016039234
 30
0.0
 10
-2166.2917024135
 20
-656.1163151085
 30
0.0
 10
-2166.2954241668
 20
-667.0677800464
 30
0.0
  0
SPLINE
  5
2F4
100
AcDbEntity
  8
0
100
AcDbSpline
 62
7
  6
CONTINUOUS
 70
0
 71
3
 72
96
 73
92
 74
0
 42
0.0000001
 43
0.0000001
 44
0.0000000001
 40
0.0
 40
0.0
 40
0.0
 40
0.0
 40
0.0156308097
 40
0.0312698889
 40
0.0469025242
 40
0.0625330918
 40
0.0781636723
 40
0.0937925495
 40
0.1094198043
 40
0.1250458955
 40
0.1406702884
 40
0.1562933969
 40
0.1719155976
 40
0.1875369749
 40
0.2031575264
 40
0.2109696969
 40
0.218781894
 40
0.2344015365
 40
0.2422129479
 40
0.2461189598
 40
0.2500249624
 40
0.2539309208
 40
0.2578368754
 40
0.261742808
 40
0.2656487434
 40
0.2676017327
 40
0.2695547226
 40
0.271507707
 40
0.2734606807
 40
0.2754136582
 40
0.2773666356
 40
0.2812725901
 40
0.2851785445
 40
0.2890844992
 40
0.292990454
 40
0.2968964088
 40
0.3047083184
 40
0.312520228
 40
0.3203321377
 40
0.3281440474
 40
0.3437678668
 40
0.3593916862
 40
0.3750155055
 40
0.3906393248
 40
0.4062631442
 40
0.437510783
 40
0.4687584217
 40
0.5000060603
 40
0.531253699
 40
0.5625013378
 40
0.5937489766
 40
0.609372796
 40
0.6249966154
 40
0.6406204347
 40
0.6562442539
 40
0.671868073
 40
0.6874918918
 40
0.695303801
 40
0.7031157099
 40
0.7070216643
 40
0.7109276185
 40
0.7148335727
 40
0.7187395266
 40
0.7226454806
 40
0.7245984575
 40
0.7265514355
 40
0.72850441
 40
0.7304573932
 40
0.7324103794
 40
0.7343633713
 40
0.7382692913
 40
0.7421752208
 40
0.7499866542
 40
0.7577981111
 40
0.7656094542
 40
0.773420984
 40
0.7812326979
 40
0.7968532951
 40
0.8124747282
 40
0.8280952182
 40
0.8437166011
 40
0.8593389391
 40
0.8749626207
 40
0.890587569
 40
0.9062136193
 40
0.9218410559
 40
0.9374702672
 40
0.9530997833
 40
0.9687312219
 40
0.9843694111
 40
1.0
 40
1.0
 40
1.0
 40
1.0
 10
-2170.9038199166
 20
-667.0633626688
 30
0.0
 10
-2170.9119969525
 20
-678.1626126284
 30
0.0
 10
-2169.9404715169
 20
-700.3800617709
 30
0.0
 10
-2165.5521722937
 20
-733.436201953
 30
0.0
 10
-2158.2567485591
 20
-765.9775217487
 30
0.0
 10
-2148.1039170041
 20
-797.7366453531
 30
0.0
 10
-2135.1708094078
 20
-828.4660096255
 30
0.0
 10
-2119.5571877675
 20
-857.9215188403
 30
0.0
 10
-2101.3833953385
 20
-885.8662065334
 30
0.0
 10
-2080.8023718383
 20
-912.0843369597
 30
0.0
 10
-2057.963026145
 20
-936.3584573687
 30
0.0
 10
-2033.0109864367
 20
-958.4525227082
 30
0.0
 10
-2006.1481906583
 20
-978.1762416566
 30
0.0
 10
-1977.5963308914
 20
-995.3585560244
 30
0.0
 10
-1952.5853040939
 20
-1007.4361524769
 30
0.0
 10
-1931.9805495275
 20
-1015.6820889401
 30
0.0
 10
-1911.0216698879
 20
-1022.9773311913
 30
0.0
 10
-1889.5778912262
 20
-1028.8102391518
 30
0.0
 10
-1870.5341546961
 20
-1032.6009847793
 30
0.0
 10
-1859.5839913409
 20
-1034.3875785177
 30
0.0
 10
-1851.343947091
 20
-1035.5486030362
 30
0.0
 10
-1843.080595427
 20
-1036.5299203205
 30
0.0
 10
-1834.7978124254
 20
-1037.3303668887
 30
0.0
 10
-1826.4995723766
 20
-1037.9497975659
 30
0.0
 10
-1819.57474921
 20
-1038.3160391864
 30
0.0
 10
-1814.0312063398
 20
-1038.5185790755
 30
0.0
 10
-1809.8721203301
 20
-1038.625300303
 30
0.0
 10
-1805.7121207315
 20
-1038.6883445972
 30
0.0
 10
-1801.5517120221
 20
-1038.6984055579
 30
0.0
 10
-1797.39136974
 20
-1038.692954756
 30
0.0
 10
-1791.8442214399
 20
-1038.6920196671
 30
0.0
 10
-1784.9102931895
 20
-1038.6914715505
 30
0.0
 10
-1776.5895763439
 20
-1038.6923175465
 30
0.0
 10
-1768.2688600402
 20
-1038.6923949305
 30
0.0
 10
-1759.9481432459
 20
-1038.6922818157
 30
0.0
 10
-1748.8538541576
 20
-1038.6919644975
 30
0.0
 10
-1734.9859927879
 20
-1038.6928937895
 30
0.0
 10
-1718.3445594077
 20
-1038.6957287452
 30
0.0
 10
-1701.703125846
 20
-1038.6981418601
 30
0.0
 10
-1679.5145474117
 20
-1038.6982824738
 30
0.0
 10
-1651.7788244308
 20
-1038.6968396435
 30
0.0
 10
-1618.4959568273
 20
-1038.695462877
 30
0.0
 10
-1585.2130892661
 20
-1038.6975646232
 30
0.0
 10
-1551.9302221835
 20
-1038.7029802825
 30
0.0
 10
-1507.5530657039
 20
-1038.7075981408
 30
0.0
 10
-1452.0816197347
 20
-1038.7113444107
 30
0.0
 10
-1385.5158847764
 20
-1038.705068817
 30
0.0
 10
-1318.950150428
 20
-1038.6959047811
 30
0.0
 10
-1252.3844158677
 20
-1038.6874681055
 30
0.0
 10
-1185.818680709
 20
-1038.6840231749
 30
0.0
 10
-1130.3472346322
 20
-1038.6849531448
 30
0.0
 10
-1085.9700779016
 20
-1038.6878561734
 30
0.0
 10
-1052.6872105152
 20
-1038.6912495595
 30
0.0
 10
-1019.4043433624
 20
-1038.6958005778
 30
0.0
 10
-986.1214765925
 20
-1038.7016243722
 30
0.0
 10
-952.8386105107
 20
-1038.708980833
 30
0.0
 10
-925.1028896168
 20
-1038.7169348348
 30
0.0
 10
-902.9143139214
 20
-1038.7246984837
 30
0.0
 10
-889.0464547631
 20
-1038.7301993843
 30
0.0
 10
-877.9521681264
 20
-1038.7354252035
 30
0.0
 10
-869.6314534531
 20
-1038.7395001613
 30
0.0
 10
-861.3107393944
 20
-1038.7437935699
 30
0.0
 10
-852.9900244462
 20
-1038.7474628536
 30
0.0
 10
-846.05609881
 20
-1038.7523839009
 30
0.0
 10
-840.5089515812
 20
-1038.7549751483
 30
0.0
 10
-836.3486099146
 20
-1038.7616688311
 30
0.0
 10
-832.1881997276
 20
-1038.7520312617
 30
0.0
 10
-828.0281931659
 20
-1038.6897142633
 30
0.0
 10
-823.8690910947
 20
-1038.5836408426
 30
0.0
 10
-818.3255322863
 20
-1038.3819448733
 30
0.0
 10
-811.4006548393
 20
-1038.0164143433
 30
0.0
 10
-800.3367308696
 20
-1037.1917418435
 30
0.0
 10
-786.5445077394
 20
-1035.7066507933
 30
0.0
 10
-770.0876938757
 20
-1033.2057012676
 30
0.0
 10
-753.7619234832
 20
-1029.9544812792
 30
0.0
 10
-737.6036039099
 20
-1025.9513670973
 30
0.0
 10
-716.3313346282
 20
-1019.6275112391
 30
0.0
 10
-690.3216573797
 20
-1009.884091645
 30
0.0
 10
-660.3257995309
 20
-995.37139606
 30
0.0
 10
-631.7818000871
 20
-978.175074426
 30
0.0
 10
-604.9253963346
 20
-958.4465159368
 30
0.0
 10
-579.9782339237
 20
-936.3492876724
 30
0.0
 10
-557.1431564191
 20
-912.0739027532
 30
0.0
 10
-536.56371513
 20
-885.8573023226
 30
0.0
 10
-518.3933946831
 20
-857.9135496858
 30
0.0
 10
-502.7814234256
 20
-828.4604627531
 30
0.0
 10
-489.8493621648
 20
-797.7336345132
 30
0.0
 10
-479.6974117062
 20
-765.9768974994
 30
0.0
 10
-472.4037201105
 20
-733.4374837246
 30
0.0
 10
-468.0151893174
 20
-700.3830828507
 30
0.0
 10
-467.0430266985
 20
-678.166440905
 30
0.0
 10
-467.0510334649
 20
-667.0673476321
 30
0.0
  0
SPLINE
  5
2F5
100
AcDbEntity
  8
0
100
AcDbSpline
 62
7
  6
CONTINUOUS
 70
0
 71
3
 72
11
 73
7
 74
0
 42
0.0000001
 43
0.0000001
 44
0.0000000001
 40
0.0
 40
0.0
 40
0.0
 40
0.0
 40
0.2500257754
 40
0.4999984311
 40
0.7499698792
 40
1.0
 40
1.0
 40
1.0
 40
1.0
 10
-428.9833950305
 20
-1085.808366777
 30
0.0
 10
-428.4952708097
 20
-1085.7994019173
 30
0.0
 10
-427.5075220175
 20
-1085.6187967785
 30
0.0
 10
-426.2616378281
 20
-1084.7775275678
 30
0.0
 10
-425.4222205089
 20
-1083.5302928945
 30
0.0
 10
-425.2433009367
 20
-1082.5423314472
 30
0.0
 10
-425.2347129389
 20
-1082.0541919643
 30
0.0
  0
SPLINE
  5
2F6
100
AcDbEntity
  8
0
100
AcDbSpline
 62
7
  6
CONTINUOUS
 70
0
 71
3
 72
19
 73
15
 74
0
 42
0.0000001
 43
0.0000001
 44
0.0000000001
 40
0.0
 40
0.0
 40
0.0
 40
0.0
 40
0.1250036287
 40
0.1875009447
 40
0.2499989058
 40
0.3124985648
 40
0.3749994647
 40
0.4374998448
 40
0.4999999345
 40
0.5625003995
 40
0.6250012534
 40
0.7500019342
 40
0.8749965173
 40
1.0
 40
1.0
 40
1.0
 40
1.0
 10
-2208.9712882761
 20
-1085.8048693339
 30
0.0
 10
-2134.8030254225
 20
-1085.710557653
 30
0.0
 10
-2023.5535010972
 20
-1085.4425676633
 30
0.0
 10
-1875.2219674554
 20
-1085.2215086234
 30
0.0
 10
-1763.975725002
 20
-1085.1443075812
 30
0.0
 10
-1652.7273467766
 20
-1085.1761344095
 30
0.0
 10
-1541.4775353519
 20
-1085.1733523691
 30
0.0
 10
-1430.2274680481
 20
-1085.1684235179
 30
0.0
 10
-1318.9776583975
 20
-1085.1697803313
 30
0.0
 10
-1207.7275692734
 20
-1085.1858554655
 30
0.0
 10
-1059.3940411036
 20
-1085.1906653156
 30
0.0
 10
-873.9809331482
 20
-1085.0975340809
 30
0.0
 10
-651.4831294373
 20
-1085.2915234286
 30
0.0
 10
-503.1524342936
 20
-1085.6990262761
 30
0.0
 10
-428.9842717382
 20
-1085.8035269319
 30
0.0
  0
SPLINE
  5
2F7
100
AcDbEntity
  8
0
100
AcDbSpline
 62
7
  6
CONTINUOUS
 70
0
 71
3
 72
113
 73
109
 74
0
 42
0.0000001
 43
0.0000001
 44
0.0000000001
 40
0.0
 40
0.0
 40
0.0
 40
0.0
 40
0.007814914
 40
0.0156307092
 40
0.0195380364
 40
0.0234452124
 40
0.0312599979
 40
0.0390759077
 40
0.0468909296
 40
0.0547047112
 40
0.0625182131
 40
0.0703317312
 40
0.0781449475
 40
0.0859578688
 40
0.0937705841
 40
0.109391736
 40
0.1250124154
 40
0.1406334388
 40
0.1562549586
 40
0.164068054
 40
0.1718812517
 40
0.1796942295
 40
0.1875070703
 40
0.2031291307
 40
0.2187519869
 40
0.226564318
 40
0.2343761838
 40
0.2421876961
 40
0.2499994135
 40
0.2539055145
 40
0.2578115448
 40
0.2617175588
 40
0.2656235803
 40
0.2675766388
 40
0.2695296901
 40
0.2714827125
 40
0.2734357347
 40
0.2753887498
 40
0.2773417655
 40
0.2792947812
 40
0.2812477965
 40
0.2851538274
 40
0.2890598585
 40
0.2968719211
 40
0.3046839835
 40
0.312496046
 40
0.3203081085
 40
0.328120171
 40
0.3437442962
 40
0.3593684213
 40
0.3749925464
 40
0.3906166715
 40
0.4062407965
 40
0.4374890467
 40
0.4687372969
 40
0.499985547
 40
0.5312337972
 40
0.5624820474
 40
0.5937302977
 40
0.6093544228
 40
0.6249785479
 40
0.640602673
 40
0.6562267979
 40
0.6718509228
 40
0.6874750473
 40
0.6952871093
 40
0.7030991711
 40
0.7070052019
 40
0.7109112326
 40
0.7148172632
 40
0.7187232935
 40
0.7206763086
 40
0.7226293239
 40
0.7245823393
 40
0.7265353547
 40
0.7284883762
 40
0.7304414045
 40
0.734347519
 40
0.7382535908
 40
0.7421595934
 40
0.7460655948
 40
0.7499715895
 40
0.7577832362
 40
0.7655946876
 40
0.7734062942
 40
0.7812178008
 40
0.7890295998
 40
0.7968415496
 40
0.8046536711
 40
0.8124656197
 40
0.8280860593
 40
0.8437073297
 40
0.8593293509
 40
0.8749518323
 40
0.8905759708
 40
0.9062008284
 40
0.921827959
 40
0.9296433337
 40
0.9374585836
 40
0.9452748868
 40
0.9530929408
 40
0.9609115808
 40
0.968729307
 40
0.9726380373
 40
0.9765467189
 40
0.9843647881
 40
0.9921840622
 40
1.0
 40
1.0
 40
1.0
 40
1.0
 10
-2170.9049801706
 20
-667.0835455722
 30
0.0
 10
-2170.8342107579
 20
-661.5344427931
 30
0.0
 10
-2170.5429435089
 20
-650.4366357637
 30
0.0
 10
-2169.6920584159
 20
-636.5844317016
 30
0.0
 10
-2168.6526461069
 20
-625.5328274834
 30
0.0
 10
-2167.3486092388
 20
-614.51001448
 30
0.0
 10
-2165.2175008011
 20
-600.794635886
 30
0.0
 10
-2161.9127315487
 20
-584.4712533139
 30
0.0
 10
-2157.9074908059
 20
-568.3062211555
 30
0.0
 10
-2153.1987366937
 20
-552.3334218991
 30
0.0
 10
-2147.7796594977
 20
-536.5884502997
 30
0.0
 10
-2141.6642638922
 20
-521.1011795729
 30
0.0
 10
-2134.8699954504
 20
-505.9000317588
 30
0.0
 10
-2127.4056643003
 20
-491.0166301445
 30
0.0
 10
-2116.5797685951
 20
-471.6408004572
 30
0.0
 10
-2101.4450643158
 20
-448.3533080227
 30
0.0
 10
-2080.8751314856
 20
-422.138775371
 30
0.0
 10
-2058.0492859268
 20
-397.8612405737
 30
0.0
 10
-2037.2600750095
 20
-379.439766862
 30
0.0
 10
-2019.6756361045
 20
-365.8952031682
 30
0.0
 10
-2006.0372397345
 20
-356.3432294725
 30
0.0
 10
-1991.9759094454
 20
-347.4255256732
 30
0.0
 10
-1972.700531677
 20
-336.4191491402
 30
0.0
 10
-1947.6914870689
 20
-324.3308949524
 30
0.0
 10
-1921.6759039783
 20
-314.5958120782
 30
0.0
 10
-1900.4008826169
 20
-308.2691382731
 30
0.0
 10
-1884.2409949463
 20
-304.265418576
 30
0.0
 10
-1867.9142271821
 20
-301.0131232542
 30
0.0
 10
-1854.1986881714
 20
-298.927226537
 30
0.0
 10
-1843.1807652527
 20
-297.6170802602
 30
0.0
 10
-1834.8975050348
 20
-296.8147437381
 30
0.0
 10
-1826.5989154627
 20
-296.1922296296
 30
0.0
 10
-1819.6736462246
 20
-295.8246033101
 30
0.0
 10
-1814.1297647707
 20
-295.6198637861
 30
0.0
 10
-1809.9703899199
 20
-295.510979029
 30
0.0
 10
-1805.8100453347
 20
-295.4509952008
 30
0.0
 10
-1801.6493684073
 20
-295.4354232697
 30
0.0
 10
-1797.4887242945
 20
-295.4437342313
 30
0.0
 10
-1793.3280759661
 20
-295.4427098264
 30
0.0
 10
-1789.167429811
 20
-295.4437671681
 30
0.0
 10
-1783.6199009884
 20
-295.4439457959
 30
0.0
 10
-1776.6854902597
 20
-295.4435155678
 30
0.0
 10
-1765.5904323696
 20
-295.4436713423
 30
0.0
 10
-1751.7216097888
 20
-295.4437357903
 30
0.0
 10
-1735.0790225515
 20
-295.442694404
 30
0.0
 10
-1718.4364356364
 20
-295.4394536039
 30
0.0
 10
-1701.7938484179
 20
-295.4376192399
 30
0.0
 10
-1679.603731891
 20
-295.4376060576
 30
0.0
 10
-1651.8660862539
 20
-295.4387777704
 30
0.0
 10
-1618.580911457
 20
-295.4399822309
 30
0.0
 10
-1585.2957367552
 20
-295.437753785
 30
0.0
 10
-1552.0105623229
 20
-295.4336648752
 30
0.0
 10
-1507.6303296839
 20
-295.4285718914
 30
0.0
 10
-1452.1550384482
 20
-295.4240396271
 30
0.0
 10
-1385.5846891215
 20
-295.4304540386
 30
0.0
 10
-1319.0143404325
 20
-295.4396529881
 30
0.0
 10
-1252.4439915182
 20
-295.4480968196
 30
0.0
 10
-1185.8736420134
 20
-295.4516114141
 30
0.0
 10
-1130.3983506374
 20
-295.4507372171
 30
0.0
 10
-1086.0181176798
 20
-295.4477301779
 30
0.0
 10
-1052.7329431103
 20
-295.4444323439
 30
0.0
 10
-1019.4477687668
 20
-295.4399924017
 30
0.0
 10
-986.1625948199
 20
-295.4341700317
 30
0.0
 10
-952.8774215873
 20
-295.4266784427
 30
0.0
 10
-925.1397780974
 20
-295.4185779923
 30
0.0
 10
-902.9496642358
 20
-295.4109409733
 30
0.0
 10
-889.0808437964
 20
-295.4053450799
 30
0.0
 10
-877.985788103
 20
-295.4000747409
 30
0.0
 10
-869.6644967026
 20
-295.3959564289
 30
0.0
 10
-861.3432056692
 20
-295.3916722308
 30
0.0
 10
-854.408796579
 20
-295.3884830271
 30
0.0
 10
-848.8612694567
 20
-295.3855127443
 30
0.0
 10
-844.7006241422
 20
-295.3834965079
 30
0.0
 10
-840.5399777096
 20
-295.3809933155
 30
0.0
 10
-836.3793356113
 20
-295.3722000877
 30
0.0
 10
-832.2186527308
 20
-295.3864251553
 30
0.0
 10
-826.6714559548
 20
-295.4619625864
 30
0.0
 10
-819.7397453401
 20
-295.6800202781
 30
0.0
 10
-811.4292494979
 20
-296.1168839309
 30
0.0
 10
-803.1303888763
 20
-296.7362867997
 30
0.0
 10
-794.8468820308
 20
-297.5349585898
 30
0.0
 10
-783.8287882497
 20
-298.8424970344
 30
0.0
 10
-770.1127734316
 20
-300.9241396489
 30
0.0
 10
-753.7860394217
 20
-304.1758868023
 30
0.0
 10
-737.6271366676
 20
-308.1787851762
 30
0.0
 10
-721.6689265881
 20
-312.9200240232
 30
0.0
 10
-705.9484521869
 20
-318.3988065272
 30
0.0
 10
-690.4946653586
 20
-324.5910667735
 30
0.0
 10
-675.3465529412
 20
-331.4985276509
 30
0.0
 10
-655.592878421
 20
-341.6155487768
 30
0.0
 10
-631.8006053999
 20
-355.9471267786
 30
0.0
 10
-604.9421648701
 20
-375.673086012
 30
0.0
 10
-579.9914915404
 20
-397.767931652
 30
0.0
 10
-557.1598916045
 20
-422.0462157589
 30
0.0
 10
-536.5748457108
 20
-448.2579628657
 30
0.0
 10
-518.4067368915
 20
-476.2019752717
 30
0.0
 10
-505.3908559605
 20
-500.7470899908
 30
0.0
 10
-496.3254187624
 20
-521.015032099
 30
0.0
 10
-490.2115937422
 20
-536.508356599
 30
0.0
 10
-484.7872209746
 20
-552.2577462119
 30
0.0
 10
-480.0525224739
 20
-568.230641641
 30
0.0
 10
-476.0262633361
 20
-584.3977917827
 30
0.0
 10
-473.289165245
 20
-598.0102104988
 30
0.0
 10
-471.4858982441
 20
-608.9666023245
 30
0.0
 10
-469.9461867331
 20
-619.9633955493
 30
0.0
 10
-468.4939760129
 20
-633.7721689633
 30
0.0
 10
-467.4295272475
 20
-650.3966492156
 30
0.0
 10
-467.1199774458
 20
-661.4977360185
 30
0.0
 10
-467.0524937055
 20
-667.0476067969
 30
0.0
  0
SPLINE
  5
2F8
100
AcDbEntity
  8
0
100
AcDbSpline
 62
7
  6
CONTINUOUS
 70
0
 71
3
 72
8
 73
4
 74
0
 42
0.0000001
 43
0.0000001
 44
0.0000000001
 40
0.0
 40
0.0
 40
0.0
 40
0.0
 40
1.0
 40
1.0
 40
1.0
 40
1.0
 10
-2212.0084477282
 20
-667.0476463897
 30
0.0
 10
-2198.3072925032
 20
-667.0603109298
 30
0.0
 10
-2184.60613681
 20
-667.0725167417
 30
0.0
 10
-2170.9049801706
 20
-667.0835455722
 30
0.0
  0
SPLINE
  5
2F9
100
AcDbEntity
  8
0
100
AcDbSpline
 62
7
  6
CONTINUOUS
 70
0
 71
3
 72
20
 73
16
 74
0
 42
0.0000001
 43
0.0000001
 44
0.0000000001
 40
0.0
 40
0.0
 40
0.0
 40
0.0
 40
0.0312499998
 40
0.0625000147
 40
0.0937500423
 40
0.1250000667
 40
0.1875001685
 40
0.2500002418
 40
0.3125002975
 40
0.3750003618
 40
0.5000004619
 40
0.6250003374
 40
0.7499999785
 40
0.8749997799
 40
1.0
 40
1.0
 40
1.0
 40
1.0
 10
-2212.7213037578
 20
-252.0802178129
 30
0.0
 10
-2212.7134633608
 20
-256.4027951148
 30
0.0
 10
-2212.6942209746
 20
-265.0479449189
 30
0.0
 10
-2212.6708295443
 20
-278.0156832493
 30
0.0
 10
-2212.6504200113
 20
-290.9834296783
 30
0.0
 10
-2212.6212371936
 20
-308.273764527
 30
0.0
 10
-2212.600339032
 20
-329.8867056823
 30
0.0
 10
-2212.5622387968
 20
-355.8222165758
 30
0.0
 10
-2212.5217969054
 20
-381.7577184016
 30
0.0
 10
-2212.4708572235
 20
-416.3383866355
 30
0.0
 10
-2212.4097228536
 20
-459.5641951955
 30
0.0
 10
-2212.2944967987
 20
-511.4350331641
 30
0.0
 10
-2212.1543998888
 20
-563.3057602249
 30
0.0
 10
-2212.0281930799
 20
-615.1765837206
 30
0.0
 10
-2212.005697521
 20
-649.7572784126
 30
0.0
 10
-2212.0084477282
 20
-667.0476463897
 30
0.0
  0
SPLINE
  5
2FA
100
AcDbEntity
  8
0
100
AcDbSpline
 62
7
  6
CONTINUOUS
 70
0
 71
3
 72
19
 73
15
 74
0
 42
0.0000001
 43
0.0000001
 44
0.0000000001
 40
0.0
 40
0.0
 40
0.0
 40
0.0
 40
0.1250034828
 40
0.2499980686
 40
0.3749987458
 40
0.437499601
 40
0.5000000678
 40
0.5625001567
 40
0.6250005353
 40
0.6875014353
 40
0.7500010955
 40
0.8124990561
 40
0.8749963713
 40
1.0
 40
1.0
 40
1.0
 40
1.0
 10
-428.9842761588
 20
-248.330120107
 30
0.0
 10
-503.1524385996
 20
-248.4346208476
 30
0.0
 10
-651.4831350239
 20
-248.8421197629
 30
0.0
 10
-873.9809376045
 20
-249.0361481602
 30
0.0
 10
-1059.3940452816
 20
-248.9429809946
 30
0.0
 10
-1207.7275727267
 20
-248.9477963794
 30
0.0
 10
-1318.9776629607
 20
-248.9638802811
 30
0.0
 10
-1430.2274720171
 20
-248.9652379582
 30
0.0
 10
-1541.4775377466
 20
-248.960305949
 30
0.0
 10
-1652.7273487114
 20
-248.9575206132
 30
0.0
 10
-1763.9757271277
 20
-248.9893507019
 30
0.0
 10
-1875.2219692075
 20
-248.9121472617
 30
0.0
 10
-2023.5535016954
 20
-248.6910819954
 30
0.0
 10
-2134.8030252142
 20
-248.4230890281
 30
0.0
 10
-2208.9712878577
 20
-248.3287777002
 30
0.0
  0
SPLINE
  5
2FB
100
AcDbEntity
  8
0
100
AcDbSpline
 62
7
  6
CONTINUOUS
 70
0
 71
3
 72
11
 73
7
 74
0
 42
0.0000001
 43
0.0000001
 44
0.0000000001
 40
0.0
 40
0.0
 40
0.0
 40
0.0
 40
0.2500301602
 40
0.5000016172
 40
0.7499743187
 40
1.0
 40
1.0
 40
1.0
 40
1.0
 10
-425.2347132514
 20
-252.0813925476
 30
0.0
 10
-425.2433025653
 20
-251.5932583601
 30
0.0
 10
-425.4222170782
 20
-250.6053082866
 30
0.0
 10
-426.261616773
 20
-249.3580812838
 30
0.0
 10
-427.5074764845
 20
-248.5168107012
 30
0.0
 10
-428.4952110461
 20
-248.3361833486
 30
0.0
 10
-428.9833297024
 20
-248.3272167823
 30
0.0
  0
SPLINE
  5
2FC
100
AcDbEntity
  8
0
100
AcDbSpline
 62
7
  6
CONTINUOUS
 70
0
 71
3
 72
8
 73
4
 74
0
 42
0.0000001
 43
0.0000001
 44
0.0000000001
 40
0.0
 40
0.0
 40
0.0
 40
0.0
 40
1.0
 40
1.0
 40
1.0
 40
1.0
 10
-467.0524937055
 20
-667.0476067969
 30
0.0
 10
-453.3504732166
 20
-667.061160124
 30
0.0
 10
-439.6484515566
 20
-667.0735303134
 30
0.0
 10
-425.9464295496
 20
-667.0854504688
 30
0.0
  0
SPLINE
  5
2FD
100
AcDbEntity
  8
0
100
AcDbSpline
 62
7
  6
CONTINUOUS
 70
0
 71
3
 72
16
 73
12
 74
0
 42
0.0000001
 43
0.0000001
 44
0.0000000001
 40
0.0
 40
0.0
 40
0.0
 40
0.0
 40
0.0053486409
 40
0.0188073809
 40
0.0409717469
 40
0.0724364001
 40
0.1642280773
 40
0.2918554644
 40
0.4502088933
 40
0.6287148406
 40
1.0
 40
1.0
 40
1.0
 40
1.0
 10
-2218.7314259725
 20
-1082.0677868811
 30
0.0
 10
-2218.7207730959
 20
-1082.0666311324
 30
0.0
 10
-2218.6829899509
 20
-1082.0671245184
 30
0.0
 10
-2218.6010096547
 20
-1082.0651450435
 30
0.0
 10
-2218.4665567064
 20
-1082.0647690118
 30
0.0
 10
-2218.1752602632
 20
-1082.0628793971
 30
0.0
 10
-2217.672620808
 20
-1082.0615025742
 30
0.0
 10
-2216.9158109421
 20
-1082.0596434794
 30
0.0
 10
-2215.9852615943
 20
-1082.0582930404
 30
0.0
 10
-2214.5665778236
 20
-1082.0568509368
 30
0.0
 10
-2213.4651336815
 20
-1082.0564635775
 30
0.0
 10
-2212.7213064998
 20
-1082.0564415987
 30
0.0
  0
SPLINE
  5
2FE
100
AcDbEntity
  8
0
100
AcDbSpline
 62
7
  6
CONTINUOUS
 70
0
 71
3
 72
17
 73
13
 74
0
 42
0.0000001
 43
0.0000001
 44
0.0000000001
 40
0.0
 40
0.0
 40
0.0
 40
0.0
 40
0.1250000651
 40
0.1875001663
 40
0.2500002396
 40
0.3125002952
 40
0.3750003593
 40
0.5000004594
 40
0.625000336
 40
0.7499999773
 40
0.874999779
 40
1.0
 40
1.0
 40
1.0
 40
1.0
 10
-2212.7213064998
 20
-1082.0564415987
 30
0.0
 10
-2212.6872051829
 20
-1064.7652916113
 30
0.0
 10
-2212.6348922879
 20
-1038.8285550991
 30
0.0
 10
-2212.6001882817
 20
-1004.2461884274
 30
0.0
 10
-2212.5622243415
 20
-978.3094221515
 30
0.0
 10
-2212.5216712329
 20
-952.3726652502
 30
0.0
 10
-2212.4710671669
 20
-917.7903228395
 30
0.0
 10
-2212.4093836454
 20
-874.562422886
 30
0.0
 10
-2212.2948678304
 20
-822.6890729782
 30
0.0
 10
-2212.1535595605
 20
-770.8158367953
 30
0.0
 10
-2212.0298749839
 20
-718.9425012746
 30
0.0
 10
-2212.0027634525
 20
-684.3601321494
 30
0.0
 10
-2212.0084412655
 20
-667.0689278989
 30
0.0
  0
SPLINE
  5
2FF
100
AcDbEntity
  8
0
100
AcDbSpline
 62
7
  6
CONTINUOUS
 70
0
 71
3
 72
9
 73
5
 74
0
 42
0.0000001
 43
0.0000001
 44
0.0000000001
 40
0.0
 40
0.0
 40
0.0
 40
0.0
 40
0.5000015237
 40
1.0
 40
1.0
 40
1.0
 40
1.0
 10
-2218.7455190778
 20
-667.0690031298
 30
0.0
 10
-2218.7460627565
 20
-597.9019224668
 30
0.0
 10
-2218.7351073837
 20
-459.5681828927
 30
0.0
 10
-2218.7337067559
 20
-321.2344431151
 30
0.0
 10
-2218.7314236674
 20
-252.06778404
 30
0.0
  0
SPLINE
  5
300
100
AcDbEntity
  8
0
100
AcDbSpline
 62
7
  6
CONTINUOUS
 70
0
 71
3
 72
16
 73
12
 74
0
 42
0.0000001
 43
0.0000001
 44
0.0000000001
 40
0.0
 40
0.0
 40
0.0
 40
0.0
 40
0.3712545592
 40
0.5497596962
 40
0.7081187992
 40
0.8357547285
 40
0.927554696
 40
0.9590225434
 40
0.9811893666
 40
0.9946499207
 40
1.0
 40
1.0
 40
1.0
 40
1.0
 10
-425.2347103976
 20
-1082.055349579
 30
0.0
 10
-424.4907990862
 20
-1082.0553733693
 30
0.0
 10
-423.389202354
 20
-1082.0557976116
 30
0.0
 10
-421.9702932418
 20
-1082.0573778174
 30
0.0
 10
-421.0395343955
 20
-1082.0588580183
 30
0.0
 10
-420.282534208
 20
-1082.060895331
 30
0.0
 10
-419.7797518559
 20
-1082.0624053589
 30
0.0
 10
-419.4883778848
 20
-1082.0644755323
 30
0.0
 10
-419.3538737545
 20
-1082.0648895608
 30
0.0
 10
-419.2718861409
 20
-1082.0670561553
 30
0.0
 10
-419.2340684054
 20
-1082.0665189648
 30
0.0
 10
-419.2234229655
 20
-1082.0677842097
 30
0.0
  0
SPLINE
  5
301
100
AcDbEntity
  8
0
100
AcDbSpline
 62
7
  6
CONTINUOUS
 70
0
 71
3
 72
17
 73
13
 74
0
 42
0.0000001
 43
0.0000001
 44
0.0000000001
 40
0.0
 40
0.0
 40
0.0
 40
0.0
 40
0.1250002428
 40
0.2500000513
 40
0.3749996863
 40
0.4999995603
 40
0.6249996619
 40
0.6874997319
 40
0.7499997973
 40
0.8124998807
 40
0.8749999789
 40
1.0
 40
1.0
 40
1.0
 40
1.0
 10
-425.9464206669
 20
-667.0668612202
 30
0.0
 10
-425.9458312387
 20
-684.35811005
 30
0.0
 10
-425.9269698694
 20
-718.9405617654
 30
0.0
 10
-425.801750043
 20
-770.8140273774
 30
0.0
 10
-425.6596199523
 20
-822.6873806411
 30
0.0
 10
-425.5452505483
 20
-874.560852602
 30
0.0
 10
-425.4841128517
 20
-917.7888556577
 30
0.0
 10
-425.4359188521
 20
-952.3712851261
 30
0.0
 10
-425.3974109888
 20
-978.3081098493
 30
0.0
 10
-425.3639736272
 20
-1004.2449453295
 30
0.0
 10
-425.3274899997
 20
-1038.827386109
 30
0.0
 10
-425.2727069611
 20
-1064.7641731539
 30
0.0
 10
-425.2347103976
 20
-1082.055349579
 30
0.0
  0
ENDSEC
  0
SECTION
  2
OBJECTS
  0
DICTIONARY
  5
C
100
AcDbDictionary
280
0
281
1
  3
ACAD_GROUP
350
D
  3
ACAD_MLINESTYLE
350
17
  3
ACAD_LAYOUT
350
1A
  3
ACAD_PLOTSETTINGS
350
19
  3
ACAD_PLOTSTYLENAME
350
E
  0
DICTIONARY
  5
D
102
{ACAD_REACTORS
330
C
102
}
100
AcDbDictionary
280
0
281
1
  0
ACDBDICTIONARYWDFLT
  5
E
102
{ACAD_REACTORS
330
C
102
}
100
AcDbDictionary
281
1
  3
Normal
350
F
100
AcDbDictionaryWithDefault
340
F
  0
DICTIONARY
  5
17
102
{ACAD_REACTORS
330
C
102
}
100
AcDbDictionary
280
0
281
1
  3
Standard
350
18
  0
DICTIONARY
  5
19
102
{ACAD_REACTORS
330
C
102
}
100
AcDbDictionary
281
1
  0
DICTIONARY
  5
1A
102
{ACAD_REACTORS
330
C
102
}
100
AcDbDictionary
281
1
  3
Model
350
302
  3
Layout1
350
303
  0
ACDBPLACEHOLDER
  5
F
102
{ACAD_REACTORS
330
E
102
}
  0
MLINESTYLE
  5
18
102
{ACAD_REACTORS
330
17
102
}
100
AcDbMlineStyle
  2
STANDARD
 70
0
  3

 62
256
 51
90.0
 52
90.0
 71
2
 49
0.5
 62
256
  6
BYLAYER
 49
-0.5
 62
256
  6
BYLAYER
  0
LAYOUT
  5
302
102
{ACAD_REACTORS
330
1A
102
}
100
AcDbPlotSettings
  1

  2
none_device
  4
ISO_A0_(1189.00_x_841.00_MM)
  6

 40
0.0
 41
0.0
 42
0.0
 43
0.0
 44
1189.0
 45
841.0
 46
0.0
 47
0.0
 48
0.0
 49
0.0
140
0.0
141
0.0
142
1.0
143
1.0
 70
1024
 72
1
 73
0
 74
0
  7

 75
0
147
1.0
148
0.0
149
0.0
100
AcDbLayout
  1
Model
 70
0
 71
0
 10
0.0
 20
0.0
 11
1189.0
 21
841.0
 12
0.0
 22
0.0
 32
0.0
 14
0.0
 24
0.0
 34
0.0
 15
0.0
 25
0.0
 35
0.0
146
0.0
 13
0.0
 23
0.0
 33
0.0
 16
1.0
 26
0.0
 36
0.0
 17
0.0
 27
1.0
 37
0.0
 76
0
330
202
345
0
346
0
  0
LAYOUT
  5
303
102
{ACAD_REACTORS
330
1A
102
}
100
AcDbPlotSettings
  1

  2
none_device
  4
ISO_A0_(1189.00_x_841.00_MM)
  6

 40
0.0
 41
0.0
 42
0.0
 43
0.0
 44
1189.0
 45
841.0
 46
0.0
 47
0.0
 48
0.0
 49
0.0
140
0.0
141
0.0
142
1.0
143
1.0
 70
0
 72
1
 73
0
 74
0
  7

 75
0
147
1.0
148
0.0
149
0.0
100
AcDbLayout
  1
Layout1
 70
0
 71
1
 10
0.0
 20
0.0
 11
1189.0
 21
841.0
 12
0.0
 22
0.0
 32
0.0
 14
0.0
 24
0.0
 34
0.0
 15
0.0
 25
0.0
 35
0.0
146
0.0
 13
0.0
 23
0.0
 33
0.0
 16
1.0
 26
0.0
 36
0.0
 17
0.0
 27
1.0
 37
0.0
 76
0
330
203
345
0
346
0
  0
ENDSEC
  0
EOF
