999
DXF file: e6d152-00-e.dxf
999
Pro/ENGINEER 2016130 by Parametric Technology Corporation
  0
SECTION
  2
HEADER
  9
$ACADVER
  1
AC1027
  9
$DWGCODEPAGE
  3
ANSI_1252
  9
$EXTMAX
 10
1189.0
 20
841.0
 30
0.0
  9
$EXTMIN
 10
0.0
 20
0.0
 30
0.0
  9
$LIMMIN
 10
0.0
 20
0.0
  9
$LIMMAX
 10
1189.0
 20
841.0
  9
$VIEWCTR
 10
594.5
 20
420.5
  9
$VIEWSIZE
 40
841.0
  9
$CLAYER
  8
0
  9
$LTSCALE
 40
65.395
  9
$CELTYPE
  6
BYLAYER
  9
$DIMSCALE
 40
1.0
  9
$DIMASZ
 40
3.5
  9
$DIMEXO
 40
1.0
  9
$DIMDLI
 40
45.182
  9
$DIMEXE
 40
1.5
  9
$DIMCEN
 40
10.701
  9
$DIMLFAC
 40
1.0
  9
$DIMBLK
  1
_FILLED
  9
$DIMALT
 70
0
  9
$DIMALTF
 40
0.0393700787
  9
$DIMTXT
 40
3.5
  9
$DIMTOL
 70
1
  9
$DIMLIM
 70
0
  9
$DIMTFAC
 40
1.0
  9
$DIMTP
 40
0.1
  9
$DIMTM
 40
0.1
  9
$DIMGAP
 40
0.625
  9
$DIMDSEP
 70
46
  9
$AUNITS
 70
0
  9
$PDMODE
 70
0
  9
$PDSIZE
 40
0.3125
  9
$HANDSEED
  5
305
  9
$TILEMODE
 70
1
  9
$MEASUREMENT
 70
1
  9
$INSUNITS
 70
4
  0
ENDSEC
  0
SECTION
  2
CLASSES
  0
CLASS
  1
ACDBDICTIONARYWDFLT
  2
AcDbDictionaryWithDefault
  3
AutoCAD 2000
 90
0
 91
1
280
0
281
0
  0
CLASS
  1
ACDBPLACEHOLDER
  2
AcDbPlaceHolder
  3
AutoCAD 2000
 90
0
 91
1
280
0
281
0
  0
CLASS
  1
LAYOUT
  2
AcDbLayout
  3
AutoCAD 2000
 90
0
 91
0
280
0
281
0
  0
ENDSEC
  0
SECTION
  2
TABLES
  0
TABLE
  2
VPORT
  5
8
100
AcDbSymbolTable
 70
2
  0
VPORT
  5
1F4
100
AcDbSymbolTableRecord
100
AcDbViewportTableRecord
  2
*ACTIVE
 70
0
 10
0.0
 20
0.0
 11
1.0
 21
1.0
 12
594.5
 22
420.5
 13
0.0
 23
0.0
 14
1.0
 24
1.0
 15
0.0
 25
0.0
 16
0.0
 26
0.0
 36
1.0
 17
0.0
 27
0.0
 37
0.0
 40
841.0
 41
1.4137931034
 42
50.0
 43
0.0
 44
0.0
 50
0.0
 51
0.0
 71
0
 72
100
 73
1
 74
1
 75
0
 76
0
 77
0
 78
0
  0
ENDTAB
  0
TABLE
  2
LTYPE
  5
5
100
AcDbSymbolTable
 70
6
  0
LTYPE
  5
14
100
AcDbSymbolTableRecord
100
AcDbLinetypeTableRecord
  2
BYBLOCK
 70
0
  3

 72
65
 73
0
 40
0.0
  0
LTYPE
  5
15
100
AcDbSymbolTableRecord
100
AcDbLinetypeTableRecord
  2
BYLAYER
 70
0
  3

 72
65
 73
0
 40
0.0
  0
LTYPE
  5
16
100
AcDbSymbolTableRecord
100
AcDbLinetypeTableRecord
  2
CONTINUOUS
 70
64
  3
Solid line
 72
65
 73
0
 40
0.0
  0
LTYPE
  5
1F5
100
AcDbSymbolTableRecord
100
AcDbLinetypeTableRecord
  2
CENTER
 70
64
  3
____ _ ____ _ ____ _ ____ _ ____ _ ____ _ ____
 72
65
 73
4
 40
0.6
 49
0.375
 74
0
 49
-0.075
 74
0
 49
0.075
 74
0
 49
-0.075
 74
0
  0
LTYPE
  5
1F6
100
AcDbSymbolTableRecord
100
AcDbLinetypeTableRecord
  2
HIDDEN
 70
64
  3
- - - - - - - - - - - - - - - - - - - -
 72
65
 73
2
 40
0.2
 49
0.1
 74
0
 49
-0.1
 74
0
  0
LTYPE
  5
1F7
100
AcDbSymbolTableRecord
100
AcDbLinetypeTableRecord
  2
PHANTOM
 70
64
  3
_____ _ _ _____ _ _ _____ _ _ _____
 72
65
 73
6
 40
0.8
 49
0.45
 74
0
 49
-0.05
 74
0
 49
0.1
 74
0
 49
-0.05
 74
0
 49
0.1
 74
0
 49
-0.05
 74
0
  0
LTYPE
  5
1F8
100
AcDbSymbolTableRecord
100
AcDbLinetypeTableRecord
  2
DOT
 70
64
  3
. . . . . . . . . . . . . . . . . . . .
 72
65
 73
2
 40
0.2
 49
0.1
 74
0
 49
-0.1
 74
0
  0
LTYPE
  5
1F9
100
AcDbSymbolTableRecord
100
AcDbLinetypeTableRecord
  2
DASHED
 70
64
  3
- - - - - - - - - - - - - - - - - - - -
 72
65
 73
2
 40
0.2
 49
0.1
 74
0
 49
-0.1
 74
0
  0
ENDTAB
  0
TABLE
  2
LAYER
  5
2
100
AcDbSymbolTable
 70
36
  0
LAYER
  5
10
100
AcDbSymbolTableRecord
100
AcDbLayerTableRecord
  2
0
 70
0
 62
7
  6
CONTINUOUS
370
-3
390
F
  0
LAYER
  5
1FA
100
AcDbSymbolTableRecord
100
AcDbLayerTableRecord
  2
DEFAULT_1
 70
0
 62
7
  6
CENTER
370
-3
390
F
  0
LAYER
  5
1FB
100
AcDbSymbolTableRecord
100
AcDbLayerTableRecord
  2
DEFAULT_2
 70
0
 62
8
  6
HIDDEN
370
-3
390
F
  0
LAYER
  5
1FC
100
AcDbSymbolTableRecord
100
AcDbLayerTableRecord
  2
DEFAULT_3
 70
0
 62
7
  6
PHANTOM
370
-3
390
F
  0
LAYER
  5
1FD
100
AcDbSymbolTableRecord
100
AcDbLayerTableRecord
  2
DATUM_CSYS
 70
0
 62
7
  6
CONTINUOUS
370
-3
390
F
  0
LAYER
  5
1FE
100
AcDbSymbolTableRecord
100
AcDbLayerTableRecord
  2
DATUM_PLANE
 70
0
 62
7
  6
CONTINUOUS
370
-3
390
F
  0
LAYER
  5
1FF
100
AcDbSymbolTableRecord
100
AcDbLayerTableRecord
  2
NONE
 70
0
 62
7
  6
CONTINUOUS
370
-3
390
F
  0
ENDTAB
  0
TABLE
  2
STYLE
  5
3
100
AcDbSymbolTable
 70
1
  0
STYLE
  5
11
100
AcDbSymbolTableRecord
100
AcDbTextStyleTableRecord
  2
STANDARD
 70
0
 40
0.0
 41
0.85
 50
0.0
 71
0
 42
0.2
  3
txt
  4

  0
STYLE
  5
200
100
AcDbSymbolTableRecord
100
AcDbTextStyleTableRecord
  2
TEXTSTYLE_1
 70
0
 40
0.0
 41
0.8
 50
0.0
 71
0
 42
0.2
  3
gdt
  4

  0
ENDTAB
  0
TABLE
  2
VIEW
  5
6
100
AcDbSymbolTable
 70
0
  0
ENDTAB
  0
TABLE
  2
UCS
  5
7
100
AcDbSymbolTable
 70
0
  0
ENDTAB
  0
TABLE
  2
APPID
  5
9
100
AcDbSymbolTable
 70
1
  0
APPID
  5
201
100
AcDbSymbolTableRecord
100
AcDbRegAppTableRecord
  2
ACAD
 70
0
  0
ENDTAB
  0
TABLE
  2
BLOCK_RECORD
  5
1
100
AcDbSymbolTable
 70
0
  0
BLOCK_RECORD
  5
202
100
AcDbSymbolTableRecord
100
AcDbBlockTableRecord
  2
*Model_Space
  0
BLOCK_RECORD
  5
203
100
AcDbSymbolTableRecord
100
AcDbBlockTableRecord
  2
*Paper_Space
  0
ENDTAB
  0
TABLE
  2
DIMSTYLE
  5
A
100
AcDbSymbolTable
 70
1
100
AcDbDimStyleTable
 71
0
  0
DIMSTYLE
105
204
100
AcDbSymbolTableRecord
100
AcDbDimStyleTableRecord
  2
STANDARD
 70
0
  3

  4

 40
1.0
 41
3.5
 42
1.0
 43
0.38
 44
1.5
 45
0.0
 46
0.0
 47
0.1
 48
0.1
140
3.5
141
0.09
142
0.0
143
25.4
144
1.0
145
0.0
146
1.0
147
0.625
 71
1.0
 72
0.0
 73
0
 74
0
 75
0
 76
0
 77
1
 78
8
170
0
171
2
172
0
173
0
174
0
175
0
176
0
177
0
178
0
270
2
271
1
272
1
273
2
274
2
275
0
280
0
281
0
282
0
283
1
284
8
285
0
286
0
287
3
288
0
340
11
278
46
  0
ENDTAB
  0
ENDSEC
  0
SECTION
  2
BLOCKS
  0
BLOCK
  5
20
100
AcDbEntity
  8
0
100
AcDbBlockBegin
  2
*Model_Space
 70
0
 10
0.0
 20
0.0
 30
0.0
  3
*Model_Space
  1

  0
ENDBLK
  5
21
100
AcDbEntity
  8
0
100
AcDbBlockEnd
  0
BLOCK
  5
1C
100
AcDbEntity
  8
0
100
AcDbBlockBegin
  2
*Paper_Space
 70
0
 10
0.0
 20
0.0
 30
0.0
  3
*Paper_Space
  1

  0
ENDBLK
  5
1D
100
AcDbEntity
  8
0
100
AcDbBlockEnd
  0
ENDSEC
  0
SECTION
  2
ENTITIES
  0
LINE
  5
205
100
AcDbEntity
  8
0
100
AcDbLine
 62
7
  6
CONTINUOUS
 10
0.0
 20
0.0
 11
0.0
 21
841.0
  0
LINE
  5
206
100
AcDbEntity
  8
0
100
AcDbLine
 62
7
  6
CONTINUOUS
 10
0.0
 20
0.0
 11
1189.0
 21
0.0
  0
LINE
  5
207
100
AcDbEntity
  8
0
100
AcDbLine
 62
7
  6
CONTINUOUS
 10
0.0
 20
841.0
 11
1189.0
 21
841.0
  0
LINE
  5
208
100
AcDbEntity
  8
0
100
AcDbLine
 62
7
  6
CONTINUOUS
 10
1189.0
 20
0.0
 11
1189.0
 21
841.0
  0
LINE
  5
209
100
AcDbEntity
  8
0
100
AcDbLine
 62
7
  6
CONTINUOUS
 10
-2961.1397956052
 20
674.6732804136
 11
-2961.148313216
 21
652.6850734458
  0
LINE
  5
20A
100
AcDbEntity
  8
0
100
AcDbLine
 62
7
  6
CONTINUOUS
 10
-2970.9023503072
 20
668.7744829782
 11
-2971.1832233459
 21
652.6850932083
  0
LWPOLYLINE
  5
20B
100
AcDbEntity
  8
0
100
AcDbPolyline
 62
7
  6
CONTINUOUS
 90
33
 70
0
 10
-2968.49403337
 20
673.4766826884
 10
-2968.6199685082
 20
673.3799857889
 10
-2968.7439894155
 20
673.2794169727
 10
-2968.8659247499
 20
673.1750257346
 10
-2968.9857121618
 20
673.0667712161
 10
-2969.1031556879
 20
672.9547328237
 10
-2969.2180976277
 20
672.8389667911
 10
-2969.3305153947
 20
672.7193911327
 10
-2969.4402094277
 20
672.5961051977
 10
-2969.5470148285
 20
672.4691852626
 10
-2969.6509333565
 20
672.3385041784
 10
-2969.7517670234
 20
672.2041709959
 10
-2969.849332853
 20
672.0662935917
 10
-2969.9436192466
 20
671.9247333914
 10
-2970.0344200637
 20
671.77962589
 10
-2970.1215461086
 20
671.6311036483
 10
-2970.2049698629
 20
671.4790189082
 10
-2970.2844789251
 20
671.3235390472
 10
-2970.3598799701
 20
671.164826415
 10
-2970.4311275475
 20
671.0027272384
 10
-2970.4980065036
 20
670.8374466572
 10
-2970.5603230865
 20
670.6691822963
 10
-2970.6180127862
 20
670.4977784757
 10
-2970.6708638318
 20
670.323481843
 10
-2970.7186869723
 20
670.1465329115
 10
-2970.761397359
 20
669.9667855418
 10
-2970.7987912821
 20
669.7845511067
 10
-2970.8306976021
 20
669.6000996066
 10
-2970.8570207518
 20
669.4132527624
 10
-2970.8775704005
 20
669.2244349929
 10
-2970.8922038366
 20
669.0339050686
 10
-2970.9008119938
 20
668.8412856954
 10
-2970.9023503075
 20
668.7744829606
  0
LWPOLYLINE
  5
20C
100
AcDbEntity
  8
0
100
AcDbPolyline
 62
7
  6
CONTINUOUS
 90
7
 70
0
 10
-2968.2311010947
 20
673.6623200484
 10
-2968.3730586831
 20
673.5647233724
 10
-2968.5133177392
 20
673.4622166382
 10
-2968.6516416222
 20
673.3548194307
 10
-2968.7880084628
 20
673.2423813522
 10
-2968.922162381
 20
673.1249312732
 10
-2969.0538329459
 20
673.0025262214
  0
LINE
  5
20D
100
AcDbEntity
  8
0
100
AcDbLine
 62
7
  6
CONTINUOUS
 10
-2733.0316244386
 20
292.7474652775
 11
-2916.4280582777
 21
652.6849853751
  0
LWPOLYLINE
  5
20E
100
AcDbEntity
  8
0
100
AcDbPolyline
 62
7
  6
CONTINUOUS
 90
9
 70
0
 10
-2966.9010062892
 20
674.3274442518
 10
-2967.0526256481
 20
674.2715967103
 10
-2967.2030745419
 20
674.2115260192
 10
-2967.352661216
 20
674.1470517656
 10
-2967.5015938092
 20
674.077987951
 10
-2967.6497137739
 20
674.0042926889
 10
-2967.7967765233
 20
673.925974488
 10
-2967.942838617
 20
673.8428802855
 10
-2968.0876917602
 20
673.7549926012
  0
LWPOLYLINE
  5
20F
100
AcDbEntity
  8
0
100
AcDbPolyline
 62
7
  6
CONTINUOUS
 90
11
 70
0
 10
-2966.8815966526
 20
674.3342608779
 10
-2967.020308638
 20
674.2838903178
 10
-2967.1586455719
 20
674.2297565735
 10
-2967.2964594546
 20
674.1718411783
 10
-2967.4336864269
 20
674.1100927649
 10
-2967.5701730461
 20
674.044500283
 10
-2967.7057673291
 20
673.9750585507
 10
-2967.8404001112
 20
673.9017224812
 10
-2967.9739057615
 20
673.8244998475
 10
-2968.1061282053
 20
673.7434006731
 10
-2968.2370040445
 20
673.6583802828
  0
LWPOLYLINE
  5
210
100
AcDbEntity
  8
0
100
AcDbPolyline
 62
7
  6
CONTINUOUS
 90
3
 70
0
 10
-2966.5975289717
 20
674.4256195679
 10
-2966.7488880003
 20
674.3788823577
 10
-2966.9010062892
 20
674.3274442518
  0
LINE
  5
211
100
AcDbEntity
  8
0
100
AcDbLine
 62
7
  6
CONTINUOUS
 10
-2697.3545138438
 20
248.365475508
 11
-2695.8112450507
 21
247.3674286073
  0
LINE
  5
212
100
AcDbEntity
  8
0
100
AcDbLine
 62
7
  6
CONTINUOUS
 10
-2697.3509041986
 20
248.3630910125
 11
-2697.3545138438
 21
248.365475508
  0
LWPOLYLINE
  5
213
100
AcDbEntity
  8
0
100
AcDbPolyline
 62
7
  6
CONTINUOUS
 90
10
 70
0
 10
-2695.8112450507
 20
247.3674286073
 10
-2690.4100574637
 20
244.195323247
 10
-2684.8447540156
 20
241.4139120434
 10
-2679.0960183309
 20
239.0347720463
 10
-2673.5239516241
 20
237.2050301138
 10
-2667.9097468484
 20
235.8067080949
 10
-2661.349250717
 20
234.6532617842
 10
-2653.5974372086
 20
233.8190095605
 10
-2645.0533769405
 20
233.3542233826
 10
-2167.7943140443
 20
220.8341530789
  0
LWPOLYLINE
  5
214
100
AcDbEntity
  8
0
100
AcDbPolyline
 62
7
  6
CONTINUOUS
 90
5
 70
0
 10
-1597.2447900446
 20
233.3521638633
 10
-1588.7003804587
 20
233.816948016
 10
-1580.9479246575
 20
234.6512892099
 10
-1574.385910386
 20
235.8051109908
 10
-1568.7698775479
 20
237.2041286877
  0
LINE
  5
215
100
AcDbEntity
  8
0
100
AcDbLine
 62
7
  6
CONTINUOUS
 10
-2092.6755412963
 20
199.6833631003
 11
-2149.6228693887
 21
199.6834752507
  0
LINE
  5
216
100
AcDbEntity
  8
0
100
AcDbLine
 62
7
  6
CONTINUOUS
 10
-2149.6641129935
 20
200.0396832859
 11
-2092.6342962885
 21
200.039570973
  0
LINE
  5
217
100
AcDbEntity
  8
0
100
AcDbLine
 62
7
  6
CONTINUOUS
 10
-2092.085449714
 20
201.4787334993
 11
-2150.2071396116
 21
201.4788479624
  0
LINE
  5
218
100
AcDbEntity
  8
0
100
AcDbLine
 62
7
  6
CONTINUOUS
 10
-2074.5040133338
 20
220.8339693557
 11
-1597.2447900446
 21
233.3521638633
  0
LINE
  5
219
100
AcDbEntity
  8
0
100
AcDbLine
 62
7
  6
CONTINUOUS
 10
-2073.1888498573
 20
223.8251170035
 11
-2074.601583448
 21
223.8141797854
  0
LINE
  5
21A
100
AcDbEntity
  8
0
100
AcDbLine
 62
7
  6
CONTINUOUS
 10
-2161.9038393173
 20
217.7185840334
 11
-2080.3945003322
 21
217.7184235113
  0
LINE
  5
21B
100
AcDbEntity
  8
0
100
AcDbLine
 62
7
  6
CONTINUOUS
 10
-2074.5040133338
 20
220.8339693557
 11
-2167.7943140443
 21
220.8341530789
  0
LINE
  5
21C
100
AcDbEntity
  8
0
100
AcDbLine
 62
7
  6
CONTINUOUS
 10
-2733.0316244386
 20
292.7474652775
 11
-2733.019552832
 21
292.748016873
  0
LINE
  5
21D
100
AcDbEntity
  8
0
100
AcDbLine
 62
7
  6
CONTINUOUS
 10
-2733.019552832
 20
292.748016873
 11
-2724.5972339788
 21
293.0498091455
  0
LINE
  5
21E
100
AcDbEntity
  8
0
100
AcDbLine
 62
7
  6
CONTINUOUS
 10
-1517.6279230401
 20
293.044679978
 11
-1509.2899599243
 21
292.7460493994
  0
LINE
  5
21F
100
AcDbEntity
  8
0
100
AcDbLine
 62
7
  6
CONTINUOUS
 10
-1509.2899470081
 20
292.7461229988
 11
-1509.266419696
 21
292.7450552303
  0
LINE
  5
220
100
AcDbEntity
  8
0
100
AcDbLine
 62
7
  6
CONTINUOUS
 10
-2150.2129538995
 20
201.4788479739
 11
-2161.9038424275
 21
217.7185840334
  0
LINE
  5
221
100
AcDbEntity
  8
0
100
AcDbLine
 62
7
  6
CONTINUOUS
 10
-2150.2129538995
 20
201.4788479739
 11
-2149.6641129935
 21
200.0396832859
  0
LINE
  5
222
100
AcDbEntity
  8
0
100
AcDbLine
 62
7
  6
CONTINUOUS
 10
-2149.6266747304
 20
199.6834752582
 11
-2149.6641129935
 21
200.0396832859
  0
LINE
  5
223
100
AcDbEntity
  8
0
100
AcDbLine
 62
7
  6
CONTINUOUS
 10
-2092.6717359546
 20
199.6833630928
 11
-2092.6342962885
 21
200.039570973
  0
LINE
  5
224
100
AcDbEntity
  8
0
100
AcDbLine
 62
7
  6
CONTINUOUS
 10
-2092.085449714
 20
201.4787334993
 11
-2092.6342962885
 21
200.039570973
  0
LINE
  5
225
100
AcDbEntity
  8
0
100
AcDbLine
 62
7
  6
CONTINUOUS
 10
-2092.085449714
 20
201.4787334993
 11
-2080.394497222
 21
217.7184235113
  0
LINE
  5
226
100
AcDbEntity
  8
0
100
AcDbLine
 62
7
  6
CONTINUOUS
 10
-2964.207852254
 20
674.6738398416
 11
-2964.8010827379
 21
674.6719100015
  0
LWPOLYLINE
  5
227
100
AcDbEntity
  8
0
100
AcDbPolyline
 62
7
  6
CONTINUOUS
 90
4
 70
0
 10
-1490.2465969032
 20
674.1347667734
 10
-1678.284562898
 20
673.9132206126
 10
-1957.6438499586
 20
673.9645473993
 10
-2570.3414877062
 20
673.916424478
  0
LINE
  5
228
100
AcDbEntity
  8
0
100
AcDbLine
 62
7
  6
CONTINUOUS
 10
-1271.1134030895
 20
652.6817451409
 11
-2971.1832233459
 21
652.6850932083
  0
LINE
  5
229
100
AcDbEntity
  8
0
100
AcDbLine
 62
7
  6
CONTINUOUS
 10
-2970.9023497288
 20
668.7745161062
 11
-2961.148281523
 21
668.778023076
  0
LWPOLYLINE
  5
22A
100
AcDbEntity
  8
0
100
AcDbPolyline
 62
7
  6
CONTINUOUS
 90
3
 70
0
 10
-2570.3414877062
 20
673.916424478
 10
-2757.0337524667
 20
674.1516822908
 10
-2964.207852254
 20
674.6738398416
  0
LINE
  5
22B
100
AcDbEntity
  8
0
100
AcDbLine
 62
7
  6
CONTINUOUS
 10
-1278.1469117447
 20
674.6703802302
 11
-1490.2465969032
 21
674.1347667734
  0
LINE
  5
22C
100
AcDbEntity
  8
0
100
AcDbLine
 62
7
  6
CONTINUOUS
 10
-1281.1482815268
 20
668.7744417041
 11
-1271.3942070813
 21
668.7708107854
  0
LINE
  5
22D
100
AcDbEntity
  8
0
100
AcDbLine
 62
7
  6
CONTINUOUS
 10
-1277.6213374903
 20
674.6689984645
 11
-1278.1469117447
 21
674.6703802302
  0
LWPOLYLINE
  5
22E
100
AcDbEntity
  8
0
100
AcDbPolyline
 62
7
  6
CONTINUOUS
 90
3
 70
0
 10
-1271.7264294474
 20
668.7730105424
 10
-1271.4776196044
 20
668.7719832582
 10
-1271.3942070829
 20
668.7708109574
  0
LWPOLYLINE
  5
22F
100
AcDbEntity
  8
0
100
AcDbPolyline
 62
7
  6
CONTINUOUS
 90
16
 70
0
 10
-2964.927408734
 20
674.6707511098
 10
-2964.9696374573
 20
674.6701349878
 10
-2965.0149217884
 20
674.6692637936
 10
-2965.0755093695
 20
674.6676749311
 10
-2965.1600235872
 20
674.6645357207
 10
-2965.2630674192
 20
674.6591598126
 10
-2965.3761732439
 20
674.6512459327
 10
-2965.4995952976
 20
674.6401724851
 10
-2965.634056527
 20
674.6251868825
 10
-2965.7709051047
 20
674.6067772031
 10
-2965.9076974835
 20
674.5851589854
 10
-2966.0467274628
 20
674.5598544206
 10
-2966.1861225752
 20
674.5310658844
 10
-2966.3251439311
 20
674.4988953264
 10
-2966.4642893772
 20
674.4631788023
 10
-2966.6035037404
 20
674.4238573261
  0
LINE
  5
230
100
AcDbEntity
  8
0
100
AcDbLine
 62
7
  6
CONTINUOUS
 10
-2970.9023497288
 20
668.7745161062
 11
-2970.818931044
 21
668.7756632439
  0
LINE
  5
231
100
AcDbEntity
  8
0
100
AcDbLine
 62
7
  6
CONTINUOUS
 10
-2964.8452215682
 20
674.6715854761
 11
-2964.8855990023
 21
674.6712222563
  0
LWPOLYLINE
  5
232
100
AcDbEntity
  8
0
100
AcDbPolyline
 62
7
  6
CONTINUOUS
 90
3
 70
0
 10
-1277.4395383691
 20
674.667878437
 10
-1277.4942393279
 20
674.6683002427
 10
-1277.553227711
 20
674.6686616167
  0
LWPOLYLINE
  5
233
100
AcDbEntity
  8
0
100
AcDbPolyline
 62
7
  6
CONTINUOUS
 90
4
 70
0
 10
-1563.1974587903
 20
239.0343461266
 10
-1557.4511069539
 20
241.4127825496
 10
-1551.8895246041
 20
244.1923492115
 10
-1546.4913332151
 20
247.3624076277
  0
LINE
  5
234
100
AcDbEntity
  8
0
100
AcDbLine
 62
7
  6
CONTINUOUS
 10
-1568.7698802366
 20
237.2041279153
 11
-1563.1974559233
 21
239.0343471891
  0
LINE
  5
235
100
AcDbEntity
  8
0
100
AcDbLine
 62
7
  6
CONTINUOUS
 10
-2966.1507983372
 20
674.5386876184
 11
-2966.297284925
 21
674.5056215522
  0
LINE
  5
236
100
AcDbEntity
  8
0
100
AcDbLine
 62
7
  6
CONTINUOUS
 10
-1544.5666987594
 20
248.6135665957
 11
-1544.5671282771
 21
248.6132798748
  0
LINE
  5
237
100
AcDbEntity
  8
0
100
AcDbLine
 62
7
  6
CONTINUOUS
 10
-1546.4913209605
 20
247.3624155941
 11
-1544.5671282341
 21
248.6132799036
  0
LINE
  5
238
100
AcDbEntity
  8
0
100
AcDbLine
 62
7
  6
CONTINUOUS
 10
-1325.8685681576
 20
652.6818529741
 11
-1509.266419696
 21
292.7450552303
  0
LWPOLYLINE
  5
239
100
AcDbEntity
  8
0
100
AcDbPolyline
 62
7
  6
CONTINUOUS
 90
11
 70
0
 10
-1271.3942070825
 20
668.7708109343
 10
-1271.3997057175
 20
668.9434278203
 10
-1271.4139358342
 20
669.1633839641
 10
-1271.4360444897
 20
669.3810813022
 10
-1271.4657684483
 20
669.5958665066
 10
-1271.5029599572
 20
669.8080260401
 10
-1271.5473854549
 20
670.0171696293
 10
-1271.5987406968
 20
670.2227611248
 10
-1271.6568682658
 20
670.4249257323
 10
-1271.7214794391
 20
670.6232853249
 10
-1271.7922474077
 20
670.8174574437
  0
LINE
  5
23A
100
AcDbEntity
  8
0
100
AcDbLine
 62
7
  6
CONTINUOUS
 10
-1271.1134030895
 20
652.6817451409
 11
-1271.3942070829
 21
668.7708109574
  0
LINE
  5
23B
100
AcDbEntity
  8
0
100
AcDbLine
 62
7
  6
CONTINUOUS
 10
-1281.1570508345
 20
674.6697287426
 11
-1281.1482814924
 21
668.7744417041
  0
LINE
  5
23C
100
AcDbEntity
  8
0
100
AcDbLine
 62
7
  6
CONTINUOUS
 10
-1281.1482817422
 20
668.6650787338
 11
-1281.1483132193
 21
652.6817649033
  0
LWPOLYLINE
  5
23D
100
AcDbEntity
  8
0
100
AcDbPolyline
 62
7
  6
CONTINUOUS
 90
46
 70
0
 10
-1271.7922474077
 20
670.8174574437
 10
-1271.8690331284
 20
671.0075975771
 10
-1271.9515306879
 20
671.1934086006
 10
-1272.0393980712
 20
671.3745835315
 10
-1272.1325144587
 20
671.5512848402
 10
-1272.2305693303
 20
671.7232842529
 10
-1272.3332201304
 20
671.8903461095
 10
-1272.440363064
 20
672.0526314142
 10
-1272.5516929159
 20
672.2099719688
 10
-1272.6668758676
 20
672.3621940636
 10
-1272.7858215295
 20
672.5094510959
 10
-1272.9082386924
 20
672.6516288319
 10
-1273.0338061678
 20
672.7886039068
 10
-1273.1624350123
 20
672.9205114523
 10
-1273.293845192
 20
673.0472775323
 10
-1273.4277368951
 20
673.1688288469
 10
-1273.5640290589
 20
673.2852940893
 10
-1273.7024440688
 20
673.39662485
 10
-1273.8427176057
 20
673.502799413
 10
-1273.9848220952
 20
673.6039729771
 10
-1274.1285162957
 20
673.7001355768
 10
-1274.2735464841
 20
673.7912811355
 10
-1274.4198957404
 20
673.8775517186
 10
-1274.5673548287
 20
673.9589645962
 10
-1274.7156826359
 20
674.035529085
 10
-1274.8648363328
 20
674.1073589394
 10
-1275.0147719207
 20
674.1745533317
 10
-1275.1651251251
 20
674.2370712236
 10
-1275.3153804622
 20
674.294844753
 10
-1275.4654486024
 20
674.3479961741
 10
-1275.6150411927
 20
674.3965794266
 10
-1275.7633486408
 20
674.4405184133
 10
-1275.910164693
 20
674.47996433
 10
-1276.0553794139
 20
674.5150954676
 10
-1276.1983487204
 20
674.5459772486
 10
-1276.3389441241
 20
674.5728168742
 10
-1276.4770747215
 20
674.5958247164
 10
-1276.6122091138
 20
674.6151483773
 10
-1276.7473695621
 20
674.6313575169
 10
-1276.8794323089
 20
674.6442112758
 10
-1276.9991602515
 20
674.6533410525
 10
-1277.107357708
 20
674.6595482267
 10
-1277.2054611749
 20
674.6635418025
 10
-1277.2863253153
 20
674.665736763
 10
-1277.3447251997
 20
674.6667919217
 10
-1277.3908654502
 20
674.6673946632
  0
LINE
  5
23E
100
AcDbEntity
  8
0
100
AcDbLine
 62
7
  6
CONTINUOUS
 10
238.8801057362
 20
674.6697166219
 11
238.8644343078
 21
652.6850932083
  0
LINE
  5
23F
100
AcDbEntity
  8
0
100
AcDbLine
 62
7
  6
CONTINUOUS
 10
229.1081914862
 20
668.6499128456
 11
228.8295241779
 21
652.6850734458
  0
LINE
  5
240
100
AcDbEntity
  8
0
100
AcDbLine
 62
7
  6
CONTINUOUS
 10
632.3419036957
 20
199.6834191755
 11
575.3869649198
 21
199.6834191755
  0
LINE
  5
241
100
AcDbEntity
  8
0
100
AcDbLine
 62
7
  6
CONTINUOUS
 10
575.3495259552
 20
200.0396271295
 11
632.3793426603
 21
200.0396271295
  0
LINE
  5
242
100
AcDbEntity
  8
0
100
AcDbLine
 62
7
  6
CONTINUOUS
 10
632.9281864005
 20
201.4787907366
 11
574.8352198955
 21
201.4787935261
  0
LINE
  5
243
100
AcDbEntity
  8
0
100
AcDbLine
 62
7
  6
CONTINUOUS
 10
374.130627568
 20
291.6085714293
 11
374.12563669
 21
291.626534455
  0
LWPOLYLINE
  5
244
100
AcDbEntity
  8
0
100
AcDbPolyline
 62
7
  6
CONTINUOUS
 90
75
 70
0
 10
378.1526812389
 20
275.463907319
 10
378.3255219507
 20
274.8416893332
 10
378.5046231937
 20
274.2087001329
 10
378.6888303836
 20
273.5702801957
 10
378.8780180094
 20
272.9279494135
 10
379.0729270073
 20
272.2802859442
 10
379.2736017948
 20
271.6282639858
 10
379.4800889918
 20
270.972818356
 10
379.6929776675
 20
270.3131728111
 10
379.9131609366
 20
269.6477486931
 10
380.1410520086
 20
268.9765595656
 10
380.3770314479
 20
268.2997582188
 10
380.6220467383
 20
267.6159695942
 10
380.8766149553
 20
266.9251730476
 10
381.1411897559
 20
266.2275772452
 10
381.4167312897
 20
265.5221544853
 10
381.7039564745
 20
264.8086627422
 10
382.0033253392
 20
264.0875743446
 10
382.3154884064
 20
263.358944272
 10
382.6411438463
 20
262.6227916112
 10
382.9809132842
 20
261.8793764766
 10
383.3353597849
 20
261.1291275504
 10
383.7052163554
 20
260.3721552383
 10
384.0911878679
 20
259.6086946109
 10
384.4937911443
 20
258.8393969404
 10
384.9136713858
 20
258.0646810634
 10
385.3516893186
 20
257.2846171449
 10
385.8087049109
 20
256.4993535117
 10
386.2854257045
 20
255.7093554356
 10
386.7828106742
 20
254.9147194808
 10
387.3021337021
 20
254.1151032436
 10
387.8437673194
 20
253.3113342716
 10
388.4081645569
 20
252.5040152481
 10
388.9965607118
 20
251.6927469322
 10
389.6089534638
 20
250.8786267837
 10
390.2453595701
 20
250.0620845684
 10
390.9071681276
 20
249.2418294987
 10
391.5942858482
 20
248.4185834279
 10
392.3067038874
 20
247.5930764081
 10
393.0461238573
 20
246.7641764689
 10
393.8126612837
 20
245.932664474
 10
394.6065370974
 20
245.0991991664
 10
395.4297781667
 20
244.2626405019
 10
396.2822936019
 20
243.4241422914
 10
397.1644600092
 20
242.5844313265
 10
398.079181017
 20
241.7420381388
 10
399.0263141399
 20
240.898520714
 10
400.006154982
 20
240.0550572226
 10
401.0224844348
 20
239.2100312983
 10
402.0748187635
 20
238.3656550117
 10
403.1636636777
 20
237.5234009491
 10
404.2945395074
 20
236.6812100917
 10
405.4669475931
 20
235.8419498426
 10
406.6812056515
 20
235.0079674265
 10
407.9443121342
 20
234.1774637765
 10
409.255008135
 20
233.3547444205
 10
410.6143436457
 20
232.5428632206
 10
412.0331133016
 20
231.7398403287
 10
413.5087493682
 20
230.952251201
 10
415.0429275999
 20
230.1847126075
 10
416.6520913844
 20
229.4364003142
 10
418.3314704378
 20
228.7180229359
 10
420.0788074566
 20
228.0368781699
 10
421.9138405889
 20
227.3919131116
 10
423.8329614015
 20
226.7903892577
 10
425.8345913127
 20
226.2375962209
 10
427.9425212408
 20
225.7322154653
 10
430.14844449
 20
225.2813907322
 10
432.4534290905
 20
224.8883640392
 10
434.8933878064
 20
224.5505869415
 10
437.4497220757
 20
224.2727754109
 10
440.1279191534
 20
224.0529064167
 10
442.9953629339
 20
223.8829765082
 10
446.065230469
 20
223.7564165004
 10
557.2192839524
 20
220.8340612173
  0
LINE
  5
245
100
AcDbEntity
  8
0
100
AcDbLine
 62
7
  6
CONTINUOUS
 10
376.1054017459
 20
283.8324642174
 11
376.2925206731
 21
283.1561110814
  0
LINE
  5
246
100
AcDbEntity
  8
0
100
AcDbLine
 62
7
  6
CONTINUOUS
 10
374.1306700643
 20
291.6088501882
 11
374.1257870371
 21
291.6267940202
  0
LINE
  5
247
100
AcDbEntity
  8
0
100
AcDbLine
 62
7
  6
CONTINUOUS
 10
375.9235992986
 20
284.5019119241
 11
376.1054017459
 21
283.8324642174
  0
LINE
  5
248
100
AcDbEntity
  8
0
100
AcDbLine
 62
7
  6
CONTINUOUS
 10
377.8244110549
 20
276.6755875274
 11
378.1526812389
 21
275.463907319
  0
LINE
  5
249
100
AcDbEntity
  8
0
100
AcDbLine
 62
7
  6
CONTINUOUS
 10
375.7036929218
 20
285.3273817409
 11
375.9235992986
 21
284.5019119241
  0
LINE
  5
24A
100
AcDbEntity
  8
0
100
AcDbLine
 62
7
  6
CONTINUOUS
 10
377.5203518336
 20
277.8310449603
 11
377.8244110549
 21
276.6755875274
  0
LINE
  5
24B
100
AcDbEntity
  8
0
100
AcDbLine
 62
7
  6
CONTINUOUS
 10
375.4772212741
 20
286.1945123499
 11
375.7036929218
 21
285.3273817409
  0
LINE
  5
24C
100
AcDbEntity
  8
0
100
AcDbLine
 62
7
  6
CONTINUOUS
 10
374.1250068507
 20
291.6274538857
 11
374.1278232901
 21
291.6164524536
  0
LINE
  5
24D
100
AcDbEntity
  8
0
100
AcDbLine
 62
7
  6
CONTINUOUS
 10
377.2406093957
 20
278.9196019701
 11
377.5203518336
 21
277.8310449603
  0
LINE
  5
24E
100
AcDbEntity
  8
0
100
AcDbLine
 62
7
  6
CONTINUOUS
 10
375.2121066633
 20
287.2296448147
 11
375.4772212741
 21
286.1945123499
  0
LINE
  5
24F
100
AcDbEntity
  8
0
100
AcDbLine
 62
7
  6
CONTINUOUS
 10
376.872217925
 20
280.3849103925
 11
377.2406093957
 21
278.9196019701
  0
LINE
  5
250
100
AcDbEntity
  8
0
100
AcDbLine
 62
7
  6
CONTINUOUS
 10
374.8736821373
 20
288.5780392806
 11
375.2121066633
 21
287.2296448147
  0
LINE
  5
251
100
AcDbEntity
  8
0
100
AcDbLine
 62
7
  6
CONTINUOUS
 10
376.3349796987
 20
282.5676136472
 11
376.872217925
 21
280.3849103925
  0
LINE
  5
252
100
AcDbEntity
  8
0
100
AcDbLine
 62
7
  6
CONTINUOUS
 10
286.1092910563
 20
652.6850932083
 11
376.2748497614
 21
282.813886616
  0
LWPOLYLINE
  5
253
100
AcDbEntity
  8
0
100
AcDbPolyline
 62
7
  6
CONTINUOUS
 90
76
 70
0
 10
761.6134067375
 20
223.7546985463
 10
764.661279888
 20
223.8794239973
 10
767.5095931834
 20
224.0465328856
 10
770.1713097282
 20
224.2626013883
 10
772.712661453
 20
224.5355449581
 10
775.1389784393
 20
224.8674312558
 10
777.4320033394
 20
225.2537607507
 10
779.6271234749
 20
225.697079039
 10
781.7254147065
 20
226.1942841775
 10
783.7186740228
 20
226.7384422043
 10
785.6302340614
 20
227.3308159878
 10
787.4585348823
 20
227.9662482263
 10
789.2001324207
 20
228.6377763229
 10
790.8745118435
 20
229.3465018164
 10
792.479200529
 20
230.0853004103
 10
794.0095161528
 20
230.8437878696
 10
795.4817589011
 20
231.6226225078
 10
796.8974770049
 20
232.4170910231
 10
798.2540992368
 20
233.220650171
 10
799.5624130047
 20
234.0352431739
 10
800.8234827725
 20
234.8578372993
 10
802.0360570104
 20
235.6841370608
 10
803.2070817492
 20
236.51587765
 10
804.336853493
 20
237.3507053802
 10
805.4248759335
 20
238.1857685834
 10
806.4766532166
 20
239.0230904421
 10
807.4926842779
 20
239.861189473
 10
808.4724841159
 20
240.6978608741
 10
809.419835974
 20
241.5347055288
 10
810.335031352
 20
242.3705471923
 10
811.2179203381
 20
243.203830601
 10
812.0714075414
 20
244.0360081982
 10
812.8958519066
 20
244.8663213191
 10
813.6911582361
 20
245.6936163863
 10
814.4593664592
 20
246.5190356835
 10
815.2007030707
 20
247.3419327058
 10
815.9152691343
 20
248.1615185671
 10
816.6047531071
 20
248.9788972388
 10
817.269219826
 20
249.7934018766
 10
817.9086180835
 20
250.6043342968
 10
818.524286398
 20
251.4128962498
 10
819.1161642146
 20
252.218601863
 10
819.6841555469
 20
253.0204873155
 10
820.2295738051
 20
253.8190848731
 10
820.7529028355
 20
254.6138472888
 10
821.2543581593
 20
255.4038167926
 10
821.7350847932
 20
256.1892273531
 10
822.196008236
 20
256.9699303594
 10
822.6378633934
 20
257.74551435
 10
823.0615760562
 20
258.5159588721
 10
823.4680094062
 20
259.2812168939
 10
823.8577857458
 20
260.040849437
 10
824.2314393847
 20
260.7942654003
 10
824.5896582252
 20
261.5412135189
 10
824.9331654489
 20
262.2815826072
 10
825.2625424093
 20
263.0150104253
 10
825.5784188399
 20
263.7412829532
 10
825.8814627583
 20
264.4603343176
 10
826.1722871154
 20
265.1720362355
 10
826.451379347
 20
265.876004307
 10
826.7194171965
 20
266.5723900138
 10
826.9772385321
 20
267.2618798008
 10
827.225299069
 20
267.9442526433
 10
827.4641271557
 20
268.619540369
 10
827.6945800973
 20
269.2888150052
 10
827.9170544331
 20
269.9519354465
 10
828.1319717121
 20
270.6088793501
 10
828.3401376013
 20
271.2608952187
 10
828.5420028788
 20
271.908251288
 10
828.7377908482
 20
272.5505280997
 10
828.9279100092
 20
273.1879504531
 10
829.1130890015
 20
273.8219227716
 10
829.2931895714
 20
274.4509391698
 10
829.4673750075
 20
275.0708962237
 10
829.6359901769
 20
275.681758406
 10
829.9567883342
 20
276.8722535321
  0
LINE
  5
254
100
AcDbEntity
  8
0
100
AcDbLine
 62
7
  6
CONTINUOUS
 10
761.6134067375
 20
223.7546985463
 11
650.5095846631
 21
220.8340612173
  0
LINE
  5
255
100
AcDbEntity
  8
0
100
AcDbLine
 62
7
  6
CONTINUOUS
 10
563.1097617049
 20
217.7185037723
 11
644.6191069106
 21
217.7185037723
  0
LINE
  5
256
100
AcDbEntity
  8
0
100
AcDbLine
 62
7
  6
CONTINUOUS
 10
650.5095846631
 20
220.8340612173
 11
557.2192839524
 21
220.8340612173
  0
LWPOLYLINE
  5
257
100
AcDbEntity
  8
0
100
AcDbPolyline
 62
7
  6
CONTINUOUS
 90
32
 70
0
 10
757.3789270445
 20
223.6325334351
 10
757.3134891922
 20
223.6382833783
 10
757.3275869523
 20
223.6613142546
 10
757.3940173366
 20
223.7016262302
 10
757.4398472477
 20
223.7589568639
 10
757.4330392227
 20
223.8335689091
 10
757.4434107044
 20
223.9262503229
 10
757.4949730168
 20
224.037820489
 10
757.5185549216
 20
224.1674602947
 10
757.5297967488
 20
224.3134999219
 10
757.5782276155
 20
224.4763973901
 10
757.6327879229
 20
224.6556948238
 10
757.6510576738
 20
224.8483484972
 10
757.697580688
 20
225.0548190206
 10
757.7787413256
 20
225.2746458193
 10
757.8018767877
 20
225.503403325
 10
757.8398878213
 20
225.7410497033
 10
757.9375603745
 20
225.9876267536
 10
757.97321007
 20
226.2388343101
 10
758.0060737723
 20
226.494108864
 10
758.1065414627
 20
226.754013866
 10
758.15602997
 20
227.0159395675
 10
758.1944591001
 20
227.2796711265
 10
758.2903974902
 20
227.545423335
 10
758.3444294928
 20
227.8112308875
 10
758.4015400115
 20
228.0796161111
 10
758.4994248255
 20
228.3480566424
 10
758.5338735231
 20
228.6070201235
 10
758.561278941
 20
228.8528605251
 10
758.6485178056
 20
229.089223823
 10
758.7035368216
 20
229.3175156592
 10
758.7399373649
 20
229.5382972734
  0
LINE
  5
258
100
AcDbEntity
  8
0
100
AcDbLine
 62
7
  6
CONTINUOUS
 10
449.8714858664
 20
225.742420525
 11
450.3499077509
 21
223.6325342741
  0
LWPOLYLINE
  5
259
100
AcDbEntity
  8
0
100
AcDbPolyline
 62
7
  6
CONTINUOUS
 90
17
 70
0
 10
449.8970777348
 20
225.7419855361
 10
449.9246473523
 20
225.5131493754
 10
449.9412992867
 20
225.2896876107
 10
450.0361310496
 20
225.0716734911
 10
450.0739354761
 20
224.8650393898
 10
450.0769033412
 20
224.6700297372
 10
450.1424591067
 20
224.4864001009
 10
450.1977569676
 20
224.3193494688
 10
450.198233932
 20
224.1697788233
 10
450.2222153562
 20
224.0367870378
 10
450.2862090352
 20
223.9228698397
 10
450.2900700196
 20
223.8293176472
 10
450.2724303253
 20
223.754839743
 10
450.3356727305
 20
223.6980601155
 10
450.4334714566
 20
223.6585199923
 10
450.4545216649
 20
223.6366778226
 10
450.349941571
 20
223.6325334351
  0
LINE
  5
25A
100
AcDbEntity
  8
0
100
AcDbLine
 62
7
  6
CONTINUOUS
 10
563.1097617049
 20
217.7185037723
 11
574.800682215
 21
201.4787907366
  0
LINE
  5
25B
100
AcDbEntity
  8
0
100
AcDbLine
 62
7
  6
CONTINUOUS
 10
575.3495259552
 20
200.0396271295
 11
575.3869649198
 21
199.6834191755
  0
LINE
  5
25C
100
AcDbEntity
  8
0
100
AcDbLine
 62
7
  6
CONTINUOUS
 10
603.8660883292
 20
673.8665597289
 11
603.8660170307
 21
667.9712862989
  0
LINE
  5
25D
100
AcDbEntity
  8
0
100
AcDbLine
 62
7
  6
CONTINUOUS
 10
603.8648568431
 20
233.1634879937
 11
603.8644342978
 21
652.6850932083
  0
LINE
  5
25E
100
AcDbEntity
  8
0
100
AcDbLine
 62
7
  6
CONTINUOUS
 10
632.3793426603
 20
200.0396271295
 11
632.3419036957
 21
199.6834191755
  0
LINE
  5
25F
100
AcDbEntity
  8
0
100
AcDbLine
 62
7
  6
CONTINUOUS
 10
632.9281864005
 20
201.4787907366
 11
632.3793426603
 21
200.0396271295
  0
LINE
  5
260
100
AcDbEntity
  8
0
100
AcDbLine
 62
7
  6
CONTINUOUS
 10
644.6191069106
 20
217.7185037723
 11
632.9281864005
 21
201.4787907366
  0
LINE
  5
261
100
AcDbEntity
  8
0
100
AcDbLine
 62
7
  6
CONTINUOUS
 10
757.3789270445
 20
223.6325334357
 11
758.7564605811
 21
229.5384716404
  0
LINE
  5
262
100
AcDbEntity
  8
0
100
AcDbLine
 62
7
  6
CONTINUOUS
 10
229.110427202
 20
668.7779969182
 11
229.1938363909
 21
668.7786365075
  0
LINE
  5
263
100
AcDbEntity
  8
0
100
AcDbLine
 62
7
  6
CONTINUOUS
 10
235.2058271322
 20
674.6742523413
 11
235.090550732
 21
674.6736877577
  0
LINE
  5
264
100
AcDbEntity
  8
0
100
AcDbLine
 62
7
  6
CONTINUOUS
 10
784.7701411529
 20
674.2990402932
 11
639.9793708498
 21
673.8839851167
  0
LINE
  5
265
100
AcDbEntity
  8
0
100
AcDbLine
 62
7
  6
CONTINUOUS
 10
978.8993444376
 20
652.6850734458
 11
228.8295241779
 21
652.6850734458
  0
LINE
  5
266
100
AcDbEntity
  8
0
100
AcDbLine
 62
7
  6
CONTINUOUS
 10
639.9793708498
 20
673.8839851167
 11
569.7280683723
 21
673.8812799409
  0
LINE
  5
267
100
AcDbEntity
  8
0
100
AcDbLine
 62
7
  6
CONTINUOUS
 10
968.8644343078
 20
668.7745161062
 11
978.6184409574
 21
668.7780230277
  0
LINE
  5
268
100
AcDbEntity
  8
0
100
AcDbLine
 62
7
  6
CONTINUOUS
 10
229.110427202
 20
668.7779969182
 11
238.8644343078
 21
668.7744828911
  0
LINE
  5
269
100
AcDbEntity
  8
0
100
AcDbLine
 62
7
  6
CONTINUOUS
 10
972.4404853215
 20
674.6744308004
 11
784.7701411529
 21
674.2990402932
  0
LWPOLYLINE
  5
26A
100
AcDbEntity
  8
0
100
AcDbPolyline
 62
7
  6
CONTINUOUS
 90
3
 70
0
 10
427.0402131457
 20
674.2893772333
 10
253.6155450001
 20
674.6255899275
 10
235.2058271322
 20
674.6742523413
  0
LINE
  5
26B
100
AcDbEntity
  8
0
100
AcDbLine
 62
7
  6
CONTINUOUS
 10
569.7280683723
 20
673.8812799409
 11
427.0402131457
 21
674.2893772333
  0
LINE
  5
26C
100
AcDbEntity
  8
0
100
AcDbLine
 62
7
  6
CONTINUOUS
 10
972.5678568357
 20
674.6740989612
 11
972.4404853215
 21
674.6744308004
  0
LINE
  5
26D
100
AcDbEntity
  8
0
100
AcDbLine
 62
7
  6
CONTINUOUS
 10
978.5350373929
 20
668.7786668409
 11
978.6184409569
 21
668.778023076
  0
LINE
  5
26E
100
AcDbEntity
  8
0
100
AcDbLine
 62
7
  6
CONTINUOUS
 10
833.5891079034
 20
291.5735710465
 11
833.5730508709
 21
291.505690486
  0
LINE
  5
26F
100
AcDbEntity
  8
0
100
AcDbLine
 62
7
  6
CONTINUOUS
 10
831.4456682736
 20
282.7796744038
 11
921.6189276622
 21
652.6850932083
  0
LINE
  5
270
100
AcDbEntity
  8
0
100
AcDbLine
 62
7
  6
CONTINUOUS
 10
830.8884363406
 20
280.5127761777
 11
831.4084285517
 21
282.6271441022
  0
LINE
  5
271
100
AcDbEntity
  8
0
100
AcDbLine
 62
7
  6
CONTINUOUS
 10
833.6030840539
 20
291.6248842983
 11
833.6038736255
 21
291.6280299939
  0
LINE
  5
272
100
AcDbEntity
  8
0
100
AcDbLine
 62
7
  6
CONTINUOUS
 10
830.5319615096
 20
279.0916688034
 11
830.8884363406
 21
280.5127761777
  0
LINE
  5
273
100
AcDbEntity
  8
0
100
AcDbLine
 62
7
  6
CONTINUOUS
 10
832.5275536778
 20
287.2722030743
 11
832.8622133944
 21
288.606311677
  0
LINE
  5
274
100
AcDbEntity
  8
0
100
AcDbLine
 62
7
  6
CONTINUOUS
 10
830.2551805854
 20
278.011009495
 11
830.5319615096
 21
279.0916688034
  0
LINE
  5
275
100
AcDbEntity
  8
0
100
AcDbLine
 62
7
  6
CONTINUOUS
 10
832.2751466349
 20
286.2854234269
 11
832.5275536778
 21
287.2722030743
  0
LINE
  5
276
100
AcDbEntity
  8
0
100
AcDbLine
 62
7
  6
CONTINUOUS
 10
833.5955375889
 20
291.59934964
 11
833.5886207153
 21
291.5729925332
  0
LINE
  5
277
100
AcDbEntity
  8
0
100
AcDbLine
 62
7
  6
CONTINUOUS
 10
832.0405376188
 20
285.3856683154
 11
832.2751466349
 21
286.2854234269
  0
LINE
  5
278
100
AcDbEntity
  8
0
100
AcDbLine
 62
7
  6
CONTINUOUS
 10
829.9567883342
 20
276.8722535321
 11
830.2551805854
 21
278.011009495
  0
LINE
  5
279
100
AcDbEntity
  8
0
100
AcDbLine
 62
7
  6
CONTINUOUS
 10
831.8488182724
 20
284.6640388206
 11
832.0405376188
 21
285.3856683154
  0
LINE
  5
27A
100
AcDbEntity
  8
0
100
AcDbLine
 62
7
  6
CONTINUOUS
 10
833.6004299272
 20
291.6150373647
 11
833.6030840539
 21
291.6248842983
  0
LINE
  5
27B
100
AcDbEntity
  8
0
100
AcDbLine
 62
7
  6
CONTINUOUS
 10
831.6655889437
 20
283.9864988264
 11
831.8488182724
 21
284.6640388206
  0
LINE
  5
27C
100
AcDbEntity
  8
0
100
AcDbLine
 62
7
  6
CONTINUOUS
 10
831.4752142997
 20
283.2955308977
 11
831.6655889437
 21
283.9864988264
  0
LINE
  5
27D
100
AcDbEntity
  8
0
100
AcDbLine
 62
7
  6
CONTINUOUS
 10
831.4708492781
 20
283.2798722625
 11
831.459707099
 21
283.2398528259
  0
LINE
  5
27E
100
AcDbEntity
  8
0
100
AcDbLine
 62
7
  6
CONTINUOUS
 10
833.6031197033
 20
291.626082934
 11
833.5955375889
 21
291.59934964
  0
LWPOLYLINE
  5
27F
100
AcDbEntity
  8
0
100
AcDbPolyline
 62
7
  6
CONTINUOUS
 90
61
 70
0
 10
235.090550732
 20
674.6736877577
 10
235.0554694529
 20
674.6733411253
 10
235.0071373007
 20
674.6726139358
 10
234.947329272
 20
674.6712385547
 10
234.8721232987
 20
674.6686980441
 10
234.7744332601
 20
674.6640079886
 10
234.6592073707
 20
674.6564344981
 10
234.5408701315
 20
674.6463395683
 10
234.4239886072
 20
674.6340494762
 10
234.3040101875
 20
674.6190200294
 10
234.182240034
 20
674.6012459197
 10
234.0591476835
 20
674.5806747375
 10
233.9343909017
 20
674.5571256014
 10
233.8081099356
 20
674.530487248
 10
233.6803727899
 20
674.5006348037
 10
233.5512871006
 20
674.4674511613
 10
233.4210677846
 20
674.4308509988
 10
233.2898621316
 20
674.3907380877
 10
233.1577484333
 20
674.3469963999
 10
233.0248507977
 20
674.2995232961
 10
232.8913084593
 20
674.2482227733
 10
232.7572570344
 20
674.1929991033
 10
232.6228278759
 20
674.1337555727
 10
232.4881874105
 20
674.0704124051
 10
232.3534932126
 20
674.0028888907
 10
232.2188766445
 20
673.9310920571
 10
232.0845210081
 20
673.8549573297
 10
231.9506152914
 20
673.7744281269
 10
231.8173130634
 20
673.6894296227
 10
231.684824643
 20
673.5999256808
 10
231.5533555995
 20
673.505884174
 10
231.4230660676
 20
673.4072443116
 10
231.2941897846
 20
673.3040043858
 10
231.166946014
 20
673.1961613341
 10
231.0414880582
 20
673.0836601901
 10
230.9180653206
 20
672.9665348209
 10
230.7969115583
 20
672.8448180342
 10
230.6781738696
 20
672.7184603823
 10
230.5621128925
 20
672.5875351027
 10
230.4489726565
 20
672.4521150413
 10
230.3388954781
 20
672.3121573972
 10
230.2321665201
 20
672.1678044502
 10
230.1290143825
 20
672.0191480165
 10
230.0295271733
 20
671.8660738507
 10
229.9340046488
 20
671.7087850759
 10
229.8426733102
 20
671.5474001276
 10
229.7555666936
 20
671.3816770724
 10
229.6729793671
 20
671.2118320705
 10
229.595173633
 20
671.0380621439
 10
229.5222116276
 20
670.8601007904
 10
229.4543986469
 20
670.6782218656
 10
229.3920063181
 20
670.4926798758
 10
229.3351338488
 20
670.3031978506
 10
229.2840889173
 20
670.1101199903
 10
229.2391427537
 20
669.9137702724
 10
229.2004347452
 20
669.7138784218
 10
229.168264774
 20
669.5109006196
 10
229.1428816754
 20
669.3052113834
 10
229.1244551612
 20
669.0964786502
 10
229.1132609954
 20
668.8853274158
 10
229.1104276584
 20
668.7780230666
  0
LWPOLYLINE
  5
280
100
AcDbEntity
  8
0
100
AcDbPolyline
 62
7
  6
CONTINUOUS
 90
10
 70
0
 10
973.3404432035
 20
674.6298503656
 10
973.2121990849
 20
674.6439844339
 10
973.091889773
 20
674.6547177891
 10
972.9767678535
 20
674.6627133362
 10
972.869254137
 20
674.6681856217
 10
972.7817000819
 20
674.6712348849
 10
972.7201775458
 20
674.6726433972
 10
972.6751857575
 20
674.6733192019
 10
972.6356874124
 20
674.6737098798
 10
972.6000803695
 20
674.673945346
  0
LWPOLYLINE
  5
281
100
AcDbEntity
  8
0
100
AcDbPolyline
 62
7
  6
CONTINUOUS
 90
5
 70
0
 10
978.6184409572
 20
668.7780230637
 10
978.6129214588
 20
668.9510829592
 10
978.6011069797
 20
669.1408991127
 10
978.5833721987
 20
669.3294310906
 10
978.5636370829
 20
669.4861435766
  0
LINE
  5
282
100
AcDbEntity
  8
0
100
AcDbLine
 62
7
  6
CONTINUOUS
 10
978.8993444376
 20
652.6850734458
 11
978.6207316835
 21
668.646787441
  0
LINE
  5
283
100
AcDbEntity
  8
0
100
AcDbLine
 62
7
  6
CONTINUOUS
 10
968.8487634792
 20
674.6697159072
 11
968.8644343078
 21
652.6850932083
  0
LWPOLYLINE
  5
284
100
AcDbEntity
  8
0
100
AcDbPolyline
 62
7
  6
CONTINUOUS
 90
33
 70
0
 10
977.4947430405
 20
672.1705371332
 10
977.3915882604
 20
672.3100389507
 10
977.2850738282
 20
672.4457200103
 10
977.175380541
 20
672.577492705
 10
977.0626220195
 20
672.705355575
 10
976.9470070246
 20
672.8292026155
 10
976.8287371575
 20
672.9489526002
 10
976.7079006453
 20
673.0646440555
 10
976.5846929471
 20
673.1762110559
 10
976.4593222164
 20
673.283589558
 10
976.3318804869
 20
673.3868207324
 10
976.2025576742
 20
673.4858655411
 10
976.0715555908
 20
673.5806867843
 10
975.9389712476
 20
673.6713283732
 10
975.8049864558
 20
673.757776157
 10
975.6697941946
 20
673.8400177651
 10
975.5334973107
 20
673.9181005523
 10
975.3962664965
 20
673.9920336505
 10
975.258284382
 20
674.0618270823
 10
975.1196622743
 20
674.127531728
 10
974.9805297641
 20
674.1891899882
 10
974.8410847624
 20
674.2468190535
 10
974.7015338892
 20
674.3004430475
 10
974.5619838178
 20
674.3501311742
 10
974.4226274967
 20
674.3959252389
 10
974.2837944986
 20
674.4378369739
 10
974.1456093224
 20
674.4759553588
 10
974.0082107065
 20
674.5103677602
 10
973.8719389115
 20
674.5411220783
 10
973.7366760725
 20
674.5683761533
 10
973.6027551505
 20
674.5921923426
 10
973.4711670526
 20
674.6125609702
 10
973.3597098561
 20
674.6273021789
  0
LWPOLYLINE
  5
285
100
AcDbEntity
  8
0
100
AcDbPolyline
 62
7
  6
CONTINUOUS
 90
11
 70
0
 10
978.3035808773
 20
670.5941360837
 10
978.2428953857
 20
670.7651490653
 10
978.1773563689
 20
670.9335353216
 10
978.1071279454
 20
671.0990771977
 10
978.0323959197
 20
671.2615501702
 10
977.953173476
 20
671.4211055759
 10
977.8696208756
 20
671.5775670975
 10
977.7819315025
 20
671.7307281937
 10
977.6901232321
 20
671.8806941223
 10
977.5943147497
 20
672.0273791998
 10
977.4947430405
 20
672.1705371332
  0
LWPOLYLINE
  5
286
100
AcDbEntity
  8
0
100
AcDbPolyline
 62
7
  6
CONTINUOUS
 90
7
 70
0
 10
978.5598337856
 20
669.5163447764
 10
978.5306350476
 20
669.7013002407
 10
978.4958496859
 20
669.8844276394
 10
978.4556196587
 20
670.0654345109
 10
978.4101111849
 20
670.2440228361
 10
978.3593792978
 20
670.4203410098
 10
978.3035808773
 20
670.5941360837
  0
LINE
  5
287
100
AcDbEntity
  8
0
100
AcDbLine
 62
7
  6
CONTINUOUS
 10
-2971.1832233459
 20
-285.3202993202
 11
-2971.1832233459
 21
-1015.3202993202
  0
LINE
  5
288
100
AcDbEntity
  8
0
100
AcDbLine
 62
7
  6
CONTINUOUS
 10
-2970.9163717393
 20
-650.3218820431
 11
-2970.914729109
 21
-693.1473204236
  0
LINE
  5
289
100
AcDbEntity
  8
0
100
AcDbLine
 62
7
  6
CONTINUOUS
 10
-2961.1482817753
 20
-275.5640564986
 11
-2961.148313216
 21
-275.2853891903
  0
LINE
  5
28A
100
AcDbEntity
  8
0
100
AcDbLine
 62
7
  6
CONTINUOUS
 10
-2961.148313216
 20
-1025.35520945
 11
-2961.1482817815
 21
-1025.0765966959
  0
LINE
  5
28B
100
AcDbEntity
  8
0
100
AcDbLine
 62
7
  6
CONTINUOUS
 10
-1281.1483132193
 20
-1025.35520945
 11
-2961.148313216
 21
-1025.35520945
  0
LINE
  5
28C
100
AcDbEntity
  8
0
100
AcDbLine
 62
7
  6
CONTINUOUS
 10
-2959.6039722232
 20
-1025.0766429889
 11
-2961.1482817815
 21
-1025.0765966959
  0
LINE
  5
28D
100
AcDbEntity
  8
0
100
AcDbLine
 62
7
  6
CONTINUOUS
 10
-1271.1134030895
 20
-1015.3202993202
 11
-1271.3942070829
 21
-1015.3202993202
  0
LINE
  5
28E
100
AcDbEntity
  8
0
100
AcDbLine
 62
7
  6
CONTINUOUS
 10
-2970.9023503072
 20
-1015.3202993202
 11
-2971.1832233459
 21
-1015.3202993202
  0
LINE
  5
28F
100
AcDbEntity
  8
0
100
AcDbLine
 62
7
  6
CONTINUOUS
 10
-1278.1171856571
 20
-650.3193929041
 11
-1271.3801974797
 21
-650.3192915391
  0
LINE
  5
290
100
AcDbEntity
  8
0
100
AcDbLine
 62
7
  6
CONTINUOUS
 10
-2964.1793557928
 20
-650.3219229699
 11
-2970.9163705504
 21
-650.3218820431
  0
LINE
  5
291
100
AcDbEntity
  8
0
100
AcDbLine
 62
7
  6
CONTINUOUS
 10
-1319.2220302449
 20
-650.319677435
 11
-1603.8057916967
 21
-650.3202993359
  0
LINE
  5
292
100
AcDbEntity
  8
0
100
AcDbLine
 62
7
  6
CONTINUOUS
 10
-2638.492470889
 20
-650.3202993408
 11
-2918.4662602574
 21
-650.3203068063
  0
LINE
  5
293
100
AcDbEntity
  8
0
100
AcDbLine
 62
7
  6
CONTINUOUS
 10
-2971.1832233459
 20
-285.3202993202
 11
-2970.9023503087
 21
-285.3202993202
  0
LINE
  5
294
100
AcDbEntity
  8
0
100
AcDbLine
 62
7
  6
CONTINUOUS
 10
-1271.3942070829
 20
-285.3202993202
 11
-1271.1134030895
 21
-285.3202993202
  0
LINE
  5
295
100
AcDbEntity
  8
0
100
AcDbLine
 62
7
  6
CONTINUOUS
 10
-2959.8023583435
 20
-275.5640173542
 11
-2961.1482817753
 21
-275.5640564986
  0
LINE
  5
296
100
AcDbEntity
  8
0
100
AcDbLine
 62
7
  6
CONTINUOUS
 10
-1281.1482818328
 20
-275.5635762085
 11
-1290.4665533722
 21
-275.5632997931
  0
LINE
  5
297
100
AcDbEntity
  8
0
100
AcDbLine
 62
7
  6
CONTINUOUS
 10
-1281.1483132193
 20
-275.2853891903
 11
-2961.148313216
 21
-275.2853891903
  0
LINE
  5
298
100
AcDbEntity
  8
0
100
AcDbLine
 62
7
  6
CONTINUOUS
 10
-1281.1483132193
 20
-275.2853891903
 11
-1281.1482818328
 21
-275.5635762085
  0
LINE
  5
299
100
AcDbEntity
  8
0
100
AcDbLine
 62
7
  6
CONTINUOUS
 10
-1271.381780881
 20
-608.2470794617
 11
-1271.3817346818
 21
-692.3932022398
  0
LINE
  5
29A
100
AcDbEntity
  8
0
100
AcDbLine
 62
7
  6
CONTINUOUS
 10
-1271.1134030895
 20
-1015.3202993202
 11
-1271.1134030895
 21
-285.3202993202
  0
LINE
  5
29B
100
AcDbEntity
  8
0
100
AcDbLine
 62
7
  6
CONTINUOUS
 10
-1281.1482817422
 20
-1025.0762196694
 11
-1281.1483132193
 21
-1025.35520945
  0
ARC
  5
29C
100
AcDbEntity
  8
0
100
AcDbCircle
 62
7
  6
CONTINUOUS
 10
-2126.4292838807
 20
485712.7513861654
 40
485044.8228378319
100
AcDbArc
 50
269.9013990109
 51
270.0998486246
  0
ARC
  5
29D
100
AcDbEntity
  8
0
100
AcDbCircle
 62
7
  6
CONTINUOUS
 10
-2120.5914244568
 20
6322.1727850306
 40
6098.5402770983
100
AcDbArc
 50
269.5574395957
 51
269.9947600923
  0
ARC
  5
29E
100
AcDbEntity
  8
0
100
AcDbCircle
 62
7
  6
CONTINUOUS
 10
-2121.6513845716
 20
6316.4181960537
 40
6092.7856833172
100
AcDbArc
 50
270.004722873
 51
270.4424547267
  0
ARC
  5
29F
100
AcDbEntity
  8
0
100
AcDbCircle
 62
7
  6
CONTINUOUS
 10
-1596.8802464226
 20
326.9812189314
 40
94.2241805594
100
AcDbArc
 50
302.7882319255
 51
303.7243839871
  0
ARC
  5
2A0
100
AcDbEntity
  8
0
100
AcDbCircle
 62
7
  6
CONTINUOUS
 10
-2167.9910895798
 20
213.3359252682
 40
7.5007646869
100
AcDbArc
 50
36.0028591956
 51
88.4967081886
  0
ARC
  5
2A1
100
AcDbEntity
  8
0
100
AcDbCircle
 62
7
  6
CONTINUOUS
 10
-2074.3072535018
 20
213.3357503858
 40
7.5007587265
100
AcDbArc
 50
91.5031736715
 51
144.2470090718
  0
ARC
  5
2A2
100
AcDbEntity
  8
0
100
AcDbCircle
 62
7
  6
CONTINUOUS
 10
389.8823017151
 20
119.9026217871
 40
172.7946130987
100
AcDbArc
 50
92.9521254554
 51
93.3359253108
  0
ARC
  5
2A3
100
AcDbEntity
  8
0
100
AcDbCircle
 62
7
  6
CONTINUOUS
 10
557.0229568401
 20
213.3366312801
 40
7.5
100
AcDbArc
 50
35.7499999999
 51
88.5
  0
ARC
  5
2A4
100
AcDbEntity
  8
0
100
AcDbCircle
 62
7
  6
CONTINUOUS
 10
650.7059117754
 20
213.3366312801
 40
7.5
100
AcDbArc
 50
91.5
 51
144.2500000001
  0
ARC
  5
2A5
100
AcDbEntity
  8
0
100
AcDbCircle
 62
7
  6
CONTINUOUS
 10
235.1118192999
 20
668.6709493909
 40
6.0024440309
100
AcDbArc
 50
89.849421716
 51
178.9781168969
  0
ARC
  5
2A6
100
AcDbEntity
  8
0
100
AcDbCircle
 62
7
  6
CONTINUOUS
 10
972.6179770325
 20
668.6886487922
 40
5.9846499067
100
AcDbArc
 50
359.7917184447
 51
90.1599988728
  0
ARC
  5
2A7
100
AcDbEntity
  8
0
100
AcDbCircle
 62
7
  6
CONTINUOUS
 10
572.3664014125
 20
199.7261162638
 40
2.9998199427
100
AcDbArc
 50
5.9989255526
 51
35.7507160583
  0
CIRCLE
  5
2A8
100
AcDbEntity
  8
0
100
AcDbCircle
 62
7
  6
CONTINUOUS
 10
-2121.1491558143
 20
-650.3202993202
 40
46.5404425621
  0
CIRCLE
  5
2A9
100
AcDbEntity
  8
0
100
AcDbCircle
 62
7
  6
CONTINUOUS
 10
-2121.1491652223
 20
-650.3202993202
 40
37.508376675
  0
CIRCLE
  5
2AA
100
AcDbEntity
  8
0
100
AcDbCircle
 62
7
  6
CONTINUOUS
 10
-2121.1491972043
 20
-650.3202993202
 40
25.8174561649
  0
CIRCLE
  5
2AB
100
AcDbEntity
  8
0
100
AcDbCircle
 62
7
  6
CONTINUOUS
 10
-2121.1492038176
 20
-650.3202993202
 40
24.5368207711
  0
CIRCLE
  5
2AC
100
AcDbEntity
  8
0
100
AcDbCircle
 62
7
  6
CONTINUOUS
 10
-2121.1492053425
 20
-650.3202993202
 40
24.4554362697
  0
ARC
  5
2AD
100
AcDbEntity
  8
0
100
AcDbCircle
 62
7
  6
CONTINUOUS
 10
-2961.148313216
 20
-1015.3202993202
 40
10.0349101299
100
AcDbArc
 50
180.0
 51
270.0
  0
ARC
  5
2AE
100
AcDbEntity
  8
0
100
AcDbCircle
 62
7
  6
CONTINUOUS
 10
-2961.1481865191
 20
-1015.3201427588
 40
9.754163211
100
AcDbArc
 50
180.0009196386
 51
269.9994419485
  0
ARC
  5
2AF
100
AcDbEntity
  8
0
100
AcDbCircle
 62
7
  6
CONTINUOUS
 10
-2961.148313216
 20
-285.3202993202
 40
10.0349101299
100
AcDbArc
 50
90.0
 51
180.0
  0
ARC
  5
2B0
100
AcDbEntity
  8
0
100
AcDbCircle
 62
7
  6
CONTINUOUS
 10
-2961.1440065556
 20
-285.2688046869
 40
9.7025134142
100
AcDbArc
 50
90.0252447578
 51
180.0033931344
  0
ARC
  5
2B1
100
AcDbEntity
  8
0
100
AcDbCircle
 62
7
  6
CONTINUOUS
 10
-1281.1483132193
 20
-1015.3202993202
 40
10.0349101299
100
AcDbArc
 50
270.0
 51
360.0
  0
ARC
  5
2B2
100
AcDbEntity
  8
0
100
AcDbCircle
 62
7
  6
CONTINUOUS
 10
-1281.1483783982
 20
-1015.3201394155
 40
9.7541713166
100
AcDbArc
 50
270.00056902
 51
359.9990607238
  0
ARC
  5
2B3
100
AcDbEntity
  8
0
100
AcDbCircle
 62
7
  6
CONTINUOUS
 10
-1281.1483132193
 20
-285.3202993202
 40
10.0349101299
100
AcDbArc
 50
0.0
 51
90.0
  0
ARC
  5
2B4
100
AcDbEntity
  8
0
100
AcDbCircle
 62
7
  6
CONTINUOUS
 10
-1281.1483789315
 20
-285.3204596368
 40
9.7541713173
100
AcDbArc
 50
0.0009416961
 51
89.9994278468
  0
SPLINE
  5
2B5
100
AcDbEntity
  8
0
100
AcDbSpline
 62
7
  6
CONTINUOUS
 70
0
 71
3
 72
15
 73
11
 74
0
 42
0.0000001
 43
0.0000001
 44
0.0000000001
 40
0.0
 40
0.0
 40
0.0
 40
0.0
 40
0.2314417246
 40
0.3511975323
 40
0.4738735079
 40
0.6000877563
 40
0.6648250017
 40
0.7306234055
 40
0.8643975377
 40
1.0
 40
1.0
 40
1.0
 40
1.0
 10
-1509.2664196963
 20
292.74505523
 30
0.0
 10
-1511.2721289425
 20
288.8086483577
 30
0.0
 10
-1514.3218616317
 20
282.8349175854
 30
0.0
 10
-1518.9131020316
 20
275.0364696757
 30
0.0
 10
-1522.8381973014
 20
269.18970122
 30
0.0
 10
-1526.551555278
 20
264.4835056473
 30
0.0
 10
-1529.8456375092
 20
260.8522499578
 30
0.0
 10
-1533.4145957745
 20
257.2834531334
 30
0.0
 10
-1538.2525723579
 20
253.0829517529
 30
0.0
 10
-1542.4138237292
 20
250.0507087274
 30
0.0
 10
-1544.5666987594
 20
248.6135665957
 30
0.0
  0
SPLINE
  5
2B6
100
AcDbEntity
  8
0
100
AcDbSpline
 62
7
  6
CONTINUOUS
 70
0
 71
3
 72
15
 73
11
 74
0
 42
0.0000001
 43
0.0000001
 44
0.0000000001
 40
0.0
 40
0.0
 40
0.0
 40
0.0
 40
0.1138218991
 40
0.2304891306
 40
0.3500386885
 40
0.4728010161
 40
0.5995907079
 40
0.7307983044
 40
0.8647623991
 40
1.0
 40
1.0
 40
1.0
 40
1.0
 10
-2638.5971865376
 20
233.1634879937
 30
0.0
 10
-2640.9357579878
 20
233.2247302506
 30
0.0
 10
-2645.6714152955
 20
233.349368795
 30
0.0
 10
-2652.8581597174
 20
233.7072813115
 30
0.0
 10
-2660.2063631726
 20
234.4130808233
 30
0.0
 10
-2667.6988198233
 20
235.6477617404
 30
0.0
 10
-2675.2925797604
 20
237.5905540377
 30
0.0
 10
-2682.8602574945
 20
240.3942810829
 30
0.0
 10
-2690.2778838499
 20
243.9835814637
 30
0.0
 10
-2695.0316775579
 20
246.8311096473
 30
0.0
 10
-2697.3509041986
 20
248.3630910125
 30
0.0
  0
SPLINE
  5
2B7
100
AcDbEntity
  8
0
100
AcDbSpline
 62
7
  6
CONTINUOUS
 70
0
 71
3
 72
16
 73
12
 74
0
 42
0.0000001
 43
0.0000001
 44
0.0000000001
 40
0.0
 40
0.0
 40
0.0
 40
0.0
 40
0.1353510551
 40
0.2692753044
 40
0.3353025088
 40
0.400363173
 40
0.5269890974
 40
0.6497129268
 40
0.7692993953
 40
0.886051543
 40
1.0
 40
1.0
 40
1.0
 40
1.0
 10
-1545.8545026504
 20
247.7690375791
 30
0.0
 10
-1548.1521892382
 20
246.288936049
 30
0.0
 10
-1552.8530725646
 20
243.5406269212
 30
0.0
 10
-1558.9855823726
 20
240.647684381
 30
0.0
 10
-1563.9775838871
 20
238.7141449048
 30
0.0
 10
-1568.9214759413
 20
237.082789772
 30
0.0
 10
-1575.0927887605
 20
235.54866191
 30
0.0
 10
-1582.4553459065
 20
234.3683056634
 30
0.0
 10
-1589.6778524481
 20
233.6907050268
 30
0.0
 10
-1596.743920644
 20
233.3442071213
 30
0.0
 10
-1601.4009100841
 20
233.221677757
 30
0.0
 10
-1603.7010811965
 20
233.1614501901
 30
0.0
  0
SPLINE
  5
2B8
100
AcDbEntity
  8
0
100
AcDbSpline
 62
7
  6
CONTINUOUS
 70
0
 71
3
 72
15
 73
11
 74
0
 42
0.0000001
 43
0.0000001
 44
0.0000000001
 40
0.0
 40
0.0
 40
0.0
 40
0.0
 40
0.135578402
 40
0.2693782094
 40
0.335212746
 40
0.3999954165
 40
0.5262596408
 40
0.6489378811
 40
0.7686673929
 40
1.0
 40
1.0
 40
1.0
 40
1.0
 10
-2697.3545138438
 20
248.365475508
 30
0.0
 10
-2699.5309392162
 20
249.803272105
 30
0.0
 10
-2703.7389730368
 20
252.8404716222
 30
0.0
 10
-2708.6332300703
 20
257.0544185926
 30
0.0
 10
-2712.2464136019
 20
260.6382426776
 30
0.0
 10
-2715.5815486833
 20
264.287963892
 30
0.0
 10
-2719.3386386347
 20
269.0226065036
 30
0.0
 10
-2723.3051562646
 20
274.9093194777
 30
0.0
 10
-2727.9382902305
 20
282.7631965588
 30
0.0
 10
-2731.0110430914
 20
288.7818317928
 30
0.0
 10
-2733.0316244382
 20
292.7474652771
 30
0.0
  0
SPLINE
  5
2B9
100
AcDbEntity
  8
0
100
AcDbSpline
 62
7
  6
CONTINUOUS
 70
0
 71
3
 72
60
 73
56
 74
0
 42
0.0000001
 43
0.0000001
 44
0.0000000001
 40
0.0
 40
0.0
 40
0.0
 40
0.0
 40
0.0007213584
 40
0.0011427152
 40
0.0016349072
 40
0.0021604502
 40
0.0026739596
 40
0.0031350096
 40
0.0033372655
 40
0.0035145491
 40
0.0036694748
 40
0.0037379656
 40
0.0037998749
 40
0.0038578517
 40
0.0038849995
 40
0.0039053728
 40
0.0039107988
 40
0.0039227576
 40
0.0039453443
 40
0.0039788766
 40
0.0040735515
 40
0.0042049188
 40
0.0045773208
 40
0.0050789031
 40
0.0057012973
 40
0.0064323351
 40
0.0081821061
 40
0.0102644263
 40
0.0126287026
 40
0.015238347
 40
0.018070497
 40
0.0211130083
 40
0.0243633069
 40
0.0278274867
 40
0.0354583196
 40
0.0441823673
 40
0.0542341469
 40
0.0658549767
 40
0.0792166895
 40
0.0941560382
 40
0.110358937
 40
0.1277342758
 40
0.1461921846
 40
0.185996267
 40
0.2290522263
 40
0.2746410814
 40
0.3220441077
 40
0.3705419769
 40
0.4194164383
 40
0.4679476299
 40
0.5611067737
 40
0.6489449629
 40
0.7366936491
 40
0.8244508259
 40
1.0
 40
1.0
 40
1.0
 40
1.0
 10
-1603.701132198
 20
233.1614488912
 30
0.0
 10
-1603.5888730081
 20
233.1800679732
 30
0.0
 10
-1603.4106959835
 20
233.2074405347
 30
0.0
 10
-1603.1562958361
 20
233.2498204278
 30
0.0
 10
-1602.9326805696
 20
233.2889781404
 30
0.0
 10
-1602.6953671915
 20
233.3340928109
 30
0.0
 10
-1602.4638899161
 20
233.3833729315
 30
0.0
 10
-1602.2836784945
 20
233.4281756945
 30
0.0
 10
-1602.156148047
 20
233.4645279494
 30
0.0
 10
-1602.0759344604
 20
233.4906367017
 30
0.0
 10
-1602.0165678646
 20
233.5121735684
 30
0.0
 10
-1601.9746141644
 20
233.5288268709
 30
0.0
 10
-1601.9478326752
 20
233.5410091421
 30
0.0
 10
-1601.9256140024
 20
233.5502215099
 30
0.0
 10
-1601.9125306493
 20
233.5579898948
 30
0.0
 10
-1601.9016688512
 20
233.5606428797
 30
0.0
 10
-1601.9028517328
 20
233.5674059413
 30
0.0
 10
-1601.9101313471
 20
233.5686919854
 30
0.0
 10
-1601.9199166417
 20
233.5711681223
 30
0.0
 10
-1601.9440401419
 20
233.5737677192
 30
0.0
 10
-1601.9845032869
 20
233.5771690634
 30
0.0
 10
-1602.0790365339
 20
233.581748393
 30
0.0
 10
-1602.2374215486
 20
233.5857171654
 30
0.0
 10
-1602.4735307665
 20
233.5888154367
 30
0.0
 10
-1602.7661258609
 20
233.5902853487
 30
0.0
 10
-1603.255663035
 20
233.5903654002
 30
0.0
 10
-1603.9754738981
 20
233.5865925635
 30
0.0
 10
-1604.9529017391
 20
233.5777575795
 30
0.0
 10
-1606.0659333829
 20
233.5647818645
 30
0.0
 10
-1607.2972127044
 20
233.5481245879
 30
0.0
 10
-1608.6354442065
 20
233.5280760047
 30
0.0
 10
-1610.0747000089
 20
233.5048307911
 30
0.0
 10
-1611.613619015
 20
233.4784681577
 30
0.0
 10
-1613.8761961741
 20
233.4377856606
 30
0.0
 10
-1617.0020395746
 20
233.3779425602
 30
0.0
 10
-1621.1667666528
 20
233.292860708
 30
0.0
 10
-1625.9606541317
 20
233.1891240163
 30
0.0
 10
-1631.4858090523
 20
233.0630911022
 30
0.0
 10
-1637.7815590562
 20
232.9106171668
 30
0.0
 10
-1644.7997447501
 20
232.7340598231
 30
0.0
 10
-1652.4509272371
 20
232.5438220698
 30
0.0
 10
-1660.6569773047
 20
232.3395325937
 30
0.0
 10
-1672.5849302872
 20
232.0433521332
 30
0.0
 10
-1688.5627274619
 20
231.6477669512
 30
0.0
 10
-1708.8191255811
 20
231.1487777295
 30
0.0
 10
-1730.2739562359
 20
230.6234710077
 30
0.0
 10
-1752.5870779276
 20
230.0811829339
 30
0.0
 10
-1775.4184638953
 20
229.5312523456
 30
0.0
 10
-1798.4279070402
 20
228.9829990798
 30
0.0
 10
-1828.4807922069
 20
228.2761912546
 30
0.0
 10
-1864.6788770835
 20
227.4440877535
 30
0.0
 10
-1907.0627318923
 20
226.5111528982
 30
0.0
 10
-1948.5958985826
 20
225.6539621988
 30
0.0
 10
-2003.9644669822
 20
224.6246638036
 30
0.0
 10
-2045.4971898238
 20
224.0424264794
 30
0.0
 10
-2073.1888498573
 20
223.8251170035
 30
0.0
  0
SPLINE
  5
2BA
100
AcDbEntity
  8
0
100
AcDbSpline
 62
7
  6
CONTINUOUS
 70
0
 71
3
 72
56
 73
52
 74
0
 42
0.0000001
 43
0.0000001
 44
0.0000000001
 40
0.0
 40
0.0
 40
0.0
 40
0.0
 40
0.1753993496
 40
0.2630821275
 40
0.3507553315
 40
0.4384902672
 40
0.5314067412
 40
0.5798663027
 40
0.6286989321
 40
0.6771822771
 40
0.7245946615
 40
0.7702156533
 40
0.8133233066
 40
0.8531964177
 40
0.8716945783
 40
0.8891135937
 40
0.9053632618
 40
0.9203531154
 40
0.9337845778
 40
0.9454686031
 40
0.9555722567
 40
0.964336432
 40
0.9719977788
 40
0.9754746618
 40
0.9787366659
 40
0.9817904703
 40
0.9846341132
 40
0.9872560197
 40
0.9896340311
 40
0.991732331
 40
0.993500862
 40
0.9942425778
 40
0.9948766422
 40
0.9953909546
 40
0.9957771989
 40
0.9959161484
 40
0.9960178163
 40
0.996082397
 40
0.9961046765
 40
0.9961482778
 40
0.9962058741
 40
0.9963350542
 40
0.9964889244
 40
0.9966649772
 40
0.9968662749
 40
0.9973259888
 40
0.9978380065
 40
0.9983632056
 40
0.9988562341
 40
0.9992779634
 40
1.0
 40
1.0
 40
1.0
 40
1.0
 10
-2167.69691173
 20
223.8144334364
 30
0.0
 10
-2195.4475412367
 20
224.0263621589
 30
0.0
 10
-2237.0688187071
 20
224.6041750998
 30
0.0
 10
-2292.5552572099
 20
225.6319457278
 30
0.0
 10
-2334.1723468581
 20
226.4892089101
 30
0.0
 10
-2376.616034089
 20
227.4224504474
 30
0.0
 10
-2412.8560944346
 20
228.2549963302
 30
0.0
 10
-2442.942329643
 20
228.9622890838
 30
0.0
 10
-2466.0001900113
 20
229.5115304941
 30
0.0
 10
-2488.8922709007
 20
230.0628117751
 30
0.0
 10
-2511.2762398861
 20
230.6067518925
 30
0.0
 10
-2532.8098296302
 20
231.133957923
 30
0.0
 10
-2553.150848359
 20
231.6350261846
 30
0.0
 10
-2569.2017823874
 20
232.0324337641
 30
0.0
 10
-2581.1895196849
 20
232.3301159976
 30
0.0
 10
-2589.4407278627
 20
232.5355343719
 30
0.0
 10
-2597.1370335267
 20
232.726941574
 30
0.0
 10
-2604.2025806628
 20
232.9046011223
 30
0.0
 10
-2610.5461192522
 20
233.0588011191
 30
0.0
 10
-2616.1169882882
 20
233.1861647357
 30
0.0
 10
-2620.9497236829
 20
233.2910081497
 30
0.0
 10
-2625.1462535332
 20
233.3769582698
 30
0.0
 10
-2628.294605009
 20
233.4374058013
 30
0.0
 10
-2630.5726192974
 20
233.4785039062
 30
0.0
 10
-2632.1217763732
 20
233.5051448622
 30
0.0
 10
-2633.5707813112
 20
233.5286563058
 30
0.0
 10
-2634.9185492939
 20
233.5489653667
 30
0.0
 10
-2636.1594302426
 20
233.565885454
 30
0.0
 10
-2637.28242762
 20
233.5791242604
 30
0.0
 10
-2638.2704232009
 20
233.5882515793
 30
0.0
 10
-2638.9996077426
 20
233.5922401888
 30
0.0
 10
-2639.4970415338
 20
233.5924320011
 30
0.0
 10
-2639.7962154015
 20
233.5910057279
 30
0.0
 10
-2640.0386578027
 20
233.5883776896
 30
0.0
 10
-2640.2038520157
 20
233.5838613997
 30
0.0
 10
-2640.3018809399
 20
233.5803618215
 30
0.0
 10
-2640.3518708432
 20
233.5751333553
 30
0.0
 10
-2640.3781267073
 20
233.5749994904
 30
0.0
 10
-2640.4038128907
 20
233.5649775338
 30
0.0
 10
-2640.3722976582
 20
233.5538748265
 30
0.0
 10
-2640.3465225141
 20
233.5401518375
 30
0.0
 10
-2640.2925225039
 20
233.518177102
 30
0.0
 10
-2640.2258747867
 20
233.4939276114
 30
0.0
 10
-2640.1454517843
 20
233.4675566612
 30
0.0
 10
-2640.0183153077
 20
233.4312225577
 30
0.0
 10
-2639.8380480191
 20
233.3863038658
 30
0.0
 10
-2639.606453309
 20
233.3368173695
 30
0.0
 10
-2639.3685847757
 20
233.2915346427
 30
0.0
 10
-2639.1441647787
 20
233.2522701762
 30
0.0
 10
-2638.8887118463
 20
233.2097055211
 30
0.0
 10
-2638.70986207
 20
233.1820859545
 30
0.0
 10
-2638.5971466364
 20
233.1634869869
 30
0.0
  0
SPLINE
  5
2BB
100
AcDbEntity
  8
0
100
AcDbSpline
 62
7
  6
CONTINUOUS
 70
0
 71
3
 72
68
 73
64
 74
0
 42
0.0000001
 43
0.0000001
 44
0.0000000001
 40
0.0
 40
0.0
 40
0.0
 40
0.0
 40
0.0015102421
 40
0.0032963955
 40
0.0038075362
 40
0.0043460774
 40
0.0049232334
 40
0.0055964761
 40
0.0072668741
 40
0.0093926104
 40
0.0119918361
 40
0.0150767585
 40
0.0186435681
 40
0.0226787959
 40
0.0320479722
 40
0.0428663682
 40
0.0669449709
 40
0.0905146184
 40
0.100725336
 40
0.1098871028
 40
0.1275623767
 40
0.1444631783
 40
0.1607062067
 40
0.1916830925
 40
0.2214223079
 40
0.2508530702
 40
0.2809045034
 40
0.3121096511
 40
0.374785902
 40
0.4374625838
 40
0.5001392448
 40
0.5628159609
 40
0.6254925547
 40
0.6881688189
 40
0.7193667272
 40
0.749406446
 40
0.7788355527
 40
0.8085831911
 40
0.8395786141
 40
0.8558345442
 40
0.8727507865
 40
0.8904442639
 40
0.8950016048
 40
0.8996190735
 40
0.9098982649
 40
0.9335266236
 40
0.9457842461
 40
0.9575654337
 40
0.9683297253
 40
0.977627906
 40
0.9816233552
 40
0.9851488854
 40
0.9881917821
 40
0.9907492911
 40
0.9928349987
 40
0.9937061923
 40
0.9944673611
 40
0.9951217109
 40
0.9956881326
 40
0.9962227012
 40
0.9967288137
 40
0.9984994994
 40
1.0
 40
1.0
 40
1.0
 40
1.0
 10
-2724.5972339788
 20
293.0498091455
 30
0.0
 10
-2723.9899637636
 20
293.0727638593
 30
0.0
 10
-2722.6645023825
 20
293.1235087445
 30
0.0
 10
-2721.1336341256
 20
293.1851117583
 30
0.0
 10
-2719.9934844097
 20
293.2319203979
 30
0.0
 10
-2719.3394383796
 20
293.2591602693
 30
0.0
 10
-2718.6200676139
 20
293.286381319
 30
0.0
 10
-2717.4448347554
 20
293.3030089043
 30
0.0
 10
-2715.6465491619
 20
293.3238125671
 30
0.0
 10
-2713.0731042109
 20
293.3302371311
 30
0.0
 10
-2709.930505698
 20
293.3347309609
 30
0.0
 10
-2706.2080389974
 20
293.3203437803
 30
0.0
 10
-2701.9078038991
 20
293.2955372142
 30
0.0
 10
-2695.0789878955
 20
293.2419749312
 30
0.0
 10
-2685.3325707952
 20
293.136014161
 30
0.0
 10
-2667.5219984427
 20
292.8945810364
 30
0.0
 10
-2643.9990177567
 20
292.4950953924
 30
0.0
 10
-2620.7220239346
 20
292.0216838052
 30
0.0
 10
-2603.4469224822
 20
291.635286487
 30
0.0
 10
-2588.5436504106
 20
291.2764937395
 30
0.0
 10
-2570.9488863079
 20
290.8639609809
 30
0.0
 10
-2550.505466099
 20
290.3855435862
 30
0.0
 10
-2524.710932916
 20
289.7889413042
 30
0.0
 10
-2493.751501171
 20
289.0837769689
 30
0.0
 10
-2457.4863778719
 20
288.2789208096
 30
0.0
 10
-2421.5930030443
 20
287.507536875
 30
0.0
 10
-2385.109207944
 20
286.7556824279
 30
0.0
 10
-2335.2494977238
 20
285.7859983812
 30
0.0
 10
-2272.2615086594
 20
284.7026605627
 30
0.0
 10
-2196.6057512097
 20
283.7776007208
 30
0.0
 10
-2120.9444454952
 20
283.432592442
 30
0.0
 10
-2045.2831926011
 20
283.7809414954
 30
0.0
 10
-1969.6274729374
 20
284.7082387912
 30
0.0
 10
-1906.6424457005
 20
285.7925914393
 30
0.0
 10
-1856.7903656152
 20
286.7626465132
 30
0.0
 10
-1820.3148670753
 20
287.5145865782
 30
0.0
 10
-1784.4234858205
 20
288.2860876857
 30
0.0
 10
-1748.1481857069
 20
289.0913006261
 30
0.0
 10
-1717.1727167331
 20
289.7967707584
 30
0.0
 10
-1691.3593313589
 20
290.3940897628
 30
0.0
 10
-1670.8971674864
 20
290.87212161
 30
0.0
 10
-1655.1411857109
 20
291.2440363594
 30
0.0
 10
-1644.3327231603
 20
291.4997233671
 30
0.0
 10
-1636.506909922
 20
291.687480289
 30
0.0
 10
-1621.0086777659
 20
292.0305044437
 30
0.0
 10
-1602.4361660934
 20
292.4085667529
 30
0.0
 10
-1583.2584442361
 20
292.7480578088
 30
0.0
 10
-1569.2557949633
 20
292.9679086732
 30
0.0
 10
-1556.4434232197
 20
293.1401699341
 30
0.0
 10
-1546.7633319715
 20
293.2440322132
 30
0.0
 10
-1539.9956893116
 20
293.2958492625
 30
0.0
 10
-1535.7449764157
 20
293.3197300245
 30
0.0
 10
-1532.0728141449
 20
293.3327977758
 30
0.0
 10
-1528.9800151189
 20
293.3271495181
 30
0.0
 10
-1526.7610749486
 20
293.3211335804
 30
0.0
 10
-1525.2650352581
 20
293.3058925825
 30
0.0
 10
-1524.3449715623
 20
293.2942708384
 30
0.0
 10
-1523.5475529146
 20
293.2798683549
 30
0.0
 10
-1522.8417394354
 20
293.2522058625
 30
0.0
 10
-1522.1956468413
 20
293.2247910926
 30
0.0
 10
-1521.0653064978
 20
293.1790891321
 30
0.0
 10
-1519.5466089978
 20
293.1176401865
 30
0.0
 10
-1518.231277508
 20
293.067450926
 30
0.0
 10
-1517.6279230401
 20
293.044679978
 30
0.0
  0
LINE
  5
2BC
100
AcDbEntity
  8
0
100
AcDbLine
 62
7
  6
CONTINUOUS
 10
374.1557843573
 20
291.5051059145
 11
374.1402709085
 21
291.5728981476
  0
LINE
  5
2BD
100
AcDbEntity
  8
0
100
AcDbLine
 62
7
  6
CONTINUOUS
 10
374.6864442648
 20
289.3292867316
 11
374.6112599606
 21
289.6384808684
  0
SPLINE
  5
2BE
100
AcDbEntity
  8
0
100
AcDbSpline
 62
7
  6
CONTINUOUS
 70
0
 71
3
 72
28
 73
24
 74
0
 42
0.0000001
 43
0.0000001
 44
0.0000000001
 40
0.0
 40
0.0
 40
0.0
 40
0.0
 40
0.1137554552
 40
0.2235380589
 40
0.3309230785
 40
0.3864073538
 40
0.4444942823
 40
0.5062279839
 40
0.5387759065
 40
0.5734831056
 40
0.5920588914
 40
0.6113854749
 40
0.6215000271
 40
0.63181503
 40
0.652750078
 40
0.6955364063
 40
0.7387758682
 40
0.7815141552
 40
0.8228300849
 40
0.8977827139
 40
0.9579289626
 40
0.9813130338
 40
1.0
 40
1.0
 40
1.0
 40
1.0
 10
603.8644343023
 20
292.747569197
 30
0.0
 10
612.3078629029
 20
292.7475773858
 30
0.0
 10
628.8998396266
 20
292.7582816448
 30
0.0
 10
653.4623627053
 20
292.8050683257
 30
0.0
 10
673.6996843359
 20
292.8701928776
 30
0.0
 10
690.099871526
 20
292.9412451161
 30
0.0
 10
703.1115973919
 20
293.0086383437
 30
0.0
 10
714.4208461861
 20
293.0784808339
 30
0.0
 10
723.9947252442
 20
293.1458988134
 30
0.0
 10
730.3652829268
 20
293.1950119835
 30
0.0
 10
735.7544953068
 20
293.240049335
 30
0.0
 10
739.3183959654
 20
293.2699876053
 30
0.0
 10
742.2692115615
 20
293.2893075541
 30
0.0
 10
745.339460817
 20
293.298990619
 30
0.0
 10
750.8347236223
 20
293.3205855407
 30
0.0
 10
758.7738278725
 20
293.3304650517
 30
0.0
 10
768.3312671578
 20
293.3348694688
 30
0.0
 10
777.7795402583
 20
293.3092682291
 30
0.0
 10
789.5815988122
 20
293.2514106363
 30
0.0
 10
802.6753264013
 20
293.1240336264
 30
0.0
 10
814.4370378143
 20
292.9099572962
 30
0.0
 10
822.0206092081
 20
292.6787840929
 30
0.0
 10
825.140753942
 20
292.5495364393
 30
0.0
 10
826.5260020981
 20
292.479281446
 30
0.0
  0
SPLINE
  5
2BF
100
AcDbEntity
  8
0
100
AcDbSpline
 62
7
  6
CONTINUOUS
 70
0
 71
3
 72
9
 73
5
 74
0
 42
0.0000001
 43
0.0000001
 44
0.0000000001
 40
0.0
 40
0.0
 40
0.0
 40
0.0
 40
0.5812175248
 40
1.0
 40
1.0
 40
1.0
 40
1.0
 10
826.5260020981
 20
292.479281446
 30
0.0
 10
827.4824212727
 20
292.4307751748
 30
0.0
 10
829.127419155
 20
292.3366819084
 30
0.0
 10
830.7702681295
 20
292.2059865016
 30
0.0
 10
831.4565349024
 20
292.1342032456
 30
0.0
  0
SPLINE
  5
2C0
100
AcDbEntity
  8
0
100
AcDbSpline
 62
7
  6
CONTINUOUS
 70
0
 71
3
 72
11
 73
7
 74
0
 42
0.0000001
 43
0.0000001
 44
0.0000000001
 40
0.0
 40
0.0
 40
0.0
 40
0.0
 40
0.3885038038
 40
0.6789732246
 40
0.8792319618
 40
1.0
 40
1.0
 40
1.0
 40
1.0
 10
831.4565349024
 20
292.1342032456
 30
0.0
 10
831.7283770312
 20
292.1057686573
 30
0.0
 10
832.2027516773
 20
292.0509697521
 30
0.0
 10
832.8153038048
 20
291.9586145525
 30
0.0
 10
833.2347474541
 20
291.8676405935
 30
0.0
 10
833.4522021971
 20
291.7968050632
 30
0.0
 10
833.5255755986
 20
291.7539649633
 30
0.0
  0
SPLINE
  5
2C1
100
AcDbEntity
  8
0
100
AcDbSpline
 62
7
  6
CONTINUOUS
 70
0
 71
3
 72
11
 73
7
 74
0
 42
0.0000001
 43
0.0000001
 44
0.0000000001
 40
0.0
 40
0.0
 40
0.0
 40
0.0
 40
0.3457602445
 40
0.6042053703
 40
0.8071807927
 40
1.0
 40
1.0
 40
1.0
 40
1.0
 10
833.5255755986
 20
291.7539649633
 30
0.0
 10
833.5413852143
 20
291.7447342953
 30
0.0
 10
833.5680951782
 20
291.7269664925
 30
0.0
 10
833.59814717
 20
291.6953948232
 30
0.0
 10
833.6094282407
 20
291.6612543608
 30
0.0
 10
833.6063364085
 20
291.6400460162
 30
0.0
 10
833.6040752769
 20
291.6300902993
 30
0.0
  0
SPLINE
  5
2C2
100
AcDbEntity
  8
0
100
AcDbSpline
 62
7
  6
CONTINUOUS
 70
0
 71
3
 72
20
 73
16
 74
0
 42
0.0000001
 43
0.0000001
 44
0.0000000001
 40
0.0
 40
0.0
 40
0.0
 40
0.0
 40
0.0077887143
 40
0.0174991908
 40
0.0323704242
 40
0.0536231254
 40
0.0668987827
 40
0.0820513818
 40
0.1182792139
 40
0.1628550889
 40
0.2162133453
 40
0.3507426787
 40
0.5246539116
 40
0.7404062664
 40
1.0
 40
1.0
 40
1.0
 40
1.0
 10
374.1248163628
 20
291.6299958407
 30
0.0
 10
374.1214612781
 20
291.6447681668
 30
0.0
 10
374.1192460534
 20
291.681219536
 30
0.0
 10
374.1632236825
 20
291.7320707649
 30
0.0
 10
374.2403649364
 20
291.7761499956
 30
0.0
 10
374.3300015825
 20
291.81205786
 30
0.0
 10
374.4219251672
 20
291.8417083056
 30
0.0
 10
374.5430137036
 20
291.8758058783
 30
0.0
 10
374.7249371538
 20
291.9178032715
 30
0.0
 10
374.9813870624
 20
291.9662297375
 30
0.0
 10
375.4280120438
 20
292.0368673108
 30
0.0
 10
376.1266231002
 20
292.1225635569
 30
0.0
 10
377.1415460332
 20
292.2198718617
 30
0.0
 10
378.4006507297
 20
292.3167174582
 30
0.0
 10
379.3233497761
 20
292.3750204715
 30
0.0
 10
379.827384759
 20
292.4044390557
 30
0.0
  0
SPLINE
  5
2C3
100
AcDbEntity
  8
0
100
AcDbSpline
 62
7
  6
CONTINUOUS
 70
0
 71
3
 72
30
 73
26
 74
0
 42
0.0000001
 43
0.0000001
 44
0.0000000001
 40
0.0
 40
0.0
 40
0.0
 40
0.0
 40
0.0184219781
 40
0.0415557221
 40
0.0692827696
 40
0.1012876744
 40
0.1759896675
 40
0.2172512745
 40
0.2599822729
 40
0.3032593744
 40
0.3247984752
 40
0.3461223375
 40
0.3671104407
 40
0.3774523787
 40
0.3876209567
 40
0.407044644
 40
0.4256977378
 40
0.4605546028
 40
0.4931760584
 40
0.5550340521
 40
0.6132192801
 40
0.6687804938
 40
0.7762746054
 40
0.886140322
 40
1.0
 40
1.0
 40
1.0
 40
1.0
 10
380.9831173989
 20
292.467921991
 30
0.0
 10
382.3499972381
 20
292.5387083692
 30
0.0
 10
385.434879252
 20
292.6688360104
 30
0.0
 10
390.5799996313
 20
292.8288152778
 30
0.0
 10
396.7351601283
 20
292.9705202211
 30
0.0
 10
406.7218976742
 20
293.1401666311
 30
0.0
 10
417.7152430308
 20
293.2478576052
 30
0.0
 10
429.5057415623
 20
293.3076728217
 30
0.0
 10
438.9615724721
 20
293.3338208933
 30
0.0
 10
446.9520959646
 20
293.3324441035
 30
0.0
 10
453.352101385
 20
293.3235357083
 30
0.0
 10
458.0960889997
 20
293.3159602741
 30
0.0
 10
462.0081236096
 20
293.2998229597
 30
0.0
 10
465.0913664221
 20
293.2908480478
 30
0.0
 10
468.0583372484
 20
293.2728530796
 30
0.0
 10
471.6427344611
 20
293.24286633
 30
0.0
 10
477.0613475809
 20
293.1972080203
 30
0.0
 10
483.4605286073
 20
293.1478661847
 30
0.0
 10
493.0696857483
 20
293.079908603
 30
0.0
 10
504.412113032
 20
293.0097033773
 30
0.0
 10
517.4589531903
 20
292.94194369
 30
0.0
 10
533.8964750099
 20
292.87057128
 30
0.0
 10
554.1737960219
 20
292.8051814926
 30
0.0
 10
578.782621129
 20
292.7582175927
 30
0.0
 10
595.4049164606
 20
292.7474734522
 30
0.0
 10
603.864434307
 20
292.7474652775
 30
0.0
  0
SPLINE
  5
2C4
100
AcDbEntity
  8
0
100
AcDbSpline
 62
7
  6
CONTINUOUS
 70
0
 71
3
 72
11
 73
7
 74
0
 42
0.0000001
 43
0.0000001
 44
0.0000000001
 40
0.0
 40
0.0
 40
0.0
 40
0.0
 40
0.2500000001
 40
0.5000000001
 40
0.7499999994
 40
1.0
 40
1.0
 40
1.0
 40
1.0
 10
603.8660170307
 20
667.9712863197
 30
0.0
 10
634.2825530975
 20
668.0377248372
 30
0.0
 10
695.1156272265
 20
668.1697899529
 30
0.0
 10
786.3652023784
 20
668.3836666004
 30
0.0
 10
877.6147819817
 20
668.5959534899
 30
0.0
 10
938.4478803169
 20
668.7167999555
 30
0.0
 10
968.8644343078
 20
668.7744829782
 30
0.0
  0
SPLINE
  5
2C5
100
AcDbEntity
  8
0
100
AcDbSpline
 62
7
  6
CONTINUOUS
 70
0
 71
3
 72
57
 73
53
 74
0
 42
0.0000001
 43
0.0000001
 44
0.0000000001
 40
0.0
 40
0.0
 40
0.0
 40
0.0
 40
0.1027558056
 40
0.2067775817
 40
0.3180671768
 40
0.4318095914
 40
0.5415414901
 40
0.6408030986
 40
0.6844878652
 40
0.7231294413
 40
0.756510926
 40
0.7863114773
 40
0.8363706011
 40
0.8760068368
 40
0.8928015136
 40
0.9005583678
 40
0.9079121105
 40
0.9148689446
 40
0.9214245931
 40
0.9275631303
 40
0.9332554001
 40
0.9384568946
 40
0.9431059547
 40
0.9471271781
 40
0.9504259113
 40
0.9517688678
 40
0.9528857014
 40
0.9537624526
 40
0.9543868593
 40
0.9546027212
 40
0.95475608
 40
0.9548668524
 40
0.9549731357
 40
0.9551954132
 40
0.9554194897
 40
0.9556472818
 40
0.9558797077
 40
0.956355063
 40
0.9568447045
 40
0.95734878
 40
0.9583967464
 40
0.9594954505
 40
0.9606413277
 40
0.9618298029
 40
0.9643203789
 40
0.9669377652
 40
0.9696498567
 40
0.9752351876
 40
0.9808292023
 40
0.9861879179
 40
0.9910886757
 40
1.0
 40
1.0
 40
1.0
 40
1.0
 10
603.8644343078
 20
233.1634879937
 30
0.0
 10
598.277649438
 20
233.1634879971
 30
0.0
 10
587.0352486203
 20
233.1691672908
 30
0.0
 10
569.7421030157
 20
233.195605826
 30
0.0
 10
551.8516591283
 20
233.2416676133
 30
0.0
 10
533.6508184594
 20
233.3073921056
 30
0.0
 10
516.103995922
 20
233.3869545855
 30
0.0
 10
502.3661912363
 20
233.4600938541
 30
0.0
 10
492.493500015
 20
233.5165838615
 30
0.0
 10
486.2026414577
 20
233.555306882
 30
0.0
 10
480.6666218473
 20
233.5869575376
 30
0.0
 10
474.5097478321
 20
233.5967332749
 30
0.0
 10
468.0127960363
 20
233.5782364156
 30
0.0
 10
462.2231905289
 20
233.5224037441
 30
0.0
 10
458.7337818547
 20
233.4655014306
 30
0.0
 10
456.9994632055
 20
233.4302501868
 30
0.0
 10
455.7999902455
 20
233.4023306122
 30
0.0
 10
454.6659040451
 20
233.3720887081
 30
0.0
 10
453.5979852406
 20
233.3393624332
 30
0.0
 10
452.5989447283
 20
233.3039696949
 30
0.0
 10
451.6736888815
 20
233.2657243035
 30
0.0
 10
450.8296350198
 20
233.224433293
 30
0.0
 10
450.0767175752
 20
233.1799629686
 30
0.0
 10
449.4277240251
 20
233.1321411055
 30
0.0
 10
448.9587247603
 20
233.0874686249
 30
0.0
 10
448.6481866837
 20
233.0477262586
 30
0.0
 10
448.4688845072
 20
233.0192363805
 30
0.0
 10
448.329788934
 20
232.9898411189
 30
0.0
 10
448.2395450177
 20
232.9634331864
 30
0.0
 10
448.1912832813
 20
232.9394256419
 30
0.0
 10
448.1698564874
 20
232.9232759505
 30
0.0
 10
448.1622101412
 20
232.9033548075
 30
0.0
 10
448.1669859532
 20
232.8794436494
 30
0.0
 10
448.1761268508
 20
232.8510155219
 30
0.0
 10
448.1839140086
 20
232.8150997128
 30
0.0
 10
448.1923498682
 20
232.7788884171
 30
0.0
 10
448.2048688954
 20
232.7295758136
 30
0.0
 10
448.2200007927
 20
232.6662587945
 30
0.0
 10
448.2385756079
 20
232.5885746167
 30
0.0
 10
448.2649258466
 20
232.480742164
 30
0.0
 10
448.298449518
 20
232.3405749985
 30
0.0
 10
448.3403781688
 20
232.1665403032
 30
0.0
 10
448.3844403822
 20
231.9851617566
 30
0.0
 10
448.4456680403
 20
231.7300778519
 30
0.0
 10
448.5254905291
 20
231.3971796546
 30
0.0
 10
448.6255038579
 20
230.9839372064
 30
0.0
 10
448.7640695747
 20
230.406908245
 30
0.0
 10
448.9403524799
 20
229.6724979746
 30
0.0
 10
449.149529988
 20
228.7980006375
 30
0.0
 10
449.349295733
 20
227.9595222171
 30
0.0
 10
449.5899051795
 20
226.9453667211
 30
0.0
 10
449.7617218982
 20
226.2143278211
 30
0.0
 10
449.8714858664
 20
225.742420525
 30
0.0
  0
SPLINE
  5
2C6
100
AcDbEntity
  8
0
100
AcDbSpline
 62
7
  6
CONTINUOUS
 70
0
 71
3
 72
53
 73
49
 74
0
 42
0.0000001
 43
0.0000001
 44
0.0000000001
 40
0.0
 40
0.0
 40
0.0
 40
0.0
 40
0.0040123171
 40
0.0079526825
 40
0.0117361675
 40
0.0135416572
 40
0.0152752243
 40
0.0169273433
 40
0.0177191527
 40
0.0184862728
 40
0.019227641
 40
0.0199421316
 40
0.0206277752
 40
0.0209601593
 40
0.0212835858
 40
0.0214431219
 40
0.0216019328
 40
0.0217536604
 40
0.0219280338
 40
0.0222141519
 40
0.0226285896
 40
0.0231701163
 40
0.0238351076
 40
0.0246190881
 40
0.0255174009
 40
0.0276343311
 40
0.0301420122
 40
0.0330021818
 40
0.0361816745
 40
0.0396529414
 40
0.0473764471
 40
0.0560212683
 40
0.0654980856
 40
0.0757692546
 40
0.0868400182
 40
0.0987534829
 40
0.1115858465
 40
0.1404349926
 40
0.1743790639
 40
0.2144293146
 40
0.2369623675
 40
0.2614324743
 40
0.3185387233
 40
0.3849498747
 40
0.5367106284
 40
0.6987852772
 40
0.8533141297
 40
1.0
 40
1.0
 40
1.0
 40
1.0
 10
758.7564605811
 20
229.5384716404
 30
0.0
 10
758.806099532
 20
229.7455345892
 30
0.0
 10
758.9046637413
 20
230.1559049156
 30
0.0
 10
759.0497286358
 20
230.761602818
 30
0.0
 10
759.1685031444
 20
231.2531699369
 30
0.0
 10
759.2595242069
 20
231.6309599729
 30
0.0
 10
759.323518887
 20
231.8989151211
 30
0.0
 10
759.3758181804
 20
232.1143539256
 30
0.0
 10
759.4157871663
 20
232.2800073696
 30
0.0
 10
759.4443116947
 20
232.3987029646
 30
0.0
 10
759.4718156441
 20
232.5134220292
 30
0.0
 10
759.4989414006
 20
232.6237909885
 30
0.0
 10
759.5197510026
 20
232.713335944
 30
0.0
 10
759.5375193234
 20
232.7823117651
 30
0.0
 10
759.5467666288
 20
232.8245118154
 30
0.0
 10
759.5548426819
 20
232.8577532979
 30
0.0
 10
759.5619312561
 20
232.8812412041
 30
0.0
 10
759.5683134019
 20
232.9078169707
 30
0.0
 10
759.5467685731
 20
232.9362949608
 30
0.0
 10
759.5044417893
 20
232.9557789965
 30
0.0
 10
759.4422702612
 20
232.9778662721
 30
0.0
 10
759.3586697636
 20
232.9985780237
 30
0.0
 10
759.2551069819
 20
233.0194049191
 30
0.0
 10
759.1321666027
 20
233.0396418181
 30
0.0
 10
758.9324837816
 20
233.067600444
 30
0.0
 10
758.6411439425
 20
233.100095261
 30
0.0
 10
758.2455210078
 20
233.1357126709
 30
0.0
 10
757.793172635
 20
233.1695709042
 30
0.0
 10
757.2894557901
 20
233.2017335002
 30
0.0
 10
756.5277848213
 20
233.2438688018
 30
0.0
 10
755.475960386
 20
233.291281307
 30
0.0
 10
754.1052733992
 20
233.3409696264
 30
0.0
 10
752.599147089
 20
233.3856110019
 30
0.0
 10
750.9641106474
 20
233.4256533438
 30
0.0
 10
749.1996375852
 20
233.461444927
 30
0.0
 10
747.2991482882
 20
233.4932408732
 30
0.0
 10
744.4551747825
 20
233.5319618039
 30
0.0
 10
740.4419515579
 20
233.5692213723
 30
0.0
 10
734.9841856155
 20
233.5937599663
 30
0.0
 10
729.8615528189
 20
233.5933004996
 30
0.0
 10
725.2417340912
 20
233.5777567328
 30
0.0
 10
719.7168518667
 20
233.5435085296
 30
0.0
 10
711.8634386127
 20
233.4968557012
 30
0.0
 10
697.2549201647
 20
233.4153798668
 30
0.0
 10
677.0758384557
 20
233.317432738
 30
0.0
 10
652.2203550877
 20
233.22781546
 30
0.0
 10
627.6340864884
 20
233.1747581296
 30
0.0
 10
611.6489111108
 20
233.1634869479
 30
0.0
 10
603.8644343078
 20
233.1634869416
 30
0.0
  0
SPLINE
  5
2C7
100
AcDbEntity
  8
0
100
AcDbSpline
 62
7
  6
CONTINUOUS
 70
0
 71
3
 72
11
 73
7
 74
0
 42
0.0000001
 43
0.0000001
 44
0.0000000001
 40
0.0
 40
0.0
 40
0.0
 40
0.0
 40
0.2500051039
 40
0.500002077
 40
0.7500073327
 40
1.0
 40
1.0
 40
1.0
 40
1.0
 10
603.8660170307
 20
667.9712864081
 30
0.0
 10
573.4485274831
 20
667.9502838767
 30
0.0
 10
512.6145710011
 20
668.1229707727
 30
0.0
 10
421.3636365566
 20
668.4332480178
 30
0.0
 10
330.1137226914
 20
668.5893159685
 30
0.0
 10
269.2803142744
 20
668.6950597699
 30
0.0
 10
238.864434308
 20
668.7744829787
 30
0.0
  0
SPLINE
  5
2C8
100
AcDbEntity
  8
0
100
AcDbSpline
 62
7
  6
CONTINUOUS
 70
0
 71
3
 72
9
 73
5
 74
0
 42
0.0000001
 43
0.0000001
 44
0.0000000001
 40
0.0
 40
0.0
 40
0.0
 40
0.0
 40
0.4441090505
 40
1.0
 40
1.0
 40
1.0
 40
1.0
 10
-2145.8189022307
 20
-348.6992521847
 30
0.0
 10
-2145.363457999
 20
-349.0236694706
 30
0.0
 10
-2144.2491176495
 20
-349.627133121
 30
0.0
 10
-2143.0714797881
 20
-350.0771879973
 30
0.0
 10
-2142.4081152945
 20
-350.3004210531
 30
0.0
  0
SPLINE
  5
2C9
100
AcDbEntity
  8
0
100
AcDbSpline
 62
7
  6
CONTINUOUS
 70
0
 71
3
 72
12
 73
8
 74
0
 42
0.0000001
 43
0.0000001
 44
0.0000000001
 40
0.0
 40
0.0
 40
0.0
 40
0.0
 40
0.0940875928
 40
0.1999379229
 40
0.4416122749
 40
0.7131875977
 40
1.0
 40
1.0
 40
1.0
 40
1.0
 10
-2142.4081152945
 20
-350.3004210531
 30
0.0
 10
-2141.7691949829
 20
-350.5154282398
 30
0.0
 10
-2140.3929753194
 20
-350.9178454412
 30
0.0
 10
-2137.3082903121
 20
-351.627570307
 30
0.0
 10
-2132.9195004414
 20
-352.3093110454
 30
0.0
 10
-2127.2053585996
 20
-352.8024367421
 30
0.0
 10
-2123.2034562349
 20
-352.9134839499
 30
0.0
 10
-2121.1484775963
 20
-352.9134836944
 30
0.0
  0
SPLINE
  5
2CA
100
AcDbEntity
  8
0
100
AcDbSpline
 62
7
  6
CONTINUOUS
 70
0
 71
3
 72
14
 73
10
 74
0
 42
0.0000001
 43
0.0000001
 44
0.0000000001
 40
0.0
 40
0.0
 40
0.0
 40
0.0
 40
0.0768542742
 40
0.1607555232
 40
0.2571397482
 40
0.3693172901
 40
0.4991093849
 40
0.6474508827
 40
1.0
 40
1.0
 40
1.0
 40
1.0
 10
-2147.1479948758
 20
-350.641818281
 30
0.0
 10
-2147.1480037538
 20
-350.4826031733
 30
0.0
 10
-2147.0913517162
 20
-350.1476532501
 30
0.0
 10
-2146.84714504
 20
-349.6674362718
 30
0.0
 10
-2146.4532418408
 20
-349.2018863073
 30
0.0
 10
-2145.9153452399
 20
-348.7488097819
 30
0.0
 10
-2145.2357213918
 20
-348.3077902977
 30
0.0
 10
-2144.0757775352
 20
-347.7035013133
 30
0.0
 10
-2143.1034076735
 20
-347.3310977327
 30
0.0
 10
-2142.4112242601
 20
-347.0980630697
 30
0.0
  0
SPLINE
  5
2CB
100
AcDbEntity
  8
0
100
AcDbSpline
 62
7
  6
CONTINUOUS
 70
0
 71
3
 72
12
 73
8
 74
0
 42
0.0000001
 43
0.0000001
 44
0.0000000001
 40
0.0
 40
0.0
 40
0.0
 40
0.0
 40
0.0940736446
 40
0.1999151964
 40
0.4415859151
 40
0.7131710426
 40
1.0
 40
1.0
 40
1.0
 40
1.0
 10
-2142.4112242601
 20
-347.0980630697
 30
0.0
 10
-2141.7723270967
 20
-346.8829680786
 30
0.0
 10
-2140.3960879404
 20
-346.4803887939
 30
0.0
 10
-2137.3111520339
 20
-345.7703719845
 30
0.0
 10
-2132.9217124979
 20
-345.0883553919
 30
0.0
 10
-2127.2065180995
 20
-344.5950260408
 30
0.0
 10
-2123.2037967099
 20
-344.4839344728
 30
0.0
 10
-2121.148376237
 20
-344.4839344114
 30
0.0
  0
SPLINE
  5
2CC
100
AcDbEntity
  8
0
100
AcDbSpline
 62
7
  6
CONTINUOUS
 70
0
 71
3
 72
8
 73
4
 74
0
 42
0.0000001
 43
0.0000001
 44
0.0000000001
 40
0.0
 40
0.0
 40
0.0
 40
0.0
 40
1.0
 40
1.0
 40
1.0
 40
1.0
 10
-2970.9147356393
 20
-693.1473212458
 30
0.0
 10
-2970.9106164769
 20
-800.5383139376
 30
0.0
 10
-2970.9059056078
 20
-907.9293066082
 30
0.0
 10
-2970.9023503072
 20
-1015.3202993202
 30
0.0
  0
SPLINE
  5
2CD
100
AcDbEntity
  8
0
100
AcDbSpline
 62
7
  6
CONTINUOUS
 70
0
 71
3
 72
8
 73
4
 74
0
 42
0.0000001
 43
0.0000001
 44
0.0000000001
 40
0.0
 40
0.0
 40
0.0
 40
0.0
 40
1.0
 40
1.0
 40
1.0
 40
1.0
 10
-1271.3942070829
 20
-1015.3202993202
 30
0.0
 10
-1271.3906912663
 20
-907.6779339761
 30
0.0
 10
-1271.3856904212
 20
-800.0355686854
 30
0.0
 10
-1271.3817254464
 20
-692.393203357
 30
0.0
  0
SPLINE
  5
2CE
100
AcDbEntity
  8
0
100
AcDbSpline
 62
7
  6
CONTINUOUS
 70
0
 71
3
 72
12
 73
8
 74
0
 42
0.0000001
 43
0.0000001
 44
0.0000000001
 40
0.0
 40
0.0
 40
0.0
 40
0.0
 40
0.286207816
 40
0.5574368387
 40
0.799259488
 40
0.9054231531
 40
1.0
 40
1.0
 40
1.0
 40
1.0
 10
-2121.148376237
 20
-344.483931156
 30
0.0
 10
-2119.1088243003
 20
-344.4839310951
 30
0.0
 10
-2115.135374028
 20
-344.5933927937
 30
0.0
 10
-2109.4575590379
 20
-345.0795047705
 30
0.0
 10
-2105.0909324754
 20
-345.7516984136
 30
0.0
 10
-2102.0145974682
 20
-346.4513526859
 30
0.0
 10
-2100.6389272966
 20
-346.8481632476
 30
0.0
 10
-2099.9991615343
 20
-347.0601306848
 30
0.0
  0
SPLINE
  5
2CF
100
AcDbEntity
  8
0
100
AcDbSpline
 62
7
  6
CONTINUOUS
 70
0
 71
3
 72
14
 73
10
 74
0
 42
0.0000001
 43
0.0000001
 44
0.0000000001
 40
0.0
 40
0.0
 40
0.0
 40
0.0
 40
0.3533034494
 40
0.5018917973
 40
0.631808546
 40
0.7439560312
 40
0.8401284985
 40
0.9236438411
 40
1.0
 40
1.0
 40
1.0
 40
1.0
 10
-2099.9991615343
 20
-347.0601306848
 30
0.0
 10
-2099.2910216409
 20
-347.2947518653
 30
0.0
 10
-2098.2960900014
 20
-347.6700118382
 30
0.0
 10
-2097.1082672195
 20
-348.2802961253
 30
0.0
 10
-2096.4122389172
 20
-348.725929756
 30
0.0
 10
-2095.8612087547
 20
-349.183983225
 30
0.0
 10
-2095.457546225
 20
-349.6548995232
 30
0.0
 10
-2095.2071125353
 20
-350.1410370853
 30
0.0
 10
-2095.1488661237
 20
-350.4805650695
 30
0.0
 10
-2095.1488571037
 20
-350.6417900644
 30
0.0
  0
SPLINE
  5
2D0
100
AcDbEntity
  8
0
100
AcDbSpline
 62
7
  6
CONTINUOUS
 70
0
 71
3
 72
12
 73
8
 74
0
 42
0.0000001
 43
0.0000001
 44
0.0000000001
 40
0.0
 40
0.0
 40
0.0
 40
0.0
 40
0.2861919185
 40
0.5574117344
 40
0.7992379312
 40
0.9054099393
 40
1.0
 40
1.0
 40
1.0
 40
1.0
 10
-2121.1484775963
 20
-352.9134804389
 30
0.0
 10
-2119.1093321255
 20
-352.9134801854
 30
0.0
 10
-2115.1366326105
 20
-352.8040594373
 30
0.0
 10
-2109.4597791313
 20
-352.3181344389
 30
0.0
 10
-2105.0937409619
 20
-351.6461941522
 30
0.0
 10
-2102.0176275086
 20
-350.9468086092
 30
0.0
 10
-2100.6419700751
 20
-350.550147406
 30
0.0
 10
-2100.0021804003
 20
-350.338260857
 30
0.0
  0
SPLINE
  5
2D1
100
AcDbEntity
  8
0
100
AcDbSpline
 62
7
  6
CONTINUOUS
 70
0
 71
3
 72
9
 73
5
 74
0
 42
0.0000001
 43
0.0000001
 44
0.0000000001
 40
0.0
 40
0.0
 40
0.0
 40
0.0
 40
0.5569605604
 40
1.0
 40
1.0
 40
1.0
 40
1.0
 10
-2100.0021804003
 20
-350.338260857
 30
0.0
 10
-2099.3156176153
 20
-350.1108839159
 30
0.0
 10
-2098.0989743996
 20
-349.6523704451
 30
0.0
 10
-2096.9474613757
 20
-349.0334983897
 30
0.0
 10
-2096.4788146497
 20
-348.6998146549
 30
0.0
  0
SPLINE
  5
2D2
100
AcDbEntity
  8
0
100
AcDbSpline
 62
7
  6
CONTINUOUS
 70
0
 71
3
 72
8
 73
4
 74
0
 42
0.0000001
 43
0.0000001
 44
0.0000000001
 40
0.0
 40
0.0
 40
0.0
 40
0.0
 40
1.0
 40
1.0
 40
1.0
 40
1.0
 10
-1271.3942070829
 20
-285.3202993202
 30
0.0
 10
-1271.3906417552
 20
-392.9625590804
 30
0.0
 10
-1271.3858347131
 20
-500.6048187959
 30
0.0
 10
-1271.3817734298
 20
-608.2470785385
 30
0.0
  0
SPLINE
  5
2D3
100
AcDbEntity
  8
0
100
AcDbSpline
 62
7
  6
CONTINUOUS
 70
0
 71
3
 72
9
 73
5
 74
0
 42
0.0000001
 43
0.0000001
 44
0.0000000001
 40
0.0
 40
0.0
 40
0.0
 40
0.0
 40
0.2441730187
 40
1.0
 40
1.0
 40
1.0
 40
1.0
 10
-2961.1397947639
 20
-281.5834589826
 30
0.0
 10
-2961.1397981232
 20
-281.4187255311
 30
0.0
 10
-2961.1398524535
 20
-280.7440668326
 30
0.0
 10
-2961.1400640384
 20
-280.0694081417
 30
0.0
 10
-2961.140332729
 20
-279.5594829633
 30
0.0
  0
SPLINE
  5
2D4
100
AcDbEntity
  8
0
100
AcDbSpline
 62
7
  6
CONTINUOUS
 70
0
 71
3
 72
9
 73
5
 74
0
 42
0.0000001
 43
0.0000001
 44
0.0000000001
 40
0.0
 40
0.0
 40
0.0
 40
0.0
 40
0.2592276938
 40
1.0
 40
1.0
 40
1.0
 40
1.0
 10
-2961.140332729
 20
-279.5594829633
 30
0.0
 10
-2961.1404033254
 20
-279.4255039418
 30
0.0
 10
-2961.1407064344
 20
-278.9086648072
 30
0.0
 10
-2961.141129907
 20
-278.3918257365
 30
0.0
 10
-2961.1415366499
 20
-278.0089657688
 30
0.0
  0
SPLINE
  5
2D5
100
AcDbEntity
  8
0
100
AcDbSpline
 62
7
  6
CONTINUOUS
 70
0
 71
3
 72
14
 73
10
 74
0
 42
0.0000001
 43
0.0000001
 44
0.0000000001
 40
0.0
 40
0.0
 40
0.0
 40
0.0
 40
0.4279595771
 40
0.6018477088
 40
0.7455074
 40
0.8566122488
 40
0.9347346476
 40
0.9818285318
 40
1.0
 40
1.0
 40
1.0
 40
1.0
 10
-2961.1415366499
 20
-278.0089657688
 30
0.0
 10
-2961.1419068445
 20
-277.6605080563
 30
0.0
 10
-2961.1425038344
 20
-277.170463692
 30
0.0
 10
-2961.143722115
 20
-276.5634534659
 30
0.0
 10
-2961.144443052
 20
-276.2144241345
 30
0.0
 10
-2961.1456384226
 20
-275.9433993863
 30
0.0
 10
-2961.1457727642
 20
-275.7509350372
 30
0.0
 10
-2961.1478785409
 20
-275.6342692526
 30
0.0
 10
-2961.1470858806
 20
-275.5810395934
 30
0.0
 10
-2961.14828156
 20
-275.5662922145
 30
0.0
  0
SPLINE
  5
2D6
100
AcDbEntity
  8
0
100
AcDbSpline
 62
7
  6
CONTINUOUS
 70
0
 71
3
 72
18
 73
14
 74
0
 42
0.0000001
 43
0.0000001
 44
0.0000000001
 40
0.0
 40
0.0
 40
0.0
 40
0.0
 40
0.1842988847
 40
0.3711796279
 40
0.5496843742
 40
0.7080588061
 40
0.8357160896
 40
0.8863402268
 40
0.9275357161
 40
0.9590106975
 40
0.9811827156
 40
0.9946468926
 40
1.0
 40
1.0
 40
1.0
 40
1.0
 10
-2964.8879134194
 20
-285.3359707486
 30
0.0
 10
-2965.2574023652
 20
-285.3359563712
 30
0.0
 10
-2966.0015565126
 20
-285.3357464964
 30
0.0
 10
-2967.1035827542
 20
-285.3348875489
 30
0.0
 10
-2968.153635068
 20
-285.3334412924
 30
0.0
 10
-2969.0849499766
 20
-285.3314783104
 30
0.0
 10
-2969.7598921737
 20
-285.3294284558
 30
0.0
 10
-2970.1998943991
 20
-285.327426256
 30
0.0
 10
-2970.4470942422
 20
-285.3262092593
 30
0.0
 10
-2970.6371871891
 20
-285.3244666757
 30
0.0
 10
-2970.7718297558
 20
-285.3239449527
 30
0.0
 10
-2970.853814003
 20
-285.321224413
 30
0.0
 10
-2970.8917371971
 20
-285.3218882716
 30
0.0
 10
-2970.9023510026
 20
-285.3202992161
 30
0.0
  0
SPLINE
  5
2D7
100
AcDbEntity
  8
0
100
AcDbSpline
 62
7
  6
CONTINUOUS
 70
0
 71
3
 72
9
 73
5
 74
0
 42
0.0000001
 43
0.0000001
 44
0.0000000001
 40
0.0
 40
0.0
 40
0.0
 40
0.0
 40
0.2441816157
 40
1.0
 40
1.0
 40
1.0
 40
1.0
 10
-2964.8876359604
 20
-1015.3046284916
 30
0.0
 10
-2965.0519770403
 20
-1015.3046348933
 30
0.0
 10
-2965.7250050963
 20
-1015.3047356651
 30
0.0
 10
-2966.3980331259
 20
-1015.3051254773
 30
0.0
 10
-2966.9067198693
 20
-1015.305619865
 30
0.0
  0
SPLINE
  5
2D8
100
AcDbEntity
  8
0
100
AcDbSpline
 62
7
  6
CONTINUOUS
 70
0
 71
3
 72
9
 73
5
 74
0
 42
0.0000001
 43
0.0000001
 44
0.0000000001
 40
0.0
 40
0.0
 40
0.0
 40
0.0
 40
0.2592210373
 40
1.0
 40
1.0
 40
1.0
 40
1.0
 10
-2966.9067198693
 20
-1015.305619865
 30
0.0
 10
-2967.0408962396
 20
-1015.3057502697
 30
0.0
 10
-2967.5585099189
 20
-1015.3063102916
 30
0.0
 10
-2968.0761233797
 20
-1015.3070931978
 30
0.0
 10
-2968.4595601916
 20
-1015.3078454559
 30
0.0
  0
SPLINE
  5
2D9
100
AcDbEntity
  8
0
100
AcDbSpline
 62
7
  6
CONTINUOUS
 70
0
 71
3
 72
14
 73
10
 74
0
 42
0.0000001
 43
0.0000001
 44
0.0000000001
 40
0.0
 40
0.0
 40
0.0
 40
0.0
 40
0.4279163942
 40
0.6017986945
 40
0.7454605621
 40
0.8565742672
 40
0.9347082112
 40
0.9818142234
 40
1.0
 40
1.0
 40
1.0
 40
1.0
 10
-2968.4595601916
 20
-1015.3078454559
 30
0.0
 10
-2968.8080053858
 20
-1015.3085290645
 30
0.0
 10
-2969.2980455543
 20
-1015.3096321901
 30
0.0
 10
-2969.9050462314
 20
-1015.3118800934
 30
0.0
 10
-2970.2541196066
 20
-1015.3132148687
 30
0.0
 10
-2970.5251285726
 20
-1015.3154133905
 30
0.0
 10
-2970.7177367752
 20
-1015.3156812237
 30
0.0
 10
-2970.8342406624
 20
-1015.3195353064
 30
0.0
 10
-2970.887704327
 20
-1015.3181096944
 30
0.0
 10
-2970.9023497287
 20
-1015.3203008187
 30
0.0
  0
SPLINE
  5
2DA
100
AcDbEntity
  8
0
100
AcDbSpline
 62
7
  6
CONTINUOUS
 70
0
 71
3
 72
8
 73
4
 74
0
 42
0.0000001
 43
0.0000001
 44
0.0000000001
 40
0.0
 40
0.0
 40
0.0
 40
0.0
 40
1.0
 40
1.0
 40
1.0
 40
1.0
 10
-1278.117188264
 20
-650.3189606469
 30
0.0
 10
-1291.818798947
 20
-650.3189819318
 30
0.0
 10
-1305.5204096789
 20
-650.3195216003
 30
0.0
 10
-1319.2220202467
 20
-650.3212987067
 30
0.0
  0
SPLINE
  5
2DB
100
AcDbEntity
  8
0
100
AcDbSpline
 62
7
  6
CONTINUOUS
 70
0
 71
3
 72
11
 73
7
 74
0
 42
0.0000001
 43
0.0000001
 44
0.0000000001
 40
0.0
 40
0.0
 40
0.0
 40
0.0
 40
0.2499990047
 40
0.5000162146
 40
0.7500398759
 40
1.0
 40
1.0
 40
1.0
 40
1.0
 10
-1277.40908501
 20
-1015.3029387596
 30
0.0
 10
-1277.4793298641
 20
-984.8877493642
 30
0.0
 10
-1277.5937226314
 20
-924.0551020441
 30
0.0
 10
-1277.7180886212
 20
-832.8041279198
 30
0.0
 10
-1277.9974728584
 20
-741.5582825379
 30
0.0
 10
-1278.1294821515
 20
-680.7294984006
 30
0.0
 10
-1278.1171890231
 20
-650.3189606465
 30
0.0
  0
SPLINE
  5
2DC
100
AcDbEntity
  8
0
100
AcDbSpline
 62
7
  6
CONTINUOUS
 70
0
 71
3
 72
11
 73
7
 74
0
 42
0.0000001
 43
0.0000001
 44
0.0000000001
 40
0.0
 40
0.0
 40
0.0
 40
0.0
 40
0.2500274128
 40
0.4999991526
 40
0.7499699956
 40
1.0
 40
1.0
 40
1.0
 40
1.0
 10
-1281.1570711765
 20
-1019.056378039
 30
0.0
 10
-1280.6689421497
 20
-1019.0476316603
 30
0.0
 10
-1279.6810442342
 20
-1018.8677506425
 30
0.0
 10
-1278.4349463248
 20
-1018.0266128693
 30
0.0
 10
-1277.5957127906
 20
-1016.779182813
 30
0.0
 10
-1277.4173763341
 20
-1015.7910807252
 30
0.0
 10
-1277.4090817034
 20
-1015.3029387518
 30
0.0
  0
SPLINE
  5
2DD
100
AcDbEntity
  8
0
100
AcDbSpline
 62
7
  6
CONTINUOUS
 70
0
 71
3
 72
19
 73
15
 74
0
 42
0.0000001
 43
0.0000001
 44
0.0000000001
 40
0.0
 40
0.0
 40
0.0
 40
0.0
 40
0.0625051856
 40
0.1250037014
 40
0.18750009
 40
0.2499974388
 40
0.312497403
 40
0.3749986474
 40
0.4374995485
 40
0.500000091
 40
0.6250015309
 40
0.7500027658
 40
0.8749968063
 40
1.0
 40
1.0
 40
1.0
 40
1.0
 10
-2961.1398509888
 20
-1019.0571299862
 30
0.0
 10
-2926.1373308344
 20
-1018.9966925642
 30
0.0
 10
-2856.1361860539
 20
-1018.7974441844
 30
0.0
 10
-2751.1373855919
 20
-1018.5675648805
 30
0.0
 10
-2646.1428272587
 20
-1018.3990460347
 30
0.0
 10
-2541.1473278739
 20
-1018.3850003857
 30
0.0
 10
-2436.1491379701
 20
-1018.4104965013
 30
0.0
 10
-2331.1489533896
 20
-1018.4394416322
 30
0.0
 10
-2226.1484420957
 20
-1018.4357430586
 30
0.0
 10
-2086.1481552714
 20
-1018.4230485276
 30
0.0
 10
-1911.1480021549
 20
-1018.4596828137
 30
0.0
 10
-1701.151869044
 20
-1018.3496622844
 30
0.0
 10
-1491.1546011274
 20
-1018.4889391346
 30
0.0
 10
-1351.1580818655
 20
-1018.9297266618
 30
0.0
 10
-1281.1570711765
 20
-1019.056378087
 30
0.0
  0
SPLINE
  5
2DE
100
AcDbEntity
  8
0
100
AcDbSpline
 62
7
  6
CONTINUOUS
 70
0
 71
3
 72
11
 73
7
 74
0
 42
0.0000001
 43
0.0000001
 44
0.0000000001
 40
0.0
 40
0.0
 40
0.0
 40
0.0
 40
0.2500300335
 40
0.5000009043
 40
0.7499727055
 40
1.0
 40
1.0
 40
1.0
 40
1.0
 10
-2964.8879111631
 20
-1015.3032406702
 30
0.0
 10
-2964.8795965104
 20
-1015.7914046118
 30
0.0
 10
-2964.7012274448
 20
-1016.7795407128
 30
0.0
 10
-2963.8619970569
 20
-1018.0270433285
 30
0.0
 10
-2962.6159175844
 20
-1018.8683102832
 30
0.0
 10
-2961.6280010034
 20
-1019.0483275144
 30
0.0
 10
-2961.1398509865
 20
-1019.0571312483
 30
0.0
  0
SPLINE
  5
2DF
100
AcDbEntity
  8
0
100
AcDbSpline
 62
7
  6
CONTINUOUS
 70
0
 71
3
 72
14
 73
10
 74
0
 42
0.0000001
 43
0.0000001
 44
0.0000000001
 40
0.0
 40
0.0
 40
0.0
 40
0.0
 40
0.2499582794
 40
0.3749671198
 40
0.4999825255
 40
0.6249924681
 40
0.750000719
 40
0.8749991765
 40
1.0
 40
1.0
 40
1.0
 40
1.0
 10
-2964.1793576945
 20
-650.3185207598
 30
0.0
 10
-2964.1623563144
 20
-680.7288946132
 30
0.0
 10
-2964.2691871293
 20
-726.3480678088
 30
0.0
 10
-2964.438662467
 20
-787.1765894696
 30
0.0
 10
-2964.5577126413
 20
-832.8037816995
 30
0.0
 10
-2964.6470832593
 20
-878.4309660003
 30
0.0
 10
-2964.7140166895
 20
-924.0561229997
 30
0.0
 10
-2964.7657493979
 20
-969.6802023418
 30
0.0
 10
-2964.8533479406
 20
-1000.0954525541
 30
0.0
 10
-2964.8878720052
 20
-1015.3032407595
 30
0.0
  0
SPLINE
  5
2E0
100
AcDbEntity
  8
0
100
AcDbSpline
 62
7
  6
CONTINUOUS
 70
0
 71
3
 72
8
 73
4
 74
0
 42
0.0000001
 43
0.0000001
 44
0.0000000001
 40
0.0
 40
0.0
 40
0.0
 40
0.0
 40
1.0
 40
1.0
 40
1.0
 40
1.0
 10
-2923.0743385314
 20
-650.3208566555
 30
0.0
 10
-2936.7760188889
 20
-650.3190756227
 30
0.0
 10
-2950.4776994115
 20
-650.3185411
 30
0.0
 10
-2964.1793798847
 20
-650.3185207744
 30
0.0
  0
SPLINE
  5
2E1
100
AcDbEntity
  8
0
100
AcDbSpline
 62
7
  6
CONTINUOUS
 70
0
 71
3
 72
77
 73
73
 74
0
 42
0.0000001
 43
0.0000001
 44
0.0000000001
 40
0.0
 40
0.0
 40
0.0
 40
0.0
 40
0.0156157967
 40
0.0312342143
 40
0.0468544797
 40
0.0624767738
 40
0.0781018758
 40
0.0937297452
 40
0.1093598282
 40
0.1249914252
 40
0.1406246675
 40
0.1562586617
 40
0.1718932992
 40
0.1875279263
 40
0.2031613185
 40
0.2109793148
 40
0.2187967334
 40
0.2266141162
 40
0.2344314104
 40
0.2422473569
 40
0.2500623585
 40
0.2578789475
 40
0.2656896872
 40
0.2735011178
 40
0.281312662
 40
0.289124146
 40
0.296935703
 40
0.3047472768
 40
0.3125588595
 40
0.3281820558
 40
0.3438052703
 40
0.3594284873
 40
0.3750516904
 40
0.3906748636
 40
0.4062979979
 40
0.4375441288
 40
0.4687900837
 40
0.5000359418
 40
0.5312817999
 40
0.5625277547
 40
0.593773885
 40
0.6093970184
 40
0.625020191
 40
0.6406433937
 40
0.6562666081
 40
0.6718898199
 40
0.6875130146
 40
0.6953245812
 40
0.7031361573
 40
0.7109477517
 40
0.7187592364
 40
0.7265707002
 40
0.7343821247
 40
0.7421929845
 40
0.7500094621
 40
0.7578243733
 40
0.7656403133
 40
0.7734576229
 40
0.7812749932
 40
0.7890923246
 40
0.7969101874
 40
0.8125434408
 40
0.8281780784
 40
0.8438127868
 40
0.8594467919
 40
0.875079973
 40
0.9063056973
 40
0.9375230801
 40
0.9531453828
 40
0.9687656621
 40
0.9843840738
 40
1.0
 40
1.0
 40
1.0
 40
1.0
 10
-1319.2220296041
 20
-650.3212987095
 30
0.0
 10
-1319.2179973699
 20
-660.5870803233
 30
0.0
 10
-1320.1814718966
 20
-681.1338464964
 30
0.0
 10
-1324.5271334166
 20
-711.6723034399
 30
0.0
 10
-1331.7606058626
 20
-741.6658356432
 30
0.0
 10
-1341.8112317705
 20
-770.8404977236
 30
0.0
 10
-1354.6075137359
 20
-798.9253467675
 30
0.0
 10
-1370.0208055765
 20
-825.6693419254
 30
0.0
 10
-1387.922375791
 20
-850.8213143432
 30
0.0
 10
-1408.1478713308
 20
-874.1507683961
 30
0.0
 10
-1430.5300825198
 20
-895.4240906325
 30
0.0
 10
-1454.8598277948
 20
-914.4432433977
 30
0.0
 10
-1480.9251172717
 20
-931.0071242385
 30
0.0
 10
-1508.4699132361
 20
-944.968577986
 30
0.0
 10
-1532.4528069956
 20
-954.3147096522
 30
0.0
 10
-1552.1071477415
 20
-960.3589352464
 30
0.0
 10
-1567.0549508548
 20
-964.1635731608
 30
0.0
 10
-1582.1717353807
 20
-967.2238020367
 30
0.0
 10
-1597.4167925428
 20
-969.5541284893
 30
0.0
 10
-1612.7523086458
 20
-971.169378836
 30
0.0
 10
-1628.1515914885
 20
-972.0162632325
 30
0.0
 10
-1643.5652797305
 20
-972.041646495
 30
0.0
 10
-1658.9731159436
 20
-972.0305149304
 30
0.0
 10
-1674.3785738662
 20
-972.0278048713
 30
0.0
 10
-1689.7842691937
 20
-972.0212870743
 30
0.0
 10
-1705.1901144384
 20
-972.0142026279
 30
0.0
 10
-1720.5959610452
 20
-972.0068076919
 30
0.0
 10
-1736.0018773264
 20
-971.9993539354
 30
0.0
 10
-1756.5431421244
 20
-971.9893755603
 30
0.0
 10
-1782.2197581869
 20
-971.976898705
 30
0.0
 10
-1813.0317217427
 20
-971.9643704739
 30
0.0
 10
-1843.8436907832
 20
-971.9545031255
 30
0.0
 10
-1874.65563345
 20
-971.9473813232
 30
0.0
 10
-1905.4675222966
 20
-971.9430897445
 30
0.0
 10
-1946.5498816485
 20
-971.9406004198
 30
0.0
 10
-1997.9026153638
 20
-971.9425361175
 30
0.0
 10
-2059.5256851185
 20
-971.9469187855
 30
0.0
 10
-2121.1485757743
 20
-971.9496307346
 30
0.0
 10
-2182.7714663362
 20
-971.9469413133
 30
0.0
 10
-2244.3945355766
 20
-971.9425747295
 30
0.0
 10
-2295.7472682595
 20
-971.9406418571
 30
0.0
 10
-2336.8296262356
 20
-971.9431154778
 30
0.0
 10
-2367.6415138283
 20
-971.9473837118
 30
0.0
 10
-2398.4534540894
 20
-971.9544680053
 30
0.0
 10
-2429.2654194461
 20
-971.9642766319
 30
0.0
 10
-2460.0773785332
 20
-971.9767177945
 30
0.0
 10
-2485.7539812676
 20
-971.9890977955
 30
0.0
 10
-2506.2952359876
 20
-971.9989722782
 30
0.0
 10
-2521.7011678005
 20
-972.006340525
 30
0.0
 10
-2537.1070409812
 20
-972.0136479825
 30
0.0
 10
-2552.512858483
 20
-972.0205970475
 30
0.0
 10
-2567.9184974694
 20
-972.0268842667
 30
0.0
 10
-2583.3239776172
 20
-972.0297856952
 30
0.0
 10
-2598.7318148994
 20
-972.0404577437
 30
0.0
 10
-2614.1454520788
 20
-972.0149576239
 30
0.0
 10
-2629.5445720286
 20
-971.1674564702
 30
0.0
 10
-2644.879954009
 20
-969.5514780782
 30
0.0
 10
-2660.1249526856
 20
-967.2208419203
 30
0.0
 10
-2675.2417461082
 20
-964.1610146279
 30
0.0
 10
-2690.189729423
 20
-960.3577550861
 30
0.0
 10
-2709.8443942738
 20
-954.3153160955
 30
0.0
 10
-2733.827087322
 20
-944.9690269958
 30
0.0
 10
-2761.3715176749
 20
-931.0066446128
 30
0.0
 10
-2787.4361197542
 20
-914.4426045676
 30
0.0
 10
-2811.7674367445
 20
-895.4221794874
 30
0.0
 10
-2841.5858932527
 20
-867.0840670142
 30
0.0
 10
-2873.5202029471
 20
-826.4720363381
 30
0.0
 10
-2897.1446799372
 20
-780.5381484969
 30
0.0
 10
-2910.5345759302
 20
-741.6667892395
 30
0.0
 10
-2917.7697778547
 20
-711.6716115555
 30
0.0
 10
-2922.1171101938
 20
-681.1338427239
 30
0.0
 10
-2923.0800079368
 20
-660.5867225965
 30
0.0
 10
-2923.0745527827
 20
-650.3208565557
 30
0.0
  0
SPLINE
  5
2E2
100
AcDbEntity
  8
0
100
AcDbSpline
 62
7
  6
CONTINUOUS
 70
0
 71
3
 72
77
 73
73
 74
0
 42
0.0000001
 43
0.0000001
 44
0.0000000001
 40
0.0
 40
0.0
 40
0.0
 40
0.0
 40
0.0156158428
 40
0.0312342007
 40
0.0468544763
 40
0.062476796
 40
0.0936941904
 40
0.1249199277
 40
0.1405531141
 40
0.1561871269
 40
0.1718218475
 40
0.187456488
 40
0.2030897486
 40
0.2109076507
 40
0.2187250311
 40
0.2265424386
 40
0.2343597717
 40
0.2421757251
 40
0.2499906414
 40
0.2578071197
 40
0.2656179805
 40
0.273429403
 40
0.2812408665
 40
0.2890523504
 40
0.2968639438
 40
0.304675519
 40
0.3124870848
 40
0.3281102778
 40
0.3437334878
 40
0.3593567005
 40
0.3749799015
 40
0.3906030723
 40
0.406226204
 40
0.4374723307
 40
0.4687182821
 40
0.4999641366
 40
0.5312099912
 40
0.5624559427
 40
0.5937020702
 40
0.6093252027
 40
0.6249483741
 40
0.6405715755
 40
0.6561947907
 40
0.6718180034
 40
0.687441198
 40
0.6952527797
 40
0.7030643525
 40
0.7108759089
 40
0.718687392
 40
0.7264989351
 40
0.7343103654
 40
0.7421211033
 40
0.7499376953
 40
0.7577526998
 40
0.7655686426
 40
0.7733859218
 40
0.7812032752
 40
0.7890206516
 40
0.7968386138
 40
0.8124720066
 40
0.8281066438
 40
0.8437412839
 40
0.8593752823
 40
0.8750085309
 40
0.8906401337
 40
0.9062702214
 40
0.9218980962
 40
0.9375232044
 40
0.9531455043
 40
0.9687657746
 40
0.9843841964
 40
1.0
 40
1.0
 40
1.0
 40
1.0
 10
-2923.0747621597
 20
-650.3173090507
 30
0.0
 10
-2923.0801697175
 20
-640.0515150889
 30
0.0
 10
-2922.1171432015
 20
-619.5045238716
 30
0.0
 10
-2917.7695879448
 20
-588.9669334778
 30
0.0
 10
-2910.5342110783
 20
-558.9718807469
 30
0.0
 10
-2897.1441253713
 20
-520.1006430125
 30
0.0
 10
-2873.5194055293
 20
-474.1669451441
 30
0.0
 10
-2841.5849101494
 20
-433.5551497875
 30
0.0
 10
-2811.7663549823
 20
-405.2172176607
 30
0.0
 10
-2787.4349764649
 20
-386.1969288106
 30
0.0
 10
-2761.3703267963
 20
-369.6330329495
 30
0.0
 10
-2733.8258671677
 20
-355.6707913121
 30
0.0
 10
-2709.8431411709
 20
-346.3246162525
 30
0.0
 10
-2690.1884217834
 20
-340.2822591423
 30
0.0
 10
-2675.2403678617
 20
-336.4790477257
 30
0.0
 10
-2660.123515031
 20
-333.4192805073
 30
0.0
 10
-2644.8784806662
 20
-331.0887241301
 30
0.0
 10
-2629.543087833
 20
-329.4728425014
 30
0.0
 10
-2614.1439802185
 20
-328.6253594034
 30
0.0
 10
-2598.7303637461
 20
-328.5999551525
 30
0.0
 10
-2583.3225528062
 20
-328.6105994608
 30
0.0
 10
-2567.9170994287
 20
-328.613506054
 30
0.0
 10
-2552.5114884768
 20
-328.6197936928
 30
0.0
 10
-2537.1056983017
 20
-328.626742367
 30
0.0
 10
-2521.6998528038
 20
-328.6340500274
 30
0.0
 10
-2506.2939487599
 20
-328.6414184579
 30
0.0
 10
-2485.752730909
 20
-328.6512929372
 30
0.0
 10
-2460.0761742979
 20
-328.6636721038
 30
0.0
 10
-2429.2642705786
 20
-328.6761142364
 30
0.0
 10
-2398.4523605977
 20
-328.6859229839
 30
0.0
 10
-2367.6404756758
 20
-328.6930069122
 30
0.0
 10
-2336.8286434608
 20
-328.6972745449
 30
0.0
 10
-2295.7463593158
 20
-328.6997476196
 30
0.0
 10
-2244.3937188813
 20
-328.6978155861
 30
0.0
 10
-2182.7707603415
 20
-328.6934489654
 30
0.0
 10
-2121.1479805585
 20
-328.6907593069
 30
0.0
 10
-2059.5252006767
 20
-328.6934718414
 30
0.0
 10
-1997.9022415854
 20
-328.6978544664
 30
0.0
 10
-1946.5496000741
 20
-328.6997882222
 30
0.0
 10
-1905.467314532
 20
-328.6972998034
 30
0.0
 10
-1874.6554810976
 20
-328.6930091313
 30
0.0
 10
-1843.8435938
 20
-328.6858874727
 30
0.0
 10
-1813.0316801338
 20
-328.6760197644
 30
0.0
 10
-1782.2197719578
 20
-328.6634909928
 30
0.0
 10
-1756.5432021644
 20
-328.6510145006
 30
0.0
 10
-1736.0019744163
 20
-328.6410364245
 30
0.0
 10
-1720.5960858443
 20
-328.6335824552
 30
0.0
 10
-1705.1902668017
 20
-328.6261863978
 30
0.0
 10
-1689.7844492325
 20
-328.6191016082
 30
0.0
 10
-1674.3787813706
 20
-328.6125865377
 30
0.0
 10
-1658.973351563
 20
-328.6098750433
 30
0.0
 10
-1643.5655406551
 20
-328.5987411425
 30
0.0
 10
-1628.151876127
 20
-328.6241296028
 30
0.0
 10
-1612.7526160577
 20
-329.4709768867
 30
0.0
 10
-1597.4171347742
 20
-331.0862145829
 30
0.0
 10
-1582.1721335087
 20
-333.4165244629
 30
0.0
 10
-1567.0554267998
 20
-336.4767183133
 30
0.0
 10
-1552.1077068664
 20
-340.2812950103
 30
0.0
 10
-1532.4534308525
 20
-346.3254441533
 30
0.0
 10
-1508.4705687177
 20
-355.6714947897
 30
0.0
 10
-1480.9257714736
 20
-369.6328499092
 30
0.0
 10
-1454.8604721497
 20
-386.1966395007
 30
0.0
 10
-1430.5307135078
 20
-405.215704656
 30
0.0
 10
-1408.1484719247
 20
-426.4889339468
 30
0.0
 10
-1387.9229169647
 20
-449.8182813531
 30
0.0
 10
-1370.0212701063
 20
-474.9701481999
 30
0.0
 10
-1354.6078973768
 20
-501.7140492363
 30
0.0
 10
-1341.8115243128
 20
-529.7988120132
 30
0.0
 10
-1331.7607911557
 20
-558.9733936549
 30
0.0
 10
-1324.5271981957
 20
-588.9668532765
 30
0.0
 10
-1320.1814053906
 20
-619.5052495323
 30
0.0
 10
-1319.2178373017
 20
-640.0519838072
 30
0.0
 10
-1319.2218209192
 20
-650.3177526471
 30
0.0
  0
SPLINE
  5
2E3
100
AcDbEntity
  8
0
100
AcDbSpline
 62
7
  6
CONTINUOUS
 70
0
 71
3
 72
21
 73
17
 74
0
 42
0.0000001
 43
0.0000001
 44
0.0000000001
 40
0.0
 40
0.0
 40
0.0
 40
0.0
 40
0.0312499556
 40
0.062499931
 40
0.0937499469
 40
0.1249999624
 40
0.156249999
 40
0.1875000687
 40
0.2500001774
 40
0.3125002579
 40
0.3750003392
 40
0.5000004524
 40
0.6250003032
 40
0.7499999055
 40
0.8749997152
 40
1.0
 40
1.0
 40
1.0
 40
1.0
 10
-2964.8879097997
 20
-285.3373650127
 30
0.0
 10
-2964.8783784584
 20
-289.1392543873
 30
0.0
 10
-2964.8557980589
 20
-296.7430261019
 30
0.0
 10
-2964.8253396554
 20
-308.1486998815
 30
0.0
 10
-2964.803667958
 20
-319.5544008609
 30
0.0
 10
-2964.7779048664
 20
-330.9601002292
 30
0.0
 10
-2964.7579701892
 20
-342.3658187529
 30
0.0
 10
-2964.7417252267
 20
-357.5734635797
 30
0.0
 10
-2964.7119981625
 20
-376.5830060907
 30
0.0
 10
-2964.6730767942
 20
-399.3944460687
 30
0.0
 10
-2964.622554825
 20
-429.8096912149
 30
0.0
 10
-2964.5588001252
 20
-467.8287123152
 30
0.0
 10
-2964.446088527
 20
-513.4514057961
 30
0.0
 10
-2964.3110461254
 20
-559.0739954579
 30
0.0
 10
-2964.1946742345
 20
-604.69669856
 30
0.0
 10
-2964.1726479562
 20
-635.1119847176
 30
0.0
 10
-2964.1793850186
 20
-650.3196447895
 30
0.0
  0
SPLINE
  5
2E4
100
AcDbEntity
  8
0
100
AcDbSpline
 62
7
  6
CONTINUOUS
 70
0
 71
3
 72
11
 73
7
 74
0
 42
0.0000001
 43
0.0000001
 44
0.0000000001
 40
0.0
 40
0.0
 40
0.0
 40
0.0
 40
0.2500272852
 40
0.4999990822
 40
0.7499699543
 40
1.0
 40
1.0
 40
1.0
 40
1.0
 10
-2961.1398374242
 20
-281.5834678182
 30
0.0
 10
-2961.6279887421
 20
-281.5922711312
 30
0.0
 10
-2962.6159078665
 20
-281.7722883123
 30
0.0
 10
-2963.8619925268
 20
-282.6135547842
 30
0.0
 10
-2964.7012254662
 20
-283.8610610896
 30
0.0
 10
-2964.8795946314
 20
-284.8491997447
 30
0.0
 10
-2964.8879097997
 20
-285.3373650127
 30
0.0
  0
SPLINE
  5
2E5
100
AcDbEntity
  8
0
100
AcDbSpline
 62
7
  6
CONTINUOUS
 70
0
 71
3
 72
19
 73
15
 74
0
 42
0.0000001
 43
0.0000001
 44
0.0000000001
 40
0.0
 40
0.0
 40
0.0
 40
0.0
 40
0.1250031933
 40
0.249997233
 40
0.3749984695
 40
0.4999999097
 40
0.5625004485
 40
0.6250013506
 40
0.6875026038
 40
0.7500025631
 40
0.81249989
 40
0.8749963007
 40
0.9374948273
 40
1.0
 40
1.0
 40
1.0
 40
1.0
 10
-1281.1570660541
 20
-281.5842190028
 30
0.0
 10
-1351.1580761721
 20
-281.7108686834
 30
0.0
 10
-1491.1545940703
 20
-282.1516543424
 30
0.0
 10
-1701.1518611518
 20
-282.2909406309
 30
0.0
 10
-1911.1479938011
 20
-282.1808961695
 30
0.0
 10
-2086.1481450078
 20
-282.217589004
 30
0.0
 10
-2226.1484297807
 20
-282.2048813074
 30
0.0
 10
-2331.1489440287
 20
-282.2011563696
 30
0.0
 10
-2436.1491308508
 20
-282.2300721516
 30
0.0
 10
-2541.1473101445
 20
-282.2555807479
 30
0.0
 10
-2646.1428063742
 20
-282.2416341176
 30
0.0
 10
-2751.137370237
 20
-282.0730189854
 30
0.0
 10
-2856.136181389
 20
-281.8431584161
 30
0.0
 10
-2926.1373246556
 20
-281.6439004323
 30
0.0
 10
-2961.1398374231
 20
-281.5834671363
 30
0.0
  0
SPLINE
  5
2E6
100
AcDbEntity
  8
0
100
AcDbSpline
 62
7
  6
CONTINUOUS
 70
0
 71
3
 72
11
 73
7
 74
0
 42
0.0000001
 43
0.0000001
 44
0.0000000001
 40
0.0
 40
0.0
 40
0.0
 40
0.0
 40
0.2500300056
 40
0.5000008362
 40
0.7499725677
 40
1.0
 40
1.0
 40
1.0
 40
1.0
 10
-1277.4090808258
 20
-285.3376590832
 30
0.0
 10
-1277.4173764929
 20
-284.8495175679
 30
0.0
 10
-1277.5957122034
 20
-283.8614164936
 30
0.0
 10
-1278.4349449826
 20
-282.6139877832
 30
0.0
 10
-1279.6810405395
 20
-281.772848587
 30
0.0
 10
-1280.668937462
 20
-281.5929684231
 30
0.0
 10
-1281.1570660519
 20
-281.5842202415
 30
0.0
  0
SPLINE
  5
2E7
100
AcDbEntity
  8
0
100
AcDbSpline
 62
7
  6
CONTINUOUS
 70
0
 71
3
 72
11
 73
7
 74
0
 42
0.0000001
 43
0.0000001
 44
0.0000000001
 40
0.0
 40
0.0
 40
0.0
 40
0.0
 40
0.2499601158
 40
0.4999837956
 40
0.7500009936
 40
1.0
 40
1.0
 40
1.0
 40
1.0
 10
-1278.1171853751
 20
-650.3200906072
 30
0.0
 10
-1278.129476133
 20
-619.909682726
 30
0.0
 10
-1277.9974654378
 20
-559.0811551145
 30
0.0
 10
-1277.7180805845
 20
-467.8356965841
 30
0.0
 10
-1277.5937179245
 20
-376.585108111
 30
0.0
 10
-1277.4793304266
 20
-315.7527197897
 30
0.0
 10
-1277.4090812178
 20
-285.3376590822
 30
0.0
  0
SPLINE
  5
2E8
100
AcDbEntity
  8
0
100
AcDbSpline
 62
7
  6
CONTINUOUS
 70
0
 71
3
 72
10
 73
6
 74
0
 42
0.0000001
 43
0.0000001
 44
0.0000000001
 40
0.0
 40
0.0
 40
0.0
 40
0.0
 40
0.3071646727
 40
0.5876001515
 40
1.0
 40
1.0
 40
1.0
 40
1.0
 10
-2923.0747627377
 20
-650.3162083088
 30
0.0
 10
-2922.6029338136
 20
-650.3213271295
 30
0.0
 10
-2921.7002445701
 20
-650.3172030969
 30
0.0
 10
-2920.1640932488
 20
-650.3214127841
 30
0.0
 10
-2919.0997754718
 20
-650.3213067036
 30
0.0
 10
-2918.4662606102
 20
-650.3203068063
 30
0.0
  0
SPLINE
  5
2E9
100
AcDbEntity
  8
0
100
AcDbSpline
 62
7
  6
CONTINUOUS
 70
0
 71
3
 72
120
 73
116
 74
0
 42
0.0000001
 43
0.0000001
 44
0.0000000001
 40
0.0
 40
0.0
 40
0.0
 40
0.0
 40
0.014373729
 40
0.0284014532
 40
0.0351908062
 40
0.0419726945
 40
0.0488551533
 40
0.0559475875
 40
0.0633581598
 40
0.0672172384
 40
0.0711963583
 40
0.0753095147
 40
0.0795883245
 40
0.0818543897
 40
0.0842143338
 40
0.0866639256
 40
0.0891975265
 40
0.0918096096
 40
0.0944950781
 40
0.0972485806
 40
0.1000647591
 40
0.1058626835
 40
0.1118475141
 40
0.1179765406
 40
0.124207142
 40
0.1367920304
 40
0.1492726728
 40
0.1553729756
 40
0.1613198236
 40
0.1670705123
 40
0.1725820256
 40
0.1778128327
 40
0.1803097655
 40
0.1827199943
 40
0.1850387634
 40
0.1872600854
 40
0.1893975356
 40
0.1915134474
 40
0.1936132495
 40
0.1956974335
 40
0.1998216608
 40
0.2078983025
 40
0.2157618605
 40
0.2234308705
 40
0.2309238006
 40
0.2382590269
 40
0.2454549545
 40
0.2595028
 40
0.273214874
 40
0.2867387105
 40
0.3002217715
 40
0.313811596
 40
0.3276557717
 40
0.3562601496
 40
0.385005976
 40
0.4137528824
 40
0.4425010468
 40
0.4712503469
 40
0.5000003811
 40
0.5287504419
 40
0.557499635
 40
0.5862479292
 40
0.6149947185
 40
0.6437406081
 40
0.6723449808
 40
0.6861891557
 40
0.6997789995
 40
0.7132620695
 40
0.7267858247
 40
0.7404979646
 40
0.7545457762
 40
0.7617417005
 40
0.7690769333
 40
0.7765698592
 40
0.7842388699
 40
0.7921025372
 40
0.8001791438
 40
0.8043032894
 40
0.8063874693
 40
0.8084872163
 40
0.8106027285
 40
0.8127402971
 40
0.8149619871
 40
0.8172806871
 40
0.8221871846
 40
0.8274179599
 40
0.8329294981
 40
0.8386801975
 40
0.8446270714
 40
0.8507273337
 40
0.863207957
 40
0.8757928665
 40
0.8820234595
 40
0.8881524867
 40
0.8941373163
 40
0.8999352425
 40
0.9027514213
 40
0.9055049235
 40
0.9081903913
 40
0.9108024754
 40
0.9133360767
 40
0.9157856685
 40
0.9181456142
 40
0.9204116768
 40
0.9246904879
 40
0.9288036409
 40
0.9327827733
 40
0.9366418363
 40
0.9440524203
 40
0.9511448296
 40
0.9580273634
 40
0.9648090679
 40
0.9715987397
 40
0.9856262741
 40
1.0
 40
1.0
 40
1.0
 40
1.0
 10
-1512.8304422165
 20
-650.3202993202
 30
0.0
 10
-1512.830442205
 20
-657.7390498536
 30
0.0
 10
-1513.0553124563
 20
-672.399122634
 30
0.0
 10
-1513.9357180041
 20
-690.5445504603
 30
0.0
 10
-1514.9906751408
 20
-704.7507399858
 30
0.0
 10
-1515.9506610506
 20
-715.2643515917
 30
0.0
 10
-1517.1082393779
 20
-725.9154202123
 30
0.0
 10
-1518.4935292924
 20
-736.866451413
 30
0.0
 10
-1519.8524145424
 20
-746.2463812557
 30
0.0
 10
-1521.0882674683
 20
-754.0192263134
 30
0.0
 10
-1522.1137022751
 20
-760.1019810054
 30
0.0
 10
-1523.2357975711
 20
-766.387823418
 30
0.0
 10
-1524.2535523339
 20
-771.793917581
 30
0.0
 10
-1525.1391127877
 20
-776.3038702092
 30
0.0
 10
-1525.8576475392
 20
-779.8844759543
 30
0.0
 10
-1526.628509605
 20
-783.5952257142
 30
0.0
 10
-1527.4287675232
 20
-787.4331385473
 30
0.0
 10
-1528.3943673014
 20
-791.3590693568
 30
0.0
 10
-1529.5336866367
 20
-795.3561888975
 30
0.0
 10
-1530.856340179
 20
-799.4075931428
 30
0.0
 10
-1532.8877448028
 20
-804.9131205898
 30
0.0
 10
-1535.9097020501
 20
-811.8249552601
 30
0.0
 10
-1540.2857897401
 20
-819.9796360433
 30
0.0
 10
-1545.4349887628
 20
-827.9386672285
 30
0.0
 10
-1553.3099360577
 20
-838.1399419352
 30
0.0
 10
-1564.7716727502
 20
-849.6382823198
 30
0.0
 10
-1577.9446902412
 20
-859.0102186119
 30
0.0
 10
-1589.1084626391
 20
-865.0052763841
 30
0.0
 10
-1597.5391287963
 20
-868.679578495
 30
0.0
 10
-1605.947848677
 20
-871.5690679774
 30
0.0
 10
-1614.1964889196
 20
-873.7050030368
 30
0.0
 10
-1620.9273983845
 20
-874.9207133144
 30
0.0
 10
-1626.1202989907
 20
-875.5706059864
 30
0.0
 10
-1629.8355500617
 20
-875.9054619757
 30
0.0
 10
-1633.4177234716
 20
-876.1077198442
 30
0.0
 10
-1636.8639108075
 20
-876.191694976
 30
0.0
 10
-1640.2057863728
 20
-876.163459679
 30
0.0
 10
-1643.4847759208
 20
-876.1476157998
 30
0.0
 10
-1646.7363073724
 20
-876.1271084802
 30
0.0
 10
-1651.0243761098
 20
-876.1030956879
 30
0.0
 10
-1658.3972335511
 20
-876.0598085213
 30
0.0
 10
-1668.7529710213
 20
-876.001065875
 30
0.0
 10
-1680.93825551
 20
-875.9313498726
 30
0.0
 10
-1692.8222736242
 20
-875.8636830764
 30
0.0
 10
-1704.4336098963
 20
-875.798065087
 30
0.0
 10
-1715.8007801569
 20
-875.7344378991
 30
0.0
 10
-1730.5511048725
 20
-875.6521851778
 30
0.0
 10
-1748.5926824742
 20
-875.5524482823
 30
0.0
 10
-1769.9002604712
 20
-875.4364825882
 30
0.0
 10
-1790.9163499564
 20
-875.3241207058
 30
0.0
 10
-1811.8693554915
 20
-875.2143881143
 30
0.0
 10
-1832.9877089816
 20
-875.1062401179
 30
0.0
 10
-1861.9105849814
 20
-874.962041089
 30
0.0
 10
-1898.6559157
 20
-874.7878781713
 30
0.0
 10
-1943.0930366753
 20
-874.5972085932
 30
0.0
 10
-1987.6044785418
 20
-874.433052661
 30
0.0
 10
-2032.1178333978
 20
-874.3046546164
 30
0.0
 10
-2076.6329141405
 20
-874.2218787257
 30
0.0
 10
-2121.1490439383
 20
-874.1931363159
 30
0.0
 10
-2165.66511853
 20
-874.2218655675
 30
0.0
 10
-2210.1802248008
 20
-874.3046107167
 30
0.0
 10
-2254.693531008
 20
-874.4330047812
 30
0.0
 10
-2299.2050120809
 20
-874.5971459343
 30
0.0
 10
-2343.6421025469
 20
-874.7878124235
 30
0.0
 10
-2380.38746277
 20
-874.9619722278
 30
0.0
 10
-2409.3103456082
 20
-875.1061765939
 30
0.0
 10
-2430.4287133611
 20
-875.2143180164
 30
0.0
 10
-2451.3816912703
 20
-875.3241086785
 30
0.0
 10
-2472.39777831
 20
-875.4363091106
 30
0.0
 10
-2493.7053291391
 20
-875.5525854353
 30
0.0
 10
-2511.7469225263
 20
-875.6521364955
 30
0.0
 10
-2526.4972330242
 20
-875.7341032179
 30
0.0
 10
-2537.8644014222
 20
-875.7979784278
 30
0.0
 10
-2549.4757375173
 20
-875.8639005727
 30
0.0
 10
-2561.359812514
 20
-875.9311677703
 30
0.0
 10
-2573.5451359033
 20
-876.0008314744
 30
0.0
 10
-2583.9008658299
 20
-876.0602320044
 30
0.0
 10
-2591.2736648194
 20
-876.1028151665
 30
0.0
 10
-2595.5616576535
 20
-876.1274156237
 30
0.0
 10
-2598.8129546317
 20
-876.1474216387
 30
0.0
 10
-2602.0917720709
 20
-876.1634168859
 30
0.0
 10
-2605.4336846633
 20
-876.1914346182
 30
0.0
 10
-2608.8801196476
 20
-876.107713255
 30
0.0
 10
-2613.7488685142
 20
-875.8327752501
 30
0.0
 10
-2620.1462667118
 20
-875.1423335998
 30
0.0
 10
-2628.1012846087
 20
-873.7046605167
 30
0.0
 10
-2636.3502988541
 20
-871.5693193001
 30
0.0
 10
-2644.7588861114
 20
-868.679475017
 30
0.0
 10
-2653.189537577
 20
-865.0051423422
 30
0.0
 10
-2664.3533847652
 20
-859.0102675479
 30
0.0
 10
-2677.5263946214
 20
-849.6383227944
 30
0.0
 10
-2688.9880646984
 20
-838.1399301538
 30
0.0
 10
-2696.8630421635
 20
-827.9386716714
 30
0.0
 10
-2702.012247517
 20
-819.9796477519
 30
0.0
 10
-2706.3882995473
 20
-811.8249481933
 30
0.0
 10
-2709.4102955589
 20
-804.91313099
 30
0.0
 10
-2711.4417002661
 20
-799.4076013662
 30
0.0
 10
-2712.7643125105
 20
-795.3561846226
 30
0.0
 10
-2713.9036705346
 20
-791.3590761746
 30
0.0
 10
-2714.8692677327
 20
-787.4331449006
 30
0.0
 10
-2715.6696268613
 20
-783.5952524946
 30
0.0
 10
-2716.4403153004
 20
-779.8844657861
 30
0.0
 10
-2717.1589526572
 20
-776.303881429
 30
0.0
 10
-2718.0444511459
 20
-771.7939162541
 30
0.0
 10
-2719.0622148454
 20
-766.3878268953
 30
0.0
 10
-2720.1843907009
 20
-760.1019928679
 30
0.0
 10
-2721.2096124176
 20
-754.0192048483
 30
0.0
 10
-2722.4452666099
 20
-746.2463255101
 30
0.0
 10
-2723.8047639779
 20
-736.8665004705
 30
0.0
 10
-2725.1899008175
 20
-725.9154120556
 30
0.0
 10
-2726.3471092375
 20
-715.2643744868
 30
0.0
 10
-2727.3071673498
 20
-704.7506623259
 30
0.0
 10
-2728.3622941073
 20
-690.5445134708
 30
0.0
 10
-2729.242794858
 20
-672.3990227353
 30
0.0
 10
-2729.467594777
 20
-657.7390482597
 30
0.0
 10
-2729.4675947655
 20
-650.3202993202
 30
0.0
  0
SPLINE
  5
2EA
100
AcDbEntity
  8
0
100
AcDbSpline
 62
7
  6
CONTINUOUS
 70
0
 71
3
 72
90
 73
86
 74
0
 42
0.0000001
 43
0.0000001
 44
0.0000000001
 40
0.0
 40
0.0
 40
0.0
 40
0.0
 40
0.0156311925
 40
0.0312680442
 40
0.0468976808
 40
0.0625248221
 40
0.0781512813
 40
0.0937769003
 40
0.1094003921
 40
0.1250228852
 40
0.1406444674
 40
0.1562651916
 40
0.1718853981
 40
0.1875057484
 40
0.2031269784
 40
0.2109399853
 40
0.2187527891
 40
0.2265674409
 40
0.2343825222
 40
0.2382893977
 40
0.2421956343
 40
0.2461018463
 40
0.250007939
 40
0.2539144911
 40
0.2578207343
 40
0.2617268898
 40
0.2656330888
 40
0.2734454628
 40
0.2812578425
 40
0.2890702216
 40
0.2968826007
 40
0.3046949798
 40
0.3125073591
 40
0.3281321181
 40
0.3437568775
 40
0.3593816374
 40
0.3750063975
 40
0.3906311579
 40
0.4062559184
 40
0.4375054393
 40
0.4687549602
 40
0.5000044811
 40
0.531254002
 40
0.5625035229
 40
0.5937530438
 40
0.6093778042
 40
0.6250025646
 40
0.6406273248
 40
0.6562520847
 40
0.6718768441
 40
0.6875016028
 40
0.6953139819
 40
0.703126361
 40
0.71093874
 40
0.718751119
 40
0.7265634976
 40
0.7304696871
 40
0.7343758769
 40
0.7382820653
 40
0.7421882578
 40
0.7441413464
 40
0.7460944478
 40
0.7480475674
 40
0.7500006411
 40
0.7519537584
 40
0.7539068573
 40
0.7578129915
 40
0.7656247155
 40
0.7734364745
 40
0.7812483995
 40
0.789060469
 40
0.7968725435
 40
0.8124921648
 40
0.8281117654
 40
0.8437318781
 40
0.8593528712
 40
0.874974214
 40
0.8905968526
 40
0.9062206824
 40
0.9218461533
 40
0.9374733398
 40
0.9531009597
 40
0.9687310981
 40
0.9843685658
 40
1.0
 40
1.0
 40
1.0
 40
1.0
 10
-2918.4662602574
 20
-650.3203068063
 30
0.0
 10
-2918.4625306114
 20
-660.5127008864
 30
0.0
 10
-2917.4724868844
 20
-680.914341333
 30
0.0
 10
-2913.0567897376
 20
-711.2193235419
 30
0.0
 10
-2905.7409899045
 20
-740.957880709
 30
0.0
 10
-2895.6055918523
 20
-769.8490915064
 30
0.0
 10
-2882.7404031651
 20
-797.6299311923
 30
0.0
 10
-2867.2655600974
 20
-824.0432810556
 30
0.0
 10
-2849.3264724709
 20
-848.8456551535
 30
0.0
 10
-2829.0919840632
 20
-871.8104362231
 30
0.0
 10
-2806.7364495566
 20
-892.7147314744
 30
0.0
 10
-2782.4549419098
 20
-911.3450000502
 30
0.0
 10
-2756.4797209469
 20
-927.5292432903
 30
0.0
 10
-2729.055872088
 20
-941.1128923213
 30
0.0
 10
-2705.2036790498
 20
-950.1581175022
 30
0.0
 10
-2685.6702727892
 20
-955.9758767345
 30
0.0
 10
-2670.8200631363
 20
-959.6203293005
 30
0.0
 10
-2655.8089658359
 20
-962.5361821953
 30
0.0
 10
-2643.1941964668
 20
-964.3504830596
 30
0.0
 10
-2633.0597104355
 20
-965.425518773
 30
0.0
 10
-2625.4423570666
 20
-966.0427706274
 30
0.0
 10
-2617.813210229
 20
-966.4868322246
 30
0.0
 10
-2610.1739743589
 20
-966.7029438392
 30
0.0
 10
-2602.5326329204
 20
-966.7622024564
 30
0.0
 10
-2594.8912321258
 20
-966.7545354318
 30
0.0
 10
-2587.2500645155
 20
-966.7533010028
 30
0.0
 10
-2577.0618848848
 20
-966.7572502289
 30
0.0
 10
-2564.3266325524
 20
-966.7569967287
 30
0.0
 10
-2549.0443369465
 20
-966.7604077098
 30
0.0
 10
-2533.7620378243
 20
-966.7620979468
 30
0.0
 10
-2518.4797390937
 20
-966.7640667192
 30
0.0
 10
-2503.1974402532
 20
-966.766171714
 30
0.0
 10
-2482.8210412926
 20
-966.7687892166
 30
0.0
 10
-2457.350541902
 20
-966.7711894883
 30
0.0
 10
-2426.7859419445
 20
-966.7739629941
 30
0.0
 10
-2396.2213411554
 20
-966.77627935
 30
0.0
 10
-2365.6567397048
 20
-966.7776212242
 30
0.0
 10
-2335.0921378446
 20
-966.7783176731
 30
0.0
 10
-2294.3393350958
 20
-966.7788065414
 30
0.0
 10
-2243.398331609
 20
-966.7784347856
 30
0.0
 10
-2182.2691274255
 20
-966.7776724532
 30
0.0
 10
-2121.1399232378
 20
-966.7771399659
 30
0.0
 10
-2060.0107190471
 20
-966.7776471159
 30
0.0
 10
-1998.8815148587
 20
-966.7784490345
 30
0.0
 10
-1947.9405113724
 20
-966.7787956601
 30
0.0
 10
-1907.1877086383
 20
-966.7783545054
 30
0.0
 10
-1876.6231067895
 20
-966.7776208011
 30
0.0
 10
-1846.0585053148
 20
-966.7763142657
 30
0.0
 10
-1815.4939044912
 20
-966.7741539219
 30
0.0
 10
-1784.9293046928
 20
-966.7714326482
 30
0.0
 10
-1759.4588056115
 20
-966.768738045
 30
0.0
 10
-1739.0824069996
 20
-966.7659776947
 30
0.0
 10
-1723.800108345
 20
-966.7638078796
 30
0.0
 10
-1708.5178097824
 20
-966.76185439
 30
0.0
 10
-1693.235511516
 20
-966.7598486461
 30
0.0
 10
-1680.5002630851
 20
-966.7579019994
 30
0.0
 10
-1670.3120641005
 20
-966.7565346933
 30
0.0
 10
-1662.6709154561
 20
-966.755264639
 30
0.0
 10
-1655.0297645216
 20
-966.7540988048
 30
0.0
 10
-1648.6621437487
 20
-966.7531358005
 30
0.0
 10
-1643.5680402298
 20
-966.7533703886
 30
0.0
 10
-1639.7474542679
 20
-966.7533355517
 30
0.0
 10
-1635.9268534685
 20
-966.7495051292
 30
0.0
 10
-1632.1064179151
 20
-966.7027240997
 30
0.0
 10
-1628.2871169612
 20
-966.599853747
 30
0.0
 10
-1623.1966049472
 20
-966.4063551496
 30
0.0
 10
-1614.2960252426
 20
-965.8989106446
 30
0.0
 10
-1601.6117376947
 20
-964.710004651
 30
0.0
 10
-1586.4800678397
 20
-962.5344423836
 30
0.0
 10
-1571.4732114713
 20
-959.6189915502
 30
0.0
 10
-1556.6257807509
 20
-955.9754943001
 30
0.0
 10
-1537.0942214379
 20
-950.1589413351
 30
0.0
 10
-1513.2440941691
 20
-941.1142794443
 30
0.0
 10
-1485.8216998874
 20
-927.5313897272
 30
0.0
 10
-1459.8462840437
 20
-911.3481306877
 30
0.0
 10
-1435.5648542571
 20
-892.7178863057
 30
0.0
 10
-1413.2079383674
 20
-871.8148545396
 30
0.0
 10
-1392.9741168116
 20
-848.8492752532
 30
0.0
 10
-1375.0334867485
 20
-824.047763392
 30
0.0
 10
-1359.5589667461
 20
-797.6334926652
 30
0.0
 10
-1346.6927787721
 20
-769.8523867968
 30
0.0
 10
-1336.5567747223
 20
-740.9602124931
 30
0.0
 10
-1329.2394105448
 20
-711.2209706788
 30
0.0
 10
-1324.8235469135
 20
-680.9150722017
 30
0.0
 10
-1323.8337817062
 20
-660.5128510709
 30
0.0
 10
-1323.8302923058
 20
-650.3202993202
 30
0.0
  0
SPLINE
  5
2EB
100
AcDbEntity
  8
0
100
AcDbSpline
 62
7
  6
CONTINUOUS
 70
0
 71
3
 72
120
 73
116
 74
0
 42
0.0000001
 43
0.0000001
 44
0.0000000001
 40
0.0
 40
0.0
 40
0.0
 40
0.0
 40
0.0143737236
 40
0.0284012554
 40
0.0351909253
 40
0.0419726278
 40
0.0488551598
 40
0.0559475677
 40
0.063358151
 40
0.067217214
 40
0.0711963466
 40
0.0753095001
 40
0.0795883122
 40
0.0818543753
 40
0.0842143217
 40
0.0866639144
 40
0.0891975165
 40
0.0918096015
 40
0.0944950703
 40
0.0972485735
 40
0.1000647533
 40
0.1058626816
 40
0.1118475133
 40
0.1179765427
 40
0.1242071379
 40
0.1367920514
 40
0.1492726784
 40
0.1553729424
 40
0.1613198177
 40
0.1670705184
 40
0.1725820578
 40
0.177812834
 40
0.1827193322
 40
0.1850380324
 40
0.1872597224
 40
0.189397291
 40
0.1915128033
 40
0.1936125502
 40
0.19569673
 40
0.1998208755
 40
0.2078974813
 40
0.2157611475
 40
0.223430157
 40
0.2309230815
 40
0.2382583129
 40
0.2454542357
 40
0.2595020447
 40
0.2732141825
 40
0.2867379365
 40
0.3002210061
 40
0.3138108506
 40
0.3276550272
 40
0.3562594054
 40
0.3850052986
 40
0.413752088
 40
0.4425003787
 40
0.4712495657
 40
0.4999996189
 40
0.5287496454
 40
0.5574989394
 40
0.5862471005
 40
0.6149940069
 40
0.6437398369
 40
0.6723442204
 40
0.6861883977
 40
0.6997782228
 40
0.7132612835
 40
0.7267851187
 40
0.7404971907
 40
0.7545450336
 40
0.7617409598
 40
0.7690761846
 40
0.7765691133
 40
0.7842381221
 40
0.792101679
 40
0.80017832
 40
0.804302547
 40
0.8063867309
 40
0.808486533
 40
0.8106024448
 40
0.812739895
 40
0.8149612172
 40
0.8172799865
 40
0.8196902156
 40
0.8221871487
 40
0.8274179567
 40
0.8329294712
 40
0.8386801612
 40
0.8446270106
 40
0.8507273151
 40
0.8632079612
 40
0.8757928536
 40
0.8820234572
 40
0.8881524859
 40
0.8941373187
 40
0.8999352452
 40
0.9027514247
 40
0.9055049282
 40
0.9081903976
 40
0.9108024816
 40
0.9133360833
 40
0.9157856759
 40
0.9181456207
 40
0.9204116865
 40
0.9246904973
 40
0.9288036542
 40
0.9327827743
 40
0.9366418529
 40
0.9440524245
 40
0.9511448573
 40
0.9580273143
 40
0.9648092006
 40
0.9715985517
 40
0.9856262733
 40
1.0
 40
1.0
 40
1.0
 40
1.0
 10
-2729.4676499295
 20
-650.3202993202
 30
0.0
 10
-2729.4676499542
 20
-642.9015511032
 30
0.0
 10
-2729.2428498026
 20
-628.2415782423
 30
0.0
 10
-2728.3623476988
 20
-610.0960899481
 30
0.0
 10
-2727.3072193754
 20
-595.8899436867
 30
0.0
 10
-2726.3471599718
 20
-585.3762339441
 30
0.0
 10
-2725.1899501169
 20
-574.7251985611
 30
0.0
 10
-2723.8048116731
 20
-563.7741117
 30
0.0
 10
-2722.4453128205
 20
-554.3942873889
 30
0.0
 10
-2721.2096572698
 20
-546.6214080211
 30
0.0
 10
-2720.184434366
 20
-540.5386193971
 30
0.0
 10
-2719.0622571675
 20
-534.2527843089
 30
0.0
 10
-2718.0444922046
 20
-528.8466937562
 30
0.0
 10
-2717.1589925958
 20
-524.3367273491
 30
0.0
 10
-2716.4403543192
 20
-520.7561418339
 30
0.0
 10
-2715.6696647991
 20
-517.0453538612
 30
0.0
 10
-2714.8693048175
 20
-513.2074600491
 30
0.0
 10
-2713.9037074384
 20
-509.281527142
 30
0.0
 10
-2712.7643488484
 20
-505.2844170849
 30
0.0
 10
-2711.4417361415
 20
-501.2329986255
 30
0.0
 10
-2709.4103305582
 20
-495.7274666686
 30
0.0
 10
-2706.3883331345
 20
-488.8156465798
 30
0.0
 10
-2702.0122791841
 20
-480.6609436039
 30
0.0
 10
-2696.863071493
 20
-472.7019164893
 30
0.0
 10
-2688.988090588
 20
-462.5006541653
 30
0.0
 10
-2677.5264157973
 20
-451.0022575479
 30
0.0
 10
-2664.3534007683
 20
-441.6303099383
 30
0.0
 10
-2653.1895495361
 20
-435.6354335957
 30
0.0
 10
-2644.7588952788
 20
-431.9611001395
 30
0.0
 10
-2636.3503054474
 20
-429.0712553747
 30
0.0
 10
-2628.1012889183
 20
-426.9359139296
 30
0.0
 10
-2620.146269108
 20
-425.4982408128
 30
0.0
 10
-2613.7488695887
 20
-424.8077992343
 30
0.0
 10
-2608.8801199152
 20
-424.5328613194
 30
0.0
 10
-2605.4336845308
 20
-424.4491400286
 30
0.0
 10
-2602.0917716559
 20
-424.4771578162
 30
0.0
 10
-2598.8129540178
 20
-424.4931531084
 30
0.0
 10
-2595.5616568975
 20
-424.5131591655
 30
0.0
 10
-2591.2736639724
 20
-424.5377596722
 30
0.0
 10
-2583.9008650715
 20
-424.5803429065
 30
0.0
 10
-2573.5451355598
 20
-424.6397435046
 30
0.0
 10
-2561.3598130072
 20
-424.7094072475
 30
0.0
 10
-2549.4757391916
 20
-424.7766744523
 30
0.0
 10
-2537.8644044875
 20
-424.8425965856
 30
0.0
 10
-2526.4972375753
 20
-424.9064717746
 30
0.0
 10
-2511.7469289791
 20
-424.9884384665
 30
0.0
 10
-2493.705337596
 20
-425.087989496
 30
0.0
 10
-2472.3977884831
 20
-425.2042658024
 30
0.0
 10
-2451.3817020186
 20
-425.3164662174
 30
0.0
 10
-2430.4287233162
 20
-425.4262568397
 30
0.0
 10
-2409.3103532417
 20
-425.5343981856
 30
0.0
 10
-2380.3874645192
 20
-425.6786024066
 30
0.0
 10
-2343.6420964259
 20
-425.8527619853
 30
0.0
 10
-2299.2049984548
 20
-426.0434283082
 30
0.0
 10
-2254.693514529
 20
-426.207569463
 30
0.0
 10
-2210.1802104571
 20
-426.3359636111
 30
0.0
 10
-2165.6651102754
 20
-426.4187088314
 30
0.0
 10
-2121.1490439374
 20
-426.4474381052
 30
0.0
 10
-2076.632922391
 20
-426.4186956729
 30
0.0
 10
-2032.1178477324
 20
-426.3359197122
 30
0.0
 10
-1987.6044950072
 20
-426.2075215833
 30
0.0
 10
-1943.0930502879
 20
-426.0433656496
 30
0.0
 10
-1898.6559218149
 20
-425.8526962377
 30
0.0
 10
-1861.910583237
 20
-425.6785335453
 30
0.0
 10
-1832.9877013646
 20
-425.5343346615
 30
0.0
 10
-1811.8693455622
 20
-425.4261867417
 30
0.0
 10
-1790.9163392416
 20
-425.3164541899
 30
0.0
 10
-1769.9002503372
 20
-425.2040923246
 30
0.0
 10
-1748.5926740583
 20
-425.0881266488
 30
0.0
 10
-1730.5510984596
 20
-424.988389784
 30
0.0
 10
-1715.8007756424
 20
-424.9061370932
 30
0.0
 10
-1704.4336068643
 20
-424.8425099261
 30
0.0
 10
-1692.8222719789
 20
-424.7768919482
 30
0.0
 10
-1680.9382550404
 20
-424.7092251448
 30
0.0
 10
-1668.752971382
 20
-424.6395091037
 30
0.0
 10
-1658.3972343209
 20
-424.5807663893
 30
0.0
 10
-1651.0243769642
 20
-424.5374791505
 30
0.0
 10
-1646.7363081334
 20
-424.5134663087
 30
0.0
 10
-1643.4847765378
 20
-424.4929589469
 30
0.0
 10
-1640.2057867891
 20
-424.4771150228
 30
0.0
 10
-1636.8639109393
 20
-424.4488796705
 30
0.0
 10
-1633.4177232017
 20
-424.53285473
 30
0.0
 10
-1629.8355492495
 20
-424.7351125296
 30
0.0
 10
-1626.1202974999
 20
-425.069968461
 30
0.0
 10
-1620.9273957514
 20
-425.7198610927
 30
0.0
 10
-1614.1964845997
 20
-426.935571411
 30
0.0
 10
-1605.9478420707
 20
-429.0715067009
 30
0.0
 10
-1597.5391196139
 20
-431.9609966665
 30
0.0
 10
-1589.1084506633
 20
-435.6352995604
 30
0.0
 10
-1577.9446742214
 20
-441.6303588834
 30
0.0
 10
-1564.7716515592
 20
-451.0022980334
 30
0.0
 10
-1553.309910155
 20
-462.5006423954
 30
0.0
 10
-1545.4349594228
 20
-472.7019209433
 30
0.0
 10
-1540.2857580644
 20
-480.6609553224
 30
0.0
 10
-1535.9096684562
 20
-488.8156395215
 30
0.0
 10
-1532.8877097983
 20
-495.7274770758
 30
0.0
 10
-1530.8563042994
 20
-501.2330068547
 30
0.0
 10
-1529.5336502952
 20
-505.2844128148
 30
0.0
 10
-1528.3943303947
 20
-509.2815339635
 30
0.0
 10
-1527.4287304361
 20
-513.2074664053
 30
0.0
 10
-1526.6284716654
 20
-517.0453806438
 30
0.0
 10
-1525.8576085189
 20
-520.756131667
 30
0.0
 10
-1525.1390728481
 20
-524.3367385697
 30
0.0
 10
-1524.2535112746
 20
-528.8466924292
 30
0.0
 10
-1523.2357552494
 20
-534.2527877848
 30
0.0
 10
-1522.1136586111
 20
-540.538631257
 30
0.0
 10
-1521.0882226166
 20
-546.621386552
 30
0.0
 10
-1519.8523683358
 20
-554.3942316384
 30
0.0
 10
-1518.4934816026
 20
-563.7741607517
 30
0.0
 10
-1517.1081900826
 20
-574.7251903975
 30
0.0
 10
-1515.9506103216
 20
-585.3762568329
 30
0.0
 10
-1514.9906231204
 20
-595.8898660213
 30
0.0
 10
-1513.9356644154
 20
-610.0960529554
 30
0.0
 10
-1513.0552575101
 20
-628.2414783419
 30
0.0
 10
-1512.8303870257
 20
-642.9015495092
 30
0.0
 10
-1512.8303870521
 20
-650.3202993202
 30
0.0
  0
SPLINE
  5
2EC
100
AcDbEntity
  8
0
100
AcDbSpline
 62
7
  6
CONTINUOUS
 70
0
 71
3
 72
94
 73
90
 74
0
 42
0.0000001
 43
0.0000001
 44
0.0000000001
 40
0.0
 40
0.0
 40
0.0
 40
0.0
 40
0.0156313576
 40
0.0312704219
 40
0.0469020809
 40
0.0625312491
 40
0.0781597299
 40
0.0937869399
 40
0.1094118643
 40
0.1250347708
 40
0.1406567802
 40
0.1562781208
 40
0.1718983738
 40
0.1875177639
 40
0.2031367834
 40
0.2109491326
 40
0.2187621171
 40
0.2265746072
 40
0.2343861881
 40
0.2382921666
 40
0.2421980665
 40
0.2461039368
 40
0.2500098463
 40
0.2519628345
 40
0.2539158292
 40
0.2558688093
 40
0.257821792
 40
0.261727756
 40
0.2656337199
 40
0.2695396837
 40
0.2734456476
 40
0.2812575753
 40
0.289069503
 40
0.2968814308
 40
0.3046933588
 40
0.312505287
 40
0.3281291437
 40
0.3437530009
 40
0.3593768585
 40
0.3750007165
 40
0.3906245746
 40
0.4062484328
 40
0.4374961493
 40
0.4687438658
 40
0.4999915823
 40
0.5312392988
 40
0.5624870152
 40
0.5937347317
 40
0.60935859
 40
0.6249824481
 40
0.6406063061
 40
0.6562301638
 40
0.6718540211
 40
0.6874778776
 40
0.6952898056
 40
0.7031017337
 40
0.7109136616
 40
0.7187255897
 40
0.7265375167
 40
0.7304434805
 40
0.7343494463
 40
0.7363024273
 40
0.7382554058
 40
0.7402083893
 40
0.7421613915
 40
0.7460673807
 40
0.7499734006
 40
0.7538795132
 40
0.7577855914
 40
0.7616917174
 40
0.7655977218
 40
0.7734091957
 40
0.7812211744
 40
0.7890338099
 40
0.7968466653
 40
0.8124668028
 40
0.8280876667
 40
0.8437097166
 40
0.8593321979
 40
0.8749558594
 40
0.8827706508
 40
0.8905854743
 40
0.9062106308
 40
0.921839023
 40
0.9374683416
 40
0.9530974986
 40
0.9687292875
 40
0.9843685786
 40
1.0
 40
1.0
 40
1.0
 40
1.0
 10
-1323.8302923058
 20
-650.3202993202
 30
0.0
 10
-1323.8338886524
 20
-640.1277455481
 30
0.0
 10
-1324.8246179279
 20
-619.7244918259
 30
0.0
 10
-1329.2399140846
 20
-589.4163848783
 30
0.0
 10
-1336.5582774824
 20
-559.6740091053
 30
0.0
 10
-1346.6967964229
 20
-530.7795709585
 30
0.0
 10
-1359.5642097941
 20
-502.995522142
 30
0.0
 10
-1375.042339935
 20
-476.5800931444
 30
0.0
 10
-1392.9840101488
 20
-451.7765686397
 30
0.0
 10
-1413.2223118897
 20
-428.8129642536
 30
0.0
 10
-1435.5797001409
 20
-407.9090697584
 30
0.0
 10
-1459.8637881749
 20
-389.2806498543
 30
0.0
 10
-1485.840523187
 20
-373.0989949644
 30
0.0
 10
-1513.2633504729
 20
-359.5175638848
 30
0.0
 10
-1537.1140541341
 20
-350.4749904228
 30
0.0
 10
-1556.6464275316
 20
-344.659581122
 30
0.0
 10
-1571.4952210309
 20
-341.0162463585
 30
0.0
 10
-1586.5031806714
 20
-338.1025397949
 30
0.0
 10
-1599.1139723705
 20
-336.2901519032
 30
0.0
 10
-1609.2453114751
 20
-335.2149110649
 30
0.0
 10
-1616.8615840614
 20
-334.5948054524
 30
0.0
 10
-1624.4906494713
 20
-334.1624241229
 30
0.0
 10
-1630.8552113102
 20
-333.9548370702
 30
0.0
 10
-1635.9487430931
 20
-333.8909184421
 30
0.0
 10
-1639.7691559784
 20
-333.8846751899
 30
0.0
 10
-1643.5895291214
 20
-333.8890235155
 30
0.0
 10
-1648.6833622655
 20
-333.8862548929
 30
0.0
 10
-1655.0506507297
 20
-333.8865787079
 30
0.0
 10
-1662.6913980967
 20
-333.8855557078
 30
0.0
 10
-1670.3321447152
 20
-333.8839850156
 30
0.0
 10
-1680.51980722
 20
-333.8831087111
 30
0.0
 10
-1693.2543851128
 20
-333.880591432
 30
0.0
 10
-1708.5358788777
 20
-333.8786402146
 30
0.0
 10
-1723.8173728552
 20
-333.8766437012
 30
0.0
 10
-1739.0988670945
 20
-333.8744684802
 30
0.0
 10
-1759.4741933205
 20
-333.8718743082
 30
0.0
 10
-1784.943351836
 20
-333.8694235478
 30
0.0
 10
-1815.5063427677
 20
-333.866653466
 30
0.0
 10
-1846.069334553
 20
-333.8643622805
 30
0.0
 10
-1876.6323270003
 20
-333.8629529409
 30
0.0
 10
-1907.1953198688
 20
-333.8622699009
 30
0.0
 10
-1947.9459773221
 20
-333.8618087175
 30
0.0
 10
-1998.8842992036
 20
-333.8621450935
 30
0.0
 10
-2060.0102854648
 20
-333.8629426546
 30
0.0
 10
-2121.1362717287
 20
-333.8634492435
 30
0.0
 10
-2182.2622579886
 20
-333.8629676901
 30
0.0
 10
-2243.3882442451
 20
-333.8621451367
 30
0.0
 10
-2294.3265661249
 20
-333.8618171894
 30
0.0
 10
-2335.0772235856
 20
-333.8622398431
 30
0.0
 10
-2365.6402164963
 20
-333.8629743448
 30
0.0
 10
-2396.2032090516
 20
-333.8642596744
 30
0.0
 10
-2426.7662009633
 20
-333.866396286
 30
0.0
 10
-2457.3291918382
 20
-333.8690867696
 30
0.0
 10
-2482.7983501623
 20
-333.8718894529
 30
0.0
 10
-2503.1736762248
 20
-333.874540227
 30
0.0
 10
-2518.455170511
 20
-333.8767099101
 30
0.0
 10
-2533.7366647645
 20
-333.8786400225
 30
0.0
 10
-2549.0181584197
 20
-333.8804574578
 30
0.0
 10
-2561.7527360324
 20
-333.8827982809
 30
0.0
 10
-2571.9403993566
 20
-333.8847282081
 30
0.0
 10
-2578.3076888667
 20
-333.8839501355
 30
0.0
 10
-2583.4015190387
 20
-333.8850720258
 30
0.0
 10
-2587.2218881311
 20
-333.8887835818
 30
0.0
 10
-2591.0422771964
 20
-333.8898163583
 30
0.0
 10
-2596.1361232724
 20
-333.8769920741
 30
0.0
 10
-2602.5034659635
 20
-333.8548949745
 30
0.0
 10
-2610.1444209884
 20
-333.9254446514
 30
0.0
 10
-2617.782539048
 20
-334.1598871807
 30
0.0
 10
-2625.4122586452
 20
-334.5907300621
 30
0.0
 10
-2633.0285906792
 20
-335.2133405937
 30
0.0
 10
-2643.1602792574
 20
-336.2860652731
 30
0.0
 10
-2655.7707349796
 20
-338.0983600978
 30
0.0
 10
-2670.7782626751
 20
-341.0108800996
 30
0.0
 10
-2685.6269764481
 20
-344.653570416
 30
0.0
 10
-2705.1607063457
 20
-350.4673322871
 30
0.0
 10
-2729.0136523172
 20
-359.5097589493
 30
0.0
 10
-2756.440394974
 20
-373.0894623555
 30
0.0
 10
-2782.4208172442
 20
-389.2714392814
 30
0.0
 10
-2806.7061247575
 20
-407.901220366
 30
0.0
 10
-2825.3449233333
 20
-425.3235049896
 30
0.0
 10
-2839.1878675731
 20
-440.2885399519
 30
0.0
 10
-2852.2956143671
 20
-455.9027724932
 30
0.0
 10
-2867.253008429
 20
-476.5769501283
 30
0.0
 10
-2882.7307474106
 20
-502.9931163505
 30
0.0
 10
-2895.5995663728
 20
-530.7782170458
 30
0.0
 10
-2905.7387903675
 20
-559.6730453387
 30
0.0
 10
-2913.0561917216
 20
-589.4159285314
 30
0.0
 10
-2917.471244039
 20
-619.7243001248
 30
0.0
 10
-2918.4624502165
 20
-640.1277115009
 30
0.0
 10
-2918.4662602574
 20
-650.3203068063
 30
0.0
  0
SPLINE
  5
2ED
100
AcDbEntity
  8
0
100
AcDbSpline
 62
7
  6
CONTINUOUS
 70
0
 71
3
 72
19
 73
15
 74
0
 42
0.0000001
 43
0.0000001
 44
0.0000000001
 40
0.0
 40
0.0
 40
0.0
 40
0.0
 40
0.1830038291
 40
0.359606245
 40
0.5230731421
 40
0.66790212
 40
0.7318190264
 40
0.7893866413
 40
0.8402888047
 40
0.8843154439
 40
0.9215056347
 40
0.9523041924
 40
0.9777572418
 40
1.0
 40
1.0
 40
1.0
 40
1.0
 10
-2121.1484757306
 20
-356.7996771894
 30
0.0
 10
-2122.8388765882
 20
-356.799677281
 30
0.0
 10
-2126.1610559583
 20
-356.7231981228
 30
0.0
 10
-2130.9827386317
 20
-356.3840667155
 30
0.0
 10
-2135.4299165714
 20
-355.8331773759
 30
0.0
 10
-2138.8119819531
 20
-355.1948788488
 30
0.0
 10
-2141.1944404774
 20
-354.5788299893
 30
0.0
 10
-2142.7136542511
 20
-354.0988428098
 30
0.0
 10
-2144.0274837584
 20
-353.5874048138
 30
0.0
 10
-2145.1247112049
 20
-353.0487232754
 30
0.0
 10
-2145.9970151238
 20
-352.4863926555
 30
0.0
 10
-2146.6401406598
 20
-351.9025967177
 30
0.0
 10
-2147.0488914362
 20
-351.2909045995
 30
0.0
 10
-2147.1479834194
 20
-350.8472739684
 30
0.0
 10
-2147.1479948758
 20
-350.641818281
 30
0.0
  0
SPLINE
  5
2EE
100
AcDbEntity
  8
0
100
AcDbSpline
 62
7
  6
CONTINUOUS
 70
0
 71
3
 72
19
 73
15
 74
0
 42
0.0000001
 43
0.0000001
 44
0.0000000001
 40
0.0
 40
0.0
 40
0.0
 40
0.0
 40
0.0222415725
 40
0.0476945943
 40
0.0784900112
 40
0.1156769877
 40
0.1597036934
 40
0.2106032019
 40
0.2681696647
 40
0.3320888386
 40
0.4769191262
 40
0.640392651
 40
0.8170002365
 40
1.0
 40
1.0
 40
1.0
 40
1.0
 10
-2095.1488571037
 20
-350.6417900644
 30
0.0
 10
-2095.1488456097
 20
-350.8472356269
 30
0.0
 10
-2095.247897905
 20
-351.2908788445
 30
0.0
 10
-2095.6567247487
 20
-351.9024759903
 30
0.0
 10
-2096.2997186146
 20
-352.486312315
 30
0.0
 10
-2097.1719738499
 20
-353.0486411972
 30
0.0
 10
-2098.26917744
 20
-353.5872524436
 30
0.0
 10
-2099.5829525189
 20
-354.0987471443
 30
0.0
 10
-2101.1021560646
 20
-354.5787476088
 30
0.0
 10
-2103.4846529372
 20
-355.1947740283
 30
0.0
 10
-2106.8668086736
 20
-355.8331710541
 30
0.0
 10
-2111.3141306672
 20
-356.3840490386
 30
0.0
 10
-2116.1359023879
 20
-356.7231929344
 30
0.0
 10
-2119.4581056205
 20
-356.7996738423
 30
0.0
 10
-2121.1484757306
 20
-356.799673934
 30
0.0
  0
SPLINE
  5
2EF
100
AcDbEntity
  8
0
100
AcDbSpline
 62
7
  6
CONTINUOUS
 70
0
 71
3
 72
9
 73
5
 74
0
 42
0.0000001
 43
0.0000001
 44
0.0000000001
 40
0.0
 40
0.0
 40
0.0
 40
0.0
 40
0.2431850889
 40
1.0
 40
1.0
 40
1.0
 40
1.0
 10
-2961.1397947637
 20
-1019.0571298891
 30
0.0
 10
-2961.1397981086
 20
-1019.2211715167
 30
0.0
 10
-2961.1398521256
 20
-1019.895726144
 30
0.0
 10
-2961.1400634303
 20
-1020.5702807639
 30
0.0
 10
-2961.1403325249
 20
-1021.080793695
 30
0.0
  0
SPLINE
  5
2F0
100
AcDbEntity
  8
0
100
AcDbSpline
 62
7
  6
CONTINUOUS
 70
0
 71
3
 72
9
 73
5
 74
0
 42
0.0000001
 43
0.0000001
 44
0.0000000001
 40
0.0
 40
0.0
 40
0.0
 40
0.0
 40
0.258372152
 40
1.0
 40
1.0
 40
1.0
 40
1.0
 10
-2961.1403325249
 20
-1021.080793695
 30
0.0
 10
-2961.1404028054
 20
-1021.2141264424
 30
0.0
 10
-2961.1407053857
 20
-1021.7301756447
 30
0.0
 10
-2961.141127655
 20
-1022.2462247836
 30
0.0
 10
-2961.1415337551
 20
-1022.6289410936
 30
0.0
  0
SPLINE
  5
2F1
100
AcDbEntity
  8
0
100
AcDbSpline
 62
7
  6
CONTINUOUS
 70
0
 71
3
 72
18
 73
14
 74
0
 42
0.0000001
 43
0.0000001
 44
0.0000000001
 40
0.0
 40
0.0
 40
0.0
 40
0.0
 40
0.2291362166
 40
0.4337193933
 40
0.6099520436
 40
0.7550182309
 40
0.8661616235
 40
0.9086450424
 40
0.9427015374
 40
0.9685979587
 40
0.9866012286
 40
0.996978545
 40
1.0
 40
1.0
 40
1.0
 40
1.0
 10
-2961.1415337551
 20
-1022.6289410936
 30
0.0
 10
-2961.1417320124
 20
-1022.8157824539
 30
0.0
 10
-2961.1421490856
 20
-1023.1694510222
 30
0.0
 10
-2961.1429037904
 20
-1023.6667886904
 30
0.0
 10
-2961.1437217983
 20
-1024.0956790841
 30
0.0
 10
-2961.144613503
 20
-1024.4480812394
 30
0.0
 10
-2961.1453640459
 20
-1024.6921293379
 30
0.0
 10
-2961.1461138526
 20
-1024.8444400559
 30
0.0
 10
-2961.1464455393
 20
-1024.9294352915
 30
0.0
 10
-2961.1472323324
 20
-1024.9893289105
 30
0.0
 10
-2961.1469492047
 20
-1025.0415878514
 30
0.0
 10
-2961.148541203
 20
-1025.0538739898
 30
0.0
 10
-2961.147716183
 20
-1025.0775077121
 30
0.0
 10
-2961.1484671582
 20
-1025.0751612098
 30
0.0
  0
SPLINE
  5
2F2
100
AcDbEntity
  8
0
100
AcDbSpline
 62
7
  6
CONTINUOUS
 70
0
 71
3
 72
16
 73
12
 74
0
 42
0.0000001
 43
0.0000001
 44
0.0000000001
 40
0.0
 40
0.0
 40
0.0
 40
0.0
 40
0.0053714125
 40
0.0181714397
 40
0.0387665776
 40
0.0675210742
 40
0.1508970819
 40
0.2685679707
 40
0.4174620492
 40
0.5938509397
 40
1.0
 40
1.0
 40
1.0
 40
1.0
 10
-1271.3942070829
 20
-1015.3203005545
 30
0.0
 10
-1271.4012780989
 20
-1015.3192220069
 30
0.0
 10
-1271.4255925363
 20
-1015.3193379603
 30
0.0
 10
-1271.4770984022
 20
-1015.3175598756
 30
0.0
 10
-1271.5599108697
 20
-1015.316911036
 30
0.0
 10
-1271.7366108908
 20
-1015.3149748684
 30
0.0
 10
-1272.0426453733
 20
-1015.3132791535
 30
0.0
 10
-1272.5086241029
 20
-1015.3111289244
 30
0.0
 10
-1273.0984820878
 20
-1015.3092647328
 30
0.0
 10
-1274.0724829118
 20
-1015.3069579702
 30
0.0
 10
-1274.8482153442
 20
-1015.3058779006
 30
0.0
 10
-1275.3890602569
 20
-1015.305342089
 30
0.0
  0
LINE
  5
2F3
100
AcDbEntity
  8
0
100
AcDbLine
 62
7
  6
CONTINUOUS
 10
-1275.3890602569
 20
-1015.305342089
 11
-1276.6137515634
 21
-1015.3045045873
  0
LINE
  5
2F4
100
AcDbEntity
  8
0
100
AcDbLine
 62
7
  6
CONTINUOUS
 10
-1276.6137515634
 20
-1015.3045045873
 11
-1277.4093576135
 21
-1015.304331233
  0
SPLINE
  5
2F5
100
AcDbEntity
  8
0
100
AcDbSpline
 62
7
  6
CONTINUOUS
 70
0
 71
3
 72
9
 73
5
 74
0
 42
0.0000001
 43
0.0000001
 44
0.0000000001
 40
0.0
 40
0.0
 40
0.0
 40
0.0
 40
0.2441686493
 40
1.0
 40
1.0
 40
1.0
 40
1.0
 10
-1281.157051646
 20
-1019.0563741355
 30
0.0
 10
-1281.1570481922
 20
-1019.2211979684
 30
0.0
 10
-1281.1569920749
 20
-1019.8962388992
 30
0.0
 10
-1281.1567732859
 20
-1020.571279822
 30
0.0
 10
-1281.1564953837
 20
-1021.0814968466
 30
0.0
  0
SPLINE
  5
2F6
100
AcDbEntity
  8
0
100
AcDbSpline
 62
7
  6
CONTINUOUS
 70
0
 71
3
 72
9
 73
5
 74
0
 42
0.0000001
 43
0.0000001
 44
0.0000000001
 40
0.0
 40
0.0
 40
0.0
 40
0.0
 40
0.2592287374
 40
1.0
 40
1.0
 40
1.0
 40
1.0
 10
-1281.1564953837
 20
-1021.0814968466
 30
0.0
 10
-1281.1564224247
 20
-1021.2154464431
 30
0.0
 10
-1281.1561091875
 20
-1021.7321699864
 30
0.0
 10
-1281.1556716306
 20
-1022.2488934613
 30
0.0
 10
-1281.1552513922
 20
-1022.6316672528
 30
0.0
  0
SPLINE
  5
2F7
100
AcDbEntity
  8
0
100
AcDbSpline
 62
7
  6
CONTINUOUS
 70
0
 71
3
 72
14
 73
10
 74
0
 42
0.0000001
 43
0.0000001
 44
0.0000000001
 40
0.0
 40
0.0
 40
0.0
 40
0.0
 40
0.4279632861
 40
0.6018517611
 40
0.7455109865
 40
0.8566144666
 40
0.9347355504
 40
0.9818285967
 40
1.0
 40
1.0
 40
1.0
 40
1.0
 10
-1281.1552513922
 20
-1022.6316672528
 30
0.0
 10
-1281.1548688298
 20
-1022.9801238666
 30
0.0
 10
-1281.1542518823
 20
-1023.4701658487
 30
0.0
 10
-1281.1529929654
 20
-1024.0771715109
 30
0.0
 10
-1281.1522479147
 20
-1024.4261959923
 30
0.0
 10
-1281.1510128361
 20
-1024.6972134961
 30
0.0
 10
-1281.1508736582
 20
-1024.8896756958
 30
0.0
 10
-1281.1486983139
 20
-1025.0063325824
 30
0.0
 10
-1281.1495167105
 20
-1025.0595668397
 30
0.0
 10
-1281.1482814924
 20
-1025.0743107316
 30
0.0
  0
SPLINE
  5
2F8
100
AcDbEntity
  8
0
100
AcDbSpline
 62
7
  6
CONTINUOUS
 70
0
 71
3
 72
9
 73
5
 74
0
 42
0.0000001
 43
0.0000001
 44
0.0000000001
 40
0.0
 40
0.0
 40
0.0
 40
0.0
 40
0.5000018178
 40
1.0
 40
1.0
 40
1.0
 40
1.0
 10
-2970.9163717378
 20
-650.3218820431
 30
0.0
 10
-2970.9171050076
 20
-589.4880637137
 30
0.0
 10
-2970.9063977871
 20
-467.8208695895
 30
0.0
 10
-2970.905123368
 20
-346.1536752548
 30
0.0
 10
-2970.9023503072
 20
-285.3202993204
 30
0.0
  0
SPLINE
  5
2F9
100
AcDbEntity
  8
0
100
AcDbSpline
 62
7
  6
CONTINUOUS
 70
0
 71
3
 72
63
 73
59
 74
0
 42
0.0000001
 43
0.0000001
 44
0.0000000001
 40
0.0
 40
0.0
 40
0.0
 40
0.0
 40
0.1350474556
 40
0.2025645991
 40
0.2700791249
 40
0.3375896401
 40
0.3713452074
 40
0.4057040073
 40
0.4417338948
 40
0.4788592212
 40
0.5164439626
 40
0.5538524828
 40
0.5904481816
 40
0.6082428261
 40
0.6255959288
 40
0.6424279323
 40
0.6586593643
 40
0.6742107823
 40
0.6890027045
 40
0.7029555926
 40
0.7095925767
 40
0.7159899901
 40
0.7221379041
 40
0.7280263789
 40
0.7308702426
 40
0.7336440277
 40
0.7363341393
 40
0.7389410293
 40
0.7439221841
 40
0.7486255091
 40
0.7530875154
 40
0.7573448572
 40
0.7653860888
 40
0.7730478445
 40
0.7806222391
 40
0.7884012812
 40
0.7966770191
 40
0.8010959039
 40
0.8057489305
 40
0.8106726108
 40
0.8132478382
 40
0.815905145
 40
0.8172649277
 40
0.8186509618
 40
0.8200742088
 40
0.8215391616
 40
0.8245861244
 40
0.8277847936
 40
0.8346065963
 40
0.8419462979
 40
0.84974446
 40
0.8579429388
 40
0.875306245
 40
0.8935661588
 40
0.9122543451
 40
0.9309006197
 40
0.966235407
 40
1.0
 40
1.0
 40
1.0
 40
1.0
 10
-2121.1491503031
 20
-496.9105143767
 30
0.0
 10
-2150.8274080724
 20
-496.9104968193
 30
0.0
 10
-2195.3433622074
 20
-496.8226410209
 30
0.0
 10
-2254.6959714234
 20
-496.5956041382
 30
0.0
 10
-2299.2065203813
 20
-496.3910835685
 30
0.0
 10
-2336.2975507998
 20
-496.2018624827
 30
0.0
 10
-2366.102278453
 20
-496.042406089
 30
0.0
 10
-2388.9888514877
 20
-495.9167455795
 30
0.0
 10
-2412.6159420054
 20
-495.7842599199
 30
0.0
 10
-2436.9519462681
 20
-495.6454184986
 30
0.0
 10
-2461.5909052641
 20
-495.5029318801
 30
0.0
 10
-2486.1134613863
 20
-495.3589008172
 30
0.0
 10
-2506.286982846
 20
-495.2396634519
 30
0.0
 10
-2522.0531649893
 20
-495.1458415214
 30
0.0
 10
-2533.4761178207
 20
-495.0773544739
 30
0.0
 10
-2544.5555410058
 20
-495.0106623628
 30
0.0
 10
-2555.2390310578
 20
-494.9465219932
 30
0.0
 10
-2565.4741987546
 20
-494.8852672151
 30
0.0
 10
-2575.2086316449
 20
-494.825904407
 30
0.0
 10
-2582.9840544988
 20
-494.7790346904
 30
0.0
 10
-2588.9147154536
 20
-494.7431183937
 30
0.0
 10
-2593.1301792588
 20
-494.7173176676
 30
0.0
 10
-2597.1811291218
 20
-494.6927738942
 30
0.0
 10
-2600.4512377749
 20
-494.6732890832
 30
0.0
 10
-2602.9796817619
 20
-494.657443883
 30
0.0
 10
-2604.8056768388
 20
-494.6426884262
 30
0.0
 10
-2606.5784042207
 20
-494.7237097531
 30
0.0
 10
-2608.8280585323
 20
-494.9328429735
 30
0.0
 10
-2611.4980040189
 20
-495.3688139401
 30
0.0
 10
-2614.5136233272
 20
-496.1392109809
 30
0.0
 10
-2617.3044936762
 20
-497.1047873649
 30
0.0
 10
-2620.6816057365
 20
-498.582793388
 30
0.0
 10
-2624.4939601917
 20
-500.7869552472
 30
0.0
 10
-2628.5246545077
 20
-503.9629138534
 30
0.0
 10
-2632.0376805169
 20
-507.6242647969
 30
0.0
 10
-2635.0840927037
 20
-511.8504709916
 30
0.0
 10
-2637.1610579403
 20
-515.8630360422
 30
0.0
 10
-2638.5101602981
 20
-519.4324018418
 30
0.0
 10
-2639.3565897523
 20
-522.3933058761
 30
0.0
 10
-2639.8625576385
 20
-525.0193918186
 30
0.0
 10
-2640.1362706394
 20
-527.2352139561
 30
0.0
 10
-2640.2415329787
 20
-528.6807469107
 30
0.0
 10
-2640.2882438278
 20
-529.8673305499
 30
0.0
 10
-2640.2973743117
 20
-530.7836093777
 30
0.0
 10
-2640.2871584507
 20
-531.7228805513
 30
0.0
 10
-2640.2700276223
 20
-533.0270853864
 30
0.0
 10
-2640.2473059735
 20
-534.7214262456
 30
0.0
 10
-2640.2081838745
 20
-537.5928811005
 30
0.0
 10
-2640.1481493295
 20
-541.4075129758
 30
0.0
 10
-2640.0677406072
 20
-546.2327379007
 30
0.0
 10
-2639.9713184494
 20
-551.3602687513
 30
0.0
 10
-2639.8252563783
 20
-558.6900527973
 30
0.0
 10
-2639.6195225797
 20
-568.3181896738
 30
0.0
 10
-2639.3568377758
 20
-580.2508637355
 30
0.0
 10
-2639.1007697483
 20
-592.4657021011
 30
0.0
 10
-2638.8062142919
 20
-608.4329192121
 30
0.0
 10
-2638.5553408468
 20
-627.7146467853
 30
0.0
 10
-2638.4924306893
 20
-642.9001351318
 30
0.0
 10
-2638.4924306931
 20
-650.3202993188
 30
0.0
  0
SPLINE
  5
2FA
100
AcDbEntity
  8
0
100
AcDbSpline
 62
7
  6
CONTINUOUS
 70
0
 71
3
 72
63
 73
59
 74
0
 42
0.0000001
 43
0.0000001
 44
0.0000000001
 40
0.0
 40
0.0
 40
0.0
 40
0.0
 40
0.0337645904
 40
0.0690993736
 40
0.0877456456
 40
0.1064338292
 40
0.1246937406
 40
0.1420570452
 40
0.1502555235
 40
0.1580536854
 40
0.1653933871
 40
0.1722151904
 40
0.17541386
 40
0.1784608234
 40
0.1799257765
 40
0.1813490238
 40
0.1827350582
 40
0.1840948414
 40
0.1867521491
 40
0.1893273776
 40
0.1942510605
 40
0.1989040901
 40
0.2033229784
 40
0.2115987242
 40
0.2193777751
 40
0.2269521789
 40
0.2346139438
 40
0.2426551839
 40
0.2469125296
 40
0.2513745394
 40
0.2560778674
 40
0.2610590249
 40
0.2636659161
 40
0.2663560287
 40
0.2691298147
 40
0.2719736792
 40
0.2778621555
 40
0.2840100707
 40
0.2904074852
 40
0.2970444702
 40
0.3109973596
 40
0.3257892824
 40
0.3413407005
 40
0.3575721319
 40
0.3744041343
 40
0.3917572356
 40
0.4095518781
 40
0.4461475721
 40
0.4835560866
 40
0.521140822
 40
0.5582661426
 40
0.5942960249
 40
0.6286548207
 40
0.6624103845
 40
0.7299208932
 40
0.7974354134
 40
0.8649525521
 40
1.0
 40
1.0
 40
1.0
 40
1.0
 10
-2638.492470889
 20
-650.3202993188
 30
0.0
 10
-2638.4924708227
 20
-657.7404635203
 30
0.0
 10
-2638.5553807676
 20
-672.9259516101
 30
0.0
 10
-2638.8062543841
 20
-692.2076786524
 30
0.0
 10
-2639.1008097676
 20
-708.1748949508
 30
0.0
 10
-2639.356877611
 20
-720.3897325782
 30
0.0
 10
-2639.6195620607
 20
-732.3224061112
 30
0.0
 10
-2639.8252953967
 20
-741.9505427696
 30
0.0
 10
-2639.9713569814
 20
-749.2803268946
 30
0.0
 10
-2640.0677787282
 20
-754.4078580501
 30
0.0
 10
-2640.1481869854
 20
-759.2330834776
 30
0.0
 10
-2640.2082210845
 20
-763.0477159062
 30
0.0
 10
-2640.2473427934
 20
-765.9191713193
 30
0.0
 10
-2640.2700641874
 20
-767.6135125917
 30
0.0
 10
-2640.2871948034
 20
-768.9177177902
 30
0.0
 10
-2640.2974105038
 20
-769.8569892626
 30
0.0
 10
-2640.2882798613
 20
-770.773268407
 30
0.0
 10
-2640.2415688075
 20
-771.9598525104
 30
0.0
 10
-2640.1363062133
 20
-773.4053860971
 30
0.0
 10
-2639.8625928065
 20
-775.621209378
 30
0.0
 10
-2639.3566244287
 20
-778.247296936
 30
0.0
 10
-2638.5101942543
 20
-781.2082030887
 30
0.0
 10
-2637.1610905822
 20
-784.7775720948
 30
0.0
 10
-2635.0841230796
 20
-788.7901413804
 30
0.0
 10
-2632.0377072624
 20
-793.0163525186
 30
0.0
 10
-2628.5246767507
 20
-796.6777080069
 30
0.0
 10
-2624.4939773658
 20
-799.853670411
 30
0.0
 10
-2620.6816184511
 20
-802.0578347276
 30
0.0
 10
-2617.3045029063
 20
-803.5358422397
 30
0.0
 10
-2614.5136301606
 20
-804.5014194845
 30
0.0
 10
-2611.4980086572
 20
-805.2718171931
 30
0.0
 10
-2608.8280614854
 20
-805.7077885993
 30
0.0
 10
-2606.5784059643
 20
-805.9169221092
 30
0.0
 10
-2604.8056777917
 20
-805.9979436337
 30
0.0
 10
-2602.9796819823
 20
-805.9831883634
 30
0.0
 10
-2600.4512371027
 20
-805.9673434138
 30
0.0
 10
-2597.181127408
 20
-805.947858903
 30
0.0
 10
-2593.1301763795
 20
-805.9233154698
 30
0.0
 10
-2588.9147115194
 20
-805.897515065
 30
0.0
 10
-2582.9840493709
 20
-805.8615991774
 30
0.0
 10
-2575.2086252792
 20
-805.8147299145
 30
0.0
 10
-2565.4741911932
 20
-805.7553675511
 30
0.0
 10
-2555.2390226669
 20
-805.6941131232
 30
0.0
 10
-2544.5555321221
 20
-805.6299730088
 30
0.0
 10
-2533.4761087503
 20
-805.5632810592
 30
0.0
 10
-2522.0531560058
 20
-805.4947940827
 30
0.0
 10
-2506.286974427
 20
-805.4009721338
 30
0.0
 10
-2486.1134540954
 20
-805.2817345459
 30
0.0
 10
-2461.5908996616
 20
-805.1377029787
 30
0.0
 10
-2436.9519425818
 20
-804.9952156991
 30
0.0
 10
-2412.615940158
 20
-804.8563735465
 30
0.0
 10
-2388.9888511042
 20
-804.7238871708
 30
0.0
 10
-2366.102279082
 20
-804.5982260125
 30
0.0
 10
-2336.2975521906
 20
-804.4387689545
 30
0.0
 10
-2299.2065223042
 20
-804.2495474758
 30
0.0
 10
-2254.6959735532
 20
-804.0450270819
 30
0.0
 10
-2195.3433636284
 20
-803.8179909385
 30
0.0
 10
-2150.8274087188
 20
-803.7301356596
 30
0.0
 10
-2121.149150303
 20
-803.7301181022
 30
0.0
  0
SPLINE
  5
2FB
100
AcDbEntity
  8
0
100
AcDbSpline
 62
7
  6
CONTINUOUS
 70
0
 71
3
 72
64
 73
60
 74
0
 42
0.0000001
 43
0.0000001
 44
0.0000000001
 40
0.0
 40
0.0
 40
0.0
 40
0.0
 40
0.135047092
 40
0.2025648164
 40
0.2700788266
 40
0.3375896249
 40
0.3713451924
 40
0.4057039887
 40
0.4417338944
 40
0.4788592728
 40
0.5164440561
 40
0.5538522453
 40
0.5904482395
 40
0.6082428231
 40
0.625595853
 40
0.6424278529
 40
0.6586593062
 40
0.6742107247
 40
0.6890026453
 40
0.6960889319
 40
0.7029555482
 40
0.7095925196
 40
0.7159899307
 40
0.7221378544
 40
0.7280263344
 40
0.7308701941
 40
0.7336439818
 40
0.7363340949
 40
0.7389409873
 40
0.7439221457
 40
0.7486254727
 40
0.7530874859
 40
0.757344828
 40
0.7653860695
 40
0.7730478331
 40
0.7806222394
 40
0.7884012895
 40
0.7966770351
 40
0.8010959235
 40
0.8057489531
 40
0.8106726363
 40
0.8132478611
 40
0.8159051725
 40
0.8172649533
 40
0.8186509879
 40
0.8200742343
 40
0.8215391879
 40
0.8245861522
 40
0.8277848197
 40
0.8346066244
 40
0.8419463198
 40
0.8497444939
 40
0.8579430009
 40
0.8753061605
 40
0.893566422
 40
0.9122538482
 40
0.9309014019
 40
0.9662354101
 40
1.0
 40
1.0
 40
1.0
 40
1.0
 10
-2121.149150303
 20
-803.7301185101
 30
0.0
 10
-2091.4709684117
 20
-803.7301009527
 30
0.0
 10
-2046.9549606259
 20
-803.8180493339
 30
0.0
 10
-1987.6024086204
 20
-804.0449978192
 30
0.0
 10
-1943.0917771468
 20
-804.2495432076
 30
0.0
 10
-1906.0007927201
 20
-804.4387564134
 30
0.0
 10
-1876.1959995899
 20
-804.598218076
 30
0.0
 10
-1853.3094201958
 20
-804.7238779991
 30
0.0
 10
-1829.6823118898
 20
-804.8563719838
 30
0.0
 10
-1805.3462796315
 20
-804.9952023043
 30
0.0
 10
-1780.7073697828
 20
-805.1377535872
 30
0.0
 10
-1756.1848078123
 20
-805.2815941013
 30
0.0
 10
-1736.0113063088
 20
-805.4010856279
 30
0.0
 10
-1720.2450866293
 20
-805.4949295921
 30
0.0
 10
-1708.8221610014
 20
-805.5631777686
 30
0.0
 10
-1697.7427470988
 20
-805.6296483878
 30
0.0
 10
-1687.0592528287
 20
-805.6940003683
 30
0.0
 10
-1676.8240823869
 20
-805.7557434806
 30
0.0
 10
-1668.59863167
 20
-805.8051654784
 30
0.0
 10
-1662.281737937
 20
-805.8437944144
 30
0.0
 10
-1657.7569529314
 20
-805.870991316
 30
0.0
 10
-1653.3835572408
 20
-805.897538456
 30
0.0
 10
-1649.1680939719
 20
-805.923338618
 30
0.0
 10
-1645.1171406059
 20
-805.9478539972
 30
0.0
 10
-1641.8470291836
 20
-805.9673524787
 30
0.0
 10
-1639.3185839491
 20
-805.9831883333
 30
0.0
 10
-1637.4925886189
 20
-805.9979442179
 30
0.0
 10
-1635.7198595763
 20
-805.9169235107
 30
0.0
 10
-1633.4702031857
 20
-805.707790444
 30
0.0
 10
-1630.8002570196
 20
-805.2718123125
 30
0.0
 10
-1627.7846316642
 20
-804.501425886
 30
0.0
 10
-1624.9937616567
 20
-803.5358404694
 30
0.0
 10
-1621.6166437178
 20
-802.0578380568
 30
0.0
 10
-1617.804285372
 20
-799.8536723513
 30
0.0
 10
-1613.7735888758
 20
-796.6777058215
 30
0.0
 10
-1610.2605515518
 20
-793.0163563887
 30
0.0
 10
-1607.214139595
 20
-788.790140694
 30
0.0
 10
-1605.1371748942
 20
-784.7775713643
 30
0.0
 10
-1603.7880623784
 20
-781.2082042682
 30
0.0
 10
-1602.9416476925
 20
-778.24729583
 30
0.0
 10
-1602.4356335162
 20
-775.6212136803
 30
0.0
 10
-1602.1620122559
 20
-773.4053812437
 30
0.0
 10
-1602.0566311293
 20
-771.9598562003
 30
0.0
 10
-1602.010008912
 20
-770.773267483
 30
0.0
 10
-1602.0008898888
 20
-769.8569897739
 30
0.0
 10
-1602.0110473637
 20
-768.9177176486
 30
0.0
 10
-1602.0282186798
 20
-767.6135127557
 30
0.0
 10
-1602.0509167188
 20
-765.9191712666
 30
0.0
 10
-1602.0900449705
 20
-763.0477157154
 30
0.0
 10
-1602.1500629765
 20
-759.2330843921
 30
0.0
 10
-1602.2304958692
 20
-754.4078574607
 30
0.0
 10
-1602.3269118333
 20
-749.2803183799
 30
0.0
 10
-1602.4727359398
 20
-741.9505519501
 30
0.0
 10
-1602.6785597751
 20
-732.3223650861
 30
0.0
 10
-1602.9417014889
 20
-720.3898222534
 30
0.0
 10
-1603.197235495
 20
-708.1747803199
 30
0.0
 10
-1603.4916930098
 20
-692.2076173831
 30
0.0
 10
-1603.7431019897
 20
-672.9257843114
 30
0.0
 10
-1603.8057917631
 20
-657.7404638344
 30
0.0
 10
-1603.8057916967
 20
-650.3202993202
 30
0.0
  0
SPLINE
  5
2FC
100
AcDbEntity
  8
0
100
AcDbSpline
 62
7
  6
CONTINUOUS
 70
0
 71
3
 72
64
 73
60
 74
0
 42
0.0000001
 43
0.0000001
 44
0.0000000001
 40
0.0
 40
0.0
 40
0.0
 40
0.0
 40
0.0337645925
 40
0.0690986048
 40
0.0877461612
 40
0.1064335902
 40
0.124693854
 40
0.1420570153
 40
0.1502555228
 40
0.1580536971
 40
0.1653933924
 40
0.1722151965
 40
0.1754138636
 40
0.1784608273
 40
0.1799257806
 40
0.1813490267
 40
0.1827350609
 40
0.1840948413
 40
0.1867521517
 40
0.1893273754
 40
0.1942510561
 40
0.1989040825
 40
0.2033229674
 40
0.2115987051
 40
0.2193777462
 40
0.2269521432
 40
0.2346138975
 40
0.2426551304
 40
0.2469124686
 40
0.2513744782
 40
0.2560778021
 40
0.2610589578
 40
0.263665849
 40
0.2663559611
 40
0.269129748
 40
0.2719736068
 40
0.2778620853
 40
0.2840100078
 40
0.2904074178
 40
0.2970443882
 40
0.3039110038
 40
0.3109972899
 40
0.3257892097
 40
0.3413406282
 40
0.3575720821
 40
0.3744040831
 40
0.3917571145
 40
0.4095517001
 40
0.4461476991
 40
0.483555894
 40
0.5211406834
 40
0.5582660677
 40
0.5942959787
 40
0.6286547791
 40
0.6624103502
 40
0.7299211551
 40
0.797435171
 40
0.8649529002
 40
1.0
 40
1.0
 40
1.0
 40
1.0
 10
-1603.8058323771
 20
-650.3202993202
 30
0.0
 10
-1603.8058323809
 20
-642.9001348204
 30
0.0
 10
-1603.7431423922
 20
-627.7148140836
 30
0.0
 10
-1603.4917335838
 20
-608.4329804744
 30
0.0
 10
-1603.1972759945
 20
-592.4658167154
 30
0.0
 10
-1602.9417418018
 20
-580.2507740346
 30
0.0
 10
-1602.6785997294
 20
-568.3182306668
 30
0.0
 10
-1602.4727754262
 20
-558.6900435819
 30
0.0
 10
-1602.3269508279
 20
-551.3602772318
 30
0.0
 10
-1602.2305344483
 20
-546.2327384596
 30
0.0
 10
-1602.1501010852
 20
-541.4075120366
 30
0.0
 10
-1602.0900826282
 20
-537.5928812731
 30
0.0
 10
-1602.0509539821
 20
-534.7214262868
 30
0.0
 10
-1602.0282556855
 20
-533.0270852158
 30
0.0
 10
-1602.0110841544
 20
-531.7228806905
 30
0.0
 10
-1602.0009265171
 20
-530.7836088676
 30
0.0
 10
-1602.0100453799
 20
-529.867331479
 30
0.0
 10
-1602.0566673901
 20
-528.6807432314
 30
0.0
 10
-1602.1620482588
 20
-527.2352188277
 30
0.0
 10
-1602.4356691086
 20
-525.0193875482
 30
0.0
 10
-1602.9416827875
 20
-522.3933070334
 30
0.0
 10
-1603.7880967449
 20
-519.4324007391
 30
0.0
 10
-1605.1372079308
 20
-515.8630368879
 30
0.0
 10
-1607.2141703385
 20
-511.8504718442
 30
0.0
 10
-1610.2605786213
 20
-507.6242611524
 30
0.0
 10
-1613.7736113885
 20
-503.9629163191
 30
0.0
 10
-1617.8043027543
 20
-500.7869536329
 30
0.0
 10
-1621.6166565865
 20
-498.5827904144
 30
0.0
 10
-1624.9937709984
 20
-497.1047895086
 30
0.0
 10
-1627.7846385802
 20
-496.1392049632
 30
0.0
 10
-1630.8002617136
 20
-495.3688192124
 30
0.0
 10
-1633.4702061739
 20
-494.9328415258
 30
0.0
 10
-1635.7198613401
 20
-494.7237087521
 30
0.0
 10
-1637.4925895824
 20
-494.6426882448
 30
0.0
 10
-1639.318584171
 20
-494.6574443181
 30
0.0
 10
-1641.847028502
 20
-494.6732804264
 30
0.0
 10
-1645.1171388698
 20
-494.6927792117
 30
0.0
 10
-1649.1680910558
 20
-494.7172949351
 30
0.0
 10
-1653.3835532568
 20
-494.7430954224
 30
0.0
 10
-1657.7569479885
 20
-494.7696428673
 30
0.0
 10
-1662.2817321415
 20
-494.7968400523
 30
0.0
 10
-1668.5986249405
 20
-494.8354693426
 30
0.0
 10
-1676.8240747305
 20
-494.8848917209
 30
0.0
 10
-1687.0592443322
 20
-494.9466351879
 30
0.0
 10
-1697.7427381032
 20
-495.0109874268
 30
0.0
 10
-1708.8221518165
 20
-495.0774582093
 30
0.0
 10
-1720.2450775323
 20
-495.1457064575
 30
0.0
 10
-1736.0112977832
 20
-495.2395504031
 30
0.0
 10
-1756.1848004286
 20
-495.3590417047
 30
0.0
 10
-1780.7073641084
 20
-495.5028817082
 30
0.0
 10
-1805.3462758972
 20
-495.6454323221
 30
0.0
 10
-1829.6823100176
 20
-495.7842619025
 30
0.0
 10
-1853.3094198062
 20
-495.9167551624
 30
0.0
 10
-1876.1960002258
 20
-496.0424144289
 30
0.0
 10
-1906.0007941278
 20
-496.2018754192
 30
0.0
 10
-1943.0917790936
 20
-496.3910882273
 30
0.0
 10
-1987.6024107768
 20
-496.5956337935
 30
0.0
 10
-2046.9549620646
 20
-496.822583027
 30
0.0
 10
-2091.4709690663
 20
-496.910531934
 30
0.0
 10
-2121.1491503031
 20
-496.9105143766
 30
0.0
  0
SPLINE
  5
2FD
100
AcDbEntity
  8
0
100
AcDbSpline
 62
7
  6
CONTINUOUS
 70
0
 71
3
 72
9
 73
5
 74
0
 42
0.0000001
 43
0.0000001
 44
0.0000000001
 40
0.0
 40
0.0
 40
0.0
 40
0.0
 40
0.2441785501
 40
1.0
 40
1.0
 40
1.0
 40
1.0
 10
-1277.4093565809
 20
-285.3362678828
 30
0.0
 10
-1277.2449820619
 20
-285.3362614191
 30
0.0
 10
-1276.5718086111
 20
-285.3361589473
 30
0.0
 10
-1275.8986351875
 20
-285.335761836
 30
0.0
 10
-1275.3898364974
 20
-285.3352580511
 30
0.0
  0
SPLINE
  5
2FE
100
AcDbEntity
  8
0
100
AcDbSpline
 62
7
  6
CONTINUOUS
 70
0
 71
3
 72
9
 73
5
 74
0
 42
0.0000001
 43
0.0000001
 44
0.0000000001
 40
0.0
 40
0.0
 40
0.0
 40
0.0
 40
0.2592215634
 40
1.0
 40
1.0
 40
1.0
 40
1.0
 10
-1275.3898364974
 20
-285.3352580511
 30
0.0
 10
-1275.2556568814
 20
-285.3351251937
 30
0.0
 10
-1274.7380317343
 20
-285.3345546271
 30
0.0
 10
-1274.2204068138
 20
-285.3337569487
 30
0.0
 10
-1273.8369617987
 20
-285.3329904701
 30
0.0
  0
SPLINE
  5
2FF
100
AcDbEntity
  8
0
100
AcDbSpline
 62
7
  6
CONTINUOUS
 70
0
 71
3
 72
14
 73
10
 74
0
 42
0.0000001
 43
0.0000001
 44
0.0000000001
 40
0.0
 40
0.0
 40
0.0
 40
0.0
 40
0.4279186719
 40
0.601801502
 40
0.7454634264
 40
0.856576503
 40
0.9347096204
 40
0.9818148087
 40
1.0
 40
1.0
 40
1.0
 40
1.0
 10
-1273.8369617987
 20
-285.3329904701
 30
0.0
 10
-1273.4885194622
 20
-285.3322939592
 30
0.0
 10
-1272.998483425
 20
-285.3311699766
 30
0.0
 10
-1272.3914892137
 20
-285.3288795944
 30
0.0
 10
-1272.042419664
 20
-285.3275194916
 30
0.0
 10
-1271.7714183101
 20
-285.3252795625
 30
0.0
 10
-1271.578808881
 20
-285.3250061803
 30
0.0
 10
-1271.4623192549
 20
-285.32107999
 30
0.0
 10
-1271.4088461336
 20
-285.3225315739
 30
0.0
 10
-1271.3942076156
 20
-285.3202994014
 30
0.0
  0
SPLINE
  5
300
100
AcDbEntity
  8
0
100
AcDbSpline
 62
7
  6
CONTINUOUS
 70
0
 71
3
 72
9
 73
5
 74
0
 42
0.0000001
 43
0.0000001
 44
0.0000000001
 40
0.0
 40
0.0
 40
0.0
 40
0.0
 40
0.2431819132
 40
1.0
 40
1.0
 40
1.0
 40
1.0
 10
-1281.1570516458
 20
-281.5842189767
 30
0.0
 10
-1281.1570482065
 20
-281.4200961175
 30
0.0
 10
-1281.1569924095
 20
-280.7451986443
 30
0.0
 10
-1281.1567739308
 20
-280.0703011791
 30
0.0
 10
-1281.156495659
 20
-279.5595266388
 30
0.0
  0
SPLINE
  5
301
100
AcDbEntity
  8
0
100
AcDbSpline
 62
7
  6
CONTINUOUS
 70
0
 71
3
 72
9
 73
5
 74
0
 42
0.0000001
 43
0.0000001
 44
0.0000000001
 40
0.0
 40
0.0
 40
0.0
 40
0.0
 40
0.2583705434
 40
1.0
 40
1.0
 40
1.0
 40
1.0
 10
-1281.156495659
 20
-279.5595266388
 30
0.0
 10
-1281.1564230317
 20
-279.4262175313
 30
0.0
 10
-1281.1561103581
 20
-278.9102566135
 30
0.0
 10
-1281.1556739415
 20
-278.3942957635
 30
0.0
 10
-1281.1552543344
 20
-278.0116441079
 30
0.0
  0
SPLINE
  5
302
100
AcDbEntity
  8
0
100
AcDbSpline
 62
7
  6
CONTINUOUS
 70
0
 71
3
 72
14
 73
10
 74
0
 42
0.0000001
 43
0.0000001
 44
0.0000000001
 40
0.0
 40
0.0
 40
0.0
 40
0.0
 40
0.4355739888
 40
0.6122760249
 40
0.757484318
 40
0.8684386041
 40
0.9444628965
 40
0.9875811519
 40
1.0
 40
1.0
 40
1.0
 40
1.0
 10
-1281.1552543344
 20
-278.0116441079
 30
0.0
 10
-1281.1548648852
 20
-277.6564942943
 30
0.0
 10
-1281.1542799161
 20
-277.1558935082
 30
0.0
 10
-1281.1528856517
 20
-276.5413532859
 30
0.0
 10
-1281.1523210156
 20
-276.1819869376
 30
0.0
 10
-1281.1505431698
 20
-275.9273053035
 30
0.0
 10
-1281.1514622284
 20
-275.7049423216
 30
0.0
 10
-1281.1476289692
 20
-275.6544843005
 30
0.0
 10
-1281.1497817598
 20
-275.5556108141
 30
0.0
 10
-1281.1480544384
 20
-275.5655882425
 30
0.0
  0
ENDSEC
  0
SECTION
  2
OBJECTS
  0
DICTIONARY
  5
C
100
AcDbDictionary
280
0
281
1
  3
ACAD_GROUP
350
D
  3
ACAD_MLINESTYLE
350
17
  3
ACAD_LAYOUT
350
1A
  3
ACAD_PLOTSETTINGS
350
19
  3
ACAD_PLOTSTYLENAME
350
E
  0
DICTIONARY
  5
D
102
{ACAD_REACTORS
330
C
102
}
100
AcDbDictionary
280
0
281
1
  0
ACDBDICTIONARYWDFLT
  5
E
102
{ACAD_REACTORS
330
C
102
}
100
AcDbDictionary
281
1
  3
Normal
350
F
100
AcDbDictionaryWithDefault
340
F
  0
DICTIONARY
  5
17
102
{ACAD_REACTORS
330
C
102
}
100
AcDbDictionary
280
0
281
1
  3
Standard
350
18
  0
DICTIONARY
  5
19
102
{ACAD_REACTORS
330
C
102
}
100
AcDbDictionary
281
1
  0
DICTIONARY
  5
1A
102
{ACAD_REACTORS
330
C
102
}
100
AcDbDictionary
281
1
  3
Model
350
303
  3
Layout1
350
304
  0
ACDBPLACEHOLDER
  5
F
102
{ACAD_REACTORS
330
E
102
}
  0
MLINESTYLE
  5
18
102
{ACAD_REACTORS
330
17
102
}
100
AcDbMlineStyle
  2
STANDARD
 70
0
  3

 62
256
 51
90.0
 52
90.0
 71
2
 49
0.5
 62
256
  6
BYLAYER
 49
-0.5
 62
256
  6
BYLAYER
  0
LAYOUT
  5
303
102
{ACAD_REACTORS
330
1A
102
}
100
AcDbPlotSettings
  1

  2
none_device
  4
ISO_A0_(1189.00_x_841.00_MM)
  6

 40
0.0
 41
0.0
 42
0.0
 43
0.0
 44
1189.0
 45
841.0
 46
0.0
 47
0.0
 48
0.0
 49
0.0
140
0.0
141
0.0
142
1.0
143
1.0
 70
1024
 72
1
 73
0
 74
0
  7

 75
0
147
1.0
148
0.0
149
0.0
100
AcDbLayout
  1
Model
 70
0
 71
0
 10
0.0
 20
0.0
 11
1189.0
 21
841.0
 12
0.0
 22
0.0
 32
0.0
 14
0.0
 24
0.0
 34
0.0
 15
0.0
 25
0.0
 35
0.0
146
0.0
 13
0.0
 23
0.0
 33
0.0
 16
1.0
 26
0.0
 36
0.0
 17
0.0
 27
1.0
 37
0.0
 76
0
330
202
345
0
346
0
  0
LAYOUT
  5
304
102
{ACAD_REACTORS
330
1A
102
}
100
AcDbPlotSettings
  1

  2
none_device
  4
ISO_A0_(1189.00_x_841.00_MM)
  6

 40
0.0
 41
0.0
 42
0.0
 43
0.0
 44
1189.0
 45
841.0
 46
0.0
 47
0.0
 48
0.0
 49
0.0
140
0.0
141
0.0
142
1.0
143
1.0
 70
0
 72
1
 73
0
 74
0
  7

 75
0
147
1.0
148
0.0
149
0.0
100
AcDbLayout
  1
Layout1
 70
0
 71
1
 10
0.0
 20
0.0
 11
1189.0
 21
841.0
 12
0.0
 22
0.0
 32
0.0
 14
0.0
 24
0.0
 34
0.0
 15
0.0
 25
0.0
 35
0.0
146
0.0
 13
0.0
 23
0.0
 33
0.0
 16
1.0
 26
0.0
 36
0.0
 17
0.0
 27
1.0
 37
0.0
 76
0
330
203
345
0
346
0
  0
ENDSEC
  0
EOF
