  0
SECTION
  2
HEADER
  9
$ACADVER
  1
AC1018
  9
$ACADMAINTVER
 70
     0
  9
$DWGCODEPAGE
  3
ANSI_1252
  9
$INSBASE
 10
0.0
 20
0.0
 30
0.0
  9
$EXTMIN
 10
442.0487862920873
 20
551.8474465295917
 30
0.0
  9
$EXTMAX
 10
565.0144326473461
 20
934.8472813812945
 30
0.0
  9
$LIMMIN
 10
0.0
 20
0.0
  9
$LIMMAX
 10
12.0
 20
9.0
  9
$ORTHOMODE
 70
     0
  9
$REGENMODE
 70
     1
  9
$FILLMODE
 70
     1
  9
$QTEXTMODE
 70
     0
  9
$MIRRTEXT
 70
     1
  9
$LTSCALE
 40
1.0
  9
$ATTMODE
 70
     1
  9
$TEXTSIZE
 40
0.2
  9
$TRACEWID
 40
0.05
  9
$TEXTSTYLE
  7
Standard
  9
$CLAYER
  8
0
  9
$CELTYPE
  6
ByLayer
  9
$CECOLOR
 62
   256
  9
$CELTSCALE
 40
1.0
  9
$DISPSILH
 70
     0
  9
$DIMSCALE
 40
1.0
  9
$DIMASZ
 40
0.18
  9
$DIMEXO
 40
0.0625
  9
$DIMDLI
 40
0.38
  9
$DIMRND
 40
0.0
  9
$DIMDLE
 40
0.0
  9
$DIMEXE
 40
0.18
  9
$DIMTP
 40
0.0
  9
$DIMTM
 40
0.0
  9
$DIMTXT
 40
0.18
  9
$DIMCEN
 40
0.09
  9
$DIMTSZ
 40
0.0
  9
$DIMTOL
 70
     0
  9
$DIMLIM
 70
     0
  9
$DIMTIH
 70
     1
  9
$DIMTOH
 70
     1
  9
$DIMSE1
 70
     0
  9
$DIMSE2
 70
     0
  9
$DIMTAD
 70
     0
  9
$DIMZIN
 70
     0
  9
$DIMBLK
  1

  9
$DIMASO
 70
     1
  9
$DIMSHO
 70
     1
  9
$DIMPOST
  1

  9
$DIMAPOST
  1

  9
$DIMALT
 70
     0
  9
$DIMALTD
 70
     2
  9
$DIMALTF
 40
25.4
  9
$DIMLFAC
 40
1.0
  9
$DIMTOFL
 70
     0
  9
$DIMTVP
 40
0.0
  9
$DIMTIX
 70
     0
  9
$DIMSOXD
 70
     0
  9
$DIMSAH
 70
     0
  9
$DIMBLK1
  1

  9
$DIMBLK2
  1

  9
$DIMSTYLE
  2
Standard
  9
$DIMCLRD
 70
     0
  9
$DIMCLRE
 70
     0
  9
$DIMCLRT
 70
     0
  9
$DIMTFAC
 40
1.0
  9
$DIMGAP
 40
0.09
  9
$DIMJUST
 70
     0
  9
$DIMSD1
 70
     0
  9
$DIMSD2
 70
     0
  9
$DIMTOLJ
 70
     1
  9
$DIMTZIN
 70
     0
  9
$DIMALTZ
 70
     0
  9
$DIMALTTZ
 70
     0
  9
$DIMUPT
 70
     0
  9
$DIMDEC
 70
     4
  9
$DIMTDEC
 70
     4
  9
$DIMALTU
 70
     2
  9
$DIMALTTD
 70
     2
  9
$DIMTXSTY
  7
Standard
  9
$DIMAUNIT
 70
     0
  9
$DIMADEC
 70
     0
  9
$DIMALTRND
 40
0.0
  9
$DIMAZIN
 70
     0
  9
$DIMDSEP
 70
    46
  9
$DIMATFIT
 70
     3
  9
$DIMFRAC
 70
     0
  9
$DIMLDRBLK
  1

  9
$DIMLUNIT
 70
     2
  9
$DIMLWD
 70
    -2
  9
$DIMLWE
 70
    -2
  9
$DIMTMOVE
 70
     2
  9
$LUNITS
 70
     2
  9
$LUPREC
 70
     3
  9
$SKETCHINC
 40
0.1
  9
$FILLETRAD
 40
0.5
  9
$AUNITS
 70
     0
  9
$AUPREC
 70
     0
  9
$MENU
  1
.
  9
$ELEVATION
 40
0.0
  9
$PELEVATION
 40
0.0
  9
$THICKNESS
 40
0.0
  9
$LIMCHECK
 70
     0
  9
$CHAMFERA
 40
0.5
  9
$CHAMFERB
 40
0.5
  9
$CHAMFERC
 40
1.0
  9
$CHAMFERD
 40
0.0
  9
$SKPOLY
 70
     0
  9
$TDCREATE
 40
2457541.020968298
  9
$TDUCREATE
 40
2457540.687634965
  9
$TDUPDATE
 40
2457541.020968472
  9
$TDUUPDATE
 40
2457540.687635139
  9
$TDINDWG
 40
0.0000000116
  9
$TDUSRTIMER
 40
0.0000000116
  9
$USRTIMER
 70
     1
  9
$ANGBASE
 50
0.0
  9
$ANGDIR
 70
     0
  9
$PDMODE
 70
     0
  9
$PDSIZE
 40
0.0
  9
$PLINEWID
 40
0.0
  9
$SPLFRAME
 70
     0
  9
$SPLINETYPE
 70
     6
  9
$SPLINESEGS
 70
     8
  9
$HANDSEED
  5
1AF
  9
$SURFTAB1
 70
     6
  9
$SURFTAB2
 70
     6
  9
$SURFTYPE
 70
     6
  9
$SURFU
 70
     6
  9
$SURFV
 70
     6
  9
$UCSBASE
  2

  9
$UCSNAME
  2

  9
$UCSORG
 10
0.0
 20
0.0
 30
0.0
  9
$UCSXDIR
 10
1.0
 20
0.0
 30
0.0
  9
$UCSYDIR
 10
0.0
 20
1.0
 30
0.0
  9
$UCSORTHOREF
  2

  9
$UCSORTHOVIEW
 70
     0
  9
$UCSORGTOP
 10
0.0
 20
0.0
 30
0.0
  9
$UCSORGBOTTOM
 10
0.0
 20
0.0
 30
0.0
  9
$UCSORGLEFT
 10
0.0
 20
0.0
 30
0.0
  9
$UCSORGRIGHT
 10
0.0
 20
0.0
 30
0.0
  9
$UCSORGFRONT
 10
0.0
 20
0.0
 30
0.0
  9
$UCSORGBACK
 10
0.0
 20
0.0
 30
0.0
  9
$PUCSBASE
  2

  9
$PUCSNAME
  2

  9
$PUCSORG
 10
0.0
 20
0.0
 30
0.0
  9
$PUCSXDIR
 10
1.0
 20
0.0
 30
0.0
  9
$PUCSYDIR
 10
0.0
 20
1.0
 30
0.0
  9
$PUCSORTHOREF
  2

  9
$PUCSORTHOVIEW
 70
     0
  9
$PUCSORGTOP
 10
0.0
 20
0.0
 30
0.0
  9
$PUCSORGBOTTOM
 10
0.0
 20
0.0
 30
0.0
  9
$PUCSORGLEFT
 10
0.0
 20
0.0
 30
0.0
  9
$PUCSORGRIGHT
 10
0.0
 20
0.0
 30
0.0
  9
$PUCSORGFRONT
 10
0.0
 20
0.0
 30
0.0
  9
$PUCSORGBACK
 10
0.0
 20
0.0
 30
0.0
  9
$USERI1
 70
     0
  9
$USERI2
 70
     0
  9
$USERI3
 70
     0
  9
$USERI4
 70
     0
  9
$USERI5
 70
     0
  9
$USERR1
 40
0.0
  9
$USERR2
 40
0.0
  9
$USERR3
 40
0.0
  9
$USERR4
 40
0.0
  9
$USERR5
 40
0.0
  9
$WORLDVIEW
 70
     1
  9
$SHADEDGE
 70
     3
  9
$SHADEDIF
 70
    70
  9
$TILEMODE
 70
     1
  9
$MAXACTVP
 70
    64
  9
$PINSBASE
 10
0.0
 20
0.0
 30
0.0
  9
$PLIMCHECK
 70
     0
  9
$PEXTMIN
 10
1.000000000000000E+20
 20
1.000000000000000E+20
 30
1.000000000000000E+20
  9
$PEXTMAX
 10
-1.000000000000000E+20
 20
-1.000000000000000E+20
 30
-1.000000000000000E+20
  9
$PLIMMIN
 10
0.0
 20
0.0
  9
$PLIMMAX
 10
12.0
 20
9.0
  9
$UNITMODE
 70
     0
  9
$VISRETAIN
 70
     1
  9
$PLINEGEN
 70
     0
  9
$PSLTSCALE
 70
     1
  9
$TREEDEPTH
 70
  3020
  9
$CMLSTYLE
  2
Standard
  9
$CMLJUST
 70
     0
  9
$CMLSCALE
 40
1.0
  9
$PROXYGRAPHICS
 70
     1
  9
$MEASUREMENT
 70
     0
  9
$CELWEIGHT
370
    -1
  9
$ENDCAPS
280
     0
  9
$JOINSTYLE
280
     0
  9
$LWDISPLAY
290
     0
  9
$INSUNITS
 70
     4
  9
$HYPERLINKBASE
  1

  9
$STYLESHEET
  1

  9
$XEDIT
290
     1
  9
$CEPSNTYPE
380
     0
  9
$PSTYLEMODE
290
     1
  9
$FINGERPRINTGUID
  2
{F615A7BA-DE57-4E7C-9720-9C671AA52028}
  9
$VERSIONGUID
  2
{FAEB1C32-E019-11D5-929B-00C0DF256EC4}
  9
$EXTNAMES
290
     1
  9
$PSVPSCALE
 40
0.0
  9
$OLESTARTUP
290
     0
  9
$SORTENTS
280
   127
  9
$INDEXCTL
280
     0
  9
$HIDETEXT
280
     1
  9
$XCLIPFRAME
290
     0
  9
$HALOGAP
280
     0
  9
$OBSCOLOR
 70
   257
  9
$OBSLTYPE
280
     0
  9
$INTERSECTIONDISPLAY
280
     0
  9
$INTERSECTIONCOLOR
 70
   257
  9
$DIMASSOC
280
     2
  9
$PROJECTNAME
  1

  0
ENDSEC
  0
SECTION
  2
CLASSES
  0
CLASS
  1
ACDBDICTIONARYWDFLT
  2
AcDbDictionaryWithDefault
  3
ObjectDBX Classes
 90
        0
 91
        4
280
     0
281
     0
  0
CLASS
  1
VISUALSTYLE
  2
AcDbVisualStyle
  3
ObjectDBX Classes
 90
     4095
 91
        4
280
     0
281
     0
  0
CLASS
  1
MATERIAL
  2
AcDbMaterial
  3
ObjectDBX Classes
 90
     1153
 91
        4
280
     0
281
     0
  0
CLASS
  1
SCALE
  2
AcDbScale
  3
ObjectDBX Classes
 90
     1153
 91
        4
280
     0
281
     0
  0
CLASS
  1
SUN
  2
AcDbSun
  3
SCENEOE
 90
     1153
 91
        4
280
     0
281
     0
  0
CLASS
  1
DICTIONARYVAR
  2
AcDbDictionaryVar
  3
ObjectDBX Classes
 90
        0
 91
        4
280
     0
281
     0
  0
ENDSEC
  0
SECTION
  2
TABLES
  0
TABLE
  2
VPORT
  5
8
330
0
100
AcDbSymbolTable
 70
     1
  0
VPORT
  5
29
330
8
100
AcDbSymbolTableRecord
100
AcDbViewportTableRecord
  2
*Active
 70
     0
 10
0.0
 20
0.0
 11
1.0
 21
1.0
 12
503.5316094697167
 22
743.3473639554431
 13
0.0
 23
0.0
 14
0.5
 24
0.5
 15
0.5
 25
0.5
 16
0.0
 26
0.0
 36
1.0
 17
0.0
 27
0.0
 37
0.0
 40
390.6598315487369
 41
0.3210592673045692
 42
50.0
 43
0.0
 44
0.0
 50
0.0
 51
0.0
 71
     0
 72
   100
 73
     1
 74
     3
 75
     0
 76
     0
 77
     0
 78
     0
281
     0
 65
     1
110
0.0
120
0.0
130
0.0
111
1.0
121
0.0
131
0.0
112
0.0
122
1.0
132
0.0
 79
     0
146
0.0
  0
ENDTAB
  0
TABLE
  2
LTYPE
  5
5
330
0
100
AcDbSymbolTable
 70
     1
  0
LTYPE
  5
14
330
5
100
AcDbSymbolTableRecord
100
AcDbLinetypeTableRecord
  2
ByBlock
 70
     0
  3

 72
    65
 73
     0
 40
0.0
  0
LTYPE
  5
15
330
5
100
AcDbSymbolTableRecord
100
AcDbLinetypeTableRecord
  2
ByLayer
 70
     0
  3

 72
    65
 73
     0
 40
0.0
  0
LTYPE
  5
16
330
5
100
AcDbSymbolTableRecord
100
AcDbLinetypeTableRecord
  2
Continuous
 70
     0
  3
Solid line
 72
    65
 73
     0
 40
0.0
  0
ENDTAB
  0
TABLE
  2
LAYER
  5
2
330
0
100
AcDbSymbolTable
 70
     2
  0
LAYER
  5
10
330
2
100
AcDbSymbolTableRecord
100
AcDbLayerTableRecord
  2
0
 70
     0
 62
     7
  6
Continuous
370
    -3
390
F
  0
LAYER
  5
62
330
2
100
AcDbSymbolTableRecord
100
AcDbLayerTableRecord
  2
Make2D$___$___
 70
     0
 62
    18
420
        0
  6
Continuous
370
    -3
390
F
  0
ENDTAB
  0
TABLE
  2
STYLE
  5
3
330
0
100
AcDbSymbolTable
 70
     1
  0
STYLE
  5
11
330
3
100
AcDbSymbolTableRecord
100
AcDbTextStyleTableRecord
  2
Standard
 70
     0
 40
0.0
 41
1.0
 50
0.0
 71
     0
 42
0.2
  3
txt
  4

  0
ENDTAB
  0
TABLE
  2
VIEW
  5
6
330
0
100
AcDbSymbolTable
 70
     0
  0
ENDTAB
  0
TABLE
  2
UCS
  5
7
330
0
100
AcDbSymbolTable
 70
     0
  0
ENDTAB
  0
TABLE
  2
APPID
  5
9
330
0
100
AcDbSymbolTable
 70
     1
  0
APPID
  5
12
330
9
100
AcDbSymbolTableRecord
100
AcDbRegAppTableRecord
  2
ACAD
 70
     0
  0
ENDTAB
  0
TABLE
  2
DIMSTYLE
  5
A
330
0
100
AcDbSymbolTable
 70
     1
100
AcDbDimStyleTable
  0
DIMSTYLE
105
27
330
A
100
AcDbSymbolTableRecord
100
AcDbDimStyleTableRecord
  2
Standard
 70
     0
178
     0
340
11
  0
ENDTAB
  0
TABLE
  2
BLOCK_RECORD
  5
1
330
0
100
AcDbSymbolTable
 70
     1
  0
BLOCK_RECORD
  5
1F
330
1
100
AcDbSymbolTableRecord
100
AcDbBlockTableRecord
  2
*Model_Space
340
22
  0
BLOCK_RECORD
  5
1B
330
1
100
AcDbSymbolTableRecord
100
AcDbBlockTableRecord
  2
*Paper_Space
340
1E
  0
BLOCK_RECORD
  5
23
330
1
100
AcDbSymbolTableRecord
100
AcDbBlockTableRecord
  2
*Paper_Space0
340
26
  0
ENDTAB
  0
ENDSEC
  0
SECTION
  2
BLOCKS
  0
BLOCK
  5
20
330
1F
100
AcDbEntity
  8
0
100
AcDbBlockBegin
  2
*Model_Space
 70
     0
 10
0.0
 20
0.0
 30
0.0
  3
*Model_Space
  1
*Model_Space
  0
ENDBLK
  5
21
330
1F
100
AcDbEntity
  8
0
100
AcDbBlockEnd
  0
BLOCK
  5
1C
330
1B
100
AcDbEntity
 67
     1
  8
0
100
AcDbBlockBegin
  2
*Paper_Space
 70
     0
 10
0.0
 20
0.0
 30
0.0
  3
*Paper_Space
  1
*Paper_Space
  0
ENDBLK
  5
1D
330
1B
100
AcDbEntity
 67
     1
  8
0
100
AcDbBlockEnd
  0
BLOCK
  5
24
330
23
100
AcDbEntity
  8
0
100
AcDbBlockBegin
  2
*Paper_Space0
 70
     0
 10
0.0
 20
0.0
 30
0.0
  3
*Paper_Space0
  1
*Paper_Space0
  0
ENDBLK
  5
25
330
23
100
AcDbEntity
  8
0
100
AcDbBlockEnd
  0
ENDSEC
  0
SECTION
  2
ENTITIES
  0
LINE
  5
63
330
1F
100
AcDbEntity
  8
Make2D$___$___
100
AcDbLine
 10
544.7072222820586
 20
599.193438604503
 30
0.0
 11
521.9619331943229
 21
586.5847284429283
 31
0.0
  0
LINE
  5
64
330
1F
100
AcDbEntity
  8
Make2D$___$___
100
AcDbLine
 10
519.4752990812009
 20
632.2204804315128
 30
0.0
 11
528.5189364473084
 21
634.2277794173076
 31
0.0
  0
SPLINE
  5
65
330
1F
100
AcDbEntity
  8
Make2D$___$___
100
AcDbSpline
210
0.0
220
0.0
230
1.0
 70
     8
 71
     3
 72
    23
 73
    19
 74
     0
 42
0.000000001
 43
0.0000000001
 12
1.0
 22
0.0
 32
0.0
 13
1.0
 23
0.0
 33
0.0
 40
0.0
 40
0.0
 40
0.0
 40
0.0
 40
0.1422238887751361
 40
0.2987037843373007
 40
0.6560250982396455
 40
1.076085124575124
 40
1.600743533831114
 40
1.600743533831114
 40
1.600743533831114
 40
4.874838817416407
 40
4.874838817416407
 40
8.159951932826685
 40
8.159951932826685
 40
8.159951932826685
 40
14.77941828030352
 40
14.77941828030352
 40
14.77941828030352
 40
21.08930994503428
 40
21.08930994503428
 40
21.08930994503428
 40
21.08930994503428
 10
483.5487862920879
 20
783.2064037534703
 30
0.0
 10
483.5487359831384
 20
783.2538453218689
 30
0.0
 10
483.5373714867582
 20
783.353252506246
 30
0.0
 10
483.4662690380983
 20
783.5615325042322
 30
0.0
 10
483.2917391692858
 20
783.8228374598473
 30
0.0
 10
482.9810744573469
 20
784.1272601563842
 30
0.0
 10
482.7258177434251
 20
784.3134238123512
 30
0.0
 10
482.5794878647198
 20
784.4089414853389
 30
0.0
 10
482.2025572577249
 20
784.6549110481053
 30
0.0
 10
481.7116787025814
 20
784.9016085199698
 30
0.0
 10
480.5386323059594
 20
785.3684023364542
 30
0.0
 10
479.8542889139904
 20
785.5896913652211
 30
0.0
 10
479.0893328794496
 20
785.7909646126275
 30
0.0
 10
477.5557970071493
 20
786.1944645931421
 30
0.0
 10
475.6930023417589
 20
786.5188840276971
 30
0.0
 10
473.6649793583729
 20
786.7340393354539
 30
0.0
 10
471.7293149434593
 20
786.9393962156844
 30
0.0
 10
469.6385971141995
 20
787.0461974373666
 30
0.0
 10
467.5487846850704
 20
787.0459461681678
 30
0.0
  0
SPLINE
  5
66
330
1F
100
AcDbEntity
  8
Make2D$___$___
100
AcDbSpline
210
0.0
220
0.0
230
1.0
 70
     8
 71
     3
 72
    23
 73
    19
 74
     0
 42
0.000000001
 43
0.0000000001
 12
1.0
 22
0.0
 32
0.0
 13
1.0
 23
0.0
 33
0.0
 40
0.0000000385788877
 40
0.0000000385788877
 40
0.0000000385788877
 40
0.0000000385788877
 40
6.309891703334713
 40
6.309891703334713
 40
6.309891703334713
 40
12.92935804624723
 40
12.92935804624723
 40
12.92935804624723
 40
16.21447116402209
 40
16.21447116402209
 40
19.48856644988879
 40
19.48856644988879
 40
19.48856644988879
 40
19.73513340765007
 40
20.01322485907749
 40
20.43328488526506
 40
20.7906061991075
 40
21.08930998392163
 40
21.08930998392163
 40
21.08930998392163
 40
21.08930998392163
 10
467.5487846084075
 20
787.0459461681678
 30
0.0
 10
465.4589721794607
 20
787.0461974373593
 30
0.0
 10
463.3682543498206
 20
786.9393962156678
 30
0.0
 10
461.4325899351031
 20
786.7340393354616
 30
0.0
 10
459.404566953023
 20
786.5188840278477
 30
0.0
 10
457.5417722888705
 20
786.1944645935992
 30
0.0
 10
456.0082364171618
 20
785.7909646134531
 30
0.0
 10
455.2432803819004
 20
785.5896913659635
 30
0.0
 10
454.5589369892896
 20
785.3684023370752
 30
0.0
 10
453.385890591599
 20
784.9016085203014
 30
0.0
 10
452.8950120358998
 20
784.6549110482063
 30
0.0
 10
452.5180814286403
 20
784.4089414852701
 30
0.0
 10
452.449164692061
 20
784.3639886939325
 30
0.0
 10
452.3053219720525
 20
784.2648485180298
 30
0.0
 10
452.0574488605833
 20
784.0696668227529
 30
0.0
 10
451.8061082404131
 20
783.8227089110492
 30
0.0
 10
451.6044068423355
 20
783.5218975353704
 30
0.0
 10
451.5482835686878
 20
783.3063899586103
 30
0.0
 10
451.5487830013907
 20
783.2064037531012
 30
0.0
  0
LINE
  5
67
330
1F
100
AcDbEntity
  8
Make2D$___$___
100
AcDbLine
 10
455.0307084441973
 20
725.8474465295917
 30
0.0
 11
455.0671669030627
 21
725.8474465295917
 31
0.0
  0
LINE
  5
68
330
1F
100
AcDbEntity
  8
Make2D$___$___
100
AcDbLine
 10
455.0192824133307
 20
725.8474465295917
 30
0.0
 11
455.025820459026
 21
725.8474465295917
 31
0.0
  0
LINE
  5
69
330
1F
100
AcDbEntity
  8
Make2D$___$___
100
AcDbLine
 10
454.9827975750942
 20
725.8474465295919
 30
0.0
 11
454.984369706146
 21
725.8474465295919
 31
0.0
  0
LINE
  5
6A
330
1F
100
AcDbEntity
  8
Make2D$___$___
100
AcDbLine
 10
454.9751118910015
 20
725.8474465295916
 30
0.0
 11
454.9772175898802
 21
725.8474465295917
 31
0.0
  0
LINE
  5
6B
330
1F
100
AcDbEntity
  8
Make2D$___$___
100
AcDbLine
 10
454.9691125955635
 20
725.8474465295917
 30
0.0
 11
454.9700747526803
 21
725.8474465295917
 31
0.0
  0
ARC
  5
6C
330
1F
100
AcDbEntity
  8
Make2D$___$___
100
AcDbCircle
 10
454.9691101250258
 20
725.3474435081084
 30
0.0
 40
0.5000030214893202
100
AcDbArc
 50
89.9997168989431
 51
176.9321556749574
  0
SPLINE
  5
6D
330
1F
100
AcDbEntity
  8
Make2D$___$___
100
AcDbSpline
210
0.0
220
0.0
230
1.0
 70
     8
 71
     2
 72
     6
 73
     3
 74
     0
 42
0.000000001
 43
0.0000000001
 12
1.0
 22
0.0
 32
0.0
 13
1.0
 23
0.0
 33
0.0
 40
0.0
 40
0.0
 40
0.0
 40
174.0533212849671
 40
174.0533212849671
 40
174.0533212849671
 10
454.4699630116506
 20
725.3741954041925
 30
0.0
 10
447.5178013006879
 20
595.5995665983964
 30
0.0
 10
442.0487862920873
 20
551.8474465295917
 30
0.0
  0
ARC
  5
6E
330
1F
100
AcDbEntity
  8
Make2D$___$___
100
AcDbCircle
 10
455.0217699384544
 20
726.3470889474039
 30
0.0
 40
0.4991578265045887
100
AcDbArc
 50
176.8925427085397
 51
269.0927364880828
  0
ARC
  5
6F
330
1F
100
AcDbEntity
  8
Make2D$___$___
100
AcDbCircle
 10
455.0226737784206
 20
726.3474443579668
 30
0.0
 40
0.500002171628186
100
AcDbArc
 50
89.9997964443553
 51
176.9385812158297
  0
LINE
  5
70
330
1F
100
AcDbEntity
  8
Make2D$___$___
100
AcDbLine
 10
455.0239163349213
 20
726.8474465295918
 30
0.0
 11
455.0236728420577
 21
726.8474465295918
 31
0.0
  0
LINE
  5
71
330
1F
100
AcDbEntity
  8
Make2D$___$___
100
AcDbLine
 10
455.0292244120438
 20
726.8474465295917
 30
0.0
 11
455.0249255559289
 21
726.8474465295917
 31
0.0
  0
LINE
  5
72
330
1F
100
AcDbEntity
  8
Make2D$___$___
100
AcDbLine
 10
455.0357681954869
 20
726.8474465295918
 30
0.0
 11
455.0338476557017
 21
726.8474465295918
 31
0.0
  0
LINE
  5
73
330
1F
100
AcDbEntity
  8
Make2D$___$___
100
AcDbLine
 10
455.0445583601295
 20
726.8474465295916
 30
0.0
 11
455.0370542943596
 21
726.8474465295918
 31
0.0
  0
LINE
  5
74
330
1F
100
AcDbEntity
  8
Make2D$___$___
100
AcDbLine
 10
455.1022119107913
 20
726.8474465295918
 30
0.0
 11
455.0673944366338
 21
726.8474465295917
 31
0.0
  0
ARC
  5
75
330
1F
100
AcDbEntity
  8
Make2D$___$___
100
AcDbCircle
 10
455.0476927473789
 20
727.3469960985449
 30
0.0
 40
0.4989255320206669
100
AcDbArc
 50
179.9482734147049
 51
268.6357401827005
  0
ARC
  5
76
330
1F
100
AcDbEntity
  8
Make2D$___$___
100
AcDbCircle
 10
460.1653807042767
 20
884.5759165218077
 30
0.0
 40
5.616610206534976
100
AcDbArc
 50
180.0036485771188
 51
183.7172263829188
  0
LINE
  5
77
330
1F
100
AcDbEntity
  8
Make2D$___$___
100
AcDbLine
 10
454.5487862920876
 20
921.8473497199349
 30
0.0
 11
454.5487862920876
 21
884.6026269829782
 31
0.0
  0
ARC
  5
78
330
1F
100
AcDbEntity
  8
Make2D$___$___
100
AcDbCircle
 10
467.5487503656074
 20
921.8473173077343
 30
0.0
 40
12.99996407356013
100
AcDbArc
 50
89.99984165835679
 51
179.9998571471345
  0
LINE
  5
79
330
1F
100
AcDbEntity
  8
Make2D$___$___
100
AcDbLine
 10
454.5487862920876
 20
883.8560274523667
 30
0.0
 11
454.5487862920876
 21
884.5755588580121
 31
0.0
  0
LINE
  5
7A
330
1F
100
AcDbEntity
  8
Make2D$___$___
100
AcDbLine
 10
454.5487862920876
 20
727.3474465295916
 30
0.0
 11
454.5487862920877
 21
780.4480855828215
 31
0.0
  0
ARC
  5
7B
330
1F
100
AcDbEntity
  8
Make2D$___$___
100
AcDbCircle
 10
480.0488059917406
 20
727.3474460308394
 30
0.0
 40
0.4999991729561856
100
AcDbArc
 50
272.9870363753931
 51
0.0000569785941014
  0
LINE
  5
7C
330
1F
100
AcDbEntity
  8
Make2D$___$___
100
AcDbLine
 10
480.548786292087
 20
727.3474465295952
 30
0.0
 11
480.5487862920871
 21
780.4480855828078
 31
0.0
  0
ARC
  5
7D
330
1F
100
AcDbEntity
  8
Make2D$___$___
100
AcDbCircle
 10
474.932191876212
 20
884.5759165220992
 30
0.0
 40
5.616610210221231
100
AcDbArc
 50
356.2827736189966
 51
359.9963513665251
  0
LINE
  5
7E
330
1F
100
AcDbEntity
  8
Make2D$___$___
100
AcDbLine
 10
480.5487862920871
 20
921.8473497199349
 30
0.0
 11
480.548786292087
 21
884.6026269777576
 31
0.0
  0
ARC
  5
7F
330
1F
100
AcDbEntity
  8
Make2D$___$___
100
AcDbCircle
 10
467.5489774915299
 20
921.8473496114744
 30
0.0
 40
12.99980880055711
100
AcDbArc
 50
0.0000004780179761
 51
10.48420072585032
  0
ARC
  5
80
330
1F
100
AcDbEntity
  8
Make2D$___$___
100
AcDbCircle
 10
587.7294043631382
 20
944.3676765876073
 30
0.0
 40
109.2722595690886
100
AcDbArc
 50
190.180550698942
 51
190.5785321787119
  0
POLYLINE
  5
81
330
1F
100
AcDbEntity
  8
Make2D$___$___
100
AcDb2dPolyline
 66
     1
 10
0.0
 20
0.0
 30
0.0
  0
VERTEX
  5
82
330
81
100
AcDbEntity
  8
Make2D$___$___
100
AcDbVertex
100
AcDb2dVertex
 10
480.3248639802425
 20
924.2496152858041
 30
0.0
  0
VERTEX
  5
83
330
81
100
AcDbEntity
  8
Make2D$___$___
100
AcDbVertex
100
AcDb2dVertex
 10
480.32602301848
 20
924.2436325886092
 30
0.0
  0
VERTEX
  5
84
330
81
100
AcDbEntity
  8
Make2D$___$___
100
AcDbVertex
100
AcDb2dVertex
 10
480.4901441507985
 20
923.3934624882568
 30
0.0
  0
VERTEX
  5
85
330
81
100
AcDbEntity
  8
Make2D$___$___
100
AcDbVertex
100
AcDb2dVertex
 10
480.4907360688466
 20
923.3908399474572
 30
0.0
  0
VERTEX
  5
86
330
81
100
AcDbEntity
  8
Make2D$___$___
100
AcDbVertex
100
AcDb2dVertex
 10
480.4909478982327
 20
923.3899719723395
 30
0.0
  0
VERTEX
  5
87
330
81
100
AcDbEntity
  8
Make2D$___$___
100
AcDbVertex
100
AcDb2dVertex
 10
480.4911043966556
 20
923.3893955108722
 30
0.0
  0
VERTEX
  5
88
330
81
100
AcDbEntity
  8
Make2D$___$___
100
AcDbVertex
100
AcDb2dVertex
 10
480.4912061307119
 20
923.3891075506522
 30
0.0
  0
VERTEX
  5
89
330
81
100
AcDbEntity
  8
Make2D$___$___
100
AcDbVertex
100
AcDb2dVertex
 10
480.491253666998
 20
923.3891050792759
 30
0.0
  0
VERTEX
  5
8A
330
81
100
AcDbEntity
  8
Make2D$___$___
100
AcDbVertex
100
AcDb2dVertex
 10
480.4912475721104
 20
923.3893850843402
 30
0.0
  0
VERTEX
  5
8B
330
81
100
AcDbEntity
  8
Make2D$___$___
100
AcDbVertex
100
AcDb2dVertex
 10
480.4911884126457
 20
923.3899445534419
 30
0.0
  0
VERTEX
  5
8C
330
81
100
AcDbEntity
  8
Make2D$___$___
100
AcDbVertex
100
AcDb2dVertex
 10
480.490913166371
 20
923.3918898341441
 30
0.0
  0
VERTEX
  5
8D
330
81
100
AcDbEntity
  8
Make2D$___$___
100
AcDbVertex
100
AcDb2dVertex
 10
480.490432460946
 20
923.3949168221563
 30
0.0
  0
VERTEX
  5
8E
330
81
100
AcDbEntity
  8
Make2D$___$___
100
AcDbVertex
100
AcDb2dVertex
 10
480.4888728037338
 20
923.4041195232064
 30
0.0
  0
VERTEX
  5
8F
330
81
100
AcDbEntity
  8
Make2D$___$___
100
AcDbVertex
100
AcDb2dVertex
 10
480.4753223633058
 20
923.4793787745757
 30
0.0
  0
VERTEX
  5
90
330
81
100
AcDbEntity
  8
Make2D$___$___
100
AcDbVertex
100
AcDb2dVertex
 10
480.4206673197481
 20
923.7743487113817
 30
0.0
  0
VERTEX
  5
91
330
81
100
AcDbEntity
  8
Make2D$___$___
100
AcDbVertex
100
AcDb2dVertex
 10
480.2661224035464
 20
924.5966078149244
 30
0.0
  0
VERTEX
  5
92
330
81
100
AcDbEntity
  8
Make2D$___$___
100
AcDbVertex
100
AcDb2dVertex
 10
480.2033650004567
 20
924.926476120896
 30
0.0
  0
VERTEX
  5
93
330
81
100
AcDbEntity
  8
Make2D$___$___
100
AcDbVertex
100
AcDb2dVertex
 10
480.1837377903796
 20
925.0279091491398
 30
0.0
  0
VERTEX
  5
94
330
81
100
AcDbEntity
  8
Make2D$___$___
100
AcDbVertex
100
AcDb2dVertex
 10
480.1778773991724
 20
925.0573521554145
 30
0.0
  0
VERTEX
  5
95
330
81
100
AcDbEntity
  8
Make2D$___$___
100
AcDbVertex
100
AcDb2dVertex
 10
480.1760624246472
 20
925.0660805032574
 30
0.0
  0
VERTEX
  5
96
330
81
100
AcDbEntity
  8
Make2D$___$___
100
AcDbVertex
100
AcDb2dVertex
 10
480.1754496073567
 20
925.0688620410638
 30
0.0
  0
VERTEX
  5
97
330
81
100
AcDbEntity
  8
Make2D$___$___
100
AcDbVertex
100
AcDb2dVertex
 10
480.1752188492924
 20
925.0698466075266
 30
0.0
  0
VERTEX
  5
98
330
81
100
AcDbEntity
  8
Make2D$___$___
100
AcDbVertex
100
AcDb2dVertex
 10
480.1750392804106
 20
925.0705563558249
 30
0.0
  0
SEQEND
  5
99
330
81
100
AcDbEntity
  8
Make2D$___$___
  0
ARC
  5
9A
330
1F
100
AcDbEntity
  8
Make2D$___$___
100
AcDbCircle
 10
467.5488147924722
 20
921.8473019347938
 30
0.0
 40
12.99997944648223
100
AcDbArc
 50
10.64912533690492
 51
90.00012561187305
  0
LINE
  5
9B
330
1F
100
AcDbEntity
  8
Make2D$___$___
100
AcDbLine
 10
480.5487862920871
 20
883.8560274411354
 30
0.0
 11
480.548786292087
 21
884.5755588527788
 31
0.0
  0
SPLINE
  5
9C
330
1F
100
AcDbEntity
  8
Make2D$___$___
100
AcDbSpline
210
0.0
220
0.0
230
1.0
 70
     8
 71
     3
 72
    17
 73
    13
 74
     0
 42
0.000000001
 43
0.0000000001
 12
1.0
 22
0.0
 32
0.0
 13
1.0
 23
0.0
 33
0.0
 40
0.0
 40
0.0
 40
0.0
 40
0.0
 40
6.047407042705558
 40
6.047407042705558
 40
6.047407042705558
 40
10.12400752719299
 40
10.12400752719299
 40
10.12400752719299
 40
14.18790572930639
 40
14.18790572930639
 40
14.18790572930639
 40
20.36659587954657
 40
20.36659587954657
 40
20.36659587954657
 40
20.36659587954657
 10
454.5480787283568
 20
883.8560274516681
 30
0.0
 10
454.5527307346431
 20
885.2212006397297
 30
0.0
 10
455.0575643752162
 20
886.5714700706881
 30
0.0
 10
455.9786881278836
 20
887.7625226119267
 30
0.0
 10
456.6026635940289
 20
888.5693496668914
 30
0.0
 10
457.4176754848936
 20
889.3044190511175
 30
0.0
 10
458.379738963088
 20
889.9359402270754
 30
0.0
 10
459.3392974803322
 20
890.5658170875377
 30
0.0
 10
460.4466815173041
 20
891.093892992672
 30
0.0
 10
461.6497086072
 20
891.4968500128323
 30
0.0
 10
463.4694067719634
 20
892.1063625967327
 30
0.0
 10
465.5071316728391
 20
892.429656466827
 30
0.0
 10
467.5487862920873
 20
892.4273959625109
 30
0.0
  0
POLYLINE
  5
9D
330
1F
100
AcDbEntity
  8
Make2D$___$___
100
AcDb2dPolyline
 66
     1
 10
0.0
 20
0.0
 30
0.0
  0
VERTEX
  5
9E
330
9D
100
AcDbEntity
  8
Make2D$___$___
100
AcDbVertex
100
AcDb2dVertex
 10
444.8614458821021
 20
787.8033350075136
 30
0.0
 42
0.0012061014023477
  0
VERTEX
  5
9F
330
9D
100
AcDbEntity
  8
Make2D$___$___
100
AcDbVertex
100
AcDb2dVertex
 10
447.2865399674351
 20
812.1420858813899
 30
0.0
 42
-0.0003048809231879
  0
VERTEX
  5
A0
330
9D
100
AcDbEntity
  8
Make2D$___$___
100
AcDbVertex
100
AcDb2dVertex
 10
447.595234521054
 20
815.321792087898
 30
0.0
 42
-0.0073055758138662
  0
VERTEX
  5
A1
330
9D
100
AcDbEntity
  8
Make2D$___$___
100
AcDbVertex
100
AcDb2dVertex
 10
451.1812929135828
 20
846.9608099322004
 30
0.0
 42
0.0008570943041596
  0
VERTEX
  5
A2
330
9D
100
AcDbEntity
  8
Make2D$___$___
100
AcDbVertex
100
AcDb2dVertex
 10
451.3779326471285
 20
848.5140407442275
 30
0.0
 42
0.0011174094985217
  0
VERTEX
  5
A3
330
9D
100
AcDbEntity
  8
Make2D$___$___
100
AcDbVertex
100
AcDb2dVertex
 10
451.5665750468256
 20
850.0598198836508
 30
0.0
 42
0.0014156786663273
  0
VERTEX
  5
A4
330
9D
100
AcDbEntity
  8
Make2D$___$___
100
AcDbVertex
100
AcDb2dVertex
 10
453.4829015325336
 20
866.7924332296833
 30
0.0
 42
0.0016531244130653
  0
VERTEX
  5
A5
330
9D
100
AcDbEntity
  8
Make2D$___$___
100
AcDbVertex
100
AcDb2dVertex
 10
453.6405315972166
 20
868.2377544307872
 30
0.0
 42
0.0252684032995665
  0
VERTEX
  5
A6
330
9D
100
AcDbEntity
  8
Make2D$___$___
100
AcDbVertex
100
AcDb2dVertex
 10
454.5480907132757
 20
883.8437230115472
 30
0.0
  0
SEQEND
  5
A7
330
9D
100
AcDbEntity
  8
Make2D$___$___
  0
LINE
  5
A8
330
1F
100
AcDbEntity
  8
Make2D$___$___
100
AcDbLine
 10
451.5487862920873
 20
787.0667110344184
 30
0.0
 11
451.5487862920873
 21
787.0686058149431
 31
0.0
  0
SPLINE
  5
A9
330
1F
100
AcDbEntity
  8
Make2D$___$___
100
AcDbSpline
210
0.0
220
0.0
230
1.0
 70
     8
 71
     3
 72
    23
 73
    19
 74
     0
 42
0.000000001
 43
0.0000000001
 12
1.0
 22
0.0
 32
0.0
 13
1.0
 23
0.0
 33
0.0
 40
0.0000000385788877
 40
0.0000000385788877
 40
0.0000000385788877
 40
0.0000000385788877
 40
6.309891703334713
 40
6.309891703334713
 40
6.309891703334713
 40
12.92935804624723
 40
12.92935804624723
 40
12.92935804624723
 40
16.21447116402209
 40
16.21447116402209
 40
19.48856644988879
 40
19.48856644988879
 40
19.48856644988879
 40
19.73513340765007
 40
20.01322485907749
 40
20.43328488526506
 40
20.7906061991075
 40
21.08930998392163
 40
21.08930998392163
 40
21.08930998392163
 40
21.08930998392163
 10
467.5487862537558
 20
790.9081482300096
 30
0.0
 10
465.458973824809
 20
790.9083994992011
 30
0.0
 10
463.3682559951689
 20
790.8015982775096
 30
0.0
 10
461.4325915804515
 20
790.5962413973034
 30
0.0
 10
459.4045685983714
 20
790.3810860896895
 30
0.0
 10
457.5417739342188
 20
790.056666655441
 30
0.0
 10
456.0082380625101
 20
789.6531666752949
 30
0.0
 10
455.2432820272487
 20
789.4518934278053
 30
0.0
 10
454.558938634638
 20
789.230604398917
 30
0.0
 10
453.3858922369473
 20
788.7638105821432
 30
0.0
 10
452.8950136812481
 20
788.5171131100481
 30
0.0
 10
452.5180830739886
 20
788.2711435471119
 30
0.0
 10
452.4491663374093
 20
788.2261907557743
 30
0.0
 10
452.3053236174009
 20
788.1270505798716
 30
0.0
 10
452.0574505059316
 20
787.9318688845947
 30
0.0
 10
451.8061098857614
 20
787.684910972891
 30
0.0
 10
451.6044084876838
 20
787.3840995972122
 30
0.0
 10
451.5482852140361
 20
787.1685920204521
 30
0.0
 10
451.5487846467391
 20
787.068605814943
 30
0.0
  0
ARC
  5
AA
330
1F
100
AcDbEntity
  8
Make2D$___$___
100
AcDbCircle
 10
447.3321283112034
 20
787.5511381702115
 30
0.0
 40
2.483821184048643
100
AcDbArc
 50
174.1716761903897
 51
180.2123906250832
  0
SPLINE
  5
AB
330
1F
100
AcDbEntity
  8
Make2D$___$___
100
AcDbSpline
210
0.0
220
0.0
230
1.0
 70
     8
 71
     3
 72
    18
 73
    14
 74
     0
 42
0.000000001
 43
0.0000000001
 12
1.0
 22
0.0
 32
0.0
 13
1.0
 23
0.0
 33
0.0
 40
17.74586391102669
 40
17.74586391102669
 40
17.74586391102669
 40
17.74586391102669
 40
21.8640693946987
 40
21.8640693946987
 40
21.8640693946987
 40
26.41160236546222
 40
26.41160236546222
 40
26.41160236546222
 40
27.01308590966975
 40
27.49262267547376
 40
28.44337178855123
 40
29.28686675916079
 40
30.08801053431439
 40
30.08801053431439
 40
30.08801053431439
 40
30.08801053431439
 10
451.6590762798919
 20
782.6204403792473
 30
0.0
 10
450.69321596573
 20
782.8841576226476
 30
0.0
 10
449.8161987379627
 20
783.1727513686772
 30
0.0
 10
449.0358002480154
 20
783.4855299470073
 30
0.0
 10
448.1743229186134
 20
783.8308043905445
 30
0.0
 10
447.4324958066479
 20
784.2037276179112
 30
0.0
 10
446.81514102354
 20
784.6145353424699
 30
0.0
 10
446.648403538534
 20
784.7256274607314
 30
0.0
 10
446.3552593170822
 20
784.9363622155847
 30
0.0
 10
445.8415311352484
 20
785.3777006943367
 30
0.0
 10
445.3352893603961
 20
785.9483560902196
 30
0.0
 10
444.9394275015909
 20
786.7269913769805
 30
0.0
 10
444.8480410418191
 20
787.2749881425159
 30
0.0
 10
444.8483142600232
 20
787.5419309567155
 30
0.0
  0
SPLINE
  5
AC
330
1F
100
AcDbEntity
  8
Make2D$___$___
100
AcDbSpline
210
0.0
220
0.0
230
1.0
 70
     8
 71
     3
 72
    17
 73
    13
 74
     0
 42
0.000000001
 43
0.0000000001
 12
1.0
 22
0.0
 32
0.0
 13
1.0
 23
0.0
 33
0.0
 40
0.0
 40
0.0
 40
0.0
 40
0.0
 40
6.17869015007396
 40
6.17869015007396
 40
6.17869015007396
 40
10.24258835242329
 40
10.24258835242329
 40
10.24258835242329
 40
14.31918883668288
 40
14.31918883668288
 40
14.31918883668288
 40
20.36659589729659
 40
20.36659589729659
 40
20.36659589729659
 40
20.36659589729659
 10
467.5487862920873
 20
892.4273959625107
 30
0.0
 10
469.5904409115849
 20
892.4296564665549
 30
0.0
 10
471.6281658118294
 20
892.1063625969764
 30
0.0
 10
473.4478639769134
 20
891.4968500129087
 30
0.0
 10
474.6508910667181
 20
891.093892992739
 30
0.0
 10
475.7582751039305
 20
890.5658170873508
 30
0.0
 10
476.7178336211405
 20
889.9359402269733
 30
0.0
 10
477.6798970994374
 20
889.3044190510107
 30
0.0
 10
478.4949089901021
 20
888.5693496671138
 30
0.0
 10
479.118884456272
 20
887.7625226120022
 30
0.0
 10
480.0400082115311
 20
886.5714700672429
 30
0.0
 10
480.5448418524529
 20
885.2212006314098
 30
0.0
 10
480.5494938558561
 20
883.856027440437
 30
0.0
  0
POLYLINE
  5
AD
330
1F
100
AcDbEntity
  8
Make2D$___$___
100
AcDb2dPolyline
 66
     1
 10
0.0
 20
0.0
 30
0.0
  0
VERTEX
  5
AE
330
AD
100
AcDbEntity
  8
Make2D$___$___
100
AcDbVertex
100
AcDb2dVertex
 10
480.5494818708989
 20
883.8437230115441
 30
0.0
 42
0.0252684032995617
  0
VERTEX
  5
AF
330
AD
100
AcDbEntity
  8
Make2D$___$___
100
AcDbVertex
100
AcDb2dVertex
 10
481.4570409869581
 20
868.2377544307872
 30
0.0
 42
0.0016531244129224
  0
VERTEX
  5
B0
330
AD
100
AcDbEntity
  8
Make2D$___$___
100
AcDbVertex
100
AcDb2dVertex
 10
481.614671051641
 20
866.7924332296832
 30
0.0
 42
0.0014156786662965
  0
VERTEX
  5
B1
330
AD
100
AcDbEntity
  8
Make2D$___$___
100
AcDbVertex
100
AcDb2dVertex
 10
483.5309975373489
 20
850.0598198836509
 30
0.0
 42
0.0011174084735105
  0
VERTEX
  5
B2
330
AD
100
AcDbEntity
  8
Make2D$___$___
100
AcDbVertex
100
AcDb2dVertex
 10
483.7196399370461
 20
848.5140407442275
 30
0.0
 42
0.0008570943041856
  0
VERTEX
  5
B3
330
AD
100
AcDbEntity
  8
Make2D$___$___
100
AcDbVertex
100
AcDb2dVertex
 10
483.9162796705917
 20
846.9608099322003
 30
0.0
 42
-0.0073055758138787
  0
VERTEX
  5
B4
330
AD
100
AcDbEntity
  8
Make2D$___$___
100
AcDbVertex
100
AcDb2dVertex
 10
487.5023380631212
 20
815.3217920878978
 30
0.0
 42
-0.0003048928283427
  0
VERTEX
  5
B5
330
AD
100
AcDbEntity
  8
Make2D$___$___
100
AcDbVertex
100
AcDb2dVertex
 10
487.8110326167385
 20
812.1420858813904
 30
0.0
 42
0.0012060946881619
  0
VERTEX
  5
B6
330
AD
100
AcDbEntity
  8
Make2D$___$___
100
AcDbVertex
100
AcDb2dVertex
 10
490.2361116094344
 20
787.8034830492126
 30
0.0
  0
SEQEND
  5
B7
330
AD
100
AcDbEntity
  8
Make2D$___$___
  0
SPLINE
  5
B8
330
1F
100
AcDbEntity
  8
Make2D$___$___
100
AcDbSpline
210
0.0
220
0.0
230
1.0
 70
     8
 71
     3
 72
    23
 73
    19
 74
     0
 42
0.000000001
 43
0.0000000001
 12
1.0
 22
0.0
 32
0.0
 13
1.0
 23
0.0
 33
0.0
 40
0.0
 40
0.0
 40
0.0
 40
0.0
 40
0.1422238887751361
 40
0.2987037843373007
 40
0.6560250982396455
 40
1.076085124575124
 40
1.600743533831114
 40
1.600743533831114
 40
1.600743533831114
 40
4.874838817416407
 40
4.874838817416407
 40
8.159951932826685
 40
8.159951932826685
 40
8.159951932826685
 40
14.77941828030352
 40
14.77941828030352
 40
14.77941828030352
 40
21.08930994503428
 40
21.08930994503428
 40
21.08930994503428
 40
21.08930994503428
 10
483.5487879374363
 20
787.0686058153121
 30
0.0
 10
483.5487376284868
 20
787.1160473837107
 30
0.0
 10
483.5373731321066
 20
787.2154545680878
 30
0.0
 10
483.4662706834467
 20
787.423734566074
 30
0.0
 10
483.2917408146342
 20
787.6850395216891
 30
0.0
 10
482.9810761026953
 20
787.989462218226
 30
0.0
 10
482.7258193887734
 20
788.175625874193
 30
0.0
 10
482.5794895100681
 20
788.2711435471807
 30
0.0
 10
482.2025589030733
 20
788.5171131099471
 30
0.0
 10
481.7116803479298
 20
788.7638105818116
 30
0.0
 10
480.5386339513078
 20
789.230604398296
 30
0.0
 10
479.8542905593388
 20
789.4518934270629
 30
0.0
 10
479.0893345247979
 20
789.6531666744693
 30
0.0
 10
477.5557986524976
 20
790.0566666549839
 30
0.0
 10
475.6930039871073
 20
790.3810860895389
 30
0.0
 10
473.6649810037213
 20
790.5962413972957
 30
0.0
 10
471.7293165888076
 20
790.8015982775262
 30
0.0
 10
469.6385987595478
 20
790.9083994992084
 30
0.0
 10
467.5487863304187
 20
790.9081482300096
 30
0.0
  0
SPLINE
  5
B9
330
1F
100
AcDbEntity
  8
Make2D$___$___
100
AcDbSpline
210
0.0
220
0.0
230
1.0
 70
     8
 71
     3
 72
    18
 73
    14
 74
     0
 42
0.000000001
 43
0.0000000001
 12
1.0
 22
0.0
 32
0.0
 13
1.0
 23
0.0
 33
0.0
 40
0.0
 40
0.0
 40
0.0
 40
0.0
 40
0.4014535927913573
 40
0.8010320127691506
 40
1.644462202573338
 40
2.595191808910162
 40
3.676219930692634
 40
3.676219930692634
 40
3.676219930692634
 40
8.223837374044761
 40
8.223837374044761
 40
8.223837374044761
 40
12.3419883358028
 40
12.3419883358028
 40
12.3419883358028
 40
12.3419883358028
 10
490.2492577095284
 20
787.5417951152965
 30
0.0
 10
490.2493172058228
 20
787.4078079390847
 30
0.0
 10
490.2272012534335
 20
787.1412842273455
 30
0.0
 10
490.0968393796643
 20
786.606455065413
 30
0.0
 10
489.7622449676554
 20
785.9484313015728
 30
0.0
 10
489.1222400397502
 20
785.226715801888
 30
0.0
 10
488.582416195777
 20
784.8142573696671
 30
0.0
 10
488.2824679818075
 20
784.6145386517381
 30
0.0
 10
487.6650949606792
 20
784.2037177946397
 30
0.0
 10
486.9232245950242
 20
783.8307913422507
 30
0.0
 10
486.0617395147563
 20
783.4855161322912
 30
0.0
 10
485.2813383026392
 20
783.1727385827571
 30
0.0
 10
484.4043557573739
 20
782.8841551891544
 30
0.0
 10
483.4384961647401
 20
782.6204400140233
 30
0.0
  0
ARC
  5
BA
330
1F
100
AcDbEntity
  8
Make2D$___$___
100
AcDbCircle
 10
487.766174862174
 20
787.5513606167044
 30
0.0
 40
2.483091429382595
100
AcDbArc
 50
359.7792816048455
 51
5.828363034629517
  0
ARC
  5
BB
330
1F
100
AcDbEntity
  8
Make2D$___$___
100
AcDbCircle
 10
467.3986972918058
 20
783.4276759360849
 30
0.0
 40
2.832489357911598
100
AcDbArc
 50
86.96260180315566
 51
109.9748044761223
  0
ARC
  5
BC
330
1F
100
AcDbEntity
  8
Make2D$___$___
100
AcDbCircle
 10
462.5930806096001
 20
783.952048839504
 30
0.0
 40
2.042794753089378
100
AcDbArc
 50
94.39410180331154
 51
111.6774402971312
  0
ARC
  5
BD
330
1F
100
AcDbEntity
  8
Make2D$___$___
100
AcDbCircle
 10
464.0902789818717
 20
785.868891350759
 30
0.0
 40
0.0241915719992655
100
AcDbArc
 50
235.1057020760038
 51
237.5727548162297
  0
SPLINE
  5
BE
330
1F
100
AcDbEntity
  8
Make2D$___$___
100
AcDbSpline
210
0.0
220
0.0
230
1.0
 70
     8
 71
     3
 72
    18
 73
    14
 74
     0
 42
0.000000001
 43
0.0000000001
 12
1.0
 22
0.0
 32
0.0
 13
1.0
 23
0.0
 33
0.0
 40
0.0
 40
0.0
 40
0.0
 40
0.0
 40
0.002162568940305
 40
0.0047152092172454
 40
0.0095787113123865
 40
0.0198057544068287
 40
0.0449633210976094
 40
0.1027503392049251
 40
0.2460918088297415
 40
0.613121929771374
 40
0.613121929771374
 40
0.613121929771374
 40
1.72012219237137
 40
1.72012219237137
 40
1.72012219237137
 40
1.72012219237137
 10
464.0714253552433
 20
785.8522071271971
 30
0.0
 10
464.0709788373109
 20
785.8524639292274
 30
0.0
 10
464.0695055044346
 20
785.8533262622208
 30
0.0
 10
464.0667651206748
 20
785.8548508371174
 30
0.0
 10
464.0615587269049
 20
785.8576239572714
 30
0.0
 10
464.0495169620652
 20
785.8635424294259
 30
0.0
 10
464.0209918496047
 20
785.8758371952466
 30
0.0
 10
463.949939605813
 20
785.9013385643193
 30
0.0
 10
463.7667222852827
 20
785.9499778526292
 30
0.0
 10
463.5981332022412
 20
785.9753908116202
 30
0.0
 10
463.4765945600362
 20
785.9889502522735
 30
0.0
 10
463.1546745929661
 20
786.0240205256678
 30
0.0
 10
462.7585751950141
 20
786.024599838586
 30
0.0
 10
462.4368517683133
 20
785.9888698936063
 30
0.0
  0
LINE
  5
BF
330
1F
100
AcDbEntity
  8
Make2D$___$___
100
AcDbLine
 10
458.1292686730698
 20
785.2324896526964
 30
0.0
 11
457.9469230990196
 21
785.1661450372435
 31
0.0
  0
LINE
  5
C0
330
1F
100
AcDbEntity
  8
Make2D$___$___
100
AcDbLine
 10
460.1803814998121
 20
785.1660155486734
 30
0.0
 11
459.9977411626259
 21
785.232489652697
 31
0.0
  0
ARC
  5
C1
330
1F
100
AcDbEntity
  8
Make2D$___$___
100
AcDbCircle
 10
459.0635049178535
 20
780.8888744906764
 30
0.0
 40
4.44301973941741
100
AcDbArc
 50
77.88180292150159
 51
102.1181970791552
  0
ARC
  5
C2
330
1F
100
AcDbEntity
  8
Make2D$___$___
100
AcDbCircle
 10
456.8255489466277
 20
782.243180354218
 30
0.0
 40
2.043616365053261
100
AcDbArc
 50
68.32606055503797
 51
85.60239734466317
  0
SPLINE
  5
C3
330
1F
100
AcDbEntity
  8
Make2D$___$___
100
AcDbSpline
210
0.0
220
0.0
230
1.0
 70
     8
 71
     3
 72
    16
 73
    12
 74
     0
 42
0.000000001
 43
0.0000000001
 12
1.0
 22
0.0
 32
0.0
 13
1.0
 23
0.0
 33
0.0
 40
0.0
 40
0.0
 40
0.0
 40
0.0
 40
1.107000276406514
 40
1.107000276406514
 40
1.107000276406514
 40
1.201261487491348
 40
1.291452606032249
 40
1.474030390797856
 40
1.617371857612479
 40
1.675158874388739
 40
1.71911659132772
 40
1.71911659132772
 40
1.71911659132772
 40
1.71911659132772
 10
456.9819652373353
 20
784.2808110345511
 30
0.0
 10
456.6602418069841
 20
784.3165409799697
 30
0.0
 10
456.2641424034037
 20
784.3159616664975
 30
0.0
 10
455.9422224342038
 20
784.2808913919735
 30
0.0
 10
455.9109881411317
 20
784.2774731210313
 30
0.0
 10
455.8499458426827
 20
784.2700815452645
 30
0.0
 10
455.7289208091164
 20
784.2520826225214
 30
0.0
 10
455.5925846403087
 20
784.2262606125392
 30
0.0
 10
455.4688839646489
 20
784.1932281267451
 30
0.0
 10
455.3919319676302
 20
784.1656647076205
 30
0.0
 10
455.3609248187436
 20
784.1518197259495
 30
0.0
 10
455.3481632522672
 20
784.1445967867472
 30
0.0
  0
ARC
  5
C4
330
1F
100
AcDbEntity
  8
Make2D$___$___
100
AcDbCircle
 10
455.7044413697796
 20
780.309573699565
 30
0.0
 40
2.794868987696651
100
AcDbArc
 50
69.8580407061048
 51
93.19263475146847
  0
ARC
  5
C5
330
1F
100
AcDbEntity
  8
Make2D$___$___
100
AcDbCircle
 10
455.3986979710671
 20
780.2715916215074
 30
0.0
 40
2.832492478758329
100
AcDbArc
 50
86.96258448711129
 51
109.9747961197678
  0
SPLINE
  5
C6
330
1F
100
AcDbEntity
  8
Make2D$___$___
100
AcDbSpline
210
0.0
220
0.0
230
1.0
 70
     8
 71
     3
 72
    18
 73
    14
 74
     0
 42
0.000000001
 43
0.0000000001
 12
1.0
 22
0.0
 32
0.0
 13
1.0
 23
0.0
 33
0.0
 40
0.0
 40
0.0
 40
0.0
 40
0.0
 40
0.0021625689398992
 40
0.0047152092166367
 40
0.0095787113114763
 40
0.0198057544056657
 40
0.0449633210971089
 40
0.1027503392039492
 40
0.2460918088289478
 40
0.6131219297710081
 40
0.6131219297710081
 40
0.6131219297710081
 40
1.720122192370568
 40
1.720122192370568
 40
1.720122192370568
 40
1.720122192370568
 10
457.5770721534882
 20
781.7285882643321
 30
0.0
 10
457.576625635556
 20
781.728845066362
 30
0.0
 10
457.5751523026805
 20
781.7297073993569
 30
0.0
 10
457.572411918919
 20
781.7312319742508
 30
0.0
 10
457.5672055251507
 20
781.7340050944061
 30
0.0
 10
457.5551637603114
 20
781.7399235665611
 30
0.0
 10
457.5266386478515
 20
781.7522183323822
 30
0.0
 10
457.4555864040596
 20
781.7777197014558
 30
0.0
 10
457.2723690835287
 20
781.8263589897641
 30
0.0
 10
457.1037800004864
 20
781.8517719487539
 30
0.0
 10
456.9822413582816
 20
781.8653313894081
 30
0.0
 10
456.6603213912111
 20
781.9004016628026
 30
0.0
 10
456.2642219932596
 20
781.9009809757201
 30
0.0
 10
455.9424985665581
 20
781.8652510307411
 30
0.0
  0
ARC
  5
C7
330
1F
100
AcDbEntity
  8
Make2D$___$___
100
AcDbCircle
 10
456.0987274160377
 20
779.8284299274261
 30
0.0
 40
2.042794802787588
100
AcDbArc
 50
94.39410192459361
 51
111.6774398616997
  0
LINE
  5
C8
330
1F
100
AcDbEntity
  8
Make2D$___$___
100
AcDbLine
 10
460.1803814996831
 20
780.7026426546247
 30
0.0
 11
459.9977411626606
 21
780.7691167585438
 31
0.0
  0
ARC
  5
C9
330
1F
100
AcDbEntity
  8
Make2D$___$___
100
AcDbCircle
 10
459.0635049178525
 20
776.4255015965234
 30
0.0
 40
4.443019739426076
100
AcDbArc
 50
77.88180292151883
 51
102.1181970791365
  0
LINE
  5
CA
330
1F
100
AcDbEntity
  8
Make2D$___$___
100
AcDbLine
 10
458.1292686730309
 20
780.7691167585426
 30
0.0
 11
457.9469230990384
 21
780.702772143128
 31
0.0
  0
ARC
  5
CB
330
1F
100
AcDbEntity
  8
Make2D$___$___
100
AcDbCircle
 10
463.3199021489676
 20
778.1195614951016
 30
0.0
 40
2.043616361269974
100
AcDbArc
 50
68.32606051917386
 51
85.60239735277925
  0
SPLINE
  5
CC
330
1F
100
AcDbEntity
  8
Make2D$___$___
100
AcDbSpline
210
0.0
220
0.0
230
1.0
 70
     8
 71
     3
 72
    16
 73
    12
 74
     0
 42
0.000000001
 43
0.0000000001
 12
1.0
 22
0.0
 32
0.0
 13
1.0
 23
0.0
 33
0.0
 40
0.0
 40
0.0
 40
0.0
 40
0.0
 40
1.107000276407045
 40
1.107000276407045
 40
1.107000276407045
 40
1.201261487491641
 40
1.291452606032265
 40
1.474030390797682
 40
1.617371857612659
 40
1.675158874390142
 40
1.71916048087817
 40
1.71916048087817
 40
1.71916048087817
 40
1.71916048087817
 10
463.4763184390896
 20
780.1571921716857
 30
0.0
 10
463.15459500874
 20
780.1929221171042
 30
0.0
 10
462.7584956051563
 20
780.1923428036323
 30
0.0
 10
462.4365756359579
 20
780.157272529108
 30
0.0
 10
462.4053413260538
 20
780.1538542834653
 30
0.0
 10
462.3442990737221
 20
780.1464626383887
 30
0.0
 10
462.2232739661019
 20
780.1284638269366
 30
0.0
 10
462.0869379158451
 20
780.1026416387994
 30
0.0
 10
461.9632370850452
 20
780.0696093861183
 30
0.0
 10
461.8862715140619
 20
780.0420407209443
 30
0.0
 10
461.8552510697419
 20
780.0281892173109
 30
0.0
 10
461.8424785329277
 20
780.0209558263189
 30
0.0
  0
ARC
  5
CD
330
1F
100
AcDbEntity
  8
Make2D$___$___
100
AcDbCircle
 10
467.3986972917774
 20
777.1155134545003
 30
0.0
 40
2.832489358665611
100
AcDbArc
 50
86.96260180501972
 51
109.9748044720702
  0
ARC
  5
CE
330
1F
100
AcDbEntity
  8
Make2D$___$___
100
AcDbCircle
 10
464.7233442177373
 20
783.0500373808266
 30
0.0
 40
2.03476924553999
100
AcDbArc
 50
91.90762839982807
 51
112.0401089395939
  0
SPLINE
  5
CF
330
1F
100
AcDbEntity
  8
Make2D$___$___
100
AcDbSpline
210
0.0
220
0.0
230
1.0
 70
     8
 71
     3
 72
    15
 73
    11
 74
     0
 42
0.000000001
 43
0.0000000001
 12
1.0
 22
0.0
 32
0.0
 13
1.0
 23
0.0
 33
0.0
 40
0.0
 40
0.0
 40
0.0
 40
0.0
 40
0.0006390668821622
 40
0.0377228761370157
 40
0.0926215164456996
 40
0.2143825302103221
 40
0.5211254483936573
 40
0.5211254483936573
 40
0.5211254483936573
 40
1.627881304279237
 40
1.627881304279237
 40
1.627881304279237
 40
1.627881304279237
 10
466.193526242181
 20
784.9364151774628
 30
0.0
 10
466.1943680286488
 20
784.9358942859066
 30
0.0
 10
466.1836470387929
 20
784.9422326720163
 30
0.0
 10
466.1554699055019
 20
784.9551405761586
 30
0.0
 10
466.0888463078952
 20
784.9803951996371
 30
0.0
 10
465.9335825663245
 20
785.0241792322525
 30
0.0
 10
465.7926770660226
 20
785.048904008114
 30
0.0
 10
465.6913837939799
 20
785.0627032904567
 30
0.0
 10
465.3838244108792
 20
785.1039189054811
 30
0.0
 10
464.989176935847
 20
785.112849853791
 30
0.0
 10
464.6557854638182
 20
785.0836939104349
 30
0.0
  0
ARC
  5
D0
330
1F
100
AcDbEntity
  8
Make2D$___$___
100
AcDbCircle
 10
460.159485654047
 20
783.8145470046275
 30
0.0
 40
0.4094055597301102
100
AcDbArc
 50
108.1425318552464
 51
119.1261760866075
  0
ARC
  5
D1
330
1F
100
AcDbEntity
  8
Make2D$___$___
100
AcDbCircle
 10
461.6549476684024
 20
782.9764192246181
 30
0.0
 40
1.31080300673761
100
AcDbArc
 50
65.68401473813317
 51
80.78314333031025
  0
ARC
  5
D2
330
1F
100
AcDbEntity
  8
Make2D$___$___
100
AcDbCircle
 10
461.1004698738154
 20
780.0426939309159
 30
0.0
 40
4.296169313223994
100
AcDbArc
 50
79.7619718209386
 51
104.364345037961
  0
ARC
  5
D3
330
1F
100
AcDbEntity
  8
Make2D$___$___
100
AcDbCircle
 10
459.7044413697699
 20
780.309573699483
 30
0.0
 40
2.79486898777795
100
AcDbArc
 50
69.8580407064542
 51
93.19263475117593
  0
ARC
  5
D4
330
1F
100
AcDbEntity
  8
Make2D$___$___
100
AcDbCircle
 10
459.3986979710663
 20
780.2715916215108
 30
0.0
 40
2.832492478754969
100
AcDbArc
 50
86.96258448709041
 51
109.9747961197693
  0
LINE
  5
D5
330
1F
100
AcDbEntity
  8
Make2D$___$___
100
AcDbLine
 10
462.1931909287645
 20
781.6986714012688
 30
0.0
 11
462.1212965142142
 21
781.7301348938977
 31
0.0
  0
ARC
  5
D6
330
1F
100
AcDbEntity
  8
Make2D$___$___
100
AcDbCircle
 10
461.0528308003857
 20
777.5692299202694
 30
0.0
 40
4.296169313009131
100
AcDbArc
 50
75.63565496261832
 51
100.2380281802561
  0
ARC
  5
D7
330
1F
100
AcDbEntity
  8
Make2D$___$___
100
AcDbCircle
 10
460.4500743371302
 20
780.6638299294531
 30
0.0
 40
1.144481760268628
100
AcDbArc
 50
98.12102923046437
 51
115.4369111703566
  0
ARC
  5
D8
330
1F
100
AcDbEntity
  8
Make2D$___$___
100
AcDbCircle
 10
465.4350195129389
 20
779.0721638764745
 30
0.0
 40
2.010343320633386
100
AcDbArc
 50
67.83309419207225
 51
88.2135605599692
  0
SPLINE
  5
D9
330
1F
100
AcDbEntity
  8
Make2D$___$___
100
AcDbSpline
210
0.0
220
0.0
230
1.0
 70
     8
 71
     3
 72
    16
 73
    12
 74
     0
 42
0.000000001
 43
0.0000000001
 12
1.0
 22
0.0
 32
0.0
 13
1.0
 23
0.0
 33
0.0
 40
0.0
 40
0.0
 40
0.0
 40
0.0
 40
1.106755869662845
 40
1.106755869662845
 40
1.106755869662845
 40
1.174105294754164
 40
1.259935855705666
 40
1.413498781962428
 40
1.535259792646927
 40
1.590158431258752
 40
1.627051683242641
 40
1.627051683242641
 40
1.627051683242641
 40
1.627051683242641
 10
465.4975152103502
 20
781.0815450708994
 30
0.0
 10
465.1641237345574
 20
781.1107010146175
 30
0.0
 10
464.7694762540665
 20
781.1017700656305
 30
0.0
 10
464.4619168693247
 20
781.0605544494638
 30
0.0
 10
464.4396665065565
 20
781.0575618010309
 30
0.0
 10
464.3891277269937
 20
781.0502820919373
 30
0.0
 10
464.2883142423674
 20
781.0331286956246
 30
0.0
 10
464.1704899783442
 20
781.0082453850606
 30
0.0
 10
464.0644796499614
 20
780.9782153703869
 30
0.0
 10
463.9978586680961
 20
780.9530129465876
 30
0.0
 10
463.9700120721874
 20
780.9402599135699
 30
0.0
 10
463.9594053721975
 20
780.9340112049347
 30
0.0
  0
ARC
  5
DA
330
1F
100
AcDbEntity
  8
Make2D$___$___
100
AcDbCircle
 10
465.0126429403319
 20
782.5618149137083
 30
0.0
 40
1.409022958952034
100
AcDbArc
 50
95.66399827946616
 51
114.4361547309821
  0
ARC
  5
DB
330
1F
100
AcDbEntity
  8
Make2D$___$___
100
AcDbCircle
 10
466.564829397738
 20
783.6809565884336
 30
0.0
 40
0.1933663970327736
100
AcDbArc
 50
58.44876495268883
 51
66.34003772579699
  0
SPLINE
  5
DC
330
1F
100
AcDbEntity
  8
Make2D$___$___
100
AcDbSpline
210
0.0
220
0.0
230
1.0
 70
     8
 71
     3
 72
    13
 73
     9
 74
     0
 42
0.000000001
 43
0.0000000001
 12
1.0
 22
0.0
 32
0.0
 13
1.0
 23
0.0
 33
0.0
 40
0.0
 40
0.0
 40
0.0
 40
0.0
 40
0.5223841731464534
 40
0.5223841731464534
 40
1.066133334903911
 40
1.066133334903911
 40
1.066133334903911
 40
2.172777037803406
 40
2.172777037803406
 40
2.172777037803406
 40
2.172777037803406
 10
466.6386367099942
 20
783.859796957526
 30
0.0
 10
466.5970257791641
 20
783.8790559507618
 30
0.0
 10
466.4890326004564
 20
783.9140809885369
 30
0.0
 10
466.2317047861558
 20
783.9658746190198
 30
0.0
 10
466.0714384909525
 20
783.9871374315574
 30
0.0
 10
465.901957456641
 20
783.9990811753346
 30
0.0
 10
465.5630013239044
 20
784.0229682445724
 30
0.0
 10
465.1694129053071
 20
784.0095922843709
 30
0.0
 10
464.8741204167902
 20
783.9640407579875
 30
0.0
  0
ARC
  5
DD
330
1F
100
AcDbEntity
  8
Make2D$___$___
100
AcDbCircle
 10
463.7044413697794
 20
780.3095736995663
 30
0.0
 40
2.794868987695381
100
AcDbArc
 50
69.8580407060878
 51
93.19263475146523
  0
ARC
  5
DE
330
1F
100
AcDbEntity
  8
Make2D$___$___
100
AcDbCircle
 10
463.3986979710674
 20
780.2715916215027
 30
0.0
 40
2.832492478762969
100
AcDbArc
 50
86.96258448712203
 51
109.9747961197373
  0
ARC
  5
DF
330
1F
100
AcDbEntity
  8
Make2D$___$___
100
AcDbCircle
 10
466.0914143230619
 20
780.7636307962398
 30
0.0
 40
1.384525827540098
100
AcDbArc
 50
65.40763832958517
 51
84.50510526378056
  0
SPLINE
  5
E0
330
1F
100
AcDbEntity
  8
Make2D$___$___
100
AcDbSpline
210
0.0
220
0.0
230
1.0
 70
     8
 71
     3
 72
    13
 73
     9
 74
     0
 42
0.000000001
 43
0.0000000001
 12
1.0
 22
0.0
 32
0.0
 13
1.0
 23
0.0
 33
0.0
 40
0.0
 40
0.0
 40
0.0
 40
0.0
 40
1.10664371676135
 40
1.10664371676135
 40
1.10664371676135
 40
1.650392871664917
 40
1.650392871664917
 40
2.172777038573583
 40
2.172777038573583
 40
2.172777038573583
 40
2.172777038573583
 10
466.2234521673686
 20
782.1418764042528
 30
0.0
 10
465.9281596754986
 20
782.187427931189
 30
0.0
 10
465.5345712510001
 20
782.2008038910476
 30
0.0
 10
465.1956151154259
 20
782.1769168207445
 30
0.0
 10
465.0261340836577
 20
782.1649730767137
 30
0.0
 10
464.865867791173
 20
782.1437102641764
 30
0.0
 10
464.6085399812382
 20
782.0919166340625
 30
0.0
 10
464.5005468046307
 20
782.0568915968336
 30
0.0
 10
464.4589358740785
 20
782.0376326037424
 30
0.0
  0
ARC
  5
E1
330
1F
100
AcDbEntity
  8
Make2D$___$___
100
AcDbCircle
 10
464.5244621244291
 20
781.8754067597085
 30
0.0
 40
0.1748275873550617
100
AcDbArc
 50
113.3592890762611
 51
122.1910392051027
  0
ARC
  5
E2
330
1F
100
AcDbEntity
  8
Make2D$___$___
100
AcDbCircle
 10
467.3986972917689
 20
780.2715946958702
 30
0.0
 40
2.8324893577113
100
AcDbArc
 50
86.9626018038227
 51
109.9748044767463
  0
SPLINE
  5
E3
330
1F
100
AcDbEntity
  8
Make2D$___$___
100
AcDbSpline
210
0.0
220
0.0
230
1.0
 70
     8
 71
     3
 72
    23
 73
    19
 74
     0
 42
0.000000001
 43
0.0000000001
 12
1.0
 22
0.0
 32
0.0
 13
1.0
 23
0.0
 33
0.0
 40
0.0
 40
0.0
 40
0.0
 40
0.0
 40
6.026877352442884
 40
6.026877352442884
 40
6.026877352442884
 40
12.36575070784637
 40
12.36575070784637
 40
12.36575070784637
 40
15.52820174421654
 40
15.52820174421654
 40
18.70262575105993
 40
18.70262575105993
 40
18.70262575105993
 40
19.12436889649559
 40
19.4560474456948
 40
20.08313402067746
 40
20.64437952736979
 40
21.16836856453002
 40
21.16836856453002
 40
21.16836856453002
 40
21.16836856453002
 10
467.5487862920874
 20
778.6289897690224
 30
0.0
 10
465.5515879211627
 20
778.628749734924
 30
0.0
 10
463.5556662192149
 20
778.730593505619
 30
0.0
 10
461.7010085935198
 20
778.9272735467953
 30
0.0
 10
459.7503628340672
 20
779.1341327983218
 30
0.0
 10
457.9607673649484
 20
779.444851971791
 30
0.0
 10
456.4609486120348
 20
779.8393144575298
 30
0.0
 10
455.7089172452576
 20
780.037103798219
 30
0.0
 10
455.0313511640223
 20
780.2555363438498
 30
0.0
 10
453.8381520563199
 20
780.7301499383293
 30
0.0
 10
453.3239433699818
 20
780.985582907781
 30
0.0
 10
452.8991325017422
 20
781.2626806157982
 30
0.0
 10
452.781505228329
 20
781.3395366500238
 30
0.0
 10
452.5758253728916
 20
781.4843591603683
 30
0.0
 10
452.2239500971147
 20
781.781100579504
 30
0.0
 10
451.8808740712537
 20
782.1579079690357
 30
0.0
 10
451.6114374166183
 20
782.6677201073628
 30
0.0
 10
451.5485215588733
 20
783.0290355861111
 30
0.0
 10
451.5487846467381
 20
783.2037007208344
 30
0.0
  0
LINE
  5
E4
330
1F
100
AcDbEntity
  8
Make2D$___$___
100
AcDbLine
 10
451.5487862920865
 20
783.2074886883004
 30
0.0
 11
451.5487862920864
 21
787.0659027826762
 31
0.0
  0
ARC
  5
E5
330
1F
100
AcDbEntity
  8
Make2D$___$___
100
AcDbCircle
 10
467.7044420599423
 20
783.4656580353256
 30
0.0
 40
2.794865843999181
100
AcDbArc
 50
69.85803213854095
 51
93.19261762300627
  0
SPLINE
  5
E6
330
1F
100
AcDbEntity
  8
Make2D$___$___
100
AcDbSpline
210
0.0
220
0.0
230
1.0
 70
     8
 71
     3
 72
    15
 73
    11
 74
     0
 42
0.000000001
 43
0.0000000001
 12
1.0
 22
0.0
 32
0.0
 13
1.0
 23
0.0
 33
0.0
 40
0.620950137255565
 40
0.620950137255565
 40
0.620950137255565
 40
0.620950137255565
 40
0.8353475564928411
 40
0.8353475564928411
 40
1.181569841259493
 40
1.181569841259493
 40
1.181569841259493
 40
1.713113590948069
 40
1.713113590948069
 40
2.256234816320001
 40
2.256234816320001
 40
2.256234816320001
 40
2.256234816320001
 10
468.6668470355013
 20
779.7774337682513
 30
0.0
 10
468.6683319097618
 20
779.7761803306064
 30
0.0
 10
468.6592558963727
 20
779.7830634461077
 30
0.0
 10
468.608727235119
 20
779.806146869623
 30
0.0
 10
468.5527893043322
 20
779.8265118943707
 30
0.0
 10
468.4825034346148
 20
779.8449975541114
 30
0.0
 10
468.3745265742027
 20
779.8733961996636
 30
0.0
 10
468.2271429834008
 20
779.8995195737666
 30
0.0
 10
467.9064476846534
 20
779.934583683222
 30
0.0
 10
467.7275363391302
 20
779.9443456322728
 30
0.0
 10
467.5487879916361
 20
779.9440236222574
 30
0.0
  0
ARC
  5
E7
330
1F
100
AcDbEntity
  8
Make2D$___$___
100
AcDbCircle
 10
467.7044420622312
 20
780.3095768297313
 30
0.0
 40
2.794865809357502
100
AcDbArc
 50
69.85803189259019
 51
93.19261770794431
  0
SPLINE
  5
E8
330
1F
100
AcDbEntity
  8
Make2D$___$___
100
AcDbSpline
210
0.0
220
0.0
230
1.0
 70
     8
 71
     3
 72
    23
 73
    19
 74
     0
 42
0.000000001
 43
0.0000000001
 12
1.0
 22
0.0
 32
0.0
 13
1.0
 23
0.0
 33
0.0
 40
0.0
 40
0.0
 40
0.0
 40
0.0
 40
0.2604596973090447
 40
0.5239890364874055
 40
1.085234543378791
 40
1.712321118330766
 40
2.465742812941287
 40
2.465742812941287
 40
2.465742812941287
 40
5.640166817743875
 40
5.640166817743875
 40
8.802617852075837
 40
8.802617852075837
 40
8.802617852075837
 40
15.14149121152153
 40
15.14149121152153
 40
15.14149121152153
 40
21.16836856413709
 40
21.16836856413709
 40
21.16836856413709
 40
21.16836856413709
 10
483.5487879374358
 20
783.2037007202887
 30
0.0
 10
483.5488223611395
 20
783.1167952829819
 30
0.0
 10
483.5340273638565
 20
782.9423894502919
 30
0.0
 10
483.4450970354918
 20
782.5901160019773
 30
0.0
 10
483.2167289219589
 20
782.1579586225686
 30
0.0
 10
482.7784426875209
 20
781.6764811175557
 30
0.0
 10
482.4087392494925
 20
781.3999118809256
 30
0.0
 10
482.1984400824422
 20
781.2626806157832
 30
0.0
 10
481.7736292144947
 20
780.9855829079459
 30
0.0
 10
481.2594205286165
 20
780.730149938682
 30
0.0
 10
480.0662214218871
 20
780.2555363444601
 30
0.0
 10
479.3886553412221
 20
780.037103798928
 30
0.0
 10
478.636623975091
 20
779.839314458306
 30
0.0
 10
477.136805221559
 20
779.4448519722005
 30
0.0
 10
475.347209751476
 20
779.1341327984949
 30
0.0
 10
473.3965639907788
 20
778.9272735468285
 30
0.0
 10
471.5419063652359
 20
778.7305935056609
 30
0.0
 10
469.5459846628951
 20
778.6287497348612
 30
0.0
 10
467.5487862920873
 20
778.6289897690224
 30
0.0
  0
SPLINE
  5
E9
330
1F
100
AcDbEntity
  8
Make2D$___$___
100
AcDbSpline
210
0.0
220
0.0
230
1.0
 70
     8
 71
     3
 72
    14
 73
    10
 74
     0
 42
0.000000001
 43
0.0000000001
 12
1.0
 22
0.0
 32
0.0
 13
1.0
 23
0.0
 33
0.0
 40
0.0
 40
0.0
 40
0.0
 40
0.0
 40
0.0449067526976929
 40
0.1026937694743815
 40
0.2460352362886843
 40
0.613065350679354
 40
0.613065350679354
 40
0.613065350679354
 40
1.720065627088288
 40
1.720065627088288
 40
1.720065627088288
 40
1.720065627088288
 10
479.7502280144457
 20
784.1441167576198
 30
0.0
 10
479.7372322332509
 20
784.1515785159675
 30
0.0
 10
479.7059302591437
 20
784.1655278817852
 30
0.0
 10
479.6287045622842
 20
784.1932923997728
 30
0.0
 10
479.4454667277843
 20
784.2419039131748
 30
0.0
 10
479.2768946465807
 20
784.2673398755202
 30
0.0
 10
479.1553501499694
 20
784.2808913919735
 30
0.0
 10
478.8334301807702
 20
784.3159616664977
 30
0.0
 10
478.4373307771863
 20
784.3165409799694
 30
0.0
 10
478.1156073468361
 20
784.2808110345509
 30
0.0
  0
ARC
  5
EA
330
1F
100
AcDbEntity
  8
Make2D$___$___
100
AcDbCircle
 10
478.2718361881059
 20
782.2439899805031
 30
0.0
 40
2.042794753033766
100
AcDbArc
 50
94.39410180315637
 51
111.6774402974357
  0
ARC
  5
EB
330
1F
100
AcDbEntity
  8
Make2D$___$___
100
AcDbCircle
 10
476.0340676663186
 20
780.8888744906861
 30
0.0
 40
4.443019739407645
100
AcDbArc
 50
77.88180292081702
 51
102.1181970785245
  0
LINE
  5
EC
330
1F
100
AcDbEntity
  8
Make2D$___$___
100
AcDbLine
 10
475.0998314215461
 20
785.2324896526966
 30
0.0
 11
474.917485847497
 21
785.166145037244
 31
0.0
  0
LINE
  5
ED
330
1F
100
AcDbEntity
  8
Make2D$___$___
100
AcDbLine
 10
477.1509442482891
 20
785.1660155486738
 30
0.0
 11
476.9683039111036
 21
785.2324896526964
 31
0.0
  0
SPLINE
  5
EE
330
1F
100
AcDbEntity
  8
Make2D$___$___
100
AcDbSpline
210
0.0
220
0.0
230
1.0
 70
     8
 71
     3
 72
    16
 73
    12
 74
     0
 42
0.000000001
 43
0.0000000001
 12
1.0
 22
0.0
 32
0.0
 13
1.0
 23
0.0
 33
0.0
 40
0.0
 40
0.0
 40
0.0
 40
0.0
 40
1.107000262598185
 40
1.107000262598185
 40
1.107000262598185
 40
1.201261475278146
 40
1.291452595402712
 40
1.474030383540261
 40
1.617371853165489
 40
1.675158871273894
 40
1.719160478433525
 40
1.719160478433525
 40
1.719160478433525
 40
1.719160478433525
 10
472.6607208158587
 20
785.9888698936063
 30
0.0
 10
472.3389973891584
 20
786.0245998385858
 30
0.0
 10
471.9428979912065
 20
786.0240205256678
 30
0.0
 10
471.6209780241371
 20
785.9889502522738
 30
0.0
 10
471.5897437136944
 20
785.9855320066586
 30
0.0
 10
471.5287014602907
 20
785.9781403616195
 30
0.0
 10
471.4076763504644
 20
785.9601415501648
 30
0.0
 10
471.2713402975974
 20
785.9343193618776
 30
0.0
 10
471.1476394642988
 20
785.9012871088364
 30
0.0
 10
471.0706738917513
 20
785.8737184432684
 30
0.0
 10
471.0396534468012
 20
785.8598669394048
 30
0.0
 10
471.0268809097894
 20
785.852633548307
 30
0.0
  0
ARC
  5
EF
330
1F
100
AcDbEntity
  8
Make2D$___$___
100
AcDbCircle
 10
470.9755485207119
 20
785.9161537172222
 30
0.0
 40
0.0811200614917112
100
AcDbArc
 50
303.4526847822833
 51
308.9758138815619
  0
ARC
  5
F0
330
1F
100
AcDbEntity
  8
Make2D$___$___
100
AcDbCircle
 10
472.5043045251668
 20
783.9512392133772
 30
0.0
 40
2.043616364948674
100
AcDbArc
 50
68.32606055448487
 51
85.60239734505144
  0
SPLINE
  5
F1
330
1F
100
AcDbEntity
  8
Make2D$___$___
100
AcDbSpline
210
0.0
220
0.0
230
1.0
 70
     8
 71
     3
 72
    18
 73
    14
 74
     0
 42
0.000000001
 43
0.0000000001
 12
1.0
 22
0.0
 32
0.0
 13
1.0
 23
0.0
 33
0.0
 40
0.0
 40
0.0
 40
0.0
 40
0.0
 40
0.0021625689991812
 40
0.0047152093047084
 40
0.0095787114298345
 40
0.0198057545531552
 40
0.0449633204617872
 40
0.1027503372389252
 40
0.2460918040537144
 40
0.6131219184444342
 40
0.6131219184444342
 40
0.6131219184444342
 40
1.720122194853237
 40
1.720122194853237
 40
1.720122194853237
 40
1.720122194853237
 10
473.255827732161
 20
780.0205294051746
 30
0.0
 10
473.2553812141657
 20
780.0207862072448
 30
0.0
 10
473.2539078812966
 20
780.0216485402326
 30
0.0
 10
473.2511674974881
 20
780.0231731151565
 30
0.0
 10
473.245961103697
 20
780.0259462353197
 30
0.0
 10
473.233919339074
 20
780.0318647073723
 30
0.0
 10
473.2053942272655
 20
780.0441594729466
 30
0.0
 10
473.1343419850685
 20
780.069660841603
 30
0.0
 10
472.9511246680984
 20
780.1183001294164
 30
0.0
 10
472.7825355882132
 20
780.1437130883606
 30
0.0
 10
472.660996948215
 20
780.157272529108
 30
0.0
 10
472.3390769790154
 20
780.1923428036323
 30
0.0
 10
471.9429775754323
 20
780.192922117104
 30
0.0
 10
471.6212541450818
 20
780.1571921716854
 30
0.0
  0
ARC
  5
F2
330
1F
100
AcDbEntity
  8
Make2D$___$___
100
AcDbCircle
 10
471.7774829858117
 20
778.1203711211762
 30
0.0
 40
2.042794749463893
100
AcDbArc
 50
94.39410179584667
 51
111.6774403322495
  0
LINE
  5
F3
330
1F
100
AcDbEntity
  8
Make2D$___$___
100
AcDbLine
 10
477.1509442497448
 20
780.7026426532019
 30
0.0
 11
476.9683039107098
 21
780.769116758655
 31
0.0
  0
ARC
  5
F4
330
1F
100
AcDbEntity
  8
Make2D$___$___
100
AcDbCircle
 10
476.0340676663211
 20
776.4255015965877
 30
0.0
 40
4.443019739363088
100
AcDbArc
 50
77.88180292069966
 51
102.1181970787269
  0
LINE
  5
F5
330
1F
100
AcDbEntity
  8
Make2D$___$___
100
AcDbLine
 10
475.0998314215078
 20
780.7691167585426
 30
0.0
 11
474.9174858475156
 21
780.7027721431282
 31
0.0
  0
ARC
  5
F6
330
1F
100
AcDbEntity
  8
Make2D$___$___
100
AcDbCircle
 10
478.9986577183655
 20
779.8276202997138
 30
0.0
 40
2.043616416255628
100
AcDbArc
 50
68.32606099659719
 51
85.60239721718
  0
SPLINE
  5
F7
330
1F
100
AcDbEntity
  8
Make2D$___$___
100
AcDbSpline
210
0.0
220
0.0
230
1.0
 70
     8
 71
     3
 72
    16
 73
    12
 74
     0
 42
0.000000001
 43
0.0000000001
 12
1.0
 22
0.0
 32
0.0
 13
1.0
 23
0.0
 33
0.0
 40
0.0
 40
0.0
 40
0.0
 40
0.0
 40
1.107000262597385
 40
1.107000262597385
 40
1.107000262597385
 40
1.201261475277434
 40
1.291452595401915
 40
1.47403038353958
 40
1.617371853164608
 40
1.675158871272768
 40
1.719160478433627
 40
1.719160478433627
 40
1.719160478433627
 40
1.719160478433627
 10
479.1550740176133
 20
781.8652510307413
 30
0.0
 10
478.8333505909128
 20
781.9009809757199
 30
0.0
 10
478.4372511929605
 20
781.9004016628023
 30
0.0
 10
478.1153312258914
 20
781.8653313894081
 30
0.0
 10
478.0840969154482
 20
781.8619131437919
 30
0.0
 10
478.0230546620471
 20
781.854521498756
 30
0.0
 10
477.9020295522156
 20
781.8365226872936
 30
0.0
 10
477.765693499353
 20
781.8107004990131
 30
0.0
 10
477.6419926660531
 20
781.7776682459712
 30
0.0
 10
477.5650270935056
 20
781.7500995804019
 30
0.0
 10
477.5340066485554
 20
781.73624807654
 30
0.0
 10
477.5212341115429
 20
781.7290146854411
 30
0.0
  0
ARC
  5
F8
330
1F
100
AcDbEntity
  8
Make2D$___$___
100
AcDbCircle
 10
477.4699017220948
 20
781.7925348547295
 30
0.0
 40
0.0811200620032706
100
AcDbArc
 50
303.4526847454744
 51
308.9758139197493
  0
ARC
  5
F9
330
1F
100
AcDbEntity
  8
Make2D$___$___
100
AcDbCircle
 10
473.9971027103572
 20
780.0426939309158
 30
0.0
 40
4.296169313224067
100
AcDbArc
 50
75.63565496204083
 51
100.2380281790741
  0
ARC
  5
FA
330
1F
100
AcDbEntity
  8
Make2D$___$___
100
AcDbCircle
 10
473.3943462417783
 20
783.13729395939
 30
0.0
 40
1.144481740626669
100
AcDbArc
 50
98.12102911117098
 51
115.4369112865179
  0
ARC
  5
FB
330
1F
100
AcDbEntity
  8
Make2D$___$___
100
AcDbCircle
 10
474.9467319886392
 20
783.8341848923274
 30
0.0
 40
0.3880577418479845
100
AcDbArc
 50
60.56070029481251
 51
72.16758634067757
  0
SPLINE
  5
FC
330
1F
100
AcDbEntity
  8
Make2D$___$___
100
AcDbSpline
210
0.0
220
0.0
230
1.0
 70
     8
 71
     3
 72
    16
 73
    12
 74
     0
 42
0.000000001
 43
0.0000000001
 12
1.0
 22
0.0
 32
0.0
 13
1.0
 23
0.0
 33
0.0
 40
0.0
 40
0.0
 40
0.0
 40
0.0
 40
1.106755855883881
 40
1.106755855883881
 40
1.106755855883881
 40
1.174105282194511
 40
1.259935844756274
 40
1.413498774067384
 40
1.535259787832227
 40
1.590158428141187
 40
1.627051680381743
 40
1.627051680381743
 40
1.627051680381743
 40
1.627051680381743
 10
470.4417871203538
 20
785.0836939104349
 30
0.0
 10
470.1083956483254
 20
785.1128498537907
 30
0.0
 10
469.7137481732938
 20
785.1039189054814
 30
0.0
 10
469.4061887901933
 20
785.0627032904567
 30
0.0
 10
469.3839384270134
 20
785.0597106420357
 30
0.0
 10
469.3333996464951
 20
785.0524309329539
 30
0.0
 10
469.2325861598865
 20
785.0352775366023
 30
0.0
 10
469.1147618932665
 20
785.0103942258302
 30
0.0
 10
469.0087515622925
 20
784.9803642107161
 30
0.0
 10
468.9421305788103
 20
784.9551617864411
 30
0.0
 10
468.9142839822953
 20
784.9424087531831
 30
0.0
 10
468.9036772822287
 20
784.9361600445076
 30
0.0
  0
ARC
  5
FD
330
1F
100
AcDbEntity
  8
Make2D$___$___
100
AcDbCircle
 10
470.3605060341762
 20
782.9857571400528
 30
0.0
 40
2.099502561784902
100
AcDbArc
 50
68.27016710442386
 51
87.77648763755866
  0
SPLINE
  5
FE
330
1F
100
AcDbEntity
  8
Make2D$___$___
100
AcDbSpline
210
0.0
220
0.0
230
1.0
 70
     8
 71
     3
 72
    15
 73
    11
 74
     0
 42
0.000000001
 43
0.0000000001
 12
1.0
 22
0.0
 32
0.0
 13
1.0
 23
0.0
 33
0.0
 40
0.0
 40
0.0
 40
0.0
 40
0.0
 40
0.0006390668623615
 40
0.0377228758676218
 40
0.092621514484419
 40
0.214382525173015
 40
0.521125437470665
 40
0.521125437470665
 40
0.521125437470665
 40
1.627881307132462
 40
1.627881307132462
 40
1.627881307132462
 40
1.627881307132462
 10
471.137798152242
 20
780.9342663378713
 30
0.0
 10
471.1386399386848
 20
780.9337454463316
 30
0.0
 10
471.1279189489024
 20
780.940083832398
 30
0.0
 10
471.0997418162257
 20
780.9529917363022
 30
0.0
 10
471.0331182202273
 20
780.9782463593039
 30
0.0
 10
470.8778544821938
 20
781.0220303913543
 30
0.0
 10
470.7369489849074
 20
781.0467551670877
 30
0.0
 10
470.6356557148491
 20
781.0605544494647
 30
0.0
 10
470.328096330107
 20
781.101770065631
 30
0.0
 10
469.9334488496125
 20
781.110701014614
 30
0.0
 10
469.6000573738207
 20
781.0815450708994
 30
0.0
  0
ARC
  5
FF
330
1F
100
AcDbEntity
  8
Make2D$___$___
100
AcDbCircle
 10
469.6676161265902
 20
779.0478885469935
 30
0.0
 40
2.034769239802068
100
AcDbArc
 50
91.90762837306242
 51
112.040108980907
  0
ARC
  5
100
330
1F
100
AcDbEntity
  8
Make2D$___$___
100
AcDbCircle
 10
474.5992195849216
 20
780.502955250673
 30
0.0
 40
1.310802969251317
100
AcDbArc
 50
65.6840140077397
 51
80.7831433628118
  0
ARC
  5
101
330
1F
100
AcDbEntity
  8
Make2D$___$___
100
AcDbCircle
 10
474.0447417837871
 20
777.5692299202742
 30
0.0
 40
4.296169313004424
100
AcDbArc
 50
79.7619718197495
 51
104.3643450374048
  0
ARC
  5
102
330
1F
100
AcDbEntity
  8
Make2D$___$___
100
AcDbCircle
 10
473.1037575634966
 20
781.3410829948433
 30
0.0
 40
0.4094055585265776
100
AcDbArc
 50
108.1425318386361
 51
119.1261760844906
  0
SPLINE
  5
103
330
1F
100
AcDbEntity
  8
Make2D$___$___
100
AcDbSpline
210
0.0
220
0.0
230
1.0
 70
     8
 71
     3
 72
    13
 73
     9
 74
     0
 42
0.000000001
 43
0.0000000001
 12
1.0
 22
0.0
 32
0.0
 13
1.0
 23
0.0
 33
0.0
 40
0.0
 40
0.0
 40
0.0
 40
0.0
 40
1.106643702897472
 40
1.106643702897472
 40
1.106643702897472
 40
1.65039286465728
 40
1.65039286465728
 40
2.172777037803455
 40
2.172777037803455
 40
2.172777037803455
 40
2.172777037803455
 10
470.223452167382
 20
783.9640407579873
 30
0.0
 10
469.928159678865
 20
784.0095922843702
 30
0.0
 10
469.5345712602684
 20
784.0229682445722
 30
0.0
 10
469.1956151275322
 20
783.9990811753344
 30
0.0
 10
469.02613409322
 20
783.9871374315571
 30
0.0
 10
468.8658677980171
 20
783.9658746190196
 30
0.0
 10
468.6085399837164
 20
783.9140809885366
 30
0.0
 10
468.5005468050069
 20
783.8790559507609
 30
0.0
 10
468.4589358741785
 20
783.8597969575258
 30
0.0
  0
ARC
  5
104
330
1F
100
AcDbEntity
  8
Make2D$___$___
100
AcDbCircle
 10
468.5244621210493
 20
783.6975711164896
 30
0.0
 40
0.1748275832059047
100
AcDbArc
 50
113.3592888059121
 51
122.1910390192312
  0
ARC
  5
105
330
1F
100
AcDbEntity
  8
Make2D$___$___
100
AcDbCircle
 10
470.0914143226991
 20
782.5857951487528
 30
0.0
 40
1.384525828793398
100
AcDbArc
 50
65.40763833420714
 51
84.5051052541748
  0
ARC
  5
106
330
1F
100
AcDbEntity
  8
Make2D$___$___
100
AcDbCircle
 10
470.5648293953728
 20
781.8587922338277
 30
0.0
 40
0.1933663987868058
100
AcDbArc
 50
58.4487646172273
 51
66.34003750448638
  0
SPLINE
  5
107
330
1F
100
AcDbEntity
  8
Make2D$___$___
100
AcDbSpline
210
0.0
220
0.0
230
1.0
 70
     8
 71
     3
 72
    13
 73
     9
 74
     0
 42
0.000000001
 43
0.0000000001
 12
1.0
 22
0.0
 32
0.0
 13
1.0
 23
0.0
 33
0.0
 40
0.0
 40
0.0
 40
0.0
 40
0.0
 40
0.522384166908353
 40
0.522384166908353
 40
1.06613332181065
 40
1.06613332181065
 40
1.06613332181065
 40
2.172777038573835
 40
2.172777038573835
 40
2.172777038573835
 40
2.172777038573835
 10
470.638636710094
 20
782.0376326037428
 30
0.0
 10
470.5970257795417
 20
782.056891596834
 30
0.0
 10
470.4890326029347
 20
782.0919166340625
 30
0.0
 10
470.2317047929999
 20
782.1437102641762
 30
0.0
 10
470.0714385005151
 20
782.1649730767137
 30
0.0
 10
469.9019574687471
 20
782.1769168207443
 30
0.0
 10
469.5630013331721
 20
782.2008038910476
 30
0.0
 10
469.1694129086736
 20
782.187427931189
 30
0.0
 10
468.874120416803
 20
782.1418764042526
 30
0.0
  0
ARC
  5
108
330
1F
100
AcDbEntity
  8
Make2D$___$___
100
AcDbCircle
 10
469.012642939146
 20
780.7396505647815
 30
0.0
 40
1.409022954047767
100
AcDbArc
 50
95.66399825132564
 51
114.4361547755591
  0
ARC
  5
109
330
1F
100
AcDbEntity
  8
Make2D$___$___
100
AcDbCircle
 10
479.7044413720276
 20
780.3095737341561
 30
0.0
 40
2.794868953284517
100
AcDbArc
 50
69.85804046094205
 51
93.19263483697388
  0
ARC
  5
10A
330
1F
100
AcDbEntity
  8
Make2D$___$___
100
AcDbCircle
 10
479.3986979692897
 20
780.2715916262264
 30
0.0
 40
2.832492474140118
100
AcDbArc
 50
86.96258444614853
 51
109.974796145857
  0
SPLINE
  5
10B
330
1F
100
AcDbEntity
  8
Make2D$___$___
100
AcDbSpline
210
0.0
220
0.0
230
1.0
 70
     8
 71
     3
 72
    15
 73
    11
 74
     0
 42
0.000000001
 43
0.0000000001
 12
1.0
 22
0.0
 32
0.0
 13
1.0
 23
0.0
 33
0.0
 40
0.6209501775374501
 40
0.6209501775374501
 40
0.6209501775374501
 40
0.6209501775374501
 40
0.8353476691703312
 40
0.8353476691703312
 40
1.181570015040767
 40
1.181570015040767
 40
1.181570015040767
 40
1.7131136813393
 40
1.7131136813393
 40
2.256236536564461
 40
2.256236536564461
 40
2.256236536564461
 40
2.256236536564461
 10
476.666847037269
 20
782.9335150066591
 30
0.0
 10
476.6683319074875
 20
782.9322615715946
 30
0.0
 10
476.6592558828028
 20
782.939144694225
 30
0.0
 10
476.608727183218
 20
782.9622281306952
 30
0.0
 10
476.5527892262822
 20
782.9825931599996
 30
0.0
 10
476.4825033295525
 20
783.0010788221571
 30
0.0
 10
476.3745264624073
 20
783.0294774622791
 30
0.0
 10
476.2271428861268
 20
783.0556008280282
 30
0.0
 10
475.9064471131247
 20
783.0906649828808
 30
0.0
 10
475.7275351759114
 20
783.1004269343268
 30
0.0
 10
475.5487862920856
 20
783.100104859609
 30
0.0
  0
ARC
  5
10C
330
1F
100
AcDbEntity
  8
Make2D$___$___
100
AcDbCircle
 10
475.3986979692901
 20
780.2715916262187
 30
0.0
 40
2.83249247414781
100
AcDbArc
 50
86.96258444616714
 51
109.9747961458067
  0
ARC
  5
10D
330
1F
100
AcDbEntity
  8
Make2D$___$___
100
AcDbCircle
 10
471.7044413720288
 20
780.3095737341629
 30
0.0
 40
2.794868953277741
100
AcDbArc
 50
69.85804046091468
 51
93.19263483700843
  0
ARC
  5
10E
330
1F
100
AcDbEntity
  8
Make2D$___$___
100
AcDbCircle
 10
471.3986979692909
 20
780.2715916262185
 30
0.0
 40
2.832492474147882
100
AcDbArc
 50
86.96258444618334
 51
109.9747961458255
  0
ARC
  5
10F
330
1F
100
AcDbEntity
  8
Make2D$___$___
100
AcDbCircle
 10
480.0749014087338
 20
726.3474456826195
 30
0.0
 40
0.4999995016198548
100
AcDbArc
 50
3.06128691681061
 51
69.07649684221626
  0
LINE
  5
110
330
1F
100
AcDbEntity
  8
Make2D$___$___
100
AcDbLine
 10
479.9953606733836
 20
726.8474465295916
 30
0.0
 11
480.0748970293884
 21
726.8474465295917
 31
0.0
  0
LINE
  5
111
330
1F
100
AcDbEntity
  8
Make2D$___$___
100
AcDbLine
 10
493.122500184573
 20
626.3712913266422
 30
0.0
 11
519.4752990812009
 21
632.2204804315128
 31
0.0
  0
LINE
  5
112
330
1F
100
AcDbEntity
  8
Make2D$___$___
100
AcDbLine
 10
521.9619331943229
 20
586.5847284429283
 30
0.0
 11
495.5516815129101
 21
571.9443687142846
 31
0.0
  0
LINE
  5
113
330
1F
100
AcDbEntity
  8
Make2D$___$___
100
AcDbLine
 10
546.0311790607582
 20
729.8460956473793
 30
0.0
 11
546.0822888760637
 21
729.8474444405575
 31
0.0
  0
LINE
  5
114
330
1F
100
AcDbEntity
  8
Make2D$___$___
100
AcDbLine
 10
546.0113724168943
 20
729.8448456636913
 30
0.0
 11
546.0311187118311
 21
729.8465799463969
 31
0.0
  0
LINE
  5
115
330
1F
100
AcDbEntity
  8
Make2D$___$___
100
AcDbLine
 10
545.9635865299649
 20
729.8402742932226
 30
0.0
 11
546.011366629025
 21
729.8448674953044
 31
0.0
  0
LINE
  5
116
330
1F
100
AcDbEntity
  8
Make2D$___$___
100
AcDbLine
 10
545.9635886116133
 20
729.840256210526
 30
0.0
 11
545.9620760095102
 21
729.840085184
 31
0.0
  0
LINE
  5
117
330
1F
100
AcDbEntity
  8
Make2D$___$___
100
AcDbLine
 10
545.9290782775065
 20
729.8364123191175
 30
0.0
 11
545.9215727241401
 21
729.8352991798293
 31
0.0
  0
LINE
  5
118
330
1F
100
AcDbEntity
  8
Make2D$___$___
100
AcDbLine
 10
545.9589852830087
 20
729.8397887502335
 30
0.0
 11
545.9620578734848
 21
729.8402147214238
 31
0.0
  0
ARC
  5
119
330
1F
100
AcDbEntity
  8
Make2D$___$___
100
AcDbCircle
 10
545.6705284949207
 20
731.8739926768891
 30
0.0
 40
2.054634185362495
100
AcDbArc
 50
277.4966964528929
 51
278.0709344897747
  0
LINE
  5
11A
330
1F
100
AcDbEntity
  8
Make2D$___$___
100
AcDbLine
 10
545.9164050752015
 20
729.833448286828
 30
0.0
 11
545.938590557566
 21
729.8369441075477
 31
0.0
  0
SPLINE
  5
11B
330
1F
100
AcDbEntity
  8
Make2D$___$___
100
AcDbSpline
210
0.0
220
0.0
230
1.0
 70
     8
 71
     3
 72
    12
 73
     8
 74
     0
 42
0.000000001
 43
0.0000000001
 12
1.0
 22
0.0
 32
0.0
 13
1.0
 23
0.0
 33
0.0
 40
1.994939466081098
 40
1.994939466081098
 40
1.994939466081098
 40
1.994939466081098
 40
1.998165354168409
 40
1.998165354168409
 40
2.002566976217
 40
2.002566976217
 40
2.006495855081496
 40
2.006495855081496
 40
2.006495855081496
 40
2.006495855081496
 10
545.8994909289648
 20
729.8304290224639
 30
0.0
 10
545.898750156127
 20
729.8303003229922
 30
0.0
 10
545.8998231191488
 20
729.8305010117427
 30
0.0
 10
545.9023608602013
 20
729.8309713757527
 30
0.0
 10
545.9038259376438
 20
729.8312395400243
 30
0.0
 10
545.9065998273628
 20
729.8317408640129
 30
0.0
 10
545.9079085541097
 20
729.8319746955115
 30
0.0
 10
545.9092177384973
 20
729.8322059157338
 30
0.0
  0
LINE
  5
11C
330
1F
100
AcDbEntity
  8
Make2D$___$___
100
AcDbLine
 10
545.9092177384731
 20
729.8322059158368
 30
0.0
 11
545.9164068218653
 21
729.8334367605672
 31
0.0
  0
LINE
  5
11D
330
1F
100
AcDbEntity
  8
Make2D$___$___
100
AcDbLine
 10
545.8961656203776
 20
729.8298133491227
 30
0.0
 11
545.8994891884826
 21
729.8304379538669
 31
0.0
  0
ARC
  5
11E
330
1F
100
AcDbEntity
  8
Make2D$___$___
100
AcDbCircle
 10
545.8725637952018
 20
729.8181753616568
 30
0.0
 40
0.0066581773698408
100
AcDbArc
 50
99.96636625671826
 51
110.6672986503346
  0
ARC
  5
11F
330
1F
100
AcDbEntity
  8
Make2D$___$___
100
AcDbCircle
 10
545.5239247838123
 20
731.53999420463
 30
0.0
 40
1.750227721117352
100
AcDbArc
 50
281.4523268946493
 51
282.27956158528
  0
ARC
  5
120
330
1F
100
AcDbEntity
  8
Make2D$___$___
100
AcDbCircle
 10
546.0719919749961
 20
728.8964299721727
 30
0.0
 40
0.9497662242759173
100
AcDbArc
 50
102.267752857848
 51
104.3645488193442
  0
LINE
  5
121
330
1F
100
AcDbEntity
  8
Make2D$___$___
100
AcDbLine
 10
545.8328467480404
 20
729.8156178676848
 30
0.0
 11
545.836360095532
 21
729.8165179608212
 31
0.0
  0
ARC
  5
122
330
1F
100
AcDbEntity
  8
Make2D$___$___
100
AcDbCircle
 10
546.0831296439262
 20
728.847449757346
 30
0.0
 40
0.9999898174470403
100
AcDbArc
 50
104.4942925701757
 51
181.9351370639017
  0
LINE
  5
123
330
1F
100
AcDbEntity
  8
Make2D$___$___
100
AcDbLine
 10
546.7123411957958
 20
729.8474465295919
 30
0.0
 11
546.0837325260835
 21
729.8474465295917
 31
0.0
  0
LINE
  5
124
330
1F
100
AcDbEntity
  8
Make2D$___$___
100
AcDbLine
 10
564.0144319990226
 20
729.8474465295917
 30
0.0
 11
563.3852313883458
 21
729.8474465295917
 31
0.0
  0
ARC
  5
125
330
1F
100
AcDbEntity
  8
Make2D$___$___
100
AcDbCircle
 10
564.0144331147438
 20
728.8474466552609
 30
0.0
 40
0.9999995326022573
100
AcDbArc
 50
358.0650595812862
 51
71.82603703986312
  0
LINE
  5
126
330
1F
100
AcDbEntity
  8
Make2D$___$___
100
AcDbLine
 10
562.0993901987814
 20
655.8486036518807
 30
0.0
 11
562.0653929293378
 21
655.8474465295917
 31
0.0
  0
LINE
  5
127
330
1F
100
AcDbEntity
  8
Make2D$___$___
100
AcDbLine
 10
562.1239619700541
 20
655.8508886568177
 30
0.0
 11
562.1201890160671
 21
655.8504581606003
 31
0.0
  0
LINE
  5
128
330
1F
100
AcDbEntity
  8
Make2D$___$___
100
AcDbLine
 10
562.1201890160722
 20
655.850458160566
 30
0.0
 11
562.099418484759
 21
655.8482388068718
 31
0.0
  0
ARC
  5
129
330
1F
100
AcDbEntity
  8
Make2D$___$___
100
AcDbCircle
 10
562.0653933867771
 20
656.347446572972
 30
0.0
 40
0.5000000429784307
100
AcDbArc
 50
276.7269083664586
 51
283.7132503003302
  0
ARC
  5
12A
330
1F
100
AcDbEntity
  8
Make2D$___$___
100
AcDbCircle
 10
562.0654013838251
 20
656.3474396854621
 30
0.0
 40
0.4999918046172691
100
AcDbArc
 50
283.7125476891901
 51
358.0658188235697
  0
LINE
  5
12B
330
1F
100
AcDbEntity
  8
Make2D$___$___
100
AcDbLine
 10
562.057637194356
 20
655.8474465295916
 30
0.0
 11
562.0653933826595
 21
655.8474465295916
 31
0.0
  0
LINE
  5
12C
330
1F
100
AcDbEntity
  8
Make2D$___$___
100
AcDbLine
 10
562.0313065196893
 20
655.8474465295914
 30
0.0
 11
562.0342332983594
 21
655.8474465295915
 31
0.0
  0
LINE
  5
12D
330
1F
100
AcDbEntity
  8
Make2D$___$___
100
AcDbLine
 10
561.891839771642
 20
655.8474465295916
 30
0.0
 11
562.0001839974964
 21
655.8474465295915
 31
0.0
  0
LINE
  5
12E
330
1F
100
AcDbEntity
  8
Make2D$___$___
100
AcDbLine
 10
561.8552521455051
 20
655.8474465295917
 30
0.0
 11
561.8715069743544
 21
655.8474465295917
 31
0.0
  0
LINE
  5
12F
330
1F
100
AcDbEntity
  8
Make2D$___$___
100
AcDbLine
 10
561.8148990090405
 20
655.8474465295918
 30
0.0
 11
561.8310798815668
 21
655.8474465295918
 31
0.0
  0
LINE
  5
130
330
1F
100
AcDbEntity
  8
Make2D$___$___
100
AcDbLine
 10
561.7707979210207
 20
655.8474465295917
 30
0.0
 11
561.7868979748466
 21
655.8474465295918
 31
0.0
  0
LINE
  5
131
330
1F
100
AcDbEntity
  8
Make2D$___$___
100
AcDbLine
 10
561.7229664402189
 20
655.8474465295918
 30
0.0
 11
561.7389788499353
 21
655.8474465295918
 31
0.0
  0
LINE
  5
132
330
1F
100
AcDbEntity
  8
Make2D$___$___
100
AcDbLine
 10
561.6714221254073
 20
655.8474465295914
 30
0.0
 11
561.6873400908098
 21
655.8474465295915
 31
0.0
  0
LINE
  5
133
330
1F
100
AcDbEntity
  8
Make2D$___$___
100
AcDbLine
 10
561.6161825353594
 20
655.8474465295918
 30
0.0
 11
561.6319992947004
 21
655.8474465295918
 31
0.0
  0
LINE
  5
134
330
1F
100
AcDbEntity
  8
Make2D$___$___
100
AcDbLine
 10
548.3055077684504
 20
655.8474465295916
 30
0.0
 11
548.5245985307441
 21
655.8474465295916
 31
0.0
  0
LINE
  5
135
330
1F
100
AcDbEntity
  8
Make2D$___$___
100
AcDbLine
 10
548.0321792015152
 20
655.8474465295917
 30
0.0
 11
548.2292558957369
 21
655.8474465295916
 31
0.0
  0
ARC
  5
136
330
1F
100
AcDbEntity
  8
Make2D$___$___
100
AcDbCircle
 10
548.0321791678571
 20
656.3474467237714
 30
0.0
 40
0.500000005184216
100
AcDbArc
 50
181.9349564324776
 51
248.8273001445136
  0
SPLINE
  5
137
330
1F
100
AcDbEntity
  8
Make2D$___$___
100
AcDbSpline
210
0.0
220
0.0
230
1.0
 70
     8
 71
     3
 72
    21
 73
    17
 74
     0
 42
0.000000001
 43
0.0000000001
 12
1.0
 22
0.0
 32
0.0
 13
1.0
 23
0.0
 33
0.0
 40
0.0
 40
0.0
 40
0.0
 40
0.0
 40
0.0393172886140923
 40
0.0721339739071338
 40
0.1463674110922862
 40
0.1829136657186819
 40
0.1921691455457202
 40
0.1968198820551944
 40
0.1980200187032367
 40
0.1986750102135137
 40
0.1989657926492931
 40
0.1993973179107509
 40
0.2000972779810992
 40
0.2023956875966994
 40
0.2209725855441808
 40
0.2945230268320097
 40
0.2945230268320097
 40
0.2945230268320097
 40
0.2945230268320097
 10
547.7715265455583
 20
655.7457982685223
 30
0.0
 10
547.7819696255118
 20
655.7537147727244
 30
0.0
 10
547.8016930175612
 20
655.7675058274722
 30
0.0
 10
547.8436234490223
 20
655.7925039592158
 30
0.0
 10
547.8872592635774
 20
655.8124858435764
 30
0.0
 10
547.9252584520781
 20
655.8251039318031
 30
0.0
 10
547.9414489930283
 20
655.8296535729451
 30
0.0
 10
547.9463155868254
 20
655.8309475876993
 30
0.0
 10
547.948414447606
 20
655.8314929426563
 30
0.0
 10
547.9490808587755
 20
655.8316647837262
 30
0.0
 10
547.9496594476802
 20
655.8318131761292
 30
0.0
 10
547.9488906652921
 20
655.8316156777142
 30
0.0
 10
547.9503494012746
 20
655.831990451123
 30
0.0
 10
547.9572302780757
 20
655.8337335729266
 30
0.0
 10
547.9879244348886
 20
655.8408359992725
 30
0.0
 10
548.0184354908708
 20
655.8449870400798
 30
0.0
 10
548.0429058499791
 20
655.8464966300794
 30
0.0
  0
ARC
  5
138
330
1F
100
AcDbEntity
  8
Make2D$___$___
100
AcDbCircle
 10
548.0737202834573
 20
655.3474430881791
 30
0.0
 40
0.5000085023686205
100
AcDbArc
 50
136.1976774920226
 51
182.3941443914373
  0
ARC
  5
139
330
1F
100
AcDbEntity
  8
Make2D$___$___
100
AcDbCircle
 10
562.0488174283287
 20
655.3474692398984
 30
0.0
 40
0.4999663019517157
100
AcDbArc
 50
359.9971260002358
 51
68.4044639252777
  0
ARC
  5
13A
330
1F
100
AcDbEntity
  8
Make2D$___$___
100
AcDbCircle
 10
548.3306965856679
 20
601.1404097092611
 30
0.0
 40
0.5000004269278875
100
AcDbArc
 50
208.6630264508348
 51
209.0454298702449
  0
ARC
  5
13B
330
1F
100
AcDbEntity
  8
Make2D$___$___
100
AcDbCircle
 10
548.3306966273507
 20
601.1404097320383
 30
0.0
 40
0.5000004744252814
100
AcDbArc
 50
209.378553591205
 51
210.3702223671248
  0
ARC
  5
13C
330
1F
100
AcDbEntity
  8
Make2D$___$___
100
AcDbCircle
 10
547.9205168670507
 20
600.910427269878
 30
0.0
 40
0.0297589795263309
100
AcDbArc
 50
205.3563283056486
 51
210.9551857930497
  0
LINE
  5
13D
330
1F
100
AcDbEntity
  8
Make2D$___$___
100
AcDbLine
 10
547.8847996858553
 20
600.9155144661313
 30
0.0
 11
547.9104015517022
 21
600.8718454173397
 31
0.0
  0
LINE
  5
13E
330
1F
100
AcDbEntity
  8
Make2D$___$___
100
AcDbLine
 10
547.8914849209184
 20
600.9014671628713
 30
0.0
 11
547.8846380729627
 21
600.9150412465863
 31
0.0
  0
LINE
  5
13F
330
1F
100
AcDbEntity
  8
Make2D$___$___
100
AcDbLine
 10
547.9271523356197
 20
600.8451937457443
 30
0.0
 11
547.9264271787824
 21
600.8461875593014
 31
0.0
  0
ARC
  5
140
330
1F
100
AcDbEntity
  8
Make2D$___$___
100
AcDbCircle
 10
547.9635128502506
 20
600.8409392243316
 30
0.0
 40
0.0262590341341428
100
AcDbArc
 50
214.6119590598487
 51
225.550120564422
  0
LINE
  5
141
330
1F
100
AcDbEntity
  8
Make2D$___$___
100
AcDbLine
 10
547.9197488129273
 20
600.8555898452295
 30
0.0
 11
547.9189600980816
 21
600.8567311698935
 31
0.0
  0
LINE
  5
142
330
1F
100
AcDbEntity
  8
Make2D$___$___
100
AcDbLine
 10
547.9204439994453
 20
600.856134373281
 30
0.0
 11
547.9526610957904
 21
600.8147710407845
 31
0.0
  0
LINE
  5
143
330
1F
100
AcDbEntity
  8
Make2D$___$___
100
AcDbLine
 10
547.9170350106062
 20
600.8600340087085
 30
0.0
 11
547.9191294615312
 21
600.8568441304669
 31
0.0
  0
LINE
  5
144
330
1F
100
AcDbEntity
  8
Make2D$___$___
100
AcDbLine
 10
547.8846604909764
 20
600.9150526379618
 30
0.0
 11
547.8780288677676
 21
600.9281945683532
 31
0.0
  0
LINE
  5
145
330
1F
100
AcDbEntity
  8
Make2D$___$___
100
AcDbLine
 10
547.8919678322541
 20
600.9005816536369
 30
0.0
 11
547.8915118269682
 21
600.9014819339309
 31
0.0
  0
LINE
  5
146
330
1F
100
AcDbEntity
  8
Make2D$___$___
100
AcDbLine
 10
547.9168077241071
 20
600.8598808564075
 30
0.0
 11
547.8993079443162
 21
600.887616776092
 31
0.0
  0
ARC
  5
147
330
1F
100
AcDbEntity
  8
Make2D$___$___
100
AcDbCircle
 10
548.3306965623018
 20
601.1404096970109
 30
0.0
 40
0.5000004008055084
100
AcDbArc
 50
214.7250731533087
 51
216.0466533979795
  0
ARC
  5
148
330
1F
100
AcDbEntity
  8
Make2D$___$___
100
AcDbCircle
 10
548.3306964542004
 20
601.1404096150959
 30
0.0
 40
0.5000002651939974
100
AcDbArc
 50
216.187629448083
 51
218.9595460688654
  0
ARC
  5
149
330
1F
100
AcDbEntity
  8
Make2D$___$___
100
AcDbCircle
 10
548.3306933369979
 20
601.1403921773673
 30
0.0
 40
0.4999867616272892
100
AcDbArc
 50
219.5317248104935
 51
301.6496649960769
  0
LINE
  5
14A
330
1F
100
AcDbEntity
  8
Make2D$___$___
100
AcDbLine
 10
547.3247274191792
 20
602.1196834423553
 30
0.0
 11
547.8771980359616
 21
600.929840261429
 31
0.0
  0
LINE
  5
14B
330
1F
100
AcDbEntity
  8
Make2D$___$___
100
AcDbLine
 10
532.1890905971704
 20
634.716954165151
 30
0.0
 11
532.7351224316125
 21
633.5409780407311
 31
0.0
  0
ARC
  5
14C
330
1F
100
AcDbEntity
  8
Make2D$___$___
100
AcDbCircle
 10
532.6425878976485
 20
634.9275295415238
 30
0.0
 40
0.499993790581861
100
AcDbArc
 50
99.87368326483163
 51
124.6782400683181
  0
LINE
  5
14D
330
1F
100
AcDbEntity
  8
Make2D$___$___
100
AcDbLine
 10
455.0671669030626
 20
725.8474465295917
 30
0.0
 11
467.5487862920873
 21
725.8474465295917
 31
0.0
  0
LINE
  5
14E
330
1F
100
AcDbEntity
  8
Make2D$___$___
100
AcDbLine
 10
455.0258204589692
 20
725.8474465295916
 30
0.0
 11
455.030708444197
 21
725.8474465295916
 31
0.0
  0
LINE
  5
14F
330
1F
100
AcDbEntity
  8
Make2D$___$___
100
AcDbLine
 10
454.9843697061492
 20
725.8474465295915
 30
0.0
 11
455.0192824134166
 21
725.8474465295915
 31
0.0
  0
LINE
  5
150
330
1F
100
AcDbEntity
  8
Make2D$___$___
100
AcDbLine
 10
454.977217589898
 20
725.8474465295916
 30
0.0
 11
454.9827975750933
 21
725.8474465295916
 31
0.0
  0
SPLINE
  5
151
330
1F
100
AcDbEntity
  8
Make2D$___$___
100
AcDbSpline
210
0.0
220
0.0
230
1.0
 70
    24
 71
     3
 72
     8
 73
     4
 74
     0
 42
0.000000001
 43
0.0000000001
 12
1.0
 22
0.0
 32
0.0
 13
1.0
 23
0.0
 33
0.0
 40
19.64515772060492
 40
19.64515772060492
 40
19.64515772060492
 40
19.64515772060492
 40
20.14945906705844
 40
20.14945906705844
 40
20.14945906705844
 40
20.14945906705844
 10
454.9696434014816
 20
725.8474465295918
 30
0.0
 10
454.9680999660894
 20
725.8474465295918
 30
0.0
 10
454.9699223297288
 20
725.8474465295919
 30
0.0
 10
454.9751118910016
 20
725.8474465295919
 30
0.0
  0
LINE
  5
152
330
1F
100
AcDbEntity
  8
Make2D$___$___
100
AcDbLine
 10
442.0487862920873
 20
551.8474465295917
 30
0.0
 11
467.5487862920873
 21
551.8474465295917
 31
0.0
  0
LINE
  5
153
330
1F
100
AcDbEntity
  8
Make2D$___$___
100
AcDbLine
 10
455.0236728420488
 20
726.8474465295918
 30
0.0
 11
455.0228701730372
 21
726.8474465295918
 31
0.0
  0
LINE
  5
154
330
1F
100
AcDbEntity
  8
Make2D$___$___
100
AcDbLine
 10
455.0249255559294
 20
726.8474465295916
 30
0.0
 11
455.0239163349212
 21
726.8474465295916
 31
0.0
  0
LINE
  5
155
330
1F
100
AcDbEntity
  8
Make2D$___$___
100
AcDbLine
 10
455.0338476553846
 20
726.8474465295916
 30
0.0
 11
455.0292244120844
 21
726.8474465295916
 31
0.0
  0
LINE
  5
156
330
1F
100
AcDbEntity
  8
Make2D$___$___
100
AcDbLine
 10
455.0370542943601
 20
726.8474465295911
 30
0.0
 11
455.035768195489
 21
726.8474465295915
 31
0.0
  0
LINE
  5
157
330
1F
100
AcDbEntity
  8
Make2D$___$___
100
AcDbLine
 10
455.0673944366342
 20
726.8474465295917
 30
0.0
 11
455.04455836013
 21
726.8474465295916
 31
0.0
  0
LINE
  5
158
330
1F
100
AcDbEntity
  8
Make2D$___$___
100
AcDbLine
 10
467.5487862920873
 20
726.8474465295917
 30
0.0
 11
455.1022119107911
 21
726.8474465295917
 31
0.0
  0
LINE
  5
159
330
1F
100
AcDbEntity
  8
Make2D$___$___
100
AcDbLine
 10
483.5487862920873
 20
787.0667110344184
 30
0.0
 11
483.5487862920873
 21
787.0686058153124
 31
0.0
  0
LINE
  5
15A
330
1F
100
AcDbEntity
  8
Make2D$___$___
100
AcDbLine
 10
467.5487862920873
 20
790.9257663193896
 30
0.0
 11
467.5487862920874
 21
790.908467033077
 31
0.0
  0
LINE
  5
15B
330
1F
100
AcDbEntity
  8
Make2D$___$___
100
AcDbLine
 10
483.5487862920865
 20
783.2074886888392
 30
0.0
 11
483.5487862920865
 21
787.0667110344184
 31
0.0
  0
ARC
  5
15C
330
1F
100
AcDbEntity
  8
Make2D$___$___
100
AcDbCircle
 10
480.0749458175108
 20
726.3474038810023
 30
0.0
 40
0.4999567737235567
100
AcDbArc
 50
273.3450981465679
 51
3.066342397395282
  0
ARC
  5
15D
330
1F
100
AcDbEntity
  8
Make2D$___$___
100
AcDbCircle
 10
480.074896306361
 20
726.3474390058965
 30
0.0
 40
0.5000075236952387
100
AcDbArc
 50
69.0762239451237
 51
89.9999851823727
  0
LINE
  5
15E
330
1F
100
AcDbEntity
  8
Make2D$___$___
100
AcDbLine
 10
467.5487862920873
 20
726.8474465295917
 30
0.0
 11
479.9953606733836
 21
726.8474465295917
 31
0.0
  0
ARC
  5
15F
330
1F
100
AcDbEntity
  8
Make2D$___$___
100
AcDbCircle
 10
545.2546088355809
 20
600.3042771217084
 30
0.0
 40
0.4999999999355737
100
AcDbArc
 50
199.8243729087698
 51
202.5783158447488
  0
ARC
  5
160
330
1F
100
AcDbEntity
  8
Make2D$___$___
100
AcDbCircle
 10
529.6781292841963
 20
633.8509846762378
 30
0.0
 40
0.5000016372731604
100
AcDbArc
 50
207.4108955157369
 51
293.3575754273204
  0
ARC
  5
161
330
1F
100
AcDbEntity
  8
Make2D$___$___
100
AcDbCircle
 10
545.2546088356554
 20
600.3042771217321
 30
0.0
 40
0.5000000000133277
100
AcDbArc
 50
116.4552122453783
 51
204.8992149984686
  0
ARC
  5
162
330
1F
100
AcDbEntity
  8
Make2D$___$___
100
AcDbCircle
 10
537.01289375982
 20
616.8656605842837
 30
0.0
 40
18.00134978438745
100
AcDbArc
 50
104.8522057849315
 51
113.35607212119
  0
ARC
  5
163
330
1F
100
AcDbEntity
  8
Make2D$___$___
100
AcDbCircle
 10
537.0128937598133
 20
616.8670103686837
 30
0.0
 40
18.00000000001474
100
AcDbArc
 50
296.4552122437907
 51
304.9596965146144
  0
ARC
  5
164
330
1F
100
AcDbEntity
  8
Make2D$___$___
100
AcDbCircle
 10
480.1284623122056
 20
725.347443396992
 30
0.0
 40
0.5000031326053566
100
AcDbArc
 50
3.06684550314991
 51
90.00027307903268
  0
LINE
  5
165
330
1F
100
AcDbEntity
  8
Make2D$___$___
100
AcDbLine
 10
480.1284599291265
 20
725.8474465295917
 30
0.0
 11
467.5487862920873
 21
725.8474465295917
 31
0.0
  0
SPLINE
  5
166
330
1F
100
AcDbEntity
  8
Make2D$___$___
100
AcDbSpline
210
0.0
220
0.0
230
1.0
 70
     8
 71
     2
 72
     6
 73
     3
 74
     0
 42
0.000000001
 43
0.0000000001
 12
1.0
 22
0.0
 32
0.0
 13
1.0
 23
0.0
 33
0.0
 40
-78.63360773908032
 40
-78.63360773908032
 40
-78.63360773908032
 40
-0.9888739339008711
 40
-0.9888739339008711
 40
-0.9888739339008711
 10
486.5194856637777
 20
626.9363880155292
 30
0.0
 10
483.7202965327388
 20
667.6436227125157
 30
0.0
 10
480.62774933839
 20
725.3741940623868
 30
0.0
  0
ARC
  5
167
330
1F
100
AcDbEntity
  8
Make2D$___$___
100
AcDbCircle
 10
1129.353006246483
 20
630.2304014172419
 30
0.0
 40
641.1138338459801
100
AcDbArc
 50
185.6162875891994
 51
187.0225856092701
  0
LINE
  5
168
330
1F
100
AcDbEntity
  8
Make2D$___$___
100
AcDbLine
 10
493.0487862920873
 20
551.8474465295917
 30
0.0
 11
467.5487862920873
 21
551.8474465295917
 31
0.0
  0
SPLINE
  5
169
330
1F
100
AcDbEntity
  8
Make2D$___$___
100
AcDbSpline
210
0.0
220
0.0
230
1.0
 70
     8
 71
     5
 72
    37
 73
    31
 74
     0
 42
0.000000001
 43
0.0000000001
 12
1.0
 22
0.0
 32
0.0
 13
1.0
 23
0.0
 33
0.0
 40
0.0
 40
0.0
 40
0.0
 40
0.0
 40
0.0
 40
0.0
 40
0.2954024735160126
 40
0.2954024735160126
 40
0.2954024735160126
 40
0.5465218098127386
 40
0.5465218098127386
 40
0.5465218098127386
 40
0.8463676279374701
 40
0.8463676279374701
 40
0.8463676279374701
 40
1.93987518843459
 40
1.93987518843459
 40
1.93987518843459
 40
2.682845235520853
 40
2.682845235520853
 40
2.682845235520853
 40
3.980052575433017
 40
3.980052575433017
 40
3.980052575433017
 40
3.980052575433017
 40
3.980052575433017
 40
6.156386558186849
 40
6.156386558186849
 40
6.156386558186849
 40
6.156386558186849
 40
6.156386558186849
 40
7.754909908498888
 40
7.754909908498888
 40
7.754909908498888
 40
7.754909908498888
 40
7.754909908498888
 40
7.754909908498888
 10
493.1225002160992
 20
626.3712911846046
 30
0.0
 10
493.0648054582276
 20
626.3585614601789
 30
0.0
 10
493.0071439933329
 20
626.3456880436174
 30
0.0
 10
492.9495316557607
 20
626.332602811662
 30
0.0
 10
492.8430637049104
 20
626.3078760138604
 30
0.0
 10
492.7368723059647
 20
626.2819578554072
 30
0.0
 10
492.6881347187574
 20
626.2698176116007
 30
0.0
 10
492.5813198996868
 20
626.2427187959797
 30
0.0
 10
492.4747504502183
 20
626.2147027145757
 30
0.0
 10
492.4168083234235
 20
626.1992497031164
 30
0.0
 10
492.1477306747896
 20
626.1267878831903
 30
0.0
 10
491.8790783835939
 20
626.0527060149092
 30
0.0
 10
491.6682678706005
 20
625.9944548604101
 30
0.0
 10
491.3138806765732
 20
625.8979269340023
 30
0.0
 10
490.9582571452314
 20
625.8060842227923
 30
0.0
 10
490.8141564141448
 20
625.7698218594586
 30
0.0
 10
490.417758619917
 20
625.673049071829
 30
0.0
 10
490.0192373772875
 20
625.5849296661324
 30
0.0
 10
489.7648513068103
 20
625.5337264249035
 30
0.0
 10
489.5093356160116
 20
625.4886763467379
 30
0.0
 10
489.252554729256
 20
625.4511068158095
 30
0.0
 10
488.7335632625883
 20
625.3755660028382
 30
0.0
 10
488.2316215347237
 20
625.3361075937605
 30
0.0
 10
487.7804495159662
 20
625.3512660273263
 30
0.0
 10
487.4123479479955
 20
625.4365689851295
 30
0.0
 10
487.1329107411942
 20
625.5906367242846
 30
0.0
 10
486.8534735343929
 20
625.7447044634398
 30
0.0
 10
486.6627006887612
 20
625.967536983947
 30
0.0
 10
486.5661861146817
 20
626.257754542921
 30
0.0
 10
486.54281689124
 20
626.5970699729983
 30
0.0
 10
486.5194856637777
 20
626.9363880155292
 30
0.0
  0
SPLINE
  5
16A
330
1F
100
AcDbEntity
  8
Make2D$___$___
100
AcDbSpline
210
0.0
220
0.0
230
1.0
 70
     8
 71
     5
 72
    12
 73
     6
 74
     0
 42
0.000000001
 43
0.0000000001
 12
1.0
 22
0.0
 32
0.0
 13
1.0
 23
0.0
 33
0.0
 40
-6.664707006540247
 40
-6.664707006540247
 40
-6.664707006540247
 40
-6.664707006540247
 40
-6.664707006540247
 40
-6.664707006540247
 40
0.0
 40
0.0
 40
0.0
 40
0.0
 40
0.0
 40
0.0
 10
491.3167626327042
 20
567.4872760256092
 30
0.0
 10
491.1913987715138
 20
568.7431760788861
 30
0.0
 10
491.0681620460401
 20
569.9992884627109
 30
0.0
 10
494.1866425142125
 20
571.1876680356982
 30
0.0
 10
494.8691619610551
 20
571.566018469709
 30
0.0
 10
495.5516814079268
 20
571.9443689036675
 30
0.0
  0
ARC
  5
16B
330
1F
100
AcDbEntity
  8
Make2D$___$___
100
AcDbCircle
 10
544.464805845406
 20
599.630742013142
 30
0.0
 40
0.4999999999667333
100
AcDbArc
 50
299.0015233064101
 51
24.90648907360157
  0
ARC
  5
16C
330
1F
100
AcDbEntity
  8
Make2D$___$___
100
AcDbCircle
 10
528.6272783234189
 20
633.7396584918977
 30
0.0
 40
0.4999999999421801
100
AcDbArc
 50
24.90648907986715
 51
102.5143281161247
  0
LINE
  5
16D
330
1F
100
AcDbEntity
  8
Make2D$___$___
100
AcDbLine
 10
544.9183040072601
 20
599.8413112824137
 30
0.0
 11
529.0807764852277
 21
633.9502277612087
 31
0.0
  0
ARC
  5
16E
330
1F
100
AcDbEntity
  8
Make2D$___$___
100
AcDbCircle
 10
564.0144316561996
 20
728.8474461981493
 30
0.0
 40
1.00000033144245
100
AcDbArc
 50
71.82596588148918
 51
89.99998035780622
  0
ARC
  5
16F
330
1F
100
AcDbEntity
  8
Make2D$___$___
100
AcDbCircle
 10
546.0831405855192
 20
728.8474457321565
 30
0.0
 40
1.000000797435177
100
AcDbArc
 50
90.00000002092224
 51
90.0487991441199
  0
LINE
  5
170
330
1F
100
AcDbEntity
  8
Make2D$___$___
100
AcDbLine
 10
562.5651078373439
 20
656.3305642691862
 30
0.0
 11
565.0138618150329
 21
728.8136820087805
 31
0.0
  0
LINE
  5
171
330
1F
100
AcDbEntity
  8
Make2D$___$___
100
AcDbLine
 10
545.0837107691417
 20
728.8136820087805
 30
0.0
 11
547.5324647468308
 21
656.3305642691862
 31
0.0
  0
LINE
  5
172
330
1F
100
AcDbEntity
  8
Make2D$___$___
100
AcDbLine
 10
563.3852313883458
 20
729.8474465295918
 30
0.0
 11
546.7123411957958
 21
729.8474465295917
 31
0.0
  0
ARC
  5
173
330
1F
100
AcDbEntity
  8
Make2D$___$___
100
AcDbCircle
 10
548.0321796548367
 20
656.3474465295906
 30
0.0
 40
0.499999999998836
100
AcDbArc
 50
248.827240070928
 51
270.000000000026
  0
LINE
  5
174
330
1F
100
AcDbEntity
  8
Make2D$___$___
100
AcDbLine
 10
562.0342332976907
 20
655.8474465295917
 30
0.0
 11
562.0576371943449
 21
655.8474465295917
 31
0.0
  0
LINE
  5
175
330
1F
100
AcDbEntity
  8
Make2D$___$___
100
AcDbLine
 10
562.0001839975005
 20
655.847446529592
 30
0.0
 11
562.0313065198088
 21
655.8474465295918
 31
0.0
  0
LINE
  5
176
330
1F
100
AcDbEntity
  8
Make2D$___$___
100
AcDbLine
 10
561.8715069743428
 20
655.8474465295918
 30
0.0
 11
561.8918397715998
 21
655.8474465295918
 31
0.0
  0
LINE
  5
177
330
1F
100
AcDbEntity
  8
Make2D$___$___
100
AcDbLine
 10
561.8310798815613
 20
655.8474465295917
 30
0.0
 11
561.8552521454744
 21
655.8474465295917
 31
0.0
  0
LINE
  5
178
330
1F
100
AcDbEntity
  8
Make2D$___$___
100
AcDbLine
 10
561.7868979752367
 20
655.8474465295918
 30
0.0
 11
561.8148990090195
 21
655.8474465295918
 31
0.0
  0
LINE
  5
179
330
1F
100
AcDbEntity
  8
Make2D$___$___
100
AcDbLine
 10
561.7389788473132
 20
655.8474465295918
 30
0.0
 11
561.7707979210071
 21
655.8474465295918
 31
0.0
  0
LINE
  5
17A
330
1F
100
AcDbEntity
  8
Make2D$___$___
100
AcDbLine
 10
561.6873400897368
 20
655.8474465295918
 30
0.0
 11
561.7229664402105
 21
655.8474465295917
 31
0.0
  0
LINE
  5
17B
330
1F
100
AcDbEntity
  8
Make2D$___$___
100
AcDbLine
 10
561.6319992944523
 20
655.8474465295919
 30
0.0
 11
561.6714221254032
 21
655.8474465295919
 31
0.0
  0
LINE
  5
17C
330
1F
100
AcDbEntity
  8
Make2D$___$___
100
AcDbLine
 10
548.5245985307441
 20
655.8474465295917
 30
0.0
 11
561.616182535358
 21
655.8474465295917
 31
0.0
  0
LINE
  5
17D
330
1F
100
AcDbEntity
  8
Make2D$___$___
100
AcDbLine
 10
548.2292558958297
 20
655.8474465295917
 30
0.0
 11
548.3055077722956
 21
655.8474465295918
 31
0.0
  0
LINE
  5
17E
330
1F
100
AcDbEntity
  8
Make2D$___$___
100
AcDbLine
 10
548.0399331885732
 20
655.8474465295915
 30
0.0
 11
548.0497091960654
 21
655.8474465295917
 31
0.0
  0
ARC
  5
17F
330
1F
100
AcDbEntity
  8
Make2D$___$___
100
AcDbCircle
 10
562.0487830761589
 20
655.3474463609975
 30
0.0
 40
0.5000001685944867
100
AcDbArc
 50
68.4017687104039
 51
87.44486872735567
  0
SPLINE
  5
180
330
1F
100
AcDbEntity
  8
Make2D$___$___
100
AcDbSpline
210
0.0
220
0.0
230
1.0
 70
     8
 71
     3
 72
    29
 73
    25
 74
     0
 42
0.000000001
 43
0.0000000001
 12
1.0
 22
0.0
 32
0.0
 13
1.0
 23
0.0
 33
0.0
 40
0.0
 40
0.0
 40
0.0
 40
0.0
 40
4.261389533235645
 40
6.962784816312351
 40
9.278314412636716
 40
11.20770728758014
 40
13.13782809157146
 40
14.92235399252505
 40
15.74259319100043
 40
16.51448433404892
 40
18.1546432664207
 40
19.02297245258423
 40
19.98785805936998
 40
21.04918193870406
 40
22.3033182645841
 40
25.10129479586634
 40
28.96058636567445
 40
31.08312984294734
 40
33.78453086943001
 40
36.48603469999951
 40
39.95938076158359
 40
48.06376322274195
 40
53.08081758120483
 40
60.68524538164277
 40
60.68524538164277
 40
60.68524538164277
 40
60.68524538164277
 10
548.5930478659482
 20
600.7147683658393
 30
0.0
 10
549.8020182169458
 20
601.4604754572064
 30
0.0
 10
551.7857066556472
 20
602.6655650143747
 30
0.0
 10
554.3785953274802
 20
604.3524262265787
 30
0.0
 10
556.2518573541269
 20
605.7154068531667
 30
0.0
 10
557.8223599769741
 20
607.0486797083884
 30
0.0
 10
559.1302447056268
 20
608.4055311293969
 30
0.0
 10
560.029824522437
 20
609.6251753355491
 30
0.0
 10
560.591135863282
 20
610.6019141680142
 30
0.0
 10
561.0485999654545
 20
611.5785723566665
 30
0.0
 10
561.3791084564783
 20
612.6245775579303
 30
0.0
 10
561.6267879947669
 20
613.7552991436341
 30
0.0
 10
561.7886524143648
 20
614.7070435099371
 30
0.0
 10
561.9298315138983
 20
615.7913062702739
 30
0.0
 10
562.0980977793375
 20
617.4877533810374
 30
0.0
 10
562.2632168636421
 20
620.1200973018643
 30
0.0
 10
562.3636686400988
 20
623.0451581835183
 30
0.0
 10
562.4287866922796
 20
625.9388225019676
 30
0.0
 10
562.468031941482
 20
628.4470334850052
 30
0.0
 10
562.4990336493283
 20
631.4056136188927
 30
0.0
 10
562.5307821892823
 20
636.16526794021
 30
0.0
 10
562.5436473234338
 20
641.6968547242246
 30
0.0
 10
562.5488452883901
 20
648.6054734946878
 30
0.0
 10
562.5487406800783
 20
652.8126351962399
 30
0.0
 10
562.5487832447429
 20
655.3474441621097
 30
0.0
  0
SPLINE
  5
181
330
1F
100
AcDbEntity
  8
Make2D$___$___
100
AcDbSpline
210
0.0
220
0.0
230
1.0
 70
    12
 71
     3
 72
    53
 73
    49
 74
     0
 42
0.000000001
 43
0.0000000001
 12
1.0
 22
0.0
 32
0.0
 13
1.0
 23
0.0
 33
0.0
 40
-44.56151139299092
 40
-44.56151139299092
 40
-44.56151139299092
 40
-44.56151139299092
 40
-39.70523778092115
 40
-39.70523778092115
 40
-39.70523778092115
 40
-34.03306095507527
 40
-34.03306095507527
 40
-34.03306095507527
 40
-28.3608841292294
 40
-28.3608841292294
 40
-28.3608841292294
 40
-22.68870730338352
 40
-22.68870730338352
 40
-22.68870730338352
 40
-20.87567363497328
 40
-20.87567363497328
 40
-20.87567363497328
 40
-19.06275850194957
 40
-19.06275850194957
 40
-19.06275850194957
 40
-18.15630189891732
 40
-18.15630189891732
 40
-18.15630189891732
 40
-17.24978511732278
 40
-17.24978511732278
 40
-17.24978511732278
 40
-16.34337453663827
 40
-16.34337453663827
 40
-16.34337453663827
 40
-15.89009625892256
 40
-15.89009625892256
 40
-15.89009625892256
 40
-15.436925093647
 40
-15.436925093647
 40
-15.436925093647
 40
-13.62395327107008
 40
-13.62395327107008
 40
-13.62395327107008
 40
-12.71745956361786
 40
-12.71745956361786
 40
-12.71745956361786
 40
-11.81101843915412
 40
-11.81101843915412
 40
-11.81101843915412
 40
-9.99808498895995
 40
-9.99808498895995
 40
-9.99808498895995
 40
-8.839090175733016
 40
-8.839090175733016
 40
-8.839090175733016
 40
-8.839090175733016
 10
547.574148409569
 20
655.3265559685012
 30
0.0
 41
1.0
 10
547.6173818798752
 20
654.2926986652079
 30
0.0
 41
0.9999999999999998
 10
547.6177820448391
 20
653.2566958088619
 30
0.0
 41
0.9999999999999993
 10
547.563522562534
 20
652.2234566923361
 30
0.0
 41
0.9999999999999996
 10
547.5001469369621
 20
651.0166229262671
 30
0.0
 41
0.9999999999999999
 10
547.3620140053121
 20
649.8125695997334
 30
0.0
 41
0.9999999999999996
 10
547.1254855241997
 20
648.6274304031202
 30
0.0
 41
0.9999999999999999
 10
546.8889570430871
 20
647.4422912065071
 30
0.0
 41
1.0
 10
546.5526413969269
 20
646.2754113465248
 30
0.0
 41
1.0
 10
546.0944605975769
 20
645.1570087689643
 30
0.0
 41
1.0
 10
545.6362797982268
 20
644.0386061914038
 30
0.0
 41
1.0
 10
545.0542419395794
 20
642.969744824157
 30
0.0
 41
1.0
 10
544.3449434040466
 20
641.9907966496011
 30
0.0
 41
0.9999999999999998
 10
543.9902183475537
 20
641.5010021365129
 30
0.0
 41
0.9986435641963239
 10
543.6049863885393
 20
641.0348209823367
 30
0.0
 41
0.9986435641963236
 10
543.1908151542677
 20
640.5941502214988
 30
0.0
 41
0.9999999999999998
 10
542.7764012495745
 20
640.1537743252995
 30
0.0
 41
0.99867330808842
 10
542.3350435049699
 20
639.7404062621472
 30
0.0
 41
0.9986733080884201
 10
541.8684985577045
 20
639.3556912682398
 30
0.0
 41
0.9999999999999998
 10
541.6353799453216
 20
639.1633903944305
 30
0.0
 41
0.9996938408954017
 10
541.3965411137572
 20
638.9782420051736
 30
0.0
 41
0.9996938408953998
 10
541.15220143106
 20
638.8004161550656
 30
0.0
 41
0.9999999999999998
 10
540.9078363619494
 20
638.6225970297114
 30
0.0
 41
0.9997169484403152
 10
540.6583938994258
 20
638.4519735077876
 30
0.0
 41
0.9997169484403134
 10
540.404085858724
 20
638.2886904750577
 30
0.0
 41
0.9999999999999998
 10
540.14980584581
 20
638.125436690252
 30
0.0
 41
0.9997432923211176
 10
539.8910937118981
 20
637.9693016365723
 30
0.0
 41
0.9997432923211139
 10
539.6281486971627
 20
637.8204055572187
 30
0.0
 41
0.9999999999999998
 10
539.4966816815131
 20
637.7459287493738
 30
0.0
 41
0.9999409030964916
 10
539.36423467893
 20
637.673208995406
 30
0.0
 41
0.9999409030964912
 10
539.2308311710358
 20
637.6022591878508
 30
0.0
 41
0.9999999999999998
 10
539.0974596970774
 20
637.531325740489
 30
0.0
 41
0.9999443407442965
 10
538.9631827761509
 20
637.4621216038619
 30
0.0
 41
0.9999443407442947
 10
538.8280228295132
 20
637.3946583335191
 30
0.0
 41
0.9999999999999998
 10
538.2868387474722
 20
637.1252061607153
 30
0.0
 41
0.9992414810926178
 10
537.7334204476701
 20
636.8818692142261
 30
0.0
 41
0.9992414810926175
 10
537.1690272648377
 20
636.6652012210757
 30
0.0
 41
0.9999999999999998
 10
536.8870003207904
 20
636.5566733532972
 30
0.0
 41
0.9998459432322228
 10
536.6027055357722
 20
636.4542332709802
 30
0.0
 41
0.9998459432322216
 10
536.3162743023925
 20
636.3579283188872
 30
0.0
 41
0.9999999999999998
 10
536.0298638536048
 20
636.2616263518628
 30
0.0
 41
0.9998666107854053
 10
535.74158436437
 20
636.1710727759297
 30
0.0
 41
0.9998666107854046
 10
535.4515511948124
 20
636.0863038276987
 30
0.0
 41
0.9999999999999998
 10
534.8712737585766
 20
635.917110260505
 30
0.0
 41
0.9995719426615395
 10
534.2853067736976
 20
635.7688164345532
 30
0.0
 41
0.9995719426615399
 10
533.6944027225792
 20
635.6416127846234
 30
0.0
 41
0.9999999999999998
 10
533.3167429971282
 20
635.5600914633562
 30
0.0
 41
0.9998627674301854
 10
532.937507002677
 20
635.4862493712881
 30
0.0
 41
0.9998627674301853
 10
532.556850869815
 20
635.4201169090395
 30
0.0
 41
0.9999999999999998
  0
ARC
  5
182
330
1F
100
AcDbEntity
  8
Make2D$___$___
100
AcDbCircle
 10
532.6425890569406
 20
634.9275227928866
 30
0.0
 40
0.4999999999999856
100
AcDbArc
 50
124.6779093114827
 51
204.90648907655
  0
LINE
  5
183
330
1F
100
AcDbEntity
  8
Make2D$___$___
100
AcDbLine
 10
532.7351224316122
 20
633.5409780407314
 30
0.0
 11
547.3247274191791
 21
602.1196834423555
 31
0.0
  0
ENDSEC
  0
SECTION
  2
OBJECTS
  0
DICTIONARY
  5
C
330
0
100
AcDbDictionary
281
     1
  3
ACAD_GROUP
350
D
  3
ACAD_LAYOUT
350
1A
  3
ACAD_MATERIAL
350
3B
  3
ACAD_MLEADERSTYLE
350
1AE
  3
ACAD_MLINESTYLE
350
17
  3
ACAD_PLOTSETTINGS
350
19
  3
ACAD_PLOTSTYLENAME
350
E
  3
ACAD_SCALELIST
350
3F
  3
ACAD_TABLESTYLE
350
1AD
  3
ACAD_VISUALSTYLE
350
2A
  3
AcDbVariableDictionary
350
184
  0
DICTIONARY
  5
D
102
{ACAD_REACTORS
330
C
102
}
330
C
100
AcDbDictionary
281
     1
  0
DICTIONARY
  5
1A
102
{ACAD_REACTORS
330
C
102
}
330
C
100
AcDbDictionary
281
     1
  3
Layout1
350
1E
  3
Layout2
350
26
  3
Model
350
22
  0
DICTIONARY
  5
3B
102
{ACAD_REACTORS
330
C
102
}
330
C
100
AcDbDictionary
281
     1
  3
ByBlock
350
3D
  3
ByLayer
350
3C
  3
Global
350
3E
  0
DICTIONARY
  5
1AE
102
{ACAD_REACTORS
330
C
102
}
330
C
100
AcDbDictionary
281
     1
  0
DICTIONARY
  5
17
102
{ACAD_REACTORS
330
C
102
}
330
C
100
AcDbDictionary
281
     1
  3
Standard
350
18
  0
DICTIONARY
  5
19
102
{ACAD_REACTORS
330
C
102
}
330
C
100
AcDbDictionary
281
     1
  0
ACDBDICTIONARYWDFLT
  5
E
102
{ACAD_REACTORS
330
C
102
}
330
C
100
AcDbDictionary
281
     1
  3
Normal
350
F
100
AcDbDictionaryWithDefault
340
F
  0
DICTIONARY
  5
3F
102
{ACAD_REACTORS
330
C
102
}
330
C
100
AcDbDictionary
281
     1
  3
A0
350
40
  3
A1
350
41
  3
A2
350
42
  3
A3
350
43
  3
A4
350
44
  3
A5
350
45
  3
A6
350
46
  3
A7
350
47
  3
A8
350
48
  3
A9
350
49
  3
B0
350
4A
  3
B1
350
4B
  3
B2
350
4C
  3
B3
350
4D
  3
B4
350
4E
  3
B5
350
4F
  3
B6
350
50
  3
B7
350
51
  3
B8
350
52
  3
B9
350
53
  3
C0
350
54
  3
C1
350
55
  3
C2
350
56
  3
C3
350
57
  3
C4
350
58
  3
C5
350
59
  3
C6
350
5A
  3
C7
350
5B
  3
C8
350
5C
  3
C9
350
5D
  3
D0
350
5E
  3
D1
350
5F
  3
D2
350
60
  0
DICTIONARY
  5
1AD
102
{ACAD_REACTORS
330
C
102
}
330
C
100
AcDbDictionary
281
     1
  0
DICTIONARY
  5
2A
102
{ACAD_REACTORS
330
C
102
}
330
C
100
AcDbDictionary
281
     1
  3
2dWireframe
350
2F
  3
3D Hidden
350
31
  3
3dWireframe
350
30
  3
Basic
350
32
  3
Brighten
350
36
  3
ColorChange
350
3A
  3
Conceptual
350
34
  3
Dim
350
35
  3
Facepattern
350
39
  3
Flat
350
2B
  3
FlatWithEdges
350
2C
  3
Gouraud
350
2D
  3
GouraudWithEdges
350
2E
  3
Linepattern
350
38
  3
Realistic
350
33
  3
Thicken
350
37
  0
DICTIONARY
  5
184
102
{ACAD_REACTORS
330
C
102
}
330
C
100
AcDbDictionary
281
     1
  3
CANNOSCALE
350
185
  3
MSLTSCALE
350
186
  0
LAYOUT
  5
1E
102
{ACAD_REACTORS
330
1A
102
}
330
1A
100
AcDbPlotSettings
  1

  2
none_device
  4

  6

 40
0.0
 41
0.0
 42
0.0
 43
0.0
 44
0.0
 45
0.0
 46
0.0
 47
0.0
 48
0.0
 49
0.0
140
0.0
141
0.0
142
1.0
143
1.0
 70
   688
 72
     0
 73
     0
 74
     5
  7

 75
    16
 76
     0
 77
     2
 78
   300
147
1.0
148
0.0
149
0.0
100
AcDbLayout
  1
Layout1
 70
     1
 71
     1
 10
0.0
 20
0.0
 11
12.0
 21
9.0
 12
0.0
 22
0.0
 32
0.0
 14
1.000000000000000E+20
 24
1.000000000000000E+20
 34
1.000000000000000E+20
 15
-1.000000000000000E+20
 25
-1.000000000000000E+20
 35
-1.000000000000000E+20
146
0.0
 13
0.0
 23
0.0
 33
0.0
 16
1.0
 26
0.0
 36
0.0
 17
0.0
 27
1.0
 37
0.0
 76
     0
330
1B
  0
LAYOUT
  5
26
102
{ACAD_REACTORS
330
1A
102
}
330
1A
100
AcDbPlotSettings
  1

  2
none_device
  4

  6

 40
0.0
 41
0.0
 42
0.0
 43
0.0
 44
0.0
 45
0.0
 46
0.0
 47
0.0
 48
0.0
 49
0.0
140
0.0
141
0.0
142
1.0
143
1.0
 70
   688
 72
     0
 73
     0
 74
     5
  7

 75
    16
 76
     0
 77
     2
 78
   300
147
1.0
148
0.0
149
0.0
100
AcDbLayout
  1
Layout2
 70
     1
 71
     2
 10
0.0
 20
0.0
 11
0.0
 21
0.0
 12
0.0
 22
0.0
 32
0.0
 14
0.0
 24
0.0
 34
0.0
 15
0.0
 25
0.0
 35
0.0
146
0.0
 13
0.0
 23
0.0
 33
0.0
 16
1.0
 26
0.0
 36
0.0
 17
0.0
 27
1.0
 37
0.0
 76
     0
330
23
  0
LAYOUT
  5
22
102
{ACAD_REACTORS
330
1A
102
}
330
1A
100
AcDbPlotSettings
  1

  2
none_device
  4
Letter_(8.50_x_11.00_Inches)
  6

 40
6.35
 41
6.35
 42
6.35000508
 43
6.35000508
 44
215.9
 45
279.4
 46
0.0
 47
0.0
 48
0.0
 49
0.0
140
0.0
141
0.0
142
1.0
143
1.0
 70
  1712
 72
     0
 73
     0
 74
     0
  7

 75
     0
 76
     0
 77
     2
 78
   300
147
1.0
148
0.0
149
0.0
100
AcDbLayout
  1
Model
 70
     1
 71
     0
 10
0.0
 20
0.0
 11
12.0
 21
9.0
 12
0.0
 22
0.0
 32
0.0
 14
442.0487862920873
 24
551.8474465295917
 34
0.0
 15
565.0144326473461
 25
934.8472813812945
 35
0.0
146
0.0
 13
0.0
 23
0.0
 33
0.0
 16
1.0
 26
0.0
 36
0.0
 17
0.0
 27
1.0
 37
0.0
 76
     0
330
1F
331
29
  0
MATERIAL
  5
3D
102
{ACAD_REACTORS
330
3B
102
}
102
{ACAD_XDICTIONARY
360
1A9
102
}
330
3B
100
AcDbMaterial
  1
ByBlock
  0
MATERIAL
  5
3C
102
{ACAD_REACTORS
330
3B
102
}
102
{ACAD_XDICTIONARY
360
1A7
102
}
330
3B
100
AcDbMaterial
  1
ByLayer
  0
MATERIAL
  5
3E
102
{ACAD_REACTORS
330
3B
102
}
102
{ACAD_XDICTIONARY
360
1AB
102
}
330
3B
100
AcDbMaterial
  1
Global
  0
MLINESTYLE
  5
18
102
{ACAD_REACTORS
330
17
102
}
330
17
100
AcDbMlineStyle
  2
Standard
 70
     0
  3

 62
   256
 51
90.0
 52
90.0
 71
     2
 49
0.5
 62
   256
  6
BYLAYER
 49
-0.5
 62
   256
  6
BYLAYER
  0
ACDBPLACEHOLDER
  5
F
102
{ACAD_REACTORS
330
E
102
}
330
E
  0
SCALE
  5
40
102
{ACAD_REACTORS
330
3F
102
}
330
3F
100
AcDbScale
 70
     0
300
1:1
140
1.0
141
1.0
290
     1
  0
SCALE
  5
41
102
{ACAD_REACTORS
330
3F
102
}
330
3F
100
AcDbScale
 70
     0
300
1:2
140
1.0
141
2.0
290
     0
  0
SCALE
  5
42
102
{ACAD_REACTORS
330
3F
102
}
330
3F
100
AcDbScale
 70
     0
300
1:4
140
1.0
141
4.0
290
     0
  0
SCALE
  5
43
102
{ACAD_REACTORS
330
3F
102
}
330
3F
100
AcDbScale
 70
     0
300
1:5
140
1.0
141
5.0
290
     0
  0
SCALE
  5
44
102
{ACAD_REACTORS
330
3F
102
}
330
3F
100
AcDbScale
 70
     0
300
1:8
140
1.0
141
8.0
290
     0
  0
SCALE
  5
45
102
{ACAD_REACTORS
330
3F
102
}
330
3F
100
AcDbScale
 70
     0
300
1:10
140
1.0
141
10.0
290
     0
  0
SCALE
  5
46
102
{ACAD_REACTORS
330
3F
102
}
330
3F
100
AcDbScale
 70
     0
300
1:16
140
1.0
141
16.0
290
     0
  0
SCALE
  5
47
102
{ACAD_REACTORS
330
3F
102
}
330
3F
100
AcDbScale
 70
     0
300
1:20
140
1.0
141
20.0
290
     0
  0
SCALE
  5
48
102
{ACAD_REACTORS
330
3F
102
}
330
3F
100
AcDbScale
 70
     0
300
1:30
140
1.0
141
30.0
290
     0
  0
SCALE
  5
49
102
{ACAD_REACTORS
330
3F
102
}
330
3F
100
AcDbScale
 70
     0
300
1:40
140
1.0
141
40.0
290
     0
  0
SCALE
  5
4A
102
{ACAD_REACTORS
330
3F
102
}
330
3F
100
AcDbScale
 70
     0
300
1:50
140
1.0
141
50.0
290
     0
  0
SCALE
  5
4B
102
{ACAD_REACTORS
330
3F
102
}
330
3F
100
AcDbScale
 70
     0
300
1:100
140
1.0
141
100.0
290
     0
  0
SCALE
  5
4C
102
{ACAD_REACTORS
330
3F
102
}
330
3F
100
AcDbScale
 70
     0
300
2:1
140
2.0
141
1.0
290
     0
  0
SCALE
  5
4D
102
{ACAD_REACTORS
330
3F
102
}
330
3F
100
AcDbScale
 70
     0
300
4:1
140
4.0
141
1.0
290
     0
  0
SCALE
  5
4E
102
{ACAD_REACTORS
330
3F
102
}
330
3F
100
AcDbScale
 70
     0
300
8:1
140
8.0
141
1.0
290
     0
  0
SCALE
  5
4F
102
{ACAD_REACTORS
330
3F
102
}
330
3F
100
AcDbScale
 70
     0
300
10:1
140
10.0
141
1.0
290
     0
  0
SCALE
  5
50
102
{ACAD_REACTORS
330
3F
102
}
330
3F
100
AcDbScale
 70
     0
300
100:1
140
100.0
141
1.0
290
     0
  0
SCALE
  5
51
102
{ACAD_REACTORS
330
3F
102
}
330
3F
100
AcDbScale
 70
     0
300
1/128" = 1'-0"
140
0.0078125
141
12.0
290
     0
  0
SCALE
  5
52
102
{ACAD_REACTORS
330
3F
102
}
330
3F
100
AcDbScale
 70
     0
300
1/64" = 1'-0"
140
0.015625
141
12.0
290
     0
  0
SCALE
  5
53
102
{ACAD_REACTORS
330
3F
102
}
330
3F
100
AcDbScale
 70
     0
300
1/32" = 1'-0"
140
0.03125
141
12.0
290
     0
  0
SCALE
  5
54
102
{ACAD_REACTORS
330
3F
102
}
330
3F
100
AcDbScale
 70
     0
300
1/16" = 1'-0"
140
0.0625
141
12.0
290
     0
  0
SCALE
  5
55
102
{ACAD_REACTORS
330
3F
102
}
330
3F
100
AcDbScale
 70
     0
300
3/32" = 1'-0"
140
0.09375
141
12.0
290
     0
  0
SCALE
  5
56
102
{ACAD_REACTORS
330
3F
102
}
330
3F
100
AcDbScale
 70
     0
300
1/8" = 1'-0"
140
0.125
141
12.0
290
     0
  0
SCALE
  5
57
102
{ACAD_REACTORS
330
3F
102
}
330
3F
100
AcDbScale
 70
     0
300
3/16" = 1'-0"
140
0.1875
141
12.0
290
     0
  0
SCALE
  5
58
102
{ACAD_REACTORS
330
3F
102
}
330
3F
100
AcDbScale
 70
     0
300
1/4" = 1'-0"
140
0.25
141
12.0
290
     0
  0
SCALE
  5
59
102
{ACAD_REACTORS
330
3F
102
}
330
3F
100
AcDbScale
 70
     0
300
3/8" = 1'-0"
140
0.375
141
12.0
290
     0
  0
SCALE
  5
5A
102
{ACAD_REACTORS
330
3F
102
}
330
3F
100
AcDbScale
 70
     0
300
1/2" = 1'-0"
140
0.5
141
12.0
290
     0
  0
SCALE
  5
5B
102
{ACAD_REACTORS
330
3F
102
}
330
3F
100
AcDbScale
 70
     0
300
3/4" = 1'-0"
140
0.75
141
12.0
290
     0
  0
SCALE
  5
5C
102
{ACAD_REACTORS
330
3F
102
}
330
3F
100
AcDbScale
 70
     0
300
1" = 1'-0"
140
1.0
141
12.0
290
     0
  0
SCALE
  5
5D
102
{ACAD_REACTORS
330
3F
102
}
330
3F
100
AcDbScale
 70
     0
300
1-1/2" = 1'-0"
140
1.5
141
12.0
290
     0
  0
SCALE
  5
5E
102
{ACAD_REACTORS
330
3F
102
}
330
3F
100
AcDbScale
 70
     0
300
3" = 1'-0"
140
3.0
141
12.0
290
     0
  0
SCALE
  5
5F
102
{ACAD_REACTORS
330
3F
102
}
330
3F
100
AcDbScale
 70
     0
300
6" = 1'-0"
140
6.0
141
12.0
290
     0
  0
SCALE
  5
60
102
{ACAD_REACTORS
330
3F
102
}
330
3F
100
AcDbScale
 70
     0
300
1'-0" = 1'-0"
140
12.0
141
12.0
290
     0
  0
VISUALSTYLE
  5
2F
102
{ACAD_REACTORS
330
2A
102
}
102
{ACAD_XDICTIONARY
360
18F
102
}
330
2A
100
AcDbVisualStyle
  2
2dWireframe
 70
     4
 71
     0
 72
     2
 73
     0
 90
        0
 40
0.6
 41
30.0
 62
     5
 63
     7
421
 16777215
 74
     1
 91
        4
 64
     7
 65
   257
 75
     1
175
     1
 42
1.0
 92
        0
 66
   257
 43
1.0
 76
     1
 77
     6
 78
     2
 67
     7
 79
     5
170
     0
171
     0
290
     0
174
     0
 93
        1
 44
0.0
173
     0
291
     0
 45
0.0
1001
ACAD
1000
AcDbSavedByObjectVersion
1070
     0
  0
VISUALSTYLE
  5
31
102
{ACAD_REACTORS
330
2A
102
}
102
{ACAD_XDICTIONARY
360
193
102
}
330
2A
100
AcDbVisualStyle
  2
3D Hidden
 70
     6
 71
     1
 72
     2
 73
     2
 90
        0
 40
0.6
 41
30.0
 62
     5
 63
     7
421
 16777215
 74
     2
 91
        2
 64
     7
 65
   257
 75
     2
175
     1
 42
40.0
 92
        0
 66
   257
 43
1.0
 76
     1
 77
     6
 78
     2
 67
     7
 79
     3
170
     0
171
     0
290
     0
174
     0
 93
        1
 44
0.0
173
     0
291
     0
 45
0.0
1001
ACAD
1000
AcDbSavedByObjectVersion
1070
     0
  0
VISUALSTYLE
  5
30
102
{ACAD_REACTORS
330
2A
102
}
102
{ACAD_XDICTIONARY
360
191
102
}
330
2A
100
AcDbVisualStyle
  2
3dWireframe
 70
     5
 71
     0
 72
     2
 73
     0
 90
        0
 40
0.6
 41
30.0
 62
     5
 63
     7
421
 16777215
 74
     1
 91
        4
 64
     7
 65
   257
 75
     1
175
     1
 42
1.0
 92
        0
 66
   257
 43
1.0
 76
     1
 77
     6
 78
     2
 67
     7
 79
     5
170
     0
171
     0
290
     0
174
     0
 93
        1
 44
0.0
173
     0
291
     0
 45
0.0
1001
ACAD
1000
AcDbSavedByObjectVersion
1070
     0
  0
VISUALSTYLE
  5
32
102
{ACAD_REACTORS
330
2A
102
}
102
{ACAD_XDICTIONARY
360
195
102
}
330
2A
100
AcDbVisualStyle
  2
Basic
 70
     7
 71
     1
 72
     0
 73
     1
 90
        0
 40
0.6
 41
30.0
 62
     5
 63
     7
421
 16777215
 74
     0
 91
        4
 64
     7
 65
   257
 75
     1
175
     1
 42
1.0
 92
        8
 66
     7
 43
1.0
 76
     1
 77
     6
 78
     2
 67
     7
 79
     5
170
     0
171
     0
290
     0
174
     0
 93
        1
 44
0.0
173
     0
291
     1
 45
0.0
1001
ACAD
1000
AcDbSavedByObjectVersion
1070
     0
  0
VISUALSTYLE
  5
36
102
{ACAD_REACTORS
330
2A
102
}
102
{ACAD_XDICTIONARY
360
19D
102
}
330
2A
100
AcDbVisualStyle
  2
Brighten
 70
    12
 71
     2
 72
     2
 73
     0
 90
        0
 40
0.6
 41
30.0
 62
     5
 63
     7
421
 16777215
 74
     1
 91
        4
 64
     7
 65
   257
 75
     1
175
     1
 42
1.0
 92
        8
 66
     7
 43
1.0
 76
     1
 77
     6
 78
     2
 67
     7
 79
     5
170
     0
171
     0
290
     0
174
     0
 93
        1
 44
50.0
173
     0
291
     1
 45
0.0
1001
ACAD
1000
AcDbSavedByObjectVersion
1070
     0
  0
VISUALSTYLE
  5
3A
102
{ACAD_REACTORS
330
2A
102
}
102
{ACAD_XDICTIONARY
360
1A5
102
}
330
2A
100
AcDbVisualStyle
  2
ColorChange
 70
    16
 71
     2
 72
     2
 73
     3
 90
        0
 40
0.6
 41
30.0
 62
     5
 63
     8
421
  8421504
 74
     1
 91
        4
 64
     7
 65
   257
 75
     1
175
     1
 42
1.0
 92
        8
 66
     8
424
  8421504
 43
1.0
 76
     1
 77
     6
 78
     2
 67
     7
 79
     5
170
     0
171
     0
290
     0
174
     0
 93
        1
 44
0.0
173
     0
291
     1
 45
0.0
1001
ACAD
1000
AcDbSavedByObjectVersion
1070
     0
  0
VISUALSTYLE
  5
34
102
{ACAD_REACTORS
330
2A
102
}
102
{ACAD_XDICTIONARY
360
199
102
}
330
2A
100
AcDbVisualStyle
  2
Conceptual
 70
     9
 71
     3
 72
     2
 73
     0
 90
        0
 40
0.6
 41
30.0
 62
     5
 63
     7
421
 16777215
 74
     2
 91
        2
 64
     7
 65
   257
 75
     1
175
     1
 42
40.0
 92
        8
 66
     7
 43
1.0
 76
     1
 77
     6
 78
     2
 67
     7
 79
     3
170
     0
171
     0
290
     0
174
     0
 93
        1
 44
0.0
173
     0
291
     0
 45
0.0
1001
ACAD
1000
AcDbSavedByObjectVersion
1070
     0
  0
VISUALSTYLE
  5
35
102
{ACAD_REACTORS
330
2A
102
}
102
{ACAD_XDICTIONARY
360
19B
102
}
330
2A
100
AcDbVisualStyle
  2
Dim
 70
    11
 71
     2
 72
     2
 73
     0
 90
        0
 40
0.6
 41
30.0
 62
     5
 63
     7
421
 16777215
 74
     1
 91
        4
 64
     7
 65
   257
 75
     1
175
     1
 42
1.0
 92
        8
 66
     7
 43
1.0
 76
     1
 77
     6
 78
     2
 67
     7
 79
     5
170
     0
171
     0
290
     0
174
     0
 93
        1
 44
-50.0
173
     0
291
     1
 45
0.0
1001
ACAD
1000
AcDbSavedByObjectVersion
1070
     0
  0
VISUALSTYLE
  5
39
102
{ACAD_REACTORS
330
2A
102
}
102
{ACAD_XDICTIONARY
360
1A3
102
}
330
2A
100
AcDbVisualStyle
  2
Facepattern
 70
    15
 71
     2
 72
     2
 73
     0
 90
        0
 40
0.6
 41
30.0
 62
     5
 63
     7
421
 16777215
 74
     1
 91
        4
 64
     7
 65
   257
 75
     1
175
     1
 42
1.0
 92
        8
 66
     7
 43
1.0
 76
     1
 77
     6
 78
     2
 67
     7
 79
     5
170
     0
171
     0
290
     0
174
     0
 93
        1
 44
0.0
173
     0
291
     1
 45
0.0
1001
ACAD
1000
AcDbSavedByObjectVersion
1070
     0
  0
VISUALSTYLE
  5
2B
102
{ACAD_REACTORS
330
2A
102
}
102
{ACAD_XDICTIONARY
360
187
102
}
330
2A
100
AcDbVisualStyle
  2
Flat
 70
     0
 71
     2
 72
     1
 73
     1
 90
        2
 40
0.6
 41
30.0
 62
     5
 63
     7
421
 16777215
 74
     0
 91
        4
 64
     7
 65
   257
 75
     1
175
     1
 42
1.0
 92
        8
 66
     7
 43
1.0
 76
     1
 77
     6
 78
     2
 67
     7
 79
     5
170
     0
171
     0
290
     0
174
     0
 93
       13
 44
0.0
173
     0
291
     1
 45
0.0
1001
ACAD
1000
AcDbSavedByObjectVersion
1070
     0
  0
VISUALSTYLE
  5
2C
102
{ACAD_REACTORS
330
2A
102
}
102
{ACAD_XDICTIONARY
360
189
102
}
330
2A
100
AcDbVisualStyle
  2
FlatWithEdges
 70
     1
 71
     2
 72
     1
 73
     1
 90
        2
 40
0.6
 41
30.0
 62
     5
 63
     7
421
 16777215
 74
     1
 91
        4
 64
     7
 65
   257
 75
     1
175
     1
 42
1.0
 92
        0
 66
   257
 43
1.0
 76
     1
 77
     6
 78
     2
 67
     7
 79
     5
170
     0
171
     0
290
     0
174
     0
 93
       13
 44
0.0
173
     0
291
     1
 45
0.0
1001
ACAD
1000
AcDbSavedByObjectVersion
1070
     0
  0
VISUALSTYLE
  5
2D
102
{ACAD_REACTORS
330
2A
102
}
102
{ACAD_XDICTIONARY
360
18B
102
}
330
2A
100
AcDbVisualStyle
  2
Gouraud
 70
     2
 71
     2
 72
     2
 73
     1
 90
        2
 40
0.6
 41
30.0
 62
     5
 63
     7
421
 16777215
 74
     0
 91
        4
 64
     7
 65
   257
 75
     1
175
     1
 42
1.0
 92
        0
 66
     7
 43
1.0
 76
     1
 77
     6
 78
     2
 67
     7
 79
     5
170
     0
171
     0
290
     0
174
     0
 93
       13
 44
0.0
173
     0
291
     1
 45
0.0
1001
ACAD
1000
AcDbSavedByObjectVersion
1070
     0
  0
VISUALSTYLE
  5
2E
102
{ACAD_REACTORS
330
2A
102
}
102
{ACAD_XDICTIONARY
360
18D
102
}
330
2A
100
AcDbVisualStyle
  2
GouraudWithEdges
 70
     3
 71
     2
 72
     2
 73
     1
 90
        2
 40
0.6
 41
30.0
 62
     5
 63
     7
421
 16777215
 74
     1
 91
        4
 64
     7
 65
   257
 75
     1
175
     1
 42
1.0
 92
        0
 66
   257
 43
1.0
 76
     1
 77
     6
 78
     2
 67
     7
 79
     5
170
     0
171
     0
290
     0
174
     0
 93
       13
 44
0.0
173
     0
291
     1
 45
0.0
1001
ACAD
1000
AcDbSavedByObjectVersion
1070
     0
  0
VISUALSTYLE
  5
38
102
{ACAD_REACTORS
330
2A
102
}
102
{ACAD_XDICTIONARY
360
1A1
102
}
330
2A
100
AcDbVisualStyle
  2
Linepattern
 70
    14
 71
     2
 72
     2
 73
     0
 90
        0
 40
0.6
 41
30.0
 62
     5
 63
     7
421
 16777215
 74
     1
 91
        4
 64
     7
 65
   257
 75
     7
175
     7
 42
1.0
 92
        8
 66
     7
 43
1.0
 76
     1
 77
     6
 78
     2
 67
     7
 79
     5
170
     0
171
     0
290
     0
174
     0
 93
        1
 44
0.0
173
     0
291
     1
 45
0.0
1001
ACAD
1000
AcDbSavedByObjectVersion
1070
     0
  0
VISUALSTYLE
  5
33
102
{ACAD_REACTORS
330
2A
102
}
102
{ACAD_XDICTIONARY
360
197
102
}
330
2A
100
AcDbVisualStyle
  2
Realistic
 70
     8
 71
     2
 72
     3
 73
     0
 90
        2
 40
0.6
 41
30.0
 62
     5
 63
     7
421
 16777215
 74
     0
 91
        0
 64
     7
 65
   257
 75
     1
175
     1
 42
1.0
 92
        8
 66
   257
 43
1.0
 76
     1
 77
     6
 78
     2
 67
     7
 79
     3
170
     0
171
     0
290
     0
174
     0
 93
       13
 44
0.0
173
     0
291
     0
 45
0.0
1001
ACAD
1000
AcDbSavedByObjectVersion
1070
     0
  0
VISUALSTYLE
  5
37
102
{ACAD_REACTORS
330
2A
102
}
102
{ACAD_XDICTIONARY
360
19F
102
}
330
2A
100
AcDbVisualStyle
  2
Thicken
 70
    13
 71
     2
 72
     2
 73
     0
 90
        0
 40
0.6
 41
30.0
 62
     5
 63
     7
421
 16777215
 74
     1
 91
        4
 64
     7
 65
   257
 75
     1
175
     1
 42
1.0
 92
       12
 66
     7
 43
1.0
 76
     1
 77
     6
 78
     2
 67
     7
 79
     5
170
     0
171
     0
290
     0
174
     0
 93
        1
 44
0.0
173
     0
291
     1
 45
0.0
1001
ACAD
1000
AcDbSavedByObjectVersion
1070
     0
  0
DICTIONARYVAR
  5
185
102
{ACAD_REACTORS
330
184
102
}
330
184
100
DictionaryVariables
280
     0
  1
1:1
  0
DICTIONARYVAR
  5
186
102
{ACAD_REACTORS
330
184
102
}
330
184
100
DictionaryVariables
280
     0
  1
1
  0
DICTIONARY
  5
1A9
330
3D
100
AcDbDictionary
280
     1
281
     1
  3
ACAD_XREC_ROUNDTRIP
360
1AA
  0
DICTIONARY
  5
1A7
330
3C
100
AcDbDictionary
280
     1
281
     1
  3
ACAD_XREC_ROUNDTRIP
360
1A8
  0
DICTIONARY
  5
1AB
330
3E
100
AcDbDictionary
280
     1
281
     1
  3
ACAD_XREC_ROUNDTRIP
360
1AC
  0
DICTIONARY
  5
18F
330
2F
100
AcDbDictionary
280
     1
281
     1
  3
ACAD_XREC_ROUNDTRIP
360
190
  0
DICTIONARY
  5
193
330
31
100
AcDbDictionary
280
     1
281
     1
  3
ACAD_XREC_ROUNDTRIP
360
194
  0
DICTIONARY
  5
191
330
30
100
AcDbDictionary
280
     1
281
     1
  3
ACAD_XREC_ROUNDTRIP
360
192
  0
DICTIONARY
  5
195
330
32
100
AcDbDictionary
280
     1
281
     1
  3
ACAD_XREC_ROUNDTRIP
360
196
  0
DICTIONARY
  5
19D
330
36
100
AcDbDictionary
280
     1
281
     1
  3
ACAD_XREC_ROUNDTRIP
360
19E
  0
DICTIONARY
  5
1A5
330
3A
100
AcDbDictionary
280
     1
281
     1
  3
ACAD_XREC_ROUNDTRIP
360
1A6
  0
DICTIONARY
  5
199
330
34
100
AcDbDictionary
280
     1
281
     1
  3
ACAD_XREC_ROUNDTRIP
360
19A
  0
DICTIONARY
  5
19B
330
35
100
AcDbDictionary
280
     1
281
     1
  3
ACAD_XREC_ROUNDTRIP
360
19C
  0
DICTIONARY
  5
1A3
330
39
100
AcDbDictionary
280
     1
281
     1
  3
ACAD_XREC_ROUNDTRIP
360
1A4
  0
DICTIONARY
  5
187
330
2B
100
AcDbDictionary
280
     1
281
     1
  3
ACAD_XREC_ROUNDTRIP
360
188
  0
DICTIONARY
  5
189
330
2C
100
AcDbDictionary
280
     1
281
     1
  3
ACAD_XREC_ROUNDTRIP
360
18A
  0
DICTIONARY
  5
18B
330
2D
100
AcDbDictionary
280
     1
281
     1
  3
ACAD_XREC_ROUNDTRIP
360
18C
  0
DICTIONARY
  5
18D
330
2E
100
AcDbDictionary
280
     1
281
     1
  3
ACAD_XREC_ROUNDTRIP
360
18E
  0
DICTIONARY
  5
1A1
330
38
100
AcDbDictionary
280
     1
281
     1
  3
ACAD_XREC_ROUNDTRIP
360
1A2
  0
DICTIONARY
  5
197
330
33
100
AcDbDictionary
280
     1
281
     1
  3
ACAD_XREC_ROUNDTRIP
360
198
  0
DICTIONARY
  5
19F
330
37
100
AcDbDictionary
280
     1
281
     1
  3
ACAD_XREC_ROUNDTRIP
360
1A0
  0
XRECORD
  5
1AA
102
{ACAD_REACTORS
330
1A9
102
}
330
1A9
100
AcDbXrecord
280
     1
102
MATERIAL
148
0.0
149
0.0
149
0.0
 93
        0
 94
      127
282
     0
 72
     1
 77
     1
171
     1
175
     1
179
     1
273
     0
  0
XRECORD
  5
1A8
102
{ACAD_REACTORS
330
1A7
102
}
330
1A7
100
AcDbXrecord
280
     1
102
MATERIAL
148
0.0
149
0.0
149
0.0
 93
        0
 94
      127
282
     0
 72
     1
 77
     1
171
     1
175
     1
179
     1
273
     0
  0
XRECORD
  5
1AC
102
{ACAD_REACTORS
330
1AB
102
}
330
1AB
100
AcDbXrecord
280
     1
102
MATERIAL
148
0.0
149
0.0
149
0.0
 93
        0
 94
      127
282
     0
 72
     1
 77
     1
171
     1
175
     1
179
     1
273
     0
  0
XRECORD
  5
190
102
{ACAD_REACTORS
330
18F
102
}
330
18F
100
AcDbXrecord
280
     1
102
RTVSPropertyOp0
 70
     1
102
RTVSPropertyOp1
 70
     1
102
RTVSPropertyOp2
 70
     1
102
RTVSPropertyOp3
 70
     1
102
RTVSPropertyOp4
 70
     1
102
RTVSPropertyOp5
 70
     1
102
RTVSPropertyOp6
 70
     1
102
RTVSPropertyOp7
 70
     1
102
RTVSPropertyOp8
 70
     1
102
RTVSPropertyOp9
 70
     1
102
RTVSPropertyOp10
 70
     1
102
RTVSPropertyOp11
 70
     1
102
RTVSPropertyOp12
 70
     1
102
RTVSPropertyOp13
 70
     1
102
RTVSPropertyOp14
 70
     1
102
RTVSPropertyOp15
 70
     1
102
RTVSPropertyOp16
 70
     1
102
RTVSPropertyOp17
 70
     1
102
RTVSPropertyOp18
 70
     1
102
RTVSPropertyOp19
 70
     1
102
RTVSPropertyOp20
 70
     1
102
RTVSPropertyOp21
 70
     1
102
RTVSPropertyOp22
 70
     1
102
RTVSPropertyOp23
 70
     1
102
RTVSPropertyOp24
 70
     1
102
RTVSPropertyOp25
 70
     1
102
RTVSPropertyOp26
 70
     1
102
RTVSPropertyOp27
 70
     1
102
RTVSPropertyOp28
 70
     1
102
RTVSPropertyOp29
 70
     1
102
RTVSPropertyOp30
 70
     1
102
RTVSPropertyOp31
 70
     1
102
RTVSPropertyOp32
 70
     1
102
RTVSPropertyOp33
 70
     1
102
RTVSPropertyOp34
 70
     1
102
RTVSPropertyOp35
 70
     1
102
RTVSPropertyOp36
 70
     1
102
RTVSPropertyOp37
 70
     1
102
RTVSPropertyOp38
 70
     1
102
RTVSPropertyOp39
 70
     1
102
RTVSPropertyOp40
 70
     1
102
RTVSPropertyOp41
 70
     1
102
RTVSPropertyOp42
 70
     1
102
RTVSPropertyOp43
 70
     1
102
RTVSPropertyOp44
 70
     1
102
RTVSPropertyOp45
 70
     1
102
RTVSPropertyOp46
 70
     1
102
RTVSPropertyOp47
 70
     1
102
RTVSPropertyOp48
 70
     1
102
RTVSPropertyOp49
 70
     1
102
RTVSPropertyOp50
 70
     1
102
RTVSPropertyOp51
 70
     0
102
RTVSPropertyOp52
 70
     0
102
RTVSPropertyOp53
 70
     1
102
RTVSPropertyOp54
 70
     1
102
RTVSPropertyOp55
 70
     1
102
RTVSPropertyOp56
 70
     1
102
RTVSPropertyOp57
 70
     1
102
RTVSPost2010Prop28
280
     1
102
RTVSPost2010PropOp28
 70
     1
102
RTVSPost2010Prop29
280
     1
102
RTVSPost2010PropOp29
 70
     1
102
RTVSPost2010Prop30
280
     0
102
RTVSPost2010PropOp30
 70
     1
102
RTVSPost2010Prop31
280
     0
102
RTVSPost2010PropOp31
 70
     1
102
RTVSPost2010Prop32
280
     0
102
RTVSPost2010PropOp32
 70
     1
102
RTVSPost2010Prop33
280
     0
102
RTVSPost2010PropOp33
 70
     1
102
RTVSPost2010Prop34
280
     0
102
RTVSPost2010PropOp34
 70
     1
102
RTVSPost2010Prop35
280
     0
102
RTVSPost2010PropOp35
 70
     1
102
RTVSPost2010Prop36
280
     0
102
RTVSPost2010PropOp36
 70
     1
102
RTVSPost2010Prop37
 90
       50
102
RTVSPost2010PropOp37
 70
     1
102
RTVSPost2010Prop38
140
0.0
102
RTVSPost2010PropOp38
 70
     1
102
RTVSPost2010Prop39
140
1.0
102
RTVSPost2010PropOp39
 70
     1
102
RTVSPost2010Prop40
 90
        0
102
RTVSPost2010PropOp40
 70
     1
102
RTVSPost2010Prop41ColorIndex
 90
       18
102
RTVSPost2010Prop41ColorRGB
 90
        0
102
RTVSPost2010PropOp41
 70
     1
102
RTVSPost2010Prop42
 90
       50
102
RTVSPost2010PropOp42
 70
     1
102
RTVSPost2010Prop43
 90
        3
102
RTVSPost2010PropOp43
 70
     1
102
RTVSPost2010Prop44ColorIndex
 90
        5
102
RTVSPost2010Prop44ColorRGB
 90
      255
102
RTVSPost2010PropOp44
 70
     1
102
RTVSPost2010Prop45
280
     0
102
RTVSPost2010PropOp45
 70
     1
102
RTVSPost2010Prop46
 90
       50
102
RTVSPost2010PropOp46
 70
     1
102
RTVSPost2010Prop47
 90
       50
102
RTVSPost2010PropOp47
 70
     1
102
RTVSPost2010Prop48
 90
       50
102
RTVSPost2010PropOp48
 70
     1
102
RTVSPost2010Prop49
280
     0
102
RTVSPost2010PropOp49
 70
     1
102
RTVSPost2010Prop50
 90
       50
102
RTVSPost2010PropOp50
 70
     1
102
RTVSPost2010Prop51ColorIndex
 90
      256
102
RTVSPost2010Prop51ColorRGB
 90
-16777216
102
RTVSPost2010PropOp51
 70
     0
102
RTVSPost2010Prop52
140
1.0
102
RTVSPost2010PropOp52
 70
     0
102
RTVSPost2010Prop53
 90
        2
102
RTVSPost2010PropOp53
 70
     1
102
RTVSPost2010Prop54
  1
strokes_ogs.tif
102
RTVSPost2010PropOp54
 70
     1
102
RTVSPost2010Prop55
280
     0
102
RTVSPost2010PropOp55
 70
     1
102
RTVSPost2010Prop56
140
1.0
102
RTVSPost2010PropOp56
 70
     1
102
RTVSPost2010Prop57
140
1.0
102
RTVSPost2010PropOp57
 70
     1
  0
XRECORD
  5
194
102
{ACAD_REACTORS
330
193
102
}
330
193
100
AcDbXrecord
280
     1
102
RTVSPropertyOp0
 70
     1
102
RTVSPropertyOp1
 70
     1
102
RTVSPropertyOp2
 70
     1
102
RTVSPropertyOp3
 70
     1
102
RTVSPropertyOp4
 70
     1
102
RTVSPropertyOp5
 70
     1
102
RTVSPropertyOp6
 70
     1
102
RTVSPropertyOp7
 70
     1
102
RTVSPropertyOp8
 70
     1
102
RTVSPropertyOp9
 70
     1
102
RTVSPropertyOp10
 70
     1
102
RTVSPropertyOp11
 70
     1
102
RTVSPropertyOp12
 70
     1
102
RTVSPropertyOp13
 70
     1
102
RTVSPropertyOp14
 70
     1
102
RTVSPropertyOp15
 70
     1
102
RTVSPropertyOp16
 70
     1
102
RTVSPropertyOp17
 70
     1
102
RTVSPropertyOp18
 70
     1
102
RTVSPropertyOp19
 70
     1
102
RTVSPropertyOp20
 70
     1
102
RTVSPropertyOp21
 70
     1
102
RTVSPropertyOp22
 70
     1
102
RTVSPropertyOp23
 70
     1
102
RTVSPropertyOp24
 70
     1
102
RTVSPropertyOp25
 70
     1
102
RTVSPropertyOp26
 70
     1
102
RTVSPropertyOp27
 70
     1
102
RTVSPropertyOp28
 70
     1
102
RTVSPropertyOp29
 70
     1
102
RTVSPropertyOp30
 70
     1
102
RTVSPropertyOp31
 70
     1
102
RTVSPropertyOp32
 70
     1
102
RTVSPropertyOp33
 70
     1
102
RTVSPropertyOp34
 70
     1
102
RTVSPropertyOp35
 70
     1
102
RTVSPropertyOp36
 70
     1
102
RTVSPropertyOp37
 70
     1
102
RTVSPropertyOp38
 70
     1
102
RTVSPropertyOp39
 70
     1
102
RTVSPropertyOp40
 70
     1
102
RTVSPropertyOp41
 70
     1
102
RTVSPropertyOp42
 70
     1
102
RTVSPropertyOp43
 70
     1
102
RTVSPropertyOp44
 70
     1
102
RTVSPropertyOp45
 70
     1
102
RTVSPropertyOp46
 70
     1
102
RTVSPropertyOp47
 70
     1
102
RTVSPropertyOp48
 70
     1
102
RTVSPropertyOp49
 70
     1
102
RTVSPropertyOp50
 70
     1
102
RTVSPropertyOp51
 70
     0
102
RTVSPropertyOp52
 70
     0
102
RTVSPropertyOp53
 70
     1
102
RTVSPropertyOp54
 70
     1
102
RTVSPropertyOp55
 70
     1
102
RTVSPropertyOp56
 70
     1
102
RTVSPropertyOp57
 70
     1
102
RTVSPost2010Prop28
280
     0
102
RTVSPost2010PropOp28
 70
     1
102
RTVSPost2010Prop29
280
     1
102
RTVSPost2010PropOp29
 70
     1
102
RTVSPost2010Prop30
280
     1
102
RTVSPost2010PropOp30
 70
     1
102
RTVSPost2010Prop31
280
     0
102
RTVSPost2010PropOp31
 70
     1
102
RTVSPost2010Prop32
280
     0
102
RTVSPost2010PropOp32
 70
     1
102
RTVSPost2010Prop33
280
     0
102
RTVSPost2010PropOp33
 70
     1
102
RTVSPost2010Prop34
280
     0
102
RTVSPost2010PropOp34
 70
     1
102
RTVSPost2010Prop35
280
     0
102
RTVSPost2010PropOp35
 70
     1
102
RTVSPost2010Prop36
280
     0
102
RTVSPost2010PropOp36
 70
     1
102
RTVSPost2010Prop37
 90
       50
102
RTVSPost2010PropOp37
 70
     1
102
RTVSPost2010Prop38
140
0.0
102
RTVSPost2010PropOp38
 70
     1
102
RTVSPost2010Prop39
140
1.0
102
RTVSPost2010PropOp39
 70
     1
102
RTVSPost2010Prop40
 90
        0
102
RTVSPost2010PropOp40
 70
     1
102
RTVSPost2010Prop41ColorIndex
 90
       18
102
RTVSPost2010Prop41ColorRGB
 90
        0
102
RTVSPost2010PropOp41
 70
     1
102
RTVSPost2010Prop42
 90
       50
102
RTVSPost2010PropOp42
 70
     1
102
RTVSPost2010Prop43
 90
        3
102
RTVSPost2010PropOp43
 70
     1
102
RTVSPost2010Prop44ColorIndex
 90
        5
102
RTVSPost2010Prop44ColorRGB
 90
      255
102
RTVSPost2010PropOp44
 70
     1
102
RTVSPost2010Prop45
280
     0
102
RTVSPost2010PropOp45
 70
     1
102
RTVSPost2010Prop46
 90
       50
102
RTVSPost2010PropOp46
 70
     1
102
RTVSPost2010Prop47
 90
       50
102
RTVSPost2010PropOp47
 70
     1
102
RTVSPost2010Prop48
 90
       50
102
RTVSPost2010PropOp48
 70
     1
102
RTVSPost2010Prop49
280
     0
102
RTVSPost2010PropOp49
 70
     1
102
RTVSPost2010Prop50
 90
       50
102
RTVSPost2010PropOp50
 70
     1
102
RTVSPost2010Prop51ColorIndex
 90
      256
102
RTVSPost2010Prop51ColorRGB
 90
-16777216
102
RTVSPost2010PropOp51
 70
     0
102
RTVSPost2010Prop52
140
1.0
102
RTVSPost2010PropOp52
 70
     0
102
RTVSPost2010Prop53
 90
        2
102
RTVSPost2010PropOp53
 70
     1
102
RTVSPost2010Prop54
  1
strokes_ogs.tif
102
RTVSPost2010PropOp54
 70
     1
102
RTVSPost2010Prop55
280
     0
102
RTVSPost2010PropOp55
 70
     1
102
RTVSPost2010Prop56
140
1.0
102
RTVSPost2010PropOp56
 70
     1
102
RTVSPost2010Prop57
140
1.0
102
RTVSPost2010PropOp57
 70
     1
  0
XRECORD
  5
192
102
{ACAD_REACTORS
330
191
102
}
330
191
100
AcDbXrecord
280
     1
102
RTVSPropertyOp0
 70
     1
102
RTVSPropertyOp1
 70
     1
102
RTVSPropertyOp2
 70
     1
102
RTVSPropertyOp3
 70
     1
102
RTVSPropertyOp4
 70
     1
102
RTVSPropertyOp5
 70
     1
102
RTVSPropertyOp6
 70
     1
102
RTVSPropertyOp7
 70
     1
102
RTVSPropertyOp8
 70
     1
102
RTVSPropertyOp9
 70
     1
102
RTVSPropertyOp10
 70
     1
102
RTVSPropertyOp11
 70
     1
102
RTVSPropertyOp12
 70
     1
102
RTVSPropertyOp13
 70
     1
102
RTVSPropertyOp14
 70
     1
102
RTVSPropertyOp15
 70
     1
102
RTVSPropertyOp16
 70
     1
102
RTVSPropertyOp17
 70
     1
102
RTVSPropertyOp18
 70
     1
102
RTVSPropertyOp19
 70
     1
102
RTVSPropertyOp20
 70
     1
102
RTVSPropertyOp21
 70
     1
102
RTVSPropertyOp22
 70
     1
102
RTVSPropertyOp23
 70
     1
102
RTVSPropertyOp24
 70
     1
102
RTVSPropertyOp25
 70
     1
102
RTVSPropertyOp26
 70
     1
102
RTVSPropertyOp27
 70
     1
102
RTVSPropertyOp28
 70
     1
102
RTVSPropertyOp29
 70
     1
102
RTVSPropertyOp30
 70
     1
102
RTVSPropertyOp31
 70
     1
102
RTVSPropertyOp32
 70
     1
102
RTVSPropertyOp33
 70
     1
102
RTVSPropertyOp34
 70
     1
102
RTVSPropertyOp35
 70
     1
102
RTVSPropertyOp36
 70
     1
102
RTVSPropertyOp37
 70
     1
102
RTVSPropertyOp38
 70
     1
102
RTVSPropertyOp39
 70
     1
102
RTVSPropertyOp40
 70
     1
102
RTVSPropertyOp41
 70
     1
102
RTVSPropertyOp42
 70
     1
102
RTVSPropertyOp43
 70
     1
102
RTVSPropertyOp44
 70
     1
102
RTVSPropertyOp45
 70
     1
102
RTVSPropertyOp46
 70
     1
102
RTVSPropertyOp47
 70
     1
102
RTVSPropertyOp48
 70
     1
102
RTVSPropertyOp49
 70
     1
102
RTVSPropertyOp50
 70
     1
102
RTVSPropertyOp51
 70
     0
102
RTVSPropertyOp52
 70
     0
102
RTVSPropertyOp53
 70
     1
102
RTVSPropertyOp54
 70
     1
102
RTVSPropertyOp55
 70
     1
102
RTVSPropertyOp56
 70
     1
102
RTVSPropertyOp57
 70
     1
102
RTVSPost2010Prop28
280
     0
102
RTVSPost2010PropOp28
 70
     1
102
RTVSPost2010Prop29
280
     1
102
RTVSPost2010PropOp29
 70
     1
102
RTVSPost2010Prop30
280
     1
102
RTVSPost2010PropOp30
 70
     1
102
RTVSPost2010Prop31
280
     0
102
RTVSPost2010PropOp31
 70
     1
102
RTVSPost2010Prop32
280
     0
102
RTVSPost2010PropOp32
 70
     1
102
RTVSPost2010Prop33
280
     0
102
RTVSPost2010PropOp33
 70
     1
102
RTVSPost2010Prop34
280
     0
102
RTVSPost2010PropOp34
 70
     1
102
RTVSPost2010Prop35
280
     0
102
RTVSPost2010PropOp35
 70
     1
102
RTVSPost2010Prop36
280
     0
102
RTVSPost2010PropOp36
 70
     1
102
RTVSPost2010Prop37
 90
       50
102
RTVSPost2010PropOp37
 70
     1
102
RTVSPost2010Prop38
140
0.0
102
RTVSPost2010PropOp38
 70
     1
102
RTVSPost2010Prop39
140
1.0
102
RTVSPost2010PropOp39
 70
     1
102
RTVSPost2010Prop40
 90
        0
102
RTVSPost2010PropOp40
 70
     1
102
RTVSPost2010Prop41ColorIndex
 90
       18
102
RTVSPost2010Prop41ColorRGB
 90
        0
102
RTVSPost2010PropOp41
 70
     1
102
RTVSPost2010Prop42
 90
       50
102
RTVSPost2010PropOp42
 70
     1
102
RTVSPost2010Prop43
 90
        3
102
RTVSPost2010PropOp43
 70
     1
102
RTVSPost2010Prop44ColorIndex
 90
        5
102
RTVSPost2010Prop44ColorRGB
 90
      255
102
RTVSPost2010PropOp44
 70
     1
102
RTVSPost2010Prop45
280
     0
102
RTVSPost2010PropOp45
 70
     1
102
RTVSPost2010Prop46
 90
       50
102
RTVSPost2010PropOp46
 70
     1
102
RTVSPost2010Prop47
 90
       50
102
RTVSPost2010PropOp47
 70
     1
102
RTVSPost2010Prop48
 90
       50
102
RTVSPost2010PropOp48
 70
     1
102
RTVSPost2010Prop49
280
     0
102
RTVSPost2010PropOp49
 70
     1
102
RTVSPost2010Prop50
 90
       50
102
RTVSPost2010PropOp50
 70
     1
102
RTVSPost2010Prop51ColorIndex
 90
      256
102
RTVSPost2010Prop51ColorRGB
 90
-16777216
102
RTVSPost2010PropOp51
 70
     0
102
RTVSPost2010Prop52
140
1.0
102
RTVSPost2010PropOp52
 70
     0
102
RTVSPost2010Prop53
 90
        2
102
RTVSPost2010PropOp53
 70
     1
102
RTVSPost2010Prop54
  1
strokes_ogs.tif
102
RTVSPost2010PropOp54
 70
     1
102
RTVSPost2010Prop55
280
     0
102
RTVSPost2010PropOp55
 70
     1
102
RTVSPost2010Prop56
140
1.0
102
RTVSPost2010PropOp56
 70
     1
102
RTVSPost2010Prop57
140
1.0
102
RTVSPost2010PropOp57
 70
     1
  0
XRECORD
  5
196
102
{ACAD_REACTORS
330
195
102
}
330
195
100
AcDbXrecord
280
     1
102
RTVSPropertyOp0
 70
     1
102
RTVSPropertyOp1
 70
     1
102
RTVSPropertyOp2
 70
     1
102
RTVSPropertyOp3
 70
     1
102
RTVSPropertyOp4
 70
     1
102
RTVSPropertyOp5
 70
     1
102
RTVSPropertyOp6
 70
     1
102
RTVSPropertyOp7
 70
     1
102
RTVSPropertyOp8
 70
     1
102
RTVSPropertyOp9
 70
     1
102
RTVSPropertyOp10
 70
     1
102
RTVSPropertyOp11
 70
     1
102
RTVSPropertyOp12
 70
     1
102
RTVSPropertyOp13
 70
     1
102
RTVSPropertyOp14
 70
     1
102
RTVSPropertyOp15
 70
     1
102
RTVSPropertyOp16
 70
     1
102
RTVSPropertyOp17
 70
     1
102
RTVSPropertyOp18
 70
     1
102
RTVSPropertyOp19
 70
     1
102
RTVSPropertyOp20
 70
     1
102
RTVSPropertyOp21
 70
     1
102
RTVSPropertyOp22
 70
     1
102
RTVSPropertyOp23
 70
     1
102
RTVSPropertyOp24
 70
     1
102
RTVSPropertyOp25
 70
     1
102
RTVSPropertyOp26
 70
     1
102
RTVSPropertyOp27
 70
     1
102
RTVSPropertyOp28
 70
     1
102
RTVSPropertyOp29
 70
     1
102
RTVSPropertyOp30
 70
     1
102
RTVSPropertyOp31
 70
     1
102
RTVSPropertyOp32
 70
     1
102
RTVSPropertyOp33
 70
     1
102
RTVSPropertyOp34
 70
     1
102
RTVSPropertyOp35
 70
     1
102
RTVSPropertyOp36
 70
     1
102
RTVSPropertyOp37
 70
     1
102
RTVSPropertyOp38
 70
     1
102
RTVSPropertyOp39
 70
     1
102
RTVSPropertyOp40
 70
     1
102
RTVSPropertyOp41
 70
     1
102
RTVSPropertyOp42
 70
     1
102
RTVSPropertyOp43
 70
     1
102
RTVSPropertyOp44
 70
     1
102
RTVSPropertyOp45
 70
     1
102
RTVSPropertyOp46
 70
     1
102
RTVSPropertyOp47
 70
     1
102
RTVSPropertyOp48
 70
     1
102
RTVSPropertyOp49
 70
     1
102
RTVSPropertyOp50
 70
     1
102
RTVSPropertyOp51
 70
     0
102
RTVSPropertyOp52
 70
     0
102
RTVSPropertyOp53
 70
     1
102
RTVSPropertyOp54
 70
     1
102
RTVSPropertyOp55
 70
     1
102
RTVSPropertyOp56
 70
     1
102
RTVSPropertyOp57
 70
     1
102
RTVSPost2010Prop28
280
     0
102
RTVSPost2010PropOp28
 70
     1
102
RTVSPost2010Prop29
280
     1
102
RTVSPost2010PropOp29
 70
     1
102
RTVSPost2010Prop30
280
     1
102
RTVSPost2010PropOp30
 70
     1
102
RTVSPost2010Prop31
280
     0
102
RTVSPost2010PropOp31
 70
     1
102
RTVSPost2010Prop32
280
     0
102
RTVSPost2010PropOp32
 70
     1
102
RTVSPost2010Prop33
280
     0
102
RTVSPost2010PropOp33
 70
     1
102
RTVSPost2010Prop34
280
     0
102
RTVSPost2010PropOp34
 70
     1
102
RTVSPost2010Prop35
280
     0
102
RTVSPost2010PropOp35
 70
     1
102
RTVSPost2010Prop36
280
     0
102
RTVSPost2010PropOp36
 70
     1
102
RTVSPost2010Prop37
 90
       50
102
RTVSPost2010PropOp37
 70
     1
102
RTVSPost2010Prop38
140
0.0
102
RTVSPost2010PropOp38
 70
     1
102
RTVSPost2010Prop39
140
1.0
102
RTVSPost2010PropOp39
 70
     1
102
RTVSPost2010Prop40
 90
        0
102
RTVSPost2010PropOp40
 70
     1
102
RTVSPost2010Prop41ColorIndex
 90
       18
102
RTVSPost2010Prop41ColorRGB
 90
        0
102
RTVSPost2010PropOp41
 70
     1
102
RTVSPost2010Prop42
 90
       50
102
RTVSPost2010PropOp42
 70
     1
102
RTVSPost2010Prop43
 90
        3
102
RTVSPost2010PropOp43
 70
     1
102
RTVSPost2010Prop44ColorIndex
 90
        5
102
RTVSPost2010Prop44ColorRGB
 90
      255
102
RTVSPost2010PropOp44
 70
     1
102
RTVSPost2010Prop45
280
     0
102
RTVSPost2010PropOp45
 70
     1
102
RTVSPost2010Prop46
 90
       50
102
RTVSPost2010PropOp46
 70
     1
102
RTVSPost2010Prop47
 90
       50
102
RTVSPost2010PropOp47
 70
     1
102
RTVSPost2010Prop48
 90
       50
102
RTVSPost2010PropOp48
 70
     1
102
RTVSPost2010Prop49
280
     0
102
RTVSPost2010PropOp49
 70
     1
102
RTVSPost2010Prop50
 90
       50
102
RTVSPost2010PropOp50
 70
     1
102
RTVSPost2010Prop51ColorIndex
 90
      256
102
RTVSPost2010Prop51ColorRGB
 90
-16777216
102
RTVSPost2010PropOp51
 70
     0
102
RTVSPost2010Prop52
140
1.0
102
RTVSPost2010PropOp52
 70
     0
102
RTVSPost2010Prop53
 90
        2
102
RTVSPost2010PropOp53
 70
     1
102
RTVSPost2010Prop54
  1
strokes_ogs.tif
102
RTVSPost2010PropOp54
 70
     1
102
RTVSPost2010Prop55
280
     0
102
RTVSPost2010PropOp55
 70
     1
102
RTVSPost2010Prop56
140
1.0
102
RTVSPost2010PropOp56
 70
     1
102
RTVSPost2010Prop57
140
1.0
102
RTVSPost2010PropOp57
 70
     1
  0
XRECORD
  5
19E
102
{ACAD_REACTORS
330
19D
102
}
330
19D
100
AcDbXrecord
280
     1
102
RTVSPropertyOp0
 70
     1
102
RTVSPropertyOp1
 70
     1
102
RTVSPropertyOp2
 70
     1
102
RTVSPropertyOp3
 70
     1
102
RTVSPropertyOp4
 70
     1
102
RTVSPropertyOp5
 70
     1
102
RTVSPropertyOp6
 70
     1
102
RTVSPropertyOp7
 70
     1
102
RTVSPropertyOp8
 70
     1
102
RTVSPropertyOp9
 70
     1
102
RTVSPropertyOp10
 70
     1
102
RTVSPropertyOp11
 70
     1
102
RTVSPropertyOp12
 70
     1
102
RTVSPropertyOp13
 70
     1
102
RTVSPropertyOp14
 70
     1
102
RTVSPropertyOp15
 70
     1
102
RTVSPropertyOp16
 70
     1
102
RTVSPropertyOp17
 70
     1
102
RTVSPropertyOp18
 70
     1
102
RTVSPropertyOp19
 70
     1
102
RTVSPropertyOp20
 70
     1
102
RTVSPropertyOp21
 70
     1
102
RTVSPropertyOp22
 70
     1
102
RTVSPropertyOp23
 70
     1
102
RTVSPropertyOp24
 70
     1
102
RTVSPropertyOp25
 70
     1
102
RTVSPropertyOp26
 70
     1
102
RTVSPropertyOp27
 70
     1
102
RTVSPropertyOp28
 70
     1
102
RTVSPropertyOp29
 70
     1
102
RTVSPropertyOp30
 70
     1
102
RTVSPropertyOp31
 70
     1
102
RTVSPropertyOp32
 70
     1
102
RTVSPropertyOp33
 70
     1
102
RTVSPropertyOp34
 70
     1
102
RTVSPropertyOp35
 70
     1
102
RTVSPropertyOp36
 70
     1
102
RTVSPropertyOp37
 70
     1
102
RTVSPropertyOp38
 70
     1
102
RTVSPropertyOp39
 70
     1
102
RTVSPropertyOp40
 70
     1
102
RTVSPropertyOp41
 70
     1
102
RTVSPropertyOp42
 70
     1
102
RTVSPropertyOp43
 70
     1
102
RTVSPropertyOp44
 70
     1
102
RTVSPropertyOp45
 70
     1
102
RTVSPropertyOp46
 70
     1
102
RTVSPropertyOp47
 70
     1
102
RTVSPropertyOp48
 70
     1
102
RTVSPropertyOp49
 70
     1
102
RTVSPropertyOp50
 70
     1
102
RTVSPropertyOp51
 70
     0
102
RTVSPropertyOp52
 70
     0
102
RTVSPropertyOp53
 70
     1
102
RTVSPropertyOp54
 70
     1
102
RTVSPropertyOp55
 70
     1
102
RTVSPropertyOp56
 70
     1
102
RTVSPropertyOp57
 70
     1
102
RTVSPost2010Prop28
280
     0
102
RTVSPost2010PropOp28
 70
     1
102
RTVSPost2010Prop29
280
     1
102
RTVSPost2010PropOp29
 70
     1
102
RTVSPost2010Prop30
280
     1
102
RTVSPost2010PropOp30
 70
     1
102
RTVSPost2010Prop31
280
     0
102
RTVSPost2010PropOp31
 70
     1
102
RTVSPost2010Prop32
280
     0
102
RTVSPost2010PropOp32
 70
     1
102
RTVSPost2010Prop33
280
     0
102
RTVSPost2010PropOp33
 70
     1
102
RTVSPost2010Prop34
280
     0
102
RTVSPost2010PropOp34
 70
     1
102
RTVSPost2010Prop35
280
     0
102
RTVSPost2010PropOp35
 70
     1
102
RTVSPost2010Prop36
280
     0
102
RTVSPost2010PropOp36
 70
     1
102
RTVSPost2010Prop37
 90
       50
102
RTVSPost2010PropOp37
 70
     1
102
RTVSPost2010Prop38
140
0.0
102
RTVSPost2010PropOp38
 70
     1
102
RTVSPost2010Prop39
140
1.0
102
RTVSPost2010PropOp39
 70
     1
102
RTVSPost2010Prop40
 90
        0
102
RTVSPost2010PropOp40
 70
     1
102
RTVSPost2010Prop41ColorIndex
 90
       18
102
RTVSPost2010Prop41ColorRGB
 90
        0
102
RTVSPost2010PropOp41
 70
     1
102
RTVSPost2010Prop42
 90
       50
102
RTVSPost2010PropOp42
 70
     1
102
RTVSPost2010Prop43
 90
        3
102
RTVSPost2010PropOp43
 70
     1
102
RTVSPost2010Prop44ColorIndex
 90
        5
102
RTVSPost2010Prop44ColorRGB
 90
      255
102
RTVSPost2010PropOp44
 70
     1
102
RTVSPost2010Prop45
280
     0
102
RTVSPost2010PropOp45
 70
     1
102
RTVSPost2010Prop46
 90
       50
102
RTVSPost2010PropOp46
 70
     1
102
RTVSPost2010Prop47
 90
       50
102
RTVSPost2010PropOp47
 70
     1
102
RTVSPost2010Prop48
 90
       50
102
RTVSPost2010PropOp48
 70
     1
102
RTVSPost2010Prop49
280
     0
102
RTVSPost2010PropOp49
 70
     1
102
RTVSPost2010Prop50
 90
       50
102
RTVSPost2010PropOp50
 70
     1
102
RTVSPost2010Prop51ColorIndex
 90
      256
102
RTVSPost2010Prop51ColorRGB
 90
-16777216
102
RTVSPost2010PropOp51
 70
     0
102
RTVSPost2010Prop52
140
1.0
102
RTVSPost2010PropOp52
 70
     0
102
RTVSPost2010Prop53
 90
        2
102
RTVSPost2010PropOp53
 70
     1
102
RTVSPost2010Prop54
  1
strokes_ogs.tif
102
RTVSPost2010PropOp54
 70
     1
102
RTVSPost2010Prop55
280
     0
102
RTVSPost2010PropOp55
 70
     1
102
RTVSPost2010Prop56
140
1.0
102
RTVSPost2010PropOp56
 70
     1
102
RTVSPost2010Prop57
140
1.0
102
RTVSPost2010PropOp57
 70
     1
  0
XRECORD
  5
1A6
102
{ACAD_REACTORS
330
1A5
102
}
330
1A5
100
AcDbXrecord
280
     1
102
RTVSPropertyOp0
 70
     1
102
RTVSPropertyOp1
 70
     1
102
RTVSPropertyOp2
 70
     1
102
RTVSPropertyOp3
 70
     1
102
RTVSPropertyOp4
 70
     1
102
RTVSPropertyOp5
 70
     1
102
RTVSPropertyOp6
 70
     1
102
RTVSPropertyOp7
 70
     1
102
RTVSPropertyOp8
 70
     1
102
RTVSPropertyOp9
 70
     1
102
RTVSPropertyOp10
 70
     1
102
RTVSPropertyOp11
 70
     1
102
RTVSPropertyOp12
 70
     1
102
RTVSPropertyOp13
 70
     1
102
RTVSPropertyOp14
 70
     1
102
RTVSPropertyOp15
 70
     1
102
RTVSPropertyOp16
 70
     1
102
RTVSPropertyOp17
 70
     1
102
RTVSPropertyOp18
 70
     1
102
RTVSPropertyOp19
 70
     1
102
RTVSPropertyOp20
 70
     1
102
RTVSPropertyOp21
 70
     1
102
RTVSPropertyOp22
 70
     1
102
RTVSPropertyOp23
 70
     1
102
RTVSPropertyOp24
 70
     1
102
RTVSPropertyOp25
 70
     1
102
RTVSPropertyOp26
 70
     1
102
RTVSPropertyOp27
 70
     1
102
RTVSPropertyOp28
 70
     1
102
RTVSPropertyOp29
 70
     1
102
RTVSPropertyOp30
 70
     1
102
RTVSPropertyOp31
 70
     1
102
RTVSPropertyOp32
 70
     1
102
RTVSPropertyOp33
 70
     1
102
RTVSPropertyOp34
 70
     1
102
RTVSPropertyOp35
 70
     1
102
RTVSPropertyOp36
 70
     1
102
RTVSPropertyOp37
 70
     1
102
RTVSPropertyOp38
 70
     1
102
RTVSPropertyOp39
 70
     1
102
RTVSPropertyOp40
 70
     1
102
RTVSPropertyOp41
 70
     1
102
RTVSPropertyOp42
 70
     1
102
RTVSPropertyOp43
 70
     1
102
RTVSPropertyOp44
 70
     1
102
RTVSPropertyOp45
 70
     1
102
RTVSPropertyOp46
 70
     1
102
RTVSPropertyOp47
 70
     1
102
RTVSPropertyOp48
 70
     1
102
RTVSPropertyOp49
 70
     1
102
RTVSPropertyOp50
 70
     1
102
RTVSPropertyOp51
 70
     0
102
RTVSPropertyOp52
 70
     0
102
RTVSPropertyOp53
 70
     1
102
RTVSPropertyOp54
 70
     1
102
RTVSPropertyOp55
 70
     1
102
RTVSPropertyOp56
 70
     1
102
RTVSPropertyOp57
 70
     1
102
RTVSPost2010Prop28
280
     0
102
RTVSPost2010PropOp28
 70
     1
102
RTVSPost2010Prop29
280
     1
102
RTVSPost2010PropOp29
 70
     1
102
RTVSPost2010Prop30
280
     1
102
RTVSPost2010PropOp30
 70
     1
102
RTVSPost2010Prop31
280
     0
102
RTVSPost2010PropOp31
 70
     1
102
RTVSPost2010Prop32
280
     0
102
RTVSPost2010PropOp32
 70
     1
102
RTVSPost2010Prop33
280
     0
102
RTVSPost2010PropOp33
 70
     1
102
RTVSPost2010Prop34
280
     0
102
RTVSPost2010PropOp34
 70
     1
102
RTVSPost2010Prop35
280
     0
102
RTVSPost2010PropOp35
 70
     1
102
RTVSPost2010Prop36
280
     0
102
RTVSPost2010PropOp36
 70
     1
102
RTVSPost2010Prop37
 90
       50
102
RTVSPost2010PropOp37
 70
     1
102
RTVSPost2010Prop38
140
0.0
102
RTVSPost2010PropOp38
 70
     1
102
RTVSPost2010Prop39
140
1.0
102
RTVSPost2010PropOp39
 70
     1
102
RTVSPost2010Prop40
 90
        0
102
RTVSPost2010PropOp40
 70
     1
102
RTVSPost2010Prop41ColorIndex
 90
       18
102
RTVSPost2010Prop41ColorRGB
 90
        0
102
RTVSPost2010PropOp41
 70
     1
102
RTVSPost2010Prop42
 90
       50
102
RTVSPost2010PropOp42
 70
     1
102
RTVSPost2010Prop43
 90
        3
102
RTVSPost2010PropOp43
 70
     1
102
RTVSPost2010Prop44ColorIndex
 90
        5
102
RTVSPost2010Prop44ColorRGB
 90
      255
102
RTVSPost2010PropOp44
 70
     1
102
RTVSPost2010Prop45
280
     0
102
RTVSPost2010PropOp45
 70
     1
102
RTVSPost2010Prop46
 90
       50
102
RTVSPost2010PropOp46
 70
     1
102
RTVSPost2010Prop47
 90
       50
102
RTVSPost2010PropOp47
 70
     1
102
RTVSPost2010Prop48
 90
       50
102
RTVSPost2010PropOp48
 70
     1
102
RTVSPost2010Prop49
280
     0
102
RTVSPost2010PropOp49
 70
     1
102
RTVSPost2010Prop50
 90
       50
102
RTVSPost2010PropOp50
 70
     1
102
RTVSPost2010Prop51ColorIndex
 90
      256
102
RTVSPost2010Prop51ColorRGB
 90
-16777216
102
RTVSPost2010PropOp51
 70
     0
102
RTVSPost2010Prop52
140
1.0
102
RTVSPost2010PropOp52
 70
     0
102
RTVSPost2010Prop53
 90
        2
102
RTVSPost2010PropOp53
 70
     1
102
RTVSPost2010Prop54
  1
strokes_ogs.tif
102
RTVSPost2010PropOp54
 70
     1
102
RTVSPost2010Prop55
280
     0
102
RTVSPost2010PropOp55
 70
     1
102
RTVSPost2010Prop56
140
1.0
102
RTVSPost2010PropOp56
 70
     1
102
RTVSPost2010Prop57
140
1.0
102
RTVSPost2010PropOp57
 70
     1
  0
XRECORD
  5
19A
102
{ACAD_REACTORS
330
199
102
}
330
199
100
AcDbXrecord
280
     1
102
RTVSPropertyOp0
 70
     1
102
RTVSPropertyOp1
 70
     1
102
RTVSPropertyOp2
 70
     1
102
RTVSPropertyOp3
 70
     1
102
RTVSPropertyOp4
 70
     1
102
RTVSPropertyOp5
 70
     1
102
RTVSPropertyOp6
 70
     1
102
RTVSPropertyOp7
 70
     1
102
RTVSPropertyOp8
 70
     1
102
RTVSPropertyOp9
 70
     1
102
RTVSPropertyOp10
 70
     1
102
RTVSPropertyOp11
 70
     1
102
RTVSPropertyOp12
 70
     1
102
RTVSPropertyOp13
 70
     1
102
RTVSPropertyOp14
 70
     1
102
RTVSPropertyOp15
 70
     1
102
RTVSPropertyOp16
 70
     1
102
RTVSPropertyOp17
 70
     1
102
RTVSPropertyOp18
 70
     1
102
RTVSPropertyOp19
 70
     1
102
RTVSPropertyOp20
 70
     1
102
RTVSPropertyOp21
 70
     1
102
RTVSPropertyOp22
 70
     1
102
RTVSPropertyOp23
 70
     1
102
RTVSPropertyOp24
 70
     1
102
RTVSPropertyOp25
 70
     1
102
RTVSPropertyOp26
 70
     1
102
RTVSPropertyOp27
 70
     1
102
RTVSPropertyOp28
 70
     1
102
RTVSPropertyOp29
 70
     1
102
RTVSPropertyOp30
 70
     1
102
RTVSPropertyOp31
 70
     1
102
RTVSPropertyOp32
 70
     1
102
RTVSPropertyOp33
 70
     1
102
RTVSPropertyOp34
 70
     1
102
RTVSPropertyOp35
 70
     1
102
RTVSPropertyOp36
 70
     1
102
RTVSPropertyOp37
 70
     1
102
RTVSPropertyOp38
 70
     1
102
RTVSPropertyOp39
 70
     1
102
RTVSPropertyOp40
 70
     1
102
RTVSPropertyOp41
 70
     1
102
RTVSPropertyOp42
 70
     1
102
RTVSPropertyOp43
 70
     1
102
RTVSPropertyOp44
 70
     1
102
RTVSPropertyOp45
 70
     1
102
RTVSPropertyOp46
 70
     1
102
RTVSPropertyOp47
 70
     1
102
RTVSPropertyOp48
 70
     1
102
RTVSPropertyOp49
 70
     1
102
RTVSPropertyOp50
 70
     1
102
RTVSPropertyOp51
 70
     0
102
RTVSPropertyOp52
 70
     0
102
RTVSPropertyOp53
 70
     1
102
RTVSPropertyOp54
 70
     1
102
RTVSPropertyOp55
 70
     1
102
RTVSPropertyOp56
 70
     1
102
RTVSPropertyOp57
 70
     1
102
RTVSPost2010Prop28
280
     0
102
RTVSPost2010PropOp28
 70
     1
102
RTVSPost2010Prop29
280
     1
102
RTVSPost2010PropOp29
 70
     1
102
RTVSPost2010Prop30
280
     1
102
RTVSPost2010PropOp30
 70
     1
102
RTVSPost2010Prop31
280
     0
102
RTVSPost2010PropOp31
 70
     1
102
RTVSPost2010Prop32
280
     0
102
RTVSPost2010PropOp32
 70
     1
102
RTVSPost2010Prop33
280
     0
102
RTVSPost2010PropOp33
 70
     1
102
RTVSPost2010Prop34
280
     0
102
RTVSPost2010PropOp34
 70
     1
102
RTVSPost2010Prop35
280
     0
102
RTVSPost2010PropOp35
 70
     1
102
RTVSPost2010Prop36
280
     0
102
RTVSPost2010PropOp36
 70
     1
102
RTVSPost2010Prop37
 90
       50
102
RTVSPost2010PropOp37
 70
     1
102
RTVSPost2010Prop38
140
0.0
102
RTVSPost2010PropOp38
 70
     1
102
RTVSPost2010Prop39
140
1.0
102
RTVSPost2010PropOp39
 70
     1
102
RTVSPost2010Prop40
 90
        0
102
RTVSPost2010PropOp40
 70
     1
102
RTVSPost2010Prop41ColorIndex
 90
       18
102
RTVSPost2010Prop41ColorRGB
 90
        0
102
RTVSPost2010PropOp41
 70
     1
102
RTVSPost2010Prop42
 90
       50
102
RTVSPost2010PropOp42
 70
     1
102
RTVSPost2010Prop43
 90
        3
102
RTVSPost2010PropOp43
 70
     1
102
RTVSPost2010Prop44ColorIndex
 90
        5
102
RTVSPost2010Prop44ColorRGB
 90
      255
102
RTVSPost2010PropOp44
 70
     1
102
RTVSPost2010Prop45
280
     0
102
RTVSPost2010PropOp45
 70
     1
102
RTVSPost2010Prop46
 90
       50
102
RTVSPost2010PropOp46
 70
     1
102
RTVSPost2010Prop47
 90
       50
102
RTVSPost2010PropOp47
 70
     1
102
RTVSPost2010Prop48
 90
       50
102
RTVSPost2010PropOp48
 70
     1
102
RTVSPost2010Prop49
280
     0
102
RTVSPost2010PropOp49
 70
     1
102
RTVSPost2010Prop50
 90
       50
102
RTVSPost2010PropOp50
 70
     1
102
RTVSPost2010Prop51ColorIndex
 90
      256
102
RTVSPost2010Prop51ColorRGB
 90
-16777216
102
RTVSPost2010PropOp51
 70
     0
102
RTVSPost2010Prop52
140
1.0
102
RTVSPost2010PropOp52
 70
     0
102
RTVSPost2010Prop53
 90
        2
102
RTVSPost2010PropOp53
 70
     1
102
RTVSPost2010Prop54
  1
strokes_ogs.tif
102
RTVSPost2010PropOp54
 70
     1
102
RTVSPost2010Prop55
280
     0
102
RTVSPost2010PropOp55
 70
     1
102
RTVSPost2010Prop56
140
1.0
102
RTVSPost2010PropOp56
 70
     1
102
RTVSPost2010Prop57
140
1.0
102
RTVSPost2010PropOp57
 70
     1
  0
XRECORD
  5
19C
102
{ACAD_REACTORS
330
19B
102
}
330
19B
100
AcDbXrecord
280
     1
102
RTVSPropertyOp0
 70
     1
102
RTVSPropertyOp1
 70
     1
102
RTVSPropertyOp2
 70
     1
102
RTVSPropertyOp3
 70
     1
102
RTVSPropertyOp4
 70
     1
102
RTVSPropertyOp5
 70
     1
102
RTVSPropertyOp6
 70
     1
102
RTVSPropertyOp7
 70
     1
102
RTVSPropertyOp8
 70
     1
102
RTVSPropertyOp9
 70
     1
102
RTVSPropertyOp10
 70
     1
102
RTVSPropertyOp11
 70
     1
102
RTVSPropertyOp12
 70
     1
102
RTVSPropertyOp13
 70
     1
102
RTVSPropertyOp14
 70
     1
102
RTVSPropertyOp15
 70
     1
102
RTVSPropertyOp16
 70
     1
102
RTVSPropertyOp17
 70
     1
102
RTVSPropertyOp18
 70
     1
102
RTVSPropertyOp19
 70
     1
102
RTVSPropertyOp20
 70
     1
102
RTVSPropertyOp21
 70
     1
102
RTVSPropertyOp22
 70
     1
102
RTVSPropertyOp23
 70
     1
102
RTVSPropertyOp24
 70
     1
102
RTVSPropertyOp25
 70
     1
102
RTVSPropertyOp26
 70
     1
102
RTVSPropertyOp27
 70
     1
102
RTVSPropertyOp28
 70
     1
102
RTVSPropertyOp29
 70
     1
102
RTVSPropertyOp30
 70
     1
102
RTVSPropertyOp31
 70
     1
102
RTVSPropertyOp32
 70
     1
102
RTVSPropertyOp33
 70
     1
102
RTVSPropertyOp34
 70
     1
102
RTVSPropertyOp35
 70
     1
102
RTVSPropertyOp36
 70
     1
102
RTVSPropertyOp37
 70
     1
102
RTVSPropertyOp38
 70
     1
102
RTVSPropertyOp39
 70
     1
102
RTVSPropertyOp40
 70
     1
102
RTVSPropertyOp41
 70
     1
102
RTVSPropertyOp42
 70
     1
102
RTVSPropertyOp43
 70
     1
102
RTVSPropertyOp44
 70
     1
102
RTVSPropertyOp45
 70
     1
102
RTVSPropertyOp46
 70
     1
102
RTVSPropertyOp47
 70
     1
102
RTVSPropertyOp48
 70
     1
102
RTVSPropertyOp49
 70
     1
102
RTVSPropertyOp50
 70
     1
102
RTVSPropertyOp51
 70
     0
102
RTVSPropertyOp52
 70
     0
102
RTVSPropertyOp53
 70
     1
102
RTVSPropertyOp54
 70
     1
102
RTVSPropertyOp55
 70
     1
102
RTVSPropertyOp56
 70
     1
102
RTVSPropertyOp57
 70
     1
102
RTVSPost2010Prop28
280
     0
102
RTVSPost2010PropOp28
 70
     1
102
RTVSPost2010Prop29
280
     1
102
RTVSPost2010PropOp29
 70
     1
102
RTVSPost2010Prop30
280
     1
102
RTVSPost2010PropOp30
 70
     1
102
RTVSPost2010Prop31
280
     0
102
RTVSPost2010PropOp31
 70
     1
102
RTVSPost2010Prop32
280
     0
102
RTVSPost2010PropOp32
 70
     1
102
RTVSPost2010Prop33
280
     0
102
RTVSPost2010PropOp33
 70
     1
102
RTVSPost2010Prop34
280
     0
102
RTVSPost2010PropOp34
 70
     1
102
RTVSPost2010Prop35
280
     0
102
RTVSPost2010PropOp35
 70
     1
102
RTVSPost2010Prop36
280
     0
102
RTVSPost2010PropOp36
 70
     1
102
RTVSPost2010Prop37
 90
       50
102
RTVSPost2010PropOp37
 70
     1
102
RTVSPost2010Prop38
140
0.0
102
RTVSPost2010PropOp38
 70
     1
102
RTVSPost2010Prop39
140
1.0
102
RTVSPost2010PropOp39
 70
     1
102
RTVSPost2010Prop40
 90
        0
102
RTVSPost2010PropOp40
 70
     1
102
RTVSPost2010Prop41ColorIndex
 90
       18
102
RTVSPost2010Prop41ColorRGB
 90
        0
102
RTVSPost2010PropOp41
 70
     1
102
RTVSPost2010Prop42
 90
       50
102
RTVSPost2010PropOp42
 70
     1
102
RTVSPost2010Prop43
 90
        3
102
RTVSPost2010PropOp43
 70
     1
102
RTVSPost2010Prop44ColorIndex
 90
        5
102
RTVSPost2010Prop44ColorRGB
 90
      255
102
RTVSPost2010PropOp44
 70
     1
102
RTVSPost2010Prop45
280
     0
102
RTVSPost2010PropOp45
 70
     1
102
RTVSPost2010Prop46
 90
       50
102
RTVSPost2010PropOp46
 70
     1
102
RTVSPost2010Prop47
 90
       50
102
RTVSPost2010PropOp47
 70
     1
102
RTVSPost2010Prop48
 90
       50
102
RTVSPost2010PropOp48
 70
     1
102
RTVSPost2010Prop49
280
     0
102
RTVSPost2010PropOp49
 70
     1
102
RTVSPost2010Prop50
 90
       50
102
RTVSPost2010PropOp50
 70
     1
102
RTVSPost2010Prop51ColorIndex
 90
      256
102
RTVSPost2010Prop51ColorRGB
 90
-16777216
102
RTVSPost2010PropOp51
 70
     0
102
RTVSPost2010Prop52
140
1.0
102
RTVSPost2010PropOp52
 70
     0
102
RTVSPost2010Prop53
 90
        2
102
RTVSPost2010PropOp53
 70
     1
102
RTVSPost2010Prop54
  1
strokes_ogs.tif
102
RTVSPost2010PropOp54
 70
     1
102
RTVSPost2010Prop55
280
     0
102
RTVSPost2010PropOp55
 70
     1
102
RTVSPost2010Prop56
140
1.0
102
RTVSPost2010PropOp56
 70
     1
102
RTVSPost2010Prop57
140
1.0
102
RTVSPost2010PropOp57
 70
     1
  0
XRECORD
  5
1A4
102
{ACAD_REACTORS
330
1A3
102
}
330
1A3
100
AcDbXrecord
280
     1
102
RTVSPropertyOp0
 70
     1
102
RTVSPropertyOp1
 70
     1
102
RTVSPropertyOp2
 70
     1
102
RTVSPropertyOp3
 70
     1
102
RTVSPropertyOp4
 70
     1
102
RTVSPropertyOp5
 70
     1
102
RTVSPropertyOp6
 70
     1
102
RTVSPropertyOp7
 70
     1
102
RTVSPropertyOp8
 70
     1
102
RTVSPropertyOp9
 70
     1
102
RTVSPropertyOp10
 70
     1
102
RTVSPropertyOp11
 70
     1
102
RTVSPropertyOp12
 70
     1
102
RTVSPropertyOp13
 70
     1
102
RTVSPropertyOp14
 70
     1
102
RTVSPropertyOp15
 70
     1
102
RTVSPropertyOp16
 70
     1
102
RTVSPropertyOp17
 70
     1
102
RTVSPropertyOp18
 70
     1
102
RTVSPropertyOp19
 70
     1
102
RTVSPropertyOp20
 70
     1
102
RTVSPropertyOp21
 70
     1
102
RTVSPropertyOp22
 70
     1
102
RTVSPropertyOp23
 70
     1
102
RTVSPropertyOp24
 70
     1
102
RTVSPropertyOp25
 70
     1
102
RTVSPropertyOp26
 70
     1
102
RTVSPropertyOp27
 70
     1
102
RTVSPropertyOp28
 70
     1
102
RTVSPropertyOp29
 70
     1
102
RTVSPropertyOp30
 70
     1
102
RTVSPropertyOp31
 70
     1
102
RTVSPropertyOp32
 70
     1
102
RTVSPropertyOp33
 70
     1
102
RTVSPropertyOp34
 70
     1
102
RTVSPropertyOp35
 70
     1
102
RTVSPropertyOp36
 70
     1
102
RTVSPropertyOp37
 70
     1
102
RTVSPropertyOp38
 70
     1
102
RTVSPropertyOp39
 70
     1
102
RTVSPropertyOp40
 70
     1
102
RTVSPropertyOp41
 70
     1
102
RTVSPropertyOp42
 70
     1
102
RTVSPropertyOp43
 70
     1
102
RTVSPropertyOp44
 70
     1
102
RTVSPropertyOp45
 70
     1
102
RTVSPropertyOp46
 70
     1
102
RTVSPropertyOp47
 70
     1
102
RTVSPropertyOp48
 70
     1
102
RTVSPropertyOp49
 70
     1
102
RTVSPropertyOp50
 70
     1
102
RTVSPropertyOp51
 70
     0
102
RTVSPropertyOp52
 70
     0
102
RTVSPropertyOp53
 70
     1
102
RTVSPropertyOp54
 70
     1
102
RTVSPropertyOp55
 70
     1
102
RTVSPropertyOp56
 70
     1
102
RTVSPropertyOp57
 70
     1
102
RTVSPost2010Prop28
280
     0
102
RTVSPost2010PropOp28
 70
     1
102
RTVSPost2010Prop29
280
     1
102
RTVSPost2010PropOp29
 70
     1
102
RTVSPost2010Prop30
280
     1
102
RTVSPost2010PropOp30
 70
     1
102
RTVSPost2010Prop31
280
     0
102
RTVSPost2010PropOp31
 70
     1
102
RTVSPost2010Prop32
280
     0
102
RTVSPost2010PropOp32
 70
     1
102
RTVSPost2010Prop33
280
     0
102
RTVSPost2010PropOp33
 70
     1
102
RTVSPost2010Prop34
280
     0
102
RTVSPost2010PropOp34
 70
     1
102
RTVSPost2010Prop35
280
     0
102
RTVSPost2010PropOp35
 70
     1
102
RTVSPost2010Prop36
280
     0
102
RTVSPost2010PropOp36
 70
     1
102
RTVSPost2010Prop37
 90
       50
102
RTVSPost2010PropOp37
 70
     1
102
RTVSPost2010Prop38
140
0.0
102
RTVSPost2010PropOp38
 70
     1
102
RTVSPost2010Prop39
140
1.0
102
RTVSPost2010PropOp39
 70
     1
102
RTVSPost2010Prop40
 90
        0
102
RTVSPost2010PropOp40
 70
     1
102
RTVSPost2010Prop41ColorIndex
 90
       18
102
RTVSPost2010Prop41ColorRGB
 90
        0
102
RTVSPost2010PropOp41
 70
     1
102
RTVSPost2010Prop42
 90
       50
102
RTVSPost2010PropOp42
 70
     1
102
RTVSPost2010Prop43
 90
        3
102
RTVSPost2010PropOp43
 70
     1
102
RTVSPost2010Prop44ColorIndex
 90
        5
102
RTVSPost2010Prop44ColorRGB
 90
      255
102
RTVSPost2010PropOp44
 70
     1
102
RTVSPost2010Prop45
280
     0
102
RTVSPost2010PropOp45
 70
     1
102
RTVSPost2010Prop46
 90
       50
102
RTVSPost2010PropOp46
 70
     1
102
RTVSPost2010Prop47
 90
       50
102
RTVSPost2010PropOp47
 70
     1
102
RTVSPost2010Prop48
 90
       50
102
RTVSPost2010PropOp48
 70
     1
102
RTVSPost2010Prop49
280
     0
102
RTVSPost2010PropOp49
 70
     1
102
RTVSPost2010Prop50
 90
       50
102
RTVSPost2010PropOp50
 70
     1
102
RTVSPost2010Prop51ColorIndex
 90
      256
102
RTVSPost2010Prop51ColorRGB
 90
-16777216
102
RTVSPost2010PropOp51
 70
     0
102
RTVSPost2010Prop52
140
1.0
102
RTVSPost2010PropOp52
 70
     0
102
RTVSPost2010Prop53
 90
        2
102
RTVSPost2010PropOp53
 70
     1
102
RTVSPost2010Prop54
  1
strokes_ogs.tif
102
RTVSPost2010PropOp54
 70
     1
102
RTVSPost2010Prop55
280
     0
102
RTVSPost2010PropOp55
 70
     1
102
RTVSPost2010Prop56
140
1.0
102
RTVSPost2010PropOp56
 70
     1
102
RTVSPost2010Prop57
140
1.0
102
RTVSPost2010PropOp57
 70
     1
  0
XRECORD
  5
188
102
{ACAD_REACTORS
330
187
102
}
330
187
100
AcDbXrecord
280
     1
102
RTVSPropertyOp0
 70
     1
102
RTVSPropertyOp1
 70
     1
102
RTVSPropertyOp2
 70
     1
102
RTVSPropertyOp3
 70
     1
102
RTVSPropertyOp4
 70
     1
102
RTVSPropertyOp5
 70
     1
102
RTVSPropertyOp6
 70
     1
102
RTVSPropertyOp7
 70
     1
102
RTVSPropertyOp8
 70
     1
102
RTVSPropertyOp9
 70
     1
102
RTVSPropertyOp10
 70
     1
102
RTVSPropertyOp11
 70
     1
102
RTVSPropertyOp12
 70
     1
102
RTVSPropertyOp13
 70
     1
102
RTVSPropertyOp14
 70
     1
102
RTVSPropertyOp15
 70
     1
102
RTVSPropertyOp16
 70
     1
102
RTVSPropertyOp17
 70
     1
102
RTVSPropertyOp18
 70
     1
102
RTVSPropertyOp19
 70
     1
102
RTVSPropertyOp20
 70
     1
102
RTVSPropertyOp21
 70
     1
102
RTVSPropertyOp22
 70
     1
102
RTVSPropertyOp23
 70
     1
102
RTVSPropertyOp24
 70
     1
102
RTVSPropertyOp25
 70
     1
102
RTVSPropertyOp26
 70
     1
102
RTVSPropertyOp27
 70
     1
102
RTVSPropertyOp28
 70
     1
102
RTVSPropertyOp29
 70
     1
102
RTVSPropertyOp30
 70
     1
102
RTVSPropertyOp31
 70
     1
102
RTVSPropertyOp32
 70
     1
102
RTVSPropertyOp33
 70
     1
102
RTVSPropertyOp34
 70
     1
102
RTVSPropertyOp35
 70
     1
102
RTVSPropertyOp36
 70
     1
102
RTVSPropertyOp37
 70
     1
102
RTVSPropertyOp38
 70
     1
102
RTVSPropertyOp39
 70
     1
102
RTVSPropertyOp40
 70
     1
102
RTVSPropertyOp41
 70
     1
102
RTVSPropertyOp42
 70
     1
102
RTVSPropertyOp43
 70
     1
102
RTVSPropertyOp44
 70
     1
102
RTVSPropertyOp45
 70
     1
102
RTVSPropertyOp46
 70
     1
102
RTVSPropertyOp47
 70
     1
102
RTVSPropertyOp48
 70
     1
102
RTVSPropertyOp49
 70
     1
102
RTVSPropertyOp50
 70
     1
102
RTVSPropertyOp51
 70
     0
102
RTVSPropertyOp52
 70
     0
102
RTVSPropertyOp53
 70
     1
102
RTVSPropertyOp54
 70
     1
102
RTVSPropertyOp55
 70
     1
102
RTVSPropertyOp56
 70
     1
102
RTVSPropertyOp57
 70
     1
102
RTVSPost2010Prop28
280
     0
102
RTVSPost2010PropOp28
 70
     1
102
RTVSPost2010Prop29
280
     1
102
RTVSPost2010PropOp29
 70
     1
102
RTVSPost2010Prop30
280
     1
102
RTVSPost2010PropOp30
 70
     1
102
RTVSPost2010Prop31
280
     0
102
RTVSPost2010PropOp31
 70
     1
102
RTVSPost2010Prop32
280
     0
102
RTVSPost2010PropOp32
 70
     1
102
RTVSPost2010Prop33
280
     0
102
RTVSPost2010PropOp33
 70
     1
102
RTVSPost2010Prop34
280
     0
102
RTVSPost2010PropOp34
 70
     1
102
RTVSPost2010Prop35
280
     0
102
RTVSPost2010PropOp35
 70
     1
102
RTVSPost2010Prop36
280
     0
102
RTVSPost2010PropOp36
 70
     1
102
RTVSPost2010Prop37
 90
       50
102
RTVSPost2010PropOp37
 70
     1
102
RTVSPost2010Prop38
140
0.0
102
RTVSPost2010PropOp38
 70
     1
102
RTVSPost2010Prop39
140
1.0
102
RTVSPost2010PropOp39
 70
     1
102
RTVSPost2010Prop40
 90
        0
102
RTVSPost2010PropOp40
 70
     1
102
RTVSPost2010Prop41ColorIndex
 90
       18
102
RTVSPost2010Prop41ColorRGB
 90
        0
102
RTVSPost2010PropOp41
 70
     1
102
RTVSPost2010Prop42
 90
       50
102
RTVSPost2010PropOp42
 70
     1
102
RTVSPost2010Prop43
 90
        3
102
RTVSPost2010PropOp43
 70
     1
102
RTVSPost2010Prop44ColorIndex
 90
        5
102
RTVSPost2010Prop44ColorRGB
 90
      255
102
RTVSPost2010PropOp44
 70
     1
102
RTVSPost2010Prop45
280
     0
102
RTVSPost2010PropOp45
 70
     1
102
RTVSPost2010Prop46
 90
       50
102
RTVSPost2010PropOp46
 70
     1
102
RTVSPost2010Prop47
 90
       50
102
RTVSPost2010PropOp47
 70
     1
102
RTVSPost2010Prop48
 90
       50
102
RTVSPost2010PropOp48
 70
     1
102
RTVSPost2010Prop49
280
     0
102
RTVSPost2010PropOp49
 70
     1
102
RTVSPost2010Prop50
 90
       50
102
RTVSPost2010PropOp50
 70
     1
102
RTVSPost2010Prop51ColorIndex
 90
      256
102
RTVSPost2010Prop51ColorRGB
 90
-16777216
102
RTVSPost2010PropOp51
 70
     0
102
RTVSPost2010Prop52
140
1.0
102
RTVSPost2010PropOp52
 70
     0
102
RTVSPost2010Prop53
 90
        2
102
RTVSPost2010PropOp53
 70
     1
102
RTVSPost2010Prop54
  1
strokes_ogs.tif
102
RTVSPost2010PropOp54
 70
     1
102
RTVSPost2010Prop55
280
     0
102
RTVSPost2010PropOp55
 70
     1
102
RTVSPost2010Prop56
140
1.0
102
RTVSPost2010PropOp56
 70
     1
102
RTVSPost2010Prop57
140
1.0
102
RTVSPost2010PropOp57
 70
     1
  0
XRECORD
  5
18A
102
{ACAD_REACTORS
330
189
102
}
330
189
100
AcDbXrecord
280
     1
102
RTVSPropertyOp0
 70
     1
102
RTVSPropertyOp1
 70
     1
102
RTVSPropertyOp2
 70
     1
102
RTVSPropertyOp3
 70
     1
102
RTVSPropertyOp4
 70
     1
102
RTVSPropertyOp5
 70
     1
102
RTVSPropertyOp6
 70
     1
102
RTVSPropertyOp7
 70
     1
102
RTVSPropertyOp8
 70
     1
102
RTVSPropertyOp9
 70
     1
102
RTVSPropertyOp10
 70
     1
102
RTVSPropertyOp11
 70
     1
102
RTVSPropertyOp12
 70
     1
102
RTVSPropertyOp13
 70
     1
102
RTVSPropertyOp14
 70
     1
102
RTVSPropertyOp15
 70
     1
102
RTVSPropertyOp16
 70
     1
102
RTVSPropertyOp17
 70
     1
102
RTVSPropertyOp18
 70
     1
102
RTVSPropertyOp19
 70
     1
102
RTVSPropertyOp20
 70
     1
102
RTVSPropertyOp21
 70
     1
102
RTVSPropertyOp22
 70
     1
102
RTVSPropertyOp23
 70
     1
102
RTVSPropertyOp24
 70
     1
102
RTVSPropertyOp25
 70
     1
102
RTVSPropertyOp26
 70
     1
102
RTVSPropertyOp27
 70
     1
102
RTVSPropertyOp28
 70
     1
102
RTVSPropertyOp29
 70
     1
102
RTVSPropertyOp30
 70
     1
102
RTVSPropertyOp31
 70
     1
102
RTVSPropertyOp32
 70
     1
102
RTVSPropertyOp33
 70
     1
102
RTVSPropertyOp34
 70
     1
102
RTVSPropertyOp35
 70
     1
102
RTVSPropertyOp36
 70
     1
102
RTVSPropertyOp37
 70
     1
102
RTVSPropertyOp38
 70
     1
102
RTVSPropertyOp39
 70
     1
102
RTVSPropertyOp40
 70
     1
102
RTVSPropertyOp41
 70
     1
102
RTVSPropertyOp42
 70
     1
102
RTVSPropertyOp43
 70
     1
102
RTVSPropertyOp44
 70
     1
102
RTVSPropertyOp45
 70
     1
102
RTVSPropertyOp46
 70
     1
102
RTVSPropertyOp47
 70
     1
102
RTVSPropertyOp48
 70
     1
102
RTVSPropertyOp49
 70
     1
102
RTVSPropertyOp50
 70
     1
102
RTVSPropertyOp51
 70
     0
102
RTVSPropertyOp52
 70
     0
102
RTVSPropertyOp53
 70
     1
102
RTVSPropertyOp54
 70
     1
102
RTVSPropertyOp55
 70
     1
102
RTVSPropertyOp56
 70
     1
102
RTVSPropertyOp57
 70
     1
102
RTVSPost2010Prop28
280
     0
102
RTVSPost2010PropOp28
 70
     1
102
RTVSPost2010Prop29
280
     1
102
RTVSPost2010PropOp29
 70
     1
102
RTVSPost2010Prop30
280
     1
102
RTVSPost2010PropOp30
 70
     1
102
RTVSPost2010Prop31
280
     0
102
RTVSPost2010PropOp31
 70
     1
102
RTVSPost2010Prop32
280
     0
102
RTVSPost2010PropOp32
 70
     1
102
RTVSPost2010Prop33
280
     0
102
RTVSPost2010PropOp33
 70
     1
102
RTVSPost2010Prop34
280
     0
102
RTVSPost2010PropOp34
 70
     1
102
RTVSPost2010Prop35
280
     0
102
RTVSPost2010PropOp35
 70
     1
102
RTVSPost2010Prop36
280
     0
102
RTVSPost2010PropOp36
 70
     1
102
RTVSPost2010Prop37
 90
       50
102
RTVSPost2010PropOp37
 70
     1
102
RTVSPost2010Prop38
140
0.0
102
RTVSPost2010PropOp38
 70
     1
102
RTVSPost2010Prop39
140
1.0
102
RTVSPost2010PropOp39
 70
     1
102
RTVSPost2010Prop40
 90
        0
102
RTVSPost2010PropOp40
 70
     1
102
RTVSPost2010Prop41ColorIndex
 90
       18
102
RTVSPost2010Prop41ColorRGB
 90
        0
102
RTVSPost2010PropOp41
 70
     1
102
RTVSPost2010Prop42
 90
       50
102
RTVSPost2010PropOp42
 70
     1
102
RTVSPost2010Prop43
 90
        3
102
RTVSPost2010PropOp43
 70
     1
102
RTVSPost2010Prop44ColorIndex
 90
        5
102
RTVSPost2010Prop44ColorRGB
 90
      255
102
RTVSPost2010PropOp44
 70
     1
102
RTVSPost2010Prop45
280
     0
102
RTVSPost2010PropOp45
 70
     1
102
RTVSPost2010Prop46
 90
       50
102
RTVSPost2010PropOp46
 70
     1
102
RTVSPost2010Prop47
 90
       50
102
RTVSPost2010PropOp47
 70
     1
102
RTVSPost2010Prop48
 90
       50
102
RTVSPost2010PropOp48
 70
     1
102
RTVSPost2010Prop49
280
     0
102
RTVSPost2010PropOp49
 70
     1
102
RTVSPost2010Prop50
 90
       50
102
RTVSPost2010PropOp50
 70
     1
102
RTVSPost2010Prop51ColorIndex
 90
      256
102
RTVSPost2010Prop51ColorRGB
 90
-16777216
102
RTVSPost2010PropOp51
 70
     0
102
RTVSPost2010Prop52
140
1.0
102
RTVSPost2010PropOp52
 70
     0
102
RTVSPost2010Prop53
 90
        2
102
RTVSPost2010PropOp53
 70
     1
102
RTVSPost2010Prop54
  1
strokes_ogs.tif
102
RTVSPost2010PropOp54
 70
     1
102
RTVSPost2010Prop55
280
     0
102
RTVSPost2010PropOp55
 70
     1
102
RTVSPost2010Prop56
140
1.0
102
RTVSPost2010PropOp56
 70
     1
102
RTVSPost2010Prop57
140
1.0
102
RTVSPost2010PropOp57
 70
     1
  0
XRECORD
  5
18C
102
{ACAD_REACTORS
330
18B
102
}
330
18B
100
AcDbXrecord
280
     1
102
RTVSPropertyOp0
 70
     1
102
RTVSPropertyOp1
 70
     1
102
RTVSPropertyOp2
 70
     1
102
RTVSPropertyOp3
 70
     1
102
RTVSPropertyOp4
 70
     1
102
RTVSPropertyOp5
 70
     1
102
RTVSPropertyOp6
 70
     1
102
RTVSPropertyOp7
 70
     1
102
RTVSPropertyOp8
 70
     1
102
RTVSPropertyOp9
 70
     1
102
RTVSPropertyOp10
 70
     1
102
RTVSPropertyOp11
 70
     1
102
RTVSPropertyOp12
 70
     1
102
RTVSPropertyOp13
 70
     1
102
RTVSPropertyOp14
 70
     1
102
RTVSPropertyOp15
 70
     1
102
RTVSPropertyOp16
 70
     1
102
RTVSPropertyOp17
 70
     1
102
RTVSPropertyOp18
 70
     1
102
RTVSPropertyOp19
 70
     1
102
RTVSPropertyOp20
 70
     1
102
RTVSPropertyOp21
 70
     1
102
RTVSPropertyOp22
 70
     1
102
RTVSPropertyOp23
 70
     1
102
RTVSPropertyOp24
 70
     1
102
RTVSPropertyOp25
 70
     1
102
RTVSPropertyOp26
 70
     1
102
RTVSPropertyOp27
 70
     1
102
RTVSPropertyOp28
 70
     1
102
RTVSPropertyOp29
 70
     1
102
RTVSPropertyOp30
 70
     1
102
RTVSPropertyOp31
 70
     1
102
RTVSPropertyOp32
 70
     1
102
RTVSPropertyOp33
 70
     1
102
RTVSPropertyOp34
 70
     1
102
RTVSPropertyOp35
 70
     1
102
RTVSPropertyOp36
 70
     1
102
RTVSPropertyOp37
 70
     1
102
RTVSPropertyOp38
 70
     1
102
RTVSPropertyOp39
 70
     1
102
RTVSPropertyOp40
 70
     1
102
RTVSPropertyOp41
 70
     1
102
RTVSPropertyOp42
 70
     1
102
RTVSPropertyOp43
 70
     1
102
RTVSPropertyOp44
 70
     1
102
RTVSPropertyOp45
 70
     1
102
RTVSPropertyOp46
 70
     1
102
RTVSPropertyOp47
 70
     1
102
RTVSPropertyOp48
 70
     1
102
RTVSPropertyOp49
 70
     1
102
RTVSPropertyOp50
 70
     1
102
RTVSPropertyOp51
 70
     0
102
RTVSPropertyOp52
 70
     0
102
RTVSPropertyOp53
 70
     1
102
RTVSPropertyOp54
 70
     1
102
RTVSPropertyOp55
 70
     1
102
RTVSPropertyOp56
 70
     1
102
RTVSPropertyOp57
 70
     1
102
RTVSPost2010Prop28
280
     0
102
RTVSPost2010PropOp28
 70
     1
102
RTVSPost2010Prop29
280
     1
102
RTVSPost2010PropOp29
 70
     1
102
RTVSPost2010Prop30
280
     1
102
RTVSPost2010PropOp30
 70
     1
102
RTVSPost2010Prop31
280
     0
102
RTVSPost2010PropOp31
 70
     1
102
RTVSPost2010Prop32
280
     0
102
RTVSPost2010PropOp32
 70
     1
102
RTVSPost2010Prop33
280
     0
102
RTVSPost2010PropOp33
 70
     1
102
RTVSPost2010Prop34
280
     0
102
RTVSPost2010PropOp34
 70
     1
102
RTVSPost2010Prop35
280
     0
102
RTVSPost2010PropOp35
 70
     1
102
RTVSPost2010Prop36
280
     0
102
RTVSPost2010PropOp36
 70
     1
102
RTVSPost2010Prop37
 90
       50
102
RTVSPost2010PropOp37
 70
     1
102
RTVSPost2010Prop38
140
0.0
102
RTVSPost2010PropOp38
 70
     1
102
RTVSPost2010Prop39
140
1.0
102
RTVSPost2010PropOp39
 70
     1
102
RTVSPost2010Prop40
 90
        0
102
RTVSPost2010PropOp40
 70
     1
102
RTVSPost2010Prop41ColorIndex
 90
       18
102
RTVSPost2010Prop41ColorRGB
 90
        0
102
RTVSPost2010PropOp41
 70
     1
102
RTVSPost2010Prop42
 90
       50
102
RTVSPost2010PropOp42
 70
     1
102
RTVSPost2010Prop43
 90
        3
102
RTVSPost2010PropOp43
 70
     1
102
RTVSPost2010Prop44ColorIndex
 90
        5
102
RTVSPost2010Prop44ColorRGB
 90
      255
102
RTVSPost2010PropOp44
 70
     1
102
RTVSPost2010Prop45
280
     0
102
RTVSPost2010PropOp45
 70
     1
102
RTVSPost2010Prop46
 90
       50
102
RTVSPost2010PropOp46
 70
     1
102
RTVSPost2010Prop47
 90
       50
102
RTVSPost2010PropOp47
 70
     1
102
RTVSPost2010Prop48
 90
       50
102
RTVSPost2010PropOp48
 70
     1
102
RTVSPost2010Prop49
280
     0
102
RTVSPost2010PropOp49
 70
     1
102
RTVSPost2010Prop50
 90
       50
102
RTVSPost2010PropOp50
 70
     1
102
RTVSPost2010Prop51ColorIndex
 90
      256
102
RTVSPost2010Prop51ColorRGB
 90
-16777216
102
RTVSPost2010PropOp51
 70
     0
102
RTVSPost2010Prop52
140
1.0
102
RTVSPost2010PropOp52
 70
     0
102
RTVSPost2010Prop53
 90
        2
102
RTVSPost2010PropOp53
 70
     1
102
RTVSPost2010Prop54
  1
strokes_ogs.tif
102
RTVSPost2010PropOp54
 70
     1
102
RTVSPost2010Prop55
280
     0
102
RTVSPost2010PropOp55
 70
     1
102
RTVSPost2010Prop56
140
1.0
102
RTVSPost2010PropOp56
 70
     1
102
RTVSPost2010Prop57
140
1.0
102
RTVSPost2010PropOp57
 70
     1
  0
XRECORD
  5
18E
102
{ACAD_REACTORS
330
18D
102
}
330
18D
100
AcDbXrecord
280
     1
102
RTVSPropertyOp0
 70
     1
102
RTVSPropertyOp1
 70
     1
102
RTVSPropertyOp2
 70
     1
102
RTVSPropertyOp3
 70
     1
102
RTVSPropertyOp4
 70
     1
102
RTVSPropertyOp5
 70
     1
102
RTVSPropertyOp6
 70
     1
102
RTVSPropertyOp7
 70
     1
102
RTVSPropertyOp8
 70
     1
102
RTVSPropertyOp9
 70
     1
102
RTVSPropertyOp10
 70
     1
102
RTVSPropertyOp11
 70
     1
102
RTVSPropertyOp12
 70
     1
102
RTVSPropertyOp13
 70
     1
102
RTVSPropertyOp14
 70
     1
102
RTVSPropertyOp15
 70
     1
102
RTVSPropertyOp16
 70
     1
102
RTVSPropertyOp17
 70
     1
102
RTVSPropertyOp18
 70
     1
102
RTVSPropertyOp19
 70
     1
102
RTVSPropertyOp20
 70
     1
102
RTVSPropertyOp21
 70
     1
102
RTVSPropertyOp22
 70
     1
102
RTVSPropertyOp23
 70
     1
102
RTVSPropertyOp24
 70
     1
102
RTVSPropertyOp25
 70
     1
102
RTVSPropertyOp26
 70
     1
102
RTVSPropertyOp27
 70
     1
102
RTVSPropertyOp28
 70
     1
102
RTVSPropertyOp29
 70
     1
102
RTVSPropertyOp30
 70
     1
102
RTVSPropertyOp31
 70
     1
102
RTVSPropertyOp32
 70
     1
102
RTVSPropertyOp33
 70
     1
102
RTVSPropertyOp34
 70
     1
102
RTVSPropertyOp35
 70
     1
102
RTVSPropertyOp36
 70
     1
102
RTVSPropertyOp37
 70
     1
102
RTVSPropertyOp38
 70
     1
102
RTVSPropertyOp39
 70
     1
102
RTVSPropertyOp40
 70
     1
102
RTVSPropertyOp41
 70
     1
102
RTVSPropertyOp42
 70
     1
102
RTVSPropertyOp43
 70
     1
102
RTVSPropertyOp44
 70
     1
102
RTVSPropertyOp45
 70
     1
102
RTVSPropertyOp46
 70
     1
102
RTVSPropertyOp47
 70
     1
102
RTVSPropertyOp48
 70
     1
102
RTVSPropertyOp49
 70
     1
102
RTVSPropertyOp50
 70
     1
102
RTVSPropertyOp51
 70
     0
102
RTVSPropertyOp52
 70
     0
102
RTVSPropertyOp53
 70
     1
102
RTVSPropertyOp54
 70
     1
102
RTVSPropertyOp55
 70
     1
102
RTVSPropertyOp56
 70
     1
102
RTVSPropertyOp57
 70
     1
102
RTVSPost2010Prop28
280
     0
102
RTVSPost2010PropOp28
 70
     1
102
RTVSPost2010Prop29
280
     1
102
RTVSPost2010PropOp29
 70
     1
102
RTVSPost2010Prop30
280
     1
102
RTVSPost2010PropOp30
 70
     1
102
RTVSPost2010Prop31
280
     0
102
RTVSPost2010PropOp31
 70
     1
102
RTVSPost2010Prop32
280
     0
102
RTVSPost2010PropOp32
 70
     1
102
RTVSPost2010Prop33
280
     0
102
RTVSPost2010PropOp33
 70
     1
102
RTVSPost2010Prop34
280
     0
102
RTVSPost2010PropOp34
 70
     1
102
RTVSPost2010Prop35
280
     0
102
RTVSPost2010PropOp35
 70
     1
102
RTVSPost2010Prop36
280
     0
102
RTVSPost2010PropOp36
 70
     1
102
RTVSPost2010Prop37
 90
       50
102
RTVSPost2010PropOp37
 70
     1
102
RTVSPost2010Prop38
140
0.0
102
RTVSPost2010PropOp38
 70
     1
102
RTVSPost2010Prop39
140
1.0
102
RTVSPost2010PropOp39
 70
     1
102
RTVSPost2010Prop40
 90
        0
102
RTVSPost2010PropOp40
 70
     1
102
RTVSPost2010Prop41ColorIndex
 90
       18
102
RTVSPost2010Prop41ColorRGB
 90
        0
102
RTVSPost2010PropOp41
 70
     1
102
RTVSPost2010Prop42
 90
       50
102
RTVSPost2010PropOp42
 70
     1
102
RTVSPost2010Prop43
 90
        3
102
RTVSPost2010PropOp43
 70
     1
102
RTVSPost2010Prop44ColorIndex
 90
        5
102
RTVSPost2010Prop44ColorRGB
 90
      255
102
RTVSPost2010PropOp44
 70
     1
102
RTVSPost2010Prop45
280
     0
102
RTVSPost2010PropOp45
 70
     1
102
RTVSPost2010Prop46
 90
       50
102
RTVSPost2010PropOp46
 70
     1
102
RTVSPost2010Prop47
 90
       50
102
RTVSPost2010PropOp47
 70
     1
102
RTVSPost2010Prop48
 90
       50
102
RTVSPost2010PropOp48
 70
     1
102
RTVSPost2010Prop49
280
     0
102
RTVSPost2010PropOp49
 70
     1
102
RTVSPost2010Prop50
 90
       50
102
RTVSPost2010PropOp50
 70
     1
102
RTVSPost2010Prop51ColorIndex
 90
      256
102
RTVSPost2010Prop51ColorRGB
 90
-16777216
102
RTVSPost2010PropOp51
 70
     0
102
RTVSPost2010Prop52
140
1.0
102
RTVSPost2010PropOp52
 70
     0
102
RTVSPost2010Prop53
 90
        2
102
RTVSPost2010PropOp53
 70
     1
102
RTVSPost2010Prop54
  1
strokes_ogs.tif
102
RTVSPost2010PropOp54
 70
     1
102
RTVSPost2010Prop55
280
     0
102
RTVSPost2010PropOp55
 70
     1
102
RTVSPost2010Prop56
140
1.0
102
RTVSPost2010PropOp56
 70
     1
102
RTVSPost2010Prop57
140
1.0
102
RTVSPost2010PropOp57
 70
     1
  0
XRECORD
  5
1A2
102
{ACAD_REACTORS
330
1A1
102
}
330
1A1
100
AcDbXrecord
280
     1
102
RTVSPropertyOp0
 70
     1
102
RTVSPropertyOp1
 70
     1
102
RTVSPropertyOp2
 70
     1
102
RTVSPropertyOp3
 70
     1
102
RTVSPropertyOp4
 70
     1
102
RTVSPropertyOp5
 70
     1
102
RTVSPropertyOp6
 70
     1
102
RTVSPropertyOp7
 70
     1
102
RTVSPropertyOp8
 70
     1
102
RTVSPropertyOp9
 70
     1
102
RTVSPropertyOp10
 70
     1
102
RTVSPropertyOp11
 70
     1
102
RTVSPropertyOp12
 70
     1
102
RTVSPropertyOp13
 70
     1
102
RTVSPropertyOp14
 70
     1
102
RTVSPropertyOp15
 70
     1
102
RTVSPropertyOp16
 70
     1
102
RTVSPropertyOp17
 70
     1
102
RTVSPropertyOp18
 70
     1
102
RTVSPropertyOp19
 70
     1
102
RTVSPropertyOp20
 70
     1
102
RTVSPropertyOp21
 70
     1
102
RTVSPropertyOp22
 70
     1
102
RTVSPropertyOp23
 70
     1
102
RTVSPropertyOp24
 70
     1
102
RTVSPropertyOp25
 70
     1
102
RTVSPropertyOp26
 70
     1
102
RTVSPropertyOp27
 70
     1
102
RTVSPropertyOp28
 70
     1
102
RTVSPropertyOp29
 70
     1
102
RTVSPropertyOp30
 70
     1
102
RTVSPropertyOp31
 70
     1
102
RTVSPropertyOp32
 70
     1
102
RTVSPropertyOp33
 70
     1
102
RTVSPropertyOp34
 70
     1
102
RTVSPropertyOp35
 70
     1
102
RTVSPropertyOp36
 70
     1
102
RTVSPropertyOp37
 70
     1
102
RTVSPropertyOp38
 70
     1
102
RTVSPropertyOp39
 70
     1
102
RTVSPropertyOp40
 70
     1
102
RTVSPropertyOp41
 70
     1
102
RTVSPropertyOp42
 70
     1
102
RTVSPropertyOp43
 70
     1
102
RTVSPropertyOp44
 70
     1
102
RTVSPropertyOp45
 70
     1
102
RTVSPropertyOp46
 70
     1
102
RTVSPropertyOp47
 70
     1
102
RTVSPropertyOp48
 70
     1
102
RTVSPropertyOp49
 70
     1
102
RTVSPropertyOp50
 70
     1
102
RTVSPropertyOp51
 70
     0
102
RTVSPropertyOp52
 70
     0
102
RTVSPropertyOp53
 70
     1
102
RTVSPropertyOp54
 70
     1
102
RTVSPropertyOp55
 70
     1
102
RTVSPropertyOp56
 70
     1
102
RTVSPropertyOp57
 70
     1
102
RTVSPost2010Prop28
280
     0
102
RTVSPost2010PropOp28
 70
     1
102
RTVSPost2010Prop29
280
     1
102
RTVSPost2010PropOp29
 70
     1
102
RTVSPost2010Prop30
280
     1
102
RTVSPost2010PropOp30
 70
     1
102
RTVSPost2010Prop31
280
     0
102
RTVSPost2010PropOp31
 70
     1
102
RTVSPost2010Prop32
280
     0
102
RTVSPost2010PropOp32
 70
     1
102
RTVSPost2010Prop33
280
     0
102
RTVSPost2010PropOp33
 70
     1
102
RTVSPost2010Prop34
280
     0
102
RTVSPost2010PropOp34
 70
     1
102
RTVSPost2010Prop35
280
     0
102
RTVSPost2010PropOp35
 70
     1
102
RTVSPost2010Prop36
280
     0
102
RTVSPost2010PropOp36
 70
     1
102
RTVSPost2010Prop37
 90
       50
102
RTVSPost2010PropOp37
 70
     1
102
RTVSPost2010Prop38
140
0.0
102
RTVSPost2010PropOp38
 70
     1
102
RTVSPost2010Prop39
140
1.0
102
RTVSPost2010PropOp39
 70
     1
102
RTVSPost2010Prop40
 90
        0
102
RTVSPost2010PropOp40
 70
     1
102
RTVSPost2010Prop41ColorIndex
 90
       18
102
RTVSPost2010Prop41ColorRGB
 90
        0
102
RTVSPost2010PropOp41
 70
     1
102
RTVSPost2010Prop42
 90
       50
102
RTVSPost2010PropOp42
 70
     1
102
RTVSPost2010Prop43
 90
        3
102
RTVSPost2010PropOp43
 70
     1
102
RTVSPost2010Prop44ColorIndex
 90
        5
102
RTVSPost2010Prop44ColorRGB
 90
      255
102
RTVSPost2010PropOp44
 70
     1
102
RTVSPost2010Prop45
280
     0
102
RTVSPost2010PropOp45
 70
     1
102
RTVSPost2010Prop46
 90
       50
102
RTVSPost2010PropOp46
 70
     1
102
RTVSPost2010Prop47
 90
       50
102
RTVSPost2010PropOp47
 70
     1
102
RTVSPost2010Prop48
 90
       50
102
RTVSPost2010PropOp48
 70
     1
102
RTVSPost2010Prop49
280
     0
102
RTVSPost2010PropOp49
 70
     1
102
RTVSPost2010Prop50
 90
       50
102
RTVSPost2010PropOp50
 70
     1
102
RTVSPost2010Prop51ColorIndex
 90
      256
102
RTVSPost2010Prop51ColorRGB
 90
-16777216
102
RTVSPost2010PropOp51
 70
     0
102
RTVSPost2010Prop52
140
1.0
102
RTVSPost2010PropOp52
 70
     0
102
RTVSPost2010Prop53
 90
        2
102
RTVSPost2010PropOp53
 70
     1
102
RTVSPost2010Prop54
  1
strokes_ogs.tif
102
RTVSPost2010PropOp54
 70
     1
102
RTVSPost2010Prop55
280
     0
102
RTVSPost2010PropOp55
 70
     1
102
RTVSPost2010Prop56
140
1.0
102
RTVSPost2010PropOp56
 70
     1
102
RTVSPost2010Prop57
140
1.0
102
RTVSPost2010PropOp57
 70
     1
  0
XRECORD
  5
198
102
{ACAD_REACTORS
330
197
102
}
330
197
100
AcDbXrecord
280
     1
102
RTVSPropertyOp0
 70
     1
102
RTVSPropertyOp1
 70
     1
102
RTVSPropertyOp2
 70
     1
102
RTVSPropertyOp3
 70
     1
102
RTVSPropertyOp4
 70
     1
102
RTVSPropertyOp5
 70
     1
102
RTVSPropertyOp6
 70
     1
102
RTVSPropertyOp7
 70
     1
102
RTVSPropertyOp8
 70
     1
102
RTVSPropertyOp9
 70
     1
102
RTVSPropertyOp10
 70
     1
102
RTVSPropertyOp11
 70
     1
102
RTVSPropertyOp12
 70
     1
102
RTVSPropertyOp13
 70
     1
102
RTVSPropertyOp14
 70
     1
102
RTVSPropertyOp15
 70
     1
102
RTVSPropertyOp16
 70
     1
102
RTVSPropertyOp17
 70
     1
102
RTVSPropertyOp18
 70
     1
102
RTVSPropertyOp19
 70
     1
102
RTVSPropertyOp20
 70
     1
102
RTVSPropertyOp21
 70
     1
102
RTVSPropertyOp22
 70
     1
102
RTVSPropertyOp23
 70
     1
102
RTVSPropertyOp24
 70
     1
102
RTVSPropertyOp25
 70
     1
102
RTVSPropertyOp26
 70
     1
102
RTVSPropertyOp27
 70
     1
102
RTVSPropertyOp28
 70
     1
102
RTVSPropertyOp29
 70
     1
102
RTVSPropertyOp30
 70
     1
102
RTVSPropertyOp31
 70
     1
102
RTVSPropertyOp32
 70
     1
102
RTVSPropertyOp33
 70
     1
102
RTVSPropertyOp34
 70
     1
102
RTVSPropertyOp35
 70
     1
102
RTVSPropertyOp36
 70
     1
102
RTVSPropertyOp37
 70
     1
102
RTVSPropertyOp38
 70
     1
102
RTVSPropertyOp39
 70
     1
102
RTVSPropertyOp40
 70
     1
102
RTVSPropertyOp41
 70
     1
102
RTVSPropertyOp42
 70
     1
102
RTVSPropertyOp43
 70
     1
102
RTVSPropertyOp44
 70
     1
102
RTVSPropertyOp45
 70
     1
102
RTVSPropertyOp46
 70
     1
102
RTVSPropertyOp47
 70
     1
102
RTVSPropertyOp48
 70
     1
102
RTVSPropertyOp49
 70
     1
102
RTVSPropertyOp50
 70
     1
102
RTVSPropertyOp51
 70
     0
102
RTVSPropertyOp52
 70
     0
102
RTVSPropertyOp53
 70
     1
102
RTVSPropertyOp54
 70
     1
102
RTVSPropertyOp55
 70
     1
102
RTVSPropertyOp56
 70
     1
102
RTVSPropertyOp57
 70
     1
102
RTVSPost2010Prop28
280
     0
102
RTVSPost2010PropOp28
 70
     1
102
RTVSPost2010Prop29
280
     1
102
RTVSPost2010PropOp29
 70
     1
102
RTVSPost2010Prop30
280
     1
102
RTVSPost2010PropOp30
 70
     1
102
RTVSPost2010Prop31
280
     0
102
RTVSPost2010PropOp31
 70
     1
102
RTVSPost2010Prop32
280
     0
102
RTVSPost2010PropOp32
 70
     1
102
RTVSPost2010Prop33
280
     0
102
RTVSPost2010PropOp33
 70
     1
102
RTVSPost2010Prop34
280
     0
102
RTVSPost2010PropOp34
 70
     1
102
RTVSPost2010Prop35
280
     0
102
RTVSPost2010PropOp35
 70
     1
102
RTVSPost2010Prop36
280
     0
102
RTVSPost2010PropOp36
 70
     1
102
RTVSPost2010Prop37
 90
       50
102
RTVSPost2010PropOp37
 70
     1
102
RTVSPost2010Prop38
140
0.0
102
RTVSPost2010PropOp38
 70
     1
102
RTVSPost2010Prop39
140
1.0
102
RTVSPost2010PropOp39
 70
     1
102
RTVSPost2010Prop40
 90
        0
102
RTVSPost2010PropOp40
 70
     1
102
RTVSPost2010Prop41ColorIndex
 90
       18
102
RTVSPost2010Prop41ColorRGB
 90
        0
102
RTVSPost2010PropOp41
 70
     1
102
RTVSPost2010Prop42
 90
       50
102
RTVSPost2010PropOp42
 70
     1
102
RTVSPost2010Prop43
 90
        3
102
RTVSPost2010PropOp43
 70
     1
102
RTVSPost2010Prop44ColorIndex
 90
        5
102
RTVSPost2010Prop44ColorRGB
 90
      255
102
RTVSPost2010PropOp44
 70
     1
102
RTVSPost2010Prop45
280
     0
102
RTVSPost2010PropOp45
 70
     1
102
RTVSPost2010Prop46
 90
       50
102
RTVSPost2010PropOp46
 70
     1
102
RTVSPost2010Prop47
 90
       50
102
RTVSPost2010PropOp47
 70
     1
102
RTVSPost2010Prop48
 90
       50
102
RTVSPost2010PropOp48
 70
     1
102
RTVSPost2010Prop49
280
     0
102
RTVSPost2010PropOp49
 70
     1
102
RTVSPost2010Prop50
 90
       50
102
RTVSPost2010PropOp50
 70
     1
102
RTVSPost2010Prop51ColorIndex
 90
      256
102
RTVSPost2010Prop51ColorRGB
 90
-16777216
102
RTVSPost2010PropOp51
 70
     0
102
RTVSPost2010Prop52
140
1.0
102
RTVSPost2010PropOp52
 70
     0
102
RTVSPost2010Prop53
 90
        2
102
RTVSPost2010PropOp53
 70
     1
102
RTVSPost2010Prop54
  1
strokes_ogs.tif
102
RTVSPost2010PropOp54
 70
     1
102
RTVSPost2010Prop55
280
     0
102
RTVSPost2010PropOp55
 70
     1
102
RTVSPost2010Prop56
140
1.0
102
RTVSPost2010PropOp56
 70
     1
102
RTVSPost2010Prop57
140
1.0
102
RTVSPost2010PropOp57
 70
     1
  0
XRECORD
  5
1A0
102
{ACAD_REACTORS
330
19F
102
}
330
19F
100
AcDbXrecord
280
     1
102
RTVSPropertyOp0
 70
     1
102
RTVSPropertyOp1
 70
     1
102
RTVSPropertyOp2
 70
     1
102
RTVSPropertyOp3
 70
     1
102
RTVSPropertyOp4
 70
     1
102
RTVSPropertyOp5
 70
     1
102
RTVSPropertyOp6
 70
     1
102
RTVSPropertyOp7
 70
     1
102
RTVSPropertyOp8
 70
     1
102
RTVSPropertyOp9
 70
     1
102
RTVSPropertyOp10
 70
     1
102
RTVSPropertyOp11
 70
     1
102
RTVSPropertyOp12
 70
     1
102
RTVSPropertyOp13
 70
     1
102
RTVSPropertyOp14
 70
     1
102
RTVSPropertyOp15
 70
     1
102
RTVSPropertyOp16
 70
     1
102
RTVSPropertyOp17
 70
     1
102
RTVSPropertyOp18
 70
     1
102
RTVSPropertyOp19
 70
     1
102
RTVSPropertyOp20
 70
     1
102
RTVSPropertyOp21
 70
     1
102
RTVSPropertyOp22
 70
     1
102
RTVSPropertyOp23
 70
     1
102
RTVSPropertyOp24
 70
     1
102
RTVSPropertyOp25
 70
     1
102
RTVSPropertyOp26
 70
     1
102
RTVSPropertyOp27
 70
     1
102
RTVSPropertyOp28
 70
     1
102
RTVSPropertyOp29
 70
     1
102
RTVSPropertyOp30
 70
     1
102
RTVSPropertyOp31
 70
     1
102
RTVSPropertyOp32
 70
     1
102
RTVSPropertyOp33
 70
     1
102
RTVSPropertyOp34
 70
     1
102
RTVSPropertyOp35
 70
     1
102
RTVSPropertyOp36
 70
     1
102
RTVSPropertyOp37
 70
     1
102
RTVSPropertyOp38
 70
     1
102
RTVSPropertyOp39
 70
     1
102
RTVSPropertyOp40
 70
     1
102
RTVSPropertyOp41
 70
     1
102
RTVSPropertyOp42
 70
     1
102
RTVSPropertyOp43
 70
     1
102
RTVSPropertyOp44
 70
     1
102
RTVSPropertyOp45
 70
     1
102
RTVSPropertyOp46
 70
     1
102
RTVSPropertyOp47
 70
     1
102
RTVSPropertyOp48
 70
     1
102
RTVSPropertyOp49
 70
     1
102
RTVSPropertyOp50
 70
     1
102
RTVSPropertyOp51
 70
     0
102
RTVSPropertyOp52
 70
     0
102
RTVSPropertyOp53
 70
     1
102
RTVSPropertyOp54
 70
     1
102
RTVSPropertyOp55
 70
     1
102
RTVSPropertyOp56
 70
     1
102
RTVSPropertyOp57
 70
     1
102
RTVSPost2010Prop28
280
     0
102
RTVSPost2010PropOp28
 70
     1
102
RTVSPost2010Prop29
280
     1
102
RTVSPost2010PropOp29
 70
     1
102
RTVSPost2010Prop30
280
     1
102
RTVSPost2010PropOp30
 70
     1
102
RTVSPost2010Prop31
280
     0
102
RTVSPost2010PropOp31
 70
     1
102
RTVSPost2010Prop32
280
     0
102
RTVSPost2010PropOp32
 70
     1
102
RTVSPost2010Prop33
280
     0
102
RTVSPost2010PropOp33
 70
     1
102
RTVSPost2010Prop34
280
     0
102
RTVSPost2010PropOp34
 70
     1
102
RTVSPost2010Prop35
280
     0
102
RTVSPost2010PropOp35
 70
     1
102
RTVSPost2010Prop36
280
     0
102
RTVSPost2010PropOp36
 70
     1
102
RTVSPost2010Prop37
 90
       50
102
RTVSPost2010PropOp37
 70
     1
102
RTVSPost2010Prop38
140
0.0
102
RTVSPost2010PropOp38
 70
     1
102
RTVSPost2010Prop39
140
1.0
102
RTVSPost2010PropOp39
 70
     1
102
RTVSPost2010Prop40
 90
        0
102
RTVSPost2010PropOp40
 70
     1
102
RTVSPost2010Prop41ColorIndex
 90
       18
102
RTVSPost2010Prop41ColorRGB
 90
        0
102
RTVSPost2010PropOp41
 70
     1
102
RTVSPost2010Prop42
 90
       50
102
RTVSPost2010PropOp42
 70
     1
102
RTVSPost2010Prop43
 90
        3
102
RTVSPost2010PropOp43
 70
     1
102
RTVSPost2010Prop44ColorIndex
 90
        5
102
RTVSPost2010Prop44ColorRGB
 90
      255
102
RTVSPost2010PropOp44
 70
     1
102
RTVSPost2010Prop45
280
     0
102
RTVSPost2010PropOp45
 70
     1
102
RTVSPost2010Prop46
 90
       50
102
RTVSPost2010PropOp46
 70
     1
102
RTVSPost2010Prop47
 90
       50
102
RTVSPost2010PropOp47
 70
     1
102
RTVSPost2010Prop48
 90
       50
102
RTVSPost2010PropOp48
 70
     1
102
RTVSPost2010Prop49
280
     0
102
RTVSPost2010PropOp49
 70
     1
102
RTVSPost2010Prop50
 90
       50
102
RTVSPost2010PropOp50
 70
     1
102
RTVSPost2010Prop51ColorIndex
 90
      256
102
RTVSPost2010Prop51ColorRGB
 90
-16777216
102
RTVSPost2010PropOp51
 70
     0
102
RTVSPost2010Prop52
140
1.0
102
RTVSPost2010PropOp52
 70
     0
102
RTVSPost2010Prop53
 90
        2
102
RTVSPost2010PropOp53
 70
     1
102
RTVSPost2010Prop54
  1
strokes_ogs.tif
102
RTVSPost2010PropOp54
 70
     1
102
RTVSPost2010Prop55
280
     0
102
RTVSPost2010PropOp55
 70
     1
102
RTVSPost2010Prop56
140
1.0
102
RTVSPost2010PropOp56
 70
     1
102
RTVSPost2010Prop57
140
1.0
102
RTVSPost2010PropOp57
 70
     1
  0
ENDSEC
  0
EOF
