  0
SECTION
  2
HEADER
  9
$ACADVER
  1
AC1014
  9
$ACADMAINTVER
 70
     9
  9
$DWGCODEPAGE
  3
ANSI_1252
  9
$INSBASE
 10
0.0
 20
0.0
 30
0.0
  9
$EXTMIN
 10
0.0
 20
-27.99678611755371
 30
-0.0006074905395508
  9
$EXTMAX
 10
42.99999809265137
 20
28.00321388244628
 30
15.02190029621124
  9
$LIMMIN
 10
0.0
 20
0.0
  9
$LIMMAX
 10
420.0
 20
297.0
  9
$ORTHOMODE
 70
     0
  9
$REGENMODE
 70
     1
  9
$FILLMODE
 70
     1
  9
$QTEXTMODE
 70
     0
  9
$MIRRTEXT
 70
     1
  9
$DRAGMODE
 70
     2
  9
$LTSCALE
 40
1.0
  9
$OSMODE
 70
    35
  9
$ATTMODE
 70
     1
  9
$TEXTSIZE
 40
2.5
  9
$TRACEWID
 40
1.0
  9
$TEXTSTYLE
  7
STANDARD
  9
$CLAYER
  8
0
  9
$CELTYPE
  6
BYLAYER
  9
$CECOLOR
 62
   256
  9
$CELTSCALE
 40
1.0
  9
$DELOBJ
 70
     1
  9
$DISPSILH
 70
     0
  9
$DIMSCALE
 40
1.0
  9
$DIMASZ
 40
2.5
  9
$DIMEXO
 40
0.625
  9
$DIMDLI
 40
3.75
  9
$DIMRND
 40
0.0
  9
$DIMDLE
 40
0.0
  9
$DIMEXE
 40
1.25
  9
$DIMTP
 40
0.0
  9
$DIMTM
 40
0.0
  9
$DIMTXT
 40
2.5
  9
$DIMCEN
 40
2.5
  9
$DIMTSZ
 40
0.0
  9
$DIMTOL
 70
     0
  9
$DIMLIM
 70
     0
  9
$DIMTIH
 70
     0
  9
$DIMTOH
 70
     0
  9
$DIMSE1
 70
     0
  9
$DIMSE2
 70
     0
  9
$DIMTAD
 70
     1
  9
$DIMZIN
 70
     8
  9
$DIMBLK
  1

  9
$DIMASO
 70
     1
  9
$DIMSHO
 70
     1
  9
$DIMPOST
  1

  9
$DIMAPOST
  1

  9
$DIMALT
 70
     0
  9
$DIMALTD
 70
     3
  9
$DIMALTF
 40
0.03937007874016
  9
$DIMLFAC
 40
1.0
  9
$DIMTOFL
 70
     1
  9
$DIMTVP
 40
0.0
  9
$DIMTIX
 70
     0
  9
$DIMSOXD
 70
     0
  9
$DIMSAH
 70
     0
  9
$DIMBLK1
  1

  9
$DIMBLK2
  1

  9
$DIMSTYLE
  2
ISO-25
  9
$DIMCLRD
 70
     0
  9
$DIMCLRE
 70
     0
  9
$DIMCLRT
 70
     0
  9
$DIMTFAC
 40
1.0
  9
$DIMGAP
 40
0.625
  9
$DIMJUST
 70
     0
  9
$DIMSD1
 70
     0
  9
$DIMSD2
 70
     0
  9
$DIMTOLJ
 70
     0
  9
$DIMTZIN
 70
     8
  9
$DIMALTZ
 70
     0
  9
$DIMALTTZ
 70
     0
  9
$DIMFIT
 70
     3
  9
$DIMUPT
 70
     0
  9
$DIMUNIT
 70
     2
  9
$DIMDEC
 70
     2
  9
$DIMTDEC
 70
     2
  9
$DIMALTU
 70
     2
  9
$DIMALTTD
 70
     3
  9
$DIMTXSTY
  7
STANDARD
  9
$DIMAUNIT
 70
     0
  9
$LUNITS
 70
     2
  9
$LUPREC
 70
     8
  9
$SKETCHINC
 40
1.0
  9
$FILLETRAD
 40
10.0
  9
$AUNITS
 70
     0
  9
$AUPREC
 70
     0
  9
$MENU
  1
.
  9
$ELEVATION
 40
0.0
  9
$PELEVATION
 40
0.0
  9
$THICKNESS
 40
0.0
  9
$LIMCHECK
 70
     0
  9
$BLIPMODE
 70
     0
  9
$CHAMFERA
 40
10.0
  9
$CHAMFERB
 40
10.0
  9
$CHAMFERC
 40
20.0
  9
$CHAMFERD
 40
0.0
  9
$SKPOLY
 70
     0
  9
$TDCREATE
 40
2452681.732712268
  9
$TDUPDATE
 40
2452731.688945763
  9
$TDINDWG
 40
0.0847346296
  9
$TDUSRTIMER
 40
0.0847345139
  9
$USRTIMER
 70
     1
  9
$ANGBASE
 50
0.0
  9
$ANGDIR
 70
     0
  9
$PDMODE
 70
     0
  9
$PDSIZE
 40
0.0
  9
$PLINEWID
 40
0.0
  9
$COORDS
 70
     0
  9
$SPLFRAME
 70
     0
  9
$SPLINETYPE
 70
     6
  9
$SPLINESEGS
 70
     8
  9
$ATTDIA
 70
     1
  9
$ATTREQ
 70
     1
  9
$HANDLING
 70
 22529
  9
$HANDSEED
  5
86D
  9
$SURFTAB1
 70
     6
  9
$SURFTAB2
 70
     6
  9
$SURFTYPE
 70
     6
  9
$SURFU
 70
     6
  9
$SURFV
 70
     6
  9
$UCSNAME
  2

  9
$UCSORG
 10
0.0
 20
0.0
 30
0.0
  9
$UCSXDIR
 10
1.0
 20
0.0
 30
0.0
  9
$UCSYDIR
 10
0.0
 20
1.0
 30
0.0
  9
$PUCSNAME
  2

  9
$PUCSORG
 10
0.0
 20
0.0
 30
0.0
  9
$PUCSXDIR
 10
1.0
 20
0.0
 30
0.0
  9
$PUCSYDIR
 10
0.0
 20
1.0
 30
0.0
  9
$USERI1
 70
     0
  9
$USERI2
 70
     0
  9
$USERI3
 70
     0
  9
$USERI4
 70
     0
  9
$USERI5
 70
     0
  9
$USERR1
 40
0.0
  9
$USERR2
 40
0.0
  9
$USERR3
 40
0.0
  9
$USERR4
 40
0.0
  9
$USERR5
 40
0.0
  9
$WORLDVIEW
 70
     1
  9
$SHADEDGE
 70
     3
  9
$SHADEDIF
 70
    70
  9
$TILEMODE
 70
     1
  9
$MAXACTVP
 70
    64
  9
$PINSBASE
 10
0.0
 20
0.0
 30
0.0
  9
$PLIMCHECK
 70
     0
  9
$PEXTMIN
 10
1.000000000000000E+20
 20
1.000000000000000E+20
 30
1.000000000000000E+20
  9
$PEXTMAX
 10
-1.000000000000000E+20
 20
-1.000000000000000E+20
 30
-1.000000000000000E+20
  9
$PLIMMIN
 10
0.0
 20
0.0
  9
$PLIMMAX
 10
420.0
 20
297.0
  9
$UNITMODE
 70
     0
  9
$VISRETAIN
 70
     1
  9
$PLINEGEN
 70
     0
  9
$PSLTSCALE
 70
     1
  9
$TREEDEPTH
 70
  3020
  9
$PICKSTYLE
 70
     1
  9
$CMLSTYLE
  2
STANDARD
  9
$CMLJUST
 70
     0
  9
$CMLSCALE
 40
20.0
  9
$PROXYGRAPHICS
 70
     1
  9
$MEASUREMENT
 70
     1
  0
ENDSEC
  0
SECTION
  2
CLASSES
  0
CLASS
  1
ACDBDICTIONARYWDFLT
  2
AcDbDictionaryWithDefault
  3
AutoCAD 2000
 90
        0
280
     0
281
     0
  0
CLASS
  1
ACDBPLACEHOLDER
  2
AcDbPlaceHolder
  3
AutoCAD 2000
 90
        0
280
     0
281
     0
  0
CLASS
  1
LAYOUT
  2
AcDbLayout
  3
AutoCAD 2000
 90
        0
280
     0
281
     0
  0
CLASS
  1
DICTIONARYVAR
  2
AcDbDictionaryVar
  3
AutoCAD 2000
 90
        0
280
     0
281
     0
  0
CLASS
  1
LONG_TRANSACTION
  2
AcDbLongTransaction
  3
AutoCAD 2000
 90
        0
280
     0
281
     0
  0
CLASS
  1
LWPOLYLINE
  2
AcDbPolyline
  3
AutoCAD 2000
 90
        0
280
     0
281
     1
  0
CLASS
  1
HATCH
  2
AcDbHatch
  3
AutoCAD 2000
 90
        0
280
     0
281
     1
  0
CLASS
  1
XRECORD
  2
AcDbXrecord
  3
AutoCAD 2000
 90
        0
280
     0
281
     0
  0
ENDSEC
  0
SECTION
  2
TABLES
  0
TABLE
  2
VPORT
  5
8
330
0
100
AcDbSymbolTable
 70
     3
  0
VPORT
  5
845
330
8
100
AcDbSymbolTableRecord
100
AcDbViewportTableRecord
  2
*ACTIVE
 70
     0
 10
0.0
 20
0.0
 11
1.0
 21
1.0
 12
-7.937434983022598
 22
-2.019645786672192
 13
0.0
 23
0.0
 14
10.0
 24
10.0
 15
10.0
 25
10.0
 16
1.0
 26
1.0
 36
1.0
 17
7.403427377911917
 27
-2.868129582522265
 37
1.500239655399089
 40
53.29737594452968
 41
1.84990253411306
 42
50.0
 43
0.0
 44
0.0
 50
0.0
 51
0.0
 71
     0
 72
   100
 73
     1
 74
     3
 75
     0
 76
     0
 77
     0
 78
     0
  0
ENDTAB
  0
TABLE
  2
LTYPE
  5
5
330
0
100
AcDbSymbolTable
 70
     1
  0
LTYPE
  5
14
330
5
100
AcDbSymbolTableRecord
100
AcDbLinetypeTableRecord
  2
BYBLOCK
 70
     0
  3

 72
    65
 73
     0
 40
0.0
  0
LTYPE
  5
15
330
5
100
AcDbSymbolTableRecord
100
AcDbLinetypeTableRecord
  2
BYLAYER
 70
     0
  3

 72
    65
 73
     0
 40
0.0
  0
LTYPE
  5
16
330
5
100
AcDbSymbolTableRecord
100
AcDbLinetypeTableRecord
  2
CONTINUOUS
 70
     0
  3
Solid line
 72
    65
 73
     0
 40
0.0
  0
ENDTAB
  0
TABLE
  2
LAYER
  5
2
330
0
100
AcDbSymbolTable
 70
     2
  0
LAYER
  5
10
330
2
100
AcDbSymbolTableRecord
100
AcDbLayerTableRecord
  2
0
 70
     0
 62
     7
  6
CONTINUOUS
  0
LAYER
  5
2E
330
2
100
AcDbSymbolTableRecord
100
AcDbLayerTableRecord
  2
ASHADE
 70
     4
 62
     7
  6
CONTINUOUS
  0
ENDTAB
  0
TABLE
  2
STYLE
  5
3
330
0
100
AcDbSymbolTable
 70
     1
  0
STYLE
  5
11
330
3
100
AcDbSymbolTableRecord
100
AcDbTextStyleTableRecord
  2
STANDARD
 70
     0
 40
0.0
 41
1.0
 50
0.0
 71
     0
 42
2.5
  3
txt
  4

  0
ENDTAB
  0
TABLE
  2
VIEW
  5
6
330
0
100
AcDbSymbolTable
 70
     0
  0
ENDTAB
  0
TABLE
  2
UCS
  5
7
330
0
100
AcDbSymbolTable
 70
     0
  0
ENDTAB
  0
TABLE
  2
APPID
  5
9
330
0
100
AcDbSymbolTable
 70
     6
  0
APPID
  5
12
330
9
100
AcDbSymbolTableRecord
100
AcDbRegAppTableRecord
  2
ACAD
 70
     0
  0
APPID
  5
2C
330
9
100
AcDbSymbolTableRecord
100
AcDbRegAppTableRecord
  2
AVE_RENDER
 70
     0
  0
APPID
  5
2D
330
9
100
AcDbSymbolTableRecord
100
AcDbRegAppTableRecord
  2
AVE_ENTITY_MATERIAL
 70
     0
  0
APPID
  5
3A
330
9
100
AcDbSymbolTableRecord
100
AcDbRegAppTableRecord
  2
AVE_FINISH
 70
     0
  0
APPID
  5
3B
330
9
100
AcDbSymbolTableRecord
100
AcDbRegAppTableRecord
  2
AVE_MATERIAL
 70
     0
  0
APPID
  5
3C
330
9
100
AcDbSymbolTableRecord
100
AcDbRegAppTableRecord
  2
AVE_GLOBAL
 70
     0
  0
ENDTAB
  0
TABLE
  2
DIMSTYLE
  5
A
330
0
100
AcDbSymbolTable
 70
     1
  0
DIMSTYLE
105
27
330
A
100
AcDbSymbolTableRecord
100
AcDbDimStyleTableRecord
  2
ISO-25
 70
     0
  3

  4

  5

  6

  7

 40
1.0
 41
2.5
 42
0.625
 43
3.75
 44
1.25
 45
0.0
 46
0.0
 47
0.0
 48
0.0
140
2.5
141
2.5
142
0.0
143
0.03937007874016
144
1.0
145
0.0
146
1.0
147
0.625
 71
     0
 72
     0
 73
     0
 74
     0
 75
     0
 76
     0
 77
     1
 78
     8
170
     0
171
     3
172
     1
173
     0
174
     0
175
     0
176
     0
177
     0
178
     0
270
     2
271
     2
272
     2
273
     2
274
     3
340
11
275
     0
280
     0
281
     0
282
     0
283
     0
284
     8
285
     0
286
     0
287
     3
288
     0
  0
ENDTAB
  0
TABLE
  2
BLOCK_RECORD
  5
1
330
0
100
AcDbSymbolTable
 70
     3
  0
BLOCK_RECORD
  5
1F
102
{ACAD_XDICTIONARY
360
869
102
}
330
1
100
AcDbSymbolTableRecord
100
AcDbBlockTableRecord
  2
*MODEL_SPACE
  0
BLOCK_RECORD
  5
1B
102
{ACAD_XDICTIONARY
360
867
102
}
330
1
100
AcDbSymbolTableRecord
100
AcDbBlockTableRecord
  2
*PAPER_SPACE
  0
BLOCK_RECORD
  5
2F
330
1
100
AcDbSymbolTableRecord
100
AcDbBlockTableRecord
  2
AVE_RENDER
  0
BLOCK_RECORD
  5
3D
330
1
100
AcDbSymbolTableRecord
100
AcDbBlockTableRecord
  2
AVE_GLOBAL
  0
ENDTAB
  0
ENDSEC
  0
SECTION
  2
BLOCKS
  0
BLOCK
  5
20
330
1F
100
AcDbEntity
  8
0
100
AcDbBlockBegin
  2
*MODEL_SPACE
 70
     0
 10
0.0
 20
0.0
 30
0.0
  3
*MODEL_SPACE
  1

  0
ENDBLK
  5
21
330
1F
100
AcDbEntity
  8
0
100
AcDbBlockEnd
  0
BLOCK
  5
1C
330
1B
100
AcDbEntity
 67
     1
  8
0
100
AcDbBlockBegin
  2
*PAPER_SPACE
 70
     0
 10
0.0
 20
0.0
 30
0.0
  3
*PAPER_SPACE
  1

  0
ENDBLK
  5
1D
330
1B
100
AcDbEntity
 67
     1
  8
0
100
AcDbBlockEnd
  0
BLOCK
  5
30
330
2F
100
AcDbEntity
  8
ASHADE
100
AcDbBlockBegin
  2
AVE_RENDER
 70
     0
 10
0.0
 20
0.0
 30
0.0
  3
AVE_RENDER
  1
AVE_RENDER
  0
ENDBLK
  5
31
330
2F
100
AcDbEntity
  8
0
100
AcDbBlockEnd
  0
BLOCK
  5
3E
330
3D
100
AcDbEntity
  8
ASHADE
100
AcDbBlockBegin
  2
AVE_GLOBAL
 70
     0
 10
0.0
 20
0.0
 30
0.0
  3
AVE_GLOBAL
  1
AVE_GLOBAL
  0
ENDBLK
  5
3F
330
3D
100
AcDbEntity
  8
0
100
AcDbBlockEnd
  0
ENDSEC
  0
SECTION
  2
ENTITIES
  0
INSERT
  5
32
330
1F
100
AcDbEntity
  8
ASHADE
 62
     1
100
AcDbBlockReference
  2
AVE_RENDER
 10
0.0
 20
0.0
 30
0.0
1001
AVE_RENDER
1002
{
1070
     7
1000
Pref
1070
    30
1070
    20
1070
     1
1070
     0
1000

1070
    10
1070
     1
1070
    10
1040
1.0
1070
     1
1040
0.7
1040
1.0
1040
0.0
1040
10.0
1010
-1.0
1020
-1.0
1030
-1.0
1040
0.3000000119209289
1070
    49
1070
     0
1070
     0
1010
1.0
1020
1.0
1030
1.0
1040
45.0
1070
     1
1070
     0
1000
WCS
1040
0.0
1070
     0
1040
10.0
1002
}
  0
INSERT
  5
33
330
1F
100
AcDbEntity
  8
ASHADE
 62
     3
100
AcDbBlockReference
  2
AVE_RENDER
 10
0.0
 20
0.0
 30
0.0
1001
AVE_RENDER
1002
{
1070
     0
1000
Full Opt
1070
     0
1070
     1
1070
     1
1070
     1
1070
     0
1070
     0
1070
     0
1070
     1
1070
     1
1040
0.0001
1040
0.0001
1002
}
  0
INSERT
  5
34
330
1F
100
AcDbEntity
  8
ASHADE
 62
     4
100
AcDbBlockReference
  2
AVE_RENDER
 10
0.0
 20
0.0
 30
0.0
1001
AVE_RENDER
1002
{
1070
     0
1000
Quick Opt
1070
     0
1070
     1
1070
     1
1070
     1
1070
     0
1070
     0
1070
     1
1002
}
  0
INSERT
  5
35
330
1F
100
AcDbEntity
  8
ASHADE
 62
     5
100
AcDbBlockReference
  2
AVE_RENDER
 10
0.0
 20
0.0
 30
0.0
1001
AVE_RENDER
1002
{
1070
     1
1000
Scanl Opt
1070
     2
1070
     0
1070
     2
1040
2.0
1040
4.0
1070
     0
1070
     1
1070
     0
1040
0.03
1002
}
  0
INSERT
  5
36
330
1F
100
AcDbEntity
  8
ASHADE
 62
     6
100
AcDbBlockReference
  2
AVE_RENDER
 10
0.0
 20
0.0
 30
0.0
1001
AVE_RENDER
1002
{
1070
     2
1000
Raytr Opt
1070
     2
1070
     0
1070
     2
1040
2.0
1040
4.0
1070
     0
1070
     1
1070
     1
1040
0.03
1070
     3
1040
0.03
1002
}
  0
INSERT
  5
37
330
1F
100
AcDbEntity
  8
ASHADE
 62
     7
100
AcDbBlockReference
  2
AVE_RENDER
 10
0.0
 20
0.0
 30
0.0
1001
AVE_RENDER
1002
{
1070
     0
1000
RFile Opt
1070
     1
1070
   640
1070
   480
1070
 10000
1070
     1
1070
     8
1070
     8
1070
     0
1070
     0
1070
     0
1070
     0
1070
     0
1070
     0
1070
     0
1002
}
  0
INSERT
  5
38
330
1F
100
AcDbEntity
  8
ASHADE
 62
     8
100
AcDbBlockReference
  2
AVE_RENDER
 10
0.0
 20
0.0
 30
0.0
1001
AVE_RENDER
1002
{
1070
     0
1000
Fog Opt
1070
     0
1070
     0
1040
0.0
1040
1.0
1040
0.0
1040
1.0
1010
0.5
1020
0.5
1030
0.5
1002
}
  0
INSERT
  5
39
330
1F
100
AcDbEntity
  8
ASHADE
 62
     9
100
AcDbBlockReference
  2
AVE_RENDER
 10
0.0
 20
0.0
 30
0.0
1001
AVE_RENDER
1002
{
1070
     0
1000
BG Opt
1070
     0
1070
     1
1010
0.0
1020
0.0
1030
0.0
1010
0.0
1020
0.0
1030
1.0
1010
0.0
1020
1.0
1030
0.0
1010
1.0
1020
0.0
1030
0.0
1040
0.5
1040
0.5
1040
0.0
1000

1070
     1
1000

1070
     1
1070
     1
1040
1.0
1040
1.0
1040
0.0
1040
0.0
1070
     0
1002
}
  0
INSERT
  5
40
330
1F
100
AcDbEntity
  8
ASHADE
 62
     1
100
AcDbBlockReference
  2
AVE_GLOBAL
 10
0.0
 20
0.0
 30
0.0
1001
AVE_MATERIAL
1002
{
1000
*GLOBAL*
1000
2
1000
Global finish.
1002
{
1002
}
1002
{
1070
    63
1002
{
1002
{
1010
-1.0
1020
-1.0
1030
-1.0
1002
}
1040
0.6999999880790711
1000

1040
0.0
1002
{
1002
}
1040
0.0
1002
{
1002
}
1040
0.0
1002
}
1002
{
1002
{
1010
-1.0
1020
-1.0
1030
-1.0
1002
}
1040
1.0
1000

1040
0.0
1002
{
1002
}
1040
0.0
1002
{
1002
}
1040
0.0
1002
}
1002
{
1002
{
1010
-1.0
1020
-1.0
1030
-1.0
1002
}
1040
0.2000000029802322
1000

1040
0.0
1002
{
1002
}
1040
0.0
1002
{
1002
}
1040
0.0
1002
}
1002
{
1070
     0
1002
{
1070
     1
1002
{
1040
1.0
1040
1.0
1000

1040
0.0
1002
{
1002
}
1040
0.0
1002
{
1002
}
1040
0.0
1002
}
1002
}
1040
1.0
1040
0.0
1040
0.0
1002
}
1002
{
1040
1.0
1040
1.0
1000

1040
0.0
1002
{
1002
}
1040
0.0
1002
{
1002
}
1040
0.0
1002
}
1002
{
1040
0.5
1040
1.0
1000

1040
0.0
1002
{
1002
}
1040
0.0
1002
{
1002
}
1040
0.0
1002
}
1002
{
1070
     0
1040
0.0
1002
{
1002
}
1040
1.0
1002
{
1002
}
1040
0.0
1002
}
1002
{
1040
0.0
1002
{
1002
{
1010
0.0
1020
0.0
1030
0.0
1002
}
1040
1.0
1000

1040
0.0
1002
{
1002
}
1040
0.0
1002
{
1002
}
1040
0.0
1002
}
1002
}
1002
{
1002
{
1070
     1
1002
{
1040
0.0
1040
1.0
1000

1040
0.0
1002
{
1002
}
1040
0.0
1002
{
1002
}
1040
0.0
1002
}
1002
}
1040
0.0
1002
{
1002
}
1010
1.0
1020
0.0
1030
0.0
1010
0.0
1020
1.0
1030
0.0
1010
0.0
1020
0.0
1030
1.0
1070
     0
1002
}
1002
{
1002
{
1040
1.0
1040
1.0
1002
{
1070
     1
1002
{
1040
1.0
1040
1.0
1000

1040
0.0
1002
{
1002
}
1040
0.0
1002
{
1002
}
1040
0.0
1002
}
1002
}
1002
}
1070
     0
1040
0.0
1002
{
1002
}
1002
}
1002
{
1002
}
1002
}
1002
{
1071
        3
1070
     3
1070
     0
1002
{
1070
     2
1070
     0
1070
     0
1040
0.0
1002
}
1070
     0
1070
     2
1002
{
1002
}
1002
}
1002
{
1040
8030.0
1040
190.3000030517578
1040
0.3050000071525574
1040
228.0
1040
545.0
1040
14.0
1040
17.39999961853027
1040
0.4560000002384186
1002
}
1002
}
  0
POLYLINE
  5
44
330
1F
100
AcDbEntity
  8
0
100
AcDbPolyFaceMesh
 66
     1
 10
0.0
 20
0.0
 30
0.0
 70
    64
 71
    96
 72
   174
1001
AVE_ENTITY_MATERIAL
1002
{
1000

1002
{
1071
        0
1070
     0
1070
     0
1002
{
1070
     0
1070
     0
1070
     0
1040
0.0
1002
}
1070
     0
1070
     0
1002
{
1002
}
1002
}
1002
{
1002
}
1002
{
1002
}
1011
22.5
1021
8.003213882446281
1031
13.76301193237304
1011
22.5
1021
9.003213882446281
1031
13.76301193237304
1011
21.49999999999999
1021
8.003213882446285
1031
13.76301193237304
1011
22.5
1021
8.003213882446281
1031
14.76301193237304
1002
}
  0
VERTEX
  5
45
330
44
100
AcDbEntity
  8
0
100
AcDbVertex
100
AcDbPolyFaceMeshVertex
 10
17.35699892044067
 20
3.463214397430414
 30
0.1930112838745117
 70
   192
  0
VERTEX
  5
46
330
44
100
AcDbEntity
  8
0
100
AcDbVertex
100
AcDbPolyFaceMeshVertex
 10
16.01760673522949
 20
3.196792602539057
 30
0.1930112838745117
 70
   192
  0
VERTEX
  5
47
330
44
100
AcDbEntity
  8
0
100
AcDbVertex
100
AcDbPolyFaceMeshVertex
 10
16.46753692626953
 20
2.110565185546868
 30
0.2231378555297852
 70
   192
  0
VERTEX
  5
48
330
44
100
AcDbEntity
  8
0
100
AcDbVertex
100
AcDbPolyFaceMeshVertex
 10
17.35699892044067
 20
2.287490367889398
 30
0.2231378555297852
 70
   192
  0
VERTEX
  5
49
330
44
100
AcDbEntity
  8
0
100
AcDbVertex
100
AcDbPolyFaceMeshVertex
 10
14.88212537765503
 20
2.43808794021606
 30
0.1930112838745117
 70
   192
  0
VERTEX
  5
4A
330
44
100
AcDbEntity
  8
0
100
AcDbVertex
100
AcDbPolyFaceMeshVertex
 10
15.71348714828491
 20
1.606725692749018
 30
0.2231378555297852
 70
   192
  0
VERTEX
  5
4B
330
44
100
AcDbEntity
  8
0
100
AcDbVertex
100
AcDbPolyFaceMeshVertex
 10
14.12341976165771
 20
1.302606105804438
 30
0.1930112838745117
 70
   192
  0
VERTEX
  5
4C
330
44
100
AcDbEntity
  8
0
100
AcDbVertex
100
AcDbPolyFaceMeshVertex
 10
15.20964765548706
 20
0.8526759147643993
 30
0.2231378555297852
 70
   192
  0
VERTEX
  5
4D
330
44
100
AcDbEntity
  8
0
100
AcDbVertex
100
AcDbPolyFaceMeshVertex
 10
13.85699844360351
 20
-0.0367860794067427
 30
0.1930112838745117
 70
   192
  0
VERTEX
  5
4E
330
44
100
AcDbEntity
  8
0
100
AcDbVertex
100
AcDbPolyFaceMeshVertex
 10
15.03272247314453
 20
-0.0367860794067427
 30
0.2231378555297852
 70
   192
  0
VERTEX
  5
4F
330
44
100
AcDbEntity
  8
0
100
AcDbVertex
100
AcDbPolyFaceMeshVertex
 10
14.12341976165771
 20
-1.376178741455082
 30
0.1930112838745117
 70
   192
  0
VERTEX
  5
50
330
44
100
AcDbEntity
  8
0
100
AcDbVertex
100
AcDbPolyFaceMeshVertex
 10
15.20964765548706
 20
-0.926248550415044
 30
0.2231378555297852
 70
   192
  0
VERTEX
  5
51
330
44
100
AcDbEntity
  8
0
100
AcDbVertex
100
AcDbPolyFaceMeshVertex
 10
14.88212537765503
 20
-2.511660575866703
 30
0.1930112838745117
 70
   192
  0
VERTEX
  5
52
330
44
100
AcDbEntity
  8
0
100
AcDbVertex
100
AcDbPolyFaceMeshVertex
 10
15.71348714828491
 20
-1.680298805236821
 30
0.2231378555297852
 70
   192
  0
VERTEX
  5
53
330
44
100
AcDbEntity
  8
0
100
AcDbVertex
100
AcDbPolyFaceMeshVertex
 10
16.01760673522949
 20
-3.270366668701177
 30
0.1930112838745117
 70
   192
  0
VERTEX
  5
54
330
44
100
AcDbEntity
  8
0
100
AcDbVertex
100
AcDbPolyFaceMeshVertex
 10
16.46753692626953
 20
-2.184138298034673
 30
0.2231378555297852
 70
   192
  0
VERTEX
  5
55
330
44
100
AcDbEntity
  8
0
100
AcDbVertex
100
AcDbPolyFaceMeshVertex
 10
17.35699892044067
 20
-3.536786079406743
 30
0.1930112838745117
 70
   192
  0
VERTEX
  5
56
330
44
100
AcDbEntity
  8
0
100
AcDbVertex
100
AcDbPolyFaceMeshVertex
 10
17.35699892044067
 20
-2.361063003540044
 30
0.2231378555297852
 70
   192
  0
VERTEX
  5
57
330
44
100
AcDbEntity
  8
0
100
AcDbVertex
100
AcDbPolyFaceMeshVertex
 10
18.69639110565185
 20
-3.270366668701178
 30
0.1930112838745117
 70
   192
  0
VERTEX
  5
58
330
44
100
AcDbEntity
  8
0
100
AcDbVertex
100
AcDbPolyFaceMeshVertex
 10
18.24646139144897
 20
-2.184138298034674
 30
0.2231378555297852
 70
   192
  0
VERTEX
  5
59
330
44
100
AcDbEntity
  8
0
100
AcDbVertex
100
AcDbPolyFaceMeshVertex
 10
19.83187246322631
 20
-2.511660575866705
 30
0.1930112838745117
 70
   192
  0
VERTEX
  5
5A
330
44
100
AcDbEntity
  8
0
100
AcDbVertex
100
AcDbPolyFaceMeshVertex
 10
19.00051116943359
 20
-1.680298805236822
 30
0.2231378555297852
 70
   192
  0
VERTEX
  5
5B
330
44
100
AcDbEntity
  8
0
100
AcDbVertex
100
AcDbPolyFaceMeshVertex
 10
20.59057700634002
 20
-1.376178741455084
 30
0.1930112838745117
 70
   192
  0
VERTEX
  5
5C
330
44
100
AcDbEntity
  8
0
100
AcDbVertex
100
AcDbPolyFaceMeshVertex
 10
19.50435042381286
 20
-0.9262485504150447
 30
0.2231378555297852
 70
   192
  0
VERTEX
  5
5D
330
44
100
AcDbEntity
  8
0
100
AcDbVertex
100
AcDbPolyFaceMeshVertex
 10
20.85699880123138
 20
-0.0367860794067445
 30
0.1930112838745117
 70
   192
  0
VERTEX
  5
5E
330
44
100
AcDbEntity
  8
0
100
AcDbVertex
100
AcDbPolyFaceMeshVertex
 10
19.68127560615539
 20
-0.0367860794067445
 30
0.2231378555297852
 70
   192
  0
VERTEX
  5
5F
330
44
100
AcDbEntity
  8
0
100
AcDbVertex
100
AcDbPolyFaceMeshVertex
 10
20.59057700634002
 20
1.302606105804437
 30
0.1930112838745117
 70
   192
  0
VERTEX
  5
60
330
44
100
AcDbEntity
  8
0
100
AcDbVertex
100
AcDbPolyFaceMeshVertex
 10
19.50435042381286
 20
0.8526759147643986
 30
0.2231378555297852
 70
   192
  0
VERTEX
  5
61
330
44
100
AcDbEntity
  8
0
100
AcDbVertex
100
AcDbPolyFaceMeshVertex
 10
19.83187246322631
 20
2.438087940216058
 30
0.1930112838745117
 70
   192
  0
VERTEX
  5
62
330
44
100
AcDbEntity
  8
0
100
AcDbVertex
100
AcDbPolyFaceMeshVertex
 10
19.00051116943359
 20
1.606725692749017
 30
0.2231378555297852
 70
   192
  0
VERTEX
  5
63
330
44
100
AcDbEntity
  8
0
100
AcDbVertex
100
AcDbPolyFaceMeshVertex
 10
18.69639110565185
 20
3.196792602539057
 30
0.1930112838745117
 70
   192
  0
VERTEX
  5
64
330
44
100
AcDbEntity
  8
0
100
AcDbVertex
100
AcDbPolyFaceMeshVertex
 10
18.24646139144897
 20
2.110565185546868
 30
0.2231378555297852
 70
   192
  0
VERTEX
  5
65
330
44
100
AcDbEntity
  8
0
100
AcDbVertex
100
AcDbPolyFaceMeshVertex
 10
16.36912727355957
 20
2.348148822784417
 30
0.9262895584106445
 70
   192
  0
VERTEX
  5
66
330
44
100
AcDbEntity
  8
0
100
AcDbVertex
100
AcDbPolyFaceMeshVertex
 10
17.35699892044067
 20
2.544649124145501
 30
0.9262895584106445
 70
   192
  0
VERTEX
  5
67
330
44
100
AcDbEntity
  8
0
100
AcDbVertex
100
AcDbPolyFaceMeshVertex
 10
15.53164911270141
 20
1.788563728332515
 30
0.9262895584106445
 70
   192
  0
VERTEX
  5
68
330
44
100
AcDbEntity
  8
0
100
AcDbVertex
100
AcDbPolyFaceMeshVertex
 10
14.97206401824951
 20
0.9510865211486766
 30
0.9262895584106445
 70
   192
  0
VERTEX
  5
69
330
44
100
AcDbEntity
  8
0
100
AcDbVertex
100
AcDbPolyFaceMeshVertex
 10
14.77556419372558
 20
-0.0367860794067427
 30
0.9262895584106445
 70
   192
  0
VERTEX
  5
6A
330
44
100
AcDbEntity
  8
0
100
AcDbVertex
100
AcDbPolyFaceMeshVertex
 10
14.97206401824951
 20
-1.02465915679932
 30
0.9262895584106445
 70
   192
  0
VERTEX
  5
6B
330
44
100
AcDbEntity
  8
0
100
AcDbVertex
100
AcDbPolyFaceMeshVertex
 10
15.53164911270141
 20
-1.862137794494634
 30
0.9262895584106445
 70
   192
  0
VERTEX
  5
6C
330
44
100
AcDbEntity
  8
0
100
AcDbVertex
100
AcDbPolyFaceMeshVertex
 10
16.36912727355957
 20
-2.421721458435063
 30
0.9262895584106445
 70
   192
  0
VERTEX
  5
6D
330
44
100
AcDbEntity
  8
0
100
AcDbVertex
100
AcDbPolyFaceMeshVertex
 10
17.35699892044067
 20
-2.618221282958989
 30
0.9262895584106445
 70
   192
  0
VERTEX
  5
6E
330
44
100
AcDbEntity
  8
0
100
AcDbVertex
100
AcDbPolyFaceMeshVertex
 10
18.34487152099609
 20
-2.421721458435064
 30
0.9262895584106445
 70
   192
  0
VERTEX
  5
6F
330
44
100
AcDbEntity
  8
0
100
AcDbVertex
100
AcDbPolyFaceMeshVertex
 10
19.18234920501708
 20
-1.862137794494635
 30
0.9262895584106445
 70
   192
  0
VERTEX
  5
70
330
44
100
AcDbEntity
  8
0
100
AcDbVertex
100
AcDbPolyFaceMeshVertex
 10
19.74193358421325
 20
-1.024659156799322
 30
0.9262895584106445
 70
   192
  0
VERTEX
  5
71
330
44
100
AcDbEntity
  8
0
100
AcDbVertex
100
AcDbPolyFaceMeshVertex
 10
19.93843364715576
 20
-0.0367860794067445
 30
0.9262895584106445
 70
   192
  0
VERTEX
  5
72
330
44
100
AcDbEntity
  8
0
100
AcDbVertex
100
AcDbPolyFaceMeshVertex
 10
19.74193358421325
 20
0.9510865211486759
 30
0.9262895584106445
 70
   192
  0
VERTEX
  5
73
330
44
100
AcDbEntity
  8
0
100
AcDbVertex
100
AcDbPolyFaceMeshVertex
 10
19.18234920501708
 20
1.788563728332513
 30
0.9262895584106445
 70
   192
  0
VERTEX
  5
74
330
44
100
AcDbEntity
  8
0
100
AcDbVertex
100
AcDbPolyFaceMeshVertex
 10
18.34487152099609
 20
2.348148822784417
 30
0.9262895584106445
 70
   192
  0
VERTEX
  5
75
330
44
100
AcDbEntity
  8
0
100
AcDbVertex
100
AcDbPolyFaceMeshVertex
 10
16.40248823165893
 20
2.267607212066644
 30
1.010225296020507
 70
   192
  0
VERTEX
  5
76
330
44
100
AcDbEntity
  8
0
100
AcDbVertex
100
AcDbPolyFaceMeshVertex
 10
17.35699892044067
 20
2.457471370697015
 30
1.010225296020507
 70
   192
  0
VERTEX
  5
77
330
44
100
AcDbEntity
  8
0
100
AcDbVertex
100
AcDbPolyFaceMeshVertex
 10
15.59329271316528
 20
1.726920127868647
 30
1.010225296020507
 70
   192
  0
VERTEX
  5
78
330
44
100
AcDbEntity
  8
0
100
AcDbVertex
100
AcDbPolyFaceMeshVertex
 10
15.05260562896728
 20
0.9177255630493114
 30
1.010225296020507
 70
   192
  0
VERTEX
  5
79
330
44
100
AcDbEntity
  8
0
100
AcDbVertex
100
AcDbPolyFaceMeshVertex
 10
14.86274147033691
 20
-0.0367860794067427
 30
1.010225296020507
 70
   192
  0
VERTEX
  5
7A
330
44
100
AcDbEntity
  8
0
100
AcDbVertex
100
AcDbPolyFaceMeshVertex
 10
15.05260562896728
 20
-0.9912977218627979
 30
1.010225296020507
 70
   192
  0
VERTEX
  5
7B
330
44
100
AcDbEntity
  8
0
100
AcDbVertex
100
AcDbPolyFaceMeshVertex
 10
15.59329271316528
 20
-1.80049324035645
 30
1.010225296020507
 70
   192
  0
VERTEX
  5
7C
330
44
100
AcDbEntity
  8
0
100
AcDbVertex
100
AcDbPolyFaceMeshVertex
 10
16.40248823165893
 20
-2.341180801391606
 30
1.010225296020507
 70
   192
  0
VERTEX
  5
7D
330
44
100
AcDbEntity
  8
0
100
AcDbVertex
100
AcDbPolyFaceMeshVertex
 10
17.35699892044067
 20
-2.531044006347661
 30
1.010225296020507
 70
   192
  0
VERTEX
  5
7E
330
44
100
AcDbEntity
  8
0
100
AcDbVertex
100
AcDbPolyFaceMeshVertex
 10
18.31151008605957
 20
-2.341180801391607
 30
1.010225296020507
 70
   192
  0
VERTEX
  5
7F
330
44
100
AcDbEntity
  8
0
100
AcDbVertex
100
AcDbPolyFaceMeshVertex
 10
19.12070536613464
 20
-1.800493240356451
 30
1.010225296020507
 70
   192
  0
VERTEX
  5
80
330
44
100
AcDbEntity
  8
0
100
AcDbVertex
100
AcDbPolyFaceMeshVertex
 10
19.66139197349548
 20
-0.9912977218627991
 30
1.010225296020507
 70
   192
  0
VERTEX
  5
81
330
44
100
AcDbEntity
  8
0
100
AcDbVertex
100
AcDbPolyFaceMeshVertex
 10
19.85125637054443
 20
-0.0367860794067445
 30
1.010225296020507
 70
   192
  0
VERTEX
  5
82
330
44
100
AcDbEntity
  8
0
100
AcDbVertex
100
AcDbPolyFaceMeshVertex
 10
19.66139197349548
 20
0.9177255630493107
 30
1.010225296020507
 70
   192
  0
VERTEX
  5
83
330
44
100
AcDbEntity
  8
0
100
AcDbVertex
100
AcDbPolyFaceMeshVertex
 10
19.12070536613464
 20
1.726920127868646
 30
1.010225296020507
 70
   192
  0
VERTEX
  5
84
330
44
100
AcDbEntity
  8
0
100
AcDbVertex
100
AcDbPolyFaceMeshVertex
 10
18.31151008605957
 20
2.267607212066644
 30
1.010225296020507
 70
   192
  0
VERTEX
  5
85
330
44
100
AcDbEntity
  8
0
100
AcDbVertex
100
AcDbPolyFaceMeshVertex
 10
16.65150833129882
 20
1.666420936584468
 30
1.171978950500488
 70
   192
  0
VERTEX
  5
86
330
44
100
AcDbEntity
  8
0
100
AcDbVertex
100
AcDbPolyFaceMeshVertex
 10
17.35699939727783
 20
1.806751728057855
 30
1.171978950500488
 70
   192
  0
VERTEX
  5
87
330
44
100
AcDbEntity
  8
0
100
AcDbVertex
100
AcDbPolyFaceMeshVertex
 10
16.05342102050781
 20
1.266792297363276
 30
1.171978950500488
 70
   192
  0
VERTEX
  5
88
330
44
100
AcDbEntity
  8
0
100
AcDbVertex
100
AcDbPolyFaceMeshVertex
 10
15.65379238128662
 20
0.668705463409419
 30
1.171978950500488
 70
   192
  0
VERTEX
  5
89
330
44
100
AcDbEntity
  8
0
100
AcDbVertex
100
AcDbPolyFaceMeshVertex
 10
15.51346111297607
 20
-0.0367860794067432
 30
1.171978950500488
 70
   192
  0
VERTEX
  5
8A
330
44
100
AcDbEntity
  8
0
100
AcDbVertex
100
AcDbPolyFaceMeshVertex
 10
15.65379238128662
 20
-0.7422780990600635
 30
1.171978950500488
 70
   192
  0
VERTEX
  5
8B
330
44
100
AcDbEntity
  8
0
100
AcDbVertex
100
AcDbPolyFaceMeshVertex
 10
16.05342102050781
 20
-1.340365409851079
 30
1.171978950500488
 70
   192
  0
VERTEX
  5
8C
330
44
100
AcDbEntity
  8
0
100
AcDbVertex
100
AcDbPolyFaceMeshVertex
 10
16.65150833129882
 20
-1.73999404907227
 30
1.171978950500488
 70
   192
  0
VERTEX
  5
8D
330
44
100
AcDbEntity
  8
0
100
AcDbVertex
100
AcDbPolyFaceMeshVertex
 10
17.35699939727783
 20
-1.880324363708501
 30
1.171978950500488
 70
   192
  0
VERTEX
  5
8E
330
44
100
AcDbEntity
  8
0
100
AcDbVertex
100
AcDbPolyFaceMeshVertex
 10
18.06249046325683
 20
-1.739994049072271
 30
1.171978950500488
 70
   192
  0
VERTEX
  5
8F
330
44
100
AcDbEntity
  8
0
100
AcDbVertex
100
AcDbPolyFaceMeshVertex
 10
18.66057682037353
 20
-1.340365409851079
 30
1.171978950500488
 70
   192
  0
VERTEX
  5
90
330
44
100
AcDbEntity
  8
0
100
AcDbVertex
100
AcDbPolyFaceMeshVertex
 10
19.0602056980133
 20
-0.7422780990600644
 30
1.171978950500488
 70
   192
  0
VERTEX
  5
91
330
44
100
AcDbEntity
  8
0
100
AcDbVertex
100
AcDbPolyFaceMeshVertex
 10
19.20053672790527
 20
-0.0367860794067441
 30
1.171978950500488
 70
   192
  0
VERTEX
  5
92
330
44
100
AcDbEntity
  8
0
100
AcDbVertex
100
AcDbPolyFaceMeshVertex
 10
19.0602056980133
 20
0.6687054634094181
 30
1.171978950500488
 70
   192
  0
VERTEX
  5
93
330
44
100
AcDbEntity
  8
0
100
AcDbVertex
100
AcDbPolyFaceMeshVertex
 10
18.66057682037353
 20
1.266792297363275
 30
1.171978950500488
 70
   192
  0
VERTEX
  5
94
330
44
100
AcDbEntity
  8
0
100
AcDbVertex
100
AcDbPolyFaceMeshVertex
 10
18.06249046325683
 20
1.666420936584466
 30
1.171978950500488
 70
   192
  0
VERTEX
  5
95
330
44
100
AcDbEntity
  8
0
100
AcDbVertex
100
AcDbPolyFaceMeshVertex
 10
17.02367162704467
 20
0.7679381370544385
 30
1.293012619018554
 70
   192
  0
VERTEX
  5
96
330
44
100
AcDbEntity
  8
0
100
AcDbVertex
100
AcDbPolyFaceMeshVertex
 10
17.35699939727783
 20
0.8342409133911075
 30
1.293012619018554
 70
   192
  0
VERTEX
  5
97
330
44
100
AcDbEntity
  8
0
100
AcDbVertex
100
AcDbPolyFaceMeshVertex
 10
16.74108982086181
 20
0.5791230201721143
 30
1.293012619018554
 70
   192
  0
VERTEX
  5
98
330
44
100
AcDbEntity
  8
0
100
AcDbVertex
100
AcDbPolyFaceMeshVertex
 10
16.55227470397949
 20
0.2965412139892529
 30
1.293012619018554
 70
   192
  0
VERTEX
  5
99
330
44
100
AcDbEntity
  8
0
100
AcDbVertex
100
AcDbPolyFaceMeshVertex
 10
16.48597240447998
 20
-0.0367860794067432
 30
1.293012619018554
 70
   192
  0
VERTEX
  5
9A
330
44
100
AcDbEntity
  8
0
100
AcDbVertex
100
AcDbPolyFaceMeshVertex
 10
16.55227470397949
 20
-0.3701143264770557
 30
1.293012619018554
 70
   192
  0
VERTEX
  5
9B
330
44
100
AcDbEntity
  8
0
100
AcDbVertex
100
AcDbPolyFaceMeshVertex
 10
16.74108982086181
 20
-0.6526956558227588
 30
1.293012619018554
 70
   192
  0
VERTEX
  5
9C
330
44
100
AcDbEntity
  8
0
100
AcDbVertex
100
AcDbPolyFaceMeshVertex
 10
17.02367162704467
 20
-0.8415107727050834
 30
1.293012619018554
 70
   192
  0
VERTEX
  5
9D
330
44
100
AcDbEntity
  8
0
100
AcDbVertex
100
AcDbPolyFaceMeshVertex
 10
17.35699939727783
 20
-0.9078140258789115
 30
1.293012619018554
 70
   192
  0
VERTEX
  5
9E
330
44
100
AcDbEntity
  8
0
100
AcDbVertex
100
AcDbPolyFaceMeshVertex
 10
17.69032764434814
 20
-0.8415107727050834
 30
1.293012619018554
 70
   192
  0
VERTEX
  5
9F
330
44
100
AcDbEntity
  8
0
100
AcDbVertex
100
AcDbPolyFaceMeshVertex
 10
17.97290897369384
 20
-0.6526956558227597
 30
1.293012619018554
 70
   192
  0
VERTEX
  5
A0
330
44
100
AcDbEntity
  8
0
100
AcDbVertex
100
AcDbPolyFaceMeshVertex
 10
18.16172313690185
 20
-0.3701143264770565
 30
1.293012619018554
 70
   192
  0
VERTEX
  5
A1
330
44
100
AcDbEntity
  8
0
100
AcDbVertex
100
AcDbPolyFaceMeshVertex
 10
18.22802639007568
 20
-0.0367860794067441
 30
1.293012619018554
 70
   192
  0
VERTEX
  5
A2
330
44
100
AcDbEntity
  8
0
100
AcDbVertex
100
AcDbPolyFaceMeshVertex
 10
18.16172313690185
 20
0.296541213989252
 30
1.293012619018554
 70
   192
  0
VERTEX
  5
A3
330
44
100
AcDbEntity
  8
0
100
AcDbVertex
100
AcDbPolyFaceMeshVertex
 10
17.97290897369384
 20
0.5791230201721134
 30
1.293012619018554
 70
   192
  0
VERTEX
  5
A4
330
44
100
AcDbEntity
  8
0
100
AcDbVertex
100
AcDbPolyFaceMeshVertex
 10
17.69032764434814
 20
0.7679381370544376
 30
1.293012619018554
 70
   192
  0
VERTEX
  5
A5
330
44
100
AcDbEntity
  8
0
100
AcDbFaceRecord
 10
0.0
 20
0.0
 30
0.0
 70
   128
 71
     1
 72
     2
 73
     3
  0
VERTEX
  5
A6
330
44
100
AcDbEntity
  8
0
100
AcDbFaceRecord
 10
0.0
 20
0.0
 30
0.0
 70
   128
 71
     3
 72
     4
 73
    -1
  0
VERTEX
  5
A7
330
44
100
AcDbEntity
  8
0
100
AcDbFaceRecord
 10
0.0
 20
0.0
 30
0.0
 70
   128
 71
     2
 72
     5
 73
     6
  0
VERTEX
  5
A8
330
44
100
AcDbEntity
  8
0
100
AcDbFaceRecord
 10
0.0
 20
0.0
 30
0.0
 70
   128
 71
     6
 72
     3
 73
    -2
  0
VERTEX
  5
A9
330
44
100
AcDbEntity
  8
0
100
AcDbFaceRecord
 10
0.0
 20
0.0
 30
0.0
 70
   128
 71
     5
 72
     7
 73
     8
  0
VERTEX
  5
AA
330
44
100
AcDbEntity
  8
0
100
AcDbFaceRecord
 10
0.0
 20
0.0
 30
0.0
 70
   128
 71
     8
 72
     6
 73
    -5
  0
VERTEX
  5
AB
330
44
100
AcDbEntity
  8
0
100
AcDbFaceRecord
 10
0.0
 20
0.0
 30
0.0
 70
   128
 71
     7
 72
     9
 73
    10
  0
VERTEX
  5
AC
330
44
100
AcDbEntity
  8
0
100
AcDbFaceRecord
 10
0.0
 20
0.0
 30
0.0
 70
   128
 71
    10
 72
     8
 73
    -7
  0
VERTEX
  5
AD
330
44
100
AcDbEntity
  8
0
100
AcDbFaceRecord
 10
0.0
 20
0.0
 30
0.0
 70
   128
 71
     9
 72
    11
 73
    12
  0
VERTEX
  5
AE
330
44
100
AcDbEntity
  8
0
100
AcDbFaceRecord
 10
0.0
 20
0.0
 30
0.0
 70
   128
 71
    12
 72
    10
 73
    -9
  0
VERTEX
  5
AF
330
44
100
AcDbEntity
  8
0
100
AcDbFaceRecord
 10
0.0
 20
0.0
 30
0.0
 70
   128
 71
    11
 72
    13
 73
    14
  0
VERTEX
  5
B0
330
44
100
AcDbEntity
  8
0
100
AcDbFaceRecord
 10
0.0
 20
0.0
 30
0.0
 70
   128
 71
    14
 72
    12
 73
   -11
  0
VERTEX
  5
B1
330
44
100
AcDbEntity
  8
0
100
AcDbFaceRecord
 10
0.0
 20
0.0
 30
0.0
 70
   128
 71
    13
 72
    15
 73
    16
  0
VERTEX
  5
B2
330
44
100
AcDbEntity
  8
0
100
AcDbFaceRecord
 10
0.0
 20
0.0
 30
0.0
 70
   128
 71
    16
 72
    14
 73
   -13
  0
VERTEX
  5
B3
330
44
100
AcDbEntity
  8
0
100
AcDbFaceRecord
 10
0.0
 20
0.0
 30
0.0
 70
   128
 71
    15
 72
    17
 73
    18
  0
VERTEX
  5
B4
330
44
100
AcDbEntity
  8
0
100
AcDbFaceRecord
 10
0.0
 20
0.0
 30
0.0
 70
   128
 71
    18
 72
    16
 73
   -15
  0
VERTEX
  5
B5
330
44
100
AcDbEntity
  8
0
100
AcDbFaceRecord
 10
0.0
 20
0.0
 30
0.0
 70
   128
 71
    17
 72
    19
 73
    20
  0
VERTEX
  5
B6
330
44
100
AcDbEntity
  8
0
100
AcDbFaceRecord
 10
0.0
 20
0.0
 30
0.0
 70
   128
 71
    20
 72
    18
 73
   -17
  0
VERTEX
  5
B7
330
44
100
AcDbEntity
  8
0
100
AcDbFaceRecord
 10
0.0
 20
0.0
 30
0.0
 70
   128
 71
    19
 72
    21
 73
    22
  0
VERTEX
  5
B8
330
44
100
AcDbEntity
  8
0
100
AcDbFaceRecord
 10
0.0
 20
0.0
 30
0.0
 70
   128
 71
    22
 72
    20
 73
   -19
  0
VERTEX
  5
B9
330
44
100
AcDbEntity
  8
0
100
AcDbFaceRecord
 10
0.0
 20
0.0
 30
0.0
 70
   128
 71
    21
 72
    23
 73
    24
  0
VERTEX
  5
BA
330
44
100
AcDbEntity
  8
0
100
AcDbFaceRecord
 10
0.0
 20
0.0
 30
0.0
 70
   128
 71
    24
 72
    22
 73
   -21
  0
VERTEX
  5
BB
330
44
100
AcDbEntity
  8
0
100
AcDbFaceRecord
 10
0.0
 20
0.0
 30
0.0
 70
   128
 71
    23
 72
    25
 73
    26
  0
VERTEX
  5
BC
330
44
100
AcDbEntity
  8
0
100
AcDbFaceRecord
 10
0.0
 20
0.0
 30
0.0
 70
   128
 71
    26
 72
    24
 73
   -23
  0
VERTEX
  5
BD
330
44
100
AcDbEntity
  8
0
100
AcDbFaceRecord
 10
0.0
 20
0.0
 30
0.0
 70
   128
 71
    25
 72
    27
 73
    28
  0
VERTEX
  5
BE
330
44
100
AcDbEntity
  8
0
100
AcDbFaceRecord
 10
0.0
 20
0.0
 30
0.0
 70
   128
 71
    28
 72
    26
 73
   -25
  0
VERTEX
  5
BF
330
44
100
AcDbEntity
  8
0
100
AcDbFaceRecord
 10
0.0
 20
0.0
 30
0.0
 70
   128
 71
    27
 72
    29
 73
    30
  0
VERTEX
  5
C0
330
44
100
AcDbEntity
  8
0
100
AcDbFaceRecord
 10
0.0
 20
0.0
 30
0.0
 70
   128
 71
    30
 72
    28
 73
   -27
  0
VERTEX
  5
C1
330
44
100
AcDbEntity
  8
0
100
AcDbFaceRecord
 10
0.0
 20
0.0
 30
0.0
 70
   128
 71
    29
 72
    31
 73
    32
  0
VERTEX
  5
C2
330
44
100
AcDbEntity
  8
0
100
AcDbFaceRecord
 10
0.0
 20
0.0
 30
0.0
 70
   128
 71
    32
 72
    30
 73
   -29
  0
VERTEX
  5
C3
330
44
100
AcDbEntity
  8
0
100
AcDbFaceRecord
 10
0.0
 20
0.0
 30
0.0
 70
   128
 71
    31
 72
     1
 73
     4
  0
VERTEX
  5
C4
330
44
100
AcDbEntity
  8
0
100
AcDbFaceRecord
 10
0.0
 20
0.0
 30
0.0
 70
   128
 71
     4
 72
    32
 73
   -31
  0
VERTEX
  5
C5
330
44
100
AcDbEntity
  8
0
100
AcDbFaceRecord
 10
0.0
 20
0.0
 30
0.0
 70
   128
 71
     4
 72
     3
 73
    33
  0
VERTEX
  5
C6
330
44
100
AcDbEntity
  8
0
100
AcDbFaceRecord
 10
0.0
 20
0.0
 30
0.0
 70
   128
 71
    33
 72
    34
 73
    -4
  0
VERTEX
  5
C7
330
44
100
AcDbEntity
  8
0
100
AcDbFaceRecord
 10
0.0
 20
0.0
 30
0.0
 70
   128
 71
     3
 72
     6
 73
    35
  0
VERTEX
  5
C8
330
44
100
AcDbEntity
  8
0
100
AcDbFaceRecord
 10
0.0
 20
0.0
 30
0.0
 70
   128
 71
    35
 72
    33
 73
    -3
  0
VERTEX
  5
C9
330
44
100
AcDbEntity
  8
0
100
AcDbFaceRecord
 10
0.0
 20
0.0
 30
0.0
 70
   128
 71
     6
 72
     8
 73
    36
  0
VERTEX
  5
CA
330
44
100
AcDbEntity
  8
0
100
AcDbFaceRecord
 10
0.0
 20
0.0
 30
0.0
 70
   128
 71
    36
 72
    35
 73
    -6
  0
VERTEX
  5
CB
330
44
100
AcDbEntity
  8
0
100
AcDbFaceRecord
 10
0.0
 20
0.0
 30
0.0
 70
   128
 71
     8
 72
    10
 73
    37
  0
VERTEX
  5
CC
330
44
100
AcDbEntity
  8
0
100
AcDbFaceRecord
 10
0.0
 20
0.0
 30
0.0
 70
   128
 71
    37
 72
    36
 73
    -8
  0
VERTEX
  5
CD
330
44
100
AcDbEntity
  8
0
100
AcDbFaceRecord
 10
0.0
 20
0.0
 30
0.0
 70
   128
 71
    10
 72
    12
 73
    38
  0
VERTEX
  5
CE
330
44
100
AcDbEntity
  8
0
100
AcDbFaceRecord
 10
0.0
 20
0.0
 30
0.0
 70
   128
 71
    38
 72
    37
 73
   -10
  0
VERTEX
  5
CF
330
44
100
AcDbEntity
  8
0
100
AcDbFaceRecord
 10
0.0
 20
0.0
 30
0.0
 70
   128
 71
    12
 72
    14
 73
    39
  0
VERTEX
  5
D0
330
44
100
AcDbEntity
  8
0
100
AcDbFaceRecord
 10
0.0
 20
0.0
 30
0.0
 70
   128
 71
    39
 72
    38
 73
   -12
  0
VERTEX
  5
D1
330
44
100
AcDbEntity
  8
0
100
AcDbFaceRecord
 10
0.0
 20
0.0
 30
0.0
 70
   128
 71
    14
 72
    16
 73
    40
  0
VERTEX
  5
D2
330
44
100
AcDbEntity
  8
0
100
AcDbFaceRecord
 10
0.0
 20
0.0
 30
0.0
 70
   128
 71
    40
 72
    39
 73
   -14
  0
VERTEX
  5
D3
330
44
100
AcDbEntity
  8
0
100
AcDbFaceRecord
 10
0.0
 20
0.0
 30
0.0
 70
   128
 71
    16
 72
    18
 73
    41
  0
VERTEX
  5
D4
330
44
100
AcDbEntity
  8
0
100
AcDbFaceRecord
 10
0.0
 20
0.0
 30
0.0
 70
   128
 71
    41
 72
    40
 73
   -16
  0
VERTEX
  5
D5
330
44
100
AcDbEntity
  8
0
100
AcDbFaceRecord
 10
0.0
 20
0.0
 30
0.0
 70
   128
 71
    18
 72
    20
 73
    42
  0
VERTEX
  5
D6
330
44
100
AcDbEntity
  8
0
100
AcDbFaceRecord
 10
0.0
 20
0.0
 30
0.0
 70
   128
 71
    42
 72
    41
 73
   -18
  0
VERTEX
  5
D7
330
44
100
AcDbEntity
  8
0
100
AcDbFaceRecord
 10
0.0
 20
0.0
 30
0.0
 70
   128
 71
    20
 72
    22
 73
    43
  0
VERTEX
  5
D8
330
44
100
AcDbEntity
  8
0
100
AcDbFaceRecord
 10
0.0
 20
0.0
 30
0.0
 70
   128
 71
    43
 72
    42
 73
   -20
  0
VERTEX
  5
D9
330
44
100
AcDbEntity
  8
0
100
AcDbFaceRecord
 10
0.0
 20
0.0
 30
0.0
 70
   128
 71
    22
 72
    24
 73
    44
  0
VERTEX
  5
DA
330
44
100
AcDbEntity
  8
0
100
AcDbFaceRecord
 10
0.0
 20
0.0
 30
0.0
 70
   128
 71
    44
 72
    43
 73
   -22
  0
VERTEX
  5
DB
330
44
100
AcDbEntity
  8
0
100
AcDbFaceRecord
 10
0.0
 20
0.0
 30
0.0
 70
   128
 71
    24
 72
    26
 73
    45
  0
VERTEX
  5
DC
330
44
100
AcDbEntity
  8
0
100
AcDbFaceRecord
 10
0.0
 20
0.0
 30
0.0
 70
   128
 71
    45
 72
    44
 73
   -24
  0
VERTEX
  5
DD
330
44
100
AcDbEntity
  8
0
100
AcDbFaceRecord
 10
0.0
 20
0.0
 30
0.0
 70
   128
 71
    26
 72
    28
 73
    46
  0
VERTEX
  5
DE
330
44
100
AcDbEntity
  8
0
100
AcDbFaceRecord
 10
0.0
 20
0.0
 30
0.0
 70
   128
 71
    46
 72
    45
 73
   -26
  0
VERTEX
  5
DF
330
44
100
AcDbEntity
  8
0
100
AcDbFaceRecord
 10
0.0
 20
0.0
 30
0.0
 70
   128
 71
    28
 72
    30
 73
    47
  0
VERTEX
  5
E0
330
44
100
AcDbEntity
  8
0
100
AcDbFaceRecord
 10
0.0
 20
0.0
 30
0.0
 70
   128
 71
    47
 72
    46
 73
   -28
  0
VERTEX
  5
E1
330
44
100
AcDbEntity
  8
0
100
AcDbFaceRecord
 10
0.0
 20
0.0
 30
0.0
 70
   128
 71
    30
 72
    32
 73
    48
  0
VERTEX
  5
E2
330
44
100
AcDbEntity
  8
0
100
AcDbFaceRecord
 10
0.0
 20
0.0
 30
0.0
 70
   128
 71
    48
 72
    47
 73
   -30
  0
VERTEX
  5
E3
330
44
100
AcDbEntity
  8
0
100
AcDbFaceRecord
 10
0.0
 20
0.0
 30
0.0
 70
   128
 71
    32
 72
     4
 73
    34
  0
VERTEX
  5
E4
330
44
100
AcDbEntity
  8
0
100
AcDbFaceRecord
 10
0.0
 20
0.0
 30
0.0
 70
   128
 71
    34
 72
    48
 73
   -32
  0
VERTEX
  5
E5
330
44
100
AcDbEntity
  8
0
100
AcDbFaceRecord
 10
0.0
 20
0.0
 30
0.0
 70
   128
 71
    34
 72
    33
 73
    49
  0
VERTEX
  5
E6
330
44
100
AcDbEntity
  8
0
100
AcDbFaceRecord
 10
0.0
 20
0.0
 30
0.0
 70
   128
 71
    49
 72
    50
 73
   -34
  0
VERTEX
  5
E7
330
44
100
AcDbEntity
  8
0
100
AcDbFaceRecord
 10
0.0
 20
0.0
 30
0.0
 70
   128
 71
    33
 72
    35
 73
    51
  0
VERTEX
  5
E8
330
44
100
AcDbEntity
  8
0
100
AcDbFaceRecord
 10
0.0
 20
0.0
 30
0.0
 70
   128
 71
    51
 72
    49
 73
   -33
  0
VERTEX
  5
E9
330
44
100
AcDbEntity
  8
0
100
AcDbFaceRecord
 10
0.0
 20
0.0
 30
0.0
 70
   128
 71
    35
 72
    36
 73
    52
  0
VERTEX
  5
EA
330
44
100
AcDbEntity
  8
0
100
AcDbFaceRecord
 10
0.0
 20
0.0
 30
0.0
 70
   128
 71
    52
 72
    51
 73
   -35
  0
VERTEX
  5
EB
330
44
100
AcDbEntity
  8
0
100
AcDbFaceRecord
 10
0.0
 20
0.0
 30
0.0
 70
   128
 71
    36
 72
    37
 73
    53
  0
VERTEX
  5
EC
330
44
100
AcDbEntity
  8
0
100
AcDbFaceRecord
 10
0.0
 20
0.0
 30
0.0
 70
   128
 71
    53
 72
    52
 73
   -36
  0
VERTEX
  5
ED
330
44
100
AcDbEntity
  8
0
100
AcDbFaceRecord
 10
0.0
 20
0.0
 30
0.0
 70
   128
 71
    37
 72
    38
 73
    54
  0
VERTEX
  5
EE
330
44
100
AcDbEntity
  8
0
100
AcDbFaceRecord
 10
0.0
 20
0.0
 30
0.0
 70
   128
 71
    54
 72
    53
 73
   -37
  0
VERTEX
  5
EF
330
44
100
AcDbEntity
  8
0
100
AcDbFaceRecord
 10
0.0
 20
0.0
 30
0.0
 70
   128
 71
    38
 72
    39
 73
    55
  0
VERTEX
  5
F0
330
44
100
AcDbEntity
  8
0
100
AcDbFaceRecord
 10
0.0
 20
0.0
 30
0.0
 70
   128
 71
    55
 72
    54
 73
   -38
  0
VERTEX
  5
F1
330
44
100
AcDbEntity
  8
0
100
AcDbFaceRecord
 10
0.0
 20
0.0
 30
0.0
 70
   128
 71
    39
 72
    40
 73
    56
  0
VERTEX
  5
F2
330
44
100
AcDbEntity
  8
0
100
AcDbFaceRecord
 10
0.0
 20
0.0
 30
0.0
 70
   128
 71
    56
 72
    55
 73
   -39
  0
VERTEX
  5
F3
330
44
100
AcDbEntity
  8
0
100
AcDbFaceRecord
 10
0.0
 20
0.0
 30
0.0
 70
   128
 71
    40
 72
    41
 73
    57
  0
VERTEX
  5
F4
330
44
100
AcDbEntity
  8
0
100
AcDbFaceRecord
 10
0.0
 20
0.0
 30
0.0
 70
   128
 71
    57
 72
    56
 73
   -40
  0
VERTEX
  5
F5
330
44
100
AcDbEntity
  8
0
100
AcDbFaceRecord
 10
0.0
 20
0.0
 30
0.0
 70
   128
 71
    41
 72
    42
 73
    58
  0
VERTEX
  5
F6
330
44
100
AcDbEntity
  8
0
100
AcDbFaceRecord
 10
0.0
 20
0.0
 30
0.0
 70
   128
 71
    58
 72
    57
 73
   -41
  0
VERTEX
  5
F7
330
44
100
AcDbEntity
  8
0
100
AcDbFaceRecord
 10
0.0
 20
0.0
 30
0.0
 70
   128
 71
    42
 72
    43
 73
    59
  0
VERTEX
  5
F8
330
44
100
AcDbEntity
  8
0
100
AcDbFaceRecord
 10
0.0
 20
0.0
 30
0.0
 70
   128
 71
    59
 72
    58
 73
   -42
  0
VERTEX
  5
F9
330
44
100
AcDbEntity
  8
0
100
AcDbFaceRecord
 10
0.0
 20
0.0
 30
0.0
 70
   128
 71
    43
 72
    44
 73
    60
  0
VERTEX
  5
FA
330
44
100
AcDbEntity
  8
0
100
AcDbFaceRecord
 10
0.0
 20
0.0
 30
0.0
 70
   128
 71
    60
 72
    59
 73
   -43
  0
VERTEX
  5
FB
330
44
100
AcDbEntity
  8
0
100
AcDbFaceRecord
 10
0.0
 20
0.0
 30
0.0
 70
   128
 71
    44
 72
    45
 73
    61
  0
VERTEX
  5
FC
330
44
100
AcDbEntity
  8
0
100
AcDbFaceRecord
 10
0.0
 20
0.0
 30
0.0
 70
   128
 71
    61
 72
    60
 73
   -44
  0
VERTEX
  5
FD
330
44
100
AcDbEntity
  8
0
100
AcDbFaceRecord
 10
0.0
 20
0.0
 30
0.0
 70
   128
 71
    45
 72
    46
 73
    62
  0
VERTEX
  5
FE
330
44
100
AcDbEntity
  8
0
100
AcDbFaceRecord
 10
0.0
 20
0.0
 30
0.0
 70
   128
 71
    62
 72
    61
 73
   -45
  0
VERTEX
  5
FF
330
44
100
AcDbEntity
  8
0
100
AcDbFaceRecord
 10
0.0
 20
0.0
 30
0.0
 70
   128
 71
    46
 72
    47
 73
    63
  0
VERTEX
  5
100
330
44
100
AcDbEntity
  8
0
100
AcDbFaceRecord
 10
0.0
 20
0.0
 30
0.0
 70
   128
 71
    63
 72
    62
 73
   -46
  0
VERTEX
  5
101
330
44
100
AcDbEntity
  8
0
100
AcDbFaceRecord
 10
0.0
 20
0.0
 30
0.0
 70
   128
 71
    47
 72
    48
 73
    64
  0
VERTEX
  5
102
330
44
100
AcDbEntity
  8
0
100
AcDbFaceRecord
 10
0.0
 20
0.0
 30
0.0
 70
   128
 71
    64
 72
    63
 73
   -47
  0
VERTEX
  5
103
330
44
100
AcDbEntity
  8
0
100
AcDbFaceRecord
 10
0.0
 20
0.0
 30
0.0
 70
   128
 71
    48
 72
    34
 73
    50
  0
VERTEX
  5
104
330
44
100
AcDbEntity
  8
0
100
AcDbFaceRecord
 10
0.0
 20
0.0
 30
0.0
 70
   128
 71
    50
 72
    64
 73
   -48
  0
VERTEX
  5
105
330
44
100
AcDbEntity
  8
0
100
AcDbFaceRecord
 10
0.0
 20
0.0
 30
0.0
 70
   128
 71
    50
 72
    49
 73
    65
  0
VERTEX
  5
106
330
44
100
AcDbEntity
  8
0
100
AcDbFaceRecord
 10
0.0
 20
0.0
 30
0.0
 70
   128
 71
    65
 72
    66
 73
   -50
  0
VERTEX
  5
107
330
44
100
AcDbEntity
  8
0
100
AcDbFaceRecord
 10
0.0
 20
0.0
 30
0.0
 70
   128
 71
    49
 72
    51
 73
    67
  0
VERTEX
  5
108
330
44
100
AcDbEntity
  8
0
100
AcDbFaceRecord
 10
0.0
 20
0.0
 30
0.0
 70
   128
 71
    67
 72
    65
 73
   -49
  0
VERTEX
  5
109
330
44
100
AcDbEntity
  8
0
100
AcDbFaceRecord
 10
0.0
 20
0.0
 30
0.0
 70
   128
 71
    51
 72
    52
 73
    68
  0
VERTEX
  5
10A
330
44
100
AcDbEntity
  8
0
100
AcDbFaceRecord
 10
0.0
 20
0.0
 30
0.0
 70
   128
 71
    68
 72
    67
 73
   -51
  0
VERTEX
  5
10B
330
44
100
AcDbEntity
  8
0
100
AcDbFaceRecord
 10
0.0
 20
0.0
 30
0.0
 70
   128
 71
    52
 72
    53
 73
    69
  0
VERTEX
  5
10C
330
44
100
AcDbEntity
  8
0
100
AcDbFaceRecord
 10
0.0
 20
0.0
 30
0.0
 70
   128
 71
    69
 72
    68
 73
   -52
  0
VERTEX
  5
10D
330
44
100
AcDbEntity
  8
0
100
AcDbFaceRecord
 10
0.0
 20
0.0
 30
0.0
 70
   128
 71
    53
 72
    54
 73
    70
  0
VERTEX
  5
10E
330
44
100
AcDbEntity
  8
0
100
AcDbFaceRecord
 10
0.0
 20
0.0
 30
0.0
 70
   128
 71
    70
 72
    69
 73
   -53
  0
VERTEX
  5
10F
330
44
100
AcDbEntity
  8
0
100
AcDbFaceRecord
 10
0.0
 20
0.0
 30
0.0
 70
   128
 71
    54
 72
    55
 73
    71
  0
VERTEX
  5
110
330
44
100
AcDbEntity
  8
0
100
AcDbFaceRecord
 10
0.0
 20
0.0
 30
0.0
 70
   128
 71
    71
 72
    70
 73
   -54
  0
VERTEX
  5
111
330
44
100
AcDbEntity
  8
0
100
AcDbFaceRecord
 10
0.0
 20
0.0
 30
0.0
 70
   128
 71
    55
 72
    56
 73
    72
  0
VERTEX
  5
112
330
44
100
AcDbEntity
  8
0
100
AcDbFaceRecord
 10
0.0
 20
0.0
 30
0.0
 70
   128
 71
    72
 72
    71
 73
   -55
  0
VERTEX
  5
113
330
44
100
AcDbEntity
  8
0
100
AcDbFaceRecord
 10
0.0
 20
0.0
 30
0.0
 70
   128
 71
    56
 72
    57
 73
    73
  0
VERTEX
  5
114
330
44
100
AcDbEntity
  8
0
100
AcDbFaceRecord
 10
0.0
 20
0.0
 30
0.0
 70
   128
 71
    73
 72
    72
 73
   -56
  0
VERTEX
  5
115
330
44
100
AcDbEntity
  8
0
100
AcDbFaceRecord
 10
0.0
 20
0.0
 30
0.0
 70
   128
 71
    57
 72
    58
 73
    74
  0
VERTEX
  5
116
330
44
100
AcDbEntity
  8
0
100
AcDbFaceRecord
 10
0.0
 20
0.0
 30
0.0
 70
   128
 71
    74
 72
    73
 73
   -57
  0
VERTEX
  5
117
330
44
100
AcDbEntity
  8
0
100
AcDbFaceRecord
 10
0.0
 20
0.0
 30
0.0
 70
   128
 71
    58
 72
    59
 73
    75
  0
VERTEX
  5
118
330
44
100
AcDbEntity
  8
0
100
AcDbFaceRecord
 10
0.0
 20
0.0
 30
0.0
 70
   128
 71
    75
 72
    74
 73
   -58
  0
VERTEX
  5
119
330
44
100
AcDbEntity
  8
0
100
AcDbFaceRecord
 10
0.0
 20
0.0
 30
0.0
 70
   128
 71
    59
 72
    60
 73
    76
  0
VERTEX
  5
11A
330
44
100
AcDbEntity
  8
0
100
AcDbFaceRecord
 10
0.0
 20
0.0
 30
0.0
 70
   128
 71
    76
 72
    75
 73
   -59
  0
VERTEX
  5
11B
330
44
100
AcDbEntity
  8
0
100
AcDbFaceRecord
 10
0.0
 20
0.0
 30
0.0
 70
   128
 71
    60
 72
    61
 73
    77
  0
VERTEX
  5
11C
330
44
100
AcDbEntity
  8
0
100
AcDbFaceRecord
 10
0.0
 20
0.0
 30
0.0
 70
   128
 71
    77
 72
    76
 73
   -60
  0
VERTEX
  5
11D
330
44
100
AcDbEntity
  8
0
100
AcDbFaceRecord
 10
0.0
 20
0.0
 30
0.0
 70
   128
 71
    61
 72
    62
 73
    78
  0
VERTEX
  5
11E
330
44
100
AcDbEntity
  8
0
100
AcDbFaceRecord
 10
0.0
 20
0.0
 30
0.0
 70
   128
 71
    78
 72
    77
 73
   -61
  0
VERTEX
  5
11F
330
44
100
AcDbEntity
  8
0
100
AcDbFaceRecord
 10
0.0
 20
0.0
 30
0.0
 70
   128
 71
    62
 72
    63
 73
    79
  0
VERTEX
  5
120
330
44
100
AcDbEntity
  8
0
100
AcDbFaceRecord
 10
0.0
 20
0.0
 30
0.0
 70
   128
 71
    79
 72
    78
 73
   -62
  0
VERTEX
  5
121
330
44
100
AcDbEntity
  8
0
100
AcDbFaceRecord
 10
0.0
 20
0.0
 30
0.0
 70
   128
 71
    63
 72
    64
 73
    80
  0
VERTEX
  5
122
330
44
100
AcDbEntity
  8
0
100
AcDbFaceRecord
 10
0.0
 20
0.0
 30
0.0
 70
   128
 71
    80
 72
    79
 73
   -63
  0
VERTEX
  5
123
330
44
100
AcDbEntity
  8
0
100
AcDbFaceRecord
 10
0.0
 20
0.0
 30
0.0
 70
   128
 71
    64
 72
    50
 73
    66
  0
VERTEX
  5
124
330
44
100
AcDbEntity
  8
0
100
AcDbFaceRecord
 10
0.0
 20
0.0
 30
0.0
 70
   128
 71
    66
 72
    80
 73
   -64
  0
VERTEX
  5
125
330
44
100
AcDbEntity
  8
0
100
AcDbFaceRecord
 10
0.0
 20
0.0
 30
0.0
 70
   128
 71
    66
 72
    65
 73
    81
  0
VERTEX
  5
126
330
44
100
AcDbEntity
  8
0
100
AcDbFaceRecord
 10
0.0
 20
0.0
 30
0.0
 70
   128
 71
    81
 72
    82
 73
   -66
  0
VERTEX
  5
127
330
44
100
AcDbEntity
  8
0
100
AcDbFaceRecord
 10
0.0
 20
0.0
 30
0.0
 70
   128
 71
    65
 72
    67
 73
    83
  0
VERTEX
  5
128
330
44
100
AcDbEntity
  8
0
100
AcDbFaceRecord
 10
0.0
 20
0.0
 30
0.0
 70
   128
 71
    83
 72
    81
 73
   -65
  0
VERTEX
  5
129
330
44
100
AcDbEntity
  8
0
100
AcDbFaceRecord
 10
0.0
 20
0.0
 30
0.0
 70
   128
 71
    67
 72
    68
 73
    84
  0
VERTEX
  5
12A
330
44
100
AcDbEntity
  8
0
100
AcDbFaceRecord
 10
0.0
 20
0.0
 30
0.0
 70
   128
 71
    84
 72
    83
 73
   -67
  0
VERTEX
  5
12B
330
44
100
AcDbEntity
  8
0
100
AcDbFaceRecord
 10
0.0
 20
0.0
 30
0.0
 70
   128
 71
    68
 72
    69
 73
    85
  0
VERTEX
  5
12C
330
44
100
AcDbEntity
  8
0
100
AcDbFaceRecord
 10
0.0
 20
0.0
 30
0.0
 70
   128
 71
    85
 72
    84
 73
   -68
  0
VERTEX
  5
12D
330
44
100
AcDbEntity
  8
0
100
AcDbFaceRecord
 10
0.0
 20
0.0
 30
0.0
 70
   128
 71
    69
 72
    70
 73
    86
  0
VERTEX
  5
12E
330
44
100
AcDbEntity
  8
0
100
AcDbFaceRecord
 10
0.0
 20
0.0
 30
0.0
 70
   128
 71
    86
 72
    85
 73
   -69
  0
VERTEX
  5
12F
330
44
100
AcDbEntity
  8
0
100
AcDbFaceRecord
 10
0.0
 20
0.0
 30
0.0
 70
   128
 71
    70
 72
    71
 73
    87
  0
VERTEX
  5
130
330
44
100
AcDbEntity
  8
0
100
AcDbFaceRecord
 10
0.0
 20
0.0
 30
0.0
 70
   128
 71
    87
 72
    86
 73
   -70
  0
VERTEX
  5
131
330
44
100
AcDbEntity
  8
0
100
AcDbFaceRecord
 10
0.0
 20
0.0
 30
0.0
 70
   128
 71
    71
 72
    72
 73
    88
  0
VERTEX
  5
132
330
44
100
AcDbEntity
  8
0
100
AcDbFaceRecord
 10
0.0
 20
0.0
 30
0.0
 70
   128
 71
    88
 72
    87
 73
   -71
  0
VERTEX
  5
133
330
44
100
AcDbEntity
  8
0
100
AcDbFaceRecord
 10
0.0
 20
0.0
 30
0.0
 70
   128
 71
    72
 72
    73
 73
    89
  0
VERTEX
  5
134
330
44
100
AcDbEntity
  8
0
100
AcDbFaceRecord
 10
0.0
 20
0.0
 30
0.0
 70
   128
 71
    89
 72
    88
 73
   -72
  0
VERTEX
  5
135
330
44
100
AcDbEntity
  8
0
100
AcDbFaceRecord
 10
0.0
 20
0.0
 30
0.0
 70
   128
 71
    73
 72
    74
 73
    90
  0
VERTEX
  5
136
330
44
100
AcDbEntity
  8
0
100
AcDbFaceRecord
 10
0.0
 20
0.0
 30
0.0
 70
   128
 71
    90
 72
    89
 73
   -73
  0
VERTEX
  5
137
330
44
100
AcDbEntity
  8
0
100
AcDbFaceRecord
 10
0.0
 20
0.0
 30
0.0
 70
   128
 71
    74
 72
    75
 73
    91
  0
VERTEX
  5
138
330
44
100
AcDbEntity
  8
0
100
AcDbFaceRecord
 10
0.0
 20
0.0
 30
0.0
 70
   128
 71
    91
 72
    90
 73
   -74
  0
VERTEX
  5
139
330
44
100
AcDbEntity
  8
0
100
AcDbFaceRecord
 10
0.0
 20
0.0
 30
0.0
 70
   128
 71
    75
 72
    76
 73
    92
  0
VERTEX
  5
13A
330
44
100
AcDbEntity
  8
0
100
AcDbFaceRecord
 10
0.0
 20
0.0
 30
0.0
 70
   128
 71
    92
 72
    91
 73
   -75
  0
VERTEX
  5
13B
330
44
100
AcDbEntity
  8
0
100
AcDbFaceRecord
 10
0.0
 20
0.0
 30
0.0
 70
   128
 71
    76
 72
    77
 73
    93
  0
VERTEX
  5
13C
330
44
100
AcDbEntity
  8
0
100
AcDbFaceRecord
 10
0.0
 20
0.0
 30
0.0
 70
   128
 71
    93
 72
    92
 73
   -76
  0
VERTEX
  5
13D
330
44
100
AcDbEntity
  8
0
100
AcDbFaceRecord
 10
0.0
 20
0.0
 30
0.0
 70
   128
 71
    77
 72
    78
 73
    94
  0
VERTEX
  5
13E
330
44
100
AcDbEntity
  8
0
100
AcDbFaceRecord
 10
0.0
 20
0.0
 30
0.0
 70
   128
 71
    94
 72
    93
 73
   -77
  0
VERTEX
  5
13F
330
44
100
AcDbEntity
  8
0
100
AcDbFaceRecord
 10
0.0
 20
0.0
 30
0.0
 70
   128
 71
    78
 72
    79
 73
    95
  0
VERTEX
  5
140
330
44
100
AcDbEntity
  8
0
100
AcDbFaceRecord
 10
0.0
 20
0.0
 30
0.0
 70
   128
 71
    95
 72
    94
 73
   -78
  0
VERTEX
  5
141
330
44
100
AcDbEntity
  8
0
100
AcDbFaceRecord
 10
0.0
 20
0.0
 30
0.0
 70
   128
 71
    79
 72
    80
 73
    96
  0
VERTEX
  5
142
330
44
100
AcDbEntity
  8
0
100
AcDbFaceRecord
 10
0.0
 20
0.0
 30
0.0
 70
   128
 71
    96
 72
    95
 73
   -79
  0
VERTEX
  5
143
330
44
100
AcDbEntity
  8
0
100
AcDbFaceRecord
 10
0.0
 20
0.0
 30
0.0
 70
   128
 71
    80
 72
    66
 73
    82
  0
VERTEX
  5
144
330
44
100
AcDbEntity
  8
0
100
AcDbFaceRecord
 10
0.0
 20
0.0
 30
0.0
 70
   128
 71
    82
 72
    96
 73
   -80
  0
VERTEX
  5
145
330
44
100
AcDbEntity
  8
0
100
AcDbFaceRecord
 10
0.0
 20
0.0
 30
0.0
 70
   128
 71
    94
 72
    92
 73
    93
  0
VERTEX
  5
146
330
44
100
AcDbEntity
  8
0
100
AcDbFaceRecord
 10
0.0
 20
0.0
 30
0.0
 70
   128
 71
    94
 72
    91
 73
    92
  0
VERTEX
  5
147
330
44
100
AcDbEntity
  8
0
100
AcDbFaceRecord
 10
0.0
 20
0.0
 30
0.0
 70
   128
 71
    95
 72
    91
 73
    94
  0
VERTEX
  5
148
330
44
100
AcDbEntity
  8
0
100
AcDbFaceRecord
 10
0.0
 20
0.0
 30
0.0
 70
   128
 71
    95
 72
    90
 73
    91
  0
VERTEX
  5
149
330
44
100
AcDbEntity
  8
0
100
AcDbFaceRecord
 10
0.0
 20
0.0
 30
0.0
 70
   128
 71
    96
 72
    90
 73
    95
  0
VERTEX
  5
14A
330
44
100
AcDbEntity
  8
0
100
AcDbFaceRecord
 10
0.0
 20
0.0
 30
0.0
 70
   128
 71
    96
 72
    89
 73
    90
  0
VERTEX
  5
14B
330
44
100
AcDbEntity
  8
0
100
AcDbFaceRecord
 10
0.0
 20
0.0
 30
0.0
 70
   128
 71
    82
 72
    89
 73
    96
  0
VERTEX
  5
14C
330
44
100
AcDbEntity
  8
0
100
AcDbFaceRecord
 10
0.0
 20
0.0
 30
0.0
 70
   128
 71
    82
 72
    88
 73
    89
  0
VERTEX
  5
14D
330
44
100
AcDbEntity
  8
0
100
AcDbFaceRecord
 10
0.0
 20
0.0
 30
0.0
 70
   128
 71
    81
 72
    88
 73
    82
  0
VERTEX
  5
14E
330
44
100
AcDbEntity
  8
0
100
AcDbFaceRecord
 10
0.0
 20
0.0
 30
0.0
 70
   128
 71
    81
 72
    87
 73
    88
  0
VERTEX
  5
14F
330
44
100
AcDbEntity
  8
0
100
AcDbFaceRecord
 10
0.0
 20
0.0
 30
0.0
 70
   128
 71
    83
 72
    87
 73
    81
  0
VERTEX
  5
150
330
44
100
AcDbEntity
  8
0
100
AcDbFaceRecord
 10
0.0
 20
0.0
 30
0.0
 70
   128
 71
    83
 72
    86
 73
    87
  0
VERTEX
  5
151
330
44
100
AcDbEntity
  8
0
100
AcDbFaceRecord
 10
0.0
 20
0.0
 30
0.0
 70
   128
 71
    84
 72
    86
 73
    83
  0
VERTEX
  5
152
330
44
100
AcDbEntity
  8
0
100
AcDbFaceRecord
 10
0.0
 20
0.0
 30
0.0
 70
   128
 71
    84
 72
    85
 73
    86
  0
SEQEND
  5
153
330
44
100
AcDbEntity
  8
0
  0
POLYLINE
  5
155
330
1F
100
AcDbEntity
  8
0
100
AcDbPolyFaceMesh
 66
     1
 10
0.0
 20
0.0
 30
0.0
 70
    64
 71
   554
 72
  1052
1001
AVE_ENTITY_MATERIAL
1002
{
1000

1002
{
1071
        0
1070
     0
1070
     0
1002
{
1070
     0
1070
     0
1070
     0
1040
0.0
1002
}
1070
     0
1070
     0
1002
{
1002
}
1002
}
1002
{
1002
}
1002
{
1002
}
1011
22.5
1021
8.003213882446281
1031
13.76301193237304
1011
22.5
1021
9.003213882446281
1031
13.76301193237304
1011
21.49999999999999
1021
8.003213882446285
1031
13.76301193237304
1011
22.5
1021
8.003213882446281
1031
14.76301193237304
1002
}
  0
VERTEX
  5
156
330
155
100
AcDbEntity
  8
0
100
AcDbVertex
100
AcDbPolyFaceMeshVertex
 10
42.99999809265137
 20
0.0000019073486195
 30
13.70400971919298
 70
   192
  0
VERTEX
  5
157
330
155
100
AcDbEntity
  8
0
100
AcDbVertex
100
AcDbPolyFaceMeshVertex
 10
42.99999809265137
 20
0.0000019073486195
 30
14.40411233901977
 70
   192
  0
VERTEX
  5
158
330
155
100
AcDbEntity
  8
0
100
AcDbVertex
100
AcDbPolyFaceMeshVertex
 10
42.58688163757324
 20
-5.459315299987806
 30
14.40301185846328
 70
   192
  0
VERTEX
  5
159
330
155
100
AcDbEntity
  8
0
100
AcDbVertex
100
AcDbPolyFaceMeshVertex
 10
42.58688163757324
 20
-5.459315299987806
 30
13.70301195979118
 70
   192
  0
VERTEX
  5
15A
330
155
100
AcDbEntity
  8
0
100
AcDbVertex
100
AcDbPolyFaceMeshVertex
 10
42.95298194885254
 20
0.0000019073486195
 30
14.63769304752349
 70
   192
  0
VERTEX
  5
15B
330
155
100
AcDbEntity
  8
0
100
AcDbVertex
100
AcDbPolyFaceMeshVertex
 10
42.5402774810791
 20
-5.452168464660657
 30
14.636559009552
 70
   192
  0
VERTEX
  5
15C
330
155
100
AcDbEntity
  8
0
100
AcDbVertex
100
AcDbPolyFaceMeshVertex
 10
42.82476234436034
 20
0.0000019073486195
 30
14.82843816280364
 70
   192
  0
VERTEX
  5
15D
330
155
100
AcDbEntity
  8
0
100
AcDbVertex
100
AcDbPolyFaceMeshVertex
 10
42.41317749023437
 20
-5.432677268981946
 30
14.82727611064911
 70
   192
  0
VERTEX
  5
15E
330
155
100
AcDbEntity
  8
0
100
AcDbVertex
100
AcDbPolyFaceMeshVertex
 10
42.63458824157715
 20
-0.0000000000000129
 30
14.95704174041748
 70
   192
  0
VERTEX
  5
15F
330
155
100
AcDbEntity
  8
0
100
AcDbVertex
100
AcDbPolyFaceMeshVertex
 10
42.22466468811035
 20
-5.40376949310304
 30
14.9558607339859
 70
   192
  0
VERTEX
  5
160
330
155
100
AcDbEntity
  8
0
100
AcDbVertex
100
AcDbPolyFaceMeshVertex
 10
42.40170860290527
 20
-0.0000000000000129
 30
15.00419974327087
 70
   192
  0
VERTEX
  5
161
330
155
100
AcDbEntity
  8
0
100
AcDbVertex
100
AcDbPolyFaceMeshVertex
 10
41.99381637573242
 20
-5.368368148803724
 30
15.00301194190979
 70
   192
  0
VERTEX
  5
162
330
155
100
AcDbEntity
  8
0
100
AcDbVertex
100
AcDbPolyFaceMeshVertex
 10
41.36341094970703
 20
-10.71192359924317
 30
14.40301185846328
 70
   192
  0
VERTEX
  5
163
330
155
100
AcDbEntity
  8
0
100
AcDbVertex
100
AcDbPolyFaceMeshVertex
 10
41.36341094970703
 20
-10.71192359924317
 30
13.70301195979118
 70
   192
  0
VERTEX
  5
164
330
155
100
AcDbEntity
  8
0
100
AcDbVertex
100
AcDbPolyFaceMeshVertex
 10
41.31849670410156
 20
-10.69757652282716
 30
14.636559009552
 70
   192
  0
VERTEX
  5
165
330
155
100
AcDbEntity
  8
0
100
AcDbVertex
100
AcDbPolyFaceMeshVertex
 10
41.19600677490234
 20
-10.65845489501954
 30
14.82727611064911
 70
   192
  0
VERTEX
  5
166
330
155
100
AcDbEntity
  8
0
100
AcDbVertex
100
AcDbPolyFaceMeshVertex
 10
41.01433181762695
 20
-10.60042762756349
 30
14.9558607339859
 70
   192
  0
VERTEX
  5
167
330
155
100
AcDbEntity
  8
0
100
AcDbVertex
100
AcDbPolyFaceMeshVertex
 10
40.79185676574707
 20
-10.52936935424806
 30
15.00301194190979
 70
   192
  0
VERTEX
  5
168
330
155
100
AcDbEntity
  8
0
100
AcDbVertex
100
AcDbPolyFaceMeshVertex
 10
39.37659645080566
 20
-15.5527515411377
 30
14.40301185846328
 70
   192
  0
VERTEX
  5
169
330
155
100
AcDbEntity
  8
0
100
AcDbVertex
100
AcDbPolyFaceMeshVertex
 10
39.37659645080566
 20
-15.5527515411377
 30
13.70301195979118
 70
   192
  0
VERTEX
  5
16A
330
155
100
AcDbEntity
  8
0
100
AcDbVertex
100
AcDbPolyFaceMeshVertex
 10
39.33468437194824
 20
-15.5311508178711
 30
14.636559009552
 70
   192
  0
VERTEX
  5
16B
330
155
100
AcDbEntity
  8
0
100
AcDbVertex
100
AcDbPolyFaceMeshVertex
 10
39.22038650512695
 20
-15.47224235534669
 30
14.82727611064911
 70
   192
  0
VERTEX
  5
16C
330
155
100
AcDbEntity
  8
0
100
AcDbVertex
100
AcDbPolyFaceMeshVertex
 10
39.05085945129394
 20
-15.38487052917481
 30
14.9558607339859
 70
   192
  0
VERTEX
  5
16D
330
155
100
AcDbEntity
  8
0
100
AcDbVertex
100
AcDbPolyFaceMeshVertex
 10
38.84326171875
 20
-15.27787590026856
 30
15.00301194190979
 70
   192
  0
VERTEX
  5
16E
330
155
100
AcDbEntity
  8
0
100
AcDbVertex
100
AcDbPolyFaceMeshVertex
 10
36.70279598236083
 20
-19.79577445983888
 30
14.40301185846328
 70
   192
  0
VERTEX
  5
16F
330
155
100
AcDbEntity
  8
0
100
AcDbVertex
100
AcDbPolyFaceMeshVertex
 10
36.70279598236083
 20
-19.79577445983888
 30
13.70301195979118
 70
   192
  0
VERTEX
  5
170
330
155
100
AcDbEntity
  8
0
100
AcDbVertex
100
AcDbPolyFaceMeshVertex
 10
36.66546726226806
 20
-19.76697158813477
 30
14.636559009552
 70
   192
  0
VERTEX
  5
171
330
155
100
AcDbEntity
  8
0
100
AcDbVertex
100
AcDbPolyFaceMeshVertex
 10
36.56366825103759
 20
-19.68841361999513
 30
14.82727611064911
 70
   192
  0
VERTEX
  5
172
330
155
100
AcDbEntity
  8
0
100
AcDbVertex
100
AcDbPolyFaceMeshVertex
 10
36.41268062591552
 20
-19.57189941406251
 30
14.9558607339859
 70
   192
  0
VERTEX
  5
173
330
155
100
AcDbEntity
  8
0
100
AcDbVertex
100
AcDbPolyFaceMeshVertex
 10
36.22778415679931
 20
-19.42921829223634
 30
15.00301194190979
 70
   192
  0
VERTEX
  5
174
330
155
100
AcDbEntity
  8
0
100
AcDbVertex
100
AcDbPolyFaceMeshVertex
 10
33.44475936889647
 20
-23.27793693542481
 30
14.40301185846328
 70
   192
  0
VERTEX
  5
175
330
155
100
AcDbEntity
  8
0
100
AcDbVertex
100
AcDbPolyFaceMeshVertex
 10
33.44475936889647
 20
-23.27793693542481
 30
13.70301195979118
 70
   192
  0
VERTEX
  5
176
330
155
100
AcDbEntity
  8
0
100
AcDbVertex
100
AcDbPolyFaceMeshVertex
 10
33.41390419006347
 20
-23.24228477478028
 30
14.636559009552
 70
   192
  0
VERTEX
  5
177
330
155
100
AcDbEntity
  8
0
100
AcDbVertex
100
AcDbPolyFaceMeshVertex
 10
33.32976055145262
 20
-23.1450538635254
 30
14.82727611064911
 70
   192
  0
VERTEX
  5
178
330
155
100
AcDbEntity
  8
0
100
AcDbVertex
100
AcDbPolyFaceMeshVertex
 10
33.20495700836181
 20
-23.00084114074708
 30
14.9558607339859
 70
   192
  0
VERTEX
  5
179
330
155
100
AcDbEntity
  8
0
100
AcDbVertex
100
AcDbPolyFaceMeshVertex
 10
33.05212593078612
 20
-22.8242416381836
 30
15.00301194190979
 70
   192
  0
VERTEX
  5
17A
330
155
100
AcDbEntity
  8
0
100
AcDbVertex
100
AcDbPolyFaceMeshVertex
 10
29.72769355773925
 20
-25.86541175842286
 30
14.40301185846328
 70
   192
  0
VERTEX
  5
17B
330
155
100
AcDbEntity
  8
0
100
AcDbVertex
100
AcDbPolyFaceMeshVertex
 10
29.72769355773925
 20
-25.86541175842286
 30
13.70301195979118
 70
   192
  0
VERTEX
  5
17C
330
155
100
AcDbEntity
  8
0
100
AcDbVertex
100
AcDbPolyFaceMeshVertex
 10
29.70541286468505
 20
-25.82385826110841
 30
14.636559009552
 70
   192
  0
VERTEX
  5
17D
330
155
100
AcDbEntity
  8
0
100
AcDbVertex
100
AcDbPolyFaceMeshVertex
 10
29.6446509361267
 20
-25.71053504943849
 30
14.82727611064911
 70
   192
  0
VERTEX
  5
17E
330
155
100
AcDbEntity
  8
0
100
AcDbVertex
100
AcDbPolyFaceMeshVertex
 10
29.55452966690062
 20
-25.54245567321778
 30
14.9558607339859
 70
   192
  0
VERTEX
  5
17F
330
155
100
AcDbEntity
  8
0
100
AcDbVertex
100
AcDbPolyFaceMeshVertex
 10
29.44416856765746
 20
-25.33662605285646
 30
15.00301194190979
 70
   192
  0
VERTEX
  5
180
330
155
100
AcDbEntity
  8
0
100
AcDbVertex
100
AcDbPolyFaceMeshVertex
 10
25.69444179534911
 20
-27.45877265930176
 30
14.40301185846328
 70
   192
  0
VERTEX
  5
181
330
155
100
AcDbEntity
  8
0
100
AcDbVertex
100
AcDbPolyFaceMeshVertex
 10
25.69444179534911
 20
-27.45877265930176
 30
13.70301195979118
 70
   192
  0
VERTEX
  5
182
330
155
100
AcDbEntity
  8
0
100
AcDbVertex
100
AcDbPolyFaceMeshVertex
 10
25.68268966674803
 20
-27.4131145477295
 30
14.636559009552
 70
   192
  0
VERTEX
  5
183
330
155
100
AcDbEntity
  8
0
100
AcDbVertex
100
AcDbPolyFaceMeshVertex
 10
25.65064001083373
 20
-27.28858375549317
 30
14.82727611064911
 70
   192
  0
VERTEX
  5
184
330
155
100
AcDbEntity
  8
0
100
AcDbVertex
100
AcDbPolyFaceMeshVertex
 10
25.60310411453246
 20
-27.1038875579834
 30
14.9558607339859
 70
   192
  0
VERTEX
  5
185
330
155
100
AcDbEntity
  8
0
100
AcDbVertex
100
AcDbPolyFaceMeshVertex
 10
25.54489278793334
 20
-26.87771034240723
 30
15.00301194190979
 70
   192
  0
VERTEX
  5
186
330
155
100
AcDbEntity
  8
0
100
AcDbVertex
100
AcDbPolyFaceMeshVertex
 10
21.49999976158141
 20
-27.99678611755371
 30
14.40301185846328
 70
   192
  0
VERTEX
  5
187
330
155
100
AcDbEntity
  8
0
100
AcDbVertex
100
AcDbPolyFaceMeshVertex
 10
21.49999976158141
 20
-27.99678611755371
 30
13.70301195979118
 70
   192
  0
VERTEX
  5
188
330
155
100
AcDbEntity
  8
0
100
AcDbVertex
100
AcDbPolyFaceMeshVertex
 10
21.49999976158141
 20
-27.94963264465332
 30
14.636559009552
 70
   192
  0
VERTEX
  5
189
330
155
100
AcDbEntity
  8
0
100
AcDbVertex
100
AcDbPolyFaceMeshVertex
 10
21.49999976158141
 20
-27.8210506439209
 30
14.82727611064911
 70
   192
  0
VERTEX
  5
18A
330
155
100
AcDbEntity
  8
0
100
AcDbVertex
100
AcDbPolyFaceMeshVertex
 10
21.4999998807907
 20
-27.63033103942872
 30
14.9558607339859
 70
   192
  0
VERTEX
  5
18B
330
155
100
AcDbEntity
  8
0
100
AcDbVertex
100
AcDbPolyFaceMeshVertex
 10
21.4999998807907
 20
-27.39678382873536
 30
15.00301194190979
 70
   192
  0
VERTEX
  5
18C
330
155
100
AcDbEntity
  8
0
100
AcDbVertex
100
AcDbPolyFaceMeshVertex
 10
17.30555772781371
 20
-27.45877265930176
 30
14.40301185846328
 70
   192
  0
VERTEX
  5
18D
330
155
100
AcDbEntity
  8
0
100
AcDbVertex
100
AcDbPolyFaceMeshVertex
 10
17.30555772781371
 20
-27.45877265930176
 30
13.70301195979118
 70
   192
  0
VERTEX
  5
18E
330
155
100
AcDbEntity
  8
0
100
AcDbVertex
100
AcDbPolyFaceMeshVertex
 10
17.31730985641478
 20
-27.41311073303223
 30
14.636559009552
 70
   192
  0
VERTEX
  5
18F
330
155
100
AcDbEntity
  8
0
100
AcDbVertex
100
AcDbPolyFaceMeshVertex
 10
17.34935998916625
 20
-27.2885799407959
 30
14.82727611064911
 70
   192
  0
VERTEX
  5
190
330
155
100
AcDbEntity
  8
0
100
AcDbVertex
100
AcDbPolyFaceMeshVertex
 10
17.39689588546752
 20
-27.10388374328614
 30
14.9558607339859
 70
   192
  0
VERTEX
  5
191
330
155
100
AcDbEntity
  8
0
100
AcDbVertex
100
AcDbPolyFaceMeshVertex
 10
17.45510721206664
 20
-26.87770652770996
 30
15.00301194190979
 70
   192
  0
VERTEX
  5
192
330
155
100
AcDbEntity
  8
0
100
AcDbVertex
100
AcDbPolyFaceMeshVertex
 10
13.27230548858641
 20
-25.86541175842286
 30
14.40301185846328
 70
   192
  0
VERTEX
  5
193
330
155
100
AcDbEntity
  8
0
100
AcDbVertex
100
AcDbPolyFaceMeshVertex
 10
13.27230548858641
 20
-25.86541175842286
 30
13.70301195979118
 70
   192
  0
VERTEX
  5
194
330
155
100
AcDbEntity
  8
0
100
AcDbVertex
100
AcDbPolyFaceMeshVertex
 10
13.29458618164061
 20
-25.8238582611084
 30
14.636559009552
 70
   192
  0
VERTEX
  5
195
330
155
100
AcDbEntity
  8
0
100
AcDbVertex
100
AcDbPolyFaceMeshVertex
 10
13.3553476333618
 20
-25.71053504943848
 30
14.82727611064911
 70
   192
  0
VERTEX
  5
196
330
155
100
AcDbEntity
  8
0
100
AcDbVertex
100
AcDbPolyFaceMeshVertex
 10
13.44546890258788
 20
-25.54245567321778
 30
14.9558607339859
 70
   192
  0
VERTEX
  5
197
330
155
100
AcDbEntity
  8
0
100
AcDbVertex
100
AcDbPolyFaceMeshVertex
 10
13.55583095550536
 20
-25.33662605285645
 30
15.00301194190979
 70
   192
  0
VERTEX
  5
198
330
155
100
AcDbEntity
  8
0
100
AcDbVertex
100
AcDbPolyFaceMeshVertex
 10
9.555238723754875
 20
-23.27793884277344
 30
14.40301185846328
 70
   192
  0
VERTEX
  5
199
330
155
100
AcDbEntity
  8
0
100
AcDbVertex
100
AcDbPolyFaceMeshVertex
 10
9.555238723754875
 20
-23.27793884277344
 30
13.70301195979118
 70
   192
  0
VERTEX
  5
19A
330
155
100
AcDbEntity
  8
0
100
AcDbVertex
100
AcDbPolyFaceMeshVertex
 10
9.586093902587883
 20
-23.2422866821289
 30
14.636559009552
 70
   192
  0
VERTEX
  5
19B
330
155
100
AcDbEntity
  8
0
100
AcDbVertex
100
AcDbPolyFaceMeshVertex
 10
9.670237541198723
 20
-23.14505577087402
 30
14.82727611064911
 70
   192
  0
VERTEX
  5
19C
330
155
100
AcDbEntity
  8
0
100
AcDbVertex
100
AcDbPolyFaceMeshVertex
 10
9.795041084289543
 20
-23.00084114074707
 30
14.9558607339859
 70
   192
  0
VERTEX
  5
19D
330
155
100
AcDbEntity
  8
0
100
AcDbVertex
100
AcDbPolyFaceMeshVertex
 10
9.947872161865227
 20
-22.82424354553223
 30
15.00301194190979
 70
   192
  0
VERTEX
  5
19E
330
155
100
AcDbEntity
  8
0
100
AcDbVertex
100
AcDbPolyFaceMeshVertex
 10
6.297204971313469
 20
-19.79577445983886
 30
14.40301185846328
 70
   192
  0
VERTEX
  5
19F
330
155
100
AcDbEntity
  8
0
100
AcDbVertex
100
AcDbPolyFaceMeshVertex
 10
6.297204971313469
 20
-19.79577445983886
 30
13.70301195979118
 70
   192
  0
VERTEX
  5
1A0
330
155
100
AcDbEntity
  8
0
100
AcDbVertex
100
AcDbPolyFaceMeshVertex
 10
6.33453178405761
 20
-19.76697158813476
 30
14.636559009552
 70
   192
  0
VERTEX
  5
1A1
330
155
100
AcDbEntity
  8
0
100
AcDbVertex
100
AcDbPolyFaceMeshVertex
 10
6.436330795288078
 20
-19.68841361999511
 30
14.82727611064911
 70
   192
  0
VERTEX
  5
1A2
330
155
100
AcDbEntity
  8
0
100
AcDbVertex
100
AcDbPolyFaceMeshVertex
 10
6.587320327758781
 20
-19.5718994140625
 30
14.9558607339859
 70
   192
  0
VERTEX
  5
1A3
330
155
100
AcDbEntity
  8
0
100
AcDbVertex
100
AcDbPolyFaceMeshVertex
 10
6.772216796874992
 20
-19.42921829223632
 30
15.00301194190979
 70
   192
  0
VERTEX
  5
1A4
330
155
100
AcDbEntity
  8
0
100
AcDbVertex
100
AcDbPolyFaceMeshVertex
 10
3.623401641845699
 20
-15.55275154113769
 30
14.40301185846328
 70
   192
  0
VERTEX
  5
1A5
330
155
100
AcDbEntity
  8
0
100
AcDbVertex
100
AcDbPolyFaceMeshVertex
 10
3.623401641845699
 20
-15.55275154113769
 30
13.70301195979118
 70
   192
  0
VERTEX
  5
1A6
330
155
100
AcDbEntity
  8
0
100
AcDbVertex
100
AcDbPolyFaceMeshVertex
 10
3.665313720703121
 20
-15.53115081787109
 30
14.636559009552
 70
   192
  0
VERTEX
  5
1A7
330
155
100
AcDbEntity
  8
0
100
AcDbVertex
100
AcDbPolyFaceMeshVertex
 10
3.77961158752441
 20
-15.47224235534668
 30
14.82727611064911
 70
   192
  0
VERTEX
  5
1A8
330
155
100
AcDbEntity
  8
0
100
AcDbVertex
100
AcDbPolyFaceMeshVertex
 10
3.949138641357418
 20
-15.3848705291748
 30
14.9558607339859
 70
   192
  0
VERTEX
  5
1A9
330
155
100
AcDbEntity
  8
0
100
AcDbVertex
100
AcDbPolyFaceMeshVertex
 10
4.156736373901363
 20
-15.27787590026855
 30
15.00301194190979
 70
   192
  0
VERTEX
  5
1AA
330
155
100
AcDbEntity
  8
0
100
AcDbVertex
100
AcDbPolyFaceMeshVertex
 10
1.636589050292965
 20
-10.71192359924316
 30
14.40301185846328
 70
   192
  0
VERTEX
  5
1AB
330
155
100
AcDbEntity
  8
0
100
AcDbVertex
100
AcDbPolyFaceMeshVertex
 10
1.636589050292965
 20
-10.71192359924316
 30
13.70301195979118
 70
   192
  0
VERTEX
  5
1AC
330
155
100
AcDbEntity
  8
0
100
AcDbVertex
100
AcDbPolyFaceMeshVertex
 10
1.681503295898433
 20
-10.69757652282714
 30
14.636559009552
 70
   192
  0
VERTEX
  5
1AD
330
155
100
AcDbEntity
  8
0
100
AcDbVertex
100
AcDbPolyFaceMeshVertex
 10
1.803993225097652
 20
-10.65845489501953
 30
14.82727611064911
 70
   192
  0
VERTEX
  5
1AE
330
155
100
AcDbEntity
  8
0
100
AcDbVertex
100
AcDbPolyFaceMeshVertex
 10
1.985668182373043
 20
-10.60042762756347
 30
14.9558607339859
 70
   192
  0
VERTEX
  5
1AF
330
155
100
AcDbEntity
  8
0
100
AcDbVertex
100
AcDbPolyFaceMeshVertex
 10
2.208143234252926
 20
-10.52936935424804
 30
15.00301194190979
 70
   192
  0
VERTEX
  5
1B0
330
155
100
AcDbEntity
  8
0
100
AcDbVertex
100
AcDbPolyFaceMeshVertex
 10
0.4131183624267579
 20
-5.459315299987792
 30
14.40301185846328
 70
   192
  0
VERTEX
  5
1B1
330
155
100
AcDbEntity
  8
0
100
AcDbVertex
100
AcDbPolyFaceMeshVertex
 10
0.4131183624267579
 20
-5.459315299987792
 30
13.70301195979118
 70
   192
  0
VERTEX
  5
1B2
330
155
100
AcDbEntity
  8
0
100
AcDbVertex
100
AcDbPolyFaceMeshVertex
 10
0.4597225189208985
 20
-5.452168464660644
 30
14.636559009552
 70
   192
  0
VERTEX
  5
1B3
330
155
100
AcDbEntity
  8
0
100
AcDbVertex
100
AcDbPolyFaceMeshVertex
 10
0.586822509765625
 20
-5.432677268981933
 30
14.82727611064911
 70
   192
  0
VERTEX
  5
1B4
330
155
100
AcDbEntity
  8
0
100
AcDbVertex
100
AcDbPolyFaceMeshVertex
 10
0.7753353118896485
 20
-5.403769493103027
 30
14.9558607339859
 70
   192
  0
VERTEX
  5
1B5
330
155
100
AcDbEntity
  8
0
100
AcDbVertex
100
AcDbPolyFaceMeshVertex
 10
1.006183624267578
 20
-5.36836814880371
 30
15.00301194190979
 70
   192
  0
VERTEX
  5
1B6
330
155
100
AcDbEntity
  8
0
100
AcDbVertex
100
AcDbPolyFaceMeshVertex
 10
0.0
 20
0.0
 30
14.40411233901977
 70
   192
  0
VERTEX
  5
1B7
330
155
100
AcDbEntity
  8
0
100
AcDbVertex
100
AcDbPolyFaceMeshVertex
 10
0.0
 20
0.0
 30
13.70400971919298
 70
   192
  0
VERTEX
  5
1B8
330
155
100
AcDbEntity
  8
0
100
AcDbVertex
100
AcDbPolyFaceMeshVertex
 10
0.0470161437988281
 20
0.0
 30
14.63769304752349
 70
   192
  0
VERTEX
  5
1B9
330
155
100
AcDbEntity
  8
0
100
AcDbVertex
100
AcDbPolyFaceMeshVertex
 10
0.1752376556396484
 20
0.0
 30
14.82843816280364
 70
   192
  0
VERTEX
  5
1BA
330
155
100
AcDbEntity
  8
0
100
AcDbVertex
100
AcDbPolyFaceMeshVertex
 10
0.3654117584228516
 20
0.0000019073486328
 30
14.95704174041748
 70
   192
  0
VERTEX
  5
1BB
330
155
100
AcDbEntity
  8
0
100
AcDbVertex
100
AcDbPolyFaceMeshVertex
 10
0.598287582397461
 20
0.0
 30
15.00419974327087
 70
   192
  0
VERTEX
  5
1BC
330
155
100
AcDbEntity
  8
0
100
AcDbVertex
100
AcDbPolyFaceMeshVertex
 10
13.96387195587157
 20
-21.40600204467774
 30
14.70847511291504
 70
   192
  0
VERTEX
  5
1BD
330
155
100
AcDbEntity
  8
0
100
AcDbVertex
100
AcDbPolyFaceMeshVertex
 10
10.9421739578247
 20
-20.00788688659668
 30
14.69946509599685
 70
   192
  0
VERTEX
  5
1BE
330
155
100
AcDbEntity
  8
0
100
AcDbVertex
100
AcDbPolyFaceMeshVertex
 10
14.37917518615722
 20
-20.31284141540528
 30
13.99883237481117
 70
   192
  0
VERTEX
  5
1BF
330
155
100
AcDbEntity
  8
0
100
AcDbVertex
100
AcDbPolyFaceMeshVertex
 10
11.57203674316405
 20
-18.79951667785645
 30
13.98846237361431
 70
   192
  0
VERTEX
  5
1C0
330
155
100
AcDbEntity
  8
0
100
AcDbVertex
100
AcDbPolyFaceMeshVertex
 10
14.64711046218871
 20
-19.64629364013672
 30
13.46825924515724
 70
   192
  0
VERTEX
  5
1C1
330
155
100
AcDbEntity
  8
0
100
AcDbVertex
100
AcDbPolyFaceMeshVertex
 10
11.89806652069091
 20
-18.15376091003418
 30
13.45643374323844
 70
   192
  0
VERTEX
  5
1C2
330
155
100
AcDbEntity
  8
0
100
AcDbVertex
100
AcDbPolyFaceMeshVertex
 10
14.81756925582885
 20
-19.06772422790528
 30
12.74639391899109
 70
   192
  0
VERTEX
  5
1C3
330
155
100
AcDbEntity
  8
0
100
AcDbVertex
100
AcDbPolyFaceMeshVertex
 10
12.13788032531737
 20
-17.67710494995117
 30
12.73519229888916
 70
   192
  0
VERTEX
  5
1C4
330
155
100
AcDbEntity
  8
0
100
AcDbVertex
100
AcDbPolyFaceMeshVertex
 10
15.01989459991454
 20
-17.64965248107911
 30
10.41781091690063
 70
   192
  0
VERTEX
  5
1C5
330
155
100
AcDbEntity
  8
0
100
AcDbVertex
100
AcDbPolyFaceMeshVertex
 10
12.69018936157226
 20
-16.37591934204102
 30
10.40828204154968
 70
   192
  0
VERTEX
  5
1C6
330
155
100
AcDbEntity
  8
0
100
AcDbVertex
100
AcDbPolyFaceMeshVertex
 10
15.15605640411376
 20
-15.12911415100098
 30
6.894052982330322
 70
   192
  0
VERTEX
  5
1C7
330
155
100
AcDbEntity
  8
0
100
AcDbVertex
100
AcDbPolyFaceMeshVertex
 10
13.35235118865966
 20
-13.97136688232422
 30
6.886825561523437
 70
   192
  0
VERTEX
  5
1C8
330
155
100
AcDbEntity
  8
0
100
AcDbVertex
100
AcDbPolyFaceMeshVertex
 10
15.04794025421142
 20
-12.21807289123535
 30
3.600554466247558
 70
   192
  0
VERTEX
  5
1C9
330
155
100
AcDbEntity
  8
0
100
AcDbVertex
100
AcDbPolyFaceMeshVertex
 10
13.81593036651611
 20
-11.18276214599609
 30
3.595834732055664
 70
   192
  0
VERTEX
  5
1CA
330
155
100
AcDbEntity
  8
0
100
AcDbVertex
100
AcDbPolyFaceMeshVertex
 10
14.88059043884277
 20
-8.836925506591803
 30
1.346661567687988
 70
   192
  0
VERTEX
  5
1CB
330
155
100
AcDbEntity
  8
0
100
AcDbVertex
100
AcDbPolyFaceMeshVertex
 10
14.16363143920898
 20
-7.918979644775395
 30
1.344233512878417
 70
   192
  0
VERTEX
  5
1CC
330
155
100
AcDbEntity
  8
0
100
AcDbVertex
100
AcDbPolyFaceMeshVertex
 10
14.74518632888793
 20
-4.902431488037113
 30
0.1414251327514648
 70
   192
  0
VERTEX
  5
1CD
330
155
100
AcDbEntity
  8
0
100
AcDbVertex
100
AcDbPolyFaceMeshVertex
 10
14.38214683532715
 20
-4.085178375244145
 30
0.1406517028808594
 70
   192
  0
VERTEX
  5
1CE
330
155
100
AcDbEntity
  8
0
100
AcDbVertex
100
AcDbPolyFaceMeshVertex
 10
14.75432634353637
 20
-1.514157295227055
 30
0.0006065368652344
 70
   192
  0
VERTEX
  5
1CF
330
155
100
AcDbEntity
  8
0
100
AcDbVertex
100
AcDbPolyFaceMeshVertex
 10
14.45190143585205
 20
-0.7975196838378951
 30
0.0006074905395508
 70
   192
  0
VERTEX
  5
1D0
330
155
100
AcDbEntity
  8
0
100
AcDbVertex
100
AcDbPolyFaceMeshVertex
 10
17.46785163879393
 20
-22.25056266784668
 30
14.70847511291504
 70
   192
  0
VERTEX
  5
1D1
330
155
100
AcDbEntity
  8
0
100
AcDbVertex
100
AcDbPolyFaceMeshVertex
 10
17.65522289276122
 20
-21.16617202758789
 30
13.99878624081611
 70
   192
  0
VERTEX
  5
1D2
330
155
100
AcDbEntity
  8
0
100
AcDbVertex
100
AcDbPolyFaceMeshVertex
 10
17.80501604080199
 20
-20.42331123352051
 30
13.46825924515724
 70
   192
  0
VERTEX
  5
1D3
330
155
100
AcDbEntity
  8
0
100
AcDbVertex
100
AcDbPolyFaceMeshVertex
 10
17.87416505813598
 20
-19.78532218933106
 30
12.74642944335937
 70
   192
  0
VERTEX
  5
1D4
330
155
100
AcDbEntity
  8
0
100
AcDbVertex
100
AcDbPolyFaceMeshVertex
 10
17.74645233154296
 20
-18.27629089355469
 30
10.41791176795959
 70
   192
  0
VERTEX
  5
1D5
330
155
100
AcDbEntity
  8
0
100
AcDbVertex
100
AcDbPolyFaceMeshVertex
 10
17.38332128524779
 20
-15.68303680419922
 30
6.894238948822021
 70
   192
  0
VERTEX
  5
1D6
330
155
100
AcDbEntity
  8
0
100
AcDbVertex
100
AcDbPolyFaceMeshVertex
 10
16.7366280555725
 20
-12.70354461669922
 30
3.600832939147949
 70
   192
  0
VERTEX
  5
1D7
330
155
100
AcDbEntity
  8
0
100
AcDbVertex
100
AcDbPolyFaceMeshVertex
 10
16.04465103149414
 20
-9.29599571228028
 30
1.347026824951171
 70
   192
  0
VERTEX
  5
1D8
330
155
100
AcDbEntity
  8
0
100
AcDbVertex
100
AcDbPolyFaceMeshVertex
 10
15.45769977569579
 20
-5.415172576904301
 30
0.1418638229370117
 70
   192
  0
VERTEX
  5
1D9
330
155
100
AcDbEntity
  8
0
100
AcDbVertex
100
AcDbPolyFaceMeshVertex
 10
15.22341728210449
 20
-2.121320724487309
 30
0.0006074905395508
 70
   192
  0
VERTEX
  5
1DA
330
155
100
AcDbEntity
  8
0
100
AcDbVertex
100
AcDbPolyFaceMeshVertex
 10
21.06343066692351
 20
-22.65999984741211
 30
14.70847511291504
 70
   192
  0
VERTEX
  5
1DB
330
155
100
AcDbEntity
  8
0
100
AcDbVertex
100
AcDbPolyFaceMeshVertex
 10
21.03649926185607
 20
-21.58198165893555
 30
13.9987414330244
 70
   192
  0
VERTEX
  5
1DC
330
155
100
AcDbEntity
  8
0
100
AcDbVertex
100
AcDbPolyFaceMeshVertex
 10
21.04547441005706
 20
-20.79999732971192
 30
13.46825924515724
 70
   192
  0
VERTEX
  5
1DD
330
155
100
AcDbEntity
  8
0
100
AcDbVertex
100
AcDbPolyFaceMeshVertex
 10
21.00196790695189
 20
-20.12404823303223
 30
12.74646806716918
 70
   192
  0
VERTEX
  5
1DE
330
155
100
AcDbEntity
  8
0
100
AcDbVertex
100
AcDbPolyFaceMeshVertex
 10
20.59457492828368
 20
-18.51436042785645
 30
10.41805481910705
 70
   192
  0
VERTEX
  5
1DF
330
155
100
AcDbEntity
  8
0
100
AcDbVertex
100
AcDbPolyFaceMeshVertex
 10
19.80056500434874
 20
-15.84120178222656
 30
6.894524574279785
 70
   192
  0
VERTEX
  5
1E0
330
155
100
AcDbEntity
  8
0
100
AcDbVertex
100
AcDbPolyFaceMeshVertex
 10
18.69295907020568
 20
-12.79074478149414
 30
3.601275444030761
 70
   192
  0
VERTEX
  5
1E1
330
155
100
AcDbEntity
  8
0
100
AcDbVertex
100
AcDbPolyFaceMeshVertex
 10
17.51654720306396
 20
-9.386699676513678
 30
1.347611427307128
 70
   192
  0
VERTEX
  5
1E2
330
155
100
AcDbEntity
  8
0
100
AcDbVertex
100
AcDbPolyFaceMeshVertex
 10
16.43695878982543
 20
-5.649728775024418
 30
0.142552375793457
 70
   192
  0
VERTEX
  5
1E3
330
155
100
AcDbEntity
  8
0
100
AcDbVertex
100
AcDbPolyFaceMeshVertex
 10
15.83058071136474
 20
-2.590413093566899
 30
0.0006074905395508
 70
   192
  0
VERTEX
  5
1E4
330
155
100
AcDbEntity
  8
0
100
AcDbVertex
100
AcDbPolyFaceMeshVertex
 10
24.47327005863189
 20
-22.27249145507813
 30
14.70847511291504
 70
   192
  0
VERTEX
  5
1E5
330
155
100
AcDbEntity
  8
0
100
AcDbVertex
100
AcDbPolyFaceMeshVertex
 10
24.25417268276214
 20
-21.21857261657715
 30
13.99869747459888
 70
   192
  0
VERTEX
  5
1E6
330
155
100
AcDbEntity
  8
0
100
AcDbVertex
100
AcDbPolyFaceMeshVertex
 10
24.11853682994841
 20
-20.4434814453125
 30
13.46825924515724
 70
   192
  0
VERTEX
  5
1E7
330
155
100
AcDbEntity
  8
0
100
AcDbVertex
100
AcDbPolyFaceMeshVertex
 10
23.96741271018981
 20
-19.76590919494629
 30
12.74650919437408
 70
   192
  0
VERTEX
  5
1E8
330
155
100
AcDbEntity
  8
0
100
AcDbVertex
100
AcDbPolyFaceMeshVertex
 10
23.35019630193709
 20
-18.10281562805176
 30
10.41822743415832
 70
   192
  0
VERTEX
  5
1E9
330
155
100
AcDbEntity
  8
0
100
AcDbVertex
100
AcDbPolyFaceMeshVertex
 10
22.22051003575324
 20
-15.41868209838868
 30
6.894882678985595
 70
   192
  0
VERTEX
  5
1EA
330
155
100
AcDbEntity
  8
0
100
AcDbVertex
100
AcDbPolyFaceMeshVertex
 10
20.75795245170592
 20
-12.37616539001465
 30
3.601835250854492
 70
   192
  0
VERTEX
  5
1EB
330
155
100
AcDbEntity
  8
0
100
AcDbVertex
100
AcDbPolyFaceMeshVertex
 10
19.17215275764465
 20
-9.071058273315436
 30
1.348353385925292
 70
   192
  0
VERTEX
  5
1EC
330
155
100
AcDbEntity
  8
0
100
AcDbVertex
100
AcDbPolyFaceMeshVertex
 10
17.6044635772705
 20
-5.596531867980962
 30
0.1434183120727539
 70
   192
  0
VERTEX
  5
1ED
330
155
100
AcDbEntity
  8
0
100
AcDbVertex
100
AcDbPolyFaceMeshVertex
 10
16.54721927642822
 20
-2.892837524414067
 30
0.0006074905395508
 70
   192
  0
VERTEX
  5
1EE
330
155
100
AcDbEntity
  8
0
100
AcDbVertex
100
AcDbPolyFaceMeshVertex
 10
27.80779790878295
 20
-21.10532379150391
 30
14.70847511291504
 70
   192
  0
VERTEX
  5
1EF
330
155
100
AcDbEntity
  8
0
100
AcDbVertex
100
AcDbPolyFaceMeshVertex
 10
27.40803384780883
 20
-20.09819602966309
 30
13.9986542314291
 70
   192
  0
VERTEX
  5
1F0
330
155
100
AcDbEntity
  8
0
100
AcDbVertex
100
AcDbPolyFaceMeshVertex
 10
27.12372732162474
 20
-19.36966133117676
 30
13.46825924515724
 70
   192
  0
VERTEX
  5
1F1
330
155
100
AcDbEntity
  8
0
100
AcDbVertex
100
AcDbPolyFaceMeshVertex
 10
26.86704540252685
 20
-18.72235298156739
 30
12.74655163288116
 70
   192
  0
VERTEX
  5
1F2
330
155
100
AcDbEntity
  8
0
100
AcDbVertex
100
AcDbPolyFaceMeshVertex
 10
26.07943701744078
 20
-17.06021690368653
 30
10.4184181690216
 70
   192
  0
VERTEX
  5
1F3
330
155
100
AcDbEntity
  8
0
100
AcDbVertex
100
AcDbPolyFaceMeshVertex
 10
24.66780519485473
 20
-14.44204330444336
 30
6.895284175872802
 70
   192
  0
VERTEX
  5
1F4
330
155
100
AcDbEntity
  8
0
100
AcDbVertex
100
AcDbPolyFaceMeshVertex
 10
22.91017580032348
 20
-11.49358177185059
 30
3.602466583251953
 70
   192
  0
VERTEX
  5
1F5
330
155
100
AcDbEntity
  8
0
100
AcDbVertex
100
AcDbPolyFaceMeshVertex
 10
20.95662033557891
 20
-8.380243301391608
 30
1.349188804626464
 70
   192
  0
VERTEX
  5
1F6
330
155
100
AcDbEntity
  8
0
100
AcDbVertex
100
AcDbPolyFaceMeshVertex
 10
18.90107178688049
 20
-5.265333175659185
 30
0.1443901062011719
 70
   192
  0
VERTEX
  5
1F7
330
155
100
AcDbEntity
  8
0
100
AcDbVertex
100
AcDbPolyFaceMeshVertex
 10
17.34473800659179
 20
-3.000000000000005
 30
0.0006074905395508
 70
   192
  0
VERTEX
  5
1F8
330
155
100
AcDbEntity
  8
0
100
AcDbVertex
100
AcDbPolyFaceMeshVertex
 10
30.96177959442138
 20
-19.16007804870607
 30
14.70847511291504
 70
   192
  0
VERTEX
  5
1F9
330
155
100
AcDbEntity
  8
0
100
AcDbVertex
100
AcDbPolyFaceMeshVertex
 10
30.39285659790038
 20
-18.22802543640138
 30
13.99861106276512
 70
   192
  0
VERTEX
  5
1FA
330
155
100
AcDbEntity
  8
0
100
AcDbVertex
100
AcDbPolyFaceMeshVertex
 10
29.96620225906371
 20
-17.57999801635743
 30
13.46825924515724
 70
   192
  0
VERTEX
  5
1FB
330
155
100
AcDbEntity
  8
0
100
AcDbVertex
100
AcDbPolyFaceMeshVertex
 10
29.6109161376953
 20
-16.99172592163087
 30
12.74659466743469
 70
   192
  0
VERTEX
  5
1FC
330
155
100
AcDbEntity
  8
0
100
AcDbVertex
100
AcDbPolyFaceMeshVertex
 10
28.68222045898436
 20
-15.39545059204102
 30
10.41861486434936
 70
   192
  0
VERTEX
  5
1FD
330
155
100
AcDbEntity
  8
0
100
AcDbVertex
100
AcDbPolyFaceMeshVertex
 10
27.0286521911621
 20
-12.93286323547364
 30
6.895699501037597
 70
   192
  0
VERTEX
  5
1FE
330
155
100
AcDbEntity
  8
0
100
AcDbVertex
100
AcDbPolyFaceMeshVertex
 10
25.01998805999755
 20
-10.17685508728028
 30
3.603120803833007
 70
   192
  0
VERTEX
  5
1FF
330
155
100
AcDbEntity
  8
0
100
AcDbVertex
100
AcDbPolyFaceMeshVertex
 10
22.73465421795845
 20
-7.350204467773444
 30
1.35005760192871
 70
   192
  0
VERTEX
  5
200
330
155
100
AcDbEntity
  8
0
100
AcDbVertex
100
AcDbPolyFaceMeshVertex
 10
20.20748829841613
 20
-4.674084663391119
 30
0.1454000473022461
 70
   192
  0
VERTEX
  5
201
330
155
100
AcDbEntity
  8
0
100
AcDbVertex
100
AcDbPolyFaceMeshVertex
 10
18.14225673675537
 20
-2.892837524414068
 30
0.0006074905395508
 70
   192
  0
VERTEX
  5
202
330
155
100
AcDbEntity
  8
0
100
AcDbVertex
100
AcDbPolyFaceMeshVertex
 10
33.80023288726806
 20
-16.47217178344727
 30
14.70847511291504
 70
   192
  0
VERTEX
  5
203
330
155
100
AcDbEntity
  8
0
100
AcDbVertex
100
AcDbPolyFaceMeshVertex
 10
33.07305812835693
 20
-15.65423965454102
 30
13.99856777489185
 70
   192
  0
VERTEX
  5
204
330
155
100
AcDbEntity
  8
0
100
AcDbVertex
100
AcDbPolyFaceMeshVertex
 10
32.52015018463135
 20
-15.12008857727051
 30
13.46825924515724
 70
   192
  0
VERTEX
  5
205
330
155
100
AcDbEntity
  8
0
100
AcDbVertex
100
AcDbPolyFaceMeshVertex
 10
32.07982063293457
 20
-14.61617088317871
 30
12.74663698673248
 70
   192
  0
VERTEX
  5
206
330
155
100
AcDbEntity
  8
0
100
AcDbVertex
100
AcDbPolyFaceMeshVertex
 10
31.03364467620849
 20
-13.16035461425782
 30
10.41880512237548
 70
   192
  0
VERTEX
  5
207
330
155
100
AcDbEntity
  8
0
100
AcDbVertex
100
AcDbPolyFaceMeshVertex
 10
29.17047452926635
 20
-10.9544734954834
 30
6.896100521087646
 70
   192
  0
VERTEX
  5
208
330
155
100
AcDbEntity
  8
0
100
AcDbVertex
100
AcDbPolyFaceMeshVertex
 10
26.94556140899658
 20
-8.500343322753916
 30
3.603750228881835
 70
   192
  0
VERTEX
  5
209
330
155
100
AcDbEntity
  8
0
100
AcDbVertex
100
AcDbPolyFaceMeshVertex
 10
24.36481738090515
 20
-6.056208610534675
 30
1.350892066955566
 70
   192
  0
VERTEX
  5
20A
330
155
100
AcDbEntity
  8
0
100
AcDbVertex
100
AcDbPolyFaceMeshVertex
 10
21.40270149707794
 20
-3.879205703735358
 30
0.1463708877563477
 70
   192
  0
VERTEX
  5
20B
330
155
100
AcDbEntity
  8
0
100
AcDbVertex
100
AcDbPolyFaceMeshVertex
 10
18.85889554023742
 20
-2.590412139892584
 30
0.0006065368652344
 70
   192
  0
VERTEX
  5
20C
330
155
100
AcDbEntity
  8
0
100
AcDbVertex
100
AcDbPolyFaceMeshVertex
 10
36.18111610412597
 20
-13.1246509552002
 30
14.70847511291504
 70
   192
  0
VERTEX
  5
20D
330
155
100
AcDbEntity
  8
0
100
AcDbVertex
100
AcDbPolyFaceMeshVertex
 10
35.31220054626464
 20
-12.45270729064942
 30
13.99852396547794
 70
   192
  0
VERTEX
  5
20E
330
155
100
AcDbEntity
  8
0
100
AcDbVertex
100
AcDbPolyFaceMeshVertex
 10
34.66510486602783
 20
-12.04734039306641
 30
13.46825924515724
 70
   192
  0
VERTEX
  5
20F
330
155
100
AcDbEntity
  8
0
100
AcDbVertex
100
AcDbPolyFaceMeshVertex
 10
34.16250610351562
 20
-11.64952468872071
 30
12.74667799472808
 70
   192
  0
VERTEX
  5
210
330
155
100
AcDbEntity
  8
0
100
AcDbVertex
100
AcDbPolyFaceMeshVertex
 10
33.02345180511474
 20
-10.418119430542
 30
10.41897821426391
 70
   192
  0
VERTEX
  5
211
330
155
100
AcDbEntity
  8
0
100
AcDbVertex
100
AcDbPolyFaceMeshVertex
 10
30.98451519012451
 20
-8.581134796142588
 30
6.896459102630615
 70
   192
  0
VERTEX
  5
212
330
155
100
AcDbEntity
  8
0
100
AcDbVertex
100
AcDbPolyFaceMeshVertex
 10
28.57887887954712
 20
-6.548836708068856
 30
3.604310035705566
 70
   192
  0
VERTEX
  5
213
330
155
100
AcDbEntity
  8
0
100
AcDbVertex
100
AcDbPolyFaceMeshVertex
 10
25.74865221977233
 20
-4.583510398864754
 30
1.35163402557373
 70
   192
  0
VERTEX
  5
214
330
155
100
AcDbEntity
  8
0
100
AcDbVertex
100
AcDbPolyFaceMeshVertex
 10
22.41538343578576
 20
-2.946769714355475
 30
0.1472387313842773
 70
   192
  0
VERTEX
  5
215
330
155
100
AcDbEntity
  8
0
100
AcDbVertex
100
AcDbPolyFaceMeshVertex
 10
19.46605849266052
 20
-2.121321678161627
 30
0.0006074905395508
 70
   192
  0
VERTEX
  5
216
330
155
100
AcDbEntity
  8
0
100
AcDbVertex
100
AcDbPolyFaceMeshVertex
 10
37.97844886779785
 20
-9.244670867919936
 30
14.70847511291504
 70
   192
  0
VERTEX
  5
217
330
155
100
AcDbEntity
  8
0
100
AcDbVertex
100
AcDbPolyFaceMeshVertex
 10
36.98373794555664
 20
-8.754713058471693
 30
13.99847912788391
 70
   192
  0
VERTEX
  5
218
330
155
100
AcDbEntity
  8
0
100
AcDbVertex
100
AcDbPolyFaceMeshVertex
 10
36.28433513641357
 20
-8.485841751098647
 30
13.46825924515724
 70
   192
  0
VERTEX
  5
219
330
155
100
AcDbEntity
  8
0
100
AcDbVertex
100
AcDbPolyFaceMeshVertex
 10
35.75123691558838
 20
-8.208597183227549
 30
12.74671673774719
 70
   192
  0
VERTEX
  5
21A
330
155
100
AcDbEntity
  8
0
100
AcDbVertex
100
AcDbPolyFaceMeshVertex
 10
34.54438209533691
 20
-7.285382270812998
 30
10.41912078857421
 70
   192
  0
VERTEX
  5
21B
330
155
100
AcDbEntity
  8
0
100
AcDbVertex
100
AcDbPolyFaceMeshVertex
 10
32.36428165435791
 20
-5.927530288696298
 30
6.896745204925537
 70
   192
  0
VERTEX
  5
21C
330
155
100
AcDbEntity
  8
0
100
AcDbVertex
100
AcDbPolyFaceMeshVertex
 10
29.81338882446289
 20
-4.433364868164071
 30
3.604753494262695
 70
   192
  0
VERTEX
  5
21D
330
155
100
AcDbEntity
  8
0
100
AcDbVertex
100
AcDbPolyFaceMeshVertex
 10
26.7884407043457
 20
-3.030577659606941
 30
1.352218627929687
 70
   192
  0
VERTEX
  5
21E
330
155
100
AcDbEntity
  8
0
100
AcDbVertex
100
AcDbPolyFaceMeshVertex
 10
23.17441374063491
 20
-1.946537971496589
 30
0.1479263305664062
 70
   192
  0
VERTEX
  5
21F
330
155
100
AcDbEntity
  8
0
100
AcDbVertex
100
AcDbPolyFaceMeshVertex
 10
19.93515014648437
 20
-1.514158248901372
 30
0.0006074905395508
 70
   192
  0
VERTEX
  5
220
330
155
100
AcDbEntity
  8
0
100
AcDbVertex
100
AcDbPolyFaceMeshVertex
 10
39.09634590148925
 20
-4.736546516418468
 30
14.70847511291504
 70
   192
  0
VERTEX
  5
221
330
155
100
AcDbEntity
  8
0
100
AcDbVertex
100
AcDbPolyFaceMeshVertex
 10
37.99135208129882
 20
-4.474152565002452
 30
13.99843299388885
 70
   192
  0
VERTEX
  5
222
330
155
100
AcDbEntity
  8
0
100
AcDbVertex
100
AcDbPolyFaceMeshVertex
 10
37.29145526885986
 20
-4.34775733947755
 30
13.46825924515724
 70
   192
  0
VERTEX
  5
223
330
155
100
AcDbEntity
  8
0
100
AcDbVertex
100
AcDbPolyFaceMeshVertex
 10
36.76695537567138
 20
-4.21002483367921
 30
12.74675226211547
 70
   192
  0
VERTEX
  5
224
330
155
100
AcDbEntity
  8
0
100
AcDbVertex
100
AcDbPolyFaceMeshVertex
 10
35.51350975036621
 20
-3.708898544311534
 30
10.41922211647033
 70
   192
  0
VERTEX
  5
225
330
155
100
AcDbEntity
  8
0
100
AcDbVertex
100
AcDbPolyFaceMeshVertex
 10
33.22168350219726
 20
-2.979838371276866
 30
6.896930694580078
 70
   192
  0
VERTEX
  5
226
330
155
100
AcDbEntity
  8
0
100
AcDbVertex
100
AcDbPolyFaceMeshVertex
 10
30.55448818206787
 20
-2.181550025939951
 30
3.605031013488769
 70
   192
  0
VERTEX
  5
227
330
155
100
AcDbEntity
  8
0
100
AcDbVertex
100
AcDbPolyFaceMeshVertex
 10
27.39248180389404
 20
-1.453871726989754
 30
1.352584838867187
 70
   192
  0
VERTEX
  5
228
330
155
100
AcDbEntity
  8
0
100
AcDbVertex
100
AcDbPolyFaceMeshVertex
 10
23.61035346984863
 20
-0.9365415573120188
 30
0.1483659744262695
 70
   192
  0
VERTEX
  5
229
330
155
100
AcDbEntity
  8
0
100
AcDbVertex
100
AcDbPolyFaceMeshVertex
 10
20.23757529258728
 20
-0.7975196838378969
 30
0.0006074905395508
 70
   192
  0
VERTEX
  5
22A
330
155
100
AcDbEntity
  8
0
100
AcDbVertex
100
AcDbPolyFaceMeshVertex
 10
39.58258819580078
 20
-0.000000000000012
 30
14.70919692516327
 70
   192
  0
VERTEX
  5
22B
330
155
100
AcDbEntity
  8
0
100
AcDbVertex
100
AcDbPolyFaceMeshVertex
 10
38.37527084350586
 20
-0.0000000000000115
 30
13.99710035324096
 70
   192
  0
VERTEX
  5
22C
330
155
100
AcDbEntity
  8
0
100
AcDbVertex
100
AcDbPolyFaceMeshVertex
 10
37.72951602935791
 20
0.0000019073486213
 30
13.4649937748909
 70
   192
  0
VERTEX
  5
22D
330
155
100
AcDbEntity
  8
0
100
AcDbVertex
100
AcDbPolyFaceMeshVertex
 10
37.25285911560058
 20
-0.0000000000000115
 30
12.74364686012268
 70
   192
  0
VERTEX
  5
22E
330
155
100
AcDbEntity
  8
0
100
AcDbVertex
100
AcDbPolyFaceMeshVertex
 10
35.95167541503906
 20
0.0000019073486217
 30
10.4163954257965
 70
   192
  0
VERTEX
  5
22F
330
155
100
AcDbEntity
  8
0
100
AcDbVertex
100
AcDbPolyFaceMeshVertex
 10
33.54712200164795
 20
-0.0000000000000102
 30
6.894423007965087
 70
   192
  0
VERTEX
  5
230
330
155
100
AcDbEntity
  8
0
100
AcDbVertex
100
AcDbPolyFaceMeshVertex
 10
30.75851726531982
 20
0.0000019073486235
 30
3.602950096130371
 70
   192
  0
VERTEX
  5
231
330
155
100
AcDbEntity
  8
0
100
AcDbVertex
100
AcDbPolyFaceMeshVertex
 10
27.49473476409912
 20
-0.0000000000000084
 30
1.351018905639648
 70
   192
  0
VERTEX
  5
232
330
155
100
AcDbEntity
  8
0
100
AcDbVertex
100
AcDbPolyFaceMeshVertex
 10
23.66093301773071
 20
-0.0000000000000071
 30
0.1472606658935547
 70
   192
  0
VERTEX
  5
233
330
155
100
AcDbEntity
  8
0
100
AcDbVertex
100
AcDbPolyFaceMeshVertex
 10
20.34473824501037
 20
-0.0000000000000062
 30
-0.000401496887207
 70
   192
  0
VERTEX
  5
234
330
155
100
AcDbEntity
  8
0
100
AcDbVertex
100
AcDbPolyFaceMeshVertex
 10
10.91264533996581
 20
-12.10143852233887
 30
10.69984793663024
 70
   192
  0
VERTEX
  5
235
330
155
100
AcDbEntity
  8
0
100
AcDbVertex
100
AcDbPolyFaceMeshVertex
 10
11.12550735473632
 20
-13.58638191223144
 30
10.56984758377075
 70
   192
  0
VERTEX
  5
236
330
155
100
AcDbEntity
  8
0
100
AcDbVertex
100
AcDbPolyFaceMeshVertex
 10
11.60240745544433
 20
-11.98586845397949
 30
7.384627819061279
 70
   192
  0
VERTEX
  5
237
330
155
100
AcDbEntity
  8
0
100
AcDbVertex
100
AcDbPolyFaceMeshVertex
 10
11.36013793945312
 20
-10.71724891662598
 30
7.629182338714599
 70
   192
  0
VERTEX
  5
238
330
155
100
AcDbEntity
  8
0
100
AcDbVertex
100
AcDbPolyFaceMeshVertex
 10
11.95974826812743
 20
-9.612859725952151
 30
4.594945907592773
 70
   192
  0
VERTEX
  5
239
330
155
100
AcDbEntity
  8
0
100
AcDbVertex
100
AcDbPolyFaceMeshVertex
 10
11.69976043701171
 20
-8.687786102294925
 30
5.112552642822265
 70
   192
  0
VERTEX
  5
23A
330
155
100
AcDbEntity
  8
0
100
AcDbVertex
100
AcDbPolyFaceMeshVertex
 10
12.16639995574951
 20
-6.592721939086918
 30
2.462666511535644
 70
   192
  0
VERTEX
  5
23B
330
155
100
AcDbEntity
  8
0
100
AcDbVertex
100
AcDbPolyFaceMeshVertex
 10
11.879487991333
 20
-6.045912742614749
 30
3.224967956542968
 70
   192
  0
VERTEX
  5
23C
330
155
100
AcDbEntity
  8
0
100
AcDbVertex
100
AcDbPolyFaceMeshVertex
 10
12.2941608428955
 20
-3.302410125732425
 30
1.307613372802734
 70
   192
  0
VERTEX
  5
23D
330
155
100
AcDbEntity
  8
0
100
AcDbVertex
100
AcDbPolyFaceMeshVertex
 10
11.99240016937255
 20
-3.122834205627444
 30
2.259117126464843
 70
   192
  0
VERTEX
  5
23E
330
155
100
AcDbEntity
  8
0
100
AcDbVertex
100
AcDbPolyFaceMeshVertex
 10
12.28285121917724
 20
-0.0975580215454137
 30
1.056415557861328
 70
   192
  0
VERTEX
  5
23F
330
155
100
AcDbEntity
  8
0
100
AcDbVertex
100
AcDbPolyFaceMeshVertex
 10
11.9759349822998
 20
-0.0000000000000036
 30
2.039711952209472
 70
   192
  0
VERTEX
  5
240
330
155
100
AcDbEntity
  8
0
100
AcDbVertex
100
AcDbPolyFaceMeshVertex
 10
11.51077938079833
 20
-14.50072860717773
 30
10.52984762191772
 70
   192
  0
VERTEX
  5
241
330
155
100
AcDbEntity
  8
0
100
AcDbVertex
100
AcDbPolyFaceMeshVertex
 10
12.06956005096435
 20
-12.56529235839844
 30
7.173085212707519
 70
   192
  0
VERTEX
  5
242
330
155
100
AcDbEntity
  8
0
100
AcDbVertex
100
AcDbPolyFaceMeshVertex
 10
12.44628238677978
 20
-10.06162452697754
 30
4.119498252868652
 70
   192
  0
VERTEX
  5
243
330
155
100
AcDbEntity
  8
0
100
AcDbVertex
100
AcDbPolyFaceMeshVertex
 10
12.68030452728271
 20
-6.995849609375004
 30
1.871135711669921
 70
   192
  0
VERTEX
  5
244
330
155
100
AcDbEntity
  8
0
100
AcDbVertex
100
AcDbPolyFaceMeshVertex
 10
12.82114124298095
 20
-3.522774696350102
 30
0.6366434097290039
 70
   192
  0
VERTEX
  5
245
330
155
100
AcDbEntity
  8
0
100
AcDbVertex
100
AcDbPolyFaceMeshVertex
 10
12.83835983276367
 20
-0.2784624099731485
 30
0.3944177627563476
 70
   192
  0
VERTEX
  5
246
330
155
100
AcDbEntity
  8
0
100
AcDbVertex
100
AcDbPolyFaceMeshVertex
 10
11.96241855621337
 20
-15.37578582763672
 30
10.45984745025634
 70
   192
  0
VERTEX
  5
247
330
155
100
AcDbEntity
  8
0
100
AcDbVertex
100
AcDbPolyFaceMeshVertex
 10
12.60613059997558
 20
-13.11290550231934
 30
6.973766326904296
 70
   192
  0
VERTEX
  5
248
330
155
100
AcDbEntity
  8
0
100
AcDbVertex
100
AcDbPolyFaceMeshVertex
 10
13.00950717926025
 20
-10.49642562866211
 30
3.7569580078125
 70
   192
  0
VERTEX
  5
249
330
155
100
AcDbEntity
  8
0
100
AcDbVertex
100
AcDbPolyFaceMeshVertex
 10
13.27958106994628
 20
-7.406308174133305
 30
1.512689590454101
 70
   192
  0
VERTEX
  5
24A
330
155
100
AcDbEntity
  8
0
100
AcDbVertex
100
AcDbPolyFaceMeshVertex
 10
13.4407615661621
 20
-3.768316268920902
 30
0.299443244934082
 70
   192
  0
VERTEX
  5
24B
330
155
100
AcDbEntity
  8
0
100
AcDbVertex
100
AcDbPolyFaceMeshVertex
 10
13.48956108093261
 20
-0.492025375366215
 30
0.1084136962890625
 70
   192
  0
VERTEX
  5
24C
330
155
100
AcDbEntity
  8
0
100
AcDbVertex
100
AcDbPolyFaceMeshVertex
 10
10.40052127838134
 20
-16.13978767395019
 30
14.25021207332611
 70
   192
  0
VERTEX
  5
24D
330
155
100
AcDbEntity
  8
0
100
AcDbVertex
100
AcDbPolyFaceMeshVertex
 10
10.76519298553466
 20
-17.59165382385254
 30
14.01021207869052
 70
   192
  0
VERTEX
  5
24E
330
155
100
AcDbEntity
  8
0
100
AcDbVertex
100
AcDbPolyFaceMeshVertex
 10
11.20692539215087
 20
-17.06341934204102
 30
13.44281435012817
 70
   192
  0
VERTEX
  5
24F
330
155
100
AcDbEntity
  8
0
100
AcDbVertex
100
AcDbPolyFaceMeshVertex
 10
10.7465362548828
 20
-15.81327819824219
 30
13.38244396448135
 70
   192
  0
VERTEX
  5
250
330
155
100
AcDbEntity
  8
0
100
AcDbVertex
100
AcDbPolyFaceMeshVertex
 10
10.11822605133056
 20
-12.82212829589844
 30
13.36262103915214
 70
   192
  0
VERTEX
  5
251
330
155
100
AcDbEntity
  8
0
100
AcDbVertex
100
AcDbPolyFaceMeshVertex
 10
10.34051322937011
 20
-14.68791580200195
 30
13.29207336902618
 70
   192
  0
VERTEX
  5
252
330
155
100
AcDbEntity
  8
0
100
AcDbVertex
100
AcDbPolyFaceMeshVertex
 10
10.60137176513671
 20
-14.25632667541504
 30
12.43164753913879
 70
   192
  0
VERTEX
  5
253
330
155
100
AcDbEntity
  8
0
100
AcDbVertex
100
AcDbPolyFaceMeshVertex
 10
10.38303184509276
 20
-12.5818977355957
 30
12.47502994537353
 70
   192
  0
VERTEX
  5
254
330
155
100
AcDbEntity
  8
0
100
AcDbVertex
100
AcDbPolyFaceMeshVertex
 10
10.99868011474608
 20
-15.41190528869629
 30
12.58263194561004
 70
   192
  0
VERTEX
  5
255
330
155
100
AcDbEntity
  8
0
100
AcDbVertex
100
AcDbPolyFaceMeshVertex
 10
11.46235561370849
 20
-16.52472114562988
 30
12.70361578464508
 70
   192
  0
VERTEX
  5
256
330
155
100
AcDbEntity
  8
0
100
AcDbVertex
100
AcDbPolyFaceMeshVertex
 10
9.830402374267572
 20
-16.82690811157226
 30
15.02190029621124
 70
   192
  0
VERTEX
  5
257
330
155
100
AcDbEntity
  8
0
100
AcDbVertex
100
AcDbPolyFaceMeshVertex
 10
10.04229354858398
 20
-16.57152938842773
 30
14.93613600730895
 70
   192
  0
VERTEX
  5
258
330
155
100
AcDbEntity
  8
0
100
AcDbVertex
100
AcDbPolyFaceMeshVertex
 10
9.380586624145504
 20
-13.06067276000977
 30
14.91721010208129
 70
   192
  0
VERTEX
  5
259
330
155
100
AcDbEntity
  8
0
100
AcDbVertex
100
AcDbPolyFaceMeshVertex
 10
9.101440429687496
 20
-13.06235885620117
 30
15.000608086586
 70
   192
  0
VERTEX
  5
25A
330
155
100
AcDbEntity
  8
0
100
AcDbVertex
100
AcDbPolyFaceMeshVertex
 10
8.959609031677242
 20
-8.711067199707034
 30
14.91721010208129
 70
   192
  0
VERTEX
  5
25B
330
155
100
AcDbEntity
  8
0
100
AcDbVertex
100
AcDbPolyFaceMeshVertex
 10
8.680128097534176
 20
-8.711067199707034
 30
15.000608086586
 70
   192
  0
VERTEX
  5
25C
330
155
100
AcDbEntity
  8
0
100
AcDbVertex
100
AcDbPolyFaceMeshVertex
 10
8.73389720916748
 20
-4.359157562255862
 30
14.91721010208129
 70
   192
  0
VERTEX
  5
25D
330
155
100
AcDbEntity
  8
0
100
AcDbVertex
100
AcDbPolyFaceMeshVertex
 10
8.454416275024414
 20
-4.359157562255862
 30
15.000608086586
 70
   192
  0
VERTEX
  5
25E
330
155
100
AcDbEntity
  8
0
100
AcDbVertex
100
AcDbPolyFaceMeshVertex
 10
8.602063179016113
 20
0.0000019073486301
 30
14.92594003677368
 70
   192
  0
VERTEX
  5
25F
330
155
100
AcDbEntity
  8
0
100
AcDbVertex
100
AcDbPolyFaceMeshVertex
 10
8.322580337524414
 20
0.0000019073486301
 30
15.00939321517944
 70
   192
  0
VERTEX
  5
260
330
155
100
AcDbEntity
  8
0
100
AcDbVertex
100
AcDbPolyFaceMeshVertex
 10
10.21823501586913
 20
-16.35948181152344
 30
14.76164376735687
 70
   192
  0
VERTEX
  5
261
330
155
100
AcDbEntity
  8
0
100
AcDbVertex
100
AcDbPolyFaceMeshVertex
 10
9.612987518310543
 20
-13.06235885620117
 30
14.74753248691558
 70
   192
  0
VERTEX
  5
262
330
155
100
AcDbEntity
  8
0
100
AcDbVertex
100
AcDbPolyFaceMeshVertex
 10
9.191674232482906
 20
-8.711067199707034
 30
14.74753248691558
 70
   192
  0
VERTEX
  5
263
330
155
100
AcDbEntity
  8
0
100
AcDbVertex
100
AcDbPolyFaceMeshVertex
 10
8.965961456298828
 20
-4.359157562255862
 30
14.74753248691558
 70
   192
  0
VERTEX
  5
264
330
155
100
AcDbEntity
  8
0
100
AcDbVertex
100
AcDbPolyFaceMeshVertex
 10
8.834126472473144
 20
0.0000019073486301
 30
14.75615143775939
 70
   192
  0
VERTEX
  5
265
330
155
100
AcDbEntity
  8
0
100
AcDbVertex
100
AcDbPolyFaceMeshVertex
 10
10.3377923965454
 20
-16.21539115905762
 30
14.52665662765503
 70
   192
  0
VERTEX
  5
266
330
155
100
AcDbEntity
  8
0
100
AcDbVertex
100
AcDbPolyFaceMeshVertex
 10
9.771015167236324
 20
-13.06404495239258
 30
14.51902902126312
 70
   192
  0
VERTEX
  5
267
330
155
100
AcDbEntity
  8
0
100
AcDbVertex
100
AcDbPolyFaceMeshVertex
 10
9.349368095397945
 20
-8.711067199707034
 30
14.51902902126312
 70
   192
  0
VERTEX
  5
268
330
155
100
AcDbEntity
  8
0
100
AcDbVertex
100
AcDbPolyFaceMeshVertex
 10
9.123655319213867
 20
-4.359157562255862
 30
14.51902902126312
 70
   192
  0
VERTEX
  5
269
330
155
100
AcDbEntity
  8
0
100
AcDbVertex
100
AcDbPolyFaceMeshVertex
 10
8.991820335388183
 20
0.0000019073486301
 30
14.52749919891357
 70
   192
  0
VERTEX
  5
26A
330
155
100
AcDbEntity
  8
0
100
AcDbVertex
100
AcDbPolyFaceMeshVertex
 10
9.853419303894039
 20
-13.06235885620117
 30
14.25021207332611
 70
   192
  0
VERTEX
  5
26B
330
155
100
AcDbEntity
  8
0
100
AcDbVertex
100
AcDbPolyFaceMeshVertex
 10
9.432106971740719
 20
-8.711067199707034
 30
14.25021207332611
 70
   192
  0
VERTEX
  5
26C
330
155
100
AcDbEntity
  8
0
100
AcDbVertex
100
AcDbPolyFaceMeshVertex
 10
9.206395149230957
 20
-4.359157562255862
 30
14.25021207332611
 70
   192
  0
VERTEX
  5
26D
330
155
100
AcDbEntity
  8
0
100
AcDbVertex
100
AcDbPolyFaceMeshVertex
 10
9.069498062133789
 20
0.0000019073486301
 30
14.26673942804336
 70
   192
  0
VERTEX
  5
26E
330
155
100
AcDbEntity
  8
0
100
AcDbVertex
100
AcDbPolyFaceMeshVertex
 10
10.23544311523437
 20
-18.3736801147461
 30
15.02190029621124
 70
   192
  0
VERTEX
  5
26F
330
155
100
AcDbEntity
  8
0
100
AcDbVertex
100
AcDbPolyFaceMeshVertex
 10
11.948335647583
 20
-0.0000000000000036
 30
2.258441925048828
 70
   192
  0
VERTEX
  5
270
330
155
100
AcDbEntity
  8
0
100
AcDbVertex
100
AcDbPolyFaceMeshVertex
 10
11.82472515106201
 20
0.0000019073486293
 30
3.224451065063476
 70
   192
  0
VERTEX
  5
271
330
155
100
AcDbEntity
  8
0
100
AcDbVertex
100
AcDbPolyFaceMeshVertex
 10
11.51021003723144
 20
-0.0000000000000036
 30
5.112344741821289
 70
   192
  0
VERTEX
  5
272
330
155
100
AcDbEntity
  8
0
100
AcDbVertex
100
AcDbPolyFaceMeshVertex
 10
11.00816822052002
 20
0.0000019073486293
 30
7.629385948181152
 70
   192
  0
VERTEX
  5
273
330
155
100
AcDbEntity
  8
0
100
AcDbVertex
100
AcDbPolyFaceMeshVertex
 10
10.30537033081054
 20
0.0000019073486297
 30
10.70055484771728
 70
   192
  0
VERTEX
  5
274
330
155
100
AcDbEntity
  8
0
100
AcDbVertex
100
AcDbPolyFaceMeshVertex
 10
9.788851737976074
 20
-0.0000000000000031
 30
12.47602748870849
 70
   192
  0
VERTEX
  5
275
330
155
100
AcDbEntity
  8
0
100
AcDbVertex
100
AcDbPolyFaceMeshVertex
 10
9.448593139648437
 20
0.0000019073486297
 30
13.36376401782035
 70
   192
  0
VERTEX
  5
276
330
155
100
AcDbEntity
  8
0
100
AcDbVertex
100
AcDbPolyFaceMeshVertex
 10
12.28339672088623
 20
0.0000019073486293
 30
1.055451393127441
 70
   192
  0
VERTEX
  5
277
330
155
100
AcDbEntity
  8
0
100
AcDbVertex
100
AcDbPolyFaceMeshVertex
 10
11.97597789764404
 20
-0.0000000000000036
 30
2.039692878723144
 70
   192
  0
VERTEX
  5
278
330
155
100
AcDbEntity
  8
0
100
AcDbVertex
100
AcDbPolyFaceMeshVertex
 10
12.83980846405029
 20
-0.000000000000004
 30
0.3932971954345703
 70
   192
  0
VERTEX
  5
279
330
155
100
AcDbEntity
  8
0
100
AcDbVertex
100
AcDbPolyFaceMeshVertex
 10
13.4920711517334
 20
-0.000000000000004
 30
0.1072244644165039
 70
   192
  0
VERTEX
  5
27A
330
155
100
AcDbEntity
  8
0
100
AcDbVertex
100
AcDbPolyFaceMeshVertex
 10
14.455979347229
 20
-0.0000000000000044
 30
-0.0006074905395508
 70
   192
  0
VERTEX
  5
27B
330
155
100
AcDbEntity
  8
0
100
AcDbVertex
100
AcDbPolyFaceMeshVertex
 10
10.42197036743163
 20
-18.3159122467041
 30
14.9653251171112
 70
   192
  0
VERTEX
  5
27C
330
155
100
AcDbEntity
  8
0
100
AcDbVertex
100
AcDbPolyFaceMeshVertex
 10
10.57684993743895
 20
-18.26794815063477
 30
14.85022008419036
 70
   192
  0
VERTEX
  5
27D
330
155
100
AcDbEntity
  8
0
100
AcDbVertex
100
AcDbPolyFaceMeshVertex
 10
10.68209648132323
 20
-18.2353572845459
 30
14.69520896673202
 70
   192
  0
VERTEX
  5
27E
330
155
100
AcDbEntity
  8
0
100
AcDbVertex
100
AcDbPolyFaceMeshVertex
 10
10.73731613159179
 20
-18.21825408935547
 30
14.51285010576248
 70
   192
  0
VERTEX
  5
27F
330
155
100
AcDbEntity
  8
0
100
AcDbVertex
100
AcDbPolyFaceMeshVertex
 10
42.58688163757324
 20
5.459316730499256
 30
13.70301171764731
 70
   192
  0
VERTEX
  5
280
330
155
100
AcDbEntity
  8
0
100
AcDbVertex
100
AcDbPolyFaceMeshVertex
 10
42.58688163757324
 20
5.459316730499256
 30
14.40301162004471
 70
   192
  0
VERTEX
  5
281
330
155
100
AcDbEntity
  8
0
100
AcDbVertex
100
AcDbPolyFaceMeshVertex
 10
42.5402774810791
 20
5.452169895172107
 30
14.63655889034271
 70
   192
  0
VERTEX
  5
282
330
155
100
AcDbEntity
  8
0
100
AcDbVertex
100
AcDbPolyFaceMeshVertex
 10
42.41317749023437
 20
5.432678937911975
 30
14.82727599143982
 70
   192
  0
VERTEX
  5
283
330
155
100
AcDbEntity
  8
0
100
AcDbVertex
100
AcDbPolyFaceMeshVertex
 10
42.22466468811035
 20
5.40377092361449
 30
14.95586061477661
 70
   192
  0
VERTEX
  5
284
330
155
100
AcDbEntity
  8
0
100
AcDbVertex
100
AcDbPolyFaceMeshVertex
 10
41.99381637573242
 20
5.368369817733753
 30
15.0030118227005
 70
   192
  0
VERTEX
  5
285
330
155
100
AcDbEntity
  8
0
100
AcDbVertex
100
AcDbPolyFaceMeshVertex
 10
41.36341094970703
 20
10.71192455291747
 30
13.70301171764731
 70
   192
  0
VERTEX
  5
286
330
155
100
AcDbEntity
  8
0
100
AcDbVertex
100
AcDbPolyFaceMeshVertex
 10
41.36341094970703
 20
10.71192455291747
 30
14.40301162004471
 70
   192
  0
VERTEX
  5
287
330
155
100
AcDbEntity
  8
0
100
AcDbVertex
100
AcDbPolyFaceMeshVertex
 10
41.31849670410156
 20
10.69757843017577
 30
14.63655889034271
 70
   192
  0
VERTEX
  5
288
330
155
100
AcDbEntity
  8
0
100
AcDbVertex
100
AcDbPolyFaceMeshVertex
 10
41.19600677490234
 20
10.65845680236815
 30
14.82727599143982
 70
   192
  0
VERTEX
  5
289
330
155
100
AcDbEntity
  8
0
100
AcDbVertex
100
AcDbPolyFaceMeshVertex
 10
41.01433181762695
 20
10.60042929649352
 30
14.95586061477661
 70
   192
  0
VERTEX
  5
28A
330
155
100
AcDbEntity
  8
0
100
AcDbVertex
100
AcDbPolyFaceMeshVertex
 10
40.79185676574707
 20
10.52937173843382
 30
15.0030118227005
 70
   192
  0
VERTEX
  5
28B
330
155
100
AcDbEntity
  8
0
100
AcDbVertex
100
AcDbPolyFaceMeshVertex
 10
39.37659645080566
 20
15.55275297164915
 30
13.70301171764731
 70
   192
  0
VERTEX
  5
28C
330
155
100
AcDbEntity
  8
0
100
AcDbVertex
100
AcDbPolyFaceMeshVertex
 10
39.37659645080566
 20
15.55275297164915
 30
14.40301162004471
 70
   192
  0
VERTEX
  5
28D
330
155
100
AcDbEntity
  8
0
100
AcDbVertex
100
AcDbPolyFaceMeshVertex
 10
39.33468437194824
 20
15.53115177154539
 30
14.63655889034271
 70
   192
  0
VERTEX
  5
28E
330
155
100
AcDbEntity
  8
0
100
AcDbVertex
100
AcDbPolyFaceMeshVertex
 10
39.22038650512695
 20
15.47224426269529
 30
14.82727599143982
 70
   192
  0
VERTEX
  5
28F
330
155
100
AcDbEntity
  8
0
100
AcDbVertex
100
AcDbPolyFaceMeshVertex
 10
39.05085945129394
 20
15.38487195968626
 30
14.95586061477661
 70
   192
  0
VERTEX
  5
290
330
155
100
AcDbEntity
  8
0
100
AcDbVertex
100
AcDbPolyFaceMeshVertex
 10
38.84326171875
 20
15.27787828445433
 30
15.0030118227005
 70
   192
  0
VERTEX
  5
291
330
155
100
AcDbEntity
  8
0
100
AcDbVertex
100
AcDbPolyFaceMeshVertex
 10
36.70279598236084
 20
19.7957773208618
 30
13.70301171764731
 70
   192
  0
VERTEX
  5
292
330
155
100
AcDbEntity
  8
0
100
AcDbVertex
100
AcDbPolyFaceMeshVertex
 10
36.70279598236084
 20
19.7957773208618
 30
14.40301162004471
 70
   192
  0
VERTEX
  5
293
330
155
100
AcDbEntity
  8
0
100
AcDbVertex
100
AcDbPolyFaceMeshVertex
 10
36.66546726226807
 20
19.76697254180906
 30
14.63655889034271
 70
   192
  0
VERTEX
  5
294
330
155
100
AcDbEntity
  8
0
100
AcDbVertex
100
AcDbPolyFaceMeshVertex
 10
36.5636682510376
 20
19.68841552734373
 30
14.82727599143982
 70
   192
  0
VERTEX
  5
295
330
155
100
AcDbEntity
  8
0
100
AcDbVertex
100
AcDbPolyFaceMeshVertex
 10
36.41268062591553
 20
19.57190132141112
 30
14.95586061477661
 70
   192
  0
VERTEX
  5
296
330
155
100
AcDbEntity
  8
0
100
AcDbVertex
100
AcDbPolyFaceMeshVertex
 10
36.22778415679932
 20
19.42922019958494
 30
15.0030118227005
 70
   192
  0
VERTEX
  5
297
330
155
100
AcDbEntity
  8
0
100
AcDbVertex
100
AcDbPolyFaceMeshVertex
 10
33.44475936889649
 20
23.27793884277342
 30
13.70301171764731
 70
   192
  0
VERTEX
  5
298
330
155
100
AcDbEntity
  8
0
100
AcDbVertex
100
AcDbPolyFaceMeshVertex
 10
33.44475936889649
 20
23.27793884277342
 30
14.40301162004471
 70
   192
  0
VERTEX
  5
299
330
155
100
AcDbEntity
  8
0
100
AcDbVertex
100
AcDbPolyFaceMeshVertex
 10
33.41390419006348
 20
23.24228572845457
 30
14.63655889034271
 70
   192
  0
VERTEX
  5
29A
330
155
100
AcDbEntity
  8
0
100
AcDbVertex
100
AcDbPolyFaceMeshVertex
 10
33.32976055145264
 20
23.14505481719969
 30
14.82727599143982
 70
   192
  0
VERTEX
  5
29B
330
155
100
AcDbEntity
  8
0
100
AcDbVertex
100
AcDbPolyFaceMeshVertex
 10
33.20495700836182
 20
23.00084304809569
 30
14.95586061477661
 70
   192
  0
VERTEX
  5
29C
330
155
100
AcDbEntity
  8
0
100
AcDbVertex
100
AcDbPolyFaceMeshVertex
 10
33.05212593078614
 20
22.82424354553221
 30
15.0030118227005
 70
   192
  0
VERTEX
  5
29D
330
155
100
AcDbEntity
  8
0
100
AcDbVertex
100
AcDbPolyFaceMeshVertex
 10
29.72769355773926
 20
25.86541366577147
 30
13.70301171764731
 70
   192
  0
VERTEX
  5
29E
330
155
100
AcDbEntity
  8
0
100
AcDbVertex
100
AcDbPolyFaceMeshVertex
 10
29.72769355773926
 20
25.86541366577147
 30
14.40301162004471
 70
   192
  0
VERTEX
  5
29F
330
155
100
AcDbEntity
  8
0
100
AcDbVertex
100
AcDbPolyFaceMeshVertex
 10
29.70541286468506
 20
25.82385826110838
 30
14.63655889034271
 70
   192
  0
VERTEX
  5
2A0
330
155
100
AcDbEntity
  8
0
100
AcDbVertex
100
AcDbPolyFaceMeshVertex
 10
29.64465093612671
 20
25.71053695678709
 30
14.82727599143982
 70
   192
  0
VERTEX
  5
2A1
330
155
100
AcDbEntity
  8
0
100
AcDbVertex
100
AcDbPolyFaceMeshVertex
 10
29.55452966690064
 20
25.54245758056639
 30
14.95586061477661
 70
   192
  0
VERTEX
  5
2A2
330
155
100
AcDbEntity
  8
0
100
AcDbVertex
100
AcDbPolyFaceMeshVertex
 10
29.44416856765748
 20
25.33662796020506
 30
15.0030118227005
 70
   192
  0
VERTEX
  5
2A3
330
155
100
AcDbEntity
  8
0
100
AcDbVertex
100
AcDbPolyFaceMeshVertex
 10
25.69444155693055
 20
27.45877456665038
 30
13.70301171764731
 70
   192
  0
VERTEX
  5
2A4
330
155
100
AcDbEntity
  8
0
100
AcDbVertex
100
AcDbPolyFaceMeshVertex
 10
25.69444155693055
 20
27.45877456665038
 30
14.40301162004471
 70
   192
  0
VERTEX
  5
2A5
330
155
100
AcDbEntity
  8
0
100
AcDbVertex
100
AcDbPolyFaceMeshVertex
 10
25.68268942832947
 20
27.41311454772948
 30
14.63655889034271
 70
   192
  0
VERTEX
  5
2A6
330
155
100
AcDbEntity
  8
0
100
AcDbVertex
100
AcDbPolyFaceMeshVertex
 10
25.65064001083374
 20
27.28858757019042
 30
14.82727599143982
 70
   192
  0
VERTEX
  5
2A7
330
155
100
AcDbEntity
  8
0
100
AcDbVertex
100
AcDbPolyFaceMeshVertex
 10
25.60310411453247
 20
27.10388946533202
 30
14.95586061477661
 70
   192
  0
VERTEX
  5
2A8
330
155
100
AcDbEntity
  8
0
100
AcDbVertex
100
AcDbPolyFaceMeshVertex
 10
25.54489278793335
 20
26.87771224975585
 30
15.0030118227005
 70
   192
  0
VERTEX
  5
2A9
330
155
100
AcDbEntity
  8
0
100
AcDbVertex
100
AcDbPolyFaceMeshVertex
 10
21.49999976158142
 20
28.00321388244628
 30
13.70301195979118
 70
   192
  0
VERTEX
  5
2AA
330
155
100
AcDbEntity
  8
0
100
AcDbVertex
100
AcDbPolyFaceMeshVertex
 10
21.49999976158142
 20
27.99678802490233
 30
14.40301162004471
 70
   192
  0
VERTEX
  5
2AB
330
155
100
AcDbEntity
  8
0
100
AcDbVertex
100
AcDbPolyFaceMeshVertex
 10
21.49999976158142
 20
27.94963645935057
 30
14.63655889034271
 70
   192
  0
VERTEX
  5
2AC
330
155
100
AcDbEntity
  8
0
100
AcDbVertex
100
AcDbPolyFaceMeshVertex
 10
21.49999976158142
 20
27.82105064392089
 30
14.82727599143982
 70
   192
  0
VERTEX
  5
2AD
330
155
100
AcDbEntity
  8
0
100
AcDbVertex
100
AcDbPolyFaceMeshVertex
 10
21.49999988079071
 20
27.63033294677733
 30
14.95586061477661
 70
   192
  0
VERTEX
  5
2AE
330
155
100
AcDbEntity
  8
0
100
AcDbVertex
100
AcDbPolyFaceMeshVertex
 10
21.49999988079071
 20
27.39678573608397
 30
15.0030118227005
 70
   192
  0
VERTEX
  5
2AF
330
155
100
AcDbEntity
  8
0
100
AcDbVertex
100
AcDbPolyFaceMeshVertex
 10
17.30555772781372
 20
27.45877456665038
 30
13.70301171764731
 70
   192
  0
VERTEX
  5
2B0
330
155
100
AcDbEntity
  8
0
100
AcDbVertex
100
AcDbPolyFaceMeshVertex
 10
17.30555772781372
 20
27.45877456665038
 30
14.40301162004471
 70
   192
  0
VERTEX
  5
2B1
330
155
100
AcDbEntity
  8
0
100
AcDbVertex
100
AcDbPolyFaceMeshVertex
 10
17.3173098564148
 20
27.41311073303222
 30
14.63655889034271
 70
   192
  0
VERTEX
  5
2B2
330
155
100
AcDbEntity
  8
0
100
AcDbVertex
100
AcDbPolyFaceMeshVertex
 10
17.34935998916626
 20
27.28858375549315
 30
14.82727599143982
 70
   192
  0
VERTEX
  5
2B3
330
155
100
AcDbEntity
  8
0
100
AcDbVertex
100
AcDbPolyFaceMeshVertex
 10
17.39689588546753
 20
27.10388565063476
 30
14.95586061477661
 70
   192
  0
VERTEX
  5
2B4
330
155
100
AcDbEntity
  8
0
100
AcDbVertex
100
AcDbPolyFaceMeshVertex
 10
17.45510721206665
 20
26.87770843505858
 30
15.0030118227005
 70
   192
  0
VERTEX
  5
2B5
330
155
100
AcDbEntity
  8
0
100
AcDbVertex
100
AcDbPolyFaceMeshVertex
 10
13.27230548858643
 20
25.86541366577147
 30
13.70301171764731
 70
   192
  0
VERTEX
  5
2B6
330
155
100
AcDbEntity
  8
0
100
AcDbVertex
100
AcDbPolyFaceMeshVertex
 10
13.27230548858643
 20
25.86541366577147
 30
14.40301162004471
 70
   192
  0
VERTEX
  5
2B7
330
155
100
AcDbEntity
  8
0
100
AcDbVertex
100
AcDbPolyFaceMeshVertex
 10
13.29458618164063
 20
25.82385826110839
 30
14.63655889034271
 70
   192
  0
VERTEX
  5
2B8
330
155
100
AcDbEntity
  8
0
100
AcDbVertex
100
AcDbPolyFaceMeshVertex
 10
13.35534763336182
 20
25.7105369567871
 30
14.82727599143982
 70
   192
  0
VERTEX
  5
2B9
330
155
100
AcDbEntity
  8
0
100
AcDbVertex
100
AcDbPolyFaceMeshVertex
 10
13.4454689025879
 20
25.5424575805664
 30
14.95586061477661
 70
   192
  0
VERTEX
  5
2BA
330
155
100
AcDbEntity
  8
0
100
AcDbVertex
100
AcDbPolyFaceMeshVertex
 10
13.55583095550538
 20
25.33662796020507
 30
15.0030118227005
 70
   192
  0
VERTEX
  5
2BB
330
155
100
AcDbEntity
  8
0
100
AcDbVertex
100
AcDbPolyFaceMeshVertex
 10
9.555238723754889
 20
23.27794075012207
 30
13.70301171764731
 70
   192
  0
VERTEX
  5
2BC
330
155
100
AcDbEntity
  8
0
100
AcDbVertex
100
AcDbPolyFaceMeshVertex
 10
9.555238723754889
 20
23.27794075012207
 30
14.40301162004471
 70
   192
  0
VERTEX
  5
2BD
330
155
100
AcDbEntity
  8
0
100
AcDbVertex
100
AcDbPolyFaceMeshVertex
 10
9.586093902587897
 20
23.24228763580322
 30
14.63655889034271
 70
   192
  0
VERTEX
  5
2BE
330
155
100
AcDbEntity
  8
0
100
AcDbVertex
100
AcDbPolyFaceMeshVertex
 10
9.670237541198737
 20
23.14505672454834
 30
14.82727599143982
 70
   192
  0
VERTEX
  5
2BF
330
155
100
AcDbEntity
  8
0
100
AcDbVertex
100
AcDbPolyFaceMeshVertex
 10
9.795041084289557
 20
23.00084304809569
 30
14.95586061477661
 70
   192
  0
VERTEX
  5
2C0
330
155
100
AcDbEntity
  8
0
100
AcDbVertex
100
AcDbPolyFaceMeshVertex
 10
9.947872161865241
 20
22.82424545288085
 30
15.0030118227005
 70
   192
  0
VERTEX
  5
2C1
330
155
100
AcDbEntity
  8
0
100
AcDbVertex
100
AcDbPolyFaceMeshVertex
 10
6.297204971313483
 20
19.79577732086181
 30
13.70301171764731
 70
   192
  0
VERTEX
  5
2C2
330
155
100
AcDbEntity
  8
0
100
AcDbVertex
100
AcDbPolyFaceMeshVertex
 10
6.297204971313483
 20
19.79577732086181
 30
14.40301162004471
 70
   192
  0
VERTEX
  5
2C3
330
155
100
AcDbEntity
  8
0
100
AcDbVertex
100
AcDbPolyFaceMeshVertex
 10
6.334531784057624
 20
19.76697254180908
 30
14.63655889034271
 70
   192
  0
VERTEX
  5
2C4
330
155
100
AcDbEntity
  8
0
100
AcDbVertex
100
AcDbPolyFaceMeshVertex
 10
6.436330795288093
 20
19.68841552734375
 30
14.82727599143982
 70
   192
  0
VERTEX
  5
2C5
330
155
100
AcDbEntity
  8
0
100
AcDbVertex
100
AcDbPolyFaceMeshVertex
 10
6.587320327758796
 20
19.57190132141113
 30
14.95586061477661
 70
   192
  0
VERTEX
  5
2C6
330
155
100
AcDbEntity
  8
0
100
AcDbVertex
100
AcDbPolyFaceMeshVertex
 10
6.772216796875007
 20
19.42922019958496
 30
15.0030118227005
 70
   192
  0
VERTEX
  5
2C7
330
155
100
AcDbEntity
  8
0
100
AcDbVertex
100
AcDbPolyFaceMeshVertex
 10
3.623401641845706
 20
15.55275297164917
 30
13.70301171764731
 70
   192
  0
VERTEX
  5
2C8
330
155
100
AcDbEntity
  8
0
100
AcDbVertex
100
AcDbPolyFaceMeshVertex
 10
3.623401641845706
 20
15.55275297164917
 30
14.40301162004471
 70
   192
  0
VERTEX
  5
2C9
330
155
100
AcDbEntity
  8
0
100
AcDbVertex
100
AcDbPolyFaceMeshVertex
 10
3.665313720703128
 20
15.53115177154541
 30
14.63655889034271
 70
   192
  0
VERTEX
  5
2CA
330
155
100
AcDbEntity
  8
0
100
AcDbVertex
100
AcDbPolyFaceMeshVertex
 10
3.779611587524417
 20
15.47224426269531
 30
14.82727599143982
 70
   192
  0
VERTEX
  5
2CB
330
155
100
AcDbEntity
  8
0
100
AcDbVertex
100
AcDbPolyFaceMeshVertex
 10
3.949138641357425
 20
15.38487195968627
 30
14.95586061477661
 70
   192
  0
VERTEX
  5
2CC
330
155
100
AcDbEntity
  8
0
100
AcDbVertex
100
AcDbPolyFaceMeshVertex
 10
4.15673637390137
 20
15.27787828445434
 30
15.0030118227005
 70
   192
  0
VERTEX
  5
2CD
330
155
100
AcDbEntity
  8
0
100
AcDbVertex
100
AcDbPolyFaceMeshVertex
 10
1.636589050292972
 20
10.71192455291748
 30
13.70301171764731
 70
   192
  0
VERTEX
  5
2CE
330
155
100
AcDbEntity
  8
0
100
AcDbVertex
100
AcDbPolyFaceMeshVertex
 10
1.636589050292972
 20
10.71192455291748
 30
14.40301162004471
 70
   192
  0
VERTEX
  5
2CF
330
155
100
AcDbEntity
  8
0
100
AcDbVertex
100
AcDbPolyFaceMeshVertex
 10
1.681503295898441
 20
10.69757843017578
 30
14.63655889034271
 70
   192
  0
VERTEX
  5
2D0
330
155
100
AcDbEntity
  8
0
100
AcDbVertex
100
AcDbPolyFaceMeshVertex
 10
1.803993225097659
 20
10.65845680236816
 30
14.82727599143982
 70
   192
  0
VERTEX
  5
2D1
330
155
100
AcDbEntity
  8
0
100
AcDbVertex
100
AcDbPolyFaceMeshVertex
 10
1.98566818237305
 20
10.60042929649352
 30
14.95586061477661
 70
   192
  0
VERTEX
  5
2D2
330
155
100
AcDbEntity
  8
0
100
AcDbVertex
100
AcDbPolyFaceMeshVertex
 10
2.208143234252933
 20
10.52937173843383
 30
15.0030118227005
 70
   192
  0
VERTEX
  5
2D3
330
155
100
AcDbEntity
  8
0
100
AcDbVertex
100
AcDbPolyFaceMeshVertex
 10
0.4131183624267579
 20
5.459316730499266
 30
13.70301171764731
 70
   192
  0
VERTEX
  5
2D4
330
155
100
AcDbEntity
  8
0
100
AcDbVertex
100
AcDbPolyFaceMeshVertex
 10
0.4131183624267579
 20
5.459316730499266
 30
14.40301162004471
 70
   192
  0
VERTEX
  5
2D5
330
155
100
AcDbEntity
  8
0
100
AcDbVertex
100
AcDbPolyFaceMeshVertex
 10
0.4597225189208985
 20
5.452169895172118
 30
14.63655889034271
 70
   192
  0
VERTEX
  5
2D6
330
155
100
AcDbEntity
  8
0
100
AcDbVertex
100
AcDbPolyFaceMeshVertex
 10
0.586822509765625
 20
5.432678937911986
 30
14.82727599143982
 70
   192
  0
VERTEX
  5
2D7
330
155
100
AcDbEntity
  8
0
100
AcDbVertex
100
AcDbPolyFaceMeshVertex
 10
0.7753353118896485
 20
5.403770923614501
 30
14.95586061477661
 70
   192
  0
VERTEX
  5
2D8
330
155
100
AcDbEntity
  8
0
100
AcDbVertex
100
AcDbPolyFaceMeshVertex
 10
1.006183624267578
 20
5.368369817733763
 30
15.0030118227005
 70
   192
  0
VERTEX
  5
2D9
330
155
100
AcDbEntity
  8
0
100
AcDbVertex
100
AcDbPolyFaceMeshVertex
 10
10.94217395782471
 20
20.00788784027098
 30
14.69946491718292
 70
   192
  0
VERTEX
  5
2DA
330
155
100
AcDbEntity
  8
0
100
AcDbVertex
100
AcDbPolyFaceMeshVertex
 10
13.96387195587158
 20
21.40600395202636
 30
14.70847505331039
 70
   192
  0
VERTEX
  5
2DB
330
155
100
AcDbEntity
  8
0
100
AcDbVertex
100
AcDbPolyFaceMeshVertex
 10
11.57203674316406
 20
18.79951763153075
 30
13.98846231400966
 70
   192
  0
VERTEX
  5
2DC
330
155
100
AcDbEntity
  8
0
100
AcDbVertex
100
AcDbPolyFaceMeshVertex
 10
14.37917518615723
 20
20.31284236907958
 30
13.99883233010768
 70
   192
  0
VERTEX
  5
2DD
330
155
100
AcDbEntity
  8
0
100
AcDbVertex
100
AcDbPolyFaceMeshVertex
 10
11.89806652069092
 20
18.1537628173828
 30
13.45643374323844
 70
   192
  0
VERTEX
  5
2DE
330
155
100
AcDbEntity
  8
0
100
AcDbVertex
100
AcDbPolyFaceMeshVertex
 10
14.64711046218872
 20
19.64629554748534
 30
13.46825909614563
 70
   192
  0
VERTEX
  5
2DF
330
155
100
AcDbEntity
  8
0
100
AcDbVertex
100
AcDbPolyFaceMeshVertex
 10
12.13788032531738
 20
17.67710590362548
 30
12.73519241809845
 70
   192
  0
VERTEX
  5
2E0
330
155
100
AcDbEntity
  8
0
100
AcDbVertex
100
AcDbPolyFaceMeshVertex
 10
14.81756925582886
 20
19.06772613525389
 30
12.7463937997818
 70
   192
  0
VERTEX
  5
2E1
330
155
100
AcDbEntity
  8
0
100
AcDbVertex
100
AcDbPolyFaceMeshVertex
 10
12.69018936157227
 20
16.37592220306395
 30
10.40828204154968
 70
   192
  0
VERTEX
  5
2E2
330
155
100
AcDbEntity
  8
0
100
AcDbVertex
100
AcDbPolyFaceMeshVertex
 10
15.01989459991455
 20
17.64965438842772
 30
10.41781091690063
 70
   192
  0
VERTEX
  5
2E3
330
155
100
AcDbEntity
  8
0
100
AcDbVertex
100
AcDbPolyFaceMeshVertex
 10
13.35235118865967
 20
13.97136878967284
 30
6.886825561523437
 70
   192
  0
VERTEX
  5
2E4
330
155
100
AcDbEntity
  8
0
100
AcDbVertex
100
AcDbPolyFaceMeshVertex
 10
15.15605640411377
 20
15.1291160583496
 30
6.894052982330322
 70
   192
  0
VERTEX
  5
2E5
330
155
100
AcDbEntity
  8
0
100
AcDbVertex
100
AcDbPolyFaceMeshVertex
 10
13.81593036651611
 20
11.18276405334472
 30
3.595834732055664
 70
   192
  0
VERTEX
  5
2E6
330
155
100
AcDbEntity
  8
0
100
AcDbVertex
100
AcDbPolyFaceMeshVertex
 10
15.04794025421142
 20
12.21807479858398
 30
3.600554466247558
 70
   192
  0
VERTEX
  5
2E7
330
155
100
AcDbEntity
  8
0
100
AcDbVertex
100
AcDbPolyFaceMeshVertex
 10
14.16363143920898
 20
7.918981619179244
 30
1.344233512878417
 70
   192
  0
VERTEX
  5
2E8
330
155
100
AcDbEntity
  8
0
100
AcDbVertex
100
AcDbPolyFaceMeshVertex
 10
14.88059043884277
 20
8.836926579475399
 30
1.346661567687988
 70
   192
  0
VERTEX
  5
2E9
330
155
100
AcDbEntity
  8
0
100
AcDbVertex
100
AcDbPolyFaceMeshVertex
 10
14.38214683532715
 20
4.085179805755611
 30
0.1406517028808594
 70
   192
  0
VERTEX
  5
2EA
330
155
100
AcDbEntity
  8
0
100
AcDbVertex
100
AcDbPolyFaceMeshVertex
 10
14.74518632888794
 20
4.902433156967159
 30
0.1414251327514648
 70
   192
  0
VERTEX
  5
2EB
330
155
100
AcDbEntity
  8
0
100
AcDbVertex
100
AcDbPolyFaceMeshVertex
 10
14.45190143585205
 20
0.7975211143493613
 30
0.0006074905395508
 70
   192
  0
VERTEX
  5
2EC
330
155
100
AcDbEntity
  8
0
100
AcDbVertex
100
AcDbPolyFaceMeshVertex
 10
14.75432634353637
 20
1.514159202575679
 30
0.0006065368652344
 70
   192
  0
VERTEX
  5
2ED
330
155
100
AcDbEntity
  8
0
100
AcDbVertex
100
AcDbPolyFaceMeshVertex
 10
17.46785163879395
 20
22.25056552886962
 30
14.70847505331039
 70
   192
  0
VERTEX
  5
2EE
330
155
100
AcDbEntity
  8
0
100
AcDbVertex
100
AcDbPolyFaceMeshVertex
 10
17.65522289276123
 20
21.16617393493651
 30
13.99878630042076
 70
   192
  0
VERTEX
  5
2EF
330
155
100
AcDbEntity
  8
0
100
AcDbVertex
100
AcDbPolyFaceMeshVertex
 10
17.80501604080201
 20
20.42331218719481
 30
13.46825909614563
 70
   192
  0
VERTEX
  5
2F0
330
155
100
AcDbEntity
  8
0
100
AcDbVertex
100
AcDbPolyFaceMeshVertex
 10
17.87416505813599
 20
19.78532409667968
 30
12.74642956256866
 70
   192
  0
VERTEX
  5
2F1
330
155
100
AcDbEntity
  8
0
100
AcDbVertex
100
AcDbPolyFaceMeshVertex
 10
17.74645233154297
 20
18.27629184722899
 30
10.41791176795959
 70
   192
  0
VERTEX
  5
2F2
330
155
100
AcDbEntity
  8
0
100
AcDbVertex
100
AcDbPolyFaceMeshVertex
 10
17.3833212852478
 20
15.68303775787352
 30
6.894238948822021
 70
   192
  0
VERTEX
  5
2F3
330
155
100
AcDbEntity
  8
0
100
AcDbVertex
100
AcDbPolyFaceMeshVertex
 10
16.73662805557251
 20
12.703547000885
 30
3.600832939147949
 70
   192
  0
VERTEX
  5
2F4
330
155
100
AcDbEntity
  8
0
100
AcDbVertex
100
AcDbPolyFaceMeshVertex
 10
16.04465103149414
 20
9.295997381210323
 30
1.347026824951171
 70
   192
  0
VERTEX
  5
2F5
330
155
100
AcDbEntity
  8
0
100
AcDbVertex
100
AcDbPolyFaceMeshVertex
 10
15.4576997756958
 20
5.415174245834346
 30
0.1418638229370117
 70
   192
  0
VERTEX
  5
2F6
330
155
100
AcDbEntity
  8
0
100
AcDbVertex
100
AcDbPolyFaceMeshVertex
 10
15.22341728210449
 20
2.121322154998774
 30
0.0006074905395508
 70
   192
  0
VERTEX
  5
2F7
330
155
100
AcDbEntity
  8
0
100
AcDbVertex
100
AcDbPolyFaceMeshVertex
 10
21.06343066692353
 20
22.66000175476073
 30
14.70847505331039
 70
   192
  0
VERTEX
  5
2F8
330
155
100
AcDbEntity
  8
0
100
AcDbVertex
100
AcDbPolyFaceMeshVertex
 10
21.03649926185608
 20
21.58198356628417
 30
13.99874123930931
 70
   192
  0
VERTEX
  5
2F9
330
155
100
AcDbEntity
  8
0
100
AcDbVertex
100
AcDbPolyFaceMeshVertex
 10
21.04547441005707
 20
20.79999828338622
 30
13.46825909614563
 70
   192
  0
VERTEX
  5
2FA
330
155
100
AcDbEntity
  8
0
100
AcDbVertex
100
AcDbPolyFaceMeshVertex
 10
21.00196790695191
 20
20.12404918670653
 30
12.74646830558777
 70
   192
  0
VERTEX
  5
2FB
330
155
100
AcDbEntity
  8
0
100
AcDbVertex
100
AcDbPolyFaceMeshVertex
 10
20.59457492828369
 20
18.51436328887938
 30
10.41805481910705
 70
   192
  0
VERTEX
  5
2FC
330
155
100
AcDbEntity
  8
0
100
AcDbVertex
100
AcDbPolyFaceMeshVertex
 10
19.80056500434876
 20
15.84120273590087
 30
6.894524574279785
 70
   192
  0
VERTEX
  5
2FD
330
155
100
AcDbEntity
  8
0
100
AcDbVertex
100
AcDbPolyFaceMeshVertex
 10
18.69295907020569
 20
12.79074716567992
 30
3.601275444030761
 70
   192
  0
VERTEX
  5
2FE
330
155
100
AcDbEntity
  8
0
100
AcDbVertex
100
AcDbPolyFaceMeshVertex
 10
17.51654720306396
 20
9.386701107025142
 30
1.347611427307128
 70
   192
  0
VERTEX
  5
2FF
330
155
100
AcDbEntity
  8
0
100
AcDbVertex
100
AcDbPolyFaceMeshVertex
 10
16.43695878982543
 20
5.649730682373042
 30
0.142552375793457
 70
   192
  0
VERTEX
  5
300
330
155
100
AcDbEntity
  8
0
100
AcDbVertex
100
AcDbPolyFaceMeshVertex
 10
15.83058071136474
 20
2.590414524078364
 30
0.0006074905395508
 70
   192
  0
VERTEX
  5
301
330
155
100
AcDbEntity
  8
0
100
AcDbVertex
100
AcDbPolyFaceMeshVertex
 10
24.4732700586319
 20
22.27249431610106
 30
14.70847505331039
 70
   192
  0
VERTEX
  5
302
330
155
100
AcDbEntity
  8
0
100
AcDbVertex
100
AcDbPolyFaceMeshVertex
 10
24.25417268276215
 20
21.21857357025145
 30
13.99869763851165
 70
   192
  0
VERTEX
  5
303
330
155
100
AcDbEntity
  8
0
100
AcDbVertex
100
AcDbPolyFaceMeshVertex
 10
24.11853682994843
 20
20.44348335266112
 30
13.46825909614563
 70
   192
  0
VERTEX
  5
304
330
155
100
AcDbEntity
  8
0
100
AcDbVertex
100
AcDbPolyFaceMeshVertex
 10
23.96741282939911
 20
19.76591110229491
 30
12.74650907516479
 70
   192
  0
VERTEX
  5
305
330
155
100
AcDbEntity
  8
0
100
AcDbVertex
100
AcDbPolyFaceMeshVertex
 10
23.3501963019371
 20
18.10281658172606
 30
10.41822743415832
 70
   192
  0
VERTEX
  5
306
330
155
100
AcDbEntity
  8
0
100
AcDbVertex
100
AcDbPolyFaceMeshVertex
 10
22.22051003575325
 20
15.41868352890014
 30
6.894882678985595
 70
   192
  0
VERTEX
  5
307
330
155
100
AcDbEntity
  8
0
100
AcDbVertex
100
AcDbPolyFaceMeshVertex
 10
20.75795245170593
 20
12.37616777420043
 30
3.601835250854492
 70
   192
  0
VERTEX
  5
308
330
155
100
AcDbEntity
  8
0
100
AcDbVertex
100
AcDbPolyFaceMeshVertex
 10
19.17215275764465
 20
9.071059584617611
 30
1.348353385925292
 70
   192
  0
VERTEX
  5
309
330
155
100
AcDbEntity
  8
0
100
AcDbVertex
100
AcDbPolyFaceMeshVertex
 10
17.6044635772705
 20
5.596533298492427
 30
0.1434183120727539
 70
   192
  0
VERTEX
  5
30A
330
155
100
AcDbEntity
  8
0
100
AcDbVertex
100
AcDbPolyFaceMeshVertex
 10
16.54721927642822
 20
2.89283895492553
 30
0.0006074905395508
 70
   192
  0
VERTEX
  5
30B
330
155
100
AcDbEntity
  8
0
100
AcDbVertex
100
AcDbPolyFaceMeshVertex
 10
27.80779790878296
 20
21.10532474517821
 30
14.70847505331039
 70
   192
  0
VERTEX
  5
30C
330
155
100
AcDbEntity
  8
0
100
AcDbVertex
100
AcDbPolyFaceMeshVertex
 10
27.40803384780884
 20
20.09819889068602
 30
13.998654037714
 70
   192
  0
VERTEX
  5
30D
330
155
100
AcDbEntity
  8
0
100
AcDbVertex
100
AcDbPolyFaceMeshVertex
 10
27.12372732162476
 20
19.36966323852538
 30
13.46825909614563
 70
   192
  0
VERTEX
  5
30E
330
155
100
AcDbEntity
  8
0
100
AcDbVertex
100
AcDbPolyFaceMeshVertex
 10
26.86704540252686
 20
18.72235393524169
 30
12.74655163288116
 70
   192
  0
VERTEX
  5
30F
330
155
100
AcDbEntity
  8
0
100
AcDbVertex
100
AcDbPolyFaceMeshVertex
 10
26.0794370174408
 20
17.06021881103515
 30
10.4184181690216
 70
   192
  0
VERTEX
  5
310
330
155
100
AcDbEntity
  8
0
100
AcDbVertex
100
AcDbPolyFaceMeshVertex
 10
24.66780519485474
 20
14.44204568862914
 30
6.895284175872802
 70
   192
  0
VERTEX
  5
311
330
155
100
AcDbEntity
  8
0
100
AcDbVertex
100
AcDbPolyFaceMeshVertex
 10
22.91017580032348
 20
11.49358415603636
 30
3.602466583251953
 70
   192
  0
VERTEX
  5
312
330
155
100
AcDbEntity
  8
0
100
AcDbVertex
100
AcDbPolyFaceMeshVertex
 10
20.95662033557891
 20
8.380245119333263
 30
1.349188804626464
 70
   192
  0
VERTEX
  5
313
330
155
100
AcDbEntity
  8
0
100
AcDbVertex
100
AcDbPolyFaceMeshVertex
 10
18.90107178688049
 20
5.265334606170649
 30
0.1443901062011719
 70
   192
  0
VERTEX
  5
314
330
155
100
AcDbEntity
  8
0
100
AcDbVertex
100
AcDbPolyFaceMeshVertex
 10
17.34473800659179
 20
3.000001907348626
 30
0.0006074905395508
 70
   192
  0
VERTEX
  5
315
330
155
100
AcDbEntity
  8
0
100
AcDbVertex
100
AcDbPolyFaceMeshVertex
 10
30.96177959442139
 20
19.16007900238035
 30
14.70847505331039
 70
   192
  0
VERTEX
  5
316
330
155
100
AcDbEntity
  8
0
100
AcDbVertex
100
AcDbPolyFaceMeshVertex
 10
30.39285659790039
 20
18.22802734374998
 30
13.99861092865467
 70
   192
  0
VERTEX
  5
317
330
155
100
AcDbEntity
  8
0
100
AcDbVertex
100
AcDbPolyFaceMeshVertex
 10
29.96620225906372
 20
17.57999992370604
 30
13.46825909614563
 70
   192
  0
VERTEX
  5
318
330
155
100
AcDbEntity
  8
0
100
AcDbVertex
100
AcDbPolyFaceMeshVertex
 10
29.61091613769532
 20
16.99172687530516
 30
12.74659478664398
 70
   192
  0
VERTEX
  5
319
330
155
100
AcDbEntity
  8
0
100
AcDbVertex
100
AcDbPolyFaceMeshVertex
 10
28.68222045898438
 20
15.39545249938964
 30
10.41861486434936
 70
   192
  0
VERTEX
  5
31A
330
155
100
AcDbEntity
  8
0
100
AcDbVertex
100
AcDbPolyFaceMeshVertex
 10
27.02865219116211
 20
12.9328646659851
 30
6.895699501037597
 70
   192
  0
VERTEX
  5
31B
330
155
100
AcDbEntity
  8
0
100
AcDbVertex
100
AcDbPolyFaceMeshVertex
 10
25.01998805999756
 20
10.17685651779174
 30
3.603120803833007
 70
   192
  0
VERTEX
  5
31C
330
155
100
AcDbEntity
  8
0
100
AcDbVertex
100
AcDbPolyFaceMeshVertex
 10
22.73465427756309
 20
7.350206255912772
 30
1.35005760192871
 70
   192
  0
VERTEX
  5
31D
330
155
100
AcDbEntity
  8
0
100
AcDbVertex
100
AcDbPolyFaceMeshVertex
 10
20.20748829841613
 20
4.67408657073974
 30
0.1454000473022461
 70
   192
  0
VERTEX
  5
31E
330
155
100
AcDbEntity
  8
0
100
AcDbVertex
100
AcDbPolyFaceMeshVertex
 10
18.14225673675537
 20
2.89283895492553
 30
0.0006074905395508
 70
   192
  0
VERTEX
  5
31F
330
155
100
AcDbEntity
  8
0
100
AcDbVertex
100
AcDbPolyFaceMeshVertex
 10
33.80023288726806
 20
16.47217369079588
 30
14.70847505331039
 70
   192
  0
VERTEX
  5
320
330
155
100
AcDbEntity
  8
0
100
AcDbVertex
100
AcDbPolyFaceMeshVertex
 10
33.07305812835693
 20
15.65424108505248
 30
13.99856780469417
 70
   192
  0
VERTEX
  5
321
330
155
100
AcDbEntity
  8
0
100
AcDbVertex
100
AcDbPolyFaceMeshVertex
 10
32.52015018463135
 20
15.12008953094481
 30
13.46825909614563
 70
   192
  0
VERTEX
  5
322
330
155
100
AcDbEntity
  8
0
100
AcDbVertex
100
AcDbPolyFaceMeshVertex
 10
32.07982063293457
 20
14.61617279052733
 30
12.74663698673248
 70
   192
  0
VERTEX
  5
323
330
155
100
AcDbEntity
  8
0
100
AcDbVertex
100
AcDbPolyFaceMeshVertex
 10
31.0336446762085
 20
13.16035652160643
 30
10.41880512237548
 70
   192
  0
VERTEX
  5
324
330
155
100
AcDbEntity
  8
0
100
AcDbVertex
100
AcDbPolyFaceMeshVertex
 10
29.17047452926636
 20
10.9544756412506
 30
6.896100521087646
 70
   192
  0
VERTEX
  5
325
330
155
100
AcDbEntity
  8
0
100
AcDbVertex
100
AcDbPolyFaceMeshVertex
 10
26.94556140899658
 20
8.500344395637505
 30
3.603750228881835
 70
   192
  0
VERTEX
  5
326
330
155
100
AcDbEntity
  8
0
100
AcDbVertex
100
AcDbPolyFaceMeshVertex
 10
24.36481738090515
 20
6.056210637092582
 30
1.350892066955566
 70
   192
  0
VERTEX
  5
327
330
155
100
AcDbEntity
  8
0
100
AcDbVertex
100
AcDbPolyFaceMeshVertex
 10
21.40270149707794
 20
3.879208087921135
 30
0.1463708877563477
 70
   192
  0
VERTEX
  5
328
330
155
100
AcDbEntity
  8
0
100
AcDbVertex
100
AcDbPolyFaceMeshVertex
 10
18.85889554023742
 20
2.590413570404046
 30
0.0006065368652344
 70
   192
  0
VERTEX
  5
329
330
155
100
AcDbEntity
  8
0
100
AcDbVertex
100
AcDbPolyFaceMeshVertex
 10
36.18111610412597
 20
13.12465333938597
 30
14.70847505331039
 70
   192
  0
VERTEX
  5
32A
330
155
100
AcDbEntity
  8
0
100
AcDbVertex
100
AcDbPolyFaceMeshVertex
 10
35.31220054626464
 20
12.45270967483519
 30
13.99852372705936
 70
   192
  0
VERTEX
  5
32B
330
155
100
AcDbEntity
  8
0
100
AcDbVertex
100
AcDbPolyFaceMeshVertex
 10
34.66510486602783
 20
12.04734277725218
 30
13.46825909614563
 70
   192
  0
VERTEX
  5
32C
330
155
100
AcDbEntity
  8
0
100
AcDbVertex
100
AcDbPolyFaceMeshVertex
 10
34.16250610351562
 20
11.64952611923216
 30
12.74667811393737
 70
   192
  0
VERTEX
  5
32D
330
155
100
AcDbEntity
  8
0
100
AcDbVertex
100
AcDbPolyFaceMeshVertex
 10
33.02345180511474
 20
10.41812086105345
 30
10.41897821426391
 70
   192
  0
VERTEX
  5
32E
330
155
100
AcDbEntity
  8
0
100
AcDbVertex
100
AcDbPolyFaceMeshVertex
 10
30.98451519012451
 20
8.581135988235466
 30
6.896459102630615
 70
   192
  0
VERTEX
  5
32F
330
155
100
AcDbEntity
  8
0
100
AcDbVertex
100
AcDbPolyFaceMeshVertex
 10
28.57887887954712
 20
6.548838496208182
 30
3.604310035705566
 70
   192
  0
VERTEX
  5
330
330
155
100
AcDbEntity
  8
0
100
AcDbVertex
100
AcDbPolyFaceMeshVertex
 10
25.74865245819092
 20
4.583511829376213
 30
1.35163402557373
 70
   192
  0
VERTEX
  5
331
330
155
100
AcDbEntity
  8
0
100
AcDbVertex
100
AcDbPolyFaceMeshVertex
 10
22.41538343578576
 20
2.946771621704095
 30
0.1472387313842773
 70
   192
  0
VERTEX
  5
332
330
155
100
AcDbEntity
  8
0
100
AcDbVertex
100
AcDbPolyFaceMeshVertex
 10
19.46605849266052
 20
2.121323108673089
 30
0.0006074905395508
 70
   192
  0
VERTEX
  5
333
330
155
100
AcDbEntity
  8
0
100
AcDbVertex
100
AcDbPolyFaceMeshVertex
 10
37.97844886779785
 20
9.244673013687123
 30
14.70847505331039
 70
   192
  0
VERTEX
  5
334
330
155
100
AcDbEntity
  8
0
100
AcDbVertex
100
AcDbPolyFaceMeshVertex
 10
36.98373794555664
 20
8.754714548587788
 30
13.99847914278507
 70
   192
  0
VERTEX
  5
335
330
155
100
AcDbEntity
  8
0
100
AcDbVertex
100
AcDbPolyFaceMeshVertex
 10
36.28433513641357
 20
8.485843330621708
 30
13.46825909614563
 70
   192
  0
VERTEX
  5
336
330
155
100
AcDbEntity
  8
0
100
AcDbVertex
100
AcDbPolyFaceMeshVertex
 10
35.75123691558838
 20
8.208599597215641
 30
12.74671685695648
 70
   192
  0
VERTEX
  5
337
330
155
100
AcDbEntity
  8
0
100
AcDbVertex
100
AcDbPolyFaceMeshVertex
 10
34.54438209533691
 20
7.285383641719806
 30
10.41912078857421
 70
   192
  0
VERTEX
  5
338
330
155
100
AcDbEntity
  8
0
100
AcDbVertex
100
AcDbPolyFaceMeshVertex
 10
32.36428165435791
 20
5.927532434463492
 30
6.896745204925537
 70
   192
  0
VERTEX
  5
339
330
155
100
AcDbEntity
  8
0
100
AcDbVertex
100
AcDbPolyFaceMeshVertex
 10
29.81338882446289
 20
4.433366775512686
 30
3.604753494262695
 70
   192
  0
VERTEX
  5
33A
330
155
100
AcDbEntity
  8
0
100
AcDbVertex
100
AcDbPolyFaceMeshVertex
 10
26.7884407043457
 20
3.030579566955558
 30
1.352218627929687
 70
   192
  0
VERTEX
  5
33B
330
155
100
AcDbEntity
  8
0
100
AcDbVertex
100
AcDbPolyFaceMeshVertex
 10
23.17441380023956
 20
1.946539878845206
 30
0.1479263305664062
 70
   192
  0
VERTEX
  5
33C
330
155
100
AcDbEntity
  8
0
100
AcDbVertex
100
AcDbPolyFaceMeshVertex
 10
19.93515014648437
 20
1.514160156249993
 30
0.0006074905395508
 70
   192
  0
VERTEX
  5
33D
330
155
100
AcDbEntity
  8
0
100
AcDbVertex
100
AcDbPolyFaceMeshVertex
 10
39.09634590148925
 20
4.73654794692992
 30
14.70847505331039
 70
   192
  0
VERTEX
  5
33E
330
155
100
AcDbEntity
  8
0
100
AcDbVertex
100
AcDbPolyFaceMeshVertex
 10
37.99135303497314
 20
4.474153995513905
 30
13.9984331279993
 70
   192
  0
VERTEX
  5
33F
330
155
100
AcDbEntity
  8
0
100
AcDbVertex
100
AcDbPolyFaceMeshVertex
 10
37.29145526885986
 20
4.347758769989003
 30
13.46825909614563
 70
   192
  0
VERTEX
  5
340
330
155
100
AcDbEntity
  8
0
100
AcDbVertex
100
AcDbPolyFaceMeshVertex
 10
36.76695537567138
 20
4.210026741027821
 30
12.74675226211547
 70
   192
  0
VERTEX
  5
341
330
155
100
AcDbEntity
  8
0
100
AcDbVertex
100
AcDbPolyFaceMeshVertex
 10
35.51350975036621
 20
3.708900451660145
 30
10.41922211647033
 70
   192
  0
VERTEX
  5
342
330
155
100
AcDbEntity
  8
0
100
AcDbVertex
100
AcDbPolyFaceMeshVertex
 10
33.22168350219726
 20
2.979840278625478
 30
6.896930694580078
 70
   192
  0
VERTEX
  5
343
330
155
100
AcDbEntity
  8
0
100
AcDbVertex
100
AcDbPolyFaceMeshVertex
 10
30.55448818206787
 20
2.181551933288564
 30
3.605031013488769
 70
   192
  0
VERTEX
  5
344
330
155
100
AcDbEntity
  8
0
100
AcDbVertex
100
AcDbPolyFaceMeshVertex
 10
27.39248180389404
 20
1.453873157501212
 30
1.352584838867187
 70
   192
  0
VERTEX
  5
345
330
155
100
AcDbEntity
  8
0
100
AcDbVertex
100
AcDbPolyFaceMeshVertex
 10
23.61035346984863
 20
0.936543464660637
 30
0.1483659744262695
 70
   192
  0
VERTEX
  5
346
330
155
100
AcDbEntity
  8
0
100
AcDbVertex
100
AcDbPolyFaceMeshVertex
 10
20.23757529258728
 20
0.7975211143493595
 30
0.0006074905395508
 70
   192
  0
VERTEX
  5
347
330
155
100
AcDbEntity
  8
0
100
AcDbVertex
100
AcDbPolyFaceMeshVertex
 10
10.91264533996582
 20
12.10144042968749
 30
10.69984793663024
 70
   192
  0
VERTEX
  5
348
330
155
100
AcDbEntity
  8
0
100
AcDbVertex
100
AcDbPolyFaceMeshVertex
 10
11.36013793945312
 20
10.71724987030028
 30
7.629182338714599
 70
   192
  0
VERTEX
  5
349
330
155
100
AcDbEntity
  8
0
100
AcDbVertex
100
AcDbPolyFaceMeshVertex
 10
11.60240745544433
 20
11.98587012290954
 30
7.384627819061279
 70
   192
  0
VERTEX
  5
34A
330
155
100
AcDbEntity
  8
0
100
AcDbVertex
100
AcDbPolyFaceMeshVertex
 10
11.12550735473633
 20
13.58638286590575
 30
10.56984758377075
 70
   192
  0
VERTEX
  5
34B
330
155
100
AcDbEntity
  8
0
100
AcDbVertex
100
AcDbPolyFaceMeshVertex
 10
11.69976043701172
 20
8.687788367271419
 30
5.112552642822265
 70
   192
  0
VERTEX
  5
34C
330
155
100
AcDbEntity
  8
0
100
AcDbVertex
100
AcDbPolyFaceMeshVertex
 10
11.95974826812744
 20
9.612861752510067
 30
4.594945907592773
 70
   192
  0
VERTEX
  5
34D
330
155
100
AcDbEntity
  8
0
100
AcDbVertex
100
AcDbPolyFaceMeshVertex
 10
11.87948799133301
 20
6.045914769172664
 30
3.224967956542968
 70
   192
  0
VERTEX
  5
34E
330
155
100
AcDbEntity
  8
0
100
AcDbVertex
100
AcDbPolyFaceMeshVertex
 10
12.16639995574951
 20
6.592723369598384
 30
2.462666511535644
 70
   192
  0
VERTEX
  5
34F
330
155
100
AcDbEntity
  8
0
100
AcDbVertex
100
AcDbPolyFaceMeshVertex
 10
11.99240016937255
 20
3.122835636138911
 30
2.259117126464843
 70
   192
  0
VERTEX
  5
350
330
155
100
AcDbEntity
  8
0
100
AcDbVertex
100
AcDbPolyFaceMeshVertex
 10
12.2941608428955
 20
3.302411556243892
 30
1.307613372802734
 70
   192
  0
VERTEX
  5
351
330
155
100
AcDbEntity
  8
0
100
AcDbVertex
100
AcDbPolyFaceMeshVertex
 10
12.28285121917724
 20
0.0975599288940394
 30
1.056415557861328
 70
   192
  0
VERTEX
  5
352
330
155
100
AcDbEntity
  8
0
100
AcDbVertex
100
AcDbPolyFaceMeshVertex
 10
12.06956005096436
 20
12.56529378890991
 30
7.173085212707519
 70
   192
  0
VERTEX
  5
353
330
155
100
AcDbEntity
  8
0
100
AcDbVertex
100
AcDbPolyFaceMeshVertex
 10
11.51077938079834
 20
14.5007300376892
 30
10.52984762191772
 70
   192
  0
VERTEX
  5
354
330
155
100
AcDbEntity
  8
0
100
AcDbVertex
100
AcDbPolyFaceMeshVertex
 10
12.44628238677979
 20
10.06162691116332
 30
4.119498252868652
 70
   192
  0
VERTEX
  5
355
330
155
100
AcDbEntity
  8
0
100
AcDbVertex
100
AcDbPolyFaceMeshVertex
 10
12.68030452728271
 20
6.99585092067718
 30
1.871135711669921
 70
   192
  0
VERTEX
  5
356
330
155
100
AcDbEntity
  8
0
100
AcDbVertex
100
AcDbPolyFaceMeshVertex
 10
12.82114124298095
 20
3.522776126861568
 30
0.6366434097290039
 70
   192
  0
VERTEX
  5
357
330
155
100
AcDbEntity
  8
0
100
AcDbVertex
100
AcDbPolyFaceMeshVertex
 10
12.83835983276367
 20
0.2784643173217733
 30
0.3944177627563476
 70
   192
  0
VERTEX
  5
358
330
155
100
AcDbEntity
  8
0
100
AcDbVertex
100
AcDbPolyFaceMeshVertex
 10
12.60613059997559
 20
13.11290788650512
 30
6.973766326904296
 70
   192
  0
VERTEX
  5
359
330
155
100
AcDbEntity
  8
0
100
AcDbVertex
100
AcDbPolyFaceMeshVertex
 10
11.96241855621338
 20
15.37578725814818
 30
10.45984745025634
 70
   192
  0
VERTEX
  5
35A
330
155
100
AcDbEntity
  8
0
100
AcDbVertex
100
AcDbPolyFaceMeshVertex
 10
13.00950717926025
 20
10.49642801284789
 30
3.7569580078125
 70
   192
  0
VERTEX
  5
35B
330
155
100
AcDbEntity
  8
0
100
AcDbVertex
100
AcDbPolyFaceMeshVertex
 10
13.27958106994629
 20
7.406309425830836
 30
1.512689590454101
 70
   192
  0
VERTEX
  5
35C
330
155
100
AcDbEntity
  8
0
100
AcDbVertex
100
AcDbPolyFaceMeshVertex
 10
13.4407615661621
 20
3.768318176269527
 30
0.299443244934082
 70
   192
  0
VERTEX
  5
35D
330
155
100
AcDbEntity
  8
0
100
AcDbVertex
100
AcDbPolyFaceMeshVertex
 10
13.48956108093261
 20
0.4920268058776816
 30
0.1084136962890625
 70
   192
  0
VERTEX
  5
35E
330
155
100
AcDbEntity
  8
0
100
AcDbVertex
100
AcDbPolyFaceMeshVertex
 10
10.40052127838135
 20
16.1397886276245
 30
14.25021183490753
 70
   192
  0
VERTEX
  5
35F
330
155
100
AcDbEntity
  8
0
100
AcDbVertex
100
AcDbPolyFaceMeshVertex
 10
10.74653625488281
 20
15.81327962875365
 30
13.38244408369064
 70
   192
  0
VERTEX
  5
360
330
155
100
AcDbEntity
  8
0
100
AcDbVertex
100
AcDbPolyFaceMeshVertex
 10
11.20692539215088
 20
17.06342029571532
 30
13.44281440973281
 70
   192
  0
VERTEX
  5
361
330
155
100
AcDbEntity
  8
0
100
AcDbVertex
100
AcDbPolyFaceMeshVertex
 10
10.76519298553467
 20
17.59165573120116
 30
14.01021195948124
 70
   192
  0
VERTEX
  5
362
330
155
100
AcDbEntity
  8
0
100
AcDbVertex
100
AcDbPolyFaceMeshVertex
 10
10.11822605133056
 20
12.82212924957275
 30
13.36262115836143
 70
   192
  0
VERTEX
  5
363
330
155
100
AcDbEntity
  8
0
100
AcDbVertex
100
AcDbPolyFaceMeshVertex
 10
10.38303184509277
 20
12.58189964294433
 30
12.47502994537353
 70
   192
  0
VERTEX
  5
364
330
155
100
AcDbEntity
  8
0
100
AcDbVertex
100
AcDbPolyFaceMeshVertex
 10
10.60137176513672
 20
14.25632810592651
 30
12.4316474199295
 70
   192
  0
VERTEX
  5
365
330
155
100
AcDbEntity
  8
0
100
AcDbVertex
100
AcDbPolyFaceMeshVertex
 10
10.34051322937012
 20
14.68791818618773
 30
13.29207363724708
 70
   192
  0
VERTEX
  5
366
330
155
100
AcDbEntity
  8
0
100
AcDbVertex
100
AcDbPolyFaceMeshVertex
 10
10.99868011474609
 20
15.41190719604491
 30
12.58263194561004
 70
   192
  0
VERTEX
  5
367
330
155
100
AcDbEntity
  8
0
100
AcDbVertex
100
AcDbPolyFaceMeshVertex
 10
11.4623556137085
 20
16.5247230529785
 30
12.70361578464508
 70
   192
  0
VERTEX
  5
368
330
155
100
AcDbEntity
  8
0
100
AcDbVertex
100
AcDbPolyFaceMeshVertex
 10
9.830402374267583
 20
16.82691001892089
 30
15.02190017700195
 70
   192
  0
VERTEX
  5
369
330
155
100
AcDbEntity
  8
0
100
AcDbVertex
100
AcDbPolyFaceMeshVertex
 10
9.101440429687503
 20
13.06236028671264
 30
15.00060784816741
 70
   192
  0
VERTEX
  5
36A
330
155
100
AcDbEntity
  8
0
100
AcDbVertex
100
AcDbPolyFaceMeshVertex
 10
9.380586624145511
 20
13.06067466735839
 30
14.91720986366272
 70
   192
  0
VERTEX
  5
36B
330
155
100
AcDbEntity
  8
0
100
AcDbVertex
100
AcDbPolyFaceMeshVertex
 10
10.04229354858398
 20
16.57153224945067
 30
14.93613600730895
 70
   192
  0
VERTEX
  5
36C
330
155
100
AcDbEntity
  8
0
100
AcDbVertex
100
AcDbPolyFaceMeshVertex
 10
8.680128097534183
 20
8.711067974567409
 30
15.00060784816741
 70
   192
  0
VERTEX
  5
36D
330
155
100
AcDbEntity
  8
0
100
AcDbVertex
100
AcDbPolyFaceMeshVertex
 10
8.959609031677249
 20
8.711067974567409
 30
14.91720986366272
 70
   192
  0
VERTEX
  5
36E
330
155
100
AcDbEntity
  8
0
100
AcDbVertex
100
AcDbPolyFaceMeshVertex
 10
8.454416275024414
 20
4.359159231185911
 30
15.00060784816741
 70
   192
  0
VERTEX
  5
36F
330
155
100
AcDbEntity
  8
0
100
AcDbVertex
100
AcDbPolyFaceMeshVertex
 10
8.73389720916748
 20
4.359159231185911
 30
14.91720986366272
 70
   192
  0
VERTEX
  5
370
330
155
100
AcDbEntity
  8
0
100
AcDbVertex
100
AcDbPolyFaceMeshVertex
 10
9.61298751831055
 20
13.06236028671264
 30
14.74753224849701
 70
   192
  0
VERTEX
  5
371
330
155
100
AcDbEntity
  8
0
100
AcDbVertex
100
AcDbPolyFaceMeshVertex
 10
10.21823501586914
 20
16.35948276519774
 30
14.76164382696151
 70
   192
  0
VERTEX
  5
372
330
155
100
AcDbEntity
  8
0
100
AcDbVertex
100
AcDbPolyFaceMeshVertex
 10
9.191674232482913
 20
8.711067974567409
 30
14.74753224849701
 70
   192
  0
VERTEX
  5
373
330
155
100
AcDbEntity
  8
0
100
AcDbVertex
100
AcDbPolyFaceMeshVertex
 10
8.965961456298828
 20
4.359159231185911
 30
14.74753224849701
 70
   192
  0
VERTEX
  5
374
330
155
100
AcDbEntity
  8
0
100
AcDbVertex
100
AcDbPolyFaceMeshVertex
 10
9.771015167236331
 20
13.06404638290405
 30
14.51902878284454
 70
   192
  0
VERTEX
  5
375
330
155
100
AcDbEntity
  8
0
100
AcDbVertex
100
AcDbPolyFaceMeshVertex
 10
10.33779239654541
 20
16.21539306640624
 30
14.52665668725967
 70
   192
  0
VERTEX
  5
376
330
155
100
AcDbEntity
  8
0
100
AcDbVertex
100
AcDbPolyFaceMeshVertex
 10
9.349368095397952
 20
8.711067974567409
 30
14.51902878284454
 70
   192
  0
VERTEX
  5
377
330
155
100
AcDbEntity
  8
0
100
AcDbVertex
100
AcDbPolyFaceMeshVertex
 10
9.123655319213867
 20
4.359159231185911
 30
14.51902878284454
 70
   192
  0
VERTEX
  5
378
330
155
100
AcDbEntity
  8
0
100
AcDbVertex
100
AcDbPolyFaceMeshVertex
 10
9.853419303894046
 20
13.06236028671264
 30
14.25021183490753
 70
   192
  0
VERTEX
  5
379
330
155
100
AcDbEntity
  8
0
100
AcDbVertex
100
AcDbPolyFaceMeshVertex
 10
9.432106971740726
 20
8.711067974567409
 30
14.25021183490753
 70
   192
  0
VERTEX
  5
37A
330
155
100
AcDbEntity
  8
0
100
AcDbVertex
100
AcDbPolyFaceMeshVertex
 10
9.206395149230957
 20
4.359159231185911
 30
14.25021183490753
 70
   192
  0
VERTEX
  5
37B
330
155
100
AcDbEntity
  8
0
100
AcDbVertex
100
AcDbPolyFaceMeshVertex
 10
10.23544311523438
 20
18.37368202209471
 30
15.02190017700195
 70
   192
  0
VERTEX
  5
37C
330
155
100
AcDbEntity
  8
0
100
AcDbVertex
100
AcDbPolyFaceMeshVertex
 10
10.42197036743164
 20
18.31591415405272
 30
14.9653251171112
 70
   192
  0
VERTEX
  5
37D
330
155
100
AcDbEntity
  8
0
100
AcDbVertex
100
AcDbPolyFaceMeshVertex
 10
10.57684993743897
 20
18.26795005798339
 30
14.85021984577179
 70
   192
  0
VERTEX
  5
37E
330
155
100
AcDbEntity
  8
0
100
AcDbVertex
100
AcDbPolyFaceMeshVertex
 10
10.68209648132324
 20
18.2353582382202
 30
14.69520890712738
 70
   192
  0
VERTEX
  5
37F
330
155
100
AcDbEntity
  8
0
100
AcDbVertex
100
AcDbPolyFaceMeshVertex
 10
10.7373161315918
 20
18.21825504302977
 30
14.5128498673439
 70
   192
  0
VERTEX
  5
380
330
155
100
AcDbEntity
  8
0
100
AcDbFaceRecord
 10
0.0
 20
0.0
 30
0.0
 70
   128
 71
     1
 72
     2
 73
     3
  0
VERTEX
  5
381
330
155
100
AcDbEntity
  8
0
100
AcDbFaceRecord
 10
0.0
 20
0.0
 30
0.0
 70
   128
 71
     3
 72
     4
 73
    -1
  0
VERTEX
  5
382
330
155
100
AcDbEntity
  8
0
100
AcDbFaceRecord
 10
0.0
 20
0.0
 30
0.0
 70
   128
 71
     2
 72
     5
 73
     6
  0
VERTEX
  5
383
330
155
100
AcDbEntity
  8
0
100
AcDbFaceRecord
 10
0.0
 20
0.0
 30
0.0
 70
   128
 71
     6
 72
     3
 73
    -2
  0
VERTEX
  5
384
330
155
100
AcDbEntity
  8
0
100
AcDbFaceRecord
 10
0.0
 20
0.0
 30
0.0
 70
   128
 71
     5
 72
     7
 73
     8
  0
VERTEX
  5
385
330
155
100
AcDbEntity
  8
0
100
AcDbFaceRecord
 10
0.0
 20
0.0
 30
0.0
 70
   128
 71
     8
 72
     6
 73
    -5
  0
VERTEX
  5
386
330
155
100
AcDbEntity
  8
0
100
AcDbFaceRecord
 10
0.0
 20
0.0
 30
0.0
 70
   128
 71
     7
 72
     9
 73
    10
  0
VERTEX
  5
387
330
155
100
AcDbEntity
  8
0
100
AcDbFaceRecord
 10
0.0
 20
0.0
 30
0.0
 70
   128
 71
    10
 72
     8
 73
    -7
  0
VERTEX
  5
388
330
155
100
AcDbEntity
  8
0
100
AcDbFaceRecord
 10
0.0
 20
0.0
 30
0.0
 70
   128
 71
     9
 72
    11
 73
    12
  0
VERTEX
  5
389
330
155
100
AcDbEntity
  8
0
100
AcDbFaceRecord
 10
0.0
 20
0.0
 30
0.0
 70
   128
 71
    12
 72
    10
 73
    -9
  0
VERTEX
  5
38A
330
155
100
AcDbEntity
  8
0
100
AcDbFaceRecord
 10
0.0
 20
0.0
 30
0.0
 70
   128
 71
     4
 72
     3
 73
    13
  0
VERTEX
  5
38B
330
155
100
AcDbEntity
  8
0
100
AcDbFaceRecord
 10
0.0
 20
0.0
 30
0.0
 70
   128
 71
    13
 72
    14
 73
    -4
  0
VERTEX
  5
38C
330
155
100
AcDbEntity
  8
0
100
AcDbFaceRecord
 10
0.0
 20
0.0
 30
0.0
 70
   128
 71
     3
 72
     6
 73
    15
  0
VERTEX
  5
38D
330
155
100
AcDbEntity
  8
0
100
AcDbFaceRecord
 10
0.0
 20
0.0
 30
0.0
 70
   128
 71
    15
 72
    13
 73
    -3
  0
VERTEX
  5
38E
330
155
100
AcDbEntity
  8
0
100
AcDbFaceRecord
 10
0.0
 20
0.0
 30
0.0
 70
   128
 71
     6
 72
     8
 73
    16
  0
VERTEX
  5
38F
330
155
100
AcDbEntity
  8
0
100
AcDbFaceRecord
 10
0.0
 20
0.0
 30
0.0
 70
   128
 71
    16
 72
    15
 73
    -6
  0
VERTEX
  5
390
330
155
100
AcDbEntity
  8
0
100
AcDbFaceRecord
 10
0.0
 20
0.0
 30
0.0
 70
   128
 71
     8
 72
    10
 73
    17
  0
VERTEX
  5
391
330
155
100
AcDbEntity
  8
0
100
AcDbFaceRecord
 10
0.0
 20
0.0
 30
0.0
 70
   128
 71
    17
 72
    16
 73
    -8
  0
VERTEX
  5
392
330
155
100
AcDbEntity
  8
0
100
AcDbFaceRecord
 10
0.0
 20
0.0
 30
0.0
 70
   128
 71
    10
 72
    12
 73
    18
  0
VERTEX
  5
393
330
155
100
AcDbEntity
  8
0
100
AcDbFaceRecord
 10
0.0
 20
0.0
 30
0.0
 70
   128
 71
    18
 72
    17
 73
   -10
  0
VERTEX
  5
394
330
155
100
AcDbEntity
  8
0
100
AcDbFaceRecord
 10
0.0
 20
0.0
 30
0.0
 70
   128
 71
    14
 72
    13
 73
    19
  0
VERTEX
  5
395
330
155
100
AcDbEntity
  8
0
100
AcDbFaceRecord
 10
0.0
 20
0.0
 30
0.0
 70
   128
 71
    19
 72
    20
 73
   -14
  0
VERTEX
  5
396
330
155
100
AcDbEntity
  8
0
100
AcDbFaceRecord
 10
0.0
 20
0.0
 30
0.0
 70
   128
 71
    13
 72
    15
 73
    21
  0
VERTEX
  5
397
330
155
100
AcDbEntity
  8
0
100
AcDbFaceRecord
 10
0.0
 20
0.0
 30
0.0
 70
   128
 71
    21
 72
    19
 73
   -13
  0
VERTEX
  5
398
330
155
100
AcDbEntity
  8
0
100
AcDbFaceRecord
 10
0.0
 20
0.0
 30
0.0
 70
   128
 71
    15
 72
    16
 73
    22
  0
VERTEX
  5
399
330
155
100
AcDbEntity
  8
0
100
AcDbFaceRecord
 10
0.0
 20
0.0
 30
0.0
 70
   128
 71
    22
 72
    21
 73
   -15
  0
VERTEX
  5
39A
330
155
100
AcDbEntity
  8
0
100
AcDbFaceRecord
 10
0.0
 20
0.0
 30
0.0
 70
   128
 71
    16
 72
    17
 73
    23
  0
VERTEX
  5
39B
330
155
100
AcDbEntity
  8
0
100
AcDbFaceRecord
 10
0.0
 20
0.0
 30
0.0
 70
   128
 71
    23
 72
    22
 73
   -16
  0
VERTEX
  5
39C
330
155
100
AcDbEntity
  8
0
100
AcDbFaceRecord
 10
0.0
 20
0.0
 30
0.0
 70
   128
 71
    17
 72
    18
 73
    24
  0
VERTEX
  5
39D
330
155
100
AcDbEntity
  8
0
100
AcDbFaceRecord
 10
0.0
 20
0.0
 30
0.0
 70
   128
 71
    24
 72
    23
 73
   -17
  0
VERTEX
  5
39E
330
155
100
AcDbEntity
  8
0
100
AcDbFaceRecord
 10
0.0
 20
0.0
 30
0.0
 70
   128
 71
    20
 72
    19
 73
    25
  0
VERTEX
  5
39F
330
155
100
AcDbEntity
  8
0
100
AcDbFaceRecord
 10
0.0
 20
0.0
 30
0.0
 70
   128
 71
    25
 72
    26
 73
   -20
  0
VERTEX
  5
3A0
330
155
100
AcDbEntity
  8
0
100
AcDbFaceRecord
 10
0.0
 20
0.0
 30
0.0
 70
   128
 71
    19
 72
    21
 73
    27
  0
VERTEX
  5
3A1
330
155
100
AcDbEntity
  8
0
100
AcDbFaceRecord
 10
0.0
 20
0.0
 30
0.0
 70
   128
 71
    27
 72
    25
 73
   -19
  0
VERTEX
  5
3A2
330
155
100
AcDbEntity
  8
0
100
AcDbFaceRecord
 10
0.0
 20
0.0
 30
0.0
 70
   128
 71
    21
 72
    22
 73
    28
  0
VERTEX
  5
3A3
330
155
100
AcDbEntity
  8
0
100
AcDbFaceRecord
 10
0.0
 20
0.0
 30
0.0
 70
   128
 71
    28
 72
    27
 73
   -21
  0
VERTEX
  5
3A4
330
155
100
AcDbEntity
  8
0
100
AcDbFaceRecord
 10
0.0
 20
0.0
 30
0.0
 70
   128
 71
    22
 72
    23
 73
    29
  0
VERTEX
  5
3A5
330
155
100
AcDbEntity
  8
0
100
AcDbFaceRecord
 10
0.0
 20
0.0
 30
0.0
 70
   128
 71
    29
 72
    28
 73
   -22
  0
VERTEX
  5
3A6
330
155
100
AcDbEntity
  8
0
100
AcDbFaceRecord
 10
0.0
 20
0.0
 30
0.0
 70
   128
 71
    23
 72
    24
 73
    30
  0
VERTEX
  5
3A7
330
155
100
AcDbEntity
  8
0
100
AcDbFaceRecord
 10
0.0
 20
0.0
 30
0.0
 70
   128
 71
    30
 72
    29
 73
   -23
  0
VERTEX
  5
3A8
330
155
100
AcDbEntity
  8
0
100
AcDbFaceRecord
 10
0.0
 20
0.0
 30
0.0
 70
   128
 71
    26
 72
    25
 73
    31
  0
VERTEX
  5
3A9
330
155
100
AcDbEntity
  8
0
100
AcDbFaceRecord
 10
0.0
 20
0.0
 30
0.0
 70
   128
 71
    31
 72
    32
 73
   -26
  0
VERTEX
  5
3AA
330
155
100
AcDbEntity
  8
0
100
AcDbFaceRecord
 10
0.0
 20
0.0
 30
0.0
 70
   128
 71
    25
 72
    27
 73
    33
  0
VERTEX
  5
3AB
330
155
100
AcDbEntity
  8
0
100
AcDbFaceRecord
 10
0.0
 20
0.0
 30
0.0
 70
   128
 71
    33
 72
    31
 73
   -25
  0
VERTEX
  5
3AC
330
155
100
AcDbEntity
  8
0
100
AcDbFaceRecord
 10
0.0
 20
0.0
 30
0.0
 70
   128
 71
    27
 72
    28
 73
    34
  0
VERTEX
  5
3AD
330
155
100
AcDbEntity
  8
0
100
AcDbFaceRecord
 10
0.0
 20
0.0
 30
0.0
 70
   128
 71
    34
 72
    33
 73
   -27
  0
VERTEX
  5
3AE
330
155
100
AcDbEntity
  8
0
100
AcDbFaceRecord
 10
0.0
 20
0.0
 30
0.0
 70
   128
 71
    28
 72
    29
 73
    35
  0
VERTEX
  5
3AF
330
155
100
AcDbEntity
  8
0
100
AcDbFaceRecord
 10
0.0
 20
0.0
 30
0.0
 70
   128
 71
    35
 72
    34
 73
   -28
  0
VERTEX
  5
3B0
330
155
100
AcDbEntity
  8
0
100
AcDbFaceRecord
 10
0.0
 20
0.0
 30
0.0
 70
   128
 71
    29
 72
    30
 73
    36
  0
VERTEX
  5
3B1
330
155
100
AcDbEntity
  8
0
100
AcDbFaceRecord
 10
0.0
 20
0.0
 30
0.0
 70
   128
 71
    36
 72
    35
 73
   -29
  0
VERTEX
  5
3B2
330
155
100
AcDbEntity
  8
0
100
AcDbFaceRecord
 10
0.0
 20
0.0
 30
0.0
 70
   128
 71
    32
 72
    31
 73
    37
  0
VERTEX
  5
3B3
330
155
100
AcDbEntity
  8
0
100
AcDbFaceRecord
 10
0.0
 20
0.0
 30
0.0
 70
   128
 71
    37
 72
    38
 73
   -32
  0
VERTEX
  5
3B4
330
155
100
AcDbEntity
  8
0
100
AcDbFaceRecord
 10
0.0
 20
0.0
 30
0.0
 70
   128
 71
    31
 72
    33
 73
    39
  0
VERTEX
  5
3B5
330
155
100
AcDbEntity
  8
0
100
AcDbFaceRecord
 10
0.0
 20
0.0
 30
0.0
 70
   128
 71
    39
 72
    37
 73
   -31
  0
VERTEX
  5
3B6
330
155
100
AcDbEntity
  8
0
100
AcDbFaceRecord
 10
0.0
 20
0.0
 30
0.0
 70
   128
 71
    33
 72
    34
 73
    40
  0
VERTEX
  5
3B7
330
155
100
AcDbEntity
  8
0
100
AcDbFaceRecord
 10
0.0
 20
0.0
 30
0.0
 70
   128
 71
    40
 72
    39
 73
   -33
  0
VERTEX
  5
3B8
330
155
100
AcDbEntity
  8
0
100
AcDbFaceRecord
 10
0.0
 20
0.0
 30
0.0
 70
   128
 71
    34
 72
    35
 73
    41
  0
VERTEX
  5
3B9
330
155
100
AcDbEntity
  8
0
100
AcDbFaceRecord
 10
0.0
 20
0.0
 30
0.0
 70
   128
 71
    41
 72
    40
 73
   -34
  0
VERTEX
  5
3BA
330
155
100
AcDbEntity
  8
0
100
AcDbFaceRecord
 10
0.0
 20
0.0
 30
0.0
 70
   128
 71
    35
 72
    36
 73
    42
  0
VERTEX
  5
3BB
330
155
100
AcDbEntity
  8
0
100
AcDbFaceRecord
 10
0.0
 20
0.0
 30
0.0
 70
   128
 71
    42
 72
    41
 73
   -35
  0
VERTEX
  5
3BC
330
155
100
AcDbEntity
  8
0
100
AcDbFaceRecord
 10
0.0
 20
0.0
 30
0.0
 70
   128
 71
    38
 72
    37
 73
    43
  0
VERTEX
  5
3BD
330
155
100
AcDbEntity
  8
0
100
AcDbFaceRecord
 10
0.0
 20
0.0
 30
0.0
 70
   128
 71
    43
 72
    44
 73
   -38
  0
VERTEX
  5
3BE
330
155
100
AcDbEntity
  8
0
100
AcDbFaceRecord
 10
0.0
 20
0.0
 30
0.0
 70
   128
 71
    37
 72
    39
 73
    45
  0
VERTEX
  5
3BF
330
155
100
AcDbEntity
  8
0
100
AcDbFaceRecord
 10
0.0
 20
0.0
 30
0.0
 70
   128
 71
    45
 72
    43
 73
   -37
  0
VERTEX
  5
3C0
330
155
100
AcDbEntity
  8
0
100
AcDbFaceRecord
 10
0.0
 20
0.0
 30
0.0
 70
   128
 71
    39
 72
    40
 73
    46
  0
VERTEX
  5
3C1
330
155
100
AcDbEntity
  8
0
100
AcDbFaceRecord
 10
0.0
 20
0.0
 30
0.0
 70
   128
 71
    46
 72
    45
 73
   -39
  0
VERTEX
  5
3C2
330
155
100
AcDbEntity
  8
0
100
AcDbFaceRecord
 10
0.0
 20
0.0
 30
0.0
 70
   128
 71
    40
 72
    41
 73
    47
  0
VERTEX
  5
3C3
330
155
100
AcDbEntity
  8
0
100
AcDbFaceRecord
 10
0.0
 20
0.0
 30
0.0
 70
   128
 71
    47
 72
    46
 73
   -40
  0
VERTEX
  5
3C4
330
155
100
AcDbEntity
  8
0
100
AcDbFaceRecord
 10
0.0
 20
0.0
 30
0.0
 70
   128
 71
    41
 72
    42
 73
    48
  0
VERTEX
  5
3C5
330
155
100
AcDbEntity
  8
0
100
AcDbFaceRecord
 10
0.0
 20
0.0
 30
0.0
 70
   128
 71
    48
 72
    47
 73
   -41
  0
VERTEX
  5
3C6
330
155
100
AcDbEntity
  8
0
100
AcDbFaceRecord
 10
0.0
 20
0.0
 30
0.0
 70
   128
 71
    44
 72
    43
 73
    49
  0
VERTEX
  5
3C7
330
155
100
AcDbEntity
  8
0
100
AcDbFaceRecord
 10
0.0
 20
0.0
 30
0.0
 70
   128
 71
    49
 72
    50
 73
   -44
  0
VERTEX
  5
3C8
330
155
100
AcDbEntity
  8
0
100
AcDbFaceRecord
 10
0.0
 20
0.0
 30
0.0
 70
   128
 71
    43
 72
    45
 73
    51
  0
VERTEX
  5
3C9
330
155
100
AcDbEntity
  8
0
100
AcDbFaceRecord
 10
0.0
 20
0.0
 30
0.0
 70
   128
 71
    51
 72
    49
 73
   -43
  0
VERTEX
  5
3CA
330
155
100
AcDbEntity
  8
0
100
AcDbFaceRecord
 10
0.0
 20
0.0
 30
0.0
 70
   128
 71
    45
 72
    46
 73
    52
  0
VERTEX
  5
3CB
330
155
100
AcDbEntity
  8
0
100
AcDbFaceRecord
 10
0.0
 20
0.0
 30
0.0
 70
   128
 71
    52
 72
    51
 73
   -45
  0
VERTEX
  5
3CC
330
155
100
AcDbEntity
  8
0
100
AcDbFaceRecord
 10
0.0
 20
0.0
 30
0.0
 70
   128
 71
    46
 72
    47
 73
    53
  0
VERTEX
  5
3CD
330
155
100
AcDbEntity
  8
0
100
AcDbFaceRecord
 10
0.0
 20
0.0
 30
0.0
 70
   128
 71
    53
 72
    52
 73
   -46
  0
VERTEX
  5
3CE
330
155
100
AcDbEntity
  8
0
100
AcDbFaceRecord
 10
0.0
 20
0.0
 30
0.0
 70
   128
 71
    47
 72
    48
 73
    54
  0
VERTEX
  5
3CF
330
155
100
AcDbEntity
  8
0
100
AcDbFaceRecord
 10
0.0
 20
0.0
 30
0.0
 70
   128
 71
    54
 72
    53
 73
   -47
  0
VERTEX
  5
3D0
330
155
100
AcDbEntity
  8
0
100
AcDbFaceRecord
 10
0.0
 20
0.0
 30
0.0
 70
   128
 71
    50
 72
    49
 73
    55
  0
VERTEX
  5
3D1
330
155
100
AcDbEntity
  8
0
100
AcDbFaceRecord
 10
0.0
 20
0.0
 30
0.0
 70
   128
 71
    55
 72
    56
 73
   -50
  0
VERTEX
  5
3D2
330
155
100
AcDbEntity
  8
0
100
AcDbFaceRecord
 10
0.0
 20
0.0
 30
0.0
 70
   128
 71
    49
 72
    51
 73
    57
  0
VERTEX
  5
3D3
330
155
100
AcDbEntity
  8
0
100
AcDbFaceRecord
 10
0.0
 20
0.0
 30
0.0
 70
   128
 71
    57
 72
    55
 73
   -49
  0
VERTEX
  5
3D4
330
155
100
AcDbEntity
  8
0
100
AcDbFaceRecord
 10
0.0
 20
0.0
 30
0.0
 70
   128
 71
    51
 72
    52
 73
    58
  0
VERTEX
  5
3D5
330
155
100
AcDbEntity
  8
0
100
AcDbFaceRecord
 10
0.0
 20
0.0
 30
0.0
 70
   128
 71
    58
 72
    57
 73
   -51
  0
VERTEX
  5
3D6
330
155
100
AcDbEntity
  8
0
100
AcDbFaceRecord
 10
0.0
 20
0.0
 30
0.0
 70
   128
 71
    52
 72
    53
 73
    59
  0
VERTEX
  5
3D7
330
155
100
AcDbEntity
  8
0
100
AcDbFaceRecord
 10
0.0
 20
0.0
 30
0.0
 70
   128
 71
    59
 72
    58
 73
   -52
  0
VERTEX
  5
3D8
330
155
100
AcDbEntity
  8
0
100
AcDbFaceRecord
 10
0.0
 20
0.0
 30
0.0
 70
   128
 71
    53
 72
    54
 73
    60
  0
VERTEX
  5
3D9
330
155
100
AcDbEntity
  8
0
100
AcDbFaceRecord
 10
0.0
 20
0.0
 30
0.0
 70
   128
 71
    60
 72
    59
 73
   -53
  0
VERTEX
  5
3DA
330
155
100
AcDbEntity
  8
0
100
AcDbFaceRecord
 10
0.0
 20
0.0
 30
0.0
 70
   128
 71
    56
 72
    55
 73
    61
  0
VERTEX
  5
3DB
330
155
100
AcDbEntity
  8
0
100
AcDbFaceRecord
 10
0.0
 20
0.0
 30
0.0
 70
   128
 71
    61
 72
    62
 73
   -56
  0
VERTEX
  5
3DC
330
155
100
AcDbEntity
  8
0
100
AcDbFaceRecord
 10
0.0
 20
0.0
 30
0.0
 70
   128
 71
    55
 72
    57
 73
    63
  0
VERTEX
  5
3DD
330
155
100
AcDbEntity
  8
0
100
AcDbFaceRecord
 10
0.0
 20
0.0
 30
0.0
 70
   128
 71
    63
 72
    61
 73
   -55
  0
VERTEX
  5
3DE
330
155
100
AcDbEntity
  8
0
100
AcDbFaceRecord
 10
0.0
 20
0.0
 30
0.0
 70
   128
 71
    57
 72
    58
 73
    64
  0
VERTEX
  5
3DF
330
155
100
AcDbEntity
  8
0
100
AcDbFaceRecord
 10
0.0
 20
0.0
 30
0.0
 70
   128
 71
    64
 72
    63
 73
   -57
  0
VERTEX
  5
3E0
330
155
100
AcDbEntity
  8
0
100
AcDbFaceRecord
 10
0.0
 20
0.0
 30
0.0
 70
   128
 71
    58
 72
    59
 73
    65
  0
VERTEX
  5
3E1
330
155
100
AcDbEntity
  8
0
100
AcDbFaceRecord
 10
0.0
 20
0.0
 30
0.0
 70
   128
 71
    65
 72
    64
 73
   -58
  0
VERTEX
  5
3E2
330
155
100
AcDbEntity
  8
0
100
AcDbFaceRecord
 10
0.0
 20
0.0
 30
0.0
 70
   128
 71
    59
 72
    60
 73
    66
  0
VERTEX
  5
3E3
330
155
100
AcDbEntity
  8
0
100
AcDbFaceRecord
 10
0.0
 20
0.0
 30
0.0
 70
   128
 71
    66
 72
    65
 73
   -59
  0
VERTEX
  5
3E4
330
155
100
AcDbEntity
  8
0
100
AcDbFaceRecord
 10
0.0
 20
0.0
 30
0.0
 70
   128
 71
    62
 72
    61
 73
    67
  0
VERTEX
  5
3E5
330
155
100
AcDbEntity
  8
0
100
AcDbFaceRecord
 10
0.0
 20
0.0
 30
0.0
 70
   128
 71
    67
 72
    68
 73
   -62
  0
VERTEX
  5
3E6
330
155
100
AcDbEntity
  8
0
100
AcDbFaceRecord
 10
0.0
 20
0.0
 30
0.0
 70
   128
 71
    61
 72
    63
 73
    69
  0
VERTEX
  5
3E7
330
155
100
AcDbEntity
  8
0
100
AcDbFaceRecord
 10
0.0
 20
0.0
 30
0.0
 70
   128
 71
    69
 72
    67
 73
   -61
  0
VERTEX
  5
3E8
330
155
100
AcDbEntity
  8
0
100
AcDbFaceRecord
 10
0.0
 20
0.0
 30
0.0
 70
   128
 71
    63
 72
    64
 73
    70
  0
VERTEX
  5
3E9
330
155
100
AcDbEntity
  8
0
100
AcDbFaceRecord
 10
0.0
 20
0.0
 30
0.0
 70
   128
 71
    70
 72
    69
 73
   -63
  0
VERTEX
  5
3EA
330
155
100
AcDbEntity
  8
0
100
AcDbFaceRecord
 10
0.0
 20
0.0
 30
0.0
 70
   128
 71
    64
 72
    65
 73
    71
  0
VERTEX
  5
3EB
330
155
100
AcDbEntity
  8
0
100
AcDbFaceRecord
 10
0.0
 20
0.0
 30
0.0
 70
   128
 71
    71
 72
    70
 73
   -64
  0
VERTEX
  5
3EC
330
155
100
AcDbEntity
  8
0
100
AcDbFaceRecord
 10
0.0
 20
0.0
 30
0.0
 70
   128
 71
    65
 72
    66
 73
    72
  0
VERTEX
  5
3ED
330
155
100
AcDbEntity
  8
0
100
AcDbFaceRecord
 10
0.0
 20
0.0
 30
0.0
 70
   128
 71
    72
 72
    71
 73
   -65
  0
VERTEX
  5
3EE
330
155
100
AcDbEntity
  8
0
100
AcDbFaceRecord
 10
0.0
 20
0.0
 30
0.0
 70
   128
 71
    68
 72
    67
 73
    73
  0
VERTEX
  5
3EF
330
155
100
AcDbEntity
  8
0
100
AcDbFaceRecord
 10
0.0
 20
0.0
 30
0.0
 70
   128
 71
    73
 72
    74
 73
   -68
  0
VERTEX
  5
3F0
330
155
100
AcDbEntity
  8
0
100
AcDbFaceRecord
 10
0.0
 20
0.0
 30
0.0
 70
   128
 71
    67
 72
    69
 73
    75
  0
VERTEX
  5
3F1
330
155
100
AcDbEntity
  8
0
100
AcDbFaceRecord
 10
0.0
 20
0.0
 30
0.0
 70
   128
 71
    75
 72
    73
 73
   -67
  0
VERTEX
  5
3F2
330
155
100
AcDbEntity
  8
0
100
AcDbFaceRecord
 10
0.0
 20
0.0
 30
0.0
 70
   128
 71
    69
 72
    70
 73
    76
  0
VERTEX
  5
3F3
330
155
100
AcDbEntity
  8
0
100
AcDbFaceRecord
 10
0.0
 20
0.0
 30
0.0
 70
   128
 71
    76
 72
    75
 73
   -69
  0
VERTEX
  5
3F4
330
155
100
AcDbEntity
  8
0
100
AcDbFaceRecord
 10
0.0
 20
0.0
 30
0.0
 70
   128
 71
    70
 72
    71
 73
    77
  0
VERTEX
  5
3F5
330
155
100
AcDbEntity
  8
0
100
AcDbFaceRecord
 10
0.0
 20
0.0
 30
0.0
 70
   128
 71
    77
 72
    76
 73
   -70
  0
VERTEX
  5
3F6
330
155
100
AcDbEntity
  8
0
100
AcDbFaceRecord
 10
0.0
 20
0.0
 30
0.0
 70
   128
 71
    71
 72
    72
 73
    78
  0
VERTEX
  5
3F7
330
155
100
AcDbEntity
  8
0
100
AcDbFaceRecord
 10
0.0
 20
0.0
 30
0.0
 70
   128
 71
    78
 72
    77
 73
   -71
  0
VERTEX
  5
3F8
330
155
100
AcDbEntity
  8
0
100
AcDbFaceRecord
 10
0.0
 20
0.0
 30
0.0
 70
   128
 71
    74
 72
    73
 73
    79
  0
VERTEX
  5
3F9
330
155
100
AcDbEntity
  8
0
100
AcDbFaceRecord
 10
0.0
 20
0.0
 30
0.0
 70
   128
 71
    79
 72
    80
 73
   -74
  0
VERTEX
  5
3FA
330
155
100
AcDbEntity
  8
0
100
AcDbFaceRecord
 10
0.0
 20
0.0
 30
0.0
 70
   128
 71
    73
 72
    75
 73
    81
  0
VERTEX
  5
3FB
330
155
100
AcDbEntity
  8
0
100
AcDbFaceRecord
 10
0.0
 20
0.0
 30
0.0
 70
   128
 71
    81
 72
    79
 73
   -73
  0
VERTEX
  5
3FC
330
155
100
AcDbEntity
  8
0
100
AcDbFaceRecord
 10
0.0
 20
0.0
 30
0.0
 70
   128
 71
    75
 72
    76
 73
    82
  0
VERTEX
  5
3FD
330
155
100
AcDbEntity
  8
0
100
AcDbFaceRecord
 10
0.0
 20
0.0
 30
0.0
 70
   128
 71
    82
 72
    81
 73
   -75
  0
VERTEX
  5
3FE
330
155
100
AcDbEntity
  8
0
100
AcDbFaceRecord
 10
0.0
 20
0.0
 30
0.0
 70
   128
 71
    76
 72
    77
 73
    83
  0
VERTEX
  5
3FF
330
155
100
AcDbEntity
  8
0
100
AcDbFaceRecord
 10
0.0
 20
0.0
 30
0.0
 70
   128
 71
    83
 72
    82
 73
   -76
  0
VERTEX
  5
400
330
155
100
AcDbEntity
  8
0
100
AcDbFaceRecord
 10
0.0
 20
0.0
 30
0.0
 70
   128
 71
    77
 72
    78
 73
    84
  0
VERTEX
  5
401
330
155
100
AcDbEntity
  8
0
100
AcDbFaceRecord
 10
0.0
 20
0.0
 30
0.0
 70
   128
 71
    84
 72
    83
 73
   -77
  0
VERTEX
  5
402
330
155
100
AcDbEntity
  8
0
100
AcDbFaceRecord
 10
0.0
 20
0.0
 30
0.0
 70
   128
 71
    80
 72
    79
 73
    85
  0
VERTEX
  5
403
330
155
100
AcDbEntity
  8
0
100
AcDbFaceRecord
 10
0.0
 20
0.0
 30
0.0
 70
   128
 71
    85
 72
    86
 73
   -80
  0
VERTEX
  5
404
330
155
100
AcDbEntity
  8
0
100
AcDbFaceRecord
 10
0.0
 20
0.0
 30
0.0
 70
   128
 71
    79
 72
    81
 73
    87
  0
VERTEX
  5
405
330
155
100
AcDbEntity
  8
0
100
AcDbFaceRecord
 10
0.0
 20
0.0
 30
0.0
 70
   128
 71
    87
 72
    85
 73
   -79
  0
VERTEX
  5
406
330
155
100
AcDbEntity
  8
0
100
AcDbFaceRecord
 10
0.0
 20
0.0
 30
0.0
 70
   128
 71
    81
 72
    82
 73
    88
  0
VERTEX
  5
407
330
155
100
AcDbEntity
  8
0
100
AcDbFaceRecord
 10
0.0
 20
0.0
 30
0.0
 70
   128
 71
    88
 72
    87
 73
   -81
  0
VERTEX
  5
408
330
155
100
AcDbEntity
  8
0
100
AcDbFaceRecord
 10
0.0
 20
0.0
 30
0.0
 70
   128
 71
    82
 72
    83
 73
    89
  0
VERTEX
  5
409
330
155
100
AcDbEntity
  8
0
100
AcDbFaceRecord
 10
0.0
 20
0.0
 30
0.0
 70
   128
 71
    89
 72
    88
 73
   -82
  0
VERTEX
  5
40A
330
155
100
AcDbEntity
  8
0
100
AcDbFaceRecord
 10
0.0
 20
0.0
 30
0.0
 70
   128
 71
    83
 72
    84
 73
    90
  0
VERTEX
  5
40B
330
155
100
AcDbEntity
  8
0
100
AcDbFaceRecord
 10
0.0
 20
0.0
 30
0.0
 70
   128
 71
    90
 72
    89
 73
   -83
  0
VERTEX
  5
40C
330
155
100
AcDbEntity
  8
0
100
AcDbFaceRecord
 10
0.0
 20
0.0
 30
0.0
 70
   128
 71
    86
 72
    85
 73
    91
  0
VERTEX
  5
40D
330
155
100
AcDbEntity
  8
0
100
AcDbFaceRecord
 10
0.0
 20
0.0
 30
0.0
 70
   128
 71
    91
 72
    92
 73
   -86
  0
VERTEX
  5
40E
330
155
100
AcDbEntity
  8
0
100
AcDbFaceRecord
 10
0.0
 20
0.0
 30
0.0
 70
   128
 71
    85
 72
    87
 73
    93
  0
VERTEX
  5
40F
330
155
100
AcDbEntity
  8
0
100
AcDbFaceRecord
 10
0.0
 20
0.0
 30
0.0
 70
   128
 71
    93
 72
    91
 73
   -85
  0
VERTEX
  5
410
330
155
100
AcDbEntity
  8
0
100
AcDbFaceRecord
 10
0.0
 20
0.0
 30
0.0
 70
   128
 71
    87
 72
    88
 73
    94
  0
VERTEX
  5
411
330
155
100
AcDbEntity
  8
0
100
AcDbFaceRecord
 10
0.0
 20
0.0
 30
0.0
 70
   128
 71
    94
 72
    93
 73
   -87
  0
VERTEX
  5
412
330
155
100
AcDbEntity
  8
0
100
AcDbFaceRecord
 10
0.0
 20
0.0
 30
0.0
 70
   128
 71
    88
 72
    89
 73
    95
  0
VERTEX
  5
413
330
155
100
AcDbEntity
  8
0
100
AcDbFaceRecord
 10
0.0
 20
0.0
 30
0.0
 70
   128
 71
    95
 72
    94
 73
   -88
  0
VERTEX
  5
414
330
155
100
AcDbEntity
  8
0
100
AcDbFaceRecord
 10
0.0
 20
0.0
 30
0.0
 70
   128
 71
    89
 72
    90
 73
    96
  0
VERTEX
  5
415
330
155
100
AcDbEntity
  8
0
100
AcDbFaceRecord
 10
0.0
 20
0.0
 30
0.0
 70
   128
 71
    96
 72
    95
 73
   -89
  0
VERTEX
  5
416
330
155
100
AcDbEntity
  8
0
100
AcDbFaceRecord
 10
0.0
 20
0.0
 30
0.0
 70
   128
 71
    92
 72
    91
 73
    97
  0
VERTEX
  5
417
330
155
100
AcDbEntity
  8
0
100
AcDbFaceRecord
 10
0.0
 20
0.0
 30
0.0
 70
   128
 71
    97
 72
    98
 73
   -92
  0
VERTEX
  5
418
330
155
100
AcDbEntity
  8
0
100
AcDbFaceRecord
 10
0.0
 20
0.0
 30
0.0
 70
   128
 71
    91
 72
    93
 73
    99
  0
VERTEX
  5
419
330
155
100
AcDbEntity
  8
0
100
AcDbFaceRecord
 10
0.0
 20
0.0
 30
0.0
 70
   128
 71
    99
 72
    97
 73
   -91
  0
VERTEX
  5
41A
330
155
100
AcDbEntity
  8
0
100
AcDbFaceRecord
 10
0.0
 20
0.0
 30
0.0
 70
   128
 71
    93
 72
    94
 73
   100
  0
VERTEX
  5
41B
330
155
100
AcDbEntity
  8
0
100
AcDbFaceRecord
 10
0.0
 20
0.0
 30
0.0
 70
   128
 71
   100
 72
    99
 73
   -93
  0
VERTEX
  5
41C
330
155
100
AcDbEntity
  8
0
100
AcDbFaceRecord
 10
0.0
 20
0.0
 30
0.0
 70
   128
 71
    94
 72
    95
 73
   101
  0
VERTEX
  5
41D
330
155
100
AcDbEntity
  8
0
100
AcDbFaceRecord
 10
0.0
 20
0.0
 30
0.0
 70
   128
 71
   101
 72
   100
 73
   -94
  0
VERTEX
  5
41E
330
155
100
AcDbEntity
  8
0
100
AcDbFaceRecord
 10
0.0
 20
0.0
 30
0.0
 70
   128
 71
    95
 72
    96
 73
   102
  0
VERTEX
  5
41F
330
155
100
AcDbEntity
  8
0
100
AcDbFaceRecord
 10
0.0
 20
0.0
 30
0.0
 70
   128
 71
   102
 72
   101
 73
   -95
  0
VERTEX
  5
420
330
155
100
AcDbEntity
  8
0
100
AcDbFaceRecord
 10
0.0
 20
0.0
 30
0.0
 70
   128
 71
    72
 72
    66
 73
   103
  0
VERTEX
  5
421
330
155
100
AcDbEntity
  8
0
100
AcDbFaceRecord
 10
0.0
 20
0.0
 30
0.0
 70
   128
 71
   103
 72
   104
 73
   -72
  0
VERTEX
  5
422
330
155
100
AcDbEntity
  8
0
100
AcDbFaceRecord
 10
0.0
 20
0.0
 30
0.0
 70
   128
 71
   104
 72
   103
 73
   105
  0
VERTEX
  5
423
330
155
100
AcDbEntity
  8
0
100
AcDbFaceRecord
 10
0.0
 20
0.0
 30
0.0
 70
   128
 71
   105
 72
   106
 73
  -104
  0
VERTEX
  5
424
330
155
100
AcDbEntity
  8
0
100
AcDbFaceRecord
 10
0.0
 20
0.0
 30
0.0
 70
   128
 71
   106
 72
   105
 73
   107
  0
VERTEX
  5
425
330
155
100
AcDbEntity
  8
0
100
AcDbFaceRecord
 10
0.0
 20
0.0
 30
0.0
 70
   128
 71
   107
 72
   108
 73
  -106
  0
VERTEX
  5
426
330
155
100
AcDbEntity
  8
0
100
AcDbFaceRecord
 10
0.0
 20
0.0
 30
0.0
 70
   128
 71
   108
 72
   107
 73
   109
  0
VERTEX
  5
427
330
155
100
AcDbEntity
  8
0
100
AcDbFaceRecord
 10
0.0
 20
0.0
 30
0.0
 70
   128
 71
   109
 72
   110
 73
  -108
  0
VERTEX
  5
428
330
155
100
AcDbEntity
  8
0
100
AcDbFaceRecord
 10
0.0
 20
0.0
 30
0.0
 70
   128
 71
   110
 72
   109
 73
   111
  0
VERTEX
  5
429
330
155
100
AcDbEntity
  8
0
100
AcDbFaceRecord
 10
0.0
 20
0.0
 30
0.0
 70
   128
 71
   111
 72
   112
 73
  -110
  0
VERTEX
  5
42A
330
155
100
AcDbEntity
  8
0
100
AcDbFaceRecord
 10
0.0
 20
0.0
 30
0.0
 70
   128
 71
   112
 72
   111
 73
   113
  0
VERTEX
  5
42B
330
155
100
AcDbEntity
  8
0
100
AcDbFaceRecord
 10
0.0
 20
0.0
 30
0.0
 70
   128
 71
   113
 72
   114
 73
  -112
  0
VERTEX
  5
42C
330
155
100
AcDbEntity
  8
0
100
AcDbFaceRecord
 10
0.0
 20
0.0
 30
0.0
 70
   128
 71
   114
 72
   113
 73
   115
  0
VERTEX
  5
42D
330
155
100
AcDbEntity
  8
0
100
AcDbFaceRecord
 10
0.0
 20
0.0
 30
0.0
 70
   128
 71
   115
 72
   116
 73
  -114
  0
VERTEX
  5
42E
330
155
100
AcDbEntity
  8
0
100
AcDbFaceRecord
 10
0.0
 20
0.0
 30
0.0
 70
   128
 71
   116
 72
   115
 73
   117
  0
VERTEX
  5
42F
330
155
100
AcDbEntity
  8
0
100
AcDbFaceRecord
 10
0.0
 20
0.0
 30
0.0
 70
   128
 71
   117
 72
   118
 73
  -116
  0
VERTEX
  5
430
330
155
100
AcDbEntity
  8
0
100
AcDbFaceRecord
 10
0.0
 20
0.0
 30
0.0
 70
   128
 71
   118
 72
   117
 73
   119
  0
VERTEX
  5
431
330
155
100
AcDbEntity
  8
0
100
AcDbFaceRecord
 10
0.0
 20
0.0
 30
0.0
 70
   128
 71
   119
 72
   120
 73
  -118
  0
VERTEX
  5
432
330
155
100
AcDbEntity
  8
0
100
AcDbFaceRecord
 10
0.0
 20
0.0
 30
0.0
 70
   128
 71
   120
 72
   119
 73
   121
  0
VERTEX
  5
433
330
155
100
AcDbEntity
  8
0
100
AcDbFaceRecord
 10
0.0
 20
0.0
 30
0.0
 70
   128
 71
   121
 72
   122
 73
  -120
  0
VERTEX
  5
434
330
155
100
AcDbEntity
  8
0
100
AcDbFaceRecord
 10
0.0
 20
0.0
 30
0.0
 70
   128
 71
    66
 72
    60
 73
   123
  0
VERTEX
  5
435
330
155
100
AcDbEntity
  8
0
100
AcDbFaceRecord
 10
0.0
 20
0.0
 30
0.0
 70
   128
 71
   123
 72
   103
 73
   -66
  0
VERTEX
  5
436
330
155
100
AcDbEntity
  8
0
100
AcDbFaceRecord
 10
0.0
 20
0.0
 30
0.0
 70
   128
 71
   103
 72
   123
 73
   124
  0
VERTEX
  5
437
330
155
100
AcDbEntity
  8
0
100
AcDbFaceRecord
 10
0.0
 20
0.0
 30
0.0
 70
   128
 71
   124
 72
   105
 73
  -103
  0
VERTEX
  5
438
330
155
100
AcDbEntity
  8
0
100
AcDbFaceRecord
 10
0.0
 20
0.0
 30
0.0
 70
   128
 71
   105
 72
   124
 73
   125
  0
VERTEX
  5
439
330
155
100
AcDbEntity
  8
0
100
AcDbFaceRecord
 10
0.0
 20
0.0
 30
0.0
 70
   128
 71
   125
 72
   107
 73
  -105
  0
VERTEX
  5
43A
330
155
100
AcDbEntity
  8
0
100
AcDbFaceRecord
 10
0.0
 20
0.0
 30
0.0
 70
   128
 71
   107
 72
   125
 73
   126
  0
VERTEX
  5
43B
330
155
100
AcDbEntity
  8
0
100
AcDbFaceRecord
 10
0.0
 20
0.0
 30
0.0
 70
   128
 71
   126
 72
   109
 73
  -107
  0
VERTEX
  5
43C
330
155
100
AcDbEntity
  8
0
100
AcDbFaceRecord
 10
0.0
 20
0.0
 30
0.0
 70
   128
 71
   109
 72
   126
 73
   127
  0
VERTEX
  5
43D
330
155
100
AcDbEntity
  8
0
100
AcDbFaceRecord
 10
0.0
 20
0.0
 30
0.0
 70
   128
 71
   127
 72
   111
 73
  -109
  0
VERTEX
  5
43E
330
155
100
AcDbEntity
  8
0
100
AcDbFaceRecord
 10
0.0
 20
0.0
 30
0.0
 70
   128
 71
   111
 72
   127
 73
   128
  0
VERTEX
  5
43F
330
155
100
AcDbEntity
  8
0
100
AcDbFaceRecord
 10
0.0
 20
0.0
 30
0.0
 70
   128
 71
   128
 72
   113
 73
  -111
  0
VERTEX
  5
440
330
155
100
AcDbEntity
  8
0
100
AcDbFaceRecord
 10
0.0
 20
0.0
 30
0.0
 70
   128
 71
   113
 72
   128
 73
   129
  0
VERTEX
  5
441
330
155
100
AcDbEntity
  8
0
100
AcDbFaceRecord
 10
0.0
 20
0.0
 30
0.0
 70
   128
 71
   129
 72
   115
 73
  -113
  0
VERTEX
  5
442
330
155
100
AcDbEntity
  8
0
100
AcDbFaceRecord
 10
0.0
 20
0.0
 30
0.0
 70
   128
 71
   115
 72
   129
 73
   130
  0
VERTEX
  5
443
330
155
100
AcDbEntity
  8
0
100
AcDbFaceRecord
 10
0.0
 20
0.0
 30
0.0
 70
   128
 71
   130
 72
   117
 73
  -115
  0
VERTEX
  5
444
330
155
100
AcDbEntity
  8
0
100
AcDbFaceRecord
 10
0.0
 20
0.0
 30
0.0
 70
   128
 71
   117
 72
   130
 73
   131
  0
VERTEX
  5
445
330
155
100
AcDbEntity
  8
0
100
AcDbFaceRecord
 10
0.0
 20
0.0
 30
0.0
 70
   128
 71
   131
 72
   119
 73
  -117
  0
VERTEX
  5
446
330
155
100
AcDbEntity
  8
0
100
AcDbFaceRecord
 10
0.0
 20
0.0
 30
0.0
 70
   128
 71
   119
 72
   131
 73
   132
  0
VERTEX
  5
447
330
155
100
AcDbEntity
  8
0
100
AcDbFaceRecord
 10
0.0
 20
0.0
 30
0.0
 70
   128
 71
   132
 72
   121
 73
  -119
  0
VERTEX
  5
448
330
155
100
AcDbEntity
  8
0
100
AcDbFaceRecord
 10
0.0
 20
0.0
 30
0.0
 70
   128
 71
    60
 72
    54
 73
   133
  0
VERTEX
  5
449
330
155
100
AcDbEntity
  8
0
100
AcDbFaceRecord
 10
0.0
 20
0.0
 30
0.0
 70
   128
 71
   133
 72
   123
 73
   -60
  0
VERTEX
  5
44A
330
155
100
AcDbEntity
  8
0
100
AcDbFaceRecord
 10
0.0
 20
0.0
 30
0.0
 70
   128
 71
   123
 72
   133
 73
   134
  0
VERTEX
  5
44B
330
155
100
AcDbEntity
  8
0
100
AcDbFaceRecord
 10
0.0
 20
0.0
 30
0.0
 70
   128
 71
   134
 72
   124
 73
  -123
  0
VERTEX
  5
44C
330
155
100
AcDbEntity
  8
0
100
AcDbFaceRecord
 10
0.0
 20
0.0
 30
0.0
 70
   128
 71
   124
 72
   134
 73
   135
  0
VERTEX
  5
44D
330
155
100
AcDbEntity
  8
0
100
AcDbFaceRecord
 10
0.0
 20
0.0
 30
0.0
 70
   128
 71
   135
 72
   125
 73
  -124
  0
VERTEX
  5
44E
330
155
100
AcDbEntity
  8
0
100
AcDbFaceRecord
 10
0.0
 20
0.0
 30
0.0
 70
   128
 71
   125
 72
   135
 73
   136
  0
VERTEX
  5
44F
330
155
100
AcDbEntity
  8
0
100
AcDbFaceRecord
 10
0.0
 20
0.0
 30
0.0
 70
   128
 71
   136
 72
   126
 73
  -125
  0
VERTEX
  5
450
330
155
100
AcDbEntity
  8
0
100
AcDbFaceRecord
 10
0.0
 20
0.0
 30
0.0
 70
   128
 71
   126
 72
   136
 73
   137
  0
VERTEX
  5
451
330
155
100
AcDbEntity
  8
0
100
AcDbFaceRecord
 10
0.0
 20
0.0
 30
0.0
 70
   128
 71
   137
 72
   127
 73
  -126
  0
VERTEX
  5
452
330
155
100
AcDbEntity
  8
0
100
AcDbFaceRecord
 10
0.0
 20
0.0
 30
0.0
 70
   128
 71
   127
 72
   137
 73
   138
  0
VERTEX
  5
453
330
155
100
AcDbEntity
  8
0
100
AcDbFaceRecord
 10
0.0
 20
0.0
 30
0.0
 70
   128
 71
   138
 72
   128
 73
  -127
  0
VERTEX
  5
454
330
155
100
AcDbEntity
  8
0
100
AcDbFaceRecord
 10
0.0
 20
0.0
 30
0.0
 70
   128
 71
   128
 72
   138
 73
   139
  0
VERTEX
  5
455
330
155
100
AcDbEntity
  8
0
100
AcDbFaceRecord
 10
0.0
 20
0.0
 30
0.0
 70
   128
 71
   139
 72
   129
 73
  -128
  0
VERTEX
  5
456
330
155
100
AcDbEntity
  8
0
100
AcDbFaceRecord
 10
0.0
 20
0.0
 30
0.0
 70
   128
 71
   129
 72
   139
 73
   140
  0
VERTEX
  5
457
330
155
100
AcDbEntity
  8
0
100
AcDbFaceRecord
 10
0.0
 20
0.0
 30
0.0
 70
   128
 71
   140
 72
   130
 73
  -129
  0
VERTEX
  5
458
330
155
100
AcDbEntity
  8
0
100
AcDbFaceRecord
 10
0.0
 20
0.0
 30
0.0
 70
   128
 71
   130
 72
   140
 73
   141
  0
VERTEX
  5
459
330
155
100
AcDbEntity
  8
0
100
AcDbFaceRecord
 10
0.0
 20
0.0
 30
0.0
 70
   128
 71
   141
 72
   131
 73
  -130
  0
VERTEX
  5
45A
330
155
100
AcDbEntity
  8
0
100
AcDbFaceRecord
 10
0.0
 20
0.0
 30
0.0
 70
   128
 71
   131
 72
   141
 73
   142
  0
VERTEX
  5
45B
330
155
100
AcDbEntity
  8
0
100
AcDbFaceRecord
 10
0.0
 20
0.0
 30
0.0
 70
   128
 71
   142
 72
   132
 73
  -131
  0
VERTEX
  5
45C
330
155
100
AcDbEntity
  8
0
100
AcDbFaceRecord
 10
0.0
 20
0.0
 30
0.0
 70
   128
 71
    54
 72
    48
 73
   143
  0
VERTEX
  5
45D
330
155
100
AcDbEntity
  8
0
100
AcDbFaceRecord
 10
0.0
 20
0.0
 30
0.0
 70
   128
 71
   143
 72
   133
 73
   -54
  0
VERTEX
  5
45E
330
155
100
AcDbEntity
  8
0
100
AcDbFaceRecord
 10
0.0
 20
0.0
 30
0.0
 70
   128
 71
   133
 72
   143
 73
   144
  0
VERTEX
  5
45F
330
155
100
AcDbEntity
  8
0
100
AcDbFaceRecord
 10
0.0
 20
0.0
 30
0.0
 70
   128
 71
   144
 72
   134
 73
  -133
  0
VERTEX
  5
460
330
155
100
AcDbEntity
  8
0
100
AcDbFaceRecord
 10
0.0
 20
0.0
 30
0.0
 70
   128
 71
   134
 72
   144
 73
   145
  0
VERTEX
  5
461
330
155
100
AcDbEntity
  8
0
100
AcDbFaceRecord
 10
0.0
 20
0.0
 30
0.0
 70
   128
 71
   145
 72
   135
 73
  -134
  0
VERTEX
  5
462
330
155
100
AcDbEntity
  8
0
100
AcDbFaceRecord
 10
0.0
 20
0.0
 30
0.0
 70
   128
 71
   135
 72
   145
 73
   146
  0
VERTEX
  5
463
330
155
100
AcDbEntity
  8
0
100
AcDbFaceRecord
 10
0.0
 20
0.0
 30
0.0
 70
   128
 71
   146
 72
   136
 73
  -135
  0
VERTEX
  5
464
330
155
100
AcDbEntity
  8
0
100
AcDbFaceRecord
 10
0.0
 20
0.0
 30
0.0
 70
   128
 71
   136
 72
   146
 73
   147
  0
VERTEX
  5
465
330
155
100
AcDbEntity
  8
0
100
AcDbFaceRecord
 10
0.0
 20
0.0
 30
0.0
 70
   128
 71
   147
 72
   137
 73
  -136
  0
VERTEX
  5
466
330
155
100
AcDbEntity
  8
0
100
AcDbFaceRecord
 10
0.0
 20
0.0
 30
0.0
 70
   128
 71
   137
 72
   147
 73
   148
  0
VERTEX
  5
467
330
155
100
AcDbEntity
  8
0
100
AcDbFaceRecord
 10
0.0
 20
0.0
 30
0.0
 70
   128
 71
   148
 72
   138
 73
  -137
  0
VERTEX
  5
468
330
155
100
AcDbEntity
  8
0
100
AcDbFaceRecord
 10
0.0
 20
0.0
 30
0.0
 70
   128
 71
   138
 72
   148
 73
   149
  0
VERTEX
  5
469
330
155
100
AcDbEntity
  8
0
100
AcDbFaceRecord
 10
0.0
 20
0.0
 30
0.0
 70
   128
 71
   149
 72
   139
 73
  -138
  0
VERTEX
  5
46A
330
155
100
AcDbEntity
  8
0
100
AcDbFaceRecord
 10
0.0
 20
0.0
 30
0.0
 70
   128
 71
   139
 72
   149
 73
   150
  0
VERTEX
  5
46B
330
155
100
AcDbEntity
  8
0
100
AcDbFaceRecord
 10
0.0
 20
0.0
 30
0.0
 70
   128
 71
   150
 72
   140
 73
  -139
  0
VERTEX
  5
46C
330
155
100
AcDbEntity
  8
0
100
AcDbFaceRecord
 10
0.0
 20
0.0
 30
0.0
 70
   128
 71
   140
 72
   150
 73
   151
  0
VERTEX
  5
46D
330
155
100
AcDbEntity
  8
0
100
AcDbFaceRecord
 10
0.0
 20
0.0
 30
0.0
 70
   128
 71
   151
 72
   141
 73
  -140
  0
VERTEX
  5
46E
330
155
100
AcDbEntity
  8
0
100
AcDbFaceRecord
 10
0.0
 20
0.0
 30
0.0
 70
   128
 71
   141
 72
   151
 73
   152
  0
VERTEX
  5
46F
330
155
100
AcDbEntity
  8
0
100
AcDbFaceRecord
 10
0.0
 20
0.0
 30
0.0
 70
   128
 71
   152
 72
   142
 73
  -141
  0
VERTEX
  5
470
330
155
100
AcDbEntity
  8
0
100
AcDbFaceRecord
 10
0.0
 20
0.0
 30
0.0
 70
   128
 71
    48
 72
    42
 73
   153
  0
VERTEX
  5
471
330
155
100
AcDbEntity
  8
0
100
AcDbFaceRecord
 10
0.0
 20
0.0
 30
0.0
 70
   128
 71
   153
 72
   143
 73
   -48
  0
VERTEX
  5
472
330
155
100
AcDbEntity
  8
0
100
AcDbFaceRecord
 10
0.0
 20
0.0
 30
0.0
 70
   128
 71
   143
 72
   153
 73
   154
  0
VERTEX
  5
473
330
155
100
AcDbEntity
  8
0
100
AcDbFaceRecord
 10
0.0
 20
0.0
 30
0.0
 70
   128
 71
   154
 72
   144
 73
  -143
  0
VERTEX
  5
474
330
155
100
AcDbEntity
  8
0
100
AcDbFaceRecord
 10
0.0
 20
0.0
 30
0.0
 70
   128
 71
   144
 72
   154
 73
   155
  0
VERTEX
  5
475
330
155
100
AcDbEntity
  8
0
100
AcDbFaceRecord
 10
0.0
 20
0.0
 30
0.0
 70
   128
 71
   155
 72
   145
 73
  -144
  0
VERTEX
  5
476
330
155
100
AcDbEntity
  8
0
100
AcDbFaceRecord
 10
0.0
 20
0.0
 30
0.0
 70
   128
 71
   145
 72
   155
 73
   156
  0
VERTEX
  5
477
330
155
100
AcDbEntity
  8
0
100
AcDbFaceRecord
 10
0.0
 20
0.0
 30
0.0
 70
   128
 71
   156
 72
   146
 73
  -145
  0
VERTEX
  5
478
330
155
100
AcDbEntity
  8
0
100
AcDbFaceRecord
 10
0.0
 20
0.0
 30
0.0
 70
   128
 71
   146
 72
   156
 73
   157
  0
VERTEX
  5
479
330
155
100
AcDbEntity
  8
0
100
AcDbFaceRecord
 10
0.0
 20
0.0
 30
0.0
 70
   128
 71
   157
 72
   147
 73
  -146
  0
VERTEX
  5
47A
330
155
100
AcDbEntity
  8
0
100
AcDbFaceRecord
 10
0.0
 20
0.0
 30
0.0
 70
   128
 71
   147
 72
   157
 73
   158
  0
VERTEX
  5
47B
330
155
100
AcDbEntity
  8
0
100
AcDbFaceRecord
 10
0.0
 20
0.0
 30
0.0
 70
   128
 71
   158
 72
   148
 73
  -147
  0
VERTEX
  5
47C
330
155
100
AcDbEntity
  8
0
100
AcDbFaceRecord
 10
0.0
 20
0.0
 30
0.0
 70
   128
 71
   148
 72
   158
 73
   159
  0
VERTEX
  5
47D
330
155
100
AcDbEntity
  8
0
100
AcDbFaceRecord
 10
0.0
 20
0.0
 30
0.0
 70
   128
 71
   159
 72
   149
 73
  -148
  0
VERTEX
  5
47E
330
155
100
AcDbEntity
  8
0
100
AcDbFaceRecord
 10
0.0
 20
0.0
 30
0.0
 70
   128
 71
   149
 72
   159
 73
   160
  0
VERTEX
  5
47F
330
155
100
AcDbEntity
  8
0
100
AcDbFaceRecord
 10
0.0
 20
0.0
 30
0.0
 70
   128
 71
   160
 72
   150
 73
  -149
  0
VERTEX
  5
480
330
155
100
AcDbEntity
  8
0
100
AcDbFaceRecord
 10
0.0
 20
0.0
 30
0.0
 70
   128
 71
   150
 72
   160
 73
   161
  0
VERTEX
  5
481
330
155
100
AcDbEntity
  8
0
100
AcDbFaceRecord
 10
0.0
 20
0.0
 30
0.0
 70
   128
 71
   161
 72
   151
 73
  -150
  0
VERTEX
  5
482
330
155
100
AcDbEntity
  8
0
100
AcDbFaceRecord
 10
0.0
 20
0.0
 30
0.0
 70
   128
 71
   151
 72
   161
 73
   162
  0
VERTEX
  5
483
330
155
100
AcDbEntity
  8
0
100
AcDbFaceRecord
 10
0.0
 20
0.0
 30
0.0
 70
   128
 71
   162
 72
   152
 73
  -151
  0
VERTEX
  5
484
330
155
100
AcDbEntity
  8
0
100
AcDbFaceRecord
 10
0.0
 20
0.0
 30
0.0
 70
   128
 71
    42
 72
    36
 73
   163
  0
VERTEX
  5
485
330
155
100
AcDbEntity
  8
0
100
AcDbFaceRecord
 10
0.0
 20
0.0
 30
0.0
 70
   128
 71
   163
 72
   153
 73
   -42
  0
VERTEX
  5
486
330
155
100
AcDbEntity
  8
0
100
AcDbFaceRecord
 10
0.0
 20
0.0
 30
0.0
 70
   128
 71
   153
 72
   163
 73
   164
  0
VERTEX
  5
487
330
155
100
AcDbEntity
  8
0
100
AcDbFaceRecord
 10
0.0
 20
0.0
 30
0.0
 70
   128
 71
   164
 72
   154
 73
  -153
  0
VERTEX
  5
488
330
155
100
AcDbEntity
  8
0
100
AcDbFaceRecord
 10
0.0
 20
0.0
 30
0.0
 70
   128
 71
   154
 72
   164
 73
   165
  0
VERTEX
  5
489
330
155
100
AcDbEntity
  8
0
100
AcDbFaceRecord
 10
0.0
 20
0.0
 30
0.0
 70
   128
 71
   165
 72
   155
 73
  -154
  0
VERTEX
  5
48A
330
155
100
AcDbEntity
  8
0
100
AcDbFaceRecord
 10
0.0
 20
0.0
 30
0.0
 70
   128
 71
   155
 72
   165
 73
   166
  0
VERTEX
  5
48B
330
155
100
AcDbEntity
  8
0
100
AcDbFaceRecord
 10
0.0
 20
0.0
 30
0.0
 70
   128
 71
   166
 72
   156
 73
  -155
  0
VERTEX
  5
48C
330
155
100
AcDbEntity
  8
0
100
AcDbFaceRecord
 10
0.0
 20
0.0
 30
0.0
 70
   128
 71
   156
 72
   166
 73
   167
  0
VERTEX
  5
48D
330
155
100
AcDbEntity
  8
0
100
AcDbFaceRecord
 10
0.0
 20
0.0
 30
0.0
 70
   128
 71
   167
 72
   157
 73
  -156
  0
VERTEX
  5
48E
330
155
100
AcDbEntity
  8
0
100
AcDbFaceRecord
 10
0.0
 20
0.0
 30
0.0
 70
   128
 71
   157
 72
   167
 73
   168
  0
VERTEX
  5
48F
330
155
100
AcDbEntity
  8
0
100
AcDbFaceRecord
 10
0.0
 20
0.0
 30
0.0
 70
   128
 71
   168
 72
   158
 73
  -157
  0
VERTEX
  5
490
330
155
100
AcDbEntity
  8
0
100
AcDbFaceRecord
 10
0.0
 20
0.0
 30
0.0
 70
   128
 71
   158
 72
   168
 73
   169
  0
VERTEX
  5
491
330
155
100
AcDbEntity
  8
0
100
AcDbFaceRecord
 10
0.0
 20
0.0
 30
0.0
 70
   128
 71
   169
 72
   159
 73
  -158
  0
VERTEX
  5
492
330
155
100
AcDbEntity
  8
0
100
AcDbFaceRecord
 10
0.0
 20
0.0
 30
0.0
 70
   128
 71
   159
 72
   169
 73
   170
  0
VERTEX
  5
493
330
155
100
AcDbEntity
  8
0
100
AcDbFaceRecord
 10
0.0
 20
0.0
 30
0.0
 70
   128
 71
   170
 72
   160
 73
  -159
  0
VERTEX
  5
494
330
155
100
AcDbEntity
  8
0
100
AcDbFaceRecord
 10
0.0
 20
0.0
 30
0.0
 70
   128
 71
   160
 72
   170
 73
   171
  0
VERTEX
  5
495
330
155
100
AcDbEntity
  8
0
100
AcDbFaceRecord
 10
0.0
 20
0.0
 30
0.0
 70
   128
 71
   171
 72
   161
 73
  -160
  0
VERTEX
  5
496
330
155
100
AcDbEntity
  8
0
100
AcDbFaceRecord
 10
0.0
 20
0.0
 30
0.0
 70
   128
 71
   161
 72
   171
 73
   172
  0
VERTEX
  5
497
330
155
100
AcDbEntity
  8
0
100
AcDbFaceRecord
 10
0.0
 20
0.0
 30
0.0
 70
   128
 71
   172
 72
   162
 73
  -161
  0
VERTEX
  5
498
330
155
100
AcDbEntity
  8
0
100
AcDbFaceRecord
 10
0.0
 20
0.0
 30
0.0
 70
   128
 71
    36
 72
    30
 73
   173
  0
VERTEX
  5
499
330
155
100
AcDbEntity
  8
0
100
AcDbFaceRecord
 10
0.0
 20
0.0
 30
0.0
 70
   128
 71
   173
 72
   163
 73
   -36
  0
VERTEX
  5
49A
330
155
100
AcDbEntity
  8
0
100
AcDbFaceRecord
 10
0.0
 20
0.0
 30
0.0
 70
   128
 71
   163
 72
   173
 73
   174
  0
VERTEX
  5
49B
330
155
100
AcDbEntity
  8
0
100
AcDbFaceRecord
 10
0.0
 20
0.0
 30
0.0
 70
   128
 71
   174
 72
   164
 73
  -163
  0
VERTEX
  5
49C
330
155
100
AcDbEntity
  8
0
100
AcDbFaceRecord
 10
0.0
 20
0.0
 30
0.0
 70
   128
 71
   164
 72
   174
 73
   175
  0
VERTEX
  5
49D
330
155
100
AcDbEntity
  8
0
100
AcDbFaceRecord
 10
0.0
 20
0.0
 30
0.0
 70
   128
 71
   175
 72
   165
 73
  -164
  0
VERTEX
  5
49E
330
155
100
AcDbEntity
  8
0
100
AcDbFaceRecord
 10
0.0
 20
0.0
 30
0.0
 70
   128
 71
   165
 72
   175
 73
   176
  0
VERTEX
  5
49F
330
155
100
AcDbEntity
  8
0
100
AcDbFaceRecord
 10
0.0
 20
0.0
 30
0.0
 70
   128
 71
   176
 72
   166
 73
  -165
  0
VERTEX
  5
4A0
330
155
100
AcDbEntity
  8
0
100
AcDbFaceRecord
 10
0.0
 20
0.0
 30
0.0
 70
   128
 71
   166
 72
   176
 73
   177
  0
VERTEX
  5
4A1
330
155
100
AcDbEntity
  8
0
100
AcDbFaceRecord
 10
0.0
 20
0.0
 30
0.0
 70
   128
 71
   177
 72
   167
 73
  -166
  0
VERTEX
  5
4A2
330
155
100
AcDbEntity
  8
0
100
AcDbFaceRecord
 10
0.0
 20
0.0
 30
0.0
 70
   128
 71
   167
 72
   177
 73
   178
  0
VERTEX
  5
4A3
330
155
100
AcDbEntity
  8
0
100
AcDbFaceRecord
 10
0.0
 20
0.0
 30
0.0
 70
   128
 71
   178
 72
   168
 73
  -167
  0
VERTEX
  5
4A4
330
155
100
AcDbEntity
  8
0
100
AcDbFaceRecord
 10
0.0
 20
0.0
 30
0.0
 70
   128
 71
   168
 72
   178
 73
   179
  0
VERTEX
  5
4A5
330
155
100
AcDbEntity
  8
0
100
AcDbFaceRecord
 10
0.0
 20
0.0
 30
0.0
 70
   128
 71
   179
 72
   169
 73
  -168
  0
VERTEX
  5
4A6
330
155
100
AcDbEntity
  8
0
100
AcDbFaceRecord
 10
0.0
 20
0.0
 30
0.0
 70
   128
 71
   169
 72
   179
 73
   180
  0
VERTEX
  5
4A7
330
155
100
AcDbEntity
  8
0
100
AcDbFaceRecord
 10
0.0
 20
0.0
 30
0.0
 70
   128
 71
   180
 72
   170
 73
  -169
  0
VERTEX
  5
4A8
330
155
100
AcDbEntity
  8
0
100
AcDbFaceRecord
 10
0.0
 20
0.0
 30
0.0
 70
   128
 71
   170
 72
   180
 73
   181
  0
VERTEX
  5
4A9
330
155
100
AcDbEntity
  8
0
100
AcDbFaceRecord
 10
0.0
 20
0.0
 30
0.0
 70
   128
 71
   181
 72
   171
 73
  -170
  0
VERTEX
  5
4AA
330
155
100
AcDbEntity
  8
0
100
AcDbFaceRecord
 10
0.0
 20
0.0
 30
0.0
 70
   128
 71
   171
 72
   181
 73
   182
  0
VERTEX
  5
4AB
330
155
100
AcDbEntity
  8
0
100
AcDbFaceRecord
 10
0.0
 20
0.0
 30
0.0
 70
   128
 71
   182
 72
   172
 73
  -171
  0
VERTEX
  5
4AC
330
155
100
AcDbEntity
  8
0
100
AcDbFaceRecord
 10
0.0
 20
0.0
 30
0.0
 70
   128
 71
    30
 72
    24
 73
   183
  0
VERTEX
  5
4AD
330
155
100
AcDbEntity
  8
0
100
AcDbFaceRecord
 10
0.0
 20
0.0
 30
0.0
 70
   128
 71
   183
 72
   173
 73
   -30
  0
VERTEX
  5
4AE
330
155
100
AcDbEntity
  8
0
100
AcDbFaceRecord
 10
0.0
 20
0.0
 30
0.0
 70
   128
 71
   173
 72
   183
 73
   184
  0
VERTEX
  5
4AF
330
155
100
AcDbEntity
  8
0
100
AcDbFaceRecord
 10
0.0
 20
0.0
 30
0.0
 70
   128
 71
   184
 72
   174
 73
  -173
  0
VERTEX
  5
4B0
330
155
100
AcDbEntity
  8
0
100
AcDbFaceRecord
 10
0.0
 20
0.0
 30
0.0
 70
   128
 71
   174
 72
   184
 73
   185
  0
VERTEX
  5
4B1
330
155
100
AcDbEntity
  8
0
100
AcDbFaceRecord
 10
0.0
 20
0.0
 30
0.0
 70
   128
 71
   185
 72
   175
 73
  -174
  0
VERTEX
  5
4B2
330
155
100
AcDbEntity
  8
0
100
AcDbFaceRecord
 10
0.0
 20
0.0
 30
0.0
 70
   128
 71
   175
 72
   185
 73
   186
  0
VERTEX
  5
4B3
330
155
100
AcDbEntity
  8
0
100
AcDbFaceRecord
 10
0.0
 20
0.0
 30
0.0
 70
   128
 71
   186
 72
   176
 73
  -175
  0
VERTEX
  5
4B4
330
155
100
AcDbEntity
  8
0
100
AcDbFaceRecord
 10
0.0
 20
0.0
 30
0.0
 70
   128
 71
   176
 72
   186
 73
   187
  0
VERTEX
  5
4B5
330
155
100
AcDbEntity
  8
0
100
AcDbFaceRecord
 10
0.0
 20
0.0
 30
0.0
 70
   128
 71
   187
 72
   177
 73
  -176
  0
VERTEX
  5
4B6
330
155
100
AcDbEntity
  8
0
100
AcDbFaceRecord
 10
0.0
 20
0.0
 30
0.0
 70
   128
 71
   177
 72
   187
 73
   188
  0
VERTEX
  5
4B7
330
155
100
AcDbEntity
  8
0
100
AcDbFaceRecord
 10
0.0
 20
0.0
 30
0.0
 70
   128
 71
   188
 72
   178
 73
  -177
  0
VERTEX
  5
4B8
330
155
100
AcDbEntity
  8
0
100
AcDbFaceRecord
 10
0.0
 20
0.0
 30
0.0
 70
   128
 71
   178
 72
   188
 73
   189
  0
VERTEX
  5
4B9
330
155
100
AcDbEntity
  8
0
100
AcDbFaceRecord
 10
0.0
 20
0.0
 30
0.0
 70
   128
 71
   189
 72
   179
 73
  -178
  0
VERTEX
  5
4BA
330
155
100
AcDbEntity
  8
0
100
AcDbFaceRecord
 10
0.0
 20
0.0
 30
0.0
 70
   128
 71
   179
 72
   189
 73
   190
  0
VERTEX
  5
4BB
330
155
100
AcDbEntity
  8
0
100
AcDbFaceRecord
 10
0.0
 20
0.0
 30
0.0
 70
   128
 71
   190
 72
   180
 73
  -179
  0
VERTEX
  5
4BC
330
155
100
AcDbEntity
  8
0
100
AcDbFaceRecord
 10
0.0
 20
0.0
 30
0.0
 70
   128
 71
   180
 72
   190
 73
   191
  0
VERTEX
  5
4BD
330
155
100
AcDbEntity
  8
0
100
AcDbFaceRecord
 10
0.0
 20
0.0
 30
0.0
 70
   128
 71
   191
 72
   181
 73
  -180
  0
VERTEX
  5
4BE
330
155
100
AcDbEntity
  8
0
100
AcDbFaceRecord
 10
0.0
 20
0.0
 30
0.0
 70
   128
 71
   181
 72
   191
 73
   192
  0
VERTEX
  5
4BF
330
155
100
AcDbEntity
  8
0
100
AcDbFaceRecord
 10
0.0
 20
0.0
 30
0.0
 70
   128
 71
   192
 72
   182
 73
  -181
  0
VERTEX
  5
4C0
330
155
100
AcDbEntity
  8
0
100
AcDbFaceRecord
 10
0.0
 20
0.0
 30
0.0
 70
   128
 71
    24
 72
    18
 73
   193
  0
VERTEX
  5
4C1
330
155
100
AcDbEntity
  8
0
100
AcDbFaceRecord
 10
0.0
 20
0.0
 30
0.0
 70
   128
 71
   193
 72
   183
 73
   -24
  0
VERTEX
  5
4C2
330
155
100
AcDbEntity
  8
0
100
AcDbFaceRecord
 10
0.0
 20
0.0
 30
0.0
 70
   128
 71
   183
 72
   193
 73
   194
  0
VERTEX
  5
4C3
330
155
100
AcDbEntity
  8
0
100
AcDbFaceRecord
 10
0.0
 20
0.0
 30
0.0
 70
   128
 71
   194
 72
   184
 73
  -183
  0
VERTEX
  5
4C4
330
155
100
AcDbEntity
  8
0
100
AcDbFaceRecord
 10
0.0
 20
0.0
 30
0.0
 70
   128
 71
   184
 72
   194
 73
   195
  0
VERTEX
  5
4C5
330
155
100
AcDbEntity
  8
0
100
AcDbFaceRecord
 10
0.0
 20
0.0
 30
0.0
 70
   128
 71
   195
 72
   185
 73
  -184
  0
VERTEX
  5
4C6
330
155
100
AcDbEntity
  8
0
100
AcDbFaceRecord
 10
0.0
 20
0.0
 30
0.0
 70
   128
 71
   185
 72
   195
 73
   196
  0
VERTEX
  5
4C7
330
155
100
AcDbEntity
  8
0
100
AcDbFaceRecord
 10
0.0
 20
0.0
 30
0.0
 70
   128
 71
   196
 72
   186
 73
  -185
  0
VERTEX
  5
4C8
330
155
100
AcDbEntity
  8
0
100
AcDbFaceRecord
 10
0.0
 20
0.0
 30
0.0
 70
   128
 71
   186
 72
   196
 73
   197
  0
VERTEX
  5
4C9
330
155
100
AcDbEntity
  8
0
100
AcDbFaceRecord
 10
0.0
 20
0.0
 30
0.0
 70
   128
 71
   197
 72
   187
 73
  -186
  0
VERTEX
  5
4CA
330
155
100
AcDbEntity
  8
0
100
AcDbFaceRecord
 10
0.0
 20
0.0
 30
0.0
 70
   128
 71
   187
 72
   197
 73
   198
  0
VERTEX
  5
4CB
330
155
100
AcDbEntity
  8
0
100
AcDbFaceRecord
 10
0.0
 20
0.0
 30
0.0
 70
   128
 71
   198
 72
   188
 73
  -187
  0
VERTEX
  5
4CC
330
155
100
AcDbEntity
  8
0
100
AcDbFaceRecord
 10
0.0
 20
0.0
 30
0.0
 70
   128
 71
   188
 72
   198
 73
   199
  0
VERTEX
  5
4CD
330
155
100
AcDbEntity
  8
0
100
AcDbFaceRecord
 10
0.0
 20
0.0
 30
0.0
 70
   128
 71
   199
 72
   189
 73
  -188
  0
VERTEX
  5
4CE
330
155
100
AcDbEntity
  8
0
100
AcDbFaceRecord
 10
0.0
 20
0.0
 30
0.0
 70
   128
 71
   189
 72
   199
 73
   200
  0
VERTEX
  5
4CF
330
155
100
AcDbEntity
  8
0
100
AcDbFaceRecord
 10
0.0
 20
0.0
 30
0.0
 70
   128
 71
   200
 72
   190
 73
  -189
  0
VERTEX
  5
4D0
330
155
100
AcDbEntity
  8
0
100
AcDbFaceRecord
 10
0.0
 20
0.0
 30
0.0
 70
   128
 71
   190
 72
   200
 73
   201
  0
VERTEX
  5
4D1
330
155
100
AcDbEntity
  8
0
100
AcDbFaceRecord
 10
0.0
 20
0.0
 30
0.0
 70
   128
 71
   201
 72
   191
 73
  -190
  0
VERTEX
  5
4D2
330
155
100
AcDbEntity
  8
0
100
AcDbFaceRecord
 10
0.0
 20
0.0
 30
0.0
 70
   128
 71
   191
 72
   201
 73
   202
  0
VERTEX
  5
4D3
330
155
100
AcDbEntity
  8
0
100
AcDbFaceRecord
 10
0.0
 20
0.0
 30
0.0
 70
   128
 71
   202
 72
   192
 73
  -191
  0
VERTEX
  5
4D4
330
155
100
AcDbEntity
  8
0
100
AcDbFaceRecord
 10
0.0
 20
0.0
 30
0.0
 70
   128
 71
    18
 72
    12
 73
   203
  0
VERTEX
  5
4D5
330
155
100
AcDbEntity
  8
0
100
AcDbFaceRecord
 10
0.0
 20
0.0
 30
0.0
 70
   128
 71
   203
 72
   193
 73
   -18
  0
VERTEX
  5
4D6
330
155
100
AcDbEntity
  8
0
100
AcDbFaceRecord
 10
0.0
 20
0.0
 30
0.0
 70
   128
 71
   193
 72
   203
 73
   204
  0
VERTEX
  5
4D7
330
155
100
AcDbEntity
  8
0
100
AcDbFaceRecord
 10
0.0
 20
0.0
 30
0.0
 70
   128
 71
   204
 72
   194
 73
  -193
  0
VERTEX
  5
4D8
330
155
100
AcDbEntity
  8
0
100
AcDbFaceRecord
 10
0.0
 20
0.0
 30
0.0
 70
   128
 71
   194
 72
   204
 73
   205
  0
VERTEX
  5
4D9
330
155
100
AcDbEntity
  8
0
100
AcDbFaceRecord
 10
0.0
 20
0.0
 30
0.0
 70
   128
 71
   205
 72
   195
 73
  -194
  0
VERTEX
  5
4DA
330
155
100
AcDbEntity
  8
0
100
AcDbFaceRecord
 10
0.0
 20
0.0
 30
0.0
 70
   128
 71
   195
 72
   205
 73
   206
  0
VERTEX
  5
4DB
330
155
100
AcDbEntity
  8
0
100
AcDbFaceRecord
 10
0.0
 20
0.0
 30
0.0
 70
   128
 71
   206
 72
   196
 73
  -195
  0
VERTEX
  5
4DC
330
155
100
AcDbEntity
  8
0
100
AcDbFaceRecord
 10
0.0
 20
0.0
 30
0.0
 70
   128
 71
   196
 72
   206
 73
   207
  0
VERTEX
  5
4DD
330
155
100
AcDbEntity
  8
0
100
AcDbFaceRecord
 10
0.0
 20
0.0
 30
0.0
 70
   128
 71
   207
 72
   197
 73
  -196
  0
VERTEX
  5
4DE
330
155
100
AcDbEntity
  8
0
100
AcDbFaceRecord
 10
0.0
 20
0.0
 30
0.0
 70
   128
 71
   197
 72
   207
 73
   208
  0
VERTEX
  5
4DF
330
155
100
AcDbEntity
  8
0
100
AcDbFaceRecord
 10
0.0
 20
0.0
 30
0.0
 70
   128
 71
   208
 72
   198
 73
  -197
  0
VERTEX
  5
4E0
330
155
100
AcDbEntity
  8
0
100
AcDbFaceRecord
 10
0.0
 20
0.0
 30
0.0
 70
   128
 71
   198
 72
   208
 73
   209
  0
VERTEX
  5
4E1
330
155
100
AcDbEntity
  8
0
100
AcDbFaceRecord
 10
0.0
 20
0.0
 30
0.0
 70
   128
 71
   209
 72
   199
 73
  -198
  0
VERTEX
  5
4E2
330
155
100
AcDbEntity
  8
0
100
AcDbFaceRecord
 10
0.0
 20
0.0
 30
0.0
 70
   128
 71
   199
 72
   209
 73
   210
  0
VERTEX
  5
4E3
330
155
100
AcDbEntity
  8
0
100
AcDbFaceRecord
 10
0.0
 20
0.0
 30
0.0
 70
   128
 71
   210
 72
   200
 73
  -199
  0
VERTEX
  5
4E4
330
155
100
AcDbEntity
  8
0
100
AcDbFaceRecord
 10
0.0
 20
0.0
 30
0.0
 70
   128
 71
   200
 72
   210
 73
   211
  0
VERTEX
  5
4E5
330
155
100
AcDbEntity
  8
0
100
AcDbFaceRecord
 10
0.0
 20
0.0
 30
0.0
 70
   128
 71
   211
 72
   201
 73
  -200
  0
VERTEX
  5
4E6
330
155
100
AcDbEntity
  8
0
100
AcDbFaceRecord
 10
0.0
 20
0.0
 30
0.0
 70
   128
 71
   201
 72
   211
 73
   212
  0
VERTEX
  5
4E7
330
155
100
AcDbEntity
  8
0
100
AcDbFaceRecord
 10
0.0
 20
0.0
 30
0.0
 70
   128
 71
   212
 72
   202
 73
  -201
  0
VERTEX
  5
4E8
330
155
100
AcDbEntity
  8
0
100
AcDbFaceRecord
 10
0.0
 20
0.0
 30
0.0
 70
   128
 71
    12
 72
    11
 73
   213
  0
VERTEX
  5
4E9
330
155
100
AcDbEntity
  8
0
100
AcDbFaceRecord
 10
0.0
 20
0.0
 30
0.0
 70
   128
 71
   213
 72
   203
 73
   -12
  0
VERTEX
  5
4EA
330
155
100
AcDbEntity
  8
0
100
AcDbFaceRecord
 10
0.0
 20
0.0
 30
0.0
 70
   128
 71
   203
 72
   213
 73
   214
  0
VERTEX
  5
4EB
330
155
100
AcDbEntity
  8
0
100
AcDbFaceRecord
 10
0.0
 20
0.0
 30
0.0
 70
   128
 71
   214
 72
   204
 73
  -203
  0
VERTEX
  5
4EC
330
155
100
AcDbEntity
  8
0
100
AcDbFaceRecord
 10
0.0
 20
0.0
 30
0.0
 70
   128
 71
   204
 72
   214
 73
   215
  0
VERTEX
  5
4ED
330
155
100
AcDbEntity
  8
0
100
AcDbFaceRecord
 10
0.0
 20
0.0
 30
0.0
 70
   128
 71
   215
 72
   205
 73
  -204
  0
VERTEX
  5
4EE
330
155
100
AcDbEntity
  8
0
100
AcDbFaceRecord
 10
0.0
 20
0.0
 30
0.0
 70
   128
 71
   205
 72
   215
 73
   216
  0
VERTEX
  5
4EF
330
155
100
AcDbEntity
  8
0
100
AcDbFaceRecord
 10
0.0
 20
0.0
 30
0.0
 70
   128
 71
   216
 72
   206
 73
  -205
  0
VERTEX
  5
4F0
330
155
100
AcDbEntity
  8
0
100
AcDbFaceRecord
 10
0.0
 20
0.0
 30
0.0
 70
   128
 71
   206
 72
   216
 73
   217
  0
VERTEX
  5
4F1
330
155
100
AcDbEntity
  8
0
100
AcDbFaceRecord
 10
0.0
 20
0.0
 30
0.0
 70
   128
 71
   217
 72
   207
 73
  -206
  0
VERTEX
  5
4F2
330
155
100
AcDbEntity
  8
0
100
AcDbFaceRecord
 10
0.0
 20
0.0
 30
0.0
 70
   128
 71
   207
 72
   217
 73
   218
  0
VERTEX
  5
4F3
330
155
100
AcDbEntity
  8
0
100
AcDbFaceRecord
 10
0.0
 20
0.0
 30
0.0
 70
   128
 71
   218
 72
   208
 73
  -207
  0
VERTEX
  5
4F4
330
155
100
AcDbEntity
  8
0
100
AcDbFaceRecord
 10
0.0
 20
0.0
 30
0.0
 70
   128
 71
   208
 72
   218
 73
   219
  0
VERTEX
  5
4F5
330
155
100
AcDbEntity
  8
0
100
AcDbFaceRecord
 10
0.0
 20
0.0
 30
0.0
 70
   128
 71
   219
 72
   209
 73
  -208
  0
VERTEX
  5
4F6
330
155
100
AcDbEntity
  8
0
100
AcDbFaceRecord
 10
0.0
 20
0.0
 30
0.0
 70
   128
 71
   209
 72
   219
 73
   220
  0
VERTEX
  5
4F7
330
155
100
AcDbEntity
  8
0
100
AcDbFaceRecord
 10
0.0
 20
0.0
 30
0.0
 70
   128
 71
   220
 72
   210
 73
  -209
  0
VERTEX
  5
4F8
330
155
100
AcDbEntity
  8
0
100
AcDbFaceRecord
 10
0.0
 20
0.0
 30
0.0
 70
   128
 71
   210
 72
   220
 73
   221
  0
VERTEX
  5
4F9
330
155
100
AcDbEntity
  8
0
100
AcDbFaceRecord
 10
0.0
 20
0.0
 30
0.0
 70
   128
 71
   221
 72
   211
 73
  -210
  0
VERTEX
  5
4FA
330
155
100
AcDbEntity
  8
0
100
AcDbFaceRecord
 10
0.0
 20
0.0
 30
0.0
 70
   128
 71
   211
 72
   221
 73
   222
  0
VERTEX
  5
4FB
330
155
100
AcDbEntity
  8
0
100
AcDbFaceRecord
 10
0.0
 20
0.0
 30
0.0
 70
   128
 71
   222
 72
   212
 73
  -211
  0
VERTEX
  5
4FC
330
155
100
AcDbEntity
  8
0
100
AcDbFaceRecord
 10
0.0
 20
0.0
 30
0.0
 70
   128
 71
   223
 72
   224
 73
   225
  0
VERTEX
  5
4FD
330
155
100
AcDbEntity
  8
0
100
AcDbFaceRecord
 10
0.0
 20
0.0
 30
0.0
 70
   128
 71
   225
 72
   226
 73
  -223
  0
VERTEX
  5
4FE
330
155
100
AcDbEntity
  8
0
100
AcDbFaceRecord
 10
0.0
 20
0.0
 30
0.0
 70
   128
 71
   226
 72
   225
 73
   227
  0
VERTEX
  5
4FF
330
155
100
AcDbEntity
  8
0
100
AcDbFaceRecord
 10
0.0
 20
0.0
 30
0.0
 70
   128
 71
   227
 72
   228
 73
  -226
  0
VERTEX
  5
500
330
155
100
AcDbEntity
  8
0
100
AcDbFaceRecord
 10
0.0
 20
0.0
 30
0.0
 70
   128
 71
   228
 72
   227
 73
   229
  0
VERTEX
  5
501
330
155
100
AcDbEntity
  8
0
100
AcDbFaceRecord
 10
0.0
 20
0.0
 30
0.0
 70
   128
 71
   229
 72
   230
 73
  -228
  0
VERTEX
  5
502
330
155
100
AcDbEntity
  8
0
100
AcDbFaceRecord
 10
0.0
 20
0.0
 30
0.0
 70
   128
 71
   230
 72
   229
 73
   231
  0
VERTEX
  5
503
330
155
100
AcDbEntity
  8
0
100
AcDbFaceRecord
 10
0.0
 20
0.0
 30
0.0
 70
   128
 71
   231
 72
   232
 73
  -230
  0
VERTEX
  5
504
330
155
100
AcDbEntity
  8
0
100
AcDbFaceRecord
 10
0.0
 20
0.0
 30
0.0
 70
   128
 71
   232
 72
   231
 73
   233
  0
VERTEX
  5
505
330
155
100
AcDbEntity
  8
0
100
AcDbFaceRecord
 10
0.0
 20
0.0
 30
0.0
 70
   128
 71
   233
 72
   234
 73
  -232
  0
VERTEX
  5
506
330
155
100
AcDbEntity
  8
0
100
AcDbFaceRecord
 10
0.0
 20
0.0
 30
0.0
 70
   128
 71
   224
 72
   235
 73
   236
  0
VERTEX
  5
507
330
155
100
AcDbEntity
  8
0
100
AcDbFaceRecord
 10
0.0
 20
0.0
 30
0.0
 70
   128
 71
   236
 72
   225
 73
  -224
  0
VERTEX
  5
508
330
155
100
AcDbEntity
  8
0
100
AcDbFaceRecord
 10
0.0
 20
0.0
 30
0.0
 70
   128
 71
   225
 72
   236
 73
   237
  0
VERTEX
  5
509
330
155
100
AcDbEntity
  8
0
100
AcDbFaceRecord
 10
0.0
 20
0.0
 30
0.0
 70
   128
 71
   237
 72
   227
 73
  -225
  0
VERTEX
  5
50A
330
155
100
AcDbEntity
  8
0
100
AcDbFaceRecord
 10
0.0
 20
0.0
 30
0.0
 70
   128
 71
   227
 72
   237
 73
   238
  0
VERTEX
  5
50B
330
155
100
AcDbEntity
  8
0
100
AcDbFaceRecord
 10
0.0
 20
0.0
 30
0.0
 70
   128
 71
   238
 72
   229
 73
  -227
  0
VERTEX
  5
50C
330
155
100
AcDbEntity
  8
0
100
AcDbFaceRecord
 10
0.0
 20
0.0
 30
0.0
 70
   128
 71
   229
 72
   238
 73
   239
  0
VERTEX
  5
50D
330
155
100
AcDbEntity
  8
0
100
AcDbFaceRecord
 10
0.0
 20
0.0
 30
0.0
 70
   128
 71
   239
 72
   231
 73
  -229
  0
VERTEX
  5
50E
330
155
100
AcDbEntity
  8
0
100
AcDbFaceRecord
 10
0.0
 20
0.0
 30
0.0
 70
   128
 71
   231
 72
   239
 73
   240
  0
VERTEX
  5
50F
330
155
100
AcDbEntity
  8
0
100
AcDbFaceRecord
 10
0.0
 20
0.0
 30
0.0
 70
   128
 71
   240
 72
   233
 73
  -231
  0
VERTEX
  5
510
330
155
100
AcDbEntity
  8
0
100
AcDbFaceRecord
 10
0.0
 20
0.0
 30
0.0
 70
   128
 71
   235
 72
   241
 73
   242
  0
VERTEX
  5
511
330
155
100
AcDbEntity
  8
0
100
AcDbFaceRecord
 10
0.0
 20
0.0
 30
0.0
 70
   128
 71
   242
 72
   236
 73
  -235
  0
VERTEX
  5
512
330
155
100
AcDbEntity
  8
0
100
AcDbFaceRecord
 10
0.0
 20
0.0
 30
0.0
 70
   128
 71
   236
 72
   242
 73
   243
  0
VERTEX
  5
513
330
155
100
AcDbEntity
  8
0
100
AcDbFaceRecord
 10
0.0
 20
0.0
 30
0.0
 70
   128
 71
   243
 72
   237
 73
  -236
  0
VERTEX
  5
514
330
155
100
AcDbEntity
  8
0
100
AcDbFaceRecord
 10
0.0
 20
0.0
 30
0.0
 70
   128
 71
   237
 72
   243
 73
   244
  0
VERTEX
  5
515
330
155
100
AcDbEntity
  8
0
100
AcDbFaceRecord
 10
0.0
 20
0.0
 30
0.0
 70
   128
 71
   244
 72
   238
 73
  -237
  0
VERTEX
  5
516
330
155
100
AcDbEntity
  8
0
100
AcDbFaceRecord
 10
0.0
 20
0.0
 30
0.0
 70
   128
 71
   238
 72
   244
 73
   245
  0
VERTEX
  5
517
330
155
100
AcDbEntity
  8
0
100
AcDbFaceRecord
 10
0.0
 20
0.0
 30
0.0
 70
   128
 71
   245
 72
   239
 73
  -238
  0
VERTEX
  5
518
330
155
100
AcDbEntity
  8
0
100
AcDbFaceRecord
 10
0.0
 20
0.0
 30
0.0
 70
   128
 71
   239
 72
   245
 73
   246
  0
VERTEX
  5
519
330
155
100
AcDbEntity
  8
0
100
AcDbFaceRecord
 10
0.0
 20
0.0
 30
0.0
 70
   128
 71
   246
 72
   240
 73
  -239
  0
VERTEX
  5
51A
330
155
100
AcDbEntity
  8
0
100
AcDbFaceRecord
 10
0.0
 20
0.0
 30
0.0
 70
   128
 71
   241
 72
   112
 73
   114
  0
VERTEX
  5
51B
330
155
100
AcDbEntity
  8
0
100
AcDbFaceRecord
 10
0.0
 20
0.0
 30
0.0
 70
   128
 71
   114
 72
   242
 73
  -241
  0
VERTEX
  5
51C
330
155
100
AcDbEntity
  8
0
100
AcDbFaceRecord
 10
0.0
 20
0.0
 30
0.0
 70
   128
 71
   242
 72
   114
 73
   116
  0
VERTEX
  5
51D
330
155
100
AcDbEntity
  8
0
100
AcDbFaceRecord
 10
0.0
 20
0.0
 30
0.0
 70
   128
 71
   116
 72
   243
 73
  -242
  0
VERTEX
  5
51E
330
155
100
AcDbEntity
  8
0
100
AcDbFaceRecord
 10
0.0
 20
0.0
 30
0.0
 70
   128
 71
   243
 72
   116
 73
   118
  0
VERTEX
  5
51F
330
155
100
AcDbEntity
  8
0
100
AcDbFaceRecord
 10
0.0
 20
0.0
 30
0.0
 70
   128
 71
   118
 72
   244
 73
  -243
  0
VERTEX
  5
520
330
155
100
AcDbEntity
  8
0
100
AcDbFaceRecord
 10
0.0
 20
0.0
 30
0.0
 70
   128
 71
   244
 72
   118
 73
   120
  0
VERTEX
  5
521
330
155
100
AcDbEntity
  8
0
100
AcDbFaceRecord
 10
0.0
 20
0.0
 30
0.0
 70
   128
 71
   120
 72
   245
 73
  -244
  0
VERTEX
  5
522
330
155
100
AcDbEntity
  8
0
100
AcDbFaceRecord
 10
0.0
 20
0.0
 30
0.0
 70
   128
 71
   245
 72
   120
 73
   122
  0
VERTEX
  5
523
330
155
100
AcDbEntity
  8
0
100
AcDbFaceRecord
 10
0.0
 20
0.0
 30
0.0
 70
   128
 71
   122
 72
   246
 73
  -245
  0
VERTEX
  5
524
330
155
100
AcDbEntity
  8
0
100
AcDbFaceRecord
 10
0.0
 20
0.0
 30
0.0
 70
   128
 71
   247
 72
   248
 73
   249
  0
VERTEX
  5
525
330
155
100
AcDbEntity
  8
0
100
AcDbFaceRecord
 10
0.0
 20
0.0
 30
0.0
 70
   128
 71
   249
 72
   250
 73
  -247
  0
VERTEX
  5
526
330
155
100
AcDbEntity
  8
0
100
AcDbFaceRecord
 10
0.0
 20
0.0
 30
0.0
 70
   128
 71
   248
 72
   106
 73
   108
  0
VERTEX
  5
527
330
155
100
AcDbEntity
  8
0
100
AcDbFaceRecord
 10
0.0
 20
0.0
 30
0.0
 70
   128
 71
   108
 72
   249
 73
  -248
  0
VERTEX
  5
528
330
155
100
AcDbEntity
  8
0
100
AcDbFaceRecord
 10
0.0
 20
0.0
 30
0.0
 70
   128
 71
   251
 72
   252
 73
   253
  0
VERTEX
  5
529
330
155
100
AcDbEntity
  8
0
100
AcDbFaceRecord
 10
0.0
 20
0.0
 30
0.0
 70
   128
 71
   253
 72
   254
 73
  -251
  0
VERTEX
  5
52A
330
155
100
AcDbEntity
  8
0
100
AcDbFaceRecord
 10
0.0
 20
0.0
 30
0.0
 70
   128
 71
   252
 72
   250
 73
   255
  0
VERTEX
  5
52B
330
155
100
AcDbEntity
  8
0
100
AcDbFaceRecord
 10
0.0
 20
0.0
 30
0.0
 70
   128
 71
   255
 72
   253
 73
  -252
  0
VERTEX
  5
52C
330
155
100
AcDbEntity
  8
0
100
AcDbFaceRecord
 10
0.0
 20
0.0
 30
0.0
 70
   128
 71
   250
 72
   249
 73
   256
  0
VERTEX
  5
52D
330
155
100
AcDbEntity
  8
0
100
AcDbFaceRecord
 10
0.0
 20
0.0
 30
0.0
 70
   128
 71
   256
 72
   255
 73
  -250
  0
VERTEX
  5
52E
330
155
100
AcDbEntity
  8
0
100
AcDbFaceRecord
 10
0.0
 20
0.0
 30
0.0
 70
   128
 71
   249
 72
   108
 73
   110
  0
VERTEX
  5
52F
330
155
100
AcDbEntity
  8
0
100
AcDbFaceRecord
 10
0.0
 20
0.0
 30
0.0
 70
   128
 71
   110
 72
   256
 73
  -249
  0
VERTEX
  5
530
330
155
100
AcDbEntity
  8
0
100
AcDbFaceRecord
 10
0.0
 20
0.0
 30
0.0
 70
   128
 71
   254
 72
   253
 73
   224
  0
VERTEX
  5
531
330
155
100
AcDbEntity
  8
0
100
AcDbFaceRecord
 10
0.0
 20
0.0
 30
0.0
 70
   128
 71
   224
 72
   223
 73
  -254
  0
VERTEX
  5
532
330
155
100
AcDbEntity
  8
0
100
AcDbFaceRecord
 10
0.0
 20
0.0
 30
0.0
 70
   128
 71
   253
 72
   255
 73
   235
  0
VERTEX
  5
533
330
155
100
AcDbEntity
  8
0
100
AcDbFaceRecord
 10
0.0
 20
0.0
 30
0.0
 70
   128
 71
   235
 72
   224
 73
  -253
  0
VERTEX
  5
534
330
155
100
AcDbEntity
  8
0
100
AcDbFaceRecord
 10
0.0
 20
0.0
 30
0.0
 70
   128
 71
   255
 72
   256
 73
   241
  0
VERTEX
  5
535
330
155
100
AcDbEntity
  8
0
100
AcDbFaceRecord
 10
0.0
 20
0.0
 30
0.0
 70
   128
 71
   241
 72
   235
 73
  -255
  0
VERTEX
  5
536
330
155
100
AcDbEntity
  8
0
100
AcDbFaceRecord
 10
0.0
 20
0.0
 30
0.0
 70
   128
 71
   256
 72
   110
 73
   112
  0
VERTEX
  5
537
330
155
100
AcDbEntity
  8
0
100
AcDbFaceRecord
 10
0.0
 20
0.0
 30
0.0
 70
   128
 71
   112
 72
   241
 73
  -256
  0
VERTEX
  5
538
330
155
100
AcDbEntity
  8
0
100
AcDbFaceRecord
 10
0.0
 20
0.0
 30
0.0
 70
   128
 71
   257
 72
   258
 73
   259
  0
VERTEX
  5
539
330
155
100
AcDbEntity
  8
0
100
AcDbFaceRecord
 10
0.0
 20
0.0
 30
0.0
 70
   128
 71
   259
 72
   260
 73
  -257
  0
VERTEX
  5
53A
330
155
100
AcDbEntity
  8
0
100
AcDbFaceRecord
 10
0.0
 20
0.0
 30
0.0
 70
   128
 71
   260
 72
   259
 73
   261
  0
VERTEX
  5
53B
330
155
100
AcDbEntity
  8
0
100
AcDbFaceRecord
 10
0.0
 20
0.0
 30
0.0
 70
   128
 71
   261
 72
   262
 73
  -260
  0
VERTEX
  5
53C
330
155
100
AcDbEntity
  8
0
100
AcDbFaceRecord
 10
0.0
 20
0.0
 30
0.0
 70
   128
 71
   262
 72
   261
 73
   263
  0
VERTEX
  5
53D
330
155
100
AcDbEntity
  8
0
100
AcDbFaceRecord
 10
0.0
 20
0.0
 30
0.0
 70
   128
 71
   263
 72
   264
 73
  -262
  0
VERTEX
  5
53E
330
155
100
AcDbEntity
  8
0
100
AcDbFaceRecord
 10
0.0
 20
0.0
 30
0.0
 70
   128
 71
   264
 72
   263
 73
   265
  0
VERTEX
  5
53F
330
155
100
AcDbEntity
  8
0
100
AcDbFaceRecord
 10
0.0
 20
0.0
 30
0.0
 70
   128
 71
   265
 72
   266
 73
  -264
  0
VERTEX
  5
540
330
155
100
AcDbEntity
  8
0
100
AcDbFaceRecord
 10
0.0
 20
0.0
 30
0.0
 70
   128
 71
   258
 72
   267
 73
   268
  0
VERTEX
  5
541
330
155
100
AcDbEntity
  8
0
100
AcDbFaceRecord
 10
0.0
 20
0.0
 30
0.0
 70
   128
 71
   268
 72
   259
 73
  -258
  0
VERTEX
  5
542
330
155
100
AcDbEntity
  8
0
100
AcDbFaceRecord
 10
0.0
 20
0.0
 30
0.0
 70
   128
 71
   259
 72
   268
 73
   269
  0
VERTEX
  5
543
330
155
100
AcDbEntity
  8
0
100
AcDbFaceRecord
 10
0.0
 20
0.0
 30
0.0
 70
   128
 71
   269
 72
   261
 73
  -259
  0
VERTEX
  5
544
330
155
100
AcDbEntity
  8
0
100
AcDbFaceRecord
 10
0.0
 20
0.0
 30
0.0
 70
   128
 71
   261
 72
   269
 73
   270
  0
VERTEX
  5
545
330
155
100
AcDbEntity
  8
0
100
AcDbFaceRecord
 10
0.0
 20
0.0
 30
0.0
 70
   128
 71
   270
 72
   263
 73
  -261
  0
VERTEX
  5
546
330
155
100
AcDbEntity
  8
0
100
AcDbFaceRecord
 10
0.0
 20
0.0
 30
0.0
 70
   128
 71
   263
 72
   270
 73
   271
  0
VERTEX
  5
547
330
155
100
AcDbEntity
  8
0
100
AcDbFaceRecord
 10
0.0
 20
0.0
 30
0.0
 70
   128
 71
   271
 72
   265
 73
  -263
  0
VERTEX
  5
548
330
155
100
AcDbEntity
  8
0
100
AcDbFaceRecord
 10
0.0
 20
0.0
 30
0.0
 70
   128
 71
   267
 72
   272
 73
   273
  0
VERTEX
  5
549
330
155
100
AcDbEntity
  8
0
100
AcDbFaceRecord
 10
0.0
 20
0.0
 30
0.0
 70
   128
 71
   273
 72
   268
 73
  -267
  0
VERTEX
  5
54A
330
155
100
AcDbEntity
  8
0
100
AcDbFaceRecord
 10
0.0
 20
0.0
 30
0.0
 70
   128
 71
   268
 72
   273
 73
   274
  0
VERTEX
  5
54B
330
155
100
AcDbEntity
  8
0
100
AcDbFaceRecord
 10
0.0
 20
0.0
 30
0.0
 70
   128
 71
   274
 72
   269
 73
  -268
  0
VERTEX
  5
54C
330
155
100
AcDbEntity
  8
0
100
AcDbFaceRecord
 10
0.0
 20
0.0
 30
0.0
 70
   128
 71
   269
 72
   274
 73
   275
  0
VERTEX
  5
54D
330
155
100
AcDbEntity
  8
0
100
AcDbFaceRecord
 10
0.0
 20
0.0
 30
0.0
 70
   128
 71
   275
 72
   270
 73
  -269
  0
VERTEX
  5
54E
330
155
100
AcDbEntity
  8
0
100
AcDbFaceRecord
 10
0.0
 20
0.0
 30
0.0
 70
   128
 71
   270
 72
   275
 73
   276
  0
VERTEX
  5
54F
330
155
100
AcDbEntity
  8
0
100
AcDbFaceRecord
 10
0.0
 20
0.0
 30
0.0
 70
   128
 71
   276
 72
   271
 73
  -270
  0
VERTEX
  5
550
330
155
100
AcDbEntity
  8
0
100
AcDbFaceRecord
 10
0.0
 20
0.0
 30
0.0
 70
   128
 71
   272
 72
   247
 73
   277
  0
VERTEX
  5
551
330
155
100
AcDbEntity
  8
0
100
AcDbFaceRecord
 10
0.0
 20
0.0
 30
0.0
 70
   128
 71
   277
 72
   273
 73
  -272
  0
VERTEX
  5
552
330
155
100
AcDbEntity
  8
0
100
AcDbFaceRecord
 10
0.0
 20
0.0
 30
0.0
 70
   128
 71
   273
 72
   277
 73
   278
  0
VERTEX
  5
553
330
155
100
AcDbEntity
  8
0
100
AcDbFaceRecord
 10
0.0
 20
0.0
 30
0.0
 70
   128
 71
   278
 72
   274
 73
  -273
  0
VERTEX
  5
554
330
155
100
AcDbEntity
  8
0
100
AcDbFaceRecord
 10
0.0
 20
0.0
 30
0.0
 70
   128
 71
   274
 72
   278
 73
   279
  0
VERTEX
  5
555
330
155
100
AcDbEntity
  8
0
100
AcDbFaceRecord
 10
0.0
 20
0.0
 30
0.0
 70
   128
 71
   279
 72
   275
 73
  -274
  0
VERTEX
  5
556
330
155
100
AcDbEntity
  8
0
100
AcDbFaceRecord
 10
0.0
 20
0.0
 30
0.0
 70
   128
 71
   275
 72
   279
 73
   280
  0
VERTEX
  5
557
330
155
100
AcDbEntity
  8
0
100
AcDbFaceRecord
 10
0.0
 20
0.0
 30
0.0
 70
   128
 71
   280
 72
   276
 73
  -275
  0
VERTEX
  5
558
330
155
100
AcDbEntity
  8
0
100
AcDbFaceRecord
 10
0.0
 20
0.0
 30
0.0
 70
   128
 71
   102
 72
    96
 73
    90
  0
VERTEX
  5
559
330
155
100
AcDbEntity
  8
0
100
AcDbFaceRecord
 10
0.0
 20
0.0
 30
0.0
 70
   128
 71
   102
 72
    90
 73
    84
  0
VERTEX
  5
55A
330
155
100
AcDbEntity
  8
0
100
AcDbFaceRecord
 10
0.0
 20
0.0
 30
0.0
 70
   128
 71
   102
 72
    84
 73
    78
  0
VERTEX
  5
55B
330
155
100
AcDbEntity
  8
0
100
AcDbFaceRecord
 10
0.0
 20
0.0
 30
0.0
 70
   128
 71
   102
 72
    78
 73
   266
  0
VERTEX
  5
55C
330
155
100
AcDbEntity
  8
0
100
AcDbFaceRecord
 10
0.0
 20
0.0
 30
0.0
 70
   128
 71
   264
 72
   266
 73
    78
  0
VERTEX
  5
55D
330
155
100
AcDbEntity
  8
0
100
AcDbFaceRecord
 10
0.0
 20
0.0
 30
0.0
 70
   128
 71
   262
 72
   264
 73
    78
  0
VERTEX
  5
55E
330
155
100
AcDbEntity
  8
0
100
AcDbFaceRecord
 10
0.0
 20
0.0
 30
0.0
 70
   128
 71
   260
 72
   262
 73
    78
  0
VERTEX
  5
55F
330
155
100
AcDbEntity
  8
0
100
AcDbFaceRecord
 10
0.0
 20
0.0
 30
0.0
 70
   128
 71
   257
 72
   260
 73
    78
  0
VERTEX
  5
560
330
155
100
AcDbEntity
  8
0
100
AcDbFaceRecord
 10
0.0
 20
0.0
 30
0.0
 70
   128
 71
   281
 72
   257
 73
    78
  0
VERTEX
  5
561
330
155
100
AcDbEntity
  8
0
100
AcDbFaceRecord
 10
0.0
 20
0.0
 30
0.0
 70
   128
 71
    72
 72
   104
 73
   281
  0
VERTEX
  5
562
330
155
100
AcDbEntity
  8
0
100
AcDbFaceRecord
 10
0.0
 20
0.0
 30
0.0
 70
   128
 71
   281
 72
    78
 73
   -72
  0
VERTEX
  5
563
330
155
100
AcDbEntity
  8
0
100
AcDbFaceRecord
 10
0.0
 20
0.0
 30
0.0
 70
   128
 71
   247
 72
   252
 73
   277
  0
VERTEX
  5
564
330
155
100
AcDbEntity
  8
0
100
AcDbFaceRecord
 10
0.0
 20
0.0
 30
0.0
 70
   128
 71
   252
 72
   251
 73
   277
  0
VERTEX
  5
565
330
155
100
AcDbEntity
  8
0
100
AcDbFaceRecord
 10
0.0
 20
0.0
 30
0.0
 70
   128
 71
   247
 72
   250
 73
   252
  0
VERTEX
  5
566
330
155
100
AcDbEntity
  8
0
100
AcDbFaceRecord
 10
0.0
 20
0.0
 30
0.0
 70
   128
 71
   282
 72
   232
 73
   234
  0
VERTEX
  5
567
330
155
100
AcDbEntity
  8
0
100
AcDbFaceRecord
 10
0.0
 20
0.0
 30
0.0
 70
   128
 71
   282
 72
   230
 73
   232
  0
VERTEX
  5
568
330
155
100
AcDbEntity
  8
0
100
AcDbFaceRecord
 10
0.0
 20
0.0
 30
0.0
 70
   128
 71
   283
 72
   230
 73
   282
  0
VERTEX
  5
569
330
155
100
AcDbEntity
  8
0
100
AcDbFaceRecord
 10
0.0
 20
0.0
 30
0.0
 70
   128
 71
   283
 72
   228
 73
   230
  0
VERTEX
  5
56A
330
155
100
AcDbEntity
  8
0
100
AcDbFaceRecord
 10
0.0
 20
0.0
 30
0.0
 70
   128
 71
   284
 72
   228
 73
   283
  0
VERTEX
  5
56B
330
155
100
AcDbEntity
  8
0
100
AcDbFaceRecord
 10
0.0
 20
0.0
 30
0.0
 70
   128
 71
   284
 72
   226
 73
   228
  0
VERTEX
  5
56C
330
155
100
AcDbEntity
  8
0
100
AcDbFaceRecord
 10
0.0
 20
0.0
 30
0.0
 70
   128
 71
   285
 72
   226
 73
   284
  0
VERTEX
  5
56D
330
155
100
AcDbEntity
  8
0
100
AcDbFaceRecord
 10
0.0
 20
0.0
 30
0.0
 70
   128
 71
   285
 72
   223
 73
   226
  0
VERTEX
  5
56E
330
155
100
AcDbEntity
  8
0
100
AcDbFaceRecord
 10
0.0
 20
0.0
 30
0.0
 70
   128
 71
   286
 72
   223
 73
   285
  0
VERTEX
  5
56F
330
155
100
AcDbEntity
  8
0
100
AcDbFaceRecord
 10
0.0
 20
0.0
 30
0.0
 70
   128
 71
   286
 72
   254
 73
   223
  0
VERTEX
  5
570
330
155
100
AcDbEntity
  8
0
100
AcDbFaceRecord
 10
0.0
 20
0.0
 30
0.0
 70
   128
 71
   287
 72
   254
 73
   286
  0
VERTEX
  5
571
330
155
100
AcDbEntity
  8
0
100
AcDbFaceRecord
 10
0.0
 20
0.0
 30
0.0
 70
   128
 71
   287
 72
   251
 73
   254
  0
VERTEX
  5
572
330
155
100
AcDbEntity
  8
0
100
AcDbFaceRecord
 10
0.0
 20
0.0
 30
0.0
 70
   128
 71
   288
 72
   251
 73
   287
  0
VERTEX
  5
573
330
155
100
AcDbEntity
  8
0
100
AcDbFaceRecord
 10
0.0
 20
0.0
 30
0.0
 70
   128
 71
   288
 72
   277
 73
   251
  0
VERTEX
  5
574
330
155
100
AcDbEntity
  8
0
100
AcDbFaceRecord
 10
0.0
 20
0.0
 30
0.0
 70
   128
 71
   280
 72
   279
 73
   278
  0
VERTEX
  5
575
330
155
100
AcDbEntity
  8
0
100
AcDbFaceRecord
 10
0.0
 20
0.0
 30
0.0
 70
   128
 71
   280
 72
   278
 73
   277
  0
VERTEX
  5
576
330
155
100
AcDbEntity
  8
0
100
AcDbFaceRecord
 10
0.0
 20
0.0
 30
0.0
 70
   128
 71
   280
 72
   277
 73
   288
  0
VERTEX
  5
577
330
155
100
AcDbEntity
  8
0
100
AcDbFaceRecord
 10
0.0
 20
0.0
 30
0.0
 70
   128
 71
   234
 72
   233
 73
   289
  0
VERTEX
  5
578
330
155
100
AcDbEntity
  8
0
100
AcDbFaceRecord
 10
0.0
 20
0.0
 30
0.0
 70
   128
 71
   289
 72
   290
 73
  -234
  0
VERTEX
  5
579
330
155
100
AcDbEntity
  8
0
100
AcDbFaceRecord
 10
0.0
 20
0.0
 30
0.0
 70
   128
 71
   233
 72
   240
 73
   291
  0
VERTEX
  5
57A
330
155
100
AcDbEntity
  8
0
100
AcDbFaceRecord
 10
0.0
 20
0.0
 30
0.0
 70
   128
 71
   291
 72
   289
 73
  -233
  0
VERTEX
  5
57B
330
155
100
AcDbEntity
  8
0
100
AcDbFaceRecord
 10
0.0
 20
0.0
 30
0.0
 70
   128
 71
   240
 72
   246
 73
   292
  0
VERTEX
  5
57C
330
155
100
AcDbEntity
  8
0
100
AcDbFaceRecord
 10
0.0
 20
0.0
 30
0.0
 70
   128
 71
   292
 72
   291
 73
  -240
  0
VERTEX
  5
57D
330
155
100
AcDbEntity
  8
0
100
AcDbFaceRecord
 10
0.0
 20
0.0
 30
0.0
 70
   128
 71
   246
 72
   122
 73
   293
  0
VERTEX
  5
57E
330
155
100
AcDbEntity
  8
0
100
AcDbFaceRecord
 10
0.0
 20
0.0
 30
0.0
 70
   128
 71
   293
 72
   292
 73
  -246
  0
VERTEX
  5
57F
330
155
100
AcDbEntity
  8
0
100
AcDbFaceRecord
 10
0.0
 20
0.0
 30
0.0
 70
   128
 71
   281
 72
   294
 73
   258
  0
VERTEX
  5
580
330
155
100
AcDbEntity
  8
0
100
AcDbFaceRecord
 10
0.0
 20
0.0
 30
0.0
 70
   128
 71
   258
 72
   257
 73
  -281
  0
VERTEX
  5
581
330
155
100
AcDbEntity
  8
0
100
AcDbFaceRecord
 10
0.0
 20
0.0
 30
0.0
 70
   128
 71
   294
 72
   295
 73
   267
  0
VERTEX
  5
582
330
155
100
AcDbEntity
  8
0
100
AcDbFaceRecord
 10
0.0
 20
0.0
 30
0.0
 70
   128
 71
   267
 72
   258
 73
  -294
  0
VERTEX
  5
583
330
155
100
AcDbEntity
  8
0
100
AcDbFaceRecord
 10
0.0
 20
0.0
 30
0.0
 70
   128
 71
   295
 72
   296
 73
   272
  0
VERTEX
  5
584
330
155
100
AcDbEntity
  8
0
100
AcDbFaceRecord
 10
0.0
 20
0.0
 30
0.0
 70
   128
 71
   272
 72
   267
 73
  -295
  0
VERTEX
  5
585
330
155
100
AcDbEntity
  8
0
100
AcDbFaceRecord
 10
0.0
 20
0.0
 30
0.0
 70
   128
 71
   296
 72
   297
 73
   247
  0
VERTEX
  5
586
330
155
100
AcDbEntity
  8
0
100
AcDbFaceRecord
 10
0.0
 20
0.0
 30
0.0
 70
   128
 71
   247
 72
   272
 73
  -296
  0
VERTEX
  5
587
330
155
100
AcDbEntity
  8
0
100
AcDbFaceRecord
 10
0.0
 20
0.0
 30
0.0
 70
   128
 71
   281
 72
   104
 73
   294
  0
VERTEX
  5
588
330
155
100
AcDbEntity
  8
0
100
AcDbFaceRecord
 10
0.0
 20
0.0
 30
0.0
 70
   128
 71
   104
 72
   295
 73
   294
  0
VERTEX
  5
589
330
155
100
AcDbEntity
  8
0
100
AcDbFaceRecord
 10
0.0
 20
0.0
 30
0.0
 70
   128
 71
   295
 72
   104
 73
   296
  0
VERTEX
  5
58A
330
155
100
AcDbEntity
  8
0
100
AcDbFaceRecord
 10
0.0
 20
0.0
 30
0.0
 70
   128
 71
   104
 72
   297
 73
   296
  0
VERTEX
  5
58B
330
155
100
AcDbEntity
  8
0
100
AcDbFaceRecord
 10
0.0
 20
0.0
 30
0.0
 70
   128
 71
   297
 72
   248
 73
   247
  0
VERTEX
  5
58C
330
155
100
AcDbEntity
  8
0
100
AcDbFaceRecord
 10
0.0
 20
0.0
 30
0.0
 70
   128
 71
   297
 72
   106
 73
   248
  0
VERTEX
  5
58D
330
155
100
AcDbEntity
  8
0
100
AcDbFaceRecord
 10
0.0
 20
0.0
 30
0.0
 70
   128
 71
   297
 72
   104
 73
   106
  0
VERTEX
  5
58E
330
155
100
AcDbEntity
  8
0
100
AcDbFaceRecord
 10
0.0
 20
0.0
 30
0.0
 70
   128
 71
     1
 72
   298
 73
   299
  0
VERTEX
  5
58F
330
155
100
AcDbEntity
  8
0
100
AcDbFaceRecord
 10
0.0
 20
0.0
 30
0.0
 70
   128
 71
   299
 72
     2
 73
    -1
  0
VERTEX
  5
590
330
155
100
AcDbEntity
  8
0
100
AcDbFaceRecord
 10
0.0
 20
0.0
 30
0.0
 70
   128
 71
     2
 72
   299
 73
   300
  0
VERTEX
  5
591
330
155
100
AcDbEntity
  8
0
100
AcDbFaceRecord
 10
0.0
 20
0.0
 30
0.0
 70
   128
 71
   300
 72
     5
 73
    -2
  0
VERTEX
  5
592
330
155
100
AcDbEntity
  8
0
100
AcDbFaceRecord
 10
0.0
 20
0.0
 30
0.0
 70
   128
 71
     5
 72
   300
 73
   301
  0
VERTEX
  5
593
330
155
100
AcDbEntity
  8
0
100
AcDbFaceRecord
 10
0.0
 20
0.0
 30
0.0
 70
   128
 71
   301
 72
     7
 73
    -5
  0
VERTEX
  5
594
330
155
100
AcDbEntity
  8
0
100
AcDbFaceRecord
 10
0.0
 20
0.0
 30
0.0
 70
   128
 71
     7
 72
   301
 73
   302
  0
VERTEX
  5
595
330
155
100
AcDbEntity
  8
0
100
AcDbFaceRecord
 10
0.0
 20
0.0
 30
0.0
 70
   128
 71
   302
 72
     9
 73
    -7
  0
VERTEX
  5
596
330
155
100
AcDbEntity
  8
0
100
AcDbFaceRecord
 10
0.0
 20
0.0
 30
0.0
 70
   128
 71
     9
 72
   302
 73
   303
  0
VERTEX
  5
597
330
155
100
AcDbEntity
  8
0
100
AcDbFaceRecord
 10
0.0
 20
0.0
 30
0.0
 70
   128
 71
   303
 72
    11
 73
    -9
  0
VERTEX
  5
598
330
155
100
AcDbEntity
  8
0
100
AcDbFaceRecord
 10
0.0
 20
0.0
 30
0.0
 70
   128
 71
   298
 72
   304
 73
   305
  0
VERTEX
  5
599
330
155
100
AcDbEntity
  8
0
100
AcDbFaceRecord
 10
0.0
 20
0.0
 30
0.0
 70
   128
 71
   305
 72
   299
 73
  -298
  0
VERTEX
  5
59A
330
155
100
AcDbEntity
  8
0
100
AcDbFaceRecord
 10
0.0
 20
0.0
 30
0.0
 70
   128
 71
   299
 72
   305
 73
   306
  0
VERTEX
  5
59B
330
155
100
AcDbEntity
  8
0
100
AcDbFaceRecord
 10
0.0
 20
0.0
 30
0.0
 70
   128
 71
   306
 72
   300
 73
  -299
  0
VERTEX
  5
59C
330
155
100
AcDbEntity
  8
0
100
AcDbFaceRecord
 10
0.0
 20
0.0
 30
0.0
 70
   128
 71
   300
 72
   306
 73
   307
  0
VERTEX
  5
59D
330
155
100
AcDbEntity
  8
0
100
AcDbFaceRecord
 10
0.0
 20
0.0
 30
0.0
 70
   128
 71
   307
 72
   301
 73
  -300
  0
VERTEX
  5
59E
330
155
100
AcDbEntity
  8
0
100
AcDbFaceRecord
 10
0.0
 20
0.0
 30
0.0
 70
   128
 71
   301
 72
   307
 73
   308
  0
VERTEX
  5
59F
330
155
100
AcDbEntity
  8
0
100
AcDbFaceRecord
 10
0.0
 20
0.0
 30
0.0
 70
   128
 71
   308
 72
   302
 73
  -301
  0
VERTEX
  5
5A0
330
155
100
AcDbEntity
  8
0
100
AcDbFaceRecord
 10
0.0
 20
0.0
 30
0.0
 70
   128
 71
   302
 72
   308
 73
   309
  0
VERTEX
  5
5A1
330
155
100
AcDbEntity
  8
0
100
AcDbFaceRecord
 10
0.0
 20
0.0
 30
0.0
 70
   128
 71
   309
 72
   303
 73
  -302
  0
VERTEX
  5
5A2
330
155
100
AcDbEntity
  8
0
100
AcDbFaceRecord
 10
0.0
 20
0.0
 30
0.0
 70
   128
 71
   304
 72
   310
 73
   311
  0
VERTEX
  5
5A3
330
155
100
AcDbEntity
  8
0
100
AcDbFaceRecord
 10
0.0
 20
0.0
 30
0.0
 70
   128
 71
   311
 72
   305
 73
  -304
  0
VERTEX
  5
5A4
330
155
100
AcDbEntity
  8
0
100
AcDbFaceRecord
 10
0.0
 20
0.0
 30
0.0
 70
   128
 71
   305
 72
   311
 73
   312
  0
VERTEX
  5
5A5
330
155
100
AcDbEntity
  8
0
100
AcDbFaceRecord
 10
0.0
 20
0.0
 30
0.0
 70
   128
 71
   312
 72
   306
 73
  -305
  0
VERTEX
  5
5A6
330
155
100
AcDbEntity
  8
0
100
AcDbFaceRecord
 10
0.0
 20
0.0
 30
0.0
 70
   128
 71
   306
 72
   312
 73
   313
  0
VERTEX
  5
5A7
330
155
100
AcDbEntity
  8
0
100
AcDbFaceRecord
 10
0.0
 20
0.0
 30
0.0
 70
   128
 71
   313
 72
   307
 73
  -306
  0
VERTEX
  5
5A8
330
155
100
AcDbEntity
  8
0
100
AcDbFaceRecord
 10
0.0
 20
0.0
 30
0.0
 70
   128
 71
   307
 72
   313
 73
   314
  0
VERTEX
  5
5A9
330
155
100
AcDbEntity
  8
0
100
AcDbFaceRecord
 10
0.0
 20
0.0
 30
0.0
 70
   128
 71
   314
 72
   308
 73
  -307
  0
VERTEX
  5
5AA
330
155
100
AcDbEntity
  8
0
100
AcDbFaceRecord
 10
0.0
 20
0.0
 30
0.0
 70
   128
 71
   308
 72
   314
 73
   315
  0
VERTEX
  5
5AB
330
155
100
AcDbEntity
  8
0
100
AcDbFaceRecord
 10
0.0
 20
0.0
 30
0.0
 70
   128
 71
   315
 72
   309
 73
  -308
  0
VERTEX
  5
5AC
330
155
100
AcDbEntity
  8
0
100
AcDbFaceRecord
 10
0.0
 20
0.0
 30
0.0
 70
   128
 71
   310
 72
   316
 73
   317
  0
VERTEX
  5
5AD
330
155
100
AcDbEntity
  8
0
100
AcDbFaceRecord
 10
0.0
 20
0.0
 30
0.0
 70
   128
 71
   317
 72
   311
 73
  -310
  0
VERTEX
  5
5AE
330
155
100
AcDbEntity
  8
0
100
AcDbFaceRecord
 10
0.0
 20
0.0
 30
0.0
 70
   128
 71
   311
 72
   317
 73
   318
  0
VERTEX
  5
5AF
330
155
100
AcDbEntity
  8
0
100
AcDbFaceRecord
 10
0.0
 20
0.0
 30
0.0
 70
   128
 71
   318
 72
   312
 73
  -311
  0
VERTEX
  5
5B0
330
155
100
AcDbEntity
  8
0
100
AcDbFaceRecord
 10
0.0
 20
0.0
 30
0.0
 70
   128
 71
   312
 72
   318
 73
   319
  0
VERTEX
  5
5B1
330
155
100
AcDbEntity
  8
0
100
AcDbFaceRecord
 10
0.0
 20
0.0
 30
0.0
 70
   128
 71
   319
 72
   313
 73
  -312
  0
VERTEX
  5
5B2
330
155
100
AcDbEntity
  8
0
100
AcDbFaceRecord
 10
0.0
 20
0.0
 30
0.0
 70
   128
 71
   313
 72
   319
 73
   320
  0
VERTEX
  5
5B3
330
155
100
AcDbEntity
  8
0
100
AcDbFaceRecord
 10
0.0
 20
0.0
 30
0.0
 70
   128
 71
   320
 72
   314
 73
  -313
  0
VERTEX
  5
5B4
330
155
100
AcDbEntity
  8
0
100
AcDbFaceRecord
 10
0.0
 20
0.0
 30
0.0
 70
   128
 71
   314
 72
   320
 73
   321
  0
VERTEX
  5
5B5
330
155
100
AcDbEntity
  8
0
100
AcDbFaceRecord
 10
0.0
 20
0.0
 30
0.0
 70
   128
 71
   321
 72
   315
 73
  -314
  0
VERTEX
  5
5B6
330
155
100
AcDbEntity
  8
0
100
AcDbFaceRecord
 10
0.0
 20
0.0
 30
0.0
 70
   128
 71
   316
 72
   322
 73
   323
  0
VERTEX
  5
5B7
330
155
100
AcDbEntity
  8
0
100
AcDbFaceRecord
 10
0.0
 20
0.0
 30
0.0
 70
   128
 71
   323
 72
   317
 73
  -316
  0
VERTEX
  5
5B8
330
155
100
AcDbEntity
  8
0
100
AcDbFaceRecord
 10
0.0
 20
0.0
 30
0.0
 70
   128
 71
   317
 72
   323
 73
   324
  0
VERTEX
  5
5B9
330
155
100
AcDbEntity
  8
0
100
AcDbFaceRecord
 10
0.0
 20
0.0
 30
0.0
 70
   128
 71
   324
 72
   318
 73
  -317
  0
VERTEX
  5
5BA
330
155
100
AcDbEntity
  8
0
100
AcDbFaceRecord
 10
0.0
 20
0.0
 30
0.0
 70
   128
 71
   318
 72
   324
 73
   325
  0
VERTEX
  5
5BB
330
155
100
AcDbEntity
  8
0
100
AcDbFaceRecord
 10
0.0
 20
0.0
 30
0.0
 70
   128
 71
   325
 72
   319
 73
  -318
  0
VERTEX
  5
5BC
330
155
100
AcDbEntity
  8
0
100
AcDbFaceRecord
 10
0.0
 20
0.0
 30
0.0
 70
   128
 71
   319
 72
   325
 73
   326
  0
VERTEX
  5
5BD
330
155
100
AcDbEntity
  8
0
100
AcDbFaceRecord
 10
0.0
 20
0.0
 30
0.0
 70
   128
 71
   326
 72
   320
 73
  -319
  0
VERTEX
  5
5BE
330
155
100
AcDbEntity
  8
0
100
AcDbFaceRecord
 10
0.0
 20
0.0
 30
0.0
 70
   128
 71
   320
 72
   326
 73
   327
  0
VERTEX
  5
5BF
330
155
100
AcDbEntity
  8
0
100
AcDbFaceRecord
 10
0.0
 20
0.0
 30
0.0
 70
   128
 71
   327
 72
   321
 73
  -320
  0
VERTEX
  5
5C0
330
155
100
AcDbEntity
  8
0
100
AcDbFaceRecord
 10
0.0
 20
0.0
 30
0.0
 70
   128
 71
   322
 72
   328
 73
   329
  0
VERTEX
  5
5C1
330
155
100
AcDbEntity
  8
0
100
AcDbFaceRecord
 10
0.0
 20
0.0
 30
0.0
 70
   128
 71
   329
 72
   323
 73
  -322
  0
VERTEX
  5
5C2
330
155
100
AcDbEntity
  8
0
100
AcDbFaceRecord
 10
0.0
 20
0.0
 30
0.0
 70
   128
 71
   323
 72
   329
 73
   330
  0
VERTEX
  5
5C3
330
155
100
AcDbEntity
  8
0
100
AcDbFaceRecord
 10
0.0
 20
0.0
 30
0.0
 70
   128
 71
   330
 72
   324
 73
  -323
  0
VERTEX
  5
5C4
330
155
100
AcDbEntity
  8
0
100
AcDbFaceRecord
 10
0.0
 20
0.0
 30
0.0
 70
   128
 71
   324
 72
   330
 73
   331
  0
VERTEX
  5
5C5
330
155
100
AcDbEntity
  8
0
100
AcDbFaceRecord
 10
0.0
 20
0.0
 30
0.0
 70
   128
 71
   331
 72
   325
 73
  -324
  0
VERTEX
  5
5C6
330
155
100
AcDbEntity
  8
0
100
AcDbFaceRecord
 10
0.0
 20
0.0
 30
0.0
 70
   128
 71
   325
 72
   331
 73
   332
  0
VERTEX
  5
5C7
330
155
100
AcDbEntity
  8
0
100
AcDbFaceRecord
 10
0.0
 20
0.0
 30
0.0
 70
   128
 71
   332
 72
   326
 73
  -325
  0
VERTEX
  5
5C8
330
155
100
AcDbEntity
  8
0
100
AcDbFaceRecord
 10
0.0
 20
0.0
 30
0.0
 70
   128
 71
   326
 72
   332
 73
   333
  0
VERTEX
  5
5C9
330
155
100
AcDbEntity
  8
0
100
AcDbFaceRecord
 10
0.0
 20
0.0
 30
0.0
 70
   128
 71
   333
 72
   327
 73
  -326
  0
VERTEX
  5
5CA
330
155
100
AcDbEntity
  8
0
100
AcDbFaceRecord
 10
0.0
 20
0.0
 30
0.0
 70
   128
 71
   328
 72
   334
 73
   335
  0
VERTEX
  5
5CB
330
155
100
AcDbEntity
  8
0
100
AcDbFaceRecord
 10
0.0
 20
0.0
 30
0.0
 70
   128
 71
   335
 72
   329
 73
  -328
  0
VERTEX
  5
5CC
330
155
100
AcDbEntity
  8
0
100
AcDbFaceRecord
 10
0.0
 20
0.0
 30
0.0
 70
   128
 71
   329
 72
   335
 73
   336
  0
VERTEX
  5
5CD
330
155
100
AcDbEntity
  8
0
100
AcDbFaceRecord
 10
0.0
 20
0.0
 30
0.0
 70
   128
 71
   336
 72
   330
 73
  -329
  0
VERTEX
  5
5CE
330
155
100
AcDbEntity
  8
0
100
AcDbFaceRecord
 10
0.0
 20
0.0
 30
0.0
 70
   128
 71
   330
 72
   336
 73
   337
  0
VERTEX
  5
5CF
330
155
100
AcDbEntity
  8
0
100
AcDbFaceRecord
 10
0.0
 20
0.0
 30
0.0
 70
   128
 71
   337
 72
   331
 73
  -330
  0
VERTEX
  5
5D0
330
155
100
AcDbEntity
  8
0
100
AcDbFaceRecord
 10
0.0
 20
0.0
 30
0.0
 70
   128
 71
   331
 72
   337
 73
   338
  0
VERTEX
  5
5D1
330
155
100
AcDbEntity
  8
0
100
AcDbFaceRecord
 10
0.0
 20
0.0
 30
0.0
 70
   128
 71
   338
 72
   332
 73
  -331
  0
VERTEX
  5
5D2
330
155
100
AcDbEntity
  8
0
100
AcDbFaceRecord
 10
0.0
 20
0.0
 30
0.0
 70
   128
 71
   332
 72
   338
 73
   339
  0
VERTEX
  5
5D3
330
155
100
AcDbEntity
  8
0
100
AcDbFaceRecord
 10
0.0
 20
0.0
 30
0.0
 70
   128
 71
   339
 72
   333
 73
  -332
  0
VERTEX
  5
5D4
330
155
100
AcDbEntity
  8
0
100
AcDbFaceRecord
 10
0.0
 20
0.0
 30
0.0
 70
   128
 71
   334
 72
   340
 73
   341
  0
VERTEX
  5
5D5
330
155
100
AcDbEntity
  8
0
100
AcDbFaceRecord
 10
0.0
 20
0.0
 30
0.0
 70
   128
 71
   341
 72
   335
 73
  -334
  0
VERTEX
  5
5D6
330
155
100
AcDbEntity
  8
0
100
AcDbFaceRecord
 10
0.0
 20
0.0
 30
0.0
 70
   128
 71
   335
 72
   341
 73
   342
  0
VERTEX
  5
5D7
330
155
100
AcDbEntity
  8
0
100
AcDbFaceRecord
 10
0.0
 20
0.0
 30
0.0
 70
   128
 71
   342
 72
   336
 73
  -335
  0
VERTEX
  5
5D8
330
155
100
AcDbEntity
  8
0
100
AcDbFaceRecord
 10
0.0
 20
0.0
 30
0.0
 70
   128
 71
   336
 72
   342
 73
   343
  0
VERTEX
  5
5D9
330
155
100
AcDbEntity
  8
0
100
AcDbFaceRecord
 10
0.0
 20
0.0
 30
0.0
 70
   128
 71
   343
 72
   337
 73
  -336
  0
VERTEX
  5
5DA
330
155
100
AcDbEntity
  8
0
100
AcDbFaceRecord
 10
0.0
 20
0.0
 30
0.0
 70
   128
 71
   337
 72
   343
 73
   344
  0
VERTEX
  5
5DB
330
155
100
AcDbEntity
  8
0
100
AcDbFaceRecord
 10
0.0
 20
0.0
 30
0.0
 70
   128
 71
   344
 72
   338
 73
  -337
  0
VERTEX
  5
5DC
330
155
100
AcDbEntity
  8
0
100
AcDbFaceRecord
 10
0.0
 20
0.0
 30
0.0
 70
   128
 71
   338
 72
   344
 73
   345
  0
VERTEX
  5
5DD
330
155
100
AcDbEntity
  8
0
100
AcDbFaceRecord
 10
0.0
 20
0.0
 30
0.0
 70
   128
 71
   345
 72
   339
 73
  -338
  0
VERTEX
  5
5DE
330
155
100
AcDbEntity
  8
0
100
AcDbFaceRecord
 10
0.0
 20
0.0
 30
0.0
 70
   128
 71
   340
 72
   346
 73
   347
  0
VERTEX
  5
5DF
330
155
100
AcDbEntity
  8
0
100
AcDbFaceRecord
 10
0.0
 20
0.0
 30
0.0
 70
   128
 71
   347
 72
   341
 73
  -340
  0
VERTEX
  5
5E0
330
155
100
AcDbEntity
  8
0
100
AcDbFaceRecord
 10
0.0
 20
0.0
 30
0.0
 70
   128
 71
   341
 72
   347
 73
   348
  0
VERTEX
  5
5E1
330
155
100
AcDbEntity
  8
0
100
AcDbFaceRecord
 10
0.0
 20
0.0
 30
0.0
 70
   128
 71
   348
 72
   342
 73
  -341
  0
VERTEX
  5
5E2
330
155
100
AcDbEntity
  8
0
100
AcDbFaceRecord
 10
0.0
 20
0.0
 30
0.0
 70
   128
 71
   342
 72
   348
 73
   349
  0
VERTEX
  5
5E3
330
155
100
AcDbEntity
  8
0
100
AcDbFaceRecord
 10
0.0
 20
0.0
 30
0.0
 70
   128
 71
   349
 72
   343
 73
  -342
  0
VERTEX
  5
5E4
330
155
100
AcDbEntity
  8
0
100
AcDbFaceRecord
 10
0.0
 20
0.0
 30
0.0
 70
   128
 71
   343
 72
   349
 73
   350
  0
VERTEX
  5
5E5
330
155
100
AcDbEntity
  8
0
100
AcDbFaceRecord
 10
0.0
 20
0.0
 30
0.0
 70
   128
 71
   350
 72
   344
 73
  -343
  0
VERTEX
  5
5E6
330
155
100
AcDbEntity
  8
0
100
AcDbFaceRecord
 10
0.0
 20
0.0
 30
0.0
 70
   128
 71
   344
 72
   350
 73
   351
  0
VERTEX
  5
5E7
330
155
100
AcDbEntity
  8
0
100
AcDbFaceRecord
 10
0.0
 20
0.0
 30
0.0
 70
   128
 71
   351
 72
   345
 73
  -344
  0
VERTEX
  5
5E8
330
155
100
AcDbEntity
  8
0
100
AcDbFaceRecord
 10
0.0
 20
0.0
 30
0.0
 70
   128
 71
   346
 72
   352
 73
   353
  0
VERTEX
  5
5E9
330
155
100
AcDbEntity
  8
0
100
AcDbFaceRecord
 10
0.0
 20
0.0
 30
0.0
 70
   128
 71
   353
 72
   347
 73
  -346
  0
VERTEX
  5
5EA
330
155
100
AcDbEntity
  8
0
100
AcDbFaceRecord
 10
0.0
 20
0.0
 30
0.0
 70
   128
 71
   347
 72
   353
 73
   354
  0
VERTEX
  5
5EB
330
155
100
AcDbEntity
  8
0
100
AcDbFaceRecord
 10
0.0
 20
0.0
 30
0.0
 70
   128
 71
   354
 72
   348
 73
  -347
  0
VERTEX
  5
5EC
330
155
100
AcDbEntity
  8
0
100
AcDbFaceRecord
 10
0.0
 20
0.0
 30
0.0
 70
   128
 71
   348
 72
   354
 73
   355
  0
VERTEX
  5
5ED
330
155
100
AcDbEntity
  8
0
100
AcDbFaceRecord
 10
0.0
 20
0.0
 30
0.0
 70
   128
 71
   355
 72
   349
 73
  -348
  0
VERTEX
  5
5EE
330
155
100
AcDbEntity
  8
0
100
AcDbFaceRecord
 10
0.0
 20
0.0
 30
0.0
 70
   128
 71
   349
 72
   355
 73
   356
  0
VERTEX
  5
5EF
330
155
100
AcDbEntity
  8
0
100
AcDbFaceRecord
 10
0.0
 20
0.0
 30
0.0
 70
   128
 71
   356
 72
   350
 73
  -349
  0
VERTEX
  5
5F0
330
155
100
AcDbEntity
  8
0
100
AcDbFaceRecord
 10
0.0
 20
0.0
 30
0.0
 70
   128
 71
   350
 72
   356
 73
   357
  0
VERTEX
  5
5F1
330
155
100
AcDbEntity
  8
0
100
AcDbFaceRecord
 10
0.0
 20
0.0
 30
0.0
 70
   128
 71
   357
 72
   351
 73
  -350
  0
VERTEX
  5
5F2
330
155
100
AcDbEntity
  8
0
100
AcDbFaceRecord
 10
0.0
 20
0.0
 30
0.0
 70
   128
 71
   352
 72
   358
 73
   359
  0
VERTEX
  5
5F3
330
155
100
AcDbEntity
  8
0
100
AcDbFaceRecord
 10
0.0
 20
0.0
 30
0.0
 70
   128
 71
   359
 72
   353
 73
  -352
  0
VERTEX
  5
5F4
330
155
100
AcDbEntity
  8
0
100
AcDbFaceRecord
 10
0.0
 20
0.0
 30
0.0
 70
   128
 71
   353
 72
   359
 73
   360
  0
VERTEX
  5
5F5
330
155
100
AcDbEntity
  8
0
100
AcDbFaceRecord
 10
0.0
 20
0.0
 30
0.0
 70
   128
 71
   360
 72
   354
 73
  -353
  0
VERTEX
  5
5F6
330
155
100
AcDbEntity
  8
0
100
AcDbFaceRecord
 10
0.0
 20
0.0
 30
0.0
 70
   128
 71
   354
 72
   360
 73
   361
  0
VERTEX
  5
5F7
330
155
100
AcDbEntity
  8
0
100
AcDbFaceRecord
 10
0.0
 20
0.0
 30
0.0
 70
   128
 71
   361
 72
   355
 73
  -354
  0
VERTEX
  5
5F8
330
155
100
AcDbEntity
  8
0
100
AcDbFaceRecord
 10
0.0
 20
0.0
 30
0.0
 70
   128
 71
   355
 72
   361
 73
   362
  0
VERTEX
  5
5F9
330
155
100
AcDbEntity
  8
0
100
AcDbFaceRecord
 10
0.0
 20
0.0
 30
0.0
 70
   128
 71
   362
 72
   356
 73
  -355
  0
VERTEX
  5
5FA
330
155
100
AcDbEntity
  8
0
100
AcDbFaceRecord
 10
0.0
 20
0.0
 30
0.0
 70
   128
 71
   356
 72
   362
 73
   363
  0
VERTEX
  5
5FB
330
155
100
AcDbEntity
  8
0
100
AcDbFaceRecord
 10
0.0
 20
0.0
 30
0.0
 70
   128
 71
   363
 72
   357
 73
  -356
  0
VERTEX
  5
5FC
330
155
100
AcDbEntity
  8
0
100
AcDbFaceRecord
 10
0.0
 20
0.0
 30
0.0
 70
   128
 71
   358
 72
   364
 73
   365
  0
VERTEX
  5
5FD
330
155
100
AcDbEntity
  8
0
100
AcDbFaceRecord
 10
0.0
 20
0.0
 30
0.0
 70
   128
 71
   365
 72
   359
 73
  -358
  0
VERTEX
  5
5FE
330
155
100
AcDbEntity
  8
0
100
AcDbFaceRecord
 10
0.0
 20
0.0
 30
0.0
 70
   128
 71
   359
 72
   365
 73
   366
  0
VERTEX
  5
5FF
330
155
100
AcDbEntity
  8
0
100
AcDbFaceRecord
 10
0.0
 20
0.0
 30
0.0
 70
   128
 71
   366
 72
   360
 73
  -359
  0
VERTEX
  5
600
330
155
100
AcDbEntity
  8
0
100
AcDbFaceRecord
 10
0.0
 20
0.0
 30
0.0
 70
   128
 71
   360
 72
   366
 73
   367
  0
VERTEX
  5
601
330
155
100
AcDbEntity
  8
0
100
AcDbFaceRecord
 10
0.0
 20
0.0
 30
0.0
 70
   128
 71
   367
 72
   361
 73
  -360
  0
VERTEX
  5
602
330
155
100
AcDbEntity
  8
0
100
AcDbFaceRecord
 10
0.0
 20
0.0
 30
0.0
 70
   128
 71
   361
 72
   367
 73
   368
  0
VERTEX
  5
603
330
155
100
AcDbEntity
  8
0
100
AcDbFaceRecord
 10
0.0
 20
0.0
 30
0.0
 70
   128
 71
   368
 72
   362
 73
  -361
  0
VERTEX
  5
604
330
155
100
AcDbEntity
  8
0
100
AcDbFaceRecord
 10
0.0
 20
0.0
 30
0.0
 70
   128
 71
   362
 72
   368
 73
   369
  0
VERTEX
  5
605
330
155
100
AcDbEntity
  8
0
100
AcDbFaceRecord
 10
0.0
 20
0.0
 30
0.0
 70
   128
 71
   369
 72
   363
 73
  -362
  0
VERTEX
  5
606
330
155
100
AcDbEntity
  8
0
100
AcDbFaceRecord
 10
0.0
 20
0.0
 30
0.0
 70
   128
 71
   364
 72
   370
 73
   371
  0
VERTEX
  5
607
330
155
100
AcDbEntity
  8
0
100
AcDbFaceRecord
 10
0.0
 20
0.0
 30
0.0
 70
   128
 71
   371
 72
   365
 73
  -364
  0
VERTEX
  5
608
330
155
100
AcDbEntity
  8
0
100
AcDbFaceRecord
 10
0.0
 20
0.0
 30
0.0
 70
   128
 71
   365
 72
   371
 73
   372
  0
VERTEX
  5
609
330
155
100
AcDbEntity
  8
0
100
AcDbFaceRecord
 10
0.0
 20
0.0
 30
0.0
 70
   128
 71
   372
 72
   366
 73
  -365
  0
VERTEX
  5
60A
330
155
100
AcDbEntity
  8
0
100
AcDbFaceRecord
 10
0.0
 20
0.0
 30
0.0
 70
   128
 71
   366
 72
   372
 73
   373
  0
VERTEX
  5
60B
330
155
100
AcDbEntity
  8
0
100
AcDbFaceRecord
 10
0.0
 20
0.0
 30
0.0
 70
   128
 71
   373
 72
   367
 73
  -366
  0
VERTEX
  5
60C
330
155
100
AcDbEntity
  8
0
100
AcDbFaceRecord
 10
0.0
 20
0.0
 30
0.0
 70
   128
 71
   367
 72
   373
 73
   374
  0
VERTEX
  5
60D
330
155
100
AcDbEntity
  8
0
100
AcDbFaceRecord
 10
0.0
 20
0.0
 30
0.0
 70
   128
 71
   374
 72
   368
 73
  -367
  0
VERTEX
  5
60E
330
155
100
AcDbEntity
  8
0
100
AcDbFaceRecord
 10
0.0
 20
0.0
 30
0.0
 70
   128
 71
   368
 72
   374
 73
   375
  0
VERTEX
  5
60F
330
155
100
AcDbEntity
  8
0
100
AcDbFaceRecord
 10
0.0
 20
0.0
 30
0.0
 70
   128
 71
   375
 72
   369
 73
  -368
  0
VERTEX
  5
610
330
155
100
AcDbEntity
  8
0
100
AcDbFaceRecord
 10
0.0
 20
0.0
 30
0.0
 70
   128
 71
   370
 72
   376
 73
   377
  0
VERTEX
  5
611
330
155
100
AcDbEntity
  8
0
100
AcDbFaceRecord
 10
0.0
 20
0.0
 30
0.0
 70
   128
 71
   377
 72
   371
 73
  -370
  0
VERTEX
  5
612
330
155
100
AcDbEntity
  8
0
100
AcDbFaceRecord
 10
0.0
 20
0.0
 30
0.0
 70
   128
 71
   371
 72
   377
 73
   378
  0
VERTEX
  5
613
330
155
100
AcDbEntity
  8
0
100
AcDbFaceRecord
 10
0.0
 20
0.0
 30
0.0
 70
   128
 71
   378
 72
   372
 73
  -371
  0
VERTEX
  5
614
330
155
100
AcDbEntity
  8
0
100
AcDbFaceRecord
 10
0.0
 20
0.0
 30
0.0
 70
   128
 71
   372
 72
   378
 73
   379
  0
VERTEX
  5
615
330
155
100
AcDbEntity
  8
0
100
AcDbFaceRecord
 10
0.0
 20
0.0
 30
0.0
 70
   128
 71
   379
 72
   373
 73
  -372
  0
VERTEX
  5
616
330
155
100
AcDbEntity
  8
0
100
AcDbFaceRecord
 10
0.0
 20
0.0
 30
0.0
 70
   128
 71
   373
 72
   379
 73
   380
  0
VERTEX
  5
617
330
155
100
AcDbEntity
  8
0
100
AcDbFaceRecord
 10
0.0
 20
0.0
 30
0.0
 70
   128
 71
   380
 72
   374
 73
  -373
  0
VERTEX
  5
618
330
155
100
AcDbEntity
  8
0
100
AcDbFaceRecord
 10
0.0
 20
0.0
 30
0.0
 70
   128
 71
   374
 72
   380
 73
   381
  0
VERTEX
  5
619
330
155
100
AcDbEntity
  8
0
100
AcDbFaceRecord
 10
0.0
 20
0.0
 30
0.0
 70
   128
 71
   381
 72
   375
 73
  -374
  0
VERTEX
  5
61A
330
155
100
AcDbEntity
  8
0
100
AcDbFaceRecord
 10
0.0
 20
0.0
 30
0.0
 70
   128
 71
   376
 72
   382
 73
   383
  0
VERTEX
  5
61B
330
155
100
AcDbEntity
  8
0
100
AcDbFaceRecord
 10
0.0
 20
0.0
 30
0.0
 70
   128
 71
   383
 72
   377
 73
  -376
  0
VERTEX
  5
61C
330
155
100
AcDbEntity
  8
0
100
AcDbFaceRecord
 10
0.0
 20
0.0
 30
0.0
 70
   128
 71
   377
 72
   383
 73
   384
  0
VERTEX
  5
61D
330
155
100
AcDbEntity
  8
0
100
AcDbFaceRecord
 10
0.0
 20
0.0
 30
0.0
 70
   128
 71
   384
 72
   378
 73
  -377
  0
VERTEX
  5
61E
330
155
100
AcDbEntity
  8
0
100
AcDbFaceRecord
 10
0.0
 20
0.0
 30
0.0
 70
   128
 71
   378
 72
   384
 73
   385
  0
VERTEX
  5
61F
330
155
100
AcDbEntity
  8
0
100
AcDbFaceRecord
 10
0.0
 20
0.0
 30
0.0
 70
   128
 71
   385
 72
   379
 73
  -378
  0
VERTEX
  5
620
330
155
100
AcDbEntity
  8
0
100
AcDbFaceRecord
 10
0.0
 20
0.0
 30
0.0
 70
   128
 71
   379
 72
   385
 73
   386
  0
VERTEX
  5
621
330
155
100
AcDbEntity
  8
0
100
AcDbFaceRecord
 10
0.0
 20
0.0
 30
0.0
 70
   128
 71
   386
 72
   380
 73
  -379
  0
VERTEX
  5
622
330
155
100
AcDbEntity
  8
0
100
AcDbFaceRecord
 10
0.0
 20
0.0
 30
0.0
 70
   128
 71
   380
 72
   386
 73
   387
  0
VERTEX
  5
623
330
155
100
AcDbEntity
  8
0
100
AcDbFaceRecord
 10
0.0
 20
0.0
 30
0.0
 70
   128
 71
   387
 72
   381
 73
  -380
  0
VERTEX
  5
624
330
155
100
AcDbEntity
  8
0
100
AcDbFaceRecord
 10
0.0
 20
0.0
 30
0.0
 70
   128
 71
   382
 72
    98
 73
    97
  0
VERTEX
  5
625
330
155
100
AcDbEntity
  8
0
100
AcDbFaceRecord
 10
0.0
 20
0.0
 30
0.0
 70
   128
 71
    97
 72
   383
 73
  -382
  0
VERTEX
  5
626
330
155
100
AcDbEntity
  8
0
100
AcDbFaceRecord
 10
0.0
 20
0.0
 30
0.0
 70
   128
 71
   383
 72
    97
 73
    99
  0
VERTEX
  5
627
330
155
100
AcDbEntity
  8
0
100
AcDbFaceRecord
 10
0.0
 20
0.0
 30
0.0
 70
   128
 71
    99
 72
   384
 73
  -383
  0
VERTEX
  5
628
330
155
100
AcDbEntity
  8
0
100
AcDbFaceRecord
 10
0.0
 20
0.0
 30
0.0
 70
   128
 71
   384
 72
    99
 73
   100
  0
VERTEX
  5
629
330
155
100
AcDbEntity
  8
0
100
AcDbFaceRecord
 10
0.0
 20
0.0
 30
0.0
 70
   128
 71
   100
 72
   385
 73
  -384
  0
VERTEX
  5
62A
330
155
100
AcDbEntity
  8
0
100
AcDbFaceRecord
 10
0.0
 20
0.0
 30
0.0
 70
   128
 71
   385
 72
   100
 73
   101
  0
VERTEX
  5
62B
330
155
100
AcDbEntity
  8
0
100
AcDbFaceRecord
 10
0.0
 20
0.0
 30
0.0
 70
   128
 71
   101
 72
   386
 73
  -385
  0
VERTEX
  5
62C
330
155
100
AcDbEntity
  8
0
100
AcDbFaceRecord
 10
0.0
 20
0.0
 30
0.0
 70
   128
 71
   386
 72
   101
 73
   102
  0
VERTEX
  5
62D
330
155
100
AcDbEntity
  8
0
100
AcDbFaceRecord
 10
0.0
 20
0.0
 30
0.0
 70
   128
 71
   102
 72
   387
 73
  -386
  0
VERTEX
  5
62E
330
155
100
AcDbEntity
  8
0
100
AcDbFaceRecord
 10
0.0
 20
0.0
 30
0.0
 70
   128
 71
   363
 72
   388
 73
   389
  0
VERTEX
  5
62F
330
155
100
AcDbEntity
  8
0
100
AcDbFaceRecord
 10
0.0
 20
0.0
 30
0.0
 70
   128
 71
   389
 72
   357
 73
  -363
  0
VERTEX
  5
630
330
155
100
AcDbEntity
  8
0
100
AcDbFaceRecord
 10
0.0
 20
0.0
 30
0.0
 70
   128
 71
   388
 72
   390
 73
   391
  0
VERTEX
  5
631
330
155
100
AcDbEntity
  8
0
100
AcDbFaceRecord
 10
0.0
 20
0.0
 30
0.0
 70
   128
 71
   391
 72
   389
 73
  -388
  0
VERTEX
  5
632
330
155
100
AcDbEntity
  8
0
100
AcDbFaceRecord
 10
0.0
 20
0.0
 30
0.0
 70
   128
 71
   390
 72
   392
 73
   393
  0
VERTEX
  5
633
330
155
100
AcDbEntity
  8
0
100
AcDbFaceRecord
 10
0.0
 20
0.0
 30
0.0
 70
   128
 71
   393
 72
   391
 73
  -390
  0
VERTEX
  5
634
330
155
100
AcDbEntity
  8
0
100
AcDbFaceRecord
 10
0.0
 20
0.0
 30
0.0
 70
   128
 71
   392
 72
   394
 73
   395
  0
VERTEX
  5
635
330
155
100
AcDbEntity
  8
0
100
AcDbFaceRecord
 10
0.0
 20
0.0
 30
0.0
 70
   128
 71
   395
 72
   393
 73
  -392
  0
VERTEX
  5
636
330
155
100
AcDbEntity
  8
0
100
AcDbFaceRecord
 10
0.0
 20
0.0
 30
0.0
 70
   128
 71
   394
 72
   396
 73
   397
  0
VERTEX
  5
637
330
155
100
AcDbEntity
  8
0
100
AcDbFaceRecord
 10
0.0
 20
0.0
 30
0.0
 70
   128
 71
   397
 72
   395
 73
  -394
  0
VERTEX
  5
638
330
155
100
AcDbEntity
  8
0
100
AcDbFaceRecord
 10
0.0
 20
0.0
 30
0.0
 70
   128
 71
   396
 72
   398
 73
   399
  0
VERTEX
  5
639
330
155
100
AcDbEntity
  8
0
100
AcDbFaceRecord
 10
0.0
 20
0.0
 30
0.0
 70
   128
 71
   399
 72
   397
 73
  -396
  0
VERTEX
  5
63A
330
155
100
AcDbEntity
  8
0
100
AcDbFaceRecord
 10
0.0
 20
0.0
 30
0.0
 70
   128
 71
   398
 72
   400
 73
   401
  0
VERTEX
  5
63B
330
155
100
AcDbEntity
  8
0
100
AcDbFaceRecord
 10
0.0
 20
0.0
 30
0.0
 70
   128
 71
   401
 72
   399
 73
  -398
  0
VERTEX
  5
63C
330
155
100
AcDbEntity
  8
0
100
AcDbFaceRecord
 10
0.0
 20
0.0
 30
0.0
 70
   128
 71
   400
 72
   402
 73
   403
  0
VERTEX
  5
63D
330
155
100
AcDbEntity
  8
0
100
AcDbFaceRecord
 10
0.0
 20
0.0
 30
0.0
 70
   128
 71
   403
 72
   401
 73
  -400
  0
VERTEX
  5
63E
330
155
100
AcDbEntity
  8
0
100
AcDbFaceRecord
 10
0.0
 20
0.0
 30
0.0
 70
   128
 71
   402
 72
   404
 73
   405
  0
VERTEX
  5
63F
330
155
100
AcDbEntity
  8
0
100
AcDbFaceRecord
 10
0.0
 20
0.0
 30
0.0
 70
   128
 71
   405
 72
   403
 73
  -402
  0
VERTEX
  5
640
330
155
100
AcDbEntity
  8
0
100
AcDbFaceRecord
 10
0.0
 20
0.0
 30
0.0
 70
   128
 71
   404
 72
   406
 73
   407
  0
VERTEX
  5
641
330
155
100
AcDbEntity
  8
0
100
AcDbFaceRecord
 10
0.0
 20
0.0
 30
0.0
 70
   128
 71
   407
 72
   405
 73
  -404
  0
VERTEX
  5
642
330
155
100
AcDbEntity
  8
0
100
AcDbFaceRecord
 10
0.0
 20
0.0
 30
0.0
 70
   128
 71
   357
 72
   389
 73
   408
  0
VERTEX
  5
643
330
155
100
AcDbEntity
  8
0
100
AcDbFaceRecord
 10
0.0
 20
0.0
 30
0.0
 70
   128
 71
   408
 72
   351
 73
  -357
  0
VERTEX
  5
644
330
155
100
AcDbEntity
  8
0
100
AcDbFaceRecord
 10
0.0
 20
0.0
 30
0.0
 70
   128
 71
   389
 72
   391
 73
   409
  0
VERTEX
  5
645
330
155
100
AcDbEntity
  8
0
100
AcDbFaceRecord
 10
0.0
 20
0.0
 30
0.0
 70
   128
 71
   409
 72
   408
 73
  -389
  0
VERTEX
  5
646
330
155
100
AcDbEntity
  8
0
100
AcDbFaceRecord
 10
0.0
 20
0.0
 30
0.0
 70
   128
 71
   391
 72
   393
 73
   410
  0
VERTEX
  5
647
330
155
100
AcDbEntity
  8
0
100
AcDbFaceRecord
 10
0.0
 20
0.0
 30
0.0
 70
   128
 71
   410
 72
   409
 73
  -391
  0
VERTEX
  5
648
330
155
100
AcDbEntity
  8
0
100
AcDbFaceRecord
 10
0.0
 20
0.0
 30
0.0
 70
   128
 71
   393
 72
   395
 73
   411
  0
VERTEX
  5
649
330
155
100
AcDbEntity
  8
0
100
AcDbFaceRecord
 10
0.0
 20
0.0
 30
0.0
 70
   128
 71
   411
 72
   410
 73
  -393
  0
VERTEX
  5
64A
330
155
100
AcDbEntity
  8
0
100
AcDbFaceRecord
 10
0.0
 20
0.0
 30
0.0
 70
   128
 71
   395
 72
   397
 73
   412
  0
VERTEX
  5
64B
330
155
100
AcDbEntity
  8
0
100
AcDbFaceRecord
 10
0.0
 20
0.0
 30
0.0
 70
   128
 71
   412
 72
   411
 73
  -395
  0
VERTEX
  5
64C
330
155
100
AcDbEntity
  8
0
100
AcDbFaceRecord
 10
0.0
 20
0.0
 30
0.0
 70
   128
 71
   397
 72
   399
 73
   413
  0
VERTEX
  5
64D
330
155
100
AcDbEntity
  8
0
100
AcDbFaceRecord
 10
0.0
 20
0.0
 30
0.0
 70
   128
 71
   413
 72
   412
 73
  -397
  0
VERTEX
  5
64E
330
155
100
AcDbEntity
  8
0
100
AcDbFaceRecord
 10
0.0
 20
0.0
 30
0.0
 70
   128
 71
   399
 72
   401
 73
   414
  0
VERTEX
  5
64F
330
155
100
AcDbEntity
  8
0
100
AcDbFaceRecord
 10
0.0
 20
0.0
 30
0.0
 70
   128
 71
   414
 72
   413
 73
  -399
  0
VERTEX
  5
650
330
155
100
AcDbEntity
  8
0
100
AcDbFaceRecord
 10
0.0
 20
0.0
 30
0.0
 70
   128
 71
   401
 72
   403
 73
   415
  0
VERTEX
  5
651
330
155
100
AcDbEntity
  8
0
100
AcDbFaceRecord
 10
0.0
 20
0.0
 30
0.0
 70
   128
 71
   415
 72
   414
 73
  -401
  0
VERTEX
  5
652
330
155
100
AcDbEntity
  8
0
100
AcDbFaceRecord
 10
0.0
 20
0.0
 30
0.0
 70
   128
 71
   403
 72
   405
 73
   416
  0
VERTEX
  5
653
330
155
100
AcDbEntity
  8
0
100
AcDbFaceRecord
 10
0.0
 20
0.0
 30
0.0
 70
   128
 71
   416
 72
   415
 73
  -403
  0
VERTEX
  5
654
330
155
100
AcDbEntity
  8
0
100
AcDbFaceRecord
 10
0.0
 20
0.0
 30
0.0
 70
   128
 71
   405
 72
   407
 73
   417
  0
VERTEX
  5
655
330
155
100
AcDbEntity
  8
0
100
AcDbFaceRecord
 10
0.0
 20
0.0
 30
0.0
 70
   128
 71
   417
 72
   416
 73
  -405
  0
VERTEX
  5
656
330
155
100
AcDbEntity
  8
0
100
AcDbFaceRecord
 10
0.0
 20
0.0
 30
0.0
 70
   128
 71
   351
 72
   408
 73
   418
  0
VERTEX
  5
657
330
155
100
AcDbEntity
  8
0
100
AcDbFaceRecord
 10
0.0
 20
0.0
 30
0.0
 70
   128
 71
   418
 72
   345
 73
  -351
  0
VERTEX
  5
658
330
155
100
AcDbEntity
  8
0
100
AcDbFaceRecord
 10
0.0
 20
0.0
 30
0.0
 70
   128
 71
   408
 72
   409
 73
   419
  0
VERTEX
  5
659
330
155
100
AcDbEntity
  8
0
100
AcDbFaceRecord
 10
0.0
 20
0.0
 30
0.0
 70
   128
 71
   419
 72
   418
 73
  -408
  0
VERTEX
  5
65A
330
155
100
AcDbEntity
  8
0
100
AcDbFaceRecord
 10
0.0
 20
0.0
 30
0.0
 70
   128
 71
   409
 72
   410
 73
   420
  0
VERTEX
  5
65B
330
155
100
AcDbEntity
  8
0
100
AcDbFaceRecord
 10
0.0
 20
0.0
 30
0.0
 70
   128
 71
   420
 72
   419
 73
  -409
  0
VERTEX
  5
65C
330
155
100
AcDbEntity
  8
0
100
AcDbFaceRecord
 10
0.0
 20
0.0
 30
0.0
 70
   128
 71
   410
 72
   411
 73
   421
  0
VERTEX
  5
65D
330
155
100
AcDbEntity
  8
0
100
AcDbFaceRecord
 10
0.0
 20
0.0
 30
0.0
 70
   128
 71
   421
 72
   420
 73
  -410
  0
VERTEX
  5
65E
330
155
100
AcDbEntity
  8
0
100
AcDbFaceRecord
 10
0.0
 20
0.0
 30
0.0
 70
   128
 71
   411
 72
   412
 73
   422
  0
VERTEX
  5
65F
330
155
100
AcDbEntity
  8
0
100
AcDbFaceRecord
 10
0.0
 20
0.0
 30
0.0
 70
   128
 71
   422
 72
   421
 73
  -411
  0
VERTEX
  5
660
330
155
100
AcDbEntity
  8
0
100
AcDbFaceRecord
 10
0.0
 20
0.0
 30
0.0
 70
   128
 71
   412
 72
   413
 73
   423
  0
VERTEX
  5
661
330
155
100
AcDbEntity
  8
0
100
AcDbFaceRecord
 10
0.0
 20
0.0
 30
0.0
 70
   128
 71
   423
 72
   422
 73
  -412
  0
VERTEX
  5
662
330
155
100
AcDbEntity
  8
0
100
AcDbFaceRecord
 10
0.0
 20
0.0
 30
0.0
 70
   128
 71
   413
 72
   414
 73
   424
  0
VERTEX
  5
663
330
155
100
AcDbEntity
  8
0
100
AcDbFaceRecord
 10
0.0
 20
0.0
 30
0.0
 70
   128
 71
   424
 72
   423
 73
  -413
  0
VERTEX
  5
664
330
155
100
AcDbEntity
  8
0
100
AcDbFaceRecord
 10
0.0
 20
0.0
 30
0.0
 70
   128
 71
   414
 72
   415
 73
   425
  0
VERTEX
  5
665
330
155
100
AcDbEntity
  8
0
100
AcDbFaceRecord
 10
0.0
 20
0.0
 30
0.0
 70
   128
 71
   425
 72
   424
 73
  -414
  0
VERTEX
  5
666
330
155
100
AcDbEntity
  8
0
100
AcDbFaceRecord
 10
0.0
 20
0.0
 30
0.0
 70
   128
 71
   415
 72
   416
 73
   426
  0
VERTEX
  5
667
330
155
100
AcDbEntity
  8
0
100
AcDbFaceRecord
 10
0.0
 20
0.0
 30
0.0
 70
   128
 71
   426
 72
   425
 73
  -415
  0
VERTEX
  5
668
330
155
100
AcDbEntity
  8
0
100
AcDbFaceRecord
 10
0.0
 20
0.0
 30
0.0
 70
   128
 71
   416
 72
   417
 73
   427
  0
VERTEX
  5
669
330
155
100
AcDbEntity
  8
0
100
AcDbFaceRecord
 10
0.0
 20
0.0
 30
0.0
 70
   128
 71
   427
 72
   426
 73
  -416
  0
VERTEX
  5
66A
330
155
100
AcDbEntity
  8
0
100
AcDbFaceRecord
 10
0.0
 20
0.0
 30
0.0
 70
   128
 71
   345
 72
   418
 73
   428
  0
VERTEX
  5
66B
330
155
100
AcDbEntity
  8
0
100
AcDbFaceRecord
 10
0.0
 20
0.0
 30
0.0
 70
   128
 71
   428
 72
   339
 73
  -345
  0
VERTEX
  5
66C
330
155
100
AcDbEntity
  8
0
100
AcDbFaceRecord
 10
0.0
 20
0.0
 30
0.0
 70
   128
 71
   418
 72
   419
 73
   429
  0
VERTEX
  5
66D
330
155
100
AcDbEntity
  8
0
100
AcDbFaceRecord
 10
0.0
 20
0.0
 30
0.0
 70
   128
 71
   429
 72
   428
 73
  -418
  0
VERTEX
  5
66E
330
155
100
AcDbEntity
  8
0
100
AcDbFaceRecord
 10
0.0
 20
0.0
 30
0.0
 70
   128
 71
   419
 72
   420
 73
   430
  0
VERTEX
  5
66F
330
155
100
AcDbEntity
  8
0
100
AcDbFaceRecord
 10
0.0
 20
0.0
 30
0.0
 70
   128
 71
   430
 72
   429
 73
  -419
  0
VERTEX
  5
670
330
155
100
AcDbEntity
  8
0
100
AcDbFaceRecord
 10
0.0
 20
0.0
 30
0.0
 70
   128
 71
   420
 72
   421
 73
   431
  0
VERTEX
  5
671
330
155
100
AcDbEntity
  8
0
100
AcDbFaceRecord
 10
0.0
 20
0.0
 30
0.0
 70
   128
 71
   431
 72
   430
 73
  -420
  0
VERTEX
  5
672
330
155
100
AcDbEntity
  8
0
100
AcDbFaceRecord
 10
0.0
 20
0.0
 30
0.0
 70
   128
 71
   421
 72
   422
 73
   432
  0
VERTEX
  5
673
330
155
100
AcDbEntity
  8
0
100
AcDbFaceRecord
 10
0.0
 20
0.0
 30
0.0
 70
   128
 71
   432
 72
   431
 73
  -421
  0
VERTEX
  5
674
330
155
100
AcDbEntity
  8
0
100
AcDbFaceRecord
 10
0.0
 20
0.0
 30
0.0
 70
   128
 71
   422
 72
   423
 73
   433
  0
VERTEX
  5
675
330
155
100
AcDbEntity
  8
0
100
AcDbFaceRecord
 10
0.0
 20
0.0
 30
0.0
 70
   128
 71
   433
 72
   432
 73
  -422
  0
VERTEX
  5
676
330
155
100
AcDbEntity
  8
0
100
AcDbFaceRecord
 10
0.0
 20
0.0
 30
0.0
 70
   128
 71
   423
 72
   424
 73
   434
  0
VERTEX
  5
677
330
155
100
AcDbEntity
  8
0
100
AcDbFaceRecord
 10
0.0
 20
0.0
 30
0.0
 70
   128
 71
   434
 72
   433
 73
  -423
  0
VERTEX
  5
678
330
155
100
AcDbEntity
  8
0
100
AcDbFaceRecord
 10
0.0
 20
0.0
 30
0.0
 70
   128
 71
   424
 72
   425
 73
   435
  0
VERTEX
  5
679
330
155
100
AcDbEntity
  8
0
100
AcDbFaceRecord
 10
0.0
 20
0.0
 30
0.0
 70
   128
 71
   435
 72
   434
 73
  -424
  0
VERTEX
  5
67A
330
155
100
AcDbEntity
  8
0
100
AcDbFaceRecord
 10
0.0
 20
0.0
 30
0.0
 70
   128
 71
   425
 72
   426
 73
   436
  0
VERTEX
  5
67B
330
155
100
AcDbEntity
  8
0
100
AcDbFaceRecord
 10
0.0
 20
0.0
 30
0.0
 70
   128
 71
   436
 72
   435
 73
  -425
  0
VERTEX
  5
67C
330
155
100
AcDbEntity
  8
0
100
AcDbFaceRecord
 10
0.0
 20
0.0
 30
0.0
 70
   128
 71
   426
 72
   427
 73
   437
  0
VERTEX
  5
67D
330
155
100
AcDbEntity
  8
0
100
AcDbFaceRecord
 10
0.0
 20
0.0
 30
0.0
 70
   128
 71
   437
 72
   436
 73
  -426
  0
VERTEX
  5
67E
330
155
100
AcDbEntity
  8
0
100
AcDbFaceRecord
 10
0.0
 20
0.0
 30
0.0
 70
   128
 71
   339
 72
   428
 73
   438
  0
VERTEX
  5
67F
330
155
100
AcDbEntity
  8
0
100
AcDbFaceRecord
 10
0.0
 20
0.0
 30
0.0
 70
   128
 71
   438
 72
   333
 73
  -339
  0
VERTEX
  5
680
330
155
100
AcDbEntity
  8
0
100
AcDbFaceRecord
 10
0.0
 20
0.0
 30
0.0
 70
   128
 71
   428
 72
   429
 73
   439
  0
VERTEX
  5
681
330
155
100
AcDbEntity
  8
0
100
AcDbFaceRecord
 10
0.0
 20
0.0
 30
0.0
 70
   128
 71
   439
 72
   438
 73
  -428
  0
VERTEX
  5
682
330
155
100
AcDbEntity
  8
0
100
AcDbFaceRecord
 10
0.0
 20
0.0
 30
0.0
 70
   128
 71
   429
 72
   430
 73
   440
  0
VERTEX
  5
683
330
155
100
AcDbEntity
  8
0
100
AcDbFaceRecord
 10
0.0
 20
0.0
 30
0.0
 70
   128
 71
   440
 72
   439
 73
  -429
  0
VERTEX
  5
684
330
155
100
AcDbEntity
  8
0
100
AcDbFaceRecord
 10
0.0
 20
0.0
 30
0.0
 70
   128
 71
   430
 72
   431
 73
   441
  0
VERTEX
  5
685
330
155
100
AcDbEntity
  8
0
100
AcDbFaceRecord
 10
0.0
 20
0.0
 30
0.0
 70
   128
 71
   441
 72
   440
 73
  -430
  0
VERTEX
  5
686
330
155
100
AcDbEntity
  8
0
100
AcDbFaceRecord
 10
0.0
 20
0.0
 30
0.0
 70
   128
 71
   431
 72
   432
 73
   442
  0
VERTEX
  5
687
330
155
100
AcDbEntity
  8
0
100
AcDbFaceRecord
 10
0.0
 20
0.0
 30
0.0
 70
   128
 71
   442
 72
   441
 73
  -431
  0
VERTEX
  5
688
330
155
100
AcDbEntity
  8
0
100
AcDbFaceRecord
 10
0.0
 20
0.0
 30
0.0
 70
   128
 71
   432
 72
   433
 73
   443
  0
VERTEX
  5
689
330
155
100
AcDbEntity
  8
0
100
AcDbFaceRecord
 10
0.0
 20
0.0
 30
0.0
 70
   128
 71
   443
 72
   442
 73
  -432
  0
VERTEX
  5
68A
330
155
100
AcDbEntity
  8
0
100
AcDbFaceRecord
 10
0.0
 20
0.0
 30
0.0
 70
   128
 71
   433
 72
   434
 73
   444
  0
VERTEX
  5
68B
330
155
100
AcDbEntity
  8
0
100
AcDbFaceRecord
 10
0.0
 20
0.0
 30
0.0
 70
   128
 71
   444
 72
   443
 73
  -433
  0
VERTEX
  5
68C
330
155
100
AcDbEntity
  8
0
100
AcDbFaceRecord
 10
0.0
 20
0.0
 30
0.0
 70
   128
 71
   434
 72
   435
 73
   445
  0
VERTEX
  5
68D
330
155
100
AcDbEntity
  8
0
100
AcDbFaceRecord
 10
0.0
 20
0.0
 30
0.0
 70
   128
 71
   445
 72
   444
 73
  -434
  0
VERTEX
  5
68E
330
155
100
AcDbEntity
  8
0
100
AcDbFaceRecord
 10
0.0
 20
0.0
 30
0.0
 70
   128
 71
   435
 72
   436
 73
   446
  0
VERTEX
  5
68F
330
155
100
AcDbEntity
  8
0
100
AcDbFaceRecord
 10
0.0
 20
0.0
 30
0.0
 70
   128
 71
   446
 72
   445
 73
  -435
  0
VERTEX
  5
690
330
155
100
AcDbEntity
  8
0
100
AcDbFaceRecord
 10
0.0
 20
0.0
 30
0.0
 70
   128
 71
   436
 72
   437
 73
   447
  0
VERTEX
  5
691
330
155
100
AcDbEntity
  8
0
100
AcDbFaceRecord
 10
0.0
 20
0.0
 30
0.0
 70
   128
 71
   447
 72
   446
 73
  -436
  0
VERTEX
  5
692
330
155
100
AcDbEntity
  8
0
100
AcDbFaceRecord
 10
0.0
 20
0.0
 30
0.0
 70
   128
 71
   333
 72
   438
 73
   448
  0
VERTEX
  5
693
330
155
100
AcDbEntity
  8
0
100
AcDbFaceRecord
 10
0.0
 20
0.0
 30
0.0
 70
   128
 71
   448
 72
   327
 73
  -333
  0
VERTEX
  5
694
330
155
100
AcDbEntity
  8
0
100
AcDbFaceRecord
 10
0.0
 20
0.0
 30
0.0
 70
   128
 71
   438
 72
   439
 73
   449
  0
VERTEX
  5
695
330
155
100
AcDbEntity
  8
0
100
AcDbFaceRecord
 10
0.0
 20
0.0
 30
0.0
 70
   128
 71
   449
 72
   448
 73
  -438
  0
VERTEX
  5
696
330
155
100
AcDbEntity
  8
0
100
AcDbFaceRecord
 10
0.0
 20
0.0
 30
0.0
 70
   128
 71
   439
 72
   440
 73
   450
  0
VERTEX
  5
697
330
155
100
AcDbEntity
  8
0
100
AcDbFaceRecord
 10
0.0
 20
0.0
 30
0.0
 70
   128
 71
   450
 72
   449
 73
  -439
  0
VERTEX
  5
698
330
155
100
AcDbEntity
  8
0
100
AcDbFaceRecord
 10
0.0
 20
0.0
 30
0.0
 70
   128
 71
   440
 72
   441
 73
   451
  0
VERTEX
  5
699
330
155
100
AcDbEntity
  8
0
100
AcDbFaceRecord
 10
0.0
 20
0.0
 30
0.0
 70
   128
 71
   451
 72
   450
 73
  -440
  0
VERTEX
  5
69A
330
155
100
AcDbEntity
  8
0
100
AcDbFaceRecord
 10
0.0
 20
0.0
 30
0.0
 70
   128
 71
   441
 72
   442
 73
   452
  0
VERTEX
  5
69B
330
155
100
AcDbEntity
  8
0
100
AcDbFaceRecord
 10
0.0
 20
0.0
 30
0.0
 70
   128
 71
   452
 72
   451
 73
  -441
  0
VERTEX
  5
69C
330
155
100
AcDbEntity
  8
0
100
AcDbFaceRecord
 10
0.0
 20
0.0
 30
0.0
 70
   128
 71
   442
 72
   443
 73
   453
  0
VERTEX
  5
69D
330
155
100
AcDbEntity
  8
0
100
AcDbFaceRecord
 10
0.0
 20
0.0
 30
0.0
 70
   128
 71
   453
 72
   452
 73
  -442
  0
VERTEX
  5
69E
330
155
100
AcDbEntity
  8
0
100
AcDbFaceRecord
 10
0.0
 20
0.0
 30
0.0
 70
   128
 71
   443
 72
   444
 73
   454
  0
VERTEX
  5
69F
330
155
100
AcDbEntity
  8
0
100
AcDbFaceRecord
 10
0.0
 20
0.0
 30
0.0
 70
   128
 71
   454
 72
   453
 73
  -443
  0
VERTEX
  5
6A0
330
155
100
AcDbEntity
  8
0
100
AcDbFaceRecord
 10
0.0
 20
0.0
 30
0.0
 70
   128
 71
   444
 72
   445
 73
   455
  0
VERTEX
  5
6A1
330
155
100
AcDbEntity
  8
0
100
AcDbFaceRecord
 10
0.0
 20
0.0
 30
0.0
 70
   128
 71
   455
 72
   454
 73
  -444
  0
VERTEX
  5
6A2
330
155
100
AcDbEntity
  8
0
100
AcDbFaceRecord
 10
0.0
 20
0.0
 30
0.0
 70
   128
 71
   445
 72
   446
 73
   456
  0
VERTEX
  5
6A3
330
155
100
AcDbEntity
  8
0
100
AcDbFaceRecord
 10
0.0
 20
0.0
 30
0.0
 70
   128
 71
   456
 72
   455
 73
  -445
  0
VERTEX
  5
6A4
330
155
100
AcDbEntity
  8
0
100
AcDbFaceRecord
 10
0.0
 20
0.0
 30
0.0
 70
   128
 71
   446
 72
   447
 73
   457
  0
VERTEX
  5
6A5
330
155
100
AcDbEntity
  8
0
100
AcDbFaceRecord
 10
0.0
 20
0.0
 30
0.0
 70
   128
 71
   457
 72
   456
 73
  -446
  0
VERTEX
  5
6A6
330
155
100
AcDbEntity
  8
0
100
AcDbFaceRecord
 10
0.0
 20
0.0
 30
0.0
 70
   128
 71
   327
 72
   448
 73
   458
  0
VERTEX
  5
6A7
330
155
100
AcDbEntity
  8
0
100
AcDbFaceRecord
 10
0.0
 20
0.0
 30
0.0
 70
   128
 71
   458
 72
   321
 73
  -327
  0
VERTEX
  5
6A8
330
155
100
AcDbEntity
  8
0
100
AcDbFaceRecord
 10
0.0
 20
0.0
 30
0.0
 70
   128
 71
   448
 72
   449
 73
   459
  0
VERTEX
  5
6A9
330
155
100
AcDbEntity
  8
0
100
AcDbFaceRecord
 10
0.0
 20
0.0
 30
0.0
 70
   128
 71
   459
 72
   458
 73
  -448
  0
VERTEX
  5
6AA
330
155
100
AcDbEntity
  8
0
100
AcDbFaceRecord
 10
0.0
 20
0.0
 30
0.0
 70
   128
 71
   449
 72
   450
 73
   460
  0
VERTEX
  5
6AB
330
155
100
AcDbEntity
  8
0
100
AcDbFaceRecord
 10
0.0
 20
0.0
 30
0.0
 70
   128
 71
   460
 72
   459
 73
  -449
  0
VERTEX
  5
6AC
330
155
100
AcDbEntity
  8
0
100
AcDbFaceRecord
 10
0.0
 20
0.0
 30
0.0
 70
   128
 71
   450
 72
   451
 73
   461
  0
VERTEX
  5
6AD
330
155
100
AcDbEntity
  8
0
100
AcDbFaceRecord
 10
0.0
 20
0.0
 30
0.0
 70
   128
 71
   461
 72
   460
 73
  -450
  0
VERTEX
  5
6AE
330
155
100
AcDbEntity
  8
0
100
AcDbFaceRecord
 10
0.0
 20
0.0
 30
0.0
 70
   128
 71
   451
 72
   452
 73
   462
  0
VERTEX
  5
6AF
330
155
100
AcDbEntity
  8
0
100
AcDbFaceRecord
 10
0.0
 20
0.0
 30
0.0
 70
   128
 71
   462
 72
   461
 73
  -451
  0
VERTEX
  5
6B0
330
155
100
AcDbEntity
  8
0
100
AcDbFaceRecord
 10
0.0
 20
0.0
 30
0.0
 70
   128
 71
   452
 72
   453
 73
   463
  0
VERTEX
  5
6B1
330
155
100
AcDbEntity
  8
0
100
AcDbFaceRecord
 10
0.0
 20
0.0
 30
0.0
 70
   128
 71
   463
 72
   462
 73
  -452
  0
VERTEX
  5
6B2
330
155
100
AcDbEntity
  8
0
100
AcDbFaceRecord
 10
0.0
 20
0.0
 30
0.0
 70
   128
 71
   453
 72
   454
 73
   464
  0
VERTEX
  5
6B3
330
155
100
AcDbEntity
  8
0
100
AcDbFaceRecord
 10
0.0
 20
0.0
 30
0.0
 70
   128
 71
   464
 72
   463
 73
  -453
  0
VERTEX
  5
6B4
330
155
100
AcDbEntity
  8
0
100
AcDbFaceRecord
 10
0.0
 20
0.0
 30
0.0
 70
   128
 71
   454
 72
   455
 73
   465
  0
VERTEX
  5
6B5
330
155
100
AcDbEntity
  8
0
100
AcDbFaceRecord
 10
0.0
 20
0.0
 30
0.0
 70
   128
 71
   465
 72
   464
 73
  -454
  0
VERTEX
  5
6B6
330
155
100
AcDbEntity
  8
0
100
AcDbFaceRecord
 10
0.0
 20
0.0
 30
0.0
 70
   128
 71
   455
 72
   456
 73
   466
  0
VERTEX
  5
6B7
330
155
100
AcDbEntity
  8
0
100
AcDbFaceRecord
 10
0.0
 20
0.0
 30
0.0
 70
   128
 71
   466
 72
   465
 73
  -455
  0
VERTEX
  5
6B8
330
155
100
AcDbEntity
  8
0
100
AcDbFaceRecord
 10
0.0
 20
0.0
 30
0.0
 70
   128
 71
   456
 72
   457
 73
   467
  0
VERTEX
  5
6B9
330
155
100
AcDbEntity
  8
0
100
AcDbFaceRecord
 10
0.0
 20
0.0
 30
0.0
 70
   128
 71
   467
 72
   466
 73
  -456
  0
VERTEX
  5
6BA
330
155
100
AcDbEntity
  8
0
100
AcDbFaceRecord
 10
0.0
 20
0.0
 30
0.0
 70
   128
 71
   321
 72
   458
 73
   468
  0
VERTEX
  5
6BB
330
155
100
AcDbEntity
  8
0
100
AcDbFaceRecord
 10
0.0
 20
0.0
 30
0.0
 70
   128
 71
   468
 72
   315
 73
  -321
  0
VERTEX
  5
6BC
330
155
100
AcDbEntity
  8
0
100
AcDbFaceRecord
 10
0.0
 20
0.0
 30
0.0
 70
   128
 71
   458
 72
   459
 73
   469
  0
VERTEX
  5
6BD
330
155
100
AcDbEntity
  8
0
100
AcDbFaceRecord
 10
0.0
 20
0.0
 30
0.0
 70
   128
 71
   469
 72
   468
 73
  -458
  0
VERTEX
  5
6BE
330
155
100
AcDbEntity
  8
0
100
AcDbFaceRecord
 10
0.0
 20
0.0
 30
0.0
 70
   128
 71
   459
 72
   460
 73
   470
  0
VERTEX
  5
6BF
330
155
100
AcDbEntity
  8
0
100
AcDbFaceRecord
 10
0.0
 20
0.0
 30
0.0
 70
   128
 71
   470
 72
   469
 73
  -459
  0
VERTEX
  5
6C0
330
155
100
AcDbEntity
  8
0
100
AcDbFaceRecord
 10
0.0
 20
0.0
 30
0.0
 70
   128
 71
   460
 72
   461
 73
   471
  0
VERTEX
  5
6C1
330
155
100
AcDbEntity
  8
0
100
AcDbFaceRecord
 10
0.0
 20
0.0
 30
0.0
 70
   128
 71
   471
 72
   470
 73
  -460
  0
VERTEX
  5
6C2
330
155
100
AcDbEntity
  8
0
100
AcDbFaceRecord
 10
0.0
 20
0.0
 30
0.0
 70
   128
 71
   461
 72
   462
 73
   472
  0
VERTEX
  5
6C3
330
155
100
AcDbEntity
  8
0
100
AcDbFaceRecord
 10
0.0
 20
0.0
 30
0.0
 70
   128
 71
   472
 72
   471
 73
  -461
  0
VERTEX
  5
6C4
330
155
100
AcDbEntity
  8
0
100
AcDbFaceRecord
 10
0.0
 20
0.0
 30
0.0
 70
   128
 71
   462
 72
   463
 73
   473
  0
VERTEX
  5
6C5
330
155
100
AcDbEntity
  8
0
100
AcDbFaceRecord
 10
0.0
 20
0.0
 30
0.0
 70
   128
 71
   473
 72
   472
 73
  -462
  0
VERTEX
  5
6C6
330
155
100
AcDbEntity
  8
0
100
AcDbFaceRecord
 10
0.0
 20
0.0
 30
0.0
 70
   128
 71
   463
 72
   464
 73
   474
  0
VERTEX
  5
6C7
330
155
100
AcDbEntity
  8
0
100
AcDbFaceRecord
 10
0.0
 20
0.0
 30
0.0
 70
   128
 71
   474
 72
   473
 73
  -463
  0
VERTEX
  5
6C8
330
155
100
AcDbEntity
  8
0
100
AcDbFaceRecord
 10
0.0
 20
0.0
 30
0.0
 70
   128
 71
   464
 72
   465
 73
   475
  0
VERTEX
  5
6C9
330
155
100
AcDbEntity
  8
0
100
AcDbFaceRecord
 10
0.0
 20
0.0
 30
0.0
 70
   128
 71
   475
 72
   474
 73
  -464
  0
VERTEX
  5
6CA
330
155
100
AcDbEntity
  8
0
100
AcDbFaceRecord
 10
0.0
 20
0.0
 30
0.0
 70
   128
 71
   465
 72
   466
 73
   476
  0
VERTEX
  5
6CB
330
155
100
AcDbEntity
  8
0
100
AcDbFaceRecord
 10
0.0
 20
0.0
 30
0.0
 70
   128
 71
   476
 72
   475
 73
  -465
  0
VERTEX
  5
6CC
330
155
100
AcDbEntity
  8
0
100
AcDbFaceRecord
 10
0.0
 20
0.0
 30
0.0
 70
   128
 71
   466
 72
   467
 73
   477
  0
VERTEX
  5
6CD
330
155
100
AcDbEntity
  8
0
100
AcDbFaceRecord
 10
0.0
 20
0.0
 30
0.0
 70
   128
 71
   477
 72
   476
 73
  -466
  0
VERTEX
  5
6CE
330
155
100
AcDbEntity
  8
0
100
AcDbFaceRecord
 10
0.0
 20
0.0
 30
0.0
 70
   128
 71
   315
 72
   468
 73
   478
  0
VERTEX
  5
6CF
330
155
100
AcDbEntity
  8
0
100
AcDbFaceRecord
 10
0.0
 20
0.0
 30
0.0
 70
   128
 71
   478
 72
   309
 73
  -315
  0
VERTEX
  5
6D0
330
155
100
AcDbEntity
  8
0
100
AcDbFaceRecord
 10
0.0
 20
0.0
 30
0.0
 70
   128
 71
   468
 72
   469
 73
   479
  0
VERTEX
  5
6D1
330
155
100
AcDbEntity
  8
0
100
AcDbFaceRecord
 10
0.0
 20
0.0
 30
0.0
 70
   128
 71
   479
 72
   478
 73
  -468
  0
VERTEX
  5
6D2
330
155
100
AcDbEntity
  8
0
100
AcDbFaceRecord
 10
0.0
 20
0.0
 30
0.0
 70
   128
 71
   469
 72
   470
 73
   480
  0
VERTEX
  5
6D3
330
155
100
AcDbEntity
  8
0
100
AcDbFaceRecord
 10
0.0
 20
0.0
 30
0.0
 70
   128
 71
   480
 72
   479
 73
  -469
  0
VERTEX
  5
6D4
330
155
100
AcDbEntity
  8
0
100
AcDbFaceRecord
 10
0.0
 20
0.0
 30
0.0
 70
   128
 71
   470
 72
   471
 73
   481
  0
VERTEX
  5
6D5
330
155
100
AcDbEntity
  8
0
100
AcDbFaceRecord
 10
0.0
 20
0.0
 30
0.0
 70
   128
 71
   481
 72
   480
 73
  -470
  0
VERTEX
  5
6D6
330
155
100
AcDbEntity
  8
0
100
AcDbFaceRecord
 10
0.0
 20
0.0
 30
0.0
 70
   128
 71
   471
 72
   472
 73
   482
  0
VERTEX
  5
6D7
330
155
100
AcDbEntity
  8
0
100
AcDbFaceRecord
 10
0.0
 20
0.0
 30
0.0
 70
   128
 71
   482
 72
   481
 73
  -471
  0
VERTEX
  5
6D8
330
155
100
AcDbEntity
  8
0
100
AcDbFaceRecord
 10
0.0
 20
0.0
 30
0.0
 70
   128
 71
   472
 72
   473
 73
   483
  0
VERTEX
  5
6D9
330
155
100
AcDbEntity
  8
0
100
AcDbFaceRecord
 10
0.0
 20
0.0
 30
0.0
 70
   128
 71
   483
 72
   482
 73
  -472
  0
VERTEX
  5
6DA
330
155
100
AcDbEntity
  8
0
100
AcDbFaceRecord
 10
0.0
 20
0.0
 30
0.0
 70
   128
 71
   473
 72
   474
 73
   484
  0
VERTEX
  5
6DB
330
155
100
AcDbEntity
  8
0
100
AcDbFaceRecord
 10
0.0
 20
0.0
 30
0.0
 70
   128
 71
   484
 72
   483
 73
  -473
  0
VERTEX
  5
6DC
330
155
100
AcDbEntity
  8
0
100
AcDbFaceRecord
 10
0.0
 20
0.0
 30
0.0
 70
   128
 71
   474
 72
   475
 73
   485
  0
VERTEX
  5
6DD
330
155
100
AcDbEntity
  8
0
100
AcDbFaceRecord
 10
0.0
 20
0.0
 30
0.0
 70
   128
 71
   485
 72
   484
 73
  -474
  0
VERTEX
  5
6DE
330
155
100
AcDbEntity
  8
0
100
AcDbFaceRecord
 10
0.0
 20
0.0
 30
0.0
 70
   128
 71
   475
 72
   476
 73
   486
  0
VERTEX
  5
6DF
330
155
100
AcDbEntity
  8
0
100
AcDbFaceRecord
 10
0.0
 20
0.0
 30
0.0
 70
   128
 71
   486
 72
   485
 73
  -475
  0
VERTEX
  5
6E0
330
155
100
AcDbEntity
  8
0
100
AcDbFaceRecord
 10
0.0
 20
0.0
 30
0.0
 70
   128
 71
   476
 72
   477
 73
   487
  0
VERTEX
  5
6E1
330
155
100
AcDbEntity
  8
0
100
AcDbFaceRecord
 10
0.0
 20
0.0
 30
0.0
 70
   128
 71
   487
 72
   486
 73
  -476
  0
VERTEX
  5
6E2
330
155
100
AcDbEntity
  8
0
100
AcDbFaceRecord
 10
0.0
 20
0.0
 30
0.0
 70
   128
 71
   309
 72
   478
 73
   488
  0
VERTEX
  5
6E3
330
155
100
AcDbEntity
  8
0
100
AcDbFaceRecord
 10
0.0
 20
0.0
 30
0.0
 70
   128
 71
   488
 72
   303
 73
  -309
  0
VERTEX
  5
6E4
330
155
100
AcDbEntity
  8
0
100
AcDbFaceRecord
 10
0.0
 20
0.0
 30
0.0
 70
   128
 71
   478
 72
   479
 73
   489
  0
VERTEX
  5
6E5
330
155
100
AcDbEntity
  8
0
100
AcDbFaceRecord
 10
0.0
 20
0.0
 30
0.0
 70
   128
 71
   489
 72
   488
 73
  -478
  0
VERTEX
  5
6E6
330
155
100
AcDbEntity
  8
0
100
AcDbFaceRecord
 10
0.0
 20
0.0
 30
0.0
 70
   128
 71
   479
 72
   480
 73
   490
  0
VERTEX
  5
6E7
330
155
100
AcDbEntity
  8
0
100
AcDbFaceRecord
 10
0.0
 20
0.0
 30
0.0
 70
   128
 71
   490
 72
   489
 73
  -479
  0
VERTEX
  5
6E8
330
155
100
AcDbEntity
  8
0
100
AcDbFaceRecord
 10
0.0
 20
0.0
 30
0.0
 70
   128
 71
   480
 72
   481
 73
   491
  0
VERTEX
  5
6E9
330
155
100
AcDbEntity
  8
0
100
AcDbFaceRecord
 10
0.0
 20
0.0
 30
0.0
 70
   128
 71
   491
 72
   490
 73
  -480
  0
VERTEX
  5
6EA
330
155
100
AcDbEntity
  8
0
100
AcDbFaceRecord
 10
0.0
 20
0.0
 30
0.0
 70
   128
 71
   481
 72
   482
 73
   492
  0
VERTEX
  5
6EB
330
155
100
AcDbEntity
  8
0
100
AcDbFaceRecord
 10
0.0
 20
0.0
 30
0.0
 70
   128
 71
   492
 72
   491
 73
  -481
  0
VERTEX
  5
6EC
330
155
100
AcDbEntity
  8
0
100
AcDbFaceRecord
 10
0.0
 20
0.0
 30
0.0
 70
   128
 71
   482
 72
   483
 73
   493
  0
VERTEX
  5
6ED
330
155
100
AcDbEntity
  8
0
100
AcDbFaceRecord
 10
0.0
 20
0.0
 30
0.0
 70
   128
 71
   493
 72
   492
 73
  -482
  0
VERTEX
  5
6EE
330
155
100
AcDbEntity
  8
0
100
AcDbFaceRecord
 10
0.0
 20
0.0
 30
0.0
 70
   128
 71
   483
 72
   484
 73
   494
  0
VERTEX
  5
6EF
330
155
100
AcDbEntity
  8
0
100
AcDbFaceRecord
 10
0.0
 20
0.0
 30
0.0
 70
   128
 71
   494
 72
   493
 73
  -483
  0
VERTEX
  5
6F0
330
155
100
AcDbEntity
  8
0
100
AcDbFaceRecord
 10
0.0
 20
0.0
 30
0.0
 70
   128
 71
   484
 72
   485
 73
   495
  0
VERTEX
  5
6F1
330
155
100
AcDbEntity
  8
0
100
AcDbFaceRecord
 10
0.0
 20
0.0
 30
0.0
 70
   128
 71
   495
 72
   494
 73
  -484
  0
VERTEX
  5
6F2
330
155
100
AcDbEntity
  8
0
100
AcDbFaceRecord
 10
0.0
 20
0.0
 30
0.0
 70
   128
 71
   485
 72
   486
 73
   496
  0
VERTEX
  5
6F3
330
155
100
AcDbEntity
  8
0
100
AcDbFaceRecord
 10
0.0
 20
0.0
 30
0.0
 70
   128
 71
   496
 72
   495
 73
  -485
  0
VERTEX
  5
6F4
330
155
100
AcDbEntity
  8
0
100
AcDbFaceRecord
 10
0.0
 20
0.0
 30
0.0
 70
   128
 71
   486
 72
   487
 73
   497
  0
VERTEX
  5
6F5
330
155
100
AcDbEntity
  8
0
100
AcDbFaceRecord
 10
0.0
 20
0.0
 30
0.0
 70
   128
 71
   497
 72
   496
 73
  -486
  0
VERTEX
  5
6F6
330
155
100
AcDbEntity
  8
0
100
AcDbFaceRecord
 10
0.0
 20
0.0
 30
0.0
 70
   128
 71
   303
 72
   488
 73
   213
  0
VERTEX
  5
6F7
330
155
100
AcDbEntity
  8
0
100
AcDbFaceRecord
 10
0.0
 20
0.0
 30
0.0
 70
   128
 71
   213
 72
    11
 73
  -303
  0
VERTEX
  5
6F8
330
155
100
AcDbEntity
  8
0
100
AcDbFaceRecord
 10
0.0
 20
0.0
 30
0.0
 70
   128
 71
   488
 72
   489
 73
   214
  0
VERTEX
  5
6F9
330
155
100
AcDbEntity
  8
0
100
AcDbFaceRecord
 10
0.0
 20
0.0
 30
0.0
 70
   128
 71
   214
 72
   213
 73
  -488
  0
VERTEX
  5
6FA
330
155
100
AcDbEntity
  8
0
100
AcDbFaceRecord
 10
0.0
 20
0.0
 30
0.0
 70
   128
 71
   489
 72
   490
 73
   215
  0
VERTEX
  5
6FB
330
155
100
AcDbEntity
  8
0
100
AcDbFaceRecord
 10
0.0
 20
0.0
 30
0.0
 70
   128
 71
   215
 72
   214
 73
  -489
  0
VERTEX
  5
6FC
330
155
100
AcDbEntity
  8
0
100
AcDbFaceRecord
 10
0.0
 20
0.0
 30
0.0
 70
   128
 71
   490
 72
   491
 73
   216
  0
VERTEX
  5
6FD
330
155
100
AcDbEntity
  8
0
100
AcDbFaceRecord
 10
0.0
 20
0.0
 30
0.0
 70
   128
 71
   216
 72
   215
 73
  -490
  0
VERTEX
  5
6FE
330
155
100
AcDbEntity
  8
0
100
AcDbFaceRecord
 10
0.0
 20
0.0
 30
0.0
 70
   128
 71
   491
 72
   492
 73
   217
  0
VERTEX
  5
6FF
330
155
100
AcDbEntity
  8
0
100
AcDbFaceRecord
 10
0.0
 20
0.0
 30
0.0
 70
   128
 71
   217
 72
   216
 73
  -491
  0
VERTEX
  5
700
330
155
100
AcDbEntity
  8
0
100
AcDbFaceRecord
 10
0.0
 20
0.0
 30
0.0
 70
   128
 71
   492
 72
   493
 73
   218
  0
VERTEX
  5
701
330
155
100
AcDbEntity
  8
0
100
AcDbFaceRecord
 10
0.0
 20
0.0
 30
0.0
 70
   128
 71
   218
 72
   217
 73
  -492
  0
VERTEX
  5
702
330
155
100
AcDbEntity
  8
0
100
AcDbFaceRecord
 10
0.0
 20
0.0
 30
0.0
 70
   128
 71
   493
 72
   494
 73
   219
  0
VERTEX
  5
703
330
155
100
AcDbEntity
  8
0
100
AcDbFaceRecord
 10
0.0
 20
0.0
 30
0.0
 70
   128
 71
   219
 72
   218
 73
  -493
  0
VERTEX
  5
704
330
155
100
AcDbEntity
  8
0
100
AcDbFaceRecord
 10
0.0
 20
0.0
 30
0.0
 70
   128
 71
   494
 72
   495
 73
   220
  0
VERTEX
  5
705
330
155
100
AcDbEntity
  8
0
100
AcDbFaceRecord
 10
0.0
 20
0.0
 30
0.0
 70
   128
 71
   220
 72
   219
 73
  -494
  0
VERTEX
  5
706
330
155
100
AcDbEntity
  8
0
100
AcDbFaceRecord
 10
0.0
 20
0.0
 30
0.0
 70
   128
 71
   495
 72
   496
 73
   221
  0
VERTEX
  5
707
330
155
100
AcDbEntity
  8
0
100
AcDbFaceRecord
 10
0.0
 20
0.0
 30
0.0
 70
   128
 71
   221
 72
   220
 73
  -495
  0
VERTEX
  5
708
330
155
100
AcDbEntity
  8
0
100
AcDbFaceRecord
 10
0.0
 20
0.0
 30
0.0
 70
   128
 71
   496
 72
   497
 73
   222
  0
VERTEX
  5
709
330
155
100
AcDbEntity
  8
0
100
AcDbFaceRecord
 10
0.0
 20
0.0
 30
0.0
 70
   128
 71
   222
 72
   221
 73
  -496
  0
VERTEX
  5
70A
330
155
100
AcDbEntity
  8
0
100
AcDbFaceRecord
 10
0.0
 20
0.0
 30
0.0
 70
   128
 71
   498
 72
   499
 73
   500
  0
VERTEX
  5
70B
330
155
100
AcDbEntity
  8
0
100
AcDbFaceRecord
 10
0.0
 20
0.0
 30
0.0
 70
   128
 71
   500
 72
   501
 73
  -498
  0
VERTEX
  5
70C
330
155
100
AcDbEntity
  8
0
100
AcDbFaceRecord
 10
0.0
 20
0.0
 30
0.0
 70
   128
 71
   499
 72
   502
 73
   503
  0
VERTEX
  5
70D
330
155
100
AcDbEntity
  8
0
100
AcDbFaceRecord
 10
0.0
 20
0.0
 30
0.0
 70
   128
 71
   503
 72
   500
 73
  -499
  0
VERTEX
  5
70E
330
155
100
AcDbEntity
  8
0
100
AcDbFaceRecord
 10
0.0
 20
0.0
 30
0.0
 70
   128
 71
   502
 72
   504
 73
   505
  0
VERTEX
  5
70F
330
155
100
AcDbEntity
  8
0
100
AcDbFaceRecord
 10
0.0
 20
0.0
 30
0.0
 70
   128
 71
   505
 72
   503
 73
  -502
  0
VERTEX
  5
710
330
155
100
AcDbEntity
  8
0
100
AcDbFaceRecord
 10
0.0
 20
0.0
 30
0.0
 70
   128
 71
   504
 72
   506
 73
   507
  0
VERTEX
  5
711
330
155
100
AcDbEntity
  8
0
100
AcDbFaceRecord
 10
0.0
 20
0.0
 30
0.0
 70
   128
 71
   507
 72
   505
 73
  -504
  0
VERTEX
  5
712
330
155
100
AcDbEntity
  8
0
100
AcDbFaceRecord
 10
0.0
 20
0.0
 30
0.0
 70
   128
 71
   506
 72
   234
 73
   508
  0
VERTEX
  5
713
330
155
100
AcDbEntity
  8
0
100
AcDbFaceRecord
 10
0.0
 20
0.0
 30
0.0
 70
   128
 71
   508
 72
   507
 73
  -506
  0
VERTEX
  5
714
330
155
100
AcDbEntity
  8
0
100
AcDbFaceRecord
 10
0.0
 20
0.0
 30
0.0
 70
   128
 71
   501
 72
   500
 73
   509
  0
VERTEX
  5
715
330
155
100
AcDbEntity
  8
0
100
AcDbFaceRecord
 10
0.0
 20
0.0
 30
0.0
 70
   128
 71
   509
 72
   510
 73
  -501
  0
VERTEX
  5
716
330
155
100
AcDbEntity
  8
0
100
AcDbFaceRecord
 10
0.0
 20
0.0
 30
0.0
 70
   128
 71
   500
 72
   503
 73
   511
  0
VERTEX
  5
717
330
155
100
AcDbEntity
  8
0
100
AcDbFaceRecord
 10
0.0
 20
0.0
 30
0.0
 70
   128
 71
   511
 72
   509
 73
  -500
  0
VERTEX
  5
718
330
155
100
AcDbEntity
  8
0
100
AcDbFaceRecord
 10
0.0
 20
0.0
 30
0.0
 70
   128
 71
   503
 72
   505
 73
   512
  0
VERTEX
  5
719
330
155
100
AcDbEntity
  8
0
100
AcDbFaceRecord
 10
0.0
 20
0.0
 30
0.0
 70
   128
 71
   512
 72
   511
 73
  -503
  0
VERTEX
  5
71A
330
155
100
AcDbEntity
  8
0
100
AcDbFaceRecord
 10
0.0
 20
0.0
 30
0.0
 70
   128
 71
   505
 72
   507
 73
   513
  0
VERTEX
  5
71B
330
155
100
AcDbEntity
  8
0
100
AcDbFaceRecord
 10
0.0
 20
0.0
 30
0.0
 70
   128
 71
   513
 72
   512
 73
  -505
  0
VERTEX
  5
71C
330
155
100
AcDbEntity
  8
0
100
AcDbFaceRecord
 10
0.0
 20
0.0
 30
0.0
 70
   128
 71
   507
 72
   508
 73
   514
  0
VERTEX
  5
71D
330
155
100
AcDbEntity
  8
0
100
AcDbFaceRecord
 10
0.0
 20
0.0
 30
0.0
 70
   128
 71
   514
 72
   513
 73
  -507
  0
VERTEX
  5
71E
330
155
100
AcDbEntity
  8
0
100
AcDbFaceRecord
 10
0.0
 20
0.0
 30
0.0
 70
   128
 71
   510
 72
   509
 73
   515
  0
VERTEX
  5
71F
330
155
100
AcDbEntity
  8
0
100
AcDbFaceRecord
 10
0.0
 20
0.0
 30
0.0
 70
   128
 71
   515
 72
   516
 73
  -510
  0
VERTEX
  5
720
330
155
100
AcDbEntity
  8
0
100
AcDbFaceRecord
 10
0.0
 20
0.0
 30
0.0
 70
   128
 71
   509
 72
   511
 73
   517
  0
VERTEX
  5
721
330
155
100
AcDbEntity
  8
0
100
AcDbFaceRecord
 10
0.0
 20
0.0
 30
0.0
 70
   128
 71
   517
 72
   515
 73
  -509
  0
VERTEX
  5
722
330
155
100
AcDbEntity
  8
0
100
AcDbFaceRecord
 10
0.0
 20
0.0
 30
0.0
 70
   128
 71
   511
 72
   512
 73
   518
  0
VERTEX
  5
723
330
155
100
AcDbEntity
  8
0
100
AcDbFaceRecord
 10
0.0
 20
0.0
 30
0.0
 70
   128
 71
   518
 72
   517
 73
  -511
  0
VERTEX
  5
724
330
155
100
AcDbEntity
  8
0
100
AcDbFaceRecord
 10
0.0
 20
0.0
 30
0.0
 70
   128
 71
   512
 72
   513
 73
   519
  0
VERTEX
  5
725
330
155
100
AcDbEntity
  8
0
100
AcDbFaceRecord
 10
0.0
 20
0.0
 30
0.0
 70
   128
 71
   519
 72
   518
 73
  -512
  0
VERTEX
  5
726
330
155
100
AcDbEntity
  8
0
100
AcDbFaceRecord
 10
0.0
 20
0.0
 30
0.0
 70
   128
 71
   513
 72
   514
 73
   520
  0
VERTEX
  5
727
330
155
100
AcDbEntity
  8
0
100
AcDbFaceRecord
 10
0.0
 20
0.0
 30
0.0
 70
   128
 71
   520
 72
   519
 73
  -513
  0
VERTEX
  5
728
330
155
100
AcDbEntity
  8
0
100
AcDbFaceRecord
 10
0.0
 20
0.0
 30
0.0
 70
   128
 71
   516
 72
   515
 73
   398
  0
VERTEX
  5
729
330
155
100
AcDbEntity
  8
0
100
AcDbFaceRecord
 10
0.0
 20
0.0
 30
0.0
 70
   128
 71
   398
 72
   396
 73
  -516
  0
VERTEX
  5
72A
330
155
100
AcDbEntity
  8
0
100
AcDbFaceRecord
 10
0.0
 20
0.0
 30
0.0
 70
   128
 71
   515
 72
   517
 73
   400
  0
VERTEX
  5
72B
330
155
100
AcDbEntity
  8
0
100
AcDbFaceRecord
 10
0.0
 20
0.0
 30
0.0
 70
   128
 71
   400
 72
   398
 73
  -515
  0
VERTEX
  5
72C
330
155
100
AcDbEntity
  8
0
100
AcDbFaceRecord
 10
0.0
 20
0.0
 30
0.0
 70
   128
 71
   517
 72
   518
 73
   402
  0
VERTEX
  5
72D
330
155
100
AcDbEntity
  8
0
100
AcDbFaceRecord
 10
0.0
 20
0.0
 30
0.0
 70
   128
 71
   402
 72
   400
 73
  -517
  0
VERTEX
  5
72E
330
155
100
AcDbEntity
  8
0
100
AcDbFaceRecord
 10
0.0
 20
0.0
 30
0.0
 70
   128
 71
   518
 72
   519
 73
   404
  0
VERTEX
  5
72F
330
155
100
AcDbEntity
  8
0
100
AcDbFaceRecord
 10
0.0
 20
0.0
 30
0.0
 70
   128
 71
   404
 72
   402
 73
  -518
  0
VERTEX
  5
730
330
155
100
AcDbEntity
  8
0
100
AcDbFaceRecord
 10
0.0
 20
0.0
 30
0.0
 70
   128
 71
   519
 72
   520
 73
   406
  0
VERTEX
  5
731
330
155
100
AcDbEntity
  8
0
100
AcDbFaceRecord
 10
0.0
 20
0.0
 30
0.0
 70
   128
 71
   406
 72
   404
 73
  -519
  0
VERTEX
  5
732
330
155
100
AcDbEntity
  8
0
100
AcDbFaceRecord
 10
0.0
 20
0.0
 30
0.0
 70
   128
 71
   521
 72
   522
 73
   523
  0
VERTEX
  5
733
330
155
100
AcDbEntity
  8
0
100
AcDbFaceRecord
 10
0.0
 20
0.0
 30
0.0
 70
   128
 71
   523
 72
   524
 73
  -521
  0
VERTEX
  5
734
330
155
100
AcDbEntity
  8
0
100
AcDbFaceRecord
 10
0.0
 20
0.0
 30
0.0
 70
   128
 71
   524
 72
   523
 73
   392
  0
VERTEX
  5
735
330
155
100
AcDbEntity
  8
0
100
AcDbFaceRecord
 10
0.0
 20
0.0
 30
0.0
 70
   128
 71
   392
 72
   390
 73
  -524
  0
VERTEX
  5
736
330
155
100
AcDbEntity
  8
0
100
AcDbFaceRecord
 10
0.0
 20
0.0
 30
0.0
 70
   128
 71
   525
 72
   526
 73
   527
  0
VERTEX
  5
737
330
155
100
AcDbEntity
  8
0
100
AcDbFaceRecord
 10
0.0
 20
0.0
 30
0.0
 70
   128
 71
   527
 72
   528
 73
  -525
  0
VERTEX
  5
738
330
155
100
AcDbEntity
  8
0
100
AcDbFaceRecord
 10
0.0
 20
0.0
 30
0.0
 70
   128
 71
   528
 72
   527
 73
   529
  0
VERTEX
  5
739
330
155
100
AcDbEntity
  8
0
100
AcDbFaceRecord
 10
0.0
 20
0.0
 30
0.0
 70
   128
 71
   529
 72
   522
 73
  -528
  0
VERTEX
  5
73A
330
155
100
AcDbEntity
  8
0
100
AcDbFaceRecord
 10
0.0
 20
0.0
 30
0.0
 70
   128
 71
   522
 72
   529
 73
   530
  0
VERTEX
  5
73B
330
155
100
AcDbEntity
  8
0
100
AcDbFaceRecord
 10
0.0
 20
0.0
 30
0.0
 70
   128
 71
   530
 72
   523
 73
  -522
  0
VERTEX
  5
73C
330
155
100
AcDbEntity
  8
0
100
AcDbFaceRecord
 10
0.0
 20
0.0
 30
0.0
 70
   128
 71
   523
 72
   530
 73
   394
  0
VERTEX
  5
73D
330
155
100
AcDbEntity
  8
0
100
AcDbFaceRecord
 10
0.0
 20
0.0
 30
0.0
 70
   128
 71
   394
 72
   392
 73
  -523
  0
VERTEX
  5
73E
330
155
100
AcDbEntity
  8
0
100
AcDbFaceRecord
 10
0.0
 20
0.0
 30
0.0
 70
   128
 71
   526
 72
   498
 73
   501
  0
VERTEX
  5
73F
330
155
100
AcDbEntity
  8
0
100
AcDbFaceRecord
 10
0.0
 20
0.0
 30
0.0
 70
   128
 71
   501
 72
   527
 73
  -526
  0
VERTEX
  5
740
330
155
100
AcDbEntity
  8
0
100
AcDbFaceRecord
 10
0.0
 20
0.0
 30
0.0
 70
   128
 71
   527
 72
   501
 73
   510
  0
VERTEX
  5
741
330
155
100
AcDbEntity
  8
0
100
AcDbFaceRecord
 10
0.0
 20
0.0
 30
0.0
 70
   128
 71
   510
 72
   529
 73
  -527
  0
VERTEX
  5
742
330
155
100
AcDbEntity
  8
0
100
AcDbFaceRecord
 10
0.0
 20
0.0
 30
0.0
 70
   128
 71
   529
 72
   510
 73
   516
  0
VERTEX
  5
743
330
155
100
AcDbEntity
  8
0
100
AcDbFaceRecord
 10
0.0
 20
0.0
 30
0.0
 70
   128
 71
   516
 72
   530
 73
  -529
  0
VERTEX
  5
744
330
155
100
AcDbEntity
  8
0
100
AcDbFaceRecord
 10
0.0
 20
0.0
 30
0.0
 70
   128
 71
   530
 72
   516
 73
   396
  0
VERTEX
  5
745
330
155
100
AcDbEntity
  8
0
100
AcDbFaceRecord
 10
0.0
 20
0.0
 30
0.0
 70
   128
 71
   396
 72
   394
 73
  -530
  0
VERTEX
  5
746
330
155
100
AcDbEntity
  8
0
100
AcDbFaceRecord
 10
0.0
 20
0.0
 30
0.0
 70
   128
 71
   531
 72
   532
 73
   533
  0
VERTEX
  5
747
330
155
100
AcDbEntity
  8
0
100
AcDbFaceRecord
 10
0.0
 20
0.0
 30
0.0
 70
   128
 71
   533
 72
   534
 73
  -531
  0
VERTEX
  5
748
330
155
100
AcDbEntity
  8
0
100
AcDbFaceRecord
 10
0.0
 20
0.0
 30
0.0
 70
   128
 71
   532
 72
   535
 73
   536
  0
VERTEX
  5
749
330
155
100
AcDbEntity
  8
0
100
AcDbFaceRecord
 10
0.0
 20
0.0
 30
0.0
 70
   128
 71
   536
 72
   533
 73
  -532
  0
VERTEX
  5
74A
330
155
100
AcDbEntity
  8
0
100
AcDbFaceRecord
 10
0.0
 20
0.0
 30
0.0
 70
   128
 71
   535
 72
   537
 73
   538
  0
VERTEX
  5
74B
330
155
100
AcDbEntity
  8
0
100
AcDbFaceRecord
 10
0.0
 20
0.0
 30
0.0
 70
   128
 71
   538
 72
   536
 73
  -535
  0
VERTEX
  5
74C
330
155
100
AcDbEntity
  8
0
100
AcDbFaceRecord
 10
0.0
 20
0.0
 30
0.0
 70
   128
 71
   537
 72
   266
 73
   265
  0
VERTEX
  5
74D
330
155
100
AcDbEntity
  8
0
100
AcDbFaceRecord
 10
0.0
 20
0.0
 30
0.0
 70
   128
 71
   265
 72
   538
 73
  -537
  0
VERTEX
  5
74E
330
155
100
AcDbEntity
  8
0
100
AcDbFaceRecord
 10
0.0
 20
0.0
 30
0.0
 70
   128
 71
   534
 72
   533
 73
   539
  0
VERTEX
  5
74F
330
155
100
AcDbEntity
  8
0
100
AcDbFaceRecord
 10
0.0
 20
0.0
 30
0.0
 70
   128
 71
   539
 72
   540
 73
  -534
  0
VERTEX
  5
750
330
155
100
AcDbEntity
  8
0
100
AcDbFaceRecord
 10
0.0
 20
0.0
 30
0.0
 70
   128
 71
   533
 72
   536
 73
   541
  0
VERTEX
  5
751
330
155
100
AcDbEntity
  8
0
100
AcDbFaceRecord
 10
0.0
 20
0.0
 30
0.0
 70
   128
 71
   541
 72
   539
 73
  -533
  0
VERTEX
  5
752
330
155
100
AcDbEntity
  8
0
100
AcDbFaceRecord
 10
0.0
 20
0.0
 30
0.0
 70
   128
 71
   536
 72
   538
 73
   542
  0
VERTEX
  5
753
330
155
100
AcDbEntity
  8
0
100
AcDbFaceRecord
 10
0.0
 20
0.0
 30
0.0
 70
   128
 71
   542
 72
   541
 73
  -536
  0
VERTEX
  5
754
330
155
100
AcDbEntity
  8
0
100
AcDbFaceRecord
 10
0.0
 20
0.0
 30
0.0
 70
   128
 71
   538
 72
   265
 73
   271
  0
VERTEX
  5
755
330
155
100
AcDbEntity
  8
0
100
AcDbFaceRecord
 10
0.0
 20
0.0
 30
0.0
 70
   128
 71
   271
 72
   542
 73
  -538
  0
VERTEX
  5
756
330
155
100
AcDbEntity
  8
0
100
AcDbFaceRecord
 10
0.0
 20
0.0
 30
0.0
 70
   128
 71
   540
 72
   539
 73
   543
  0
VERTEX
  5
757
330
155
100
AcDbEntity
  8
0
100
AcDbFaceRecord
 10
0.0
 20
0.0
 30
0.0
 70
   128
 71
   543
 72
   544
 73
  -540
  0
VERTEX
  5
758
330
155
100
AcDbEntity
  8
0
100
AcDbFaceRecord
 10
0.0
 20
0.0
 30
0.0
 70
   128
 71
   539
 72
   541
 73
   545
  0
VERTEX
  5
759
330
155
100
AcDbEntity
  8
0
100
AcDbFaceRecord
 10
0.0
 20
0.0
 30
0.0
 70
   128
 71
   545
 72
   543
 73
  -539
  0
VERTEX
  5
75A
330
155
100
AcDbEntity
  8
0
100
AcDbFaceRecord
 10
0.0
 20
0.0
 30
0.0
 70
   128
 71
   541
 72
   542
 73
   546
  0
VERTEX
  5
75B
330
155
100
AcDbEntity
  8
0
100
AcDbFaceRecord
 10
0.0
 20
0.0
 30
0.0
 70
   128
 71
   546
 72
   545
 73
  -541
  0
VERTEX
  5
75C
330
155
100
AcDbEntity
  8
0
100
AcDbFaceRecord
 10
0.0
 20
0.0
 30
0.0
 70
   128
 71
   542
 72
   271
 73
   276
  0
VERTEX
  5
75D
330
155
100
AcDbEntity
  8
0
100
AcDbFaceRecord
 10
0.0
 20
0.0
 30
0.0
 70
   128
 71
   276
 72
   546
 73
  -542
  0
VERTEX
  5
75E
330
155
100
AcDbEntity
  8
0
100
AcDbFaceRecord
 10
0.0
 20
0.0
 30
0.0
 70
   128
 71
   544
 72
   543
 73
   547
  0
VERTEX
  5
75F
330
155
100
AcDbEntity
  8
0
100
AcDbFaceRecord
 10
0.0
 20
0.0
 30
0.0
 70
   128
 71
   547
 72
   521
 73
  -544
  0
VERTEX
  5
760
330
155
100
AcDbEntity
  8
0
100
AcDbFaceRecord
 10
0.0
 20
0.0
 30
0.0
 70
   128
 71
   543
 72
   545
 73
   548
  0
VERTEX
  5
761
330
155
100
AcDbEntity
  8
0
100
AcDbFaceRecord
 10
0.0
 20
0.0
 30
0.0
 70
   128
 71
   548
 72
   547
 73
  -543
  0
VERTEX
  5
762
330
155
100
AcDbEntity
  8
0
100
AcDbFaceRecord
 10
0.0
 20
0.0
 30
0.0
 70
   128
 71
   545
 72
   546
 73
   549
  0
VERTEX
  5
763
330
155
100
AcDbEntity
  8
0
100
AcDbFaceRecord
 10
0.0
 20
0.0
 30
0.0
 70
   128
 71
   549
 72
   548
 73
  -545
  0
VERTEX
  5
764
330
155
100
AcDbEntity
  8
0
100
AcDbFaceRecord
 10
0.0
 20
0.0
 30
0.0
 70
   128
 71
   546
 72
   276
 73
   280
  0
VERTEX
  5
765
330
155
100
AcDbEntity
  8
0
100
AcDbFaceRecord
 10
0.0
 20
0.0
 30
0.0
 70
   128
 71
   280
 72
   549
 73
  -546
  0
VERTEX
  5
766
330
155
100
AcDbEntity
  8
0
100
AcDbFaceRecord
 10
0.0
 20
0.0
 30
0.0
 70
   128
 71
   369
 72
   266
 73
   537
  0
VERTEX
  5
767
330
155
100
AcDbEntity
  8
0
100
AcDbFaceRecord
 10
0.0
 20
0.0
 30
0.0
 70
   128
 71
   369
 72
   537
 73
   535
  0
VERTEX
  5
768
330
155
100
AcDbEntity
  8
0
100
AcDbFaceRecord
 10
0.0
 20
0.0
 30
0.0
 70
   128
 71
   369
 72
   535
 73
   532
  0
VERTEX
  5
769
330
155
100
AcDbEntity
  8
0
100
AcDbFaceRecord
 10
0.0
 20
0.0
 30
0.0
 70
   128
 71
   369
 72
   532
 73
   531
  0
VERTEX
  5
76A
330
155
100
AcDbEntity
  8
0
100
AcDbFaceRecord
 10
0.0
 20
0.0
 30
0.0
 70
   128
 71
   369
 72
   531
 73
   550
  0
VERTEX
  5
76B
330
155
100
AcDbEntity
  8
0
100
AcDbFaceRecord
 10
0.0
 20
0.0
 30
0.0
 70
   128
 71
   266
 72
   369
 73
   375
  0
VERTEX
  5
76C
330
155
100
AcDbEntity
  8
0
100
AcDbFaceRecord
 10
0.0
 20
0.0
 30
0.0
 70
   128
 71
   266
 72
   375
 73
   381
  0
VERTEX
  5
76D
330
155
100
AcDbEntity
  8
0
100
AcDbFaceRecord
 10
0.0
 20
0.0
 30
0.0
 70
   128
 71
   266
 72
   381
 73
   387
  0
VERTEX
  5
76E
330
155
100
AcDbEntity
  8
0
100
AcDbFaceRecord
 10
0.0
 20
0.0
 30
0.0
 70
   128
 71
   266
 72
   387
 73
   102
  0
VERTEX
  5
76F
330
155
100
AcDbEntity
  8
0
100
AcDbFaceRecord
 10
0.0
 20
0.0
 30
0.0
 70
   128
 71
   363
 72
   369
 73
   550
  0
VERTEX
  5
770
330
155
100
AcDbEntity
  8
0
100
AcDbFaceRecord
 10
0.0
 20
0.0
 30
0.0
 70
   128
 71
   550
 72
   388
 73
  -363
  0
VERTEX
  5
771
330
155
100
AcDbEntity
  8
0
100
AcDbFaceRecord
 10
0.0
 20
0.0
 30
0.0
 70
   128
 71
   521
 72
   547
 73
   528
  0
VERTEX
  5
772
330
155
100
AcDbEntity
  8
0
100
AcDbFaceRecord
 10
0.0
 20
0.0
 30
0.0
 70
   128
 71
   528
 72
   547
 73
   525
  0
VERTEX
  5
773
330
155
100
AcDbEntity
  8
0
100
AcDbFaceRecord
 10
0.0
 20
0.0
 30
0.0
 70
   128
 71
   521
 72
   528
 73
   522
  0
VERTEX
  5
774
330
155
100
AcDbEntity
  8
0
100
AcDbFaceRecord
 10
0.0
 20
0.0
 30
0.0
 70
   128
 71
   506
 72
   282
 73
   234
  0
VERTEX
  5
775
330
155
100
AcDbEntity
  8
0
100
AcDbFaceRecord
 10
0.0
 20
0.0
 30
0.0
 70
   128
 71
   504
 72
   282
 73
   506
  0
VERTEX
  5
776
330
155
100
AcDbEntity
  8
0
100
AcDbFaceRecord
 10
0.0
 20
0.0
 30
0.0
 70
   128
 71
   504
 72
   283
 73
   282
  0
VERTEX
  5
777
330
155
100
AcDbEntity
  8
0
100
AcDbFaceRecord
 10
0.0
 20
0.0
 30
0.0
 70
   128
 71
   502
 72
   283
 73
   504
  0
VERTEX
  5
778
330
155
100
AcDbEntity
  8
0
100
AcDbFaceRecord
 10
0.0
 20
0.0
 30
0.0
 70
   128
 71
   502
 72
   284
 73
   283
  0
VERTEX
  5
779
330
155
100
AcDbEntity
  8
0
100
AcDbFaceRecord
 10
0.0
 20
0.0
 30
0.0
 70
   128
 71
   499
 72
   284
 73
   502
  0
VERTEX
  5
77A
330
155
100
AcDbEntity
  8
0
100
AcDbFaceRecord
 10
0.0
 20
0.0
 30
0.0
 70
   128
 71
   499
 72
   285
 73
   284
  0
VERTEX
  5
77B
330
155
100
AcDbEntity
  8
0
100
AcDbFaceRecord
 10
0.0
 20
0.0
 30
0.0
 70
   128
 71
   498
 72
   285
 73
   499
  0
VERTEX
  5
77C
330
155
100
AcDbEntity
  8
0
100
AcDbFaceRecord
 10
0.0
 20
0.0
 30
0.0
 70
   128
 71
   498
 72
   286
 73
   285
  0
VERTEX
  5
77D
330
155
100
AcDbEntity
  8
0
100
AcDbFaceRecord
 10
0.0
 20
0.0
 30
0.0
 70
   128
 71
   526
 72
   286
 73
   498
  0
VERTEX
  5
77E
330
155
100
AcDbEntity
  8
0
100
AcDbFaceRecord
 10
0.0
 20
0.0
 30
0.0
 70
   128
 71
   526
 72
   287
 73
   286
  0
VERTEX
  5
77F
330
155
100
AcDbEntity
  8
0
100
AcDbFaceRecord
 10
0.0
 20
0.0
 30
0.0
 70
   128
 71
   525
 72
   287
 73
   526
  0
VERTEX
  5
780
330
155
100
AcDbEntity
  8
0
100
AcDbFaceRecord
 10
0.0
 20
0.0
 30
0.0
 70
   128
 71
   525
 72
   288
 73
   287
  0
VERTEX
  5
781
330
155
100
AcDbEntity
  8
0
100
AcDbFaceRecord
 10
0.0
 20
0.0
 30
0.0
 70
   128
 71
   547
 72
   288
 73
   525
  0
VERTEX
  5
782
330
155
100
AcDbEntity
  8
0
100
AcDbFaceRecord
 10
0.0
 20
0.0
 30
0.0
 70
   128
 71
   288
 72
   547
 73
   548
  0
VERTEX
  5
783
330
155
100
AcDbEntity
  8
0
100
AcDbFaceRecord
 10
0.0
 20
0.0
 30
0.0
 70
   128
 71
   288
 72
   548
 73
   549
  0
VERTEX
  5
784
330
155
100
AcDbEntity
  8
0
100
AcDbFaceRecord
 10
0.0
 20
0.0
 30
0.0
 70
   128
 71
   288
 72
   549
 73
   280
  0
VERTEX
  5
785
330
155
100
AcDbEntity
  8
0
100
AcDbFaceRecord
 10
0.0
 20
0.0
 30
0.0
 70
   128
 71
   234
 72
   290
 73
   289
  0
VERTEX
  5
786
330
155
100
AcDbEntity
  8
0
100
AcDbFaceRecord
 10
0.0
 20
0.0
 30
0.0
 70
   128
 71
   289
 72
   508
 73
  -234
  0
VERTEX
  5
787
330
155
100
AcDbEntity
  8
0
100
AcDbFaceRecord
 10
0.0
 20
0.0
 30
0.0
 70
   128
 71
   508
 72
   289
 73
   291
  0
VERTEX
  5
788
330
155
100
AcDbEntity
  8
0
100
AcDbFaceRecord
 10
0.0
 20
0.0
 30
0.0
 70
   128
 71
   291
 72
   514
 73
  -508
  0
VERTEX
  5
789
330
155
100
AcDbEntity
  8
0
100
AcDbFaceRecord
 10
0.0
 20
0.0
 30
0.0
 70
   128
 71
   514
 72
   291
 73
   292
  0
VERTEX
  5
78A
330
155
100
AcDbEntity
  8
0
100
AcDbFaceRecord
 10
0.0
 20
0.0
 30
0.0
 70
   128
 71
   292
 72
   520
 73
  -514
  0
VERTEX
  5
78B
330
155
100
AcDbEntity
  8
0
100
AcDbFaceRecord
 10
0.0
 20
0.0
 30
0.0
 70
   128
 71
   520
 72
   292
 73
   293
  0
VERTEX
  5
78C
330
155
100
AcDbEntity
  8
0
100
AcDbFaceRecord
 10
0.0
 20
0.0
 30
0.0
 70
   128
 71
   293
 72
   406
 73
  -520
  0
VERTEX
  5
78D
330
155
100
AcDbEntity
  8
0
100
AcDbFaceRecord
 10
0.0
 20
0.0
 30
0.0
 70
   128
 71
   550
 72
   531
 73
   534
  0
VERTEX
  5
78E
330
155
100
AcDbEntity
  8
0
100
AcDbFaceRecord
 10
0.0
 20
0.0
 30
0.0
 70
   128
 71
   534
 72
   551
 73
  -550
  0
VERTEX
  5
78F
330
155
100
AcDbEntity
  8
0
100
AcDbFaceRecord
 10
0.0
 20
0.0
 30
0.0
 70
   128
 71
   551
 72
   534
 73
   540
  0
VERTEX
  5
790
330
155
100
AcDbEntity
  8
0
100
AcDbFaceRecord
 10
0.0
 20
0.0
 30
0.0
 70
   128
 71
   540
 72
   552
 73
  -551
  0
VERTEX
  5
791
330
155
100
AcDbEntity
  8
0
100
AcDbFaceRecord
 10
0.0
 20
0.0
 30
0.0
 70
   128
 71
   552
 72
   540
 73
   544
  0
VERTEX
  5
792
330
155
100
AcDbEntity
  8
0
100
AcDbFaceRecord
 10
0.0
 20
0.0
 30
0.0
 70
   128
 71
   544
 72
   553
 73
  -552
  0
VERTEX
  5
793
330
155
100
AcDbEntity
  8
0
100
AcDbFaceRecord
 10
0.0
 20
0.0
 30
0.0
 70
   128
 71
   553
 72
   544
 73
   521
  0
VERTEX
  5
794
330
155
100
AcDbEntity
  8
0
100
AcDbFaceRecord
 10
0.0
 20
0.0
 30
0.0
 70
   128
 71
   521
 72
   554
 73
  -553
  0
VERTEX
  5
795
330
155
100
AcDbEntity
  8
0
100
AcDbFaceRecord
 10
0.0
 20
0.0
 30
0.0
 70
   128
 71
   550
 72
   551
 73
   388
  0
VERTEX
  5
796
330
155
100
AcDbEntity
  8
0
100
AcDbFaceRecord
 10
0.0
 20
0.0
 30
0.0
 70
   128
 71
   388
 72
   551
 73
   552
  0
VERTEX
  5
797
330
155
100
AcDbEntity
  8
0
100
AcDbFaceRecord
 10
0.0
 20
0.0
 30
0.0
 70
   128
 71
   552
 72
   553
 73
   388
  0
VERTEX
  5
798
330
155
100
AcDbEntity
  8
0
100
AcDbFaceRecord
 10
0.0
 20
0.0
 30
0.0
 70
   128
 71
   388
 72
   553
 73
   554
  0
VERTEX
  5
799
330
155
100
AcDbEntity
  8
0
100
AcDbFaceRecord
 10
0.0
 20
0.0
 30
0.0
 70
   128
 71
   554
 72
   521
 73
   524
  0
VERTEX
  5
79A
330
155
100
AcDbEntity
  8
0
100
AcDbFaceRecord
 10
0.0
 20
0.0
 30
0.0
 70
   128
 71
   554
 72
   524
 73
   390
  0
VERTEX
  5
79B
330
155
100
AcDbEntity
  8
0
100
AcDbFaceRecord
 10
0.0
 20
0.0
 30
0.0
 70
   128
 71
   554
 72
   390
 73
   388
  0
SEQEND
  5
79C
330
155
100
AcDbEntity
  8
0
  0
ENDSEC
  0
SECTION
  2
OBJECTS
  0
DICTIONARY
  5
C
330
0
100
AcDbDictionary
  3
ACAD_GROUP
350
D
  3
ACAD_LAYOUT
350
1A
  3
ACAD_MLINESTYLE
350
17
  3
ACAD_PLOTSETTINGS
350
19
  3
ACAD_PLOTSTYLENAME
350
E
  3
ACDBHEADERROUNDTRIPXREC
350
846
  3
ACDBVARIABLEDICTIONARY
350
79E
  0
DICTIONARY
  5
869
330
1F
100
AcDbDictionary
280
     1
  3
ACAD_LAYOUTSELFREF
360
86A
  0
DICTIONARY
  5
867
330
1B
100
AcDbDictionary
280
     1
  3
ACAD_LAYOUTSELFREF
360
868
  0
DICTIONARY
  5
D
102
{ACAD_REACTORS
330
C
102
}
330
C
100
AcDbDictionary
  0
DICTIONARY
  5
1A
102
{ACAD_REACTORS
330
C
102
}
330
C
100
AcDbDictionary
  0
DICTIONARY
  5
17
102
{ACAD_REACTORS
330
C
102
}
330
C
100
AcDbDictionary
  3
STANDARD
350
18
  0
DICTIONARY
  5
19
102
{ACAD_REACTORS
330
C
102
}
330
C
100
AcDbDictionary
  0
ACDBDICTIONARYWDFLT
  5
E
102
{ACAD_REACTORS
330
C
102
}
330
C
100
AcDbDictionary
281
     1
  3
Normal
350
F
100
AcDbDictionaryWithDefault
340
F
  0
DICTIONARY
  5
846
102
{ACAD_REACTORS
330
C
102
}
330
C
100
AcDbDictionary
  3
CEPSNTYPE
350
850
  3
DIMSTYLEDATA
350
854
  3
FINGERPRINTGUID
350
851
  3
HYPERLINKBASE
350
849
  3
INSUNITS
350
84F
  3
LAYOUTDICT
350
84B
  3
LWETCUNION
350
84E
  3
PLOTSETDICT
350
84C
  3
PLOTSTYLNAMDICT
350
84D
  3
PSVPSCALE
350
853
  3
PUCSBASE
350
857
  3
PUCSORGBACK
350
85D
  3
PUCSORGBOTTOM
350
859
  3
PUCSORGFRONT
350
85C
  3
PUCSORGLEFT
350
85A
  3
PUCSORGRIGHT
350
85B
  3
PUCSORGTOP
350
858
  3
PUCSORTHOREF
350
855
  3
PUCSORTHOVIEW
350
856
  3
STYLESHEET
350
84A
  3
TSTACKALIGN
350
847
  3
TSTACKSIZE
350
848
  3
UCSBASE
350
860
  3
UCSORGBACK
350
866
  3
UCSORGBOTTOM
350
862
  3
UCSORGFRONT
350
865
  3
UCSORGLEFT
350
863
  3
UCSORGRIGHT
350
864
  3
UCSORGTOP
350
861
  3
UCSORTHOREF
350
85E
  3
UCSORTHOVIEW
350
85F
  3
VERSIONGUID
350
852
  0
DICTIONARY
  5
79E
102
{ACAD_REACTORS
330
C
102
}
330
C
100
AcDbDictionary
  3
DIMASSOC
350
7A0
  3
HIDETEXT
350
79F
  0
XRECORD
  5
86A
102
{ACAD_REACTORS
330
869
102
}
330
869
100
AcDbXrecord
340
1F
  0
XRECORD
  5
868
102
{ACAD_REACTORS
330
867
102
}
330
867
100
AcDbXrecord
340
1B
  0
MLINESTYLE
  5
18
102
{ACAD_REACTORS
330
17
102
}
330
17
100
AcDbMlineStyle
  2
STANDARD
 70
     0
  3

 62
   256
 51
90.0
 52
90.0
 71
     2
 49
0.5
 62
   256
  6
BYLAYER
 49
-0.5
 62
   256
  6
BYLAYER
  0
ACDBPLACEHOLDER
  5
F
102
{ACAD_REACTORS
330
E
102
}
330
E
100
AcDbPlaceHolder
280
     0
  0
XRECORD
  5
850
102
{ACAD_REACTORS
330
846
102
}
330
846
100
AcDbXrecord
 90
        0
  0
XRECORD
  5
854
102
{ACAD_REACTORS
330
846
102
}
330
846
100
AcDbXrecord
1000
DSTYLE
1002
{
1070
   278
 70
    44
1002
}
  0
XRECORD
  5
851
102
{ACAD_REACTORS
330
846
102
}
330
846
100
AcDbXrecord
  1
{A4D0BBE9-37B8-42E7-8F79-21B26A544E3C}
  0
XRECORD
  5
849
102
{ACAD_REACTORS
330
846
102
}
330
846
100
AcDbXrecord
  1

  0
XRECORD
  5
84F
102
{ACAD_REACTORS
330
846
102
}
330
846
100
AcDbXrecord
 90
        5
  0
XRECORD
  5
84B
102
{ACAD_REACTORS
330
846
102
}
330
846
100
AcDbXrecord
340
1A
  0
XRECORD
  5
84E
102
{ACAD_REACTORS
330
846
102
}
330
846
100
AcDbXrecord
 90
    10781
  0
XRECORD
  5
84C
102
{ACAD_REACTORS
330
846
102
}
330
846
100
AcDbXrecord
340
19
  0
XRECORD
  5
84D
102
{ACAD_REACTORS
330
846
102
}
330
846
100
AcDbXrecord
340
E
  0
XRECORD
  5
853
102
{ACAD_REACTORS
330
846
102
}
330
846
100
AcDbXrecord
 40
0.0
  0
XRECORD
  5
857
102
{ACAD_REACTORS
330
846
102
}
330
846
100
AcDbXrecord
340
0
  0
XRECORD
  5
85D
102
{ACAD_REACTORS
330
846
102
}
330
846
100
AcDbXrecord
 10
0.0
 20
0.0
 30
0.0
  0
XRECORD
  5
859
102
{ACAD_REACTORS
330
846
102
}
330
846
100
AcDbXrecord
 10
0.0
 20
0.0
 30
0.0
  0
XRECORD
  5
85C
102
{ACAD_REACTORS
330
846
102
}
330
846
100
AcDbXrecord
 10
0.0
 20
0.0
 30
0.0
  0
XRECORD
  5
85A
102
{ACAD_REACTORS
330
846
102
}
330
846
100
AcDbXrecord
 10
0.0
 20
0.0
 30
0.0
  0
XRECORD
  5
85B
102
{ACAD_REACTORS
330
846
102
}
330
846
100
AcDbXrecord
 10
0.0
 20
0.0
 30
0.0
  0
XRECORD
  5
858
102
{ACAD_REACTORS
330
846
102
}
330
846
100
AcDbXrecord
 10
0.0
 20
0.0
 30
0.0
  0
XRECORD
  5
855
102
{ACAD_REACTORS
330
846
102
}
330
846
100
AcDbXrecord
340
0
  0
XRECORD
  5
856
102
{ACAD_REACTORS
330
846
102
}
330
846
100
AcDbXrecord
 70
     0
  0
XRECORD
  5
84A
102
{ACAD_REACTORS
330
846
102
}
330
846
100
AcDbXrecord
  1

  0
XRECORD
  5
847
102
{ACAD_REACTORS
330
846
102
}
330
846
100
AcDbXrecord
 90
        1
  0
XRECORD
  5
848
102
{ACAD_REACTORS
330
846
102
}
330
846
100
AcDbXrecord
 90
       70
  0
XRECORD
  5
860
102
{ACAD_REACTORS
330
846
102
}
330
846
100
AcDbXrecord
340
0
  0
XRECORD
  5
866
102
{ACAD_REACTORS
330
846
102
}
330
846
100
AcDbXrecord
 10
0.0
 20
0.0
 30
0.0
  0
XRECORD
  5
862
102
{ACAD_REACTORS
330
846
102
}
330
846
100
AcDbXrecord
 10
0.0
 20
0.0
 30
0.0
  0
XRECORD
  5
865
102
{ACAD_REACTORS
330
846
102
}
330
846
100
AcDbXrecord
 10
0.0
 20
0.0
 30
0.0
  0
XRECORD
  5
863
102
{ACAD_REACTORS
330
846
102
}
330
846
100
AcDbXrecord
 10
0.0
 20
0.0
 30
0.0
  0
XRECORD
  5
864
102
{ACAD_REACTORS
330
846
102
}
330
846
100
AcDbXrecord
 10
0.0
 20
0.0
 30
0.0
  0
XRECORD
  5
861
102
{ACAD_REACTORS
330
846
102
}
330
846
100
AcDbXrecord
 10
0.0
 20
0.0
 30
0.0
  0
XRECORD
  5
85E
102
{ACAD_REACTORS
330
846
102
}
330
846
100
AcDbXrecord
340
0
  0
XRECORD
  5
85F
102
{ACAD_REACTORS
330
846
102
}
330
846
100
AcDbXrecord
 70
     1
  0
XRECORD
  5
852
102
{ACAD_REACTORS
330
846
102
}
330
846
100
AcDbXrecord
  1
{021F7D32-3FE4-4C63-B16E-BF60136E205F}
  0
DICTIONARYVAR
  5
7A0
102
{ACAD_REACTORS
330
79E
102
}
330
79E
100
DictionaryVariables
280
     0
  1
2
  0
DICTIONARYVAR
  5
79F
102
{ACAD_REACTORS
330
79E
102
}
330
79E
100
DictionaryVariables
280
     0
  1
1
  0
ENDSEC
  0
EOF
