  0
SECTION
  2
HEADER
  9
$ACADVER
  1
AC1024
  9
$ACADMAINTVER
 70
     6
  9
$DWGCODEPAGE
  3
ANSI_1252
  9
$LASTSAVEDBY
  1
ko72881
  9
$INSBASE
 10
0.0
 20
0.0
 30
0.0
  9
$EXTMIN
 10
175965.7530105569
 20
-42451.27262788128
 30
-0.0000000000112498
  9
$EXTMAX
 10
176433.7614669426
 20
-42096.46091399631
 30
0.0000000000002956
  9
$LIMMIN
 10
0.0
 20
0.0
  9
$LIMMAX
 10
420.0
 20
297.0
  9
$ORTHOMODE
 70
     0
  9
$REGENMODE
 70
     1
  9
$FILLMODE
 70
     1
  9
$QTEXTMODE
 70
     0
  9
$MIRRTEXT
 70
     1
  9
$LTSCALE
 40
1.0
  9
$ATTMODE
 70
     1
  9
$TEXTSIZE
 40
2.5
  9
$TRACEWID
 40
1.0
  9
$TEXTSTYLE
  7
Standard
  9
$CLAYER
  8
TRAITS INTERIEURS FIN
  9
$CELTYPE
  6
ByLayer
  9
$CECOLOR
 62
   256
  9
$CELTSCALE
 40
30.0
  9
$DISPSILH
 70
     0
  9
$DIMSCALE
 40
0.0
  9
$DIMASZ
 40
50.0
  9
$DIMEXO
 40
45.0
  9
$DIMDLI
 40
20.182
  9
$DIMRND
 40
0.0
  9
$DIMDLE
 40
0.0
  9
$DIMEXE
 40
10.0
  9
$DIMTP
 40
0.0
  9
$DIMTM
 40
0.0
  9
$DIMTXT
 40
50.0
  9
$DIMCEN
 40
0.0
  9
$DIMTSZ
 40
0.0
  9
$DIMTOL
 70
     0
  9
$DIMLIM
 70
     0
  9
$DIMTIH
 70
     1
  9
$DIMTOH
 70
     1
  9
$DIMSE1
 70
     0
  9
$DIMSE2
 70
     0
  9
$DIMTAD
 70
     1
  9
$DIMZIN
 70
     8
  9
$DIMBLK
  1

  9
$DIMASO
 70
     1
  9
$DIMSHO
 70
     1
  9
$DIMPOST
  1

  9
$DIMAPOST
  1

  9
$DIMALT
 70
     0
  9
$DIMALTD
 70
     3
  9
$DIMALTF
 40
0.03937007874016
  9
$DIMLFAC
 40
1.0
  9
$DIMTOFL
 70
     0
  9
$DIMTVP
 40
0.0
  9
$DIMTIX
 70
     0
  9
$DIMSOXD
 70
     0
  9
$DIMSAH
 70
     0
  9
$DIMBLK1
  1

  9
$DIMBLK2
  1

  9
$DIMSTYLE
  2
ISO-25
  9
$DIMCLRD
 70
   256
  9
$DIMCLRE
 70
   256
  9
$DIMCLRT
 70
     0
  9
$DIMTFAC
 40
1.0
  9
$DIMGAP
 40
20.0
  9
$DIMJUST
 70
     0
  9
$DIMSD1
 70
     0
  9
$DIMSD2
 70
     0
  9
$DIMTOLJ
 70
     0
  9
$DIMTZIN
 70
     8
  9
$DIMALTZ
 70
     0
  9
$DIMALTTZ
 70
     0
  9
$DIMUPT
 70
     0
  9
$DIMDEC
 70
     0
  9
$DIMTDEC
 70
     0
  9
$DIMALTU
 70
     2
  9
$DIMALTTD
 70
     3
  9
$DIMTXSTY
  7
Standard
  9
$DIMAUNIT
 70
     0
  9
$DIMADEC
 70
     0
  9
$DIMALTRND
 40
0.0
  9
$DIMAZIN
 70
     0
  9
$DIMDSEP
 70
    44
  9
$DIMATFIT
 70
     3
  9
$DIMFRAC
 70
     0
  9
$DIMLDRBLK
  1

  9
$DIMLUNIT
 70
     2
  9
$DIMLWD
 70
    -1
  9
$DIMLWE
 70
    -1
  9
$DIMTMOVE
 70
     0
  9
$DIMFXL
 40
1.0
  9
$DIMFXLON
 70
     0
  9
$DIMJOGANG
 40
0.7853981633974483
  9
$DIMTFILL
 70
     0
  9
$DIMTFILLCLR
 70
     0
  9
$DIMARCSYM
 70
     0
  9
$DIMLTYPE
  6

  9
$DIMLTEX1
  6

  9
$DIMLTEX2
  6

  9
$DIMTXTDIRECTION
 70
     0
  9
$LUNITS
 70
     2
  9
$LUPREC
 70
     4
  9
$SKETCHINC
 40
1.0
  9
$FILLETRAD
 40
0.0
  9
$AUNITS
 70
     0
  9
$AUPREC
 70
     0
  9
$MENU
  1
.
  9
$ELEVATION
 40
0.0
  9
$PELEVATION
 40
0.0
  9
$THICKNESS
 40
0.0
  9
$LIMCHECK
 70
     0
  9
$CHAMFERA
 40
10.0
  9
$CHAMFERB
 40
10.0
  9
$CHAMFERC
 40
20.0
  9
$CHAMFERD
 40
0.0
  9
$SKPOLY
 70
     0
  9
$TDCREATE
 40
2451814.422419329
  9
$TDUCREATE
 40
2451814.380752662
  9
$TDUPDATE
 40
2458568.357541100
  9
$TDUUPDATE
 40
2458568.315874433
  9
$TDINDWG
 40
6.6387415972
  9
$TDUSRTIMER
 40
6.6387415972
  9
$USRTIMER
 70
     1
  9
$ANGBASE
 50
0.0
  9
$ANGDIR
 70
     0
  9
$PDMODE
 70
     0
  9
$PDSIZE
 40
0.0
  9
$PLINEWID
 40
0.0
  9
$SPLFRAME
 70
     0
  9
$SPLINETYPE
 70
     6
  9
$SPLINESEGS
 70
     8
  9
$HANDSEED
  5
5A29F
  9
$SURFTAB1
 70
     6
  9
$SURFTAB2
 70
     6
  9
$SURFTYPE
 70
     6
  9
$SURFU
 70
     6
  9
$SURFV
 70
     6
  9
$UCSBASE
  2

  9
$UCSNAME
  2

  9
$UCSORG
 10
0.0
 20
0.0
 30
0.0
  9
$UCSXDIR
 10
1.0
 20
0.0
 30
0.0
  9
$UCSYDIR
 10
0.0
 20
1.0
 30
0.0
  9
$UCSORTHOREF
  2

  9
$UCSORTHOVIEW
 70
     0
  9
$UCSORGTOP
 10
0.0
 20
0.0
 30
0.0
  9
$UCSORGBOTTOM
 10
0.0
 20
0.0
 30
0.0
  9
$UCSORGLEFT
 10
0.0
 20
0.0
 30
0.0
  9
$UCSORGRIGHT
 10
0.0
 20
0.0
 30
0.0
  9
$UCSORGFRONT
 10
0.0
 20
0.0
 30
0.0
  9
$UCSORGBACK
 10
0.0
 20
0.0
 30
0.0
  9
$PUCSBASE
  2

  9
$PUCSNAME
  2

  9
$PUCSORG
 10
0.0
 20
0.0
 30
0.0
  9
$PUCSXDIR
 10
1.0
 20
0.0
 30
0.0
  9
$PUCSYDIR
 10
0.0
 20
1.0
 30
0.0
  9
$PUCSORTHOREF
  2

  9
$PUCSORTHOVIEW
 70
     0
  9
$PUCSORGTOP
 10
0.0
 20
0.0
 30
0.0
  9
$PUCSORGBOTTOM
 10
0.0
 20
0.0
 30
0.0
  9
$PUCSORGLEFT
 10
0.0
 20
0.0
 30
0.0
  9
$PUCSORGRIGHT
 10
0.0
 20
0.0
 30
0.0
  9
$PUCSORGFRONT
 10
0.0
 20
0.0
 30
0.0
  9
$PUCSORGBACK
 10
0.0
 20
0.0
 30
0.0
  9
$USERI1
 70
     0
  9
$USERI2
 70
     0
  9
$USERI3
 70
     0
  9
$USERI4
 70
     0
  9
$USERI5
 70
     0
  9
$USERR1
 40
0.0
  9
$USERR2
 40
0.0
  9
$USERR3
 40
0.0
  9
$USERR4
 40
0.0
  9
$USERR5
 40
0.0
  9
$WORLDVIEW
 70
     1
  9
$SHADEDGE
 70
     3
  9
$SHADEDIF
 70
    70
  9
$TILEMODE
 70
     1
  9
$MAXACTVP
 70
    64
  9
$PINSBASE
 10
0.0
 20
0.0
 30
0.0
  9
$PLIMCHECK
 70
     0
  9
$PEXTMIN
 10
4.65610217015574
 20
3.286023670294071
 30
0.0
  9
$PEXTMAX
 10
2873.756768105222
 20
1966.91281754242
 30
0.0
  9
$PLIMMIN
 10
-45.614588747813
 20
-64.76480907811893
  9
$PLIMMAX
 10
2924.06863879125
 20
2034.968467289068
  9
$UNITMODE
 70
     0
  9
$VISRETAIN
 70
     1
  9
$PLINEGEN
 70
     0
  9
$PSLTSCALE
 70
     1
  9
$TREEDEPTH
 70
  3020
  9
$CMLSTYLE
  2
Standard
  9
$CMLJUST
 70
     0
  9
$CMLSCALE
 40
20.0
  9
$PROXYGRAPHICS
 70
     1
  9
$MEASUREMENT
 70
     0
  9
$CELWEIGHT
370
    -1
  9
$ENDCAPS
280
     0
  9
$JOINSTYLE
280
     0
  9
$LWDISPLAY
290
     1
  9
$INSUNITS
 70
     4
  9
$HYPERLINKBASE
  1

  9
$STYLESHEET
  1
monochrome.ctb
  9
$XEDIT
290
     1
  9
$CEPSNTYPE
380
     0
  9
$PSTYLEMODE
290
     1
  9
$FINGERPRINTGUID
  2
{3D662E1A-938F-11D4-85B7-00C04F172506}
  9
$VERSIONGUID
  2
{B0429738-8BD3-48A7-B542-B280238DB892}
  9
$EXTNAMES
290
     1
  9
$PSVPSCALE
 40
0.0
  9
$OLESTARTUP
290
     1
  9
$SORTENTS
280
   127
  9
$INDEXCTL
280
     0
  9
$HIDETEXT
280
     0
  9
$XCLIPFRAME
280
     0
  9
$HALOGAP
280
     0
  9
$OBSCOLOR
 70
   257
  9
$OBSLTYPE
280
     0
  9
$INTERSECTIONDISPLAY
280
     0
  9
$INTERSECTIONCOLOR
 70
   257
  9
$DIMASSOC
280
     1
  9
$PROJECTNAME
  1

  9
$CAMERADISPLAY
290
     0
  9
$LENSLENGTH
 40
50.0
  9
$CAMERAHEIGHT
 40
0.0
  9
$STEPSPERSEC
 40
2.0
  9
$STEPSIZE
 40
6.0
  9
$3DDWFPREC
 40
2.0
  9
$PSOLWIDTH
 40
0.25
  9
$PSOLHEIGHT
 40
4.0
  9
$LOFTANG1
 40
1.570796326794896
  9
$LOFTANG2
 40
1.570796326794896
  9
$LOFTMAG1
 40
0.0
  9
$LOFTMAG2
 40
0.0
  9
$LOFTPARAM
 70
     7
  9
$LOFTNORMALS
280
     1
  9
$LATITUDE
 40
37.795
  9
$LONGITUDE
 40
-122.394
  9
$NORTHDIRECTION
 40
0.0
  9
$TIMEZONE
 70
 -8000
  9
$LIGHTGLYPHDISPLAY
280
     1
  9
$TILEMODELIGHTSYNCH
280
     1
  9
$CMATERIAL
347
116F
  9
$SOLIDHIST
280
     1
  9
$SHOWHIST
280
     1
  9
$DWFFRAME
280
     2
  9
$DGNFRAME
280
     0
  9
$REALWORLDSCALE
290
     1
  9
$INTERFERECOLOR
 62
     1
  9
$INTERFEREOBJVS
345
1191
  9
$INTERFEREVPVS
346
118E
  9
$CSHADOW
280
     0
  9
$SHADOWPLANELOCATION
 40
0.0
  0
ENDSEC
  0
SECTION
  2
CLASSES
  0
CLASS
  1
ACDBDICTIONARYWDFLT
  2
AcDbDictionaryWithDefault
  3
ObjectDBX Classes
 90
        0
 91
        1
280
     0
281
     0
  0
CLASS
  1
ACDBPLACEHOLDER
  2
AcDbPlaceHolder
  3
ObjectDBX Classes
 90
        0
 91
        1
280
     0
281
     0
  0
CLASS
  1
LAYOUT
  2
AcDbLayout
  3
ObjectDBX Classes
 90
        0
 91
        3
280
     0
281
     0
  0
CLASS
  1
SORTENTSTABLE
  2
AcDbSortentsTable
  3
ObjectDBX Classes
 90
        0
 91
        1
280
     0
281
     0
  0
CLASS
  1
MATERIAL
  2
AcDbMaterial
  3
ObjectDBX Classes
 90
     1153
 91
        3
280
     0
281
     0
  0
CLASS
  1
VISUALSTYLE
  2
AcDbVisualStyle
  3
ObjectDBX Classes
 90
     4095
 91
       19
280
     0
281
     0
  0
CLASS
  1
TABLESTYLE
  2
AcDbTableStyle
  3
ObjectDBX Classes
 90
     4095
 91
        1
280
     0
281
     0
  0
CLASS
  1
SCALE
  2
AcDbScale
  3
ObjectDBX Classes
 90
     1153
 91
       99
280
     0
281
     0
  0
CLASS
  1
MLEADERSTYLE
  2
AcDbMLeaderStyle
  3
ACDB_MLEADERSTYLE_CLASS
 90
     4095
 91
        3
280
     0
281
     0
  0
CLASS
  1
CELLSTYLEMAP
  2
AcDbCellStyleMap
  3
ObjectDBX Classes
 90
     1152
 91
        5
280
     0
281
     0
  0
CLASS
  1
DICTIONARYVAR
  2
AcDbDictionaryVar
  3
ObjectDBX Classes
 90
        0
 91
       11
280
     0
281
     0
  0
CLASS
  1
ACDB_ALDIMOBJECTCONTEXTDATA_CLASS
  2
AcDbAlignedDimensionObjectContextData
  3
ObjectDBX Classes
 90
     1153
 91
        0
280
     0
281
     0
  0
CLASS
  1
EXACXREFPANELOBJECT
  2
ExAcXREFPanelObject
  3
EXAC_ESW
 90
     1025
 91
        0
280
     0
281
     0
  0
CLASS
  1
NPOCOLLECTION
  2
AcDbImpNonPersistentObjectsCollection
  3
ObjectDBX Classes
 90
     1153
 91
        0
280
     0
281
     0
  0
CLASS
  1
SOLID_BACKGROUND
  2
AcDbSolidBackground
  3
SCENEOE
 90
     4095
 91
        0
280
     0
281
     0
  0
CLASS
  1
IMAGE
  2
AcDbRasterImage
  3
ISM
 90
     2175
 91
        0
280
     0
281
     1
  0
CLASS
  1
IMAGEDEF_REACTOR
  2
AcDbRasterImageDefReactor
  3
ISM
 90
        1
 91
        0
280
     0
281
     0
  0
CLASS
  1
RASTERVARIABLES
  2
AcDbRasterVariables
  3
ISM
 90
        0
 91
        1
280
     0
281
     0
  0
CLASS
  1
IMAGEDEF
  2
AcDbRasterImageDef
  3
ISM
 90
        0
 91
        1
280
     0
281
     0
  0
ENDSEC
  0
SECTION
  2
TABLES
  0
TABLE
  2
VPORT
  5
8
102
{ACAD_XDICTIONARY
360
11DC
102
}
330
0
100
AcDbSymbolTable
 70
     1
  0
VPORT
  5
5A256
330
8
100
AcDbSymbolTableRecord
100
AcDbViewportTableRecord
  2
*Active
 70
     0
 10
0.0
 20
0.0
 11
1.0
 21
1.0
 12
176220.8729547436
 22
-42275.84634739507
 13
0.0
 23
0.0
 14
10.0
 24
10.0
 15
10.0
 25
10.0
 16
0.0
 26
0.0
 36
1.0
 17
0.0
 27
0.0
 37
0.0
 40
403.982798290679
 41
2.766260162601625
 42
50.0
 43
0.0
 44
0.0
 50
0.0
 51
0.0
 71
     0
 72
 20000
 73
     1
 74
     3
 75
     0
 76
     0
 77
     0
 78
     0
281
     0
 65
     1
110
0.0
120
0.0
130
0.0
111
1.0
121
0.0
131
0.0
112
0.0
122
1.0
132
0.0
 79
     0
146
0.0
348
118D
 60
     3
 61
     5
292
     1
282
     1
141
0.0
142
0.0
 63
   250
421
  3355443
  0
ENDTAB
  0
TABLE
  2
LTYPE
  5
5
330
0
100
AcDbSymbolTable
 70
     2
  0
LTYPE
  5
14
330
5
100
AcDbSymbolTableRecord
100
AcDbLinetypeTableRecord
  2
ByBlock
 70
     0
  3

 72
    65
 73
     0
 40
0.0
  0
LTYPE
  5
15
330
5
100
AcDbSymbolTableRecord
100
AcDbLinetypeTableRecord
  2
ByLayer
 70
     0
  3

 72
    65
 73
     0
 40
0.0
  0
LTYPE
  5
16
330
5
100
AcDbSymbolTableRecord
100
AcDbLinetypeTableRecord
  2
Continuous
 70
     0
  3
Solid line
 72
    65
 73
     0
 40
0.0
  0
LTYPE
  5
1151
330
5
100
AcDbSymbolTableRecord
100
AcDbLinetypeTableRecord
  2
AXES
 70
     0
  3
Centre ____ _ ____ _ ____ _ ____ _ ____ _ ____
 72
    65
 73
     4
 40
2.0
 49
1.25
 74
     0
 49
-0.25
 74
     0
 49
0.25
 74
     0
 49
-0.25
 74
     0
  0
ENDTAB
  0
TABLE
  2
LAYER
  5
2
102
{ACAD_XDICTIONARY
360
1263
102
}
330
0
100
AcDbSymbolTable
 70
     9
  0
LAYER
  5
10
102
{ACAD_XDICTIONARY
360
11C8
102
}
330
2
100
AcDbSymbolTableRecord
100
AcDbLayerTableRecord
  2
0
 70
     0
 62
     7
  6
Continuous
370
    60
390
F
347
117F
  0
LAYER
  5
2C
102
{ACAD_XDICTIONARY
360
11CA
102
}
330
2
100
AcDbSymbolTableRecord
100
AcDbLayerTableRecord
  2
CARTOUCHE
 70
     0
 62
     7
  6
Continuous
370
    30
390
F
347
117F
  0
LAYER
  5
2D
102
{ACAD_XDICTIONARY
360
11CC
102
}
330
2
100
AcDbSymbolTableRecord
100
AcDbLayerTableRecord
  2
BORDS CARTOUCHE
 70
     0
 62
     6
  6
Continuous
370
    60
390
F
347
117F
  0
LAYER
  5
1C5
330
2
100
AcDbSymbolTableRecord
100
AcDbLayerTableRecord
  2
Defpoints
 70
     0
 62
     7
  6
Continuous
290
     0
370
    -3
390
F
347
117F
  0
LAYER
  5
B6E
102
{ACAD_XDICTIONARY
360
11CE
102
}
330
2
100
AcDbSymbolTableRecord
100
AcDbLayerTableRecord
  2
COTATION
 70
     0
 62
     7
  6
Continuous
370
    25
390
F
347
117F
  0
LAYER
  5
1154
102
{ACAD_XDICTIONARY
360
11D0
102
}
330
2
100
AcDbSymbolTableRecord
100
AcDbLayerTableRecord
  2
AXES
 70
     0
 62
     7
  6
AXES
370
    30
390
F
347
117F
  0
LAYER
  5
1396
330
2
100
AcDbSymbolTableRecord
100
AcDbLayerTableRecord
  2
CONTOURS
 70
     0
 62
     7
  6
Continuous
370
    60
390
F
347
117F
  0
LAYER
  5
139C
330
2
100
AcDbSymbolTableRecord
100
AcDbLayerTableRecord
  2
HACHURES MUR ET SOL
 70
     0
 62
     7
  6
Continuous
370
    15
390
F
347
117F
  0
LAYER
  5
139E
330
2
100
AcDbSymbolTableRecord
100
AcDbLayerTableRecord
  2
TRAITS INTERIEURS FIN
 70
     0
 62
     7
  6
Continuous
370
    20
390
F
347
117F
  0
ENDTAB
  0
TABLE
  2
STYLE
  5
3
330
0
100
AcDbSymbolTable
 70
     2
  0
STYLE
  5
11
330
3
100
AcDbSymbolTableRecord
100
AcDbTextStyleTableRecord
  2
Standard
 70
     0
 40
0.0
 41
1.0
 50
0.0
 71
     0
 42
2.5
  3
ARIAL.TTF
  4

1001
AcadAnnotative
1000
AnnotativeData
1002
{
1070
     1
1070
     0
1002
}
1001
ACAD
1000
Arial
1071
       34
  0
STYLE
  5
2F
330
3
100
AcDbSymbolTableRecord
100
AcDbTextStyleTableRecord
  2
CARTOUCHE
 70
     0
 40
30.0
 41
1.0
 50
0.0
 71
     0
 42
30.0
  3
ARIAL.TTF
  4

1001
ACAD
1000
Arial
1071
       34
  0
ENDTAB
  0
TABLE
  2
VIEW
  5
6
330
0
100
AcDbSymbolTable
 70
     0
  0
ENDTAB
  0
TABLE
  2
UCS
  5
7
330
0
100
AcDbSymbolTable
 70
     0
  0
ENDTAB
  0
TABLE
  2
APPID
  5
9
330
0
100
AcDbSymbolTable
 70
    13
  0
APPID
  5
12
330
9
100
AcDbSymbolTableRecord
100
AcDbRegAppTableRecord
  2
ACAD
 70
     0
  0
APPID
  5
11BE
330
9
100
AcDbSymbolTableRecord
100
AcDbRegAppTableRecord
  2
ACAD_MLEADERVER
 70
     0
  0
APPID
  5
126E
330
9
100
AcDbSymbolTableRecord
100
AcDbRegAppTableRecord
  2
AcAecLayerStandard
 70
     0
  0
APPID
  5
13A2
330
9
100
AcDbSymbolTableRecord
100
AcDbRegAppTableRecord
  2
ACAD_PSEXT
 70
     0
  0
APPID
  5
194D
330
9
100
AcDbSymbolTableRecord
100
AcDbRegAppTableRecord
  2
AcadAnnoPO
 70
     0
  0
APPID
  5
194E
330
9
100
AcDbSymbolTableRecord
100
AcDbRegAppTableRecord
  2
AcadAnnotative
 70
     0
  0
APPID
  5
194F
330
9
100
AcDbSymbolTableRecord
100
AcDbRegAppTableRecord
  2
ACAD_DSTYLE_DIMJAG
 70
     0
  0
APPID
  5
1950
330
9
100
AcDbSymbolTableRecord
100
AcDbRegAppTableRecord
  2
ACAD_DSTYLE_DIMTALN
 70
     0
  0
APPID
  5
2227
330
9
100
AcDbSymbolTableRecord
100
AcDbRegAppTableRecord
  2
ACAD_EXEMPT_FROM_CAD_STANDARDS
 70
     0
  0
APPID
  5
5739
330
9
100
AcDbSymbolTableRecord
100
AcDbRegAppTableRecord
  2
AcadAnnotativeDecomposition
 70
     0
  0
APPID
  5
8C37
330
9
100
AcDbSymbolTableRecord
100
AcDbRegAppTableRecord
  2
ACAD_DSTYLE_DIMRADIAL_EXTENSION
 70
     0
  0
APPID
  5
16D58
330
9
100
AcDbSymbolTableRecord
100
AcDbRegAppTableRecord
  2
ACAD_DSTYLE_DIMFLIPARROW_WHICH_SYMBOL
 70
     0
  0
APPID
  5
377A9
330
9
100
AcDbSymbolTableRecord
100
AcDbRegAppTableRecord
  2
ACAD_DSTYLE_DIMTEXT_FILL
 70
     0
  0
ENDTAB
  0
TABLE
  2
DIMSTYLE
  5
A
330
0
100
AcDbSymbolTable
 70
     2
100
AcDbDimStyleTable
 71
     2
340
27
340
2DA
  0
DIMSTYLE
105
27
330
A
100
AcDbSymbolTableRecord
100
AcDbDimStyleTableRecord
  2
ISO-25
 70
     0
 41
20.0
 42
0.625
 43
3.75
 44
1.25
 77
     1
 78
     8
140
20.0
141
2.5
143
0.03937007874016
147
0.625
171
     3
172
     1
176
   256
177
   256
271
     0
272
     0
274
     3
278
    44
283
     0
284
     8
340
11
371
    -1
372
    -1
  0
DIMSTYLE
105
2DA
330
A
100
AcDbSymbolTableRecord
100
AcDbDimStyleTableRecord
  2
STANDARD
 70
     0
340
11
  0
ENDTAB
  0
TABLE
  2
BLOCK_RECORD
  5
1
330
0
100
AcDbSymbolTable
 70
    20
  0
BLOCK_RECORD
  5
1F
102
{ACAD_XDICTIONARY
360
F6C
102
}
330
1
100
AcDbSymbolTableRecord
100
AcDbBlockTableRecord
  2
*Model_Space
340
22
 70
     0
280
     1
281
     0
  0
BLOCK_RECORD
  5
23
330
1
100
AcDbSymbolTableRecord
100
AcDbBlockTableRecord
  2
*Paper_Space
340
26
 70
     0
280
     1
281
     0
  0
BLOCK_RECORD
  5
1B
330
1
100
AcDbSymbolTableRecord
100
AcDbBlockTableRecord
  2
*Paper_Space0
340
1E
 70
     0
280
     1
281
     0
  0
BLOCK_RECORD
  5
595A3
330
1
100
AcDbSymbolTableRecord
100
AcDbBlockTableRecord
  2
*D1
340
0
 70
     0
280
     1
281
     0
  0
BLOCK_RECORD
  5
595B0
330
1
100
AcDbSymbolTableRecord
100
AcDbBlockTableRecord
  2
*D2
340
0
 70
     0
280
     1
281
     0
  0
BLOCK_RECORD
  5
595BF
330
1
100
AcDbSymbolTableRecord
100
AcDbBlockTableRecord
  2
*D3
340
0
 70
     0
280
     1
281
     0
  0
BLOCK_RECORD
  5
595CC
330
1
100
AcDbSymbolTableRecord
100
AcDbBlockTableRecord
  2
*D4
340
0
 70
     0
280
     1
281
     0
  0
BLOCK_RECORD
  5
595D8
330
1
100
AcDbSymbolTableRecord
100
AcDbBlockTableRecord
  2
*D5
340
0
 70
     0
280
     1
281
     0
  0
BLOCK_RECORD
  5
595F0
330
1
100
AcDbSymbolTableRecord
100
AcDbBlockTableRecord
  2
*D6
340
0
 70
     0
280
     1
281
     0
  0
BLOCK_RECORD
  5
59609
330
1
100
AcDbSymbolTableRecord
100
AcDbBlockTableRecord
  2
*D7
340
0
 70
     0
280
     1
281
     0
  0
BLOCK_RECORD
  5
59613
330
1
100
AcDbSymbolTableRecord
100
AcDbBlockTableRecord
  2
*D8
340
0
 70
     0
280
     1
281
     0
  0
BLOCK_RECORD
  5
597D7
330
1
100
AcDbSymbolTableRecord
100
AcDbBlockTableRecord
  2
*D9
340
0
 70
     0
280
     1
281
     0
  0
BLOCK_RECORD
  5
5987E
330
1
100
AcDbSymbolTableRecord
100
AcDbBlockTableRecord
  2
*D10
340
0
 70
     0
280
     1
281
     0
  0
BLOCK_RECORD
  5
5988B
330
1
100
AcDbSymbolTableRecord
100
AcDbBlockTableRecord
  2
*D11
340
0
 70
     0
280
     1
281
     0
  0
BLOCK_RECORD
  5
59898
330
1
100
AcDbSymbolTableRecord
100
AcDbBlockTableRecord
  2
*D12
340
0
 70
     0
280
     1
281
     0
  0
BLOCK_RECORD
  5
598A4
330
1
100
AcDbSymbolTableRecord
100
AcDbBlockTableRecord
  2
*D13
340
0
 70
     0
280
     1
281
     0
  0
BLOCK_RECORD
  5
5997C
330
1
100
AcDbSymbolTableRecord
100
AcDbBlockTableRecord
  2
*D14
340
0
 70
     0
280
     1
281
     0
  0
BLOCK_RECORD
  5
59995
330
1
100
AcDbSymbolTableRecord
100
AcDbBlockTableRecord
  2
*D15
340
0
 70
     0
280
     1
281
     0
  0
BLOCK_RECORD
  5
599A3
330
1
100
AcDbSymbolTableRecord
100
AcDbBlockTableRecord
  2
*D16
340
0
 70
     0
280
     1
281
     0
  0
BLOCK_RECORD
  5
59ADE
330
1
100
AcDbSymbolTableRecord
100
AcDbBlockTableRecord
  2
*D17
340
0
 70
     0
280
     1
281
     0
  0
BLOCK_RECORD
  5
59FE0
330
1
100
AcDbSymbolTableRecord
100
AcDbBlockTableRecord
  2
*D18
340
0
 70
     0
280
     1
281
     0
  0
BLOCK_RECORD
  5
5A03B
330
1
100
AcDbSymbolTableRecord
100
AcDbBlockTableRecord
  2
*D19
340
0
 70
     0
280
     1
281
     0
  0
ENDTAB
  0
ENDSEC
  0
SECTION
  2
BLOCKS
  0
BLOCK
  5
20
330
1F
100
AcDbEntity
  8
0
100
AcDbBlockBegin
  2
*Model_Space
 70
     0
 10
0.0
 20
0.0
 30
0.0
  3
*Model_Space
  1

  0
ENDBLK
  5
21
330
1F
100
AcDbEntity
  8
0
100
AcDbBlockEnd
  0
BLOCK
  5
24
330
23
100
AcDbEntity
 67
     1
  8
0
100
AcDbBlockBegin
  2
*Paper_Space
 70
     0
 10
0.0
 20
0.0
 30
0.0
  3
*Paper_Space
  1

  0
ENDBLK
  5
25
330
23
100
AcDbEntity
 67
     1
  8
0
100
AcDbBlockEnd
  0
BLOCK
  5
1C
330
1B
100
AcDbEntity
 67
     1
  8
0
100
AcDbBlockBegin
  2
*Paper_Space0
 70
     0
 10
0.0
 20
0.0
 30
0.0
  3
*Paper_Space0
  1

  0
VIEWPORT
  5
10D6
330
1B
100
AcDbEntity
 67
     1
  8
0
100
AcDbViewport
 10
2172.230288162508
 20
2164.44563953854
 30
0.0
 40
9864.54301089811
 41
5157.746774269583
 68
     0
 69
     0
 12
2172.230288162508
 22
2164.44563953854
 13
0.0
 23
0.0
 14
10.0
 24
10.0
 15
10.0
 25
10.0
 16
0.0
 26
0.0
 36
1.0
 17
0.0
 27
0.0
 37
0.0
 42
50.0
 43
0.0
 44
0.0
 45
5157.746774269583
 50
0.0
 51
0.0
 72
 20000
 90
    32800
  1

281
     0
 71
     1
 74
     0
110
0.0
120
0.0
130
0.0
111
1.0
121
0.0
131
0.0
112
0.0
122
1.0
132
0.0
 79
     0
146
0.0
170
     0
 61
     5
348
118D
292
     1
282
     1
141
0.0
142
0.0
 63
   250
421
  3355443
  0
VIEWPORT
  5
10D8
330
1B
100
AcDbEntity
 67
     1
  8
COTATION
100
AcDbViewport
 10
1433.871729034479
 20
982.4849351662237
 30
0.0
 40
2868.848312283058
 41
1962.882051772217
 68
     0
 69
     0
 12
4672.82154075406
 22
2036.915432569854
 13
0.0
 23
0.0
 14
10.0
 24
10.0
 15
10.0
 25
10.0
 16
0.0
 26
0.0
 36
1.0
 17
0.0
 27
0.0
 37
0.0
 42
50.0
 43
0.0
 44
0.0
 45
2021.894736842107
 50
0.0
 51
0.0
 72
 20000
 90
    32864
  1

281
     0
 71
     1
 74
     0
110
0.0
120
0.0
130
0.0
111
1.0
121
0.0
131
0.0
112
0.0
122
1.0
132
0.0
 79
     0
146
0.0
170
     0
 61
     5
348
118D
292
     1
282
     1
141
0.0
142
0.0
 63
   250
421
  3355443
  0
ENDBLK
  5
1D
330
1B
100
AcDbEntity
 67
     1
  8
0
100
AcDbBlockEnd
  0
BLOCK
  5
595AE
330
595A3
100
AcDbEntity
  8
0
 48
30.0
100
AcDbBlockBegin
  2
*D1
 70
     1
 10
0.0
 20
0.0
 30
0.0
  3
*D1
  1

  0
LINE
  5
59EF8
330
595A3
100
AcDbEntity
  8
TRAITS INTERIEURS FIN
 48
30.0
100
AcDbLine
 10
176447.4540884982
 20
-42099.76074993374
 30
0.0
 11
176697.888168491
 21
-42099.76074993374
 31
0.0
  0
LINE
  5
59EF9
330
595A3
100
AcDbEntity
  8
TRAITS INTERIEURS FIN
 48
30.0
100
AcDbLine
 10
176473.9540884983
 20
-42449.76074993374
 30
0.0
 11
176697.888168491
 21
-42449.76074993374
 31
0.0
  0
LINE
  5
59EFA
330
595A3
100
AcDbEntity
  8
TRAITS INTERIEURS FIN
 48
30.0
100
AcDbLine
 10
176687.888168491
 20
-42149.76074993374
 30
0.0
 11
176687.888168491
 21
-42229.21504734165
 31
0.0
  0
LINE
  5
59EFB
330
595A3
100
AcDbEntity
  8
TRAITS INTERIEURS FIN
 48
30.0
100
AcDbLine
 10
176687.888168491
 20
-42399.76074993373
 30
0.0
 11
176687.888168491
 21
-42320.30645252582
 31
0.0
  0
SOLID
  5
59EFC
330
595A3
100
AcDbEntity
  8
TRAITS INTERIEURS FIN
 48
30.0
100
AcDbTrace
 10
176679.5548351577
 20
-42149.76074993374
 30
0.0
 11
176696.2215018244
 21
-42149.76074993374
 31
0.0
 12
176687.888168491
 22
-42099.76074993374
 32
0.0
 13
176687.888168491
 23
-42099.76074993374
 33
0.0
  0
SOLID
  5
59EFD
330
595A3
100
AcDbEntity
  8
TRAITS INTERIEURS FIN
 48
30.0
100
AcDbTrace
 10
176679.5548351577
 20
-42399.76074993373
 30
0.0
 11
176696.2215018244
 21
-42399.76074993373
 31
0.0
 12
176687.888168491
 22
-42449.76074993374
 32
0.0
 13
176687.888168491
 23
-42449.76074993374
 33
0.0
  0
MTEXT
  5
59EFE
330
595A3
100
AcDbEntity
  8
TRAITS INTERIEURS FIN
 62
     0
 48
30.0
100
AcDbMText
 10
176687.888168491
 20
-42274.7607499337
 30
0.0
 40
50.0
 41
0.0
 46
0.0
 71
     5
 72
     1
  1
{\fArial|b0|i0|c0|p34;350}
 73
     1
 44
1.0
  0
POINT
  5
59EFF
330
595A3
100
AcDbEntity
  8
Defpoints
 62
     0
 48
30.0
100
AcDbPoint
 10
176402.4540884982
 20
-42099.76074993374
 30
0.0
  0
POINT
  5
59F00
330
595A3
100
AcDbEntity
  8
Defpoints
 62
     0
 48
30.0
100
AcDbPoint
 10
176428.9540884982
 20
-42449.76074993374
 30
0.0
  0
POINT
  5
59F01
330
595A3
100
AcDbEntity
  8
Defpoints
 62
     0
 48
30.0
100
AcDbPoint
 10
176687.888168491
 20
-42449.76074993374
 30
0.0
  0
ENDBLK
  5
595AF
330
595A3
100
AcDbEntity
  8
0
 48
30.0
100
AcDbBlockEnd
  0
BLOCK
  5
595BD
330
595B0
100
AcDbEntity
  8
0
 48
30.0
100
AcDbBlockBegin
  2
*D2
 70
     1
 10
0.0
 20
0.0
 30
0.0
  3
*D2
  1

  0
LINE
  5
59F02
330
595B0
100
AcDbEntity
  8
TRAITS INTERIEURS FIN
 48
30.0
100
AcDbLine
 10
176473.9540884983
 20
-42099.76074993373
 30
0.0
 11
176538.6799029325
 21
-42099.76074993373
 31
0.0
  0
LINE
  5
59F03
330
595B0
100
AcDbEntity
  8
TRAITS INTERIEURS FIN
 48
30.0
100
AcDbLine
 10
176475.5535507302
 20
-42194.76043864777
 30
0.0
 11
176538.6799029325
 21
-42194.76043864777
 31
0.0
  0
LINE
  5
59F04
330
595B0
100
AcDbEntity
  8
TRAITS INTERIEURS FIN
 48
30.0
100
AcDbLine
 10
176528.6799029326
 20
-42049.76074993373
 30
0.0
 11
176528.6799029326
 21
-41999.76074993373
 31
0.0
  0
LINE
  5
59F05
330
595B0
100
AcDbEntity
  8
TRAITS INTERIEURS FIN
 48
30.0
100
AcDbLine
 10
176528.6799029326
 20
-42244.76043864777
 30
0.0
 11
176528.6799029326
 21
-42294.76043864777
 31
0.0
  0
SOLID
  5
59F06
330
595B0
100
AcDbEntity
  8
TRAITS INTERIEURS FIN
 48
30.0
100
AcDbTrace
 10
176520.3465695992
 20
-42049.76074993373
 30
0.0
 11
176537.0132362659
 21
-42049.76074993373
 31
0.0
 12
176528.6799029326
 22
-42099.76074993373
 32
0.0
 13
176528.6799029326
 23
-42099.76074993373
 33
0.0
  0
SOLID
  5
59F07
330
595B0
100
AcDbEntity
  8
TRAITS INTERIEURS FIN
 48
30.0
100
AcDbTrace
 10
176520.3465695992
 20
-42244.76043864777
 30
0.0
 11
176537.0132362659
 21
-42244.76043864777
 31
0.0
 12
176528.6799029326
 22
-42194.76043864777
 32
0.0
 13
176528.6799029326
 23
-42194.76043864777
 33
0.0
  0
MTEXT
  5
59F08
330
595B0
100
AcDbEntity
  8
TRAITS INTERIEURS FIN
 62
     0
 48
30.0
100
AcDbMText
 10
176528.6799029326
 20
-42147.26059429072
 30
0.0
 40
50.0
 41
0.0
 46
0.0
 71
     5
 72
     1
  1
{\fArial|b0|i0|c0|p34;95}
 73
     1
 44
1.0
  0
POINT
  5
59F09
330
595B0
100
AcDbEntity
  8
Defpoints
 62
     0
 48
30.0
100
AcDbPoint
 10
176428.9540884982
 20
-42099.76074993373
 30
0.0
  0
POINT
  5
59F0A
330
595B0
100
AcDbEntity
  8
Defpoints
 62
     0
 48
30.0
100
AcDbPoint
 10
176430.5535507302
 20
-42194.76043864777
 30
0.0
  0
POINT
  5
59F0B
330
595B0
100
AcDbEntity
  8
Defpoints
 62
     0
 48
30.0
100
AcDbPoint
 10
176528.6799029326
 20
-42194.76043864777
 30
0.0
  0
ENDBLK
  5
595BE
330
595B0
100
AcDbEntity
  8
0
 48
30.0
100
AcDbBlockEnd
  0
BLOCK
  5
595CA
330
595BF
100
AcDbEntity
  8
0
 48
30.0
100
AcDbBlockBegin
  2
*D3
 70
     1
 10
0.0
 20
0.0
 30
0.0
  3
*D3
  1

  0
LINE
  5
59F0C
330
595BF
100
AcDbEntity
  8
TRAITS INTERIEURS FIN
 48
30.0
100
AcDbLine
 10
176473.9540884983
 20
-42413.75247819857
 30
0.0
 11
176538.6799029325
 21
-42413.75247819857
 31
0.0
  0
LINE
  5
59F0D
330
595BF
100
AcDbEntity
  8
TRAITS INTERIEURS FIN
 48
30.0
100
AcDbLine
 10
176483.6799029326
 20
-42194.76043864777
 30
0.0
 11
176518.6799029326
 21
-42194.76043864777
 31
0.0
  0
LINE
  5
59F0E
330
595BF
100
AcDbEntity
  8
TRAITS INTERIEURS FIN
 48
30.0
100
AcDbLine
 10
176528.6799029326
 20
-42363.75247819856
 30
0.0
 11
176528.6799029326
 21
-42349.78510780928
 31
0.0
  0
LINE
  5
59F0F
330
595BF
100
AcDbEntity
  8
TRAITS INTERIEURS FIN
 48
30.0
100
AcDbLine
 10
176528.6799029326
 20
-42244.76043864777
 30
0.0
 11
176528.6799029326
 21
-42258.72780903712
 31
0.0
  0
SOLID
  5
59F10
330
595BF
100
AcDbEntity
  8
TRAITS INTERIEURS FIN
 48
30.0
100
AcDbTrace
 10
176520.3465695992
 20
-42363.75247819856
 30
0.0
 11
176537.0132362659
 21
-42363.75247819856
 31
0.0
 12
176528.6799029326
 22
-42413.75247819857
 32
0.0
 13
176528.6799029326
 23
-42413.75247819857
 33
0.0
  0
SOLID
  5
59F11
330
595BF
100
AcDbEntity
  8
TRAITS INTERIEURS FIN
 48
30.0
100
AcDbTrace
 10
176520.3465695992
 20
-42244.76043864777
 30
0.0
 11
176537.0132362659
 21
-42244.76043864777
 31
0.0
 12
176528.6799029326
 22
-42194.76043864777
 32
0.0
 13
176528.6799029326
 23
-42194.76043864777
 33
0.0
  0
MTEXT
  5
59F12
330
595BF
100
AcDbEntity
  8
TRAITS INTERIEURS FIN
 62
     0
 48
30.0
100
AcDbMText
 10
176528.6799029326
 20
-42304.25645842317
 30
0.0
 40
50.0
 41
0.0
 46
0.0
 71
     5
 72
     1
  1
{\fArial|b0|i0|c0|p34;220}
 73
     1
 44
1.0
  0
POINT
  5
59F13
330
595BF
100
AcDbEntity
  8
Defpoints
 62
     0
 48
30.0
100
AcDbPoint
 10
176428.9540884982
 20
-42413.75247819857
 30
0.0
  0
POINT
  5
59F14
330
595BF
100
AcDbEntity
  8
Defpoints
 62
     0
 48
30.0
100
AcDbPoint
 10
176528.6799029326
 20
-42194.76043864777
 30
0.0
  0
POINT
  5
59F15
330
595BF
100
AcDbEntity
  8
Defpoints
 62
     0
 48
30.0
100
AcDbPoint
 10
176528.6799029326
 20
-42194.76043864777
 30
0.0
  0
ENDBLK
  5
595CB
330
595BF
100
AcDbEntity
  8
0
 48
30.0
100
AcDbBlockEnd
  0
BLOCK
  5
595D6
330
595CC
100
AcDbEntity
  8
0
 48
30.0
100
AcDbBlockBegin
  2
*D4
 70
     1
 10
0.0
 20
0.0
 30
0.0
  3
*D4
  1

  0
LINE
  5
59F16
330
595CC
100
AcDbEntity
  8
TRAITS INTERIEURS FIN
 48
30.0
100
AcDbLine
 10
176016.4941618083
 20
-42494.76074993373
 30
0.0
 11
176016.4941618083
 21
-42609.76074993374
 31
0.0
  0
LINE
  5
59F17
330
595CC
100
AcDbEntity
  8
TRAITS INTERIEURS FIN
 48
30.0
100
AcDbLine
 10
176391.426959826
 20
-42494.10671312516
 30
0.0
 11
176391.426959826
 21
-42609.76074993374
 31
0.0
  0
LINE
  5
59F18
330
595CC
100
AcDbEntity
  8
TRAITS INTERIEURS FIN
 48
30.0
100
AcDbLine
 10
176066.4941618083
 20
-42599.76074993374
 30
0.0
 11
176341.4269598261
 21
-42599.76074993374
 31
0.0
  0
SOLID
  5
59F19
330
595CC
100
AcDbEntity
  8
TRAITS INTERIEURS FIN
 48
30.0
100
AcDbTrace
 10
176066.4941618083
 20
-42591.4274166004
 30
0.0
 11
176066.4941618083
 21
-42608.09408326707
 31
0.0
 12
176016.4941618083
 22
-42599.76074993374
 32
0.0
 13
176016.4941618083
 23
-42599.76074993374
 33
0.0
  0
SOLID
  5
59F1A
330
595CC
100
AcDbEntity
  8
TRAITS INTERIEURS FIN
 48
30.0
100
AcDbTrace
 10
176341.4269598261
 20
-42591.4274166004
 30
0.0
 11
176341.4269598261
 21
-42608.09408326707
 31
0.0
 12
176391.426959826
 22
-42599.76074993374
 32
0.0
 13
176391.426959826
 23
-42599.76074993374
 33
0.0
  0
MTEXT
  5
59F1B
330
595CC
100
AcDbEntity
  8
TRAITS INTERIEURS FIN
 62
     0
 48
30.0
100
AcDbMText
 10
176203.9605608172
 20
-42554.21504734165
 30
0.0
 40
50.0
 41
0.0
 46
0.0
 71
     5
 72
     1
  1
{\fArial|b0|i0|c0|p34;375}
 73
     1
 44
1.0
  0
POINT
  5
59F1C
330
595CC
100
AcDbEntity
  8
Defpoints
 62
     0
 48
30.0
100
AcDbPoint
 10
176016.4941618083
 20
-42449.76074993374
 30
0.0
  0
POINT
  5
59F1D
330
595CC
100
AcDbEntity
  8
Defpoints
 62
     0
 48
30.0
100
AcDbPoint
 10
176391.426959826
 20
-42449.10671312517
 30
0.0
  0
POINT
  5
59F1E
330
595CC
100
AcDbEntity
  8
Defpoints
 62
     0
 48
30.0
100
AcDbPoint
 10
176391.426959826
 20
-42599.76074993374
 30
0.0
  0
ENDBLK
  5
595D7
330
595CC
100
AcDbEntity
  8
0
 48
30.0
100
AcDbBlockEnd
  0
BLOCK
  5
595E2
330
595D8
100
AcDbEntity
  8
0
 48
30.0
100
AcDbBlockBegin
  2
*D5
 70
     1
 10
0.0
 20
0.0
 30
0.0
  3
*D5
  1

  0
LINE
  5
59F1F
330
595D8
100
AcDbEntity
  8
TRAITS INTERIEURS FIN
 48
30.0
100
AcDbLine
 10
175978.9540884982
 20
-42494.76074993373
 30
0.0
 11
175978.9540884982
 21
-42709.76074993374
 31
0.0
  0
LINE
  5
59F20
330
595D8
100
AcDbEntity
  8
TRAITS INTERIEURS FIN
 48
30.0
100
AcDbLine
 10
176428.9540884982
 20
-42494.76074993373
 30
0.0
 11
176428.9540884982
 21
-42709.76074993374
 31
0.0
  0
LINE
  5
59F21
330
595D8
100
AcDbEntity
  8
TRAITS INTERIEURS FIN
 48
30.0
100
AcDbLine
 10
176028.9540884982
 20
-42699.76074993373
 30
0.0
 11
176378.9540884982
 21
-42699.76074993373
 31
0.0
  0
SOLID
  5
59F22
330
595D8
100
AcDbEntity
  8
TRAITS INTERIEURS FIN
 48
30.0
100
AcDbTrace
 10
176028.9540884982
 20
-42691.4274166004
 30
0.0
 11
176028.9540884982
 21
-42708.09408326707
 31
0.0
 12
175978.9540884982
 22
-42699.76074993373
 32
0.0
 13
175978.9540884982
 23
-42699.76074993373
 33
0.0
  0
SOLID
  5
59F23
330
595D8
100
AcDbEntity
  8
TRAITS INTERIEURS FIN
 48
30.0
100
AcDbTrace
 10
176378.9540884982
 20
-42691.4274166004
 30
0.0
 11
176378.9540884982
 21
-42708.09408326707
 31
0.0
 12
176428.9540884982
 22
-42699.76074993373
 32
0.0
 13
176428.9540884982
 23
-42699.76074993373
 33
0.0
  0
MTEXT
  5
59F24
330
595D8
100
AcDbEntity
  8
TRAITS INTERIEURS FIN
 62
     0
 48
30.0
100
AcDbMText
 10
176203.9540884982
 20
-42654.23210054765
 30
0.0
 40
50.0
 41
0.0
 46
0.0
 71
     5
 72
     1
  1
{\fArial|b0|i0|c0|p34;450}
 73
     1
 44
1.0
  0
POINT
  5
59F25
330
595D8
100
AcDbEntity
  8
Defpoints
 62
     0
 48
30.0
100
AcDbPoint
 10
175978.9540884982
 20
-42449.76074993374
 30
0.0
  0
POINT
  5
59F26
330
595D8
100
AcDbEntity
  8
Defpoints
 62
     0
 48
30.0
100
AcDbPoint
 10
176428.9540884982
 20
-42449.76074993374
 30
0.0
  0
POINT
  5
59F27
330
595D8
100
AcDbEntity
  8
Defpoints
 62
     0
 48
30.0
100
AcDbPoint
 10
176428.9540884982
 20
-42699.76074993373
 30
0.0
  0
ENDBLK
  5
595E3
330
595D8
100
AcDbEntity
  8
0
 48
30.0
100
AcDbBlockEnd
  0
BLOCK
  5
595FD
330
595F0
100
AcDbEntity
  8
0
 48
30.0
100
AcDbBlockBegin
  2
*D6
 70
     1
 10
0.0
 20
0.0
 30
0.0
  3
*D6
  1

  0
LINE
  5
59F28
330
595F0
100
AcDbEntity
  8
TRAITS INTERIEURS FIN
 48
30.0
100
AcDbLine
 10
175941.1424904477
 20
-42157.76074993374
 30
0.0
 11
175861.1353736669
 21
-42157.76074993374
 31
0.0
  0
LINE
  5
59F29
330
595F0
100
AcDbEntity
  8
TRAITS INTERIEURS FIN
 48
30.0
100
AcDbLine
 10
175960.4540884982
 20
-42099.76074993377
 30
0.0
 11
175861.1353736669
 21
-42099.76074993377
 31
0.0
  0
LINE
  5
59F2A
330
595F0
100
AcDbEntity
  8
TRAITS INTERIEURS FIN
 48
30.0
100
AcDbLine
 10
175871.1353736669
 20
-42207.76074993374
 30
0.0
 11
175871.1353736669
 21
-42257.76074993373
 31
0.0
  0
LINE
  5
59F2B
330
595F0
100
AcDbEntity
  8
TRAITS INTERIEURS FIN
 48
30.0
100
AcDbLine
 10
175871.1353736669
 20
-42049.76074993377
 30
0.0
 11
175871.1353736669
 21
-41999.76074993378
 31
0.0
  0
SOLID
  5
59F2C
330
595F0
100
AcDbEntity
  8
TRAITS INTERIEURS FIN
 48
30.0
100
AcDbTrace
 10
175862.8020403336
 20
-42207.76074993374
 30
0.0
 11
175879.4687070003
 21
-42207.76074993374
 31
0.0
 12
175871.1353736669
 22
-42157.76074993374
 32
0.0
 13
175871.1353736669
 23
-42157.76074993374
 33
0.0
  0
SOLID
  5
59F2D
330
595F0
100
AcDbEntity
  8
TRAITS INTERIEURS FIN
 48
30.0
100
AcDbTrace
 10
175862.8020403336
 20
-42049.76074993377
 30
0.0
 11
175879.4687070003
 21
-42049.76074993377
 31
0.0
 12
175871.1353736669
 22
-42099.76074993377
 32
0.0
 13
175871.1353736669
 23
-42099.76074993377
 33
0.0
  0
MTEXT
  5
59F2E
330
595F0
100
AcDbEntity
  8
TRAITS INTERIEURS FIN
 62
     0
 48
30.0
100
AcDbMText
 10
175871.1353736669
 20
-42128.76074993372
 30
0.0
 40
50.0
 41
0.0
 46
0.0
 71
     5
 72
     1
  1
{\fArial|b0|i0|c0|p34;60}
 73
     1
 44
1.0
  0
POINT
  5
59F2F
330
595F0
100
AcDbEntity
  8
Defpoints
 62
     0
 48
30.0
100
AcDbPoint
 10
175986.1424904477
 20
-42157.76074993374
 30
0.0
  0
POINT
  5
59F30
330
595F0
100
AcDbEntity
  8
Defpoints
 62
     0
 48
30.0
100
AcDbPoint
 10
176005.4540884982
 20
-42099.76074993377
 30
0.0
  0
POINT
  5
59F31
330
595F0
100
AcDbEntity
  8
Defpoints
 62
     0
 48
30.0
100
AcDbPoint
 10
175871.1353736669
 20
-42099.76074993377
 30
0.0
  0
ENDBLK
  5
595FE
330
595F0
100
AcDbEntity
  8
0
 48
30.0
100
AcDbBlockEnd
  0
BLOCK
  5
59611
330
59609
100
AcDbEntity
  8
0
 48
30.0
100
AcDbBlockBegin
  2
*D7
 70
     1
 10
0.0
 20
0.0
 30
0.0
  3
*D7
  1

  0
LINE
  5
5A173
330
59609
100
AcDbEntity
  8
TRAITS INTERIEURS FIN
 48
30.0
100
AcDbLine
 10
176383.8252933506
 20
-42031.2261666721
 30
0.0
 11
176237.4269304584
 21
-42031.2261666721
 31
0.0
  0
LINE
  5
5A174
330
59609
100
AcDbEntity
  8
TRAITS INTERIEURS FIN
 48
30.0
100
AcDbLine
 10
176237.4269304584
 20
-42031.2261666721
 30
0.0
 11
176221.2164229885
 21
-42092.50539147211
 31
0.0
  0
MTEXT
  5
5A175
330
59609
100
AcDbEntity
  8
TRAITS INTERIEURS FIN
 62
     0
 48
30.0
100
AcDbMText
 10
176320.6261119044
 20
-41984.29915439381
 30
0.0
 40
50.0
 41
0.0
 46
0.0
 71
     5
 72
     1
  1
{\fArial|b0|i0|c0|p34;%%c35}
 73
     1
 44
1.0
  0
SOLID
  5
5A176
330
59609
100
AcDbEntity
  8
TRAITS INTERIEURS FIN
 48
30.0
100
AcDbTrace
 10
176213.1602058944
 20
-42090.37423906592
 30
0.0
 11
176229.2726400825
 21
-42094.63654387831
 31
0.0
 12
176208.4295085513
 22
-42140.84269403625
 32
0.0
 13
176208.4295085513
 23
-42140.84269403625
 33
0.0
  0
POINT
  5
5A177
330
59609
100
AcDbEntity
  8
Defpoints
 62
     0
 48
30.0
100
AcDbPoint
 10
176208.4295085513
 20
-42140.84269403625
 30
0.0
  0
POINT
  5
5A178
330
59609
100
AcDbEntity
  8
Defpoints
 62
     0
 48
30.0
100
AcDbPoint
 10
176203.9540884983
 20
-42157.76074993372
 30
0.0
  0
ENDBLK
  5
59612
330
59609
100
AcDbEntity
  8
0
 48
30.0
100
AcDbBlockEnd
  0
BLOCK
  5
5961D
330
59613
100
AcDbEntity
  8
0
 48
30.0
100
AcDbBlockBegin
  2
*D8
 70
     1
 10
0.0
 20
0.0
 30
0.0
  3
*D8
  1

  0
LINE
  5
5A179
330
59613
100
AcDbEntity
  8
TRAITS INTERIEURS FIN
 48
30.0
100
AcDbLine
 10
176005.4540884982
 20
-42031.22616667213
 30
0.0
 11
176005.4540884982
 21
-41919.76074993376
 31
0.0
  0
LINE
  5
5A17A
330
59613
100
AcDbEntity
  8
TRAITS INTERIEURS FIN
 48
30.0
100
AcDbLine
 10
176402.4540884982
 20
-42031.22616667213
 30
0.0
 11
176402.4540884982
 21
-41919.76074993376
 31
0.0
  0
LINE
  5
5A17B
330
59613
100
AcDbEntity
  8
TRAITS INTERIEURS FIN
 48
30.0
100
AcDbLine
 10
176055.4540884983
 20
-41929.76074993376
 30
0.0
 11
176352.4540884982
 21
-41929.76074993376
 31
0.0
  0
SOLID
  5
5A17C
330
59613
100
AcDbEntity
  8
TRAITS INTERIEURS FIN
 48
30.0
100
AcDbTrace
 10
176055.4540884983
 20
-41921.42741660042
 30
0.0
 11
176055.4540884983
 21
-41938.0940832671
 31
0.0
 12
176005.4540884982
 22
-41929.76074993376
 32
0.0
 13
176005.4540884982
 23
-41929.76074993376
 33
0.0
  0
SOLID
  5
5A17D
330
59613
100
AcDbEntity
  8
TRAITS INTERIEURS FIN
 48
30.0
100
AcDbTrace
 10
176352.4540884982
 20
-41921.42741660042
 30
0.0
 11
176352.4540884982
 21
-41938.0940832671
 31
0.0
 12
176402.4540884982
 22
-41929.76074993376
 32
0.0
 13
176402.4540884982
 23
-41929.76074993376
 33
0.0
  0
MTEXT
  5
5A17E
330
59613
100
AcDbEntity
  8
TRAITS INTERIEURS FIN
 62
     0
 48
30.0
100
AcDbMText
 10
176203.9540884982
 20
-41884.23210054767
 30
0.0
 40
50.0
 41
0.0
 46
0.0
 71
     5
 72
     1
  1
{\fArial|b0|i0|c0|p34;400}
 73
     1
 44
1.0
  0
POINT
  5
5A17F
330
59613
100
AcDbEntity
  8
Defpoints
 62
     0
 48
30.0
100
AcDbPoint
 10
176005.4540884982
 20
-42076.22616667213
 30
0.0
  0
POINT
  5
5A180
330
59613
100
AcDbEntity
  8
Defpoints
 62
     0
 48
30.0
100
AcDbPoint
 10
176402.4540884982
 20
-42076.22616667213
 30
0.0
  0
POINT
  5
5A181
330
59613
100
AcDbEntity
  8
Defpoints
 62
     0
 48
30.0
100
AcDbPoint
 10
176402.4540884982
 20
-41929.76074993376
 30
0.0
  0
ENDBLK
  5
5961E
330
59613
100
AcDbEntity
  8
0
 48
30.0
100
AcDbBlockEnd
  0
BLOCK
  5
597E2
330
597D7
100
AcDbEntity
  8
0
 48
30.0
100
AcDbBlockBegin
  2
*D9
 70
     1
 10
0.0
 20
0.0
 30
0.0
  3
*D9
  1

  0
LINE
  5
59F41
330
597D7
100
AcDbEntity
  8
TRAITS INTERIEURS FIN
 48
30.0
100
AcDbLine
 10
175933.9540884982
 20
-42099.76074993373
 30
0.0
 11
175745.2632483575
 21
-42099.76074993373
 31
0.0
  0
LINE
  5
59F42
330
597D7
100
AcDbEntity
  8
TRAITS INTERIEURS FIN
 48
30.0
100
AcDbLine
 10
175935.6675058185
 20
-42259.76074993374
 30
0.0
 11
175745.2632483575
 21
-42259.76074993374
 31
0.0
  0
LINE
  5
59F43
330
597D7
100
AcDbEntity
  8
TRAITS INTERIEURS FIN
 48
30.0
100
AcDbLine
 10
175755.2632483576
 20
-42049.76074993373
 30
0.0
 11
175755.2632483576
 21
-41999.76074993373
 31
0.0
  0
LINE
  5
59F44
330
597D7
100
AcDbEntity
  8
TRAITS INTERIEURS FIN
 48
30.0
100
AcDbLine
 10
175755.2632483576
 20
-42309.76074993374
 30
0.0
 11
175755.2632483576
 21
-42359.76074993374
 31
0.0
  0
SOLID
  5
59F45
330
597D7
100
AcDbEntity
  8
TRAITS INTERIEURS FIN
 48
30.0
100
AcDbTrace
 10
175746.9299150242
 20
-42049.76074993373
 30
0.0
 11
175763.5965816909
 21
-42049.76074993373
 31
0.0
 12
175755.2632483576
 22
-42099.76074993373
 32
0.0
 13
175755.2632483576
 23
-42099.76074993373
 33
0.0
  0
SOLID
  5
59F46
330
597D7
100
AcDbEntity
  8
TRAITS INTERIEURS FIN
 48
30.0
100
AcDbTrace
 10
175746.9299150242
 20
-42309.76074993374
 30
0.0
 11
175763.5965816909
 21
-42309.76074993374
 31
0.0
 12
175755.2632483576
 22
-42259.76074993374
 32
0.0
 13
175755.2632483576
 23
-42259.76074993374
 33
0.0
  0
MTEXT
  5
59F47
330
597D7
100
AcDbEntity
  8
TRAITS INTERIEURS FIN
 62
     0
 48
30.0
100
AcDbMText
 10
175755.2632483576
 20
-42177.95562555505
 30
0.0
 40
50.0
 41
0.0
 46
0.0
 71
     5
 72
     1
  1
{\fArial|b0|i0|c0|p34;160}
 73
     1
 44
1.0
  0
POINT
  5
59F48
330
597D7
100
AcDbEntity
  8
Defpoints
 62
     0
 48
30.0
100
AcDbPoint
 10
175978.9540884982
 20
-42099.76074993373
 30
0.0
  0
POINT
  5
59F49
330
597D7
100
AcDbEntity
  8
Defpoints
 62
     0
 48
30.0
100
AcDbPoint
 10
175980.6675058185
 20
-42259.76074993374
 30
0.0
  0
POINT
  5
59F4A
330
597D7
100
AcDbEntity
  8
Defpoints
 62
     0
 48
30.0
100
AcDbPoint
 10
175755.2632483576
 20
-42259.76074993374
 30
0.0
  0
ENDBLK
  5
597E3
330
597D7
100
AcDbEntity
  8
0
 48
30.0
100
AcDbBlockEnd
  0
BLOCK
  5
59889
330
5987E
100
AcDbEntity
  8
0
 48
30.0
100
AcDbBlockBegin
  2
*D10
 70
     1
 10
0.0
 20
0.0
 30
0.0
  3
*D10
  1

  0
LINE
  5
5A18C
330
5987E
100
AcDbEntity
  8
COTATION
 48
30.0
100
AcDbLine
 10
177640.7053124616
 20
-42215.09067020773
 30
0.0
 11
177804.2193964205
 21
-42215.09067020773
 31
0.0
  0
LINE
  5
5A18D
330
5987E
100
AcDbEntity
  8
COTATION
 48
30.0
100
AcDbLine
 10
177766.239965524
 20
-42895.09067020772
 30
0.0
 11
177804.2193964205
 21
-42895.09067020772
 31
0.0
  0
LINE
  5
5A18E
330
5987E
100
AcDbEntity
  8
COTATION
 48
30.0
100
AcDbLine
 10
177794.2193964206
 20
-42265.09067020773
 30
0.0
 11
177794.2193964206
 21
-42509.56202082164
 31
0.0
  0
LINE
  5
5A18F
330
5987E
100
AcDbEntity
  8
COTATION
 48
30.0
100
AcDbLine
 10
177794.2193964206
 20
-42845.09067020772
 30
0.0
 11
177794.2193964206
 21
-42600.61931959381
 31
0.0
  0
SOLID
  5
5A190
330
5987E
100
AcDbEntity
  8
COTATION
 48
30.0
100
AcDbTrace
 10
177785.8860630872
 20
-42265.09067020773
 30
0.0
 11
177802.5527297539
 21
-42265.09067020773
 31
0.0
 12
177794.2193964206
 22
-42215.09067020773
 32
0.0
 13
177794.2193964206
 23
-42215.09067020773
 33
0.0
  0
SOLID
  5
5A191
330
5987E
100
AcDbEntity
  8
COTATION
 48
30.0
100
AcDbTrace
 10
177785.8860630872
 20
-42845.09067020772
 30
0.0
 11
177802.5527297539
 21
-42845.09067020772
 31
0.0
 12
177794.2193964206
 22
-42895.09067020772
 32
0.0
 13
177794.2193964206
 23
-42895.09067020772
 33
0.0
  0
MTEXT
  5
5A192
330
5987E
100
AcDbEntity
  8
COTATION
 62
     0
 48
30.0
100
AcDbMText
 10
177794.2193964206
 20
-42555.0906702077
 30
0.0
 40
50.0
 41
0.0
 46
0.0
 71
     5
 72
     1
  1
680
 73
     1
 44
1.0
  0
POINT
  5
5A193
330
5987E
100
AcDbEntity
  8
Defpoints
 62
     0
 48
30.0
100
AcDbPoint
 10
177595.7053124616
 20
-42215.09067020773
 30
0.0
  0
POINT
  5
5A194
330
5987E
100
AcDbEntity
  8
Defpoints
 62
     0
 48
30.0
100
AcDbPoint
 10
177721.239965524
 20
-42895.09067020772
 30
0.0
  0
POINT
  5
5A195
330
5987E
100
AcDbEntity
  8
Defpoints
 62
     0
 48
30.0
100
AcDbPoint
 10
177794.2193964206
 20
-42895.09067020772
 30
0.0
  0
ENDBLK
  5
5988A
330
5987E
100
AcDbEntity
  8
0
 48
30.0
100
AcDbBlockEnd
  0
BLOCK
  5
59896
330
5988B
100
AcDbEntity
  8
0
 48
30.0
100
AcDbBlockBegin
  2
*D11
 70
     1
 10
0.0
 20
0.0
 30
0.0
  3
*D11
  1

  0
LINE
  5
5A196
330
5988B
100
AcDbEntity
  8
COTATION
 48
30.0
100
AcDbLine
 10
177440.7053124616
 20
-42264.44183848204
 30
0.0
 11
177268.5693304104
 21
-42264.44183848204
 31
0.0
  0
LINE
  5
5A197
330
5988B
100
AcDbEntity
  8
COTATION
 48
30.0
100
AcDbLine
 10
177372.4481703746
 20
-42895.09067020772
 30
0.0
 11
177268.5693304104
 21
-42895.09067020772
 31
0.0
  0
LINE
  5
5A198
330
5988B
100
AcDbEntity
  8
COTATION
 48
30.0
100
AcDbLine
 10
177278.5693304104
 20
-42314.44183848203
 30
0.0
 11
177278.5693304104
 21
-42534.22055175279
 31
0.0
  0
LINE
  5
5A199
330
5988B
100
AcDbEntity
  8
COTATION
 48
30.0
100
AcDbLine
 10
177278.5693304104
 20
-42845.09067020772
 30
0.0
 11
177278.5693304104
 21
-42625.31195693696
 31
0.0
  0
SOLID
  5
5A19A
330
5988B
100
AcDbEntity
  8
COTATION
 48
30.0
100
AcDbTrace
 10
177270.2359970771
 20
-42314.44183848203
 30
0.0
 11
177286.9026637438
 21
-42314.44183848203
 31
0.0
 12
177278.5693304104
 22
-42264.44183848204
 32
0.0
 13
177278.5693304104
 23
-42264.44183848204
 33
0.0
  0
SOLID
  5
5A19B
330
5988B
100
AcDbEntity
  8
COTATION
 48
30.0
100
AcDbTrace
 10
177270.2359970771
 20
-42845.09067020772
 30
0.0
 11
177286.9026637438
 21
-42845.09067020772
 31
0.0
 12
177278.5693304104
 22
-42895.09067020772
 32
0.0
 13
177278.5693304104
 23
-42895.09067020772
 33
0.0
  0
MTEXT
  5
5A19C
330
5988B
100
AcDbEntity
  8
COTATION
 62
     0
 48
30.0
100
AcDbMText
 10
177278.5693304104
 20
-42579.76625434485
 30
0.0
 40
50.0
 41
0.0
 46
0.0
 71
     5
 72
     1
  1
630
 73
     1
 44
1.0
  0
POINT
  5
5A19D
330
5988B
100
AcDbEntity
  8
Defpoints
 62
     0
 48
30.0
100
AcDbPoint
 10
177485.7053124615
 20
-42264.44183848204
 30
0.0
  0
POINT
  5
5A19E
330
5988B
100
AcDbEntity
  8
Defpoints
 62
     0
 48
30.0
100
AcDbPoint
 10
177417.4481703746
 20
-42895.09067020772
 30
0.0
  0
POINT
  5
5A19F
330
5988B
100
AcDbEntity
  8
Defpoints
 62
     0
 48
30.0
100
AcDbPoint
 10
177278.5693304104
 20
-42895.09067020772
 30
0.0
  0
ENDBLK
  5
59897
330
5988B
100
AcDbEntity
  8
0
 48
30.0
100
AcDbBlockEnd
  0
BLOCK
  5
598A2
330
59898
100
AcDbEntity
  8
0
 48
30.0
100
AcDbBlockBegin
  2
*D12
 70
     1
 10
0.0
 20
0.0
 30
0.0
  3
*D12
  1

  0
LINE
  5
5A1A0
330
59898
100
AcDbEntity
  8
COTATION
 48
30.0
100
AcDbLine
 10
177445.7053124615
 20
-42000.09067020772
 30
0.0
 11
177445.7053124615
 21
-41919.76074993376
 31
0.0
  0
LINE
  5
5A1A1
330
59898
100
AcDbEntity
  8
COTATION
 48
30.0
100
AcDbLine
 10
177625.7053124616
 20
-42000.09067020772
 30
0.0
 11
177625.7053124616
 21
-41919.76074993376
 31
0.0
  0
LINE
  5
5A1A2
330
59898
100
AcDbEntity
  8
COTATION
 48
30.0
100
AcDbLine
 10
177495.7053124615
 20
-41929.76074993376
 30
0.0
 11
177575.7053124615
 21
-41929.76074993376
 31
0.0
  0
SOLID
  5
5A1A3
330
59898
100
AcDbEntity
  8
COTATION
 48
30.0
100
AcDbTrace
 10
177495.7053124615
 20
-41921.42741660042
 30
0.0
 11
177495.7053124615
 21
-41938.0940832671
 31
0.0
 12
177445.7053124615
 22
-41929.76074993376
 32
0.0
 13
177445.7053124615
 23
-41929.76074993376
 33
0.0
  0
SOLID
  5
5A1A4
330
59898
100
AcDbEntity
  8
COTATION
 48
30.0
100
AcDbTrace
 10
177575.7053124615
 20
-41921.42741660042
 30
0.0
 11
177575.7053124615
 21
-41938.0940832671
 31
0.0
 12
177625.7053124616
 22
-41929.76074993376
 32
0.0
 13
177625.7053124616
 23
-41929.76074993376
 33
0.0
  0
MTEXT
  5
5A1A5
330
59898
100
AcDbEntity
  8
COTATION
 62
     0
 48
30.0
100
AcDbMText
 10
177535.7053124615
 20
-41884.23210054767
 30
0.0
 40
50.0
 41
0.0
 46
0.0
 71
     5
 72
     1
  1
{\fArial|b0|i0|c0|p34;180}
 73
     1
 44
1.0
  0
POINT
  5
5A1A6
330
59898
100
AcDbEntity
  8
Defpoints
 62
     0
 48
30.0
100
AcDbPoint
 10
177445.7053124615
 20
-42045.09067020772
 30
0.0
  0
POINT
  5
5A1A7
330
59898
100
AcDbEntity
  8
Defpoints
 62
     0
 48
30.0
100
AcDbPoint
 10
177625.7053124616
 20
-42045.09067020772
 30
0.0
  0
POINT
  5
5A1A8
330
59898
100
AcDbEntity
  8
Defpoints
 62
     0
 48
30.0
100
AcDbPoint
 10
177625.7053124616
 20
-41929.76074993376
 30
0.0
  0
ENDBLK
  5
598A3
330
59898
100
AcDbEntity
  8
0
 48
30.0
100
AcDbBlockEnd
  0
BLOCK
  5
598B0
330
598A4
100
AcDbEntity
  8
0
 48
30.0
100
AcDbBlockBegin
  2
*D13
 70
     1
 10
0.0
 20
0.0
 30
0.0
  3
*D13
  1

  0
LINE
  5
5A1A9
330
598A4
100
AcDbEntity
  8
COTATION
 48
30.0
100
AcDbLine
 10
177575.7053124615
 20
-42485.5953851413
 30
0.0
 11
177575.7053124615
 21
-42561.5457445415
 31
0.0
  0
LINE
  5
5A1AA
330
598A4
100
AcDbEntity
  8
COTATION
 48
30.0
100
AcDbLine
 10
177495.7053124615
 20
-42485.5953851413
 30
0.0
 11
177495.7053124615
 21
-42561.5457445415
 31
0.0
  0
LINE
  5
5A1AB
330
598A4
100
AcDbEntity
  8
COTATION
 48
30.0
100
AcDbLine
 10
177625.7053124616
 20
-42551.5457445415
 30
0.0
 11
177675.7053124615
 21
-42551.5457445415
 31
0.0
  0
LINE
  5
5A1AC
330
598A4
100
AcDbEntity
  8
COTATION
 48
30.0
100
AcDbLine
 10
177445.7053124615
 20
-42551.5457445415
 30
0.0
 11
177395.7053124616
 21
-42551.5457445415
 31
0.0
  0
SOLID
  5
5A1AD
330
598A4
100
AcDbEntity
  8
COTATION
 48
30.0
100
AcDbTrace
 10
177625.7053124616
 20
-42543.21241120816
 30
0.0
 11
177625.7053124616
 21
-42559.87907787483
 31
0.0
 12
177575.7053124615
 22
-42551.5457445415
 32
0.0
 13
177575.7053124615
 23
-42551.5457445415
 33
0.0
  0
SOLID
  5
5A1AE
330
598A4
100
AcDbEntity
  8
COTATION
 48
30.0
100
AcDbTrace
 10
177445.7053124615
 20
-42543.21241120816
 30
0.0
 11
177445.7053124615
 21
-42559.87907787483
 31
0.0
 12
177495.7053124615
 22
-42551.5457445415
 32
0.0
 13
177495.7053124615
 23
-42551.5457445415
 33
0.0
  0
MTEXT
  5
5A1AF
330
598A4
100
AcDbEntity
  8
COTATION
 62
     0
 48
30.0
100
AcDbMText
 10
177535.7053124616
 20
-42506.01709515541
 30
0.0
 40
50.0
 41
0.0
 46
0.0
 71
     5
 72
     1
  1
{\fArial|b0|i0|c0|p34;80}
 73
     1
 44
1.0
  0
POINT
  5
5A1B0
330
598A4
100
AcDbEntity
  8
Defpoints
 62
     0
 48
30.0
100
AcDbPoint
 10
177575.7053124615
 20
-42440.5953851413
 30
0.0
  0
POINT
  5
5A1B1
330
598A4
100
AcDbEntity
  8
Defpoints
 62
     0
 48
30.0
100
AcDbPoint
 10
177495.7053124615
 20
-42440.5953851413
 30
0.0
  0
POINT
  5
5A1B2
330
598A4
100
AcDbEntity
  8
Defpoints
 62
     0
 48
30.0
100
AcDbPoint
 10
177495.7053124615
 20
-42551.5457445415
 30
0.0
  0
ENDBLK
  5
598B1
330
598A4
100
AcDbEntity
  8
0
 48
30.0
100
AcDbBlockEnd
  0
BLOCK
  5
59987
330
5997C
100
AcDbEntity
  8
0
 48
30.0
100
AcDbBlockBegin
  2
*D14
 70
     1
 10
0.0
 20
0.0
 30
0.0
  3
*D14
  1

  0
LINE
  5
5A1B3
330
5997C
100
AcDbEntity
  8
COTATION
 48
30.0
100
AcDbLine
 10
177799.2407656227
 20
-42044.85106972382
 30
0.0
 11
177985.0970788252
 21
-42044.85106972382
 31
0.0
  0
LINE
  5
5A1B4
330
5997C
100
AcDbEntity
  8
COTATION
 48
30.0
100
AcDbLine
 10
177928.7848595491
 20
-42894.85106972382
 30
0.0
 11
177985.0970788252
 21
-42894.85106972382
 31
0.0
  0
LINE
  5
5A1B5
330
5997C
100
AcDbEntity
  8
COTATION
 48
30.0
100
AcDbLine
 10
177975.0970788252
 20
-42094.85106972381
 30
0.0
 11
177975.0970788252
 21
-42424.32242033773
 31
0.0
  0
LINE
  5
5A1B6
330
5997C
100
AcDbEntity
  8
COTATION
 48
30.0
100
AcDbLine
 10
177975.0970788252
 20
-42844.85106972382
 30
0.0
 11
177975.0970788252
 21
-42515.37971910989
 31
0.0
  0
SOLID
  5
5A1B7
330
5997C
100
AcDbEntity
  8
COTATION
 48
30.0
100
AcDbTrace
 10
177966.7637454918
 20
-42094.85106972381
 30
0.0
 11
177983.4304121585
 21
-42094.85106972381
 31
0.0
 12
177975.0970788252
 22
-42044.85106972382
 32
0.0
 13
177975.0970788252
 23
-42044.85106972382
 33
0.0
  0
SOLID
  5
5A1B8
330
5997C
100
AcDbEntity
  8
COTATION
 48
30.0
100
AcDbTrace
 10
177966.7637454918
 20
-42844.85106972382
 30
0.0
 11
177983.4304121585
 21
-42844.85106972382
 31
0.0
 12
177975.0970788252
 22
-42894.85106972382
 32
0.0
 13
177975.0970788252
 23
-42894.85106972382
 33
0.0
  0
MTEXT
  5
5A1B9
330
5997C
100
AcDbEntity
  8
COTATION
 62
     0
 48
30.0
100
AcDbMText
 10
177975.0970788252
 20
-42469.85106972378
 30
0.0
 40
50.0
 41
0.0
 46
0.0
 71
     5
 72
     1
  1
850
 73
     1
 44
1.0
  0
POINT
  5
5A1BA
330
5997C
100
AcDbEntity
  8
Defpoints
 62
     0
 48
30.0
100
AcDbPoint
 10
177754.2407656227
 20
-42044.85106972382
 30
0.0
  0
POINT
  5
5A1BB
330
5997C
100
AcDbEntity
  8
Defpoints
 62
     0
 48
30.0
100
AcDbPoint
 10
177883.7848595491
 20
-42894.85106972382
 30
0.0
  0
POINT
  5
5A1BC
330
5997C
100
AcDbEntity
  8
Defpoints
 62
     0
 48
30.0
100
AcDbPoint
 10
177975.0970788252
 20
-42894.85106972382
 30
0.0
  0
ENDBLK
  5
59988
330
5997C
100
AcDbEntity
  8
0
 48
30.0
100
AcDbBlockEnd
  0
BLOCK
  5
599A1
330
59995
100
AcDbEntity
  8
0
 48
30.0
100
AcDbBlockBegin
  2
*D15
 70
     1
 10
0.0
 20
0.0
 30
0.0
  3
*D15
  1

  0
LINE
  5
5A1BD
330
59995
100
AcDbEntity
  8
COTATION
 48
30.0
100
AcDbLine
 10
178853.5271009424
 20
-42160.09067020772
 30
0.0
 11
179050.8757592258
 21
-42160.09067020772
 31
0.0
  0
LINE
  5
5A1BE
330
59995
100
AcDbEntity
  8
COTATION
 48
30.0
100
AcDbLine
 10
178936.5007592258
 20
-42045.09067020772
 30
0.0
 11
179050.8757592258
 21
-42045.09067020772
 31
0.0
  0
LINE
  5
5A1BF
330
59995
100
AcDbEntity
  8
COTATION
 48
30.0
100
AcDbLine
 10
179040.8757592258
 20
-42210.09067020772
 30
0.0
 11
179040.8757592258
 21
-42260.09067020773
 31
0.0
  0
LINE
  5
5A1C0
330
59995
100
AcDbEntity
  8
COTATION
 48
30.0
100
AcDbLine
 10
179040.8757592258
 20
-41995.09067020772
 30
0.0
 11
179040.8757592258
 21
-41945.09067020772
 31
0.0
  0
SOLID
  5
5A1C1
330
59995
100
AcDbEntity
  8
COTATION
 48
30.0
100
AcDbTrace
 10
179032.5424258925
 20
-42210.09067020772
 30
0.0
 11
179049.2090925592
 21
-42210.09067020772
 31
0.0
 12
179040.8757592258
 22
-42160.09067020772
 32
0.0
 13
179040.8757592258
 23
-42160.09067020772
 33
0.0
  0
SOLID
  5
5A1C2
330
59995
100
AcDbEntity
  8
COTATION
 48
30.0
100
AcDbTrace
 10
179032.5424258925
 20
-41995.09067020772
 30
0.0
 11
179049.2090925592
 21
-41995.09067020772
 31
0.0
 12
179040.8757592258
 22
-42045.09067020772
 32
0.0
 13
179040.8757592258
 23
-42045.09067020772
 33
0.0
  0
MTEXT
  5
5A1C3
330
59995
100
AcDbEntity
  8
COTATION
 62
     0
 48
30.0
100
AcDbMText
 10
179040.8757592258
 20
-42102.5906702077
 30
0.0
 40
50.0
 41
0.0
 46
0.0
 71
     5
 72
     1
  1
{\fArial|b0|i0|c0|p34;115}
 73
     1
 44
1.0
  0
POINT
  5
5A1C4
330
59995
100
AcDbEntity
  8
Defpoints
 62
     0
 48
30.0
100
AcDbPoint
 10
178808.5271009424
 20
-42160.09067020772
 30
0.0
  0
POINT
  5
5A1C5
330
59995
100
AcDbEntity
  8
Defpoints
 62
     0
 48
30.0
100
AcDbPoint
 10
178891.5007592258
 20
-42045.09067020772
 30
0.0
  0
POINT
  5
5A1C6
330
59995
100
AcDbEntity
  8
Defpoints
 62
     0
 48
30.0
100
AcDbPoint
 10
179040.8757592258
 20
-42045.09067020772
 30
0.0
  0
ENDBLK
  5
599A2
330
59995
100
AcDbEntity
  8
0
 48
30.0
100
AcDbBlockEnd
  0
BLOCK
  5
599AE
330
599A3
100
AcDbEntity
  8
0
 48
30.0
100
AcDbBlockBegin
  2
*D16
 70
     1
 10
0.0
 20
0.0
 30
0.0
  3
*D16
  1

  0
LINE
  5
5A1C7
330
599A3
100
AcDbEntity
  8
COTATION
 48
30.0
100
AcDbLine
 10
178805.3643277377
 20
-42205.09067020772
 30
0.0
 11
178931.3426766574
 21
-42205.09067020772
 31
0.0
  0
LINE
  5
5A1C8
330
599A3
100
AcDbEntity
  8
COTATION
 48
30.0
100
AcDbLine
 10
178945.4561692692
 20
-42895.09067020772
 30
0.0
 11
178911.3426766574
 21
-42895.09067020772
 31
0.0
  0
LINE
  5
5A1C9
330
599A3
100
AcDbEntity
  8
COTATION
 48
30.0
100
AcDbLine
 10
178921.3426766574
 20
-42255.09067020772
 30
0.0
 11
178921.3426766574
 21
-42504.56202082164
 31
0.0
  0
LINE
  5
5A1CA
330
599A3
100
AcDbEntity
  8
COTATION
 48
30.0
100
AcDbLine
 10
178921.3426766574
 20
-42845.09067020772
 30
0.0
 11
178921.3426766574
 21
-42595.61931959381
 31
0.0
  0
SOLID
  5
5A1CB
330
599A3
100
AcDbEntity
  8
COTATION
 48
30.0
100
AcDbTrace
 10
178913.009343324
 20
-42255.09067020772
 30
0.0
 11
178929.6760099907
 21
-42255.09067020772
 31
0.0
 12
178921.3426766574
 22
-42205.09067020772
 32
0.0
 13
178921.3426766574
 23
-42205.09067020772
 33
0.0
  0
SOLID
  5
5A1CC
330
599A3
100
AcDbEntity
  8
COTATION
 48
30.0
100
AcDbTrace
 10
178913.009343324
 20
-42845.09067020772
 30
0.0
 11
178929.6760099907
 21
-42845.09067020772
 31
0.0
 12
178921.3426766574
 22
-42895.09067020772
 32
0.0
 13
178921.3426766574
 23
-42895.09067020772
 33
0.0
  0
MTEXT
  5
5A1CD
330
599A3
100
AcDbEntity
  8
COTATION
 62
     0
 48
30.0
100
AcDbMText
 10
178921.3426766574
 20
-42550.0906702077
 30
0.0
 40
50.0
 41
0.0
 46
0.0
 71
     5
 72
     1
  1
{\fArial|b0|i0|c0|p34;690}
 73
     1
 44
1.0
  0
POINT
  5
5A1CE
330
599A3
100
AcDbEntity
  8
Defpoints
 62
     0
 48
30.0
100
AcDbPoint
 10
178760.3643277378
 20
-42205.09067020772
 30
0.0
  0
POINT
  5
5A1CF
330
599A3
100
AcDbEntity
  8
Defpoints
 62
     0
 48
30.0
100
AcDbPoint
 10
178990.4561692692
 20
-42895.09067020772
 30
0.0
  0
POINT
  5
5A1D0
330
599A3
100
AcDbEntity
  8
Defpoints
 62
     0
 48
30.0
100
AcDbPoint
 10
178921.3426766574
 20
-42895.09067020772
 30
0.0
  0
ENDBLK
  5
599AF
330
599A3
100
AcDbEntity
  8
0
 48
30.0
100
AcDbBlockEnd
  0
BLOCK
  5
59AE8
330
59ADE
100
AcDbEntity
  8
0
 48
30.0
100
AcDbBlockBegin
  2
*D17
 70
     1
 10
0.0
 20
0.0
 30
0.0
  3
*D17
  1

  0
LINE
  5
5A1D1
330
59ADE
100
AcDbEntity
  8
COTATION
 48
30.0
100
AcDbLine
 10
178541.0140987192
 20
-42479.96926629536
 30
0.0
 11
178541.0140987192
 21
-42625.71422508822
 31
0.0
  0
LINE
  5
5A1D2
330
59ADE
100
AcDbEntity
  8
COTATION
 48
30.0
100
AcDbLine
 10
178761.011479826
 20
-42465.09067020772
 30
0.0
 11
178761.011479826
 21
-42625.71422508822
 31
0.0
  0
LINE
  5
5A1D3
330
59ADE
100
AcDbEntity
  8
COTATION
 48
30.0
100
AcDbLine
 10
178591.0140987192
 20
-42615.71422508821
 30
0.0
 11
178711.0114798261
 21
-42615.71422508821
 31
0.0
  0
SOLID
  5
5A1D4
330
59ADE
100
AcDbEntity
  8
COTATION
 48
30.0
100
AcDbTrace
 10
178591.0140987192
 20
-42607.38089175488
 30
0.0
 11
178591.0140987192
 21
-42624.04755842155
 31
0.0
 12
178541.0140987192
 22
-42615.71422508821
 32
0.0
 13
178541.0140987192
 23
-42615.71422508821
 33
0.0
  0
SOLID
  5
5A1D5
330
59ADE
100
AcDbEntity
  8
COTATION
 48
30.0
100
AcDbTrace
 10
178711.0114798261
 20
-42607.38089175488
 30
0.0
 11
178711.0114798261
 21
-42624.04755842155
 31
0.0
 12
178761.011479826
 22
-42615.71422508821
 32
0.0
 13
178761.011479826
 23
-42615.71422508821
 33
0.0
  0
MTEXT
  5
5A1D6
330
59ADE
100
AcDbEntity
  8
COTATION
 62
     0
 48
30.0
100
AcDbMText
 10
178651.0127892726
 20
-42570.18557570213
 30
0.0
 40
50.0
 41
0.0
 46
0.0
 71
     5
 72
     1
  1
220
 73
     1
 44
1.0
  0
POINT
  5
5A1D7
330
59ADE
100
AcDbEntity
  8
Defpoints
 62
     0
 48
30.0
100
AcDbPoint
 10
178541.0140987192
 20
-42434.96926629536
 30
0.0
  0
POINT
  5
5A1D8
330
59ADE
100
AcDbEntity
  8
Defpoints
 62
     0
 48
30.0
100
AcDbPoint
 10
178761.011479826
 20
-42420.09067020772
 30
0.0
  0
POINT
  5
5A1D9
330
59ADE
100
AcDbEntity
  8
Defpoints
 62
     0
 48
30.0
100
AcDbPoint
 10
178761.011479826
 20
-42615.71422508821
 30
0.0
  0
ENDBLK
  5
59AE9
330
59ADE
100
AcDbEntity
  8
0
 48
30.0
100
AcDbBlockEnd
  0
BLOCK
  5
59FEA
330
59FE0
100
AcDbEntity
  8
0
 48
30.0
100
AcDbBlockBegin
  2
*D18
 70
     1
 10
0.0
 20
0.0
 30
0.0
  3
*D18
  1

  0
LINE
  5
5A1DA
330
59FE0
100
AcDbEntity
  8
COTATION
 48
30.0
100
AcDbLine
 10
177460.353365153
 20
-42596.54574454149
 30
0.0
 11
177460.353365153
 21
-42658.44052613702
 31
0.0
  0
LINE
  5
5A1DB
330
59FE0
100
AcDbEntity
  8
COTATION
 48
30.0
100
AcDbLine
 10
177612.3991403979
 20
-42596.54574454346
 30
0.0
 11
177612.3991403979
 21
-42658.44052613702
 31
0.0
  0
LINE
  5
5A1DC
330
59FE0
100
AcDbEntity
  8
COTATION
 48
30.0
100
AcDbLine
 10
177510.353365153
 20
-42648.44052613701
 30
0.0
 11
177562.3991403979
 21
-42648.44052613701
 31
0.0
  0
SOLID
  5
5A1DD
330
59FE0
100
AcDbEntity
  8
COTATION
 48
30.0
100
AcDbTrace
 10
177510.353365153
 20
-42640.10719280368
 30
0.0
 11
177510.353365153
 21
-42656.77385947035
 31
0.0
 12
177460.353365153
 22
-42648.44052613701
 32
0.0
 13
177460.353365153
 23
-42648.44052613701
 33
0.0
  0
SOLID
  5
5A1DE
330
59FE0
100
AcDbEntity
  8
COTATION
 48
30.0
100
AcDbTrace
 10
177562.3991403979
 20
-42640.10719280368
 30
0.0
 11
177562.3991403979
 21
-42656.77385947035
 31
0.0
 12
177612.3991403979
 22
-42648.44052613701
 32
0.0
 13
177612.3991403979
 23
-42648.44052613701
 33
0.0
  0
MTEXT
  5
5A1DF
330
59FE0
100
AcDbEntity
  8
COTATION
 62
     0
 48
30.0
100
AcDbMText
 10
177536.3762527755
 20
-42602.91187675093
 30
0.0
 40
50.0
 41
0.0
 46
0.0
 71
     5
 72
     1
  1
152
 73
     1
 44
1.0
  0
POINT
  5
5A1E0
330
59FE0
100
AcDbEntity
  8
Defpoints
 62
     0
 48
30.0
100
AcDbPoint
 10
177460.353365153
 20
-42551.54574454149
 30
0.0
  0
POINT
  5
5A1E1
330
59FE0
100
AcDbEntity
  8
Defpoints
 62
     0
 48
30.0
100
AcDbPoint
 10
177612.3991403979
 20
-42551.54574454346
 30
0.0
  0
POINT
  5
5A1E2
330
59FE0
100
AcDbEntity
  8
Defpoints
 62
     0
 48
30.0
100
AcDbPoint
 10
177612.3991403979
 20
-42648.44052613701
 30
0.0
  0
ENDBLK
  5
59FEB
330
59FE0
100
AcDbEntity
  8
0
 48
30.0
100
AcDbBlockEnd
  0
BLOCK
  5
5A046
330
5A03B
100
AcDbEntity
  8
0
 48
30.0
100
AcDbBlockBegin
  2
*D19
 70
     1
 10
0.0
 20
0.0
 30
0.0
  3
*D19
  1

  0
LINE
  5
5A1E3
330
5A03B
100
AcDbEntity
  8
COTATION
 48
30.0
100
AcDbLine
 10
177304.5642707021
 20
-42094.85106972381
 30
0.0
 11
177093.1002306993
 21
-42094.85106972381
 31
0.0
  0
LINE
  5
5A1E4
330
5A03B
100
AcDbEntity
  8
COTATION
 48
30.0
100
AcDbLine
 10
177212.8214127891
 20
-42894.85106972382
 30
0.0
 11
177093.1002306993
 21
-42894.85106972382
 31
0.0
  0
LINE
  5
5A1E5
330
5A03B
100
AcDbEntity
  8
COTATION
 48
30.0
100
AcDbLine
 10
177103.1002306992
 20
-42144.85106972381
 30
0.0
 11
177103.1002306992
 21
-42449.32242033773
 31
0.0
  0
LINE
  5
5A1E6
330
5A03B
100
AcDbEntity
  8
COTATION
 48
30.0
100
AcDbLine
 10
177103.1002306992
 20
-42844.85106972382
 30
0.0
 11
177103.1002306992
 21
-42540.3797191099
 31
0.0
  0
SOLID
  5
5A1E7
330
5A03B
100
AcDbEntity
  8
COTATION
 48
30.0
100
AcDbTrace
 10
177094.7668973659
 20
-42144.85106972381
 30
0.0
 11
177111.4335640326
 21
-42144.85106972381
 31
0.0
 12
177103.1002306992
 22
-42094.85106972381
 32
0.0
 13
177103.1002306992
 23
-42094.85106972381
 33
0.0
  0
SOLID
  5
5A1E8
330
5A03B
100
AcDbEntity
  8
COTATION
 48
30.0
100
AcDbTrace
 10
177094.7668973659
 20
-42844.85106972382
 30
0.0
 11
177111.4335640326
 21
-42844.85106972382
 31
0.0
 12
177103.1002306992
 22
-42894.85106972382
 32
0.0
 13
177103.1002306992
 23
-42894.85106972382
 33
0.0
  0
MTEXT
  5
5A1E9
330
5A03B
100
AcDbEntity
  8
COTATION
 62
     0
 48
30.0
100
AcDbMText
 10
177103.1002306992
 20
-42494.85106972378
 30
0.0
 40
50.0
 41
0.0
 46
0.0
 71
     5
 72
     1
  1
800
 73
     1
 44
1.0
  0
POINT
  5
5A1EA
330
5A03B
100
AcDbEntity
  8
Defpoints
 62
     0
 48
30.0
100
AcDbPoint
 10
177349.5642707021
 20
-42094.85106972381
 30
0.0
  0
POINT
  5
5A1EB
330
5A03B
100
AcDbEntity
  8
Defpoints
 62
     0
 48
30.0
100
AcDbPoint
 10
177257.8214127891
 20
-42894.85106972382
 30
0.0
  0
POINT
  5
5A1EC
330
5A03B
100
AcDbEntity
  8
Defpoints
 62
     0
 48
30.0
100
AcDbPoint
 10
177103.1002306992
 20
-42894.85106972382
 30
0.0
  0
ENDBLK
  5
5A047
330
5A03B
100
AcDbEntity
  8
0
 48
30.0
100
AcDbBlockEnd
  0
ENDSEC
  0
SECTION
  2
ENTITIES
  0
MTEXT
  5
681
330
1F
100
AcDbEntity
  8
0
100
AcDbMText
 10
561.0024225737434
 20
809.2258672307794
 30
0.0
 40
30.0
 41
1388.165
 46
0.0
 71
     1
 72
     5
  1

  7
CARTOUCHE
 73
     1
 44
1.0
  0
MTEXT
  5
2CE81
330
1F
100
AcDbEntity
  8
AXES
 48
60.0
100
AcDbMText
 10
137145.267659208
 20
-26299.88381377913
 30
0.0
 40
50.0
 41
0.0
 46
0.0
 71
     9
 72
     1
  1

 73
     1
 44
1.0
  0
ARC
  5
59579
330
1F
100
AcDbEntity
  8
TRAITS INTERIEURS FIN
 48
30.0
100
AcDbCircle
 10
176205.04448072
 20
-42869.58993582837
 30
0.0
 40
674.8300668245355
100
AcDbArc
 50
71.9664613774837
 51
108.2283698686774
  0
ARC
  5
5957A
330
1F
100
AcDbEntity
  8
CONTOURS
 48
30.0
100
AcDbCircle
 10
176203.9540884982
 20
-42219.76074993373
 30
0.0
 40
230.0
100
AcDbArc
 50
221.4096221092735
 51
270.0
  0
LINE
  5
5957B
330
1F
100
AcDbEntity
  8
CONTOURS
 48
30.0
100
AcDbLine
 10
176203.9540884982
 20
-42099.76074993374
 30
0.0
 11
176005.4540884982
 21
-42099.76074993374
 31
0.0
  0
ARC
  5
5957C
330
1F
100
AcDbEntity
  8
CONTOURS
 48
30.0
100
AcDbCircle
 10
176188.9540884983
 20
-42232.98950648906
 30
0.0
 40
210.0
100
AcDbArc
 50
180.0
 51
221.4096221092735
  0
ARC
  5
5957D
330
1F
100
AcDbEntity
  8
CONTOURS
 48
30.0
100
AcDbCircle
 10
176278.9540884982
 20
-42223.03990470047
 30
0.0
 40
300.0
100
AcDbArc
 50
155.7366982324279
 51
180.0
  0
LINE
  5
5957E
330
1F
100
AcDbEntity
  8
CONTOURS
 48
30.0
100
AcDbLine
 10
175978.9540884982
 20
-42232.98950648906
 30
0.0
 11
175978.9540884982
 21
-42223.03990470047
 31
0.0
  0
ARC
  5
5957F
330
1F
100
AcDbEntity
  8
TRAITS INTERIEURS FIN
 48
30.0
100
AcDbCircle
 10
176186.4540884982
 20
-42236.18481763939
 30
0.0
 40
170.0
100
AcDbArc
 50
181.2440828670979
 51
220.8337651382198
  0
ARC
  5
59580
330
1F
100
AcDbEntity
  8
TRAITS INTERIEURS FIN
 48
30.0
100
AcDbCircle
 10
176038.4889758505
 20
-42239.39813977406
 30
0.0
 40
22.0
100
AcDbArc
 50
104.804389422932
 51
181.2440828670979
  0
LINE
  5
59582
330
1F
100
AcDbEntity
  8
CONTOURS
 48
30.0
100
AcDbLine
 10
176203.9540884982
 20
-42099.76074993374
 30
0.0
 11
176402.4540884982
 21
-42099.76074993374
 31
0.0
  0
ARC
  5
59583
330
1F
100
AcDbEntity
  8
CONTOURS
 48
30.0
100
AcDbCircle
 10
176203.9540884982
 20
-42219.76074993373
 30
0.0
 40
230.0
100
AcDbArc
 50
270.0
 51
318.5903778907265
  0
ARC
  5
59584
330
1F
100
AcDbEntity
  8
TRAITS INTERIEURS FIN
 48
30.0
100
AcDbCircle
 10
176203.975981932
 20
-42219.86246138241
 30
0.0
 40
193.898289787342
100
AcDbArc
 50
269.9935306218957
 51
318.9340179761772
  0
CIRCLE
  5
59586
330
1F
100
AcDbEntity
  8
TRAITS INTERIEURS FIN
 48
30.0
100
AcDbCircle
 10
176203.9540884982
 20
-42157.76074993374
 30
0.0
 40
17.5
  0
ARC
  5
59588
330
1F
100
AcDbEntity
  8
TRAITS INTERIEURS FIN
 48
30.0
100
AcDbCircle
 10
176203.9540884982
 20
-42259.76074993374
 30
0.0
 40
22.5
100
AcDbArc
 50
270.0
 51
90.0
  0
ARC
  5
59589
330
1F
100
AcDbEntity
  8
TRAITS INTERIEURS FIN
 48
30.0
100
AcDbCircle
 10
176203.9540884982
 20
-42259.76074993374
 30
0.0
 40
36.0
100
AcDbArc
 50
270.0
 51
90.0
  0
ARC
  5
5958A
330
1F
100
AcDbEntity
  8
TRAITS INTERIEURS FIN
 48
30.0
100
AcDbCircle
 10
176203.9540884982
 20
-42259.76074993374
 30
0.0
 40
36.0
100
AcDbArc
 50
90.0
 51
270.0
  0
ARC
  5
5958D
330
1F
100
AcDbEntity
  8
TRAITS INTERIEURS FIN
 48
30.0
100
AcDbCircle
 10
176203.9540884982
 20
-42259.76074993374
 30
0.0
 40
22.5
100
AcDbArc
 50
90.0
 51
270.0
  0
ARC
  5
5958E
330
1F
100
AcDbEntity
  8
CONTOURS
 48
30.0
100
AcDbCircle
 10
176128.9540884982
 20
-42223.03990470047
 30
0.0
 40
300.0
100
AcDbArc
 50
0.0
 51
24.26330176757211
  0
ARC
  5
5958F
330
1F
100
AcDbEntity
  8
CONTOURS
 48
30.0
100
AcDbCircle
 10
176218.9540884983
 20
-42232.98950648906
 30
0.0
 40
210.0
100
AcDbArc
 50
318.5903778907265
 51
0.0
  0
ARC
  5
59590
330
1F
100
AcDbEntity
  8
TRAITS INTERIEURS FIN
 48
30.0
100
AcDbCircle
 10
176369.4304705954
 20
-42238.82874302307
 30
0.0
 40
22.0
100
AcDbArc
 50
358.9763930784119
 51
75.39276928358766
  0
LINE
  5
59592
330
1F
100
AcDbEntity
  8
CONTOURS
 48
30.0
100
AcDbLine
 10
176428.9540884982
 20
-42223.03990470047
 30
0.0
 11
176428.9540884982
 21
-42232.98950648906
 31
0.0
  0
ARC
  5
59593
330
1F
100
AcDbEntity
  8
TRAITS INTERIEURS FIN
 48
30.0
100
AcDbCircle
 10
176203.9329712138
 20
-42219.85885558567
 30
0.0
 40
193.901895497983
100
AcDbArc
 50
221.1066575417594
 51
270.0062399147627
  0
ARC
  5
59594
330
1F
100
AcDbEntity
  8
TRAITS INTERIEURS FIN
 48
30.0
100
AcDbCircle
 10
176221.4540884982
 20
-42236.18481763939
 30
0.0
 40
170.0
100
AcDbArc
 50
319.2118853674823
 51
358.9763930784119
  0
LINE
  5
59816
330
1F
100
AcDbEntity
  8
TRAITS INTERIEURS FIN
 48
30.0
100
AcDbLine
 10
176203.9540884982
 20
-42197.73498802739
 30
0.0
 11
176203.9540884982
 21
-42117.78651184005
 31
0.0
  0
LINE
  5
59817
330
1F
100
AcDbEntity
  8
TRAITS INTERIEURS FIN
 48
30.0
100
AcDbLine
 10
176152.5735353518
 20
-42157.76074993372
 30
0.0
 11
176255.3346416446
 21
-42157.76074993372
 31
0.0
  0
LINE
  5
59818
330
1F
100
AcDbEntity
  8
TRAITS INTERIEURS FIN
 48
30.0
100
AcDbLine
 10
176203.9540884982
 20
-42212.54259205072
 30
0.0
 11
176203.9540884982
 21
-42306.97890781677
 31
0.0
  0
LINE
  5
59819
330
1F
100
AcDbEntity
  8
TRAITS INTERIEURS FIN
 48
30.0
100
AcDbLine
 10
176156.7359306152
 20
-42259.76074993374
 30
0.0
 11
176251.1722463813
 21
-42259.76074993374
 31
0.0
  0
VIEWPORT
  5
3EF
330
23
100
AcDbEntity
 67
     1
  8
0
100
AcDbViewport
 10
2430.509960921944
 20
1187.184910510923
 30
0.0
 40
5551.528278373901
 41
2902.656214121211
 68
     2
 69
     1
 12
2430.509960921944
 22
1187.184910510923
 13
0.0
 23
0.0
 14
10.0
 24
10.0
 15
10.0
 25
10.0
 16
0.0
 26
0.0
 36
1.0
 17
0.0
 27
0.0
 37
0.0
 42
50.0
 43
0.0
 44
0.0
 45
2902.656214121211
 50
0.0
 51
0.0
 72
 20000
 90
    32800
  1

281
     0
 71
     1
 74
     0
110
0.0
120
0.0
130
0.0
111
1.0
121
0.0
131
0.0
112
0.0
122
1.0
132
0.0
 79
     0
146
0.0
170
     0
 61
     5
348
118D
292
     1
282
     1
141
0.0
142
0.0
 63
   250
421
  3355443
  0
VIEWPORT
  5
3F1
330
23
100
AcDbEntity
 67
     1
  8
0
100
AcDbViewport
 10
1439.016350385474
 20
985.0994206063571
 30
0.0
 40
2868.720496430637
 41
1963.626793872126
 68
     1
 69
     2
 12
4567.076136122964
 22
2046.23637355573
 13
0.0
 23
0.0
 14
10.0
 24
10.0
 15
10.0
 25
10.0
 16
0.0
 26
0.0
 36
1.0
 17
0.0
 27
0.0
 37
0.0
 42
50.0
 43
0.0
 44
0.0
 45
1828.293185278945
 50
0.0
 51
0.0
 72
 20000
 90
    32864
  1

281
     0
 71
     1
 74
     0
110
0.0
120
0.0
130
0.0
111
1.0
121
0.0
131
0.0
112
0.0
122
1.0
132
0.0
 79
     0
146
0.0
170
     0
 61
     5
348
118D
292
     1
282
     1
141
0.0
142
0.0
 63
   250
421
  3355443
  0
ENDSEC
  0
SECTION
  2
OBJECTS
  0
DICTIONARY
  5
C
330
0
100
AcDbDictionary
281
     1
  3
ACAD_COLOR
350
B78
  3
ACAD_GROUP
350
D
  3
ACAD_IMAGE_DICT
350
4D200
  3
ACAD_IMAGE_VARS
350
4D201
  3
ACAD_LAYOUT
350
1A
  3
ACAD_MATERIAL
350
B77
  3
ACAD_MLEADERSTYLE
350
11BC
  3
ACAD_MLINESTYLE
350
17
  3
ACAD_PLOTSETTINGS
350
19
  3
ACAD_PLOTSTYLENAME
350
E
  3
ACAD_SCALELIST
350
119A
  3
ACAD_TABLESTYLE
350
1198
  3
ACAD_VISUALSTYLE
350
1187
  3
ACDB_RECOMPOSE_DATA
350
5A29E
  3
AcDbVariableDictionary
350
1200
  3
AEC_CLASSIFICATION_SYSTEM_DEFS
350
53ED4
  3
AEC_PROPERTY_SET_DEFS
350
53ED5
  0
DICTIONARY
  5
11DC
330
8
100
AcDbDictionary
280
     1
281
     1
  0
DICTIONARY
  5
1263
330
2
100
AcDbDictionary
280
     1
281
     1
  3
ACAD_LAYERFILTERS
360
51D8
  3
ACAD_LAYERSTATES
360
13A3
  3
ACLYDICTIONARY
360
51D7
  0
DICTIONARY
  5
11C8
330
10
100
AcDbDictionary
280
     1
281
     1
  3
ADSK_XREC_LAYER_RECONCILED
360
11C9
  0
DICTIONARY
  5
11CA
330
2C
100
AcDbDictionary
280
     1
281
     1
  3
ADSK_XREC_LAYER_RECONCILED
360
11CB
  0
DICTIONARY
  5
11CC
330
2D
100
AcDbDictionary
280
     1
281
     1
  3
ADSK_XREC_LAYER_RECONCILED
360
11CD
  0
DICTIONARY
  5
11CE
330
B6E
100
AcDbDictionary
280
     1
281
     1
  3
ADSK_XREC_LAYER_RECONCILED
360
11CF
  0
DICTIONARY
  5
11D0
330
1154
100
AcDbDictionary
280
     1
281
     1
  3
ADSK_XREC_LAYER_RECONCILED
360
11D1
  0
DICTIONARY
  5
F6C
330
1F
100
AcDbDictionary
280
     1
281
     1
  3
ACAD_SORTENTS
360
F6D
  0
DICTIONARY
  5
B78
102
{ACAD_REACTORS
330
C
102
}
330
C
100
AcDbDictionary
281
     1
  0
DICTIONARY
  5
D
102
{ACAD_REACTORS
330
C
102
}
330
C
100
AcDbDictionary
281
     1
  3
*A1
350
1139
  3
*A2
350
113A
  0
DICTIONARY
  5
4D200
102
{ACAD_REACTORS
330
C
102
}
330
C
100
AcDbDictionary
281
     1
  3
19077_PRESQUILE_plancote_01_1
350
4D202
  0
RASTERVARIABLES
  5
4D201
102
{ACAD_REACTORS
330
C
102
}
330
C
100
AcDbRasterVariables
 90
        0
 70
     1
 71
     1
 72
     1
  0
DICTIONARY
  5
1A
102
{ACAD_REACTORS
330
C
102
}
330
C
100
AcDbDictionary
281
     1
  3
Model
350
22
  3
Présentation1
350
1E
  3
Présentation2
350
26
  0
DICTIONARY
  5
B77
102
{ACAD_REACTORS
330
C
102
}
330
C
100
AcDbDictionary
281
     1
  3
ByBlock
350
1177
  3
ByLayer
350
116F
  3
Global
350
117F
  0
DICTIONARY
  5
11BC
102
{ACAD_REACTORS
330
C
102
}
330
C
100
AcDbDictionary
281
     1
  3
Standard
350
11BD
  0
DICTIONARY
  5
17
102
{ACAD_REACTORS
330
C
102
}
330
C
100
AcDbDictionary
281
     1
  3
Standard
350
18
  0
DICTIONARY
  5
19
102
{ACAD_REACTORS
330
C
102
}
330
C
100
AcDbDictionary
281
     1
  0
ACDBDICTIONARYWDFLT
  5
E
102
{ACAD_REACTORS
330
C
102
}
330
C
100
AcDbDictionary
281
     1
  3
Normal
350
F
100
AcDbDictionaryWithDefault
340
F
  0
DICTIONARY
  5
119A
102
{ACAD_REACTORS
330
C
102
}
330
C
100
AcDbDictionary
281
     1
  3
A0
350
119B
  3
A1
350
119C
  3
A2
350
119D
  3
A3
350
119E
  3
A4
350
119F
  3
A5
350
11A0
  3
A6
350
11A1
  3
A7
350
11A2
  3
A8
350
11A3
  3
A9
350
11A4
  3
B0
350
11A5
  3
B1
350
11A6
  3
B2
350
11A7
  3
B3
350
11A8
  3
B4
350
11A9
  3
B5
350
11AA
  3
B6
350
11AB
  3
B7
350
11AC
  3
B8
350
11AD
  3
B9
350
11AE
  3
C0
350
11AF
  3
C1
350
11B0
  3
C2
350
11B1
  3
C3
350
11B2
  3
C4
350
11B3
  3
C5
350
11B4
  3
C6
350
11B5
  3
C7
350
11B6
  3
C8
350
11B7
  3
C9
350
11B8
  3
D0
350
11B9
  3
D1
350
11BA
  3
D2
350
11BB
  0
DICTIONARY
  5
1198
102
{ACAD_REACTORS
330
C
102
}
330
C
100
AcDbDictionary
281
     1
  3
Standard
350
1199
  0
DICTIONARY
  5
1187
102
{ACAD_REACTORS
330
C
102
}
330
C
100
AcDbDictionary
281
     1
  3
2dWireframe
350
118D
  3
3D Hidden
350
118F
  3
3dWireframe
350
118E
  3
Basic
350
118C
  3
Brighten
350
1193
  3
ColorChange
350
1197
  3
Conceptual
350
1190
  3
Dim
350
1192
  3
EdgeColorOff
350
5A25A
  3
Facepattern
350
1196
  3
Flat
350
1188
  3
FlatWithEdges
350
1189
  3
Gouraud
350
118A
  3
GouraudWithEdges
350
118B
  3
JitterOff
350
5A258
  3
Linepattern
350
1195
  3
OverhangOff
350
5A259
  3
Realistic
350
1191
  3
Thicken
350
1194
  0
XRECORD
  5
5A29E
102
{ACAD_REACTORS
330
C
102
}
330
C
100
AcDbXrecord
280
     1
 90
        1
330
1199
  0
DICTIONARY
  5
1200
102
{ACAD_REACTORS
330
C
102
}
330
C
100
AcDbDictionary
281
     1
  3
CANNOSCALE
350
1203
  3
CMLEADERSTYLE
350
1202
  3
CTABLESTYLE
350
1201
  3
DIMASSOC
350
1206
  3
INDEXCTL
350
1205
  3
LAYEREVAL
350
5A29B
  3
LAYERNOTIFY
350
5A29C
  3
LIGHTINGUNITS
350
5A29A
  3
MSLTSCALE
350
5A299
  3
PROJECTNAME
350
37CEB
  3
SORTENTS
350
1204
  0
DICTIONARY
  5
53ED4
102
{ACAD_REACTORS
330
C
102
}
330
C
100
AcDbDictionary
281
     1
  0
DICTIONARY
  5
53ED5
102
{ACAD_REACTORS
330
C
102
}
330
C
100
AcDbDictionary
281
     1
  0
DICTIONARY
  5
51D8
102
{ACAD_REACTORS
330
1263
102
}
330
1263
100
AcDbDictionary
281
     1
  0
DICTIONARY
  5
13A3
102
{ACAD_REACTORS
330
1263
102
}
330
1263
100
AcDbDictionary
281
     1
  0
DICTIONARY
  5
51D7
102
{ACAD_REACTORS
330
1263
102
}
330
1263
100
AcDbDictionary
281
     1
1001
ACAD
1000
<AllUsed
  0
XRECORD
  5
11C9
102
{ACAD_REACTORS
330
11C8
102
}
330
11C8
100
AcDbXrecord
280
     1
290
     1
  0
XRECORD
  5
11CB
102
{ACAD_REACTORS
330
11CA
102
}
330
11CA
100
AcDbXrecord
280
     1
290
     1
  0
XRECORD
  5
11CD
102
{ACAD_REACTORS
330
11CC
102
}
330
11CC
100
AcDbXrecord
280
     1
290
     1
  0
XRECORD
  5
11CF
102
{ACAD_REACTORS
330
11CE
102
}
330
11CE
100
AcDbXrecord
280
     1
290
     1
  0
XRECORD
  5
11D1
102
{ACAD_REACTORS
330
11D0
102
}
330
11D0
100
AcDbXrecord
280
     1
290
     1
  0
SORTENTSTABLE
  5
F6D
102
{ACAD_REACTORS
330
F6C
102
}
330
F6C
100
AcDbSortentsTable
330
1F
331
5958F
  5
5958F
331
59583
  5
59583
331
5957F
  5
5957F
331
5957B
  5
5957B
331
59816
  5
59816
331
681
  5
32AA7
331
59592
  5
59592
331
5958E
  5
5958E
331
5958A
  5
5958A
331
59586
  5
59586
331
59582
  5
59582
331
5957E
  5
5957E
331
5957A
  5
5957A
331
59819
  5
59819
331
2CE81
  5
32AA8
331
5958D
  5
5958D
331
59589
  5
59589
331
5957D
  5
5957D
331
59579
  5
59579
331
59818
  5
59818
331
59594
  5
59594
331
59590
  5
59590
331
59588
  5
59588
331
59584
  5
59584
331
59580
  5
59580
331
5957C
  5
5957C
331
59817
  5
59817
331
59593
  5
59593
  0
GROUP
  5
1139
102
{ACAD_REACTORS
330
D
102
}
330
D
100
AcDbGroup
300

 70
     1
 71
     1
  0
GROUP
  5
113A
102
{ACAD_REACTORS
330
D
102
}
330
D
100
AcDbGroup
300

 70
     1
 71
     1
  0
IMAGEDEF
  5
4D202
102
{ACAD_REACTORS
330
4D200
102
}
330
4D200
100
AcDbRasterImageDef
 90
        0
  1
\\Sam\en cours\KOHLER\ELEMENTS_RECUS\Dessins en eps qui n'ont pas de plans autocad\20090506165443\convertcad\19077_PRESQUILE_plancote_01_1.bmp
 10
1772.0
 20
1431.0
 11
0.0005643340857788
 21
0.0005643340857788
280
     1
281
     0
  0
LAYOUT
  5
22
102
{ACAD_REACTORS
330
1A
102
}
330
1A
100
AcDbPlotSettings
  1

  2
Acrobat Distiller
  4
A4
  6

 40
3.174999999999999
 41
3.174999999999999
 42
3.175002999999999
 43
3.174987999999999
 44
209.909836
 45
297.03183
 46
1.12
 47
0.0
 48
174749.0813833014
 49
-44851.59189328006
140
180409.0813833014
141
-40931.59189328005
142
1.0
143
19.47146048427751
 70
 11924
 72
     1
 73
     1
 74
     4
  7

 75
     0
147
0.0513572159010601
 76
     1
 77
     2
 78
   300
148
-174749.0813833014
149
44851.59189328006
100
AcDbLayout
  1
Model
 70
     1
 71
     0
 10
0.0
 20
0.0
 11
12.0
 21
9.0
 12
0.0
 22
0.0
 32
0.0
 14
0.0
 24
0.0
 34
0.0
 15
0.0
 25
0.0
 35
0.0
146
0.0
 13
0.0
 23
0.0
 33
0.0
 16
1.0
 26
0.0
 36
0.0
 17
0.0
 27
1.0
 37
0.0
 76
     0
330
1F
331
5A256
1001
ACAD_PSEXT
1000
Auto Epson Stylus COLOR 1160 ESC/P 2 sur SAM
1000
Epson Stylus COLOR 1160 ESC/P 2
1000
\\Sam
1000

1070
     0
  0
LAYOUT
  5
1E
102
{ACAD_REACTORS
330
1A
102
}
330
1A
100
AcDbPlotSettings
  1

  2
\\KEDOD0229\HP LaserJet 4V
  4
A4
  6

 40
6.805083274841308
 41
5.069413185119628
 42
6.805084228515625
 43
5.027069091796875
 44
209.9733276367187
 45
296.9683227539062
 46
0.0
 47
0.0
 48
0.0
 49
0.0
140
0.0
141
0.0
142
1.0
143
10.0
 70
   688
 72
     1
 73
     1
 74
     5
  7
monochrome.ctb
 75
    20
147
0.1
 76
     1
 77
     2
 78
   300
148
0.0
149
0.0
100
AcDbLayout
  1
Présentation1
 70
     1
 71
     1
 10
-50.27069091796875
 20
-68.05083274841308
 11
2919.412536621094
 21
2031.682443618775
 12
0.0
 22
0.0
 32
0.0
 14
-49.60246442199059
 24
-66.00788451328753
 34
0.0
 15
2917.059049332895
 25
2030.635493671731
 35
0.0
146
0.0
 13
0.0
 23
0.0
 33
0.0
 16
1.0
 26
0.0
 36
0.0
 17
0.0
 27
1.0
 37
0.0
 76
     0
330
1B
331
10D6
  0
LAYOUT
  5
26
102
{ACAD_REACTORS
330
1A
102
}
330
1A
100
AcDbPlotSettings
  1

  2
\\KEDOD0229\HP LaserJet 4V
  4
A4
  6

 40
6.805083274841308
 41
5.069413185119628
 42
6.805084228515625
 43
5.027069091796875
 44
209.9733276367187
 45
296.9683227539062
 46
0.0
 47
0.0
 48
0.0
 49
0.0
140
0.0
141
0.0
142
1.0
143
10.0
 70
   688
 72
     1
 73
     1
 74
     1
  7
monochrome.ctb
 75
    20
147
0.1
 76
     1
 77
     4
 78
   600
148
-4.65610217015574
149
-3.286023670294152
100
AcDbLayout
  1
Présentation2
 70
     1
 71
     2
 10
-45.614588747813
 20
-64.76480907811893
 11
2924.06863879125
 21
2034.968467289068
 12
0.0
 22
0.0
 32
0.0
 14
4.65610217015574
 24
3.286023670294071
 34
0.0
 15
2873.756768105222
 25
1966.91281754242
 35
0.0
146
0.0
 13
0.0
 23
0.0
 33
0.0
 16
1.0
 26
0.0
 36
0.0
 17
0.0
 27
1.0
 37
0.0
 76
     0
330
23
331
3F1
  0
MATERIAL
  5
1177
102
{ACAD_XDICTIONARY
360
1178
102
}
102
{ACAD_REACTORS
330
B77
102
}
330
B77
100
AcDbMaterial
  1
ByBlock
 72
     0
 43
0.0008202099737533
 43
0.0
 43
0.0
 43
0.0
 43
0.0
 43
0.0008202099737533
 43
0.0
 43
0.0
 43
0.0
 43
0.0
 43
1.0
 43
0.0
 43
0.0
 43
0.0
 43
0.0
 43
1.0
 77
     0
 47
0.0008202099737533
 47
0.0
 47
0.0
 47
0.0
 47
0.0
 47
0.0008202099737533
 47
0.0
 47
0.0
 47
0.0
 47
0.0
 47
1.0
 47
0.0
 47
0.0
 47
0.0
 47
0.0
 47
1.0
171
     0
 49
0.0008202099737533
 49
0.0
 49
0.0
 49
0.0
 49
0.0
 49
0.0008202099737533
 49
0.0
 49
0.0
 49
0.0
 49
0.0
 49
1.0
 49
0.0
 49
0.0
 49
0.0
 49
0.0
 49
1.0
175
     0
142
0.0008202099737533
142
0.0
142
0.0
142
0.0
142
0.0
142
0.0008202099737533
142
0.0
142
0.0
142
0.0
142
0.0
142
1.0
142
0.0
142
0.0
142
0.0
142
0.0
142
1.0
179
     0
144
0.0008202099737533
144
0.0
144
0.0
144
0.0
144
0.0
144
0.0008202099737533
144
0.0
144
0.0
144
0.0
144
0.0
144
1.0
144
0.0
144
0.0
144
0.0
144
0.0
144
1.0
147
0.0008202099737533
147
0.0
147
0.0
147
0.0
147
0.0
147
0.0008202099737533
147
0.0
147
0.0
147
0.0
147
0.0
147
1.0
147
0.0
147
0.0
147
0.0
147
0.0
147
1.0
  0
MATERIAL
  5
116F
102
{ACAD_XDICTIONARY
360
1170
102
}
102
{ACAD_REACTORS
330
B77
102
}
330
B77
100
AcDbMaterial
  1
ByLayer
 72
     0
 43
0.0008202099737533
 43
0.0
 43
0.0
 43
0.0
 43
0.0
 43
0.0008202099737533
 43
0.0
 43
0.0
 43
0.0
 43
0.0
 43
1.0
 43
0.0
 43
0.0
 43
0.0
 43
0.0
 43
1.0
 77
     0
 47
0.0008202099737533
 47
0.0
 47
0.0
 47
0.0
 47
0.0
 47
0.0008202099737533
 47
0.0
 47
0.0
 47
0.0
 47
0.0
 47
1.0
 47
0.0
 47
0.0
 47
0.0
 47
0.0
 47
1.0
171
     0
 49
0.0008202099737533
 49
0.0
 49
0.0
 49
0.0
 49
0.0
 49
0.0008202099737533
 49
0.0
 49
0.0
 49
0.0
 49
0.0
 49
1.0
 49
0.0
 49
0.0
 49
0.0
 49
0.0
 49
1.0
175
     0
142
0.0008202099737533
142
0.0
142
0.0
142
0.0
142
0.0
142
0.0008202099737533
142
0.0
142
0.0
142
0.0
142
0.0
142
1.0
142
0.0
142
0.0
142
0.0
142
0.0
142
1.0
179
     0
144
0.0008202099737533
144
0.0
144
0.0
144
0.0
144
0.0
144
0.0008202099737533
144
0.0
144
0.0
144
0.0
144
0.0
144
1.0
144
0.0
144
0.0
144
0.0
144
0.0
144
1.0
147
0.0008202099737533
147
0.0
147
0.0
147
0.0
147
0.0
147
0.0008202099737533
147
0.0
147
0.0
147
0.0
147
0.0
147
1.0
147
0.0
147
0.0
147
0.0
147
0.0
147
1.0
  0
MATERIAL
  5
117F
102
{ACAD_XDICTIONARY
360
1180
102
}
102
{ACAD_REACTORS
330
B77
102
}
330
B77
100
AcDbMaterial
  1
Global
 72
     0
 43
0.0008202099737533
 43
0.0
 43
0.0
 43
0.0
 43
0.0
 43
0.0008202099737533
 43
0.0
 43
0.0
 43
0.0
 43
0.0
 43
1.0
 43
0.0
 43
0.0
 43
0.0
 43
0.0
 43
1.0
 77
     0
 47
0.0008202099737533
 47
0.0
 47
0.0
 47
0.0
 47
0.0
 47
0.0008202099737533
 47
0.0
 47
0.0
 47
0.0
 47
0.0
 47
1.0
 47
0.0
 47
0.0
 47
0.0
 47
0.0
 47
1.0
171
     0
 49
0.0008202099737533
 49
0.0
 49
0.0
 49
0.0
 49
0.0
 49
0.0008202099737533
 49
0.0
 49
0.0
 49
0.0
 49
0.0
 49
1.0
 49
0.0
 49
0.0
 49
0.0
 49
0.0
 49
1.0
175
     0
142
0.0008202099737533
142
0.0
142
0.0
142
0.0
142
0.0
142
0.0008202099737533
142
0.0
142
0.0
142
0.0
142
0.0
142
1.0
142
0.0
142
0.0
142
0.0
142
0.0
142
1.0
179
     0
144
0.0008202099737533
144
0.0
144
0.0
144
0.0
144
0.0
144
0.0008202099737533
144
0.0
144
0.0
144
0.0
144
0.0
144
1.0
144
0.0
144
0.0
144
0.0
144
0.0
144
1.0
147
0.0008202099737533
147
0.0
147
0.0
147
0.0
147
0.0
147
0.0008202099737533
147
0.0
147
0.0
147
0.0
147
0.0
147
1.0
147
0.0
147
0.0
147
0.0
147
0.0
147
1.0
  0
MLEADERSTYLE
  5
11BD
102
{ACAD_REACTORS
330
11BC
102
}
330
11BC
100
AcDbMLeaderStyle
179
     2
170
     2
171
     1
172
     0
 90
        2
 40
0.0
 41
0.0
173
     1
 91
-1056964608
340
14
 92
       -2
290
     1
 42
0.09
291
     1
 43
0.36
  3
Standard
 44
0.18
300

342
11
174
     1
178
     6
175
     1
176
     0
 93
-1056964608
 45
0.18
292
     0
297
     0
 46
0.18
 94
-1056964608
 47
1.0
 49
1.0
140
1.0
293
     1
141
0.0
294
     1
177
     0
142
1.0
295
     0
296
     0
143
0.125
271
     0
272
     9
273
     9
1001
ACAD
1000
AcRTDxfName
1000
MLEADERSTYLE
1000
AcRTDxfName
1000
MLEADERSTYLE
1000
AcRTDxfName
1000
MLEADERSTYLE
1000
AcRTDxfName
1000
MLEADERSTYLE
1000
AcRTDxfName
1000
MLEADERSTYLE
1000
AcRTDxfName
1000
MLEADERSTYLE
1000
AcRTDxfName
1000
MLEADERSTYLE
1000
AcRTDxfName
1000
MLEADERSTYLE
1000
AcRTDxfName
1000
MLEADERSTYLE
1000
AcRTDxfName
1000
MLEADERSTYLE
  0
MLINESTYLE
  5
18
102
{ACAD_REACTORS
330
17
102
}
330
17
100
AcDbMlineStyle
  2
STANDARD
 70
     0
  3

 62
   256
 51
90.0
 52
90.0
 71
     2
 49
0.5
 62
   256
  6
BYLAYER
 49
-0.5
 62
   256
  6
BYLAYER
  0
ACDBPLACEHOLDER
  5
F
102
{ACAD_REACTORS
330
E
102
}
330
E
  0
SCALE
  5
119B
102
{ACAD_REACTORS
330
119A
102
}
330
119A
100
AcDbScale
 70
     0
300
1:1
140
1.0
141
1.0
290
     1
1001
ACAD
1000
AcRTDxfName
1000
SCALE
1000
AcRTDxfName
1000
SCALE
1000
AcRTDxfName
1000
SCALE
1000
AcRTDxfName
1000
SCALE
1000
AcRTDxfName
1000
SCALE
1000
AcRTDxfName
1000
SCALE
1000
AcRTDxfName
1000
SCALE
1000
AcRTDxfName
1000
SCALE
1000
AcRTDxfName
1000
SCALE
1000
AcRTDxfName
1000
SCALE
  0
SCALE
  5
119C
102
{ACAD_REACTORS
330
119A
102
}
330
119A
100
AcDbScale
 70
     0
300
1:2
140
1.0
141
2.0
290
     0
1001
ACAD
1000
AcRTDxfName
1000
SCALE
1000
AcRTDxfName
1000
SCALE
1000
AcRTDxfName
1000
SCALE
1000
AcRTDxfName
1000
SCALE
1000
AcRTDxfName
1000
SCALE
1000
AcRTDxfName
1000
SCALE
1000
AcRTDxfName
1000
SCALE
1000
AcRTDxfName
1000
SCALE
1000
AcRTDxfName
1000
SCALE
1000
AcRTDxfName
1000
SCALE
  0
SCALE
  5
119D
102
{ACAD_REACTORS
330
119A
102
}
330
119A
100
AcDbScale
 70
     0
300
1:4
140
1.0
141
4.0
290
     0
1001
ACAD
1000
AcRTDxfName
1000
SCALE
1000
AcRTDxfName
1000
SCALE
1000
AcRTDxfName
1000
SCALE
1000
AcRTDxfName
1000
SCALE
1000
AcRTDxfName
1000
SCALE
1000
AcRTDxfName
1000
SCALE
1000
AcRTDxfName
1000
SCALE
1000
AcRTDxfName
1000
SCALE
1000
AcRTDxfName
1000
SCALE
1000
AcRTDxfName
1000
SCALE
  0
SCALE
  5
119E
102
{ACAD_REACTORS
330
119A
102
}
330
119A
100
AcDbScale
 70
     0
300
1:5
140
1.0
141
5.0
290
     0
1001
ACAD
1000
AcRTDxfName
1000
SCALE
1000
AcRTDxfName
1000
SCALE
1000
AcRTDxfName
1000
SCALE
1000
AcRTDxfName
1000
SCALE
1000
AcRTDxfName
1000
SCALE
1000
AcRTDxfName
1000
SCALE
1000
AcRTDxfName
1000
SCALE
1000
AcRTDxfName
1000
SCALE
1000
AcRTDxfName
1000
SCALE
1000
AcRTDxfName
1000
SCALE
  0
SCALE
  5
119F
102
{ACAD_REACTORS
330
119A
102
}
330
119A
100
AcDbScale
 70
     0
300
1:8
140
1.0
141
8.0
290
     0
1001
ACAD
1000
AcRTDxfName
1000
SCALE
1000
AcRTDxfName
1000
SCALE
1000
AcRTDxfName
1000
SCALE
1000
AcRTDxfName
1000
SCALE
1000
AcRTDxfName
1000
SCALE
1000
AcRTDxfName
1000
SCALE
1000
AcRTDxfName
1000
SCALE
1000
AcRTDxfName
1000
SCALE
1000
AcRTDxfName
1000
SCALE
1000
AcRTDxfName
1000
SCALE
  0
SCALE
  5
11A0
102
{ACAD_REACTORS
330
119A
102
}
330
119A
100
AcDbScale
 70
     0
300
1:10
140
1.0
141
10.0
290
     0
1001
ACAD
1000
AcRTDxfName
1000
SCALE
1000
AcRTDxfName
1000
SCALE
1000
AcRTDxfName
1000
SCALE
1000
AcRTDxfName
1000
SCALE
1000
AcRTDxfName
1000
SCALE
1000
AcRTDxfName
1000
SCALE
1000
AcRTDxfName
1000
SCALE
1000
AcRTDxfName
1000
SCALE
1000
AcRTDxfName
1000
SCALE
1000
AcRTDxfName
1000
SCALE
  0
SCALE
  5
11A1
102
{ACAD_REACTORS
330
119A
102
}
330
119A
100
AcDbScale
 70
     0
300
1:16
140
1.0
141
16.0
290
     0
1001
ACAD
1000
AcRTDxfName
1000
SCALE
1000
AcRTDxfName
1000
SCALE
1000
AcRTDxfName
1000
SCALE
1000
AcRTDxfName
1000
SCALE
1000
AcRTDxfName
1000
SCALE
1000
AcRTDxfName
1000
SCALE
1000
AcRTDxfName
1000
SCALE
1000
AcRTDxfName
1000
SCALE
1000
AcRTDxfName
1000
SCALE
1000
AcRTDxfName
1000
SCALE
  0
SCALE
  5
11A2
102
{ACAD_REACTORS
330
119A
102
}
330
119A
100
AcDbScale
 70
     0
300
1:20
140
1.0
141
20.0
290
     0
1001
ACAD
1000
AcRTDxfName
1000
SCALE
1000
AcRTDxfName
1000
SCALE
1000
AcRTDxfName
1000
SCALE
1000
AcRTDxfName
1000
SCALE
1000
AcRTDxfName
1000
SCALE
1000
AcRTDxfName
1000
SCALE
1000
AcRTDxfName
1000
SCALE
1000
AcRTDxfName
1000
SCALE
1000
AcRTDxfName
1000
SCALE
1000
AcRTDxfName
1000
SCALE
  0
SCALE
  5
11A3
102
{ACAD_REACTORS
330
119A
102
}
330
119A
100
AcDbScale
 70
     0
300
1:30
140
1.0
141
30.0
290
     0
1001
ACAD
1000
AcRTDxfName
1000
SCALE
1000
AcRTDxfName
1000
SCALE
1000
AcRTDxfName
1000
SCALE
1000
AcRTDxfName
1000
SCALE
1000
AcRTDxfName
1000
SCALE
1000
AcRTDxfName
1000
SCALE
1000
AcRTDxfName
1000
SCALE
1000
AcRTDxfName
1000
SCALE
1000
AcRTDxfName
1000
SCALE
1000
AcRTDxfName
1000
SCALE
  0
SCALE
  5
11A4
102
{ACAD_REACTORS
330
119A
102
}
330
119A
100
AcDbScale
 70
     0
300
1:40
140
1.0
141
40.0
290
     0
1001
ACAD
1000
AcRTDxfName
1000
SCALE
1000
AcRTDxfName
1000
SCALE
1000
AcRTDxfName
1000
SCALE
1000
AcRTDxfName
1000
SCALE
1000
AcRTDxfName
1000
SCALE
1000
AcRTDxfName
1000
SCALE
1000
AcRTDxfName
1000
SCALE
1000
AcRTDxfName
1000
SCALE
1000
AcRTDxfName
1000
SCALE
1000
AcRTDxfName
1000
SCALE
  0
SCALE
  5
11A5
102
{ACAD_REACTORS
330
119A
102
}
330
119A
100
AcDbScale
 70
     0
300
1:50
140
1.0
141
50.0
290
     0
1001
ACAD
1000
AcRTDxfName
1000
SCALE
1000
AcRTDxfName
1000
SCALE
1000
AcRTDxfName
1000
SCALE
1000
AcRTDxfName
1000
SCALE
1000
AcRTDxfName
1000
SCALE
1000
AcRTDxfName
1000
SCALE
1000
AcRTDxfName
1000
SCALE
1000
AcRTDxfName
1000
SCALE
1000
AcRTDxfName
1000
SCALE
1000
AcRTDxfName
1000
SCALE
  0
SCALE
  5
11A6
102
{ACAD_REACTORS
330
119A
102
}
330
119A
100
AcDbScale
 70
     0
300
1:100
140
1.0
141
100.0
290
     0
1001
ACAD
1000
AcRTDxfName
1000
SCALE
1000
AcRTDxfName
1000
SCALE
1000
AcRTDxfName
1000
SCALE
1000
AcRTDxfName
1000
SCALE
1000
AcRTDxfName
1000
SCALE
1000
AcRTDxfName
1000
SCALE
1000
AcRTDxfName
1000
SCALE
1000
AcRTDxfName
1000
SCALE
1000
AcRTDxfName
1000
SCALE
1000
AcRTDxfName
1000
SCALE
  0
SCALE
  5
11A7
102
{ACAD_REACTORS
330
119A
102
}
330
119A
100
AcDbScale
 70
     0
300
2:1
140
2.0
141
1.0
290
     0
1001
ACAD
1000
AcRTDxfName
1000
SCALE
1000
AcRTDxfName
1000
SCALE
1000
AcRTDxfName
1000
SCALE
1000
AcRTDxfName
1000
SCALE
1000
AcRTDxfName
1000
SCALE
1000
AcRTDxfName
1000
SCALE
1000
AcRTDxfName
1000
SCALE
1000
AcRTDxfName
1000
SCALE
1000
AcRTDxfName
1000
SCALE
1000
AcRTDxfName
1000
SCALE
  0
SCALE
  5
11A8
102
{ACAD_REACTORS
330
119A
102
}
330
119A
100
AcDbScale
 70
     0
300
4:1
140
4.0
141
1.0
290
     0
1001
ACAD
1000
AcRTDxfName
1000
SCALE
1000
AcRTDxfName
1000
SCALE
1000
AcRTDxfName
1000
SCALE
1000
AcRTDxfName
1000
SCALE
1000
AcRTDxfName
1000
SCALE
1000
AcRTDxfName
1000
SCALE
1000
AcRTDxfName
1000
SCALE
1000
AcRTDxfName
1000
SCALE
1000
AcRTDxfName
1000
SCALE
1000
AcRTDxfName
1000
SCALE
  0
SCALE
  5
11A9
102
{ACAD_REACTORS
330
119A
102
}
330
119A
100
AcDbScale
 70
     0
300
8:1
140
8.0
141
1.0
290
     0
1001
ACAD
1000
AcRTDxfName
1000
SCALE
1000
AcRTDxfName
1000
SCALE
1000
AcRTDxfName
1000
SCALE
1000
AcRTDxfName
1000
SCALE
1000
AcRTDxfName
1000
SCALE
1000
AcRTDxfName
1000
SCALE
1000
AcRTDxfName
1000
SCALE
1000
AcRTDxfName
1000
SCALE
1000
AcRTDxfName
1000
SCALE
1000
AcRTDxfName
1000
SCALE
  0
SCALE
  5
11AA
102
{ACAD_REACTORS
330
119A
102
}
330
119A
100
AcDbScale
 70
     0
300
10:1
140
10.0
141
1.0
290
     0
1001
ACAD
1000
AcRTDxfName
1000
SCALE
1000
AcRTDxfName
1000
SCALE
1000
AcRTDxfName
1000
SCALE
1000
AcRTDxfName
1000
SCALE
1000
AcRTDxfName
1000
SCALE
1000
AcRTDxfName
1000
SCALE
1000
AcRTDxfName
1000
SCALE
1000
AcRTDxfName
1000
SCALE
1000
AcRTDxfName
1000
SCALE
1000
AcRTDxfName
1000
SCALE
  0
SCALE
  5
11AB
102
{ACAD_REACTORS
330
119A
102
}
330
119A
100
AcDbScale
 70
     0
300
100:1
140
100.0
141
1.0
290
     0
1001
ACAD
1000
AcRTDxfName
1000
SCALE
1000
AcRTDxfName
1000
SCALE
1000
AcRTDxfName
1000
SCALE
1000
AcRTDxfName
1000
SCALE
1000
AcRTDxfName
1000
SCALE
1000
AcRTDxfName
1000
SCALE
1000
AcRTDxfName
1000
SCALE
1000
AcRTDxfName
1000
SCALE
1000
AcRTDxfName
1000
SCALE
1000
AcRTDxfName
1000
SCALE
  0
SCALE
  5
11AC
102
{ACAD_REACTORS
330
119A
102
}
330
119A
100
AcDbScale
 70
     0
300
1/128" = 1'-0"
140
0.0078125
141
12.0
290
     0
1001
ACAD
1000
AcRTDxfName
1000
SCALE
1000
AcRTDxfName
1000
SCALE
1000
AcRTDxfName
1000
SCALE
1000
AcRTDxfName
1000
SCALE
1000
AcRTDxfName
1000
SCALE
1000
AcRTDxfName
1000
SCALE
1000
AcRTDxfName
1000
SCALE
1000
AcRTDxfName
1000
SCALE
1000
AcRTDxfName
1000
SCALE
1000
AcRTDxfName
1000
SCALE
  0
SCALE
  5
11AD
102
{ACAD_REACTORS
330
119A
102
}
330
119A
100
AcDbScale
 70
     0
300
1/64" = 1'-0"
140
0.015625
141
12.0
290
     0
1001
ACAD
1000
AcRTDxfName
1000
SCALE
1000
AcRTDxfName
1000
SCALE
1000
AcRTDxfName
1000
SCALE
1000
AcRTDxfName
1000
SCALE
1000
AcRTDxfName
1000
SCALE
1000
AcRTDxfName
1000
SCALE
1000
AcRTDxfName
1000
SCALE
1000
AcRTDxfName
1000
SCALE
1000
AcRTDxfName
1000
SCALE
1000
AcRTDxfName
1000
SCALE
  0
SCALE
  5
11AE
102
{ACAD_REACTORS
330
119A
102
}
330
119A
100
AcDbScale
 70
     0
300
1/32" = 1'-0"
140
0.03125
141
12.0
290
     0
1001
ACAD
1000
AcRTDxfName
1000
SCALE
1000
AcRTDxfName
1000
SCALE
1000
AcRTDxfName
1000
SCALE
1000
AcRTDxfName
1000
SCALE
1000
AcRTDxfName
1000
SCALE
1000
AcRTDxfName
1000
SCALE
1000
AcRTDxfName
1000
SCALE
1000
AcRTDxfName
1000
SCALE
1000
AcRTDxfName
1000
SCALE
1000
AcRTDxfName
1000
SCALE
  0
SCALE
  5
11AF
102
{ACAD_REACTORS
330
119A
102
}
330
119A
100
AcDbScale
 70
     0
300
1/16" = 1'-0"
140
0.0625
141
12.0
290
     0
1001
ACAD
1000
AcRTDxfName
1000
SCALE
1000
AcRTDxfName
1000
SCALE
1000
AcRTDxfName
1000
SCALE
1000
AcRTDxfName
1000
SCALE
1000
AcRTDxfName
1000
SCALE
1000
AcRTDxfName
1000
SCALE
1000
AcRTDxfName
1000
SCALE
1000
AcRTDxfName
1000
SCALE
1000
AcRTDxfName
1000
SCALE
1000
AcRTDxfName
1000
SCALE
  0
SCALE
  5
11B0
102
{ACAD_REACTORS
330
119A
102
}
330
119A
100
AcDbScale
 70
     0
300
3/32" = 1'-0"
140
0.09375
141
12.0
290
     0
1001
ACAD
1000
AcRTDxfName
1000
SCALE
1000
AcRTDxfName
1000
SCALE
1000
AcRTDxfName
1000
SCALE
1000
AcRTDxfName
1000
SCALE
1000
AcRTDxfName
1000
SCALE
1000
AcRTDxfName
1000
SCALE
1000
AcRTDxfName
1000
SCALE
1000
AcRTDxfName
1000
SCALE
1000
AcRTDxfName
1000
SCALE
1000
AcRTDxfName
1000
SCALE
  0
SCALE
  5
11B1
102
{ACAD_REACTORS
330
119A
102
}
330
119A
100
AcDbScale
 70
     0
300
1/8" = 1'-0"
140
0.125
141
12.0
290
     0
1001
ACAD
1000
AcRTDxfName
1000
SCALE
1000
AcRTDxfName
1000
SCALE
1000
AcRTDxfName
1000
SCALE
1000
AcRTDxfName
1000
SCALE
1000
AcRTDxfName
1000
SCALE
1000
AcRTDxfName
1000
SCALE
1000
AcRTDxfName
1000
SCALE
1000
AcRTDxfName
1000
SCALE
1000
AcRTDxfName
1000
SCALE
1000
AcRTDxfName
1000
SCALE
  0
SCALE
  5
11B2
102
{ACAD_REACTORS
330
119A
102
}
330
119A
100
AcDbScale
 70
     0
300
3/16" = 1'-0"
140
0.1875
141
12.0
290
     0
1001
ACAD
1000
AcRTDxfName
1000
SCALE
1000
AcRTDxfName
1000
SCALE
1000
AcRTDxfName
1000
SCALE
1000
AcRTDxfName
1000
SCALE
1000
AcRTDxfName
1000
SCALE
1000
AcRTDxfName
1000
SCALE
1000
AcRTDxfName
1000
SCALE
1000
AcRTDxfName
1000
SCALE
1000
AcRTDxfName
1000
SCALE
1000
AcRTDxfName
1000
SCALE
  0
SCALE
  5
11B3
102
{ACAD_REACTORS
330
119A
102
}
330
119A
100
AcDbScale
 70
     0
300
1/4" = 1'-0"
140
0.25
141
12.0
290
     0
1001
ACAD
1000
AcRTDxfName
1000
SCALE
1000
AcRTDxfName
1000
SCALE
1000
AcRTDxfName
1000
SCALE
1000
AcRTDxfName
1000
SCALE
1000
AcRTDxfName
1000
SCALE
1000
AcRTDxfName
1000
SCALE
1000
AcRTDxfName
1000
SCALE
1000
AcRTDxfName
1000
SCALE
1000
AcRTDxfName
1000
SCALE
1000
AcRTDxfName
1000
SCALE
  0
SCALE
  5
11B4
102
{ACAD_REACTORS
330
119A
102
}
330
119A
100
AcDbScale
 70
     0
300
3/8" = 1'-0"
140
0.375
141
12.0
290
     0
1001
ACAD
1000
AcRTDxfName
1000
SCALE
1000
AcRTDxfName
1000
SCALE
1000
AcRTDxfName
1000
SCALE
1000
AcRTDxfName
1000
SCALE
1000
AcRTDxfName
1000
SCALE
1000
AcRTDxfName
1000
SCALE
1000
AcRTDxfName
1000
SCALE
1000
AcRTDxfName
1000
SCALE
1000
AcRTDxfName
1000
SCALE
1000
AcRTDxfName
1000
SCALE
  0
SCALE
  5
11B5
102
{ACAD_REACTORS
330
119A
102
}
330
119A
100
AcDbScale
 70
     0
300
1/2" = 1'-0"
140
0.5
141
12.0
290
     0
1001
ACAD
1000
AcRTDxfName
1000
SCALE
1000
AcRTDxfName
1000
SCALE
1000
AcRTDxfName
1000
SCALE
1000
AcRTDxfName
1000
SCALE
1000
AcRTDxfName
1000
SCALE
1000
AcRTDxfName
1000
SCALE
1000
AcRTDxfName
1000
SCALE
1000
AcRTDxfName
1000
SCALE
1000
AcRTDxfName
1000
SCALE
1000
AcRTDxfName
1000
SCALE
  0
SCALE
  5
11B6
102
{ACAD_REACTORS
330
119A
102
}
330
119A
100
AcDbScale
 70
     0
300
3/4" = 1'-0"
140
0.75
141
12.0
290
     0
1001
ACAD
1000
AcRTDxfName
1000
SCALE
1000
AcRTDxfName
1000
SCALE
1000
AcRTDxfName
1000
SCALE
1000
AcRTDxfName
1000
SCALE
1000
AcRTDxfName
1000
SCALE
1000
AcRTDxfName
1000
SCALE
1000
AcRTDxfName
1000
SCALE
1000
AcRTDxfName
1000
SCALE
1000
AcRTDxfName
1000
SCALE
1000
AcRTDxfName
1000
SCALE
  0
SCALE
  5
11B7
102
{ACAD_REACTORS
330
119A
102
}
330
119A
100
AcDbScale
 70
     0
300
1" = 1'-0"
140
1.0
141
12.0
290
     0
1001
ACAD
1000
AcRTDxfName
1000
SCALE
1000
AcRTDxfName
1000
SCALE
1000
AcRTDxfName
1000
SCALE
1000
AcRTDxfName
1000
SCALE
1000
AcRTDxfName
1000
SCALE
1000
AcRTDxfName
1000
SCALE
1000
AcRTDxfName
1000
SCALE
1000
AcRTDxfName
1000
SCALE
1000
AcRTDxfName
1000
SCALE
1000
AcRTDxfName
1000
SCALE
  0
SCALE
  5
11B8
102
{ACAD_REACTORS
330
119A
102
}
330
119A
100
AcDbScale
 70
     0
300
1-1/2" = 1'-0"
140
1.5
141
12.0
290
     0
1001
ACAD
1000
AcRTDxfName
1000
SCALE
1000
AcRTDxfName
1000
SCALE
1000
AcRTDxfName
1000
SCALE
1000
AcRTDxfName
1000
SCALE
1000
AcRTDxfName
1000
SCALE
1000
AcRTDxfName
1000
SCALE
1000
AcRTDxfName
1000
SCALE
1000
AcRTDxfName
1000
SCALE
1000
AcRTDxfName
1000
SCALE
1000
AcRTDxfName
1000
SCALE
  0
SCALE
  5
11B9
102
{ACAD_REACTORS
330
119A
102
}
330
119A
100
AcDbScale
 70
     0
300
3" = 1'-0"
140
3.0
141
12.0
290
     0
1001
ACAD
1000
AcRTDxfName
1000
SCALE
1000
AcRTDxfName
1000
SCALE
1000
AcRTDxfName
1000
SCALE
1000
AcRTDxfName
1000
SCALE
1000
AcRTDxfName
1000
SCALE
1000
AcRTDxfName
1000
SCALE
1000
AcRTDxfName
1000
SCALE
1000
AcRTDxfName
1000
SCALE
1000
AcRTDxfName
1000
SCALE
1000
AcRTDxfName
1000
SCALE
  0
SCALE
  5
11BA
102
{ACAD_REACTORS
330
119A
102
}
330
119A
100
AcDbScale
 70
     0
300
6" = 1'-0"
140
6.0
141
12.0
290
     0
1001
ACAD
1000
AcRTDxfName
1000
SCALE
1000
AcRTDxfName
1000
SCALE
1000
AcRTDxfName
1000
SCALE
1000
AcRTDxfName
1000
SCALE
1000
AcRTDxfName
1000
SCALE
1000
AcRTDxfName
1000
SCALE
1000
AcRTDxfName
1000
SCALE
1000
AcRTDxfName
1000
SCALE
1000
AcRTDxfName
1000
SCALE
1000
AcRTDxfName
1000
SCALE
  0
SCALE
  5
11BB
102
{ACAD_REACTORS
330
119A
102
}
330
119A
100
AcDbScale
 70
     0
300
1'-0" = 1'-0"
140
12.0
141
12.0
290
     0
1001
ACAD
1000
AcRTDxfName
1000
SCALE
1000
AcRTDxfName
1000
SCALE
1000
AcRTDxfName
1000
SCALE
1000
AcRTDxfName
1000
SCALE
1000
AcRTDxfName
1000
SCALE
1000
AcRTDxfName
1000
SCALE
1000
AcRTDxfName
1000
SCALE
1000
AcRTDxfName
1000
SCALE
1000
AcRTDxfName
1000
SCALE
1000
AcRTDxfName
1000
SCALE
  0
TABLESTYLE
  5
1199
102
{ACAD_XDICTIONARY
360
11D8
102
}
102
{ACAD_REACTORS
330
1198
102
}
330
1198
100
AcDbTableStyle
280
     0
  3
Standard
 70
     0
 71
     0
 40
0.06
 41
0.06
280
     0
281
     0
  7
Standard
140
0.18
170
     2
 62
     0
 63
     7
283
     0
 90
      512
 91
        0
  1

274
    -2
284
     1
 64
     0
275
    -2
285
     1
 65
     0
276
    -2
286
     1
 66
     0
277
    -2
287
     1
 67
     0
278
    -2
288
     1
 68
     0
279
    -2
289
     1
 69
     0
  7
Standard
140
0.25
170
     5
 62
     0
 63
     7
283
     0
 90
      512
 91
        0
  1

274
    -2
284
     1
 64
     0
275
    -2
285
     1
 65
     0
276
    -2
286
     1
 66
     0
277
    -2
287
     1
 67
     0
278
    -2
288
     1
 68
     0
279
    -2
289
     1
 69
     0
  7
Standard
140
0.18
170
     5
 62
     0
 63
     7
283
     0
 90
      512
 91
        0
  1

274
    -2
284
     1
 64
     0
275
    -2
285
     1
 65
     0
276
    -2
286
     1
 66
     0
277
    -2
287
     1
 67
     0
278
    -2
288
     1
 68
     0
279
    -2
289
     1
 69
     0
  0
VISUALSTYLE
  5
118D
102
{ACAD_REACTORS
330
1187
102
}
330
1187
100
AcDbVisualStyle
  2
2dWireframe
 70
     4
177
     2
291
     0
 71
     0
176
     1
 72
     2
176
     1
 73
     0
176
     1
 90
        0
176
     1
 40
0.6
176
     1
 41
30.0
176
     1
 63
     7
176
     1
 74
     1
176
     1
 91
        4
176
     1
 64
     7
176
     1
 65
   257
176
     1
 75
     1
176
     1
175
     1
176
     1
 42
1.0
176
     1
 92
        0
176
     1
 66
   257
176
     1
 43
1.0
176
     1
 76
     1
176
     1
 77
     6
176
     1
 78
     2
176
     1
 67
     7
176
     1
 79
     5
176
     1
170
     0
176
     1
171
     0
176
     1
290
     0
176
     1
 93
        1
176
     1
 44
0.0
176
     1
173
     0
176
     1
1001
ACAD
1000
AcRTDxfName
1000
VISUALSTYLE
1000
AcRTDxfName
1000
VISUALSTYLE
1000
AcRTDxfName
1000
VISUALSTYLE
1000
AcRTDxfName
1000
VISUALSTYLE
1000
AcRTDxfName
1000
VISUALSTYLE
1000
AcRTDxfName
1000
VISUALSTYLE
1000
AcRTDxfName
1000
VISUALSTYLE
1000
AcRTDxfName
1000
VISUALSTYLE
1000
AcRTDxfName
1000
VISUALSTYLE
1000
AcRTDxfName
1000
VISUALSTYLE
  0
VISUALSTYLE
  5
118F
102
{ACAD_REACTORS
330
1187
102
}
330
1187
100
AcDbVisualStyle
  2
3D Hidden
 70
     6
177
     2
291
     0
 71
     1
176
     1
 72
     2
176
     1
 73
     2
176
     1
 90
        0
176
     1
 40
0.6
176
     1
 41
30.0
176
     1
 63
     7
176
     1
 74
     2
176
     1
 91
        2
176
     1
 64
     7
176
     1
 65
   257
176
     1
 75
     2
176
     1
175
     1
176
     1
 42
40.0
176
     1
 92
        0
176
     1
 66
   257
176
     1
 43
1.0
176
     1
 76
     1
176
     1
 77
     6
176
     1
 78
     2
176
     1
 67
     7
176
     1
 79
     3
176
     1
170
     0
176
     1
171
     0
176
     1
290
     0
176
     1
 93
        1
176
     1
 44
0.0
176
     1
173
     0
176
     1
1001
ACAD
1000
AcRTDxfName
1000
VISUALSTYLE
1000
AcRTDxfName
1000
VISUALSTYLE
1000
AcRTDxfName
1000
VISUALSTYLE
1000
AcRTDxfName
1000
VISUALSTYLE
1000
AcRTDxfName
1000
VISUALSTYLE
1000
AcRTDxfName
1000
VISUALSTYLE
1000
AcRTDxfName
1000
VISUALSTYLE
1000
AcRTDxfName
1000
VISUALSTYLE
1000
AcRTDxfName
1000
VISUALSTYLE
1000
AcRTDxfName
1000
VISUALSTYLE
  0
VISUALSTYLE
  5
118E
102
{ACAD_REACTORS
330
1187
102
}
330
1187
100
AcDbVisualStyle
  2
3dWireframe
 70
     5
177
     2
291
     0
 71
     0
176
     1
 72
     2
176
     1
 73
     0
176
     1
 90
        0
176
     1
 40
0.6
176
     1
 41
30.0
176
     1
 63
     7
176
     1
 74
     1
176
     1
 91
        4
176
     1
 64
     7
176
     1
 65
   257
176
     1
 75
     1
176
     1
175
     1
176
     1
 42
1.0
176
     1
 92
        0
176
     1
 66
   257
176
     1
 43
1.0
176
     1
 76
     1
176
     1
 77
     6
176
     1
 78
     2
176
     1
 67
     7
176
     1
 79
     5
176
     1
170
     0
176
     1
171
     0
176
     1
290
     0
176
     1
 93
        1
176
     1
 44
0.0
176
     1
173
     0
176
     1
1001
ACAD
1000
AcRTDxfName
1000
VISUALSTYLE
1000
AcRTDxfName
1000
VISUALSTYLE
1000
AcRTDxfName
1000
VISUALSTYLE
1000
AcRTDxfName
1000
VISUALSTYLE
1000
AcRTDxfName
1000
VISUALSTYLE
1000
AcRTDxfName
1000
VISUALSTYLE
1000
AcRTDxfName
1000
VISUALSTYLE
1000
AcRTDxfName
1000
VISUALSTYLE
1000
AcRTDxfName
1000
VISUALSTYLE
1000
AcRTDxfName
1000
VISUALSTYLE
  0
VISUALSTYLE
  5
118C
102
{ACAD_REACTORS
330
1187
102
}
330
1187
100
AcDbVisualStyle
  2
Basic
 70
     7
177
     2
291
     1
 71
     1
176
     1
 72
     0
176
     1
 73
     1
176
     1
 90
        0
176
     1
 40
0.6
176
     1
 41
30.0
176
     1
 63
     7
176
     1
 74
     0
176
     1
 91
        4
176
     1
 64
     7
176
     1
 65
   257
176
     1
 75
     1
176
     1
175
     1
176
     1
 42
1.0
176
     1
 92
        8
176
     1
 66
     7
176
     1
 43
1.0
176
     1
 76
     1
176
     1
 77
     6
176
     1
 78
     2
176
     1
 67
     7
176
     1
 79
     5
176
     1
170
     0
176
     1
171
     0
176
     1
290
     0
176
     1
 93
        1
176
     1
 44
0.0
176
     1
173
     0
176
     1
1001
ACAD
1000
AcRTDxfName
1000
VISUALSTYLE
1000
AcRTDxfName
1000
VISUALSTYLE
1000
AcRTDxfName
1000
VISUALSTYLE
1000
AcRTDxfName
1000
VISUALSTYLE
1000
AcRTDxfName
1000
VISUALSTYLE
1000
AcRTDxfName
1000
VISUALSTYLE
1000
AcRTDxfName
1000
VISUALSTYLE
1000
AcRTDxfName
1000
VISUALSTYLE
1000
AcRTDxfName
1000
VISUALSTYLE
1000
AcRTDxfName
1000
VISUALSTYLE
  0
VISUALSTYLE
  5
1193
102
{ACAD_REACTORS
330
1187
102
}
330
1187
100
AcDbVisualStyle
  2
Brighten
 70
    12
177
     2
291
     1
 71
     2
176
     1
 72
     2
176
     1
 73
     0
176
     1
 90
        0
176
     1
 40
0.6
176
     1
 41
30.0
176
     1
 63
     7
176
     1
 74
     1
176
     1
 91
        4
176
     1
 64
     7
176
     1
 65
   257
176
     1
 75
     1
176
     1
175
     1
176
     1
 42
1.0
176
     1
 92
        8
176
     1
 66
     7
176
     1
 43
1.0
176
     1
 76
     1
176
     1
 77
     6
176
     1
 78
     2
176
     1
 67
     7
176
     1
 79
     5
176
     1
170
     0
176
     1
171
     0
176
     1
290
     0
176
     1
 93
        1
176
     1
 44
50.0
176
     1
173
     0
176
     1
1001
ACAD
1000
AcRTDxfName
1000
VISUALSTYLE
1000
AcRTDxfName
1000
VISUALSTYLE
1000
AcRTDxfName
1000
VISUALSTYLE
1000
AcRTDxfName
1000
VISUALSTYLE
1000
AcRTDxfName
1000
VISUALSTYLE
1000
AcRTDxfName
1000
VISUALSTYLE
1000
AcRTDxfName
1000
VISUALSTYLE
1000
AcRTDxfName
1000
VISUALSTYLE
1000
AcRTDxfName
1000
VISUALSTYLE
1000
AcRTDxfName
1000
VISUALSTYLE
  0
VISUALSTYLE
  5
1197
102
{ACAD_REACTORS
330
1187
102
}
330
1187
100
AcDbVisualStyle
  2
ColorChange
 70
    16
177
     2
291
     1
 71
     2
176
     1
 72
     2
176
     1
 73
     3
176
     1
 90
        0
176
     1
 40
0.6
176
     1
 41
30.0
176
     1
 63
     8
176
     1
 74
     1
176
     1
 91
        4
176
     1
 64
     7
176
     1
 65
   257
176
     1
 75
     1
176
     1
175
     1
176
     1
 42
1.0
176
     1
 92
        8
176
     1
 66
     8
176
     1
 43
1.0
176
     1
 76
     1
176
     1
 77
     6
176
     1
 78
     2
176
     1
 67
     7
176
     1
 79
     5
176
     1
170
     0
176
     1
171
     0
176
     1
290
     0
176
     1
 93
        1
176
     1
 44
0.0
176
     1
173
     0
176
     1
1001
ACAD
1000
AcRTDxfName
1000
VISUALSTYLE
1000
AcRTDxfName
1000
VISUALSTYLE
1000
AcRTDxfName
1000
VISUALSTYLE
1000
AcRTDxfName
1000
VISUALSTYLE
1000
AcRTDxfName
1000
VISUALSTYLE
1000
AcRTDxfName
1000
VISUALSTYLE
1000
AcRTDxfName
1000
VISUALSTYLE
1000
AcRTDxfName
1000
VISUALSTYLE
1000
AcRTDxfName
1000
VISUALSTYLE
1000
AcRTDxfName
1000
VISUALSTYLE
  0
VISUALSTYLE
  5
1190
102
{ACAD_REACTORS
330
1187
102
}
330
1187
100
AcDbVisualStyle
  2
Conceptual
 70
     9
177
     2
291
     0
 71
     3
176
     1
 72
     2
176
     1
 73
     0
176
     1
 90
        0
176
     1
 40
0.6
176
     1
 41
30.0
176
     1
 63
     7
176
     1
 74
     2
176
     1
 91
        2
176
     1
 64
     7
176
     1
 65
   257
176
     1
 75
     1
176
     1
175
     1
176
     1
 42
40.0
176
     1
 92
        8
176
     1
 66
     7
176
     1
 43
1.0
176
     1
 76
     1
176
     1
 77
     6
176
     1
 78
     2
176
     1
 67
     7
176
     1
 79
     3
176
     1
170
     0
176
     1
171
     0
176
     1
290
     0
176
     1
 93
        1
176
     1
 44
0.0
176
     1
173
     0
176
     1
1001
ACAD
1000
AcRTDxfName
1000
VISUALSTYLE
1000
AcRTDxfName
1000
VISUALSTYLE
1000
AcRTDxfName
1000
VISUALSTYLE
1000
AcRTDxfName
1000
VISUALSTYLE
1000
AcRTDxfName
1000
VISUALSTYLE
1000
AcRTDxfName
1000
VISUALSTYLE
1000
AcRTDxfName
1000
VISUALSTYLE
1000
AcRTDxfName
1000
VISUALSTYLE
1000
AcRTDxfName
1000
VISUALSTYLE
1000
AcRTDxfName
1000
VISUALSTYLE
  0
VISUALSTYLE
  5
1192
102
{ACAD_REACTORS
330
1187
102
}
330
1187
100
AcDbVisualStyle
  2
Dim
 70
    11
177
     2
291
     1
 71
     2
176
     1
 72
     2
176
     1
 73
     0
176
     1
 90
        0
176
     1
 40
0.6
176
     1
 41
30.0
176
     1
 63
     7
176
     1
 74
     1
176
     1
 91
        4
176
     1
 64
     7
176
     1
 65
   257
176
     1
 75
     1
176
     1
175
     1
176
     1
 42
1.0
176
     1
 92
        8
176
     1
 66
     7
176
     1
 43
1.0
176
     1
 76
     1
176
     1
 77
     6
176
     1
 78
     2
176
     1
 67
     7
176
     1
 79
     5
176
     1
170
     0
176
     1
171
     0
176
     1
290
     0
176
     1
 93
        1
176
     1
 44
-50.0
176
     1
173
     0
176
     1
1001
ACAD
1000
AcRTDxfName
1000
VISUALSTYLE
1000
AcRTDxfName
1000
VISUALSTYLE
1000
AcRTDxfName
1000
VISUALSTYLE
1000
AcRTDxfName
1000
VISUALSTYLE
1000
AcRTDxfName
1000
VISUALSTYLE
1000
AcRTDxfName
1000
VISUALSTYLE
1000
AcRTDxfName
1000
VISUALSTYLE
1000
AcRTDxfName
1000
VISUALSTYLE
1000
AcRTDxfName
1000
VISUALSTYLE
1000
AcRTDxfName
1000
VISUALSTYLE
  0
VISUALSTYLE
  5
5A25A
102
{ACAD_REACTORS
330
1187
102
}
330
1187
100
AcDbVisualStyle
  2
EdgeColorOff
 70
    22
177
     2
291
     1
 71
     2
176
     0
 72
     2
176
     0
 73
     0
176
     0
 90
        0
176
     0
 40
0.6
176
     0
 41
30.0
176
     0
 63
     7
421
 16777215
176
     0
 74
     1
176
     0
 91
        4
176
     0
 64
     7
176
     0
 65
   257
176
     0
 75
     1
176
     0
175
     1
176
     0
 42
1.0
176
     0
 92
        8
176
     2
 66
     7
176
     0
 43
1.0
176
     0
 76
     1
176
     0
 77
     6
176
     0
 78
     2
176
     0
 67
     7
176
     0
 79
     5
176
     0
170
     0
176
     0
171
     0
176
     0
290
     0
176
     0
 93
        1
176
     0
 44
0.0
176
     0
173
     0
176
     0
  0
VISUALSTYLE
  5
1196
102
{ACAD_REACTORS
330
1187
102
}
330
1187
100
AcDbVisualStyle
  2
Facepattern
 70
    15
177
     2
291
     1
 71
     2
176
     1
 72
     2
176
     1
 73
     0
176
     1
 90
        0
176
     1
 40
0.6
176
     1
 41
30.0
176
     1
 63
     7
176
     1
 74
     1
176
     1
 91
        4
176
     1
 64
     7
176
     1
 65
   257
176
     1
 75
     1
176
     1
175
     1
176
     1
 42
1.0
176
     1
 92
        8
176
     1
 66
     7
176
     1
 43
1.0
176
     1
 76
     1
176
     1
 77
     6
176
     1
 78
     2
176
     1
 67
     7
176
     1
 79
     5
176
     1
170
     0
176
     1
171
     0
176
     1
290
     0
176
     1
 93
        1
176
     1
 44
0.0
176
     1
173
     0
176
     1
1001
ACAD
1000
AcRTDxfName
1000
VISUALSTYLE
1000
AcRTDxfName
1000
VISUALSTYLE
1000
AcRTDxfName
1000
VISUALSTYLE
1000
AcRTDxfName
1000
VISUALSTYLE
1000
AcRTDxfName
1000
VISUALSTYLE
1000
AcRTDxfName
1000
VISUALSTYLE
1000
AcRTDxfName
1000
VISUALSTYLE
1000
AcRTDxfName
1000
VISUALSTYLE
1000
AcRTDxfName
1000
VISUALSTYLE
1000
AcRTDxfName
1000
VISUALSTYLE
  0
VISUALSTYLE
  5
1188
102
{ACAD_REACTORS
330
1187
102
}
330
1187
100
AcDbVisualStyle
  2
Flat
 70
     0
177
     2
291
     1
 71
     2
176
     1
 72
     1
176
     1
 73
     1
176
     1
 90
        2
176
     1
 40
0.6
176
     1
 41
30.0
176
     1
 63
     7
176
     1
 74
     0
176
     1
 91
        4
176
     1
 64
     7
176
     1
 65
   257
176
     1
 75
     1
176
     1
175
     1
176
     1
 42
1.0
176
     1
 92
        8
176
     1
 66
     7
176
     1
 43
1.0
176
     1
 76
     1
176
     1
 77
     6
176
     1
 78
     2
176
     1
 67
     7
176
     1
 79
     5
176
     1
170
     0
176
     1
171
     0
176
     1
290
     0
176
     1
 93
       13
176
     1
 44
0.0
176
     1
173
     0
176
     1
1001
ACAD
1000
AcRTDxfName
1000
VISUALSTYLE
1000
AcRTDxfName
1000
VISUALSTYLE
1000
AcRTDxfName
1000
VISUALSTYLE
1000
AcRTDxfName
1000
VISUALSTYLE
1000
AcRTDxfName
1000
VISUALSTYLE
1000
AcRTDxfName
1000
VISUALSTYLE
1000
AcRTDxfName
1000
VISUALSTYLE
1000
AcRTDxfName
1000
VISUALSTYLE
1000
AcRTDxfName
1000
VISUALSTYLE
1000
AcRTDxfName
1000
VISUALSTYLE
  0
VISUALSTYLE
  5
1189
102
{ACAD_REACTORS
330
1187
102
}
330
1187
100
AcDbVisualStyle
  2
FlatWithEdges
 70
     1
177
     2
291
     1
 71
     2
176
     1
 72
     1
176
     1
 73
     1
176
     1
 90
        2
176
     1
 40
0.6
176
     1
 41
30.0
176
     1
 63
     7
176
     1
 74
     1
176
     1
 91
        4
176
     1
 64
     7
176
     1
 65
   257
176
     1
 75
     1
176
     1
175
     1
176
     1
 42
1.0
176
     1
 92
        0
176
     1
 66
   257
176
     1
 43
1.0
176
     1
 76
     1
176
     1
 77
     6
176
     1
 78
     2
176
     1
 67
     7
176
     1
 79
     5
176
     1
170
     0
176
     1
171
     0
176
     1
290
     0
176
     1
 93
       13
176
     1
 44
0.0
176
     1
173
     0
176
     1
1001
ACAD
1000
AcRTDxfName
1000
VISUALSTYLE
1000
AcRTDxfName
1000
VISUALSTYLE
1000
AcRTDxfName
1000
VISUALSTYLE
1000
AcRTDxfName
1000
VISUALSTYLE
1000
AcRTDxfName
1000
VISUALSTYLE
1000
AcRTDxfName
1000
VISUALSTYLE
1000
AcRTDxfName
1000
VISUALSTYLE
1000
AcRTDxfName
1000
VISUALSTYLE
1000
AcRTDxfName
1000
VISUALSTYLE
1000
AcRTDxfName
1000
VISUALSTYLE
  0
VISUALSTYLE
  5
118A
102
{ACAD_REACTORS
330
1187
102
}
330
1187
100
AcDbVisualStyle
  2
Gouraud
 70
     2
177
     2
291
     1
 71
     2
176
     1
 72
     2
176
     1
 73
     1
176
     1
 90
        2
176
     1
 40
0.6
176
     1
 41
30.0
176
     1
 63
     7
176
     1
 74
     0
176
     1
 91
        4
176
     1
 64
     7
176
     1
 65
   257
176
     1
 75
     1
176
     1
175
     1
176
     1
 42
1.0
176
     1
 92
        0
176
     1
 66
     7
176
     1
 43
1.0
176
     1
 76
     1
176
     1
 77
     6
176
     1
 78
     2
176
     1
 67
     7
176
     1
 79
     5
176
     1
170
     0
176
     1
171
     0
176
     1
290
     0
176
     1
 93
       13
176
     1
 44
0.0
176
     1
173
     0
176
     1
1001
ACAD
1000
AcRTDxfName
1000
VISUALSTYLE
1000
AcRTDxfName
1000
VISUALSTYLE
1000
AcRTDxfName
1000
VISUALSTYLE
1000
AcRTDxfName
1000
VISUALSTYLE
1000
AcRTDxfName
1000
VISUALSTYLE
1000
AcRTDxfName
1000
VISUALSTYLE
1000
AcRTDxfName
1000
VISUALSTYLE
1000
AcRTDxfName
1000
VISUALSTYLE
1000
AcRTDxfName
1000
VISUALSTYLE
1000
AcRTDxfName
1000
VISUALSTYLE
  0
VISUALSTYLE
  5
118B
102
{ACAD_REACTORS
330
1187
102
}
330
1187
100
AcDbVisualStyle
  2
GouraudWithEdges
 70
     3
177
     2
291
     1
 71
     2
176
     1
 72
     2
176
     1
 73
     1
176
     1
 90
        2
176
     1
 40
0.6
176
     1
 41
30.0
176
     1
 63
     7
176
     1
 74
     1
176
     1
 91
        4
176
     1
 64
     7
176
     1
 65
   257
176
     1
 75
     1
176
     1
175
     1
176
     1
 42
1.0
176
     1
 92
        0
176
     1
 66
   257
176
     1
 43
1.0
176
     1
 76
     1
176
     1
 77
     6
176
     1
 78
     2
176
     1
 67
     7
176
     1
 79
     5
176
     1
170
     0
176
     1
171
     0
176
     1
290
     0
176
     1
 93
       13
176
     1
 44
0.0
176
     1
173
     0
176
     1
1001
ACAD
1000
AcRTDxfName
1000
VISUALSTYLE
1000
AcRTDxfName
1000
VISUALSTYLE
1000
AcRTDxfName
1000
VISUALSTYLE
1000
AcRTDxfName
1000
VISUALSTYLE
1000
AcRTDxfName
1000
VISUALSTYLE
1000
AcRTDxfName
1000
VISUALSTYLE
1000
AcRTDxfName
1000
VISUALSTYLE
1000
AcRTDxfName
1000
VISUALSTYLE
1000
AcRTDxfName
1000
VISUALSTYLE
1000
AcRTDxfName
1000
VISUALSTYLE
  0
VISUALSTYLE
  5
5A258
102
{ACAD_REACTORS
330
1187
102
}
330
1187
100
AcDbVisualStyle
  2
JitterOff
 70
    20
177
     2
291
     1
 71
     2
176
     0
 72
     2
176
     0
 73
     0
176
     0
 90
        0
176
     0
 40
0.6
176
     0
 41
30.0
176
     0
 63
     7
421
 16777215
176
     0
 74
     1
176
     0
 91
        4
176
     0
 64
     7
176
     0
 65
   257
176
     0
 75
     1
176
     0
175
     1
176
     0
 42
1.0
176
     0
 92
       10
176
     2
 66
     7
176
     0
 43
1.0
176
     0
 76
     1
176
     0
 77
     6
176
     0
 78
     2
176
     0
 67
     7
176
     0
 79
     5
176
     0
170
     0
176
     0
171
     0
176
     0
290
     0
176
     0
 93
        1
176
     0
 44
0.0
176
     0
173
     0
176
     0
  0
VISUALSTYLE
  5
1195
102
{ACAD_REACTORS
330
1187
102
}
330
1187
100
AcDbVisualStyle
  2
Linepattern
 70
    14
177
     2
291
     1
 71
     2
176
     1
 72
     2
176
     1
 73
     0
176
     1
 90
        0
176
     1
 40
0.6
176
     1
 41
30.0
176
     1
 63
     7
176
     1
 74
     1
176
     1
 91
        4
176
     1
 64
     7
176
     1
 65
   257
176
     1
 75
     7
176
     1
175
     7
176
     1
 42
1.0
176
     1
 92
        8
176
     1
 66
     7
176
     1
 43
1.0
176
     1
 76
     1
176
     1
 77
     6
176
     1
 78
     2
176
     1
 67
     7
176
     1
 79
     5
176
     1
170
     0
176
     1
171
     0
176
     1
290
     0
176
     1
 93
        1
176
     1
 44
0.0
176
     1
173
     0
176
     1
1001
ACAD
1000
AcRTDxfName
1000
VISUALSTYLE
1000
AcRTDxfName
1000
VISUALSTYLE
1000
AcRTDxfName
1000
VISUALSTYLE
1000
AcRTDxfName
1000
VISUALSTYLE
1000
AcRTDxfName
1000
VISUALSTYLE
1000
AcRTDxfName
1000
VISUALSTYLE
1000
AcRTDxfName
1000
VISUALSTYLE
1000
AcRTDxfName
1000
VISUALSTYLE
1000
AcRTDxfName
1000
VISUALSTYLE
1000
AcRTDxfName
1000
VISUALSTYLE
  0
VISUALSTYLE
  5
5A259
102
{ACAD_REACTORS
330
1187
102
}
330
1187
100
AcDbVisualStyle
  2
OverhangOff
 70
    21
177
     2
291
     1
 71
     2
176
     0
 72
     2
176
     0
 73
     0
176
     0
 90
        0
176
     0
 40
0.6
176
     0
 41
30.0
176
     0
 63
     7
421
 16777215
176
     0
 74
     1
176
     0
 91
        4
176
     0
 64
     7
176
     0
 65
   257
176
     0
 75
     1
176
     0
175
     1
176
     0
 42
1.0
176
     0
 92
        9
176
     2
 66
     7
176
     0
 43
1.0
176
     0
 76
     1
176
     0
 77
     6
176
     0
 78
     2
176
     0
 67
     7
176
     0
 79
     5
176
     0
170
     0
176
     0
171
     0
176
     0
290
     0
176
     0
 93
        1
176
     0
 44
0.0
176
     0
173
     0
176
     0
  0
VISUALSTYLE
  5
1191
102
{ACAD_REACTORS
330
1187
102
}
330
1187
100
AcDbVisualStyle
  2
Realistic
 70
     8
177
     2
291
     0
 71
     2
176
     1
 72
     2
176
     1
 73
     0
176
     1
 90
        0
176
     1
 40
0.6
176
     1
 41
30.0
176
     1
 63
     7
176
     1
 74
     1
176
     1
 91
        0
176
     1
 64
     7
176
     1
 65
   257
176
     1
 75
     1
176
     1
175
     1
176
     1
 42
1.0
176
     1
 92
        8
176
     1
 66
     8
176
     1
 43
1.0
176
     1
 76
     1
176
     1
 77
     6
176
     1
 78
     2
176
     1
 67
     7
176
     1
 79
     5
176
     1
170
     0
176
     1
171
     0
176
     1
290
     0
176
     1
 93
       13
176
     1
 44
0.0
176
     1
173
     0
176
     1
1001
ACAD
1000
AcRTDxfName
1000
VISUALSTYLE
1000
AcRTDxfName
1000
VISUALSTYLE
1000
AcRTDxfName
1000
VISUALSTYLE
1000
AcRTDxfName
1000
VISUALSTYLE
1000
AcRTDxfName
1000
VISUALSTYLE
1000
AcRTDxfName
1000
VISUALSTYLE
1000
AcRTDxfName
1000
VISUALSTYLE
1000
AcRTDxfName
1000
VISUALSTYLE
1000
AcRTDxfName
1000
VISUALSTYLE
1000
AcRTDxfName
1000
VISUALSTYLE
  0
VISUALSTYLE
  5
1194
102
{ACAD_REACTORS
330
1187
102
}
330
1187
100
AcDbVisualStyle
  2
Thicken
 70
    13
177
     2
291
     1
 71
     2
176
     1
 72
     2
176
     1
 73
     0
176
     1
 90
        0
176
     1
 40
0.6
176
     1
 41
30.0
176
     1
 63
     7
176
     1
 74
     1
176
     1
 91
        4
176
     1
 64
     7
176
     1
 65
   257
176
     1
 75
     1
176
     1
175
     1
176
     1
 42
1.0
176
     1
 92
       12
176
     1
 66
     7
176
     1
 43
1.0
176
     1
 76
     1
176
     1
 77
     6
176
     1
 78
     2
176
     1
 67
     7
176
     1
 79
     5
176
     1
170
     0
176
     1
171
     0
176
     1
290
     0
176
     1
 93
        1
176
     1
 44
0.0
176
     1
173
     0
176
     1
1001
ACAD
1000
AcRTDxfName
1000
VISUALSTYLE
1000
AcRTDxfName
1000
VISUALSTYLE
1000
AcRTDxfName
1000
VISUALSTYLE
1000
AcRTDxfName
1000
VISUALSTYLE
1000
AcRTDxfName
1000
VISUALSTYLE
1000
AcRTDxfName
1000
VISUALSTYLE
1000
AcRTDxfName
1000
VISUALSTYLE
1000
AcRTDxfName
1000
VISUALSTYLE
1000
AcRTDxfName
1000
VISUALSTYLE
1000
AcRTDxfName
1000
VISUALSTYLE
  0
DICTIONARYVAR
  5
1203
102
{ACAD_REACTORS
330
1200
102
}
330
1200
100
DictionaryVariables
280
     0
  1
1:1
  0
DICTIONARYVAR
  5
1202
102
{ACAD_REACTORS
330
1200
102
}
330
1200
100
DictionaryVariables
280
     0
  1
STANDARD
  0
DICTIONARYVAR
  5
1201
102
{ACAD_REACTORS
330
1200
102
}
330
1200
100
DictionaryVariables
280
     0
  1
STANDARD
  0
DICTIONARYVAR
  5
1206
102
{ACAD_REACTORS
330
1200
102
}
330
1200
100
DictionaryVariables
280
     0
  1
1
  0
DICTIONARYVAR
  5
1205
102
{ACAD_REACTORS
330
1200
102
}
330
1200
100
DictionaryVariables
280
     0
  1
0
  0
DICTIONARYVAR
  5
5A29B
102
{ACAD_REACTORS
330
1200
102
}
330
1200
100
DictionaryVariables
280
     0
  1
1
  0
DICTIONARYVAR
  5
5A29C
102
{ACAD_REACTORS
330
1200
102
}
330
1200
100
DictionaryVariables
280
     0
  1
15
  0
DICTIONARYVAR
  5
5A29A
102
{ACAD_REACTORS
330
1200
102
}
330
1200
100
DictionaryVariables
280
     0
  1
0
  0
DICTIONARYVAR
  5
5A299
102
{ACAD_REACTORS
330
1200
102
}
330
1200
100
DictionaryVariables
280
     0
  1
0
  0
DICTIONARYVAR
  5
37CEB
102
{ACAD_REACTORS
330
1200
102
}
330
1200
100
DictionaryVariables
280
     0
  1

  0
DICTIONARYVAR
  5
1204
102
{ACAD_REACTORS
330
1200
102
}
330
1200
100
DictionaryVariables
280
     0
  1
127
  0
DICTIONARY
  5
1178
330
1177
100
AcDbDictionary
280
     1
281
     1
  3
BUMPTILE
360
117A
  3
DIFFUSETILE
360
1179
  3
OPACITYTILE
360
117D
  3
REFLECTIONTILE
360
117C
  3
REFRACTIONTILE
360
117E
  3
SPECULARTILE
360
117B
  0
DICTIONARY
  5
1170
330
116F
100
AcDbDictionary
280
     1
281
     1
  3
BUMPTILE
360
1172
  3
DIFFUSETILE
360
1171
  3
OPACITYTILE
360
1175
  3
REFLECTIONTILE
360
1174
  3
REFRACTIONTILE
360
1176
  3
SPECULARTILE
360
1173
  0
DICTIONARY
  5
1180
330
117F
100
AcDbDictionary
280
     1
281
     1
  3
BUMPTILE
360
1182
  3
DIFFUSETILE
360
1181
  3
OPACITYTILE
360
1185
  3
REFLECTIONTILE
360
1184
  3
REFRACTIONTILE
360
1186
  3
SPECULARTILE
360
1183
  0
DICTIONARY
  5
11D8
330
1199
100
AcDbDictionary
280
     1
281
     1
  3
ACAD_ROUNDTRIP_2008_TABLESTYLE_CELLSTYLEMAP
360
5A29D
  0
XRECORD
  5
117A
102
{ACAD_REACTORS
330
1178
102
}
330
1178
100
AcDbXrecord
280
     1
270
     1
271
     1
  0
XRECORD
  5
1179
102
{ACAD_REACTORS
330
1178
102
}
330
1178
100
AcDbXrecord
280
     1
270
     1
271
     1
  0
XRECORD
  5
117D
102
{ACAD_REACTORS
330
1178
102
}
330
1178
100
AcDbXrecord
280
     1
270
     1
271
     1
  0
XRECORD
  5
117C
102
{ACAD_REACTORS
330
1178
102
}
330
1178
100
AcDbXrecord
280
     1
270
     1
271
     1
  0
XRECORD
  5
117E
102
{ACAD_REACTORS
330
1178
102
}
330
1178
100
AcDbXrecord
280
     1
270
     1
271
     1
  0
XRECORD
  5
117B
102
{ACAD_REACTORS
330
1178
102
}
330
1178
100
AcDbXrecord
280
     1
270
     1
271
     1
  0
XRECORD
  5
1172
102
{ACAD_REACTORS
330
1170
102
}
330
1170
100
AcDbXrecord
280
     1
270
     1
271
     1
  0
XRECORD
  5
1171
102
{ACAD_REACTORS
330
1170
102
}
330
1170
100
AcDbXrecord
280
     1
270
     1
271
     1
  0
XRECORD
  5
1175
102
{ACAD_REACTORS
330
1170
102
}
330
1170
100
AcDbXrecord
280
     1
270
     1
271
     1
  0
XRECORD
  5
1174
102
{ACAD_REACTORS
330
1170
102
}
330
1170
100
AcDbXrecord
280
     1
270
     1
271
     1
  0
XRECORD
  5
1176
102
{ACAD_REACTORS
330
1170
102
}
330
1170
100
AcDbXrecord
280
     1
270
     1
271
     1
  0
XRECORD
  5
1173
102
{ACAD_REACTORS
330
1170
102
}
330
1170
100
AcDbXrecord
280
     1
270
     1
271
     1
  0
XRECORD
  5
1182
102
{ACAD_REACTORS
330
1180
102
}
330
1180
100
AcDbXrecord
280
     1
270
     1
271
     1
  0
XRECORD
  5
1181
102
{ACAD_REACTORS
330
1180
102
}
330
1180
100
AcDbXrecord
280
     1
270
     1
271
     1
  0
XRECORD
  5
1185
102
{ACAD_REACTORS
330
1180
102
}
330
1180
100
AcDbXrecord
280
     1
270
     1
271
     1
  0
XRECORD
  5
1184
102
{ACAD_REACTORS
330
1180
102
}
330
1180
100
AcDbXrecord
280
     1
270
     1
271
     1
  0
XRECORD
  5
1186
102
{ACAD_REACTORS
330
1180
102
}
330
1180
100
AcDbXrecord
280
     1
270
     1
271
     1
  0
XRECORD
  5
1183
102
{ACAD_REACTORS
330
1180
102
}
330
1180
100
AcDbXrecord
280
     1
270
     1
271
     1
  0
CELLSTYLEMAP
  5
5A29D
102
{ACAD_REACTORS
330
11D8
102
}
330
11D8
100
AcDbCellStyleMap
 90
        3
300
CELLSTYLE
  1
TABLEFORMAT_BEGIN
 90
        5
170
     1
 91
        0
 92
    32768
 62
   257
 93
        1
300
CONTENTFORMAT
  1
CONTENTFORMAT_BEGIN
 90
        0
 91
        0
 92
      512
 93
        0
300

 40
0.0
140
1.0
 94
        5
 62
     0
340
11
144
0.25
309
CONTENTFORMAT_END
171
     1
301
MARGIN
  1
CELLMARGIN_BEGIN
 40
0.06
 40
0.06
 40
0.06
 40
0.06
 40
0.18
 40
0.18
309
CELLMARGIN_END
 94
        6
 95
        1
302
GRIDFORMAT
  1
GRIDFORMAT_BEGIN
 90
        0
 91
        1
 62
     0
 92
       -2
340
0
 93
        0
 40
0.045
309
GRIDFORMAT_END
 95
        2
302
GRIDFORMAT
  1
GRIDFORMAT_BEGIN
 90
        0
 91
        1
 62
     0
 92
       -2
340
0
 93
        0
 40
0.045
309
GRIDFORMAT_END
 95
        4
302
GRIDFORMAT
  1
GRIDFORMAT_BEGIN
 90
        0
 91
        1
 62
     0
 92
       -2
340
0
 93
        0
 40
0.045
309
GRIDFORMAT_END
 95
        8
302
GRIDFORMAT
  1
GRIDFORMAT_BEGIN
 90
        0
 91
        1
 62
     0
 92
       -2
340
0
 93
        0
 40
0.045
309
GRIDFORMAT_END
 95
       16
302
GRIDFORMAT
  1
GRIDFORMAT_BEGIN
 90
        0
 91
        1
 62
     0
 92
       -2
340
0
 93
        0
 40
0.045
309
GRIDFORMAT_END
 95
       32
302
GRIDFORMAT
  1
GRIDFORMAT_BEGIN
 90
        0
 91
        1
 62
     0
 92
       -2
340
0
 93
        0
 40
0.045
309
GRIDFORMAT_END
309
TABLEFORMAT_END
  1
CELLSTYLE_BEGIN
 90
        1
 91
        1
300
_TITLE
309
CELLSTYLE_END
300
CELLSTYLE
  1
TABLEFORMAT_BEGIN
 90
        5
170
     1
 91
        0
 92
        0
 62
   257
 93
        1
300
CONTENTFORMAT
  1
CONTENTFORMAT_BEGIN
 90
        0
 91
        0
 92
      512
 93
        0
300

 40
0.0
140
1.0
 94
        5
 62
     0
340
11
144
0.18
309
CONTENTFORMAT_END
171
     1
301
MARGIN
  1
CELLMARGIN_BEGIN
 40
0.06
 40
0.06
 40
0.06
 40
0.06
 40
0.18
 40
0.18
309
CELLMARGIN_END
 94
        6
 95
        1
302
GRIDFORMAT
  1
GRIDFORMAT_BEGIN
 90
        0
 91
        1
 62
     0
 92
       -2
340
0
 93
        0
 40
0.045
309
GRIDFORMAT_END
 95
        2
302
GRIDFORMAT
  1
GRIDFORMAT_BEGIN
 90
        0
 91
        1
 62
     0
 92
       -2
340
0
 93
        0
 40
0.045
309
GRIDFORMAT_END
 95
        4
302
GRIDFORMAT
  1
GRIDFORMAT_BEGIN
 90
        0
 91
        1
 62
     0
 92
       -2
340
0
 93
        0
 40
0.045
309
GRIDFORMAT_END
 95
        8
302
GRIDFORMAT
  1
GRIDFORMAT_BEGIN
 90
        0
 91
        1
 62
     0
 92
       -2
340
0
 93
        0
 40
0.045
309
GRIDFORMAT_END
 95
       16
302
GRIDFORMAT
  1
GRIDFORMAT_BEGIN
 90
        0
 91
        1
 62
     0
 92
       -2
340
0
 93
        0
 40
0.045
309
GRIDFORMAT_END
 95
       32
302
GRIDFORMAT
  1
GRIDFORMAT_BEGIN
 90
        0
 91
        1
 62
     0
 92
       -2
340
0
 93
        0
 40
0.045
309
GRIDFORMAT_END
309
TABLEFORMAT_END
  1
CELLSTYLE_BEGIN
 90
        2
 91
        1
300
_HEADER
309
CELLSTYLE_END
300
CELLSTYLE
  1
TABLEFORMAT_BEGIN
 90
        5
170
     1
 91
        0
 92
        0
 62
   257
 93
        1
300
CONTENTFORMAT
  1
CONTENTFORMAT_BEGIN
 90
        0
 91
        0
 92
      512
 93
        0
300

 40
0.0
140
1.0
 94
        2
 62
     0
340
11
144
0.18
309
CONTENTFORMAT_END
171
     1
301
MARGIN
  1
CELLMARGIN_BEGIN
 40
0.06
 40
0.06
 40
0.06
 40
0.06
 40
0.18
 40
0.18
309
CELLMARGIN_END
 94
        6
 95
        1
302
GRIDFORMAT
  1
GRIDFORMAT_BEGIN
 90
        0
 91
        1
 62
     0
 92
       -2
340
0
 93
        0
 40
0.045
309
GRIDFORMAT_END
 95
        2
302
GRIDFORMAT
  1
GRIDFORMAT_BEGIN
 90
        0
 91
        1
 62
     0
 92
       -2
340
0
 93
        0
 40
0.045
309
GRIDFORMAT_END
 95
        4
302
GRIDFORMAT
  1
GRIDFORMAT_BEGIN
 90
        0
 91
        1
 62
     0
 92
       -2
340
0
 93
        0
 40
0.045
309
GRIDFORMAT_END
 95
        8
302
GRIDFORMAT
  1
GRIDFORMAT_BEGIN
 90
        0
 91
        1
 62
     0
 92
       -2
340
0
 93
        0
 40
0.045
309
GRIDFORMAT_END
 95
       16
302
GRIDFORMAT
  1
GRIDFORMAT_BEGIN
 90
        0
 91
        1
 62
     0
 92
       -2
340
0
 93
        0
 40
0.045
309
GRIDFORMAT_END
 95
       32
302
GRIDFORMAT
  1
GRIDFORMAT_BEGIN
 90
        0
 91
        1
 62
     0
 92
       -2
340
0
 93
        0
 40
0.045
309
GRIDFORMAT_END
309
TABLEFORMAT_END
  1
CELLSTYLE_BEGIN
 90
        3
 91
        2
300
_DATA
309
CELLSTYLE_END
  0
ENDSEC
  0
EOF
