  0
SECTION
  2
HEADER
  9
$ACADVER
  1
AC1014
  9
$ACADMAINTVER
 70
     9
  9
$DWGCODEPAGE
  3
ANSI_1252
  9
$INSBASE
 10
0.0
 20
0.0
 30
0.0
  9
$EXTMIN
 10
-0.0114307403564453
 20
-22.50008010864257
 30
-0.0000009536743164
  9
$EXTMAX
 10
34.99999618530273
 20
22.50008010864257
 30
11.53612601757049
  9
$LIMMIN
 10
0.0
 20
0.0
  9
$LIMMAX
 10
420.0
 20
297.0
  9
$ORTHOMODE
 70
     0
  9
$REGENMODE
 70
     1
  9
$FILLMODE
 70
     1
  9
$QTEXTMODE
 70
     0
  9
$MIRRTEXT
 70
     1
  9
$DRAGMODE
 70
     2
  9
$LTSCALE
 40
1.0
  9
$OSMODE
 70
    35
  9
$ATTMODE
 70
     1
  9
$TEXTSIZE
 40
2.5
  9
$TRACEWID
 40
1.0
  9
$TEXTSTYLE
  7
STANDARD
  9
$CLAYER
  8
0
  9
$CELTYPE
  6
BYLAYER
  9
$CECOLOR
 62
   256
  9
$CELTSCALE
 40
1.0
  9
$DELOBJ
 70
     1
  9
$DISPSILH
 70
     0
  9
$DIMSCALE
 40
1.0
  9
$DIMASZ
 40
2.5
  9
$DIMEXO
 40
0.625
  9
$DIMDLI
 40
3.75
  9
$DIMRND
 40
0.0
  9
$DIMDLE
 40
0.0
  9
$DIMEXE
 40
1.25
  9
$DIMTP
 40
0.0
  9
$DIMTM
 40
0.0
  9
$DIMTXT
 40
2.5
  9
$DIMCEN
 40
2.5
  9
$DIMTSZ
 40
0.0
  9
$DIMTOL
 70
     0
  9
$DIMLIM
 70
     0
  9
$DIMTIH
 70
     0
  9
$DIMTOH
 70
     0
  9
$DIMSE1
 70
     0
  9
$DIMSE2
 70
     0
  9
$DIMTAD
 70
     1
  9
$DIMZIN
 70
     8
  9
$DIMBLK
  1

  9
$DIMASO
 70
     1
  9
$DIMSHO
 70
     1
  9
$DIMPOST
  1

  9
$DIMAPOST
  1

  9
$DIMALT
 70
     0
  9
$DIMALTD
 70
     3
  9
$DIMALTF
 40
0.03937007874016
  9
$DIMLFAC
 40
1.0
  9
$DIMTOFL
 70
     1
  9
$DIMTVP
 40
0.0
  9
$DIMTIX
 70
     0
  9
$DIMSOXD
 70
     0
  9
$DIMSAH
 70
     0
  9
$DIMBLK1
  1

  9
$DIMBLK2
  1

  9
$DIMSTYLE
  2
ISO-25
  9
$DIMCLRD
 70
     0
  9
$DIMCLRE
 70
     0
  9
$DIMCLRT
 70
     0
  9
$DIMTFAC
 40
1.0
  9
$DIMGAP
 40
0.625
  9
$DIMJUST
 70
     0
  9
$DIMSD1
 70
     0
  9
$DIMSD2
 70
     0
  9
$DIMTOLJ
 70
     0
  9
$DIMTZIN
 70
     8
  9
$DIMALTZ
 70
     0
  9
$DIMALTTZ
 70
     0
  9
$DIMFIT
 70
     3
  9
$DIMUPT
 70
     0
  9
$DIMUNIT
 70
     2
  9
$DIMDEC
 70
     2
  9
$DIMTDEC
 70
     2
  9
$DIMALTU
 70
     2
  9
$DIMALTTD
 70
     3
  9
$DIMTXSTY
  7
STANDARD
  9
$DIMAUNIT
 70
     0
  9
$LUNITS
 70
     2
  9
$LUPREC
 70
     4
  9
$SKETCHINC
 40
1.0
  9
$FILLETRAD
 40
10.0
  9
$AUNITS
 70
     0
  9
$AUPREC
 70
     0
  9
$MENU
  1
.
  9
$ELEVATION
 40
0.0
  9
$PELEVATION
 40
0.0
  9
$THICKNESS
 40
0.0
  9
$LIMCHECK
 70
     0
  9
$BLIPMODE
 70
     0
  9
$CHAMFERA
 40
10.0
  9
$CHAMFERB
 40
10.0
  9
$CHAMFERC
 40
20.0
  9
$CHAMFERD
 40
0.0
  9
$SKPOLY
 70
     0
  9
$TDCREATE
 40
2452681.732431192
  9
$TDUPDATE
 40
2452731.689358958
  9
$TDINDWG
 40
0.0361908565
  9
$TDUSRTIMER
 40
0.0361908565
  9
$USRTIMER
 70
     1
  9
$ANGBASE
 50
0.0
  9
$ANGDIR
 70
     0
  9
$PDMODE
 70
     0
  9
$PDSIZE
 40
0.0
  9
$PLINEWID
 40
0.0
  9
$COORDS
 70
     0
  9
$SPLFRAME
 70
     0
  9
$SPLINETYPE
 70
     6
  9
$SPLINESEGS
 70
     8
  9
$ATTDIA
 70
     1
  9
$ATTREQ
 70
     1
  9
$HANDLING
 70
 22529
  9
$HANDSEED
  5
979
  9
$SURFTAB1
 70
     6
  9
$SURFTAB2
 70
     6
  9
$SURFTYPE
 70
     6
  9
$SURFU
 70
     6
  9
$SURFV
 70
     6
  9
$UCSNAME
  2

  9
$UCSORG
 10
0.0
 20
0.0
 30
0.0
  9
$UCSXDIR
 10
1.0
 20
0.0
 30
0.0
  9
$UCSYDIR
 10
0.0
 20
1.0
 30
0.0
  9
$PUCSNAME
  2

  9
$PUCSORG
 10
0.0
 20
0.0
 30
0.0
  9
$PUCSXDIR
 10
1.0
 20
0.0
 30
0.0
  9
$PUCSYDIR
 10
0.0
 20
1.0
 30
0.0
  9
$USERI1
 70
     0
  9
$USERI2
 70
     0
  9
$USERI3
 70
     0
  9
$USERI4
 70
     0
  9
$USERI5
 70
     0
  9
$USERR1
 40
0.0
  9
$USERR2
 40
0.0
  9
$USERR3
 40
0.0
  9
$USERR4
 40
0.0
  9
$USERR5
 40
0.0
  9
$WORLDVIEW
 70
     1
  9
$SHADEDGE
 70
     3
  9
$SHADEDIF
 70
    70
  9
$TILEMODE
 70
     1
  9
$MAXACTVP
 70
    64
  9
$PINSBASE
 10
0.0
 20
0.0
 30
0.0
  9
$PLIMCHECK
 70
     0
  9
$PEXTMIN
 10
1.000000000000000E+20
 20
1.000000000000000E+20
 30
1.000000000000000E+20
  9
$PEXTMAX
 10
-1.000000000000000E+20
 20
-1.000000000000000E+20
 30
-1.000000000000000E+20
  9
$PLIMMIN
 10
0.0
 20
0.0
  9
$PLIMMAX
 10
420.0
 20
297.0
  9
$UNITMODE
 70
     0
  9
$VISRETAIN
 70
     1
  9
$PLINEGEN
 70
     0
  9
$PSLTSCALE
 70
     1
  9
$TREEDEPTH
 70
  3020
  9
$PICKSTYLE
 70
     1
  9
$CMLSTYLE
  2
STANDARD
  9
$CMLJUST
 70
     0
  9
$CMLSCALE
 40
20.0
  9
$PROXYGRAPHICS
 70
     1
  9
$MEASUREMENT
 70
     1
  0
ENDSEC
  0
SECTION
  2
CLASSES
  0
CLASS
  1
ACDBDICTIONARYWDFLT
  2
AcDbDictionaryWithDefault
  3
AutoCAD 2000
 90
        0
280
     0
281
     0
  0
CLASS
  1
ACDBPLACEHOLDER
  2
AcDbPlaceHolder
  3
AutoCAD 2000
 90
        0
280
     0
281
     0
  0
CLASS
  1
LAYOUT
  2
AcDbLayout
  3
AutoCAD 2000
 90
        0
280
     0
281
     0
  0
CLASS
  1
DICTIONARYVAR
  2
AcDbDictionaryVar
  3
AutoCAD 2000
 90
        0
280
     0
281
     0
  0
CLASS
  1
LONG_TRANSACTION
  2
AcDbLongTransaction
  3
AutoCAD 2000
 90
        0
280
     0
281
     0
  0
CLASS
  1
LWPOLYLINE
  2
AcDbPolyline
  3
AutoCAD 2000
 90
        0
280
     0
281
     1
  0
CLASS
  1
HATCH
  2
AcDbHatch
  3
AutoCAD 2000
 90
        0
280
     0
281
     1
  0
CLASS
  1
XRECORD
  2
AcDbXrecord
  3
AutoCAD 2000
 90
        0
280
     0
281
     0
  0
ENDSEC
  0
SECTION
  2
TABLES
  0
TABLE
  2
VPORT
  5
8
330
0
100
AcDbSymbolTable
 70
     3
  0
VPORT
  5
951
330
8
100
AcDbSymbolTableRecord
100
AcDbViewportTableRecord
  2
*ACTIVE
 70
     0
 10
0.0
 20
0.0
 11
1.0
 21
1.0
 12
-12.21740133307837
 22
-2.432407678428219
 13
0.0
 23
0.0
 14
10.0
 24
10.0
 15
10.0
 25
10.0
 16
1.0
 26
1.0
 36
1.0
 17
0.0
 27
0.0
 37
0.0
 40
42.61101127682028
 41
1.84990253411306
 42
50.0
 43
0.0
 44
0.0
 50
0.0
 51
0.0
 71
     0
 72
   100
 73
     1
 74
     3
 75
     0
 76
     0
 77
     0
 78
     0
  0
ENDTAB
  0
TABLE
  2
LTYPE
  5
5
330
0
100
AcDbSymbolTable
 70
     1
  0
LTYPE
  5
14
330
5
100
AcDbSymbolTableRecord
100
AcDbLinetypeTableRecord
  2
BYBLOCK
 70
     0
  3

 72
    65
 73
     0
 40
0.0
  0
LTYPE
  5
15
330
5
100
AcDbSymbolTableRecord
100
AcDbLinetypeTableRecord
  2
BYLAYER
 70
     0
  3

 72
    65
 73
     0
 40
0.0
  0
LTYPE
  5
16
330
5
100
AcDbSymbolTableRecord
100
AcDbLinetypeTableRecord
  2
CONTINUOUS
 70
     0
  3
Solid line
 72
    65
 73
     0
 40
0.0
  0
ENDTAB
  0
TABLE
  2
LAYER
  5
2
330
0
100
AcDbSymbolTable
 70
     2
  0
LAYER
  5
10
330
2
100
AcDbSymbolTableRecord
100
AcDbLayerTableRecord
  2
0
 70
     0
 62
     7
  6
CONTINUOUS
  0
LAYER
  5
2E
330
2
100
AcDbSymbolTableRecord
100
AcDbLayerTableRecord
  2
ASHADE
 70
     4
 62
     7
  6
CONTINUOUS
  0
ENDTAB
  0
TABLE
  2
STYLE
  5
3
330
0
100
AcDbSymbolTable
 70
     1
  0
STYLE
  5
11
330
3
100
AcDbSymbolTableRecord
100
AcDbTextStyleTableRecord
  2
STANDARD
 70
     0
 40
0.0
 41
1.0
 50
0.0
 71
     0
 42
2.5
  3
txt
  4

  0
ENDTAB
  0
TABLE
  2
VIEW
  5
6
330
0
100
AcDbSymbolTable
 70
     0
  0
ENDTAB
  0
TABLE
  2
UCS
  5
7
330
0
100
AcDbSymbolTable
 70
     0
  0
ENDTAB
  0
TABLE
  2
APPID
  5
9
330
0
100
AcDbSymbolTable
 70
     6
  0
APPID
  5
12
330
9
100
AcDbSymbolTableRecord
100
AcDbRegAppTableRecord
  2
ACAD
 70
     0
  0
APPID
  5
2C
330
9
100
AcDbSymbolTableRecord
100
AcDbRegAppTableRecord
  2
AVE_RENDER
 70
     0
  0
APPID
  5
2D
330
9
100
AcDbSymbolTableRecord
100
AcDbRegAppTableRecord
  2
AVE_ENTITY_MATERIAL
 70
     0
  0
APPID
  5
3A
330
9
100
AcDbSymbolTableRecord
100
AcDbRegAppTableRecord
  2
AVE_FINISH
 70
     0
  0
APPID
  5
3B
330
9
100
AcDbSymbolTableRecord
100
AcDbRegAppTableRecord
  2
AVE_MATERIAL
 70
     0
  0
APPID
  5
3C
330
9
100
AcDbSymbolTableRecord
100
AcDbRegAppTableRecord
  2
AVE_GLOBAL
 70
     0
  0
ENDTAB
  0
TABLE
  2
DIMSTYLE
  5
A
330
0
100
AcDbSymbolTable
 70
     1
  0
DIMSTYLE
105
27
330
A
100
AcDbSymbolTableRecord
100
AcDbDimStyleTableRecord
  2
ISO-25
 70
     0
  3

  4

  5

  6

  7

 40
1.0
 41
2.5
 42
0.625
 43
3.75
 44
1.25
 45
0.0
 46
0.0
 47
0.0
 48
0.0
140
2.5
141
2.5
142
0.0
143
0.03937007874016
144
1.0
145
0.0
146
1.0
147
0.625
 71
     0
 72
     0
 73
     0
 74
     0
 75
     0
 76
     0
 77
     1
 78
     8
170
     0
171
     3
172
     1
173
     0
174
     0
175
     0
176
     0
177
     0
178
     0
270
     2
271
     2
272
     2
273
     2
274
     3
340
11
275
     0
280
     0
281
     0
282
     0
283
     0
284
     8
285
     0
286
     0
287
     3
288
     0
  0
ENDTAB
  0
TABLE
  2
BLOCK_RECORD
  5
1
330
0
100
AcDbSymbolTable
 70
     3
  0
BLOCK_RECORD
  5
1F
102
{ACAD_XDICTIONARY
360
975
102
}
330
1
100
AcDbSymbolTableRecord
100
AcDbBlockTableRecord
  2
*MODEL_SPACE
  0
BLOCK_RECORD
  5
1B
102
{ACAD_XDICTIONARY
360
973
102
}
330
1
100
AcDbSymbolTableRecord
100
AcDbBlockTableRecord
  2
*PAPER_SPACE
  0
BLOCK_RECORD
  5
2F
330
1
100
AcDbSymbolTableRecord
100
AcDbBlockTableRecord
  2
AVE_RENDER
  0
BLOCK_RECORD
  5
3D
330
1
100
AcDbSymbolTableRecord
100
AcDbBlockTableRecord
  2
AVE_GLOBAL
  0
ENDTAB
  0
ENDSEC
  0
SECTION
  2
BLOCKS
  0
BLOCK
  5
20
330
1F
100
AcDbEntity
  8
0
100
AcDbBlockBegin
  2
*MODEL_SPACE
 70
     0
 10
0.0
 20
0.0
 30
0.0
  3
*MODEL_SPACE
  1

  0
ENDBLK
  5
21
330
1F
100
AcDbEntity
  8
0
100
AcDbBlockEnd
  0
BLOCK
  5
1C
330
1B
100
AcDbEntity
 67
     1
  8
0
100
AcDbBlockBegin
  2
*PAPER_SPACE
 70
     0
 10
0.0
 20
0.0
 30
0.0
  3
*PAPER_SPACE
  1

  0
ENDBLK
  5
1D
330
1B
100
AcDbEntity
 67
     1
  8
0
100
AcDbBlockEnd
  0
BLOCK
  5
30
330
2F
100
AcDbEntity
  8
ASHADE
100
AcDbBlockBegin
  2
AVE_RENDER
 70
     0
 10
0.0
 20
0.0
 30
0.0
  3
AVE_RENDER
  1
AVE_RENDER
  0
ENDBLK
  5
31
330
2F
100
AcDbEntity
  8
0
100
AcDbBlockEnd
  0
BLOCK
  5
3E
330
3D
100
AcDbEntity
  8
ASHADE
100
AcDbBlockBegin
  2
AVE_GLOBAL
 70
     0
 10
0.0
 20
0.0
 30
0.0
  3
AVE_GLOBAL
  1
AVE_GLOBAL
  0
ENDBLK
  5
3F
330
3D
100
AcDbEntity
  8
0
100
AcDbBlockEnd
  0
ENDSEC
  0
SECTION
  2
ENTITIES
  0
INSERT
  5
32
330
1F
100
AcDbEntity
  8
ASHADE
 62
     1
100
AcDbBlockReference
  2
AVE_RENDER
 10
0.0
 20
0.0
 30
0.0
1001
AVE_RENDER
1002
{
1070
     7
1000
Pref
1070
    30
1070
    20
1070
     1
1070
     0
1000

1070
    10
1070
     1
1070
    10
1040
1.0
1070
     1
1040
0.7
1040
1.0
1040
0.0
1040
10.0
1010
-1.0
1020
-1.0
1030
-1.0
1040
0.3000000119209289
1070
    49
1070
     0
1070
     0
1010
1.0
1020
1.0
1030
1.0
1040
45.0
1070
     1
1070
     0
1000
WCS
1040
0.0
1070
     0
1040
10.0
1002
}
  0
INSERT
  5
33
330
1F
100
AcDbEntity
  8
ASHADE
 62
     3
100
AcDbBlockReference
  2
AVE_RENDER
 10
0.0
 20
0.0
 30
0.0
1001
AVE_RENDER
1002
{
1070
     0
1000
Full Opt
1070
     0
1070
     1
1070
     1
1070
     1
1070
     0
1070
     0
1070
     0
1070
     1
1070
     1
1040
0.0001
1040
0.0001
1002
}
  0
INSERT
  5
34
330
1F
100
AcDbEntity
  8
ASHADE
 62
     4
100
AcDbBlockReference
  2
AVE_RENDER
 10
0.0
 20
0.0
 30
0.0
1001
AVE_RENDER
1002
{
1070
     0
1000
Quick Opt
1070
     0
1070
     1
1070
     1
1070
     1
1070
     0
1070
     0
1070
     1
1002
}
  0
INSERT
  5
35
330
1F
100
AcDbEntity
  8
ASHADE
 62
     5
100
AcDbBlockReference
  2
AVE_RENDER
 10
0.0
 20
0.0
 30
0.0
1001
AVE_RENDER
1002
{
1070
     1
1000
Scanl Opt
1070
     2
1070
     0
1070
     2
1040
2.0
1040
4.0
1070
     0
1070
     1
1070
     0
1040
0.03
1002
}
  0
INSERT
  5
36
330
1F
100
AcDbEntity
  8
ASHADE
 62
     6
100
AcDbBlockReference
  2
AVE_RENDER
 10
0.0
 20
0.0
 30
0.0
1001
AVE_RENDER
1002
{
1070
     2
1000
Raytr Opt
1070
     2
1070
     0
1070
     2
1040
2.0
1040
4.0
1070
     0
1070
     1
1070
     1
1040
0.03
1070
     3
1040
0.03
1002
}
  0
INSERT
  5
37
330
1F
100
AcDbEntity
  8
ASHADE
 62
     7
100
AcDbBlockReference
  2
AVE_RENDER
 10
0.0
 20
0.0
 30
0.0
1001
AVE_RENDER
1002
{
1070
     0
1000
RFile Opt
1070
     1
1070
   640
1070
   480
1070
 10000
1070
     1
1070
     8
1070
     8
1070
     0
1070
     0
1070
     0
1070
     0
1070
     0
1070
     0
1070
     0
1002
}
  0
INSERT
  5
38
330
1F
100
AcDbEntity
  8
ASHADE
 62
     8
100
AcDbBlockReference
  2
AVE_RENDER
 10
0.0
 20
0.0
 30
0.0
1001
AVE_RENDER
1002
{
1070
     0
1000
Fog Opt
1070
     0
1070
     0
1040
0.0
1040
1.0
1040
0.0
1040
1.0
1010
0.5
1020
0.5
1030
0.5
1002
}
  0
INSERT
  5
39
330
1F
100
AcDbEntity
  8
ASHADE
 62
     9
100
AcDbBlockReference
  2
AVE_RENDER
 10
0.0
 20
0.0
 30
0.0
1001
AVE_RENDER
1002
{
1070
     0
1000
BG Opt
1070
     0
1070
     1
1010
0.0
1020
0.0
1030
0.0
1010
0.0
1020
0.0
1030
1.0
1010
0.0
1020
1.0
1030
0.0
1010
1.0
1020
0.0
1030
0.0
1040
0.5
1040
0.5
1040
0.0
1000

1070
     1
1000

1070
     1
1070
     1
1040
1.0
1040
1.0
1040
0.0
1040
0.0
1070
     0
1002
}
  0
INSERT
  5
40
330
1F
100
AcDbEntity
  8
ASHADE
 62
     1
100
AcDbBlockReference
  2
AVE_GLOBAL
 10
0.0
 20
0.0
 30
0.0
1001
AVE_MATERIAL
1002
{
1000
*GLOBAL*
1000
2
1000
Global finish.
1002
{
1002
}
1002
{
1070
    63
1002
{
1002
{
1010
-1.0
1020
-1.0
1030
-1.0
1002
}
1040
0.6999999880790711
1000

1040
0.0
1002
{
1002
}
1040
0.0
1002
{
1002
}
1040
0.0
1002
}
1002
{
1002
{
1010
-1.0
1020
-1.0
1030
-1.0
1002
}
1040
1.0
1000

1040
0.0
1002
{
1002
}
1040
0.0
1002
{
1002
}
1040
0.0
1002
}
1002
{
1002
{
1010
-1.0
1020
-1.0
1030
-1.0
1002
}
1040
0.2000000029802322
1000

1040
0.0
1002
{
1002
}
1040
0.0
1002
{
1002
}
1040
0.0
1002
}
1002
{
1070
     0
1002
{
1070
     1
1002
{
1040
1.0
1040
1.0
1000

1040
0.0
1002
{
1002
}
1040
0.0
1002
{
1002
}
1040
0.0
1002
}
1002
}
1040
1.0
1040
0.0
1040
0.0
1002
}
1002
{
1040
1.0
1040
1.0
1000

1040
0.0
1002
{
1002
}
1040
0.0
1002
{
1002
}
1040
0.0
1002
}
1002
{
1040
0.5
1040
1.0
1000

1040
0.0
1002
{
1002
}
1040
0.0
1002
{
1002
}
1040
0.0
1002
}
1002
{
1070
     0
1040
0.0
1002
{
1002
}
1040
1.0
1002
{
1002
}
1040
0.0
1002
}
1002
{
1040
0.0
1002
{
1002
{
1010
0.0
1020
0.0
1030
0.0
1002
}
1040
1.0
1000

1040
0.0
1002
{
1002
}
1040
0.0
1002
{
1002
}
1040
0.0
1002
}
1002
}
1002
{
1002
{
1070
     1
1002
{
1040
0.0
1040
1.0
1000

1040
0.0
1002
{
1002
}
1040
0.0
1002
{
1002
}
1040
0.0
1002
}
1002
}
1040
0.0
1002
{
1002
}
1010
1.0
1020
0.0
1030
0.0
1010
0.0
1020
1.0
1030
0.0
1010
0.0
1020
0.0
1030
1.0
1070
     0
1002
}
1002
{
1002
{
1040
1.0
1040
1.0
1002
{
1070
     1
1002
{
1040
1.0
1040
1.0
1000

1040
0.0
1002
{
1002
}
1040
0.0
1002
{
1002
}
1040
0.0
1002
}
1002
}
1002
}
1070
     0
1040
0.0
1002
{
1002
}
1002
}
1002
{
1002
}
1002
}
1002
{
1071
        3
1070
     3
1070
     0
1002
{
1070
     2
1070
     0
1070
     0
1040
0.0
1002
}
1070
     0
1070
     2
1002
{
1002
}
1002
}
1002
{
1040
8030.0
1040
190.3000030517578
1040
0.3050000071525574
1040
228.0
1040
545.0
1040
14.0
1040
17.39999961853027
1040
0.4560000002384186
1002
}
1002
}
  0
POLYLINE
  5
44
330
1F
100
AcDbEntity
  8
0
100
AcDbPolyFaceMesh
 66
     1
 10
0.0
 20
0.0
 30
0.0
 70
    64
 71
    96
 72
   174
1001
AVE_ENTITY_MATERIAL
1002
{
1000

1002
{
1071
        0
1070
     0
1070
     0
1002
{
1070
     0
1070
     0
1070
     0
1040
0.0
1002
}
1070
     0
1070
     0
1002
{
1002
}
1002
}
1002
{
1002
}
1002
{
1002
}
1011
18.49999809265136
1021
8.003131866455078
1031
10.26955318450927
1011
18.49999809265136
1021
9.003131866455078
1031
10.26955318450927
1011
17.49999809265136
1021
8.003131866455078
1031
10.26955318450927
1011
18.49999809265136
1021
8.003131866455078
1031
11.26955318450927
1002
}
  0
VERTEX
  5
45
330
44
100
AcDbEntity
  8
0
100
AcDbVertex
100
AcDbPolyFaceMeshVertex
 10
16.07899737358093
 20
2.965631961822509
 30
1.399553298950195
 70
   192
  0
VERTEX
  5
46
330
44
100
AcDbEntity
  8
0
100
AcDbVertex
100
AcDbPolyFaceMeshVertex
 10
14.9299898147583
 20
2.737080097198486
 30
1.399552345275878
 70
   192
  0
VERTEX
  5
47
330
44
100
AcDbEntity
  8
0
100
AcDbVertex
100
AcDbPolyFaceMeshVertex
 10
15.31596565246582
 20
1.80525255203247
 30
1.420696258544921
 70
   192
  0
VERTEX
  5
48
330
44
100
AcDbEntity
  8
0
100
AcDbVertex
100
AcDbPolyFaceMeshVertex
 10
16.07899689674377
 20
1.957028865814208
 30
1.420696258544921
 70
   192
  0
VERTEX
  5
49
330
44
100
AcDbEntity
  8
0
100
AcDbVertex
100
AcDbPolyFaceMeshVertex
 10
13.95591020584106
 20
2.086219787597656
 30
1.399553298950195
 70
   192
  0
VERTEX
  5
4A
330
44
100
AcDbEntity
  8
0
100
AcDbVertex
100
AcDbPolyFaceMeshVertex
 10
14.66909837722778
 20
1.373030662536621
 30
1.420697212219238
 70
   192
  0
VERTEX
  5
4B
330
44
100
AcDbEntity
  8
0
100
AcDbVertex
100
AcDbPolyFaceMeshVertex
 10
13.30504894256591
 20
1.112138748168945
 30
1.399553298950195
 70
   192
  0
VERTEX
  5
4C
330
44
100
AcDbEntity
  8
0
100
AcDbVertex
100
AcDbPolyFaceMeshVertex
 10
14.23687696456909
 20
0.7261638641357422
 30
1.420696258544921
 70
   192
  0
VERTEX
  5
4D
330
44
100
AcDbEntity
  8
0
100
AcDbVertex
100
AcDbPolyFaceMeshVertex
 10
13.07649707794189
 20
-0.0368680953979492
 30
1.399553298950195
 70
   192
  0
VERTEX
  5
4E
330
44
100
AcDbEntity
  8
0
100
AcDbVertex
100
AcDbPolyFaceMeshVertex
 10
14.08509922027588
 20
-0.0368680953979492
 30
1.420696258544921
 70
   192
  0
VERTEX
  5
4F
330
44
100
AcDbEntity
  8
0
100
AcDbVertex
100
AcDbPolyFaceMeshVertex
 10
13.30504894256591
 20
-1.185874938964843
 30
1.399553298950195
 70
   192
  0
VERTEX
  5
50
330
44
100
AcDbEntity
  8
0
100
AcDbVertex
100
AcDbPolyFaceMeshVertex
 10
14.23687696456909
 20
-0.7999000549316407
 30
1.420697212219238
 70
   192
  0
VERTEX
  5
51
330
44
100
AcDbEntity
  8
0
100
AcDbVertex
100
AcDbPolyFaceMeshVertex
 10
13.95590829849243
 20
-2.159956932067871
 30
1.399554252624511
 70
   192
  0
VERTEX
  5
52
330
44
100
AcDbEntity
  8
0
100
AcDbVertex
100
AcDbPolyFaceMeshVertex
 10
14.66909837722778
 20
-1.446766853332519
 30
1.420695304870605
 70
   192
  0
VERTEX
  5
53
330
44
100
AcDbEntity
  8
0
100
AcDbVertex
100
AcDbPolyFaceMeshVertex
 10
14.9299898147583
 20
-2.810817718505859
 30
1.399554252624511
 70
   192
  0
VERTEX
  5
54
330
44
100
AcDbEntity
  8
0
100
AcDbVertex
100
AcDbPolyFaceMeshVertex
 10
15.31596565246582
 20
-1.878989219665527
 30
1.420696258544921
 70
   192
  0
VERTEX
  5
55
330
44
100
AcDbEntity
  8
0
100
AcDbVertex
100
AcDbPolyFaceMeshVertex
 10
16.07899737358093
 20
-3.039368629455566
 30
1.399553298950195
 70
   192
  0
VERTEX
  5
56
330
44
100
AcDbEntity
  8
0
100
AcDbVertex
100
AcDbPolyFaceMeshVertex
 10
16.07899808883667
 20
-2.030765533447265
 30
1.420695304870605
 70
   192
  0
VERTEX
  5
57
330
44
100
AcDbEntity
  8
0
100
AcDbVertex
100
AcDbPolyFaceMeshVertex
 10
17.22800457477569
 20
-2.810817718505859
 30
1.399552345275878
 70
   192
  0
VERTEX
  5
58
330
44
100
AcDbEntity
  8
0
100
AcDbVertex
100
AcDbPolyFaceMeshVertex
 10
16.84202885627746
 20
-1.878989219665527
 30
1.420696258544921
 70
   192
  0
VERTEX
  5
59
330
44
100
AcDbEntity
  8
0
100
AcDbVertex
100
AcDbPolyFaceMeshVertex
 10
18.20208531618118
 20
-2.159956932067871
 30
1.399553298950195
 70
   192
  0
VERTEX
  5
5A
330
44
100
AcDbEntity
  8
0
100
AcDbVertex
100
AcDbPolyFaceMeshVertex
 10
17.48889589309692
 20
-1.446766853332519
 30
1.420697212219238
 70
   192
  0
VERTEX
  5
5B
330
44
100
AcDbEntity
  8
0
100
AcDbVertex
100
AcDbPolyFaceMeshVertex
 10
18.85294553637504
 20
-1.185874938964843
 30
1.399553298950195
 70
   192
  0
VERTEX
  5
5C
330
44
100
AcDbEntity
  8
0
100
AcDbVertex
100
AcDbPolyFaceMeshVertex
 10
17.92111831903457
 20
-0.7999000549316407
 30
1.420695304870605
 70
   192
  0
VERTEX
  5
5D
330
44
100
AcDbEntity
  8
0
100
AcDbVertex
100
AcDbPolyFaceMeshVertex
 10
19.08149772882461
 20
-0.0368680953979492
 30
1.399553298950195
 70
   192
  0
VERTEX
  5
5E
330
44
100
AcDbEntity
  8
0
100
AcDbVertex
100
AcDbPolyFaceMeshVertex
 10
18.07289430499077
 20
-0.0368680953979492
 30
1.420696258544921
 70
   192
  0
VERTEX
  5
5F
330
44
100
AcDbEntity
  8
0
100
AcDbVertex
100
AcDbPolyFaceMeshVertex
 10
18.85294675827026
 20
1.112139225006103
 30
1.399553298950195
 70
   192
  0
VERTEX
  5
60
330
44
100
AcDbEntity
  8
0
100
AcDbVertex
100
AcDbPolyFaceMeshVertex
 10
17.9211191534996
 20
0.7261638641357422
 30
1.420697212219238
 70
   192
  0
VERTEX
  5
61
330
44
100
AcDbEntity
  8
0
100
AcDbVertex
100
AcDbPolyFaceMeshVertex
 10
18.20208531618118
 20
2.086220741271972
 30
1.399554252624511
 70
   192
  0
VERTEX
  5
62
330
44
100
AcDbEntity
  8
0
100
AcDbVertex
100
AcDbPolyFaceMeshVertex
 10
17.48889589309692
 20
1.373030662536621
 30
1.420696258544921
 70
   192
  0
VERTEX
  5
63
330
44
100
AcDbEntity
  8
0
100
AcDbVertex
100
AcDbPolyFaceMeshVertex
 10
17.22800457477569
 20
2.737080097198486
 30
1.399554252624511
 70
   192
  0
VERTEX
  5
64
330
44
100
AcDbEntity
  8
0
100
AcDbVertex
100
AcDbPolyFaceMeshVertex
 10
16.8420295715332
 20
1.80525255203247
 30
1.420695304870605
 70
   192
  0
VERTEX
  5
65
330
44
100
AcDbEntity
  8
0
100
AcDbVertex
100
AcDbPolyFaceMeshVertex
 10
15.23154401779174
 20
2.009065628051757
 30
1.914179801940917
 70
   192
  0
VERTEX
  5
66
330
44
100
AcDbEntity
  8
0
100
AcDbVertex
100
AcDbPolyFaceMeshVertex
 10
16.07899737358093
 20
2.177635192871093
 30
1.914179801940917
 70
   192
  0
VERTEX
  5
67
330
44
100
AcDbEntity
  8
0
100
AcDbVertex
100
AcDbPolyFaceMeshVertex
 10
14.513108253479
 20
1.5290207862854
 30
1.914179801940917
 70
   192
  0
VERTEX
  5
68
330
44
100
AcDbEntity
  8
0
100
AcDbVertex
100
AcDbPolyFaceMeshVertex
 10
14.03306341171264
 20
0.8105854988098144
 30
1.914179801940917
 70
   192
  0
VERTEX
  5
69
330
44
100
AcDbEntity
  8
0
100
AcDbVertex
100
AcDbPolyFaceMeshVertex
 10
13.86449527740478
 20
-0.0368680953979492
 30
1.914179801940917
 70
   192
  0
VERTEX
  5
6A
330
44
100
AcDbEntity
  8
0
100
AcDbVertex
100
AcDbPolyFaceMeshVertex
 10
14.03306436538696
 20
-0.884322166442871
 30
1.914179801940917
 70
   192
  0
VERTEX
  5
6B
330
44
100
AcDbEntity
  8
0
100
AcDbVertex
100
AcDbPolyFaceMeshVertex
 10
14.51310777664184
 20
-1.602758407592773
 30
1.914179801940917
 70
   192
  0
VERTEX
  5
6C
330
44
100
AcDbEntity
  8
0
100
AcDbVertex
100
AcDbPolyFaceMeshVertex
 10
15.23154401779174
 20
-2.082801818847656
 30
1.914179801940917
 70
   192
  0
VERTEX
  5
6D
330
44
100
AcDbEntity
  8
0
100
AcDbVertex
100
AcDbPolyFaceMeshVertex
 10
16.07899737358093
 20
-2.251370429992675
 30
1.914179801940917
 70
   192
  0
VERTEX
  5
6E
330
44
100
AcDbEntity
  8
0
100
AcDbVertex
100
AcDbPolyFaceMeshVertex
 10
16.92645096778869
 20
-2.082801818847656
 30
1.914179801940917
 70
   192
  0
VERTEX
  5
6F
330
44
100
AcDbEntity
  8
0
100
AcDbVertex
100
AcDbPolyFaceMeshVertex
 10
17.64488726854324
 20
-1.602757453918457
 30
1.914179801940917
 70
   192
  0
VERTEX
  5
70
330
44
100
AcDbEntity
  8
0
100
AcDbVertex
100
AcDbPolyFaceMeshVertex
 10
18.12492990493774
 20
-0.884322166442871
 30
1.914179801940917
 70
   192
  0
VERTEX
  5
71
330
44
100
AcDbEntity
  8
0
100
AcDbVertex
100
AcDbPolyFaceMeshVertex
 10
18.29349955916404
 20
-0.0368680953979492
 30
1.914179801940917
 70
   192
  0
VERTEX
  5
72
330
44
100
AcDbEntity
  8
0
100
AcDbVertex
100
AcDbPolyFaceMeshVertex
 10
18.12493160367012
 20
0.8105854988098144
 30
1.914179801940917
 70
   192
  0
VERTEX
  5
73
330
44
100
AcDbEntity
  8
0
100
AcDbVertex
100
AcDbPolyFaceMeshVertex
 10
17.64488726854324
 20
1.5290207862854
 30
1.914179801940917
 70
   192
  0
VERTEX
  5
74
330
44
100
AcDbEntity
  8
0
100
AcDbVertex
100
AcDbPolyFaceMeshVertex
 10
16.92645096778869
 20
2.009065628051757
 30
1.914179801940917
 70
   192
  0
VERTEX
  5
75
330
44
100
AcDbEntity
  8
0
100
AcDbVertex
100
AcDbPolyFaceMeshVertex
 10
15.26016306877136
 20
1.939971923828125
 30
1.973086357116699
 70
   192
  0
VERTEX
  5
76
330
44
100
AcDbEntity
  8
0
100
AcDbVertex
100
AcDbPolyFaceMeshVertex
 10
16.07899808883667
 20
2.102848529815673
 30
1.973087310791015
 70
   192
  0
VERTEX
  5
77
330
44
100
AcDbEntity
  8
0
100
AcDbVertex
100
AcDbPolyFaceMeshVertex
 10
14.56598973274231
 20
1.476139545440673
 30
1.973086357116699
 70
   192
  0
VERTEX
  5
78
330
44
100
AcDbEntity
  8
0
100
AcDbVertex
100
AcDbPolyFaceMeshVertex
 10
14.10215711593628
 20
0.7819671630859375
 30
1.973086357116699
 70
   192
  0
VERTEX
  5
79
330
44
100
AcDbEntity
  8
0
100
AcDbVertex
100
AcDbPolyFaceMeshVertex
 10
13.93928146362304
 20
-0.0368690490722656
 30
1.973086357116699
 70
   192
  0
VERTEX
  5
7A
330
44
100
AcDbEntity
  8
0
100
AcDbVertex
100
AcDbPolyFaceMeshVertex
 10
14.10215711593628
 20
-0.8557033538818359
 30
1.973087310791015
 70
   192
  0
VERTEX
  5
7B
330
44
100
AcDbEntity
  8
0
100
AcDbVertex
100
AcDbPolyFaceMeshVertex
 10
14.56598901748657
 20
-1.549877166748046
 30
1.973086357116699
 70
   192
  0
VERTEX
  5
7C
330
44
100
AcDbEntity
  8
0
100
AcDbVertex
100
AcDbPolyFaceMeshVertex
 10
15.26016306877136
 20
-2.013709068298339
 30
1.973087310791015
 70
   192
  0
VERTEX
  5
7D
330
44
100
AcDbEntity
  8
0
100
AcDbVertex
100
AcDbPolyFaceMeshVertex
 10
16.07899737358093
 20
-2.176586151123046
 30
1.973087310791015
 70
   192
  0
VERTEX
  5
7E
330
44
100
AcDbEntity
  8
0
100
AcDbVertex
100
AcDbPolyFaceMeshVertex
 10
16.89783155918121
 20
-2.013709068298339
 30
1.973087310791015
 70
   192
  0
VERTEX
  5
7F
330
44
100
AcDbEntity
  8
0
100
AcDbVertex
100
AcDbPolyFaceMeshVertex
 10
17.59200578927993
 20
-1.549877166748046
 30
1.973086357116699
 70
   192
  0
VERTEX
  5
80
330
44
100
AcDbEntity
  8
0
100
AcDbVertex
100
AcDbPolyFaceMeshVertex
 10
18.05583757162094
 20
-0.8557033538818359
 30
1.973087310791015
 70
   192
  0
VERTEX
  5
81
330
44
100
AcDbEntity
  8
0
100
AcDbVertex
100
AcDbPolyFaceMeshVertex
 10
18.21871390938758
 20
-0.0368680953979492
 30
1.973087310791015
 70
   192
  0
VERTEX
  5
82
330
44
100
AcDbEntity
  8
0
100
AcDbVertex
100
AcDbPolyFaceMeshVertex
 10
18.05583757162094
 20
0.7819671630859375
 30
1.973087310791015
 70
   192
  0
VERTEX
  5
83
330
44
100
AcDbEntity
  8
0
100
AcDbVertex
100
AcDbPolyFaceMeshVertex
 10
17.59200578927993
 20
1.476139545440673
 30
1.973087310791015
 70
   192
  0
VERTEX
  5
84
330
44
100
AcDbEntity
  8
0
100
AcDbVertex
100
AcDbPolyFaceMeshVertex
 10
16.89783120155334
 20
1.939971923828125
 30
1.973087310791015
 70
   192
  0
VERTEX
  5
85
330
44
100
AcDbEntity
  8
0
100
AcDbVertex
100
AcDbPolyFaceMeshVertex
 10
15.47378706932067
 20
1.424240112304687
 30
2.086607933044433
 70
   192
  0
VERTEX
  5
86
330
44
100
AcDbEntity
  8
0
100
AcDbVertex
100
AcDbPolyFaceMeshVertex
 10
16.07899689674377
 20
1.544623851776123
 30
2.086607933044433
 70
   192
  0
VERTEX
  5
87
330
44
100
AcDbEntity
  8
0
100
AcDbVertex
100
AcDbPolyFaceMeshVertex
 10
14.96071362495422
 20
1.081416130065917
 30
2.086607933044433
 70
   192
  0
VERTEX
  5
88
330
44
100
AcDbEntity
  8
0
100
AcDbVertex
100
AcDbPolyFaceMeshVertex
 10
14.61788964271545
 20
0.5683431625366211
 30
2.086607933044433
 70
   192
  0
VERTEX
  5
89
330
44
100
AcDbEntity
  8
0
100
AcDbVertex
100
AcDbPolyFaceMeshVertex
 10
14.49750518798828
 20
-0.0368680953979492
 30
2.086607933044433
 70
   192
  0
VERTEX
  5
8A
330
44
100
AcDbEntity
  8
0
100
AcDbVertex
100
AcDbPolyFaceMeshVertex
 10
14.61788964271545
 20
-0.6420812606811524
 30
2.086607933044433
 70
   192
  0
VERTEX
  5
8B
330
44
100
AcDbEntity
  8
0
100
AcDbVertex
100
AcDbPolyFaceMeshVertex
 10
14.9607126712799
 20
-1.155152320861816
 30
2.086607933044433
 70
   192
  0
VERTEX
  5
8C
330
44
100
AcDbEntity
  8
0
100
AcDbVertex
100
AcDbPolyFaceMeshVertex
 10
15.47378754615783
 20
-1.497976303100585
 30
2.086607933044433
 70
   192
  0
VERTEX
  5
8D
330
44
100
AcDbEntity
  8
0
100
AcDbVertex
100
AcDbPolyFaceMeshVertex
 10
16.07899737358093
 20
-1.618360519409179
 30
2.086607933044433
 70
   192
  0
VERTEX
  5
8E
330
44
100
AcDbEntity
  8
0
100
AcDbVertex
100
AcDbPolyFaceMeshVertex
 10
16.68420815467834
 20
-1.497976303100585
 30
2.086607933044433
 70
   192
  0
VERTEX
  5
8F
330
44
100
AcDbEntity
  8
0
100
AcDbVertex
100
AcDbPolyFaceMeshVertex
 10
17.19728076457977
 20
-1.155152320861816
 30
2.086607933044433
 70
   192
  0
VERTEX
  5
90
330
44
100
AcDbEntity
  8
0
100
AcDbVertex
100
AcDbPolyFaceMeshVertex
 10
17.54010587930679
 20
-0.6420793533325196
 30
2.086607933044433
 70
   192
  0
VERTEX
  5
91
330
44
100
AcDbEntity
  8
0
100
AcDbVertex
100
AcDbPolyFaceMeshVertex
 10
17.66048938035964
 20
-0.0368680953979492
 30
2.086607933044433
 70
   192
  0
VERTEX
  5
92
330
44
100
AcDbEntity
  8
0
100
AcDbVertex
100
AcDbPolyFaceMeshVertex
 10
17.54010528326034
 20
0.5683431625366211
 30
2.086607933044433
 70
   192
  0
VERTEX
  5
93
330
44
100
AcDbEntity
  8
0
100
AcDbVertex
100
AcDbPolyFaceMeshVertex
 10
17.19728136062622
 20
1.081416130065917
 30
2.086607933044433
 70
   192
  0
VERTEX
  5
94
330
44
100
AcDbEntity
  8
0
100
AcDbVertex
100
AcDbPolyFaceMeshVertex
 10
16.68420815467834
 20
1.424240112304687
 30
2.086607933044433
 70
   192
  0
VERTEX
  5
95
330
44
100
AcDbEntity
  8
0
100
AcDbVertex
100
AcDbPolyFaceMeshVertex
 10
15.79305005073547
 20
0.6534700393676758
 30
2.171551704406738
 70
   192
  0
VERTEX
  5
96
330
44
100
AcDbEntity
  8
0
100
AcDbVertex
100
AcDbPolyFaceMeshVertex
 10
16.07899689674377
 20
0.7103490829467774
 30
2.171551704406738
 70
   192
  0
VERTEX
  5
97
330
44
100
AcDbEntity
  8
0
100
AcDbVertex
100
AcDbPolyFaceMeshVertex
 10
15.55063581466674
 20
0.4914946556091309
 30
2.171551704406738
 70
   192
  0
VERTEX
  5
98
330
44
100
AcDbEntity
  8
0
100
AcDbVertex
100
AcDbPolyFaceMeshVertex
 10
15.38865947723388
 20
0.2490792274475098
 30
2.171551704406738
 70
   192
  0
VERTEX
  5
99
330
44
100
AcDbEntity
  8
0
100
AcDbVertex
100
AcDbPolyFaceMeshVertex
 10
15.33178067207336
 20
-0.0368680953979492
 30
2.171551704406738
 70
   192
  0
VERTEX
  5
9A
330
44
100
AcDbEntity
  8
0
100
AcDbVertex
100
AcDbPolyFaceMeshVertex
 10
15.38865947723388
 20
-0.3228158950805664
 30
2.171551704406738
 70
   192
  0
VERTEX
  5
9B
330
44
100
AcDbEntity
  8
0
100
AcDbVertex
100
AcDbPolyFaceMeshVertex
 10
15.55063509941101
 20
-0.5652294158935547
 30
2.171551704406738
 70
   192
  0
VERTEX
  5
9C
330
44
100
AcDbEntity
  8
0
100
AcDbVertex
100
AcDbPolyFaceMeshVertex
 10
15.79305005073547
 20
-0.7272071838378907
 30
2.171551704406738
 70
   192
  0
VERTEX
  5
9D
330
44
100
AcDbEntity
  8
0
100
AcDbVertex
100
AcDbPolyFaceMeshVertex
 10
16.07899737358093
 20
-0.784083366394043
 30
2.171551704406738
 70
   192
  0
VERTEX
  5
9E
330
44
100
AcDbEntity
  8
0
100
AcDbVertex
100
AcDbPolyFaceMeshVertex
 10
16.36494588851928
 20
-0.7272071838378907
 30
2.171551704406738
 70
   192
  0
VERTEX
  5
9F
330
44
100
AcDbEntity
  8
0
100
AcDbVertex
100
AcDbPolyFaceMeshVertex
 10
16.60736048221588
 20
-0.5652294158935547
 30
2.171551704406738
 70
   192
  0
VERTEX
  5
A0
330
44
100
AcDbEntity
  8
0
100
AcDbVertex
100
AcDbPolyFaceMeshVertex
 10
16.769336104393
 20
-0.3228158950805664
 30
2.171551704406738
 70
   192
  0
VERTEX
  5
A1
330
44
100
AcDbEntity
  8
0
100
AcDbVertex
100
AcDbPolyFaceMeshVertex
 10
16.82621431350708
 20
-0.0368680953979492
 30
2.171551704406738
 70
   192
  0
VERTEX
  5
A2
330
44
100
AcDbEntity
  8
0
100
AcDbVertex
100
AcDbPolyFaceMeshVertex
 10
16.769336104393
 20
0.2490792274475098
 30
2.171551704406738
 70
   192
  0
VERTEX
  5
A3
330
44
100
AcDbEntity
  8
0
100
AcDbVertex
100
AcDbPolyFaceMeshVertex
 10
16.60736000537872
 20
0.4914946556091309
 30
2.171551704406738
 70
   192
  0
VERTEX
  5
A4
330
44
100
AcDbEntity
  8
0
100
AcDbVertex
100
AcDbPolyFaceMeshVertex
 10
16.36494541168213
 20
0.6534700393676758
 30
2.171551704406738
 70
   192
  0
VERTEX
  5
A5
330
44
100
AcDbEntity
  8
0
100
AcDbFaceRecord
 10
0.0
 20
0.0
 30
0.0
 70
   128
 71
     1
 72
     2
 73
     3
  0
VERTEX
  5
A6
330
44
100
AcDbEntity
  8
0
100
AcDbFaceRecord
 10
0.0
 20
0.0
 30
0.0
 70
   128
 71
     3
 72
     4
 73
    -1
  0
VERTEX
  5
A7
330
44
100
AcDbEntity
  8
0
100
AcDbFaceRecord
 10
0.0
 20
0.0
 30
0.0
 70
   128
 71
     2
 72
     5
 73
     6
  0
VERTEX
  5
A8
330
44
100
AcDbEntity
  8
0
100
AcDbFaceRecord
 10
0.0
 20
0.0
 30
0.0
 70
   128
 71
     6
 72
     3
 73
    -2
  0
VERTEX
  5
A9
330
44
100
AcDbEntity
  8
0
100
AcDbFaceRecord
 10
0.0
 20
0.0
 30
0.0
 70
   128
 71
     5
 72
     7
 73
     8
  0
VERTEX
  5
AA
330
44
100
AcDbEntity
  8
0
100
AcDbFaceRecord
 10
0.0
 20
0.0
 30
0.0
 70
   128
 71
     8
 72
     6
 73
    -5
  0
VERTEX
  5
AB
330
44
100
AcDbEntity
  8
0
100
AcDbFaceRecord
 10
0.0
 20
0.0
 30
0.0
 70
   128
 71
     7
 72
     9
 73
    10
  0
VERTEX
  5
AC
330
44
100
AcDbEntity
  8
0
100
AcDbFaceRecord
 10
0.0
 20
0.0
 30
0.0
 70
   128
 71
    10
 72
     8
 73
    -7
  0
VERTEX
  5
AD
330
44
100
AcDbEntity
  8
0
100
AcDbFaceRecord
 10
0.0
 20
0.0
 30
0.0
 70
   128
 71
     9
 72
    11
 73
    12
  0
VERTEX
  5
AE
330
44
100
AcDbEntity
  8
0
100
AcDbFaceRecord
 10
0.0
 20
0.0
 30
0.0
 70
   128
 71
    12
 72
    10
 73
    -9
  0
VERTEX
  5
AF
330
44
100
AcDbEntity
  8
0
100
AcDbFaceRecord
 10
0.0
 20
0.0
 30
0.0
 70
   128
 71
    11
 72
    13
 73
    14
  0
VERTEX
  5
B0
330
44
100
AcDbEntity
  8
0
100
AcDbFaceRecord
 10
0.0
 20
0.0
 30
0.0
 70
   128
 71
    14
 72
    12
 73
   -11
  0
VERTEX
  5
B1
330
44
100
AcDbEntity
  8
0
100
AcDbFaceRecord
 10
0.0
 20
0.0
 30
0.0
 70
   128
 71
    13
 72
    15
 73
    16
  0
VERTEX
  5
B2
330
44
100
AcDbEntity
  8
0
100
AcDbFaceRecord
 10
0.0
 20
0.0
 30
0.0
 70
   128
 71
    16
 72
    14
 73
   -13
  0
VERTEX
  5
B3
330
44
100
AcDbEntity
  8
0
100
AcDbFaceRecord
 10
0.0
 20
0.0
 30
0.0
 70
   128
 71
    15
 72
    17
 73
    18
  0
VERTEX
  5
B4
330
44
100
AcDbEntity
  8
0
100
AcDbFaceRecord
 10
0.0
 20
0.0
 30
0.0
 70
   128
 71
    18
 72
    16
 73
   -15
  0
VERTEX
  5
B5
330
44
100
AcDbEntity
  8
0
100
AcDbFaceRecord
 10
0.0
 20
0.0
 30
0.0
 70
   128
 71
    17
 72
    19
 73
    20
  0
VERTEX
  5
B6
330
44
100
AcDbEntity
  8
0
100
AcDbFaceRecord
 10
0.0
 20
0.0
 30
0.0
 70
   128
 71
    20
 72
    18
 73
   -17
  0
VERTEX
  5
B7
330
44
100
AcDbEntity
  8
0
100
AcDbFaceRecord
 10
0.0
 20
0.0
 30
0.0
 70
   128
 71
    19
 72
    21
 73
    22
  0
VERTEX
  5
B8
330
44
100
AcDbEntity
  8
0
100
AcDbFaceRecord
 10
0.0
 20
0.0
 30
0.0
 70
   128
 71
    22
 72
    20
 73
   -19
  0
VERTEX
  5
B9
330
44
100
AcDbEntity
  8
0
100
AcDbFaceRecord
 10
0.0
 20
0.0
 30
0.0
 70
   128
 71
    21
 72
    23
 73
    24
  0
VERTEX
  5
BA
330
44
100
AcDbEntity
  8
0
100
AcDbFaceRecord
 10
0.0
 20
0.0
 30
0.0
 70
   128
 71
    24
 72
    22
 73
   -21
  0
VERTEX
  5
BB
330
44
100
AcDbEntity
  8
0
100
AcDbFaceRecord
 10
0.0
 20
0.0
 30
0.0
 70
   128
 71
    23
 72
    25
 73
    26
  0
VERTEX
  5
BC
330
44
100
AcDbEntity
  8
0
100
AcDbFaceRecord
 10
0.0
 20
0.0
 30
0.0
 70
   128
 71
    26
 72
    24
 73
   -23
  0
VERTEX
  5
BD
330
44
100
AcDbEntity
  8
0
100
AcDbFaceRecord
 10
0.0
 20
0.0
 30
0.0
 70
   128
 71
    25
 72
    27
 73
    28
  0
VERTEX
  5
BE
330
44
100
AcDbEntity
  8
0
100
AcDbFaceRecord
 10
0.0
 20
0.0
 30
0.0
 70
   128
 71
    28
 72
    26
 73
   -25
  0
VERTEX
  5
BF
330
44
100
AcDbEntity
  8
0
100
AcDbFaceRecord
 10
0.0
 20
0.0
 30
0.0
 70
   128
 71
    27
 72
    29
 73
    30
  0
VERTEX
  5
C0
330
44
100
AcDbEntity
  8
0
100
AcDbFaceRecord
 10
0.0
 20
0.0
 30
0.0
 70
   128
 71
    30
 72
    28
 73
   -27
  0
VERTEX
  5
C1
330
44
100
AcDbEntity
  8
0
100
AcDbFaceRecord
 10
0.0
 20
0.0
 30
0.0
 70
   128
 71
    29
 72
    31
 73
    32
  0
VERTEX
  5
C2
330
44
100
AcDbEntity
  8
0
100
AcDbFaceRecord
 10
0.0
 20
0.0
 30
0.0
 70
   128
 71
    32
 72
    30
 73
   -29
  0
VERTEX
  5
C3
330
44
100
AcDbEntity
  8
0
100
AcDbFaceRecord
 10
0.0
 20
0.0
 30
0.0
 70
   128
 71
    31
 72
     1
 73
     4
  0
VERTEX
  5
C4
330
44
100
AcDbEntity
  8
0
100
AcDbFaceRecord
 10
0.0
 20
0.0
 30
0.0
 70
   128
 71
     4
 72
    32
 73
   -31
  0
VERTEX
  5
C5
330
44
100
AcDbEntity
  8
0
100
AcDbFaceRecord
 10
0.0
 20
0.0
 30
0.0
 70
   128
 71
     4
 72
     3
 73
    33
  0
VERTEX
  5
C6
330
44
100
AcDbEntity
  8
0
100
AcDbFaceRecord
 10
0.0
 20
0.0
 30
0.0
 70
   128
 71
    33
 72
    34
 73
    -4
  0
VERTEX
  5
C7
330
44
100
AcDbEntity
  8
0
100
AcDbFaceRecord
 10
0.0
 20
0.0
 30
0.0
 70
   128
 71
     3
 72
     6
 73
    35
  0
VERTEX
  5
C8
330
44
100
AcDbEntity
  8
0
100
AcDbFaceRecord
 10
0.0
 20
0.0
 30
0.0
 70
   128
 71
    35
 72
    33
 73
    -3
  0
VERTEX
  5
C9
330
44
100
AcDbEntity
  8
0
100
AcDbFaceRecord
 10
0.0
 20
0.0
 30
0.0
 70
   128
 71
     6
 72
     8
 73
    36
  0
VERTEX
  5
CA
330
44
100
AcDbEntity
  8
0
100
AcDbFaceRecord
 10
0.0
 20
0.0
 30
0.0
 70
   128
 71
    36
 72
    35
 73
    -6
  0
VERTEX
  5
CB
330
44
100
AcDbEntity
  8
0
100
AcDbFaceRecord
 10
0.0
 20
0.0
 30
0.0
 70
   128
 71
     8
 72
    10
 73
    37
  0
VERTEX
  5
CC
330
44
100
AcDbEntity
  8
0
100
AcDbFaceRecord
 10
0.0
 20
0.0
 30
0.0
 70
   128
 71
    37
 72
    36
 73
    -8
  0
VERTEX
  5
CD
330
44
100
AcDbEntity
  8
0
100
AcDbFaceRecord
 10
0.0
 20
0.0
 30
0.0
 70
   128
 71
    10
 72
    12
 73
    38
  0
VERTEX
  5
CE
330
44
100
AcDbEntity
  8
0
100
AcDbFaceRecord
 10
0.0
 20
0.0
 30
0.0
 70
   128
 71
    38
 72
    37
 73
   -10
  0
VERTEX
  5
CF
330
44
100
AcDbEntity
  8
0
100
AcDbFaceRecord
 10
0.0
 20
0.0
 30
0.0
 70
   128
 71
    12
 72
    14
 73
    39
  0
VERTEX
  5
D0
330
44
100
AcDbEntity
  8
0
100
AcDbFaceRecord
 10
0.0
 20
0.0
 30
0.0
 70
   128
 71
    39
 72
    38
 73
   -12
  0
VERTEX
  5
D1
330
44
100
AcDbEntity
  8
0
100
AcDbFaceRecord
 10
0.0
 20
0.0
 30
0.0
 70
   128
 71
    14
 72
    16
 73
    40
  0
VERTEX
  5
D2
330
44
100
AcDbEntity
  8
0
100
AcDbFaceRecord
 10
0.0
 20
0.0
 30
0.0
 70
   128
 71
    40
 72
    39
 73
   -14
  0
VERTEX
  5
D3
330
44
100
AcDbEntity
  8
0
100
AcDbFaceRecord
 10
0.0
 20
0.0
 30
0.0
 70
   128
 71
    16
 72
    18
 73
    41
  0
VERTEX
  5
D4
330
44
100
AcDbEntity
  8
0
100
AcDbFaceRecord
 10
0.0
 20
0.0
 30
0.0
 70
   128
 71
    41
 72
    40
 73
   -16
  0
VERTEX
  5
D5
330
44
100
AcDbEntity
  8
0
100
AcDbFaceRecord
 10
0.0
 20
0.0
 30
0.0
 70
   128
 71
    18
 72
    20
 73
    42
  0
VERTEX
  5
D6
330
44
100
AcDbEntity
  8
0
100
AcDbFaceRecord
 10
0.0
 20
0.0
 30
0.0
 70
   128
 71
    42
 72
    41
 73
   -18
  0
VERTEX
  5
D7
330
44
100
AcDbEntity
  8
0
100
AcDbFaceRecord
 10
0.0
 20
0.0
 30
0.0
 70
   128
 71
    20
 72
    22
 73
    43
  0
VERTEX
  5
D8
330
44
100
AcDbEntity
  8
0
100
AcDbFaceRecord
 10
0.0
 20
0.0
 30
0.0
 70
   128
 71
    43
 72
    42
 73
   -20
  0
VERTEX
  5
D9
330
44
100
AcDbEntity
  8
0
100
AcDbFaceRecord
 10
0.0
 20
0.0
 30
0.0
 70
   128
 71
    22
 72
    24
 73
    44
  0
VERTEX
  5
DA
330
44
100
AcDbEntity
  8
0
100
AcDbFaceRecord
 10
0.0
 20
0.0
 30
0.0
 70
   128
 71
    44
 72
    43
 73
   -22
  0
VERTEX
  5
DB
330
44
100
AcDbEntity
  8
0
100
AcDbFaceRecord
 10
0.0
 20
0.0
 30
0.0
 70
   128
 71
    24
 72
    26
 73
    45
  0
VERTEX
  5
DC
330
44
100
AcDbEntity
  8
0
100
AcDbFaceRecord
 10
0.0
 20
0.0
 30
0.0
 70
   128
 71
    45
 72
    44
 73
   -24
  0
VERTEX
  5
DD
330
44
100
AcDbEntity
  8
0
100
AcDbFaceRecord
 10
0.0
 20
0.0
 30
0.0
 70
   128
 71
    26
 72
    28
 73
    46
  0
VERTEX
  5
DE
330
44
100
AcDbEntity
  8
0
100
AcDbFaceRecord
 10
0.0
 20
0.0
 30
0.0
 70
   128
 71
    46
 72
    45
 73
   -26
  0
VERTEX
  5
DF
330
44
100
AcDbEntity
  8
0
100
AcDbFaceRecord
 10
0.0
 20
0.0
 30
0.0
 70
   128
 71
    28
 72
    30
 73
    47
  0
VERTEX
  5
E0
330
44
100
AcDbEntity
  8
0
100
AcDbFaceRecord
 10
0.0
 20
0.0
 30
0.0
 70
   128
 71
    47
 72
    46
 73
   -28
  0
VERTEX
  5
E1
330
44
100
AcDbEntity
  8
0
100
AcDbFaceRecord
 10
0.0
 20
0.0
 30
0.0
 70
   128
 71
    30
 72
    32
 73
    48
  0
VERTEX
  5
E2
330
44
100
AcDbEntity
  8
0
100
AcDbFaceRecord
 10
0.0
 20
0.0
 30
0.0
 70
   128
 71
    48
 72
    47
 73
   -30
  0
VERTEX
  5
E3
330
44
100
AcDbEntity
  8
0
100
AcDbFaceRecord
 10
0.0
 20
0.0
 30
0.0
 70
   128
 71
    32
 72
     4
 73
    34
  0
VERTEX
  5
E4
330
44
100
AcDbEntity
  8
0
100
AcDbFaceRecord
 10
0.0
 20
0.0
 30
0.0
 70
   128
 71
    34
 72
    48
 73
   -32
  0
VERTEX
  5
E5
330
44
100
AcDbEntity
  8
0
100
AcDbFaceRecord
 10
0.0
 20
0.0
 30
0.0
 70
   128
 71
    34
 72
    33
 73
    49
  0
VERTEX
  5
E6
330
44
100
AcDbEntity
  8
0
100
AcDbFaceRecord
 10
0.0
 20
0.0
 30
0.0
 70
   128
 71
    49
 72
    50
 73
   -34
  0
VERTEX
  5
E7
330
44
100
AcDbEntity
  8
0
100
AcDbFaceRecord
 10
0.0
 20
0.0
 30
0.0
 70
   128
 71
    33
 72
    35
 73
    51
  0
VERTEX
  5
E8
330
44
100
AcDbEntity
  8
0
100
AcDbFaceRecord
 10
0.0
 20
0.0
 30
0.0
 70
   128
 71
    51
 72
    49
 73
   -33
  0
VERTEX
  5
E9
330
44
100
AcDbEntity
  8
0
100
AcDbFaceRecord
 10
0.0
 20
0.0
 30
0.0
 70
   128
 71
    35
 72
    36
 73
    52
  0
VERTEX
  5
EA
330
44
100
AcDbEntity
  8
0
100
AcDbFaceRecord
 10
0.0
 20
0.0
 30
0.0
 70
   128
 71
    52
 72
    51
 73
   -35
  0
VERTEX
  5
EB
330
44
100
AcDbEntity
  8
0
100
AcDbFaceRecord
 10
0.0
 20
0.0
 30
0.0
 70
   128
 71
    36
 72
    37
 73
    53
  0
VERTEX
  5
EC
330
44
100
AcDbEntity
  8
0
100
AcDbFaceRecord
 10
0.0
 20
0.0
 30
0.0
 70
   128
 71
    53
 72
    52
 73
   -36
  0
VERTEX
  5
ED
330
44
100
AcDbEntity
  8
0
100
AcDbFaceRecord
 10
0.0
 20
0.0
 30
0.0
 70
   128
 71
    37
 72
    38
 73
    54
  0
VERTEX
  5
EE
330
44
100
AcDbEntity
  8
0
100
AcDbFaceRecord
 10
0.0
 20
0.0
 30
0.0
 70
   128
 71
    54
 72
    53
 73
   -37
  0
VERTEX
  5
EF
330
44
100
AcDbEntity
  8
0
100
AcDbFaceRecord
 10
0.0
 20
0.0
 30
0.0
 70
   128
 71
    38
 72
    39
 73
    55
  0
VERTEX
  5
F0
330
44
100
AcDbEntity
  8
0
100
AcDbFaceRecord
 10
0.0
 20
0.0
 30
0.0
 70
   128
 71
    55
 72
    54
 73
   -38
  0
VERTEX
  5
F1
330
44
100
AcDbEntity
  8
0
100
AcDbFaceRecord
 10
0.0
 20
0.0
 30
0.0
 70
   128
 71
    39
 72
    40
 73
    56
  0
VERTEX
  5
F2
330
44
100
AcDbEntity
  8
0
100
AcDbFaceRecord
 10
0.0
 20
0.0
 30
0.0
 70
   128
 71
    56
 72
    55
 73
   -39
  0
VERTEX
  5
F3
330
44
100
AcDbEntity
  8
0
100
AcDbFaceRecord
 10
0.0
 20
0.0
 30
0.0
 70
   128
 71
    40
 72
    41
 73
    57
  0
VERTEX
  5
F4
330
44
100
AcDbEntity
  8
0
100
AcDbFaceRecord
 10
0.0
 20
0.0
 30
0.0
 70
   128
 71
    57
 72
    56
 73
   -40
  0
VERTEX
  5
F5
330
44
100
AcDbEntity
  8
0
100
AcDbFaceRecord
 10
0.0
 20
0.0
 30
0.0
 70
   128
 71
    41
 72
    42
 73
    58
  0
VERTEX
  5
F6
330
44
100
AcDbEntity
  8
0
100
AcDbFaceRecord
 10
0.0
 20
0.0
 30
0.0
 70
   128
 71
    58
 72
    57
 73
   -41
  0
VERTEX
  5
F7
330
44
100
AcDbEntity
  8
0
100
AcDbFaceRecord
 10
0.0
 20
0.0
 30
0.0
 70
   128
 71
    42
 72
    43
 73
    59
  0
VERTEX
  5
F8
330
44
100
AcDbEntity
  8
0
100
AcDbFaceRecord
 10
0.0
 20
0.0
 30
0.0
 70
   128
 71
    59
 72
    58
 73
   -42
  0
VERTEX
  5
F9
330
44
100
AcDbEntity
  8
0
100
AcDbFaceRecord
 10
0.0
 20
0.0
 30
0.0
 70
   128
 71
    43
 72
    44
 73
    60
  0
VERTEX
  5
FA
330
44
100
AcDbEntity
  8
0
100
AcDbFaceRecord
 10
0.0
 20
0.0
 30
0.0
 70
   128
 71
    60
 72
    59
 73
   -43
  0
VERTEX
  5
FB
330
44
100
AcDbEntity
  8
0
100
AcDbFaceRecord
 10
0.0
 20
0.0
 30
0.0
 70
   128
 71
    44
 72
    45
 73
    61
  0
VERTEX
  5
FC
330
44
100
AcDbEntity
  8
0
100
AcDbFaceRecord
 10
0.0
 20
0.0
 30
0.0
 70
   128
 71
    61
 72
    60
 73
   -44
  0
VERTEX
  5
FD
330
44
100
AcDbEntity
  8
0
100
AcDbFaceRecord
 10
0.0
 20
0.0
 30
0.0
 70
   128
 71
    45
 72
    46
 73
    62
  0
VERTEX
  5
FE
330
44
100
AcDbEntity
  8
0
100
AcDbFaceRecord
 10
0.0
 20
0.0
 30
0.0
 70
   128
 71
    62
 72
    61
 73
   -45
  0
VERTEX
  5
FF
330
44
100
AcDbEntity
  8
0
100
AcDbFaceRecord
 10
0.0
 20
0.0
 30
0.0
 70
   128
 71
    46
 72
    47
 73
    63
  0
VERTEX
  5
100
330
44
100
AcDbEntity
  8
0
100
AcDbFaceRecord
 10
0.0
 20
0.0
 30
0.0
 70
   128
 71
    63
 72
    62
 73
   -46
  0
VERTEX
  5
101
330
44
100
AcDbEntity
  8
0
100
AcDbFaceRecord
 10
0.0
 20
0.0
 30
0.0
 70
   128
 71
    47
 72
    48
 73
    64
  0
VERTEX
  5
102
330
44
100
AcDbEntity
  8
0
100
AcDbFaceRecord
 10
0.0
 20
0.0
 30
0.0
 70
   128
 71
    64
 72
    63
 73
   -47
  0
VERTEX
  5
103
330
44
100
AcDbEntity
  8
0
100
AcDbFaceRecord
 10
0.0
 20
0.0
 30
0.0
 70
   128
 71
    48
 72
    34
 73
    50
  0
VERTEX
  5
104
330
44
100
AcDbEntity
  8
0
100
AcDbFaceRecord
 10
0.0
 20
0.0
 30
0.0
 70
   128
 71
    50
 72
    64
 73
   -48
  0
VERTEX
  5
105
330
44
100
AcDbEntity
  8
0
100
AcDbFaceRecord
 10
0.0
 20
0.0
 30
0.0
 70
   128
 71
    50
 72
    49
 73
    65
  0
VERTEX
  5
106
330
44
100
AcDbEntity
  8
0
100
AcDbFaceRecord
 10
0.0
 20
0.0
 30
0.0
 70
   128
 71
    65
 72
    66
 73
   -50
  0
VERTEX
  5
107
330
44
100
AcDbEntity
  8
0
100
AcDbFaceRecord
 10
0.0
 20
0.0
 30
0.0
 70
   128
 71
    49
 72
    51
 73
    67
  0
VERTEX
  5
108
330
44
100
AcDbEntity
  8
0
100
AcDbFaceRecord
 10
0.0
 20
0.0
 30
0.0
 70
   128
 71
    67
 72
    65
 73
   -49
  0
VERTEX
  5
109
330
44
100
AcDbEntity
  8
0
100
AcDbFaceRecord
 10
0.0
 20
0.0
 30
0.0
 70
   128
 71
    51
 72
    52
 73
    68
  0
VERTEX
  5
10A
330
44
100
AcDbEntity
  8
0
100
AcDbFaceRecord
 10
0.0
 20
0.0
 30
0.0
 70
   128
 71
    68
 72
    67
 73
   -51
  0
VERTEX
  5
10B
330
44
100
AcDbEntity
  8
0
100
AcDbFaceRecord
 10
0.0
 20
0.0
 30
0.0
 70
   128
 71
    52
 72
    53
 73
    69
  0
VERTEX
  5
10C
330
44
100
AcDbEntity
  8
0
100
AcDbFaceRecord
 10
0.0
 20
0.0
 30
0.0
 70
   128
 71
    69
 72
    68
 73
   -52
  0
VERTEX
  5
10D
330
44
100
AcDbEntity
  8
0
100
AcDbFaceRecord
 10
0.0
 20
0.0
 30
0.0
 70
   128
 71
    53
 72
    54
 73
    70
  0
VERTEX
  5
10E
330
44
100
AcDbEntity
  8
0
100
AcDbFaceRecord
 10
0.0
 20
0.0
 30
0.0
 70
   128
 71
    70
 72
    69
 73
   -53
  0
VERTEX
  5
10F
330
44
100
AcDbEntity
  8
0
100
AcDbFaceRecord
 10
0.0
 20
0.0
 30
0.0
 70
   128
 71
    54
 72
    55
 73
    71
  0
VERTEX
  5
110
330
44
100
AcDbEntity
  8
0
100
AcDbFaceRecord
 10
0.0
 20
0.0
 30
0.0
 70
   128
 71
    71
 72
    70
 73
   -54
  0
VERTEX
  5
111
330
44
100
AcDbEntity
  8
0
100
AcDbFaceRecord
 10
0.0
 20
0.0
 30
0.0
 70
   128
 71
    55
 72
    56
 73
    72
  0
VERTEX
  5
112
330
44
100
AcDbEntity
  8
0
100
AcDbFaceRecord
 10
0.0
 20
0.0
 30
0.0
 70
   128
 71
    72
 72
    71
 73
   -55
  0
VERTEX
  5
113
330
44
100
AcDbEntity
  8
0
100
AcDbFaceRecord
 10
0.0
 20
0.0
 30
0.0
 70
   128
 71
    56
 72
    57
 73
    73
  0
VERTEX
  5
114
330
44
100
AcDbEntity
  8
0
100
AcDbFaceRecord
 10
0.0
 20
0.0
 30
0.0
 70
   128
 71
    73
 72
    72
 73
   -56
  0
VERTEX
  5
115
330
44
100
AcDbEntity
  8
0
100
AcDbFaceRecord
 10
0.0
 20
0.0
 30
0.0
 70
   128
 71
    57
 72
    58
 73
    74
  0
VERTEX
  5
116
330
44
100
AcDbEntity
  8
0
100
AcDbFaceRecord
 10
0.0
 20
0.0
 30
0.0
 70
   128
 71
    74
 72
    73
 73
   -57
  0
VERTEX
  5
117
330
44
100
AcDbEntity
  8
0
100
AcDbFaceRecord
 10
0.0
 20
0.0
 30
0.0
 70
   128
 71
    58
 72
    59
 73
    75
  0
VERTEX
  5
118
330
44
100
AcDbEntity
  8
0
100
AcDbFaceRecord
 10
0.0
 20
0.0
 30
0.0
 70
   128
 71
    75
 72
    74
 73
   -58
  0
VERTEX
  5
119
330
44
100
AcDbEntity
  8
0
100
AcDbFaceRecord
 10
0.0
 20
0.0
 30
0.0
 70
   128
 71
    59
 72
    60
 73
    76
  0
VERTEX
  5
11A
330
44
100
AcDbEntity
  8
0
100
AcDbFaceRecord
 10
0.0
 20
0.0
 30
0.0
 70
   128
 71
    76
 72
    75
 73
   -59
  0
VERTEX
  5
11B
330
44
100
AcDbEntity
  8
0
100
AcDbFaceRecord
 10
0.0
 20
0.0
 30
0.0
 70
   128
 71
    60
 72
    61
 73
    77
  0
VERTEX
  5
11C
330
44
100
AcDbEntity
  8
0
100
AcDbFaceRecord
 10
0.0
 20
0.0
 30
0.0
 70
   128
 71
    77
 72
    76
 73
   -60
  0
VERTEX
  5
11D
330
44
100
AcDbEntity
  8
0
100
AcDbFaceRecord
 10
0.0
 20
0.0
 30
0.0
 70
   128
 71
    61
 72
    62
 73
    78
  0
VERTEX
  5
11E
330
44
100
AcDbEntity
  8
0
100
AcDbFaceRecord
 10
0.0
 20
0.0
 30
0.0
 70
   128
 71
    78
 72
    77
 73
   -61
  0
VERTEX
  5
11F
330
44
100
AcDbEntity
  8
0
100
AcDbFaceRecord
 10
0.0
 20
0.0
 30
0.0
 70
   128
 71
    62
 72
    63
 73
    79
  0
VERTEX
  5
120
330
44
100
AcDbEntity
  8
0
100
AcDbFaceRecord
 10
0.0
 20
0.0
 30
0.0
 70
   128
 71
    79
 72
    78
 73
   -62
  0
VERTEX
  5
121
330
44
100
AcDbEntity
  8
0
100
AcDbFaceRecord
 10
0.0
 20
0.0
 30
0.0
 70
   128
 71
    63
 72
    64
 73
    80
  0
VERTEX
  5
122
330
44
100
AcDbEntity
  8
0
100
AcDbFaceRecord
 10
0.0
 20
0.0
 30
0.0
 70
   128
 71
    80
 72
    79
 73
   -63
  0
VERTEX
  5
123
330
44
100
AcDbEntity
  8
0
100
AcDbFaceRecord
 10
0.0
 20
0.0
 30
0.0
 70
   128
 71
    64
 72
    50
 73
    66
  0
VERTEX
  5
124
330
44
100
AcDbEntity
  8
0
100
AcDbFaceRecord
 10
0.0
 20
0.0
 30
0.0
 70
   128
 71
    66
 72
    80
 73
   -64
  0
VERTEX
  5
125
330
44
100
AcDbEntity
  8
0
100
AcDbFaceRecord
 10
0.0
 20
0.0
 30
0.0
 70
   128
 71
    66
 72
    65
 73
    81
  0
VERTEX
  5
126
330
44
100
AcDbEntity
  8
0
100
AcDbFaceRecord
 10
0.0
 20
0.0
 30
0.0
 70
   128
 71
    81
 72
    82
 73
   -66
  0
VERTEX
  5
127
330
44
100
AcDbEntity
  8
0
100
AcDbFaceRecord
 10
0.0
 20
0.0
 30
0.0
 70
   128
 71
    65
 72
    67
 73
    83
  0
VERTEX
  5
128
330
44
100
AcDbEntity
  8
0
100
AcDbFaceRecord
 10
0.0
 20
0.0
 30
0.0
 70
   128
 71
    83
 72
    81
 73
   -65
  0
VERTEX
  5
129
330
44
100
AcDbEntity
  8
0
100
AcDbFaceRecord
 10
0.0
 20
0.0
 30
0.0
 70
   128
 71
    67
 72
    68
 73
    84
  0
VERTEX
  5
12A
330
44
100
AcDbEntity
  8
0
100
AcDbFaceRecord
 10
0.0
 20
0.0
 30
0.0
 70
   128
 71
    84
 72
    83
 73
   -67
  0
VERTEX
  5
12B
330
44
100
AcDbEntity
  8
0
100
AcDbFaceRecord
 10
0.0
 20
0.0
 30
0.0
 70
   128
 71
    68
 72
    69
 73
    85
  0
VERTEX
  5
12C
330
44
100
AcDbEntity
  8
0
100
AcDbFaceRecord
 10
0.0
 20
0.0
 30
0.0
 70
   128
 71
    85
 72
    84
 73
   -68
  0
VERTEX
  5
12D
330
44
100
AcDbEntity
  8
0
100
AcDbFaceRecord
 10
0.0
 20
0.0
 30
0.0
 70
   128
 71
    69
 72
    70
 73
    86
  0
VERTEX
  5
12E
330
44
100
AcDbEntity
  8
0
100
AcDbFaceRecord
 10
0.0
 20
0.0
 30
0.0
 70
   128
 71
    86
 72
    85
 73
   -69
  0
VERTEX
  5
12F
330
44
100
AcDbEntity
  8
0
100
AcDbFaceRecord
 10
0.0
 20
0.0
 30
0.0
 70
   128
 71
    70
 72
    71
 73
    87
  0
VERTEX
  5
130
330
44
100
AcDbEntity
  8
0
100
AcDbFaceRecord
 10
0.0
 20
0.0
 30
0.0
 70
   128
 71
    87
 72
    86
 73
   -70
  0
VERTEX
  5
131
330
44
100
AcDbEntity
  8
0
100
AcDbFaceRecord
 10
0.0
 20
0.0
 30
0.0
 70
   128
 71
    71
 72
    72
 73
    88
  0
VERTEX
  5
132
330
44
100
AcDbEntity
  8
0
100
AcDbFaceRecord
 10
0.0
 20
0.0
 30
0.0
 70
   128
 71
    88
 72
    87
 73
   -71
  0
VERTEX
  5
133
330
44
100
AcDbEntity
  8
0
100
AcDbFaceRecord
 10
0.0
 20
0.0
 30
0.0
 70
   128
 71
    72
 72
    73
 73
    89
  0
VERTEX
  5
134
330
44
100
AcDbEntity
  8
0
100
AcDbFaceRecord
 10
0.0
 20
0.0
 30
0.0
 70
   128
 71
    89
 72
    88
 73
   -72
  0
VERTEX
  5
135
330
44
100
AcDbEntity
  8
0
100
AcDbFaceRecord
 10
0.0
 20
0.0
 30
0.0
 70
   128
 71
    73
 72
    74
 73
    90
  0
VERTEX
  5
136
330
44
100
AcDbEntity
  8
0
100
AcDbFaceRecord
 10
0.0
 20
0.0
 30
0.0
 70
   128
 71
    90
 72
    89
 73
   -73
  0
VERTEX
  5
137
330
44
100
AcDbEntity
  8
0
100
AcDbFaceRecord
 10
0.0
 20
0.0
 30
0.0
 70
   128
 71
    74
 72
    75
 73
    91
  0
VERTEX
  5
138
330
44
100
AcDbEntity
  8
0
100
AcDbFaceRecord
 10
0.0
 20
0.0
 30
0.0
 70
   128
 71
    91
 72
    90
 73
   -74
  0
VERTEX
  5
139
330
44
100
AcDbEntity
  8
0
100
AcDbFaceRecord
 10
0.0
 20
0.0
 30
0.0
 70
   128
 71
    75
 72
    76
 73
    92
  0
VERTEX
  5
13A
330
44
100
AcDbEntity
  8
0
100
AcDbFaceRecord
 10
0.0
 20
0.0
 30
0.0
 70
   128
 71
    92
 72
    91
 73
   -75
  0
VERTEX
  5
13B
330
44
100
AcDbEntity
  8
0
100
AcDbFaceRecord
 10
0.0
 20
0.0
 30
0.0
 70
   128
 71
    76
 72
    77
 73
    93
  0
VERTEX
  5
13C
330
44
100
AcDbEntity
  8
0
100
AcDbFaceRecord
 10
0.0
 20
0.0
 30
0.0
 70
   128
 71
    93
 72
    92
 73
   -76
  0
VERTEX
  5
13D
330
44
100
AcDbEntity
  8
0
100
AcDbFaceRecord
 10
0.0
 20
0.0
 30
0.0
 70
   128
 71
    77
 72
    78
 73
    94
  0
VERTEX
  5
13E
330
44
100
AcDbEntity
  8
0
100
AcDbFaceRecord
 10
0.0
 20
0.0
 30
0.0
 70
   128
 71
    94
 72
    93
 73
   -77
  0
VERTEX
  5
13F
330
44
100
AcDbEntity
  8
0
100
AcDbFaceRecord
 10
0.0
 20
0.0
 30
0.0
 70
   128
 71
    78
 72
    79
 73
    95
  0
VERTEX
  5
140
330
44
100
AcDbEntity
  8
0
100
AcDbFaceRecord
 10
0.0
 20
0.0
 30
0.0
 70
   128
 71
    95
 72
    94
 73
   -78
  0
VERTEX
  5
141
330
44
100
AcDbEntity
  8
0
100
AcDbFaceRecord
 10
0.0
 20
0.0
 30
0.0
 70
   128
 71
    79
 72
    80
 73
    96
  0
VERTEX
  5
142
330
44
100
AcDbEntity
  8
0
100
AcDbFaceRecord
 10
0.0
 20
0.0
 30
0.0
 70
   128
 71
    96
 72
    95
 73
   -79
  0
VERTEX
  5
143
330
44
100
AcDbEntity
  8
0
100
AcDbFaceRecord
 10
0.0
 20
0.0
 30
0.0
 70
   128
 71
    80
 72
    66
 73
    82
  0
VERTEX
  5
144
330
44
100
AcDbEntity
  8
0
100
AcDbFaceRecord
 10
0.0
 20
0.0
 30
0.0
 70
   128
 71
    82
 72
    96
 73
   -80
  0
VERTEX
  5
145
330
44
100
AcDbEntity
  8
0
100
AcDbFaceRecord
 10
0.0
 20
0.0
 30
0.0
 70
   128
 71
    94
 72
    92
 73
    93
  0
VERTEX
  5
146
330
44
100
AcDbEntity
  8
0
100
AcDbFaceRecord
 10
0.0
 20
0.0
 30
0.0
 70
   128
 71
    94
 72
    91
 73
    92
  0
VERTEX
  5
147
330
44
100
AcDbEntity
  8
0
100
AcDbFaceRecord
 10
0.0
 20
0.0
 30
0.0
 70
   128
 71
    95
 72
    91
 73
    94
  0
VERTEX
  5
148
330
44
100
AcDbEntity
  8
0
100
AcDbFaceRecord
 10
0.0
 20
0.0
 30
0.0
 70
   128
 71
    95
 72
    90
 73
    91
  0
VERTEX
  5
149
330
44
100
AcDbEntity
  8
0
100
AcDbFaceRecord
 10
0.0
 20
0.0
 30
0.0
 70
   128
 71
    96
 72
    90
 73
    95
  0
VERTEX
  5
14A
330
44
100
AcDbEntity
  8
0
100
AcDbFaceRecord
 10
0.0
 20
0.0
 30
0.0
 70
   128
 71
    96
 72
    89
 73
    90
  0
VERTEX
  5
14B
330
44
100
AcDbEntity
  8
0
100
AcDbFaceRecord
 10
0.0
 20
0.0
 30
0.0
 70
   128
 71
    82
 72
    89
 73
    96
  0
VERTEX
  5
14C
330
44
100
AcDbEntity
  8
0
100
AcDbFaceRecord
 10
0.0
 20
0.0
 30
0.0
 70
   128
 71
    82
 72
    88
 73
    89
  0
VERTEX
  5
14D
330
44
100
AcDbEntity
  8
0
100
AcDbFaceRecord
 10
0.0
 20
0.0
 30
0.0
 70
   128
 71
    81
 72
    88
 73
    82
  0
VERTEX
  5
14E
330
44
100
AcDbEntity
  8
0
100
AcDbFaceRecord
 10
0.0
 20
0.0
 30
0.0
 70
   128
 71
    88
 72
    81
 73
    83
  0
VERTEX
  5
14F
330
44
100
AcDbEntity
  8
0
100
AcDbFaceRecord
 10
0.0
 20
0.0
 30
0.0
 70
   128
 71
    88
 72
    83
 73
    87
  0
VERTEX
  5
150
330
44
100
AcDbEntity
  8
0
100
AcDbFaceRecord
 10
0.0
 20
0.0
 30
0.0
 70
   128
 71
    84
 72
    86
 73
    87
  0
VERTEX
  5
151
330
44
100
AcDbEntity
  8
0
100
AcDbFaceRecord
 10
0.0
 20
0.0
 30
0.0
 70
   128
 71
    84
 72
    87
 73
    83
  0
VERTEX
  5
152
330
44
100
AcDbEntity
  8
0
100
AcDbFaceRecord
 10
0.0
 20
0.0
 30
0.0
 70
   128
 71
    84
 72
    85
 73
    86
  0
SEQEND
  5
153
330
44
100
AcDbEntity
  8
0
  0
POLYLINE
  5
155
330
1F
100
AcDbEntity
  8
0
100
AcDbPolyFaceMesh
 66
     1
 10
0.0
 20
0.0
 30
0.0
 70
    64
 71
   651
 72
  1274
1001
AVE_ENTITY_MATERIAL
1002
{
1000

1002
{
1071
        0
1070
     0
1070
     0
1002
{
1070
     0
1070
     0
1070
     0
1040
0.0
1002
}
1070
     0
1070
     0
1002
{
1002
}
1002
}
1002
{
1002
}
1002
{
1002
}
1011
18.49999809265136
1021
8.003131866455078
1031
10.26955318450927
1011
18.49999809265136
1021
9.003131866455078
1031
10.26955318450927
1011
17.49999809265136
1021
8.003131866455078
1031
10.26955318450927
1011
18.49999809265136
1021
8.003131866455078
1031
11.26955318450927
1002
}
  0
VERTEX
  5
156
330
155
100
AcDbEntity
  8
0
100
AcDbVertex
100
AcDbPolyFaceMeshVertex
 10
11.85233116149902
 20
-17.39161682128906
 30
10.49285350739955
 70
   192
  0
VERTEX
  5
157
330
155
100
AcDbEntity
  8
0
100
AcDbVertex
100
AcDbPolyFaceMeshVertex
 10
15.21040177345275
 20
-18.16580963134765
 30
11.22235357761383
 70
   192
  0
VERTEX
  5
158
330
155
100
AcDbEntity
  8
0
100
AcDbVertex
100
AcDbPolyFaceMeshVertex
 10
15.34226894378662
 20
-17.2804946899414
 30
10.51231065392494
 70
   192
  0
VERTEX
  5
159
330
155
100
AcDbEntity
  8
0
100
AcDbVertex
100
AcDbPolyFaceMeshVertex
 10
12.18619918823242
 20
-16.6664867401123
 30
9.955762505531311
 70
   192
  0
VERTEX
  5
15A
330
155
100
AcDbEntity
  8
0
100
AcDbVertex
100
AcDbPolyFaceMeshVertex
 10
15.44768929481506
 20
-16.67401313781738
 30
9.981519401073455
 70
   192
  0
VERTEX
  5
15B
330
155
100
AcDbEntity
  8
0
100
AcDbVertex
100
AcDbPolyFaceMeshVertex
 10
12.42518091201782
 20
-16.13157653808593
 30
9.233307361602783
 70
   192
  0
VERTEX
  5
15C
330
155
100
AcDbEntity
  8
0
100
AcDbVertex
100
AcDbPolyFaceMeshVertex
 10
13.48275899887084
 20
-14.40930366516113
 30
7.772497177124023
 70
   192
  0
VERTEX
  5
15D
330
155
100
AcDbEntity
  8
0
100
AcDbVertex
100
AcDbPolyFaceMeshVertex
 10
15.40356349945068
 20
-14.92128181457519
 30
7.772497177124023
 70
   192
  0
VERTEX
  5
15E
330
155
100
AcDbEntity
  8
0
100
AcDbVertex
100
AcDbPolyFaceMeshVertex
 10
15.14707040786743
 20
-12.80397796630859
 30
5.561852931976318
 70
   192
  0
VERTEX
  5
15F
330
155
100
AcDbEntity
  8
0
100
AcDbVertex
100
AcDbPolyFaceMeshVertex
 10
13.57691192626953
 20
-12.35096549987793
 30
5.561852931976318
 70
   192
  0
VERTEX
  5
160
330
155
100
AcDbEntity
  8
0
100
AcDbVertex
100
AcDbPolyFaceMeshVertex
 10
14.69466829299926
 20
-10.37163352966308
 30
3.495407581329345
 70
   192
  0
VERTEX
  5
161
330
155
100
AcDbEntity
  8
0
100
AcDbVertex
100
AcDbPolyFaceMeshVertex
 10
13.50611877441406
 20
-9.975275039672851
 30
3.495234012603759
 70
   192
  0
VERTEX
  5
162
330
155
100
AcDbEntity
  8
0
100
AcDbVertex
100
AcDbPolyFaceMeshVertex
 10
14.20763492584228
 20
-7.58958625793457
 30
2.081382751464843
 70
   192
  0
VERTEX
  5
163
330
155
100
AcDbEntity
  8
0
100
AcDbVertex
100
AcDbPolyFaceMeshVertex
 10
13.38833427429199
 20
-7.214786529541015
 30
2.081152915954589
 70
   192
  0
VERTEX
  5
164
330
155
100
AcDbEntity
  8
0
100
AcDbVertex
100
AcDbPolyFaceMeshVertex
 10
13.79452085494995
 20
-4.421142578125
 30
1.325269699096679
 70
   192
  0
VERTEX
  5
165
330
155
100
AcDbEntity
  8
0
100
AcDbVertex
100
AcDbPolyFaceMeshVertex
 10
13.29303169250488
 20
-4.002520561218261
 30
1.324994087219238
 70
   192
  0
VERTEX
  5
166
330
155
100
AcDbEntity
  8
0
100
AcDbVertex
100
AcDbPolyFaceMeshVertex
 10
13.62962484359741
 20
-1.731923103332519
 30
1.236647605895996
 70
   192
  0
VERTEX
  5
167
330
155
100
AcDbEntity
  8
0
100
AcDbVertex
100
AcDbPolyFaceMeshVertex
 10
13.2994647026062
 20
-1.236212730407714
 30
1.236646652221679
 70
   192
  0
VERTEX
  5
168
330
155
100
AcDbEntity
  8
0
100
AcDbVertex
100
AcDbPolyFaceMeshVertex
 10
13.1762523651123
 20
-21.5507526397705
 30
11.51738691329956
 70
   192
  0
VERTEX
  5
169
330
155
100
AcDbEntity
  8
0
100
AcDbVertex
100
AcDbPolyFaceMeshVertex
 10
17.48626589775085
 20
-21.90023612976074
 30
11.51738691329956
 70
   192
  0
VERTEX
  5
16A
330
155
100
AcDbEntity
  8
0
100
AcDbVertex
100
AcDbPolyFaceMeshVertex
 10
17.74087870121002
 20
-18.50008392333984
 30
11.22235357761383
 70
   192
  0
VERTEX
  5
16B
330
155
100
AcDbEntity
  8
0
100
AcDbVertex
100
AcDbPolyFaceMeshVertex
 10
17.72192448377609
 20
-17.61997413635254
 30
10.51226608455181
 70
   192
  0
VERTEX
  5
16C
330
155
100
AcDbEntity
  8
0
100
AcDbVertex
100
AcDbPolyFaceMeshVertex
 10
17.7282428741455
 20
-16.98154830932617
 30
9.981519401073455
 70
   192
  0
VERTEX
  5
16D
330
155
100
AcDbEntity
  8
0
100
AcDbVertex
100
AcDbPolyFaceMeshVertex
 10
17.69674575328826
 20
-16.43000030517578
 30
9.233331799507141
 70
   192
  0
VERTEX
  5
16E
330
155
100
AcDbEntity
  8
0
100
AcDbVertex
100
AcDbPolyFaceMeshVertex
 10
15.49530267715454
 20
-16.15345191955566
 30
9.233307123184204
 70
   192
  0
VERTEX
  5
16F
330
155
100
AcDbEntity
  8
0
100
AcDbVertex
100
AcDbPolyFaceMeshVertex
 10
17.41000843048095
 20
-15.11579513549804
 30
7.772497177124023
 70
   192
  0
VERTEX
  5
170
330
155
100
AcDbEntity
  8
0
100
AcDbVertex
100
AcDbPolyFaceMeshVertex
 10
16.85116076469421
 20
-12.93333053588867
 30
5.561852931976318
 70
   192
  0
VERTEX
  5
171
330
155
100
AcDbEntity
  8
0
100
AcDbVertex
100
AcDbPolyFaceMeshVertex
 10
16.07159399986267
 20
-10.44282722473144
 30
3.495686531066894
 70
   192
  0
VERTEX
  5
172
330
155
100
AcDbEntity
  8
0
100
AcDbVertex
100
AcDbPolyFaceMeshVertex
 10
15.24359989166259
 20
-7.663640022277832
 30
2.081748962402343
 70
   192
  0
VERTEX
  5
173
330
155
100
AcDbEntity
  8
0
100
AcDbVertex
100
AcDbPolyFaceMeshVertex
 10
14.48375368118286
 20
-4.612641334533691
 30
1.325701713562011
 70
   192
  0
VERTEX
  5
174
330
155
100
AcDbEntity
  8
0
100
AcDbVertex
100
AcDbPolyFaceMeshVertex
 10
14.05696487426757
 20
-2.114905357360839
 30
1.236645698547363
 70
   192
  0
VERTEX
  5
175
330
155
100
AcDbEntity
  8
0
100
AcDbVertex
100
AcDbPolyFaceMeshVertex
 10
20.76625084877014
 20
-21.48619270324707
 30
11.51738691329956
 70
   192
  0
VERTEX
  5
176
330
155
100
AcDbEntity
  8
0
100
AcDbVertex
100
AcDbPolyFaceMeshVertex
 10
20.14063680171966
 20
-18.18371200561523
 30
11.22235453128814
 70
   192
  0
VERTEX
  5
177
330
155
100
AcDbEntity
  8
0
100
AcDbVertex
100
AcDbPolyFaceMeshVertex
 10
19.98644268512725
 20
-17.32328033447265
 30
10.51222151517868
 70
   192
  0
VERTEX
  5
178
330
155
100
AcDbEntity
  8
0
100
AcDbVertex
100
AcDbPolyFaceMeshVertex
 10
19.89098536968231
 20
-16.69048118591308
 30
9.981519401073455
 70
   192
  0
VERTEX
  5
179
330
155
100
AcDbEntity
  8
0
100
AcDbVertex
100
AcDbPolyFaceMeshVertex
 10
19.78391444683074
 20
-16.13760375976562
 30
9.233357191085815
 70
   192
  0
VERTEX
  5
17A
330
155
100
AcDbEntity
  8
0
100
AcDbVertex
100
AcDbPolyFaceMeshVertex
 10
19.34949904680252
 20
-14.77979278564453
 30
7.772605657577514
 70
   192
  0
VERTEX
  5
17B
330
155
100
AcDbEntity
  8
0
100
AcDbVertex
100
AcDbPolyFaceMeshVertex
 10
18.55439302697777
 20
-12.58837127685547
 30
5.56207799911499
 70
   192
  0
VERTEX
  5
17C
330
155
100
AcDbEntity
  8
0
100
AcDbVertex
100
AcDbPolyFaceMeshVertex
 10
17.52499896287918
 20
-10.1043529510498
 30
3.496037483215332
 70
   192
  0
VERTEX
  5
17D
330
155
100
AcDbEntity
  8
0
100
AcDbVertex
100
AcDbPolyFaceMeshVertex
 10
16.40886497497558
 20
-7.405939102172851
 30
2.082215309143066
 70
   192
  0
VERTEX
  5
17E
330
155
100
AcDbEntity
  8
0
100
AcDbVertex
100
AcDbPolyFaceMeshVertex
 10
15.3054769039154
 20
-4.56921100616455
 30
1.326244354248046
 70
   192
  0
VERTEX
  5
17F
330
155
100
AcDbEntity
  8
0
100
AcDbVertex
100
AcDbPolyFaceMeshVertex
 10
14.56135606765747
 20
-2.361815452575683
 30
1.236646652221679
 70
   192
  0
VERTEX
  5
180
330
155
100
AcDbEntity
  8
0
100
AcDbVertex
100
AcDbPolyFaceMeshVertex
 10
23.91615438461303
 20
-20.25693702697754
 30
11.51738691329956
 70
   192
  0
VERTEX
  5
181
330
155
100
AcDbEntity
  8
0
100
AcDbVertex
100
AcDbPolyFaceMeshVertex
 10
22.4873948097229
 20
-17.23081970214843
 30
11.22235357761383
 70
   192
  0
VERTEX
  5
182
330
155
100
AcDbEntity
  8
0
100
AcDbVertex
100
AcDbPolyFaceMeshVertex
 10
22.20604944229126
 20
-16.40858268737793
 30
10.51217839121818
 70
   192
  0
VERTEX
  5
183
330
155
100
AcDbEntity
  8
0
100
AcDbVertex
100
AcDbPolyFaceMeshVertex
 10
22.00596284866333
 20
-15.81379508972168
 30
9.981519401073455
 70
   192
  0
VERTEX
  5
184
330
155
100
AcDbEntity
  8
0
100
AcDbVertex
100
AcDbPolyFaceMeshVertex
 10
21.82476472854614
 20
-15.28560638427734
 30
9.233384132385253
 70
   192
  0
VERTEX
  5
185
330
155
100
AcDbEntity
  8
0
100
AcDbVertex
100
AcDbPolyFaceMeshVertex
 10
21.27042055130004
 20
-13.92857933044433
 30
7.772724390029907
 70
   192
  0
VERTEX
  5
186
330
155
100
AcDbEntity
  8
0
100
AcDbVertex
100
AcDbPolyFaceMeshVertex
 10
20.27687072753906
 20
-11.79100799560546
 30
5.562329769134521
 70
   192
  0
VERTEX
  5
187
330
155
100
AcDbEntity
  8
0
100
AcDbVertex
100
AcDbPolyFaceMeshVertex
 10
19.03979897499084
 20
-9.38377571105957
 30
3.496433734893798
 70
   192
  0
VERTEX
  5
188
330
155
100
AcDbEntity
  8
0
100
AcDbVertex
100
AcDbPolyFaceMeshVertex
 10
17.66482716798782
 20
-6.841933250427246
 30
2.082738876342773
 70
   192
  0
VERTEX
  5
189
330
155
100
AcDbEntity
  8
0
100
AcDbVertex
100
AcDbPolyFaceMeshVertex
 10
16.21807050704956
 20
-4.298808097839355
 30
1.326854705810546
 70
   192
  0
VERTEX
  5
18A
330
155
100
AcDbEntity
  8
0
100
AcDbVertex
100
AcDbPolyFaceMeshVertex
 10
15.12267518043518
 20
-2.449307441711425
 30
1.236645698547363
 70
   192
  0
VERTEX
  5
18B
330
155
100
AcDbEntity
  8
0
100
AcDbVertex
100
AcDbPolyFaceMeshVertex
 10
26.83264064788818
 20
-18.25160598754882
 30
11.51738691329956
 70
   192
  0
VERTEX
  5
18C
330
155
100
AcDbEntity
  8
0
100
AcDbVertex
100
AcDbPolyFaceMeshVertex
 10
24.70708656311035
 20
-15.64268493652343
 30
11.22235357761383
 70
   192
  0
VERTEX
  5
18D
330
155
100
AcDbEntity
  8
0
100
AcDbVertex
100
AcDbPolyFaceMeshVertex
 10
24.30669260025024
 20
-14.88174629211425
 30
10.51213528215885
 70
   192
  0
VERTEX
  5
18E
330
155
100
AcDbEntity
  8
0
100
AcDbVertex
100
AcDbPolyFaceMeshVertex
 10
24.00642395019531
 20
-14.35268402099609
 30
9.981519401073455
 70
   192
  0
VERTEX
  5
18F
330
155
100
AcDbEntity
  8
0
100
AcDbVertex
100
AcDbPolyFaceMeshVertex
 10
23.75598192214965
 20
-13.87266159057617
 30
9.233410477638244
 70
   192
  0
VERTEX
  5
190
330
155
100
AcDbEntity
  8
0
100
AcDbVertex
100
AcDbPolyFaceMeshVertex
 10
23.10233783721924
 20
-12.56940269470214
 30
7.772849559783935
 70
   192
  0
VERTEX
  5
191
330
155
100
AcDbEntity
  8
0
100
AcDbVertex
100
AcDbPolyFaceMeshVertex
 10
21.93850779533386
 20
-10.55885505676269
 30
5.562590599060058
 70
   192
  0
VERTEX
  5
192
330
155
100
AcDbEntity
  8
0
100
AcDbVertex
100
AcDbPolyFaceMeshVertex
 10
20.52474904060364
 20
-8.308752059936523
 30
3.496844291687011
 70
   192
  0
VERTEX
  5
193
330
155
100
AcDbEntity
  8
0
100
AcDbVertex
100
AcDbPolyFaceMeshVertex
 10
18.91626194119453
 20
-6.000972747802734
 30
2.083283424377441
 70
   192
  0
VERTEX
  5
194
330
155
100
AcDbEntity
  8
0
100
AcDbVertex
100
AcDbPolyFaceMeshVertex
 10
17.13756573200226
 20
-3.816091537475585
 30
1.327488899230957
 70
   192
  0
VERTEX
  5
195
330
155
100
AcDbEntity
  8
0
100
AcDbVertex
100
AcDbPolyFaceMeshVertex
 10
15.68399357795715
 20
-2.361815452575683
 30
1.236645698547363
 70
   192
  0
VERTEX
  5
196
330
155
100
AcDbEntity
  8
0
100
AcDbVertex
100
AcDbPolyFaceMeshVertex
 10
29.40158081054687
 20
-15.53979873657226
 30
11.51738691329956
 70
   192
  0
VERTEX
  5
197
330
155
100
AcDbEntity
  8
0
100
AcDbVertex
100
AcDbPolyFaceMeshVertex
 10
26.70471858978271
 20
-13.4482364654541
 30
11.22235453128814
 70
   192
  0
VERTEX
  5
198
330
155
100
AcDbEntity
  8
0
100
AcDbVertex
100
AcDbPolyFaceMeshVertex
 10
26.1929497718811
 20
-12.78046417236328
 30
10.51209168136119
 70
   192
  0
VERTEX
  5
199
330
155
100
AcDbEntity
  8
0
100
AcDbVertex
100
AcDbPolyFaceMeshVertex
 10
25.80382776260376
 20
-12.34437370300293
 30
9.981519401073455
 70
   192
  0
VERTEX
  5
19A
330
155
100
AcDbEntity
  8
0
100
AcDbVertex
100
AcDbPolyFaceMeshVertex
 10
25.49367237091064
 20
-11.93317031860351
 30
9.233437657356262
 70
   192
  0
VERTEX
  5
19B
330
155
100
AcDbEntity
  8
0
100
AcDbVertex
100
AcDbPolyFaceMeshVertex
 10
24.75734424591064
 20
-10.74459075927734
 30
7.77296757698059
 70
   192
  0
VERTEX
  5
19C
330
155
100
AcDbEntity
  8
0
100
AcDbVertex
100
AcDbPolyFaceMeshVertex
 10
23.44598722457885
 20
-8.943628311157226
 30
5.562842845916748
 70
   192
  0
VERTEX
  5
19D
330
155
100
AcDbEntity
  8
0
100
AcDbVertex
100
AcDbPolyFaceMeshVertex
 10
21.88002490997314
 20
-6.939987182617187
 30
3.497238636016845
 70
   192
  0
VERTEX
  5
19E
330
155
100
AcDbEntity
  8
0
100
AcDbVertex
100
AcDbPolyFaceMeshVertex
 10
20.0636202096939
 20
-4.944510459899902
 30
2.083806991577148
 70
   192
  0
VERTEX
  5
19F
330
155
100
AcDbEntity
  8
0
100
AcDbVertex
100
AcDbPolyFaceMeshVertex
 10
17.97879350185394
 20
-3.167123794555664
 30
1.32809829711914
 70
   192
  0
VERTEX
  5
1A0
330
155
100
AcDbEntity
  8
0
100
AcDbVertex
100
AcDbPolyFaceMeshVertex
 10
16.18838572502136
 20
-2.114905357360839
 30
1.236647605895996
 70
   192
  0
VERTEX
  5
1A1
330
155
100
AcDbEntity
  8
0
100
AcDbVertex
100
AcDbPolyFaceMeshVertex
 10
31.51879692077637
 20
-12.22166061401367
 30
11.51738691329956
 70
   192
  0
VERTEX
  5
1A2
330
155
100
AcDbEntity
  8
0
100
AcDbVertex
100
AcDbPolyFaceMeshVertex
 10
28.38032150268555
 20
-10.71526527404785
 30
11.22235357761383
 70
   192
  0
VERTEX
  5
1A3
330
155
100
AcDbEntity
  8
0
100
AcDbVertex
100
AcDbPolyFaceMeshVertex
 10
27.76880073547363
 20
-10.16667747497558
 30
10.5120478272438
 70
   192
  0
VERTEX
  5
1A4
330
155
100
AcDbEntity
  8
0
100
AcDbVertex
100
AcDbPolyFaceMeshVertex
 10
27.31339263916015
 20
-9.835729598999023
 30
9.981519639492034
 70
   192
  0
VERTEX
  5
1A5
330
155
100
AcDbEntity
  8
0
100
AcDbVertex
100
AcDbPolyFaceMeshVertex
 10
26.95952987670898
 20
-9.511093139648437
 30
9.233462810516357
 70
   192
  0
VERTEX
  5
1A6
330
155
100
AcDbEntity
  8
0
100
AcDbVertex
100
AcDbPolyFaceMeshVertex
 10
26.15783166885376
 20
-8.505727767944335
 30
7.773076057434082
 70
   192
  0
VERTEX
  5
1A7
330
155
100
AcDbEntity
  8
0
100
AcDbVertex
100
AcDbPolyFaceMeshVertex
 10
24.72276401519775
 20
-7.005948066711425
 30
5.563066959381103
 70
   192
  0
VERTEX
  5
1A8
330
155
100
AcDbEntity
  8
0
100
AcDbVertex
100
AcDbPolyFaceMeshVertex
 10
23.02960395812988
 20
-5.346706390380859
 30
3.497590541839599
 70
   192
  0
VERTEX
  5
1A9
330
155
100
AcDbEntity
  8
0
100
AcDbVertex
100
AcDbPolyFaceMeshVertex
 10
21.03760528564453
 20
-3.742143630981445
 30
2.084271430969238
 70
   192
  0
VERTEX
  5
1AA
330
155
100
AcDbEntity
  8
0
100
AcDbVertex
100
AcDbPolyFaceMeshVertex
 10
18.69154889881611
 20
-2.405849456787109
 30
1.328641891479492
 70
   192
  0
VERTEX
  5
1AB
330
155
100
AcDbEntity
  8
0
100
AcDbVertex
100
AcDbPolyFaceMeshVertex
 10
16.61572551727295
 20
-1.731923103332519
 30
1.236646652221679
 70
   192
  0
VERTEX
  5
1AC
330
155
100
AcDbEntity
  8
0
100
AcDbVertex
100
AcDbPolyFaceMeshVertex
 10
33.09700679779052
 20
-8.424224853515625
 30
11.51738786697387
 70
   192
  0
VERTEX
  5
1AD
330
155
100
AcDbEntity
  8
0
100
AcDbVertex
100
AcDbPolyFaceMeshVertex
 10
29.64523792266845
 20
-7.547584533691406
 30
11.22235357761383
 70
   192
  0
VERTEX
  5
1AE
330
155
100
AcDbEntity
  8
0
100
AcDbVertex
100
AcDbPolyFaceMeshVertex
 10
28.94518566131591
 20
-7.147574424743652
 30
10.51200325787067
 70
   192
  0
VERTEX
  5
1AF
330
155
100
AcDbEntity
  8
0
100
AcDbVertex
100
AcDbPolyFaceMeshVertex
 10
28.45296573638916
 20
-6.928065299987792
 30
9.981519401073455
 70
   192
  0
VERTEX
  5
1B0
330
155
100
AcDbEntity
  8
0
100
AcDbVertex
100
AcDbPolyFaceMeshVertex
 10
28.07772541046142
 20
-6.701796531677246
 30
9.233486771583557
 70
   192
  0
VERTEX
  5
1B1
330
155
100
AcDbEntity
  8
0
100
AcDbVertex
100
AcDbPolyFaceMeshVertex
 10
27.22830486297607
 20
-5.948049545288085
 30
7.773164749145507
 70
   192
  0
VERTEX
  5
1B2
330
155
100
AcDbEntity
  8
0
100
AcDbVertex
100
AcDbPolyFaceMeshVertex
 10
25.69388484954834
 20
-4.839448928833007
 30
5.563246726989746
 70
   192
  0
VERTEX
  5
1B3
330
155
100
AcDbEntity
  8
0
100
AcDbVertex
100
AcDbPolyFaceMeshVertex
 10
23.89848899841308
 20
-3.619561195373535
 30
3.497867584228515
 70
   192
  0
VERTEX
  5
1B4
330
155
100
AcDbEntity
  8
0
100
AcDbVertex
100
AcDbPolyFaceMeshVertex
 10
21.76943850517273
 20
-2.474272727966308
 30
2.084639549255371
 70
   192
  0
VERTEX
  5
1B5
330
155
100
AcDbEntity
  8
0
100
AcDbVertex
100
AcDbPolyFaceMeshVertex
 10
19.22577792406082
 20
-1.589223861694335
 30
1.329073905944824
 70
   192
  0
VERTEX
  5
1B6
330
155
100
AcDbEntity
  8
0
100
AcDbVertex
100
AcDbPolyFaceMeshVertex
 10
16.94588506221771
 20
-1.236212730407714
 30
1.236645698547363
 70
   192
  0
VERTEX
  5
1B7
330
155
100
AcDbEntity
  8
0
100
AcDbVertex
100
AcDbPolyFaceMeshVertex
 10
34.07084655761718
 20
-4.29545021057129
 30
11.51738691329956
 70
   192
  0
VERTEX
  5
1B8
330
155
100
AcDbEntity
  8
0
100
AcDbVertex
100
AcDbPolyFaceMeshVertex
 10
30.43198680877685
 20
-3.867077827453613
 30
11.22235357761383
 70
   192
  0
VERTEX
  5
1B9
330
155
100
AcDbEntity
  8
0
100
AcDbVertex
100
AcDbPolyFaceMeshVertex
 10
29.65431880950927
 20
-3.652853965759277
 30
10.51195602118969
 70
   192
  0
VERTEX
  5
1BA
330
155
100
AcDbEntity
  8
0
100
AcDbVertex
100
AcDbPolyFaceMeshVertex
 10
29.16175079345703
 20
-3.549662590026855
 30
9.981520146131515
 70
   192
  0
VERTEX
  5
1BB
330
155
100
AcDbEntity
  8
0
100
AcDbVertex
100
AcDbPolyFaceMeshVertex
 10
28.79261970520019
 20
-3.437216758728027
 30
9.233510613441467
 70
   192
  0
VERTEX
  5
1BC
330
155
100
AcDbEntity
  8
0
100
AcDbVertex
100
AcDbPolyFaceMeshVertex
 10
27.9104061126709
 20
-3.028078079223632
 30
7.773228883743286
 70
   192
  0
VERTEX
  5
1BD
330
155
100
AcDbEntity
  8
0
100
AcDbVertex
100
AcDbPolyFaceMeshVertex
 10
26.29735231399536
 20
-2.432847023010253
 30
5.563361644744873
 70
   192
  0
VERTEX
  5
1BE
330
155
100
AcDbEntity
  8
0
100
AcDbVertex
100
AcDbPolyFaceMeshVertex
 10
24.4200963973999
 20
-1.781095504760742
 30
3.498042583465576
 70
   192
  0
VERTEX
  5
1BF
330
155
100
AcDbEntity
  8
0
100
AcDbVertex
100
AcDbPolyFaceMeshVertex
 10
22.19458127021789
 20
-1.186993598937988
 30
2.084868431091308
 70
   192
  0
VERTEX
  5
1C0
330
155
100
AcDbEntity
  8
0
100
AcDbVertex
100
AcDbPolyFaceMeshVertex
 10
19.53260612487793
 20
-0.7646255493164063
 30
1.329348564147949
 70
   192
  0
VERTEX
  5
1C1
330
155
100
AcDbEntity
  8
0
100
AcDbVertex
100
AcDbPolyFaceMeshVertex
 10
17.15874183177947
 20
-0.651123046875
 30
1.236646652221679
 70
   192
  0
VERTEX
  5
1C2
330
155
100
AcDbEntity
  8
0
100
AcDbVertex
100
AcDbPolyFaceMeshVertex
 10
34.40175247192382
 20
0.0000009536743164
 30
11.52395629882812
 70
   192
  0
VERTEX
  5
1C3
330
155
100
AcDbEntity
  8
0
100
AcDbVertex
100
AcDbPolyFaceMeshVertex
 10
30.77419090270996
 20
0.0000009536743164
 30
11.2293158173561
 70
   192
  0
VERTEX
  5
1C4
330
155
100
AcDbEntity
  8
0
100
AcDbVertex
100
AcDbPolyFaceMeshVertex
 10
29.92451381683349
 20
0.0
 30
10.51607374846935
 70
   192
  0
VERTEX
  5
1C5
330
155
100
AcDbEntity
  8
0
100
AcDbVertex
100
AcDbPolyFaceMeshVertex
 10
29.47004508972168
 20
0.0
 30
9.983108699321746
 70
   192
  0
VERTEX
  5
1C6
330
155
100
AcDbEntity
  8
0
100
AcDbVertex
100
AcDbPolyFaceMeshVertex
 10
29.13461208343505
 20
0.0000019073486328
 30
9.234919667243957
 70
   192
  0
VERTEX
  5
1C7
330
155
100
AcDbEntity
  8
0
100
AcDbVertex
100
AcDbPolyFaceMeshVertex
 10
28.2188024520874
 20
0.0000009536743164
 30
7.773188591003417
 70
   192
  0
VERTEX
  5
1C8
330
155
100
AcDbEntity
  8
0
100
AcDbVertex
100
AcDbPolyFaceMeshVertex
 10
26.52640628814697
 20
0.0000009536743164
 30
5.561063289642333
 70
   192
  0
VERTEX
  5
1C9
330
155
100
AcDbEntity
  8
0
100
AcDbVertex
100
AcDbPolyFaceMeshVertex
 10
24.56370115280151
 20
0.0000019073486328
 30
3.493713855743408
 70
   192
  0
VERTEX
  5
1CA
330
155
100
AcDbEntity
  8
0
100
AcDbVertex
100
AcDbPolyFaceMeshVertex
 10
22.26655173301697
 20
0.0000009536743164
 30
2.079293251037597
 70
   192
  0
VERTEX
  5
1CB
330
155
100
AcDbEntity
  8
0
100
AcDbVertex
100
AcDbPolyFaceMeshVertex
 10
19.56820464134216
 20
0.0000009536743164
 30
1.323221206665039
 70
   192
  0
VERTEX
  5
1CC
330
155
100
AcDbEntity
  8
0
100
AcDbVertex
100
AcDbPolyFaceMeshVertex
 10
17.23416638374328
 20
0.0000009536743164
 30
1.230475425720214
 70
   192
  0
VERTEX
  5
1CD
330
155
100
AcDbEntity
  8
0
100
AcDbVertex
100
AcDbPolyFaceMeshVertex
 10
10.96000862121581
 20
-9.605792999267578
 30
7.772497177124023
 70
   192
  0
VERTEX
  5
1CE
330
155
100
AcDbEntity
  8
0
100
AcDbVertex
100
AcDbPolyFaceMeshVertex
 10
11.26210308074951
 20
-11.27452278137207
 30
7.772497177124023
 70
   192
  0
VERTEX
  5
1CF
330
155
100
AcDbEntity
  8
0
100
AcDbVertex
100
AcDbPolyFaceMeshVertex
 10
11.63939571380615
 20
-10.25349426269531
 30
5.561852931976318
 70
   192
  0
VERTEX
  5
1D0
330
155
100
AcDbEntity
  8
0
100
AcDbVertex
100
AcDbPolyFaceMeshVertex
 10
11.37116146087646
 20
-8.913331985473632
 30
5.561852931976318
 70
   192
  0
VERTEX
  5
1D1
330
155
100
AcDbEntity
  8
0
100
AcDbVertex
100
AcDbPolyFaceMeshVertex
 10
11.84882688522338
 20
-8.693550109863281
 30
4.122071743011474
 70
   192
  0
VERTEX
  5
1D2
330
155
100
AcDbEntity
  8
0
100
AcDbVertex
100
AcDbPolyFaceMeshVertex
 10
11.61669397354126
 20
-7.938289642333984
 30
4.446813583374023
 70
   192
  0
VERTEX
  5
1D3
330
155
100
AcDbEntity
  8
0
100
AcDbVertex
100
AcDbPolyFaceMeshVertex
 10
11.98262166976928
 20
-6.131979942321777
 30
2.782852172851562
 70
   192
  0
VERTEX
  5
1D4
330
155
100
AcDbEntity
  8
0
100
AcDbVertex
100
AcDbPolyFaceMeshVertex
 10
11.780686378479
 20
-5.685545921325683
 30
3.261116504669189
 70
   192
  0
VERTEX
  5
1D5
330
155
100
AcDbEntity
  8
0
100
AcDbVertex
100
AcDbPolyFaceMeshVertex
 10
11.82344245910644
 20
-3.363442420959472
 30
2.05713939666748
 70
   192
  0
VERTEX
  5
1D6
330
155
100
AcDbEntity
  8
0
100
AcDbVertex
100
AcDbPolyFaceMeshVertex
 10
11.61105632781982
 20
-3.216830253601074
 30
2.654108047485351
 70
   192
  0
VERTEX
  5
1D7
330
155
100
AcDbEntity
  8
0
100
AcDbVertex
100
AcDbPolyFaceMeshVertex
 10
11.55996513366699
 20
-0.0796489715576172
 30
1.899054527282714
 70
   192
  0
VERTEX
  5
1D8
330
155
100
AcDbEntity
  8
0
100
AcDbVertex
100
AcDbPolyFaceMeshVertex
 10
11.34394836425781
 20
0.0000009536743164
 30
2.511856079101562
 70
   192
  0
VERTEX
  5
1D9
330
155
100
AcDbEntity
  8
0
100
AcDbVertex
100
AcDbPolyFaceMeshVertex
 10
11.80889987945556
 20
-12.30203437805175
 30
7.772497177124023
 70
   192
  0
VERTEX
  5
1DA
330
155
100
AcDbEntity
  8
0
100
AcDbVertex
100
AcDbPolyFaceMeshVertex
 10
12.1566219329834
 20
-10.86559677124023
 30
5.561852931976318
 70
   192
  0
VERTEX
  5
1DB
330
155
100
AcDbEntity
  8
0
100
AcDbVertex
100
AcDbPolyFaceMeshVertex
 10
12.28322744369506
 20
-9.059940338134765
 30
3.823777198791503
 70
   192
  0
VERTEX
  5
1DC
330
155
100
AcDbEntity
  8
0
100
AcDbVertex
100
AcDbPolyFaceMeshVertex
 10
12.34432458877563
 20
-6.46110725402832
 30
2.411727905273437
 70
   192
  0
VERTEX
  5
1DD
330
155
100
AcDbEntity
  8
0
100
AcDbVertex
100
AcDbPolyFaceMeshVertex
 10
12.19435024261474
 20
-3.543354988098144
 30
1.636177062988281
 70
   192
  0
VERTEX
  5
1DE
330
155
100
AcDbEntity
  8
0
100
AcDbVertex
100
AcDbPolyFaceMeshVertex
 10
11.95094919204712
 20
-0.2273464202880859
 30
1.483720779418945
 70
   192
  0
VERTEX
  5
1DF
330
155
100
AcDbEntity
  8
0
100
AcDbVertex
100
AcDbPolyFaceMeshVertex
 10
12.44988203048706
 20
-13.28539276123047
 30
7.772497177124023
 70
   192
  0
VERTEX
  5
1E0
330
155
100
AcDbEntity
  8
0
100
AcDbVertex
100
AcDbPolyFaceMeshVertex
 10
12.7507038116455
 20
-11.444091796875
 30
5.561852931976318
 70
   192
  0
VERTEX
  5
1E1
330
155
100
AcDbEntity
  8
0
100
AcDbVertex
100
AcDbPolyFaceMeshVertex
 10
12.78610467910766
 20
-9.414926528930664
 30
3.596322059631347
 70
   192
  0
VERTEX
  5
1E2
330
155
100
AcDbEntity
  8
0
100
AcDbVertex
100
AcDbPolyFaceMeshVertex
 10
12.76611471176147
 20
-6.796222686767578
 30
2.186841964721679
 70
   192
  0
VERTEX
  5
1E3
330
155
100
AcDbEntity
  8
0
100
AcDbVertex
100
AcDbPolyFaceMeshVertex
 10
12.63045501708984
 20
-3.743824005126953
 30
1.424620628356933
 70
   192
  0
VERTEX
  5
1E4
330
155
100
AcDbEntity
  8
0
100
AcDbVertex
100
AcDbPolyFaceMeshVertex
 10
12.40928554534912
 20
-0.4017057418823243
 30
1.304282188415527
 70
   192
  0
VERTEX
  5
1E5
330
155
100
AcDbEntity
  8
0
100
AcDbVertex
100
AcDbPolyFaceMeshVertex
 10
13.0866093635559
 20
-0.651123046875
 30
1.236645698547363
 70
   192
  0
VERTEX
  5
1E6
330
155
100
AcDbEntity
  8
0
100
AcDbVertex
100
AcDbPolyFaceMeshVertex
 10
10.65264797210693
 20
-14.40494918823242
 30
10.75709417462348
 70
   192
  0
VERTEX
  5
1E7
330
155
100
AcDbEntity
  8
0
100
AcDbVertex
100
AcDbPolyFaceMeshVertex
 10
11.02608776092529
 20
-16.0352840423584
 30
10.5148109793663
 70
   192
  0
VERTEX
  5
1E8
330
155
100
AcDbEntity
  8
0
100
AcDbVertex
100
AcDbPolyFaceMeshVertex
 10
11.47844123840331
 20
-15.44211959838867
 30
9.942013591527938
 70
   192
  0
VERTEX
  5
1E9
330
155
100
AcDbEntity
  8
0
100
AcDbVertex
100
AcDbPolyFaceMeshVertex
 10
11.00698232650756
 20
-14.03830528259277
 30
9.881067693233489
 70
   192
  0
VERTEX
  5
1EA
330
155
100
AcDbEntity
  8
0
100
AcDbVertex
100
AcDbPolyFaceMeshVertex
 10
10.3635663986206
 20
-10.67947578430175
 30
9.861055821180343
 70
   192
  0
VERTEX
  5
1EB
330
155
100
AcDbEntity
  8
0
100
AcDbVertex
100
AcDbPolyFaceMeshVertex
 10
10.59119749069213
 20
-12.77461433410644
 30
9.789837807416915
 70
   192
  0
VERTEX
  5
1EC
330
155
100
AcDbEntity
  8
0
100
AcDbVertex
100
AcDbPolyFaceMeshVertex
 10
10.84924268722534
 20
-12.28587532043457
 30
9.233307361602783
 70
   192
  0
VERTEX
  5
1ED
330
155
100
AcDbEntity
  8
0
100
AcDbVertex
100
AcDbPolyFaceMeshVertex
 10
10.6253023147583
 20
-10.40345382690429
 30
9.233307361602783
 70
   192
  0
VERTEX
  5
1EE
330
155
100
AcDbEntity
  8
0
100
AcDbVertex
100
AcDbPolyFaceMeshVertex
 10
11.25674724578857
 20
-13.58499526977539
 30
9.233307361602783
 70
   192
  0
VERTEX
  5
1EF
330
155
100
AcDbEntity
  8
0
100
AcDbVertex
100
AcDbPolyFaceMeshVertex
 10
11.7323236465454
 20
-14.83604621887207
 30
9.233306884765625
 70
   192
  0
VERTEX
  5
1F0
330
155
100
AcDbEntity
  8
0
100
AcDbVertex
100
AcDbPolyFaceMeshVertex
 10
10.06882095336913
 20
-15.17653465270996
 30
11.53612601757049
 70
   192
  0
VERTEX
  5
1F1
330
155
100
AcDbEntity
  8
0
100
AcDbVertex
100
AcDbPolyFaceMeshVertex
 10
10.2858076095581
 20
-14.88976097106933
 30
11.4495460987091
 70
   192
  0
VERTEX
  5
1F2
330
155
100
AcDbEntity
  8
0
100
AcDbVertex
100
AcDbPolyFaceMeshVertex
 10
9.608190536499021
 20
-10.94734764099121
 30
11.4304392337799
 70
   192
  0
VERTEX
  5
1F3
330
155
100
AcDbEntity
  8
0
100
AcDbVertex
100
AcDbPolyFaceMeshVertex
 10
9.322334289550779
 20
-10.94923782348632
 30
11.5146312713623
 70
   192
  0
VERTEX
  5
1F4
330
155
100
AcDbEntity
  8
0
100
AcDbVertex
100
AcDbPolyFaceMeshVertex
 10
9.222516059875486
 20
-7.111941337585449
 30
11.43119156360626
 70
   192
  0
VERTEX
  5
1F5
330
155
100
AcDbEntity
  8
0
100
AcDbVertex
100
AcDbPolyFaceMeshVertex
 10
9.025825500488279
 20
-7.111941337585449
 30
11.5146312713623
 70
   192
  0
VERTEX
  5
1F6
330
155
100
AcDbEntity
  8
0
100
AcDbVertex
100
AcDbPolyFaceMeshVertex
 10
9.063666343688964
 20
-3.55897045135498
 30
11.43119156360626
 70
   192
  0
VERTEX
  5
1F7
330
155
100
AcDbEntity
  8
0
100
AcDbVertex
100
AcDbPolyFaceMeshVertex
 10
8.866974830627441
 20
-3.55897045135498
 30
11.5146312713623
 70
   192
  0
VERTEX
  5
1F8
330
155
100
AcDbEntity
  8
0
100
AcDbVertex
100
AcDbPolyFaceMeshVertex
 10
8.970884323120117
 20
0.0000009536743164
 30
11.44641017913818
 70
   192
  0
VERTEX
  5
1F9
330
155
100
AcDbEntity
  8
0
100
AcDbVertex
100
AcDbPolyFaceMeshVertex
 10
8.77419090270996
 20
0.0
 30
11.52999854087829
 70
   192
  0
VERTEX
  5
1FA
330
155
100
AcDbEntity
  8
0
100
AcDbVertex
100
AcDbPolyFaceMeshVertex
 10
10.4659776687622
 20
-14.65165138244628
 30
11.27339303493499
 70
   192
  0
VERTEX
  5
1FB
330
155
100
AcDbEntity
  8
0
100
AcDbVertex
100
AcDbPolyFaceMeshVertex
 10
9.846179008483884
 20
-10.94923782348632
 30
11.25914734601974
 70
   192
  0
VERTEX
  5
1FC
330
155
100
AcDbEntity
  8
0
100
AcDbVertex
100
AcDbPolyFaceMeshVertex
 10
9.385837554931638
 20
-7.111941337585449
 30
11.26143014430999
 70
   192
  0
VERTEX
  5
1FD
330
155
100
AcDbEntity
  8
0
100
AcDbVertex
100
AcDbPolyFaceMeshVertex
 10
9.2269868850708
 20
-3.55897045135498
 30
11.26142966747283
 70
   192
  0
VERTEX
  5
1FE
330
155
100
AcDbEntity
  8
0
100
AcDbVertex
100
AcDbPolyFaceMeshVertex
 10
9.134203910827636
 20
0.0000009536743164
 30
11.27634632587432
 70
   192
  0
VERTEX
  5
1FF
330
155
100
AcDbEntity
  8
0
100
AcDbVertex
100
AcDbPolyFaceMeshVertex
 10
10.58841133117675
 20
-14.48984336853027
 30
11.03616964817047
 70
   192
  0
VERTEX
  5
200
330
155
100
AcDbEntity
  8
0
100
AcDbVertex
100
AcDbPolyFaceMeshVertex
 10
10.00800800323486
 20
-10.95113563537597
 30
11.02846908569335
 70
   192
  0
VERTEX
  5
201
330
155
100
AcDbEntity
  8
0
100
AcDbVertex
100
AcDbPolyFaceMeshVertex
 10
9.496818542480466
 20
-7.111941337585449
 30
11.03281182050704
 70
   192
  0
VERTEX
  5
202
330
155
100
AcDbEntity
  8
0
100
AcDbVertex
100
AcDbPolyFaceMeshVertex
 10
9.337967872619628
 20
-3.55897045135498
 30
11.03281182050704
 70
   192
  0
VERTEX
  5
203
330
155
100
AcDbEntity
  8
0
100
AcDbVertex
100
AcDbPolyFaceMeshVertex
 10
9.245184898376464
 20
0.0000009536743164
 30
11.04732739925384
 70
   192
  0
VERTEX
  5
204
330
155
100
AcDbEntity
  8
0
100
AcDbVertex
100
AcDbPolyFaceMeshVertex
 10
10.09239196777343
 20
-10.94923782348632
 30
10.75709417462348
 70
   192
  0
VERTEX
  5
205
330
155
100
AcDbEntity
  8
0
100
AcDbVertex
100
AcDbPolyFaceMeshVertex
 10
9.555047988891599
 20
-7.111941337585449
 30
10.7638611793518
 70
   192
  0
VERTEX
  5
206
330
155
100
AcDbEntity
  8
0
100
AcDbVertex
100
AcDbPolyFaceMeshVertex
 10
9.396197319030761
 20
-3.55897045135498
 30
10.7638611793518
 70
   192
  0
VERTEX
  5
207
330
155
100
AcDbEntity
  8
0
100
AcDbVertex
100
AcDbPolyFaceMeshVertex
 10
9.29985237121582
 20
0.0
 30
10.78614664077758
 70
   192
  0
VERTEX
  5
208
330
155
100
AcDbEntity
  8
0
100
AcDbVertex
100
AcDbPolyFaceMeshVertex
 10
4.467411041259763
 20
-20.30768966674804
 30
11.51738691329956
 70
   192
  0
VERTEX
  5
209
330
155
100
AcDbEntity
  8
0
100
AcDbVertex
100
AcDbPolyFaceMeshVertex
 10
11.20732402801513
 20
-18.74852180480957
 30
11.21062314510345
 70
   192
  0
VERTEX
  5
20A
330
155
100
AcDbEntity
  8
0
100
AcDbVertex
100
AcDbPolyFaceMeshVertex
 10
10.48360157012939
 20
-16.91343688964843
 30
11.53612601757049
 70
   192
  0
VERTEX
  5
20B
330
155
100
AcDbEntity
  8
0
100
AcDbVertex
100
AcDbPolyFaceMeshVertex
 10
0.4650897979736329
 20
-19.62101173400879
 30
11.51738691329956
 70
   192
  0
VERTEX
  5
20C
330
155
100
AcDbEntity
  8
0
100
AcDbVertex
100
AcDbPolyFaceMeshVertex
 10
9.566650390625
 20
0.0
 30
9.881716400384902
 70
   192
  0
VERTEX
  5
20D
330
155
100
AcDbEntity
  8
0
100
AcDbVertex
100
AcDbPolyFaceMeshVertex
 10
9.804612159729003
 20
0.0000009536743164
 30
9.066830515861511
 70
   192
  0
VERTEX
  5
20E
330
155
100
AcDbEntity
  8
0
100
AcDbVertex
100
AcDbPolyFaceMeshVertex
 10
10.16815567016601
 20
0.0000009536743164
 30
7.951668977737426
 70
   192
  0
VERTEX
  5
20F
330
155
100
AcDbEntity
  8
0
100
AcDbVertex
100
AcDbPolyFaceMeshVertex
 10
10.66280794143676
 20
0.0000009536743164
 30
6.022690296173095
 70
   192
  0
VERTEX
  5
210
330
155
100
AcDbEntity
  8
0
100
AcDbVertex
100
AcDbPolyFaceMeshVertex
 10
11.01615858078002
 20
0.0000009536743164
 30
4.441754341125488
 70
   192
  0
VERTEX
  5
211
330
155
100
AcDbEntity
  8
0
100
AcDbVertex
100
AcDbPolyFaceMeshVertex
 10
11.23752450942993
 20
0.0000009536743164
 30
3.255982875823974
 70
   192
  0
VERTEX
  5
212
330
155
100
AcDbEntity
  8
0
100
AcDbVertex
100
AcDbPolyFaceMeshVertex
 10
11.32452726364135
 20
0.0000009536743164
 30
2.649239063262939
 70
   192
  0
VERTEX
  5
213
330
155
100
AcDbEntity
  8
0
100
AcDbVertex
100
AcDbPolyFaceMeshVertex
 10
12.41104984283447
 20
0.0
 30
1.298074722290039
 70
   192
  0
VERTEX
  5
214
330
155
100
AcDbEntity
  8
0
100
AcDbVertex
100
AcDbPolyFaceMeshVertex
 10
11.95197010040283
 20
0.0000009536743164
 30
1.477754592895507
 70
   192
  0
VERTEX
  5
215
330
155
100
AcDbEntity
  8
0
100
AcDbVertex
100
AcDbPolyFaceMeshVertex
 10
13.08947944641113
 20
0.0
 30
1.2303466796875
 70
   192
  0
VERTEX
  5
216
330
155
100
AcDbEntity
  8
0
100
AcDbVertex
100
AcDbPolyFaceMeshVertex
 10
10.67461347579955
 20
-16.84857177734375
 30
11.47901284694671
 70
   192
  0
VERTEX
  5
217
330
155
100
AcDbEntity
  8
0
100
AcDbVertex
100
AcDbPolyFaceMeshVertex
 10
10.83321666717529
 20
-16.79470634460449
 30
11.36281251907348
 70
   192
  0
VERTEX
  5
218
330
155
100
AcDbEntity
  8
0
100
AcDbVertex
100
AcDbPolyFaceMeshVertex
 10
10.94099235534667
 20
-16.75811195373535
 30
11.20632594823837
 70
   192
  0
VERTEX
  5
219
330
155
100
AcDbEntity
  8
0
100
AcDbVertex
100
AcDbPolyFaceMeshVertex
 10
10.9975414276123
 20
-16.73890495300293
 30
11.0222315788269
 70
   192
  0
VERTEX
  5
21A
330
155
100
AcDbEntity
  8
0
100
AcDbVertex
100
AcDbPolyFaceMeshVertex
 10
34.99999618530273
 20
0.0
 30
10.2225107550621
 70
   192
  0
VERTEX
  5
21B
330
155
100
AcDbEntity
  8
0
100
AcDbVertex
100
AcDbPolyFaceMeshVertex
 10
34.99999618530273
 20
0.0000009536743164
 30
10.92328995466232
 70
   192
  0
VERTEX
  5
21C
330
155
100
AcDbEntity
  8
0
100
AcDbVertex
100
AcDbPolyFaceMeshVertex
 10
34.66373825073242
 20
-4.387534141540529
 30
10.91738671064376
 70
   192
  0
VERTEX
  5
21D
330
155
100
AcDbEntity
  8
0
100
AcDbVertex
100
AcDbPolyFaceMeshVertex
 10
34.66373825073242
 20
-4.387534141540529
 30
10.21738485619425
 70
   192
  0
VERTEX
  5
21E
330
155
100
AcDbEntity
  8
0
100
AcDbVertex
100
AcDbPolyFaceMeshVertex
 10
34.9529857635498
 20
0.0
 30
11.15709686279297
 70
   192
  0
VERTEX
  5
21F
330
155
100
AcDbEntity
  8
0
100
AcDbVertex
100
AcDbPolyFaceMeshVertex
 10
34.61714553833008
 20
-4.380298614501954
 30
11.15093398094177
 70
   192
  0
VERTEX
  5
220
330
155
100
AcDbEntity
  8
0
100
AcDbVertex
100
AcDbPolyFaceMeshVertex
 10
34.82477569580078
 20
0.0000009536743164
 30
11.34802460670471
 70
   192
  0
VERTEX
  5
221
330
155
100
AcDbEntity
  8
0
100
AcDbVertex
100
AcDbPolyFaceMeshVertex
 10
34.49008369445801
 20
-4.36056423187256
 30
11.34165048599243
 70
   192
  0
VERTEX
  5
222
330
155
100
AcDbEntity
  8
0
100
AcDbVertex
100
AcDbPolyFaceMeshVertex
 10
34.63461685180664
 20
0.0000009536743164
 30
11.47675228118896
 70
   192
  0
VERTEX
  5
223
330
155
100
AcDbEntity
  8
0
100
AcDbVertex
100
AcDbPolyFaceMeshVertex
 10
34.30162620544433
 20
-4.331293106079103
 30
11.47023618221282
 70
   192
  0
VERTEX
  5
224
330
155
100
AcDbEntity
  8
0
100
AcDbVertex
100
AcDbPolyFaceMeshVertex
 10
33.66789054870605
 20
-8.608865737915039
 30
10.91738718748092
 70
   192
  0
VERTEX
  5
225
330
155
100
AcDbEntity
  8
0
100
AcDbVertex
100
AcDbPolyFaceMeshVertex
 10
33.66789054870605
 20
-8.608865737915039
 30
10.21738679334521
 70
   192
  0
VERTEX
  5
226
330
155
100
AcDbEntity
  8
0
100
AcDbVertex
100
AcDbPolyFaceMeshVertex
 10
33.62302684783935
 20
-8.594354629516601
 30
11.15093493461609
 70
   192
  0
VERTEX
  5
227
330
155
100
AcDbEntity
  8
0
100
AcDbVertex
100
AcDbPolyFaceMeshVertex
 10
33.50068283081054
 20
-8.554786682128906
 30
11.34164953231811
 70
   192
  0
VERTEX
  5
228
330
155
100
AcDbEntity
  8
0
100
AcDbVertex
100
AcDbPolyFaceMeshVertex
 10
33.31922149658203
 20
-8.496095657348632
 30
11.47023570537567
 70
   192
  0
VERTEX
  5
229
330
155
100
AcDbEntity
  8
0
100
AcDbVertex
100
AcDbPolyFaceMeshVertex
 10
32.05071353912353
 20
-12.4992618560791
 30
10.91738671064376
 70
   192
  0
VERTEX
  5
22A
330
155
100
AcDbEntity
  8
0
100
AcDbVertex
100
AcDbPolyFaceMeshVertex
 10
32.05071353912353
 20
-12.49926376342773
 30
10.21738558262586
 70
   192
  0
VERTEX
  5
22B
330
155
100
AcDbEntity
  8
0
100
AcDbVertex
100
AcDbPolyFaceMeshVertex
 10
32.00891399383545
 20
-12.47744750976562
 30
11.15093350410461
 70
   192
  0
VERTEX
  5
22C
330
155
100
AcDbEntity
  8
0
100
AcDbVertex
100
AcDbPolyFaceMeshVertex
 10
31.89491844177246
 20
-12.41795921325683
 30
11.34164953231811
 70
   192
  0
VERTEX
  5
22D
330
155
100
AcDbEntity
  8
0
100
AcDbVertex
100
AcDbPolyFaceMeshVertex
 10
31.72584342956543
 20
-12.32971572875976
 30
11.47023570537567
 70
   192
  0
VERTEX
  5
22E
330
155
100
AcDbEntity
  8
0
100
AcDbVertex
100
AcDbPolyFaceMeshVertex
 10
29.87436580657959
 20
-15.90922546386718
 30
10.91738671064376
 70
   192
  0
VERTEX
  5
22F
330
155
100
AcDbEntity
  8
0
100
AcDbVertex
100
AcDbPolyFaceMeshVertex
 10
29.87436580657959
 20
-15.90922546386718
 30
10.2173860669136
 70
   192
  0
VERTEX
  5
230
330
155
100
AcDbEntity
  8
0
100
AcDbVertex
100
AcDbPolyFaceMeshVertex
 10
29.83721351623535
 20
-15.88019561767578
 30
11.15093398094177
 70
   192
  0
VERTEX
  5
231
330
155
100
AcDbEntity
  8
0
100
AcDbVertex
100
AcDbPolyFaceMeshVertex
 10
29.73588943481445
 20
-15.801025390625
 30
11.34165048599243
 70
   192
  0
VERTEX
  5
232
330
155
100
AcDbEntity
  8
0
100
AcDbVertex
100
AcDbPolyFaceMeshVertex
 10
29.58561038970947
 20
-15.68359947204589
 30
11.47023475170135
 70
   192
  0
VERTEX
  5
233
330
155
100
AcDbEntity
  8
0
100
AcDbVertex
100
AcDbPolyFaceMeshVertex
 10
27.22247886657715
 20
-18.70771026611328
 30
10.91738671064376
 70
   192
  0
VERTEX
  5
234
330
155
100
AcDbEntity
  8
0
100
AcDbVertex
100
AcDbPolyFaceMeshVertex
 10
27.22247505187988
 20
-18.70771026611328
 30
10.21738655120134
 70
   192
  0
VERTEX
  5
235
330
155
100
AcDbEntity
  8
0
100
AcDbVertex
100
AcDbPolyFaceMeshVertex
 10
27.19184398651123
 20
-18.67186737060547
 30
11.15093398094177
 70
   192
  0
VERTEX
  5
236
330
155
100
AcDbEntity
  8
0
100
AcDbVertex
100
AcDbPolyFaceMeshVertex
 10
27.10829639434814
 20
-18.57412147521972
 30
11.34165048599243
 70
   192
  0
VERTEX
  5
237
330
155
100
AcDbEntity
  8
0
100
AcDbVertex
100
AcDbPolyFaceMeshVertex
 10
26.98438739776611
 20
-18.42914199829101
 30
11.47023618221282
 70
   192
  0
VERTEX
  5
238
330
155
100
AcDbEntity
  8
0
100
AcDbVertex
100
AcDbPolyFaceMeshVertex
 10
24.19695711135864
 20
-20.78717231750488
 30
10.91738671064376
 70
   192
  0
VERTEX
  5
239
330
155
100
AcDbEntity
  8
0
100
AcDbVertex
100
AcDbPolyFaceMeshVertex
 10
24.19695711135864
 20
-20.78717231750488
 30
10.21738679334521
 70
   192
  0
VERTEX
  5
23A
330
155
100
AcDbEntity
  8
0
100
AcDbVertex
100
AcDbPolyFaceMeshVertex
 10
24.17489242553711
 20
-20.74550437927246
 30
11.15093398094177
 70
   192
  0
VERTEX
  5
23B
330
155
100
AcDbEntity
  8
0
100
AcDbVertex
100
AcDbPolyFaceMeshVertex
 10
24.11471223831176
 20
-20.63187026977538
 30
11.34165048599243
 70
   192
  0
VERTEX
  5
23C
330
155
100
AcDbEntity
  8
0
100
AcDbVertex
100
AcDbPolyFaceMeshVertex
 10
24.02545595169067
 20
-20.46332740783691
 30
11.47023570537567
 70
   192
  0
VERTEX
  5
23D
330
155
100
AcDbEntity
  8
0
100
AcDbVertex
100
AcDbPolyFaceMeshVertex
 10
20.91407799720764
 20
-22.06769561767578
 30
10.91738671064376
 70
   192
  0
VERTEX
  5
23E
330
155
100
AcDbEntity
  8
0
100
AcDbVertex
100
AcDbPolyFaceMeshVertex
 10
20.91407799720764
 20
-22.06769752502441
 30
10.21738655120134
 70
   192
  0
VERTEX
  5
23F
330
155
100
AcDbEntity
  8
0
100
AcDbVertex
100
AcDbPolyFaceMeshVertex
 10
20.9024634361267
 20
-22.02199935913085
 30
11.15093398094177
 70
   192
  0
VERTEX
  5
240
330
155
100
AcDbEntity
  8
0
100
AcDbVertex
100
AcDbPolyFaceMeshVertex
 10
20.87078118324279
 20
-21.89737701416015
 30
11.34165096282959
 70
   192
  0
VERTEX
  5
241
330
155
100
AcDbEntity
  8
0
100
AcDbVertex
100
AcDbPolyFaceMeshVertex
 10
20.82379269599914
 20
-21.71253967285156
 30
11.47023570537567
 70
   192
  0
VERTEX
  5
242
330
155
100
AcDbEntity
  8
0
100
AcDbVertex
100
AcDbPolyFaceMeshVertex
 10
17.49999713897705
 20
-22.50008010864257
 30
10.91738671064376
 70
   192
  0
VERTEX
  5
243
330
155
100
AcDbEntity
  8
0
100
AcDbVertex
100
AcDbPolyFaceMeshVertex
 10
17.49999713897705
 20
-22.50008010864257
 30
10.21738679334521
 70
   192
  0
VERTEX
  5
244
330
155
100
AcDbEntity
  8
0
100
AcDbVertex
100
AcDbPolyFaceMeshVertex
 10
17.49892020225525
 20
-22.45294189453125
 30
11.15093398094177
 70
   192
  0
VERTEX
  5
245
330
155
100
AcDbEntity
  8
0
100
AcDbVertex
100
AcDbPolyFaceMeshVertex
 10
17.49597561359405
 20
-22.32439041137695
 30
11.34165048599243
 70
   192
  0
VERTEX
  5
246
330
155
100
AcDbEntity
  8
0
100
AcDbVertex
100
AcDbPolyFaceMeshVertex
 10
17.49161100387573
 20
-22.13372421264648
 30
11.47023570537567
 70
   192
  0
VERTEX
  5
247
330
155
100
AcDbEntity
  8
0
100
AcDbVertex
100
AcDbPolyFaceMeshVertex
 10
13.11594104766845
 20
-22.14771461486816
 30
10.91738671064376
 70
   192
  0
VERTEX
  5
248
330
155
100
AcDbEntity
  8
0
100
AcDbVertex
100
AcDbPolyFaceMeshVertex
 10
13.11594104766845
 20
-22.14771461486816
 30
10.21738679334521
 70
   192
  0
VERTEX
  5
249
330
155
100
AcDbEntity
  8
0
100
AcDbVertex
100
AcDbPolyFaceMeshVertex
 10
13.12068223953247
 20
-22.1008014678955
 30
11.15093398094177
 70
   192
  0
VERTEX
  5
24A
330
155
100
AcDbEntity
  8
0
100
AcDbVertex
100
AcDbPolyFaceMeshVertex
 10
13.13360548019409
 20
-21.97286796569824
 30
11.34165048599243
 70
   192
  0
VERTEX
  5
24B
330
155
100
AcDbEntity
  8
0
100
AcDbVertex
100
AcDbPolyFaceMeshVertex
 10
13.15277624130248
 20
-21.78311729431152
 30
11.47023570537567
 70
   192
  0
VERTEX
  5
24C
330
155
100
AcDbEntity
  8
0
100
AcDbVertex
100
AcDbPolyFaceMeshVertex
 10
8.749998092651365
 20
-21.61607551574707
 30
10.91738671064376
 70
   192
  0
VERTEX
  5
24D
330
155
100
AcDbEntity
  8
0
100
AcDbVertex
100
AcDbPolyFaceMeshVertex
 10
8.749998092651365
 20
-21.61607551574707
 30
10.21738703548908
 70
   192
  0
VERTEX
  5
24E
330
155
100
AcDbEntity
  8
0
100
AcDbVertex
100
AcDbPolyFaceMeshVertex
 10
8.756656646728513
 20
-21.56940078735351
 30
11.15093398094177
 70
   192
  0
VERTEX
  5
24F
330
155
100
AcDbEntity
  8
0
100
AcDbVertex
100
AcDbPolyFaceMeshVertex
 10
8.774809837341306
 20
-21.44209861755371
 30
11.34165048599243
 70
   192
  0
VERTEX
  5
250
330
155
100
AcDbEntity
  8
0
100
AcDbVertex
100
AcDbPolyFaceMeshVertex
 10
8.80173587799072
 20
-21.2532958984375
 30
11.47023570537567
 70
   192
  0
VERTEX
  5
251
330
155
100
AcDbEntity
  8
0
100
AcDbVertex
100
AcDbPolyFaceMeshVertex
 10
8.834709167480466
 20
-21.02208709716796
 30
11.51738691329956
 70
   192
  0
VERTEX
  5
252
330
155
100
AcDbEntity
  8
0
100
AcDbVertex
100
AcDbPolyFaceMeshVertex
 10
4.358442306518552
 20
-20.89771270751953
 30
10.91738671064376
 70
   192
  0
VERTEX
  5
253
330
155
100
AcDbEntity
  8
0
100
AcDbVertex
100
AcDbPolyFaceMeshVertex
 10
4.358442306518552
 20
-20.89771270751953
 30
10.21738703548908
 70
   192
  0
VERTEX
  5
254
330
155
100
AcDbEntity
  8
0
100
AcDbVertex
100
AcDbPolyFaceMeshVertex
 10
4.367008209228513
 20
-20.85134696960449
 30
11.15093398094177
 70
   192
  0
VERTEX
  5
255
330
155
100
AcDbEntity
  8
0
100
AcDbVertex
100
AcDbPolyFaceMeshVertex
 10
4.390357971191404
 20
-20.72490119934081
 30
11.34165048599243
 70
   192
  0
VERTEX
  5
256
330
155
100
AcDbEntity
  8
0
100
AcDbVertex
100
AcDbPolyFaceMeshVertex
 10
4.424995422363279
 20
-20.53735542297363
 30
11.47023570537567
 70
   192
  0
VERTEX
  5
257
330
155
100
AcDbEntity
  8
0
100
AcDbVertex
100
AcDbPolyFaceMeshVertex
 10
-0.0000019073486328
 20
-20.00007820129394
 30
10.91738671064376
 70
   192
  0
VERTEX
  5
258
330
155
100
AcDbEntity
  8
0
100
AcDbVertex
100
AcDbPolyFaceMeshVertex
 10
-0.0000019073486328
 20
-20.00007820129394
 30
10.21738655120134
 70
   192
  0
VERTEX
  5
259
330
155
100
AcDbEntity
  8
0
100
AcDbVertex
100
AcDbPolyFaceMeshVertex
 10
0.0365467071533203
 20
-19.97029304504394
 30
11.15093398094177
 70
   192
  0
VERTEX
  5
25A
330
155
100
AcDbEntity
  8
0
100
AcDbVertex
100
AcDbPolyFaceMeshVertex
 10
0.1362190246582031
 20
-19.88905143737793
 30
11.34165048599243
 70
   192
  0
VERTEX
  5
25B
330
155
100
AcDbEntity
  8
0
100
AcDbVertex
100
AcDbPolyFaceMeshVertex
 10
0.2840538024902344
 20
-19.76856040954589
 30
11.47023618221282
 70
   192
  0
VERTEX
  5
25C
330
155
100
AcDbEntity
  8
0
100
AcDbVertex
100
AcDbPolyFaceMeshVertex
 10
0.0
 20
0.0
 30
10.92328941822052
 70
   192
  0
VERTEX
  5
25D
330
155
100
AcDbEntity
  8
0
100
AcDbVertex
100
AcDbPolyFaceMeshVertex
 10
0.0000019073486328
 20
0.0
 30
10.2225107550621
 70
   192
  0
VERTEX
  5
25E
330
155
100
AcDbEntity
  8
0
100
AcDbVertex
100
AcDbPolyFaceMeshVertex
 10
0.0471458435058594
 20
0.0000009536743164
 30
11.15709590911865
 70
   192
  0
VERTEX
  5
25F
330
155
100
AcDbEntity
  8
0
100
AcDbVertex
100
AcDbPolyFaceMeshVertex
 10
0.1757354736328125
 20
0.0000009536743164
 30
11.34802460670471
 70
   192
  0
VERTEX
  5
260
330
155
100
AcDbEntity
  8
0
100
AcDbVertex
100
AcDbPolyFaceMeshVertex
 10
0.3664512634277344
 20
0.0000009536743164
 30
11.47675323486328
 70
   192
  0
VERTEX
  5
261
330
155
100
AcDbEntity
  8
0
100
AcDbVertex
100
AcDbPolyFaceMeshVertex
 10
0.599996566772461
 20
0.0000009536743164
 30
11.52395629882812
 70
   192
  0
VERTEX
  5
262
330
155
100
AcDbEntity
  8
0
100
AcDbVertex
100
AcDbPolyFaceMeshVertex
 10
11.56103229522705
 20
0.0000009536743164
 30
1.891764640808105
 70
   192
  0
VERTEX
  5
263
330
155
100
AcDbEntity
  8
0
100
AcDbVertex
100
AcDbPolyFaceMeshVertex
 10
11.95394802093505
 20
0.0000009536743164
 30
1.474292755126953
 70
   192
  0
VERTEX
  5
264
330
155
100
AcDbEntity
  8
0
100
AcDbVertex
100
AcDbPolyFaceMeshVertex
 10
18.57857081294059
 20
0.0000009536743164
 30
-0.0000009536743164
 70
   192
  0
VERTEX
  5
265
330
155
100
AcDbEntity
  8
0
100
AcDbVertex
100
AcDbPolyFaceMeshVertex
 10
21.87542629241943
 20
0.0000009536743164
 30
0.5432844161987305
 70
   192
  0
VERTEX
  5
266
330
155
100
AcDbEntity
  8
0
100
AcDbVertex
100
AcDbPolyFaceMeshVertex
 10
21.74142861366271
 20
-2.704865455627441
 30
0.5471525192260743
 70
   192
  0
VERTEX
  5
267
330
155
100
AcDbEntity
  8
0
100
AcDbVertex
100
AcDbPolyFaceMeshVertex
 10
18.39996931701898
 20
-2.600618362426757
 30
0.0062398910522461
 70
   192
  0
VERTEX
  5
268
330
155
100
AcDbEntity
  8
0
100
AcDbVertex
100
AcDbPolyFaceMeshVertex
 10
25.01721525192261
 20
0.0000009536743164
 30
1.549500465393066
 70
   192
  0
VERTEX
  5
269
330
155
100
AcDbEntity
  8
0
100
AcDbVertex
100
AcDbPolyFaceMeshVertex
 10
24.83360242843628
 20
-3.044926643371582
 30
1.549243927001953
 70
   192
  0
VERTEX
  5
26A
330
155
100
AcDbEntity
  8
0
100
AcDbVertex
100
AcDbPolyFaceMeshVertex
 10
27.94046211242676
 20
-0.0000009536743164
 30
2.998313426971435
 70
   192
  0
VERTEX
  5
26B
330
155
100
AcDbEntity
  8
0
100
AcDbVertex
100
AcDbPolyFaceMeshVertex
 10
27.66297531127929
 20
-3.502374649047851
 30
2.992552757263183
 70
   192
  0
VERTEX
  5
26C
330
155
100
AcDbEntity
  8
0
100
AcDbVertex
100
AcDbPolyFaceMeshVertex
 10
31.62405014038085
 20
-0.0000009536743164
 30
5.603691101074218
 70
   192
  0
VERTEX
  5
26D
330
155
100
AcDbEntity
  8
0
100
AcDbVertex
100
AcDbPolyFaceMeshVertex
 10
31.23773765563965
 20
-3.96667194366455
 30
5.591769218444824
 70
   192
  0
VERTEX
  5
26E
330
155
100
AcDbEntity
  8
0
100
AcDbVertex
100
AcDbPolyFaceMeshVertex
 10
33.86583709716797
 20
0.0
 30
8.092695236206054
 70
   192
  0
VERTEX
  5
26F
330
155
100
AcDbEntity
  8
0
100
AcDbVertex
100
AcDbPolyFaceMeshVertex
 10
33.44761657714844
 20
-4.29809856414795
 30
8.075799703598022
 70
   192
  0
VERTEX
  5
270
330
155
100
AcDbEntity
  8
0
100
AcDbVertex
100
AcDbPolyFaceMeshVertex
 10
21.10914945602416
 20
-5.372208595275878
 30
0.5451698303222657
 70
   192
  0
VERTEX
  5
271
330
155
100
AcDbEntity
  8
0
100
AcDbVertex
100
AcDbPolyFaceMeshVertex
 10
17.87103164196014
 20
-5.103399276733398
 30
0.0062389373779297
 70
   192
  0
VERTEX
  5
272
330
155
100
AcDbEntity
  8
0
100
AcDbVertex
100
AcDbPolyFaceMeshVertex
 10
24.10048818588256
 20
-6.036540031433105
 30
1.547446250915527
 70
   192
  0
VERTEX
  5
273
330
155
100
AcDbEntity
  8
0
100
AcDbVertex
100
AcDbPolyFaceMeshVertex
 10
26.83817291259765
 20
-6.896451950073242
 30
2.990967750549316
 70
   192
  0
VERTEX
  5
274
330
155
100
AcDbEntity
  8
0
100
AcDbVertex
100
AcDbPolyFaceMeshVertex
 10
30.2799072265625
 20
-7.783397674560546
 30
5.590395927429199
 70
   192
  0
VERTEX
  5
275
330
155
100
AcDbEntity
  8
0
100
AcDbVertex
100
AcDbPolyFaceMeshVertex
 10
32.437912940979
 20
-8.415229797363281
 30
8.074612379074096
 70
   192
  0
VERTEX
  5
276
330
155
100
AcDbEntity
  8
0
100
AcDbVertex
100
AcDbPolyFaceMeshVertex
 10
20.02554214000701
 20
-7.884364128112792
 30
0.5420970916748047
 70
   192
  0
VERTEX
  5
277
330
155
100
AcDbEntity
  8
0
100
AcDbVertex
100
AcDbPolyFaceMeshVertex
 10
17.01207971572876
 20
-7.409972190856933
 30
0.0062379837036133
 70
   192
  0
VERTEX
  5
278
330
155
100
AcDbEntity
  8
0
100
AcDbVertex
100
AcDbPolyFaceMeshVertex
 10
22.86768722534179
 20
-8.844692230224609
 30
1.544669151306152
 70
   192
  0
VERTEX
  5
279
330
155
100
AcDbEntity
  8
0
100
AcDbVertex
100
AcDbPolyFaceMeshVertex
 10
25.50582790374756
 20
-10.04330444335937
 30
2.98857307434082
 70
   192
  0
VERTEX
  5
27A
330
155
100
AcDbEntity
  8
0
100
AcDbVertex
100
AcDbPolyFaceMeshVertex
 10
28.78557395935058
 20
-11.29945373535156
 30
5.58838415145874
 70
   192
  0
VERTEX
  5
27B
330
155
100
AcDbEntity
  8
0
100
AcDbVertex
100
AcDbPolyFaceMeshVertex
 10
30.8683443069458
 20
-12.19123268127441
 30
8.072896003723144
 70
   192
  0
VERTEX
  5
27C
330
155
100
AcDbEntity
  8
0
100
AcDbVertex
100
AcDbPolyFaceMeshVertex
 10
18.5507144741714
 20
-10.13543510437011
 30
0.5382089614868164
 70
   192
  0
VERTEX
  5
27D
330
155
100
AcDbEntity
  8
0
100
AcDbVertex
100
AcDbPolyFaceMeshVertex
 10
15.85612845420837
 20
-9.431703567504882
 30
0.0062379837036133
 70
   192
  0
VERTEX
  5
27E
330
155
100
AcDbEntity
  8
0
100
AcDbVertex
100
AcDbPolyFaceMeshVertex
 10
21.19930577278137
 20
-11.35305404663085
 30
1.541157722473144
 70
   192
  0
VERTEX
  5
27F
330
155
100
AcDbEntity
  8
0
100
AcDbVertex
100
AcDbPolyFaceMeshVertex
 10
23.72149372100829
 20
-12.81978797912597
 30
2.985570430755615
 70
   192
  0
VERTEX
  5
280
330
155
100
AcDbEntity
  8
0
100
AcDbVertex
100
AcDbPolyFaceMeshVertex
 10
26.80701255798339
 20
-14.38227653503417
 30
5.585893154144287
 70
   192
  0
VERTEX
  5
281
330
155
100
AcDbEntity
  8
0
100
AcDbVertex
100
AcDbPolyFaceMeshVertex
 10
28.78893756866455
 20
-15.48615264892578
 30
8.070780515670776
 70
   192
  0
VERTEX
  5
282
330
155
100
AcDbEntity
  8
0
100
AcDbVertex
100
AcDbPolyFaceMeshVertex
 10
16.75692188739776
 20
-12.03102874755859
 30
0.533773422241211
 70
   192
  0
VERTEX
  5
283
330
155
100
AcDbEntity
  8
0
100
AcDbVertex
100
AcDbPolyFaceMeshVertex
 10
14.44759607315063
 20
-11.09089660644531
 30
0.0062398910522461
 70
   192
  0
VERTEX
  5
284
330
155
100
AcDbEntity
  8
0
100
AcDbVertex
100
AcDbPolyFaceMeshVertex
 10
19.17346715927124
 20
-13.45817947387695
 30
1.537156105041503
 70
   192
  0
VERTEX
  5
285
330
155
100
AcDbEntity
  8
0
100
AcDbVertex
100
AcDbPolyFaceMeshVertex
 10
21.55716276168823
 20
-15.1174373626709
 30
2.982165813446044
 70
   192
  0
VERTEX
  5
286
330
155
100
AcDbEntity
  8
0
100
AcDbVertex
100
AcDbPolyFaceMeshVertex
 10
24.41536235809326
 20
-16.91583251953125
 30
5.583081722259521
 70
   192
  0
VERTEX
  5
287
330
155
100
AcDbEntity
  8
0
100
AcDbVertex
100
AcDbPolyFaceMeshVertex
 10
26.27044868469238
 20
-18.17794799804687
 30
8.068403720855712
 70
   192
  0
VERTEX
  5
288
330
155
100
AcDbEntity
  8
0
100
AcDbVertex
100
AcDbPolyFaceMeshVertex
 10
14.72677111625671
 20
-13.49139022827148
 30
0.5290679931640625
 70
   192
  0
VERTEX
  5
289
330
155
100
AcDbEntity
  8
0
100
AcDbVertex
100
AcDbPolyFaceMeshVertex
 10
12.84061384201049
 20
-12.32378387451172
 30
0.0062379837036133
 70
   192
  0
VERTEX
  5
28A
330
155
100
AcDbEntity
  8
0
100
AcDbVertex
100
AcDbPolyFaceMeshVertex
 10
16.8802238702774
 20
-15.07302856445312
 30
1.532910346984863
 70
   192
  0
VERTEX
  5
28B
330
155
100
AcDbEntity
  8
0
100
AcDbVertex
100
AcDbPolyFaceMeshVertex
 10
19.09882634878158
 20
-16.84650611877441
 30
2.978556632995605
 70
   192
  0
VERTEX
  5
28C
330
155
100
AcDbEntity
  8
0
100
AcDbVertex
100
AcDbPolyFaceMeshVertex
 10
21.69782662391662
 20
-18.80508422851562
 30
5.580109596252441
 70
   192
  0
VERTEX
  5
28D
330
155
100
AcDbEntity
  8
0
100
AcDbVertex
100
AcDbPolyFaceMeshVertex
 10
23.40127897262573
 20
-20.16736221313476
 30
8.065891742706298
 70
   192
  0
VERTEX
  5
28E
330
155
100
AcDbEntity
  8
0
100
AcDbVertex
100
AcDbPolyFaceMeshVertex
 10
12.55098485946655
 20
-14.4539680480957
 30
0.5243616104125977
 70
   192
  0
VERTEX
  5
28F
330
155
100
AcDbEntity
  8
0
100
AcDbVertex
100
AcDbPolyFaceMeshVertex
 10
11.09693479537963
 20
-13.0829906463623
 30
0.0062379837036133
 70
   192
  0
VERTEX
  5
290
330
155
100
AcDbEntity
  8
0
100
AcDbVertex
100
AcDbPolyFaceMeshVertex
 10
14.41900205612182
 20
-16.1298656463623
 30
1.528662681579589
 70
   192
  0
VERTEX
  5
291
330
155
100
AcDbEntity
  8
0
100
AcDbVertex
100
AcDbPolyFaceMeshVertex
 10
16.44346189498901
 20
-17.93927001953125
 30
2.974947452545166
 70
   192
  0
VERTEX
  5
292
330
155
100
AcDbEntity
  8
0
100
AcDbVertex
100
AcDbPolyFaceMeshVertex
 10
18.75421369075775
 20
-19.9797248840332
 30
5.577138423919677
 70
   192
  0
VERTEX
  5
293
330
155
100
AcDbEntity
  8
0
100
AcDbVertex
100
AcDbPolyFaceMeshVertex
 10
20.28368818759918
 20
-21.38192749023437
 30
8.063380241394042
 70
   192
  0
VERTEX
  5
294
330
155
100
AcDbEntity
  8
0
100
AcDbVertex
100
AcDbPolyFaceMeshVertex
 10
10.32589054107665
 20
-14.87537384033203
 30
0.5199260711669922
 70
   192
  0
VERTEX
  5
295
330
155
100
AcDbEntity
  8
0
100
AcDbVertex
100
AcDbPolyFaceMeshVertex
 10
9.283570289611814
 20
-13.3393440246582
 30
0.0062389373779297
 70
   192
  0
VERTEX
  5
296
330
155
100
AcDbEntity
  8
0
100
AcDbVertex
100
AcDbPolyFaceMeshVertex
 10
11.89568042755126
 20
-16.58241462707519
 30
1.524662971496582
 70
   192
  0
VERTEX
  5
297
330
155
100
AcDbEntity
  8
0
100
AcDbVertex
100
AcDbPolyFaceMeshVertex
 10
13.69561862945556
 20
-18.35244941711425
 30
2.971541404724121
 70
   192
  0
VERTEX
  5
298
330
155
100
AcDbEntity
  8
0
100
AcDbVertex
100
AcDbPolyFaceMeshVertex
 10
15.69302225112914
 20
-20.39690971374511
 30
5.574326992034912
 70
   192
  0
VERTEX
  5
299
330
155
100
AcDbEntity
  8
0
100
AcDbVertex
100
AcDbPolyFaceMeshVertex
 10
17.02947926521301
 20
-21.77897453308105
 30
8.061002492904663
 70
   192
  0
VERTEX
  5
29A
330
155
100
AcDbEntity
  8
0
100
AcDbVertex
100
AcDbPolyFaceMeshVertex
 10
7.601779937744138
 20
-14.78234481811523
 30
0.5160379409790039
 70
   192
  0
VERTEX
  5
29B
330
155
100
AcDbEntity
  8
0
100
AcDbVertex
100
AcDbPolyFaceMeshVertex
 10
6.955009460449216
 20
-13.13043022155761
 30
0.0062389373779297
 70
   192
  0
VERTEX
  5
29C
330
155
100
AcDbEntity
  8
0
100
AcDbVertex
100
AcDbPolyFaceMeshVertex
 10
8.78633117675781
 20
-16.46302986145019
 30
1.521149635314941
 70
   192
  0
VERTEX
  5
29D
330
155
100
AcDbEntity
  8
0
100
AcDbVertex
100
AcDbPolyFaceMeshVertex
 10
10.22112751007079
 20
-18.1324405670166
 30
2.968539714813232
 70
   192
  0
VERTEX
  5
29E
330
155
100
AcDbEntity
  8
0
100
AcDbVertex
100
AcDbPolyFaceMeshVertex
 10
11.77511119842529
 20
-20.11451148986816
 30
5.5718355178833
 70
   192
  0
VERTEX
  5
29F
330
155
100
AcDbEntity
  8
0
100
AcDbVertex
100
AcDbPolyFaceMeshVertex
 10
12.81903886795043
 20
-21.4250259399414
 30
8.05888819694519
 70
   192
  0
VERTEX
  5
2A0
330
155
100
AcDbEntity
  8
0
100
AcDbVertex
100
AcDbPolyFaceMeshVertex
 10
4.962718963623045
 20
-14.53937530517578
 30
0.5129642486572266
 70
   192
  0
VERTEX
  5
2A1
330
155
100
AcDbEntity
  8
0
100
AcDbVertex
100
AcDbPolyFaceMeshVertex
 10
4.636071205139158
 20
-12.81523323059082
 30
0.0062379837036133
 70
   192
  0
VERTEX
  5
2A2
330
155
100
AcDbEntity
  8
0
100
AcDbVertex
100
AcDbPolyFaceMeshVertex
 10
5.759417533874509
 20
-16.18267822265625
 30
1.518374443054199
 70
   192
  0
VERTEX
  5
2A3
330
155
100
AcDbEntity
  8
0
100
AcDbVertex
100
AcDbPolyFaceMeshVertex
 10
6.78440475463867
 20
-17.75739479064941
 30
2.966145515441894
 70
   192
  0
VERTEX
  5
2A4
330
155
100
AcDbEntity
  8
0
100
AcDbVertex
100
AcDbPolyFaceMeshVertex
 10
7.866139411926267
 20
-19.67526054382324
 30
5.569823741912841
 70
   192
  0
VERTEX
  5
2A5
330
155
100
AcDbEntity
  8
0
100
AcDbVertex
100
AcDbPolyFaceMeshVertex
 10
8.596168518066404
 20
-20.91234397888183
 30
8.057171821594238
 70
   192
  0
VERTEX
  5
2A6
330
155
100
AcDbEntity
  8
0
100
AcDbVertex
100
AcDbPolyFaceMeshVertex
 10
2.408905029296875
 20
-14.12906074523925
 30
0.5109834671020508
 70
   192
  0
VERTEX
  5
2A7
330
155
100
AcDbEntity
  8
0
100
AcDbVertex
100
AcDbPolyFaceMeshVertex
 10
2.303531646728515
 20
-12.38932037353515
 30
0.0062398910522461
 70
   192
  0
VERTEX
  5
2A8
330
155
100
AcDbEntity
  8
0
100
AcDbVertex
100
AcDbPolyFaceMeshVertex
 10
2.809929847717283
 20
-15.7242259979248
 30
1.516573905944824
 70
   192
  0
VERTEX
  5
2A9
330
155
100
AcDbEntity
  8
0
100
AcDbVertex
100
AcDbPolyFaceMeshVertex
 10
3.359943389892576
 20
-17.2172737121582
 30
2.964560031890869
 70
   192
  0
VERTEX
  5
2AA
330
155
100
AcDbEntity
  8
0
100
AcDbVertex
100
AcDbPolyFaceMeshVertex
 10
3.925368309020994
 20
-19.07366943359375
 30
5.568451404571533
 70
   192
  0
VERTEX
  5
2AB
330
155
100
AcDbEntity
  8
0
100
AcDbVertex
100
AcDbPolyFaceMeshVertex
 10
4.308687210083006
 20
-20.23874473571777
 30
8.055984258651733
 70
   192
  0
VERTEX
  5
2AC
330
155
100
AcDbEntity
  8
0
100
AcDbVertex
100
AcDbPolyFaceMeshVertex
 10
-0.0012645721435547
 20
-13.54084968566894
 30
0.5103607177734375
 70
   192
  0
VERTEX
  5
2AD
330
155
100
AcDbEntity
  8
0
100
AcDbVertex
100
AcDbPolyFaceMeshVertex
 10
-0.0114269256591797
 20
-11.85712242126464
 30
0.0062398910522461
 70
   192
  0
VERTEX
  5
2AE
330
155
100
AcDbEntity
  8
0
100
AcDbVertex
100
AcDbPolyFaceMeshVertex
 10
0.0006160736083984
 20
-15.07236862182617
 30
1.516002655029296
 70
   192
  0
VERTEX
  5
2AF
330
155
100
AcDbEntity
  8
0
100
AcDbVertex
100
AcDbPolyFaceMeshVertex
 10
0.0023612976074219
 20
-16.49735832214355
 30
2.96398639678955
 70
   192
  0
VERTEX
  5
2B0
330
155
100
AcDbEntity
  8
0
100
AcDbVertex
100
AcDbPolyFaceMeshVertex
 10
0.0045661926269531
 20
-18.29298782348632
 30
5.567879199981689
 70
   192
  0
VERTEX
  5
2B1
330
155
100
AcDbEntity
  8
0
100
AcDbVertex
100
AcDbPolyFaceMeshVertex
 10
0.0064411163330078
 20
-19.38578605651855
 30
8.055459737777709
 70
   192
  0
VERTEX
  5
2B2
330
155
100
AcDbEntity
  8
0
100
AcDbVertex
100
AcDbPolyFaceMeshVertex
 10
0.0000019073486328
 20
0.0000009536743164
 30
0.0
 70
   192
  0
VERTEX
  5
2B3
330
155
100
AcDbEntity
  8
0
100
AcDbVertex
100
AcDbPolyFaceMeshVertex
 10
11.85233116149902
 20
17.39161872863769
 30
10.49285350739955
 70
   192
  0
VERTEX
  5
2B4
330
155
100
AcDbEntity
  8
0
100
AcDbVertex
100
AcDbPolyFaceMeshVertex
 10
12.18619918823242
 20
16.6664867401123
 30
9.955762267112731
 70
   192
  0
VERTEX
  5
2B5
330
155
100
AcDbEntity
  8
0
100
AcDbVertex
100
AcDbPolyFaceMeshVertex
 10
15.34226989746093
 20
17.28049564361572
 30
10.51231089234352
 70
   192
  0
VERTEX
  5
2B6
330
155
100
AcDbEntity
  8
0
100
AcDbVertex
100
AcDbPolyFaceMeshVertex
 10
15.21040177345275
 20
18.16580963134765
 30
11.22235357761383
 70
   192
  0
VERTEX
  5
2B7
330
155
100
AcDbEntity
  8
0
100
AcDbVertex
100
AcDbPolyFaceMeshVertex
 10
12.42518091201782
 20
16.13157749176025
 30
9.233307361602783
 70
   192
  0
VERTEX
  5
2B8
330
155
100
AcDbEntity
  8
0
100
AcDbVertex
100
AcDbPolyFaceMeshVertex
 10
15.44768929481506
 20
16.67401313781738
 30
9.981518924236297
 70
   192
  0
VERTEX
  5
2B9
330
155
100
AcDbEntity
  8
0
100
AcDbVertex
100
AcDbPolyFaceMeshVertex
 10
13.48275899887084
 20
14.40930461883545
 30
7.772497177124023
 70
   192
  0
VERTEX
  5
2BA
330
155
100
AcDbEntity
  8
0
100
AcDbVertex
100
AcDbPolyFaceMeshVertex
 10
13.57691192626953
 20
12.35096931457519
 30
5.561852931976318
 70
   192
  0
VERTEX
  5
2BB
330
155
100
AcDbEntity
  8
0
100
AcDbVertex
100
AcDbPolyFaceMeshVertex
 10
15.14707088470458
 20
12.80397844314575
 30
5.561852931976318
 70
   192
  0
VERTEX
  5
2BC
330
155
100
AcDbEntity
  8
0
100
AcDbVertex
100
AcDbPolyFaceMeshVertex
 10
15.40356349945068
 20
14.92128133773803
 30
7.772497177124023
 70
   192
  0
VERTEX
  5
2BD
330
155
100
AcDbEntity
  8
0
100
AcDbVertex
100
AcDbPolyFaceMeshVertex
 10
13.50611877441406
 20
9.975276947021484
 30
3.495234012603759
 70
   192
  0
VERTEX
  5
2BE
330
155
100
AcDbEntity
  8
0
100
AcDbVertex
100
AcDbPolyFaceMeshVertex
 10
14.69466829299926
 20
10.3716344833374
 30
3.495407581329345
 70
   192
  0
VERTEX
  5
2BF
330
155
100
AcDbEntity
  8
0
100
AcDbVertex
100
AcDbPolyFaceMeshVertex
 10
13.38833427429199
 20
7.21478658914566
 30
2.081152915954589
 70
   192
  0
VERTEX
  5
2C0
330
155
100
AcDbEntity
  8
0
100
AcDbVertex
100
AcDbPolyFaceMeshVertex
 10
14.20763492584228
 20
7.589586377143859
 30
2.081382751464843
 70
   192
  0
VERTEX
  5
2C1
330
155
100
AcDbEntity
  8
0
100
AcDbVertex
100
AcDbPolyFaceMeshVertex
 10
13.29303216934204
 20
4.002521514892578
 30
1.324994087219238
 70
   192
  0
VERTEX
  5
2C2
330
155
100
AcDbEntity
  8
0
100
AcDbVertex
100
AcDbPolyFaceMeshVertex
 10
13.79452085494995
 20
4.421143054962158
 30
1.325269699096679
 70
   192
  0
VERTEX
  5
2C3
330
155
100
AcDbEntity
  8
0
100
AcDbVertex
100
AcDbPolyFaceMeshVertex
 10
13.29946422576904
 20
1.236212730407714
 30
1.236645698547363
 70
   192
  0
VERTEX
  5
2C4
330
155
100
AcDbEntity
  8
0
100
AcDbVertex
100
AcDbPolyFaceMeshVertex
 10
13.62962484359741
 20
1.731923580169677
 30
1.236646652221679
 70
   192
  0
VERTEX
  5
2C5
330
155
100
AcDbEntity
  8
0
100
AcDbVertex
100
AcDbPolyFaceMeshVertex
 10
13.17625188827514
 20
21.5507526397705
 30
11.51738691329956
 70
   192
  0
VERTEX
  5
2C6
330
155
100
AcDbEntity
  8
0
100
AcDbVertex
100
AcDbPolyFaceMeshVertex
 10
17.74087870121002
 20
18.50008392333984
 30
11.22235405445098
 70
   192
  0
VERTEX
  5
2C7
330
155
100
AcDbEntity
  8
0
100
AcDbVertex
100
AcDbPolyFaceMeshVertex
 10
17.48626542091369
 20
21.90023708343506
 30
11.5173864364624
 70
   192
  0
VERTEX
  5
2C8
330
155
100
AcDbEntity
  8
0
100
AcDbVertex
100
AcDbPolyFaceMeshVertex
 10
17.72192496061325
 20
17.61997509002685
 30
10.51226632297039
 70
   192
  0
VERTEX
  5
2C9
330
155
100
AcDbEntity
  8
0
100
AcDbVertex
100
AcDbPolyFaceMeshVertex
 10
17.72824192047119
 20
16.98154926300048
 30
9.981519401073455
 70
   192
  0
VERTEX
  5
2CA
330
155
100
AcDbEntity
  8
0
100
AcDbVertex
100
AcDbPolyFaceMeshVertex
 10
15.49530267715454
 20
16.15345382690429
 30
9.233307361602783
 70
   192
  0
VERTEX
  5
2CB
330
155
100
AcDbEntity
  8
0
100
AcDbVertex
100
AcDbPolyFaceMeshVertex
 10
17.69674527645111
 20
16.43000125885009
 30
9.233331799507141
 70
   192
  0
VERTEX
  5
2CC
330
155
100
AcDbEntity
  8
0
100
AcDbVertex
100
AcDbPolyFaceMeshVertex
 10
17.41000890731811
 20
15.11579465866089
 30
7.772497415542602
 70
   192
  0
VERTEX
  5
2CD
330
155
100
AcDbEntity
  8
0
100
AcDbVertex
100
AcDbPolyFaceMeshVertex
 10
16.85116076469421
 20
12.93333101272583
 30
5.561852931976318
 70
   192
  0
VERTEX
  5
2CE
330
155
100
AcDbEntity
  8
0
100
AcDbVertex
100
AcDbPolyFaceMeshVertex
 10
16.07159399986267
 20
10.44282793998718
 30
3.495686531066894
 70
   192
  0
VERTEX
  5
2CF
330
155
100
AcDbEntity
  8
0
100
AcDbVertex
100
AcDbPolyFaceMeshVertex
 10
15.24359989166259
 20
7.663639992475509
 30
2.081748962402343
 70
   192
  0
VERTEX
  5
2D0
330
155
100
AcDbEntity
  8
0
100
AcDbVertex
100
AcDbPolyFaceMeshVertex
 10
14.48375272750854
 20
4.612642049789428
 30
1.325701713562011
 70
   192
  0
VERTEX
  5
2D1
330
155
100
AcDbEntity
  8
0
100
AcDbVertex
100
AcDbPolyFaceMeshVertex
 10
14.05696487426757
 20
2.114905834197998
 30
1.236646652221679
 70
   192
  0
VERTEX
  5
2D2
330
155
100
AcDbEntity
  8
0
100
AcDbVertex
100
AcDbPolyFaceMeshVertex
 10
20.14063680171966
 20
18.18371200561523
 30
11.22235357761383
 70
   192
  0
VERTEX
  5
2D3
330
155
100
AcDbEntity
  8
0
100
AcDbVertex
100
AcDbPolyFaceMeshVertex
 10
20.76625084877014
 20
21.48619079589843
 30
11.51738691329956
 70
   192
  0
VERTEX
  5
2D4
330
155
100
AcDbEntity
  8
0
100
AcDbVertex
100
AcDbPolyFaceMeshVertex
 10
19.98644268512725
 20
17.32328033447265
 30
10.51222175359725
 70
   192
  0
VERTEX
  5
2D5
330
155
100
AcDbEntity
  8
0
100
AcDbVertex
100
AcDbPolyFaceMeshVertex
 10
19.89098536968231
 20
16.69048118591308
 30
9.981518924236297
 70
   192
  0
VERTEX
  5
2D6
330
155
100
AcDbEntity
  8
0
100
AcDbVertex
100
AcDbPolyFaceMeshVertex
 10
19.78391444683074
 20
16.1376028060913
 30
9.233356714248657
 70
   192
  0
VERTEX
  5
2D7
330
155
100
AcDbEntity
  8
0
100
AcDbVertex
100
AcDbPolyFaceMeshVertex
 10
19.34949904680252
 20
14.77979373931884
 30
7.772604703903198
 70
   192
  0
VERTEX
  5
2D8
330
155
100
AcDbEntity
  8
0
100
AcDbVertex
100
AcDbPolyFaceMeshVertex
 10
18.55439205840229
 20
12.58837127685547
 30
5.562078475952148
 70
   192
  0
VERTEX
  5
2D9
330
155
100
AcDbEntity
  8
0
100
AcDbVertex
100
AcDbPolyFaceMeshVertex
 10
17.52499896287918
 20
10.10435056686401
 30
3.49603796005249
 70
   192
  0
VERTEX
  5
2DA
330
155
100
AcDbEntity
  8
0
100
AcDbVertex
100
AcDbPolyFaceMeshVertex
 10
16.40886497497558
 20
7.405939638614654
 30
2.08221435546875
 70
   192
  0
VERTEX
  5
2DB
330
155
100
AcDbEntity
  8
0
100
AcDbVertex
100
AcDbPolyFaceMeshVertex
 10
15.30547738075256
 20
4.569211721420288
 30
1.326244354248046
 70
   192
  0
VERTEX
  5
2DC
330
155
100
AcDbEntity
  8
0
100
AcDbVertex
100
AcDbPolyFaceMeshVertex
 10
14.56135702133178
 20
2.361816883087158
 30
1.236645698547363
 70
   192
  0
VERTEX
  5
2DD
330
155
100
AcDbEntity
  8
0
100
AcDbVertex
100
AcDbPolyFaceMeshVertex
 10
22.4873948097229
 20
17.23082065582275
 30
11.22235357761383
 70
   192
  0
VERTEX
  5
2DE
330
155
100
AcDbEntity
  8
0
100
AcDbVertex
100
AcDbPolyFaceMeshVertex
 10
23.91615438461303
 20
20.25693798065185
 30
11.51738691329956
 70
   192
  0
VERTEX
  5
2DF
330
155
100
AcDbEntity
  8
0
100
AcDbVertex
100
AcDbPolyFaceMeshVertex
 10
22.20604944229126
 20
16.40858364105224
 30
10.5121788829565
 70
   192
  0
VERTEX
  5
2E0
330
155
100
AcDbEntity
  8
0
100
AcDbVertex
100
AcDbPolyFaceMeshVertex
 10
22.00596284866333
 20
15.81379461288452
 30
9.981519401073455
 70
   192
  0
VERTEX
  5
2E1
330
155
100
AcDbEntity
  8
0
100
AcDbVertex
100
AcDbPolyFaceMeshVertex
 10
21.82476472854614
 20
15.28560590744018
 30
9.233383893966674
 70
   192
  0
VERTEX
  5
2E2
330
155
100
AcDbEntity
  8
0
100
AcDbVertex
100
AcDbPolyFaceMeshVertex
 10
21.27042055130004
 20
13.92858028411865
 30
7.772724390029907
 70
   192
  0
VERTEX
  5
2E3
330
155
100
AcDbEntity
  8
0
100
AcDbVertex
100
AcDbPolyFaceMeshVertex
 10
20.27687072753906
 20
11.79100918769836
 30
5.562329769134521
 70
   192
  0
VERTEX
  5
2E4
330
155
100
AcDbEntity
  8
0
100
AcDbVertex
100
AcDbPolyFaceMeshVertex
 10
19.03979897499084
 20
9.383776307106018
 30
3.49643325805664
 70
   192
  0
VERTEX
  5
2E5
330
155
100
AcDbEntity
  8
0
100
AcDbVertex
100
AcDbPolyFaceMeshVertex
 10
17.66482716798782
 20
6.841933369636535
 30
2.082738876342773
 70
   192
  0
VERTEX
  5
2E6
330
155
100
AcDbEntity
  8
0
100
AcDbVertex
100
AcDbPolyFaceMeshVertex
 10
16.21806955337524
 20
4.298808574676513
 30
1.326854705810546
 70
   192
  0
VERTEX
  5
2E7
330
155
100
AcDbEntity
  8
0
100
AcDbVertex
100
AcDbPolyFaceMeshVertex
 10
15.12267518043518
 20
2.449307918548583
 30
1.236646652221679
 70
   192
  0
VERTEX
  5
2E8
330
155
100
AcDbEntity
  8
0
100
AcDbVertex
100
AcDbPolyFaceMeshVertex
 10
24.70708656311035
 20
15.64268493652343
 30
11.22235405445098
 70
   192
  0
VERTEX
  5
2E9
330
155
100
AcDbEntity
  8
0
100
AcDbVertex
100
AcDbPolyFaceMeshVertex
 10
26.83264064788818
 20
18.25160884857177
 30
11.51738786697387
 70
   192
  0
VERTEX
  5
2EA
330
155
100
AcDbEntity
  8
0
100
AcDbVertex
100
AcDbPolyFaceMeshVertex
 10
24.30669260025024
 20
14.88174486160278
 30
10.51213575899601
 70
   192
  0
VERTEX
  5
2EB
330
155
100
AcDbEntity
  8
0
100
AcDbVertex
100
AcDbPolyFaceMeshVertex
 10
24.00642395019531
 20
14.35268402099609
 30
9.981519401073455
 70
   192
  0
VERTEX
  5
2EC
330
155
100
AcDbEntity
  8
0
100
AcDbVertex
100
AcDbPolyFaceMeshVertex
 10
23.75598192214965
 20
13.87266111373901
 30
9.233410716056823
 70
   192
  0
VERTEX
  5
2ED
330
155
100
AcDbEntity
  8
0
100
AcDbVertex
100
AcDbPolyFaceMeshVertex
 10
23.10233974456787
 20
12.56940364837646
 30
7.772849082946777
 70
   192
  0
VERTEX
  5
2EE
330
155
100
AcDbEntity
  8
0
100
AcDbVertex
100
AcDbPolyFaceMeshVertex
 10
21.93850779533386
 20
10.55885577201843
 30
5.562589645385742
 70
   192
  0
VERTEX
  5
2EF
330
155
100
AcDbEntity
  8
0
100
AcDbVertex
100
AcDbPolyFaceMeshVertex
 10
20.52474904060364
 20
8.308752745389938
 30
3.496844291687011
 70
   192
  0
VERTEX
  5
2F0
330
155
100
AcDbEntity
  8
0
100
AcDbVertex
100
AcDbPolyFaceMeshVertex
 10
18.91626194119453
 20
6.000972986221313
 30
2.083283424377441
 70
   192
  0
VERTEX
  5
2F1
330
155
100
AcDbEntity
  8
0
100
AcDbVertex
100
AcDbPolyFaceMeshVertex
 10
17.13756573200226
 20
3.816092014312744
 30
1.327488899230957
 70
   192
  0
VERTEX
  5
2F2
330
155
100
AcDbEntity
  8
0
100
AcDbVertex
100
AcDbPolyFaceMeshVertex
 10
15.68399357795715
 20
2.36181640625
 30
1.236646652221679
 70
   192
  0
VERTEX
  5
2F3
330
155
100
AcDbEntity
  8
0
100
AcDbVertex
100
AcDbPolyFaceMeshVertex
 10
26.70471668243408
 20
13.44823741912841
 30
11.22235357761383
 70
   192
  0
VERTEX
  5
2F4
330
155
100
AcDbEntity
  8
0
100
AcDbVertex
100
AcDbPolyFaceMeshVertex
 10
29.40158081054687
 20
15.53980159759521
 30
11.51738786697387
 70
   192
  0
VERTEX
  5
2F5
330
155
100
AcDbEntity
  8
0
100
AcDbVertex
100
AcDbPolyFaceMeshVertex
 10
26.19294881820678
 20
12.78046417236328
 30
10.51209142804145
 70
   192
  0
VERTEX
  5
2F6
330
155
100
AcDbEntity
  8
0
100
AcDbVertex
100
AcDbPolyFaceMeshVertex
 10
25.80382776260376
 20
12.34437465667724
 30
9.981519639492034
 70
   192
  0
VERTEX
  5
2F7
330
155
100
AcDbEntity
  8
0
100
AcDbVertex
100
AcDbPolyFaceMeshVertex
 10
25.49367237091064
 20
11.93317103385925
 30
9.233437418937683
 70
   192
  0
VERTEX
  5
2F8
330
155
100
AcDbEntity
  8
0
100
AcDbVertex
100
AcDbPolyFaceMeshVertex
 10
24.75734329223632
 20
10.74459052085876
 30
7.77296757698059
 70
   192
  0
VERTEX
  5
2F9
330
155
100
AcDbEntity
  8
0
100
AcDbVertex
100
AcDbPolyFaceMeshVertex
 10
23.44598722457885
 20
8.943628728389739
 30
5.562842369079589
 70
   192
  0
VERTEX
  5
2FA
330
155
100
AcDbEntity
  8
0
100
AcDbVertex
100
AcDbPolyFaceMeshVertex
 10
21.88002490997314
 20
6.939987421035766
 30
3.497238636016845
 70
   192
  0
VERTEX
  5
2FB
330
155
100
AcDbEntity
  8
0
100
AcDbVertex
100
AcDbPolyFaceMeshVertex
 10
20.0636202096939
 20
4.944510459899902
 30
2.083806991577148
 70
   192
  0
VERTEX
  5
2FC
330
155
100
AcDbEntity
  8
0
100
AcDbVertex
100
AcDbPolyFaceMeshVertex
 10
17.97879350185394
 20
3.167123794555664
 30
1.32809829711914
 70
   192
  0
VERTEX
  5
2FD
330
155
100
AcDbEntity
  8
0
100
AcDbVertex
100
AcDbPolyFaceMeshVertex
 10
16.1883852481842
 20
2.114905834197998
 30
1.236645698547363
 70
   192
  0
VERTEX
  5
2FE
330
155
100
AcDbEntity
  8
0
100
AcDbVertex
100
AcDbPolyFaceMeshVertex
 10
28.38032150268555
 20
10.71526479721069
 30
11.22235304117202
 70
   192
  0
VERTEX
  5
2FF
330
155
100
AcDbEntity
  8
0
100
AcDbVertex
100
AcDbPolyFaceMeshVertex
 10
31.51879692077637
 20
12.22166109085083
 30
11.51738691329956
 70
   192
  0
VERTEX
  5
300
330
155
100
AcDbEntity
  8
0
100
AcDbVertex
100
AcDbPolyFaceMeshVertex
 10
27.76880073547363
 20
10.16667819023132
 30
10.51204806566238
 70
   192
  0
VERTEX
  5
301
330
155
100
AcDbEntity
  8
0
100
AcDbVertex
100
AcDbPolyFaceMeshVertex
 10
27.31339263916015
 20
9.835729360580444
 30
9.981519639492034
 70
   192
  0
VERTEX
  5
302
330
155
100
AcDbEntity
  8
0
100
AcDbVertex
100
AcDbPolyFaceMeshVertex
 10
26.95952987670898
 20
9.511094093322753
 30
9.233462572097778
 70
   192
  0
VERTEX
  5
303
330
155
100
AcDbEntity
  8
0
100
AcDbVertex
100
AcDbPolyFaceMeshVertex
 10
26.15783166885376
 20
8.50572907924652
 30
7.773075819015502
 70
   192
  0
VERTEX
  5
304
330
155
100
AcDbEntity
  8
0
100
AcDbVertex
100
AcDbPolyFaceMeshVertex
 10
24.72276401519775
 20
7.0059494972229
 30
5.563067436218261
 70
   192
  0
VERTEX
  5
305
330
155
100
AcDbEntity
  8
0
100
AcDbVertex
100
AcDbPolyFaceMeshVertex
 10
23.02960395812988
 20
5.346706867218017
 30
3.497589588165283
 70
   192
  0
VERTEX
  5
306
330
155
100
AcDbEntity
  8
0
100
AcDbVertex
100
AcDbPolyFaceMeshVertex
 10
21.03760528564453
 20
3.742144107818603
 30
2.084271430969238
 70
   192
  0
VERTEX
  5
307
330
155
100
AcDbEntity
  8
0
100
AcDbVertex
100
AcDbPolyFaceMeshVertex
 10
18.69154889881611
 20
2.405849456787109
 30
1.328641891479492
 70
   192
  0
VERTEX
  5
308
330
155
100
AcDbEntity
  8
0
100
AcDbVertex
100
AcDbPolyFaceMeshVertex
 10
16.61572551727295
 20
1.731923580169677
 30
1.236646652221679
 70
   192
  0
VERTEX
  5
309
330
155
100
AcDbEntity
  8
0
100
AcDbVertex
100
AcDbPolyFaceMeshVertex
 10
29.64523792266845
 20
7.547585070133209
 30
11.22235357761383
 70
   192
  0
VERTEX
  5
30A
330
155
100
AcDbEntity
  8
0
100
AcDbVertex
100
AcDbPolyFaceMeshVertex
 10
33.09700679779052
 20
8.424224376678466
 30
11.51738786697387
 70
   192
  0
VERTEX
  5
30B
330
155
100
AcDbEntity
  8
0
100
AcDbVertex
100
AcDbPolyFaceMeshVertex
 10
28.94518566131591
 20
7.147575557231903
 30
10.51200349628925
 70
   192
  0
VERTEX
  5
30C
330
155
100
AcDbEntity
  8
0
100
AcDbVertex
100
AcDbPolyFaceMeshVertex
 10
28.45296573638916
 20
6.928064703941345
 30
9.981519162654876
 70
   192
  0
VERTEX
  5
30D
330
155
100
AcDbEntity
  8
0
100
AcDbVertex
100
AcDbPolyFaceMeshVertex
 10
28.07772541046142
 20
6.701795578002929
 30
9.233487248420715
 70
   192
  0
VERTEX
  5
30E
330
155
100
AcDbEntity
  8
0
100
AcDbVertex
100
AcDbPolyFaceMeshVertex
 10
27.22830486297607
 20
5.948050022125244
 30
7.773165464401245
 70
   192
  0
VERTEX
  5
30F
330
155
100
AcDbEntity
  8
0
100
AcDbVertex
100
AcDbPolyFaceMeshVertex
 10
25.69388389587402
 20
4.839449882507324
 30
5.563246726989746
 70
   192
  0
VERTEX
  5
310
330
155
100
AcDbEntity
  8
0
100
AcDbVertex
100
AcDbPolyFaceMeshVertex
 10
23.89848899841308
 20
3.619561195373535
 30
3.497867584228515
 70
   192
  0
VERTEX
  5
311
330
155
100
AcDbEntity
  8
0
100
AcDbVertex
100
AcDbPolyFaceMeshVertex
 10
21.76943850517273
 20
2.474273681640625
 30
2.084639549255371
 70
   192
  0
VERTEX
  5
312
330
155
100
AcDbEntity
  8
0
100
AcDbVertex
100
AcDbPolyFaceMeshVertex
 10
19.22577792406082
 20
1.589223861694335
 30
1.329071998596191
 70
   192
  0
VERTEX
  5
313
330
155
100
AcDbEntity
  8
0
100
AcDbVertex
100
AcDbPolyFaceMeshVertex
 10
16.94588553905487
 20
1.236213684082031
 30
1.236646652221679
 70
   192
  0
VERTEX
  5
314
330
155
100
AcDbEntity
  8
0
100
AcDbVertex
100
AcDbPolyFaceMeshVertex
 10
30.43198680877685
 20
3.867078304290771
 30
11.22235453128814
 70
   192
  0
VERTEX
  5
315
330
155
100
AcDbEntity
  8
0
100
AcDbVertex
100
AcDbPolyFaceMeshVertex
 10
34.07084465026855
 20
4.295450210571289
 30
11.51738786697387
 70
   192
  0
VERTEX
  5
316
330
155
100
AcDbEntity
  8
0
100
AcDbVertex
100
AcDbPolyFaceMeshVertex
 10
29.65431880950927
 20
3.652854919433593
 30
10.51195698976516
 70
   192
  0
VERTEX
  5
317
330
155
100
AcDbEntity
  8
0
100
AcDbVertex
100
AcDbPolyFaceMeshVertex
 10
29.16175079345703
 20
3.549663543701171
 30
9.981519907712936
 70
   192
  0
VERTEX
  5
318
330
155
100
AcDbEntity
  8
0
100
AcDbVertex
100
AcDbPolyFaceMeshVertex
 10
28.79261970520019
 20
3.437216758728027
 30
9.23350977897644
 70
   192
  0
VERTEX
  5
319
330
155
100
AcDbEntity
  8
0
100
AcDbVertex
100
AcDbPolyFaceMeshVertex
 10
27.9104061126709
 20
3.028079032897949
 30
7.773229122161865
 70
   192
  0
VERTEX
  5
31A
330
155
100
AcDbEntity
  8
0
100
AcDbVertex
100
AcDbPolyFaceMeshVertex
 10
26.29735231399536
 20
2.43284797668457
 30
5.563362598419189
 70
   192
  0
VERTEX
  5
31B
330
155
100
AcDbEntity
  8
0
100
AcDbVertex
100
AcDbPolyFaceMeshVertex
 10
24.42009735107422
 20
1.7810959815979
 30
3.498042106628417
 70
   192
  0
VERTEX
  5
31C
330
155
100
AcDbEntity
  8
0
100
AcDbVertex
100
AcDbPolyFaceMeshVertex
 10
22.19458031654358
 20
1.186993598937988
 30
2.084868431091308
 70
   192
  0
VERTEX
  5
31D
330
155
100
AcDbEntity
  8
0
100
AcDbVertex
100
AcDbPolyFaceMeshVertex
 10
19.53260612487793
 20
0.7646260261535645
 30
1.329348564147949
 70
   192
  0
VERTEX
  5
31E
330
155
100
AcDbEntity
  8
0
100
AcDbVertex
100
AcDbPolyFaceMeshVertex
 10
17.15874183177947
 20
0.651123046875
 30
1.236646652221679
 70
   192
  0
VERTEX
  5
31F
330
155
100
AcDbEntity
  8
0
100
AcDbVertex
100
AcDbPolyFaceMeshVertex
 10
10.96000862121581
 20
9.605793714523315
 30
7.772497177124023
 70
   192
  0
VERTEX
  5
320
330
155
100
AcDbEntity
  8
0
100
AcDbVertex
100
AcDbPolyFaceMeshVertex
 10
11.37116146087646
 20
8.913332104682922
 30
5.561852931976318
 70
   192
  0
VERTEX
  5
321
330
155
100
AcDbEntity
  8
0
100
AcDbVertex
100
AcDbPolyFaceMeshVertex
 10
11.63939666748046
 20
10.25349450111389
 30
5.561852931976318
 70
   192
  0
VERTEX
  5
322
330
155
100
AcDbEntity
  8
0
100
AcDbVertex
100
AcDbPolyFaceMeshVertex
 10
11.26210308074951
 20
11.27452325820922
 30
7.772497177124023
 70
   192
  0
VERTEX
  5
323
330
155
100
AcDbEntity
  8
0
100
AcDbVertex
100
AcDbPolyFaceMeshVertex
 10
11.61669397354126
 20
7.938289895653724
 30
4.446813583374023
 70
   192
  0
VERTEX
  5
324
330
155
100
AcDbEntity
  8
0
100
AcDbVertex
100
AcDbPolyFaceMeshVertex
 10
11.84882640838623
 20
8.693552911281585
 30
4.122070789337158
 70
   192
  0
VERTEX
  5
325
330
155
100
AcDbEntity
  8
0
100
AcDbVertex
100
AcDbPolyFaceMeshVertex
 10
11.780686378479
 20
5.68554663658142
 30
3.261116504669189
 70
   192
  0
VERTEX
  5
326
330
155
100
AcDbEntity
  8
0
100
AcDbVertex
100
AcDbPolyFaceMeshVertex
 10
11.98262166976928
 20
6.131980538368225
 30
2.782852172851562
 70
   192
  0
VERTEX
  5
327
330
155
100
AcDbEntity
  8
0
100
AcDbVertex
100
AcDbPolyFaceMeshVertex
 10
11.61105632781982
 20
3.21683120727539
 30
2.654108047485351
 70
   192
  0
VERTEX
  5
328
330
155
100
AcDbEntity
  8
0
100
AcDbVertex
100
AcDbPolyFaceMeshVertex
 10
11.82344341278076
 20
3.363443374633789
 30
2.05713939666748
 70
   192
  0
VERTEX
  5
329
330
155
100
AcDbEntity
  8
0
100
AcDbVertex
100
AcDbPolyFaceMeshVertex
 10
11.55996513366699
 20
0.0796494483947754
 30
1.899054527282714
 70
   192
  0
VERTEX
  5
32A
330
155
100
AcDbEntity
  8
0
100
AcDbVertex
100
AcDbPolyFaceMeshVertex
 10
12.1566219329834
 20
10.86559677124023
 30
5.561852931976318
 70
   192
  0
VERTEX
  5
32B
330
155
100
AcDbEntity
  8
0
100
AcDbVertex
100
AcDbPolyFaceMeshVertex
 10
11.80889987945556
 20
12.30203437805175
 30
7.772497177124023
 70
   192
  0
VERTEX
  5
32C
330
155
100
AcDbEntity
  8
0
100
AcDbVertex
100
AcDbPolyFaceMeshVertex
 10
12.28322744369506
 20
9.059941411018371
 30
3.823777198791503
 70
   192
  0
VERTEX
  5
32D
330
155
100
AcDbEntity
  8
0
100
AcDbVertex
100
AcDbPolyFaceMeshVertex
 10
12.34432458877563
 20
6.461107730865478
 30
2.411727905273437
 70
   192
  0
VERTEX
  5
32E
330
155
100
AcDbEntity
  8
0
100
AcDbVertex
100
AcDbPolyFaceMeshVertex
 10
12.19435024261474
 20
3.543357372283935
 30
1.636177062988281
 70
   192
  0
VERTEX
  5
32F
330
155
100
AcDbEntity
  8
0
100
AcDbVertex
100
AcDbPolyFaceMeshVertex
 10
11.95094919204712
 20
0.2273468971252441
 30
1.483720779418945
 70
   192
  0
VERTEX
  5
330
330
155
100
AcDbEntity
  8
0
100
AcDbVertex
100
AcDbPolyFaceMeshVertex
 10
12.7507038116455
 20
11.44409227371215
 30
5.561852931976318
 70
   192
  0
VERTEX
  5
331
330
155
100
AcDbEntity
  8
0
100
AcDbVertex
100
AcDbPolyFaceMeshVertex
 10
12.44988203048706
 20
13.28539276123047
 30
7.772497177124023
 70
   192
  0
VERTEX
  5
332
330
155
100
AcDbEntity
  8
0
100
AcDbVertex
100
AcDbPolyFaceMeshVertex
 10
12.78610467910766
 20
9.41492748260498
 30
3.596322059631347
 70
   192
  0
VERTEX
  5
333
330
155
100
AcDbEntity
  8
0
100
AcDbVertex
100
AcDbPolyFaceMeshVertex
 10
12.76611471176147
 20
6.796222925186157
 30
2.186841964721679
 70
   192
  0
VERTEX
  5
334
330
155
100
AcDbEntity
  8
0
100
AcDbVertex
100
AcDbPolyFaceMeshVertex
 10
12.63045501708984
 20
3.743824005126953
 30
1.4246187210083
 70
   192
  0
VERTEX
  5
335
330
155
100
AcDbEntity
  8
0
100
AcDbVertex
100
AcDbPolyFaceMeshVertex
 10
12.40928554534912
 20
0.4017062187194825
 30
1.304282188415527
 70
   192
  0
VERTEX
  5
336
330
155
100
AcDbEntity
  8
0
100
AcDbVertex
100
AcDbPolyFaceMeshVertex
 10
13.0866093635559
 20
0.651123046875
 30
1.236647605895996
 70
   192
  0
VERTEX
  5
337
330
155
100
AcDbEntity
  8
0
100
AcDbVertex
100
AcDbPolyFaceMeshVertex
 10
10.65264844894409
 20
14.40495061874389
 30
10.75709417462348
 70
   192
  0
VERTEX
  5
338
330
155
100
AcDbEntity
  8
0
100
AcDbVertex
100
AcDbPolyFaceMeshVertex
 10
11.00698232650756
 20
14.03830623626709
 30
9.881067693233489
 70
   192
  0
VERTEX
  5
339
330
155
100
AcDbEntity
  8
0
100
AcDbVertex
100
AcDbPolyFaceMeshVertex
 10
11.47844171524047
 20
15.44211769104004
 30
9.942013591527938
 70
   192
  0
VERTEX
  5
33A
330
155
100
AcDbEntity
  8
0
100
AcDbVertex
100
AcDbPolyFaceMeshVertex
 10
11.02608823776245
 20
16.03528308868408
 30
10.5148109793663
 70
   192
  0
VERTEX
  5
33B
330
155
100
AcDbEntity
  8
0
100
AcDbVertex
100
AcDbPolyFaceMeshVertex
 10
10.3635663986206
 20
10.67947626113891
 30
9.861056327819824
 70
   192
  0
VERTEX
  5
33C
330
155
100
AcDbEntity
  8
0
100
AcDbVertex
100
AcDbPolyFaceMeshVertex
 10
10.6253023147583
 20
10.40345430374145
 30
9.233307361602783
 70
   192
  0
VERTEX
  5
33D
330
155
100
AcDbEntity
  8
0
100
AcDbVertex
100
AcDbPolyFaceMeshVertex
 10
10.84924268722534
 20
12.28587627410888
 30
9.233307361602783
 70
   192
  0
VERTEX
  5
33E
330
155
100
AcDbEntity
  8
0
100
AcDbVertex
100
AcDbPolyFaceMeshVertex
 10
10.59119701385498
 20
12.77461385726928
 30
9.789838045835494
 70
   192
  0
VERTEX
  5
33F
330
155
100
AcDbEntity
  8
0
100
AcDbVertex
100
AcDbPolyFaceMeshVertex
 10
11.25674676895141
 20
13.58499670028686
 30
9.233307361602783
 70
   192
  0
VERTEX
  5
340
330
155
100
AcDbEntity
  8
0
100
AcDbVertex
100
AcDbPolyFaceMeshVertex
 10
11.73232364654541
 20
14.83604621887207
 30
9.233307361602783
 70
   192
  0
VERTEX
  5
341
330
155
100
AcDbEntity
  8
0
100
AcDbVertex
100
AcDbPolyFaceMeshVertex
 10
10.06882095336914
 20
15.17653512954711
 30
11.53612601757049
 70
   192
  0
VERTEX
  5
342
330
155
100
AcDbEntity
  8
0
100
AcDbVertex
100
AcDbPolyFaceMeshVertex
 10
9.322334289550781
 20
10.94923877716064
 30
11.5146312713623
 70
   192
  0
VERTEX
  5
343
330
155
100
AcDbEntity
  8
0
100
AcDbVertex
100
AcDbPolyFaceMeshVertex
 10
9.608190536499023
 20
10.94734740257263
 30
11.43043971061706
 70
   192
  0
VERTEX
  5
344
330
155
100
AcDbEntity
  8
0
100
AcDbVertex
100
AcDbPolyFaceMeshVertex
 10
10.2858076095581
 20
14.88976192474365
 30
11.4495460987091
 70
   192
  0
VERTEX
  5
345
330
155
100
AcDbEntity
  8
0
100
AcDbVertex
100
AcDbPolyFaceMeshVertex
 10
9.025825500488281
 20
7.111942052841186
 30
11.51463174819946
 70
   192
  0
VERTEX
  5
346
330
155
100
AcDbEntity
  8
0
100
AcDbVertex
100
AcDbPolyFaceMeshVertex
 10
9.222516059875488
 20
7.111942052841186
 30
11.43119156360626
 70
   192
  0
VERTEX
  5
347
330
155
100
AcDbEntity
  8
0
100
AcDbVertex
100
AcDbPolyFaceMeshVertex
 10
8.866974830627441
 20
3.558970928192138
 30
11.5146312713623
 70
   192
  0
VERTEX
  5
348
330
155
100
AcDbEntity
  8
0
100
AcDbVertex
100
AcDbPolyFaceMeshVertex
 10
9.063666343688964
 20
3.558970928192138
 30
11.43119156360626
 70
   192
  0
VERTEX
  5
349
330
155
100
AcDbEntity
  8
0
100
AcDbVertex
100
AcDbPolyFaceMeshVertex
 10
9.846179008483886
 20
10.94923877716064
 30
11.25914734601974
 70
   192
  0
VERTEX
  5
34A
330
155
100
AcDbEntity
  8
0
100
AcDbVertex
100
AcDbPolyFaceMeshVertex
 10
10.46597862243652
 20
14.6516523361206
 30
11.27339303493499
 70
   192
  0
VERTEX
  5
34B
330
155
100
AcDbEntity
  8
0
100
AcDbVertex
100
AcDbPolyFaceMeshVertex
 10
9.38583755493164
 20
7.111942052841186
 30
11.26142966747283
 70
   192
  0
VERTEX
  5
34C
330
155
100
AcDbEntity
  8
0
100
AcDbVertex
100
AcDbPolyFaceMeshVertex
 10
9.2269868850708
 20
3.558970928192138
 30
11.26142966747283
 70
   192
  0
VERTEX
  5
34D
330
155
100
AcDbEntity
  8
0
100
AcDbVertex
100
AcDbPolyFaceMeshVertex
 10
10.00800800323486
 20
10.95113611221313
 30
11.02846908569335
 70
   192
  0
VERTEX
  5
34E
330
155
100
AcDbEntity
  8
0
100
AcDbVertex
100
AcDbPolyFaceMeshVertex
 10
10.58841133117675
 20
14.48984622955322
 30
11.03616917133331
 70
   192
  0
VERTEX
  5
34F
330
155
100
AcDbEntity
  8
0
100
AcDbVertex
100
AcDbPolyFaceMeshVertex
 10
9.496818542480468
 20
7.111942052841186
 30
11.03281182050704
 70
   192
  0
VERTEX
  5
350
330
155
100
AcDbEntity
  8
0
100
AcDbVertex
100
AcDbPolyFaceMeshVertex
 10
9.337967872619628
 20
3.558970928192138
 30
11.03281182050704
 70
   192
  0
VERTEX
  5
351
330
155
100
AcDbEntity
  8
0
100
AcDbVertex
100
AcDbPolyFaceMeshVertex
 10
10.09239196777343
 20
10.94923877716064
 30
10.75709417462348
 70
   192
  0
VERTEX
  5
352
330
155
100
AcDbEntity
  8
0
100
AcDbVertex
100
AcDbPolyFaceMeshVertex
 10
9.555047988891601
 20
7.111942052841186
 30
10.7638611793518
 70
   192
  0
VERTEX
  5
353
330
155
100
AcDbEntity
  8
0
100
AcDbVertex
100
AcDbPolyFaceMeshVertex
 10
9.396197319030761
 20
3.558970928192138
 30
10.76386168599128
 70
   192
  0
VERTEX
  5
354
330
155
100
AcDbEntity
  8
0
100
AcDbVertex
100
AcDbPolyFaceMeshVertex
 10
4.467411994934082
 20
20.30769062042236
 30
11.51738691329956
 70
   192
  0
VERTEX
  5
355
330
155
100
AcDbEntity
  8
0
100
AcDbVertex
100
AcDbPolyFaceMeshVertex
 10
0.4650917053222657
 20
19.62101173400879
 30
11.51738786697387
 70
   192
  0
VERTEX
  5
356
330
155
100
AcDbEntity
  8
0
100
AcDbVertex
100
AcDbPolyFaceMeshVertex
 10
10.48360157012939
 20
16.91343688964843
 30
11.53612601757049
 70
   192
  0
VERTEX
  5
357
330
155
100
AcDbEntity
  8
0
100
AcDbVertex
100
AcDbPolyFaceMeshVertex
 10
11.20732355117797
 20
18.74852275848388
 30
11.21062266826629
 70
   192
  0
VERTEX
  5
358
330
155
100
AcDbEntity
  8
0
100
AcDbVertex
100
AcDbPolyFaceMeshVertex
 10
10.6746129989624
 20
16.84857273101806
 30
11.47901284694671
 70
   192
  0
VERTEX
  5
359
330
155
100
AcDbEntity
  8
0
100
AcDbVertex
100
AcDbPolyFaceMeshVertex
 10
10.83321666717529
 20
16.79470729827881
 30
11.36281251907348
 70
   192
  0
VERTEX
  5
35A
330
155
100
AcDbEntity
  8
0
100
AcDbVertex
100
AcDbPolyFaceMeshVertex
 10
10.94099235534667
 20
16.75811290740966
 30
11.20632594823837
 70
   192
  0
VERTEX
  5
35B
330
155
100
AcDbEntity
  8
0
100
AcDbVertex
100
AcDbPolyFaceMeshVertex
 10
10.99754095077514
 20
16.73890495300293
 30
11.0222315788269
 70
   192
  0
VERTEX
  5
35C
330
155
100
AcDbEntity
  8
0
100
AcDbVertex
100
AcDbPolyFaceMeshVertex
 10
34.66373825073242
 20
4.387534618377685
 30
10.21738703548908
 70
   192
  0
VERTEX
  5
35D
330
155
100
AcDbEntity
  8
0
100
AcDbVertex
100
AcDbPolyFaceMeshVertex
 10
34.66374015808105
 20
4.387534618377685
 30
10.9173862338066
 70
   192
  0
VERTEX
  5
35E
330
155
100
AcDbEntity
  8
0
100
AcDbVertex
100
AcDbPolyFaceMeshVertex
 10
34.61714553833008
 20
4.380298852920532
 30
11.15093302726745
 70
   192
  0
VERTEX
  5
35F
330
155
100
AcDbEntity
  8
0
100
AcDbVertex
100
AcDbPolyFaceMeshVertex
 10
34.49008369445801
 20
4.360564470291137
 30
11.34165048599243
 70
   192
  0
VERTEX
  5
360
330
155
100
AcDbEntity
  8
0
100
AcDbVertex
100
AcDbPolyFaceMeshVertex
 10
34.30162620544433
 20
4.331294059753417
 30
11.47023570537567
 70
   192
  0
VERTEX
  5
361
330
155
100
AcDbEntity
  8
0
100
AcDbVertex
100
AcDbPolyFaceMeshVertex
 10
33.66789054870605
 20
8.608866214752197
 30
10.21738655120134
 70
   192
  0
VERTEX
  5
362
330
155
100
AcDbEntity
  8
0
100
AcDbVertex
100
AcDbPolyFaceMeshVertex
 10
33.66789054870605
 20
8.608866214752197
 30
10.91738671064376
 70
   192
  0
VERTEX
  5
363
330
155
100
AcDbEntity
  8
0
100
AcDbVertex
100
AcDbPolyFaceMeshVertex
 10
33.62302684783935
 20
8.594355463981628
 30
11.15093493461609
 70
   192
  0
VERTEX
  5
364
330
155
100
AcDbEntity
  8
0
100
AcDbVertex
100
AcDbPolyFaceMeshVertex
 10
33.50068283081054
 20
8.554786205291748
 30
11.34165000915527
 70
   192
  0
VERTEX
  5
365
330
155
100
AcDbEntity
  8
0
100
AcDbVertex
100
AcDbPolyFaceMeshVertex
 10
33.31922149658203
 20
8.496095955371856
 30
11.47023570537567
 70
   192
  0
VERTEX
  5
366
330
155
100
AcDbEntity
  8
0
100
AcDbVertex
100
AcDbPolyFaceMeshVertex
 10
32.05071353912353
 20
12.49926424026489
 30
10.21738630905747
 70
   192
  0
VERTEX
  5
367
330
155
100
AcDbEntity
  8
0
100
AcDbVertex
100
AcDbPolyFaceMeshVertex
 10
32.05071353912353
 20
12.49926424026489
 30
10.9173862338066
 70
   192
  0
VERTEX
  5
368
330
155
100
AcDbEntity
  8
0
100
AcDbVertex
100
AcDbPolyFaceMeshVertex
 10
32.00891399383545
 20
12.47744989395141
 30
11.15093302726745
 70
   192
  0
VERTEX
  5
369
330
155
100
AcDbEntity
  8
0
100
AcDbVertex
100
AcDbPolyFaceMeshVertex
 10
31.89491844177246
 20
12.4179573059082
 30
11.34165048599243
 70
   192
  0
VERTEX
  5
36A
330
155
100
AcDbEntity
  8
0
100
AcDbVertex
100
AcDbPolyFaceMeshVertex
 10
31.72584342956543
 20
12.32971668243408
 30
11.47023570537567
 70
   192
  0
VERTEX
  5
36B
330
155
100
AcDbEntity
  8
0
100
AcDbVertex
100
AcDbPolyFaceMeshVertex
 10
29.87436580657959
 20
15.90922689437866
 30
10.21738655120134
 70
   192
  0
VERTEX
  5
36C
330
155
100
AcDbEntity
  8
0
100
AcDbVertex
100
AcDbPolyFaceMeshVertex
 10
29.87436580657959
 20
15.90922689437866
 30
10.9173862338066
 70
   192
  0
VERTEX
  5
36D
330
155
100
AcDbEntity
  8
0
100
AcDbVertex
100
AcDbPolyFaceMeshVertex
 10
29.83721351623535
 20
15.88019561767578
 30
11.15093398094177
 70
   192
  0
VERTEX
  5
36E
330
155
100
AcDbEntity
  8
0
100
AcDbVertex
100
AcDbPolyFaceMeshVertex
 10
29.73588943481445
 20
15.80102586746215
 30
11.34165155887603
 70
   192
  0
VERTEX
  5
36F
330
155
100
AcDbEntity
  8
0
100
AcDbVertex
100
AcDbPolyFaceMeshVertex
 10
29.58561038970947
 20
15.68359899520874
 30
11.47023570537567
 70
   192
  0
VERTEX
  5
370
330
155
100
AcDbEntity
  8
0
100
AcDbVertex
100
AcDbPolyFaceMeshVertex
 10
27.22247505187988
 20
18.70771121978759
 30
10.21738679334521
 70
   192
  0
VERTEX
  5
371
330
155
100
AcDbEntity
  8
0
100
AcDbVertex
100
AcDbPolyFaceMeshVertex
 10
27.22247505187988
 20
18.70771121978759
 30
10.91738766431808
 70
   192
  0
VERTEX
  5
372
330
155
100
AcDbEntity
  8
0
100
AcDbVertex
100
AcDbPolyFaceMeshVertex
 10
27.19184398651123
 20
18.67186832427978
 30
11.15093398094177
 70
   192
  0
VERTEX
  5
373
330
155
100
AcDbEntity
  8
0
100
AcDbVertex
100
AcDbPolyFaceMeshVertex
 10
27.10829639434814
 20
18.57412242889404
 30
11.34164953231811
 70
   192
  0
VERTEX
  5
374
330
155
100
AcDbEntity
  8
0
100
AcDbVertex
100
AcDbPolyFaceMeshVertex
 10
26.98438358306884
 20
18.42914485931396
 30
11.47023570537567
 70
   192
  0
VERTEX
  5
375
330
155
100
AcDbEntity
  8
0
100
AcDbVertex
100
AcDbPolyFaceMeshVertex
 10
24.19695711135864
 20
20.7871732711792
 30
10.21738679334521
 70
   192
  0
VERTEX
  5
376
330
155
100
AcDbEntity
  8
0
100
AcDbVertex
100
AcDbPolyFaceMeshVertex
 10
24.19695711135864
 20
20.7871732711792
 30
10.91738671064376
 70
   192
  0
VERTEX
  5
377
330
155
100
AcDbEntity
  8
0
100
AcDbVertex
100
AcDbPolyFaceMeshVertex
 10
24.17489337921142
 20
20.74550533294677
 30
11.15093445777893
 70
   192
  0
VERTEX
  5
378
330
155
100
AcDbEntity
  8
0
100
AcDbVertex
100
AcDbPolyFaceMeshVertex
 10
24.11471223831176
 20
20.63187026977538
 30
11.34165048599243
 70
   192
  0
VERTEX
  5
379
330
155
100
AcDbEntity
  8
0
100
AcDbVertex
100
AcDbPolyFaceMeshVertex
 10
24.0254578590393
 20
20.46333026885986
 30
11.47023618221282
 70
   192
  0
VERTEX
  5
37A
330
155
100
AcDbEntity
  8
0
100
AcDbVertex
100
AcDbPolyFaceMeshVertex
 10
20.91407799720764
 20
22.06769561767578
 30
10.21738679334521
 70
   192
  0
VERTEX
  5
37B
330
155
100
AcDbEntity
  8
0
100
AcDbVertex
100
AcDbPolyFaceMeshVertex
 10
20.91407799720764
 20
22.06769561767578
 30
10.91738671064376
 70
   192
  0
VERTEX
  5
37C
330
155
100
AcDbEntity
  8
0
100
AcDbVertex
100
AcDbPolyFaceMeshVertex
 10
20.9024634361267
 20
22.02199935913085
 30
11.15093398094177
 70
   192
  0
VERTEX
  5
37D
330
155
100
AcDbEntity
  8
0
100
AcDbVertex
100
AcDbPolyFaceMeshVertex
 10
20.87078118324279
 20
21.89737701416015
 30
11.34165048599243
 70
   192
  0
VERTEX
  5
37E
330
155
100
AcDbEntity
  8
0
100
AcDbVertex
100
AcDbPolyFaceMeshVertex
 10
20.82379269599914
 20
21.71253967285156
 30
11.47023570537567
 70
   192
  0
VERTEX
  5
37F
330
155
100
AcDbEntity
  8
0
100
AcDbVertex
100
AcDbPolyFaceMeshVertex
 10
17.49999713897705
 20
22.50008010864257
 30
10.21738655120134
 70
   192
  0
VERTEX
  5
380
330
155
100
AcDbEntity
  8
0
100
AcDbVertex
100
AcDbPolyFaceMeshVertex
 10
17.49999713897705
 20
22.50008010864257
 30
10.91738671064376
 70
   192
  0
VERTEX
  5
381
330
155
100
AcDbEntity
  8
0
100
AcDbVertex
100
AcDbPolyFaceMeshVertex
 10
17.4989206790924
 20
22.45294189453125
 30
11.15093398094177
 70
   192
  0
VERTEX
  5
382
330
155
100
AcDbEntity
  8
0
100
AcDbVertex
100
AcDbPolyFaceMeshVertex
 10
17.4959750175476
 20
22.32439136505127
 30
11.34165048599243
 70
   192
  0
VERTEX
  5
383
330
155
100
AcDbEntity
  8
0
100
AcDbVertex
100
AcDbPolyFaceMeshVertex
 10
17.49161148071289
 20
22.1337251663208
 30
11.47023570537567
 70
   192
  0
VERTEX
  5
384
330
155
100
AcDbEntity
  8
0
100
AcDbVertex
100
AcDbPolyFaceMeshVertex
 10
13.11594104766845
 20
22.14771461486816
 30
10.21738679334521
 70
   192
  0
VERTEX
  5
385
330
155
100
AcDbEntity
  8
0
100
AcDbVertex
100
AcDbPolyFaceMeshVertex
 10
13.11594104766845
 20
22.14771461486816
 30
10.91738671064376
 70
   192
  0
VERTEX
  5
386
330
155
100
AcDbEntity
  8
0
100
AcDbVertex
100
AcDbPolyFaceMeshVertex
 10
13.12068223953247
 20
22.10080242156982
 30
11.15093398094177
 70
   192
  0
VERTEX
  5
387
330
155
100
AcDbEntity
  8
0
100
AcDbVertex
100
AcDbPolyFaceMeshVertex
 10
13.13360548019409
 20
21.97286796569824
 30
11.34165048599243
 70
   192
  0
VERTEX
  5
388
330
155
100
AcDbEntity
  8
0
100
AcDbVertex
100
AcDbPolyFaceMeshVertex
 10
13.15277624130249
 20
21.78311824798583
 30
11.47023570537567
 70
   192
  0
VERTEX
  5
389
330
155
100
AcDbEntity
  8
0
100
AcDbVertex
100
AcDbPolyFaceMeshVertex
 10
8.749998092651367
 20
21.61607646942138
 30
10.21738679334521
 70
   192
  0
VERTEX
  5
38A
330
155
100
AcDbEntity
  8
0
100
AcDbVertex
100
AcDbPolyFaceMeshVertex
 10
8.749998092651367
 20
21.61607646942138
 30
10.91738671064376
 70
   192
  0
VERTEX
  5
38B
330
155
100
AcDbEntity
  8
0
100
AcDbVertex
100
AcDbPolyFaceMeshVertex
 10
8.756656646728515
 20
21.56939888000488
 30
11.15093398094177
 70
   192
  0
VERTEX
  5
38C
330
155
100
AcDbEntity
  8
0
100
AcDbVertex
100
AcDbPolyFaceMeshVertex
 10
8.774809837341308
 20
21.44210052490234
 30
11.34165048599243
 70
   192
  0
VERTEX
  5
38D
330
155
100
AcDbEntity
  8
0
100
AcDbVertex
100
AcDbPolyFaceMeshVertex
 10
8.801735877990722
 20
21.25329399108886
 30
11.47023618221282
 70
   192
  0
VERTEX
  5
38E
330
155
100
AcDbEntity
  8
0
100
AcDbVertex
100
AcDbPolyFaceMeshVertex
 10
8.834709167480468
 20
21.02208518981933
 30
11.51738691329956
 70
   192
  0
VERTEX
  5
38F
330
155
100
AcDbEntity
  8
0
100
AcDbVertex
100
AcDbPolyFaceMeshVertex
 10
4.358442306518554
 20
20.89771270751953
 30
10.21738703548908
 70
   192
  0
VERTEX
  5
390
330
155
100
AcDbEntity
  8
0
100
AcDbVertex
100
AcDbPolyFaceMeshVertex
 10
4.358442306518554
 20
20.89771270751953
 30
10.91738671064376
 70
   192
  0
VERTEX
  5
391
330
155
100
AcDbEntity
  8
0
100
AcDbVertex
100
AcDbPolyFaceMeshVertex
 10
4.367008209228515
 20
20.85134792327881
 30
11.15093398094177
 70
   192
  0
VERTEX
  5
392
330
155
100
AcDbEntity
  8
0
100
AcDbVertex
100
AcDbPolyFaceMeshVertex
 10
4.390358924865722
 20
20.7249002456665
 30
11.34165000915527
 70
   192
  0
VERTEX
  5
393
330
155
100
AcDbEntity
  8
0
100
AcDbVertex
100
AcDbPolyFaceMeshVertex
 10
4.424995422363281
 20
20.53735542297363
 30
11.47023570537567
 70
   192
  0
VERTEX
  5
394
330
155
100
AcDbEntity
  8
0
100
AcDbVertex
100
AcDbPolyFaceMeshVertex
 10
0.0
 20
20.00007820129394
 30
10.21738630905747
 70
   192
  0
VERTEX
  5
395
330
155
100
AcDbEntity
  8
0
100
AcDbVertex
100
AcDbPolyFaceMeshVertex
 10
0.0
 20
20.00007820129394
 30
10.91738671064376
 70
   192
  0
VERTEX
  5
396
330
155
100
AcDbEntity
  8
0
100
AcDbVertex
100
AcDbPolyFaceMeshVertex
 10
0.0365467071533203
 20
19.97029113769531
 30
11.15093493461609
 70
   192
  0
VERTEX
  5
397
330
155
100
AcDbEntity
  8
0
100
AcDbVertex
100
AcDbPolyFaceMeshVertex
 10
0.1362190246582031
 20
19.88905143737793
 30
11.34165048599243
 70
   192
  0
VERTEX
  5
398
330
155
100
AcDbEntity
  8
0
100
AcDbVertex
100
AcDbPolyFaceMeshVertex
 10
0.2840557098388672
 20
19.76856327056884
 30
11.47023475170135
 70
   192
  0
VERTEX
  5
399
330
155
100
AcDbEntity
  8
0
100
AcDbVertex
100
AcDbPolyFaceMeshVertex
 10
18.39996931701898
 20
2.600618839263916
 30
0.0062379837036133
 70
   192
  0
VERTEX
  5
39A
330
155
100
AcDbEntity
  8
0
100
AcDbVertex
100
AcDbPolyFaceMeshVertex
 10
21.74142861366271
 20
2.704865932464599
 30
0.5471525192260743
 70
   192
  0
VERTEX
  5
39B
330
155
100
AcDbEntity
  8
0
100
AcDbVertex
100
AcDbPolyFaceMeshVertex
 10
24.83360242843628
 20
3.044926643371582
 30
1.549244880676269
 70
   192
  0
VERTEX
  5
39C
330
155
100
AcDbEntity
  8
0
100
AcDbVertex
100
AcDbPolyFaceMeshVertex
 10
27.66297531127929
 20
3.502374649047851
 30
2.992554187774658
 70
   192
  0
VERTEX
  5
39D
330
155
100
AcDbEntity
  8
0
100
AcDbVertex
100
AcDbPolyFaceMeshVertex
 10
31.23773765563965
 20
3.966672897338867
 30
5.591767787933349
 70
   192
  0
VERTEX
  5
39E
330
155
100
AcDbEntity
  8
0
100
AcDbVertex
100
AcDbPolyFaceMeshVertex
 10
33.44761657714844
 20
4.298099279403686
 30
8.075799942016601
 70
   192
  0
VERTEX
  5
39F
330
155
100
AcDbEntity
  8
0
100
AcDbVertex
100
AcDbPolyFaceMeshVertex
 10
17.87103116512298
 20
5.103399991989135
 30
0.0062398910522461
 70
   192
  0
VERTEX
  5
3A0
330
155
100
AcDbEntity
  8
0
100
AcDbVertex
100
AcDbPolyFaceMeshVertex
 10
21.10914850234985
 20
5.372209072113037
 30
0.5451688766479493
 70
   192
  0
VERTEX
  5
3A1
330
155
100
AcDbEntity
  8
0
100
AcDbVertex
100
AcDbPolyFaceMeshVertex
 10
24.10048818588256
 20
6.036540627479553
 30
1.547446250915527
 70
   192
  0
VERTEX
  5
3A2
330
155
100
AcDbEntity
  8
0
100
AcDbVertex
100
AcDbPolyFaceMeshVertex
 10
26.83817291259765
 20
6.89645230770111
 30
2.990969181060791
 70
   192
  0
VERTEX
  5
3A3
330
155
100
AcDbEntity
  8
0
100
AcDbVertex
100
AcDbPolyFaceMeshVertex
 10
30.2799072265625
 20
7.783398181200027
 30
5.590394973754882
 70
   192
  0
VERTEX
  5
3A4
330
155
100
AcDbEntity
  8
0
100
AcDbVertex
100
AcDbPolyFaceMeshVertex
 10
32.437912940979
 20
8.415230751037597
 30
8.074612617492675
 70
   192
  0
VERTEX
  5
3A5
330
155
100
AcDbEntity
  8
0
100
AcDbVertex
100
AcDbPolyFaceMeshVertex
 10
17.01208066940307
 20
7.409972310066223
 30
0.0062398910522461
 70
   192
  0
VERTEX
  5
3A6
330
155
100
AcDbEntity
  8
0
100
AcDbVertex
100
AcDbPolyFaceMeshVertex
 10
20.02554011344909
 20
7.884364888072013
 30
0.5420970916748047
 70
   192
  0
VERTEX
  5
3A7
330
155
100
AcDbEntity
  8
0
100
AcDbVertex
100
AcDbPolyFaceMeshVertex
 10
22.86768722534179
 20
8.844692885875701
 30
1.544669151306152
 70
   192
  0
VERTEX
  5
3A8
330
155
100
AcDbEntity
  8
0
100
AcDbVertex
100
AcDbPolyFaceMeshVertex
 10
25.50582790374756
 20
10.04330587387084
 30
2.988573551177978
 70
   192
  0
VERTEX
  5
3A9
330
155
100
AcDbEntity
  8
0
100
AcDbVertex
100
AcDbPolyFaceMeshVertex
 10
28.78557395935058
 20
11.29945397377014
 30
5.58838415145874
 70
   192
  0
VERTEX
  5
3AA
330
155
100
AcDbEntity
  8
0
100
AcDbVertex
100
AcDbPolyFaceMeshVertex
 10
30.8683443069458
 20
12.19123268127441
 30
8.072896003723144
 70
   192
  0
VERTEX
  5
3AB
330
155
100
AcDbEntity
  8
0
100
AcDbVertex
100
AcDbPolyFaceMeshVertex
 10
15.85612845420837
 20
9.431703567504882
 30
0.0062389373779297
 70
   192
  0
VERTEX
  5
3AC
330
155
100
AcDbEntity
  8
0
100
AcDbVertex
100
AcDbPolyFaceMeshVertex
 10
18.55071350559592
 20
10.13543581962585
 30
0.5382089614868164
 70
   192
  0
VERTEX
  5
3AD
330
155
100
AcDbEntity
  8
0
100
AcDbVertex
100
AcDbPolyFaceMeshVertex
 10
21.19930577278137
 20
11.35305523872375
 30
1.541157722473144
 70
   192
  0
VERTEX
  5
3AE
330
155
100
AcDbEntity
  8
0
100
AcDbVertex
100
AcDbPolyFaceMeshVertex
 10
23.72149372100829
 20
12.81978940963745
 30
2.985571384429931
 70
   192
  0
VERTEX
  5
3AF
330
155
100
AcDbEntity
  8
0
100
AcDbVertex
100
AcDbPolyFaceMeshVertex
 10
26.80701255798339
 20
14.38227748870849
 30
5.58589220046997
 70
   192
  0
VERTEX
  5
3B0
330
155
100
AcDbEntity
  8
0
100
AcDbVertex
100
AcDbPolyFaceMeshVertex
 10
28.78893756866455
 20
15.48615360260009
 30
8.070780992507934
 70
   192
  0
VERTEX
  5
3B1
330
155
100
AcDbEntity
  8
0
100
AcDbVertex
100
AcDbPolyFaceMeshVertex
 10
14.44759654998779
 20
11.09089493751525
 30
0.0062379837036133
 70
   192
  0
VERTEX
  5
3B2
330
155
100
AcDbEntity
  8
0
100
AcDbVertex
100
AcDbPolyFaceMeshVertex
 10
16.75692236423492
 20
12.03102922439575
 30
0.533773422241211
 70
   192
  0
VERTEX
  5
3B3
330
155
100
AcDbEntity
  8
0
100
AcDbVertex
100
AcDbPolyFaceMeshVertex
 10
19.17346715927124
 20
13.45817852020263
 30
1.537156105041503
 70
   192
  0
VERTEX
  5
3B4
330
155
100
AcDbEntity
  8
0
100
AcDbVertex
100
AcDbPolyFaceMeshVertex
 10
21.55716276168823
 20
15.11743783950805
 30
2.982164859771728
 70
   192
  0
VERTEX
  5
3B5
330
155
100
AcDbEntity
  8
0
100
AcDbVertex
100
AcDbPolyFaceMeshVertex
 10
24.41536235809326
 20
16.91583156585693
 30
5.583080768585205
 70
   192
  0
VERTEX
  5
3B6
330
155
100
AcDbEntity
  8
0
100
AcDbVertex
100
AcDbPolyFaceMeshVertex
 10
26.27044868469238
 20
18.17794895172119
 30
8.068403720855712
 70
   192
  0
VERTEX
  5
3B7
330
155
100
AcDbEntity
  8
0
100
AcDbVertex
100
AcDbPolyFaceMeshVertex
 10
12.84061336517334
 20
12.32378482818603
 30
0.0062389373779297
 70
   192
  0
VERTEX
  5
3B8
330
155
100
AcDbEntity
  8
0
100
AcDbVertex
100
AcDbPolyFaceMeshVertex
 10
14.72677111625671
 20
13.49138975143432
 30
0.5290679931640625
 70
   192
  0
VERTEX
  5
3B9
330
155
100
AcDbEntity
  8
0
100
AcDbVertex
100
AcDbPolyFaceMeshVertex
 10
16.88022339344024
 20
15.07302999496459
 30
1.532909393310546
 70
   192
  0
VERTEX
  5
3BA
330
155
100
AcDbEntity
  8
0
100
AcDbVertex
100
AcDbPolyFaceMeshVertex
 10
19.09882634878158
 20
16.84650707244873
 30
2.978557109832763
 70
   192
  0
VERTEX
  5
3BB
330
155
100
AcDbEntity
  8
0
100
AcDbVertex
100
AcDbPolyFaceMeshVertex
 10
21.69782662391662
 20
18.80508518218994
 30
5.580109596252441
 70
   192
  0
VERTEX
  5
3BC
330
155
100
AcDbEntity
  8
0
100
AcDbVertex
100
AcDbPolyFaceMeshVertex
 10
23.40127897262573
 20
20.16736221313476
 30
8.065892219543457
 70
   192
  0
VERTEX
  5
3BD
330
155
100
AcDbEntity
  8
0
100
AcDbVertex
100
AcDbPolyFaceMeshVertex
 10
11.09693527221679
 20
13.08299016952514
 30
0.0062389373779297
 70
   192
  0
VERTEX
  5
3BE
330
155
100
AcDbEntity
  8
0
100
AcDbVertex
100
AcDbPolyFaceMeshVertex
 10
12.55098581314086
 20
14.45397281646728
 30
0.5243625640869141
 70
   192
  0
VERTEX
  5
3BF
330
155
100
AcDbEntity
  8
0
100
AcDbVertex
100
AcDbPolyFaceMeshVertex
 10
14.41900157928466
 20
16.12986660003662
 30
1.528662681579589
 70
   192
  0
VERTEX
  5
3C0
330
155
100
AcDbEntity
  8
0
100
AcDbVertex
100
AcDbPolyFaceMeshVertex
 10
16.44346141815185
 20
17.93927001953125
 30
2.974947929382324
 70
   192
  0
VERTEX
  5
3C1
330
155
100
AcDbEntity
  8
0
100
AcDbVertex
100
AcDbPolyFaceMeshVertex
 10
18.75421369075775
 20
19.9797248840332
 30
5.577138423919677
 70
   192
  0
VERTEX
  5
3C2
330
155
100
AcDbEntity
  8
0
100
AcDbVertex
100
AcDbPolyFaceMeshVertex
 10
20.28368818759918
 20
21.38192749023437
 30
8.063380718231201
 70
   192
  0
VERTEX
  5
3C3
330
155
100
AcDbEntity
  8
0
100
AcDbVertex
100
AcDbPolyFaceMeshVertex
 10
9.283570289611816
 20
13.33934497833252
 30
0.0062389373779297
 70
   192
  0
VERTEX
  5
3C4
330
155
100
AcDbEntity
  8
0
100
AcDbVertex
100
AcDbPolyFaceMeshVertex
 10
10.32589149475097
 20
14.87537336349487
 30
0.5199270248413086
 70
   192
  0
VERTEX
  5
3C5
330
155
100
AcDbEntity
  8
0
100
AcDbVertex
100
AcDbPolyFaceMeshVertex
 10
11.89568090438842
 20
16.58241653442382
 30
1.524662971496582
 70
   192
  0
VERTEX
  5
3C6
330
155
100
AcDbEntity
  8
0
100
AcDbVertex
100
AcDbPolyFaceMeshVertex
 10
13.69561862945556
 20
18.35244941711425
 30
2.971541404724121
 70
   192
  0
VERTEX
  5
3C7
330
155
100
AcDbEntity
  8
0
100
AcDbVertex
100
AcDbPolyFaceMeshVertex
 10
15.69302177429199
 20
20.39691066741943
 30
5.574326992034912
 70
   192
  0
VERTEX
  5
3C8
330
155
100
AcDbEntity
  8
0
100
AcDbVertex
100
AcDbPolyFaceMeshVertex
 10
17.02947986125946
 20
21.77897548675537
 30
8.061002254486083
 70
   192
  0
VERTEX
  5
3C9
330
155
100
AcDbEntity
  8
0
100
AcDbVertex
100
AcDbPolyFaceMeshVertex
 10
6.955009460449218
 20
13.13043117523193
 30
0.0062379837036133
 70
   192
  0
VERTEX
  5
3CA
330
155
100
AcDbEntity
  8
0
100
AcDbVertex
100
AcDbPolyFaceMeshVertex
 10
7.60177993774414
 20
14.78234577178955
 30
0.5160379409790039
 70
   192
  0
VERTEX
  5
3CB
330
155
100
AcDbEntity
  8
0
100
AcDbVertex
100
AcDbPolyFaceMeshVertex
 10
8.786332130432128
 20
16.46302986145019
 30
1.521149635314941
 70
   192
  0
VERTEX
  5
3CC
330
155
100
AcDbEntity
  8
0
100
AcDbVertex
100
AcDbPolyFaceMeshVertex
 10
10.2211275100708
 20
18.13244152069091
 30
2.968539714813232
 70
   192
  0
VERTEX
  5
3CD
330
155
100
AcDbEntity
  8
0
100
AcDbVertex
100
AcDbPolyFaceMeshVertex
 10
11.77511119842529
 20
20.11451244354248
 30
5.571835994720458
 70
   192
  0
VERTEX
  5
3CE
330
155
100
AcDbEntity
  8
0
100
AcDbVertex
100
AcDbPolyFaceMeshVertex
 10
12.81903886795044
 20
21.4250259399414
 30
8.05888819694519
 70
   192
  0
VERTEX
  5
3CF
330
155
100
AcDbEntity
  8
0
100
AcDbVertex
100
AcDbPolyFaceMeshVertex
 10
4.63607120513916
 20
12.81523370742797
 30
0.0062389373779297
 70
   192
  0
VERTEX
  5
3D0
330
155
100
AcDbEntity
  8
0
100
AcDbVertex
100
AcDbPolyFaceMeshVertex
 10
4.962719917297363
 20
14.53937435150146
 30
0.5129661560058594
 70
   192
  0
VERTEX
  5
3D1
330
155
100
AcDbEntity
  8
0
100
AcDbVertex
100
AcDbPolyFaceMeshVertex
 10
5.759415626525878
 20
16.1826810836792
 30
1.518372535705566
 70
   192
  0
VERTEX
  5
3D2
330
155
100
AcDbEntity
  8
0
100
AcDbVertex
100
AcDbPolyFaceMeshVertex
 10
6.784404754638671
 20
17.75739479064941
 30
2.966145515441894
 70
   192
  0
VERTEX
  5
3D3
330
155
100
AcDbEntity
  8
0
100
AcDbVertex
100
AcDbPolyFaceMeshVertex
 10
7.866139411926269
 20
19.67526245117187
 30
5.569823741912841
 70
   192
  0
VERTEX
  5
3D4
330
155
100
AcDbEntity
  8
0
100
AcDbVertex
100
AcDbPolyFaceMeshVertex
 10
8.596168518066406
 20
20.91234397888183
 30
8.057171583175659
 70
   192
  0
VERTEX
  5
3D5
330
155
100
AcDbEntity
  8
0
100
AcDbVertex
100
AcDbPolyFaceMeshVertex
 10
2.303531646728515
 20
12.38931941986084
 30
0.0062389373779297
 70
   192
  0
VERTEX
  5
3D6
330
155
100
AcDbEntity
  8
0
100
AcDbVertex
100
AcDbPolyFaceMeshVertex
 10
2.408901214599609
 20
14.1290602684021
 30
0.5109834671020508
 70
   192
  0
VERTEX
  5
3D7
330
155
100
AcDbEntity
  8
0
100
AcDbVertex
100
AcDbPolyFaceMeshVertex
 10
2.809928894042968
 20
15.72422647476196
 30
1.516573905944824
 70
   192
  0
VERTEX
  5
3D8
330
155
100
AcDbEntity
  8
0
100
AcDbVertex
100
AcDbPolyFaceMeshVertex
 10
3.359942436218261
 20
17.21727466583252
 30
2.964560031890869
 70
   192
  0
VERTEX
  5
3D9
330
155
100
AcDbEntity
  8
0
100
AcDbVertex
100
AcDbPolyFaceMeshVertex
 10
3.925368309020996
 20
19.07366752624511
 30
5.568451404571533
 70
   192
  0
VERTEX
  5
3DA
330
155
100
AcDbEntity
  8
0
100
AcDbVertex
100
AcDbPolyFaceMeshVertex
 10
4.308686256408691
 20
20.23874568939209
 30
8.055984258651733
 70
   192
  0
VERTEX
  5
3DB
330
155
100
AcDbEntity
  8
0
100
AcDbVertex
100
AcDbPolyFaceMeshVertex
 10
-0.0114307403564453
 20
11.85712337493896
 30
0.0062389373779297
 70
   192
  0
VERTEX
  5
3DC
330
155
100
AcDbEntity
  8
0
100
AcDbVertex
100
AcDbPolyFaceMeshVertex
 10
-0.0012607574462891
 20
13.5408501625061
 30
0.5103616714477539
 70
   192
  0
VERTEX
  5
3DD
330
155
100
AcDbEntity
  8
0
100
AcDbVertex
100
AcDbPolyFaceMeshVertex
 10
0.0006122589111328
 20
15.07237100601196
 30
1.516000747680664
 70
   192
  0
VERTEX
  5
3DE
330
155
100
AcDbEntity
  8
0
100
AcDbVertex
100
AcDbPolyFaceMeshVertex
 10
0.0023632049560547
 20
16.49735927581787
 30
2.963986873626708
 70
   192
  0
VERTEX
  5
3DF
330
155
100
AcDbEntity
  8
0
100
AcDbVertex
100
AcDbPolyFaceMeshVertex
 10
0.0045642852783203
 20
18.29298782348632
 30
5.567878246307373
 70
   192
  0
VERTEX
  5
3E0
330
155
100
AcDbEntity
  8
0
100
AcDbVertex
100
AcDbPolyFaceMeshVertex
 10
0.0064411163330078
 20
19.38578605651855
 30
8.055459737777709
 70
   192
  0
VERTEX
  5
3E1
330
155
100
AcDbEntity
  8
0
100
AcDbFaceRecord
 10
0.0
 20
0.0
 30
0.0
 70
   128
 71
     1
 72
     2
 73
     3
  0
VERTEX
  5
3E2
330
155
100
AcDbEntity
  8
0
100
AcDbFaceRecord
 10
0.0
 20
0.0
 30
0.0
 70
   128
 71
     3
 72
     4
 73
    -1
  0
VERTEX
  5
3E3
330
155
100
AcDbEntity
  8
0
100
AcDbFaceRecord
 10
0.0
 20
0.0
 30
0.0
 70
   128
 71
     4
 72
     3
 73
     5
  0
VERTEX
  5
3E4
330
155
100
AcDbEntity
  8
0
100
AcDbFaceRecord
 10
0.0
 20
0.0
 30
0.0
 70
   128
 71
     5
 72
     6
 73
    -4
  0
VERTEX
  5
3E5
330
155
100
AcDbEntity
  8
0
100
AcDbFaceRecord
 10
0.0
 20
0.0
 30
0.0
 70
   128
 71
     7
 72
     8
 73
     9
  0
VERTEX
  5
3E6
330
155
100
AcDbEntity
  8
0
100
AcDbFaceRecord
 10
0.0
 20
0.0
 30
0.0
 70
   128
 71
     9
 72
    10
 73
    -7
  0
VERTEX
  5
3E7
330
155
100
AcDbEntity
  8
0
100
AcDbFaceRecord
 10
0.0
 20
0.0
 30
0.0
 70
   128
 71
    10
 72
     9
 73
    11
  0
VERTEX
  5
3E8
330
155
100
AcDbEntity
  8
0
100
AcDbFaceRecord
 10
0.0
 20
0.0
 30
0.0
 70
   128
 71
    11
 72
    12
 73
   -10
  0
VERTEX
  5
3E9
330
155
100
AcDbEntity
  8
0
100
AcDbFaceRecord
 10
0.0
 20
0.0
 30
0.0
 70
   128
 71
    12
 72
    11
 73
    13
  0
VERTEX
  5
3EA
330
155
100
AcDbEntity
  8
0
100
AcDbFaceRecord
 10
0.0
 20
0.0
 30
0.0
 70
   128
 71
    13
 72
    14
 73
   -12
  0
VERTEX
  5
3EB
330
155
100
AcDbEntity
  8
0
100
AcDbFaceRecord
 10
0.0
 20
0.0
 30
0.0
 70
   128
 71
    14
 72
    13
 73
    15
  0
VERTEX
  5
3EC
330
155
100
AcDbEntity
  8
0
100
AcDbFaceRecord
 10
0.0
 20
0.0
 30
0.0
 70
   128
 71
    15
 72
    16
 73
   -14
  0
VERTEX
  5
3ED
330
155
100
AcDbEntity
  8
0
100
AcDbFaceRecord
 10
0.0
 20
0.0
 30
0.0
 70
   128
 71
    16
 72
    15
 73
    17
  0
VERTEX
  5
3EE
330
155
100
AcDbEntity
  8
0
100
AcDbFaceRecord
 10
0.0
 20
0.0
 30
0.0
 70
   128
 71
    17
 72
    18
 73
   -16
  0
VERTEX
  5
3EF
330
155
100
AcDbEntity
  8
0
100
AcDbFaceRecord
 10
0.0
 20
0.0
 30
0.0
 70
   128
 71
    19
 72
    20
 73
    21
  0
VERTEX
  5
3F0
330
155
100
AcDbEntity
  8
0
100
AcDbFaceRecord
 10
0.0
 20
0.0
 30
0.0
 70
   128
 71
    21
 72
     2
 73
   -19
  0
VERTEX
  5
3F1
330
155
100
AcDbEntity
  8
0
100
AcDbFaceRecord
 10
0.0
 20
0.0
 30
0.0
 70
   128
 71
     2
 72
    21
 73
    22
  0
VERTEX
  5
3F2
330
155
100
AcDbEntity
  8
0
100
AcDbFaceRecord
 10
0.0
 20
0.0
 30
0.0
 70
   128
 71
    22
 72
     3
 73
    -2
  0
VERTEX
  5
3F3
330
155
100
AcDbEntity
  8
0
100
AcDbFaceRecord
 10
0.0
 20
0.0
 30
0.0
 70
   128
 71
     3
 72
    22
 73
    23
  0
VERTEX
  5
3F4
330
155
100
AcDbEntity
  8
0
100
AcDbFaceRecord
 10
0.0
 20
0.0
 30
0.0
 70
   128
 71
    23
 72
     5
 73
    -3
  0
VERTEX
  5
3F5
330
155
100
AcDbEntity
  8
0
100
AcDbFaceRecord
 10
0.0
 20
0.0
 30
0.0
 70
   128
 71
     5
 72
    23
 73
    24
  0
VERTEX
  5
3F6
330
155
100
AcDbEntity
  8
0
100
AcDbFaceRecord
 10
0.0
 20
0.0
 30
0.0
 70
   128
 71
    24
 72
    25
 73
    -5
  0
VERTEX
  5
3F7
330
155
100
AcDbEntity
  8
0
100
AcDbFaceRecord
 10
0.0
 20
0.0
 30
0.0
 70
   128
 71
    25
 72
    24
 73
    26
  0
VERTEX
  5
3F8
330
155
100
AcDbEntity
  8
0
100
AcDbFaceRecord
 10
0.0
 20
0.0
 30
0.0
 70
   128
 71
    26
 72
     8
 73
   -25
  0
VERTEX
  5
3F9
330
155
100
AcDbEntity
  8
0
100
AcDbFaceRecord
 10
0.0
 20
0.0
 30
0.0
 70
   128
 71
     8
 72
    26
 73
    27
  0
VERTEX
  5
3FA
330
155
100
AcDbEntity
  8
0
100
AcDbFaceRecord
 10
0.0
 20
0.0
 30
0.0
 70
   128
 71
    27
 72
     9
 73
    -8
  0
VERTEX
  5
3FB
330
155
100
AcDbEntity
  8
0
100
AcDbFaceRecord
 10
0.0
 20
0.0
 30
0.0
 70
   128
 71
     9
 72
    27
 73
    28
  0
VERTEX
  5
3FC
330
155
100
AcDbEntity
  8
0
100
AcDbFaceRecord
 10
0.0
 20
0.0
 30
0.0
 70
   128
 71
    28
 72
    11
 73
    -9
  0
VERTEX
  5
3FD
330
155
100
AcDbEntity
  8
0
100
AcDbFaceRecord
 10
0.0
 20
0.0
 30
0.0
 70
   128
 71
    11
 72
    28
 73
    29
  0
VERTEX
  5
3FE
330
155
100
AcDbEntity
  8
0
100
AcDbFaceRecord
 10
0.0
 20
0.0
 30
0.0
 70
   128
 71
    29
 72
    13
 73
   -11
  0
VERTEX
  5
3FF
330
155
100
AcDbEntity
  8
0
100
AcDbFaceRecord
 10
0.0
 20
0.0
 30
0.0
 70
   128
 71
    13
 72
    29
 73
    30
  0
VERTEX
  5
400
330
155
100
AcDbEntity
  8
0
100
AcDbFaceRecord
 10
0.0
 20
0.0
 30
0.0
 70
   128
 71
    30
 72
    15
 73
   -13
  0
VERTEX
  5
401
330
155
100
AcDbEntity
  8
0
100
AcDbFaceRecord
 10
0.0
 20
0.0
 30
0.0
 70
   128
 71
    15
 72
    30
 73
    31
  0
VERTEX
  5
402
330
155
100
AcDbEntity
  8
0
100
AcDbFaceRecord
 10
0.0
 20
0.0
 30
0.0
 70
   128
 71
    31
 72
    17
 73
   -15
  0
VERTEX
  5
403
330
155
100
AcDbEntity
  8
0
100
AcDbFaceRecord
 10
0.0
 20
0.0
 30
0.0
 70
   128
 71
    20
 72
    32
 73
    33
  0
VERTEX
  5
404
330
155
100
AcDbEntity
  8
0
100
AcDbFaceRecord
 10
0.0
 20
0.0
 30
0.0
 70
   128
 71
    33
 72
    21
 73
   -20
  0
VERTEX
  5
405
330
155
100
AcDbEntity
  8
0
100
AcDbFaceRecord
 10
0.0
 20
0.0
 30
0.0
 70
   128
 71
    21
 72
    33
 73
    34
  0
VERTEX
  5
406
330
155
100
AcDbEntity
  8
0
100
AcDbFaceRecord
 10
0.0
 20
0.0
 30
0.0
 70
   128
 71
    34
 72
    22
 73
   -21
  0
VERTEX
  5
407
330
155
100
AcDbEntity
  8
0
100
AcDbFaceRecord
 10
0.0
 20
0.0
 30
0.0
 70
   128
 71
    22
 72
    34
 73
    35
  0
VERTEX
  5
408
330
155
100
AcDbEntity
  8
0
100
AcDbFaceRecord
 10
0.0
 20
0.0
 30
0.0
 70
   128
 71
    35
 72
    23
 73
   -22
  0
VERTEX
  5
409
330
155
100
AcDbEntity
  8
0
100
AcDbFaceRecord
 10
0.0
 20
0.0
 30
0.0
 70
   128
 71
    23
 72
    35
 73
    36
  0
VERTEX
  5
40A
330
155
100
AcDbEntity
  8
0
100
AcDbFaceRecord
 10
0.0
 20
0.0
 30
0.0
 70
   128
 71
    36
 72
    24
 73
   -23
  0
VERTEX
  5
40B
330
155
100
AcDbEntity
  8
0
100
AcDbFaceRecord
 10
0.0
 20
0.0
 30
0.0
 70
   128
 71
    24
 72
    36
 73
    37
  0
VERTEX
  5
40C
330
155
100
AcDbEntity
  8
0
100
AcDbFaceRecord
 10
0.0
 20
0.0
 30
0.0
 70
   128
 71
    37
 72
    26
 73
   -24
  0
VERTEX
  5
40D
330
155
100
AcDbEntity
  8
0
100
AcDbFaceRecord
 10
0.0
 20
0.0
 30
0.0
 70
   128
 71
    26
 72
    37
 73
    38
  0
VERTEX
  5
40E
330
155
100
AcDbEntity
  8
0
100
AcDbFaceRecord
 10
0.0
 20
0.0
 30
0.0
 70
   128
 71
    38
 72
    27
 73
   -26
  0
VERTEX
  5
40F
330
155
100
AcDbEntity
  8
0
100
AcDbFaceRecord
 10
0.0
 20
0.0
 30
0.0
 70
   128
 71
    27
 72
    38
 73
    39
  0
VERTEX
  5
410
330
155
100
AcDbEntity
  8
0
100
AcDbFaceRecord
 10
0.0
 20
0.0
 30
0.0
 70
   128
 71
    39
 72
    28
 73
   -27
  0
VERTEX
  5
411
330
155
100
AcDbEntity
  8
0
100
AcDbFaceRecord
 10
0.0
 20
0.0
 30
0.0
 70
   128
 71
    28
 72
    39
 73
    40
  0
VERTEX
  5
412
330
155
100
AcDbEntity
  8
0
100
AcDbFaceRecord
 10
0.0
 20
0.0
 30
0.0
 70
   128
 71
    40
 72
    29
 73
   -28
  0
VERTEX
  5
413
330
155
100
AcDbEntity
  8
0
100
AcDbFaceRecord
 10
0.0
 20
0.0
 30
0.0
 70
   128
 71
    29
 72
    40
 73
    41
  0
VERTEX
  5
414
330
155
100
AcDbEntity
  8
0
100
AcDbFaceRecord
 10
0.0
 20
0.0
 30
0.0
 70
   128
 71
    41
 72
    30
 73
   -29
  0
VERTEX
  5
415
330
155
100
AcDbEntity
  8
0
100
AcDbFaceRecord
 10
0.0
 20
0.0
 30
0.0
 70
   128
 71
    30
 72
    41
 73
    42
  0
VERTEX
  5
416
330
155
100
AcDbEntity
  8
0
100
AcDbFaceRecord
 10
0.0
 20
0.0
 30
0.0
 70
   128
 71
    42
 72
    31
 73
   -30
  0
VERTEX
  5
417
330
155
100
AcDbEntity
  8
0
100
AcDbFaceRecord
 10
0.0
 20
0.0
 30
0.0
 70
   128
 71
    32
 72
    43
 73
    44
  0
VERTEX
  5
418
330
155
100
AcDbEntity
  8
0
100
AcDbFaceRecord
 10
0.0
 20
0.0
 30
0.0
 70
   128
 71
    44
 72
    33
 73
   -32
  0
VERTEX
  5
419
330
155
100
AcDbEntity
  8
0
100
AcDbFaceRecord
 10
0.0
 20
0.0
 30
0.0
 70
   128
 71
    33
 72
    44
 73
    45
  0
VERTEX
  5
41A
330
155
100
AcDbEntity
  8
0
100
AcDbFaceRecord
 10
0.0
 20
0.0
 30
0.0
 70
   128
 71
    45
 72
    34
 73
   -33
  0
VERTEX
  5
41B
330
155
100
AcDbEntity
  8
0
100
AcDbFaceRecord
 10
0.0
 20
0.0
 30
0.0
 70
   128
 71
    34
 72
    45
 73
    46
  0
VERTEX
  5
41C
330
155
100
AcDbEntity
  8
0
100
AcDbFaceRecord
 10
0.0
 20
0.0
 30
0.0
 70
   128
 71
    46
 72
    35
 73
   -34
  0
VERTEX
  5
41D
330
155
100
AcDbEntity
  8
0
100
AcDbFaceRecord
 10
0.0
 20
0.0
 30
0.0
 70
   128
 71
    35
 72
    46
 73
    47
  0
VERTEX
  5
41E
330
155
100
AcDbEntity
  8
0
100
AcDbFaceRecord
 10
0.0
 20
0.0
 30
0.0
 70
   128
 71
    47
 72
    36
 73
   -35
  0
VERTEX
  5
41F
330
155
100
AcDbEntity
  8
0
100
AcDbFaceRecord
 10
0.0
 20
0.0
 30
0.0
 70
   128
 71
    36
 72
    47
 73
    48
  0
VERTEX
  5
420
330
155
100
AcDbEntity
  8
0
100
AcDbFaceRecord
 10
0.0
 20
0.0
 30
0.0
 70
   128
 71
    48
 72
    37
 73
   -36
  0
VERTEX
  5
421
330
155
100
AcDbEntity
  8
0
100
AcDbFaceRecord
 10
0.0
 20
0.0
 30
0.0
 70
   128
 71
    37
 72
    48
 73
    49
  0
VERTEX
  5
422
330
155
100
AcDbEntity
  8
0
100
AcDbFaceRecord
 10
0.0
 20
0.0
 30
0.0
 70
   128
 71
    49
 72
    38
 73
   -37
  0
VERTEX
  5
423
330
155
100
AcDbEntity
  8
0
100
AcDbFaceRecord
 10
0.0
 20
0.0
 30
0.0
 70
   128
 71
    38
 72
    49
 73
    50
  0
VERTEX
  5
424
330
155
100
AcDbEntity
  8
0
100
AcDbFaceRecord
 10
0.0
 20
0.0
 30
0.0
 70
   128
 71
    50
 72
    39
 73
   -38
  0
VERTEX
  5
425
330
155
100
AcDbEntity
  8
0
100
AcDbFaceRecord
 10
0.0
 20
0.0
 30
0.0
 70
   128
 71
    39
 72
    50
 73
    51
  0
VERTEX
  5
426
330
155
100
AcDbEntity
  8
0
100
AcDbFaceRecord
 10
0.0
 20
0.0
 30
0.0
 70
   128
 71
    51
 72
    40
 73
   -39
  0
VERTEX
  5
427
330
155
100
AcDbEntity
  8
0
100
AcDbFaceRecord
 10
0.0
 20
0.0
 30
0.0
 70
   128
 71
    40
 72
    51
 73
    52
  0
VERTEX
  5
428
330
155
100
AcDbEntity
  8
0
100
AcDbFaceRecord
 10
0.0
 20
0.0
 30
0.0
 70
   128
 71
    52
 72
    41
 73
   -40
  0
VERTEX
  5
429
330
155
100
AcDbEntity
  8
0
100
AcDbFaceRecord
 10
0.0
 20
0.0
 30
0.0
 70
   128
 71
    41
 72
    52
 73
    53
  0
VERTEX
  5
42A
330
155
100
AcDbEntity
  8
0
100
AcDbFaceRecord
 10
0.0
 20
0.0
 30
0.0
 70
   128
 71
    53
 72
    42
 73
   -41
  0
VERTEX
  5
42B
330
155
100
AcDbEntity
  8
0
100
AcDbFaceRecord
 10
0.0
 20
0.0
 30
0.0
 70
   128
 71
    43
 72
    54
 73
    55
  0
VERTEX
  5
42C
330
155
100
AcDbEntity
  8
0
100
AcDbFaceRecord
 10
0.0
 20
0.0
 30
0.0
 70
   128
 71
    55
 72
    44
 73
   -43
  0
VERTEX
  5
42D
330
155
100
AcDbEntity
  8
0
100
AcDbFaceRecord
 10
0.0
 20
0.0
 30
0.0
 70
   128
 71
    44
 72
    55
 73
    56
  0
VERTEX
  5
42E
330
155
100
AcDbEntity
  8
0
100
AcDbFaceRecord
 10
0.0
 20
0.0
 30
0.0
 70
   128
 71
    56
 72
    45
 73
   -44
  0
VERTEX
  5
42F
330
155
100
AcDbEntity
  8
0
100
AcDbFaceRecord
 10
0.0
 20
0.0
 30
0.0
 70
   128
 71
    45
 72
    56
 73
    57
  0
VERTEX
  5
430
330
155
100
AcDbEntity
  8
0
100
AcDbFaceRecord
 10
0.0
 20
0.0
 30
0.0
 70
   128
 71
    57
 72
    46
 73
   -45
  0
VERTEX
  5
431
330
155
100
AcDbEntity
  8
0
100
AcDbFaceRecord
 10
0.0
 20
0.0
 30
0.0
 70
   128
 71
    46
 72
    57
 73
    58
  0
VERTEX
  5
432
330
155
100
AcDbEntity
  8
0
100
AcDbFaceRecord
 10
0.0
 20
0.0
 30
0.0
 70
   128
 71
    58
 72
    47
 73
   -46
  0
VERTEX
  5
433
330
155
100
AcDbEntity
  8
0
100
AcDbFaceRecord
 10
0.0
 20
0.0
 30
0.0
 70
   128
 71
    47
 72
    58
 73
    59
  0
VERTEX
  5
434
330
155
100
AcDbEntity
  8
0
100
AcDbFaceRecord
 10
0.0
 20
0.0
 30
0.0
 70
   128
 71
    59
 72
    48
 73
   -47
  0
VERTEX
  5
435
330
155
100
AcDbEntity
  8
0
100
AcDbFaceRecord
 10
0.0
 20
0.0
 30
0.0
 70
   128
 71
    48
 72
    59
 73
    60
  0
VERTEX
  5
436
330
155
100
AcDbEntity
  8
0
100
AcDbFaceRecord
 10
0.0
 20
0.0
 30
0.0
 70
   128
 71
    60
 72
    49
 73
   -48
  0
VERTEX
  5
437
330
155
100
AcDbEntity
  8
0
100
AcDbFaceRecord
 10
0.0
 20
0.0
 30
0.0
 70
   128
 71
    49
 72
    60
 73
    61
  0
VERTEX
  5
438
330
155
100
AcDbEntity
  8
0
100
AcDbFaceRecord
 10
0.0
 20
0.0
 30
0.0
 70
   128
 71
    61
 72
    50
 73
   -49
  0
VERTEX
  5
439
330
155
100
AcDbEntity
  8
0
100
AcDbFaceRecord
 10
0.0
 20
0.0
 30
0.0
 70
   128
 71
    50
 72
    61
 73
    62
  0
VERTEX
  5
43A
330
155
100
AcDbEntity
  8
0
100
AcDbFaceRecord
 10
0.0
 20
0.0
 30
0.0
 70
   128
 71
    62
 72
    51
 73
   -50
  0
VERTEX
  5
43B
330
155
100
AcDbEntity
  8
0
100
AcDbFaceRecord
 10
0.0
 20
0.0
 30
0.0
 70
   128
 71
    51
 72
    62
 73
    63
  0
VERTEX
  5
43C
330
155
100
AcDbEntity
  8
0
100
AcDbFaceRecord
 10
0.0
 20
0.0
 30
0.0
 70
   128
 71
    63
 72
    52
 73
   -51
  0
VERTEX
  5
43D
330
155
100
AcDbEntity
  8
0
100
AcDbFaceRecord
 10
0.0
 20
0.0
 30
0.0
 70
   128
 71
    52
 72
    63
 73
    64
  0
VERTEX
  5
43E
330
155
100
AcDbEntity
  8
0
100
AcDbFaceRecord
 10
0.0
 20
0.0
 30
0.0
 70
   128
 71
    64
 72
    53
 73
   -52
  0
VERTEX
  5
43F
330
155
100
AcDbEntity
  8
0
100
AcDbFaceRecord
 10
0.0
 20
0.0
 30
0.0
 70
   128
 71
    54
 72
    65
 73
    66
  0
VERTEX
  5
440
330
155
100
AcDbEntity
  8
0
100
AcDbFaceRecord
 10
0.0
 20
0.0
 30
0.0
 70
   128
 71
    66
 72
    55
 73
   -54
  0
VERTEX
  5
441
330
155
100
AcDbEntity
  8
0
100
AcDbFaceRecord
 10
0.0
 20
0.0
 30
0.0
 70
   128
 71
    55
 72
    66
 73
    67
  0
VERTEX
  5
442
330
155
100
AcDbEntity
  8
0
100
AcDbFaceRecord
 10
0.0
 20
0.0
 30
0.0
 70
   128
 71
    67
 72
    56
 73
   -55
  0
VERTEX
  5
443
330
155
100
AcDbEntity
  8
0
100
AcDbFaceRecord
 10
0.0
 20
0.0
 30
0.0
 70
   128
 71
    56
 72
    67
 73
    68
  0
VERTEX
  5
444
330
155
100
AcDbEntity
  8
0
100
AcDbFaceRecord
 10
0.0
 20
0.0
 30
0.0
 70
   128
 71
    68
 72
    57
 73
   -56
  0
VERTEX
  5
445
330
155
100
AcDbEntity
  8
0
100
AcDbFaceRecord
 10
0.0
 20
0.0
 30
0.0
 70
   128
 71
    57
 72
    68
 73
    69
  0
VERTEX
  5
446
330
155
100
AcDbEntity
  8
0
100
AcDbFaceRecord
 10
0.0
 20
0.0
 30
0.0
 70
   128
 71
    69
 72
    58
 73
   -57
  0
VERTEX
  5
447
330
155
100
AcDbEntity
  8
0
100
AcDbFaceRecord
 10
0.0
 20
0.0
 30
0.0
 70
   128
 71
    58
 72
    69
 73
    70
  0
VERTEX
  5
448
330
155
100
AcDbEntity
  8
0
100
AcDbFaceRecord
 10
0.0
 20
0.0
 30
0.0
 70
   128
 71
    70
 72
    59
 73
   -58
  0
VERTEX
  5
449
330
155
100
AcDbEntity
  8
0
100
AcDbFaceRecord
 10
0.0
 20
0.0
 30
0.0
 70
   128
 71
    59
 72
    70
 73
    71
  0
VERTEX
  5
44A
330
155
100
AcDbEntity
  8
0
100
AcDbFaceRecord
 10
0.0
 20
0.0
 30
0.0
 70
   128
 71
    71
 72
    60
 73
   -59
  0
VERTEX
  5
44B
330
155
100
AcDbEntity
  8
0
100
AcDbFaceRecord
 10
0.0
 20
0.0
 30
0.0
 70
   128
 71
    60
 72
    71
 73
    72
  0
VERTEX
  5
44C
330
155
100
AcDbEntity
  8
0
100
AcDbFaceRecord
 10
0.0
 20
0.0
 30
0.0
 70
   128
 71
    72
 72
    61
 73
   -60
  0
VERTEX
  5
44D
330
155
100
AcDbEntity
  8
0
100
AcDbFaceRecord
 10
0.0
 20
0.0
 30
0.0
 70
   128
 71
    61
 72
    72
 73
    73
  0
VERTEX
  5
44E
330
155
100
AcDbEntity
  8
0
100
AcDbFaceRecord
 10
0.0
 20
0.0
 30
0.0
 70
   128
 71
    73
 72
    62
 73
   -61
  0
VERTEX
  5
44F
330
155
100
AcDbEntity
  8
0
100
AcDbFaceRecord
 10
0.0
 20
0.0
 30
0.0
 70
   128
 71
    62
 72
    73
 73
    74
  0
VERTEX
  5
450
330
155
100
AcDbEntity
  8
0
100
AcDbFaceRecord
 10
0.0
 20
0.0
 30
0.0
 70
   128
 71
    74
 72
    63
 73
   -62
  0
VERTEX
  5
451
330
155
100
AcDbEntity
  8
0
100
AcDbFaceRecord
 10
0.0
 20
0.0
 30
0.0
 70
   128
 71
    63
 72
    74
 73
    75
  0
VERTEX
  5
452
330
155
100
AcDbEntity
  8
0
100
AcDbFaceRecord
 10
0.0
 20
0.0
 30
0.0
 70
   128
 71
    75
 72
    64
 73
   -63
  0
VERTEX
  5
453
330
155
100
AcDbEntity
  8
0
100
AcDbFaceRecord
 10
0.0
 20
0.0
 30
0.0
 70
   128
 71
    65
 72
    76
 73
    77
  0
VERTEX
  5
454
330
155
100
AcDbEntity
  8
0
100
AcDbFaceRecord
 10
0.0
 20
0.0
 30
0.0
 70
   128
 71
    77
 72
    66
 73
   -65
  0
VERTEX
  5
455
330
155
100
AcDbEntity
  8
0
100
AcDbFaceRecord
 10
0.0
 20
0.0
 30
0.0
 70
   128
 71
    66
 72
    77
 73
    78
  0
VERTEX
  5
456
330
155
100
AcDbEntity
  8
0
100
AcDbFaceRecord
 10
0.0
 20
0.0
 30
0.0
 70
   128
 71
    78
 72
    67
 73
   -66
  0
VERTEX
  5
457
330
155
100
AcDbEntity
  8
0
100
AcDbFaceRecord
 10
0.0
 20
0.0
 30
0.0
 70
   128
 71
    67
 72
    78
 73
    79
  0
VERTEX
  5
458
330
155
100
AcDbEntity
  8
0
100
AcDbFaceRecord
 10
0.0
 20
0.0
 30
0.0
 70
   128
 71
    79
 72
    68
 73
   -67
  0
VERTEX
  5
459
330
155
100
AcDbEntity
  8
0
100
AcDbFaceRecord
 10
0.0
 20
0.0
 30
0.0
 70
   128
 71
    68
 72
    79
 73
    80
  0
VERTEX
  5
45A
330
155
100
AcDbEntity
  8
0
100
AcDbFaceRecord
 10
0.0
 20
0.0
 30
0.0
 70
   128
 71
    80
 72
    69
 73
   -68
  0
VERTEX
  5
45B
330
155
100
AcDbEntity
  8
0
100
AcDbFaceRecord
 10
0.0
 20
0.0
 30
0.0
 70
   128
 71
    69
 72
    80
 73
    81
  0
VERTEX
  5
45C
330
155
100
AcDbEntity
  8
0
100
AcDbFaceRecord
 10
0.0
 20
0.0
 30
0.0
 70
   128
 71
    81
 72
    70
 73
   -69
  0
VERTEX
  5
45D
330
155
100
AcDbEntity
  8
0
100
AcDbFaceRecord
 10
0.0
 20
0.0
 30
0.0
 70
   128
 71
    70
 72
    81
 73
    82
  0
VERTEX
  5
45E
330
155
100
AcDbEntity
  8
0
100
AcDbFaceRecord
 10
0.0
 20
0.0
 30
0.0
 70
   128
 71
    82
 72
    71
 73
   -70
  0
VERTEX
  5
45F
330
155
100
AcDbEntity
  8
0
100
AcDbFaceRecord
 10
0.0
 20
0.0
 30
0.0
 70
   128
 71
    71
 72
    82
 73
    83
  0
VERTEX
  5
460
330
155
100
AcDbEntity
  8
0
100
AcDbFaceRecord
 10
0.0
 20
0.0
 30
0.0
 70
   128
 71
    83
 72
    72
 73
   -71
  0
VERTEX
  5
461
330
155
100
AcDbEntity
  8
0
100
AcDbFaceRecord
 10
0.0
 20
0.0
 30
0.0
 70
   128
 71
    72
 72
    83
 73
    84
  0
VERTEX
  5
462
330
155
100
AcDbEntity
  8
0
100
AcDbFaceRecord
 10
0.0
 20
0.0
 30
0.0
 70
   128
 71
    84
 72
    73
 73
   -72
  0
VERTEX
  5
463
330
155
100
AcDbEntity
  8
0
100
AcDbFaceRecord
 10
0.0
 20
0.0
 30
0.0
 70
   128
 71
    73
 72
    84
 73
    85
  0
VERTEX
  5
464
330
155
100
AcDbEntity
  8
0
100
AcDbFaceRecord
 10
0.0
 20
0.0
 30
0.0
 70
   128
 71
    85
 72
    74
 73
   -73
  0
VERTEX
  5
465
330
155
100
AcDbEntity
  8
0
100
AcDbFaceRecord
 10
0.0
 20
0.0
 30
0.0
 70
   128
 71
    74
 72
    85
 73
    86
  0
VERTEX
  5
466
330
155
100
AcDbEntity
  8
0
100
AcDbFaceRecord
 10
0.0
 20
0.0
 30
0.0
 70
   128
 71
    86
 72
    75
 73
   -74
  0
VERTEX
  5
467
330
155
100
AcDbEntity
  8
0
100
AcDbFaceRecord
 10
0.0
 20
0.0
 30
0.0
 70
   128
 71
    76
 72
    87
 73
    88
  0
VERTEX
  5
468
330
155
100
AcDbEntity
  8
0
100
AcDbFaceRecord
 10
0.0
 20
0.0
 30
0.0
 70
   128
 71
    88
 72
    77
 73
   -76
  0
VERTEX
  5
469
330
155
100
AcDbEntity
  8
0
100
AcDbFaceRecord
 10
0.0
 20
0.0
 30
0.0
 70
   128
 71
    77
 72
    88
 73
    89
  0
VERTEX
  5
46A
330
155
100
AcDbEntity
  8
0
100
AcDbFaceRecord
 10
0.0
 20
0.0
 30
0.0
 70
   128
 71
    89
 72
    78
 73
   -77
  0
VERTEX
  5
46B
330
155
100
AcDbEntity
  8
0
100
AcDbFaceRecord
 10
0.0
 20
0.0
 30
0.0
 70
   128
 71
    78
 72
    89
 73
    90
  0
VERTEX
  5
46C
330
155
100
AcDbEntity
  8
0
100
AcDbFaceRecord
 10
0.0
 20
0.0
 30
0.0
 70
   128
 71
    90
 72
    79
 73
   -78
  0
VERTEX
  5
46D
330
155
100
AcDbEntity
  8
0
100
AcDbFaceRecord
 10
0.0
 20
0.0
 30
0.0
 70
   128
 71
    79
 72
    90
 73
    91
  0
VERTEX
  5
46E
330
155
100
AcDbEntity
  8
0
100
AcDbFaceRecord
 10
0.0
 20
0.0
 30
0.0
 70
   128
 71
    91
 72
    80
 73
   -79
  0
VERTEX
  5
46F
330
155
100
AcDbEntity
  8
0
100
AcDbFaceRecord
 10
0.0
 20
0.0
 30
0.0
 70
   128
 71
    80
 72
    91
 73
    92
  0
VERTEX
  5
470
330
155
100
AcDbEntity
  8
0
100
AcDbFaceRecord
 10
0.0
 20
0.0
 30
0.0
 70
   128
 71
    92
 72
    81
 73
   -80
  0
VERTEX
  5
471
330
155
100
AcDbEntity
  8
0
100
AcDbFaceRecord
 10
0.0
 20
0.0
 30
0.0
 70
   128
 71
    81
 72
    92
 73
    93
  0
VERTEX
  5
472
330
155
100
AcDbEntity
  8
0
100
AcDbFaceRecord
 10
0.0
 20
0.0
 30
0.0
 70
   128
 71
    93
 72
    82
 73
   -81
  0
VERTEX
  5
473
330
155
100
AcDbEntity
  8
0
100
AcDbFaceRecord
 10
0.0
 20
0.0
 30
0.0
 70
   128
 71
    82
 72
    93
 73
    94
  0
VERTEX
  5
474
330
155
100
AcDbEntity
  8
0
100
AcDbFaceRecord
 10
0.0
 20
0.0
 30
0.0
 70
   128
 71
    94
 72
    83
 73
   -82
  0
VERTEX
  5
475
330
155
100
AcDbEntity
  8
0
100
AcDbFaceRecord
 10
0.0
 20
0.0
 30
0.0
 70
   128
 71
    83
 72
    94
 73
    95
  0
VERTEX
  5
476
330
155
100
AcDbEntity
  8
0
100
AcDbFaceRecord
 10
0.0
 20
0.0
 30
0.0
 70
   128
 71
    95
 72
    84
 73
   -83
  0
VERTEX
  5
477
330
155
100
AcDbEntity
  8
0
100
AcDbFaceRecord
 10
0.0
 20
0.0
 30
0.0
 70
   128
 71
    84
 72
    95
 73
    96
  0
VERTEX
  5
478
330
155
100
AcDbEntity
  8
0
100
AcDbFaceRecord
 10
0.0
 20
0.0
 30
0.0
 70
   128
 71
    96
 72
    85
 73
   -84
  0
VERTEX
  5
479
330
155
100
AcDbEntity
  8
0
100
AcDbFaceRecord
 10
0.0
 20
0.0
 30
0.0
 70
   128
 71
    85
 72
    96
 73
    97
  0
VERTEX
  5
47A
330
155
100
AcDbEntity
  8
0
100
AcDbFaceRecord
 10
0.0
 20
0.0
 30
0.0
 70
   128
 71
    97
 72
    86
 73
   -85
  0
VERTEX
  5
47B
330
155
100
AcDbEntity
  8
0
100
AcDbFaceRecord
 10
0.0
 20
0.0
 30
0.0
 70
   128
 71
    87
 72
    98
 73
    99
  0
VERTEX
  5
47C
330
155
100
AcDbEntity
  8
0
100
AcDbFaceRecord
 10
0.0
 20
0.0
 30
0.0
 70
   128
 71
    99
 72
    88
 73
   -87
  0
VERTEX
  5
47D
330
155
100
AcDbEntity
  8
0
100
AcDbFaceRecord
 10
0.0
 20
0.0
 30
0.0
 70
   128
 71
    88
 72
    99
 73
   100
  0
VERTEX
  5
47E
330
155
100
AcDbEntity
  8
0
100
AcDbFaceRecord
 10
0.0
 20
0.0
 30
0.0
 70
   128
 71
   100
 72
    89
 73
   -88
  0
VERTEX
  5
47F
330
155
100
AcDbEntity
  8
0
100
AcDbFaceRecord
 10
0.0
 20
0.0
 30
0.0
 70
   128
 71
    89
 72
   100
 73
   101
  0
VERTEX
  5
480
330
155
100
AcDbEntity
  8
0
100
AcDbFaceRecord
 10
0.0
 20
0.0
 30
0.0
 70
   128
 71
   101
 72
    90
 73
   -89
  0
VERTEX
  5
481
330
155
100
AcDbEntity
  8
0
100
AcDbFaceRecord
 10
0.0
 20
0.0
 30
0.0
 70
   128
 71
    90
 72
   101
 73
   102
  0
VERTEX
  5
482
330
155
100
AcDbEntity
  8
0
100
AcDbFaceRecord
 10
0.0
 20
0.0
 30
0.0
 70
   128
 71
   102
 72
    91
 73
   -90
  0
VERTEX
  5
483
330
155
100
AcDbEntity
  8
0
100
AcDbFaceRecord
 10
0.0
 20
0.0
 30
0.0
 70
   128
 71
    91
 72
   102
 73
   103
  0
VERTEX
  5
484
330
155
100
AcDbEntity
  8
0
100
AcDbFaceRecord
 10
0.0
 20
0.0
 30
0.0
 70
   128
 71
   103
 72
    92
 73
   -91
  0
VERTEX
  5
485
330
155
100
AcDbEntity
  8
0
100
AcDbFaceRecord
 10
0.0
 20
0.0
 30
0.0
 70
   128
 71
    92
 72
   103
 73
   104
  0
VERTEX
  5
486
330
155
100
AcDbEntity
  8
0
100
AcDbFaceRecord
 10
0.0
 20
0.0
 30
0.0
 70
   128
 71
   104
 72
    93
 73
   -92
  0
VERTEX
  5
487
330
155
100
AcDbEntity
  8
0
100
AcDbFaceRecord
 10
0.0
 20
0.0
 30
0.0
 70
   128
 71
    93
 72
   104
 73
   105
  0
VERTEX
  5
488
330
155
100
AcDbEntity
  8
0
100
AcDbFaceRecord
 10
0.0
 20
0.0
 30
0.0
 70
   128
 71
   105
 72
    94
 73
   -93
  0
VERTEX
  5
489
330
155
100
AcDbEntity
  8
0
100
AcDbFaceRecord
 10
0.0
 20
0.0
 30
0.0
 70
   128
 71
    94
 72
   105
 73
   106
  0
VERTEX
  5
48A
330
155
100
AcDbEntity
  8
0
100
AcDbFaceRecord
 10
0.0
 20
0.0
 30
0.0
 70
   128
 71
   106
 72
    95
 73
   -94
  0
VERTEX
  5
48B
330
155
100
AcDbEntity
  8
0
100
AcDbFaceRecord
 10
0.0
 20
0.0
 30
0.0
 70
   128
 71
    95
 72
   106
 73
   107
  0
VERTEX
  5
48C
330
155
100
AcDbEntity
  8
0
100
AcDbFaceRecord
 10
0.0
 20
0.0
 30
0.0
 70
   128
 71
   107
 72
    96
 73
   -95
  0
VERTEX
  5
48D
330
155
100
AcDbEntity
  8
0
100
AcDbFaceRecord
 10
0.0
 20
0.0
 30
0.0
 70
   128
 71
    96
 72
   107
 73
   108
  0
VERTEX
  5
48E
330
155
100
AcDbEntity
  8
0
100
AcDbFaceRecord
 10
0.0
 20
0.0
 30
0.0
 70
   128
 71
   108
 72
    97
 73
   -96
  0
VERTEX
  5
48F
330
155
100
AcDbEntity
  8
0
100
AcDbFaceRecord
 10
0.0
 20
0.0
 30
0.0
 70
   128
 71
    98
 72
   109
 73
   110
  0
VERTEX
  5
490
330
155
100
AcDbEntity
  8
0
100
AcDbFaceRecord
 10
0.0
 20
0.0
 30
0.0
 70
   128
 71
   110
 72
    99
 73
   -98
  0
VERTEX
  5
491
330
155
100
AcDbEntity
  8
0
100
AcDbFaceRecord
 10
0.0
 20
0.0
 30
0.0
 70
   128
 71
    99
 72
   110
 73
   111
  0
VERTEX
  5
492
330
155
100
AcDbEntity
  8
0
100
AcDbFaceRecord
 10
0.0
 20
0.0
 30
0.0
 70
   128
 71
   111
 72
   100
 73
   -99
  0
VERTEX
  5
493
330
155
100
AcDbEntity
  8
0
100
AcDbFaceRecord
 10
0.0
 20
0.0
 30
0.0
 70
   128
 71
   100
 72
   111
 73
   112
  0
VERTEX
  5
494
330
155
100
AcDbEntity
  8
0
100
AcDbFaceRecord
 10
0.0
 20
0.0
 30
0.0
 70
   128
 71
   112
 72
   101
 73
  -100
  0
VERTEX
  5
495
330
155
100
AcDbEntity
  8
0
100
AcDbFaceRecord
 10
0.0
 20
0.0
 30
0.0
 70
   128
 71
   101
 72
   112
 73
   113
  0
VERTEX
  5
496
330
155
100
AcDbEntity
  8
0
100
AcDbFaceRecord
 10
0.0
 20
0.0
 30
0.0
 70
   128
 71
   113
 72
   102
 73
  -101
  0
VERTEX
  5
497
330
155
100
AcDbEntity
  8
0
100
AcDbFaceRecord
 10
0.0
 20
0.0
 30
0.0
 70
   128
 71
   102
 72
   113
 73
   114
  0
VERTEX
  5
498
330
155
100
AcDbEntity
  8
0
100
AcDbFaceRecord
 10
0.0
 20
0.0
 30
0.0
 70
   128
 71
   114
 72
   103
 73
  -102
  0
VERTEX
  5
499
330
155
100
AcDbEntity
  8
0
100
AcDbFaceRecord
 10
0.0
 20
0.0
 30
0.0
 70
   128
 71
   103
 72
   114
 73
   115
  0
VERTEX
  5
49A
330
155
100
AcDbEntity
  8
0
100
AcDbFaceRecord
 10
0.0
 20
0.0
 30
0.0
 70
   128
 71
   115
 72
   104
 73
  -103
  0
VERTEX
  5
49B
330
155
100
AcDbEntity
  8
0
100
AcDbFaceRecord
 10
0.0
 20
0.0
 30
0.0
 70
   128
 71
   104
 72
   115
 73
   116
  0
VERTEX
  5
49C
330
155
100
AcDbEntity
  8
0
100
AcDbFaceRecord
 10
0.0
 20
0.0
 30
0.0
 70
   128
 71
   116
 72
   105
 73
  -104
  0
VERTEX
  5
49D
330
155
100
AcDbEntity
  8
0
100
AcDbFaceRecord
 10
0.0
 20
0.0
 30
0.0
 70
   128
 71
   105
 72
   116
 73
   117
  0
VERTEX
  5
49E
330
155
100
AcDbEntity
  8
0
100
AcDbFaceRecord
 10
0.0
 20
0.0
 30
0.0
 70
   128
 71
   117
 72
   106
 73
  -105
  0
VERTEX
  5
49F
330
155
100
AcDbEntity
  8
0
100
AcDbFaceRecord
 10
0.0
 20
0.0
 30
0.0
 70
   128
 71
   106
 72
   117
 73
   118
  0
VERTEX
  5
4A0
330
155
100
AcDbEntity
  8
0
100
AcDbFaceRecord
 10
0.0
 20
0.0
 30
0.0
 70
   128
 71
   118
 72
   107
 73
  -106
  0
VERTEX
  5
4A1
330
155
100
AcDbEntity
  8
0
100
AcDbFaceRecord
 10
0.0
 20
0.0
 30
0.0
 70
   128
 71
   107
 72
   118
 73
   119
  0
VERTEX
  5
4A2
330
155
100
AcDbEntity
  8
0
100
AcDbFaceRecord
 10
0.0
 20
0.0
 30
0.0
 70
   128
 71
   119
 72
   108
 73
  -107
  0
VERTEX
  5
4A3
330
155
100
AcDbEntity
  8
0
100
AcDbFaceRecord
 10
0.0
 20
0.0
 30
0.0
 70
   128
 71
   120
 72
   121
 73
   122
  0
VERTEX
  5
4A4
330
155
100
AcDbEntity
  8
0
100
AcDbFaceRecord
 10
0.0
 20
0.0
 30
0.0
 70
   128
 71
   122
 72
   123
 73
  -120
  0
VERTEX
  5
4A5
330
155
100
AcDbEntity
  8
0
100
AcDbFaceRecord
 10
0.0
 20
0.0
 30
0.0
 70
   128
 71
   123
 72
   122
 73
   124
  0
VERTEX
  5
4A6
330
155
100
AcDbEntity
  8
0
100
AcDbFaceRecord
 10
0.0
 20
0.0
 30
0.0
 70
   128
 71
   124
 72
   125
 73
  -123
  0
VERTEX
  5
4A7
330
155
100
AcDbEntity
  8
0
100
AcDbFaceRecord
 10
0.0
 20
0.0
 30
0.0
 70
   128
 71
   125
 72
   124
 73
   126
  0
VERTEX
  5
4A8
330
155
100
AcDbEntity
  8
0
100
AcDbFaceRecord
 10
0.0
 20
0.0
 30
0.0
 70
   128
 71
   126
 72
   127
 73
  -125
  0
VERTEX
  5
4A9
330
155
100
AcDbEntity
  8
0
100
AcDbFaceRecord
 10
0.0
 20
0.0
 30
0.0
 70
   128
 71
   127
 72
   126
 73
   128
  0
VERTEX
  5
4AA
330
155
100
AcDbEntity
  8
0
100
AcDbFaceRecord
 10
0.0
 20
0.0
 30
0.0
 70
   128
 71
   128
 72
   129
 73
  -127
  0
VERTEX
  5
4AB
330
155
100
AcDbEntity
  8
0
100
AcDbFaceRecord
 10
0.0
 20
0.0
 30
0.0
 70
   128
 71
   129
 72
   128
 73
   130
  0
VERTEX
  5
4AC
330
155
100
AcDbEntity
  8
0
100
AcDbFaceRecord
 10
0.0
 20
0.0
 30
0.0
 70
   128
 71
   130
 72
   131
 73
  -129
  0
VERTEX
  5
4AD
330
155
100
AcDbEntity
  8
0
100
AcDbFaceRecord
 10
0.0
 20
0.0
 30
0.0
 70
   128
 71
   121
 72
   132
 73
   133
  0
VERTEX
  5
4AE
330
155
100
AcDbEntity
  8
0
100
AcDbFaceRecord
 10
0.0
 20
0.0
 30
0.0
 70
   128
 71
   133
 72
   122
 73
  -121
  0
VERTEX
  5
4AF
330
155
100
AcDbEntity
  8
0
100
AcDbFaceRecord
 10
0.0
 20
0.0
 30
0.0
 70
   128
 71
   122
 72
   133
 73
   134
  0
VERTEX
  5
4B0
330
155
100
AcDbEntity
  8
0
100
AcDbFaceRecord
 10
0.0
 20
0.0
 30
0.0
 70
   128
 71
   134
 72
   124
 73
  -122
  0
VERTEX
  5
4B1
330
155
100
AcDbEntity
  8
0
100
AcDbFaceRecord
 10
0.0
 20
0.0
 30
0.0
 70
   128
 71
   124
 72
   134
 73
   135
  0
VERTEX
  5
4B2
330
155
100
AcDbEntity
  8
0
100
AcDbFaceRecord
 10
0.0
 20
0.0
 30
0.0
 70
   128
 71
   135
 72
   126
 73
  -124
  0
VERTEX
  5
4B3
330
155
100
AcDbEntity
  8
0
100
AcDbFaceRecord
 10
0.0
 20
0.0
 30
0.0
 70
   128
 71
   126
 72
   135
 73
   136
  0
VERTEX
  5
4B4
330
155
100
AcDbEntity
  8
0
100
AcDbFaceRecord
 10
0.0
 20
0.0
 30
0.0
 70
   128
 71
   136
 72
   128
 73
  -126
  0
VERTEX
  5
4B5
330
155
100
AcDbEntity
  8
0
100
AcDbFaceRecord
 10
0.0
 20
0.0
 30
0.0
 70
   128
 71
   128
 72
   136
 73
   137
  0
VERTEX
  5
4B6
330
155
100
AcDbEntity
  8
0
100
AcDbFaceRecord
 10
0.0
 20
0.0
 30
0.0
 70
   128
 71
   137
 72
   130
 73
  -128
  0
VERTEX
  5
4B7
330
155
100
AcDbEntity
  8
0
100
AcDbFaceRecord
 10
0.0
 20
0.0
 30
0.0
 70
   128
 71
   132
 72
   138
 73
   139
  0
VERTEX
  5
4B8
330
155
100
AcDbEntity
  8
0
100
AcDbFaceRecord
 10
0.0
 20
0.0
 30
0.0
 70
   128
 71
   139
 72
   133
 73
  -132
  0
VERTEX
  5
4B9
330
155
100
AcDbEntity
  8
0
100
AcDbFaceRecord
 10
0.0
 20
0.0
 30
0.0
 70
   128
 71
   133
 72
   139
 73
   140
  0
VERTEX
  5
4BA
330
155
100
AcDbEntity
  8
0
100
AcDbFaceRecord
 10
0.0
 20
0.0
 30
0.0
 70
   128
 71
   140
 72
   134
 73
  -133
  0
VERTEX
  5
4BB
330
155
100
AcDbEntity
  8
0
100
AcDbFaceRecord
 10
0.0
 20
0.0
 30
0.0
 70
   128
 71
   134
 72
   140
 73
   141
  0
VERTEX
  5
4BC
330
155
100
AcDbEntity
  8
0
100
AcDbFaceRecord
 10
0.0
 20
0.0
 30
0.0
 70
   128
 71
   141
 72
   135
 73
  -134
  0
VERTEX
  5
4BD
330
155
100
AcDbEntity
  8
0
100
AcDbFaceRecord
 10
0.0
 20
0.0
 30
0.0
 70
   128
 71
   135
 72
   141
 73
   142
  0
VERTEX
  5
4BE
330
155
100
AcDbEntity
  8
0
100
AcDbFaceRecord
 10
0.0
 20
0.0
 30
0.0
 70
   128
 71
   142
 72
   136
 73
  -135
  0
VERTEX
  5
4BF
330
155
100
AcDbEntity
  8
0
100
AcDbFaceRecord
 10
0.0
 20
0.0
 30
0.0
 70
   128
 71
   136
 72
   142
 73
   143
  0
VERTEX
  5
4C0
330
155
100
AcDbEntity
  8
0
100
AcDbFaceRecord
 10
0.0
 20
0.0
 30
0.0
 70
   128
 71
   143
 72
   137
 73
  -136
  0
VERTEX
  5
4C1
330
155
100
AcDbEntity
  8
0
100
AcDbFaceRecord
 10
0.0
 20
0.0
 30
0.0
 70
   128
 71
   138
 72
     7
 73
    10
  0
VERTEX
  5
4C2
330
155
100
AcDbEntity
  8
0
100
AcDbFaceRecord
 10
0.0
 20
0.0
 30
0.0
 70
   128
 71
    10
 72
   139
 73
  -138
  0
VERTEX
  5
4C3
330
155
100
AcDbEntity
  8
0
100
AcDbFaceRecord
 10
0.0
 20
0.0
 30
0.0
 70
   128
 71
   139
 72
    10
 73
    12
  0
VERTEX
  5
4C4
330
155
100
AcDbEntity
  8
0
100
AcDbFaceRecord
 10
0.0
 20
0.0
 30
0.0
 70
   128
 71
    12
 72
   140
 73
  -139
  0
VERTEX
  5
4C5
330
155
100
AcDbEntity
  8
0
100
AcDbFaceRecord
 10
0.0
 20
0.0
 30
0.0
 70
   128
 71
   140
 72
    12
 73
    14
  0
VERTEX
  5
4C6
330
155
100
AcDbEntity
  8
0
100
AcDbFaceRecord
 10
0.0
 20
0.0
 30
0.0
 70
   128
 71
    14
 72
   141
 73
  -140
  0
VERTEX
  5
4C7
330
155
100
AcDbEntity
  8
0
100
AcDbFaceRecord
 10
0.0
 20
0.0
 30
0.0
 70
   128
 71
   141
 72
    14
 73
    16
  0
VERTEX
  5
4C8
330
155
100
AcDbEntity
  8
0
100
AcDbFaceRecord
 10
0.0
 20
0.0
 30
0.0
 70
   128
 71
    16
 72
   142
 73
  -141
  0
VERTEX
  5
4C9
330
155
100
AcDbEntity
  8
0
100
AcDbFaceRecord
 10
0.0
 20
0.0
 30
0.0
 70
   128
 71
   142
 72
    16
 73
   144
  0
VERTEX
  5
4CA
330
155
100
AcDbEntity
  8
0
100
AcDbFaceRecord
 10
0.0
 20
0.0
 30
0.0
 70
   128
 71
   144
 72
   143
 73
  -142
  0
VERTEX
  5
4CB
330
155
100
AcDbEntity
  8
0
100
AcDbFaceRecord
 10
0.0
 20
0.0
 30
0.0
 70
   128
 71
   145
 72
   146
 73
   147
  0
VERTEX
  5
4CC
330
155
100
AcDbEntity
  8
0
100
AcDbFaceRecord
 10
0.0
 20
0.0
 30
0.0
 70
   128
 71
   147
 72
   148
 73
  -145
  0
VERTEX
  5
4CD
330
155
100
AcDbEntity
  8
0
100
AcDbFaceRecord
 10
0.0
 20
0.0
 30
0.0
 70
   128
 71
   146
 72
     1
 73
     4
  0
VERTEX
  5
4CE
330
155
100
AcDbEntity
  8
0
100
AcDbFaceRecord
 10
0.0
 20
0.0
 30
0.0
 70
   128
 71
     4
 72
   147
 73
  -146
  0
VERTEX
  5
4CF
330
155
100
AcDbEntity
  8
0
100
AcDbFaceRecord
 10
0.0
 20
0.0
 30
0.0
 70
   128
 71
   149
 72
   150
 73
   151
  0
VERTEX
  5
4D0
330
155
100
AcDbEntity
  8
0
100
AcDbFaceRecord
 10
0.0
 20
0.0
 30
0.0
 70
   128
 71
   151
 72
   152
 73
  -149
  0
VERTEX
  5
4D1
330
155
100
AcDbEntity
  8
0
100
AcDbFaceRecord
 10
0.0
 20
0.0
 30
0.0
 70
   128
 71
   150
 72
   148
 73
   153
  0
VERTEX
  5
4D2
330
155
100
AcDbEntity
  8
0
100
AcDbFaceRecord
 10
0.0
 20
0.0
 30
0.0
 70
   128
 71
   153
 72
   151
 73
  -150
  0
VERTEX
  5
4D3
330
155
100
AcDbEntity
  8
0
100
AcDbFaceRecord
 10
0.0
 20
0.0
 30
0.0
 70
   128
 71
   148
 72
   147
 73
   154
  0
VERTEX
  5
4D4
330
155
100
AcDbEntity
  8
0
100
AcDbFaceRecord
 10
0.0
 20
0.0
 30
0.0
 70
   128
 71
   154
 72
   153
 73
  -148
  0
VERTEX
  5
4D5
330
155
100
AcDbEntity
  8
0
100
AcDbFaceRecord
 10
0.0
 20
0.0
 30
0.0
 70
   128
 71
   147
 72
     4
 73
     6
  0
VERTEX
  5
4D6
330
155
100
AcDbEntity
  8
0
100
AcDbFaceRecord
 10
0.0
 20
0.0
 30
0.0
 70
   128
 71
     6
 72
   154
 73
  -147
  0
VERTEX
  5
4D7
330
155
100
AcDbEntity
  8
0
100
AcDbFaceRecord
 10
0.0
 20
0.0
 30
0.0
 70
   128
 71
   152
 72
   151
 73
   121
  0
VERTEX
  5
4D8
330
155
100
AcDbEntity
  8
0
100
AcDbFaceRecord
 10
0.0
 20
0.0
 30
0.0
 70
   128
 71
   121
 72
   120
 73
  -152
  0
VERTEX
  5
4D9
330
155
100
AcDbEntity
  8
0
100
AcDbFaceRecord
 10
0.0
 20
0.0
 30
0.0
 70
   128
 71
   151
 72
   153
 73
   132
  0
VERTEX
  5
4DA
330
155
100
AcDbEntity
  8
0
100
AcDbFaceRecord
 10
0.0
 20
0.0
 30
0.0
 70
   128
 71
   132
 72
   121
 73
  -151
  0
VERTEX
  5
4DB
330
155
100
AcDbEntity
  8
0
100
AcDbFaceRecord
 10
0.0
 20
0.0
 30
0.0
 70
   128
 71
   153
 72
   154
 73
   138
  0
VERTEX
  5
4DC
330
155
100
AcDbEntity
  8
0
100
AcDbFaceRecord
 10
0.0
 20
0.0
 30
0.0
 70
   128
 71
   138
 72
   132
 73
  -153
  0
VERTEX
  5
4DD
330
155
100
AcDbEntity
  8
0
100
AcDbFaceRecord
 10
0.0
 20
0.0
 30
0.0
 70
   128
 71
   154
 72
     6
 73
     7
  0
VERTEX
  5
4DE
330
155
100
AcDbEntity
  8
0
100
AcDbFaceRecord
 10
0.0
 20
0.0
 30
0.0
 70
   128
 71
     7
 72
   138
 73
  -154
  0
VERTEX
  5
4DF
330
155
100
AcDbEntity
  8
0
100
AcDbFaceRecord
 10
0.0
 20
0.0
 30
0.0
 70
   128
 71
   155
 72
   156
 73
   157
  0
VERTEX
  5
4E0
330
155
100
AcDbEntity
  8
0
100
AcDbFaceRecord
 10
0.0
 20
0.0
 30
0.0
 70
   128
 71
   157
 72
   158
 73
  -155
  0
VERTEX
  5
4E1
330
155
100
AcDbEntity
  8
0
100
AcDbFaceRecord
 10
0.0
 20
0.0
 30
0.0
 70
   128
 71
   158
 72
   157
 73
   159
  0
VERTEX
  5
4E2
330
155
100
AcDbEntity
  8
0
100
AcDbFaceRecord
 10
0.0
 20
0.0
 30
0.0
 70
   128
 71
   159
 72
   160
 73
  -158
  0
VERTEX
  5
4E3
330
155
100
AcDbEntity
  8
0
100
AcDbFaceRecord
 10
0.0
 20
0.0
 30
0.0
 70
   128
 71
   160
 72
   159
 73
   161
  0
VERTEX
  5
4E4
330
155
100
AcDbEntity
  8
0
100
AcDbFaceRecord
 10
0.0
 20
0.0
 30
0.0
 70
   128
 71
   161
 72
   162
 73
  -160
  0
VERTEX
  5
4E5
330
155
100
AcDbEntity
  8
0
100
AcDbFaceRecord
 10
0.0
 20
0.0
 30
0.0
 70
   128
 71
   162
 72
   161
 73
   163
  0
VERTEX
  5
4E6
330
155
100
AcDbEntity
  8
0
100
AcDbFaceRecord
 10
0.0
 20
0.0
 30
0.0
 70
   128
 71
   163
 72
   164
 73
  -162
  0
VERTEX
  5
4E7
330
155
100
AcDbEntity
  8
0
100
AcDbFaceRecord
 10
0.0
 20
0.0
 30
0.0
 70
   128
 71
   156
 72
   165
 73
   166
  0
VERTEX
  5
4E8
330
155
100
AcDbEntity
  8
0
100
AcDbFaceRecord
 10
0.0
 20
0.0
 30
0.0
 70
   128
 71
   166
 72
   157
 73
  -156
  0
VERTEX
  5
4E9
330
155
100
AcDbEntity
  8
0
100
AcDbFaceRecord
 10
0.0
 20
0.0
 30
0.0
 70
   128
 71
   157
 72
   166
 73
   167
  0
VERTEX
  5
4EA
330
155
100
AcDbEntity
  8
0
100
AcDbFaceRecord
 10
0.0
 20
0.0
 30
0.0
 70
   128
 71
   167
 72
   159
 73
  -157
  0
VERTEX
  5
4EB
330
155
100
AcDbEntity
  8
0
100
AcDbFaceRecord
 10
0.0
 20
0.0
 30
0.0
 70
   128
 71
   159
 72
   167
 73
   168
  0
VERTEX
  5
4EC
330
155
100
AcDbEntity
  8
0
100
AcDbFaceRecord
 10
0.0
 20
0.0
 30
0.0
 70
   128
 71
   168
 72
   161
 73
  -159
  0
VERTEX
  5
4ED
330
155
100
AcDbEntity
  8
0
100
AcDbFaceRecord
 10
0.0
 20
0.0
 30
0.0
 70
   128
 71
   161
 72
   168
 73
   169
  0
VERTEX
  5
4EE
330
155
100
AcDbEntity
  8
0
100
AcDbFaceRecord
 10
0.0
 20
0.0
 30
0.0
 70
   128
 71
   169
 72
   163
 73
  -161
  0
VERTEX
  5
4EF
330
155
100
AcDbEntity
  8
0
100
AcDbFaceRecord
 10
0.0
 20
0.0
 30
0.0
 70
   128
 71
   165
 72
   170
 73
   171
  0
VERTEX
  5
4F0
330
155
100
AcDbEntity
  8
0
100
AcDbFaceRecord
 10
0.0
 20
0.0
 30
0.0
 70
   128
 71
   171
 72
   166
 73
  -165
  0
VERTEX
  5
4F1
330
155
100
AcDbEntity
  8
0
100
AcDbFaceRecord
 10
0.0
 20
0.0
 30
0.0
 70
   128
 71
   166
 72
   171
 73
   172
  0
VERTEX
  5
4F2
330
155
100
AcDbEntity
  8
0
100
AcDbFaceRecord
 10
0.0
 20
0.0
 30
0.0
 70
   128
 71
   172
 72
   167
 73
  -166
  0
VERTEX
  5
4F3
330
155
100
AcDbEntity
  8
0
100
AcDbFaceRecord
 10
0.0
 20
0.0
 30
0.0
 70
   128
 71
   167
 72
   172
 73
   173
  0
VERTEX
  5
4F4
330
155
100
AcDbEntity
  8
0
100
AcDbFaceRecord
 10
0.0
 20
0.0
 30
0.0
 70
   128
 71
   173
 72
   168
 73
  -167
  0
VERTEX
  5
4F5
330
155
100
AcDbEntity
  8
0
100
AcDbFaceRecord
 10
0.0
 20
0.0
 30
0.0
 70
   128
 71
   168
 72
   173
 73
   174
  0
VERTEX
  5
4F6
330
155
100
AcDbEntity
  8
0
100
AcDbFaceRecord
 10
0.0
 20
0.0
 30
0.0
 70
   128
 71
   174
 72
   169
 73
  -168
  0
VERTEX
  5
4F7
330
155
100
AcDbEntity
  8
0
100
AcDbFaceRecord
 10
0.0
 20
0.0
 30
0.0
 70
   128
 71
   170
 72
   145
 73
   175
  0
VERTEX
  5
4F8
330
155
100
AcDbEntity
  8
0
100
AcDbFaceRecord
 10
0.0
 20
0.0
 30
0.0
 70
   128
 71
   175
 72
   171
 73
  -170
  0
VERTEX
  5
4F9
330
155
100
AcDbEntity
  8
0
100
AcDbFaceRecord
 10
0.0
 20
0.0
 30
0.0
 70
   128
 71
   171
 72
   175
 73
   176
  0
VERTEX
  5
4FA
330
155
100
AcDbEntity
  8
0
100
AcDbFaceRecord
 10
0.0
 20
0.0
 30
0.0
 70
   128
 71
   176
 72
   172
 73
  -171
  0
VERTEX
  5
4FB
330
155
100
AcDbEntity
  8
0
100
AcDbFaceRecord
 10
0.0
 20
0.0
 30
0.0
 70
   128
 71
   172
 72
   176
 73
   177
  0
VERTEX
  5
4FC
330
155
100
AcDbEntity
  8
0
100
AcDbFaceRecord
 10
0.0
 20
0.0
 30
0.0
 70
   128
 71
   177
 72
   173
 73
  -172
  0
VERTEX
  5
4FD
330
155
100
AcDbEntity
  8
0
100
AcDbFaceRecord
 10
0.0
 20
0.0
 30
0.0
 70
   128
 71
   173
 72
   177
 73
   178
  0
VERTEX
  5
4FE
330
155
100
AcDbEntity
  8
0
100
AcDbFaceRecord
 10
0.0
 20
0.0
 30
0.0
 70
   128
 71
   178
 72
   174
 73
  -173
  0
VERTEX
  5
4FF
330
155
100
AcDbEntity
  8
0
100
AcDbFaceRecord
 10
0.0
 20
0.0
 30
0.0
 70
   128
 71
   179
 72
   180
 73
   181
  0
VERTEX
  5
500
330
155
100
AcDbEntity
  8
0
100
AcDbFaceRecord
 10
0.0
 20
0.0
 30
0.0
 70
   128
 71
   181
 72
   182
 73
  -179
  0
VERTEX
  5
501
330
155
100
AcDbEntity
  8
0
100
AcDbFaceRecord
 10
0.0
 20
0.0
 30
0.0
 70
   128
 71
   145
 72
   150
 73
   175
  0
VERTEX
  5
502
330
155
100
AcDbEntity
  8
0
100
AcDbFaceRecord
 10
0.0
 20
0.0
 30
0.0
 70
   128
 71
   150
 72
   149
 73
   175
  0
VERTEX
  5
503
330
155
100
AcDbEntity
  8
0
100
AcDbFaceRecord
 10
0.0
 20
0.0
 30
0.0
 70
   128
 71
   145
 72
   148
 73
   150
  0
VERTEX
  5
504
330
155
100
AcDbEntity
  8
0
100
AcDbFaceRecord
 10
0.0
 20
0.0
 30
0.0
 70
   128
 71
   177
 72
   176
 73
   175
  0
VERTEX
  5
505
330
155
100
AcDbEntity
  8
0
100
AcDbFaceRecord
 10
0.0
 20
0.0
 30
0.0
 70
   128
 71
   178
 72
   177
 73
   175
  0
VERTEX
  5
506
330
155
100
AcDbEntity
  8
0
100
AcDbFaceRecord
 10
0.0
 20
0.0
 30
0.0
 70
   128
 71
   178
 72
   175
 73
   183
  0
VERTEX
  5
507
330
155
100
AcDbEntity
  8
0
100
AcDbFaceRecord
 10
0.0
 20
0.0
 30
0.0
 70
   128
 71
   149
 72
   183
 73
   175
  0
VERTEX
  5
508
330
155
100
AcDbEntity
  8
0
100
AcDbFaceRecord
 10
0.0
 20
0.0
 30
0.0
 70
   128
 71
   149
 72
   184
 73
   183
  0
VERTEX
  5
509
330
155
100
AcDbEntity
  8
0
100
AcDbFaceRecord
 10
0.0
 20
0.0
 30
0.0
 70
   128
 71
   152
 72
   184
 73
   149
  0
VERTEX
  5
50A
330
155
100
AcDbEntity
  8
0
100
AcDbFaceRecord
 10
0.0
 20
0.0
 30
0.0
 70
   128
 71
   152
 72
   185
 73
   184
  0
VERTEX
  5
50B
330
155
100
AcDbEntity
  8
0
100
AcDbFaceRecord
 10
0.0
 20
0.0
 30
0.0
 70
   128
 71
   120
 72
   185
 73
   152
  0
VERTEX
  5
50C
330
155
100
AcDbEntity
  8
0
100
AcDbFaceRecord
 10
0.0
 20
0.0
 30
0.0
 70
   128
 71
   120
 72
   186
 73
   185
  0
VERTEX
  5
50D
330
155
100
AcDbEntity
  8
0
100
AcDbFaceRecord
 10
0.0
 20
0.0
 30
0.0
 70
   128
 71
   123
 72
   186
 73
   120
  0
VERTEX
  5
50E
330
155
100
AcDbEntity
  8
0
100
AcDbFaceRecord
 10
0.0
 20
0.0
 30
0.0
 70
   128
 71
   123
 72
   187
 73
   186
  0
VERTEX
  5
50F
330
155
100
AcDbEntity
  8
0
100
AcDbFaceRecord
 10
0.0
 20
0.0
 30
0.0
 70
   128
 71
   125
 72
   187
 73
   123
  0
VERTEX
  5
510
330
155
100
AcDbEntity
  8
0
100
AcDbFaceRecord
 10
0.0
 20
0.0
 30
0.0
 70
   128
 71
   125
 72
   188
 73
   187
  0
VERTEX
  5
511
330
155
100
AcDbEntity
  8
0
100
AcDbFaceRecord
 10
0.0
 20
0.0
 30
0.0
 70
   128
 71
   127
 72
   188
 73
   125
  0
VERTEX
  5
512
330
155
100
AcDbEntity
  8
0
100
AcDbFaceRecord
 10
0.0
 20
0.0
 30
0.0
 70
   128
 71
   127
 72
   189
 73
   188
  0
VERTEX
  5
513
330
155
100
AcDbEntity
  8
0
100
AcDbFaceRecord
 10
0.0
 20
0.0
 30
0.0
 70
   128
 71
   129
 72
   131
 73
   189
  0
VERTEX
  5
514
330
155
100
AcDbEntity
  8
0
100
AcDbFaceRecord
 10
0.0
 20
0.0
 30
0.0
 70
   128
 71
   129
 72
   189
 73
   127
  0
VERTEX
  5
515
330
155
100
AcDbEntity
  8
0
100
AcDbFaceRecord
 10
0.0
 20
0.0
 30
0.0
 70
   128
 71
   137
 72
   143
 73
   190
  0
VERTEX
  5
516
330
155
100
AcDbEntity
  8
0
100
AcDbFaceRecord
 10
0.0
 20
0.0
 30
0.0
 70
   128
 71
   190
 72
   191
 73
  -137
  0
VERTEX
  5
517
330
155
100
AcDbEntity
  8
0
100
AcDbFaceRecord
 10
0.0
 20
0.0
 30
0.0
 70
   128
 71
   143
 72
   144
 73
   192
  0
VERTEX
  5
518
330
155
100
AcDbEntity
  8
0
100
AcDbFaceRecord
 10
0.0
 20
0.0
 30
0.0
 70
   128
 71
   192
 72
   190
 73
  -143
  0
VERTEX
  5
519
330
155
100
AcDbEntity
  8
0
100
AcDbFaceRecord
 10
0.0
 20
0.0
 30
0.0
 70
   128
 71
   181
 72
   193
 73
   156
  0
VERTEX
  5
51A
330
155
100
AcDbEntity
  8
0
100
AcDbFaceRecord
 10
0.0
 20
0.0
 30
0.0
 70
   128
 71
   156
 72
   155
 73
  -181
  0
VERTEX
  5
51B
330
155
100
AcDbEntity
  8
0
100
AcDbFaceRecord
 10
0.0
 20
0.0
 30
0.0
 70
   128
 71
   193
 72
   194
 73
   165
  0
VERTEX
  5
51C
330
155
100
AcDbEntity
  8
0
100
AcDbFaceRecord
 10
0.0
 20
0.0
 30
0.0
 70
   128
 71
   165
 72
   156
 73
  -193
  0
VERTEX
  5
51D
330
155
100
AcDbEntity
  8
0
100
AcDbFaceRecord
 10
0.0
 20
0.0
 30
0.0
 70
   128
 71
   194
 72
   195
 73
   170
  0
VERTEX
  5
51E
330
155
100
AcDbEntity
  8
0
100
AcDbFaceRecord
 10
0.0
 20
0.0
 30
0.0
 70
   128
 71
   170
 72
   165
 73
  -194
  0
VERTEX
  5
51F
330
155
100
AcDbEntity
  8
0
100
AcDbFaceRecord
 10
0.0
 20
0.0
 30
0.0
 70
   128
 71
   195
 72
   196
 73
   145
  0
VERTEX
  5
520
330
155
100
AcDbEntity
  8
0
100
AcDbFaceRecord
 10
0.0
 20
0.0
 30
0.0
 70
   128
 71
   145
 72
   170
 73
  -195
  0
VERTEX
  5
521
330
155
100
AcDbEntity
  8
0
100
AcDbFaceRecord
 10
0.0
 20
0.0
 30
0.0
 70
   128
 71
   181
 72
   180
 73
   193
  0
VERTEX
  5
522
330
155
100
AcDbEntity
  8
0
100
AcDbFaceRecord
 10
0.0
 20
0.0
 30
0.0
 70
   128
 71
   180
 72
   194
 73
   193
  0
VERTEX
  5
523
330
155
100
AcDbEntity
  8
0
100
AcDbFaceRecord
 10
0.0
 20
0.0
 30
0.0
 70
   128
 71
   194
 72
   180
 73
   195
  0
VERTEX
  5
524
330
155
100
AcDbEntity
  8
0
100
AcDbFaceRecord
 10
0.0
 20
0.0
 30
0.0
 70
   128
 71
   180
 72
   196
 73
   195
  0
VERTEX
  5
525
330
155
100
AcDbEntity
  8
0
100
AcDbFaceRecord
 10
0.0
 20
0.0
 30
0.0
 70
   128
 71
   196
 72
   146
 73
   145
  0
VERTEX
  5
526
330
155
100
AcDbEntity
  8
0
100
AcDbFaceRecord
 10
0.0
 20
0.0
 30
0.0
 70
   128
 71
   196
 72
     1
 73
   146
  0
VERTEX
  5
527
330
155
100
AcDbEntity
  8
0
100
AcDbFaceRecord
 10
0.0
 20
0.0
 30
0.0
 70
   128
 71
   196
 72
   180
 73
     1
  0
VERTEX
  5
528
330
155
100
AcDbEntity
  8
0
100
AcDbFaceRecord
 10
0.0
 20
0.0
 30
0.0
 70
   128
 71
   197
 72
   198
 73
   199
  0
VERTEX
  5
529
330
155
100
AcDbEntity
  8
0
100
AcDbFaceRecord
 10
0.0
 20
0.0
 30
0.0
 70
   128
 71
   199
 72
   200
 73
  -197
  0
VERTEX
  5
52A
330
155
100
AcDbEntity
  8
0
100
AcDbFaceRecord
 10
0.0
 20
0.0
 30
0.0
 70
   128
 71
   198
 72
   201
 73
   202
  0
VERTEX
  5
52B
330
155
100
AcDbEntity
  8
0
100
AcDbFaceRecord
 10
0.0
 20
0.0
 30
0.0
 70
   128
 71
   202
 72
   199
 73
  -198
  0
VERTEX
  5
52C
330
155
100
AcDbEntity
  8
0
100
AcDbFaceRecord
 10
0.0
 20
0.0
 30
0.0
 70
   128
 71
   201
 72
   203
 73
   204
  0
VERTEX
  5
52D
330
155
100
AcDbEntity
  8
0
100
AcDbFaceRecord
 10
0.0
 20
0.0
 30
0.0
 70
   128
 71
   204
 72
   202
 73
  -201
  0
VERTEX
  5
52E
330
155
100
AcDbEntity
  8
0
100
AcDbFaceRecord
 10
0.0
 20
0.0
 30
0.0
 70
   128
 71
   203
 72
   205
 73
   206
  0
VERTEX
  5
52F
330
155
100
AcDbEntity
  8
0
100
AcDbFaceRecord
 10
0.0
 20
0.0
 30
0.0
 70
   128
 71
   206
 72
   204
 73
  -203
  0
VERTEX
  5
530
330
155
100
AcDbEntity
  8
0
100
AcDbFaceRecord
 10
0.0
 20
0.0
 30
0.0
 70
   128
 71
   205
 72
   109
 73
    98
  0
VERTEX
  5
531
330
155
100
AcDbEntity
  8
0
100
AcDbFaceRecord
 10
0.0
 20
0.0
 30
0.0
 70
   128
 71
    98
 72
   206
 73
  -205
  0
VERTEX
  5
532
330
155
100
AcDbEntity
  8
0
100
AcDbFaceRecord
 10
0.0
 20
0.0
 30
0.0
 70
   128
 71
   200
 72
   199
 73
   207
  0
VERTEX
  5
533
330
155
100
AcDbEntity
  8
0
100
AcDbFaceRecord
 10
0.0
 20
0.0
 30
0.0
 70
   128
 71
   207
 72
   208
 73
  -200
  0
VERTEX
  5
534
330
155
100
AcDbEntity
  8
0
100
AcDbFaceRecord
 10
0.0
 20
0.0
 30
0.0
 70
   128
 71
   199
 72
   202
 73
   209
  0
VERTEX
  5
535
330
155
100
AcDbEntity
  8
0
100
AcDbFaceRecord
 10
0.0
 20
0.0
 30
0.0
 70
   128
 71
   209
 72
   207
 73
  -199
  0
VERTEX
  5
536
330
155
100
AcDbEntity
  8
0
100
AcDbFaceRecord
 10
0.0
 20
0.0
 30
0.0
 70
   128
 71
   202
 72
   204
 73
   210
  0
VERTEX
  5
537
330
155
100
AcDbEntity
  8
0
100
AcDbFaceRecord
 10
0.0
 20
0.0
 30
0.0
 70
   128
 71
   210
 72
   209
 73
  -202
  0
VERTEX
  5
538
330
155
100
AcDbEntity
  8
0
100
AcDbFaceRecord
 10
0.0
 20
0.0
 30
0.0
 70
   128
 71
   204
 72
   206
 73
   211
  0
VERTEX
  5
539
330
155
100
AcDbEntity
  8
0
100
AcDbFaceRecord
 10
0.0
 20
0.0
 30
0.0
 70
   128
 71
   211
 72
   210
 73
  -204
  0
VERTEX
  5
53A
330
155
100
AcDbEntity
  8
0
100
AcDbFaceRecord
 10
0.0
 20
0.0
 30
0.0
 70
   128
 71
   206
 72
    98
 73
    87
  0
VERTEX
  5
53B
330
155
100
AcDbEntity
  8
0
100
AcDbFaceRecord
 10
0.0
 20
0.0
 30
0.0
 70
   128
 71
    87
 72
   211
 73
  -206
  0
VERTEX
  5
53C
330
155
100
AcDbEntity
  8
0
100
AcDbFaceRecord
 10
0.0
 20
0.0
 30
0.0
 70
   128
 71
   208
 72
   207
 73
   212
  0
VERTEX
  5
53D
330
155
100
AcDbEntity
  8
0
100
AcDbFaceRecord
 10
0.0
 20
0.0
 30
0.0
 70
   128
 71
   212
 72
   213
 73
  -208
  0
VERTEX
  5
53E
330
155
100
AcDbEntity
  8
0
100
AcDbFaceRecord
 10
0.0
 20
0.0
 30
0.0
 70
   128
 71
   207
 72
   209
 73
   214
  0
VERTEX
  5
53F
330
155
100
AcDbEntity
  8
0
100
AcDbFaceRecord
 10
0.0
 20
0.0
 30
0.0
 70
   128
 71
   214
 72
   212
 73
  -207
  0
VERTEX
  5
540
330
155
100
AcDbEntity
  8
0
100
AcDbFaceRecord
 10
0.0
 20
0.0
 30
0.0
 70
   128
 71
   209
 72
   210
 73
   215
  0
VERTEX
  5
541
330
155
100
AcDbEntity
  8
0
100
AcDbFaceRecord
 10
0.0
 20
0.0
 30
0.0
 70
   128
 71
   215
 72
   214
 73
  -209
  0
VERTEX
  5
542
330
155
100
AcDbEntity
  8
0
100
AcDbFaceRecord
 10
0.0
 20
0.0
 30
0.0
 70
   128
 71
   210
 72
   211
 73
   216
  0
VERTEX
  5
543
330
155
100
AcDbEntity
  8
0
100
AcDbFaceRecord
 10
0.0
 20
0.0
 30
0.0
 70
   128
 71
   216
 72
   215
 73
  -210
  0
VERTEX
  5
544
330
155
100
AcDbEntity
  8
0
100
AcDbFaceRecord
 10
0.0
 20
0.0
 30
0.0
 70
   128
 71
   211
 72
    87
 73
    76
  0
VERTEX
  5
545
330
155
100
AcDbEntity
  8
0
100
AcDbFaceRecord
 10
0.0
 20
0.0
 30
0.0
 70
   128
 71
    76
 72
   216
 73
  -211
  0
VERTEX
  5
546
330
155
100
AcDbEntity
  8
0
100
AcDbFaceRecord
 10
0.0
 20
0.0
 30
0.0
 70
   128
 71
   213
 72
   212
 73
   217
  0
VERTEX
  5
547
330
155
100
AcDbEntity
  8
0
100
AcDbFaceRecord
 10
0.0
 20
0.0
 30
0.0
 70
   128
 71
   217
 72
   218
 73
  -213
  0
VERTEX
  5
548
330
155
100
AcDbEntity
  8
0
100
AcDbFaceRecord
 10
0.0
 20
0.0
 30
0.0
 70
   128
 71
   212
 72
   214
 73
   219
  0
VERTEX
  5
549
330
155
100
AcDbEntity
  8
0
100
AcDbFaceRecord
 10
0.0
 20
0.0
 30
0.0
 70
   128
 71
   219
 72
   217
 73
  -212
  0
VERTEX
  5
54A
330
155
100
AcDbEntity
  8
0
100
AcDbFaceRecord
 10
0.0
 20
0.0
 30
0.0
 70
   128
 71
   214
 72
   215
 73
   220
  0
VERTEX
  5
54B
330
155
100
AcDbEntity
  8
0
100
AcDbFaceRecord
 10
0.0
 20
0.0
 30
0.0
 70
   128
 71
   220
 72
   219
 73
  -214
  0
VERTEX
  5
54C
330
155
100
AcDbEntity
  8
0
100
AcDbFaceRecord
 10
0.0
 20
0.0
 30
0.0
 70
   128
 71
   215
 72
   216
 73
   221
  0
VERTEX
  5
54D
330
155
100
AcDbEntity
  8
0
100
AcDbFaceRecord
 10
0.0
 20
0.0
 30
0.0
 70
   128
 71
   221
 72
   220
 73
  -215
  0
VERTEX
  5
54E
330
155
100
AcDbEntity
  8
0
100
AcDbFaceRecord
 10
0.0
 20
0.0
 30
0.0
 70
   128
 71
   216
 72
    76
 73
    65
  0
VERTEX
  5
54F
330
155
100
AcDbEntity
  8
0
100
AcDbFaceRecord
 10
0.0
 20
0.0
 30
0.0
 70
   128
 71
    65
 72
   221
 73
  -216
  0
VERTEX
  5
550
330
155
100
AcDbEntity
  8
0
100
AcDbFaceRecord
 10
0.0
 20
0.0
 30
0.0
 70
   128
 71
   218
 72
   217
 73
   222
  0
VERTEX
  5
551
330
155
100
AcDbEntity
  8
0
100
AcDbFaceRecord
 10
0.0
 20
0.0
 30
0.0
 70
   128
 71
   222
 72
   223
 73
  -218
  0
VERTEX
  5
552
330
155
100
AcDbEntity
  8
0
100
AcDbFaceRecord
 10
0.0
 20
0.0
 30
0.0
 70
   128
 71
   217
 72
   219
 73
   224
  0
VERTEX
  5
553
330
155
100
AcDbEntity
  8
0
100
AcDbFaceRecord
 10
0.0
 20
0.0
 30
0.0
 70
   128
 71
   224
 72
   222
 73
  -217
  0
VERTEX
  5
554
330
155
100
AcDbEntity
  8
0
100
AcDbFaceRecord
 10
0.0
 20
0.0
 30
0.0
 70
   128
 71
   219
 72
   220
 73
   225
  0
VERTEX
  5
555
330
155
100
AcDbEntity
  8
0
100
AcDbFaceRecord
 10
0.0
 20
0.0
 30
0.0
 70
   128
 71
   225
 72
   224
 73
  -219
  0
VERTEX
  5
556
330
155
100
AcDbEntity
  8
0
100
AcDbFaceRecord
 10
0.0
 20
0.0
 30
0.0
 70
   128
 71
   220
 72
   221
 73
   226
  0
VERTEX
  5
557
330
155
100
AcDbEntity
  8
0
100
AcDbFaceRecord
 10
0.0
 20
0.0
 30
0.0
 70
   128
 71
   226
 72
   225
 73
  -220
  0
VERTEX
  5
558
330
155
100
AcDbEntity
  8
0
100
AcDbFaceRecord
 10
0.0
 20
0.0
 30
0.0
 70
   128
 71
   221
 72
    65
 73
    54
  0
VERTEX
  5
559
330
155
100
AcDbEntity
  8
0
100
AcDbFaceRecord
 10
0.0
 20
0.0
 30
0.0
 70
   128
 71
    54
 72
   226
 73
  -221
  0
VERTEX
  5
55A
330
155
100
AcDbEntity
  8
0
100
AcDbFaceRecord
 10
0.0
 20
0.0
 30
0.0
 70
   128
 71
   223
 72
   222
 73
   227
  0
VERTEX
  5
55B
330
155
100
AcDbEntity
  8
0
100
AcDbFaceRecord
 10
0.0
 20
0.0
 30
0.0
 70
   128
 71
   227
 72
   228
 73
  -223
  0
VERTEX
  5
55C
330
155
100
AcDbEntity
  8
0
100
AcDbFaceRecord
 10
0.0
 20
0.0
 30
0.0
 70
   128
 71
   222
 72
   224
 73
   229
  0
VERTEX
  5
55D
330
155
100
AcDbEntity
  8
0
100
AcDbFaceRecord
 10
0.0
 20
0.0
 30
0.0
 70
   128
 71
   229
 72
   227
 73
  -222
  0
VERTEX
  5
55E
330
155
100
AcDbEntity
  8
0
100
AcDbFaceRecord
 10
0.0
 20
0.0
 30
0.0
 70
   128
 71
   224
 72
   225
 73
   230
  0
VERTEX
  5
55F
330
155
100
AcDbEntity
  8
0
100
AcDbFaceRecord
 10
0.0
 20
0.0
 30
0.0
 70
   128
 71
   230
 72
   229
 73
  -224
  0
VERTEX
  5
560
330
155
100
AcDbEntity
  8
0
100
AcDbFaceRecord
 10
0.0
 20
0.0
 30
0.0
 70
   128
 71
   225
 72
   226
 73
   231
  0
VERTEX
  5
561
330
155
100
AcDbEntity
  8
0
100
AcDbFaceRecord
 10
0.0
 20
0.0
 30
0.0
 70
   128
 71
   231
 72
   230
 73
  -225
  0
VERTEX
  5
562
330
155
100
AcDbEntity
  8
0
100
AcDbFaceRecord
 10
0.0
 20
0.0
 30
0.0
 70
   128
 71
   226
 72
    54
 73
    43
  0
VERTEX
  5
563
330
155
100
AcDbEntity
  8
0
100
AcDbFaceRecord
 10
0.0
 20
0.0
 30
0.0
 70
   128
 71
    43
 72
   231
 73
  -226
  0
VERTEX
  5
564
330
155
100
AcDbEntity
  8
0
100
AcDbFaceRecord
 10
0.0
 20
0.0
 30
0.0
 70
   128
 71
   228
 72
   227
 73
   232
  0
VERTEX
  5
565
330
155
100
AcDbEntity
  8
0
100
AcDbFaceRecord
 10
0.0
 20
0.0
 30
0.0
 70
   128
 71
   232
 72
   233
 73
  -228
  0
VERTEX
  5
566
330
155
100
AcDbEntity
  8
0
100
AcDbFaceRecord
 10
0.0
 20
0.0
 30
0.0
 70
   128
 71
   227
 72
   229
 73
   234
  0
VERTEX
  5
567
330
155
100
AcDbEntity
  8
0
100
AcDbFaceRecord
 10
0.0
 20
0.0
 30
0.0
 70
   128
 71
   234
 72
   232
 73
  -227
  0
VERTEX
  5
568
330
155
100
AcDbEntity
  8
0
100
AcDbFaceRecord
 10
0.0
 20
0.0
 30
0.0
 70
   128
 71
   229
 72
   230
 73
   235
  0
VERTEX
  5
569
330
155
100
AcDbEntity
  8
0
100
AcDbFaceRecord
 10
0.0
 20
0.0
 30
0.0
 70
   128
 71
   235
 72
   234
 73
  -229
  0
VERTEX
  5
56A
330
155
100
AcDbEntity
  8
0
100
AcDbFaceRecord
 10
0.0
 20
0.0
 30
0.0
 70
   128
 71
   230
 72
   231
 73
   236
  0
VERTEX
  5
56B
330
155
100
AcDbEntity
  8
0
100
AcDbFaceRecord
 10
0.0
 20
0.0
 30
0.0
 70
   128
 71
   236
 72
   235
 73
  -230
  0
VERTEX
  5
56C
330
155
100
AcDbEntity
  8
0
100
AcDbFaceRecord
 10
0.0
 20
0.0
 30
0.0
 70
   128
 71
   231
 72
    43
 73
    32
  0
VERTEX
  5
56D
330
155
100
AcDbEntity
  8
0
100
AcDbFaceRecord
 10
0.0
 20
0.0
 30
0.0
 70
   128
 71
    32
 72
   236
 73
  -231
  0
VERTEX
  5
56E
330
155
100
AcDbEntity
  8
0
100
AcDbFaceRecord
 10
0.0
 20
0.0
 30
0.0
 70
   128
 71
   233
 72
   232
 73
   237
  0
VERTEX
  5
56F
330
155
100
AcDbEntity
  8
0
100
AcDbFaceRecord
 10
0.0
 20
0.0
 30
0.0
 70
   128
 71
   237
 72
   238
 73
  -233
  0
VERTEX
  5
570
330
155
100
AcDbEntity
  8
0
100
AcDbFaceRecord
 10
0.0
 20
0.0
 30
0.0
 70
   128
 71
   232
 72
   234
 73
   239
  0
VERTEX
  5
571
330
155
100
AcDbEntity
  8
0
100
AcDbFaceRecord
 10
0.0
 20
0.0
 30
0.0
 70
   128
 71
   239
 72
   237
 73
  -232
  0
VERTEX
  5
572
330
155
100
AcDbEntity
  8
0
100
AcDbFaceRecord
 10
0.0
 20
0.0
 30
0.0
 70
   128
 71
   234
 72
   235
 73
   240
  0
VERTEX
  5
573
330
155
100
AcDbEntity
  8
0
100
AcDbFaceRecord
 10
0.0
 20
0.0
 30
0.0
 70
   128
 71
   240
 72
   239
 73
  -234
  0
VERTEX
  5
574
330
155
100
AcDbEntity
  8
0
100
AcDbFaceRecord
 10
0.0
 20
0.0
 30
0.0
 70
   128
 71
   235
 72
   236
 73
   241
  0
VERTEX
  5
575
330
155
100
AcDbEntity
  8
0
100
AcDbFaceRecord
 10
0.0
 20
0.0
 30
0.0
 70
   128
 71
   241
 72
   240
 73
  -235
  0
VERTEX
  5
576
330
155
100
AcDbEntity
  8
0
100
AcDbFaceRecord
 10
0.0
 20
0.0
 30
0.0
 70
   128
 71
   236
 72
    32
 73
    20
  0
VERTEX
  5
577
330
155
100
AcDbEntity
  8
0
100
AcDbFaceRecord
 10
0.0
 20
0.0
 30
0.0
 70
   128
 71
    20
 72
   241
 73
  -236
  0
VERTEX
  5
578
330
155
100
AcDbEntity
  8
0
100
AcDbFaceRecord
 10
0.0
 20
0.0
 30
0.0
 70
   128
 71
   238
 72
   237
 73
   242
  0
VERTEX
  5
579
330
155
100
AcDbEntity
  8
0
100
AcDbFaceRecord
 10
0.0
 20
0.0
 30
0.0
 70
   128
 71
   242
 72
   243
 73
  -238
  0
VERTEX
  5
57A
330
155
100
AcDbEntity
  8
0
100
AcDbFaceRecord
 10
0.0
 20
0.0
 30
0.0
 70
   128
 71
   237
 72
   239
 73
   244
  0
VERTEX
  5
57B
330
155
100
AcDbEntity
  8
0
100
AcDbFaceRecord
 10
0.0
 20
0.0
 30
0.0
 70
   128
 71
   244
 72
   242
 73
  -237
  0
VERTEX
  5
57C
330
155
100
AcDbEntity
  8
0
100
AcDbFaceRecord
 10
0.0
 20
0.0
 30
0.0
 70
   128
 71
   239
 72
   240
 73
   245
  0
VERTEX
  5
57D
330
155
100
AcDbEntity
  8
0
100
AcDbFaceRecord
 10
0.0
 20
0.0
 30
0.0
 70
   128
 71
   245
 72
   244
 73
  -239
  0
VERTEX
  5
57E
330
155
100
AcDbEntity
  8
0
100
AcDbFaceRecord
 10
0.0
 20
0.0
 30
0.0
 70
   128
 71
   240
 72
   241
 73
   246
  0
VERTEX
  5
57F
330
155
100
AcDbEntity
  8
0
100
AcDbFaceRecord
 10
0.0
 20
0.0
 30
0.0
 70
   128
 71
   246
 72
   245
 73
  -240
  0
VERTEX
  5
580
330
155
100
AcDbEntity
  8
0
100
AcDbFaceRecord
 10
0.0
 20
0.0
 30
0.0
 70
   128
 71
   241
 72
    20
 73
    19
  0
VERTEX
  5
581
330
155
100
AcDbEntity
  8
0
100
AcDbFaceRecord
 10
0.0
 20
0.0
 30
0.0
 70
   128
 71
    19
 72
   246
 73
  -241
  0
VERTEX
  5
582
330
155
100
AcDbEntity
  8
0
100
AcDbFaceRecord
 10
0.0
 20
0.0
 30
0.0
 70
   128
 71
   243
 72
   242
 73
   247
  0
VERTEX
  5
583
330
155
100
AcDbEntity
  8
0
100
AcDbFaceRecord
 10
0.0
 20
0.0
 30
0.0
 70
   128
 71
   247
 72
   248
 73
  -243
  0
VERTEX
  5
584
330
155
100
AcDbEntity
  8
0
100
AcDbFaceRecord
 10
0.0
 20
0.0
 30
0.0
 70
   128
 71
   242
 72
   244
 73
   249
  0
VERTEX
  5
585
330
155
100
AcDbEntity
  8
0
100
AcDbFaceRecord
 10
0.0
 20
0.0
 30
0.0
 70
   128
 71
   249
 72
   247
 73
  -242
  0
VERTEX
  5
586
330
155
100
AcDbEntity
  8
0
100
AcDbFaceRecord
 10
0.0
 20
0.0
 30
0.0
 70
   128
 71
   244
 72
   245
 73
   250
  0
VERTEX
  5
587
330
155
100
AcDbEntity
  8
0
100
AcDbFaceRecord
 10
0.0
 20
0.0
 30
0.0
 70
   128
 71
   250
 72
   249
 73
  -244
  0
VERTEX
  5
588
330
155
100
AcDbEntity
  8
0
100
AcDbFaceRecord
 10
0.0
 20
0.0
 30
0.0
 70
   128
 71
   245
 72
   246
 73
   251
  0
VERTEX
  5
589
330
155
100
AcDbEntity
  8
0
100
AcDbFaceRecord
 10
0.0
 20
0.0
 30
0.0
 70
   128
 71
   251
 72
   250
 73
  -245
  0
VERTEX
  5
58A
330
155
100
AcDbEntity
  8
0
100
AcDbFaceRecord
 10
0.0
 20
0.0
 30
0.0
 70
   128
 71
   246
 72
    19
 73
   252
  0
VERTEX
  5
58B
330
155
100
AcDbEntity
  8
0
100
AcDbFaceRecord
 10
0.0
 20
0.0
 30
0.0
 70
   128
 71
   252
 72
   251
 73
  -246
  0
VERTEX
  5
58C
330
155
100
AcDbEntity
  8
0
100
AcDbFaceRecord
 10
0.0
 20
0.0
 30
0.0
 70
   128
 71
   248
 72
   247
 73
   253
  0
VERTEX
  5
58D
330
155
100
AcDbEntity
  8
0
100
AcDbFaceRecord
 10
0.0
 20
0.0
 30
0.0
 70
   128
 71
   253
 72
   254
 73
  -248
  0
VERTEX
  5
58E
330
155
100
AcDbEntity
  8
0
100
AcDbFaceRecord
 10
0.0
 20
0.0
 30
0.0
 70
   128
 71
   247
 72
   249
 73
   255
  0
VERTEX
  5
58F
330
155
100
AcDbEntity
  8
0
100
AcDbFaceRecord
 10
0.0
 20
0.0
 30
0.0
 70
   128
 71
   255
 72
   253
 73
  -247
  0
VERTEX
  5
590
330
155
100
AcDbEntity
  8
0
100
AcDbFaceRecord
 10
0.0
 20
0.0
 30
0.0
 70
   128
 71
   249
 72
   250
 73
   256
  0
VERTEX
  5
591
330
155
100
AcDbEntity
  8
0
100
AcDbFaceRecord
 10
0.0
 20
0.0
 30
0.0
 70
   128
 71
   256
 72
   255
 73
  -249
  0
VERTEX
  5
592
330
155
100
AcDbEntity
  8
0
100
AcDbFaceRecord
 10
0.0
 20
0.0
 30
0.0
 70
   128
 71
   250
 72
   251
 73
   257
  0
VERTEX
  5
593
330
155
100
AcDbEntity
  8
0
100
AcDbFaceRecord
 10
0.0
 20
0.0
 30
0.0
 70
   128
 71
   257
 72
   256
 73
  -250
  0
VERTEX
  5
594
330
155
100
AcDbEntity
  8
0
100
AcDbFaceRecord
 10
0.0
 20
0.0
 30
0.0
 70
   128
 71
   251
 72
   252
 73
   179
  0
VERTEX
  5
595
330
155
100
AcDbEntity
  8
0
100
AcDbFaceRecord
 10
0.0
 20
0.0
 30
0.0
 70
   128
 71
   179
 72
   257
 73
  -251
  0
VERTEX
  5
596
330
155
100
AcDbEntity
  8
0
100
AcDbFaceRecord
 10
0.0
 20
0.0
 30
0.0
 70
   128
 71
   254
 72
   253
 73
   258
  0
VERTEX
  5
597
330
155
100
AcDbEntity
  8
0
100
AcDbFaceRecord
 10
0.0
 20
0.0
 30
0.0
 70
   128
 71
   258
 72
   259
 73
  -254
  0
VERTEX
  5
598
330
155
100
AcDbEntity
  8
0
100
AcDbFaceRecord
 10
0.0
 20
0.0
 30
0.0
 70
   128
 71
   253
 72
   255
 73
   260
  0
VERTEX
  5
599
330
155
100
AcDbEntity
  8
0
100
AcDbFaceRecord
 10
0.0
 20
0.0
 30
0.0
 70
   128
 71
   260
 72
   258
 73
  -253
  0
VERTEX
  5
59A
330
155
100
AcDbEntity
  8
0
100
AcDbFaceRecord
 10
0.0
 20
0.0
 30
0.0
 70
   128
 71
   255
 72
   256
 73
   261
  0
VERTEX
  5
59B
330
155
100
AcDbEntity
  8
0
100
AcDbFaceRecord
 10
0.0
 20
0.0
 30
0.0
 70
   128
 71
   261
 72
   260
 73
  -255
  0
VERTEX
  5
59C
330
155
100
AcDbEntity
  8
0
100
AcDbFaceRecord
 10
0.0
 20
0.0
 30
0.0
 70
   128
 71
   256
 72
   257
 73
   262
  0
VERTEX
  5
59D
330
155
100
AcDbEntity
  8
0
100
AcDbFaceRecord
 10
0.0
 20
0.0
 30
0.0
 70
   128
 71
   262
 72
   261
 73
  -256
  0
VERTEX
  5
59E
330
155
100
AcDbEntity
  8
0
100
AcDbFaceRecord
 10
0.0
 20
0.0
 30
0.0
 70
   128
 71
   257
 72
   179
 73
   182
  0
VERTEX
  5
59F
330
155
100
AcDbEntity
  8
0
100
AcDbFaceRecord
 10
0.0
 20
0.0
 30
0.0
 70
   128
 71
   182
 72
   262
 73
  -257
  0
VERTEX
  5
5A0
330
155
100
AcDbEntity
  8
0
100
AcDbFaceRecord
 10
0.0
 20
0.0
 30
0.0
 70
   128
 71
   259
 72
   258
 73
   263
  0
VERTEX
  5
5A1
330
155
100
AcDbEntity
  8
0
100
AcDbFaceRecord
 10
0.0
 20
0.0
 30
0.0
 70
   128
 71
   263
 72
   264
 73
  -259
  0
VERTEX
  5
5A2
330
155
100
AcDbEntity
  8
0
100
AcDbFaceRecord
 10
0.0
 20
0.0
 30
0.0
 70
   128
 71
   258
 72
   260
 73
   265
  0
VERTEX
  5
5A3
330
155
100
AcDbEntity
  8
0
100
AcDbFaceRecord
 10
0.0
 20
0.0
 30
0.0
 70
   128
 71
   265
 72
   263
 73
  -258
  0
VERTEX
  5
5A4
330
155
100
AcDbEntity
  8
0
100
AcDbFaceRecord
 10
0.0
 20
0.0
 30
0.0
 70
   128
 71
   260
 72
   261
 73
   266
  0
VERTEX
  5
5A5
330
155
100
AcDbEntity
  8
0
100
AcDbFaceRecord
 10
0.0
 20
0.0
 30
0.0
 70
   128
 71
   266
 72
   265
 73
  -260
  0
VERTEX
  5
5A6
330
155
100
AcDbEntity
  8
0
100
AcDbFaceRecord
 10
0.0
 20
0.0
 30
0.0
 70
   128
 71
   261
 72
   262
 73
   267
  0
VERTEX
  5
5A7
330
155
100
AcDbEntity
  8
0
100
AcDbFaceRecord
 10
0.0
 20
0.0
 30
0.0
 70
   128
 71
   267
 72
   266
 73
  -261
  0
VERTEX
  5
5A8
330
155
100
AcDbEntity
  8
0
100
AcDbFaceRecord
 10
0.0
 20
0.0
 30
0.0
 70
   128
 71
   262
 72
   182
 73
   268
  0
VERTEX
  5
5A9
330
155
100
AcDbEntity
  8
0
100
AcDbFaceRecord
 10
0.0
 20
0.0
 30
0.0
 70
   128
 71
   268
 72
   267
 73
  -262
  0
VERTEX
  5
5AA
330
155
100
AcDbEntity
  8
0
100
AcDbFaceRecord
 10
0.0
 20
0.0
 30
0.0
 70
   128
 71
   162
 72
   164
 73
   268
  0
VERTEX
  5
5AB
330
155
100
AcDbEntity
  8
0
100
AcDbFaceRecord
 10
0.0
 20
0.0
 30
0.0
 70
   128
 71
   160
 72
   162
 73
   268
  0
VERTEX
  5
5AC
330
155
100
AcDbEntity
  8
0
100
AcDbFaceRecord
 10
0.0
 20
0.0
 30
0.0
 70
   128
 71
   158
 72
   160
 73
   268
  0
VERTEX
  5
5AD
330
155
100
AcDbEntity
  8
0
100
AcDbFaceRecord
 10
0.0
 20
0.0
 30
0.0
 70
   128
 71
   155
 72
   158
 73
   268
  0
VERTEX
  5
5AE
330
155
100
AcDbEntity
  8
0
100
AcDbFaceRecord
 10
0.0
 20
0.0
 30
0.0
 70
   128
 71
   181
 72
   155
 73
   268
  0
VERTEX
  5
5AF
330
155
100
AcDbEntity
  8
0
100
AcDbFaceRecord
 10
0.0
 20
0.0
 30
0.0
 70
   128
 71
   181
 72
   268
 73
   182
  0
VERTEX
  5
5B0
330
155
100
AcDbEntity
  8
0
100
AcDbFaceRecord
 10
0.0
 20
0.0
 30
0.0
 70
   128
 71
   180
 72
   179
 73
   252
  0
VERTEX
  5
5B1
330
155
100
AcDbEntity
  8
0
100
AcDbFaceRecord
 10
0.0
 20
0.0
 30
0.0
 70
   128
 71
   180
 72
   252
 73
    19
  0
VERTEX
  5
5B2
330
155
100
AcDbEntity
  8
0
100
AcDbFaceRecord
 10
0.0
 20
0.0
 30
0.0
 70
   128
 71
    19
 72
     2
 73
   180
  0
VERTEX
  5
5B3
330
155
100
AcDbEntity
  8
0
100
AcDbFaceRecord
 10
0.0
 20
0.0
 30
0.0
 70
   128
 71
   180
 72
     2
 73
     1
  0
VERTEX
  5
5B4
330
155
100
AcDbEntity
  8
0
100
AcDbFaceRecord
 10
0.0
 20
0.0
 30
0.0
 70
   128
 71
     7
 72
    25
 73
     8
  0
VERTEX
  5
5B5
330
155
100
AcDbEntity
  8
0
100
AcDbFaceRecord
 10
0.0
 20
0.0
 30
0.0
 70
   128
 71
     5
 72
    25
 73
     6
  0
VERTEX
  5
5B6
330
155
100
AcDbEntity
  8
0
100
AcDbFaceRecord
 10
0.0
 20
0.0
 30
0.0
 70
   128
 71
     6
 72
    25
 73
     7
  0
VERTEX
  5
5B7
330
155
100
AcDbEntity
  8
0
100
AcDbFaceRecord
 10
0.0
 20
0.0
 30
0.0
 70
   128
 71
    16
 72
    18
 73
   144
  0
VERTEX
  5
5B8
330
155
100
AcDbEntity
  8
0
100
AcDbFaceRecord
 10
0.0
 20
0.0
 30
0.0
 70
   128
 71
   131
 72
   130
 73
   269
  0
VERTEX
  5
5B9
330
155
100
AcDbEntity
  8
0
100
AcDbFaceRecord
 10
0.0
 20
0.0
 30
0.0
 70
   128
 71
   130
 72
   137
 73
   270
  0
VERTEX
  5
5BA
330
155
100
AcDbEntity
  8
0
100
AcDbFaceRecord
 10
0.0
 20
0.0
 30
0.0
 70
   128
 71
   270
 72
   269
 73
  -130
  0
VERTEX
  5
5BB
330
155
100
AcDbEntity
  8
0
100
AcDbFaceRecord
 10
0.0
 20
0.0
 30
0.0
 70
   128
 71
   271
 72
   272
 73
   273
  0
VERTEX
  5
5BC
330
155
100
AcDbEntity
  8
0
100
AcDbFaceRecord
 10
0.0
 20
0.0
 30
0.0
 70
   128
 71
   273
 72
   274
 73
  -271
  0
VERTEX
  5
5BD
330
155
100
AcDbEntity
  8
0
100
AcDbFaceRecord
 10
0.0
 20
0.0
 30
0.0
 70
   128
 71
   272
 72
   275
 73
   276
  0
VERTEX
  5
5BE
330
155
100
AcDbEntity
  8
0
100
AcDbFaceRecord
 10
0.0
 20
0.0
 30
0.0
 70
   128
 71
   276
 72
   273
 73
  -272
  0
VERTEX
  5
5BF
330
155
100
AcDbEntity
  8
0
100
AcDbFaceRecord
 10
0.0
 20
0.0
 30
0.0
 70
   128
 71
   275
 72
   277
 73
   278
  0
VERTEX
  5
5C0
330
155
100
AcDbEntity
  8
0
100
AcDbFaceRecord
 10
0.0
 20
0.0
 30
0.0
 70
   128
 71
   278
 72
   276
 73
  -275
  0
VERTEX
  5
5C1
330
155
100
AcDbEntity
  8
0
100
AcDbFaceRecord
 10
0.0
 20
0.0
 30
0.0
 70
   128
 71
   277
 72
   279
 73
   280
  0
VERTEX
  5
5C2
330
155
100
AcDbEntity
  8
0
100
AcDbFaceRecord
 10
0.0
 20
0.0
 30
0.0
 70
   128
 71
   280
 72
   278
 73
  -277
  0
VERTEX
  5
5C3
330
155
100
AcDbEntity
  8
0
100
AcDbFaceRecord
 10
0.0
 20
0.0
 30
0.0
 70
   128
 71
   279
 72
   281
 73
   282
  0
VERTEX
  5
5C4
330
155
100
AcDbEntity
  8
0
100
AcDbFaceRecord
 10
0.0
 20
0.0
 30
0.0
 70
   128
 71
   282
 72
   280
 73
  -279
  0
VERTEX
  5
5C5
330
155
100
AcDbEntity
  8
0
100
AcDbFaceRecord
 10
0.0
 20
0.0
 30
0.0
 70
   128
 71
   281
 72
   197
 73
   200
  0
VERTEX
  5
5C6
330
155
100
AcDbEntity
  8
0
100
AcDbFaceRecord
 10
0.0
 20
0.0
 30
0.0
 70
   128
 71
   200
 72
   282
 73
  -281
  0
VERTEX
  5
5C7
330
155
100
AcDbEntity
  8
0
100
AcDbFaceRecord
 10
0.0
 20
0.0
 30
0.0
 70
   128
 71
   274
 72
   273
 73
   283
  0
VERTEX
  5
5C8
330
155
100
AcDbEntity
  8
0
100
AcDbFaceRecord
 10
0.0
 20
0.0
 30
0.0
 70
   128
 71
   283
 72
   284
 73
  -274
  0
VERTEX
  5
5C9
330
155
100
AcDbEntity
  8
0
100
AcDbFaceRecord
 10
0.0
 20
0.0
 30
0.0
 70
   128
 71
   273
 72
   276
 73
   285
  0
VERTEX
  5
5CA
330
155
100
AcDbEntity
  8
0
100
AcDbFaceRecord
 10
0.0
 20
0.0
 30
0.0
 70
   128
 71
   285
 72
   283
 73
  -273
  0
VERTEX
  5
5CB
330
155
100
AcDbEntity
  8
0
100
AcDbFaceRecord
 10
0.0
 20
0.0
 30
0.0
 70
   128
 71
   276
 72
   278
 73
   286
  0
VERTEX
  5
5CC
330
155
100
AcDbEntity
  8
0
100
AcDbFaceRecord
 10
0.0
 20
0.0
 30
0.0
 70
   128
 71
   286
 72
   285
 73
  -276
  0
VERTEX
  5
5CD
330
155
100
AcDbEntity
  8
0
100
AcDbFaceRecord
 10
0.0
 20
0.0
 30
0.0
 70
   128
 71
   278
 72
   280
 73
   287
  0
VERTEX
  5
5CE
330
155
100
AcDbEntity
  8
0
100
AcDbFaceRecord
 10
0.0
 20
0.0
 30
0.0
 70
   128
 71
   287
 72
   286
 73
  -278
  0
VERTEX
  5
5CF
330
155
100
AcDbEntity
  8
0
100
AcDbFaceRecord
 10
0.0
 20
0.0
 30
0.0
 70
   128
 71
   280
 72
   282
 73
   288
  0
VERTEX
  5
5D0
330
155
100
AcDbEntity
  8
0
100
AcDbFaceRecord
 10
0.0
 20
0.0
 30
0.0
 70
   128
 71
   288
 72
   287
 73
  -280
  0
VERTEX
  5
5D1
330
155
100
AcDbEntity
  8
0
100
AcDbFaceRecord
 10
0.0
 20
0.0
 30
0.0
 70
   128
 71
   282
 72
   200
 73
   208
  0
VERTEX
  5
5D2
330
155
100
AcDbEntity
  8
0
100
AcDbFaceRecord
 10
0.0
 20
0.0
 30
0.0
 70
   128
 71
   208
 72
   288
 73
  -282
  0
VERTEX
  5
5D3
330
155
100
AcDbEntity
  8
0
100
AcDbFaceRecord
 10
0.0
 20
0.0
 30
0.0
 70
   128
 71
   284
 72
   283
 73
   289
  0
VERTEX
  5
5D4
330
155
100
AcDbEntity
  8
0
100
AcDbFaceRecord
 10
0.0
 20
0.0
 30
0.0
 70
   128
 71
   289
 72
   290
 73
  -284
  0
VERTEX
  5
5D5
330
155
100
AcDbEntity
  8
0
100
AcDbFaceRecord
 10
0.0
 20
0.0
 30
0.0
 70
   128
 71
   283
 72
   285
 73
   291
  0
VERTEX
  5
5D6
330
155
100
AcDbEntity
  8
0
100
AcDbFaceRecord
 10
0.0
 20
0.0
 30
0.0
 70
   128
 71
   291
 72
   289
 73
  -283
  0
VERTEX
  5
5D7
330
155
100
AcDbEntity
  8
0
100
AcDbFaceRecord
 10
0.0
 20
0.0
 30
0.0
 70
   128
 71
   285
 72
   286
 73
   292
  0
VERTEX
  5
5D8
330
155
100
AcDbEntity
  8
0
100
AcDbFaceRecord
 10
0.0
 20
0.0
 30
0.0
 70
   128
 71
   292
 72
   291
 73
  -285
  0
VERTEX
  5
5D9
330
155
100
AcDbEntity
  8
0
100
AcDbFaceRecord
 10
0.0
 20
0.0
 30
0.0
 70
   128
 71
   286
 72
   287
 73
   293
  0
VERTEX
  5
5DA
330
155
100
AcDbEntity
  8
0
100
AcDbFaceRecord
 10
0.0
 20
0.0
 30
0.0
 70
   128
 71
   293
 72
   292
 73
  -286
  0
VERTEX
  5
5DB
330
155
100
AcDbEntity
  8
0
100
AcDbFaceRecord
 10
0.0
 20
0.0
 30
0.0
 70
   128
 71
   287
 72
   288
 73
   294
  0
VERTEX
  5
5DC
330
155
100
AcDbEntity
  8
0
100
AcDbFaceRecord
 10
0.0
 20
0.0
 30
0.0
 70
   128
 71
   294
 72
   293
 73
  -287
  0
VERTEX
  5
5DD
330
155
100
AcDbEntity
  8
0
100
AcDbFaceRecord
 10
0.0
 20
0.0
 30
0.0
 70
   128
 71
   288
 72
   208
 73
   213
  0
VERTEX
  5
5DE
330
155
100
AcDbEntity
  8
0
100
AcDbFaceRecord
 10
0.0
 20
0.0
 30
0.0
 70
   128
 71
   213
 72
   294
 73
  -288
  0
VERTEX
  5
5DF
330
155
100
AcDbEntity
  8
0
100
AcDbFaceRecord
 10
0.0
 20
0.0
 30
0.0
 70
   128
 71
   290
 72
   289
 73
   295
  0
VERTEX
  5
5E0
330
155
100
AcDbEntity
  8
0
100
AcDbFaceRecord
 10
0.0
 20
0.0
 30
0.0
 70
   128
 71
   295
 72
   296
 73
  -290
  0
VERTEX
  5
5E1
330
155
100
AcDbEntity
  8
0
100
AcDbFaceRecord
 10
0.0
 20
0.0
 30
0.0
 70
   128
 71
   289
 72
   291
 73
   297
  0
VERTEX
  5
5E2
330
155
100
AcDbEntity
  8
0
100
AcDbFaceRecord
 10
0.0
 20
0.0
 30
0.0
 70
   128
 71
   297
 72
   295
 73
  -289
  0
VERTEX
  5
5E3
330
155
100
AcDbEntity
  8
0
100
AcDbFaceRecord
 10
0.0
 20
0.0
 30
0.0
 70
   128
 71
   291
 72
   292
 73
   298
  0
VERTEX
  5
5E4
330
155
100
AcDbEntity
  8
0
100
AcDbFaceRecord
 10
0.0
 20
0.0
 30
0.0
 70
   128
 71
   298
 72
   297
 73
  -291
  0
VERTEX
  5
5E5
330
155
100
AcDbEntity
  8
0
100
AcDbFaceRecord
 10
0.0
 20
0.0
 30
0.0
 70
   128
 71
   292
 72
   293
 73
   299
  0
VERTEX
  5
5E6
330
155
100
AcDbEntity
  8
0
100
AcDbFaceRecord
 10
0.0
 20
0.0
 30
0.0
 70
   128
 71
   299
 72
   298
 73
  -292
  0
VERTEX
  5
5E7
330
155
100
AcDbEntity
  8
0
100
AcDbFaceRecord
 10
0.0
 20
0.0
 30
0.0
 70
   128
 71
   293
 72
   294
 73
   300
  0
VERTEX
  5
5E8
330
155
100
AcDbEntity
  8
0
100
AcDbFaceRecord
 10
0.0
 20
0.0
 30
0.0
 70
   128
 71
   300
 72
   299
 73
  -293
  0
VERTEX
  5
5E9
330
155
100
AcDbEntity
  8
0
100
AcDbFaceRecord
 10
0.0
 20
0.0
 30
0.0
 70
   128
 71
   294
 72
   213
 73
   218
  0
VERTEX
  5
5EA
330
155
100
AcDbEntity
  8
0
100
AcDbFaceRecord
 10
0.0
 20
0.0
 30
0.0
 70
   128
 71
   218
 72
   300
 73
  -294
  0
VERTEX
  5
5EB
330
155
100
AcDbEntity
  8
0
100
AcDbFaceRecord
 10
0.0
 20
0.0
 30
0.0
 70
   128
 71
   296
 72
   295
 73
   301
  0
VERTEX
  5
5EC
330
155
100
AcDbEntity
  8
0
100
AcDbFaceRecord
 10
0.0
 20
0.0
 30
0.0
 70
   128
 71
   301
 72
   302
 73
  -296
  0
VERTEX
  5
5ED
330
155
100
AcDbEntity
  8
0
100
AcDbFaceRecord
 10
0.0
 20
0.0
 30
0.0
 70
   128
 71
   295
 72
   297
 73
   303
  0
VERTEX
  5
5EE
330
155
100
AcDbEntity
  8
0
100
AcDbFaceRecord
 10
0.0
 20
0.0
 30
0.0
 70
   128
 71
   303
 72
   301
 73
  -295
  0
VERTEX
  5
5EF
330
155
100
AcDbEntity
  8
0
100
AcDbFaceRecord
 10
0.0
 20
0.0
 30
0.0
 70
   128
 71
   297
 72
   298
 73
   304
  0
VERTEX
  5
5F0
330
155
100
AcDbEntity
  8
0
100
AcDbFaceRecord
 10
0.0
 20
0.0
 30
0.0
 70
   128
 71
   304
 72
   303
 73
  -297
  0
VERTEX
  5
5F1
330
155
100
AcDbEntity
  8
0
100
AcDbFaceRecord
 10
0.0
 20
0.0
 30
0.0
 70
   128
 71
   298
 72
   299
 73
   305
  0
VERTEX
  5
5F2
330
155
100
AcDbEntity
  8
0
100
AcDbFaceRecord
 10
0.0
 20
0.0
 30
0.0
 70
   128
 71
   305
 72
   304
 73
  -298
  0
VERTEX
  5
5F3
330
155
100
AcDbEntity
  8
0
100
AcDbFaceRecord
 10
0.0
 20
0.0
 30
0.0
 70
   128
 71
   299
 72
   300
 73
   306
  0
VERTEX
  5
5F4
330
155
100
AcDbEntity
  8
0
100
AcDbFaceRecord
 10
0.0
 20
0.0
 30
0.0
 70
   128
 71
   306
 72
   305
 73
  -299
  0
VERTEX
  5
5F5
330
155
100
AcDbEntity
  8
0
100
AcDbFaceRecord
 10
0.0
 20
0.0
 30
0.0
 70
   128
 71
   300
 72
   218
 73
   223
  0
VERTEX
  5
5F6
330
155
100
AcDbEntity
  8
0
100
AcDbFaceRecord
 10
0.0
 20
0.0
 30
0.0
 70
   128
 71
   223
 72
   306
 73
  -300
  0
VERTEX
  5
5F7
330
155
100
AcDbEntity
  8
0
100
AcDbFaceRecord
 10
0.0
 20
0.0
 30
0.0
 70
   128
 71
   302
 72
   301
 73
   307
  0
VERTEX
  5
5F8
330
155
100
AcDbEntity
  8
0
100
AcDbFaceRecord
 10
0.0
 20
0.0
 30
0.0
 70
   128
 71
   307
 72
   308
 73
  -302
  0
VERTEX
  5
5F9
330
155
100
AcDbEntity
  8
0
100
AcDbFaceRecord
 10
0.0
 20
0.0
 30
0.0
 70
   128
 71
   301
 72
   303
 73
   309
  0
VERTEX
  5
5FA
330
155
100
AcDbEntity
  8
0
100
AcDbFaceRecord
 10
0.0
 20
0.0
 30
0.0
 70
   128
 71
   309
 72
   307
 73
  -301
  0
VERTEX
  5
5FB
330
155
100
AcDbEntity
  8
0
100
AcDbFaceRecord
 10
0.0
 20
0.0
 30
0.0
 70
   128
 71
   303
 72
   304
 73
   310
  0
VERTEX
  5
5FC
330
155
100
AcDbEntity
  8
0
100
AcDbFaceRecord
 10
0.0
 20
0.0
 30
0.0
 70
   128
 71
   310
 72
   309
 73
  -303
  0
VERTEX
  5
5FD
330
155
100
AcDbEntity
  8
0
100
AcDbFaceRecord
 10
0.0
 20
0.0
 30
0.0
 70
   128
 71
   304
 72
   305
 73
   311
  0
VERTEX
  5
5FE
330
155
100
AcDbEntity
  8
0
100
AcDbFaceRecord
 10
0.0
 20
0.0
 30
0.0
 70
   128
 71
   311
 72
   310
 73
  -304
  0
VERTEX
  5
5FF
330
155
100
AcDbEntity
  8
0
100
AcDbFaceRecord
 10
0.0
 20
0.0
 30
0.0
 70
   128
 71
   305
 72
   306
 73
   312
  0
VERTEX
  5
600
330
155
100
AcDbEntity
  8
0
100
AcDbFaceRecord
 10
0.0
 20
0.0
 30
0.0
 70
   128
 71
   312
 72
   311
 73
  -305
  0
VERTEX
  5
601
330
155
100
AcDbEntity
  8
0
100
AcDbFaceRecord
 10
0.0
 20
0.0
 30
0.0
 70
   128
 71
   306
 72
   223
 73
   228
  0
VERTEX
  5
602
330
155
100
AcDbEntity
  8
0
100
AcDbFaceRecord
 10
0.0
 20
0.0
 30
0.0
 70
   128
 71
   228
 72
   312
 73
  -306
  0
VERTEX
  5
603
330
155
100
AcDbEntity
  8
0
100
AcDbFaceRecord
 10
0.0
 20
0.0
 30
0.0
 70
   128
 71
   308
 72
   307
 73
   313
  0
VERTEX
  5
604
330
155
100
AcDbEntity
  8
0
100
AcDbFaceRecord
 10
0.0
 20
0.0
 30
0.0
 70
   128
 71
   313
 72
   314
 73
  -308
  0
VERTEX
  5
605
330
155
100
AcDbEntity
  8
0
100
AcDbFaceRecord
 10
0.0
 20
0.0
 30
0.0
 70
   128
 71
   307
 72
   309
 73
   315
  0
VERTEX
  5
606
330
155
100
AcDbEntity
  8
0
100
AcDbFaceRecord
 10
0.0
 20
0.0
 30
0.0
 70
   128
 71
   315
 72
   313
 73
  -307
  0
VERTEX
  5
607
330
155
100
AcDbEntity
  8
0
100
AcDbFaceRecord
 10
0.0
 20
0.0
 30
0.0
 70
   128
 71
   309
 72
   310
 73
   316
  0
VERTEX
  5
608
330
155
100
AcDbEntity
  8
0
100
AcDbFaceRecord
 10
0.0
 20
0.0
 30
0.0
 70
   128
 71
   316
 72
   315
 73
  -309
  0
VERTEX
  5
609
330
155
100
AcDbEntity
  8
0
100
AcDbFaceRecord
 10
0.0
 20
0.0
 30
0.0
 70
   128
 71
   310
 72
   311
 73
   317
  0
VERTEX
  5
60A
330
155
100
AcDbEntity
  8
0
100
AcDbFaceRecord
 10
0.0
 20
0.0
 30
0.0
 70
   128
 71
   317
 72
   316
 73
  -310
  0
VERTEX
  5
60B
330
155
100
AcDbEntity
  8
0
100
AcDbFaceRecord
 10
0.0
 20
0.0
 30
0.0
 70
   128
 71
   311
 72
   312
 73
   318
  0
VERTEX
  5
60C
330
155
100
AcDbEntity
  8
0
100
AcDbFaceRecord
 10
0.0
 20
0.0
 30
0.0
 70
   128
 71
   318
 72
   317
 73
  -311
  0
VERTEX
  5
60D
330
155
100
AcDbEntity
  8
0
100
AcDbFaceRecord
 10
0.0
 20
0.0
 30
0.0
 70
   128
 71
   312
 72
   228
 73
   233
  0
VERTEX
  5
60E
330
155
100
AcDbEntity
  8
0
100
AcDbFaceRecord
 10
0.0
 20
0.0
 30
0.0
 70
   128
 71
   233
 72
   318
 73
  -312
  0
VERTEX
  5
60F
330
155
100
AcDbEntity
  8
0
100
AcDbFaceRecord
 10
0.0
 20
0.0
 30
0.0
 70
   128
 71
   314
 72
   313
 73
   319
  0
VERTEX
  5
610
330
155
100
AcDbEntity
  8
0
100
AcDbFaceRecord
 10
0.0
 20
0.0
 30
0.0
 70
   128
 71
   319
 72
   320
 73
  -314
  0
VERTEX
  5
611
330
155
100
AcDbEntity
  8
0
100
AcDbFaceRecord
 10
0.0
 20
0.0
 30
0.0
 70
   128
 71
   313
 72
   315
 73
   321
  0
VERTEX
  5
612
330
155
100
AcDbEntity
  8
0
100
AcDbFaceRecord
 10
0.0
 20
0.0
 30
0.0
 70
   128
 71
   321
 72
   319
 73
  -313
  0
VERTEX
  5
613
330
155
100
AcDbEntity
  8
0
100
AcDbFaceRecord
 10
0.0
 20
0.0
 30
0.0
 70
   128
 71
   315
 72
   316
 73
   322
  0
VERTEX
  5
614
330
155
100
AcDbEntity
  8
0
100
AcDbFaceRecord
 10
0.0
 20
0.0
 30
0.0
 70
   128
 71
   322
 72
   321
 73
  -315
  0
VERTEX
  5
615
330
155
100
AcDbEntity
  8
0
100
AcDbFaceRecord
 10
0.0
 20
0.0
 30
0.0
 70
   128
 71
   316
 72
   317
 73
   323
  0
VERTEX
  5
616
330
155
100
AcDbEntity
  8
0
100
AcDbFaceRecord
 10
0.0
 20
0.0
 30
0.0
 70
   128
 71
   323
 72
   322
 73
  -316
  0
VERTEX
  5
617
330
155
100
AcDbEntity
  8
0
100
AcDbFaceRecord
 10
0.0
 20
0.0
 30
0.0
 70
   128
 71
   317
 72
   318
 73
   324
  0
VERTEX
  5
618
330
155
100
AcDbEntity
  8
0
100
AcDbFaceRecord
 10
0.0
 20
0.0
 30
0.0
 70
   128
 71
   324
 72
   323
 73
  -317
  0
VERTEX
  5
619
330
155
100
AcDbEntity
  8
0
100
AcDbFaceRecord
 10
0.0
 20
0.0
 30
0.0
 70
   128
 71
   318
 72
   233
 73
   238
  0
VERTEX
  5
61A
330
155
100
AcDbEntity
  8
0
100
AcDbFaceRecord
 10
0.0
 20
0.0
 30
0.0
 70
   128
 71
   238
 72
   324
 73
  -318
  0
VERTEX
  5
61B
330
155
100
AcDbEntity
  8
0
100
AcDbFaceRecord
 10
0.0
 20
0.0
 30
0.0
 70
   128
 71
   320
 72
   319
 73
   325
  0
VERTEX
  5
61C
330
155
100
AcDbEntity
  8
0
100
AcDbFaceRecord
 10
0.0
 20
0.0
 30
0.0
 70
   128
 71
   325
 72
   326
 73
  -320
  0
VERTEX
  5
61D
330
155
100
AcDbEntity
  8
0
100
AcDbFaceRecord
 10
0.0
 20
0.0
 30
0.0
 70
   128
 71
   319
 72
   321
 73
   327
  0
VERTEX
  5
61E
330
155
100
AcDbEntity
  8
0
100
AcDbFaceRecord
 10
0.0
 20
0.0
 30
0.0
 70
   128
 71
   327
 72
   325
 73
  -319
  0
VERTEX
  5
61F
330
155
100
AcDbEntity
  8
0
100
AcDbFaceRecord
 10
0.0
 20
0.0
 30
0.0
 70
   128
 71
   321
 72
   322
 73
   328
  0
VERTEX
  5
620
330
155
100
AcDbEntity
  8
0
100
AcDbFaceRecord
 10
0.0
 20
0.0
 30
0.0
 70
   128
 71
   328
 72
   327
 73
  -321
  0
VERTEX
  5
621
330
155
100
AcDbEntity
  8
0
100
AcDbFaceRecord
 10
0.0
 20
0.0
 30
0.0
 70
   128
 71
   322
 72
   323
 73
   329
  0
VERTEX
  5
622
330
155
100
AcDbEntity
  8
0
100
AcDbFaceRecord
 10
0.0
 20
0.0
 30
0.0
 70
   128
 71
   329
 72
   328
 73
  -322
  0
VERTEX
  5
623
330
155
100
AcDbEntity
  8
0
100
AcDbFaceRecord
 10
0.0
 20
0.0
 30
0.0
 70
   128
 71
   323
 72
   324
 73
   330
  0
VERTEX
  5
624
330
155
100
AcDbEntity
  8
0
100
AcDbFaceRecord
 10
0.0
 20
0.0
 30
0.0
 70
   128
 71
   330
 72
   329
 73
  -323
  0
VERTEX
  5
625
330
155
100
AcDbEntity
  8
0
100
AcDbFaceRecord
 10
0.0
 20
0.0
 30
0.0
 70
   128
 71
   324
 72
   238
 73
   243
  0
VERTEX
  5
626
330
155
100
AcDbEntity
  8
0
100
AcDbFaceRecord
 10
0.0
 20
0.0
 30
0.0
 70
   128
 71
   243
 72
   330
 73
  -324
  0
VERTEX
  5
627
330
155
100
AcDbEntity
  8
0
100
AcDbFaceRecord
 10
0.0
 20
0.0
 30
0.0
 70
   128
 71
   326
 72
   325
 73
   331
  0
VERTEX
  5
628
330
155
100
AcDbEntity
  8
0
100
AcDbFaceRecord
 10
0.0
 20
0.0
 30
0.0
 70
   128
 71
   331
 72
   332
 73
  -326
  0
VERTEX
  5
629
330
155
100
AcDbEntity
  8
0
100
AcDbFaceRecord
 10
0.0
 20
0.0
 30
0.0
 70
   128
 71
   325
 72
   327
 73
   333
  0
VERTEX
  5
62A
330
155
100
AcDbEntity
  8
0
100
AcDbFaceRecord
 10
0.0
 20
0.0
 30
0.0
 70
   128
 71
   333
 72
   331
 73
  -325
  0
VERTEX
  5
62B
330
155
100
AcDbEntity
  8
0
100
AcDbFaceRecord
 10
0.0
 20
0.0
 30
0.0
 70
   128
 71
   327
 72
   328
 73
   334
  0
VERTEX
  5
62C
330
155
100
AcDbEntity
  8
0
100
AcDbFaceRecord
 10
0.0
 20
0.0
 30
0.0
 70
   128
 71
   334
 72
   333
 73
  -327
  0
VERTEX
  5
62D
330
155
100
AcDbEntity
  8
0
100
AcDbFaceRecord
 10
0.0
 20
0.0
 30
0.0
 70
   128
 71
   328
 72
   329
 73
   335
  0
VERTEX
  5
62E
330
155
100
AcDbEntity
  8
0
100
AcDbFaceRecord
 10
0.0
 20
0.0
 30
0.0
 70
   128
 71
   335
 72
   334
 73
  -328
  0
VERTEX
  5
62F
330
155
100
AcDbEntity
  8
0
100
AcDbFaceRecord
 10
0.0
 20
0.0
 30
0.0
 70
   128
 71
   329
 72
   330
 73
   336
  0
VERTEX
  5
630
330
155
100
AcDbEntity
  8
0
100
AcDbFaceRecord
 10
0.0
 20
0.0
 30
0.0
 70
   128
 71
   336
 72
   335
 73
  -329
  0
VERTEX
  5
631
330
155
100
AcDbEntity
  8
0
100
AcDbFaceRecord
 10
0.0
 20
0.0
 30
0.0
 70
   128
 71
   330
 72
   243
 73
   248
  0
VERTEX
  5
632
330
155
100
AcDbEntity
  8
0
100
AcDbFaceRecord
 10
0.0
 20
0.0
 30
0.0
 70
   128
 71
   248
 72
   336
 73
  -330
  0
VERTEX
  5
633
330
155
100
AcDbEntity
  8
0
100
AcDbFaceRecord
 10
0.0
 20
0.0
 30
0.0
 70
   128
 71
   332
 72
   331
 73
   337
  0
VERTEX
  5
634
330
155
100
AcDbEntity
  8
0
100
AcDbFaceRecord
 10
0.0
 20
0.0
 30
0.0
 70
   128
 71
   337
 72
   338
 73
  -332
  0
VERTEX
  5
635
330
155
100
AcDbEntity
  8
0
100
AcDbFaceRecord
 10
0.0
 20
0.0
 30
0.0
 70
   128
 71
   331
 72
   333
 73
   339
  0
VERTEX
  5
636
330
155
100
AcDbEntity
  8
0
100
AcDbFaceRecord
 10
0.0
 20
0.0
 30
0.0
 70
   128
 71
   339
 72
   337
 73
  -331
  0
VERTEX
  5
637
330
155
100
AcDbEntity
  8
0
100
AcDbFaceRecord
 10
0.0
 20
0.0
 30
0.0
 70
   128
 71
   333
 72
   334
 73
   340
  0
VERTEX
  5
638
330
155
100
AcDbEntity
  8
0
100
AcDbFaceRecord
 10
0.0
 20
0.0
 30
0.0
 70
   128
 71
   340
 72
   339
 73
  -333
  0
VERTEX
  5
639
330
155
100
AcDbEntity
  8
0
100
AcDbFaceRecord
 10
0.0
 20
0.0
 30
0.0
 70
   128
 71
   334
 72
   335
 73
   341
  0
VERTEX
  5
63A
330
155
100
AcDbEntity
  8
0
100
AcDbFaceRecord
 10
0.0
 20
0.0
 30
0.0
 70
   128
 71
   341
 72
   340
 73
  -334
  0
VERTEX
  5
63B
330
155
100
AcDbEntity
  8
0
100
AcDbFaceRecord
 10
0.0
 20
0.0
 30
0.0
 70
   128
 71
   335
 72
   336
 73
   342
  0
VERTEX
  5
63C
330
155
100
AcDbEntity
  8
0
100
AcDbFaceRecord
 10
0.0
 20
0.0
 30
0.0
 70
   128
 71
   342
 72
   341
 73
  -335
  0
VERTEX
  5
63D
330
155
100
AcDbEntity
  8
0
100
AcDbFaceRecord
 10
0.0
 20
0.0
 30
0.0
 70
   128
 71
   336
 72
   248
 73
   254
  0
VERTEX
  5
63E
330
155
100
AcDbEntity
  8
0
100
AcDbFaceRecord
 10
0.0
 20
0.0
 30
0.0
 70
   128
 71
   254
 72
   342
 73
  -336
  0
VERTEX
  5
63F
330
155
100
AcDbEntity
  8
0
100
AcDbFaceRecord
 10
0.0
 20
0.0
 30
0.0
 70
   128
 71
   338
 72
   337
 73
   343
  0
VERTEX
  5
640
330
155
100
AcDbEntity
  8
0
100
AcDbFaceRecord
 10
0.0
 20
0.0
 30
0.0
 70
   128
 71
   343
 72
   344
 73
  -338
  0
VERTEX
  5
641
330
155
100
AcDbEntity
  8
0
100
AcDbFaceRecord
 10
0.0
 20
0.0
 30
0.0
 70
   128
 71
   337
 72
   339
 73
   345
  0
VERTEX
  5
642
330
155
100
AcDbEntity
  8
0
100
AcDbFaceRecord
 10
0.0
 20
0.0
 30
0.0
 70
   128
 71
   345
 72
   343
 73
  -337
  0
VERTEX
  5
643
330
155
100
AcDbEntity
  8
0
100
AcDbFaceRecord
 10
0.0
 20
0.0
 30
0.0
 70
   128
 71
   339
 72
   340
 73
   346
  0
VERTEX
  5
644
330
155
100
AcDbEntity
  8
0
100
AcDbFaceRecord
 10
0.0
 20
0.0
 30
0.0
 70
   128
 71
   346
 72
   345
 73
  -339
  0
VERTEX
  5
645
330
155
100
AcDbEntity
  8
0
100
AcDbFaceRecord
 10
0.0
 20
0.0
 30
0.0
 70
   128
 71
   340
 72
   341
 73
   347
  0
VERTEX
  5
646
330
155
100
AcDbEntity
  8
0
100
AcDbFaceRecord
 10
0.0
 20
0.0
 30
0.0
 70
   128
 71
   347
 72
   346
 73
  -340
  0
VERTEX
  5
647
330
155
100
AcDbEntity
  8
0
100
AcDbFaceRecord
 10
0.0
 20
0.0
 30
0.0
 70
   128
 71
   341
 72
   342
 73
   348
  0
VERTEX
  5
648
330
155
100
AcDbEntity
  8
0
100
AcDbFaceRecord
 10
0.0
 20
0.0
 30
0.0
 70
   128
 71
   348
 72
   347
 73
  -341
  0
VERTEX
  5
649
330
155
100
AcDbEntity
  8
0
100
AcDbFaceRecord
 10
0.0
 20
0.0
 30
0.0
 70
   128
 71
   342
 72
   254
 73
   259
  0
VERTEX
  5
64A
330
155
100
AcDbEntity
  8
0
100
AcDbFaceRecord
 10
0.0
 20
0.0
 30
0.0
 70
   128
 71
   259
 72
   348
 73
  -342
  0
VERTEX
  5
64B
330
155
100
AcDbEntity
  8
0
100
AcDbFaceRecord
 10
0.0
 20
0.0
 30
0.0
 70
   128
 71
   271
 72
   274
 73
   284
  0
VERTEX
  5
64C
330
155
100
AcDbEntity
  8
0
100
AcDbFaceRecord
 10
0.0
 20
0.0
 30
0.0
 70
   128
 71
   271
 72
   284
 73
   290
  0
VERTEX
  5
64D
330
155
100
AcDbEntity
  8
0
100
AcDbFaceRecord
 10
0.0
 20
0.0
 30
0.0
 70
   128
 71
   271
 72
   290
 73
   296
  0
VERTEX
  5
64E
330
155
100
AcDbEntity
  8
0
100
AcDbFaceRecord
 10
0.0
 20
0.0
 30
0.0
 70
   128
 71
   271
 72
   296
 73
   302
  0
VERTEX
  5
64F
330
155
100
AcDbEntity
  8
0
100
AcDbFaceRecord
 10
0.0
 20
0.0
 30
0.0
 70
   128
 71
   271
 72
   302
 73
   308
  0
VERTEX
  5
650
330
155
100
AcDbEntity
  8
0
100
AcDbFaceRecord
 10
0.0
 20
0.0
 30
0.0
 70
   128
 71
   271
 72
   308
 73
   314
  0
VERTEX
  5
651
330
155
100
AcDbEntity
  8
0
100
AcDbFaceRecord
 10
0.0
 20
0.0
 30
0.0
 70
   128
 71
   271
 72
   314
 73
   320
  0
VERTEX
  5
652
330
155
100
AcDbEntity
  8
0
100
AcDbFaceRecord
 10
0.0
 20
0.0
 30
0.0
 70
   128
 71
   271
 72
   320
 73
   349
  0
VERTEX
  5
653
330
155
100
AcDbEntity
  8
0
100
AcDbFaceRecord
 10
0.0
 20
0.0
 30
0.0
 70
   128
 71
   326
 72
   349
 73
   320
  0
VERTEX
  5
654
330
155
100
AcDbEntity
  8
0
100
AcDbFaceRecord
 10
0.0
 20
0.0
 30
0.0
 70
   128
 71
   349
 72
   326
 73
   332
  0
VERTEX
  5
655
330
155
100
AcDbEntity
  8
0
100
AcDbFaceRecord
 10
0.0
 20
0.0
 30
0.0
 70
   128
 71
   349
 72
   332
 73
   338
  0
VERTEX
  5
656
330
155
100
AcDbEntity
  8
0
100
AcDbFaceRecord
 10
0.0
 20
0.0
 30
0.0
 70
   128
 71
   349
 72
   338
 73
   344
  0
VERTEX
  5
657
330
155
100
AcDbEntity
  8
0
100
AcDbFaceRecord
 10
0.0
 20
0.0
 30
0.0
 70
   128
 71
   349
 72
   344
 73
   343
  0
VERTEX
  5
658
330
155
100
AcDbEntity
  8
0
100
AcDbFaceRecord
 10
0.0
 20
0.0
 30
0.0
 70
   128
 71
   349
 72
   343
 73
   345
  0
VERTEX
  5
659
330
155
100
AcDbEntity
  8
0
100
AcDbFaceRecord
 10
0.0
 20
0.0
 30
0.0
 70
   128
 71
   349
 72
   345
 73
   346
  0
VERTEX
  5
65A
330
155
100
AcDbEntity
  8
0
100
AcDbFaceRecord
 10
0.0
 20
0.0
 30
0.0
 70
   128
 71
   349
 72
   346
 73
   347
  0
VERTEX
  5
65B
330
155
100
AcDbEntity
  8
0
100
AcDbFaceRecord
 10
0.0
 20
0.0
 30
0.0
 70
   128
 71
   349
 72
   347
 73
   348
  0
VERTEX
  5
65C
330
155
100
AcDbEntity
  8
0
100
AcDbFaceRecord
 10
0.0
 20
0.0
 30
0.0
 70
   128
 71
   349
 72
   348
 73
   259
  0
VERTEX
  5
65D
330
155
100
AcDbEntity
  8
0
100
AcDbFaceRecord
 10
0.0
 20
0.0
 30
0.0
 70
   128
 71
   349
 72
   259
 73
   264
  0
VERTEX
  5
65E
330
155
100
AcDbEntity
  8
0
100
AcDbFaceRecord
 10
0.0
 20
0.0
 30
0.0
 70
   128
 71
   350
 72
   351
 73
   352
  0
VERTEX
  5
65F
330
155
100
AcDbEntity
  8
0
100
AcDbFaceRecord
 10
0.0
 20
0.0
 30
0.0
 70
   128
 71
   352
 72
   353
 73
  -350
  0
VERTEX
  5
660
330
155
100
AcDbEntity
  8
0
100
AcDbFaceRecord
 10
0.0
 20
0.0
 30
0.0
 70
   128
 71
   351
 72
   354
 73
   355
  0
VERTEX
  5
661
330
155
100
AcDbEntity
  8
0
100
AcDbFaceRecord
 10
0.0
 20
0.0
 30
0.0
 70
   128
 71
   355
 72
   352
 73
  -351
  0
VERTEX
  5
662
330
155
100
AcDbEntity
  8
0
100
AcDbFaceRecord
 10
0.0
 20
0.0
 30
0.0
 70
   128
 71
   356
 72
   357
 73
   358
  0
VERTEX
  5
663
330
155
100
AcDbEntity
  8
0
100
AcDbFaceRecord
 10
0.0
 20
0.0
 30
0.0
 70
   128
 71
   358
 72
   359
 73
  -356
  0
VERTEX
  5
664
330
155
100
AcDbEntity
  8
0
100
AcDbFaceRecord
 10
0.0
 20
0.0
 30
0.0
 70
   128
 71
   357
 72
   360
 73
   361
  0
VERTEX
  5
665
330
155
100
AcDbEntity
  8
0
100
AcDbFaceRecord
 10
0.0
 20
0.0
 30
0.0
 70
   128
 71
   361
 72
   358
 73
  -357
  0
VERTEX
  5
666
330
155
100
AcDbEntity
  8
0
100
AcDbFaceRecord
 10
0.0
 20
0.0
 30
0.0
 70
   128
 71
   360
 72
   362
 73
   363
  0
VERTEX
  5
667
330
155
100
AcDbEntity
  8
0
100
AcDbFaceRecord
 10
0.0
 20
0.0
 30
0.0
 70
   128
 71
   363
 72
   361
 73
  -360
  0
VERTEX
  5
668
330
155
100
AcDbEntity
  8
0
100
AcDbFaceRecord
 10
0.0
 20
0.0
 30
0.0
 70
   128
 71
   362
 72
   364
 73
   365
  0
VERTEX
  5
669
330
155
100
AcDbEntity
  8
0
100
AcDbFaceRecord
 10
0.0
 20
0.0
 30
0.0
 70
   128
 71
   365
 72
   363
 73
  -362
  0
VERTEX
  5
66A
330
155
100
AcDbEntity
  8
0
100
AcDbFaceRecord
 10
0.0
 20
0.0
 30
0.0
 70
   128
 71
   364
 72
   366
 73
   367
  0
VERTEX
  5
66B
330
155
100
AcDbEntity
  8
0
100
AcDbFaceRecord
 10
0.0
 20
0.0
 30
0.0
 70
   128
 71
   367
 72
   365
 73
  -364
  0
VERTEX
  5
66C
330
155
100
AcDbEntity
  8
0
100
AcDbFaceRecord
 10
0.0
 20
0.0
 30
0.0
 70
   128
 71
   368
 72
   353
 73
   369
  0
VERTEX
  5
66D
330
155
100
AcDbEntity
  8
0
100
AcDbFaceRecord
 10
0.0
 20
0.0
 30
0.0
 70
   128
 71
   369
 72
   370
 73
  -368
  0
VERTEX
  5
66E
330
155
100
AcDbEntity
  8
0
100
AcDbFaceRecord
 10
0.0
 20
0.0
 30
0.0
 70
   128
 71
   353
 72
   352
 73
   371
  0
VERTEX
  5
66F
330
155
100
AcDbEntity
  8
0
100
AcDbFaceRecord
 10
0.0
 20
0.0
 30
0.0
 70
   128
 71
   371
 72
   369
 73
  -353
  0
VERTEX
  5
670
330
155
100
AcDbEntity
  8
0
100
AcDbFaceRecord
 10
0.0
 20
0.0
 30
0.0
 70
   128
 71
   352
 72
   355
 73
   372
  0
VERTEX
  5
671
330
155
100
AcDbEntity
  8
0
100
AcDbFaceRecord
 10
0.0
 20
0.0
 30
0.0
 70
   128
 71
   372
 72
   371
 73
  -352
  0
VERTEX
  5
672
330
155
100
AcDbEntity
  8
0
100
AcDbFaceRecord
 10
0.0
 20
0.0
 30
0.0
 70
   128
 71
   355
 72
   373
 73
   374
  0
VERTEX
  5
673
330
155
100
AcDbEntity
  8
0
100
AcDbFaceRecord
 10
0.0
 20
0.0
 30
0.0
 70
   128
 71
   374
 72
   372
 73
  -355
  0
VERTEX
  5
674
330
155
100
AcDbEntity
  8
0
100
AcDbFaceRecord
 10
0.0
 20
0.0
 30
0.0
 70
   128
 71
   373
 72
   359
 73
   375
  0
VERTEX
  5
675
330
155
100
AcDbEntity
  8
0
100
AcDbFaceRecord
 10
0.0
 20
0.0
 30
0.0
 70
   128
 71
   375
 72
   374
 73
  -373
  0
VERTEX
  5
676
330
155
100
AcDbEntity
  8
0
100
AcDbFaceRecord
 10
0.0
 20
0.0
 30
0.0
 70
   128
 71
   359
 72
   358
 73
   376
  0
VERTEX
  5
677
330
155
100
AcDbEntity
  8
0
100
AcDbFaceRecord
 10
0.0
 20
0.0
 30
0.0
 70
   128
 71
   376
 72
   375
 73
  -359
  0
VERTEX
  5
678
330
155
100
AcDbEntity
  8
0
100
AcDbFaceRecord
 10
0.0
 20
0.0
 30
0.0
 70
   128
 71
   358
 72
   361
 73
   377
  0
VERTEX
  5
679
330
155
100
AcDbEntity
  8
0
100
AcDbFaceRecord
 10
0.0
 20
0.0
 30
0.0
 70
   128
 71
   377
 72
   376
 73
  -358
  0
VERTEX
  5
67A
330
155
100
AcDbEntity
  8
0
100
AcDbFaceRecord
 10
0.0
 20
0.0
 30
0.0
 70
   128
 71
   361
 72
   363
 73
   378
  0
VERTEX
  5
67B
330
155
100
AcDbEntity
  8
0
100
AcDbFaceRecord
 10
0.0
 20
0.0
 30
0.0
 70
   128
 71
   378
 72
   377
 73
  -361
  0
VERTEX
  5
67C
330
155
100
AcDbEntity
  8
0
100
AcDbFaceRecord
 10
0.0
 20
0.0
 30
0.0
 70
   128
 71
   363
 72
   365
 73
   379
  0
VERTEX
  5
67D
330
155
100
AcDbEntity
  8
0
100
AcDbFaceRecord
 10
0.0
 20
0.0
 30
0.0
 70
   128
 71
   379
 72
   378
 73
  -363
  0
VERTEX
  5
67E
330
155
100
AcDbEntity
  8
0
100
AcDbFaceRecord
 10
0.0
 20
0.0
 30
0.0
 70
   128
 71
   365
 72
   367
 73
   380
  0
VERTEX
  5
67F
330
155
100
AcDbEntity
  8
0
100
AcDbFaceRecord
 10
0.0
 20
0.0
 30
0.0
 70
   128
 71
   380
 72
   379
 73
  -365
  0
VERTEX
  5
680
330
155
100
AcDbEntity
  8
0
100
AcDbFaceRecord
 10
0.0
 20
0.0
 30
0.0
 70
   128
 71
   370
 72
   369
 73
   381
  0
VERTEX
  5
681
330
155
100
AcDbEntity
  8
0
100
AcDbFaceRecord
 10
0.0
 20
0.0
 30
0.0
 70
   128
 71
   381
 72
   382
 73
  -370
  0
VERTEX
  5
682
330
155
100
AcDbEntity
  8
0
100
AcDbFaceRecord
 10
0.0
 20
0.0
 30
0.0
 70
   128
 71
   369
 72
   371
 73
   383
  0
VERTEX
  5
683
330
155
100
AcDbEntity
  8
0
100
AcDbFaceRecord
 10
0.0
 20
0.0
 30
0.0
 70
   128
 71
   383
 72
   381
 73
  -369
  0
VERTEX
  5
684
330
155
100
AcDbEntity
  8
0
100
AcDbFaceRecord
 10
0.0
 20
0.0
 30
0.0
 70
   128
 71
   371
 72
   372
 73
   384
  0
VERTEX
  5
685
330
155
100
AcDbEntity
  8
0
100
AcDbFaceRecord
 10
0.0
 20
0.0
 30
0.0
 70
   128
 71
   384
 72
   383
 73
  -371
  0
VERTEX
  5
686
330
155
100
AcDbEntity
  8
0
100
AcDbFaceRecord
 10
0.0
 20
0.0
 30
0.0
 70
   128
 71
   372
 72
   374
 73
   385
  0
VERTEX
  5
687
330
155
100
AcDbEntity
  8
0
100
AcDbFaceRecord
 10
0.0
 20
0.0
 30
0.0
 70
   128
 71
   385
 72
   384
 73
  -372
  0
VERTEX
  5
688
330
155
100
AcDbEntity
  8
0
100
AcDbFaceRecord
 10
0.0
 20
0.0
 30
0.0
 70
   128
 71
   374
 72
   375
 73
   386
  0
VERTEX
  5
689
330
155
100
AcDbEntity
  8
0
100
AcDbFaceRecord
 10
0.0
 20
0.0
 30
0.0
 70
   128
 71
   386
 72
   385
 73
  -374
  0
VERTEX
  5
68A
330
155
100
AcDbEntity
  8
0
100
AcDbFaceRecord
 10
0.0
 20
0.0
 30
0.0
 70
   128
 71
   375
 72
   376
 73
   387
  0
VERTEX
  5
68B
330
155
100
AcDbEntity
  8
0
100
AcDbFaceRecord
 10
0.0
 20
0.0
 30
0.0
 70
   128
 71
   387
 72
   386
 73
  -375
  0
VERTEX
  5
68C
330
155
100
AcDbEntity
  8
0
100
AcDbFaceRecord
 10
0.0
 20
0.0
 30
0.0
 70
   128
 71
   376
 72
   377
 73
   388
  0
VERTEX
  5
68D
330
155
100
AcDbEntity
  8
0
100
AcDbFaceRecord
 10
0.0
 20
0.0
 30
0.0
 70
   128
 71
   388
 72
   387
 73
  -376
  0
VERTEX
  5
68E
330
155
100
AcDbEntity
  8
0
100
AcDbFaceRecord
 10
0.0
 20
0.0
 30
0.0
 70
   128
 71
   377
 72
   378
 73
   389
  0
VERTEX
  5
68F
330
155
100
AcDbEntity
  8
0
100
AcDbFaceRecord
 10
0.0
 20
0.0
 30
0.0
 70
   128
 71
   389
 72
   388
 73
  -377
  0
VERTEX
  5
690
330
155
100
AcDbEntity
  8
0
100
AcDbFaceRecord
 10
0.0
 20
0.0
 30
0.0
 70
   128
 71
   378
 72
   379
 73
   390
  0
VERTEX
  5
691
330
155
100
AcDbEntity
  8
0
100
AcDbFaceRecord
 10
0.0
 20
0.0
 30
0.0
 70
   128
 71
   390
 72
   389
 73
  -378
  0
VERTEX
  5
692
330
155
100
AcDbEntity
  8
0
100
AcDbFaceRecord
 10
0.0
 20
0.0
 30
0.0
 70
   128
 71
   379
 72
   380
 73
   391
  0
VERTEX
  5
693
330
155
100
AcDbEntity
  8
0
100
AcDbFaceRecord
 10
0.0
 20
0.0
 30
0.0
 70
   128
 71
   391
 72
   390
 73
  -379
  0
VERTEX
  5
694
330
155
100
AcDbEntity
  8
0
100
AcDbFaceRecord
 10
0.0
 20
0.0
 30
0.0
 70
   128
 71
   382
 72
   381
 73
   392
  0
VERTEX
  5
695
330
155
100
AcDbEntity
  8
0
100
AcDbFaceRecord
 10
0.0
 20
0.0
 30
0.0
 70
   128
 71
   392
 72
   393
 73
  -382
  0
VERTEX
  5
696
330
155
100
AcDbEntity
  8
0
100
AcDbFaceRecord
 10
0.0
 20
0.0
 30
0.0
 70
   128
 71
   381
 72
   383
 73
   394
  0
VERTEX
  5
697
330
155
100
AcDbEntity
  8
0
100
AcDbFaceRecord
 10
0.0
 20
0.0
 30
0.0
 70
   128
 71
   394
 72
   392
 73
  -381
  0
VERTEX
  5
698
330
155
100
AcDbEntity
  8
0
100
AcDbFaceRecord
 10
0.0
 20
0.0
 30
0.0
 70
   128
 71
   383
 72
   384
 73
   395
  0
VERTEX
  5
699
330
155
100
AcDbEntity
  8
0
100
AcDbFaceRecord
 10
0.0
 20
0.0
 30
0.0
 70
   128
 71
   395
 72
   394
 73
  -383
  0
VERTEX
  5
69A
330
155
100
AcDbEntity
  8
0
100
AcDbFaceRecord
 10
0.0
 20
0.0
 30
0.0
 70
   128
 71
   384
 72
   385
 73
   396
  0
VERTEX
  5
69B
330
155
100
AcDbEntity
  8
0
100
AcDbFaceRecord
 10
0.0
 20
0.0
 30
0.0
 70
   128
 71
   396
 72
   395
 73
  -384
  0
VERTEX
  5
69C
330
155
100
AcDbEntity
  8
0
100
AcDbFaceRecord
 10
0.0
 20
0.0
 30
0.0
 70
   128
 71
   385
 72
   386
 73
   397
  0
VERTEX
  5
69D
330
155
100
AcDbEntity
  8
0
100
AcDbFaceRecord
 10
0.0
 20
0.0
 30
0.0
 70
   128
 71
   397
 72
   396
 73
  -385
  0
VERTEX
  5
69E
330
155
100
AcDbEntity
  8
0
100
AcDbFaceRecord
 10
0.0
 20
0.0
 30
0.0
 70
   128
 71
   386
 72
   387
 73
   398
  0
VERTEX
  5
69F
330
155
100
AcDbEntity
  8
0
100
AcDbFaceRecord
 10
0.0
 20
0.0
 30
0.0
 70
   128
 71
   398
 72
   397
 73
  -386
  0
VERTEX
  5
6A0
330
155
100
AcDbEntity
  8
0
100
AcDbFaceRecord
 10
0.0
 20
0.0
 30
0.0
 70
   128
 71
   387
 72
   388
 73
   399
  0
VERTEX
  5
6A1
330
155
100
AcDbEntity
  8
0
100
AcDbFaceRecord
 10
0.0
 20
0.0
 30
0.0
 70
   128
 71
   399
 72
   398
 73
  -387
  0
VERTEX
  5
6A2
330
155
100
AcDbEntity
  8
0
100
AcDbFaceRecord
 10
0.0
 20
0.0
 30
0.0
 70
   128
 71
   388
 72
   389
 73
   400
  0
VERTEX
  5
6A3
330
155
100
AcDbEntity
  8
0
100
AcDbFaceRecord
 10
0.0
 20
0.0
 30
0.0
 70
   128
 71
   400
 72
   399
 73
  -388
  0
VERTEX
  5
6A4
330
155
100
AcDbEntity
  8
0
100
AcDbFaceRecord
 10
0.0
 20
0.0
 30
0.0
 70
   128
 71
   389
 72
   390
 73
   401
  0
VERTEX
  5
6A5
330
155
100
AcDbEntity
  8
0
100
AcDbFaceRecord
 10
0.0
 20
0.0
 30
0.0
 70
   128
 71
   401
 72
   400
 73
  -389
  0
VERTEX
  5
6A6
330
155
100
AcDbEntity
  8
0
100
AcDbFaceRecord
 10
0.0
 20
0.0
 30
0.0
 70
   128
 71
   390
 72
   391
 73
   402
  0
VERTEX
  5
6A7
330
155
100
AcDbEntity
  8
0
100
AcDbFaceRecord
 10
0.0
 20
0.0
 30
0.0
 70
   128
 71
   402
 72
   401
 73
  -390
  0
VERTEX
  5
6A8
330
155
100
AcDbEntity
  8
0
100
AcDbFaceRecord
 10
0.0
 20
0.0
 30
0.0
 70
   128
 71
   393
 72
   392
 73
   403
  0
VERTEX
  5
6A9
330
155
100
AcDbEntity
  8
0
100
AcDbFaceRecord
 10
0.0
 20
0.0
 30
0.0
 70
   128
 71
   403
 72
   404
 73
  -393
  0
VERTEX
  5
6AA
330
155
100
AcDbEntity
  8
0
100
AcDbFaceRecord
 10
0.0
 20
0.0
 30
0.0
 70
   128
 71
   392
 72
   394
 73
   405
  0
VERTEX
  5
6AB
330
155
100
AcDbEntity
  8
0
100
AcDbFaceRecord
 10
0.0
 20
0.0
 30
0.0
 70
   128
 71
   405
 72
   403
 73
  -392
  0
VERTEX
  5
6AC
330
155
100
AcDbEntity
  8
0
100
AcDbFaceRecord
 10
0.0
 20
0.0
 30
0.0
 70
   128
 71
   394
 72
   395
 73
   406
  0
VERTEX
  5
6AD
330
155
100
AcDbEntity
  8
0
100
AcDbFaceRecord
 10
0.0
 20
0.0
 30
0.0
 70
   128
 71
   406
 72
   405
 73
  -394
  0
VERTEX
  5
6AE
330
155
100
AcDbEntity
  8
0
100
AcDbFaceRecord
 10
0.0
 20
0.0
 30
0.0
 70
   128
 71
   395
 72
   396
 73
   407
  0
VERTEX
  5
6AF
330
155
100
AcDbEntity
  8
0
100
AcDbFaceRecord
 10
0.0
 20
0.0
 30
0.0
 70
   128
 71
   407
 72
   406
 73
  -395
  0
VERTEX
  5
6B0
330
155
100
AcDbEntity
  8
0
100
AcDbFaceRecord
 10
0.0
 20
0.0
 30
0.0
 70
   128
 71
   396
 72
   397
 73
   408
  0
VERTEX
  5
6B1
330
155
100
AcDbEntity
  8
0
100
AcDbFaceRecord
 10
0.0
 20
0.0
 30
0.0
 70
   128
 71
   408
 72
   407
 73
  -396
  0
VERTEX
  5
6B2
330
155
100
AcDbEntity
  8
0
100
AcDbFaceRecord
 10
0.0
 20
0.0
 30
0.0
 70
   128
 71
   397
 72
   398
 73
   409
  0
VERTEX
  5
6B3
330
155
100
AcDbEntity
  8
0
100
AcDbFaceRecord
 10
0.0
 20
0.0
 30
0.0
 70
   128
 71
   409
 72
   408
 73
  -397
  0
VERTEX
  5
6B4
330
155
100
AcDbEntity
  8
0
100
AcDbFaceRecord
 10
0.0
 20
0.0
 30
0.0
 70
   128
 71
   398
 72
   399
 73
   410
  0
VERTEX
  5
6B5
330
155
100
AcDbEntity
  8
0
100
AcDbFaceRecord
 10
0.0
 20
0.0
 30
0.0
 70
   128
 71
   410
 72
   409
 73
  -398
  0
VERTEX
  5
6B6
330
155
100
AcDbEntity
  8
0
100
AcDbFaceRecord
 10
0.0
 20
0.0
 30
0.0
 70
   128
 71
   399
 72
   400
 73
   411
  0
VERTEX
  5
6B7
330
155
100
AcDbEntity
  8
0
100
AcDbFaceRecord
 10
0.0
 20
0.0
 30
0.0
 70
   128
 71
   411
 72
   410
 73
  -399
  0
VERTEX
  5
6B8
330
155
100
AcDbEntity
  8
0
100
AcDbFaceRecord
 10
0.0
 20
0.0
 30
0.0
 70
   128
 71
   400
 72
   401
 73
   412
  0
VERTEX
  5
6B9
330
155
100
AcDbEntity
  8
0
100
AcDbFaceRecord
 10
0.0
 20
0.0
 30
0.0
 70
   128
 71
   412
 72
   411
 73
  -400
  0
VERTEX
  5
6BA
330
155
100
AcDbEntity
  8
0
100
AcDbFaceRecord
 10
0.0
 20
0.0
 30
0.0
 70
   128
 71
   401
 72
   402
 73
   413
  0
VERTEX
  5
6BB
330
155
100
AcDbEntity
  8
0
100
AcDbFaceRecord
 10
0.0
 20
0.0
 30
0.0
 70
   128
 71
   413
 72
   412
 73
  -401
  0
VERTEX
  5
6BC
330
155
100
AcDbEntity
  8
0
100
AcDbFaceRecord
 10
0.0
 20
0.0
 30
0.0
 70
   128
 71
   404
 72
   403
 73
   414
  0
VERTEX
  5
6BD
330
155
100
AcDbEntity
  8
0
100
AcDbFaceRecord
 10
0.0
 20
0.0
 30
0.0
 70
   128
 71
   414
 72
   415
 73
  -404
  0
VERTEX
  5
6BE
330
155
100
AcDbEntity
  8
0
100
AcDbFaceRecord
 10
0.0
 20
0.0
 30
0.0
 70
   128
 71
   403
 72
   405
 73
   416
  0
VERTEX
  5
6BF
330
155
100
AcDbEntity
  8
0
100
AcDbFaceRecord
 10
0.0
 20
0.0
 30
0.0
 70
   128
 71
   416
 72
   414
 73
  -403
  0
VERTEX
  5
6C0
330
155
100
AcDbEntity
  8
0
100
AcDbFaceRecord
 10
0.0
 20
0.0
 30
0.0
 70
   128
 71
   405
 72
   406
 73
   417
  0
VERTEX
  5
6C1
330
155
100
AcDbEntity
  8
0
100
AcDbFaceRecord
 10
0.0
 20
0.0
 30
0.0
 70
   128
 71
   417
 72
   416
 73
  -405
  0
VERTEX
  5
6C2
330
155
100
AcDbEntity
  8
0
100
AcDbFaceRecord
 10
0.0
 20
0.0
 30
0.0
 70
   128
 71
   406
 72
   407
 73
   418
  0
VERTEX
  5
6C3
330
155
100
AcDbEntity
  8
0
100
AcDbFaceRecord
 10
0.0
 20
0.0
 30
0.0
 70
   128
 71
   418
 72
   417
 73
  -406
  0
VERTEX
  5
6C4
330
155
100
AcDbEntity
  8
0
100
AcDbFaceRecord
 10
0.0
 20
0.0
 30
0.0
 70
   128
 71
   407
 72
   408
 73
   419
  0
VERTEX
  5
6C5
330
155
100
AcDbEntity
  8
0
100
AcDbFaceRecord
 10
0.0
 20
0.0
 30
0.0
 70
   128
 71
   419
 72
   418
 73
  -407
  0
VERTEX
  5
6C6
330
155
100
AcDbEntity
  8
0
100
AcDbFaceRecord
 10
0.0
 20
0.0
 30
0.0
 70
   128
 71
   408
 72
   409
 73
   420
  0
VERTEX
  5
6C7
330
155
100
AcDbEntity
  8
0
100
AcDbFaceRecord
 10
0.0
 20
0.0
 30
0.0
 70
   128
 71
   420
 72
   419
 73
  -408
  0
VERTEX
  5
6C8
330
155
100
AcDbEntity
  8
0
100
AcDbFaceRecord
 10
0.0
 20
0.0
 30
0.0
 70
   128
 71
   409
 72
   410
 73
   421
  0
VERTEX
  5
6C9
330
155
100
AcDbEntity
  8
0
100
AcDbFaceRecord
 10
0.0
 20
0.0
 30
0.0
 70
   128
 71
   421
 72
   420
 73
  -409
  0
VERTEX
  5
6CA
330
155
100
AcDbEntity
  8
0
100
AcDbFaceRecord
 10
0.0
 20
0.0
 30
0.0
 70
   128
 71
   410
 72
   411
 73
   422
  0
VERTEX
  5
6CB
330
155
100
AcDbEntity
  8
0
100
AcDbFaceRecord
 10
0.0
 20
0.0
 30
0.0
 70
   128
 71
   422
 72
   421
 73
  -410
  0
VERTEX
  5
6CC
330
155
100
AcDbEntity
  8
0
100
AcDbFaceRecord
 10
0.0
 20
0.0
 30
0.0
 70
   128
 71
   411
 72
   412
 73
   423
  0
VERTEX
  5
6CD
330
155
100
AcDbEntity
  8
0
100
AcDbFaceRecord
 10
0.0
 20
0.0
 30
0.0
 70
   128
 71
   423
 72
   422
 73
  -411
  0
VERTEX
  5
6CE
330
155
100
AcDbEntity
  8
0
100
AcDbFaceRecord
 10
0.0
 20
0.0
 30
0.0
 70
   128
 71
   412
 72
   413
 73
   424
  0
VERTEX
  5
6CF
330
155
100
AcDbEntity
  8
0
100
AcDbFaceRecord
 10
0.0
 20
0.0
 30
0.0
 70
   128
 71
   424
 72
   423
 73
  -412
  0
VERTEX
  5
6D0
330
155
100
AcDbEntity
  8
0
100
AcDbFaceRecord
 10
0.0
 20
0.0
 30
0.0
 70
   128
 71
   415
 72
   414
 73
   425
  0
VERTEX
  5
6D1
330
155
100
AcDbEntity
  8
0
100
AcDbFaceRecord
 10
0.0
 20
0.0
 30
0.0
 70
   128
 71
   425
 72
   426
 73
  -415
  0
VERTEX
  5
6D2
330
155
100
AcDbEntity
  8
0
100
AcDbFaceRecord
 10
0.0
 20
0.0
 30
0.0
 70
   128
 71
   414
 72
   416
 73
   427
  0
VERTEX
  5
6D3
330
155
100
AcDbEntity
  8
0
100
AcDbFaceRecord
 10
0.0
 20
0.0
 30
0.0
 70
   128
 71
   427
 72
   425
 73
  -414
  0
VERTEX
  5
6D4
330
155
100
AcDbEntity
  8
0
100
AcDbFaceRecord
 10
0.0
 20
0.0
 30
0.0
 70
   128
 71
   416
 72
   417
 73
   428
  0
VERTEX
  5
6D5
330
155
100
AcDbEntity
  8
0
100
AcDbFaceRecord
 10
0.0
 20
0.0
 30
0.0
 70
   128
 71
   428
 72
   427
 73
  -416
  0
VERTEX
  5
6D6
330
155
100
AcDbEntity
  8
0
100
AcDbFaceRecord
 10
0.0
 20
0.0
 30
0.0
 70
   128
 71
   417
 72
   418
 73
   429
  0
VERTEX
  5
6D7
330
155
100
AcDbEntity
  8
0
100
AcDbFaceRecord
 10
0.0
 20
0.0
 30
0.0
 70
   128
 71
   429
 72
   428
 73
  -417
  0
VERTEX
  5
6D8
330
155
100
AcDbEntity
  8
0
100
AcDbFaceRecord
 10
0.0
 20
0.0
 30
0.0
 70
   128
 71
   418
 72
   419
 73
   430
  0
VERTEX
  5
6D9
330
155
100
AcDbEntity
  8
0
100
AcDbFaceRecord
 10
0.0
 20
0.0
 30
0.0
 70
   128
 71
   430
 72
   429
 73
  -418
  0
VERTEX
  5
6DA
330
155
100
AcDbEntity
  8
0
100
AcDbFaceRecord
 10
0.0
 20
0.0
 30
0.0
 70
   128
 71
   419
 72
   420
 73
   431
  0
VERTEX
  5
6DB
330
155
100
AcDbEntity
  8
0
100
AcDbFaceRecord
 10
0.0
 20
0.0
 30
0.0
 70
   128
 71
   431
 72
   430
 73
  -419
  0
VERTEX
  5
6DC
330
155
100
AcDbEntity
  8
0
100
AcDbFaceRecord
 10
0.0
 20
0.0
 30
0.0
 70
   128
 71
   420
 72
   421
 73
   432
  0
VERTEX
  5
6DD
330
155
100
AcDbEntity
  8
0
100
AcDbFaceRecord
 10
0.0
 20
0.0
 30
0.0
 70
   128
 71
   432
 72
   431
 73
  -420
  0
VERTEX
  5
6DE
330
155
100
AcDbEntity
  8
0
100
AcDbFaceRecord
 10
0.0
 20
0.0
 30
0.0
 70
   128
 71
   421
 72
   422
 73
   433
  0
VERTEX
  5
6DF
330
155
100
AcDbEntity
  8
0
100
AcDbFaceRecord
 10
0.0
 20
0.0
 30
0.0
 70
   128
 71
   433
 72
   432
 73
  -421
  0
VERTEX
  5
6E0
330
155
100
AcDbEntity
  8
0
100
AcDbFaceRecord
 10
0.0
 20
0.0
 30
0.0
 70
   128
 71
   422
 72
   423
 73
   434
  0
VERTEX
  5
6E1
330
155
100
AcDbEntity
  8
0
100
AcDbFaceRecord
 10
0.0
 20
0.0
 30
0.0
 70
   128
 71
   434
 72
   433
 73
  -422
  0
VERTEX
  5
6E2
330
155
100
AcDbEntity
  8
0
100
AcDbFaceRecord
 10
0.0
 20
0.0
 30
0.0
 70
   128
 71
   423
 72
   424
 73
   435
  0
VERTEX
  5
6E3
330
155
100
AcDbEntity
  8
0
100
AcDbFaceRecord
 10
0.0
 20
0.0
 30
0.0
 70
   128
 71
   435
 72
   434
 73
  -423
  0
VERTEX
  5
6E4
330
155
100
AcDbEntity
  8
0
100
AcDbFaceRecord
 10
0.0
 20
0.0
 30
0.0
 70
   128
 71
   426
 72
   425
 73
   436
  0
VERTEX
  5
6E5
330
155
100
AcDbEntity
  8
0
100
AcDbFaceRecord
 10
0.0
 20
0.0
 30
0.0
 70
   128
 71
   436
 72
   437
 73
  -426
  0
VERTEX
  5
6E6
330
155
100
AcDbEntity
  8
0
100
AcDbFaceRecord
 10
0.0
 20
0.0
 30
0.0
 70
   128
 71
   425
 72
   427
 73
   438
  0
VERTEX
  5
6E7
330
155
100
AcDbEntity
  8
0
100
AcDbFaceRecord
 10
0.0
 20
0.0
 30
0.0
 70
   128
 71
   438
 72
   436
 73
  -425
  0
VERTEX
  5
6E8
330
155
100
AcDbEntity
  8
0
100
AcDbFaceRecord
 10
0.0
 20
0.0
 30
0.0
 70
   128
 71
   427
 72
   428
 73
   439
  0
VERTEX
  5
6E9
330
155
100
AcDbEntity
  8
0
100
AcDbFaceRecord
 10
0.0
 20
0.0
 30
0.0
 70
   128
 71
   439
 72
   438
 73
  -427
  0
VERTEX
  5
6EA
330
155
100
AcDbEntity
  8
0
100
AcDbFaceRecord
 10
0.0
 20
0.0
 30
0.0
 70
   128
 71
   428
 72
   429
 73
   440
  0
VERTEX
  5
6EB
330
155
100
AcDbEntity
  8
0
100
AcDbFaceRecord
 10
0.0
 20
0.0
 30
0.0
 70
   128
 71
   440
 72
   439
 73
  -428
  0
VERTEX
  5
6EC
330
155
100
AcDbEntity
  8
0
100
AcDbFaceRecord
 10
0.0
 20
0.0
 30
0.0
 70
   128
 71
   429
 72
   430
 73
   441
  0
VERTEX
  5
6ED
330
155
100
AcDbEntity
  8
0
100
AcDbFaceRecord
 10
0.0
 20
0.0
 30
0.0
 70
   128
 71
   441
 72
   440
 73
  -429
  0
VERTEX
  5
6EE
330
155
100
AcDbEntity
  8
0
100
AcDbFaceRecord
 10
0.0
 20
0.0
 30
0.0
 70
   128
 71
   430
 72
   431
 73
   442
  0
VERTEX
  5
6EF
330
155
100
AcDbEntity
  8
0
100
AcDbFaceRecord
 10
0.0
 20
0.0
 30
0.0
 70
   128
 71
   442
 72
   441
 73
  -430
  0
VERTEX
  5
6F0
330
155
100
AcDbEntity
  8
0
100
AcDbFaceRecord
 10
0.0
 20
0.0
 30
0.0
 70
   128
 71
   431
 72
   432
 73
   443
  0
VERTEX
  5
6F1
330
155
100
AcDbEntity
  8
0
100
AcDbFaceRecord
 10
0.0
 20
0.0
 30
0.0
 70
   128
 71
   443
 72
   442
 73
  -431
  0
VERTEX
  5
6F2
330
155
100
AcDbEntity
  8
0
100
AcDbFaceRecord
 10
0.0
 20
0.0
 30
0.0
 70
   128
 71
   432
 72
   433
 73
   444
  0
VERTEX
  5
6F3
330
155
100
AcDbEntity
  8
0
100
AcDbFaceRecord
 10
0.0
 20
0.0
 30
0.0
 70
   128
 71
   444
 72
   443
 73
  -432
  0
VERTEX
  5
6F4
330
155
100
AcDbEntity
  8
0
100
AcDbFaceRecord
 10
0.0
 20
0.0
 30
0.0
 70
   128
 71
   433
 72
   434
 73
   445
  0
VERTEX
  5
6F5
330
155
100
AcDbEntity
  8
0
100
AcDbFaceRecord
 10
0.0
 20
0.0
 30
0.0
 70
   128
 71
   445
 72
   444
 73
  -433
  0
VERTEX
  5
6F6
330
155
100
AcDbEntity
  8
0
100
AcDbFaceRecord
 10
0.0
 20
0.0
 30
0.0
 70
   128
 71
   434
 72
   435
 73
   446
  0
VERTEX
  5
6F7
330
155
100
AcDbEntity
  8
0
100
AcDbFaceRecord
 10
0.0
 20
0.0
 30
0.0
 70
   128
 71
   446
 72
   445
 73
  -434
  0
VERTEX
  5
6F8
330
155
100
AcDbEntity
  8
0
100
AcDbFaceRecord
 10
0.0
 20
0.0
 30
0.0
 70
   128
 71
   437
 72
   436
 73
   447
  0
VERTEX
  5
6F9
330
155
100
AcDbEntity
  8
0
100
AcDbFaceRecord
 10
0.0
 20
0.0
 30
0.0
 70
   128
 71
   447
 72
   448
 73
  -437
  0
VERTEX
  5
6FA
330
155
100
AcDbEntity
  8
0
100
AcDbFaceRecord
 10
0.0
 20
0.0
 30
0.0
 70
   128
 71
   436
 72
   438
 73
   449
  0
VERTEX
  5
6FB
330
155
100
AcDbEntity
  8
0
100
AcDbFaceRecord
 10
0.0
 20
0.0
 30
0.0
 70
   128
 71
   449
 72
   447
 73
  -436
  0
VERTEX
  5
6FC
330
155
100
AcDbEntity
  8
0
100
AcDbFaceRecord
 10
0.0
 20
0.0
 30
0.0
 70
   128
 71
   438
 72
   439
 73
   450
  0
VERTEX
  5
6FD
330
155
100
AcDbEntity
  8
0
100
AcDbFaceRecord
 10
0.0
 20
0.0
 30
0.0
 70
   128
 71
   450
 72
   449
 73
  -438
  0
VERTEX
  5
6FE
330
155
100
AcDbEntity
  8
0
100
AcDbFaceRecord
 10
0.0
 20
0.0
 30
0.0
 70
   128
 71
   439
 72
   440
 73
   451
  0
VERTEX
  5
6FF
330
155
100
AcDbEntity
  8
0
100
AcDbFaceRecord
 10
0.0
 20
0.0
 30
0.0
 70
   128
 71
   451
 72
   450
 73
  -439
  0
VERTEX
  5
700
330
155
100
AcDbEntity
  8
0
100
AcDbFaceRecord
 10
0.0
 20
0.0
 30
0.0
 70
   128
 71
   440
 72
   441
 73
   452
  0
VERTEX
  5
701
330
155
100
AcDbEntity
  8
0
100
AcDbFaceRecord
 10
0.0
 20
0.0
 30
0.0
 70
   128
 71
   452
 72
   451
 73
  -440
  0
VERTEX
  5
702
330
155
100
AcDbEntity
  8
0
100
AcDbFaceRecord
 10
0.0
 20
0.0
 30
0.0
 70
   128
 71
   441
 72
   442
 73
   453
  0
VERTEX
  5
703
330
155
100
AcDbEntity
  8
0
100
AcDbFaceRecord
 10
0.0
 20
0.0
 30
0.0
 70
   128
 71
   453
 72
   452
 73
  -441
  0
VERTEX
  5
704
330
155
100
AcDbEntity
  8
0
100
AcDbFaceRecord
 10
0.0
 20
0.0
 30
0.0
 70
   128
 71
   442
 72
   443
 73
   454
  0
VERTEX
  5
705
330
155
100
AcDbEntity
  8
0
100
AcDbFaceRecord
 10
0.0
 20
0.0
 30
0.0
 70
   128
 71
   454
 72
   453
 73
  -442
  0
VERTEX
  5
706
330
155
100
AcDbEntity
  8
0
100
AcDbFaceRecord
 10
0.0
 20
0.0
 30
0.0
 70
   128
 71
   443
 72
   444
 73
   455
  0
VERTEX
  5
707
330
155
100
AcDbEntity
  8
0
100
AcDbFaceRecord
 10
0.0
 20
0.0
 30
0.0
 70
   128
 71
   455
 72
   454
 73
  -443
  0
VERTEX
  5
708
330
155
100
AcDbEntity
  8
0
100
AcDbFaceRecord
 10
0.0
 20
0.0
 30
0.0
 70
   128
 71
   444
 72
   445
 73
   456
  0
VERTEX
  5
709
330
155
100
AcDbEntity
  8
0
100
AcDbFaceRecord
 10
0.0
 20
0.0
 30
0.0
 70
   128
 71
   456
 72
   455
 73
  -444
  0
VERTEX
  5
70A
330
155
100
AcDbEntity
  8
0
100
AcDbFaceRecord
 10
0.0
 20
0.0
 30
0.0
 70
   128
 71
   445
 72
   446
 73
   457
  0
VERTEX
  5
70B
330
155
100
AcDbEntity
  8
0
100
AcDbFaceRecord
 10
0.0
 20
0.0
 30
0.0
 70
   128
 71
   457
 72
   456
 73
  -445
  0
VERTEX
  5
70C
330
155
100
AcDbEntity
  8
0
100
AcDbFaceRecord
 10
0.0
 20
0.0
 30
0.0
 70
   128
 71
   448
 72
   447
 73
   110
  0
VERTEX
  5
70D
330
155
100
AcDbEntity
  8
0
100
AcDbFaceRecord
 10
0.0
 20
0.0
 30
0.0
 70
   128
 71
   110
 72
   109
 73
  -448
  0
VERTEX
  5
70E
330
155
100
AcDbEntity
  8
0
100
AcDbFaceRecord
 10
0.0
 20
0.0
 30
0.0
 70
   128
 71
   447
 72
   449
 73
   111
  0
VERTEX
  5
70F
330
155
100
AcDbEntity
  8
0
100
AcDbFaceRecord
 10
0.0
 20
0.0
 30
0.0
 70
   128
 71
   111
 72
   110
 73
  -447
  0
VERTEX
  5
710
330
155
100
AcDbEntity
  8
0
100
AcDbFaceRecord
 10
0.0
 20
0.0
 30
0.0
 70
   128
 71
   449
 72
   450
 73
   112
  0
VERTEX
  5
711
330
155
100
AcDbEntity
  8
0
100
AcDbFaceRecord
 10
0.0
 20
0.0
 30
0.0
 70
   128
 71
   112
 72
   111
 73
  -449
  0
VERTEX
  5
712
330
155
100
AcDbEntity
  8
0
100
AcDbFaceRecord
 10
0.0
 20
0.0
 30
0.0
 70
   128
 71
   450
 72
   451
 73
   113
  0
VERTEX
  5
713
330
155
100
AcDbEntity
  8
0
100
AcDbFaceRecord
 10
0.0
 20
0.0
 30
0.0
 70
   128
 71
   113
 72
   112
 73
  -450
  0
VERTEX
  5
714
330
155
100
AcDbEntity
  8
0
100
AcDbFaceRecord
 10
0.0
 20
0.0
 30
0.0
 70
   128
 71
   451
 72
   452
 73
   114
  0
VERTEX
  5
715
330
155
100
AcDbEntity
  8
0
100
AcDbFaceRecord
 10
0.0
 20
0.0
 30
0.0
 70
   128
 71
   114
 72
   113
 73
  -451
  0
VERTEX
  5
716
330
155
100
AcDbEntity
  8
0
100
AcDbFaceRecord
 10
0.0
 20
0.0
 30
0.0
 70
   128
 71
   452
 72
   453
 73
   115
  0
VERTEX
  5
717
330
155
100
AcDbEntity
  8
0
100
AcDbFaceRecord
 10
0.0
 20
0.0
 30
0.0
 70
   128
 71
   115
 72
   114
 73
  -452
  0
VERTEX
  5
718
330
155
100
AcDbEntity
  8
0
100
AcDbFaceRecord
 10
0.0
 20
0.0
 30
0.0
 70
   128
 71
   453
 72
   454
 73
   116
  0
VERTEX
  5
719
330
155
100
AcDbEntity
  8
0
100
AcDbFaceRecord
 10
0.0
 20
0.0
 30
0.0
 70
   128
 71
   116
 72
   115
 73
  -453
  0
VERTEX
  5
71A
330
155
100
AcDbEntity
  8
0
100
AcDbFaceRecord
 10
0.0
 20
0.0
 30
0.0
 70
   128
 71
   454
 72
   455
 73
   117
  0
VERTEX
  5
71B
330
155
100
AcDbEntity
  8
0
100
AcDbFaceRecord
 10
0.0
 20
0.0
 30
0.0
 70
   128
 71
   117
 72
   116
 73
  -454
  0
VERTEX
  5
71C
330
155
100
AcDbEntity
  8
0
100
AcDbFaceRecord
 10
0.0
 20
0.0
 30
0.0
 70
   128
 71
   455
 72
   456
 73
   118
  0
VERTEX
  5
71D
330
155
100
AcDbEntity
  8
0
100
AcDbFaceRecord
 10
0.0
 20
0.0
 30
0.0
 70
   128
 71
   118
 72
   117
 73
  -455
  0
VERTEX
  5
71E
330
155
100
AcDbEntity
  8
0
100
AcDbFaceRecord
 10
0.0
 20
0.0
 30
0.0
 70
   128
 71
   456
 72
   457
 73
   119
  0
VERTEX
  5
71F
330
155
100
AcDbEntity
  8
0
100
AcDbFaceRecord
 10
0.0
 20
0.0
 30
0.0
 70
   128
 71
   119
 72
   118
 73
  -456
  0
VERTEX
  5
720
330
155
100
AcDbEntity
  8
0
100
AcDbFaceRecord
 10
0.0
 20
0.0
 30
0.0
 70
   128
 71
   458
 72
   459
 73
   460
  0
VERTEX
  5
721
330
155
100
AcDbEntity
  8
0
100
AcDbFaceRecord
 10
0.0
 20
0.0
 30
0.0
 70
   128
 71
   460
 72
   461
 73
  -458
  0
VERTEX
  5
722
330
155
100
AcDbEntity
  8
0
100
AcDbFaceRecord
 10
0.0
 20
0.0
 30
0.0
 70
   128
 71
   459
 72
   462
 73
   463
  0
VERTEX
  5
723
330
155
100
AcDbEntity
  8
0
100
AcDbFaceRecord
 10
0.0
 20
0.0
 30
0.0
 70
   128
 71
   463
 72
   460
 73
  -459
  0
VERTEX
  5
724
330
155
100
AcDbEntity
  8
0
100
AcDbFaceRecord
 10
0.0
 20
0.0
 30
0.0
 70
   128
 71
   462
 72
   464
 73
   465
  0
VERTEX
  5
725
330
155
100
AcDbEntity
  8
0
100
AcDbFaceRecord
 10
0.0
 20
0.0
 30
0.0
 70
   128
 71
   465
 72
   463
 73
  -462
  0
VERTEX
  5
726
330
155
100
AcDbEntity
  8
0
100
AcDbFaceRecord
 10
0.0
 20
0.0
 30
0.0
 70
   128
 71
   464
 72
   466
 73
   467
  0
VERTEX
  5
727
330
155
100
AcDbEntity
  8
0
100
AcDbFaceRecord
 10
0.0
 20
0.0
 30
0.0
 70
   128
 71
   467
 72
   465
 73
  -464
  0
VERTEX
  5
728
330
155
100
AcDbEntity
  8
0
100
AcDbFaceRecord
 10
0.0
 20
0.0
 30
0.0
 70
   128
 71
   466
 72
   131
 73
   468
  0
VERTEX
  5
729
330
155
100
AcDbEntity
  8
0
100
AcDbFaceRecord
 10
0.0
 20
0.0
 30
0.0
 70
   128
 71
   468
 72
   467
 73
  -466
  0
VERTEX
  5
72A
330
155
100
AcDbEntity
  8
0
100
AcDbFaceRecord
 10
0.0
 20
0.0
 30
0.0
 70
   128
 71
   461
 72
   460
 73
   469
  0
VERTEX
  5
72B
330
155
100
AcDbEntity
  8
0
100
AcDbFaceRecord
 10
0.0
 20
0.0
 30
0.0
 70
   128
 71
   469
 72
   470
 73
  -461
  0
VERTEX
  5
72C
330
155
100
AcDbEntity
  8
0
100
AcDbFaceRecord
 10
0.0
 20
0.0
 30
0.0
 70
   128
 71
   460
 72
   463
 73
   471
  0
VERTEX
  5
72D
330
155
100
AcDbEntity
  8
0
100
AcDbFaceRecord
 10
0.0
 20
0.0
 30
0.0
 70
   128
 71
   471
 72
   469
 73
  -460
  0
VERTEX
  5
72E
330
155
100
AcDbEntity
  8
0
100
AcDbFaceRecord
 10
0.0
 20
0.0
 30
0.0
 70
   128
 71
   463
 72
   465
 73
   472
  0
VERTEX
  5
72F
330
155
100
AcDbEntity
  8
0
100
AcDbFaceRecord
 10
0.0
 20
0.0
 30
0.0
 70
   128
 71
   472
 72
   471
 73
  -463
  0
VERTEX
  5
730
330
155
100
AcDbEntity
  8
0
100
AcDbFaceRecord
 10
0.0
 20
0.0
 30
0.0
 70
   128
 71
   465
 72
   467
 73
   473
  0
VERTEX
  5
731
330
155
100
AcDbEntity
  8
0
100
AcDbFaceRecord
 10
0.0
 20
0.0
 30
0.0
 70
   128
 71
   473
 72
   472
 73
  -465
  0
VERTEX
  5
732
330
155
100
AcDbEntity
  8
0
100
AcDbFaceRecord
 10
0.0
 20
0.0
 30
0.0
 70
   128
 71
   467
 72
   468
 73
   474
  0
VERTEX
  5
733
330
155
100
AcDbEntity
  8
0
100
AcDbFaceRecord
 10
0.0
 20
0.0
 30
0.0
 70
   128
 71
   474
 72
   473
 73
  -467
  0
VERTEX
  5
734
330
155
100
AcDbEntity
  8
0
100
AcDbFaceRecord
 10
0.0
 20
0.0
 30
0.0
 70
   128
 71
   470
 72
   469
 73
   475
  0
VERTEX
  5
735
330
155
100
AcDbEntity
  8
0
100
AcDbFaceRecord
 10
0.0
 20
0.0
 30
0.0
 70
   128
 71
   475
 72
   476
 73
  -470
  0
VERTEX
  5
736
330
155
100
AcDbEntity
  8
0
100
AcDbFaceRecord
 10
0.0
 20
0.0
 30
0.0
 70
   128
 71
   469
 72
   471
 73
   477
  0
VERTEX
  5
737
330
155
100
AcDbEntity
  8
0
100
AcDbFaceRecord
 10
0.0
 20
0.0
 30
0.0
 70
   128
 71
   477
 72
   475
 73
  -469
  0
VERTEX
  5
738
330
155
100
AcDbEntity
  8
0
100
AcDbFaceRecord
 10
0.0
 20
0.0
 30
0.0
 70
   128
 71
   471
 72
   472
 73
   478
  0
VERTEX
  5
739
330
155
100
AcDbEntity
  8
0
100
AcDbFaceRecord
 10
0.0
 20
0.0
 30
0.0
 70
   128
 71
   478
 72
   477
 73
  -471
  0
VERTEX
  5
73A
330
155
100
AcDbEntity
  8
0
100
AcDbFaceRecord
 10
0.0
 20
0.0
 30
0.0
 70
   128
 71
   472
 72
   473
 73
   479
  0
VERTEX
  5
73B
330
155
100
AcDbEntity
  8
0
100
AcDbFaceRecord
 10
0.0
 20
0.0
 30
0.0
 70
   128
 71
   479
 72
   478
 73
  -472
  0
VERTEX
  5
73C
330
155
100
AcDbEntity
  8
0
100
AcDbFaceRecord
 10
0.0
 20
0.0
 30
0.0
 70
   128
 71
   473
 72
   474
 73
   480
  0
VERTEX
  5
73D
330
155
100
AcDbEntity
  8
0
100
AcDbFaceRecord
 10
0.0
 20
0.0
 30
0.0
 70
   128
 71
   480
 72
   479
 73
  -473
  0
VERTEX
  5
73E
330
155
100
AcDbEntity
  8
0
100
AcDbFaceRecord
 10
0.0
 20
0.0
 30
0.0
 70
   128
 71
   476
 72
   475
 73
   357
  0
VERTEX
  5
73F
330
155
100
AcDbEntity
  8
0
100
AcDbFaceRecord
 10
0.0
 20
0.0
 30
0.0
 70
   128
 71
   357
 72
   356
 73
  -476
  0
VERTEX
  5
740
330
155
100
AcDbEntity
  8
0
100
AcDbFaceRecord
 10
0.0
 20
0.0
 30
0.0
 70
   128
 71
   475
 72
   477
 73
   360
  0
VERTEX
  5
741
330
155
100
AcDbEntity
  8
0
100
AcDbFaceRecord
 10
0.0
 20
0.0
 30
0.0
 70
   128
 71
   360
 72
   357
 73
  -475
  0
VERTEX
  5
742
330
155
100
AcDbEntity
  8
0
100
AcDbFaceRecord
 10
0.0
 20
0.0
 30
0.0
 70
   128
 71
   477
 72
   478
 73
   362
  0
VERTEX
  5
743
330
155
100
AcDbEntity
  8
0
100
AcDbFaceRecord
 10
0.0
 20
0.0
 30
0.0
 70
   128
 71
   362
 72
   360
 73
  -477
  0
VERTEX
  5
744
330
155
100
AcDbEntity
  8
0
100
AcDbFaceRecord
 10
0.0
 20
0.0
 30
0.0
 70
   128
 71
   478
 72
   479
 73
   364
  0
VERTEX
  5
745
330
155
100
AcDbEntity
  8
0
100
AcDbFaceRecord
 10
0.0
 20
0.0
 30
0.0
 70
   128
 71
   364
 72
   362
 73
  -478
  0
VERTEX
  5
746
330
155
100
AcDbEntity
  8
0
100
AcDbFaceRecord
 10
0.0
 20
0.0
 30
0.0
 70
   128
 71
   479
 72
   480
 73
   481
  0
VERTEX
  5
747
330
155
100
AcDbEntity
  8
0
100
AcDbFaceRecord
 10
0.0
 20
0.0
 30
0.0
 70
   128
 71
   481
 72
   364
 73
  -479
  0
VERTEX
  5
748
330
155
100
AcDbEntity
  8
0
100
AcDbFaceRecord
 10
0.0
 20
0.0
 30
0.0
 70
   128
 71
   482
 72
   483
 73
   484
  0
VERTEX
  5
749
330
155
100
AcDbEntity
  8
0
100
AcDbFaceRecord
 10
0.0
 20
0.0
 30
0.0
 70
   128
 71
   484
 72
   485
 73
  -482
  0
VERTEX
  5
74A
330
155
100
AcDbEntity
  8
0
100
AcDbFaceRecord
 10
0.0
 20
0.0
 30
0.0
 70
   128
 71
   485
 72
   484
 73
   351
  0
VERTEX
  5
74B
330
155
100
AcDbEntity
  8
0
100
AcDbFaceRecord
 10
0.0
 20
0.0
 30
0.0
 70
   128
 71
   351
 72
   350
 73
  -485
  0
VERTEX
  5
74C
330
155
100
AcDbEntity
  8
0
100
AcDbFaceRecord
 10
0.0
 20
0.0
 30
0.0
 70
   128
 71
   486
 72
   487
 73
   488
  0
VERTEX
  5
74D
330
155
100
AcDbEntity
  8
0
100
AcDbFaceRecord
 10
0.0
 20
0.0
 30
0.0
 70
   128
 71
   488
 72
   489
 73
  -486
  0
VERTEX
  5
74E
330
155
100
AcDbEntity
  8
0
100
AcDbFaceRecord
 10
0.0
 20
0.0
 30
0.0
 70
   128
 71
   489
 72
   488
 73
   490
  0
VERTEX
  5
74F
330
155
100
AcDbEntity
  8
0
100
AcDbFaceRecord
 10
0.0
 20
0.0
 30
0.0
 70
   128
 71
   490
 72
   483
 73
  -489
  0
VERTEX
  5
750
330
155
100
AcDbEntity
  8
0
100
AcDbFaceRecord
 10
0.0
 20
0.0
 30
0.0
 70
   128
 71
   483
 72
   490
 73
   491
  0
VERTEX
  5
751
330
155
100
AcDbEntity
  8
0
100
AcDbFaceRecord
 10
0.0
 20
0.0
 30
0.0
 70
   128
 71
   491
 72
   484
 73
  -483
  0
VERTEX
  5
752
330
155
100
AcDbEntity
  8
0
100
AcDbFaceRecord
 10
0.0
 20
0.0
 30
0.0
 70
   128
 71
   484
 72
   491
 73
   354
  0
VERTEX
  5
753
330
155
100
AcDbEntity
  8
0
100
AcDbFaceRecord
 10
0.0
 20
0.0
 30
0.0
 70
   128
 71
   354
 72
   351
 73
  -484
  0
VERTEX
  5
754
330
155
100
AcDbEntity
  8
0
100
AcDbFaceRecord
 10
0.0
 20
0.0
 30
0.0
 70
   128
 71
   487
 72
   458
 73
   461
  0
VERTEX
  5
755
330
155
100
AcDbEntity
  8
0
100
AcDbFaceRecord
 10
0.0
 20
0.0
 30
0.0
 70
   128
 71
   461
 72
   488
 73
  -487
  0
VERTEX
  5
756
330
155
100
AcDbEntity
  8
0
100
AcDbFaceRecord
 10
0.0
 20
0.0
 30
0.0
 70
   128
 71
   488
 72
   461
 73
   470
  0
VERTEX
  5
757
330
155
100
AcDbEntity
  8
0
100
AcDbFaceRecord
 10
0.0
 20
0.0
 30
0.0
 70
   128
 71
   470
 72
   490
 73
  -488
  0
VERTEX
  5
758
330
155
100
AcDbEntity
  8
0
100
AcDbFaceRecord
 10
0.0
 20
0.0
 30
0.0
 70
   128
 71
   490
 72
   470
 73
   476
  0
VERTEX
  5
759
330
155
100
AcDbEntity
  8
0
100
AcDbFaceRecord
 10
0.0
 20
0.0
 30
0.0
 70
   128
 71
   476
 72
   491
 73
  -490
  0
VERTEX
  5
75A
330
155
100
AcDbEntity
  8
0
100
AcDbFaceRecord
 10
0.0
 20
0.0
 30
0.0
 70
   128
 71
   491
 72
   476
 73
   356
  0
VERTEX
  5
75B
330
155
100
AcDbEntity
  8
0
100
AcDbFaceRecord
 10
0.0
 20
0.0
 30
0.0
 70
   128
 71
   356
 72
   354
 73
  -491
  0
VERTEX
  5
75C
330
155
100
AcDbEntity
  8
0
100
AcDbFaceRecord
 10
0.0
 20
0.0
 30
0.0
 70
   128
 71
   492
 72
   493
 73
   494
  0
VERTEX
  5
75D
330
155
100
AcDbEntity
  8
0
100
AcDbFaceRecord
 10
0.0
 20
0.0
 30
0.0
 70
   128
 71
   494
 72
   495
 73
  -492
  0
VERTEX
  5
75E
330
155
100
AcDbEntity
  8
0
100
AcDbFaceRecord
 10
0.0
 20
0.0
 30
0.0
 70
   128
 71
   493
 72
   496
 73
   497
  0
VERTEX
  5
75F
330
155
100
AcDbEntity
  8
0
100
AcDbFaceRecord
 10
0.0
 20
0.0
 30
0.0
 70
   128
 71
   497
 72
   494
 73
  -493
  0
VERTEX
  5
760
330
155
100
AcDbEntity
  8
0
100
AcDbFaceRecord
 10
0.0
 20
0.0
 30
0.0
 70
   128
 71
   496
 72
   498
 73
   499
  0
VERTEX
  5
761
330
155
100
AcDbEntity
  8
0
100
AcDbFaceRecord
 10
0.0
 20
0.0
 30
0.0
 70
   128
 71
   499
 72
   497
 73
  -496
  0
VERTEX
  5
762
330
155
100
AcDbEntity
  8
0
100
AcDbFaceRecord
 10
0.0
 20
0.0
 30
0.0
 70
   128
 71
   498
 72
   164
 73
   163
  0
VERTEX
  5
763
330
155
100
AcDbEntity
  8
0
100
AcDbFaceRecord
 10
0.0
 20
0.0
 30
0.0
 70
   128
 71
   163
 72
   499
 73
  -498
  0
VERTEX
  5
764
330
155
100
AcDbEntity
  8
0
100
AcDbFaceRecord
 10
0.0
 20
0.0
 30
0.0
 70
   128
 71
   495
 72
   494
 73
   500
  0
VERTEX
  5
765
330
155
100
AcDbEntity
  8
0
100
AcDbFaceRecord
 10
0.0
 20
0.0
 30
0.0
 70
   128
 71
   500
 72
   501
 73
  -495
  0
VERTEX
  5
766
330
155
100
AcDbEntity
  8
0
100
AcDbFaceRecord
 10
0.0
 20
0.0
 30
0.0
 70
   128
 71
   494
 72
   497
 73
   502
  0
VERTEX
  5
767
330
155
100
AcDbEntity
  8
0
100
AcDbFaceRecord
 10
0.0
 20
0.0
 30
0.0
 70
   128
 71
   502
 72
   500
 73
  -494
  0
VERTEX
  5
768
330
155
100
AcDbEntity
  8
0
100
AcDbFaceRecord
 10
0.0
 20
0.0
 30
0.0
 70
   128
 71
   497
 72
   499
 73
   503
  0
VERTEX
  5
769
330
155
100
AcDbEntity
  8
0
100
AcDbFaceRecord
 10
0.0
 20
0.0
 30
0.0
 70
   128
 71
   503
 72
   502
 73
  -497
  0
VERTEX
  5
76A
330
155
100
AcDbEntity
  8
0
100
AcDbFaceRecord
 10
0.0
 20
0.0
 30
0.0
 70
   128
 71
   499
 72
   163
 73
   169
  0
VERTEX
  5
76B
330
155
100
AcDbEntity
  8
0
100
AcDbFaceRecord
 10
0.0
 20
0.0
 30
0.0
 70
   128
 71
   169
 72
   503
 73
  -499
  0
VERTEX
  5
76C
330
155
100
AcDbEntity
  8
0
100
AcDbFaceRecord
 10
0.0
 20
0.0
 30
0.0
 70
   128
 71
   501
 72
   500
 73
   504
  0
VERTEX
  5
76D
330
155
100
AcDbEntity
  8
0
100
AcDbFaceRecord
 10
0.0
 20
0.0
 30
0.0
 70
   128
 71
   504
 72
   505
 73
  -501
  0
VERTEX
  5
76E
330
155
100
AcDbEntity
  8
0
100
AcDbFaceRecord
 10
0.0
 20
0.0
 30
0.0
 70
   128
 71
   500
 72
   502
 73
   506
  0
VERTEX
  5
76F
330
155
100
AcDbEntity
  8
0
100
AcDbFaceRecord
 10
0.0
 20
0.0
 30
0.0
 70
   128
 71
   506
 72
   504
 73
  -500
  0
VERTEX
  5
770
330
155
100
AcDbEntity
  8
0
100
AcDbFaceRecord
 10
0.0
 20
0.0
 30
0.0
 70
   128
 71
   502
 72
   503
 73
   507
  0
VERTEX
  5
771
330
155
100
AcDbEntity
  8
0
100
AcDbFaceRecord
 10
0.0
 20
0.0
 30
0.0
 70
   128
 71
   507
 72
   506
 73
  -502
  0
VERTEX
  5
772
330
155
100
AcDbEntity
  8
0
100
AcDbFaceRecord
 10
0.0
 20
0.0
 30
0.0
 70
   128
 71
   503
 72
   169
 73
   174
  0
VERTEX
  5
773
330
155
100
AcDbEntity
  8
0
100
AcDbFaceRecord
 10
0.0
 20
0.0
 30
0.0
 70
   128
 71
   174
 72
   507
 73
  -503
  0
VERTEX
  5
774
330
155
100
AcDbEntity
  8
0
100
AcDbFaceRecord
 10
0.0
 20
0.0
 30
0.0
 70
   128
 71
   505
 72
   504
 73
   508
  0
VERTEX
  5
775
330
155
100
AcDbEntity
  8
0
100
AcDbFaceRecord
 10
0.0
 20
0.0
 30
0.0
 70
   128
 71
   508
 72
   482
 73
  -505
  0
VERTEX
  5
776
330
155
100
AcDbEntity
  8
0
100
AcDbFaceRecord
 10
0.0
 20
0.0
 30
0.0
 70
   128
 71
   504
 72
   506
 73
   509
  0
VERTEX
  5
777
330
155
100
AcDbEntity
  8
0
100
AcDbFaceRecord
 10
0.0
 20
0.0
 30
0.0
 70
   128
 71
   509
 72
   508
 73
  -504
  0
VERTEX
  5
778
330
155
100
AcDbEntity
  8
0
100
AcDbFaceRecord
 10
0.0
 20
0.0
 30
0.0
 70
   128
 71
   506
 72
   507
 73
   510
  0
VERTEX
  5
779
330
155
100
AcDbEntity
  8
0
100
AcDbFaceRecord
 10
0.0
 20
0.0
 30
0.0
 70
   128
 71
   510
 72
   509
 73
  -506
  0
VERTEX
  5
77A
330
155
100
AcDbEntity
  8
0
100
AcDbFaceRecord
 10
0.0
 20
0.0
 30
0.0
 70
   128
 71
   507
 72
   174
 73
   178
  0
VERTEX
  5
77B
330
155
100
AcDbEntity
  8
0
100
AcDbFaceRecord
 10
0.0
 20
0.0
 30
0.0
 70
   128
 71
   178
 72
   510
 73
  -507
  0
VERTEX
  5
77C
330
155
100
AcDbEntity
  8
0
100
AcDbFaceRecord
 10
0.0
 20
0.0
 30
0.0
 70
   128
 71
   511
 72
   512
 73
   513
  0
VERTEX
  5
77D
330
155
100
AcDbEntity
  8
0
100
AcDbFaceRecord
 10
0.0
 20
0.0
 30
0.0
 70
   128
 71
   513
 72
   514
 73
  -511
  0
VERTEX
  5
77E
330
155
100
AcDbEntity
  8
0
100
AcDbFaceRecord
 10
0.0
 20
0.0
 30
0.0
 70
   128
 71
   482
 72
   508
 73
   489
  0
VERTEX
  5
77F
330
155
100
AcDbEntity
  8
0
100
AcDbFaceRecord
 10
0.0
 20
0.0
 30
0.0
 70
   128
 71
   489
 72
   508
 73
   486
  0
VERTEX
  5
780
330
155
100
AcDbEntity
  8
0
100
AcDbFaceRecord
 10
0.0
 20
0.0
 30
0.0
 70
   128
 71
   482
 72
   489
 73
   483
  0
VERTEX
  5
781
330
155
100
AcDbEntity
  8
0
100
AcDbFaceRecord
 10
0.0
 20
0.0
 30
0.0
 70
   128
 71
   464
 72
   189
 73
   131
  0
VERTEX
  5
782
330
155
100
AcDbEntity
  8
0
100
AcDbFaceRecord
 10
0.0
 20
0.0
 30
0.0
 70
   128
 71
   464
 72
   131
 73
   466
  0
VERTEX
  5
783
330
155
100
AcDbEntity
  8
0
100
AcDbFaceRecord
 10
0.0
 20
0.0
 30
0.0
 70
   128
 71
   464
 72
   188
 73
   189
  0
VERTEX
  5
784
330
155
100
AcDbEntity
  8
0
100
AcDbFaceRecord
 10
0.0
 20
0.0
 30
0.0
 70
   128
 71
   462
 72
   188
 73
   464
  0
VERTEX
  5
785
330
155
100
AcDbEntity
  8
0
100
AcDbFaceRecord
 10
0.0
 20
0.0
 30
0.0
 70
   128
 71
   462
 72
   187
 73
   188
  0
VERTEX
  5
786
330
155
100
AcDbEntity
  8
0
100
AcDbFaceRecord
 10
0.0
 20
0.0
 30
0.0
 70
   128
 71
   459
 72
   187
 73
   462
  0
VERTEX
  5
787
330
155
100
AcDbEntity
  8
0
100
AcDbFaceRecord
 10
0.0
 20
0.0
 30
0.0
 70
   128
 71
   459
 72
   186
 73
   187
  0
VERTEX
  5
788
330
155
100
AcDbEntity
  8
0
100
AcDbFaceRecord
 10
0.0
 20
0.0
 30
0.0
 70
   128
 71
   458
 72
   186
 73
   459
  0
VERTEX
  5
789
330
155
100
AcDbEntity
  8
0
100
AcDbFaceRecord
 10
0.0
 20
0.0
 30
0.0
 70
   128
 71
   458
 72
   185
 73
   186
  0
VERTEX
  5
78A
330
155
100
AcDbEntity
  8
0
100
AcDbFaceRecord
 10
0.0
 20
0.0
 30
0.0
 70
   128
 71
   487
 72
   185
 73
   458
  0
VERTEX
  5
78B
330
155
100
AcDbEntity
  8
0
100
AcDbFaceRecord
 10
0.0
 20
0.0
 30
0.0
 70
   128
 71
   487
 72
   184
 73
   185
  0
VERTEX
  5
78C
330
155
100
AcDbEntity
  8
0
100
AcDbFaceRecord
 10
0.0
 20
0.0
 30
0.0
 70
   128
 71
   486
 72
   184
 73
   487
  0
VERTEX
  5
78D
330
155
100
AcDbEntity
  8
0
100
AcDbFaceRecord
 10
0.0
 20
0.0
 30
0.0
 70
   128
 71
   486
 72
   183
 73
   184
  0
VERTEX
  5
78E
330
155
100
AcDbEntity
  8
0
100
AcDbFaceRecord
 10
0.0
 20
0.0
 30
0.0
 70
   128
 71
   508
 72
   183
 73
   486
  0
VERTEX
  5
78F
330
155
100
AcDbEntity
  8
0
100
AcDbFaceRecord
 10
0.0
 20
0.0
 30
0.0
 70
   128
 71
   183
 72
   508
 73
   509
  0
VERTEX
  5
790
330
155
100
AcDbEntity
  8
0
100
AcDbFaceRecord
 10
0.0
 20
0.0
 30
0.0
 70
   128
 71
   183
 72
   509
 73
   510
  0
VERTEX
  5
791
330
155
100
AcDbEntity
  8
0
100
AcDbFaceRecord
 10
0.0
 20
0.0
 30
0.0
 70
   128
 71
   183
 72
   510
 73
   178
  0
VERTEX
  5
792
330
155
100
AcDbEntity
  8
0
100
AcDbFaceRecord
 10
0.0
 20
0.0
 30
0.0
 70
   128
 71
   474
 72
   191
 73
   190
  0
VERTEX
  5
793
330
155
100
AcDbEntity
  8
0
100
AcDbFaceRecord
 10
0.0
 20
0.0
 30
0.0
 70
   128
 71
   190
 72
   480
 73
  -474
  0
VERTEX
  5
794
330
155
100
AcDbEntity
  8
0
100
AcDbFaceRecord
 10
0.0
 20
0.0
 30
0.0
 70
   128
 71
   480
 72
   190
 73
   192
  0
VERTEX
  5
795
330
155
100
AcDbEntity
  8
0
100
AcDbFaceRecord
 10
0.0
 20
0.0
 30
0.0
 70
   128
 71
   192
 72
   481
 73
  -480
  0
VERTEX
  5
796
330
155
100
AcDbEntity
  8
0
100
AcDbFaceRecord
 10
0.0
 20
0.0
 30
0.0
 70
   128
 71
   513
 72
   492
 73
   495
  0
VERTEX
  5
797
330
155
100
AcDbEntity
  8
0
100
AcDbFaceRecord
 10
0.0
 20
0.0
 30
0.0
 70
   128
 71
   495
 72
   515
 73
  -513
  0
VERTEX
  5
798
330
155
100
AcDbEntity
  8
0
100
AcDbFaceRecord
 10
0.0
 20
0.0
 30
0.0
 70
   128
 71
   515
 72
   495
 73
   501
  0
VERTEX
  5
799
330
155
100
AcDbEntity
  8
0
100
AcDbFaceRecord
 10
0.0
 20
0.0
 30
0.0
 70
   128
 71
   501
 72
   516
 73
  -515
  0
VERTEX
  5
79A
330
155
100
AcDbEntity
  8
0
100
AcDbFaceRecord
 10
0.0
 20
0.0
 30
0.0
 70
   128
 71
   516
 72
   501
 73
   505
  0
VERTEX
  5
79B
330
155
100
AcDbEntity
  8
0
100
AcDbFaceRecord
 10
0.0
 20
0.0
 30
0.0
 70
   128
 71
   505
 72
   517
 73
  -516
  0
VERTEX
  5
79C
330
155
100
AcDbEntity
  8
0
100
AcDbFaceRecord
 10
0.0
 20
0.0
 30
0.0
 70
   128
 71
   517
 72
   505
 73
   482
  0
VERTEX
  5
79D
330
155
100
AcDbEntity
  8
0
100
AcDbFaceRecord
 10
0.0
 20
0.0
 30
0.0
 70
   128
 71
   482
 72
   518
 73
  -517
  0
VERTEX
  5
79E
330
155
100
AcDbEntity
  8
0
100
AcDbFaceRecord
 10
0.0
 20
0.0
 30
0.0
 70
   128
 71
   513
 72
   515
 73
   514
  0
VERTEX
  5
79F
330
155
100
AcDbEntity
  8
0
100
AcDbFaceRecord
 10
0.0
 20
0.0
 30
0.0
 70
   128
 71
   514
 72
   515
 73
   516
  0
VERTEX
  5
7A0
330
155
100
AcDbEntity
  8
0
100
AcDbFaceRecord
 10
0.0
 20
0.0
 30
0.0
 70
   128
 71
   516
 72
   517
 73
   514
  0
VERTEX
  5
7A1
330
155
100
AcDbEntity
  8
0
100
AcDbFaceRecord
 10
0.0
 20
0.0
 30
0.0
 70
   128
 71
   514
 72
   517
 73
   518
  0
VERTEX
  5
7A2
330
155
100
AcDbEntity
  8
0
100
AcDbFaceRecord
 10
0.0
 20
0.0
 30
0.0
 70
   128
 71
   518
 72
   482
 73
   485
  0
VERTEX
  5
7A3
330
155
100
AcDbEntity
  8
0
100
AcDbFaceRecord
 10
0.0
 20
0.0
 30
0.0
 70
   128
 71
   518
 72
   485
 73
   350
  0
VERTEX
  5
7A4
330
155
100
AcDbEntity
  8
0
100
AcDbFaceRecord
 10
0.0
 20
0.0
 30
0.0
 70
   128
 71
   518
 72
   350
 73
   514
  0
VERTEX
  5
7A5
330
155
100
AcDbEntity
  8
0
100
AcDbFaceRecord
 10
0.0
 20
0.0
 30
0.0
 70
   128
 71
   197
 72
   519
 73
   520
  0
VERTEX
  5
7A6
330
155
100
AcDbEntity
  8
0
100
AcDbFaceRecord
 10
0.0
 20
0.0
 30
0.0
 70
   128
 71
   520
 72
   198
 73
  -197
  0
VERTEX
  5
7A7
330
155
100
AcDbEntity
  8
0
100
AcDbFaceRecord
 10
0.0
 20
0.0
 30
0.0
 70
   128
 71
   198
 72
   520
 73
   521
  0
VERTEX
  5
7A8
330
155
100
AcDbEntity
  8
0
100
AcDbFaceRecord
 10
0.0
 20
0.0
 30
0.0
 70
   128
 71
   521
 72
   201
 73
  -198
  0
VERTEX
  5
7A9
330
155
100
AcDbEntity
  8
0
100
AcDbFaceRecord
 10
0.0
 20
0.0
 30
0.0
 70
   128
 71
   201
 72
   521
 73
   522
  0
VERTEX
  5
7AA
330
155
100
AcDbEntity
  8
0
100
AcDbFaceRecord
 10
0.0
 20
0.0
 30
0.0
 70
   128
 71
   522
 72
   203
 73
  -201
  0
VERTEX
  5
7AB
330
155
100
AcDbEntity
  8
0
100
AcDbFaceRecord
 10
0.0
 20
0.0
 30
0.0
 70
   128
 71
   203
 72
   522
 73
   523
  0
VERTEX
  5
7AC
330
155
100
AcDbEntity
  8
0
100
AcDbFaceRecord
 10
0.0
 20
0.0
 30
0.0
 70
   128
 71
   523
 72
   205
 73
  -203
  0
VERTEX
  5
7AD
330
155
100
AcDbEntity
  8
0
100
AcDbFaceRecord
 10
0.0
 20
0.0
 30
0.0
 70
   128
 71
   205
 72
   523
 73
   448
  0
VERTEX
  5
7AE
330
155
100
AcDbEntity
  8
0
100
AcDbFaceRecord
 10
0.0
 20
0.0
 30
0.0
 70
   128
 71
   448
 72
   109
 73
  -205
  0
VERTEX
  5
7AF
330
155
100
AcDbEntity
  8
0
100
AcDbFaceRecord
 10
0.0
 20
0.0
 30
0.0
 70
   128
 71
   519
 72
   524
 73
   525
  0
VERTEX
  5
7B0
330
155
100
AcDbEntity
  8
0
100
AcDbFaceRecord
 10
0.0
 20
0.0
 30
0.0
 70
   128
 71
   525
 72
   520
 73
  -519
  0
VERTEX
  5
7B1
330
155
100
AcDbEntity
  8
0
100
AcDbFaceRecord
 10
0.0
 20
0.0
 30
0.0
 70
   128
 71
   520
 72
   525
 73
   526
  0
VERTEX
  5
7B2
330
155
100
AcDbEntity
  8
0
100
AcDbFaceRecord
 10
0.0
 20
0.0
 30
0.0
 70
   128
 71
   526
 72
   521
 73
  -520
  0
VERTEX
  5
7B3
330
155
100
AcDbEntity
  8
0
100
AcDbFaceRecord
 10
0.0
 20
0.0
 30
0.0
 70
   128
 71
   521
 72
   526
 73
   527
  0
VERTEX
  5
7B4
330
155
100
AcDbEntity
  8
0
100
AcDbFaceRecord
 10
0.0
 20
0.0
 30
0.0
 70
   128
 71
   527
 72
   522
 73
  -521
  0
VERTEX
  5
7B5
330
155
100
AcDbEntity
  8
0
100
AcDbFaceRecord
 10
0.0
 20
0.0
 30
0.0
 70
   128
 71
   522
 72
   527
 73
   528
  0
VERTEX
  5
7B6
330
155
100
AcDbEntity
  8
0
100
AcDbFaceRecord
 10
0.0
 20
0.0
 30
0.0
 70
   128
 71
   528
 72
   523
 73
  -522
  0
VERTEX
  5
7B7
330
155
100
AcDbEntity
  8
0
100
AcDbFaceRecord
 10
0.0
 20
0.0
 30
0.0
 70
   128
 71
   523
 72
   528
 73
   437
  0
VERTEX
  5
7B8
330
155
100
AcDbEntity
  8
0
100
AcDbFaceRecord
 10
0.0
 20
0.0
 30
0.0
 70
   128
 71
   437
 72
   448
 73
  -523
  0
VERTEX
  5
7B9
330
155
100
AcDbEntity
  8
0
100
AcDbFaceRecord
 10
0.0
 20
0.0
 30
0.0
 70
   128
 71
   524
 72
   529
 73
   530
  0
VERTEX
  5
7BA
330
155
100
AcDbEntity
  8
0
100
AcDbFaceRecord
 10
0.0
 20
0.0
 30
0.0
 70
   128
 71
   530
 72
   525
 73
  -524
  0
VERTEX
  5
7BB
330
155
100
AcDbEntity
  8
0
100
AcDbFaceRecord
 10
0.0
 20
0.0
 30
0.0
 70
   128
 71
   525
 72
   530
 73
   531
  0
VERTEX
  5
7BC
330
155
100
AcDbEntity
  8
0
100
AcDbFaceRecord
 10
0.0
 20
0.0
 30
0.0
 70
   128
 71
   531
 72
   526
 73
  -525
  0
VERTEX
  5
7BD
330
155
100
AcDbEntity
  8
0
100
AcDbFaceRecord
 10
0.0
 20
0.0
 30
0.0
 70
   128
 71
   526
 72
   531
 73
   532
  0
VERTEX
  5
7BE
330
155
100
AcDbEntity
  8
0
100
AcDbFaceRecord
 10
0.0
 20
0.0
 30
0.0
 70
   128
 71
   532
 72
   527
 73
  -526
  0
VERTEX
  5
7BF
330
155
100
AcDbEntity
  8
0
100
AcDbFaceRecord
 10
0.0
 20
0.0
 30
0.0
 70
   128
 71
   527
 72
   532
 73
   533
  0
VERTEX
  5
7C0
330
155
100
AcDbEntity
  8
0
100
AcDbFaceRecord
 10
0.0
 20
0.0
 30
0.0
 70
   128
 71
   533
 72
   528
 73
  -527
  0
VERTEX
  5
7C1
330
155
100
AcDbEntity
  8
0
100
AcDbFaceRecord
 10
0.0
 20
0.0
 30
0.0
 70
   128
 71
   528
 72
   533
 73
   426
  0
VERTEX
  5
7C2
330
155
100
AcDbEntity
  8
0
100
AcDbFaceRecord
 10
0.0
 20
0.0
 30
0.0
 70
   128
 71
   426
 72
   437
 73
  -528
  0
VERTEX
  5
7C3
330
155
100
AcDbEntity
  8
0
100
AcDbFaceRecord
 10
0.0
 20
0.0
 30
0.0
 70
   128
 71
   529
 72
   534
 73
   535
  0
VERTEX
  5
7C4
330
155
100
AcDbEntity
  8
0
100
AcDbFaceRecord
 10
0.0
 20
0.0
 30
0.0
 70
   128
 71
   535
 72
   530
 73
  -529
  0
VERTEX
  5
7C5
330
155
100
AcDbEntity
  8
0
100
AcDbFaceRecord
 10
0.0
 20
0.0
 30
0.0
 70
   128
 71
   530
 72
   535
 73
   536
  0
VERTEX
  5
7C6
330
155
100
AcDbEntity
  8
0
100
AcDbFaceRecord
 10
0.0
 20
0.0
 30
0.0
 70
   128
 71
   536
 72
   531
 73
  -530
  0
VERTEX
  5
7C7
330
155
100
AcDbEntity
  8
0
100
AcDbFaceRecord
 10
0.0
 20
0.0
 30
0.0
 70
   128
 71
   531
 72
   536
 73
   537
  0
VERTEX
  5
7C8
330
155
100
AcDbEntity
  8
0
100
AcDbFaceRecord
 10
0.0
 20
0.0
 30
0.0
 70
   128
 71
   537
 72
   532
 73
  -531
  0
VERTEX
  5
7C9
330
155
100
AcDbEntity
  8
0
100
AcDbFaceRecord
 10
0.0
 20
0.0
 30
0.0
 70
   128
 71
   532
 72
   537
 73
   538
  0
VERTEX
  5
7CA
330
155
100
AcDbEntity
  8
0
100
AcDbFaceRecord
 10
0.0
 20
0.0
 30
0.0
 70
   128
 71
   538
 72
   533
 73
  -532
  0
VERTEX
  5
7CB
330
155
100
AcDbEntity
  8
0
100
AcDbFaceRecord
 10
0.0
 20
0.0
 30
0.0
 70
   128
 71
   533
 72
   538
 73
   415
  0
VERTEX
  5
7CC
330
155
100
AcDbEntity
  8
0
100
AcDbFaceRecord
 10
0.0
 20
0.0
 30
0.0
 70
   128
 71
   415
 72
   426
 73
  -533
  0
VERTEX
  5
7CD
330
155
100
AcDbEntity
  8
0
100
AcDbFaceRecord
 10
0.0
 20
0.0
 30
0.0
 70
   128
 71
   534
 72
   539
 73
   540
  0
VERTEX
  5
7CE
330
155
100
AcDbEntity
  8
0
100
AcDbFaceRecord
 10
0.0
 20
0.0
 30
0.0
 70
   128
 71
   540
 72
   535
 73
  -534
  0
VERTEX
  5
7CF
330
155
100
AcDbEntity
  8
0
100
AcDbFaceRecord
 10
0.0
 20
0.0
 30
0.0
 70
   128
 71
   535
 72
   540
 73
   541
  0
VERTEX
  5
7D0
330
155
100
AcDbEntity
  8
0
100
AcDbFaceRecord
 10
0.0
 20
0.0
 30
0.0
 70
   128
 71
   541
 72
   536
 73
  -535
  0
VERTEX
  5
7D1
330
155
100
AcDbEntity
  8
0
100
AcDbFaceRecord
 10
0.0
 20
0.0
 30
0.0
 70
   128
 71
   536
 72
   541
 73
   542
  0
VERTEX
  5
7D2
330
155
100
AcDbEntity
  8
0
100
AcDbFaceRecord
 10
0.0
 20
0.0
 30
0.0
 70
   128
 71
   542
 72
   537
 73
  -536
  0
VERTEX
  5
7D3
330
155
100
AcDbEntity
  8
0
100
AcDbFaceRecord
 10
0.0
 20
0.0
 30
0.0
 70
   128
 71
   537
 72
   542
 73
   543
  0
VERTEX
  5
7D4
330
155
100
AcDbEntity
  8
0
100
AcDbFaceRecord
 10
0.0
 20
0.0
 30
0.0
 70
   128
 71
   543
 72
   538
 73
  -537
  0
VERTEX
  5
7D5
330
155
100
AcDbEntity
  8
0
100
AcDbFaceRecord
 10
0.0
 20
0.0
 30
0.0
 70
   128
 71
   538
 72
   543
 73
   404
  0
VERTEX
  5
7D6
330
155
100
AcDbEntity
  8
0
100
AcDbFaceRecord
 10
0.0
 20
0.0
 30
0.0
 70
   128
 71
   404
 72
   415
 73
  -538
  0
VERTEX
  5
7D7
330
155
100
AcDbEntity
  8
0
100
AcDbFaceRecord
 10
0.0
 20
0.0
 30
0.0
 70
   128
 71
   539
 72
   544
 73
   545
  0
VERTEX
  5
7D8
330
155
100
AcDbEntity
  8
0
100
AcDbFaceRecord
 10
0.0
 20
0.0
 30
0.0
 70
   128
 71
   545
 72
   540
 73
  -539
  0
VERTEX
  5
7D9
330
155
100
AcDbEntity
  8
0
100
AcDbFaceRecord
 10
0.0
 20
0.0
 30
0.0
 70
   128
 71
   540
 72
   545
 73
   546
  0
VERTEX
  5
7DA
330
155
100
AcDbEntity
  8
0
100
AcDbFaceRecord
 10
0.0
 20
0.0
 30
0.0
 70
   128
 71
   546
 72
   541
 73
  -540
  0
VERTEX
  5
7DB
330
155
100
AcDbEntity
  8
0
100
AcDbFaceRecord
 10
0.0
 20
0.0
 30
0.0
 70
   128
 71
   541
 72
   546
 73
   547
  0
VERTEX
  5
7DC
330
155
100
AcDbEntity
  8
0
100
AcDbFaceRecord
 10
0.0
 20
0.0
 30
0.0
 70
   128
 71
   547
 72
   542
 73
  -541
  0
VERTEX
  5
7DD
330
155
100
AcDbEntity
  8
0
100
AcDbFaceRecord
 10
0.0
 20
0.0
 30
0.0
 70
   128
 71
   542
 72
   547
 73
   548
  0
VERTEX
  5
7DE
330
155
100
AcDbEntity
  8
0
100
AcDbFaceRecord
 10
0.0
 20
0.0
 30
0.0
 70
   128
 71
   548
 72
   543
 73
  -542
  0
VERTEX
  5
7DF
330
155
100
AcDbEntity
  8
0
100
AcDbFaceRecord
 10
0.0
 20
0.0
 30
0.0
 70
   128
 71
   543
 72
   548
 73
   393
  0
VERTEX
  5
7E0
330
155
100
AcDbEntity
  8
0
100
AcDbFaceRecord
 10
0.0
 20
0.0
 30
0.0
 70
   128
 71
   393
 72
   404
 73
  -543
  0
VERTEX
  5
7E1
330
155
100
AcDbEntity
  8
0
100
AcDbFaceRecord
 10
0.0
 20
0.0
 30
0.0
 70
   128
 71
   544
 72
   549
 73
   550
  0
VERTEX
  5
7E2
330
155
100
AcDbEntity
  8
0
100
AcDbFaceRecord
 10
0.0
 20
0.0
 30
0.0
 70
   128
 71
   550
 72
   545
 73
  -544
  0
VERTEX
  5
7E3
330
155
100
AcDbEntity
  8
0
100
AcDbFaceRecord
 10
0.0
 20
0.0
 30
0.0
 70
   128
 71
   545
 72
   550
 73
   551
  0
VERTEX
  5
7E4
330
155
100
AcDbEntity
  8
0
100
AcDbFaceRecord
 10
0.0
 20
0.0
 30
0.0
 70
   128
 71
   551
 72
   546
 73
  -545
  0
VERTEX
  5
7E5
330
155
100
AcDbEntity
  8
0
100
AcDbFaceRecord
 10
0.0
 20
0.0
 30
0.0
 70
   128
 71
   546
 72
   551
 73
   552
  0
VERTEX
  5
7E6
330
155
100
AcDbEntity
  8
0
100
AcDbFaceRecord
 10
0.0
 20
0.0
 30
0.0
 70
   128
 71
   552
 72
   547
 73
  -546
  0
VERTEX
  5
7E7
330
155
100
AcDbEntity
  8
0
100
AcDbFaceRecord
 10
0.0
 20
0.0
 30
0.0
 70
   128
 71
   547
 72
   552
 73
   553
  0
VERTEX
  5
7E8
330
155
100
AcDbEntity
  8
0
100
AcDbFaceRecord
 10
0.0
 20
0.0
 30
0.0
 70
   128
 71
   553
 72
   548
 73
  -547
  0
VERTEX
  5
7E9
330
155
100
AcDbEntity
  8
0
100
AcDbFaceRecord
 10
0.0
 20
0.0
 30
0.0
 70
   128
 71
   548
 72
   553
 73
   382
  0
VERTEX
  5
7EA
330
155
100
AcDbEntity
  8
0
100
AcDbFaceRecord
 10
0.0
 20
0.0
 30
0.0
 70
   128
 71
   382
 72
   393
 73
  -548
  0
VERTEX
  5
7EB
330
155
100
AcDbEntity
  8
0
100
AcDbFaceRecord
 10
0.0
 20
0.0
 30
0.0
 70
   128
 71
   549
 72
   554
 73
   555
  0
VERTEX
  5
7EC
330
155
100
AcDbEntity
  8
0
100
AcDbFaceRecord
 10
0.0
 20
0.0
 30
0.0
 70
   128
 71
   555
 72
   550
 73
  -549
  0
VERTEX
  5
7ED
330
155
100
AcDbEntity
  8
0
100
AcDbFaceRecord
 10
0.0
 20
0.0
 30
0.0
 70
   128
 71
   550
 72
   555
 73
   556
  0
VERTEX
  5
7EE
330
155
100
AcDbEntity
  8
0
100
AcDbFaceRecord
 10
0.0
 20
0.0
 30
0.0
 70
   128
 71
   556
 72
   551
 73
  -550
  0
VERTEX
  5
7EF
330
155
100
AcDbEntity
  8
0
100
AcDbFaceRecord
 10
0.0
 20
0.0
 30
0.0
 70
   128
 71
   551
 72
   556
 73
   557
  0
VERTEX
  5
7F0
330
155
100
AcDbEntity
  8
0
100
AcDbFaceRecord
 10
0.0
 20
0.0
 30
0.0
 70
   128
 71
   557
 72
   552
 73
  -551
  0
VERTEX
  5
7F1
330
155
100
AcDbEntity
  8
0
100
AcDbFaceRecord
 10
0.0
 20
0.0
 30
0.0
 70
   128
 71
   552
 72
   557
 73
   558
  0
VERTEX
  5
7F2
330
155
100
AcDbEntity
  8
0
100
AcDbFaceRecord
 10
0.0
 20
0.0
 30
0.0
 70
   128
 71
   558
 72
   553
 73
  -552
  0
VERTEX
  5
7F3
330
155
100
AcDbEntity
  8
0
100
AcDbFaceRecord
 10
0.0
 20
0.0
 30
0.0
 70
   128
 71
   553
 72
   558
 73
   370
  0
VERTEX
  5
7F4
330
155
100
AcDbEntity
  8
0
100
AcDbFaceRecord
 10
0.0
 20
0.0
 30
0.0
 70
   128
 71
   370
 72
   382
 73
  -553
  0
VERTEX
  5
7F5
330
155
100
AcDbEntity
  8
0
100
AcDbFaceRecord
 10
0.0
 20
0.0
 30
0.0
 70
   128
 71
   554
 72
   559
 73
   560
  0
VERTEX
  5
7F6
330
155
100
AcDbEntity
  8
0
100
AcDbFaceRecord
 10
0.0
 20
0.0
 30
0.0
 70
   128
 71
   560
 72
   555
 73
  -554
  0
VERTEX
  5
7F7
330
155
100
AcDbEntity
  8
0
100
AcDbFaceRecord
 10
0.0
 20
0.0
 30
0.0
 70
   128
 71
   555
 72
   560
 73
   561
  0
VERTEX
  5
7F8
330
155
100
AcDbEntity
  8
0
100
AcDbFaceRecord
 10
0.0
 20
0.0
 30
0.0
 70
   128
 71
   561
 72
   556
 73
  -555
  0
VERTEX
  5
7F9
330
155
100
AcDbEntity
  8
0
100
AcDbFaceRecord
 10
0.0
 20
0.0
 30
0.0
 70
   128
 71
   556
 72
   561
 73
   562
  0
VERTEX
  5
7FA
330
155
100
AcDbEntity
  8
0
100
AcDbFaceRecord
 10
0.0
 20
0.0
 30
0.0
 70
   128
 71
   562
 72
   557
 73
  -556
  0
VERTEX
  5
7FB
330
155
100
AcDbEntity
  8
0
100
AcDbFaceRecord
 10
0.0
 20
0.0
 30
0.0
 70
   128
 71
   557
 72
   562
 73
   563
  0
VERTEX
  5
7FC
330
155
100
AcDbEntity
  8
0
100
AcDbFaceRecord
 10
0.0
 20
0.0
 30
0.0
 70
   128
 71
   563
 72
   558
 73
  -557
  0
VERTEX
  5
7FD
330
155
100
AcDbEntity
  8
0
100
AcDbFaceRecord
 10
0.0
 20
0.0
 30
0.0
 70
   128
 71
   558
 72
   563
 73
   368
  0
VERTEX
  5
7FE
330
155
100
AcDbEntity
  8
0
100
AcDbFaceRecord
 10
0.0
 20
0.0
 30
0.0
 70
   128
 71
   368
 72
   370
 73
  -558
  0
VERTEX
  5
7FF
330
155
100
AcDbEntity
  8
0
100
AcDbFaceRecord
 10
0.0
 20
0.0
 30
0.0
 70
   128
 71
   559
 72
   564
 73
   565
  0
VERTEX
  5
800
330
155
100
AcDbEntity
  8
0
100
AcDbFaceRecord
 10
0.0
 20
0.0
 30
0.0
 70
   128
 71
   565
 72
   560
 73
  -559
  0
VERTEX
  5
801
330
155
100
AcDbEntity
  8
0
100
AcDbFaceRecord
 10
0.0
 20
0.0
 30
0.0
 70
   128
 71
   560
 72
   565
 73
   566
  0
VERTEX
  5
802
330
155
100
AcDbEntity
  8
0
100
AcDbFaceRecord
 10
0.0
 20
0.0
 30
0.0
 70
   128
 71
   566
 72
   561
 73
  -560
  0
VERTEX
  5
803
330
155
100
AcDbEntity
  8
0
100
AcDbFaceRecord
 10
0.0
 20
0.0
 30
0.0
 70
   128
 71
   561
 72
   566
 73
   567
  0
VERTEX
  5
804
330
155
100
AcDbEntity
  8
0
100
AcDbFaceRecord
 10
0.0
 20
0.0
 30
0.0
 70
   128
 71
   567
 72
   562
 73
  -561
  0
VERTEX
  5
805
330
155
100
AcDbEntity
  8
0
100
AcDbFaceRecord
 10
0.0
 20
0.0
 30
0.0
 70
   128
 71
   562
 72
   567
 73
   568
  0
VERTEX
  5
806
330
155
100
AcDbEntity
  8
0
100
AcDbFaceRecord
 10
0.0
 20
0.0
 30
0.0
 70
   128
 71
   568
 72
   563
 73
  -562
  0
VERTEX
  5
807
330
155
100
AcDbEntity
  8
0
100
AcDbFaceRecord
 10
0.0
 20
0.0
 30
0.0
 70
   128
 71
   563
 72
   568
 73
   569
  0
VERTEX
  5
808
330
155
100
AcDbEntity
  8
0
100
AcDbFaceRecord
 10
0.0
 20
0.0
 30
0.0
 70
   128
 71
   569
 72
   368
 73
  -563
  0
VERTEX
  5
809
330
155
100
AcDbEntity
  8
0
100
AcDbFaceRecord
 10
0.0
 20
0.0
 30
0.0
 70
   128
 71
   564
 72
   570
 73
   571
  0
VERTEX
  5
80A
330
155
100
AcDbEntity
  8
0
100
AcDbFaceRecord
 10
0.0
 20
0.0
 30
0.0
 70
   128
 71
   571
 72
   565
 73
  -564
  0
VERTEX
  5
80B
330
155
100
AcDbEntity
  8
0
100
AcDbFaceRecord
 10
0.0
 20
0.0
 30
0.0
 70
   128
 71
   565
 72
   571
 73
   572
  0
VERTEX
  5
80C
330
155
100
AcDbEntity
  8
0
100
AcDbFaceRecord
 10
0.0
 20
0.0
 30
0.0
 70
   128
 71
   572
 72
   566
 73
  -565
  0
VERTEX
  5
80D
330
155
100
AcDbEntity
  8
0
100
AcDbFaceRecord
 10
0.0
 20
0.0
 30
0.0
 70
   128
 71
   566
 72
   572
 73
   573
  0
VERTEX
  5
80E
330
155
100
AcDbEntity
  8
0
100
AcDbFaceRecord
 10
0.0
 20
0.0
 30
0.0
 70
   128
 71
   573
 72
   567
 73
  -566
  0
VERTEX
  5
80F
330
155
100
AcDbEntity
  8
0
100
AcDbFaceRecord
 10
0.0
 20
0.0
 30
0.0
 70
   128
 71
   567
 72
   573
 73
   574
  0
VERTEX
  5
810
330
155
100
AcDbEntity
  8
0
100
AcDbFaceRecord
 10
0.0
 20
0.0
 30
0.0
 70
   128
 71
   574
 72
   568
 73
  -567
  0
VERTEX
  5
811
330
155
100
AcDbEntity
  8
0
100
AcDbFaceRecord
 10
0.0
 20
0.0
 30
0.0
 70
   128
 71
   568
 72
   574
 73
   511
  0
VERTEX
  5
812
330
155
100
AcDbEntity
  8
0
100
AcDbFaceRecord
 10
0.0
 20
0.0
 30
0.0
 70
   128
 71
   511
 72
   569
 73
  -568
  0
VERTEX
  5
813
330
155
100
AcDbEntity
  8
0
100
AcDbFaceRecord
 10
0.0
 20
0.0
 30
0.0
 70
   128
 71
   570
 72
   575
 73
   576
  0
VERTEX
  5
814
330
155
100
AcDbEntity
  8
0
100
AcDbFaceRecord
 10
0.0
 20
0.0
 30
0.0
 70
   128
 71
   576
 72
   571
 73
  -570
  0
VERTEX
  5
815
330
155
100
AcDbEntity
  8
0
100
AcDbFaceRecord
 10
0.0
 20
0.0
 30
0.0
 70
   128
 71
   571
 72
   576
 73
   577
  0
VERTEX
  5
816
330
155
100
AcDbEntity
  8
0
100
AcDbFaceRecord
 10
0.0
 20
0.0
 30
0.0
 70
   128
 71
   577
 72
   572
 73
  -571
  0
VERTEX
  5
817
330
155
100
AcDbEntity
  8
0
100
AcDbFaceRecord
 10
0.0
 20
0.0
 30
0.0
 70
   128
 71
   572
 72
   577
 73
   578
  0
VERTEX
  5
818
330
155
100
AcDbEntity
  8
0
100
AcDbFaceRecord
 10
0.0
 20
0.0
 30
0.0
 70
   128
 71
   578
 72
   573
 73
  -572
  0
VERTEX
  5
819
330
155
100
AcDbEntity
  8
0
100
AcDbFaceRecord
 10
0.0
 20
0.0
 30
0.0
 70
   128
 71
   573
 72
   578
 73
   579
  0
VERTEX
  5
81A
330
155
100
AcDbEntity
  8
0
100
AcDbFaceRecord
 10
0.0
 20
0.0
 30
0.0
 70
   128
 71
   579
 72
   574
 73
  -573
  0
VERTEX
  5
81B
330
155
100
AcDbEntity
  8
0
100
AcDbFaceRecord
 10
0.0
 20
0.0
 30
0.0
 70
   128
 71
   574
 72
   579
 73
   512
  0
VERTEX
  5
81C
330
155
100
AcDbEntity
  8
0
100
AcDbFaceRecord
 10
0.0
 20
0.0
 30
0.0
 70
   128
 71
   512
 72
   511
 73
  -574
  0
VERTEX
  5
81D
330
155
100
AcDbEntity
  8
0
100
AcDbFaceRecord
 10
0.0
 20
0.0
 30
0.0
 70
   128
 71
   575
 72
   264
 73
   263
  0
VERTEX
  5
81E
330
155
100
AcDbEntity
  8
0
100
AcDbFaceRecord
 10
0.0
 20
0.0
 30
0.0
 70
   128
 71
   263
 72
   576
 73
  -575
  0
VERTEX
  5
81F
330
155
100
AcDbEntity
  8
0
100
AcDbFaceRecord
 10
0.0
 20
0.0
 30
0.0
 70
   128
 71
   576
 72
   263
 73
   265
  0
VERTEX
  5
820
330
155
100
AcDbEntity
  8
0
100
AcDbFaceRecord
 10
0.0
 20
0.0
 30
0.0
 70
   128
 71
   265
 72
   577
 73
  -576
  0
VERTEX
  5
821
330
155
100
AcDbEntity
  8
0
100
AcDbFaceRecord
 10
0.0
 20
0.0
 30
0.0
 70
   128
 71
   577
 72
   265
 73
   266
  0
VERTEX
  5
822
330
155
100
AcDbEntity
  8
0
100
AcDbFaceRecord
 10
0.0
 20
0.0
 30
0.0
 70
   128
 71
   266
 72
   578
 73
  -577
  0
VERTEX
  5
823
330
155
100
AcDbEntity
  8
0
100
AcDbFaceRecord
 10
0.0
 20
0.0
 30
0.0
 70
   128
 71
   578
 72
   266
 73
   267
  0
VERTEX
  5
824
330
155
100
AcDbEntity
  8
0
100
AcDbFaceRecord
 10
0.0
 20
0.0
 30
0.0
 70
   128
 71
   267
 72
   579
 73
  -578
  0
VERTEX
  5
825
330
155
100
AcDbEntity
  8
0
100
AcDbFaceRecord
 10
0.0
 20
0.0
 30
0.0
 70
   128
 71
   579
 72
   267
 73
   268
  0
VERTEX
  5
826
330
155
100
AcDbEntity
  8
0
100
AcDbFaceRecord
 10
0.0
 20
0.0
 30
0.0
 70
   128
 71
   268
 72
   512
 73
  -579
  0
VERTEX
  5
827
330
155
100
AcDbEntity
  8
0
100
AcDbFaceRecord
 10
0.0
 20
0.0
 30
0.0
 70
   128
 71
   512
 72
   268
 73
   164
  0
VERTEX
  5
828
330
155
100
AcDbEntity
  8
0
100
AcDbFaceRecord
 10
0.0
 20
0.0
 30
0.0
 70
   128
 71
   512
 72
   164
 73
   498
  0
VERTEX
  5
829
330
155
100
AcDbEntity
  8
0
100
AcDbFaceRecord
 10
0.0
 20
0.0
 30
0.0
 70
   128
 71
   512
 72
   498
 73
   496
  0
VERTEX
  5
82A
330
155
100
AcDbEntity
  8
0
100
AcDbFaceRecord
 10
0.0
 20
0.0
 30
0.0
 70
   128
 71
   512
 72
   496
 73
   493
  0
VERTEX
  5
82B
330
155
100
AcDbEntity
  8
0
100
AcDbFaceRecord
 10
0.0
 20
0.0
 30
0.0
 70
   128
 71
   512
 72
   493
 73
   492
  0
VERTEX
  5
82C
330
155
100
AcDbEntity
  8
0
100
AcDbFaceRecord
 10
0.0
 20
0.0
 30
0.0
 70
   128
 71
   512
 72
   492
 73
   513
  0
VERTEX
  5
82D
330
155
100
AcDbEntity
  8
0
100
AcDbFaceRecord
 10
0.0
 20
0.0
 30
0.0
 70
   128
 71
   514
 72
   569
 73
   511
  0
VERTEX
  5
82E
330
155
100
AcDbEntity
  8
0
100
AcDbFaceRecord
 10
0.0
 20
0.0
 30
0.0
 70
   128
 71
   514
 72
   368
 73
   569
  0
VERTEX
  5
82F
330
155
100
AcDbEntity
  8
0
100
AcDbFaceRecord
 10
0.0
 20
0.0
 30
0.0
 70
   128
 71
   368
 72
   514
 73
   353
  0
VERTEX
  5
830
330
155
100
AcDbEntity
  8
0
100
AcDbFaceRecord
 10
0.0
 20
0.0
 30
0.0
 70
   128
 71
   514
 72
   350
 73
   353
  0
VERTEX
  5
831
330
155
100
AcDbEntity
  8
0
100
AcDbFaceRecord
 10
0.0
 20
0.0
 30
0.0
 70
   128
 71
   356
 72
   359
 73
   373
  0
VERTEX
  5
832
330
155
100
AcDbEntity
  8
0
100
AcDbFaceRecord
 10
0.0
 20
0.0
 30
0.0
 70
   128
 71
   355
 72
   354
 73
   373
  0
VERTEX
  5
833
330
155
100
AcDbEntity
  8
0
100
AcDbFaceRecord
 10
0.0
 20
0.0
 30
0.0
 70
   128
 71
   354
 72
   356
 73
   373
  0
VERTEX
  5
834
330
155
100
AcDbEntity
  8
0
100
AcDbFaceRecord
 10
0.0
 20
0.0
 30
0.0
 70
   128
 71
   364
 72
   481
 73
   366
  0
VERTEX
  5
835
330
155
100
AcDbEntity
  8
0
100
AcDbFaceRecord
 10
0.0
 20
0.0
 30
0.0
 70
   128
 71
   131
 72
   269
 73
   468
  0
VERTEX
  5
836
330
155
100
AcDbEntity
  8
0
100
AcDbFaceRecord
 10
0.0
 20
0.0
 30
0.0
 70
   128
 71
   468
 72
   269
 73
   270
  0
VERTEX
  5
837
330
155
100
AcDbEntity
  8
0
100
AcDbFaceRecord
 10
0.0
 20
0.0
 30
0.0
 70
   128
 71
   270
 72
   474
 73
  -468
  0
VERTEX
  5
838
330
155
100
AcDbEntity
  8
0
100
AcDbFaceRecord
 10
0.0
 20
0.0
 30
0.0
 70
   128
 71
   271
 72
   580
 73
   581
  0
VERTEX
  5
839
330
155
100
AcDbEntity
  8
0
100
AcDbFaceRecord
 10
0.0
 20
0.0
 30
0.0
 70
   128
 71
   581
 72
   272
 73
  -271
  0
VERTEX
  5
83A
330
155
100
AcDbEntity
  8
0
100
AcDbFaceRecord
 10
0.0
 20
0.0
 30
0.0
 70
   128
 71
   272
 72
   581
 73
   582
  0
VERTEX
  5
83B
330
155
100
AcDbEntity
  8
0
100
AcDbFaceRecord
 10
0.0
 20
0.0
 30
0.0
 70
   128
 71
   582
 72
   275
 73
  -272
  0
VERTEX
  5
83C
330
155
100
AcDbEntity
  8
0
100
AcDbFaceRecord
 10
0.0
 20
0.0
 30
0.0
 70
   128
 71
   275
 72
   582
 73
   583
  0
VERTEX
  5
83D
330
155
100
AcDbEntity
  8
0
100
AcDbFaceRecord
 10
0.0
 20
0.0
 30
0.0
 70
   128
 71
   583
 72
   277
 73
  -275
  0
VERTEX
  5
83E
330
155
100
AcDbEntity
  8
0
100
AcDbFaceRecord
 10
0.0
 20
0.0
 30
0.0
 70
   128
 71
   277
 72
   583
 73
   584
  0
VERTEX
  5
83F
330
155
100
AcDbEntity
  8
0
100
AcDbFaceRecord
 10
0.0
 20
0.0
 30
0.0
 70
   128
 71
   584
 72
   279
 73
  -277
  0
VERTEX
  5
840
330
155
100
AcDbEntity
  8
0
100
AcDbFaceRecord
 10
0.0
 20
0.0
 30
0.0
 70
   128
 71
   279
 72
   584
 73
   585
  0
VERTEX
  5
841
330
155
100
AcDbEntity
  8
0
100
AcDbFaceRecord
 10
0.0
 20
0.0
 30
0.0
 70
   128
 71
   585
 72
   281
 73
  -279
  0
VERTEX
  5
842
330
155
100
AcDbEntity
  8
0
100
AcDbFaceRecord
 10
0.0
 20
0.0
 30
0.0
 70
   128
 71
   281
 72
   585
 73
   519
  0
VERTEX
  5
843
330
155
100
AcDbEntity
  8
0
100
AcDbFaceRecord
 10
0.0
 20
0.0
 30
0.0
 70
   128
 71
   519
 72
   197
 73
  -281
  0
VERTEX
  5
844
330
155
100
AcDbEntity
  8
0
100
AcDbFaceRecord
 10
0.0
 20
0.0
 30
0.0
 70
   128
 71
   580
 72
   586
 73
   587
  0
VERTEX
  5
845
330
155
100
AcDbEntity
  8
0
100
AcDbFaceRecord
 10
0.0
 20
0.0
 30
0.0
 70
   128
 71
   587
 72
   581
 73
  -580
  0
VERTEX
  5
846
330
155
100
AcDbEntity
  8
0
100
AcDbFaceRecord
 10
0.0
 20
0.0
 30
0.0
 70
   128
 71
   581
 72
   587
 73
   588
  0
VERTEX
  5
847
330
155
100
AcDbEntity
  8
0
100
AcDbFaceRecord
 10
0.0
 20
0.0
 30
0.0
 70
   128
 71
   588
 72
   582
 73
  -581
  0
VERTEX
  5
848
330
155
100
AcDbEntity
  8
0
100
AcDbFaceRecord
 10
0.0
 20
0.0
 30
0.0
 70
   128
 71
   582
 72
   588
 73
   589
  0
VERTEX
  5
849
330
155
100
AcDbEntity
  8
0
100
AcDbFaceRecord
 10
0.0
 20
0.0
 30
0.0
 70
   128
 71
   589
 72
   583
 73
  -582
  0
VERTEX
  5
84A
330
155
100
AcDbEntity
  8
0
100
AcDbFaceRecord
 10
0.0
 20
0.0
 30
0.0
 70
   128
 71
   583
 72
   589
 73
   590
  0
VERTEX
  5
84B
330
155
100
AcDbEntity
  8
0
100
AcDbFaceRecord
 10
0.0
 20
0.0
 30
0.0
 70
   128
 71
   590
 72
   584
 73
  -583
  0
VERTEX
  5
84C
330
155
100
AcDbEntity
  8
0
100
AcDbFaceRecord
 10
0.0
 20
0.0
 30
0.0
 70
   128
 71
   584
 72
   590
 73
   591
  0
VERTEX
  5
84D
330
155
100
AcDbEntity
  8
0
100
AcDbFaceRecord
 10
0.0
 20
0.0
 30
0.0
 70
   128
 71
   591
 72
   585
 73
  -584
  0
VERTEX
  5
84E
330
155
100
AcDbEntity
  8
0
100
AcDbFaceRecord
 10
0.0
 20
0.0
 30
0.0
 70
   128
 71
   585
 72
   591
 73
   524
  0
VERTEX
  5
84F
330
155
100
AcDbEntity
  8
0
100
AcDbFaceRecord
 10
0.0
 20
0.0
 30
0.0
 70
   128
 71
   524
 72
   519
 73
  -585
  0
VERTEX
  5
850
330
155
100
AcDbEntity
  8
0
100
AcDbFaceRecord
 10
0.0
 20
0.0
 30
0.0
 70
   128
 71
   586
 72
   592
 73
   593
  0
VERTEX
  5
851
330
155
100
AcDbEntity
  8
0
100
AcDbFaceRecord
 10
0.0
 20
0.0
 30
0.0
 70
   128
 71
   593
 72
   587
 73
  -586
  0
VERTEX
  5
852
330
155
100
AcDbEntity
  8
0
100
AcDbFaceRecord
 10
0.0
 20
0.0
 30
0.0
 70
   128
 71
   587
 72
   593
 73
   594
  0
VERTEX
  5
853
330
155
100
AcDbEntity
  8
0
100
AcDbFaceRecord
 10
0.0
 20
0.0
 30
0.0
 70
   128
 71
   594
 72
   588
 73
  -587
  0
VERTEX
  5
854
330
155
100
AcDbEntity
  8
0
100
AcDbFaceRecord
 10
0.0
 20
0.0
 30
0.0
 70
   128
 71
   588
 72
   594
 73
   595
  0
VERTEX
  5
855
330
155
100
AcDbEntity
  8
0
100
AcDbFaceRecord
 10
0.0
 20
0.0
 30
0.0
 70
   128
 71
   595
 72
   589
 73
  -588
  0
VERTEX
  5
856
330
155
100
AcDbEntity
  8
0
100
AcDbFaceRecord
 10
0.0
 20
0.0
 30
0.0
 70
   128
 71
   589
 72
   595
 73
   596
  0
VERTEX
  5
857
330
155
100
AcDbEntity
  8
0
100
AcDbFaceRecord
 10
0.0
 20
0.0
 30
0.0
 70
   128
 71
   596
 72
   590
 73
  -589
  0
VERTEX
  5
858
330
155
100
AcDbEntity
  8
0
100
AcDbFaceRecord
 10
0.0
 20
0.0
 30
0.0
 70
   128
 71
   590
 72
   596
 73
   597
  0
VERTEX
  5
859
330
155
100
AcDbEntity
  8
0
100
AcDbFaceRecord
 10
0.0
 20
0.0
 30
0.0
 70
   128
 71
   597
 72
   591
 73
  -590
  0
VERTEX
  5
85A
330
155
100
AcDbEntity
  8
0
100
AcDbFaceRecord
 10
0.0
 20
0.0
 30
0.0
 70
   128
 71
   591
 72
   597
 73
   529
  0
VERTEX
  5
85B
330
155
100
AcDbEntity
  8
0
100
AcDbFaceRecord
 10
0.0
 20
0.0
 30
0.0
 70
   128
 71
   529
 72
   524
 73
  -591
  0
VERTEX
  5
85C
330
155
100
AcDbEntity
  8
0
100
AcDbFaceRecord
 10
0.0
 20
0.0
 30
0.0
 70
   128
 71
   592
 72
   598
 73
   599
  0
VERTEX
  5
85D
330
155
100
AcDbEntity
  8
0
100
AcDbFaceRecord
 10
0.0
 20
0.0
 30
0.0
 70
   128
 71
   599
 72
   593
 73
  -592
  0
VERTEX
  5
85E
330
155
100
AcDbEntity
  8
0
100
AcDbFaceRecord
 10
0.0
 20
0.0
 30
0.0
 70
   128
 71
   593
 72
   599
 73
   600
  0
VERTEX
  5
85F
330
155
100
AcDbEntity
  8
0
100
AcDbFaceRecord
 10
0.0
 20
0.0
 30
0.0
 70
   128
 71
   600
 72
   594
 73
  -593
  0
VERTEX
  5
860
330
155
100
AcDbEntity
  8
0
100
AcDbFaceRecord
 10
0.0
 20
0.0
 30
0.0
 70
   128
 71
   594
 72
   600
 73
   601
  0
VERTEX
  5
861
330
155
100
AcDbEntity
  8
0
100
AcDbFaceRecord
 10
0.0
 20
0.0
 30
0.0
 70
   128
 71
   601
 72
   595
 73
  -594
  0
VERTEX
  5
862
330
155
100
AcDbEntity
  8
0
100
AcDbFaceRecord
 10
0.0
 20
0.0
 30
0.0
 70
   128
 71
   595
 72
   601
 73
   602
  0
VERTEX
  5
863
330
155
100
AcDbEntity
  8
0
100
AcDbFaceRecord
 10
0.0
 20
0.0
 30
0.0
 70
   128
 71
   602
 72
   596
 73
  -595
  0
VERTEX
  5
864
330
155
100
AcDbEntity
  8
0
100
AcDbFaceRecord
 10
0.0
 20
0.0
 30
0.0
 70
   128
 71
   596
 72
   602
 73
   603
  0
VERTEX
  5
865
330
155
100
AcDbEntity
  8
0
100
AcDbFaceRecord
 10
0.0
 20
0.0
 30
0.0
 70
   128
 71
   603
 72
   597
 73
  -596
  0
VERTEX
  5
866
330
155
100
AcDbEntity
  8
0
100
AcDbFaceRecord
 10
0.0
 20
0.0
 30
0.0
 70
   128
 71
   597
 72
   603
 73
   534
  0
VERTEX
  5
867
330
155
100
AcDbEntity
  8
0
100
AcDbFaceRecord
 10
0.0
 20
0.0
 30
0.0
 70
   128
 71
   534
 72
   529
 73
  -597
  0
VERTEX
  5
868
330
155
100
AcDbEntity
  8
0
100
AcDbFaceRecord
 10
0.0
 20
0.0
 30
0.0
 70
   128
 71
   598
 72
   604
 73
   605
  0
VERTEX
  5
869
330
155
100
AcDbEntity
  8
0
100
AcDbFaceRecord
 10
0.0
 20
0.0
 30
0.0
 70
   128
 71
   605
 72
   599
 73
  -598
  0
VERTEX
  5
86A
330
155
100
AcDbEntity
  8
0
100
AcDbFaceRecord
 10
0.0
 20
0.0
 30
0.0
 70
   128
 71
   599
 72
   605
 73
   606
  0
VERTEX
  5
86B
330
155
100
AcDbEntity
  8
0
100
AcDbFaceRecord
 10
0.0
 20
0.0
 30
0.0
 70
   128
 71
   606
 72
   600
 73
  -599
  0
VERTEX
  5
86C
330
155
100
AcDbEntity
  8
0
100
AcDbFaceRecord
 10
0.0
 20
0.0
 30
0.0
 70
   128
 71
   600
 72
   606
 73
   607
  0
VERTEX
  5
86D
330
155
100
AcDbEntity
  8
0
100
AcDbFaceRecord
 10
0.0
 20
0.0
 30
0.0
 70
   128
 71
   607
 72
   601
 73
  -600
  0
VERTEX
  5
86E
330
155
100
AcDbEntity
  8
0
100
AcDbFaceRecord
 10
0.0
 20
0.0
 30
0.0
 70
   128
 71
   601
 72
   607
 73
   608
  0
VERTEX
  5
86F
330
155
100
AcDbEntity
  8
0
100
AcDbFaceRecord
 10
0.0
 20
0.0
 30
0.0
 70
   128
 71
   608
 72
   602
 73
  -601
  0
VERTEX
  5
870
330
155
100
AcDbEntity
  8
0
100
AcDbFaceRecord
 10
0.0
 20
0.0
 30
0.0
 70
   128
 71
   602
 72
   608
 73
   609
  0
VERTEX
  5
871
330
155
100
AcDbEntity
  8
0
100
AcDbFaceRecord
 10
0.0
 20
0.0
 30
0.0
 70
   128
 71
   609
 72
   603
 73
  -602
  0
VERTEX
  5
872
330
155
100
AcDbEntity
  8
0
100
AcDbFaceRecord
 10
0.0
 20
0.0
 30
0.0
 70
   128
 71
   603
 72
   609
 73
   539
  0
VERTEX
  5
873
330
155
100
AcDbEntity
  8
0
100
AcDbFaceRecord
 10
0.0
 20
0.0
 30
0.0
 70
   128
 71
   539
 72
   534
 73
  -603
  0
VERTEX
  5
874
330
155
100
AcDbEntity
  8
0
100
AcDbFaceRecord
 10
0.0
 20
0.0
 30
0.0
 70
   128
 71
   604
 72
   610
 73
   611
  0
VERTEX
  5
875
330
155
100
AcDbEntity
  8
0
100
AcDbFaceRecord
 10
0.0
 20
0.0
 30
0.0
 70
   128
 71
   611
 72
   605
 73
  -604
  0
VERTEX
  5
876
330
155
100
AcDbEntity
  8
0
100
AcDbFaceRecord
 10
0.0
 20
0.0
 30
0.0
 70
   128
 71
   605
 72
   611
 73
   612
  0
VERTEX
  5
877
330
155
100
AcDbEntity
  8
0
100
AcDbFaceRecord
 10
0.0
 20
0.0
 30
0.0
 70
   128
 71
   612
 72
   606
 73
  -605
  0
VERTEX
  5
878
330
155
100
AcDbEntity
  8
0
100
AcDbFaceRecord
 10
0.0
 20
0.0
 30
0.0
 70
   128
 71
   606
 72
   612
 73
   613
  0
VERTEX
  5
879
330
155
100
AcDbEntity
  8
0
100
AcDbFaceRecord
 10
0.0
 20
0.0
 30
0.0
 70
   128
 71
   613
 72
   607
 73
  -606
  0
VERTEX
  5
87A
330
155
100
AcDbEntity
  8
0
100
AcDbFaceRecord
 10
0.0
 20
0.0
 30
0.0
 70
   128
 71
   607
 72
   613
 73
   614
  0
VERTEX
  5
87B
330
155
100
AcDbEntity
  8
0
100
AcDbFaceRecord
 10
0.0
 20
0.0
 30
0.0
 70
   128
 71
   614
 72
   608
 73
  -607
  0
VERTEX
  5
87C
330
155
100
AcDbEntity
  8
0
100
AcDbFaceRecord
 10
0.0
 20
0.0
 30
0.0
 70
   128
 71
   608
 72
   614
 73
   615
  0
VERTEX
  5
87D
330
155
100
AcDbEntity
  8
0
100
AcDbFaceRecord
 10
0.0
 20
0.0
 30
0.0
 70
   128
 71
   615
 72
   609
 73
  -608
  0
VERTEX
  5
87E
330
155
100
AcDbEntity
  8
0
100
AcDbFaceRecord
 10
0.0
 20
0.0
 30
0.0
 70
   128
 71
   609
 72
   615
 73
   544
  0
VERTEX
  5
87F
330
155
100
AcDbEntity
  8
0
100
AcDbFaceRecord
 10
0.0
 20
0.0
 30
0.0
 70
   128
 71
   544
 72
   539
 73
  -609
  0
VERTEX
  5
880
330
155
100
AcDbEntity
  8
0
100
AcDbFaceRecord
 10
0.0
 20
0.0
 30
0.0
 70
   128
 71
   610
 72
   616
 73
   617
  0
VERTEX
  5
881
330
155
100
AcDbEntity
  8
0
100
AcDbFaceRecord
 10
0.0
 20
0.0
 30
0.0
 70
   128
 71
   617
 72
   611
 73
  -610
  0
VERTEX
  5
882
330
155
100
AcDbEntity
  8
0
100
AcDbFaceRecord
 10
0.0
 20
0.0
 30
0.0
 70
   128
 71
   611
 72
   617
 73
   618
  0
VERTEX
  5
883
330
155
100
AcDbEntity
  8
0
100
AcDbFaceRecord
 10
0.0
 20
0.0
 30
0.0
 70
   128
 71
   618
 72
   612
 73
  -611
  0
VERTEX
  5
884
330
155
100
AcDbEntity
  8
0
100
AcDbFaceRecord
 10
0.0
 20
0.0
 30
0.0
 70
   128
 71
   612
 72
   618
 73
   619
  0
VERTEX
  5
885
330
155
100
AcDbEntity
  8
0
100
AcDbFaceRecord
 10
0.0
 20
0.0
 30
0.0
 70
   128
 71
   619
 72
   613
 73
  -612
  0
VERTEX
  5
886
330
155
100
AcDbEntity
  8
0
100
AcDbFaceRecord
 10
0.0
 20
0.0
 30
0.0
 70
   128
 71
   613
 72
   619
 73
   620
  0
VERTEX
  5
887
330
155
100
AcDbEntity
  8
0
100
AcDbFaceRecord
 10
0.0
 20
0.0
 30
0.0
 70
   128
 71
   620
 72
   614
 73
  -613
  0
VERTEX
  5
888
330
155
100
AcDbEntity
  8
0
100
AcDbFaceRecord
 10
0.0
 20
0.0
 30
0.0
 70
   128
 71
   614
 72
   620
 73
   621
  0
VERTEX
  5
889
330
155
100
AcDbEntity
  8
0
100
AcDbFaceRecord
 10
0.0
 20
0.0
 30
0.0
 70
   128
 71
   621
 72
   615
 73
  -614
  0
VERTEX
  5
88A
330
155
100
AcDbEntity
  8
0
100
AcDbFaceRecord
 10
0.0
 20
0.0
 30
0.0
 70
   128
 71
   615
 72
   621
 73
   549
  0
VERTEX
  5
88B
330
155
100
AcDbEntity
  8
0
100
AcDbFaceRecord
 10
0.0
 20
0.0
 30
0.0
 70
   128
 71
   549
 72
   544
 73
  -615
  0
VERTEX
  5
88C
330
155
100
AcDbEntity
  8
0
100
AcDbFaceRecord
 10
0.0
 20
0.0
 30
0.0
 70
   128
 71
   616
 72
   622
 73
   623
  0
VERTEX
  5
88D
330
155
100
AcDbEntity
  8
0
100
AcDbFaceRecord
 10
0.0
 20
0.0
 30
0.0
 70
   128
 71
   623
 72
   617
 73
  -616
  0
VERTEX
  5
88E
330
155
100
AcDbEntity
  8
0
100
AcDbFaceRecord
 10
0.0
 20
0.0
 30
0.0
 70
   128
 71
   617
 72
   623
 73
   624
  0
VERTEX
  5
88F
330
155
100
AcDbEntity
  8
0
100
AcDbFaceRecord
 10
0.0
 20
0.0
 30
0.0
 70
   128
 71
   624
 72
   618
 73
  -617
  0
VERTEX
  5
890
330
155
100
AcDbEntity
  8
0
100
AcDbFaceRecord
 10
0.0
 20
0.0
 30
0.0
 70
   128
 71
   618
 72
   624
 73
   625
  0
VERTEX
  5
891
330
155
100
AcDbEntity
  8
0
100
AcDbFaceRecord
 10
0.0
 20
0.0
 30
0.0
 70
   128
 71
   625
 72
   619
 73
  -618
  0
VERTEX
  5
892
330
155
100
AcDbEntity
  8
0
100
AcDbFaceRecord
 10
0.0
 20
0.0
 30
0.0
 70
   128
 71
   619
 72
   625
 73
   626
  0
VERTEX
  5
893
330
155
100
AcDbEntity
  8
0
100
AcDbFaceRecord
 10
0.0
 20
0.0
 30
0.0
 70
   128
 71
   626
 72
   620
 73
  -619
  0
VERTEX
  5
894
330
155
100
AcDbEntity
  8
0
100
AcDbFaceRecord
 10
0.0
 20
0.0
 30
0.0
 70
   128
 71
   620
 72
   626
 73
   627
  0
VERTEX
  5
895
330
155
100
AcDbEntity
  8
0
100
AcDbFaceRecord
 10
0.0
 20
0.0
 30
0.0
 70
   128
 71
   627
 72
   621
 73
  -620
  0
VERTEX
  5
896
330
155
100
AcDbEntity
  8
0
100
AcDbFaceRecord
 10
0.0
 20
0.0
 30
0.0
 70
   128
 71
   621
 72
   627
 73
   554
  0
VERTEX
  5
897
330
155
100
AcDbEntity
  8
0
100
AcDbFaceRecord
 10
0.0
 20
0.0
 30
0.0
 70
   128
 71
   554
 72
   549
 73
  -621
  0
VERTEX
  5
898
330
155
100
AcDbEntity
  8
0
100
AcDbFaceRecord
 10
0.0
 20
0.0
 30
0.0
 70
   128
 71
   622
 72
   628
 73
   629
  0
VERTEX
  5
899
330
155
100
AcDbEntity
  8
0
100
AcDbFaceRecord
 10
0.0
 20
0.0
 30
0.0
 70
   128
 71
   629
 72
   623
 73
  -622
  0
VERTEX
  5
89A
330
155
100
AcDbEntity
  8
0
100
AcDbFaceRecord
 10
0.0
 20
0.0
 30
0.0
 70
   128
 71
   623
 72
   629
 73
   630
  0
VERTEX
  5
89B
330
155
100
AcDbEntity
  8
0
100
AcDbFaceRecord
 10
0.0
 20
0.0
 30
0.0
 70
   128
 71
   630
 72
   624
 73
  -623
  0
VERTEX
  5
89C
330
155
100
AcDbEntity
  8
0
100
AcDbFaceRecord
 10
0.0
 20
0.0
 30
0.0
 70
   128
 71
   624
 72
   630
 73
   631
  0
VERTEX
  5
89D
330
155
100
AcDbEntity
  8
0
100
AcDbFaceRecord
 10
0.0
 20
0.0
 30
0.0
 70
   128
 71
   631
 72
   625
 73
  -624
  0
VERTEX
  5
89E
330
155
100
AcDbEntity
  8
0
100
AcDbFaceRecord
 10
0.0
 20
0.0
 30
0.0
 70
   128
 71
   625
 72
   631
 73
   632
  0
VERTEX
  5
89F
330
155
100
AcDbEntity
  8
0
100
AcDbFaceRecord
 10
0.0
 20
0.0
 30
0.0
 70
   128
 71
   632
 72
   626
 73
  -625
  0
VERTEX
  5
8A0
330
155
100
AcDbEntity
  8
0
100
AcDbFaceRecord
 10
0.0
 20
0.0
 30
0.0
 70
   128
 71
   626
 72
   632
 73
   633
  0
VERTEX
  5
8A1
330
155
100
AcDbEntity
  8
0
100
AcDbFaceRecord
 10
0.0
 20
0.0
 30
0.0
 70
   128
 71
   633
 72
   627
 73
  -626
  0
VERTEX
  5
8A2
330
155
100
AcDbEntity
  8
0
100
AcDbFaceRecord
 10
0.0
 20
0.0
 30
0.0
 70
   128
 71
   627
 72
   633
 73
   559
  0
VERTEX
  5
8A3
330
155
100
AcDbEntity
  8
0
100
AcDbFaceRecord
 10
0.0
 20
0.0
 30
0.0
 70
   128
 71
   559
 72
   554
 73
  -627
  0
VERTEX
  5
8A4
330
155
100
AcDbEntity
  8
0
100
AcDbFaceRecord
 10
0.0
 20
0.0
 30
0.0
 70
   128
 71
   628
 72
   634
 73
   635
  0
VERTEX
  5
8A5
330
155
100
AcDbEntity
  8
0
100
AcDbFaceRecord
 10
0.0
 20
0.0
 30
0.0
 70
   128
 71
   635
 72
   629
 73
  -628
  0
VERTEX
  5
8A6
330
155
100
AcDbEntity
  8
0
100
AcDbFaceRecord
 10
0.0
 20
0.0
 30
0.0
 70
   128
 71
   629
 72
   635
 73
   636
  0
VERTEX
  5
8A7
330
155
100
AcDbEntity
  8
0
100
AcDbFaceRecord
 10
0.0
 20
0.0
 30
0.0
 70
   128
 71
   636
 72
   630
 73
  -629
  0
VERTEX
  5
8A8
330
155
100
AcDbEntity
  8
0
100
AcDbFaceRecord
 10
0.0
 20
0.0
 30
0.0
 70
   128
 71
   630
 72
   636
 73
   637
  0
VERTEX
  5
8A9
330
155
100
AcDbEntity
  8
0
100
AcDbFaceRecord
 10
0.0
 20
0.0
 30
0.0
 70
   128
 71
   637
 72
   631
 73
  -630
  0
VERTEX
  5
8AA
330
155
100
AcDbEntity
  8
0
100
AcDbFaceRecord
 10
0.0
 20
0.0
 30
0.0
 70
   128
 71
   631
 72
   637
 73
   638
  0
VERTEX
  5
8AB
330
155
100
AcDbEntity
  8
0
100
AcDbFaceRecord
 10
0.0
 20
0.0
 30
0.0
 70
   128
 71
   638
 72
   632
 73
  -631
  0
VERTEX
  5
8AC
330
155
100
AcDbEntity
  8
0
100
AcDbFaceRecord
 10
0.0
 20
0.0
 30
0.0
 70
   128
 71
   632
 72
   638
 73
   639
  0
VERTEX
  5
8AD
330
155
100
AcDbEntity
  8
0
100
AcDbFaceRecord
 10
0.0
 20
0.0
 30
0.0
 70
   128
 71
   639
 72
   633
 73
  -632
  0
VERTEX
  5
8AE
330
155
100
AcDbEntity
  8
0
100
AcDbFaceRecord
 10
0.0
 20
0.0
 30
0.0
 70
   128
 71
   633
 72
   639
 73
   564
  0
VERTEX
  5
8AF
330
155
100
AcDbEntity
  8
0
100
AcDbFaceRecord
 10
0.0
 20
0.0
 30
0.0
 70
   128
 71
   564
 72
   559
 73
  -633
  0
VERTEX
  5
8B0
330
155
100
AcDbEntity
  8
0
100
AcDbFaceRecord
 10
0.0
 20
0.0
 30
0.0
 70
   128
 71
   634
 72
   640
 73
   641
  0
VERTEX
  5
8B1
330
155
100
AcDbEntity
  8
0
100
AcDbFaceRecord
 10
0.0
 20
0.0
 30
0.0
 70
   128
 71
   641
 72
   635
 73
  -634
  0
VERTEX
  5
8B2
330
155
100
AcDbEntity
  8
0
100
AcDbFaceRecord
 10
0.0
 20
0.0
 30
0.0
 70
   128
 71
   635
 72
   641
 73
   642
  0
VERTEX
  5
8B3
330
155
100
AcDbEntity
  8
0
100
AcDbFaceRecord
 10
0.0
 20
0.0
 30
0.0
 70
   128
 71
   642
 72
   636
 73
  -635
  0
VERTEX
  5
8B4
330
155
100
AcDbEntity
  8
0
100
AcDbFaceRecord
 10
0.0
 20
0.0
 30
0.0
 70
   128
 71
   636
 72
   642
 73
   643
  0
VERTEX
  5
8B5
330
155
100
AcDbEntity
  8
0
100
AcDbFaceRecord
 10
0.0
 20
0.0
 30
0.0
 70
   128
 71
   643
 72
   637
 73
  -636
  0
VERTEX
  5
8B6
330
155
100
AcDbEntity
  8
0
100
AcDbFaceRecord
 10
0.0
 20
0.0
 30
0.0
 70
   128
 71
   637
 72
   643
 73
   644
  0
VERTEX
  5
8B7
330
155
100
AcDbEntity
  8
0
100
AcDbFaceRecord
 10
0.0
 20
0.0
 30
0.0
 70
   128
 71
   644
 72
   638
 73
  -637
  0
VERTEX
  5
8B8
330
155
100
AcDbEntity
  8
0
100
AcDbFaceRecord
 10
0.0
 20
0.0
 30
0.0
 70
   128
 71
   638
 72
   644
 73
   645
  0
VERTEX
  5
8B9
330
155
100
AcDbEntity
  8
0
100
AcDbFaceRecord
 10
0.0
 20
0.0
 30
0.0
 70
   128
 71
   645
 72
   639
 73
  -638
  0
VERTEX
  5
8BA
330
155
100
AcDbEntity
  8
0
100
AcDbFaceRecord
 10
0.0
 20
0.0
 30
0.0
 70
   128
 71
   639
 72
   645
 73
   570
  0
VERTEX
  5
8BB
330
155
100
AcDbEntity
  8
0
100
AcDbFaceRecord
 10
0.0
 20
0.0
 30
0.0
 70
   128
 71
   570
 72
   564
 73
  -639
  0
VERTEX
  5
8BC
330
155
100
AcDbEntity
  8
0
100
AcDbFaceRecord
 10
0.0
 20
0.0
 30
0.0
 70
   128
 71
   640
 72
   646
 73
   647
  0
VERTEX
  5
8BD
330
155
100
AcDbEntity
  8
0
100
AcDbFaceRecord
 10
0.0
 20
0.0
 30
0.0
 70
   128
 71
   647
 72
   641
 73
  -640
  0
VERTEX
  5
8BE
330
155
100
AcDbEntity
  8
0
100
AcDbFaceRecord
 10
0.0
 20
0.0
 30
0.0
 70
   128
 71
   641
 72
   647
 73
   648
  0
VERTEX
  5
8BF
330
155
100
AcDbEntity
  8
0
100
AcDbFaceRecord
 10
0.0
 20
0.0
 30
0.0
 70
   128
 71
   648
 72
   642
 73
  -641
  0
VERTEX
  5
8C0
330
155
100
AcDbEntity
  8
0
100
AcDbFaceRecord
 10
0.0
 20
0.0
 30
0.0
 70
   128
 71
   642
 72
   648
 73
   649
  0
VERTEX
  5
8C1
330
155
100
AcDbEntity
  8
0
100
AcDbFaceRecord
 10
0.0
 20
0.0
 30
0.0
 70
   128
 71
   649
 72
   643
 73
  -642
  0
VERTEX
  5
8C2
330
155
100
AcDbEntity
  8
0
100
AcDbFaceRecord
 10
0.0
 20
0.0
 30
0.0
 70
   128
 71
   643
 72
   649
 73
   650
  0
VERTEX
  5
8C3
330
155
100
AcDbEntity
  8
0
100
AcDbFaceRecord
 10
0.0
 20
0.0
 30
0.0
 70
   128
 71
   650
 72
   644
 73
  -643
  0
VERTEX
  5
8C4
330
155
100
AcDbEntity
  8
0
100
AcDbFaceRecord
 10
0.0
 20
0.0
 30
0.0
 70
   128
 71
   644
 72
   650
 73
   651
  0
VERTEX
  5
8C5
330
155
100
AcDbEntity
  8
0
100
AcDbFaceRecord
 10
0.0
 20
0.0
 30
0.0
 70
   128
 71
   651
 72
   645
 73
  -644
  0
VERTEX
  5
8C6
330
155
100
AcDbEntity
  8
0
100
AcDbFaceRecord
 10
0.0
 20
0.0
 30
0.0
 70
   128
 71
   645
 72
   651
 73
   575
  0
VERTEX
  5
8C7
330
155
100
AcDbEntity
  8
0
100
AcDbFaceRecord
 10
0.0
 20
0.0
 30
0.0
 70
   128
 71
   575
 72
   570
 73
  -645
  0
VERTEX
  5
8C8
330
155
100
AcDbEntity
  8
0
100
AcDbFaceRecord
 10
0.0
 20
0.0
 30
0.0
 70
   128
 71
   646
 72
   640
 73
   634
  0
VERTEX
  5
8C9
330
155
100
AcDbEntity
  8
0
100
AcDbFaceRecord
 10
0.0
 20
0.0
 30
0.0
 70
   128
 71
   646
 72
   634
 73
   628
  0
VERTEX
  5
8CA
330
155
100
AcDbEntity
  8
0
100
AcDbFaceRecord
 10
0.0
 20
0.0
 30
0.0
 70
   128
 71
   646
 72
   628
 73
   349
  0
VERTEX
  5
8CB
330
155
100
AcDbEntity
  8
0
100
AcDbFaceRecord
 10
0.0
 20
0.0
 30
0.0
 70
   128
 71
   622
 72
   349
 73
   628
  0
VERTEX
  5
8CC
330
155
100
AcDbEntity
  8
0
100
AcDbFaceRecord
 10
0.0
 20
0.0
 30
0.0
 70
   128
 71
   349
 72
   622
 73
   616
  0
VERTEX
  5
8CD
330
155
100
AcDbEntity
  8
0
100
AcDbFaceRecord
 10
0.0
 20
0.0
 30
0.0
 70
   128
 71
   349
 72
   616
 73
   610
  0
VERTEX
  5
8CE
330
155
100
AcDbEntity
  8
0
100
AcDbFaceRecord
 10
0.0
 20
0.0
 30
0.0
 70
   128
 71
   349
 72
   610
 73
   604
  0
VERTEX
  5
8CF
330
155
100
AcDbEntity
  8
0
100
AcDbFaceRecord
 10
0.0
 20
0.0
 30
0.0
 70
   128
 71
   349
 72
   604
 73
   598
  0
VERTEX
  5
8D0
330
155
100
AcDbEntity
  8
0
100
AcDbFaceRecord
 10
0.0
 20
0.0
 30
0.0
 70
   128
 71
   349
 72
   598
 73
   592
  0
VERTEX
  5
8D1
330
155
100
AcDbEntity
  8
0
100
AcDbFaceRecord
 10
0.0
 20
0.0
 30
0.0
 70
   128
 71
   349
 72
   592
 73
   586
  0
VERTEX
  5
8D2
330
155
100
AcDbEntity
  8
0
100
AcDbFaceRecord
 10
0.0
 20
0.0
 30
0.0
 70
   128
 71
   349
 72
   586
 73
   580
  0
VERTEX
  5
8D3
330
155
100
AcDbEntity
  8
0
100
AcDbFaceRecord
 10
0.0
 20
0.0
 30
0.0
 70
   128
 71
   349
 72
   580
 73
   271
  0
VERTEX
  5
8D4
330
155
100
AcDbEntity
  8
0
100
AcDbFaceRecord
 10
0.0
 20
0.0
 30
0.0
 70
   128
 71
   264
 72
   575
 73
   651
  0
VERTEX
  5
8D5
330
155
100
AcDbEntity
  8
0
100
AcDbFaceRecord
 10
0.0
 20
0.0
 30
0.0
 70
   128
 71
   264
 72
   651
 73
   650
  0
VERTEX
  5
8D6
330
155
100
AcDbEntity
  8
0
100
AcDbFaceRecord
 10
0.0
 20
0.0
 30
0.0
 70
   128
 71
   264
 72
   650
 73
   649
  0
VERTEX
  5
8D7
330
155
100
AcDbEntity
  8
0
100
AcDbFaceRecord
 10
0.0
 20
0.0
 30
0.0
 70
   128
 71
   264
 72
   649
 73
   648
  0
VERTEX
  5
8D8
330
155
100
AcDbEntity
  8
0
100
AcDbFaceRecord
 10
0.0
 20
0.0
 30
0.0
 70
   128
 71
   264
 72
   648
 73
   647
  0
VERTEX
  5
8D9
330
155
100
AcDbEntity
  8
0
100
AcDbFaceRecord
 10
0.0
 20
0.0
 30
0.0
 70
   128
 71
   264
 72
   647
 73
   646
  0
VERTEX
  5
8DA
330
155
100
AcDbEntity
  8
0
100
AcDbFaceRecord
 10
0.0
 20
0.0
 30
0.0
 70
   128
 71
   264
 72
   646
 73
   349
  0
SEQEND
  5
8DB
330
155
100
AcDbEntity
  8
0
  0
ENDSEC
  0
SECTION
  2
OBJECTS
  0
DICTIONARY
  5
C
330
0
100
AcDbDictionary
  3
ACAD_GROUP
350
D
  3
ACAD_LAYOUT
350
1A
  3
ACAD_MLINESTYLE
350
17
  3
ACAD_PLOTSETTINGS
350
19
  3
ACAD_PLOTSTYLENAME
350
E
  3
ACDBHEADERROUNDTRIPXREC
350
952
  3
ACDBVARIABLEDICTIONARY
350
8DD
  0
DICTIONARY
  5
975
330
1F
100
AcDbDictionary
280
     1
  3
ACAD_LAYOUTSELFREF
360
976
  0
DICTIONARY
  5
973
330
1B
100
AcDbDictionary
280
     1
  3
ACAD_LAYOUTSELFREF
360
974
  0
DICTIONARY
  5
D
102
{ACAD_REACTORS
330
C
102
}
330
C
100
AcDbDictionary
  0
DICTIONARY
  5
1A
102
{ACAD_REACTORS
330
C
102
}
330
C
100
AcDbDictionary
  0
DICTIONARY
  5
17
102
{ACAD_REACTORS
330
C
102
}
330
C
100
AcDbDictionary
  3
STANDARD
350
18
  0
DICTIONARY
  5
19
102
{ACAD_REACTORS
330
C
102
}
330
C
100
AcDbDictionary
  0
ACDBDICTIONARYWDFLT
  5
E
102
{ACAD_REACTORS
330
C
102
}
330
C
100
AcDbDictionary
281
     1
  3
Normal
350
F
100
AcDbDictionaryWithDefault
340
F
  0
DICTIONARY
  5
952
102
{ACAD_REACTORS
330
C
102
}
330
C
100
AcDbDictionary
  3
CEPSNTYPE
350
95C
  3
DIMSTYLEDATA
350
960
  3
FINGERPRINTGUID
350
95D
  3
HYPERLINKBASE
350
955
  3
INSUNITS
350
95B
  3
LAYOUTDICT
350
957
  3
LWETCUNION
350
95A
  3
PLOTSETDICT
350
958
  3
PLOTSTYLNAMDICT
350
959
  3
PSVPSCALE
350
95F
  3
PUCSBASE
350
963
  3
PUCSORGBACK
350
969
  3
PUCSORGBOTTOM
350
965
  3
PUCSORGFRONT
350
968
  3
PUCSORGLEFT
350
966
  3
PUCSORGRIGHT
350
967
  3
PUCSORGTOP
350
964
  3
PUCSORTHOREF
350
961
  3
PUCSORTHOVIEW
350
962
  3
STYLESHEET
350
956
  3
TSTACKALIGN
350
953
  3
TSTACKSIZE
350
954
  3
UCSBASE
350
96C
  3
UCSORGBACK
350
972
  3
UCSORGBOTTOM
350
96E
  3
UCSORGFRONT
350
971
  3
UCSORGLEFT
350
96F
  3
UCSORGRIGHT
350
970
  3
UCSORGTOP
350
96D
  3
UCSORTHOREF
350
96A
  3
UCSORTHOVIEW
350
96B
  3
VERSIONGUID
350
95E
  0
DICTIONARY
  5
8DD
102
{ACAD_REACTORS
330
C
102
}
330
C
100
AcDbDictionary
  3
DIMASSOC
350
8DF
  3
HIDETEXT
350
8DE
  0
XRECORD
  5
976
102
{ACAD_REACTORS
330
975
102
}
330
975
100
AcDbXrecord
340
1F
  0
XRECORD
  5
974
102
{ACAD_REACTORS
330
973
102
}
330
973
100
AcDbXrecord
340
1B
  0
MLINESTYLE
  5
18
102
{ACAD_REACTORS
330
17
102
}
330
17
100
AcDbMlineStyle
  2
STANDARD
 70
     0
  3

 62
   256
 51
90.0
 52
90.0
 71
     2
 49
0.5
 62
   256
  6
BYLAYER
 49
-0.5
 62
   256
  6
BYLAYER
  0
ACDBPLACEHOLDER
  5
F
102
{ACAD_REACTORS
330
E
102
}
330
E
100
AcDbPlaceHolder
280
     0
  0
XRECORD
  5
95C
102
{ACAD_REACTORS
330
952
102
}
330
952
100
AcDbXrecord
 90
        0
  0
XRECORD
  5
960
102
{ACAD_REACTORS
330
952
102
}
330
952
100
AcDbXrecord
1000
DSTYLE
1002
{
1070
   278
 70
    44
1002
}
  0
XRECORD
  5
95D
102
{ACAD_REACTORS
330
952
102
}
330
952
100
AcDbXrecord
  1
{9E20F1E1-4768-4D6D-B276-FC9B8B91980A}
  0
XRECORD
  5
955
102
{ACAD_REACTORS
330
952
102
}
330
952
100
AcDbXrecord
  1

  0
XRECORD
  5
95B
102
{ACAD_REACTORS
330
952
102
}
330
952
100
AcDbXrecord
 90
        4
  0
XRECORD
  5
957
102
{ACAD_REACTORS
330
952
102
}
330
952
100
AcDbXrecord
340
1A
  0
XRECORD
  5
95A
102
{ACAD_REACTORS
330
952
102
}
330
952
100
AcDbXrecord
 90
    10781
  0
XRECORD
  5
958
102
{ACAD_REACTORS
330
952
102
}
330
952
100
AcDbXrecord
340
19
  0
XRECORD
  5
959
102
{ACAD_REACTORS
330
952
102
}
330
952
100
AcDbXrecord
340
E
  0
XRECORD
  5
95F
102
{ACAD_REACTORS
330
952
102
}
330
952
100
AcDbXrecord
 40
0.0
  0
XRECORD
  5
963
102
{ACAD_REACTORS
330
952
102
}
330
952
100
AcDbXrecord
340
0
  0
XRECORD
  5
969
102
{ACAD_REACTORS
330
952
102
}
330
952
100
AcDbXrecord
 10
0.0
 20
0.0
 30
0.0
  0
XRECORD
  5
965
102
{ACAD_REACTORS
330
952
102
}
330
952
100
AcDbXrecord
 10
0.0
 20
0.0
 30
0.0
  0
XRECORD
  5
968
102
{ACAD_REACTORS
330
952
102
}
330
952
100
AcDbXrecord
 10
0.0
 20
0.0
 30
0.0
  0
XRECORD
  5
966
102
{ACAD_REACTORS
330
952
102
}
330
952
100
AcDbXrecord
 10
0.0
 20
0.0
 30
0.0
  0
XRECORD
  5
967
102
{ACAD_REACTORS
330
952
102
}
330
952
100
AcDbXrecord
 10
0.0
 20
0.0
 30
0.0
  0
XRECORD
  5
964
102
{ACAD_REACTORS
330
952
102
}
330
952
100
AcDbXrecord
 10
0.0
 20
0.0
 30
0.0
  0
XRECORD
  5
961
102
{ACAD_REACTORS
330
952
102
}
330
952
100
AcDbXrecord
340
0
  0
XRECORD
  5
962
102
{ACAD_REACTORS
330
952
102
}
330
952
100
AcDbXrecord
 70
     0
  0
XRECORD
  5
956
102
{ACAD_REACTORS
330
952
102
}
330
952
100
AcDbXrecord
  1

  0
XRECORD
  5
953
102
{ACAD_REACTORS
330
952
102
}
330
952
100
AcDbXrecord
 90
        1
  0
XRECORD
  5
954
102
{ACAD_REACTORS
330
952
102
}
330
952
100
AcDbXrecord
 90
       70
  0
XRECORD
  5
96C
102
{ACAD_REACTORS
330
952
102
}
330
952
100
AcDbXrecord
340
0
  0
XRECORD
  5
972
102
{ACAD_REACTORS
330
952
102
}
330
952
100
AcDbXrecord
 10
0.0
 20
0.0
 30
0.0
  0
XRECORD
  5
96E
102
{ACAD_REACTORS
330
952
102
}
330
952
100
AcDbXrecord
 10
0.0
 20
0.0
 30
0.0
  0
XRECORD
  5
971
102
{ACAD_REACTORS
330
952
102
}
330
952
100
AcDbXrecord
 10
0.0
 20
0.0
 30
0.0
  0
XRECORD
  5
96F
102
{ACAD_REACTORS
330
952
102
}
330
952
100
AcDbXrecord
 10
0.0
 20
0.0
 30
0.0
  0
XRECORD
  5
970
102
{ACAD_REACTORS
330
952
102
}
330
952
100
AcDbXrecord
 10
0.0
 20
0.0
 30
0.0
  0
XRECORD
  5
96D
102
{ACAD_REACTORS
330
952
102
}
330
952
100
AcDbXrecord
 10
0.0
 20
0.0
 30
0.0
  0
XRECORD
  5
96A
102
{ACAD_REACTORS
330
952
102
}
330
952
100
AcDbXrecord
340
0
  0
XRECORD
  5
96B
102
{ACAD_REACTORS
330
952
102
}
330
952
100
AcDbXrecord
 70
     1
  0
XRECORD
  5
95E
102
{ACAD_REACTORS
330
952
102
}
330
952
100
AcDbXrecord
  1
{04DE9CC3-4902-4C37-9BDE-41A685FFD530}
  0
DICTIONARYVAR
  5
8DF
102
{ACAD_REACTORS
330
8DD
102
}
330
8DD
100
DictionaryVariables
280
     0
  1
2
  0
DICTIONARYVAR
  5
8DE
102
{ACAD_REACTORS
330
8DD
102
}
330
8DD
100
DictionaryVariables
280
     0
  1
1
  0
ENDSEC
  0
EOF
