  0
SECTION
  2
HEADER
  9
$ACADVER
  1
AC1018
  9
$ACADMAINTVER
 70
     0
  9
$DWGCODEPAGE
  3
ANSI_936
  9
$INSBASE
 10
0.0
 20
0.0
 30
0.0
  9
$EXTMIN
 10
226.1802800169996
 20
361.7540888772718
 30
0.0
  9
$EXTMAX
 10
369.5678653040513
 20
495.7154830039412
 30
0.0
  9
$LIMMIN
 10
0.0
 20
0.0
  9
$LIMMAX
 10
12.0
 20
9.0
  9
$ORTHOMODE
 70
     0
  9
$REGENMODE
 70
     1
  9
$FILLMODE
 70
     1
  9
$QTEXTMODE
 70
     0
  9
$MIRRTEXT
 70
     1
  9
$LTSCALE
 40
1.0
  9
$ATTMODE
 70
     1
  9
$TEXTSIZE
 40
0.2
  9
$TRACEWID
 40
0.05
  9
$TEXTSTYLE
  7
Standard
  9
$CLAYER
  8
E37301
  9
$CELTYPE
  6
ByLayer
  9
$CECOLOR
 62
   256
  9
$CELTSCALE
 40
1.0
  9
$DISPSILH
 70
     0
  9
$DIMSCALE
 40
1.0
  9
$DIMASZ
 40
0.18
  9
$DIMEXO
 40
0.0625
  9
$DIMDLI
 40
0.38
  9
$DIMRND
 40
0.0
  9
$DIMDLE
 40
0.0
  9
$DIMEXE
 40
0.18
  9
$DIMTP
 40
0.0
  9
$DIMTM
 40
0.0
  9
$DIMTXT
 40
0.18
  9
$DIMCEN
 40
0.09
  9
$DIMTSZ
 40
0.0
  9
$DIMTOL
 70
     0
  9
$DIMLIM
 70
     0
  9
$DIMTIH
 70
     1
  9
$DIMTOH
 70
     1
  9
$DIMSE1
 70
     0
  9
$DIMSE2
 70
     0
  9
$DIMTAD
 70
     0
  9
$DIMZIN
 70
     0
  9
$DIMBLK
  1

  9
$DIMASO
 70
     1
  9
$DIMSHO
 70
     1
  9
$DIMPOST
  1

  9
$DIMAPOST
  1

  9
$DIMALT
 70
     0
  9
$DIMALTD
 70
     2
  9
$DIMALTF
 40
25.4
  9
$DIMLFAC
 40
1.0
  9
$DIMTOFL
 70
     0
  9
$DIMTVP
 40
0.0
  9
$DIMTIX
 70
     0
  9
$DIMSOXD
 70
     0
  9
$DIMSAH
 70
     0
  9
$DIMBLK1
  1

  9
$DIMBLK2
  1

  9
$DIMSTYLE
  2
Standard
  9
$DIMCLRD
 70
     0
  9
$DIMCLRE
 70
     0
  9
$DIMCLRT
 70
     0
  9
$DIMTFAC
 40
1.0
  9
$DIMGAP
 40
0.09
  9
$DIMJUST
 70
     0
  9
$DIMSD1
 70
     0
  9
$DIMSD2
 70
     0
  9
$DIMTOLJ
 70
     1
  9
$DIMTZIN
 70
     0
  9
$DIMALTZ
 70
     0
  9
$DIMALTTZ
 70
     0
  9
$DIMUPT
 70
     0
  9
$DIMDEC
 70
     4
  9
$DIMTDEC
 70
     4
  9
$DIMALTU
 70
     2
  9
$DIMALTTD
 70
     2
  9
$DIMTXSTY
  7
Standard
  9
$DIMAUNIT
 70
     0
  9
$DIMADEC
 70
     0
  9
$DIMALTRND
 40
0.0
  9
$DIMAZIN
 70
     0
  9
$DIMDSEP
 70
    46
  9
$DIMATFIT
 70
     3
  9
$DIMFRAC
 70
     0
  9
$DIMLDRBLK
  1

  9
$DIMLUNIT
 70
     2
  9
$DIMLWD
 70
    -2
  9
$DIMLWE
 70
    -2
  9
$DIMTMOVE
 70
     2
  9
$LUNITS
 70
     2
  9
$LUPREC
 70
     2
  9
$SKETCHINC
 40
0.1
  9
$FILLETRAD
 40
0.5
  9
$AUNITS
 70
     0
  9
$AUPREC
 70
     0
  9
$MENU
  1
.
  9
$ELEVATION
 40
0.0
  9
$PELEVATION
 40
0.0
  9
$THICKNESS
 40
0.0
  9
$LIMCHECK
 70
     0
  9
$CHAMFERA
 40
0.5
  9
$CHAMFERB
 40
0.5
  9
$CHAMFERC
 40
1.0
  9
$CHAMFERD
 40
0.0
  9
$SKPOLY
 70
     0
  9
$TDCREATE
 40
2456712.8024464
  9
$TDUCREATE
 40
2456712.469113067
  9
$TDUPDATE
 40
2456712.802447778
  9
$TDUUPDATE
 40
2456712.469114444
  9
$TDINDWG
 40
0.0000000116
  9
$TDUSRTIMER
 40
0.0000000116
  9
$USRTIMER
 70
     1
  9
$ANGBASE
 50
0.0
  9
$ANGDIR
 70
     0
  9
$PDMODE
 70
     0
  9
$PDSIZE
 40
0.0
  9
$PLINEWID
 40
0.0
  9
$SPLFRAME
 70
     0
  9
$SPLINETYPE
 70
     6
  9
$SPLINESEGS
 70
     8
  9
$HANDSEED
  5
21B
  9
$SURFTAB1
 70
     6
  9
$SURFTAB2
 70
     6
  9
$SURFTYPE
 70
     6
  9
$SURFU
 70
     6
  9
$SURFV
 70
     6
  9
$UCSBASE
  2

  9
$UCSNAME
  2

  9
$UCSORG
 10
0.0
 20
0.0
 30
0.0
  9
$UCSXDIR
 10
1.0
 20
0.0
 30
0.0
  9
$UCSYDIR
 10
0.0
 20
1.0
 30
0.0
  9
$UCSORTHOREF
  2

  9
$UCSORTHOVIEW
 70
     0
  9
$UCSORGTOP
 10
0.0
 20
0.0
 30
0.0
  9
$UCSORGBOTTOM
 10
0.0
 20
0.0
 30
0.0
  9
$UCSORGLEFT
 10
0.0
 20
0.0
 30
0.0
  9
$UCSORGRIGHT
 10
0.0
 20
0.0
 30
0.0
  9
$UCSORGFRONT
 10
0.0
 20
0.0
 30
0.0
  9
$UCSORGBACK
 10
0.0
 20
0.0
 30
0.0
  9
$PUCSBASE
  2

  9
$PUCSNAME
  2

  9
$PUCSORG
 10
0.0
 20
0.0
 30
0.0
  9
$PUCSXDIR
 10
1.0
 20
0.0
 30
0.0
  9
$PUCSYDIR
 10
0.0
 20
1.0
 30
0.0
  9
$PUCSORTHOREF
  2

  9
$PUCSORTHOVIEW
 70
     0
  9
$PUCSORGTOP
 10
0.0
 20
0.0
 30
0.0
  9
$PUCSORGBOTTOM
 10
0.0
 20
0.0
 30
0.0
  9
$PUCSORGLEFT
 10
0.0
 20
0.0
 30
0.0
  9
$PUCSORGRIGHT
 10
0.0
 20
0.0
 30
0.0
  9
$PUCSORGFRONT
 10
0.0
 20
0.0
 30
0.0
  9
$PUCSORGBACK
 10
0.0
 20
0.0
 30
0.0
  9
$USERI1
 70
     0
  9
$USERI2
 70
     0
  9
$USERI3
 70
     0
  9
$USERI4
 70
     0
  9
$USERI5
 70
     0
  9
$USERR1
 40
0.0
  9
$USERR2
 40
0.0
  9
$USERR3
 40
0.0
  9
$USERR4
 40
0.0
  9
$USERR5
 40
0.0
  9
$WORLDVIEW
 70
     1
  9
$SHADEDGE
 70
     3
  9
$SHADEDIF
 70
    70
  9
$TILEMODE
 70
     1
  9
$MAXACTVP
 70
    64
  9
$PINSBASE
 10
0.0
 20
0.0
 30
0.0
  9
$PLIMCHECK
 70
     0
  9
$PEXTMIN
 10
1.000000000000000E+20
 20
1.000000000000000E+20
 30
1.000000000000000E+20
  9
$PEXTMAX
 10
-1.000000000000000E+20
 20
-1.000000000000000E+20
 30
-1.000000000000000E+20
  9
$PLIMMIN
 10
0.0
 20
0.0
  9
$PLIMMAX
 10
12.0
 20
9.0
  9
$UNITMODE
 70
     0
  9
$VISRETAIN
 70
     1
  9
$PLINEGEN
 70
     0
  9
$PSLTSCALE
 70
     1
  9
$TREEDEPTH
 70
  3020
  9
$CMLSTYLE
  2
Standard
  9
$CMLJUST
 70
     0
  9
$CMLSCALE
 40
1.0
  9
$PROXYGRAPHICS
 70
     1
  9
$MEASUREMENT
 70
     0
  9
$CELWEIGHT
370
    -1
  9
$ENDCAPS
280
     0
  9
$JOINSTYLE
280
     0
  9
$LWDISPLAY
290
     0
  9
$INSUNITS
 70
     4
  9
$HYPERLINKBASE
  1

  9
$STYLESHEET
  1

  9
$XEDIT
290
     1
  9
$CEPSNTYPE
380
     0
  9
$PSTYLEMODE
290
     1
  9
$FINGERPRINTGUID
  2
{ADA7C3C3-205F-4ED4-847B-D3FB5CB01530}
  9
$VERSIONGUID
  2
{FAEB1C32-E019-11D5-929B-00C0DF256EC4}
  9
$EXTNAMES
290
     1
  9
$PSVPSCALE
 40
0.0
  9
$OLESTARTUP
290
     0
  9
$SORTENTS
280
   127
  9
$INDEXCTL
280
     0
  9
$HIDETEXT
280
     1
  9
$XCLIPFRAME
290
     0
  9
$HALOGAP
280
     0
  9
$OBSCOLOR
 70
   257
  9
$OBSLTYPE
280
     0
  9
$INTERSECTIONDISPLAY
280
     0
  9
$INTERSECTIONCOLOR
 70
   257
  9
$DIMASSOC
280
     2
  9
$PROJECTNAME
  1

  0
ENDSEC
  0
SECTION
  2
CLASSES
  0
CLASS
  1
ACDBDICTIONARYWDFLT
  2
AcDbDictionaryWithDefault
  3
ObjectDBX Classes
 90
        0
 91
        4
280
     0
281
     0
  0
CLASS
  1
VISUALSTYLE
  2
AcDbVisualStyle
  3
ObjectDBX Classes
 90
     4095
 91
        4
280
     0
281
     0
  0
CLASS
  1
MATERIAL
  2
AcDbMaterial
  3
ObjectDBX Classes
 90
     1153
 91
        4
280
     0
281
     0
  0
CLASS
  1
SCALE
  2
AcDbScale
  3
ObjectDBX Classes
 90
     1153
 91
        4
280
     0
281
     0
  0
CLASS
  1
SUN
  2
AcDbSun
  3
SCENEOE
 90
     1153
 91
        4
280
     0
281
     0
  0
CLASS
  1
DICTIONARYVAR
  2
AcDbDictionaryVar
  3
ObjectDBX Classes
 90
        0
 91
        4
280
     0
281
     0
  0
ENDSEC
  0
SECTION
  2
TABLES
  0
TABLE
  2
VPORT
  5
8
330
0
100
AcDbSymbolTable
 70
     1
  0
VPORT
  5
29
330
8
100
AcDbSymbolTableRecord
100
AcDbViewportTableRecord
  2
*Active
 70
     0
 10
0.0
 20
0.0
 11
1.0
 21
1.0
 12
297.8740726605254
 22
428.7347859406066
 13
0.0
 23
0.0
 14
0.5
 24
0.5
 15
0.5
 25
0.5
 16
0.0
 26
0.0
 36
1.0
 17
0.0
 27
0.0
 37
0.0
 40
136.6406220092027
 41
1.070364982552132
 42
50.0
 43
0.0
 44
0.0
 50
0.0
 51
0.0
 71
     0
 72
   100
 73
     1
 74
     3
 75
     0
 76
     0
 77
     0
 78
     0
281
     0
 65
     1
110
0.0
120
0.0
130
0.0
111
1.0
121
0.0
131
0.0
112
0.0
122
1.0
132
0.0
 79
     0
146
0.0
  0
ENDTAB
  0
TABLE
  2
LTYPE
  5
5
330
0
100
AcDbSymbolTable
 70
     1
  0
LTYPE
  5
14
330
5
100
AcDbSymbolTableRecord
100
AcDbLinetypeTableRecord
  2
ByBlock
 70
     0
  3

 72
    65
 73
     0
 40
0.0
  0
LTYPE
  5
15
330
5
100
AcDbSymbolTableRecord
100
AcDbLinetypeTableRecord
  2
ByLayer
 70
     0
  3

 72
    65
 73
     0
 40
0.0
  0
LTYPE
  5
16
330
5
100
AcDbSymbolTableRecord
100
AcDbLinetypeTableRecord
  2
Continuous
 70
     0
  3
Solid line
 72
    65
 73
     0
 40
0.0
  0
ENDTAB
  0
TABLE
  2
LAYER
  5
2
330
0
100
AcDbSymbolTable
 70
     3
  0
LAYER
  5
10
330
2
100
AcDbSymbolTableRecord
100
AcDbLayerTableRecord
  2
0
 70
     0
 62
     7
  6
Continuous
370
    -3
390
F
  0
LAYER
  5
62
330
2
100
AcDbSymbolTableRecord
100
AcDbLayerTableRecord
  2
Make2D$可见线$普通线
 70
     0
 62
    18
420
        0
  6
Continuous
370
    -3
390
F
  0
LAYER
  5
A9
330
2
100
AcDbSymbolTableRecord
100
AcDbLayerTableRecord
  2
E37301
 70
     0
 62
    18
420
        0
  6
Continuous
370
    -3
390
F
  0
ENDTAB
  0
TABLE
  2
STYLE
  5
3
330
0
100
AcDbSymbolTable
 70
     1
  0
STYLE
  5
11
330
3
100
AcDbSymbolTableRecord
100
AcDbTextStyleTableRecord
  2
Standard
 70
     0
 40
0.0
 41
1.0
 50
0.0
 71
     0
 42
0.2
  3
txt
  4

  0
ENDTAB
  0
TABLE
  2
VIEW
  5
6
330
0
100
AcDbSymbolTable
 70
     0
  0
ENDTAB
  0
TABLE
  2
UCS
  5
7
330
0
100
AcDbSymbolTable
 70
     0
  0
ENDTAB
  0
TABLE
  2
APPID
  5
9
330
0
100
AcDbSymbolTable
 70
     1
  0
APPID
  5
12
330
9
100
AcDbSymbolTableRecord
100
AcDbRegAppTableRecord
  2
ACAD
 70
     0
  0
ENDTAB
  0
TABLE
  2
DIMSTYLE
  5
A
330
0
100
AcDbSymbolTable
 70
     1
100
AcDbDimStyleTable
  0
DIMSTYLE
105
27
330
A
100
AcDbSymbolTableRecord
100
AcDbDimStyleTableRecord
  2
Standard
 70
     0
178
     0
340
11
  0
ENDTAB
  0
TABLE
  2
BLOCK_RECORD
  5
1
330
0
100
AcDbSymbolTable
 70
     1
  0
BLOCK_RECORD
  5
1F
330
1
100
AcDbSymbolTableRecord
100
AcDbBlockTableRecord
  2
*Model_Space
340
22
  0
BLOCK_RECORD
  5
1B
330
1
100
AcDbSymbolTableRecord
100
AcDbBlockTableRecord
  2
*Paper_Space
340
1E
  0
BLOCK_RECORD
  5
23
330
1
100
AcDbSymbolTableRecord
100
AcDbBlockTableRecord
  2
*Paper_Space0
340
26
  0
ENDTAB
  0
ENDSEC
  0
SECTION
  2
BLOCKS
  0
BLOCK
  5
20
330
1F
100
AcDbEntity
  8
0
100
AcDbBlockBegin
  2
*Model_Space
 70
     0
 10
0.0
 20
0.0
 30
0.0
  3
*Model_Space
  1
*Model_Space
  0
ENDBLK
  5
21
330
1F
100
AcDbEntity
  8
0
100
AcDbBlockEnd
  0
BLOCK
  5
1C
330
1B
100
AcDbEntity
 67
     1
  8
0
100
AcDbBlockBegin
  2
*Paper_Space
 70
     0
 10
0.0
 20
0.0
 30
0.0
  3
*Paper_Space
  1
*Paper_Space
  0
ENDBLK
  5
1D
330
1B
100
AcDbEntity
 67
     1
  8
0
100
AcDbBlockEnd
  0
BLOCK
  5
24
330
23
100
AcDbEntity
  8
0
100
AcDbBlockBegin
  2
*Paper_Space0
 70
     0
 10
0.0
 20
0.0
 30
0.0
  3
*Paper_Space0
  1
*Paper_Space0
  0
ENDBLK
  5
25
330
23
100
AcDbEntity
  8
0
100
AcDbBlockEnd
  0
ENDSEC
  0
SECTION
  2
ENTITIES
  0
POLYLINE
  5
63
330
1F
100
AcDbEntity
  8
Make2D$可见线$普通线
100
AcDb2dPolyline
 66
     1
 10
0.0
 20
0.0
 30
0.0
  0
VERTEX
  5
64
330
63
100
AcDbEntity
  8
Make2D$可见线$普通线
100
AcDbVertex
100
AcDb2dVertex
 10
230.5733298334828
 20
406.7604361179775
 30
0.0
  0
VERTEX
  5
65
330
63
100
AcDbEntity
  8
Make2D$可见线$普通线
100
AcDbVertex
100
AcDb2dVertex
 10
228.4302800273267
 20
406.7604361179776
 30
0.0
 42
-0.9999999999999619
  0
VERTEX
  5
66
330
63
100
AcDbEntity
  8
Make2D$可见线$普通线
100
AcDbVertex
100
AcDb2dVertex
 10
228.4302800066721
 20
411.2604361179775
 30
0.0
  0
VERTEX
  5
67
330
63
100
AcDbEntity
  8
Make2D$可见线$普通线
100
AcDbVertex
100
AcDb2dVertex
 10
230.5729079830684
 20
411.2604361179775
 30
0.0
  0
SEQEND
  5
68
330
63
100
AcDbEntity
  8
Make2D$可见线$普通线
  0
POLYLINE
  5
69
330
1F
100
AcDbEntity
  8
Make2D$可见线$普通线
100
AcDb2dPolyline
 66
     1
 10
0.0
 20
0.0
 30
0.0
  0
VERTEX
  5
6A
330
69
100
AcDbEntity
  8
Make2D$可见线$普通线
100
AcDbVertex
100
AcDb2dVertex
 10
231.791313834159
 20
464.6872230907985
 30
0.0
  0
VERTEX
  5
6B
330
69
100
AcDbEntity
  8
Make2D$可见线$普通线
100
AcDbVertex
100
AcDb2dVertex
 10
232.3988842369868
 20
464.6829091361345
 30
0.0
  0
VERTEX
  5
6C
330
69
100
AcDbEntity
  8
Make2D$可见线$普通线
100
AcDbVertex
100
AcDb2dVertex
 10
232.48455150709
 20
464.6829092268244
 30
0.0
  0
VERTEX
  5
6D
330
69
100
AcDbEntity
  8
Make2D$可见线$普通线
100
AcDbVertex
100
AcDb2dVertex
 10
274.7498273935088
 20
464.6829091361345
 30
0.0
  0
SEQEND
  5
6E
330
69
100
AcDbEntity
  8
Make2D$可见线$普通线
  0
POLYLINE
  5
6F
330
1F
100
AcDbEntity
  8
Make2D$可见线$普通线
100
AcDb2dPolyline
 66
     1
 10
0.0
 20
0.0
 30
0.0
  0
VERTEX
  5
70
330
6F
100
AcDbEntity
  8
Make2D$可见线$普通线
100
AcDbVertex
100
AcDb2dVertex
 10
275.3395566438263
 20
362.7546821422161
 30
0.0
  0
VERTEX
  5
71
330
6F
100
AcDbEntity
  8
Make2D$可见线$普通线
100
AcDbVertex
100
AcDb2dVertex
 10
275.3368759243959
 20
361.7540888772718
 30
0.0
  0
VERTEX
  5
72
330
6F
100
AcDbEntity
  8
Make2D$可见线$普通线
100
AcDbVertex
100
AcDb2dVertex
 10
231.8143724250211
 20
361.754088877272
 30
0.0
  0
VERTEX
  5
73
330
6F
100
AcDbEntity
  8
Make2D$可见线$普通线
100
AcDbVertex
100
AcDb2dVertex
 10
231.8143724250211
 20
362.7546821422161
 30
0.0
  0
SEQEND
  5
74
330
6F
100
AcDbEntity
  8
Make2D$可见线$普通线
  0
POLYLINE
  5
75
330
1F
100
AcDbEntity
  8
Make2D$可见线$普通线
100
AcDb2dPolyline
 66
     1
 10
0.0
 20
0.0
 30
0.0
  0
VERTEX
  5
76
330
75
100
AcDbEntity
  8
Make2D$可见线$普通线
100
AcDbVertex
100
AcDb2dVertex
 10
230.5730626474719
 20
409.6105863342195
 30
0.0
 42
0.0555245597320956
  0
VERTEX
  5
77
330
75
100
AcDbEntity
  8
Make2D$可见线$普通线
100
AcDbVertex
100
AcDb2dVertex
 10
230.5085865468609
 20
409.0104361179776
 30
0.0
 42
0.0555722396548649
  0
VERTEX
  5
78
330
75
100
AcDbEntity
  8
Make2D$可见线$普通线
100
AcDbVertex
100
AcDb2dVertex
 10
230.5731752167032
 20
408.4097778869916
 30
0.0
  0
SEQEND
  5
79
330
75
100
AcDbEntity
  8
Make2D$可见线$普通线
  0
POLYLINE
  5
7A
330
1F
100
AcDbEntity
  8
Make2D$可见线$普通线
100
AcDb2dPolyline
 66
     1
 10
0.0
 20
0.0
 30
0.0
  0
VERTEX
  5
7B
330
7A
100
AcDbEntity
  8
Make2D$可见线$普通线
100
AcDbVertex
100
AcDb2dVertex
 10
357.5528116339872
 20
413.531480426559
 30
0.0
  0
VERTEX
  5
7C
330
7A
100
AcDbEntity
  8
Make2D$可见线$普通线
100
AcDbVertex
100
AcDb2dVertex
 10
358.3597118811797
 20
413.3005070308623
 30
0.0
  0
VERTEX
  5
7D
330
7A
100
AcDbEntity
  8
Make2D$可见线$普通线
100
AcDbVertex
100
AcDb2dVertex
 10
358.6707184300751
 20
413.2040257810138
 30
0.0
  0
VERTEX
  5
7E
330
7A
100
AcDbEntity
  8
Make2D$可见线$普通线
100
AcDbVertex
100
AcDb2dVertex
 10
358.8433617376937
 20
413.1488302532406
 30
0.0
  0
SEQEND
  5
7F
330
7A
100
AcDbEntity
  8
Make2D$可见线$普通线
  0
POLYLINE
  5
80
330
1F
100
AcDbEntity
  8
Make2D$可见线$普通线
100
AcDb2dPolyline
 66
     1
 10
0.0
 20
0.0
 30
0.0
  0
VERTEX
  5
81
330
80
100
AcDbEntity
  8
Make2D$可见线$普通线
100
AcDbVertex
100
AcDb2dVertex
 10
364.6219246061288
 20
410.8720671308585
 30
0.0
  0
VERTEX
  5
82
330
80
100
AcDbEntity
  8
Make2D$可见线$普通线
100
AcDbVertex
100
AcDb2dVertex
 10
360.0565479171566
 20
412.6456729853993
 30
0.0
 42
0.0376043854553058
  0
VERTEX
  5
83
330
80
100
AcDbEntity
  8
Make2D$可见线$普通线
100
AcDbVertex
100
AcDb2dVertex
 10
356.0893045832402
 20
413.8454766735452
 30
0.0
  0
VERTEX
  5
84
330
80
100
AcDbEntity
  8
Make2D$可见线$普通线
100
AcDbVertex
100
AcDb2dVertex
 10
355.9278825748816
 20
413.8778461109617
 30
0.0
  0
VERTEX
  5
85
330
80
100
AcDbEntity
  8
Make2D$可见线$普通线
100
AcDbVertex
100
AcDb2dVertex
 10
355.2150803850358
 20
414.0004208683494
 30
0.0
  0
SEQEND
  5
86
330
80
100
AcDbEntity
  8
Make2D$可见线$普通线
  0
POLYLINE
  5
87
330
1F
100
AcDbEntity
  8
Make2D$可见线$普通线
100
AcDb2dPolyline
 66
     1
 10
0.0
 20
0.0
 30
0.0
  0
VERTEX
  5
88
330
87
100
AcDbEntity
  8
Make2D$可见线$普通线
100
AcDbVertex
100
AcDb2dVertex
 10
355.3006497482502
 20
413.9972016940968
 30
0.0
  0
VERTEX
  5
89
330
87
100
AcDbEntity
  8
Make2D$可见线$普通线
100
AcDbVertex
100
AcDb2dVertex
 10
355.441924526238
 20
413.9779304929133
 30
0.0
  0
VERTEX
  5
8A
330
87
100
AcDbEntity
  8
Make2D$可见线$普通线
100
AcDbVertex
100
AcDb2dVertex
 10
355.3009626379593
 20
413.9994387058723
 30
0.0
  0
VERTEX
  5
8B
330
87
100
AcDbEntity
  8
Make2D$可见线$普通线
100
AcDbVertex
100
AcDb2dVertex
 10
355.110227969205
 20
414.0242843379796
 30
0.0
  0
VERTEX
  5
8C
330
87
100
AcDbEntity
  8
Make2D$可见线$普通线
100
AcDbVertex
100
AcDb2dVertex
 10
355.0259404072729
 20
414.0353968758237
 30
0.0
  0
VERTEX
  5
8D
330
87
100
AcDbEntity
  8
Make2D$可见线$普通线
100
AcDbVertex
100
AcDb2dVertex
 10
354.9326329010439
 20
414.047286851164
 30
0.0
  0
VERTEX
  5
8E
330
87
100
AcDbEntity
  8
Make2D$可见线$普通线
100
AcDbVertex
100
AcDb2dVertex
 10
354.838797074073
 20
414.0580993935887
 30
0.0
  0
VERTEX
  5
8F
330
87
100
AcDbEntity
  8
Make2D$可见线$普通线
100
AcDbVertex
100
AcDb2dVertex
 10
354.3739903465328
 20
414.1033209804639
 30
0.0
  0
VERTEX
  5
90
330
87
100
AcDbEntity
  8
Make2D$可见线$普通线
100
AcDbVertex
100
AcDb2dVertex
 10
354.2818247039677
 20
414.1105919534447
 30
0.0
  0
VERTEX
  5
91
330
87
100
AcDbEntity
  8
Make2D$可见线$普通线
100
AcDbVertex
100
AcDb2dVertex
 10
353.7290489916016
 20
414.1420060786443
 30
0.0
  0
VERTEX
  5
92
330
87
100
AcDbEntity
  8
Make2D$可见线$普通线
100
AcDbVertex
100
AcDb2dVertex
 10
353.6205476593286
 20
414.1456555795559
 30
0.0
  0
VERTEX
  5
93
330
87
100
AcDbEntity
  8
Make2D$可见线$普通线
100
AcDbVertex
100
AcDb2dVertex
 10
353.3397760115989
 20
414.1511375003543
 30
0.0
  0
SEQEND
  5
94
330
87
100
AcDbEntity
  8
Make2D$可见线$普通线
  0
POLYLINE
  5
95
330
1F
100
AcDbEntity
  8
Make2D$可见线$普通线
100
AcDb2dPolyline
 66
     1
 10
0.0
 20
0.0
 30
0.0
  0
VERTEX
  5
96
330
95
100
AcDbEntity
  8
Make2D$可见线$普通线
100
AcDbVertex
100
AcDb2dVertex
 10
352.9662355777215
 20
414.149181318905
 30
0.0
  0
VERTEX
  5
97
330
95
100
AcDbEntity
  8
Make2D$可见线$普通线
100
AcDbVertex
100
AcDb2dVertex
 10
352.2625926457172
 20
414.11523209197
 30
0.0
  0
VERTEX
  5
98
330
95
100
AcDbEntity
  8
Make2D$可见线$普通线
100
AcDbVertex
100
AcDb2dVertex
 10
351.8877703923025
 20
414.0796754647751
 30
0.0
  0
VERTEX
  5
99
330
95
100
AcDbEntity
  8
Make2D$可见线$普通线
100
AcDbVertex
100
AcDb2dVertex
 10
351.8730999276498
 20
414.0780268234336
 30
0.0
  0
VERTEX
  5
9A
330
95
100
AcDbEntity
  8
Make2D$可见线$普通线
100
AcDbVertex
100
AcDb2dVertex
 10
351.4866476274016
 20
414.0273673915264
 30
0.0
  0
VERTEX
  5
9B
330
95
100
AcDbEntity
  8
Make2D$可见线$普通线
100
AcDbVertex
100
AcDb2dVertex
 10
351.463724858164
 20
414.0239149396837
 30
0.0
  0
VERTEX
  5
9C
330
95
100
AcDbEntity
  8
Make2D$可见线$普通线
100
AcDbVertex
100
AcDb2dVertex
 10
351.1043067652146
 20
413.9629308630813
 30
0.0
 42
0.0295023496341645
  0
VERTEX
  5
9D
330
95
100
AcDbEntity
  8
Make2D$可见线$普通线
100
AcDbVertex
100
AcDb2dVertex
 10
350.0431900420963
 20
413.6983692883717
 30
0.0
  0
SEQEND
  5
9E
330
95
100
AcDbEntity
  8
Make2D$可见线$普通线
  0
POLYLINE
  5
9F
330
1F
100
AcDbEntity
  8
Make2D$可见线$普通线
100
AcDb2dPolyline
 66
     1
 10
0.0
 20
0.0
 30
0.0
  0
VERTEX
  5
A0
330
9F
100
AcDbEntity
  8
Make2D$可见线$普通线
100
AcDbVertex
100
AcDb2dVertex
 10
349.8508191992264
 20
413.6350385208995
 30
0.0
 42
0.0352273369322369
  0
VERTEX
  5
A1
330
9F
100
AcDbEntity
  8
Make2D$可见线$普通线
100
AcDbVertex
100
AcDb2dVertex
 10
348.6418048760066
 20
413.1228052972698
 30
0.0
 42
0.036655039308172
  0
VERTEX
  5
A2
330
9F
100
AcDbEntity
  8
Make2D$可见线$普通线
100
AcDbVertex
100
AcDb2dVertex
 10
346.8909228423257
 20
412.0489058323333
 30
0.0
  0
VERTEX
  5
A3
330
9F
100
AcDbEntity
  8
Make2D$可见线$普通线
100
AcDbVertex
100
AcDb2dVertex
 10
345.9669474410367
 20
411.355867123288
 30
0.0
  0
SEQEND
  5
A4
330
9F
100
AcDbEntity
  8
Make2D$可见线$普通线
  0
ARC
  5
A5
330
1F
100
AcDbEntity
  8
Make2D$可见线$普通线
100
AcDbCircle
 10
-430.1821984304656
 20
427.221393900078
 30
0.0
 40
799.7500637345169
100
AcDbArc
 50
358.8317022122617
 51
1.16829778773753
  0
LINE
  5
A6
330
1F
100
AcDbEntity
  8
Make2D$可见线$普通线
100
AcDbLine
 10
356.4532439602218
 20
413.7954855689388
 30
0.0
 11
356.5918994341134
 21
413.7657093890454
 31
0.0
  0
LINE
  5
A7
330
1F
100
AcDbEntity
  8
Make2D$可见线$普通线
100
AcDbLine
 10
356.6278164677156
 20
413.7578236880953
 30
0.0
 11
357.0415736419836
 21
413.6619967308824
 31
0.0
  0
LINE
  5
A8
330
1F
100
AcDbEntity
  8
Make2D$可见线$普通线
100
AcDbLine
 10
357.1118573706709
 20
413.6448290653327
 30
0.0
 11
357.4862083741926
 21
413.5492111578207
 31
0.0
  0
POLYLINE
  5
AA
330
1F
100
AcDbEntity
  8
E37301
100
AcDb2dPolyline
 66
     1
 10
0.0
 20
0.0
 30
0.0
  0
VERTEX
  5
AB
330
AA
100
AcDbEntity
  8
E37301
100
AcDbVertex
100
AcDb2dVertex
 10
350.6472687391339
 20
413.8349215102248
 30
0.0
 42
0.0502135269727431
  0
VERTEX
  5
AC
330
AA
100
AcDbEntity
  8
E37301
100
AcDbVertex
100
AcDb2dVertex
 10
348.996505357444
 20
413.2216730374062
 30
0.0
 42
0.0360655117782971
  0
VERTEX
  5
AD
330
AA
100
AcDbEntity
  8
E37301
100
AcDbVertex
100
AcDb2dVertex
 10
347.275509677292
 20
412.2104694919004
 30
0.0
  0
VERTEX
  5
AE
330
AA
100
AcDbEntity
  8
E37301
100
AcDbVertex
100
AcDb2dVertex
 10
345.5017044657595
 20
410.9778809614259
 30
0.0
  0
VERTEX
  5
AF
330
AA
100
AcDbEntity
  8
E37301
100
AcDbVertex
100
AcDb2dVertex
 10
345.4897562732331
 20
410.9716024803478
 30
0.0
 42
-0.1763025954594553
  0
VERTEX
  5
B0
330
AA
100
AcDbEntity
  8
E37301
100
AcDbVertex
100
AcDb2dVertex
 10
344.8264805172611
 20
410.7212973424516
 30
0.0
  0
VERTEX
  5
B1
330
AA
100
AcDbEntity
  8
E37301
100
AcDbVertex
100
AcDb2dVertex
 10
286.5803403699375
 20
410.7213585339095
 30
0.0
 42
0.4141597362795881
  0
VERTEX
  5
B2
330
AA
100
AcDbEntity
  8
E37301
100
AcDbVertex
100
AcDb2dVertex
 10
276.5803300350767
 20
400.723206812329
 30
0.0
  0
VERTEX
  5
B3
330
AA
100
AcDbEntity
  8
E37301
100
AcDbVertex
100
AcDb2dVertex
 10
276.5733123920061
 20
362.7546686054505
 30
0.0
  0
VERTEX
  5
B4
330
AA
100
AcDbEntity
  8
E37301
100
AcDbVertex
100
AcDb2dVertex
 10
230.600320439831
 20
362.7546409150804
 30
0.0
  0
VERTEX
  5
B5
330
AA
100
AcDbEntity
  8
E37301
100
AcDbVertex
100
AcDb2dVertex
 10
230.5777836746886
 20
362.7546409150804
 30
0.0
  0
VERTEX
  5
B6
330
AA
100
AcDbEntity
  8
E37301
100
AcDbVertex
100
AcDb2dVertex
 10
230.5687441595165
 20
455.6771424821939
 30
0.0
  0
VERTEX
  5
B7
330
AA
100
AcDbEntity
  8
E37301
100
AcDbVertex
100
AcDb2dVertex
 10
230.5735229593347
 20
456.1379612655815
 30
0.0
  0
VERTEX
  5
B8
330
AA
100
AcDbEntity
  8
E37301
100
AcDbVertex
100
AcDb2dVertex
 10
230.5876171062758
 20
456.5929997882863
 30
0.0
  0
VERTEX
  5
B9
330
AA
100
AcDbEntity
  8
E37301
100
AcDbVertex
100
AcDb2dVertex
 10
230.610433214557
 20
457.0416787295644
 30
0.0
  0
VERTEX
  5
BA
330
AA
100
AcDbEntity
  8
E37301
100
AcDbVertex
100
AcDb2dVertex
 10
230.6413778983957
 20
457.4834187686714
 30
0.0
  0
VERTEX
  5
BB
330
AA
100
AcDbEntity
  8
E37301
100
AcDbVertex
100
AcDb2dVertex
 10
230.6798577720091
 20
457.917640584863
 30
0.0
  0
VERTEX
  5
BC
330
AA
100
AcDbEntity
  8
E37301
100
AcDbVertex
100
AcDb2dVertex
 10
230.7252794496145
 20
458.3437648573951
 30
0.0
  0
VERTEX
  5
BD
330
AA
100
AcDbEntity
  8
E37301
100
AcDbVertex
100
AcDb2dVertex
 10
230.8345746736706
 20
459.1694034885035
 30
0.0
  0
VERTEX
  5
BE
330
AA
100
AcDbEntity
  8
E37301
100
AcDbVertex
100
AcDb2dVertex
 10
230.9645164843022
 20
459.9557000960428
 30
0.0
  0
VERTEX
  5
BF
330
AA
100
AcDbEntity
  8
E37301
100
AcDbVertex
100
AcDb2dVertex
 10
231.1103577952478
 20
460.6980201140591
 30
0.0
  0
VERTEX
  5
C0
330
AA
100
AcDbEntity
  8
E37301
100
AcDbVertex
100
AcDb2dVertex
 10
231.2673515202455
 20
461.3917289765984
 30
0.0
  0
VERTEX
  5
C1
330
AA
100
AcDbEntity
  8
E37301
100
AcDbVertex
100
AcDb2dVertex
 10
231.4307505730338
 20
462.032192117707
 30
0.0
  0
VERTEX
  5
C2
330
AA
100
AcDbEntity
  8
E37301
100
AcDbVertex
100
AcDb2dVertex
 10
231.595807867351
 20
462.614774971431
 30
0.0
  0
VERTEX
  5
C3
330
AA
100
AcDbEntity
  8
E37301
100
AcDbVertex
100
AcDb2dVertex
 10
231.7577763169354
 20
463.1348429718163
 30
0.0
  0
VERTEX
  5
C4
330
AA
100
AcDbEntity
  8
E37301
100
AcDbVertex
100
AcDb2dVertex
 10
231.9119088355253
 20
463.5877615529092
 30
0.0
  0
VERTEX
  5
C5
330
AA
100
AcDbEntity
  8
E37301
100
AcDbVertex
100
AcDb2dVertex
 10
232.053458336859
 20
463.9688961487557
 30
0.0
  0
VERTEX
  5
C6
330
AA
100
AcDbEntity
  8
E37301
100
AcDbVertex
100
AcDb2dVertex
 10
232.1180309915981
 20
464.1310961503509
 30
0.0
  0
VERTEX
  5
C7
330
AA
100
AcDbEntity
  8
E37301
100
AcDbVertex
100
AcDb2dVertex
 10
232.1776777346749
 20
464.273612193402
 30
0.0
  0
VERTEX
  5
C8
330
AA
100
AcDbEntity
  8
E37301
100
AcDbVertex
100
AcDb2dVertex
 10
232.2318051803069
 20
464.3958649571644
 30
0.0
  0
VERTEX
  5
C9
330
AA
100
AcDbEntity
  8
E37301
100
AcDbVertex
100
AcDb2dVertex
 10
232.2798199427114
 20
464.497275120894
 30
0.0
  0
VERTEX
  5
CA
330
AA
100
AcDbEntity
  8
E37301
100
AcDbVertex
100
AcDb2dVertex
 10
232.3013496346461
 20
464.5399831900139
 30
0.0
  0
VERTEX
  5
CB
330
AA
100
AcDbEntity
  8
E37301
100
AcDbVertex
100
AcDb2dVertex
 10
232.3211286361054
 20
464.5772633638467
 30
0.0
  0
VERTEX
  5
CC
330
AA
100
AcDbEntity
  8
E37301
100
AcDbVertex
100
AcDb2dVertex
 10
232.3390827738665
 20
464.609043227299
 30
0.0
  0
VERTEX
  5
CD
330
AA
100
AcDbEntity
  8
E37301
100
AcDbVertex
100
AcDb2dVertex
 10
232.3473523397281
 20
464.622847912916
 30
0.0
  0
VERTEX
  5
CE
330
AA
100
AcDbEntity
  8
E37301
100
AcDbVertex
100
AcDb2dVertex
 10
232.3551378747065
 20
464.6352503652781
 30
0.0
  0
VERTEX
  5
CF
330
AA
100
AcDbEntity
  8
E37301
100
AcDbVertex
100
AcDb2dVertex
 10
232.362430107149
 20
464.6462415324985
 30
0.0
  0
VERTEX
  5
D0
330
AA
100
AcDbEntity
  8
E37301
100
AcDbVertex
100
AcDb2dVertex
 10
232.3658883375277
 20
464.651205055466
 30
0.0
  0
VERTEX
  5
D1
330
AA
100
AcDbEntity
  8
E37301
100
AcDbVertex
100
AcDb2dVertex
 10
232.3692197654026
 20
464.6558123626907
 30
0.0
  0
VERTEX
  5
D2
330
AA
100
AcDbEntity
  8
E37301
100
AcDbVertex
100
AcDb2dVertex
 10
232.3724232318171
 20
464.6600623226867
 30
0.0
  0
VERTEX
  5
D3
330
AA
100
AcDbEntity
  8
E37301
100
AcDbVertex
100
AcDb2dVertex
 10
232.3754975778146
 20
464.6639538039681
 30
0.0
  0
VERTEX
  5
D4
330
AA
100
AcDbEntity
  8
E37301
100
AcDbVertex
100
AcDb2dVertex
 10
232.3784416444384
 20
464.6674856750491
 30
0.0
  0
VERTEX
  5
D5
330
AA
100
AcDbEntity
  8
E37301
100
AcDbVertex
100
AcDb2dVertex
 10
232.381254272732
 20
464.670656804444
 30
0.0
  0
VERTEX
  5
D6
330
AA
100
AcDbEntity
  8
E37301
100
AcDbVertex
100
AcDb2dVertex
 10
232.3839343037387
 20
464.6734660606668
 30
0.0
  0
VERTEX
  5
D7
330
AA
100
AcDbEntity
  8
E37301
100
AcDbVertex
100
AcDb2dVertex
 10
232.386480578502
 20
464.6759123122318
 30
0.0
  0
VERTEX
  5
D8
330
AA
100
AcDbEntity
  8
E37301
100
AcDbVertex
100
AcDb2dVertex
 10
232.3888919380652
 20
464.6779944276531
 30
0.0
  0
VERTEX
  5
D9
330
AA
100
AcDbEntity
  8
E37301
100
AcDbVertex
100
AcDb2dVertex
 10
232.3911672234717
 20
464.6797112754448
 30
0.0
  0
VERTEX
  5
DA
330
AA
100
AcDbEntity
  8
E37301
100
AcDbVertex
100
AcDb2dVertex
 10
232.3933052757649
 20
464.6810617241213
 30
0.0
  0
VERTEX
  5
DB
330
AA
100
AcDbEntity
  8
E37301
100
AcDbVertex
100
AcDb2dVertex
 10
232.3953049359883
 20
464.6820446421965
 30
0.0
  0
VERTEX
  5
DC
330
AA
100
AcDbEntity
  8
E37301
100
AcDbVertex
100
AcDb2dVertex
 10
232.3971650451852
 20
464.6826588981847
 30
0.0
  0
VERTEX
  5
DD
330
AA
100
AcDbEntity
  8
E37301
100
AcDbVertex
100
AcDb2dVertex
 10
232.398884444399
 20
464.6829033606002
 30
0.0
  0
SEQEND
  5
DE
330
AA
100
AcDbEntity
  8
E37301
  0
POLYLINE
  5
DF
330
1F
100
AcDbEntity
  8
E37301
100
AcDb2dPolyline
 66
     1
 10
0.0
 20
0.0
 30
0.0
  0
VERTEX
  5
E0
330
DF
100
AcDbEntity
  8
E37301
100
AcDbVertex
100
AcDb2dVertex
 10
275.1790611906681
 20
464.6859197952123
 30
0.0
  0
VERTEX
  5
E1
330
DF
100
AcDbEntity
  8
E37301
100
AcDbVertex
100
AcDb2dVertex
 10
274.754928782224
 20
464.6829092268244
 30
0.0
  0
VERTEX
  5
E2
330
DF
100
AcDbEntity
  8
E37301
100
AcDbVertex
100
AcDb2dVertex
 10
274.7566363054057
 20
464.6826973579392
 30
0.0
  0
VERTEX
  5
E3
330
DF
100
AcDbEntity
  8
E37301
100
AcDbVertex
100
AcDb2dVertex
 10
274.7584847403219
 20
464.6821153405696
 30
0.0
  0
VERTEX
  5
E4
330
DF
100
AcDbEntity
  8
E37301
100
AcDbVertex
100
AcDb2dVertex
 10
274.7604729268066
 20
464.6811643073732
 30
0.0
  0
VERTEX
  5
E5
330
DF
100
AcDbEntity
  8
E37301
100
AcDbVertex
100
AcDb2dVertex
 10
274.762599704694
 20
464.6798453910075
 30
0.0
  0
VERTEX
  5
E6
330
DF
100
AcDbEntity
  8
E37301
100
AcDbVertex
100
AcDb2dVertex
 10
274.7648639138181
 20
464.6781597241302
 30
0.0
  0
VERTEX
  5
E7
330
DF
100
AcDbEntity
  8
E37301
100
AcDbVertex
100
AcDb2dVertex
 10
274.7672643940131
 20
464.6761084393989
 30
0.0
  0
VERTEX
  5
E8
330
DF
100
AcDbEntity
  8
E37301
100
AcDbVertex
100
AcDb2dVertex
 10
274.7697999851129
 20
464.6736926694712
 30
0.0
  0
VERTEX
  5
E9
330
DF
100
AcDbEntity
  8
E37301
100
AcDbVertex
100
AcDb2dVertex
 10
274.7724695269517
 20
464.6709135470045
 30
0.0
  0
VERTEX
  5
EA
330
DF
100
AcDbEntity
  8
E37301
100
AcDbVertex
100
AcDb2dVertex
 10
274.7752718593634
 20
464.6677722046566
 30
0.0
  0
VERTEX
  5
EB
330
DF
100
AcDbEntity
  8
E37301
100
AcDbVertex
100
AcDb2dVertex
 10
274.7782058221824
 20
464.664269775085
 30
0.0
  0
VERTEX
  5
EC
330
DF
100
AcDbEntity
  8
E37301
100
AcDbVertex
100
AcDb2dVertex
 10
274.7812702552425
 20
464.6604073909473
 30
0.0
  0
VERTEX
  5
ED
330
DF
100
AcDbEntity
  8
E37301
100
AcDbVertex
100
AcDb2dVertex
 10
274.7844639983778
 20
464.656186184901
 30
0.0
  0
VERTEX
  5
EE
330
DF
100
AcDbEntity
  8
E37301
100
AcDbVertex
100
AcDb2dVertex
 10
274.7877858914225
 20
464.6516072896038
 30
0.0
  0
VERTEX
  5
EF
330
DF
100
AcDbEntity
  8
E37301
100
AcDbVertex
100
AcDb2dVertex
 10
274.7912347742107
 20
464.6466718377133
 30
0.0
  0
VERTEX
  5
F0
330
DF
100
AcDbEntity
  8
E37301
100
AcDbVertex
100
AcDb2dVertex
 10
274.7985088683535
 20
464.6357357947824
 30
0.0
  0
VERTEX
  5
F1
330
DF
100
AcDbEntity
  8
E37301
100
AcDbVertex
100
AcDb2dVertex
 10
274.8062769994788
 20
464.6233871173692
 30
0.0
  0
VERTEX
  5
F2
330
DF
100
AcDbEntity
  8
E37301
100
AcDbVertex
100
AcDb2dVertex
 10
274.8145298862595
 20
464.6096348667342
 30
0.0
  0
VERTEX
  5
F3
330
DF
100
AcDbEntity
  8
E37301
100
AcDbVertex
100
AcDb2dVertex
 10
274.8324528014768
 20
464.5779558908418
 30
0.0
  0
VERTEX
  5
F4
330
DF
100
AcDbEntity
  8
E37301
100
AcDbVertex
100
AcDb2dVertex
 10
274.8522033633864
 20
464.5407713571908
 30
0.0
  0
VERTEX
  5
F5
330
DF
100
AcDbEntity
  8
E37301
100
AcDbVertex
100
AcDb2dVertex
 10
274.8737073213692
 20
464.4981537558666
 30
0.0
  0
VERTEX
  5
F6
330
DF
100
AcDbEntity
  8
E37301
100
AcDbVertex
100
AcDb2dVertex
 10
274.9216784230783
 20
464.3969093105403
 30
0.0
  0
VERTEX
  5
F7
330
DF
100
AcDbEntity
  8
E37301
100
AcDbVertex
100
AcDb2dVertex
 10
274.9757721016516
 20
464.2748024755467
 30
0.0
  0
VERTEX
  5
F8
330
DF
100
AcDbEntity
  8
E37301
100
AcDbVertex
100
AcDb2dVertex
 10
275.0353943521366
 20
464.1324131715695
 30
0.0
  0
VERTEX
  5
F9
330
DF
100
AcDbEntity
  8
E37301
100
AcDbVertex
100
AcDb2dVertex
 10
275.0999511695808
 20
463.9703213192923
 30
0.0
  0
VERTEX
  5
FA
330
DF
100
AcDbEntity
  8
E37301
100
AcDbVertex
100
AcDb2dVertex
 10
275.2414924855368
 20
463.5893496525732
 30
0.0
  0
VERTEX
  5
FB
330
DF
100
AcDbEntity
  8
E37301
100
AcDbVertex
100
AcDb2dVertex
 10
275.3956440098997
 20
463.136526840859
 30
0.0
  0
VERTEX
  5
FC
330
DF
100
AcDbEntity
  8
E37301
100
AcDbVertex
100
AcDb2dVertex
 10
275.5576537030498
 20
462.6164922496193
 30
0.0
  0
VERTEX
  5
FD
330
DF
100
AcDbEntity
  8
E37301
100
AcDbVertex
100
AcDb2dVertex
 10
275.7227695253672
 20
462.033885244324
 30
0.0
  0
VERTEX
  5
FE
330
DF
100
AcDbEntity
  8
E37301
100
AcDbVertex
100
AcDb2dVertex
 10
275.886239437232
 20
461.3933451904425
 30
0.0
  0
VERTEX
  5
FF
330
DF
100
AcDbEntity
  8
E37301
100
AcDbVertex
100
AcDb2dVertex
 10
276.0433113990243
 20
460.6995114534446
 30
0.0
  0
VERTEX
  5
100
330
DF
100
AcDbEntity
  8
E37301
100
AcDbVertex
100
AcDb2dVertex
 10
276.1892333711244
 20
459.9570233988001
 30
0.0
  0
VERTEX
  5
101
330
DF
100
AcDbEntity
  8
E37301
100
AcDbVertex
100
AcDb2dVertex
 10
276.3192533139124
 20
459.1705203919784
 30
0.0
  0
VERTEX
  5
102
330
DF
100
AcDbEntity
  8
E37301
100
AcDbVertex
100
AcDb2dVertex
 10
276.4286191877683
 20
458.3446417984494
 30
0.0
  0
VERTEX
  5
103
330
DF
100
AcDbEntity
  8
E37301
100
AcDbVertex
100
AcDb2dVertex
 10
276.4740718364656
 20
457.9183864583788
 30
0.0
  0
VERTEX
  5
104
330
DF
100
AcDbEntity
  8
E37301
100
AcDbVertex
100
AcDb2dVertex
 10
276.5125789530724
 20
457.4840269836827
 30
0.0
  0
VERTEX
  5
105
330
DF
100
AcDbEntity
  8
E37301
100
AcDbVertex
100
AcDb2dVertex
 10
276.5435465326364
 20
457.0421432950444
 30
0.0
  0
VERTEX
  5
106
330
DF
100
AcDbEntity
  8
E37301
100
AcDbVertex
100
AcDb2dVertex
 10
276.5663805702048
 20
456.5933153131479
 30
0.0
  0
VERTEX
  5
107
330
DF
100
AcDbEntity
  8
E37301
100
AcDbVertex
100
AcDb2dVertex
 10
276.5804870608254
 20
456.1381229586768
 30
0.0
  0
VERTEX
  5
108
330
DF
100
AcDbEntity
  8
E37301
100
AcDbVertex
100
AcDb2dVertex
 10
276.5852719995456
 20
455.6771461523148
 30
0.0
  0
VERTEX
  5
109
330
DF
100
AcDbEntity
  8
E37301
100
AcDbVertex
100
AcDb2dVertex
 10
276.5851088720551
 20
453.7221767332912
 30
0.0
 42
0.4142354483241951
  0
VERTEX
  5
10A
330
DF
100
AcDbEntity
  8
E37301
100
AcDbVertex
100
AcDb2dVertex
 10
286.5851050075265
 20
443.7214256696404
 30
0.0
  0
VERTEX
  5
10B
330
DF
100
AcDbEntity
  8
E37301
100
AcDbVertex
100
AcDb2dVertex
 10
369.3976364911545
 20
443.7213939000725
 30
0.0
 42
0.0093819741571418
  0
VERTEX
  5
10C
330
DF
100
AcDbEntity
  8
E37301
100
AcDbVertex
100
AcDb2dVertex
 10
369.2912675962438
 20
433.7213939000726
 30
0.0
 42
-0.0040678597280842
  0
VERTEX
  5
10D
330
DF
100
AcDbEntity
  8
E37301
100
AcDbVertex
100
AcDb2dVertex
 10
369.2912675962438
 20
420.7213939000726
 30
0.0
 42
0.0093819741571491
  0
VERTEX
  5
10E
330
DF
100
AcDbEntity
  8
E37301
100
AcDbVertex
100
AcDb2dVertex
 10
369.3976364911546
 20
410.7213939000726
 30
0.0
  0
VERTEX
  5
10F
330
DF
100
AcDbEntity
  8
E37301
100
AcDbVertex
100
AcDb2dVertex
 10
365.194756993676
 20
410.7213294120102
 30
0.0
 42
-0.1087713492941519
  0
VERTEX
  5
110
330
DF
100
AcDbEntity
  8
E37301
100
AcDbVertex
100
AcDb2dVertex
 10
364.7709679204811
 20
410.8152445248247
 30
0.0
  0
VERTEX
  5
111
330
DF
100
AcDbEntity
  8
E37301
100
AcDbVertex
100
AcDb2dVertex
 10
364.7014001846525
 20
410.8457431595488
 30
0.0
  0
VERTEX
  5
112
330
DF
100
AcDbEntity
  8
E37301
100
AcDbVertex
100
AcDb2dVertex
 10
364.684716118026
 20
410.8530515599659
 30
0.0
  0
VERTEX
  5
113
330
DF
100
AcDbEntity
  8
E37301
100
AcDbVertex
100
AcDb2dVertex
 10
364.1561750267853
 20
411.0829559064713
 30
0.0
  0
VERTEX
  5
114
330
DF
100
AcDbEntity
  8
E37301
100
AcDbVertex
100
AcDb2dVertex
 10
363.921157790933
 20
411.1841929450742
 30
0.0
  0
VERTEX
  5
115
330
DF
100
AcDbEntity
  8
E37301
100
AcDbVertex
100
AcDb2dVertex
 10
363.9095886761825
 20
411.1891601224314
 30
0.0
  0
VERTEX
  5
116
330
DF
100
AcDbEntity
  8
E37301
100
AcDbVertex
100
AcDb2dVertex
 10
363.6485714932645
 20
411.3008032892633
 30
0.0
  0
VERTEX
  5
117
330
DF
100
AcDbEntity
  8
E37301
100
AcDbVertex
100
AcDb2dVertex
 10
363.6353730070997
 20
411.3064266028747
 30
0.0
  0
VERTEX
  5
118
330
DF
100
AcDbEntity
  8
E37301
100
AcDbVertex
100
AcDb2dVertex
 10
363.3518279511185
 20
411.4267040730397
 30
0.0
  0
VERTEX
  5
119
330
DF
100
AcDbEntity
  8
E37301
100
AcDbVertex
100
AcDb2dVertex
 10
363.3370256830843
 20
411.4329547908949
 30
0.0
  0
VERTEX
  5
11A
330
DF
100
AcDbEntity
  8
E37301
100
AcDbVertex
100
AcDb2dVertex
 10
362.3612923714873
 20
411.8383448376956
 30
0.0
  0
VERTEX
  5
11B
330
DF
100
AcDbEntity
  8
E37301
100
AcDbVertex
100
AcDb2dVertex
 10
361.078028877893
 20
412.3483787323078
 30
0.0
  0
VERTEX
  5
11C
330
DF
100
AcDbEntity
  8
E37301
100
AcDbVertex
100
AcDb2dVertex
 10
360.7761261359201
 20
412.4636651847347
 30
0.0
  0
VERTEX
  5
11D
330
DF
100
AcDbEntity
  8
E37301
100
AcDbVertex
100
AcDb2dVertex
 10
360.319964801458
 20
412.6348837862043
 30
0.0
  0
VERTEX
  5
11E
330
DF
100
AcDbEntity
  8
E37301
100
AcDbVertex
100
AcDb2dVertex
 10
359.9746641656227
 20
412.7610629982412
 30
0.0
  0
VERTEX
  5
11F
330
DF
100
AcDbEntity
  8
E37301
100
AcDbVertex
100
AcDb2dVertex
 10
359.7399424598989
 20
412.8449259517372
 30
0.0
  0
VERTEX
  5
120
330
DF
100
AcDbEntity
  8
E37301
100
AcDbVertex
100
AcDb2dVertex
 10
359.6257487539362
 20
412.8851239493739
 30
0.0
  0
VERTEX
  5
121
330
DF
100
AcDbEntity
  8
E37301
100
AcDbVertex
100
AcDb2dVertex
 10
359.3869606021077
 20
412.9678230231148
 30
0.0
  0
VERTEX
  5
122
330
DF
100
AcDbEntity
  8
E37301
100
AcDbVertex
100
AcDb2dVertex
 10
359.2100600983837
 20
413.0278713204419
 30
0.0
  0
VERTEX
  5
123
330
DF
100
AcDbEntity
  8
E37301
100
AcDbVertex
100
AcDb2dVertex
 10
359.0304898318889
 20
413.087709469773
 30
0.0
  0
VERTEX
  5
124
330
DF
100
AcDbEntity
  8
E37301
100
AcDbVertex
100
AcDb2dVertex
 10
358.7879361398168
 20
413.1666559506145
 30
0.0
  0
SEQEND
  5
125
330
DF
100
AcDbEntity
  8
E37301
  0
POLYLINE
  5
126
330
1F
100
AcDbEntity
  8
Make2D$可见线$普通线
100
AcDb2dPolyline
 66
     1
 10
0.0
 20
0.0
 30
0.0
  0
VERTEX
  5
127
330
126
100
AcDbEntity
  8
Make2D$可见线$普通线
100
AcDbVertex
100
AcDb2dVertex
 10
230.5678691405507
 20
464.6959099605301
 30
0.0
  0
VERTEX
  5
128
330
126
100
AcDbEntity
  8
Make2D$可见线$普通线
100
AcDbVertex
100
AcDb2dVertex
 10
276.5832256644007
 20
464.69590996053
 30
0.0
  0
VERTEX
  5
129
330
126
100
AcDbEntity
  8
Make2D$可见线$普通线
100
AcDbVertex
100
AcDb2dVertex
 10
276.5839091538987
 20
471.5846322473413
 30
0.0
 42
-0.4146445045797786
  0
VERTEX
  5
12A
330
126
100
AcDbEntity
  8
Make2D$可见线$普通线
100
AcDbVertex
100
AcDb2dVertex
 10
279.5809952816546
 20
474.584620722383
 30
0.0
  0
VERTEX
  5
12B
330
126
100
AcDbEntity
  8
Make2D$可见线$普通线
100
AcDbVertex
100
AcDb2dVertex
 10
320.479133945499
 20
474.5846417559928
 30
0.0
 42
0.1633253662543448
  0
VERTEX
  5
12C
330
126
100
AcDbEntity
  8
Make2D$可见线$普通线
100
AcDbVertex
100
AcDb2dVertex
 10
320.7929098989898
 20
474.6953555381187
 30
0.0
  0
VERTEX
  5
12D
330
126
100
AcDbEntity
  8
Make2D$可见线$普通线
100
AcDbVertex
100
AcDb2dVertex
 10
321.368450339318
 20
475.1450078049613
 30
0.0
  0
VERTEX
  5
12E
330
126
100
AcDbEntity
  8
Make2D$可见线$普通线
100
AcDbVertex
100
AcDb2dVertex
 10
321.5179328301078
 20
475.2576765501911
 30
0.0
  0
VERTEX
  5
12F
330
126
100
AcDbEntity
  8
Make2D$可见线$普通线
100
AcDbVertex
100
AcDb2dVertex
 10
321.621073547272
 20
475.3344767421603
 30
0.0
  0
VERTEX
  5
130
330
126
100
AcDbEntity
  8
Make2D$可见线$普通线
100
AcDbVertex
100
AcDb2dVertex
 10
322.2148819609518
 20
475.7585326180366
 30
0.0
  0
VERTEX
  5
131
330
126
100
AcDbEntity
  8
Make2D$可见线$普通线
100
AcDbVertex
100
AcDb2dVertex
 10
322.4205717189163
 20
475.8949040365824
 30
0.0
  0
VERTEX
  5
132
330
126
100
AcDbEntity
  8
Make2D$可见线$普通线
100
AcDbVertex
100
AcDb2dVertex
 10
322.8396681071508
 20
476.1498284793078
 30
0.0
  0
VERTEX
  5
133
330
126
100
AcDbEntity
  8
Make2D$可见线$普通线
100
AcDbVertex
100
AcDb2dVertex
 10
323.0194506959775
 20
476.248529252431
 30
0.0
  0
VERTEX
  5
134
330
126
100
AcDbEntity
  8
Make2D$可见线$普通线
100
AcDbVertex
100
AcDb2dVertex
 10
323.2022006192455
 20
476.3417247154201
 30
0.0
  0
VERTEX
  5
135
330
126
100
AcDbEntity
  8
Make2D$可见线$普通线
100
AcDbVertex
100
AcDb2dVertex
 10
323.3288881951551
 20
476.4019909396541
 30
0.0
  0
VERTEX
  5
136
330
126
100
AcDbEntity
  8
Make2D$可见线$普通线
100
AcDbVertex
100
AcDb2dVertex
 10
323.4570010145692
 20
476.4594429511361
 30
0.0
  0
VERTEX
  5
137
330
126
100
AcDbEntity
  8
Make2D$可见线$普通线
100
AcDbVertex
100
AcDb2dVertex
 10
323.5864596313511
 20
476.5140918541347
 30
0.0
  0
VERTEX
  5
138
330
126
100
AcDbEntity
  8
Make2D$可见线$普通线
100
AcDbVertex
100
AcDb2dVertex
 10
323.7171845993644
 20
476.5659487529186
 30
0.0
  0
VERTEX
  5
139
330
126
100
AcDbEntity
  8
Make2D$可见线$普通线
100
AcDbVertex
100
AcDb2dVertex
 10
323.8490964724725
 20
476.6150247517568
 30
0.0
  0
VERTEX
  5
13A
330
126
100
AcDbEntity
  8
Make2D$可见线$普通线
100
AcDbVertex
100
AcDb2dVertex
 10
323.9821158045388
 20
476.6613309549177
 30
0.0
  0
VERTEX
  5
13B
330
126
100
AcDbEntity
  8
Make2D$可见线$普通线
100
AcDbVertex
100
AcDb2dVertex
 10
324.1161631494268
 20
476.7048784666702
 30
0.0
  0
VERTEX
  5
13C
330
126
100
AcDbEntity
  8
Make2D$可见线$普通线
100
AcDbVertex
100
AcDb2dVertex
 10
324.2511590609997
 20
476.7456783912829
 30
0.0
  0
VERTEX
  5
13D
330
126
100
AcDbEntity
  8
Make2D$可见线$普通线
100
AcDbVertex
100
AcDb2dVertex
 10
324.3870240931212
 20
476.7837418330246
 30
0.0
  0
VERTEX
  5
13E
330
126
100
AcDbEntity
  8
Make2D$可见线$普通线
100
AcDbVertex
100
AcDb2dVertex
 10
324.5236787996546
 20
476.819079896164
 30
0.0
  0
VERTEX
  5
13F
330
126
100
AcDbEntity
  8
Make2D$可见线$普通线
100
AcDbVertex
100
AcDb2dVertex
 10
324.6610437344634
 20
476.8517036849697
 30
0.0
  0
VERTEX
  5
140
330
126
100
AcDbEntity
  8
Make2D$可见线$普通线
100
AcDbVertex
100
AcDb2dVertex
 10
324.799039451411
 20
476.8816243037106
 30
0.0
  0
VERTEX
  5
141
330
126
100
AcDbEntity
  8
Make2D$可见线$普通线
100
AcDbVertex
100
AcDb2dVertex
 10
324.9375865043608
 20
476.9088528566552
 30
0.0
  0
VERTEX
  5
142
330
126
100
AcDbEntity
  8
Make2D$可见线$普通线
100
AcDbVertex
100
AcDb2dVertex
 10
325.0766054471763
 20
476.9334004480725
 30
0.0
  0
VERTEX
  5
143
330
126
100
AcDbEntity
  8
Make2D$可见线$普通线
100
AcDbVertex
100
AcDb2dVertex
 10
325.2160168337208
 20
476.9552781822309
 30
0.0
  0
VERTEX
  5
144
330
126
100
AcDbEntity
  8
Make2D$可见线$普通线
100
AcDbVertex
100
AcDb2dVertex
 10
325.3557412178579
 20
476.9744971633993
 30
0.0
  0
VERTEX
  5
145
330
126
100
AcDbEntity
  8
Make2D$可见线$普通线
100
AcDbVertex
100
AcDb2dVertex
 10
325.4953732897461
 20
476.9910385181797
 30
0.0
  0
VERTEX
  5
146
330
126
100
AcDbEntity
  8
Make2D$可见线$普通线
100
AcDbVertex
100
AcDb2dVertex
 10
325.6352042084871
 20
477.004993870374
 30
0.0
  0
VERTEX
  5
147
330
126
100
AcDbEntity
  8
Make2D$可见线$普通线
100
AcDbVertex
100
AcDb2dVertex
 10
325.7752003801828
 20
477.0164122746464
 30
0.0
  0
VERTEX
  5
148
330
126
100
AcDbEntity
  8
Make2D$可见线$普通线
100
AcDbVertex
100
AcDb2dVertex
 10
325.9153282109351
 20
477.0253427856608
 30
0.0
  0
VERTEX
  5
149
330
126
100
AcDbEntity
  8
Make2D$可见线$普通线
100
AcDbVertex
100
AcDb2dVertex
 10
326.1958444740166
 20
477.0359363465714
 30
0.0
  0
VERTEX
  5
14A
330
126
100
AcDbEntity
  8
Make2D$可见线$普通线
100
AcDbVertex
100
AcDb2dVertex
 10
326.4764842465461
 20
477.0371669904175
 30
0.0
  0
VERTEX
  5
14B
330
126
100
AcDbEntity
  8
Make2D$可见线$普通线
100
AcDbVertex
100
AcDb2dVertex
 10
326.7569787773385
 20
477.0294271545109
 30
0.0
  0
VERTEX
  5
14C
330
126
100
AcDbEntity
  8
Make2D$可见线$普通线
100
AcDbVertex
100
AcDb2dVertex
 10
327.0370593152084
 20
477.0131092761633
 30
0.0
  0
VERTEX
  5
14D
330
126
100
AcDbEntity
  8
Make2D$可见线$普通线
100
AcDbVertex
100
AcDb2dVertex
 10
327.3164571089706
 20
476.9886057926864
 30
0.0
  0
VERTEX
  5
14E
330
126
100
AcDbEntity
  8
Make2D$可见线$普通线
100
AcDbVertex
100
AcDb2dVertex
 10
327.5949034074395
 20
476.9563091413918
 30
0.0
  0
VERTEX
  5
14F
330
126
100
AcDbEntity
  8
Make2D$可见线$普通线
100
AcDbVertex
100
AcDb2dVertex
 10
327.9499726092671
 20
476.9042042028843
 30
0.0
  0
VERTEX
  5
150
330
126
100
AcDbEntity
  8
Make2D$可见线$普通线
100
AcDbVertex
100
AcDb2dVertex
 10
328.3031112815574
 20
476.8410193689547
 30
0.0
  0
VERTEX
  5
151
330
126
100
AcDbEntity
  8
Make2D$可见线$普通线
100
AcDbVertex
100
AcDb2dVertex
 10
328.6543923208538
 20
476.7678254176474
 30
0.0
  0
VERTEX
  5
152
330
126
100
AcDbEntity
  8
Make2D$可见线$普通线
100
AcDbVertex
100
AcDb2dVertex
 10
329.0038886236993
 20
476.6856931270069
 30
0.0
  0
VERTEX
  5
153
330
126
100
AcDbEntity
  8
Make2D$可见线$普通线
100
AcDbVertex
100
AcDb2dVertex
 10
329.3516730866369
 20
476.5956932750778
 30
0.0
  0
VERTEX
  5
154
330
126
100
AcDbEntity
  8
Make2D$可见线$普通线
100
AcDbVertex
100
AcDb2dVertex
 10
329.6978186062098
 20
476.4988966399046
 30
0.0
  0
VERTEX
  5
155
330
126
100
AcDbEntity
  8
Make2D$可见线$普通线
100
AcDbVertex
100
AcDb2dVertex
 10
330.3854844014343
 20
476.2891961320039
 30
0.0
  0
VERTEX
  5
156
330
126
100
AcDbEntity
  8
Make2D$可见线$普通线
100
AcDbVertex
100
AcDb2dVertex
 10
330.9285143299183
 20
476.1109417845003
 30
0.0
 42
-0.0144911438976724
  0
VERTEX
  5
157
330
126
100
AcDbEntity
  8
Make2D$可见线$普通线
100
AcDbVertex
100
AcDb2dVertex
 10
332.6888627842421
 20
475.4592445140252
 30
0.0
  0
VERTEX
  5
158
330
126
100
AcDbEntity
  8
Make2D$可见线$普通线
100
AcDbVertex
100
AcDb2dVertex
 10
333.1836552673879
 20
475.254884506947
 30
0.0
  0
VERTEX
  5
159
330
126
100
AcDbEntity
  8
Make2D$可见线$普通线
100
AcDbVertex
100
AcDb2dVertex
 10
333.4268950847649
 20
475.1512930319742
 30
0.0
  0
VERTEX
  5
15A
330
126
100
AcDbEntity
  8
Make2D$可见线$普通线
100
AcDbVertex
100
AcDb2dVertex
 10
333.6640340446321
 20
475.0486173453099
 30
0.0
  0
VERTEX
  5
15B
330
126
100
AcDbEntity
  8
Make2D$可见线$普通线
100
AcDbVertex
100
AcDb2dVertex
 10
333.7139976282413
 20
475.0267888065081
 30
0.0
  0
VERTEX
  5
15C
330
126
100
AcDbEntity
  8
Make2D$可见线$普通线
100
AcDbVertex
100
AcDb2dVertex
 10
334.4514499999921
 20
474.6978388633852
 30
0.0
  0
VERTEX
  5
15D
330
126
100
AcDbEntity
  8
Make2D$可见线$普通线
100
AcDbVertex
100
AcDb2dVertex
 10
334.6015869048462
 20
474.6296188910284
 30
0.0
 42
0.1072587936388112
  0
VERTEX
  5
15E
330
126
100
AcDbEntity
  8
Make2D$可见线$普通线
100
AcDbVertex
100
AcDb2dVertex
 10
334.8088370808446
 20
474.584641131423
 30
0.0
  0
VERTEX
  5
15F
330
126
100
AcDbEntity
  8
Make2D$可见线$普通线
100
AcDbVertex
100
AcDb2dVertex
 10
341.8178653040512
 20
474.5886886915297
 30
0.0
  0
VERTEX
  5
160
330
126
100
AcDbEntity
  8
Make2D$可见线$普通线
100
AcDbVertex
100
AcDb2dVertex
 10
341.8178653040512
 20
484.5805985087553
 30
0.0
  0
VERTEX
  5
161
330
126
100
AcDbEntity
  8
Make2D$可见线$普通线
100
AcDbVertex
100
AcDb2dVertex
 10
279.5811570504426
 20
484.5846436001423
 30
0.0
 42
-0.415354982625861
  0
VERTEX
  5
162
330
126
100
AcDbEntity
  8
Make2D$可见线$普通线
100
AcDbVertex
100
AcDb2dVertex
 10
276.5859635139612
 20
487.5846271427658
 30
0.0
  0
VERTEX
  5
163
330
126
100
AcDbEntity
  8
Make2D$可见线$普通线
100
AcDbVertex
100
AcDb2dVertex
 10
276.5857581611232
 20
494.4550109125577
 30
0.0
  0
VERTEX
  5
164
330
126
100
AcDbEntity
  8
Make2D$可见线$普通线
100
AcDbVertex
100
AcDb2dVertex
 10
276.5853623708503
 20
494.4658138086656
 30
0.0
  0
VERTEX
  5
165
330
126
100
AcDbEntity
  8
Make2D$可见线$普通线
100
AcDbVertex
100
AcDb2dVertex
 10
276.5847270982782
 20
494.4766926521926
 30
0.0
  0
VERTEX
  5
166
330
126
100
AcDbEntity
  8
Make2D$可见线$普通线
100
AcDbVertex
100
AcDb2dVertex
 10
276.5838470938378
 20
494.4876403899985
 30
0.0
  0
VERTEX
  5
167
330
126
100
AcDbEntity
  8
Make2D$可见线$普通线
100
AcDbVertex
100
AcDb2dVertex
 10
276.5827173436322
 20
494.49864963124
 30
0.0
  0
VERTEX
  5
168
330
126
100
AcDbEntity
  8
Make2D$可见线$普通线
100
AcDbVertex
100
AcDb2dVertex
 10
276.5813330925612
 20
494.5097126544924
 30
0.0
  0
VERTEX
  5
169
330
126
100
AcDbEntity
  8
Make2D$可见线$普通线
100
AcDbVertex
100
AcDb2dVertex
 10
276.5796898674493
 20
494.5208214165844
 30
0.0
  0
VERTEX
  5
16A
330
126
100
AcDbEntity
  8
Make2D$可见线$普通线
100
AcDbVertex
100
AcDb2dVertex
 10
276.5777835000366
 20
494.5319675631866
 30
0.0
  0
VERTEX
  5
16B
330
126
100
AcDbEntity
  8
Make2D$可见线$普通线
100
AcDbVertex
100
AcDb2dVertex
 10
276.5756101496926
 20
494.5431424411792
 30
0.0
  0
VERTEX
  5
16C
330
126
100
AcDbEntity
  8
Make2D$可见线$普通线
100
AcDbVertex
100
AcDb2dVertex
 10
276.573166325702
 20
494.5543371128206
 30
0.0
  0
VERTEX
  5
16D
330
126
100
AcDbEntity
  8
Make2D$可见线$普通线
100
AcDbVertex
100
AcDb2dVertex
 10
276.5704489089676
 20
494.5655423717154
 30
0.0
  0
VERTEX
  5
16E
330
126
100
AcDbEntity
  8
Make2D$可见线$普通线
100
AcDbVertex
100
AcDb2dVertex
 10
276.5674551729734
 20
494.5767487605725
 30
0.0
  0
VERTEX
  5
16F
330
126
100
AcDbEntity
  8
Make2D$可见线$普通线
100
AcDbVertex
100
AcDb2dVertex
 10
276.5641828038458
 20
494.5879465907282
 30
0.0
  0
VERTEX
  5
170
330
126
100
AcDbEntity
  8
Make2D$可见线$普通线
100
AcDbVertex
100
AcDb2dVertex
 10
276.5606299193516
 20
494.5991259633906
 30
0.0
  0
VERTEX
  5
171
330
126
100
AcDbEntity
  8
Make2D$可见线$普通线
100
AcDbVertex
100
AcDb2dVertex
 10
276.5567950866721
 20
494.6102767925469
 30
0.0
  0
VERTEX
  5
172
330
126
100
AcDbEntity
  8
Make2D$可见线$普通线
100
AcDbVertex
100
AcDb2dVertex
 10
276.5526773387941
 20
494.6213888294607
 30
0.0
  0
VERTEX
  5
173
330
126
100
AcDbEntity
  8
Make2D$可见线$普通线
100
AcDbVertex
100
AcDb2dVertex
 10
276.548276189365
 20
494.6324516886679
 30
0.0
  0
VERTEX
  5
174
330
126
100
AcDbEntity
  8
Make2D$可见线$普通线
100
AcDbVertex
100
AcDb2dVertex
 10
276.5435916458623
 20
494.6434548753634
 30
0.0
  0
VERTEX
  5
175
330
126
100
AcDbEntity
  8
Make2D$可见线$普通线
100
AcDbVertex
100
AcDb2dVertex
 10
276.538624220939
 20
494.6543878140549
 30
0.0
  0
VERTEX
  5
176
330
126
100
AcDbEntity
  8
Make2D$可见线$普通线
100
AcDbVertex
100
AcDb2dVertex
 10
276.5333749418146
 20
494.665239878349
 30
0.0
  0
VERTEX
  5
177
330
126
100
AcDbEntity
  8
Make2D$可见线$普通线
100
AcDbVertex
100
AcDb2dVertex
 10
276.527845357592
 20
494.6760004217109
 30
0.0
  0
VERTEX
  5
178
330
126
100
AcDbEntity
  8
Make2D$可见线$普通线
100
AcDbVertex
100
AcDb2dVertex
 10
276.5220375443977
 20
494.6866588090371
 30
0.0
  0
VERTEX
  5
179
330
126
100
AcDbEntity
  8
Make2D$可见线$普通线
100
AcDbVertex
100
AcDb2dVertex
 10
276.5159541082533
 20
494.69720444886
 30
0.0
  0
VERTEX
  5
17A
330
126
100
AcDbEntity
  8
Make2D$可见线$普通线
100
AcDbVertex
100
AcDb2dVertex
 10
276.5095981856067
 20
494.707626825996
 30
0.0
  0
VERTEX
  5
17B
330
126
100
AcDbEntity
  8
Make2D$可见线$普通线
100
AcDbVertex
100
AcDb2dVertex
 10
276.5029734414662
 20
494.71791553444
 30
0.0
  0
VERTEX
  5
17C
330
126
100
AcDbEntity
  8
Make2D$可见线$普通线
100
AcDbVertex
100
AcDb2dVertex
 10
276.4960840651019
 20
494.7280603103023
 30
0.0
  0
VERTEX
  5
17D
330
126
100
AcDbEntity
  8
Make2D$可见线$普通线
100
AcDbVertex
100
AcDb2dVertex
 10
276.4889347632979
 20
494.7380510645781
 30
0.0
  0
VERTEX
  5
17E
330
126
100
AcDbEntity
  8
Make2D$可见线$普通线
100
AcDbVertex
100
AcDb2dVertex
 10
276.4815307511594
 20
494.7478779155384
 30
0.0
  0
VERTEX
  5
17F
330
126
100
AcDbEntity
  8
Make2D$可见线$普通线
100
AcDbVertex
100
AcDb2dVertex
 10
276.4738777404979
 20
494.7575312205283
 30
0.0
  0
VERTEX
  5
180
330
126
100
AcDbEntity
  8
Make2D$可见线$普通线
100
AcDbVertex
100
AcDb2dVertex
 10
276.4659819258434
 20
494.7670016069663
 30
0.0
  0
VERTEX
  5
181
330
126
100
AcDbEntity
  8
Make2D$可见线$普通线
100
AcDbVertex
100
AcDb2dVertex
 10
276.4578499681477
 20
494.7762800023335
 30
0.0
  0
VERTEX
  5
182
330
126
100
AcDbEntity
  8
Make2D$可见线$普通线
100
AcDbVertex
100
AcDb2dVertex
 10
276.4494889762668
 20
494.7853576629583
 30
0.0
  0
VERTEX
  5
183
330
126
100
AcDbEntity
  8
Make2D$可见线$普通线
100
AcDbVertex
100
AcDb2dVertex
 10
276.4409064863295
 20
494.7942262014021
 30
0.0
  0
VERTEX
  5
184
330
126
100
AcDbEntity
  8
Make2D$可见线$普通线
100
AcDbVertex
100
AcDb2dVertex
 10
276.4321104391166
 20
494.8028776122687
 30
0.0
  0
VERTEX
  5
185
330
126
100
AcDbEntity
  8
Make2D$可见线$普通线
100
AcDbVertex
100
AcDb2dVertex
 10
276.4231091555927
 20
494.8113042962704
 30
0.0
  0
VERTEX
  5
186
330
126
100
AcDbEntity
  8
Make2D$可见线$普通线
100
AcDbVertex
100
AcDb2dVertex
 10
276.4139113107507
 20
494.8194990823981
 30
0.0
  0
VERTEX
  5
187
330
126
100
AcDbEntity
  8
Make2D$可见线$普通线
100
AcDbVertex
100
AcDb2dVertex
 10
276.404525905939
 20
494.8274552480614
 30
0.0
  0
VERTEX
  5
188
330
126
100
AcDbEntity
  8
Make2D$可见线$普通线
100
AcDbVertex
100
AcDb2dVertex
 10
276.3949622398563
 20
494.835166537081
 30
0.0
  0
VERTEX
  5
189
330
126
100
AcDbEntity
  8
Make2D$可见线$普通线
100
AcDbVertex
100
AcDb2dVertex
 10
276.3852298784081
 20
494.8426271754334
 30
0.0
  0
VERTEX
  5
18A
330
126
100
AcDbEntity
  8
Make2D$可见线$普通线
100
AcDbVertex
100
AcDb2dVertex
 10
276.3753386236272
 20
494.8498318846733
 30
0.0
  0
VERTEX
  5
18B
330
126
100
AcDbEntity
  8
Make2D$可见线$普通线
100
AcDbVertex
100
AcDb2dVertex
 10
276.3652984818642
 20
494.8567758929706
 30
0.0
  0
VERTEX
  5
18C
330
126
100
AcDbEntity
  8
Make2D$可见线$普通线
100
AcDbVertex
100
AcDb2dVertex
 10
276.3551196314601
 20
494.8634549437302
 30
0.0
  0
VERTEX
  5
18D
330
126
100
AcDbEntity
  8
Make2D$可见线$普通线
100
AcDbVertex
100
AcDb2dVertex
 10
276.3448123901106
 20
494.8698653017747
 30
0.0
  0
VERTEX
  5
18E
330
126
100
AcDbEntity
  8
Make2D$可见线$普通线
100
AcDbVertex
100
AcDb2dVertex
 10
276.3343871821324
 20
494.8760037570959
 30
0.0
  0
VERTEX
  5
18F
330
126
100
AcDbEntity
  8
Make2D$可见线$普通线
100
AcDbVertex
100
AcDb2dVertex
 10
276.3238545058394
 20
494.8818676262005
 30
0.0
  0
VERTEX
  5
190
330
126
100
AcDbEntity
  8
Make2D$可见线$普通线
100
AcDbVertex
100
AcDb2dVertex
 10
276.3132249012255
 20
494.8874547510919
 30
0.0
  0
VERTEX
  5
191
330
126
100
AcDbEntity
  8
Make2D$可见线$普通线
100
AcDbVertex
100
AcDb2dVertex
 10
276.3025089181494
 20
494.8927634959527
 30
0.0
  0
VERTEX
  5
192
330
126
100
AcDbEntity
  8
Make2D$可见线$普通线
100
AcDbVertex
100
AcDb2dVertex
 10
276.2917170852052
 20
494.8977927416059
 30
0.0
  0
VERTEX
  5
193
330
126
100
AcDbEntity
  8
Make2D$可见线$普通线
100
AcDbVertex
100
AcDb2dVertex
 10
276.2808598794462
 20
494.90254187785
 30
0.0
  0
VERTEX
  5
194
330
126
100
AcDbEntity
  8
Make2D$可见线$普通线
100
AcDbVertex
100
AcDb2dVertex
 10
276.2699476971264
 20
494.9070107937783
 30
0.0
  0
VERTEX
  5
195
330
126
100
AcDbEntity
  8
Make2D$可见线$普通线
100
AcDbVertex
100
AcDb2dVertex
 10
276.2589908256035
 20
494.9111998662036
 30
0.0
  0
VERTEX
  5
196
330
126
100
AcDbEntity
  8
Make2D$可见线$普通线
100
AcDbVertex
100
AcDb2dVertex
 10
276.2479994165321
 20
494.9151099463215
 30
0.0
  0
VERTEX
  5
197
330
126
100
AcDbEntity
  8
Make2D$可见线$普通线
100
AcDbVertex
100
AcDb2dVertex
 10
276.2369834604656
 20
494.9187423447522
 30
0.0
  0
VERTEX
  5
198
330
126
100
AcDbEntity
  8
Make2D$可见线$普通线
100
AcDbVertex
100
AcDb2dVertex
 10
276.2259527629658
 20
494.9220988151118
 30
0.0
  0
VERTEX
  5
199
330
126
100
AcDbEntity
  8
Make2D$可见线$普通线
100
AcDbVertex
100
AcDb2dVertex
 10
276.2149169223028
 20
494.9251815362665
 30
0.0
  0
VERTEX
  5
19A
330
126
100
AcDbEntity
  8
Make2D$可见线$普通线
100
AcDbVertex
100
AcDb2dVertex
 10
276.2038853088118
 20
494.9279930934246
 30
0.0
  0
VERTEX
  5
19B
330
126
100
AcDbEntity
  8
Make2D$可见线$普通线
100
AcDbVertex
100
AcDb2dVertex
 10
276.1928670459603
 20
494.9305364582284
 30
0.0
  0
VERTEX
  5
19C
330
126
100
AcDbEntity
  8
Make2D$可见线$普通线
100
AcDbVertex
100
AcDb2dVertex
 10
276.1818709931601
 20
494.9328149680048
 30
0.0
  0
VERTEX
  5
19D
330
126
100
AcDbEntity
  8
Make2D$可见线$普通线
100
AcDbVertex
100
AcDb2dVertex
 10
276.1709057303422
 20
494.9348323043284
 30
0.0
  0
VERTEX
  5
19E
330
126
100
AcDbEntity
  8
Make2D$可见线$普通线
100
AcDbVertex
100
AcDb2dVertex
 10
276.1599795443046
 20
494.9365924710575
 30
0.0
  0
VERTEX
  5
19F
330
126
100
AcDbEntity
  8
Make2D$可见线$普通线
100
AcDbVertex
100
AcDb2dVertex
 10
276.1491004168217
 20
494.9380997719875
 30
0.0
  0
VERTEX
  5
1A0
330
126
100
AcDbEntity
  8
Make2D$可见线$普通线
100
AcDbVertex
100
AcDb2dVertex
 10
276.1382760144953
 20
494.9393587882699
 30
0.0
  0
VERTEX
  5
1A1
330
126
100
AcDbEntity
  8
Make2D$可见线$普通线
100
AcDbVertex
100
AcDb2dVertex
 10
276.127513680316
 20
494.9403743557339
 30
0.0
  0
VERTEX
  5
1A2
330
126
100
AcDbEntity
  8
Make2D$可见线$普通线
100
AcDbVertex
100
AcDb2dVertex
 10
276.1168204268908
 20
494.9411515422404
 30
0.0
 42
0.0155820474548307
  0
VERTEX
  5
1A3
330
126
100
AcDbEntity
  8
Make2D$可见线$普通线
100
AcDbVertex
100
AcDb2dVertex
 10
256.0820526775507
 20
495.7154830039412
 30
0.0
  0
VERTEX
  5
1A4
330
126
100
AcDbEntity
  8
Make2D$可见线$普通线
100
AcDbVertex
100
AcDb2dVertex
 10
254.9710698339788
 20
495.7134558998839
 30
0.0
  0
VERTEX
  5
1A5
330
126
100
AcDbEntity
  8
Make2D$可见线$普通线
100
AcDbVertex
100
AcDb2dVertex
 10
254.3077375789134
 20
495.7154830039411
 30
0.0
  0
VERTEX
  5
1A6
330
126
100
AcDbEntity
  8
Make2D$可见线$普通线
100
AcDbVertex
100
AcDb2dVertex
 10
252.8461914876339
 20
495.7154830039411
 30
0.0
  0
VERTEX
  5
1A7
330
126
100
AcDbEntity
  8
Make2D$可见线$普通线
100
AcDbVertex
100
AcDb2dVertex
 10
252.1936124574249
 20
495.7134964318021
 30
0.0
  0
VERTEX
  5
1A8
330
126
100
AcDbEntity
  8
Make2D$可见线$普通线
100
AcDbVertex
100
AcDb2dVertex
 10
251.8969106343777
 20
495.7154830039411
 30
0.0
  0
VERTEX
  5
1A9
330
126
100
AcDbEntity
  8
Make2D$可见线$普通线
100
AcDbVertex
100
AcDb2dVertex
 10
251.1017100758592
 20
495.7154830039411
 30
0.0
  0
VERTEX
  5
1AA
330
126
100
AcDbEntity
  8
Make2D$可见线$普通线
100
AcDbVertex
100
AcDb2dVertex
 10
246.1449728599465
 20
495.6393165589431
 30
0.0
  0
VERTEX
  5
1AB
330
126
100
AcDbEntity
  8
Make2D$可见线$普通线
100
AcDbVertex
100
AcDb2dVertex
 10
241.1960214004341
 20
495.4843572503593
 30
0.0
  0
VERTEX
  5
1AC
330
126
100
AcDbEntity
  8
Make2D$可见线$普通线
100
AcDbVertex
100
AcDb2dVertex
 10
236.2443619689297
 20
495.2506051050789
 30
0.0
  0
VERTEX
  5
1AD
330
126
100
AcDbEntity
  8
Make2D$可见线$普通线
100
AcDbVertex
100
AcDb2dVertex
 10
236.0355693883606
 20
495.2506050407061
 30
0.0
  0
VERTEX
  5
1AE
330
126
100
AcDbEntity
  8
Make2D$可见线$普通线
100
AcDbVertex
100
AcDb2dVertex
 10
231.0371086419566
 20
494.9411515422404
 30
0.0
  0
VERTEX
  5
1AF
330
126
100
AcDbEntity
  8
Make2D$可见线$普通线
100
AcDbVertex
100
AcDb2dVertex
 10
231.0264153885313
 20
494.9403743557339
 30
0.0
  0
VERTEX
  5
1B0
330
126
100
AcDbEntity
  8
Make2D$可见线$普通线
100
AcDbVertex
100
AcDb2dVertex
 10
231.0156530543521
 20
494.9393587882699
 30
0.0
  0
VERTEX
  5
1B1
330
126
100
AcDbEntity
  8
Make2D$可见线$普通线
100
AcDbVertex
100
AcDb2dVertex
 10
231.0048286520257
 20
494.9380997719874
 30
0.0
  0
VERTEX
  5
1B2
330
126
100
AcDbEntity
  8
Make2D$可见线$普通线
100
AcDbVertex
100
AcDb2dVertex
 10
230.9939495245429
 20
494.9365924710575
 30
0.0
  0
VERTEX
  5
1B3
330
126
100
AcDbEntity
  8
Make2D$可见线$普通线
100
AcDbVertex
100
AcDb2dVertex
 10
230.9830233385053
 20
494.9348323043283
 30
0.0
  0
VERTEX
  5
1B4
330
126
100
AcDbEntity
  8
Make2D$可见线$普通线
100
AcDbVertex
100
AcDb2dVertex
 10
230.9720580756874
 20
494.9328149680045
 30
0.0
  0
VERTEX
  5
1B5
330
126
100
AcDbEntity
  8
Make2D$可见线$普通线
100
AcDbVertex
100
AcDb2dVertex
 10
230.9610620228871
 20
494.9305364582283
 30
0.0
  0
VERTEX
  5
1B6
330
126
100
AcDbEntity
  8
Make2D$可见线$普通线
100
AcDbVertex
100
AcDb2dVertex
 10
230.9500437600357
 20
494.9279930934244
 30
0.0
  0
VERTEX
  5
1B7
330
126
100
AcDbEntity
  8
Make2D$可见线$普通线
100
AcDbVertex
100
AcDb2dVertex
 10
230.9390121465446
 20
494.9251815362665
 30
0.0
  0
VERTEX
  5
1B8
330
126
100
AcDbEntity
  8
Make2D$可见线$普通线
100
AcDbVertex
100
AcDb2dVertex
 10
230.9279763058815
 20
494.9220988151119
 30
0.0
  0
VERTEX
  5
1B9
330
126
100
AcDbEntity
  8
Make2D$可见线$普通线
100
AcDbVertex
100
AcDb2dVertex
 10
230.9169456083819
 20
494.9187423447522
 30
0.0
  0
VERTEX
  5
1BA
330
126
100
AcDbEntity
  8
Make2D$可见线$普通线
100
AcDbVertex
100
AcDb2dVertex
 10
230.9059296523154
 20
494.9151099463215
 30
0.0
  0
VERTEX
  5
1BB
330
126
100
AcDbEntity
  8
Make2D$可见线$普通线
100
AcDbVertex
100
AcDb2dVertex
 10
230.8949382432439
 20
494.9111998662036
 30
0.0
  0
VERTEX
  5
1BC
330
126
100
AcDbEntity
  8
Make2D$可见线$普通线
100
AcDbVertex
100
AcDb2dVertex
 10
230.883981371721
 20
494.9070107937782
 30
0.0
  0
VERTEX
  5
1BD
330
126
100
AcDbEntity
  8
Make2D$可见线$普通线
100
AcDbVertex
100
AcDb2dVertex
 10
230.8730691894013
 20
494.9025418778498
 30
0.0
  0
VERTEX
  5
1BE
330
126
100
AcDbEntity
  8
Make2D$可见线$普通线
100
AcDbVertex
100
AcDb2dVertex
 10
230.8622119836422
 20
494.8977927416059
 30
0.0
  0
VERTEX
  5
1BF
330
126
100
AcDbEntity
  8
Make2D$可见线$普通线
100
AcDbVertex
100
AcDb2dVertex
 10
230.8514201506979
 20
494.8927634959527
 30
0.0
  0
VERTEX
  5
1C0
330
126
100
AcDbEntity
  8
Make2D$可见线$普通线
100
AcDbVertex
100
AcDb2dVertex
 10
230.840704167622
 20
494.8874547510919
 30
0.0
  0
VERTEX
  5
1C1
330
126
100
AcDbEntity
  8
Make2D$可见线$普通线
100
AcDbVertex
100
AcDb2dVertex
 10
230.830074563008
 20
494.8818676262004
 30
0.0
  0
VERTEX
  5
1C2
330
126
100
AcDbEntity
  8
Make2D$可见线$普通线
100
AcDbVertex
100
AcDb2dVertex
 10
230.819541886715
 20
494.8760037570959
 30
0.0
  0
VERTEX
  5
1C3
330
126
100
AcDbEntity
  8
Make2D$可见线$普通线
100
AcDbVertex
100
AcDb2dVertex
 10
230.8091166787369
 20
494.8698653017747
 30
0.0
  0
VERTEX
  5
1C4
330
126
100
AcDbEntity
  8
Make2D$可见线$普通线
100
AcDbVertex
100
AcDb2dVertex
 10
230.7988094373873
 20
494.8634549437302
 30
0.0
  0
VERTEX
  5
1C5
330
126
100
AcDbEntity
  8
Make2D$可见线$普通线
100
AcDbVertex
100
AcDb2dVertex
 10
230.7886305869832
 20
494.8567758929706
 30
0.0
  0
VERTEX
  5
1C6
330
126
100
AcDbEntity
  8
Make2D$可见线$普通线
100
AcDbVertex
100
AcDb2dVertex
 10
230.7785904452202
 20
494.8498318846733
 30
0.0
  0
VERTEX
  5
1C7
330
126
100
AcDbEntity
  8
Make2D$可见线$普通线
100
AcDbVertex
100
AcDb2dVertex
 10
230.7686991904393
 20
494.8426271754335
 30
0.0
  0
VERTEX
  5
1C8
330
126
100
AcDbEntity
  8
Make2D$可见线$普通线
100
AcDbVertex
100
AcDb2dVertex
 10
230.7589668289911
 20
494.835166537081
 30
0.0
  0
VERTEX
  5
1C9
330
126
100
AcDbEntity
  8
Make2D$可见线$普通线
100
AcDbVertex
100
AcDb2dVertex
 10
230.7494031629084
 20
494.8274552480614
 30
0.0
  0
VERTEX
  5
1CA
330
126
100
AcDbEntity
  8
Make2D$可见线$普通线
100
AcDbVertex
100
AcDb2dVertex
 10
230.7400177580968
 20
494.8194990823981
 30
0.0
  0
VERTEX
  5
1CB
330
126
100
AcDbEntity
  8
Make2D$可见线$普通线
100
AcDbVertex
100
AcDb2dVertex
 10
230.7308199132548
 20
494.8113042962705
 30
0.0
  0
VERTEX
  5
1CC
330
126
100
AcDbEntity
  8
Make2D$可见线$普通线
100
AcDbVertex
100
AcDb2dVertex
 10
230.7218186297309
 20
494.8028776122687
 30
0.0
  0
VERTEX
  5
1CD
330
126
100
AcDbEntity
  8
Make2D$可见线$普通线
100
AcDbVertex
100
AcDb2dVertex
 10
230.7130225825179
 20
494.7942262014021
 30
0.0
  0
VERTEX
  5
1CE
330
126
100
AcDbEntity
  8
Make2D$可见线$普通线
100
AcDbVertex
100
AcDb2dVertex
 10
230.7044400925806
 20
494.7853576629583
 30
0.0
  0
VERTEX
  5
1CF
330
126
100
AcDbEntity
  8
Make2D$可见线$普通线
100
AcDbVertex
100
AcDb2dVertex
 10
230.6960791006998
 20
494.7762800023335
 30
0.0
  0
VERTEX
  5
1D0
330
126
100
AcDbEntity
  8
Make2D$可见线$普通线
100
AcDbVertex
100
AcDb2dVertex
 10
230.687947143004
 20
494.7670016069662
 30
0.0
  0
VERTEX
  5
1D1
330
126
100
AcDbEntity
  8
Make2D$可见线$普通线
100
AcDbVertex
100
AcDb2dVertex
 10
230.6800513283496
 20
494.7575312205284
 30
0.0
  0
VERTEX
  5
1D2
330
126
100
AcDbEntity
  8
Make2D$可见线$普通线
100
AcDbVertex
100
AcDb2dVertex
 10
230.672398317688
 20
494.7478779155384
 30
0.0
  0
VERTEX
  5
1D3
330
126
100
AcDbEntity
  8
Make2D$可见线$普通线
100
AcDbVertex
100
AcDb2dVertex
 10
230.6649943055494
 20
494.7380510645781
 30
0.0
  0
VERTEX
  5
1D4
330
126
100
AcDbEntity
  8
Make2D$可见线$普通线
100
AcDbVertex
100
AcDb2dVertex
 10
230.6578450037456
 20
494.7280603103023
 30
0.0
  0
VERTEX
  5
1D5
330
126
100
AcDbEntity
  8
Make2D$可见线$普通线
100
AcDbVertex
100
AcDb2dVertex
 10
230.6509556273812
 20
494.71791553444
 30
0.0
  0
VERTEX
  5
1D6
330
126
100
AcDbEntity
  8
Make2D$可见线$普通线
100
AcDbVertex
100
AcDb2dVertex
 10
230.6443308832407
 20
494.707626825996
 30
0.0
  0
VERTEX
  5
1D7
330
126
100
AcDbEntity
  8
Make2D$可见线$普通线
100
AcDbVertex
100
AcDb2dVertex
 10
230.6379749605941
 20
494.6972044488601
 30
0.0
  0
VERTEX
  5
1D8
330
126
100
AcDbEntity
  8
Make2D$可见线$普通线
100
AcDbVertex
100
AcDb2dVertex
 10
230.6318915244498
 20
494.6866588090371
 30
0.0
  0
VERTEX
  5
1D9
330
126
100
AcDbEntity
  8
Make2D$可见线$普通线
100
AcDbVertex
100
AcDb2dVertex
 10
230.6260837112554
 20
494.6760004217109
 30
0.0
  0
VERTEX
  5
1DA
330
126
100
AcDbEntity
  8
Make2D$可见线$普通线
100
AcDbVertex
100
AcDb2dVertex
 10
230.6205541270328
 20
494.665239878349
 30
0.0
  0
VERTEX
  5
1DB
330
126
100
AcDbEntity
  8
Make2D$可见线$普通线
100
AcDbVertex
100
AcDb2dVertex
 10
230.6153048479084
 20
494.654387814055
 30
0.0
  0
VERTEX
  5
1DC
330
126
100
AcDbEntity
  8
Make2D$可见线$普通线
100
AcDbVertex
100
AcDb2dVertex
 10
230.6103374229851
 20
494.6434548753634
 30
0.0
  0
VERTEX
  5
1DD
330
126
100
AcDbEntity
  8
Make2D$可见线$普通线
100
AcDbVertex
100
AcDb2dVertex
 10
230.6056528794823
 20
494.632451688668
 30
0.0
  0
VERTEX
  5
1DE
330
126
100
AcDbEntity
  8
Make2D$可见线$普通线
100
AcDbVertex
100
AcDb2dVertex
 10
230.6012517300533
 20
494.6213888294607
 30
0.0
  0
VERTEX
  5
1DF
330
126
100
AcDbEntity
  8
Make2D$可见线$普通线
100
AcDbVertex
100
AcDb2dVertex
 10
230.5971339821753
 20
494.6102767925469
 30
0.0
  0
VERTEX
  5
1E0
330
126
100
AcDbEntity
  8
Make2D$可见线$普通线
100
AcDbVertex
100
AcDb2dVertex
 10
230.5932991494957
 20
494.5991259633906
 30
0.0
  0
VERTEX
  5
1E1
330
126
100
AcDbEntity
  8
Make2D$可见线$普通线
100
AcDbVertex
100
AcDb2dVertex
 10
230.5897462650015
 20
494.5879465907282
 30
0.0
  0
VERTEX
  5
1E2
330
126
100
AcDbEntity
  8
Make2D$可见线$普通线
100
AcDbVertex
100
AcDb2dVertex
 10
230.586473895874
 20
494.5767487605724
 30
0.0
  0
VERTEX
  5
1E3
330
126
100
AcDbEntity
  8
Make2D$可见线$普通线
100
AcDbVertex
100
AcDb2dVertex
 10
230.5834801598797
 20
494.5655423717154
 30
0.0
  0
VERTEX
  5
1E4
330
126
100
AcDbEntity
  8
Make2D$可见线$普通线
100
AcDbVertex
100
AcDb2dVertex
 10
230.5807627431453
 20
494.5543371128207
 30
0.0
  0
VERTEX
  5
1E5
330
126
100
AcDbEntity
  8
Make2D$可见线$普通线
100
AcDbVertex
100
AcDb2dVertex
 10
230.5783189191547
 20
494.5431424411793
 30
0.0
  0
VERTEX
  5
1E6
330
126
100
AcDbEntity
  8
Make2D$可见线$普通线
100
AcDbVertex
100
AcDb2dVertex
 10
230.5761455688108
 20
494.5319675631866
 30
0.0
  0
VERTEX
  5
1E7
330
126
100
AcDbEntity
  8
Make2D$可见线$普通线
100
AcDbVertex
100
AcDb2dVertex
 10
230.5742392013981
 20
494.5208214165843
 30
0.0
  0
VERTEX
  5
1E8
330
126
100
AcDbEntity
  8
Make2D$可见线$普通线
100
AcDbVertex
100
AcDb2dVertex
 10
230.5725959762862
 20
494.5097126544923
 30
0.0
  0
VERTEX
  5
1E9
330
126
100
AcDbEntity
  8
Make2D$可见线$普通线
100
AcDbVertex
100
AcDb2dVertex
 10
230.5712117252152
 20
494.49864963124
 30
0.0
  0
VERTEX
  5
1EA
330
126
100
AcDbEntity
  8
Make2D$可见线$普通线
100
AcDbVertex
100
AcDb2dVertex
 10
230.5700819750095
 20
494.4876403899985
 30
0.0
  0
VERTEX
  5
1EB
330
126
100
AcDbEntity
  8
Make2D$可见线$普通线
100
AcDbVertex
100
AcDb2dVertex
 10
230.5692019705692
 20
494.4766926521925
 30
0.0
  0
VERTEX
  5
1EC
330
126
100
AcDbEntity
  8
Make2D$可见线$普通线
100
AcDbVertex
100
AcDb2dVertex
 10
230.568566697997
 20
494.4658138086656
 30
0.0
  0
VERTEX
  5
1ED
330
126
100
AcDbEntity
  8
Make2D$可见线$普通线
100
AcDbVertex
100
AcDb2dVertex
 10
230.5681709077242
 20
494.4550109125577
 30
0.0
  0
VERTEX
  5
1EE
330
126
100
AcDbEntity
  8
Make2D$可见线$普通线
100
AcDbVertex
100
AcDb2dVertex
 10
230.5678691405507
 20
464.6959099605301
 30
0.0
  0
SEQEND
  5
1EF
330
126
100
AcDbEntity
  8
Make2D$可见线$普通线
  0
ENDSEC
  0
SECTION
  2
OBJECTS
  0
DICTIONARY
  5
C
330
0
100
AcDbDictionary
281
     1
  3
ACAD_GROUP
350
D
  3
ACAD_LAYOUT
350
1A
  3
ACAD_MATERIAL
350
3B
  3
ACAD_MLEADERSTYLE
350
21A
  3
ACAD_MLINESTYLE
350
17
  3
ACAD_PLOTSETTINGS
350
19
  3
ACAD_PLOTSTYLENAME
350
E
  3
ACAD_SCALELIST
350
3F
  3
ACAD_TABLESTYLE
350
219
  3
ACAD_VISUALSTYLE
350
2A
  3
AcDbVariableDictionary
350
1F0
  0
DICTIONARY
  5
D
102
{ACAD_REACTORS
330
C
102
}
330
C
100
AcDbDictionary
281
     1
  0
DICTIONARY
  5
1A
102
{ACAD_REACTORS
330
C
102
}
330
C
100
AcDbDictionary
281
     1
  3
Layout1
350
1E
  3
Layout2
350
26
  3
Model
350
22
  0
DICTIONARY
  5
3B
102
{ACAD_REACTORS
330
C
102
}
330
C
100
AcDbDictionary
281
     1
  3
ByBlock
350
3D
  3
ByLayer
350
3C
  3
Global
350
3E
  0
DICTIONARY
  5
21A
102
{ACAD_REACTORS
330
C
102
}
330
C
100
AcDbDictionary
281
     1
  0
DICTIONARY
  5
17
102
{ACAD_REACTORS
330
C
102
}
330
C
100
AcDbDictionary
281
     1
  3
Standard
350
18
  0
DICTIONARY
  5
19
102
{ACAD_REACTORS
330
C
102
}
330
C
100
AcDbDictionary
281
     1
  0
ACDBDICTIONARYWDFLT
  5
E
102
{ACAD_REACTORS
330
C
102
}
330
C
100
AcDbDictionary
281
     1
  3
Normal
350
F
100
AcDbDictionaryWithDefault
340
F
  0
DICTIONARY
  5
3F
102
{ACAD_REACTORS
330
C
102
}
330
C
100
AcDbDictionary
281
     1
  3
A0
350
40
  3
A1
350
41
  3
A2
350
42
  3
A3
350
43
  3
A4
350
44
  3
A5
350
45
  3
A6
350
46
  3
A7
350
47
  3
A8
350
48
  3
A9
350
49
  3
B0
350
4A
  3
B1
350
4B
  3
B2
350
4C
  3
B3
350
4D
  3
B4
350
4E
  3
B5
350
4F
  3
B6
350
50
  3
B7
350
51
  3
B8
350
52
  3
B9
350
53
  3
C0
350
54
  3
C1
350
55
  3
C2
350
56
  3
C3
350
57
  3
C4
350
58
  3
C5
350
59
  3
C6
350
5A
  3
C7
350
5B
  3
C8
350
5C
  3
C9
350
5D
  3
D0
350
5E
  3
D1
350
5F
  3
D2
350
60
  0
DICTIONARY
  5
219
102
{ACAD_REACTORS
330
C
102
}
330
C
100
AcDbDictionary
281
     1
  0
DICTIONARY
  5
2A
102
{ACAD_REACTORS
330
C
102
}
330
C
100
AcDbDictionary
281
     1
  3
2dWireframe
350
2F
  3
3D Hidden
350
31
  3
3dWireframe
350
30
  3
Basic
350
32
  3
Brighten
350
36
  3
ColorChange
350
3A
  3
Conceptual
350
34
  3
Dim
350
35
  3
Facepattern
350
39
  3
Flat
350
2B
  3
FlatWithEdges
350
2C
  3
Gouraud
350
2D
  3
GouraudWithEdges
350
2E
  3
Linepattern
350
38
  3
Realistic
350
33
  3
Thicken
350
37
  0
DICTIONARY
  5
1F0
102
{ACAD_REACTORS
330
C
102
}
330
C
100
AcDbDictionary
281
     1
  3
CANNOSCALE
350
1F1
  3
MSLTSCALE
350
1F2
  0
LAYOUT
  5
1E
102
{ACAD_REACTORS
330
1A
102
}
330
1A
100
AcDbPlotSettings
  1

  2
none_device
  4

  6

 40
0.0
 41
0.0
 42
0.0
 43
0.0
 44
0.0
 45
0.0
 46
0.0
 47
0.0
 48
0.0
 49
0.0
140
0.0
141
0.0
142
1.0
143
1.0
 70
   688
 72
     0
 73
     0
 74
     5
  7

 75
    16
 76
     0
 77
     2
 78
   300
147
1.0
148
0.0
149
0.0
100
AcDbLayout
  1
Layout1
 70
     1
 71
     1
 10
0.0
 20
0.0
 11
12.0
 21
9.0
 12
0.0
 22
0.0
 32
0.0
 14
1.000000000000000E+20
 24
1.000000000000000E+20
 34
1.000000000000000E+20
 15
-1.000000000000000E+20
 25
-1.000000000000000E+20
 35
-1.000000000000000E+20
146
0.0
 13
0.0
 23
0.0
 33
0.0
 16
1.0
 26
0.0
 36
0.0
 17
0.0
 27
1.0
 37
0.0
 76
     0
330
1B
  0
LAYOUT
  5
26
102
{ACAD_REACTORS
330
1A
102
}
330
1A
100
AcDbPlotSettings
  1

  2
none_device
  4

  6

 40
0.0
 41
0.0
 42
0.0
 43
0.0
 44
0.0
 45
0.0
 46
0.0
 47
0.0
 48
0.0
 49
0.0
140
0.0
141
0.0
142
1.0
143
1.0
 70
   688
 72
     0
 73
     0
 74
     5
  7

 75
    16
 76
     0
 77
     2
 78
   300
147
1.0
148
0.0
149
0.0
100
AcDbLayout
  1
Layout2
 70
     1
 71
     2
 10
0.0
 20
0.0
 11
0.0
 21
0.0
 12
0.0
 22
0.0
 32
0.0
 14
0.0
 24
0.0
 34
0.0
 15
0.0
 25
0.0
 35
0.0
146
0.0
 13
0.0
 23
0.0
 33
0.0
 16
1.0
 26
0.0
 36
0.0
 17
0.0
 27
1.0
 37
0.0
 76
     0
330
23
  0
LAYOUT
  5
22
102
{ACAD_REACTORS
330
1A
102
}
330
1A
100
AcDbPlotSettings
  1

  2
none_device
  4
Letter_(8.50_x_11.00_Inches)
  6

 40
6.35
 41
6.35
 42
6.35000508
 43
6.35000508
 44
215.9
 45
279.4
 46
0.0
 47
0.0
 48
0.0
 49
0.0
140
0.0
141
0.0
142
1.0
143
1.0
 70
  1712
 72
     0
 73
     0
 74
     0
  7

 75
     0
 76
     0
 77
     2
 78
   300
147
1.0
148
0.0
149
0.0
100
AcDbLayout
  1
Model
 70
     1
 71
     0
 10
0.0
 20
0.0
 11
12.0
 21
9.0
 12
0.0
 22
0.0
 32
0.0
 14
226.1802800169996
 24
361.7540888772718
 34
0.0
 15
369.5678653040513
 25
495.7154830039412
 35
0.0
146
0.0
 13
0.0
 23
0.0
 33
0.0
 16
1.0
 26
0.0
 36
0.0
 17
0.0
 27
1.0
 37
0.0
 76
     0
330
1F
331
29
  0
MATERIAL
  5
3D
102
{ACAD_REACTORS
330
3B
102
}
102
{ACAD_XDICTIONARY
360
215
102
}
330
3B
100
AcDbMaterial
  1
ByBlock
  0
MATERIAL
  5
3C
102
{ACAD_REACTORS
330
3B
102
}
102
{ACAD_XDICTIONARY
360
213
102
}
330
3B
100
AcDbMaterial
  1
ByLayer
  0
MATERIAL
  5
3E
102
{ACAD_REACTORS
330
3B
102
}
102
{ACAD_XDICTIONARY
360
217
102
}
330
3B
100
AcDbMaterial
  1
Global
  0
MLINESTYLE
  5
18
102
{ACAD_REACTORS
330
17
102
}
330
17
100
AcDbMlineStyle
  2
Standard
 70
     0
  3

 62
   256
 51
90.0
 52
90.0
 71
     2
 49
0.5
 62
   256
  6
BYLAYER
 49
-0.5
 62
   256
  6
BYLAYER
  0
ACDBPLACEHOLDER
  5
F
102
{ACAD_REACTORS
330
E
102
}
330
E
  0
SCALE
  5
40
102
{ACAD_REACTORS
330
3F
102
}
330
3F
100
AcDbScale
 70
     0
300
1:1
140
1.0
141
1.0
290
     1
  0
SCALE
  5
41
102
{ACAD_REACTORS
330
3F
102
}
330
3F
100
AcDbScale
 70
     0
300
1:2
140
1.0
141
2.0
290
     0
  0
SCALE
  5
42
102
{ACAD_REACTORS
330
3F
102
}
330
3F
100
AcDbScale
 70
     0
300
1:4
140
1.0
141
4.0
290
     0
  0
SCALE
  5
43
102
{ACAD_REACTORS
330
3F
102
}
330
3F
100
AcDbScale
 70
     0
300
1:5
140
1.0
141
5.0
290
     0
  0
SCALE
  5
44
102
{ACAD_REACTORS
330
3F
102
}
330
3F
100
AcDbScale
 70
     0
300
1:8
140
1.0
141
8.0
290
     0
  0
SCALE
  5
45
102
{ACAD_REACTORS
330
3F
102
}
330
3F
100
AcDbScale
 70
     0
300
1:10
140
1.0
141
10.0
290
     0
  0
SCALE
  5
46
102
{ACAD_REACTORS
330
3F
102
}
330
3F
100
AcDbScale
 70
     0
300
1:16
140
1.0
141
16.0
290
     0
  0
SCALE
  5
47
102
{ACAD_REACTORS
330
3F
102
}
330
3F
100
AcDbScale
 70
     0
300
1:20
140
1.0
141
20.0
290
     0
  0
SCALE
  5
48
102
{ACAD_REACTORS
330
3F
102
}
330
3F
100
AcDbScale
 70
     0
300
1:30
140
1.0
141
30.0
290
     0
  0
SCALE
  5
49
102
{ACAD_REACTORS
330
3F
102
}
330
3F
100
AcDbScale
 70
     0
300
1:40
140
1.0
141
40.0
290
     0
  0
SCALE
  5
4A
102
{ACAD_REACTORS
330
3F
102
}
330
3F
100
AcDbScale
 70
     0
300
1:50
140
1.0
141
50.0
290
     0
  0
SCALE
  5
4B
102
{ACAD_REACTORS
330
3F
102
}
330
3F
100
AcDbScale
 70
     0
300
1:100
140
1.0
141
100.0
290
     0
  0
SCALE
  5
4C
102
{ACAD_REACTORS
330
3F
102
}
330
3F
100
AcDbScale
 70
     0
300
2:1
140
2.0
141
1.0
290
     0
  0
SCALE
  5
4D
102
{ACAD_REACTORS
330
3F
102
}
330
3F
100
AcDbScale
 70
     0
300
4:1
140
4.0
141
1.0
290
     0
  0
SCALE
  5
4E
102
{ACAD_REACTORS
330
3F
102
}
330
3F
100
AcDbScale
 70
     0
300
8:1
140
8.0
141
1.0
290
     0
  0
SCALE
  5
4F
102
{ACAD_REACTORS
330
3F
102
}
330
3F
100
AcDbScale
 70
     0
300
10:1
140
10.0
141
1.0
290
     0
  0
SCALE
  5
50
102
{ACAD_REACTORS
330
3F
102
}
330
3F
100
AcDbScale
 70
     0
300
100:1
140
100.0
141
1.0
290
     0
  0
SCALE
  5
51
102
{ACAD_REACTORS
330
3F
102
}
330
3F
100
AcDbScale
 70
     0
300
1/128" = 1'-0"
140
0.0078125
141
12.0
290
     0
  0
SCALE
  5
52
102
{ACAD_REACTORS
330
3F
102
}
330
3F
100
AcDbScale
 70
     0
300
1/64" = 1'-0"
140
0.015625
141
12.0
290
     0
  0
SCALE
  5
53
102
{ACAD_REACTORS
330
3F
102
}
330
3F
100
AcDbScale
 70
     0
300
1/32" = 1'-0"
140
0.03125
141
12.0
290
     0
  0
SCALE
  5
54
102
{ACAD_REACTORS
330
3F
102
}
330
3F
100
AcDbScale
 70
     0
300
1/16" = 1'-0"
140
0.0625
141
12.0
290
     0
  0
SCALE
  5
55
102
{ACAD_REACTORS
330
3F
102
}
330
3F
100
AcDbScale
 70
     0
300
3/32" = 1'-0"
140
0.09375
141
12.0
290
     0
  0
SCALE
  5
56
102
{ACAD_REACTORS
330
3F
102
}
330
3F
100
AcDbScale
 70
     0
300
1/8" = 1'-0"
140
0.125
141
12.0
290
     0
  0
SCALE
  5
57
102
{ACAD_REACTORS
330
3F
102
}
330
3F
100
AcDbScale
 70
     0
300
3/16" = 1'-0"
140
0.1875
141
12.0
290
     0
  0
SCALE
  5
58
102
{ACAD_REACTORS
330
3F
102
}
330
3F
100
AcDbScale
 70
     0
300
1/4" = 1'-0"
140
0.25
141
12.0
290
     0
  0
SCALE
  5
59
102
{ACAD_REACTORS
330
3F
102
}
330
3F
100
AcDbScale
 70
     0
300
3/8" = 1'-0"
140
0.375
141
12.0
290
     0
  0
SCALE
  5
5A
102
{ACAD_REACTORS
330
3F
102
}
330
3F
100
AcDbScale
 70
     0
300
1/2" = 1'-0"
140
0.5
141
12.0
290
     0
  0
SCALE
  5
5B
102
{ACAD_REACTORS
330
3F
102
}
330
3F
100
AcDbScale
 70
     0
300
3/4" = 1'-0"
140
0.75
141
12.0
290
     0
  0
SCALE
  5
5C
102
{ACAD_REACTORS
330
3F
102
}
330
3F
100
AcDbScale
 70
     0
300
1" = 1'-0"
140
1.0
141
12.0
290
     0
  0
SCALE
  5
5D
102
{ACAD_REACTORS
330
3F
102
}
330
3F
100
AcDbScale
 70
     0
300
1-1/2" = 1'-0"
140
1.5
141
12.0
290
     0
  0
SCALE
  5
5E
102
{ACAD_REACTORS
330
3F
102
}
330
3F
100
AcDbScale
 70
     0
300
3" = 1'-0"
140
3.0
141
12.0
290
     0
  0
SCALE
  5
5F
102
{ACAD_REACTORS
330
3F
102
}
330
3F
100
AcDbScale
 70
     0
300
6" = 1'-0"
140
6.0
141
12.0
290
     0
  0
SCALE
  5
60
102
{ACAD_REACTORS
330
3F
102
}
330
3F
100
AcDbScale
 70
     0
300
1'-0" = 1'-0"
140
12.0
141
12.0
290
     0
  0
VISUALSTYLE
  5
2F
102
{ACAD_REACTORS
330
2A
102
}
102
{ACAD_XDICTIONARY
360
1FB
102
}
330
2A
100
AcDbVisualStyle
  2
2dWireframe
 70
     4
 71
     0
 72
     2
 73
     0
 90
        0
 40
0.6
 41
30.0
 62
     5
 63
     7
421
 16777215
 74
     1
 91
        4
 64
     7
 65
   257
 75
     1
175
     1
 42
1.0
 92
        0
 66
   257
 43
1.0
 76
     1
 77
     6
 78
     2
 67
     7
 79
     5
170
     0
171
     0
290
     0
174
     0
 93
        1
 44
0.0
173
     0
291
     0
 45
0.0
1001
ACAD
1000
AcDbSavedByObjectVersion
1070
     0
  0
VISUALSTYLE
  5
31
102
{ACAD_REACTORS
330
2A
102
}
102
{ACAD_XDICTIONARY
360
1FF
102
}
330
2A
100
AcDbVisualStyle
  2
3D Hidden
 70
     6
 71
     1
 72
     2
 73
     2
 90
        0
 40
0.6
 41
30.0
 62
     5
 63
     7
421
 16777215
 74
     2
 91
        2
 64
     7
 65
   257
 75
     2
175
     1
 42
40.0
 92
        0
 66
   257
 43
1.0
 76
     1
 77
     6
 78
     2
 67
     7
 79
     3
170
     0
171
     0
290
     0
174
     0
 93
        1
 44
0.0
173
     0
291
     0
 45
0.0
1001
ACAD
1000
AcDbSavedByObjectVersion
1070
     0
  0
VISUALSTYLE
  5
30
102
{ACAD_REACTORS
330
2A
102
}
102
{ACAD_XDICTIONARY
360
1FD
102
}
330
2A
100
AcDbVisualStyle
  2
3dWireframe
 70
     5
 71
     0
 72
     2
 73
     0
 90
        0
 40
0.6
 41
30.0
 62
     5
 63
     7
421
 16777215
 74
     1
 91
        4
 64
     7
 65
   257
 75
     1
175
     1
 42
1.0
 92
        0
 66
   257
 43
1.0
 76
     1
 77
     6
 78
     2
 67
     7
 79
     5
170
     0
171
     0
290
     0
174
     0
 93
        1
 44
0.0
173
     0
291
     0
 45
0.0
1001
ACAD
1000
AcDbSavedByObjectVersion
1070
     0
  0
VISUALSTYLE
  5
32
102
{ACAD_REACTORS
330
2A
102
}
102
{ACAD_XDICTIONARY
360
201
102
}
330
2A
100
AcDbVisualStyle
  2
Basic
 70
     7
 71
     1
 72
     0
 73
     1
 90
        0
 40
0.6
 41
30.0
 62
     5
 63
     7
421
 16777215
 74
     0
 91
        4
 64
     7
 65
   257
 75
     1
175
     1
 42
1.0
 92
        8
 66
     7
 43
1.0
 76
     1
 77
     6
 78
     2
 67
     7
 79
     5
170
     0
171
     0
290
     0
174
     0
 93
        1
 44
0.0
173
     0
291
     1
 45
0.0
1001
ACAD
1000
AcDbSavedByObjectVersion
1070
     0
  0
VISUALSTYLE
  5
36
102
{ACAD_REACTORS
330
2A
102
}
102
{ACAD_XDICTIONARY
360
209
102
}
330
2A
100
AcDbVisualStyle
  2
Brighten
 70
    12
 71
     2
 72
     2
 73
     0
 90
        0
 40
0.6
 41
30.0
 62
     5
 63
     7
421
 16777215
 74
     1
 91
        4
 64
     7
 65
   257
 75
     1
175
     1
 42
1.0
 92
        8
 66
     7
 43
1.0
 76
     1
 77
     6
 78
     2
 67
     7
 79
     5
170
     0
171
     0
290
     0
174
     0
 93
        1
 44
50.0
173
     0
291
     1
 45
0.0
1001
ACAD
1000
AcDbSavedByObjectVersion
1070
     0
  0
VISUALSTYLE
  5
3A
102
{ACAD_REACTORS
330
2A
102
}
102
{ACAD_XDICTIONARY
360
211
102
}
330
2A
100
AcDbVisualStyle
  2
ColorChange
 70
    16
 71
     2
 72
     2
 73
     3
 90
        0
 40
0.6
 41
30.0
 62
     5
 63
     8
421
  8421504
 74
     1
 91
        4
 64
     7
 65
   257
 75
     1
175
     1
 42
1.0
 92
        8
 66
     8
424
  8421504
 43
1.0
 76
     1
 77
     6
 78
     2
 67
     7
 79
     5
170
     0
171
     0
290
     0
174
     0
 93
        1
 44
0.0
173
     0
291
     1
 45
0.0
1001
ACAD
1000
AcDbSavedByObjectVersion
1070
     0
  0
VISUALSTYLE
  5
34
102
{ACAD_REACTORS
330
2A
102
}
102
{ACAD_XDICTIONARY
360
205
102
}
330
2A
100
AcDbVisualStyle
  2
Conceptual
 70
     9
 71
     3
 72
     2
 73
     0
 90
        0
 40
0.6
 41
30.0
 62
     5
 63
     7
421
 16777215
 74
     2
 91
        2
 64
     7
 65
   257
 75
     1
175
     1
 42
40.0
 92
        8
 66
     7
 43
1.0
 76
     1
 77
     6
 78
     2
 67
     7
 79
     3
170
     0
171
     0
290
     0
174
     0
 93
        1
 44
0.0
173
     0
291
     0
 45
0.0
1001
ACAD
1000
AcDbSavedByObjectVersion
1070
     0
  0
VISUALSTYLE
  5
35
102
{ACAD_REACTORS
330
2A
102
}
102
{ACAD_XDICTIONARY
360
207
102
}
330
2A
100
AcDbVisualStyle
  2
Dim
 70
    11
 71
     2
 72
     2
 73
     0
 90
        0
 40
0.6
 41
30.0
 62
     5
 63
     7
421
 16777215
 74
     1
 91
        4
 64
     7
 65
   257
 75
     1
175
     1
 42
1.0
 92
        8
 66
     7
 43
1.0
 76
     1
 77
     6
 78
     2
 67
     7
 79
     5
170
     0
171
     0
290
     0
174
     0
 93
        1
 44
-50.0
173
     0
291
     1
 45
0.0
1001
ACAD
1000
AcDbSavedByObjectVersion
1070
     0
  0
VISUALSTYLE
  5
39
102
{ACAD_REACTORS
330
2A
102
}
102
{ACAD_XDICTIONARY
360
20F
102
}
330
2A
100
AcDbVisualStyle
  2
Facepattern
 70
    15
 71
     2
 72
     2
 73
     0
 90
        0
 40
0.6
 41
30.0
 62
     5
 63
     7
421
 16777215
 74
     1
 91
        4
 64
     7
 65
   257
 75
     1
175
     1
 42
1.0
 92
        8
 66
     7
 43
1.0
 76
     1
 77
     6
 78
     2
 67
     7
 79
     5
170
     0
171
     0
290
     0
174
     0
 93
        1
 44
0.0
173
     0
291
     1
 45
0.0
1001
ACAD
1000
AcDbSavedByObjectVersion
1070
     0
  0
VISUALSTYLE
  5
2B
102
{ACAD_REACTORS
330
2A
102
}
102
{ACAD_XDICTIONARY
360
1F3
102
}
330
2A
100
AcDbVisualStyle
  2
Flat
 70
     0
 71
     2
 72
     1
 73
     1
 90
        2
 40
0.6
 41
30.0
 62
     5
 63
     7
421
 16777215
 74
     0
 91
        4
 64
     7
 65
   257
 75
     1
175
     1
 42
1.0
 92
        8
 66
     7
 43
1.0
 76
     1
 77
     6
 78
     2
 67
     7
 79
     5
170
     0
171
     0
290
     0
174
     0
 93
       13
 44
0.0
173
     0
291
     1
 45
0.0
1001
ACAD
1000
AcDbSavedByObjectVersion
1070
     0
  0
VISUALSTYLE
  5
2C
102
{ACAD_REACTORS
330
2A
102
}
102
{ACAD_XDICTIONARY
360
1F5
102
}
330
2A
100
AcDbVisualStyle
  2
FlatWithEdges
 70
     1
 71
     2
 72
     1
 73
     1
 90
        2
 40
0.6
 41
30.0
 62
     5
 63
     7
421
 16777215
 74
     1
 91
        4
 64
     7
 65
   257
 75
     1
175
     1
 42
1.0
 92
        0
 66
   257
 43
1.0
 76
     1
 77
     6
 78
     2
 67
     7
 79
     5
170
     0
171
     0
290
     0
174
     0
 93
       13
 44
0.0
173
     0
291
     1
 45
0.0
1001
ACAD
1000
AcDbSavedByObjectVersion
1070
     0
  0
VISUALSTYLE
  5
2D
102
{ACAD_REACTORS
330
2A
102
}
102
{ACAD_XDICTIONARY
360
1F7
102
}
330
2A
100
AcDbVisualStyle
  2
Gouraud
 70
     2
 71
     2
 72
     2
 73
     1
 90
        2
 40
0.6
 41
30.0
 62
     5
 63
     7
421
 16777215
 74
     0
 91
        4
 64
     7
 65
   257
 75
     1
175
     1
 42
1.0
 92
        0
 66
     7
 43
1.0
 76
     1
 77
     6
 78
     2
 67
     7
 79
     5
170
     0
171
     0
290
     0
174
     0
 93
       13
 44
0.0
173
     0
291
     1
 45
0.0
1001
ACAD
1000
AcDbSavedByObjectVersion
1070
     0
  0
VISUALSTYLE
  5
2E
102
{ACAD_REACTORS
330
2A
102
}
102
{ACAD_XDICTIONARY
360
1F9
102
}
330
2A
100
AcDbVisualStyle
  2
GouraudWithEdges
 70
     3
 71
     2
 72
     2
 73
     1
 90
        2
 40
0.6
 41
30.0
 62
     5
 63
     7
421
 16777215
 74
     1
 91
        4
 64
     7
 65
   257
 75
     1
175
     1
 42
1.0
 92
        0
 66
   257
 43
1.0
 76
     1
 77
     6
 78
     2
 67
     7
 79
     5
170
     0
171
     0
290
     0
174
     0
 93
       13
 44
0.0
173
     0
291
     1
 45
0.0
1001
ACAD
1000
AcDbSavedByObjectVersion
1070
     0
  0
VISUALSTYLE
  5
38
102
{ACAD_REACTORS
330
2A
102
}
102
{ACAD_XDICTIONARY
360
20D
102
}
330
2A
100
AcDbVisualStyle
  2
Linepattern
 70
    14
 71
     2
 72
     2
 73
     0
 90
        0
 40
0.6
 41
30.0
 62
     5
 63
     7
421
 16777215
 74
     1
 91
        4
 64
     7
 65
   257
 75
     7
175
     7
 42
1.0
 92
        8
 66
     7
 43
1.0
 76
     1
 77
     6
 78
     2
 67
     7
 79
     5
170
     0
171
     0
290
     0
174
     0
 93
        1
 44
0.0
173
     0
291
     1
 45
0.0
1001
ACAD
1000
AcDbSavedByObjectVersion
1070
     0
  0
VISUALSTYLE
  5
33
102
{ACAD_REACTORS
330
2A
102
}
102
{ACAD_XDICTIONARY
360
203
102
}
330
2A
100
AcDbVisualStyle
  2
Realistic
 70
     8
 71
     2
 72
     3
 73
     0
 90
        2
 40
0.6
 41
30.0
 62
     5
 63
     7
421
 16777215
 74
     0
 91
        0
 64
     7
 65
   257
 75
     1
175
     1
 42
1.0
 92
        8
 66
   257
 43
1.0
 76
     1
 77
     6
 78
     2
 67
     7
 79
     3
170
     0
171
     0
290
     0
174
     0
 93
       13
 44
0.0
173
     0
291
     0
 45
0.0
1001
ACAD
1000
AcDbSavedByObjectVersion
1070
     0
  0
VISUALSTYLE
  5
37
102
{ACAD_REACTORS
330
2A
102
}
102
{ACAD_XDICTIONARY
360
20B
102
}
330
2A
100
AcDbVisualStyle
  2
Thicken
 70
    13
 71
     2
 72
     2
 73
     0
 90
        0
 40
0.6
 41
30.0
 62
     5
 63
     7
421
 16777215
 74
     1
 91
        4
 64
     7
 65
   257
 75
     1
175
     1
 42
1.0
 92
       12
 66
     7
 43
1.0
 76
     1
 77
     6
 78
     2
 67
     7
 79
     5
170
     0
171
     0
290
     0
174
     0
 93
        1
 44
0.0
173
     0
291
     1
 45
0.0
1001
ACAD
1000
AcDbSavedByObjectVersion
1070
     0
  0
DICTIONARYVAR
  5
1F1
102
{ACAD_REACTORS
330
1F0
102
}
330
1F0
100
DictionaryVariables
280
     0
  1
1:1
  0
DICTIONARYVAR
  5
1F2
102
{ACAD_REACTORS
330
1F0
102
}
330
1F0
100
DictionaryVariables
280
     0
  1
1
  0
DICTIONARY
  5
215
330
3D
100
AcDbDictionary
280
     1
281
     1
  3
ACAD_XREC_ROUNDTRIP
360
216
  0
DICTIONARY
  5
213
330
3C
100
AcDbDictionary
280
     1
281
     1
  3
ACAD_XREC_ROUNDTRIP
360
214
  0
DICTIONARY
  5
217
330
3E
100
AcDbDictionary
280
     1
281
     1
  3
ACAD_XREC_ROUNDTRIP
360
218
  0
DICTIONARY
  5
1FB
330
2F
100
AcDbDictionary
280
     1
281
     1
  3
ACAD_XREC_ROUNDTRIP
360
1FC
  0
DICTIONARY
  5
1FF
330
31
100
AcDbDictionary
280
     1
281
     1
  3
ACAD_XREC_ROUNDTRIP
360
200
  0
DICTIONARY
  5
1FD
330
30
100
AcDbDictionary
280
     1
281
     1
  3
ACAD_XREC_ROUNDTRIP
360
1FE
  0
DICTIONARY
  5
201
330
32
100
AcDbDictionary
280
     1
281
     1
  3
ACAD_XREC_ROUNDTRIP
360
202
  0
DICTIONARY
  5
209
330
36
100
AcDbDictionary
280
     1
281
     1
  3
ACAD_XREC_ROUNDTRIP
360
20A
  0
DICTIONARY
  5
211
330
3A
100
AcDbDictionary
280
     1
281
     1
  3
ACAD_XREC_ROUNDTRIP
360
212
  0
DICTIONARY
  5
205
330
34
100
AcDbDictionary
280
     1
281
     1
  3
ACAD_XREC_ROUNDTRIP
360
206
  0
DICTIONARY
  5
207
330
35
100
AcDbDictionary
280
     1
281
     1
  3
ACAD_XREC_ROUNDTRIP
360
208
  0
DICTIONARY
  5
20F
330
39
100
AcDbDictionary
280
     1
281
     1
  3
ACAD_XREC_ROUNDTRIP
360
210
  0
DICTIONARY
  5
1F3
330
2B
100
AcDbDictionary
280
     1
281
     1
  3
ACAD_XREC_ROUNDTRIP
360
1F4
  0
DICTIONARY
  5
1F5
330
2C
100
AcDbDictionary
280
     1
281
     1
  3
ACAD_XREC_ROUNDTRIP
360
1F6
  0
DICTIONARY
  5
1F7
330
2D
100
AcDbDictionary
280
     1
281
     1
  3
ACAD_XREC_ROUNDTRIP
360
1F8
  0
DICTIONARY
  5
1F9
330
2E
100
AcDbDictionary
280
     1
281
     1
  3
ACAD_XREC_ROUNDTRIP
360
1FA
  0
DICTIONARY
  5
20D
330
38
100
AcDbDictionary
280
     1
281
     1
  3
ACAD_XREC_ROUNDTRIP
360
20E
  0
DICTIONARY
  5
203
330
33
100
AcDbDictionary
280
     1
281
     1
  3
ACAD_XREC_ROUNDTRIP
360
204
  0
DICTIONARY
  5
20B
330
37
100
AcDbDictionary
280
     1
281
     1
  3
ACAD_XREC_ROUNDTRIP
360
20C
  0
XRECORD
  5
216
102
{ACAD_REACTORS
330
215
102
}
330
215
100
AcDbXrecord
280
     1
102
MATERIAL
148
0.0
149
0.0
149
0.0
 93
        0
 94
      127
282
     0
 72
     1
 77
     1
171
     1
175
     1
179
     1
273
     0
  0
XRECORD
  5
214
102
{ACAD_REACTORS
330
213
102
}
330
213
100
AcDbXrecord
280
     1
102
MATERIAL
148
0.0
149
0.0
149
0.0
 93
        0
 94
      127
282
     0
 72
     1
 77
     1
171
     1
175
     1
179
     1
273
     0
  0
XRECORD
  5
218
102
{ACAD_REACTORS
330
217
102
}
330
217
100
AcDbXrecord
280
     1
102
MATERIAL
148
0.0
149
0.0
149
0.0
 93
        0
 94
      127
282
     0
 72
     1
 77
     1
171
     1
175
     1
179
     1
273
     0
  0
XRECORD
  5
1FC
102
{ACAD_REACTORS
330
1FB
102
}
330
1FB
100
AcDbXrecord
280
     1
102
RTVSPropertyOp0
 70
     1
102
RTVSPropertyOp1
 70
     1
102
RTVSPropertyOp2
 70
     1
102
RTVSPropertyOp3
 70
     1
102
RTVSPropertyOp4
 70
     1
102
RTVSPropertyOp5
 70
     1
102
RTVSPropertyOp6
 70
     1
102
RTVSPropertyOp7
 70
     1
102
RTVSPropertyOp8
 70
     1
102
RTVSPropertyOp9
 70
     1
102
RTVSPropertyOp10
 70
     1
102
RTVSPropertyOp11
 70
     1
102
RTVSPropertyOp12
 70
     1
102
RTVSPropertyOp13
 70
     1
102
RTVSPropertyOp14
 70
     1
102
RTVSPropertyOp15
 70
     1
102
RTVSPropertyOp16
 70
     1
102
RTVSPropertyOp17
 70
     1
102
RTVSPropertyOp18
 70
     1
102
RTVSPropertyOp19
 70
     1
102
RTVSPropertyOp20
 70
     1
102
RTVSPropertyOp21
 70
     1
102
RTVSPropertyOp22
 70
     1
102
RTVSPropertyOp23
 70
     1
102
RTVSPropertyOp24
 70
     1
102
RTVSPropertyOp25
 70
     1
102
RTVSPropertyOp26
 70
     1
102
RTVSPropertyOp27
 70
     1
102
RTVSPropertyOp28
 70
     1
102
RTVSPropertyOp29
 70
     1
102
RTVSPropertyOp30
 70
     1
102
RTVSPropertyOp31
 70
     1
102
RTVSPropertyOp32
 70
     1
102
RTVSPropertyOp33
 70
     1
102
RTVSPropertyOp34
 70
     1
102
RTVSPropertyOp35
 70
     1
102
RTVSPropertyOp36
 70
     1
102
RTVSPropertyOp37
 70
     1
102
RTVSPropertyOp38
 70
     1
102
RTVSPropertyOp39
 70
     1
102
RTVSPropertyOp40
 70
     1
102
RTVSPropertyOp41
 70
     1
102
RTVSPropertyOp42
 70
     1
102
RTVSPropertyOp43
 70
     1
102
RTVSPropertyOp44
 70
     1
102
RTVSPropertyOp45
 70
     1
102
RTVSPropertyOp46
 70
     1
102
RTVSPropertyOp47
 70
     1
102
RTVSPropertyOp48
 70
     1
102
RTVSPropertyOp49
 70
     1
102
RTVSPropertyOp50
 70
     1
102
RTVSPropertyOp51
 70
     0
102
RTVSPropertyOp52
 70
     0
102
RTVSPropertyOp53
 70
     1
102
RTVSPropertyOp54
 70
     1
102
RTVSPropertyOp55
 70
     1
102
RTVSPropertyOp56
 70
     1
102
RTVSPropertyOp57
 70
     1
102
RTVSPost2010Prop28
280
     1
102
RTVSPost2010PropOp28
 70
     1
102
RTVSPost2010Prop29
280
     1
102
RTVSPost2010PropOp29
 70
     1
102
RTVSPost2010Prop30
280
     0
102
RTVSPost2010PropOp30
 70
     1
102
RTVSPost2010Prop31
280
     0
102
RTVSPost2010PropOp31
 70
     1
102
RTVSPost2010Prop32
280
     0
102
RTVSPost2010PropOp32
 70
     1
102
RTVSPost2010Prop33
280
     0
102
RTVSPost2010PropOp33
 70
     1
102
RTVSPost2010Prop34
280
     0
102
RTVSPost2010PropOp34
 70
     1
102
RTVSPost2010Prop35
280
     0
102
RTVSPost2010PropOp35
 70
     1
102
RTVSPost2010Prop36
280
     0
102
RTVSPost2010PropOp36
 70
     1
102
RTVSPost2010Prop37
 90
       50
102
RTVSPost2010PropOp37
 70
     1
102
RTVSPost2010Prop38
140
0.0
102
RTVSPost2010PropOp38
 70
     1
102
RTVSPost2010Prop39
140
1.0
102
RTVSPost2010PropOp39
 70
     1
102
RTVSPost2010Prop40
 90
        0
102
RTVSPost2010PropOp40
 70
     1
102
RTVSPost2010Prop41ColorIndex
 90
       18
102
RTVSPost2010Prop41ColorRGB
 90
        0
102
RTVSPost2010PropOp41
 70
     1
102
RTVSPost2010Prop42
 90
       50
102
RTVSPost2010PropOp42
 70
     1
102
RTVSPost2010Prop43
 90
        3
102
RTVSPost2010PropOp43
 70
     1
102
RTVSPost2010Prop44ColorIndex
 90
        5
102
RTVSPost2010Prop44ColorRGB
 90
      255
102
RTVSPost2010PropOp44
 70
     1
102
RTVSPost2010Prop45
280
     0
102
RTVSPost2010PropOp45
 70
     1
102
RTVSPost2010Prop46
 90
       50
102
RTVSPost2010PropOp46
 70
     1
102
RTVSPost2010Prop47
 90
       50
102
RTVSPost2010PropOp47
 70
     1
102
RTVSPost2010Prop48
 90
       50
102
RTVSPost2010PropOp48
 70
     1
102
RTVSPost2010Prop49
280
     0
102
RTVSPost2010PropOp49
 70
     1
102
RTVSPost2010Prop50
 90
       50
102
RTVSPost2010PropOp50
 70
     1
102
RTVSPost2010Prop51ColorIndex
 90
      256
102
RTVSPost2010Prop51ColorRGB
 90
-16777216
102
RTVSPost2010PropOp51
 70
     0
102
RTVSPost2010Prop52
140
1.0
102
RTVSPost2010PropOp52
 70
     0
102
RTVSPost2010Prop53
 90
        2
102
RTVSPost2010PropOp53
 70
     1
102
RTVSPost2010Prop54
  1
strokes_ogs.tif
102
RTVSPost2010PropOp54
 70
     1
102
RTVSPost2010Prop55
280
     0
102
RTVSPost2010PropOp55
 70
     1
102
RTVSPost2010Prop56
140
1.0
102
RTVSPost2010PropOp56
 70
     1
102
RTVSPost2010Prop57
140
1.0
102
RTVSPost2010PropOp57
 70
     1
  0
XRECORD
  5
200
102
{ACAD_REACTORS
330
1FF
102
}
330
1FF
100
AcDbXrecord
280
     1
102
RTVSPropertyOp0
 70
     1
102
RTVSPropertyOp1
 70
     1
102
RTVSPropertyOp2
 70
     1
102
RTVSPropertyOp3
 70
     1
102
RTVSPropertyOp4
 70
     1
102
RTVSPropertyOp5
 70
     1
102
RTVSPropertyOp6
 70
     1
102
RTVSPropertyOp7
 70
     1
102
RTVSPropertyOp8
 70
     1
102
RTVSPropertyOp9
 70
     1
102
RTVSPropertyOp10
 70
     1
102
RTVSPropertyOp11
 70
     1
102
RTVSPropertyOp12
 70
     1
102
RTVSPropertyOp13
 70
     1
102
RTVSPropertyOp14
 70
     1
102
RTVSPropertyOp15
 70
     1
102
RTVSPropertyOp16
 70
     1
102
RTVSPropertyOp17
 70
     1
102
RTVSPropertyOp18
 70
     1
102
RTVSPropertyOp19
 70
     1
102
RTVSPropertyOp20
 70
     1
102
RTVSPropertyOp21
 70
     1
102
RTVSPropertyOp22
 70
     1
102
RTVSPropertyOp23
 70
     1
102
RTVSPropertyOp24
 70
     1
102
RTVSPropertyOp25
 70
     1
102
RTVSPropertyOp26
 70
     1
102
RTVSPropertyOp27
 70
     1
102
RTVSPropertyOp28
 70
     1
102
RTVSPropertyOp29
 70
     1
102
RTVSPropertyOp30
 70
     1
102
RTVSPropertyOp31
 70
     1
102
RTVSPropertyOp32
 70
     1
102
RTVSPropertyOp33
 70
     1
102
RTVSPropertyOp34
 70
     1
102
RTVSPropertyOp35
 70
     1
102
RTVSPropertyOp36
 70
     1
102
RTVSPropertyOp37
 70
     1
102
RTVSPropertyOp38
 70
     1
102
RTVSPropertyOp39
 70
     1
102
RTVSPropertyOp40
 70
     1
102
RTVSPropertyOp41
 70
     1
102
RTVSPropertyOp42
 70
     1
102
RTVSPropertyOp43
 70
     1
102
RTVSPropertyOp44
 70
     1
102
RTVSPropertyOp45
 70
     1
102
RTVSPropertyOp46
 70
     1
102
RTVSPropertyOp47
 70
     1
102
RTVSPropertyOp48
 70
     1
102
RTVSPropertyOp49
 70
     1
102
RTVSPropertyOp50
 70
     1
102
RTVSPropertyOp51
 70
     0
102
RTVSPropertyOp52
 70
     0
102
RTVSPropertyOp53
 70
     1
102
RTVSPropertyOp54
 70
     1
102
RTVSPropertyOp55
 70
     1
102
RTVSPropertyOp56
 70
     1
102
RTVSPropertyOp57
 70
     1
102
RTVSPost2010Prop28
280
     0
102
RTVSPost2010PropOp28
 70
     1
102
RTVSPost2010Prop29
280
     1
102
RTVSPost2010PropOp29
 70
     1
102
RTVSPost2010Prop30
280
     1
102
RTVSPost2010PropOp30
 70
     1
102
RTVSPost2010Prop31
280
     0
102
RTVSPost2010PropOp31
 70
     1
102
RTVSPost2010Prop32
280
     0
102
RTVSPost2010PropOp32
 70
     1
102
RTVSPost2010Prop33
280
     0
102
RTVSPost2010PropOp33
 70
     1
102
RTVSPost2010Prop34
280
     0
102
RTVSPost2010PropOp34
 70
     1
102
RTVSPost2010Prop35
280
     0
102
RTVSPost2010PropOp35
 70
     1
102
RTVSPost2010Prop36
280
     0
102
RTVSPost2010PropOp36
 70
     1
102
RTVSPost2010Prop37
 90
       50
102
RTVSPost2010PropOp37
 70
     1
102
RTVSPost2010Prop38
140
0.0
102
RTVSPost2010PropOp38
 70
     1
102
RTVSPost2010Prop39
140
1.0
102
RTVSPost2010PropOp39
 70
     1
102
RTVSPost2010Prop40
 90
        0
102
RTVSPost2010PropOp40
 70
     1
102
RTVSPost2010Prop41ColorIndex
 90
       18
102
RTVSPost2010Prop41ColorRGB
 90
        0
102
RTVSPost2010PropOp41
 70
     1
102
RTVSPost2010Prop42
 90
       50
102
RTVSPost2010PropOp42
 70
     1
102
RTVSPost2010Prop43
 90
        3
102
RTVSPost2010PropOp43
 70
     1
102
RTVSPost2010Prop44ColorIndex
 90
        5
102
RTVSPost2010Prop44ColorRGB
 90
      255
102
RTVSPost2010PropOp44
 70
     1
102
RTVSPost2010Prop45
280
     0
102
RTVSPost2010PropOp45
 70
     1
102
RTVSPost2010Prop46
 90
       50
102
RTVSPost2010PropOp46
 70
     1
102
RTVSPost2010Prop47
 90
       50
102
RTVSPost2010PropOp47
 70
     1
102
RTVSPost2010Prop48
 90
       50
102
RTVSPost2010PropOp48
 70
     1
102
RTVSPost2010Prop49
280
     0
102
RTVSPost2010PropOp49
 70
     1
102
RTVSPost2010Prop50
 90
       50
102
RTVSPost2010PropOp50
 70
     1
102
RTVSPost2010Prop51ColorIndex
 90
      256
102
RTVSPost2010Prop51ColorRGB
 90
-16777216
102
RTVSPost2010PropOp51
 70
     0
102
RTVSPost2010Prop52
140
1.0
102
RTVSPost2010PropOp52
 70
     0
102
RTVSPost2010Prop53
 90
        2
102
RTVSPost2010PropOp53
 70
     1
102
RTVSPost2010Prop54
  1
strokes_ogs.tif
102
RTVSPost2010PropOp54
 70
     1
102
RTVSPost2010Prop55
280
     0
102
RTVSPost2010PropOp55
 70
     1
102
RTVSPost2010Prop56
140
1.0
102
RTVSPost2010PropOp56
 70
     1
102
RTVSPost2010Prop57
140
1.0
102
RTVSPost2010PropOp57
 70
     1
  0
XRECORD
  5
1FE
102
{ACAD_REACTORS
330
1FD
102
}
330
1FD
100
AcDbXrecord
280
     1
102
RTVSPropertyOp0
 70
     1
102
RTVSPropertyOp1
 70
     1
102
RTVSPropertyOp2
 70
     1
102
RTVSPropertyOp3
 70
     1
102
RTVSPropertyOp4
 70
     1
102
RTVSPropertyOp5
 70
     1
102
RTVSPropertyOp6
 70
     1
102
RTVSPropertyOp7
 70
     1
102
RTVSPropertyOp8
 70
     1
102
RTVSPropertyOp9
 70
     1
102
RTVSPropertyOp10
 70
     1
102
RTVSPropertyOp11
 70
     1
102
RTVSPropertyOp12
 70
     1
102
RTVSPropertyOp13
 70
     1
102
RTVSPropertyOp14
 70
     1
102
RTVSPropertyOp15
 70
     1
102
RTVSPropertyOp16
 70
     1
102
RTVSPropertyOp17
 70
     1
102
RTVSPropertyOp18
 70
     1
102
RTVSPropertyOp19
 70
     1
102
RTVSPropertyOp20
 70
     1
102
RTVSPropertyOp21
 70
     1
102
RTVSPropertyOp22
 70
     1
102
RTVSPropertyOp23
 70
     1
102
RTVSPropertyOp24
 70
     1
102
RTVSPropertyOp25
 70
     1
102
RTVSPropertyOp26
 70
     1
102
RTVSPropertyOp27
 70
     1
102
RTVSPropertyOp28
 70
     1
102
RTVSPropertyOp29
 70
     1
102
RTVSPropertyOp30
 70
     1
102
RTVSPropertyOp31
 70
     1
102
RTVSPropertyOp32
 70
     1
102
RTVSPropertyOp33
 70
     1
102
RTVSPropertyOp34
 70
     1
102
RTVSPropertyOp35
 70
     1
102
RTVSPropertyOp36
 70
     1
102
RTVSPropertyOp37
 70
     1
102
RTVSPropertyOp38
 70
     1
102
RTVSPropertyOp39
 70
     1
102
RTVSPropertyOp40
 70
     1
102
RTVSPropertyOp41
 70
     1
102
RTVSPropertyOp42
 70
     1
102
RTVSPropertyOp43
 70
     1
102
RTVSPropertyOp44
 70
     1
102
RTVSPropertyOp45
 70
     1
102
RTVSPropertyOp46
 70
     1
102
RTVSPropertyOp47
 70
     1
102
RTVSPropertyOp48
 70
     1
102
RTVSPropertyOp49
 70
     1
102
RTVSPropertyOp50
 70
     1
102
RTVSPropertyOp51
 70
     0
102
RTVSPropertyOp52
 70
     0
102
RTVSPropertyOp53
 70
     1
102
RTVSPropertyOp54
 70
     1
102
RTVSPropertyOp55
 70
     1
102
RTVSPropertyOp56
 70
     1
102
RTVSPropertyOp57
 70
     1
102
RTVSPost2010Prop28
280
     0
102
RTVSPost2010PropOp28
 70
     1
102
RTVSPost2010Prop29
280
     1
102
RTVSPost2010PropOp29
 70
     1
102
RTVSPost2010Prop30
280
     1
102
RTVSPost2010PropOp30
 70
     1
102
RTVSPost2010Prop31
280
     0
102
RTVSPost2010PropOp31
 70
     1
102
RTVSPost2010Prop32
280
     0
102
RTVSPost2010PropOp32
 70
     1
102
RTVSPost2010Prop33
280
     0
102
RTVSPost2010PropOp33
 70
     1
102
RTVSPost2010Prop34
280
     0
102
RTVSPost2010PropOp34
 70
     1
102
RTVSPost2010Prop35
280
     0
102
RTVSPost2010PropOp35
 70
     1
102
RTVSPost2010Prop36
280
     0
102
RTVSPost2010PropOp36
 70
     1
102
RTVSPost2010Prop37
 90
       50
102
RTVSPost2010PropOp37
 70
     1
102
RTVSPost2010Prop38
140
0.0
102
RTVSPost2010PropOp38
 70
     1
102
RTVSPost2010Prop39
140
1.0
102
RTVSPost2010PropOp39
 70
     1
102
RTVSPost2010Prop40
 90
        0
102
RTVSPost2010PropOp40
 70
     1
102
RTVSPost2010Prop41ColorIndex
 90
       18
102
RTVSPost2010Prop41ColorRGB
 90
        0
102
RTVSPost2010PropOp41
 70
     1
102
RTVSPost2010Prop42
 90
       50
102
RTVSPost2010PropOp42
 70
     1
102
RTVSPost2010Prop43
 90
        3
102
RTVSPost2010PropOp43
 70
     1
102
RTVSPost2010Prop44ColorIndex
 90
        5
102
RTVSPost2010Prop44ColorRGB
 90
      255
102
RTVSPost2010PropOp44
 70
     1
102
RTVSPost2010Prop45
280
     0
102
RTVSPost2010PropOp45
 70
     1
102
RTVSPost2010Prop46
 90
       50
102
RTVSPost2010PropOp46
 70
     1
102
RTVSPost2010Prop47
 90
       50
102
RTVSPost2010PropOp47
 70
     1
102
RTVSPost2010Prop48
 90
       50
102
RTVSPost2010PropOp48
 70
     1
102
RTVSPost2010Prop49
280
     0
102
RTVSPost2010PropOp49
 70
     1
102
RTVSPost2010Prop50
 90
       50
102
RTVSPost2010PropOp50
 70
     1
102
RTVSPost2010Prop51ColorIndex
 90
      256
102
RTVSPost2010Prop51ColorRGB
 90
-16777216
102
RTVSPost2010PropOp51
 70
     0
102
RTVSPost2010Prop52
140
1.0
102
RTVSPost2010PropOp52
 70
     0
102
RTVSPost2010Prop53
 90
        2
102
RTVSPost2010PropOp53
 70
     1
102
RTVSPost2010Prop54
  1
strokes_ogs.tif
102
RTVSPost2010PropOp54
 70
     1
102
RTVSPost2010Prop55
280
     0
102
RTVSPost2010PropOp55
 70
     1
102
RTVSPost2010Prop56
140
1.0
102
RTVSPost2010PropOp56
 70
     1
102
RTVSPost2010Prop57
140
1.0
102
RTVSPost2010PropOp57
 70
     1
  0
XRECORD
  5
202
102
{ACAD_REACTORS
330
201
102
}
330
201
100
AcDbXrecord
280
     1
102
RTVSPropertyOp0
 70
     1
102
RTVSPropertyOp1
 70
     1
102
RTVSPropertyOp2
 70
     1
102
RTVSPropertyOp3
 70
     1
102
RTVSPropertyOp4
 70
     1
102
RTVSPropertyOp5
 70
     1
102
RTVSPropertyOp6
 70
     1
102
RTVSPropertyOp7
 70
     1
102
RTVSPropertyOp8
 70
     1
102
RTVSPropertyOp9
 70
     1
102
RTVSPropertyOp10
 70
     1
102
RTVSPropertyOp11
 70
     1
102
RTVSPropertyOp12
 70
     1
102
RTVSPropertyOp13
 70
     1
102
RTVSPropertyOp14
 70
     1
102
RTVSPropertyOp15
 70
     1
102
RTVSPropertyOp16
 70
     1
102
RTVSPropertyOp17
 70
     1
102
RTVSPropertyOp18
 70
     1
102
RTVSPropertyOp19
 70
     1
102
RTVSPropertyOp20
 70
     1
102
RTVSPropertyOp21
 70
     1
102
RTVSPropertyOp22
 70
     1
102
RTVSPropertyOp23
 70
     1
102
RTVSPropertyOp24
 70
     1
102
RTVSPropertyOp25
 70
     1
102
RTVSPropertyOp26
 70
     1
102
RTVSPropertyOp27
 70
     1
102
RTVSPropertyOp28
 70
     1
102
RTVSPropertyOp29
 70
     1
102
RTVSPropertyOp30
 70
     1
102
RTVSPropertyOp31
 70
     1
102
RTVSPropertyOp32
 70
     1
102
RTVSPropertyOp33
 70
     1
102
RTVSPropertyOp34
 70
     1
102
RTVSPropertyOp35
 70
     1
102
RTVSPropertyOp36
 70
     1
102
RTVSPropertyOp37
 70
     1
102
RTVSPropertyOp38
 70
     1
102
RTVSPropertyOp39
 70
     1
102
RTVSPropertyOp40
 70
     1
102
RTVSPropertyOp41
 70
     1
102
RTVSPropertyOp42
 70
     1
102
RTVSPropertyOp43
 70
     1
102
RTVSPropertyOp44
 70
     1
102
RTVSPropertyOp45
 70
     1
102
RTVSPropertyOp46
 70
     1
102
RTVSPropertyOp47
 70
     1
102
RTVSPropertyOp48
 70
     1
102
RTVSPropertyOp49
 70
     1
102
RTVSPropertyOp50
 70
     1
102
RTVSPropertyOp51
 70
     0
102
RTVSPropertyOp52
 70
     0
102
RTVSPropertyOp53
 70
     1
102
RTVSPropertyOp54
 70
     1
102
RTVSPropertyOp55
 70
     1
102
RTVSPropertyOp56
 70
     1
102
RTVSPropertyOp57
 70
     1
102
RTVSPost2010Prop28
280
     0
102
RTVSPost2010PropOp28
 70
     1
102
RTVSPost2010Prop29
280
     1
102
RTVSPost2010PropOp29
 70
     1
102
RTVSPost2010Prop30
280
     1
102
RTVSPost2010PropOp30
 70
     1
102
RTVSPost2010Prop31
280
     0
102
RTVSPost2010PropOp31
 70
     1
102
RTVSPost2010Prop32
280
     0
102
RTVSPost2010PropOp32
 70
     1
102
RTVSPost2010Prop33
280
     0
102
RTVSPost2010PropOp33
 70
     1
102
RTVSPost2010Prop34
280
     0
102
RTVSPost2010PropOp34
 70
     1
102
RTVSPost2010Prop35
280
     0
102
RTVSPost2010PropOp35
 70
     1
102
RTVSPost2010Prop36
280
     0
102
RTVSPost2010PropOp36
 70
     1
102
RTVSPost2010Prop37
 90
       50
102
RTVSPost2010PropOp37
 70
     1
102
RTVSPost2010Prop38
140
0.0
102
RTVSPost2010PropOp38
 70
     1
102
RTVSPost2010Prop39
140
1.0
102
RTVSPost2010PropOp39
 70
     1
102
RTVSPost2010Prop40
 90
        0
102
RTVSPost2010PropOp40
 70
     1
102
RTVSPost2010Prop41ColorIndex
 90
       18
102
RTVSPost2010Prop41ColorRGB
 90
        0
102
RTVSPost2010PropOp41
 70
     1
102
RTVSPost2010Prop42
 90
       50
102
RTVSPost2010PropOp42
 70
     1
102
RTVSPost2010Prop43
 90
        3
102
RTVSPost2010PropOp43
 70
     1
102
RTVSPost2010Prop44ColorIndex
 90
        5
102
RTVSPost2010Prop44ColorRGB
 90
      255
102
RTVSPost2010PropOp44
 70
     1
102
RTVSPost2010Prop45
280
     0
102
RTVSPost2010PropOp45
 70
     1
102
RTVSPost2010Prop46
 90
       50
102
RTVSPost2010PropOp46
 70
     1
102
RTVSPost2010Prop47
 90
       50
102
RTVSPost2010PropOp47
 70
     1
102
RTVSPost2010Prop48
 90
       50
102
RTVSPost2010PropOp48
 70
     1
102
RTVSPost2010Prop49
280
     0
102
RTVSPost2010PropOp49
 70
     1
102
RTVSPost2010Prop50
 90
       50
102
RTVSPost2010PropOp50
 70
     1
102
RTVSPost2010Prop51ColorIndex
 90
      256
102
RTVSPost2010Prop51ColorRGB
 90
-16777216
102
RTVSPost2010PropOp51
 70
     0
102
RTVSPost2010Prop52
140
1.0
102
RTVSPost2010PropOp52
 70
     0
102
RTVSPost2010Prop53
 90
        2
102
RTVSPost2010PropOp53
 70
     1
102
RTVSPost2010Prop54
  1
strokes_ogs.tif
102
RTVSPost2010PropOp54
 70
     1
102
RTVSPost2010Prop55
280
     0
102
RTVSPost2010PropOp55
 70
     1
102
RTVSPost2010Prop56
140
1.0
102
RTVSPost2010PropOp56
 70
     1
102
RTVSPost2010Prop57
140
1.0
102
RTVSPost2010PropOp57
 70
     1
  0
XRECORD
  5
20A
102
{ACAD_REACTORS
330
209
102
}
330
209
100
AcDbXrecord
280
     1
102
RTVSPropertyOp0
 70
     1
102
RTVSPropertyOp1
 70
     1
102
RTVSPropertyOp2
 70
     1
102
RTVSPropertyOp3
 70
     1
102
RTVSPropertyOp4
 70
     1
102
RTVSPropertyOp5
 70
     1
102
RTVSPropertyOp6
 70
     1
102
RTVSPropertyOp7
 70
     1
102
RTVSPropertyOp8
 70
     1
102
RTVSPropertyOp9
 70
     1
102
RTVSPropertyOp10
 70
     1
102
RTVSPropertyOp11
 70
     1
102
RTVSPropertyOp12
 70
     1
102
RTVSPropertyOp13
 70
     1
102
RTVSPropertyOp14
 70
     1
102
RTVSPropertyOp15
 70
     1
102
RTVSPropertyOp16
 70
     1
102
RTVSPropertyOp17
 70
     1
102
RTVSPropertyOp18
 70
     1
102
RTVSPropertyOp19
 70
     1
102
RTVSPropertyOp20
 70
     1
102
RTVSPropertyOp21
 70
     1
102
RTVSPropertyOp22
 70
     1
102
RTVSPropertyOp23
 70
     1
102
RTVSPropertyOp24
 70
     1
102
RTVSPropertyOp25
 70
     1
102
RTVSPropertyOp26
 70
     1
102
RTVSPropertyOp27
 70
     1
102
RTVSPropertyOp28
 70
     1
102
RTVSPropertyOp29
 70
     1
102
RTVSPropertyOp30
 70
     1
102
RTVSPropertyOp31
 70
     1
102
RTVSPropertyOp32
 70
     1
102
RTVSPropertyOp33
 70
     1
102
RTVSPropertyOp34
 70
     1
102
RTVSPropertyOp35
 70
     1
102
RTVSPropertyOp36
 70
     1
102
RTVSPropertyOp37
 70
     1
102
RTVSPropertyOp38
 70
     1
102
RTVSPropertyOp39
 70
     1
102
RTVSPropertyOp40
 70
     1
102
RTVSPropertyOp41
 70
     1
102
RTVSPropertyOp42
 70
     1
102
RTVSPropertyOp43
 70
     1
102
RTVSPropertyOp44
 70
     1
102
RTVSPropertyOp45
 70
     1
102
RTVSPropertyOp46
 70
     1
102
RTVSPropertyOp47
 70
     1
102
RTVSPropertyOp48
 70
     1
102
RTVSPropertyOp49
 70
     1
102
RTVSPropertyOp50
 70
     1
102
RTVSPropertyOp51
 70
     0
102
RTVSPropertyOp52
 70
     0
102
RTVSPropertyOp53
 70
     1
102
RTVSPropertyOp54
 70
     1
102
RTVSPropertyOp55
 70
     1
102
RTVSPropertyOp56
 70
     1
102
RTVSPropertyOp57
 70
     1
102
RTVSPost2010Prop28
280
     0
102
RTVSPost2010PropOp28
 70
     1
102
RTVSPost2010Prop29
280
     1
102
RTVSPost2010PropOp29
 70
     1
102
RTVSPost2010Prop30
280
     1
102
RTVSPost2010PropOp30
 70
     1
102
RTVSPost2010Prop31
280
     0
102
RTVSPost2010PropOp31
 70
     1
102
RTVSPost2010Prop32
280
     0
102
RTVSPost2010PropOp32
 70
     1
102
RTVSPost2010Prop33
280
     0
102
RTVSPost2010PropOp33
 70
     1
102
RTVSPost2010Prop34
280
     0
102
RTVSPost2010PropOp34
 70
     1
102
RTVSPost2010Prop35
280
     0
102
RTVSPost2010PropOp35
 70
     1
102
RTVSPost2010Prop36
280
     0
102
RTVSPost2010PropOp36
 70
     1
102
RTVSPost2010Prop37
 90
       50
102
RTVSPost2010PropOp37
 70
     1
102
RTVSPost2010Prop38
140
0.0
102
RTVSPost2010PropOp38
 70
     1
102
RTVSPost2010Prop39
140
1.0
102
RTVSPost2010PropOp39
 70
     1
102
RTVSPost2010Prop40
 90
        0
102
RTVSPost2010PropOp40
 70
     1
102
RTVSPost2010Prop41ColorIndex
 90
       18
102
RTVSPost2010Prop41ColorRGB
 90
        0
102
RTVSPost2010PropOp41
 70
     1
102
RTVSPost2010Prop42
 90
       50
102
RTVSPost2010PropOp42
 70
     1
102
RTVSPost2010Prop43
 90
        3
102
RTVSPost2010PropOp43
 70
     1
102
RTVSPost2010Prop44ColorIndex
 90
        5
102
RTVSPost2010Prop44ColorRGB
 90
      255
102
RTVSPost2010PropOp44
 70
     1
102
RTVSPost2010Prop45
280
     0
102
RTVSPost2010PropOp45
 70
     1
102
RTVSPost2010Prop46
 90
       50
102
RTVSPost2010PropOp46
 70
     1
102
RTVSPost2010Prop47
 90
       50
102
RTVSPost2010PropOp47
 70
     1
102
RTVSPost2010Prop48
 90
       50
102
RTVSPost2010PropOp48
 70
     1
102
RTVSPost2010Prop49
280
     0
102
RTVSPost2010PropOp49
 70
     1
102
RTVSPost2010Prop50
 90
       50
102
RTVSPost2010PropOp50
 70
     1
102
RTVSPost2010Prop51ColorIndex
 90
      256
102
RTVSPost2010Prop51ColorRGB
 90
-16777216
102
RTVSPost2010PropOp51
 70
     0
102
RTVSPost2010Prop52
140
1.0
102
RTVSPost2010PropOp52
 70
     0
102
RTVSPost2010Prop53
 90
        2
102
RTVSPost2010PropOp53
 70
     1
102
RTVSPost2010Prop54
  1
strokes_ogs.tif
102
RTVSPost2010PropOp54
 70
     1
102
RTVSPost2010Prop55
280
     0
102
RTVSPost2010PropOp55
 70
     1
102
RTVSPost2010Prop56
140
1.0
102
RTVSPost2010PropOp56
 70
     1
102
RTVSPost2010Prop57
140
1.0
102
RTVSPost2010PropOp57
 70
     1
  0
XRECORD
  5
212
102
{ACAD_REACTORS
330
211
102
}
330
211
100
AcDbXrecord
280
     1
102
RTVSPropertyOp0
 70
     1
102
RTVSPropertyOp1
 70
     1
102
RTVSPropertyOp2
 70
     1
102
RTVSPropertyOp3
 70
     1
102
RTVSPropertyOp4
 70
     1
102
RTVSPropertyOp5
 70
     1
102
RTVSPropertyOp6
 70
     1
102
RTVSPropertyOp7
 70
     1
102
RTVSPropertyOp8
 70
     1
102
RTVSPropertyOp9
 70
     1
102
RTVSPropertyOp10
 70
     1
102
RTVSPropertyOp11
 70
     1
102
RTVSPropertyOp12
 70
     1
102
RTVSPropertyOp13
 70
     1
102
RTVSPropertyOp14
 70
     1
102
RTVSPropertyOp15
 70
     1
102
RTVSPropertyOp16
 70
     1
102
RTVSPropertyOp17
 70
     1
102
RTVSPropertyOp18
 70
     1
102
RTVSPropertyOp19
 70
     1
102
RTVSPropertyOp20
 70
     1
102
RTVSPropertyOp21
 70
     1
102
RTVSPropertyOp22
 70
     1
102
RTVSPropertyOp23
 70
     1
102
RTVSPropertyOp24
 70
     1
102
RTVSPropertyOp25
 70
     1
102
RTVSPropertyOp26
 70
     1
102
RTVSPropertyOp27
 70
     1
102
RTVSPropertyOp28
 70
     1
102
RTVSPropertyOp29
 70
     1
102
RTVSPropertyOp30
 70
     1
102
RTVSPropertyOp31
 70
     1
102
RTVSPropertyOp32
 70
     1
102
RTVSPropertyOp33
 70
     1
102
RTVSPropertyOp34
 70
     1
102
RTVSPropertyOp35
 70
     1
102
RTVSPropertyOp36
 70
     1
102
RTVSPropertyOp37
 70
     1
102
RTVSPropertyOp38
 70
     1
102
RTVSPropertyOp39
 70
     1
102
RTVSPropertyOp40
 70
     1
102
RTVSPropertyOp41
 70
     1
102
RTVSPropertyOp42
 70
     1
102
RTVSPropertyOp43
 70
     1
102
RTVSPropertyOp44
 70
     1
102
RTVSPropertyOp45
 70
     1
102
RTVSPropertyOp46
 70
     1
102
RTVSPropertyOp47
 70
     1
102
RTVSPropertyOp48
 70
     1
102
RTVSPropertyOp49
 70
     1
102
RTVSPropertyOp50
 70
     1
102
RTVSPropertyOp51
 70
     0
102
RTVSPropertyOp52
 70
     0
102
RTVSPropertyOp53
 70
     1
102
RTVSPropertyOp54
 70
     1
102
RTVSPropertyOp55
 70
     1
102
RTVSPropertyOp56
 70
     1
102
RTVSPropertyOp57
 70
     1
102
RTVSPost2010Prop28
280
     0
102
RTVSPost2010PropOp28
 70
     1
102
RTVSPost2010Prop29
280
     1
102
RTVSPost2010PropOp29
 70
     1
102
RTVSPost2010Prop30
280
     1
102
RTVSPost2010PropOp30
 70
     1
102
RTVSPost2010Prop31
280
     0
102
RTVSPost2010PropOp31
 70
     1
102
RTVSPost2010Prop32
280
     0
102
RTVSPost2010PropOp32
 70
     1
102
RTVSPost2010Prop33
280
     0
102
RTVSPost2010PropOp33
 70
     1
102
RTVSPost2010Prop34
280
     0
102
RTVSPost2010PropOp34
 70
     1
102
RTVSPost2010Prop35
280
     0
102
RTVSPost2010PropOp35
 70
     1
102
RTVSPost2010Prop36
280
     0
102
RTVSPost2010PropOp36
 70
     1
102
RTVSPost2010Prop37
 90
       50
102
RTVSPost2010PropOp37
 70
     1
102
RTVSPost2010Prop38
140
0.0
102
RTVSPost2010PropOp38
 70
     1
102
RTVSPost2010Prop39
140
1.0
102
RTVSPost2010PropOp39
 70
     1
102
RTVSPost2010Prop40
 90
        0
102
RTVSPost2010PropOp40
 70
     1
102
RTVSPost2010Prop41ColorIndex
 90
       18
102
RTVSPost2010Prop41ColorRGB
 90
        0
102
RTVSPost2010PropOp41
 70
     1
102
RTVSPost2010Prop42
 90
       50
102
RTVSPost2010PropOp42
 70
     1
102
RTVSPost2010Prop43
 90
        3
102
RTVSPost2010PropOp43
 70
     1
102
RTVSPost2010Prop44ColorIndex
 90
        5
102
RTVSPost2010Prop44ColorRGB
 90
      255
102
RTVSPost2010PropOp44
 70
     1
102
RTVSPost2010Prop45
280
     0
102
RTVSPost2010PropOp45
 70
     1
102
RTVSPost2010Prop46
 90
       50
102
RTVSPost2010PropOp46
 70
     1
102
RTVSPost2010Prop47
 90
       50
102
RTVSPost2010PropOp47
 70
     1
102
RTVSPost2010Prop48
 90
       50
102
RTVSPost2010PropOp48
 70
     1
102
RTVSPost2010Prop49
280
     0
102
RTVSPost2010PropOp49
 70
     1
102
RTVSPost2010Prop50
 90
       50
102
RTVSPost2010PropOp50
 70
     1
102
RTVSPost2010Prop51ColorIndex
 90
      256
102
RTVSPost2010Prop51ColorRGB
 90
-16777216
102
RTVSPost2010PropOp51
 70
     0
102
RTVSPost2010Prop52
140
1.0
102
RTVSPost2010PropOp52
 70
     0
102
RTVSPost2010Prop53
 90
        2
102
RTVSPost2010PropOp53
 70
     1
102
RTVSPost2010Prop54
  1
strokes_ogs.tif
102
RTVSPost2010PropOp54
 70
     1
102
RTVSPost2010Prop55
280
     0
102
RTVSPost2010PropOp55
 70
     1
102
RTVSPost2010Prop56
140
1.0
102
RTVSPost2010PropOp56
 70
     1
102
RTVSPost2010Prop57
140
1.0
102
RTVSPost2010PropOp57
 70
     1
  0
XRECORD
  5
206
102
{ACAD_REACTORS
330
205
102
}
330
205
100
AcDbXrecord
280
     1
102
RTVSPropertyOp0
 70
     1
102
RTVSPropertyOp1
 70
     1
102
RTVSPropertyOp2
 70
     1
102
RTVSPropertyOp3
 70
     1
102
RTVSPropertyOp4
 70
     1
102
RTVSPropertyOp5
 70
     1
102
RTVSPropertyOp6
 70
     1
102
RTVSPropertyOp7
 70
     1
102
RTVSPropertyOp8
 70
     1
102
RTVSPropertyOp9
 70
     1
102
RTVSPropertyOp10
 70
     1
102
RTVSPropertyOp11
 70
     1
102
RTVSPropertyOp12
 70
     1
102
RTVSPropertyOp13
 70
     1
102
RTVSPropertyOp14
 70
     1
102
RTVSPropertyOp15
 70
     1
102
RTVSPropertyOp16
 70
     1
102
RTVSPropertyOp17
 70
     1
102
RTVSPropertyOp18
 70
     1
102
RTVSPropertyOp19
 70
     1
102
RTVSPropertyOp20
 70
     1
102
RTVSPropertyOp21
 70
     1
102
RTVSPropertyOp22
 70
     1
102
RTVSPropertyOp23
 70
     1
102
RTVSPropertyOp24
 70
     1
102
RTVSPropertyOp25
 70
     1
102
RTVSPropertyOp26
 70
     1
102
RTVSPropertyOp27
 70
     1
102
RTVSPropertyOp28
 70
     1
102
RTVSPropertyOp29
 70
     1
102
RTVSPropertyOp30
 70
     1
102
RTVSPropertyOp31
 70
     1
102
RTVSPropertyOp32
 70
     1
102
RTVSPropertyOp33
 70
     1
102
RTVSPropertyOp34
 70
     1
102
RTVSPropertyOp35
 70
     1
102
RTVSPropertyOp36
 70
     1
102
RTVSPropertyOp37
 70
     1
102
RTVSPropertyOp38
 70
     1
102
RTVSPropertyOp39
 70
     1
102
RTVSPropertyOp40
 70
     1
102
RTVSPropertyOp41
 70
     1
102
RTVSPropertyOp42
 70
     1
102
RTVSPropertyOp43
 70
     1
102
RTVSPropertyOp44
 70
     1
102
RTVSPropertyOp45
 70
     1
102
RTVSPropertyOp46
 70
     1
102
RTVSPropertyOp47
 70
     1
102
RTVSPropertyOp48
 70
     1
102
RTVSPropertyOp49
 70
     1
102
RTVSPropertyOp50
 70
     1
102
RTVSPropertyOp51
 70
     0
102
RTVSPropertyOp52
 70
     0
102
RTVSPropertyOp53
 70
     1
102
RTVSPropertyOp54
 70
     1
102
RTVSPropertyOp55
 70
     1
102
RTVSPropertyOp56
 70
     1
102
RTVSPropertyOp57
 70
     1
102
RTVSPost2010Prop28
280
     0
102
RTVSPost2010PropOp28
 70
     1
102
RTVSPost2010Prop29
280
     1
102
RTVSPost2010PropOp29
 70
     1
102
RTVSPost2010Prop30
280
     1
102
RTVSPost2010PropOp30
 70
     1
102
RTVSPost2010Prop31
280
     0
102
RTVSPost2010PropOp31
 70
     1
102
RTVSPost2010Prop32
280
     0
102
RTVSPost2010PropOp32
 70
     1
102
RTVSPost2010Prop33
280
     0
102
RTVSPost2010PropOp33
 70
     1
102
RTVSPost2010Prop34
280
     0
102
RTVSPost2010PropOp34
 70
     1
102
RTVSPost2010Prop35
280
     0
102
RTVSPost2010PropOp35
 70
     1
102
RTVSPost2010Prop36
280
     0
102
RTVSPost2010PropOp36
 70
     1
102
RTVSPost2010Prop37
 90
       50
102
RTVSPost2010PropOp37
 70
     1
102
RTVSPost2010Prop38
140
0.0
102
RTVSPost2010PropOp38
 70
     1
102
RTVSPost2010Prop39
140
1.0
102
RTVSPost2010PropOp39
 70
     1
102
RTVSPost2010Prop40
 90
        0
102
RTVSPost2010PropOp40
 70
     1
102
RTVSPost2010Prop41ColorIndex
 90
       18
102
RTVSPost2010Prop41ColorRGB
 90
        0
102
RTVSPost2010PropOp41
 70
     1
102
RTVSPost2010Prop42
 90
       50
102
RTVSPost2010PropOp42
 70
     1
102
RTVSPost2010Prop43
 90
        3
102
RTVSPost2010PropOp43
 70
     1
102
RTVSPost2010Prop44ColorIndex
 90
        5
102
RTVSPost2010Prop44ColorRGB
 90
      255
102
RTVSPost2010PropOp44
 70
     1
102
RTVSPost2010Prop45
280
     0
102
RTVSPost2010PropOp45
 70
     1
102
RTVSPost2010Prop46
 90
       50
102
RTVSPost2010PropOp46
 70
     1
102
RTVSPost2010Prop47
 90
       50
102
RTVSPost2010PropOp47
 70
     1
102
RTVSPost2010Prop48
 90
       50
102
RTVSPost2010PropOp48
 70
     1
102
RTVSPost2010Prop49
280
     0
102
RTVSPost2010PropOp49
 70
     1
102
RTVSPost2010Prop50
 90
       50
102
RTVSPost2010PropOp50
 70
     1
102
RTVSPost2010Prop51ColorIndex
 90
      256
102
RTVSPost2010Prop51ColorRGB
 90
-16777216
102
RTVSPost2010PropOp51
 70
     0
102
RTVSPost2010Prop52
140
1.0
102
RTVSPost2010PropOp52
 70
     0
102
RTVSPost2010Prop53
 90
        2
102
RTVSPost2010PropOp53
 70
     1
102
RTVSPost2010Prop54
  1
strokes_ogs.tif
102
RTVSPost2010PropOp54
 70
     1
102
RTVSPost2010Prop55
280
     0
102
RTVSPost2010PropOp55
 70
     1
102
RTVSPost2010Prop56
140
1.0
102
RTVSPost2010PropOp56
 70
     1
102
RTVSPost2010Prop57
140
1.0
102
RTVSPost2010PropOp57
 70
     1
  0
XRECORD
  5
208
102
{ACAD_REACTORS
330
207
102
}
330
207
100
AcDbXrecord
280
     1
102
RTVSPropertyOp0
 70
     1
102
RTVSPropertyOp1
 70
     1
102
RTVSPropertyOp2
 70
     1
102
RTVSPropertyOp3
 70
     1
102
RTVSPropertyOp4
 70
     1
102
RTVSPropertyOp5
 70
     1
102
RTVSPropertyOp6
 70
     1
102
RTVSPropertyOp7
 70
     1
102
RTVSPropertyOp8
 70
     1
102
RTVSPropertyOp9
 70
     1
102
RTVSPropertyOp10
 70
     1
102
RTVSPropertyOp11
 70
     1
102
RTVSPropertyOp12
 70
     1
102
RTVSPropertyOp13
 70
     1
102
RTVSPropertyOp14
 70
     1
102
RTVSPropertyOp15
 70
     1
102
RTVSPropertyOp16
 70
     1
102
RTVSPropertyOp17
 70
     1
102
RTVSPropertyOp18
 70
     1
102
RTVSPropertyOp19
 70
     1
102
RTVSPropertyOp20
 70
     1
102
RTVSPropertyOp21
 70
     1
102
RTVSPropertyOp22
 70
     1
102
RTVSPropertyOp23
 70
     1
102
RTVSPropertyOp24
 70
     1
102
RTVSPropertyOp25
 70
     1
102
RTVSPropertyOp26
 70
     1
102
RTVSPropertyOp27
 70
     1
102
RTVSPropertyOp28
 70
     1
102
RTVSPropertyOp29
 70
     1
102
RTVSPropertyOp30
 70
     1
102
RTVSPropertyOp31
 70
     1
102
RTVSPropertyOp32
 70
     1
102
RTVSPropertyOp33
 70
     1
102
RTVSPropertyOp34
 70
     1
102
RTVSPropertyOp35
 70
     1
102
RTVSPropertyOp36
 70
     1
102
RTVSPropertyOp37
 70
     1
102
RTVSPropertyOp38
 70
     1
102
RTVSPropertyOp39
 70
     1
102
RTVSPropertyOp40
 70
     1
102
RTVSPropertyOp41
 70
     1
102
RTVSPropertyOp42
 70
     1
102
RTVSPropertyOp43
 70
     1
102
RTVSPropertyOp44
 70
     1
102
RTVSPropertyOp45
 70
     1
102
RTVSPropertyOp46
 70
     1
102
RTVSPropertyOp47
 70
     1
102
RTVSPropertyOp48
 70
     1
102
RTVSPropertyOp49
 70
     1
102
RTVSPropertyOp50
 70
     1
102
RTVSPropertyOp51
 70
     0
102
RTVSPropertyOp52
 70
     0
102
RTVSPropertyOp53
 70
     1
102
RTVSPropertyOp54
 70
     1
102
RTVSPropertyOp55
 70
     1
102
RTVSPropertyOp56
 70
     1
102
RTVSPropertyOp57
 70
     1
102
RTVSPost2010Prop28
280
     0
102
RTVSPost2010PropOp28
 70
     1
102
RTVSPost2010Prop29
280
     1
102
RTVSPost2010PropOp29
 70
     1
102
RTVSPost2010Prop30
280
     1
102
RTVSPost2010PropOp30
 70
     1
102
RTVSPost2010Prop31
280
     0
102
RTVSPost2010PropOp31
 70
     1
102
RTVSPost2010Prop32
280
     0
102
RTVSPost2010PropOp32
 70
     1
102
RTVSPost2010Prop33
280
     0
102
RTVSPost2010PropOp33
 70
     1
102
RTVSPost2010Prop34
280
     0
102
RTVSPost2010PropOp34
 70
     1
102
RTVSPost2010Prop35
280
     0
102
RTVSPost2010PropOp35
 70
     1
102
RTVSPost2010Prop36
280
     0
102
RTVSPost2010PropOp36
 70
     1
102
RTVSPost2010Prop37
 90
       50
102
RTVSPost2010PropOp37
 70
     1
102
RTVSPost2010Prop38
140
0.0
102
RTVSPost2010PropOp38
 70
     1
102
RTVSPost2010Prop39
140
1.0
102
RTVSPost2010PropOp39
 70
     1
102
RTVSPost2010Prop40
 90
        0
102
RTVSPost2010PropOp40
 70
     1
102
RTVSPost2010Prop41ColorIndex
 90
       18
102
RTVSPost2010Prop41ColorRGB
 90
        0
102
RTVSPost2010PropOp41
 70
     1
102
RTVSPost2010Prop42
 90
       50
102
RTVSPost2010PropOp42
 70
     1
102
RTVSPost2010Prop43
 90
        3
102
RTVSPost2010PropOp43
 70
     1
102
RTVSPost2010Prop44ColorIndex
 90
        5
102
RTVSPost2010Prop44ColorRGB
 90
      255
102
RTVSPost2010PropOp44
 70
     1
102
RTVSPost2010Prop45
280
     0
102
RTVSPost2010PropOp45
 70
     1
102
RTVSPost2010Prop46
 90
       50
102
RTVSPost2010PropOp46
 70
     1
102
RTVSPost2010Prop47
 90
       50
102
RTVSPost2010PropOp47
 70
     1
102
RTVSPost2010Prop48
 90
       50
102
RTVSPost2010PropOp48
 70
     1
102
RTVSPost2010Prop49
280
     0
102
RTVSPost2010PropOp49
 70
     1
102
RTVSPost2010Prop50
 90
       50
102
RTVSPost2010PropOp50
 70
     1
102
RTVSPost2010Prop51ColorIndex
 90
      256
102
RTVSPost2010Prop51ColorRGB
 90
-16777216
102
RTVSPost2010PropOp51
 70
     0
102
RTVSPost2010Prop52
140
1.0
102
RTVSPost2010PropOp52
 70
     0
102
RTVSPost2010Prop53
 90
        2
102
RTVSPost2010PropOp53
 70
     1
102
RTVSPost2010Prop54
  1
strokes_ogs.tif
102
RTVSPost2010PropOp54
 70
     1
102
RTVSPost2010Prop55
280
     0
102
RTVSPost2010PropOp55
 70
     1
102
RTVSPost2010Prop56
140
1.0
102
RTVSPost2010PropOp56
 70
     1
102
RTVSPost2010Prop57
140
1.0
102
RTVSPost2010PropOp57
 70
     1
  0
XRECORD
  5
210
102
{ACAD_REACTORS
330
20F
102
}
330
20F
100
AcDbXrecord
280
     1
102
RTVSPropertyOp0
 70
     1
102
RTVSPropertyOp1
 70
     1
102
RTVSPropertyOp2
 70
     1
102
RTVSPropertyOp3
 70
     1
102
RTVSPropertyOp4
 70
     1
102
RTVSPropertyOp5
 70
     1
102
RTVSPropertyOp6
 70
     1
102
RTVSPropertyOp7
 70
     1
102
RTVSPropertyOp8
 70
     1
102
RTVSPropertyOp9
 70
     1
102
RTVSPropertyOp10
 70
     1
102
RTVSPropertyOp11
 70
     1
102
RTVSPropertyOp12
 70
     1
102
RTVSPropertyOp13
 70
     1
102
RTVSPropertyOp14
 70
     1
102
RTVSPropertyOp15
 70
     1
102
RTVSPropertyOp16
 70
     1
102
RTVSPropertyOp17
 70
     1
102
RTVSPropertyOp18
 70
     1
102
RTVSPropertyOp19
 70
     1
102
RTVSPropertyOp20
 70
     1
102
RTVSPropertyOp21
 70
     1
102
RTVSPropertyOp22
 70
     1
102
RTVSPropertyOp23
 70
     1
102
RTVSPropertyOp24
 70
     1
102
RTVSPropertyOp25
 70
     1
102
RTVSPropertyOp26
 70
     1
102
RTVSPropertyOp27
 70
     1
102
RTVSPropertyOp28
 70
     1
102
RTVSPropertyOp29
 70
     1
102
RTVSPropertyOp30
 70
     1
102
RTVSPropertyOp31
 70
     1
102
RTVSPropertyOp32
 70
     1
102
RTVSPropertyOp33
 70
     1
102
RTVSPropertyOp34
 70
     1
102
RTVSPropertyOp35
 70
     1
102
RTVSPropertyOp36
 70
     1
102
RTVSPropertyOp37
 70
     1
102
RTVSPropertyOp38
 70
     1
102
RTVSPropertyOp39
 70
     1
102
RTVSPropertyOp40
 70
     1
102
RTVSPropertyOp41
 70
     1
102
RTVSPropertyOp42
 70
     1
102
RTVSPropertyOp43
 70
     1
102
RTVSPropertyOp44
 70
     1
102
RTVSPropertyOp45
 70
     1
102
RTVSPropertyOp46
 70
     1
102
RTVSPropertyOp47
 70
     1
102
RTVSPropertyOp48
 70
     1
102
RTVSPropertyOp49
 70
     1
102
RTVSPropertyOp50
 70
     1
102
RTVSPropertyOp51
 70
     0
102
RTVSPropertyOp52
 70
     0
102
RTVSPropertyOp53
 70
     1
102
RTVSPropertyOp54
 70
     1
102
RTVSPropertyOp55
 70
     1
102
RTVSPropertyOp56
 70
     1
102
RTVSPropertyOp57
 70
     1
102
RTVSPost2010Prop28
280
     0
102
RTVSPost2010PropOp28
 70
     1
102
RTVSPost2010Prop29
280
     1
102
RTVSPost2010PropOp29
 70
     1
102
RTVSPost2010Prop30
280
     1
102
RTVSPost2010PropOp30
 70
     1
102
RTVSPost2010Prop31
280
     0
102
RTVSPost2010PropOp31
 70
     1
102
RTVSPost2010Prop32
280
     0
102
RTVSPost2010PropOp32
 70
     1
102
RTVSPost2010Prop33
280
     0
102
RTVSPost2010PropOp33
 70
     1
102
RTVSPost2010Prop34
280
     0
102
RTVSPost2010PropOp34
 70
     1
102
RTVSPost2010Prop35
280
     0
102
RTVSPost2010PropOp35
 70
     1
102
RTVSPost2010Prop36
280
     0
102
RTVSPost2010PropOp36
 70
     1
102
RTVSPost2010Prop37
 90
       50
102
RTVSPost2010PropOp37
 70
     1
102
RTVSPost2010Prop38
140
0.0
102
RTVSPost2010PropOp38
 70
     1
102
RTVSPost2010Prop39
140
1.0
102
RTVSPost2010PropOp39
 70
     1
102
RTVSPost2010Prop40
 90
        0
102
RTVSPost2010PropOp40
 70
     1
102
RTVSPost2010Prop41ColorIndex
 90
       18
102
RTVSPost2010Prop41ColorRGB
 90
        0
102
RTVSPost2010PropOp41
 70
     1
102
RTVSPost2010Prop42
 90
       50
102
RTVSPost2010PropOp42
 70
     1
102
RTVSPost2010Prop43
 90
        3
102
RTVSPost2010PropOp43
 70
     1
102
RTVSPost2010Prop44ColorIndex
 90
        5
102
RTVSPost2010Prop44ColorRGB
 90
      255
102
RTVSPost2010PropOp44
 70
     1
102
RTVSPost2010Prop45
280
     0
102
RTVSPost2010PropOp45
 70
     1
102
RTVSPost2010Prop46
 90
       50
102
RTVSPost2010PropOp46
 70
     1
102
RTVSPost2010Prop47
 90
       50
102
RTVSPost2010PropOp47
 70
     1
102
RTVSPost2010Prop48
 90
       50
102
RTVSPost2010PropOp48
 70
     1
102
RTVSPost2010Prop49
280
     0
102
RTVSPost2010PropOp49
 70
     1
102
RTVSPost2010Prop50
 90
       50
102
RTVSPost2010PropOp50
 70
     1
102
RTVSPost2010Prop51ColorIndex
 90
      256
102
RTVSPost2010Prop51ColorRGB
 90
-16777216
102
RTVSPost2010PropOp51
 70
     0
102
RTVSPost2010Prop52
140
1.0
102
RTVSPost2010PropOp52
 70
     0
102
RTVSPost2010Prop53
 90
        2
102
RTVSPost2010PropOp53
 70
     1
102
RTVSPost2010Prop54
  1
strokes_ogs.tif
102
RTVSPost2010PropOp54
 70
     1
102
RTVSPost2010Prop55
280
     0
102
RTVSPost2010PropOp55
 70
     1
102
RTVSPost2010Prop56
140
1.0
102
RTVSPost2010PropOp56
 70
     1
102
RTVSPost2010Prop57
140
1.0
102
RTVSPost2010PropOp57
 70
     1
  0
XRECORD
  5
1F4
102
{ACAD_REACTORS
330
1F3
102
}
330
1F3
100
AcDbXrecord
280
     1
102
RTVSPropertyOp0
 70
     1
102
RTVSPropertyOp1
 70
     1
102
RTVSPropertyOp2
 70
     1
102
RTVSPropertyOp3
 70
     1
102
RTVSPropertyOp4
 70
     1
102
RTVSPropertyOp5
 70
     1
102
RTVSPropertyOp6
 70
     1
102
RTVSPropertyOp7
 70
     1
102
RTVSPropertyOp8
 70
     1
102
RTVSPropertyOp9
 70
     1
102
RTVSPropertyOp10
 70
     1
102
RTVSPropertyOp11
 70
     1
102
RTVSPropertyOp12
 70
     1
102
RTVSPropertyOp13
 70
     1
102
RTVSPropertyOp14
 70
     1
102
RTVSPropertyOp15
 70
     1
102
RTVSPropertyOp16
 70
     1
102
RTVSPropertyOp17
 70
     1
102
RTVSPropertyOp18
 70
     1
102
RTVSPropertyOp19
 70
     1
102
RTVSPropertyOp20
 70
     1
102
RTVSPropertyOp21
 70
     1
102
RTVSPropertyOp22
 70
     1
102
RTVSPropertyOp23
 70
     1
102
RTVSPropertyOp24
 70
     1
102
RTVSPropertyOp25
 70
     1
102
RTVSPropertyOp26
 70
     1
102
RTVSPropertyOp27
 70
     1
102
RTVSPropertyOp28
 70
     1
102
RTVSPropertyOp29
 70
     1
102
RTVSPropertyOp30
 70
     1
102
RTVSPropertyOp31
 70
     1
102
RTVSPropertyOp32
 70
     1
102
RTVSPropertyOp33
 70
     1
102
RTVSPropertyOp34
 70
     1
102
RTVSPropertyOp35
 70
     1
102
RTVSPropertyOp36
 70
     1
102
RTVSPropertyOp37
 70
     1
102
RTVSPropertyOp38
 70
     1
102
RTVSPropertyOp39
 70
     1
102
RTVSPropertyOp40
 70
     1
102
RTVSPropertyOp41
 70
     1
102
RTVSPropertyOp42
 70
     1
102
RTVSPropertyOp43
 70
     1
102
RTVSPropertyOp44
 70
     1
102
RTVSPropertyOp45
 70
     1
102
RTVSPropertyOp46
 70
     1
102
RTVSPropertyOp47
 70
     1
102
RTVSPropertyOp48
 70
     1
102
RTVSPropertyOp49
 70
     1
102
RTVSPropertyOp50
 70
     1
102
RTVSPropertyOp51
 70
     0
102
RTVSPropertyOp52
 70
     0
102
RTVSPropertyOp53
 70
     1
102
RTVSPropertyOp54
 70
     1
102
RTVSPropertyOp55
 70
     1
102
RTVSPropertyOp56
 70
     1
102
RTVSPropertyOp57
 70
     1
102
RTVSPost2010Prop28
280
     0
102
RTVSPost2010PropOp28
 70
     1
102
RTVSPost2010Prop29
280
     1
102
RTVSPost2010PropOp29
 70
     1
102
RTVSPost2010Prop30
280
     1
102
RTVSPost2010PropOp30
 70
     1
102
RTVSPost2010Prop31
280
     0
102
RTVSPost2010PropOp31
 70
     1
102
RTVSPost2010Prop32
280
     0
102
RTVSPost2010PropOp32
 70
     1
102
RTVSPost2010Prop33
280
     0
102
RTVSPost2010PropOp33
 70
     1
102
RTVSPost2010Prop34
280
     0
102
RTVSPost2010PropOp34
 70
     1
102
RTVSPost2010Prop35
280
     0
102
RTVSPost2010PropOp35
 70
     1
102
RTVSPost2010Prop36
280
     0
102
RTVSPost2010PropOp36
 70
     1
102
RTVSPost2010Prop37
 90
       50
102
RTVSPost2010PropOp37
 70
     1
102
RTVSPost2010Prop38
140
0.0
102
RTVSPost2010PropOp38
 70
     1
102
RTVSPost2010Prop39
140
1.0
102
RTVSPost2010PropOp39
 70
     1
102
RTVSPost2010Prop40
 90
        0
102
RTVSPost2010PropOp40
 70
     1
102
RTVSPost2010Prop41ColorIndex
 90
       18
102
RTVSPost2010Prop41ColorRGB
 90
        0
102
RTVSPost2010PropOp41
 70
     1
102
RTVSPost2010Prop42
 90
       50
102
RTVSPost2010PropOp42
 70
     1
102
RTVSPost2010Prop43
 90
        3
102
RTVSPost2010PropOp43
 70
     1
102
RTVSPost2010Prop44ColorIndex
 90
        5
102
RTVSPost2010Prop44ColorRGB
 90
      255
102
RTVSPost2010PropOp44
 70
     1
102
RTVSPost2010Prop45
280
     0
102
RTVSPost2010PropOp45
 70
     1
102
RTVSPost2010Prop46
 90
       50
102
RTVSPost2010PropOp46
 70
     1
102
RTVSPost2010Prop47
 90
       50
102
RTVSPost2010PropOp47
 70
     1
102
RTVSPost2010Prop48
 90
       50
102
RTVSPost2010PropOp48
 70
     1
102
RTVSPost2010Prop49
280
     0
102
RTVSPost2010PropOp49
 70
     1
102
RTVSPost2010Prop50
 90
       50
102
RTVSPost2010PropOp50
 70
     1
102
RTVSPost2010Prop51ColorIndex
 90
      256
102
RTVSPost2010Prop51ColorRGB
 90
-16777216
102
RTVSPost2010PropOp51
 70
     0
102
RTVSPost2010Prop52
140
1.0
102
RTVSPost2010PropOp52
 70
     0
102
RTVSPost2010Prop53
 90
        2
102
RTVSPost2010PropOp53
 70
     1
102
RTVSPost2010Prop54
  1
strokes_ogs.tif
102
RTVSPost2010PropOp54
 70
     1
102
RTVSPost2010Prop55
280
     0
102
RTVSPost2010PropOp55
 70
     1
102
RTVSPost2010Prop56
140
1.0
102
RTVSPost2010PropOp56
 70
     1
102
RTVSPost2010Prop57
140
1.0
102
RTVSPost2010PropOp57
 70
     1
  0
XRECORD
  5
1F6
102
{ACAD_REACTORS
330
1F5
102
}
330
1F5
100
AcDbXrecord
280
     1
102
RTVSPropertyOp0
 70
     1
102
RTVSPropertyOp1
 70
     1
102
RTVSPropertyOp2
 70
     1
102
RTVSPropertyOp3
 70
     1
102
RTVSPropertyOp4
 70
     1
102
RTVSPropertyOp5
 70
     1
102
RTVSPropertyOp6
 70
     1
102
RTVSPropertyOp7
 70
     1
102
RTVSPropertyOp8
 70
     1
102
RTVSPropertyOp9
 70
     1
102
RTVSPropertyOp10
 70
     1
102
RTVSPropertyOp11
 70
     1
102
RTVSPropertyOp12
 70
     1
102
RTVSPropertyOp13
 70
     1
102
RTVSPropertyOp14
 70
     1
102
RTVSPropertyOp15
 70
     1
102
RTVSPropertyOp16
 70
     1
102
RTVSPropertyOp17
 70
     1
102
RTVSPropertyOp18
 70
     1
102
RTVSPropertyOp19
 70
     1
102
RTVSPropertyOp20
 70
     1
102
RTVSPropertyOp21
 70
     1
102
RTVSPropertyOp22
 70
     1
102
RTVSPropertyOp23
 70
     1
102
RTVSPropertyOp24
 70
     1
102
RTVSPropertyOp25
 70
     1
102
RTVSPropertyOp26
 70
     1
102
RTVSPropertyOp27
 70
     1
102
RTVSPropertyOp28
 70
     1
102
RTVSPropertyOp29
 70
     1
102
RTVSPropertyOp30
 70
     1
102
RTVSPropertyOp31
 70
     1
102
RTVSPropertyOp32
 70
     1
102
RTVSPropertyOp33
 70
     1
102
RTVSPropertyOp34
 70
     1
102
RTVSPropertyOp35
 70
     1
102
RTVSPropertyOp36
 70
     1
102
RTVSPropertyOp37
 70
     1
102
RTVSPropertyOp38
 70
     1
102
RTVSPropertyOp39
 70
     1
102
RTVSPropertyOp40
 70
     1
102
RTVSPropertyOp41
 70
     1
102
RTVSPropertyOp42
 70
     1
102
RTVSPropertyOp43
 70
     1
102
RTVSPropertyOp44
 70
     1
102
RTVSPropertyOp45
 70
     1
102
RTVSPropertyOp46
 70
     1
102
RTVSPropertyOp47
 70
     1
102
RTVSPropertyOp48
 70
     1
102
RTVSPropertyOp49
 70
     1
102
RTVSPropertyOp50
 70
     1
102
RTVSPropertyOp51
 70
     0
102
RTVSPropertyOp52
 70
     0
102
RTVSPropertyOp53
 70
     1
102
RTVSPropertyOp54
 70
     1
102
RTVSPropertyOp55
 70
     1
102
RTVSPropertyOp56
 70
     1
102
RTVSPropertyOp57
 70
     1
102
RTVSPost2010Prop28
280
     0
102
RTVSPost2010PropOp28
 70
     1
102
RTVSPost2010Prop29
280
     1
102
RTVSPost2010PropOp29
 70
     1
102
RTVSPost2010Prop30
280
     1
102
RTVSPost2010PropOp30
 70
     1
102
RTVSPost2010Prop31
280
     0
102
RTVSPost2010PropOp31
 70
     1
102
RTVSPost2010Prop32
280
     0
102
RTVSPost2010PropOp32
 70
     1
102
RTVSPost2010Prop33
280
     0
102
RTVSPost2010PropOp33
 70
     1
102
RTVSPost2010Prop34
280
     0
102
RTVSPost2010PropOp34
 70
     1
102
RTVSPost2010Prop35
280
     0
102
RTVSPost2010PropOp35
 70
     1
102
RTVSPost2010Prop36
280
     0
102
RTVSPost2010PropOp36
 70
     1
102
RTVSPost2010Prop37
 90
       50
102
RTVSPost2010PropOp37
 70
     1
102
RTVSPost2010Prop38
140
0.0
102
RTVSPost2010PropOp38
 70
     1
102
RTVSPost2010Prop39
140
1.0
102
RTVSPost2010PropOp39
 70
     1
102
RTVSPost2010Prop40
 90
        0
102
RTVSPost2010PropOp40
 70
     1
102
RTVSPost2010Prop41ColorIndex
 90
       18
102
RTVSPost2010Prop41ColorRGB
 90
        0
102
RTVSPost2010PropOp41
 70
     1
102
RTVSPost2010Prop42
 90
       50
102
RTVSPost2010PropOp42
 70
     1
102
RTVSPost2010Prop43
 90
        3
102
RTVSPost2010PropOp43
 70
     1
102
RTVSPost2010Prop44ColorIndex
 90
        5
102
RTVSPost2010Prop44ColorRGB
 90
      255
102
RTVSPost2010PropOp44
 70
     1
102
RTVSPost2010Prop45
280
     0
102
RTVSPost2010PropOp45
 70
     1
102
RTVSPost2010Prop46
 90
       50
102
RTVSPost2010PropOp46
 70
     1
102
RTVSPost2010Prop47
 90
       50
102
RTVSPost2010PropOp47
 70
     1
102
RTVSPost2010Prop48
 90
       50
102
RTVSPost2010PropOp48
 70
     1
102
RTVSPost2010Prop49
280
     0
102
RTVSPost2010PropOp49
 70
     1
102
RTVSPost2010Prop50
 90
       50
102
RTVSPost2010PropOp50
 70
     1
102
RTVSPost2010Prop51ColorIndex
 90
      256
102
RTVSPost2010Prop51ColorRGB
 90
-16777216
102
RTVSPost2010PropOp51
 70
     0
102
RTVSPost2010Prop52
140
1.0
102
RTVSPost2010PropOp52
 70
     0
102
RTVSPost2010Prop53
 90
        2
102
RTVSPost2010PropOp53
 70
     1
102
RTVSPost2010Prop54
  1
strokes_ogs.tif
102
RTVSPost2010PropOp54
 70
     1
102
RTVSPost2010Prop55
280
     0
102
RTVSPost2010PropOp55
 70
     1
102
RTVSPost2010Prop56
140
1.0
102
RTVSPost2010PropOp56
 70
     1
102
RTVSPost2010Prop57
140
1.0
102
RTVSPost2010PropOp57
 70
     1
  0
XRECORD
  5
1F8
102
{ACAD_REACTORS
330
1F7
102
}
330
1F7
100
AcDbXrecord
280
     1
102
RTVSPropertyOp0
 70
     1
102
RTVSPropertyOp1
 70
     1
102
RTVSPropertyOp2
 70
     1
102
RTVSPropertyOp3
 70
     1
102
RTVSPropertyOp4
 70
     1
102
RTVSPropertyOp5
 70
     1
102
RTVSPropertyOp6
 70
     1
102
RTVSPropertyOp7
 70
     1
102
RTVSPropertyOp8
 70
     1
102
RTVSPropertyOp9
 70
     1
102
RTVSPropertyOp10
 70
     1
102
RTVSPropertyOp11
 70
     1
102
RTVSPropertyOp12
 70
     1
102
RTVSPropertyOp13
 70
     1
102
RTVSPropertyOp14
 70
     1
102
RTVSPropertyOp15
 70
     1
102
RTVSPropertyOp16
 70
     1
102
RTVSPropertyOp17
 70
     1
102
RTVSPropertyOp18
 70
     1
102
RTVSPropertyOp19
 70
     1
102
RTVSPropertyOp20
 70
     1
102
RTVSPropertyOp21
 70
     1
102
RTVSPropertyOp22
 70
     1
102
RTVSPropertyOp23
 70
     1
102
RTVSPropertyOp24
 70
     1
102
RTVSPropertyOp25
 70
     1
102
RTVSPropertyOp26
 70
     1
102
RTVSPropertyOp27
 70
     1
102
RTVSPropertyOp28
 70
     1
102
RTVSPropertyOp29
 70
     1
102
RTVSPropertyOp30
 70
     1
102
RTVSPropertyOp31
 70
     1
102
RTVSPropertyOp32
 70
     1
102
RTVSPropertyOp33
 70
     1
102
RTVSPropertyOp34
 70
     1
102
RTVSPropertyOp35
 70
     1
102
RTVSPropertyOp36
 70
     1
102
RTVSPropertyOp37
 70
     1
102
RTVSPropertyOp38
 70
     1
102
RTVSPropertyOp39
 70
     1
102
RTVSPropertyOp40
 70
     1
102
RTVSPropertyOp41
 70
     1
102
RTVSPropertyOp42
 70
     1
102
RTVSPropertyOp43
 70
     1
102
RTVSPropertyOp44
 70
     1
102
RTVSPropertyOp45
 70
     1
102
RTVSPropertyOp46
 70
     1
102
RTVSPropertyOp47
 70
     1
102
RTVSPropertyOp48
 70
     1
102
RTVSPropertyOp49
 70
     1
102
RTVSPropertyOp50
 70
     1
102
RTVSPropertyOp51
 70
     0
102
RTVSPropertyOp52
 70
     0
102
RTVSPropertyOp53
 70
     1
102
RTVSPropertyOp54
 70
     1
102
RTVSPropertyOp55
 70
     1
102
RTVSPropertyOp56
 70
     1
102
RTVSPropertyOp57
 70
     1
102
RTVSPost2010Prop28
280
     0
102
RTVSPost2010PropOp28
 70
     1
102
RTVSPost2010Prop29
280
     1
102
RTVSPost2010PropOp29
 70
     1
102
RTVSPost2010Prop30
280
     1
102
RTVSPost2010PropOp30
 70
     1
102
RTVSPost2010Prop31
280
     0
102
RTVSPost2010PropOp31
 70
     1
102
RTVSPost2010Prop32
280
     0
102
RTVSPost2010PropOp32
 70
     1
102
RTVSPost2010Prop33
280
     0
102
RTVSPost2010PropOp33
 70
     1
102
RTVSPost2010Prop34
280
     0
102
RTVSPost2010PropOp34
 70
     1
102
RTVSPost2010Prop35
280
     0
102
RTVSPost2010PropOp35
 70
     1
102
RTVSPost2010Prop36
280
     0
102
RTVSPost2010PropOp36
 70
     1
102
RTVSPost2010Prop37
 90
       50
102
RTVSPost2010PropOp37
 70
     1
102
RTVSPost2010Prop38
140
0.0
102
RTVSPost2010PropOp38
 70
     1
102
RTVSPost2010Prop39
140
1.0
102
RTVSPost2010PropOp39
 70
     1
102
RTVSPost2010Prop40
 90
        0
102
RTVSPost2010PropOp40
 70
     1
102
RTVSPost2010Prop41ColorIndex
 90
       18
102
RTVSPost2010Prop41ColorRGB
 90
        0
102
RTVSPost2010PropOp41
 70
     1
102
RTVSPost2010Prop42
 90
       50
102
RTVSPost2010PropOp42
 70
     1
102
RTVSPost2010Prop43
 90
        3
102
RTVSPost2010PropOp43
 70
     1
102
RTVSPost2010Prop44ColorIndex
 90
        5
102
RTVSPost2010Prop44ColorRGB
 90
      255
102
RTVSPost2010PropOp44
 70
     1
102
RTVSPost2010Prop45
280
     0
102
RTVSPost2010PropOp45
 70
     1
102
RTVSPost2010Prop46
 90
       50
102
RTVSPost2010PropOp46
 70
     1
102
RTVSPost2010Prop47
 90
       50
102
RTVSPost2010PropOp47
 70
     1
102
RTVSPost2010Prop48
 90
       50
102
RTVSPost2010PropOp48
 70
     1
102
RTVSPost2010Prop49
280
     0
102
RTVSPost2010PropOp49
 70
     1
102
RTVSPost2010Prop50
 90
       50
102
RTVSPost2010PropOp50
 70
     1
102
RTVSPost2010Prop51ColorIndex
 90
      256
102
RTVSPost2010Prop51ColorRGB
 90
-16777216
102
RTVSPost2010PropOp51
 70
     0
102
RTVSPost2010Prop52
140
1.0
102
RTVSPost2010PropOp52
 70
     0
102
RTVSPost2010Prop53
 90
        2
102
RTVSPost2010PropOp53
 70
     1
102
RTVSPost2010Prop54
  1
strokes_ogs.tif
102
RTVSPost2010PropOp54
 70
     1
102
RTVSPost2010Prop55
280
     0
102
RTVSPost2010PropOp55
 70
     1
102
RTVSPost2010Prop56
140
1.0
102
RTVSPost2010PropOp56
 70
     1
102
RTVSPost2010Prop57
140
1.0
102
RTVSPost2010PropOp57
 70
     1
  0
XRECORD
  5
1FA
102
{ACAD_REACTORS
330
1F9
102
}
330
1F9
100
AcDbXrecord
280
     1
102
RTVSPropertyOp0
 70
     1
102
RTVSPropertyOp1
 70
     1
102
RTVSPropertyOp2
 70
     1
102
RTVSPropertyOp3
 70
     1
102
RTVSPropertyOp4
 70
     1
102
RTVSPropertyOp5
 70
     1
102
RTVSPropertyOp6
 70
     1
102
RTVSPropertyOp7
 70
     1
102
RTVSPropertyOp8
 70
     1
102
RTVSPropertyOp9
 70
     1
102
RTVSPropertyOp10
 70
     1
102
RTVSPropertyOp11
 70
     1
102
RTVSPropertyOp12
 70
     1
102
RTVSPropertyOp13
 70
     1
102
RTVSPropertyOp14
 70
     1
102
RTVSPropertyOp15
 70
     1
102
RTVSPropertyOp16
 70
     1
102
RTVSPropertyOp17
 70
     1
102
RTVSPropertyOp18
 70
     1
102
RTVSPropertyOp19
 70
     1
102
RTVSPropertyOp20
 70
     1
102
RTVSPropertyOp21
 70
     1
102
RTVSPropertyOp22
 70
     1
102
RTVSPropertyOp23
 70
     1
102
RTVSPropertyOp24
 70
     1
102
RTVSPropertyOp25
 70
     1
102
RTVSPropertyOp26
 70
     1
102
RTVSPropertyOp27
 70
     1
102
RTVSPropertyOp28
 70
     1
102
RTVSPropertyOp29
 70
     1
102
RTVSPropertyOp30
 70
     1
102
RTVSPropertyOp31
 70
     1
102
RTVSPropertyOp32
 70
     1
102
RTVSPropertyOp33
 70
     1
102
RTVSPropertyOp34
 70
     1
102
RTVSPropertyOp35
 70
     1
102
RTVSPropertyOp36
 70
     1
102
RTVSPropertyOp37
 70
     1
102
RTVSPropertyOp38
 70
     1
102
RTVSPropertyOp39
 70
     1
102
RTVSPropertyOp40
 70
     1
102
RTVSPropertyOp41
 70
     1
102
RTVSPropertyOp42
 70
     1
102
RTVSPropertyOp43
 70
     1
102
RTVSPropertyOp44
 70
     1
102
RTVSPropertyOp45
 70
     1
102
RTVSPropertyOp46
 70
     1
102
RTVSPropertyOp47
 70
     1
102
RTVSPropertyOp48
 70
     1
102
RTVSPropertyOp49
 70
     1
102
RTVSPropertyOp50
 70
     1
102
RTVSPropertyOp51
 70
     0
102
RTVSPropertyOp52
 70
     0
102
RTVSPropertyOp53
 70
     1
102
RTVSPropertyOp54
 70
     1
102
RTVSPropertyOp55
 70
     1
102
RTVSPropertyOp56
 70
     1
102
RTVSPropertyOp57
 70
     1
102
RTVSPost2010Prop28
280
     0
102
RTVSPost2010PropOp28
 70
     1
102
RTVSPost2010Prop29
280
     1
102
RTVSPost2010PropOp29
 70
     1
102
RTVSPost2010Prop30
280
     1
102
RTVSPost2010PropOp30
 70
     1
102
RTVSPost2010Prop31
280
     0
102
RTVSPost2010PropOp31
 70
     1
102
RTVSPost2010Prop32
280
     0
102
RTVSPost2010PropOp32
 70
     1
102
RTVSPost2010Prop33
280
     0
102
RTVSPost2010PropOp33
 70
     1
102
RTVSPost2010Prop34
280
     0
102
RTVSPost2010PropOp34
 70
     1
102
RTVSPost2010Prop35
280
     0
102
RTVSPost2010PropOp35
 70
     1
102
RTVSPost2010Prop36
280
     0
102
RTVSPost2010PropOp36
 70
     1
102
RTVSPost2010Prop37
 90
       50
102
RTVSPost2010PropOp37
 70
     1
102
RTVSPost2010Prop38
140
0.0
102
RTVSPost2010PropOp38
 70
     1
102
RTVSPost2010Prop39
140
1.0
102
RTVSPost2010PropOp39
 70
     1
102
RTVSPost2010Prop40
 90
        0
102
RTVSPost2010PropOp40
 70
     1
102
RTVSPost2010Prop41ColorIndex
 90
       18
102
RTVSPost2010Prop41ColorRGB
 90
        0
102
RTVSPost2010PropOp41
 70
     1
102
RTVSPost2010Prop42
 90
       50
102
RTVSPost2010PropOp42
 70
     1
102
RTVSPost2010Prop43
 90
        3
102
RTVSPost2010PropOp43
 70
     1
102
RTVSPost2010Prop44ColorIndex
 90
        5
102
RTVSPost2010Prop44ColorRGB
 90
      255
102
RTVSPost2010PropOp44
 70
     1
102
RTVSPost2010Prop45
280
     0
102
RTVSPost2010PropOp45
 70
     1
102
RTVSPost2010Prop46
 90
       50
102
RTVSPost2010PropOp46
 70
     1
102
RTVSPost2010Prop47
 90
       50
102
RTVSPost2010PropOp47
 70
     1
102
RTVSPost2010Prop48
 90
       50
102
RTVSPost2010PropOp48
 70
     1
102
RTVSPost2010Prop49
280
     0
102
RTVSPost2010PropOp49
 70
     1
102
RTVSPost2010Prop50
 90
       50
102
RTVSPost2010PropOp50
 70
     1
102
RTVSPost2010Prop51ColorIndex
 90
      256
102
RTVSPost2010Prop51ColorRGB
 90
-16777216
102
RTVSPost2010PropOp51
 70
     0
102
RTVSPost2010Prop52
140
1.0
102
RTVSPost2010PropOp52
 70
     0
102
RTVSPost2010Prop53
 90
        2
102
RTVSPost2010PropOp53
 70
     1
102
RTVSPost2010Prop54
  1
strokes_ogs.tif
102
RTVSPost2010PropOp54
 70
     1
102
RTVSPost2010Prop55
280
     0
102
RTVSPost2010PropOp55
 70
     1
102
RTVSPost2010Prop56
140
1.0
102
RTVSPost2010PropOp56
 70
     1
102
RTVSPost2010Prop57
140
1.0
102
RTVSPost2010PropOp57
 70
     1
  0
XRECORD
  5
20E
102
{ACAD_REACTORS
330
20D
102
}
330
20D
100
AcDbXrecord
280
     1
102
RTVSPropertyOp0
 70
     1
102
RTVSPropertyOp1
 70
     1
102
RTVSPropertyOp2
 70
     1
102
RTVSPropertyOp3
 70
     1
102
RTVSPropertyOp4
 70
     1
102
RTVSPropertyOp5
 70
     1
102
RTVSPropertyOp6
 70
     1
102
RTVSPropertyOp7
 70
     1
102
RTVSPropertyOp8
 70
     1
102
RTVSPropertyOp9
 70
     1
102
RTVSPropertyOp10
 70
     1
102
RTVSPropertyOp11
 70
     1
102
RTVSPropertyOp12
 70
     1
102
RTVSPropertyOp13
 70
     1
102
RTVSPropertyOp14
 70
     1
102
RTVSPropertyOp15
 70
     1
102
RTVSPropertyOp16
 70
     1
102
RTVSPropertyOp17
 70
     1
102
RTVSPropertyOp18
 70
     1
102
RTVSPropertyOp19
 70
     1
102
RTVSPropertyOp20
 70
     1
102
RTVSPropertyOp21
 70
     1
102
RTVSPropertyOp22
 70
     1
102
RTVSPropertyOp23
 70
     1
102
RTVSPropertyOp24
 70
     1
102
RTVSPropertyOp25
 70
     1
102
RTVSPropertyOp26
 70
     1
102
RTVSPropertyOp27
 70
     1
102
RTVSPropertyOp28
 70
     1
102
RTVSPropertyOp29
 70
     1
102
RTVSPropertyOp30
 70
     1
102
RTVSPropertyOp31
 70
     1
102
RTVSPropertyOp32
 70
     1
102
RTVSPropertyOp33
 70
     1
102
RTVSPropertyOp34
 70
     1
102
RTVSPropertyOp35
 70
     1
102
RTVSPropertyOp36
 70
     1
102
RTVSPropertyOp37
 70
     1
102
RTVSPropertyOp38
 70
     1
102
RTVSPropertyOp39
 70
     1
102
RTVSPropertyOp40
 70
     1
102
RTVSPropertyOp41
 70
     1
102
RTVSPropertyOp42
 70
     1
102
RTVSPropertyOp43
 70
     1
102
RTVSPropertyOp44
 70
     1
102
RTVSPropertyOp45
 70
     1
102
RTVSPropertyOp46
 70
     1
102
RTVSPropertyOp47
 70
     1
102
RTVSPropertyOp48
 70
     1
102
RTVSPropertyOp49
 70
     1
102
RTVSPropertyOp50
 70
     1
102
RTVSPropertyOp51
 70
     0
102
RTVSPropertyOp52
 70
     0
102
RTVSPropertyOp53
 70
     1
102
RTVSPropertyOp54
 70
     1
102
RTVSPropertyOp55
 70
     1
102
RTVSPropertyOp56
 70
     1
102
RTVSPropertyOp57
 70
     1
102
RTVSPost2010Prop28
280
     0
102
RTVSPost2010PropOp28
 70
     1
102
RTVSPost2010Prop29
280
     1
102
RTVSPost2010PropOp29
 70
     1
102
RTVSPost2010Prop30
280
     1
102
RTVSPost2010PropOp30
 70
     1
102
RTVSPost2010Prop31
280
     0
102
RTVSPost2010PropOp31
 70
     1
102
RTVSPost2010Prop32
280
     0
102
RTVSPost2010PropOp32
 70
     1
102
RTVSPost2010Prop33
280
     0
102
RTVSPost2010PropOp33
 70
     1
102
RTVSPost2010Prop34
280
     0
102
RTVSPost2010PropOp34
 70
     1
102
RTVSPost2010Prop35
280
     0
102
RTVSPost2010PropOp35
 70
     1
102
RTVSPost2010Prop36
280
     0
102
RTVSPost2010PropOp36
 70
     1
102
RTVSPost2010Prop37
 90
       50
102
RTVSPost2010PropOp37
 70
     1
102
RTVSPost2010Prop38
140
0.0
102
RTVSPost2010PropOp38
 70
     1
102
RTVSPost2010Prop39
140
1.0
102
RTVSPost2010PropOp39
 70
     1
102
RTVSPost2010Prop40
 90
        0
102
RTVSPost2010PropOp40
 70
     1
102
RTVSPost2010Prop41ColorIndex
 90
       18
102
RTVSPost2010Prop41ColorRGB
 90
        0
102
RTVSPost2010PropOp41
 70
     1
102
RTVSPost2010Prop42
 90
       50
102
RTVSPost2010PropOp42
 70
     1
102
RTVSPost2010Prop43
 90
        3
102
RTVSPost2010PropOp43
 70
     1
102
RTVSPost2010Prop44ColorIndex
 90
        5
102
RTVSPost2010Prop44ColorRGB
 90
      255
102
RTVSPost2010PropOp44
 70
     1
102
RTVSPost2010Prop45
280
     0
102
RTVSPost2010PropOp45
 70
     1
102
RTVSPost2010Prop46
 90
       50
102
RTVSPost2010PropOp46
 70
     1
102
RTVSPost2010Prop47
 90
       50
102
RTVSPost2010PropOp47
 70
     1
102
RTVSPost2010Prop48
 90
       50
102
RTVSPost2010PropOp48
 70
     1
102
RTVSPost2010Prop49
280
     0
102
RTVSPost2010PropOp49
 70
     1
102
RTVSPost2010Prop50
 90
       50
102
RTVSPost2010PropOp50
 70
     1
102
RTVSPost2010Prop51ColorIndex
 90
      256
102
RTVSPost2010Prop51ColorRGB
 90
-16777216
102
RTVSPost2010PropOp51
 70
     0
102
RTVSPost2010Prop52
140
1.0
102
RTVSPost2010PropOp52
 70
     0
102
RTVSPost2010Prop53
 90
        2
102
RTVSPost2010PropOp53
 70
     1
102
RTVSPost2010Prop54
  1
strokes_ogs.tif
102
RTVSPost2010PropOp54
 70
     1
102
RTVSPost2010Prop55
280
     0
102
RTVSPost2010PropOp55
 70
     1
102
RTVSPost2010Prop56
140
1.0
102
RTVSPost2010PropOp56
 70
     1
102
RTVSPost2010Prop57
140
1.0
102
RTVSPost2010PropOp57
 70
     1
  0
XRECORD
  5
204
102
{ACAD_REACTORS
330
203
102
}
330
203
100
AcDbXrecord
280
     1
102
RTVSPropertyOp0
 70
     1
102
RTVSPropertyOp1
 70
     1
102
RTVSPropertyOp2
 70
     1
102
RTVSPropertyOp3
 70
     1
102
RTVSPropertyOp4
 70
     1
102
RTVSPropertyOp5
 70
     1
102
RTVSPropertyOp6
 70
     1
102
RTVSPropertyOp7
 70
     1
102
RTVSPropertyOp8
 70
     1
102
RTVSPropertyOp9
 70
     1
102
RTVSPropertyOp10
 70
     1
102
RTVSPropertyOp11
 70
     1
102
RTVSPropertyOp12
 70
     1
102
RTVSPropertyOp13
 70
     1
102
RTVSPropertyOp14
 70
     1
102
RTVSPropertyOp15
 70
     1
102
RTVSPropertyOp16
 70
     1
102
RTVSPropertyOp17
 70
     1
102
RTVSPropertyOp18
 70
     1
102
RTVSPropertyOp19
 70
     1
102
RTVSPropertyOp20
 70
     1
102
RTVSPropertyOp21
 70
     1
102
RTVSPropertyOp22
 70
     1
102
RTVSPropertyOp23
 70
     1
102
RTVSPropertyOp24
 70
     1
102
RTVSPropertyOp25
 70
     1
102
RTVSPropertyOp26
 70
     1
102
RTVSPropertyOp27
 70
     1
102
RTVSPropertyOp28
 70
     1
102
RTVSPropertyOp29
 70
     1
102
RTVSPropertyOp30
 70
     1
102
RTVSPropertyOp31
 70
     1
102
RTVSPropertyOp32
 70
     1
102
RTVSPropertyOp33
 70
     1
102
RTVSPropertyOp34
 70
     1
102
RTVSPropertyOp35
 70
     1
102
RTVSPropertyOp36
 70
     1
102
RTVSPropertyOp37
 70
     1
102
RTVSPropertyOp38
 70
     1
102
RTVSPropertyOp39
 70
     1
102
RTVSPropertyOp40
 70
     1
102
RTVSPropertyOp41
 70
     1
102
RTVSPropertyOp42
 70
     1
102
RTVSPropertyOp43
 70
     1
102
RTVSPropertyOp44
 70
     1
102
RTVSPropertyOp45
 70
     1
102
RTVSPropertyOp46
 70
     1
102
RTVSPropertyOp47
 70
     1
102
RTVSPropertyOp48
 70
     1
102
RTVSPropertyOp49
 70
     1
102
RTVSPropertyOp50
 70
     1
102
RTVSPropertyOp51
 70
     0
102
RTVSPropertyOp52
 70
     0
102
RTVSPropertyOp53
 70
     1
102
RTVSPropertyOp54
 70
     1
102
RTVSPropertyOp55
 70
     1
102
RTVSPropertyOp56
 70
     1
102
RTVSPropertyOp57
 70
     1
102
RTVSPost2010Prop28
280
     0
102
RTVSPost2010PropOp28
 70
     1
102
RTVSPost2010Prop29
280
     1
102
RTVSPost2010PropOp29
 70
     1
102
RTVSPost2010Prop30
280
     1
102
RTVSPost2010PropOp30
 70
     1
102
RTVSPost2010Prop31
280
     0
102
RTVSPost2010PropOp31
 70
     1
102
RTVSPost2010Prop32
280
     0
102
RTVSPost2010PropOp32
 70
     1
102
RTVSPost2010Prop33
280
     0
102
RTVSPost2010PropOp33
 70
     1
102
RTVSPost2010Prop34
280
     0
102
RTVSPost2010PropOp34
 70
     1
102
RTVSPost2010Prop35
280
     0
102
RTVSPost2010PropOp35
 70
     1
102
RTVSPost2010Prop36
280
     0
102
RTVSPost2010PropOp36
 70
     1
102
RTVSPost2010Prop37
 90
       50
102
RTVSPost2010PropOp37
 70
     1
102
RTVSPost2010Prop38
140
0.0
102
RTVSPost2010PropOp38
 70
     1
102
RTVSPost2010Prop39
140
1.0
102
RTVSPost2010PropOp39
 70
     1
102
RTVSPost2010Prop40
 90
        0
102
RTVSPost2010PropOp40
 70
     1
102
RTVSPost2010Prop41ColorIndex
 90
       18
102
RTVSPost2010Prop41ColorRGB
 90
        0
102
RTVSPost2010PropOp41
 70
     1
102
RTVSPost2010Prop42
 90
       50
102
RTVSPost2010PropOp42
 70
     1
102
RTVSPost2010Prop43
 90
        3
102
RTVSPost2010PropOp43
 70
     1
102
RTVSPost2010Prop44ColorIndex
 90
        5
102
RTVSPost2010Prop44ColorRGB
 90
      255
102
RTVSPost2010PropOp44
 70
     1
102
RTVSPost2010Prop45
280
     0
102
RTVSPost2010PropOp45
 70
     1
102
RTVSPost2010Prop46
 90
       50
102
RTVSPost2010PropOp46
 70
     1
102
RTVSPost2010Prop47
 90
       50
102
RTVSPost2010PropOp47
 70
     1
102
RTVSPost2010Prop48
 90
       50
102
RTVSPost2010PropOp48
 70
     1
102
RTVSPost2010Prop49
280
     0
102
RTVSPost2010PropOp49
 70
     1
102
RTVSPost2010Prop50
 90
       50
102
RTVSPost2010PropOp50
 70
     1
102
RTVSPost2010Prop51ColorIndex
 90
      256
102
RTVSPost2010Prop51ColorRGB
 90
-16777216
102
RTVSPost2010PropOp51
 70
     0
102
RTVSPost2010Prop52
140
1.0
102
RTVSPost2010PropOp52
 70
     0
102
RTVSPost2010Prop53
 90
        2
102
RTVSPost2010PropOp53
 70
     1
102
RTVSPost2010Prop54
  1
strokes_ogs.tif
102
RTVSPost2010PropOp54
 70
     1
102
RTVSPost2010Prop55
280
     0
102
RTVSPost2010PropOp55
 70
     1
102
RTVSPost2010Prop56
140
1.0
102
RTVSPost2010PropOp56
 70
     1
102
RTVSPost2010Prop57
140
1.0
102
RTVSPost2010PropOp57
 70
     1
  0
XRECORD
  5
20C
102
{ACAD_REACTORS
330
20B
102
}
330
20B
100
AcDbXrecord
280
     1
102
RTVSPropertyOp0
 70
     1
102
RTVSPropertyOp1
 70
     1
102
RTVSPropertyOp2
 70
     1
102
RTVSPropertyOp3
 70
     1
102
RTVSPropertyOp4
 70
     1
102
RTVSPropertyOp5
 70
     1
102
RTVSPropertyOp6
 70
     1
102
RTVSPropertyOp7
 70
     1
102
RTVSPropertyOp8
 70
     1
102
RTVSPropertyOp9
 70
     1
102
RTVSPropertyOp10
 70
     1
102
RTVSPropertyOp11
 70
     1
102
RTVSPropertyOp12
 70
     1
102
RTVSPropertyOp13
 70
     1
102
RTVSPropertyOp14
 70
     1
102
RTVSPropertyOp15
 70
     1
102
RTVSPropertyOp16
 70
     1
102
RTVSPropertyOp17
 70
     1
102
RTVSPropertyOp18
 70
     1
102
RTVSPropertyOp19
 70
     1
102
RTVSPropertyOp20
 70
     1
102
RTVSPropertyOp21
 70
     1
102
RTVSPropertyOp22
 70
     1
102
RTVSPropertyOp23
 70
     1
102
RTVSPropertyOp24
 70
     1
102
RTVSPropertyOp25
 70
     1
102
RTVSPropertyOp26
 70
     1
102
RTVSPropertyOp27
 70
     1
102
RTVSPropertyOp28
 70
     1
102
RTVSPropertyOp29
 70
     1
102
RTVSPropertyOp30
 70
     1
102
RTVSPropertyOp31
 70
     1
102
RTVSPropertyOp32
 70
     1
102
RTVSPropertyOp33
 70
     1
102
RTVSPropertyOp34
 70
     1
102
RTVSPropertyOp35
 70
     1
102
RTVSPropertyOp36
 70
     1
102
RTVSPropertyOp37
 70
     1
102
RTVSPropertyOp38
 70
     1
102
RTVSPropertyOp39
 70
     1
102
RTVSPropertyOp40
 70
     1
102
RTVSPropertyOp41
 70
     1
102
RTVSPropertyOp42
 70
     1
102
RTVSPropertyOp43
 70
     1
102
RTVSPropertyOp44
 70
     1
102
RTVSPropertyOp45
 70
     1
102
RTVSPropertyOp46
 70
     1
102
RTVSPropertyOp47
 70
     1
102
RTVSPropertyOp48
 70
     1
102
RTVSPropertyOp49
 70
     1
102
RTVSPropertyOp50
 70
     1
102
RTVSPropertyOp51
 70
     0
102
RTVSPropertyOp52
 70
     0
102
RTVSPropertyOp53
 70
     1
102
RTVSPropertyOp54
 70
     1
102
RTVSPropertyOp55
 70
     1
102
RTVSPropertyOp56
 70
     1
102
RTVSPropertyOp57
 70
     1
102
RTVSPost2010Prop28
280
     0
102
RTVSPost2010PropOp28
 70
     1
102
RTVSPost2010Prop29
280
     1
102
RTVSPost2010PropOp29
 70
     1
102
RTVSPost2010Prop30
280
     1
102
RTVSPost2010PropOp30
 70
     1
102
RTVSPost2010Prop31
280
     0
102
RTVSPost2010PropOp31
 70
     1
102
RTVSPost2010Prop32
280
     0
102
RTVSPost2010PropOp32
 70
     1
102
RTVSPost2010Prop33
280
     0
102
RTVSPost2010PropOp33
 70
     1
102
RTVSPost2010Prop34
280
     0
102
RTVSPost2010PropOp34
 70
     1
102
RTVSPost2010Prop35
280
     0
102
RTVSPost2010PropOp35
 70
     1
102
RTVSPost2010Prop36
280
     0
102
RTVSPost2010PropOp36
 70
     1
102
RTVSPost2010Prop37
 90
       50
102
RTVSPost2010PropOp37
 70
     1
102
RTVSPost2010Prop38
140
0.0
102
RTVSPost2010PropOp38
 70
     1
102
RTVSPost2010Prop39
140
1.0
102
RTVSPost2010PropOp39
 70
     1
102
RTVSPost2010Prop40
 90
        0
102
RTVSPost2010PropOp40
 70
     1
102
RTVSPost2010Prop41ColorIndex
 90
       18
102
RTVSPost2010Prop41ColorRGB
 90
        0
102
RTVSPost2010PropOp41
 70
     1
102
RTVSPost2010Prop42
 90
       50
102
RTVSPost2010PropOp42
 70
     1
102
RTVSPost2010Prop43
 90
        3
102
RTVSPost2010PropOp43
 70
     1
102
RTVSPost2010Prop44ColorIndex
 90
        5
102
RTVSPost2010Prop44ColorRGB
 90
      255
102
RTVSPost2010PropOp44
 70
     1
102
RTVSPost2010Prop45
280
     0
102
RTVSPost2010PropOp45
 70
     1
102
RTVSPost2010Prop46
 90
       50
102
RTVSPost2010PropOp46
 70
     1
102
RTVSPost2010Prop47
 90
       50
102
RTVSPost2010PropOp47
 70
     1
102
RTVSPost2010Prop48
 90
       50
102
RTVSPost2010PropOp48
 70
     1
102
RTVSPost2010Prop49
280
     0
102
RTVSPost2010PropOp49
 70
     1
102
RTVSPost2010Prop50
 90
       50
102
RTVSPost2010PropOp50
 70
     1
102
RTVSPost2010Prop51ColorIndex
 90
      256
102
RTVSPost2010Prop51ColorRGB
 90
-16777216
102
RTVSPost2010PropOp51
 70
     0
102
RTVSPost2010Prop52
140
1.0
102
RTVSPost2010PropOp52
 70
     0
102
RTVSPost2010Prop53
 90
        2
102
RTVSPost2010PropOp53
 70
     1
102
RTVSPost2010Prop54
  1
strokes_ogs.tif
102
RTVSPost2010PropOp54
 70
     1
102
RTVSPost2010Prop55
280
     0
102
RTVSPost2010PropOp55
 70
     1
102
RTVSPost2010Prop56
140
1.0
102
RTVSPost2010PropOp56
 70
     1
102
RTVSPost2010Prop57
140
1.0
102
RTVSPost2010PropOp57
 70
     1
  0
ENDSEC
  0
EOF
