  0
SECTION
  2
HEADER
  9
$ACADVER
  1
AC1018
  9
$ACADMAINTVER
 70
     0
  9
$DWGCODEPAGE
  3
ANSI_936
  9
$INSBASE
 10
0.0
 20
0.0
 30
0.0
  9
$EXTMIN
 10
-0.0000000000001269
 20
743.677530648264
 30
0.0
  9
$EXTMAX
 10
197.572622589291
 20
899.4336317743117
 30
0.0
  9
$LIMMIN
 10
0.0
 20
0.0
  9
$LIMMAX
 10
12.0
 20
9.0
  9
$ORTHOMODE
 70
     0
  9
$REGENMODE
 70
     1
  9
$FILLMODE
 70
     1
  9
$QTEXTMODE
 70
     0
  9
$MIRRTEXT
 70
     1
  9
$LTSCALE
 40
1.0
  9
$ATTMODE
 70
     1
  9
$TEXTSIZE
 40
0.2
  9
$TRACEWID
 40
0.05
  9
$TEXTSTYLE
  7
Standard
  9
$CLAYER
  8
0
  9
$CELTYPE
  6
ByLayer
  9
$CECOLOR
 62
   256
  9
$CELTSCALE
 40
1.0
  9
$DISPSILH
 70
     0
  9
$DIMSCALE
 40
1.0
  9
$DIMASZ
 40
0.18
  9
$DIMEXO
 40
0.0625
  9
$DIMDLI
 40
0.38
  9
$DIMRND
 40
0.0
  9
$DIMDLE
 40
0.0
  9
$DIMEXE
 40
0.18
  9
$DIMTP
 40
0.0
  9
$DIMTM
 40
0.0
  9
$DIMTXT
 40
0.18
  9
$DIMCEN
 40
0.09
  9
$DIMTSZ
 40
0.0
  9
$DIMTOL
 70
     0
  9
$DIMLIM
 70
     0
  9
$DIMTIH
 70
     1
  9
$DIMTOH
 70
     1
  9
$DIMSE1
 70
     0
  9
$DIMSE2
 70
     0
  9
$DIMTAD
 70
     0
  9
$DIMZIN
 70
     0
  9
$DIMBLK
  1

  9
$DIMASO
 70
     1
  9
$DIMSHO
 70
     1
  9
$DIMPOST
  1

  9
$DIMAPOST
  1

  9
$DIMALT
 70
     0
  9
$DIMALTD
 70
     2
  9
$DIMALTF
 40
25.4
  9
$DIMLFAC
 40
1.0
  9
$DIMTOFL
 70
     0
  9
$DIMTVP
 40
0.0
  9
$DIMTIX
 70
     0
  9
$DIMSOXD
 70
     0
  9
$DIMSAH
 70
     0
  9
$DIMBLK1
  1

  9
$DIMBLK2
  1

  9
$DIMSTYLE
  2
Standard
  9
$DIMCLRD
 70
     0
  9
$DIMCLRE
 70
     0
  9
$DIMCLRT
 70
     0
  9
$DIMTFAC
 40
1.0
  9
$DIMGAP
 40
0.09
  9
$DIMJUST
 70
     0
  9
$DIMSD1
 70
     0
  9
$DIMSD2
 70
     0
  9
$DIMTOLJ
 70
     1
  9
$DIMTZIN
 70
     0
  9
$DIMALTZ
 70
     0
  9
$DIMALTTZ
 70
     0
  9
$DIMUPT
 70
     0
  9
$DIMDEC
 70
     4
  9
$DIMTDEC
 70
     4
  9
$DIMALTU
 70
     2
  9
$DIMALTTD
 70
     2
  9
$DIMTXSTY
  7
Standard
  9
$DIMAUNIT
 70
     0
  9
$DIMADEC
 70
     0
  9
$DIMALTRND
 40
0.0
  9
$DIMAZIN
 70
     0
  9
$DIMDSEP
 70
    46
  9
$DIMATFIT
 70
     3
  9
$DIMFRAC
 70
     0
  9
$DIMLDRBLK
  1

  9
$DIMLUNIT
 70
     2
  9
$DIMLWD
 70
    -2
  9
$DIMLWE
 70
    -2
  9
$DIMTMOVE
 70
     2
  9
$LUNITS
 70
     2
  9
$LUPREC
 70
     2
  9
$SKETCHINC
 40
0.1
  9
$FILLETRAD
 40
0.5
  9
$AUNITS
 70
     0
  9
$AUPREC
 70
     0
  9
$MENU
  1
.
  9
$ELEVATION
 40
0.0
  9
$PELEVATION
 40
0.0
  9
$THICKNESS
 40
0.0
  9
$LIMCHECK
 70
     0
  9
$CHAMFERA
 40
0.5
  9
$CHAMFERB
 40
0.5
  9
$CHAMFERC
 40
1.0
  9
$CHAMFERD
 40
0.0
  9
$SKPOLY
 70
     0
  9
$TDCREATE
 40
2456712.735443704
  9
$TDUCREATE
 40
2456712.40211037
  9
$TDUPDATE
 40
2456712.735445428
  9
$TDUUPDATE
 40
2456712.402112095
  9
$TDINDWG
 40
0.0000000116
  9
$TDUSRTIMER
 40
0.0000000116
  9
$USRTIMER
 70
     1
  9
$ANGBASE
 50
0.0
  9
$ANGDIR
 70
     0
  9
$PDMODE
 70
     0
  9
$PDSIZE
 40
0.0
  9
$PLINEWID
 40
0.0
  9
$SPLFRAME
 70
     0
  9
$SPLINETYPE
 70
     6
  9
$SPLINESEGS
 70
     8
  9
$HANDSEED
  5
5C3
  9
$SURFTAB1
 70
     6
  9
$SURFTAB2
 70
     6
  9
$SURFTYPE
 70
     6
  9
$SURFU
 70
     6
  9
$SURFV
 70
     6
  9
$UCSBASE
  2

  9
$UCSNAME
  2

  9
$UCSORG
 10
0.0
 20
0.0
 30
0.0
  9
$UCSXDIR
 10
1.0
 20
0.0
 30
0.0
  9
$UCSYDIR
 10
0.0
 20
1.0
 30
0.0
  9
$UCSORTHOREF
  2

  9
$UCSORTHOVIEW
 70
     0
  9
$UCSORGTOP
 10
0.0
 20
0.0
 30
0.0
  9
$UCSORGBOTTOM
 10
0.0
 20
0.0
 30
0.0
  9
$UCSORGLEFT
 10
0.0
 20
0.0
 30
0.0
  9
$UCSORGRIGHT
 10
0.0
 20
0.0
 30
0.0
  9
$UCSORGFRONT
 10
0.0
 20
0.0
 30
0.0
  9
$UCSORGBACK
 10
0.0
 20
0.0
 30
0.0
  9
$PUCSBASE
  2

  9
$PUCSNAME
  2

  9
$PUCSORG
 10
0.0
 20
0.0
 30
0.0
  9
$PUCSXDIR
 10
1.0
 20
0.0
 30
0.0
  9
$PUCSYDIR
 10
0.0
 20
1.0
 30
0.0
  9
$PUCSORTHOREF
  2

  9
$PUCSORTHOVIEW
 70
     0
  9
$PUCSORGTOP
 10
0.0
 20
0.0
 30
0.0
  9
$PUCSORGBOTTOM
 10
0.0
 20
0.0
 30
0.0
  9
$PUCSORGLEFT
 10
0.0
 20
0.0
 30
0.0
  9
$PUCSORGRIGHT
 10
0.0
 20
0.0
 30
0.0
  9
$PUCSORGFRONT
 10
0.0
 20
0.0
 30
0.0
  9
$PUCSORGBACK
 10
0.0
 20
0.0
 30
0.0
  9
$USERI1
 70
     0
  9
$USERI2
 70
     0
  9
$USERI3
 70
     0
  9
$USERI4
 70
     0
  9
$USERI5
 70
     0
  9
$USERR1
 40
0.0
  9
$USERR2
 40
0.0
  9
$USERR3
 40
0.0
  9
$USERR4
 40
0.0
  9
$USERR5
 40
0.0
  9
$WORLDVIEW
 70
     1
  9
$SHADEDGE
 70
     3
  9
$SHADEDIF
 70
    70
  9
$TILEMODE
 70
     1
  9
$MAXACTVP
 70
    64
  9
$PINSBASE
 10
0.0
 20
0.0
 30
0.0
  9
$PLIMCHECK
 70
     0
  9
$PEXTMIN
 10
1.000000000000000E+20
 20
1.000000000000000E+20
 30
1.000000000000000E+20
  9
$PEXTMAX
 10
-1.000000000000000E+20
 20
-1.000000000000000E+20
 30
-1.000000000000000E+20
  9
$PLIMMIN
 10
0.0
 20
0.0
  9
$PLIMMAX
 10
12.0
 20
9.0
  9
$UNITMODE
 70
     0
  9
$VISRETAIN
 70
     1
  9
$PLINEGEN
 70
     0
  9
$PSLTSCALE
 70
     1
  9
$TREEDEPTH
 70
  3020
  9
$CMLSTYLE
  2
Standard
  9
$CMLJUST
 70
     0
  9
$CMLSCALE
 40
1.0
  9
$PROXYGRAPHICS
 70
     1
  9
$MEASUREMENT
 70
     0
  9
$CELWEIGHT
370
    -1
  9
$ENDCAPS
280
     0
  9
$JOINSTYLE
280
     0
  9
$LWDISPLAY
290
     0
  9
$INSUNITS
 70
     4
  9
$HYPERLINKBASE
  1

  9
$STYLESHEET
  1

  9
$XEDIT
290
     1
  9
$CEPSNTYPE
380
     0
  9
$PSTYLEMODE
290
     1
  9
$FINGERPRINTGUID
  2
{30708CCA-A89C-4E2D-AB68-2EB0EBDA1573}
  9
$VERSIONGUID
  2
{FAEB1C32-E019-11D5-929B-00C0DF256EC4}
  9
$EXTNAMES
290
     1
  9
$PSVPSCALE
 40
0.0
  9
$OLESTARTUP
290
     0
  9
$SORTENTS
280
   127
  9
$INDEXCTL
280
     0
  9
$HIDETEXT
280
     1
  9
$XCLIPFRAME
290
     0
  9
$HALOGAP
280
     0
  9
$OBSCOLOR
 70
   257
  9
$OBSLTYPE
280
     0
  9
$INTERSECTIONDISPLAY
280
     0
  9
$INTERSECTIONCOLOR
 70
   257
  9
$DIMASSOC
280
     2
  9
$PROJECTNAME
  1

  0
ENDSEC
  0
SECTION
  2
CLASSES
  0
CLASS
  1
ACDBDICTIONARYWDFLT
  2
AcDbDictionaryWithDefault
  3
ObjectDBX Classes
 90
        0
 91
        4
280
     0
281
     0
  0
CLASS
  1
VISUALSTYLE
  2
AcDbVisualStyle
  3
ObjectDBX Classes
 90
     4095
 91
        4
280
     0
281
     0
  0
CLASS
  1
MATERIAL
  2
AcDbMaterial
  3
ObjectDBX Classes
 90
     1153
 91
        4
280
     0
281
     0
  0
CLASS
  1
SCALE
  2
AcDbScale
  3
ObjectDBX Classes
 90
     1153
 91
        4
280
     0
281
     0
  0
CLASS
  1
SUN
  2
AcDbSun
  3
SCENEOE
 90
     1153
 91
        4
280
     0
281
     0
  0
CLASS
  1
DICTIONARYVAR
  2
AcDbDictionaryVar
  3
ObjectDBX Classes
 90
        0
 91
        4
280
     0
281
     0
  0
ENDSEC
  0
SECTION
  2
TABLES
  0
TABLE
  2
VPORT
  5
8
330
0
100
AcDbSymbolTable
 70
     1
  0
VPORT
  5
29
330
8
100
AcDbSymbolTableRecord
100
AcDbViewportTableRecord
  2
*Active
 70
     0
 10
0.0
 20
0.0
 11
1.0
 21
1.0
 12
98.78631129464542
 22
821.5555812112879
 13
0.0
 23
0.0
 14
0.5
 24
0.5
 15
0.5
 25
0.5
 16
0.0
 26
0.0
 36
1.0
 17
0.0
 27
0.0
 37
0.0
 40
158.8712231485687
 41
1.268474372181432
 42
50.0
 43
0.0
 44
0.0
 50
0.0
 51
0.0
 71
     0
 72
   100
 73
     1
 74
     3
 75
     0
 76
     0
 77
     0
 78
     0
281
     0
 65
     1
110
0.0
120
0.0
130
0.0
111
1.0
121
0.0
131
0.0
112
0.0
122
1.0
132
0.0
 79
     0
146
0.0
  0
ENDTAB
  0
TABLE
  2
LTYPE
  5
5
330
0
100
AcDbSymbolTable
 70
     1
  0
LTYPE
  5
14
330
5
100
AcDbSymbolTableRecord
100
AcDbLinetypeTableRecord
  2
ByBlock
 70
     0
  3

 72
    65
 73
     0
 40
0.0
  0
LTYPE
  5
15
330
5
100
AcDbSymbolTableRecord
100
AcDbLinetypeTableRecord
  2
ByLayer
 70
     0
  3

 72
    65
 73
     0
 40
0.0
  0
LTYPE
  5
16
330
5
100
AcDbSymbolTableRecord
100
AcDbLinetypeTableRecord
  2
Continuous
 70
     0
  3
Solid line
 72
    65
 73
     0
 40
0.0
  0
ENDTAB
  0
TABLE
  2
LAYER
  5
2
330
0
100
AcDbSymbolTable
 70
     2
  0
LAYER
  5
10
330
2
100
AcDbSymbolTableRecord
100
AcDbLayerTableRecord
  2
0
 70
     0
 62
     7
  6
Continuous
370
    -3
390
F
  0
LAYER
  5
62
330
2
100
AcDbSymbolTableRecord
100
AcDbLayerTableRecord
  2
Make2D$可见线$普通线
 70
     0
 62
    18
420
        0
  6
Continuous
370
    -3
390
F
  0
ENDTAB
  0
TABLE
  2
STYLE
  5
3
330
0
100
AcDbSymbolTable
 70
     1
  0
STYLE
  5
11
330
3
100
AcDbSymbolTableRecord
100
AcDbTextStyleTableRecord
  2
Standard
 70
     0
 40
0.0
 41
1.0
 50
0.0
 71
     0
 42
0.2
  3
txt
  4

  0
ENDTAB
  0
TABLE
  2
VIEW
  5
6
330
0
100
AcDbSymbolTable
 70
     0
  0
ENDTAB
  0
TABLE
  2
UCS
  5
7
330
0
100
AcDbSymbolTable
 70
     0
  0
ENDTAB
  0
TABLE
  2
APPID
  5
9
330
0
100
AcDbSymbolTable
 70
     1
  0
APPID
  5
12
330
9
100
AcDbSymbolTableRecord
100
AcDbRegAppTableRecord
  2
ACAD
 70
     0
  0
ENDTAB
  0
TABLE
  2
DIMSTYLE
  5
A
330
0
100
AcDbSymbolTable
 70
     1
100
AcDbDimStyleTable
  0
DIMSTYLE
105
27
330
A
100
AcDbSymbolTableRecord
100
AcDbDimStyleTableRecord
  2
Standard
 70
     0
178
     0
340
11
  0
ENDTAB
  0
TABLE
  2
BLOCK_RECORD
  5
1
330
0
100
AcDbSymbolTable
 70
     1
  0
BLOCK_RECORD
  5
1F
330
1
100
AcDbSymbolTableRecord
100
AcDbBlockTableRecord
  2
*Model_Space
340
22
  0
BLOCK_RECORD
  5
1B
330
1
100
AcDbSymbolTableRecord
100
AcDbBlockTableRecord
  2
*Paper_Space
340
1E
  0
BLOCK_RECORD
  5
23
330
1
100
AcDbSymbolTableRecord
100
AcDbBlockTableRecord
  2
*Paper_Space0
340
26
  0
ENDTAB
  0
ENDSEC
  0
SECTION
  2
BLOCKS
  0
BLOCK
  5
20
330
1F
100
AcDbEntity
  8
0
100
AcDbBlockBegin
  2
*Model_Space
 70
     0
 10
0.0
 20
0.0
 30
0.0
  3
*Model_Space
  1
*Model_Space
  0
ENDBLK
  5
21
330
1F
100
AcDbEntity
  8
0
100
AcDbBlockEnd
  0
BLOCK
  5
1C
330
1B
100
AcDbEntity
 67
     1
  8
0
100
AcDbBlockBegin
  2
*Paper_Space
 70
     0
 10
0.0
 20
0.0
 30
0.0
  3
*Paper_Space
  1
*Paper_Space
  0
ENDBLK
  5
1D
330
1B
100
AcDbEntity
 67
     1
  8
0
100
AcDbBlockEnd
  0
BLOCK
  5
24
330
23
100
AcDbEntity
  8
0
100
AcDbBlockBegin
  2
*Paper_Space0
 70
     0
 10
0.0
 20
0.0
 30
0.0
  3
*Paper_Space0
  1
*Paper_Space0
  0
ENDBLK
  5
25
330
23
100
AcDbEntity
  8
0
100
AcDbBlockEnd
  0
ENDSEC
  0
SECTION
  2
ENTITIES
  0
POLYLINE
  5
63
330
1F
100
AcDbEntity
  8
Make2D$可见线$普通线
100
AcDb2dPolyline
 66
     1
 10
0.0
 20
0.0
 30
0.0
  0
VERTEX
  5
64
330
63
100
AcDbEntity
  8
Make2D$可见线$普通线
100
AcDbVertex
100
AcDb2dVertex
 10
116.8468004034244
 20
798.5363510602848
 30
0.0
 42
-0.1075359377209379
  0
VERTEX
  5
65
330
63
100
AcDbEntity
  8
Make2D$可见线$普通线
100
AcDbVertex
100
AcDb2dVertex
 10
113.2246818559673
 20
792.7508809206801
 30
0.0
  0
VERTEX
  5
66
330
63
100
AcDbEntity
  8
Make2D$可见线$普通线
100
AcDbVertex
100
AcDb2dVertex
 10
112.9130487457077
 20
792.4318178156943
 30
0.0
  0
VERTEX
  5
67
330
63
100
AcDbEntity
  8
Make2D$可见线$普通线
100
AcDbVertex
100
AcDb2dVertex
 10
112.3543347255709
 20
791.9257195279663
 30
0.0
 42
-0.0877483634245351
  0
VERTEX
  5
68
330
63
100
AcDbEntity
  8
Make2D$可见线$普通线
100
AcDbVertex
100
AcDb2dVertex
 10
107.5640016995134
 20
789.017466963127
 30
0.0
  0
VERTEX
  5
69
330
63
100
AcDbEntity
  8
Make2D$可见线$普通线
100
AcDbVertex
100
AcDb2dVertex
 10
107.1571434597026
 20
788.8661541642618
 30
0.0
  0
VERTEX
  5
6A
330
63
100
AcDbEntity
  8
Make2D$可见线$普通线
100
AcDbVertex
100
AcDb2dVertex
 10
106.6753433579079
 20
788.7045038601786
 30
0.0
  0
VERTEX
  5
6B
330
63
100
AcDbEntity
  8
Make2D$可见线$普通线
100
AcDbVertex
100
AcDb2dVertex
 10
106.0966751144766
 20
788.5310061381911
 30
0.0
  0
VERTEX
  5
6C
330
63
100
AcDbEntity
  8
Make2D$可见线$普通线
100
AcDbVertex
100
AcDb2dVertex
 10
105.841550803872
 20
788.4619839810538
 30
0.0
  0
VERTEX
  5
6D
330
63
100
AcDbEntity
  8
Make2D$可见线$普通线
100
AcDbVertex
100
AcDb2dVertex
 10
105.5458542586512
 20
788.3875822157379
 30
0.0
  0
VERTEX
  5
6E
330
63
100
AcDbEntity
  8
Make2D$可见线$普通线
100
AcDbVertex
100
AcDb2dVertex
 10
105.1432828907441
 20
788.295795684819
 30
0.0
  0
VERTEX
  5
6F
330
63
100
AcDbEntity
  8
Make2D$可见线$普通线
100
AcDbVertex
100
AcDb2dVertex
 10
104.7808721211204
 20
788.2223958768014
 30
0.0
  0
VERTEX
  5
70
330
63
100
AcDbEntity
  8
Make2D$可见线$普通线
100
AcDbVertex
100
AcDb2dVertex
 10
104.3624565486288
 20
788.1483692880437
 30
0.0
  0
VERTEX
  5
71
330
63
100
AcDbEntity
  8
Make2D$可见线$普通线
100
AcDbVertex
100
AcDb2dVertex
 10
104.0238509590271
 20
788.0967726041325
 30
0.0
  0
VERTEX
  5
72
330
63
100
AcDbEntity
  8
Make2D$可见线$普通线
100
AcDbVertex
100
AcDb2dVertex
 10
103.5986414262096
 20
788.042405166975
 30
0.0
  0
VERTEX
  5
73
330
63
100
AcDbEntity
  8
Make2D$可见线$普通线
100
AcDbVertex
100
AcDb2dVertex
 10
103.2946977133715
 20
788.0106095445956
 30
0.0
  0
VERTEX
  5
74
330
63
100
AcDbEntity
  8
Make2D$可见线$普通线
100
AcDbVertex
100
AcDb2dVertex
 10
102.7816805526898
 20
787.9693814996448
 30
0.0
  0
VERTEX
  5
75
330
63
100
AcDbEntity
  8
Make2D$可见线$普通线
100
AcDbVertex
100
AcDb2dVertex
 10
101.7863112946455
 20
787.9394218262865
 30
0.0
  0
VERTEX
  5
76
330
63
100
AcDbEntity
  8
Make2D$可见线$普通线
100
AcDbVertex
100
AcDb2dVertex
 10
95.78631129464549
 20
787.9394218262865
 30
0.0
  0
VERTEX
  5
77
330
63
100
AcDbEntity
  8
Make2D$可见线$普通线
100
AcDbVertex
100
AcDb2dVertex
 10
94.78686154012425
 20
787.9697502345138
 30
0.0
  0
VERTEX
  5
78
330
63
100
AcDbEntity
  8
Make2D$可见线$普通线
100
AcDbVertex
100
AcDb2dVertex
 10
94.29605803094466
 20
788.0088981835759
 30
0.0
  0
VERTEX
  5
79
330
63
100
AcDbEntity
  8
Make2D$可见线$普通线
100
AcDbVertex
100
AcDb2dVertex
 10
93.92557426521068
 20
788.0480117926702
 30
0.0
  0
VERTEX
  5
7A
330
63
100
AcDbEntity
  8
Make2D$可见线$普通线
100
AcDbVertex
100
AcDb2dVertex
 10
93.44977526248837
 20
788.1110932421659
 30
0.0
  0
VERTEX
  5
7B
330
63
100
AcDbEntity
  8
Make2D$可见线$普通线
100
AcDbVertex
100
AcDb2dVertex
 10
93.24912230212877
 20
788.1420563204647
 30
0.0
  0
VERTEX
  5
7C
330
63
100
AcDbEntity
  8
Make2D$可见线$普通线
100
AcDbVertex
100
AcDb2dVertex
 10
92.86778271204483
 20
788.2080945797013
 30
0.0
  0
VERTEX
  5
7D
330
63
100
AcDbEntity
  8
Make2D$可见线$普通线
100
AcDbVertex
100
AcDb2dVertex
 10
92.53617096160482
 20
788.2732561810373
 30
0.0
  0
VERTEX
  5
7E
330
63
100
AcDbEntity
  8
Make2D$可见线$普通线
100
AcDbVertex
100
AcDb2dVertex
 10
92.1026665770973
 20
788.3694437856178
 30
0.0
  0
VERTEX
  5
7F
330
63
100
AcDbEntity
  8
Make2D$可见线$普通线
100
AcDbVertex
100
AcDb2dVertex
 10
91.73107347878008
 20
788.4619835378512
 30
0.0
  0
VERTEX
  5
80
330
63
100
AcDbEntity
  8
Make2D$可见线$普通线
100
AcDbVertex
100
AcDb2dVertex
 10
91.21023148776271
 20
788.6074077888106
 30
0.0
  0
VERTEX
  5
81
330
63
100
AcDbEntity
  8
Make2D$可见线$普通线
100
AcDbVertex
100
AcDb2dVertex
 10
90.526913718489
 20
788.8264253196849
 30
0.0
  0
VERTEX
  5
82
330
63
100
AcDbEntity
  8
Make2D$可见线$普通线
100
AcDbVertex
100
AcDb2dVertex
 10
88.7789912857123
 20
789.4660775662492
 30
0.0
  0
VERTEX
  5
83
330
63
100
AcDbEntity
  8
Make2D$可见线$普通线
100
AcDbVertex
100
AcDb2dVertex
 10
87.1772750427642
 20
790.4535800171184
 30
0.0
  0
VERTEX
  5
84
330
63
100
AcDbEntity
  8
Make2D$可见线$普通线
100
AcDbVertex
100
AcDb2dVertex
 10
86.9236239718253
 20
790.6189034837063
 30
0.0
 42
-0.0490890069336494
  0
VERTEX
  5
85
330
63
100
AcDbEntity
  8
Make2D$可见线$普通线
100
AcDbVertex
100
AcDb2dVertex
 10
84.49516271819293
 20
792.6022986880703
 30
0.0
  0
VERTEX
  5
86
330
63
100
AcDbEntity
  8
Make2D$可见线$普通线
100
AcDbVertex
100
AcDb2dVertex
 10
84.32408684443202
 20
792.7738349192051
 30
0.0
  0
VERTEX
  5
87
330
63
100
AcDbEntity
  8
Make2D$可见线$普通线
100
AcDbVertex
100
AcDb2dVertex
 10
84.04662470659092
 20
793.0667294106045
 30
0.0
  0
VERTEX
  5
88
330
63
100
AcDbEntity
  8
Make2D$可见线$普通线
100
AcDbVertex
100
AcDb2dVertex
 10
83.6262557615379
 20
793.540462590641
 30
0.0
  0
VERTEX
  5
89
330
63
100
AcDbEntity
  8
Make2D$可见线$普通线
100
AcDbVertex
100
AcDb2dVertex
 10
83.43628302104695
 20
793.7670638895335
 30
0.0
  0
VERTEX
  5
8A
330
63
100
AcDbEntity
  8
Make2D$可见线$普通线
100
AcDbVertex
100
AcDb2dVertex
 10
83.19408549155924
 20
794.0687849584306
 30
0.0
 42
-0.0306831522865179
  0
VERTEX
  5
8B
330
63
100
AcDbEntity
  8
Make2D$可见线$普通线
100
AcDbVertex
100
AcDb2dVertex
 10
82.0743411099489
 20
795.6951866754182
 30
0.0
  0
VERTEX
  5
8C
330
63
100
AcDbEntity
  8
Make2D$可见线$普通线
100
AcDbVertex
100
AcDb2dVertex
 10
82.03641373677488
 20
795.7585579137154
 30
0.0
 42
-0.1350214197235084
  0
VERTEX
  5
8D
330
63
100
AcDbEntity
  8
Make2D$可见线$普通线
100
AcDbVertex
100
AcDb2dVertex
 10
79.78631129464549
 20
803.9394218262868
 30
0.0
  0
VERTEX
  5
8E
330
63
100
AcDbEntity
  8
Make2D$可见线$普通线
100
AcDbVertex
100
AcDb2dVertex
 10
79.7863112946477
 20
819.3805598317256
 30
0.0
  0
VERTEX
  5
8F
330
63
100
AcDbEntity
  8
Make2D$可见线$普通线
100
AcDbVertex
100
AcDb2dVertex
 10
80.08615822173675
 20
821.1605218679415
 30
0.0
  0
VERTEX
  5
90
330
63
100
AcDbEntity
  8
Make2D$可见线$普通线
100
AcDbVertex
100
AcDb2dVertex
 10
80.18960594095681
 20
821.6474290114545
 30
0.0
  0
VERTEX
  5
91
330
63
100
AcDbEntity
  8
Make2D$可见线$普通线
100
AcDbVertex
100
AcDb2dVertex
 10
80.2700130495182
 20
821.9824699661367
 30
0.0
 42
-0.0175287494135016
  0
VERTEX
  5
92
330
63
100
AcDbEntity
  8
Make2D$可见线$普通线
100
AcDbVertex
100
AcDb2dVertex
 10
80.58210791335908
 20
823.0625987723788
 30
0.0
  0
VERTEX
  5
93
330
63
100
AcDbEntity
  8
Make2D$可见线$普通线
100
AcDbVertex
100
AcDb2dVertex
 10
80.72901551989104
 20
823.490742442771
 30
0.0
 42
-0.1238505334008914
  0
VERTEX
  5
94
330
63
100
AcDbEntity
  8
Make2D$可见线$普通线
100
AcDbVertex
100
AcDb2dVertex
 10
85.07035728056769
 20
829.96080781182
 30
0.0
  0
VERTEX
  5
95
330
63
100
AcDbEntity
  8
Make2D$可见线$普通线
100
AcDbVertex
100
AcDb2dVertex
 10
85.10319025132301
 20
829.9913717277518
 30
0.0
  0
VERTEX
  5
96
330
63
100
AcDbEntity
  8
Make2D$可见线$普通线
100
AcDbVertex
100
AcDb2dVertex
 10
85.26604775628164
 20
830.1342463028358
 30
0.0
 42
-0.05697105542029
  0
VERTEX
  5
97
330
63
100
AcDbEntity
  8
Make2D$可见线$普通线
100
AcDbVertex
100
AcDb2dVertex
 10
88.27570670678676
 20
832.206298683722
 30
0.0
  0
VERTEX
  5
98
330
63
100
AcDbEntity
  8
Make2D$可见线$普通线
100
AcDbVertex
100
AcDb2dVertex
 10
88.47025362766496
 20
832.3098491358942
 30
0.0
 42
-0.0515534660825594
  0
VERTEX
  5
99
330
63
100
AcDbEntity
  8
Make2D$可见线$普通线
100
AcDbVertex
100
AcDb2dVertex
 10
91.5414171264571
 20
833.5053570925608
 30
0.0
  0
VERTEX
  5
9A
330
63
100
AcDbEntity
  8
Make2D$可见线$普通线
100
AcDbVertex
100
AcDb2dVertex
 10
91.56152610814848
 20
833.5108698228255
 30
0.0
  0
VERTEX
  5
9B
330
63
100
AcDbEntity
  8
Make2D$可见线$普通线
100
AcDbVertex
100
AcDb2dVertex
 10
91.96714777474114
 20
833.6161167970597
 30
0.0
  0
VERTEX
  5
9C
330
63
100
AcDbEntity
  8
Make2D$可见线$普通线
100
AcDbVertex
100
AcDb2dVertex
 10
92.37734707163602
 20
833.7111818552419
 30
0.0
  0
VERTEX
  5
9D
330
63
100
AcDbEntity
  8
Make2D$可见线$普通线
100
AcDbVertex
100
AcDb2dVertex
 10
92.79180608902982
 20
833.7958370367314
 30
0.0
  0
VERTEX
  5
9E
330
63
100
AcDbEntity
  8
Make2D$可见线$普通线
100
AcDbVertex
100
AcDb2dVertex
 10
93.21020935053843
 20
833.8698608826676
 30
0.0
  0
VERTEX
  5
9F
330
63
100
AcDbEntity
  8
Make2D$可见线$普通线
100
AcDbVertex
100
AcDb2dVertex
 10
93.56894414905808
 20
833.9242919946157
 30
0.0
  0
VERTEX
  5
A0
330
63
100
AcDbEntity
  8
Make2D$可见线$普通线
100
AcDbVertex
100
AcDb2dVertex
 10
93.97258123853965
 20
833.9756590832478
 30
0.0
  0
VERTEX
  5
A1
330
63
100
AcDbEntity
  8
Make2D$可见线$普通线
100
AcDbVertex
100
AcDb2dVertex
 10
94.26922299395125
 20
834.0067863427563
 30
0.0
  0
VERTEX
  5
A2
330
63
100
AcDbEntity
  8
Make2D$可见线$普通线
100
AcDbVertex
100
AcDb2dVertex
 10
94.78882094368123
 20
834.0488285123292
 30
0.0
  0
VERTEX
  5
A3
330
63
100
AcDbEntity
  8
Make2D$可见线$普通线
100
AcDbVertex
100
AcDb2dVertex
 10
95.78631129464549
 20
834.078799989916
 30
0.0
  0
VERTEX
  5
A4
330
63
100
AcDbEntity
  8
Make2D$可见线$普通线
100
AcDbVertex
100
AcDb2dVertex
 10
101.7863112946454
 20
834.078799989916
 30
0.0
  0
VERTEX
  5
A5
330
63
100
AcDbEntity
  8
Make2D$可见线$普通线
100
AcDbVertex
100
AcDb2dVertex
 10
102.7832266499779
 20
834.0486189403553
 30
0.0
  0
VERTEX
  5
A6
330
63
100
AcDbEntity
  8
Make2D$可见线$普通线
100
AcDbVertex
100
AcDb2dVertex
 10
103.287615265052
 20
834.0082859310739
 30
0.0
  0
VERTEX
  5
A7
330
63
100
AcDbEntity
  8
Make2D$可见线$普通线
100
AcDbVertex
100
AcDb2dVertex
 10
103.433890711329
 20
833.9937829551573
 30
0.0
  0
VERTEX
  5
A8
330
63
100
AcDbEntity
  8
Make2D$可见线$普通线
100
AcDbVertex
100
AcDb2dVertex
 10
104.1214628167125
 20
833.9073349144078
 30
0.0
  0
VERTEX
  5
A9
330
63
100
AcDbEntity
  8
Make2D$可见线$普通线
100
AcDbVertex
100
AcDb2dVertex
 10
104.2355942581441
 20
833.890051776301
 30
0.0
  0
VERTEX
  5
AA
330
63
100
AcDbEntity
  8
Make2D$可见线$普通线
100
AcDbVertex
100
AcDb2dVertex
 10
104.7046367136968
 20
833.8101655829048
 30
0.0
  0
VERTEX
  5
AB
330
63
100
AcDbEntity
  8
Make2D$可见线$普通线
100
AcDbVertex
100
AcDb2dVertex
 10
105.1573521951062
 20
833.7194010581205
 30
0.0
  0
VERTEX
  5
AC
330
63
100
AcDbEntity
  8
Make2D$可见线$普通线
100
AcDbVertex
100
AcDb2dVertex
 10
105.6211513217164
 20
833.6122583450749
 30
0.0
  0
VERTEX
  5
AD
330
63
100
AcDbEntity
  8
Make2D$可见线$普通线
100
AcDbVertex
100
AcDb2dVertex
 10
105.9816192785587
 20
833.5189000620774
 30
0.0
  0
VERTEX
  5
AE
330
63
100
AcDbEntity
  8
Make2D$可见线$普通线
100
AcDbVertex
100
AcDb2dVertex
 10
106.4561245410811
 20
833.3827391882887
 30
0.0
  0
VERTEX
  5
AF
330
63
100
AcDbEntity
  8
Make2D$可见线$普通线
100
AcDbVertex
100
AcDb2dVertex
 10
107.0389912160822
 20
833.194553951016
 30
0.0
  0
VERTEX
  5
B0
330
63
100
AcDbEntity
  8
Make2D$可见线$普通线
100
AcDbVertex
100
AcDb2dVertex
 10
107.393010306217
 20
833.0647268152331
 30
0.0
 42
-0.0572590125549699
  0
VERTEX
  5
B1
330
63
100
AcDbEntity
  8
Make2D$可见线$普通线
100
AcDbVertex
100
AcDb2dVertex
 10
110.6441694692184
 20
831.402533164326
 30
0.0
 42
-0.0490567849833854
  0
VERTEX
  5
B2
330
63
100
AcDbEntity
  8
Make2D$可见线$普通线
100
AcDbVertex
100
AcDb2dVertex
 10
113.0719237944112
 20
829.4214259364314
 30
0.0
  0
VERTEX
  5
B3
330
63
100
AcDbEntity
  8
Make2D$可见线$普通线
100
AcDbVertex
100
AcDb2dVertex
 10
113.5486830569702
 20
828.9264470040314
 30
0.0
  0
VERTEX
  5
B4
330
63
100
AcDbEntity
  8
Make2D$可见线$普通线
100
AcDbVertex
100
AcDb2dVertex
 10
113.9856209827605
 20
828.434144864292
 30
0.0
  0
VERTEX
  5
B5
330
63
100
AcDbEntity
  8
Make2D$可见线$普通线
100
AcDbVertex
100
AcDb2dVertex
 10
114.3598311794828
 20
827.9732781676337
 30
0.0
 42
-0.0314644353817789
  0
VERTEX
  5
B6
330
63
100
AcDbEntity
  8
Make2D$可见线$普通线
100
AcDbVertex
100
AcDb2dVertex
 10
115.5084934942952
 20
826.306054916424
 30
0.0
  0
VERTEX
  5
B7
330
63
100
AcDbEntity
  8
Make2D$可见线$普通线
100
AcDbVertex
100
AcDb2dVertex
 10
115.8457422292817
 20
825.7159962507726
 30
0.0
 42
-0.1250272807888143
  0
VERTEX
  5
B8
330
63
100
AcDbEntity
  8
Make2D$可见线$普通线
100
AcDbVertex
100
AcDb2dVertex
 10
117.7863112946454
 20
818.078799989916
 30
0.0
  0
VERTEX
  5
B9
330
63
100
AcDbEntity
  8
Make2D$可见线$普通线
100
AcDbVertex
100
AcDb2dVertex
 10
117.7863112946477
 20
802.7555057787488
 30
0.0
  0
VERTEX
  5
BA
330
63
100
AcDbEntity
  8
Make2D$可见线$普通线
100
AcDbVertex
100
AcDb2dVertex
 10
117.5753957164356
 20
801.3512921456556
 30
0.0
 42
-0.0155912021636999
  0
VERTEX
  5
BB
330
63
100
AcDbEntity
  8
Make2D$可见线$普通线
100
AcDbVertex
100
AcDb2dVertex
 10
117.382283286389
 20
800.3675775630783
 30
0.0
  0
VERTEX
  5
BC
330
63
100
AcDbEntity
  8
Make2D$可见线$普通线
100
AcDbVertex
100
AcDb2dVertex
 10
117.3042883483055
 20
800.0424182406925
 30
0.0
 42
-0.0174269192847388
  0
VERTEX
  5
BD
330
63
100
AcDbEntity
  8
Make2D$可见线$普通线
100
AcDbVertex
100
AcDb2dVertex
 10
116.9946970461283
 20
798.9683846643728
 30
0.0
  0
VERTEX
  5
BE
330
63
100
AcDbEntity
  8
Make2D$可见线$普通线
100
AcDbVertex
100
AcDb2dVertex
 10
116.8468004034244
 20
798.5363510602848
 30
0.0
  0
SEQEND
  5
BF
330
63
100
AcDbEntity
  8
Make2D$可见线$普通线
  0
POLYLINE
  5
C0
330
1F
100
AcDbEntity
  8
Make2D$可见线$普通线
100
AcDb2dPolyline
 66
     1
 10
0.0
 20
0.0
 30
0.0
  0
VERTEX
  5
C1
330
C0
100
AcDbEntity
  8
Make2D$可见线$普通线
100
AcDbVertex
100
AcDb2dVertex
 10
3.666863288464384
 20
812.8929988431147
 30
0.0
 42
0.0230747788679385
  0
VERTEX
  5
C2
330
C0
100
AcDbEntity
  8
Make2D$可见线$普通线
100
AcDbVertex
100
AcDb2dVertex
 10
1.867877556842931
 20
804.7029074158321
 30
0.0
 42
0.0242184089188341
  0
VERTEX
  5
C3
330
C0
100
AcDbEntity
  8
Make2D$可见线$普通线
100
AcDbVertex
100
AcDb2dVertex
 10
0.2752668085122839
 20
792.1307519692064
 30
0.0
 42
0.0189498599284348
  0
VERTEX
  5
C4
330
C0
100
AcDbEntity
  8
Make2D$可见线$普通线
100
AcDbVertex
100
AcDb2dVertex
 10
0.0005216045138354
 20
785.177530648264
 30
0.0
  0
SEQEND
  5
C5
330
C0
100
AcDbEntity
  8
Make2D$可见线$普通线
  0
POLYLINE
  5
C6
330
1F
100
AcDbEntity
  8
Make2D$可见线$普通线
100
AcDb2dPolyline
 66
     1
 10
0.0
 20
0.0
 30
0.0
  0
VERTEX
  5
C7
330
C6
100
AcDbEntity
  8
Make2D$可见线$普通线
100
AcDbVertex
100
AcDb2dVertex
 10
193.5575725380999
 20
814.1089793865202
 30
0.0
 42
-0.0280891971892373
  0
VERTEX
  5
C8
330
C6
100
AcDbEntity
  8
Make2D$可见线$普通线
100
AcDbVertex
100
AcDb2dVertex
 10
195.704745032448
 20
804.7029074158321
 30
0.0
 42
-0.0242184089188275
  0
VERTEX
  5
C9
330
C6
100
AcDbEntity
  8
Make2D$可见线$普通线
100
AcDbVertex
100
AcDb2dVertex
 10
197.2973557807787
 20
792.1307519692064
 30
0.0
 42
-0.0189498599284352
  0
VERTEX
  5
CA
330
C6
100
AcDbEntity
  8
Make2D$可见线$普通线
100
AcDbVertex
100
AcDb2dVertex
 10
197.5721009847771
 20
785.177530648264
 30
0.0
  0
SEQEND
  5
CB
330
C6
100
AcDbEntity
  8
Make2D$可见线$普通线
  0
POLYLINE
  5
CC
330
1F
100
AcDbEntity
  8
Make2D$可见线$普通线
100
AcDb2dPolyline
 66
     1
 10
0.0
 20
0.0
 30
0.0
  0
VERTEX
  5
CD
330
CC
100
AcDbEntity
  8
Make2D$可见线$普通线
100
AcDbVertex
100
AcDb2dVertex
 10
121.7893085493539
 20
839.5010743881081
 30
0.0
 42
0.2572760749147107
  0
VERTEX
  5
CE
330
CC
100
AcDbEntity
  8
Make2D$可见线$普通线
100
AcDbVertex
100
AcDb2dVertex
 10
130.2423763046204
 20
834.8438538924064
 30
0.0
  0
VERTEX
  5
CF
330
CC
100
AcDbEntity
  8
Make2D$可见线$普通线
100
AcDbVertex
100
AcDb2dVertex
 10
173.5712043394344
 20
834.8438941738202
 30
0.0
  0
VERTEX
  5
D0
330
CC
100
AcDbEntity
  8
Make2D$可见线$普通线
100
AcDbVertex
100
AcDb2dVertex
 10
174.1919319351964
 20
834.8342968734563
 30
0.0
  0
VERTEX
  5
D1
330
CC
100
AcDbEntity
  8
Make2D$可见线$普通线
100
AcDbVertex
100
AcDb2dVertex
 10
174.8129628712451
 20
834.8053672821046
 30
0.0
  0
VERTEX
  5
D2
330
CC
100
AcDbEntity
  8
Make2D$可见线$普通线
100
AcDbVertex
100
AcDb2dVertex
 10
175.4333940024358
 20
834.7570771508267
 30
0.0
  0
VERTEX
  5
D3
330
CC
100
AcDbEntity
  8
Make2D$可见线$普通线
100
AcDbVertex
100
AcDb2dVertex
 10
176.052320423162
 20
834.6894545143155
 30
0.0
  0
VERTEX
  5
D4
330
CC
100
AcDbEntity
  8
Make2D$可见线$普通线
100
AcDbVertex
100
AcDb2dVertex
 10
176.6688398528925
 20
834.6025837597058
 30
0.0
  0
VERTEX
  5
D5
330
CC
100
AcDbEntity
  8
Make2D$可见线$普通线
100
AcDbVertex
100
AcDb2dVertex
 10
177.282057015374
 20
834.4966052856297
 30
0.0
  0
VERTEX
  5
D6
330
CC
100
AcDbEntity
  8
Make2D$可见线$普通线
100
AcDbVertex
100
AcDb2dVertex
 10
177.8910879669396
 20
834.3717147542815
 30
0.0
  0
VERTEX
  5
D7
330
CC
100
AcDbEntity
  8
Make2D$可见线$普通线
100
AcDbVertex
100
AcDb2dVertex
 10
178.4950643300532
 20
834.2281619447831
 30
0.0
  0
VERTEX
  5
D8
330
CC
100
AcDbEntity
  8
Make2D$可见线$普通线
100
AcDbVertex
100
AcDb2dVertex
 10
178.8929380379691
 20
834.1226478584322
 30
0.0
  0
VERTEX
  5
D9
330
CC
100
AcDbEntity
  8
Make2D$可见线$普通线
100
AcDbVertex
100
AcDb2dVertex
 10
179.2891480472633
 20
834.0088131313364
 30
0.0
  0
VERTEX
  5
DA
330
CC
100
AcDbEntity
  8
Make2D$可见线$普通线
100
AcDbVertex
100
AcDb2dVertex
 10
179.6834346113235
 20
833.8866958939353
 30
0.0
  0
VERTEX
  5
DB
330
CC
100
AcDbEntity
  8
Make2D$可见线$普通线
100
AcDbVertex
100
AcDb2dVertex
 10
180.0755391134729
 20
833.7563450527906
 30
0.0
  0
VERTEX
  5
DC
330
CC
100
AcDbEntity
  8
Make2D$可见线$普通线
100
AcDbVertex
100
AcDb2dVertex
 10
180.4652046246573
 20
833.6178202495192
 30
0.0
  0
VERTEX
  5
DD
330
CC
100
AcDbEntity
  8
Make2D$可见线$普通线
100
AcDbVertex
100
AcDb2dVertex
 10
180.8521764593049
 20
833.4711917851351
 30
0.0
  0
VERTEX
  5
DE
330
CC
100
AcDbEntity
  8
Make2D$可见线$普通线
100
AcDbVertex
100
AcDb2dVertex
 10
181.2362027268526
 20
833.3165405099048
 30
0.0
  0
VERTEX
  5
DF
330
CC
100
AcDbEntity
  8
Make2D$可见线$普通线
100
AcDbVertex
100
AcDb2dVertex
 10
181.6170348764483
 20
833.1539576790286
 30
0.0
  0
VERTEX
  5
E0
330
CC
100
AcDbEntity
  8
Make2D$可见线$普通线
100
AcDbVertex
100
AcDb2dVertex
 10
181.9944282323639
 20
832.9835447746692
 30
0.0
  0
VERTEX
  5
E1
330
CC
100
AcDbEntity
  8
Make2D$可见线$普通线
100
AcDbVertex
100
AcDb2dVertex
 10
182.3681425176992
 20
832.8054132950443
 30
0.0
  0
VERTEX
  5
E2
330
CC
100
AcDbEntity
  8
Make2D$可见线$普通线
100
AcDbVertex
100
AcDb2dVertex
 10
182.7379423640287
 20
832.619684511511
 30
0.0
  0
VERTEX
  5
E3
330
CC
100
AcDbEntity
  8
Make2D$可见线$普通线
100
AcDbVertex
100
AcDb2dVertex
 10
183.1035978047177
 20
832.4264891947391
 30
0.0
  0
VERTEX
  5
E4
330
CC
100
AcDbEntity
  8
Make2D$可见线$普通线
100
AcDbVertex
100
AcDb2dVertex
 10
183.4648847497445
 20
832.2259673112796
 30
0.0
  0
VERTEX
  5
E5
330
CC
100
AcDbEntity
  8
Make2D$可见线$普通线
100
AcDbVertex
100
AcDb2dVertex
 10
183.8215854399776
 20
832.0182676919824
 30
0.0
  0
VERTEX
  5
E6
330
CC
100
AcDbEntity
  8
Make2D$可见线$普通线
100
AcDbVertex
100
AcDb2dVertex
 10
184.1734888789893
 20
831.8035476738902
 30
0.0
  0
VERTEX
  5
E7
330
CC
100
AcDbEntity
  8
Make2D$可见线$普通线
100
AcDbVertex
100
AcDb2dVertex
 10
184.520391240637
 20
831.58197271738
 30
0.0
  0
VERTEX
  5
E8
330
CC
100
AcDbEntity
  8
Make2D$可见线$普通线
100
AcDbVertex
100
AcDb2dVertex
 10
185.0939141659129
 20
831.1919043304246
 30
0.0
  0
VERTEX
  5
E9
330
CC
100
AcDbEntity
  8
Make2D$可见线$普通线
100
AcDbVertex
100
AcDb2dVertex
 10
185.6559622401037
 20
830.7804262992702
 30
0.0
  0
VERTEX
  5
EA
330
CC
100
AcDbEntity
  8
Make2D$可见线$普通线
100
AcDbVertex
100
AcDb2dVertex
 10
186.2053602545829
 20
830.3480413099765
 30
0.0
  0
VERTEX
  5
EB
330
CC
100
AcDbEntity
  8
Make2D$可见线$普通线
100
AcDbVertex
100
AcDb2dVertex
 10
186.4749560753208
 20
830.1241890497481
 30
0.0
  0
VERTEX
  5
EC
330
CC
100
AcDbEntity
  8
Make2D$可见线$普通线
100
AcDbVertex
100
AcDb2dVertex
 10
186.7409624302816
 20
829.8953368943357
 30
0.0
  0
VERTEX
  5
ED
330
CC
100
AcDbEntity
  8
Make2D$可见线$普通线
100
AcDbVertex
100
AcDb2dVertex
 10
187.0032419402557
 20
829.6615711829721
 30
0.0
  0
VERTEX
  5
EE
330
CC
100
AcDbEntity
  8
Make2D$可见线$普通线
100
AcDbVertex
100
AcDb2dVertex
 10
187.261660003266
 20
829.4229832395795
 30
0.0
  0
VERTEX
  5
EF
330
CC
100
AcDbEntity
  8
Make2D$可见线$普通线
100
AcDbVertex
100
AcDb2dVertex
 10
187.5160850189429
 20
829.1796692603918
 30
0.0
  0
VERTEX
  5
F0
330
CC
100
AcDbEntity
  8
Make2D$可见线$普通线
100
AcDbVertex
100
AcDb2dVertex
 10
187.7663886073866
 20
828.93173018953
 30
0.0
  0
VERTEX
  5
F1
330
CC
100
AcDbEntity
  8
Make2D$可见线$普通线
100
AcDbVertex
100
AcDb2dVertex
 10
188.0124458217669
 20
828.6792715828522
 30
0.0
  0
VERTEX
  5
F2
330
CC
100
AcDbEntity
  8
Make2D$可见线$普通线
100
AcDbVertex
100
AcDb2dVertex
 10
188.2541353539308
 20
828.4224034604483
 30
0.0
  0
VERTEX
  5
F3
330
CC
100
AcDbEntity
  8
Make2D$可见线$普通线
100
AcDbVertex
100
AcDb2dVertex
 10
188.491339732314
 20
828.1612401482066
 30
0.0
  0
VERTEX
  5
F4
330
CC
100
AcDbEntity
  8
Make2D$可见线$普通线
100
AcDbVertex
100
AcDb2dVertex
 10
188.723945511484
 20
827.8959001089258
 30
0.0
  0
VERTEX
  5
F5
330
CC
100
AcDbEntity
  8
Make2D$可见线$普通线
100
AcDbVertex
100
AcDb2dVertex
 10
188.9518434526739
 20
827.6265057634951
 30
0.0
  0
VERTEX
  5
F6
330
CC
100
AcDbEntity
  8
Make2D$可见线$普通线
100
AcDbVertex
100
AcDb2dVertex
 10
189.174928694705
 20
827.3531833027033
 30
0.0
  0
VERTEX
  5
F7
330
CC
100
AcDbEntity
  8
Make2D$可见线$普通线
100
AcDbVertex
100
AcDb2dVertex
 10
189.3931009147373
 20
827.0760624902928
 30
0.0
  0
VERTEX
  5
F8
330
CC
100
AcDbEntity
  8
Make2D$可见线$普通线
100
AcDbVertex
100
AcDb2dVertex
 10
189.606264478331
 20
826.7952764578939
 30
0.0
  0
VERTEX
  5
F9
330
CC
100
AcDbEntity
  8
Make2D$可见线$普通线
100
AcDbVertex
100
AcDb2dVertex
 10
189.8143285783472
 20
826.5109614925262
 30
0.0
  0
VERTEX
  5
FA
330
CC
100
AcDbEntity
  8
Make2D$可见线$普通线
100
AcDbVertex
100
AcDb2dVertex
 10
190.0172073622686
 20
826.2232568173731
 30
0.0
  0
VERTEX
  5
FB
330
CC
100
AcDbEntity
  8
Make2D$可见线$普通线
100
AcDbVertex
100
AcDb2dVertex
 10
190.2148200475718
 20
825.9323043665679
 30
0.0
  0
VERTEX
  5
FC
330
CC
100
AcDbEntity
  8
Make2D$可见线$普通线
100
AcDbVertex
100
AcDb2dVertex
 10
190.4070910248325
 20
825.6382485547484
 30
0.0
  0
VERTEX
  5
FD
330
CC
100
AcDbEntity
  8
Make2D$可见线$普通线
100
AcDbVertex
100
AcDb2dVertex
 10
190.5939499483058
 20
825.3412360421588
 30
0.0
  0
VERTEX
  5
FE
330
CC
100
AcDbEntity
  8
Make2D$可见线$普通线
100
AcDbVertex
100
AcDb2dVertex
 10
190.7753318137757
 20
825.041415496086
 30
0.0
  0
VERTEX
  5
FF
330
CC
100
AcDbEntity
  8
Make2D$可见线$普通线
100
AcDbVertex
100
AcDb2dVertex
 10
191.1214314383304
 20
824.433953557226
 30
0.0
  0
VERTEX
  5
100
330
CC
100
AcDbEntity
  8
Make2D$可见线$普通线
100
AcDbVertex
100
AcDb2dVertex
 10
191.4449788396857
 20
823.8170829979512
 30
0.0
  0
VERTEX
  5
101
330
CC
100
AcDbEntity
  8
Make2D$可见线$普通线
100
AcDbVertex
100
AcDb2dVertex
 10
191.745651231754
 20
823.1920405954157
 30
0.0
  0
VERTEX
  5
102
330
CC
100
AcDbEntity
  8
Make2D$可见线$普通线
100
AcDbVertex
100
AcDb2dVertex
 10
191.9354987614057
 20
822.7654163701094
 30
0.0
  0
VERTEX
  5
103
330
CC
100
AcDbEntity
  8
Make2D$可见线$普通线
100
AcDbVertex
100
AcDb2dVertex
 10
192.1156881575455
 20
822.3336525953022
 30
0.0
  0
VERTEX
  5
104
330
CC
100
AcDbEntity
  8
Make2D$可见线$普通线
100
AcDbVertex
100
AcDb2dVertex
 10
192.2860190594309
 20
821.8970777722229
 30
0.0
  0
VERTEX
  5
105
330
CC
100
AcDbEntity
  8
Make2D$可见线$普通线
100
AcDbVertex
100
AcDb2dVertex
 10
192.4463060624491
 20
821.4560305165509
 30
0.0
  0
VERTEX
  5
106
330
CC
100
AcDbEntity
  8
Make2D$可见线$普通线
100
AcDbVertex
100
AcDb2dVertex
 10
192.5963793421869
 20
821.0108587022012
 30
0.0
  0
VERTEX
  5
107
330
CC
100
AcDbEntity
  8
Make2D$可见线$普通线
100
AcDbVertex
100
AcDb2dVertex
 10
192.7360852192357
 20
820.5619185597476
 30
0.0
  0
VERTEX
  5
108
330
CC
100
AcDbEntity
  8
Make2D$可见线$普通线
100
AcDbVertex
100
AcDb2dVertex
 10
192.8652866609437
 20
820.1095737343045
 30
0.0
  0
VERTEX
  5
109
330
CC
100
AcDbEntity
  8
Make2D$可见线$普通线
100
AcDbVertex
100
AcDb2dVertex
 10
192.9838637167875
 20
819.6541943080576
 30
0.0
  0
VERTEX
  5
10A
330
CC
100
AcDbEntity
  8
Make2D$可见线$普通线
100
AcDbVertex
100
AcDb2dVertex
 10
193.0917138845153
 20
819.1961557929277
 30
0.0
  0
VERTEX
  5
10B
330
CC
100
AcDbEntity
  8
Make2D$可见线$普通线
100
AcDbVertex
100
AcDb2dVertex
 10
193.1887524047473
 20
818.7358380991166
 30
0.0
  0
VERTEX
  5
10C
330
CC
100
AcDbEntity
  8
Make2D$可见线$普通线
100
AcDbVertex
100
AcDb2dVertex
 10
193.2749124822556
 20
818.273624485479
 30
0.0
  0
VERTEX
  5
10D
330
CC
100
AcDbEntity
  8
Make2D$可见线$普通线
100
AcDbVertex
100
AcDb2dVertex
 10
193.3501454327178
 20
817.8099004978018
 30
0.0
  0
VERTEX
  5
10E
330
CC
100
AcDbEntity
  8
Make2D$可见线$普通线
100
AcDbVertex
100
AcDb2dVertex
 10
193.4144207543116
 20
817.3450529011567
 30
0.0
  0
VERTEX
  5
10F
330
CC
100
AcDbEntity
  8
Make2D$可见线$普通线
100
AcDbVertex
100
AcDb2dVertex
 10
193.4677261240986
 20
816.879468612509
 30
0.0
  0
VERTEX
  5
110
330
CC
100
AcDbEntity
  8
Make2D$可见线$普通线
100
AcDbVertex
100
AcDb2dVertex
 10
193.5100673197229
 20
816.4135336397176
 30
0.0
  0
VERTEX
  5
111
330
CC
100
AcDbEntity
  8
Make2D$可见线$普通线
100
AcDbVertex
100
AcDb2dVertex
 10
193.5414680675173
 20
815.9476320329688
 30
0.0
  0
VERTEX
  5
112
330
CC
100
AcDbEntity
  8
Make2D$可见线$普通线
100
AcDbVertex
100
AcDb2dVertex
 10
193.5653693844077
 20
815.345764305411
 30
0.0
  0
VERTEX
  5
113
330
CC
100
AcDbEntity
  8
Make2D$可见线$普通线
100
AcDbVertex
100
AcDb2dVertex
 10
193.5711557490512
 20
814.7415132187958
 30
0.0
  0
VERTEX
  5
114
330
CC
100
AcDbEntity
  8
Make2D$可见线$普通线
100
AcDbVertex
100
AcDb2dVertex
 10
193.5586562316241
 20
814.1356934223567
 30
0.0
  0
VERTEX
  5
115
330
CC
100
AcDbEntity
  8
Make2D$可见线$普通线
100
AcDbVertex
100
AcDb2dVertex
 10
193.5277487148253
 20
813.5291329519227
 30
0.0
  0
VERTEX
  5
116
330
CC
100
AcDbEntity
  8
Make2D$可见线$普通线
100
AcDbVertex
100
AcDb2dVertex
 10
193.4783610806106
 20
812.922669567096
 30
0.0
  0
VERTEX
  5
117
330
CC
100
AcDbEntity
  8
Make2D$可见线$普通线
100
AcDbVertex
100
AcDb2dVertex
 10
193.4104720658308
 20
812.3171469699013
 30
0.0
  0
VERTEX
  5
118
330
CC
100
AcDbEntity
  8
Make2D$可见线$普通线
100
AcDbVertex
100
AcDb2dVertex
 10
193.3241117736033
 20
811.7134109400055
 30
0.0
  0
VERTEX
  5
119
330
CC
100
AcDbEntity
  8
Make2D$可见线$普通线
100
AcDbVertex
100
AcDb2dVertex
 10
193.2193618315241
 20
811.112305423209
 30
0.0
  0
VERTEX
  5
11A
330
CC
100
AcDbEntity
  8
Make2D$可见线$普通线
100
AcDbVertex
100
AcDb2dVertex
 10
193.0963551923102
 20
810.5146686109243
 30
0.0
  0
VERTEX
  5
11B
330
CC
100
AcDbEntity
  8
Make2D$可见线$普通线
100
AcDbVertex
100
AcDb2dVertex
 10
192.9552755770749
 20
809.9213290487568
 30
0.0
  0
VERTEX
  5
11C
330
CC
100
AcDbEntity
  8
Make2D$可见线$普通线
100
AcDbVertex
100
AcDb2dVertex
 10
192.7963565660692
 20
809.333101812068
 30
0.0
  0
VERTEX
  5
11D
330
CC
100
AcDbEntity
  8
Make2D$可见线$普通线
100
AcDbVertex
100
AcDb2dVertex
 10
192.6198803462822
 20
808.750784785528
 30
0.0
  0
VERTEX
  5
11E
330
CC
100
AcDbEntity
  8
Make2D$可见线$普通线
100
AcDbVertex
100
AcDb2dVertex
 10
192.4261761296963
 20
808.1751550821905
 30
0.0
  0
VERTEX
  5
11F
330
CC
100
AcDbEntity
  8
Make2D$可见线$普通线
100
AcDbVertex
100
AcDb2dVertex
 10
192.2156182601271
 20
807.6069656355658
 30
0.0
  0
VERTEX
  5
120
330
CC
100
AcDbEntity
  8
Make2D$可见线$普通线
100
AcDbVertex
100
AcDb2dVertex
 10
191.9886240303851
 20
807.0469419955688
 30
0.0
  0
VERTEX
  5
121
330
CC
100
AcDbEntity
  8
Make2D$可见线$普通线
100
AcDbVertex
100
AcDb2dVertex
 10
191.7456512348836
 20
806.4957793561684
 30
0.0
  0
VERTEX
  5
122
330
CC
100
AcDbEntity
  8
Make2D$可见线$普通线
100
AcDbVertex
100
AcDb2dVertex
 10
191.4652248938413
 20
805.91103460782
 30
0.0
  0
VERTEX
  5
123
330
CC
100
AcDbEntity
  8
Make2D$可见线$普通线
100
AcDbVertex
100
AcDb2dVertex
 10
191.1648686882082
 20
805.3335401357508
 30
0.0
  0
VERTEX
  5
124
330
CC
100
AcDbEntity
  8
Make2D$可见线$普通线
100
AcDbVertex
100
AcDb2dVertex
 10
190.8448574340437
 20
804.7643008803005
 30
0.0
  0
VERTEX
  5
125
330
CC
100
AcDbEntity
  8
Make2D$可见线$普通线
100
AcDbVertex
100
AcDb2dVertex
 10
190.5055328913402
 20
804.2043081201637
 30
0.0
  0
VERTEX
  5
126
330
CC
100
AcDbEntity
  8
Make2D$可见线$普通线
100
AcDbVertex
100
AcDb2dVertex
 10
190.1473029148369
 20
803.6545339309744
 30
0.0
  0
VERTEX
  5
127
330
CC
100
AcDbEntity
  8
Make2D$可见线$普通线
100
AcDbVertex
100
AcDb2dVertex
 10
189.7706400563925
 20
803.1159257095807
 30
0.0
  0
VERTEX
  5
128
330
CC
100
AcDbEntity
  8
Make2D$可见线$普通线
100
AcDbVertex
100
AcDb2dVertex
 10
189.3760796254293
 20
802.5894008271961
 30
0.0
  0
VERTEX
  5
129
330
CC
100
AcDbEntity
  8
Make2D$可见线$普通线
100
AcDbVertex
100
AcDb2dVertex
 10
188.9642172222766
 20
802.0758414737584
 30
0.0
  0
VERTEX
  5
12A
330
CC
100
AcDbEntity
  8
Make2D$可见线$普通线
100
AcDbVertex
100
AcDb2dVertex
 10
188.5357057673895
 20
801.5760897537361
 30
0.0
  0
VERTEX
  5
12B
330
CC
100
AcDbEntity
  8
Make2D$可见线$普通线
100
AcDbVertex
100
AcDb2dVertex
 10
188.091252057239
 20
801.0909430903597
 30
0.0
  0
VERTEX
  5
12C
330
CC
100
AcDbEntity
  8
Make2D$可见线$普通线
100
AcDbVertex
100
AcDb2dVertex
 10
187.6316128849327
 20
800.6211499908296
 30
0.0
  0
VERTEX
  5
12D
330
CC
100
AcDbEntity
  8
Make2D$可见线$普通线
100
AcDbVertex
100
AcDb2dVertex
 10
187.1575907701841
 20
800.16740621964
 30
0.0
  0
VERTEX
  5
12E
330
CC
100
AcDbEntity
  8
Make2D$可见线$普通线
100
AcDbVertex
100
AcDb2dVertex
 10
186.6700293489189
 20
799.7303514208096
 30
0.0
  0
VERTEX
  5
12F
330
CC
100
AcDbEntity
  8
Make2D$可见线$普通线
100
AcDbVertex
100
AcDb2dVertex
 10
186.1698084774726
 20
799.3105662227534
 30
0.0
  0
VERTEX
  5
130
330
CC
100
AcDbEntity
  8
Make2D$可见线$普通线
100
AcDbVertex
100
AcDb2dVertex
 10
185.657839109891
 20
798.9085698518858
 30
0.0
  0
VERTEX
  5
131
330
CC
100
AcDbEntity
  8
Make2D$可见线$普通线
100
AcDbVertex
100
AcDb2dVertex
 10
185.1350580092235
 20
798.5248182730536
 30
0.0
  0
VERTEX
  5
132
330
CC
100
AcDbEntity
  8
Make2D$可见线$普通线
100
AcDbVertex
100
AcDb2dVertex
 10
184.831762606273
 20
798.314285216954
 30
0.0
  0
VERTEX
  5
133
330
CC
100
AcDbEntity
  8
Make2D$可见线$普通线
100
AcDbVertex
100
AcDb2dVertex
 10
184.5242709673918
 20
798.109133696318
 30
0.0
  0
VERTEX
  5
134
330
CC
100
AcDbEntity
  8
Make2D$可见线$普通线
100
AcDbVertex
100
AcDb2dVertex
 10
184.212726825918
 20
797.9094868835889
 30
0.0
  0
VERTEX
  5
135
330
CC
100
AcDbEntity
  8
Make2D$可见线$普通线
100
AcDbVertex
100
AcDb2dVertex
 10
183.8972786660159
 20
797.715462805547
 30
0.0
  0
VERTEX
  5
136
330
CC
100
AcDbEntity
  8
Make2D$可见线$普通线
100
AcDbVertex
100
AcDb2dVertex
 10
183.5780794908192
 20
797.527174117004
 30
0.0
  0
VERTEX
  5
137
330
CC
100
AcDbEntity
  8
Make2D$可见线$普通线
100
AcDbVertex
100
AcDb2dVertex
 10
183.2552865777733
 20
797.3447278871384
 30
0.0
  0
VERTEX
  5
138
330
CC
100
AcDbEntity
  8
Make2D$可见线$普通线
100
AcDbVertex
100
AcDb2dVertex
 10
182.9290612219866
 20
797.168225399304
 30
0.0
  0
VERTEX
  5
139
330
CC
100
AcDbEntity
  8
Make2D$可见线$普通线
100
AcDbVertex
100
AcDb2dVertex
 10
182.5995684684635
 20
796.997761965095
 30
0.0
  0
VERTEX
  5
13A
330
CC
100
AcDbEntity
  8
Make2D$可见线$普通线
100
AcDbVertex
100
AcDb2dVertex
 10
182.2669768341504
 20
796.8334267533737
 30
0.0
  0
VERTEX
  5
13B
330
CC
100
AcDbEntity
  8
Make2D$可见线$普通线
100
AcDbVertex
100
AcDb2dVertex
 10
181.9314580207755
 20
796.6753026349054
 30
0.0
  0
VERTEX
  5
13C
330
CC
100
AcDbEntity
  8
Make2D$可见线$普通线
100
AcDbVertex
100
AcDb2dVertex
 10
181.5931866195091
 20
796.5234660431692
 30
0.0
  0
VERTEX
  5
13D
330
CC
100
AcDbEntity
  8
Make2D$可见线$普通线
100
AcDbVertex
100
AcDb2dVertex
 10
181.2523398085112
 20
796.3779868518319
 30
0.0
  0
VERTEX
  5
13E
330
CC
100
AcDbEntity
  8
Make2D$可见线$普通线
100
AcDbVertex
100
AcDb2dVertex
 10
180.9090970444649
 20
796.2389282693007
 30
0.0
  0
VERTEX
  5
13F
330
CC
100
AcDbEntity
  8
Make2D$可见线$普通线
100
AcDbVertex
100
AcDb2dVertex
 10
180.5636397492198
 20
796.1063467506737
 30
0.0
  0
VERTEX
  5
140
330
CC
100
AcDbEntity
  8
Make2D$可见线$普通线
100
AcDbVertex
100
AcDb2dVertex
 10
180.2161509926891
 20
795.9802919273396
 30
0.0
  0
VERTEX
  5
141
330
CC
100
AcDbEntity
  8
Make2D$可见线$普通线
100
AcDbVertex
100
AcDb2dVertex
 10
179.8668151731547
 20
795.8608065543776
 30
0.0
  0
VERTEX
  5
142
330
CC
100
AcDbEntity
  8
Make2D$可见线$普通线
100
AcDbVertex
100
AcDb2dVertex
 10
179.39664372512
 20
795.7111827671156
 30
0.0
  0
VERTEX
  5
143
330
CC
100
AcDbEntity
  8
Make2D$可见线$普通线
100
AcDbVertex
100
AcDb2dVertex
 10
178.9224813754853
 20
795.5731027468204
 30
0.0
  0
VERTEX
  5
144
330
CC
100
AcDbEntity
  8
Make2D$可见线$普通线
100
AcDbVertex
100
AcDb2dVertex
 10
178.4447550011858
 20
795.4467200154304
 30
0.0
  0
VERTEX
  5
145
330
CC
100
AcDbEntity
  8
Make2D$可见线$普通线
100
AcDbVertex
100
AcDb2dVertex
 10
177.9638990823118
 20
795.3321669538565
 30
0.0
  0
VERTEX
  5
146
330
CC
100
AcDbEntity
  8
Make2D$可见线$普通线
100
AcDbVertex
100
AcDb2dVertex
 10
177.480354387724
 20
795.2295543475735
 30
0.0
  0
VERTEX
  5
147
330
CC
100
AcDbEntity
  8
Make2D$可见线$普通线
100
AcDbVertex
100
AcDb2dVertex
 10
176.9945666293493
 20
795.1389710306315
 30
0.0
  0
VERTEX
  5
148
330
CC
100
AcDbEntity
  8
Make2D$可见线$普通线
100
AcDbVertex
100
AcDb2dVertex
 10
176.5069850937754
 20
795.0604836304759
 30
0.0
  0
VERTEX
  5
149
330
CC
100
AcDbEntity
  8
Make2D$可见线$普通线
100
AcDbVertex
100
AcDb2dVertex
 10
176.0180612599574
 20
794.9941364151127
 30
0.0
  0
VERTEX
  5
14A
330
CC
100
AcDbEntity
  8
Make2D$可见线$普通线
100
AcDbVertex
100
AcDb2dVertex
 10
124.8792729342559
 20
788.6902765242454
 30
0.0
 42
-0.0135444499624831
  0
VERTEX
  5
14B
330
CC
100
AcDbEntity
  8
Make2D$可见线$普通线
100
AcDbVertex
100
AcDb2dVertex
 10
119.4870497306206
 20
788.1734260230584
 30
0.0
  0
SEQEND
  5
14C
330
CC
100
AcDbEntity
  8
Make2D$可见线$普通线
  0
ARC
  5
14D
330
1F
100
AcDbEntity
  8
Make2D$可见线$普通线
100
AcDbCircle
 10
119.4835523942561
 20
788.6045719465861
 30
0.0
 40
0.4311601080064784
100
AcDbArc
 50
176.8297875053356
 51
270.4647573069822
  0
ARC
  5
14E
330
1F
100
AcDbEntity
  8
Make2D$可见线$普通线
100
AcDbCircle
 10
78.0868104223762
 20
788.6042610494203
 30
0.0
 40
0.4309051996191767
100
AcDbArc
 50
269.6083443492168
 51
3.212625853145572
  0
POLYLINE
  5
14F
330
1F
100
AcDbEntity
  8
Make2D$可见线$普通线
100
AcDb2dPolyline
 66
     1
 10
0.0
 20
0.0
 30
0.0
  0
VERTEX
  5
150
330
14F
100
AcDbEntity
  8
Make2D$可见线$普通线
100
AcDbVertex
100
AcDb2dVertex
 10
78.08386491498442
 20
788.1733659171142
 30
0.0
 42
-0.0135554387950919
  0
VERTEX
  5
151
330
14F
100
AcDbEntity
  8
Make2D$可见线$普通线
100
AcDbVertex
100
AcDb2dVertex
 10
72.69111941429935
 20
788.6902765376126
 30
0.0
  0
VERTEX
  5
152
330
14F
100
AcDbEntity
  8
Make2D$可见线$普通线
100
AcDbVertex
100
AcDb2dVertex
 10
22.58475924281663
 20
794.8669240981553
 30
0.0
  0
SEQEND
  5
153
330
14F
100
AcDbEntity
  8
Make2D$可见线$普通线
  0
POLYLINE
  5
154
330
1F
100
AcDbEntity
  8
Make2D$可见线$普通线
100
AcDb2dPolyline
 66
     1
 10
0.0
 20
0.0
 30
0.0
  0
VERTEX
  5
155
330
154
100
AcDbEntity
  8
Make2D$可见线$普通线
100
AcDbVertex
100
AcDb2dVertex
 10
22.54913939910278
 20
794.8700245686236
 30
0.0
 42
-0.9747988000899929
  0
VERTEX
  5
156
330
154
100
AcDbEntity
  8
Make2D$可见线$普通线
100
AcDbVertex
100
AcDb2dVertex
 10
23.57120460491728
 20
834.8438971654211
 30
0.0
  0
VERTEX
  5
157
330
154
100
AcDbEntity
  8
Make2D$可见线$普通线
100
AcDbVertex
100
AcDb2dVertex
 10
67.3281992413564
 20
834.8438539029042
 30
0.0
 42
0.2574542957310718
  0
VERTEX
  5
158
330
154
100
AcDbEntity
  8
Make2D$可见线$普通线
100
AcDbVertex
100
AcDb2dVertex
 10
75.78423145524228
 20
839.5063726549256
 30
0.0
  0
SEQEND
  5
159
330
154
100
AcDbEntity
  8
Make2D$可见线$普通线
  0
LINE
  5
15A
330
1F
100
AcDbEntity
  8
Make2D$可见线$普通线
100
AcDbLine
 10
76.31194375800733
 20
775.4722822870069
 30
0.0
 11
88.13020580588682
 21
775.4722822870069
 31
0.0
  0
LINE
  5
15B
330
1F
100
AcDbEntity
  8
Make2D$可见线$普通线
100
AcDbLine
 10
108.5063369122279
 20
775.4722822870069
 30
0.0
 11
121.2811931927152
 21
775.4722822870069
 31
0.0
  0
POLYLINE
  5
15C
330
1F
100
AcDbEntity
  8
Make2D$可见线$普通线
100
AcDb2dPolyline
 66
     1
 10
0.0
 20
0.0
 30
0.0
  0
VERTEX
  5
15D
330
15C
100
AcDbEntity
  8
Make2D$可见线$普通线
100
AcDbVertex
100
AcDb2dVertex
 10
75.86353115262176
 20
873.9173471936124
 30
0.0
  0
VERTEX
  5
15E
330
15C
100
AcDbEntity
  8
Make2D$可见线$普通线
100
AcDbVertex
100
AcDb2dVertex
 10
75.8636233984919
 20
893.9173471936123
 30
0.0
 42
0.0175760795127849
  0
VERTEX
  5
15F
330
15C
100
AcDbEntity
  8
Make2D$可见线$普通线
100
AcDbVertex
100
AcDb2dVertex
 10
75.8400509667158
 20
894.6247428731386
 30
0.0
 42
0.0775971845132074
  0
VERTEX
  5
160
330
15C
100
AcDbEntity
  8
Make2D$可见线$普通线
100
AcDbVertex
100
AcDb2dVertex
 10
75.79868081972184
 20
894.9173471936125
 30
0.0
  0
VERTEX
  5
161
330
15C
100
AcDbEntity
  8
Make2D$可见线$普通线
100
AcDbVertex
100
AcDb2dVertex
 10
75.78262490811923
 20
894.9173471936124
 30
0.0
  0
SEQEND
  5
162
330
15C
100
AcDbEntity
  8
Make2D$可见线$普通线
  0
POLYLINE
  5
163
330
1F
100
AcDbEntity
  8
Make2D$可见线$普通线
100
AcDb2dPolyline
 66
     1
 10
0.0
 20
0.0
 30
0.0
  0
VERTEX
  5
164
330
163
100
AcDbEntity
  8
Make2D$可见线$普通线
100
AcDbVertex
100
AcDb2dVertex
 10
75.78271833789634
 20
872.9173471936124
 30
0.0
  0
VERTEX
  5
165
330
163
100
AcDbEntity
  8
Make2D$可见线$普通线
100
AcDbVertex
100
AcDb2dVertex
 10
75.77723178707937
 20
872.9173471936123
 30
0.0
  0
VERTEX
  5
166
330
163
100
AcDbEntity
  8
Make2D$可见线$普通线
100
AcDbVertex
100
AcDb2dVertex
 10
75.79857896195605
 20
872.9173471936124
 30
0.0
 42
0.077596596341819
  0
VERTEX
  5
167
330
163
100
AcDbEntity
  8
Make2D$可见线$普通线
100
AcDbVertex
100
AcDb2dVertex
 10
75.83995184362321
 20
873.2099515385755
 30
0.0
  0
VERTEX
  5
168
330
163
100
AcDbEntity
  8
Make2D$可见线$普通线
100
AcDbVertex
100
AcDb2dVertex
 10
75.86353115262176
 20
873.9173471936123
 30
0.0
  0
SEQEND
  5
169
330
163
100
AcDbEntity
  8
Make2D$可见线$普通线
  0
POLYLINE
  5
16A
330
1F
100
AcDbEntity
  8
Make2D$可见线$普通线
100
AcDb2dPolyline
 66
     1
 10
0.0
 20
0.0
 30
0.0
  0
VERTEX
  5
16B
330
16A
100
AcDbEntity
  8
Make2D$可见线$普通线
100
AcDbVertex
100
AcDb2dVertex
 10
121.7090914366692
 20
873.9173471936124
 30
0.0
 42
0.0175760250100607
  0
VERTEX
  5
16C
330
16A
100
AcDbEntity
  8
Make2D$可见线$普通线
100
AcDbVertex
100
AcDb2dVertex
 10
121.7326707456677
 20
873.2099515385756
 30
0.0
 42
0.0775965963413865
  0
VERTEX
  5
16D
330
16A
100
AcDbEntity
  8
Make2D$可见线$普通线
100
AcDbVertex
100
AcDb2dVertex
 10
121.7740436273349
 20
872.9173471936124
 30
0.0
  0
VERTEX
  5
16E
330
16A
100
AcDbEntity
  8
Make2D$可见线$普通线
100
AcDbVertex
100
AcDb2dVertex
 10
121.7900994676687
 20
872.9173471936122
 30
0.0
  0
SEQEND
  5
16F
330
16A
100
AcDbEntity
  8
Make2D$可见线$普通线
  0
POLYLINE
  5
170
330
1F
100
AcDbEntity
  8
Make2D$可见线$普通线
100
AcDb2dPolyline
 66
     1
 10
0.0
 20
0.0
 30
0.0
  0
VERTEX
  5
171
330
170
100
AcDbEntity
  8
Make2D$可见线$普通线
100
AcDbVertex
100
AcDb2dVertex
 10
121.789802464043
 20
894.9173471936123
 30
0.0
  0
VERTEX
  5
172
330
170
100
AcDbEntity
  8
Make2D$可见线$普通线
100
AcDbVertex
100
AcDb2dVertex
 10
121.795289038947
 20
894.9173471936123
 30
0.0
  0
VERTEX
  5
173
330
170
100
AcDbEntity
  8
Make2D$可见线$普通线
100
AcDbVertex
100
AcDb2dVertex
 10
121.7739417695691
 20
894.9173471936123
 30
0.0
 42
0.0775971845133237
  0
VERTEX
  5
174
330
170
100
AcDbEntity
  8
Make2D$可见线$普通线
100
AcDbVertex
100
AcDb2dVertex
 10
121.7325716225751
 20
894.6247428731386
 30
0.0
 42
0.0175760795127209
  0
VERTEX
  5
175
330
170
100
AcDbEntity
  8
Make2D$可见线$普通线
100
AcDbVertex
100
AcDb2dVertex
 10
121.7089991907991
 20
893.9173471936124
 30
0.0
  0
VERTEX
  5
176
330
170
100
AcDbEntity
  8
Make2D$可见线$普通线
100
AcDbVertex
100
AcDb2dVertex
 10
121.7090914366692
 20
873.9173471936124
 30
0.0
  0
SEQEND
  5
177
330
170
100
AcDbEntity
  8
Make2D$可见线$普通线
  0
LINE
  5
178
330
1F
100
AcDbEntity
  8
Make2D$可见线$普通线
100
AcDbLine
 10
75.78288442856444
 20
868.4140587309006
 30
0.0
 11
121.7897381607265
 21
868.4140587309006
 31
0.0
  0
ARC
  5
179
330
1F
100
AcDbEntity
  8
Make2D$可见线$普通线
100
AcDbCircle
 10
99.28631129464543
 20
886.302792370513
 30
0.0
 40
2.000000000000057
100
AcDbArc
 50
0.0
 51
90.0
  0
LINE
  5
17A
330
1F
100
AcDbEntity
  8
Make2D$可见线$普通线
100
AcDbLine
 10
99.28631129464543
 20
888.302792370513
 30
0.0
 11
98.28631129464549
 21
888.302792370513
 31
0.0
  0
ARC
  5
17B
330
1F
100
AcDbEntity
  8
Make2D$可见线$普通线
100
AcDbCircle
 10
98.28631129464532
 20
886.3027923705131
 30
0.0
 40
1.999999999999886
100
AcDbArc
 50
89.99999999999511
 51
180.0
  0
LINE
  5
17C
330
1F
100
AcDbEntity
  8
Make2D$可见线$普通线
100
AcDbLine
 10
96.28631129464549
 20
886.302792370513
 30
0.0
 11
96.28631129464549
 21
880.302792370513
 31
0.0
  0
ARC
  5
17D
330
1F
100
AcDbEntity
  8
Make2D$可见线$普通线
100
AcDbCircle
 10
98.2863112946452
 20
880.3027923705127
 30
0.0
 40
1.999999999999716
100
AcDbArc
 50
179.9999999999935
 51
270.0000000000081
  0
LINE
  5
17E
330
1F
100
AcDbEntity
  8
Make2D$可见线$普通线
100
AcDbLine
 10
98.28631129464549
 20
878.3027923705131
 30
0.0
 11
99.28631129464549
 21
878.3027923705131
 31
0.0
  0
ARC
  5
17F
330
1F
100
AcDbEntity
  8
Make2D$可见线$普通线
100
AcDbCircle
 10
99.28631129464594
 20
880.3027923705127
 30
0.0
 40
1.999999999999659
100
AcDbArc
 50
269.999999999987
 51
0.0000000000065138
  0
LINE
  5
180
330
1F
100
AcDbEntity
  8
Make2D$可见线$普通线
100
AcDbLine
 10
101.2863112946455
 20
880.302792370513
 30
0.0
 11
101.2863112946455
 21
886.302792370513
 31
0.0
  0
LINE
  5
181
330
1F
100
AcDbEntity
  8
Make2D$可见线$普通线
100
AcDbLine
 10
0.0064342518682619
 20
785.177530648264
 30
0.0
 11
48.00052160451384
 21
785.177530648264
 31
0.0
  0
LINE
  5
182
330
1F
100
AcDbEntity
  8
Make2D$可见线$普通线
100
AcDbLine
 10
48.00052160451384
 20
745.677530648264
 30
0.0
 11
48.00052160451384
 21
785.177530648264
 31
0.0
  0
LINE
  5
183
330
1F
100
AcDbEntity
  8
Make2D$可见线$普通线
100
AcDbLine
 10
23.78631129464549
 20
743.677530648264
 30
0.0
 11
43.78631129464549
 21
743.677530648264
 31
0.0
  0
LINE
  5
184
330
1F
100
AcDbEntity
  8
Make2D$可见线$普通线
100
AcDbLine
 10
3.786311294645486
 20
743.677530648264
 30
0.0
 11
23.78631129464549
 21
743.677530648264
 31
0.0
  0
LINE
  5
185
330
1F
100
AcDbEntity
  8
Make2D$可见线$普通线
100
AcDbLine
 10
47.43399933909457
 20
745.1775306482639
 30
0.0
 11
47.39533065081046
 21
745.1775306482639
 31
0.0
  0
LINE
  5
186
330
1F
100
AcDbEntity
  8
Make2D$可见线$普通线
100
AcDbLine
 10
47.38226563887444
 20
745.177530648264
 30
0.0
 11
47.33186120558101
 21
745.177530648264
 31
0.0
  0
LINE
  5
187
330
1F
100
AcDbEntity
  8
Make2D$可见线$普通线
100
AcDbLine
 10
47.25383282896313
 20
745.1775306482639
 30
0.0
 11
47.23562111746556
 21
745.1775306482639
 31
0.0
  0
LINE
  5
188
330
1F
100
AcDbEntity
  8
Make2D$可见线$普通线
100
AcDbLine
 10
47.16140039662334
 20
745.177530648264
 30
0.0
 11
47.14101261010984
 21
745.177530648264
 31
0.0
  0
LINE
  5
189
330
1F
100
AcDbEntity
  8
Make2D$可见线$普通线
100
AcDbLine
 10
47.05471878422811
 20
745.1775306482639
 30
0.0
 11
47.03241480918939
 21
745.1775306482641
 31
0.0
  0
LINE
  5
18A
330
1F
100
AcDbEntity
  8
Make2D$可见线$普通线
100
AcDbLine
 10
46.93394286744402
 20
745.1775306482639
 30
0.0
 11
46.90997887020607
 21
745.1775306482639
 31
0.0
  0
LINE
  5
18B
330
1F
100
AcDbEntity
  8
Make2D$可见线$普通线
100
AcDbLine
 10
46.79922752193752
 20
745.1775306482639
 30
0.0
 11
46.77385594835718
 21
745.1775306482639
 31
0.0
  0
LINE
  5
18C
330
1F
100
AcDbEntity
  8
Make2D$可见线$普通线
100
AcDbLine
 10
46.65072762337515
 20
745.1775306482639
 30
0.0
 11
46.62419719873694
 21
745.1775306482639
 31
0.0
  0
LINE
  5
18D
330
1F
100
AcDbEntity
  8
Make2D$可见线$普通线
100
AcDbLine
 10
46.48859804742339
 20
745.177530648264
 30
0.0
 11
46.46115377640058
 21
745.177530648264
 31
0.0
  0
LINE
  5
18E
330
1F
100
AcDbEntity
  8
Make2D$可见线$普通线
100
AcDbLine
 10
46.31299366974878
 20
745.177530648264
 30
0.0
 11
46.2848768363873
 21
745.177530648264
 31
0.0
  0
LINE
  5
18F
330
1F
100
AcDbEntity
  8
Make2D$可见线$普通线
100
AcDbLine
 10
46.12406936601783
 20
745.177530648264
 30
0.0
 11
46.09551753372902
 21
745.177530648264
 31
0.0
  0
LINE
  5
190
330
1F
100
AcDbEntity
  8
Make2D$可见线$普通线
100
AcDbLine
 10
45.921980011897
 20
745.1775306482639
 30
0.0
 11
45.89322702345426
 21
745.1775306482639
 31
0.0
  0
LINE
  5
191
330
1F
100
AcDbEntity
  8
Make2D$可见线$普通线
100
AcDbLine
 10
45.70688048305286
 20
745.1775306482641
 30
0.0
 11
45.67815646058976
 21
745.1775306482641
 31
0.0
  0
LINE
  5
192
330
1F
100
AcDbEntity
  8
Make2D$可见线$普通线
100
AcDbLine
 10
45.47892565515189
 20
745.177530648264
 30
0.0
 11
45.45045700016131
 21
745.177530648264
 31
0.0
  0
LINE
  5
193
330
1F
100
AcDbEntity
  8
Make2D$可见线$普通线
100
AcDbLine
 10
45.23827040386059
 20
745.1775306482639
 30
0.0
 11
45.21027979719448
 21
745.1775306482639
 31
0.0
  0
LINE
  5
194
330
1F
100
AcDbEntity
  8
Make2D$可见线$普通线
100
AcDbLine
 10
44.98506960484548
 20
745.177530648264
 30
0.0
 11
44.9577760067143
 21
745.177530648264
 31
0.0
  0
LINE
  5
195
330
1F
100
AcDbEntity
  8
Make2D$可见线$普通线
100
AcDbLine
 10
44.71947813377307
 20
745.1775306482641
 30
0.0
 11
44.69309678374568
 21
745.177530648264
 31
0.0
  0
LINE
  5
196
330
1F
100
AcDbEntity
  8
Make2D$可见线$普通线
100
AcDbLine
 10
44.44165086630989
 20
745.1775306482639
 30
0.0
 11
44.41639328331352
 21
745.1775306482639
 31
0.0
  0
LINE
  5
197
330
1F
100
AcDbEntity
  8
Make2D$可见线$普通线
100
AcDbLine
 10
44.1517426781224
 20
745.1775306482639
 30
0.0
 11
44.12781666044257
 21
745.1775306482639
 31
0.0
  0
LINE
  5
198
330
1F
100
AcDbEntity
  8
Make2D$可见线$普通线
100
AcDbLine
 10
43.25716533106249
 20
745.1775306482641
 30
0.0
 11
43.19235960744487
 21
745.1775306482641
 31
0.0
  0
LINE
  5
199
330
1F
100
AcDbEntity
  8
Make2D$可见线$普通线
100
AcDbLine
 10
43.01429045838591
 20
745.1775306482641
 30
0.0
 11
42.85780205112157
 21
745.1775306482641
 31
0.0
  0
LINE
  5
19A
330
1F
100
AcDbEntity
  8
Make2D$可见线$普通线
100
AcDbLine
 10
42.72281327147858
 20
745.177530648264
 30
0.0
 11
42.51212713537306
 21
745.177530648264
 31
0.0
  0
LINE
  5
19B
330
1F
100
AcDbEntity
  8
Make2D$可见线$普通线
100
AcDbLine
 10
42.38207731589358
 20
745.1775306482641
 30
0.0
 11
42.15548602369603
 21
745.1775306482641
 31
0.0
  0
LINE
  5
19C
330
1F
100
AcDbEntity
  8
Make2D$可见线$普通线
100
AcDbLine
 10
40.62228280304405
 20
745.177530648264
 30
0.0
 11
7.378760405980684
 21
745.177530648264
 31
0.0
  0
LINE
  5
19D
330
1F
100
AcDbEntity
  8
Make2D$可见线$普通线
100
AcDbLine
 10
5.845557185331733
 20
745.177530648264
 30
0.0
 11
5.580843539511162
 21
745.1775306482639
 31
0.0
  0
LINE
  5
19E
330
1F
100
AcDbEntity
  8
Make2D$可见线$普通线
100
AcDbLine
 10
5.488916073654705
 20
745.1775306482641
 30
0.0
 11
5.379494653540214
 21
745.1775306482639
 31
0.0
  0
LINE
  5
19F
330
1F
100
AcDbEntity
  8
Make2D$可见线$普通线
100
AcDbLine
 10
5.14324116396118
 20
745.177530648264
 30
0.0
 11
5.013992403897253
 21
745.177530648264
 31
0.0
  0
LINE
  5
1A0
330
1F
100
AcDbEntity
  8
Make2D$可见线$普通线
100
AcDbLine
 10
4.808683601582747
 20
745.177530648264
 30
0.0
 11
4.697946464814104
 21
745.1775306482641
 31
0.0
  0
LINE
  5
1A1
330
1F
100
AcDbEntity
  8
Make2D$可见线$普通线
100
AcDbLine
 10
4.485394541544064
 20
745.1775306482641
 30
0.0
 11
4.315457273791422
 21
745.177530648264
 31
0.0
  0
LINE
  5
1A2
330
1F
100
AcDbEntity
  8
Make2D$可见线$普通线
100
AcDbLine
 10
3.584649925714066
 20
745.177530648264
 30
0.0
 11
3.559392342717743
 21
745.177530648264
 31
0.0
  0
LINE
  5
1A3
330
1F
100
AcDbEntity
  8
Make2D$可见线$普通线
100
AcDbLine
 10
3.307946425281965
 20
745.177530648264
 30
0.0
 11
3.281565075254542
 21
745.177530648264
 31
0.0
  0
LINE
  5
1A4
330
1F
100
AcDbEntity
  8
Make2D$可见线$普通线
100
AcDbLine
 10
3.043267202313405
 20
745.177530648264
 30
0.0
 11
3.01597360418213
 21
745.177530648264
 31
0.0
  0
LINE
  5
1A5
330
1F
100
AcDbEntity
  8
Make2D$可见线$普通线
100
AcDbLine
 10
2.790763411833236
 20
745.1775306482639
 30
0.0
 11
2.762772805167022
 21
745.1775306482639
 31
0.0
  0
LINE
  5
1A6
330
1F
100
AcDbEntity
  8
Make2D$可见线$普通线
100
AcDbLine
 10
2.550586208866349
 20
745.177530648264
 30
0.0
 11
2.522117553875725
 21
745.177530648264
 31
0.0
  0
LINE
  5
1A7
330
1F
100
AcDbEntity
  8
Make2D$可见线$普通线
100
AcDbLine
 10
2.322886748437958
 20
745.1775306482642
 30
0.0
 11
2.294162725974744
 21
745.1775306482641
 31
0.0
  0
LINE
  5
1A8
330
1F
100
AcDbEntity
  8
Make2D$可见线$普通线
100
AcDbLine
 10
2.107816185573454
 20
745.177530648264
 30
0.0
 11
2.079063197130592
 21
745.177530648264
 31
0.0
  0
LINE
  5
1A9
330
1F
100
AcDbEntity
  8
Make2D$可见线$普通线
100
AcDbLine
 10
1.90552567529865
 20
745.1775306482641
 30
0.0
 11
1.876973843009777
 21
745.1775306482639
 31
0.0
  0
LINE
  5
1AA
330
1F
100
AcDbEntity
  8
Make2D$可见线$普通线
100
AcDbLine
 10
1.71616637264036
 20
745.1775306482639
 30
0.0
 11
1.688049539278808
 21
745.1775306482639
 31
0.0
  0
LINE
  5
1AB
330
1F
100
AcDbEntity
  8
Make2D$可见线$普通线
100
AcDbLine
 10
1.539889432627142
 20
745.1775306482639
 30
0.0
 11
1.512445161604195
 21
745.1775306482639
 31
0.0
  0
LINE
  5
1AC
330
1F
100
AcDbEntity
  8
Make2D$可见线$普通线
100
AcDbLine
 10
1.376846010290841
 20
745.1775306482641
 30
0.0
 11
1.350315585652446
 21
745.1775306482641
 31
0.0
  0
LINE
  5
1AD
330
1F
100
AcDbEntity
  8
Make2D$可见线$普通线
100
AcDbLine
 10
1.227187260670539
 20
745.1775306482641
 30
0.0
 11
1.201815687090069
 21
745.1775306482641
 31
0.0
  0
LINE
  5
1AE
330
1F
100
AcDbEntity
  8
Make2D$可见线$普通线
100
AcDbLine
 10
1.091064338821595
 20
745.1775306482639
 30
0.0
 11
1.067100341583573
 21
745.1775306482639
 31
0.0
  0
LINE
  5
1AF
330
1F
100
AcDbEntity
  8
Make2D$可见线$普通线
100
AcDbLine
 10
0.9686283998383348
 20
745.1775306482639
 30
0.0
 11
0.946324424799471
 21
745.1775306482639
 31
0.0
  0
LINE
  5
1B0
330
1F
100
AcDbEntity
  8
Make2D$可见线$普通线
100
AcDbLine
 10
0.8600305989178864
 20
745.1775306482642
 30
0.0
 11
0.8396428124042699
 21
745.1775306482641
 31
0.0
  0
LINE
  5
1B1
330
1F
100
AcDbEntity
  8
Make2D$可见线$普通线
100
AcDbLine
 10
0.7654220915621653
 20
745.177530648264
 30
0.0
 11
0.7472103800644762
 21
745.177530648264
 31
0.0
  0
LINE
  5
1B2
330
1F
100
AcDbEntity
  8
Make2D$可见线$普通线
100
AcDbLine
 10
0.6691820034466035
 20
745.1775306482641
 30
0.0
 11
0.6187775701532372
 21
745.1775306482641
 31
0.0
  0
LINE
  5
1B3
330
1F
100
AcDbEntity
  8
Make2D$可见线$普通线
100
AcDbLine
 10
0.6057125582171584
 20
745.1775306482642
 30
0.0
 11
0.5670438699330993
 21
745.1775306482641
 31
0.0
  0
LINE
  5
1B4
330
1F
100
AcDbEntity
  8
Make2D$可见线$普通线
100
AcDbLine
 10
197.5661883374227
 20
785.177530648264
 30
0.0
 11
149.5721009847771
 21
785.177530648264
 31
0.0
  0
LINE
  5
1B5
330
1F
100
AcDbEntity
  8
Make2D$可见线$普通线
100
AcDbLine
 10
173.7863112946455
 20
743.677530648264
 30
0.0
 11
153.7863112946455
 21
743.677530648264
 31
0.0
  0
LINE
  5
1B6
330
1F
100
AcDbEntity
  8
Make2D$可见线$普通线
100
AcDbLine
 10
193.7863112946455
 20
743.677530648264
 30
0.0
 11
173.7863112946455
 21
743.677530648264
 31
0.0
  0
LINE
  5
1B7
330
1F
100
AcDbEntity
  8
Make2D$可见线$普通线
100
AcDbLine
 10
149.5721009847771
 20
745.677530648264
 30
0.0
 11
149.5721009847771
 21
785.177530648264
 31
0.0
  0
LINE
  5
1B8
330
1F
100
AcDbEntity
  8
Make2D$可见线$普通线
100
AcDbLine
 10
197.0055787193581
 20
745.1775306482641
 30
0.0
 11
196.9669100310738
 21
745.1775306482641
 31
0.0
  0
LINE
  5
1B9
330
1F
100
AcDbEntity
  8
Make2D$可见线$普通线
100
AcDbLine
 10
196.9538450191378
 20
745.1775306482641
 30
0.0
 11
196.9034405858444
 21
745.1775306482641
 31
0.0
  0
LINE
  5
1BA
330
1F
100
AcDbEntity
  8
Make2D$可见线$普通线
100
AcDbLine
 10
196.8254122092265
 20
745.1775306482641
 30
0.0
 11
196.807200497729
 21
745.1775306482641
 31
0.0
  0
LINE
  5
1BB
330
1F
100
AcDbEntity
  8
Make2D$可见线$普通线
100
AcDbLine
 10
196.7329797768867
 20
745.177530648264
 30
0.0
 11
196.7125919903732
 21
745.177530648264
 31
0.0
  0
LINE
  5
1BC
330
1F
100
AcDbEntity
  8
Make2D$可见线$普通线
100
AcDbLine
 10
196.6262981644915
 20
745.1775306482641
 30
0.0
 11
196.6039941894527
 21
745.177530648264
 31
0.0
  0
LINE
  5
1BD
330
1F
100
AcDbEntity
  8
Make2D$可见线$普通线
100
AcDbLine
 10
196.5055222477074
 20
745.177530648264
 30
0.0
 11
196.4815582504694
 21
745.177530648264
 31
0.0
  0
LINE
  5
1BE
330
1F
100
AcDbEntity
  8
Make2D$可见线$普通线
100
AcDbLine
 10
196.370806902201
 20
745.177530648264
 30
0.0
 11
196.3454353286205
 21
745.177530648264
 31
0.0
  0
LINE
  5
1BF
330
1F
100
AcDbEntity
  8
Make2D$可见线$普通线
100
AcDbLine
 10
196.2223070036386
 20
745.1775306482639
 30
0.0
 11
196.1957765790002
 21
745.177530648264
 31
0.0
  0
LINE
  5
1C0
330
1F
100
AcDbEntity
  8
Make2D$可见线$普通线
100
AcDbLine
 10
196.0601774276868
 20
745.177530648264
 30
0.0
 11
196.0327331566639
 21
745.177530648264
 31
0.0
  0
LINE
  5
1C1
330
1F
100
AcDbEntity
  8
Make2D$可见线$普通线
100
AcDbLine
 10
195.8845730500121
 20
745.1775306482641
 30
0.0
 11
195.8564562166506
 21
745.177530648264
 31
0.0
  0
LINE
  5
1C2
330
1F
100
AcDbEntity
  8
Make2D$可见线$普通线
100
AcDbLine
 10
195.6956487462812
 20
745.1775306482639
 30
0.0
 11
195.6670969139923
 21
745.1775306482639
 31
0.0
  0
LINE
  5
1C3
330
1F
100
AcDbEntity
  8
Make2D$可见线$普通线
100
AcDbLine
 10
195.4935593921604
 20
745.1775306482639
 30
0.0
 11
195.4648064037175
 21
745.1775306482639
 31
0.0
  0
LINE
  5
1C4
330
1F
100
AcDbEntity
  8
Make2D$可见线$普通线
100
AcDbLine
 10
195.2784598633163
 20
745.1775306482641
 30
0.0
 11
195.2497358408531
 21
745.1775306482639
 31
0.0
  0
LINE
  5
1C5
330
1F
100
AcDbEntity
  8
Make2D$可见线$普通线
100
AcDbLine
 10
195.0505050354153
 20
745.1775306482639
 30
0.0
 11
195.0220363804247
 21
745.1775306482639
 31
0.0
  0
LINE
  5
1C6
330
1F
100
AcDbEntity
  8
Make2D$可见线$普通线
100
AcDbLine
 10
194.809849784124
 20
745.1775306482639
 30
0.0
 11
194.7818591774579
 21
745.1775306482639
 31
0.0
  0
LINE
  5
1C7
330
1F
100
AcDbEntity
  8
Make2D$可见线$普通线
100
AcDbLine
 10
194.5566489851088
 20
745.1775306482639
 30
0.0
 11
194.5293553869777
 21
745.1775306482639
 31
0.0
  0
LINE
  5
1C8
330
1F
100
AcDbEntity
  8
Make2D$可见线$普通线
100
AcDbLine
 10
194.2910575140365
 20
745.1775306482641
 30
0.0
 11
194.2646761640091
 21
745.177530648264
 31
0.0
  0
LINE
  5
1C9
330
1F
100
AcDbEntity
  8
Make2D$可见线$普通线
100
AcDbLine
 10
194.0132302465733
 20
745.177530648264
 30
0.0
 11
193.987972663577
 21
745.177530648264
 31
0.0
  0
LINE
  5
1CA
330
1F
100
AcDbEntity
  8
Make2D$可见线$普通线
100
AcDbLine
 10
193.2571653154998
 20
745.1775306482641
 30
0.0
 11
193.0872280477471
 21
745.1775306482641
 31
0.0
  0
LINE
  5
1CB
330
1F
100
AcDbEntity
  8
Make2D$可见线$普通线
100
AcDbLine
 10
192.874676124477
 20
745.1775306482641
 30
0.0
 11
192.7639389877084
 21
745.1775306482641
 31
0.0
  0
LINE
  5
1CC
330
1F
100
AcDbEntity
  8
Make2D$可见线$普通线
100
AcDbLine
 10
192.5586301853938
 20
745.1775306482641
 30
0.0
 11
192.42938142533
 21
745.1775306482641
 31
0.0
  0
LINE
  5
1CD
330
1F
100
AcDbEntity
  8
Make2D$可见线$普通线
100
AcDbLine
 10
192.1931279357508
 20
745.177530648264
 30
0.0
 11
192.0837065156364
 21
745.177530648264
 31
0.0
  0
LINE
  5
1CE
330
1F
100
AcDbEntity
  8
Make2D$可见线$普通线
100
AcDbLine
 10
191.99177904978
 20
745.1775306482641
 30
0.0
 11
191.7270654039594
 21
745.1775306482641
 31
0.0
  0
LINE
  5
1CF
330
1F
100
AcDbEntity
  8
Make2D$可见线$普通线
100
AcDbLine
 10
190.1938621833044
 20
745.1775306482641
 30
0.0
 11
156.950339786244
 21
745.177530648264
 31
0.0
  0
LINE
  5
1D0
330
1F
100
AcDbEntity
  8
Make2D$可见线$普通线
100
AcDbLine
 10
155.4171365655949
 20
745.1775306482641
 30
0.0
 11
155.1905452733974
 21
745.1775306482641
 31
0.0
  0
LINE
  5
1D1
330
1F
100
AcDbEntity
  8
Make2D$可见线$普通线
100
AcDbLine
 10
155.0604954539179
 20
745.1775306482639
 30
0.0
 11
154.8498093178124
 21
745.1775306482639
 31
0.0
  0
LINE
  5
1D2
330
1F
100
AcDbEntity
  8
Make2D$可见线$普通线
100
AcDbLine
 10
154.7148205381692
 20
745.1775306482639
 30
0.0
 11
154.5583321309051
 21
745.177530648264
 31
0.0
  0
LINE
  5
1D3
330
1F
100
AcDbEntity
  8
Make2D$可见线$普通线
100
AcDbLine
 10
154.3802629818459
 20
745.1775306482639
 30
0.0
 11
154.3154572582284
 21
745.1775306482639
 31
0.0
  0
LINE
  5
1D4
330
1F
100
AcDbEntity
  8
Make2D$可见线$普通线
100
AcDbLine
 10
153.4448059288483
 20
745.1775306482639
 30
0.0
 11
153.4208799111686
 21
745.177530648264
 31
0.0
  0
LINE
  5
1D5
330
1F
100
AcDbEntity
  8
Make2D$可见线$普通线
100
AcDbLine
 10
153.1562293059773
 20
745.177530648264
 30
0.0
 11
153.1309717229811
 21
745.177530648264
 31
0.0
  0
LINE
  5
1D6
330
1F
100
AcDbEntity
  8
Make2D$可见线$普通线
100
AcDbLine
 10
152.8795258055453
 20
745.177530648264
 30
0.0
 11
152.8531444555179
 21
745.177530648264
 31
0.0
  0
LINE
  5
1D7
330
1F
100
AcDbEntity
  8
Make2D$可见线$普通线
100
AcDbLine
 10
152.6148465825766
 20
745.1775306482641
 30
0.0
 11
152.5875529844455
 21
745.1775306482639
 31
0.0
  0
LINE
  5
1D8
330
1F
100
AcDbEntity
  8
Make2D$可见线$普通线
100
AcDbLine
 10
152.3623427920964
 20
745.177530648264
 30
0.0
 11
152.3343521854304
 21
745.177530648264
 31
0.0
  0
LINE
  5
1D9
330
1F
100
AcDbEntity
  8
Make2D$可见线$普通线
100
AcDbLine
 10
152.1221655891296
 20
745.1775306482639
 30
0.0
 11
152.0936969341391
 21
745.1775306482639
 31
0.0
  0
LINE
  5
1DA
330
1F
100
AcDbEntity
  8
Make2D$可见线$普通线
100
AcDbLine
 10
151.8944661287012
 20
745.177530648264
 30
0.0
 11
151.8657421062381
 21
745.177530648264
 31
0.0
  0
LINE
  5
1DB
330
1F
100
AcDbEntity
  8
Make2D$可见线$普通线
100
AcDbLine
 10
151.6793955658368
 20
745.1775306482642
 30
0.0
 11
151.6506425773939
 21
745.1775306482641
 31
0.0
  0
LINE
  5
1DC
330
1F
100
AcDbEntity
  8
Make2D$可见线$普通线
100
AcDbLine
 10
151.4771050555619
 20
745.177530648264
 30
0.0
 11
151.4485532232731
 21
745.177530648264
 31
0.0
  0
LINE
  5
1DD
330
1F
100
AcDbEntity
  8
Make2D$可见线$普通线
100
AcDbLine
 10
151.2877457529036
 20
745.1775306482639
 30
0.0
 11
151.2596289195422
 21
745.1775306482639
 31
0.0
  0
LINE
  5
1DE
330
1F
100
AcDbEntity
  8
Make2D$可见线$普通线
100
AcDbLine
 10
151.1114688128904
 20
745.177530648264
 30
0.0
 11
151.0840245418676
 21
745.177530648264
 31
0.0
  0
LINE
  5
1DF
330
1F
100
AcDbEntity
  8
Make2D$可见线$普通线
100
AcDbLine
 10
150.948425390554
 20
745.1775306482641
 30
0.0
 11
150.9218949659158
 21
745.1775306482641
 31
0.0
  0
LINE
  5
1E0
330
1F
100
AcDbEntity
  8
Make2D$可见线$普通线
100
AcDbLine
 10
150.7987666409338
 20
745.1775306482642
 30
0.0
 11
150.7733950673534
 21
745.1775306482641
 31
0.0
  0
LINE
  5
1E1
330
1F
100
AcDbEntity
  8
Make2D$可见线$普通线
100
AcDbLine
 10
150.6626437190849
 20
745.1775306482641
 30
0.0
 11
150.638679721847
 21
745.1775306482641
 31
0.0
  0
LINE
  5
1E2
330
1F
100
AcDbEntity
  8
Make2D$可见线$普通线
100
AcDbLine
 10
150.5402077801015
 20
745.177530648264
 30
0.0
 11
150.5179038050628
 21
745.177530648264
 31
0.0
  0
LINE
  5
1E3
330
1F
100
AcDbEntity
  8
Make2D$可见线$普通线
100
AcDbLine
 10
150.431609979181
 20
745.177530648264
 30
0.0
 11
150.4112221926677
 21
745.177530648264
 31
0.0
  0
LINE
  5
1E4
330
1F
100
AcDbEntity
  8
Make2D$可见线$普通线
100
AcDbLine
 10
150.3370014718253
 20
745.177530648264
 30
0.0
 11
150.3187897603279
 21
745.177530648264
 31
0.0
  0
LINE
  5
1E5
330
1F
100
AcDbEntity
  8
Make2D$可见线$普通线
100
AcDbLine
 10
150.24076138371
 20
745.1775306482641
 30
0.0
 11
150.1903569504164
 21
745.177530648264
 31
0.0
  0
LINE
  5
1E6
330
1F
100
AcDbEntity
  8
Make2D$可见线$普通线
100
AcDbLine
 10
150.1772919384805
 20
745.177530648264
 30
0.0
 11
150.1386232501963
 21
745.177530648264
 31
0.0
  0
SPLINE
  5
1E7
330
1F
100
AcDbEntity
  8
Make2D$可见线$普通线
100
AcDbSpline
210
0.0
220
0.0
230
1.0
 70
    28
 71
     2
 72
     6
 73
     3
 74
     0
 42
0.000000001
 43
0.0000000001
 12
1.0
 22
0.0
 32
0.0
 13
1.0
 23
0.0
 33
0.0
 40
12.29354128141821
 40
12.29354128141821
 40
12.29354128141821
 40
21.16459096117098
 40
21.16459096117098
 40
21.16459096117098
 10
109.0873311085513
 20
773.0858479360355
 30
0.0
 41
0.9448538004329285
 10
109.3471328130933
 20
773.0858479360355
 30
0.0
 41
0.8235321613853717
 10
103.5248699709943
 20
773.0858479360355
 30
0.0
 41
1.0
  0
LINE
  5
1E8
330
1F
100
AcDbEntity
  8
Make2D$可见线$普通线
100
AcDbLine
 10
110.5985272219879
 20
783.6115616442812
 30
0.0
 11
86.54429488981617
 21
783.6115616442812
 31
0.0
  0
LINE
  5
1E9
330
1F
100
AcDbEntity
  8
Make2D$可见线$普通线
100
AcDbLine
 10
110.0965245597037
 20
783.1110446365169
 30
0.0
 11
87.04629755210027
 21
783.1110446365169
 31
0.0
  0
POLYLINE
  5
1EA
330
1F
100
AcDbEntity
  8
Make2D$可见线$普通线
100
AcDb2dPolyline
 66
     1
 10
0.0
 20
0.0
 30
0.0
  0
VERTEX
  5
1EB
330
1EA
100
AcDbEntity
  8
Make2D$可见线$普通线
100
AcDbVertex
100
AcDb2dVertex
 10
108.5640936736288
 20
773.8541955749008
 30
0.0
  0
VERTEX
  5
1EC
330
1EA
100
AcDbEntity
  8
Make2D$可见线$普通线
100
AcDbVertex
100
AcDb2dVertex
 10
108.656939804598
 20
773.838040227652
 30
0.0
  0
VERTEX
  5
1ED
330
1EA
100
AcDbEntity
  8
Make2D$可见线$普通线
100
AcDbVertex
100
AcDb2dVertex
 10
108.7410688535564
 20
773.8218806977695
 30
0.0
  0
VERTEX
  5
1EE
330
1EA
100
AcDbEntity
  8
Make2D$可见线$普通线
100
AcDbVertex
100
AcDb2dVertex
 10
108.8164166250047
 20
773.8057134259043
 30
0.0
  0
VERTEX
  5
1EF
330
1EA
100
AcDbEntity
  8
Make2D$可见线$普通线
100
AcDbVertex
100
AcDb2dVertex
 10
108.8829189234434
 20
773.789534852707
 30
0.0
  0
VERTEX
  5
1F0
330
1EA
100
AcDbEntity
  8
Make2D$可见线$普通线
100
AcDbVertex
100
AcDb2dVertex
 10
108.9326371449566
 20
773.7757139278222
 30
0.0
  0
VERTEX
  5
1F1
330
1EA
100
AcDbEntity
  8
Make2D$可见线$普通线
100
AcDbVertex
100
AcDb2dVertex
 10
108.9550265172872
 20
773.7688061366032
 30
0.0
  0
VERTEX
  5
1F2
330
1EA
100
AcDbEntity
  8
Make2D$可见线$普通线
100
AcDbVertex
100
AcDb2dVertex
 10
108.9757672901483
 20
773.7618997532218
 30
0.0
  0
VERTEX
  5
1F3
330
1EA
100
AcDbEntity
  8
Make2D$可见线$普通线
100
AcDbVertex
100
AcDb2dVertex
 10
108.9948578831506
 20
773.7549944979444
 30
0.0
  0
VERTEX
  5
1F4
330
1EA
100
AcDbEntity
  8
Make2D$可见线$普通线
100
AcDbVertex
100
AcDb2dVertex
 10
109.0122967159048
 20
773.7480900910373
 30
0.0
  0
VERTEX
  5
1F5
330
1EA
100
AcDbEntity
  8
Make2D$可见线$普通线
100
AcDbVertex
100
AcDb2dVertex
 10
109.0203962283172
 20
773.7446381183058
 30
0.0
  0
VERTEX
  5
1F6
330
1EA
100
AcDbEntity
  8
Make2D$可见线$普通线
100
AcDbVertex
100
AcDb2dVertex
 10
109.0280822080217
 20
773.741186252767
 30
0.0
  0
VERTEX
  5
1F7
330
1EA
100
AcDbEntity
  8
Make2D$可见线$普通线
100
AcDbVertex
100
AcDb2dVertex
 10
109.0353544574696
 20
773.737734459454
 30
0.0
  0
VERTEX
  5
1F8
330
1EA
100
AcDbEntity
  8
Make2D$可见线$普通线
100
AcDbVertex
100
AcDb2dVertex
 10
109.0422127791122
 20
773.7342827034001
 30
0.0
  0
VERTEX
  5
1F9
330
1EA
100
AcDbEntity
  8
Make2D$可见线$普通线
100
AcDbVertex
100
AcDb2dVertex
 10
109.0486569754009
 20
773.7308309496387
 30
0.0
  0
VERTEX
  5
1FA
330
1EA
100
AcDbEntity
  8
Make2D$可见线$普通线
100
AcDbVertex
100
AcDb2dVertex
 10
109.054686848787
 20
773.7273791632031
 30
0.0
  0
VERTEX
  5
1FB
330
1EA
100
AcDbEntity
  8
Make2D$可见线$普通线
100
AcDbVertex
100
AcDb2dVertex
 10
109.0603022017218
 20
773.7239273091263
 30
0.0
  0
VERTEX
  5
1FC
330
1EA
100
AcDbEntity
  8
Make2D$可见线$普通线
100
AcDbVertex
100
AcDb2dVertex
 10
109.0629543712861
 20
773.7222013457956
 30
0.0
  0
VERTEX
  5
1FD
330
1EA
100
AcDbEntity
  8
Make2D$可见线$普通线
100
AcDbVertex
100
AcDb2dVertex
 10
109.0655028366568
 20
773.720475352442
 30
0.0
  0
VERTEX
  5
1FE
330
1EA
100
AcDbEntity
  8
Make2D$可见线$普通线
100
AcDbVertex
100
AcDb2dVertex
 10
109.0679475731404
 20
773.7187493246947
 30
0.0
  0
VERTEX
  5
1FF
330
1EA
100
AcDbEntity
  8
Make2D$可见线$普通线
100
AcDbVertex
100
AcDb2dVertex
 10
109.0702885560432
 20
773.7170232581832
 30
0.0
  0
VERTEX
  5
200
330
1EA
100
AcDbEntity
  8
Make2D$可见线$普通线
100
AcDbVertex
100
AcDb2dVertex
 10
109.0725257606718
 20
773.7152971485364
 30
0.0
  0
VERTEX
  5
201
330
1EA
100
AcDbEntity
  8
Make2D$可见线$普通线
100
AcDbVertex
100
AcDb2dVertex
 10
109.0746591623325
 20
773.7135709913834
 30
0.0
  0
VERTEX
  5
202
330
1EA
100
AcDbEntity
  8
Make2D$可见线$普通线
100
AcDbVertex
100
AcDb2dVertex
 10
109.0766887363317
 20
773.7118447823536
 30
0.0
  0
VERTEX
  5
203
330
1EA
100
AcDbEntity
  8
Make2D$可见线$普通线
100
AcDbVertex
100
AcDb2dVertex
 10
109.0786144579759
 20
773.7101185170759
 30
0.0
  0
VERTEX
  5
204
330
1EA
100
AcDbEntity
  8
Make2D$可见线$普通线
100
AcDbVertex
100
AcDb2dVertex
 10
109.0804363025714
 20
773.7083921911797
 30
0.0
  0
VERTEX
  5
205
330
1EA
100
AcDbEntity
  8
Make2D$可见线$普通线
100
AcDbVertex
100
AcDb2dVertex
 10
109.0821542454248
 20
773.7066658002941
 30
0.0
  0
VERTEX
  5
206
330
1EA
100
AcDbEntity
  8
Make2D$可见线$普通线
100
AcDbVertex
100
AcDb2dVertex
 10
109.0837682618423
 20
773.7049393400481
 30
0.0
  0
VERTEX
  5
207
330
1EA
100
AcDbEntity
  8
Make2D$可见线$普通线
100
AcDbVertex
100
AcDb2dVertex
 10
109.0852783271305
 20
773.7032128060711
 30
0.0
  0
VERTEX
  5
208
330
1EA
100
AcDbEntity
  8
Make2D$可见线$普通线
100
AcDbVertex
100
AcDb2dVertex
 10
109.0859943703843
 20
773.7023495100675
 30
0.0
  0
VERTEX
  5
209
330
1EA
100
AcDbEntity
  8
Make2D$可见线$普通线
100
AcDbVertex
100
AcDb2dVertex
 10
109.0866844165957
 20
773.701486193992
 30
0.0
  0
VERTEX
  5
20A
330
1EA
100
AcDbEntity
  8
Make2D$可见线$普通线
100
AcDbVertex
100
AcDb2dVertex
 10
109.087348462678
 20
773.7006228572982
 30
0.0
  0
VERTEX
  5
20B
330
1EA
100
AcDbEntity
  8
Make2D$可见线$普通线
100
AcDbVertex
100
AcDb2dVertex
 10
109.0879865055444
 20
773.69975949944
 30
0.0
  0
VERTEX
  5
20C
330
1EA
100
AcDbEntity
  8
Make2D$可见线$普通线
100
AcDbVertex
100
AcDb2dVertex
 10
109.0885985421084
 20
773.6988961198708
 30
0.0
  0
VERTEX
  5
20D
330
1EA
100
AcDbEntity
  8
Make2D$可见线$普通线
100
AcDbVertex
100
AcDb2dVertex
 10
109.089184569283
 20
773.6980327180445
 30
0.0
  0
VERTEX
  5
20E
330
1EA
100
AcDbEntity
  8
Make2D$可见线$普通线
100
AcDbVertex
100
AcDb2dVertex
 10
109.0897445839818
 20
773.6971692934146
 30
0.0
  0
VERTEX
  5
20F
330
1EA
100
AcDbEntity
  8
Make2D$可见线$普通线
100
AcDbVertex
100
AcDb2dVertex
 10
109.0902785831179
 20
773.6963058454346
 30
0.0
  0
VERTEX
  5
210
330
1EA
100
AcDbEntity
  8
Make2D$可见线$普通线
100
AcDbVertex
100
AcDb2dVertex
 10
109.0907865636048
 20
773.6954423735583
 30
0.0
  0
VERTEX
  5
211
330
1EA
100
AcDbEntity
  8
Make2D$可见线$普通线
100
AcDbVertex
100
AcDb2dVertex
 10
109.0912685223556
 20
773.6945788772393
 30
0.0
  0
VERTEX
  5
212
330
1EA
100
AcDbEntity
  8
Make2D$可见线$普通线
100
AcDbVertex
100
AcDb2dVertex
 10
109.0917244562837
 20
773.6937153559314
 30
0.0
  0
VERTEX
  5
213
330
1EA
100
AcDbEntity
  8
Make2D$可见线$普通线
100
AcDbVertex
100
AcDb2dVertex
 10
109.0921543623023
 20
773.692851809088
 30
0.0
  0
VERTEX
  5
214
330
1EA
100
AcDbEntity
  8
Make2D$可见线$普通线
100
AcDbVertex
100
AcDb2dVertex
 10
109.0925582373249
 20
773.6919882361628
 30
0.0
  0
VERTEX
  5
215
330
1EA
100
AcDbEntity
  8
Make2D$可见线$普通线
100
AcDbVertex
100
AcDb2dVertex
 10
109.0929360782646
 20
773.6911246366096
 30
0.0
  0
VERTEX
  5
216
330
1EA
100
AcDbEntity
  8
Make2D$可见线$普通线
100
AcDbVertex
100
AcDb2dVertex
 10
109.0932878820349
 20
773.690261009882
 30
0.0
  0
VERTEX
  5
217
330
1EA
100
AcDbEntity
  8
Make2D$可见线$普通线
100
AcDbVertex
100
AcDb2dVertex
 10
109.0936136455489
 20
773.6893973554334
 30
0.0
  0
VERTEX
  5
218
330
1EA
100
AcDbEntity
  8
Make2D$可见线$普通线
100
AcDbVertex
100
AcDb2dVertex
 10
109.0939133657201
 20
773.6885336727177
 30
0.0
  0
VERTEX
  5
219
330
1EA
100
AcDbEntity
  8
Make2D$可见线$普通线
100
AcDbVertex
100
AcDb2dVertex
 10
109.0941870394616
 20
773.6876699611885
 30
0.0
  0
VERTEX
  5
21A
330
1EA
100
AcDbEntity
  8
Make2D$可见线$普通线
100
AcDbVertex
100
AcDb2dVertex
 10
109.0944346636869
 20
773.6868062202994
 30
0.0
  0
VERTEX
  5
21B
330
1EA
100
AcDbEntity
  8
Make2D$可见线$普通线
100
AcDbVertex
100
AcDb2dVertex
 10
109.0946562353091
 20
773.6859424495042
 30
0.0
  0
VERTEX
  5
21C
330
1EA
100
AcDbEntity
  8
Make2D$可见线$普通线
100
AcDbVertex
100
AcDb2dVertex
 10
109.0948517512417
 20
773.6850786482563
 30
0.0
  0
VERTEX
  5
21D
330
1EA
100
AcDbEntity
  8
Make2D$可见线$普通线
100
AcDbVertex
100
AcDb2dVertex
 10
109.0950212083979
 20
773.6842148160094
 30
0.0
  0
VERTEX
  5
21E
330
1EA
100
AcDbEntity
  8
Make2D$可见线$普通线
100
AcDbVertex
100
AcDb2dVertex
 10
109.095164603691
 20
773.6833509522173
 30
0.0
  0
VERTEX
  5
21F
330
1EA
100
AcDbEntity
  8
Make2D$可见线$普通线
100
AcDbVertex
100
AcDb2dVertex
 10
109.0952819340343
 20
773.6824870563337
 30
0.0
  0
VERTEX
  5
220
330
1EA
100
AcDbEntity
  8
Make2D$可见线$普通线
100
AcDbVertex
100
AcDb2dVertex
 10
109.0953731963411
 20
773.6816231278119
 30
0.0
  0
VERTEX
  5
221
330
1EA
100
AcDbEntity
  8
Make2D$可见线$普通线
100
AcDbVertex
100
AcDb2dVertex
 10
109.0954383875247
 20
773.6807591661059
 30
0.0
  0
VERTEX
  5
222
330
1EA
100
AcDbEntity
  8
Make2D$可见线$普通线
100
AcDbVertex
100
AcDb2dVertex
 10
109.0954775044985
 20
773.679895170669
 30
0.0
  0
VERTEX
  5
223
330
1EA
100
AcDbEntity
  8
Make2D$可见线$普通线
100
AcDbVertex
100
AcDb2dVertex
 10
109.0954905441757
 20
773.6790311409552
 30
0.0
  0
VERTEX
  5
224
330
1EA
100
AcDbEntity
  8
Make2D$可见线$普通线
100
AcDbVertex
100
AcDb2dVertex
 10
109.0954805249485
 20
773.6782737653201
 30
0.0
  0
VERTEX
  5
225
330
1EA
100
AcDbEntity
  8
Make2D$可见线$普通线
100
AcDbVertex
100
AcDb2dVertex
 10
109.0954504675723
 20
773.6775163944909
 30
0.0
  0
VERTEX
  5
226
330
1EA
100
AcDbEntity
  8
Make2D$可见线$普通线
100
AcDbVertex
100
AcDb2dVertex
 10
109.0954003725048
 20
773.6767590281195
 30
0.0
  0
VERTEX
  5
227
330
1EA
100
AcDbEntity
  8
Make2D$可见线$普通线
100
AcDbVertex
100
AcDb2dVertex
 10
109.0953302402039
 20
773.6760016658577
 30
0.0
  0
VERTEX
  5
228
330
1EA
100
AcDbEntity
  8
Make2D$可见线$普通线
100
AcDbVertex
100
AcDb2dVertex
 10
109.0952400711274
 20
773.6752443073574
 30
0.0
  0
VERTEX
  5
229
330
1EA
100
AcDbEntity
  8
Make2D$可见线$普通线
100
AcDbVertex
100
AcDb2dVertex
 10
109.0951298657332
 20
773.6744869522706
 30
0.0
  0
VERTEX
  5
22A
330
1EA
100
AcDbEntity
  8
Make2D$可见线$普通线
100
AcDbVertex
100
AcDb2dVertex
 10
109.094999624479
 20
773.6737296002491
 30
0.0
  0
VERTEX
  5
22B
330
1EA
100
AcDbEntity
  8
Make2D$可见线$普通线
100
AcDbVertex
100
AcDb2dVertex
 10
109.0948493478228
 20
773.6729722509447
 30
0.0
  0
VERTEX
  5
22C
330
1EA
100
AcDbEntity
  8
Make2D$可见线$普通线
100
AcDbVertex
100
AcDb2dVertex
 10
109.0946790362224
 20
773.6722149040093
 30
0.0
  0
VERTEX
  5
22D
330
1EA
100
AcDbEntity
  8
Make2D$可见线$普通线
100
AcDbVertex
100
AcDb2dVertex
 10
109.0944886901356
 20
773.6714575590947
 30
0.0
  0
VERTEX
  5
22E
330
1EA
100
AcDbEntity
  8
Make2D$可见线$普通线
100
AcDbVertex
100
AcDb2dVertex
 10
109.0942783100203
 20
773.6707002158531
 30
0.0
  0
VERTEX
  5
22F
330
1EA
100
AcDbEntity
  8
Make2D$可见线$普通线
100
AcDbVertex
100
AcDb2dVertex
 10
109.0940478963342
 20
773.6699428739362
 30
0.0
  0
VERTEX
  5
230
330
1EA
100
AcDbEntity
  8
Make2D$可见线$普通线
100
AcDbVertex
100
AcDb2dVertex
 10
109.0937974495352
 20
773.6691855329957
 30
0.0
  0
VERTEX
  5
231
330
1EA
100
AcDbEntity
  8
Make2D$可见线$普通线
100
AcDbVertex
100
AcDb2dVertex
 10
109.0935269700813
 20
773.6684281926837
 30
0.0
  0
VERTEX
  5
232
330
1EA
100
AcDbEntity
  8
Make2D$可见线$普通线
100
AcDbVertex
100
AcDb2dVertex
 10
109.0932364584301
 20
773.667670852652
 30
0.0
  0
VERTEX
  5
233
330
1EA
100
AcDbEntity
  8
Make2D$可见线$普通线
100
AcDbVertex
100
AcDb2dVertex
 10
109.0929259150395
 20
773.6669135125525
 30
0.0
  0
VERTEX
  5
234
330
1EA
100
AcDbEntity
  8
Make2D$可见线$普通线
100
AcDbVertex
100
AcDb2dVertex
 10
109.0925953403675
 20
773.6661561720371
 30
0.0
  0
VERTEX
  5
235
330
1EA
100
AcDbEntity
  8
Make2D$可见线$普通线
100
AcDbVertex
100
AcDb2dVertex
 10
109.0922447348717
 20
773.6653988307576
 30
0.0
  0
VERTEX
  5
236
330
1EA
100
AcDbEntity
  8
Make2D$可见线$普通线
100
AcDbVertex
100
AcDb2dVertex
 10
109.0918740990101
 20
773.664641488366
 30
0.0
  0
VERTEX
  5
237
330
1EA
100
AcDbEntity
  8
Make2D$可见线$普通线
100
AcDbVertex
100
AcDb2dVertex
 10
109.0914834332405
 20
773.6638841445139
 30
0.0
  0
VERTEX
  5
238
330
1EA
100
AcDbEntity
  8
Make2D$可见线$普通线
100
AcDbVertex
100
AcDb2dVertex
 10
109.0910727380207
 20
773.6631267988535
 30
0.0
  0
VERTEX
  5
239
330
1EA
100
AcDbEntity
  8
Make2D$可见线$普通线
100
AcDbVertex
100
AcDb2dVertex
 10
109.0906420138086
 20
773.6623694510365
 30
0.0
  0
VERTEX
  5
23A
330
1EA
100
AcDbEntity
  8
Make2D$可见线$普通线
100
AcDbVertex
100
AcDb2dVertex
 10
109.0901912610619
 20
773.661612100715
 30
0.0
  0
VERTEX
  5
23B
330
1EA
100
AcDbEntity
  8
Make2D$可见线$普通线
100
AcDbVertex
100
AcDb2dVertex
 10
109.0897204802386
 20
773.6608547475406
 30
0.0
  0
VERTEX
  5
23C
330
1EA
100
AcDbEntity
  8
Make2D$可见线$普通线
100
AcDbVertex
100
AcDb2dVertex
 10
109.0892296717965
 20
773.6600973911653
 30
0.0
  0
VERTEX
  5
23D
330
1EA
100
AcDbEntity
  8
Make2D$可见线$普通线
100
AcDbVertex
100
AcDb2dVertex
 10
109.0887188361934
 20
773.6593400312411
 30
0.0
  0
VERTEX
  5
23E
330
1EA
100
AcDbEntity
  8
Make2D$可见线$普通线
100
AcDbVertex
100
AcDb2dVertex
 10
109.0881879738872
 20
773.6585826674195
 30
0.0
  0
VERTEX
  5
23F
330
1EA
100
AcDbEntity
  8
Make2D$可见线$普通线
100
AcDbVertex
100
AcDb2dVertex
 10
109.0876370853356
 20
773.6578252993529
 30
0.0
  0
VERTEX
  5
240
330
1EA
100
AcDbEntity
  8
Make2D$可见线$普通线
100
AcDbVertex
100
AcDb2dVertex
 10
109.0864752313279
 20
773.6563105490911
 30
0.0
  0
VERTEX
  5
241
330
1EA
100
AcDbEntity
  8
Make2D$可见线$普通线
100
AcDbVertex
100
AcDb2dVertex
 10
109.085233277833
 20
773.6547957776708
 30
0.0
  0
VERTEX
  5
242
330
1EA
100
AcDbEntity
  8
Make2D$可见线$普通线
100
AcDbVertex
100
AcDb2dVertex
 10
109.0843221047178
 20
773.6537420491377
 30
0.0
  0
VERTEX
  5
243
330
1EA
100
AcDbEntity
  8
Make2D$可见线$普通线
100
AcDbVertex
100
AcDb2dVertex
 10
109.0833722428607
 20
773.6526883826393
 30
0.0
  0
VERTEX
  5
244
330
1EA
100
AcDbEntity
  8
Make2D$可见线$普通线
100
AcDbVertex
100
AcDb2dVertex
 10
109.0823837015033
 20
773.6516347771917
 30
0.0
  0
VERTEX
  5
245
330
1EA
100
AcDbEntity
  8
Make2D$可见线$普通线
100
AcDbVertex
100
AcDb2dVertex
 10
109.0813564898876
 20
773.650581231811
 30
0.0
  0
VERTEX
  5
246
330
1EA
100
AcDbEntity
  8
Make2D$可见线$普通线
100
AcDbVertex
100
AcDb2dVertex
 10
109.0802906172553
 20
773.6495277455138
 30
0.0
  0
VERTEX
  5
247
330
1EA
100
AcDbEntity
  8
Make2D$可见线$普通线
100
AcDbVertex
100
AcDb2dVertex
 10
109.0791860928482
 20
773.6484743173162
 30
0.0
  0
VERTEX
  5
248
330
1EA
100
AcDbEntity
  8
Make2D$可见线$普通线
100
AcDbVertex
100
AcDb2dVertex
 10
109.0768611256769
 20
773.6463676312849
 30
0.0
  0
VERTEX
  5
249
330
1EA
100
AcDbEntity
  8
Make2D$可见线$普通线
100
AcDbVertex
100
AcDb2dVertex
 10
109.074381662308
 20
773.6442611658475
 30
0.0
  0
VERTEX
  5
24A
330
1EA
100
AcDbEntity
  8
Make2D$可见线$普通线
100
AcDbVertex
100
AcDb2dVertex
 10
109.0717477766759
 20
773.6421549131343
 30
0.0
  0
VERTEX
  5
24B
330
1EA
100
AcDbEntity
  8
Make2D$可见线$普通线
100
AcDbVertex
100
AcDb2dVertex
 10
109.0689595427151
 20
773.6400488652753
 30
0.0
  0
VERTEX
  5
24C
330
1EA
100
AcDbEntity
  8
Make2D$可见线$普通线
100
AcDbVertex
100
AcDb2dVertex
 10
109.0660170343598
 20
773.6379430144009
 30
0.0
  0
VERTEX
  5
24D
330
1EA
100
AcDbEntity
  8
Make2D$可见线$普通线
100
AcDbVertex
100
AcDb2dVertex
 10
109.0629203255446
 20
773.6358373526414
 30
0.0
  0
VERTEX
  5
24E
330
1EA
100
AcDbEntity
  8
Make2D$可见线$普通线
100
AcDbVertex
100
AcDb2dVertex
 10
109.0596694902037
 20
773.6337318721268
 30
0.0
  0
VERTEX
  5
24F
330
1EA
100
AcDbEntity
  8
Make2D$可见线$普通线
100
AcDbVertex
100
AcDb2dVertex
 10
109.0562646022716
 20
773.6316265649875
 30
0.0
  0
VERTEX
  5
250
330
1EA
100
AcDbEntity
  8
Make2D$可见线$普通线
100
AcDbVertex
100
AcDb2dVertex
 10
109.0527057356827
 20
773.6295214233537
 30
0.0
  0
VERTEX
  5
251
330
1EA
100
AcDbEntity
  8
Make2D$可见线$普通线
100
AcDbVertex
100
AcDb2dVertex
 10
109.045126362272
 20
773.6253116051236
 30
0.0
  0
VERTEX
  5
252
330
1EA
100
AcDbEntity
  8
Make2D$可见线$普通线
100
AcDbVertex
100
AcDb2dVertex
 10
109.0369319614466
 20
773.6211023544781
 30
0.0
  0
VERTEX
  5
253
330
1EA
100
AcDbEntity
  8
Make2D$可见线$普通线
100
AcDbVertex
100
AcDb2dVertex
 10
109.0281231246817
 20
773.6168936084593
 30
0.0
  0
VERTEX
  5
254
330
1EA
100
AcDbEntity
  8
Make2D$可见线$普通线
100
AcDbVertex
100
AcDb2dVertex
 10
109.0187004434524
 20
773.6126853041089
 30
0.0
  0
VERTEX
  5
255
330
1EA
100
AcDbEntity
  8
Make2D$可见线$普通线
100
AcDbVertex
100
AcDb2dVertex
 10
109.0086645092339
 20
773.6084773784687
 30
0.0
  0
VERTEX
  5
256
330
1EA
100
AcDbEntity
  8
Make2D$可见线$普通线
100
AcDbVertex
100
AcDb2dVertex
 10
108.9980159135013
 20
773.6042697685807
 30
0.0
  0
VERTEX
  5
257
330
1EA
100
AcDbEntity
  8
Make2D$可见线$普通线
100
AcDbVertex
100
AcDb2dVertex
 10
108.9748831033941
 20
773.5958552442286
 30
0.0
  0
VERTEX
  5
258
330
1EA
100
AcDbEntity
  8
Make2D$可见线$普通线
100
AcDbVertex
100
AcDb2dVertex
 10
108.9493067449319
 20
773.5874412273872
 30
0.0
  0
VERTEX
  5
259
330
1EA
100
AcDbEntity
  8
Make2D$可见线$普通线
100
AcDbVertex
100
AcDb2dVertex
 10
108.9212915699157
 20
773.5790272143914
 30
0.0
  0
VERTEX
  5
25A
330
1EA
100
AcDbEntity
  8
Make2D$可见线$普通线
100
AcDbVertex
100
AcDb2dVertex
 10
108.8908423101464
 20
773.5706127015758
 30
0.0
  0
VERTEX
  5
25B
330
1EA
100
AcDbEntity
  8
Make2D$可见线$普通线
100
AcDbVertex
100
AcDb2dVertex
 10
108.8226604635528
 20
773.5537801618249
 30
0.0
  0
VERTEX
  5
25C
330
1EA
100
AcDbEntity
  8
Make2D$可见线$普通线
100
AcDbVertex
100
AcDb2dVertex
 10
108.744799059559
 20
773.5369395788127
 30
0.0
  0
VERTEX
  5
25D
330
1EA
100
AcDbEntity
  8
Make2D$可见线$普通线
100
AcDbVertex
100
AcDb2dVertex
 10
108.6572959525731
 20
773.5200869232181
 30
0.0
  0
VERTEX
  5
25E
330
1EA
100
AcDbEntity
  8
Make2D$可见线$普通线
100
AcDbVertex
100
AcDb2dVertex
 10
108.4002175431017
 20
773.4793112130831
 30
0.0
  0
VERTEX
  5
25F
330
1EA
100
AcDbEntity
  8
Make2D$可见线$普通线
100
AcDbVertex
100
AcDb2dVertex
 10
108.1423900797384
 20
773.443258059159
 30
0.0
  0
VERTEX
  5
260
330
1EA
100
AcDbEntity
  8
Make2D$可见线$普通线
100
AcDbVertex
100
AcDb2dVertex
 10
107.8839438718198
 20
773.4119469048405
 30
0.0
  0
VERTEX
  5
261
330
1EA
100
AcDbEntity
  8
Make2D$可见线$普通线
100
AcDbVertex
100
AcDb2dVertex
 10
107.625009854877
 20
773.3853923944288
 30
0.0
 42
-0.0090426891623813
  0
VERTEX
  5
262
330
1EA
100
AcDbEntity
  8
Make2D$可见线$普通线
100
AcDbVertex
100
AcDb2dVertex
 10
103.6652321731921
 20
773.0941789251686
 30
0.0
  0
SEQEND
  5
263
330
1EA
100
AcDbEntity
  8
Make2D$可见线$普通线
  0
LINE
  5
264
330
1F
100
AcDbEntity
  8
Make2D$可见线$普通线
100
AcDbLine
 10
103.5248699709943
 20
773.0858479360355
 30
0.0
 11
99.75860227092721
 21
773.0858479360355
 31
0.0
  0
POLYLINE
  5
265
330
1F
100
AcDbEntity
  8
Make2D$可见线$普通线
100
AcDb2dPolyline
 66
     1
 10
0.0
 20
0.0
 30
0.0
  0
VERTEX
  5
266
330
265
100
AcDbEntity
  8
Make2D$可见线$普通线
100
AcDbVertex
100
AcDb2dVertex
 10
98.60288622049075
 20
779.7158079469882
 30
0.0
  0
VERTEX
  5
267
330
265
100
AcDbEntity
  8
Make2D$可见线$普通线
100
AcDbVertex
100
AcDb2dVertex
 10
98.57141105590219
 20
779.7141663362825
 30
0.0
  0
VERTEX
  5
268
330
265
100
AcDbEntity
  8
Make2D$可见线$普通线
100
AcDbVertex
100
AcDb2dVertex
 10
93.65576217620276
 20
779.4474176685604
 30
0.0
  0
VERTEX
  5
269
330
265
100
AcDbEntity
  8
Make2D$可见线$普通线
100
AcDbVertex
100
AcDb2dVertex
 10
91.12976308399749
 20
779.2830885966264
 30
0.0
  0
VERTEX
  5
26A
330
265
100
AcDbEntity
  8
Make2D$可见线$普通线
100
AcDbVertex
100
AcDb2dVertex
 10
89.8498328913779
 20
779.178014544462
 30
0.0
  0
VERTEX
  5
26B
330
265
100
AcDbEntity
  8
Make2D$可见线$普通线
100
AcDbVertex
100
AcDb2dVertex
 10
89.26413105188213
 20
779.1187995914167
 30
0.0
  0
VERTEX
  5
26C
330
265
100
AcDbEntity
  8
Make2D$可见线$普通线
100
AcDbVertex
100
AcDb2dVertex
 10
88.68030031672043
 20
779.0433361689303
 30
0.0
 42
0.0632453048067833
  0
VERTEX
  5
26D
330
265
100
AcDbEntity
  8
Make2D$可见线$普通线
100
AcDbVertex
100
AcDb2dVertex
 10
88.1032709086292
 20
778.9086208118939
 30
0.0
 42
0.2649485625963899
  0
VERTEX
  5
26E
330
265
100
AcDbEntity
  8
Make2D$可见线$普通线
100
AcDbVertex
100
AcDb2dVertex
 10
88.04733156762838
 20
778.8520038001387
 30
0.0
  0
SEQEND
  5
26F
330
265
100
AcDbEntity
  8
Make2D$可见线$普通线
  0
POLYLINE
  5
270
330
1F
100
AcDbEntity
  8
Make2D$可见线$普通线
100
AcDb2dPolyline
 66
     1
 10
0.0
 20
0.0
 30
0.0
  0
VERTEX
  5
271
330
270
100
AcDbEntity
  8
Make2D$可见线$普通线
100
AcDbVertex
100
AcDb2dVertex
 10
108.5618275357272
 20
777.3032213619308
 30
0.0
  0
VERTEX
  5
272
330
270
100
AcDbEntity
  8
Make2D$可见线$普通线
100
AcDbVertex
100
AcDb2dVertex
 10
108.7176300206781
 20
777.2752052230305
 30
0.0
  0
VERTEX
  5
273
330
270
100
AcDbEntity
  8
Make2D$可见线$普通线
100
AcDbVertex
100
AcDb2dVertex
 10
108.7986058989834
 20
777.2583610480021
 30
0.0
  0
VERTEX
  5
274
330
270
100
AcDbEntity
  8
Make2D$可见线$普通线
100
AcDbVertex
100
AcDb2dVertex
 10
108.8699192855184
 20
777.2415249492362
 30
0.0
  0
VERTEX
  5
275
330
270
100
AcDbEntity
  8
Make2D$可见线$普通线
100
AcDbVertex
100
AcDb2dVertex
 10
108.901940013578
 20
777.2331086645588
 30
0.0
  0
VERTEX
  5
276
330
270
100
AcDbEntity
  8
Make2D$可见线$普通线
100
AcDbVertex
100
AcDb2dVertex
 10
108.9315300817421
 20
777.2246928822753
 30
0.0
  0
VERTEX
  5
277
330
270
100
AcDbEntity
  8
Make2D$可见线$普通线
100
AcDbVertex
100
AcDb2dVertex
 10
108.9586844776931
 20
777.2162770968287
 30
0.0
  0
VERTEX
  5
278
330
270
100
AcDbEntity
  8
Make2D$可见线$普通线
100
AcDbVertex
100
AcDb2dVertex
 10
108.9833981891133
 20
777.2078608026612
 30
0.0
  0
VERTEX
  5
279
330
270
100
AcDbEntity
  8
Make2D$可见线$普通线
100
AcDbVertex
100
AcDb2dVertex
 10
108.9948382217751
 20
777.2036523068207
 30
0.0
  0
VERTEX
  5
27A
330
270
100
AcDbEntity
  8
Make2D$可见线$普通线
100
AcDbVertex
100
AcDb2dVertex
 10
109.0056662036851
 20
777.199443494216
 30
0.0
  0
VERTEX
  5
27B
330
270
100
AcDbEntity
  8
Make2D$可见线$普通线
100
AcDbVertex
100
AcDb2dVertex
 10
109.0158815083036
 20
777.1952343016526
 30
0.0
  0
VERTEX
  5
27C
330
270
100
AcDbEntity
  8
Make2D$可见线$普通线
100
AcDbVertex
100
AcDb2dVertex
 10
109.0254835090908
 20
777.1910246659357
 30
0.0
  0
VERTEX
  5
27D
330
270
100
AcDbEntity
  8
Make2D$可见线$普通线
100
AcDbVertex
100
AcDb2dVertex
 10
109.0344715795072
 20
777.1868145238708
 30
0.0
  0
VERTEX
  5
27E
330
270
100
AcDbEntity
  8
Make2D$可见线$普通线
100
AcDbVertex
100
AcDb2dVertex
 10
109.0428450930129
 20
777.1826038122631
 30
0.0
  0
VERTEX
  5
27F
330
270
100
AcDbEntity
  8
Make2D$可见线$普通线
100
AcDbVertex
100
AcDb2dVertex
 10
109.0506034230683
 20
777.178392467918
 30
0.0
  0
VERTEX
  5
280
330
270
100
AcDbEntity
  8
Make2D$可见线$普通线
100
AcDbVertex
100
AcDb2dVertex
 10
109.0542516985084
 20
777.1762865387207
 30
0.0
  0
VERTEX
  5
281
330
270
100
AcDbEntity
  8
Make2D$可见线$普通线
100
AcDbVertex
100
AcDb2dVertex
 10
109.0577459431336
 20
777.174180427641
 30
0.0
  0
VERTEX
  5
282
330
270
100
AcDbEntity
  8
Make2D$可见线$普通线
100
AcDbVertex
100
AcDb2dVertex
 10
109.0610860786263
 20
777.1720741267795
 30
0.0
  0
VERTEX
  5
283
330
270
100
AcDbEntity
  8
Make2D$可见线$普通线
100
AcDbVertex
100
AcDb2dVertex
 10
109.0642720266692
 20
777.1699676282371
 30
0.0
  0
VERTEX
  5
284
330
270
100
AcDbEntity
  8
Make2D$可见线$普通线
100
AcDbVertex
100
AcDb2dVertex
 10
109.0673037089447
 20
777.1678609241144
 30
0.0
  0
VERTEX
  5
285
330
270
100
AcDbEntity
  8
Make2D$可见线$普通线
100
AcDbVertex
100
AcDb2dVertex
 10
109.0701810471353
 20
777.165754006512
 30
0.0
  0
VERTEX
  5
286
330
270
100
AcDbEntity
  8
Make2D$可见线$普通线
100
AcDbVertex
100
AcDb2dVertex
 10
109.0729039629237
 20
777.1636468675306
 30
0.0
  0
VERTEX
  5
287
330
270
100
AcDbEntity
  8
Make2D$可见线$普通线
100
AcDbVertex
100
AcDb2dVertex
 10
109.0754723779924
 20
777.1615394992708
 30
0.0
  0
VERTEX
  5
288
330
270
100
AcDbEntity
  8
Make2D$可见线$普通线
100
AcDbVertex
100
AcDb2dVertex
 10
109.0778862140238
 20
777.1594318938335
 30
0.0
  0
VERTEX
  5
289
330
270
100
AcDbEntity
  8
Make2D$可见线$普通线
100
AcDbVertex
100
AcDb2dVertex
 10
109.0801453927005
 20
777.157324043319
 30
0.0
  0
VERTEX
  5
28A
330
270
100
AcDbEntity
  8
Make2D$可见线$普通线
100
AcDbVertex
100
AcDb2dVertex
 10
109.0820032872176
 20
777.1554711809522
 30
0.0
  0
VERTEX
  5
28B
330
270
100
AcDbEntity
  8
Make2D$可见线$普通线
100
AcDbVertex
100
AcDb2dVertex
 10
109.0837413769846
 20
777.1536183556361
 30
0.0
  0
VERTEX
  5
28C
330
270
100
AcDbEntity
  8
Make2D$可见线$普通线
100
AcDbVertex
100
AcDb2dVertex
 10
109.0845654925251
 20
777.1526919553012
 30
0.0
  0
VERTEX
  5
28D
330
270
100
AcDbEntity
  8
Make2D$可见线$普通线
100
AcDbVertex
100
AcDb2dVertex
 10
109.0853596538039
 20
777.151765562344
 30
0.0
  0
VERTEX
  5
28E
330
270
100
AcDbEntity
  8
Make2D$可见线$普通线
100
AcDbVertex
100
AcDb2dVertex
 10
109.0861238597962
 20
777.1508391761361
 30
0.0
  0
VERTEX
  5
28F
330
270
100
AcDbEntity
  8
Make2D$可见线$普通线
100
AcDbVertex
100
AcDb2dVertex
 10
109.0868581094773
 20
777.149912796049
 30
0.0
  0
VERTEX
  5
290
330
270
100
AcDbEntity
  8
Make2D$可见线$普通线
100
AcDbVertex
100
AcDb2dVertex
 10
109.0875624018226
 20
777.1489864214543
 30
0.0
  0
VERTEX
  5
291
330
270
100
AcDbEntity
  8
Make2D$可见线$普通线
100
AcDbVertex
100
AcDb2dVertex
 10
109.0882367358072
 20
777.1480600517236
 30
0.0
  0
VERTEX
  5
292
330
270
100
AcDbEntity
  8
Make2D$可见线$普通线
100
AcDbVertex
100
AcDb2dVertex
 10
109.0888811104065
 20
777.1471336862287
 30
0.0
  0
VERTEX
  5
293
330
270
100
AcDbEntity
  8
Make2D$可见线$普通线
100
AcDbVertex
100
AcDb2dVertex
 10
109.0894955245957
 20
777.146207324341
 30
0.0
  0
VERTEX
  5
294
330
270
100
AcDbEntity
  8
Make2D$可见线$普通线
100
AcDbVertex
100
AcDb2dVertex
 10
109.0900799773501
 20
777.1452809654324
 30
0.0
  0
VERTEX
  5
295
330
270
100
AcDbEntity
  8
Make2D$可见线$普通线
100
AcDbVertex
100
AcDb2dVertex
 10
109.0906344676449
 20
777.1443546088743
 30
0.0
  0
VERTEX
  5
296
330
270
100
AcDbEntity
  8
Make2D$可见线$普通线
100
AcDbVertex
100
AcDb2dVertex
 10
109.0911589944555
 20
777.1434282540383
 30
0.0
  0
VERTEX
  5
297
330
270
100
AcDbEntity
  8
Make2D$可见线$普通线
100
AcDbVertex
100
AcDb2dVertex
 10
109.0916535567571
 20
777.1425019002961
 30
0.0
  0
VERTEX
  5
298
330
270
100
AcDbEntity
  8
Make2D$可见线$普通线
100
AcDbVertex
100
AcDb2dVertex
 10
109.0921181535249
 20
777.1415755470194
 30
0.0
  0
VERTEX
  5
299
330
270
100
AcDbEntity
  8
Make2D$可见线$普通线
100
AcDbVertex
100
AcDb2dVertex
 10
109.0925527837342
 20
777.1406491935797
 30
0.0
  0
VERTEX
  5
29A
330
270
100
AcDbEntity
  8
Make2D$可见线$普通线
100
AcDbVertex
100
AcDb2dVertex
 10
109.0929574463603
 20
777.1397228393486
 30
0.0
  0
VERTEX
  5
29B
330
270
100
AcDbEntity
  8
Make2D$可见线$普通线
100
AcDbVertex
100
AcDb2dVertex
 10
109.0933321403785
 20
777.1387964836978
 30
0.0
  0
VERTEX
  5
29C
330
270
100
AcDbEntity
  8
Make2D$可见线$普通线
100
AcDbVertex
100
AcDb2dVertex
 10
109.093676864764
 20
777.1378701259989
 30
0.0
  0
VERTEX
  5
29D
330
270
100
AcDbEntity
  8
Make2D$可见线$普通线
100
AcDbVertex
100
AcDb2dVertex
 10
109.0939916184921
 20
777.1369437656235
 30
0.0
  0
VERTEX
  5
29E
330
270
100
AcDbEntity
  8
Make2D$可见线$普通线
100
AcDbVertex
100
AcDb2dVertex
 10
109.0942764005381
 20
777.1360174019433
 30
0.0
  0
VERTEX
  5
29F
330
270
100
AcDbEntity
  8
Make2D$可见线$普通线
100
AcDbVertex
100
AcDb2dVertex
 10
109.0945312098773
 20
777.1350910343297
 30
0.0
  0
VERTEX
  5
2A0
330
270
100
AcDbEntity
  8
Make2D$可见线$普通线
100
AcDbVertex
100
AcDb2dVertex
 10
109.0947560454848
 20
777.1341646621545
 30
0.0
  0
VERTEX
  5
2A1
330
270
100
AcDbEntity
  8
Make2D$可见线$普通线
100
AcDbVertex
100
AcDb2dVertex
 10
109.0949509063361
 20
777.1332382847893
 30
0.0
  0
VERTEX
  5
2A2
330
270
100
AcDbEntity
  8
Make2D$可见线$普通线
100
AcDbVertex
100
AcDb2dVertex
 10
109.0951157914062
 20
777.1323119016058
 30
0.0
  0
VERTEX
  5
2A3
330
270
100
AcDbEntity
  8
Make2D$可见线$普通线
100
AcDbVertex
100
AcDb2dVertex
 10
109.0952506996706
 20
777.1313855119755
 30
0.0
  0
VERTEX
  5
2A4
330
270
100
AcDbEntity
  8
Make2D$可见线$普通线
100
AcDbVertex
100
AcDb2dVertex
 10
109.0953556301045
 20
777.13045911527
 30
0.0
  0
VERTEX
  5
2A5
330
270
100
AcDbEntity
  8
Make2D$可见线$普通线
100
AcDbVertex
100
AcDb2dVertex
 10
109.0954305816831
 20
777.129532710861
 30
0.0
  0
VERTEX
  5
2A6
330
270
100
AcDbEntity
  8
Make2D$可见线$普通线
100
AcDbVertex
100
AcDb2dVertex
 10
109.0954755533817
 20
777.1286062981201
 30
0.0
  0
VERTEX
  5
2A7
330
270
100
AcDbEntity
  8
Make2D$可见线$普通线
100
AcDbVertex
100
AcDb2dVertex
 10
109.0954905441757
 20
777.1276798764188
 30
0.0
  0
VERTEX
  5
2A8
330
270
100
AcDbEntity
  8
Make2D$可见线$普通线
100
AcDbVertex
100
AcDb2dVertex
 10
109.0954787588701
 20
777.126858452155
 30
0.0
  0
VERTEX
  5
2A9
330
270
100
AcDbEntity
  8
Make2D$可见线$普通线
100
AcDbVertex
100
AcDb2dVertex
 10
109.095443404635
 20
777.1260370574646
 30
0.0
  0
VERTEX
  5
2AA
330
270
100
AcDbEntity
  8
Make2D$可见线$普通线
100
AcDbVertex
100
AcDb2dVertex
 10
109.095384483993
 20
777.1252156918777
 30
0.0
  0
VERTEX
  5
2AB
330
270
100
AcDbEntity
  8
Make2D$可见线$普通线
100
AcDbVertex
100
AcDb2dVertex
 10
109.0953019994668
 20
777.1243943549246
 30
0.0
  0
VERTEX
  5
2AC
330
270
100
AcDbEntity
  8
Make2D$可见线$普通线
100
AcDbVertex
100
AcDb2dVertex
 10
109.0951959535788
 20
777.1235730461356
 30
0.0
  0
VERTEX
  5
2AD
330
270
100
AcDbEntity
  8
Make2D$可见线$普通线
100
AcDbVertex
100
AcDb2dVertex
 10
109.0950663488516
 20
777.1227517650406
 30
0.0
  0
VERTEX
  5
2AE
330
270
100
AcDbEntity
  8
Make2D$可见线$普通线
100
AcDbVertex
100
AcDb2dVertex
 10
109.0949131878079
 20
777.1219305111699
 30
0.0
  0
VERTEX
  5
2AF
330
270
100
AcDbEntity
  8
Make2D$可见线$普通线
100
AcDbVertex
100
AcDb2dVertex
 10
109.0947364729702
 20
777.1211092840537
 30
0.0
  0
VERTEX
  5
2B0
330
270
100
AcDbEntity
  8
Make2D$可见线$普通线
100
AcDbVertex
100
AcDb2dVertex
 10
109.0945362068611
 20
777.1202880832221
 30
0.0
  0
VERTEX
  5
2B1
330
270
100
AcDbEntity
  8
Make2D$可见线$普通线
100
AcDbVertex
100
AcDb2dVertex
 10
109.0943123920032
 20
777.1194669082054
 30
0.0
  0
VERTEX
  5
2B2
330
270
100
AcDbEntity
  8
Make2D$可见线$普通线
100
AcDbVertex
100
AcDb2dVertex
 10
109.0940650309191
 20
777.1186457585337
 30
0.0
  0
VERTEX
  5
2B3
330
270
100
AcDbEntity
  8
Make2D$可见线$普通线
100
AcDbVertex
100
AcDb2dVertex
 10
109.0937941261313
 20
777.1178246337371
 30
0.0
  0
VERTEX
  5
2B4
330
270
100
AcDbEntity
  8
Make2D$可见线$普通线
100
AcDbVertex
100
AcDb2dVertex
 10
109.0934996801625
 20
777.1170035333457
 30
0.0
  0
VERTEX
  5
2B5
330
270
100
AcDbEntity
  8
Make2D$可见线$普通线
100
AcDbVertex
100
AcDb2dVertex
 10
109.0931816955352
 20
777.1161824568901
 30
0.0
  0
VERTEX
  5
2B6
330
270
100
AcDbEntity
  8
Make2D$可见线$普通线
100
AcDbVertex
100
AcDb2dVertex
 10
109.0928401747719
 20
777.1153614039001
 30
0.0
  0
VERTEX
  5
2B7
330
270
100
AcDbEntity
  8
Make2D$可见线$普通线
100
AcDbVertex
100
AcDb2dVertex
 10
109.0924751203954
 20
777.114540373906
 30
0.0
  0
VERTEX
  5
2B8
330
270
100
AcDbEntity
  8
Make2D$可见线$普通线
100
AcDbVertex
100
AcDb2dVertex
 10
109.0920865349281
 20
777.1137193664379
 30
0.0
  0
VERTEX
  5
2B9
330
270
100
AcDbEntity
  8
Make2D$可见线$普通线
100
AcDbVertex
100
AcDb2dVertex
 10
109.0916744208927
 20
777.1128983810261
 30
0.0
  0
VERTEX
  5
2BA
330
270
100
AcDbEntity
  8
Make2D$可见线$普通线
100
AcDbVertex
100
AcDb2dVertex
 10
109.0912387808118
 20
777.1120774172005
 30
0.0
  0
VERTEX
  5
2BB
330
270
100
AcDbEntity
  8
Make2D$可见线$普通线
100
AcDbVertex
100
AcDb2dVertex
 10
109.0907796172078
 20
777.1112564744915
 30
0.0
  0
VERTEX
  5
2BC
330
270
100
AcDbEntity
  8
Make2D$可见线$普通线
100
AcDbVertex
100
AcDb2dVertex
 10
109.0902969326034
 20
777.1104355524292
 30
0.0
  0
VERTEX
  5
2BD
330
270
100
AcDbEntity
  8
Make2D$可见线$普通线
100
AcDbVertex
100
AcDb2dVertex
 10
109.0897907295212
 20
777.109614650544
 30
0.0
  0
VERTEX
  5
2BE
330
270
100
AcDbEntity
  8
Make2D$可见线$普通线
100
AcDbVertex
100
AcDb2dVertex
 10
109.0892610104838
 20
777.1087937683658
 30
0.0
  0
VERTEX
  5
2BF
330
270
100
AcDbEntity
  8
Make2D$可见线$普通线
100
AcDbVertex
100
AcDb2dVertex
 10
109.0887077780137
 20
777.1079729054248
 30
0.0
  0
VERTEX
  5
2C0
330
270
100
AcDbEntity
  8
Make2D$可见线$普通线
100
AcDbVertex
100
AcDb2dVertex
 10
109.0881310346336
 20
777.1071520612513
 30
0.0
  0
VERTEX
  5
2C1
330
270
100
AcDbEntity
  8
Make2D$可见线$普通线
100
AcDbVertex
100
AcDb2dVertex
 10
109.0875307828659
 20
777.1063312353754
 30
0.0
  0
VERTEX
  5
2C2
330
270
100
AcDbEntity
  8
Make2D$可见线$普通线
100
AcDbVertex
100
AcDb2dVertex
 10
109.0869070252334
 20
777.1055104273271
 30
0.0
  0
VERTEX
  5
2C3
330
270
100
AcDbEntity
  8
Make2D$可见线$普通线
100
AcDbVertex
100
AcDb2dVertex
 10
109.0862597642586
 20
777.1046896366369
 30
0.0
  0
VERTEX
  5
2C4
330
270
100
AcDbEntity
  8
Make2D$可见线$普通线
100
AcDbVertex
100
AcDb2dVertex
 10
109.0848947423722
 20
777.1030481054509
 30
0.0
  0
VERTEX
  5
2C5
330
270
100
AcDbEntity
  8
Make2D$可见线$普通线
100
AcDbVertex
100
AcDb2dVertex
 10
109.0834357373876
 20
777.1014066380587
 30
0.0
  0
VERTEX
  5
2C6
330
270
100
AcDbEntity
  8
Make2D$可见线$普通线
100
AcDbVertex
100
AcDb2dVertex
 10
109.0818827694853
 20
777.0997652307018
 30
0.0
  0
VERTEX
  5
2C7
330
270
100
AcDbEntity
  8
Make2D$可见线$普通线
100
AcDbVertex
100
AcDb2dVertex
 10
109.0802358588461
 20
777.0981238796217
 30
0.0
  0
VERTEX
  5
2C8
330
270
100
AcDbEntity
  8
Make2D$可见线$普通线
100
AcDbVertex
100
AcDb2dVertex
 10
109.0784950256505
 20
777.0964825810595
 30
0.0
  0
VERTEX
  5
2C9
330
270
100
AcDbEntity
  8
Make2D$可见线$普通线
100
AcDbVertex
100
AcDb2dVertex
 10
109.0766602900794
 20
777.0948413312566
 30
0.0
  0
VERTEX
  5
2CA
330
270
100
AcDbEntity
  8
Make2D$可见线$普通线
100
AcDbVertex
100
AcDb2dVertex
 10
109.0747316723132
 20
777.0932001264546
 30
0.0
  0
VERTEX
  5
2CB
330
270
100
AcDbEntity
  8
Make2D$可见线$普通线
100
AcDbVertex
100
AcDb2dVertex
 10
109.0727091925328
 20
777.0915589628946
 30
0.0
  0
VERTEX
  5
2CC
330
270
100
AcDbEntity
  8
Make2D$可见线$普通线
100
AcDbVertex
100
AcDb2dVertex
 10
109.0705928709187
 20
777.0899178368184
 30
0.0
  0
VERTEX
  5
2CD
330
270
100
AcDbEntity
  8
Make2D$可见线$普通线
100
AcDbVertex
100
AcDb2dVertex
 10
109.0683827276516
 20
777.0882767444671
 30
0.0
  0
VERTEX
  5
2CE
330
270
100
AcDbEntity
  8
Make2D$可见线$普通线
100
AcDbVertex
100
AcDb2dVertex
 10
109.0660787829122
 20
777.0866356820821
 30
0.0
  0
VERTEX
  5
2CF
330
270
100
AcDbEntity
  8
Make2D$可见线$普通线
100
AcDbVertex
100
AcDb2dVertex
 10
109.0636810568812
 20
777.0849946459049
 30
0.0
  0
VERTEX
  5
2D0
330
270
100
AcDbEntity
  8
Make2D$可见线$普通线
100
AcDbVertex
100
AcDb2dVertex
 10
109.0586043416667
 20
777.0817126371389
 30
0.0
  0
VERTEX
  5
2D1
330
270
100
AcDbEntity
  8
Make2D$可见线$普通线
100
AcDbVertex
100
AcDb2dVertex
 10
109.0531527434536
 20
777.0784306881008
 30
0.0
  0
VERTEX
  5
2D2
330
270
100
AcDbEntity
  8
Make2D$可见线$普通线
100
AcDbVertex
100
AcDb2dVertex
 10
109.0473264236871
 20
777.0751487687212
 30
0.0
  0
VERTEX
  5
2D3
330
270
100
AcDbEntity
  8
Make2D$可见线$普通线
100
AcDbVertex
100
AcDb2dVertex
 10
109.0411255438125
 20
777.0718668489314
 30
0.0
  0
VERTEX
  5
2D4
330
270
100
AcDbEntity
  8
Make2D$可见线$普通线
100
AcDbVertex
100
AcDb2dVertex
 10
109.0345502652751
 20
777.0685848986625
 30
0.0
  0
VERTEX
  5
2D5
330
270
100
AcDbEntity
  8
Make2D$可见线$普通线
100
AcDbVertex
100
AcDb2dVertex
 10
109.0276007495203
 20
777.0653028878455
 30
0.0
  0
VERTEX
  5
2D6
330
270
100
AcDbEntity
  8
Make2D$可见线$普通线
100
AcDbVertex
100
AcDb2dVertex
 10
109.0202771579933
 20
777.0620207864117
 30
0.0
  0
VERTEX
  5
2D7
330
270
100
AcDbEntity
  8
Make2D$可见线$普通线
100
AcDbVertex
100
AcDb2dVertex
 10
109.004508393404
 20
777.0554561914175
 30
0.0
  0
VERTEX
  5
2D8
330
270
100
AcDbEntity
  8
Make2D$可见线$普通线
100
AcDbVertex
100
AcDb2dVertex
 10
108.9872452630698
 20
777.0488908731288
 30
0.0
  0
VERTEX
  5
2D9
330
270
100
AcDbEntity
  8
Make2D$可见线$普通线
100
AcDbVertex
100
AcDb2dVertex
 10
108.968489058553
 20
777.0423245909942
 30
0.0
  0
VERTEX
  5
2DA
330
270
100
AcDbEntity
  8
Make2D$可见线$普通线
100
AcDbVertex
100
AcDb2dVertex
 10
108.948241071416
 20
777.0357571044626
 30
0.0
  0
VERTEX
  5
2DB
330
270
100
AcDbEntity
  8
Make2D$可见线$普通线
100
AcDbVertex
100
AcDb2dVertex
 10
108.9265025932214
 20
777.0291881729827
 30
0.0
  0
VERTEX
  5
2DC
330
270
100
AcDbEntity
  8
Make2D$可见线$普通线
100
AcDbVertex
100
AcDb2dVertex
 10
108.9032749155315
 20
777.0226175560033
 30
0.0
 42
-0.0321912102658267
  0
VERTEX
  5
2DD
330
270
100
AcDbEntity
  8
Make2D$可见线$普通线
100
AcDbVertex
100
AcDb2dVertex
 10
108.1073371621438
 20
776.8879283577296
 30
0.0
  0
VERTEX
  5
2DE
330
270
100
AcDbEntity
  8
Make2D$可见线$普通线
100
AcDbVertex
100
AcDb2dVertex
 10
107.4241998626967
 20
776.8139659110138
 30
0.0
  0
VERTEX
  5
2DF
330
270
100
AcDbEntity
  8
Make2D$可见线$普通线
100
AcDbVertex
100
AcDb2dVertex
 10
106.0130590278065
 20
776.6965991503257
 30
0.0
  0
VERTEX
  5
2E0
330
270
100
AcDbEntity
  8
Make2D$可见线$普通线
100
AcDbVertex
100
AcDb2dVertex
 10
104.8825367605536
 20
776.6184995761731
 30
0.0
  0
VERTEX
  5
2E1
330
270
100
AcDbEntity
  8
Make2D$可见线$普通线
100
AcDbVertex
100
AcDb2dVertex
 10
102.6466768228026
 20
776.4837636779946
 30
0.0
  0
VERTEX
  5
2E2
330
270
100
AcDbEntity
  8
Make2D$可见线$普通线
100
AcDbVertex
100
AcDb2dVertex
 10
95.0750878221296
 20
776.0796384409667
 30
0.0
  0
VERTEX
  5
2E3
330
270
100
AcDbEntity
  8
Make2D$可见线$普通线
100
AcDbVertex
100
AcDb2dVertex
 10
92.7682027054613
 20
775.9449402581124
 30
0.0
  0
VERTEX
  5
2E4
330
270
100
AcDbEntity
  8
Make2D$可见线$普通线
100
AcDbVertex
100
AcDb2dVertex
 10
90.80854128739094
 20
775.8102011830762
 30
0.0
  0
VERTEX
  5
2E5
330
270
100
AcDbEntity
  8
Make2D$可见线$普通线
100
AcDbVertex
100
AcDb2dVertex
 10
90.0610579116346
 20
775.7486565072311
 30
0.0
  0
VERTEX
  5
2E6
330
270
100
AcDbEntity
  8
Make2D$可见线$普通线
100
AcDbVertex
100
AcDb2dVertex
 10
89.31462228338154
 20
775.6754923286234
 30
0.0
 42
0.0225889604088697
  0
VERTEX
  5
2E7
330
270
100
AcDbEntity
  8
Make2D$可见线$普通线
100
AcDbVertex
100
AcDb2dVertex
 10
88.37556801491797
 20
775.5407977998341
 30
0.0
  0
VERTEX
  5
2E8
330
270
100
AcDbEntity
  8
Make2D$可见线$普通线
100
AcDbVertex
100
AcDb2dVertex
 10
88.30030497063017
 20
775.5239429775085
 30
0.0
  0
VERTEX
  5
2E9
330
270
100
AcDbEntity
  8
Make2D$可见线$普通线
100
AcDbVertex
100
AcDb2dVertex
 10
88.26631946066112
 20
775.5155203611049
 30
0.0
  0
VERTEX
  5
2EA
330
270
100
AcDbEntity
  8
Make2D$可见线$普通线
100
AcDbVertex
100
AcDb2dVertex
 10
88.23476946398097
 20
775.5071002675924
 30
0.0
  0
VERTEX
  5
2EB
330
270
100
AcDbEntity
  8
Make2D$可见线$普通线
100
AcDbVertex
100
AcDb2dVertex
 10
88.20565860946893
 20
775.4986821917598
 30
0.0
  0
VERTEX
  5
2EC
330
270
100
AcDbEntity
  8
Make2D$可见线$普通线
100
AcDbVertex
100
AcDb2dVertex
 10
88.17899052600421
 20
775.490265628396
 30
0.0
  0
VERTEX
  5
2ED
330
270
100
AcDbEntity
  8
Make2D$可见线$普通线
100
AcDbVertex
100
AcDb2dVertex
 10
88.15476884246605
 20
775.4818500722897
 30
0.0
  0
VERTEX
  5
2EE
330
270
100
AcDbEntity
  8
Make2D$可见线$普通线
100
AcDbVertex
100
AcDb2dVertex
 10
88.1435765346942
 20
775.4776425140797
 30
0.0
  0
VERTEX
  5
2EF
330
270
100
AcDbEntity
  8
Make2D$可见线$普通线
100
AcDbVertex
100
AcDb2dVertex
 10
88.1329971877337
 20
775.4734350182298
 30
0.0
  0
VERTEX
  5
2F0
330
270
100
AcDbEntity
  8
Make2D$可见线$普通线
100
AcDbVertex
100
AcDb2dVertex
 10
88.12303125519443
 20
775.4692275215887
 30
0.0
  0
VERTEX
  5
2F1
330
270
100
AcDbEntity
  8
Make2D$可见线$普通线
100
AcDbVertex
100
AcDb2dVertex
 10
88.11367919068634
 20
775.4650199610048
 30
0.0
  0
VERTEX
  5
2F2
330
270
100
AcDbEntity
  8
Make2D$可见线$普通线
100
AcDbVertex
100
AcDb2dVertex
 10
88.1049414478193
 20
775.4608122733271
 30
0.0
  0
VERTEX
  5
2F3
330
270
100
AcDbEntity
  8
Make2D$可见线$普通线
100
AcDbVertex
100
AcDb2dVertex
 10
88.09681848020321
 20
775.4566043954038
 30
0.0
  0
VERTEX
  5
2F4
330
270
100
AcDbEntity
  8
Make2D$可见线$普通线
100
AcDbVertex
100
AcDb2dVertex
 10
88.09298767886739
 20
775.4545003653653
 30
0.0
  0
VERTEX
  5
2F5
330
270
100
AcDbEntity
  8
Make2D$可见线$普通线
100
AcDbVertex
100
AcDb2dVertex
 10
88.089310741448
 20
775.4523962640837
 30
0.0
  0
VERTEX
  5
2F6
330
270
100
AcDbEntity
  8
Make2D$可见线$普通线
100
AcDbVertex
100
AcDb2dVertex
 10
88.08578772464631
 20
775.450292083665
 30
0.0
  0
VERTEX
  5
2F7
330
270
100
AcDbEntity
  8
Make2D$可见线$普通线
100
AcDbVertex
100
AcDb2dVertex
 10
88.08241868516357
 20
775.4481878162153
 30
0.0
  0
VERTEX
  5
2F8
330
270
100
AcDbEntity
  8
Make2D$可见线$普通线
100
AcDbVertex
100
AcDb2dVertex
 10
88.07920367970101
 20
775.4460834538407
 30
0.0
  0
VERTEX
  5
2F9
330
270
100
AcDbEntity
  8
Make2D$可见线$普通线
100
AcDbVertex
100
AcDb2dVertex
 10
88.07614276495983
 20
775.4439789886474
 30
0.0
  0
VERTEX
  5
2FA
330
270
100
AcDbEntity
  8
Make2D$可见线$普通线
100
AcDbVertex
100
AcDb2dVertex
 10
88.07323599764129
 20
775.4418744127411
 30
0.0
  0
VERTEX
  5
2FB
330
270
100
AcDbEntity
  8
Make2D$可见线$普通线
100
AcDbVertex
100
AcDb2dVertex
 10
88.07048343444663
 20
775.4397697182283
 30
0.0
  0
VERTEX
  5
2FC
330
270
100
AcDbEntity
  8
Make2D$可见线$普通线
100
AcDbVertex
100
AcDb2dVertex
 10
88.0678851320771
 20
775.4376648972147
 30
0.0
  0
VERTEX
  5
2FD
330
270
100
AcDbEntity
  8
Make2D$可见线$普通线
100
AcDbVertex
100
AcDb2dVertex
 10
88.06544114723391
 20
775.4355599418068
 30
0.0
  0
VERTEX
  5
2FE
330
270
100
AcDbEntity
  8
Make2D$可见线$普通线
100
AcDbVertex
100
AcDb2dVertex
 10
88.06315153661834
 20
775.4334548441102
 30
0.0
  0
VERTEX
  5
2FF
330
270
100
AcDbEntity
  8
Make2D$可见线$普通线
100
AcDbVertex
100
AcDb2dVertex
 10
88.06206463936502
 20
775.4324022394369
 30
0.0
  0
VERTEX
  5
300
330
270
100
AcDbEntity
  8
Make2D$可见线$普通线
100
AcDbVertex
100
AcDb2dVertex
 10
88.06101635693159
 20
775.4313495962313
 30
0.0
  0
VERTEX
  5
301
330
270
100
AcDbEntity
  8
Make2D$可见线$普通线
100
AcDbVertex
100
AcDb2dVertex
 10
88.06000669640567
 20
775.4302969135066
 30
0.0
  0
VERTEX
  5
302
330
270
100
AcDbEntity
  8
Make2D$可见线$普通线
100
AcDbVertex
100
AcDb2dVertex
 10
88.05903566487493
 20
775.4292441902761
 30
0.0
  0
VERTEX
  5
303
330
270
100
AcDbEntity
  8
Make2D$可见线$普通线
100
AcDbVertex
100
AcDb2dVertex
 10
88.058103269427
 20
775.428191425553
 30
0.0
  0
VERTEX
  5
304
330
270
100
AcDbEntity
  8
Make2D$可见线$普通线
100
AcDbVertex
100
AcDb2dVertex
 10
88.05720951714956
 20
775.4271386183507
 30
0.0
  0
VERTEX
  5
305
330
270
100
AcDbEntity
  8
Make2D$可见线$普通线
100
AcDbVertex
100
AcDb2dVertex
 10
88.05635441513024
 20
775.4260857676823
 30
0.0
  0
VERTEX
  5
306
330
270
100
AcDbEntity
  8
Make2D$可见线$普通线
100
AcDbVertex
100
AcDb2dVertex
 10
88.05553797045674
 20
775.4250328725611
 30
0.0
  0
VERTEX
  5
307
330
270
100
AcDbEntity
  8
Make2D$可见线$普通线
100
AcDbVertex
100
AcDb2dVertex
 10
88.05476019021668
 20
775.4239799320005
 30
0.0
  0
VERTEX
  5
308
330
270
100
AcDbEntity
  8
Make2D$可见线$普通线
100
AcDbVertex
100
AcDb2dVertex
 10
88.05402108149771
 20
775.4229269450135
 30
0.0
  0
VERTEX
  5
309
330
270
100
AcDbEntity
  8
Make2D$可见线$普通线
100
AcDbVertex
100
AcDb2dVertex
 10
88.05332065138751
 20
775.4218739106135
 30
0.0
  0
VERTEX
  5
30A
330
270
100
AcDbEntity
  8
Make2D$可见线$普通线
100
AcDbVertex
100
AcDb2dVertex
 10
88.0526589069737
 20
775.4208208278137
 30
0.0
  0
VERTEX
  5
30B
330
270
100
AcDbEntity
  8
Make2D$可见线$普通线
100
AcDbVertex
100
AcDb2dVertex
 10
88.05203585534397
 20
775.4197676956276
 30
0.0
  0
VERTEX
  5
30C
330
270
100
AcDbEntity
  8
Make2D$可见线$普通线
100
AcDbVertex
100
AcDb2dVertex
 10
88.05145150358595
 20
775.4187145130682
 30
0.0
  0
VERTEX
  5
30D
330
270
100
AcDbEntity
  8
Make2D$可见线$普通线
100
AcDbVertex
100
AcDb2dVertex
 10
88.0509058587873
 20
775.4176612791488
 30
0.0
  0
VERTEX
  5
30E
330
270
100
AcDbEntity
  8
Make2D$可见线$普通线
100
AcDbVertex
100
AcDb2dVertex
 10
88.0503989280357
 20
775.4166079928826
 30
0.0
  0
VERTEX
  5
30F
330
270
100
AcDbEntity
  8
Make2D$可见线$普通线
100
AcDbVertex
100
AcDb2dVertex
 10
88.04993071841878
 20
775.4155546532832
 30
0.0
  0
VERTEX
  5
310
330
270
100
AcDbEntity
  8
Make2D$可见线$普通线
100
AcDbVertex
100
AcDb2dVertex
 10
88.0495012370242
 20
775.4145012593633
 30
0.0
  0
VERTEX
  5
311
330
270
100
AcDbEntity
  8
Make2D$可见线$普通线
100
AcDbVertex
100
AcDb2dVertex
 10
88.04911049093961
 20
775.4134478101366
 30
0.0
  0
VERTEX
  5
312
330
270
100
AcDbEntity
  8
Make2D$可见线$普通线
100
AcDbVertex
100
AcDb2dVertex
 10
88.04875848725267
 20
775.4123943046163
 30
0.0
  0
VERTEX
  5
313
330
270
100
AcDbEntity
  8
Make2D$可见线$普通线
100
AcDbVertex
100
AcDb2dVertex
 10
88.04844523305103
 20
775.4113407418156
 30
0.0
  0
VERTEX
  5
314
330
270
100
AcDbEntity
  8
Make2D$可见线$普通线
100
AcDbVertex
100
AcDb2dVertex
 10
88.04817073542233
 20
775.4102871207476
 30
0.0
  0
VERTEX
  5
315
330
270
100
AcDbEntity
  8
Make2D$可见线$普通线
100
AcDbVertex
100
AcDb2dVertex
 10
88.04804802253774
 20
775.4097602880552
 30
0.0
  0
VERTEX
  5
316
330
270
100
AcDbEntity
  8
Make2D$可见线$普通线
100
AcDbVertex
100
AcDb2dVertex
 10
88.04793500145426
 20
775.4092334404259
 30
0.0
  0
VERTEX
  5
317
330
270
100
AcDbEntity
  8
Make2D$可见线$普通线
100
AcDbVertex
100
AcDb2dVertex
 10
88.04783167305786
 20
775.4087065777363
 30
0.0
  0
VERTEX
  5
318
330
270
100
AcDbEntity
  8
Make2D$可见线$普通线
100
AcDbVertex
100
AcDb2dVertex
 10
88.04773803823446
 20
775.4081796998634
 30
0.0
  0
VERTEX
  5
319
330
270
100
AcDbEntity
  8
Make2D$可见线$普通线
100
AcDbVertex
100
AcDb2dVertex
 10
88.04765409787007
 20
775.4076528066836
 30
0.0
  0
VERTEX
  5
31A
330
270
100
AcDbEntity
  8
Make2D$可见线$普通线
100
AcDbVertex
100
AcDb2dVertex
 10
88.04757985285059
 20
775.4071258980736
 30
0.0
  0
VERTEX
  5
31B
330
270
100
AcDbEntity
  8
Make2D$可见线$普通线
100
AcDbVertex
100
AcDb2dVertex
 10
88.047515304062
 20
775.4065989739101
 30
0.0
  0
VERTEX
  5
31C
330
270
100
AcDbEntity
  8
Make2D$可见线$普通线
100
AcDbVertex
100
AcDb2dVertex
 10
88.04746045239028
 20
775.4060720340697
 30
0.0
  0
SEQEND
  5
31D
330
270
100
AcDbEntity
  8
Make2D$可见线$普通线
  0
LINE
  5
31E
330
1F
100
AcDbEntity
  8
Make2D$可见线$普通线
100
AcDbLine
 10
98.6234939516205
 20
779.716882765307
 30
0.0
 11
98.57723513363192
 21
780.6038540686848
 31
0.0
  0
LINE
  5
31F
330
1F
100
AcDbEntity
  8
Make2D$可见线$普通线
100
AcDbLine
 10
109.0954901412914
 20
780.6038540686848
 30
0.0
 11
98.57723513363192
 21
780.6038540686848
 31
0.0
  0
LINE
  5
320
330
1F
100
AcDbEntity
  8
Make2D$可见线$普通线
100
AcDbLine
 10
88.6892849205338
 20
780.6037347884396
 30
0.0
 11
98.57141105575292
 21
780.6036574621057
 31
0.0
  0
LINE
  5
321
330
1F
100
AcDbEntity
  8
Make2D$可见线$普通线
100
AcDbLine
 10
98.6234939516205
 20
779.716882765307
 30
0.0
 11
98.60288622049075
 21
779.7158079469912
 31
0.0
  0
LINE
  5
322
330
1F
100
AcDbEntity
  8
Make2D$可见线$普通线
100
AcDbLine
 10
99.75860227092721
 20
773.0858479360355
 30
0.0
 11
89.04801546206977
 21
773.0858479360355
 31
0.0
  0
POLYLINE
  5
323
330
1F
100
AcDbEntity
  8
Make2D$可见线$普通线
100
AcDb2dPolyline
 66
     1
 10
0.0
 20
0.0
 30
0.0
  0
VERTEX
  5
324
330
323
100
AcDbEntity
  8
Make2D$可见线$普通线
100
AcDbVertex
100
AcDb2dVertex
 10
88.57034979307849
 20
773.7836584217831
 30
0.0
 42
-0.0626346931331213
  0
VERTEX
  5
325
330
323
100
AcDbEntity
  8
Make2D$可见线$普通线
100
AcDbVertex
100
AcDb2dVertex
 10
88.10327406820369
 20
773.9008066535564
 30
0.0
 42
-0.2649510125703647
  0
VERTEX
  5
326
330
323
100
AcDbEntity
  8
Make2D$可见线$普通线
100
AcDbVertex
100
AcDb2dVertex
 10
88.04733156762843
 20
773.957425351379
 30
0.0
 42
-0.2643958256436377
  0
VERTEX
  5
327
330
323
100
AcDbEntity
  8
Make2D$可见线$普通线
100
AcDbVertex
100
AcDb2dVertex
 10
88.15376464939493
 20
774.0355512182842
 30
0.0
 42
-0.0455966477336631
  0
VERTEX
  5
328
330
323
100
AcDbEntity
  8
Make2D$可见线$普通线
100
AcDbVertex
100
AcDb2dVertex
 10
88.82853804336952
 20
774.1702384544868
 30
0.0
  0
VERTEX
  5
329
330
323
100
AcDbEntity
  8
Make2D$可见线$普通线
100
AcDbVertex
100
AcDb2dVertex
 10
89.45727974630574
 20
774.2450019325698
 30
0.0
  0
VERTEX
  5
32A
330
323
100
AcDbEntity
  8
Make2D$可见线$普通线
100
AcDbVertex
100
AcDb2dVertex
 10
90.08760427877803
 20
774.3049743464763
 30
0.0
  0
VERTEX
  5
32B
330
323
100
AcDbEntity
  8
Make2D$可见线$普通线
100
AcDbVertex
100
AcDb2dVertex
 10
91.8550533803226
 20
774.439690775602
 30
0.0
  0
VERTEX
  5
32C
330
323
100
AcDbEntity
  8
Make2D$可见线$普通线
100
AcDbVertex
100
AcDb2dVertex
 10
94.02501402539946
 20
774.5744030809178
 30
0.0
  0
VERTEX
  5
32D
330
323
100
AcDbEntity
  8
Make2D$可见线$普通线
100
AcDbVertex
100
AcDb2dVertex
 10
101.5766835669045
 20
774.9785361227957
 30
0.0
  0
VERTEX
  5
32E
330
323
100
AcDbEntity
  8
Make2D$可见线$普通线
100
AcDbVertex
100
AcDb2dVertex
 10
103.9370270131409
 20
775.1132332206685
 30
0.0
  0
VERTEX
  5
32F
330
323
100
AcDbEntity
  8
Make2D$可见线$普通线
100
AcDbVertex
100
AcDb2dVertex
 10
106.0130590278065
 20
775.2506684621985
 30
0.0
  0
VERTEX
  5
330
330
323
100
AcDbEntity
  8
Make2D$可见线$普通线
100
AcDbVertex
100
AcDb2dVertex
 10
106.7926874438787
 20
775.3116141162005
 30
0.0
  0
VERTEX
  5
331
330
323
100
AcDbEntity
  8
Make2D$可见线$普通线
100
AcDbVertex
100
AcDb2dVertex
 10
107.5714587812271
 20
775.3826777778963
 30
0.0
  0
VERTEX
  5
332
330
323
100
AcDbEntity
  8
Make2D$可见线$普通线
100
AcDbVertex
100
AcDb2dVertex
 10
107.8361809334398
 20
775.4094222527809
 30
0.0
  0
VERTEX
  5
333
330
323
100
AcDbEntity
  8
Make2D$可见线$普通线
100
AcDbVertex
100
AcDb2dVertex
 10
108.1004354214456
 20
775.4407957613585
 30
0.0
  0
VERTEX
  5
334
330
323
100
AcDbEntity
  8
Make2D$可见线$普通线
100
AcDbVertex
100
AcDb2dVertex
 10
108.3641009441631
 20
775.476784976435
 30
0.0
  0
VERTEX
  5
335
330
323
100
AcDbEntity
  8
Make2D$可见线$普通线
100
AcDbVertex
100
AcDb2dVertex
 10
108.6270567406157
 20
775.5173723380263
 30
0.0
  0
VERTEX
  5
336
330
323
100
AcDbEntity
  8
Make2D$可见线$普通线
100
AcDbVertex
100
AcDb2dVertex
 10
108.7176342799406
 20
775.5342249988277
 30
0.0
  0
VERTEX
  5
337
330
323
100
AcDbEntity
  8
Make2D$可见线$普通线
100
AcDbVertex
100
AcDb2dVertex
 10
108.798593520426
 20
775.551065586676
 30
0.0
  0
VERTEX
  5
338
330
323
100
AcDbEntity
  8
Make2D$可见线$普通线
100
AcDbVertex
100
AcDb2dVertex
 10
108.8698943850204
 20
775.5678981310546
 30
0.0
  0
VERTEX
  5
339
330
323
100
AcDbEntity
  8
Make2D$可见线$普通线
100
AcDbVertex
100
AcDb2dVertex
 10
108.9019104022799
 20
775.5763126461559
 30
0.0
  0
VERTEX
  5
33A
330
323
100
AcDbEntity
  8
Make2D$可见线$普通线
100
AcDbVertex
100
AcDb2dVertex
 10
108.9314967966723
 20
775.584726661446
 30
0.0
  0
VERTEX
  5
33B
330
323
100
AcDbEntity
  8
Make2D$可见线$普通线
100
AcDbVertex
100
AcDb2dVertex
 10
108.9586485585663
 20
775.5931406806101
 30
0.0
  0
VERTEX
  5
33C
330
323
100
AcDbEntity
  8
Make2D$可见线$普通线
100
AcDbVertex
100
AcDb2dVertex
 10
108.9833606783303
 20
775.6015552073335
 30
0.0
  0
VERTEX
  5
33D
330
323
100
AcDbEntity
  8
Make2D$可见线$普通线
100
AcDbVertex
100
AcDb2dVertex
 10
108.9948003069038
 20
775.6057628184317
 30
0.0
  0
VERTEX
  5
33E
330
323
100
AcDbEntity
  8
Make2D$可见线$普通线
100
AcDbVertex
100
AcDb2dVertex
 10
109.005628146333
 20
775.6099707453017
 30
0.0
  0
VERTEX
  5
33F
330
323
100
AcDbEntity
  8
Make2D$可见线$普通线
100
AcDbVertex
100
AcDb2dVertex
 10
109.015843570414
 20
775.6141790509042
 30
0.0
  0
VERTEX
  5
340
330
323
100
AcDbEntity
  8
Make2D$可见线$普通线
100
AcDbVertex
100
AcDb2dVertex
 10
109.0254459529429
 20
775.6183877981998
 30
0.0
  0
VERTEX
  5
341
330
323
100
AcDbEntity
  8
Make2D$可见线$普通线
100
AcDbVertex
100
AcDb2dVertex
 10
109.0344346677157
 20
775.6225970501494
 30
0.0
  0
VERTEX
  5
342
330
323
100
AcDbEntity
  8
Make2D$可见线$普通线
100
AcDbVertex
100
AcDb2dVertex
 10
109.0428090885285
 20
775.6268068697134
 30
0.0
  0
VERTEX
  5
343
330
323
100
AcDbEntity
  8
Make2D$可见线$普通线
100
AcDbVertex
100
AcDb2dVertex
 10
109.0505685891775
 20
775.6310173198526
 30
0.0
  0
VERTEX
  5
344
330
323
100
AcDbEntity
  8
Make2D$可见线$普通线
100
AcDbVertex
100
AcDb2dVertex
 10
109.0542175487517
 20
775.6331228010632
 30
0.0
  0
VERTEX
  5
345
330
323
100
AcDbEntity
  8
Make2D$可见线$普通线
100
AcDbVertex
100
AcDb2dVertex
 10
109.0577125434585
 20
775.6352284635278
 30
0.0
  0
VERTEX
  5
346
330
323
100
AcDbEntity
  8
Make2D$可见线$普通线
100
AcDbVertex
100
AcDb2dVertex
 10
109.0610534950224
 20
775.6373343151165
 30
0.0
  0
VERTEX
  5
347
330
323
100
AcDbEntity
  8
Make2D$可见线$普通线
100
AcDbVertex
100
AcDb2dVertex
 10
109.0642403251678
 20
775.6394403636995
 30
0.0
  0
VERTEX
  5
348
330
323
100
AcDbEntity
  8
Make2D$可见线$普通线
100
AcDbVertex
100
AcDb2dVertex
 10
109.0672729556193
 20
775.6415466171468
 30
0.0
  0
VERTEX
  5
349
330
323
100
AcDbEntity
  8
Make2D$可见线$普通线
100
AcDbVertex
100
AcDb2dVertex
 10
109.0701513081014
 20
775.6436530833284
 30
0.0
  0
VERTEX
  5
34A
330
323
100
AcDbEntity
  8
Make2D$可见线$普通线
100
AcDbVertex
100
AcDb2dVertex
 10
109.0728753043386
 20
775.6457597701145
 30
0.0
  0
VERTEX
  5
34B
330
323
100
AcDbEntity
  8
Make2D$可见线$普通线
100
AcDbVertex
100
AcDb2dVertex
 10
109.0754448660554
 20
775.6478666853752
 30
0.0
  0
VERTEX
  5
34C
330
323
100
AcDbEntity
  8
Make2D$可见线$普通线
100
AcDbVertex
100
AcDb2dVertex
 10
109.0778599149763
 20
775.6499738369805
 30
0.0
  0
VERTEX
  5
34D
330
323
100
AcDbEntity
  8
Make2D$可见线$普通线
100
AcDbVertex
100
AcDb2dVertex
 10
109.0801203728258
 20
775.6520812328006
 30
0.0
  0
VERTEX
  5
34E
330
323
100
AcDbEntity
  8
Make2D$可见线$普通线
100
AcDbVertex
100
AcDb2dVertex
 10
109.0819812960828
 20
775.6539355992261
 30
0.0
  0
VERTEX
  5
34F
330
323
100
AcDbEntity
  8
Make2D$可见线$普通线
100
AcDbVertex
100
AcDb2dVertex
 10
109.0837222193826
 20
775.6557899278978
 30
0.0
  0
VERTEX
  5
350
330
323
100
AcDbEntity
  8
Make2D$可见线$普通线
100
AcDbVertex
100
AcDb2dVertex
 10
109.0845476784782
 20
775.6567170796623
 30
0.0
  0
VERTEX
  5
351
330
323
100
AcDbEntity
  8
Make2D$可见线$普通线
100
AcDbVertex
100
AcDb2dVertex
 10
109.0853431345002
 20
775.6576442238919
 30
0.0
  0
VERTEX
  5
352
330
323
100
AcDbEntity
  8
Make2D$可见线$普通线
100
AcDbVertex
100
AcDb2dVertex
 10
109.0861085864205
 20
775.6585713612212
 30
0.0
  0
VERTEX
  5
353
330
323
100
AcDbEntity
  8
Make2D$可见线$普通线
100
AcDbVertex
100
AcDb2dVertex
 10
109.086844033211
 20
775.6594984922847
 30
0.0
  0
VERTEX
  5
354
330
323
100
AcDbEntity
  8
Make2D$可见线$普通线
100
AcDbVertex
100
AcDb2dVertex
 10
109.0875494738435
 20
775.6604256177169
 30
0.0
  0
VERTEX
  5
355
330
323
100
AcDbEntity
  8
Make2D$可见线$普通线
100
AcDbVertex
100
AcDb2dVertex
 10
109.08822490729
 20
775.6613527381526
 30
0.0
  0
VERTEX
  5
356
330
323
100
AcDbEntity
  8
Make2D$可见线$普通线
100
AcDbVertex
100
AcDb2dVertex
 10
109.0888703325224
 20
775.662279854226
 30
0.0
  0
VERTEX
  5
357
330
323
100
AcDbEntity
  8
Make2D$可见线$普通线
100
AcDbVertex
100
AcDb2dVertex
 10
109.0894857485125
 20
775.6632069665718
 30
0.0
  0
VERTEX
  5
358
330
323
100
AcDbEntity
  8
Make2D$可见线$普通线
100
AcDbVertex
100
AcDb2dVertex
 10
109.0900711542324
 20
775.6641340758244
 30
0.0
  0
VERTEX
  5
359
330
323
100
AcDbEntity
  8
Make2D$可见线$普通线
100
AcDbVertex
100
AcDb2dVertex
 10
109.0906265486538
 20
775.6650611826186
 30
0.0
  0
VERTEX
  5
35A
330
323
100
AcDbEntity
  8
Make2D$可见线$普通线
100
AcDbVertex
100
AcDb2dVertex
 10
109.0911519307487
 20
775.6659882875888
 30
0.0
  0
VERTEX
  5
35B
330
323
100
AcDbEntity
  8
Make2D$可见线$普通线
100
AcDbVertex
100
AcDb2dVertex
 10
109.091647299489
 20
775.6669153913696
 30
0.0
  0
VERTEX
  5
35C
330
323
100
AcDbEntity
  8
Make2D$可见线$普通线
100
AcDbVertex
100
AcDb2dVertex
 10
109.0921126538465
 20
775.6678424945954
 30
0.0
  0
VERTEX
  5
35D
330
323
100
AcDbEntity
  8
Make2D$可见线$普通线
100
AcDbVertex
100
AcDb2dVertex
 10
109.0925479927932
 20
775.6687695979009
 30
0.0
  0
VERTEX
  5
35E
330
323
100
AcDbEntity
  8
Make2D$可见线$普通线
100
AcDbVertex
100
AcDb2dVertex
 10
109.0929533153011
 20
775.6696967019205
 30
0.0
  0
VERTEX
  5
35F
330
323
100
AcDbEntity
  8
Make2D$可见线$普通线
100
AcDbVertex
100
AcDb2dVertex
 10
109.0933286203419
 20
775.6706238072888
 30
0.0
  0
VERTEX
  5
360
330
323
100
AcDbEntity
  8
Make2D$可见线$普通线
100
AcDbVertex
100
AcDb2dVertex
 10
109.0936739068875
 20
775.6715509146404
 30
0.0
  0
VERTEX
  5
361
330
323
100
AcDbEntity
  8
Make2D$可见线$普通线
100
AcDbVertex
100
AcDb2dVertex
 10
109.09398917391
 20
775.6724780246097
 30
0.0
  0
VERTEX
  5
362
330
323
100
AcDbEntity
  8
Make2D$可见线$普通线
100
AcDbVertex
100
AcDb2dVertex
 10
109.0942744203811
 20
775.6734051378313
 30
0.0
  0
VERTEX
  5
363
330
323
100
AcDbEntity
  8
Make2D$可见线$普通线
100
AcDbVertex
100
AcDb2dVertex
 10
109.0945296452728
 20
775.6743322549399
 30
0.0
  0
VERTEX
  5
364
330
323
100
AcDbEntity
  8
Make2D$可见线$普通线
100
AcDbVertex
100
AcDb2dVertex
 10
109.0947548475571
 20
775.67525937657
 30
0.0
  0
VERTEX
  5
365
330
323
100
AcDbEntity
  8
Make2D$可见线$普通线
100
AcDbVertex
100
AcDb2dVertex
 10
109.0949500262057
 20
775.6761865033559
 30
0.0
  0
VERTEX
  5
366
330
323
100
AcDbEntity
  8
Make2D$可见线$普通线
100
AcDbVertex
100
AcDb2dVertex
 10
109.0951151801905
 20
775.6771136359323
 30
0.0
  0
VERTEX
  5
367
330
323
100
AcDbEntity
  8
Make2D$可见线$普通线
100
AcDbVertex
100
AcDb2dVertex
 10
109.0952503084836
 20
775.6780407749337
 30
0.0
  0
VERTEX
  5
368
330
323
100
AcDbEntity
  8
Make2D$可见线$普通线
100
AcDbVertex
100
AcDb2dVertex
 10
109.0953554100567
 20
775.6789679209948
 30
0.0
  0
VERTEX
  5
369
330
323
100
AcDbEntity
  8
Make2D$可见线$普通线
100
AcDbVertex
100
AcDb2dVertex
 10
109.0954304838819
 20
775.6798950747499
 30
0.0
  0
VERTEX
  5
36A
330
323
100
AcDbEntity
  8
Make2D$可见线$普通线
100
AcDbVertex
100
AcDb2dVertex
 10
109.0954755289309
 20
775.6808222368336
 30
0.0
  0
VERTEX
  5
36B
330
323
100
AcDbEntity
  8
Make2D$可见线$普通线
100
AcDbVertex
100
AcDb2dVertex
 10
109.0954905441757
 20
775.6817494078806
 30
0.0
  0
SEQEND
  5
36C
330
323
100
AcDbEntity
  8
Make2D$可见线$普通线
  0
POLYLINE
  5
36D
330
1F
100
AcDbEntity
  8
Make2D$可见线$普通线
100
AcDb2dPolyline
 66
     1
 10
0.0
 20
0.0
 30
0.0
  0
VERTEX
  5
36E
330
36D
100
AcDbEntity
  8
Make2D$可见线$普通线
100
AcDbVertex
100
AcDb2dVertex
 10
88.57240036745226
 20
777.2319643576261
 30
0.0
  0
VERTEX
  5
36F
330
36D
100
AcDbEntity
  8
Make2D$可见线$普通线
100
AcDbVertex
100
AcDb2dVertex
 10
88.46836656775727
 20
777.250294558716
 30
0.0
  0
VERTEX
  5
370
330
36D
100
AcDbEntity
  8
Make2D$可见线$普通线
100
AcDbVertex
100
AcDb2dVertex
 10
88.3755348186092
 20
777.2686386260739
 30
0.0
  0
VERTEX
  5
371
330
36D
100
AcDbEntity
  8
Make2D$可见线$普通线
100
AcDbVertex
100
AcDb2dVertex
 10
88.30027943288542
 20
777.285492512689
 30
0.0
  0
VERTEX
  5
372
330
36D
100
AcDbEntity
  8
Make2D$可见线$普通线
100
AcDbVertex
100
AcDb2dVertex
 10
88.26629738110853
 20
777.293914674389
 30
0.0
  0
VERTEX
  5
373
330
36D
100
AcDbEntity
  8
Make2D$可见线$普通线
100
AcDbVertex
100
AcDb2dVertex
 10
88.23475059422682
 20
777.3023343206378
 30
0.0
  0
VERTEX
  5
374
330
36D
100
AcDbEntity
  8
Make2D$可见线$普通线
100
AcDbVertex
100
AcDb2dVertex
 10
88.20564270036921
 20
777.3107519556506
 30
0.0
  0
VERTEX
  5
375
330
36D
100
AcDbEntity
  8
Make2D$可见线$普通线
100
AcDbVertex
100
AcDb2dVertex
 10
88.17897732766458
 20
777.319168083643
 30
0.0
  0
VERTEX
  5
376
330
36D
100
AcDbEntity
  8
Make2D$可见线$普通线
100
AcDbVertex
100
AcDb2dVertex
 10
88.15475810424185
 20
777.32758320883
 30
0.0
  0
VERTEX
  5
377
330
36D
100
AcDbEntity
  8
Make2D$可见线$普通线
100
AcDbVertex
100
AcDb2dVertex
 10
88.14356693230147
 20
777.3317905529389
 30
0.0
  0
VERTEX
  5
378
330
36D
100
AcDbEntity
  8
Make2D$可见线$普通线
100
AcDbVertex
100
AcDb2dVertex
 10
88.1329886582299
 20
777.3359978354272
 30
0.0
  0
VERTEX
  5
379
330
36D
100
AcDbEntity
  8
Make2D$可见线$普通线
100
AcDbVertex
100
AcDb2dVertex
 10
88.12302373554326
 20
777.3402051193218
 30
0.0
  0
VERTEX
  5
37A
330
36D
100
AcDbEntity
  8
Make2D$可见线$普通线
100
AcDbVertex
100
AcDb2dVertex
 10
88.11367261775763
 20
777.3444124676498
 30
0.0
  0
VERTEX
  5
37B
330
36D
100
AcDbEntity
  8
Make2D$可见线$普通线
100
AcDbVertex
100
AcDb2dVertex
 10
88.10493575838916
 20
777.3486199434379
 30
0.0
  0
VERTEX
  5
37C
330
36D
100
AcDbEntity
  8
Make2D$可见线$普通线
100
AcDbVertex
100
AcDb2dVertex
 10
88.09681361095394
 20
777.3528276097131
 30
0.0
  0
VERTEX
  5
37D
330
36D
100
AcDbEntity
  8
Make2D$可见线$普通线
100
AcDbVertex
100
AcDb2dVertex
 10
88.09298319593509
 20
777.3549315339794
 30
0.0
  0
VERTEX
  5
37E
330
36D
100
AcDbEntity
  8
Make2D$可见线$普通线
100
AcDbVertex
100
AcDb2dVertex
 10
88.0893066289681
 20
777.3570355295025
 30
0.0
  0
VERTEX
  5
37F
330
36D
100
AcDbEntity
  8
Make2D$可见线$普通线
100
AcDbVertex
100
AcDb2dVertex
 10
88.0857839667425
 20
777.3591396041609
 30
0.0
  0
VERTEX
  5
380
330
36D
100
AcDbEntity
  8
Make2D$可见线$普通线
100
AcDbVertex
100
AcDb2dVertex
 10
88.08241526594776
 20
777.3612437658328
 30
0.0
  0
VERTEX
  5
381
330
36D
100
AcDbEntity
  8
Make2D$可见线$普通线
100
AcDbVertex
100
AcDb2dVertex
 10
88.07920058327342
 20
777.3633480223966
 30
0.0
  0
VERTEX
  5
382
330
36D
100
AcDbEntity
  8
Make2D$可见线$普通线
100
AcDbVertex
100
AcDb2dVertex
 10
88.07613997540898
 20
777.3654523817308
 30
0.0
  0
VERTEX
  5
383
330
36D
100
AcDbEntity
  8
Make2D$可见线$普通线
100
AcDbVertex
100
AcDb2dVertex
 10
88.07323349904397
 20
777.3675568517137
 30
0.0
  0
VERTEX
  5
384
330
36D
100
AcDbEntity
  8
Make2D$可见线$普通线
100
AcDbVertex
100
AcDb2dVertex
 10
88.07048121086791
 20
777.3696614402237
 30
0.0
  0
VERTEX
  5
385
330
36D
100
AcDbEntity
  8
Make2D$可见线$普通线
100
AcDbVertex
100
AcDb2dVertex
 10
88.06788316757032
 20
777.3717661551391
 30
0.0
  0
VERTEX
  5
386
330
36D
100
AcDbEntity
  8
Make2D$可见线$普通线
100
AcDbVertex
100
AcDb2dVertex
 10
88.06543942584067
 20
777.3738710043383
 30
0.0
  0
VERTEX
  5
387
330
36D
100
AcDbEntity
  8
Make2D$可见线$普通线
100
AcDbVertex
100
AcDb2dVertex
 10
88.0631500423685
 20
777.3759759956995
 30
0.0
  0
VERTEX
  5
388
330
36D
100
AcDbEntity
  8
Make2D$可见线$普通线
100
AcDbVertex
100
AcDb2dVertex
 10
88.06206325269446
 20
777.377028547153
 30
0.0
  0
VERTEX
  5
389
330
36D
100
AcDbEntity
  8
Make2D$可见线$普通线
100
AcDbVertex
100
AcDb2dVertex
 10
88.06101507384335
 20
777.3780811371014
 30
0.0
  0
VERTEX
  5
38A
330
36D
100
AcDbEntity
  8
Make2D$可见线$普通线
100
AcDbVertex
100
AcDb2dVertex
 10
88.06000551290137
 20
777.3791337665295
 30
0.0
  0
VERTEX
  5
38B
330
36D
100
AcDbEntity
  8
Make2D$可见线$普通线
100
AcDbVertex
100
AcDb2dVertex
 10
88.0590345769547
 20
777.3801864364223
 30
0.0
  0
VERTEX
  5
38C
330
36D
100
AcDbEntity
  8
Make2D$可见线$普通线
100
AcDbVertex
100
AcDb2dVertex
 10
88.05810227308953
 20
777.3812391477642
 30
0.0
  0
VERTEX
  5
38D
330
36D
100
AcDbEntity
  8
Make2D$可见线$普通线
100
AcDbVertex
100
AcDb2dVertex
 10
88.05720860839207
 20
777.3822919015402
 30
0.0
  0
VERTEX
  5
38E
330
36D
100
AcDbEntity
  8
Make2D$可见线$普通线
100
AcDbVertex
100
AcDb2dVertex
 10
88.05635358994849
 20
777.3833446987351
 30
0.0
  0
VERTEX
  5
38F
330
36D
100
AcDbEntity
  8
Make2D$可见线$普通线
100
AcDbVertex
100
AcDb2dVertex
 10
88.055537224845
 20
777.3843975403338
 30
0.0
  0
VERTEX
  5
390
330
36D
100
AcDbEntity
  8
Make2D$可见线$普通线
100
AcDbVertex
100
AcDb2dVertex
 10
88.05475952016775
 20
777.3854504273211
 30
0.0
  0
VERTEX
  5
391
330
36D
100
AcDbEntity
  8
Make2D$可见线$普通线
100
AcDbVertex
100
AcDb2dVertex
 10
88.05402048300296
 20
777.3865033606814
 30
0.0
  0
VERTEX
  5
392
330
36D
100
AcDbEntity
  8
Make2D$可见线$普通线
100
AcDbVertex
100
AcDb2dVertex
 10
88.05332012043681
 20
777.3875563414
 30
0.0
  0
VERTEX
  5
393
330
36D
100
AcDbEntity
  8
Make2D$可见线$普通线
100
AcDbVertex
100
AcDb2dVertex
 10
88.05265843955549
 20
777.3886093704614
 30
0.0
  0
VERTEX
  5
394
330
36D
100
AcDbEntity
  8
Make2D$可见线$普通线
100
AcDbVertex
100
AcDb2dVertex
 10
88.05203544744519
 20
777.3896624488505
 30
0.0
  0
VERTEX
  5
395
330
36D
100
AcDbEntity
  8
Make2D$可见线$普通线
100
AcDbVertex
100
AcDb2dVertex
 10
88.05145115119211
 20
777.3907155775521
 30
0.0
  0
VERTEX
  5
396
330
36D
100
AcDbEntity
  8
Make2D$可见线$普通线
100
AcDbVertex
100
AcDb2dVertex
 10
88.05090555788243
 20
777.3917687575508
 30
0.0
  0
VERTEX
  5
397
330
36D
100
AcDbEntity
  8
Make2D$可见线$普通线
100
AcDbVertex
100
AcDb2dVertex
 10
88.05039867460232
 20
777.3928219898318
 30
0.0
  0
VERTEX
  5
398
330
36D
100
AcDbEntity
  8
Make2D$可见线$普通线
100
AcDbVertex
100
AcDb2dVertex
 10
88.049930508438
 20
777.3938752753795
 30
0.0
  0
VERTEX
  5
399
330
36D
100
AcDbEntity
  8
Make2D$可见线$普通线
100
AcDbVertex
100
AcDb2dVertex
 10
88.04950106647564
 20
777.394928615179
 30
0.0
  0
VERTEX
  5
39A
330
36D
100
AcDbEntity
  8
Make2D$可见线$普通线
100
AcDbVertex
100
AcDb2dVertex
 10
88.04911035580143
 20
777.3959820102149
 30
0.0
  0
VERTEX
  5
39B
330
36D
100
AcDbEntity
  8
Make2D$可见线$普通线
100
AcDbVertex
100
AcDb2dVertex
 10
88.04875838350158
 20
777.3970354614719
 30
0.0
  0
VERTEX
  5
39C
330
36D
100
AcDbEntity
  8
Make2D$可见线$普通线
100
AcDbVertex
100
AcDb2dVertex
 10
88.04844515666225
 20
777.3980889699349
 30
0.0
  0
VERTEX
  5
39D
330
36D
100
AcDbEntity
  8
Make2D$可见线$普通线
100
AcDbVertex
100
AcDb2dVertex
 10
88.04817068236966
 20
777.3991425365889
 30
0.0
  0
VERTEX
  5
39E
330
36D
100
AcDbEntity
  8
Make2D$可见线$普通线
100
AcDbVertex
100
AcDb2dVertex
 10
88.0480479796428
 20
777.3996693420452
 30
0.0
  0
VERTEX
  5
39F
330
36D
100
AcDbEntity
  8
Make2D$可见线$普通线
100
AcDbVertex
100
AcDb2dVertex
 10
88.04793496770998
 20
777.4001961624185
 30
0.0
  0
VERTEX
  5
3A0
330
36D
100
AcDbEntity
  8
Make2D$可见线$普通线
100
AcDbVertex
100
AcDb2dVertex
 10
88.0478316474569
 20
777.400722997832
 30
0.0
  0
VERTEX
  5
3A1
330
36D
100
AcDbEntity
  8
Make2D$可见线$普通线
100
AcDbVertex
100
AcDb2dVertex
 10
88.04773801976938
 20
777.4012498484086
 30
0.0
  0
VERTEX
  5
3A2
330
36D
100
AcDbEntity
  8
Make2D$可见线$普通线
100
AcDbVertex
100
AcDb2dVertex
 10
88.0476540855332
 20
777.4017767142715
 30
0.0
  0
VERTEX
  5
3A3
330
36D
100
AcDbEntity
  8
Make2D$可见线$普通线
100
AcDbVertex
100
AcDb2dVertex
 10
88.04757984563409
 20
777.4023035955439
 30
0.0
  0
VERTEX
  5
3A4
330
36D
100
AcDbEntity
  8
Make2D$可见线$普通线
100
AcDbVertex
100
AcDb2dVertex
 10
88.04751530095785
 20
777.4028304923488
 30
0.0
  0
VERTEX
  5
3A5
330
36D
100
AcDbEntity
  8
Make2D$可见线$普通线
100
AcDbVertex
100
AcDb2dVertex
 10
88.04746045239028
 20
777.4033574048092
 30
0.0
  0
VERTEX
  5
3A6
330
36D
100
AcDbEntity
  8
Make2D$可见线$普通线
100
AcDbVertex
100
AcDb2dVertex
 10
88.0474040654455
 20
777.4040365206233
 30
0.0
  0
VERTEX
  5
3A7
330
36D
100
AcDbEntity
  8
Make2D$可见线$普通线
100
AcDbVertex
100
AcDb2dVertex
 10
88.04736378894202
 20
777.4047156377583
 30
0.0
  0
VERTEX
  5
3A8
330
36D
100
AcDbEntity
  8
Make2D$可见线$普通线
100
AcDbVertex
100
AcDb2dVertex
 10
88.0473396229722
 20
777.4053947541173
 30
0.0
  0
VERTEX
  5
3A9
330
36D
100
AcDbEntity
  8
Make2D$可见线$普通线
100
AcDbVertex
100
AcDb2dVertex
 10
88.04733156762842
 20
777.4060738676039
 30
0.0
  0
VERTEX
  5
3AA
330
36D
100
AcDbEntity
  8
Make2D$可见线$普通线
100
AcDbVertex
100
AcDb2dVertex
 10
88.04733622324147
 20
777.4065901575232
 30
0.0
  0
VERTEX
  5
3AB
330
36D
100
AcDbEntity
  8
Make2D$可见线$普通线
100
AcDbVertex
100
AcDb2dVertex
 10
88.04735018955714
 20
777.4071064326779
 30
0.0
  0
VERTEX
  5
3AC
330
36D
100
AcDbEntity
  8
Make2D$可见线$普通线
100
AcDbVertex
100
AcDb2dVertex
 10
88.04737346579017
 20
777.4076226931845
 30
0.0
  0
VERTEX
  5
3AD
330
36D
100
AcDbEntity
  8
Make2D$可见线$普通线
100
AcDbVertex
100
AcDb2dVertex
 10
88.04740605115538
 20
777.4081389391589
 30
0.0
  0
VERTEX
  5
3AE
330
36D
100
AcDbEntity
  8
Make2D$可见线$普通线
100
AcDbVertex
100
AcDb2dVertex
 10
88.04744794486751
 20
777.4086551707176
 30
0.0
  0
VERTEX
  5
3AF
330
36D
100
AcDbEntity
  8
Make2D$可见线$普通线
100
AcDbVertex
100
AcDb2dVertex
 10
88.04749914614138
 20
777.4091713879764
 30
0.0
  0
VERTEX
  5
3B0
330
36D
100
AcDbEntity
  8
Make2D$可见线$普通线
100
AcDbVertex
100
AcDb2dVertex
 10
88.0475596541917
 20
777.4096875910517
 30
0.0
  0
VERTEX
  5
3B1
330
36D
100
AcDbEntity
  8
Make2D$可见线$普通线
100
AcDbVertex
100
AcDb2dVertex
 10
88.04762946823332
 20
777.4102037800594
 30
0.0
  0
VERTEX
  5
3B2
330
36D
100
AcDbEntity
  8
Make2D$可见线$普通线
100
AcDbVertex
100
AcDb2dVertex
 10
88.047708587481
 20
777.4107199551161
 30
0.0
  0
VERTEX
  5
3B3
330
36D
100
AcDbEntity
  8
Make2D$可见线$普通线
100
AcDbVertex
100
AcDb2dVertex
 10
88.04779701114946
 20
777.4112361163375
 30
0.0
  0
VERTEX
  5
3B4
330
36D
100
AcDbEntity
  8
Make2D$可见线$普通线
100
AcDbVertex
100
AcDb2dVertex
 10
88.04800176860797
 20
777.4122683977396
 30
0.0
  0
VERTEX
  5
3B5
330
36D
100
AcDbEntity
  8
Make2D$可见线$普通线
100
AcDbVertex
100
AcDb2dVertex
 10
88.04824373432709
 20
777.4133006251952
 30
0.0
  0
VERTEX
  5
3B6
330
36D
100
AcDbEntity
  8
Make2D$可见线$普通线
100
AcDbVertex
100
AcDb2dVertex
 10
88.04852290202498
 20
777.4143327996337
 30
0.0
  0
VERTEX
  5
3B7
330
36D
100
AcDbEntity
  8
Make2D$可见线$普通线
100
AcDbVertex
100
AcDb2dVertex
 10
88.0488392654199
 20
777.4153649219841
 30
0.0
  0
VERTEX
  5
3B8
330
36D
100
AcDbEntity
  8
Make2D$可见线$普通线
100
AcDbVertex
100
AcDb2dVertex
 10
88.04919281823004
 20
777.4163969931757
 30
0.0
  0
VERTEX
  5
3B9
330
36D
100
AcDbEntity
  8
Make2D$可见线$普通线
100
AcDbVertex
100
AcDb2dVertex
 10
88.0495835541736
 20
777.417429014138
 30
0.0
  0
VERTEX
  5
3BA
330
36D
100
AcDbEntity
  8
Make2D$可见线$普通线
100
AcDbVertex
100
AcDb2dVertex
 10
88.05001146696881
 20
777.4184609857998
 30
0.0
  0
VERTEX
  5
3BB
330
36D
100
AcDbEntity
  8
Make2D$可见线$普通线
100
AcDbVertex
100
AcDb2dVertex
 10
88.05047655033388
 20
777.4194929090909
 30
0.0
  0
VERTEX
  5
3BC
330
36D
100
AcDbEntity
  8
Make2D$可见线$普通线
100
AcDbVertex
100
AcDb2dVertex
 10
88.05097879798699
 20
777.42052478494
 30
0.0
  0
VERTEX
  5
3BD
330
36D
100
AcDbEntity
  8
Make2D$可见线$普通线
100
AcDbVertex
100
AcDb2dVertex
 10
88.05151820364637
 20
777.4215566142768
 30
0.0
  0
VERTEX
  5
3BE
330
36D
100
AcDbEntity
  8
Make2D$可见线$普通线
100
AcDbVertex
100
AcDb2dVertex
 10
88.05209476103023
 20
777.4225883980307
 30
0.0
  0
VERTEX
  5
3BF
330
36D
100
AcDbEntity
  8
Make2D$可见线$普通线
100
AcDbVertex
100
AcDb2dVertex
 10
88.05270846385679
 20
777.4236201371306
 30
0.0
  0
VERTEX
  5
3C0
330
36D
100
AcDbEntity
  8
Make2D$可见线$普通线
100
AcDbVertex
100
AcDb2dVertex
 10
88.05335930584424
 20
777.4246518325058
 30
0.0
  0
VERTEX
  5
3C1
330
36D
100
AcDbEntity
  8
Make2D$可见线$普通线
100
AcDbVertex
100
AcDb2dVertex
 10
88.05404728071079
 20
777.4256834850858
 30
0.0
  0
VERTEX
  5
3C2
330
36D
100
AcDbEntity
  8
Make2D$可见线$普通线
100
AcDbVertex
100
AcDb2dVertex
 10
88.05477238217466
 20
777.4267150957995
 30
0.0
  0
VERTEX
  5
3C3
330
36D
100
AcDbEntity
  8
Make2D$可见线$普通线
100
AcDbVertex
100
AcDb2dVertex
 10
88.05553460395404
 20
777.4277466655765
 30
0.0
  0
VERTEX
  5
3C4
330
36D
100
AcDbEntity
  8
Make2D$可见线$普通线
100
AcDbVertex
100
AcDb2dVertex
 10
88.05633393976719
 20
777.4287781953459
 30
0.0
  0
VERTEX
  5
3C5
330
36D
100
AcDbEntity
  8
Make2D$可见线$普通线
100
AcDbVertex
100
AcDb2dVertex
 10
88.05717038333226
 20
777.4298096860371
 30
0.0
  0
VERTEX
  5
3C6
330
36D
100
AcDbEntity
  8
Make2D$可见线$普通线
100
AcDbVertex
100
AcDb2dVertex
 10
88.05804392836748
 20
777.4308411385792
 30
0.0
  0
VERTEX
  5
3C7
330
36D
100
AcDbEntity
  8
Make2D$可见线$普通线
100
AcDbVertex
100
AcDb2dVertex
 10
88.05895456859108
 20
777.4318725539017
 30
0.0
  0
VERTEX
  5
3C8
330
36D
100
AcDbEntity
  8
Make2D$可见线$普通线
100
AcDbVertex
100
AcDb2dVertex
 10
88.05990229772125
 20
777.4329039329335
 30
0.0
  0
VERTEX
  5
3C9
330
36D
100
AcDbEntity
  8
Make2D$可见线$普通线
100
AcDbVertex
100
AcDb2dVertex
 10
88.06088710947621
 20
777.4339352766042
 30
0.0
  0
VERTEX
  5
3CA
330
36D
100
AcDbEntity
  8
Make2D$可见线$普通线
100
AcDbVertex
100
AcDb2dVertex
 10
88.06190899757415
 20
777.4349665858429
 30
0.0
  0
VERTEX
  5
3CB
330
36D
100
AcDbEntity
  8
Make2D$可见线$普通线
100
AcDbVertex
100
AcDb2dVertex
 10
88.06406397767186
 20
777.4370291047414
 30
0.0
  0
VERTEX
  5
3CC
330
36D
100
AcDbEntity
  8
Make2D$可见线$普通线
100
AcDbVertex
100
AcDb2dVertex
 10
88.06636718776006
 20
777.4390914970634
 30
0.0
  0
VERTEX
  5
3CD
330
36D
100
AcDbEntity
  8
Make2D$可见线$普通线
100
AcDbVertex
100
AcDb2dVertex
 10
88.06881857758444
 20
777.4411537702429
 30
0.0
  0
VERTEX
  5
3CE
330
36D
100
AcDbEntity
  8
Make2D$可见线$普通线
100
AcDbVertex
100
AcDb2dVertex
 10
88.07141809689065
 20
777.443215931714
 30
0.0
  0
VERTEX
  5
3CF
330
36D
100
AcDbEntity
  8
Make2D$可见线$普通线
100
AcDbVertex
100
AcDb2dVertex
 10
88.07416569542438
 20
777.4452779889108
 30
0.0
  0
VERTEX
  5
3D0
330
36D
100
AcDbEntity
  8
Make2D$可见线$普通线
100
AcDbVertex
100
AcDb2dVertex
 10
88.07706132293131
 20
777.4473399492675
 30
0.0
  0
VERTEX
  5
3D1
330
36D
100
AcDbEntity
  8
Make2D$可见线$普通线
100
AcDbVertex
100
AcDb2dVertex
 10
88.08010492915713
 20
777.4494018202183
 30
0.0
  0
VERTEX
  5
3D2
330
36D
100
AcDbEntity
  8
Make2D$可见线$普通线
100
AcDbVertex
100
AcDb2dVertex
 10
88.08329646384747
 20
777.4514636091972
 30
0.0
  0
VERTEX
  5
3D3
330
36D
100
AcDbEntity
  8
Make2D$可见线$普通线
100
AcDbVertex
100
AcDb2dVertex
 10
88.08663587674806
 20
777.4535253236382
 30
0.0
  0
VERTEX
  5
3D4
330
36D
100
AcDbEntity
  8
Make2D$可见线$普通线
100
AcDbVertex
100
AcDb2dVertex
 10
88.09012311760453
 20
777.4555869709758
 30
0.0
  0
VERTEX
  5
3D5
330
36D
100
AcDbEntity
  8
Make2D$可见线$普通线
100
AcDbVertex
100
AcDb2dVertex
 10
88.09754088216792
 20
777.4597100940764
 30
0.0
  0
VERTEX
  5
3D6
330
36D
100
AcDbEntity
  8
Make2D$可见线$普通线
100
AcDbVertex
100
AcDb2dVertex
 10
88.10554935550306
 20
777.4638330379722
 30
0.0
  0
VERTEX
  5
3D7
330
36D
100
AcDbEntity
  8
Make2D$可见线$普通线
100
AcDbVertex
100
AcDb2dVertex
 10
88.11414813557533
 20
777.4679558621361
 30
0.0
  0
VERTEX
  5
3D8
330
36D
100
AcDbEntity
  8
Make2D$可见线$普通线
100
AcDbVertex
100
AcDb2dVertex
 10
88.1233368203502
 20
777.4720786260411
 30
0.0
  0
VERTEX
  5
3D9
330
36D
100
AcDbEntity
  8
Make2D$可见线$普通线
100
AcDbVertex
100
AcDb2dVertex
 10
88.13311500779307
 20
777.4762013891603
 30
0.0
  0
VERTEX
  5
3DA
330
36D
100
AcDbEntity
  8
Make2D$可见线$普通线
100
AcDbVertex
100
AcDb2dVertex
 10
88.14348229586932
 20
777.4803242109667
 30
0.0
  0
VERTEX
  5
3DB
330
36D
100
AcDbEntity
  8
Make2D$可见线$普通线
100
AcDbVertex
100
AcDb2dVertex
 10
88.16598256578372
 20
777.488570268533
 30
0.0
  0
VERTEX
  5
3DC
330
36D
100
AcDbEntity
  8
Make2D$可见线$普通线
100
AcDbVertex
100
AcDb2dVertex
 10
88.19083441381672
 20
777.4968172745242
 30
0.0
  0
VERTEX
  5
3DD
330
36D
100
AcDbEntity
  8
Make2D$可见线$普通线
100
AcDbVertex
100
AcDb2dVertex
 10
88.21803462369165
 20
777.5050657047248
 30
0.0
  0
VERTEX
  5
3DE
330
36D
100
AcDbEntity
  8
Make2D$可见线$普通线
100
AcDbVertex
100
AcDb2dVertex
 10
88.24757997913184
 20
777.5133160349185
 30
0.0
  0
VERTEX
  5
3DF
330
36D
100
AcDbEntity
  8
Make2D$可见线$普通线
100
AcDbVertex
100
AcDb2dVertex
 10
88.27946726386062
 20
777.5215687408897
 30
0.0
  0
VERTEX
  5
3E0
330
36D
100
AcDbEntity
  8
Make2D$可见线$普通线
100
AcDbVertex
100
AcDb2dVertex
 10
88.35025475607722
 20
777.5380831833018
 30
0.0
 42
-0.0238779452207086
  0
VERTEX
  5
3E1
330
36D
100
AcDbEntity
  8
Make2D$可见线$普通线
100
AcDbVertex
100
AcDb2dVertex
 10
89.26551875475718
 20
777.6727777434318
 30
0.0
  0
VERTEX
  5
3E2
330
36D
100
AcDbEntity
  8
Make2D$可见线$普通线
100
AcDbVertex
100
AcDb2dVertex
 10
90.00151084125903
 20
777.7460658920177
 30
0.0
  0
VERTEX
  5
3E3
330
36D
100
AcDbEntity
  8
Make2D$可见线$普通线
100
AcDbVertex
100
AcDb2dVertex
 10
91.12976308399749
 20
777.837154813286
 30
0.0
  0
VERTEX
  5
3E4
330
36D
100
AcDbEntity
  8
Make2D$可见线$普通线
100
AcDbVertex
100
AcDb2dVertex
 10
92.68158968998034
 20
777.9422257547457
 30
0.0
  0
VERTEX
  5
3E5
330
36D
100
AcDbEntity
  8
Make2D$可见线$普通线
100
AcDbVertex
100
AcDb2dVertex
 10
94.97701105220273
 20
778.0769239749004
 30
0.0
  0
VERTEX
  5
3E6
330
36D
100
AcDbEntity
  8
Make2D$可见线$普通线
100
AcDbVertex
100
AcDb2dVertex
 10
98.49287304998457
 20
778.2641401301003
 30
0.0
  0
SEQEND
  5
3E7
330
36D
100
AcDbEntity
  8
Make2D$可见线$普通线
  0
POLYLINE
  5
3E8
330
1F
100
AcDbEntity
  8
Make2D$可见线$普通线
100
AcDb2dPolyline
 66
     1
 10
0.0
 20
0.0
 30
0.0
  0
VERTEX
  5
3E9
330
3E8
100
AcDbEntity
  8
Make2D$可见线$普通线
100
AcDbVertex
100
AcDb2dVertex
 10
98.57141105590205
 20
778.2682361621885
 30
0.0
  0
VERTEX
  5
3EA
330
3E8
100
AcDbEntity
  8
Make2D$可见线$普通线
100
AcDbVertex
100
AcDb2dVertex
 10
102.5504404020074
 20
778.4810492652977
 30
0.0
  0
VERTEX
  5
3EB
330
3E8
100
AcDbEntity
  8
Make2D$可见线$普通线
100
AcDbVertex
100
AcDb2dVertex
 10
104.7988721472237
 20
778.6157851572872
 30
0.0
  0
VERTEX
  5
3EC
330
3E8
100
AcDbEntity
  8
Make2D$可见线$普通线
100
AcDbVertex
100
AcDb2dVertex
 10
106.6736816419283
 20
778.7505015864128
 30
0.0
  0
VERTEX
  5
3ED
330
3E8
100
AcDbEntity
  8
Make2D$可见线$普通线
100
AcDbVertex
100
AcDb2dVertex
 10
107.368869086078
 20
778.8113952502447
 30
0.0
  0
VERTEX
  5
3EE
330
3E8
100
AcDbEntity
  8
Make2D$可见线$普通线
100
AcDbVertex
100
AcDb2dVertex
 10
108.0628031095757
 20
778.8852138917287
 30
0.0
 42
0.0302041828266257
  0
VERTEX
  5
3EF
330
3E8
100
AcDbEntity
  8
Make2D$可见线$普通线
100
AcDbVertex
100
AcDb2dVertex
 10
108.8829513853943
 20
779.0199030526744
 30
0.0
 42
0.239280611142034
  0
VERTEX
  5
3F0
330
3E8
100
AcDbEntity
  8
Make2D$可见线$普通线
100
AcDbVertex
100
AcDb2dVertex
 10
109.0954905441757
 20
779.1303981749888
 30
0.0
  0
SEQEND
  5
3F1
330
3E8
100
AcDbEntity
  8
Make2D$可见线$普通线
  0
LINE
  5
3F2
330
1F
100
AcDbEntity
  8
Make2D$可见线$普通线
100
AcDbLine
 10
22.56991768674158
 20
794.8682169082217
 30
0.0
 11
22.54998641096014
 21
794.8699530209312
 31
0.0
  0
LINE
  5
3F3
330
1F
100
AcDbEntity
  8
Make2D$可见线$普通线
100
AcDbLine
 10
75.78531256790001
 20
775.972238481741
 30
0.0
 11
75.784227535809
 21
788.3569605371554
 31
0.0
  0
POLYLINE
  5
3F4
330
1F
100
AcDbEntity
  8
Make2D$可见线$普通线
100
AcDb2dPolyline
 66
     1
 10
0.0
 20
0.0
 30
0.0
  0
VERTEX
  5
3F5
330
3F4
100
AcDbEntity
  8
Make2D$可见线$普通线
100
AcDbVertex
100
AcDb2dVertex
 10
75.779746340077
 20
839.506013249006
 30
0.0
  0
VERTEX
  5
3F6
330
3F4
100
AcDbEntity
  8
Make2D$可见线$普通线
100
AcDbVertex
100
AcDb2dVertex
 10
75.77800382952358
 20
859.3952949226853
 30
0.0
  0
VERTEX
  5
3F7
330
3F4
100
AcDbEntity
  8
Make2D$可见线$普通线
100
AcDbVertex
100
AcDb2dVertex
 10
75.7827914201211
 20
859.8563990113164
 30
0.0
  0
VERTEX
  5
3F8
330
3F4
100
AcDbEntity
  8
Make2D$可见线$普通线
100
AcDbVertex
100
AcDb2dVertex
 10
75.79690557727983
 20
860.3117152724278
 30
0.0
  0
VERTEX
  5
3F9
330
3F4
100
AcDbEntity
  8
Make2D$可见线$普通线
100
AcDbVertex
100
AcDb2dVertex
 10
75.81975180086943
 20
860.760663301741
 30
0.0
  0
VERTEX
  5
3FA
330
3F4
100
AcDbEntity
  8
Make2D$可见线$普通线
100
AcDbVertex
100
AcDb2dVertex
 10
75.85073559075953
 20
861.2026626949778
 30
0.0
  0
VERTEX
  5
3FB
330
3F4
100
AcDbEntity
  8
Make2D$可见线$普通线
100
AcDbVertex
100
AcDb2dVertex
 10
75.8892624468198
 20
861.6371330478594
 30
0.0
  0
VERTEX
  5
3FC
330
3F4
100
AcDbEntity
  8
Make2D$可见线$普通线
100
AcDbVertex
100
AcDb2dVertex
 10
75.93473786891991
 20
862.0634939561074
 30
0.0
  0
VERTEX
  5
3FD
330
3F4
100
AcDbEntity
  8
Make2D$可见线$普通线
100
AcDbVertex
100
AcDb2dVertex
 10
76.04415641071817
 20
862.889565821589
 30
0.0
  0
VERTEX
  5
3FE
330
3F4
100
AcDbEntity
  8
Make2D$可见线$普通线
100
AcDbVertex
100
AcDb2dVertex
 10
76.17423521511157
 20
863.6762350571946
 30
0.0
  0
VERTEX
  5
3FF
330
3F4
100
AcDbEntity
  8
Make2D$可见线$普通线
100
AcDbVertex
100
AcDb2dVertex
 10
76.32021828105731
 20
864.4188584286965
 30
0.0
  0
VERTEX
  5
400
330
3F4
100
AcDbEntity
  8
Make2D$可见线$普通线
100
AcDbVertex
100
AcDb2dVertex
 10
76.4773496075126
 20
865.1127927018666
 30
0.0
  0
VERTEX
  5
401
330
3F4
100
AcDbEntity
  8
Make2D$可见线$普通线
100
AcDbVertex
100
AcDb2dVertex
 10
76.64087319343469
 20
865.7533946424774
 30
0.0
  0
VERTEX
  5
402
330
3F4
100
AcDbEntity
  8
Make2D$可见线$普通线
100
AcDbVertex
100
AcDb2dVertex
 10
76.80603303778076
 20
866.3360210163008
 30
0.0
  0
VERTEX
  5
403
330
3F4
100
AcDbEntity
  8
Make2D$可见线$普通线
100
AcDbVertex
100
AcDb2dVertex
 10
76.96807313950806
 20
866.8560285891093
 30
0.0
  0
VERTEX
  5
404
330
3F4
100
AcDbEntity
  8
Make2D$可见线$普通线
100
AcDbVertex
100
AcDb2dVertex
 10
77.1222374975738
 20
867.3087741266748
 30
0.0
  0
VERTEX
  5
405
330
3F4
100
AcDbEntity
  8
Make2D$可见线$普通线
100
AcDbVertex
100
AcDb2dVertex
 10
77.26377011093521
 20
867.6896143947696
 30
0.0
  0
VERTEX
  5
406
330
3F4
100
AcDbEntity
  8
Make2D$可见线$普通线
100
AcDbVertex
100
AcDb2dVertex
 10
77.32831326302592
 20
867.8516190420693
 30
0.0
  0
VERTEX
  5
407
330
3F4
100
AcDbEntity
  8
Make2D$可见线$普通线
100
AcDbVertex
100
AcDb2dVertex
 10
77.3879149785495
 20
867.9939061591658
 30
0.0
  0
VERTEX
  5
408
330
3F4
100
AcDbEntity
  8
Make2D$可见线$普通线
100
AcDbVertex
100
AcDb2dVertex
 10
77.4419807573756
 20
868.1158953417807
 30
0.0
  0
VERTEX
  5
409
330
3F4
100
AcDbEntity
  8
Make2D$可见线$普通线
100
AcDbVertex
100
AcDb2dVertex
 10
77.48991609937389
 20
868.2170061856357
 30
0.0
  0
VERTEX
  5
40A
330
3F4
100
AcDbEntity
  8
Make2D$可见线$普通线
100
AcDbVertex
100
AcDb2dVertex
 10
77.51139907527187
 20
868.259550854191
 30
0.0
  0
VERTEX
  5
40B
330
3F4
100
AcDbEntity
  8
Make2D$可见线$普通线
100
AcDbVertex
100
AcDb2dVertex
 10
77.53112650441399
 20
868.296658286452
 30
0.0
  0
VERTEX
  5
40C
330
3F4
100
AcDbEntity
  8
Make2D$可见线$普通线
100
AcDbVertex
100
AcDb2dVertex
 10
77.549024074284
 20
868.3282559318837
 30
0.0
  0
VERTEX
  5
40D
330
3F4
100
AcDbEntity
  8
Make2D$可见线$普通线
100
AcDbVertex
100
AcDb2dVertex
 10
77.55726343933063
 20
868.3419659124964
 30
0.0
  0
VERTEX
  5
40E
330
3F4
100
AcDbEntity
  8
Make2D$可见线$普通线
100
AcDbVertex
100
AcDb2dVertex
 10
77.56501747236558
 20
868.3542712399513
 30
0.0
  0
VERTEX
  5
40F
330
3F4
100
AcDbEntity
  8
Make2D$可见线$普通线
100
AcDbVertex
100
AcDb2dVertex
 10
77.5722768843244
 20
868.3651628454315
 30
0.0
  0
VERTEX
  5
410
330
3F4
100
AcDbEntity
  8
Make2D$可见线$普通线
100
AcDbVertex
100
AcDb2dVertex
 10
77.57571820456755
 20
868.3700756684258
 30
0.0
  0
VERTEX
  5
411
330
3F4
100
AcDbEntity
  8
Make2D$可见线$普通线
100
AcDbVertex
100
AcDb2dVertex
 10
77.57903238614247
 20
868.37463166012
 30
0.0
  0
VERTEX
  5
412
330
3F4
100
AcDbEntity
  8
Make2D$可见线$普通线
100
AcDbVertex
100
AcDb2dVertex
 10
77.58221826791608
 20
868.3788296869122
 30
0.0
  0
VERTEX
  5
413
330
3F4
100
AcDbEntity
  8
Make2D$可见线$普通线
100
AcDbVertex
100
AcDb2dVertex
 10
77.5852746887553
 20
868.3826686152001
 30
0.0
  0
VERTEX
  5
414
330
3F4
100
AcDbEntity
  8
Make2D$可见线$普通线
100
AcDbVertex
100
AcDb2dVertex
 10
77.58820048752708
 20
868.3861473113818
 30
0.0
  0
VERTEX
  5
415
330
3F4
100
AcDbEntity
  8
Make2D$可见线$普通线
100
AcDbVertex
100
AcDb2dVertex
 10
77.59099450309833
 20
868.3892646418551
 30
0.0
  0
VERTEX
  5
416
330
3F4
100
AcDbEntity
  8
Make2D$可见线$普通线
100
AcDbVertex
100
AcDb2dVertex
 10
77.59365557433601
 20
868.3920194730179
 30
0.0
  0
VERTEX
  5
417
330
3F4
100
AcDbEntity
  8
Make2D$可见线$普通线
100
AcDbVertex
100
AcDb2dVertex
 10
77.59618254010704
 20
868.3944106712679
 30
0.0
  0
VERTEX
  5
418
330
3F4
100
AcDbEntity
  8
Make2D$可见线$普通线
100
AcDbVertex
100
AcDb2dVertex
 10
77.59857423927835
 20
868.3964371030033
 30
0.0
  0
VERTEX
  5
419
330
3F4
100
AcDbEntity
  8
Make2D$可见线$普通线
100
AcDbVertex
100
AcDb2dVertex
 10
77.60082951071689
 20
868.3980976346218
 30
0.0
  0
VERTEX
  5
41A
330
3F4
100
AcDbEntity
  8
Make2D$可见线$普通线
100
AcDbVertex
100
AcDb2dVertex
 10
77.60294719328957
 20
868.3993911325213
 30
0.0
  0
VERTEX
  5
41B
330
3F4
100
AcDbEntity
  8
Make2D$可见线$普通线
100
AcDbVertex
100
AcDb2dVertex
 10
77.60492612586333
 20
868.4003164630997
 30
0.0
  0
VERTEX
  5
41C
330
3F4
100
AcDbEntity
  8
Make2D$可见线$普通线
100
AcDbVertex
100
AcDb2dVertex
 10
77.60676514730511
 20
868.400872492755
 30
0.0
  0
VERTEX
  5
41D
330
3F4
100
AcDbEntity
  8
Make2D$可见线$普通线
100
AcDbVertex
100
AcDb2dVertex
 10
77.60846309648184
 20
868.401058087885
 30
0.0
  0
SEQEND
  5
41E
330
3F4
100
AcDbEntity
  8
Make2D$可见线$普通线
  0
LINE
  5
41F
330
1F
100
AcDbEntity
  8
Make2D$可见线$普通线
100
AcDbLine
 10
77.6941794999866
 20
868.4010580878848
 30
0.0
 11
79.09544254391918
 21
868.4010580878848
 31
0.0
  0
LINE
  5
420
330
1F
100
AcDbEntity
  8
Make2D$可见线$普通线
100
AcDbLine
 10
118.4772267909742
 20
868.4010580878848
 30
0.0
 11
119.878493161465
 21
868.4010580878848
 31
0.0
  0
LINE
  5
421
330
1F
100
AcDbEntity
  8
Make2D$可见线$普通线
100
AcDbLine
 10
121.787310021391
 20
775.972238481741
 30
0.0
 11
121.7883950658306
 21
788.3571014870117
 31
0.0
  0
POLYLINE
  5
422
330
1F
100
AcDbEntity
  8
Make2D$可见线$普通线
100
AcDb2dPolyline
 66
     1
 10
0.0
 20
0.0
 30
0.0
  0
VERTEX
  5
423
330
422
100
AcDbEntity
  8
Make2D$可见线$普通线
100
AcDbVertex
100
AcDb2dVertex
 10
121.7928760140631
 20
839.5033292013479
 30
0.0
  0
VERTEX
  5
424
330
422
100
AcDbEntity
  8
Make2D$可见线$普通线
100
AcDbVertex
100
AcDb2dVertex
 10
121.7946187597674
 20
859.3952949226853
 30
0.0
  0
VERTEX
  5
425
330
422
100
AcDbEntity
  8
Make2D$可见线$普通线
100
AcDbVertex
100
AcDb2dVertex
 10
121.7898311691699
 20
859.8563990113164
 30
0.0
  0
VERTEX
  5
426
330
422
100
AcDbEntity
  8
Make2D$可见线$普通线
100
AcDbVertex
100
AcDb2dVertex
 10
121.7757170120111
 20
860.3117152724278
 30
0.0
  0
VERTEX
  5
427
330
422
100
AcDbEntity
  8
Make2D$可见线$普通线
100
AcDbVertex
100
AcDb2dVertex
 10
121.7528707884215
 20
860.760663301741
 30
0.0
  0
VERTEX
  5
428
330
422
100
AcDbEntity
  8
Make2D$可见线$普通线
100
AcDbVertex
100
AcDb2dVertex
 10
121.7218869985314
 20
861.2026626949778
 30
0.0
  0
VERTEX
  5
429
330
422
100
AcDbEntity
  8
Make2D$可见线$普通线
100
AcDbVertex
100
AcDb2dVertex
 10
121.6833601424712
 20
861.6371330478594
 30
0.0
  0
VERTEX
  5
42A
330
422
100
AcDbEntity
  8
Make2D$可见线$普通线
100
AcDbVertex
100
AcDb2dVertex
 10
121.6378847203711
 20
862.0634939561074
 30
0.0
  0
VERTEX
  5
42B
330
422
100
AcDbEntity
  8
Make2D$可见线$普通线
100
AcDbVertex
100
AcDb2dVertex
 10
121.5284661785728
 20
862.889565821589
 30
0.0
  0
VERTEX
  5
42C
330
422
100
AcDbEntity
  8
Make2D$可见线$普通线
100
AcDbVertex
100
AcDb2dVertex
 10
121.3983873741794
 20
863.6762350571946
 30
0.0
  0
VERTEX
  5
42D
330
422
100
AcDbEntity
  8
Make2D$可见线$普通线
100
AcDbVertex
100
AcDb2dVertex
 10
121.2524043082337
 20
864.4188584286965
 30
0.0
  0
VERTEX
  5
42E
330
422
100
AcDbEntity
  8
Make2D$可见线$普通线
100
AcDbVertex
100
AcDb2dVertex
 10
121.0952729817784
 20
865.1127927018666
 30
0.0
  0
VERTEX
  5
42F
330
422
100
AcDbEntity
  8
Make2D$可见线$普通线
100
AcDbVertex
100
AcDb2dVertex
 10
120.9317493958563
 20
865.7533946424774
 30
0.0
  0
VERTEX
  5
430
330
422
100
AcDbEntity
  8
Make2D$可见线$普通线
100
AcDbVertex
100
AcDb2dVertex
 10
120.7665895515102
 20
866.3360210163008
 30
0.0
  0
VERTEX
  5
431
330
422
100
AcDbEntity
  8
Make2D$可见线$普通线
100
AcDbVertex
100
AcDb2dVertex
 10
120.6045494497829
 20
866.8560285891093
 30
0.0
  0
VERTEX
  5
432
330
422
100
AcDbEntity
  8
Make2D$可见线$普通线
100
AcDbVertex
100
AcDb2dVertex
 10
120.4503850917172
 20
867.3087741266748
 30
0.0
  0
VERTEX
  5
433
330
422
100
AcDbEntity
  8
Make2D$可见线$普通线
100
AcDbVertex
100
AcDb2dVertex
 10
120.3088524783558
 20
867.6896143947696
 30
0.0
  0
VERTEX
  5
434
330
422
100
AcDbEntity
  8
Make2D$可见线$普通线
100
AcDbVertex
100
AcDb2dVertex
 10
120.2443093262651
 20
867.8516190420693
 30
0.0
  0
VERTEX
  5
435
330
422
100
AcDbEntity
  8
Make2D$可见线$普通线
100
AcDbVertex
100
AcDb2dVertex
 10
120.1847076107415
 20
867.9939061591658
 30
0.0
  0
VERTEX
  5
436
330
422
100
AcDbEntity
  8
Make2D$可见线$普通线
100
AcDbVertex
100
AcDb2dVertex
 10
120.1306418319154
 20
868.1158953417807
 30
0.0
  0
VERTEX
  5
437
330
422
100
AcDbEntity
  8
Make2D$可见线$普通线
100
AcDbVertex
100
AcDb2dVertex
 10
120.0827064899171
 20
868.2170061856357
 30
0.0
  0
VERTEX
  5
438
330
422
100
AcDbEntity
  8
Make2D$可见线$普通线
100
AcDbVertex
100
AcDb2dVertex
 10
120.0612235140191
 20
868.259550854191
 30
0.0
  0
VERTEX
  5
439
330
422
100
AcDbEntity
  8
Make2D$可见线$普通线
100
AcDbVertex
100
AcDb2dVertex
 10
120.041496084877
 20
868.296658286452
 30
0.0
  0
VERTEX
  5
43A
330
422
100
AcDbEntity
  8
Make2D$可见线$普通线
100
AcDbVertex
100
AcDb2dVertex
 10
120.023598515007
 20
868.3282559318837
 30
0.0
  0
VERTEX
  5
43B
330
422
100
AcDbEntity
  8
Make2D$可见线$普通线
100
AcDbVertex
100
AcDb2dVertex
 10
120.0153591499603
 20
868.3419659124964
 30
0.0
  0
VERTEX
  5
43C
330
422
100
AcDbEntity
  8
Make2D$可见线$普通线
100
AcDbVertex
100
AcDb2dVertex
 10
120.0076051169254
 20
868.3542712399513
 30
0.0
  0
VERTEX
  5
43D
330
422
100
AcDbEntity
  8
Make2D$可见线$普通线
100
AcDbVertex
100
AcDb2dVertex
 10
120.0003457049666
 20
868.3651628454315
 30
0.0
  0
VERTEX
  5
43E
330
422
100
AcDbEntity
  8
Make2D$可见线$普通线
100
AcDbVertex
100
AcDb2dVertex
 10
119.9969043847234
 20
868.3700756684258
 30
0.0
  0
VERTEX
  5
43F
330
422
100
AcDbEntity
  8
Make2D$可见线$普通线
100
AcDbVertex
100
AcDb2dVertex
 10
119.9935902031485
 20
868.37463166012
 30
0.0
  0
VERTEX
  5
440
330
422
100
AcDbEntity
  8
Make2D$可见线$普通线
100
AcDbVertex
100
AcDb2dVertex
 10
119.9904043213749
 20
868.3788296869122
 30
0.0
  0
VERTEX
  5
441
330
422
100
AcDbEntity
  8
Make2D$可见线$普通线
100
AcDbVertex
100
AcDb2dVertex
 10
119.9873479005357
 20
868.3826686152001
 30
0.0
  0
VERTEX
  5
442
330
422
100
AcDbEntity
  8
Make2D$可见线$普通线
100
AcDbVertex
100
AcDb2dVertex
 10
119.9844221017639
 20
868.3861473113818
 30
0.0
  0
VERTEX
  5
443
330
422
100
AcDbEntity
  8
Make2D$可见线$普通线
100
AcDbVertex
100
AcDb2dVertex
 10
119.9816280861926
 20
868.3892646418551
 30
0.0
  0
VERTEX
  5
444
330
422
100
AcDbEntity
  8
Make2D$可见线$普通线
100
AcDbVertex
100
AcDb2dVertex
 10
119.978967014955
 20
868.3920194730179
 30
0.0
  0
VERTEX
  5
445
330
422
100
AcDbEntity
  8
Make2D$可见线$普通线
100
AcDbVertex
100
AcDb2dVertex
 10
119.9764400491839
 20
868.3944106712679
 30
0.0
  0
VERTEX
  5
446
330
422
100
AcDbEntity
  8
Make2D$可见线$普通线
100
AcDbVertex
100
AcDb2dVertex
 10
119.9740483500126
 20
868.3964371030033
 30
0.0
  0
VERTEX
  5
447
330
422
100
AcDbEntity
  8
Make2D$可见线$普通线
100
AcDbVertex
100
AcDb2dVertex
 10
119.9717930785741
 20
868.3980976346218
 30
0.0
  0
VERTEX
  5
448
330
422
100
AcDbEntity
  8
Make2D$可见线$普通线
100
AcDbVertex
100
AcDb2dVertex
 10
119.9696753960014
 20
868.3993911325213
 30
0.0
  0
VERTEX
  5
449
330
422
100
AcDbEntity
  8
Make2D$可见线$普通线
100
AcDbVertex
100
AcDb2dVertex
 10
119.9676964634276
 20
868.4003164630997
 30
0.0
  0
VERTEX
  5
44A
330
422
100
AcDbEntity
  8
Make2D$可见线$普通线
100
AcDbVertex
100
AcDb2dVertex
 10
119.9658574419859
 20
868.400872492755
 30
0.0
  0
VERTEX
  5
44B
330
422
100
AcDbEntity
  8
Make2D$可见线$普通线
100
AcDbVertex
100
AcDb2dVertex
 10
119.9641594928091
 20
868.401058087885
 30
0.0
  0
SEQEND
  5
44C
330
422
100
AcDbEntity
  8
Make2D$可见线$普通线
  0
ARC
  5
44D
330
1F
100
AcDbEntity
  8
Make2D$可见线$普通线
100
AcDbCircle
 10
76.28455872682173
 20
775.9722905724952
 30
0.0
 40
0.5000082855569178
100
AcDbArc
 50
180.0059767256109
 51
270.0009490809124
  0
LINE
  5
44E
330
1F
100
AcDbEntity
  8
Make2D$可见线$普通线
100
AcDbLine
 10
76.29141891639007
 20
775.4722822870069
 30
0.0
 11
76.31194375800733
 21
775.4722822870069
 31
0.0
  0
ARC
  5
44F
330
1F
100
AcDbEntity
  8
Make2D$可见线$普通线
100
AcDbCircle
 10
121.2880562309587
 20
775.9722904886154
 30
0.0
 40
0.5000082016756818
100
AcDbArc
 50
269.9990605268231
 51
359.9940329628602
  0
LINE
  5
450
330
1F
100
AcDbEntity
  8
Make2D$可见线$普通线
100
AcDbLine
 10
75.77733355034405
 20
894.9173471936122
 30
0.0
 11
75.77723178707947
 21
872.9173472136082
 31
0.0
  0
LINE
  5
451
330
1F
100
AcDbEntity
  8
Make2D$可见线$普通线
100
AcDbLine
 10
121.7952890389469
 20
894.9173471936124
 30
0.0
 11
121.7953908022115
 21
872.9173472128966
 31
0.0
  0
LINE
  5
452
330
1F
100
AcDbEntity
  8
Make2D$可见线$普通线
100
AcDbLine
 10
75.78288414280128
 20
868.4140184844715
 30
0.0
 11
75.78577061021578
 21
868.4139979895799
 31
0.0
  0
LINE
  5
453
330
1F
100
AcDbEntity
  8
Make2D$可见线$普通线
100
AcDbLine
 10
77.18399770976764
 20
868.4040701058493
 30
0.0
 11
77.60823099720858
 21
868.401057906505
 31
0.0
  0
LINE
  5
454
330
1F
100
AcDbEntity
  8
Make2D$可见线$普通线
100
AcDbLine
 10
77.61344843556036
 20
868.401057906505
 30
0.0
 11
77.6941795034233
 21
868.401057906505
 31
0.0
  0
LINE
  5
455
330
1F
100
AcDbEntity
  8
Make2D$可见线$普通线
100
AcDbLine
 10
79.09544254392371
 20
868.401057906505
 30
0.0
 11
98.78631129464549
 21
868.401057906505
 31
0.0
  0
LINE
  5
456
330
1F
100
AcDbEntity
  8
Make2D$可见线$普通线
100
AcDbLine
 10
98.78631129464549
 20
868.401057906505
 30
0.0
 11
118.4772267909713
 21
868.401057906505
 31
0.0
  0
LINE
  5
457
330
1F
100
AcDbEntity
  8
Make2D$可见线$普通线
100
AcDbLine
 10
119.8784931591306
 20
868.401057906505
 30
0.0
 11
119.9641594928097
 21
868.401057906505
 31
0.0
  0
LINE
  5
458
330
1F
100
AcDbEntity
  8
Make2D$可见线$普通线
100
AcDbLine
 10
120.5719619949102
 20
868.405371861169
 30
0.0
 11
119.9643915920824
 21
868.401057906505
 31
0.0
  0
POLYLINE
  5
459
330
1F
100
AcDbEntity
  8
Make2D$可见线$普通线
100
AcDb2dPolyline
 66
     1
 10
0.0
 20
0.0
 30
0.0
  0
VERTEX
  5
45A
330
459
100
AcDbEntity
  8
Make2D$可见线$普通线
100
AcDbVertex
100
AcDb2dVertex
 10
86.25614300650415
 20
899.2025060072796
 30
0.0
  0
VERTEX
  5
45B
330
459
100
AcDbEntity
  8
Make2D$可见线$普通线
100
AcDbVertex
100
AcDb2dVertex
 10
81.24491614858238
 20
898.9687538110767
 30
0.0
  0
VERTEX
  5
45C
330
459
100
AcDbEntity
  8
Make2D$可见线$普通线
100
AcDbVertex
100
AcDb2dVertex
 10
76.24645540217841
 20
898.6593003126109
 30
0.0
  0
VERTEX
  5
45D
330
459
100
AcDbEntity
  8
Make2D$可见线$普通线
100
AcDbVertex
100
AcDb2dVertex
 10
76.23576214875312
 20
898.6585231261043
 30
0.0
  0
VERTEX
  5
45E
330
459
100
AcDbEntity
  8
Make2D$可见线$普通线
100
AcDbVertex
100
AcDb2dVertex
 10
76.2249998145739
 20
898.6575075586404
 30
0.0
  0
VERTEX
  5
45F
330
459
100
AcDbEntity
  8
Make2D$可见线$普通线
100
AcDbVertex
100
AcDb2dVertex
 10
76.21417541224753
 20
898.656248542358
 30
0.0
  0
VERTEX
  5
460
330
459
100
AcDbEntity
  8
Make2D$可见线$普通线
100
AcDbVertex
100
AcDb2dVertex
 10
76.20329628476463
 20
898.654741241428
 30
0.0
  0
VERTEX
  5
461
330
459
100
AcDbEntity
  8
Make2D$可见线$普通线
100
AcDbVertex
100
AcDb2dVertex
 10
76.19237009872711
 20
898.6529810746987
 30
0.0
  0
VERTEX
  5
462
330
459
100
AcDbEntity
  8
Make2D$可见线$普通线
100
AcDbVertex
100
AcDb2dVertex
 10
76.1814048359092
 20
898.650963738375
 30
0.0
  0
VERTEX
  5
463
330
459
100
AcDbEntity
  8
Make2D$可见线$普通线
100
AcDbVertex
100
AcDb2dVertex
 10
76.1704087831089
 20
898.6486852285988
 30
0.0
  0
VERTEX
  5
464
330
459
100
AcDbEntity
  8
Make2D$可见线$普通线
100
AcDbVertex
100
AcDb2dVertex
 10
76.15939052025747
 20
898.6461418637949
 30
0.0
  0
VERTEX
  5
465
330
459
100
AcDbEntity
  8
Make2D$可见线$普通线
100
AcDbVertex
100
AcDb2dVertex
 10
76.14835890676639
 20
898.6433303066369
 30
0.0
  0
VERTEX
  5
466
330
459
100
AcDbEntity
  8
Make2D$可见线$普通线
100
AcDbVertex
100
AcDb2dVertex
 10
76.13732306610335
 20
898.6402475854823
 30
0.0
  0
VERTEX
  5
467
330
459
100
AcDbEntity
  8
Make2D$可见线$普通线
100
AcDbVertex
100
AcDb2dVertex
 10
76.12629236860371
 20
898.6368911151226
 30
0.0
  0
VERTEX
  5
468
330
459
100
AcDbEntity
  8
Make2D$可见线$普通线
100
AcDbVertex
100
AcDb2dVertex
 10
76.11527641253721
 20
898.6332587166919
 30
0.0
  0
VERTEX
  5
469
330
459
100
AcDbEntity
  8
Make2D$可见线$普通线
100
AcDbVertex
100
AcDb2dVertex
 10
76.1042850034657
 20
898.629348636574
 30
0.0
  0
VERTEX
  5
46A
330
459
100
AcDbEntity
  8
Make2D$可见线$普通线
100
AcDbVertex
100
AcDb2dVertex
 10
76.09332813194281
 20
898.6251595641486
 30
0.0
  0
VERTEX
  5
46B
330
459
100
AcDbEntity
  8
Make2D$可见线$普通线
100
AcDbVertex
100
AcDb2dVertex
 10
76.08241594962314
 20
898.6206906482203
 30
0.0
  0
VERTEX
  5
46C
330
459
100
AcDbEntity
  8
Make2D$可见线$普通线
100
AcDbVertex
100
AcDb2dVertex
 10
76.071558743864
 20
898.6159415119764
 30
0.0
  0
VERTEX
  5
46D
330
459
100
AcDbEntity
  8
Make2D$可见线$普通线
100
AcDbVertex
100
AcDb2dVertex
 10
76.06076691091974
 20
898.610912266323
 30
0.0
  0
VERTEX
  5
46E
330
459
100
AcDbEntity
  8
Make2D$可见线$普通线
100
AcDbVertex
100
AcDb2dVertex
 10
76.05005092784383
 20
898.6056035214623
 30
0.0
  0
VERTEX
  5
46F
330
459
100
AcDbEntity
  8
Make2D$可见线$普通线
100
AcDbVertex
100
AcDb2dVertex
 10
76.03942132322982
 20
898.6000163965708
 30
0.0
  0
VERTEX
  5
470
330
459
100
AcDbEntity
  8
Make2D$可见线$普通线
100
AcDbVertex
100
AcDb2dVertex
 10
76.02888864693682
 20
898.5941525274663
 30
0.0
  0
VERTEX
  5
471
330
459
100
AcDbEntity
  8
Make2D$可见线$普通线
100
AcDbVertex
100
AcDb2dVertex
 10
76.0184634389587
 20
898.588014072145
 30
0.0
  0
VERTEX
  5
472
330
459
100
AcDbEntity
  8
Make2D$可见线$普通线
100
AcDbVertex
100
AcDb2dVertex
 10
76.0081561976091
 20
898.5816037141007
 30
0.0
  0
VERTEX
  5
473
330
459
100
AcDbEntity
  8
Make2D$可见线$普通线
100
AcDbVertex
100
AcDb2dVertex
 10
75.997977347205
 20
898.574924663341
 30
0.0
  0
VERTEX
  5
474
330
459
100
AcDbEntity
  8
Make2D$可见线$普通线
100
AcDbVertex
100
AcDb2dVertex
 10
75.98793720544205
 20
898.5679806550438
 30
0.0
  0
VERTEX
  5
475
330
459
100
AcDbEntity
  8
Make2D$可见线$普通线
100
AcDbVertex
100
AcDb2dVertex
 10
75.97804595066111
 20
898.5607759458038
 30
0.0
  0
VERTEX
  5
476
330
459
100
AcDbEntity
  8
Make2D$可见线$普通线
100
AcDbVertex
100
AcDb2dVertex
 10
75.96831358921293
 20
898.5533153074514
 30
0.0
  0
VERTEX
  5
477
330
459
100
AcDbEntity
  8
Make2D$可见线$普通线
100
AcDbVertex
100
AcDb2dVertex
 10
75.9587499231302
 20
898.545604018432
 30
0.0
  0
VERTEX
  5
478
330
459
100
AcDbEntity
  8
Make2D$可见线$普通线
100
AcDbVertex
100
AcDb2dVertex
 10
75.94936451831856
 20
898.5376478527685
 30
0.0
  0
VERTEX
  5
479
330
459
100
AcDbEntity
  8
Make2D$可见线$普通线
100
AcDbVertex
100
AcDb2dVertex
 10
75.94016667347665
 20
898.5294530666409
 30
0.0
  0
VERTEX
  5
47A
330
459
100
AcDbEntity
  8
Make2D$可见线$普通线
100
AcDbVertex
100
AcDb2dVertex
 10
75.93116538995272
 20
898.5210263826391
 30
0.0
  0
VERTEX
  5
47B
330
459
100
AcDbEntity
  8
Make2D$可见线$普通线
100
AcDbVertex
100
AcDb2dVertex
 10
75.92236934273974
 20
898.5123749717725
 30
0.0
  0
VERTEX
  5
47C
330
459
100
AcDbEntity
  8
Make2D$可见线$普通线
100
AcDbVertex
100
AcDb2dVertex
 10
75.91378685280252
 20
898.5035064333288
 30
0.0
  0
VERTEX
  5
47D
330
459
100
AcDbEntity
  8
Make2D$可见线$普通线
100
AcDbVertex
100
AcDb2dVertex
 10
75.90542586092162
 20
898.4944287727039
 30
0.0
  0
VERTEX
  5
47E
330
459
100
AcDbEntity
  8
Make2D$可见线$普通线
100
AcDbVertex
100
AcDb2dVertex
 10
75.89729390322587
 20
898.4851503773367
 30
0.0
  0
VERTEX
  5
47F
330
459
100
AcDbEntity
  8
Make2D$可见线$普通线
100
AcDbVertex
100
AcDb2dVertex
 10
75.8893980885714
 20
898.4756799908989
 30
0.0
  0
VERTEX
  5
480
330
459
100
AcDbEntity
  8
Make2D$可见线$普通线
100
AcDbVertex
100
AcDb2dVertex
 10
75.88174507790987
 20
898.4660266859088
 30
0.0
  0
VERTEX
  5
481
330
459
100
AcDbEntity
  8
Make2D$可见线$普通线
100
AcDbVertex
100
AcDb2dVertex
 10
75.87434106577132
 20
898.4561998349486
 30
0.0
  0
VERTEX
  5
482
330
459
100
AcDbEntity
  8
Make2D$可见线$普通线
100
AcDbVertex
100
AcDb2dVertex
 10
75.86719176396741
 20
898.4462090806726
 30
0.0
  0
VERTEX
  5
483
330
459
100
AcDbEntity
  8
Make2D$可见线$普通线
100
AcDbVertex
100
AcDb2dVertex
 10
75.8603023876031
 20
898.4360643048103
 30
0.0
  0
VERTEX
  5
484
330
459
100
AcDbEntity
  8
Make2D$可见线$普通线
100
AcDbVertex
100
AcDb2dVertex
 10
75.85367764346255
 20
898.4257755963665
 30
0.0
  0
VERTEX
  5
485
330
459
100
AcDbEntity
  8
Make2D$可见线$普通线
100
AcDbVertex
100
AcDb2dVertex
 10
75.84732172081597
 20
898.4153532192304
 30
0.0
  0
VERTEX
  5
486
330
459
100
AcDbEntity
  8
Make2D$可见线$普通线
100
AcDbVertex
100
AcDb2dVertex
 10
75.84123828467162
 20
898.4048075794076
 30
0.0
  0
VERTEX
  5
487
330
459
100
AcDbEntity
  8
Make2D$可见线$普通线
100
AcDbVertex
100
AcDb2dVertex
 10
75.83543047147728
 20
898.3941491920812
 30
0.0
  0
VERTEX
  5
488
330
459
100
AcDbEntity
  8
Make2D$可见线$普通线
100
AcDbVertex
100
AcDb2dVertex
 10
75.82990088725468
 20
898.3833886487196
 30
0.0
  0
VERTEX
  5
489
330
459
100
AcDbEntity
  8
Make2D$可见线$普通线
100
AcDbVertex
100
AcDb2dVertex
 10
75.82465160813022
 20
898.3725365844255
 30
0.0
  0
VERTEX
  5
48A
330
459
100
AcDbEntity
  8
Make2D$可见线$普通线
100
AcDbVertex
100
AcDb2dVertex
 10
75.81968418320699
 20
898.3616036457338
 30
0.0
  0
VERTEX
  5
48B
330
459
100
AcDbEntity
  8
Make2D$可见线$普通线
100
AcDbVertex
100
AcDb2dVertex
 10
75.81499963970425
 20
898.3506004590384
 30
0.0
  0
VERTEX
  5
48C
330
459
100
AcDbEntity
  8
Make2D$可见线$普通线
100
AcDbVertex
100
AcDb2dVertex
 10
75.81059849027514
 20
898.3395375998313
 30
0.0
  0
VERTEX
  5
48D
330
459
100
AcDbEntity
  8
Make2D$可见线$普通线
100
AcDbVertex
100
AcDb2dVertex
 10
75.80648074239717
 20
898.3284255629171
 30
0.0
  0
VERTEX
  5
48E
330
459
100
AcDbEntity
  8
Make2D$可见线$普通线
100
AcDbVertex
100
AcDb2dVertex
 10
75.80264590971764
 20
898.317274733761
 30
0.0
  0
VERTEX
  5
48F
330
459
100
AcDbEntity
  8
Make2D$可见线$普通线
100
AcDbVertex
100
AcDb2dVertex
 10
75.79909302522346
 20
898.3060953610985
 30
0.0
  0
VERTEX
  5
490
330
459
100
AcDbEntity
  8
Make2D$可见线$普通线
100
AcDbVertex
100
AcDb2dVertex
 10
75.79582065609583
 20
898.2948975309428
 30
0.0
  0
VERTEX
  5
491
330
459
100
AcDbEntity
  8
Make2D$可见线$普通线
100
AcDbVertex
100
AcDb2dVertex
 10
75.79282692010163
 20
898.2836911420859
 30
0.0
  0
VERTEX
  5
492
330
459
100
AcDbEntity
  8
Make2D$可见线$普通线
100
AcDbVertex
100
AcDb2dVertex
 10
75.79010950336719
 20
898.2724858831913
 30
0.0
  0
VERTEX
  5
493
330
459
100
AcDbEntity
  8
Make2D$可见线$普通线
100
AcDbVertex
100
AcDb2dVertex
 10
75.78766567937657
 20
898.2612912115497
 30
0.0
  0
VERTEX
  5
494
330
459
100
AcDbEntity
  8
Make2D$可见线$普通线
100
AcDbVertex
100
AcDb2dVertex
 10
75.78549232903268
 20
898.2501163335571
 30
0.0
  0
VERTEX
  5
495
330
459
100
AcDbEntity
  8
Make2D$可见线$普通线
100
AcDbVertex
100
AcDb2dVertex
 10
75.78358596161999
 20
898.2389701869548
 30
0.0
  0
VERTEX
  5
496
330
459
100
AcDbEntity
  8
Make2D$可见线$普通线
100
AcDbVertex
100
AcDb2dVertex
 10
75.78194273650807
 20
898.2278614248627
 30
0.0
  0
VERTEX
  5
497
330
459
100
AcDbEntity
  8
Make2D$可见线$普通线
100
AcDbVertex
100
AcDb2dVertex
 10
75.78055848543708
 20
898.2167984016105
 30
0.0
  0
VERTEX
  5
498
330
459
100
AcDbEntity
  8
Make2D$可见线$普通线
100
AcDbVertex
100
AcDb2dVertex
 10
75.77942873523139
 20
898.2057891603691
 30
0.0
  0
VERTEX
  5
499
330
459
100
AcDbEntity
  8
Make2D$可见线$普通线
100
AcDbVertex
100
AcDb2dVertex
 10
75.77854873079107
 20
898.1948414225631
 30
0.0
  0
VERTEX
  5
49A
330
459
100
AcDbEntity
  8
Make2D$可见线$普通线
100
AcDbVertex
100
AcDb2dVertex
 10
75.77791345821888
 20
898.183962579036
 30
0.0
  0
VERTEX
  5
49B
330
459
100
AcDbEntity
  8
Make2D$可见线$普通线
100
AcDbVertex
100
AcDb2dVertex
 10
75.77751766794601
 20
898.1731596829281
 30
0.0
  0
VERTEX
  5
49C
330
459
100
AcDbEntity
  8
Make2D$可见线$普通线
100
AcDbVertex
100
AcDb2dVertex
 10
75.77733355034427
 20
894.9173472271036
 30
0.0
  0
SEQEND
  5
49D
330
459
100
AcDbEntity
  8
Make2D$可见线$普通线
  0
LINE
  5
49E
330
1F
100
AcDbEntity
  8
Make2D$可见线$普通线
100
AcDbLine
 10
75.77723178707942
 20
872.9173471936124
 30
0.0
 11
75.77721590077243
 21
868.4140587309006
 31
0.0
  0
LINE
  5
49F
330
1F
100
AcDbEntity
  8
Make2D$可见线$普通线
100
AcDbLine
 10
96.31580118140653
 20
899.4336317050982
 30
0.0
 11
91.36857803007562
 21
899.357465328358
 31
0.0
  0
LINE
  5
4A0
330
1F
100
AcDbEntity
  8
Make2D$可见线$普通线
100
AcDbLine
 10
91.36857803007562
 20
899.357465328358
 30
0.0
 11
86.42912205437857
 21
899.2025060435649
 31
0.0
  0
LINE
  5
4A1
330
1F
100
AcDbEntity
  8
Make2D$可见线$普通线
100
AcDbLine
 10
86.4290381910168
 20
899.2025060072796
 30
0.0
 11
86.25614300650415
 21
899.2025060072796
 31
0.0
  0
LINE
  5
4A2
330
1F
100
AcDbEntity
  8
Make2D$可见线$普通线
100
AcDbLine
 10
98.78631129464549
 20
899.4336317743116
 30
0.0
 11
96.31581080522805
 21
899.4336317743117
 31
0.0
  0
LINE
  5
4A3
330
1F
100
AcDbEntity
  8
Make2D$可见线$普通线
100
AcDbLine
 10
101.2913994377724
 20
899.4336317743116
 30
0.0
 11
98.78631129464549
 21
899.4336317743116
 31
0.0
  0
POLYLINE
  5
4A4
330
1F
100
AcDbEntity
  8
Make2D$可见线$普通线
100
AcDb2dPolyline
 66
     1
 10
0.0
 20
0.0
 30
0.0
  0
VERTEX
  5
4A5
330
4A4
100
AcDbEntity
  8
Make2D$可见线$普通线
100
AcDbVertex
100
AcDb2dVertex
 10
101.2913994377724
 20
899.4336317743116
 30
0.0
  0
VERTEX
  5
4A6
330
4A4
100
AcDbEntity
  8
Make2D$可见线$普通线
100
AcDbVertex
100
AcDb2dVertex
 10
106.3078791540358
 20
899.3574653283579
 30
0.0
  0
VERTEX
  5
4A7
330
4A4
100
AcDbEntity
  8
Make2D$可见线$普通线
100
AcDbVertex
100
AcDb2dVertex
 10
111.3164795827868
 20
899.2025060072796
 30
0.0
  0
VERTEX
  5
4A8
330
4A4
100
AcDbEntity
  8
Make2D$可见线$普通线
100
AcDbVertex
100
AcDb2dVertex
 10
116.3277064407086
 20
898.9687538110767
 30
0.0
  0
VERTEX
  5
4A9
330
4A4
100
AcDbEntity
  8
Make2D$可见线$普通线
100
AcDbVertex
100
AcDb2dVertex
 10
121.3261671871126
 20
898.6593003126109
 30
0.0
  0
VERTEX
  5
4AA
330
4A4
100
AcDbEntity
  8
Make2D$可见线$普通线
100
AcDbVertex
100
AcDb2dVertex
 10
121.3368604405378
 20
898.6585231261043
 30
0.0
  0
VERTEX
  5
4AB
330
4A4
100
AcDbEntity
  8
Make2D$可见线$普通线
100
AcDbVertex
100
AcDb2dVertex
 10
121.3476227747171
 20
898.6575075586404
 30
0.0
  0
VERTEX
  5
4AC
330
4A4
100
AcDbEntity
  8
Make2D$可见线$普通线
100
AcDbVertex
100
AcDb2dVertex
 10
121.3584471770434
 20
898.6562485423578
 30
0.0
  0
VERTEX
  5
4AD
330
4A4
100
AcDbEntity
  8
Make2D$可见线$普通线
100
AcDbVertex
100
AcDb2dVertex
 10
121.3693263045264
 20
898.6547412414279
 30
0.0
  0
VERTEX
  5
4AE
330
4A4
100
AcDbEntity
  8
Make2D$可见线$普通线
100
AcDbVertex
100
AcDb2dVertex
 10
121.3802524905638
 20
898.6529810746989
 30
0.0
  0
VERTEX
  5
4AF
330
4A4
100
AcDbEntity
  8
Make2D$可见线$普通线
100
AcDbVertex
100
AcDb2dVertex
 10
121.3912177533818
 20
898.650963738375
 30
0.0
  0
VERTEX
  5
4B0
330
4A4
100
AcDbEntity
  8
Make2D$可见线$普通线
100
AcDbVertex
100
AcDb2dVertex
 10
121.4022138061821
 20
898.6486852285988
 30
0.0
  0
VERTEX
  5
4B1
330
4A4
100
AcDbEntity
  8
Make2D$可见线$普通线
100
AcDbVertex
100
AcDb2dVertex
 10
121.4132320690335
 20
898.646141863795
 30
0.0
  0
VERTEX
  5
4B2
330
4A4
100
AcDbEntity
  8
Make2D$可见线$普通线
100
AcDbVertex
100
AcDb2dVertex
 10
121.4242636825246
 20
898.643330306637
 30
0.0
  0
VERTEX
  5
4B3
330
4A4
100
AcDbEntity
  8
Make2D$可见线$普通线
100
AcDbVertex
100
AcDb2dVertex
 10
121.4352995231876
 20
898.6402475854821
 30
0.0
  0
VERTEX
  5
4B4
330
4A4
100
AcDbEntity
  8
Make2D$可见线$普通线
100
AcDbVertex
100
AcDb2dVertex
 10
121.4463302206873
 20
898.6368911151227
 30
0.0
  0
VERTEX
  5
4B5
330
4A4
100
AcDbEntity
  8
Make2D$可见线$普通线
100
AcDbVertex
100
AcDb2dVertex
 10
121.4573461767538
 20
898.633258716692
 30
0.0
  0
VERTEX
  5
4B6
330
4A4
100
AcDbEntity
  8
Make2D$可见线$普通线
100
AcDbVertex
100
AcDb2dVertex
 10
121.4683375858253
 20
898.6293486365744
 30
0.0
  0
VERTEX
  5
4B7
330
4A4
100
AcDbEntity
  8
Make2D$可见线$普通线
100
AcDbVertex
100
AcDb2dVertex
 10
121.4792944573482
 20
898.6251595641488
 30
0.0
  0
VERTEX
  5
4B8
330
4A4
100
AcDbEntity
  8
Make2D$可见线$普通线
100
AcDbVertex
100
AcDb2dVertex
 10
121.4902066396679
 20
898.6206906482206
 30
0.0
  0
VERTEX
  5
4B9
330
4A4
100
AcDbEntity
  8
Make2D$可见线$普通线
100
AcDbVertex
100
AcDb2dVertex
 10
121.501063845427
 20
898.6159415119765
 30
0.0
  0
VERTEX
  5
4BA
330
4A4
100
AcDbEntity
  8
Make2D$可见线$普通线
100
AcDbVertex
100
AcDb2dVertex
 10
121.5118556783712
 20
898.6109122663233
 30
0.0
  0
VERTEX
  5
4BB
330
4A4
100
AcDbEntity
  8
Make2D$可见线$普通线
100
AcDbVertex
100
AcDb2dVertex
 10
121.5225716614472
 20
898.6056035214625
 30
0.0
  0
VERTEX
  5
4BC
330
4A4
100
AcDbEntity
  8
Make2D$可见线$普通线
100
AcDbVertex
100
AcDb2dVertex
 10
121.5332012660612
 20
898.600016396571
 30
0.0
  0
VERTEX
  5
4BD
330
4A4
100
AcDbEntity
  8
Make2D$可见线$普通线
100
AcDbVertex
100
AcDb2dVertex
 10
121.5437339423542
 20
898.5941525274665
 30
0.0
  0
VERTEX
  5
4BE
330
4A4
100
AcDbEntity
  8
Make2D$可见线$普通线
100
AcDbVertex
100
AcDb2dVertex
 10
121.5541591503323
 20
898.5880140721449
 30
0.0
  0
VERTEX
  5
4BF
330
4A4
100
AcDbEntity
  8
Make2D$可见线$普通线
100
AcDbVertex
100
AcDb2dVertex
 10
121.5644663916819
 20
898.5816037141005
 30
0.0
  0
VERTEX
  5
4C0
330
4A4
100
AcDbEntity
  8
Make2D$可见线$普通线
100
AcDbVertex
100
AcDb2dVertex
 10
121.574645242086
 20
898.5749246633412
 30
0.0
  0
VERTEX
  5
4C1
330
4A4
100
AcDbEntity
  8
Make2D$可见线$普通线
100
AcDbVertex
100
AcDb2dVertex
 10
121.584685383849
 20
898.5679806550438
 30
0.0
  0
VERTEX
  5
4C2
330
4A4
100
AcDbEntity
  8
Make2D$可见线$普通线
100
AcDbVertex
100
AcDb2dVertex
 10
121.5945766386299
 20
898.5607759458042
 30
0.0
  0
VERTEX
  5
4C3
330
4A4
100
AcDbEntity
  8
Make2D$可见线$普通线
100
AcDbVertex
100
AcDb2dVertex
 10
121.6043090000781
 20
898.5533153074516
 30
0.0
  0
VERTEX
  5
4C4
330
4A4
100
AcDbEntity
  8
Make2D$可见线$普通线
100
AcDbVertex
100
AcDb2dVertex
 10
121.6138726661608
 20
898.545604018432
 30
0.0
  0
VERTEX
  5
4C5
330
4A4
100
AcDbEntity
  8
Make2D$可见线$普通线
100
AcDbVertex
100
AcDb2dVertex
 10
121.6232580709725
 20
898.5376478527686
 30
0.0
  0
VERTEX
  5
4C6
330
4A4
100
AcDbEntity
  8
Make2D$可见线$普通线
100
AcDbVertex
100
AcDb2dVertex
 10
121.6324559158144
 20
898.529453066641
 30
0.0
  0
VERTEX
  5
4C7
330
4A4
100
AcDbEntity
  8
Make2D$可见线$普通线
100
AcDbVertex
100
AcDb2dVertex
 10
121.6414571993383
 20
898.5210263826392
 30
0.0
  0
VERTEX
  5
4C8
330
4A4
100
AcDbEntity
  8
Make2D$可见线$普通线
100
AcDbVertex
100
AcDb2dVertex
 10
121.6502532465513
 20
898.5123749717726
 30
0.0
  0
VERTEX
  5
4C9
330
4A4
100
AcDbEntity
  8
Make2D$可见线$普通线
100
AcDbVertex
100
AcDb2dVertex
 10
121.6588357364886
 20
898.5035064333289
 30
0.0
  0
VERTEX
  5
4CA
330
4A4
100
AcDbEntity
  8
Make2D$可见线$普通线
100
AcDbVertex
100
AcDb2dVertex
 10
121.6671967283694
 20
898.4944287727042
 30
0.0
  0
VERTEX
  5
4CB
330
4A4
100
AcDbEntity
  8
Make2D$可见线$普通线
100
AcDbVertex
100
AcDb2dVertex
 10
121.6753286860652
 20
898.4851503773368
 30
0.0
  0
VERTEX
  5
4CC
330
4A4
100
AcDbEntity
  8
Make2D$可见线$普通线
100
AcDbVertex
100
AcDb2dVertex
 10
121.6832245007197
 20
898.4756799908989
 30
0.0
  0
VERTEX
  5
4CD
330
4A4
100
AcDbEntity
  8
Make2D$可见线$普通线
100
AcDbVertex
100
AcDb2dVertex
 10
121.6908775113812
 20
898.4660266859088
 30
0.0
  0
VERTEX
  5
4CE
330
4A4
100
AcDbEntity
  8
Make2D$可见线$普通线
100
AcDbVertex
100
AcDb2dVertex
 10
121.6982815235197
 20
898.4561998349487
 30
0.0
  0
VERTEX
  5
4CF
330
4A4
100
AcDbEntity
  8
Make2D$可见线$普通线
100
AcDbVertex
100
AcDb2dVertex
 10
121.7054308253236
 20
898.4462090806728
 30
0.0
  0
VERTEX
  5
4D0
330
4A4
100
AcDbEntity
  8
Make2D$可见线$普通线
100
AcDbVertex
100
AcDb2dVertex
 10
121.712320201688
 20
898.4360643048105
 30
0.0
  0
VERTEX
  5
4D1
330
4A4
100
AcDbEntity
  8
Make2D$可见线$普通线
100
AcDbVertex
100
AcDb2dVertex
 10
121.7189449458285
 20
898.4257755963664
 30
0.0
  0
VERTEX
  5
4D2
330
4A4
100
AcDbEntity
  8
Make2D$可见线$普通线
100
AcDbVertex
100
AcDb2dVertex
 10
121.7253008684751
 20
898.4153532192306
 30
0.0
  0
VERTEX
  5
4D3
330
4A4
100
AcDbEntity
  8
Make2D$可见线$普通线
100
AcDbVertex
100
AcDb2dVertex
 10
121.7313843046194
 20
898.4048075794075
 30
0.0
  0
VERTEX
  5
4D4
330
4A4
100
AcDbEntity
  8
Make2D$可见线$普通线
100
AcDbVertex
100
AcDb2dVertex
 10
121.7371921178138
 20
898.3941491920813
 30
0.0
  0
VERTEX
  5
4D5
330
4A4
100
AcDbEntity
  8
Make2D$可见线$普通线
100
AcDbVertex
100
AcDb2dVertex
 10
121.7427217020364
 20
898.3833886487196
 30
0.0
  0
VERTEX
  5
4D6
330
4A4
100
AcDbEntity
  8
Make2D$可见线$普通线
100
AcDbVertex
100
AcDb2dVertex
 10
121.7479709811608
 20
898.3725365844255
 30
0.0
  0
VERTEX
  5
4D7
330
4A4
100
AcDbEntity
  8
Make2D$可见线$普通线
100
AcDbVertex
100
AcDb2dVertex
 10
121.7529384060841
 20
898.3616036457339
 30
0.0
  0
VERTEX
  5
4D8
330
4A4
100
AcDbEntity
  8
Make2D$可见线$普通线
100
AcDbVertex
100
AcDb2dVertex
 10
121.7576229495868
 20
898.3506004590387
 30
0.0
  0
VERTEX
  5
4D9
330
4A4
100
AcDbEntity
  8
Make2D$可见线$普通线
100
AcDbVertex
100
AcDb2dVertex
 10
121.7620240990159
 20
898.3395375998313
 30
0.0
  0
VERTEX
  5
4DA
330
4A4
100
AcDbEntity
  8
Make2D$可见线$普通线
100
AcDbVertex
100
AcDb2dVertex
 10
121.7661418468939
 20
898.3284255629176
 30
0.0
  0
VERTEX
  5
4DB
330
4A4
100
AcDbEntity
  8
Make2D$可见线$普通线
100
AcDbVertex
100
AcDb2dVertex
 10
121.7699766795734
 20
898.3172747337613
 30
0.0
  0
VERTEX
  5
4DC
330
4A4
100
AcDbEntity
  8
Make2D$可见线$普通线
100
AcDbVertex
100
AcDb2dVertex
 10
121.7735295640676
 20
898.306095361099
 30
0.0
  0
VERTEX
  5
4DD
330
4A4
100
AcDbEntity
  8
Make2D$可见线$普通线
100
AcDbVertex
100
AcDb2dVertex
 10
121.7768019331952
 20
898.2948975309431
 30
0.0
  0
VERTEX
  5
4DE
330
4A4
100
AcDbEntity
  8
Make2D$可见线$普通线
100
AcDbVertex
100
AcDb2dVertex
 10
121.7797956691895
 20
898.2836911420862
 30
0.0
  0
VERTEX
  5
4DF
330
4A4
100
AcDbEntity
  8
Make2D$可见线$普通线
100
AcDbVertex
100
AcDb2dVertex
 10
121.7825130859238
 20
898.2724858831914
 30
0.0
  0
VERTEX
  5
4E0
330
4A4
100
AcDbEntity
  8
Make2D$可见线$普通线
100
AcDbVertex
100
AcDb2dVertex
 10
121.7849569099145
 20
898.26129121155
 30
0.0
  0
VERTEX
  5
4E1
330
4A4
100
AcDbEntity
  8
Make2D$可见线$普通线
100
AcDbVertex
100
AcDb2dVertex
 10
121.7871302602583
 20
898.2501163335572
 30
0.0
  0
VERTEX
  5
4E2
330
4A4
100
AcDbEntity
  8
Make2D$可见线$普通线
100
AcDbVertex
100
AcDb2dVertex
 10
121.789036627671
 20
898.238970186955
 30
0.0
  0
VERTEX
  5
4E3
330
4A4
100
AcDbEntity
  8
Make2D$可见线$普通线
100
AcDbVertex
100
AcDb2dVertex
 10
121.7906798527829
 20
898.2278614248628
 30
0.0
  0
VERTEX
  5
4E4
330
4A4
100
AcDbEntity
  8
Make2D$可见线$普通线
100
AcDbVertex
100
AcDb2dVertex
 10
121.7920641038539
 20
898.2167984016105
 30
0.0
  0
VERTEX
  5
4E5
330
4A4
100
AcDbEntity
  8
Make2D$可见线$普通线
100
AcDbVertex
100
AcDb2dVertex
 10
121.7931938540596
 20
898.2057891603691
 30
0.0
  0
VERTEX
  5
4E6
330
4A4
100
AcDbEntity
  8
Make2D$可见线$普通线
100
AcDbVertex
100
AcDb2dVertex
 10
121.7940738584999
 20
898.1948414225633
 30
0.0
  0
VERTEX
  5
4E7
330
4A4
100
AcDbEntity
  8
Make2D$可见线$普通线
100
AcDbVertex
100
AcDb2dVertex
 10
121.7947091310721
 20
898.1839625790362
 30
0.0
  0
VERTEX
  5
4E8
330
4A4
100
AcDbEntity
  8
Make2D$可见线$普通线
100
AcDbVertex
100
AcDb2dVertex
 10
121.795104921345
 20
898.1731596829283
 30
0.0
  0
VERTEX
  5
4E9
330
4A4
100
AcDbEntity
  8
Make2D$可见线$普通线
100
AcDbVertex
100
AcDb2dVertex
 10
121.7952890389467
 20
894.9173472283392
 30
0.0
  0
SEQEND
  5
4EA
330
4A4
100
AcDbEntity
  8
Make2D$可见线$普通线
  0
LINE
  5
4EB
330
1F
100
AcDbEntity
  8
Make2D$可见线$普通线
100
AcDbLine
 10
121.7953908022116
 20
872.9173471936123
 30
0.0
 11
121.7954066885185
 21
868.4140587309006
 31
0.0
  0
ARC
  5
4EC
330
1F
100
AcDbEntity
  8
Make2D$可见线$普通线
100
AcDbCircle
 10
-42.91468895715769
 20
785.0459265807929
 30
0.0
 40
90.91530581317782
100
AcDbArc
 50
0.0829382929391233
 51
4.238031109487035
  0
LINE
  5
4ED
330
1F
100
AcDbEntity
  8
Make2D$可见线$普通线
100
AcDbLine
 10
0.0005216045138354
 20
745.677530648264
 30
0.0
 11
0.0005216045138354
 21
785.177530648264
 31
0.0
  0
LINE
  5
4EE
330
1F
100
AcDbEntity
  8
Make2D$可见线$普通线
100
AcDbLine
 10
43.78631129464549
 20
745.177530648264
 30
0.0
 11
43.78631129464549
 21
743.677530648264
 31
0.0
  0
LINE
  5
4EF
330
1F
100
AcDbEntity
  8
Make2D$可见线$普通线
100
AcDbLine
 10
3.786311294645486
 20
745.177530648264
 30
0.0
 11
3.786311294645486
 21
743.677530648264
 31
0.0
  0
LINE
  5
4F0
330
1F
100
AcDbEntity
  8
Make2D$可见线$普通线
100
AcDbLine
 10
47.50052160448047
 20
745.177530648264
 30
0.0
 11
47.43399933907042
 21
745.1775306482641
 31
0.0
  0
LINE
  5
4F1
330
1F
100
AcDbEntity
  8
Make2D$可见线$普通线
100
AcDbLine
 10
47.39533065004974
 20
745.1775306482638
 30
0.0
 11
47.38226563887228
 21
745.1775306482638
 31
0.0
  0
LINE
  5
4F2
330
1F
100
AcDbEntity
  8
Make2D$可见线$普通线
100
AcDbLine
 10
47.33186120537774
 20
745.1775306482639
 30
0.0
 11
47.25383282889698
 21
745.177530648264
 31
0.0
  0
LINE
  5
4F3
330
1F
100
AcDbEntity
  8
Make2D$可见线$普通线
100
AcDbLine
 10
47.23562111992535
 20
745.177530648264
 30
0.0
 11
47.16140039659874
 21
745.177530648264
 31
0.0
  0
LINE
  5
4F4
330
1F
100
AcDbEntity
  8
Make2D$可见线$普通线
100
AcDbLine
 10
47.14101261122593
 20
745.177530648264
 30
0.0
 11
47.05471878421807
 21
745.177530648264
 31
0.0
  0
LINE
  5
4F5
330
1F
100
AcDbEntity
  8
Make2D$可见线$普通线
100
AcDbLine
 10
47.03241480974215
 20
745.177530648264
 30
0.0
 11
46.93394286743962
 21
745.177530648264
 31
0.0
  0
LINE
  5
4F6
330
1F
100
AcDbEntity
  8
Make2D$可见线$普通线
100
AcDbLine
 10
46.90997887049871
 20
745.1775306482641
 30
0.0
 11
46.79922752193551
 21
745.1775306482639
 31
0.0
  0
LINE
  5
4F7
330
1F
100
AcDbEntity
  8
Make2D$可见线$普通线
100
AcDbLine
 10
46.7738559485203
 20
745.1775306482639
 30
0.0
 11
46.6507276233742
 21
745.1775306482639
 31
0.0
  0
LINE
  5
4F8
330
1F
100
AcDbEntity
  8
Make2D$可见线$普通线
100
AcDbLine
 10
46.62419719883162
 20
745.1775306482639
 30
0.0
 11
46.48859804742291
 21
745.1775306482639
 31
0.0
  0
LINE
  5
4F9
330
1F
100
AcDbEntity
  8
Make2D$可见线$普通线
100
AcDbLine
 10
46.46115377645741
 20
745.1775306482639
 30
0.0
 11
46.3129936697486
 21
745.1775306482639
 31
0.0
  0
LINE
  5
4FA
330
1F
100
AcDbEntity
  8
Make2D$可见线$普通线
100
AcDbLine
 10
46.28487683642231
 20
745.1775306482639
 30
0.0
 11
46.12406936149452
 21
745.1775306482639
 31
0.0
  0
LINE
  5
4FB
330
1F
100
AcDbEntity
  8
Make2D$可见线$普通线
100
AcDbLine
 10
46.09551753375106
 20
745.1775306482639
 30
0.0
 11
45.92197999276519
 21
745.177530648264
 31
0.0
  0
LINE
  5
4FC
330
1F
100
AcDbEntity
  8
Make2D$可见线$普通线
100
AcDbLine
 10
45.89322702346833
 20
745.1775306482639
 30
0.0
 11
45.70688050487564
 21
745.1775306482639
 31
0.0
  0
LINE
  5
4FD
330
1F
100
AcDbEntity
  8
Make2D$可见线$普通线
100
AcDbLine
 10
45.67815646059888
 20
745.177530648264
 30
0.0
 11
45.47892567084691
 21
745.177530648264
 31
0.0
  0
LINE
  5
4FE
330
1F
100
AcDbEntity
  8
Make2D$可见线$普通线
100
AcDbLine
 10
45.45045700016735
 20
745.177530648264
 30
0.0
 11
45.23827041506943
 21
745.177530648264
 31
0.0
  0
LINE
  5
4FF
330
1F
100
AcDbEntity
  8
Make2D$可见线$普通线
100
AcDbLine
 10
45.21027979719847
 20
745.1775306482639
 30
0.0
 11
44.98506961277278
 21
745.1775306482639
 31
0.0
  0
LINE
  5
500
330
1F
100
AcDbEntity
  8
Make2D$可见线$普通线
100
AcDbLine
 10
44.95777600671692
 20
745.1775306482641
 30
0.0
 11
44.719478139308
 21
745.177530648264
 31
0.0
  0
LINE
  5
501
330
1F
100
AcDbEntity
  8
Make2D$可见线$普通线
100
AcDbLine
 10
44.69309678374743
 20
745.1775306482641
 30
0.0
 11
44.4416508701113
 21
745.1775306482639
 31
0.0
  0
LINE
  5
502
330
1F
100
AcDbEntity
  8
Make2D$可见线$普通线
100
AcDbLine
 10
44.41639328331467
 20
745.1775306482639
 30
0.0
 11
44.15174268067913
 21
745.1775306482639
 31
0.0
  0
LINE
  5
503
330
1F
100
AcDbEntity
  8
Make2D$可见线$普通线
100
AcDbLine
 10
44.12781666044337
 20
745.1775306482639
 30
0.0
 11
43.25716533849473
 21
745.1775306482639
 31
0.0
  0
LINE
  5
504
330
1F
100
AcDbEntity
  8
Make2D$可见线$普通线
100
AcDbLine
 10
43.19235960744516
 20
745.177530648264
 30
0.0
 11
43.01429045838572
 21
745.177530648264
 31
0.0
  0
LINE
  5
505
330
1F
100
AcDbEntity
  8
Make2D$可见线$普通线
100
AcDbLine
 10
42.85780204506664
 20
745.177530648264
 30
0.0
 11
42.72281327147838
 21
745.177530648264
 31
0.0
  0
LINE
  5
506
330
1F
100
AcDbEntity
  8
Make2D$可见线$普通线
100
AcDbLine
 10
42.51212713537308
 20
745.177530648264
 30
0.0
 11
42.38207731589355
 21
745.177530648264
 31
0.0
  0
LINE
  5
507
330
1F
100
AcDbEntity
  8
Make2D$可见线$普通线
100
AcDbLine
 10
42.15548603338916
 20
745.177530648264
 30
0.0
 11
40.62228280304696
 21
745.177530648264
 31
0.0
  0
ARC
  5
508
330
1F
100
AcDbEntity
  8
Make2D$可见线$普通线
100
AcDbCircle
 10
47.501039873048
 20
745.677533984198
 30
0.0
 40
0.5000033359907419
100
AcDbArc
 50
269.9991370418183
 51
359.9996177326698
  0
LINE
  5
509
330
1F
100
AcDbEntity
  8
Make2D$可见线$普通线
100
AcDbLine
 10
7.378760405983659
 20
745.1775306482641
 30
0.0
 11
5.845557175638533
 21
745.1775306482641
 31
0.0
  0
LINE
  5
50A
330
1F
100
AcDbEntity
  8
Make2D$可见线$普通线
100
AcDbLine
 10
5.580843539511128
 20
745.177530648264
 30
0.0
 11
5.488916073654619
 21
745.177530648264
 31
0.0
  0
LINE
  5
50B
330
1F
100
AcDbEntity
  8
Make2D$可见线$普通线
100
AcDbLine
 10
5.379494634176672
 20
745.1775306482641
 30
0.0
 11
5.14324116396106
 21
745.1775306482641
 31
0.0
  0
LINE
  5
50C
330
1F
100
AcDbEntity
  8
Make2D$可见线$普通线
100
AcDbLine
 10
5.013992403897352
 20
745.1775306482641
 30
0.0
 11
4.808683601582548
 21
745.1775306482641
 31
0.0
  0
LINE
  5
50D
330
1F
100
AcDbEntity
  8
Make2D$可见线$普通线
100
AcDbLine
 10
4.697946447530858
 20
745.1775306482641
 30
0.0
 11
4.485394541543786
 21
745.1775306482641
 31
0.0
  0
LINE
  5
50E
330
1F
100
AcDbEntity
  8
Make2D$可见线$普通线
100
AcDbLine
 10
4.315457273791767
 20
745.1775306482641
 30
0.0
 11
3.584649925713015
 21
745.1775306482641
 31
0.0
  0
LINE
  5
50F
330
1F
100
AcDbEntity
  8
Make2D$可见线$普通线
100
AcDbLine
 10
3.559392338916304
 20
745.177530648264
 30
0.0
 11
3.307946425280264
 21
745.177530648264
 31
0.0
  0
LINE
  5
510
330
1F
100
AcDbEntity
  8
Make2D$可见线$普通线
100
AcDbLine
 10
3.2815650697196
 20
745.177530648264
 30
0.0
 11
3.043267202310768
 21
745.177530648264
 31
0.0
  0
LINE
  5
511
330
1F
100
AcDbEntity
  8
Make2D$可见线$普通线
100
AcDbLine
 10
3.015973596254835
 20
745.1775306482641
 30
0.0
 11
2.790763411829228
 21
745.1775306482641
 31
0.0
  0
LINE
  5
512
330
1F
100
AcDbEntity
  8
Make2D$可见线$普通线
100
AcDbLine
 10
2.762772793958189
 20
745.177530648264
 30
0.0
 11
2.550586208860345
 21
745.177530648264
 31
0.0
  0
LINE
  5
513
330
1F
100
AcDbEntity
  8
Make2D$可见线$普通线
100
AcDbLine
 10
2.522117538180706
 20
745.177530648264
 30
0.0
 11
2.322886748428816
 21
745.177530648264
 31
0.0
  0
LINE
  5
514
330
1F
100
AcDbEntity
  8
Make2D$可见线$普通线
100
AcDbLine
 10
2.294162704151955
 20
745.1775306482641
 30
0.0
 11
2.107816185559345
 21
745.177530648264
 31
0.0
  0
LINE
  5
515
330
1F
100
AcDbEntity
  8
Make2D$可见线$普通线
100
AcDbLine
 10
2.079063216262371
 20
745.1775306482641
 30
0.0
 11
1.905525675276634
 21
745.1775306482641
 31
0.0
  0
LINE
  5
516
330
1F
100
AcDbEntity
  8
Make2D$可见线$普通线
100
AcDbLine
 10
1.876973847533036
 20
745.1775306482639
 30
0.0
 11
1.716166372605382
 21
745.1775306482639
 31
0.0
  0
LINE
  5
517
330
1F
100
AcDbEntity
  8
Make2D$可见线$普通线
100
AcDbLine
 10
1.68804953927897
 20
745.177530648264
 30
0.0
 11
1.539889432570288
 21
745.177530648264
 31
0.0
  0
LINE
  5
518
330
1F
100
AcDbEntity
  8
Make2D$可见线$普通线
100
AcDbLine
 10
1.512445161604636
 20
745.177530648264
 30
0.0
 11
1.376846010196055
 21
745.177530648264
 31
0.0
  0
LINE
  5
519
330
1F
100
AcDbEntity
  8
Make2D$可见线$普通线
100
AcDbLine
 10
1.350315585653353
 20
745.1775306482641
 30
0.0
 11
1.227187260507384
 21
745.1775306482639
 31
0.0
  0
LINE
  5
51A
330
1F
100
AcDbEntity
  8
Make2D$可见线$普通线
100
AcDbLine
 10
1.201815687092052
 20
745.1775306482639
 30
0.0
 11
1.091064338528975
 21
745.1775306482639
 31
0.0
  0
LINE
  5
51B
330
1F
100
AcDbEntity
  8
Make2D$可见线$普通线
100
AcDbLine
 10
1.06710034158794
 20
745.1775306482641
 30
0.0
 11
0.9686283992855285
 21
745.1775306482641
 31
0.0
  0
LINE
  5
51C
330
1F
100
AcDbEntity
  8
Make2D$可见线$普通线
100
AcDbLine
 10
0.9463244248095454
 20
745.1775306482641
 30
0.0
 11
0.8600305978017452
 21
745.1775306482641
 31
0.0
  0
LINE
  5
51D
330
1F
100
AcDbEntity
  8
Make2D$可见线$普通线
100
AcDbLine
 10
0.8396428124289412
 20
745.1775306482641
 30
0.0
 11
0.765422089102326
 21
745.1775306482641
 31
0.0
  0
LINE
  5
51E
330
1F
100
AcDbEntity
  8
Make2D$可见线$普通线
100
AcDbLine
 10
0.747210380130698
 20
745.1775306482641
 30
0.0
 11
0.6691820036498658
 21
745.1775306482641
 31
0.0
  0
LINE
  5
51F
330
1F
100
AcDbEntity
  8
Make2D$可见线$普通线
100
AcDbLine
 10
0.6187775701553848
 20
745.1775306482641
 30
0.0
 11
0.6057125589778541
 21
745.1775306482641
 31
0.0
  0
LINE
  5
520
330
1F
100
AcDbEntity
  8
Make2D$可见线$普通线
100
AcDbLine
 10
0.5670438699572632
 20
745.1775306482641
 30
0.0
 11
0.5042065675258378
 21
745.177530648264
 31
0.0
  0
ARC
  5
521
330
1F
100
AcDbEntity
  8
Make2D$可见线$普通线
100
AcDbCircle
 10
0.4999996983672244
 20
745.6775303465066
 30
0.0
 40
0.4999996983673513
100
AcDbArc
 50
179.9999654211303
 51
270.0012798043928
  0
ARC
  5
522
330
1F
100
AcDbEntity
  8
Make2D$可见线$普通线
100
AcDbCircle
 10
240.4876462464023
 20
785.045917896028
 30
0.0
 40
90.9156405253528
100
AcDbArc
 50
175.7618370861152
 51
179.9170565391886
  0
LINE
  5
523
330
1F
100
AcDbEntity
  8
Make2D$可见线$普通线
100
AcDbLine
 10
153.7863112946455
 20
745.177530648264
 30
0.0
 11
153.7863112946455
 21
743.677530648264
 31
0.0
  0
LINE
  5
524
330
1F
100
AcDbEntity
  8
Make2D$可见线$普通线
100
AcDbLine
 10
193.7863112946455
 20
745.177530648264
 30
0.0
 11
193.7863112946455
 21
743.677530648264
 31
0.0
  0
LINE
  5
525
330
1F
100
AcDbEntity
  8
Make2D$可见线$普通线
100
AcDbLine
 10
197.5721009847771
 20
745.677530648264
 30
0.0
 11
197.5721009847771
 21
785.177530648264
 31
0.0
  0
LINE
  5
526
330
1F
100
AcDbEntity
  8
Make2D$可见线$普通线
100
AcDbLine
 10
197.0684160217656
 20
745.177530648264
 30
0.0
 11
197.0055787193337
 21
745.177530648264
 31
0.0
  0
LINE
  5
527
330
1F
100
AcDbEntity
  8
Make2D$可见线$普通线
100
AcDbLine
 10
196.9669100303132
 20
745.1775306482639
 30
0.0
 11
196.9538450191356
 21
745.177530648264
 31
0.0
  0
LINE
  5
528
330
1F
100
AcDbEntity
  8
Make2D$可见线$普通线
100
AcDbLine
 10
196.9034405856411
 20
745.1775306482639
 30
0.0
 11
196.8254122091603
 21
745.177530648264
 31
0.0
  0
LINE
  5
529
330
1F
100
AcDbEntity
  8
Make2D$可见线$普通线
100
AcDbLine
 10
196.8072005001887
 20
745.177530648264
 30
0.0
 11
196.7329797768621
 21
745.1775306482641
 31
0.0
  0
LINE
  5
52A
330
1F
100
AcDbEntity
  8
Make2D$可见线$普通线
100
AcDbLine
 10
196.7125919914893
 20
745.1775306482641
 30
0.0
 11
196.6262981644814
 21
745.1775306482641
 31
0.0
  0
LINE
  5
52B
330
1F
100
AcDbEntity
  8
Make2D$可见线$普通线
100
AcDbLine
 10
196.6039941900055
 20
745.1775306482639
 30
0.0
 11
196.5055222477029
 21
745.1775306482639
 31
0.0
  0
LINE
  5
52C
330
1F
100
AcDbEntity
  8
Make2D$可见线$普通线
100
AcDbLine
 10
196.4815582507621
 20
745.177530648264
 30
0.0
 11
196.3708069021988
 21
745.177530648264
 31
0.0
  0
LINE
  5
52D
330
1F
100
AcDbEntity
  8
Make2D$可见线$普通线
100
AcDbLine
 10
196.3454353287836
 20
745.177530648264
 30
0.0
 11
196.2223070036376
 21
745.177530648264
 31
0.0
  0
LINE
  5
52E
330
1F
100
AcDbEntity
  8
Make2D$可见线$普通线
100
AcDbLine
 10
196.195776579095
 20
745.1775306482641
 30
0.0
 11
196.0601774276864
 21
745.1775306482641
 31
0.0
  0
LINE
  5
52F
330
1F
100
AcDbEntity
  8
Make2D$可见线$普通线
100
AcDbLine
 10
196.0327331567207
 20
745.1775306482639
 30
0.0
 11
195.884573050012
 21
745.1775306482639
 31
0.0
  0
LINE
  5
530
330
1F
100
AcDbEntity
  8
Make2D$可见线$普通线
100
AcDbLine
 10
195.8564562166856
 20
745.1775306482639
 30
0.0
 11
195.6956487417579
 21
745.1775306482639
 31
0.0
  0
LINE
  5
531
330
1F
100
AcDbEntity
  8
Make2D$可见线$普通线
100
AcDbLine
 10
195.6670969140143
 20
745.1775306482639
 30
0.0
 11
195.4935593730286
 21
745.1775306482639
 31
0.0
  0
LINE
  5
532
330
1F
100
AcDbEntity
  8
Make2D$可见线$普通线
100
AcDbLine
 10
195.4648064037317
 20
745.1775306482639
 30
0.0
 11
195.2784598851391
 21
745.1775306482639
 31
0.0
  0
LINE
  5
533
330
1F
100
AcDbEntity
  8
Make2D$可见线$普通线
100
AcDbLine
 10
195.2497358408622
 20
745.1775306482639
 30
0.0
 11
195.0505050511103
 21
745.1775306482639
 31
0.0
  0
LINE
  5
534
330
1F
100
AcDbEntity
  8
Make2D$可见线$普通线
100
AcDbLine
 10
195.0220363804307
 20
745.1775306482641
 30
0.0
 11
194.8098497953329
 21
745.177530648264
 31
0.0
  0
LINE
  5
535
330
1F
100
AcDbEntity
  8
Make2D$可见线$普通线
100
AcDbLine
 10
194.7818591774618
 20
745.177530648264
 30
0.0
 11
194.5566489930362
 21
745.177530648264
 31
0.0
  0
LINE
  5
536
330
1F
100
AcDbEntity
  8
Make2D$可见线$普通线
100
AcDbLine
 10
194.5293553869803
 20
745.1775306482641
 30
0.0
 11
194.2910575195714
 21
745.1775306482639
 31
0.0
  0
LINE
  5
537
330
1F
100
AcDbEntity
  8
Make2D$可见线$普通线
100
AcDbLine
 10
194.2646761640108
 20
745.1775306482641
 30
0.0
 11
194.0132302503748
 21
745.1775306482641
 31
0.0
  0
LINE
  5
538
330
1F
100
AcDbEntity
  8
Make2D$可见线$普通线
100
AcDbLine
 10
193.987972663578
 20
745.1775306482639
 30
0.0
 11
193.2571653154993
 21
745.177530648264
 31
0.0
  0
LINE
  5
539
330
1F
100
AcDbEntity
  8
Make2D$可见线$普通线
100
AcDbLine
 10
193.0872280477473
 20
745.177530648264
 30
0.0
 11
192.8746761417602
 21
745.177530648264
 31
0.0
  0
LINE
  5
53A
330
1F
100
AcDbEntity
  8
Make2D$可见线$普通线
100
AcDbLine
 10
192.7639389877085
 20
745.1775306482641
 30
0.0
 11
192.5586301853937
 21
745.177530648264
 31
0.0
  0
LINE
  5
53B
330
1F
100
AcDbEntity
  8
Make2D$可见线$普通线
100
AcDbLine
 10
192.4293814253301
 20
745.1775306482641
 30
0.0
 11
192.1931279551144
 21
745.1775306482641
 31
0.0
  0
LINE
  5
53C
330
1F
100
AcDbEntity
  8
Make2D$可见线$普通线
100
AcDbLine
 10
192.0837065156364
 20
745.177530648264
 30
0.0
 11
191.99177904978
 21
745.177530648264
 31
0.0
  0
LINE
  5
53D
330
1F
100
AcDbEntity
  8
Make2D$可见线$普通线
100
AcDbLine
 10
191.7270654136525
 20
745.1775306482641
 30
0.0
 11
190.1938621833074
 21
745.1775306482641
 31
0.0
  0
ARC
  5
53E
330
1F
100
AcDbEntity
  8
Make2D$可见线$普通线
100
AcDbCircle
 10
197.0726197714543
 20
745.6775334660438
 30
0.0
 40
0.5000028178446131
100
AcDbArc
 50
269.9990776664448
 51
359.9996771080425
  0
LINE
  5
53F
330
1F
100
AcDbEntity
  8
Make2D$可见线$普通线
100
AcDbLine
 10
156.9503397862469
 20
745.177530648264
 30
0.0
 11
155.4171365559018
 21
745.177530648264
 31
0.0
  0
LINE
  5
540
330
1F
100
AcDbEntity
  8
Make2D$可见线$普通线
100
AcDbLine
 10
155.1905452733975
 20
745.1775306482639
 30
0.0
 11
155.0604954539179
 21
745.177530648264
 31
0.0
  0
LINE
  5
541
330
1F
100
AcDbEntity
  8
Make2D$可见线$普通线
100
AcDbLine
 10
154.8498093178126
 20
745.1775306482639
 30
0.0
 11
154.7148205442243
 21
745.1775306482639
 31
0.0
  0
LINE
  5
542
330
1F
100
AcDbEntity
  8
Make2D$可见线$普通线
100
AcDbLine
 10
154.5583321309053
 20
745.177530648264
 30
0.0
 11
154.3802629818458
 21
745.177530648264
 31
0.0
  0
LINE
  5
543
330
1F
100
AcDbEntity
  8
Make2D$可见线$普通线
100
AcDbLine
 10
154.3154572507961
 20
745.1775306482639
 30
0.0
 11
153.4448059288476
 21
745.177530648264
 31
0.0
  0
LINE
  5
544
330
1F
100
AcDbEntity
  8
Make2D$可见线$普通线
100
AcDbLine
 10
153.4208799086118
 20
745.1775306482639
 30
0.0
 11
153.1562293059763
 21
745.177530648264
 31
0.0
  0
LINE
  5
545
330
1F
100
AcDbEntity
  8
Make2D$可见线$普通线
100
AcDbLine
 10
153.1309717191797
 20
745.177530648264
 30
0.0
 11
152.8795258055436
 21
745.177530648264
 31
0.0
  0
LINE
  5
546
330
1F
100
AcDbEntity
  8
Make2D$可见线$普通线
100
AcDbLine
 10
152.8531444499829
 20
745.1775306482639
 30
0.0
 11
152.614846582574
 21
745.1775306482639
 31
0.0
  0
LINE
  5
547
330
1F
100
AcDbEntity
  8
Make2D$可见线$普通线
100
AcDbLine
 10
152.587552976518
 20
745.1775306482639
 30
0.0
 11
152.3623427920925
 21
745.1775306482639
 31
0.0
  0
LINE
  5
548
330
1F
100
AcDbEntity
  8
Make2D$可见线$普通线
100
AcDbLine
 10
152.3343521742214
 20
745.177530648264
 30
0.0
 11
152.1221655891236
 21
745.177530648264
 31
0.0
  0
LINE
  5
549
330
1F
100
AcDbEntity
  8
Make2D$可见线$普通线
100
AcDbLine
 10
152.093696918444
 20
745.1775306482639
 30
0.0
 11
151.8944661286921
 21
745.1775306482639
 31
0.0
  0
LINE
  5
54A
330
1F
100
AcDbEntity
  8
Make2D$可见线$普通线
100
AcDbLine
 10
151.8657420844152
 20
745.177530648264
 30
0.0
 11
151.6793955658226
 21
745.177530648264
 31
0.0
  0
LINE
  5
54B
330
1F
100
AcDbEntity
  8
Make2D$可见线$普通线
100
AcDbLine
 10
151.6506425965256
 20
745.1775306482639
 30
0.0
 11
151.4771050555399
 21
745.1775306482639
 31
0.0
  0
LINE
  5
54C
330
1F
100
AcDbEntity
  8
Make2D$可见线$普通线
100
AcDbLine
 10
151.4485532277964
 20
745.1775306482641
 30
0.0
 11
151.2877457528686
 21
745.177530648264
 31
0.0
  0
LINE
  5
54D
330
1F
100
AcDbEntity
  8
Make2D$可见线$普通线
100
AcDbLine
 10
151.2596289195423
 20
745.177530648264
 30
0.0
 11
151.1114688128336
 21
745.177530648264
 31
0.0
  0
LINE
  5
54E
330
1F
100
AcDbEntity
  8
Make2D$可见线$普通线
100
AcDbLine
 10
151.0840245418679
 20
745.177530648264
 30
0.0
 11
150.9484253904593
 21
745.177530648264
 31
0.0
  0
LINE
  5
54F
330
1F
100
AcDbEntity
  8
Make2D$可见线$普通线
100
AcDbLine
 10
150.9218949659167
 20
745.1775306482641
 30
0.0
 11
150.7987666407707
 21
745.1775306482641
 31
0.0
  0
LINE
  5
550
330
1F
100
AcDbEntity
  8
Make2D$可见线$普通线
100
AcDbLine
 10
150.7733950673554
 20
745.1775306482641
 30
0.0
 11
150.6626437187923
 21
745.177530648264
 31
0.0
  0
LINE
  5
551
330
1F
100
AcDbEntity
  8
Make2D$可见线$普通线
100
AcDbLine
 10
150.6386797218513
 20
745.177530648264
 30
0.0
 11
150.5402077795488
 21
745.177530648264
 31
0.0
  0
LINE
  5
552
330
1F
100
AcDbEntity
  8
Make2D$可见线$普通线
100
AcDbLine
 10
150.5179038050728
 20
745.177530648264
 30
0.0
 11
150.431609978065
 21
745.177530648264
 31
0.0
  0
LINE
  5
553
330
1F
100
AcDbEntity
  8
Make2D$可见线$普通线
100
AcDbLine
 10
150.4112221926922
 20
745.177530648264
 30
0.0
 11
150.3370014693656
 21
745.177530648264
 31
0.0
  0
LINE
  5
554
330
1F
100
AcDbEntity
  8
Make2D$可见线$普通线
100
AcDbLine
 10
150.3187897603939
 20
745.1775306482641
 30
0.0
 11
150.2407613839131
 21
745.1775306482641
 31
0.0
  0
LINE
  5
555
330
1F
100
AcDbEntity
  8
Make2D$可见线$普通线
100
AcDbLine
 10
150.1903569504187
 20
745.177530648264
 30
0.0
 11
150.1772919392411
 21
745.1775306482641
 31
0.0
  0
LINE
  5
556
330
1F
100
AcDbEntity
  8
Make2D$可见线$普通线
100
AcDbLine
 10
150.1386232502205
 20
745.1775306482641
 30
0.0
 11
150.071590247024
 21
745.177530648264
 31
0.0
  0
ARC
  5
557
330
1F
100
AcDbEntity
  8
Make2D$可见线$普通线
100
AcDbCircle
 10
150.0715830996654
 20
745.6775343676287
 30
0.0
 40
0.5000037194157974
100
AcDbArc
 50
180.0004262046306
 51
270.0008190208709
  0
LINE
  5
558
330
1F
100
AcDbEntity
  8
Make2D$可见线$普通线
100
AcDbLine
 10
94.52600797094209
 20
836.0202533165591
 30
0.0
 11
98.57141104515063
 21
836.0202533165592
 31
0.0
  0
LINE
  5
559
330
1F
100
AcDbEntity
  8
Make2D$可见线$普通线
100
AcDbLine
 10
93.07769650596919
 20
841.533220109112
 30
0.0
 11
98.57141104515063
 21
841.5332201091121
 31
0.0
  0
POLYLINE
  5
55A
330
1F
100
AcDbEntity
  8
Make2D$可见线$普通线
100
AcDb2dPolyline
 66
     1
 10
0.0
 20
0.0
 30
0.0
  0
VERTEX
  5
55B
330
55A
100
AcDbEntity
  8
Make2D$可见线$普通线
100
AcDbVertex
100
AcDb2dVertex
 10
94.812045714362
 20
834.0492911010282
 30
0.0
  0
VERTEX
  5
55C
330
55A
100
AcDbEntity
  8
Make2D$可见线$普通线
100
AcDbVertex
100
AcDb2dVertex
 10
94.81240797882607
 20
835.7176254908497
 30
0.0
 42
0.3470509930246706
  0
VERTEX
  5
55D
330
55A
100
AcDbEntity
  8
Make2D$可见线$普通线
100
AcDbVertex
100
AcDb2dVertex
 10
94.58551834057586
 20
836.0111902411842
 30
0.0
  0
SEQEND
  5
55E
330
55A
100
AcDbEntity
  8
Make2D$可见线$普通线
  0
LINE
  5
55F
330
1F
100
AcDbEntity
  8
Make2D$可见线$普通线
100
AcDbLine
 10
93.86129195516753
 20
836.0202533165592
 30
0.0
 11
94.52600797094213
 21
836.0202533165592
 31
0.0
  0
POLYLINE
  5
560
330
1F
100
AcDbEntity
  8
Make2D$可见线$普通线
100
AcDb2dPolyline
 66
     1
 10
0.0
 20
0.0
 30
0.0
  0
VERTEX
  5
561
330
560
100
AcDbEntity
  8
Make2D$可见线$普通线
100
AcDbVertex
100
AcDb2dVertex
 10
93.86129195516753
 20
836.0202533165592
 30
0.0
 42
-0.3547709324289842
  0
VERTEX
  5
562
330
560
100
AcDbEntity
  8
Make2D$可见线$普通线
100
AcDbVertex
100
AcDb2dVertex
 10
93.55821843310206
 20
836.320504095037
 30
0.0
  0
VERTEX
  5
563
330
560
100
AcDbEntity
  8
Make2D$可见线$普通线
100
AcDbVertex
100
AcDb2dVertex
 10
93.55762417129407
 20
840.8315454793495
 30
0.0
 42
0.3330068499202727
  0
VERTEX
  5
564
330
560
100
AcDbEntity
  8
Make2D$可见线$普通线
100
AcDbVertex
100
AcDb2dVertex
 10
92.9043582798101
 20
841.5309159482349
 30
0.0
  0
SEQEND
  5
565
330
560
100
AcDbEntity
  8
Make2D$可见线$普通线
  0
LINE
  5
566
330
1F
100
AcDbEntity
  8
Make2D$可见线$普通线
100
AcDbLine
 10
92.17500276364001
 20
841.5332201091121
 30
0.0
 11
93.07769650596923
 21
841.5332201091121
 31
0.0
  0
POLYLINE
  5
567
330
1F
100
AcDbEntity
  8
Make2D$可见线$普通线
100
AcDb2dPolyline
 66
     1
 10
0.0
 20
0.0
 30
0.0
  0
VERTEX
  5
568
330
567
100
AcDbEntity
  8
Make2D$可见线$普通线
100
AcDbVertex
100
AcDb2dVertex
 10
92.17500276364001
 20
841.5332201091121
 30
0.0
 42
-0.4142135623731603
  0
VERTEX
  5
569
330
567
100
AcDbEntity
  8
Make2D$可见线$普通线
100
AcDbVertex
100
AcDb2dVertex
 10
91.67500276364007
 20
842.0332201091105
 30
0.0
  0
VERTEX
  5
56A
330
567
100
AcDbEntity
  8
Make2D$可见线$普通线
100
AcDbVertex
100
AcDb2dVertex
 10
91.67500276363995
 20
856.1255171067381
 30
0.0
 42
-0.4031045853367601
  0
VERTEX
  5
56B
330
567
100
AcDbEntity
  8
Make2D$可见线$普通线
100
AcDbVertex
100
AcDb2dVertex
 10
92.15596895096843
 20
856.6251546893667
 30
0.0
  0
VERTEX
  5
56C
330
567
100
AcDbEntity
  8
Make2D$可见线$普通线
100
AcDbVertex
100
AcDb2dVertex
 10
98.57141104515063
 20
856.8695524834319
 30
0.0
  0
SEQEND
  5
56D
330
567
100
AcDbEntity
  8
Make2D$可见线$普通线
  0
POLYLINE
  5
56E
330
1F
100
AcDbEntity
  8
Make2D$可见线$普通线
100
AcDb2dPolyline
 66
     1
 10
0.0
 20
0.0
 30
0.0
  0
VERTEX
  5
56F
330
56E
100
AcDbEntity
  8
Make2D$可见线$普通线
100
AcDbVertex
100
AcDb2dVertex
 10
102.3307736790922
 20
834.0697181983508
 30
0.0
  0
VERTEX
  5
570
330
56E
100
AcDbEntity
  8
Make2D$可见线$普通线
100
AcDbVertex
100
AcDb2dVertex
 10
102.3304141114751
 20
835.7176254908497
 30
0.0
 42
-0.3593631839108206
  0
VERTEX
  5
571
330
56E
100
AcDbEntity
  8
Make2D$可见线$普通线
100
AcDbVertex
100
AcDb2dVertex
 10
102.5699269768926
 20
836.0140160936388
 30
0.0
  0
SEQEND
  5
572
330
56E
100
AcDbEntity
  8
Make2D$可见线$普通线
  0
POLYLINE
  5
573
330
1F
100
AcDbEntity
  8
Make2D$可见线$普通线
100
AcDb2dPolyline
 66
     1
 10
0.0
 20
0.0
 30
0.0
  0
VERTEX
  5
574
330
573
100
AcDbEntity
  8
Make2D$可见线$普通线
100
AcDbVertex
100
AcDb2dVertex
 10
103.2815301351337
 20
836.0202533165592
 30
0.0
 42
0.35477093242872
  0
VERTEX
  5
575
330
573
100
AcDbEntity
  8
Make2D$可见线$普通线
100
AcDbVertex
100
AcDb2dVertex
 10
103.5846036571992
 20
836.3205040950369
 30
0.0
  0
VERTEX
  5
576
330
573
100
AcDbEntity
  8
Make2D$可见线$普通线
100
AcDbVertex
100
AcDb2dVertex
 10
103.5851979190073
 20
840.8315454793495
 30
0.0
 42
-0.3299647107283049
  0
VERTEX
  5
577
330
573
100
AcDbEntity
  8
Make2D$可见线$普通线
100
AcDbVertex
100
AcDb2dVertex
 10
104.2311678660396
 20
841.5301313502109
 30
0.0
  0
SEQEND
  5
578
330
573
100
AcDbEntity
  8
Make2D$可见线$普通线
  0
POLYLINE
  5
579
330
1F
100
AcDbEntity
  8
Make2D$可见线$普通线
100
AcDb2dPolyline
 66
     1
 10
0.0
 20
0.0
 30
0.0
  0
VERTEX
  5
57A
330
579
100
AcDbEntity
  8
Make2D$可见线$普通线
100
AcDbVertex
100
AcDb2dVertex
 10
104.9678193266612
 20
841.5332201091121
 30
0.0
 42
0.4142135623723221
  0
VERTEX
  5
57B
330
579
100
AcDbEntity
  8
Make2D$可见线$普通线
100
AcDbVertex
100
AcDb2dVertex
 10
105.4678193266611
 20
842.0332201091121
 30
0.0
  0
VERTEX
  5
57C
330
579
100
AcDbEntity
  8
Make2D$可见线$普通线
100
AcDbVertex
100
AcDb2dVertex
 10
105.4678193266614
 20
856.1255171067381
 30
0.0
 42
0.4031045853371188
  0
VERTEX
  5
57D
330
579
100
AcDbEntity
  8
Make2D$可见线$普通线
100
AcDbVertex
100
AcDb2dVertex
 10
104.9868531393329
 20
856.6251546893669
 30
0.0
  0
VERTEX
  5
57E
330
579
100
AcDbEntity
  8
Make2D$可见线$普通线
100
AcDbVertex
100
AcDb2dVertex
 10
98.57141104515063
 20
856.8695524834319
 30
0.0
  0
SEQEND
  5
57F
330
579
100
AcDbEntity
  8
Make2D$可见线$普通线
  0
LINE
  5
580
330
1F
100
AcDbEntity
  8
Make2D$可见线$普通线
100
AcDbLine
 10
98.57141104515063
 20
836.0202533165592
 30
0.0
 11
103.2815301351337
 21
836.0202533165592
 31
0.0
  0
LINE
  5
581
330
1F
100
AcDbEntity
  8
Make2D$可见线$普通线
100
AcDbLine
 10
98.57141104515063
 20
841.5332201091121
 30
0.0
 11
104.9678193266612
 21
841.5332201091121
 31
0.0
  0
LINE
  5
582
330
1F
100
AcDbEntity
  8
Make2D$可见线$普通线
100
AcDbLine
 10
110.5984466609445
 20
790.5854109433504
 30
0.0
 11
110.5985272219879
 21
783.6115616442812
 31
0.0
  0
LINE
  5
583
330
1F
100
AcDbEntity
  8
Make2D$可见线$普通线
100
AcDbLine
 10
86.54437884331332
 20
790.8790821820378
 30
0.0
 11
86.54429488981617
 21
783.6115616442812
 31
0.0
  0
LINE
  5
584
330
1F
100
AcDbEntity
  8
Make2D$可见线$普通线
100
AcDbLine
 10
110.592530863169
 20
783.6055830314191
 30
0.0
 11
110.0965245597037
 21
783.1110446365169
 31
0.0
  0
LINE
  5
585
330
1F
100
AcDbEntity
  8
Make2D$可见线$普通线
100
AcDbLine
 10
86.55029124863503
 20
783.6055830314192
 30
0.0
 11
87.04629755210027
 21
783.1110446365169
 31
0.0
  0
LINE
  5
586
330
1F
100
AcDbEntity
  8
Make2D$可见线$普通线
100
AcDbLine
 10
107.5920081700074
 20
783.111044636517
 30
0.0
 11
107.5936423861693
 21
780.6035627837471
 31
0.0
  0
LINE
  5
587
330
1F
100
AcDbEntity
  8
Make2D$可见线$普通线
100
AcDbLine
 10
89.55081394179666
 20
783.111044636517
 30
0.0
 11
89.54917972563473
 21
780.6035627837471
 31
0.0
  0
LINE
  5
588
330
1F
100
AcDbEntity
  8
Make2D$可见线$普通线
100
AcDbLine
 10
109.0954905441757
 20
773.654659296883
 30
0.0
 11
109.0954905441757
 21
773.0858479360355
 31
0.0
  0
ARC
  5
589
330
1F
100
AcDbEntity
  8
Make2D$可见线$普通线
100
AcDbCircle
 10
108.7432564903317
 20
774.152945345331
 30
0.0
 40
0.3497063783671822
100
AcDbArc
 50
230.4094701064146
 51
254.2901443354028
  0
LINE
  5
58A
330
1F
100
AcDbEntity
  8
Make2D$可见线$普通线
100
AcDbLine
 10
109.0954905441757
 20
777.1276798764188
 30
0.0
 11
109.0954905441757
 21
775.6817494078806
 31
0.0
  0
LINE
  5
58B
330
1F
100
AcDbEntity
  8
Make2D$可见线$普通线
100
AcDbLine
 10
88.04733156762842
 20
775.4033555709161
 30
0.0
 11
88.04733156762842
 21
773.9769597133097
 31
0.0
  0
LINE
  5
58C
330
1F
100
AcDbEntity
  8
Make2D$可见线$普通线
100
AcDbLine
 10
109.0954905441757
 20
780.6038540686848
 30
0.0
 11
109.0954905441757
 21
779.1303981749888
 31
0.0
  0
LINE
  5
58D
330
1F
100
AcDbEntity
  8
Make2D$可见线$普通线
100
AcDbLine
 10
88.04733156762842
 20
778.8520038001386
 30
0.0
 11
88.04733156762842
 21
777.4060738676039
 31
0.0
  0
ARC
  5
58E
330
1F
100
AcDbEntity
  8
Make2D$可见线$普通线
100
AcDbCircle
 10
88.08680754187586
 20
779.855727815723
 30
0.0
 40
0.9605393377103283
100
AcDbArc
 50
300.2252864920857
 51
51.15046530652369
  0
ARC
  5
58F
330
1F
100
AcDbEntity
  8
Make2D$可见线$普通线
100
AcDbCircle
 10
88.09418081277202
 20
776.4020056064011
 30
0.0
 40
0.9541086766403992
100
AcDbArc
 50
301.3446390165819
 51
65.09269106912703
  0
ARC
  5
590
330
1F
100
AcDbEntity
  8
Make2D$可见线$普通线
100
AcDbCircle
 10
88.13569323676802
 20
772.9863859155395
 30
0.0
 40
0.9083940945250607
100
AcDbArc
 50
6.28399678673352
 51
66.7682685158109
  0
LINE
  5
591
330
1F
100
AcDbEntity
  8
Make2D$可见线$普通线
100
AcDbLine
 10
98.49287305413688
 20
778.2641399832726
 30
0.0
 11
98.57141106025256
 21
778.2682360825827
 31
0.0
  0
POLYLINE
  5
592
330
1F
100
AcDbEntity
  8
Make2D$可见线$普通线
100
AcDb2dPolyline
 66
     1
 10
0.0
 20
0.0
 30
0.0
  0
VERTEX
  5
593
330
592
100
AcDbEntity
  8
Make2D$可见线$普通线
100
AcDbVertex
100
AcDb2dVertex
 10
108.5519210215098
 20
778.9459997684
 30
0.0
 42
0.4739635062389368
  0
VERTEX
  5
594
330
592
100
AcDbEntity
  8
Make2D$可见线$普通线
100
AcDbVertex
100
AcDb2dVertex
 10
108.354274254151
 20
777.4709269354482
 30
0.0
 42
0.1418096958020093
  0
VERTEX
  5
595
330
592
100
AcDbEntity
  8
Make2D$可见线$普通线
100
AcDbVertex
100
AcDb2dVertex
 10
108.6482483403722
 20
777.266777926342
 30
0.0
  0
SEQEND
  5
596
330
592
100
AcDbEntity
  8
Make2D$可见线$普通线
  0
ARC
  5
597
330
1F
100
AcDbEntity
  8
Make2D$可见线$普通线
100
AcDbCircle
 10
109.0575234749908
 20
774.6814583492736
 30
0.0
 40
0.9619364640003536
100
AcDbArc
 50
120.9595762328385
 51
236.0556166985606
  0
ENDSEC
  0
SECTION
  2
OBJECTS
  0
DICTIONARY
  5
C
330
0
100
AcDbDictionary
281
     1
  3
ACAD_GROUP
350
D
  3
ACAD_LAYOUT
350
1A
  3
ACAD_MATERIAL
350
3B
  3
ACAD_MLEADERSTYLE
350
5C2
  3
ACAD_MLINESTYLE
350
17
  3
ACAD_PLOTSETTINGS
350
19
  3
ACAD_PLOTSTYLENAME
350
E
  3
ACAD_SCALELIST
350
3F
  3
ACAD_TABLESTYLE
350
5C1
  3
ACAD_VISUALSTYLE
350
2A
  3
AcDbVariableDictionary
350
598
  0
DICTIONARY
  5
D
102
{ACAD_REACTORS
330
C
102
}
330
C
100
AcDbDictionary
281
     1
  0
DICTIONARY
  5
1A
102
{ACAD_REACTORS
330
C
102
}
330
C
100
AcDbDictionary
281
     1
  3
Layout1
350
1E
  3
Layout2
350
26
  3
Model
350
22
  0
DICTIONARY
  5
3B
102
{ACAD_REACTORS
330
C
102
}
330
C
100
AcDbDictionary
281
     1
  3
ByBlock
350
3D
  3
ByLayer
350
3C
  3
Global
350
3E
  0
DICTIONARY
  5
5C2
102
{ACAD_REACTORS
330
C
102
}
330
C
100
AcDbDictionary
281
     1
  0
DICTIONARY
  5
17
102
{ACAD_REACTORS
330
C
102
}
330
C
100
AcDbDictionary
281
     1
  3
Standard
350
18
  0
DICTIONARY
  5
19
102
{ACAD_REACTORS
330
C
102
}
330
C
100
AcDbDictionary
281
     1
  0
ACDBDICTIONARYWDFLT
  5
E
102
{ACAD_REACTORS
330
C
102
}
330
C
100
AcDbDictionary
281
     1
  3
Normal
350
F
100
AcDbDictionaryWithDefault
340
F
  0
DICTIONARY
  5
3F
102
{ACAD_REACTORS
330
C
102
}
330
C
100
AcDbDictionary
281
     1
  3
A0
350
40
  3
A1
350
41
  3
A2
350
42
  3
A3
350
43
  3
A4
350
44
  3
A5
350
45
  3
A6
350
46
  3
A7
350
47
  3
A8
350
48
  3
A9
350
49
  3
B0
350
4A
  3
B1
350
4B
  3
B2
350
4C
  3
B3
350
4D
  3
B4
350
4E
  3
B5
350
4F
  3
B6
350
50
  3
B7
350
51
  3
B8
350
52
  3
B9
350
53
  3
C0
350
54
  3
C1
350
55
  3
C2
350
56
  3
C3
350
57
  3
C4
350
58
  3
C5
350
59
  3
C6
350
5A
  3
C7
350
5B
  3
C8
350
5C
  3
C9
350
5D
  3
D0
350
5E
  3
D1
350
5F
  3
D2
350
60
  0
DICTIONARY
  5
5C1
102
{ACAD_REACTORS
330
C
102
}
330
C
100
AcDbDictionary
281
     1
  0
DICTIONARY
  5
2A
102
{ACAD_REACTORS
330
C
102
}
330
C
100
AcDbDictionary
281
     1
  3
2dWireframe
350
2F
  3
3D Hidden
350
31
  3
3dWireframe
350
30
  3
Basic
350
32
  3
Brighten
350
36
  3
ColorChange
350
3A
  3
Conceptual
350
34
  3
Dim
350
35
  3
Facepattern
350
39
  3
Flat
350
2B
  3
FlatWithEdges
350
2C
  3
Gouraud
350
2D
  3
GouraudWithEdges
350
2E
  3
Linepattern
350
38
  3
Realistic
350
33
  3
Thicken
350
37
  0
DICTIONARY
  5
598
102
{ACAD_REACTORS
330
C
102
}
330
C
100
AcDbDictionary
281
     1
  3
CANNOSCALE
350
599
  3
MSLTSCALE
350
59A
  0
LAYOUT
  5
1E
102
{ACAD_REACTORS
330
1A
102
}
330
1A
100
AcDbPlotSettings
  1

  2
none_device
  4

  6

 40
0.0
 41
0.0
 42
0.0
 43
0.0
 44
0.0
 45
0.0
 46
0.0
 47
0.0
 48
0.0
 49
0.0
140
0.0
141
0.0
142
1.0
143
1.0
 70
   688
 72
     0
 73
     0
 74
     5
  7

 75
    16
 76
     0
 77
     2
 78
   300
147
1.0
148
0.0
149
0.0
100
AcDbLayout
  1
Layout1
 70
     1
 71
     1
 10
0.0
 20
0.0
 11
12.0
 21
9.0
 12
0.0
 22
0.0
 32
0.0
 14
1.000000000000000E+20
 24
1.000000000000000E+20
 34
1.000000000000000E+20
 15
-1.000000000000000E+20
 25
-1.000000000000000E+20
 35
-1.000000000000000E+20
146
0.0
 13
0.0
 23
0.0
 33
0.0
 16
1.0
 26
0.0
 36
0.0
 17
0.0
 27
1.0
 37
0.0
 76
     0
330
1B
  0
LAYOUT
  5
26
102
{ACAD_REACTORS
330
1A
102
}
330
1A
100
AcDbPlotSettings
  1

  2
none_device
  4

  6

 40
0.0
 41
0.0
 42
0.0
 43
0.0
 44
0.0
 45
0.0
 46
0.0
 47
0.0
 48
0.0
 49
0.0
140
0.0
141
0.0
142
1.0
143
1.0
 70
   688
 72
     0
 73
     0
 74
     5
  7

 75
    16
 76
     0
 77
     2
 78
   300
147
1.0
148
0.0
149
0.0
100
AcDbLayout
  1
Layout2
 70
     1
 71
     2
 10
0.0
 20
0.0
 11
0.0
 21
0.0
 12
0.0
 22
0.0
 32
0.0
 14
0.0
 24
0.0
 34
0.0
 15
0.0
 25
0.0
 35
0.0
146
0.0
 13
0.0
 23
0.0
 33
0.0
 16
1.0
 26
0.0
 36
0.0
 17
0.0
 27
1.0
 37
0.0
 76
     0
330
23
  0
LAYOUT
  5
22
102
{ACAD_REACTORS
330
1A
102
}
330
1A
100
AcDbPlotSettings
  1

  2
none_device
  4
Letter_(8.50_x_11.00_Inches)
  6

 40
6.35
 41
6.35
 42
6.35000508
 43
6.35000508
 44
215.9
 45
279.4
 46
0.0
 47
0.0
 48
0.0
 49
0.0
140
0.0
141
0.0
142
1.0
143
1.0
 70
  1712
 72
     0
 73
     0
 74
     0
  7

 75
     0
 76
     0
 77
     2
 78
   300
147
1.0
148
0.0
149
0.0
100
AcDbLayout
  1
Model
 70
     1
 71
     0
 10
0.0
 20
0.0
 11
12.0
 21
9.0
 12
0.0
 22
0.0
 32
0.0
 14
-0.0000000000001269
 24
743.677530648264
 34
0.0
 15
197.572622589291
 25
899.4336317743117
 35
0.0
146
0.0
 13
0.0
 23
0.0
 33
0.0
 16
1.0
 26
0.0
 36
0.0
 17
0.0
 27
1.0
 37
0.0
 76
     0
330
1F
331
29
  0
MATERIAL
  5
3D
102
{ACAD_REACTORS
330
3B
102
}
102
{ACAD_XDICTIONARY
360
5BD
102
}
330
3B
100
AcDbMaterial
  1
ByBlock
  0
MATERIAL
  5
3C
102
{ACAD_REACTORS
330
3B
102
}
102
{ACAD_XDICTIONARY
360
5BB
102
}
330
3B
100
AcDbMaterial
  1
ByLayer
  0
MATERIAL
  5
3E
102
{ACAD_REACTORS
330
3B
102
}
102
{ACAD_XDICTIONARY
360
5BF
102
}
330
3B
100
AcDbMaterial
  1
Global
  0
MLINESTYLE
  5
18
102
{ACAD_REACTORS
330
17
102
}
330
17
100
AcDbMlineStyle
  2
Standard
 70
     0
  3

 62
   256
 51
90.0
 52
90.0
 71
     2
 49
0.5
 62
   256
  6
BYLAYER
 49
-0.5
 62
   256
  6
BYLAYER
  0
ACDBPLACEHOLDER
  5
F
102
{ACAD_REACTORS
330
E
102
}
330
E
  0
SCALE
  5
40
102
{ACAD_REACTORS
330
3F
102
}
330
3F
100
AcDbScale
 70
     0
300
1:1
140
1.0
141
1.0
290
     1
  0
SCALE
  5
41
102
{ACAD_REACTORS
330
3F
102
}
330
3F
100
AcDbScale
 70
     0
300
1:2
140
1.0
141
2.0
290
     0
  0
SCALE
  5
42
102
{ACAD_REACTORS
330
3F
102
}
330
3F
100
AcDbScale
 70
     0
300
1:4
140
1.0
141
4.0
290
     0
  0
SCALE
  5
43
102
{ACAD_REACTORS
330
3F
102
}
330
3F
100
AcDbScale
 70
     0
300
1:5
140
1.0
141
5.0
290
     0
  0
SCALE
  5
44
102
{ACAD_REACTORS
330
3F
102
}
330
3F
100
AcDbScale
 70
     0
300
1:8
140
1.0
141
8.0
290
     0
  0
SCALE
  5
45
102
{ACAD_REACTORS
330
3F
102
}
330
3F
100
AcDbScale
 70
     0
300
1:10
140
1.0
141
10.0
290
     0
  0
SCALE
  5
46
102
{ACAD_REACTORS
330
3F
102
}
330
3F
100
AcDbScale
 70
     0
300
1:16
140
1.0
141
16.0
290
     0
  0
SCALE
  5
47
102
{ACAD_REACTORS
330
3F
102
}
330
3F
100
AcDbScale
 70
     0
300
1:20
140
1.0
141
20.0
290
     0
  0
SCALE
  5
48
102
{ACAD_REACTORS
330
3F
102
}
330
3F
100
AcDbScale
 70
     0
300
1:30
140
1.0
141
30.0
290
     0
  0
SCALE
  5
49
102
{ACAD_REACTORS
330
3F
102
}
330
3F
100
AcDbScale
 70
     0
300
1:40
140
1.0
141
40.0
290
     0
  0
SCALE
  5
4A
102
{ACAD_REACTORS
330
3F
102
}
330
3F
100
AcDbScale
 70
     0
300
1:50
140
1.0
141
50.0
290
     0
  0
SCALE
  5
4B
102
{ACAD_REACTORS
330
3F
102
}
330
3F
100
AcDbScale
 70
     0
300
1:100
140
1.0
141
100.0
290
     0
  0
SCALE
  5
4C
102
{ACAD_REACTORS
330
3F
102
}
330
3F
100
AcDbScale
 70
     0
300
2:1
140
2.0
141
1.0
290
     0
  0
SCALE
  5
4D
102
{ACAD_REACTORS
330
3F
102
}
330
3F
100
AcDbScale
 70
     0
300
4:1
140
4.0
141
1.0
290
     0
  0
SCALE
  5
4E
102
{ACAD_REACTORS
330
3F
102
}
330
3F
100
AcDbScale
 70
     0
300
8:1
140
8.0
141
1.0
290
     0
  0
SCALE
  5
4F
102
{ACAD_REACTORS
330
3F
102
}
330
3F
100
AcDbScale
 70
     0
300
10:1
140
10.0
141
1.0
290
     0
  0
SCALE
  5
50
102
{ACAD_REACTORS
330
3F
102
}
330
3F
100
AcDbScale
 70
     0
300
100:1
140
100.0
141
1.0
290
     0
  0
SCALE
  5
51
102
{ACAD_REACTORS
330
3F
102
}
330
3F
100
AcDbScale
 70
     0
300
1/128" = 1'-0"
140
0.0078125
141
12.0
290
     0
  0
SCALE
  5
52
102
{ACAD_REACTORS
330
3F
102
}
330
3F
100
AcDbScale
 70
     0
300
1/64" = 1'-0"
140
0.015625
141
12.0
290
     0
  0
SCALE
  5
53
102
{ACAD_REACTORS
330
3F
102
}
330
3F
100
AcDbScale
 70
     0
300
1/32" = 1'-0"
140
0.03125
141
12.0
290
     0
  0
SCALE
  5
54
102
{ACAD_REACTORS
330
3F
102
}
330
3F
100
AcDbScale
 70
     0
300
1/16" = 1'-0"
140
0.0625
141
12.0
290
     0
  0
SCALE
  5
55
102
{ACAD_REACTORS
330
3F
102
}
330
3F
100
AcDbScale
 70
     0
300
3/32" = 1'-0"
140
0.09375
141
12.0
290
     0
  0
SCALE
  5
56
102
{ACAD_REACTORS
330
3F
102
}
330
3F
100
AcDbScale
 70
     0
300
1/8" = 1'-0"
140
0.125
141
12.0
290
     0
  0
SCALE
  5
57
102
{ACAD_REACTORS
330
3F
102
}
330
3F
100
AcDbScale
 70
     0
300
3/16" = 1'-0"
140
0.1875
141
12.0
290
     0
  0
SCALE
  5
58
102
{ACAD_REACTORS
330
3F
102
}
330
3F
100
AcDbScale
 70
     0
300
1/4" = 1'-0"
140
0.25
141
12.0
290
     0
  0
SCALE
  5
59
102
{ACAD_REACTORS
330
3F
102
}
330
3F
100
AcDbScale
 70
     0
300
3/8" = 1'-0"
140
0.375
141
12.0
290
     0
  0
SCALE
  5
5A
102
{ACAD_REACTORS
330
3F
102
}
330
3F
100
AcDbScale
 70
     0
300
1/2" = 1'-0"
140
0.5
141
12.0
290
     0
  0
SCALE
  5
5B
102
{ACAD_REACTORS
330
3F
102
}
330
3F
100
AcDbScale
 70
     0
300
3/4" = 1'-0"
140
0.75
141
12.0
290
     0
  0
SCALE
  5
5C
102
{ACAD_REACTORS
330
3F
102
}
330
3F
100
AcDbScale
 70
     0
300
1" = 1'-0"
140
1.0
141
12.0
290
     0
  0
SCALE
  5
5D
102
{ACAD_REACTORS
330
3F
102
}
330
3F
100
AcDbScale
 70
     0
300
1-1/2" = 1'-0"
140
1.5
141
12.0
290
     0
  0
SCALE
  5
5E
102
{ACAD_REACTORS
330
3F
102
}
330
3F
100
AcDbScale
 70
     0
300
3" = 1'-0"
140
3.0
141
12.0
290
     0
  0
SCALE
  5
5F
102
{ACAD_REACTORS
330
3F
102
}
330
3F
100
AcDbScale
 70
     0
300
6" = 1'-0"
140
6.0
141
12.0
290
     0
  0
SCALE
  5
60
102
{ACAD_REACTORS
330
3F
102
}
330
3F
100
AcDbScale
 70
     0
300
1'-0" = 1'-0"
140
12.0
141
12.0
290
     0
  0
VISUALSTYLE
  5
2F
102
{ACAD_REACTORS
330
2A
102
}
102
{ACAD_XDICTIONARY
360
5A3
102
}
330
2A
100
AcDbVisualStyle
  2
2dWireframe
 70
     4
 71
     0
 72
     2
 73
     0
 90
        0
 40
0.6
 41
30.0
 62
     5
 63
     7
421
 16777215
 74
     1
 91
        4
 64
     7
 65
   257
 75
     1
175
     1
 42
1.0
 92
        0
 66
   257
 43
1.0
 76
     1
 77
     6
 78
     2
 67
     7
 79
     5
170
     0
171
     0
290
     0
174
     0
 93
        1
 44
0.0
173
     0
291
     0
 45
0.0
1001
ACAD
1000
AcDbSavedByObjectVersion
1070
     0
  0
VISUALSTYLE
  5
31
102
{ACAD_REACTORS
330
2A
102
}
102
{ACAD_XDICTIONARY
360
5A7
102
}
330
2A
100
AcDbVisualStyle
  2
3D Hidden
 70
     6
 71
     1
 72
     2
 73
     2
 90
        0
 40
0.6
 41
30.0
 62
     5
 63
     7
421
 16777215
 74
     2
 91
        2
 64
     7
 65
   257
 75
     2
175
     1
 42
40.0
 92
        0
 66
   257
 43
1.0
 76
     1
 77
     6
 78
     2
 67
     7
 79
     3
170
     0
171
     0
290
     0
174
     0
 93
        1
 44
0.0
173
     0
291
     0
 45
0.0
1001
ACAD
1000
AcDbSavedByObjectVersion
1070
     0
  0
VISUALSTYLE
  5
30
102
{ACAD_REACTORS
330
2A
102
}
102
{ACAD_XDICTIONARY
360
5A5
102
}
330
2A
100
AcDbVisualStyle
  2
3dWireframe
 70
     5
 71
     0
 72
     2
 73
     0
 90
        0
 40
0.6
 41
30.0
 62
     5
 63
     7
421
 16777215
 74
     1
 91
        4
 64
     7
 65
   257
 75
     1
175
     1
 42
1.0
 92
        0
 66
   257
 43
1.0
 76
     1
 77
     6
 78
     2
 67
     7
 79
     5
170
     0
171
     0
290
     0
174
     0
 93
        1
 44
0.0
173
     0
291
     0
 45
0.0
1001
ACAD
1000
AcDbSavedByObjectVersion
1070
     0
  0
VISUALSTYLE
  5
32
102
{ACAD_REACTORS
330
2A
102
}
102
{ACAD_XDICTIONARY
360
5A9
102
}
330
2A
100
AcDbVisualStyle
  2
Basic
 70
     7
 71
     1
 72
     0
 73
     1
 90
        0
 40
0.6
 41
30.0
 62
     5
 63
     7
421
 16777215
 74
     0
 91
        4
 64
     7
 65
   257
 75
     1
175
     1
 42
1.0
 92
        8
 66
     7
 43
1.0
 76
     1
 77
     6
 78
     2
 67
     7
 79
     5
170
     0
171
     0
290
     0
174
     0
 93
        1
 44
0.0
173
     0
291
     1
 45
0.0
1001
ACAD
1000
AcDbSavedByObjectVersion
1070
     0
  0
VISUALSTYLE
  5
36
102
{ACAD_REACTORS
330
2A
102
}
102
{ACAD_XDICTIONARY
360
5B1
102
}
330
2A
100
AcDbVisualStyle
  2
Brighten
 70
    12
 71
     2
 72
     2
 73
     0
 90
        0
 40
0.6
 41
30.0
 62
     5
 63
     7
421
 16777215
 74
     1
 91
        4
 64
     7
 65
   257
 75
     1
175
     1
 42
1.0
 92
        8
 66
     7
 43
1.0
 76
     1
 77
     6
 78
     2
 67
     7
 79
     5
170
     0
171
     0
290
     0
174
     0
 93
        1
 44
50.0
173
     0
291
     1
 45
0.0
1001
ACAD
1000
AcDbSavedByObjectVersion
1070
     0
  0
VISUALSTYLE
  5
3A
102
{ACAD_REACTORS
330
2A
102
}
102
{ACAD_XDICTIONARY
360
5B9
102
}
330
2A
100
AcDbVisualStyle
  2
ColorChange
 70
    16
 71
     2
 72
     2
 73
     3
 90
        0
 40
0.6
 41
30.0
 62
     5
 63
     8
421
  8421504
 74
     1
 91
        4
 64
     7
 65
   257
 75
     1
175
     1
 42
1.0
 92
        8
 66
     8
424
  8421504
 43
1.0
 76
     1
 77
     6
 78
     2
 67
     7
 79
     5
170
     0
171
     0
290
     0
174
     0
 93
        1
 44
0.0
173
     0
291
     1
 45
0.0
1001
ACAD
1000
AcDbSavedByObjectVersion
1070
     0
  0
VISUALSTYLE
  5
34
102
{ACAD_REACTORS
330
2A
102
}
102
{ACAD_XDICTIONARY
360
5AD
102
}
330
2A
100
AcDbVisualStyle
  2
Conceptual
 70
     9
 71
     3
 72
     2
 73
     0
 90
        0
 40
0.6
 41
30.0
 62
     5
 63
     7
421
 16777215
 74
     2
 91
        2
 64
     7
 65
   257
 75
     1
175
     1
 42
40.0
 92
        8
 66
     7
 43
1.0
 76
     1
 77
     6
 78
     2
 67
     7
 79
     3
170
     0
171
     0
290
     0
174
     0
 93
        1
 44
0.0
173
     0
291
     0
 45
0.0
1001
ACAD
1000
AcDbSavedByObjectVersion
1070
     0
  0
VISUALSTYLE
  5
35
102
{ACAD_REACTORS
330
2A
102
}
102
{ACAD_XDICTIONARY
360
5AF
102
}
330
2A
100
AcDbVisualStyle
  2
Dim
 70
    11
 71
     2
 72
     2
 73
     0
 90
        0
 40
0.6
 41
30.0
 62
     5
 63
     7
421
 16777215
 74
     1
 91
        4
 64
     7
 65
   257
 75
     1
175
     1
 42
1.0
 92
        8
 66
     7
 43
1.0
 76
     1
 77
     6
 78
     2
 67
     7
 79
     5
170
     0
171
     0
290
     0
174
     0
 93
        1
 44
-50.0
173
     0
291
     1
 45
0.0
1001
ACAD
1000
AcDbSavedByObjectVersion
1070
     0
  0
VISUALSTYLE
  5
39
102
{ACAD_REACTORS
330
2A
102
}
102
{ACAD_XDICTIONARY
360
5B7
102
}
330
2A
100
AcDbVisualStyle
  2
Facepattern
 70
    15
 71
     2
 72
     2
 73
     0
 90
        0
 40
0.6
 41
30.0
 62
     5
 63
     7
421
 16777215
 74
     1
 91
        4
 64
     7
 65
   257
 75
     1
175
     1
 42
1.0
 92
        8
 66
     7
 43
1.0
 76
     1
 77
     6
 78
     2
 67
     7
 79
     5
170
     0
171
     0
290
     0
174
     0
 93
        1
 44
0.0
173
     0
291
     1
 45
0.0
1001
ACAD
1000
AcDbSavedByObjectVersion
1070
     0
  0
VISUALSTYLE
  5
2B
102
{ACAD_REACTORS
330
2A
102
}
102
{ACAD_XDICTIONARY
360
59B
102
}
330
2A
100
AcDbVisualStyle
  2
Flat
 70
     0
 71
     2
 72
     1
 73
     1
 90
        2
 40
0.6
 41
30.0
 62
     5
 63
     7
421
 16777215
 74
     0
 91
        4
 64
     7
 65
   257
 75
     1
175
     1
 42
1.0
 92
        8
 66
     7
 43
1.0
 76
     1
 77
     6
 78
     2
 67
     7
 79
     5
170
     0
171
     0
290
     0
174
     0
 93
       13
 44
0.0
173
     0
291
     1
 45
0.0
1001
ACAD
1000
AcDbSavedByObjectVersion
1070
     0
  0
VISUALSTYLE
  5
2C
102
{ACAD_REACTORS
330
2A
102
}
102
{ACAD_XDICTIONARY
360
59D
102
}
330
2A
100
AcDbVisualStyle
  2
FlatWithEdges
 70
     1
 71
     2
 72
     1
 73
     1
 90
        2
 40
0.6
 41
30.0
 62
     5
 63
     7
421
 16777215
 74
     1
 91
        4
 64
     7
 65
   257
 75
     1
175
     1
 42
1.0
 92
        0
 66
   257
 43
1.0
 76
     1
 77
     6
 78
     2
 67
     7
 79
     5
170
     0
171
     0
290
     0
174
     0
 93
       13
 44
0.0
173
     0
291
     1
 45
0.0
1001
ACAD
1000
AcDbSavedByObjectVersion
1070
     0
  0
VISUALSTYLE
  5
2D
102
{ACAD_REACTORS
330
2A
102
}
102
{ACAD_XDICTIONARY
360
59F
102
}
330
2A
100
AcDbVisualStyle
  2
Gouraud
 70
     2
 71
     2
 72
     2
 73
     1
 90
        2
 40
0.6
 41
30.0
 62
     5
 63
     7
421
 16777215
 74
     0
 91
        4
 64
     7
 65
   257
 75
     1
175
     1
 42
1.0
 92
        0
 66
     7
 43
1.0
 76
     1
 77
     6
 78
     2
 67
     7
 79
     5
170
     0
171
     0
290
     0
174
     0
 93
       13
 44
0.0
173
     0
291
     1
 45
0.0
1001
ACAD
1000
AcDbSavedByObjectVersion
1070
     0
  0
VISUALSTYLE
  5
2E
102
{ACAD_REACTORS
330
2A
102
}
102
{ACAD_XDICTIONARY
360
5A1
102
}
330
2A
100
AcDbVisualStyle
  2
GouraudWithEdges
 70
     3
 71
     2
 72
     2
 73
     1
 90
        2
 40
0.6
 41
30.0
 62
     5
 63
     7
421
 16777215
 74
     1
 91
        4
 64
     7
 65
   257
 75
     1
175
     1
 42
1.0
 92
        0
 66
   257
 43
1.0
 76
     1
 77
     6
 78
     2
 67
     7
 79
     5
170
     0
171
     0
290
     0
174
     0
 93
       13
 44
0.0
173
     0
291
     1
 45
0.0
1001
ACAD
1000
AcDbSavedByObjectVersion
1070
     0
  0
VISUALSTYLE
  5
38
102
{ACAD_REACTORS
330
2A
102
}
102
{ACAD_XDICTIONARY
360
5B5
102
}
330
2A
100
AcDbVisualStyle
  2
Linepattern
 70
    14
 71
     2
 72
     2
 73
     0
 90
        0
 40
0.6
 41
30.0
 62
     5
 63
     7
421
 16777215
 74
     1
 91
        4
 64
     7
 65
   257
 75
     7
175
     7
 42
1.0
 92
        8
 66
     7
 43
1.0
 76
     1
 77
     6
 78
     2
 67
     7
 79
     5
170
     0
171
     0
290
     0
174
     0
 93
        1
 44
0.0
173
     0
291
     1
 45
0.0
1001
ACAD
1000
AcDbSavedByObjectVersion
1070
     0
  0
VISUALSTYLE
  5
33
102
{ACAD_REACTORS
330
2A
102
}
102
{ACAD_XDICTIONARY
360
5AB
102
}
330
2A
100
AcDbVisualStyle
  2
Realistic
 70
     8
 71
     2
 72
     3
 73
     0
 90
        2
 40
0.6
 41
30.0
 62
     5
 63
     7
421
 16777215
 74
     0
 91
        0
 64
     7
 65
   257
 75
     1
175
     1
 42
1.0
 92
        8
 66
   257
 43
1.0
 76
     1
 77
     6
 78
     2
 67
     7
 79
     3
170
     0
171
     0
290
     0
174
     0
 93
       13
 44
0.0
173
     0
291
     0
 45
0.0
1001
ACAD
1000
AcDbSavedByObjectVersion
1070
     0
  0
VISUALSTYLE
  5
37
102
{ACAD_REACTORS
330
2A
102
}
102
{ACAD_XDICTIONARY
360
5B3
102
}
330
2A
100
AcDbVisualStyle
  2
Thicken
 70
    13
 71
     2
 72
     2
 73
     0
 90
        0
 40
0.6
 41
30.0
 62
     5
 63
     7
421
 16777215
 74
     1
 91
        4
 64
     7
 65
   257
 75
     1
175
     1
 42
1.0
 92
       12
 66
     7
 43
1.0
 76
     1
 77
     6
 78
     2
 67
     7
 79
     5
170
     0
171
     0
290
     0
174
     0
 93
        1
 44
0.0
173
     0
291
     1
 45
0.0
1001
ACAD
1000
AcDbSavedByObjectVersion
1070
     0
  0
DICTIONARYVAR
  5
599
102
{ACAD_REACTORS
330
598
102
}
330
598
100
DictionaryVariables
280
     0
  1
1:1
  0
DICTIONARYVAR
  5
59A
102
{ACAD_REACTORS
330
598
102
}
330
598
100
DictionaryVariables
280
     0
  1
1
  0
DICTIONARY
  5
5BD
330
3D
100
AcDbDictionary
280
     1
281
     1
  3
ACAD_XREC_ROUNDTRIP
360
5BE
  0
DICTIONARY
  5
5BB
330
3C
100
AcDbDictionary
280
     1
281
     1
  3
ACAD_XREC_ROUNDTRIP
360
5BC
  0
DICTIONARY
  5
5BF
330
3E
100
AcDbDictionary
280
     1
281
     1
  3
ACAD_XREC_ROUNDTRIP
360
5C0
  0
DICTIONARY
  5
5A3
330
2F
100
AcDbDictionary
280
     1
281
     1
  3
ACAD_XREC_ROUNDTRIP
360
5A4
  0
DICTIONARY
  5
5A7
330
31
100
AcDbDictionary
280
     1
281
     1
  3
ACAD_XREC_ROUNDTRIP
360
5A8
  0
DICTIONARY
  5
5A5
330
30
100
AcDbDictionary
280
     1
281
     1
  3
ACAD_XREC_ROUNDTRIP
360
5A6
  0
DICTIONARY
  5
5A9
330
32
100
AcDbDictionary
280
     1
281
     1
  3
ACAD_XREC_ROUNDTRIP
360
5AA
  0
DICTIONARY
  5
5B1
330
36
100
AcDbDictionary
280
     1
281
     1
  3
ACAD_XREC_ROUNDTRIP
360
5B2
  0
DICTIONARY
  5
5B9
330
3A
100
AcDbDictionary
280
     1
281
     1
  3
ACAD_XREC_ROUNDTRIP
360
5BA
  0
DICTIONARY
  5
5AD
330
34
100
AcDbDictionary
280
     1
281
     1
  3
ACAD_XREC_ROUNDTRIP
360
5AE
  0
DICTIONARY
  5
5AF
330
35
100
AcDbDictionary
280
     1
281
     1
  3
ACAD_XREC_ROUNDTRIP
360
5B0
  0
DICTIONARY
  5
5B7
330
39
100
AcDbDictionary
280
     1
281
     1
  3
ACAD_XREC_ROUNDTRIP
360
5B8
  0
DICTIONARY
  5
59B
330
2B
100
AcDbDictionary
280
     1
281
     1
  3
ACAD_XREC_ROUNDTRIP
360
59C
  0
DICTIONARY
  5
59D
330
2C
100
AcDbDictionary
280
     1
281
     1
  3
ACAD_XREC_ROUNDTRIP
360
59E
  0
DICTIONARY
  5
59F
330
2D
100
AcDbDictionary
280
     1
281
     1
  3
ACAD_XREC_ROUNDTRIP
360
5A0
  0
DICTIONARY
  5
5A1
330
2E
100
AcDbDictionary
280
     1
281
     1
  3
ACAD_XREC_ROUNDTRIP
360
5A2
  0
DICTIONARY
  5
5B5
330
38
100
AcDbDictionary
280
     1
281
     1
  3
ACAD_XREC_ROUNDTRIP
360
5B6
  0
DICTIONARY
  5
5AB
330
33
100
AcDbDictionary
280
     1
281
     1
  3
ACAD_XREC_ROUNDTRIP
360
5AC
  0
DICTIONARY
  5
5B3
330
37
100
AcDbDictionary
280
     1
281
     1
  3
ACAD_XREC_ROUNDTRIP
360
5B4
  0
XRECORD
  5
5BE
102
{ACAD_REACTORS
330
5BD
102
}
330
5BD
100
AcDbXrecord
280
     1
102
MATERIAL
148
0.0
149
0.0
149
0.0
 93
        0
 94
      127
282
     0
 72
     1
 77
     1
171
     1
175
     1
179
     1
273
     0
  0
XRECORD
  5
5BC
102
{ACAD_REACTORS
330
5BB
102
}
330
5BB
100
AcDbXrecord
280
     1
102
MATERIAL
148
0.0
149
0.0
149
0.0
 93
        0
 94
      127
282
     0
 72
     1
 77
     1
171
     1
175
     1
179
     1
273
     0
  0
XRECORD
  5
5C0
102
{ACAD_REACTORS
330
5BF
102
}
330
5BF
100
AcDbXrecord
280
     1
102
MATERIAL
148
0.0
149
0.0
149
0.0
 93
        0
 94
      127
282
     0
 72
     1
 77
     1
171
     1
175
     1
179
     1
273
     0
  0
XRECORD
  5
5A4
102
{ACAD_REACTORS
330
5A3
102
}
330
5A3
100
AcDbXrecord
280
     1
102
RTVSPropertyOp0
 70
     1
102
RTVSPropertyOp1
 70
     1
102
RTVSPropertyOp2
 70
     1
102
RTVSPropertyOp3
 70
     1
102
RTVSPropertyOp4
 70
     1
102
RTVSPropertyOp5
 70
     1
102
RTVSPropertyOp6
 70
     1
102
RTVSPropertyOp7
 70
     1
102
RTVSPropertyOp8
 70
     1
102
RTVSPropertyOp9
 70
     1
102
RTVSPropertyOp10
 70
     1
102
RTVSPropertyOp11
 70
     1
102
RTVSPropertyOp12
 70
     1
102
RTVSPropertyOp13
 70
     1
102
RTVSPropertyOp14
 70
     1
102
RTVSPropertyOp15
 70
     1
102
RTVSPropertyOp16
 70
     1
102
RTVSPropertyOp17
 70
     1
102
RTVSPropertyOp18
 70
     1
102
RTVSPropertyOp19
 70
     1
102
RTVSPropertyOp20
 70
     1
102
RTVSPropertyOp21
 70
     1
102
RTVSPropertyOp22
 70
     1
102
RTVSPropertyOp23
 70
     1
102
RTVSPropertyOp24
 70
     1
102
RTVSPropertyOp25
 70
     1
102
RTVSPropertyOp26
 70
     1
102
RTVSPropertyOp27
 70
     1
102
RTVSPropertyOp28
 70
     1
102
RTVSPropertyOp29
 70
     1
102
RTVSPropertyOp30
 70
     1
102
RTVSPropertyOp31
 70
     1
102
RTVSPropertyOp32
 70
     1
102
RTVSPropertyOp33
 70
     1
102
RTVSPropertyOp34
 70
     1
102
RTVSPropertyOp35
 70
     1
102
RTVSPropertyOp36
 70
     1
102
RTVSPropertyOp37
 70
     1
102
RTVSPropertyOp38
 70
     1
102
RTVSPropertyOp39
 70
     1
102
RTVSPropertyOp40
 70
     1
102
RTVSPropertyOp41
 70
     1
102
RTVSPropertyOp42
 70
     1
102
RTVSPropertyOp43
 70
     1
102
RTVSPropertyOp44
 70
     1
102
RTVSPropertyOp45
 70
     1
102
RTVSPropertyOp46
 70
     1
102
RTVSPropertyOp47
 70
     1
102
RTVSPropertyOp48
 70
     1
102
RTVSPropertyOp49
 70
     1
102
RTVSPropertyOp50
 70
     1
102
RTVSPropertyOp51
 70
     0
102
RTVSPropertyOp52
 70
     0
102
RTVSPropertyOp53
 70
     1
102
RTVSPropertyOp54
 70
     1
102
RTVSPropertyOp55
 70
     1
102
RTVSPropertyOp56
 70
     1
102
RTVSPropertyOp57
 70
     1
102
RTVSPost2010Prop28
280
     1
102
RTVSPost2010PropOp28
 70
     1
102
RTVSPost2010Prop29
280
     1
102
RTVSPost2010PropOp29
 70
     1
102
RTVSPost2010Prop30
280
     0
102
RTVSPost2010PropOp30
 70
     1
102
RTVSPost2010Prop31
280
     0
102
RTVSPost2010PropOp31
 70
     1
102
RTVSPost2010Prop32
280
     0
102
RTVSPost2010PropOp32
 70
     1
102
RTVSPost2010Prop33
280
     0
102
RTVSPost2010PropOp33
 70
     1
102
RTVSPost2010Prop34
280
     0
102
RTVSPost2010PropOp34
 70
     1
102
RTVSPost2010Prop35
280
     0
102
RTVSPost2010PropOp35
 70
     1
102
RTVSPost2010Prop36
280
     0
102
RTVSPost2010PropOp36
 70
     1
102
RTVSPost2010Prop37
 90
       50
102
RTVSPost2010PropOp37
 70
     1
102
RTVSPost2010Prop38
140
0.0
102
RTVSPost2010PropOp38
 70
     1
102
RTVSPost2010Prop39
140
1.0
102
RTVSPost2010PropOp39
 70
     1
102
RTVSPost2010Prop40
 90
        0
102
RTVSPost2010PropOp40
 70
     1
102
RTVSPost2010Prop41ColorIndex
 90
       18
102
RTVSPost2010Prop41ColorRGB
 90
        0
102
RTVSPost2010PropOp41
 70
     1
102
RTVSPost2010Prop42
 90
       50
102
RTVSPost2010PropOp42
 70
     1
102
RTVSPost2010Prop43
 90
        3
102
RTVSPost2010PropOp43
 70
     1
102
RTVSPost2010Prop44ColorIndex
 90
        5
102
RTVSPost2010Prop44ColorRGB
 90
      255
102
RTVSPost2010PropOp44
 70
     1
102
RTVSPost2010Prop45
280
     0
102
RTVSPost2010PropOp45
 70
     1
102
RTVSPost2010Prop46
 90
       50
102
RTVSPost2010PropOp46
 70
     1
102
RTVSPost2010Prop47
 90
       50
102
RTVSPost2010PropOp47
 70
     1
102
RTVSPost2010Prop48
 90
       50
102
RTVSPost2010PropOp48
 70
     1
102
RTVSPost2010Prop49
280
     0
102
RTVSPost2010PropOp49
 70
     1
102
RTVSPost2010Prop50
 90
       50
102
RTVSPost2010PropOp50
 70
     1
102
RTVSPost2010Prop51ColorIndex
 90
      256
102
RTVSPost2010Prop51ColorRGB
 90
-16777216
102
RTVSPost2010PropOp51
 70
     0
102
RTVSPost2010Prop52
140
1.0
102
RTVSPost2010PropOp52
 70
     0
102
RTVSPost2010Prop53
 90
        2
102
RTVSPost2010PropOp53
 70
     1
102
RTVSPost2010Prop54
  1
strokes_ogs.tif
102
RTVSPost2010PropOp54
 70
     1
102
RTVSPost2010Prop55
280
     0
102
RTVSPost2010PropOp55
 70
     1
102
RTVSPost2010Prop56
140
1.0
102
RTVSPost2010PropOp56
 70
     1
102
RTVSPost2010Prop57
140
1.0
102
RTVSPost2010PropOp57
 70
     1
  0
XRECORD
  5
5A8
102
{ACAD_REACTORS
330
5A7
102
}
330
5A7
100
AcDbXrecord
280
     1
102
RTVSPropertyOp0
 70
     1
102
RTVSPropertyOp1
 70
     1
102
RTVSPropertyOp2
 70
     1
102
RTVSPropertyOp3
 70
     1
102
RTVSPropertyOp4
 70
     1
102
RTVSPropertyOp5
 70
     1
102
RTVSPropertyOp6
 70
     1
102
RTVSPropertyOp7
 70
     1
102
RTVSPropertyOp8
 70
     1
102
RTVSPropertyOp9
 70
     1
102
RTVSPropertyOp10
 70
     1
102
RTVSPropertyOp11
 70
     1
102
RTVSPropertyOp12
 70
     1
102
RTVSPropertyOp13
 70
     1
102
RTVSPropertyOp14
 70
     1
102
RTVSPropertyOp15
 70
     1
102
RTVSPropertyOp16
 70
     1
102
RTVSPropertyOp17
 70
     1
102
RTVSPropertyOp18
 70
     1
102
RTVSPropertyOp19
 70
     1
102
RTVSPropertyOp20
 70
     1
102
RTVSPropertyOp21
 70
     1
102
RTVSPropertyOp22
 70
     1
102
RTVSPropertyOp23
 70
     1
102
RTVSPropertyOp24
 70
     1
102
RTVSPropertyOp25
 70
     1
102
RTVSPropertyOp26
 70
     1
102
RTVSPropertyOp27
 70
     1
102
RTVSPropertyOp28
 70
     1
102
RTVSPropertyOp29
 70
     1
102
RTVSPropertyOp30
 70
     1
102
RTVSPropertyOp31
 70
     1
102
RTVSPropertyOp32
 70
     1
102
RTVSPropertyOp33
 70
     1
102
RTVSPropertyOp34
 70
     1
102
RTVSPropertyOp35
 70
     1
102
RTVSPropertyOp36
 70
     1
102
RTVSPropertyOp37
 70
     1
102
RTVSPropertyOp38
 70
     1
102
RTVSPropertyOp39
 70
     1
102
RTVSPropertyOp40
 70
     1
102
RTVSPropertyOp41
 70
     1
102
RTVSPropertyOp42
 70
     1
102
RTVSPropertyOp43
 70
     1
102
RTVSPropertyOp44
 70
     1
102
RTVSPropertyOp45
 70
     1
102
RTVSPropertyOp46
 70
     1
102
RTVSPropertyOp47
 70
     1
102
RTVSPropertyOp48
 70
     1
102
RTVSPropertyOp49
 70
     1
102
RTVSPropertyOp50
 70
     1
102
RTVSPropertyOp51
 70
     0
102
RTVSPropertyOp52
 70
     0
102
RTVSPropertyOp53
 70
     1
102
RTVSPropertyOp54
 70
     1
102
RTVSPropertyOp55
 70
     1
102
RTVSPropertyOp56
 70
     1
102
RTVSPropertyOp57
 70
     1
102
RTVSPost2010Prop28
280
     0
102
RTVSPost2010PropOp28
 70
     1
102
RTVSPost2010Prop29
280
     1
102
RTVSPost2010PropOp29
 70
     1
102
RTVSPost2010Prop30
280
     1
102
RTVSPost2010PropOp30
 70
     1
102
RTVSPost2010Prop31
280
     0
102
RTVSPost2010PropOp31
 70
     1
102
RTVSPost2010Prop32
280
     0
102
RTVSPost2010PropOp32
 70
     1
102
RTVSPost2010Prop33
280
     0
102
RTVSPost2010PropOp33
 70
     1
102
RTVSPost2010Prop34
280
     0
102
RTVSPost2010PropOp34
 70
     1
102
RTVSPost2010Prop35
280
     0
102
RTVSPost2010PropOp35
 70
     1
102
RTVSPost2010Prop36
280
     0
102
RTVSPost2010PropOp36
 70
     1
102
RTVSPost2010Prop37
 90
       50
102
RTVSPost2010PropOp37
 70
     1
102
RTVSPost2010Prop38
140
0.0
102
RTVSPost2010PropOp38
 70
     1
102
RTVSPost2010Prop39
140
1.0
102
RTVSPost2010PropOp39
 70
     1
102
RTVSPost2010Prop40
 90
        0
102
RTVSPost2010PropOp40
 70
     1
102
RTVSPost2010Prop41ColorIndex
 90
       18
102
RTVSPost2010Prop41ColorRGB
 90
        0
102
RTVSPost2010PropOp41
 70
     1
102
RTVSPost2010Prop42
 90
       50
102
RTVSPost2010PropOp42
 70
     1
102
RTVSPost2010Prop43
 90
        3
102
RTVSPost2010PropOp43
 70
     1
102
RTVSPost2010Prop44ColorIndex
 90
        5
102
RTVSPost2010Prop44ColorRGB
 90
      255
102
RTVSPost2010PropOp44
 70
     1
102
RTVSPost2010Prop45
280
     0
102
RTVSPost2010PropOp45
 70
     1
102
RTVSPost2010Prop46
 90
       50
102
RTVSPost2010PropOp46
 70
     1
102
RTVSPost2010Prop47
 90
       50
102
RTVSPost2010PropOp47
 70
     1
102
RTVSPost2010Prop48
 90
       50
102
RTVSPost2010PropOp48
 70
     1
102
RTVSPost2010Prop49
280
     0
102
RTVSPost2010PropOp49
 70
     1
102
RTVSPost2010Prop50
 90
       50
102
RTVSPost2010PropOp50
 70
     1
102
RTVSPost2010Prop51ColorIndex
 90
      256
102
RTVSPost2010Prop51ColorRGB
 90
-16777216
102
RTVSPost2010PropOp51
 70
     0
102
RTVSPost2010Prop52
140
1.0
102
RTVSPost2010PropOp52
 70
     0
102
RTVSPost2010Prop53
 90
        2
102
RTVSPost2010PropOp53
 70
     1
102
RTVSPost2010Prop54
  1
strokes_ogs.tif
102
RTVSPost2010PropOp54
 70
     1
102
RTVSPost2010Prop55
280
     0
102
RTVSPost2010PropOp55
 70
     1
102
RTVSPost2010Prop56
140
1.0
102
RTVSPost2010PropOp56
 70
     1
102
RTVSPost2010Prop57
140
1.0
102
RTVSPost2010PropOp57
 70
     1
  0
XRECORD
  5
5A6
102
{ACAD_REACTORS
330
5A5
102
}
330
5A5
100
AcDbXrecord
280
     1
102
RTVSPropertyOp0
 70
     1
102
RTVSPropertyOp1
 70
     1
102
RTVSPropertyOp2
 70
     1
102
RTVSPropertyOp3
 70
     1
102
RTVSPropertyOp4
 70
     1
102
RTVSPropertyOp5
 70
     1
102
RTVSPropertyOp6
 70
     1
102
RTVSPropertyOp7
 70
     1
102
RTVSPropertyOp8
 70
     1
102
RTVSPropertyOp9
 70
     1
102
RTVSPropertyOp10
 70
     1
102
RTVSPropertyOp11
 70
     1
102
RTVSPropertyOp12
 70
     1
102
RTVSPropertyOp13
 70
     1
102
RTVSPropertyOp14
 70
     1
102
RTVSPropertyOp15
 70
     1
102
RTVSPropertyOp16
 70
     1
102
RTVSPropertyOp17
 70
     1
102
RTVSPropertyOp18
 70
     1
102
RTVSPropertyOp19
 70
     1
102
RTVSPropertyOp20
 70
     1
102
RTVSPropertyOp21
 70
     1
102
RTVSPropertyOp22
 70
     1
102
RTVSPropertyOp23
 70
     1
102
RTVSPropertyOp24
 70
     1
102
RTVSPropertyOp25
 70
     1
102
RTVSPropertyOp26
 70
     1
102
RTVSPropertyOp27
 70
     1
102
RTVSPropertyOp28
 70
     1
102
RTVSPropertyOp29
 70
     1
102
RTVSPropertyOp30
 70
     1
102
RTVSPropertyOp31
 70
     1
102
RTVSPropertyOp32
 70
     1
102
RTVSPropertyOp33
 70
     1
102
RTVSPropertyOp34
 70
     1
102
RTVSPropertyOp35
 70
     1
102
RTVSPropertyOp36
 70
     1
102
RTVSPropertyOp37
 70
     1
102
RTVSPropertyOp38
 70
     1
102
RTVSPropertyOp39
 70
     1
102
RTVSPropertyOp40
 70
     1
102
RTVSPropertyOp41
 70
     1
102
RTVSPropertyOp42
 70
     1
102
RTVSPropertyOp43
 70
     1
102
RTVSPropertyOp44
 70
     1
102
RTVSPropertyOp45
 70
     1
102
RTVSPropertyOp46
 70
     1
102
RTVSPropertyOp47
 70
     1
102
RTVSPropertyOp48
 70
     1
102
RTVSPropertyOp49
 70
     1
102
RTVSPropertyOp50
 70
     1
102
RTVSPropertyOp51
 70
     0
102
RTVSPropertyOp52
 70
     0
102
RTVSPropertyOp53
 70
     1
102
RTVSPropertyOp54
 70
     1
102
RTVSPropertyOp55
 70
     1
102
RTVSPropertyOp56
 70
     1
102
RTVSPropertyOp57
 70
     1
102
RTVSPost2010Prop28
280
     0
102
RTVSPost2010PropOp28
 70
     1
102
RTVSPost2010Prop29
280
     1
102
RTVSPost2010PropOp29
 70
     1
102
RTVSPost2010Prop30
280
     1
102
RTVSPost2010PropOp30
 70
     1
102
RTVSPost2010Prop31
280
     0
102
RTVSPost2010PropOp31
 70
     1
102
RTVSPost2010Prop32
280
     0
102
RTVSPost2010PropOp32
 70
     1
102
RTVSPost2010Prop33
280
     0
102
RTVSPost2010PropOp33
 70
     1
102
RTVSPost2010Prop34
280
     0
102
RTVSPost2010PropOp34
 70
     1
102
RTVSPost2010Prop35
280
     0
102
RTVSPost2010PropOp35
 70
     1
102
RTVSPost2010Prop36
280
     0
102
RTVSPost2010PropOp36
 70
     1
102
RTVSPost2010Prop37
 90
       50
102
RTVSPost2010PropOp37
 70
     1
102
RTVSPost2010Prop38
140
0.0
102
RTVSPost2010PropOp38
 70
     1
102
RTVSPost2010Prop39
140
1.0
102
RTVSPost2010PropOp39
 70
     1
102
RTVSPost2010Prop40
 90
        0
102
RTVSPost2010PropOp40
 70
     1
102
RTVSPost2010Prop41ColorIndex
 90
       18
102
RTVSPost2010Prop41ColorRGB
 90
        0
102
RTVSPost2010PropOp41
 70
     1
102
RTVSPost2010Prop42
 90
       50
102
RTVSPost2010PropOp42
 70
     1
102
RTVSPost2010Prop43
 90
        3
102
RTVSPost2010PropOp43
 70
     1
102
RTVSPost2010Prop44ColorIndex
 90
        5
102
RTVSPost2010Prop44ColorRGB
 90
      255
102
RTVSPost2010PropOp44
 70
     1
102
RTVSPost2010Prop45
280
     0
102
RTVSPost2010PropOp45
 70
     1
102
RTVSPost2010Prop46
 90
       50
102
RTVSPost2010PropOp46
 70
     1
102
RTVSPost2010Prop47
 90
       50
102
RTVSPost2010PropOp47
 70
     1
102
RTVSPost2010Prop48
 90
       50
102
RTVSPost2010PropOp48
 70
     1
102
RTVSPost2010Prop49
280
     0
102
RTVSPost2010PropOp49
 70
     1
102
RTVSPost2010Prop50
 90
       50
102
RTVSPost2010PropOp50
 70
     1
102
RTVSPost2010Prop51ColorIndex
 90
      256
102
RTVSPost2010Prop51ColorRGB
 90
-16777216
102
RTVSPost2010PropOp51
 70
     0
102
RTVSPost2010Prop52
140
1.0
102
RTVSPost2010PropOp52
 70
     0
102
RTVSPost2010Prop53
 90
        2
102
RTVSPost2010PropOp53
 70
     1
102
RTVSPost2010Prop54
  1
strokes_ogs.tif
102
RTVSPost2010PropOp54
 70
     1
102
RTVSPost2010Prop55
280
     0
102
RTVSPost2010PropOp55
 70
     1
102
RTVSPost2010Prop56
140
1.0
102
RTVSPost2010PropOp56
 70
     1
102
RTVSPost2010Prop57
140
1.0
102
RTVSPost2010PropOp57
 70
     1
  0
XRECORD
  5
5AA
102
{ACAD_REACTORS
330
5A9
102
}
330
5A9
100
AcDbXrecord
280
     1
102
RTVSPropertyOp0
 70
     1
102
RTVSPropertyOp1
 70
     1
102
RTVSPropertyOp2
 70
     1
102
RTVSPropertyOp3
 70
     1
102
RTVSPropertyOp4
 70
     1
102
RTVSPropertyOp5
 70
     1
102
RTVSPropertyOp6
 70
     1
102
RTVSPropertyOp7
 70
     1
102
RTVSPropertyOp8
 70
     1
102
RTVSPropertyOp9
 70
     1
102
RTVSPropertyOp10
 70
     1
102
RTVSPropertyOp11
 70
     1
102
RTVSPropertyOp12
 70
     1
102
RTVSPropertyOp13
 70
     1
102
RTVSPropertyOp14
 70
     1
102
RTVSPropertyOp15
 70
     1
102
RTVSPropertyOp16
 70
     1
102
RTVSPropertyOp17
 70
     1
102
RTVSPropertyOp18
 70
     1
102
RTVSPropertyOp19
 70
     1
102
RTVSPropertyOp20
 70
     1
102
RTVSPropertyOp21
 70
     1
102
RTVSPropertyOp22
 70
     1
102
RTVSPropertyOp23
 70
     1
102
RTVSPropertyOp24
 70
     1
102
RTVSPropertyOp25
 70
     1
102
RTVSPropertyOp26
 70
     1
102
RTVSPropertyOp27
 70
     1
102
RTVSPropertyOp28
 70
     1
102
RTVSPropertyOp29
 70
     1
102
RTVSPropertyOp30
 70
     1
102
RTVSPropertyOp31
 70
     1
102
RTVSPropertyOp32
 70
     1
102
RTVSPropertyOp33
 70
     1
102
RTVSPropertyOp34
 70
     1
102
RTVSPropertyOp35
 70
     1
102
RTVSPropertyOp36
 70
     1
102
RTVSPropertyOp37
 70
     1
102
RTVSPropertyOp38
 70
     1
102
RTVSPropertyOp39
 70
     1
102
RTVSPropertyOp40
 70
     1
102
RTVSPropertyOp41
 70
     1
102
RTVSPropertyOp42
 70
     1
102
RTVSPropertyOp43
 70
     1
102
RTVSPropertyOp44
 70
     1
102
RTVSPropertyOp45
 70
     1
102
RTVSPropertyOp46
 70
     1
102
RTVSPropertyOp47
 70
     1
102
RTVSPropertyOp48
 70
     1
102
RTVSPropertyOp49
 70
     1
102
RTVSPropertyOp50
 70
     1
102
RTVSPropertyOp51
 70
     0
102
RTVSPropertyOp52
 70
     0
102
RTVSPropertyOp53
 70
     1
102
RTVSPropertyOp54
 70
     1
102
RTVSPropertyOp55
 70
     1
102
RTVSPropertyOp56
 70
     1
102
RTVSPropertyOp57
 70
     1
102
RTVSPost2010Prop28
280
     0
102
RTVSPost2010PropOp28
 70
     1
102
RTVSPost2010Prop29
280
     1
102
RTVSPost2010PropOp29
 70
     1
102
RTVSPost2010Prop30
280
     1
102
RTVSPost2010PropOp30
 70
     1
102
RTVSPost2010Prop31
280
     0
102
RTVSPost2010PropOp31
 70
     1
102
RTVSPost2010Prop32
280
     0
102
RTVSPost2010PropOp32
 70
     1
102
RTVSPost2010Prop33
280
     0
102
RTVSPost2010PropOp33
 70
     1
102
RTVSPost2010Prop34
280
     0
102
RTVSPost2010PropOp34
 70
     1
102
RTVSPost2010Prop35
280
     0
102
RTVSPost2010PropOp35
 70
     1
102
RTVSPost2010Prop36
280
     0
102
RTVSPost2010PropOp36
 70
     1
102
RTVSPost2010Prop37
 90
       50
102
RTVSPost2010PropOp37
 70
     1
102
RTVSPost2010Prop38
140
0.0
102
RTVSPost2010PropOp38
 70
     1
102
RTVSPost2010Prop39
140
1.0
102
RTVSPost2010PropOp39
 70
     1
102
RTVSPost2010Prop40
 90
        0
102
RTVSPost2010PropOp40
 70
     1
102
RTVSPost2010Prop41ColorIndex
 90
       18
102
RTVSPost2010Prop41ColorRGB
 90
        0
102
RTVSPost2010PropOp41
 70
     1
102
RTVSPost2010Prop42
 90
       50
102
RTVSPost2010PropOp42
 70
     1
102
RTVSPost2010Prop43
 90
        3
102
RTVSPost2010PropOp43
 70
     1
102
RTVSPost2010Prop44ColorIndex
 90
        5
102
RTVSPost2010Prop44ColorRGB
 90
      255
102
RTVSPost2010PropOp44
 70
     1
102
RTVSPost2010Prop45
280
     0
102
RTVSPost2010PropOp45
 70
     1
102
RTVSPost2010Prop46
 90
       50
102
RTVSPost2010PropOp46
 70
     1
102
RTVSPost2010Prop47
 90
       50
102
RTVSPost2010PropOp47
 70
     1
102
RTVSPost2010Prop48
 90
       50
102
RTVSPost2010PropOp48
 70
     1
102
RTVSPost2010Prop49
280
     0
102
RTVSPost2010PropOp49
 70
     1
102
RTVSPost2010Prop50
 90
       50
102
RTVSPost2010PropOp50
 70
     1
102
RTVSPost2010Prop51ColorIndex
 90
      256
102
RTVSPost2010Prop51ColorRGB
 90
-16777216
102
RTVSPost2010PropOp51
 70
     0
102
RTVSPost2010Prop52
140
1.0
102
RTVSPost2010PropOp52
 70
     0
102
RTVSPost2010Prop53
 90
        2
102
RTVSPost2010PropOp53
 70
     1
102
RTVSPost2010Prop54
  1
strokes_ogs.tif
102
RTVSPost2010PropOp54
 70
     1
102
RTVSPost2010Prop55
280
     0
102
RTVSPost2010PropOp55
 70
     1
102
RTVSPost2010Prop56
140
1.0
102
RTVSPost2010PropOp56
 70
     1
102
RTVSPost2010Prop57
140
1.0
102
RTVSPost2010PropOp57
 70
     1
  0
XRECORD
  5
5B2
102
{ACAD_REACTORS
330
5B1
102
}
330
5B1
100
AcDbXrecord
280
     1
102
RTVSPropertyOp0
 70
     1
102
RTVSPropertyOp1
 70
     1
102
RTVSPropertyOp2
 70
     1
102
RTVSPropertyOp3
 70
     1
102
RTVSPropertyOp4
 70
     1
102
RTVSPropertyOp5
 70
     1
102
RTVSPropertyOp6
 70
     1
102
RTVSPropertyOp7
 70
     1
102
RTVSPropertyOp8
 70
     1
102
RTVSPropertyOp9
 70
     1
102
RTVSPropertyOp10
 70
     1
102
RTVSPropertyOp11
 70
     1
102
RTVSPropertyOp12
 70
     1
102
RTVSPropertyOp13
 70
     1
102
RTVSPropertyOp14
 70
     1
102
RTVSPropertyOp15
 70
     1
102
RTVSPropertyOp16
 70
     1
102
RTVSPropertyOp17
 70
     1
102
RTVSPropertyOp18
 70
     1
102
RTVSPropertyOp19
 70
     1
102
RTVSPropertyOp20
 70
     1
102
RTVSPropertyOp21
 70
     1
102
RTVSPropertyOp22
 70
     1
102
RTVSPropertyOp23
 70
     1
102
RTVSPropertyOp24
 70
     1
102
RTVSPropertyOp25
 70
     1
102
RTVSPropertyOp26
 70
     1
102
RTVSPropertyOp27
 70
     1
102
RTVSPropertyOp28
 70
     1
102
RTVSPropertyOp29
 70
     1
102
RTVSPropertyOp30
 70
     1
102
RTVSPropertyOp31
 70
     1
102
RTVSPropertyOp32
 70
     1
102
RTVSPropertyOp33
 70
     1
102
RTVSPropertyOp34
 70
     1
102
RTVSPropertyOp35
 70
     1
102
RTVSPropertyOp36
 70
     1
102
RTVSPropertyOp37
 70
     1
102
RTVSPropertyOp38
 70
     1
102
RTVSPropertyOp39
 70
     1
102
RTVSPropertyOp40
 70
     1
102
RTVSPropertyOp41
 70
     1
102
RTVSPropertyOp42
 70
     1
102
RTVSPropertyOp43
 70
     1
102
RTVSPropertyOp44
 70
     1
102
RTVSPropertyOp45
 70
     1
102
RTVSPropertyOp46
 70
     1
102
RTVSPropertyOp47
 70
     1
102
RTVSPropertyOp48
 70
     1
102
RTVSPropertyOp49
 70
     1
102
RTVSPropertyOp50
 70
     1
102
RTVSPropertyOp51
 70
     0
102
RTVSPropertyOp52
 70
     0
102
RTVSPropertyOp53
 70
     1
102
RTVSPropertyOp54
 70
     1
102
RTVSPropertyOp55
 70
     1
102
RTVSPropertyOp56
 70
     1
102
RTVSPropertyOp57
 70
     1
102
RTVSPost2010Prop28
280
     0
102
RTVSPost2010PropOp28
 70
     1
102
RTVSPost2010Prop29
280
     1
102
RTVSPost2010PropOp29
 70
     1
102
RTVSPost2010Prop30
280
     1
102
RTVSPost2010PropOp30
 70
     1
102
RTVSPost2010Prop31
280
     0
102
RTVSPost2010PropOp31
 70
     1
102
RTVSPost2010Prop32
280
     0
102
RTVSPost2010PropOp32
 70
     1
102
RTVSPost2010Prop33
280
     0
102
RTVSPost2010PropOp33
 70
     1
102
RTVSPost2010Prop34
280
     0
102
RTVSPost2010PropOp34
 70
     1
102
RTVSPost2010Prop35
280
     0
102
RTVSPost2010PropOp35
 70
     1
102
RTVSPost2010Prop36
280
     0
102
RTVSPost2010PropOp36
 70
     1
102
RTVSPost2010Prop37
 90
       50
102
RTVSPost2010PropOp37
 70
     1
102
RTVSPost2010Prop38
140
0.0
102
RTVSPost2010PropOp38
 70
     1
102
RTVSPost2010Prop39
140
1.0
102
RTVSPost2010PropOp39
 70
     1
102
RTVSPost2010Prop40
 90
        0
102
RTVSPost2010PropOp40
 70
     1
102
RTVSPost2010Prop41ColorIndex
 90
       18
102
RTVSPost2010Prop41ColorRGB
 90
        0
102
RTVSPost2010PropOp41
 70
     1
102
RTVSPost2010Prop42
 90
       50
102
RTVSPost2010PropOp42
 70
     1
102
RTVSPost2010Prop43
 90
        3
102
RTVSPost2010PropOp43
 70
     1
102
RTVSPost2010Prop44ColorIndex
 90
        5
102
RTVSPost2010Prop44ColorRGB
 90
      255
102
RTVSPost2010PropOp44
 70
     1
102
RTVSPost2010Prop45
280
     0
102
RTVSPost2010PropOp45
 70
     1
102
RTVSPost2010Prop46
 90
       50
102
RTVSPost2010PropOp46
 70
     1
102
RTVSPost2010Prop47
 90
       50
102
RTVSPost2010PropOp47
 70
     1
102
RTVSPost2010Prop48
 90
       50
102
RTVSPost2010PropOp48
 70
     1
102
RTVSPost2010Prop49
280
     0
102
RTVSPost2010PropOp49
 70
     1
102
RTVSPost2010Prop50
 90
       50
102
RTVSPost2010PropOp50
 70
     1
102
RTVSPost2010Prop51ColorIndex
 90
      256
102
RTVSPost2010Prop51ColorRGB
 90
-16777216
102
RTVSPost2010PropOp51
 70
     0
102
RTVSPost2010Prop52
140
1.0
102
RTVSPost2010PropOp52
 70
     0
102
RTVSPost2010Prop53
 90
        2
102
RTVSPost2010PropOp53
 70
     1
102
RTVSPost2010Prop54
  1
strokes_ogs.tif
102
RTVSPost2010PropOp54
 70
     1
102
RTVSPost2010Prop55
280
     0
102
RTVSPost2010PropOp55
 70
     1
102
RTVSPost2010Prop56
140
1.0
102
RTVSPost2010PropOp56
 70
     1
102
RTVSPost2010Prop57
140
1.0
102
RTVSPost2010PropOp57
 70
     1
  0
XRECORD
  5
5BA
102
{ACAD_REACTORS
330
5B9
102
}
330
5B9
100
AcDbXrecord
280
     1
102
RTVSPropertyOp0
 70
     1
102
RTVSPropertyOp1
 70
     1
102
RTVSPropertyOp2
 70
     1
102
RTVSPropertyOp3
 70
     1
102
RTVSPropertyOp4
 70
     1
102
RTVSPropertyOp5
 70
     1
102
RTVSPropertyOp6
 70
     1
102
RTVSPropertyOp7
 70
     1
102
RTVSPropertyOp8
 70
     1
102
RTVSPropertyOp9
 70
     1
102
RTVSPropertyOp10
 70
     1
102
RTVSPropertyOp11
 70
     1
102
RTVSPropertyOp12
 70
     1
102
RTVSPropertyOp13
 70
     1
102
RTVSPropertyOp14
 70
     1
102
RTVSPropertyOp15
 70
     1
102
RTVSPropertyOp16
 70
     1
102
RTVSPropertyOp17
 70
     1
102
RTVSPropertyOp18
 70
     1
102
RTVSPropertyOp19
 70
     1
102
RTVSPropertyOp20
 70
     1
102
RTVSPropertyOp21
 70
     1
102
RTVSPropertyOp22
 70
     1
102
RTVSPropertyOp23
 70
     1
102
RTVSPropertyOp24
 70
     1
102
RTVSPropertyOp25
 70
     1
102
RTVSPropertyOp26
 70
     1
102
RTVSPropertyOp27
 70
     1
102
RTVSPropertyOp28
 70
     1
102
RTVSPropertyOp29
 70
     1
102
RTVSPropertyOp30
 70
     1
102
RTVSPropertyOp31
 70
     1
102
RTVSPropertyOp32
 70
     1
102
RTVSPropertyOp33
 70
     1
102
RTVSPropertyOp34
 70
     1
102
RTVSPropertyOp35
 70
     1
102
RTVSPropertyOp36
 70
     1
102
RTVSPropertyOp37
 70
     1
102
RTVSPropertyOp38
 70
     1
102
RTVSPropertyOp39
 70
     1
102
RTVSPropertyOp40
 70
     1
102
RTVSPropertyOp41
 70
     1
102
RTVSPropertyOp42
 70
     1
102
RTVSPropertyOp43
 70
     1
102
RTVSPropertyOp44
 70
     1
102
RTVSPropertyOp45
 70
     1
102
RTVSPropertyOp46
 70
     1
102
RTVSPropertyOp47
 70
     1
102
RTVSPropertyOp48
 70
     1
102
RTVSPropertyOp49
 70
     1
102
RTVSPropertyOp50
 70
     1
102
RTVSPropertyOp51
 70
     0
102
RTVSPropertyOp52
 70
     0
102
RTVSPropertyOp53
 70
     1
102
RTVSPropertyOp54
 70
     1
102
RTVSPropertyOp55
 70
     1
102
RTVSPropertyOp56
 70
     1
102
RTVSPropertyOp57
 70
     1
102
RTVSPost2010Prop28
280
     0
102
RTVSPost2010PropOp28
 70
     1
102
RTVSPost2010Prop29
280
     1
102
RTVSPost2010PropOp29
 70
     1
102
RTVSPost2010Prop30
280
     1
102
RTVSPost2010PropOp30
 70
     1
102
RTVSPost2010Prop31
280
     0
102
RTVSPost2010PropOp31
 70
     1
102
RTVSPost2010Prop32
280
     0
102
RTVSPost2010PropOp32
 70
     1
102
RTVSPost2010Prop33
280
     0
102
RTVSPost2010PropOp33
 70
     1
102
RTVSPost2010Prop34
280
     0
102
RTVSPost2010PropOp34
 70
     1
102
RTVSPost2010Prop35
280
     0
102
RTVSPost2010PropOp35
 70
     1
102
RTVSPost2010Prop36
280
     0
102
RTVSPost2010PropOp36
 70
     1
102
RTVSPost2010Prop37
 90
       50
102
RTVSPost2010PropOp37
 70
     1
102
RTVSPost2010Prop38
140
0.0
102
RTVSPost2010PropOp38
 70
     1
102
RTVSPost2010Prop39
140
1.0
102
RTVSPost2010PropOp39
 70
     1
102
RTVSPost2010Prop40
 90
        0
102
RTVSPost2010PropOp40
 70
     1
102
RTVSPost2010Prop41ColorIndex
 90
       18
102
RTVSPost2010Prop41ColorRGB
 90
        0
102
RTVSPost2010PropOp41
 70
     1
102
RTVSPost2010Prop42
 90
       50
102
RTVSPost2010PropOp42
 70
     1
102
RTVSPost2010Prop43
 90
        3
102
RTVSPost2010PropOp43
 70
     1
102
RTVSPost2010Prop44ColorIndex
 90
        5
102
RTVSPost2010Prop44ColorRGB
 90
      255
102
RTVSPost2010PropOp44
 70
     1
102
RTVSPost2010Prop45
280
     0
102
RTVSPost2010PropOp45
 70
     1
102
RTVSPost2010Prop46
 90
       50
102
RTVSPost2010PropOp46
 70
     1
102
RTVSPost2010Prop47
 90
       50
102
RTVSPost2010PropOp47
 70
     1
102
RTVSPost2010Prop48
 90
       50
102
RTVSPost2010PropOp48
 70
     1
102
RTVSPost2010Prop49
280
     0
102
RTVSPost2010PropOp49
 70
     1
102
RTVSPost2010Prop50
 90
       50
102
RTVSPost2010PropOp50
 70
     1
102
RTVSPost2010Prop51ColorIndex
 90
      256
102
RTVSPost2010Prop51ColorRGB
 90
-16777216
102
RTVSPost2010PropOp51
 70
     0
102
RTVSPost2010Prop52
140
1.0
102
RTVSPost2010PropOp52
 70
     0
102
RTVSPost2010Prop53
 90
        2
102
RTVSPost2010PropOp53
 70
     1
102
RTVSPost2010Prop54
  1
strokes_ogs.tif
102
RTVSPost2010PropOp54
 70
     1
102
RTVSPost2010Prop55
280
     0
102
RTVSPost2010PropOp55
 70
     1
102
RTVSPost2010Prop56
140
1.0
102
RTVSPost2010PropOp56
 70
     1
102
RTVSPost2010Prop57
140
1.0
102
RTVSPost2010PropOp57
 70
     1
  0
XRECORD
  5
5AE
102
{ACAD_REACTORS
330
5AD
102
}
330
5AD
100
AcDbXrecord
280
     1
102
RTVSPropertyOp0
 70
     1
102
RTVSPropertyOp1
 70
     1
102
RTVSPropertyOp2
 70
     1
102
RTVSPropertyOp3
 70
     1
102
RTVSPropertyOp4
 70
     1
102
RTVSPropertyOp5
 70
     1
102
RTVSPropertyOp6
 70
     1
102
RTVSPropertyOp7
 70
     1
102
RTVSPropertyOp8
 70
     1
102
RTVSPropertyOp9
 70
     1
102
RTVSPropertyOp10
 70
     1
102
RTVSPropertyOp11
 70
     1
102
RTVSPropertyOp12
 70
     1
102
RTVSPropertyOp13
 70
     1
102
RTVSPropertyOp14
 70
     1
102
RTVSPropertyOp15
 70
     1
102
RTVSPropertyOp16
 70
     1
102
RTVSPropertyOp17
 70
     1
102
RTVSPropertyOp18
 70
     1
102
RTVSPropertyOp19
 70
     1
102
RTVSPropertyOp20
 70
     1
102
RTVSPropertyOp21
 70
     1
102
RTVSPropertyOp22
 70
     1
102
RTVSPropertyOp23
 70
     1
102
RTVSPropertyOp24
 70
     1
102
RTVSPropertyOp25
 70
     1
102
RTVSPropertyOp26
 70
     1
102
RTVSPropertyOp27
 70
     1
102
RTVSPropertyOp28
 70
     1
102
RTVSPropertyOp29
 70
     1
102
RTVSPropertyOp30
 70
     1
102
RTVSPropertyOp31
 70
     1
102
RTVSPropertyOp32
 70
     1
102
RTVSPropertyOp33
 70
     1
102
RTVSPropertyOp34
 70
     1
102
RTVSPropertyOp35
 70
     1
102
RTVSPropertyOp36
 70
     1
102
RTVSPropertyOp37
 70
     1
102
RTVSPropertyOp38
 70
     1
102
RTVSPropertyOp39
 70
     1
102
RTVSPropertyOp40
 70
     1
102
RTVSPropertyOp41
 70
     1
102
RTVSPropertyOp42
 70
     1
102
RTVSPropertyOp43
 70
     1
102
RTVSPropertyOp44
 70
     1
102
RTVSPropertyOp45
 70
     1
102
RTVSPropertyOp46
 70
     1
102
RTVSPropertyOp47
 70
     1
102
RTVSPropertyOp48
 70
     1
102
RTVSPropertyOp49
 70
     1
102
RTVSPropertyOp50
 70
     1
102
RTVSPropertyOp51
 70
     0
102
RTVSPropertyOp52
 70
     0
102
RTVSPropertyOp53
 70
     1
102
RTVSPropertyOp54
 70
     1
102
RTVSPropertyOp55
 70
     1
102
RTVSPropertyOp56
 70
     1
102
RTVSPropertyOp57
 70
     1
102
RTVSPost2010Prop28
280
     0
102
RTVSPost2010PropOp28
 70
     1
102
RTVSPost2010Prop29
280
     1
102
RTVSPost2010PropOp29
 70
     1
102
RTVSPost2010Prop30
280
     1
102
RTVSPost2010PropOp30
 70
     1
102
RTVSPost2010Prop31
280
     0
102
RTVSPost2010PropOp31
 70
     1
102
RTVSPost2010Prop32
280
     0
102
RTVSPost2010PropOp32
 70
     1
102
RTVSPost2010Prop33
280
     0
102
RTVSPost2010PropOp33
 70
     1
102
RTVSPost2010Prop34
280
     0
102
RTVSPost2010PropOp34
 70
     1
102
RTVSPost2010Prop35
280
     0
102
RTVSPost2010PropOp35
 70
     1
102
RTVSPost2010Prop36
280
     0
102
RTVSPost2010PropOp36
 70
     1
102
RTVSPost2010Prop37
 90
       50
102
RTVSPost2010PropOp37
 70
     1
102
RTVSPost2010Prop38
140
0.0
102
RTVSPost2010PropOp38
 70
     1
102
RTVSPost2010Prop39
140
1.0
102
RTVSPost2010PropOp39
 70
     1
102
RTVSPost2010Prop40
 90
        0
102
RTVSPost2010PropOp40
 70
     1
102
RTVSPost2010Prop41ColorIndex
 90
       18
102
RTVSPost2010Prop41ColorRGB
 90
        0
102
RTVSPost2010PropOp41
 70
     1
102
RTVSPost2010Prop42
 90
       50
102
RTVSPost2010PropOp42
 70
     1
102
RTVSPost2010Prop43
 90
        3
102
RTVSPost2010PropOp43
 70
     1
102
RTVSPost2010Prop44ColorIndex
 90
        5
102
RTVSPost2010Prop44ColorRGB
 90
      255
102
RTVSPost2010PropOp44
 70
     1
102
RTVSPost2010Prop45
280
     0
102
RTVSPost2010PropOp45
 70
     1
102
RTVSPost2010Prop46
 90
       50
102
RTVSPost2010PropOp46
 70
     1
102
RTVSPost2010Prop47
 90
       50
102
RTVSPost2010PropOp47
 70
     1
102
RTVSPost2010Prop48
 90
       50
102
RTVSPost2010PropOp48
 70
     1
102
RTVSPost2010Prop49
280
     0
102
RTVSPost2010PropOp49
 70
     1
102
RTVSPost2010Prop50
 90
       50
102
RTVSPost2010PropOp50
 70
     1
102
RTVSPost2010Prop51ColorIndex
 90
      256
102
RTVSPost2010Prop51ColorRGB
 90
-16777216
102
RTVSPost2010PropOp51
 70
     0
102
RTVSPost2010Prop52
140
1.0
102
RTVSPost2010PropOp52
 70
     0
102
RTVSPost2010Prop53
 90
        2
102
RTVSPost2010PropOp53
 70
     1
102
RTVSPost2010Prop54
  1
strokes_ogs.tif
102
RTVSPost2010PropOp54
 70
     1
102
RTVSPost2010Prop55
280
     0
102
RTVSPost2010PropOp55
 70
     1
102
RTVSPost2010Prop56
140
1.0
102
RTVSPost2010PropOp56
 70
     1
102
RTVSPost2010Prop57
140
1.0
102
RTVSPost2010PropOp57
 70
     1
  0
XRECORD
  5
5B0
102
{ACAD_REACTORS
330
5AF
102
}
330
5AF
100
AcDbXrecord
280
     1
102
RTVSPropertyOp0
 70
     1
102
RTVSPropertyOp1
 70
     1
102
RTVSPropertyOp2
 70
     1
102
RTVSPropertyOp3
 70
     1
102
RTVSPropertyOp4
 70
     1
102
RTVSPropertyOp5
 70
     1
102
RTVSPropertyOp6
 70
     1
102
RTVSPropertyOp7
 70
     1
102
RTVSPropertyOp8
 70
     1
102
RTVSPropertyOp9
 70
     1
102
RTVSPropertyOp10
 70
     1
102
RTVSPropertyOp11
 70
     1
102
RTVSPropertyOp12
 70
     1
102
RTVSPropertyOp13
 70
     1
102
RTVSPropertyOp14
 70
     1
102
RTVSPropertyOp15
 70
     1
102
RTVSPropertyOp16
 70
     1
102
RTVSPropertyOp17
 70
     1
102
RTVSPropertyOp18
 70
     1
102
RTVSPropertyOp19
 70
     1
102
RTVSPropertyOp20
 70
     1
102
RTVSPropertyOp21
 70
     1
102
RTVSPropertyOp22
 70
     1
102
RTVSPropertyOp23
 70
     1
102
RTVSPropertyOp24
 70
     1
102
RTVSPropertyOp25
 70
     1
102
RTVSPropertyOp26
 70
     1
102
RTVSPropertyOp27
 70
     1
102
RTVSPropertyOp28
 70
     1
102
RTVSPropertyOp29
 70
     1
102
RTVSPropertyOp30
 70
     1
102
RTVSPropertyOp31
 70
     1
102
RTVSPropertyOp32
 70
     1
102
RTVSPropertyOp33
 70
     1
102
RTVSPropertyOp34
 70
     1
102
RTVSPropertyOp35
 70
     1
102
RTVSPropertyOp36
 70
     1
102
RTVSPropertyOp37
 70
     1
102
RTVSPropertyOp38
 70
     1
102
RTVSPropertyOp39
 70
     1
102
RTVSPropertyOp40
 70
     1
102
RTVSPropertyOp41
 70
     1
102
RTVSPropertyOp42
 70
     1
102
RTVSPropertyOp43
 70
     1
102
RTVSPropertyOp44
 70
     1
102
RTVSPropertyOp45
 70
     1
102
RTVSPropertyOp46
 70
     1
102
RTVSPropertyOp47
 70
     1
102
RTVSPropertyOp48
 70
     1
102
RTVSPropertyOp49
 70
     1
102
RTVSPropertyOp50
 70
     1
102
RTVSPropertyOp51
 70
     0
102
RTVSPropertyOp52
 70
     0
102
RTVSPropertyOp53
 70
     1
102
RTVSPropertyOp54
 70
     1
102
RTVSPropertyOp55
 70
     1
102
RTVSPropertyOp56
 70
     1
102
RTVSPropertyOp57
 70
     1
102
RTVSPost2010Prop28
280
     0
102
RTVSPost2010PropOp28
 70
     1
102
RTVSPost2010Prop29
280
     1
102
RTVSPost2010PropOp29
 70
     1
102
RTVSPost2010Prop30
280
     1
102
RTVSPost2010PropOp30
 70
     1
102
RTVSPost2010Prop31
280
     0
102
RTVSPost2010PropOp31
 70
     1
102
RTVSPost2010Prop32
280
     0
102
RTVSPost2010PropOp32
 70
     1
102
RTVSPost2010Prop33
280
     0
102
RTVSPost2010PropOp33
 70
     1
102
RTVSPost2010Prop34
280
     0
102
RTVSPost2010PropOp34
 70
     1
102
RTVSPost2010Prop35
280
     0
102
RTVSPost2010PropOp35
 70
     1
102
RTVSPost2010Prop36
280
     0
102
RTVSPost2010PropOp36
 70
     1
102
RTVSPost2010Prop37
 90
       50
102
RTVSPost2010PropOp37
 70
     1
102
RTVSPost2010Prop38
140
0.0
102
RTVSPost2010PropOp38
 70
     1
102
RTVSPost2010Prop39
140
1.0
102
RTVSPost2010PropOp39
 70
     1
102
RTVSPost2010Prop40
 90
        0
102
RTVSPost2010PropOp40
 70
     1
102
RTVSPost2010Prop41ColorIndex
 90
       18
102
RTVSPost2010Prop41ColorRGB
 90
        0
102
RTVSPost2010PropOp41
 70
     1
102
RTVSPost2010Prop42
 90
       50
102
RTVSPost2010PropOp42
 70
     1
102
RTVSPost2010Prop43
 90
        3
102
RTVSPost2010PropOp43
 70
     1
102
RTVSPost2010Prop44ColorIndex
 90
        5
102
RTVSPost2010Prop44ColorRGB
 90
      255
102
RTVSPost2010PropOp44
 70
     1
102
RTVSPost2010Prop45
280
     0
102
RTVSPost2010PropOp45
 70
     1
102
RTVSPost2010Prop46
 90
       50
102
RTVSPost2010PropOp46
 70
     1
102
RTVSPost2010Prop47
 90
       50
102
RTVSPost2010PropOp47
 70
     1
102
RTVSPost2010Prop48
 90
       50
102
RTVSPost2010PropOp48
 70
     1
102
RTVSPost2010Prop49
280
     0
102
RTVSPost2010PropOp49
 70
     1
102
RTVSPost2010Prop50
 90
       50
102
RTVSPost2010PropOp50
 70
     1
102
RTVSPost2010Prop51ColorIndex
 90
      256
102
RTVSPost2010Prop51ColorRGB
 90
-16777216
102
RTVSPost2010PropOp51
 70
     0
102
RTVSPost2010Prop52
140
1.0
102
RTVSPost2010PropOp52
 70
     0
102
RTVSPost2010Prop53
 90
        2
102
RTVSPost2010PropOp53
 70
     1
102
RTVSPost2010Prop54
  1
strokes_ogs.tif
102
RTVSPost2010PropOp54
 70
     1
102
RTVSPost2010Prop55
280
     0
102
RTVSPost2010PropOp55
 70
     1
102
RTVSPost2010Prop56
140
1.0
102
RTVSPost2010PropOp56
 70
     1
102
RTVSPost2010Prop57
140
1.0
102
RTVSPost2010PropOp57
 70
     1
  0
XRECORD
  5
5B8
102
{ACAD_REACTORS
330
5B7
102
}
330
5B7
100
AcDbXrecord
280
     1
102
RTVSPropertyOp0
 70
     1
102
RTVSPropertyOp1
 70
     1
102
RTVSPropertyOp2
 70
     1
102
RTVSPropertyOp3
 70
     1
102
RTVSPropertyOp4
 70
     1
102
RTVSPropertyOp5
 70
     1
102
RTVSPropertyOp6
 70
     1
102
RTVSPropertyOp7
 70
     1
102
RTVSPropertyOp8
 70
     1
102
RTVSPropertyOp9
 70
     1
102
RTVSPropertyOp10
 70
     1
102
RTVSPropertyOp11
 70
     1
102
RTVSPropertyOp12
 70
     1
102
RTVSPropertyOp13
 70
     1
102
RTVSPropertyOp14
 70
     1
102
RTVSPropertyOp15
 70
     1
102
RTVSPropertyOp16
 70
     1
102
RTVSPropertyOp17
 70
     1
102
RTVSPropertyOp18
 70
     1
102
RTVSPropertyOp19
 70
     1
102
RTVSPropertyOp20
 70
     1
102
RTVSPropertyOp21
 70
     1
102
RTVSPropertyOp22
 70
     1
102
RTVSPropertyOp23
 70
     1
102
RTVSPropertyOp24
 70
     1
102
RTVSPropertyOp25
 70
     1
102
RTVSPropertyOp26
 70
     1
102
RTVSPropertyOp27
 70
     1
102
RTVSPropertyOp28
 70
     1
102
RTVSPropertyOp29
 70
     1
102
RTVSPropertyOp30
 70
     1
102
RTVSPropertyOp31
 70
     1
102
RTVSPropertyOp32
 70
     1
102
RTVSPropertyOp33
 70
     1
102
RTVSPropertyOp34
 70
     1
102
RTVSPropertyOp35
 70
     1
102
RTVSPropertyOp36
 70
     1
102
RTVSPropertyOp37
 70
     1
102
RTVSPropertyOp38
 70
     1
102
RTVSPropertyOp39
 70
     1
102
RTVSPropertyOp40
 70
     1
102
RTVSPropertyOp41
 70
     1
102
RTVSPropertyOp42
 70
     1
102
RTVSPropertyOp43
 70
     1
102
RTVSPropertyOp44
 70
     1
102
RTVSPropertyOp45
 70
     1
102
RTVSPropertyOp46
 70
     1
102
RTVSPropertyOp47
 70
     1
102
RTVSPropertyOp48
 70
     1
102
RTVSPropertyOp49
 70
     1
102
RTVSPropertyOp50
 70
     1
102
RTVSPropertyOp51
 70
     0
102
RTVSPropertyOp52
 70
     0
102
RTVSPropertyOp53
 70
     1
102
RTVSPropertyOp54
 70
     1
102
RTVSPropertyOp55
 70
     1
102
RTVSPropertyOp56
 70
     1
102
RTVSPropertyOp57
 70
     1
102
RTVSPost2010Prop28
280
     0
102
RTVSPost2010PropOp28
 70
     1
102
RTVSPost2010Prop29
280
     1
102
RTVSPost2010PropOp29
 70
     1
102
RTVSPost2010Prop30
280
     1
102
RTVSPost2010PropOp30
 70
     1
102
RTVSPost2010Prop31
280
     0
102
RTVSPost2010PropOp31
 70
     1
102
RTVSPost2010Prop32
280
     0
102
RTVSPost2010PropOp32
 70
     1
102
RTVSPost2010Prop33
280
     0
102
RTVSPost2010PropOp33
 70
     1
102
RTVSPost2010Prop34
280
     0
102
RTVSPost2010PropOp34
 70
     1
102
RTVSPost2010Prop35
280
     0
102
RTVSPost2010PropOp35
 70
     1
102
RTVSPost2010Prop36
280
     0
102
RTVSPost2010PropOp36
 70
     1
102
RTVSPost2010Prop37
 90
       50
102
RTVSPost2010PropOp37
 70
     1
102
RTVSPost2010Prop38
140
0.0
102
RTVSPost2010PropOp38
 70
     1
102
RTVSPost2010Prop39
140
1.0
102
RTVSPost2010PropOp39
 70
     1
102
RTVSPost2010Prop40
 90
        0
102
RTVSPost2010PropOp40
 70
     1
102
RTVSPost2010Prop41ColorIndex
 90
       18
102
RTVSPost2010Prop41ColorRGB
 90
        0
102
RTVSPost2010PropOp41
 70
     1
102
RTVSPost2010Prop42
 90
       50
102
RTVSPost2010PropOp42
 70
     1
102
RTVSPost2010Prop43
 90
        3
102
RTVSPost2010PropOp43
 70
     1
102
RTVSPost2010Prop44ColorIndex
 90
        5
102
RTVSPost2010Prop44ColorRGB
 90
      255
102
RTVSPost2010PropOp44
 70
     1
102
RTVSPost2010Prop45
280
     0
102
RTVSPost2010PropOp45
 70
     1
102
RTVSPost2010Prop46
 90
       50
102
RTVSPost2010PropOp46
 70
     1
102
RTVSPost2010Prop47
 90
       50
102
RTVSPost2010PropOp47
 70
     1
102
RTVSPost2010Prop48
 90
       50
102
RTVSPost2010PropOp48
 70
     1
102
RTVSPost2010Prop49
280
     0
102
RTVSPost2010PropOp49
 70
     1
102
RTVSPost2010Prop50
 90
       50
102
RTVSPost2010PropOp50
 70
     1
102
RTVSPost2010Prop51ColorIndex
 90
      256
102
RTVSPost2010Prop51ColorRGB
 90
-16777216
102
RTVSPost2010PropOp51
 70
     0
102
RTVSPost2010Prop52
140
1.0
102
RTVSPost2010PropOp52
 70
     0
102
RTVSPost2010Prop53
 90
        2
102
RTVSPost2010PropOp53
 70
     1
102
RTVSPost2010Prop54
  1
strokes_ogs.tif
102
RTVSPost2010PropOp54
 70
     1
102
RTVSPost2010Prop55
280
     0
102
RTVSPost2010PropOp55
 70
     1
102
RTVSPost2010Prop56
140
1.0
102
RTVSPost2010PropOp56
 70
     1
102
RTVSPost2010Prop57
140
1.0
102
RTVSPost2010PropOp57
 70
     1
  0
XRECORD
  5
59C
102
{ACAD_REACTORS
330
59B
102
}
330
59B
100
AcDbXrecord
280
     1
102
RTVSPropertyOp0
 70
     1
102
RTVSPropertyOp1
 70
     1
102
RTVSPropertyOp2
 70
     1
102
RTVSPropertyOp3
 70
     1
102
RTVSPropertyOp4
 70
     1
102
RTVSPropertyOp5
 70
     1
102
RTVSPropertyOp6
 70
     1
102
RTVSPropertyOp7
 70
     1
102
RTVSPropertyOp8
 70
     1
102
RTVSPropertyOp9
 70
     1
102
RTVSPropertyOp10
 70
     1
102
RTVSPropertyOp11
 70
     1
102
RTVSPropertyOp12
 70
     1
102
RTVSPropertyOp13
 70
     1
102
RTVSPropertyOp14
 70
     1
102
RTVSPropertyOp15
 70
     1
102
RTVSPropertyOp16
 70
     1
102
RTVSPropertyOp17
 70
     1
102
RTVSPropertyOp18
 70
     1
102
RTVSPropertyOp19
 70
     1
102
RTVSPropertyOp20
 70
     1
102
RTVSPropertyOp21
 70
     1
102
RTVSPropertyOp22
 70
     1
102
RTVSPropertyOp23
 70
     1
102
RTVSPropertyOp24
 70
     1
102
RTVSPropertyOp25
 70
     1
102
RTVSPropertyOp26
 70
     1
102
RTVSPropertyOp27
 70
     1
102
RTVSPropertyOp28
 70
     1
102
RTVSPropertyOp29
 70
     1
102
RTVSPropertyOp30
 70
     1
102
RTVSPropertyOp31
 70
     1
102
RTVSPropertyOp32
 70
     1
102
RTVSPropertyOp33
 70
     1
102
RTVSPropertyOp34
 70
     1
102
RTVSPropertyOp35
 70
     1
102
RTVSPropertyOp36
 70
     1
102
RTVSPropertyOp37
 70
     1
102
RTVSPropertyOp38
 70
     1
102
RTVSPropertyOp39
 70
     1
102
RTVSPropertyOp40
 70
     1
102
RTVSPropertyOp41
 70
     1
102
RTVSPropertyOp42
 70
     1
102
RTVSPropertyOp43
 70
     1
102
RTVSPropertyOp44
 70
     1
102
RTVSPropertyOp45
 70
     1
102
RTVSPropertyOp46
 70
     1
102
RTVSPropertyOp47
 70
     1
102
RTVSPropertyOp48
 70
     1
102
RTVSPropertyOp49
 70
     1
102
RTVSPropertyOp50
 70
     1
102
RTVSPropertyOp51
 70
     0
102
RTVSPropertyOp52
 70
     0
102
RTVSPropertyOp53
 70
     1
102
RTVSPropertyOp54
 70
     1
102
RTVSPropertyOp55
 70
     1
102
RTVSPropertyOp56
 70
     1
102
RTVSPropertyOp57
 70
     1
102
RTVSPost2010Prop28
280
     0
102
RTVSPost2010PropOp28
 70
     1
102
RTVSPost2010Prop29
280
     1
102
RTVSPost2010PropOp29
 70
     1
102
RTVSPost2010Prop30
280
     1
102
RTVSPost2010PropOp30
 70
     1
102
RTVSPost2010Prop31
280
     0
102
RTVSPost2010PropOp31
 70
     1
102
RTVSPost2010Prop32
280
     0
102
RTVSPost2010PropOp32
 70
     1
102
RTVSPost2010Prop33
280
     0
102
RTVSPost2010PropOp33
 70
     1
102
RTVSPost2010Prop34
280
     0
102
RTVSPost2010PropOp34
 70
     1
102
RTVSPost2010Prop35
280
     0
102
RTVSPost2010PropOp35
 70
     1
102
RTVSPost2010Prop36
280
     0
102
RTVSPost2010PropOp36
 70
     1
102
RTVSPost2010Prop37
 90
       50
102
RTVSPost2010PropOp37
 70
     1
102
RTVSPost2010Prop38
140
0.0
102
RTVSPost2010PropOp38
 70
     1
102
RTVSPost2010Prop39
140
1.0
102
RTVSPost2010PropOp39
 70
     1
102
RTVSPost2010Prop40
 90
        0
102
RTVSPost2010PropOp40
 70
     1
102
RTVSPost2010Prop41ColorIndex
 90
       18
102
RTVSPost2010Prop41ColorRGB
 90
        0
102
RTVSPost2010PropOp41
 70
     1
102
RTVSPost2010Prop42
 90
       50
102
RTVSPost2010PropOp42
 70
     1
102
RTVSPost2010Prop43
 90
        3
102
RTVSPost2010PropOp43
 70
     1
102
RTVSPost2010Prop44ColorIndex
 90
        5
102
RTVSPost2010Prop44ColorRGB
 90
      255
102
RTVSPost2010PropOp44
 70
     1
102
RTVSPost2010Prop45
280
     0
102
RTVSPost2010PropOp45
 70
     1
102
RTVSPost2010Prop46
 90
       50
102
RTVSPost2010PropOp46
 70
     1
102
RTVSPost2010Prop47
 90
       50
102
RTVSPost2010PropOp47
 70
     1
102
RTVSPost2010Prop48
 90
       50
102
RTVSPost2010PropOp48
 70
     1
102
RTVSPost2010Prop49
280
     0
102
RTVSPost2010PropOp49
 70
     1
102
RTVSPost2010Prop50
 90
       50
102
RTVSPost2010PropOp50
 70
     1
102
RTVSPost2010Prop51ColorIndex
 90
      256
102
RTVSPost2010Prop51ColorRGB
 90
-16777216
102
RTVSPost2010PropOp51
 70
     0
102
RTVSPost2010Prop52
140
1.0
102
RTVSPost2010PropOp52
 70
     0
102
RTVSPost2010Prop53
 90
        2
102
RTVSPost2010PropOp53
 70
     1
102
RTVSPost2010Prop54
  1
strokes_ogs.tif
102
RTVSPost2010PropOp54
 70
     1
102
RTVSPost2010Prop55
280
     0
102
RTVSPost2010PropOp55
 70
     1
102
RTVSPost2010Prop56
140
1.0
102
RTVSPost2010PropOp56
 70
     1
102
RTVSPost2010Prop57
140
1.0
102
RTVSPost2010PropOp57
 70
     1
  0
XRECORD
  5
59E
102
{ACAD_REACTORS
330
59D
102
}
330
59D
100
AcDbXrecord
280
     1
102
RTVSPropertyOp0
 70
     1
102
RTVSPropertyOp1
 70
     1
102
RTVSPropertyOp2
 70
     1
102
RTVSPropertyOp3
 70
     1
102
RTVSPropertyOp4
 70
     1
102
RTVSPropertyOp5
 70
     1
102
RTVSPropertyOp6
 70
     1
102
RTVSPropertyOp7
 70
     1
102
RTVSPropertyOp8
 70
     1
102
RTVSPropertyOp9
 70
     1
102
RTVSPropertyOp10
 70
     1
102
RTVSPropertyOp11
 70
     1
102
RTVSPropertyOp12
 70
     1
102
RTVSPropertyOp13
 70
     1
102
RTVSPropertyOp14
 70
     1
102
RTVSPropertyOp15
 70
     1
102
RTVSPropertyOp16
 70
     1
102
RTVSPropertyOp17
 70
     1
102
RTVSPropertyOp18
 70
     1
102
RTVSPropertyOp19
 70
     1
102
RTVSPropertyOp20
 70
     1
102
RTVSPropertyOp21
 70
     1
102
RTVSPropertyOp22
 70
     1
102
RTVSPropertyOp23
 70
     1
102
RTVSPropertyOp24
 70
     1
102
RTVSPropertyOp25
 70
     1
102
RTVSPropertyOp26
 70
     1
102
RTVSPropertyOp27
 70
     1
102
RTVSPropertyOp28
 70
     1
102
RTVSPropertyOp29
 70
     1
102
RTVSPropertyOp30
 70
     1
102
RTVSPropertyOp31
 70
     1
102
RTVSPropertyOp32
 70
     1
102
RTVSPropertyOp33
 70
     1
102
RTVSPropertyOp34
 70
     1
102
RTVSPropertyOp35
 70
     1
102
RTVSPropertyOp36
 70
     1
102
RTVSPropertyOp37
 70
     1
102
RTVSPropertyOp38
 70
     1
102
RTVSPropertyOp39
 70
     1
102
RTVSPropertyOp40
 70
     1
102
RTVSPropertyOp41
 70
     1
102
RTVSPropertyOp42
 70
     1
102
RTVSPropertyOp43
 70
     1
102
RTVSPropertyOp44
 70
     1
102
RTVSPropertyOp45
 70
     1
102
RTVSPropertyOp46
 70
     1
102
RTVSPropertyOp47
 70
     1
102
RTVSPropertyOp48
 70
     1
102
RTVSPropertyOp49
 70
     1
102
RTVSPropertyOp50
 70
     1
102
RTVSPropertyOp51
 70
     0
102
RTVSPropertyOp52
 70
     0
102
RTVSPropertyOp53
 70
     1
102
RTVSPropertyOp54
 70
     1
102
RTVSPropertyOp55
 70
     1
102
RTVSPropertyOp56
 70
     1
102
RTVSPropertyOp57
 70
     1
102
RTVSPost2010Prop28
280
     0
102
RTVSPost2010PropOp28
 70
     1
102
RTVSPost2010Prop29
280
     1
102
RTVSPost2010PropOp29
 70
     1
102
RTVSPost2010Prop30
280
     1
102
RTVSPost2010PropOp30
 70
     1
102
RTVSPost2010Prop31
280
     0
102
RTVSPost2010PropOp31
 70
     1
102
RTVSPost2010Prop32
280
     0
102
RTVSPost2010PropOp32
 70
     1
102
RTVSPost2010Prop33
280
     0
102
RTVSPost2010PropOp33
 70
     1
102
RTVSPost2010Prop34
280
     0
102
RTVSPost2010PropOp34
 70
     1
102
RTVSPost2010Prop35
280
     0
102
RTVSPost2010PropOp35
 70
     1
102
RTVSPost2010Prop36
280
     0
102
RTVSPost2010PropOp36
 70
     1
102
RTVSPost2010Prop37
 90
       50
102
RTVSPost2010PropOp37
 70
     1
102
RTVSPost2010Prop38
140
0.0
102
RTVSPost2010PropOp38
 70
     1
102
RTVSPost2010Prop39
140
1.0
102
RTVSPost2010PropOp39
 70
     1
102
RTVSPost2010Prop40
 90
        0
102
RTVSPost2010PropOp40
 70
     1
102
RTVSPost2010Prop41ColorIndex
 90
       18
102
RTVSPost2010Prop41ColorRGB
 90
        0
102
RTVSPost2010PropOp41
 70
     1
102
RTVSPost2010Prop42
 90
       50
102
RTVSPost2010PropOp42
 70
     1
102
RTVSPost2010Prop43
 90
        3
102
RTVSPost2010PropOp43
 70
     1
102
RTVSPost2010Prop44ColorIndex
 90
        5
102
RTVSPost2010Prop44ColorRGB
 90
      255
102
RTVSPost2010PropOp44
 70
     1
102
RTVSPost2010Prop45
280
     0
102
RTVSPost2010PropOp45
 70
     1
102
RTVSPost2010Prop46
 90
       50
102
RTVSPost2010PropOp46
 70
     1
102
RTVSPost2010Prop47
 90
       50
102
RTVSPost2010PropOp47
 70
     1
102
RTVSPost2010Prop48
 90
       50
102
RTVSPost2010PropOp48
 70
     1
102
RTVSPost2010Prop49
280
     0
102
RTVSPost2010PropOp49
 70
     1
102
RTVSPost2010Prop50
 90
       50
102
RTVSPost2010PropOp50
 70
     1
102
RTVSPost2010Prop51ColorIndex
 90
      256
102
RTVSPost2010Prop51ColorRGB
 90
-16777216
102
RTVSPost2010PropOp51
 70
     0
102
RTVSPost2010Prop52
140
1.0
102
RTVSPost2010PropOp52
 70
     0
102
RTVSPost2010Prop53
 90
        2
102
RTVSPost2010PropOp53
 70
     1
102
RTVSPost2010Prop54
  1
strokes_ogs.tif
102
RTVSPost2010PropOp54
 70
     1
102
RTVSPost2010Prop55
280
     0
102
RTVSPost2010PropOp55
 70
     1
102
RTVSPost2010Prop56
140
1.0
102
RTVSPost2010PropOp56
 70
     1
102
RTVSPost2010Prop57
140
1.0
102
RTVSPost2010PropOp57
 70
     1
  0
XRECORD
  5
5A0
102
{ACAD_REACTORS
330
59F
102
}
330
59F
100
AcDbXrecord
280
     1
102
RTVSPropertyOp0
 70
     1
102
RTVSPropertyOp1
 70
     1
102
RTVSPropertyOp2
 70
     1
102
RTVSPropertyOp3
 70
     1
102
RTVSPropertyOp4
 70
     1
102
RTVSPropertyOp5
 70
     1
102
RTVSPropertyOp6
 70
     1
102
RTVSPropertyOp7
 70
     1
102
RTVSPropertyOp8
 70
     1
102
RTVSPropertyOp9
 70
     1
102
RTVSPropertyOp10
 70
     1
102
RTVSPropertyOp11
 70
     1
102
RTVSPropertyOp12
 70
     1
102
RTVSPropertyOp13
 70
     1
102
RTVSPropertyOp14
 70
     1
102
RTVSPropertyOp15
 70
     1
102
RTVSPropertyOp16
 70
     1
102
RTVSPropertyOp17
 70
     1
102
RTVSPropertyOp18
 70
     1
102
RTVSPropertyOp19
 70
     1
102
RTVSPropertyOp20
 70
     1
102
RTVSPropertyOp21
 70
     1
102
RTVSPropertyOp22
 70
     1
102
RTVSPropertyOp23
 70
     1
102
RTVSPropertyOp24
 70
     1
102
RTVSPropertyOp25
 70
     1
102
RTVSPropertyOp26
 70
     1
102
RTVSPropertyOp27
 70
     1
102
RTVSPropertyOp28
 70
     1
102
RTVSPropertyOp29
 70
     1
102
RTVSPropertyOp30
 70
     1
102
RTVSPropertyOp31
 70
     1
102
RTVSPropertyOp32
 70
     1
102
RTVSPropertyOp33
 70
     1
102
RTVSPropertyOp34
 70
     1
102
RTVSPropertyOp35
 70
     1
102
RTVSPropertyOp36
 70
     1
102
RTVSPropertyOp37
 70
     1
102
RTVSPropertyOp38
 70
     1
102
RTVSPropertyOp39
 70
     1
102
RTVSPropertyOp40
 70
     1
102
RTVSPropertyOp41
 70
     1
102
RTVSPropertyOp42
 70
     1
102
RTVSPropertyOp43
 70
     1
102
RTVSPropertyOp44
 70
     1
102
RTVSPropertyOp45
 70
     1
102
RTVSPropertyOp46
 70
     1
102
RTVSPropertyOp47
 70
     1
102
RTVSPropertyOp48
 70
     1
102
RTVSPropertyOp49
 70
     1
102
RTVSPropertyOp50
 70
     1
102
RTVSPropertyOp51
 70
     0
102
RTVSPropertyOp52
 70
     0
102
RTVSPropertyOp53
 70
     1
102
RTVSPropertyOp54
 70
     1
102
RTVSPropertyOp55
 70
     1
102
RTVSPropertyOp56
 70
     1
102
RTVSPropertyOp57
 70
     1
102
RTVSPost2010Prop28
280
     0
102
RTVSPost2010PropOp28
 70
     1
102
RTVSPost2010Prop29
280
     1
102
RTVSPost2010PropOp29
 70
     1
102
RTVSPost2010Prop30
280
     1
102
RTVSPost2010PropOp30
 70
     1
102
RTVSPost2010Prop31
280
     0
102
RTVSPost2010PropOp31
 70
     1
102
RTVSPost2010Prop32
280
     0
102
RTVSPost2010PropOp32
 70
     1
102
RTVSPost2010Prop33
280
     0
102
RTVSPost2010PropOp33
 70
     1
102
RTVSPost2010Prop34
280
     0
102
RTVSPost2010PropOp34
 70
     1
102
RTVSPost2010Prop35
280
     0
102
RTVSPost2010PropOp35
 70
     1
102
RTVSPost2010Prop36
280
     0
102
RTVSPost2010PropOp36
 70
     1
102
RTVSPost2010Prop37
 90
       50
102
RTVSPost2010PropOp37
 70
     1
102
RTVSPost2010Prop38
140
0.0
102
RTVSPost2010PropOp38
 70
     1
102
RTVSPost2010Prop39
140
1.0
102
RTVSPost2010PropOp39
 70
     1
102
RTVSPost2010Prop40
 90
        0
102
RTVSPost2010PropOp40
 70
     1
102
RTVSPost2010Prop41ColorIndex
 90
       18
102
RTVSPost2010Prop41ColorRGB
 90
        0
102
RTVSPost2010PropOp41
 70
     1
102
RTVSPost2010Prop42
 90
       50
102
RTVSPost2010PropOp42
 70
     1
102
RTVSPost2010Prop43
 90
        3
102
RTVSPost2010PropOp43
 70
     1
102
RTVSPost2010Prop44ColorIndex
 90
        5
102
RTVSPost2010Prop44ColorRGB
 90
      255
102
RTVSPost2010PropOp44
 70
     1
102
RTVSPost2010Prop45
280
     0
102
RTVSPost2010PropOp45
 70
     1
102
RTVSPost2010Prop46
 90
       50
102
RTVSPost2010PropOp46
 70
     1
102
RTVSPost2010Prop47
 90
       50
102
RTVSPost2010PropOp47
 70
     1
102
RTVSPost2010Prop48
 90
       50
102
RTVSPost2010PropOp48
 70
     1
102
RTVSPost2010Prop49
280
     0
102
RTVSPost2010PropOp49
 70
     1
102
RTVSPost2010Prop50
 90
       50
102
RTVSPost2010PropOp50
 70
     1
102
RTVSPost2010Prop51ColorIndex
 90
      256
102
RTVSPost2010Prop51ColorRGB
 90
-16777216
102
RTVSPost2010PropOp51
 70
     0
102
RTVSPost2010Prop52
140
1.0
102
RTVSPost2010PropOp52
 70
     0
102
RTVSPost2010Prop53
 90
        2
102
RTVSPost2010PropOp53
 70
     1
102
RTVSPost2010Prop54
  1
strokes_ogs.tif
102
RTVSPost2010PropOp54
 70
     1
102
RTVSPost2010Prop55
280
     0
102
RTVSPost2010PropOp55
 70
     1
102
RTVSPost2010Prop56
140
1.0
102
RTVSPost2010PropOp56
 70
     1
102
RTVSPost2010Prop57
140
1.0
102
RTVSPost2010PropOp57
 70
     1
  0
XRECORD
  5
5A2
102
{ACAD_REACTORS
330
5A1
102
}
330
5A1
100
AcDbXrecord
280
     1
102
RTVSPropertyOp0
 70
     1
102
RTVSPropertyOp1
 70
     1
102
RTVSPropertyOp2
 70
     1
102
RTVSPropertyOp3
 70
     1
102
RTVSPropertyOp4
 70
     1
102
RTVSPropertyOp5
 70
     1
102
RTVSPropertyOp6
 70
     1
102
RTVSPropertyOp7
 70
     1
102
RTVSPropertyOp8
 70
     1
102
RTVSPropertyOp9
 70
     1
102
RTVSPropertyOp10
 70
     1
102
RTVSPropertyOp11
 70
     1
102
RTVSPropertyOp12
 70
     1
102
RTVSPropertyOp13
 70
     1
102
RTVSPropertyOp14
 70
     1
102
RTVSPropertyOp15
 70
     1
102
RTVSPropertyOp16
 70
     1
102
RTVSPropertyOp17
 70
     1
102
RTVSPropertyOp18
 70
     1
102
RTVSPropertyOp19
 70
     1
102
RTVSPropertyOp20
 70
     1
102
RTVSPropertyOp21
 70
     1
102
RTVSPropertyOp22
 70
     1
102
RTVSPropertyOp23
 70
     1
102
RTVSPropertyOp24
 70
     1
102
RTVSPropertyOp25
 70
     1
102
RTVSPropertyOp26
 70
     1
102
RTVSPropertyOp27
 70
     1
102
RTVSPropertyOp28
 70
     1
102
RTVSPropertyOp29
 70
     1
102
RTVSPropertyOp30
 70
     1
102
RTVSPropertyOp31
 70
     1
102
RTVSPropertyOp32
 70
     1
102
RTVSPropertyOp33
 70
     1
102
RTVSPropertyOp34
 70
     1
102
RTVSPropertyOp35
 70
     1
102
RTVSPropertyOp36
 70
     1
102
RTVSPropertyOp37
 70
     1
102
RTVSPropertyOp38
 70
     1
102
RTVSPropertyOp39
 70
     1
102
RTVSPropertyOp40
 70
     1
102
RTVSPropertyOp41
 70
     1
102
RTVSPropertyOp42
 70
     1
102
RTVSPropertyOp43
 70
     1
102
RTVSPropertyOp44
 70
     1
102
RTVSPropertyOp45
 70
     1
102
RTVSPropertyOp46
 70
     1
102
RTVSPropertyOp47
 70
     1
102
RTVSPropertyOp48
 70
     1
102
RTVSPropertyOp49
 70
     1
102
RTVSPropertyOp50
 70
     1
102
RTVSPropertyOp51
 70
     0
102
RTVSPropertyOp52
 70
     0
102
RTVSPropertyOp53
 70
     1
102
RTVSPropertyOp54
 70
     1
102
RTVSPropertyOp55
 70
     1
102
RTVSPropertyOp56
 70
     1
102
RTVSPropertyOp57
 70
     1
102
RTVSPost2010Prop28
280
     0
102
RTVSPost2010PropOp28
 70
     1
102
RTVSPost2010Prop29
280
     1
102
RTVSPost2010PropOp29
 70
     1
102
RTVSPost2010Prop30
280
     1
102
RTVSPost2010PropOp30
 70
     1
102
RTVSPost2010Prop31
280
     0
102
RTVSPost2010PropOp31
 70
     1
102
RTVSPost2010Prop32
280
     0
102
RTVSPost2010PropOp32
 70
     1
102
RTVSPost2010Prop33
280
     0
102
RTVSPost2010PropOp33
 70
     1
102
RTVSPost2010Prop34
280
     0
102
RTVSPost2010PropOp34
 70
     1
102
RTVSPost2010Prop35
280
     0
102
RTVSPost2010PropOp35
 70
     1
102
RTVSPost2010Prop36
280
     0
102
RTVSPost2010PropOp36
 70
     1
102
RTVSPost2010Prop37
 90
       50
102
RTVSPost2010PropOp37
 70
     1
102
RTVSPost2010Prop38
140
0.0
102
RTVSPost2010PropOp38
 70
     1
102
RTVSPost2010Prop39
140
1.0
102
RTVSPost2010PropOp39
 70
     1
102
RTVSPost2010Prop40
 90
        0
102
RTVSPost2010PropOp40
 70
     1
102
RTVSPost2010Prop41ColorIndex
 90
       18
102
RTVSPost2010Prop41ColorRGB
 90
        0
102
RTVSPost2010PropOp41
 70
     1
102
RTVSPost2010Prop42
 90
       50
102
RTVSPost2010PropOp42
 70
     1
102
RTVSPost2010Prop43
 90
        3
102
RTVSPost2010PropOp43
 70
     1
102
RTVSPost2010Prop44ColorIndex
 90
        5
102
RTVSPost2010Prop44ColorRGB
 90
      255
102
RTVSPost2010PropOp44
 70
     1
102
RTVSPost2010Prop45
280
     0
102
RTVSPost2010PropOp45
 70
     1
102
RTVSPost2010Prop46
 90
       50
102
RTVSPost2010PropOp46
 70
     1
102
RTVSPost2010Prop47
 90
       50
102
RTVSPost2010PropOp47
 70
     1
102
RTVSPost2010Prop48
 90
       50
102
RTVSPost2010PropOp48
 70
     1
102
RTVSPost2010Prop49
280
     0
102
RTVSPost2010PropOp49
 70
     1
102
RTVSPost2010Prop50
 90
       50
102
RTVSPost2010PropOp50
 70
     1
102
RTVSPost2010Prop51ColorIndex
 90
      256
102
RTVSPost2010Prop51ColorRGB
 90
-16777216
102
RTVSPost2010PropOp51
 70
     0
102
RTVSPost2010Prop52
140
1.0
102
RTVSPost2010PropOp52
 70
     0
102
RTVSPost2010Prop53
 90
        2
102
RTVSPost2010PropOp53
 70
     1
102
RTVSPost2010Prop54
  1
strokes_ogs.tif
102
RTVSPost2010PropOp54
 70
     1
102
RTVSPost2010Prop55
280
     0
102
RTVSPost2010PropOp55
 70
     1
102
RTVSPost2010Prop56
140
1.0
102
RTVSPost2010PropOp56
 70
     1
102
RTVSPost2010Prop57
140
1.0
102
RTVSPost2010PropOp57
 70
     1
  0
XRECORD
  5
5B6
102
{ACAD_REACTORS
330
5B5
102
}
330
5B5
100
AcDbXrecord
280
     1
102
RTVSPropertyOp0
 70
     1
102
RTVSPropertyOp1
 70
     1
102
RTVSPropertyOp2
 70
     1
102
RTVSPropertyOp3
 70
     1
102
RTVSPropertyOp4
 70
     1
102
RTVSPropertyOp5
 70
     1
102
RTVSPropertyOp6
 70
     1
102
RTVSPropertyOp7
 70
     1
102
RTVSPropertyOp8
 70
     1
102
RTVSPropertyOp9
 70
     1
102
RTVSPropertyOp10
 70
     1
102
RTVSPropertyOp11
 70
     1
102
RTVSPropertyOp12
 70
     1
102
RTVSPropertyOp13
 70
     1
102
RTVSPropertyOp14
 70
     1
102
RTVSPropertyOp15
 70
     1
102
RTVSPropertyOp16
 70
     1
102
RTVSPropertyOp17
 70
     1
102
RTVSPropertyOp18
 70
     1
102
RTVSPropertyOp19
 70
     1
102
RTVSPropertyOp20
 70
     1
102
RTVSPropertyOp21
 70
     1
102
RTVSPropertyOp22
 70
     1
102
RTVSPropertyOp23
 70
     1
102
RTVSPropertyOp24
 70
     1
102
RTVSPropertyOp25
 70
     1
102
RTVSPropertyOp26
 70
     1
102
RTVSPropertyOp27
 70
     1
102
RTVSPropertyOp28
 70
     1
102
RTVSPropertyOp29
 70
     1
102
RTVSPropertyOp30
 70
     1
102
RTVSPropertyOp31
 70
     1
102
RTVSPropertyOp32
 70
     1
102
RTVSPropertyOp33
 70
     1
102
RTVSPropertyOp34
 70
     1
102
RTVSPropertyOp35
 70
     1
102
RTVSPropertyOp36
 70
     1
102
RTVSPropertyOp37
 70
     1
102
RTVSPropertyOp38
 70
     1
102
RTVSPropertyOp39
 70
     1
102
RTVSPropertyOp40
 70
     1
102
RTVSPropertyOp41
 70
     1
102
RTVSPropertyOp42
 70
     1
102
RTVSPropertyOp43
 70
     1
102
RTVSPropertyOp44
 70
     1
102
RTVSPropertyOp45
 70
     1
102
RTVSPropertyOp46
 70
     1
102
RTVSPropertyOp47
 70
     1
102
RTVSPropertyOp48
 70
     1
102
RTVSPropertyOp49
 70
     1
102
RTVSPropertyOp50
 70
     1
102
RTVSPropertyOp51
 70
     0
102
RTVSPropertyOp52
 70
     0
102
RTVSPropertyOp53
 70
     1
102
RTVSPropertyOp54
 70
     1
102
RTVSPropertyOp55
 70
     1
102
RTVSPropertyOp56
 70
     1
102
RTVSPropertyOp57
 70
     1
102
RTVSPost2010Prop28
280
     0
102
RTVSPost2010PropOp28
 70
     1
102
RTVSPost2010Prop29
280
     1
102
RTVSPost2010PropOp29
 70
     1
102
RTVSPost2010Prop30
280
     1
102
RTVSPost2010PropOp30
 70
     1
102
RTVSPost2010Prop31
280
     0
102
RTVSPost2010PropOp31
 70
     1
102
RTVSPost2010Prop32
280
     0
102
RTVSPost2010PropOp32
 70
     1
102
RTVSPost2010Prop33
280
     0
102
RTVSPost2010PropOp33
 70
     1
102
RTVSPost2010Prop34
280
     0
102
RTVSPost2010PropOp34
 70
     1
102
RTVSPost2010Prop35
280
     0
102
RTVSPost2010PropOp35
 70
     1
102
RTVSPost2010Prop36
280
     0
102
RTVSPost2010PropOp36
 70
     1
102
RTVSPost2010Prop37
 90
       50
102
RTVSPost2010PropOp37
 70
     1
102
RTVSPost2010Prop38
140
0.0
102
RTVSPost2010PropOp38
 70
     1
102
RTVSPost2010Prop39
140
1.0
102
RTVSPost2010PropOp39
 70
     1
102
RTVSPost2010Prop40
 90
        0
102
RTVSPost2010PropOp40
 70
     1
102
RTVSPost2010Prop41ColorIndex
 90
       18
102
RTVSPost2010Prop41ColorRGB
 90
        0
102
RTVSPost2010PropOp41
 70
     1
102
RTVSPost2010Prop42
 90
       50
102
RTVSPost2010PropOp42
 70
     1
102
RTVSPost2010Prop43
 90
        3
102
RTVSPost2010PropOp43
 70
     1
102
RTVSPost2010Prop44ColorIndex
 90
        5
102
RTVSPost2010Prop44ColorRGB
 90
      255
102
RTVSPost2010PropOp44
 70
     1
102
RTVSPost2010Prop45
280
     0
102
RTVSPost2010PropOp45
 70
     1
102
RTVSPost2010Prop46
 90
       50
102
RTVSPost2010PropOp46
 70
     1
102
RTVSPost2010Prop47
 90
       50
102
RTVSPost2010PropOp47
 70
     1
102
RTVSPost2010Prop48
 90
       50
102
RTVSPost2010PropOp48
 70
     1
102
RTVSPost2010Prop49
280
     0
102
RTVSPost2010PropOp49
 70
     1
102
RTVSPost2010Prop50
 90
       50
102
RTVSPost2010PropOp50
 70
     1
102
RTVSPost2010Prop51ColorIndex
 90
      256
102
RTVSPost2010Prop51ColorRGB
 90
-16777216
102
RTVSPost2010PropOp51
 70
     0
102
RTVSPost2010Prop52
140
1.0
102
RTVSPost2010PropOp52
 70
     0
102
RTVSPost2010Prop53
 90
        2
102
RTVSPost2010PropOp53
 70
     1
102
RTVSPost2010Prop54
  1
strokes_ogs.tif
102
RTVSPost2010PropOp54
 70
     1
102
RTVSPost2010Prop55
280
     0
102
RTVSPost2010PropOp55
 70
     1
102
RTVSPost2010Prop56
140
1.0
102
RTVSPost2010PropOp56
 70
     1
102
RTVSPost2010Prop57
140
1.0
102
RTVSPost2010PropOp57
 70
     1
  0
XRECORD
  5
5AC
102
{ACAD_REACTORS
330
5AB
102
}
330
5AB
100
AcDbXrecord
280
     1
102
RTVSPropertyOp0
 70
     1
102
RTVSPropertyOp1
 70
     1
102
RTVSPropertyOp2
 70
     1
102
RTVSPropertyOp3
 70
     1
102
RTVSPropertyOp4
 70
     1
102
RTVSPropertyOp5
 70
     1
102
RTVSPropertyOp6
 70
     1
102
RTVSPropertyOp7
 70
     1
102
RTVSPropertyOp8
 70
     1
102
RTVSPropertyOp9
 70
     1
102
RTVSPropertyOp10
 70
     1
102
RTVSPropertyOp11
 70
     1
102
RTVSPropertyOp12
 70
     1
102
RTVSPropertyOp13
 70
     1
102
RTVSPropertyOp14
 70
     1
102
RTVSPropertyOp15
 70
     1
102
RTVSPropertyOp16
 70
     1
102
RTVSPropertyOp17
 70
     1
102
RTVSPropertyOp18
 70
     1
102
RTVSPropertyOp19
 70
     1
102
RTVSPropertyOp20
 70
     1
102
RTVSPropertyOp21
 70
     1
102
RTVSPropertyOp22
 70
     1
102
RTVSPropertyOp23
 70
     1
102
RTVSPropertyOp24
 70
     1
102
RTVSPropertyOp25
 70
     1
102
RTVSPropertyOp26
 70
     1
102
RTVSPropertyOp27
 70
     1
102
RTVSPropertyOp28
 70
     1
102
RTVSPropertyOp29
 70
     1
102
RTVSPropertyOp30
 70
     1
102
RTVSPropertyOp31
 70
     1
102
RTVSPropertyOp32
 70
     1
102
RTVSPropertyOp33
 70
     1
102
RTVSPropertyOp34
 70
     1
102
RTVSPropertyOp35
 70
     1
102
RTVSPropertyOp36
 70
     1
102
RTVSPropertyOp37
 70
     1
102
RTVSPropertyOp38
 70
     1
102
RTVSPropertyOp39
 70
     1
102
RTVSPropertyOp40
 70
     1
102
RTVSPropertyOp41
 70
     1
102
RTVSPropertyOp42
 70
     1
102
RTVSPropertyOp43
 70
     1
102
RTVSPropertyOp44
 70
     1
102
RTVSPropertyOp45
 70
     1
102
RTVSPropertyOp46
 70
     1
102
RTVSPropertyOp47
 70
     1
102
RTVSPropertyOp48
 70
     1
102
RTVSPropertyOp49
 70
     1
102
RTVSPropertyOp50
 70
     1
102
RTVSPropertyOp51
 70
     0
102
RTVSPropertyOp52
 70
     0
102
RTVSPropertyOp53
 70
     1
102
RTVSPropertyOp54
 70
     1
102
RTVSPropertyOp55
 70
     1
102
RTVSPropertyOp56
 70
     1
102
RTVSPropertyOp57
 70
     1
102
RTVSPost2010Prop28
280
     0
102
RTVSPost2010PropOp28
 70
     1
102
RTVSPost2010Prop29
280
     1
102
RTVSPost2010PropOp29
 70
     1
102
RTVSPost2010Prop30
280
     1
102
RTVSPost2010PropOp30
 70
     1
102
RTVSPost2010Prop31
280
     0
102
RTVSPost2010PropOp31
 70
     1
102
RTVSPost2010Prop32
280
     0
102
RTVSPost2010PropOp32
 70
     1
102
RTVSPost2010Prop33
280
     0
102
RTVSPost2010PropOp33
 70
     1
102
RTVSPost2010Prop34
280
     0
102
RTVSPost2010PropOp34
 70
     1
102
RTVSPost2010Prop35
280
     0
102
RTVSPost2010PropOp35
 70
     1
102
RTVSPost2010Prop36
280
     0
102
RTVSPost2010PropOp36
 70
     1
102
RTVSPost2010Prop37
 90
       50
102
RTVSPost2010PropOp37
 70
     1
102
RTVSPost2010Prop38
140
0.0
102
RTVSPost2010PropOp38
 70
     1
102
RTVSPost2010Prop39
140
1.0
102
RTVSPost2010PropOp39
 70
     1
102
RTVSPost2010Prop40
 90
        0
102
RTVSPost2010PropOp40
 70
     1
102
RTVSPost2010Prop41ColorIndex
 90
       18
102
RTVSPost2010Prop41ColorRGB
 90
        0
102
RTVSPost2010PropOp41
 70
     1
102
RTVSPost2010Prop42
 90
       50
102
RTVSPost2010PropOp42
 70
     1
102
RTVSPost2010Prop43
 90
        3
102
RTVSPost2010PropOp43
 70
     1
102
RTVSPost2010Prop44ColorIndex
 90
        5
102
RTVSPost2010Prop44ColorRGB
 90
      255
102
RTVSPost2010PropOp44
 70
     1
102
RTVSPost2010Prop45
280
     0
102
RTVSPost2010PropOp45
 70
     1
102
RTVSPost2010Prop46
 90
       50
102
RTVSPost2010PropOp46
 70
     1
102
RTVSPost2010Prop47
 90
       50
102
RTVSPost2010PropOp47
 70
     1
102
RTVSPost2010Prop48
 90
       50
102
RTVSPost2010PropOp48
 70
     1
102
RTVSPost2010Prop49
280
     0
102
RTVSPost2010PropOp49
 70
     1
102
RTVSPost2010Prop50
 90
       50
102
RTVSPost2010PropOp50
 70
     1
102
RTVSPost2010Prop51ColorIndex
 90
      256
102
RTVSPost2010Prop51ColorRGB
 90
-16777216
102
RTVSPost2010PropOp51
 70
     0
102
RTVSPost2010Prop52
140
1.0
102
RTVSPost2010PropOp52
 70
     0
102
RTVSPost2010Prop53
 90
        2
102
RTVSPost2010PropOp53
 70
     1
102
RTVSPost2010Prop54
  1
strokes_ogs.tif
102
RTVSPost2010PropOp54
 70
     1
102
RTVSPost2010Prop55
280
     0
102
RTVSPost2010PropOp55
 70
     1
102
RTVSPost2010Prop56
140
1.0
102
RTVSPost2010PropOp56
 70
     1
102
RTVSPost2010Prop57
140
1.0
102
RTVSPost2010PropOp57
 70
     1
  0
XRECORD
  5
5B4
102
{ACAD_REACTORS
330
5B3
102
}
330
5B3
100
AcDbXrecord
280
     1
102
RTVSPropertyOp0
 70
     1
102
RTVSPropertyOp1
 70
     1
102
RTVSPropertyOp2
 70
     1
102
RTVSPropertyOp3
 70
     1
102
RTVSPropertyOp4
 70
     1
102
RTVSPropertyOp5
 70
     1
102
RTVSPropertyOp6
 70
     1
102
RTVSPropertyOp7
 70
     1
102
RTVSPropertyOp8
 70
     1
102
RTVSPropertyOp9
 70
     1
102
RTVSPropertyOp10
 70
     1
102
RTVSPropertyOp11
 70
     1
102
RTVSPropertyOp12
 70
     1
102
RTVSPropertyOp13
 70
     1
102
RTVSPropertyOp14
 70
     1
102
RTVSPropertyOp15
 70
     1
102
RTVSPropertyOp16
 70
     1
102
RTVSPropertyOp17
 70
     1
102
RTVSPropertyOp18
 70
     1
102
RTVSPropertyOp19
 70
     1
102
RTVSPropertyOp20
 70
     1
102
RTVSPropertyOp21
 70
     1
102
RTVSPropertyOp22
 70
     1
102
RTVSPropertyOp23
 70
     1
102
RTVSPropertyOp24
 70
     1
102
RTVSPropertyOp25
 70
     1
102
RTVSPropertyOp26
 70
     1
102
RTVSPropertyOp27
 70
     1
102
RTVSPropertyOp28
 70
     1
102
RTVSPropertyOp29
 70
     1
102
RTVSPropertyOp30
 70
     1
102
RTVSPropertyOp31
 70
     1
102
RTVSPropertyOp32
 70
     1
102
RTVSPropertyOp33
 70
     1
102
RTVSPropertyOp34
 70
     1
102
RTVSPropertyOp35
 70
     1
102
RTVSPropertyOp36
 70
     1
102
RTVSPropertyOp37
 70
     1
102
RTVSPropertyOp38
 70
     1
102
RTVSPropertyOp39
 70
     1
102
RTVSPropertyOp40
 70
     1
102
RTVSPropertyOp41
 70
     1
102
RTVSPropertyOp42
 70
     1
102
RTVSPropertyOp43
 70
     1
102
RTVSPropertyOp44
 70
     1
102
RTVSPropertyOp45
 70
     1
102
RTVSPropertyOp46
 70
     1
102
RTVSPropertyOp47
 70
     1
102
RTVSPropertyOp48
 70
     1
102
RTVSPropertyOp49
 70
     1
102
RTVSPropertyOp50
 70
     1
102
RTVSPropertyOp51
 70
     0
102
RTVSPropertyOp52
 70
     0
102
RTVSPropertyOp53
 70
     1
102
RTVSPropertyOp54
 70
     1
102
RTVSPropertyOp55
 70
     1
102
RTVSPropertyOp56
 70
     1
102
RTVSPropertyOp57
 70
     1
102
RTVSPost2010Prop28
280
     0
102
RTVSPost2010PropOp28
 70
     1
102
RTVSPost2010Prop29
280
     1
102
RTVSPost2010PropOp29
 70
     1
102
RTVSPost2010Prop30
280
     1
102
RTVSPost2010PropOp30
 70
     1
102
RTVSPost2010Prop31
280
     0
102
RTVSPost2010PropOp31
 70
     1
102
RTVSPost2010Prop32
280
     0
102
RTVSPost2010PropOp32
 70
     1
102
RTVSPost2010Prop33
280
     0
102
RTVSPost2010PropOp33
 70
     1
102
RTVSPost2010Prop34
280
     0
102
RTVSPost2010PropOp34
 70
     1
102
RTVSPost2010Prop35
280
     0
102
RTVSPost2010PropOp35
 70
     1
102
RTVSPost2010Prop36
280
     0
102
RTVSPost2010PropOp36
 70
     1
102
RTVSPost2010Prop37
 90
       50
102
RTVSPost2010PropOp37
 70
     1
102
RTVSPost2010Prop38
140
0.0
102
RTVSPost2010PropOp38
 70
     1
102
RTVSPost2010Prop39
140
1.0
102
RTVSPost2010PropOp39
 70
     1
102
RTVSPost2010Prop40
 90
        0
102
RTVSPost2010PropOp40
 70
     1
102
RTVSPost2010Prop41ColorIndex
 90
       18
102
RTVSPost2010Prop41ColorRGB
 90
        0
102
RTVSPost2010PropOp41
 70
     1
102
RTVSPost2010Prop42
 90
       50
102
RTVSPost2010PropOp42
 70
     1
102
RTVSPost2010Prop43
 90
        3
102
RTVSPost2010PropOp43
 70
     1
102
RTVSPost2010Prop44ColorIndex
 90
        5
102
RTVSPost2010Prop44ColorRGB
 90
      255
102
RTVSPost2010PropOp44
 70
     1
102
RTVSPost2010Prop45
280
     0
102
RTVSPost2010PropOp45
 70
     1
102
RTVSPost2010Prop46
 90
       50
102
RTVSPost2010PropOp46
 70
     1
102
RTVSPost2010Prop47
 90
       50
102
RTVSPost2010PropOp47
 70
     1
102
RTVSPost2010Prop48
 90
       50
102
RTVSPost2010PropOp48
 70
     1
102
RTVSPost2010Prop49
280
     0
102
RTVSPost2010PropOp49
 70
     1
102
RTVSPost2010Prop50
 90
       50
102
RTVSPost2010PropOp50
 70
     1
102
RTVSPost2010Prop51ColorIndex
 90
      256
102
RTVSPost2010Prop51ColorRGB
 90
-16777216
102
RTVSPost2010PropOp51
 70
     0
102
RTVSPost2010Prop52
140
1.0
102
RTVSPost2010PropOp52
 70
     0
102
RTVSPost2010Prop53
 90
        2
102
RTVSPost2010PropOp53
 70
     1
102
RTVSPost2010Prop54
  1
strokes_ogs.tif
102
RTVSPost2010PropOp54
 70
     1
102
RTVSPost2010Prop55
280
     0
102
RTVSPost2010PropOp55
 70
     1
102
RTVSPost2010Prop56
140
1.0
102
RTVSPost2010PropOp56
 70
     1
102
RTVSPost2010Prop57
140
1.0
102
RTVSPost2010PropOp57
 70
     1
  0
ENDSEC
  0
EOF
