  0
SECTION
  2
HEADER
  9
$ACADVER
  1
AC1018
  9
$ACADMAINTVER
 70
     0
  9
$DWGCODEPAGE
  3
ANSI_936
  9
$INSBASE
 10
0.0
 20
0.0
 30
0.0
  9
$EXTMIN
 10
-95.31279156049344
 20
229.0
 30
0.0
  9
$EXTMAX
 10
189.7546100229885
 20
679.9714959716439
 30
0.0
  9
$LIMMIN
 10
0.0
 20
0.0
  9
$LIMMAX
 10
12.0
 20
9.0
  9
$ORTHOMODE
 70
     0
  9
$REGENMODE
 70
     1
  9
$FILLMODE
 70
     1
  9
$QTEXTMODE
 70
     0
  9
$MIRRTEXT
 70
     1
  9
$LTSCALE
 40
1.0
  9
$ATTMODE
 70
     1
  9
$TEXTSIZE
 40
0.2
  9
$TRACEWID
 40
0.05
  9
$TEXTSTYLE
  7
Standard
  9
$CLAYER
  8
0
  9
$CELTYPE
  6
ByLayer
  9
$CECOLOR
 62
   256
  9
$CELTSCALE
 40
1.0
  9
$DISPSILH
 70
     0
  9
$DIMSCALE
 40
1.0
  9
$DIMASZ
 40
0.18
  9
$DIMEXO
 40
0.0625
  9
$DIMDLI
 40
0.38
  9
$DIMRND
 40
0.0
  9
$DIMDLE
 40
0.0
  9
$DIMEXE
 40
0.18
  9
$DIMTP
 40
0.0
  9
$DIMTM
 40
0.0
  9
$DIMTXT
 40
0.18
  9
$DIMCEN
 40
0.09
  9
$DIMTSZ
 40
0.0
  9
$DIMTOL
 70
     0
  9
$DIMLIM
 70
     0
  9
$DIMTIH
 70
     1
  9
$DIMTOH
 70
     1
  9
$DIMSE1
 70
     0
  9
$DIMSE2
 70
     0
  9
$DIMTAD
 70
     0
  9
$DIMZIN
 70
     0
  9
$DIMBLK
  1

  9
$DIMASO
 70
     1
  9
$DIMSHO
 70
     1
  9
$DIMPOST
  1

  9
$DIMAPOST
  1

  9
$DIMALT
 70
     0
  9
$DIMALTD
 70
     2
  9
$DIMALTF
 40
25.4
  9
$DIMLFAC
 40
1.0
  9
$DIMTOFL
 70
     0
  9
$DIMTVP
 40
0.0
  9
$DIMTIX
 70
     0
  9
$DIMSOXD
 70
     0
  9
$DIMSAH
 70
     0
  9
$DIMBLK1
  1

  9
$DIMBLK2
  1

  9
$DIMSTYLE
  2
Standard
  9
$DIMCLRD
 70
     0
  9
$DIMCLRE
 70
     0
  9
$DIMCLRT
 70
     0
  9
$DIMTFAC
 40
1.0
  9
$DIMGAP
 40
0.09
  9
$DIMJUST
 70
     0
  9
$DIMSD1
 70
     0
  9
$DIMSD2
 70
     0
  9
$DIMTOLJ
 70
     1
  9
$DIMTZIN
 70
     0
  9
$DIMALTZ
 70
     0
  9
$DIMALTTZ
 70
     0
  9
$DIMUPT
 70
     0
  9
$DIMDEC
 70
     4
  9
$DIMTDEC
 70
     4
  9
$DIMALTU
 70
     2
  9
$DIMALTTD
 70
     2
  9
$DIMTXSTY
  7
Standard
  9
$DIMAUNIT
 70
     0
  9
$DIMADEC
 70
     0
  9
$DIMALTRND
 40
0.0
  9
$DIMAZIN
 70
     0
  9
$DIMDSEP
 70
    46
  9
$DIMATFIT
 70
     3
  9
$DIMFRAC
 70
     0
  9
$DIMLDRBLK
  1

  9
$DIMLUNIT
 70
     2
  9
$DIMLWD
 70
    -2
  9
$DIMLWE
 70
    -2
  9
$DIMTMOVE
 70
     2
  9
$LUNITS
 70
     2
  9
$LUPREC
 70
     3
  9
$SKETCHINC
 40
0.1
  9
$FILLETRAD
 40
0.5
  9
$AUNITS
 70
     0
  9
$AUPREC
 70
     0
  9
$MENU
  1
.
  9
$ELEVATION
 40
0.0
  9
$PELEVATION
 40
0.0
  9
$THICKNESS
 40
0.0
  9
$LIMCHECK
 70
     0
  9
$CHAMFERA
 40
0.5
  9
$CHAMFERB
 40
0.5
  9
$CHAMFERC
 40
1.0
  9
$CHAMFERD
 40
0.0
  9
$SKPOLY
 70
     0
  9
$TDCREATE
 40
2458179.040369433
  9
$TDUCREATE
 40
2458178.707036099
  9
$TDUPDATE
 40
2458179.04036956
  9
$TDUUPDATE
 40
2458178.707036227
  9
$TDINDWG
 40
0.0000000116
  9
$TDUSRTIMER
 40
0.0000000116
  9
$USRTIMER
 70
     1
  9
$ANGBASE
 50
0.0
  9
$ANGDIR
 70
     0
  9
$PDMODE
 70
     0
  9
$PDSIZE
 40
0.0
  9
$PLINEWID
 40
0.0
  9
$SPLFRAME
 70
     0
  9
$SPLINETYPE
 70
     6
  9
$SPLINESEGS
 70
     8
  9
$HANDSEED
  5
2F7
  9
$SURFTAB1
 70
     6
  9
$SURFTAB2
 70
     6
  9
$SURFTYPE
 70
     6
  9
$SURFU
 70
     6
  9
$SURFV
 70
     6
  9
$UCSBASE
  2

  9
$UCSNAME
  2

  9
$UCSORG
 10
0.0
 20
0.0
 30
0.0
  9
$UCSXDIR
 10
1.0
 20
0.0
 30
0.0
  9
$UCSYDIR
 10
0.0
 20
1.0
 30
0.0
  9
$UCSORTHOREF
  2

  9
$UCSORTHOVIEW
 70
     0
  9
$UCSORGTOP
 10
0.0
 20
0.0
 30
0.0
  9
$UCSORGBOTTOM
 10
0.0
 20
0.0
 30
0.0
  9
$UCSORGLEFT
 10
0.0
 20
0.0
 30
0.0
  9
$UCSORGRIGHT
 10
0.0
 20
0.0
 30
0.0
  9
$UCSORGFRONT
 10
0.0
 20
0.0
 30
0.0
  9
$UCSORGBACK
 10
0.0
 20
0.0
 30
0.0
  9
$PUCSBASE
  2

  9
$PUCSNAME
  2

  9
$PUCSORG
 10
0.0
 20
0.0
 30
0.0
  9
$PUCSXDIR
 10
1.0
 20
0.0
 30
0.0
  9
$PUCSYDIR
 10
0.0
 20
1.0
 30
0.0
  9
$PUCSORTHOREF
  2

  9
$PUCSORTHOVIEW
 70
     0
  9
$PUCSORGTOP
 10
0.0
 20
0.0
 30
0.0
  9
$PUCSORGBOTTOM
 10
0.0
 20
0.0
 30
0.0
  9
$PUCSORGLEFT
 10
0.0
 20
0.0
 30
0.0
  9
$PUCSORGRIGHT
 10
0.0
 20
0.0
 30
0.0
  9
$PUCSORGFRONT
 10
0.0
 20
0.0
 30
0.0
  9
$PUCSORGBACK
 10
0.0
 20
0.0
 30
0.0
  9
$USERI1
 70
     0
  9
$USERI2
 70
     0
  9
$USERI3
 70
     0
  9
$USERI4
 70
     0
  9
$USERI5
 70
     0
  9
$USERR1
 40
0.0
  9
$USERR2
 40
0.0
  9
$USERR3
 40
0.0
  9
$USERR4
 40
0.0
  9
$USERR5
 40
0.0
  9
$WORLDVIEW
 70
     1
  9
$SHADEDGE
 70
     3
  9
$SHADEDIF
 70
    70
  9
$TILEMODE
 70
     1
  9
$MAXACTVP
 70
    64
  9
$PINSBASE
 10
0.0
 20
0.0
 30
0.0
  9
$PLIMCHECK
 70
     0
  9
$PEXTMIN
 10
1.000000000000000E+20
 20
1.000000000000000E+20
 30
1.000000000000000E+20
  9
$PEXTMAX
 10
-1.000000000000000E+20
 20
-1.000000000000000E+20
 30
-1.000000000000000E+20
  9
$PLIMMIN
 10
0.0
 20
0.0
  9
$PLIMMAX
 10
12.0
 20
9.0
  9
$UNITMODE
 70
     0
  9
$VISRETAIN
 70
     1
  9
$PLINEGEN
 70
     0
  9
$PSLTSCALE
 70
     1
  9
$TREEDEPTH
 70
  3020
  9
$CMLSTYLE
  2
Standard
  9
$CMLJUST
 70
     0
  9
$CMLSCALE
 40
1.0
  9
$PROXYGRAPHICS
 70
     1
  9
$MEASUREMENT
 70
     0
  9
$CELWEIGHT
370
    -1
  9
$ENDCAPS
280
     0
  9
$JOINSTYLE
280
     0
  9
$LWDISPLAY
290
     0
  9
$INSUNITS
 70
     4
  9
$HYPERLINKBASE
  1

  9
$STYLESHEET
  1

  9
$XEDIT
290
     1
  9
$CEPSNTYPE
380
     0
  9
$PSTYLEMODE
290
     1
  9
$FINGERPRINTGUID
  2
{5B35A5C1-8BA0-4AF4-9DA8-63B559180306}
  9
$VERSIONGUID
  2
{FAEB1C32-E019-11D5-929B-00C0DF256EC4}
  9
$EXTNAMES
290
     1
  9
$PSVPSCALE
 40
0.0
  9
$OLESTARTUP
290
     0
  9
$SORTENTS
280
   127
  9
$INDEXCTL
280
     0
  9
$HIDETEXT
280
     1
  9
$XCLIPFRAME
290
     0
  9
$HALOGAP
280
     0
  9
$OBSCOLOR
 70
   257
  9
$OBSLTYPE
280
     0
  9
$INTERSECTIONDISPLAY
280
     0
  9
$INTERSECTIONCOLOR
 70
   257
  9
$DIMASSOC
280
     2
  9
$PROJECTNAME
  1

  0
ENDSEC
  0
SECTION
  2
CLASSES
  0
CLASS
  1
ACDBDICTIONARYWDFLT
  2
AcDbDictionaryWithDefault
  3
ObjectDBX Classes
 90
        0
 91
        4
280
     0
281
     0
  0
CLASS
  1
VISUALSTYLE
  2
AcDbVisualStyle
  3
ObjectDBX Classes
 90
     4095
 91
        4
280
     0
281
     0
  0
CLASS
  1
MATERIAL
  2
AcDbMaterial
  3
ObjectDBX Classes
 90
     1153
 91
        4
280
     0
281
     0
  0
CLASS
  1
SCALE
  2
AcDbScale
  3
ObjectDBX Classes
 90
     1153
 91
        4
280
     0
281
     0
  0
CLASS
  1
SUN
  2
AcDbSun
  3
SCENEOE
 90
     1153
 91
        4
280
     0
281
     0
  0
CLASS
  1
DICTIONARYVAR
  2
AcDbDictionaryVar
  3
ObjectDBX Classes
 90
        0
 91
        4
280
     0
281
     0
  0
ENDSEC
  0
SECTION
  2
TABLES
  0
TABLE
  2
VPORT
  5
8
330
0
100
AcDbSymbolTable
 70
     1
  0
VPORT
  5
29
330
8
100
AcDbSymbolTableRecord
100
AcDbViewportTableRecord
  2
*Active
 70
     0
 10
0.0
 20
0.0
 11
1.0
 21
1.0
 12
47.22090923124752
 22
454.4857479858219
 13
0.0
 23
0.0
 14
0.5
 24
0.5
 15
0.5
 25
0.5
 16
0.0
 26
0.0
 36
1.0
 17
0.0
 27
0.0
 37
0.0
 40
459.9909258910768
 41
0.63211844679737
 42
50.0
 43
0.0
 44
0.0
 50
0.0
 51
0.0
 71
     0
 72
   100
 73
     1
 74
     3
 75
     0
 76
     0
 77
     0
 78
     0
281
     0
 65
     1
110
0.0
120
0.0
130
0.0
111
1.0
121
0.0
131
0.0
112
0.0
122
1.0
132
0.0
 79
     0
146
0.0
  0
ENDTAB
  0
TABLE
  2
LTYPE
  5
5
330
0
100
AcDbSymbolTable
 70
     1
  0
LTYPE
  5
14
330
5
100
AcDbSymbolTableRecord
100
AcDbLinetypeTableRecord
  2
ByBlock
 70
     0
  3

 72
    65
 73
     0
 40
0.0
  0
LTYPE
  5
15
330
5
100
AcDbSymbolTableRecord
100
AcDbLinetypeTableRecord
  2
ByLayer
 70
     0
  3

 72
    65
 73
     0
 40
0.0
  0
LTYPE
  5
16
330
5
100
AcDbSymbolTableRecord
100
AcDbLinetypeTableRecord
  2
Continuous
 70
     0
  3
Solid line
 72
    65
 73
     0
 40
0.0
  0
ENDTAB
  0
TABLE
  2
LAYER
  5
2
330
0
100
AcDbSymbolTable
 70
     2
  0
LAYER
  5
10
330
2
100
AcDbSymbolTableRecord
100
AcDbLayerTableRecord
  2
0
 70
     0
 62
     7
  6
Continuous
370
    -3
390
F
  0
LAYER
  5
62
330
2
100
AcDbSymbolTableRecord
100
AcDbLayerTableRecord
  2
Make2D$可见线$普通线
 70
     0
 62
    18
420
        0
  6
Continuous
370
    -3
390
F
  0
ENDTAB
  0
TABLE
  2
STYLE
  5
3
330
0
100
AcDbSymbolTable
 70
     1
  0
STYLE
  5
11
330
3
100
AcDbSymbolTableRecord
100
AcDbTextStyleTableRecord
  2
Standard
 70
     0
 40
0.0
 41
1.0
 50
0.0
 71
     0
 42
0.2
  3
txt
  4

  0
ENDTAB
  0
TABLE
  2
VIEW
  5
6
330
0
100
AcDbSymbolTable
 70
     0
  0
ENDTAB
  0
TABLE
  2
UCS
  5
7
330
0
100
AcDbSymbolTable
 70
     0
  0
ENDTAB
  0
TABLE
  2
APPID
  5
9
330
0
100
AcDbSymbolTable
 70
     1
  0
APPID
  5
12
330
9
100
AcDbSymbolTableRecord
100
AcDbRegAppTableRecord
  2
ACAD
 70
     0
  0
ENDTAB
  0
TABLE
  2
DIMSTYLE
  5
A
330
0
100
AcDbSymbolTable
 70
     1
100
AcDbDimStyleTable
  0
DIMSTYLE
105
27
330
A
100
AcDbSymbolTableRecord
100
AcDbDimStyleTableRecord
  2
Standard
 70
     0
178
     0
340
11
  0
ENDTAB
  0
TABLE
  2
BLOCK_RECORD
  5
1
330
0
100
AcDbSymbolTable
 70
     1
  0
BLOCK_RECORD
  5
1F
330
1
100
AcDbSymbolTableRecord
100
AcDbBlockTableRecord
  2
*Model_Space
340
22
  0
BLOCK_RECORD
  5
1B
330
1
100
AcDbSymbolTableRecord
100
AcDbBlockTableRecord
  2
*Paper_Space
340
1E
  0
BLOCK_RECORD
  5
23
330
1
100
AcDbSymbolTableRecord
100
AcDbBlockTableRecord
  2
*Paper_Space0
340
26
  0
ENDTAB
  0
ENDSEC
  0
SECTION
  2
BLOCKS
  0
BLOCK
  5
20
330
1F
100
AcDbEntity
  8
0
100
AcDbBlockBegin
  2
*Model_Space
 70
     0
 10
0.0
 20
0.0
 30
0.0
  3
*Model_Space
  1
*Model_Space
  0
ENDBLK
  5
21
330
1F
100
AcDbEntity
  8
0
100
AcDbBlockEnd
  0
BLOCK
  5
1C
330
1B
100
AcDbEntity
 67
     1
  8
0
100
AcDbBlockBegin
  2
*Paper_Space
 70
     0
 10
0.0
 20
0.0
 30
0.0
  3
*Paper_Space
  1
*Paper_Space
  0
ENDBLK
  5
1D
330
1B
100
AcDbEntity
 67
     1
  8
0
100
AcDbBlockEnd
  0
BLOCK
  5
24
330
23
100
AcDbEntity
  8
0
100
AcDbBlockBegin
  2
*Paper_Space0
 70
     0
 10
0.0
 20
0.0
 30
0.0
  3
*Paper_Space0
  1
*Paper_Space0
  0
ENDBLK
  5
25
330
23
100
AcDbEntity
  8
0
100
AcDbBlockEnd
  0
ENDSEC
  0
SECTION
  2
ENTITIES
  0
SPLINE
  5
63
330
1F
100
AcDbEntity
  8
Make2D$可见线$普通线
100
AcDbSpline
210
0.0
220
0.0
230
1.0
 70
     8
 71
     3
 72
    12
 73
     8
 74
     0
 42
0.000000001
 43
0.0000000001
 12
1.0
 22
0.0
 32
0.0
 13
1.0
 23
0.0
 33
0.0
 40
0.0
 40
0.0
 40
0.0
 40
0.0
 40
3.667697541681056
 40
8.715592157263739
 40
16.28145341976749
 40
20.2665178787642
 40
24.35270788105445
 40
24.35270788105445
 40
24.35270788105445
 40
24.35270788105445
 10
-29.62386540571947
 20
622.4058870418145
 30
0.0
 10
-28.56624318473808
 20
622.4038341155602
 30
0.0
 10
-26.04523262034816
 20
622.7266325671642
 30
0.0
 10
-21.88074583974615
 20
624.380265393721
 30
0.0
 10
-18.69566954718038
 20
626.4610778633474
 30
0.0
 10
-16.94297792625798
 20
627.7225149386055
 30
0.0
 10
-16.62517441796478
 20
627.9723519985953
 30
0.0
 10
-16.62386540571947
 20
627.9702912676548
 30
0.0
  0
SPLINE
  5
64
330
1F
100
AcDbEntity
  8
Make2D$可见线$普通线
100
AcDbSpline
210
0.0
220
0.0
230
1.0
 70
     8
 71
     3
 72
    12
 73
     8
 74
     0
 42
0.000000001
 43
0.0000000001
 12
1.0
 22
0.0
 32
0.0
 13
1.0
 23
0.0
 33
0.0
 40
73.0581236949728
 40
73.0581236949728
 40
73.0581236949728
 40
73.0581236949728
 40
77.14367493992737
 40
81.12954740493029
 40
88.69514483286488
 40
93.79712045489788
 40
97.41083160190007
 40
97.41083160190007
 40
97.41083160190007
 40
97.41083160190007
 10
-42.62386540571947
 20
627.9702912676548
 30
0.0
 10
-42.62252881227865
 20
627.972357330824
 30
0.0
 10
-42.30484725632099
 20
627.7225391340289
 30
0.0
 10
-40.55208853437407
 20
626.4611624447966
 30
0.0
 10
-37.35673421825373
 20
624.3734615634842
 30
0.0
 10
-33.18751354325461
 20
622.7215783222852
 30
0.0
 10
-30.66575769593724
 20
622.403948318952
 30
0.0
 10
-29.62386540571947
 20
622.4058870418145
 30
0.0
  0
SPLINE
  5
65
330
1F
100
AcDbEntity
  8
Make2D$可见线$普通线
100
AcDbSpline
210
0.0
220
0.0
230
1.0
 70
    12
 71
     3
 72
    20
 73
    16
 74
     0
 42
0.000000001
 43
0.0000000001
 12
1.0
 22
0.0
 32
0.0
 13
1.0
 23
0.0
 33
0.0
 40
74.85709889158505
 40
74.85709889158505
 40
74.85709889158505
 40
74.85709889158505
 40
77.14367493992737
 40
77.14367493992737
 40
77.14367493992737
 40
78.87351315242526
 40
78.87351315242526
 40
78.87351315242526
 40
84.29246920449765
 40
84.29246920449765
 40
84.29246920449765
 40
88.96452298158368
 40
88.96452298158368
 40
88.96452298158368
 40
92.54197150792868
 40
92.54197150792868
 40
92.54197150792868
 40
92.54197150792868
 10
-44.51569577980536
 20
625.9063957227345
 30
0.0
 41
1.0
 10
-44.42527753276909
 20
625.8521665052996
 30
0.0
 41
1.0
 10
-44.27866573862465
 20
625.7644192219195
 30
0.0
 41
1.000000000000001
 10
-44.0776924059066
 20
625.6472685640322
 30
0.0
 41
1.000000000000001
 10
-43.57908839731287
 20
625.357615511333
 30
0.0
 41
0.9999320339327759
 10
-43.07639928562948
 20
625.075111519647
 30
0.0
 41
0.9999320339327755
 10
-42.56972756826197
 20
624.7998141910297
 30
0.0
 41
1.000000000000001
 10
-40.98834203375045
 20
623.9240318729237
 30
0.0
 41
0.9984740235069386
 10
-39.35135437292662
 20
623.1571901188546
 30
0.0
 41
0.9984740235069391
 10
-37.6662585998624
 20
622.5027994762937
 30
0.0
 41
1.000000000000001
 10
-36.21304880755287
 20
621.9367323622845
 30
0.0
 41
0.9971611507606677
 10
-34.71384323789242
 20
621.50704254634
 30
0.0
 41
0.9971611507606665
 10
-33.18140994665404
 20
621.217389502282
 30
0.0
 41
1.000000000000001
 10
-32.00703656328909
 20
621.0012231823794
 30
0.0
 41
0.9972902209139214
 10
-30.81796626515183
 20
620.8917126919965
 30
0.0
 41
0.9972902209139215
 10
-29.62386540571945
 20
620.8897482788437
 30
0.0
 41
1.000000000000001
  0
LINE
  5
66
330
1F
100
AcDbEntity
  8
Make2D$可见线$普通线
100
AcDbLine
 10
-44.61668154104554
 20
625.9665419108491
 30
0.0
 11
-44.61915121067275
 21
625.9679193634041
 31
0.0
  0
SPLINE
  5
67
330
1F
100
AcDbEntity
  8
Make2D$可见线$普通线
100
AcDbSpline
210
0.0
220
0.0
230
1.0
 70
    12
 71
     2
 72
    12
 73
     9
 74
     0
 42
0.000000001
 43
0.0000000001
 12
1.0
 22
0.0
 32
0.0
 13
1.0
 23
0.0
 33
0.0
 40
0.0
 40
0.0
 40
0.0
 40
3.629704264549778
 40
3.629704264549778
 40
8.249425591939275
 40
8.249425591939275
 40
13.6686049635414
 40
13.6686049635414
 40
19.4843214854887
 40
19.4843214854887
 40
19.4843214854887
 10
-29.62386540571947
 20
620.8897482788437
 30
0.0
 41
1.0
 10
-27.80394131742175
 20
620.8928597745783
 30
0.0
 41
0.9958226992497632
 10
-26.01492903074029
 20
621.2268783469284
 30
0.0
 41
1.0
 10
-23.73995927867506
 20
621.6623473317627
 30
0.0
 41
0.9958525905358816
 10
-21.58156271920325
 20
622.5028500989353
 30
0.0
 41
1.0
 10
-19.05189512011541
 20
623.4852584092657
 30
0.0
 41
0.9977116385403256
 10
-16.67789889067569
 20
624.7999774487138
 30
0.0
 41
1.0
 10
-15.638588635448
 20
625.3635560431128
 30
0.0
 41
0.9997793841746933
 10
-14.62386542016771
 20
625.9702878084404
 30
0.0
 41
1.0
  0
LINE
  5
68
330
1F
100
AcDbEntity
  8
Make2D$可见线$普通线
100
AcDbLine
 10
-44.51569577980536
 20
625.9063957227344
 30
0.0
 11
-44.51569577980547
 21
583.9754648340868
 31
0.0
  0
LINE
  5
69
330
1F
100
AcDbEntity
  8
Make2D$可见线$普通线
100
AcDbLine
 10
-44.51569577980536
 20
583.9702912676518
 30
0.0
 11
35.37613155640815
 21
583.9702912676518
 31
0.0
  0
LINE
  5
6A
330
1F
100
AcDbEntity
  8
Make2D$可见线$普通线
100
AcDbLine
 10
55.37613155640827
 20
583.9702912676518
 30
0.0
 11
77.8765353382538
 21
583.9702912676518
 31
0.0
  0
LINE
  5
6B
330
1F
100
AcDbEntity
  8
Make2D$可见线$普通线
100
AcDbLine
 10
102.8765353382539
 20
583.9702912676518
 30
0.0
 11
135.4904610155036
 21
583.9702912676518
 31
0.0
  0
LINE
  5
6C
330
1F
100
AcDbEntity
  8
Make2D$可见线$普通线
100
AcDbLine
 10
135.4904610155037
 20
614.7245493523922
 30
0.0
 11
135.4904610155036
 21
583.9702912676518
 31
0.0
  0
ARC
  5
6D
330
1F
100
AcDbEntity
  8
Make2D$可见线$普通线
100
AcDbCircle
 10
135.4904610154746
 20
584.9702912676548
 30
0.0
 40
1.000000000029089
100
AcDbArc
 50
349.5158770191055
 51
359.9999999998241
  0
LINE
  5
6E
330
1F
100
AcDbEntity
  8
Make2D$可见线$普通线
100
AcDbLine
 10
136.4904610155032
 20
614.7238607400583
 30
0.0
 11
136.4904610155036
 21
590.8241115242245
 31
0.0
  0
LINE
  5
6F
330
1F
100
AcDbEntity
  8
Make2D$可见线$普通线
100
AcDbLine
 10
136.4904610155038
 20
589.8319863707443
 30
0.0
 11
136.4904610155038
 21
589.824242304245
 31
0.0
  0
LINE
  5
70
330
1F
100
AcDbEntity
  8
Make2D$可见线$普通线
100
AcDbLine
 10
136.490461015503
 20
589.5192577194114
 30
0.0
 11
136.4904610155033
 21
589.5092311428873
 31
0.0
  0
LINE
  5
71
330
1F
100
AcDbEntity
  8
Make2D$可见线$普通线
100
AcDbLine
 10
136.4904610155033
 20
589.2157333690479
 30
0.0
 11
136.4904610155033
 21
589.2035789526435
 31
0.0
  0
LINE
  5
72
330
1F
100
AcDbEntity
  8
Make2D$可见线$普通线
100
AcDbLine
 10
136.4904610155035
 20
588.921541956543
 30
0.0
 11
136.4904610155035
 21
588.9074175425912
 31
0.0
  0
LINE
  5
73
330
1F
100
AcDbEntity
  8
Make2D$可见线$普通线
100
AcDbLine
 10
136.4904610155035
 20
588.6368121162209
 30
0.0
 11
136.4904610155035
 21
588.6208787218087
 31
0.0
  0
LINE
  5
74
330
1F
100
AcDbEntity
  8
Make2D$可见线$普通线
100
AcDbLine
 10
136.4904610155041
 20
588.361672490656
 30
0.0
 11
136.4904610155038
 21
588.3440942993736
 31
0.0
  0
LINE
  5
75
330
1F
100
AcDbEntity
  8
Make2D$可见线$普通线
100
AcDbLine
 10
136.4904610155039
 20
588.096251722423
 30
0.0
 11
136.4904610155036
 21
588.0771960843639
 31
0.0
  0
LINE
  5
76
330
1F
100
AcDbEntity
  8
Make2D$可见线$普通线
100
AcDbLine
 10
136.4904610155036
 20
587.8406784540953
 30
0.0
 11
136.4904610155036
 21
587.8203158858573
 31
0.0
  0
LINE
  5
77
330
1F
100
AcDbEntity
  8
Make2D$可见线$普通线
100
AcDbLine
 10
136.4904610155035
 20
587.5950813282476
 30
0.0
 11
136.4904610155035
 21
587.5735855129317
 31
0.0
  0
LINE
  5
78
330
1F
100
AcDbEntity
  8
Make2D$可见线$普通线
100
AcDbLine
 10
136.4904610155033
 20
587.3595889874542
 30
0.0
 11
136.4904610155033
 21
587.3371367746652
 31
0.0
  0
LINE
  5
79
330
1F
100
AcDbEntity
  8
Make2D$可见线$普通线
100
AcDbLine
 10
136.4904610155036
 20
587.1343300742897
 30
0.0
 11
136.4904610155036
 21
587.1111014801356
 31
0.0
  0
LINE
  5
7A
330
1F
100
AcDbEntity
  8
Make2D$可见线$普通线
100
AcDbLine
 10
136.4904610155037
 20
586.9194332313277
 30
0.0
 11
136.4904610155036
 21
586.8956114384205
 31
0.0
  0
LINE
  5
7B
330
1F
100
AcDbEntity
  8
Make2D$可见线$普通线
100
AcDbLine
 10
136.4904610155036
 20
586.715027101143
 30
0.0
 11
136.4904610155036
 21
586.690798458598
 31
0.0
  0
LINE
  5
7C
330
1F
100
AcDbEntity
  8
Make2D$可见线$普通线
100
AcDbLine
 10
136.4904610155039
 20
586.5212403263106
 30
0.0
 11
136.4904610155036
 21
586.4967943497462
 31
0.0
  0
LINE
  5
7D
330
1F
100
AcDbEntity
  8
Make2D$可见线$普通线
100
AcDbLine
 10
136.4904610155038
 20
586.3382015494046
 30
0.0
 11
136.4904610155035
 21
586.3137309209428
 31
0.0
  0
LINE
  5
7E
330
1F
100
AcDbEntity
  8
Make2D$可见线$普通线
100
AcDbLine
 10
136.4904610155037
 20
586.1660394130006
 30
0.0
 11
136.4904610155037
 21
586.1417399812653
 31
0.0
  0
LINE
  5
7F
330
1F
100
AcDbEntity
  8
Make2D$可见线$普通线
100
AcDbLine
 10
136.4904610155035
 20
586.0048825596743
 30
0.0
 11
136.4904610155035
 21
585.9809533397922
 31
0.0
  0
LINE
  5
80
330
1F
100
AcDbEntity
  8
Make2D$可见线$普通线
100
AcDbLine
 10
136.4904610155036
 20
585.8548596320034
 30
0.0
 11
136.4904610155036
 21
585.8315028056011
 31
0.0
  0
LINE
  5
81
330
1F
100
AcDbEntity
  8
Make2D$可见线$普通线
100
AcDbLine
 10
136.4904610155038
 20
585.7160992725683
 30
0.0
 11
136.4904610155035
 21
585.6935201877698
 31
0.0
  0
LINE
  5
82
330
1F
100
AcDbEntity
  8
Make2D$可见线$普通线
100
AcDbLine
 10
136.4904610155035
 20
585.5887301239552
 30
0.0
 11
136.4904610155035
 21
585.5671372953763
 31
0.0
  0
LINE
  5
83
330
1F
100
AcDbEntity
  8
Make2D$可见线$普通线
100
AcDbLine
 10
136.4904610155038
 20
585.4728808287646
 30
0.0
 11
136.4904610155038
 21
585.4524859374983
 31
0.0
  0
LINE
  5
84
330
1F
100
AcDbEntity
  8
Make2D$可见线$普通线
100
AcDbLine
 10
136.4904610155037
 20
585.36868002963
 30
0.0
 11
136.4904610155037
 21
585.3496979232142
 31
0.0
  0
LINE
  5
85
330
1F
100
AcDbEntity
  8
Make2D$可见线$普通线
100
AcDbLine
 10
136.4904610155039
 20
585.2762563692725
 30
0.0
 11
136.4904610155039
 21
585.2589050616012
 31
0.0
  0
LINE
  5
86
330
1F
100
AcDbEntity
  8
Make2D$可见线$普通线
100
AcDbLine
 10
136.4904610155038
 20
585.1957384906716
 30
0.0
 11
136.4904610155038
 21
585.1802391617375
 31
0.0
  0
LINE
  5
87
330
1F
100
AcDbEntity
  8
Make2D$可见线$普通线
100
AcDbLine
 10
136.4904610155036
 20
585.1272550376998
 30
0.0
 11
136.4904610155036
 21
585.1138320327009
 31
0.0
  0
LINE
  5
88
330
1F
100
AcDbEntity
  8
Make2D$可见线$普通线
100
AcDbLine
 10
136.490461015504
 20
585.0598154835695
 30
0.0
 11
136.4904610155036
 21
585.0269059616255
 31
0.0
  0
SPLINE
  5
89
330
1F
100
AcDbEntity
  8
Make2D$可见线$普通线
100
AcDbSpline
210
0.0
220
0.0
230
1.0
 70
    24
 71
     2
 72
     8
 73
     5
 74
     0
 42
0.000000001
 43
0.0000000001
 12
1.0
 22
0.0
 32
0.0
 13
1.0
 23
0.0
 33
0.0
 40
62.4036178659432
 40
62.4036178659432
 40
62.4036178659432
 40
62.83026564898978
 40
62.83026564898978
 40
64.53685677376637
 40
64.53685677376637
 40
64.53685677376637
 10
-44.51569577980524
 20
625.9662966561708
 30
0.0
 10
-44.5156957798053
 20
625.9682939619113
 30
0.0
 10
-44.51569577980536
 20
625.9702912676518
 30
0.0
 10
-44.51569577980536
 20
625.9383434951931
 30
0.0
 10
-44.51569577980536
 20
625.9063957227344
 30
0.0
  0
ARC
  5
8A
330
1F
100
AcDbEntity
  8
Make2D$可见线$普通线
100
AcDbCircle
 10
-44.51569577979753
 20
584.9702912676528
 30
0.0
 40
1.000000000007819
100
AcDbArc
 50
180.0000000000586
 51
190.4841229810008
  0
LINE
  5
8B
330
1F
100
AcDbEntity
  8
Make2D$可见线$普通线
100
AcDbLine
 10
-45.51569577980513
 20
624.9136765736778
 30
0.0
 11
-45.51569577980501
 21
624.8807670517341
 31
0.0
  0
LINE
  5
8C
330
1F
100
AcDbEntity
  8
Make2D$可见线$普通线
100
AcDbLine
 10
-45.51569577980513
 20
624.8267505026026
 30
0.0
 11
-45.51569577980513
 21
624.8133274976035
 31
0.0
  0
LINE
  5
8D
330
1F
100
AcDbEntity
  8
Make2D$可见线$普通线
100
AcDbLine
 10
-45.51569577980536
 20
624.760343373566
 30
0.0
 11
-45.51569577980536
 21
624.7448440446317
 31
0.0
  0
LINE
  5
8E
330
1F
100
AcDbEntity
  8
Make2D$可见线$普通线
100
AcDbLine
 10
-45.51569577980501
 20
624.6816774737026
 30
0.0
 11
-45.51569577980501
 21
624.6643261660313
 31
0.0
  0
LINE
  5
8F
330
1F
100
AcDbEntity
  8
Make2D$可见线$普通线
100
AcDbLine
 10
-45.51569577980524
 20
624.5908846120894
 30
0.0
 11
-45.51569577980524
 21
624.5719025056733
 31
0.0
  0
LINE
  5
90
330
1F
100
AcDbEntity
  8
Make2D$可见线$普通线
100
AcDbLine
 10
-45.51569577980479
 20
624.4880965978052
 30
0.0
 11
-45.51569577980513
 21
624.4677017065387
 31
0.0
  0
LINE
  5
91
330
1F
100
AcDbEntity
  8
Make2D$可见线$普通线
100
AcDbLine
 10
-45.51569577980524
 20
624.3734452399274
 30
0.0
 11
-45.51569577980524
 21
624.3518524113481
 31
0.0
  0
LINE
  5
92
330
1F
100
AcDbEntity
  8
Make2D$可见线$普通线
100
AcDbLine
 10
-45.51569577980501
 20
624.2470623475339
 30
0.0
 11
-45.51569577980501
 21
624.224483262735
 31
0.0
  0
LINE
  5
93
330
1F
100
AcDbEntity
  8
Make2D$可见线$普通线
100
AcDbLine
 10
-45.51569577980524
 20
624.1090797297026
 30
0.0
 11
-45.51569577980524
 21
624.0857229032999
 31
0.0
  0
LINE
  5
94
330
1F
100
AcDbEntity
  8
Make2D$可见线$普通线
100
AcDbLine
 10
-45.51569577980501
 20
623.9596291955114
 30
0.0
 11
-45.51569577980501
 21
623.9356999756292
 31
0.0
  0
LINE
  5
95
330
1F
100
AcDbEntity
  8
Make2D$可见线$普通线
100
AcDbLine
 10
-45.51569577980524
 20
623.7988425540382
 30
0.0
 11
-45.51569577980524
 21
623.7745431223029
 31
0.0
  0
LINE
  5
96
330
1F
100
AcDbEntity
  8
Make2D$可见线$普通线
100
AcDbLine
 10
-45.51569577980501
 20
623.6268516143609
 30
0.0
 11
-45.51569577980501
 21
623.6023809858988
 31
0.0
  0
LINE
  5
97
330
1F
100
AcDbEntity
  8
Make2D$可见线$普通线
100
AcDbLine
 10
-45.51569577980501
 20
623.4437881855574
 30
0.0
 11
-45.51569577980501
 21
623.4193422089928
 31
0.0
  0
LINE
  5
98
330
1F
100
AcDbEntity
  8
Make2D$可见线$普通线
100
AcDbLine
 10
-45.51569577980513
 20
623.2497840767054
 30
0.0
 11
-45.51569577980513
 21
623.2255554341602
 31
0.0
  0
LINE
  5
99
330
1F
100
AcDbEntity
  8
Make2D$可见线$普通线
100
AcDbLine
 10
-45.51569577980501
 20
623.044971096883
 30
0.0
 11
-45.51569577980501
 21
623.0211493039756
 31
0.0
  0
LINE
  5
9A
330
1F
100
AcDbEntity
  8
Make2D$可见线$普通线
100
AcDbLine
 10
-45.51569577980513
 20
622.8294810551681
 30
0.0
 11
-45.51569577980513
 21
622.8062524610137
 31
0.0
  0
LINE
  5
9B
330
1F
100
AcDbEntity
  8
Make2D$可见线$普通线
100
AcDbLine
 10
-45.51569577980513
 20
622.6034457606384
 30
0.0
 11
-45.51569577980513
 21
622.580993547849
 31
0.0
  0
LINE
  5
9C
330
1F
100
AcDbEntity
  8
Make2D$可见线$普通线
100
AcDbLine
 10
-45.51569577980524
 20
622.3669970223718
 30
0.0
 11
-45.51569577980524
 21
622.3455012070556
 31
0.0
  0
LINE
  5
9D
330
1F
100
AcDbEntity
  8
Make2D$可见线$普通线
100
AcDbLine
 10
-45.51569577980558
 20
622.1202666494462
 30
0.0
 11
-45.51569577980524
 21
622.099904081208
 31
0.0
  0
LINE
  5
9E
330
1F
100
AcDbEntity
  8
Make2D$可见线$普通线
100
AcDbLine
 10
-45.51569577980513
 20
621.8633864509399
 30
0.0
 11
-45.51569577980513
 21
621.8443308128806
 31
0.0
  0
LINE
  5
9F
330
1F
100
AcDbEntity
  8
Make2D$可见线$普通线
100
AcDbLine
 10
-45.51569577980501
 20
621.5964882359301
 30
0.0
 11
-45.51569577980501
 21
621.5789100446473
 31
0.0
  0
LINE
  5
A0
330
1F
100
AcDbEntity
  8
Make2D$可见线$普通线
100
AcDbLine
 10
-45.51569577980513
 20
621.3197038134947
 30
0.0
 11
-45.51569577980513
 21
621.3037704190824
 31
0.0
  0
LINE
  5
A1
330
1F
100
AcDbEntity
  8
Make2D$可见线$普通线
100
AcDbLine
 10
-45.51569577980513
 20
621.0331649927123
 30
0.0
 11
-45.51569577980513
 21
621.0190405787605
 31
0.0
  0
LINE
  5
A2
330
1F
100
AcDbEntity
  8
Make2D$可见线$普通线
100
AcDbLine
 10
-45.51569577980547
 20
620.73700358266
 30
0.0
 11
-45.51569577980513
 21
620.7248491662554
 31
0.0
  0
LINE
  5
A3
330
1F
100
AcDbEntity
  8
Make2D$可见线$普通线
100
AcDbLine
 10
-45.51569577980467
 20
620.4313513924164
 30
0.0
 11
-45.51569577980501
 21
620.4213248158919
 31
0.0
  0
LINE
  5
A4
330
1F
100
AcDbEntity
  8
Make2D$可见线$普通线
100
AcDbLine
 10
-45.51569577980501
 20
620.1163402310588
 30
0.0
 11
-45.51569577980501
 21
620.108596164559
 31
0.0
  0
LINE
  5
A5
330
1F
100
AcDbEntity
  8
Make2D$可见线$普通线
100
AcDbLine
 10
-45.51569577980501
 20
619.1164710110793
 30
0.0
 11
-45.51569577980513
 21
590.8241115242193
 31
0.0
  0
LINE
  5
A6
330
1F
100
AcDbEntity
  8
Make2D$可见线$普通线
100
AcDbLine
 10
-45.5156957798057
 20
589.8319863707445
 30
0.0
 11
-45.51569577980536
 21
589.824242304245
 31
0.0
  0
LINE
  5
A7
330
1F
100
AcDbEntity
  8
Make2D$可见线$普通线
100
AcDbLine
 10
-45.51569577980536
 20
589.5192577194116
 30
0.0
 11
-45.51569577980536
 21
589.5092311428873
 31
0.0
  0
LINE
  5
A8
330
1F
100
AcDbEntity
  8
Make2D$可见线$普通线
100
AcDbLine
 10
-45.51569577980536
 20
589.2157333690482
 30
0.0
 11
-45.51569577980536
 21
589.2035789526435
 31
0.0
  0
LINE
  5
A9
330
1F
100
AcDbEntity
  8
Make2D$可见线$普通线
100
AcDbLine
 10
-45.51569577980536
 20
588.921541956543
 30
0.0
 11
-45.51569577980536
 21
588.9074175425912
 31
0.0
  0
LINE
  5
AA
330
1F
100
AcDbEntity
  8
Make2D$可见线$普通线
100
AcDbLine
 10
-45.51569577980524
 20
588.6368121162211
 30
0.0
 11
-45.51569577980524
 21
588.6208787218088
 31
0.0
  0
LINE
  5
AB
330
1F
100
AcDbEntity
  8
Make2D$可见线$普通线
100
AcDbLine
 10
-45.51569577980524
 20
588.3616724906562
 30
0.0
 11
-45.51569577980524
 21
588.3440942993736
 31
0.0
  0
LINE
  5
AC
330
1F
100
AcDbEntity
  8
Make2D$可见线$普通线
100
AcDbLine
 10
-45.51569577980524
 20
588.096251722423
 30
0.0
 11
-45.51569577980524
 21
588.0771960843638
 31
0.0
  0
LINE
  5
AD
330
1F
100
AcDbEntity
  8
Make2D$可见线$普通线
100
AcDbLine
 10
-45.51569577980524
 20
587.8406784540954
 30
0.0
 11
-45.51569577980524
 21
587.8203158858573
 31
0.0
  0
LINE
  5
AE
330
1F
100
AcDbEntity
  8
Make2D$可见线$普通线
100
AcDbLine
 10
-45.51569577980513
 20
587.5950813282477
 30
0.0
 11
-45.51569577980513
 21
587.5735855129317
 31
0.0
  0
LINE
  5
AF
330
1F
100
AcDbEntity
  8
Make2D$可见线$普通线
100
AcDbLine
 10
-45.51569577980524
 20
587.3595889874546
 30
0.0
 11
-45.51569577980524
 21
587.3371367746652
 31
0.0
  0
LINE
  5
B0
330
1F
100
AcDbEntity
  8
Make2D$可见线$普通线
100
AcDbLine
 10
-45.51569577980524
 20
587.1343300742897
 30
0.0
 11
-45.51569577980524
 21
587.1111014801354
 31
0.0
  0
LINE
  5
B1
330
1F
100
AcDbEntity
  8
Make2D$可见线$普通线
100
AcDbLine
 10
-45.51569577980536
 20
586.9194332313277
 30
0.0
 11
-45.51569577980536
 21
586.8956114384205
 31
0.0
  0
LINE
  5
B2
330
1F
100
AcDbEntity
  8
Make2D$可见线$普通线
100
AcDbLine
 10
-45.51569577980536
 20
586.7150271011433
 30
0.0
 11
-45.51569577980536
 21
586.690798458598
 31
0.0
  0
LINE
  5
B3
330
1F
100
AcDbEntity
  8
Make2D$可见线$普通线
100
AcDbLine
 10
-45.51569577980558
 20
586.5212403263106
 30
0.0
 11
-45.51569577980524
 21
586.4967943497463
 31
0.0
  0
LINE
  5
B4
330
1F
100
AcDbEntity
  8
Make2D$可见线$普通线
100
AcDbLine
 10
-45.51569577980524
 20
586.3382015494046
 30
0.0
 11
-45.51569577980524
 21
586.3137309209428
 31
0.0
  0
LINE
  5
B5
330
1F
100
AcDbEntity
  8
Make2D$可见线$普通线
100
AcDbLine
 10
-45.51569577980536
 20
586.1660394130006
 30
0.0
 11
-45.51569577980536
 21
586.1417399812653
 31
0.0
  0
LINE
  5
B6
330
1F
100
AcDbEntity
  8
Make2D$可见线$普通线
100
AcDbLine
 10
-45.51569577980536
 20
586.0048825596743
 30
0.0
 11
-45.51569577980536
 21
585.9809533397922
 31
0.0
  0
LINE
  5
B7
330
1F
100
AcDbEntity
  8
Make2D$可见线$普通线
100
AcDbLine
 10
-45.51569577980513
 20
585.8548596320036
 30
0.0
 11
-45.51569577980513
 21
585.8315028056011
 31
0.0
  0
LINE
  5
B8
330
1F
100
AcDbEntity
  8
Make2D$可见线$普通线
100
AcDbLine
 10
-45.51569577980536
 20
585.7160992725685
 30
0.0
 11
-45.51569577980536
 21
585.6935201877698
 31
0.0
  0
LINE
  5
B9
330
1F
100
AcDbEntity
  8
Make2D$可见线$普通线
100
AcDbLine
 10
-45.51569577980513
 20
585.5887301239554
 30
0.0
 11
-45.51569577980513
 21
585.5671372953763
 31
0.0
  0
LINE
  5
BA
330
1F
100
AcDbEntity
  8
Make2D$可见线$普通线
100
AcDbLine
 10
-45.51569577980524
 20
585.4728808287648
 30
0.0
 11
-45.51569577980524
 21
585.4524859374985
 31
0.0
  0
LINE
  5
BB
330
1F
100
AcDbEntity
  8
Make2D$可见线$普通线
100
AcDbLine
 10
-45.51569577980501
 20
585.3686800296302
 30
0.0
 11
-45.51569577980501
 21
585.3496979232141
 31
0.0
  0
LINE
  5
BC
330
1F
100
AcDbEntity
  8
Make2D$可见线$普通线
100
AcDbLine
 10
-45.51569577980501
 20
585.2762563692723
 30
0.0
 11
-45.51569577980501
 21
585.2589050616011
 31
0.0
  0
LINE
  5
BD
330
1F
100
AcDbEntity
  8
Make2D$可见线$普通线
100
AcDbLine
 10
-45.51569577980501
 20
585.1957384906718
 30
0.0
 11
-45.51569577980501
 21
585.1802391617376
 31
0.0
  0
LINE
  5
BE
330
1F
100
AcDbEntity
  8
Make2D$可见线$普通线
100
AcDbLine
 10
-45.51569577980513
 20
585.1272550377001
 30
0.0
 11
-45.51569577980513
 21
585.1138320327011
 31
0.0
  0
LINE
  5
BF
330
1F
100
AcDbEntity
  8
Make2D$可见线$普通线
100
AcDbLine
 10
-45.51569577980536
 20
585.0598154835694
 30
0.0
 11
-45.51569577980536
 21
585.0269059616257
 31
0.0
  0
LINE
  5
C0
330
1F
100
AcDbEntity
  8
Make2D$可见线$普通线
100
AcDbLine
 10
2.876134594280529
 20
678.970291041954
 30
0.0
 11
-62.12386540571947
 21
678.970291041954
 31
0.0
  0
LINE
  5
C1
330
1F
100
AcDbEntity
  8
Make2D$可见线$普通线
100
AcDbLine
 10
2.876134594280529
 20
678.970291041954
 30
0.0
 11
2.876134594280529
 21
648.970291041954
 31
0.0
  0
LINE
  5
C2
330
1F
100
AcDbEntity
  8
Make2D$可见线$普通线
100
AcDbLine
 10
2.876134594280529
 20
648.970291041954
 30
0.0
 11
-62.12386540571947
 21
648.970291041954
 31
0.0
  0
ARC
  5
C3
330
1F
100
AcDbEntity
  8
Make2D$可见线$普通线
100
AcDbCircle
 10
1.87613459428058
 20
678.9702910419543
 30
0.0
 40
0.9999999999999487
100
AcDbArc
 50
359.999999999987
 51
90.00000000000294
  0
LINE
  5
C4
330
1F
100
AcDbEntity
  8
Make2D$可见线$普通线
100
AcDbLine
 10
1.876134594280529
 20
679.970291041954
 30
0.0
 11
-60.56604948021379
 21
679.9702910419539
 31
0.0
  0
ARC
  5
C5
330
1F
100
AcDbEntity
  8
Make2D$可见线$普通线
100
AcDbCircle
 10
1.876134594279979
 20
648.9702910419544
 30
0.0
 40
1.00000000000055
100
AcDbArc
 50
270.0000000000315
 51
359.9999999999804
  0
LINE
  5
C6
330
1F
100
AcDbEntity
  8
Make2D$可见线$普通线
100
AcDbLine
 10
1.876134594280529
 20
647.970291041954
 30
0.0
 11
-60.56604948021391
 21
647.9702910419539
 31
0.0
  0
LINE
  5
C7
330
1F
100
AcDbEntity
  8
Make2D$可见线$普通线
100
AcDbLine
 10
87.87612852354891
 20
678.970291041954
 30
0.0
 11
152.8761285235489
 21
678.970291041954
 31
0.0
  0
LINE
  5
C8
330
1F
100
AcDbEntity
  8
Make2D$可见线$普通线
100
AcDbLine
 10
87.87612852354891
 20
678.970291041954
 30
0.0
 11
87.87612852354891
 21
648.970291041954
 31
0.0
  0
LINE
  5
C9
330
1F
100
AcDbEntity
  8
Make2D$可见线$普通线
100
AcDbLine
 10
87.87612852354891
 20
648.970291041954
 30
0.0
 11
152.8761285235489
 21
648.970291041954
 31
0.0
  0
ARC
  5
CA
330
1F
100
AcDbEntity
  8
Make2D$可见线$普通线
100
AcDbCircle
 10
88.87612852354921
 20
678.9702910419539
 30
0.0
 40
1.000000000000298
100
AcDbArc
 50
90.00000000001711
 51
179.9999999999935
  0
LINE
  5
CB
330
1F
100
AcDbEntity
  8
Make2D$可见线$普通线
100
AcDbLine
 10
88.87612852354891
 20
679.970291041954
 30
0.0
 11
151.3183125980429
 21
679.9702910419539
 31
0.0
  0
ARC
  5
CC
330
1F
100
AcDbEntity
  8
Make2D$可见线$普通线
100
AcDbCircle
 10
88.87612852354917
 20
648.9702910419542
 30
0.0
 40
1.000000000000256
100
AcDbArc
 50
180.0000000000065
 51
269.9999999999853
  0
LINE
  5
CD
330
1F
100
AcDbEntity
  8
Make2D$可见线$普通线
100
AcDbLine
 10
88.87612852354891
 20
647.970291041954
 30
0.0
 11
151.3183125980428
 21
647.9702910419539
 31
0.0
  0
LINE
  5
CE
330
1F
100
AcDbEntity
  8
Make2D$可见线$普通线
100
AcDbLine
 10
138.2654770569843
 20
584.9766005849666
 30
0.0
 11
138.2654770569844
 21
614.7212453640226
 31
0.0
  0
LINE
  5
CF
330
1F
100
AcDbEntity
  8
Make2D$可见线$普通线
100
AcDbLine
 10
137.265655780228
 20
586.0227804129074
 30
0.0
 11
137.2656557802279
 21
586.0483369899273
 31
0.0
  0
LINE
  5
D0
330
1F
100
AcDbEntity
  8
Make2D$可见线$普通线
100
AcDbLine
 10
137.2656557802276
 20
586.0630169207116
 30
0.0
 11
137.2656557802277
 21
586.0925523236695
 31
0.0
  0
LINE
  5
D1
330
1F
100
AcDbEntity
  8
Make2D$可见线$普通线
100
AcDbLine
 10
137.2656557802279
 20
586.114625634737
 30
0.0
 11
137.265655780228
 21
586.1472125507198
 31
0.0
  0
LINE
  5
D2
330
1F
100
AcDbEntity
  8
Make2D$可见线$普通线
100
AcDbLine
 10
137.265655780228
 20
586.1775513612702
 30
0.0
 11
137.2656557802279
 21
586.8374840523045
 31
0.0
  0
LINE
  5
D3
330
1F
100
AcDbEntity
  8
Make2D$可见线$普通线
100
AcDbLine
 10
137.2656557802278
 20
588.4398508481246
 30
0.0
 11
137.2656557802278
 21
614.7229312209577
 31
0.0
  0
LINE
  5
D4
330
1F
100
AcDbEntity
  8
Make2D$可见线$普通线
100
AcDbLine
 10
155.4382205540564
 20
614.6280134741319
 30
0.0
 11
155.4382205540564
 21
584.9737251820238
 31
0.0
  0
LINE
  5
D5
330
1F
100
AcDbEntity
  8
Make2D$可见线$普通线
100
AcDbLine
 10
156.9452312083497
 20
614.6153779825966
 30
0.0
 11
156.9452312083499
 21
585.1976850908559
 31
0.0
  0
LINE
  5
D6
330
1F
100
AcDbEntity
  8
Make2D$可见线$普通线
100
AcDbLine
 10
157.1553302162348
 20
614.6135702377564
 30
0.0
 11
157.1553302162347
 21
585.2587650659916
 31
0.0
  0
LINE
  5
D7
330
1F
100
AcDbEntity
  8
Make2D$可见线$普通线
100
AcDbLine
 10
156.7347927836513
 20
614.6171774622395
 30
0.0
 11
156.7347927836513
 21
585.1433917796237
 31
0.0
  0
LINE
  5
D8
330
1F
100
AcDbEntity
  8
Make2D$可见线$普通线
100
AcDbLine
 10
156.5243543589528
 20
614.6189656789347
 30
0.0
 11
156.5243543589529
 21
585.0958851322956
 31
0.0
  0
LINE
  5
D9
330
1F
100
AcDbEntity
  8
Make2D$可见线$普通线
100
AcDbLine
 10
156.3071275979739
 20
614.6207996933646
 30
0.0
 11
156.3071275979734
 21
585.0551651488718
 31
0.0
  0
LINE
  5
DA
330
1F
100
AcDbEntity
  8
Make2D$可见线$普通线
100
AcDbLine
 10
156.0899008369942
 20
614.6226215571784
 30
0.0
 11
156.0899008369942
 21
585.0212318293514
 31
0.0
  0
LINE
  5
DB
330
1F
100
AcDbEntity
  8
Make2D$可见线$普通线
100
AcDbLine
 10
155.8726740760151
 20
614.6244311935318
 30
0.0
 11
155.8726740760148
 21
585.0008718376398
 31
0.0
  0
LINE
  5
DC
330
1F
100
AcDbEntity
  8
Make2D$可见线$普通线
100
AcDbLine
 10
-47.51321393915474
 20
624.9639814989416
 30
0.0
 11
-47.51321393915507
 21
584.9766005849666
 31
0.0
  0
LINE
  5
DD
330
1F
100
AcDbEntity
  8
Make2D$可见线$普通线
100
AcDbLine
 10
-46.51339266239847
 20
623.9178016710009
 30
0.0
 11
-46.51339266239859
 21
623.8922450939808
 31
0.0
  0
LINE
  5
DE
330
1F
100
AcDbEntity
  8
Make2D$可见线$普通线
100
AcDbLine
 10
-46.51339266239836
 20
623.8775651631968
 30
0.0
 11
-46.51339266239847
 21
623.8480297602387
 31
0.0
  0
LINE
  5
DF
330
1F
100
AcDbEntity
  8
Make2D$可见线$普通线
100
AcDbLine
 10
-46.51339266239859
 20
623.8259564491711
 30
0.0
 11
-46.51339266239847
 21
623.7933695331883
 31
0.0
  0
LINE
  5
E0
330
1F
100
AcDbEntity
  8
Make2D$可见线$普通线
100
AcDbLine
 10
-46.51339266239847
 20
623.7630307226382
 30
0.0
 11
-46.51339266239847
 21
623.1030980316037
 31
0.0
  0
LINE
  5
E1
330
1F
100
AcDbEntity
  8
Make2D$可见线$普通线
100
AcDbLine
 10
-46.51339266239825
 20
621.5007312357834
 30
0.0
 11
-46.51339266239859
 21
618.9048105251587
 31
0.0
  0
LINE
  5
E2
330
1F
100
AcDbEntity
  8
Make2D$可见线$普通线
100
AcDbLine
 10
-46.51339266239836
 20
618.7939509869816
 30
0.0
 11
-46.51339266239847
 21
617.1904371144415
 31
0.0
  0
LINE
  5
E3
330
1F
100
AcDbEntity
  8
Make2D$可见线$普通线
100
AcDbLine
 10
-46.51339266239847
 20
616.9815461675058
 30
0.0
 11
-46.51339266239847
 21
615.2940597073041
 31
0.0
  0
LINE
  5
E4
330
1F
100
AcDbEntity
  8
Make2D$可见线$普通线
100
AcDbLine
 10
-46.51339266239847
 20
615.0233806292246
 30
0.0
 11
-46.51339266239836
 21
591.1466310969265
 31
0.0
  0
LINE
  5
E5
330
1F
100
AcDbEntity
  8
Make2D$可见线$普通线
100
AcDbLine
 10
-46.51339266239859
 20
591.0357715587493
 30
0.0
 11
-46.51339266239847
 21
588.5582957458662
 31
0.0
  0
LINE
  5
E6
330
1F
100
AcDbEntity
  8
Make2D$可见线$普通线
100
AcDbLine
 10
-46.51339266239847
 20
586.7896647108678
 30
0.0
 11
-46.51339266239836
 21
586.1775490443987
 31
0.0
  0
LINE
  5
E7
330
1F
100
AcDbEntity
  8
Make2D$可见线$普通线
100
AcDbLine
 10
-46.51339266239859
 20
586.1472125507198
 30
0.0
 11
-46.51339266239847
 21
586.1146249584325
 31
0.0
  0
LINE
  5
E8
330
1F
100
AcDbEntity
  8
Make2D$可见线$普通线
100
AcDbLine
 10
-46.51339266239836
 20
586.0925523236695
 30
0.0
 11
-46.51339266239836
 21
586.0630178728388
 31
0.0
  0
LINE
  5
E9
330
1F
100
AcDbEntity
  8
Make2D$可见线$普通线
100
AcDbLine
 10
-46.51339266239836
 20
586.0483369899273
 30
0.0
 11
-46.51339266239836
 21
586.0227829327614
 31
0.0
  0
LINE
  5
EA
330
1F
100
AcDbEntity
  8
Make2D$可见线$普通线
100
AcDbLine
 10
-66.19296809052028
 20
624.7428969930523
 30
0.0
 11
-66.19296809052028
 21
585.1976850908559
 31
0.0
  0
LINE
  5
EB
330
1F
100
AcDbEntity
  8
Make2D$可见线$普通线
100
AcDbLine
 10
-66.40306709840507
 20
624.6818170179165
 30
0.0
 11
-66.40306709840507
 21
585.2587650659916
 31
0.0
  0
LINE
  5
EC
330
1F
100
AcDbEntity
  8
Make2D$可见线$普通线
100
AcDbLine
 10
-65.98252966582197
 20
624.7971903042845
 30
0.0
 11
-65.98252966582186
 21
585.1433917796236
 31
0.0
  0
LINE
  5
ED
330
1F
100
AcDbEntity
  8
Make2D$可见线$普通线
100
AcDbLine
 10
-65.7720912411233
 20
624.8446969516125
 30
0.0
 11
-65.7720912411233
 21
585.0958851322955
 31
0.0
  0
LINE
  5
EE
330
1F
100
AcDbEntity
  8
Make2D$可见线$普通线
100
AcDbLine
 10
-65.55486448014402
 20
624.8854169350363
 30
0.0
 11
-65.55486448014402
 21
585.0551651488717
 31
0.0
  0
LINE
  5
EF
330
1F
100
AcDbEntity
  8
Make2D$可见线$普通线
100
AcDbLine
 10
-65.33763771916473
 20
624.9193502545567
 30
0.0
 11
-65.33763771916473
 21
585.0212318293513
 31
0.0
  0
LINE
  5
F0
330
1F
100
AcDbEntity
  8
Make2D$可见线$普通线
100
AcDbLine
 10
-65.12041095818533
 20
624.9397102462684
 30
0.0
 11
-65.12041095818522
 21
585.0008718376397
 31
0.0
  0
LINE
  5
F1
330
1F
100
AcDbEntity
  8
Make2D$可见线$普通线
100
AcDbLine
 10
-64.68595743622687
 20
624.9668569018843
 30
0.0
 11
-64.68595743622687
 21
584.9737251820238
 31
0.0
  0
LINE
  5
F2
330
1F
100
AcDbEntity
  8
Make2D$可见线$普通线
100
AcDbLine
 10
83.37613155640838
 20
624.4560020894371
 30
0.0
 11
83.3761315564085
 21
624.4282502913151
 31
0.0
  0
LINE
  5
F3
330
1F
100
AcDbEntity
  8
Make2D$可见线$普通线
100
AcDbLine
 10
83.37613155640815
 20
624.4276367719797
 30
0.0
 11
83.37613155640827
 21
624.3155499770851
 31
0.0
  0
LINE
  5
F4
330
1F
100
AcDbEntity
  8
Make2D$可见线$普通线
100
AcDbLine
 10
83.37613155640804
 20
624.3040836255777
 30
0.0
 11
83.37613155640838
 21
624.2116700439996
 31
0.0
  0
LINE
  5
F5
330
1F
100
AcDbEntity
  8
Make2D$可见线$普通线
100
AcDbLine
 10
83.37613155640827
 20
624.1874530906273
 30
0.0
 11
83.37613155640827
 21
624.1319536100073
 31
0.0
  0
LINE
  5
F6
330
1F
100
AcDbEntity
  8
Make2D$可见线$普通线
100
AcDbLine
 10
83.37613155640827
 20
623.8106847002832
 30
0.0
 11
83.37613155640804
 21
623.0518417987254
 31
0.0
  0
SPLINE
  5
F7
330
1F
100
AcDbEntity
  8
Make2D$可见线$普通线
100
AcDbSpline
210
0.0
220
0.0
230
1.0
 70
    24
 71
     3
 72
    11
 73
     7
 74
     0
 42
0.000000001
 43
0.0000000001
 12
1.0
 22
0.0
 32
0.0
 13
1.0
 23
0.0
 33
0.0
 40
7.776208330454644
 40
7.776208330454644
 40
7.776208330454644
 40
7.776208330454644
 40
13.34136198316928
 40
13.34136198316928
 40
13.34136198316928
 40
23.82900004404524
 40
23.82900004404524
 40
23.82900004404524
 40
23.82900004404524
 10
82.87615577462579
 20
624.9618639091398
 30
0.0
 10
82.87615577462589
 20
625.0072680605523
 30
0.0
 10
82.87615577462596
 20
624.785407956101
 30
0.0
 10
82.87615577462604
 20
624.293324368271
 30
0.0
 10
82.87615577462607
 20
622.4996952260146
 30
0.0
 10
82.8761557746261
 20
620.7060660837583
 30
0.0
 10
82.87615577462611
 20
618.9124369415019
 30
0.0
  0
LINE
  5
F8
330
1F
100
AcDbEntity
  8
Make2D$可见线$普通线
100
AcDbLine
 10
97.37613155640872
 20
623.0510104541364
 30
0.0
 11
97.37613155640838
 21
623.0902757532555
 31
0.0
  0
LINE
  5
F9
330
1F
100
AcDbEntity
  8
Make2D$可见线$普通线
100
AcDbLine
 10
97.37613155640838
 20
623.1970336931565
 30
0.0
 11
97.37613155640838
 21
623.8099812154301
 31
0.0
  0
LINE
  5
FA
330
1F
100
AcDbEntity
  8
Make2D$可见线$普通线
100
AcDbLine
 10
97.37613155640838
 20
624.0543218511938
 30
0.0
 11
97.37613155640838
 21
624.0821274813958
 31
0.0
  0
LINE
  5
FB
330
1F
100
AcDbEntity
  8
Make2D$可见线$普通线
100
AcDbLine
 10
97.37613155640861
 20
624.0979353231406
 30
0.0
 11
97.37613155640861
 21
624.2004736394551
 31
0.0
  0
LINE
  5
FC
330
1F
100
AcDbEntity
  8
Make2D$可见线$普通线
100
AcDbLine
 10
97.3761315564085
 20
624.2109522741181
 30
0.0
 11
97.3761315564085
 21
624.3033626206469
 31
0.0
  0
LINE
  5
FD
330
1F
100
AcDbEntity
  8
Make2D$可见线$普通线
100
AcDbLine
 10
97.37613155640838
 20
624.3148996262591
 30
0.0
 11
97.37613155640838
 21
624.4269424245239
 31
0.0
  0
LINE
  5
FE
330
1F
100
AcDbEntity
  8
Make2D$可见线$普通线
100
AcDbLine
 10
97.37613155640838
 20
624.42866520359
 30
0.0
 11
97.37613155640838
 21
624.4648218670659
 31
0.0
  0
LINE
  5
FF
330
1F
100
AcDbEntity
  8
Make2D$可见线$普通线
100
AcDbLine
 10
97.8761557746302
 20
618.9129868869653
 30
0.0
 11
97.87615577462998
 21
624.9642185035776
 31
0.0
  0
LINE
  5
100
330
1F
100
AcDbEntity
  8
Make2D$可见线$普通线
100
AcDbLine
 10
97.37613155640838
 20
623.0902757532556
 30
0.0
 11
97.37613155640838
 21
623.1970336931566
 31
0.0
  0
ARC
  5
101
330
1F
100
AcDbEntity
  8
Make2D$可见线$普通线
100
AcDbCircle
 10
45.37613151386012
 20
604.9702909878765
 30
0.0
 40
15.00118139221031
100
AcDbArc
 50
50.75269270188645
 51
50.92832082909134
  0
ARC
  5
102
330
1F
100
AcDbEntity
  8
Make2D$可见线$普通线
100
AcDbCircle
 10
45.3761315578912
 20
604.970291041954
 30
0.0
 40
14.80124592334789
100
AcDbArc
 50
0.0
 51
227.497778011129
  0
ARC
  5
103
330
1F
100
AcDbEntity
  8
Make2D$可见线$普通线
100
AcDbCircle
 10
45.37613155789241
 20
604.9702910419537
 30
0.0
 40
14.80124592334671
100
AcDbArc
 50
312.5022219733026
 51
0.0000000000013202
  0
ARC
  5
104
330
1F
100
AcDbEntity
  8
Make2D$可见线$普通线
100
AcDbCircle
 10
45.37700389121122
 20
604.9691152562609
 30
0.0
 40
14.14943358969473
100
AcDbArc
 50
314.9654629745266
 51
0.004761148741754
  0
ARC
  5
105
330
1F
100
AcDbEntity
  8
Make2D$可见线$普通线
100
AcDbCircle
 10
45.37592999480187
 20
604.9701003721618
 30
0.0
 40
14.15050743853591
100
AcDbArc
 50
0.000772027042096
 51
225.0350411665975
  0
ARC
  5
106
330
1F
100
AcDbEntity
  8
Make2D$可见线$普通线
100
AcDbCircle
 10
45.29701968816843
 20
608.2592858939475
 30
0.0
 40
12.71109860272066
100
AcDbArc
 50
56.69912567326082
 51
89.64339781248731
  0
ARC
  5
107
330
1F
100
AcDbEntity
  8
Make2D$可见线$普通线
100
AcDbCircle
 10
45.45539522174236
 20
608.2589624435465
 30
0.0
 40
12.71142299246939
100
AcDbArc
 50
90.35727729169322
 51
123.3009970987574
  0
ARC
  5
108
330
1F
100
AcDbEntity
  8
Make2D$可见线$普通线
100
AcDbCircle
 10
45.37613155644203
 20
604.9702910419511
 30
0.0
 40
10.00000000003364
100
AcDbArc
 50
169.5158770189997
 51
179.9999999999831
  0
LINE
  5
109
330
1F
100
AcDbEntity
  8
Make2D$可见线$普通线
100
AcDbLine
 10
35.37613155640838
 20
294.9952483602899
 30
0.0
 11
55.37613155640838
 21
294.9952483602899
 31
0.0
  0
ARC
  5
10A
330
1F
100
AcDbEntity
  8
Make2D$可见线$普通线
100
AcDbCircle
 10
36.37613155640734
 20
294.9952483602806
 30
0.0
 40
0.9999999999905079
100
AcDbArc
 50
259.5158770189424
 51
270.0000000000595
  0
LINE
  5
10B
330
1F
100
AcDbEntity
  8
Make2D$可见线$普通线
100
AcDbLine
 10
36.54073260470091
 20
293.9952483602901
 30
0.0
 11
36.54686455140222
 21
293.9952483602901
 31
0.0
  0
LINE
  5
10C
330
1F
100
AcDbEntity
  8
Make2D$可见线$普通线
100
AcDbLine
 10
36.64471226887656
 20
293.9952483602901
 30
0.0
 11
36.65442904427391
 21
293.9952483602901
 31
0.0
  0
LINE
  5
10D
330
1F
100
AcDbEntity
  8
Make2D$可见线$普通线
100
AcDbLine
 10
36.76367674847972
 20
293.9952483602901
 30
0.0
 11
36.77418732124625
 21
293.9952483602901
 31
0.0
  0
LINE
  5
10E
330
1F
100
AcDbEntity
  8
Make2D$可见线$普通线
100
AcDbLine
 10
36.9032834775312
 20
293.9952483602902
 30
0.0
 11
36.91421822216
 21
293.9952483602901
 31
0.0
  0
LINE
  5
10F
330
1F
100
AcDbEntity
  8
Make2D$可见线$普通线
100
AcDbLine
 10
37.06305794335105
 20
293.9952483602901
 30
0.0
 11
37.0740586329573
 21
293.9952483602901
 31
0.0
  0
LINE
  5
110
330
1F
100
AcDbEntity
  8
Make2D$可见线$普通线
100
AcDbLine
 10
37.24252563325786
 20
293.9952483602901
 30
0.0
 11
37.25324544014074
 21
293.9952483602901
 31
0.0
  0
LINE
  5
111
330
1F
100
AcDbEntity
  8
Make2D$可见线$普通线
100
AcDbLine
 10
37.441212034572
 20
293.9952483602901
 30
0.0
 11
37.45131553036913
 21
293.9952483602901
 31
0.0
  0
LINE
  5
112
330
1F
100
AcDbEntity
  8
Make2D$可见线$普通线
100
AcDbLine
 10
37.65864263461219
 20
293.9952483602901
 30
0.0
 11
37.66780579034526
 21
293.9952483602901
 31
0.0
  0
LINE
  5
113
330
1F
100
AcDbEntity
  8
Make2D$可见线$普通线
100
AcDbLine
 10
37.8943429206978
 20
293.9952483602901
 30
0.0
 11
37.9022531067933
 21
293.9952483602901
 31
0.0
  0
LINE
  5
114
330
1F
100
AcDbEntity
  8
Make2D$可见线$普通线
100
AcDbLine
 10
39.0103506718882
 20
293.99524836029
 30
0.0
 11
51.74191244099484
 21
293.9952483602902
 31
0.0
  0
LINE
  5
115
330
1F
100
AcDbEntity
  8
Make2D$可见线$普通线
100
AcDbLine
 10
52.85001000610202
 20
293.9952483602903
 30
0.0
 11
52.85792019216217
 21
293.9952483602902
 31
0.0
  0
LINE
  5
116
330
1F
100
AcDbEntity
  8
Make2D$可见线$普通线
100
AcDbLine
 10
53.0844573225462
 20
293.9952483602902
 30
0.0
 11
53.0936204782389
 21
293.9952483602902
 31
0.0
  0
LINE
  5
117
330
1F
100
AcDbEntity
  8
Make2D$可见线$普通线
100
AcDbLine
 10
53.3009475825171
 20
293.9952483602902
 30
0.0
 11
53.31105107826886
 21
293.9952483602902
 31
0.0
  0
LINE
  5
118
330
1F
100
AcDbEntity
  8
Make2D$可见线$普通线
100
AcDbLine
 10
53.49901767273741
 20
293.9952483602902
 30
0.0
 11
53.50973747957266
 21
293.9952483602902
 31
0.0
  0
LINE
  5
119
330
1F
100
AcDbEntity
  8
Make2D$可见线$普通线
100
AcDbLine
 10
53.6782044799121
 20
293.9952483602902
 30
0.0
 11
53.6892051694698
 21
293.9952483602902
 31
0.0
  0
LINE
  5
11A
330
1F
100
AcDbEntity
  8
Make2D$可见线$普通线
100
AcDbLine
 10
53.83804489069996
 20
293.9952483602903
 30
0.0
 11
53.84897963528067
 21
293.9952483602903
 31
0.0
  0
LINE
  5
11B
330
1F
100
AcDbEntity
  8
Make2D$可见线$普通线
100
AcDbLine
 10
53.97807579160485
 20
293.9952483602903
 30
0.0
 11
53.98858636432476
 21
293.9952483602903
 31
0.0
  0
LINE
  5
11C
330
1F
100
AcDbEntity
  8
Make2D$可见线$普通线
100
AcDbLine
 10
54.0978340685682
 20
293.9952483602902
 30
0.0
 11
54.10755084392247
 21
293.9952483602902
 31
0.0
  0
LINE
  5
11D
330
1F
100
AcDbEntity
  8
Make2D$可见线$普通线
100
AcDbLine
 10
54.20539856139339
 20
293.9952483602902
 30
0.0
 11
54.21153050811131
 21
293.9952483602902
 31
0.0
  0
LINE
  5
11E
330
1F
100
AcDbEntity
  8
Make2D$可见线$普通线
100
AcDbLine
 10
35.37613155640838
 20
569.9702910419543
 30
0.0
 11
35.3761315564085
 21
602.5133951717196
 31
0.0
  0
LINE
  5
11F
330
1F
100
AcDbEntity
  8
Make2D$可见线$普通线
100
AcDbLine
 10
55.37613155640838
 20
569.970291041954
 30
0.0
 11
35.37613155640827
 21
569.9702910419539
 31
0.0
  0
LINE
  5
120
330
1F
100
AcDbEntity
  8
Make2D$可见线$普通线
100
AcDbLine
 10
35.37613155640838
 20
294.9952483602901
 30
0.0
 11
35.37613155640202
 21
328.9952483602901
 31
0.0
  0
LINE
  5
121
330
1F
100
AcDbEntity
  8
Make2D$可见线$普通线
100
AcDbLine
 10
35.37613155640202
 20
328.9952483602901
 30
0.0
 11
35.37613155640838
 21
569.9702910419543
 31
0.0
  0
SPLINE
  5
122
330
1F
100
AcDbEntity
  8
Make2D$可见线$普通线
100
AcDbSpline
210
0.0
220
0.0
230
1.0
 70
     8
 71
     3
 72
    13
 73
     9
 74
     0
 42
0.000000001
 43
0.0000000001
 12
1.0
 22
0.0
 32
0.0
 13
1.0
 23
0.0
 33
0.0
 40
0.0
 40
0.0
 40
0.0
 40
0.0
 40
5.457497659195417
 40
10.91499531839083
 40
16.37249297782837
 40
21.82999063726591
 40
27.28748829645948
 40
29.66228986225456
 40
29.66228986225456
 40
29.66228986225456
 40
29.66228986225456
 10
91.55088633645641
 20
525.2518020307797
 30
0.0
 10
89.7127039355355
 20
525.211749444241
 30
0.0
 10
85.97494921731028
 20
525.3217089703709
 30
0.0
 10
81.03834644659626
 20
526.0289128925486
 30
0.0
 10
77.52348201751956
 20
527.1714483046396
 30
0.0
 10
75.96537721288479
 20
528.5750273493802
 30
0.0
 10
76.48148016781988
 20
529.7529238318119
 30
0.0
 10
77.50555823121834
 20
530.38756869875
 30
0.0
 10
77.87653533836517
 20
530.5718522486827
 30
0.0
  0
SPLINE
  5
123
330
1F
100
AcDbEntity
  8
Make2D$可见线$普通线
100
AcDbSpline
210
0.0
220
0.0
230
1.0
 70
     8
 71
     3
 72
    13
 73
     9
 74
     0
 42
0.000000001
 43
0.0000000001
 12
1.0
 22
0.0
 32
0.0
 13
1.0
 23
0.0
 33
0.0
 40
59.97483852739268
 40
59.97483852739268
 40
59.97483852739268
 40
59.97483852739268
 40
60.03247425259789
 40
65.48997191179076
 40
70.94746957122854
 40
76.40496723066632
 40
81.86246488986131
 40
87.31996254905633
 40
87.31996254905633
 40
87.31996254905633
 40
87.31996254905633
 10
102.876535338254
 20
530.5723261031484
 30
0.0
 10
102.8855371403895
 20
530.5678543967995
 30
0.0
 10
103.7434444381783
 20
530.1394912635539
 30
0.0
 10
104.7876514027761
 20
529.1988014107382
 30
0.0
 10
104.1518388432339
 20
527.7477029742907
 30
0.0
 10
101.4188417030439
 20
526.4699863171758
 30
0.0
 10
97.00458400230525
 20
525.5603918668817
 30
0.0
 10
93.38935505465135
 20
525.2913130139691
 30
0.0
 10
91.55088633645641
 20
525.2518020307797
 30
0.0
  0
SPLINE
  5
124
330
1F
100
AcDbEntity
  8
Make2D$可见线$普通线
100
AcDbSpline
210
0.0
220
0.0
230
1.0
 70
     8
 71
     3
 72
    13
 73
     9
 74
     0
 42
0.000000001
 43
0.0000000001
 12
1.0
 22
0.0
 32
0.0
 13
1.0
 23
0.0
 33
0.0
 40
0.0
 40
0.0
 40
0.0
 40
0.0
 40
5.457497659195417
 40
10.91499531839083
 40
16.37249297782837
 40
21.82999063726591
 40
27.28748829645948
 40
29.27524624054017
 40
29.27524624054017
 40
29.27524624054017
 40
29.27524624054017
 10
91.5345313330779
 20
525.3411972888107
 30
0.0
 10
89.72194863857158
 20
525.3017025002576
 30
0.0
 10
86.03624828849412
 20
525.4101306594754
 30
0.0
 10
81.16839581237626
 20
526.1074856066449
 30
0.0
 10
77.70248163829582
 20
527.2341093385769
 30
0.0
 10
76.16607600003096
 20
528.6181412415024
 30
0.0
 10
76.66017004558944
 20
529.7458070154694
 30
0.0
 10
77.5867381537999
 20
530.3434464636056
 30
0.0
 10
77.87653533825386
 20
530.4976800852858
 30
0.0
  0
SPLINE
  5
125
330
1F
100
AcDbEntity
  8
Make2D$可见线$普通线
100
AcDbSpline
210
0.0
220
0.0
230
1.0
 70
     8
 71
     3
 72
    12
 73
     8
 74
     0
 42
0.000000001
 43
0.0000000001
 12
1.0
 22
0.0
 32
0.0
 13
1.0
 23
0.0
 33
0.0
 40
60.36215078323241
 40
60.36215078323241
 40
60.36215078323241
 40
60.36215078323241
 40
65.48997191179076
 40
70.94746957122854
 40
76.40496723066632
 40
81.86246488986131
 40
87.31996254905633
 40
87.31996254905633
 40
87.31996254905633
 40
87.31996254905633
 10
102.8765353381695
 20
530.4980887296687
 30
0.0
 10
103.6232541053418
 20
530.1001771437786
 30
0.0
 10
104.5743283009378
 20
529.2044158331703
 30
0.0
 10
103.959994897994
 20
527.802338716379
 30
0.0
 10
101.2650592277662
 20
526.5424163599613
 30
0.0
 10
96.91227730935054
 20
525.6454895050415
 30
0.0
 10
93.3473963574195
 20
525.3801580166837
 30
0.0
 10
91.5345313330779
 20
525.3411972888107
 30
0.0
  0
SPLINE
  5
126
330
1F
100
AcDbEntity
  8
Make2D$可见线$普通线
100
AcDbSpline
210
0.0
220
0.0
230
1.0
 70
     8
 71
     3
 72
    10
 73
     6
 74
     0
 42
0.000000001
 43
0.0000000001
 12
1.0
 22
0.0
 32
0.0
 13
1.0
 23
0.0
 33
0.0
 40
0.0001635350817302
 40
0.0001635350817302
 40
0.0001635350817302
 40
0.0001635350817302
 40
17.38703055985884
 40
38.78929397301881
 40
60.19129965326705
 40
60.19129965326705
 40
60.19129965326705
 40
60.19129965326705
 10
94.93413062341642
 20
498.0390910681841
 30
0.0
 10
100.7289075214138
 20
498.1663874204638
 30
0.0
 10
113.4905320955345
 20
498.98037377371
 30
0.0
 10
130.4439554613869
 20
501.9773958628158
 30
0.0
 10
138.4395560217217
 20
505.1381282996691
 30
0.0
 10
141.1107899928111
 20
506.8574324642955
 30
0.0
  0
SPLINE
  5
127
330
1F
100
AcDbEntity
  8
Make2D$可见线$普通线
100
AcDbSpline
210
0.0
220
0.0
230
1.0
 70
     8
 71
     3
 72
    11
 73
     7
 74
     0
 42
0.000000001
 43
0.0000000001
 12
1.0
 22
0.0
 32
0.0
 13
1.0
 23
0.0
 33
0.0
 40
-0.0000015523185697
 40
-0.0000015523185697
 40
-0.0000015523185697
 40
-0.0000015523185697
 40
23.90977625846608
 40
38.62358334091066
 40
53.3373904233552
 40
56.71719004207196
 40
56.71719004207196
 40
56.71719004207196
 40
56.71719004207196
 10
141.1107899928111
 20
506.8574324642955
 30
0.0
 10
144.1091400079326
 20
508.7773702758457
 30
0.0
 10
146.2487712244803
 20
512.1564501859594
 30
0.0
 10
142.82872097572
 20
516.732731975674
 30
0.0
 10
137.9065229136105
 20
519.300347181025
 30
0.0
 10
134.354731274727
 20
520.5695546308056
 30
0.0
 10
133.6635009037125
 20
520.8010928250134
 30
0.0
  0
SPLINE
  5
128
330
1F
100
AcDbEntity
  8
Make2D$可见线$普通线
100
AcDbSpline
210
0.0
220
0.0
230
1.0
 70
     8
 71
     3
 72
    12
 73
     8
 74
     0
 42
0.000000001
 43
0.0000000001
 12
1.0
 22
0.0
 32
0.0
 13
1.0
 23
0.0
 33
0.0
 40
239.8528072475913
 40
239.8528072475913
 40
239.8528072475913
 40
239.8528072475913
 40
251.8100349409645
 40
263.6129020652062
 40
275.415769189448
 40
278.8305483182119
 40
282.2453274469758
 40
282.2453274469758
 40
282.2453274469758
 40
282.2453274469758
 10
55.37613155962217
 20
501.2691524642401
 30
0.0
 10
58.44978029367665
 20
500.6066699940298
 30
0.0
 10
65.11050014657715
 20
499.4621183978716
 30
0.0
 10
76.29092213945233
 20
498.3534163588805
 30
0.0
 10
85.27529786291176
 20
498.0020210256703
 30
0.0
 10
91.51378101509809
 20
497.982143814613
 30
0.0
 10
93.79540757447943
 20
498.014355372499
 30
0.0
 10
94.93413062341642
 20
498.0390910681841
 30
0.0
  0
SPLINE
  5
129
330
1F
100
AcDbEntity
  8
Make2D$可见线$普通线
100
AcDbSpline
210
0.0
220
0.0
230
1.0
 70
     8
 71
     3
 72
    10
 73
     6
 74
     0
 42
0.000000001
 43
0.0000000001
 12
1.0
 22
0.0
 32
0.0
 13
1.0
 23
0.0
 33
0.0
 40
0.0001635350817319
 40
0.0001635350817319
 40
0.0001635350817319
 40
0.0001635350817319
 40
17.38703055985884
 40
38.78929397301881
 40
60.19129965326705
 40
60.19129965326705
 40
60.19129965326705
 40
60.19129965326705
 10
94.9596666087923
 20
497.516569704179
 30
0.0
 10
100.7861877339568
 20
497.6445453037682
 30
0.0
 10
113.6189556202626
 20
498.4630821215387
 30
0.0
 10
130.6664499138917
 20
501.4767402953306
 30
0.0
 10
138.7064467016359
 20
504.6550145489915
 30
0.0
 10
141.3925092374639
 20
506.3838680798032
 30
0.0
  0
ARC
  5
12A
330
1F
100
AcDbEntity
  8
Make2D$可见线$普通线
100
AcDbCircle
 10
140.8438129729363
 20
506.3780318772859
 30
0.0
 40
0.5487273020055821
100
AcDbArc
 50
0.6094030244228618
 51
60.88667265423626
  0
ARC
  5
12B
330
1F
100
AcDbEntity
  8
Make2D$可见线$普通线
100
AcDbCircle
 10
90.15336800028106
 20
497.543567184451
 30
0.0
 40
4.80637443174355
100
AcDbArc
 50
359.6781670189898
 51
5.91755080378887
  0
SPLINE
  5
12C
330
1F
100
AcDbEntity
  8
Make2D$可见线$普通线
100
AcDbSpline
210
0.0
220
0.0
230
1.0
 70
     8
 71
     3
 72
     8
 73
     4
 74
     0
 42
0.000000001
 43
0.0000000001
 12
1.0
 22
0.0
 32
0.0
 13
1.0
 23
0.0
 33
0.0
 40
-0.0000015523185697
 40
-0.0000015523185697
 40
-0.0000015523185697
 40
-0.0000015523185697
 40
20.92105403211802
 40
20.92105403211802
 40
20.92105403211802
 40
20.92105403211802
 10
141.3925092374639
 20
506.3838680798032
 30
0.0
 10
144.030642887683
 20
508.0731314967877
 30
0.0
 10
145.3801077414051
 20
509.8947356918775
 30
0.0
 10
145.3768348912361
 20
511.7160295397349
 30
0.0
  0
SPLINE
  5
12D
330
1F
100
AcDbEntity
  8
Make2D$可见线$普通线
100
AcDbSpline
210
0.0
220
0.0
230
1.0
 70
     8
 71
     3
 72
    12
 73
     8
 74
     0
 42
0.000000001
 43
0.0000000001
 12
1.0
 22
0.0
 32
0.0
 13
1.0
 23
0.0
 33
0.0
 40
240.1030354730798
 40
240.1030354730798
 40
240.1030354730798
 40
240.1030354730798
 40
251.8100349409645
 40
263.6129020652062
 40
275.415769189448
 40
278.8305483182119
 40
281.1060416207558
 40
281.1060416207558
 40
281.1060416207558
 40
281.1060416207558
 10
55.37613155640813
 20
500.7228581528663
 30
0.0
 10
58.41360252722073
 20
500.0742028742234
 30
0.0
 10
65.04929015005112
 20
498.9396319135615
 30
0.0
 10
76.21295282004286
 20
497.8326433337339
 30
0.0
 10
85.24665399259185
 20
497.4792730135985
 30
0.0
 10
91.1364952572549
 20
497.4605346954461
 30
0.0
 10
93.04898502170347
 20
497.4819950207304
 30
0.0
 10
93.81291267877792
 20
497.4946175235085
 30
0.0
  0
SPLINE
  5
12E
330
1F
100
AcDbEntity
  8
Make2D$可见线$普通线
100
AcDbSpline
210
0.0
220
0.0
230
1.0
 70
     8
 71
     3
 72
     9
 73
     5
 74
     0
 42
0.000000001
 43
0.0000000001
 12
1.0
 22
0.0
 32
0.0
 13
1.0
 23
0.0
 33
0.0
 40
-0.0000318282886624
 40
-0.0000318282886624
 40
-0.0000318282886624
 40
-0.0000318282886624
 40
11.20229326712423
 40
20.87241454731119
 40
20.87241454731119
 40
20.87241454731119
 40
20.87241454731119
 10
141.3925092370275
 20
494.8270137584419
 30
0.0
 10
142.8004047120268
 20
495.7328001966183
 30
0.0
 10
144.7528376860655
 20
497.4902375954094
 30
0.0
 10
145.3763740353037
 20
499.3065845729671
 30
0.0
 10
145.3765352872525
 20
500.1482712793638
 30
0.0
  0
SPLINE
  5
12F
330
1F
100
AcDbEntity
  8
Make2D$可见线$普通线
100
AcDbSpline
210
0.0
220
0.0
230
1.0
 70
     8
 71
     3
 72
    11
 73
     7
 74
     0
 42
0.000000001
 43
0.0000000001
 12
1.0
 22
0.0
 32
0.0
 13
1.0
 23
0.0
 33
0.0
 40
240.1052938903336
 40
240.1052938903336
 40
240.1052938903336
 40
240.1052938903336
 40
244.1174796401027
 40
255.4888779129186
 40
266.6104065906592
 40
277.6985821174619
 40
277.6985821174619
 40
277.6985821174619
 40
277.6985821174619
 10
55.37613157062152
 20
489.1679348787282
 30
0.0
 10
56.41730778984017
 20
488.9459395055537
 30
0.0
 10
60.53032625675128
 20
488.1326579236261
 30
0.0
 10
68.34466043347945
 20
486.9942808515796
 30
0.0
 10
79.17622311420843
 20
486.1100768190489
 30
0.0
 10
86.64600055491394
 20
485.9136311339967
 30
0.0
 10
90.376462380259
 20
485.9147280146246
 30
0.0
  0
SPLINE
  5
130
330
1F
100
AcDbEntity
  8
Make2D$可见线$普通线
100
AcDbSpline
210
0.0
220
0.0
230
1.0
 70
     8
 71
     3
 72
    13
 73
     9
 74
     0
 42
0.000000001
 43
0.0000000001
 12
1.0
 22
0.0
 32
0.0
 13
1.0
 23
0.0
 33
0.0
 40
0.0000209084301841
 40
0.0000209084301841
 40
0.0000209084301841
 40
0.0000209084301841
 40
5.881437498205271
 40
19.2584025092516
 40
25.9467885380349
 40
32.63548240971927
 40
51.36159100838854
 40
64.73761921893961
 40
64.73761921893961
 40
64.73761921893961
 40
64.73761921893961
 10
90.376462380259
 20
485.9147280146246
 30
0.0
 10
92.35584085967452
 20
485.913836329507
 30
0.0
 10
98.83216069895857
 20
486.005330126336
 30
0.0
 10
107.3961631263254
 20
486.5203137139229
 30
0.0
 10
115.6457055257834
 20
487.4679370652615
 30
0.0
 10
124.9442339799356
 20
488.8950948126524
 30
0.0
 10
134.4433868600201
 20
491.2841547982674
 30
0.0
 10
139.7104642118422
 20
493.7511211190687
 30
0.0
 10
141.3925092370275
 20
494.8270137584419
 30
0.0
  0
SPLINE
  5
131
330
1F
100
AcDbEntity
  8
Make2D$可见线$普通线
100
AcDbSpline
210
0.0
220
0.0
230
1.0
 70
     8
 71
     3
 72
    12
 73
     8
 74
     0
 42
0.000000001
 43
0.0000000001
 12
1.0
 22
0.0
 32
0.0
 13
1.0
 23
0.0
 33
0.0
 40
0.0000533492563489
 40
0.0000533492563489
 40
0.0000533492563489
 40
0.0000533492563489
 40
19.90061061165469
 40
41.46322532982313
 40
52.2444632103598
 40
63.02609606448149
 40
68.58312523597158
 40
68.58312523597158
 40
68.58312523597158
 40
68.58312523597158
 10
90.37651820522069
 20
484.4022100060623
 30
0.0
 10
97.05424773601713
 20
484.4015850690518
 30
0.0
 10
110.9669376052978
 20
485.0883854664887
 30
0.0
 10
125.9304378433262
 20
487.6312733940186
 30
0.0
 10
135.1021572925494
 20
490.553911086181
 30
0.0
 10
139.3272266748901
 20
492.6539196230365
 30
0.0
 10
141.0736554094862
 20
494.0009911589888
 30
0.0
 10
141.5733110035555
 20
494.4659782091095
 30
0.0
  0
SPLINE
  5
132
330
1F
100
AcDbEntity
  8
Make2D$可见线$普通线
100
AcDbSpline
210
0.0
220
0.0
230
1.0
 70
     8
 71
     3
 72
    10
 73
     6
 74
     0
 42
0.000000001
 43
0.0000000001
 12
1.0
 22
0.0
 32
0.0
 13
1.0
 23
0.0
 33
0.0
 40
293.7552628595329
 40
293.7552628595329
 40
293.7552628595329
 40
293.7552628595329
 40
301.024739838878
 40
311.8063011981964
 40
331.7068652010312
 40
331.7068652010312
 40
331.7068652010312
 40
331.7068652010312
 10
55.37613156425438
 20
487.8059330293234
 30
0.0
 10
57.21272893656126
 20
487.3904358709826
 30
0.0
 10
62.04909850238079
 20
486.44006675225
 30
0.0
 10
73.40343005217734
 20
484.9099435835816
 30
0.0
 10
83.69888266744557
 20
484.4015046323547
 30
0.0
 10
90.37651820522069
 20
484.4022100060623
 30
0.0
  0
ARC
  5
133
330
1F
100
AcDbEntity
  8
Make2D$可见线$普通线
100
AcDbCircle
 10
133.8569293461231
 20
506.2215408114713
 30
0.0
 40
13.86212324802495
100
AcDbArc
 50
302.2631211699422
 51
312.8333136382129
  0
SPLINE
  5
134
330
1F
100
AcDbEntity
  8
Make2D$可见线$普通线
100
AcDbSpline
210
0.0
220
0.0
230
1.0
 70
     8
 71
     3
 72
    11
 73
     7
 74
     0
 42
0.000000001
 43
0.0000000001
 12
1.0
 22
0.0
 32
0.0
 13
1.0
 23
0.0
 33
0.0
 40
239.9851360995374
 40
239.9851360995374
 40
239.9851360995374
 40
239.9851360995374
 40
244.1174796401027
 40
255.4888779129186
 40
266.6104065906592
 40
277.6985821174619
 40
277.6985821174619
 40
277.6985821174619
 40
277.6985821174619
 10
55.37613156260409
 20
488.8755845545386
 30
0.0
 10
56.44369559196799
 20
488.6469406037708
 30
0.0
 10
60.57450065374947
 20
487.8282862626536
 30
0.0
 10
68.4033076781088
 20
486.6878062855146
 30
0.0
 10
79.2059005382269
 20
485.8059504535653
 30
0.0
 10
86.6561918091628
 20
485.6100225193717
 30
0.0
 10
90.37651820522069
 20
485.6111236894694
 30
0.0
  0
SPLINE
  5
135
330
1F
100
AcDbEntity
  8
Make2D$可见线$普通线
100
AcDbSpline
210
0.0
220
0.0
230
1.0
 70
     8
 71
     3
 72
    13
 73
     9
 74
     0
 42
0.000000001
 43
0.0000000001
 12
1.0
 22
0.0
 32
0.0
 13
1.0
 23
0.0
 33
0.0
 40
0.0000209084301885
 40
0.0000209084301885
 40
0.0000209084301885
 40
0.0000209084301885
 40
5.881437498205274
 40
19.2584025092516
 40
25.9467885380349
 40
32.63548240971927
 40
51.36159100838854
 40
64.73761921893963
 40
64.73761921893963
 40
64.73761921893963
 40
64.73761921893963
 10
90.37651820522069
 20
485.6111236894694
 30
0.0
 10
92.35045018267391
 20
485.6102255254352
 30
0.0
 10
98.80939982025362
 20
485.7014915135139
 30
0.0
 10
107.3510779489644
 20
486.2150767366903
 30
0.0
 10
115.5784326963119
 20
487.1602281464303
 30
0.0
 10
124.851972460146
 20
488.5834699450182
 30
0.0
 10
134.3263571888976
 20
490.9663612085914
 30
0.0
 10
139.5789183139302
 20
493.4265781830341
 30
0.0
 10
141.2566441285667
 20
494.4996517963884
 30
0.0
  0
ARC
  5
136
330
1F
100
AcDbEntity
  8
Make2D$可见线$普通线
100
AcDbCircle
 10
140.9478635637595
 20
494.8196801076169
 30
0.0
 40
0.4447061470121177
100
AcDbArc
 50
313.9752376207368
 51
0.9449077577715911
  0
LINE
  5
137
330
1F
100
AcDbEntity
  8
Make2D$可见线$普通线
100
AcDbLine
 10
90.376462380259
 20
485.9147280146246
 30
0.0
 11
90.37651820522069
 21
485.6111236894694
 31
0.0
  0
SPLINE
  5
138
330
1F
100
AcDbEntity
  8
Make2D$可见线$普通线
100
AcDbSpline
210
0.0
220
0.0
230
1.0
 70
    12
 71
     2
 72
     8
 73
     5
 74
     0
 42
0.000000001
 43
0.0000000001
 12
1.0
 22
0.0
 32
0.0
 13
1.0
 23
0.0
 33
0.0
 40
18.84907969469842
 40
18.84907969469842
 40
18.84907969469842
 40
37.69815938939684
 40
37.69815938939684
 40
56.54723908409525
 40
56.54723908409525
 40
56.54723908409525
 10
77.87653533825392
 20
609.2534536622132
 30
0.0
 41
1.0
 10
77.87653533825409
 20
621.3275264908311
 30
0.0
 41
0.7071067811865476
 10
90.37653533825392
 20
621.3275264908301
 30
0.0
 41
1.0
 10
102.876535338254
 20
621.3275264908311
 30
0.0
 41
0.7071067811865476
 10
102.8765353382539
 20
609.2534536622132
 30
0.0
 41
1.0
  0
SPLINE
  5
139
330
1F
100
AcDbEntity
  8
Make2D$可见线$普通线
100
AcDbSpline
210
0.0
220
0.0
230
1.0
 70
    12
 71
     2
 72
     8
 73
     5
 74
     0
 42
0.000000001
 43
0.0000000001
 12
1.0
 22
0.0
 32
0.0
 13
1.0
 23
0.0
 33
0.0
 40
19.10341258987076
 40
19.10341258987076
 40
19.10341258987076
 40
37.69815938939699
 40
37.69815938939699
 40
56.29267731006823
 40
56.29267731006823
 40
56.29267731006823
 10
77.87882902675183
 20
529.3466807808998
 30
0.0
 41
0.9922025640639305
 10
78.11373653007512
 20
526.1734172881966
 30
0.0
 41
0.711058824550134
 10
90.37653533825392
 20
526.1734172881955
 30
0.0
 41
1.0
 10
102.6391218721892
 20
526.1734172881967
 30
0.0
 41
0.7110623810667197
 10
102.8742375036051
 20
529.3466247976428
 30
0.0
 41
0.9921956430711516
  0
SPLINE
  5
13A
330
1F
100
AcDbEntity
  8
Make2D$可见线$普通线
100
AcDbSpline
210
0.0
220
0.0
230
1.0
 70
    12
 71
     2
 72
     8
 73
     5
 74
     0
 42
0.000000001
 43
0.0000000001
 12
1.0
 22
0.0
 32
0.0
 13
1.0
 23
0.0
 33
0.0
 40
19.63495408493621
 40
19.63495408493621
 40
19.63495408493621
 40
39.26990816987242
 40
39.26990816987242
 40
58.90486225480862
 40
58.90486225480862
 40
58.90486225480862
 10
102.8765353382539
 20
574.1834730509472
 30
0.0
 41
1.0
 10
102.876535338254
 20
586.2575458795644
 30
0.0
 41
0.7071067811865476
 10
90.37653533825392
 20
586.257545879564
 30
0.0
 41
1.0
 10
77.87653533825392
 20
586.2575458795644
 30
0.0
 41
0.7071067811865476
 10
77.87653533825392
 20
574.1834730509472
 30
0.0
 41
1.0
  0
SPLINE
  5
13B
330
1F
100
AcDbEntity
  8
Make2D$可见线$普通线
100
AcDbSpline
210
0.0
220
0.0
230
1.0
 70
    12
 71
     2
 72
     8
 73
     5
 74
     0
 42
0.000000001
 43
0.0000000001
 12
1.0
 22
0.0
 32
0.0
 13
1.0
 23
0.0
 33
0.0
 40
19.63495408493621
 40
19.63495408493621
 40
19.63495408493621
 40
39.26990816987242
 40
39.26990816987242
 40
58.90486225480862
 40
58.90486225480862
 40
58.90486225480862
 10
102.8765353382539
 20
531.317402552265
 30
0.0
 41
1.0
 10
102.876535338254
 20
528.0821644884953
 30
0.0
 41
0.7071067811865476
 10
90.37653533825392
 20
528.082164488494
 30
0.0
 41
1.0
 10
77.87653533825392
 20
528.0821644884953
 30
0.0
 41
0.7071067811865476
 10
77.87653533825392
 20
531.317402552265
 30
0.0
 41
1.0
  0
ARC
  5
13C
330
1F
100
AcDbEntity
  8
Make2D$可见线$普通线
100
AcDbCircle
 10
45.37613382451315
 20
328.9952483602906
 30
0.0
 40
12.59440030140201
100
AcDbArc
 50
142.561267325385
 51
180.0000000000021
  0
ARC
  5
13D
330
1F
100
AcDbEntity
  8
Make2D$可见线$普通线
100
AcDbCircle
 10
45.37613382451423
 20
328.9952483602902
 30
0.0
 40
12.59440030140262
100
AcDbArc
 50
322.5612333786889
 51
37.4387666213118
  0
ARC
  5
13E
330
1F
100
AcDbEntity
  8
Make2D$可见线$普通线
100
AcDbCircle
 10
45.37613382451579
 20
328.9952483602906
 30
0.0
 40
12.59440030140465
100
AcDbArc
 50
180.0000000000021
 51
217.4387326746211
  0
ARC
  5
13F
330
1F
100
AcDbEntity
  8
Make2D$可见线$普通线
100
AcDbCircle
 10
45.37613382451593
 20
328.9952483602896
 30
0.0
 40
11.49604749120305
100
AcDbArc
 50
150.4428838464247
 51
179.9999999999972
  0
ARC
  5
140
330
1F
100
AcDbEntity
  8
Make2D$可见线$普通线
100
AcDbCircle
 10
45.3761338245136
 20
328.9952483602904
 30
0.0
 40
11.49604749120102
100
AcDbArc
 50
330.4428380143561
 51
29.55716198563906
  0
ARC
  5
141
330
1F
100
AcDbEntity
  8
Make2D$可见线$普通线
100
AcDbCircle
 10
45.37613382451121
 20
328.9952483602893
 30
0.0
 40
11.49604749119835
100
AcDbArc
 50
179.9999999999957
 51
209.5571161483554
  0
LINE
  5
142
330
1F
100
AcDbEntity
  8
Make2D$可见线$普通线
100
AcDbLine
 10
15.72317046489835
 20
604.8754329042238
 30
0.0
 11
15.81959364005062
 21
604.8734278614231
 31
0.0
  0
ARC
  5
143
330
1F
100
AcDbEntity
  8
Make2D$可见线$普通线
100
AcDbCircle
 10
15.61460339774567
 20
599.7594739862425
 30
0.0
 40
0.2239456295816709
100
AcDbArc
 50
23.74349615147093
 51
59.85392259907218
  0
LINE
  5
144
330
1F
100
AcDbEntity
  8
Make2D$可见线$普通线
100
AcDbLine
 10
15.62688643651722
 20
604.8728187583772
 30
0.0
 11
15.72316810336694
 21
604.8753366308417
 31
0.0
  0
ARC
  5
145
330
1F
100
AcDbEntity
  8
Make2D$可见线$普通线
100
AcDbCircle
 10
15.82215813698615
 20
599.7772376415508
 30
0.0
 40
0.1999499551782833
100
AcDbArc
 50
118.3956932144306
 51
166.5243533106515
  0
ARC
  5
146
330
1F
100
AcDbEntity
  8
Make2D$可见线$普通线
100
AcDbCircle
 10
-14.62384969365814
 20
627.9703413488912
 30
0.0
 40
2.000027459898049
100
AcDbArc
 50
194.1271117999948
 51
269.7372782575225
  0
ARC
  5
147
330
1F
100
AcDbEntity
  8
Make2D$可见线$普通线
100
AcDbCircle
 10
-14.62004353719895
 20
627.9684025711346
 30
0.0
 40
2.003651615783281
100
AcDbArc
 50
179.9459927576776
 51
194.0467722184418
  0
ARC
  5
148
330
1F
100
AcDbEntity
  8
Make2D$可见线$普通线
100
AcDbCircle
 10
-44.62388018064652
 20
627.9703403189346
 30
0.0
 40
2.000026299720336
100
AcDbArc
 50
270.2058342851298
 51
345.8729102608042
  0
LINE
  5
149
330
1F
100
AcDbEntity
  8
Make2D$可见线$普通线
100
AcDbLine
 10
-14.62386541850856
 20
625.9702912676518
 30
0.0
 11
38.47714539693823
 21
625.9702912676518
 31
0.0
  0
LINE
  5
14A
330
1F
100
AcDbEntity
  8
Make2D$可见线$普通线
100
AcDbLine
 10
52.27511772089156
 20
625.9702912676516
 30
0.0
 11
92.36031930743798
 21
625.9702912676518
 31
0.0
  0
LINE
  5
14B
330
1F
100
AcDbEntity
  8
Make2D$可见线$普通线
100
AcDbLine
 10
133.3761285235489
 20
628.7239878766568
 30
0.0
 11
133.3761285235489
 21
647.9702910419539
 31
0.0
  0
LINE
  5
14C
330
1F
100
AcDbEntity
  8
Make2D$可见线$普通线
100
AcDbLine
 10
107.3761285235489
 20
628.2339024713931
 30
0.0
 11
107.376128523549
 21
647.970291041954
 31
0.0
  0
LINE
  5
14D
330
1F
100
AcDbEntity
  8
Make2D$可见线$普通线
100
AcDbLine
 10
-16.62386540571947
 20
627.970291267655
 30
0.0
 11
-16.62386540571947
 21
647.970291041954
 31
0.0
  0
LINE
  5
14E
330
1F
100
AcDbEntity
  8
Make2D$可见线$普通线
100
AcDbLine
 10
-42.62386540571947
 20
627.9702912676548
 30
0.0
 11
-42.62386540571947
 21
647.970291041954
 31
0.0
  0
LINE
  5
14F
330
1F
100
AcDbEntity
  8
Make2D$可见线$普通线
100
AcDbLine
 10
136.4904610155038
 20
590.8241115242218
 30
0.0
 11
136.4904610155038
 21
589.8319863403106
 31
0.0
  0
LINE
  5
150
330
1F
100
AcDbEntity
  8
Make2D$可见线$普通线
100
AcDbLine
 10
136.4904610155038
 20
589.8242423229491
 30
0.0
 11
136.4904610155037
 21
589.519257711162
 31
0.0
  0
LINE
  5
151
330
1F
100
AcDbEntity
  8
Make2D$可见线$普通线
100
AcDbLine
 10
136.4904610155037
 20
589.5092311428109
 30
0.0
 11
136.4904610155038
 21
589.2157333690482
 31
0.0
  0
LINE
  5
152
330
1F
100
AcDbEntity
  8
Make2D$可见线$普通线
100
AcDbLine
 10
136.4904610155036
 20
589.2035789524796
 30
0.0
 11
136.4904610155036
 21
588.921541956543
 31
0.0
  0
LINE
  5
153
330
1F
100
AcDbEntity
  8
Make2D$可见线$普通线
100
AcDbLine
 10
136.4904610155037
 20
588.9074175422796
 30
0.0
 11
136.4904610155038
 21
588.6368121162209
 31
0.0
  0
LINE
  5
154
330
1F
100
AcDbEntity
  8
Make2D$可见线$普通线
100
AcDbLine
 10
136.490461015504
 20
588.6208787212624
 30
0.0
 11
136.4904610155038
 21
588.361672490656
 31
0.0
  0
LINE
  5
155
330
1F
100
AcDbEntity
  8
Make2D$可见线$普通线
100
AcDbLine
 10
136.4904610155036
 20
588.3440942984716
 30
0.0
 11
136.4904610155036
 21
588.0962517224225
 31
0.0
  0
LINE
  5
156
330
1F
100
AcDbEntity
  8
Make2D$可见线$普通线
100
AcDbLine
 10
136.490461015504
 20
588.0771960829388
 30
0.0
 11
136.4904610155038
 21
587.8406784540947
 31
0.0
  0
LINE
  5
157
330
1F
100
AcDbEntity
  8
Make2D$可见线$普通线
100
AcDbLine
 10
136.4904610155038
 20
587.8203158836814
 30
0.0
 11
136.4904610155037
 21
587.5950813282468
 31
0.0
  0
LINE
  5
158
330
1F
100
AcDbEntity
  8
Make2D$可见线$普通线
100
AcDbLine
 10
136.4904610155038
 20
587.5735855096965
 30
0.0
 11
136.4904610155035
 21
587.359588987453
 31
0.0
  0
LINE
  5
159
330
1F
100
AcDbEntity
  8
Make2D$可见线$普通线
100
AcDbLine
 10
136.490461015504
 20
587.3371367699547
 30
0.0
 11
136.4904610155038
 21
587.1343300742875
 31
0.0
  0
LINE
  5
15A
330
1F
100
AcDbEntity
  8
Make2D$可见线$普通线
100
AcDbLine
 10
136.4904610155036
 20
587.111101473389
 30
0.0
 11
136.4904610155036
 21
586.9194332313245
 31
0.0
  0
LINE
  5
15B
330
1F
100
AcDbEntity
  8
Make2D$可见线$普通线
100
AcDbLine
 10
136.4904610155035
 20
586.895611428881
 30
0.0
 11
136.4904610155036
 21
586.715027101138
 31
0.0
  0
LINE
  5
15C
330
1F
100
AcDbEntity
  8
Make2D$可见线$普通线
100
AcDbLine
 10
136.4904610155031
 20
586.6907984452406
 30
0.0
 11
136.4904610155035
 21
586.5212403263027
 31
0.0
  0
LINE
  5
15D
330
1F
100
AcDbEntity
  8
Make2D$可见线$普通线
100
AcDbLine
 10
136.4904610155037
 20
586.4967943311738
 30
0.0
 11
136.4904610155037
 21
586.3382015493927
 31
0.0
  0
LINE
  5
15E
330
1F
100
AcDbEntity
  8
Make2D$可见线$普通线
100
AcDbLine
 10
136.4904610155039
 20
586.3137309372253
 30
0.0
 11
136.4904610155035
 21
586.1660394129817
 31
0.0
  0
LINE
  5
15F
330
1F
100
AcDbEntity
  8
Make2D$可见线$普通线
100
AcDbLine
 10
136.4904610155038
 20
586.1417399851152
 30
0.0
 11
136.4904610155038
 21
586.0048825596446
 31
0.0
  0
LINE
  5
160
330
1F
100
AcDbEntity
  8
Make2D$可见线$普通线
100
AcDbLine
 10
136.4904610155036
 20
585.9809533397924
 30
0.0
 11
136.4904610155036
 21
585.8548596319552
 31
0.0
  0
LINE
  5
161
330
1F
100
AcDbEntity
  8
Make2D$可见线$普通线
100
AcDbLine
 10
136.4904610155035
 20
585.8315028056014
 30
0.0
 11
136.4904610155035
 21
585.7160992724877
 31
0.0
  0
LINE
  5
162
330
1F
100
AcDbEntity
  8
Make2D$可见线$普通线
100
AcDbLine
 10
136.4904610155038
 20
585.6935201877707
 30
0.0
 11
136.4904610155036
 21
585.5887301238165
 31
0.0
  0
LINE
  5
163
330
1F
100
AcDbEntity
  8
Make2D$可见线$普通线
100
AcDbLine
 10
136.4904610155038
 20
585.567137295378
 30
0.0
 11
136.4904610155036
 21
585.4728808285156
 31
0.0
  0
LINE
  5
164
330
1F
100
AcDbEntity
  8
Make2D$可见线$普通线
100
AcDbLine
 10
136.4904610155038
 20
585.4524859375022
 30
0.0
 11
136.4904610155038
 21
585.3686800291596
 31
0.0
  0
LINE
  5
165
330
1F
100
AcDbEntity
  8
Make2D$可见线$普通线
100
AcDbLine
 10
136.4904610155032
 20
585.3496979232225
 30
0.0
 11
136.4904610155032
 21
585.2762563683223
 31
0.0
  0
LINE
  5
166
330
1F
100
AcDbEntity
  8
Make2D$可见线$普通线
100
AcDbLine
 10
136.4904610155032
 20
585.258905061622
 30
0.0
 11
136.4904610155032
 21
585.1957384885782
 31
0.0
  0
LINE
  5
167
330
1F
100
AcDbEntity
  8
Make2D$可见线$普通线
100
AcDbLine
 10
136.4904610155035
 20
585.1802391617939
 30
0.0
 11
136.4904610155035
 21
585.1272550325012
 31
0.0
  0
LINE
  5
168
330
1F
100
AcDbEntity
  8
Make2D$可见线$普通线
100
AcDbLine
 10
136.4904610155036
 20
585.113832032874
 30
0.0
 11
136.4904610155036
 21
585.0598154842169
 31
0.0
  0
LINE
  5
169
330
1F
100
AcDbEntity
  8
Make2D$可见线$普通线
100
AcDbLine
 10
136.4904610155032
 20
585.0269059616462
 30
0.0
 11
136.4904610155036
 21
584.9698565972237
 31
0.0
  0
ARC
  5
16A
330
1F
100
AcDbEntity
  8
Make2D$可见线$普通线
100
AcDbCircle
 10
135.4907055646179
 20
584.9695903201388
 30
0.0
 40
0.9997554863460723
100
AcDbArc
 50
269.9859849408515
 51
0.0152602846581151
  0
ARC
  5
16B
330
1F
100
AcDbEntity
  8
Make2D$可见线$普通线
100
AcDbCircle
 10
-44.51580348444786
 20
624.9708468591083
 30
0.0
 40
0.9998923026692255
100
AcDbArc
 50
95.92194116685845
 51
180.0069290108401
  0
LINE
  5
16C
330
1F
100
AcDbEntity
  8
Make2D$可见线$普通线
100
AcDbLine
 10
-45.51569577980536
 20
624.9671551289185
 30
0.0
 11
-45.51569577980536
 21
624.9136765736575
 31
0.0
  0
LINE
  5
16D
330
1F
100
AcDbEntity
  8
Make2D$可见线$普通线
100
AcDbLine
 10
-45.51569577980558
 20
624.8807670510864
 30
0.0
 11
-45.51569577980536
 21
624.8267505024295
 31
0.0
  0
LINE
  5
16E
330
1F
100
AcDbEntity
  8
Make2D$可见线$普通线
100
AcDbLine
 10
-45.51569577980501
 20
624.8133275028025
 30
0.0
 11
-45.51569577980513
 21
624.7603433735098
 31
0.0
  0
LINE
  5
16F
330
1F
100
AcDbEntity
  8
Make2D$可见线$普通线
100
AcDbLine
 10
-45.51569577980479
 20
624.7448440467256
 30
0.0
 11
-45.51569577980501
 21
624.6816774736815
 31
0.0
  0
LINE
  5
170
330
1F
100
AcDbEntity
  8
Make2D$可见线$普通线
100
AcDbLine
 10
-45.51569577980536
 20
624.6643261669815
 30
0.0
 11
-45.51569577980513
 21
624.590884612081
 31
0.0
  0
LINE
  5
171
330
1F
100
AcDbEntity
  8
Make2D$可见线$普通线
100
AcDbLine
 10
-45.51569577980524
 20
624.5719025061439
 30
0.0
 11
-45.51569577980524
 21
624.4880965978014
 31
0.0
  0
LINE
  5
172
330
1F
100
AcDbEntity
  8
Make2D$可见线$普通线
100
AcDbLine
 10
-45.51569577980524
 20
624.4677017067879
 30
0.0
 11
-45.51569577980524
 21
624.3734452399254
 31
0.0
  0
LINE
  5
173
330
1F
100
AcDbEntity
  8
Make2D$可见线$普通线
100
AcDbLine
 10
-45.51569577980501
 20
624.3518524114872
 30
0.0
 11
-45.51569577980536
 21
624.2470623475328
 31
0.0
  0
LINE
  5
174
330
1F
100
AcDbEntity
  8
Make2D$可见线$普通线
100
AcDbLine
 10
-45.51569577980524
 20
624.224483262816
 30
0.0
 11
-45.51569577980524
 21
624.109079729702
 31
0.0
  0
LINE
  5
175
330
1F
100
AcDbEntity
  8
Make2D$可见线$普通线
100
AcDbLine
 10
-45.51569577980558
 20
624.0857229033484
 30
0.0
 11
-45.51569577980524
 21
623.9596291955111
 31
0.0
  0
LINE
  5
176
330
1F
100
AcDbEntity
  8
Make2D$可见线$普通线
100
AcDbLine
 10
-45.51569577980524
 20
623.935699975659
 30
0.0
 11
-45.51569577980524
 21
623.7988425501885
 31
0.0
  0
LINE
  5
177
330
1F
100
AcDbEntity
  8
Make2D$可见线$普通线
100
AcDbLine
 10
-45.51569577980524
 20
623.7745431223219
 30
0.0
 11
-45.51569577980524
 21
623.6268515980785
 31
0.0
  0
LINE
  5
178
330
1F
100
AcDbEntity
  8
Make2D$可见线$普通线
100
AcDbLine
 10
-45.51569577980467
 20
623.6023809859112
 30
0.0
 11
-45.51569577980501
 21
623.44378820413
 31
0.0
  0
LINE
  5
179
330
1F
100
AcDbEntity
  8
Make2D$可见线$普通线
100
AcDbLine
 10
-45.51569577980501
 20
623.4193422090009
 30
0.0
 11
-45.51569577980501
 21
623.249784090063
 31
0.0
  0
LINE
  5
17A
330
1F
100
AcDbEntity
  8
Make2D$可见线$普通线
100
AcDbLine
 10
-45.51569577980513
 20
623.2255554341654
 30
0.0
 11
-45.51569577980513
 21
623.0449711064225
 31
0.0
  0
LINE
  5
17B
330
1F
100
AcDbEntity
  8
Make2D$可见线$普通线
100
AcDbLine
 10
-45.51569577980501
 20
623.0211493039792
 30
0.0
 11
-45.51569577980501
 21
622.8294810619147
 31
0.0
  0
LINE
  5
17C
330
1F
100
AcDbEntity
  8
Make2D$可见线$普通线
100
AcDbLine
 10
-45.51569577980513
 20
622.8062524610161
 30
0.0
 11
-45.51569577980513
 21
622.6034457653489
 31
0.0
  0
LINE
  5
17D
330
1F
100
AcDbEntity
  8
Make2D$可见线$普通线
100
AcDbLine
 10
-45.51569577980467
 20
622.5809935478505
 30
0.0
 11
-45.51569577980501
 21
622.3669970256071
 31
0.0
  0
LINE
  5
17E
330
1F
100
AcDbEntity
  8
Make2D$可见线$普通线
100
AcDbLine
 10
-45.51569577980513
 20
622.3455012070567
 30
0.0
 11
-45.51569577980513
 21
622.1202666516222
 31
0.0
  0
LINE
  5
17F
330
1F
100
AcDbEntity
  8
Make2D$可见线$普通线
100
AcDbLine
 10
-45.51569577980513
 20
622.0999040812089
 30
0.0
 11
-45.51569577980513
 21
621.8633864523648
 31
0.0
  0
LINE
  5
180
330
1F
100
AcDbEntity
  8
Make2D$可见线$普通线
100
AcDbLine
 10
-45.51569577980536
 20
621.844330812881
 30
0.0
 11
-45.51569577980536
 21
621.5964882368319
 31
0.0
  0
LINE
  5
181
330
1F
100
AcDbEntity
  8
Make2D$可见线$普通线
100
AcDbLine
 10
-45.51569577980479
 20
621.5789100446477
 30
0.0
 11
-45.51569577980513
 21
621.3197038140411
 31
0.0
  0
LINE
  5
182
330
1F
100
AcDbEntity
  8
Make2D$可见线$普通线
100
AcDbLine
 10
-45.51569577980536
 20
621.3037704190826
 30
0.0
 11
-45.51569577980536
 21
621.0331649930238
 31
0.0
  0
LINE
  5
183
330
1F
100
AcDbEntity
  8
Make2D$可见线$普通线
100
AcDbLine
 10
-45.51569577980524
 20
621.0190405787605
 30
0.0
 11
-45.51569577980501
 21
620.737003582824
 31
0.0
  0
LINE
  5
184
330
1F
100
AcDbEntity
  8
Make2D$可见线$普通线
100
AcDbLine
 10
-45.51569577980501
 20
620.7248491662554
 30
0.0
 11
-45.51569577980513
 21
620.4313513924926
 31
0.0
  0
LINE
  5
185
330
1F
100
AcDbEntity
  8
Make2D$可见线$普通线
100
AcDbLine
 10
-45.51569577980513
 20
620.4213248241415
 30
0.0
 11
-45.51569577980513
 21
620.1163402123545
 31
0.0
  0
LINE
  5
186
330
1F
100
AcDbEntity
  8
Make2D$可见线$普通线
100
AcDbLine
 10
-45.51569577980513
 20
620.108596194993
 30
0.0
 11
-45.51569577980513
 21
619.1164710110843
 31
0.0
  0
LINE
  5
187
330
1F
100
AcDbEntity
  8
Make2D$可见线$普通线
100
AcDbLine
 10
-45.51569577980524
 20
590.8241115242241
 30
0.0
 11
-45.51569577980524
 21
589.8319863403106
 31
0.0
  0
LINE
  5
188
330
1F
100
AcDbEntity
  8
Make2D$可见线$普通线
100
AcDbLine
 10
-45.51569577980547
 20
589.8242423229491
 30
0.0
 11
-45.51569577980547
 21
589.519257711162
 31
0.0
  0
LINE
  5
189
330
1F
100
AcDbEntity
  8
Make2D$可见线$普通线
100
AcDbLine
 10
-45.51569577980524
 20
589.5092311428109
 30
0.0
 11
-45.51569577980524
 21
589.215733369048
 31
0.0
  0
LINE
  5
18A
330
1F
100
AcDbEntity
  8
Make2D$可见线$普通线
100
AcDbLine
 10
-45.51569577980547
 20
589.2035789524796
 30
0.0
 11
-45.51569577980547
 21
588.9215419565428
 31
0.0
  0
LINE
  5
18B
330
1F
100
AcDbEntity
  8
Make2D$可见线$普通线
100
AcDbLine
 10
-45.51569577980513
 20
588.9074175422796
 30
0.0
 11
-45.51569577980547
 21
588.6368121162207
 31
0.0
  0
LINE
  5
18C
330
1F
100
AcDbEntity
  8
Make2D$可见线$普通线
100
AcDbLine
 10
-45.51569577980536
 20
588.6208787212624
 30
0.0
 11
-45.51569577980536
 21
588.3616724906558
 31
0.0
  0
LINE
  5
18D
330
1F
100
AcDbEntity
  8
Make2D$可见线$普通线
100
AcDbLine
 10
-45.51569577980524
 20
588.3440942984715
 30
0.0
 11
-45.51569577980524
 21
588.0962517224224
 31
0.0
  0
LINE
  5
18E
330
1F
100
AcDbEntity
  8
Make2D$可见线$普通线
100
AcDbLine
 10
-45.51569577980524
 20
588.0771960829388
 30
0.0
 11
-45.51569577980524
 21
587.8406784540946
 31
0.0
  0
LINE
  5
18F
330
1F
100
AcDbEntity
  8
Make2D$可见线$普通线
100
AcDbLine
 10
-45.51569577980547
 20
587.8203158836814
 30
0.0
 11
-45.51569577980547
 21
587.5950813282467
 31
0.0
  0
LINE
  5
190
330
1F
100
AcDbEntity
  8
Make2D$可见线$普通线
100
AcDbLine
 10
-45.51569577980513
 20
587.5735855096966
 30
0.0
 11
-45.51569577980547
 21
587.3595889874528
 31
0.0
  0
LINE
  5
191
330
1F
100
AcDbEntity
  8
Make2D$可见线$普通线
100
AcDbLine
 10
-45.51569577980536
 20
587.3371367699547
 30
0.0
 11
-45.51569577980536
 21
587.1343300742873
 31
0.0
  0
LINE
  5
192
330
1F
100
AcDbEntity
  8
Make2D$可见线$普通线
100
AcDbLine
 10
-45.51569577980524
 20
587.1111014733889
 30
0.0
 11
-45.51569577980524
 21
586.9194332313243
 31
0.0
  0
LINE
  5
193
330
1F
100
AcDbEntity
  8
Make2D$可见线$普通线
100
AcDbLine
 10
-45.51569577980547
 20
586.8956114288811
 30
0.0
 11
-45.51569577980547
 21
586.715027101138
 31
0.0
  0
LINE
  5
194
330
1F
100
AcDbEntity
  8
Make2D$可见线$普通线
100
AcDbLine
 10
-45.51569577980547
 20
586.6907984452405
 30
0.0
 11
-45.51569577980524
 21
586.5212403263026
 31
0.0
  0
LINE
  5
195
330
1F
100
AcDbEntity
  8
Make2D$可见线$普通线
100
AcDbLine
 10
-45.51569577980524
 20
586.4967943311736
 30
0.0
 11
-45.51569577980524
 21
586.3382015493926
 31
0.0
  0
LINE
  5
196
330
1F
100
AcDbEntity
  8
Make2D$可见线$普通线
100
AcDbLine
 10
-45.51569577980524
 20
586.313730937225
 30
0.0
 11
-45.51569577980524
 21
586.1660394129817
 31
0.0
  0
LINE
  5
197
330
1F
100
AcDbEntity
  8
Make2D$可见线$普通线
100
AcDbLine
 10
-45.51569577980513
 20
586.1417399851151
 30
0.0
 11
-45.51569577980513
 21
586.0048825596446
 31
0.0
  0
LINE
  5
198
330
1F
100
AcDbEntity
  8
Make2D$可见线$普通线
100
AcDbLine
 10
-45.51569577980524
 20
585.9809533397924
 30
0.0
 11
-45.51569577980524
 21
585.854859631955
 31
0.0
  0
LINE
  5
199
330
1F
100
AcDbEntity
  8
Make2D$可见线$普通线
100
AcDbLine
 10
-45.51569577980536
 20
585.8315028056013
 30
0.0
 11
-45.51569577980524
 21
585.7160992724876
 31
0.0
  0
LINE
  5
19A
330
1F
100
AcDbEntity
  8
Make2D$可见线$普通线
100
AcDbLine
 10
-45.51569577980513
 20
585.6935201877707
 30
0.0
 11
-45.51569577980513
 21
585.5887301238164
 31
0.0
  0
LINE
  5
19B
330
1F
100
AcDbEntity
  8
Make2D$可见线$普通线
100
AcDbLine
 10
-45.51569577980524
 20
585.5671372953781
 30
0.0
 11
-45.51569577980524
 21
585.4728808285156
 31
0.0
  0
LINE
  5
19C
330
1F
100
AcDbEntity
  8
Make2D$可见线$普通线
100
AcDbLine
 10
-45.5156957798049
 20
585.4524859375024
 30
0.0
 11
-45.51569577980524
 21
585.3686800291596
 31
0.0
  0
LINE
  5
19D
330
1F
100
AcDbEntity
  8
Make2D$可见线$普通线
100
AcDbLine
 10
-45.51569577980547
 20
585.3496979232225
 30
0.0
 11
-45.51569577980547
 21
585.2762563683223
 31
0.0
  0
LINE
  5
19E
330
1F
100
AcDbEntity
  8
Make2D$可见线$普通线
100
AcDbLine
 10
-45.5156957798057
 20
585.258905061622
 30
0.0
 11
-45.51569577980536
 21
585.1957384885781
 31
0.0
  0
LINE
  5
19F
330
1F
100
AcDbEntity
  8
Make2D$可见线$普通线
100
AcDbLine
 10
-45.5156957798057
 20
585.1802391617938
 30
0.0
 11
-45.51569577980536
 21
585.1272550325011
 31
0.0
  0
LINE
  5
1A0
330
1F
100
AcDbEntity
  8
Make2D$可见线$普通线
100
AcDbLine
 10
-45.51569577980536
 20
585.1138320328741
 30
0.0
 11
-45.51569577980536
 21
585.059815484217
 31
0.0
  0
LINE
  5
1A1
330
1F
100
AcDbEntity
  8
Make2D$可见线$普通线
100
AcDbLine
 10
-45.51569577980558
 20
585.0269059616462
 30
0.0
 11
-45.51569577980536
 21
584.9698565972237
 31
0.0
  0
ARC
  5
1A2
330
1F
100
AcDbEntity
  8
Make2D$可见线$普通线
100
AcDbCircle
 10
-44.51535520315312
 20
584.9701754331884
 30
0.0
 40
1.000340627462665
100
AcDbArc
 50
180.0182617349995
 51
269.9804930394558
  0
LINE
  5
1A3
330
1F
100
AcDbEntity
  8
Make2D$可见线$普通线
100
AcDbLine
 10
-62.12386540571947
 20
678.970291041954
 30
0.0
 11
-62.12386540571947
 21
648.970291041954
 31
0.0
  0
LINE
  5
1A4
330
1F
100
AcDbEntity
  8
Make2D$可见线$普通线
100
AcDbLine
 10
-60.56604948021425
 20
679.9702910419539
 30
0.0
 11
-61.12386540572004
 21
679.9702910419542
 31
0.0
  0
ARC
  5
1A5
330
1F
100
AcDbEntity
  8
Make2D$可见线$普通线
100
AcDbCircle
 10
-61.12386540571981
 20
678.9702910419542
 30
0.0
 40
0.9999999999996589
100
AcDbArc
 50
89.99999999998046
 51
180.0000000000065
  0
LINE
  5
1A6
330
1F
100
AcDbEntity
  8
Make2D$可见线$普通线
100
AcDbLine
 10
-60.56604948021391
 20
647.9702910419542
 30
0.0
 11
-61.1238654880799
 21
647.970291041954
 31
0.0
  0
ARC
  5
1A7
330
1F
100
AcDbEntity
  8
Make2D$可见线$普通线
100
AcDbCircle
 10
-61.12386540571947
 20
648.9702910419545
 30
0.0
 40
1.000000000000227
100
AcDbArc
 50
180.0000000000261
 51
270.0
  0
LINE
  5
1A8
330
1F
100
AcDbEntity
  8
Make2D$可见线$普通线
100
AcDbLine
 10
152.8761285235489
 20
678.970291041954
 30
0.0
 11
152.8761285235489
 21
648.970291041954
 31
0.0
  0
LINE
  5
1A9
330
1F
100
AcDbEntity
  8
Make2D$可见线$普通线
100
AcDbLine
 10
151.3183125980431
 20
679.9702910419539
 30
0.0
 11
151.8761285235491
 21
679.9702910419542
 31
0.0
  0
ARC
  5
1AA
330
1F
100
AcDbEntity
  8
Make2D$可见线$普通线
100
AcDbCircle
 10
151.8761285235489
 20
678.9702910419539
 30
0.0
 40
1.000000000000057
100
AcDbArc
 50
0.0000000000065138
 51
89.99999999999675
  0
LINE
  5
1AB
330
1F
100
AcDbEntity
  8
Make2D$可见线$普通线
100
AcDbLine
 10
151.3183125980431
 20
647.9702910419542
 30
0.0
 11
151.8761286059093
 21
647.970291041954
 31
0.0
  0
ARC
  5
1AC
330
1F
100
AcDbEntity
  8
Make2D$可见线$普通线
100
AcDbCircle
 10
151.8761285235491
 20
648.970291041954
 30
0.0
 40
0.9999999999998295
100
AcDbArc
 50
269.9999999999902
 51
0.0
  0
ARC
  5
1AD
330
1F
100
AcDbEntity
  8
Make2D$可见线$普通线
100
AcDbCircle
 10
138.2656723326797
 20
585.971027625616
 30
0.0
 40
1.000016567253278
100
AcDbArc
 50
180.0098579150251
 51
269.988754392012
  0
LINE
  5
1AE
330
1F
100
AcDbEntity
  8
Make2D$可见线$普通线
100
AcDbLine
 10
137.2656557802277
 20
585.9761656351993
 30
0.0
 11
137.2656557802277
 21
586.0227804129349
 31
0.0
  0
LINE
  5
1AF
330
1F
100
AcDbEntity
  8
Make2D$可见线$普通线
100
AcDbLine
 10
137.2656557802283
 20
586.0483369883908
 30
0.0
 11
137.2656557802279
 21
586.0630169289022
 31
0.0
  0
LINE
  5
1B0
330
1F
100
AcDbEntity
  8
Make2D$可见线$普通线
100
AcDbLine
 10
137.2656557802277
 20
586.0925523260231
 30
0.0
 11
137.2656557802277
 21
586.1146256308533
 31
0.0
  0
LINE
  5
1B1
330
1F
100
AcDbEntity
  8
Make2D$可见线$普通线
100
AcDbLine
 10
137.2656557802275
 20
586.1472125522337
 30
0.0
 11
137.2656557802275
 21
586.177551359903
 31
0.0
  0
LINE
  5
1B2
330
1F
100
AcDbEntity
  8
Make2D$可见线$普通线
100
AcDbLine
 10
137.2656557802276
 20
586.8374840523711
 30
0.0
 11
137.2656557802279
 21
588.4398508481214
 31
0.0
  0
LINE
  5
1B3
330
1F
100
AcDbEntity
  8
Make2D$可见线$普通线
100
AcDbLine
 10
138.2654770569843
 20
584.9716737194748
 30
0.0
 11
155.4381878141461
 21
584.9687978255133
 31
0.0
  0
LINE
  5
1B4
330
1F
100
AcDbEntity
  8
Make2D$可见线$普通线
100
AcDbLine
 10
156.9465375898586
 20
585.1931925900006
 30
0.0
 11
157.1553302162347
 21
585.2539077317575
 31
0.0
  0
LINE
  5
1B5
330
1F
100
AcDbEntity
  8
Make2D$可见线$普通线
100
AcDbLine
 10
156.7359749003631
 20
585.1388110773644
 30
0.0
 11
156.9452312083499
 21
585.1928127052323
 31
0.0
  0
LINE
  5
1B6
330
1F
100
AcDbEntity
  8
Make2D$可见线$普通线
100
AcDbLine
 10
156.5254065879293
 20
585.0912252611145
 30
0.0
 11
156.7347927836513
 21
585.1385060149872
 31
0.0
  0
LINE
  5
1B7
330
1F
100
AcDbEntity
  8
Make2D$可见线$普通线
100
AcDbLine
 10
156.3080165046359
 20
585.0504243133387
 30
0.0
 11
156.5243543589529
 21
585.090987661023
 31
0.0
  0
LINE
  5
1B8
330
1F
100
AcDbEntity
  8
Make2D$可见线$普通线
100
AcDbLine
 10
156.0906506356465
 20
585.0164331179756
 30
0.0
 11
156.3071275979735
 21
585.0502576433395
 31
0.0
  0
LINE
  5
1B9
330
1F
100
AcDbEntity
  8
Make2D$可见线$普通线
100
AcDbLine
 10
155.8731313895831
 20
584.9959938262416
 30
0.0
 11
156.089900836994
 21
585.0163159619361
 31
0.0
  0
LINE
  5
1BA
330
1F
100
AcDbEntity
  8
Make2D$可见线$普通线
100
AcDbLine
 10
155.4385273290947
 20
584.9688167814122
 30
0.0
 11
155.8726740760148
 21
584.9959509530946
 31
0.0
  0
LINE
  5
1BB
330
1F
100
AcDbEntity
  8
Make2D$可见线$普通线
100
AcDbLine
 10
136.4904610155038
 20
590.370276786448
 30
0.0
 11
137.264826080441
 21
590.370276786448
 31
0.0
  0
ARC
  5
1BC
330
1F
100
AcDbEntity
  8
Make2D$可见线$普通线
100
AcDbCircle
 10
166.1454748653669
 20
604.9873832572625
 30
0.0
 40
19.91958714603668
100
AcDbArc
 50
359.950836736088
 51
27.87776714770344
  0
SPLINE
  5
1BD
330
1F
100
AcDbEntity
  8
Make2D$可见线$普通线
100
AcDbSpline
210
0.0
220
0.0
230
1.0
 70
    12
 71
     2
 72
    10
 73
     7
 74
     0
 42
0.000000001
 43
0.0000000001
 12
1.0
 22
0.0
 32
0.0
 13
1.0
 23
0.0
 33
0.0
 40
0.001475593229061
 40
0.001475593229061
 40
0.001475593229061
 40
24.1970813050919
 40
24.1970813050919
 40
28.79723999808697
 40
28.79723999808697
 40
38.69817749195191
 40
38.69817749195191
 40
38.69817749195191
 10
157.1567360730608
 20
585.2543559972613
 30
0.0
 41
1.0
 10
168.6827978575182
 20
588.9295068352346
 30
0.0
 41
1.0
 10
180.2088596419756
 20
592.604657673208
 30
0.0
 41
1.0
 10
182.5158114712489
 20
593.3378350751581
 30
0.0
 41
0.9269303538355186
 10
183.6631045583603
 20
595.4693355836228
 30
0.0
 41
1.0
 10
186.0689590593929
 20
599.9152060203253
 30
0.0
 41
0.9693081770691566
 10
186.0650546783229
 20
604.970291041954
 30
0.0
 41
1.0
  0
ARC
  5
1BE
330
1F
100
AcDbEntity
  8
Make2D$可见线$普通线
100
AcDbCircle
 10
-47.51340921485026
 20
623.9695544582921
 30
0.0
 40
1.000016567253164
100
AcDbArc
 50
0.0098579150250883
 51
89.98875439201603
  0
ARC
  5
1BF
330
1F
100
AcDbEntity
  8
Make2D$可见线$普通线
100
AcDbCircle
 10
-47.51340904709457
 20
585.9710341663645
 30
0.0
 40
1.000016399526134
100
AcDbArc
 50
270.011235928873
 51
359.9901324756723
  0
LINE
  5
1C0
330
1F
100
AcDbEntity
  8
Make2D$可见线$普通线
100
AcDbLine
 10
-46.51339266239836
 20
623.9573124818153
 30
0.0
 11
-46.51339266239836
 21
623.9178016709732
 31
0.0
  0
LINE
  5
1C1
330
1F
100
AcDbEntity
  8
Make2D$可见线$普通线
100
AcDbLine
 10
-46.51339266239836
 20
623.8922450955174
 30
0.0
 11
-46.51339266239836
 21
623.8775651550061
 31
0.0
  0
LINE
  5
1C2
330
1F
100
AcDbEntity
  8
Make2D$可见线$普通线
100
AcDbLine
 10
-46.51339266239836
 20
623.8480297578851
 30
0.0
 11
-46.51339266239836
 21
623.8259564530549
 31
0.0
  0
LINE
  5
1C3
330
1F
100
AcDbEntity
  8
Make2D$可见线$普通线
100
AcDbLine
 10
-46.51339266239836
 20
623.7933695316742
 30
0.0
 11
-46.51339266239836
 21
623.7630307240051
 31
0.0
  0
LINE
  5
1C4
330
1F
100
AcDbEntity
  8
Make2D$可见线$普通线
100
AcDbLine
 10
-46.51339266239836
 20
623.103098031537
 30
0.0
 11
-46.51339266239813
 21
621.5007312357868
 31
0.0
  0
LINE
  5
1C5
330
1F
100
AcDbEntity
  8
Make2D$可见线$普通线
100
AcDbLine
 10
-46.51339266239825
 20
588.5582957458663
 30
0.0
 11
-46.51339266239836
 21
586.78966471085
 31
0.0
  0
LINE
  5
1C6
330
1F
100
AcDbEntity
  8
Make2D$可见线$普通线
100
AcDbLine
 10
-46.51339266239859
 20
586.1775490430292
 30
0.0
 11
-46.51339266239859
 21
586.1472125521993
 31
0.0
  0
LINE
  5
1C7
330
1F
100
AcDbEntity
  8
Make2D$可见线$普通线
100
AcDbLine
 10
-46.51339266239859
 20
586.1146249545448
 30
0.0
 11
-46.51339266239859
 21
586.0925523259803
 31
0.0
  0
LINE
  5
1C8
330
1F
100
AcDbEntity
  8
Make2D$可见线$普通线
100
AcDbLine
 10
-46.51339266239813
 20
586.0630178810238
 30
0.0
 11
-46.51339266239847
 21
586.0483369883455
 31
0.0
  0
LINE
  5
1C9
330
1F
100
AcDbEntity
  8
Make2D$可见线$普通线
100
AcDbLine
 10
-46.51339266239847
 20
586.0227829327748
 30
0.0
 11
-46.51339266239859
 21
585.976165635306
 31
0.0
  0
LINE
  5
1CA
330
1F
100
AcDbEntity
  8
Make2D$可见线$普通线
100
AcDbLine
 10
-46.51339266239847
 20
615.0233806292247
 30
0.0
 11
-46.51339266239859
 21
615.2940597073352
 31
0.0
  0
LINE
  5
1CB
330
1F
100
AcDbEntity
  8
Make2D$可见线$普通线
100
AcDbLine
 10
-46.51339266239847
 20
616.9815461675059
 30
0.0
 11
-46.51339266239847
 21
617.1904371144805
 31
0.0
  0
LINE
  5
1CC
330
1F
100
AcDbEntity
  8
Make2D$可见线$普通线
100
AcDbLine
 10
-46.51339266239859
 20
618.7939509869816
 30
0.0
 11
-46.51339266239847
 21
618.9048105251977
 31
0.0
  0
LINE
  5
1CD
330
1F
100
AcDbEntity
  8
Make2D$可见线$普通线
100
AcDbLine
 10
-46.51339266239836
 20
623.9573124824176
 30
0.0
 11
-46.51339266239836
 21
623.9644164486707
 31
0.0
  0
LINE
  5
1CE
330
1F
100
AcDbEntity
  8
Make2D$可见线$普通线
100
AcDbLine
 10
-46.51339266239825
 20
591.0357715587105
 30
0.0
 11
-46.51339266239836
 21
591.1466310969265
 31
0.0
  0
LINE
  5
1CF
330
1F
100
AcDbEntity
  8
Make2D$可见线$普通线
100
AcDbLine
 10
-66.19427447202952
 20
624.7473894939073
 30
0.0
 11
-66.40306709840524
 21
624.6866743521506
 31
0.0
  0
LINE
  5
1D0
330
1F
100
AcDbEntity
  8
Make2D$可见线$普通线
100
AcDbLine
 10
-66.19427447202952
 20
585.1931925900006
 30
0.0
 11
-66.40306709840524
 21
585.2539077317575
 31
0.0
  0
LINE
  5
1D1
330
1F
100
AcDbEntity
  8
Make2D$可见线$普通线
100
AcDbLine
 10
-65.98371178253399
 20
624.8017710065435
 30
0.0
 11
-66.19296809052048
 21
624.7477693786758
 31
0.0
  0
LINE
  5
1D2
330
1F
100
AcDbEntity
  8
Make2D$可见线$普通线
100
AcDbLine
 10
-65.9837117825341
 20
585.1388110773646
 30
0.0
 11
-66.19296809052048
 21
585.1928127052323
 31
0.0
  0
LINE
  5
1D3
330
1F
100
AcDbEntity
  8
Make2D$可见线$普通线
100
AcDbLine
 10
-65.77314347009985
 20
624.8493568227938
 30
0.0
 11
-65.98252966582186
 21
624.8020760689209
 31
0.0
  0
LINE
  5
1D4
330
1F
100
AcDbEntity
  8
Make2D$可见线$普通线
100
AcDbLine
 10
-65.77314347009985
 20
585.0912252611143
 30
0.0
 11
-65.98252966582186
 21
585.1385060149872
 31
0.0
  0
LINE
  5
1D5
330
1F
100
AcDbEntity
  8
Make2D$可见线$普通线
100
AcDbLine
 10
-65.55575338680694
 20
624.8901577705694
 30
0.0
 11
-65.77209124112369
 21
624.8495944228852
 31
0.0
  0
LINE
  5
1D6
330
1F
100
AcDbEntity
  8
Make2D$可见线$普通线
100
AcDbLine
 10
-65.55575338680694
 20
585.0504243133387
 30
0.0
 11
-65.77209124112369
 21
585.090987661023
 31
0.0
  0
LINE
  5
1D7
330
1F
100
AcDbEntity
  8
Make2D$可见线$普通线
100
AcDbLine
 10
-65.33838751781752
 20
624.9241489659325
 30
0.0
 11
-65.55486448014426
 21
624.8903244405686
 31
0.0
  0
LINE
  5
1D8
330
1F
100
AcDbEntity
  8
Make2D$可见线$普通线
100
AcDbLine
 10
-65.33838751781764
 20
585.0164331179756
 30
0.0
 11
-65.55486448014426
 21
585.0502576433395
 31
0.0
  0
LINE
  5
1D9
330
1F
100
AcDbEntity
  8
Make2D$可见线$普通线
100
AcDbLine
 10
-65.12086827175403
 20
624.9445882576664
 30
0.0
 11
-65.33763771916483
 21
624.924266121972
 31
0.0
  0
LINE
  5
1DA
330
1F
100
AcDbEntity
  8
Make2D$可见线$普通线
100
AcDbLine
 10
-65.12086827175392
 20
584.9959938262416
 30
0.0
 11
-65.33763771916483
 21
585.0163159619361
 31
0.0
  0
LINE
  5
1DB
330
1F
100
AcDbEntity
  8
Make2D$可见线$普通线
100
AcDbLine
 10
-64.68626421126521
 20
624.9717653024959
 30
0.0
 11
-65.1204109581854
 21
624.9446311308135
 31
0.0
  0
LINE
  5
1DC
330
1F
100
AcDbEntity
  8
Make2D$可见线$普通线
100
AcDbLine
 10
-64.68626421126532
 20
584.9688167814122
 30
0.0
 11
-65.1204109581854
 21
584.9959509530946
 31
0.0
  0
LINE
  5
1DD
330
1F
100
AcDbEntity
  8
Make2D$可见线$普通线
100
AcDbLine
 10
-47.51321393915487
 20
624.9689083644333
 30
0.0
 11
-64.68592469631665
 21
624.9717842583948
 31
0.0
  0
LINE
  5
1DE
330
1F
100
AcDbEntity
  8
Make2D$可见线$普通线
100
AcDbLine
 10
-47.51321393915487
 20
584.9716737194748
 30
0.0
 11
-64.68592469631665
 21
584.9687978255133
 31
0.0
  0
LINE
  5
1DF
330
1F
100
AcDbEntity
  8
Make2D$可见线$普通线
100
AcDbLine
 10
-45.51390896574867
 20
619.5703052974601
 30
0.0
 11
-46.51256296261158
 21
619.5703052974601
 31
0.0
  0
LINE
  5
1E0
330
1F
100
AcDbEntity
  8
Make2D$可见线$普通线
100
AcDbLine
 10
-45.5139089659483
 20
590.370276786448
 30
0.0
 11
-46.51256296261158
 21
590.370276786448
 31
0.0
  0
SPLINE
  5
1E1
330
1F
100
AcDbEntity
  8
Make2D$可见线$普通线
100
AcDbSpline
210
0.0
220
0.0
230
1.0
 70
    12
 71
     2
 72
    10
 73
     7
 74
     0
 42
0.000000001
 43
0.0000000001
 12
1.0
 22
0.0
 32
0.0
 13
1.0
 23
0.0
 33
0.0
 40
0.0014755932290574
 40
0.0014755932290574
 40
0.0014755932290574
 40
24.1970813050919
 40
24.1970813050919
 40
28.79723999808698
 40
28.79723999808698
 40
38.69817749195195
 40
38.69817749195195
 40
38.69817749195195
 10
-66.40447295523143
 20
624.6862260866468
 30
0.0
 41
1.0
 10
-77.93053473968877
 20
621.0110752486735
 30
0.0
 41
1.0
 10
-89.45659652414611
 20
617.3359244107002
 30
0.0
 41
1.0
 10
-91.76354835341905
 20
616.6027470087494
 30
0.0
 41
0.9269303538356123
 10
-92.91084144053094
 20
614.4712465002855
 30
0.0
 41
1.0
 10
-95.31669594156287
 20
610.0253760635826
 30
0.0
 41
0.9693081770691873
 10
-95.31279156049342
 20
604.970291041954
 30
0.0
 41
1.0
  0
SPLINE
  5
1E2
330
1F
100
AcDbEntity
  8
Make2D$可见线$普通线
100
AcDbSpline
210
0.0
220
0.0
230
1.0
 70
    12
 71
     2
 72
    10
 73
     7
 74
     0
 42
0.000000001
 43
0.0000000001
 12
1.0
 22
0.0
 32
0.0
 13
1.0
 23
0.0
 33
0.0
 40
0.001475593229061
 40
0.001475593229061
 40
0.001475593229061
 40
24.1970813050919
 40
24.1970813050919
 40
28.797239998087
 40
28.797239998087
 40
38.69817749195197
 40
38.69817749195197
 40
38.69817749195197
 10
-66.40447295523131
 20
585.2543559972613
 30
0.0
 41
1.0
 10
-77.93053473968871
 20
588.9295068352346
 30
0.0
 41
1.0
 10
-89.45659652414611
 20
592.604657673208
 30
0.0
 41
1.0
 10
-91.76354835341938
 20
593.3378350751583
 30
0.0
 41
0.926930353835546
 10
-92.91084144053103
 20
595.4693355836226
 30
0.0
 41
1.0
 10
-95.31669594156291
 20
599.9152060203256
 30
0.0
 41
0.9693081770691899
 10
-95.31279156049344
 20
604.970291041954
 30
0.0
 41
1.0
  0
LINE
  5
1E3
330
1F
100
AcDbEntity
  8
Make2D$可见线$普通线
100
AcDbLine
 10
83.37613155640838
 20
624.4625496559577
 30
0.0
 11
83.3761315564085
 21
624.4428922491512
 31
0.0
  0
LINE
  5
1E4
330
1F
100
AcDbEntity
  8
Make2D$可见线$普通线
100
AcDbLine
 10
83.37613155640838
 20
624.4282502912909
 30
0.0
 11
83.37613155640838
 21
624.4276367719713
 31
0.0
  0
LINE
  5
1E5
330
1F
100
AcDbEntity
  8
Make2D$可见线$普通线
100
AcDbLine
 10
83.37613155640838
 20
624.3155499784057
 30
0.0
 11
83.37613155640838
 21
624.3040836259522
 31
0.0
  0
LINE
  5
1E6
330
1F
100
AcDbEntity
  8
Make2D$可见线$普通线
100
AcDbLine
 10
83.37613155640815
 20
624.2116700443826
 30
0.0
 11
83.37613155640815
 21
624.1874530937608
 31
0.0
  0
LINE
  5
1E7
330
1F
100
AcDbEntity
  8
Make2D$可见线$普通线
100
AcDbLine
 10
83.37613155640827
 20
624.1319536126327
 30
0.0
 11
83.37613155640827
 21
623.8106847002839
 31
0.0
  0
LINE
  5
1E8
330
1F
100
AcDbEntity
  8
Make2D$可见线$普通线
100
AcDbLine
 10
83.37613155640861
 20
623.0518417987258
 30
0.0
 11
83.37613155640815
 21
619.2564701000493
 31
0.0
  0
ARC
  5
1E9
330
1F
100
AcDbEntity
  8
Make2D$可见线$普通线
100
AcDbCircle
 10
82.87617254175402
 20
624.4681401756317
 30
0.0
 40
0.4999590164485124
100
AcDbArc
 50
0.0048539554925775
 51
90.00188648998467
  0
LINE
  5
1EA
330
1F
100
AcDbEntity
  8
Make2D$可见线$普通线
100
AcDbLine
 10
97.3761315564085
 20
619.2569973541338
 30
0.0
 11
97.3761315564085
 21
623.0510104541363
 31
0.0
  0
LINE
  5
1EB
330
1F
100
AcDbEntity
  8
Make2D$可见线$普通线
100
AcDbLine
 10
97.37613155640838
 20
623.8099812154319
 30
0.0
 11
97.37613155640861
 21
624.0543218510886
 31
0.0
  0
LINE
  5
1EC
330
1F
100
AcDbEntity
  8
Make2D$可见线$普通线
100
AcDbLine
 10
97.3761315564085
 20
624.0821274809484
 30
0.0
 11
97.3761315564085
 21
624.0979353231438
 31
0.0
  0
LINE
  5
1ED
330
1F
100
AcDbEntity
  8
Make2D$可见线$普通线
100
AcDbLine
 10
97.37613155640838
 20
624.2004736424975
 30
0.0
 11
97.37613155640838
 21
624.2109522745004
 31
0.0
  0
LINE
  5
1EE
330
1F
100
AcDbEntity
  8
Make2D$可见线$普通线
100
AcDbLine
 10
97.37613155640861
 20
624.3033626210226
 30
0.0
 11
97.37613155640861
 21
624.3148996275816
 31
0.0
  0
LINE
  5
1EF
330
1F
100
AcDbEntity
  8
Make2D$可见线$普通线
100
AcDbLine
 10
97.37613155640827
 20
624.4269424245149
 30
0.0
 11
97.37613155640827
 21
624.428665203488
 31
0.0
  0
ARC
  5
1F0
330
1F
100
AcDbEntity
  8
Make2D$可见线$普通线
100
AcDbCircle
 10
97.87596254286171
 20
624.4675415830388
 30
0.0
 40
0.4998309938034766
100
AcDbArc
 50
89.97784677266098
 51
180.009825936681
  0
LINE
  5
1F1
330
1F
100
AcDbEntity
  8
Make2D$可见线$普通线
100
AcDbLine
 10
104.1268064249339
 20
599.9233993821422
 30
0.0
 11
104.1268064249338
 21
588.0830624154296
 31
0.0
  0
LINE
  5
1F2
330
1F
100
AcDbEntity
  8
Make2D$可见线$普通线
100
AcDbLine
 10
104.1268064249341
 20
587.8368257914324
 30
0.0
 11
104.126806424934
 21
587.7583029444158
 31
0.0
  0
LINE
  5
1F3
330
1F
100
AcDbEntity
  8
Make2D$可见线$普通线
100
AcDbLine
 10
104.1268064249338
 20
587.4540963300901
 30
0.0
 11
104.1268064249338
 21
586.9082299339541
 31
0.0
  0
LINE
  5
1F4
330
1F
100
AcDbEntity
  8
Make2D$可见线$普通线
100
AcDbLine
 10
104.1268064249338
 20
586.6670142833689
 30
0.0
 11
104.1268064249338
 21
586.2491284052267
 31
0.0
  0
LINE
  5
1F5
330
1F
100
AcDbEntity
  8
Make2D$可见线$普通线
100
AcDbLine
 10
104.1268064249338
 20
586.0729023088943
 30
0.0
 11
104.1268064249338
 21
586.0334006862274
 31
0.0
  0
LINE
  5
1F6
330
1F
100
AcDbEntity
  8
Make2D$可见线$普通线
100
AcDbLine
 10
104.1268064249338
 20
585.7932813993827
 30
0.0
 11
104.1268064249338
 21
585.7361349181416
 31
0.0
  0
LINE
  5
1F7
330
1F
100
AcDbEntity
  8
Make2D$可见线$普通线
100
AcDbLine
 10
104.1268064249338
 20
585.6857070840308
 30
0.0
 11
104.1268064249338
 21
585.6620392518196
 31
0.0
  0
LINE
  5
1F8
330
1F
100
AcDbEntity
  8
Make2D$可见线$普通线
100
AcDbLine
 10
104.1268063910381
 20
585.537066413081
 30
0.0
 11
104.1268063275038
 21
585.5133012284356
 31
0.0
  0
LINE
  5
1F9
330
1F
100
AcDbEntity
  8
Make2D$可见线$普通线
100
AcDbLine
 10
104.126806147326
 20
588.0830624134494
 30
0.0
 11
104.126806147326
 21
587.8368257913874
 31
0.0
  0
LINE
  5
1FA
330
1F
100
AcDbEntity
  8
Make2D$可见线$普通线
100
AcDbLine
 10
104.1268061473261
 20
587.7583029444169
 30
0.0
 11
104.126806147326
 21
587.4540963301009
 31
0.0
  0
LINE
  5
1FB
330
1F
100
AcDbEntity
  8
Make2D$可见线$普通线
100
AcDbLine
 10
104.126806147326
 20
586.908229933957
 30
0.0
 11
104.1268061473262
 21
586.6670142834159
 31
0.0
  0
LINE
  5
1FC
330
1F
100
AcDbEntity
  8
Make2D$可见线$普通线
100
AcDbLine
 10
104.1268061473261
 20
586.2491284052439
 30
0.0
 11
104.126806147326
 21
586.0729023091785
 31
0.0
  0
LINE
  5
1FD
330
1F
100
AcDbEntity
  8
Make2D$可见线$普通线
100
AcDbLine
 10
104.1268061473262
 20
586.0334006861514
 30
0.0
 11
104.126806147326
 21
585.7932813995338
 31
0.0
  0
LINE
  5
1FE
330
1F
100
AcDbEntity
  8
Make2D$可见线$普通线
100
AcDbLine
 10
104.126806147326
 20
585.7361349181417
 30
0.0
 11
104.126806147326
 21
585.6857070871313
 31
0.0
  0
LINE
  5
1FF
330
1F
100
AcDbEntity
  8
Make2D$可见线$普通线
100
AcDbLine
 10
104.126806147326
 20
585.6620392506977
 30
0.0
 11
104.126806147326
 21
585.5370664191637
 31
0.0
  0
LINE
  5
200
330
1F
100
AcDbEntity
  8
Make2D$可见线$普通线
100
AcDbLine
 10
104.126806147326
 20
585.5133012284366
 30
0.0
 11
104.1268061473261
 21
585.4711344927371
 31
0.0
  0
SPLINE
  5
201
330
1F
100
AcDbEntity
  8
Make2D$可见线$普通线
100
AcDbSpline
210
0.0
220
0.0
230
1.0
 70
    28
 71
     2
 72
     6
 73
     3
 74
     0
 42
0.000000001
 43
0.0000000001
 12
1.0
 22
0.0
 32
0.0
 13
1.0
 23
0.0
 33
0.0
 40
6.70330176191263
 40
6.70330176191263
 40
6.70330176191263
 40
39.00102843294621
 40
39.00102843294621
 40
39.00102843294621
 10
75.12601530614943
 20
585.4702865339683
 30
0.0
 41
0.9166226823397253
 10
75.12601530614957
 20
585.3612870826528
 30
0.0
 41
0.7574478031701096
 10
75.12601530614938
 20
599.9231865734383
 30
0.0
 41
1.0
  0
SPLINE
  5
202
330
1F
100
AcDbEntity
  8
Make2D$可见线$普通线
100
AcDbSpline
210
0.0
220
0.0
230
1.0
 70
    12
 71
     2
 72
    10
 73
     7
 74
     0
 42
0.000000001
 43
0.0000000001
 12
1.0
 22
0.0
 32
0.0
 13
1.0
 23
0.0
 33
0.0
 40
0.0
 40
0.0
 40
0.0
 40
0.3939149993464072
 40
0.3939149993464072
 40
0.7878299986928143
 40
0.7878299986928143
 40
1.536782174322836
 40
1.536782174322836
 40
1.536782174322836
 10
104.1268061473258
 20
585.4711344927371
 30
0.0
 41
1.0
 10
104.127340198163
 20
585.2633017575246
 30
0.0
 41
0.9233220861144029
 10
103.9803300185058
 20
585.1163911108257
 30
0.0
 41
1.0
 10
103.8333198388487
 20
584.9694804641271
 30
0.0
 41
0.9233220861144029
 10
103.6254875130034
 20
584.9701552752285
 30
0.0
 41
1.0
 10
103.2510114256287
 20
584.9701371172715
 30
0.0
 41
1.0
 10
102.8765353382539
 20
584.9701189593145
 30
0.0
 41
1.0
  0
SPLINE
  5
203
330
1F
100
AcDbEntity
  8
Make2D$可见线$普通线
100
AcDbSpline
210
0.0
220
0.0
230
1.0
 70
    12
 71
     2
 72
     8
 73
     5
 74
     0
 42
0.000000001
 43
0.0000000001
 12
1.0
 22
0.0
 32
0.0
 13
1.0
 23
0.0
 33
0.0
 40
26.5485139276257
 40
26.5485139276257
 40
26.5485139276257
 40
28.79907299530994
 40
28.79907299530994
 40
29.5173928573191
 40
29.5173928573191
 40
29.5173928573191
 10
77.87653533825414
 20
584.9689067352471
 30
0.0
 41
1.0
 10
76.7512558057349
 20
584.9688521716098
 30
0.0
 41
1.0
 10
75.62597627321566
 20
584.9687976079724
 30
0.0
 41
1.0
 10
75.18848072465718
 20
584.9679730450181
 30
0.0
 41
0.7518400169689137
 10
75.13055831232778
 20
585.4016180946411
 30
0.0
 41
1.0
  0
LINE
  5
204
330
1F
100
AcDbEntity
  8
Make2D$可见线$普通线
100
AcDbLine
 10
104.1268061473263
 20
624.1823148646521
 30
0.0
 11
104.126806147326
 21
623.957635208586
 31
0.0
  0
LINE
  5
205
330
1F
100
AcDbEntity
  8
Make2D$可见线$普通线
100
AcDbLine
 10
75.12601530614938
 20
623.8063413495626
 30
0.0
 11
75.12601530614938
 21
624.4702955499397
 31
0.0
  0
LINE
  5
206
330
1F
100
AcDbEntity
  8
Make2D$可见线$普通线
100
AcDbLine
 10
104.1268061473261
 20
624.469447591171
 30
0.0
 11
104.126806147326
 21
624.3712766148567
 31
0.0
  0
LINE
  5
207
330
1F
100
AcDbEntity
  8
Make2D$可见线$普通线
100
AcDbLine
 10
104.1268061473257
 20
624.367426018134
 30
0.0
 11
104.1268061473259
 21
624.3402940349777
 31
0.0
  0
LINE
  5
208
330
1F
100
AcDbEntity
  8
Make2D$可见线$普通线
100
AcDbLine
 10
104.1268061473258
 20
624.3156411337955
 30
0.0
 11
104.1268062707046
 21
624.182314864467
 31
0.0
  0
LINE
  5
209
330
1F
100
AcDbEntity
  8
Make2D$可见线$普通线
100
AcDbLine
 10
104.1268064053028
 20
623.9576352071126
 30
0.0
 11
104.1268064249339
 21
623.8055471366671
 31
0.0
  0
LINE
  5
20A
330
1F
100
AcDbEntity
  8
Make2D$可见线$普通线
100
AcDbLine
 10
104.126806424934
 20
623.8050299527381
 30
0.0
 11
104.1268064249339
 21
599.9233993821422
 31
0.0
  0
LINE
  5
20B
330
1F
100
AcDbEntity
  8
Make2D$可见线$普通线
100
AcDbLine
 10
75.12601530614938
 20
599.9231865734383
 30
0.0
 11
75.12601530614938
 21
623.8063413495626
 31
0.0
  0
LINE
  5
20C
330
1F
100
AcDbEntity
  8
Make2D$可见线$普通线
100
AcDbLine
 10
15.8254854765031
 20
599.8496440458847
 30
0.0
 11
15.82548547650299
 21
599.8240608985143
 31
0.0
  0
LINE
  5
20D
330
1F
100
AcDbEntity
  8
Make2D$可见线$普通线
100
AcDbLine
 10
15.8254854765031
 20
585.4955771564166
 30
0.0
 11
15.82548547650299
 21
585.4739371162838
 31
0.0
  0
LINE
  5
20E
330
1F
100
AcDbEntity
  8
Make2D$可见线$普通线
100
AcDbLine
 10
15.82548519882619
 20
611.2513839158785
 30
0.0
 11
15.82548519882596
 21
624.0182026465482
 31
0.0
  0
LINE
  5
20F
330
1F
100
AcDbEntity
  8
Make2D$可见线$普通线
100
AcDbLine
 10
15.82548519882607
 20
624.2760661069018
 30
0.0
 11
15.82548521986143
 21
624.3156411337998
 31
0.0
  0
LINE
  5
210
330
1F
100
AcDbEntity
  8
Make2D$可见线$普通线
100
AcDbLine
 10
15.82548525763127
 20
624.3408261247359
 30
0.0
 11
15.82548532140117
 21
624.3674260181506
 31
0.0
  0
LINE
  5
211
330
1F
100
AcDbEntity
  8
Make2D$可见线$普通线
100
AcDbLine
 10
15.82548529116411
 20
624.4433069846315
 30
0.0
 11
15.82548535833371
 21
624.4668090861533
 31
0.0
  0
SPLINE
  5
212
330
1F
100
AcDbEntity
  8
Make2D$可见线$普通线
100
AcDbSpline
210
0.0
220
0.0
230
1.0
 70
    12
 71
     2
 72
     8
 73
     5
 74
     0
 42
0.000000001
 43
0.0000000001
 12
1.0
 22
0.0
 32
0.0
 13
1.0
 23
0.0
 33
0.0
 40
4.727117498906015
 40
4.727117498906015
 40
4.727117498906015
 40
29.3094391633529
 40
29.3094391633529
 40
29.90203775467097
 40
29.90203775467097
 40
29.90203775467097
 10
35.37613155640912
 20
584.9701552752285
 30
0.0
 41
1.0
 10
25.72141197473237
 20
584.9701552752285
 30
0.0
 41
1.0
 10
16.06669239305561
 20
584.9701552752285
 30
0.0
 41
1.0
 10
15.8361050197108
 20
585.1676908290102
 30
0.0
 41
0.9156267168765335
 10
15.82548547650316
 20
585.471134492737
 30
0.0
 41
1.0
  0
LINE
  5
213
330
1F
100
AcDbEntity
  8
Make2D$可见线$普通线
100
AcDbLine
 10
15.8254854765031
 20
585.4955771516
 30
0.0
 11
15.82548547650322
 21
585.5049313681791
 31
0.0
  0
LINE
  5
214
330
1F
100
AcDbEntity
  8
Make2D$可见线$普通线
100
AcDbLine
 10
15.82548547650308
 20
585.5814874029504
 30
0.0
 11
15.82548519882607
 21
599.9233993303766
 31
0.0
  0
LINE
  5
215
330
1F
100
AcDbEntity
  8
Make2D$可见线$普通线
100
AcDbLine
 10
15.82548547650288
 20
624.2760661068626
 30
0.0
 11
15.82548547650288
 21
624.0182026475476
 31
0.0
  0
SPLINE
  5
216
330
1F
100
AcDbEntity
  8
Make2D$可见线$普通线
100
AcDbSpline
210
0.0
220
0.0
230
1.0
 70
    12
 71
     2
 72
     8
 73
     5
 74
     0
 42
0.000000001
 43
0.0000000001
 12
1.0
 22
0.0
 32
0.0
 13
1.0
 23
0.0
 33
0.0
 40
0.0
 40
0.0
 40
0.0
 40
0.5925985913181833
 40
0.5925985913181833
 40
26.77894929397852
 40
26.77894929397852
 40
26.77894929397852
 10
15.82548547650299
 20
624.4694475911709
 30
0.0
 41
1.0
 10
15.83610501971076
 20
624.7728912548979
 30
0.0
 41
0.915626716876742
 10
16.06669239305547
 20
624.9704268086797
 30
0.0
 41
1.0
 10
27.27191889549497
 20
624.9704268086796
 30
0.0
 41
1.0
 10
38.47714539793446
 20
624.9704268086796
 30
0.0
 41
1.0
  0
LINE
  5
217
330
1F
100
AcDbEntity
  8
Make2D$可见线$普通线
100
AcDbLine
 10
15.82548519882596
 20
599.9235359036524
 30
0.0
 11
15.82548519882607
 21
611.2476158542037
 31
0.0
  0
LINE
  5
218
330
1F
100
AcDbEntity
  8
Make2D$可见线$普通线
100
AcDbLine
 10
-13.37454303450897
 20
585.4955771564169
 30
0.0
 11
-13.37454303450932
 21
585.4739371162838
 31
0.0
  0
SPLINE
  5
219
330
1F
100
AcDbEntity
  8
Make2D$可见线$普通线
100
AcDbSpline
210
0.0
220
0.0
230
1.0
 70
    28
 71
     2
 72
     6
 73
     3
 74
     0
 42
0.000000001
 43
0.0000000001
 12
1.0
 22
0.0
 32
0.0
 13
1.0
 23
0.0
 33
0.0
 40
6.70330176191263
 40
6.70330176191263
 40
6.70330176191263
 40
39.00102843294621
 40
39.00102843294621
 40
39.00102843294621
 10
15.62624780666736
 20
585.4702865339683
 30
0.0
 41
0.9166226823397253
 10
15.6262478066676
 20
585.3612870826528
 30
0.0
 41
0.7574478031701096
 10
15.62624780666738
 20
599.9231865734383
 30
0.0
 41
1.0
  0
LINE
  5
21A
330
1F
100
AcDbEntity
  8
Make2D$可见线$普通线
100
AcDbLine
 10
-13.37454303450943
 20
585.4955771516
 30
0.0
 11
-13.37454303450932
 21
585.504931368179
 31
0.0
  0
LINE
  5
21B
330
1F
100
AcDbEntity
  8
Make2D$可见线$普通线
100
AcDbLine
 10
-13.37454303450908
 20
585.5814874029506
 30
0.0
 11
-13.37454331211711
 21
599.9233993821422
 31
0.0
  0
LINE
  5
21C
330
1F
100
AcDbEntity
  8
Make2D$可见线$普通线
100
AcDbLine
 10
-13.37454303450932
 20
624.2709748844857
 30
0.0
 11
-13.3745430345092
 21
624.0182024521732
 31
0.0
  0
LINE
  5
21D
330
1F
100
AcDbEntity
  8
Make2D$可见线$普通线
100
AcDbLine
 10
15.62624780666738
 20
623.8063413495626
 30
0.0
 11
15.62624780666738
 21
624.4702955499397
 31
0.0
  0
LINE
  5
21E
330
1F
100
AcDbEntity
  8
Make2D$可见线$普通线
100
AcDbLine
 10
-13.37454331211711
 20
623.805547136667
 30
0.0
 11
-13.37454331211711
 21
624.0182024511738
 31
0.0
  0
LINE
  5
21F
330
1F
100
AcDbEntity
  8
Make2D$可见线$普通线
100
AcDbLine
 10
-13.37454331211711
 20
624.2709748846603
 30
0.0
 11
-13.3745432910913
 21
624.3156411337961
 31
0.0
  0
LINE
  5
220
330
1F
100
AcDbEntity
  8
Make2D$可见线$普通线
100
AcDbLine
 10
-13.37454325333704
 20
624.3408259260463
 30
0.0
 11
-13.37454318958783
 21
624.367426018244
 31
0.0
  0
LINE
  5
221
330
1F
100
AcDbEntity
  8
Make2D$可见线$普通线
100
AcDbLine
 10
-13.37454302451533
 20
624.4115568743281
 30
0.0
 11
-13.37454303450909
 21
624.4694475911712
 31
0.0
  0
SPLINE
  5
222
330
1F
100
AcDbEntity
  8
Make2D$可见线$普通线
100
AcDbSpline
210
0.0
220
0.0
230
1.0
 70
    12
 71
     2
 72
    12
 73
     9
 74
     0
 42
0.000000001
 43
0.0000000001
 12
1.0
 22
0.0
 32
0.0
 13
1.0
 23
0.0
 33
0.0
 40
0.0
 40
0.0
 40
0.0
 40
0.3939149993464034
 40
0.3939149993464034
 40
0.7878299986928068
 40
0.7878299986928068
 40
28.78734127139644
 40
28.78734127139644
 40
29.50566113340576
 40
29.50566113340576
 40
29.50566113340576
 10
-13.37454303450909
 20
624.4694475911712
 30
0.0
 41
1.0
 10
-13.37507708534628
 20
624.677280326384
 30
0.0
 41
0.9233220861143535
 10
-13.22806690568912
 20
624.8241909730825
 30
0.0
 41
1.0
 10
-13.08105672603195
 20
624.9711016197815
 30
0.0
 41
0.9233220861143535
 10
-12.8732244001867
 20
624.9704268086796
 30
0.0
 41
1.0
 10
1.126531219707035
 20
624.9711056423075
 30
0.0
 41
1.0
 10
15.12628683960077
 20
624.9717844759356
 30
0.0
 41
1.0
 10
15.56378238815944
 20
624.9726090388903
 30
0.0
 41
0.7518400169687255
 10
15.62170480048897
 20
624.5389639892671
 30
0.0
 41
1.0
  0
LINE
  5
223
330
1F
100
AcDbEntity
  8
Make2D$可见线$普通线
100
AcDbLine
 10
15.62624780666738
 20
599.9231865734383
 30
0.0
 11
15.62624780666738
 21
623.8063413495626
 31
0.0
  0
LINE
  5
224
330
1F
100
AcDbEntity
  8
Make2D$可见线$普通线
100
AcDbLine
 10
-13.37454331211711
 20
599.9235379634656
 30
0.0
 11
-13.374543312117
 21
623.8050299527379
 31
0.0
  0
LINE
  5
225
330
1F
100
AcDbEntity
  8
Make2D$可见线$普通线
100
AcDbLine
 10
74.92406246547785
 20
614.9705286337237
 30
0.0
 11
75.12601530614927
 21
614.9705286337237
 31
0.0
  0
LINE
  5
226
330
1F
100
AcDbEntity
  8
Make2D$可见线$普通线
100
AcDbLine
 10
75.12601530614961
 20
594.9700534501842
 30
0.0
 11
74.92406246547819
 21
594.9700534501844
 31
0.0
  0
LINE
  5
227
330
1F
100
AcDbEntity
  8
Make2D$可见线$普通线
100
AcDbLine
 10
74.92677791399069
 20
599.9233993303766
 30
0.0
 11
74.92677791399058
 21
588.0830622422186
 31
0.0
  0
LINE
  5
228
330
1F
100
AcDbEntity
  8
Make2D$可见线$普通线
100
AcDbLine
 10
74.92677791399058
 20
587.8368257914324
 30
0.0
 11
74.92677791399058
 21
587.7583027678734
 31
0.0
  0
LINE
  5
229
330
1F
100
AcDbEntity
  8
Make2D$可见线$普通线
100
AcDbLine
 10
74.92677791399058
 20
587.4540961504274
 30
0.0
 11
74.92677791399058
 21
586.9082297486923
 31
0.0
  0
LINE
  5
22A
330
1F
100
AcDbEntity
  8
Make2D$可见线$普通线
100
AcDbLine
 10
74.92677791399058
 20
586.6670140956329
 30
0.0
 11
74.92677791399058
 21
586.2491282132041
 31
0.0
  0
LINE
  5
22B
330
1F
100
AcDbEntity
  8
Make2D$可见线$普通线
100
AcDbLine
 10
74.92677791399058
 20
586.0729021150644
 30
0.0
 11
74.92677791399058
 21
586.0334006862274
 31
0.0
  0
LINE
  5
22C
330
1F
100
AcDbEntity
  8
Make2D$可见线$普通线
100
AcDbLine
 10
74.92677791399058
 20
585.793281202685
 30
0.0
 11
74.92677791399058
 21
585.7361349181416
 31
0.0
  0
LINE
  5
22D
330
1F
100
AcDbEntity
  8
Make2D$可见线$普通线
100
AcDbLine
 10
74.92677791399069
 20
585.6857068862295
 30
0.0
 11
74.92677791399058
 21
585.6620392518195
 31
0.0
  0
LINE
  5
22E
330
1F
100
AcDbEntity
  8
Make2D$可见线$普通线
100
AcDbLine
 10
74.92677788006108
 20
585.5370662154253
 30
0.0
 11
74.92677781650195
 21
585.5133012284356
 31
0.0
  0
LINE
  5
22F
330
1F
100
AcDbEntity
  8
Make2D$可见线$普通线
100
AcDbLine
 10
74.92677763631389
 20
588.0830622402361
 30
0.0
 11
74.92677763631377
 21
587.8368257913874
 31
0.0
  0
LINE
  5
230
330
1F
100
AcDbEntity
  8
Make2D$可见线$普通线
100
AcDbLine
 10
74.92677763631377
 20
587.7583027678742
 30
0.0
 11
74.92677763631377
 21
587.4540961504382
 31
0.0
  0
LINE
  5
231
330
1F
100
AcDbEntity
  8
Make2D$可见线$普通线
100
AcDbLine
 10
74.92677763631366
 20
586.9082297486952
 30
0.0
 11
74.92677763631377
 21
586.6670140956799
 31
0.0
  0
LINE
  5
232
330
1F
100
AcDbEntity
  8
Make2D$可见线$普通线
100
AcDbLine
 10
74.92677763631366
 20
586.2491282132216
 30
0.0
 11
74.92677763631377
 21
586.0729021153488
 31
0.0
  0
LINE
  5
233
330
1F
100
AcDbEntity
  8
Make2D$可见线$普通线
100
AcDbLine
 10
74.92677763631389
 20
586.0334006861515
 30
0.0
 11
74.92677763631377
 21
585.7932812028362
 31
0.0
  0
LINE
  5
234
330
1F
100
AcDbEntity
  8
Make2D$可见线$普通线
100
AcDbLine
 10
74.92677763631389
 20
585.7361349181419
 30
0.0
 11
74.92677763631377
 21
585.68570688933
 31
0.0
  0
LINE
  5
235
330
1F
100
AcDbEntity
  8
Make2D$可见线$普通线
100
AcDbLine
 10
74.92677763631389
 20
585.5133012284366
 30
0.0
 11
74.92677763631389
 21
585.4711344927371
 31
0.0
  0
SPLINE
  5
236
330
1F
100
AcDbEntity
  8
Make2D$可见线$普通线
100
AcDbSpline
210
0.0
220
0.0
230
1.0
 70
    12
 71
     2
 72
     8
 73
     5
 74
     0
 42
0.000000001
 43
0.0000000001
 12
1.0
 22
0.0
 32
0.0
 13
1.0
 23
0.0
 33
0.0
 40
3.123088463658901
 40
3.123088463658901
 40
3.123088463658901
 40
29.3094391633529
 40
29.3094391633529
 40
29.90203775467105
 40
29.90203775467105
 40
29.90203775467105
 10
52.27511772088718
 20
624.9704268086796
 30
0.0
 41
1.0
 10
63.48034422032426
 20
624.9704268086796
 30
0.0
 41
1.0
 10
74.68557071976133
 20
624.9704268086796
 30
0.0
 41
1.0
 10
74.91615809310596
 20
624.7728912548978
 30
0.0
 41
0.9156267168767029
 10
74.92677763631373
 20
624.4694475911709
 30
0.0
 41
1.0
  0
SPLINE
  5
237
330
1F
100
AcDbEntity
  8
Make2D$可见线$普通线
100
AcDbSpline
210
0.0
220
0.0
230
1.0
 70
    12
 71
     2
 72
     8
 73
     5
 74
     0
 42
0.000000001
 43
0.0000000001
 12
1.0
 22
0.0
 32
0.0
 13
1.0
 23
0.0
 33
0.0
 40
0.0
 40
0.0
 40
0.0
 40
0.5925985913180234
 40
0.5925985913180234
 40
25.1749202557643
 40
25.1749202557643
 40
25.1749202557643
 10
74.92677763631377
 20
585.471134492737
 30
0.0
 41
1.0
 10
74.91615809310595
 20
585.1676908290102
 30
0.0
 41
0.9156267168767023
 10
74.68557071976124
 20
584.9701552752285
 30
0.0
 41
1.0
 10
65.03085113808493
 20
584.9701552752285
 30
0.0
 41
1.0
 10
55.37613155640861
 20
584.9701552752285
 30
0.0
 41
1.0
  0
LINE
  5
238
330
1F
100
AcDbEntity
  8
Make2D$可见线$普通线
100
AcDbLine
 10
74.92677763631389
 20
624.4528263271396
 30
0.0
 11
74.92677763631389
 21
624.4398323264647
 31
0.0
  0
LINE
  5
239
330
1F
100
AcDbEntity
  8
Make2D$可见线$普通线
100
AcDbLine
 10
74.92677763631366
 20
624.182314864652
 30
0.0
 11
74.92677763631377
 21
623.9576361635246
 31
0.0
  0
LINE
  5
23A
330
1F
100
AcDbEntity
  8
Make2D$可见线$普通线
100
AcDbLine
 10
74.92677763631389
 20
624.469447591171
 30
0.0
 11
74.92677763631411
 21
624.4528263245595
 31
0.0
  0
LINE
  5
23B
330
1F
100
AcDbEntity
  8
Make2D$可见线$普通线
100
AcDbLine
 10
74.92677763631377
 20
624.4398323266755
 30
0.0
 11
74.926777636314
 21
624.3712766148566
 31
0.0
  0
LINE
  5
23C
330
1F
100
AcDbEntity
  8
Make2D$可见线$普通线
100
AcDbLine
 10
74.926777636314
 20
624.3674260181341
 30
0.0
 11
74.92677763631377
 21
624.3402940349777
 31
0.0
  0
LINE
  5
23D
330
1F
100
AcDbEntity
  8
Make2D$可见线$普通线
100
AcDbLine
 10
74.92677763631374
 20
624.3156411337955
 30
0.0
 11
74.92677775972334
 21
624.1823148644669
 31
0.0
  0
LINE
  5
23E
330
1F
100
AcDbEntity
  8
Make2D$可见线$普通线
100
AcDbLine
 10
74.92677789435433
 20
623.9576361620518
 30
0.0
 11
74.9267779139907
 21
611.2513839158785
 31
0.0
  0
LINE
  5
23F
330
1F
100
AcDbEntity
  8
Make2D$可见线$普通线
100
AcDbLine
 10
74.92677791399058
 20
611.2476158542037
 30
0.0
 11
74.92677791399069
 21
599.9233993303765
 31
0.0
  0
SPLINE
  5
240
330
1F
100
AcDbEntity
  8
Make2D$可见线$普通线
100
AcDbSpline
210
0.0
220
0.0
230
1.0
 70
    12
 71
     3
 72
    40
 73
    36
 74
     0
 42
0.000000001
 43
0.0000000001
 12
1.0
 22
0.0
 32
0.0
 13
1.0
 23
0.0
 33
0.0
 40
0.0
 40
0.0
 40
0.0
 40
0.0
 40
1.512631264528806
 40
1.512631264528806
 40
1.512631264528806
 40
17.35613767251846
 40
17.35613767251846
 40
32.93409814796088
 40
32.93409814796088
 40
32.93409814796088
 40
67.69052630487452
 40
67.69052630487452
 40
67.69052630487452
 40
104.8905306190829
 40
104.8905306190829
 40
104.8905306190829
 40
113.3093454526369
 40
113.3093454526369
 40
113.3093454526369
 40
123.2962973110189
 40
123.2962973110189
 40
123.2962973110189
 40
134.6578363359232
 40
134.6578363359232
 40
134.6578363359232
 40
147.0579382711184
 40
147.0579382711184
 40
147.0579382711184
 40
160.0818877434253
 40
160.0818877434253
 40
160.0818877434253
 40
173.2799274603328
 40
173.2799274603328
 40
173.2799274603328
 40
173.3071940719399
 40
173.3071940719399
 40
173.3071940719399
 40
173.3071940719399
 10
85.10170104318138
 20
620.1998322488823
 30
0.0
 41
1.0
 10
85.34914481620368
 20
620.6395651990596
 30
0.0
 41
0.9985653187472532
 10
85.62488933297738
 20
621.0621269693941
 30
0.0
 41
0.9985653187472533
 10
85.9277477770379
 20
621.4656988355354
 30
0.0
 41
1.0
 10
86.677275119554
 20
622.4645091279273
 30
0.0
 41
1.0
 10
87.53301265558048
 20
623.2731620217754
 30
0.0
 41
1.0
 10
89.33948134752586
 20
624.5946607151317
 30
0.0
 41
1.0
 10
90.23286248206136
 20
625.0755012058471
 30
0.0
 41
1.0
 10
91.10329629745456
 20
625.4642085443083
 30
0.0
 41
1.0
 10
92.9717069557139
 20
626.29857977539
 30
0.0
 41
1.0
 10
94.99266272720615
 20
626.8017863429716
 30
0.0
 41
1.0
 10
96.92446622036255
 20
627.1547075958119
 30
0.0
 41
1.0
 10
99.05887429463769
 20
627.5446426871988
 30
0.0
 41
1.0
 10
101.3193541872176
 20
627.7977479458951
 30
0.0
 41
1.0
 10
103.7952861072517
 20
627.9953669187984
 30
0.0
 41
1.0
 10
106.5937106423729
 20
628.2082537474002
 30
0.0
 41
0.9998298367938591
 10
109.3962305559095
 20
628.3578626201047
 30
0.0
 41
0.999829836793859
 10
112.20141519054
 20
628.4441171631355
 30
0.0
 41
1.0
 10
115.5287151031229
 20
628.5520503663137
 30
0.0
 41
0.9999602868405005
 10
118.856994893827
 20
628.6236598587842
 30
0.0
 41
0.9999602868405005
 10
122.1858580331341
 20
628.65893710903
 30
0.0
 41
1.0
 10
125.9728154337884
 20
628.7017318879531
 30
0.0
 41
0.9999896912770042
 10
129.7599522628175
 20
628.7234663234212
 30
0.0
 41
0.9999896912770042
 10
133.5471513985879
 20
628.7241397432714
 30
0.0
 41
1.0
 10
137.6805245077222
 20
628.7262161812085
 30
0.0
 41
0.9999969424715972
 10
141.813884948748
 20
628.7157741760493
 30
0.0
 41
0.9999969424715972
 10
145.9471948080645
 20
628.6928138235742
 30
0.0
 41
1.0
 10
150.2884508677442
 20
628.6694243325726
 30
0.0
 41
0.9999988130255627
 10
154.6296550610777
 20
628.6378427591732
 30
0.0
 41
0.9999988130255627
 10
158.9707919293699
 20
628.5980692158355
 30
0.0
 41
1.0
 10
163.3699593887515
 20
628.5581879616457
 30
0.0
 41
0.9999992463218638
 10
167.7690619064249
 20
628.5116918422763
 30
0.0
 41
0.9999992463218638
 10
172.1680895358681
 20
628.4585809628561
 30
0.0
 41
1.0
 10
172.1714706316197
 20
628.4585401859232
 30
0.0
 41
1.0
 10
172.1748517273712
 20
628.4584994089902
 30
0.0
 41
1.0
 10
172.1782328231228
 20
628.4584586320573
 30
0.0
 41
1.0
  0
SPLINE
  5
241
330
1F
100
AcDbEntity
  8
Make2D$可见线$普通线
100
AcDbSpline
210
0.0
220
0.0
230
1.0
 70
    12
 71
     2
 72
    16
 73
    13
 74
     0
 42
0.000000001
 43
0.0000000001
 12
1.0
 22
0.0
 32
0.0
 13
1.0
 23
0.0
 33
0.0
 40
6.191888844909396
 40
6.191888844909396
 40
6.191888844909396
 40
34.82786487133153
 40
34.82786487133153
 40
47.79879896417107
 40
47.79879896417107
 40
60.11364694339798
 40
60.11364694339798
 40
71.31833238274933
 40
71.31833238274933
 40
80.99692953603841
 40
80.99692953603841
 40
93.30637546598112
 40
93.30637546598112
 40
93.30637546598112
 10
177.3632967371857
 20
614.3916217208116
 30
0.0
 41
1.0
 10
168.1039516770579
 20
614.5146101625747
 30
0.0
 41
0.9999977874473406
 10
158.8441711300686
 20
614.5986418287354
 30
0.0
 41
1.0
 10
152.358968580621
 20
614.6580599301835
 30
0.0
 41
0.9999982203161553
 10
145.873587998286
 20
614.6930073251347
 30
0.0
 41
1.0
 10
139.7162402175505
 20
614.7272136499735
 30
0.0
 41
0.9999954190312266
 10
133.5587981880674
 20
614.7241445879638
 30
0.0
 41
1.0
 10
127.9563979693187
 20
614.7231575852823
 30
0.0
 41
0.9999845818543476
 10
122.3543542239229
 20
614.6599510992056
 30
0.0
 41
1.0
 10
117.5151365377898
 20
614.6086882201012
 30
0.0
 41
0.9999409179774484
 10
112.6781768673268
 20
614.4522374518983
 30
0.0
 41
1.0
 10
108.3961311369592
 20
614.3268503851723
 30
0.0
 41
0.9996464144553959
 10
104.1268064249338
 20
613.9739990613108
 30
0.0
 41
1.0
  0
ARC
  5
242
330
1F
100
AcDbEntity
  8
Make2D$可见线$普通线
100
AcDbCircle
 10
123.216689135009
 20
-3448.756489011634
 30
0.0
 40
4077.508907901791
100
AcDbArc
 50
89.13071001205925
 51
89.31199237397003
  0
ARC
  5
243
330
1F
100
AcDbEntity
  8
Make2D$可见线$普通线
100
AcDbCircle
 10
45.37436385561635
 20
604.9704873664491
 30
0.0
 40
15.00294902742757
100
AcDbArc
 50
311.8092987878771
 51
359.9992502430711
  0
ARC
  5
244
330
1F
100
AcDbEntity
  8
Make2D$可见线$普通线
100
AcDbCircle
 10
45.37594713305054
 20
604.9701167249467
 30
0.0
 40
15.00136574972145
100
AcDbArc
 50
0.000665781301872
 51
228.1952954898719
  0
ARC
  5
245
330
1F
100
AcDbEntity
  8
Make2D$可见线$普通线
100
AcDbCircle
 10
45.37613155789286
 20
604.970291041954
 30
0.0
 40
13.95037047345049
100
AcDbArc
 50
333.748967952581
 51
0.0
  0
ARC
  5
246
330
1F
100
AcDbEntity
  8
Make2D$可见线$普通线
100
AcDbCircle
 10
45.37613155789961
 20
604.9702910419471
 30
0.0
 40
13.95037047344143
100
AcDbArc
 50
315.7931161586803
 51
333.7489634080466
  0
ARC
  5
247
330
1F
100
AcDbEntity
  8
Make2D$可见线$普通线
100
AcDbCircle
 10
45.37613155788868
 20
604.970291041953
 30
0.0
 40
13.95037047344987
100
AcDbArc
 50
179.9999999999958
 51
224.2068838238558
  0
ARC
  5
248
330
1F
100
AcDbEntity
  8
Make2D$可见线$普通线
100
AcDbCircle
 10
45.37613155789337
 20
604.9702910419531
 30
0.0
 40
13.95037047345455
100
AcDbArc
 50
135.0000000000043
 51
179.9999999999963
  0
ARC
  5
249
330
1F
100
AcDbEntity
  8
Make2D$可见线$普通线
100
AcDbCircle
 10
45.37613155789109
 20
604.9702910419537
 30
0.0
 40
13.95037047345257
100
AcDbArc
 50
90.0
 51
134.9999999999993
  0
ARC
  5
24A
330
1F
100
AcDbEntity
  8
Make2D$可见线$普通线
100
AcDbCircle
 10
45.37613155789023
 20
604.9702910419534
 30
0.0
 40
13.95037047345295
100
AcDbArc
 50
45.00238121644512
 51
89.9999999999965
  0
ARC
  5
24B
330
1F
100
AcDbEntity
  8
Make2D$可见线$普通线
100
AcDbCircle
 10
45.37613155789295
 20
604.9702910419544
 30
0.0
 40
13.95037047345052
100
AcDbArc
 50
359.9999999999986
 51
45.00000000000509
  0
ARC
  5
24C
330
1F
100
AcDbEntity
  8
Make2D$可见线$普通线
100
AcDbCircle
 10
53.27701857479259
 20
618.883914931146
 30
0.0
 40
1.00115384004964
100
AcDbArc
 50
180.0403898432511
 51
235.2662809871153
  0
ARC
  5
24D
330
1F
100
AcDbEntity
  8
Make2D$可见线$普通线
100
AcDbCircle
 10
37.4751214141566
 20
618.8838699170442
 30
0.0
 40
1.00122791017207
100
AcDbArc
 50
306.5924518808558
 51
359.9583389506199
  0
LINE
  5
24E
330
1F
100
AcDbEntity
  8
Make2D$可见线$普通线
100
AcDbLine
 10
38.47714539693811
 20
646.7700818966797
 30
0.0
 11
38.47714539693811
 21
618.8831418929542
 31
0.0
  0
LINE
  5
24F
330
1F
100
AcDbEntity
  8
Make2D$可见线$普通线
100
AcDbLine
 10
52.27511772089133
 20
646.7700818966796
 30
0.0
 11
52.27511772089133
 21
618.8832091820677
 31
0.0
  0
LINE
  5
250
330
1F
100
AcDbEntity
  8
Make2D$可见线$普通线
100
AcDbLine
 10
45.37613155891472
 20
669.2299713146817
 30
0.0
 11
39.72195928130679
 21
669.2299713146817
 31
0.0
  0
LINE
  5
251
330
1F
100
AcDbEntity
  8
Make2D$可见线$普通线
100
AcDbLine
 10
45.37613155891472
 20
646.7700818966796
 30
0.0
 11
42.78535513515828
 21
646.7700818966796
 31
0.0
  0
LINE
  5
252
330
1F
100
AcDbEntity
  8
Make2D$可见线$普通线
100
AcDbLine
 10
39.72220586535741
 20
679.9714952282934
 30
0.0
 11
45.37613155891472
 21
679.9714952282934
 31
0.0
  0
LINE
  5
253
330
1F
100
AcDbEntity
  8
Make2D$可见线$普通线
100
AcDbLine
 10
39.72195928130679
 20
669.2299713146817
 30
0.0
 11
28.97035782884086
 21
669.2299713146815
 31
0.0
  0
LINE
  5
254
330
1F
100
AcDbEntity
  8
Make2D$可见线$普通线
100
AcDbLine
 10
42.78535513515828
 20
646.7700818966796
 30
0.0
 11
37.8589053927285
 21
646.7700818966796
 31
0.0
  0
LINE
  5
255
330
1F
100
AcDbEntity
  8
Make2D$可见线$普通线
100
AcDbLine
 10
28.97107330087476
 20
679.9714952282934
 30
0.0
 11
39.72220586535741
 21
679.9714952282934
 31
0.0
  0
LINE
  5
256
330
1F
100
AcDbEntity
  8
Make2D$可见线$普通线
100
AcDbLine
 10
28.97035782884086
 20
669.2299713146817
 30
0.0
 11
22.79027086183351
 21
669.2299713146817
 31
0.0
  0
LINE
  5
257
330
1F
100
AcDbEntity
  8
Make2D$可见线$普通线
100
AcDbLine
 10
37.8589053927285
 20
646.7700818966796
 30
0.0
 11
35.02715163200639
 21
646.7700818966796
 31
0.0
  0
LINE
  5
258
330
1F
100
AcDbEntity
  8
Make2D$可见线$普通线
100
AcDbLine
 10
22.79125585357826
 20
679.9714952282936
 30
0.0
 11
28.97107330087476
 21
679.9714952282934
 31
0.0
  0
LINE
  5
259
330
1F
100
AcDbEntity
  8
Make2D$可见线$普通线
100
AcDbLine
 10
22.79027086183351
 20
669.2299713146817
 30
0.0
 11
22.02764892178152
 21
669.2299713146817
 31
0.0
  0
LINE
  5
25A
330
1F
100
AcDbEntity
  8
Make2D$可见线$普通线
100
AcDbLine
 10
35.02715163200639
 20
646.7700818966798
 30
0.0
 11
34.68277875008266
 21
646.7700818966796
 31
0.0
  0
LINE
  5
25B
330
1F
100
AcDbEntity
  8
Make2D$可见线$普通线
100
AcDbLine
 10
22.028667172224
 20
679.9714952282934
 30
0.0
 11
22.79125585357826
 21
679.9714952282935
 31
0.0
  0
SPLINE
  5
25C
330
1F
100
AcDbEntity
  8
Make2D$可见线$普通线
100
AcDbSpline
210
0.0
220
0.0
230
1.0
 70
    12
 71
     2
 72
    14
 73
    11
 74
     0
 42
0.000000001
 43
0.0000000001
 12
1.0
 22
0.0
 32
0.0
 13
1.0
 23
0.0
 33
0.0
 40
0.0
 40
0.0
 40
0.0
 40
0.3933095738133492
 40
0.3933095738133492
 40
0.7866191476266984
 40
0.7866191476266984
 40
10.52618467944925
 40
10.52618467944925
 40
10.92027207470369
 40
10.92027207470369
 40
11.31435946995812
 40
11.31435946995812
 40
11.31435946995812
 10
22.02779097888674
 20
679.9714959716439
 30
0.0
 41
1.0
 10
21.82031205539736
 20
679.9718121165915
 30
0.0
 41
0.9235497701451253
 10
21.67363116644497
 20
679.8250731631535
 30
0.0
 41
1.0
 10
21.52695027749257
 20
679.6783342097154
 30
0.0
 41
0.9235497701451253
 10
21.52734853790159
 20
679.470855427599
 30
0.0
 41
1.0
 10
21.52683941268047
 20
674.6010726883017
 30
0.0
 41
1.0
 10
21.52633028745936
 20
669.7312899490043
 30
0.0
 41
1.0
 10
21.52565052291125
 20
669.5233560547811
 30
0.0
 41
0.9232527783775077
 10
21.67268277523476
 20
669.3763238024575
 30
0.0
 41
1.0
 10
21.81971502755827
 20
669.2292915501338
 30
0.0
 41
0.9232527783775077
 10
22.02764892178152
 20
669.2299713146816
 30
0.0
 41
1.0
  0
SPLINE
  5
25D
330
1F
100
AcDbEntity
  8
Make2D$可见线$普通线
100
AcDbSpline
210
0.0
220
0.0
230
1.0
 70
    12
 71
     2
 72
    12
 73
     9
 74
     0
 42
0.000000001
 43
0.0000000001
 12
1.0
 22
0.0
 32
0.0
 13
1.0
 23
0.0
 33
0.0
 40
0.0
 40
0.0
 40
0.0
 40
0.7379616779027335
 40
0.7379616779027335
 40
22.19453509027658
 40
22.19453509027658
 40
22.58862248553086
 40
22.58862248553086
 40
22.98270988078512
 40
22.98270988078512
 40
22.98270988078512
 10
33.72790908915385
 20
669.2274588082533
 30
0.0
 41
1.0
 10
34.18062916612407
 20
669.1828782982342
 30
0.0
 41
0.7393204920713826
 10
34.17843144724628
 20
668.7279738467312
 30
0.0
 41
1.0
 10
34.17741319680428
 20
657.9996871888667
 30
0.0
 41
1.0
 10
34.17639494636228
 20
647.2714005310022
 30
0.0
 41
1.0
 10
34.17571518181488
 20
647.0634666367794
 30
0.0
 41
0.9232527783780387
 10
34.32274743413818
 20
646.9164343844558
 30
0.0
 41
1.0
 10
34.46977968646147
 20
646.7694021321324
 30
0.0
 41
0.9232527783780387
 10
34.67771358068444
 20
646.7700818966796
 30
0.0
 41
1.0
  0
SPLINE
  5
25E
330
1F
100
AcDbEntity
  8
Make2D$可见线$普通线
100
AcDbSpline
210
0.0
220
0.0
230
1.0
 70
    12
 71
     2
 72
    14
 73
    11
 74
     0
 42
0.000000001
 43
0.0000000001
 12
1.0
 22
0.0
 32
0.0
 13
1.0
 23
0.0
 33
0.0
 40
0.0
 40
0.0
 40
0.0
 40
0.3933095738134306
 40
0.3933095738134306
 40
0.7866191476268611
 40
0.7866191476268611
 40
10.52618467944941
 40
10.52618467944941
 40
10.92027207470384
 40
10.92027207470384
 40
11.31435946995828
 40
11.31435946995828
 40
11.31435946995828
 10
68.7244721389427
 20
679.9714959716439
 30
0.0
 41
1.0
 10
68.93195106243212
 20
679.9718121165917
 30
0.0
 41
0.9235497701451697
 10
69.07863195138455
 20
679.8250731631537
 30
0.0
 41
1.0
 10
69.225312840337
 20
679.6783342097156
 30
0.0
 41
0.9235497701451697
 10
69.22491457992807
 20
679.470855427599
 30
0.0
 41
1.0
 10
69.22542370514907
 20
674.6010726883017
 30
0.0
 41
1.0
 10
69.22593283037008
 20
669.7312899490043
 30
0.0
 41
1.0
 10
69.22661259491805
 20
669.5233560547811
 30
0.0
 41
0.9232527783775796
 10
69.07958034259458
 20
669.3763238024576
 30
0.0
 41
1.0
 10
68.93254809027113
 20
669.2292915501339
 30
0.0
 41
0.9232527783775796
 10
68.72461419604792
 20
669.2299713146817
 30
0.0
 41
1.0
  0
SPLINE
  5
25F
330
1F
100
AcDbEntity
  8
Make2D$可见线$普通线
100
AcDbSpline
210
0.0
220
0.0
230
1.0
 70
    12
 71
     2
 72
    12
 73
     9
 74
     0
 42
0.000000001
 43
0.0000000001
 12
1.0
 22
0.0
 32
0.0
 13
1.0
 23
0.0
 33
0.0
 40
0.0
 40
0.0
 40
0.0
 40
0.7537913904948456
 40
0.7537913904948456
 40
22.2103648028687
 40
22.2103648028687
 40
22.60445219812321
 40
22.60445219812321
 40
22.99853959337771
 40
22.99853959337771
 40
22.99853959337771
 10
57.04012656248233
 20
669.2287810400021
 30
0.0
 41
1.0
 10
56.57158660684362
 20
669.1975482666579
 30
0.0
 41
0.7286086043728416
 10
56.57383167058336
 20
668.7279738467312
 30
0.0
 41
1.0
 10
56.57484992102526
 20
657.9996871888667
 30
0.0
 41
1.0
 10
56.57586817146716
 20
647.2714005310022
 30
0.0
 41
1.0
 10
56.57654793601532
 20
647.0634666367789
 30
0.0
 41
0.9232527783774263
 10
56.42951568369181
 20
646.9164343844552
 30
0.0
 41
1.0
 10
56.28248343136828
 20
646.7694021321315
 30
0.0
 41
0.9232527783774263
 10
56.074549537145
 20
646.7700818966795
 30
0.0
 41
1.0
  0
LINE
  5
260
330
1F
100
AcDbEntity
  8
Make2D$可见线$普通线
100
AcDbLine
 10
68.72033292687297
 20
669.2299713146817
 30
0.0
 11
45.37613155891472
 21
669.2299713146817
 31
0.0
  0
LINE
  5
261
330
1F
100
AcDbEntity
  8
Make2D$可见线$普通线
100
AcDbLine
 10
56.074549537145
 20
646.7700818966796
 30
0.0
 11
45.37613155891472
 21
646.7700818966796
 31
0.0
  0
LINE
  5
262
330
1F
100
AcDbEntity
  8
Make2D$可见线$普通线
100
AcDbLine
 10
45.37613155891472
 20
679.9714952282934
 30
0.0
 11
45.94328536899195
 21
679.9714952282934
 31
0.0
  0
LINE
  5
263
330
1F
100
AcDbEntity
  8
Make2D$可见线$普通线
100
AcDbLine
 10
45.95508830289953
 20
679.9714952282934
 30
0.0
 11
46.51566438856571
 21
679.9714952282934
 31
0.0
  0
LINE
  5
264
330
1F
100
AcDbEntity
  8
Make2D$可见线$普通线
100
AcDbLine
 10
46.5323732773777
 20
679.9714952282934
 30
0.0
 11
47.09281684480879
 21
679.9714952282934
 31
0.0
  0
LINE
  5
265
330
1F
100
AcDbEntity
  8
Make2D$可见线$普通线
100
AcDbLine
 10
47.10774703283266
 20
679.9714952282934
 30
0.0
 11
48.25180310251937
 21
679.9714952282934
 31
0.0
  0
LINE
  5
266
330
1F
100
AcDbEntity
  8
Make2D$可见线$普通线
100
AcDbLine
 10
49.43916580462667
 20
679.9714952282934
 30
0.0
 11
49.62450744480077
 21
679.9714952282934
 31
0.0
  0
LINE
  5
267
330
1F
100
AcDbEntity
  8
Make2D$可见线$普通线
100
AcDbLine
 10
50.0324567388169
 20
679.9714952282935
 30
0.0
 11
50.97158555751798
 21
679.9714952282934
 31
0.0
  0
LINE
  5
268
330
1F
100
AcDbEntity
  8
Make2D$可见线$普通线
100
AcDbLine
 10
51.25568726027029
 20
679.9714952282934
 30
0.0
 11
51.44177161209495
 21
679.9714952282934
 31
0.0
  0
LINE
  5
269
330
1F
100
AcDbEntity
  8
Make2D$可见线$普通线
100
AcDbLine
 10
51.80037818072253
 20
679.9714952282934
 30
0.0
 11
51.91194105446755
 21
679.9714952282934
 31
0.0
  0
LINE
  5
26A
330
1F
100
AcDbEntity
  8
Make2D$可见线$普通线
100
AcDbLine
 10
52.34470705213312
 20
679.9714952282934
 30
0.0
 11
52.38176132962144
 21
679.9714952282934
 31
0.0
  0
LINE
  5
26B
330
1F
100
AcDbEntity
  8
Make2D$可见线$普通线
100
AcDbLine
 10
52.85089323128409
 20
679.9714952282934
 30
0.0
 11
52.88814810045585
 21
679.9714952282934
 31
0.0
  0
LINE
  5
26C
330
1F
100
AcDbEntity
  8
Make2D$可见线$普通线
100
AcDbLine
 10
55.57293985442857
 20
679.9714952282934
 30
0.0
 11
55.63154645376244
 21
679.9714952282935
 31
0.0
  0
LINE
  5
26D
330
1F
100
AcDbEntity
  8
Make2D$可见线$普通线
100
AcDbLine
 10
56.08593639201888
 20
679.9714952282934
 30
0.0
 11
56.09949571328946
 21
679.9714952282934
 31
0.0
  0
LINE
  5
26E
330
1F
100
AcDbEntity
  8
Make2D$可见线$普通线
100
AcDbLine
 10
56.53676494148306
 20
679.9714952282936
 30
0.0
 11
56.62125786796059
 21
679.9714952282935
 31
0.0
  0
LINE
  5
26F
330
1F
100
AcDbEntity
  8
Make2D$可见线$普通线
100
AcDbLine
 10
59.1383217470418
 20
679.9714952282935
 30
0.0
 11
59.14652476463937
 21
679.9714952282936
 31
0.0
  0
LINE
  5
270
330
1F
100
AcDbEntity
  8
Make2D$可见线$普通线
100
AcDbLine
 10
61.88528195025526
 20
679.9714952282935
 30
0.0
 11
68.72359594560544
 21
679.9714952282934
 31
0.0
  0
LINE
  5
271
330
1F
100
AcDbEntity
  8
Make2D$可见线$普通线
100
AcDbLine
 10
45.94328540717902
 20
679.9714952303405
 30
0.0
 11
45.95508830938309
 21
679.9714952304257
 31
0.0
  0
LINE
  5
272
330
1F
100
AcDbEntity
  8
Make2D$可见线$普通线
100
AcDbLine
 10
46.51566445473861
 20
679.9714952364064
 30
0.0
 11
46.53237328369016
 21
679.9714952366415
 31
0.0
  0
LINE
  5
273
330
1F
100
AcDbEntity
  8
Make2D$可见线$普通线
100
AcDbLine
 10
47.09281678186335
 20
679.9714952463619
 30
0.0
 11
47.10774703726213
 21
679.9714952466684
 31
0.0
  0
LINE
  5
274
330
1F
100
AcDbEntity
  8
Make2D$可见线$普通线
100
AcDbLine
 10
48.25180310390726
 20
679.9714952770668
 30
0.0
 11
49.43916576819652
 21
679.9714953217285
 31
0.0
  0
LINE
  5
275
330
1F
100
AcDbEntity
  8
Make2D$可见线$普通线
100
AcDbLine
 10
49.624507446076
 20
679.9714953297762
 30
0.0
 11
50.03245679168458
 21
679.9714953484258
 31
0.0
  0
LINE
  5
276
330
1F
100
AcDbEntity
  8
Make2D$可见线$普通线
100
AcDbLine
 10
50.97158558861963
 20
679.971495395848
 30
0.0
 11
51.25568726180268
 21
679.9714954113073
 31
0.0
  0
LINE
  5
277
330
1F
100
AcDbEntity
  8
Make2D$可见线$普通线
100
AcDbLine
 10
51.44177161795119
 20
679.9714954216865
 30
0.0
 11
51.80037818245273
 21
679.9714954422188
 31
0.0
  0
LINE
  5
278
330
1F
100
AcDbEntity
  8
Make2D$可见线$普通线
100
AcDbLine
 10
51.91194105362786
 20
679.9714954487413
 30
0.0
 11
52.34470705416743
 21
679.9714954745991
 31
0.0
  0
LINE
  5
279
330
1F
100
AcDbEntity
  8
Make2D$可见线$普通线
100
AcDbLine
 10
52.38176132987246
 20
679.9714954768518
 30
0.0
 11
52.85089316824951
 21
679.97149550585
 31
0.0
  0
LINE
  5
27A
330
1F
100
AcDbEntity
  8
Make2D$可见线$普通线
100
AcDbLine
 10
52.88814810294343
 20
679.9714955081882
 30
0.0
 11
55.57293986452407
 21
679.9714956843736
 31
0.0
  0
LINE
  5
27B
330
1F
100
AcDbEntity
  8
Make2D$可见线$普通线
100
AcDbLine
 10
55.6315465750032
 20
679.9714956882628
 30
0.0
 11
56.08593640166691
 21
679.9714957182508
 31
0.0
  0
LINE
  5
27C
330
1F
100
AcDbEntity
  8
Make2D$可见线$普通线
100
AcDbLine
 10
56.09949572696655
 20
679.97149571914
 30
0.0
 11
56.53676493538137
 21
679.9714957475742
 31
0.0
  0
LINE
  5
27D
330
1F
100
AcDbEntity
  8
Make2D$可见线$普通线
100
AcDbLine
 10
56.62125788632306
 20
679.9714957530061
 30
0.0
 11
59.1383216945095
 21
679.9714958972168
 31
0.0
  0
LINE
  5
27E
330
1F
100
AcDbEntity
  8
Make2D$可见线$普通线
100
AcDbLine
 10
59.14652469772329
 20
679.9714958976049
 30
0.0
 11
61.8852819515223
 21
679.9714959716439
 31
0.0
  0
ARC
  5
27F
330
1F
100
AcDbEntity
  8
Make2D$可见线$普通线
100
AcDbCircle
 10
36.37566967762956
 20
294.9950038111735
 30
0.0
 40
0.9997554863435998
100
AcDbArc
 50
179.9859849407098
 51
270.015260284707
  0
LINE
  5
280
330
1F
100
AcDbEntity
  8
Make2D$可见线$普通线
100
AcDbLine
 10
36.37593595471503
 20
293.9952483602895
 30
0.0
 11
36.54073260553844
 21
293.9952483602896
 31
0.0
  0
LINE
  5
281
330
1F
100
AcDbEntity
  8
Make2D$可见线$普通线
100
AcDbLine
 10
36.54686455140427
 20
293.9952483602897
 30
0.0
 11
36.64471226888008
 21
293.9952483602897
 31
0.0
  0
LINE
  5
282
330
1F
100
AcDbEntity
  8
Make2D$可见线$普通线
100
AcDbLine
 10
36.65442904169186
 20
293.9952483602897
 30
0.0
 11
36.76367674848052
 21
293.9952483602897
 31
0.0
  0
LINE
  5
283
330
1F
100
AcDbEntity
  8
Make2D$可见线$普通线
100
AcDbLine
 10
36.77418732035744
 20
293.9952483602897
 30
0.0
 11
36.90328347753155
 21
293.9952483602897
 31
0.0
  0
LINE
  5
284
330
1F
100
AcDbEntity
  8
Make2D$可见线$普通线
100
AcDbLine
 10
36.91421822182303
 20
293.9952483602897
 30
0.0
 11
37.06305794599621
 21
293.9952483602898
 31
0.0
  0
LINE
  5
285
330
1F
100
AcDbEntity
  8
Make2D$可见线$普通线
100
AcDbLine
 10
37.07405863282111
 20
293.9952483602898
 30
0.0
 11
37.2425256243539
 21
293.9952483602898
 31
0.0
  0
LINE
  5
286
330
1F
100
AcDbEntity
  8
Make2D$可见线$普通线
100
AcDbLine
 10
37.25324544008367
 20
293.9952483602898
 30
0.0
 11
37.44121203020018
 21
293.9952483602898
 31
0.0
  0
LINE
  5
287
330
1F
100
AcDbEntity
  8
Make2D$可见线$普通线
100
AcDbLine
 10
37.45131553034435
 20
293.9952483602898
 30
0.0
 11
37.65864263260505
 21
293.9952483602898
 31
0.0
  0
LINE
  5
288
330
1F
100
AcDbEntity
  8
Make2D$可见线$普通线
100
AcDbLine
 10
37.66780579033525
 20
293.9952483602898
 30
0.0
 11
37.89434291987141
 21
293.9952483602898
 31
0.0
  0
LINE
  5
289
330
1F
100
AcDbEntity
  8
Make2D$可见线$普通线
100
AcDbLine
 10
37.90225310678898
 20
293.9952483602898
 30
0.0
 11
39.01035067188832
 21
293.9952483602898
 31
0.0
  0
LINE
  5
28A
330
1F
100
AcDbEntity
  8
Make2D$可见线$普通线
100
AcDbLine
 10
51.74191244099472
 20
293.9952483602901
 30
0.0
 11
52.85001000610623
 21
293.9952483602902
 31
0.0
  0
LINE
  5
28B
330
1F
100
AcDbEntity
  8
Make2D$可见线$普通线
100
AcDbLine
 10
52.85792019298935
 20
293.9952483602903
 30
0.0
 11
53.08445732255655
 21
293.9952483602903
 31
0.0
  0
LINE
  5
28C
330
1F
100
AcDbEntity
  8
Make2D$可见线$普通线
100
AcDbLine
 10
53.09362048024627
 20
293.9952483602903
 30
0.0
 11
53.30094758254131
 21
293.9952483602903
 31
0.0
  0
LINE
  5
28D
330
1F
100
AcDbEntity
  8
Make2D$可见线$普通线
100
AcDbLine
 10
53.31105108264126
 20
293.9952483602904
 30
0.0
 11
53.49901767279448
 21
293.9952483602904
 31
0.0
  0
LINE
  5
28E
330
1F
100
AcDbEntity
  8
Make2D$可见线$普通线
100
AcDbLine
 10
53.50973748847741
 20
293.9952483602904
 30
0.0
 11
53.67820448004875
 21
293.9952483602904
 31
0.0
  0
LINE
  5
28F
330
1F
100
AcDbEntity
  8
Make2D$可见线$普通线
100
AcDbLine
 10
53.68920516682499
 20
293.9952483602903
 30
0.0
 11
53.83804489103727
 21
293.9952483602903
 31
0.0
  0
LINE
  5
290
330
1F
100
AcDbEntity
  8
Make2D$可见线$普通线
100
AcDbLine
 10
53.84897963528056
 20
293.9952483602903
 30
0.0
 11
53.97807579249343
 21
293.9952483602903
 31
0.0
  0
LINE
  5
291
330
1F
100
AcDbEntity
  8
Make2D$可见线$普通线
100
AcDbLine
 10
53.98858636432419
 20
293.9952483602904
 30
0.0
 11
54.09783407114992
 21
293.9952483602903
 31
0.0
  0
LINE
  5
292
330
1F
100
AcDbEntity
  8
Make2D$可见线$普通线
100
AcDbLine
 10
54.10755084391906
 20
293.9952483602904
 30
0.0
 11
54.20539856139192
 21
293.9952483602903
 31
0.0
  0
LINE
  5
293
330
1F
100
AcDbEntity
  8
Make2D$可见线$普通线
100
AcDbLine
 10
54.21153050727389
 20
293.9952483602902
 30
0.0
 11
54.3761315563396
 21
293.99524836029
 31
0.0
  0
ARC
  5
294
330
1F
100
AcDbEntity
  8
Make2D$可见线$普通线
100
AcDbCircle
 10
54.37600832213533
 20
294.9955889369438
 30
0.0
 40
1.00034062746452
100
AcDbArc
 50
270.0182617349885
 51
359.980493039376
  0
LINE
  5
295
330
1F
100
AcDbEntity
  8
Make2D$可见线$普通线
100
AcDbLine
 10
35.3761315564085
 20
602.5133951717196
 30
0.0
 11
35.37613155640838
 21
604.9702910419733
 31
0.0
  0
LINE
  5
296
330
1F
100
AcDbEntity
  8
Make2D$可见线$普通线
100
AcDbLine
 10
55.37613155640838
 20
569.9702910419542
 30
0.0
 11
55.37613155640838
 21
604.9702910419733
 31
0.0
  0
ARC
  5
297
330
1F
100
AcDbEntity
  8
Make2D$可见线$普通线
100
AcDbCircle
 10
45.37613274189124
 20
604.970303918497
 30
0.0
 40
9.999998822644534
100
AcDbArc
 50
6.880266988630835
 51
169.515950800412
  0
SPLINE
  5
298
330
1F
100
AcDbEntity
  8
Make2D$可见线$普通线
100
AcDbSpline
210
0.0
220
0.0
230
1.0
 70
     8
 71
     3
 72
    10
 73
     6
 74
     0
 42
0.000000001
 43
0.0000000001
 12
1.0
 22
0.0
 32
0.0
 13
1.0
 23
0.0
 33
0.0
 40
31.93570464227382
 40
31.93570464227382
 40
31.93570464227382
 40
31.93570464227382
 40
31.96336346925834
 40
31.96336346925834
 40
33.11261661765376
 40
33.11261661765376
 40
33.11261661765376
 40
33.11261661765376
 10
55.30797435143245
 20
606.1358247776269
 30
0.0
 10
55.30833871533099
 20
606.1326580211871
 30
0.0
 10
55.30649652712938
 20
606.1482926982624
 30
0.0
 10
55.34583046647544
 20
605.8189493510065
 30
0.0
 10
55.36022723462737
 20
605.697373765289
 30
0.0
 10
55.36042637930768
 20
605.6942653272074
 30
0.0
  0
LINE
  5
299
330
1F
100
AcDbEntity
  8
Make2D$可见线$普通线
100
AcDbLine
 10
55.2652336579341
 20
606.4825871006219
 30
0.0
 11
55.24332638462307
 21
606.6669705153295
 31
0.0
  0
LINE
  5
29A
330
1F
100
AcDbEntity
  8
Make2D$可见线$普通线
100
AcDbLine
 10
55.30411775600601
 20
606.1682529155879
 30
0.0
 11
55.30797686167874
 21
606.1358256101314
 31
0.0
  0
LINE
  5
29B
330
1F
100
AcDbEntity
  8
Make2D$可见线$普通线
100
AcDbLine
 10
55.33568148083009
 20
605.8688354960454
 30
0.0
 11
55.3586740087926
 21
605.5609323499143
 31
0.0
  0
ARC
  5
29C
330
1F
100
AcDbEntity
  8
Make2D$可见线$普通线
100
AcDbCircle
 10
36.0382702790355
 20
604.3870909341132
 30
0.0
 40
19.35591357726803
100
AcDbArc
 50
2.701557858154739
 51
3.346504926621831
  0
LINE
  5
29D
330
1F
100
AcDbEntity
  8
Make2D$可见线$普通线
100
AcDbLine
 10
55.34832110189816
 20
605.7174181385329
 30
0.0
 11
55.34625797665262
 21
605.7546781833934
 31
0.0
  0
LINE
  5
29E
330
1F
100
AcDbEntity
  8
Make2D$可见线$普通线
100
AcDbLine
 10
55.35867400888938
 20
605.5609323499206
 30
0.0
 11
55.36117747713387
 21
605.5169793454085
 31
0.0
  0
LINE
  5
29F
330
1F
100
AcDbEntity
  8
Make2D$可见线$普通线
100
AcDbLine
 10
55.37071783199553
 20
605.2993064580025
 30
0.0
 11
55.37613155640804
 21
604.9702910419539
 31
0.0
  0
LINE
  5
2A0
330
1F
100
AcDbEntity
  8
Make2D$可见线$普通线
100
AcDbLine
 10
55.37613155640838
 20
294.99524836029
 30
0.0
 11
55.37613155640838
 21
328.9952483602901
 31
0.0
  0
LINE
  5
2A1
330
1F
100
AcDbEntity
  8
Make2D$可见线$普通线
100
AcDbLine
 10
55.37613155640838
 20
329.3064119665033
 30
0.0
 11
55.37613155640838
 21
569.970291041954
 31
0.0
  0
LINE
  5
2A2
330
1F
100
AcDbEntity
  8
Make2D$可见线$普通线
100
AcDbLine
 10
55.37613155640827
 20
523.4652377542077
 30
0.0
 11
77.87653533825335
 21
530.686148588771
 31
0.0
  0
LINE
  5
2A3
330
1F
100
AcDbEntity
  8
Make2D$可见线$普通线
100
AcDbLine
 10
102.8765353382544
 20
530.6861375919816
 30
0.0
 11
132.953033132542
 21
521.033879308344
 31
0.0
  0
LINE
  5
2A4
330
1F
100
AcDbEntity
  8
Make2D$可见线$普通线
100
AcDbLine
 10
132.9582061491685
 20
521.0323275709701
 30
0.0
 11
133.6635085209364
 21
520.8011155411257
 31
0.0
  0
SPLINE
  5
2A5
330
1F
100
AcDbEntity
  8
Make2D$可见线$普通线
100
AcDbSpline
210
0.0
220
0.0
230
1.0
 70
    12
 71
     3
 72
    14
 73
    10
 74
     0
 42
0.000000001
 43
0.0000000001
 12
1.0
 22
0.0
 32
0.0
 13
1.0
 23
0.0
 33
0.0
 40
0.0
 40
0.0
 40
0.0
 40
0.0
 40
2.567837055335214
 40
2.567837055335214
 40
2.567837055335214
 40
17.44304127047145
 40
17.44304127047145
 40
17.44304127047145
 40
18.32786511231101
 40
18.32786511231101
 40
18.32786511231101
 40
18.32786511231101
 10
140.1660923269549
 20
518.0159579421855
 30
0.0
 41
1.0
 10
140.914253318359
 20
517.5987306240557
 30
0.0
 41
0.9983917066920325
 10
141.6316457252832
 20
517.1305729171445
 30
0.0
 41
0.9983917066920317
 10
142.3148082155049
 20
516.6137436261723
 30
0.0
 41
1.0
 10
143.9328769279559
 20
515.3741502092437
 30
0.0
 41
1.0
 10
144.9765989627072
 20
514.0143186658016
 30
0.0
 41
1.0
 10
145.282021719916
 20
512.594113589755
 30
0.0
 41
1.0
 10
145.3444593719448
 20
512.3052974215354
 30
0.0
 41
0.9963040949508366
 10
145.3761812290459
 20
512.0115169538421
 30
0.0
 41
0.9963040949508368
 10
145.3768355683054
 20
511.7160295408176
 30
0.0
 41
1.0
  0
LINE
  5
2A6
330
1F
100
AcDbEntity
  8
Make2D$可见线$普通线
100
AcDbLine
 10
145.3766996671928
 20
511.5208957686202
 30
0.0
 11
145.3767001859039
 21
500.1482713700872
 31
0.0
  0
LINE
  5
2A7
330
1F
100
AcDbEntity
  8
Make2D$可见线$普通线
100
AcDbLine
 10
143.0918592426788
 20
495.8790907333583
 30
0.0
 11
141.5733394138971
 21
494.4659505013059
 31
0.0
  0
SPLINE
  5
2A8
330
1F
100
AcDbEntity
  8
Make2D$可见线$普通线
100
AcDbSpline
210
0.0
220
0.0
230
1.0
 70
    12
 71
     2
 72
     8
 73
     5
 74
     0
 42
0.000000001
 43
0.0000000001
 12
1.0
 22
0.0
 32
0.0
 13
1.0
 23
0.0
 33
0.0
 40
0.0
 40
0.0
 40
0.0
 40
2.303181589180431
 40
2.303181589180431
 40
4.056376236744479
 40
4.056376236744479
 40
4.056376236744479
 10
145.3220254189484
 20
499.4779781127892
 30
0.0
 41
1.0
 10
145.1160361339116
 20
498.3251082896683
 30
0.0
 41
0.9751634546099259
 10
144.4322507103809
 20
497.3743307609162
 30
0.0
 41
1.0
 10
143.925412228564
 20
496.6552468767205
 30
0.0
 41
0.9946266905686356
 10
143.2813495572481
 20
496.0559554996944
 30
0.0
 41
1.0
  0
SPLINE
  5
2A9
330
1F
100
AcDbEntity
  8
Make2D$可见线$普通线
100
AcDbSpline
210
0.0
220
0.0
230
1.0
 70
    12
 71
     2
 72
    10
 73
     7
 74
     0
 42
0.000000001
 43
0.0000000001
 12
1.0
 22
0.0
 32
0.0
 13
1.0
 23
0.0
 33
0.0
 40
0.0
 40
0.0
 40
0.0
 40
19.51632444106022
 40
19.51632444106022
 40
29.1867348509053
 40
29.1867348509053
 40
35.23557540430943
 40
35.23557540430943
 40
35.23557540430943
 10
90.37651822287216
 20
484.3352226958156
 30
0.0
 41
1.0
 10
80.6100585670314
 20
484.3235723684753
 30
0.0
 41
0.9987250444113541
 10
70.89219963931646
 20
485.2967567293874
 30
0.0
 41
1.0
 10
66.0797879219444
 20
485.7834335266674
 30
0.0
 41
0.9994565846805235
 10
61.30990078000809
 20
486.5861398837503
 30
0.0
 41
1.0
 10
58.32684098565895
 20
487.089261952326
 30
0.0
 41
0.9996181396101189
 10
55.37613155662939
 20
487.7564136726911
 30
0.0
 41
1.0
  0
SPLINE
  5
2AA
330
1F
100
AcDbEntity
  8
Make2D$可见线$普通线
100
AcDbSpline
210
0.0
220
0.0
230
1.0
 70
    12
 71
     3
 72
    17
 73
    13
 74
     0
 42
0.000000001
 43
0.0000000001
 12
1.0
 22
0.0
 32
0.0
 13
1.0
 23
0.0
 33
0.0
 40
6.105869225640962
 40
6.105869225640962
 40
6.105869225640962
 40
6.105869225640962
 40
16.44579250724971
 40
16.44579250724971
 40
16.44579250724971
 40
27.28576798061192
 40
27.28576798061192
 40
27.28576798061192
 40
49.06036484142014
 40
49.06036484142014
 40
49.06036484142014
 40
68.57663679853017
 40
68.57663679853017
 40
68.57663679853017
 40
68.57663679853017
 10
139.5433273762753
 20
492.9252890503424
 30
0.0
 41
1.0
 10
138.2167688406041
 20
492.0821582735794
 30
0.0
 41
1.0
 10
136.586807405817
 20
491.2826831432868
 30
0.0
 41
1.0
 10
134.6832362562684
 20
490.5325293694247
 30
0.0
 41
1.0
 10
132.6877624661847
 20
489.7461588706761
 30
0.0
 41
1.0
 10
130.3922768096343
 20
489.0149331585791
 30
0.0
 41
1.0
 10
127.8336682408406
 20
488.3527310126717
 30
0.0
 41
1.0
 10
122.721137345821
 20
487.0295395831608
 30
0.0
 41
1.0
 10
116.5660201307146
 20
485.9839884481066
 30
0.0
 41
1.0
 10
109.8607866531288
 20
485.2967295443106
 30
0.0
 41
1.0
 10
103.3849845782714
 20
484.6482461979511
 30
0.0
 41
0.999150135079995
 10
96.8847040744825
 20
484.3274712997864
 30
0.0
 41
0.999150135079995
 10
90.37651822287239
 20
484.3352226958162
 30
0.0
 41
1.0
  0
LINE
  5
2AB
330
1F
100
AcDbEntity
  8
Make2D$可见线$普通线
100
AcDbLine
 10
80.66683257492662
 20
616.8681476659144
 30
0.0
 11
80.87328508848077
 21
617.1082637661775
 31
0.0
  0
SPLINE
  5
2AC
330
1F
100
AcDbEntity
  8
Make2D$可见线$普通线
100
AcDbSpline
210
0.0
220
0.0
230
1.0
 70
    12
 71
     2
 72
    16
 73
    13
 74
     0
 42
0.000000001
 43
0.0000000001
 12
1.0
 22
0.0
 32
0.0
 13
1.0
 23
0.0
 33
0.0
 40
0.0
 40
0.0
 40
0.0
 40
0.6529544232689347
 40
0.6529544232689347
 40
5.5096034649611
 40
5.5096034649611
 40
10.40424795407359
 40
10.40424795407359
 40
15.2990199878124
 40
15.2990199878124
 40
20.1553566061163
 40
20.1553566061163
 40
20.80861680013554
 40
20.80861680013554
 40
20.80861680013554
 10
81.08618733130629
 20
617.3432479747826
 30
0.0
 41
1.0
 10
81.30857099040507
 20
617.5823797324757
 30
0.0
 41
0.9996404656387297
 10
81.54345398000032
 20
617.8092463685649
 30
0.0
 41
1.0
 10
83.3152022363961
 20
619.5143025703555
 30
0.0
 41
0.9814375632939351
 10
85.59847774373452
 20
620.42696981141
 30
0.0
 41
1.0
 10
87.89939726085669
 20
621.344402067134
 30
0.0
 41
0.982078696090051
 10
90.37647463830126
 20
621.3448860809394
 30
0.0
 41
1.0
 10
92.8535916851962
 20
621.3441882269071
 30
0.0
 41
0.9820933898662998
 10
95.15461197837521
 20
620.4269014879886
 30
0.0
 41
1.0
 10
97.43787383249057
 20
619.5145556748002
 30
0.0
 41
0.9814219444733939
 10
99.20945280194246
 20
617.8095138769849
 30
0.0
 41
1.0
 10
99.44443346330618
 20
617.5825281078411
 30
0.0
 41
0.9996400246265512
 10
99.66690039927437
 20
617.3432648365067
 30
0.0
 41
1.0
  0
LINE
  5
2AD
330
1F
100
AcDbEntity
  8
Make2D$可见线$普通线
100
AcDbLine
 10
99.87978410400706
 20
617.1082616516122
 30
0.0
 11
100.0862179020979
 21
616.8681301087015
 31
0.0
  0
LINE
  5
2AE
330
1F
100
AcDbEntity
  8
Make2D$可见线$普通线
100
AcDbLine
 10
102.8771158375864
 20
529.4082281514376
 30
0.0
 11
102.875647399828
 21
529.3466024125494
 31
0.0
  0
SPLINE
  5
2AF
330
1F
100
AcDbEntity
  8
Make2D$可见线$普通线
100
AcDbSpline
210
0.0
220
0.0
230
1.0
 70
    12
 71
     3
 72
    30
 73
    26
 74
     0
 42
0.000000001
 43
0.0000000001
 12
1.0
 22
0.0
 32
0.0
 13
1.0
 23
0.0
 33
0.0
 40
0.3643063776273632
 40
0.3643063776273632
 40
0.3643063776273632
 40
0.3643063776273632
 40
2.49156020084099
 40
2.49156020084099
 40
4.905880106717197
 40
4.905880106717197
 40
4.905880106717197
 40
9.73476621547027
 40
9.73476621547027
 40
9.73476621547027
 40
13.76238102440115
 40
13.76238102440115
 40
13.76238102440115
 40
23.07025883446696
 40
23.07025883446696
 40
23.07025883446696
 40
27.09805448801056
 40
27.09805448801056
 40
27.09805448801056
 40
31.92595086210102
 40
31.92595086210102
 40
31.92595086210102
 40
34.34098189511882
 40
34.34098189511882
 40
36.46850386119023
 40
36.46850386119023
 40
36.46850386119023
 40
36.46850386119023
 10
102.8690442124481
 20
529.2638746522479
 30
0.0
 41
1.0
 10
102.8379275174887
 20
528.9861135147677
 30
0.0
 41
1.0
 10
102.7186294645943
 20
528.7276415743477
 30
0.0
 41
1.0
 10
102.3421619000437
 20
528.2378359714176
 30
0.0
 41
1.0
 10
102.06374467507
 20
528.0055444235128
 30
0.0
 41
1.0
 10
101.7285356662205
 20
527.7960955900376
 30
0.0
 41
1.0
 10
101.0592329026688
 20
527.3778947679634
 30
0.0
 41
1.0
 10
100.1362849227282
 20
527.0257496947451
 30
0.0
 41
1.0
 10
98.98735820141542
 20
526.7283804972028
 30
0.0
 41
1.0
 10
97.68319978117988
 20
526.404839129181
 30
0.0
 41
0.9982839187684993
 10
96.35919886599483
 20
526.1756453716745
 30
0.0
 41
0.9982839187685
 10
95.02217173522217
 20
526.0419791699998
 30
0.0
 41
1.0
 10
91.93056710653919
 20
525.7227209899518
 30
0.0
 41
0.9964736752865342
 10
88.82252190648391
 20
525.7227150857013
 30
0.0
 41
0.9964736752865342
 10
85.73091606485491
 20
526.0419615197095
 30
0.0
 41
1.0
 10
84.39383526879818
 20
526.1756885889669
 30
0.0
 41
0.9982852229336392
 10
83.06977893569562
 20
526.4049107759589
 30
0.0
 41
0.9982852229336391
 10
81.76555844985296
 20
526.7284488858382
 30
0.0
 41
1.0
 10
80.61666204264088
 20
527.0257790963875
 30
0.0
 41
1.0
 10
79.69405311479431
 20
527.377761617386
 30
0.0
 41
1.0
 10
79.0248177773226
 20
527.7959321256538
 30
0.0
 41
1.0
 10
78.68955157891946
 20
528.0054226123948
 30
0.0
 41
1.0
 10
78.41109351698037
 20
528.2377539772257
 30
0.0
 41
1.0
 10
78.03453271134117
 20
528.7275032190093
 30
0.0
 41
1.0
 10
77.91507408473944
 20
528.9860041756251
 30
0.0
 41
1.0
 10
77.88389060290854
 20
529.2638584033531
 30
0.0
 41
1.0
  0
LINE
  5
2B0
330
1F
100
AcDbEntity
  8
Make2D$可见线$普通线
100
AcDbLine
 10
77.87726897378298
 20
529.346649787669
 30
0.0
 11
77.8757940479361
 21
529.4083928612381
 31
0.0
  0
LINE
  5
2B1
330
1F
100
AcDbEntity
  8
Make2D$可见线$普通线
100
AcDbLine
 10
102.8765353382539
 20
574.1834730509472
 30
0.0
 11
102.8765353382539
 21
609.2534536622138
 31
0.0
  0
LINE
  5
2B2
330
1F
100
AcDbEntity
  8
Make2D$可见线$普通线
100
AcDbLine
 10
77.87653533825392
 20
574.1834730509472
 30
0.0
 11
77.87653533825392
 21
609.2534536622138
 31
0.0
  0
LINE
  5
2B3
330
1F
100
AcDbEntity
  8
Make2D$可见线$普通线
100
AcDbLine
 10
102.8765353382539
 20
531.3174025522642
 30
0.0
 11
102.8765353382539
 21
574.1834730509472
 31
0.0
  0
LINE
  5
2B4
330
1F
100
AcDbEntity
  8
Make2D$可见线$普通线
100
AcDbLine
 10
77.87653533825392
 20
531.3174025522642
 30
0.0
 11
77.87653533825392
 21
574.1834730509472
 31
0.0
  0
LINE
  5
2B5
330
1F
100
AcDbEntity
  8
Make2D$可见线$普通线
100
AcDbLine
 10
102.8765353382539
 20
529.4086553519664
 30
0.0
 11
102.8765353382539
 21
531.317402552265
 31
0.0
  0
LINE
  5
2B6
330
1F
100
AcDbEntity
  8
Make2D$可见线$普通线
100
AcDbLine
 10
77.87653533825392
 20
529.4086553519664
 30
0.0
 11
77.87653533825392
 21
531.317402552265
 31
0.0
  0
ARC
  5
2B7
330
1F
100
AcDbEntity
  8
Make2D$可见线$普通线
100
AcDbCircle
 10
45.37613382451145
 20
328.9952483602904
 30
0.0
 40
17.49523967918135
100
AcDbArc
 50
158.4018390163058
 51
180.0000000000007
  0
ARC
  5
2B8
330
1F
100
AcDbEntity
  8
Make2D$可见线$普通线
100
AcDbCircle
 10
45.37613382451438
 20
328.9952483602904
 30
0.0
 40
17.49523967918403
100
AcDbArc
 50
135.0000000000023
 51
158.4018390163095
  0
ARC
  5
2B9
330
1F
100
AcDbEntity
  8
Make2D$可见线$普通线
100
AcDbCircle
 10
45.37613382452048
 20
328.9952483602821
 30
0.0
 40
17.49523967919419
100
AcDbArc
 50
124.8607696514186
 51
134.9999999999974
  0
ARC
  5
2BA
330
1F
100
AcDbEntity
  8
Make2D$可见线$普通线
100
AcDbCircle
 10
45.3761338245088
 20
328.9952483602837
 30
0.0
 40
17.49523967919183
100
AcDbArc
 50
45.00000000000298
 51
55.13924845343291
  0
ARC
  5
2BB
330
1F
100
AcDbEntity
  8
Make2D$可见线$普通线
100
AcDbCircle
 10
45.37613382449996
 20
328.9952483602802
 30
0.0
 40
17.49523967920058
100
AcDbArc
 50
21.59816098370489
 51
44.99999999999066
  0
ARC
  5
2BC
330
1F
100
AcDbEntity
  8
Make2D$可见线$普通线
100
AcDbCircle
 10
45.37613382451342
 20
328.9952483602906
 30
0.0
 40
17.49523967918425
100
AcDbArc
 50
359.9999999999985
 51
21.59816098368942
  0
ARC
  5
2BD
330
1F
100
AcDbEntity
  8
Make2D$可见线$普通线
100
AcDbCircle
 10
45.37613382451769
 20
328.9952483602884
 30
0.0
 40
17.49523967917998
100
AcDbArc
 50
338.4018390163079
 51
0.0000000000057709
  0
ARC
  5
2BE
330
1F
100
AcDbEntity
  8
Make2D$可见线$普通线
100
AcDbCircle
 10
45.37613382450569
 20
328.9952483602963
 30
0.0
 40
17.49523967919404
100
AcDbArc
 50
315.0000000000043
 51
338.4018390162983
  0
ARC
  5
2BF
330
1F
100
AcDbEntity
  8
Make2D$可见线$普通线
100
AcDbCircle
 10
45.37613382451795
 20
328.9952483602855
 30
0.0
 40
17.49523967917777
100
AcDbArc
 50
304.8607515465577
 51
315.0000000000007
  0
ARC
  5
2C0
330
1F
100
AcDbEntity
  8
Make2D$可见线$普通线
100
AcDbCircle
 10
45.37613382453242
 20
328.9952483603139
 30
0.0
 40
17.49523967921412
100
AcDbArc
 50
225.6418467703546
 51
235.1392303485884
  0
ARC
  5
2C1
330
1F
100
AcDbEntity
  8
Make2D$可见线$普通线
100
AcDbCircle
 10
45.37613382451273
 20
328.9952483602896
 30
0.0
 40
17.49523967918281
100
AcDbArc
 50
181.1000468333579
 51
225.6418426676365
  0
ARC
  5
2C2
330
1F
100
AcDbEntity
  8
Make2D$可见线$普通线
100
AcDbCircle
 10
45.37613382437307
 20
328.9952483602877
 30
0.0
 40
17.49523967904297
100
AcDbArc
 50
179.9999999999922
 51
181.1000356493083
  0
ARC
  5
2C3
330
1F
100
AcDbEntity
  8
Make2D$可见线$普通线
100
AcDbCircle
 10
45.37613382451392
 20
328.99524836029
 30
0.0
 40
99.99524836028982
100
AcDbArc
 50
95.73944541691581
 51
179.9999999999999
  0
ARC
  5
2C4
330
1F
100
AcDbEntity
  8
Make2D$可见线$普通线
100
AcDbCircle
 10
45.37613382451391
 20
328.9952483602896
 30
0.0
 40
99.99524836029032
100
AcDbArc
 50
0.0000000000002931
 51
84.26055719462872
  0
ARC
  5
2C5
330
1F
100
AcDbEntity
  8
Make2D$可见线$普通线
100
AcDbCircle
 10
45.37613382451408
 20
328.9952483602901
 30
0.0
 40
99.99524836029005
100
AcDbArc
 50
269.9999999999999
 51
0.0000000000000326
  0
ARC
  5
2C6
330
1F
100
AcDbEntity
  8
Make2D$可见线$普通线
100
AcDbCircle
 10
45.37613382451372
 20
328.9952483602898
 30
0.0
 40
99.99524836028962
100
AcDbArc
 50
179.9999999999998
 51
270.0000000000002
  0
ARC
  5
2C7
330
1F
100
AcDbEntity
  8
Make2D$可见线$普通线
100
AcDbCircle
 10
15.35822304041496
 20
615.4504196546842
 30
0.0
 40
0.4654961559728639
100
AcDbArc
 50
322.4079668500395
 51
357.6198650060861
  0
ARC
  5
2C8
330
1F
100
AcDbEntity
  8
Make2D$可见线$普通线
100
AcDbCircle
 10
15.36776698028876
 20
594.4962237151152
 30
0.0
 40
0.4544662612994507
100
AcDbArc
 50
3.734855633082997
 51
37.75790734749183
  0
ARC
  5
2C9
330
1F
100
AcDbEntity
  8
Make2D$可见线$普通线
100
AcDbCircle
 10
16.12601932607062
 20
615.4674697830965
 30
0.0
 40
0.4997727405115045
100
AcDbArc
 50
187.3132871882763
 51
217.0356558270627
  0
ARC
  5
2CA
330
1F
100
AcDbEntity
  8
Make2D$可见线$普通线
100
AcDbCircle
 10
16.08893034053566
 20
594.494683496544
 30
0.0
 40
0.4574308425310028
100
AcDbArc
 50
142.2856596239491
 51
176.6641489423926
  0
SPLINE
  5
2CB
330
1F
100
AcDbEntity
  8
Make2D$可见线$普通线
100
AcDbSpline
210
0.0
220
0.0
230
1.0
 70
    12
 71
     2
 72
    10
 73
     7
 74
     0
 42
0.000000001
 43
0.0000000001
 12
1.0
 22
0.0
 32
0.0
 13
1.0
 23
0.0
 33
0.0
 40
0.0
 40
0.0
 40
0.0
 40
4.900560871798926
 40
4.900560871798926
 40
9.801121743597852
 40
9.801121743597852
 40
24.11377163661082
 40
24.11377163661082
 40
24.11377163661082
 10
185.0781685601405
 20
628.2831295574316
 30
0.0
 41
1.0
 10
187.7713063802893
 20
628.2422662091602
 30
0.0
 41
0.8699205779079993
 10
189.1192324367176
 20
625.9103664518916
 30
0.0
 41
1.0
 10
190.4671584931458
 20
623.5784666946226
 30
0.0
 41
0.8699205779079993
 10
189.1584044190463
 20
621.2243588158128
 30
0.0
 41
1.0
 10
185.3010741673236
 20
614.2860258497806
 30
0.0
 41
0.8585551753238219
 10
177.3632967371857
 20
614.391621720812
 30
0.0
 41
1.0
  0
ENDSEC
  0
SECTION
  2
OBJECTS
  0
DICTIONARY
  5
C
330
0
100
AcDbDictionary
281
     1
  3
ACAD_GROUP
350
D
  3
ACAD_LAYOUT
350
1A
  3
ACAD_MATERIAL
350
3B
  3
ACAD_MLEADERSTYLE
350
2F6
  3
ACAD_MLINESTYLE
350
17
  3
ACAD_PLOTSETTINGS
350
19
  3
ACAD_PLOTSTYLENAME
350
E
  3
ACAD_SCALELIST
350
3F
  3
ACAD_TABLESTYLE
350
2F5
  3
ACAD_VISUALSTYLE
350
2A
  3
AcDbVariableDictionary
350
2CC
  0
DICTIONARY
  5
D
102
{ACAD_REACTORS
330
C
102
}
330
C
100
AcDbDictionary
281
     1
  0
DICTIONARY
  5
1A
102
{ACAD_REACTORS
330
C
102
}
330
C
100
AcDbDictionary
281
     1
  3
Layout1
350
1E
  3
Layout2
350
26
  3
Model
350
22
  0
DICTIONARY
  5
3B
102
{ACAD_REACTORS
330
C
102
}
330
C
100
AcDbDictionary
281
     1
  3
ByBlock
350
3D
  3
ByLayer
350
3C
  3
Global
350
3E
  0
DICTIONARY
  5
2F6
102
{ACAD_REACTORS
330
C
102
}
330
C
100
AcDbDictionary
281
     1
  0
DICTIONARY
  5
17
102
{ACAD_REACTORS
330
C
102
}
330
C
100
AcDbDictionary
281
     1
  3
Standard
350
18
  0
DICTIONARY
  5
19
102
{ACAD_REACTORS
330
C
102
}
330
C
100
AcDbDictionary
281
     1
  0
ACDBDICTIONARYWDFLT
  5
E
102
{ACAD_REACTORS
330
C
102
}
330
C
100
AcDbDictionary
281
     1
  3
Normal
350
F
100
AcDbDictionaryWithDefault
340
F
  0
DICTIONARY
  5
3F
102
{ACAD_REACTORS
330
C
102
}
330
C
100
AcDbDictionary
281
     1
  3
A0
350
40
  3
A1
350
41
  3
A2
350
42
  3
A3
350
43
  3
A4
350
44
  3
A5
350
45
  3
A6
350
46
  3
A7
350
47
  3
A8
350
48
  3
A9
350
49
  3
B0
350
4A
  3
B1
350
4B
  3
B2
350
4C
  3
B3
350
4D
  3
B4
350
4E
  3
B5
350
4F
  3
B6
350
50
  3
B7
350
51
  3
B8
350
52
  3
B9
350
53
  3
C0
350
54
  3
C1
350
55
  3
C2
350
56
  3
C3
350
57
  3
C4
350
58
  3
C5
350
59
  3
C6
350
5A
  3
C7
350
5B
  3
C8
350
5C
  3
C9
350
5D
  3
D0
350
5E
  3
D1
350
5F
  3
D2
350
60
  0
DICTIONARY
  5
2F5
102
{ACAD_REACTORS
330
C
102
}
330
C
100
AcDbDictionary
281
     1
  0
DICTIONARY
  5
2A
102
{ACAD_REACTORS
330
C
102
}
330
C
100
AcDbDictionary
281
     1
  3
2dWireframe
350
2F
  3
3D Hidden
350
31
  3
3dWireframe
350
30
  3
Basic
350
32
  3
Brighten
350
36
  3
ColorChange
350
3A
  3
Conceptual
350
34
  3
Dim
350
35
  3
Facepattern
350
39
  3
Flat
350
2B
  3
FlatWithEdges
350
2C
  3
Gouraud
350
2D
  3
GouraudWithEdges
350
2E
  3
Linepattern
350
38
  3
Realistic
350
33
  3
Thicken
350
37
  0
DICTIONARY
  5
2CC
102
{ACAD_REACTORS
330
C
102
}
330
C
100
AcDbDictionary
281
     1
  3
CANNOSCALE
350
2CD
  3
MSLTSCALE
350
2CE
  0
LAYOUT
  5
1E
102
{ACAD_REACTORS
330
1A
102
}
330
1A
100
AcDbPlotSettings
  1

  2
none_device
  4

  6

 40
0.0
 41
0.0
 42
0.0
 43
0.0
 44
0.0
 45
0.0
 46
0.0
 47
0.0
 48
0.0
 49
0.0
140
0.0
141
0.0
142
1.0
143
1.0
 70
   688
 72
     0
 73
     0
 74
     5
  7

 75
    16
 76
     0
 77
     2
 78
   300
147
1.0
148
0.0
149
0.0
100
AcDbLayout
  1
Layout1
 70
     1
 71
     1
 10
0.0
 20
0.0
 11
12.0
 21
9.0
 12
0.0
 22
0.0
 32
0.0
 14
1.000000000000000E+20
 24
1.000000000000000E+20
 34
1.000000000000000E+20
 15
-1.000000000000000E+20
 25
-1.000000000000000E+20
 35
-1.000000000000000E+20
146
0.0
 13
0.0
 23
0.0
 33
0.0
 16
1.0
 26
0.0
 36
0.0
 17
0.0
 27
1.0
 37
0.0
 76
     0
330
1B
  0
LAYOUT
  5
26
102
{ACAD_REACTORS
330
1A
102
}
330
1A
100
AcDbPlotSettings
  1

  2
none_device
  4

  6

 40
0.0
 41
0.0
 42
0.0
 43
0.0
 44
0.0
 45
0.0
 46
0.0
 47
0.0
 48
0.0
 49
0.0
140
0.0
141
0.0
142
1.0
143
1.0
 70
   688
 72
     0
 73
     0
 74
     5
  7

 75
    16
 76
     0
 77
     2
 78
   300
147
1.0
148
0.0
149
0.0
100
AcDbLayout
  1
Layout2
 70
     1
 71
     2
 10
0.0
 20
0.0
 11
0.0
 21
0.0
 12
0.0
 22
0.0
 32
0.0
 14
0.0
 24
0.0
 34
0.0
 15
0.0
 25
0.0
 35
0.0
146
0.0
 13
0.0
 23
0.0
 33
0.0
 16
1.0
 26
0.0
 36
0.0
 17
0.0
 27
1.0
 37
0.0
 76
     0
330
23
  0
LAYOUT
  5
22
102
{ACAD_REACTORS
330
1A
102
}
330
1A
100
AcDbPlotSettings
  1

  2
none_device
  4
Letter_(8.50_x_11.00_Inches)
  6

 40
6.35
 41
6.35
 42
6.35000508
 43
6.35000508
 44
215.9
 45
279.4
 46
0.0
 47
0.0
 48
0.0
 49
0.0
140
0.0
141
0.0
142
1.0
143
1.0
 70
  1712
 72
     0
 73
     0
 74
     0
  7

 75
     0
 76
     0
 77
     2
 78
   300
147
1.0
148
0.0
149
0.0
100
AcDbLayout
  1
Model
 70
     1
 71
     0
 10
0.0
 20
0.0
 11
12.0
 21
9.0
 12
0.0
 22
0.0
 32
0.0
 14
-95.31279156049344
 24
229.0
 34
0.0
 15
189.7546100229885
 25
679.9714959716439
 35
0.0
146
0.0
 13
0.0
 23
0.0
 33
0.0
 16
1.0
 26
0.0
 36
0.0
 17
0.0
 27
1.0
 37
0.0
 76
     0
330
1F
331
29
  0
MATERIAL
  5
3D
102
{ACAD_REACTORS
330
3B
102
}
102
{ACAD_XDICTIONARY
360
2F1
102
}
330
3B
100
AcDbMaterial
  1
ByBlock
  0
MATERIAL
  5
3C
102
{ACAD_REACTORS
330
3B
102
}
102
{ACAD_XDICTIONARY
360
2EF
102
}
330
3B
100
AcDbMaterial
  1
ByLayer
  0
MATERIAL
  5
3E
102
{ACAD_REACTORS
330
3B
102
}
102
{ACAD_XDICTIONARY
360
2F3
102
}
330
3B
100
AcDbMaterial
  1
Global
  0
MLINESTYLE
  5
18
102
{ACAD_REACTORS
330
17
102
}
330
17
100
AcDbMlineStyle
  2
Standard
 70
     0
  3

 62
   256
 51
90.0
 52
90.0
 71
     2
 49
0.5
 62
   256
  6
BYLAYER
 49
-0.5
 62
   256
  6
BYLAYER
  0
ACDBPLACEHOLDER
  5
F
102
{ACAD_REACTORS
330
E
102
}
330
E
  0
SCALE
  5
40
102
{ACAD_REACTORS
330
3F
102
}
330
3F
100
AcDbScale
 70
     0
300
1:1
140
1.0
141
1.0
290
     1
  0
SCALE
  5
41
102
{ACAD_REACTORS
330
3F
102
}
330
3F
100
AcDbScale
 70
     0
300
1:2
140
1.0
141
2.0
290
     0
  0
SCALE
  5
42
102
{ACAD_REACTORS
330
3F
102
}
330
3F
100
AcDbScale
 70
     0
300
1:4
140
1.0
141
4.0
290
     0
  0
SCALE
  5
43
102
{ACAD_REACTORS
330
3F
102
}
330
3F
100
AcDbScale
 70
     0
300
1:5
140
1.0
141
5.0
290
     0
  0
SCALE
  5
44
102
{ACAD_REACTORS
330
3F
102
}
330
3F
100
AcDbScale
 70
     0
300
1:8
140
1.0
141
8.0
290
     0
  0
SCALE
  5
45
102
{ACAD_REACTORS
330
3F
102
}
330
3F
100
AcDbScale
 70
     0
300
1:10
140
1.0
141
10.0
290
     0
  0
SCALE
  5
46
102
{ACAD_REACTORS
330
3F
102
}
330
3F
100
AcDbScale
 70
     0
300
1:16
140
1.0
141
16.0
290
     0
  0
SCALE
  5
47
102
{ACAD_REACTORS
330
3F
102
}
330
3F
100
AcDbScale
 70
     0
300
1:20
140
1.0
141
20.0
290
     0
  0
SCALE
  5
48
102
{ACAD_REACTORS
330
3F
102
}
330
3F
100
AcDbScale
 70
     0
300
1:30
140
1.0
141
30.0
290
     0
  0
SCALE
  5
49
102
{ACAD_REACTORS
330
3F
102
}
330
3F
100
AcDbScale
 70
     0
300
1:40
140
1.0
141
40.0
290
     0
  0
SCALE
  5
4A
102
{ACAD_REACTORS
330
3F
102
}
330
3F
100
AcDbScale
 70
     0
300
1:50
140
1.0
141
50.0
290
     0
  0
SCALE
  5
4B
102
{ACAD_REACTORS
330
3F
102
}
330
3F
100
AcDbScale
 70
     0
300
1:100
140
1.0
141
100.0
290
     0
  0
SCALE
  5
4C
102
{ACAD_REACTORS
330
3F
102
}
330
3F
100
AcDbScale
 70
     0
300
2:1
140
2.0
141
1.0
290
     0
  0
SCALE
  5
4D
102
{ACAD_REACTORS
330
3F
102
}
330
3F
100
AcDbScale
 70
     0
300
4:1
140
4.0
141
1.0
290
     0
  0
SCALE
  5
4E
102
{ACAD_REACTORS
330
3F
102
}
330
3F
100
AcDbScale
 70
     0
300
8:1
140
8.0
141
1.0
290
     0
  0
SCALE
  5
4F
102
{ACAD_REACTORS
330
3F
102
}
330
3F
100
AcDbScale
 70
     0
300
10:1
140
10.0
141
1.0
290
     0
  0
SCALE
  5
50
102
{ACAD_REACTORS
330
3F
102
}
330
3F
100
AcDbScale
 70
     0
300
100:1
140
100.0
141
1.0
290
     0
  0
SCALE
  5
51
102
{ACAD_REACTORS
330
3F
102
}
330
3F
100
AcDbScale
 70
     0
300
1/128" = 1'-0"
140
0.0078125
141
12.0
290
     0
  0
SCALE
  5
52
102
{ACAD_REACTORS
330
3F
102
}
330
3F
100
AcDbScale
 70
     0
300
1/64" = 1'-0"
140
0.015625
141
12.0
290
     0
  0
SCALE
  5
53
102
{ACAD_REACTORS
330
3F
102
}
330
3F
100
AcDbScale
 70
     0
300
1/32" = 1'-0"
140
0.03125
141
12.0
290
     0
  0
SCALE
  5
54
102
{ACAD_REACTORS
330
3F
102
}
330
3F
100
AcDbScale
 70
     0
300
1/16" = 1'-0"
140
0.0625
141
12.0
290
     0
  0
SCALE
  5
55
102
{ACAD_REACTORS
330
3F
102
}
330
3F
100
AcDbScale
 70
     0
300
3/32" = 1'-0"
140
0.09375
141
12.0
290
     0
  0
SCALE
  5
56
102
{ACAD_REACTORS
330
3F
102
}
330
3F
100
AcDbScale
 70
     0
300
1/8" = 1'-0"
140
0.125
141
12.0
290
     0
  0
SCALE
  5
57
102
{ACAD_REACTORS
330
3F
102
}
330
3F
100
AcDbScale
 70
     0
300
3/16" = 1'-0"
140
0.1875
141
12.0
290
     0
  0
SCALE
  5
58
102
{ACAD_REACTORS
330
3F
102
}
330
3F
100
AcDbScale
 70
     0
300
1/4" = 1'-0"
140
0.25
141
12.0
290
     0
  0
SCALE
  5
59
102
{ACAD_REACTORS
330
3F
102
}
330
3F
100
AcDbScale
 70
     0
300
3/8" = 1'-0"
140
0.375
141
12.0
290
     0
  0
SCALE
  5
5A
102
{ACAD_REACTORS
330
3F
102
}
330
3F
100
AcDbScale
 70
     0
300
1/2" = 1'-0"
140
0.5
141
12.0
290
     0
  0
SCALE
  5
5B
102
{ACAD_REACTORS
330
3F
102
}
330
3F
100
AcDbScale
 70
     0
300
3/4" = 1'-0"
140
0.75
141
12.0
290
     0
  0
SCALE
  5
5C
102
{ACAD_REACTORS
330
3F
102
}
330
3F
100
AcDbScale
 70
     0
300
1" = 1'-0"
140
1.0
141
12.0
290
     0
  0
SCALE
  5
5D
102
{ACAD_REACTORS
330
3F
102
}
330
3F
100
AcDbScale
 70
     0
300
1-1/2" = 1'-0"
140
1.5
141
12.0
290
     0
  0
SCALE
  5
5E
102
{ACAD_REACTORS
330
3F
102
}
330
3F
100
AcDbScale
 70
     0
300
3" = 1'-0"
140
3.0
141
12.0
290
     0
  0
SCALE
  5
5F
102
{ACAD_REACTORS
330
3F
102
}
330
3F
100
AcDbScale
 70
     0
300
6" = 1'-0"
140
6.0
141
12.0
290
     0
  0
SCALE
  5
60
102
{ACAD_REACTORS
330
3F
102
}
330
3F
100
AcDbScale
 70
     0
300
1'-0" = 1'-0"
140
12.0
141
12.0
290
     0
  0
VISUALSTYLE
  5
2F
102
{ACAD_REACTORS
330
2A
102
}
102
{ACAD_XDICTIONARY
360
2D7
102
}
330
2A
100
AcDbVisualStyle
  2
2dWireframe
 70
     4
 71
     0
 72
     2
 73
     0
 90
        0
 40
0.6
 41
30.0
 62
     5
 63
     7
421
 16777215
 74
     1
 91
        4
 64
     7
 65
   257
 75
     1
175
     1
 42
1.0
 92
        0
 66
   257
 43
1.0
 76
     1
 77
     6
 78
     2
 67
     7
 79
     5
170
     0
171
     0
290
     0
174
     0
 93
        1
 44
0.0
173
     0
291
     0
 45
0.0
1001
ACAD
1000
AcDbSavedByObjectVersion
1070
     0
  0
VISUALSTYLE
  5
31
102
{ACAD_REACTORS
330
2A
102
}
102
{ACAD_XDICTIONARY
360
2DB
102
}
330
2A
100
AcDbVisualStyle
  2
3D Hidden
 70
     6
 71
     1
 72
     2
 73
     2
 90
        0
 40
0.6
 41
30.0
 62
     5
 63
     7
421
 16777215
 74
     2
 91
        2
 64
     7
 65
   257
 75
     2
175
     1
 42
40.0
 92
        0
 66
   257
 43
1.0
 76
     1
 77
     6
 78
     2
 67
     7
 79
     3
170
     0
171
     0
290
     0
174
     0
 93
        1
 44
0.0
173
     0
291
     0
 45
0.0
1001
ACAD
1000
AcDbSavedByObjectVersion
1070
     0
  0
VISUALSTYLE
  5
30
102
{ACAD_REACTORS
330
2A
102
}
102
{ACAD_XDICTIONARY
360
2D9
102
}
330
2A
100
AcDbVisualStyle
  2
3dWireframe
 70
     5
 71
     0
 72
     2
 73
     0
 90
        0
 40
0.6
 41
30.0
 62
     5
 63
     7
421
 16777215
 74
     1
 91
        4
 64
     7
 65
   257
 75
     1
175
     1
 42
1.0
 92
        0
 66
   257
 43
1.0
 76
     1
 77
     6
 78
     2
 67
     7
 79
     5
170
     0
171
     0
290
     0
174
     0
 93
        1
 44
0.0
173
     0
291
     0
 45
0.0
1001
ACAD
1000
AcDbSavedByObjectVersion
1070
     0
  0
VISUALSTYLE
  5
32
102
{ACAD_REACTORS
330
2A
102
}
102
{ACAD_XDICTIONARY
360
2DD
102
}
330
2A
100
AcDbVisualStyle
  2
Basic
 70
     7
 71
     1
 72
     0
 73
     1
 90
        0
 40
0.6
 41
30.0
 62
     5
 63
     7
421
 16777215
 74
     0
 91
        4
 64
     7
 65
   257
 75
     1
175
     1
 42
1.0
 92
        8
 66
     7
 43
1.0
 76
     1
 77
     6
 78
     2
 67
     7
 79
     5
170
     0
171
     0
290
     0
174
     0
 93
        1
 44
0.0
173
     0
291
     1
 45
0.0
1001
ACAD
1000
AcDbSavedByObjectVersion
1070
     0
  0
VISUALSTYLE
  5
36
102
{ACAD_REACTORS
330
2A
102
}
102
{ACAD_XDICTIONARY
360
2E5
102
}
330
2A
100
AcDbVisualStyle
  2
Brighten
 70
    12
 71
     2
 72
     2
 73
     0
 90
        0
 40
0.6
 41
30.0
 62
     5
 63
     7
421
 16777215
 74
     1
 91
        4
 64
     7
 65
   257
 75
     1
175
     1
 42
1.0
 92
        8
 66
     7
 43
1.0
 76
     1
 77
     6
 78
     2
 67
     7
 79
     5
170
     0
171
     0
290
     0
174
     0
 93
        1
 44
50.0
173
     0
291
     1
 45
0.0
1001
ACAD
1000
AcDbSavedByObjectVersion
1070
     0
  0
VISUALSTYLE
  5
3A
102
{ACAD_REACTORS
330
2A
102
}
102
{ACAD_XDICTIONARY
360
2ED
102
}
330
2A
100
AcDbVisualStyle
  2
ColorChange
 70
    16
 71
     2
 72
     2
 73
     3
 90
        0
 40
0.6
 41
30.0
 62
     5
 63
     8
421
  8421504
 74
     1
 91
        4
 64
     7
 65
   257
 75
     1
175
     1
 42
1.0
 92
        8
 66
     8
424
  8421504
 43
1.0
 76
     1
 77
     6
 78
     2
 67
     7
 79
     5
170
     0
171
     0
290
     0
174
     0
 93
        1
 44
0.0
173
     0
291
     1
 45
0.0
1001
ACAD
1000
AcDbSavedByObjectVersion
1070
     0
  0
VISUALSTYLE
  5
34
102
{ACAD_REACTORS
330
2A
102
}
102
{ACAD_XDICTIONARY
360
2E1
102
}
330
2A
100
AcDbVisualStyle
  2
Conceptual
 70
     9
 71
     3
 72
     2
 73
     0
 90
        0
 40
0.6
 41
30.0
 62
     5
 63
     7
421
 16777215
 74
     2
 91
        2
 64
     7
 65
   257
 75
     1
175
     1
 42
40.0
 92
        8
 66
     7
 43
1.0
 76
     1
 77
     6
 78
     2
 67
     7
 79
     3
170
     0
171
     0
290
     0
174
     0
 93
        1
 44
0.0
173
     0
291
     0
 45
0.0
1001
ACAD
1000
AcDbSavedByObjectVersion
1070
     0
  0
VISUALSTYLE
  5
35
102
{ACAD_REACTORS
330
2A
102
}
102
{ACAD_XDICTIONARY
360
2E3
102
}
330
2A
100
AcDbVisualStyle
  2
Dim
 70
    11
 71
     2
 72
     2
 73
     0
 90
        0
 40
0.6
 41
30.0
 62
     5
 63
     7
421
 16777215
 74
     1
 91
        4
 64
     7
 65
   257
 75
     1
175
     1
 42
1.0
 92
        8
 66
     7
 43
1.0
 76
     1
 77
     6
 78
     2
 67
     7
 79
     5
170
     0
171
     0
290
     0
174
     0
 93
        1
 44
-50.0
173
     0
291
     1
 45
0.0
1001
ACAD
1000
AcDbSavedByObjectVersion
1070
     0
  0
VISUALSTYLE
  5
39
102
{ACAD_REACTORS
330
2A
102
}
102
{ACAD_XDICTIONARY
360
2EB
102
}
330
2A
100
AcDbVisualStyle
  2
Facepattern
 70
    15
 71
     2
 72
     2
 73
     0
 90
        0
 40
0.6
 41
30.0
 62
     5
 63
     7
421
 16777215
 74
     1
 91
        4
 64
     7
 65
   257
 75
     1
175
     1
 42
1.0
 92
        8
 66
     7
 43
1.0
 76
     1
 77
     6
 78
     2
 67
     7
 79
     5
170
     0
171
     0
290
     0
174
     0
 93
        1
 44
0.0
173
     0
291
     1
 45
0.0
1001
ACAD
1000
AcDbSavedByObjectVersion
1070
     0
  0
VISUALSTYLE
  5
2B
102
{ACAD_REACTORS
330
2A
102
}
102
{ACAD_XDICTIONARY
360
2CF
102
}
330
2A
100
AcDbVisualStyle
  2
Flat
 70
     0
 71
     2
 72
     1
 73
     1
 90
        2
 40
0.6
 41
30.0
 62
     5
 63
     7
421
 16777215
 74
     0
 91
        4
 64
     7
 65
   257
 75
     1
175
     1
 42
1.0
 92
        8
 66
     7
 43
1.0
 76
     1
 77
     6
 78
     2
 67
     7
 79
     5
170
     0
171
     0
290
     0
174
     0
 93
       13
 44
0.0
173
     0
291
     1
 45
0.0
1001
ACAD
1000
AcDbSavedByObjectVersion
1070
     0
  0
VISUALSTYLE
  5
2C
102
{ACAD_REACTORS
330
2A
102
}
102
{ACAD_XDICTIONARY
360
2D1
102
}
330
2A
100
AcDbVisualStyle
  2
FlatWithEdges
 70
     1
 71
     2
 72
     1
 73
     1
 90
        2
 40
0.6
 41
30.0
 62
     5
 63
     7
421
 16777215
 74
     1
 91
        4
 64
     7
 65
   257
 75
     1
175
     1
 42
1.0
 92
        0
 66
   257
 43
1.0
 76
     1
 77
     6
 78
     2
 67
     7
 79
     5
170
     0
171
     0
290
     0
174
     0
 93
       13
 44
0.0
173
     0
291
     1
 45
0.0
1001
ACAD
1000
AcDbSavedByObjectVersion
1070
     0
  0
VISUALSTYLE
  5
2D
102
{ACAD_REACTORS
330
2A
102
}
102
{ACAD_XDICTIONARY
360
2D3
102
}
330
2A
100
AcDbVisualStyle
  2
Gouraud
 70
     2
 71
     2
 72
     2
 73
     1
 90
        2
 40
0.6
 41
30.0
 62
     5
 63
     7
421
 16777215
 74
     0
 91
        4
 64
     7
 65
   257
 75
     1
175
     1
 42
1.0
 92
        0
 66
     7
 43
1.0
 76
     1
 77
     6
 78
     2
 67
     7
 79
     5
170
     0
171
     0
290
     0
174
     0
 93
       13
 44
0.0
173
     0
291
     1
 45
0.0
1001
ACAD
1000
AcDbSavedByObjectVersion
1070
     0
  0
VISUALSTYLE
  5
2E
102
{ACAD_REACTORS
330
2A
102
}
102
{ACAD_XDICTIONARY
360
2D5
102
}
330
2A
100
AcDbVisualStyle
  2
GouraudWithEdges
 70
     3
 71
     2
 72
     2
 73
     1
 90
        2
 40
0.6
 41
30.0
 62
     5
 63
     7
421
 16777215
 74
     1
 91
        4
 64
     7
 65
   257
 75
     1
175
     1
 42
1.0
 92
        0
 66
   257
 43
1.0
 76
     1
 77
     6
 78
     2
 67
     7
 79
     5
170
     0
171
     0
290
     0
174
     0
 93
       13
 44
0.0
173
     0
291
     1
 45
0.0
1001
ACAD
1000
AcDbSavedByObjectVersion
1070
     0
  0
VISUALSTYLE
  5
38
102
{ACAD_REACTORS
330
2A
102
}
102
{ACAD_XDICTIONARY
360
2E9
102
}
330
2A
100
AcDbVisualStyle
  2
Linepattern
 70
    14
 71
     2
 72
     2
 73
     0
 90
        0
 40
0.6
 41
30.0
 62
     5
 63
     7
421
 16777215
 74
     1
 91
        4
 64
     7
 65
   257
 75
     7
175
     7
 42
1.0
 92
        8
 66
     7
 43
1.0
 76
     1
 77
     6
 78
     2
 67
     7
 79
     5
170
     0
171
     0
290
     0
174
     0
 93
        1
 44
0.0
173
     0
291
     1
 45
0.0
1001
ACAD
1000
AcDbSavedByObjectVersion
1070
     0
  0
VISUALSTYLE
  5
33
102
{ACAD_REACTORS
330
2A
102
}
102
{ACAD_XDICTIONARY
360
2DF
102
}
330
2A
100
AcDbVisualStyle
  2
Realistic
 70
     8
 71
     2
 72
     3
 73
     0
 90
        2
 40
0.6
 41
30.0
 62
     5
 63
     7
421
 16777215
 74
     0
 91
        0
 64
     7
 65
   257
 75
     1
175
     1
 42
1.0
 92
        8
 66
   257
 43
1.0
 76
     1
 77
     6
 78
     2
 67
     7
 79
     3
170
     0
171
     0
290
     0
174
     0
 93
       13
 44
0.0
173
     0
291
     0
 45
0.0
1001
ACAD
1000
AcDbSavedByObjectVersion
1070
     0
  0
VISUALSTYLE
  5
37
102
{ACAD_REACTORS
330
2A
102
}
102
{ACAD_XDICTIONARY
360
2E7
102
}
330
2A
100
AcDbVisualStyle
  2
Thicken
 70
    13
 71
     2
 72
     2
 73
     0
 90
        0
 40
0.6
 41
30.0
 62
     5
 63
     7
421
 16777215
 74
     1
 91
        4
 64
     7
 65
   257
 75
     1
175
     1
 42
1.0
 92
       12
 66
     7
 43
1.0
 76
     1
 77
     6
 78
     2
 67
     7
 79
     5
170
     0
171
     0
290
     0
174
     0
 93
        1
 44
0.0
173
     0
291
     1
 45
0.0
1001
ACAD
1000
AcDbSavedByObjectVersion
1070
     0
  0
DICTIONARYVAR
  5
2CD
102
{ACAD_REACTORS
330
2CC
102
}
330
2CC
100
DictionaryVariables
280
     0
  1
1:1
  0
DICTIONARYVAR
  5
2CE
102
{ACAD_REACTORS
330
2CC
102
}
330
2CC
100
DictionaryVariables
280
     0
  1
1
  0
DICTIONARY
  5
2F1
330
3D
100
AcDbDictionary
280
     1
281
     1
  3
ACAD_XREC_ROUNDTRIP
360
2F2
  0
DICTIONARY
  5
2EF
330
3C
100
AcDbDictionary
280
     1
281
     1
  3
ACAD_XREC_ROUNDTRIP
360
2F0
  0
DICTIONARY
  5
2F3
330
3E
100
AcDbDictionary
280
     1
281
     1
  3
ACAD_XREC_ROUNDTRIP
360
2F4
  0
DICTIONARY
  5
2D7
330
2F
100
AcDbDictionary
280
     1
281
     1
  3
ACAD_XREC_ROUNDTRIP
360
2D8
  0
DICTIONARY
  5
2DB
330
31
100
AcDbDictionary
280
     1
281
     1
  3
ACAD_XREC_ROUNDTRIP
360
2DC
  0
DICTIONARY
  5
2D9
330
30
100
AcDbDictionary
280
     1
281
     1
  3
ACAD_XREC_ROUNDTRIP
360
2DA
  0
DICTIONARY
  5
2DD
330
32
100
AcDbDictionary
280
     1
281
     1
  3
ACAD_XREC_ROUNDTRIP
360
2DE
  0
DICTIONARY
  5
2E5
330
36
100
AcDbDictionary
280
     1
281
     1
  3
ACAD_XREC_ROUNDTRIP
360
2E6
  0
DICTIONARY
  5
2ED
330
3A
100
AcDbDictionary
280
     1
281
     1
  3
ACAD_XREC_ROUNDTRIP
360
2EE
  0
DICTIONARY
  5
2E1
330
34
100
AcDbDictionary
280
     1
281
     1
  3
ACAD_XREC_ROUNDTRIP
360
2E2
  0
DICTIONARY
  5
2E3
330
35
100
AcDbDictionary
280
     1
281
     1
  3
ACAD_XREC_ROUNDTRIP
360
2E4
  0
DICTIONARY
  5
2EB
330
39
100
AcDbDictionary
280
     1
281
     1
  3
ACAD_XREC_ROUNDTRIP
360
2EC
  0
DICTIONARY
  5
2CF
330
2B
100
AcDbDictionary
280
     1
281
     1
  3
ACAD_XREC_ROUNDTRIP
360
2D0
  0
DICTIONARY
  5
2D1
330
2C
100
AcDbDictionary
280
     1
281
     1
  3
ACAD_XREC_ROUNDTRIP
360
2D2
  0
DICTIONARY
  5
2D3
330
2D
100
AcDbDictionary
280
     1
281
     1
  3
ACAD_XREC_ROUNDTRIP
360
2D4
  0
DICTIONARY
  5
2D5
330
2E
100
AcDbDictionary
280
     1
281
     1
  3
ACAD_XREC_ROUNDTRIP
360
2D6
  0
DICTIONARY
  5
2E9
330
38
100
AcDbDictionary
280
     1
281
     1
  3
ACAD_XREC_ROUNDTRIP
360
2EA
  0
DICTIONARY
  5
2DF
330
33
100
AcDbDictionary
280
     1
281
     1
  3
ACAD_XREC_ROUNDTRIP
360
2E0
  0
DICTIONARY
  5
2E7
330
37
100
AcDbDictionary
280
     1
281
     1
  3
ACAD_XREC_ROUNDTRIP
360
2E8
  0
XRECORD
  5
2F2
102
{ACAD_REACTORS
330
2F1
102
}
330
2F1
100
AcDbXrecord
280
     1
102
MATERIAL
148
0.0
149
0.0
149
0.0
 93
        0
 94
      127
282
     0
 72
     1
 77
     1
171
     1
175
     1
179
     1
273
     0
  0
XRECORD
  5
2F0
102
{ACAD_REACTORS
330
2EF
102
}
330
2EF
100
AcDbXrecord
280
     1
102
MATERIAL
148
0.0
149
0.0
149
0.0
 93
        0
 94
      127
282
     0
 72
     1
 77
     1
171
     1
175
     1
179
     1
273
     0
  0
XRECORD
  5
2F4
102
{ACAD_REACTORS
330
2F3
102
}
330
2F3
100
AcDbXrecord
280
     1
102
MATERIAL
148
0.0
149
0.0
149
0.0
 93
        0
 94
      127
282
     0
 72
     1
 77
     1
171
     1
175
     1
179
     1
273
     0
  0
XRECORD
  5
2D8
102
{ACAD_REACTORS
330
2D7
102
}
330
2D7
100
AcDbXrecord
280
     1
102
RTVSPropertyOp0
 70
     1
102
RTVSPropertyOp1
 70
     1
102
RTVSPropertyOp2
 70
     1
102
RTVSPropertyOp3
 70
     1
102
RTVSPropertyOp4
 70
     1
102
RTVSPropertyOp5
 70
     1
102
RTVSPropertyOp6
 70
     1
102
RTVSPropertyOp7
 70
     1
102
RTVSPropertyOp8
 70
     1
102
RTVSPropertyOp9
 70
     1
102
RTVSPropertyOp10
 70
     1
102
RTVSPropertyOp11
 70
     1
102
RTVSPropertyOp12
 70
     1
102
RTVSPropertyOp13
 70
     1
102
RTVSPropertyOp14
 70
     1
102
RTVSPropertyOp15
 70
     1
102
RTVSPropertyOp16
 70
     1
102
RTVSPropertyOp17
 70
     1
102
RTVSPropertyOp18
 70
     1
102
RTVSPropertyOp19
 70
     1
102
RTVSPropertyOp20
 70
     1
102
RTVSPropertyOp21
 70
     1
102
RTVSPropertyOp22
 70
     1
102
RTVSPropertyOp23
 70
     1
102
RTVSPropertyOp24
 70
     1
102
RTVSPropertyOp25
 70
     1
102
RTVSPropertyOp26
 70
     1
102
RTVSPropertyOp27
 70
     1
102
RTVSPropertyOp28
 70
     1
102
RTVSPropertyOp29
 70
     1
102
RTVSPropertyOp30
 70
     1
102
RTVSPropertyOp31
 70
     1
102
RTVSPropertyOp32
 70
     1
102
RTVSPropertyOp33
 70
     1
102
RTVSPropertyOp34
 70
     1
102
RTVSPropertyOp35
 70
     1
102
RTVSPropertyOp36
 70
     1
102
RTVSPropertyOp37
 70
     1
102
RTVSPropertyOp38
 70
     1
102
RTVSPropertyOp39
 70
     1
102
RTVSPropertyOp40
 70
     1
102
RTVSPropertyOp41
 70
     1
102
RTVSPropertyOp42
 70
     1
102
RTVSPropertyOp43
 70
     1
102
RTVSPropertyOp44
 70
     1
102
RTVSPropertyOp45
 70
     1
102
RTVSPropertyOp46
 70
     1
102
RTVSPropertyOp47
 70
     1
102
RTVSPropertyOp48
 70
     1
102
RTVSPropertyOp49
 70
     1
102
RTVSPropertyOp50
 70
     1
102
RTVSPropertyOp51
 70
     0
102
RTVSPropertyOp52
 70
     0
102
RTVSPropertyOp53
 70
     1
102
RTVSPropertyOp54
 70
     1
102
RTVSPropertyOp55
 70
     1
102
RTVSPropertyOp56
 70
     1
102
RTVSPropertyOp57
 70
     1
102
RTVSPost2010Prop28
280
     1
102
RTVSPost2010PropOp28
 70
     1
102
RTVSPost2010Prop29
280
     1
102
RTVSPost2010PropOp29
 70
     1
102
RTVSPost2010Prop30
280
     0
102
RTVSPost2010PropOp30
 70
     1
102
RTVSPost2010Prop31
280
     0
102
RTVSPost2010PropOp31
 70
     1
102
RTVSPost2010Prop32
280
     0
102
RTVSPost2010PropOp32
 70
     1
102
RTVSPost2010Prop33
280
     0
102
RTVSPost2010PropOp33
 70
     1
102
RTVSPost2010Prop34
280
     0
102
RTVSPost2010PropOp34
 70
     1
102
RTVSPost2010Prop35
280
     0
102
RTVSPost2010PropOp35
 70
     1
102
RTVSPost2010Prop36
280
     0
102
RTVSPost2010PropOp36
 70
     1
102
RTVSPost2010Prop37
 90
       50
102
RTVSPost2010PropOp37
 70
     1
102
RTVSPost2010Prop38
140
0.0
102
RTVSPost2010PropOp38
 70
     1
102
RTVSPost2010Prop39
140
1.0
102
RTVSPost2010PropOp39
 70
     1
102
RTVSPost2010Prop40
 90
        0
102
RTVSPost2010PropOp40
 70
     1
102
RTVSPost2010Prop41ColorIndex
 90
       18
102
RTVSPost2010Prop41ColorRGB
 90
        0
102
RTVSPost2010PropOp41
 70
     1
102
RTVSPost2010Prop42
 90
       50
102
RTVSPost2010PropOp42
 70
     1
102
RTVSPost2010Prop43
 90
        3
102
RTVSPost2010PropOp43
 70
     1
102
RTVSPost2010Prop44ColorIndex
 90
        5
102
RTVSPost2010Prop44ColorRGB
 90
      255
102
RTVSPost2010PropOp44
 70
     1
102
RTVSPost2010Prop45
280
     0
102
RTVSPost2010PropOp45
 70
     1
102
RTVSPost2010Prop46
 90
       50
102
RTVSPost2010PropOp46
 70
     1
102
RTVSPost2010Prop47
 90
       50
102
RTVSPost2010PropOp47
 70
     1
102
RTVSPost2010Prop48
 90
       50
102
RTVSPost2010PropOp48
 70
     1
102
RTVSPost2010Prop49
280
     0
102
RTVSPost2010PropOp49
 70
     1
102
RTVSPost2010Prop50
 90
       50
102
RTVSPost2010PropOp50
 70
     1
102
RTVSPost2010Prop51ColorIndex
 90
      256
102
RTVSPost2010Prop51ColorRGB
 90
-16777216
102
RTVSPost2010PropOp51
 70
     0
102
RTVSPost2010Prop52
140
1.0
102
RTVSPost2010PropOp52
 70
     0
102
RTVSPost2010Prop53
 90
        2
102
RTVSPost2010PropOp53
 70
     1
102
RTVSPost2010Prop54
  1
strokes_ogs.tif
102
RTVSPost2010PropOp54
 70
     1
102
RTVSPost2010Prop55
280
     0
102
RTVSPost2010PropOp55
 70
     1
102
RTVSPost2010Prop56
140
1.0
102
RTVSPost2010PropOp56
 70
     1
102
RTVSPost2010Prop57
140
1.0
102
RTVSPost2010PropOp57
 70
     1
  0
XRECORD
  5
2DC
102
{ACAD_REACTORS
330
2DB
102
}
330
2DB
100
AcDbXrecord
280
     1
102
RTVSPropertyOp0
 70
     1
102
RTVSPropertyOp1
 70
     1
102
RTVSPropertyOp2
 70
     1
102
RTVSPropertyOp3
 70
     1
102
RTVSPropertyOp4
 70
     1
102
RTVSPropertyOp5
 70
     1
102
RTVSPropertyOp6
 70
     1
102
RTVSPropertyOp7
 70
     1
102
RTVSPropertyOp8
 70
     1
102
RTVSPropertyOp9
 70
     1
102
RTVSPropertyOp10
 70
     1
102
RTVSPropertyOp11
 70
     1
102
RTVSPropertyOp12
 70
     1
102
RTVSPropertyOp13
 70
     1
102
RTVSPropertyOp14
 70
     1
102
RTVSPropertyOp15
 70
     1
102
RTVSPropertyOp16
 70
     1
102
RTVSPropertyOp17
 70
     1
102
RTVSPropertyOp18
 70
     1
102
RTVSPropertyOp19
 70
     1
102
RTVSPropertyOp20
 70
     1
102
RTVSPropertyOp21
 70
     1
102
RTVSPropertyOp22
 70
     1
102
RTVSPropertyOp23
 70
     1
102
RTVSPropertyOp24
 70
     1
102
RTVSPropertyOp25
 70
     1
102
RTVSPropertyOp26
 70
     1
102
RTVSPropertyOp27
 70
     1
102
RTVSPropertyOp28
 70
     1
102
RTVSPropertyOp29
 70
     1
102
RTVSPropertyOp30
 70
     1
102
RTVSPropertyOp31
 70
     1
102
RTVSPropertyOp32
 70
     1
102
RTVSPropertyOp33
 70
     1
102
RTVSPropertyOp34
 70
     1
102
RTVSPropertyOp35
 70
     1
102
RTVSPropertyOp36
 70
     1
102
RTVSPropertyOp37
 70
     1
102
RTVSPropertyOp38
 70
     1
102
RTVSPropertyOp39
 70
     1
102
RTVSPropertyOp40
 70
     1
102
RTVSPropertyOp41
 70
     1
102
RTVSPropertyOp42
 70
     1
102
RTVSPropertyOp43
 70
     1
102
RTVSPropertyOp44
 70
     1
102
RTVSPropertyOp45
 70
     1
102
RTVSPropertyOp46
 70
     1
102
RTVSPropertyOp47
 70
     1
102
RTVSPropertyOp48
 70
     1
102
RTVSPropertyOp49
 70
     1
102
RTVSPropertyOp50
 70
     1
102
RTVSPropertyOp51
 70
     0
102
RTVSPropertyOp52
 70
     0
102
RTVSPropertyOp53
 70
     1
102
RTVSPropertyOp54
 70
     1
102
RTVSPropertyOp55
 70
     1
102
RTVSPropertyOp56
 70
     1
102
RTVSPropertyOp57
 70
     1
102
RTVSPost2010Prop28
280
     0
102
RTVSPost2010PropOp28
 70
     1
102
RTVSPost2010Prop29
280
     1
102
RTVSPost2010PropOp29
 70
     1
102
RTVSPost2010Prop30
280
     1
102
RTVSPost2010PropOp30
 70
     1
102
RTVSPost2010Prop31
280
     0
102
RTVSPost2010PropOp31
 70
     1
102
RTVSPost2010Prop32
280
     0
102
RTVSPost2010PropOp32
 70
     1
102
RTVSPost2010Prop33
280
     0
102
RTVSPost2010PropOp33
 70
     1
102
RTVSPost2010Prop34
280
     0
102
RTVSPost2010PropOp34
 70
     1
102
RTVSPost2010Prop35
280
     0
102
RTVSPost2010PropOp35
 70
     1
102
RTVSPost2010Prop36
280
     0
102
RTVSPost2010PropOp36
 70
     1
102
RTVSPost2010Prop37
 90
       50
102
RTVSPost2010PropOp37
 70
     1
102
RTVSPost2010Prop38
140
0.0
102
RTVSPost2010PropOp38
 70
     1
102
RTVSPost2010Prop39
140
1.0
102
RTVSPost2010PropOp39
 70
     1
102
RTVSPost2010Prop40
 90
        0
102
RTVSPost2010PropOp40
 70
     1
102
RTVSPost2010Prop41ColorIndex
 90
       18
102
RTVSPost2010Prop41ColorRGB
 90
        0
102
RTVSPost2010PropOp41
 70
     1
102
RTVSPost2010Prop42
 90
       50
102
RTVSPost2010PropOp42
 70
     1
102
RTVSPost2010Prop43
 90
        3
102
RTVSPost2010PropOp43
 70
     1
102
RTVSPost2010Prop44ColorIndex
 90
        5
102
RTVSPost2010Prop44ColorRGB
 90
      255
102
RTVSPost2010PropOp44
 70
     1
102
RTVSPost2010Prop45
280
     0
102
RTVSPost2010PropOp45
 70
     1
102
RTVSPost2010Prop46
 90
       50
102
RTVSPost2010PropOp46
 70
     1
102
RTVSPost2010Prop47
 90
       50
102
RTVSPost2010PropOp47
 70
     1
102
RTVSPost2010Prop48
 90
       50
102
RTVSPost2010PropOp48
 70
     1
102
RTVSPost2010Prop49
280
     0
102
RTVSPost2010PropOp49
 70
     1
102
RTVSPost2010Prop50
 90
       50
102
RTVSPost2010PropOp50
 70
     1
102
RTVSPost2010Prop51ColorIndex
 90
      256
102
RTVSPost2010Prop51ColorRGB
 90
-16777216
102
RTVSPost2010PropOp51
 70
     0
102
RTVSPost2010Prop52
140
1.0
102
RTVSPost2010PropOp52
 70
     0
102
RTVSPost2010Prop53
 90
        2
102
RTVSPost2010PropOp53
 70
     1
102
RTVSPost2010Prop54
  1
strokes_ogs.tif
102
RTVSPost2010PropOp54
 70
     1
102
RTVSPost2010Prop55
280
     0
102
RTVSPost2010PropOp55
 70
     1
102
RTVSPost2010Prop56
140
1.0
102
RTVSPost2010PropOp56
 70
     1
102
RTVSPost2010Prop57
140
1.0
102
RTVSPost2010PropOp57
 70
     1
  0
XRECORD
  5
2DA
102
{ACAD_REACTORS
330
2D9
102
}
330
2D9
100
AcDbXrecord
280
     1
102
RTVSPropertyOp0
 70
     1
102
RTVSPropertyOp1
 70
     1
102
RTVSPropertyOp2
 70
     1
102
RTVSPropertyOp3
 70
     1
102
RTVSPropertyOp4
 70
     1
102
RTVSPropertyOp5
 70
     1
102
RTVSPropertyOp6
 70
     1
102
RTVSPropertyOp7
 70
     1
102
RTVSPropertyOp8
 70
     1
102
RTVSPropertyOp9
 70
     1
102
RTVSPropertyOp10
 70
     1
102
RTVSPropertyOp11
 70
     1
102
RTVSPropertyOp12
 70
     1
102
RTVSPropertyOp13
 70
     1
102
RTVSPropertyOp14
 70
     1
102
RTVSPropertyOp15
 70
     1
102
RTVSPropertyOp16
 70
     1
102
RTVSPropertyOp17
 70
     1
102
RTVSPropertyOp18
 70
     1
102
RTVSPropertyOp19
 70
     1
102
RTVSPropertyOp20
 70
     1
102
RTVSPropertyOp21
 70
     1
102
RTVSPropertyOp22
 70
     1
102
RTVSPropertyOp23
 70
     1
102
RTVSPropertyOp24
 70
     1
102
RTVSPropertyOp25
 70
     1
102
RTVSPropertyOp26
 70
     1
102
RTVSPropertyOp27
 70
     1
102
RTVSPropertyOp28
 70
     1
102
RTVSPropertyOp29
 70
     1
102
RTVSPropertyOp30
 70
     1
102
RTVSPropertyOp31
 70
     1
102
RTVSPropertyOp32
 70
     1
102
RTVSPropertyOp33
 70
     1
102
RTVSPropertyOp34
 70
     1
102
RTVSPropertyOp35
 70
     1
102
RTVSPropertyOp36
 70
     1
102
RTVSPropertyOp37
 70
     1
102
RTVSPropertyOp38
 70
     1
102
RTVSPropertyOp39
 70
     1
102
RTVSPropertyOp40
 70
     1
102
RTVSPropertyOp41
 70
     1
102
RTVSPropertyOp42
 70
     1
102
RTVSPropertyOp43
 70
     1
102
RTVSPropertyOp44
 70
     1
102
RTVSPropertyOp45
 70
     1
102
RTVSPropertyOp46
 70
     1
102
RTVSPropertyOp47
 70
     1
102
RTVSPropertyOp48
 70
     1
102
RTVSPropertyOp49
 70
     1
102
RTVSPropertyOp50
 70
     1
102
RTVSPropertyOp51
 70
     0
102
RTVSPropertyOp52
 70
     0
102
RTVSPropertyOp53
 70
     1
102
RTVSPropertyOp54
 70
     1
102
RTVSPropertyOp55
 70
     1
102
RTVSPropertyOp56
 70
     1
102
RTVSPropertyOp57
 70
     1
102
RTVSPost2010Prop28
280
     0
102
RTVSPost2010PropOp28
 70
     1
102
RTVSPost2010Prop29
280
     1
102
RTVSPost2010PropOp29
 70
     1
102
RTVSPost2010Prop30
280
     1
102
RTVSPost2010PropOp30
 70
     1
102
RTVSPost2010Prop31
280
     0
102
RTVSPost2010PropOp31
 70
     1
102
RTVSPost2010Prop32
280
     0
102
RTVSPost2010PropOp32
 70
     1
102
RTVSPost2010Prop33
280
     0
102
RTVSPost2010PropOp33
 70
     1
102
RTVSPost2010Prop34
280
     0
102
RTVSPost2010PropOp34
 70
     1
102
RTVSPost2010Prop35
280
     0
102
RTVSPost2010PropOp35
 70
     1
102
RTVSPost2010Prop36
280
     0
102
RTVSPost2010PropOp36
 70
     1
102
RTVSPost2010Prop37
 90
       50
102
RTVSPost2010PropOp37
 70
     1
102
RTVSPost2010Prop38
140
0.0
102
RTVSPost2010PropOp38
 70
     1
102
RTVSPost2010Prop39
140
1.0
102
RTVSPost2010PropOp39
 70
     1
102
RTVSPost2010Prop40
 90
        0
102
RTVSPost2010PropOp40
 70
     1
102
RTVSPost2010Prop41ColorIndex
 90
       18
102
RTVSPost2010Prop41ColorRGB
 90
        0
102
RTVSPost2010PropOp41
 70
     1
102
RTVSPost2010Prop42
 90
       50
102
RTVSPost2010PropOp42
 70
     1
102
RTVSPost2010Prop43
 90
        3
102
RTVSPost2010PropOp43
 70
     1
102
RTVSPost2010Prop44ColorIndex
 90
        5
102
RTVSPost2010Prop44ColorRGB
 90
      255
102
RTVSPost2010PropOp44
 70
     1
102
RTVSPost2010Prop45
280
     0
102
RTVSPost2010PropOp45
 70
     1
102
RTVSPost2010Prop46
 90
       50
102
RTVSPost2010PropOp46
 70
     1
102
RTVSPost2010Prop47
 90
       50
102
RTVSPost2010PropOp47
 70
     1
102
RTVSPost2010Prop48
 90
       50
102
RTVSPost2010PropOp48
 70
     1
102
RTVSPost2010Prop49
280
     0
102
RTVSPost2010PropOp49
 70
     1
102
RTVSPost2010Prop50
 90
       50
102
RTVSPost2010PropOp50
 70
     1
102
RTVSPost2010Prop51ColorIndex
 90
      256
102
RTVSPost2010Prop51ColorRGB
 90
-16777216
102
RTVSPost2010PropOp51
 70
     0
102
RTVSPost2010Prop52
140
1.0
102
RTVSPost2010PropOp52
 70
     0
102
RTVSPost2010Prop53
 90
        2
102
RTVSPost2010PropOp53
 70
     1
102
RTVSPost2010Prop54
  1
strokes_ogs.tif
102
RTVSPost2010PropOp54
 70
     1
102
RTVSPost2010Prop55
280
     0
102
RTVSPost2010PropOp55
 70
     1
102
RTVSPost2010Prop56
140
1.0
102
RTVSPost2010PropOp56
 70
     1
102
RTVSPost2010Prop57
140
1.0
102
RTVSPost2010PropOp57
 70
     1
  0
XRECORD
  5
2DE
102
{ACAD_REACTORS
330
2DD
102
}
330
2DD
100
AcDbXrecord
280
     1
102
RTVSPropertyOp0
 70
     1
102
RTVSPropertyOp1
 70
     1
102
RTVSPropertyOp2
 70
     1
102
RTVSPropertyOp3
 70
     1
102
RTVSPropertyOp4
 70
     1
102
RTVSPropertyOp5
 70
     1
102
RTVSPropertyOp6
 70
     1
102
RTVSPropertyOp7
 70
     1
102
RTVSPropertyOp8
 70
     1
102
RTVSPropertyOp9
 70
     1
102
RTVSPropertyOp10
 70
     1
102
RTVSPropertyOp11
 70
     1
102
RTVSPropertyOp12
 70
     1
102
RTVSPropertyOp13
 70
     1
102
RTVSPropertyOp14
 70
     1
102
RTVSPropertyOp15
 70
     1
102
RTVSPropertyOp16
 70
     1
102
RTVSPropertyOp17
 70
     1
102
RTVSPropertyOp18
 70
     1
102
RTVSPropertyOp19
 70
     1
102
RTVSPropertyOp20
 70
     1
102
RTVSPropertyOp21
 70
     1
102
RTVSPropertyOp22
 70
     1
102
RTVSPropertyOp23
 70
     1
102
RTVSPropertyOp24
 70
     1
102
RTVSPropertyOp25
 70
     1
102
RTVSPropertyOp26
 70
     1
102
RTVSPropertyOp27
 70
     1
102
RTVSPropertyOp28
 70
     1
102
RTVSPropertyOp29
 70
     1
102
RTVSPropertyOp30
 70
     1
102
RTVSPropertyOp31
 70
     1
102
RTVSPropertyOp32
 70
     1
102
RTVSPropertyOp33
 70
     1
102
RTVSPropertyOp34
 70
     1
102
RTVSPropertyOp35
 70
     1
102
RTVSPropertyOp36
 70
     1
102
RTVSPropertyOp37
 70
     1
102
RTVSPropertyOp38
 70
     1
102
RTVSPropertyOp39
 70
     1
102
RTVSPropertyOp40
 70
     1
102
RTVSPropertyOp41
 70
     1
102
RTVSPropertyOp42
 70
     1
102
RTVSPropertyOp43
 70
     1
102
RTVSPropertyOp44
 70
     1
102
RTVSPropertyOp45
 70
     1
102
RTVSPropertyOp46
 70
     1
102
RTVSPropertyOp47
 70
     1
102
RTVSPropertyOp48
 70
     1
102
RTVSPropertyOp49
 70
     1
102
RTVSPropertyOp50
 70
     1
102
RTVSPropertyOp51
 70
     0
102
RTVSPropertyOp52
 70
     0
102
RTVSPropertyOp53
 70
     1
102
RTVSPropertyOp54
 70
     1
102
RTVSPropertyOp55
 70
     1
102
RTVSPropertyOp56
 70
     1
102
RTVSPropertyOp57
 70
     1
102
RTVSPost2010Prop28
280
     0
102
RTVSPost2010PropOp28
 70
     1
102
RTVSPost2010Prop29
280
     1
102
RTVSPost2010PropOp29
 70
     1
102
RTVSPost2010Prop30
280
     1
102
RTVSPost2010PropOp30
 70
     1
102
RTVSPost2010Prop31
280
     0
102
RTVSPost2010PropOp31
 70
     1
102
RTVSPost2010Prop32
280
     0
102
RTVSPost2010PropOp32
 70
     1
102
RTVSPost2010Prop33
280
     0
102
RTVSPost2010PropOp33
 70
     1
102
RTVSPost2010Prop34
280
     0
102
RTVSPost2010PropOp34
 70
     1
102
RTVSPost2010Prop35
280
     0
102
RTVSPost2010PropOp35
 70
     1
102
RTVSPost2010Prop36
280
     0
102
RTVSPost2010PropOp36
 70
     1
102
RTVSPost2010Prop37
 90
       50
102
RTVSPost2010PropOp37
 70
     1
102
RTVSPost2010Prop38
140
0.0
102
RTVSPost2010PropOp38
 70
     1
102
RTVSPost2010Prop39
140
1.0
102
RTVSPost2010PropOp39
 70
     1
102
RTVSPost2010Prop40
 90
        0
102
RTVSPost2010PropOp40
 70
     1
102
RTVSPost2010Prop41ColorIndex
 90
       18
102
RTVSPost2010Prop41ColorRGB
 90
        0
102
RTVSPost2010PropOp41
 70
     1
102
RTVSPost2010Prop42
 90
       50
102
RTVSPost2010PropOp42
 70
     1
102
RTVSPost2010Prop43
 90
        3
102
RTVSPost2010PropOp43
 70
     1
102
RTVSPost2010Prop44ColorIndex
 90
        5
102
RTVSPost2010Prop44ColorRGB
 90
      255
102
RTVSPost2010PropOp44
 70
     1
102
RTVSPost2010Prop45
280
     0
102
RTVSPost2010PropOp45
 70
     1
102
RTVSPost2010Prop46
 90
       50
102
RTVSPost2010PropOp46
 70
     1
102
RTVSPost2010Prop47
 90
       50
102
RTVSPost2010PropOp47
 70
     1
102
RTVSPost2010Prop48
 90
       50
102
RTVSPost2010PropOp48
 70
     1
102
RTVSPost2010Prop49
280
     0
102
RTVSPost2010PropOp49
 70
     1
102
RTVSPost2010Prop50
 90
       50
102
RTVSPost2010PropOp50
 70
     1
102
RTVSPost2010Prop51ColorIndex
 90
      256
102
RTVSPost2010Prop51ColorRGB
 90
-16777216
102
RTVSPost2010PropOp51
 70
     0
102
RTVSPost2010Prop52
140
1.0
102
RTVSPost2010PropOp52
 70
     0
102
RTVSPost2010Prop53
 90
        2
102
RTVSPost2010PropOp53
 70
     1
102
RTVSPost2010Prop54
  1
strokes_ogs.tif
102
RTVSPost2010PropOp54
 70
     1
102
RTVSPost2010Prop55
280
     0
102
RTVSPost2010PropOp55
 70
     1
102
RTVSPost2010Prop56
140
1.0
102
RTVSPost2010PropOp56
 70
     1
102
RTVSPost2010Prop57
140
1.0
102
RTVSPost2010PropOp57
 70
     1
  0
XRECORD
  5
2E6
102
{ACAD_REACTORS
330
2E5
102
}
330
2E5
100
AcDbXrecord
280
     1
102
RTVSPropertyOp0
 70
     1
102
RTVSPropertyOp1
 70
     1
102
RTVSPropertyOp2
 70
     1
102
RTVSPropertyOp3
 70
     1
102
RTVSPropertyOp4
 70
     1
102
RTVSPropertyOp5
 70
     1
102
RTVSPropertyOp6
 70
     1
102
RTVSPropertyOp7
 70
     1
102
RTVSPropertyOp8
 70
     1
102
RTVSPropertyOp9
 70
     1
102
RTVSPropertyOp10
 70
     1
102
RTVSPropertyOp11
 70
     1
102
RTVSPropertyOp12
 70
     1
102
RTVSPropertyOp13
 70
     1
102
RTVSPropertyOp14
 70
     1
102
RTVSPropertyOp15
 70
     1
102
RTVSPropertyOp16
 70
     1
102
RTVSPropertyOp17
 70
     1
102
RTVSPropertyOp18
 70
     1
102
RTVSPropertyOp19
 70
     1
102
RTVSPropertyOp20
 70
     1
102
RTVSPropertyOp21
 70
     1
102
RTVSPropertyOp22
 70
     1
102
RTVSPropertyOp23
 70
     1
102
RTVSPropertyOp24
 70
     1
102
RTVSPropertyOp25
 70
     1
102
RTVSPropertyOp26
 70
     1
102
RTVSPropertyOp27
 70
     1
102
RTVSPropertyOp28
 70
     1
102
RTVSPropertyOp29
 70
     1
102
RTVSPropertyOp30
 70
     1
102
RTVSPropertyOp31
 70
     1
102
RTVSPropertyOp32
 70
     1
102
RTVSPropertyOp33
 70
     1
102
RTVSPropertyOp34
 70
     1
102
RTVSPropertyOp35
 70
     1
102
RTVSPropertyOp36
 70
     1
102
RTVSPropertyOp37
 70
     1
102
RTVSPropertyOp38
 70
     1
102
RTVSPropertyOp39
 70
     1
102
RTVSPropertyOp40
 70
     1
102
RTVSPropertyOp41
 70
     1
102
RTVSPropertyOp42
 70
     1
102
RTVSPropertyOp43
 70
     1
102
RTVSPropertyOp44
 70
     1
102
RTVSPropertyOp45
 70
     1
102
RTVSPropertyOp46
 70
     1
102
RTVSPropertyOp47
 70
     1
102
RTVSPropertyOp48
 70
     1
102
RTVSPropertyOp49
 70
     1
102
RTVSPropertyOp50
 70
     1
102
RTVSPropertyOp51
 70
     0
102
RTVSPropertyOp52
 70
     0
102
RTVSPropertyOp53
 70
     1
102
RTVSPropertyOp54
 70
     1
102
RTVSPropertyOp55
 70
     1
102
RTVSPropertyOp56
 70
     1
102
RTVSPropertyOp57
 70
     1
102
RTVSPost2010Prop28
280
     0
102
RTVSPost2010PropOp28
 70
     1
102
RTVSPost2010Prop29
280
     1
102
RTVSPost2010PropOp29
 70
     1
102
RTVSPost2010Prop30
280
     1
102
RTVSPost2010PropOp30
 70
     1
102
RTVSPost2010Prop31
280
     0
102
RTVSPost2010PropOp31
 70
     1
102
RTVSPost2010Prop32
280
     0
102
RTVSPost2010PropOp32
 70
     1
102
RTVSPost2010Prop33
280
     0
102
RTVSPost2010PropOp33
 70
     1
102
RTVSPost2010Prop34
280
     0
102
RTVSPost2010PropOp34
 70
     1
102
RTVSPost2010Prop35
280
     0
102
RTVSPost2010PropOp35
 70
     1
102
RTVSPost2010Prop36
280
     0
102
RTVSPost2010PropOp36
 70
     1
102
RTVSPost2010Prop37
 90
       50
102
RTVSPost2010PropOp37
 70
     1
102
RTVSPost2010Prop38
140
0.0
102
RTVSPost2010PropOp38
 70
     1
102
RTVSPost2010Prop39
140
1.0
102
RTVSPost2010PropOp39
 70
     1
102
RTVSPost2010Prop40
 90
        0
102
RTVSPost2010PropOp40
 70
     1
102
RTVSPost2010Prop41ColorIndex
 90
       18
102
RTVSPost2010Prop41ColorRGB
 90
        0
102
RTVSPost2010PropOp41
 70
     1
102
RTVSPost2010Prop42
 90
       50
102
RTVSPost2010PropOp42
 70
     1
102
RTVSPost2010Prop43
 90
        3
102
RTVSPost2010PropOp43
 70
     1
102
RTVSPost2010Prop44ColorIndex
 90
        5
102
RTVSPost2010Prop44ColorRGB
 90
      255
102
RTVSPost2010PropOp44
 70
     1
102
RTVSPost2010Prop45
280
     0
102
RTVSPost2010PropOp45
 70
     1
102
RTVSPost2010Prop46
 90
       50
102
RTVSPost2010PropOp46
 70
     1
102
RTVSPost2010Prop47
 90
       50
102
RTVSPost2010PropOp47
 70
     1
102
RTVSPost2010Prop48
 90
       50
102
RTVSPost2010PropOp48
 70
     1
102
RTVSPost2010Prop49
280
     0
102
RTVSPost2010PropOp49
 70
     1
102
RTVSPost2010Prop50
 90
       50
102
RTVSPost2010PropOp50
 70
     1
102
RTVSPost2010Prop51ColorIndex
 90
      256
102
RTVSPost2010Prop51ColorRGB
 90
-16777216
102
RTVSPost2010PropOp51
 70
     0
102
RTVSPost2010Prop52
140
1.0
102
RTVSPost2010PropOp52
 70
     0
102
RTVSPost2010Prop53
 90
        2
102
RTVSPost2010PropOp53
 70
     1
102
RTVSPost2010Prop54
  1
strokes_ogs.tif
102
RTVSPost2010PropOp54
 70
     1
102
RTVSPost2010Prop55
280
     0
102
RTVSPost2010PropOp55
 70
     1
102
RTVSPost2010Prop56
140
1.0
102
RTVSPost2010PropOp56
 70
     1
102
RTVSPost2010Prop57
140
1.0
102
RTVSPost2010PropOp57
 70
     1
  0
XRECORD
  5
2EE
102
{ACAD_REACTORS
330
2ED
102
}
330
2ED
100
AcDbXrecord
280
     1
102
RTVSPropertyOp0
 70
     1
102
RTVSPropertyOp1
 70
     1
102
RTVSPropertyOp2
 70
     1
102
RTVSPropertyOp3
 70
     1
102
RTVSPropertyOp4
 70
     1
102
RTVSPropertyOp5
 70
     1
102
RTVSPropertyOp6
 70
     1
102
RTVSPropertyOp7
 70
     1
102
RTVSPropertyOp8
 70
     1
102
RTVSPropertyOp9
 70
     1
102
RTVSPropertyOp10
 70
     1
102
RTVSPropertyOp11
 70
     1
102
RTVSPropertyOp12
 70
     1
102
RTVSPropertyOp13
 70
     1
102
RTVSPropertyOp14
 70
     1
102
RTVSPropertyOp15
 70
     1
102
RTVSPropertyOp16
 70
     1
102
RTVSPropertyOp17
 70
     1
102
RTVSPropertyOp18
 70
     1
102
RTVSPropertyOp19
 70
     1
102
RTVSPropertyOp20
 70
     1
102
RTVSPropertyOp21
 70
     1
102
RTVSPropertyOp22
 70
     1
102
RTVSPropertyOp23
 70
     1
102
RTVSPropertyOp24
 70
     1
102
RTVSPropertyOp25
 70
     1
102
RTVSPropertyOp26
 70
     1
102
RTVSPropertyOp27
 70
     1
102
RTVSPropertyOp28
 70
     1
102
RTVSPropertyOp29
 70
     1
102
RTVSPropertyOp30
 70
     1
102
RTVSPropertyOp31
 70
     1
102
RTVSPropertyOp32
 70
     1
102
RTVSPropertyOp33
 70
     1
102
RTVSPropertyOp34
 70
     1
102
RTVSPropertyOp35
 70
     1
102
RTVSPropertyOp36
 70
     1
102
RTVSPropertyOp37
 70
     1
102
RTVSPropertyOp38
 70
     1
102
RTVSPropertyOp39
 70
     1
102
RTVSPropertyOp40
 70
     1
102
RTVSPropertyOp41
 70
     1
102
RTVSPropertyOp42
 70
     1
102
RTVSPropertyOp43
 70
     1
102
RTVSPropertyOp44
 70
     1
102
RTVSPropertyOp45
 70
     1
102
RTVSPropertyOp46
 70
     1
102
RTVSPropertyOp47
 70
     1
102
RTVSPropertyOp48
 70
     1
102
RTVSPropertyOp49
 70
     1
102
RTVSPropertyOp50
 70
     1
102
RTVSPropertyOp51
 70
     0
102
RTVSPropertyOp52
 70
     0
102
RTVSPropertyOp53
 70
     1
102
RTVSPropertyOp54
 70
     1
102
RTVSPropertyOp55
 70
     1
102
RTVSPropertyOp56
 70
     1
102
RTVSPropertyOp57
 70
     1
102
RTVSPost2010Prop28
280
     0
102
RTVSPost2010PropOp28
 70
     1
102
RTVSPost2010Prop29
280
     1
102
RTVSPost2010PropOp29
 70
     1
102
RTVSPost2010Prop30
280
     1
102
RTVSPost2010PropOp30
 70
     1
102
RTVSPost2010Prop31
280
     0
102
RTVSPost2010PropOp31
 70
     1
102
RTVSPost2010Prop32
280
     0
102
RTVSPost2010PropOp32
 70
     1
102
RTVSPost2010Prop33
280
     0
102
RTVSPost2010PropOp33
 70
     1
102
RTVSPost2010Prop34
280
     0
102
RTVSPost2010PropOp34
 70
     1
102
RTVSPost2010Prop35
280
     0
102
RTVSPost2010PropOp35
 70
     1
102
RTVSPost2010Prop36
280
     0
102
RTVSPost2010PropOp36
 70
     1
102
RTVSPost2010Prop37
 90
       50
102
RTVSPost2010PropOp37
 70
     1
102
RTVSPost2010Prop38
140
0.0
102
RTVSPost2010PropOp38
 70
     1
102
RTVSPost2010Prop39
140
1.0
102
RTVSPost2010PropOp39
 70
     1
102
RTVSPost2010Prop40
 90
        0
102
RTVSPost2010PropOp40
 70
     1
102
RTVSPost2010Prop41ColorIndex
 90
       18
102
RTVSPost2010Prop41ColorRGB
 90
        0
102
RTVSPost2010PropOp41
 70
     1
102
RTVSPost2010Prop42
 90
       50
102
RTVSPost2010PropOp42
 70
     1
102
RTVSPost2010Prop43
 90
        3
102
RTVSPost2010PropOp43
 70
     1
102
RTVSPost2010Prop44ColorIndex
 90
        5
102
RTVSPost2010Prop44ColorRGB
 90
      255
102
RTVSPost2010PropOp44
 70
     1
102
RTVSPost2010Prop45
280
     0
102
RTVSPost2010PropOp45
 70
     1
102
RTVSPost2010Prop46
 90
       50
102
RTVSPost2010PropOp46
 70
     1
102
RTVSPost2010Prop47
 90
       50
102
RTVSPost2010PropOp47
 70
     1
102
RTVSPost2010Prop48
 90
       50
102
RTVSPost2010PropOp48
 70
     1
102
RTVSPost2010Prop49
280
     0
102
RTVSPost2010PropOp49
 70
     1
102
RTVSPost2010Prop50
 90
       50
102
RTVSPost2010PropOp50
 70
     1
102
RTVSPost2010Prop51ColorIndex
 90
      256
102
RTVSPost2010Prop51ColorRGB
 90
-16777216
102
RTVSPost2010PropOp51
 70
     0
102
RTVSPost2010Prop52
140
1.0
102
RTVSPost2010PropOp52
 70
     0
102
RTVSPost2010Prop53
 90
        2
102
RTVSPost2010PropOp53
 70
     1
102
RTVSPost2010Prop54
  1
strokes_ogs.tif
102
RTVSPost2010PropOp54
 70
     1
102
RTVSPost2010Prop55
280
     0
102
RTVSPost2010PropOp55
 70
     1
102
RTVSPost2010Prop56
140
1.0
102
RTVSPost2010PropOp56
 70
     1
102
RTVSPost2010Prop57
140
1.0
102
RTVSPost2010PropOp57
 70
     1
  0
XRECORD
  5
2E2
102
{ACAD_REACTORS
330
2E1
102
}
330
2E1
100
AcDbXrecord
280
     1
102
RTVSPropertyOp0
 70
     1
102
RTVSPropertyOp1
 70
     1
102
RTVSPropertyOp2
 70
     1
102
RTVSPropertyOp3
 70
     1
102
RTVSPropertyOp4
 70
     1
102
RTVSPropertyOp5
 70
     1
102
RTVSPropertyOp6
 70
     1
102
RTVSPropertyOp7
 70
     1
102
RTVSPropertyOp8
 70
     1
102
RTVSPropertyOp9
 70
     1
102
RTVSPropertyOp10
 70
     1
102
RTVSPropertyOp11
 70
     1
102
RTVSPropertyOp12
 70
     1
102
RTVSPropertyOp13
 70
     1
102
RTVSPropertyOp14
 70
     1
102
RTVSPropertyOp15
 70
     1
102
RTVSPropertyOp16
 70
     1
102
RTVSPropertyOp17
 70
     1
102
RTVSPropertyOp18
 70
     1
102
RTVSPropertyOp19
 70
     1
102
RTVSPropertyOp20
 70
     1
102
RTVSPropertyOp21
 70
     1
102
RTVSPropertyOp22
 70
     1
102
RTVSPropertyOp23
 70
     1
102
RTVSPropertyOp24
 70
     1
102
RTVSPropertyOp25
 70
     1
102
RTVSPropertyOp26
 70
     1
102
RTVSPropertyOp27
 70
     1
102
RTVSPropertyOp28
 70
     1
102
RTVSPropertyOp29
 70
     1
102
RTVSPropertyOp30
 70
     1
102
RTVSPropertyOp31
 70
     1
102
RTVSPropertyOp32
 70
     1
102
RTVSPropertyOp33
 70
     1
102
RTVSPropertyOp34
 70
     1
102
RTVSPropertyOp35
 70
     1
102
RTVSPropertyOp36
 70
     1
102
RTVSPropertyOp37
 70
     1
102
RTVSPropertyOp38
 70
     1
102
RTVSPropertyOp39
 70
     1
102
RTVSPropertyOp40
 70
     1
102
RTVSPropertyOp41
 70
     1
102
RTVSPropertyOp42
 70
     1
102
RTVSPropertyOp43
 70
     1
102
RTVSPropertyOp44
 70
     1
102
RTVSPropertyOp45
 70
     1
102
RTVSPropertyOp46
 70
     1
102
RTVSPropertyOp47
 70
     1
102
RTVSPropertyOp48
 70
     1
102
RTVSPropertyOp49
 70
     1
102
RTVSPropertyOp50
 70
     1
102
RTVSPropertyOp51
 70
     0
102
RTVSPropertyOp52
 70
     0
102
RTVSPropertyOp53
 70
     1
102
RTVSPropertyOp54
 70
     1
102
RTVSPropertyOp55
 70
     1
102
RTVSPropertyOp56
 70
     1
102
RTVSPropertyOp57
 70
     1
102
RTVSPost2010Prop28
280
     0
102
RTVSPost2010PropOp28
 70
     1
102
RTVSPost2010Prop29
280
     1
102
RTVSPost2010PropOp29
 70
     1
102
RTVSPost2010Prop30
280
     1
102
RTVSPost2010PropOp30
 70
     1
102
RTVSPost2010Prop31
280
     0
102
RTVSPost2010PropOp31
 70
     1
102
RTVSPost2010Prop32
280
     0
102
RTVSPost2010PropOp32
 70
     1
102
RTVSPost2010Prop33
280
     0
102
RTVSPost2010PropOp33
 70
     1
102
RTVSPost2010Prop34
280
     0
102
RTVSPost2010PropOp34
 70
     1
102
RTVSPost2010Prop35
280
     0
102
RTVSPost2010PropOp35
 70
     1
102
RTVSPost2010Prop36
280
     0
102
RTVSPost2010PropOp36
 70
     1
102
RTVSPost2010Prop37
 90
       50
102
RTVSPost2010PropOp37
 70
     1
102
RTVSPost2010Prop38
140
0.0
102
RTVSPost2010PropOp38
 70
     1
102
RTVSPost2010Prop39
140
1.0
102
RTVSPost2010PropOp39
 70
     1
102
RTVSPost2010Prop40
 90
        0
102
RTVSPost2010PropOp40
 70
     1
102
RTVSPost2010Prop41ColorIndex
 90
       18
102
RTVSPost2010Prop41ColorRGB
 90
        0
102
RTVSPost2010PropOp41
 70
     1
102
RTVSPost2010Prop42
 90
       50
102
RTVSPost2010PropOp42
 70
     1
102
RTVSPost2010Prop43
 90
        3
102
RTVSPost2010PropOp43
 70
     1
102
RTVSPost2010Prop44ColorIndex
 90
        5
102
RTVSPost2010Prop44ColorRGB
 90
      255
102
RTVSPost2010PropOp44
 70
     1
102
RTVSPost2010Prop45
280
     0
102
RTVSPost2010PropOp45
 70
     1
102
RTVSPost2010Prop46
 90
       50
102
RTVSPost2010PropOp46
 70
     1
102
RTVSPost2010Prop47
 90
       50
102
RTVSPost2010PropOp47
 70
     1
102
RTVSPost2010Prop48
 90
       50
102
RTVSPost2010PropOp48
 70
     1
102
RTVSPost2010Prop49
280
     0
102
RTVSPost2010PropOp49
 70
     1
102
RTVSPost2010Prop50
 90
       50
102
RTVSPost2010PropOp50
 70
     1
102
RTVSPost2010Prop51ColorIndex
 90
      256
102
RTVSPost2010Prop51ColorRGB
 90
-16777216
102
RTVSPost2010PropOp51
 70
     0
102
RTVSPost2010Prop52
140
1.0
102
RTVSPost2010PropOp52
 70
     0
102
RTVSPost2010Prop53
 90
        2
102
RTVSPost2010PropOp53
 70
     1
102
RTVSPost2010Prop54
  1
strokes_ogs.tif
102
RTVSPost2010PropOp54
 70
     1
102
RTVSPost2010Prop55
280
     0
102
RTVSPost2010PropOp55
 70
     1
102
RTVSPost2010Prop56
140
1.0
102
RTVSPost2010PropOp56
 70
     1
102
RTVSPost2010Prop57
140
1.0
102
RTVSPost2010PropOp57
 70
     1
  0
XRECORD
  5
2E4
102
{ACAD_REACTORS
330
2E3
102
}
330
2E3
100
AcDbXrecord
280
     1
102
RTVSPropertyOp0
 70
     1
102
RTVSPropertyOp1
 70
     1
102
RTVSPropertyOp2
 70
     1
102
RTVSPropertyOp3
 70
     1
102
RTVSPropertyOp4
 70
     1
102
RTVSPropertyOp5
 70
     1
102
RTVSPropertyOp6
 70
     1
102
RTVSPropertyOp7
 70
     1
102
RTVSPropertyOp8
 70
     1
102
RTVSPropertyOp9
 70
     1
102
RTVSPropertyOp10
 70
     1
102
RTVSPropertyOp11
 70
     1
102
RTVSPropertyOp12
 70
     1
102
RTVSPropertyOp13
 70
     1
102
RTVSPropertyOp14
 70
     1
102
RTVSPropertyOp15
 70
     1
102
RTVSPropertyOp16
 70
     1
102
RTVSPropertyOp17
 70
     1
102
RTVSPropertyOp18
 70
     1
102
RTVSPropertyOp19
 70
     1
102
RTVSPropertyOp20
 70
     1
102
RTVSPropertyOp21
 70
     1
102
RTVSPropertyOp22
 70
     1
102
RTVSPropertyOp23
 70
     1
102
RTVSPropertyOp24
 70
     1
102
RTVSPropertyOp25
 70
     1
102
RTVSPropertyOp26
 70
     1
102
RTVSPropertyOp27
 70
     1
102
RTVSPropertyOp28
 70
     1
102
RTVSPropertyOp29
 70
     1
102
RTVSPropertyOp30
 70
     1
102
RTVSPropertyOp31
 70
     1
102
RTVSPropertyOp32
 70
     1
102
RTVSPropertyOp33
 70
     1
102
RTVSPropertyOp34
 70
     1
102
RTVSPropertyOp35
 70
     1
102
RTVSPropertyOp36
 70
     1
102
RTVSPropertyOp37
 70
     1
102
RTVSPropertyOp38
 70
     1
102
RTVSPropertyOp39
 70
     1
102
RTVSPropertyOp40
 70
     1
102
RTVSPropertyOp41
 70
     1
102
RTVSPropertyOp42
 70
     1
102
RTVSPropertyOp43
 70
     1
102
RTVSPropertyOp44
 70
     1
102
RTVSPropertyOp45
 70
     1
102
RTVSPropertyOp46
 70
     1
102
RTVSPropertyOp47
 70
     1
102
RTVSPropertyOp48
 70
     1
102
RTVSPropertyOp49
 70
     1
102
RTVSPropertyOp50
 70
     1
102
RTVSPropertyOp51
 70
     0
102
RTVSPropertyOp52
 70
     0
102
RTVSPropertyOp53
 70
     1
102
RTVSPropertyOp54
 70
     1
102
RTVSPropertyOp55
 70
     1
102
RTVSPropertyOp56
 70
     1
102
RTVSPropertyOp57
 70
     1
102
RTVSPost2010Prop28
280
     0
102
RTVSPost2010PropOp28
 70
     1
102
RTVSPost2010Prop29
280
     1
102
RTVSPost2010PropOp29
 70
     1
102
RTVSPost2010Prop30
280
     1
102
RTVSPost2010PropOp30
 70
     1
102
RTVSPost2010Prop31
280
     0
102
RTVSPost2010PropOp31
 70
     1
102
RTVSPost2010Prop32
280
     0
102
RTVSPost2010PropOp32
 70
     1
102
RTVSPost2010Prop33
280
     0
102
RTVSPost2010PropOp33
 70
     1
102
RTVSPost2010Prop34
280
     0
102
RTVSPost2010PropOp34
 70
     1
102
RTVSPost2010Prop35
280
     0
102
RTVSPost2010PropOp35
 70
     1
102
RTVSPost2010Prop36
280
     0
102
RTVSPost2010PropOp36
 70
     1
102
RTVSPost2010Prop37
 90
       50
102
RTVSPost2010PropOp37
 70
     1
102
RTVSPost2010Prop38
140
0.0
102
RTVSPost2010PropOp38
 70
     1
102
RTVSPost2010Prop39
140
1.0
102
RTVSPost2010PropOp39
 70
     1
102
RTVSPost2010Prop40
 90
        0
102
RTVSPost2010PropOp40
 70
     1
102
RTVSPost2010Prop41ColorIndex
 90
       18
102
RTVSPost2010Prop41ColorRGB
 90
        0
102
RTVSPost2010PropOp41
 70
     1
102
RTVSPost2010Prop42
 90
       50
102
RTVSPost2010PropOp42
 70
     1
102
RTVSPost2010Prop43
 90
        3
102
RTVSPost2010PropOp43
 70
     1
102
RTVSPost2010Prop44ColorIndex
 90
        5
102
RTVSPost2010Prop44ColorRGB
 90
      255
102
RTVSPost2010PropOp44
 70
     1
102
RTVSPost2010Prop45
280
     0
102
RTVSPost2010PropOp45
 70
     1
102
RTVSPost2010Prop46
 90
       50
102
RTVSPost2010PropOp46
 70
     1
102
RTVSPost2010Prop47
 90
       50
102
RTVSPost2010PropOp47
 70
     1
102
RTVSPost2010Prop48
 90
       50
102
RTVSPost2010PropOp48
 70
     1
102
RTVSPost2010Prop49
280
     0
102
RTVSPost2010PropOp49
 70
     1
102
RTVSPost2010Prop50
 90
       50
102
RTVSPost2010PropOp50
 70
     1
102
RTVSPost2010Prop51ColorIndex
 90
      256
102
RTVSPost2010Prop51ColorRGB
 90
-16777216
102
RTVSPost2010PropOp51
 70
     0
102
RTVSPost2010Prop52
140
1.0
102
RTVSPost2010PropOp52
 70
     0
102
RTVSPost2010Prop53
 90
        2
102
RTVSPost2010PropOp53
 70
     1
102
RTVSPost2010Prop54
  1
strokes_ogs.tif
102
RTVSPost2010PropOp54
 70
     1
102
RTVSPost2010Prop55
280
     0
102
RTVSPost2010PropOp55
 70
     1
102
RTVSPost2010Prop56
140
1.0
102
RTVSPost2010PropOp56
 70
     1
102
RTVSPost2010Prop57
140
1.0
102
RTVSPost2010PropOp57
 70
     1
  0
XRECORD
  5
2EC
102
{ACAD_REACTORS
330
2EB
102
}
330
2EB
100
AcDbXrecord
280
     1
102
RTVSPropertyOp0
 70
     1
102
RTVSPropertyOp1
 70
     1
102
RTVSPropertyOp2
 70
     1
102
RTVSPropertyOp3
 70
     1
102
RTVSPropertyOp4
 70
     1
102
RTVSPropertyOp5
 70
     1
102
RTVSPropertyOp6
 70
     1
102
RTVSPropertyOp7
 70
     1
102
RTVSPropertyOp8
 70
     1
102
RTVSPropertyOp9
 70
     1
102
RTVSPropertyOp10
 70
     1
102
RTVSPropertyOp11
 70
     1
102
RTVSPropertyOp12
 70
     1
102
RTVSPropertyOp13
 70
     1
102
RTVSPropertyOp14
 70
     1
102
RTVSPropertyOp15
 70
     1
102
RTVSPropertyOp16
 70
     1
102
RTVSPropertyOp17
 70
     1
102
RTVSPropertyOp18
 70
     1
102
RTVSPropertyOp19
 70
     1
102
RTVSPropertyOp20
 70
     1
102
RTVSPropertyOp21
 70
     1
102
RTVSPropertyOp22
 70
     1
102
RTVSPropertyOp23
 70
     1
102
RTVSPropertyOp24
 70
     1
102
RTVSPropertyOp25
 70
     1
102
RTVSPropertyOp26
 70
     1
102
RTVSPropertyOp27
 70
     1
102
RTVSPropertyOp28
 70
     1
102
RTVSPropertyOp29
 70
     1
102
RTVSPropertyOp30
 70
     1
102
RTVSPropertyOp31
 70
     1
102
RTVSPropertyOp32
 70
     1
102
RTVSPropertyOp33
 70
     1
102
RTVSPropertyOp34
 70
     1
102
RTVSPropertyOp35
 70
     1
102
RTVSPropertyOp36
 70
     1
102
RTVSPropertyOp37
 70
     1
102
RTVSPropertyOp38
 70
     1
102
RTVSPropertyOp39
 70
     1
102
RTVSPropertyOp40
 70
     1
102
RTVSPropertyOp41
 70
     1
102
RTVSPropertyOp42
 70
     1
102
RTVSPropertyOp43
 70
     1
102
RTVSPropertyOp44
 70
     1
102
RTVSPropertyOp45
 70
     1
102
RTVSPropertyOp46
 70
     1
102
RTVSPropertyOp47
 70
     1
102
RTVSPropertyOp48
 70
     1
102
RTVSPropertyOp49
 70
     1
102
RTVSPropertyOp50
 70
     1
102
RTVSPropertyOp51
 70
     0
102
RTVSPropertyOp52
 70
     0
102
RTVSPropertyOp53
 70
     1
102
RTVSPropertyOp54
 70
     1
102
RTVSPropertyOp55
 70
     1
102
RTVSPropertyOp56
 70
     1
102
RTVSPropertyOp57
 70
     1
102
RTVSPost2010Prop28
280
     0
102
RTVSPost2010PropOp28
 70
     1
102
RTVSPost2010Prop29
280
     1
102
RTVSPost2010PropOp29
 70
     1
102
RTVSPost2010Prop30
280
     1
102
RTVSPost2010PropOp30
 70
     1
102
RTVSPost2010Prop31
280
     0
102
RTVSPost2010PropOp31
 70
     1
102
RTVSPost2010Prop32
280
     0
102
RTVSPost2010PropOp32
 70
     1
102
RTVSPost2010Prop33
280
     0
102
RTVSPost2010PropOp33
 70
     1
102
RTVSPost2010Prop34
280
     0
102
RTVSPost2010PropOp34
 70
     1
102
RTVSPost2010Prop35
280
     0
102
RTVSPost2010PropOp35
 70
     1
102
RTVSPost2010Prop36
280
     0
102
RTVSPost2010PropOp36
 70
     1
102
RTVSPost2010Prop37
 90
       50
102
RTVSPost2010PropOp37
 70
     1
102
RTVSPost2010Prop38
140
0.0
102
RTVSPost2010PropOp38
 70
     1
102
RTVSPost2010Prop39
140
1.0
102
RTVSPost2010PropOp39
 70
     1
102
RTVSPost2010Prop40
 90
        0
102
RTVSPost2010PropOp40
 70
     1
102
RTVSPost2010Prop41ColorIndex
 90
       18
102
RTVSPost2010Prop41ColorRGB
 90
        0
102
RTVSPost2010PropOp41
 70
     1
102
RTVSPost2010Prop42
 90
       50
102
RTVSPost2010PropOp42
 70
     1
102
RTVSPost2010Prop43
 90
        3
102
RTVSPost2010PropOp43
 70
     1
102
RTVSPost2010Prop44ColorIndex
 90
        5
102
RTVSPost2010Prop44ColorRGB
 90
      255
102
RTVSPost2010PropOp44
 70
     1
102
RTVSPost2010Prop45
280
     0
102
RTVSPost2010PropOp45
 70
     1
102
RTVSPost2010Prop46
 90
       50
102
RTVSPost2010PropOp46
 70
     1
102
RTVSPost2010Prop47
 90
       50
102
RTVSPost2010PropOp47
 70
     1
102
RTVSPost2010Prop48
 90
       50
102
RTVSPost2010PropOp48
 70
     1
102
RTVSPost2010Prop49
280
     0
102
RTVSPost2010PropOp49
 70
     1
102
RTVSPost2010Prop50
 90
       50
102
RTVSPost2010PropOp50
 70
     1
102
RTVSPost2010Prop51ColorIndex
 90
      256
102
RTVSPost2010Prop51ColorRGB
 90
-16777216
102
RTVSPost2010PropOp51
 70
     0
102
RTVSPost2010Prop52
140
1.0
102
RTVSPost2010PropOp52
 70
     0
102
RTVSPost2010Prop53
 90
        2
102
RTVSPost2010PropOp53
 70
     1
102
RTVSPost2010Prop54
  1
strokes_ogs.tif
102
RTVSPost2010PropOp54
 70
     1
102
RTVSPost2010Prop55
280
     0
102
RTVSPost2010PropOp55
 70
     1
102
RTVSPost2010Prop56
140
1.0
102
RTVSPost2010PropOp56
 70
     1
102
RTVSPost2010Prop57
140
1.0
102
RTVSPost2010PropOp57
 70
     1
  0
XRECORD
  5
2D0
102
{ACAD_REACTORS
330
2CF
102
}
330
2CF
100
AcDbXrecord
280
     1
102
RTVSPropertyOp0
 70
     1
102
RTVSPropertyOp1
 70
     1
102
RTVSPropertyOp2
 70
     1
102
RTVSPropertyOp3
 70
     1
102
RTVSPropertyOp4
 70
     1
102
RTVSPropertyOp5
 70
     1
102
RTVSPropertyOp6
 70
     1
102
RTVSPropertyOp7
 70
     1
102
RTVSPropertyOp8
 70
     1
102
RTVSPropertyOp9
 70
     1
102
RTVSPropertyOp10
 70
     1
102
RTVSPropertyOp11
 70
     1
102
RTVSPropertyOp12
 70
     1
102
RTVSPropertyOp13
 70
     1
102
RTVSPropertyOp14
 70
     1
102
RTVSPropertyOp15
 70
     1
102
RTVSPropertyOp16
 70
     1
102
RTVSPropertyOp17
 70
     1
102
RTVSPropertyOp18
 70
     1
102
RTVSPropertyOp19
 70
     1
102
RTVSPropertyOp20
 70
     1
102
RTVSPropertyOp21
 70
     1
102
RTVSPropertyOp22
 70
     1
102
RTVSPropertyOp23
 70
     1
102
RTVSPropertyOp24
 70
     1
102
RTVSPropertyOp25
 70
     1
102
RTVSPropertyOp26
 70
     1
102
RTVSPropertyOp27
 70
     1
102
RTVSPropertyOp28
 70
     1
102
RTVSPropertyOp29
 70
     1
102
RTVSPropertyOp30
 70
     1
102
RTVSPropertyOp31
 70
     1
102
RTVSPropertyOp32
 70
     1
102
RTVSPropertyOp33
 70
     1
102
RTVSPropertyOp34
 70
     1
102
RTVSPropertyOp35
 70
     1
102
RTVSPropertyOp36
 70
     1
102
RTVSPropertyOp37
 70
     1
102
RTVSPropertyOp38
 70
     1
102
RTVSPropertyOp39
 70
     1
102
RTVSPropertyOp40
 70
     1
102
RTVSPropertyOp41
 70
     1
102
RTVSPropertyOp42
 70
     1
102
RTVSPropertyOp43
 70
     1
102
RTVSPropertyOp44
 70
     1
102
RTVSPropertyOp45
 70
     1
102
RTVSPropertyOp46
 70
     1
102
RTVSPropertyOp47
 70
     1
102
RTVSPropertyOp48
 70
     1
102
RTVSPropertyOp49
 70
     1
102
RTVSPropertyOp50
 70
     1
102
RTVSPropertyOp51
 70
     0
102
RTVSPropertyOp52
 70
     0
102
RTVSPropertyOp53
 70
     1
102
RTVSPropertyOp54
 70
     1
102
RTVSPropertyOp55
 70
     1
102
RTVSPropertyOp56
 70
     1
102
RTVSPropertyOp57
 70
     1
102
RTVSPost2010Prop28
280
     0
102
RTVSPost2010PropOp28
 70
     1
102
RTVSPost2010Prop29
280
     1
102
RTVSPost2010PropOp29
 70
     1
102
RTVSPost2010Prop30
280
     1
102
RTVSPost2010PropOp30
 70
     1
102
RTVSPost2010Prop31
280
     0
102
RTVSPost2010PropOp31
 70
     1
102
RTVSPost2010Prop32
280
     0
102
RTVSPost2010PropOp32
 70
     1
102
RTVSPost2010Prop33
280
     0
102
RTVSPost2010PropOp33
 70
     1
102
RTVSPost2010Prop34
280
     0
102
RTVSPost2010PropOp34
 70
     1
102
RTVSPost2010Prop35
280
     0
102
RTVSPost2010PropOp35
 70
     1
102
RTVSPost2010Prop36
280
     0
102
RTVSPost2010PropOp36
 70
     1
102
RTVSPost2010Prop37
 90
       50
102
RTVSPost2010PropOp37
 70
     1
102
RTVSPost2010Prop38
140
0.0
102
RTVSPost2010PropOp38
 70
     1
102
RTVSPost2010Prop39
140
1.0
102
RTVSPost2010PropOp39
 70
     1
102
RTVSPost2010Prop40
 90
        0
102
RTVSPost2010PropOp40
 70
     1
102
RTVSPost2010Prop41ColorIndex
 90
       18
102
RTVSPost2010Prop41ColorRGB
 90
        0
102
RTVSPost2010PropOp41
 70
     1
102
RTVSPost2010Prop42
 90
       50
102
RTVSPost2010PropOp42
 70
     1
102
RTVSPost2010Prop43
 90
        3
102
RTVSPost2010PropOp43
 70
     1
102
RTVSPost2010Prop44ColorIndex
 90
        5
102
RTVSPost2010Prop44ColorRGB
 90
      255
102
RTVSPost2010PropOp44
 70
     1
102
RTVSPost2010Prop45
280
     0
102
RTVSPost2010PropOp45
 70
     1
102
RTVSPost2010Prop46
 90
       50
102
RTVSPost2010PropOp46
 70
     1
102
RTVSPost2010Prop47
 90
       50
102
RTVSPost2010PropOp47
 70
     1
102
RTVSPost2010Prop48
 90
       50
102
RTVSPost2010PropOp48
 70
     1
102
RTVSPost2010Prop49
280
     0
102
RTVSPost2010PropOp49
 70
     1
102
RTVSPost2010Prop50
 90
       50
102
RTVSPost2010PropOp50
 70
     1
102
RTVSPost2010Prop51ColorIndex
 90
      256
102
RTVSPost2010Prop51ColorRGB
 90
-16777216
102
RTVSPost2010PropOp51
 70
     0
102
RTVSPost2010Prop52
140
1.0
102
RTVSPost2010PropOp52
 70
     0
102
RTVSPost2010Prop53
 90
        2
102
RTVSPost2010PropOp53
 70
     1
102
RTVSPost2010Prop54
  1
strokes_ogs.tif
102
RTVSPost2010PropOp54
 70
     1
102
RTVSPost2010Prop55
280
     0
102
RTVSPost2010PropOp55
 70
     1
102
RTVSPost2010Prop56
140
1.0
102
RTVSPost2010PropOp56
 70
     1
102
RTVSPost2010Prop57
140
1.0
102
RTVSPost2010PropOp57
 70
     1
  0
XRECORD
  5
2D2
102
{ACAD_REACTORS
330
2D1
102
}
330
2D1
100
AcDbXrecord
280
     1
102
RTVSPropertyOp0
 70
     1
102
RTVSPropertyOp1
 70
     1
102
RTVSPropertyOp2
 70
     1
102
RTVSPropertyOp3
 70
     1
102
RTVSPropertyOp4
 70
     1
102
RTVSPropertyOp5
 70
     1
102
RTVSPropertyOp6
 70
     1
102
RTVSPropertyOp7
 70
     1
102
RTVSPropertyOp8
 70
     1
102
RTVSPropertyOp9
 70
     1
102
RTVSPropertyOp10
 70
     1
102
RTVSPropertyOp11
 70
     1
102
RTVSPropertyOp12
 70
     1
102
RTVSPropertyOp13
 70
     1
102
RTVSPropertyOp14
 70
     1
102
RTVSPropertyOp15
 70
     1
102
RTVSPropertyOp16
 70
     1
102
RTVSPropertyOp17
 70
     1
102
RTVSPropertyOp18
 70
     1
102
RTVSPropertyOp19
 70
     1
102
RTVSPropertyOp20
 70
     1
102
RTVSPropertyOp21
 70
     1
102
RTVSPropertyOp22
 70
     1
102
RTVSPropertyOp23
 70
     1
102
RTVSPropertyOp24
 70
     1
102
RTVSPropertyOp25
 70
     1
102
RTVSPropertyOp26
 70
     1
102
RTVSPropertyOp27
 70
     1
102
RTVSPropertyOp28
 70
     1
102
RTVSPropertyOp29
 70
     1
102
RTVSPropertyOp30
 70
     1
102
RTVSPropertyOp31
 70
     1
102
RTVSPropertyOp32
 70
     1
102
RTVSPropertyOp33
 70
     1
102
RTVSPropertyOp34
 70
     1
102
RTVSPropertyOp35
 70
     1
102
RTVSPropertyOp36
 70
     1
102
RTVSPropertyOp37
 70
     1
102
RTVSPropertyOp38
 70
     1
102
RTVSPropertyOp39
 70
     1
102
RTVSPropertyOp40
 70
     1
102
RTVSPropertyOp41
 70
     1
102
RTVSPropertyOp42
 70
     1
102
RTVSPropertyOp43
 70
     1
102
RTVSPropertyOp44
 70
     1
102
RTVSPropertyOp45
 70
     1
102
RTVSPropertyOp46
 70
     1
102
RTVSPropertyOp47
 70
     1
102
RTVSPropertyOp48
 70
     1
102
RTVSPropertyOp49
 70
     1
102
RTVSPropertyOp50
 70
     1
102
RTVSPropertyOp51
 70
     0
102
RTVSPropertyOp52
 70
     0
102
RTVSPropertyOp53
 70
     1
102
RTVSPropertyOp54
 70
     1
102
RTVSPropertyOp55
 70
     1
102
RTVSPropertyOp56
 70
     1
102
RTVSPropertyOp57
 70
     1
102
RTVSPost2010Prop28
280
     0
102
RTVSPost2010PropOp28
 70
     1
102
RTVSPost2010Prop29
280
     1
102
RTVSPost2010PropOp29
 70
     1
102
RTVSPost2010Prop30
280
     1
102
RTVSPost2010PropOp30
 70
     1
102
RTVSPost2010Prop31
280
     0
102
RTVSPost2010PropOp31
 70
     1
102
RTVSPost2010Prop32
280
     0
102
RTVSPost2010PropOp32
 70
     1
102
RTVSPost2010Prop33
280
     0
102
RTVSPost2010PropOp33
 70
     1
102
RTVSPost2010Prop34
280
     0
102
RTVSPost2010PropOp34
 70
     1
102
RTVSPost2010Prop35
280
     0
102
RTVSPost2010PropOp35
 70
     1
102
RTVSPost2010Prop36
280
     0
102
RTVSPost2010PropOp36
 70
     1
102
RTVSPost2010Prop37
 90
       50
102
RTVSPost2010PropOp37
 70
     1
102
RTVSPost2010Prop38
140
0.0
102
RTVSPost2010PropOp38
 70
     1
102
RTVSPost2010Prop39
140
1.0
102
RTVSPost2010PropOp39
 70
     1
102
RTVSPost2010Prop40
 90
        0
102
RTVSPost2010PropOp40
 70
     1
102
RTVSPost2010Prop41ColorIndex
 90
       18
102
RTVSPost2010Prop41ColorRGB
 90
        0
102
RTVSPost2010PropOp41
 70
     1
102
RTVSPost2010Prop42
 90
       50
102
RTVSPost2010PropOp42
 70
     1
102
RTVSPost2010Prop43
 90
        3
102
RTVSPost2010PropOp43
 70
     1
102
RTVSPost2010Prop44ColorIndex
 90
        5
102
RTVSPost2010Prop44ColorRGB
 90
      255
102
RTVSPost2010PropOp44
 70
     1
102
RTVSPost2010Prop45
280
     0
102
RTVSPost2010PropOp45
 70
     1
102
RTVSPost2010Prop46
 90
       50
102
RTVSPost2010PropOp46
 70
     1
102
RTVSPost2010Prop47
 90
       50
102
RTVSPost2010PropOp47
 70
     1
102
RTVSPost2010Prop48
 90
       50
102
RTVSPost2010PropOp48
 70
     1
102
RTVSPost2010Prop49
280
     0
102
RTVSPost2010PropOp49
 70
     1
102
RTVSPost2010Prop50
 90
       50
102
RTVSPost2010PropOp50
 70
     1
102
RTVSPost2010Prop51ColorIndex
 90
      256
102
RTVSPost2010Prop51ColorRGB
 90
-16777216
102
RTVSPost2010PropOp51
 70
     0
102
RTVSPost2010Prop52
140
1.0
102
RTVSPost2010PropOp52
 70
     0
102
RTVSPost2010Prop53
 90
        2
102
RTVSPost2010PropOp53
 70
     1
102
RTVSPost2010Prop54
  1
strokes_ogs.tif
102
RTVSPost2010PropOp54
 70
     1
102
RTVSPost2010Prop55
280
     0
102
RTVSPost2010PropOp55
 70
     1
102
RTVSPost2010Prop56
140
1.0
102
RTVSPost2010PropOp56
 70
     1
102
RTVSPost2010Prop57
140
1.0
102
RTVSPost2010PropOp57
 70
     1
  0
XRECORD
  5
2D4
102
{ACAD_REACTORS
330
2D3
102
}
330
2D3
100
AcDbXrecord
280
     1
102
RTVSPropertyOp0
 70
     1
102
RTVSPropertyOp1
 70
     1
102
RTVSPropertyOp2
 70
     1
102
RTVSPropertyOp3
 70
     1
102
RTVSPropertyOp4
 70
     1
102
RTVSPropertyOp5
 70
     1
102
RTVSPropertyOp6
 70
     1
102
RTVSPropertyOp7
 70
     1
102
RTVSPropertyOp8
 70
     1
102
RTVSPropertyOp9
 70
     1
102
RTVSPropertyOp10
 70
     1
102
RTVSPropertyOp11
 70
     1
102
RTVSPropertyOp12
 70
     1
102
RTVSPropertyOp13
 70
     1
102
RTVSPropertyOp14
 70
     1
102
RTVSPropertyOp15
 70
     1
102
RTVSPropertyOp16
 70
     1
102
RTVSPropertyOp17
 70
     1
102
RTVSPropertyOp18
 70
     1
102
RTVSPropertyOp19
 70
     1
102
RTVSPropertyOp20
 70
     1
102
RTVSPropertyOp21
 70
     1
102
RTVSPropertyOp22
 70
     1
102
RTVSPropertyOp23
 70
     1
102
RTVSPropertyOp24
 70
     1
102
RTVSPropertyOp25
 70
     1
102
RTVSPropertyOp26
 70
     1
102
RTVSPropertyOp27
 70
     1
102
RTVSPropertyOp28
 70
     1
102
RTVSPropertyOp29
 70
     1
102
RTVSPropertyOp30
 70
     1
102
RTVSPropertyOp31
 70
     1
102
RTVSPropertyOp32
 70
     1
102
RTVSPropertyOp33
 70
     1
102
RTVSPropertyOp34
 70
     1
102
RTVSPropertyOp35
 70
     1
102
RTVSPropertyOp36
 70
     1
102
RTVSPropertyOp37
 70
     1
102
RTVSPropertyOp38
 70
     1
102
RTVSPropertyOp39
 70
     1
102
RTVSPropertyOp40
 70
     1
102
RTVSPropertyOp41
 70
     1
102
RTVSPropertyOp42
 70
     1
102
RTVSPropertyOp43
 70
     1
102
RTVSPropertyOp44
 70
     1
102
RTVSPropertyOp45
 70
     1
102
RTVSPropertyOp46
 70
     1
102
RTVSPropertyOp47
 70
     1
102
RTVSPropertyOp48
 70
     1
102
RTVSPropertyOp49
 70
     1
102
RTVSPropertyOp50
 70
     1
102
RTVSPropertyOp51
 70
     0
102
RTVSPropertyOp52
 70
     0
102
RTVSPropertyOp53
 70
     1
102
RTVSPropertyOp54
 70
     1
102
RTVSPropertyOp55
 70
     1
102
RTVSPropertyOp56
 70
     1
102
RTVSPropertyOp57
 70
     1
102
RTVSPost2010Prop28
280
     0
102
RTVSPost2010PropOp28
 70
     1
102
RTVSPost2010Prop29
280
     1
102
RTVSPost2010PropOp29
 70
     1
102
RTVSPost2010Prop30
280
     1
102
RTVSPost2010PropOp30
 70
     1
102
RTVSPost2010Prop31
280
     0
102
RTVSPost2010PropOp31
 70
     1
102
RTVSPost2010Prop32
280
     0
102
RTVSPost2010PropOp32
 70
     1
102
RTVSPost2010Prop33
280
     0
102
RTVSPost2010PropOp33
 70
     1
102
RTVSPost2010Prop34
280
     0
102
RTVSPost2010PropOp34
 70
     1
102
RTVSPost2010Prop35
280
     0
102
RTVSPost2010PropOp35
 70
     1
102
RTVSPost2010Prop36
280
     0
102
RTVSPost2010PropOp36
 70
     1
102
RTVSPost2010Prop37
 90
       50
102
RTVSPost2010PropOp37
 70
     1
102
RTVSPost2010Prop38
140
0.0
102
RTVSPost2010PropOp38
 70
     1
102
RTVSPost2010Prop39
140
1.0
102
RTVSPost2010PropOp39
 70
     1
102
RTVSPost2010Prop40
 90
        0
102
RTVSPost2010PropOp40
 70
     1
102
RTVSPost2010Prop41ColorIndex
 90
       18
102
RTVSPost2010Prop41ColorRGB
 90
        0
102
RTVSPost2010PropOp41
 70
     1
102
RTVSPost2010Prop42
 90
       50
102
RTVSPost2010PropOp42
 70
     1
102
RTVSPost2010Prop43
 90
        3
102
RTVSPost2010PropOp43
 70
     1
102
RTVSPost2010Prop44ColorIndex
 90
        5
102
RTVSPost2010Prop44ColorRGB
 90
      255
102
RTVSPost2010PropOp44
 70
     1
102
RTVSPost2010Prop45
280
     0
102
RTVSPost2010PropOp45
 70
     1
102
RTVSPost2010Prop46
 90
       50
102
RTVSPost2010PropOp46
 70
     1
102
RTVSPost2010Prop47
 90
       50
102
RTVSPost2010PropOp47
 70
     1
102
RTVSPost2010Prop48
 90
       50
102
RTVSPost2010PropOp48
 70
     1
102
RTVSPost2010Prop49
280
     0
102
RTVSPost2010PropOp49
 70
     1
102
RTVSPost2010Prop50
 90
       50
102
RTVSPost2010PropOp50
 70
     1
102
RTVSPost2010Prop51ColorIndex
 90
      256
102
RTVSPost2010Prop51ColorRGB
 90
-16777216
102
RTVSPost2010PropOp51
 70
     0
102
RTVSPost2010Prop52
140
1.0
102
RTVSPost2010PropOp52
 70
     0
102
RTVSPost2010Prop53
 90
        2
102
RTVSPost2010PropOp53
 70
     1
102
RTVSPost2010Prop54
  1
strokes_ogs.tif
102
RTVSPost2010PropOp54
 70
     1
102
RTVSPost2010Prop55
280
     0
102
RTVSPost2010PropOp55
 70
     1
102
RTVSPost2010Prop56
140
1.0
102
RTVSPost2010PropOp56
 70
     1
102
RTVSPost2010Prop57
140
1.0
102
RTVSPost2010PropOp57
 70
     1
  0
XRECORD
  5
2D6
102
{ACAD_REACTORS
330
2D5
102
}
330
2D5
100
AcDbXrecord
280
     1
102
RTVSPropertyOp0
 70
     1
102
RTVSPropertyOp1
 70
     1
102
RTVSPropertyOp2
 70
     1
102
RTVSPropertyOp3
 70
     1
102
RTVSPropertyOp4
 70
     1
102
RTVSPropertyOp5
 70
     1
102
RTVSPropertyOp6
 70
     1
102
RTVSPropertyOp7
 70
     1
102
RTVSPropertyOp8
 70
     1
102
RTVSPropertyOp9
 70
     1
102
RTVSPropertyOp10
 70
     1
102
RTVSPropertyOp11
 70
     1
102
RTVSPropertyOp12
 70
     1
102
RTVSPropertyOp13
 70
     1
102
RTVSPropertyOp14
 70
     1
102
RTVSPropertyOp15
 70
     1
102
RTVSPropertyOp16
 70
     1
102
RTVSPropertyOp17
 70
     1
102
RTVSPropertyOp18
 70
     1
102
RTVSPropertyOp19
 70
     1
102
RTVSPropertyOp20
 70
     1
102
RTVSPropertyOp21
 70
     1
102
RTVSPropertyOp22
 70
     1
102
RTVSPropertyOp23
 70
     1
102
RTVSPropertyOp24
 70
     1
102
RTVSPropertyOp25
 70
     1
102
RTVSPropertyOp26
 70
     1
102
RTVSPropertyOp27
 70
     1
102
RTVSPropertyOp28
 70
     1
102
RTVSPropertyOp29
 70
     1
102
RTVSPropertyOp30
 70
     1
102
RTVSPropertyOp31
 70
     1
102
RTVSPropertyOp32
 70
     1
102
RTVSPropertyOp33
 70
     1
102
RTVSPropertyOp34
 70
     1
102
RTVSPropertyOp35
 70
     1
102
RTVSPropertyOp36
 70
     1
102
RTVSPropertyOp37
 70
     1
102
RTVSPropertyOp38
 70
     1
102
RTVSPropertyOp39
 70
     1
102
RTVSPropertyOp40
 70
     1
102
RTVSPropertyOp41
 70
     1
102
RTVSPropertyOp42
 70
     1
102
RTVSPropertyOp43
 70
     1
102
RTVSPropertyOp44
 70
     1
102
RTVSPropertyOp45
 70
     1
102
RTVSPropertyOp46
 70
     1
102
RTVSPropertyOp47
 70
     1
102
RTVSPropertyOp48
 70
     1
102
RTVSPropertyOp49
 70
     1
102
RTVSPropertyOp50
 70
     1
102
RTVSPropertyOp51
 70
     0
102
RTVSPropertyOp52
 70
     0
102
RTVSPropertyOp53
 70
     1
102
RTVSPropertyOp54
 70
     1
102
RTVSPropertyOp55
 70
     1
102
RTVSPropertyOp56
 70
     1
102
RTVSPropertyOp57
 70
     1
102
RTVSPost2010Prop28
280
     0
102
RTVSPost2010PropOp28
 70
     1
102
RTVSPost2010Prop29
280
     1
102
RTVSPost2010PropOp29
 70
     1
102
RTVSPost2010Prop30
280
     1
102
RTVSPost2010PropOp30
 70
     1
102
RTVSPost2010Prop31
280
     0
102
RTVSPost2010PropOp31
 70
     1
102
RTVSPost2010Prop32
280
     0
102
RTVSPost2010PropOp32
 70
     1
102
RTVSPost2010Prop33
280
     0
102
RTVSPost2010PropOp33
 70
     1
102
RTVSPost2010Prop34
280
     0
102
RTVSPost2010PropOp34
 70
     1
102
RTVSPost2010Prop35
280
     0
102
RTVSPost2010PropOp35
 70
     1
102
RTVSPost2010Prop36
280
     0
102
RTVSPost2010PropOp36
 70
     1
102
RTVSPost2010Prop37
 90
       50
102
RTVSPost2010PropOp37
 70
     1
102
RTVSPost2010Prop38
140
0.0
102
RTVSPost2010PropOp38
 70
     1
102
RTVSPost2010Prop39
140
1.0
102
RTVSPost2010PropOp39
 70
     1
102
RTVSPost2010Prop40
 90
        0
102
RTVSPost2010PropOp40
 70
     1
102
RTVSPost2010Prop41ColorIndex
 90
       18
102
RTVSPost2010Prop41ColorRGB
 90
        0
102
RTVSPost2010PropOp41
 70
     1
102
RTVSPost2010Prop42
 90
       50
102
RTVSPost2010PropOp42
 70
     1
102
RTVSPost2010Prop43
 90
        3
102
RTVSPost2010PropOp43
 70
     1
102
RTVSPost2010Prop44ColorIndex
 90
        5
102
RTVSPost2010Prop44ColorRGB
 90
      255
102
RTVSPost2010PropOp44
 70
     1
102
RTVSPost2010Prop45
280
     0
102
RTVSPost2010PropOp45
 70
     1
102
RTVSPost2010Prop46
 90
       50
102
RTVSPost2010PropOp46
 70
     1
102
RTVSPost2010Prop47
 90
       50
102
RTVSPost2010PropOp47
 70
     1
102
RTVSPost2010Prop48
 90
       50
102
RTVSPost2010PropOp48
 70
     1
102
RTVSPost2010Prop49
280
     0
102
RTVSPost2010PropOp49
 70
     1
102
RTVSPost2010Prop50
 90
       50
102
RTVSPost2010PropOp50
 70
     1
102
RTVSPost2010Prop51ColorIndex
 90
      256
102
RTVSPost2010Prop51ColorRGB
 90
-16777216
102
RTVSPost2010PropOp51
 70
     0
102
RTVSPost2010Prop52
140
1.0
102
RTVSPost2010PropOp52
 70
     0
102
RTVSPost2010Prop53
 90
        2
102
RTVSPost2010PropOp53
 70
     1
102
RTVSPost2010Prop54
  1
strokes_ogs.tif
102
RTVSPost2010PropOp54
 70
     1
102
RTVSPost2010Prop55
280
     0
102
RTVSPost2010PropOp55
 70
     1
102
RTVSPost2010Prop56
140
1.0
102
RTVSPost2010PropOp56
 70
     1
102
RTVSPost2010Prop57
140
1.0
102
RTVSPost2010PropOp57
 70
     1
  0
XRECORD
  5
2EA
102
{ACAD_REACTORS
330
2E9
102
}
330
2E9
100
AcDbXrecord
280
     1
102
RTVSPropertyOp0
 70
     1
102
RTVSPropertyOp1
 70
     1
102
RTVSPropertyOp2
 70
     1
102
RTVSPropertyOp3
 70
     1
102
RTVSPropertyOp4
 70
     1
102
RTVSPropertyOp5
 70
     1
102
RTVSPropertyOp6
 70
     1
102
RTVSPropertyOp7
 70
     1
102
RTVSPropertyOp8
 70
     1
102
RTVSPropertyOp9
 70
     1
102
RTVSPropertyOp10
 70
     1
102
RTVSPropertyOp11
 70
     1
102
RTVSPropertyOp12
 70
     1
102
RTVSPropertyOp13
 70
     1
102
RTVSPropertyOp14
 70
     1
102
RTVSPropertyOp15
 70
     1
102
RTVSPropertyOp16
 70
     1
102
RTVSPropertyOp17
 70
     1
102
RTVSPropertyOp18
 70
     1
102
RTVSPropertyOp19
 70
     1
102
RTVSPropertyOp20
 70
     1
102
RTVSPropertyOp21
 70
     1
102
RTVSPropertyOp22
 70
     1
102
RTVSPropertyOp23
 70
     1
102
RTVSPropertyOp24
 70
     1
102
RTVSPropertyOp25
 70
     1
102
RTVSPropertyOp26
 70
     1
102
RTVSPropertyOp27
 70
     1
102
RTVSPropertyOp28
 70
     1
102
RTVSPropertyOp29
 70
     1
102
RTVSPropertyOp30
 70
     1
102
RTVSPropertyOp31
 70
     1
102
RTVSPropertyOp32
 70
     1
102
RTVSPropertyOp33
 70
     1
102
RTVSPropertyOp34
 70
     1
102
RTVSPropertyOp35
 70
     1
102
RTVSPropertyOp36
 70
     1
102
RTVSPropertyOp37
 70
     1
102
RTVSPropertyOp38
 70
     1
102
RTVSPropertyOp39
 70
     1
102
RTVSPropertyOp40
 70
     1
102
RTVSPropertyOp41
 70
     1
102
RTVSPropertyOp42
 70
     1
102
RTVSPropertyOp43
 70
     1
102
RTVSPropertyOp44
 70
     1
102
RTVSPropertyOp45
 70
     1
102
RTVSPropertyOp46
 70
     1
102
RTVSPropertyOp47
 70
     1
102
RTVSPropertyOp48
 70
     1
102
RTVSPropertyOp49
 70
     1
102
RTVSPropertyOp50
 70
     1
102
RTVSPropertyOp51
 70
     0
102
RTVSPropertyOp52
 70
     0
102
RTVSPropertyOp53
 70
     1
102
RTVSPropertyOp54
 70
     1
102
RTVSPropertyOp55
 70
     1
102
RTVSPropertyOp56
 70
     1
102
RTVSPropertyOp57
 70
     1
102
RTVSPost2010Prop28
280
     0
102
RTVSPost2010PropOp28
 70
     1
102
RTVSPost2010Prop29
280
     1
102
RTVSPost2010PropOp29
 70
     1
102
RTVSPost2010Prop30
280
     1
102
RTVSPost2010PropOp30
 70
     1
102
RTVSPost2010Prop31
280
     0
102
RTVSPost2010PropOp31
 70
     1
102
RTVSPost2010Prop32
280
     0
102
RTVSPost2010PropOp32
 70
     1
102
RTVSPost2010Prop33
280
     0
102
RTVSPost2010PropOp33
 70
     1
102
RTVSPost2010Prop34
280
     0
102
RTVSPost2010PropOp34
 70
     1
102
RTVSPost2010Prop35
280
     0
102
RTVSPost2010PropOp35
 70
     1
102
RTVSPost2010Prop36
280
     0
102
RTVSPost2010PropOp36
 70
     1
102
RTVSPost2010Prop37
 90
       50
102
RTVSPost2010PropOp37
 70
     1
102
RTVSPost2010Prop38
140
0.0
102
RTVSPost2010PropOp38
 70
     1
102
RTVSPost2010Prop39
140
1.0
102
RTVSPost2010PropOp39
 70
     1
102
RTVSPost2010Prop40
 90
        0
102
RTVSPost2010PropOp40
 70
     1
102
RTVSPost2010Prop41ColorIndex
 90
       18
102
RTVSPost2010Prop41ColorRGB
 90
        0
102
RTVSPost2010PropOp41
 70
     1
102
RTVSPost2010Prop42
 90
       50
102
RTVSPost2010PropOp42
 70
     1
102
RTVSPost2010Prop43
 90
        3
102
RTVSPost2010PropOp43
 70
     1
102
RTVSPost2010Prop44ColorIndex
 90
        5
102
RTVSPost2010Prop44ColorRGB
 90
      255
102
RTVSPost2010PropOp44
 70
     1
102
RTVSPost2010Prop45
280
     0
102
RTVSPost2010PropOp45
 70
     1
102
RTVSPost2010Prop46
 90
       50
102
RTVSPost2010PropOp46
 70
     1
102
RTVSPost2010Prop47
 90
       50
102
RTVSPost2010PropOp47
 70
     1
102
RTVSPost2010Prop48
 90
       50
102
RTVSPost2010PropOp48
 70
     1
102
RTVSPost2010Prop49
280
     0
102
RTVSPost2010PropOp49
 70
     1
102
RTVSPost2010Prop50
 90
       50
102
RTVSPost2010PropOp50
 70
     1
102
RTVSPost2010Prop51ColorIndex
 90
      256
102
RTVSPost2010Prop51ColorRGB
 90
-16777216
102
RTVSPost2010PropOp51
 70
     0
102
RTVSPost2010Prop52
140
1.0
102
RTVSPost2010PropOp52
 70
     0
102
RTVSPost2010Prop53
 90
        2
102
RTVSPost2010PropOp53
 70
     1
102
RTVSPost2010Prop54
  1
strokes_ogs.tif
102
RTVSPost2010PropOp54
 70
     1
102
RTVSPost2010Prop55
280
     0
102
RTVSPost2010PropOp55
 70
     1
102
RTVSPost2010Prop56
140
1.0
102
RTVSPost2010PropOp56
 70
     1
102
RTVSPost2010Prop57
140
1.0
102
RTVSPost2010PropOp57
 70
     1
  0
XRECORD
  5
2E0
102
{ACAD_REACTORS
330
2DF
102
}
330
2DF
100
AcDbXrecord
280
     1
102
RTVSPropertyOp0
 70
     1
102
RTVSPropertyOp1
 70
     1
102
RTVSPropertyOp2
 70
     1
102
RTVSPropertyOp3
 70
     1
102
RTVSPropertyOp4
 70
     1
102
RTVSPropertyOp5
 70
     1
102
RTVSPropertyOp6
 70
     1
102
RTVSPropertyOp7
 70
     1
102
RTVSPropertyOp8
 70
     1
102
RTVSPropertyOp9
 70
     1
102
RTVSPropertyOp10
 70
     1
102
RTVSPropertyOp11
 70
     1
102
RTVSPropertyOp12
 70
     1
102
RTVSPropertyOp13
 70
     1
102
RTVSPropertyOp14
 70
     1
102
RTVSPropertyOp15
 70
     1
102
RTVSPropertyOp16
 70
     1
102
RTVSPropertyOp17
 70
     1
102
RTVSPropertyOp18
 70
     1
102
RTVSPropertyOp19
 70
     1
102
RTVSPropertyOp20
 70
     1
102
RTVSPropertyOp21
 70
     1
102
RTVSPropertyOp22
 70
     1
102
RTVSPropertyOp23
 70
     1
102
RTVSPropertyOp24
 70
     1
102
RTVSPropertyOp25
 70
     1
102
RTVSPropertyOp26
 70
     1
102
RTVSPropertyOp27
 70
     1
102
RTVSPropertyOp28
 70
     1
102
RTVSPropertyOp29
 70
     1
102
RTVSPropertyOp30
 70
     1
102
RTVSPropertyOp31
 70
     1
102
RTVSPropertyOp32
 70
     1
102
RTVSPropertyOp33
 70
     1
102
RTVSPropertyOp34
 70
     1
102
RTVSPropertyOp35
 70
     1
102
RTVSPropertyOp36
 70
     1
102
RTVSPropertyOp37
 70
     1
102
RTVSPropertyOp38
 70
     1
102
RTVSPropertyOp39
 70
     1
102
RTVSPropertyOp40
 70
     1
102
RTVSPropertyOp41
 70
     1
102
RTVSPropertyOp42
 70
     1
102
RTVSPropertyOp43
 70
     1
102
RTVSPropertyOp44
 70
     1
102
RTVSPropertyOp45
 70
     1
102
RTVSPropertyOp46
 70
     1
102
RTVSPropertyOp47
 70
     1
102
RTVSPropertyOp48
 70
     1
102
RTVSPropertyOp49
 70
     1
102
RTVSPropertyOp50
 70
     1
102
RTVSPropertyOp51
 70
     0
102
RTVSPropertyOp52
 70
     0
102
RTVSPropertyOp53
 70
     1
102
RTVSPropertyOp54
 70
     1
102
RTVSPropertyOp55
 70
     1
102
RTVSPropertyOp56
 70
     1
102
RTVSPropertyOp57
 70
     1
102
RTVSPost2010Prop28
280
     0
102
RTVSPost2010PropOp28
 70
     1
102
RTVSPost2010Prop29
280
     1
102
RTVSPost2010PropOp29
 70
     1
102
RTVSPost2010Prop30
280
     1
102
RTVSPost2010PropOp30
 70
     1
102
RTVSPost2010Prop31
280
     0
102
RTVSPost2010PropOp31
 70
     1
102
RTVSPost2010Prop32
280
     0
102
RTVSPost2010PropOp32
 70
     1
102
RTVSPost2010Prop33
280
     0
102
RTVSPost2010PropOp33
 70
     1
102
RTVSPost2010Prop34
280
     0
102
RTVSPost2010PropOp34
 70
     1
102
RTVSPost2010Prop35
280
     0
102
RTVSPost2010PropOp35
 70
     1
102
RTVSPost2010Prop36
280
     0
102
RTVSPost2010PropOp36
 70
     1
102
RTVSPost2010Prop37
 90
       50
102
RTVSPost2010PropOp37
 70
     1
102
RTVSPost2010Prop38
140
0.0
102
RTVSPost2010PropOp38
 70
     1
102
RTVSPost2010Prop39
140
1.0
102
RTVSPost2010PropOp39
 70
     1
102
RTVSPost2010Prop40
 90
        0
102
RTVSPost2010PropOp40
 70
     1
102
RTVSPost2010Prop41ColorIndex
 90
       18
102
RTVSPost2010Prop41ColorRGB
 90
        0
102
RTVSPost2010PropOp41
 70
     1
102
RTVSPost2010Prop42
 90
       50
102
RTVSPost2010PropOp42
 70
     1
102
RTVSPost2010Prop43
 90
        3
102
RTVSPost2010PropOp43
 70
     1
102
RTVSPost2010Prop44ColorIndex
 90
        5
102
RTVSPost2010Prop44ColorRGB
 90
      255
102
RTVSPost2010PropOp44
 70
     1
102
RTVSPost2010Prop45
280
     0
102
RTVSPost2010PropOp45
 70
     1
102
RTVSPost2010Prop46
 90
       50
102
RTVSPost2010PropOp46
 70
     1
102
RTVSPost2010Prop47
 90
       50
102
RTVSPost2010PropOp47
 70
     1
102
RTVSPost2010Prop48
 90
       50
102
RTVSPost2010PropOp48
 70
     1
102
RTVSPost2010Prop49
280
     0
102
RTVSPost2010PropOp49
 70
     1
102
RTVSPost2010Prop50
 90
       50
102
RTVSPost2010PropOp50
 70
     1
102
RTVSPost2010Prop51ColorIndex
 90
      256
102
RTVSPost2010Prop51ColorRGB
 90
-16777216
102
RTVSPost2010PropOp51
 70
     0
102
RTVSPost2010Prop52
140
1.0
102
RTVSPost2010PropOp52
 70
     0
102
RTVSPost2010Prop53
 90
        2
102
RTVSPost2010PropOp53
 70
     1
102
RTVSPost2010Prop54
  1
strokes_ogs.tif
102
RTVSPost2010PropOp54
 70
     1
102
RTVSPost2010Prop55
280
     0
102
RTVSPost2010PropOp55
 70
     1
102
RTVSPost2010Prop56
140
1.0
102
RTVSPost2010PropOp56
 70
     1
102
RTVSPost2010Prop57
140
1.0
102
RTVSPost2010PropOp57
 70
     1
  0
XRECORD
  5
2E8
102
{ACAD_REACTORS
330
2E7
102
}
330
2E7
100
AcDbXrecord
280
     1
102
RTVSPropertyOp0
 70
     1
102
RTVSPropertyOp1
 70
     1
102
RTVSPropertyOp2
 70
     1
102
RTVSPropertyOp3
 70
     1
102
RTVSPropertyOp4
 70
     1
102
RTVSPropertyOp5
 70
     1
102
RTVSPropertyOp6
 70
     1
102
RTVSPropertyOp7
 70
     1
102
RTVSPropertyOp8
 70
     1
102
RTVSPropertyOp9
 70
     1
102
RTVSPropertyOp10
 70
     1
102
RTVSPropertyOp11
 70
     1
102
RTVSPropertyOp12
 70
     1
102
RTVSPropertyOp13
 70
     1
102
RTVSPropertyOp14
 70
     1
102
RTVSPropertyOp15
 70
     1
102
RTVSPropertyOp16
 70
     1
102
RTVSPropertyOp17
 70
     1
102
RTVSPropertyOp18
 70
     1
102
RTVSPropertyOp19
 70
     1
102
RTVSPropertyOp20
 70
     1
102
RTVSPropertyOp21
 70
     1
102
RTVSPropertyOp22
 70
     1
102
RTVSPropertyOp23
 70
     1
102
RTVSPropertyOp24
 70
     1
102
RTVSPropertyOp25
 70
     1
102
RTVSPropertyOp26
 70
     1
102
RTVSPropertyOp27
 70
     1
102
RTVSPropertyOp28
 70
     1
102
RTVSPropertyOp29
 70
     1
102
RTVSPropertyOp30
 70
     1
102
RTVSPropertyOp31
 70
     1
102
RTVSPropertyOp32
 70
     1
102
RTVSPropertyOp33
 70
     1
102
RTVSPropertyOp34
 70
     1
102
RTVSPropertyOp35
 70
     1
102
RTVSPropertyOp36
 70
     1
102
RTVSPropertyOp37
 70
     1
102
RTVSPropertyOp38
 70
     1
102
RTVSPropertyOp39
 70
     1
102
RTVSPropertyOp40
 70
     1
102
RTVSPropertyOp41
 70
     1
102
RTVSPropertyOp42
 70
     1
102
RTVSPropertyOp43
 70
     1
102
RTVSPropertyOp44
 70
     1
102
RTVSPropertyOp45
 70
     1
102
RTVSPropertyOp46
 70
     1
102
RTVSPropertyOp47
 70
     1
102
RTVSPropertyOp48
 70
     1
102
RTVSPropertyOp49
 70
     1
102
RTVSPropertyOp50
 70
     1
102
RTVSPropertyOp51
 70
     0
102
RTVSPropertyOp52
 70
     0
102
RTVSPropertyOp53
 70
     1
102
RTVSPropertyOp54
 70
     1
102
RTVSPropertyOp55
 70
     1
102
RTVSPropertyOp56
 70
     1
102
RTVSPropertyOp57
 70
     1
102
RTVSPost2010Prop28
280
     0
102
RTVSPost2010PropOp28
 70
     1
102
RTVSPost2010Prop29
280
     1
102
RTVSPost2010PropOp29
 70
     1
102
RTVSPost2010Prop30
280
     1
102
RTVSPost2010PropOp30
 70
     1
102
RTVSPost2010Prop31
280
     0
102
RTVSPost2010PropOp31
 70
     1
102
RTVSPost2010Prop32
280
     0
102
RTVSPost2010PropOp32
 70
     1
102
RTVSPost2010Prop33
280
     0
102
RTVSPost2010PropOp33
 70
     1
102
RTVSPost2010Prop34
280
     0
102
RTVSPost2010PropOp34
 70
     1
102
RTVSPost2010Prop35
280
     0
102
RTVSPost2010PropOp35
 70
     1
102
RTVSPost2010Prop36
280
     0
102
RTVSPost2010PropOp36
 70
     1
102
RTVSPost2010Prop37
 90
       50
102
RTVSPost2010PropOp37
 70
     1
102
RTVSPost2010Prop38
140
0.0
102
RTVSPost2010PropOp38
 70
     1
102
RTVSPost2010Prop39
140
1.0
102
RTVSPost2010PropOp39
 70
     1
102
RTVSPost2010Prop40
 90
        0
102
RTVSPost2010PropOp40
 70
     1
102
RTVSPost2010Prop41ColorIndex
 90
       18
102
RTVSPost2010Prop41ColorRGB
 90
        0
102
RTVSPost2010PropOp41
 70
     1
102
RTVSPost2010Prop42
 90
       50
102
RTVSPost2010PropOp42
 70
     1
102
RTVSPost2010Prop43
 90
        3
102
RTVSPost2010PropOp43
 70
     1
102
RTVSPost2010Prop44ColorIndex
 90
        5
102
RTVSPost2010Prop44ColorRGB
 90
      255
102
RTVSPost2010PropOp44
 70
     1
102
RTVSPost2010Prop45
280
     0
102
RTVSPost2010PropOp45
 70
     1
102
RTVSPost2010Prop46
 90
       50
102
RTVSPost2010PropOp46
 70
     1
102
RTVSPost2010Prop47
 90
       50
102
RTVSPost2010PropOp47
 70
     1
102
RTVSPost2010Prop48
 90
       50
102
RTVSPost2010PropOp48
 70
     1
102
RTVSPost2010Prop49
280
     0
102
RTVSPost2010PropOp49
 70
     1
102
RTVSPost2010Prop50
 90
       50
102
RTVSPost2010PropOp50
 70
     1
102
RTVSPost2010Prop51ColorIndex
 90
      256
102
RTVSPost2010Prop51ColorRGB
 90
-16777216
102
RTVSPost2010PropOp51
 70
     0
102
RTVSPost2010Prop52
140
1.0
102
RTVSPost2010PropOp52
 70
     0
102
RTVSPost2010Prop53
 90
        2
102
RTVSPost2010PropOp53
 70
     1
102
RTVSPost2010Prop54
  1
strokes_ogs.tif
102
RTVSPost2010PropOp54
 70
     1
102
RTVSPost2010Prop55
280
     0
102
RTVSPost2010PropOp55
 70
     1
102
RTVSPost2010Prop56
140
1.0
102
RTVSPost2010PropOp56
 70
     1
102
RTVSPost2010Prop57
140
1.0
102
RTVSPost2010PropOp57
 70
     1
  0
ENDSEC
  0
EOF
