  0
SECTION
  2
HEADER
  9
$ACADVER
  1
AC1024
  9
$ACADMAINTVER
 70
     6
  9
$DWGCODEPAGE
  3
ANSI_1252
  9
$INSBASE
 10
0.0
 20
0.0
 30
0.0
  9
$EXTMIN
 10
1.000000000000000E+20
 20
1.000000000000000E+20
 30
1.000000000000000E+20
  9
$EXTMAX
 10
-1.000000000000000E+20
 20
-1.000000000000000E+20
 30
-1.000000000000000E+20
  9
$LIMMIN
 10
0.0
 20
0.0
  9
$LIMMAX
 10
12.0
 20
9.0
  9
$ORTHOMODE
 70
     0
  9
$REGENMODE
 70
     1
  9
$FILLMODE
 70
     1
  9
$QTEXTMODE
 70
     0
  9
$MIRRTEXT
 70
     1
  9
$LTSCALE
 40
1.0
  9
$ATTMODE
 70
     1
  9
$TEXTSIZE
 40
0.2
  9
$TRACEWID
 40
0.05
  9
$TEXTSTYLE
  7
Standard
  9
$CLAYER
  8
0
  9
$CELTYPE
  6
ByLayer
  9
$CECOLOR
 62
   256
  9
$CELTSCALE
 40
1.0
  9
$DISPSILH
 70
     0
  9
$DIMSCALE
 40
1.0
  9
$DIMASZ
 40
0.18
  9
$DIMEXO
 40
0.0625
  9
$DIMDLI
 40
0.38
  9
$DIMRND
 40
0.0
  9
$DIMDLE
 40
0.0
  9
$DIMEXE
 40
0.18
  9
$DIMTP
 40
0.0
  9
$DIMTM
 40
0.0
  9
$DIMTXT
 40
0.18
  9
$DIMCEN
 40
0.09
  9
$DIMTSZ
 40
0.0
  9
$DIMTOL
 70
     0
  9
$DIMLIM
 70
     0
  9
$DIMTIH
 70
     1
  9
$DIMTOH
 70
     1
  9
$DIMSE1
 70
     0
  9
$DIMSE2
 70
     0
  9
$DIMTAD
 70
     0
  9
$DIMZIN
 70
     0
  9
$DIMBLK
  1

  9
$DIMASO
 70
     1
  9
$DIMSHO
 70
     1
  9
$DIMPOST
  1

  9
$DIMAPOST
  1

  9
$DIMALT
 70
     0
  9
$DIMALTD
 70
     2
  9
$DIMALTF
 40
25.4
  9
$DIMLFAC
 40
1.0
  9
$DIMTOFL
 70
     0
  9
$DIMTVP
 40
0.0
  9
$DIMTIX
 70
     0
  9
$DIMSOXD
 70
     0
  9
$DIMSAH
 70
     0
  9
$DIMBLK1
  1

  9
$DIMBLK2
  1

  9
$DIMSTYLE
  2
Standard
  9
$DIMCLRD
 70
     0
  9
$DIMCLRE
 70
     0
  9
$DIMCLRT
 70
     0
  9
$DIMTFAC
 40
1.0
  9
$DIMGAP
 40
0.09
  9
$DIMJUST
 70
     0
  9
$DIMSD1
 70
     0
  9
$DIMSD2
 70
     0
  9
$DIMTOLJ
 70
     1
  9
$DIMTZIN
 70
     0
  9
$DIMALTZ
 70
     0
  9
$DIMALTTZ
 70
     0
  9
$DIMUPT
 70
     0
  9
$DIMDEC
 70
     4
  9
$DIMTDEC
 70
     4
  9
$DIMALTU
 70
     2
  9
$DIMALTTD
 70
     2
  9
$DIMTXSTY
  7
Standard
  9
$DIMAUNIT
 70
     0
  9
$DIMADEC
 70
     0
  9
$DIMALTRND
 40
0.0
  9
$DIMAZIN
 70
     0
  9
$DIMDSEP
 70
    46
  9
$DIMATFIT
 70
     3
  9
$DIMFRAC
 70
     0
  9
$DIMLDRBLK
  1

  9
$DIMLUNIT
 70
     2
  9
$DIMLWD
 70
    -2
  9
$DIMLWE
 70
    -2
  9
$DIMTMOVE
 70
     0
  9
$DIMFXL
 40
1.0
  9
$DIMFXLON
 70
     0
  9
$DIMJOGANG
 40
0.7853981633974483
  9
$DIMTFILL
 70
     0
  9
$DIMTFILLCLR
 70
     0
  9
$DIMARCSYM
 70
     0
  9
$DIMLTYPE
  6

  9
$DIMLTEX1
  6

  9
$DIMLTEX2
  6

  9
$DIMTXTDIRECTION
 70
     0
  9
$LUNITS
 70
     2
  9
$LUPREC
 70
     4
  9
$SKETCHINC
 40
0.1
  9
$FILLETRAD
 40
0.5
  9
$AUNITS
 70
     0
  9
$AUPREC
 70
     0
  9
$MENU
  1
.
  9
$ELEVATION
 40
0.0
  9
$PELEVATION
 40
0.0
  9
$THICKNESS
 40
0.0
  9
$LIMCHECK
 70
     0
  9
$CHAMFERA
 40
0.5
  9
$CHAMFERB
 40
0.5
  9
$CHAMFERC
 40
1.0
  9
$CHAMFERD
 40
0.0
  9
$SKPOLY
 70
     0
  9
$TDCREATE
 40
2458589.406323854
  9
$TDUCREATE
 40
2458589.322990521
  9
$TDUPDATE
 40
2458589.406324248
  9
$TDUUPDATE
 40
2458589.322990914
  9
$TDINDWG
 40
0.0000000116
  9
$TDUSRTIMER
 40
0.0000000116
  9
$USRTIMER
 70
     1
  9
$ANGBASE
 50
0.0
  9
$ANGDIR
 70
     0
  9
$PDMODE
 70
     0
  9
$PDSIZE
 40
0.0
  9
$PLINEWID
 40
0.0
  9
$SPLFRAME
 70
     0
  9
$SPLINETYPE
 70
     6
  9
$SPLINESEGS
 70
     8
  9
$HANDSEED
  5
702
  9
$SURFTAB1
 70
     6
  9
$SURFTAB2
 70
     6
  9
$SURFTYPE
 70
     6
  9
$SURFU
 70
     6
  9
$SURFV
 70
     6
  9
$UCSBASE
  2

  9
$UCSNAME
  2

  9
$UCSORG
 10
0.0
 20
0.0
 30
0.0
  9
$UCSXDIR
 10
1.0
 20
0.0
 30
0.0
  9
$UCSYDIR
 10
0.0
 20
1.0
 30
0.0
  9
$UCSORTHOREF
  2

  9
$UCSORTHOVIEW
 70
     0
  9
$UCSORGTOP
 10
0.0
 20
0.0
 30
0.0
  9
$UCSORGBOTTOM
 10
0.0
 20
0.0
 30
0.0
  9
$UCSORGLEFT
 10
0.0
 20
0.0
 30
0.0
  9
$UCSORGRIGHT
 10
0.0
 20
0.0
 30
0.0
  9
$UCSORGFRONT
 10
0.0
 20
0.0
 30
0.0
  9
$UCSORGBACK
 10
0.0
 20
0.0
 30
0.0
  9
$PUCSBASE
  2

  9
$PUCSNAME
  2

  9
$PUCSORG
 10
0.0
 20
0.0
 30
0.0
  9
$PUCSXDIR
 10
1.0
 20
0.0
 30
0.0
  9
$PUCSYDIR
 10
0.0
 20
1.0
 30
0.0
  9
$PUCSORTHOREF
  2

  9
$PUCSORTHOVIEW
 70
     0
  9
$PUCSORGTOP
 10
0.0
 20
0.0
 30
0.0
  9
$PUCSORGBOTTOM
 10
0.0
 20
0.0
 30
0.0
  9
$PUCSORGLEFT
 10
0.0
 20
0.0
 30
0.0
  9
$PUCSORGRIGHT
 10
0.0
 20
0.0
 30
0.0
  9
$PUCSORGFRONT
 10
0.0
 20
0.0
 30
0.0
  9
$PUCSORGBACK
 10
0.0
 20
0.0
 30
0.0
  9
$USERI1
 70
     0
  9
$USERI2
 70
     0
  9
$USERI3
 70
     0
  9
$USERI4
 70
     0
  9
$USERI5
 70
     0
  9
$USERR1
 40
0.0
  9
$USERR2
 40
0.0
  9
$USERR3
 40
0.0
  9
$USERR4
 40
0.0
  9
$USERR5
 40
0.0
  9
$WORLDVIEW
 70
     1
  9
$SHADEDGE
 70
     3
  9
$SHADEDIF
 70
    70
  9
$TILEMODE
 70
     1
  9
$MAXACTVP
 70
    64
  9
$PINSBASE
 10
0.0
 20
0.0
 30
0.0
  9
$PLIMCHECK
 70
     0
  9
$PEXTMIN
 10
1.000000000000000E+20
 20
1.000000000000000E+20
 30
1.000000000000000E+20
  9
$PEXTMAX
 10
-1.000000000000000E+20
 20
-1.000000000000000E+20
 30
-1.000000000000000E+20
  9
$PLIMMIN
 10
0.0
 20
0.0
  9
$PLIMMAX
 10
12.0
 20
9.0
  9
$UNITMODE
 70
     0
  9
$VISRETAIN
 70
     1
  9
$PLINEGEN
 70
     0
  9
$PSLTSCALE
 70
     1
  9
$TREEDEPTH
 70
  3020
  9
$CMLSTYLE
  2
Standard
  9
$CMLJUST
 70
     0
  9
$CMLSCALE
 40
1.0
  9
$PROXYGRAPHICS
 70
     1
  9
$MEASUREMENT
 70
     0
  9
$CELWEIGHT
370
    -1
  9
$ENDCAPS
280
     0
  9
$JOINSTYLE
280
     0
  9
$LWDISPLAY
290
     1
  9
$INSUNITS
 70
     1
  9
$HYPERLINKBASE
  1

  9
$STYLESHEET
  1

  9
$XEDIT
290
     1
  9
$CEPSNTYPE
380
     0
  9
$PSTYLEMODE
290
     1
  9
$FINGERPRINTGUID
  2
{899213D2-A05D-4BF1-968B-0278CA5F611B}
  9
$VERSIONGUID
  2
{FAEB1C32-E019-11D5-929B-00C0DF256EC4}
  9
$EXTNAMES
290
     1
  9
$PSVPSCALE
 40
0.0
  9
$OLESTARTUP
290
     0
  9
$SORTENTS
280
   127
  9
$INDEXCTL
280
     0
  9
$HIDETEXT
280
     1
  9
$XCLIPFRAME
280
     2
  9
$HALOGAP
280
     0
  9
$OBSCOLOR
 70
   257
  9
$OBSLTYPE
280
     0
  9
$INTERSECTIONDISPLAY
280
     0
  9
$INTERSECTIONCOLOR
 70
   257
  9
$DIMASSOC
280
     2
  9
$PROJECTNAME
  1

  9
$CAMERADISPLAY
290
     0
  9
$LENSLENGTH
 40
50.0
  9
$CAMERAHEIGHT
 40
0.0
  9
$STEPSPERSEC
 40
2.0
  9
$STEPSIZE
 40
6.0
  9
$3DDWFPREC
 40
2.0
  9
$PSOLWIDTH
 40
0.25
  9
$PSOLHEIGHT
 40
4.0
  9
$LOFTANG1
 40
1.570796326794897
  9
$LOFTANG2
 40
1.570796326794897
  9
$LOFTMAG1
 40
0.0
  9
$LOFTMAG2
 40
0.0
  9
$LOFTPARAM
 70
     7
  9
$LOFTNORMALS
280
     1
  9
$LATITUDE
 40
37.795
  9
$LONGITUDE
 40
-122.394
  9
$NORTHDIRECTION
 40
0.0
  9
$TIMEZONE
 70
 -8000
  9
$LIGHTGLYPHDISPLAY
280
     1
  9
$TILEMODELIGHTSYNCH
280
     1
  9
$CMATERIAL
347
3C
  9
$SOLIDHIST
280
     1
  9
$SHOWHIST
280
     1
  9
$DWFFRAME
280
     2
  9
$DGNFRAME
280
     2
  9
$REALWORLDSCALE
290
     1
  9
$INTERFERECOLOR
 62
   256
  9
$CSHADOW
280
     0
  9
$SHADOWPLANELOCATION
 40
0.0
  0
ENDSEC
  0
SECTION
  2
CLASSES
  0
CLASS
  1
ACDBDICTIONARYWDFLT
  2
AcDbDictionaryWithDefault
  3
ObjectDBX Classes
 90
        0
 91
        4
280
     0
281
     0
  0
CLASS
  1
VISUALSTYLE
  2
AcDbVisualStyle
  3
ObjectDBX Classes
 90
     4095
 91
        4
280
     0
281
     0
  0
CLASS
  1
MATERIAL
  2
AcDbMaterial
  3
ObjectDBX Classes
 90
     1153
 91
        4
280
     0
281
     0
  0
CLASS
  1
SUN
  2
AcDbSun
  3
SCENEOE
 90
     1024
 91
        4
280
     0
281
     0
  0
ENDSEC
  0
SECTION
  2
TABLES
  0
TABLE
  2
VPORT
  5
8
330
0
100
AcDbSymbolTable
 70
     1
  0
VPORT
  5
29
330
8
100
AcDbSymbolTableRecord
100
AcDbViewportTableRecord
  2
*Active
 70
     0
 10
0.0
 20
0.0
 11
1.0
 21
1.0
 12
0.0
 22
0.0
 13
0.0
 23
0.0
 14
0.5
 24
0.5
 15
0.5
 25
0.5
 16
0.0
 26
0.0
 36
1.0
 17
999.9979618539502
 27
1249.999239460721
 37
0.0
 40
2499.998478921441
 41
0.799998856227603
 42
50.0
 43
0.0
 44
0.0
 50
0.0
 51
0.0
 71
     0
 72
   100
 73
     1
 74
     3
 75
     0
 76
     0
 77
     0
 78
     0
281
     0
 65
     1
110
0.0
120
0.0
130
0.0
111
1.0
121
0.0
131
0.0
112
0.0
122
1.0
132
0.0
 79
     0
146
0.0
 60
     3
 61
     5
292
     1
282
     1
141
0.0
142
0.0
 63
   250
361
3F
  0
ENDTAB
  0
TABLE
  2
LTYPE
  5
5
330
0
100
AcDbSymbolTable
 70
     1
  0
LTYPE
  5
14
330
5
100
AcDbSymbolTableRecord
100
AcDbLinetypeTableRecord
  2
ByBlock
 70
     0
  3

 72
    65
 73
     0
 40
0.0
  0
LTYPE
  5
15
330
5
100
AcDbSymbolTableRecord
100
AcDbLinetypeTableRecord
  2
ByLayer
 70
     0
  3

 72
    65
 73
     0
 40
0.0
  0
LTYPE
  5
16
330
5
100
AcDbSymbolTableRecord
100
AcDbLinetypeTableRecord
  2
Continuous
 70
     0
  3
Solid line
 72
    65
 73
     0
 40
0.0
  0
ENDTAB
  0
TABLE
  2
LAYER
  5
2
330
0
100
AcDbSymbolTable
 70
     2
  0
LAYER
  5
10
330
2
100
AcDbSymbolTableRecord
100
AcDbLayerTableRecord
  2
0
 70
     0
 62
     7
  6
Continuous
370
    -3
390
F
347
3E
  0
LAYER
  5
40
330
2
100
AcDbSymbolTableRecord
100
AcDbLayerTableRecord
  2
Calque 1
 70
     0
 62
     7
  6
Continuous
370
    -3
390
F
347
3E
  0
ENDTAB
  0
TABLE
  2
STYLE
  5
3
330
0
100
AcDbSymbolTable
 70
     1
  0
STYLE
  5
11
330
3
100
AcDbSymbolTableRecord
100
AcDbTextStyleTableRecord
  2
Standard
 70
     0
 40
0.0
 41
1.0
 50
0.0
 71
     0
 42
0.2
  3
txt
  4

  0
ENDTAB
  0
TABLE
  2
VIEW
  5
6
330
0
100
AcDbSymbolTable
 70
     0
  0
ENDTAB
  0
TABLE
  2
UCS
  5
7
330
0
100
AcDbSymbolTable
 70
     0
  0
ENDTAB
  0
TABLE
  2
APPID
  5
9
330
0
100
AcDbSymbolTable
 70
     1
  0
APPID
  5
12
330
9
100
AcDbSymbolTableRecord
100
AcDbRegAppTableRecord
  2
ACAD
 70
     0
  0
ENDTAB
  0
TABLE
  2
DIMSTYLE
  5
A
330
0
100
AcDbSymbolTable
 70
     1
100
AcDbDimStyleTable
  0
DIMSTYLE
105
27
330
A
100
AcDbSymbolTableRecord
100
AcDbDimStyleTableRecord
  2
Standard
 70
     0
178
     0
340
11
  0
ENDTAB
  0
TABLE
  2
BLOCK_RECORD
  5
1
330
0
100
AcDbSymbolTable
 70
     1
  0
BLOCK_RECORD
  5
1F
330
1
100
AcDbSymbolTableRecord
100
AcDbBlockTableRecord
  2
*Model_Space
340
22
 70
     0
280
     1
281
     0
  0
BLOCK_RECORD
  5
1B
330
1
100
AcDbSymbolTableRecord
100
AcDbBlockTableRecord
  2
*Paper_Space
340
1E
 70
     0
280
     1
281
     0
  0
BLOCK_RECORD
  5
23
330
1
100
AcDbSymbolTableRecord
100
AcDbBlockTableRecord
  2
*Paper_Space0
340
26
 70
     0
280
     1
281
     0
  0
ENDTAB
  0
ENDSEC
  0
SECTION
  2
BLOCKS
  0
BLOCK
  5
20
330
1F
100
AcDbEntity
  8
0
100
AcDbBlockBegin
  2
*Model_Space
 70
     0
 10
0.0
 20
0.0
 30
0.0
  3
*Model_Space
  1

  0
ENDBLK
  5
21
330
1F
100
AcDbEntity
  8
0
100
AcDbBlockEnd
  0
BLOCK
  5
1C
330
1B
100
AcDbEntity
 67
     1
  8
0
100
AcDbBlockBegin
  2
*Paper_Space
 70
     0
 10
0.0
 20
0.0
 30
0.0
  3
*Paper_Space
  1

  0
ENDBLK
  5
1D
330
1B
100
AcDbEntity
 67
     1
  8
0
100
AcDbBlockEnd
  0
BLOCK
  5
24
330
23
100
AcDbEntity
  8
0
100
AcDbBlockBegin
  2
*Paper_Space0
 70
     0
 10
0.0
 20
0.0
 30
0.0
  3
*Paper_Space0
  1

  0
ENDBLK
  5
25
330
23
100
AcDbEntity
  8
0
100
AcDbBlockEnd
  0
ENDSEC
  0
SECTION
  2
ENTITIES
  0
POLYLINE
  5
41
330
1F
100
AcDbEntity
  8
Calque 1
 62
   250
420
  2236966
370
    50
100
AcDb2dPolyline
 66
     1
 10
0.0
 20
0.0
 30
0.0
  0
VERTEX
  5
42
330
41
100
AcDbEntity
  8
Calque 1
 62
   250
420
  2236966
370
    50
100
AcDbVertex
100
AcDb2dVertex
 10
0.0
 20
0.0
 30
0.0
  0
VERTEX
  5
43
330
41
100
AcDbEntity
  8
Calque 1
 62
   250
420
  2236966
370
    50
100
AcDbVertex
100
AcDb2dVertex
 10
1999.9959237079
 20
0.0
 30
0.0
  0
SEQEND
  5
44
330
41
100
AcDbEntity
  8
Calque 1
 62
   250
420
  2236966
370
    50
  0
POLYLINE
  5
45
330
1F
100
AcDbEntity
  8
Calque 1
 62
   250
420
  2236966
370
    50
100
AcDb2dPolyline
 66
     1
 10
0.0
 20
0.0
 30
0.0
  0
VERTEX
  5
46
330
45
100
AcDbEntity
  8
Calque 1
 62
   250
420
  2236966
370
    50
100
AcDbVertex
100
AcDb2dVertex
 10
0.0
 20
0.0
 30
0.0
  0
VERTEX
  5
47
330
45
100
AcDbEntity
  8
Calque 1
 62
   250
420
  2236966
370
    50
100
AcDbVertex
100
AcDb2dVertex
 10
0.0
 20
2500.00002921441
 30
0.0
  0
SEQEND
  5
48
330
45
100
AcDbEntity
  8
Calque 1
 62
   250
420
  2236966
370
    50
  0
POLYLINE
  5
49
330
1F
100
AcDbEntity
  8
Calque 1
 62
   250
420
  2236966
370
    50
100
AcDb2dPolyline
 66
     1
 10
0.0
 20
0.0
 30
0.0
  0
VERTEX
  5
4A
330
49
100
AcDbEntity
  8
Calque 1
 62
   250
420
  2236966
370
    50
100
AcDbVertex
100
AcDb2dVertex
 10
1999.9959237079
 20
0.0
 30
0.0
  0
VERTEX
  5
4B
330
49
100
AcDbEntity
  8
Calque 1
 62
   250
420
  2236966
370
    50
100
AcDbVertex
100
AcDb2dVertex
 10
1999.9959237079
 20
2500.00002921441
 30
0.0
  0
SEQEND
  5
4C
330
49
100
AcDbEntity
  8
Calque 1
 62
   250
420
  2236966
370
    50
  0
POLYLINE
  5
4D
330
1F
100
AcDbEntity
  8
Calque 1
 62
   250
420
  2236966
370
    50
100
AcDb2dPolyline
 66
     1
 10
0.0
 20
0.0
 30
0.0
  0
VERTEX
  5
4E
330
4D
100
AcDbEntity
  8
Calque 1
 62
   250
420
  2236966
370
    50
100
AcDbVertex
100
AcDb2dVertex
 10
0.0
 20
2500.00002921441
 30
0.0
  0
VERTEX
  5
4F
330
4D
100
AcDbEntity
  8
Calque 1
 62
   250
420
  2236966
370
    50
100
AcDbVertex
100
AcDb2dVertex
 10
1999.9959237079
 20
2500.00002921441
 30
0.0
  0
SEQEND
  5
50
330
4D
100
AcDbEntity
  8
Calque 1
 62
   250
420
  2236966
370
    50
  0
POLYLINE
  5
51
330
1F
100
AcDbEntity
  8
Calque 1
 62
   193
420
 10040268
370
    50
100
AcDb2dPolyline
 66
     1
 10
0.0
 20
0.0
 30
0.0
  0
VERTEX
  5
52
330
51
100
AcDbEntity
  8
Calque 1
 62
   193
420
 10040268
370
    50
100
AcDbVertex
100
AcDb2dVertex
 10
540.4225686311704
 20
2165.497449545431
 30
0.0
  0
VERTEX
  5
53
330
51
100
AcDbEntity
  8
Calque 1
 62
   193
420
 10040268
370
    50
100
AcDbVertex
100
AcDb2dVertex
 10
540.4227839496383
 20
2165.50468424595
 30
0.0
  0
VERTEX
  5
54
330
51
100
AcDbEntity
  8
Calque 1
 62
   193
420
 10040268
370
    50
100
AcDbVertex
100
AcDb2dVertex
 10
540.4234729687353
 20
2165.512952475115
 30
0.0
  0
VERTEX
  5
55
330
51
100
AcDbEntity
  8
Calque 1
 62
   193
420
 10040268
370
    50
100
AcDbVertex
100
AcDb2dVertex
 10
540.4247648795423
 20
2165.522081978151
 30
0.0
  0
VERTEX
  5
56
330
51
100
AcDbEntity
  8
Calque 1
 62
   193
420
 10040268
370
    50
100
AcDbVertex
100
AcDb2dVertex
 10
540.4268319368334
 20
2165.531900500284
 30
0.0
  0
VERTEX
  5
57
330
51
100
AcDbEntity
  8
Calque 1
 62
   193
420
 10040268
370
    50
100
AcDbVertex
100
AcDb2dVertex
 10
540.4296310769151
 20
2165.541891277191
 30
0.0
  0
VERTEX
  5
58
330
51
100
AcDbEntity
  8
Calque 1
 62
   193
420
 10040268
370
    50
100
AcDbVertex
100
AcDb2dVertex
 10
540.4332914908682
 20
2165.552054308872
 30
0.0
  0
VERTEX
  5
59
330
51
100
AcDbEntity
  8
Calque 1
 62
   193
420
 10040268
370
    50
100
AcDbVertex
100
AcDb2dVertex
 10
540.4378562423863
 20
2165.562389595328
 30
0.0
  0
VERTEX
  5
5A
330
51
100
AcDbEntity
  8
Calque 1
 62
   193
420
 10040268
370
    50
100
AcDbVertex
100
AcDb2dVertex
 10
540.4431961403884
 20
2165.572380372235
 30
0.0
  0
VERTEX
  5
5B
330
51
100
AcDbEntity
  8
Calque 1
 62
   193
420
 10040268
370
    50
100
AcDbVertex
100
AcDb2dVertex
 10
540.4493542485683
 20
2165.582198894369
 30
0.0
  0
VERTEX
  5
5C
330
51
100
AcDbEntity
  8
Calque 1
 62
   193
420
 10040268
370
    50
100
AcDbVertex
100
AcDb2dVertex
 10
540.4562875032323
 20
2165.591672906953
 30
0.0
  0
VERTEX
  5
5D
330
51
100
AcDbEntity
  8
Calque 1
 62
   193
420
 10040268
370
    50
100
AcDbVertex
100
AcDb2dVertex
 10
540.4636944585255
 20
2165.60045790044
 30
0.0
  0
VERTEX
  5
5E
330
51
100
AcDbEntity
  8
Calque 1
 62
   193
420
 10040268
370
    50
100
AcDbVertex
100
AcDb2dVertex
 10
540.4714028596738
 20
2165.608209365282
 30
0.0
  0
VERTEX
  5
5F
330
51
100
AcDbEntity
  8
Calque 1
 62
   193
420
 10040268
370
    50
100
AcDbVertex
100
AcDb2dVertex
 10
540.4793265792899
 20
2165.615099556253
 30
0.0
  0
VERTEX
  5
60
330
51
100
AcDbEntity
  8
Calque 1
 62
   193
420
 10040268
370
    50
100
AcDbVertex
100
AcDb2dVertex
 10
540.487250298906
 20
2165.621128473352
 30
0.0
  0
VERTEX
  5
61
330
51
100
AcDbEntity
  8
Calque 1
 62
   193
420
 10040268
370
    50
100
AcDbVertex
100
AcDb2dVertex
 10
540.4949587000542
 20
2165.62629611658
 30
0.0
  0
VERTEX
  5
62
330
51
100
AcDbEntity
  8
Calque 1
 62
   193
420
 10040268
370
    50
100
AcDbVertex
100
AcDb2dVertex
 10
540.5023656553475
 20
2165.630430231162
 30
0.0
  0
VERTEX
  5
63
330
51
100
AcDbEntity
  8
Calque 1
 62
   193
420
 10040268
370
    50
100
AcDbVertex
100
AcDb2dVertex
 10
540.5090835915438
 20
2165.633875326647
 30
0.0
  0
VERTEX
  5
64
330
51
100
AcDbEntity
  8
Calque 1
 62
   193
420
 10040268
370
    50
100
AcDbVertex
100
AcDb2dVertex
 10
540.5147679990944
 20
2165.636286893487
 30
0.0
  0
VERTEX
  5
65
330
51
100
AcDbEntity
  8
Calque 1
 62
   193
420
 10040268
370
    50
100
AcDbVertex
100
AcDb2dVertex
 10
540.5193758143059
 20
2165.638009441229
 30
0.0
  0
VERTEX
  5
66
330
51
100
AcDbEntity
  8
Calque 1
 62
   193
420
 10040268
370
    50
100
AcDbVertex
100
AcDb2dVertex
 10
540.523036228259
 20
2165.639042969875
 30
0.0
  0
VERTEX
  5
67
330
51
100
AcDbEntity
  8
Calque 1
 62
   193
420
 10040268
370
    50
100
AcDbVertex
100
AcDb2dVertex
 10
540.5258353683408
 20
2165.639731988972
 30
0.0
  0
VERTEX
  5
68
330
51
100
AcDbEntity
  8
Calque 1
 62
   193
420
 10040268
370
    50
100
AcDbVertex
100
AcDb2dVertex
 10
540.5276440434706
 20
2165.640248753295
 30
0.0
  0
VERTEX
  5
69
330
51
100
AcDbEntity
  8
Calque 1
 62
   193
420
 10040268
370
    50
100
AcDbVertex
100
AcDb2dVertex
 10
540.5285053173419
 20
2165.640421008069
 30
0.0
  0
VERTEX
  5
6A
330
51
100
AcDbEntity
  8
Calque 1
 62
   193
420
 10040268
370
    50
100
AcDbVertex
100
AcDb2dVertex
 10
540.5273425976155
 20
2165.640248753295
 30
0.0
  0
VERTEX
  5
6B
330
51
100
AcDbEntity
  8
Calque 1
 62
   193
420
 10040268
370
    50
100
AcDbVertex
100
AcDb2dVertex
 10
540.5252755403244
 20
2165.640076498521
 30
0.0
  0
VERTEX
  5
6C
330
51
100
AcDbEntity
  8
Calque 1
 62
   193
420
 10040268
370
    50
100
AcDbVertex
100
AcDb2dVertex
 10
540.5222610817748
 20
2165.639904243747
 30
0.0
  0
VERTEX
  5
6D
330
51
100
AcDbEntity
  8
Calque 1
 62
   193
420
 10040268
370
    50
100
AcDbVertex
100
AcDb2dVertex
 10
540.5182130945797
 20
2165.639731988972
 30
0.0
  0
VERTEX
  5
6E
330
51
100
AcDbEntity
  8
Calque 1
 62
   193
420
 10040268
370
    50
100
AcDbVertex
100
AcDb2dVertex
 10
540.5131315787389
 20
2165.639731988972
 30
0.0
  0
SEQEND
  5
6F
330
51
100
AcDbEntity
  8
Calque 1
 62
   193
420
 10040268
370
    50
  0
POLYLINE
  5
70
330
1F
100
AcDbEntity
  8
Calque 1
 62
   193
420
 10040268
370
    50
100
AcDb2dPolyline
 66
     1
 10
0.0
 20
0.0
 30
0.0
  0
VERTEX
  5
71
330
70
100
AcDbEntity
  8
Calque 1
 62
   193
420
 10040268
370
    50
100
AcDbVertex
100
AcDb2dVertex
 10
540.4225686311704
 20
2223.394690741894
 30
0.0
  0
VERTEX
  5
72
330
70
100
AcDbEntity
  8
Calque 1
 62
   193
420
 10040268
370
    50
100
AcDbVertex
100
AcDb2dVertex
 10
540.4228700770254
 20
2223.403992499705
 30
0.0
  0
VERTEX
  5
73
330
70
100
AcDbEntity
  8
Calque 1
 62
   193
420
 10040268
370
    50
100
AcDbVertex
100
AcDb2dVertex
 10
540.4236882872032
 20
2223.413122002741
 30
0.0
  0
VERTEX
  5
74
330
70
100
AcDbEntity
  8
Calque 1
 62
   193
420
 10040268
370
    50
100
AcDbVertex
100
AcDb2dVertex
 10
540.4249371343166
 20
2223.421734741454
 30
0.0
  0
VERTEX
  5
75
330
70
100
AcDbEntity
  8
Calque 1
 62
   193
420
 10040268
370
    50
100
AcDbVertex
100
AcDb2dVertex
 10
540.426573554672
 20
2223.42965846107
 30
0.0
  0
VERTEX
  5
76
330
70
100
AcDbEntity
  8
Calque 1
 62
   193
420
 10040268
370
    50
100
AcDbVertex
100
AcDb2dVertex
 10
540.4283822298017
 20
2223.43654865204
 30
0.0
  0
VERTEX
  5
77
330
70
100
AcDbEntity
  8
Calque 1
 62
   193
420
 10040268
370
    50
100
AcDbVertex
100
AcDb2dVertex
 10
540.4303631597058
 20
2223.442749823914
 30
0.0
  0
VERTEX
  5
78
330
70
100
AcDbEntity
  8
Calque 1
 62
   193
420
 10040268
370
    50
100
AcDbVertex
100
AcDb2dVertex
 10
540.4323010259162
 20
2223.447917467141
 30
0.0
  0
VERTEX
  5
79
330
70
100
AcDbEntity
  8
Calque 1
 62
   193
420
 10040268
370
    50
100
AcDbVertex
100
AcDb2dVertex
 10
540.434109701046
 20
2223.452223836498
 30
0.0
  0
VERTEX
  5
7A
330
70
100
AcDbEntity
  8
Calque 1
 62
   193
420
 10040268
370
    50
100
AcDbVertex
100
AcDb2dVertex
 10
540.4357461214015
 20
2223.455496677209
 30
0.0
  0
VERTEX
  5
7B
330
70
100
AcDbEntity
  8
Calque 1
 62
   193
420
 10040268
370
    50
100
AcDbVertex
100
AcDb2dVertex
 10
540.4370380322084
 20
2223.457908244049
 30
0.0
  0
VERTEX
  5
7C
330
70
100
AcDbEntity
  8
Calque 1
 62
   193
420
 10040268
370
    50
100
AcDbVertex
100
AcDb2dVertex
 10
540.4379423697734
 20
2223.459630791791
 30
0.0
  0
VERTEX
  5
7D
330
70
100
AcDbEntity
  8
Calque 1
 62
   193
420
 10040268
370
    50
100
AcDbVertex
100
AcDb2dVertex
 10
540.4384160704026
 20
2223.460319810888
 30
0.0
  0
VERTEX
  5
7E
330
70
100
AcDbEntity
  8
Calque 1
 62
   193
420
 10040268
370
    50
100
AcDbVertex
100
AcDb2dVertex
 10
540.4378131786926
 20
2223.459458537017
 30
0.0
  0
VERTEX
  5
7F
330
70
100
AcDbEntity
  8
Calque 1
 62
   193
420
 10040268
370
    50
100
AcDbVertex
100
AcDb2dVertex
 10
540.4366504589664
 20
2223.457908244049
 30
0.0
  0
VERTEX
  5
80
330
70
100
AcDbEntity
  8
Calque 1
 62
   193
420
 10040268
370
    50
100
AcDbVertex
100
AcDb2dVertex
 10
540.4349279112238
 20
2223.455841186758
 30
0.0
  0
VERTEX
  5
81
330
70
100
AcDbEntity
  8
Calque 1
 62
   193
420
 10040268
370
    50
100
AcDbVertex
100
AcDb2dVertex
 10
540.4326024717712
 20
2223.45308511037
 30
0.0
  0
VERTEX
  5
82
330
70
100
AcDbEntity
  8
Calque 1
 62
   193
420
 10040268
370
    50
100
AcDbVertex
100
AcDb2dVertex
 10
540.4295880132216
 20
2223.449812269659
 30
0.0
  0
VERTEX
  5
83
330
70
100
AcDbEntity
  8
Calque 1
 62
   193
420
 10040268
370
    50
100
AcDbVertex
100
AcDb2dVertex
 10
540.4260137266557
 20
2223.446022664625
 30
0.0
  0
VERTEX
  5
84
330
70
100
AcDbEntity
  8
Calque 1
 62
   193
420
 10040268
370
    50
100
AcDbVertex
100
AcDb2dVertex
 10
540.4217504209927
 20
2223.441544040494
 30
0.0
  0
VERTEX
  5
85
330
70
100
AcDbEntity
  8
Calque 1
 62
   193
420
 10040268
370
    50
100
AcDbVertex
100
AcDb2dVertex
 10
540.4167980962326
 20
2223.436720906815
 30
0.0
  0
VERTEX
  5
86
330
70
100
AcDbEntity
  8
Calque 1
 62
   193
420
 10040268
370
    50
100
AcDbVertex
100
AcDb2dVertex
 10
540.4112428797627
 20
2223.431381008812
 30
0.0
  0
VERTEX
  5
87
330
70
100
AcDbEntity
  8
Calque 1
 62
   193
420
 10040268
370
    50
100
AcDbVertex
100
AcDb2dVertex
 10
540.4051278352764
 20
2223.425696601262
 30
0.0
  0
VERTEX
  5
88
330
70
100
AcDbEntity
  8
Calque 1
 62
   193
420
 10040268
370
    50
100
AcDbVertex
100
AcDb2dVertex
 10
540.3983668353866
 20
2223.419667684163
 30
0.0
  0
VERTEX
  5
89
330
70
100
AcDbEntity
  8
Calque 1
 62
   193
420
 10040268
370
    50
100
AcDbVertex
100
AcDb2dVertex
 10
540.3909598800933
 20
2223.413294257515
 30
0.0
  0
VERTEX
  5
8A
330
70
100
AcDbEntity
  8
Calque 1
 62
   193
420
 10040268
370
    50
100
AcDbVertex
100
AcDb2dVertex
 10
540.3829930967836
 20
2223.406748576093
 30
0.0
  0
VERTEX
  5
8B
330
70
100
AcDbEntity
  8
Calque 1
 62
   193
420
 10040268
370
    50
100
AcDbVertex
100
AcDb2dVertex
 10
540.3743803580705
 20
2223.399686130348
 30
0.0
  0
VERTEX
  5
8C
330
70
100
AcDbEntity
  8
Calque 1
 62
   193
420
 10040268
370
    50
100
AcDbVertex
100
AcDb2dVertex
 10
540.3650786002603
 20
2223.392279175055
 30
0.0
  0
VERTEX
  5
8D
330
70
100
AcDbEntity
  8
Calque 1
 62
   193
420
 10040268
370
    50
100
AcDbVertex
100
AcDb2dVertex
 10
540.3551739507402
 20
2223.384527710213
 30
0.0
  0
VERTEX
  5
8E
330
70
100
AcDbEntity
  8
Calque 1
 62
   193
420
 10040268
370
    50
100
AcDbVertex
100
AcDb2dVertex
 10
540.344580282123
 20
2223.376603990597
 30
0.0
  0
VERTEX
  5
8F
330
70
100
AcDbEntity
  8
Calque 1
 62
   193
420
 10040268
370
    50
100
AcDbVertex
100
AcDb2dVertex
 10
540.333383721796
 20
2223.368508016207
 30
0.0
  0
VERTEX
  5
90
330
70
100
AcDbEntity
  8
Calque 1
 62
   193
420
 10040268
370
    50
100
AcDbVertex
100
AcDb2dVertex
 10
540.3215412060655
 20
2223.360067532268
 30
0.0
  0
VERTEX
  5
91
330
70
100
AcDbEntity
  8
Calque 1
 62
   193
420
 10040268
370
    50
100
AcDbVertex
100
AcDb2dVertex
 10
540.3091388623186
 20
2223.35128253878
 30
0.0
  0
SEQEND
  5
92
330
70
100
AcDbEntity
  8
Calque 1
 62
   193
420
 10040268
370
    50
  0
POLYLINE
  5
93
330
1F
100
AcDbEntity
  8
Calque 1
 62
   193
420
 10040268
370
    50
100
AcDb2dPolyline
 66
     1
 10
0.0
 20
0.0
 30
0.0
  0
VERTEX
  5
94
330
93
100
AcDbEntity
  8
Calque 1
 62
   193
420
 10040268
370
    50
100
AcDbVertex
100
AcDb2dVertex
 10
551.0225676112678
 20
2164.148694662956
 30
0.0
  0
VERTEX
  5
95
330
93
100
AcDbEntity
  8
Calque 1
 62
   193
420
 10040268
370
    50
100
AcDbVertex
100
AcDb2dVertex
 10
551.0227829297356
 20
2164.15248426799
 30
0.0
  0
VERTEX
  5
96
330
93
100
AcDbEntity
  8
Calque 1
 62
   193
420
 10040268
370
    50
100
AcDbVertex
100
AcDb2dVertex
 10
551.0234288851391
 20
2164.157135146895
 30
0.0
  0
VERTEX
  5
97
330
93
100
AcDbEntity
  8
Calque 1
 62
   193
420
 10040268
370
    50
100
AcDbVertex
100
AcDb2dVertex
 10
551.0248499870268
 20
2164.164025337865
 30
0.0
  0
VERTEX
  5
98
330
93
100
AcDbEntity
  8
Calque 1
 62
   193
420
 10040268
370
    50
100
AcDbVertex
100
AcDb2dVertex
 10
551.0275629997215
 20
2164.173671605224
 30
0.0
  0
VERTEX
  5
99
330
93
100
AcDbEntity
  8
Calque 1
 62
   193
420
 10040268
370
    50
100
AcDbVertex
100
AcDb2dVertex
 10
551.0317401779973
 20
2164.185557184648
 30
0.0
  0
VERTEX
  5
9A
330
93
100
AcDbEntity
  8
Calque 1
 62
   193
420
 10040268
370
    50
100
AcDbVertex
100
AcDb2dVertex
 10
551.0374676492415
 20
2164.199165311815
 30
0.0
  0
VERTEX
  5
9B
330
93
100
AcDbEntity
  8
Calque 1
 62
   193
420
 10040268
370
    50
100
AcDbVertex
100
AcDb2dVertex
 10
551.0449176682283
 20
2164.214495986724
 30
0.0
  0
VERTEX
  5
9C
330
93
100
AcDbEntity
  8
Calque 1
 62
   193
420
 10040268
370
    50
100
AcDbVertex
100
AcDb2dVertex
 10
551.0543486171192
 20
2164.231893718925
 30
0.0
  0
VERTEX
  5
9D
330
93
100
AcDbEntity
  8
Calque 1
 62
   193
420
 10040268
370
    50
100
AcDbVertex
100
AcDb2dVertex
 10
551.0655882411398
 20
2164.250497234545
 30
0.0
  0
VERTEX
  5
9E
330
93
100
AcDbEntity
  8
Calque 1
 62
   193
420
 10040268
370
    50
100
AcDbVertex
100
AcDb2dVertex
 10
551.0784212218224
 20
2164.269962024037
 30
0.0
  0
VERTEX
  5
9F
330
93
100
AcDbEntity
  8
Calque 1
 62
   193
420
 10040268
370
    50
100
AcDbVertex
100
AcDb2dVertex
 10
551.0929767502477
 20
2164.2902880874
 30
0.0
  0
VERTEX
  5
A0
330
93
100
AcDbEntity
  8
Calque 1
 62
   193
420
 10040268
370
    50
100
AcDbVertex
100
AcDb2dVertex
 10
551.1091686990283
 20
2164.311475424634
 30
0.0
  0
VERTEX
  5
A1
330
93
100
AcDbEntity
  8
Calque 1
 62
   193
420
 10040268
370
    50
100
AcDbVertex
100
AcDb2dVertex
 10
551.1268248133902
 20
2164.332835016643
 30
0.0
  0
VERTEX
  5
A2
330
93
100
AcDbEntity
  8
Calque 1
 62
   193
420
 10040268
370
    50
100
AcDbVertex
100
AcDb2dVertex
 10
551.146074284414
 20
2164.354711372974
 30
0.0
  0
VERTEX
  5
A3
330
93
100
AcDbEntity
  8
Calque 1
 62
   193
420
 10040268
370
    50
100
AcDbVertex
100
AcDb2dVertex
 10
551.1669171120998
 20
2164.377104493628
 30
0.0
  0
SEQEND
  5
A4
330
93
100
AcDbEntity
  8
Calque 1
 62
   193
420
 10040268
370
    50
  0
POLYLINE
  5
A5
330
1F
100
AcDbEntity
  8
Calque 1
 62
   193
420
 10040268
370
    50
100
AcDb2dPolyline
 66
     1
 10
0.0
 20
0.0
 30
0.0
  0
VERTEX
  5
A6
330
A5
100
AcDbEntity
  8
Calque 1
 62
   193
420
 10040268
370
    50
100
AcDbVertex
100
AcDb2dVertex
 10
540.2225808382517
 20
2223.436204142492
 30
0.0
  0
VERTEX
  5
A7
330
A5
100
AcDbEntity
  8
Calque 1
 62
   193
420
 10040268
370
    50
100
AcDbVertex
100
AcDb2dVertex
 10
540.2225808382517
 20
2163.839669597929
 30
0.0
  0
SEQEND
  5
A8
330
A5
100
AcDbEntity
  8
Calque 1
 62
   193
420
 10040268
370
    50
  0
POLYLINE
  5
A9
330
1F
100
AcDbEntity
  8
Calque 1
 62
   193
420
 10040268
370
    50
100
AcDb2dPolyline
 66
     1
 10
0.0
 20
0.0
 30
0.0
  0
VERTEX
  5
AA
330
A9
100
AcDbEntity
  8
Calque 1
 62
   193
420
 10040268
370
    50
100
AcDbVertex
100
AcDb2dVertex
 10
540.2559121370715
 20
2223.436204142492
 30
0.0
  0
VERTEX
  5
AB
330
A9
100
AcDbEntity
  8
Calque 1
 62
   193
420
 10040268
370
    50
100
AcDbVertex
100
AcDb2dVertex
 10
540.2559121370715
 20
2169.507023925939
 30
0.0
  0
SEQEND
  5
AC
330
A9
100
AcDbEntity
  8
Calque 1
 62
   193
420
 10040268
370
    50
  0
POLYLINE
  5
AD
330
1F
100
AcDbEntity
  8
Calque 1
 62
   193
420
 10040268
370
    50
100
AcDb2dPolyline
 66
     1
 10
0.0
 20
0.0
 30
0.0
  0
VERTEX
  5
AE
330
AD
100
AcDbEntity
  8
Calque 1
 62
   193
420
 10040268
370
    50
100
AcDbVertex
100
AcDb2dVertex
 10
540.2559121370715
 20
2165.772368165154
 30
0.0
  0
VERTEX
  5
AF
330
AD
100
AcDbEntity
  8
Calque 1
 62
   193
420
 10040268
370
    50
100
AcDbVertex
100
AcDb2dVertex
 10
540.2559121370715
 20
2163.933031685579
 30
0.0
  0
SEQEND
  5
B0
330
AD
100
AcDbEntity
  8
Calque 1
 62
   193
420
 10040268
370
    50
  0
POLYLINE
  5
B1
330
1F
100
AcDbEntity
  8
Calque 1
 62
   193
420
 10040268
370
    50
100
AcDb2dPolyline
 66
     1
 10
0.0
 20
0.0
 30
0.0
  0
VERTEX
  5
B2
330
B1
100
AcDbEntity
  8
Calque 1
 62
   193
420
 10040268
370
    50
100
AcDbVertex
100
AcDb2dVertex
 10
540.4225686311704
 20
2163.63968180501
 30
0.0
  0
VERTEX
  5
B3
330
B1
100
AcDbEntity
  8
Calque 1
 62
   193
420
 10040268
370
    50
100
AcDbVertex
100
AcDb2dVertex
 10
540.4225686311704
 20
2223.636019680636
 30
0.0
  0
SEQEND
  5
B4
330
B1
100
AcDbEntity
  8
Calque 1
 62
   193
420
 10040268
370
    50
  0
POLYLINE
  5
B5
330
1F
100
AcDbEntity
  8
Calque 1
 62
   193
420
 10040268
370
    50
100
AcDb2dPolyline
 66
     1
 10
0.0
 20
0.0
 30
0.0
  0
VERTEX
  5
B6
330
B5
100
AcDbEntity
  8
Calque 1
 62
   193
420
 10040268
370
    50
100
AcDbVertex
100
AcDb2dVertex
 10
541.2925413685831
 20
2220.63964788234
 30
0.0
  0
VERTEX
  5
B7
330
B5
100
AcDbEntity
  8
Calque 1
 62
   193
420
 10040268
370
    50
100
AcDbVertex
100
AcDb2dVertex
 10
541.2925413685831
 20
2176.452853188526
 30
0.0
  0
SEQEND
  5
B8
330
B5
100
AcDbEntity
  8
Calque 1
 62
   193
420
 10040268
370
    50
  0
POLYLINE
  5
B9
330
1F
100
AcDbEntity
  8
Calque 1
 62
   193
420
 10040268
370
    50
100
AcDb2dPolyline
 66
     1
 10
0.0
 20
0.0
 30
0.0
  0
VERTEX
  5
BA
330
B9
100
AcDbEntity
  8
Calque 1
 62
   193
420
 10040268
370
    50
100
AcDbVertex
100
AcDb2dVertex
 10
549.906442801434
 20
2176.452853188526
 30
0.0
  0
VERTEX
  5
BB
330
B9
100
AcDbEntity
  8
Calque 1
 62
   193
420
 10040268
370
    50
100
AcDbVertex
100
AcDb2dVertex
 10
549.906442801434
 20
2220.63964788234
 30
0.0
  0
SEQEND
  5
BC
330
B9
100
AcDbEntity
  8
Calque 1
 62
   193
420
 10040268
370
    50
  0
POLYLINE
  5
BD
330
1F
100
AcDbEntity
  8
Calque 1
 62
   193
420
 10040268
370
    50
100
AcDb2dPolyline
 66
     1
 10
0.0
 20
0.0
 30
0.0
  0
VERTEX
  5
BE
330
BD
100
AcDbEntity
  8
Calque 1
 62
   193
420
 10040268
370
    50
100
AcDbVertex
100
AcDb2dVertex
 10
551.0225676112678
 20
2163.63968180501
 30
0.0
  0
VERTEX
  5
BF
330
BD
100
AcDbEntity
  8
Calque 1
 62
   193
420
 10040268
370
    50
100
AcDbVertex
100
AcDb2dVertex
 10
551.0225676112678
 20
2223.636019680636
 30
0.0
  0
SEQEND
  5
C0
330
BD
100
AcDbEntity
  8
Calque 1
 62
   193
420
 10040268
370
    50
  0
POLYLINE
  5
C1
330
1F
100
AcDbEntity
  8
Calque 1
 62
   193
420
 10040268
370
    50
100
AcDb2dPolyline
 66
     1
 10
0.0
 20
0.0
 30
0.0
  0
VERTEX
  5
C2
330
C1
100
AcDbEntity
  8
Calque 1
 62
   193
420
 10040268
370
    50
100
AcDbVertex
100
AcDb2dVertex
 10
551.1892241053667
 20
2163.933031685579
 30
0.0
  0
VERTEX
  5
C3
330
C1
100
AcDbEntity
  8
Calque 1
 62
   193
420
 10040268
370
    50
100
AcDbVertex
100
AcDb2dVertex
 10
551.1892241053667
 20
2165.772368165154
 30
0.0
  0
SEQEND
  5
C4
330
C1
100
AcDbEntity
  8
Calque 1
 62
   193
420
 10040268
370
    50
  0
POLYLINE
  5
C5
330
1F
100
AcDbEntity
  8
Calque 1
 62
   193
420
 10040268
370
    50
100
AcDb2dPolyline
 66
     1
 10
0.0
 20
0.0
 30
0.0
  0
VERTEX
  5
C6
330
C5
100
AcDbEntity
  8
Calque 1
 62
   193
420
 10040268
370
    50
100
AcDbVertex
100
AcDb2dVertex
 10
551.1892241053667
 20
2169.507023925939
 30
0.0
  0
VERTEX
  5
C7
330
C5
100
AcDbEntity
  8
Calque 1
 62
   193
420
 10040268
370
    50
100
AcDbVertex
100
AcDb2dVertex
 10
551.1892241053667
 20
2223.436204142492
 30
0.0
  0
SEQEND
  5
C8
330
C5
100
AcDbEntity
  8
Calque 1
 62
   193
420
 10040268
370
    50
  0
POLYLINE
  5
C9
330
1F
100
AcDbEntity
  8
Calque 1
 62
   193
420
 10040268
370
    50
100
AcDb2dPolyline
 66
     1
 10
0.0
 20
0.0
 30
0.0
  0
VERTEX
  5
CA
330
C9
100
AcDbEntity
  8
Calque 1
 62
   193
420
 10040268
370
    50
100
AcDbVertex
100
AcDb2dVertex
 10
551.2225554041866
 20
2223.436204142492
 30
0.0
  0
VERTEX
  5
CB
330
C9
100
AcDbEntity
  8
Calque 1
 62
   193
420
 10040268
370
    50
100
AcDbVertex
100
AcDb2dVertex
 10
551.2225554041866
 20
2163.839669597929
 30
0.0
  0
SEQEND
  5
CC
330
C9
100
AcDbEntity
  8
Calque 1
 62
   193
420
 10040268
370
    50
  0
POLYLINE
  5
CD
330
1F
100
AcDbEntity
  8
Calque 1
 62
   193
420
 10040268
370
    50
100
AcDb2dPolyline
 66
     1
 10
0.0
 20
0.0
 30
0.0
  0
VERTEX
  5
CE
330
CD
100
AcDbEntity
  8
Calque 1
 62
   193
420
 10040268
370
    50
100
AcDbVertex
100
AcDb2dVertex
 10
551.0225676112678
 20
2169.782287055211
 30
0.0
  0
VERTEX
  5
CF
330
CD
100
AcDbEntity
  8
Calque 1
 62
   193
420
 10040268
370
    50
100
AcDbVertex
100
AcDb2dVertex
 10
551.0223522928
 20
2169.775052354692
 30
0.0
  0
VERTEX
  5
D0
330
CD
100
AcDbEntity
  8
Calque 1
 62
   193
420
 10040268
370
    50
100
AcDbVertex
100
AcDb2dVertex
 10
551.021663273703
 20
2169.766956380302
 30
0.0
  0
VERTEX
  5
D1
330
CD
100
AcDbEntity
  8
Calque 1
 62
   193
420
 10040268
370
    50
100
AcDbVertex
100
AcDb2dVertex
 10
551.020371362896
 20
2169.757826877265
 30
0.0
  0
VERTEX
  5
D2
330
CD
100
AcDbEntity
  8
Calque 1
 62
   193
420
 10040268
370
    50
100
AcDbVertex
100
AcDb2dVertex
 10
551.0183043056048
 20
2169.748008355133
 30
0.0
  0
VERTEX
  5
D3
330
CD
100
AcDbEntity
  8
Calque 1
 62
   193
420
 10040268
370
    50
100
AcDbVertex
100
AcDb2dVertex
 10
551.0155051655231
 20
2169.737845323451
 30
0.0
  0
VERTEX
  5
D4
330
CD
100
AcDbEntity
  8
Calque 1
 62
   193
420
 10040268
370
    50
100
AcDbVertex
100
AcDb2dVertex
 10
551.0118016878764
 20
2169.727337782221
 30
0.0
  0
VERTEX
  5
D5
330
CD
100
AcDbEntity
  8
Calque 1
 62
   193
420
 10040268
370
    50
100
AcDbVertex
100
AcDb2dVertex
 10
551.0071508089713
 20
2169.716830240991
 30
0.0
  0
VERTEX
  5
D6
330
CD
100
AcDbEntity
  8
Calque 1
 62
   193
420
 10040268
370
    50
100
AcDbVertex
100
AcDb2dVertex
 10
551.0016817198884
 20
2169.706494954535
 30
0.0
  0
VERTEX
  5
D7
330
CD
100
AcDbEntity
  8
Calque 1
 62
   193
420
 10040268
370
    50
100
AcDbVertex
100
AcDb2dVertex
 10
550.9952221658536
 20
2169.696331922854
 30
0.0
  0
VERTEX
  5
D8
330
CD
100
AcDbEntity
  8
Calque 1
 62
   193
420
 10040268
370
    50
100
AcDbVertex
100
AcDb2dVertex
 10
550.9879874653346
 20
2169.686513400721
 30
0.0
  0
VERTEX
  5
D9
330
CD
100
AcDbEntity
  8
Calque 1
 62
   193
420
 10040268
370
    50
100
AcDbVertex
100
AcDb2dVertex
 10
550.9802790641863
 20
2169.677728407234
 30
0.0
  0
VERTEX
  5
DA
330
CD
100
AcDbEntity
  8
Calque 1
 62
   193
420
 10040268
370
    50
100
AcDbVertex
100
AcDb2dVertex
 10
550.972096962409
 20
2169.669632432843
 30
0.0
  0
VERTEX
  5
DB
330
CD
100
AcDbEntity
  8
Calque 1
 62
   193
420
 10040268
370
    50
100
AcDbVertex
100
AcDb2dVertex
 10
550.9637856695507
 20
2169.662569987098
 30
0.0
  0
VERTEX
  5
DC
330
CD
100
AcDbEntity
  8
Calque 1
 62
   193
420
 10040268
370
    50
100
AcDbVertex
100
AcDb2dVertex
 10
550.9556466314668
 20
2169.656541069999
 30
0.0
  0
VERTEX
  5
DD
330
CD
100
AcDbEntity
  8
Calque 1
 62
   193
420
 10040268
370
    50
100
AcDbVertex
100
AcDb2dVertex
 10
550.9478090392379
 20
2169.651545681545
 30
0.0
  0
VERTEX
  5
DE
330
CD
100
AcDbEntity
  8
Calque 1
 62
   193
420
 10040268
370
    50
100
AcDbVertex
100
AcDb2dVertex
 10
550.9405312750254
 20
2169.647583821737
 30
0.0
  0
VERTEX
  5
DF
330
CD
100
AcDbEntity
  8
Calque 1
 62
   193
420
 10040268
370
    50
100
AcDbVertex
100
AcDb2dVertex
 10
550.9341147846841
 20
2169.644655490575
 30
0.0
  0
VERTEX
  5
E0
330
CD
100
AcDbEntity
  8
Calque 1
 62
   193
420
 10040268
370
    50
100
AcDbVertex
100
AcDb2dVertex
 10
550.9287318229883
 20
2169.642588433284
 30
0.0
  0
VERTEX
  5
E1
330
CD
100
AcDbEntity
  8
Calque 1
 62
   193
420
 10040268
370
    50
100
AcDbVertex
100
AcDb2dVertex
 10
550.9243393262446
 20
2169.641038140316
 30
0.0
  0
VERTEX
  5
E2
330
CD
100
AcDbEntity
  8
Calque 1
 62
   193
420
 10040268
370
    50
100
AcDbVertex
100
AcDb2dVertex
 10
550.9208511670658
 20
2169.64000461167
 30
0.0
  0
VERTEX
  5
E3
330
CD
100
AcDbEntity
  8
Calque 1
 62
   193
420
 10040268
370
    50
100
AcDbVertex
100
AcDb2dVertex
 10
550.9183965365326
 20
2169.639487847347
 30
0.0
  0
VERTEX
  5
E4
330
CD
100
AcDbEntity
  8
Calque 1
 62
   193
420
 10040268
370
    50
100
AcDbVertex
100
AcDb2dVertex
 10
550.9169323709514
 20
2169.639143337798
 30
0.0
  0
VERTEX
  5
E5
330
CD
100
AcDbEntity
  8
Calque 1
 62
   193
420
 10040268
370
    50
100
AcDbVertex
100
AcDb2dVertex
 10
550.9165447977092
 20
2169.639143337798
 30
0.0
  0
VERTEX
  5
E6
330
CD
100
AcDbEntity
  8
Calque 1
 62
   193
420
 10040268
370
    50
100
AcDbVertex
100
AcDb2dVertex
 10
550.9172768804999
 20
2169.639143337798
 30
0.0
  0
VERTEX
  5
E7
330
CD
100
AcDbEntity
  8
Calque 1
 62
   193
420
 10040268
370
    50
100
AcDbVertex
100
AcDb2dVertex
 10
550.9191286193231
 20
2169.639315592573
 30
0.0
  0
VERTEX
  5
E8
330
CD
100
AcDbEntity
  8
Calque 1
 62
   193
420
 10040268
370
    50
100
AcDbVertex
100
AcDb2dVertex
 10
550.9221000141793
 20
2169.639487847347
 30
0.0
  0
VERTEX
  5
E9
330
CD
100
AcDbEntity
  8
Calque 1
 62
   193
420
 10040268
370
    50
100
AcDbVertex
100
AcDb2dVertex
 10
550.9263202561486
 20
2169.639660102122
 30
0.0
  0
VERTEX
  5
EA
330
CD
100
AcDbEntity
  8
Calque 1
 62
   193
420
 10040268
370
    50
100
AcDbVertex
100
AcDb2dVertex
 10
550.9316601541508
 20
2169.639660102122
 30
0.0
  0
SEQEND
  5
EB
330
CD
100
AcDbEntity
  8
Calque 1
 62
   193
420
 10040268
370
    50
  0
POLYLINE
  5
EC
330
1F
100
AcDbEntity
  8
Calque 1
 62
   193
420
 10040268
370
    50
100
AcDb2dPolyline
 66
     1
 10
0.0
 20
0.0
 30
0.0
  0
VERTEX
  5
ED
330
EC
100
AcDbEntity
  8
Calque 1
 62
   193
420
 10040268
370
    50
100
AcDbVertex
100
AcDb2dVertex
 10
540.2782191303385
 20
2164.377104493628
 30
0.0
  0
VERTEX
  5
EE
330
EC
100
AcDbEntity
  8
Calque 1
 62
   193
420
 10040268
370
    50
100
AcDbVertex
100
AcDb2dVertex
 10
540.2999662955891
 20
2164.353850099103
 30
0.0
  0
VERTEX
  5
EF
330
EC
100
AcDbEntity
  8
Calque 1
 62
   193
420
 10040268
370
    50
100
AcDbVertex
100
AcDb2dVertex
 10
540.3199047857099
 20
2164.330940214126
 30
0.0
  0
VERTEX
  5
F0
330
EC
100
AcDbEntity
  8
Calque 1
 62
   193
420
 10040268
370
    50
100
AcDbVertex
100
AcDb2dVertex
 10
540.3379915370075
 20
2164.30889160302
 30
0.0
  0
VERTEX
  5
F1
330
EC
100
AcDbEntity
  8
Calque 1
 62
   193
420
 10040268
370
    50
100
AcDbVertex
100
AcDb2dVertex
 10
540.3543126768689
 20
2164.287532011012
 30
0.0
  0
VERTEX
  5
F2
330
EC
100
AcDbEntity
  8
Calque 1
 62
   193
420
 10040268
370
    50
100
AcDbVertex
100
AcDb2dVertex
 10
540.3686959505199
 20
2164.267033692875
 30
0.0
  0
VERTEX
  5
F3
330
EC
100
AcDbEntity
  8
Calque 1
 62
   193
420
 10040268
370
    50
100
AcDbVertex
100
AcDb2dVertex
 10
540.3812274853474
 20
2164.247913412931
 30
0.0
  0
VERTEX
  5
F4
330
EC
100
AcDbEntity
  8
Calque 1
 62
   193
420
 10040268
370
    50
100
AcDbVertex
100
AcDb2dVertex
 10
540.3920364724324
 20
2164.229654406859
 30
0.0
  0
VERTEX
  5
F5
330
EC
100
AcDbEntity
  8
Calque 1
 62
   193
420
 10040268
370
    50
100
AcDbVertex
100
AcDb2dVertex
 10
540.4011229117748
 20
2164.212773438981
 30
0.0
  0
VERTEX
  5
F6
330
EC
100
AcDbEntity
  8
Calque 1
 62
   193
420
 10040268
370
    50
100
AcDbVertex
100
AcDb2dVertex
 10
540.4083576122938
 20
2164.197442764072
 30
0.0
  0
VERTEX
  5
F7
330
EC
100
AcDbEntity
  8
Calque 1
 62
   193
420
 10040268
370
    50
100
AcDbVertex
100
AcDb2dVertex
 10
540.4138697650702
 20
2164.184179146454
 30
0.0
  0
VERTEX
  5
F8
330
EC
100
AcDbEntity
  8
Calque 1
 62
   193
420
 10040268
370
    50
100
AcDbVertex
100
AcDb2dVertex
 10
540.4178316248782
 20
2164.172465821804
 30
0.0
  0
VERTEX
  5
F9
330
EC
100
AcDbEntity
  8
Calque 1
 62
   193
420
 10040268
370
    50
100
AcDbVertex
100
AcDb2dVertex
 10
540.4204154464921
 20
2164.163164063994
 30
0.0
  0
VERTEX
  5
FA
330
EC
100
AcDbEntity
  8
Calque 1
 62
   193
420
 10040268
370
    50
100
AcDbVertex
100
AcDb2dVertex
 10
540.4217504209927
 20
2164.156446127798
 30
0.0
  0
VERTEX
  5
FB
330
EC
100
AcDbEntity
  8
Calque 1
 62
   193
420
 10040268
370
    50
100
AcDbVertex
100
AcDb2dVertex
 10
540.4223533127026
 20
2164.151967503667
 30
0.0
  0
VERTEX
  5
FC
330
EC
100
AcDbEntity
  8
Calque 1
 62
   193
420
 10040268
370
    50
100
AcDbVertex
100
AcDb2dVertex
 10
540.4225686311704
 20
2164.148522408182
 30
0.0
  0
SEQEND
  5
FD
330
EC
100
AcDbEntity
  8
Calque 1
 62
   193
420
 10040268
370
    50
  0
POLYLINE
  5
FE
330
1F
100
AcDbEntity
  8
Calque 1
 62
   193
420
 10040268
370
    50
100
AcDb2dPolyline
 66
     1
 10
0.0
 20
0.0
 30
0.0
  0
VERTEX
  5
FF
330
FE
100
AcDbEntity
  8
Calque 1
 62
   193
420
 10040268
370
    50
100
AcDbVertex
100
AcDb2dVertex
 10
551.1359543164261
 20
2223.35128253878
 30
0.0
  0
VERTEX
  5
100
330
FE
100
AcDbEntity
  8
Calque 1
 62
   193
420
 10040268
370
    50
100
AcDbVertex
100
AcDb2dVertex
 10
551.1250161382604
 20
2223.359034003622
 30
0.0
  0
VERTEX
  5
101
330
FE
100
AcDbEntity
  8
Calque 1
 62
   193
420
 10040268
370
    50
100
AcDbVertex
100
AcDb2dVertex
 10
551.114551660724
 20
2223.366440958916
 30
0.0
  0
VERTEX
  5
102
330
FE
100
AcDbEntity
  8
Calque 1
 62
   193
420
 10040268
370
    50
100
AcDbVertex
100
AcDb2dVertex
 10
551.1044747564297
 20
2223.373675659434
 30
0.0
  0
VERTEX
  5
103
330
FE
100
AcDbEntity
  8
Calque 1
 62
   193
420
 10040268
370
    50
100
AcDbVertex
100
AcDb2dVertex
 10
551.0948715527645
 20
2223.380910359953
 30
0.0
  0
VERTEX
  5
104
330
FE
100
AcDbEntity
  8
Calque 1
 62
   193
420
 10040268
370
    50
100
AcDbVertex
100
AcDb2dVertex
 10
551.0857851134222
 20
2223.387800550924
 30
0.0
  0
VERTEX
  5
105
330
FE
100
AcDbEntity
  8
Calque 1
 62
   193
420
 10040268
370
    50
100
AcDbVertex
100
AcDb2dVertex
 10
551.077172374709
 20
2223.39451848712
 30
0.0
  0
VERTEX
  5
106
330
FE
100
AcDbEntity
  8
Calque 1
 62
   193
420
 10040268
370
    50
100
AcDbVertex
100
AcDb2dVertex
 10
551.0690333366251
 20
2223.401064168542
 30
0.0
  0
VERTEX
  5
107
330
FE
100
AcDbEntity
  8
Calque 1
 62
   193
420
 10040268
370
    50
100
AcDbVertex
100
AcDb2dVertex
 10
551.0614110628641
 20
2223.407265340416
 30
0.0
  0
VERTEX
  5
108
330
FE
100
AcDbEntity
  8
Calque 1
 62
   193
420
 10040268
370
    50
100
AcDbVertex
100
AcDb2dVertex
 10
551.0543055534257
 20
2223.413294257515
 30
0.0
  0
VERTEX
  5
109
330
FE
100
AcDbEntity
  8
Calque 1
 62
   193
420
 10040268
370
    50
100
AcDbVertex
100
AcDb2dVertex
 10
551.0476737446165
 20
2223.418978665065
 30
0.0
  0
VERTEX
  5
10A
330
FE
100
AcDbEntity
  8
Calque 1
 62
   193
420
 10040268
370
    50
100
AcDbVertex
100
AcDb2dVertex
 10
551.0414725727431
 20
2223.424490817842
 30
0.0
  0
VERTEX
  5
10B
330
FE
100
AcDbEntity
  8
Calque 1
 62
   193
420
 10040268
370
    50
100
AcDbVertex
100
AcDb2dVertex
 10
551.0357881651925
 20
2223.42965846107
 30
0.0
  0
VERTEX
  5
10C
330
FE
100
AcDbEntity
  8
Calque 1
 62
   193
420
 10040268
370
    50
100
AcDbVertex
100
AcDb2dVertex
 10
551.0305343945774
 20
2223.434653849523
 30
0.0
  0
VERTEX
  5
10D
330
FE
100
AcDbEntity
  8
Calque 1
 62
   193
420
 10040268
370
    50
100
AcDbVertex
100
AcDb2dVertex
 10
551.0258404519788
 20
2223.439132473654
 30
0.0
  0
VERTEX
  5
10E
330
FE
100
AcDbEntity
  8
Calque 1
 62
   193
420
 10040268
370
    50
100
AcDbVertex
100
AcDb2dVertex
 10
551.0215771463158
 20
2223.443438843011
 30
0.0
  0
VERTEX
  5
10F
330
FE
100
AcDbEntity
  8
Calque 1
 62
   193
420
 10040268
370
    50
100
AcDbVertex
100
AcDb2dVertex
 10
551.0178306049756
 20
2223.447228448044
 30
0.0
  0
VERTEX
  5
110
330
FE
100
AcDbEntity
  8
Calque 1
 62
   193
420
 10040268
370
    50
100
AcDbVertex
100
AcDb2dVertex
 10
551.0146869553453
 20
2223.45067354353
 30
0.0
  0
VERTEX
  5
111
330
FE
100
AcDbEntity
  8
Calque 1
 62
   193
420
 10040268
370
    50
100
AcDbVertex
100
AcDb2dVertex
 10
551.0120170063442
 20
2223.453774129467
 30
0.0
  0
VERTEX
  5
112
330
FE
100
AcDbEntity
  8
Calque 1
 62
   193
420
 10040268
370
    50
100
AcDbVertex
100
AcDb2dVertex
 10
551.0099068853596
 20
2223.456185696306
 30
0.0
  0
VERTEX
  5
113
330
FE
100
AcDbEntity
  8
Calque 1
 62
   193
420
 10040268
370
    50
100
AcDbVertex
100
AcDb2dVertex
 10
551.0083135286976
 20
2223.458080498823
 30
0.0
  0
VERTEX
  5
114
330
FE
100
AcDbEntity
  8
Calque 1
 62
   193
420
 10040268
370
    50
100
AcDbVertex
100
AcDb2dVertex
 10
551.007280000052
 20
2223.459458537017
 30
0.0
  0
VERTEX
  5
115
330
FE
100
AcDbEntity
  8
Calque 1
 62
   193
420
 10040268
370
    50
100
AcDbVertex
100
AcDb2dVertex
 10
551.0066771083422
 20
2223.460319810888
 30
0.0
  0
VERTEX
  5
116
330
FE
100
AcDbEntity
  8
Calque 1
 62
   193
420
 10040268
370
    50
100
AcDbVertex
100
AcDb2dVertex
 10
551.0071508089713
 20
2223.459630791791
 30
0.0
  0
VERTEX
  5
117
330
FE
100
AcDbEntity
  8
Calque 1
 62
   193
420
 10040268
370
    50
100
AcDbVertex
100
AcDb2dVertex
 10
551.0080551465362
 20
2223.458080498823
 30
0.0
  0
VERTEX
  5
118
330
FE
100
AcDbEntity
  8
Calque 1
 62
   193
420
 10040268
370
    50
100
AcDbVertex
100
AcDb2dVertex
 10
551.0093470573431
 20
2223.455668931983
 30
0.0
  0
VERTEX
  5
119
330
FE
100
AcDbEntity
  8
Calque 1
 62
   193
420
 10040268
370
    50
100
AcDbVertex
100
AcDb2dVertex
 10
551.0108973503116
 20
2223.452396091272
 30
0.0
  0
VERTEX
  5
11A
330
FE
100
AcDbEntity
  8
Calque 1
 62
   193
420
 10040268
370
    50
100
AcDbVertex
100
AcDb2dVertex
 10
551.0126629617478
 20
2223.44826197669
 30
0.0
  0
VERTEX
  5
11B
330
FE
100
AcDbEntity
  8
Calque 1
 62
   193
420
 10040268
370
    50
100
AcDbVertex
100
AcDb2dVertex
 10
551.0146008279581
 20
2223.443266588236
 30
0.0
  0
VERTEX
  5
11C
330
FE
100
AcDbEntity
  8
Calque 1
 62
   193
420
 10040268
370
    50
100
AcDbVertex
100
AcDb2dVertex
 10
551.0165817578622
 20
2223.437065416363
 30
0.0
  0
VERTEX
  5
11D
330
FE
100
AcDbEntity
  8
Calque 1
 62
   193
420
 10040268
370
    50
100
AcDbVertex
100
AcDb2dVertex
 10
551.0184765603791
 20
2223.430002970618
 30
0.0
  0
VERTEX
  5
11E
330
FE
100
AcDbEntity
  8
Calque 1
 62
   193
420
 10040268
370
    50
100
AcDbVertex
100
AcDb2dVertex
 10
551.0201129807346
 20
2223.422079251002
 30
0.0
  0
VERTEX
  5
11F
330
FE
100
AcDbEntity
  8
Calque 1
 62
   193
420
 10040268
370
    50
100
AcDbVertex
100
AcDb2dVertex
 10
551.0214048915416
 20
2223.413466512289
 30
0.0
  0
VERTEX
  5
120
330
FE
100
AcDbEntity
  8
Calque 1
 62
   193
420
 10040268
370
    50
100
AcDbVertex
100
AcDb2dVertex
 10
551.0222661654128
 20
2223.404164754479
 30
0.0
  0
VERTEX
  5
121
330
FE
100
AcDbEntity
  8
Calque 1
 62
   193
420
 10040268
370
    50
100
AcDbVertex
100
AcDb2dVertex
 10
551.0225676112678
 20
2223.394690741894
 30
0.0
  0
SEQEND
  5
122
330
FE
100
AcDbEntity
  8
Calque 1
 62
   193
420
 10040268
370
    50
  0
POLYLINE
  5
123
330
1F
100
AcDbEntity
  8
Calque 1
 62
   193
420
 10040268
370
    50
100
AcDb2dPolyline
 66
     1
 10
0.0
 20
0.0
 30
0.0
  0
VERTEX
  5
124
330
123
100
AcDbEntity
  8
Calque 1
 62
   193
420
 10040268
370
    50
100
AcDbVertex
100
AcDb2dVertex
 10
551.0225676112678
 20
2163.63968180501
 30
0.0
  0
VERTEX
  5
125
330
123
100
AcDbEntity
  8
Calque 1
 62
   193
420
 10040268
370
    50
100
AcDbVertex
100
AcDb2dVertex
 10
540.4225686311704
 20
2163.63968180501
 30
0.0
  0
SEQEND
  5
126
330
123
100
AcDbEntity
  8
Calque 1
 62
   193
420
 10040268
370
    50
  0
POLYLINE
  5
127
330
1F
100
AcDbEntity
  8
Calque 1
 62
   193
420
 10040268
370
    50
100
AcDb2dPolyline
 66
     1
 10
0.0
 20
0.0
 30
0.0
  0
VERTEX
  5
128
330
127
100
AcDbEntity
  8
Calque 1
 62
   193
420
 10040268
370
    50
100
AcDbVertex
100
AcDb2dVertex
 10
551.2225554041866
 20
2163.933031685579
 30
0.0
  0
VERTEX
  5
129
330
127
100
AcDbEntity
  8
Calque 1
 62
   193
420
 10040268
370
    50
100
AcDbVertex
100
AcDb2dVertex
 10
551.1892241053667
 20
2163.933031685579
 30
0.0
  0
SEQEND
  5
12A
330
127
100
AcDbEntity
  8
Calque 1
 62
   193
420
 10040268
370
    50
  0
POLYLINE
  5
12B
330
1F
100
AcDbEntity
  8
Calque 1
 62
   193
420
 10040268
370
    50
100
AcDb2dPolyline
 66
     1
 10
0.0
 20
0.0
 30
0.0
  0
VERTEX
  5
12C
330
12B
100
AcDbEntity
  8
Calque 1
 62
   193
420
 10040268
370
    50
100
AcDbVertex
100
AcDb2dVertex
 10
540.2559121370715
 20
2163.933031685579
 30
0.0
  0
VERTEX
  5
12D
330
12B
100
AcDbEntity
  8
Calque 1
 62
   193
420
 10040268
370
    50
100
AcDbVertex
100
AcDb2dVertex
 10
540.2225808382517
 20
2163.933031685579
 30
0.0
  0
SEQEND
  5
12E
330
12B
100
AcDbEntity
  8
Calque 1
 62
   193
420
 10040268
370
    50
  0
POLYLINE
  5
12F
330
1F
100
AcDbEntity
  8
Calque 1
 62
   193
420
 10040268
370
    50
100
AcDb2dPolyline
 66
     1
 10
0.0
 20
0.0
 30
0.0
  0
VERTEX
  5
130
330
12F
100
AcDbEntity
  8
Calque 1
 62
   193
420
 10040268
370
    50
100
AcDbVertex
100
AcDb2dVertex
 10
540.2225808382517
 20
2164.515597332135
 30
0.0
  0
VERTEX
  5
131
330
12F
100
AcDbEntity
  8
Calque 1
 62
   193
420
 10040268
370
    50
100
AcDbVertex
100
AcDb2dVertex
 10
540.2559121370715
 20
2164.515597332135
 30
0.0
  0
SEQEND
  5
132
330
12F
100
AcDbEntity
  8
Calque 1
 62
   193
420
 10040268
370
    50
  0
POLYLINE
  5
133
330
1F
100
AcDbEntity
  8
Calque 1
 62
   193
420
 10040268
370
    50
100
AcDb2dPolyline
 66
     1
 10
0.0
 20
0.0
 30
0.0
  0
VERTEX
  5
134
330
133
100
AcDbEntity
  8
Calque 1
 62
   193
420
 10040268
370
    50
100
AcDbVertex
100
AcDb2dVertex
 10
551.1892241053667
 20
2164.515597332135
 30
0.0
  0
VERTEX
  5
135
330
133
100
AcDbEntity
  8
Calque 1
 62
   193
420
 10040268
370
    50
100
AcDbVertex
100
AcDb2dVertex
 10
551.2225554041866
 20
2164.515597332135
 30
0.0
  0
SEQEND
  5
136
330
133
100
AcDbEntity
  8
Calque 1
 62
   193
420
 10040268
370
    50
  0
POLYLINE
  5
137
330
1F
100
AcDbEntity
  8
Calque 1
 62
   193
420
 10040268
370
    50
100
AcDb2dPolyline
 66
     1
 10
0.0
 20
0.0
 30
0.0
  0
VERTEX
  5
138
330
137
100
AcDbEntity
  8
Calque 1
 62
   193
420
 10040268
370
    50
100
AcDbVertex
100
AcDb2dVertex
 10
551.2225554041866
 20
2165.445773113152
 30
0.0
  0
VERTEX
  5
139
330
137
100
AcDbEntity
  8
Calque 1
 62
   193
420
 10040268
370
    50
100
AcDbVertex
100
AcDb2dVertex
 10
551.1892241053667
 20
2165.445773113152
 30
0.0
  0
SEQEND
  5
13A
330
137
100
AcDbEntity
  8
Calque 1
 62
   193
420
 10040268
370
    50
  0
POLYLINE
  5
13B
330
1F
100
AcDbEntity
  8
Calque 1
 62
   193
420
 10040268
370
    50
100
AcDb2dPolyline
 66
     1
 10
0.0
 20
0.0
 30
0.0
  0
VERTEX
  5
13C
330
13B
100
AcDbEntity
  8
Calque 1
 62
   193
420
 10040268
370
    50
100
AcDbVertex
100
AcDb2dVertex
 10
540.2559121370715
 20
2165.445773113152
 30
0.0
  0
VERTEX
  5
13D
330
13B
100
AcDbEntity
  8
Calque 1
 62
   193
420
 10040268
370
    50
100
AcDbVertex
100
AcDb2dVertex
 10
540.2225808382517
 20
2165.445773113152
 30
0.0
  0
SEQEND
  5
13E
330
13B
100
AcDbEntity
  8
Calque 1
 62
   193
420
 10040268
370
    50
  0
POLYLINE
  5
13F
330
1F
100
AcDbEntity
  8
Calque 1
 62
   193
420
 10040268
370
    50
100
AcDb2dPolyline
 66
     1
 10
0.0
 20
0.0
 30
0.0
  0
VERTEX
  5
140
330
13F
100
AcDbEntity
  8
Calque 1
 62
   193
420
 10040268
370
    50
100
AcDbVertex
100
AcDb2dVertex
 10
540.5130885150454
 20
2165.639731988972
 30
0.0
  0
VERTEX
  5
141
330
13F
100
AcDbEntity
  8
Calque 1
 62
   193
420
 10040268
370
    50
100
AcDbVertex
100
AcDb2dVertex
 10
550.9320907910865
 20
2165.639731988972
 30
0.0
  0
SEQEND
  5
142
330
13F
100
AcDbEntity
  8
Calque 1
 62
   193
420
 10040268
370
    50
  0
POLYLINE
  5
143
330
1F
100
AcDbEntity
  8
Calque 1
 62
   193
420
 10040268
370
    50
100
AcDb2dPolyline
 66
     1
 10
0.0
 20
0.0
 30
0.0
  0
VERTEX
  5
144
330
143
100
AcDbEntity
  8
Calque 1
 62
   193
420
 10040268
370
    50
100
AcDbVertex
100
AcDb2dVertex
 10
551.2225554041866
 20
2165.772368165154
 30
0.0
  0
VERTEX
  5
145
330
143
100
AcDbEntity
  8
Calque 1
 62
   193
420
 10040268
370
    50
100
AcDbVertex
100
AcDb2dVertex
 10
551.1892241053667
 20
2165.772368165154
 30
0.0
  0
SEQEND
  5
146
330
143
100
AcDbEntity
  8
Calque 1
 62
   193
420
 10040268
370
    50
  0
POLYLINE
  5
147
330
1F
100
AcDbEntity
  8
Calque 1
 62
   193
420
 10040268
370
    50
100
AcDb2dPolyline
 66
     1
 10
0.0
 20
0.0
 30
0.0
  0
VERTEX
  5
148
330
147
100
AcDbEntity
  8
Calque 1
 62
   193
420
 10040268
370
    50
100
AcDbVertex
100
AcDb2dVertex
 10
540.2559121370715
 20
2165.772368165154
 30
0.0
  0
VERTEX
  5
149
330
147
100
AcDbEntity
  8
Calque 1
 62
   193
420
 10040268
370
    50
100
AcDbVertex
100
AcDb2dVertex
 10
540.2225808382517
 20
2165.772368165154
 30
0.0
  0
SEQEND
  5
14A
330
147
100
AcDbEntity
  8
Calque 1
 62
   193
420
 10040268
370
    50
  0
POLYLINE
  5
14B
330
1F
100
AcDbEntity
  8
Calque 1
 62
   193
420
 10040268
370
    50
100
AcDb2dPolyline
 66
     1
 10
0.0
 20
0.0
 30
0.0
  0
VERTEX
  5
14C
330
14B
100
AcDbEntity
  8
Calque 1
 62
   193
420
 10040268
370
    50
100
AcDbVertex
100
AcDb2dVertex
 10
540.2225808382517
 20
2167.639782172934
 30
0.0
  0
VERTEX
  5
14D
330
14B
100
AcDbEntity
  8
Calque 1
 62
   193
420
 10040268
370
    50
100
AcDbVertex
100
AcDb2dVertex
 10
551.2225554041866
 20
2167.639782172934
 30
0.0
  0
SEQEND
  5
14E
330
14B
100
AcDbEntity
  8
Calque 1
 62
   193
420
 10040268
370
    50
  0
POLYLINE
  5
14F
330
1F
100
AcDbEntity
  8
Calque 1
 62
   193
420
 10040268
370
    50
100
AcDb2dPolyline
 66
     1
 10
0.0
 20
0.0
 30
0.0
  0
VERTEX
  5
150
330
14F
100
AcDbEntity
  8
Calque 1
 62
   193
420
 10040268
370
    50
100
AcDbVertex
100
AcDb2dVertex
 10
540.2225808382517
 20
2169.507023925939
 30
0.0
  0
VERTEX
  5
151
330
14F
100
AcDbEntity
  8
Calque 1
 62
   193
420
 10040268
370
    50
100
AcDbVertex
100
AcDb2dVertex
 10
540.2559121370715
 20
2169.507023925939
 30
0.0
  0
SEQEND
  5
152
330
14F
100
AcDbEntity
  8
Calque 1
 62
   193
420
 10040268
370
    50
  0
POLYLINE
  5
153
330
1F
100
AcDbEntity
  8
Calque 1
 62
   193
420
 10040268
370
    50
100
AcDb2dPolyline
 66
     1
 10
0.0
 20
0.0
 30
0.0
  0
VERTEX
  5
154
330
153
100
AcDbEntity
  8
Calque 1
 62
   193
420
 10040268
370
    50
100
AcDbVertex
100
AcDb2dVertex
 10
551.1892241053667
 20
2169.507023925939
 30
0.0
  0
VERTEX
  5
155
330
153
100
AcDbEntity
  8
Calque 1
 62
   193
420
 10040268
370
    50
100
AcDbVertex
100
AcDb2dVertex
 10
551.2225554041866
 20
2169.507023925939
 30
0.0
  0
SEQEND
  5
156
330
153
100
AcDbEntity
  8
Calque 1
 62
   193
420
 10040268
370
    50
  0
POLYLINE
  5
157
330
1F
100
AcDbEntity
  8
Calque 1
 62
   193
420
 10040268
370
    50
100
AcDb2dPolyline
 66
     1
 10
0.0
 20
0.0
 30
0.0
  0
VERTEX
  5
158
330
157
100
AcDbEntity
  8
Calque 1
 62
   193
420
 10040268
370
    50
100
AcDbVertex
100
AcDb2dVertex
 10
540.5130454513518
 20
2169.639660102122
 30
0.0
  0
VERTEX
  5
159
330
157
100
AcDbEntity
  8
Calque 1
 62
   193
420
 10040268
370
    50
100
AcDbVertex
100
AcDb2dVertex
 10
550.9320477273928
 20
2169.639660102122
 30
0.0
  0
SEQEND
  5
15A
330
157
100
AcDbEntity
  8
Calque 1
 62
   193
420
 10040268
370
    50
  0
POLYLINE
  5
15B
330
1F
100
AcDbEntity
  8
Calque 1
 62
   193
420
 10040268
370
    50
100
AcDb2dPolyline
 66
     1
 10
0.0
 20
0.0
 30
0.0
  0
VERTEX
  5
15C
330
15B
100
AcDbEntity
  8
Calque 1
 62
   193
420
 10040268
370
    50
100
AcDbVertex
100
AcDb2dVertex
 10
540.2225808382517
 20
2169.833618977941
 30
0.0
  0
VERTEX
  5
15D
330
15B
100
AcDbEntity
  8
Calque 1
 62
   193
420
 10040268
370
    50
100
AcDbVertex
100
AcDb2dVertex
 10
540.2559121370715
 20
2169.833618977941
 30
0.0
  0
SEQEND
  5
15E
330
15B
100
AcDbEntity
  8
Calque 1
 62
   193
420
 10040268
370
    50
  0
POLYLINE
  5
15F
330
1F
100
AcDbEntity
  8
Calque 1
 62
   193
420
 10040268
370
    50
100
AcDb2dPolyline
 66
     1
 10
0.0
 20
0.0
 30
0.0
  0
VERTEX
  5
160
330
15F
100
AcDbEntity
  8
Calque 1
 62
   193
420
 10040268
370
    50
100
AcDbVertex
100
AcDb2dVertex
 10
551.1892241053667
 20
2169.833618977941
 30
0.0
  0
VERTEX
  5
161
330
15F
100
AcDbEntity
  8
Calque 1
 62
   193
420
 10040268
370
    50
100
AcDbVertex
100
AcDb2dVertex
 10
551.2225554041866
 20
2169.833618977941
 30
0.0
  0
SEQEND
  5
162
330
15F
100
AcDbEntity
  8
Calque 1
 62
   193
420
 10040268
370
    50
  0
POLYLINE
  5
163
330
1F
100
AcDbEntity
  8
Calque 1
 62
   193
420
 10040268
370
    50
100
AcDb2dPolyline
 66
     1
 10
0.0
 20
0.0
 30
0.0
  0
VERTEX
  5
164
330
163
100
AcDbEntity
  8
Calque 1
 62
   193
420
 10040268
370
    50
100
AcDbVertex
100
AcDb2dVertex
 10
549.906442801434
 20
2176.452853188526
 30
0.0
  0
VERTEX
  5
165
330
163
100
AcDbEntity
  8
Calque 1
 62
   193
420
 10040268
370
    50
100
AcDbVertex
100
AcDb2dVertex
 10
541.2925413685831
 20
2176.452853188526
 30
0.0
  0
SEQEND
  5
166
330
163
100
AcDbEntity
  8
Calque 1
 62
   193
420
 10040268
370
    50
  0
POLYLINE
  5
167
330
1F
100
AcDbEntity
  8
Calque 1
 62
   193
420
 10040268
370
    50
100
AcDb2dPolyline
 66
     1
 10
0.0
 20
0.0
 30
0.0
  0
VERTEX
  5
168
330
167
100
AcDbEntity
  8
Calque 1
 62
   193
420
 10040268
370
    50
100
AcDbVertex
100
AcDb2dVertex
 10
550.9317032178443
 20
2165.639731988972
 30
0.0
  0
VERTEX
  5
169
330
167
100
AcDbEntity
  8
Calque 1
 62
   193
420
 10040268
370
    50
100
AcDbVertex
100
AcDb2dVertex
 10
550.9264925109229
 20
2165.639731988972
 30
0.0
  0
VERTEX
  5
16A
330
167
100
AcDbEntity
  8
Calque 1
 62
   193
420
 10040268
370
    50
100
AcDbVertex
100
AcDb2dVertex
 10
550.9224445237278
 20
2165.639904243747
 30
0.0
  0
VERTEX
  5
16B
330
167
100
AcDbEntity
  8
Calque 1
 62
   193
420
 10040268
370
    50
100
AcDbVertex
100
AcDb2dVertex
 10
550.9195161925653
 20
2165.640076498521
 30
0.0
  0
VERTEX
  5
16C
330
167
100
AcDbEntity
  8
Calque 1
 62
   193
420
 10040268
370
    50
100
AcDbVertex
100
AcDb2dVertex
 10
550.9176213900485
 20
2165.640248753295
 30
0.0
  0
VERTEX
  5
16D
330
167
100
AcDbEntity
  8
Calque 1
 62
   193
420
 10040268
370
    50
100
AcDbVertex
100
AcDb2dVertex
 10
550.9167170524835
 20
2165.640248753295
 30
0.0
  0
VERTEX
  5
16E
330
167
100
AcDbEntity
  8
Calque 1
 62
   193
420
 10040268
370
    50
100
AcDbVertex
100
AcDb2dVertex
 10
550.917664453742
 20
2165.640076498521
 30
0.0
  0
VERTEX
  5
16F
330
167
100
AcDbEntity
  8
Calque 1
 62
   193
420
 10040268
370
    50
100
AcDbVertex
100
AcDb2dVertex
 10
550.9194300651782
 20
2165.639731988972
 30
0.0
  0
VERTEX
  5
170
330
167
100
AcDbEntity
  8
Calque 1
 62
   193
420
 10040268
370
    50
100
AcDbVertex
100
AcDb2dVertex
 10
550.9221861415664
 20
2165.639042969875
 30
0.0
  0
VERTEX
  5
171
330
167
100
AcDbEntity
  8
Calque 1
 62
   193
420
 10040268
370
    50
100
AcDbVertex
100
AcDb2dVertex
 10
550.9257604281323
 20
2165.638009441229
 30
0.0
  0
VERTEX
  5
172
330
167
100
AcDbEntity
  8
Calque 1
 62
   193
420
 10040268
370
    50
100
AcDbVertex
100
AcDb2dVertex
 10
550.9302821159567
 20
2165.636286893487
 30
0.0
  0
VERTEX
  5
173
330
167
100
AcDbEntity
  8
Calque 1
 62
   193
420
 10040268
370
    50
100
AcDbVertex
100
AcDb2dVertex
 10
550.9359665235073
 20
2165.633875326647
 30
0.0
  0
VERTEX
  5
174
330
167
100
AcDbEntity
  8
Calque 1
 62
   193
420
 10040268
370
    50
100
AcDbVertex
100
AcDb2dVertex
 10
550.9430289692522
 20
2165.630430231162
 30
0.0
  0
VERTEX
  5
175
330
167
100
AcDbEntity
  8
Calque 1
 62
   193
420
 10040268
370
    50
100
AcDbVertex
100
AcDb2dVertex
 10
550.9509526888681
 20
2165.625779352257
 30
0.0
  0
VERTEX
  5
176
330
167
100
AcDbEntity
  8
Calque 1
 62
   193
420
 10040268
370
    50
100
AcDbVertex
100
AcDb2dVertex
 10
550.9591347906456
 20
2165.620267199481
 30
0.0
  0
VERTEX
  5
177
330
167
100
AcDbEntity
  8
Calque 1
 62
   193
420
 10040268
370
    50
100
AcDbVertex
100
AcDb2dVertex
 10
550.9673168924231
 20
2165.613893772833
 30
0.0
  0
VERTEX
  5
178
330
167
100
AcDbEntity
  8
Calque 1
 62
   193
420
 10040268
370
    50
100
AcDbVertex
100
AcDb2dVertex
 10
550.9754128668135
 20
2165.606659072314
 30
0.0
  0
VERTEX
  5
179
330
167
100
AcDbEntity
  8
Calque 1
 62
   193
420
 10040268
370
    50
100
AcDbVertex
100
AcDb2dVertex
 10
550.9831212679617
 20
2165.598563097923
 30
0.0
  0
VERTEX
  5
17A
330
167
100
AcDbEntity
  8
Calque 1
 62
   193
420
 10040268
370
    50
100
AcDbVertex
100
AcDb2dVertex
 10
550.9903129047872
 20
2165.589778104436
 30
0.0
  0
VERTEX
  5
17B
330
167
100
AcDbEntity
  8
Calque 1
 62
   193
420
 10040268
370
    50
100
AcDbVertex
100
AcDb2dVertex
 10
550.9969447135962
 20
2165.580476346626
 30
0.0
  0
VERTEX
  5
17C
330
167
100
AcDbEntity
  8
Calque 1
 62
   193
420
 10040268
370
    50
100
AcDbVertex
100
AcDb2dVertex
 10
551.0027583122277
 20
2165.571002334041
 30
0.0
  0
VERTEX
  5
17D
330
167
100
AcDbEntity
  8
Calque 1
 62
   193
420
 10040268
370
    50
100
AcDbVertex
100
AcDb2dVertex
 10
551.0077967643748
 20
2165.561183811908
 30
0.0
  0
VERTEX
  5
17E
330
167
100
AcDbEntity
  8
Calque 1
 62
   193
420
 10040268
370
    50
100
AcDbVertex
100
AcDb2dVertex
 10
551.0120170063442
 20
2165.55153754455
 30
0.0
  0
VERTEX
  5
17F
330
167
100
AcDbEntity
  8
Calque 1
 62
   193
420
 10040268
370
    50
100
AcDbVertex
100
AcDb2dVertex
 10
551.0154621018295
 20
2165.541891277191
 30
0.0
  0
VERTEX
  5
180
330
167
100
AcDbEntity
  8
Calque 1
 62
   193
420
 10040268
370
    50
100
AcDbVertex
100
AcDb2dVertex
 10
551.0182181782177
 20
2165.532072755058
 30
0.0
  0
VERTEX
  5
181
330
167
100
AcDbEntity
  8
Calque 1
 62
   193
420
 10040268
370
    50
100
AcDbVertex
100
AcDb2dVertex
 10
551.0202421718153
 20
2165.522598742474
 30
0.0
  0
VERTEX
  5
182
330
167
100
AcDbEntity
  8
Calque 1
 62
   193
420
 10040268
370
    50
100
AcDbVertex
100
AcDb2dVertex
 10
551.0215771463158
 20
2165.513641494212
 30
0.0
  0
VERTEX
  5
183
330
167
100
AcDbEntity
  8
Calque 1
 62
   193
420
 10040268
370
    50
100
AcDbVertex
100
AcDb2dVertex
 10
551.0223092291064
 20
2165.505201010273
 30
0.0
  0
VERTEX
  5
184
330
167
100
AcDbEntity
  8
Calque 1
 62
   193
420
 10040268
370
    50
100
AcDbVertex
100
AcDb2dVertex
 10
551.0225676112678
 20
2165.497277290657
 30
0.0
  0
SEQEND
  5
185
330
167
100
AcDbEntity
  8
Calque 1
 62
   193
420
 10040268
370
    50
  0
POLYLINE
  5
186
330
1F
100
AcDbEntity
  8
Calque 1
 62
   193
420
 10040268
370
    50
100
AcDb2dPolyline
 66
     1
 10
0.0
 20
0.0
 30
0.0
  0
VERTEX
  5
187
330
186
100
AcDbEntity
  8
Calque 1
 62
   193
420
 10040268
370
    50
100
AcDbVertex
100
AcDb2dVertex
 10
540.5133038335132
 20
2169.639660102122
 30
0.0
  0
VERTEX
  5
188
330
186
100
AcDbEntity
  8
Calque 1
 62
   193
420
 10040268
370
    50
100
AcDbVertex
100
AcDb2dVertex
 10
540.5184714767411
 20
2169.639660102122
 30
0.0
  0
VERTEX
  5
189
330
186
100
AcDbEntity
  8
Calque 1
 62
   193
420
 10040268
370
    50
100
AcDbVertex
100
AcDb2dVertex
 10
540.5224764002427
 20
2169.639487847347
 30
0.0
  0
VERTEX
  5
18A
330
186
100
AcDbEntity
  8
Calque 1
 62
   193
420
 10040268
370
    50
100
AcDbVertex
100
AcDb2dVertex
 10
540.5254908587923
 20
2169.639315592573
 30
0.0
  0
VERTEX
  5
18B
330
186
100
AcDbEntity
  8
Calque 1
 62
   193
420
 10040268
370
    50
100
AcDbVertex
100
AcDb2dVertex
 10
540.5274717886963
 20
2169.639143337798
 30
0.0
  0
VERTEX
  5
18C
330
186
100
AcDbEntity
  8
Calque 1
 62
   193
420
 10040268
370
    50
100
AcDbVertex
100
AcDb2dVertex
 10
540.5284622536483
 20
2169.639143337798
 30
0.0
  0
VERTEX
  5
18D
330
186
100
AcDbEntity
  8
Calque 1
 62
   193
420
 10040268
370
    50
100
AcDbVertex
100
AcDb2dVertex
 10
540.5275579160834
 20
2169.639315592573
 30
0.0
  0
VERTEX
  5
18E
330
186
100
AcDbEntity
  8
Calque 1
 62
   193
420
 10040268
370
    50
100
AcDbVertex
100
AcDb2dVertex
 10
540.5257061772601
 20
2169.639660102122
 30
0.0
  0
VERTEX
  5
18F
330
186
100
AcDbEntity
  8
Calque 1
 62
   193
420
 10040268
370
    50
100
AcDbVertex
100
AcDb2dVertex
 10
540.5229501008719
 20
2169.640349121219
 30
0.0
  0
VERTEX
  5
190
330
186
100
AcDbEntity
  8
Calque 1
 62
   193
420
 10040268
370
    50
100
AcDbVertex
100
AcDb2dVertex
 10
540.5193758143059
 20
2169.641554904638
 30
0.0
  0
VERTEX
  5
191
330
186
100
AcDbEntity
  8
Calque 1
 62
   193
420
 10040268
370
    50
100
AcDbVertex
100
AcDb2dVertex
 10
540.5148971901751
 20
2169.643105197606
 30
0.0
  0
VERTEX
  5
192
330
186
100
AcDbEntity
  8
Calque 1
 62
   193
420
 10040268
370
    50
100
AcDbVertex
100
AcDb2dVertex
 10
540.5093850373987
 20
2169.645516764446
 30
0.0
  0
VERTEX
  5
193
330
186
100
AcDbEntity
  8
Calque 1
 62
   193
420
 10040268
370
    50
100
AcDbVertex
100
AcDb2dVertex
 10
540.5026671012025
 20
2169.648789605157
 30
0.0
  0
VERTEX
  5
194
330
186
100
AcDbEntity
  8
Calque 1
 62
   193
420
 10040268
370
    50
100
AcDbVertex
100
AcDb2dVertex
 10
540.4951309548285
 20
2169.653095974514
 30
0.0
  0
VERTEX
  5
195
330
186
100
AcDbEntity
  8
Calque 1
 62
   193
420
 10040268
370
    50
100
AcDbVertex
100
AcDb2dVertex
 10
540.4873364262932
 20
2169.658263617742
 30
0.0
  0
VERTEX
  5
196
330
186
100
AcDbEntity
  8
Calque 1
 62
   193
420
 10040268
370
    50
100
AcDbVertex
100
AcDb2dVertex
 10
540.4793696429834
 20
2169.664292534841
 30
0.0
  0
VERTEX
  5
197
330
186
100
AcDbEntity
  8
Calque 1
 62
   193
420
 10040268
370
    50
100
AcDbVertex
100
AcDb2dVertex
 10
540.4713597959802
 20
2169.671182725811
 30
0.0
  0
VERTEX
  5
198
330
186
100
AcDbEntity
  8
Calque 1
 62
   193
420
 10040268
370
    50
100
AcDbVertex
100
AcDb2dVertex
 10
540.4636944585255
 20
2169.678934190653
 30
0.0
  0
VERTEX
  5
199
330
186
100
AcDbEntity
  8
Calque 1
 62
   193
420
 10040268
370
    50
100
AcDbVertex
100
AcDb2dVertex
 10
540.4563736306194
 20
2169.687546929366
 30
0.0
  0
VERTEX
  5
19A
330
186
100
AcDbEntity
  8
Calque 1
 62
   193
420
 10040268
370
    50
100
AcDbVertex
100
AcDb2dVertex
 10
540.4496126307297
 20
2169.696848687176
 30
0.0
  0
VERTEX
  5
19B
330
186
100
AcDbEntity
  8
Calque 1
 62
   193
420
 10040268
370
    50
100
AcDbVertex
100
AcDb2dVertex
 10
540.4434975862433
 20
2169.706494954535
 30
0.0
  0
VERTEX
  5
19C
330
186
100
AcDbEntity
  8
Calque 1
 62
   193
420
 10040268
370
    50
100
AcDbVertex
100
AcDb2dVertex
 10
540.4382007519348
 20
2169.716313476668
 30
0.0
  0
VERTEX
  5
19D
330
186
100
AcDbEntity
  8
Calque 1
 62
   193
420
 10040268
370
    50
100
AcDbVertex
100
AcDb2dVertex
 10
540.4336790641104
 20
2169.72647650835
 30
0.0
  0
VERTEX
  5
19E
330
186
100
AcDbEntity
  8
Calque 1
 62
   193
420
 10040268
370
    50
100
AcDbVertex
100
AcDb2dVertex
 10
540.4299755864637
 20
2169.736639540031
 30
0.0
  0
VERTEX
  5
19F
330
186
100
AcDbEntity
  8
Calque 1
 62
   193
420
 10040268
370
    50
100
AcDbVertex
100
AcDb2dVertex
 10
540.4270903189948
 20
2169.746630316939
 30
0.0
  0
VERTEX
  5
1A0
330
186
100
AcDbEntity
  8
Calque 1
 62
   193
420
 10040268
370
    50
100
AcDbVertex
100
AcDb2dVertex
 10
540.4249371343166
 20
2169.756448839071
 30
0.0
  0
VERTEX
  5
1A1
330
186
100
AcDbEntity
  8
Calque 1
 62
   193
420
 10040268
370
    50
100
AcDbVertex
100
AcDb2dVertex
 10
540.4235590961224
 20
2169.765750596881
 30
0.0
  0
VERTEX
  5
1A2
330
186
100
AcDbEntity
  8
Calque 1
 62
   193
420
 10040268
370
    50
100
AcDbVertex
100
AcDb2dVertex
 10
540.4227839496383
 20
2169.77419108082
 30
0.0
  0
VERTEX
  5
1A3
330
186
100
AcDbEntity
  8
Calque 1
 62
   193
420
 10040268
370
    50
100
AcDbVertex
100
AcDb2dVertex
 10
540.4225686311704
 20
2169.781942545662
 30
0.0
  0
SEQEND
  5
1A4
330
186
100
AcDbEntity
  8
Calque 1
 62
   193
420
 10040268
370
    50
  0
POLYLINE
  5
1A5
330
1F
100
AcDbEntity
  8
Calque 1
 62
   193
420
 10040268
370
    50
100
AcDb2dPolyline
 66
     1
 10
0.0
 20
0.0
 30
0.0
  0
VERTEX
  5
1A6
330
1A5
100
AcDbEntity
  8
Calque 1
 62
   193
420
 10040268
370
    50
100
AcDbVertex
100
AcDb2dVertex
 10
540.513217706126
 20
2223.639637030896
 30
0.0
  0
VERTEX
  5
1A7
330
1A5
100
AcDbEntity
  8
Calque 1
 62
   193
420
 10040268
370
    50
100
AcDbVertex
100
AcDb2dVertex
 10
540.4887144644872
 20
2223.639464776121
 30
0.0
  0
VERTEX
  5
1A8
330
1A5
100
AcDbEntity
  8
Calque 1
 62
   193
420
 10040268
370
    50
100
AcDbVertex
100
AcDb2dVertex
 10
540.4634791400578
 20
2223.63860350225
 30
0.0
  0
VERTEX
  5
1A9
330
1A5
100
AcDbEntity
  8
Calque 1
 62
   193
420
 10040268
370
    50
100
AcDbVertex
100
AcDb2dVertex
 10
540.4371241595956
 20
2223.63739771883
 30
0.0
  0
VERTEX
  5
1AA
330
1A5
100
AcDbEntity
  8
Calque 1
 62
   193
420
 10040268
370
    50
100
AcDbVertex
100
AcDb2dVertex
 10
540.4095203320201
 20
2223.635847425862
 30
0.0
  0
SEQEND
  5
1AB
330
1A5
100
AcDbEntity
  8
Calque 1
 62
   193
420
 10040268
370
    50
  0
POLYLINE
  5
1AC
330
1F
100
AcDbEntity
  8
Calque 1
 62
   193
420
 10040268
370
    50
100
AcDb2dPolyline
 66
     1
 10
0.0
 20
0.0
 30
0.0
  0
VERTEX
  5
1AD
330
1AC
100
AcDbEntity
  8
Calque 1
 62
   193
420
 10040268
370
    50
100
AcDbVertex
100
AcDb2dVertex
 10
540.2225808382517
 20
2219.639708917746
 30
0.0
  0
VERTEX
  5
1AE
330
1AC
100
AcDbEntity
  8
Calque 1
 62
   193
420
 10040268
370
    50
100
AcDbVertex
100
AcDb2dVertex
 10
551.2225554041866
 20
2219.639708917746
 30
0.0
  0
SEQEND
  5
1AF
330
1AC
100
AcDbEntity
  8
Calque 1
 62
   193
420
 10040268
370
    50
  0
POLYLINE
  5
1B0
330
1F
100
AcDbEntity
  8
Calque 1
 62
   193
420
 10040268
370
    50
100
AcDb2dPolyline
 66
     1
 10
0.0
 20
0.0
 30
0.0
  0
VERTEX
  5
1B1
330
1B0
100
AcDbEntity
  8
Calque 1
 62
   193
420
 10040268
370
    50
100
AcDbVertex
100
AcDb2dVertex
 10
549.906442801434
 20
2219.78250812561
 30
0.0
  0
VERTEX
  5
1B2
330
1B0
100
AcDbEntity
  8
Calque 1
 62
   193
420
 10040268
370
    50
100
AcDbVertex
100
AcDb2dVertex
 10
541.2925413685831
 20
2219.78250812561
 30
0.0
  0
SEQEND
  5
1B3
330
1B0
100
AcDbEntity
  8
Calque 1
 62
   193
420
 10040268
370
    50
  0
POLYLINE
  5
1B4
330
1F
100
AcDbEntity
  8
Calque 1
 62
    40
420
 15777792
370
    50
100
AcDb2dPolyline
 66
     1
 10
0.0
 20
0.0
 30
0.0
  0
VERTEX
  5
1B5
330
1B4
100
AcDbEntity
  8
Calque 1
 62
    40
420
 15777792
370
    50
100
AcDbVertex
100
AcDb2dVertex
 10
549.906442801434
 20
2220.63964788234
 30
0.0
  0
VERTEX
  5
1B6
330
1B4
100
AcDbEntity
  8
Calque 1
 62
    40
420
 15777792
370
    50
100
AcDbVertex
100
AcDb2dVertex
 10
540.4225686311704
 20
2220.63964788234
 30
0.0
  0
SEQEND
  5
1B7
330
1B4
100
AcDbEntity
  8
Calque 1
 62
    40
420
 15777792
370
    50
  0
POLYLINE
  5
1B8
330
1F
100
AcDbEntity
  8
Calque 1
 62
   193
420
 10040268
370
    50
100
AcDb2dPolyline
 66
     1
 10
0.0
 20
0.0
 30
0.0
  0
VERTEX
  5
1B9
330
1B8
100
AcDbEntity
  8
Calque 1
 62
   193
420
 10040268
370
    50
100
AcDbVertex
100
AcDb2dVertex
 10
540.4225686311704
 20
2220.63964788234
 30
0.0
  0
VERTEX
  5
1BA
330
1B8
100
AcDbEntity
  8
Calque 1
 62
   193
420
 10040268
370
    50
100
AcDbVertex
100
AcDb2dVertex
 10
540.2225808382517
 20
2220.63964788234
 30
0.0
  0
SEQEND
  5
1BB
330
1B8
100
AcDbEntity
  8
Calque 1
 62
   193
420
 10040268
370
    50
  0
POLYLINE
  5
1BC
330
1F
100
AcDbEntity
  8
Calque 1
 62
   193
420
 10040268
370
    50
100
AcDb2dPolyline
 66
     1
 10
0.0
 20
0.0
 30
0.0
  0
VERTEX
  5
1BD
330
1BC
100
AcDbEntity
  8
Calque 1
 62
   193
420
 10040268
370
    50
100
AcDbVertex
100
AcDb2dVertex
 10
549.906442801434
 20
2220.63964788234
 30
0.0
  0
VERTEX
  5
1BE
330
1BC
100
AcDbEntity
  8
Calque 1
 62
   193
420
 10040268
370
    50
100
AcDbVertex
100
AcDb2dVertex
 10
551.2225554041866
 20
2220.63964788234
 30
0.0
  0
SEQEND
  5
1BF
330
1BC
100
AcDbEntity
  8
Calque 1
 62
   193
420
 10040268
370
    50
  0
POLYLINE
  5
1C0
330
1F
100
AcDbEntity
  8
Calque 1
 62
   193
420
 10040268
370
    50
100
AcDb2dPolyline
 66
     1
 10
0.0
 20
0.0
 30
0.0
  0
VERTEX
  5
1C1
330
1C0
100
AcDbEntity
  8
Calque 1
 62
   193
420
 10040268
370
    50
100
AcDbVertex
100
AcDb2dVertex
 10
551.2225554041866
 20
2223.186606974585
 30
0.0
  0
VERTEX
  5
1C2
330
1C0
100
AcDbEntity
  8
Calque 1
 62
   193
420
 10040268
370
    50
100
AcDbVertex
100
AcDb2dVertex
 10
551.1892241053667
 20
2223.186606974585
 30
0.0
  0
SEQEND
  5
1C3
330
1C0
100
AcDbEntity
  8
Calque 1
 62
   193
420
 10040268
370
    50
  0
POLYLINE
  5
1C4
330
1F
100
AcDbEntity
  8
Calque 1
 62
   193
420
 10040268
370
    50
100
AcDb2dPolyline
 66
     1
 10
0.0
 20
0.0
 30
0.0
  0
VERTEX
  5
1C5
330
1C4
100
AcDbEntity
  8
Calque 1
 62
   193
420
 10040268
370
    50
100
AcDbVertex
100
AcDb2dVertex
 10
540.2559121370715
 20
2223.186606974585
 30
0.0
  0
VERTEX
  5
1C6
330
1C4
100
AcDbEntity
  8
Calque 1
 62
   193
420
 10040268
370
    50
100
AcDbVertex
100
AcDb2dVertex
 10
540.2225808382517
 20
2223.186606974585
 30
0.0
  0
SEQEND
  5
1C7
330
1C4
100
AcDbEntity
  8
Calque 1
 62
   193
420
 10040268
370
    50
  0
POLYLINE
  5
1C8
330
1F
100
AcDbEntity
  8
Calque 1
 62
   193
420
 10040268
370
    50
100
AcDb2dPolyline
 66
     1
 10
0.0
 20
0.0
 30
0.0
  0
VERTEX
  5
1C9
330
1C8
100
AcDbEntity
  8
Calque 1
 62
   193
420
 10040268
370
    50
100
AcDbVertex
100
AcDb2dVertex
 10
540.2225808382517
 20
2223.436204142492
 30
0.0
  0
VERTEX
  5
1CA
330
1C8
100
AcDbEntity
  8
Calque 1
 62
   193
420
 10040268
370
    50
100
AcDbVertex
100
AcDb2dVertex
 10
540.2559121370715
 20
2223.436204142492
 30
0.0
  0
SEQEND
  5
1CB
330
1C8
100
AcDbEntity
  8
Calque 1
 62
   193
420
 10040268
370
    50
  0
POLYLINE
  5
1CC
330
1F
100
AcDbEntity
  8
Calque 1
 62
   193
420
 10040268
370
    50
100
AcDb2dPolyline
 66
     1
 10
0.0
 20
0.0
 30
0.0
  0
VERTEX
  5
1CD
330
1CC
100
AcDbEntity
  8
Calque 1
 62
   193
420
 10040268
370
    50
100
AcDbVertex
100
AcDb2dVertex
 10
551.1892241053667
 20
2223.436204142492
 30
0.0
  0
VERTEX
  5
1CE
330
1CC
100
AcDbEntity
  8
Calque 1
 62
   193
420
 10040268
370
    50
100
AcDbVertex
100
AcDb2dVertex
 10
551.2225554041866
 20
2223.436204142492
 30
0.0
  0
SEQEND
  5
1CF
330
1CC
100
AcDbEntity
  8
Calque 1
 62
   193
420
 10040268
370
    50
  0
POLYLINE
  5
1D0
330
1F
100
AcDbEntity
  8
Calque 1
 62
   193
420
 10040268
370
    50
100
AcDb2dPolyline
 66
     1
 10
0.0
 20
0.0
 30
0.0
  0
VERTEX
  5
1D1
330
1D0
100
AcDbEntity
  8
Calque 1
 62
   193
420
 10040268
370
    50
100
AcDbVertex
100
AcDb2dVertex
 10
540.5134330245938
 20
2223.639637030896
 30
0.0
  0
VERTEX
  5
1D2
330
1D0
100
AcDbEntity
  8
Calque 1
 62
   193
420
 10040268
370
    50
100
AcDbVertex
100
AcDb2dVertex
 10
550.9317032178443
 20
2223.639637030896
 30
0.0
  0
SEQEND
  5
1D3
330
1D0
100
AcDbEntity
  8
Calque 1
 62
   193
420
 10040268
370
    50
  0
POLYLINE
  5
1D4
330
1F
100
AcDbEntity
  8
Calque 1
 62
   193
420
 10040268
370
    50
100
AcDb2dPolyline
 66
     1
 10
0.0
 20
0.0
 30
0.0
  0
VERTEX
  5
1D5
330
1D4
100
AcDbEntity
  8
Calque 1
 62
   193
420
 10040268
370
    50
100
AcDbVertex
100
AcDb2dVertex
 10
551.0356159104182
 20
2223.635847425862
 30
0.0
  0
VERTEX
  5
1D6
330
1D4
100
AcDbEntity
  8
Calque 1
 62
   193
420
 10040268
370
    50
100
AcDbVertex
100
AcDb2dVertex
 10
551.0079690191491
 20
2223.63739771883
 30
0.0
  0
VERTEX
  5
1D7
330
1D4
100
AcDbEntity
  8
Calque 1
 62
   193
420
 10040268
370
    50
100
AcDbVertex
100
AcDb2dVertex
 10
550.9816571023805
 20
2223.63860350225
 30
0.0
  0
VERTEX
  5
1D8
330
1D4
100
AcDbEntity
  8
Calque 1
 62
   193
420
 10040268
370
    50
100
AcDbVertex
100
AcDb2dVertex
 10
550.956421777951
 20
2223.639464776121
 30
0.0
  0
VERTEX
  5
1D9
330
1D4
100
AcDbEntity
  8
Calque 1
 62
   193
420
 10040268
370
    50
100
AcDbVertex
100
AcDb2dVertex
 10
550.9319185363122
 20
2223.639637030896
 30
0.0
  0
SEQEND
  5
1DA
330
1D4
100
AcDbEntity
  8
Calque 1
 62
   193
420
 10040268
370
    50
  0
SPLINE
  5
1DB
330
1F
100
AcDbEntity
  8
Calque 1
 62
   193
420
 10040268
370
    50
100
AcDbSpline
210
0.0
220
0.0
230
1.0
 70
     8
 71
     3
 72
     8
 73
     4
 74
     0
 42
0.0000000001
 43
0.0000000001
 12
1.0
 22
0.0
 32
0.0
 13
1.0
 23
0.0
 33
0.0
 40
0.0
 40
0.0
 40
0.0
 40
0.0
 40
1.0
 40
1.0
 40
1.0
 40
1.0
 10
551.2225554041866
 20
2164.515597332135
 30
0.0
 10
551.2225554041866
 20
2164.464093154631
 30
0.0
 10
551.2026599777593
 20
2164.414483779643
 30
0.0
 10
551.1670463031805
 20
2164.377276748402
 30
0.0
  0
SPLINE
  5
1DC
330
1F
100
AcDbEntity
  8
Calque 1
 62
   193
420
 10040268
370
    50
100
AcDbSpline
210
0.0
220
0.0
230
1.0
 70
     8
 71
     3
 72
     8
 73
     4
 74
     0
 42
0.0000000001
 43
0.0000000001
 12
1.0
 22
0.0
 32
0.0
 13
1.0
 23
0.0
 33
0.0
 40
0.0
 40
0.0
 40
0.0
 40
0.0
 40
1.0
 40
1.0
 40
1.0
 40
1.0
 10
551.0225676112678
 20
2163.63968180501
 30
0.0
 10
551.1330259852637
 20
2163.63968180501
 30
0.0
 10
551.2225554041866
 20
2163.729254287627
 30
0.0
 10
551.2225554041866
 20
2163.839669597929
 30
0.0
  0
SPLINE
  5
1DD
330
1F
100
AcDbEntity
  8
Calque 1
 62
   193
420
 10040268
370
    50
100
AcDbSpline
210
0.0
220
0.0
230
1.0
 70
     8
 71
     3
 72
     8
 73
     4
 74
     0
 42
0.0000000001
 43
0.0000000001
 12
1.0
 22
0.0
 32
0.0
 13
1.0
 23
0.0
 33
0.0
 40
0.0
 40
0.0
 40
0.0
 40
0.0
 40
1.0
 40
1.0
 40
1.0
 40
1.0
 10
540.2225808382517
 20
2163.839669597929
 30
0.0
 10
540.2225808382517
 20
2163.729254287627
 30
0.0
 10
540.3121102571746
 20
2163.63968180501
 30
0.0
 10
540.4225686311704
 20
2163.63968180501
 30
0.0
  0
SPLINE
  5
1DE
330
1F
100
AcDbEntity
  8
Calque 1
 62
   193
420
 10040268
370
    50
100
AcDbSpline
210
0.0
220
0.0
230
1.0
 70
     8
 71
     3
 72
     8
 73
     4
 74
     0
 42
0.0000000001
 43
0.0000000001
 12
1.0
 22
0.0
 32
0.0
 13
1.0
 23
0.0
 33
0.0
 40
0.0
 40
0.0
 40
0.0
 40
0.0
 40
1.0
 40
1.0
 40
1.0
 40
1.0
 10
540.2225808382517
 20
2164.515597332135
 30
0.0
 10
540.2225808382517
 20
2164.464093154631
 30
0.0
 10
540.242476264679
 20
2164.414483779643
 30
0.0
 10
540.2780899392577
 20
2164.377276748402
 30
0.0
  0
SPLINE
  5
1DF
330
1F
100
AcDbEntity
  8
Calque 1
 62
   193
420
 10040268
370
    50
100
AcDbSpline
210
0.0
220
0.0
230
1.0
 70
     8
 71
     3
 72
     8
 73
     4
 74
     0
 42
0.0000000001
 43
0.0000000001
 12
1.0
 22
0.0
 32
0.0
 13
1.0
 23
0.0
 33
0.0
 40
0.0
 40
0.0
 40
0.0
 40
0.0
 40
1.0
 40
1.0
 40
1.0
 40
1.0
 10
540.3088804801572
 20
2223.351110284006
 30
0.0
 10
540.2548355447324
 20
2223.313903252765
 30
0.0
 10
540.2225808382517
 20
2223.25223604358
 30
0.0
 10
540.2225808382517
 20
2223.186606974585
 30
0.0
  0
SPLINE
  5
1E0
330
1F
100
AcDbEntity
  8
Calque 1
 62
   193
420
 10040268
370
    50
100
AcDbSpline
210
0.0
220
0.0
230
1.0
 70
     8
 71
     3
 72
     8
 73
     4
 74
     0
 42
0.0000000001
 43
0.0000000001
 12
1.0
 22
0.0
 32
0.0
 13
1.0
 23
0.0
 33
0.0
 40
0.0
 40
0.0
 40
0.0
 40
0.0
 40
1.0
 40
1.0
 40
1.0
 40
1.0
 10
551.2225554041866
 20
2223.186606974585
 30
0.0
 10
551.2225554041866
 20
2223.252408298354
 30
0.0
 10
551.1902576340124
 20
2223.313903252765
 30
0.0
 10
551.1361265712004
 20
2223.35128253878
 30
0.0
  0
SPLINE
  5
1E1
330
1F
100
AcDbEntity
  8
Calque 1
 62
   193
420
 10040268
370
    50
100
AcDbSpline
210
0.0
220
0.0
230
1.0
 70
     8
 71
     3
 72
     8
 73
     4
 74
     0
 42
0.0000000001
 43
0.0000000001
 12
1.0
 22
0.0
 32
0.0
 13
1.0
 23
0.0
 33
0.0
 40
0.0
 40
0.0
 40
0.0
 40
0.0
 40
1.0
 40
1.0
 40
1.0
 40
1.0
 10
540.4225686311704
 20
2223.636019680636
 30
0.0
 10
540.3121533208682
 20
2223.636019680636
 30
0.0
 10
540.2226239019452
 20
2223.546619452794
 30
0.0
 10
540.2225377745581
 20
2223.436204142492
 30
0.0
  0
SPLINE
  5
1E2
330
1F
100
AcDbEntity
  8
Calque 1
 62
   193
420
 10040268
370
    50
100
AcDbSpline
210
0.0
220
0.0
230
1.0
 70
     8
 71
     3
 72
     8
 73
     4
 74
     0
 42
0.0000000001
 43
0.0000000001
 12
1.0
 22
0.0
 32
0.0
 13
1.0
 23
0.0
 33
0.0
 40
0.0
 40
0.0
 40
0.0
 40
0.0
 40
1.0
 40
1.0
 40
1.0
 40
1.0
 10
551.2225554041866
 20
2223.436204142492
 30
0.0
 10
551.222512340493
 20
2223.546619452794
 30
0.0
 10
551.13298292157
 20
2223.636019680636
 30
0.0
 10
551.0225676112678
 20
2223.636019680636
 30
0.0
  0
POLYLINE
  5
1E3
330
1F
100
AcDbEntity
  8
Calque 1
 62
   193
420
 10040268
370
    50
100
AcDb2dPolyline
 66
     1
 10
0.0
 20
0.0
 30
0.0
  0
VERTEX
  5
1E4
330
1E3
100
AcDbEntity
  8
Calque 1
 62
   193
420
 10040268
370
    50
100
AcDbVertex
100
AcDb2dVertex
 10
540.4225686311704
 20
2165.645244141749
 30
0.0
  0
VERTEX
  5
1E5
330
1E3
100
AcDbEntity
  8
Calque 1
 62
   193
420
 10040268
370
    50
100
AcDbVertex
100
AcDb2dVertex
 10
540.4562875032323
 20
2165.642143555812
 30
0.0
  0
VERTEX
  5
1E6
330
1E3
100
AcDbEntity
  8
Calque 1
 62
   193
420
 10040268
370
    50
100
AcDbVertex
100
AcDb2dVertex
 10
540.5112798399156
 20
2165.639731988972
 30
0.0
  0
VERTEX
  5
1E7
330
1E3
100
AcDbEntity
  8
Calque 1
 62
   193
420
 10040268
370
    50
100
AcDbVertex
100
AcDb2dVertex
 10
540.5466781960265
 20
2165.641110027166
 30
0.0
  0
VERTEX
  5
1E8
330
1E3
100
AcDbEntity
  8
Calque 1
 62
   193
420
 10040268
370
    50
100
AcDbVertex
100
AcDb2dVertex
 10
540.5755739344091
 20
2165.645416396523
 30
0.0
  0
VERTEX
  5
1E9
330
1E3
100
AcDbEntity
  8
Calque 1
 62
   193
420
 10040268
370
    50
100
AcDbVertex
100
AcDb2dVertex
 10
540.5897849532857
 20
2165.649722765879
 30
0.0
  0
VERTEX
  5
1EA
330
1E3
100
AcDbEntity
  8
Calque 1
 62
   193
420
 10040268
370
    50
100
AcDbVertex
100
AcDb2dVertex
 10
540.6123933924077
 20
2165.664364421692
 30
0.0
  0
VERTEX
  5
1EB
330
1E3
100
AcDbEntity
  8
Calque 1
 62
   193
420
 10040268
370
    50
100
AcDbVertex
100
AcDb2dVertex
 10
540.6221257871535
 20
2165.689858128283
 30
0.0
  0
VERTEX
  5
1EC
330
1E3
100
AcDbEntity
  8
Calque 1
 62
   193
420
 10040268
370
    50
100
AcDbVertex
100
AcDb2dVertex
 10
540.622384169315
 20
2165.697265083576
 30
0.0
  0
VERTEX
  5
1ED
330
1E3
100
AcDbEntity
  8
Calque 1
 62
   193
420
 10040268
370
    50
100
AcDbVertex
100
AcDb2dVertex
 10
540.6133838573597
 20
2165.729476726363
 30
0.0
  0
VERTEX
  5
1EE
330
1E3
100
AcDbEntity
  8
Calque 1
 62
   193
420
 10040268
370
    50
100
AcDbVertex
100
AcDb2dVertex
 10
540.6059338383728
 20
2165.743429363078
 30
0.0
  0
VERTEX
  5
1EF
330
1E3
100
AcDbEntity
  8
Calque 1
 62
   193
420
 10040268
370
    50
100
AcDbVertex
100
AcDb2dVertex
 10
540.5885791698659
 20
2165.77099012696
 30
0.0
  0
VERTEX
  5
1F0
330
1E3
100
AcDbEntity
  8
Calque 1
 62
   193
420
 10040268
370
    50
100
AcDbVertex
100
AcDb2dVertex
 10
540.5654970301147
 20
2165.801134712456
 30
0.0
  0
VERTEX
  5
1F1
330
1E3
100
AcDbEntity
  8
Calque 1
 62
   193
420
 10040268
370
    50
100
AcDbVertex
100
AcDb2dVertex
 10
540.5416828075729
 20
2165.828523221564
 30
0.0
  0
VERTEX
  5
1F2
330
1E3
100
AcDbEntity
  8
Calque 1
 62
   193
420
 10040268
370
    50
100
AcDbVertex
100
AcDb2dVertex
 10
540.5033991839931
 20
2165.86796956487
 30
0.0
  0
VERTEX
  5
1F3
330
1E3
100
AcDbEntity
  8
Calque 1
 62
   193
420
 10040268
370
    50
100
AcDbVertex
100
AcDb2dVertex
 10
540.4635222037514
 20
2165.905521105659
 30
0.0
  0
VERTEX
  5
1F4
330
1E3
100
AcDbEntity
  8
Calque 1
 62
   193
420
 10040268
370
    50
100
AcDbVertex
100
AcDb2dVertex
 10
540.4225686311704
 20
2165.942211372577
 30
0.0
  0
SEQEND
  5
1F5
330
1E3
100
AcDbEntity
  8
Calque 1
 62
   193
420
 10040268
370
    50
  0
POLYLINE
  5
1F6
330
1F
100
AcDbEntity
  8
Calque 1
 62
   193
420
 10040268
370
    50
100
AcDb2dPolyline
 66
     1
 10
0.0
 20
0.0
 30
0.0
  0
VERTEX
  5
1F7
330
1F6
100
AcDbEntity
  8
Calque 1
 62
   193
420
 10040268
370
    50
100
AcDbVertex
100
AcDb2dVertex
 10
551.0225676112678
 20
2165.942211372577
 30
0.0
  0
VERTEX
  5
1F8
330
1F6
100
AcDbEntity
  8
Calque 1
 62
   193
420
 10040268
370
    50
100
AcDbVertex
100
AcDb2dVertex
 10
550.9827336947196
 20
2165.90638237953
 30
0.0
  0
VERTEX
  5
1F9
330
1F6
100
AcDbEntity
  8
Calque 1
 62
   193
420
 10040268
370
    50
100
AcDbVertex
100
AcDb2dVertex
 10
550.9427275233971
 20
2165.868486329193
 30
0.0
  0
VERTEX
  5
1FA
330
1F6
100
AcDbEntity
  8
Calque 1
 62
   193
420
 10040268
370
    50
100
AcDbVertex
100
AcDb2dVertex
 10
550.9091378424159
 20
2165.83403537434
 30
0.0
  0
VERTEX
  5
1FB
330
1F6
100
AcDbEntity
  8
Calque 1
 62
   193
420
 10040268
370
    50
100
AcDbVertex
100
AcDb2dVertex
 10
550.8801559766463
 20
2165.801479222005
 30
0.0
  0
VERTEX
  5
1FC
330
1F6
100
AcDbEntity
  8
Calque 1
 62
   193
420
 10040268
370
    50
100
AcDbVertex
100
AcDb2dVertex
 10
550.8566431999594
 20
2165.771162381734
 30
0.0
  0
VERTEX
  5
1FD
330
1F6
100
AcDbEntity
  8
Calque 1
 62
   193
420
 10040268
370
    50
100
AcDbVertex
100
AcDb2dVertex
 10
550.8391593403718
 20
2165.743601617853
 30
0.0
  0
VERTEX
  5
1FE
330
1F6
100
AcDbEntity
  8
Calque 1
 62
   193
420
 10040268
370
    50
100
AcDbVertex
100
AcDb2dVertex
 10
550.8343362066925
 20
2165.734299860042
 30
0.0
  0
VERTEX
  5
1FF
330
1F6
100
AcDbEntity
  8
Calque 1
 62
   193
420
 10040268
370
    50
100
AcDbVertex
100
AcDb2dVertex
 10
550.822881264204
 20
2165.697265083576
 30
0.0
  0
VERTEX
  5
200
330
1F6
100
AcDbEntity
  8
Calque 1
 62
   193
420
 10040268
370
    50
100
AcDbVertex
100
AcDb2dVertex
 10
550.8242593023981
 20
2165.679178332278
 30
0.0
  0
VERTEX
  5
201
330
1F6
100
AcDbEntity
  8
Calque 1
 62
   193
420
 10040268
370
    50
100
AcDbVertex
100
AcDb2dVertex
 10
550.832312213095
 20
2165.664536676466
 30
0.0
  0
VERTEX
  5
202
330
1F6
100
AcDbEntity
  8
Calque 1
 62
   193
420
 10040268
370
    50
100
AcDbVertex
100
AcDb2dVertex
 10
550.8563848177981
 20
2165.649378256331
 30
0.0
  0
VERTEX
  5
203
330
1F6
100
AcDbEntity
  8
Calque 1
 62
   193
420
 10040268
370
    50
100
AcDbVertex
100
AcDb2dVertex
 10
550.8695623080291
 20
2165.645416396523
 30
0.0
  0
VERTEX
  5
204
330
1F6
100
AcDbEntity
  8
Calque 1
 62
   193
420
 10040268
370
    50
100
AcDbVertex
100
AcDb2dVertex
 10
550.8785626199843
 20
2165.643521594006
 30
0.0
  0
VERTEX
  5
205
330
1F6
100
AcDbEntity
  8
Calque 1
 62
   193
420
 10040268
370
    50
100
AcDbVertex
100
AcDb2dVertex
 10
550.9333396381999
 20
2165.639731988972
 30
0.0
  0
VERTEX
  5
206
330
1F6
100
AcDbEntity
  8
Calque 1
 62
   193
420
 10040268
370
    50
100
AcDbVertex
100
AcDb2dVertex
 10
550.967618338278
 20
2165.640765517618
 30
0.0
  0
VERTEX
  5
207
330
1F6
100
AcDbEntity
  8
Calque 1
 62
   193
420
 10040268
370
    50
100
AcDbVertex
100
AcDb2dVertex
 10
551.0225676112678
 20
2165.645244141749
 30
0.0
  0
SEQEND
  5
208
330
1F6
100
AcDbEntity
  8
Calque 1
 62
   193
420
 10040268
370
    50
  0
POLYLINE
  5
209
330
1F
100
AcDbEntity
  8
Calque 1
 62
   193
420
 10040268
370
    50
100
AcDb2dPolyline
 66
     1
 10
0.0
 20
0.0
 30
0.0
  0
VERTEX
  5
20A
330
209
100
AcDbEntity
  8
Calque 1
 62
   193
420
 10040268
370
    50
100
AcDbVertex
100
AcDb2dVertex
 10
540.2225808382517
 20
2165.772368165154
 30
0.0
  0
VERTEX
  5
20B
330
209
100
AcDbEntity
  8
Calque 1
 62
   193
420
 10040268
370
    50
100
AcDbVertex
100
AcDb2dVertex
 10
540.2228392204131
 20
2165.781325413416
 30
0.0
  0
VERTEX
  5
20C
330
209
100
AcDbEntity
  8
Calque 1
 62
   193
420
 10040268
370
    50
100
AcDbVertex
100
AcDb2dVertex
 10
540.2276192903988
 20
2165.810091960718
 30
0.0
  0
VERTEX
  5
20D
330
209
100
AcDbEntity
  8
Calque 1
 62
   193
420
 10040268
370
    50
100
AcDbVertex
100
AcDb2dVertex
 10
540.2377823220803
 20
2165.837480469826
 30
0.0
  0
VERTEX
  5
20E
330
209
100
AcDbEntity
  8
Calque 1
 62
   193
420
 10040268
370
    50
100
AcDbVertex
100
AcDb2dVertex
 10
540.2436389844053
 20
2165.848332520604
 30
0.0
  0
VERTEX
  5
20F
330
209
100
AcDbEntity
  8
Calque 1
 62
   193
420
 10040268
370
    50
100
AcDbVertex
100
AcDb2dVertex
 10
540.260519952283
 20
2165.871931424678
 30
0.0
  0
VERTEX
  5
210
330
209
100
AcDbEntity
  8
Calque 1
 62
   193
420
 10040268
370
    50
100
AcDbVertex
100
AcDb2dVertex
 10
540.281147461501
 20
2165.892429742815
 30
0.0
  0
VERTEX
  5
211
330
209
100
AcDbEntity
  8
Calque 1
 62
   193
420
 10040268
370
    50
100
AcDbVertex
100
AcDb2dVertex
 10
540.2944541428127
 20
2165.902765029271
 30
0.0
  0
VERTEX
  5
212
330
209
100
AcDbEntity
  8
Calque 1
 62
   193
420
 10040268
370
    50
100
AcDbVertex
100
AcDb2dVertex
 10
540.3193018940001
 20
2165.917751194632
 30
0.0
  0
VERTEX
  5
213
330
209
100
AcDbEntity
  8
Calque 1
 62
   193
420
 10040268
370
    50
100
AcDbVertex
100
AcDb2dVertex
 10
540.3460444477043
 20
2165.929292264507
 30
0.0
  0
VERTEX
  5
214
330
209
100
AcDbEntity
  8
Calque 1
 62
   193
420
 10040268
370
    50
100
AcDbVertex
100
AcDb2dVertex
 10
540.3651216639539
 20
2165.934976672058
 30
0.0
  0
VERTEX
  5
215
330
209
100
AcDbEntity
  8
Calque 1
 62
   193
420
 10040268
370
    50
100
AcDbVertex
100
AcDb2dVertex
 10
540.3936728927879
 20
2165.940488824835
 30
0.0
  0
VERTEX
  5
216
330
209
100
AcDbEntity
  8
Calque 1
 62
   193
420
 10040268
370
    50
100
AcDbVertex
100
AcDb2dVertex
 10
540.4225686311704
 20
2165.942211372577
 30
0.0
  0
SEQEND
  5
217
330
209
100
AcDbEntity
  8
Calque 1
 62
   193
420
 10040268
370
    50
  0
POLYLINE
  5
218
330
1F
100
AcDbEntity
  8
Calque 1
 62
   193
420
 10040268
370
    50
100
AcDb2dPolyline
 66
     1
 10
0.0
 20
0.0
 30
0.0
  0
VERTEX
  5
219
330
218
100
AcDbEntity
  8
Calque 1
 62
   193
420
 10040268
370
    50
100
AcDbVertex
100
AcDb2dVertex
 10
540.2559121370715
 20
2165.772368165154
 30
0.0
  0
VERTEX
  5
21A
330
218
100
AcDbEntity
  8
Calque 1
 62
   193
420
 10040268
370
    50
100
AcDbVertex
100
AcDb2dVertex
 10
540.258926595621
 20
2165.781669922964
 30
0.0
  0
VERTEX
  5
21B
330
218
100
AcDbEntity
  8
Calque 1
 62
   193
420
 10040268
370
    50
100
AcDbVertex
100
AcDb2dVertex
 10
540.268056098657
 20
2165.804579807942
 30
0.0
  0
VERTEX
  5
21C
330
218
100
AcDbEntity
  8
Calque 1
 62
   193
420
 10040268
370
    50
100
AcDbVertex
100
AcDb2dVertex
 10
540.2793818500647
 20
2165.826628419047
 30
0.0
  0
VERTEX
  5
21D
330
218
100
AcDbEntity
  8
Calque 1
 62
   193
420
 10040268
370
    50
100
AcDbVertex
100
AcDb2dVertex
 10
540.2876070155357
 20
2165.839719781891
 30
0.0
  0
VERTEX
  5
21E
330
218
100
AcDbEntity
  8
Calque 1
 62
   193
420
 10040268
370
    50
100
AcDbVertex
100
AcDb2dVertex
 10
540.3023347987352
 20
2165.859701335705
 30
0.0
  0
VERTEX
  5
21F
330
218
100
AcDbEntity
  8
Calque 1
 62
   193
420
 10040268
370
    50
100
AcDbVertex
100
AcDb2dVertex
 10
540.3188712570644
 20
2165.878132596551
 30
0.0
  0
VERTEX
  5
220
330
218
100
AcDbEntity
  8
Calque 1
 62
   193
420
 10040268
370
    50
100
AcDbVertex
100
AcDb2dVertex
 10
540.3298524989236
 20
2165.888640137781
 30
0.0
  0
VERTEX
  5
221
330
218
100
AcDbEntity
  8
Calque 1
 62
   193
420
 10040268
370
    50
100
AcDbVertex
100
AcDb2dVertex
 10
540.3488866514797
 20
2165.904315322239
 30
0.0
  0
VERTEX
  5
222
330
218
100
AcDbEntity
  8
Calque 1
 62
   193
420
 10040268
370
    50
100
AcDbVertex
100
AcDb2dVertex
 10
540.3693419059233
 20
2165.918267958954
 30
0.0
  0
VERTEX
  5
223
330
218
100
AcDbEntity
  8
Calque 1
 62
   193
420
 10040268
370
    50
100
AcDbVertex
100
AcDb2dVertex
 10
540.3771364344587
 20
2165.922918837859
 30
0.0
  0
VERTEX
  5
224
330
218
100
AcDbEntity
  8
Calque 1
 62
   193
420
 10040268
370
    50
100
AcDbVertex
100
AcDb2dVertex
 10
540.3992711729514
 20
2165.933943143412
 30
0.0
  0
VERTEX
  5
225
330
218
100
AcDbEntity
  8
Calque 1
 62
   193
420
 10040268
370
    50
100
AcDbVertex
100
AcDb2dVertex
 10
540.4225686311704
 20
2165.942211372577
 30
0.0
  0
SEQEND
  5
226
330
218
100
AcDbEntity
  8
Calque 1
 62
   193
420
 10040268
370
    50
  0
POLYLINE
  5
227
330
1F
100
AcDbEntity
  8
Calque 1
 62
   193
420
 10040268
370
    50
100
AcDb2dPolyline
 66
     1
 10
0.0
 20
0.0
 30
0.0
  0
VERTEX
  5
228
330
227
100
AcDbEntity
  8
Calque 1
 62
   193
420
 10040268
370
    50
100
AcDbVertex
100
AcDb2dVertex
 10
540.2225808382517
 20
2169.507023925939
 30
0.0
  0
VERTEX
  5
229
330
227
100
AcDbEntity
  8
Calque 1
 62
   193
420
 10040268
370
    50
100
AcDbVertex
100
AcDb2dVertex
 10
540.2228392204131
 20
2169.498066677678
 30
0.0
  0
VERTEX
  5
22A
330
227
100
AcDbEntity
  8
Calque 1
 62
   193
420
 10040268
370
    50
100
AcDbVertex
100
AcDb2dVertex
 10
540.2276192903988
 20
2169.469300130376
 30
0.0
  0
VERTEX
  5
22B
330
227
100
AcDbEntity
  8
Calque 1
 62
   193
420
 10040268
370
    50
100
AcDbVertex
100
AcDb2dVertex
 10
540.2377823220803
 20
2169.442083876042
 30
0.0
  0
VERTEX
  5
22C
330
227
100
AcDbEntity
  8
Calque 1
 62
   193
420
 10040268
370
    50
100
AcDbVertex
100
AcDb2dVertex
 10
540.2436389844053
 20
2169.43105957049
 30
0.0
  0
VERTEX
  5
22D
330
227
100
AcDbEntity
  8
Calque 1
 62
   193
420
 10040268
370
    50
100
AcDbVertex
100
AcDb2dVertex
 10
540.260519952283
 20
2169.407460666416
 30
0.0
  0
VERTEX
  5
22E
330
227
100
AcDbEntity
  8
Calque 1
 62
   193
420
 10040268
370
    50
100
AcDbVertex
100
AcDb2dVertex
 10
540.281147461501
 20
2169.386962348278
 30
0.0
  0
VERTEX
  5
22F
330
227
100
AcDbEntity
  8
Calque 1
 62
   193
420
 10040268
370
    50
100
AcDbVertex
100
AcDb2dVertex
 10
540.2944541428127
 20
2169.376627061823
 30
0.0
  0
VERTEX
  5
230
330
227
100
AcDbEntity
  8
Calque 1
 62
   193
420
 10040268
370
    50
100
AcDbVertex
100
AcDb2dVertex
 10
540.3193018940001
 20
2169.361640896462
 30
0.0
  0
VERTEX
  5
231
330
227
100
AcDbEntity
  8
Calque 1
 62
   193
420
 10040268
370
    50
100
AcDbVertex
100
AcDb2dVertex
 10
540.3460444477043
 20
2169.350099826586
 30
0.0
  0
VERTEX
  5
232
330
227
100
AcDbEntity
  8
Calque 1
 62
   193
420
 10040268
370
    50
100
AcDbVertex
100
AcDb2dVertex
 10
540.3651216639539
 20
2169.344415419036
 30
0.0
  0
VERTEX
  5
233
330
227
100
AcDbEntity
  8
Calque 1
 62
   193
420
 10040268
370
    50
100
AcDbVertex
100
AcDb2dVertex
 10
540.3936728927879
 20
2169.339075521033
 30
0.0
  0
VERTEX
  5
234
330
227
100
AcDbEntity
  8
Calque 1
 62
   193
420
 10040268
370
    50
100
AcDbVertex
100
AcDb2dVertex
 10
540.4225686311704
 20
2169.337180718517
 30
0.0
  0
SEQEND
  5
235
330
227
100
AcDbEntity
  8
Calque 1
 62
   193
420
 10040268
370
    50
  0
POLYLINE
  5
236
330
1F
100
AcDbEntity
  8
Calque 1
 62
   193
420
 10040268
370
    50
100
AcDb2dPolyline
 66
     1
 10
0.0
 20
0.0
 30
0.0
  0
VERTEX
  5
237
330
236
100
AcDbEntity
  8
Calque 1
 62
   193
420
 10040268
370
    50
100
AcDbVertex
100
AcDb2dVertex
 10
540.4225686311704
 20
2169.337180718517
 30
0.0
  0
VERTEX
  5
238
330
236
100
AcDbEntity
  8
Calque 1
 62
   193
420
 10040268
370
    50
100
AcDbVertex
100
AcDb2dVertex
 10
540.4139558924574
 20
2169.339764540131
 30
0.0
  0
VERTEX
  5
239
330
236
100
AcDbEntity
  8
Calque 1
 62
   193
420
 10040268
370
    50
100
AcDbVertex
100
AcDb2dVertex
 10
540.3910460074804
 20
2169.349238552715
 30
0.0
  0
VERTEX
  5
23A
330
236
100
AcDbEntity
  8
Calque 1
 62
   193
420
 10040268
370
    50
100
AcDbVertex
100
AcDb2dVertex
 10
540.3692988422298
 20
2169.361124132139
 30
0.0
  0
VERTEX
  5
23B
330
236
100
AcDbEntity
  8
Calque 1
 62
   193
420
 10040268
370
    50
100
AcDbVertex
100
AcDb2dVertex
 10
540.3565950526279
 20
2169.369564616078
 30
0.0
  0
VERTEX
  5
23C
330
236
100
AcDbEntity
  8
Calque 1
 62
   193
420
 10040268
370
    50
100
AcDbVertex
100
AcDb2dVertex
 10
540.3370010720555
 20
2169.384550781439
 30
0.0
  0
VERTEX
  5
23D
330
236
100
AcDbEntity
  8
Calque 1
 62
   193
420
 10040268
370
    50
100
AcDbVertex
100
AcDb2dVertex
 10
540.3188712570644
 20
2169.401259494542
 30
0.0
  0
VERTEX
  5
23E
330
236
100
AcDbEntity
  8
Calque 1
 62
   193
420
 10040268
370
    50
100
AcDbVertex
100
AcDb2dVertex
 10
540.3082775884473
 20
2169.412628309643
 30
0.0
  0
VERTEX
  5
23F
330
236
100
AcDbEntity
  8
Calque 1
 62
   193
420
 10040268
370
    50
100
AcDbVertex
100
AcDb2dVertex
 10
540.2928607861508
 20
2169.432093099135
 30
0.0
  0
VERTEX
  5
240
330
236
100
AcDbEntity
  8
Calque 1
 62
   193
420
 10040268
370
    50
100
AcDbVertex
100
AcDb2dVertex
 10
540.2793818500647
 20
2169.452763672047
 30
0.0
  0
VERTEX
  5
241
330
236
100
AcDbEntity
  8
Calque 1
 62
   193
420
 10040268
370
    50
100
AcDbVertex
100
AcDb2dVertex
 10
540.274687907466
 20
2169.46137641076
 30
0.0
  0
VERTEX
  5
242
330
236
100
AcDbEntity
  8
Calque 1
 62
   193
420
 10040268
370
    50
100
AcDbVertex
100
AcDb2dVertex
 10
540.264180366236
 20
2169.483769531414
 30
0.0
  0
VERTEX
  5
243
330
236
100
AcDbEntity
  8
Calque 1
 62
   193
420
 10040268
370
    50
100
AcDbVertex
100
AcDb2dVertex
 10
540.2559121370715
 20
2169.507023925939
 30
0.0
  0
SEQEND
  5
244
330
236
100
AcDbEntity
  8
Calque 1
 62
   193
420
 10040268
370
    50
  0
POLYLINE
  5
245
330
1F
100
AcDbEntity
  8
Calque 1
 62
   193
420
 10040268
370
    50
100
AcDb2dPolyline
 66
     1
 10
0.0
 20
0.0
 30
0.0
  0
VERTEX
  5
246
330
245
100
AcDbEntity
  8
Calque 1
 62
   193
420
 10040268
370
    50
100
AcDbVertex
100
AcDb2dVertex
 10
540.2559121370715
 20
2169.833618977941
 30
0.0
  0
VERTEX
  5
247
330
245
100
AcDbEntity
  8
Calque 1
 62
   193
420
 10040268
370
    50
100
AcDbVertex
100
AcDb2dVertex
 10
540.2571179204913
 20
2169.817254774386
 30
0.0
  0
VERTEX
  5
248
330
245
100
AcDbEntity
  8
Calque 1
 62
   193
420
 10040268
370
    50
100
AcDbVertex
100
AcDb2dVertex
 10
540.2616826720092
 20
2169.789177246181
 30
0.0
  0
VERTEX
  5
249
330
245
100
AcDbEntity
  8
Calque 1
 62
   193
420
 10040268
370
    50
100
AcDbVertex
100
AcDb2dVertex
 10
540.2695202642382
 20
2169.761788737073
 30
0.0
  0
VERTEX
  5
24A
330
245
100
AcDbEntity
  8
Calque 1
 62
   193
420
 10040268
370
    50
100
AcDbVertex
100
AcDb2dVertex
 10
540.2769272195314
 20
2169.743529731002
 30
0.0
  0
VERTEX
  5
24B
330
245
100
AcDbEntity
  8
Calque 1
 62
   193
420
 10040268
370
    50
100
AcDbVertex
100
AcDb2dVertex
 10
540.2903200282304
 20
2169.71838053396
 30
0.0
  0
VERTEX
  5
24C
330
245
100
AcDbEntity
  8
Calque 1
 62
   193
420
 10040268
370
    50
100
AcDbVertex
100
AcDb2dVertex
 10
540.3069856776403
 20
2169.695470648982
 30
0.0
  0
VERTEX
  5
24D
330
245
100
AcDbEntity
  8
Calque 1
 62
   193
420
 10040268
370
    50
100
AcDbVertex
100
AcDb2dVertex
 10
540.3169764545476
 20
2169.684274088655
 30
0.0
  0
VERTEX
  5
24E
330
245
100
AcDbEntity
  8
Calque 1
 62
   193
420
 10040268
370
    50
100
AcDbVertex
100
AcDb2dVertex
 10
540.3383791102497
 20
2169.665498318261
 30
0.0
  0
VERTEX
  5
24F
330
245
100
AcDbEntity
  8
Calque 1
 62
   193
420
 10040268
370
    50
100
AcDbVertex
100
AcDb2dVertex
 10
540.3624947786464
 20
2169.6505121529
 30
0.0
  0
VERTEX
  5
250
330
245
100
AcDbEntity
  8
Calque 1
 62
   193
420
 10040268
370
    50
100
AcDbVertex
100
AcDb2dVertex
 10
540.3676193581807
 20
2169.647928331286
 30
0.0
  0
VERTEX
  5
251
330
245
100
AcDbEntity
  8
Calque 1
 62
   193
420
 10040268
370
    50
100
AcDbVertex
100
AcDb2dVertex
 10
540.3944911029656
 20
2169.638454318701
 30
0.0
  0
VERTEX
  5
252
330
245
100
AcDbEntity
  8
Calque 1
 62
   193
420
 10040268
370
    50
100
AcDbVertex
100
AcDb2dVertex
 10
540.4225686311704
 20
2169.634147949345
 30
0.0
  0
SEQEND
  5
253
330
245
100
AcDbEntity
  8
Calque 1
 62
   193
420
 10040268
370
    50
  0
POLYLINE
  5
254
330
1F
100
AcDbEntity
  8
Calque 1
 62
   193
420
 10040268
370
    50
100
AcDb2dPolyline
 66
     1
 10
0.0
 20
0.0
 30
0.0
  0
VERTEX
  5
255
330
254
100
AcDbEntity
  8
Calque 1
 62
   193
420
 10040268
370
    50
100
AcDbVertex
100
AcDb2dVertex
 10
540.4225686311704
 20
2223.636019680636
 30
0.0
  0
VERTEX
  5
256
330
254
100
AcDbEntity
  8
Calque 1
 62
   193
420
 10040268
370
    50
100
AcDbVertex
100
AcDb2dVertex
 10
540.4168411599262
 20
2223.636019680636
 30
0.0
  0
VERTEX
  5
257
330
254
100
AcDbEntity
  8
Calque 1
 62
   193
420
 10040268
370
    50
100
AcDbVertex
100
AcDb2dVertex
 10
540.3880315489308
 20
2223.632574585151
 30
0.0
  0
VERTEX
  5
258
330
254
100
AcDbEntity
  8
Calque 1
 62
   193
420
 10040268
370
    50
100
AcDbVertex
100
AcDb2dVertex
 10
540.3603846576617
 20
2223.623445082115
 30
0.0
  0
VERTEX
  5
259
330
254
100
AcDbEntity
  8
Calque 1
 62
   193
420
 10040268
370
    50
100
AcDbVertex
100
AcDb2dVertex
 10
540.3474224858984
 20
2223.616727145919
 30
0.0
  0
VERTEX
  5
25A
330
254
100
AcDbEntity
  8
Calque 1
 62
   193
420
 10040268
370
    50
100
AcDbVertex
100
AcDb2dVertex
 10
540.3237374544373
 20
2223.599846178041
 30
0.0
  0
VERTEX
  5
25B
330
254
100
AcDbEntity
  8
Calque 1
 62
   193
420
 10040268
370
    50
100
AcDbVertex
100
AcDb2dVertex
 10
540.3032821999936
 20
2223.579175605129
 30
0.0
  0
VERTEX
  5
25C
330
254
100
AcDbEntity
  8
Calque 1
 62
   193
420
 10040268
370
    50
100
AcDbVertex
100
AcDb2dVertex
 10
540.2912674294888
 20
2223.562983656349
 30
0.0
  0
VERTEX
  5
25D
330
254
100
AcDbEntity
  8
Calque 1
 62
   193
420
 10040268
370
    50
100
AcDbVertex
100
AcDb2dVertex
 10
540.2770133469186
 20
2223.537834459306
 30
0.0
  0
VERTEX
  5
25E
330
254
100
AcDbEntity
  8
Calque 1
 62
   193
420
 10040268
370
    50
100
AcDbVertex
100
AcDb2dVertex
 10
540.266462741995
 20
2223.510790459748
 30
0.0
  0
VERTEX
  5
25F
330
254
100
AcDbEntity
  8
Calque 1
 62
   193
420
 10040268
370
    50
100
AcDbVertex
100
AcDb2dVertex
 10
540.26181186309
 20
2223.493737237096
 30
0.0
  0
VERTEX
  5
260
330
254
100
AcDbEntity
  8
Calque 1
 62
   193
420
 10040268
370
    50
100
AcDbVertex
100
AcDb2dVertex
 10
540.2570748567978
 20
2223.465142944568
 30
0.0
  0
VERTEX
  5
261
330
254
100
AcDbEntity
  8
Calque 1
 62
   193
420
 10040268
370
    50
100
AcDbVertex
100
AcDb2dVertex
 10
540.2559121370715
 20
2223.436204142492
 30
0.0
  0
SEQEND
  5
262
330
254
100
AcDbEntity
  8
Calque 1
 62
   193
420
 10040268
370
    50
  0
POLYLINE
  5
263
330
1F
100
AcDbEntity
  8
Calque 1
 62
   193
420
 10040268
370
    50
100
AcDb2dPolyline
 66
     1
 10
0.0
 20
0.0
 30
0.0
  0
VERTEX
  5
264
330
263
100
AcDbEntity
  8
Calque 1
 62
   193
420
 10040268
370
    50
100
AcDbVertex
100
AcDb2dVertex
 10
551.0225676112678
 20
2223.636019680636
 30
0.0
  0
VERTEX
  5
265
330
263
100
AcDbEntity
  8
Calque 1
 62
   193
420
 10040268
370
    50
100
AcDbVertex
100
AcDb2dVertex
 10
551.0157635476844
 20
2223.636536444959
 30
0.0
  0
VERTEX
  5
266
330
263
100
AcDbEntity
  8
Calque 1
 62
   193
420
 10040268
370
    50
100
AcDbVertex
100
AcDb2dVertex
 10
551.0066771083422
 20
2223.637053209282
 30
0.0
  0
VERTEX
  5
267
330
263
100
AcDbEntity
  8
Calque 1
 62
   193
420
 10040268
370
    50
100
AcDbVertex
100
AcDb2dVertex
 10
550.9975906689998
 20
2223.637569973605
 30
0.0
  0
VERTEX
  5
268
330
263
100
AcDbEntity
  8
Calque 1
 62
   193
420
 10040268
370
    50
100
AcDbVertex
100
AcDb2dVertex
 10
550.9953082932408
 20
2223.637742228379
 30
0.0
  0
VERTEX
  5
269
330
263
100
AcDbEntity
  8
Calque 1
 62
   193
420
 10040268
370
    50
100
AcDbVertex
100
AcDb2dVertex
 10
550.986264917592
 20
2223.638258992702
 30
0.0
  0
VERTEX
  5
26A
330
263
100
AcDbEntity
  8
Calque 1
 62
   193
420
 10040268
370
    50
100
AcDbVertex
100
AcDb2dVertex
 10
550.9771784782497
 20
2223.63860350225
 30
0.0
  0
VERTEX
  5
26B
330
263
100
AcDbEntity
  8
Calque 1
 62
   193
420
 10040268
370
    50
100
AcDbVertex
100
AcDb2dVertex
 10
550.9680489752137
 20
2223.638948011799
 30
0.0
  0
VERTEX
  5
26C
330
263
100
AcDbEntity
  8
Calque 1
 62
   193
420
 10040268
370
    50
100
AcDbVertex
100
AcDb2dVertex
 10
550.9589625358714
 20
2223.639292521347
 30
0.0
  0
VERTEX
  5
26D
330
263
100
AcDbEntity
  8
Calque 1
 62
   193
420
 10040268
370
    50
100
AcDbVertex
100
AcDb2dVertex
 10
550.949876096529
 20
2223.639464776121
 30
0.0
  0
VERTEX
  5
26E
330
263
100
AcDbEntity
  8
Calque 1
 62
   193
420
 10040268
370
    50
100
AcDbVertex
100
AcDb2dVertex
 10
550.9407896571867
 20
2223.639637030896
 30
0.0
  0
VERTEX
  5
26F
330
263
100
AcDbEntity
  8
Calque 1
 62
   193
420
 10040268
370
    50
100
AcDbVertex
100
AcDb2dVertex
 10
550.9317032178443
 20
2223.639637030896
 30
0.0
  0
SEQEND
  5
270
330
263
100
AcDbEntity
  8
Calque 1
 62
   193
420
 10040268
370
    50
  0
POLYLINE
  5
271
330
1F
100
AcDbEntity
  8
Calque 1
 62
   193
420
 10040268
370
    50
100
AcDb2dPolyline
 66
     1
 10
0.0
 20
0.0
 30
0.0
  0
VERTEX
  5
272
330
271
100
AcDbEntity
  8
Calque 1
 62
   193
420
 10040268
370
    50
100
AcDbVertex
100
AcDb2dVertex
 10
540.5134330245938
 20
2223.639637030896
 30
0.0
  0
VERTEX
  5
273
330
271
100
AcDbEntity
  8
Calque 1
 62
   193
420
 10040268
370
    50
100
AcDbVertex
100
AcDb2dVertex
 10
540.5111937125284
 20
2223.639637030896
 30
0.0
  0
VERTEX
  5
274
330
271
100
AcDbEntity
  8
Calque 1
 62
   193
420
 10040268
370
    50
100
AcDbVertex
100
AcDb2dVertex
 10
540.5020642094926
 20
2223.639637030896
 30
0.0
  0
VERTEX
  5
275
330
271
100
AcDbEntity
  8
Calque 1
 62
   193
420
 10040268
370
    50
100
AcDbVertex
100
AcDb2dVertex
 10
540.4929777701502
 20
2223.639464776121
 30
0.0
  0
VERTEX
  5
276
330
271
100
AcDbEntity
  8
Calque 1
 62
   193
420
 10040268
370
    50
100
AcDbVertex
100
AcDb2dVertex
 10
540.4861306428733
 20
2223.639292521347
 30
0.0
  0
VERTEX
  5
277
330
271
100
AcDbEntity
  8
Calque 1
 62
   193
420
 10040268
370
    50
100
AcDbVertex
100
AcDb2dVertex
 10
540.4770442035309
 20
2223.638948011799
 30
0.0
  0
VERTEX
  5
278
330
271
100
AcDbEntity
  8
Calque 1
 62
   193
420
 10040268
370
    50
100
AcDbVertex
100
AcDb2dVertex
 10
540.4679577641886
 20
2223.63860350225
 30
0.0
  0
VERTEX
  5
279
330
271
100
AcDbEntity
  8
Calque 1
 62
   193
420
 10040268
370
    50
100
AcDbVertex
100
AcDb2dVertex
 10
540.4588713248462
 20
2223.638258992702
 30
0.0
  0
VERTEX
  5
27A
330
271
100
AcDbEntity
  8
Calque 1
 62
   193
420
 10040268
370
    50
100
AcDbVertex
100
AcDb2dVertex
 10
540.4497848855038
 20
2223.637742228379
 30
0.0
  0
VERTEX
  5
27B
330
271
100
AcDbEntity
  8
Calque 1
 62
   193
420
 10040268
370
    50
100
AcDbVertex
100
AcDb2dVertex
 10
540.4406984461616
 20
2223.637225464056
 30
0.0
  0
VERTEX
  5
27C
330
271
100
AcDbEntity
  8
Calque 1
 62
   193
420
 10040268
370
    50
100
AcDbVertex
100
AcDb2dVertex
 10
540.4316550705128
 20
2223.636536444959
 30
0.0
  0
VERTEX
  5
27D
330
271
100
AcDbEntity
  8
Calque 1
 62
   193
420
 10040268
370
    50
100
AcDbVertex
100
AcDb2dVertex
 10
540.4225686311704
 20
2223.636019680636
 30
0.0
  0
SEQEND
  5
27E
330
271
100
AcDbEntity
  8
Calque 1
 62
   193
420
 10040268
370
    50
  0
POLYLINE
  5
27F
330
1F
100
AcDbEntity
  8
Calque 1
 62
   193
420
 10040268
370
    50
100
AcDb2dPolyline
 66
     1
 10
0.0
 20
0.0
 30
0.0
  0
VERTEX
  5
280
330
27F
100
AcDbEntity
  8
Calque 1
 62
   193
420
 10040268
370
    50
100
AcDbVertex
100
AcDb2dVertex
 10
550.9317032178443
 20
2223.639637030896
 30
0.0
  0
VERTEX
  5
281
330
27F
100
AcDbEntity
  8
Calque 1
 62
   193
420
 10040268
370
    50
100
AcDbVertex
100
AcDb2dVertex
 10
550.9193870014846
 20
2223.639464776121
 30
0.0
  0
VERTEX
  5
282
330
27F
100
AcDbEntity
  8
Calque 1
 62
   193
420
 10040268
370
    50
100
AcDbVertex
100
AcDb2dVertex
 10
550.8758926709833
 20
2223.635675171088
 30
0.0
  0
VERTEX
  5
283
330
27F
100
AcDbEntity
  8
Calque 1
 62
   193
420
 10040268
370
    50
100
AcDbVertex
100
AcDb2dVertex
 10
550.8687440978514
 20
2223.634297132894
 30
0.0
  0
VERTEX
  5
284
330
27F
100
AcDbEntity
  8
Calque 1
 62
   193
420
 10040268
370
    50
100
AcDbVertex
100
AcDb2dVertex
 10
550.8398052957754
 20
2223.622756063018
 30
0.0
  0
VERTEX
  5
285
330
27F
100
AcDbEntity
  8
Calque 1
 62
   193
420
 10040268
370
    50
100
AcDbVertex
100
AcDb2dVertex
 10
550.8377813021777
 20
2223.62120577005
 30
0.0
  0
VERTEX
  5
286
330
27F
100
AcDbEntity
  8
Calque 1
 62
   193
420
 10040268
370
    50
100
AcDbVertex
100
AcDb2dVertex
 10
550.823484155914
 20
2223.600362942364
 30
0.0
  0
VERTEX
  5
287
330
27F
100
AcDbEntity
  8
Calque 1
 62
   193
420
 10040268
370
    50
100
AcDbVertex
100
AcDb2dVertex
 10
550.8250344488823
 20
2223.575213745321
 30
0.0
  0
VERTEX
  5
288
330
27F
100
AcDbEntity
  8
Calque 1
 62
   193
420
 10040268
370
    50
100
AcDbVertex
100
AcDb2dVertex
 10
550.8271876335606
 20
2223.568840318674
 30
0.0
  0
VERTEX
  5
289
330
27F
100
AcDbEntity
  8
Calque 1
 62
   193
420
 10040268
370
    50
100
AcDbVertex
100
AcDb2dVertex
 10
550.8282211622062
 20
2223.566084242286
 30
0.0
  0
VERTEX
  5
28A
330
27F
100
AcDbEntity
  8
Calque 1
 62
   193
420
 10040268
370
    50
100
AcDbVertex
100
AcDb2dVertex
 10
550.850054454844
 20
2223.528360446722
 30
0.0
  0
VERTEX
  5
28B
330
27F
100
AcDbEntity
  8
Calque 1
 62
   193
420
 10040268
370
    50
100
AcDbVertex
100
AcDb2dVertex
 10
550.8619400342681
 20
2223.513202026587
 30
0.0
  0
VERTEX
  5
28C
330
27F
100
AcDbEntity
  8
Calque 1
 62
   193
420
 10040268
370
    50
100
AcDbVertex
100
AcDb2dVertex
 10
550.8911372185055
 20
2223.480645874251
 30
0.0
  0
VERTEX
  5
28D
330
27F
100
AcDbEntity
  8
Calque 1
 62
   193
420
 10040268
370
    50
100
AcDbVertex
100
AcDb2dVertex
 10
550.9165447977092
 20
2223.455841186758
 30
0.0
  0
VERTEX
  5
28E
330
27F
100
AcDbEntity
  8
Calque 1
 62
   193
420
 10040268
370
    50
100
AcDbVertex
100
AcDb2dVertex
 10
550.9491440137384
 20
2223.426902384681
 30
0.0
  0
VERTEX
  5
28F
330
27F
100
AcDbEntity
  8
Calque 1
 62
   193
420
 10040268
370
    50
100
AcDbVertex
100
AcDb2dVertex
 10
550.9541824658857
 20
2223.422596015325
 30
0.0
  0
VERTEX
  5
290
330
27F
100
AcDbEntity
  8
Calque 1
 62
   193
420
 10040268
370
    50
100
AcDbVertex
100
AcDb2dVertex
 10
550.9880305290282
 20
2223.395207506217
 30
0.0
  0
VERTEX
  5
291
330
27F
100
AcDbEntity
  8
Calque 1
 62
   193
420
 10040268
370
    50
100
AcDbVertex
100
AcDb2dVertex
 10
551.0225676112678
 20
2223.368508016207
 30
0.0
  0
SEQEND
  5
292
330
27F
100
AcDbEntity
  8
Calque 1
 62
   193
420
 10040268
370
    50
  0
POLYLINE
  5
293
330
1F
100
AcDbEntity
  8
Calque 1
 62
   193
420
 10040268
370
    50
100
AcDb2dPolyline
 66
     1
 10
0.0
 20
0.0
 30
0.0
  0
VERTEX
  5
294
330
293
100
AcDbEntity
  8
Calque 1
 62
   193
420
 10040268
370
    50
100
AcDbVertex
100
AcDb2dVertex
 10
540.4225686311704
 20
2223.368508016207
 30
0.0
  0
VERTEX
  5
295
330
293
100
AcDbEntity
  8
Calque 1
 62
   193
420
 10040268
370
    50
100
AcDbVertex
100
AcDb2dVertex
 10
540.4277793380919
 20
2223.372469876015
 30
0.0
  0
VERTEX
  5
296
330
293
100
AcDbEntity
  8
Calque 1
 62
   193
420
 10040268
370
    50
100
AcDbVertex
100
AcDb2dVertex
 10
540.4623164203315
 20
2223.399169366025
 30
0.0
  0
VERTEX
  5
297
330
293
100
AcDbEntity
  8
Calque 1
 62
   193
420
 10040268
370
    50
100
AcDbVertex
100
AcDb2dVertex
 10
540.4960352923933
 20
2223.426902384681
 30
0.0
  0
VERTEX
  5
298
330
293
100
AcDbEntity
  8
Calque 1
 62
   193
420
 10040268
370
    50
100
AcDbVertex
100
AcDb2dVertex
 10
540.5226055913233
 20
2223.450329033981
 30
0.0
  0
VERTEX
  5
299
330
293
100
AcDbEntity
  8
Calque 1
 62
   193
420
 10040268
370
    50
100
AcDbVertex
100
AcDb2dVertex
 10
540.5539990239328
 20
2223.480645874251
 30
0.0
  0
VERTEX
  5
29A
330
293
100
AcDbEntity
  8
Calque 1
 62
   193
420
 10040268
370
    50
100
AcDbVertex
100
AcDb2dVertex
 10
540.5672626415509
 20
2223.494770765741
 30
0.0
  0
VERTEX
  5
29B
330
293
100
AcDbEntity
  8
Calque 1
 62
   193
420
 10040268
370
    50
100
AcDbVertex
100
AcDb2dVertex
 10
540.5950387239008
 20
2223.528360446722
 30
0.0
  0
VERTEX
  5
29C
330
293
100
AcDbEntity
  8
Calque 1
 62
   193
420
 10040268
370
    50
100
AcDbVertex
100
AcDb2dVertex
 10
540.5966751442562
 20
2223.530599758788
 30
0.0
  0
VERTEX
  5
29D
330
293
100
AcDbEntity
  8
Calque 1
 62
   193
420
 10040268
370
    50
100
AcDbVertex
100
AcDb2dVertex
 10
540.6179486088777
 20
2223.568840318674
 30
0.0
  0
VERTEX
  5
29E
330
293
100
AcDbEntity
  8
Calque 1
 62
   193
420
 10040268
370
    50
100
AcDbVertex
100
AcDb2dVertex
 10
540.6196711566203
 20
2223.574007961902
 30
0.0
  0
VERTEX
  5
29F
330
293
100
AcDbEntity
  8
Calque 1
 62
   193
420
 10040268
370
    50
100
AcDbVertex
100
AcDb2dVertex
 10
540.6216090228307
 20
2223.600362942364
 30
0.0
  0
VERTEX
  5
2A0
330
293
100
AcDbEntity
  8
Calque 1
 62
   193
420
 10040268
370
    50
100
AcDbVertex
100
AcDb2dVertex
 10
540.6159676789737
 20
2223.612765286111
 30
0.0
  0
VERTEX
  5
2A1
330
293
100
AcDbEntity
  8
Calque 1
 62
   193
420
 10040268
370
    50
100
AcDbVertex
100
AcDb2dVertex
 10
540.6052878829694
 20
2223.622756063018
 30
0.0
  0
VERTEX
  5
2A2
330
293
100
AcDbEntity
  8
Calque 1
 62
   193
420
 10040268
370
    50
100
AcDbVertex
100
AcDb2dVertex
 10
540.5737221955858
 20
2223.634813897216
 30
0.0
  0
VERTEX
  5
2A3
330
293
100
AcDbEntity
  8
Calque 1
 62
   193
420
 10040268
370
    50
100
AcDbVertex
100
AcDb2dVertex
 10
540.5692866351485
 20
2223.635675171088
 30
0.0
  0
VERTEX
  5
2A4
330
293
100
AcDbEntity
  8
Calque 1
 62
   193
420
 10040268
370
    50
100
AcDbVertex
100
AcDb2dVertex
 10
540.5569704187888
 20
2223.63739771883
 30
0.0
  0
VERTEX
  5
2A5
330
293
100
AcDbEntity
  8
Calque 1
 62
   193
420
 10040268
370
    50
100
AcDbVertex
100
AcDb2dVertex
 10
540.5134330245938
 20
2223.639637030896
 30
0.0
  0
SEQEND
  5
2A6
330
293
100
AcDbEntity
  8
Calque 1
 62
   193
420
 10040268
370
    50
  0
POLYLINE
  5
2A7
330
1F
100
AcDbEntity
  8
Calque 1
 62
   193
420
 10040268
370
    50
100
AcDb2dPolyline
 66
     1
 10
0.0
 20
0.0
 30
0.0
  0
VERTEX
  5
2A8
330
2A7
100
AcDbEntity
  8
Calque 1
 62
   193
420
 10040268
370
    50
100
AcDbVertex
100
AcDb2dVertex
 10
551.1892241053667
 20
2164.515597332135
 30
0.0
  0
VERTEX
  5
2A9
330
2A7
100
AcDbEntity
  8
Calque 1
 62
   193
420
 10040268
370
    50
100
AcDbVertex
100
AcDb2dVertex
 10
551.1930137104006
 20
2164.500955676323
 30
0.0
  0
VERTEX
  5
2AA
330
2A7
100
AcDbEntity
  8
Calque 1
 62
   193
420
 10040268
370
    50
100
AcDbVertex
100
AcDb2dVertex
 10
551.197535398225
 20
2164.471155600375
 30
0.0
  0
VERTEX
  5
2AB
330
2A7
100
AcDbEntity
  8
Calque 1
 62
   193
420
 10040268
370
    50
100
AcDbVertex
100
AcDb2dVertex
 10
551.1967171880472
 20
2164.441011014879
 30
0.0
  0
VERTEX
  5
2AC
330
2A7
100
AcDbEntity
  8
Calque 1
 62
   193
420
 10040268
370
    50
100
AcDbVertex
100
AcDb2dVertex
 10
551.1955114046274
 20
2164.433604059586
 30
0.0
  0
VERTEX
  5
2AD
330
2A7
100
AcDbEntity
  8
Calque 1
 62
   193
420
 10040268
370
    50
100
AcDbVertex
100
AcDb2dVertex
 10
551.1861665831236
 20
2164.405182021833
 30
0.0
  0
VERTEX
  5
2AE
330
2A7
100
AcDbEntity
  8
Calque 1
 62
   193
420
 10040268
370
    50
100
AcDbVertex
100
AcDb2dVertex
 10
551.1830659971869
 20
2164.399153104734
 30
0.0
  0
VERTEX
  5
2AF
330
2A7
100
AcDbEntity
  8
Calque 1
 62
   193
420
 10040268
370
    50
100
AcDbVertex
100
AcDb2dVertex
 10
551.1649361821958
 20
2164.375209691111
 30
0.0
  0
VERTEX
  5
2B0
330
2A7
100
AcDbEntity
  8
Calque 1
 62
   193
420
 10040268
370
    50
100
AcDbVertex
100
AcDb2dVertex
 10
551.1597685389679
 20
2164.370386557432
 30
0.0
  0
VERTEX
  5
2B1
330
2A7
100
AcDbEntity
  8
Calque 1
 62
   193
420
 10040268
370
    50
100
AcDbVertex
100
AcDb2dVertex
 10
551.1344901508448
 20
2164.354194608651
 30
0.0
  0
VERTEX
  5
2B2
330
2A7
100
AcDbEntity
  8
Calque 1
 62
   193
420
 10040268
370
    50
100
AcDbVertex
100
AcDb2dVertex
 10
551.1271693229387
 20
2164.351094022714
 30
0.0
  0
VERTEX
  5
2B3
330
2A7
100
AcDbEntity
  8
Calque 1
 62
   193
420
 10040268
370
    50
100
AcDbVertex
100
AcDb2dVertex
 10
551.0980582660884
 20
2164.343687067421
 30
0.0
  0
VERTEX
  5
2B4
330
2A7
100
AcDbEntity
  8
Calque 1
 62
   193
420
 10040268
370
    50
100
AcDbVertex
100
AcDb2dVertex
 10
551.0821677631626
 20
2164.342481284001
 30
0.0
  0
VERTEX
  5
2B5
330
2A7
100
AcDbEntity
  8
Calque 1
 62
   193
420
 10040268
370
    50
100
AcDbVertex
100
AcDb2dVertex
 10
551.0520662413603
 20
2164.344720596067
 30
0.0
  0
VERTEX
  5
2B6
330
2A7
100
AcDbEntity
  8
Calque 1
 62
   193
420
 10040268
370
    50
100
AcDbVertex
100
AcDb2dVertex
 10
551.0225676112678
 20
2164.351094022714
 30
0.0
  0
SEQEND
  5
2B7
330
2A7
100
AcDbEntity
  8
Calque 1
 62
   193
420
 10040268
370
    50
  0
POLYLINE
  5
2B8
330
1F
100
AcDbEntity
  8
Calque 1
 62
   193
420
 10040268
370
    50
100
AcDb2dPolyline
 66
     1
 10
0.0
 20
0.0
 30
0.0
  0
VERTEX
  5
2B9
330
2B8
100
AcDbEntity
  8
Calque 1
 62
   193
420
 10040268
370
    50
100
AcDbVertex
100
AcDb2dVertex
 10
551.2225554041866
 20
2164.515597332135
 30
0.0
  0
VERTEX
  5
2BA
330
2B8
100
AcDbEntity
  8
Calque 1
 62
   193
420
 10040268
370
    50
100
AcDbVertex
100
AcDb2dVertex
 10
551.2223400857188
 20
2164.507845867293
 30
0.0
  0
VERTEX
  5
2BB
330
2B8
100
AcDbEntity
  8
Calque 1
 62
   193
420
 10040268
370
    50
100
AcDbVertex
100
AcDb2dVertex
 10
551.2176461431201
 20
2164.479596084314
 30
0.0
  0
VERTEX
  5
2BC
330
2B8
100
AcDbEntity
  8
Calque 1
 62
   193
420
 10040268
370
    50
100
AcDbVertex
100
AcDb2dVertex
 10
551.207353920358
 20
2164.452724339529
 30
0.0
  0
VERTEX
  5
2BD
330
2B8
100
AcDbEntity
  8
Calque 1
 62
   193
420
 10040268
370
    50
100
AcDbVertex
100
AcDb2dVertex
 10
551.2016264491136
 20
2164.442389053073
 30
0.0
  0
VERTEX
  5
2BE
330
2B8
100
AcDbEntity
  8
Calque 1
 62
   193
420
 10040268
370
    50
100
AcDbVertex
100
AcDb2dVertex
 10
551.1846162901553
 20
2164.419306913323
 30
0.0
  0
VERTEX
  5
2BF
330
2B8
100
AcDbEntity
  8
Calque 1
 62
   193
420
 10040268
370
    50
100
AcDbVertex
100
AcDb2dVertex
 10
551.1639887809373
 20
2164.399325359508
 30
0.0
  0
VERTEX
  5
2C0
330
2B8
100
AcDbEntity
  8
Calque 1
 62
   193
420
 10040268
370
    50
100
AcDbVertex
100
AcDb2dVertex
 10
551.1502945263835
 20
2164.389162327826
 30
0.0
  0
VERTEX
  5
2C1
330
2B8
100
AcDbEntity
  8
Calque 1
 62
   193
420
 10040268
370
    50
100
AcDbVertex
100
AcDb2dVertex
 10
551.1255759662768
 20
2164.374692926788
 30
0.0
  0
VERTEX
  5
2C2
330
2B8
100
AcDbEntity
  8
Calque 1
 62
   193
420
 10040268
370
    50
100
AcDbVertex
100
AcDb2dVertex
 10
551.0990917947339
 20
2164.363668621236
 30
0.0
  0
VERTEX
  5
2C3
330
2B8
100
AcDbEntity
  8
Calque 1
 62
   193
420
 10040268
370
    50
100
AcDbVertex
100
AcDb2dVertex
 10
551.0792394320002
 20
2164.357984213685
 30
0.0
  0
VERTEX
  5
2C4
330
2B8
100
AcDbEntity
  8
Calque 1
 62
   193
420
 10040268
370
    50
100
AcDbVertex
100
AcDb2dVertex
 10
551.0510757764083
 20
2164.352816570457
 30
0.0
  0
VERTEX
  5
2C5
330
2B8
100
AcDbEntity
  8
Calque 1
 62
   193
420
 10040268
370
    50
100
AcDbVertex
100
AcDb2dVertex
 10
551.0225676112678
 20
2164.351094022714
 30
0.0
  0
SEQEND
  5
2C6
330
2B8
100
AcDbEntity
  8
Calque 1
 62
   193
420
 10040268
370
    50
  0
POLYLINE
  5
2C7
330
1F
100
AcDbEntity
  8
Calque 1
 62
   193
420
 10040268
370
    50
100
AcDb2dPolyline
 66
     1
 10
0.0
 20
0.0
 30
0.0
  0
VERTEX
  5
2C8
330
2C7
100
AcDbEntity
  8
Calque 1
 62
   193
420
 10040268
370
    50
100
AcDbVertex
100
AcDb2dVertex
 10
551.0225676112678
 20
2163.73786702634
 30
0.0
  0
VERTEX
  5
2C9
330
2C7
100
AcDbEntity
  8
Calque 1
 62
   193
420
 10040268
370
    50
100
AcDbVertex
100
AcDb2dVertex
 10
551.0388887511292
 20
2163.738556045437
 30
0.0
  0
VERTEX
  5
2CA
330
2C7
100
AcDbEntity
  8
Calque 1
 62
   193
420
 10040268
370
    50
100
AcDbVertex
100
AcDb2dVertex
 10
551.0695070372543
 20
2163.743379179116
 30
0.0
  0
VERTEX
  5
2CB
330
2C7
100
AcDbEntity
  8
Calque 1
 62
   193
420
 10040268
370
    50
100
AcDbVertex
100
AcDb2dVertex
 10
551.0990917947339
 20
2163.752680936926
 30
0.0
  0
VERTEX
  5
2CC
330
2C7
100
AcDbEntity
  8
Calque 1
 62
   193
420
 10040268
370
    50
100
AcDbVertex
100
AcDb2dVertex
 10
551.1136042594655
 20
2163.759226618348
 30
0.0
  0
VERTEX
  5
2CD
330
2C7
100
AcDbEntity
  8
Calque 1
 62
   193
420
 10040268
370
    50
100
AcDbVertex
100
AcDb2dVertex
 10
551.1401745583955
 20
2163.775246312355
 30
0.0
  0
VERTEX
  5
2CE
330
2C7
100
AcDbEntity
  8
Calque 1
 62
   193
420
 10040268
370
    50
100
AcDbVertex
100
AcDb2dVertex
 10
551.1639887809373
 20
2163.795055611395
 30
0.0
  0
VERTEX
  5
2CF
330
2C7
100
AcDbEntity
  8
Calque 1
 62
   193
420
 10040268
370
    50
100
AcDbVertex
100
AcDb2dVertex
 10
551.1744101947802
 20
2163.805907662173
 30
0.0
  0
VERTEX
  5
2D0
330
2C7
100
AcDbEntity
  8
Calque 1
 62
   193
420
 10040268
370
    50
100
AcDbVertex
100
AcDb2dVertex
 10
551.192970646707
 20
2163.830884604442
 30
0.0
  0
VERTEX
  5
2D1
330
2C7
100
AcDbEntity
  8
Calque 1
 62
   193
420
 10040268
370
    50
100
AcDbVertex
100
AcDb2dVertex
 10
551.207353920358
 20
2163.858273113549
 30
0.0
  0
VERTEX
  5
2D2
330
2C7
100
AcDbEntity
  8
Calque 1
 62
   193
420
 10040268
370
    50
100
AcDbVertex
100
AcDb2dVertex
 10
551.2125215635858
 20
2163.87205349549
 30
0.0
  0
VERTEX
  5
2D3
330
2C7
100
AcDbEntity
  8
Calque 1
 62
   193
420
 10040268
370
    50
100
AcDbVertex
100
AcDb2dVertex
 10
551.2200146462662
 20
2163.902198080986
 30
0.0
  0
VERTEX
  5
2D4
330
2C7
100
AcDbEntity
  8
Calque 1
 62
   193
420
 10040268
370
    50
100
AcDbVertex
100
AcDb2dVertex
 10
551.2225554041866
 20
2163.933031685579
 30
0.0
  0
SEQEND
  5
2D5
330
2C7
100
AcDbEntity
  8
Calque 1
 62
   193
420
 10040268
370
    50
  0
POLYLINE
  5
2D6
330
1F
100
AcDbEntity
  8
Calque 1
 62
   193
420
 10040268
370
    50
100
AcDb2dPolyline
 66
     1
 10
0.0
 20
0.0
 30
0.0
  0
VERTEX
  5
2D7
330
2D6
100
AcDbEntity
  8
Calque 1
 62
   193
420
 10040268
370
    50
100
AcDbVertex
100
AcDb2dVertex
 10
551.0225676112678
 20
2163.73786702634
 30
0.0
  0
VERTEX
  5
2D8
330
2D6
100
AcDbEntity
  8
Calque 1
 62
   193
420
 10040268
370
    50
100
AcDbVertex
100
AcDb2dVertex
 10
551.028596528367
 20
2163.738728300211
 30
0.0
  0
VERTEX
  5
2D9
330
2D6
100
AcDbEntity
  8
Calque 1
 62
   193
420
 10040268
370
    50
100
AcDbVertex
100
AcDb2dVertex
 10
551.055166827297
 20
2163.746135255505
 30
0.0
  0
VERTEX
  5
2DA
330
2D6
100
AcDbEntity
  8
Calque 1
 62
   193
420
 10040268
370
    50
100
AcDbVertex
100
AcDb2dVertex
 10
551.0801868332586
 20
2163.757848580155
 30
0.0
  0
VERTEX
  5
2DB
330
2D6
100
AcDbEntity
  8
Calque 1
 62
   193
420
 10040268
370
    50
100
AcDbVertex
100
AcDb2dVertex
 10
551.0859573681964
 20
2163.76129367564
 30
0.0
  0
VERTEX
  5
2DC
330
2D6
100
AcDbEntity
  8
Calque 1
 62
   193
420
 10040268
370
    50
100
AcDbVertex
100
AcDb2dVertex
 10
551.1082212977699
 20
2163.777313369646
 30
0.0
  0
VERTEX
  5
2DD
330
2D6
100
AcDbEntity
  8
Calque 1
 62
   193
420
 10040268
370
    50
100
AcDbVertex
100
AcDb2dVertex
 10
551.1147239154983
 20
2163.782997777197
 30
0.0
  0
VERTEX
  5
2DE
330
2D6
100
AcDbEntity
  8
Calque 1
 62
   193
420
 10040268
370
    50
100
AcDbVertex
100
AcDb2dVertex
 10
551.133887259135
 20
2163.802634821463
 30
0.0
  0
VERTEX
  5
2DF
330
2D6
100
AcDbEntity
  8
Calque 1
 62
   193
420
 10040268
370
    50
100
AcDbVertex
100
AcDb2dVertex
 10
551.1398731125406
 20
2163.810041776756
 30
0.0
  0
VERTEX
  5
2E0
330
2D6
100
AcDbEntity
  8
Calque 1
 62
   193
420
 10040268
370
    50
100
AcDbVertex
100
AcDb2dVertex
 10
551.1554191059178
 20
2163.832607152184
 30
0.0
  0
VERTEX
  5
2E1
330
2D6
100
AcDbEntity
  8
Calque 1
 62
   193
420
 10040268
370
    50
100
AcDbVertex
100
AcDb2dVertex
 10
551.16015611221
 20
2163.840875381349
 30
0.0
  0
VERTEX
  5
2E2
330
2D6
100
AcDbEntity
  8
Calque 1
 62
   193
420
 10040268
370
    50
100
AcDbVertex
100
AcDb2dVertex
 10
551.1721278190213
 20
2163.865507814068
 30
0.0
  0
VERTEX
  5
2E3
330
2D6
100
AcDbEntity
  8
Calque 1
 62
   193
420
 10040268
370
    50
100
AcDbVertex
100
AcDb2dVertex
 10
551.177295462249
 20
2163.879288196009
 30
0.0
  0
VERTEX
  5
2E4
330
2D6
100
AcDbEntity
  8
Calque 1
 62
   193
420
 10040268
370
    50
100
AcDbVertex
100
AcDb2dVertex
 10
551.184745481236
 20
2163.905815431246
 30
0.0
  0
VERTEX
  5
2E5
330
2D6
100
AcDbEntity
  8
Calque 1
 62
   193
420
 10040268
370
    50
100
AcDbVertex
100
AcDb2dVertex
 10
551.1892241053667
 20
2163.933031685579
 30
0.0
  0
SEQEND
  5
2E6
330
2D6
100
AcDbEntity
  8
Calque 1
 62
   193
420
 10040268
370
    50
  0
POLYLINE
  5
2E7
330
1F
100
AcDbEntity
  8
Calque 1
 62
   193
420
 10040268
370
    50
100
AcDb2dPolyline
 66
     1
 10
0.0
 20
0.0
 30
0.0
  0
VERTEX
  5
2E8
330
2E7
100
AcDbEntity
  8
Calque 1
 62
   193
420
 10040268
370
    50
100
AcDbVertex
100
AcDb2dVertex
 10
551.0225676112678
 20
2164.351094022714
 30
0.0
  0
VERTEX
  5
2E9
330
2E7
100
AcDbEntity
  8
Calque 1
 62
   193
420
 10040268
370
    50
100
AcDbVertex
100
AcDb2dVertex
 10
550.9885042296575
 20
2164.311647679408
 30
0.0
  0
VERTEX
  5
2EA
330
2E7
100
AcDbEntity
  8
Calque 1
 62
   193
420
 10040268
370
    50
100
AcDbVertex
100
AcDb2dVertex
 10
550.9411341667352
 20
2164.251186253642
 30
0.0
  0
VERTEX
  5
2EB
330
2E7
100
AcDbEntity
  8
Calque 1
 62
   193
420
 10040268
370
    50
100
AcDbVertex
100
AcDb2dVertex
 10
550.9186979823876
 20
2164.219319120404
 30
0.0
  0
VERTEX
  5
2EC
330
2E7
100
AcDbEntity
  8
Calque 1
 62
   193
420
 10040268
370
    50
100
AcDbVertex
100
AcDb2dVertex
 10
550.8789501932265
 20
2164.153517796635
 30
0.0
  0
VERTEX
  5
2ED
330
2E7
100
AcDbEntity
  8
Calque 1
 62
   193
420
 10040268
370
    50
100
AcDbVertex
100
AcDb2dVertex
 10
550.8682273335286
 20
2164.132847223724
 30
0.0
  0
VERTEX
  5
2EE
330
2E7
100
AcDbEntity
  8
Calque 1
 62
   193
420
 10040268
370
    50
100
AcDbVertex
100
AcDb2dVertex
 10
550.8392024040654
 20
2164.061706001954
 30
0.0
  0
VERTEX
  5
2EF
330
2E7
100
AcDbEntity
  8
Calque 1
 62
   193
420
 10040268
370
    50
100
AcDbVertex
100
AcDb2dVertex
 10
550.8357573085801
 20
2164.050337186852
 30
0.0
  0
VERTEX
  5
2F0
330
2E7
100
AcDbEntity
  8
Calque 1
 62
   193
420
 10040268
370
    50
100
AcDbVertex
100
AcDb2dVertex
 10
550.8229673915912
 20
2163.976784398242
 30
0.0
  0
VERTEX
  5
2F1
330
2E7
100
AcDbEntity
  8
Calque 1
 62
   193
420
 10040268
370
    50
100
AcDbVertex
100
AcDb2dVertex
 10
550.8241301113175
 20
2163.937165800161
 30
0.0
  0
VERTEX
  5
2F2
330
2E7
100
AcDbEntity
  8
Calque 1
 62
   193
420
 10040268
370
    50
100
AcDbVertex
100
AcDb2dVertex
 10
550.832096894627
 20
2163.900475533244
 30
0.0
  0
VERTEX
  5
2F3
330
2E7
100
AcDbEntity
  8
Calque 1
 62
   193
420
 10040268
370
    50
100
AcDbVertex
100
AcDb2dVertex
 10
550.8597868495898
 20
2163.845870769802
 30
0.0
  0
VERTEX
  5
2F4
330
2E7
100
AcDbEntity
  8
Calque 1
 62
   193
420
 10040268
370
    50
100
AcDbVertex
100
AcDb2dVertex
 10
550.8681412061414
 20
2163.835018719024
 30
0.0
  0
VERTEX
  5
2F5
330
2E7
100
AcDbEntity
  8
Calque 1
 62
   193
420
 10040268
370
    50
100
AcDbVertex
100
AcDb2dVertex
 10
550.8965201802013
 20
2163.806079916948
 30
0.0
  0
VERTEX
  5
2F6
330
2E7
100
AcDbEntity
  8
Calque 1
 62
   193
420
 10040268
370
    50
100
AcDbVertex
100
AcDb2dVertex
 10
550.9317462815379
 20
2163.780413955583
 30
0.0
  0
VERTEX
  5
2F7
330
2E7
100
AcDbEntity
  8
Calque 1
 62
   193
420
 10040268
370
    50
100
AcDbVertex
100
AcDb2dVertex
 10
550.9521154085944
 20
2163.768528376159
 30
0.0
  0
VERTEX
  5
2F8
330
2E7
100
AcDbEntity
  8
Calque 1
 62
   193
420
 10040268
370
    50
100
AcDbVertex
100
AcDb2dVertex
 10
551.0225676112678
 20
2163.73786702634
 30
0.0
  0
SEQEND
  5
2F9
330
2E7
100
AcDbEntity
  8
Calque 1
 62
   193
420
 10040268
370
    50
  0
POLYLINE
  5
2FA
330
1F
100
AcDbEntity
  8
Calque 1
 62
   193
420
 10040268
370
    50
100
AcDb2dPolyline
 66
     1
 10
0.0
 20
0.0
 30
0.0
  0
VERTEX
  5
2FB
330
2FA
100
AcDbEntity
  8
Calque 1
 62
   193
420
 10040268
370
    50
100
AcDbVertex
100
AcDb2dVertex
 10
540.4225686311704
 20
2163.73786702634
 30
0.0
  0
VERTEX
  5
2FC
330
2FA
100
AcDbEntity
  8
Calque 1
 62
   193
420
 10040268
370
    50
100
AcDbVertex
100
AcDb2dVertex
 10
540.4450478792116
 20
2163.746307510279
 30
0.0
  0
VERTEX
  5
2FD
330
2FA
100
AcDbEntity
  8
Calque 1
 62
   193
420
 10040268
370
    50
100
AcDbVertex
100
AcDb2dVertex
 10
540.5137344704489
 20
2163.780758465131
 30
0.0
  0
VERTEX
  5
2FE
330
2FA
100
AcDbEntity
  8
Calque 1
 62
   193
420
 10040268
370
    50
100
AcDbVertex
100
AcDb2dVertex
 10
540.5287206358097
 20
2163.790749242039
 30
0.0
  0
VERTEX
  5
2FF
330
2FA
100
AcDbEntity
  8
Calque 1
 62
   193
420
 10040268
370
    50
100
AcDbVertex
100
AcDb2dVertex
 10
540.5769950362967
 20
2163.834846464249
 30
0.0
  0
VERTEX
  5
300
330
2FA
100
AcDbEntity
  8
Calque 1
 62
   193
420
 10040268
370
    50
100
AcDbVertex
100
AcDb2dVertex
 10
540.598483819386
 20
2163.86636908794
 30
0.0
  0
VERTEX
  5
301
330
2FA
100
AcDbEntity
  8
Calque 1
 62
   193
420
 10040268
370
    50
100
AcDbVertex
100
AcDb2dVertex
 10
540.6132116025855
 20
2163.900647788018
 30
0.0
  0
VERTEX
  5
302
330
2FA
100
AcDbEntity
  8
Calque 1
 62
   193
420
 10040268
370
    50
100
AcDbVertex
100
AcDb2dVertex
 10
540.6224272330085
 20
2163.960592449461
 30
0.0
  0
VERTEX
  5
303
330
2FA
100
AcDbEntity
  8
Calque 1
 62
   193
420
 10040268
370
    50
100
AcDbVertex
100
AcDb2dVertex
 10
540.6221688508471
 20
2163.976439888694
 30
0.0
  0
VERTEX
  5
304
330
2FA
100
AcDbEntity
  8
Calque 1
 62
   193
420
 10040268
370
    50
100
AcDbVertex
100
AcDb2dVertex
 10
540.6099387618744
 20
2164.048614639109
 30
0.0
  0
VERTEX
  5
305
330
2FA
100
AcDbEntity
  8
Calque 1
 62
   193
420
 10040268
370
    50
100
AcDbVertex
100
AcDb2dVertex
 10
540.6061060931471
 20
2164.061361492405
 30
0.0
  0
VERTEX
  5
306
330
2FA
100
AcDbEntity
  8
Calque 1
 62
   193
420
 10040268
370
    50
100
AcDbVertex
100
AcDb2dVertex
 10
540.588966743108
 20
2164.107009007585
 30
0.0
  0
VERTEX
  5
307
330
2FA
100
AcDbEntity
  8
Calque 1
 62
   193
420
 10040268
370
    50
100
AcDbVertex
100
AcDb2dVertex
 10
540.5660137944375
 20
2164.15369005141
 30
0.0
  0
VERTEX
  5
308
330
2FA
100
AcDbEntity
  8
Calque 1
 62
   193
420
 10040268
370
    50
100
AcDbVertex
100
AcDb2dVertex
 10
540.5469365781879
 20
2164.186935222842
 30
0.0
  0
VERTEX
  5
309
330
2FA
100
AcDbEntity
  8
Calque 1
 62
   193
420
 10040268
370
    50
100
AcDbVertex
100
AcDb2dVertex
 10
540.5041312667837
 20
2164.25066948932
 30
0.0
  0
VERTEX
  5
30A
330
2FA
100
AcDbEntity
  8
Calque 1
 62
   193
420
 10040268
370
    50
100
AcDbVertex
100
AcDb2dVertex
 10
540.4720488150773
 20
2164.292527399465
 30
0.0
  0
VERTEX
  5
30B
330
2FA
100
AcDbEntity
  8
Calque 1
 62
   193
420
 10040268
370
    50
100
AcDbVertex
100
AcDb2dVertex
 10
540.4225686311704
 20
2164.351094022714
 30
0.0
  0
SEQEND
  5
30C
330
2FA
100
AcDbEntity
  8
Calque 1
 62
   193
420
 10040268
370
    50
  0
POLYLINE
  5
30D
330
1F
100
AcDbEntity
  8
Calque 1
 62
   193
420
 10040268
370
    50
100
AcDb2dPolyline
 66
     1
 10
0.0
 20
0.0
 30
0.0
  0
VERTEX
  5
30E
330
30D
100
AcDbEntity
  8
Calque 1
 62
   193
420
 10040268
370
    50
100
AcDbVertex
100
AcDb2dVertex
 10
540.2559121370715
 20
2163.933031685579
 30
0.0
  0
VERTEX
  5
30F
330
30D
100
AcDbEntity
  8
Calque 1
 62
   193
420
 10040268
370
    50
100
AcDbVertex
100
AcDb2dVertex
 10
540.2579791943626
 20
2163.918390029767
 30
0.0
  0
VERTEX
  5
310
330
30D
100
AcDbEntity
  8
Calque 1
 62
   193
420
 10040268
370
    50
100
AcDbVertex
100
AcDb2dVertex
 10
540.2640081114617
 20
2163.891518284982
 30
0.0
  0
VERTEX
  5
311
330
30D
100
AcDbEntity
  8
Calque 1
 62
   193
420
 10040268
370
    50
100
AcDbVertex
100
AcDb2dVertex
 10
540.273008423417
 20
2163.865507814068
 30
0.0
  0
VERTEX
  5
312
330
30D
100
AcDbEntity
  8
Calque 1
 62
   193
420
 10040268
370
    50
100
AcDbVertex
100
AcDb2dVertex
 10
540.2767980284508
 20
2163.856895075355
 30
0.0
  0
VERTEX
  5
313
330
30D
100
AcDbEntity
  8
Calque 1
 62
   193
420
 10040268
370
    50
100
AcDbVertex
100
AcDb2dVertex
 10
540.2897171365205
 20
2163.832607152184
 30
0.0
  0
VERTEX
  5
314
330
30D
100
AcDbEntity
  8
Calque 1
 62
   193
420
 10040268
370
    50
100
AcDbVertex
100
AcDb2dVertex
 10
540.2947986523612
 20
2163.824683432568
 30
0.0
  0
VERTEX
  5
315
330
30D
100
AcDbEntity
  8
Calque 1
 62
   193
420
 10040268
370
    50
100
AcDbVertex
100
AcDb2dVertex
 10
540.3112489833032
 20
2163.802634821463
 30
0.0
  0
VERTEX
  5
316
330
30D
100
AcDbEntity
  8
Calque 1
 62
   193
420
 10040268
370
    50
100
AcDbVertex
100
AcDb2dVertex
 10
540.3169333908539
 20
2163.796261394815
 30
0.0
  0
VERTEX
  5
317
330
30D
100
AcDbEntity
  8
Calque 1
 62
   193
420
 10040268
370
    50
100
AcDbVertex
100
AcDb2dVertex
 10
540.3368718809749
 20
2163.777313369646
 30
0.0
  0
VERTEX
  5
318
330
30D
100
AcDbEntity
  8
Calque 1
 62
   193
420
 10040268
370
    50
100
AcDbVertex
100
AcDb2dVertex
 10
540.3421256515899
 20
2163.773179255064
 30
0.0
  0
VERTEX
  5
319
330
30D
100
AcDbEntity
  8
Calque 1
 62
   193
420
 10040268
370
    50
100
AcDbVertex
100
AcDb2dVertex
 10
540.3649494091796
 20
2163.757848580155
 30
0.0
  0
VERTEX
  5
31A
330
30D
100
AcDbEntity
  8
Calque 1
 62
   193
420
 10040268
370
    50
100
AcDbVertex
100
AcDb2dVertex
 10
540.3703323708753
 20
2163.754920248992
 30
0.0
  0
VERTEX
  5
31B
330
30D
100
AcDbEntity
  8
Calque 1
 62
   193
420
 10040268
370
    50
100
AcDbVertex
100
AcDb2dVertex
 10
540.395739950079
 20
2163.744068198213
 30
0.0
  0
VERTEX
  5
31C
330
30D
100
AcDbEntity
  8
Calque 1
 62
   193
420
 10040268
370
    50
100
AcDbVertex
100
AcDb2dVertex
 10
540.4225686311704
 20
2163.73786702634
 30
0.0
  0
SEQEND
  5
31D
330
30D
100
AcDbEntity
  8
Calque 1
 62
   193
420
 10040268
370
    50
  0
POLYLINE
  5
31E
330
1F
100
AcDbEntity
  8
Calque 1
 62
   193
420
 10040268
370
    50
100
AcDb2dPolyline
 66
     1
 10
0.0
 20
0.0
 30
0.0
  0
VERTEX
  5
31F
330
31E
100
AcDbEntity
  8
Calque 1
 62
   193
420
 10040268
370
    50
100
AcDbVertex
100
AcDb2dVertex
 10
540.2225808382517
 20
2163.933031685579
 30
0.0
  0
VERTEX
  5
320
330
31E
100
AcDbEntity
  8
Calque 1
 62
   193
420
 10040268
370
    50
100
AcDbVertex
100
AcDb2dVertex
 10
540.223140666268
 20
2163.918390029767
 30
0.0
  0
VERTEX
  5
321
330
31E
100
AcDbEntity
  8
Calque 1
 62
   193
420
 10040268
370
    50
100
AcDbVertex
100
AcDb2dVertex
 10
540.228006863641
 20
2163.887728679948
 30
0.0
  0
VERTEX
  5
322
330
31E
100
AcDbEntity
  8
Calque 1
 62
   193
420
 10040268
370
    50
100
AcDbVertex
100
AcDb2dVertex
 10
540.2377823220803
 20
2163.858273113549
 30
0.0
  0
VERTEX
  5
323
330
31E
100
AcDbEntity
  8
Calque 1
 62
   193
420
 10040268
370
    50
100
AcDbVertex
100
AcDb2dVertex
 10
540.2442418761152
 20
2163.844664986383
 30
0.0
  0
VERTEX
  5
324
330
31E
100
AcDbEntity
  8
Calque 1
 62
   193
420
 10040268
370
    50
100
AcDbVertex
100
AcDb2dVertex
 10
540.2607352707508
 20
2163.81831000592
 30
0.0
  0
VERTEX
  5
325
330
31E
100
AcDbEntity
  8
Calque 1
 62
   193
420
 10040268
370
    50
100
AcDbVertex
100
AcDb2dVertex
 10
540.281147461501
 20
2163.795055611395
 30
0.0
  0
VERTEX
  5
326
330
31E
100
AcDbEntity
  8
Calque 1
 62
   193
420
 10040268
370
    50
100
AcDbVertex
100
AcDb2dVertex
 10
540.2929469135379
 20
2163.784375815391
 30
0.0
  0
VERTEX
  5
327
330
31E
100
AcDbEntity
  8
Calque 1
 62
   193
420
 10040268
370
    50
100
AcDbVertex
100
AcDb2dVertex
 10
540.318225301661
 20
2163.766461318868
 30
0.0
  0
VERTEX
  5
328
330
31E
100
AcDbEntity
  8
Calque 1
 62
   193
420
 10040268
370
    50
100
AcDbVertex
100
AcDb2dVertex
 10
540.3460444477043
 20
2163.752680936926
 30
0.0
  0
VERTEX
  5
329
330
31E
100
AcDbEntity
  8
Calque 1
 62
   193
420
 10040268
370
    50
100
AcDbVertex
100
AcDb2dVertex
 10
540.3615043136944
 20
2163.74716878415
 30
0.0
  0
VERTEX
  5
32A
330
31E
100
AcDbEntity
  8
Calque 1
 62
   193
420
 10040268
370
    50
100
AcDbVertex
100
AcDb2dVertex
 10
540.3917350265774
 20
2163.740278593179
 30
0.0
  0
VERTEX
  5
32B
330
31E
100
AcDbEntity
  8
Calque 1
 62
   193
420
 10040268
370
    50
100
AcDbVertex
100
AcDb2dVertex
 10
540.4225686311704
 20
2163.73786702634
 30
0.0
  0
SEQEND
  5
32C
330
31E
100
AcDbEntity
  8
Calque 1
 62
   193
420
 10040268
370
    50
  0
POLYLINE
  5
32D
330
1F
100
AcDbEntity
  8
Calque 1
 62
   193
420
 10040268
370
    50
100
AcDb2dPolyline
 66
     1
 10
0.0
 20
0.0
 30
0.0
  0
VERTEX
  5
32E
330
32D
100
AcDbEntity
  8
Calque 1
 62
   193
420
 10040268
370
    50
100
AcDbVertex
100
AcDb2dVertex
 10
540.4225686311704
 20
2164.351094022714
 30
0.0
  0
VERTEX
  5
32F
330
32D
100
AcDbEntity
  8
Calque 1
 62
   193
420
 10040268
370
    50
100
AcDbVertex
100
AcDb2dVertex
 10
540.4020272493397
 20
2164.35212755136
 30
0.0
  0
VERTEX
  5
330
330
32D
100
AcDbEntity
  8
Calque 1
 62
   193
420
 10040268
370
    50
100
AcDbVertex
100
AcDb2dVertex
 10
540.3736913389735
 20
2164.356089411168
 30
0.0
  0
VERTEX
  5
331
330
32D
100
AcDbEntity
  8
Calque 1
 62
   193
420
 10040268
370
    50
100
AcDbVertex
100
AcDb2dVertex
 10
540.3460444477043
 20
2164.363668621236
 30
0.0
  0
VERTEX
  5
332
330
32D
100
AcDbEntity
  8
Calque 1
 62
   193
420
 10040268
370
    50
100
AcDbVertex
100
AcDb2dVertex
 10
540.3300247536979
 20
2164.369869793109
 30
0.0
  0
VERTEX
  5
333
330
32D
100
AcDbEntity
  8
Calque 1
 62
   193
420
 10040268
370
    50
100
AcDbVertex
100
AcDb2dVertex
 10
540.304531047107
 20
2164.382788901179
 30
0.0
  0
VERTEX
  5
334
330
32D
100
AcDbEntity
  8
Calque 1
 62
   193
420
 10040268
370
    50
100
AcDbVertex
100
AcDb2dVertex
 10
540.281147461501
 20
2164.399325359508
 30
0.0
  0
VERTEX
  5
335
330
32D
100
AcDbEntity
  8
Calque 1
 62
   193
420
 10040268
370
    50
100
AcDbVertex
100
AcDb2dVertex
 10
540.2722763406264
 20
2164.40707682435
 30
0.0
  0
VERTEX
  5
336
330
32D
100
AcDbEntity
  8
Calque 1
 62
   193
420
 10040268
370
    50
100
AcDbVertex
100
AcDb2dVertex
 10
540.2530268696025
 20
2164.428436416358
 30
0.0
  0
VERTEX
  5
337
330
32D
100
AcDbEntity
  8
Calque 1
 62
   193
420
 10040268
370
    50
100
AcDbVertex
100
AcDb2dVertex
 10
540.2377823220803
 20
2164.452724339529
 30
0.0
  0
VERTEX
  5
338
330
32D
100
AcDbEntity
  8
Calque 1
 62
   193
420
 10040268
370
    50
100
AcDbVertex
100
AcDb2dVertex
 10
540.2344664176758
 20
2164.459786785274
 30
0.0
  0
VERTEX
  5
339
330
32D
100
AcDbEntity
  8
Calque 1
 62
   193
420
 10040268
370
    50
100
AcDbVertex
100
AcDb2dVertex
 10
540.2256383604948
 20
2164.487175294382
 30
0.0
  0
VERTEX
  5
33A
330
32D
100
AcDbEntity
  8
Calque 1
 62
   193
420
 10040268
370
    50
100
AcDbVertex
100
AcDb2dVertex
 10
540.2225808382517
 20
2164.515597332135
 30
0.0
  0
SEQEND
  5
33B
330
32D
100
AcDbEntity
  8
Calque 1
 62
   193
420
 10040268
370
    50
  0
POLYLINE
  5
33C
330
1F
100
AcDbEntity
  8
Calque 1
 62
   193
420
 10040268
370
    50
100
AcDb2dPolyline
 66
     1
 10
0.0
 20
0.0
 30
0.0
  0
VERTEX
  5
33D
330
33C
100
AcDbEntity
  8
Calque 1
 62
   193
420
 10040268
370
    50
100
AcDbVertex
100
AcDb2dVertex
 10
540.4225686311704
 20
2164.351094022714
 30
0.0
  0
VERTEX
  5
33E
330
33C
100
AcDbEntity
  8
Calque 1
 62
   193
420
 10040268
370
    50
100
AcDbVertex
100
AcDb2dVertex
 10
540.4069365104061
 20
2164.347476672455
 30
0.0
  0
VERTEX
  5
33F
330
33C
100
AcDbEntity
  8
Calque 1
 62
   193
420
 10040268
370
    50
100
AcDbVertex
100
AcDb2dVertex
 10
540.377007243378
 20
2164.342998048324
 30
0.0
  0
VERTEX
  5
340
330
33C
100
AcDbEntity
  8
Calque 1
 62
   193
420
 10040268
370
    50
100
AcDbVertex
100
AcDb2dVertex
 10
540.3469918489627
 20
2164.343687067421
 30
0.0
  0
VERTEX
  5
341
330
33C
100
AcDbEntity
  8
Calque 1
 62
   193
420
 10040268
370
    50
100
AcDbVertex
100
AcDb2dVertex
 10
540.3391973204274
 20
2164.345065105615
 30
0.0
  0
VERTEX
  5
342
330
33C
100
AcDbEntity
  8
Calque 1
 62
   193
420
 10040268
370
    50
100
AcDbVertex
100
AcDb2dVertex
 10
540.3106030278998
 20
2164.354194608651
 30
0.0
  0
VERTEX
  5
343
330
33C
100
AcDbEntity
  8
Calque 1
 62
   193
420
 10040268
370
    50
100
AcDbVertex
100
AcDb2dVertex
 10
540.3044879834135
 20
2164.357295194588
 30
0.0
  0
VERTEX
  5
344
330
33C
100
AcDbEntity
  8
Calque 1
 62
   193
420
 10040268
370
    50
100
AcDbVertex
100
AcDb2dVertex
 10
540.2802861876296
 20
2164.375037436337
 30
0.0
  0
VERTEX
  5
345
330
33C
100
AcDbEntity
  8
Calque 1
 62
   193
420
 10040268
370
    50
100
AcDbVertex
100
AcDb2dVertex
 10
540.2755061176438
 20
2164.38003282479
 30
0.0
  0
VERTEX
  5
346
330
33C
100
AcDbEntity
  8
Calque 1
 62
   193
420
 10040268
370
    50
100
AcDbVertex
100
AcDb2dVertex
 10
540.2589696593146
 20
2164.405182021833
 30
0.0
  0
VERTEX
  5
347
330
33C
100
AcDbEntity
  8
Calque 1
 62
   193
420
 10040268
370
    50
100
AcDbVertex
100
AcDb2dVertex
 10
540.2559982644586
 20
2164.411899958029
 30
0.0
  0
VERTEX
  5
348
330
33C
100
AcDbEntity
  8
Calque 1
 62
   193
420
 10040268
370
    50
100
AcDbVertex
100
AcDb2dVertex
 10
540.2484621180846
 20
2164.441011014879
 30
0.0
  0
VERTEX
  5
349
330
33C
100
AcDbEntity
  8
Calque 1
 62
   193
420
 10040268
370
    50
100
AcDbVertex
100
AcDb2dVertex
 10
540.2472132709712
 20
2164.45599718024
 30
0.0
  0
VERTEX
  5
34A
330
33C
100
AcDbEntity
  8
Calque 1
 62
   193
420
 10040268
370
    50
100
AcDbVertex
100
AcDb2dVertex
 10
540.2491511371817
 20
2164.486141765736
 30
0.0
  0
VERTEX
  5
34B
330
33C
100
AcDbEntity
  8
Calque 1
 62
   193
420
 10040268
370
    50
100
AcDbVertex
100
AcDb2dVertex
 10
540.2559121370715
 20
2164.515597332135
 30
0.0
  0
SEQEND
  5
34C
330
33C
100
AcDbEntity
  8
Calque 1
 62
   193
420
 10040268
370
    50
  0
POLYLINE
  5
34D
330
1F
100
AcDbEntity
  8
Calque 1
 62
   193
420
 10040268
370
    50
100
AcDb2dPolyline
 66
     1
 10
0.0
 20
0.0
 30
0.0
  0
VERTEX
  5
34E
330
34D
100
AcDbEntity
  8
Calque 1
 62
   193
420
 10040268
370
    50
100
AcDbVertex
100
AcDb2dVertex
 10
540.2559121370715
 20
2223.186606974585
 30
0.0
  0
VERTEX
  5
34F
330
34D
100
AcDbEntity
  8
Calque 1
 62
   193
420
 10040268
370
    50
100
AcDbVertex
100
AcDb2dVertex
 10
540.2533283154576
 20
2223.203832452012
 30
0.0
  0
VERTEX
  5
350
330
34D
100
AcDbEntity
  8
Calque 1
 62
   193
420
 10040268
370
    50
100
AcDbVertex
100
AcDb2dVertex
 10
540.2516488314085
 20
2223.233977037507
 30
0.0
  0
VERTEX
  5
351
330
34D
100
AcDbEntity
  8
Calque 1
 62
   193
420
 10040268
370
    50
100
AcDbVertex
100
AcDb2dVertex
 10
540.254577162571
 20
2223.263949368229
 30
0.0
  0
VERTEX
  5
352
330
34D
100
AcDbEntity
  8
Calque 1
 62
   193
420
 10040268
370
    50
100
AcDbVertex
100
AcDb2dVertex
 10
540.2566011561685
 20
2223.273078871265
 30
0.0
  0
VERTEX
  5
353
330
34D
100
AcDbEntity
  8
Calque 1
 62
   193
420
 10040268
370
    50
100
AcDbVertex
100
AcDb2dVertex
 10
540.2668503152371
 20
2223.301328654244
 30
0.0
  0
VERTEX
  5
354
330
34D
100
AcDbEntity
  8
Calque 1
 62
   193
420
 10040268
370
    50
100
AcDbVertex
100
AcDb2dVertex
 10
540.2708121750452
 20
2223.308907864312
 30
0.0
  0
VERTEX
  5
355
330
34D
100
AcDbEntity
  8
Calque 1
 62
   193
420
 10040268
370
    50
100
AcDbVertex
100
AcDb2dVertex
 10
540.2884252257135
 20
2223.333195787483
 30
0.0
  0
VERTEX
  5
356
330
34D
100
AcDbEntity
  8
Calque 1
 62
   193
420
 10040268
370
    50
100
AcDbVertex
100
AcDb2dVertex
 10
540.2934636778607
 20
2223.338363430711
 30
0.0
  0
VERTEX
  5
357
330
34D
100
AcDbEntity
  8
Calque 1
 62
   193
420
 10040268
370
    50
100
AcDbVertex
100
AcDb2dVertex
 10
540.3174501551767
 20
2223.356622436782
 30
0.0
  0
VERTEX
  5
358
330
34D
100
AcDbEntity
  8
Calque 1
 62
   193
420
 10040268
370
    50
100
AcDbVertex
100
AcDb2dVertex
 10
540.323479072276
 20
2223.359895277493
 30
0.0
  0
VERTEX
  5
359
330
34D
100
AcDbEntity
  8
Calque 1
 62
   193
420
 10040268
370
    50
100
AcDbVertex
100
AcDb2dVertex
 10
540.3517719189485
 20
2223.370058309175
 30
0.0
  0
VERTEX
  5
35A
330
34D
100
AcDbEntity
  8
Calque 1
 62
   193
420
 10040268
370
    50
100
AcDbVertex
100
AcDb2dVertex
 10
540.3624086512592
 20
2223.371953111692
 30
0.0
  0
VERTEX
  5
35B
330
34D
100
AcDbEntity
  8
Calque 1
 62
   193
420
 10040268
370
    50
100
AcDbVertex
100
AcDb2dVertex
 10
540.3926393641423
 20
2223.372814385563
 30
0.0
  0
VERTEX
  5
35C
330
34D
100
AcDbEntity
  8
Calque 1
 62
   193
420
 10040268
370
    50
100
AcDbVertex
100
AcDb2dVertex
 10
540.4225686311704
 20
2223.368508016207
 30
0.0
  0
SEQEND
  5
35D
330
34D
100
AcDbEntity
  8
Calque 1
 62
   193
420
 10040268
370
    50
  0
POLYLINE
  5
35E
330
1F
100
AcDbEntity
  8
Calque 1
 62
   193
420
 10040268
370
    50
100
AcDb2dPolyline
 66
     1
 10
0.0
 20
0.0
 30
0.0
  0
VERTEX
  5
35F
330
35E
100
AcDbEntity
  8
Calque 1
 62
   193
420
 10040268
370
    50
100
AcDbVertex
100
AcDb2dVertex
 10
540.2225808382517
 20
2223.186606974585
 30
0.0
  0
VERTEX
  5
360
330
35E
100
AcDbEntity
  8
Calque 1
 62
   193
420
 10040268
370
    50
100
AcDbVertex
100
AcDb2dVertex
 10
540.2229684114938
 20
2223.198320299235
 30
0.0
  0
VERTEX
  5
361
330
35E
100
AcDbEntity
  8
Calque 1
 62
   193
420
 10040268
370
    50
100
AcDbVertex
100
AcDb2dVertex
 10
540.2278346088667
 20
2223.227775865634
 30
0.0
  0
VERTEX
  5
362
330
35E
100
AcDbEntity
  8
Calque 1
 62
   193
420
 10040268
370
    50
100
AcDbVertex
100
AcDb2dVertex
 10
540.2377823220803
 20
2223.256197903388
 30
0.0
  0
VERTEX
  5
363
330
35E
100
AcDbEntity
  8
Calque 1
 62
   193
420
 10040268
370
    50
100
AcDbVertex
100
AcDb2dVertex
 10
540.2439404302602
 20
2223.26842799236
 30
0.0
  0
VERTEX
  5
364
330
35E
100
AcDbEntity
  8
Calque 1
 62
   193
420
 10040268
370
    50
100
AcDbVertex
100
AcDb2dVertex
 10
540.2606491433637
 20
2223.293404934628
 30
0.0
  0
VERTEX
  5
365
330
35E
100
AcDbEntity
  8
Calque 1
 62
   193
420
 10040268
370
    50
100
AcDbVertex
100
AcDb2dVertex
 10
540.281147461501
 20
2223.315281290959
 30
0.0
  0
VERTEX
  5
366
330
35E
100
AcDbEntity
  8
Calque 1
 62
   193
420
 10040268
370
    50
100
AcDbVertex
100
AcDb2dVertex
 10
540.2937220600221
 20
2223.32578883219
 30
0.0
  0
VERTEX
  5
367
330
35E
100
AcDbEntity
  8
Calque 1
 62
   193
420
 10040268
370
    50
100
AcDbVertex
100
AcDb2dVertex
 10
540.3187851296773
 20
2223.342153035745
 30
0.0
  0
VERTEX
  5
368
330
35E
100
AcDbEntity
  8
Calque 1
 62
   193
420
 10040268
370
    50
100
AcDbVertex
100
AcDb2dVertex
 10
540.3460444477043
 20
2223.354727634266
 30
0.0
  0
VERTEX
  5
369
330
35E
100
AcDbEntity
  8
Calque 1
 62
   193
420
 10040268
370
    50
100
AcDbVertex
100
AcDb2dVertex
 10
540.3633991162112
 20
2223.360412041816
 30
0.0
  0
VERTEX
  5
36A
330
35E
100
AcDbEntity
  8
Calque 1
 62
   193
420
 10040268
370
    50
100
AcDbVertex
100
AcDb2dVertex
 10
540.3927254915294
 20
2223.366440958916
 30
0.0
  0
VERTEX
  5
36B
330
35E
100
AcDbEntity
  8
Calque 1
 62
   193
420
 10040268
370
    50
100
AcDbVertex
100
AcDb2dVertex
 10
540.4225686311704
 20
2223.368508016207
 30
0.0
  0
SEQEND
  5
36C
330
35E
100
AcDbEntity
  8
Calque 1
 62
   193
420
 10040268
370
    50
  0
POLYLINE
  5
36D
330
1F
100
AcDbEntity
  8
Calque 1
 62
   193
420
 10040268
370
    50
100
AcDb2dPolyline
 66
     1
 10
0.0
 20
0.0
 30
0.0
  0
VERTEX
  5
36E
330
36D
100
AcDbEntity
  8
Calque 1
 62
   193
420
 10040268
370
    50
100
AcDbVertex
100
AcDb2dVertex
 10
540.3316181103598
 20
2223.439649237977
 30
0.0
  0
VERTEX
  5
36F
330
36D
100
AcDbEntity
  8
Calque 1
 62
   193
420
 10040268
370
    50
100
AcDbVertex
100
AcDb2dVertex
 10
540.3321348746827
 20
2223.454807658112
 30
0.0
  0
VERTEX
  5
370
330
36D
100
AcDbEntity
  8
Calque 1
 62
   193
420
 10040268
370
    50
100
AcDbVertex
100
AcDb2dVertex
 10
540.3362259255714
 20
2223.484435479285
 30
0.0
  0
VERTEX
  5
371
330
36D
100
AcDbEntity
  8
Calque 1
 62
   193
420
 10040268
370
    50
100
AcDbVertex
100
AcDb2dVertex
 10
540.3444080273488
 20
2223.513374281361
 30
0.0
  0
VERTEX
  5
372
330
36D
100
AcDbEntity
  8
Calque 1
 62
   193
420
 10040268
370
    50
100
AcDbVertex
100
AcDb2dVertex
 10
540.351814982642
 20
2223.531288777885
 30
0.0
  0
VERTEX
  5
373
330
36D
100
AcDbEntity
  8
Calque 1
 62
   193
420
 10040268
370
    50
100
AcDbVertex
100
AcDb2dVertex
 10
540.366499702148
 20
2223.557471503573
 30
0.0
  0
VERTEX
  5
374
330
36D
100
AcDbEntity
  8
Calque 1
 62
   193
420
 10040268
370
    50
100
AcDbVertex
100
AcDb2dVertex
 10
540.3848878993005
 20
2223.581070407647
 30
0.0
  0
VERTEX
  5
375
330
36D
100
AcDbEntity
  8
Calque 1
 62
   193
420
 10040268
370
    50
100
AcDbVertex
100
AcDb2dVertex
 10
540.3965150965632
 20
2223.592783732297
 30
0.0
  0
VERTEX
  5
376
330
36D
100
AcDbEntity
  8
Calque 1
 62
   193
420
 10040268
370
    50
100
AcDbVertex
100
AcDb2dVertex
 10
540.4201570643307
 20
2223.611387247917
 30
0.0
  0
VERTEX
  5
377
330
36D
100
AcDbEntity
  8
Calque 1
 62
   193
420
 10040268
370
    50
100
AcDbVertex
100
AcDb2dVertex
 10
540.4465120447929
 20
2223.625684394181
 30
0.0
  0
VERTEX
  5
378
330
36D
100
AcDbEntity
  8
Calque 1
 62
   193
420
 10040268
370
    50
100
AcDbVertex
100
AcDb2dVertex
 10
540.4546941465704
 20
2223.628957234891
 30
0.0
  0
VERTEX
  5
379
330
36D
100
AcDbEntity
  8
Calque 1
 62
   193
420
 10040268
370
    50
100
AcDbVertex
100
AcDb2dVertex
 10
540.4836760123401
 20
2223.637053209282
 30
0.0
  0
VERTEX
  5
37A
330
36D
100
AcDbEntity
  8
Calque 1
 62
   193
420
 10040268
370
    50
100
AcDbVertex
100
AcDb2dVertex
 10
540.5134330245938
 20
2223.639637030896
 30
0.0
  0
SEQEND
  5
37B
330
36D
100
AcDbEntity
  8
Calque 1
 62
   193
420
 10040268
370
    50
  0
POLYLINE
  5
37C
330
1F
100
AcDbEntity
  8
Calque 1
 62
   193
420
 10040268
370
    50
100
AcDb2dPolyline
 66
     1
 10
0.0
 20
0.0
 30
0.0
  0
VERTEX
  5
37D
330
37C
100
AcDbEntity
  8
Calque 1
 62
   193
420
 10040268
370
    50
100
AcDbVertex
100
AcDb2dVertex
 10
540.2559121370715
 20
2169.833618977941
 30
0.0
  0
VERTEX
  5
37E
330
37C
100
AcDbEntity
  8
Calque 1
 62
   193
420
 10040268
370
    50
100
AcDbVertex
100
AcDb2dVertex
 10
540.2780899392577
 20
2169.836375054329
 30
0.0
  0
VERTEX
  5
37F
330
37C
100
AcDbEntity
  8
Calque 1
 62
   193
420
 10040268
370
    50
100
AcDbVertex
100
AcDb2dVertex
 10
540.3302831358593
 20
2169.83964789504
 30
0.0
  0
VERTEX
  5
380
330
37C
100
AcDbEntity
  8
Calque 1
 62
   193
420
 10040268
370
    50
100
AcDbVertex
100
AcDb2dVertex
 10
540.3595233837904
 20
2169.838269856846
 30
0.0
  0
VERTEX
  5
381
330
37C
100
AcDbEntity
  8
Calque 1
 62
   193
420
 10040268
370
    50
100
AcDbVertex
100
AcDb2dVertex
 10
540.3834667974129
 20
2169.833274468393
 30
0.0
  0
VERTEX
  5
382
330
37C
100
AcDbEntity
  8
Calque 1
 62
   193
420
 10040268
370
    50
100
AcDbVertex
100
AcDb2dVertex
 10
540.3923379182874
 20
2169.829829372907
 30
0.0
  0
VERTEX
  5
383
330
37C
100
AcDbEntity
  8
Calque 1
 62
   193
420
 10040268
370
    50
100
AcDbVertex
100
AcDb2dVertex
 10
540.4142573383123
 20
2169.812431640707
 30
0.0
  0
VERTEX
  5
384
330
37C
100
AcDbEntity
  8
Calque 1
 62
   193
420
 10040268
370
    50
100
AcDbVertex
100
AcDb2dVertex
 10
540.4223963763961
 20
2169.785559895922
 30
0.0
  0
VERTEX
  5
385
330
37C
100
AcDbEntity
  8
Calque 1
 62
   193
420
 10040268
370
    50
100
AcDbVertex
100
AcDb2dVertex
 10
540.4223533127026
 20
2169.776258138112
 30
0.0
  0
VERTEX
  5
386
330
37C
100
AcDbEntity
  8
Calque 1
 62
   193
420
 10040268
370
    50
100
AcDbVertex
100
AcDb2dVertex
 10
540.4180900070396
 20
2169.752314724489
 30
0.0
  0
VERTEX
  5
387
330
37C
100
AcDbEntity
  8
Calque 1
 62
   193
420
 10040268
370
    50
100
AcDbVertex
100
AcDb2dVertex
 10
540.4084868033744
 20
2169.725098470155
 30
0.0
  0
VERTEX
  5
388
330
37C
100
AcDbEntity
  8
Calque 1
 62
   193
420
 10040268
370
    50
100
AcDbVertex
100
AcDb2dVertex
 10
540.4001755105163
 20
2169.706839464084
 30
0.0
  0
VERTEX
  5
389
330
37C
100
AcDbEntity
  8
Calque 1
 62
   193
420
 10040268
370
    50
100
AcDbVertex
100
AcDb2dVertex
 10
540.374423421764
 20
2169.661364203679
 30
0.0
  0
VERTEX
  5
38A
330
37C
100
AcDbEntity
  8
Calque 1
 62
   193
420
 10040268
370
    50
100
AcDbVertex
100
AcDb2dVertex
 10
540.3539251036268
 20
2169.630186089537
 30
0.0
  0
VERTEX
  5
38B
330
37C
100
AcDbEntity
  8
Calque 1
 62
   193
420
 10040268
370
    50
100
AcDbVertex
100
AcDb2dVertex
 10
540.3230914990338
 20
2169.587983669843
 30
0.0
  0
VERTEX
  5
38C
330
37C
100
AcDbEntity
  8
Calque 1
 62
   193
420
 10040268
370
    50
100
AcDbVertex
100
AcDb2dVertex
 10
540.3226608620981
 20
2169.58746690552
 30
0.0
  0
VERTEX
  5
38D
330
37C
100
AcDbEntity
  8
Calque 1
 62
   193
420
 10040268
370
    50
100
AcDbVertex
100
AcDb2dVertex
 10
540.2900185823754
 20
2169.54664252402
 30
0.0
  0
VERTEX
  5
38E
330
37C
100
AcDbEntity
  8
Calque 1
 62
   193
420
 10040268
370
    50
100
AcDbVertex
100
AcDb2dVertex
 10
540.2559121370715
 20
2169.507023925939
 30
0.0
  0
SEQEND
  5
38F
330
37C
100
AcDbEntity
  8
Calque 1
 62
   193
420
 10040268
370
    50
  0
POLYLINE
  5
390
330
1F
100
AcDbEntity
  8
Calque 1
 62
   193
420
 10040268
370
    50
100
AcDb2dPolyline
 66
     1
 10
0.0
 20
0.0
 30
0.0
  0
VERTEX
  5
391
330
390
100
AcDbEntity
  8
Calque 1
 62
   193
420
 10040268
370
    50
100
AcDbVertex
100
AcDb2dVertex
 10
540.2559121370715
 20
2223.186606974585
 30
0.0
  0
VERTEX
  5
392
330
390
100
AcDbEntity
  8
Calque 1
 62
   193
420
 10040268
370
    50
100
AcDbVertex
100
AcDb2dVertex
 10
540.2600031879603
 20
2223.190052070071
 30
0.0
  0
VERTEX
  5
393
330
390
100
AcDbEntity
  8
Calque 1
 62
   193
420
 10040268
370
    50
100
AcDbVertex
100
AcDb2dVertex
 10
540.2891142448105
 20
2223.215029012339
 30
0.0
  0
VERTEX
  5
394
330
390
100
AcDbEntity
  8
Calque 1
 62
   193
420
 10040268
370
    50
100
AcDbVertex
100
AcDb2dVertex
 10
540.3173209640961
 20
2223.241039483252
 30
0.0
  0
VERTEX
  5
395
330
390
100
AcDbEntity
  8
Calque 1
 62
   193
420
 10040268
370
    50
100
AcDbVertex
100
AcDb2dVertex
 10
540.3394557025888
 20
2223.262915839583
 30
0.0
  0
VERTEX
  5
396
330
390
100
AcDbEntity
  8
Calque 1
 62
   193
420
 10040268
370
    50
100
AcDbVertex
100
AcDb2dVertex
 10
540.3654661735025
 20
2223.291165622563
 30
0.0
  0
VERTEX
  5
397
330
390
100
AcDbEntity
  8
Calque 1
 62
   193
420
 10040268
370
    50
100
AcDbVertex
100
AcDb2dVertex
 10
540.3769641796845
 20
2223.304946004504
 30
0.0
  0
VERTEX
  5
398
330
390
100
AcDbEntity
  8
Calque 1
 62
   193
420
 10040268
370
    50
100
AcDbVertex
100
AcDb2dVertex
 10
540.3996156825
 20
2223.335779609097
 30
0.0
  0
VERTEX
  5
399
330
390
100
AcDbEntity
  8
Calque 1
 62
   193
420
 10040268
370
    50
100
AcDbVertex
100
AcDb2dVertex
 10
540.4017258034846
 20
2223.339052449808
 30
0.0
  0
VERTEX
  5
39A
330
390
100
AcDbEntity
  8
Calque 1
 62
   193
420
 10040268
370
    50
100
AcDbVertex
100
AcDb2dVertex
 10
540.4187359624431
 20
2223.37350340466
 30
0.0
  0
VERTEX
  5
39B
330
390
100
AcDbEntity
  8
Calque 1
 62
   193
420
 10040268
370
    50
100
AcDbVertex
100
AcDb2dVertex
 10
540.419941745863
 20
2223.377293009694
 30
0.0
  0
VERTEX
  5
39C
330
390
100
AcDbEntity
  8
Calque 1
 62
   193
420
 10040268
370
    50
100
AcDbVertex
100
AcDb2dVertex
 10
540.4217504209927
 20
2223.402958971059
 30
0.0
  0
VERTEX
  5
39D
330
390
100
AcDbEntity
  8
Calque 1
 62
   193
420
 10040268
370
    50
100
AcDbVertex
100
AcDb2dVertex
 10
540.4081853575195
 20
2223.423801798745
 30
0.0
  0
VERTEX
  5
39E
330
390
100
AcDbEntity
  8
Calque 1
 62
   193
420
 10040268
370
    50
100
AcDbVertex
100
AcDb2dVertex
 10
540.3822179502995
 20
2223.434998359072
 30
0.0
  0
VERTEX
  5
39F
330
390
100
AcDbEntity
  8
Calque 1
 62
   193
420
 10040268
370
    50
100
AcDbVertex
100
AcDb2dVertex
 10
540.3781699631043
 20
2223.435859632943
 30
0.0
  0
VERTEX
  5
3A0
330
390
100
AcDbEntity
  8
Calque 1
 62
   193
420
 10040268
370
    50
100
AcDbVertex
100
AcDb2dVertex
 10
540.3698586702461
 20
2223.437237671137
 30
0.0
  0
VERTEX
  5
3A1
330
390
100
AcDbEntity
  8
Calque 1
 62
   193
420
 10040268
370
    50
100
AcDbVertex
100
AcDb2dVertex
 10
540.3316181103598
 20
2223.439649237977
 30
0.0
  0
SEQEND
  5
3A2
330
390
100
AcDbEntity
  8
Calque 1
 62
   193
420
 10040268
370
    50
  0
POLYLINE
  5
3A3
330
1F
100
AcDbEntity
  8
Calque 1
 62
   193
420
 10040268
370
    50
100
AcDb2dPolyline
 66
     1
 10
0.0
 20
0.0
 30
0.0
  0
VERTEX
  5
3A4
330
3A3
100
AcDbEntity
  8
Calque 1
 62
   193
420
 10040268
370
    50
100
AcDbVertex
100
AcDb2dVertex
 10
540.3316181103598
 20
2223.439649237977
 30
0.0
  0
VERTEX
  5
3A5
330
3A3
100
AcDbEntity
  8
Calque 1
 62
   193
420
 10040268
370
    50
100
AcDbVertex
100
AcDb2dVertex
 10
540.3297663715365
 20
2223.439649237977
 30
0.0
  0
VERTEX
  5
3A6
330
3A3
100
AcDbEntity
  8
Calque 1
 62
   193
420
 10040268
370
    50
100
AcDbVertex
100
AcDb2dVertex
 10
540.3221440977754
 20
2223.439649237977
 30
0.0
  0
VERTEX
  5
3A7
330
3A3
100
AcDbEntity
  8
Calque 1
 62
   193
420
 10040268
370
    50
100
AcDbVertex
100
AcDb2dVertex
 10
540.3145648877079
 20
2223.439476983203
 30
0.0
  0
VERTEX
  5
3A8
330
3A3
100
AcDbEntity
  8
Calque 1
 62
   193
420
 10040268
370
    50
100
AcDbVertex
100
AcDb2dVertex
 10
540.3088804801572
 20
2223.439304728428
 30
0.0
  0
VERTEX
  5
3A9
330
3A3
100
AcDbEntity
  8
Calque 1
 62
   193
420
 10040268
370
    50
100
AcDbVertex
100
AcDb2dVertex
 10
540.3013012700897
 20
2223.43896021888
 30
0.0
  0
VERTEX
  5
3AA
330
3A3
100
AcDbEntity
  8
Calque 1
 62
   193
420
 10040268
370
    50
100
AcDbVertex
100
AcDb2dVertex
 10
540.2937220600221
 20
2223.438615709331
 30
0.0
  0
VERTEX
  5
3AB
330
3A3
100
AcDbEntity
  8
Calque 1
 62
   193
420
 10040268
370
    50
100
AcDbVertex
100
AcDb2dVertex
 10
540.2861428499546
 20
2223.438271199783
 30
0.0
  0
VERTEX
  5
3AC
330
3A3
100
AcDbEntity
  8
Calque 1
 62
   193
420
 10040268
370
    50
100
AcDbVertex
100
AcDb2dVertex
 10
540.2786067035805
 20
2223.43775443546
 30
0.0
  0
VERTEX
  5
3AD
330
3A3
100
AcDbEntity
  8
Calque 1
 62
   193
420
 10040268
370
    50
100
AcDbVertex
100
AcDb2dVertex
 10
540.271027493513
 20
2223.437237671137
 30
0.0
  0
VERTEX
  5
3AE
330
3A3
100
AcDbEntity
  8
Calque 1
 62
   193
420
 10040268
370
    50
100
AcDbVertex
100
AcDb2dVertex
 10
540.2634482834454
 20
2223.436720906815
 30
0.0
  0
VERTEX
  5
3AF
330
3A3
100
AcDbEntity
  8
Calque 1
 62
   193
420
 10040268
370
    50
100
AcDbVertex
100
AcDb2dVertex
 10
540.2559121370715
 20
2223.436204142492
 30
0.0
  0
SEQEND
  5
3B0
330
3A3
100
AcDbEntity
  8
Calque 1
 62
   193
420
 10040268
370
    50
  0
POLYLINE
  5
3B1
330
1F
100
AcDbEntity
  8
Calque 1
 62
   193
420
 10040268
370
    50
100
AcDb2dPolyline
 66
     1
 10
0.0
 20
0.0
 30
0.0
  0
VERTEX
  5
3B2
330
3B1
100
AcDbEntity
  8
Calque 1
 62
   193
420
 10040268
370
    50
100
AcDbVertex
100
AcDb2dVertex
 10
540.2559121370715
 20
2165.772368165154
 30
0.0
  0
VERTEX
  5
3B3
330
3B1
100
AcDbEntity
  8
Calque 1
 62
   193
420
 10040268
370
    50
100
AcDbVertex
100
AcDb2dVertex
 10
540.2568595383299
 20
2165.771334636509
 30
0.0
  0
VERTEX
  5
3B4
330
3B1
100
AcDbEntity
  8
Calque 1
 62
   193
420
 10040268
370
    50
100
AcDbVertex
100
AcDb2dVertex
 10
540.2908798562468
 20
2165.731716038428
 30
0.0
  0
VERTEX
  5
3B5
330
3B1
100
AcDbEntity
  8
Calque 1
 62
   193
420
 10040268
370
    50
100
AcDbVertex
100
AcDb2dVertex
 10
540.3235221359695
 20
2165.690719402154
 30
0.0
  0
VERTEX
  5
3B6
330
3B1
100
AcDbEntity
  8
Calque 1
 62
   193
420
 10040268
370
    50
100
AcDbVertex
100
AcDb2dVertex
 10
540.3458291292364
 20
2165.660747071432
 30
0.0
  0
VERTEX
  5
3B7
330
3B1
100
AcDbEntity
  8
Calque 1
 62
   193
420
 10040268
370
    50
100
AcDbVertex
100
AcDb2dVertex
 10
540.3749401860869
 20
2165.617338868318
 30
0.0
  0
VERTEX
  5
3B8
330
3B1
100
AcDbEntity
  8
Calque 1
 62
   193
420
 10040268
370
    50
100
AcDbVertex
100
AcDb2dVertex
 10
540.3941465934171
 20
2165.58426595166
 30
0.0
  0
VERTEX
  5
3B9
330
3B1
100
AcDbEntity
  8
Calque 1
 62
   193
420
 10040268
370
    50
100
AcDbVertex
100
AcDb2dVertex
 10
540.4086590581487
 20
2165.553776856615
 30
0.0
  0
VERTEX
  5
3BA
330
3B1
100
AcDbEntity
  8
Calque 1
 62
   193
420
 10040268
370
    50
100
AcDbVertex
100
AcDb2dVertex
 10
540.4181761344267
 20
2165.526560602282
 30
0.0
  0
VERTEX
  5
3BB
330
3B1
100
AcDbEntity
  8
Calque 1
 62
   193
420
 10040268
370
    50
100
AcDbVertex
100
AcDb2dVertex
 10
540.4223533127026
 20
2165.502961698208
 30
0.0
  0
VERTEX
  5
3BC
330
3B1
100
AcDbEntity
  8
Calque 1
 62
   193
420
 10040268
370
    50
100
AcDbVertex
100
AcDb2dVertex
 10
540.4223533127026
 20
2165.493659940398
 30
0.0
  0
VERTEX
  5
3BD
330
3B1
100
AcDbEntity
  8
Calque 1
 62
   193
420
 10040268
370
    50
100
AcDbVertex
100
AcDb2dVertex
 10
540.4141281472315
 20
2165.466788195612
 30
0.0
  0
VERTEX
  5
3BE
330
3B1
100
AcDbEntity
  8
Calque 1
 62
   193
420
 10040268
370
    50
100
AcDbVertex
100
AcDb2dVertex
 10
540.392079536126
 20
2165.449562718186
 30
0.0
  0
VERTEX
  5
3BF
330
3B1
100
AcDbEntity
  8
Calque 1
 62
   193
420
 10040268
370
    50
100
AcDbVertex
100
AcDb2dVertex
 10
540.3833376063321
 20
2165.446117622701
 30
0.0
  0
VERTEX
  5
3C0
330
3B1
100
AcDbEntity
  8
Calque 1
 62
   193
420
 10040268
370
    50
100
AcDbVertex
100
AcDb2dVertex
 10
540.3593511290161
 20
2165.441122234247
 30
0.0
  0
VERTEX
  5
3C1
330
3B1
100
AcDbEntity
  8
Calque 1
 62
   193
420
 10040268
370
    50
100
AcDbVertex
100
AcDb2dVertex
 10
540.3299386263108
 20
2165.439744196053
 30
0.0
  0
VERTEX
  5
3C2
330
3B1
100
AcDbEntity
  8
Calque 1
 62
   193
420
 10040268
370
    50
100
AcDbVertex
100
AcDb2dVertex
 10
540.3079330788987
 20
2165.44043321515
 30
0.0
  0
VERTEX
  5
3C3
330
3B1
100
AcDbEntity
  8
Calque 1
 62
   193
420
 10040268
370
    50
100
AcDbVertex
100
AcDb2dVertex
 10
540.2559121370715
 20
2165.445773113152
 30
0.0
  0
SEQEND
  5
3C4
330
3B1
100
AcDbEntity
  8
Calque 1
 62
   193
420
 10040268
370
    50
  0
POLYLINE
  5
3C5
330
1F
100
AcDbEntity
  8
Calque 1
 62
   193
420
 10040268
370
    50
100
AcDb2dPolyline
 66
     1
 10
0.0
 20
0.0
 30
0.0
  0
VERTEX
  5
3C6
330
3C5
100
AcDbEntity
  8
Calque 1
 62
   193
420
 10040268
370
    50
100
AcDbVertex
100
AcDb2dVertex
 10
540.2559121370715
 20
2163.933031685579
 30
0.0
  0
VERTEX
  5
3C7
330
3C5
100
AcDbEntity
  8
Calque 1
 62
   193
420
 10040268
370
    50
100
AcDbVertex
100
AcDb2dVertex
 10
540.2707260476581
 20
2163.939232857453
 30
0.0
  0
VERTEX
  5
3C8
330
3C5
100
AcDbEntity
  8
Calque 1
 62
   193
420
 10040268
370
    50
100
AcDbVertex
100
AcDb2dVertex
 10
540.3317903651341
 20
2163.973683812305
 30
0.0
  0
VERTEX
  5
3C9
330
3C5
100
AcDbEntity
  8
Calque 1
 62
   193
420
 10040268
370
    50
100
AcDbVertex
100
AcDb2dVertex
 10
540.3407906770893
 20
2163.980401748502
 30
0.0
  0
VERTEX
  5
3CA
330
3C5
100
AcDbEntity
  8
Calque 1
 62
   193
420
 10040268
370
    50
100
AcDbVertex
100
AcDb2dVertex
 10
540.3846295171392
 20
2164.02518798981
 30
0.0
  0
VERTEX
  5
3CB
330
3C5
100
AcDbEntity
  8
Calque 1
 62
   193
420
 10040268
370
    50
100
AcDbVertex
100
AcDb2dVertex
 10
540.4025009499688
 20
2164.055160320531
 30
0.0
  0
VERTEX
  5
3CC
330
3C5
100
AcDbEntity
  8
Calque 1
 62
   193
420
 10040268
370
    50
100
AcDbVertex
100
AcDb2dVertex
 10
540.4147310389415
 20
2164.087888727641
 30
0.0
  0
VERTEX
  5
3CD
330
3C5
100
AcDbEntity
  8
Calque 1
 62
   193
420
 10040268
370
    50
100
AcDbVertex
100
AcDb2dVertex
 10
540.4225255674769
 20
2164.150761720247
 30
0.0
  0
VERTEX
  5
3CE
330
3C5
100
AcDbEntity
  8
Calque 1
 62
   193
420
 10040268
370
    50
100
AcDbVertex
100
AcDb2dVertex
 10
540.422310249009
 20
2164.159718968509
 30
0.0
  0
VERTEX
  5
3CF
330
3C5
100
AcDbEntity
  8
Calque 1
 62
   193
420
 10040268
370
    50
100
AcDbVertex
100
AcDb2dVertex
 10
540.421621229912
 20
2164.171432293158
 30
0.0
  0
VERTEX
  5
3D0
330
3C5
100
AcDbEntity
  8
Calque 1
 62
   193
420
 10040268
370
    50
100
AcDbVertex
100
AcDb2dVertex
 10
540.408831312923
 20
2164.240334202864
 30
0.0
  0
VERTEX
  5
3D1
330
3C5
100
AcDbEntity
  8
Calque 1
 62
   193
420
 10040268
370
    50
100
AcDbVertex
100
AcDb2dVertex
 10
540.3945341666592
 20
2164.283742405978
 30
0.0
  0
VERTEX
  5
3D2
330
3C5
100
AcDbEntity
  8
Calque 1
 62
   193
420
 10040268
370
    50
100
AcDbVertex
100
AcDb2dVertex
 10
540.3755430777968
 20
2164.328011882963
 30
0.0
  0
VERTEX
  5
3D3
330
3C5
100
AcDbEntity
  8
Calque 1
 62
   193
420
 10040268
370
    50
100
AcDbVertex
100
AcDb2dVertex
 10
540.3597817659518
 20
2164.359362251879
 30
0.0
  0
VERTEX
  5
3D4
330
3C5
100
AcDbEntity
  8
Calque 1
 62
   193
420
 10040268
370
    50
100
AcDbVertex
100
AcDb2dVertex
 10
540.3241680913729
 20
2164.419651422871
 30
0.0
  0
VERTEX
  5
3D5
330
3C5
100
AcDbEntity
  8
Calque 1
 62
   193
420
 10040268
370
    50
100
AcDbVertex
100
AcDb2dVertex
 10
540.2975116650558
 20
2164.459270020951
 30
0.0
  0
VERTEX
  5
3D6
330
3C5
100
AcDbEntity
  8
Calque 1
 62
   193
420
 10040268
370
    50
100
AcDbVertex
100
AcDb2dVertex
 10
540.2559121370715
 20
2164.515597332135
 30
0.0
  0
SEQEND
  5
3D7
330
3C5
100
AcDbEntity
  8
Calque 1
 62
   193
420
 10040268
370
    50
  0
POLYLINE
  5
3D8
330
1F
100
AcDbEntity
  8
Calque 1
 62
   193
420
 10040268
370
    50
100
AcDb2dPolyline
 66
     1
 10
0.0
 20
0.0
 30
0.0
  0
VERTEX
  5
3D9
330
3D8
100
AcDbEntity
  8
Calque 1
 62
   193
420
 10040268
370
    50
100
AcDbVertex
100
AcDb2dVertex
 10
540.4225686311704
 20
2165.645244141749
 30
0.0
  0
VERTEX
  5
3DA
330
3D8
100
AcDbEntity
  8
Calque 1
 62
   193
420
 10040268
370
    50
100
AcDbVertex
100
AcDb2dVertex
 10
540.4168842236197
 20
2165.6448996322
 30
0.0
  0
VERTEX
  5
3DB
330
3D8
100
AcDbEntity
  8
Calque 1
 62
   193
420
 10040268
370
    50
100
AcDbVertex
100
AcDb2dVertex
 10
540.3889789501892
 20
2165.639559734198
 30
0.0
  0
VERTEX
  5
3DC
330
3D8
100
AcDbEntity
  8
Calque 1
 62
   193
420
 10040268
370
    50
100
AcDbVertex
100
AcDb2dVertex
 10
540.3624517149528
 20
2165.628879938194
 30
0.0
  0
VERTEX
  5
3DD
330
3D8
100
AcDbEntity
  8
Calque 1
 62
   193
420
 10040268
370
    50
100
AcDbVertex
100
AcDb2dVertex
 10
540.3495326068831
 20
2165.621645237674
 30
0.0
  0
VERTEX
  5
3DE
330
3D8
100
AcDbEntity
  8
Calque 1
 62
   193
420
 10040268
370
    50
100
AcDbVertex
100
AcDb2dVertex
 10
540.3267949766805
 20
2165.604419760248
 30
0.0
  0
VERTEX
  5
3DF
330
3D8
100
AcDbEntity
  8
Calque 1
 62
   193
420
 10040268
370
    50
100
AcDbVertex
100
AcDb2dVertex
 10
540.3069856776403
 20
2165.583921442111
 30
0.0
  0
VERTEX
  5
3E0
330
3D8
100
AcDbEntity
  8
Calque 1
 62
   193
420
 10040268
370
    50
100
AcDbVertex
100
AcDb2dVertex
 10
540.2951000982162
 20
2165.568246257653
 30
0.0
  0
VERTEX
  5
3E1
330
3D8
100
AcDbEntity
  8
Calque 1
 62
   193
420
 10040268
370
    50
100
AcDbVertex
100
AcDb2dVertex
 10
540.2807168245653
 20
2165.543786079708
 30
0.0
  0
VERTEX
  5
3E2
330
3D8
100
AcDbEntity
  8
Calque 1
 62
   193
420
 10040268
370
    50
100
AcDbVertex
100
AcDb2dVertex
 10
540.2695633279318
 20
2165.51760335402
 30
0.0
  0
VERTEX
  5
3E3
330
3D8
100
AcDbEntity
  8
Calque 1
 62
   193
420
 10040268
370
    50
100
AcDbVertex
100
AcDb2dVertex
 10
540.2645679394782
 20
2165.501755914788
 30
0.0
  0
VERTEX
  5
3E4
330
3D8
100
AcDbEntity
  8
Calque 1
 62
   193
420
 10040268
370
    50
100
AcDbVertex
100
AcDb2dVertex
 10
540.2585820860726
 20
2165.474022896131
 30
0.0
  0
VERTEX
  5
3E5
330
3D8
100
AcDbEntity
  8
Calque 1
 62
   193
420
 10040268
370
    50
100
AcDbVertex
100
AcDb2dVertex
 10
540.2559121370715
 20
2165.445773113152
 30
0.0
  0
SEQEND
  5
3E6
330
3D8
100
AcDbEntity
  8
Calque 1
 62
   193
420
 10040268
370
    50
  0
POLYLINE
  5
3E7
330
1F
100
AcDbEntity
  8
Calque 1
 62
   193
420
 10040268
370
    50
100
AcDb2dPolyline
 66
     1
 10
0.0
 20
0.0
 30
0.0
  0
VERTEX
  5
3E8
330
3E7
100
AcDbEntity
  8
Calque 1
 62
   193
420
 10040268
370
    50
100
AcDbVertex
100
AcDb2dVertex
 10
540.2225808382517
 20
2165.445773113152
 30
0.0
  0
VERTEX
  5
3E9
330
3E7
100
AcDbEntity
  8
Calque 1
 62
   193
420
 10040268
370
    50
100
AcDbVertex
100
AcDb2dVertex
 10
540.2231837299615
 20
2165.461276042836
 30
0.0
  0
VERTEX
  5
3EA
330
3E7
100
AcDbEntity
  8
Calque 1
 62
   193
420
 10040268
370
    50
100
AcDbVertex
100
AcDb2dVertex
 10
540.2280929910281
 20
2165.492281902204
 30
0.0
  0
VERTEX
  5
3EB
330
3E7
100
AcDbEntity
  8
Calque 1
 62
   193
420
 10040268
370
    50
100
AcDbVertex
100
AcDb2dVertex
 10
540.2377823220803
 20
2165.522081978151
 30
0.0
  0
VERTEX
  5
3EC
330
3E7
100
AcDbEntity
  8
Calque 1
 62
   193
420
 10040268
370
    50
100
AcDbVertex
100
AcDb2dVertex
 10
540.2443710671959
 20
2165.536379124414
 30
0.0
  0
VERTEX
  5
3ED
330
3E7
100
AcDbEntity
  8
Calque 1
 62
   193
420
 10040268
370
    50
100
AcDbVertex
100
AcDb2dVertex
 10
540.2607783344444
 20
2165.563078614425
 30
0.0
  0
VERTEX
  5
3EE
330
3E7
100
AcDbEntity
  8
Calque 1
 62
   193
420
 10040268
370
    50
100
AcDbVertex
100
AcDb2dVertex
 10
540.281147461501
 20
2165.586849773274
 30
0.0
  0
VERTEX
  5
3EF
330
3E7
100
AcDbEntity
  8
Calque 1
 62
   193
420
 10040268
370
    50
100
AcDbVertex
100
AcDb2dVertex
 10
540.2926885313765
 20
2165.597529569278
 30
0.0
  0
VERTEX
  5
3F0
330
3E7
100
AcDbEntity
  8
Calque 1
 62
   193
420
 10040268
370
    50
100
AcDbVertex
100
AcDb2dVertex
 10
540.3180530468867
 20
2165.61578857535
 30
0.0
  0
VERTEX
  5
3F1
330
3E7
100
AcDbEntity
  8
Calque 1
 62
   193
420
 10040268
370
    50
100
AcDbVertex
100
AcDb2dVertex
 10
540.3460444477043
 20
2165.630085721613
 30
0.0
  0
VERTEX
  5
3F2
330
3E7
100
AcDbEntity
  8
Calque 1
 62
   193
420
 10040268
370
    50
100
AcDbVertex
100
AcDb2dVertex
 10
540.3608583582909
 20
2165.635425619615
 30
0.0
  0
VERTEX
  5
3F3
330
3E7
100
AcDbEntity
  8
Calque 1
 62
   193
420
 10040268
370
    50
100
AcDbVertex
100
AcDb2dVertex
 10
540.3913905170289
 20
2165.642832574909
 30
0.0
  0
VERTEX
  5
3F4
330
3E7
100
AcDbEntity
  8
Calque 1
 62
   193
420
 10040268
370
    50
100
AcDbVertex
100
AcDb2dVertex
 10
540.4225686311704
 20
2165.645244141749
 30
0.0
  0
SEQEND
  5
3F5
330
3E7
100
AcDbEntity
  8
Calque 1
 62
   193
420
 10040268
370
    50
  0
POLYLINE
  5
3F6
330
1F
100
AcDbEntity
  8
Calque 1
 62
   193
420
 10040268
370
    50
100
AcDb2dPolyline
 66
     1
 10
0.0
 20
0.0
 30
0.0
  0
VERTEX
  5
3F7
330
3F6
100
AcDbEntity
  8
Calque 1
 62
   193
420
 10040268
370
    50
100
AcDbVertex
100
AcDb2dVertex
 10
540.2225808382517
 20
2169.833618977941
 30
0.0
  0
VERTEX
  5
3F8
330
3F6
100
AcDbEntity
  8
Calque 1
 62
   193
420
 10040268
370
    50
100
AcDbVertex
100
AcDb2dVertex
 10
540.2230976025745
 20
2169.819321831677
 30
0.0
  0
VERTEX
  5
3F9
330
3F6
100
AcDbEntity
  8
Calque 1
 62
   193
420
 10040268
370
    50
100
AcDbVertex
100
AcDb2dVertex
 10
540.2277915451731
 20
2169.788488227084
 30
0.0
  0
VERTEX
  5
3FA
330
3F6
100
AcDbEntity
  8
Calque 1
 62
   193
420
 10040268
370
    50
100
AcDbVertex
100
AcDb2dVertex
 10
540.2373086214511
 20
2169.758515896362
 30
0.0
  0
VERTEX
  5
3FB
330
3F6
100
AcDbEntity
  8
Calque 1
 62
   193
420
 10040268
370
    50
100
AcDbVertex
100
AcDb2dVertex
 10
540.2429499653082
 20
2169.745941297841
 30
0.0
  0
VERTEX
  5
3FC
330
3F6
100
AcDbEntity
  8
Calque 1
 62
   193
420
 10040268
370
    50
100
AcDbVertex
100
AcDb2dVertex
 10
540.258926595621
 20
2169.719069553057
 30
0.0
  0
VERTEX
  5
3FD
330
3F6
100
AcDbEntity
  8
Calque 1
 62
   193
420
 10040268
370
    50
100
AcDbVertex
100
AcDb2dVertex
 10
540.2789081494356
 20
2169.69495388466
 30
0.0
  0
VERTEX
  5
3FE
330
3F6
100
AcDbEntity
  8
Calque 1
 62
   193
420
 10040268
370
    50
100
AcDbVertex
100
AcDb2dVertex
 10
540.2908367925531
 20
2169.683585069558
 30
0.0
  0
VERTEX
  5
3FF
330
3F6
100
AcDbEntity
  8
Calque 1
 62
   193
420
 10040268
370
    50
100
AcDbVertex
100
AcDb2dVertex
 10
540.3159859895956
 20
2169.664809299164
 30
0.0
  0
VERTEX
  5
400
330
3F6
100
AcDbEntity
  8
Calque 1
 62
   193
420
 10040268
370
    50
100
AcDbVertex
100
AcDb2dVertex
 10
540.343805135639
 20
2169.650339898126
 30
0.0
  0
VERTEX
  5
401
330
3F6
100
AcDbEntity
  8
Calque 1
 62
   193
420
 10040268
370
    50
100
AcDbVertex
100
AcDb2dVertex
 10
540.3608583582909
 20
2169.643966471478
 30
0.0
  0
VERTEX
  5
402
330
3F6
100
AcDbEntity
  8
Calque 1
 62
   193
420
 10040268
370
    50
100
AcDbVertex
100
AcDb2dVertex
 10
540.3913905170289
 20
2169.636731770959
 30
0.0
  0
VERTEX
  5
403
330
3F6
100
AcDbEntity
  8
Calque 1
 62
   193
420
 10040268
370
    50
100
AcDbVertex
100
AcDb2dVertex
 10
540.4225686311704
 20
2169.634147949345
 30
0.0
  0
SEQEND
  5
404
330
3F6
100
AcDbEntity
  8
Calque 1
 62
   193
420
 10040268
370
    50
  0
POLYLINE
  5
405
330
1F
100
AcDbEntity
  8
Calque 1
 62
   193
420
 10040268
370
    50
100
AcDb2dPolyline
 66
     1
 10
0.0
 20
0.0
 30
0.0
  0
VERTEX
  5
406
330
405
100
AcDbEntity
  8
Calque 1
 62
   193
420
 10040268
370
    50
100
AcDbVertex
100
AcDb2dVertex
 10
551.0225676112678
 20
2169.634147949345
 30
0.0
  0
VERTEX
  5
407
330
405
100
AcDbEntity
  8
Calque 1
 62
   193
420
 10040268
370
    50
100
AcDbVertex
100
AcDb2dVertex
 10
550.9882889111896
 20
2169.637248535282
 30
0.0
  0
VERTEX
  5
408
330
405
100
AcDbEntity
  8
Calque 1
 62
   193
420
 10040268
370
    50
100
AcDbVertex
100
AcDb2dVertex
 10
550.9332965745062
 20
2169.639660102122
 30
0.0
  0
VERTEX
  5
409
330
405
100
AcDbEntity
  8
Calque 1
 62
   193
420
 10040268
370
    50
100
AcDbVertex
100
AcDb2dVertex
 10
550.9243393262446
 20
2169.639660102122
 30
0.0
  0
VERTEX
  5
40A
330
405
100
AcDbEntity
  8
Calque 1
 62
   193
420
 10040268
370
    50
100
AcDbVertex
100
AcDb2dVertex
 10
550.8695192443356
 20
2169.633975694571
 30
0.0
  0
VERTEX
  5
40B
330
405
100
AcDbEntity
  8
Calque 1
 62
   193
420
 10040268
370
    50
100
AcDbVertex
100
AcDb2dVertex
 10
550.8570307732016
 20
2169.630186089537
 30
0.0
  0
VERTEX
  5
40C
330
405
100
AcDbEntity
  8
Calque 1
 62
   193
420
 10040268
370
    50
100
AcDbVertex
100
AcDb2dVertex
 10
550.8325275315627
 20
2169.614855414628
 30
0.0
  0
VERTEX
  5
40D
330
405
100
AcDbEntity
  8
Calque 1
 62
   193
420
 10040268
370
    50
100
AcDbVertex
100
AcDb2dVertex
 10
550.8242593023981
 20
2169.600213758815
 30
0.0
  0
VERTEX
  5
40E
330
405
100
AcDbEntity
  8
Calque 1
 62
   193
420
 10040268
370
    50
100
AcDbVertex
100
AcDb2dVertex
 10
550.8227520731233
 20
2169.582127007518
 30
0.0
  0
VERTEX
  5
40F
330
405
100
AcDbEntity
  8
Calque 1
 62
   193
420
 10040268
370
    50
100
AcDbVertex
100
AcDb2dVertex
 10
550.8339486334504
 20
2169.545953504923
 30
0.0
  0
VERTEX
  5
410
330
405
100
AcDbEntity
  8
Calque 1
 62
   193
420
 10040268
370
    50
100
AcDbVertex
100
AcDb2dVertex
 10
550.8392885314526
 20
2169.535790473241
 30
0.0
  0
VERTEX
  5
411
330
405
100
AcDbEntity
  8
Calque 1
 62
   193
420
 10040268
370
    50
100
AcDbVertex
100
AcDb2dVertex
 10
550.8567293273466
 20
2169.508057454585
 30
0.0
  0
VERTEX
  5
412
330
405
100
AcDbEntity
  8
Calque 1
 62
   193
420
 10040268
370
    50
100
AcDbVertex
100
AcDb2dVertex
 10
550.8800698492591
 20
2169.477740614315
 30
0.0
  0
VERTEX
  5
413
330
405
100
AcDbEntity
  8
Calque 1
 62
   193
420
 10040268
370
    50
100
AcDbVertex
100
AcDb2dVertex
 10
550.9040563265752
 20
2169.450179850433
 30
0.0
  0
VERTEX
  5
414
330
405
100
AcDbEntity
  8
Calque 1
 62
   193
420
 10040268
370
    50
100
AcDbVertex
100
AcDb2dVertex
 10
550.9424260775422
 20
2169.410733507127
 30
0.0
  0
VERTEX
  5
415
330
405
100
AcDbEntity
  8
Calque 1
 62
   193
420
 10040268
370
    50
100
AcDbVertex
100
AcDb2dVertex
 10
550.9815279112997
 20
2169.373870985434
 30
0.0
  0
VERTEX
  5
416
330
405
100
AcDbEntity
  8
Calque 1
 62
   193
420
 10040268
370
    50
100
AcDbVertex
100
AcDb2dVertex
 10
551.0225676112678
 20
2169.337180718517
 30
0.0
  0
SEQEND
  5
417
330
405
100
AcDbEntity
  8
Calque 1
 62
   193
420
 10040268
370
    50
  0
POLYLINE
  5
418
330
1F
100
AcDbEntity
  8
Calque 1
 62
   193
420
 10040268
370
    50
100
AcDb2dPolyline
 66
     1
 10
0.0
 20
0.0
 30
0.0
  0
VERTEX
  5
419
330
418
100
AcDbEntity
  8
Calque 1
 62
   193
420
 10040268
370
    50
100
AcDbVertex
100
AcDb2dVertex
 10
540.4225686311704
 20
2169.337180718517
 30
0.0
  0
VERTEX
  5
41A
330
418
100
AcDbEntity
  8
Calque 1
 62
   193
420
 10040268
370
    50
100
AcDbVertex
100
AcDb2dVertex
 10
540.4625748024929
 20
2169.373181966337
 30
0.0
  0
VERTEX
  5
41B
330
418
100
AcDbEntity
  8
Calque 1
 62
   193
420
 10040268
370
    50
100
AcDbVertex
100
AcDb2dVertex
 10
540.5025809738154
 20
2169.411078016675
 30
0.0
  0
VERTEX
  5
41C
330
418
100
AcDbEntity
  8
Calque 1
 62
   193
420
 10040268
370
    50
100
AcDbVertex
100
AcDb2dVertex
 10
540.5278162982448
 20
2169.436571723266
 30
0.0
  0
VERTEX
  5
41D
330
418
100
AcDbEntity
  8
Calque 1
 62
   193
420
 10040268
370
    50
100
AcDbVertex
100
AcDb2dVertex
 10
540.5645926925498
 20
2169.47756835954
 30
0.0
  0
VERTEX
  5
41E
330
418
100
AcDbEntity
  8
Calque 1
 62
   193
420
 10040268
370
    50
100
AcDbVertex
100
AcDb2dVertex
 10
540.574884915312
 20
2169.490142958061
 30
0.0
  0
VERTEX
  5
41F
330
418
100
AcDbEntity
  8
Calque 1
 62
   193
420
 10040268
370
    50
100
AcDbVertex
100
AcDb2dVertex
 10
540.6058046472922
 20
2169.535618218467
 30
0.0
  0
VERTEX
  5
420
330
418
100
AcDbEntity
  8
Calque 1
 62
   193
420
 10040268
370
    50
100
AcDbVertex
100
AcDb2dVertex
 10
540.6171734623935
 20
2169.560250651186
 30
0.0
  0
VERTEX
  5
421
330
418
100
AcDbEntity
  8
Calque 1
 62
   193
420
 10040268
370
    50
100
AcDbVertex
100
AcDb2dVertex
 10
540.6211353222016
 20
2169.573686523579
 30
0.0
  0
VERTEX
  5
422
330
418
100
AcDbEntity
  8
Calque 1
 62
   193
420
 10040268
370
    50
100
AcDbVertex
100
AcDb2dVertex
 10
540.6209200037337
 20
2169.600213758815
 30
0.0
  0
VERTEX
  5
423
330
418
100
AcDbEntity
  8
Calque 1
 62
   193
420
 10040268
370
    50
100
AcDbVertex
100
AcDb2dVertex
 10
540.6047711186466
 20
2169.621573350824
 30
0.0
  0
VERTEX
  5
424
330
418
100
AcDbEntity
  8
Calque 1
 62
   193
420
 10040268
370
    50
100
AcDbVertex
100
AcDb2dVertex
 10
540.5977517365953
 20
2169.626051974955
 30
0.0
  0
VERTEX
  5
425
330
418
100
AcDbEntity
  8
Calque 1
 62
   193
420
 10040268
370
    50
100
AcDbVertex
100
AcDb2dVertex
 10
540.5757031254898
 20
2169.633803439796
 30
0.0
  0
VERTEX
  5
426
330
418
100
AcDbEntity
  8
Calque 1
 62
   193
420
 10040268
370
    50
100
AcDbVertex
100
AcDb2dVertex
 10
540.5468504508008
 20
2169.638282063927
 30
0.0
  0
VERTEX
  5
427
330
418
100
AcDbEntity
  8
Calque 1
 62
   193
420
 10040268
370
    50
100
AcDbVertex
100
AcDb2dVertex
 10
540.5116243494641
 20
2169.639660102122
 30
0.0
  0
VERTEX
  5
428
330
418
100
AcDbEntity
  8
Calque 1
 62
   193
420
 10040268
370
    50
100
AcDbVertex
100
AcDb2dVertex
 10
540.4773887130794
 20
2169.638626573476
 30
0.0
  0
VERTEX
  5
429
330
418
100
AcDbEntity
  8
Calque 1
 62
   193
420
 10040268
370
    50
100
AcDbVertex
100
AcDb2dVertex
 10
540.4225686311704
 20
2169.634147949345
 30
0.0
  0
SEQEND
  5
42A
330
418
100
AcDbEntity
  8
Calque 1
 62
   193
420
 10040268
370
    50
  0
POLYLINE
  5
42B
330
1F
100
AcDbEntity
  8
Calque 1
 62
   193
420
 10040268
370
    50
100
AcDb2dPolyline
 66
     1
 10
0.0
 20
0.0
 30
0.0
  0
VERTEX
  5
42C
330
42B
100
AcDbEntity
  8
Calque 1
 62
   193
420
 10040268
370
    50
100
AcDbVertex
100
AcDb2dVertex
 10
551.0225676112678
 20
2165.645244141749
 30
0.0
  0
VERTEX
  5
42D
330
42B
100
AcDbEntity
  8
Calque 1
 62
   193
420
 10040268
370
    50
100
AcDbVertex
100
AcDb2dVertex
 10
551.0382427957258
 20
2165.644555122652
 30
0.0
  0
VERTEX
  5
42E
330
42B
100
AcDbEntity
  8
Calque 1
 62
   193
420
 10040268
370
    50
100
AcDbVertex
100
AcDb2dVertex
 10
551.0692055913994
 20
2165.639731988972
 30
0.0
  0
VERTEX
  5
42F
330
42B
100
AcDbEntity
  8
Calque 1
 62
   193
420
 10040268
370
    50
100
AcDbVertex
100
AcDb2dVertex
 10
551.0990917947339
 20
2165.630085721613
 30
0.0
  0
VERTEX
  5
430
330
42B
100
AcDbEntity
  8
Calque 1
 62
   193
420
 10040268
370
    50
100
AcDbVertex
100
AcDb2dVertex
 10
551.1133889409978
 20
2165.623540040192
 30
0.0
  0
VERTEX
  5
431
330
42B
100
AcDbEntity
  8
Calque 1
 62
   193
420
 10040268
370
    50
100
AcDbVertex
100
AcDb2dVertex
 10
551.140131494702
 20
2165.607175836637
 30
0.0
  0
VERTEX
  5
432
330
42B
100
AcDbEntity
  8
Calque 1
 62
   193
420
 10040268
370
    50
100
AcDbVertex
100
AcDb2dVertex
 10
551.1639887809373
 20
2165.586849773274
 30
0.0
  0
VERTEX
  5
433
330
42B
100
AcDbEntity
  8
Calque 1
 62
   193
420
 10040268
370
    50
100
AcDbVertex
100
AcDb2dVertex
 10
551.1746255132481
 20
2165.575308703398
 30
0.0
  0
VERTEX
  5
434
330
42B
100
AcDbEntity
  8
Calque 1
 62
   193
420
 10040268
370
    50
100
AcDbVertex
100
AcDb2dVertex
 10
551.1930567740941
 20
2165.549987251582
 30
0.0
  0
VERTEX
  5
435
330
42B
100
AcDbEntity
  8
Calque 1
 62
   193
420
 10040268
370
    50
100
AcDbVertex
100
AcDb2dVertex
 10
551.207353920358
 20
2165.522081978151
 30
0.0
  0
VERTEX
  5
436
330
42B
100
AcDbEntity
  8
Calque 1
 62
   193
420
 10040268
370
    50
100
AcDbVertex
100
AcDb2dVertex
 10
551.2127368820536
 20
2165.507440322338
 30
0.0
  0
VERTEX
  5
437
330
42B
100
AcDbEntity
  8
Calque 1
 62
   193
420
 10040268
370
    50
100
AcDbVertex
100
AcDb2dVertex
 10
551.2201007736534
 20
2165.476951227294
 30
0.0
  0
VERTEX
  5
438
330
42B
100
AcDbEntity
  8
Calque 1
 62
   193
420
 10040268
370
    50
100
AcDbVertex
100
AcDb2dVertex
 10
551.2225554041866
 20
2165.445773113152
 30
0.0
  0
SEQEND
  5
439
330
42B
100
AcDbEntity
  8
Calque 1
 62
   193
420
 10040268
370
    50
  0
POLYLINE
  5
43A
330
1F
100
AcDbEntity
  8
Calque 1
 62
   193
420
 10040268
370
    50
100
AcDb2dPolyline
 66
     1
 10
0.0
 20
0.0
 30
0.0
  0
VERTEX
  5
43B
330
43A
100
AcDbEntity
  8
Calque 1
 62
   193
420
 10040268
370
    50
100
AcDbVertex
100
AcDb2dVertex
 10
551.1892241053667
 20
2165.445773113152
 30
0.0
  0
VERTEX
  5
43C
330
43A
100
AcDbEntity
  8
Calque 1
 62
   193
420
 10040268
370
    50
100
AcDbVertex
100
AcDb2dVertex
 10
551.188018321947
 20
2165.462309571482
 30
0.0
  0
VERTEX
  5
43D
330
43A
100
AcDbEntity
  8
Calque 1
 62
   193
420
 10040268
370
    50
100
AcDbVertex
100
AcDb2dVertex
 10
551.1834105067354
 20
2165.490214844912
 30
0.0
  0
VERTEX
  5
43E
330
43A
100
AcDbEntity
  8
Calque 1
 62
   193
420
 10040268
370
    50
100
AcDbVertex
100
AcDb2dVertex
 10
551.1755729145065
 20
2165.51760335402
 30
0.0
  0
VERTEX
  5
43F
330
43A
100
AcDbEntity
  8
Calque 1
 62
   193
420
 10040268
370
    50
100
AcDbVertex
100
AcDb2dVertex
 10
551.1682090229068
 20
2165.535862360092
 30
0.0
  0
VERTEX
  5
440
330
43A
100
AcDbEntity
  8
Calque 1
 62
   193
420
 10040268
370
    50
100
AcDbVertex
100
AcDb2dVertex
 10
551.1547731505143
 20
2165.561011557134
 30
0.0
  0
VERTEX
  5
441
330
43A
100
AcDbEntity
  8
Calque 1
 62
   193
420
 10040268
370
    50
100
AcDbVertex
100
AcDb2dVertex
 10
551.1381505647979
 20
2165.583921442111
 30
0.0
  0
VERTEX
  5
442
330
43A
100
AcDbEntity
  8
Calque 1
 62
   193
420
 10040268
370
    50
100
AcDbVertex
100
AcDb2dVertex
 10
551.1281597878907
 20
2165.595118002438
 30
0.0
  0
VERTEX
  5
443
330
43A
100
AcDbEntity
  8
Calque 1
 62
   193
420
 10040268
370
    50
100
AcDbVertex
100
AcDb2dVertex
 10
551.1067571321886
 20
2165.613893772833
 30
0.0
  0
VERTEX
  5
444
330
43A
100
AcDbEntity
  8
Calque 1
 62
   193
420
 10040268
370
    50
100
AcDbVertex
100
AcDb2dVertex
 10
551.0825984000983
 20
2165.628879938194
 30
0.0
  0
VERTEX
  5
445
330
43A
100
AcDbEntity
  8
Calque 1
 62
   193
420
 10040268
370
    50
100
AcDbVertex
100
AcDb2dVertex
 10
551.0775168842575
 20
2165.631463759808
 30
0.0
  0
VERTEX
  5
446
330
43A
100
AcDbEntity
  8
Calque 1
 62
   193
420
 10040268
370
    50
100
AcDbVertex
100
AcDb2dVertex
 10
551.050602075779
 20
2165.641110027166
 30
0.0
  0
VERTEX
  5
447
330
43A
100
AcDbEntity
  8
Calque 1
 62
   193
420
 10040268
370
    50
100
AcDbVertex
100
AcDb2dVertex
 10
551.0225676112678
 20
2165.645244141749
 30
0.0
  0
SEQEND
  5
448
330
43A
100
AcDbEntity
  8
Calque 1
 62
   193
420
 10040268
370
    50
  0
POLYLINE
  5
449
330
1F
100
AcDbEntity
  8
Calque 1
 62
   193
420
 10040268
370
    50
100
AcDb2dPolyline
 66
     1
 10
0.0
 20
0.0
 30
0.0
  0
VERTEX
  5
44A
330
449
100
AcDbEntity
  8
Calque 1
 62
   193
420
 10040268
370
    50
100
AcDbVertex
100
AcDb2dVertex
 10
551.0225676112678
 20
2165.942211372577
 30
0.0
  0
VERTEX
  5
44B
330
449
100
AcDbEntity
  8
Calque 1
 62
   193
420
 10040268
370
    50
100
AcDbVertex
100
AcDb2dVertex
 10
551.0311803499809
 20
2165.939627550963
 30
0.0
  0
VERTEX
  5
44C
330
449
100
AcDbEntity
  8
Calque 1
 62
   193
420
 10040268
370
    50
100
AcDbVertex
100
AcDb2dVertex
 10
551.0540902349578
 20
2165.930325793153
 30
0.0
  0
VERTEX
  5
44D
330
449
100
AcDbEntity
  8
Calque 1
 62
   193
420
 10040268
370
    50
100
AcDbVertex
100
AcDb2dVertex
 10
551.075794336515
 20
2165.918267958954
 30
0.0
  0
VERTEX
  5
44E
330
449
100
AcDbEntity
  8
Calque 1
 62
   193
420
 10040268
370
    50
100
AcDbVertex
100
AcDb2dVertex
 10
551.0885411898104
 20
2165.90999972979
 30
0.0
  0
VERTEX
  5
44F
330
449
100
AcDbEntity
  8
Calque 1
 62
   193
420
 10040268
370
    50
100
AcDbVertex
100
AcDb2dVertex
 10
551.1081351703828
 20
2165.894841309655
 30
0.0
  0
VERTEX
  5
450
330
449
100
AcDbEntity
  8
Calque 1
 62
   193
420
 10040268
370
    50
100
AcDbVertex
100
AcDb2dVertex
 10
551.1262649853738
 20
2165.878132596551
 30
0.0
  0
VERTEX
  5
451
330
449
100
AcDbEntity
  8
Calque 1
 62
   193
420
 10040268
370
    50
100
AcDbVertex
100
AcDb2dVertex
 10
551.1368155902974
 20
2165.86676378145
 30
0.0
  0
VERTEX
  5
452
330
449
100
AcDbEntity
  8
Calque 1
 62
   193
420
 10040268
370
    50
100
AcDbVertex
100
AcDb2dVertex
 10
551.1522754562875
 20
2165.847298991958
 30
0.0
  0
VERTEX
  5
453
330
449
100
AcDbEntity
  8
Calque 1
 62
   193
420
 10040268
370
    50
100
AcDbVertex
100
AcDb2dVertex
 10
551.16571132868
 20
2165.826628419047
 30
0.0
  0
VERTEX
  5
454
330
449
100
AcDbEntity
  8
Calque 1
 62
   193
420
 10040268
370
    50
100
AcDbVertex
100
AcDb2dVertex
 10
551.1704483349722
 20
2165.818187935108
 30
0.0
  0
VERTEX
  5
455
330
449
100
AcDbEntity
  8
Calque 1
 62
   193
420
 10040268
370
    50
100
AcDbVertex
100
AcDb2dVertex
 10
551.1809128125086
 20
2165.795794814454
 30
0.0
  0
VERTEX
  5
456
330
449
100
AcDbEntity
  8
Calque 1
 62
   193
420
 10040268
370
    50
100
AcDbVertex
100
AcDb2dVertex
 10
551.1892241053667
 20
2165.772368165154
 30
0.0
  0
SEQEND
  5
457
330
449
100
AcDbEntity
  8
Calque 1
 62
   193
420
 10040268
370
    50
  0
POLYLINE
  5
458
330
1F
100
AcDbEntity
  8
Calque 1
 62
   193
420
 10040268
370
    50
100
AcDb2dPolyline
 66
     1
 10
0.0
 20
0.0
 30
0.0
  0
VERTEX
  5
459
330
458
100
AcDbEntity
  8
Calque 1
 62
   193
420
 10040268
370
    50
100
AcDbVertex
100
AcDb2dVertex
 10
551.2225554041866
 20
2165.772368165154
 30
0.0
  0
VERTEX
  5
45A
330
458
100
AcDbEntity
  8
Calque 1
 62
   193
420
 10040268
370
    50
100
AcDbVertex
100
AcDb2dVertex
 10
551.2222539583316
 20
2165.781325413416
 30
0.0
  0
VERTEX
  5
45B
330
458
100
AcDbEntity
  8
Calque 1
 62
   193
420
 10040268
370
    50
100
AcDbVertex
100
AcDb2dVertex
 10
551.2175169520394
 20
2165.810091960718
 30
0.0
  0
VERTEX
  5
45C
330
458
100
AcDbEntity
  8
Calque 1
 62
   193
420
 10040268
370
    50
100
AcDbVertex
100
AcDb2dVertex
 10
551.207353920358
 20
2165.837480469826
 30
0.0
  0
VERTEX
  5
45D
330
458
100
AcDbEntity
  8
Calque 1
 62
   193
420
 10040268
370
    50
100
AcDbVertex
100
AcDb2dVertex
 10
551.201497258033
 20
2165.848332520604
 30
0.0
  0
VERTEX
  5
45E
330
458
100
AcDbEntity
  8
Calque 1
 62
   193
420
 10040268
370
    50
100
AcDbVertex
100
AcDb2dVertex
 10
551.1845732264617
 20
2165.871931424678
 30
0.0
  0
VERTEX
  5
45F
330
458
100
AcDbEntity
  8
Calque 1
 62
   193
420
 10040268
370
    50
100
AcDbVertex
100
AcDb2dVertex
 10
551.1639887809373
 20
2165.892429742815
 30
0.0
  0
VERTEX
  5
460
330
458
100
AcDbEntity
  8
Calque 1
 62
   193
420
 10040268
370
    50
100
AcDbVertex
100
AcDb2dVertex
 10
551.1506390359319
 20
2165.902765029271
 30
0.0
  0
VERTEX
  5
461
330
458
100
AcDbEntity
  8
Calque 1
 62
   193
420
 10040268
370
    50
100
AcDbVertex
100
AcDb2dVertex
 10
551.1258343484382
 20
2165.917751194632
 30
0.0
  0
VERTEX
  5
462
330
458
100
AcDbEntity
  8
Calque 1
 62
   193
420
 10040268
370
    50
100
AcDbVertex
100
AcDb2dVertex
 10
551.0990917947339
 20
2165.929292264507
 30
0.0
  0
VERTEX
  5
463
330
458
100
AcDbEntity
  8
Calque 1
 62
   193
420
 10040268
370
    50
100
AcDbVertex
100
AcDb2dVertex
 10
551.0800145784843
 20
2165.934976672058
 30
0.0
  0
VERTEX
  5
464
330
458
100
AcDbEntity
  8
Calque 1
 62
   193
420
 10040268
370
    50
100
AcDbVertex
100
AcDb2dVertex
 10
551.0514633496504
 20
2165.940488824835
 30
0.0
  0
VERTEX
  5
465
330
458
100
AcDbEntity
  8
Calque 1
 62
   193
420
 10040268
370
    50
100
AcDbVertex
100
AcDb2dVertex
 10
551.0225676112678
 20
2165.942211372577
 30
0.0
  0
SEQEND
  5
466
330
458
100
AcDbEntity
  8
Calque 1
 62
   193
420
 10040268
370
    50
  0
POLYLINE
  5
467
330
1F
100
AcDbEntity
  8
Calque 1
 62
   193
420
 10040268
370
    50
100
AcDb2dPolyline
 66
     1
 10
0.0
 20
0.0
 30
0.0
  0
VERTEX
  5
468
330
467
100
AcDbEntity
  8
Calque 1
 62
   193
420
 10040268
370
    50
100
AcDbVertex
100
AcDb2dVertex
 10
551.2225554041866
 20
2169.507023925939
 30
0.0
  0
VERTEX
  5
469
330
467
100
AcDbEntity
  8
Calque 1
 62
   193
420
 10040268
370
    50
100
AcDbVertex
100
AcDb2dVertex
 10
551.2222539583316
 20
2169.498066677678
 30
0.0
  0
VERTEX
  5
46A
330
467
100
AcDbEntity
  8
Calque 1
 62
   193
420
 10040268
370
    50
100
AcDbVertex
100
AcDb2dVertex
 10
551.2175169520394
 20
2169.469300130376
 30
0.0
  0
VERTEX
  5
46B
330
467
100
AcDbEntity
  8
Calque 1
 62
   193
420
 10040268
370
    50
100
AcDbVertex
100
AcDb2dVertex
 10
551.207353920358
 20
2169.442083876042
 30
0.0
  0
VERTEX
  5
46C
330
467
100
AcDbEntity
  8
Calque 1
 62
   193
420
 10040268
370
    50
100
AcDbVertex
100
AcDb2dVertex
 10
551.201497258033
 20
2169.43105957049
 30
0.0
  0
VERTEX
  5
46D
330
467
100
AcDbEntity
  8
Calque 1
 62
   193
420
 10040268
370
    50
100
AcDbVertex
100
AcDb2dVertex
 10
551.1845732264617
 20
2169.407460666416
 30
0.0
  0
VERTEX
  5
46E
330
467
100
AcDbEntity
  8
Calque 1
 62
   193
420
 10040268
370
    50
100
AcDbVertex
100
AcDb2dVertex
 10
551.1639887809373
 20
2169.386962348278
 30
0.0
  0
VERTEX
  5
46F
330
467
100
AcDbEntity
  8
Calque 1
 62
   193
420
 10040268
370
    50
100
AcDbVertex
100
AcDb2dVertex
 10
551.1506390359319
 20
2169.376627061823
 30
0.0
  0
VERTEX
  5
470
330
467
100
AcDbEntity
  8
Calque 1
 62
   193
420
 10040268
370
    50
100
AcDbVertex
100
AcDb2dVertex
 10
551.1258343484382
 20
2169.361640896462
 30
0.0
  0
VERTEX
  5
471
330
467
100
AcDbEntity
  8
Calque 1
 62
   193
420
 10040268
370
    50
100
AcDbVertex
100
AcDb2dVertex
 10
551.0990917947339
 20
2169.350099826586
 30
0.0
  0
VERTEX
  5
472
330
467
100
AcDbEntity
  8
Calque 1
 62
   193
420
 10040268
370
    50
100
AcDbVertex
100
AcDb2dVertex
 10
551.0800145784843
 20
2169.344415419036
 30
0.0
  0
VERTEX
  5
473
330
467
100
AcDbEntity
  8
Calque 1
 62
   193
420
 10040268
370
    50
100
AcDbVertex
100
AcDb2dVertex
 10
551.0514633496504
 20
2169.339075521033
 30
0.0
  0
VERTEX
  5
474
330
467
100
AcDbEntity
  8
Calque 1
 62
   193
420
 10040268
370
    50
100
AcDbVertex
100
AcDb2dVertex
 10
551.0225676112678
 20
2169.337180718517
 30
0.0
  0
SEQEND
  5
475
330
467
100
AcDbEntity
  8
Calque 1
 62
   193
420
 10040268
370
    50
  0
POLYLINE
  5
476
330
1F
100
AcDbEntity
  8
Calque 1
 62
   193
420
 10040268
370
    50
100
AcDb2dPolyline
 66
     1
 10
0.0
 20
0.0
 30
0.0
  0
VERTEX
  5
477
330
476
100
AcDbEntity
  8
Calque 1
 62
   193
420
 10040268
370
    50
100
AcDbVertex
100
AcDb2dVertex
 10
551.1892241053667
 20
2169.507023925939
 30
0.0
  0
VERTEX
  5
478
330
476
100
AcDbEntity
  8
Calque 1
 62
   193
420
 10040268
370
    50
100
AcDbVertex
100
AcDb2dVertex
 10
551.1862527105108
 20
2169.497722168129
 30
0.0
  0
VERTEX
  5
479
330
476
100
AcDbEntity
  8
Calque 1
 62
   193
420
 10040268
370
    50
100
AcDbVertex
100
AcDb2dVertex
 10
551.1770801437813
 20
2169.474812283152
 30
0.0
  0
VERTEX
  5
47A
330
476
100
AcDbEntity
  8
Calque 1
 62
   193
420
 10040268
370
    50
100
AcDbVertex
100
AcDb2dVertex
 10
551.16571132868
 20
2169.452763672047
 30
0.0
  0
VERTEX
  5
47B
330
476
100
AcDbEntity
  8
Calque 1
 62
   193
420
 10040268
370
    50
100
AcDbVertex
100
AcDb2dVertex
 10
551.1618786599527
 20
2169.446390245399
 30
0.0
  0
VERTEX
  5
47C
330
476
100
AcDbEntity
  8
Calque 1
 62
   193
420
 10040268
370
    50
100
AcDbVertex
100
AcDb2dVertex
 10
551.1477107047696
 20
2169.42623643681
 30
0.0
  0
VERTEX
  5
47D
330
476
100
AcDbEntity
  8
Calque 1
 62
   193
420
 10040268
370
    50
100
AcDbVertex
100
AcDb2dVertex
 10
551.1426722526223
 20
2169.419863010162
 30
0.0
  0
VERTEX
  5
47E
330
476
100
AcDbEntity
  8
Calque 1
 62
   193
420
 10040268
370
    50
100
AcDbVertex
100
AcDb2dVertex
 10
551.1262649853738
 20
2169.401431749317
 30
0.0
  0
VERTEX
  5
47F
330
476
100
AcDbEntity
  8
Calque 1
 62
   193
420
 10040268
370
    50
100
AcDbVertex
100
AcDb2dVertex
 10
551.1205375141296
 20
2169.395747341766
 30
0.0
  0
VERTEX
  5
480
330
476
100
AcDbEntity
  8
Calque 1
 62
   193
420
 10040268
370
    50
100
AcDbVertex
100
AcDb2dVertex
 10
551.1019339985093
 20
2169.379383138211
 30
0.0
  0
VERTEX
  5
481
330
476
100
AcDbEntity
  8
Calque 1
 62
   193
420
 10040268
370
    50
100
AcDbVertex
100
AcDb2dVertex
 10
551.0962495909586
 20
2169.375076768854
 30
0.0
  0
VERTEX
  5
482
330
476
100
AcDbEntity
  8
Calque 1
 62
   193
420
 10040268
370
    50
100
AcDbVertex
100
AcDb2dVertex
 10
551.075794336515
 20
2169.361124132139
 30
0.0
  0
VERTEX
  5
483
330
476
100
AcDbEntity
  8
Calque 1
 62
   193
420
 10040268
370
    50
100
AcDbVertex
100
AcDb2dVertex
 10
551.0680428716731
 20
2169.356645508008
 30
0.0
  0
VERTEX
  5
484
330
476
100
AcDbEntity
  8
Calque 1
 62
   193
420
 10040268
370
    50
100
AcDbVertex
100
AcDb2dVertex
 10
551.0458650694868
 20
2169.345448947681
 30
0.0
  0
VERTEX
  5
485
330
476
100
AcDbEntity
  8
Calque 1
 62
   193
420
 10040268
370
    50
100
AcDbVertex
100
AcDb2dVertex
 10
551.0225676112678
 20
2169.337180718517
 30
0.0
  0
SEQEND
  5
486
330
476
100
AcDbEntity
  8
Calque 1
 62
   193
420
 10040268
370
    50
  0
POLYLINE
  5
487
330
1F
100
AcDbEntity
  8
Calque 1
 62
   193
420
 10040268
370
    50
100
AcDb2dPolyline
 66
     1
 10
0.0
 20
0.0
 30
0.0
  0
VERTEX
  5
488
330
487
100
AcDbEntity
  8
Calque 1
 62
   193
420
 10040268
370
    50
100
AcDbVertex
100
AcDb2dVertex
 10
551.0225676112678
 20
2169.634147949345
 30
0.0
  0
VERTEX
  5
489
330
487
100
AcDbEntity
  8
Calque 1
 62
   193
420
 10040268
370
    50
100
AcDbVertex
100
AcDb2dVertex
 10
551.0280797640443
 20
2169.634492458893
 30
0.0
  0
VERTEX
  5
48A
330
487
100
AcDbEntity
  8
Calque 1
 62
   193
420
 10040268
370
    50
100
AcDbVertex
100
AcDb2dVertex
 10
551.0561142285554
 20
2169.639832356896
 30
0.0
  0
VERTEX
  5
48B
330
487
100
AcDbEntity
  8
Calque 1
 62
   193
420
 10040268
370
    50
100
AcDbVertex
100
AcDb2dVertex
 10
551.0826414637919
 20
2169.6505121529
 30
0.0
  0
VERTEX
  5
48C
330
487
100
AcDbEntity
  8
Calque 1
 62
   193
420
 10040268
370
    50
100
AcDbVertex
100
AcDb2dVertex
 10
551.0883258713425
 20
2169.653440484062
 30
0.0
  0
VERTEX
  5
48D
330
487
100
AcDbEntity
  8
Calque 1
 62
   193
420
 10040268
370
    50
100
AcDbVertex
100
AcDb2dVertex
 10
551.1117525206422
 20
2169.669460178069
 30
0.0
  0
VERTEX
  5
48E
330
487
100
AcDbEntity
  8
Calque 1
 62
   193
420
 10040268
370
    50
100
AcDbVertex
100
AcDb2dVertex
 10
551.1183412657577
 20
2169.675144585619
 30
0.0
  0
VERTEX
  5
48F
330
487
100
AcDbEntity
  8
Calque 1
 62
   193
420
 10040268
370
    50
100
AcDbVertex
100
AcDb2dVertex
 10
551.1381075011044
 20
2169.695470648982
 30
0.0
  0
VERTEX
  5
490
330
487
100
AcDbEntity
  8
Calque 1
 62
   193
420
 10040268
370
    50
100
AcDbVertex
100
AcDb2dVertex
 10
551.1441794818971
 20
2169.70304985905
 30
0.0
  0
VERTEX
  5
491
330
487
100
AcDbEntity
  8
Calque 1
 62
   193
420
 10040268
370
    50
100
AcDbVertex
100
AcDb2dVertex
 10
551.1595962841936
 20
2169.726821017898
 30
0.0
  0
VERTEX
  5
492
330
487
100
AcDbEntity
  8
Calque 1
 62
   193
420
 10040268
370
    50
100
AcDbVertex
100
AcDb2dVertex
 10
551.1643763541795
 20
2169.73577826616
 30
0.0
  0
VERTEX
  5
493
330
487
100
AcDbEntity
  8
Calque 1
 62
   193
420
 10040268
370
    50
100
AcDbVertex
100
AcDb2dVertex
 10
551.1755729145065
 20
2169.761788737073
 30
0.0
  0
VERTEX
  5
494
330
487
100
AcDbEntity
  8
Calque 1
 62
   193
420
 10040268
370
    50
100
AcDbVertex
100
AcDb2dVertex
 10
551.1805252392666
 20
2169.777463921531
 30
0.0
  0
VERTEX
  5
495
330
487
100
AcDbEntity
  8
Calque 1
 62
   193
420
 10040268
370
    50
100
AcDbVertex
100
AcDb2dVertex
 10
551.1865110926722
 20
2169.805369194962
 30
0.0
  0
VERTEX
  5
496
330
487
100
AcDbEntity
  8
Calque 1
 62
   193
420
 10040268
370
    50
100
AcDbVertex
100
AcDb2dVertex
 10
551.1892241053667
 20
2169.833618977941
 30
0.0
  0
SEQEND
  5
497
330
487
100
AcDbEntity
  8
Calque 1
 62
   193
420
 10040268
370
    50
  0
POLYLINE
  5
498
330
1F
100
AcDbEntity
  8
Calque 1
 62
   193
420
 10040268
370
    50
100
AcDb2dPolyline
 66
     1
 10
0.0
 20
0.0
 30
0.0
  0
VERTEX
  5
499
330
498
100
AcDbEntity
  8
Calque 1
 62
   193
420
 10040268
370
    50
100
AcDbVertex
100
AcDb2dVertex
 10
551.2225554041866
 20
2169.833618977941
 30
0.0
  0
VERTEX
  5
49A
330
498
100
AcDbEntity
  8
Calque 1
 62
   193
420
 10040268
370
    50
100
AcDbVertex
100
AcDb2dVertex
 10
551.2219525124766
 20
2169.818116048257
 30
0.0
  0
VERTEX
  5
49B
330
498
100
AcDbEntity
  8
Calque 1
 62
   193
420
 10040268
370
    50
100
AcDbVertex
100
AcDb2dVertex
 10
551.2170432514101
 20
2169.78711018889
 30
0.0
  0
VERTEX
  5
49C
330
498
100
AcDbEntity
  8
Calque 1
 62
   193
420
 10040268
370
    50
100
AcDbVertex
100
AcDb2dVertex
 10
551.207353920358
 20
2169.757310112943
 30
0.0
  0
VERTEX
  5
49D
330
498
100
AcDbEntity
  8
Calque 1
 62
   193
420
 10040268
370
    50
100
AcDbVertex
100
AcDb2dVertex
 10
551.2007651752424
 20
2169.743012966679
 30
0.0
  0
VERTEX
  5
49E
330
498
100
AcDbEntity
  8
Calque 1
 62
   193
420
 10040268
370
    50
100
AcDbVertex
100
AcDb2dVertex
 10
551.1843579079939
 20
2169.716313476668
 30
0.0
  0
VERTEX
  5
49F
330
498
100
AcDbEntity
  8
Calque 1
 62
   193
420
 10040268
370
    50
100
AcDbVertex
100
AcDb2dVertex
 10
551.1639887809373
 20
2169.69254231782
 30
0.0
  0
VERTEX
  5
4A0
330
498
100
AcDbEntity
  8
Calque 1
 62
   193
420
 10040268
370
    50
100
AcDbVertex
100
AcDb2dVertex
 10
551.1524477110618
 20
2169.68203477659
 30
0.0
  0
VERTEX
  5
4A1
330
498
100
AcDbEntity
  8
Calque 1
 62
   193
420
 10040268
370
    50
100
AcDbVertex
100
AcDb2dVertex
 10
551.127040131858
 20
2169.663603515744
 30
0.0
  0
VERTEX
  5
4A2
330
498
100
AcDbEntity
  8
Calque 1
 62
   193
420
 10040268
370
    50
100
AcDbVertex
100
AcDb2dVertex
 10
551.0990917947339
 20
2169.64930636948
 30
0.0
  0
VERTEX
  5
4A3
330
498
100
AcDbEntity
  8
Calque 1
 62
   193
420
 10040268
370
    50
100
AcDbVertex
100
AcDb2dVertex
 10
551.0842348204538
 20
2169.643966471478
 30
0.0
  0
VERTEX
  5
4A4
330
498
100
AcDbEntity
  8
Calque 1
 62
   193
420
 10040268
370
    50
100
AcDbVertex
100
AcDb2dVertex
 10
551.0537026617158
 20
2169.636731770959
 30
0.0
  0
VERTEX
  5
4A5
330
498
100
AcDbEntity
  8
Calque 1
 62
   193
420
 10040268
370
    50
100
AcDbVertex
100
AcDb2dVertex
 10
551.0225676112678
 20
2169.634147949345
 30
0.0
  0
SEQEND
  5
4A6
330
498
100
AcDbEntity
  8
Calque 1
 62
   193
420
 10040268
370
    50
  0
POLYLINE
  5
4A7
330
1F
100
AcDbEntity
  8
Calque 1
 62
   193
420
 10040268
370
    50
100
AcDb2dPolyline
 66
     1
 10
0.0
 20
0.0
 30
0.0
  0
VERTEX
  5
4A8
330
4A7
100
AcDbEntity
  8
Calque 1
 62
   193
420
 10040268
370
    50
100
AcDbVertex
100
AcDb2dVertex
 10
551.1892241053667
 20
2223.436204142492
 30
0.0
  0
VERTEX
  5
4A9
330
4A7
100
AcDbEntity
  8
Calque 1
 62
   193
420
 10040268
370
    50
100
AcDbVertex
100
AcDb2dVertex
 10
551.1889226595118
 20
2223.453774129467
 30
0.0
  0
VERTEX
  5
4AA
330
4A7
100
AcDbEntity
  8
Calque 1
 62
   193
420
 10040268
370
    50
100
AcDbVertex
100
AcDb2dVertex
 10
551.1856067551073
 20
2223.482540676768
 30
0.0
  0
VERTEX
  5
4AB
330
4A7
100
AcDbEntity
  8
Calque 1
 62
   193
420
 10040268
370
    50
100
AcDbVertex
100
AcDb2dVertex
 10
551.1786735004432
 20
2223.510790459748
 30
0.0
  0
VERTEX
  5
4AC
330
4A7
100
AcDbEntity
  8
Calque 1
 62
   193
420
 10040268
370
    50
100
AcDbVertex
100
AcDb2dVertex
 10
551.1717402457791
 20
2223.529566230142
 30
0.0
  0
VERTEX
  5
4AD
330
4A7
100
AcDbEntity
  8
Calque 1
 62
   193
420
 10040268
370
    50
100
AcDbVertex
100
AcDb2dVertex
 10
551.1586488829352
 20
2223.555576701056
 30
0.0
  0
VERTEX
  5
4AE
330
4A7
100
AcDbEntity
  8
Calque 1
 62
   193
420
 10040268
370
    50
100
AcDbVertex
100
AcDb2dVertex
 10
551.1418540424446
 20
2223.579175605129
 30
0.0
  0
VERTEX
  5
4AF
330
4A7
100
AcDbEntity
  8
Calque 1
 62
   193
420
 10040268
370
    50
100
AcDbVertex
100
AcDb2dVertex
 10
551.1320355203117
 20
2223.590027655908
 30
0.0
  0
VERTEX
  5
4B0
330
4A7
100
AcDbEntity
  8
Calque 1
 62
   193
420
 10040268
370
    50
100
AcDbVertex
100
AcDb2dVertex
 10
551.1099007818189
 20
2223.608803426303
 30
0.0
  0
VERTEX
  5
4B1
330
4A7
100
AcDbEntity
  8
Calque 1
 62
   193
420
 10040268
370
    50
100
AcDbVertex
100
AcDb2dVertex
 10
551.0847515847765
 20
2223.623445082115
 30
0.0
  0
VERTEX
  5
4B2
330
4A7
100
AcDbEntity
  8
Calque 1
 62
   193
420
 10040268
370
    50
100
AcDbVertex
100
AcDb2dVertex
 10
551.0794116867744
 20
2223.625684394181
 30
0.0
  0
VERTEX
  5
4B3
330
4A7
100
AcDbEntity
  8
Calque 1
 62
   193
420
 10040268
370
    50
100
AcDbVertex
100
AcDb2dVertex
 10
551.0514633496504
 20
2223.633780368571
 30
0.0
  0
VERTEX
  5
4B4
330
4A7
100
AcDbEntity
  8
Calque 1
 62
   193
420
 10040268
370
    50
100
AcDbVertex
100
AcDb2dVertex
 10
551.0225676112678
 20
2223.636019680636
 30
0.0
  0
SEQEND
  5
4B5
330
4A7
100
AcDbEntity
  8
Calque 1
 62
   193
420
 10040268
370
    50
  0
POLYLINE
  5
4B6
330
1F
100
AcDbEntity
  8
Calque 1
 62
   193
420
 10040268
370
    50
100
AcDb2dPolyline
 66
     1
 10
0.0
 20
0.0
 30
0.0
  0
VERTEX
  5
4B7
330
4B6
100
AcDbEntity
  8
Calque 1
 62
   193
420
 10040268
370
    50
100
AcDbVertex
100
AcDb2dVertex
 10
550.9317032178443
 20
2223.639637030896
 30
0.0
  0
VERTEX
  5
4B8
330
4B6
100
AcDbEntity
  8
Calque 1
 62
   193
420
 10040268
370
    50
100
AcDbVertex
100
AcDb2dVertex
 10
550.9404451476382
 20
2223.639464776121
 30
0.0
  0
VERTEX
  5
4B9
330
4B6
100
AcDbEntity
  8
Calque 1
 62
   193
420
 10040268
370
    50
100
AcDbVertex
100
AcDb2dVertex
 10
550.9701160325048
 20
2223.635158406765
 30
0.0
  0
VERTEX
  5
4BA
330
4B6
100
AcDbEntity
  8
Calque 1
 62
   193
420
 10040268
370
    50
100
AcDbVertex
100
AcDb2dVertex
 10
550.9986241976453
 20
2223.625684394181
 30
0.0
  0
VERTEX
  5
4BB
330
4B6
100
AcDbEntity
  8
Calque 1
 62
   193
420
 10040268
370
    50
100
AcDbVertex
100
AcDb2dVertex
 10
551.0134381082319
 20
2223.618277438887
 30
0.0
  0
VERTEX
  5
4BC
330
4B6
100
AcDbEntity
  8
Calque 1
 62
   193
420
 10040268
370
    50
100
AcDbVertex
100
AcDb2dVertex
 10
551.0383719868064
 20
2223.601568725784
 30
0.0
  0
VERTEX
  5
4BD
330
4B6
100
AcDbEntity
  8
Calque 1
 62
   193
420
 10040268
370
    50
100
AcDbVertex
100
AcDb2dVertex
 10
551.0602483431377
 20
2223.581070407647
 30
0.0
  0
VERTEX
  5
4BE
330
4B6
100
AcDbEntity
  8
Calque 1
 62
   193
420
 10040268
370
    50
100
AcDbVertex
100
AcDb2dVertex
 10
551.0726076231911
 20
2223.566084242286
 30
0.0
  0
VERTEX
  5
4BF
330
4B6
100
AcDbEntity
  8
Calque 1
 62
   193
420
 10040268
370
    50
100
AcDbVertex
100
AcDb2dVertex
 10
551.0885842535039
 20
2223.540762790469
 30
0.0
  0
VERTEX
  5
4C0
330
4B6
100
AcDbEntity
  8
Calque 1
 62
   193
420
 10040268
370
    50
100
AcDbVertex
100
AcDb2dVertex
 10
551.1007282150895
 20
2223.513374281361
 30
0.0
  0
VERTEX
  5
4C1
330
4B6
100
AcDbEntity
  8
Calque 1
 62
   193
420
 10040268
370
    50
100
AcDbVertex
100
AcDb2dVertex
 10
551.1053790939945
 20
2223.498904880323
 30
0.0
  0
VERTEX
  5
4C2
330
4B6
100
AcDbEntity
  8
Calque 1
 62
   193
420
 10040268
370
    50
100
AcDbVertex
100
AcDb2dVertex
 10
551.1114510747873
 20
2223.469449313925
 30
0.0
  0
VERTEX
  5
4C3
330
4B6
100
AcDbEntity
  8
Calque 1
 62
   193
420
 10040268
370
    50
100
AcDbVertex
100
AcDb2dVertex
 10
551.1135181320784
 20
2223.439649237977
 30
0.0
  0
SEQEND
  5
4C4
330
4B6
100
AcDbEntity
  8
Calque 1
 62
   193
420
 10040268
370
    50
  0
POLYLINE
  5
4C5
330
1F
100
AcDbEntity
  8
Calque 1
 62
   193
420
 10040268
370
    50
100
AcDb2dPolyline
 66
     1
 10
0.0
 20
0.0
 30
0.0
  0
VERTEX
  5
4C6
330
4C5
100
AcDbEntity
  8
Calque 1
 62
   193
420
 10040268
370
    50
100
AcDbVertex
100
AcDb2dVertex
 10
551.0225676112678
 20
2223.368508016207
 30
0.0
  0
VERTEX
  5
4C7
330
4C5
100
AcDbEntity
  8
Calque 1
 62
   193
420
 10040268
370
    50
100
AcDbVertex
100
AcDb2dVertex
 10
551.0406974262589
 20
2223.36781899711
 30
0.0
  0
VERTEX
  5
4C8
330
4C5
100
AcDbEntity
  8
Calque 1
 62
   193
420
 10040268
370
    50
100
AcDbVertex
100
AcDb2dVertex
 10
551.0703252474322
 20
2223.363168118205
 30
0.0
  0
VERTEX
  5
4C9
330
4C5
100
AcDbEntity
  8
Calque 1
 62
   193
420
 10040268
370
    50
100
AcDbVertex
100
AcDb2dVertex
 10
551.0990917947339
 20
2223.354727634266
 30
0.0
  0
VERTEX
  5
4CA
330
4C5
100
AcDbEntity
  8
Calque 1
 62
   193
420
 10040268
370
    50
100
AcDbVertex
100
AcDb2dVertex
 10
551.1142071511755
 20
2223.348354207618
 30
0.0
  0
VERTEX
  5
4CB
330
4C5
100
AcDbEntity
  8
Calque 1
 62
   193
420
 10040268
370
    50
100
AcDbVertex
100
AcDb2dVertex
 10
551.1403468131698
 20
2223.333712551806
 30
0.0
  0
VERTEX
  5
4CC
330
4C5
100
AcDbEntity
  8
Calque 1
 62
   193
420
 10040268
370
    50
100
AcDbVertex
100
AcDb2dVertex
 10
551.1639887809373
 20
2223.315281290959
 30
0.0
  0
VERTEX
  5
4CD
330
4C5
100
AcDbEntity
  8
Calque 1
 62
   193
420
 10040268
370
    50
100
AcDbVertex
100
AcDb2dVertex
 10
551.1737642393767
 20
2223.305635023601
 30
0.0
  0
VERTEX
  5
4CE
330
4C5
100
AcDbEntity
  8
Calque 1
 62
   193
420
 10040268
370
    50
100
AcDbVertex
100
AcDb2dVertex
 10
551.1926261371584
 20
2223.282380629075
 30
0.0
  0
VERTEX
  5
4CF
330
4C5
100
AcDbEntity
  8
Calque 1
 62
   193
420
 10040268
370
    50
100
AcDbVertex
100
AcDb2dVertex
 10
551.207353920358
 20
2223.256197903388
 30
0.0
  0
VERTEX
  5
4D0
330
4C5
100
AcDbEntity
  8
Calque 1
 62
   193
420
 10040268
370
    50
100
AcDbVertex
100
AcDb2dVertex
 10
551.2118325444887
 20
2223.245345852609
 30
0.0
  0
VERTEX
  5
4D1
330
4C5
100
AcDbEntity
  8
Calque 1
 62
   193
420
 10040268
370
    50
100
AcDbVertex
100
AcDb2dVertex
 10
551.219842391492
 20
2223.216407050533
 30
0.0
  0
VERTEX
  5
4D2
330
4C5
100
AcDbEntity
  8
Calque 1
 62
   193
420
 10040268
370
    50
100
AcDbVertex
100
AcDb2dVertex
 10
551.2225554041866
 20
2223.186606974585
 30
0.0
  0
SEQEND
  5
4D3
330
4C5
100
AcDbEntity
  8
Calque 1
 62
   193
420
 10040268
370
    50
  0
POLYLINE
  5
4D4
330
1F
100
AcDbEntity
  8
Calque 1
 62
   193
420
 10040268
370
    50
100
AcDb2dPolyline
 66
     1
 10
0.0
 20
0.0
 30
0.0
  0
VERTEX
  5
4D5
330
4D4
100
AcDbEntity
  8
Calque 1
 62
   193
420
 10040268
370
    50
100
AcDbVertex
100
AcDb2dVertex
 10
551.0225676112678
 20
2223.368508016207
 30
0.0
  0
VERTEX
  5
4D6
330
4D4
100
AcDbEntity
  8
Calque 1
 62
   193
420
 10040268
370
    50
100
AcDbVertex
100
AcDb2dVertex
 10
551.0332474072721
 20
2223.370575073498
 30
0.0
  0
VERTEX
  5
4D7
330
4D4
100
AcDbEntity
  8
Calque 1
 62
   193
420
 10040268
370
    50
100
AcDbVertex
100
AcDb2dVertex
 10
551.0634350564616
 20
2223.373158895112
 30
0.0
  0
VERTEX
  5
4D8
330
4D4
100
AcDbEntity
  8
Calque 1
 62
   193
420
 10040268
370
    50
100
AcDbVertex
100
AcDb2dVertex
 10
551.0934073871832
 20
2223.370058309175
 30
0.0
  0
VERTEX
  5
4D9
330
4D4
100
AcDbEntity
  8
Calque 1
 62
   193
420
 10040268
370
    50
100
AcDbVertex
100
AcDb2dVertex
 10
551.0999961322988
 20
2223.368335761432
 30
0.0
  0
VERTEX
  5
4DA
330
4D4
100
AcDbEntity
  8
Calque 1
 62
   193
420
 10040268
370
    50
100
AcDbVertex
100
AcDb2dVertex
 10
551.1276430235679
 20
2223.356622436782
 30
0.0
  0
VERTEX
  5
4DB
330
4D4
100
AcDbEntity
  8
Calque 1
 62
   193
420
 10040268
370
    50
100
AcDbVertex
100
AcDb2dVertex
 10
551.133887259135
 20
2223.352660576974
 30
0.0
  0
VERTEX
  5
4DC
330
4D4
100
AcDbEntity
  8
Calque 1
 62
   193
420
 10040268
370
    50
100
AcDbVertex
100
AcDb2dVertex
 10
551.1567540804183
 20
2223.333195787483
 30
0.0
  0
VERTEX
  5
4DD
330
4D4
100
AcDbEntity
  8
Calque 1
 62
   193
420
 10040268
370
    50
100
AcDbVertex
100
AcDb2dVertex
 10
551.1623092968882
 20
2223.326822360835
 30
0.0
  0
VERTEX
  5
4DE
330
4D4
100
AcDbEntity
  8
Calque 1
 62
   193
420
 10040268
370
    50
100
AcDbVertex
100
AcDb2dVertex
 10
551.1782859272012
 20
2223.301328654244
 30
0.0
  0
VERTEX
  5
4DF
330
4D4
100
AcDbEntity
  8
Calque 1
 62
   193
420
 10040268
370
    50
100
AcDbVertex
100
AcDb2dVertex
 10
551.1820324685414
 20
2223.292888170306
 30
0.0
  0
VERTEX
  5
4E0
330
4D4
100
AcDbEntity
  8
Calque 1
 62
   193
420
 10040268
370
    50
100
AcDbVertex
100
AcDb2dVertex
 10
551.1904729524801
 20
2223.263949368229
 30
0.0
  0
VERTEX
  5
4E1
330
4D4
100
AcDbEntity
  8
Calque 1
 62
   193
420
 10040268
370
    50
100
AcDbVertex
100
AcDb2dVertex
 10
551.1928845193198
 20
2223.246723890803
 30
0.0
  0
VERTEX
  5
4E2
330
4D4
100
AcDbEntity
  8
Calque 1
 62
   193
420
 10040268
370
    50
100
AcDbVertex
100
AcDb2dVertex
 10
551.1932290288684
 20
2223.216407050533
 30
0.0
  0
VERTEX
  5
4E3
330
4D4
100
AcDbEntity
  8
Calque 1
 62
   193
420
 10040268
370
    50
100
AcDbVertex
100
AcDb2dVertex
 10
551.1892241053667
 20
2223.186606974585
 30
0.0
  0
SEQEND
  5
4E4
330
4D4
100
AcDbEntity
  8
Calque 1
 62
   193
420
 10040268
370
    50
  0
POLYLINE
  5
4E5
330
1F
100
AcDbEntity
  8
Calque 1
 62
   193
420
 10040268
370
    50
100
AcDb2dPolyline
 66
     1
 10
0.0
 20
0.0
 30
0.0
  0
VERTEX
  5
4E6
330
4E5
100
AcDbEntity
  8
Calque 1
 62
   193
420
 10040268
370
    50
100
AcDbVertex
100
AcDb2dVertex
 10
551.1892241053667
 20
2165.445773113152
 30
0.0
  0
VERTEX
  5
4E7
330
4E5
100
AcDbEntity
  8
Calque 1
 62
   193
420
 10040268
370
    50
100
AcDbVertex
100
AcDb2dVertex
 10
551.1669171120998
 20
2165.443017036765
 30
0.0
  0
VERTEX
  5
4E8
330
4E5
100
AcDbEntity
  8
Calque 1
 62
   193
420
 10040268
370
    50
100
AcDbVertex
100
AcDb2dVertex
 10
551.1147669791918
 20
2165.439744196053
 30
0.0
  0
VERTEX
  5
4E9
330
4E5
100
AcDbEntity
  8
Calque 1
 62
   193
420
 10040268
370
    50
100
AcDbVertex
100
AcDb2dVertex
 10
551.1049484570589
 20
2165.439744196053
 30
0.0
  0
VERTEX
  5
4EA
330
4E5
100
AcDbEntity
  8
Calque 1
 62
   193
420
 10040268
370
    50
100
AcDbVertex
100
AcDb2dVertex
 10
551.0617555724125
 20
2165.446117622701
 30
0.0
  0
VERTEX
  5
4EB
330
4E5
100
AcDbEntity
  8
Calque 1
 62
   193
420
 10040268
370
    50
100
AcDbVertex
100
AcDb2dVertex
 10
551.0527121967638
 20
2165.44973497296
 30
0.0
  0
VERTEX
  5
4EC
330
4E5
100
AcDbEntity
  8
Calque 1
 62
   193
420
 10040268
370
    50
100
AcDbVertex
100
AcDb2dVertex
 10
551.030878904126
 20
2165.466960450387
 30
0.0
  0
VERTEX
  5
4ED
330
4E5
100
AcDbEntity
  8
Calque 1
 62
   193
420
 10040268
370
    50
100
AcDbVertex
100
AcDb2dVertex
 10
551.0227398660421
 20
2165.493832195172
 30
0.0
  0
VERTEX
  5
4EE
330
4E5
100
AcDbEntity
  8
Calque 1
 62
   193
420
 10040268
370
    50
100
AcDbVertex
100
AcDb2dVertex
 10
551.0227829297356
 20
2165.502961698208
 30
0.0
  0
VERTEX
  5
4EF
330
4E5
100
AcDbEntity
  8
Calque 1
 62
   193
420
 10040268
370
    50
100
AcDbVertex
100
AcDb2dVertex
 10
551.0269601080115
 20
2165.526732857056
 30
0.0
  0
VERTEX
  5
4F0
330
4E5
100
AcDbEntity
  8
Calque 1
 62
   193
420
 10040268
370
    50
100
AcDbVertex
100
AcDb2dVertex
 10
551.0364771842895
 20
2165.55394911139
 30
0.0
  0
VERTEX
  5
4F1
330
4E5
100
AcDbEntity
  8
Calque 1
 62
   193
420
 10040268
370
    50
100
AcDbVertex
100
AcDb2dVertex
 10
551.0447023497605
 20
2165.572035862687
 30
0.0
  0
VERTEX
  5
4F2
330
4E5
100
AcDbEntity
  8
Calque 1
 62
   193
420
 10040268
370
    50
100
AcDbVertex
100
AcDb2dVertex
 10
551.0703683111257
 20
2165.617511123092
 30
0.0
  0
VERTEX
  5
4F3
330
4E5
100
AcDbEntity
  8
Calque 1
 62
   193
420
 10040268
370
    50
100
AcDbVertex
100
AcDb2dVertex
 10
551.0942686610546
 20
2165.653684625687
 30
0.0
  0
VERTEX
  5
4F4
330
4E5
100
AcDbEntity
  8
Calque 1
 62
   193
420
 10040268
370
    50
100
AcDbVertex
100
AcDb2dVertex
 10
551.1221739344851
 20
2165.691580676025
 30
0.0
  0
VERTEX
  5
4F5
330
4E5
100
AcDbEntity
  8
Calque 1
 62
   193
420
 10040268
370
    50
100
AcDbVertex
100
AcDb2dVertex
 10
551.1224753803401
 20
2165.691925185574
 30
0.0
  0
VERTEX
  5
4F6
330
4E5
100
AcDbEntity
  8
Calque 1
 62
   193
420
 10040268
370
    50
100
AcDbVertex
100
AcDb2dVertex
 10
551.1551607237564
 20
2165.732749567074
 30
0.0
  0
VERTEX
  5
4F7
330
4E5
100
AcDbEntity
  8
Calque 1
 62
   193
420
 10040268
370
    50
100
AcDbVertex
100
AcDb2dVertex
 10
551.1892241053667
 20
2165.772368165154
 30
0.0
  0
SEQEND
  5
4F8
330
4E5
100
AcDbEntity
  8
Calque 1
 62
   193
420
 10040268
370
    50
  0
POLYLINE
  5
4F9
330
1F
100
AcDbEntity
  8
Calque 1
 62
   193
420
 10040268
370
    50
100
AcDb2dPolyline
 66
     1
 10
0.0
 20
0.0
 30
0.0
  0
VERTEX
  5
4FA
330
4F9
100
AcDbEntity
  8
Calque 1
 62
   193
420
 10040268
370
    50
100
AcDbVertex
100
AcDb2dVertex
 10
551.1892241053667
 20
2164.515597332135
 30
0.0
  0
VERTEX
  5
4FB
330
4F9
100
AcDbEntity
  8
Calque 1
 62
   193
420
 10040268
370
    50
100
AcDbVertex
100
AcDb2dVertex
 10
551.1610173860813
 20
2164.477873536572
 30
0.0
  0
VERTEX
  5
4FC
330
4F9
100
AcDbEntity
  8
Calque 1
 62
   193
420
 10040268
370
    50
100
AcDbVertex
100
AcDb2dVertex
 10
551.1212695969202
 20
2164.420168187194
 30
0.0
  0
VERTEX
  5
4FD
330
4F9
100
AcDbEntity
  8
Calque 1
 62
   193
420
 10040268
370
    50
100
AcDbVertex
100
AcDb2dVertex
 10
551.1024507628321
 20
2164.389679092149
 30
0.0
  0
VERTEX
  5
4FE
330
4F9
100
AcDbEntity
  8
Calque 1
 62
   193
420
 10040268
370
    50
100
AcDbVertex
100
AcDb2dVertex
 10
551.0695070372543
 20
2164.327839628189
 30
0.0
  0
VERTEX
  5
4FF
330
4F9
100
AcDbEntity
  8
Calque 1
 62
   193
420
 10040268
370
    50
100
AcDbVertex
100
AcDb2dVertex
 10
551.0599899609764
 20
2164.306824545729
 30
0.0
  0
VERTEX
  5
500
330
4F9
100
AcDbEntity
  8
Calque 1
 62
   193
420
 10040268
370
    50
100
AcDbVertex
100
AcDb2dVertex
 10
551.0363479932088
 20
2164.240850967186
 30
0.0
  0
VERTEX
  5
501
330
4F9
100
AcDbEntity
  8
Calque 1
 62
   193
420
 10040268
370
    50
100
AcDbVertex
100
AcDb2dVertex
 10
551.0332474072721
 20
2164.229309897311
 30
0.0
  0
VERTEX
  5
502
330
4F9
100
AcDbEntity
  8
Calque 1
 62
   193
420
 10040268
370
    50
100
AcDbVertex
100
AcDb2dVertex
 10
551.0228259934293
 20
2164.159891223283
 30
0.0
  0
VERTEX
  5
503
330
4F9
100
AcDbEntity
  8
Calque 1
 62
   193
420
 10040268
370
    50
100
AcDbVertex
100
AcDb2dVertex
 10
551.0239025857684
 20
2164.122339682494
 30
0.0
  0
VERTEX
  5
504
330
4F9
100
AcDbEntity
  8
Calque 1
 62
   193
420
 10040268
370
    50
100
AcDbVertex
100
AcDb2dVertex
 10
551.0304913308839
 20
2164.087371963319
 30
0.0
  0
VERTEX
  5
505
330
4F9
100
AcDbEntity
  8
Calque 1
 62
   193
420
 10040268
370
    50
100
AcDbVertex
100
AcDb2dVertex
 10
551.0566309928782
 20
2164.030700142586
 30
0.0
  0
VERTEX
  5
506
330
4F9
100
AcDbEntity
  8
Calque 1
 62
   193
420
 10040268
370
    50
100
AcDbVertex
100
AcDb2dVertex
 10
551.0605067252991
 20
2164.02518798981
 30
0.0
  0
VERTEX
  5
507
330
4F9
100
AcDbEntity
  8
Calque 1
 62
   193
420
 10040268
370
    50
100
AcDbVertex
100
AcDb2dVertex
 10
551.084320947841
 20
2163.997799480702
 30
0.0
  0
VERTEX
  5
508
330
4F9
100
AcDbEntity
  8
Calque 1
 62
   193
420
 10040268
370
    50
100
AcDbVertex
100
AcDb2dVertex
 10
551.1137765142398
 20
2163.973167047982
 30
0.0
  0
VERTEX
  5
509
330
4F9
100
AcDbEntity
  8
Calque 1
 62
   193
420
 10040268
370
    50
100
AcDbVertex
100
AcDb2dVertex
 10
551.1266094949224
 20
2163.964554309269
 30
0.0
  0
VERTEX
  5
50A
330
4F9
100
AcDbEntity
  8
Calque 1
 62
   193
420
 10040268
370
    50
100
AcDbVertex
100
AcDb2dVertex
 10
551.1892241053667
 20
2163.933031685579
 30
0.0
  0
SEQEND
  5
50B
330
4F9
100
AcDbEntity
  8
Calque 1
 62
   193
420
 10040268
370
    50
  0
POLYLINE
  5
50C
330
1F
100
AcDbEntity
  8
Calque 1
 62
   193
420
 10040268
370
    50
100
AcDb2dPolyline
 66
     1
 10
0.0
 20
0.0
 30
0.0
  0
VERTEX
  5
50D
330
50C
100
AcDbEntity
  8
Calque 1
 62
   193
420
 10040268
370
    50
100
AcDbVertex
100
AcDb2dVertex
 10
551.1892241053667
 20
2169.507023925939
 30
0.0
  0
VERTEX
  5
50E
330
50C
100
AcDbEntity
  8
Calque 1
 62
   193
420
 10040268
370
    50
100
AcDbVertex
100
AcDb2dVertex
 10
551.1888795958182
 20
2169.507368435488
 30
0.0
  0
VERTEX
  5
50F
330
50C
100
AcDbEntity
  8
Calque 1
 62
   193
420
 10040268
370
    50
100
AcDbVertex
100
AcDb2dVertex
 10
551.1548162142078
 20
2169.546987033568
 30
0.0
  0
VERTEX
  5
510
330
50C
100
AcDbEntity
  8
Calque 1
 62
   193
420
 10040268
370
    50
100
AcDbVertex
100
AcDb2dVertex
 10
551.1221739344851
 20
2169.587811415068
 30
0.0
  0
VERTEX
  5
511
330
50C
100
AcDbEntity
  8
Calque 1
 62
   193
420
 10040268
370
    50
100
AcDbVertex
100
AcDb2dVertex
 10
551.0996516227502
 20
2169.618128255338
 30
0.0
  0
VERTEX
  5
512
330
50C
100
AcDbEntity
  8
Calque 1
 62
   193
420
 10040268
370
    50
100
AcDbVertex
100
AcDb2dVertex
 10
551.0705405658999
 20
2169.661536458453
 30
0.0
  0
VERTEX
  5
513
330
50C
100
AcDbEntity
  8
Calque 1
 62
   193
420
 10040268
370
    50
100
AcDbVertex
100
AcDb2dVertex
 10
551.0511188401018
 20
2169.69495388466
 30
0.0
  0
VERTEX
  5
514
330
50C
100
AcDbEntity
  8
Calque 1
 62
   193
420
 10040268
370
    50
100
AcDbVertex
100
AcDb2dVertex
 10
551.036520247983
 20
2169.725442979704
 30
0.0
  0
VERTEX
  5
515
330
50C
100
AcDbEntity
  8
Calque 1
 62
   193
420
 10040268
370
    50
100
AcDbVertex
100
AcDb2dVertex
 10
551.0327306429493
 20
2169.73457248274
 30
0.0
  0
VERTEX
  5
516
330
50C
100
AcDbEntity
  8
Calque 1
 62
   193
420
 10040268
370
    50
100
AcDbVertex
100
AcDb2dVertex
 10
551.0227829297356
 20
2169.776258138112
 30
0.0
  0
VERTEX
  5
517
330
50C
100
AcDbEntity
  8
Calque 1
 62
   193
420
 10040268
370
    50
100
AcDbVertex
100
AcDb2dVertex
 10
551.0228259934293
 20
2169.785732150696
 30
0.0
  0
VERTEX
  5
518
330
50C
100
AcDbEntity
  8
Calque 1
 62
   193
420
 10040268
370
    50
100
AcDbVertex
100
AcDb2dVertex
 10
551.0308358404325
 20
2169.812431640707
 30
0.0
  0
VERTEX
  5
519
330
50C
100
AcDbEntity
  8
Calque 1
 62
   193
420
 10040268
370
    50
100
AcDbVertex
100
AcDb2dVertex
 10
551.0526260693766
 20
2169.829657118133
 30
0.0
  0
VERTEX
  5
51A
330
50C
100
AcDbEntity
  8
Calque 1
 62
   193
420
 10040268
370
    50
100
AcDbVertex
100
AcDb2dVertex
 10
551.0617555724125
 20
2169.833274468393
 30
0.0
  0
VERTEX
  5
51B
330
50C
100
AcDbEntity
  8
Calque 1
 62
   193
420
 10040268
370
    50
100
AcDbVertex
100
AcDb2dVertex
 10
551.1048623296717
 20
2169.83964789504
 30
0.0
  0
VERTEX
  5
51C
330
50C
100
AcDbEntity
  8
Calque 1
 62
   193
420
 10040268
370
    50
100
AcDbVertex
100
AcDb2dVertex
 10
551.1147239154983
 20
2169.83964789504
 30
0.0
  0
VERTEX
  5
51D
330
50C
100
AcDbEntity
  8
Calque 1
 62
   193
420
 10040268
370
    50
100
AcDbVertex
100
AcDb2dVertex
 10
551.1372031635395
 20
2169.838786621169
 30
0.0
  0
VERTEX
  5
51E
330
50C
100
AcDbEntity
  8
Calque 1
 62
   193
420
 10040268
370
    50
100
AcDbVertex
100
AcDb2dVertex
 10
551.1892241053667
 20
2169.833618977941
 30
0.0
  0
SEQEND
  5
51F
330
50C
100
AcDbEntity
  8
Calque 1
 62
   193
420
 10040268
370
    50
  0
POLYLINE
  5
520
330
1F
100
AcDbEntity
  8
Calque 1
 62
   193
420
 10040268
370
    50
100
AcDb2dPolyline
 66
     1
 10
0.0
 20
0.0
 30
0.0
  0
VERTEX
  5
521
330
520
100
AcDbEntity
  8
Calque 1
 62
   193
420
 10040268
370
    50
100
AcDbVertex
100
AcDb2dVertex
 10
551.1892241053667
 20
2223.436204142492
 30
0.0
  0
VERTEX
  5
522
330
520
100
AcDbEntity
  8
Calque 1
 62
   193
420
 10040268
370
    50
100
AcDbVertex
100
AcDb2dVertex
 10
551.1835396978162
 20
2223.43654865204
 30
0.0
  0
VERTEX
  5
523
330
520
100
AcDbEntity
  8
Calque 1
 62
   193
420
 10040268
370
    50
100
AcDbVertex
100
AcDb2dVertex
 10
551.1760035514421
 20
2223.437237671137
 30
0.0
  0
VERTEX
  5
524
330
520
100
AcDbEntity
  8
Calque 1
 62
   193
420
 10040268
370
    50
100
AcDbVertex
100
AcDb2dVertex
 10
551.1684243413746
 20
2223.43775443546
 30
0.0
  0
VERTEX
  5
525
330
520
100
AcDbEntity
  8
Calque 1
 62
   193
420
 10040268
370
    50
100
AcDbVertex
100
AcDb2dVertex
 10
551.1665295388577
 20
2223.43775443546
 30
0.0
  0
VERTEX
  5
526
330
520
100
AcDbEntity
  8
Calque 1
 62
   193
420
 10040268
370
    50
100
AcDbVertex
100
AcDb2dVertex
 10
551.1589503287902
 20
2223.438271199783
 30
0.0
  0
VERTEX
  5
527
330
520
100
AcDbEntity
  8
Calque 1
 62
   193
420
 10040268
370
    50
100
AcDbVertex
100
AcDb2dVertex
 10
551.1514141824161
 20
2223.438615709331
 30
0.0
  0
VERTEX
  5
528
330
520
100
AcDbEntity
  8
Calque 1
 62
   193
420
 10040268
370
    50
100
AcDbVertex
100
AcDb2dVertex
 10
551.1438349723486
 20
2223.43896021888
 30
0.0
  0
VERTEX
  5
529
330
520
100
AcDbEntity
  8
Calque 1
 62
   193
420
 10040268
370
    50
100
AcDbVertex
100
AcDb2dVertex
 10
551.136255762281
 20
2223.439304728428
 30
0.0
  0
VERTEX
  5
52A
330
520
100
AcDbEntity
  8
Calque 1
 62
   193
420
 10040268
370
    50
100
AcDbVertex
100
AcDb2dVertex
 10
551.1286765522135
 20
2223.439476983203
 30
0.0
  0
VERTEX
  5
52B
330
520
100
AcDbEntity
  8
Calque 1
 62
   193
420
 10040268
370
    50
100
AcDbVertex
100
AcDb2dVertex
 10
551.121097342146
 20
2223.439649237977
 30
0.0
  0
VERTEX
  5
52C
330
520
100
AcDbEntity
  8
Calque 1
 62
   193
420
 10040268
370
    50
100
AcDbVertex
100
AcDb2dVertex
 10
551.1135181320784
 20
2223.439649237977
 30
0.0
  0
SEQEND
  5
52D
330
520
100
AcDbEntity
  8
Calque 1
 62
   193
420
 10040268
370
    50
  0
POLYLINE
  5
52E
330
1F
100
AcDbEntity
  8
Calque 1
 62
   193
420
 10040268
370
    50
100
AcDb2dPolyline
 66
     1
 10
0.0
 20
0.0
 30
0.0
  0
VERTEX
  5
52F
330
52E
100
AcDbEntity
  8
Calque 1
 62
   193
420
 10040268
370
    50
100
AcDbVertex
100
AcDb2dVertex
 10
551.1135181320784
 20
2223.439649237977
 30
0.0
  0
VERTEX
  5
530
330
52E
100
AcDbEntity
  8
Calque 1
 62
   193
420
 10040268
370
    50
100
AcDbVertex
100
AcDb2dVertex
 10
551.1052068392203
 20
2223.439649237977
 30
0.0
  0
VERTEX
  5
531
330
52E
100
AcDbEntity
  8
Calque 1
 62
   193
420
 10040268
370
    50
100
AcDbVertex
100
AcDb2dVertex
 10
551.066966279334
 20
2223.435859632943
 30
0.0
  0
VERTEX
  5
532
330
52E
100
AcDbEntity
  8
Calque 1
 62
   193
420
 10040268
370
    50
100
AcDbVertex
100
AcDb2dVertex
 10
551.0629182921388
 20
2223.434998359072
 30
0.0
  0
VERTEX
  5
533
330
52E
100
AcDbEntity
  8
Calque 1
 62
   193
420
 10040268
370
    50
100
AcDbVertex
100
AcDb2dVertex
 10
551.0369508849187
 20
2223.423801798745
 30
0.0
  0
VERTEX
  5
534
330
52E
100
AcDbEntity
  8
Calque 1
 62
   193
420
 10040268
370
    50
100
AcDbVertex
100
AcDb2dVertex
 10
551.023342757752
 20
2223.402958971059
 30
0.0
  0
VERTEX
  5
535
330
52E
100
AcDbEntity
  8
Calque 1
 62
   193
420
 10040268
370
    50
100
AcDbVertex
100
AcDb2dVertex
 10
551.0251944965753
 20
2223.377293009694
 30
0.0
  0
VERTEX
  5
536
330
52E
100
AcDbEntity
  8
Calque 1
 62
   193
420
 10040268
370
    50
100
AcDbVertex
100
AcDb2dVertex
 10
551.0264002799952
 20
2223.37350340466
 30
0.0
  0
VERTEX
  5
537
330
52E
100
AcDbEntity
  8
Calque 1
 62
   193
420
 10040268
370
    50
100
AcDbVertex
100
AcDb2dVertex
 10
551.0277352544957
 20
2223.369713799626
 30
0.0
  0
VERTEX
  5
538
330
52E
100
AcDbEntity
  8
Calque 1
 62
   193
420
 10040268
370
    50
100
AcDbVertex
100
AcDb2dVertex
 10
551.0454774962448
 20
2223.335779609097
 30
0.0
  0
VERTEX
  5
539
330
52E
100
AcDbEntity
  8
Calque 1
 62
   193
420
 10040268
370
    50
100
AcDbVertex
100
AcDb2dVertex
 10
551.0556405279262
 20
2223.321137953285
 30
0.0
  0
VERTEX
  5
53A
330
52E
100
AcDbEntity
  8
Calque 1
 62
   193
420
 10040268
370
    50
100
AcDbVertex
100
AcDb2dVertex
 10
551.0796700689358
 20
2223.291165622563
 30
0.0
  0
VERTEX
  5
53B
330
52E
100
AcDbEntity
  8
Calque 1
 62
   193
420
 10040268
370
    50
100
AcDbVertex
100
AcDb2dVertex
 10
551.1006851513959
 20
2223.268083482812
 30
0.0
  0
VERTEX
  5
53C
330
52E
100
AcDbEntity
  8
Calque 1
 62
   193
420
 10040268
370
    50
100
AcDbVertex
100
AcDb2dVertex
 10
551.1278152783422
 20
2223.241039483252
 30
0.0
  0
VERTEX
  5
53D
330
52E
100
AcDbEntity
  8
Calque 1
 62
   193
420
 10040268
370
    50
100
AcDbVertex
100
AcDb2dVertex
 10
551.1316910107631
 20
2223.237422132993
 30
0.0
  0
VERTEX
  5
53E
330
52E
100
AcDbEntity
  8
Calque 1
 62
   193
420
 10040268
370
    50
100
AcDbVertex
100
AcDb2dVertex
 10
551.1600269211293
 20
2223.211411662079
 30
0.0
  0
VERTEX
  5
53F
330
52E
100
AcDbEntity
  8
Calque 1
 62
   193
420
 10040268
370
    50
100
AcDbVertex
100
AcDb2dVertex
 10
551.1892241053667
 20
2223.186606974585
 30
0.0
  0
SEQEND
  5
540
330
52E
100
AcDbEntity
  8
Calque 1
 62
   193
420
 10040268
370
    50
  0
POLYLINE
  5
541
330
1F
100
AcDbEntity
  8
Calque 1
 62
   250
420
  2236966
370
    50
100
AcDb2dPolyline
 66
     1
 10
0.0
 20
0.0
 30
0.0
  0
VERTEX
  5
542
330
541
100
AcDbEntity
  8
Calque 1
 62
   250
420
  2236966
370
    50
100
AcDbVertex
100
AcDb2dVertex
 10
452.2225689923046
 20
208.6396980611756
 30
0.0
  0
VERTEX
  5
543
330
541
100
AcDbEntity
  8
Calque 1
 62
   250
420
  2236966
370
    50
100
AcDbVertex
100
AcDb2dVertex
 10
452.322562888764
 20
208.6396980611756
 30
0.0
  0
SEQEND
  5
544
330
541
100
AcDbEntity
  8
Calque 1
 62
   250
420
  2236966
370
    50
  0
POLYLINE
  5
545
330
1F
100
AcDbEntity
  8
Calque 1
 62
   250
420
  2236966
370
    50
100
AcDb2dPolyline
 66
     1
 10
0.0
 20
0.0
 30
0.0
  0
VERTEX
  5
546
330
545
100
AcDbEntity
  8
Calque 1
 62
   250
420
  2236966
370
    50
100
AcDbVertex
100
AcDb2dVertex
 10
453.3225449170513
 20
208.6396980611756
 30
0.0
  0
VERTEX
  5
547
330
545
100
AcDbEntity
  8
Calque 1
 62
   250
420
  2236966
370
    50
100
AcDbVertex
100
AcDb2dVertex
 10
455.2225581408602
 20
208.6396980611756
 30
0.0
  0
SEQEND
  5
548
330
545
100
AcDbEntity
  8
Calque 1
 62
   250
420
  2236966
370
    50
  0
POLYLINE
  5
549
330
1F
100
AcDbEntity
  8
Calque 1
 62
   250
420
  2236966
370
    50
100
AcDb2dPolyline
 66
     1
 10
0.0
 20
0.0
 30
0.0
  0
VERTEX
  5
54A
330
549
100
AcDbEntity
  8
Calque 1
 62
   250
420
  2236966
370
    50
100
AcDbVertex
100
AcDb2dVertex
 10
436.2225550938523
 20
2208.639691288118
 30
0.0
  0
VERTEX
  5
54B
330
549
100
AcDbEntity
  8
Calque 1
 62
   250
420
  2236966
370
    50
100
AcDbVertex
100
AcDb2dVertex
 10
436.2225550938523
 20
223.6397083994937
 30
0.0
  0
SEQEND
  5
54C
330
549
100
AcDbEntity
  8
Calque 1
 62
   250
420
  2236966
370
    50
  0
POLYLINE
  5
54D
330
1F
100
AcDbEntity
  8
Calque 1
 62
   250
420
  2236966
370
    50
100
AcDb2dPolyline
 66
     1
 10
0.0
 20
0.0
 30
0.0
  0
VERTEX
  5
54E
330
54D
100
AcDbEntity
  8
Calque 1
 62
   250
420
  2236966
370
    50
100
AcDbVertex
100
AcDb2dVertex
 10
453.9225513595011
 20
208.6396980611756
 30
0.0
  0
VERTEX
  5
54F
330
54D
100
AcDbEntity
  8
Calque 1
 62
   250
420
  2236966
370
    50
100
AcDbVertex
100
AcDb2dVertex
 10
453.9225513595011
 20
2208.639691288118
 30
0.0
  0
SEQEND
  5
550
330
54D
100
AcDbEntity
  8
Calque 1
 62
   250
420
  2236966
370
    50
  0
POLYLINE
  5
551
330
1F
100
AcDbEntity
  8
Calque 1
 62
   250
420
  2236966
370
    50
100
AcDb2dPolyline
 66
     1
 10
0.0
 20
0.0
 30
0.0
  0
VERTEX
  5
552
330
551
100
AcDbEntity
  8
Calque 1
 62
   250
420
  2236966
370
    50
100
AcDbVertex
100
AcDb2dVertex
 10
455.2225581408602
 20
208.6396980611756
 30
0.0
  0
VERTEX
  5
553
330
551
100
AcDbEntity
  8
Calque 1
 62
   250
420
  2236966
370
    50
100
AcDbVertex
100
AcDb2dVertex
 10
455.2225581408602
 20
2208.639691288118
 30
0.0
  0
SEQEND
  5
554
330
551
100
AcDbEntity
  8
Calque 1
 62
   250
420
  2236966
370
    50
  0
POLYLINE
  5
555
330
1F
100
AcDbEntity
  8
Calque 1
 62
   250
420
  2236966
370
    50
100
AcDb2dPolyline
 66
     1
 10
0.0
 20
0.0
 30
0.0
  0
VERTEX
  5
556
330
555
100
AcDbEntity
  8
Calque 1
 62
   250
420
  2236966
370
    50
100
AcDbVertex
100
AcDb2dVertex
 10
436.2225550938523
 20
2208.639691288118
 30
0.0
  0
VERTEX
  5
557
330
555
100
AcDbEntity
  8
Calque 1
 62
   250
420
  2236966
370
    50
100
AcDbVertex
100
AcDb2dVertex
 10
455.2225581408602
 20
2208.639691288118
 30
0.0
  0
SEQEND
  5
558
330
555
100
AcDbEntity
  8
Calque 1
 62
   250
420
  2236966
370
    50
  0
POLYLINE
  5
559
330
1F
100
AcDbEntity
  8
Calque 1
 62
   250
420
  2236966
370
    50
100
AcDb2dPolyline
 66
     1
 10
0.0
 20
0.0
 30
0.0
  0
VERTEX
  5
55A
330
559
100
AcDbEntity
  8
Calque 1
 62
   250
420
  2236966
370
    50
100
AcDbVertex
100
AcDb2dVertex
 10
1650.222613791003
 20
208.6396980611756
 30
0.0
  0
VERTEX
  5
55B
330
559
100
AcDbEntity
  8
Calque 1
 62
   250
420
  2236966
370
    50
100
AcDbVertex
100
AcDb2dVertex
 10
1698.222612422667
 20
208.6396980611756
 30
0.0
  0
SEQEND
  5
55C
330
559
100
AcDbEntity
  8
Calque 1
 62
   250
420
  2236966
370
    50
  0
POLYLINE
  5
55D
330
1F
100
AcDbEntity
  8
Calque 1
 62
   250
420
  2236966
370
    50
100
AcDb2dPolyline
 66
     1
 10
0.0
 20
0.0
 30
0.0
  0
VERTEX
  5
55E
330
55D
100
AcDbEntity
  8
Calque 1
 62
   250
420
  2236966
370
    50
100
AcDbVertex
100
AcDb2dVertex
 10
1650.222613791003
 20
208.6396980611756
 30
0.0
  0
VERTEX
  5
55F
330
55D
100
AcDbEntity
  8
Calque 1
 62
   250
420
  2236966
370
    50
100
AcDbVertex
100
AcDb2dVertex
 10
1650.222613791003
 20
2202.469180764487
 30
0.0
  0
SEQEND
  5
560
330
55D
100
AcDbEntity
  8
Calque 1
 62
   250
420
  2236966
370
    50
  0
POLYLINE
  5
561
330
1F
100
AcDbEntity
  8
Calque 1
 62
   250
420
  2236966
370
    50
100
AcDb2dPolyline
 66
     1
 10
0.0
 20
0.0
 30
0.0
  0
VERTEX
  5
562
330
561
100
AcDbEntity
  8
Calque 1
 62
   250
420
  2236966
370
    50
100
AcDbVertex
100
AcDb2dVertex
 10
1650.722497145913
 20
2202.269192971568
 30
0.0
  0
VERTEX
  5
563
330
561
100
AcDbEntity
  8
Calque 1
 62
   250
420
  2236966
370
    50
100
AcDbVertex
100
AcDb2dVertex
 10
1650.722497145913
 20
208.6396980611756
 30
0.0
  0
SEQEND
  5
564
330
561
100
AcDbEntity
  8
Calque 1
 62
   250
420
  2236966
370
    50
  0
POLYLINE
  5
565
330
1F
100
AcDbEntity
  8
Calque 1
 62
   250
420
  2236966
370
    50
100
AcDb2dPolyline
 66
     1
 10
0.0
 20
0.0
 30
0.0
  0
VERTEX
  5
566
330
565
100
AcDbEntity
  8
Calque 1
 62
   250
420
  2236966
370
    50
100
AcDbVertex
100
AcDb2dVertex
 10
1698.222612422667
 20
2202.469180764487
 30
0.0
  0
VERTEX
  5
567
330
565
100
AcDbEntity
  8
Calque 1
 62
   250
420
  2236966
370
    50
100
AcDbVertex
100
AcDb2dVertex
 10
1698.222612422667
 20
208.6396980611756
 30
0.0
  0
SEQEND
  5
568
330
565
100
AcDbEntity
  8
Calque 1
 62
   250
420
  2236966
370
    50
  0
POLYLINE
  5
569
330
1F
100
AcDbEntity
  8
Calque 1
 62
   250
420
  2236966
370
    50
100
AcDb2dPolyline
 66
     1
 10
0.0
 20
0.0
 30
0.0
  0
VERTEX
  5
56A
330
569
100
AcDbEntity
  8
Calque 1
 62
   250
420
  2236966
370
    50
100
AcDbVertex
100
AcDb2dVertex
 10
536.2225665977152
 20
2223.639637030896
 30
0.0
  0
VERTEX
  5
56B
330
569
100
AcDbEntity
  8
Calque 1
 62
   250
420
  2236966
370
    50
100
AcDbVertex
100
AcDb2dVertex
 10
536.2225665977152
 20
2223.439649237977
 30
0.0
  0
SEQEND
  5
56C
330
569
100
AcDbEntity
  8
Calque 1
 62
   250
420
  2236966
370
    50
  0
POLYLINE
  5
56D
330
1F
100
AcDbEntity
  8
Calque 1
 62
   250
420
  2236966
370
    50
100
AcDb2dPolyline
 66
     1
 10
0.0
 20
0.0
 30
0.0
  0
VERTEX
  5
56E
330
56D
100
AcDbEntity
  8
Calque 1
 62
   250
420
  2236966
370
    50
100
AcDbVertex
100
AcDb2dVertex
 10
555.2225696447231
 20
2223.639637030896
 30
0.0
  0
VERTEX
  5
56F
330
56D
100
AcDbEntity
  8
Calque 1
 62
   250
420
  2236966
370
    50
100
AcDbVertex
100
AcDb2dVertex
 10
555.2225696447231
 20
2223.439649237977
 30
0.0
  0
SEQEND
  5
570
330
56D
100
AcDbEntity
  8
Calque 1
 62
   250
420
  2236966
370
    50
  0
POLYLINE
  5
571
330
1F
100
AcDbEntity
  8
Calque 1
 62
   250
420
  2236966
370
    50
100
AcDb2dPolyline
 66
     1
 10
0.0
 20
0.0
 30
0.0
  0
VERTEX
  5
572
330
571
100
AcDbEntity
  8
Calque 1
 62
   250
420
  2236966
370
    50
100
AcDbVertex
100
AcDb2dVertex
 10
536.2225665977152
 20
2223.639637030896
 30
0.0
  0
VERTEX
  5
573
330
571
100
AcDbEntity
  8
Calque 1
 62
   250
420
  2236966
370
    50
100
AcDbVertex
100
AcDb2dVertex
 10
536.422554390634
 20
2223.639637030896
 30
0.0
  0
SEQEND
  5
574
330
571
100
AcDbEntity
  8
Calque 1
 62
   250
420
  2236966
370
    50
  0
POLYLINE
  5
575
330
1F
100
AcDbEntity
  8
Calque 1
 62
   250
420
  2236966
370
    50
100
AcDb2dPolyline
 66
     1
 10
0.0
 20
0.0
 30
0.0
  0
VERTEX
  5
576
330
575
100
AcDbEntity
  8
Calque 1
 62
   250
420
  2236966
370
    50
100
AcDbVertex
100
AcDb2dVertex
 10
555.0225818518043
 20
2223.639637030896
 30
0.0
  0
VERTEX
  5
577
330
575
100
AcDbEntity
  8
Calque 1
 62
   250
420
  2236966
370
    50
100
AcDbVertex
100
AcDb2dVertex
 10
555.2225696447231
 20
2223.639637030896
 30
0.0
  0
SEQEND
  5
578
330
575
100
AcDbEntity
  8
Calque 1
 62
   250
420
  2236966
370
    50
  0
POLYLINE
  5
579
330
1F
100
AcDbEntity
  8
Calque 1
 62
   250
420
  2236966
370
    50
100
AcDb2dPolyline
 66
     1
 10
0.0
 20
0.0
 30
0.0
  0
VERTEX
  5
57A
330
579
100
AcDbEntity
  8
Calque 1
 62
   250
420
  2236966
370
    50
100
AcDbVertex
100
AcDb2dVertex
 10
452.2225689923046
 20
208.6396980611756
 30
0.0
  0
VERTEX
  5
57B
330
579
100
AcDbEntity
  8
Calque 1
 62
   250
420
  2236966
370
    50
100
AcDbVertex
100
AcDb2dVertex
 10
429.2225517047603
 20
208.6396980611756
 30
0.0
  0
SEQEND
  5
57C
330
579
100
AcDbEntity
  8
Calque 1
 62
   250
420
  2236966
370
    50
  0
POLYLINE
  5
57D
330
1F
100
AcDbEntity
  8
Calque 1
 62
   250
420
  2236966
370
    50
100
AcDb2dPolyline
 66
     1
 10
0.0
 20
0.0
 30
0.0
  0
VERTEX
  5
57E
330
57D
100
AcDbEntity
  8
Calque 1
 62
   250
420
  2236966
370
    50
100
AcDbVertex
100
AcDb2dVertex
 10
429.2225517047603
 20
221.6397012792255
 30
0.0
  0
VERTEX
  5
57F
330
57D
100
AcDbEntity
  8
Calque 1
 62
   250
420
  2236966
370
    50
100
AcDbVertex
100
AcDb2dVertex
 10
452.2225689923046
 20
221.6397012792255
 30
0.0
  0
SEQEND
  5
580
330
57D
100
AcDbEntity
  8
Calque 1
 62
   250
420
  2236966
370
    50
  0
POLYLINE
  5
581
330
1F
100
AcDbEntity
  8
Calque 1
 62
   250
420
  2236966
370
    50
100
AcDb2dPolyline
 66
     1
 10
0.0
 20
0.0
 30
0.0
  0
VERTEX
  5
582
330
581
100
AcDbEntity
  8
Calque 1
 62
   250
420
  2236966
370
    50
100
AcDbVertex
100
AcDb2dVertex
 10
450.2225618720364
 20
223.6397083994937
 30
0.0
  0
VERTEX
  5
583
330
581
100
AcDbEntity
  8
Calque 1
 62
   250
420
  2236966
370
    50
100
AcDbVertex
100
AcDb2dVertex
 10
431.2225588250286
 20
223.6397083994937
 30
0.0
  0
SEQEND
  5
584
330
581
100
AcDbEntity
  8
Calque 1
 62
   250
420
  2236966
370
    50
  0
POLYLINE
  5
585
330
1F
100
AcDbEntity
  8
Calque 1
 62
   250
420
  2236966
370
    50
100
AcDb2dPolyline
 66
     1
 10
0.0
 20
0.0
 30
0.0
  0
VERTEX
  5
586
330
585
100
AcDbEntity
  8
Calque 1
 62
   250
420
  2236966
370
    50
100
AcDbVertex
100
AcDb2dVertex
 10
429.2225517047603
 20
208.6396980611756
 30
0.0
  0
VERTEX
  5
587
330
585
100
AcDbEntity
  8
Calque 1
 62
   250
420
  2236966
370
    50
100
AcDbVertex
100
AcDb2dVertex
 10
429.2225517047603
 20
221.6397012792255
 30
0.0
  0
SEQEND
  5
588
330
585
100
AcDbEntity
  8
Calque 1
 62
   250
420
  2236966
370
    50
  0
POLYLINE
  5
589
330
1F
100
AcDbEntity
  8
Calque 1
 62
   250
420
  2236966
370
    50
100
AcDb2dPolyline
 66
     1
 10
0.0
 20
0.0
 30
0.0
  0
VERTEX
  5
58A
330
589
100
AcDbEntity
  8
Calque 1
 62
   250
420
  2236966
370
    50
100
AcDbVertex
100
AcDb2dVertex
 10
431.2225588250286
 20
208.6396980611756
 30
0.0
  0
VERTEX
  5
58B
330
589
100
AcDbEntity
  8
Calque 1
 62
   250
420
  2236966
370
    50
100
AcDbVertex
100
AcDb2dVertex
 10
431.2225588250286
 20
223.6397083994937
 30
0.0
  0
SEQEND
  5
58C
330
589
100
AcDbEntity
  8
Calque 1
 62
   250
420
  2236966
370
    50
  0
POLYLINE
  5
58D
330
1F
100
AcDbEntity
  8
Calque 1
 62
   250
420
  2236966
370
    50
100
AcDb2dPolyline
 66
     1
 10
0.0
 20
0.0
 30
0.0
  0
VERTEX
  5
58E
330
58D
100
AcDbEntity
  8
Calque 1
 62
   250
420
  2236966
370
    50
100
AcDbVertex
100
AcDb2dVertex
 10
450.2225618720364
 20
223.6397083994937
 30
0.0
  0
VERTEX
  5
58F
330
58D
100
AcDbEntity
  8
Calque 1
 62
   250
420
  2236966
370
    50
100
AcDbVertex
100
AcDb2dVertex
 10
450.2225618720364
 20
208.6396980611756
 30
0.0
  0
SEQEND
  5
590
330
58D
100
AcDbEntity
  8
Calque 1
 62
   250
420
  2236966
370
    50
  0
POLYLINE
  5
591
330
1F
100
AcDbEntity
  8
Calque 1
 62
   250
420
  2236966
370
    50
100
AcDb2dPolyline
 66
     1
 10
0.0
 20
0.0
 30
0.0
  0
VERTEX
  5
592
330
591
100
AcDbEntity
  8
Calque 1
 62
   250
420
  2236966
370
    50
100
AcDbVertex
100
AcDb2dVertex
 10
452.2225689923046
 20
208.6396980611756
 30
0.0
  0
VERTEX
  5
593
330
591
100
AcDbEntity
  8
Calque 1
 62
   250
420
  2236966
370
    50
100
AcDbVertex
100
AcDb2dVertex
 10
452.2225689923046
 20
221.6397012792255
 30
0.0
  0
SEQEND
  5
594
330
591
100
AcDbEntity
  8
Calque 1
 62
   250
420
  2236966
370
    50
  0
SPLINE
  5
595
330
1F
100
AcDbEntity
  8
Calque 1
 62
   250
420
  2236966
370
    50
100
AcDbSpline
210
0.0
220
0.0
230
1.0
 70
     8
 71
     3
 72
     8
 73
     4
 74
     0
 42
0.0000000001
 43
0.0000000001
 12
1.0
 22
0.0
 32
0.0
 13
1.0
 23
0.0
 33
0.0
 40
0.0
 40
0.0
 40
0.0
 40
0.0
 40
1.0
 40
1.0
 40
1.0
 40
1.0
 10
429.8083471283335
 20
223.0539129759206
 30
0.0
 10
429.433262357377
 20
222.6788497368108
 30
0.0
 10
429.2225517047603
 20
222.1701383247201
 30
0.0
 10
429.2225517047603
 20
221.6397012792255
 30
0.0
  0
SPLINE
  5
596
330
1F
100
AcDbEntity
  8
Calque 1
 62
   250
420
  2236966
370
    50
100
AcDbSpline
210
0.0
220
0.0
230
1.0
 70
     8
 71
     3
 72
     8
 73
     4
 74
     0
 42
0.0000000001
 43
0.0000000001
 12
1.0
 22
0.0
 32
0.0
 13
1.0
 23
0.0
 33
0.0
 40
0.0
 40
0.0
 40
0.0
 40
0.0
 40
1.0
 40
1.0
 40
1.0
 40
1.0
 10
431.2225588250286
 20
223.6397083994937
 30
0.0
 10
430.6921433113808
 20
223.6397083994937
 30
0.0
 10
430.1834318992901
 20
223.4289977468771
 30
0.0
 10
429.8083471283335
 20
223.0539129759206
 30
0.0
  0
SPLINE
  5
597
330
1F
100
AcDbEntity
  8
Calque 1
 62
   250
420
  2236966
370
    50
100
AcDbSpline
210
0.0
220
0.0
230
1.0
 70
     8
 71
     3
 72
     8
 73
     4
 74
     0
 42
0.0000000001
 43
0.0000000001
 12
1.0
 22
0.0
 32
0.0
 13
1.0
 23
0.0
 33
0.0
 40
0.0
 40
0.0
 40
0.0
 40
0.0
 40
1.0
 40
1.0
 40
1.0
 40
1.0
 10
452.2225689923046
 20
221.6397012792255
 30
0.0
 10
452.2225689923046
 20
222.7442850191837
 30
0.0
 10
451.3271456119946
 20
223.6397083994937
 30
0.0
 10
450.2225618720364
 20
223.6397083994937
 30
0.0
  0
POLYLINE
  5
598
330
1F
100
AcDbEntity
  8
Calque 1
 62
   250
420
  2236966
370
    50
100
AcDb2dPolyline
 66
     1
 10
0.0
 20
0.0
 30
0.0
  0
VERTEX
  5
599
330
598
100
AcDbEntity
  8
Calque 1
 62
   250
420
  2236966
370
    50
100
AcDbVertex
100
AcDb2dVertex
 10
547.0975703249227
 20
2223.639637030896
 30
0.0
  0
VERTEX
  5
59A
330
598
100
AcDbEntity
  8
Calque 1
 62
   250
420
  2236966
370
    50
100
AcDbVertex
100
AcDb2dVertex
 10
547.5975828709131
 20
2224.13969264058
 30
0.0
  0
SEQEND
  5
59B
330
598
100
AcDbEntity
  8
Calque 1
 62
   250
420
  2236966
370
    50
  0
POLYLINE
  5
59C
330
1F
100
AcDbEntity
  8
Calque 1
 62
   250
420
  2236966
370
    50
100
AcDb2dPolyline
 66
     1
 10
0.0
 20
0.0
 30
0.0
  0
VERTEX
  5
59D
330
59C
100
AcDbEntity
  8
Calque 1
 62
   250
420
  2236966
370
    50
100
AcDbVertex
100
AcDb2dVertex
 10
543.3475838892282
 20
2224.13969264058
 30
0.0
  0
VERTEX
  5
59E
330
59C
100
AcDbEntity
  8
Calque 1
 62
   250
420
  2236966
370
    50
100
AcDbVertex
100
AcDb2dVertex
 10
543.8475533715251
 20
2223.639637030896
 30
0.0
  0
SEQEND
  5
59F
330
59C
100
AcDbEntity
  8
Calque 1
 62
   250
420
  2236966
370
    50
  0
POLYLINE
  5
5A0
330
1F
100
AcDbEntity
  8
Calque 1
 62
   250
420
  2236966
370
    50
100
AcDb2dPolyline
 66
     1
 10
0.0
 20
0.0
 30
0.0
  0
VERTEX
  5
5A1
330
5A0
100
AcDbEntity
  8
Calque 1
 62
   250
420
  2236966
370
    50
100
AcDbVertex
100
AcDb2dVertex
 10
453.3153963439194
 20
208.6396980611756
 30
0.0
  0
VERTEX
  5
5A2
330
5A0
100
AcDbEntity
  8
Calque 1
 62
   250
420
  2236966
370
    50
100
AcDbVertex
100
AcDb2dVertex
 10
452.322562888764
 20
208.6396980611756
 30
0.0
  0
SEQEND
  5
5A3
330
5A0
100
AcDbEntity
  8
Calque 1
 62
   250
420
  2236966
370
    50
  0
POLYLINE
  5
5A4
330
1F
100
AcDbEntity
  8
Calque 1
 62
   250
420
  2236966
370
    50
100
AcDb2dPolyline
 66
     1
 10
0.0
 20
0.0
 30
0.0
  0
VERTEX
  5
5A5
330
5A4
100
AcDbEntity
  8
Calque 1
 62
   250
420
  2236966
370
    50
100
AcDbVertex
100
AcDb2dVertex
 10
453.3225449170513
 20
221.6397012792255
 30
0.0
  0
VERTEX
  5
5A6
330
5A4
100
AcDbEntity
  8
Calque 1
 62
   250
420
  2236966
370
    50
100
AcDbVertex
100
AcDb2dVertex
 10
452.5225506816827
 20
221.6397012792255
 30
0.0
  0
SEQEND
  5
5A7
330
5A4
100
AcDbEntity
  8
Calque 1
 62
   250
420
  2236966
370
    50
  0
POLYLINE
  5
5A8
330
1F
100
AcDbEntity
  8
Calque 1
 62
   250
420
  2236966
370
    50
100
AcDb2dPolyline
 66
     1
 10
0.0
 20
0.0
 30
0.0
  0
VERTEX
  5
5A9
330
5A8
100
AcDbEntity
  8
Calque 1
 62
   250
420
  2236966
370
    50
100
AcDbVertex
100
AcDb2dVertex
 10
450.3225557684958
 20
223.6397083994937
 30
0.0
  0
VERTEX
  5
5AA
330
5A8
100
AcDbEntity
  8
Calque 1
 62
   250
420
  2236966
370
    50
100
AcDbVertex
100
AcDb2dVertex
 10
450.2225618720364
 20
223.6397083994937
 30
0.0
  0
SEQEND
  5
5AB
330
5A8
100
AcDbEntity
  8
Calque 1
 62
   250
420
  2236966
370
    50
  0
POLYLINE
  5
5AC
330
1F
100
AcDbEntity
  8
Calque 1
 62
   250
420
  2236966
370
    50
100
AcDb2dPolyline
 66
     1
 10
0.0
 20
0.0
 30
0.0
  0
VERTEX
  5
5AD
330
5AC
100
AcDbEntity
  8
Calque 1
 62
   250
420
  2236966
370
    50
100
AcDbVertex
100
AcDb2dVertex
 10
436.2225550938523
 20
223.8396961924125
 30
0.0
  0
VERTEX
  5
5AE
330
5AC
100
AcDbEntity
  8
Calque 1
 62
   250
420
  2236966
370
    50
100
AcDbVertex
100
AcDb2dVertex
 10
450.3225557684958
 20
223.8396961924125
 30
0.0
  0
SEQEND
  5
5AF
330
5AC
100
AcDbEntity
  8
Calque 1
 62
   250
420
  2236966
370
    50
  0
POLYLINE
  5
5B0
330
1F
100
AcDbEntity
  8
Calque 1
 62
   250
420
  2236966
370
    50
100
AcDb2dPolyline
 66
     1
 10
0.0
 20
0.0
 30
0.0
  0
VERTEX
  5
5B1
330
5B0
100
AcDbEntity
  8
Calque 1
 62
   250
420
  2236966
370
    50
100
AcDbVertex
100
AcDb2dVertex
 10
437.7225496681302
 20
223.6397083994937
 30
0.0
  0
VERTEX
  5
5B2
330
5B0
100
AcDbEntity
  8
Calque 1
 62
   250
420
  2236966
370
    50
100
AcDbVertex
100
AcDb2dVertex
 10
437.7225496681302
 20
224.6397119596278
 30
0.0
  0
SEQEND
  5
5B3
330
5B0
100
AcDbEntity
  8
Calque 1
 62
   250
420
  2236966
370
    50
  0
POLYLINE
  5
5B4
330
1F
100
AcDbEntity
  8
Calque 1
 62
   250
420
  2236966
370
    50
100
AcDb2dPolyline
 66
     1
 10
0.0
 20
0.0
 30
0.0
  0
VERTEX
  5
5B5
330
5B4
100
AcDbEntity
  8
Calque 1
 62
   250
420
  2236966
370
    50
100
AcDbVertex
100
AcDb2dVertex
 10
450.3225557684958
 20
223.8396961924125
 30
0.0
  0
VERTEX
  5
5B6
330
5B4
100
AcDbEntity
  8
Calque 1
 62
   250
420
  2236966
370
    50
100
AcDbVertex
100
AcDb2dVertex
 10
450.3225557684958
 20
224.6397119596278
 30
0.0
  0
SEQEND
  5
5B7
330
5B4
100
AcDbEntity
  8
Calque 1
 62
   250
420
  2236966
370
    50
  0
POLYLINE
  5
5B8
330
1F
100
AcDbEntity
  8
Calque 1
 62
   250
420
  2236966
370
    50
100
AcDb2dPolyline
 66
     1
 10
0.0
 20
0.0
 30
0.0
  0
VERTEX
  5
5B9
330
5B8
100
AcDbEntity
  8
Calque 1
 62
   250
420
  2236966
370
    50
100
AcDbVertex
100
AcDb2dVertex
 10
452.322562888764
 20
208.6396980611756
 30
0.0
  0
VERTEX
  5
5BA
330
5B8
100
AcDbEntity
  8
Calque 1
 62
   250
420
  2236966
370
    50
100
AcDbVertex
100
AcDb2dVertex
 10
452.322562888764
 20
221.6397012792255
 30
0.0
  0
SEQEND
  5
5BB
330
5B8
100
AcDbEntity
  8
Calque 1
 62
   250
420
  2236966
370
    50
  0
POLYLINE
  5
5BC
330
1F
100
AcDbEntity
  8
Calque 1
 62
   250
420
  2236966
370
    50
100
AcDb2dPolyline
 66
     1
 10
0.0
 20
0.0
 30
0.0
  0
VERTEX
  5
5BD
330
5BC
100
AcDbEntity
  8
Calque 1
 62
   250
420
  2236966
370
    50
100
AcDbVertex
100
AcDb2dVertex
 10
452.5225506816827
 20
221.6397012792255
 30
0.0
  0
VERTEX
  5
5BE
330
5BC
100
AcDbEntity
  8
Calque 1
 62
   250
420
  2236966
370
    50
100
AcDbVertex
100
AcDb2dVertex
 10
452.5225506816827
 20
208.6396980611756
 30
0.0
  0
SEQEND
  5
5BF
330
5BC
100
AcDbEntity
  8
Calque 1
 62
   250
420
  2236966
370
    50
  0
SPLINE
  5
5C0
330
1F
100
AcDbEntity
  8
Calque 1
 62
   250
420
  2236966
370
    50
100
AcDbSpline
210
0.0
220
0.0
230
1.0
 70
     8
 71
     3
 72
     8
 73
     4
 74
     0
 42
0.0000000001
 43
0.0000000001
 12
1.0
 22
0.0
 32
0.0
 13
1.0
 23
0.0
 33
0.0
 40
0.0
 40
0.0
 40
0.0
 40
0.0
 40
1.0
 40
1.0
 40
1.0
 40
1.0
 10
451.8781886348604
 20
223.1953341455901
 30
0.0
 10
451.4656384505017
 20
223.6079273936423
 30
0.0
 10
450.9060257526164
 20
223.8396961924125
 30
0.0
 10
450.3225557684958
 20
223.8396961924125
 30
0.0
  0
SPLINE
  5
5C1
330
1F
100
AcDbEntity
  8
Calque 1
 62
   250
420
  2236966
370
    50
100
AcDbSpline
210
0.0
220
0.0
230
1.0
 70
     8
 71
     3
 72
     8
 73
     4
 74
     0
 42
0.0000000001
 43
0.0000000001
 12
1.0
 22
0.0
 32
0.0
 13
1.0
 23
0.0
 33
0.0
 40
0.0
 40
0.0
 40
0.0
 40
0.0
 40
1.0
 40
1.0
 40
1.0
 40
1.0
 10
452.5225506816827
 20
221.6397012792255
 30
0.0
 10
452.5225506816827
 20
222.2231927951929
 30
0.0
 10
452.2907818829125
 20
222.7827624293846
 30
0.0
 10
451.8781886348604
 20
223.1953341455901
 30
0.0
  0
SPLINE
  5
5C2
330
1F
100
AcDbEntity
  8
Calque 1
 62
   250
420
  2236966
370
    50
100
AcDbSpline
210
0.0
220
0.0
230
1.0
 70
     8
 71
     3
 72
     8
 73
     4
 74
     0
 42
0.0000000001
 43
0.0000000001
 12
1.0
 22
0.0
 32
0.0
 13
1.0
 23
0.0
 33
0.0
 40
0.0
 40
0.0
 40
0.0
 40
0.0
 40
1.0
 40
1.0
 40
1.0
 40
1.0
 10
451.7367674651908
 20
223.0539129759206
 30
0.0
 10
451.3616826942343
 20
223.4289977468771
 30
0.0
 10
450.8530143458371
 20
223.6397083994937
 30
0.0
 10
450.3225557684958
 20
223.6397083994937
 30
0.0
  0
SPLINE
  5
5C3
330
1F
100
AcDbEntity
  8
Calque 1
 62
   250
420
  2236966
370
    50
100
AcDbSpline
210
0.0
220
0.0
230
1.0
 70
     8
 71
     3
 72
     8
 73
     4
 74
     0
 42
0.0000000001
 43
0.0000000001
 12
1.0
 22
0.0
 32
0.0
 13
1.0
 23
0.0
 33
0.0
 40
0.0
 40
0.0
 40
0.0
 40
0.0
 40
1.0
 40
1.0
 40
1.0
 40
1.0
 10
452.322562888764
 20
221.6397012792255
 30
0.0
 10
452.322562888764
 20
222.1701383247201
 30
0.0
 10
452.1118522361474
 20
222.6788497368108
 30
0.0
 10
451.7367674651908
 20
223.0539129759206
 30
0.0
  0
POLYLINE
  5
5C4
330
1F
100
AcDbEntity
  8
Calque 1
 62
   250
420
  2236966
370
    50
100
AcDb2dPolyline
 66
     1
 10
0.0
 20
0.0
 30
0.0
  0
VERTEX
  5
5C5
330
5C4
100
AcDbEntity
  8
Calque 1
 62
   250
420
  2236966
370
    50
100
AcDbVertex
100
AcDb2dVertex
 10
536.2225665977152
 20
2223.439649237977
 30
0.0
  0
VERTEX
  5
5C6
330
5C4
100
AcDbEntity
  8
Calque 1
 62
   250
420
  2236966
370
    50
100
AcDbVertex
100
AcDb2dVertex
 10
536.2225665977152
 20
2163.839669597929
 30
0.0
  0
SEQEND
  5
5C7
330
5C4
100
AcDbEntity
  8
Calque 1
 62
   250
420
  2236966
370
    50
  0
POLYLINE
  5
5C8
330
1F
100
AcDbEntity
  8
Calque 1
 62
   250
420
  2236966
370
    50
100
AcDb2dPolyline
 66
     1
 10
0.0
 20
0.0
 30
0.0
  0
VERTEX
  5
5C9
330
5C8
100
AcDbEntity
  8
Calque 1
 62
   250
420
  2236966
370
    50
100
AcDbVertex
100
AcDb2dVertex
 10
536.422554390634
 20
2163.63968180501
 30
0.0
  0
VERTEX
  5
5CA
330
5C8
100
AcDbEntity
  8
Calque 1
 62
   250
420
  2236966
370
    50
100
AcDbVertex
100
AcDb2dVertex
 10
536.422554390634
 20
2223.639637030896
 30
0.0
  0
SEQEND
  5
5CB
330
5C8
100
AcDbEntity
  8
Calque 1
 62
   250
420
  2236966
370
    50
  0
POLYLINE
  5
5CC
330
1F
100
AcDbEntity
  8
Calque 1
 62
   250
420
  2236966
370
    50
100
AcDb2dPolyline
 66
     1
 10
0.0
 20
0.0
 30
0.0
  0
VERTEX
  5
5CD
330
5CC
100
AcDbEntity
  8
Calque 1
 62
   250
420
  2236966
370
    50
100
AcDbVertex
100
AcDb2dVertex
 10
537.722561171993
 20
2223.103752428165
 30
0.0
  0
VERTEX
  5
5CE
330
5CC
100
AcDbEntity
  8
Calque 1
 62
   250
420
  2236966
370
    50
100
AcDbVertex
100
AcDb2dVertex
 10
537.722561171993
 20
2223.639637030896
 30
0.0
  0
SEQEND
  5
5CF
330
5CC
100
AcDbEntity
  8
Calque 1
 62
   250
420
  2236966
370
    50
  0
POLYLINE
  5
5D0
330
1F
100
AcDbEntity
  8
Calque 1
 62
   250
420
  2236966
370
    50
100
AcDb2dPolyline
 66
     1
 10
0.0
 20
0.0
 30
0.0
  0
VERTEX
  5
5D1
330
5D0
100
AcDbEntity
  8
Calque 1
 62
   250
420
  2236966
370
    50
100
AcDbVertex
100
AcDb2dVertex
 10
539.2225557462708
 20
2223.103752428165
 30
0.0
  0
VERTEX
  5
5D2
330
5D0
100
AcDbEntity
  8
Calque 1
 62
   250
420
  2236966
370
    50
100
AcDbVertex
100
AcDb2dVertex
 10
539.2225557462708
 20
2223.639637030896
 30
0.0
  0
SEQEND
  5
5D3
330
5D0
100
AcDbEntity
  8
Calque 1
 62
   250
420
  2236966
370
    50
  0
POLYLINE
  5
5D4
330
1F
100
AcDbEntity
  8
Calque 1
 62
   250
420
  2236966
370
    50
100
AcDb2dPolyline
 66
     1
 10
0.0
 20
0.0
 30
0.0
  0
VERTEX
  5
5D5
330
5D4
100
AcDbEntity
  8
Calque 1
 62
   250
420
  2236966
370
    50
100
AcDbVertex
100
AcDb2dVertex
 10
540.2225808382517
 20
2163.839669597929
 30
0.0
  0
VERTEX
  5
5D6
330
5D4
100
AcDbEntity
  8
Calque 1
 62
   250
420
  2236966
370
    50
100
AcDbVertex
100
AcDb2dVertex
 10
540.2225808382517
 20
2223.639637030896
 30
0.0
  0
SEQEND
  5
5D7
330
5D4
100
AcDbEntity
  8
Calque 1
 62
   250
420
  2236966
370
    50
  0
POLYLINE
  5
5D8
330
1F
100
AcDbEntity
  8
Calque 1
 62
   250
420
  2236966
370
    50
100
AcDb2dPolyline
 66
     1
 10
0.0
 20
0.0
 30
0.0
  0
VERTEX
  5
5D9
330
5D8
100
AcDbEntity
  8
Calque 1
 62
   250
420
  2236966
370
    50
100
AcDbVertex
100
AcDb2dVertex
 10
551.2225554041866
 20
2223.639637030896
 30
0.0
  0
VERTEX
  5
5DA
330
5D8
100
AcDbEntity
  8
Calque 1
 62
   250
420
  2236966
370
    50
100
AcDbVertex
100
AcDb2dVertex
 10
551.2225554041866
 20
2163.839669597929
 30
0.0
  0
SEQEND
  5
5DB
330
5D8
100
AcDbEntity
  8
Calque 1
 62
   250
420
  2236966
370
    50
  0
POLYLINE
  5
5DC
330
1F
100
AcDbEntity
  8
Calque 1
 62
   250
420
  2236966
370
    50
100
AcDb2dPolyline
 66
     1
 10
0.0
 20
0.0
 30
0.0
  0
VERTEX
  5
5DD
330
5DC
100
AcDbEntity
  8
Calque 1
 62
   250
420
  2236966
370
    50
100
AcDbVertex
100
AcDb2dVertex
 10
552.2225804961674
 20
2223.103752428165
 30
0.0
  0
VERTEX
  5
5DE
330
5DC
100
AcDbEntity
  8
Calque 1
 62
   250
420
  2236966
370
    50
100
AcDbVertex
100
AcDb2dVertex
 10
552.2225804961674
 20
2223.639637030896
 30
0.0
  0
SEQEND
  5
5DF
330
5DC
100
AcDbEntity
  8
Calque 1
 62
   250
420
  2236966
370
    50
  0
POLYLINE
  5
5E0
330
1F
100
AcDbEntity
  8
Calque 1
 62
   250
420
  2236966
370
    50
100
AcDb2dPolyline
 66
     1
 10
0.0
 20
0.0
 30
0.0
  0
VERTEX
  5
5E1
330
5E0
100
AcDbEntity
  8
Calque 1
 62
   250
420
  2236966
370
    50
100
AcDbVertex
100
AcDb2dVertex
 10
553.7225750704453
 20
2223.639637030896
 30
0.0
  0
VERTEX
  5
5E2
330
5E0
100
AcDbEntity
  8
Calque 1
 62
   250
420
  2236966
370
    50
100
AcDbVertex
100
AcDb2dVertex
 10
553.7225750704453
 20
2223.103752428165
 30
0.0
  0
SEQEND
  5
5E3
330
5E0
100
AcDbEntity
  8
Calque 1
 62
   250
420
  2236966
370
    50
  0
POLYLINE
  5
5E4
330
1F
100
AcDbEntity
  8
Calque 1
 62
   250
420
  2236966
370
    50
100
AcDb2dPolyline
 66
     1
 10
0.0
 20
0.0
 30
0.0
  0
VERTEX
  5
5E5
330
5E4
100
AcDbEntity
  8
Calque 1
 62
   250
420
  2236966
370
    50
100
AcDbVertex
100
AcDb2dVertex
 10
555.0225818518043
 20
2223.639637030896
 30
0.0
  0
VERTEX
  5
5E6
330
5E4
100
AcDbEntity
  8
Calque 1
 62
   250
420
  2236966
370
    50
100
AcDbVertex
100
AcDb2dVertex
 10
555.0225818518043
 20
2163.63968180501
 30
0.0
  0
SEQEND
  5
5E7
330
5E4
100
AcDbEntity
  8
Calque 1
 62
   250
420
  2236966
370
    50
  0
POLYLINE
  5
5E8
330
1F
100
AcDbEntity
  8
Calque 1
 62
   250
420
  2236966
370
    50
100
AcDb2dPolyline
 66
     1
 10
0.0
 20
0.0
 30
0.0
  0
VERTEX
  5
5E9
330
5E8
100
AcDbEntity
  8
Calque 1
 62
   250
420
  2236966
370
    50
100
AcDbVertex
100
AcDb2dVertex
 10
555.2225696447231
 20
2163.839669597929
 30
0.0
  0
VERTEX
  5
5EA
330
5E8
100
AcDbEntity
  8
Calque 1
 62
   250
420
  2236966
370
    50
100
AcDbVertex
100
AcDb2dVertex
 10
555.2225696447231
 20
2223.439649237977
 30
0.0
  0
SEQEND
  5
5EB
330
5E8
100
AcDbEntity
  8
Calque 1
 62
   250
420
  2236966
370
    50
  0
POLYLINE
  5
5EC
330
1F
100
AcDbEntity
  8
Calque 1
 62
   250
420
  2236966
370
    50
100
AcDb2dPolyline
 66
     1
 10
0.0
 20
0.0
 30
0.0
  0
VERTEX
  5
5ED
330
5EC
100
AcDbEntity
  8
Calque 1
 62
   250
420
  2236966
370
    50
100
AcDbVertex
100
AcDb2dVertex
 10
536.422554390634
 20
2163.63968180501
 30
0.0
  0
VERTEX
  5
5EE
330
5EC
100
AcDbEntity
  8
Calque 1
 62
   250
420
  2236966
370
    50
100
AcDbVertex
100
AcDb2dVertex
 10
555.0225818518043
 20
2163.63968180501
 30
0.0
  0
SEQEND
  5
5EF
330
5EC
100
AcDbEntity
  8
Calque 1
 62
   250
420
  2236966
370
    50
  0
POLYLINE
  5
5F0
330
1F
100
AcDbEntity
  8
Calque 1
 62
   250
420
  2236966
370
    50
100
AcDb2dPolyline
 66
     1
 10
0.0
 20
0.0
 30
0.0
  0
VERTEX
  5
5F1
330
5F0
100
AcDbEntity
  8
Calque 1
 62
   250
420
  2236966
370
    50
100
AcDbVertex
100
AcDb2dVertex
 10
536.2225665977152
 20
2163.839669597929
 30
0.0
  0
VERTEX
  5
5F2
330
5F0
100
AcDbEntity
  8
Calque 1
 62
   250
420
  2236966
370
    50
100
AcDbVertex
100
AcDb2dVertex
 10
555.2225696447231
 20
2163.839669597929
 30
0.0
  0
SEQEND
  5
5F3
330
5F0
100
AcDbEntity
  8
Calque 1
 62
   250
420
  2236966
370
    50
  0
POLYLINE
  5
5F4
330
1F
100
AcDbEntity
  8
Calque 1
 62
   250
420
  2236966
370
    50
100
AcDb2dPolyline
 66
     1
 10
0.0
 20
0.0
 30
0.0
  0
VERTEX
  5
5F5
330
5F4
100
AcDbEntity
  8
Calque 1
 62
   250
420
  2236966
370
    50
100
AcDbVertex
100
AcDb2dVertex
 10
536.2225665977152
 20
2219.639708917746
 30
0.0
  0
VERTEX
  5
5F6
330
5F4
100
AcDbEntity
  8
Calque 1
 62
   250
420
  2236966
370
    50
100
AcDbVertex
100
AcDb2dVertex
 10
540.2225808382517
 20
2219.639708917746
 30
0.0
  0
SEQEND
  5
5F7
330
5F4
100
AcDbEntity
  8
Calque 1
 62
   250
420
  2236966
370
    50
  0
POLYLINE
  5
5F8
330
1F
100
AcDbEntity
  8
Calque 1
 62
   250
420
  2236966
370
    50
100
AcDb2dPolyline
 66
     1
 10
0.0
 20
0.0
 30
0.0
  0
VERTEX
  5
5F9
330
5F8
100
AcDbEntity
  8
Calque 1
 62
   250
420
  2236966
370
    50
100
AcDbVertex
100
AcDb2dVertex
 10
551.2225554041866
 20
2219.639708917746
 30
0.0
  0
VERTEX
  5
5FA
330
5F8
100
AcDbEntity
  8
Calque 1
 62
   250
420
  2236966
370
    50
100
AcDbVertex
100
AcDb2dVertex
 10
555.2225696447231
 20
2219.639708917746
 30
0.0
  0
SEQEND
  5
5FB
330
5F8
100
AcDbEntity
  8
Calque 1
 62
   250
420
  2236966
370
    50
  0
POLYLINE
  5
5FC
330
1F
100
AcDbEntity
  8
Calque 1
 62
   250
420
  2236966
370
    50
100
AcDb2dPolyline
 66
     1
 10
0.0
 20
0.0
 30
0.0
  0
VERTEX
  5
5FD
330
5FC
100
AcDbEntity
  8
Calque 1
 62
   250
420
  2236966
370
    50
100
AcDbVertex
100
AcDb2dVertex
 10
537.722561171993
 20
2223.103752428165
 30
0.0
  0
VERTEX
  5
5FE
330
5FC
100
AcDbEntity
  8
Calque 1
 62
   250
420
  2236966
370
    50
100
AcDbVertex
100
AcDb2dVertex
 10
539.2225557462708
 20
2223.103752428165
 30
0.0
  0
SEQEND
  5
5FF
330
5FC
100
AcDbEntity
  8
Calque 1
 62
   250
420
  2236966
370
    50
  0
POLYLINE
  5
600
330
1F
100
AcDbEntity
  8
Calque 1
 62
   250
420
  2236966
370
    50
100
AcDb2dPolyline
 66
     1
 10
0.0
 20
0.0
 30
0.0
  0
VERTEX
  5
601
330
600
100
AcDbEntity
  8
Calque 1
 62
   250
420
  2236966
370
    50
100
AcDbVertex
100
AcDb2dVertex
 10
552.2225804961674
 20
2223.103752428165
 30
0.0
  0
VERTEX
  5
602
330
600
100
AcDbEntity
  8
Calque 1
 62
   250
420
  2236966
370
    50
100
AcDbVertex
100
AcDb2dVertex
 10
553.7225750704453
 20
2223.103752428165
 30
0.0
  0
SEQEND
  5
603
330
600
100
AcDbEntity
  8
Calque 1
 62
   250
420
  2236966
370
    50
  0
POLYLINE
  5
604
330
1F
100
AcDbEntity
  8
Calque 1
 62
   250
420
  2236966
370
    50
100
AcDb2dPolyline
 66
     1
 10
0.0
 20
0.0
 30
0.0
  0
VERTEX
  5
605
330
604
100
AcDbEntity
  8
Calque 1
 62
   250
420
  2236966
370
    50
100
AcDbVertex
100
AcDb2dVertex
 10
539.2225557462708
 20
2223.60828666198
 30
0.0
  0
VERTEX
  5
606
330
604
100
AcDbEntity
  8
Calque 1
 62
   250
420
  2236966
370
    50
100
AcDbVertex
100
AcDb2dVertex
 10
540.2225808382517
 20
2223.60828666198
 30
0.0
  0
SEQEND
  5
607
330
604
100
AcDbEntity
  8
Calque 1
 62
   250
420
  2236966
370
    50
  0
POLYLINE
  5
608
330
1F
100
AcDbEntity
  8
Calque 1
 62
   250
420
  2236966
370
    50
100
AcDb2dPolyline
 66
     1
 10
0.0
 20
0.0
 30
0.0
  0
VERTEX
  5
609
330
608
100
AcDbEntity
  8
Calque 1
 62
   250
420
  2236966
370
    50
100
AcDbVertex
100
AcDb2dVertex
 10
551.2225554041866
 20
2223.60828666198
 30
0.0
  0
VERTEX
  5
60A
330
608
100
AcDbEntity
  8
Calque 1
 62
   250
420
  2236966
370
    50
100
AcDbVertex
100
AcDb2dVertex
 10
552.2225804961674
 20
2223.60828666198
 30
0.0
  0
SEQEND
  5
60B
330
608
100
AcDbEntity
  8
Calque 1
 62
   250
420
  2236966
370
    50
  0
POLYLINE
  5
60C
330
1F
100
AcDbEntity
  8
Calque 1
 62
   250
420
  2236966
370
    50
100
AcDb2dPolyline
 66
     1
 10
0.0
 20
0.0
 30
0.0
  0
VERTEX
  5
60D
330
60C
100
AcDbEntity
  8
Calque 1
 62
   250
420
  2236966
370
    50
100
AcDbVertex
100
AcDb2dVertex
 10
536.422554390634
 20
2223.639637030896
 30
0.0
  0
VERTEX
  5
60E
330
60C
100
AcDbEntity
  8
Calque 1
 62
   250
420
  2236966
370
    50
100
AcDbVertex
100
AcDb2dVertex
 10
555.0225818518043
 20
2223.639637030896
 30
0.0
  0
SEQEND
  5
60F
330
60C
100
AcDbEntity
  8
Calque 1
 62
   250
420
  2236966
370
    50
  0
SPLINE
  5
610
330
1F
100
AcDbEntity
  8
Calque 1
 62
   250
420
  2236966
370
    50
100
AcDbSpline
210
0.0
220
0.0
230
1.0
 70
     8
 71
     3
 72
     8
 73
     4
 74
     0
 42
0.0000000001
 43
0.0000000001
 12
1.0
 22
0.0
 32
0.0
 13
1.0
 23
0.0
 33
0.0
 40
0.0
 40
0.0
 40
0.0
 40
0.0
 40
1.0
 40
1.0
 40
1.0
 40
1.0
 10
555.0225818518043
 20
2223.639637030896
 30
0.0
 10
555.0755932585836
 20
2223.639637030896
 30
0.0
 10
555.1264945443781
 20
2223.618621948436
 30
0.0
 10
555.1640030214738
 20
2223.581070407647
 30
0.0
  0
SPLINE
  5
611
330
1F
100
AcDbEntity
  8
Calque 1
 62
   250
420
  2236966
370
    50
100
AcDbSpline
210
0.0
220
0.0
230
1.0
 70
     8
 71
     3
 72
     8
 73
     4
 74
     0
 42
0.0000000001
 43
0.0000000001
 12
1.0
 22
0.0
 32
0.0
 13
1.0
 23
0.0
 33
0.0
 40
0.0
 40
0.0
 40
0.0
 40
0.0
 40
1.0
 40
1.0
 40
1.0
 40
1.0
 10
555.1640030214738
 20
2223.581070407647
 30
0.0
 10
555.2015114985694
 20
2223.543691121632
 30
0.0
 10
555.2225696447231
 20
2223.49270370845
 30
0.0
 10
555.2225696447231
 20
2223.439649237977
 30
0.0
  0
SPLINE
  5
612
330
1F
100
AcDbEntity
  8
Calque 1
 62
   250
420
  2236966
370
    50
100
AcDbSpline
210
0.0
220
0.0
230
1.0
 70
     8
 71
     3
 72
     8
 73
     4
 74
     0
 42
0.0000000001
 43
0.0000000001
 12
1.0
 22
0.0
 32
0.0
 13
1.0
 23
0.0
 33
0.0
 40
0.0
 40
0.0
 40
0.0
 40
0.0
 40
1.0
 40
1.0
 40
1.0
 40
1.0
 10
536.2811332209644
 20
2223.581070407647
 30
0.0
 10
536.2436247438688
 20
2223.543691121632
 30
0.0
 10
536.2225665977152
 20
2223.49270370845
 30
0.0
 10
536.2225665977152
 20
2223.439649237977
 30
0.0
  0
SPLINE
  5
613
330
1F
100
AcDbEntity
  8
Calque 1
 62
   250
420
  2236966
370
    50
100
AcDbSpline
210
0.0
220
0.0
230
1.0
 70
     8
 71
     3
 72
     8
 73
     4
 74
     0
 42
0.0000000001
 43
0.0000000001
 12
1.0
 22
0.0
 32
0.0
 13
1.0
 23
0.0
 33
0.0
 40
0.0
 40
0.0
 40
0.0
 40
0.0
 40
1.0
 40
1.0
 40
1.0
 40
1.0
 10
536.422554390634
 20
2223.639637030896
 30
0.0
 10
536.3694999201612
 20
2223.639637030896
 30
0.0
 10
536.3186416980601
 20
2223.618621948436
 30
0.0
 10
536.2811332209644
 20
2223.581070407647
 30
0.0
  0
SPLINE
  5
614
330
1F
100
AcDbEntity
  8
Calque 1
 62
   250
420
  2236966
370
    50
100
AcDbSpline
210
0.0
220
0.0
230
1.0
 70
     8
 71
     3
 72
     8
 73
     4
 74
     0
 42
0.0000000001
 43
0.0000000001
 12
1.0
 22
0.0
 32
0.0
 13
1.0
 23
0.0
 33
0.0
 40
0.0
 40
0.0
 40
0.0
 40
0.0
 40
1.0
 40
1.0
 40
1.0
 40
1.0
 10
555.1640030214738
 20
2163.698248428259
 30
0.0
 10
555.2015114985694
 20
2163.735799969049
 30
0.0
 10
555.2225696447231
 20
2163.786615127456
 30
0.0
 10
555.2225696447231
 20
2163.839669597929
 30
0.0
  0
SPLINE
  5
615
330
1F
100
AcDbEntity
  8
Calque 1
 62
   250
420
  2236966
370
    50
100
AcDbSpline
210
0.0
220
0.0
230
1.0
 70
     8
 71
     3
 72
     8
 73
     4
 74
     0
 42
0.0000000001
 43
0.0000000001
 12
1.0
 22
0.0
 32
0.0
 13
1.0
 23
0.0
 33
0.0
 40
0.0
 40
0.0
 40
0.0
 40
0.0
 40
1.0
 40
1.0
 40
1.0
 40
1.0
 10
555.0225818518043
 20
2163.63968180501
 30
0.0
 10
555.0755932585836
 20
2163.63968180501
 30
0.0
 10
555.1264945443781
 20
2163.66069688747
 30
0.0
 10
555.1640030214738
 20
2163.698248428259
 30
0.0
  0
SPLINE
  5
616
330
1F
100
AcDbEntity
  8
Calque 1
 62
   250
420
  2236966
370
    50
100
AcDbSpline
210
0.0
220
0.0
230
1.0
 70
     8
 71
     3
 72
     8
 73
     4
 74
     0
 42
0.0000000001
 43
0.0000000001
 12
1.0
 22
0.0
 32
0.0
 13
1.0
 23
0.0
 33
0.0
 40
0.0
 40
0.0
 40
0.0
 40
0.0
 40
1.0
 40
1.0
 40
1.0
 40
1.0
 10
551.2811220274358
 20
2163.698248428259
 30
0.0
 10
551.3186305045315
 20
2163.66069688747
 30
0.0
 10
551.369531790326
 20
2163.63968180501
 30
0.0
 10
551.4225431971054
 20
2163.63968180501
 30
0.0
  0
SPLINE
  5
617
330
1F
100
AcDbEntity
  8
Calque 1
 62
   250
420
  2236966
370
    50
100
AcDbSpline
210
0.0
220
0.0
230
1.0
 70
     8
 71
     3
 72
     8
 73
     4
 74
     0
 42
0.0000000001
 43
0.0000000001
 12
1.0
 22
0.0
 32
0.0
 13
1.0
 23
0.0
 33
0.0
 40
0.0
 40
0.0
 40
0.0
 40
0.0
 40
1.0
 40
1.0
 40
1.0
 40
1.0
 10
551.2225554041866
 20
2163.839669597929
 30
0.0
 10
551.2225554041866
 20
2163.786615127456
 30
0.0
 10
551.2436135503401
 20
2163.735799969049
 30
0.0
 10
551.2811220274358
 20
2163.698248428259
 30
0.0
  0
SPLINE
  5
618
330
1F
100
AcDbEntity
  8
Calque 1
 62
   250
420
  2236966
370
    50
100
AcDbSpline
210
0.0
220
0.0
230
1.0
 70
     8
 71
     3
 72
     8
 73
     4
 74
     0
 42
0.0000000001
 43
0.0000000001
 12
1.0
 22
0.0
 32
0.0
 13
1.0
 23
0.0
 33
0.0
 40
0.0
 40
0.0
 40
0.0
 40
0.0
 40
1.0
 40
1.0
 40
1.0
 40
1.0
 10
540.1639711513088
 20
2163.698248428259
 30
0.0
 10
540.2014796284045
 20
2163.735799969049
 30
0.0
 10
540.2225808382517
 20
2163.786615127456
 30
0.0
 10
540.2225808382517
 20
2163.839669597929
 30
0.0
  0
SPLINE
  5
619
330
1F
100
AcDbEntity
  8
Calque 1
 62
   250
420
  2236966
370
    50
100
AcDbSpline
210
0.0
220
0.0
230
1.0
 70
     8
 71
     3
 72
     8
 73
     4
 74
     0
 42
0.0000000001
 43
0.0000000001
 12
1.0
 22
0.0
 32
0.0
 13
1.0
 23
0.0
 33
0.0
 40
0.0
 40
0.0
 40
0.0
 40
0.0
 40
1.0
 40
1.0
 40
1.0
 40
1.0
 10
540.0225499816394
 20
2163.63968180501
 30
0.0
 10
540.0756044521122
 20
2163.63968180501
 30
0.0
 10
540.1264626742131
 20
2163.66069688747
 30
0.0
 10
540.1639711513088
 20
2163.698248428259
 30
0.0
  0
SPLINE
  5
61A
330
1F
100
AcDbEntity
  8
Calque 1
 62
   250
420
  2236966
370
    50
100
AcDbSpline
210
0.0
220
0.0
230
1.0
 70
     8
 71
     3
 72
     8
 73
     4
 74
     0
 42
0.0000000001
 43
0.0000000001
 12
1.0
 22
0.0
 32
0.0
 13
1.0
 23
0.0
 33
0.0
 40
0.0
 40
0.0
 40
0.0
 40
0.0
 40
1.0
 40
1.0
 40
1.0
 40
1.0
 10
536.2225665977152
 20
2163.839669597929
 30
0.0
 10
536.2225665977152
 20
2163.729254287627
 30
0.0
 10
536.3120960166382
 20
2163.63968180501
 30
0.0
 10
536.422554390634
 20
2163.63968180501
 30
0.0
  0
POLYLINE
  5
61B
330
1F
100
AcDbEntity
  8
Calque 1
 62
   250
420
  2236966
370
    50
100
AcDb2dPolyline
 66
     1
 10
0.0
 20
0.0
 30
0.0
  0
VERTEX
  5
61C
330
61B
100
AcDbEntity
  8
Calque 1
 62
   250
420
  2236966
370
    50
100
AcDbVertex
100
AcDb2dVertex
 10
540.2225808382517
 20
2165.639731988972
 30
0.0
  0
VERTEX
  5
61D
330
61B
100
AcDbEntity
  8
Calque 1
 62
   250
420
  2236966
370
    50
100
AcDbVertex
100
AcDb2dVertex
 10
551.2225554041866
 20
2165.639731988972
 30
0.0
  0
SEQEND
  5
61E
330
61B
100
AcDbEntity
  8
Calque 1
 62
   250
420
  2236966
370
    50
  0
POLYLINE
  5
61F
330
1F
100
AcDbEntity
  8
Calque 1
 62
   250
420
  2236966
370
    50
100
AcDb2dPolyline
 66
     1
 10
0.0
 20
0.0
 30
0.0
  0
VERTEX
  5
620
330
61F
100
AcDbEntity
  8
Calque 1
 62
   250
420
  2236966
370
    50
100
AcDbVertex
100
AcDb2dVertex
 10
551.2225554041866
 20
2169.639660102122
 30
0.0
  0
VERTEX
  5
621
330
61F
100
AcDbEntity
  8
Calque 1
 62
   250
420
  2236966
370
    50
100
AcDbVertex
100
AcDb2dVertex
 10
540.2225808382517
 20
2169.639660102122
 30
0.0
  0
SEQEND
  5
622
330
61F
100
AcDbEntity
  8
Calque 1
 62
   250
420
  2236966
370
    50
  0
POLYLINE
  5
623
330
1F
100
AcDbEntity
  8
Calque 1
 62
   250
420
  2236966
370
    50
100
AcDb2dPolyline
 66
     1
 10
0.0
 20
0.0
 30
0.0
  0
VERTEX
  5
624
330
623
100
AcDbEntity
  8
Calque 1
 62
   250
420
  2236966
370
    50
100
AcDbVertex
100
AcDb2dVertex
 10
540.322574734711
 20
2213.639730620635
 30
0.0
  0
VERTEX
  5
625
330
623
100
AcDbEntity
  8
Calque 1
 62
   250
420
  2236966
370
    50
100
AcDbVertex
100
AcDb2dVertex
 10
540.322574734711
 20
2221.639759101708
 30
0.0
  0
SEQEND
  5
626
330
623
100
AcDbEntity
  8
Calque 1
 62
   250
420
  2236966
370
    50
  0
POLYLINE
  5
627
330
1F
100
AcDbEntity
  8
Calque 1
 62
   250
420
  2236966
370
    50
100
AcDb2dPolyline
 66
     1
 10
0.0
 20
0.0
 30
0.0
  0
VERTEX
  5
628
330
627
100
AcDbEntity
  8
Calque 1
 62
   250
420
  2236966
370
    50
100
AcDbVertex
100
AcDb2dVertex
 10
551.1225615077271
 20
2213.639730620635
 30
0.0
  0
VERTEX
  5
629
330
627
100
AcDbEntity
  8
Calque 1
 62
   250
420
  2236966
370
    50
100
AcDbVertex
100
AcDb2dVertex
 10
551.1225615077271
 20
2221.639759101708
 30
0.0
  0
SEQEND
  5
62A
330
627
100
AcDbEntity
  8
Calque 1
 62
   250
420
  2236966
370
    50
  0
POLYLINE
  5
62B
330
1F
100
AcDbEntity
  8
Calque 1
 62
   250
420
  2236966
370
    50
100
AcDb2dPolyline
 66
     1
 10
0.0
 20
0.0
 30
0.0
  0
VERTEX
  5
62C
330
62B
100
AcDbEntity
  8
Calque 1
 62
   250
420
  2236966
370
    50
100
AcDbVertex
100
AcDb2dVertex
 10
551.2225554041866
 20
2213.639730620635
 30
0.0
  0
VERTEX
  5
62D
330
62B
100
AcDbEntity
  8
Calque 1
 62
   250
420
  2236966
370
    50
100
AcDbVertex
100
AcDb2dVertex
 10
551.1235089089856
 20
2213.639730620635
 30
0.0
  0
SEQEND
  5
62E
330
62B
100
AcDbEntity
  8
Calque 1
 62
   250
420
  2236966
370
    50
  0
POLYLINE
  5
62F
330
1F
100
AcDbEntity
  8
Calque 1
 62
   250
420
  2236966
370
    50
100
AcDb2dPolyline
 66
     1
 10
0.0
 20
0.0
 30
0.0
  0
VERTEX
  5
630
330
62F
100
AcDbEntity
  8
Calque 1
 62
   250
420
  2236966
370
    50
100
AcDbVertex
100
AcDb2dVertex
 10
540.3216273334526
 20
2213.639730620635
 30
0.0
  0
VERTEX
  5
631
330
62F
100
AcDbEntity
  8
Calque 1
 62
   250
420
  2236966
370
    50
100
AcDbVertex
100
AcDb2dVertex
 10
540.2225808382517
 20
2213.639730620635
 30
0.0
  0
SEQEND
  5
632
330
62F
100
AcDbEntity
  8
Calque 1
 62
   250
420
  2236966
370
    50
  0
POLYLINE
  5
633
330
1F
100
AcDbEntity
  8
Calque 1
 62
   250
420
  2236966
370
    50
100
AcDb2dPolyline
 66
     1
 10
0.0
 20
0.0
 30
0.0
  0
VERTEX
  5
634
330
633
100
AcDbEntity
  8
Calque 1
 62
   250
420
  2236966
370
    50
100
AcDbVertex
100
AcDb2dVertex
 10
551.2225554041866
 20
2221.639759101708
 30
0.0
  0
VERTEX
  5
635
330
633
100
AcDbEntity
  8
Calque 1
 62
   250
420
  2236966
370
    50
100
AcDbVertex
100
AcDb2dVertex
 10
551.1235089089856
 20
2221.639759101708
 30
0.0
  0
SEQEND
  5
636
330
633
100
AcDbEntity
  8
Calque 1
 62
   250
420
  2236966
370
    50
  0
POLYLINE
  5
637
330
1F
100
AcDbEntity
  8
Calque 1
 62
   250
420
  2236966
370
    50
100
AcDb2dPolyline
 66
     1
 10
0.0
 20
0.0
 30
0.0
  0
VERTEX
  5
638
330
637
100
AcDbEntity
  8
Calque 1
 62
   250
420
  2236966
370
    50
100
AcDbVertex
100
AcDb2dVertex
 10
540.3216273334526
 20
2221.639759101708
 30
0.0
  0
VERTEX
  5
639
330
637
100
AcDbEntity
  8
Calque 1
 62
   250
420
  2236966
370
    50
100
AcDbVertex
100
AcDb2dVertex
 10
540.2225808382517
 20
2221.639759101708
 30
0.0
  0
SEQEND
  5
63A
330
637
100
AcDbEntity
  8
Calque 1
 62
   250
420
  2236966
370
    50
  0
POLYLINE
  5
63B
330
1F
100
AcDbEntity
  8
Calque 1
 62
   250
420
  2236966
370
    50
100
AcDb2dPolyline
 66
     1
 10
0.0
 20
0.0
 30
0.0
  0
VERTEX
  5
63C
330
63B
100
AcDbEntity
  8
Calque 1
 62
   250
420
  2236966
370
    50
100
AcDbVertex
100
AcDb2dVertex
 10
557.7225462472882
 20
2226.639626179451
 30
0.0
  0
VERTEX
  5
63D
330
63B
100
AcDbEntity
  8
Calque 1
 62
   250
420
  2236966
370
    50
100
AcDbVertex
100
AcDb2dVertex
 10
557.5225584543693
 20
2226.439638386532
 30
0.0
  0
SEQEND
  5
63E
330
63B
100
AcDbEntity
  8
Calque 1
 62
   250
420
  2236966
370
    50
  0
POLYLINE
  5
63F
330
1F
100
AcDbEntity
  8
Calque 1
 62
   250
420
  2236966
370
    50
100
AcDb2dPolyline
 66
     1
 10
0.0
 20
0.0
 30
0.0
  0
VERTEX
  5
640
330
63F
100
AcDbEntity
  8
Calque 1
 62
   250
420
  2236966
370
    50
100
AcDbVertex
100
AcDb2dVertex
 10
555.2225696447231
 20
2224.13969264058
 30
0.0
  0
VERTEX
  5
641
330
63F
100
AcDbEntity
  8
Calque 1
 62
   250
420
  2236966
370
    50
100
AcDbVertex
100
AcDb2dVertex
 10
555.4225574376418
 20
2224.339680433498
 30
0.0
  0
SEQEND
  5
642
330
63F
100
AcDbEntity
  8
Calque 1
 62
   250
420
  2236966
370
    50
  0
POLYLINE
  5
643
330
1F
100
AcDbEntity
  8
Calque 1
 62
   250
420
  2236966
370
    50
100
AcDb2dPolyline
 66
     1
 10
0.0
 20
0.0
 30
0.0
  0
VERTEX
  5
644
330
643
100
AcDbEntity
  8
Calque 1
 62
   250
420
  2236966
370
    50
100
AcDbVertex
100
AcDb2dVertex
 10
533.2225774491596
 20
2208.639691288118
 30
0.0
  0
VERTEX
  5
645
330
643
100
AcDbEntity
  8
Calque 1
 62
   250
420
  2236966
370
    50
100
AcDbVertex
100
AcDb2dVertex
 10
533.2225774491596
 20
2226.639626179451
 30
0.0
  0
SEQEND
  5
646
330
643
100
AcDbEntity
  8
Calque 1
 62
   250
420
  2236966
370
    50
  0
POLYLINE
  5
647
330
1F
100
AcDbEntity
  8
Calque 1
 62
   250
420
  2236966
370
    50
100
AcDb2dPolyline
 66
     1
 10
0.0
 20
0.0
 30
0.0
  0
VERTEX
  5
648
330
647
100
AcDbEntity
  8
Calque 1
 62
   250
420
  2236966
370
    50
100
AcDbVertex
100
AcDb2dVertex
 10
533.4225652420785
 20
2226.439638386532
 30
0.0
  0
VERTEX
  5
649
330
647
100
AcDbEntity
  8
Calque 1
 62
   250
420
  2236966
370
    50
100
AcDbVertex
100
AcDb2dVertex
 10
533.4225652420785
 20
2208.639691288118
 30
0.0
  0
SEQEND
  5
64A
330
647
100
AcDbEntity
  8
Calque 1
 62
   250
420
  2236966
370
    50
  0
POLYLINE
  5
64B
330
1F
100
AcDbEntity
  8
Calque 1
 62
   250
420
  2236966
370
    50
100
AcDb2dPolyline
 66
     1
 10
0.0
 20
0.0
 30
0.0
  0
VERTEX
  5
64C
330
64B
100
AcDbEntity
  8
Calque 1
 62
   250
420
  2236966
370
    50
100
AcDbVertex
100
AcDb2dVertex
 10
535.522566258806
 20
2208.639691288118
 30
0.0
  0
VERTEX
  5
64D
330
64B
100
AcDbEntity
  8
Calque 1
 62
   250
420
  2236966
370
    50
100
AcDbVertex
100
AcDb2dVertex
 10
535.522566258806
 20
2224.339680433498
 30
0.0
  0
SEQEND
  5
64E
330
64B
100
AcDbEntity
  8
Calque 1
 62
   250
420
  2236966
370
    50
  0
POLYLINE
  5
64F
330
1F
100
AcDbEntity
  8
Calque 1
 62
   250
420
  2236966
370
    50
100
AcDb2dPolyline
 66
     1
 10
0.0
 20
0.0
 30
0.0
  0
VERTEX
  5
650
330
64F
100
AcDbEntity
  8
Calque 1
 62
   250
420
  2236966
370
    50
100
AcDbVertex
100
AcDb2dVertex
 10
535.7225540517247
 20
2224.13969264058
 30
0.0
  0
VERTEX
  5
651
330
64F
100
AcDbEntity
  8
Calque 1
 62
   250
420
  2236966
370
    50
100
AcDbVertex
100
AcDb2dVertex
 10
535.7225540517247
 20
2208.639691288118
 30
0.0
  0
SEQEND
  5
652
330
64F
100
AcDbEntity
  8
Calque 1
 62
   250
420
  2236966
370
    50
  0
POLYLINE
  5
653
330
1F
100
AcDbEntity
  8
Calque 1
 62
   250
420
  2236966
370
    50
100
AcDb2dPolyline
 66
     1
 10
0.0
 20
0.0
 30
0.0
  0
VERTEX
  5
654
330
653
100
AcDbEntity
  8
Calque 1
 62
   250
420
  2236966
370
    50
100
AcDbVertex
100
AcDb2dVertex
 10
555.2225696447231
 20
2223.639637030896
 30
0.0
  0
VERTEX
  5
655
330
653
100
AcDbEntity
  8
Calque 1
 62
   250
420
  2236966
370
    50
100
AcDbVertex
100
AcDb2dVertex
 10
555.2225696447231
 20
2224.13969264058
 30
0.0
  0
SEQEND
  5
656
330
653
100
AcDbEntity
  8
Calque 1
 62
   250
420
  2236966
370
    50
  0
POLYLINE
  5
657
330
1F
100
AcDbEntity
  8
Calque 1
 62
   250
420
  2236966
370
    50
100
AcDb2dPolyline
 66
     1
 10
0.0
 20
0.0
 30
0.0
  0
VERTEX
  5
658
330
657
100
AcDbEntity
  8
Calque 1
 62
   250
420
  2236966
370
    50
100
AcDbVertex
100
AcDb2dVertex
 10
555.4225574376418
 20
2224.339680433498
 30
0.0
  0
VERTEX
  5
659
330
657
100
AcDbEntity
  8
Calque 1
 62
   250
420
  2236966
370
    50
100
AcDbVertex
100
AcDb2dVertex
 10
555.4225574376418
 20
2208.639691288118
 30
0.0
  0
SEQEND
  5
65A
330
657
100
AcDbEntity
  8
Calque 1
 62
   250
420
  2236966
370
    50
  0
POLYLINE
  5
65B
330
1F
100
AcDbEntity
  8
Calque 1
 62
   250
420
  2236966
370
    50
100
AcDb2dPolyline
 66
     1
 10
0.0
 20
0.0
 30
0.0
  0
VERTEX
  5
65C
330
65B
100
AcDbEntity
  8
Calque 1
 62
   250
420
  2236966
370
    50
100
AcDbVertex
100
AcDb2dVertex
 10
557.5225584543693
 20
2208.639691288118
 30
0.0
  0
VERTEX
  5
65D
330
65B
100
AcDbEntity
  8
Calque 1
 62
   250
420
  2236966
370
    50
100
AcDbVertex
100
AcDb2dVertex
 10
557.5225584543693
 20
2226.439638386532
 30
0.0
  0
SEQEND
  5
65E
330
65B
100
AcDbEntity
  8
Calque 1
 62
   250
420
  2236966
370
    50
  0
POLYLINE
  5
65F
330
1F
100
AcDbEntity
  8
Calque 1
 62
   250
420
  2236966
370
    50
100
AcDb2dPolyline
 66
     1
 10
0.0
 20
0.0
 30
0.0
  0
VERTEX
  5
660
330
65F
100
AcDbEntity
  8
Calque 1
 62
   250
420
  2236966
370
    50
100
AcDbVertex
100
AcDb2dVertex
 10
557.7225462472882
 20
2226.639626179451
 30
0.0
  0
VERTEX
  5
661
330
65F
100
AcDbEntity
  8
Calque 1
 62
   250
420
  2236966
370
    50
100
AcDbVertex
100
AcDb2dVertex
 10
557.7225462472882
 20
2208.639691288118
 30
0.0
  0
SEQEND
  5
662
330
65F
100
AcDbEntity
  8
Calque 1
 62
   250
420
  2236966
370
    50
  0
POLYLINE
  5
663
330
1F
100
AcDbEntity
  8
Calque 1
 62
   250
420
  2236966
370
    50
100
AcDb2dPolyline
 66
     1
 10
0.0
 20
0.0
 30
0.0
  0
VERTEX
  5
664
330
663
100
AcDbEntity
  8
Calque 1
 62
   250
420
  2236966
370
    50
100
AcDbVertex
100
AcDb2dVertex
 10
533.2225774491596
 20
2226.639626179451
 30
0.0
  0
VERTEX
  5
665
330
663
100
AcDbEntity
  8
Calque 1
 62
   250
420
  2236966
370
    50
100
AcDbVertex
100
AcDb2dVertex
 10
533.4225652420785
 20
2226.439638386532
 30
0.0
  0
SEQEND
  5
666
330
663
100
AcDbEntity
  8
Calque 1
 62
   250
420
  2236966
370
    50
  0
POLYLINE
  5
667
330
1F
100
AcDbEntity
  8
Calque 1
 62
   250
420
  2236966
370
    50
100
AcDb2dPolyline
 66
     1
 10
0.0
 20
0.0
 30
0.0
  0
VERTEX
  5
668
330
667
100
AcDbEntity
  8
Calque 1
 62
   250
420
  2236966
370
    50
100
AcDbVertex
100
AcDb2dVertex
 10
535.7225540517247
 20
2224.13969264058
 30
0.0
  0
VERTEX
  5
669
330
667
100
AcDbEntity
  8
Calque 1
 62
   250
420
  2236966
370
    50
100
AcDbVertex
100
AcDb2dVertex
 10
535.522566258806
 20
2224.339680433498
 30
0.0
  0
SEQEND
  5
66A
330
667
100
AcDbEntity
  8
Calque 1
 62
   250
420
  2236966
370
    50
  0
POLYLINE
  5
66B
330
1F
100
AcDbEntity
  8
Calque 1
 62
   250
420
  2236966
370
    50
100
AcDb2dPolyline
 66
     1
 10
0.0
 20
0.0
 30
0.0
  0
VERTEX
  5
66C
330
66B
100
AcDbEntity
  8
Calque 1
 62
   250
420
  2236966
370
    50
100
AcDbVertex
100
AcDb2dVertex
 10
555.2225696447231
 20
2224.13969264058
 30
0.0
  0
VERTEX
  5
66D
330
66B
100
AcDbEntity
  8
Calque 1
 62
   250
420
  2236966
370
    50
100
AcDbVertex
100
AcDb2dVertex
 10
535.7225540517247
 20
2224.13969264058
 30
0.0
  0
SEQEND
  5
66E
330
66B
100
AcDbEntity
  8
Calque 1
 62
   250
420
  2236966
370
    50
  0
POLYLINE
  5
66F
330
1F
100
AcDbEntity
  8
Calque 1
 62
   250
420
  2236966
370
    50
100
AcDb2dPolyline
 66
     1
 10
0.0
 20
0.0
 30
0.0
  0
VERTEX
  5
670
330
66F
100
AcDbEntity
  8
Calque 1
 62
   250
420
  2236966
370
    50
100
AcDbVertex
100
AcDb2dVertex
 10
535.522566258806
 20
2224.339680433498
 30
0.0
  0
VERTEX
  5
671
330
66F
100
AcDbEntity
  8
Calque 1
 62
   250
420
  2236966
370
    50
100
AcDbVertex
100
AcDb2dVertex
 10
555.4225574376418
 20
2224.339680433498
 30
0.0
  0
SEQEND
  5
672
330
66F
100
AcDbEntity
  8
Calque 1
 62
   250
420
  2236966
370
    50
  0
POLYLINE
  5
673
330
1F
100
AcDbEntity
  8
Calque 1
 62
   250
420
  2236966
370
    50
100
AcDb2dPolyline
 66
     1
 10
0.0
 20
0.0
 30
0.0
  0
VERTEX
  5
674
330
673
100
AcDbEntity
  8
Calque 1
 62
   250
420
  2236966
370
    50
100
AcDbVertex
100
AcDb2dVertex
 10
557.5225584543693
 20
2226.439638386532
 30
0.0
  0
VERTEX
  5
675
330
673
100
AcDbEntity
  8
Calque 1
 62
   250
420
  2236966
370
    50
100
AcDbVertex
100
AcDb2dVertex
 10
533.4225652420785
 20
2226.439638386532
 30
0.0
  0
SEQEND
  5
676
330
673
100
AcDbEntity
  8
Calque 1
 62
   250
420
  2236966
370
    50
  0
POLYLINE
  5
677
330
1F
100
AcDbEntity
  8
Calque 1
 62
   250
420
  2236966
370
    50
100
AcDb2dPolyline
 66
     1
 10
0.0
 20
0.0
 30
0.0
  0
VERTEX
  5
678
330
677
100
AcDbEntity
  8
Calque 1
 62
   250
420
  2236966
370
    50
100
AcDbVertex
100
AcDb2dVertex
 10
533.2225774491596
 20
2226.639626179451
 30
0.0
  0
VERTEX
  5
679
330
677
100
AcDbEntity
  8
Calque 1
 62
   250
420
  2236966
370
    50
100
AcDbVertex
100
AcDb2dVertex
 10
557.7225462472882
 20
2226.639626179451
 30
0.0
  0
SEQEND
  5
67A
330
677
100
AcDbEntity
  8
Calque 1
 62
   250
420
  2236966
370
    50
  0
POLYLINE
  5
67B
330
1F
100
AcDbEntity
  8
Calque 1
 62
   250
420
  2236966
370
    50
100
AcDb2dPolyline
 66
     1
 10
0.0
 20
0.0
 30
0.0
  0
VERTEX
  5
67C
330
67B
100
AcDbEntity
  8
Calque 1
 62
   250
420
  2236966
370
    50
100
AcDbVertex
100
AcDb2dVertex
 10
555.1225757482637
 20
2224.13969264058
 30
0.0
  0
VERTEX
  5
67D
330
67B
100
AcDbEntity
  8
Calque 1
 62
   250
420
  2236966
370
    50
100
AcDbVertex
100
AcDb2dVertex
 10
555.1225757482637
 20
2223.639637030896
 30
0.0
  0
SEQEND
  5
67E
330
67B
100
AcDbEntity
  8
Calque 1
 62
   250
420
  2236966
370
    50
  0
POLYLINE
  5
67F
330
1F
100
AcDbEntity
  8
Calque 1
 62
   250
420
  2236966
370
    50
100
AcDb2dPolyline
 66
     1
 10
0.0
 20
0.0
 30
0.0
  0
VERTEX
  5
680
330
67F
100
AcDbEntity
  8
Calque 1
 62
   250
420
  2236966
370
    50
100
AcDbVertex
100
AcDb2dVertex
 10
455.2225581408602
 20
208.6396980611756
 30
0.0
  0
VERTEX
  5
681
330
67F
100
AcDbEntity
  8
Calque 1
 62
   250
420
  2236966
370
    50
100
AcDbVertex
100
AcDb2dVertex
 10
1650.222613791003
 20
208.6396980611756
 30
0.0
  0
SEQEND
  5
682
330
67F
100
AcDbEntity
  8
Calque 1
 62
   250
420
  2236966
370
    50
  0
POLYLINE
  5
683
330
1F
100
AcDbEntity
  8
Calque 1
 62
   250
420
  2236966
370
    50
100
AcDb2dPolyline
 66
     1
 10
0.0
 20
0.0
 30
0.0
  0
VERTEX
  5
684
330
683
100
AcDbEntity
  8
Calque 1
 62
   250
420
  2236966
370
    50
100
AcDbVertex
100
AcDb2dVertex
 10
455.2225581408602
 20
2208.639691288118
 30
0.0
  0
VERTEX
  5
685
330
683
100
AcDbEntity
  8
Calque 1
 62
   250
420
  2236966
370
    50
100
AcDbVertex
100
AcDb2dVertex
 10
536.2225665977152
 20
2208.639691288118
 30
0.0
  0
SEQEND
  5
686
330
683
100
AcDbEntity
  8
Calque 1
 62
   250
420
  2236966
370
    50
  0
POLYLINE
  5
687
330
1F
100
AcDbEntity
  8
Calque 1
 62
   250
420
  2236966
370
    50
100
AcDb2dPolyline
 66
     1
 10
0.0
 20
0.0
 30
0.0
  0
VERTEX
  5
688
330
687
100
AcDbEntity
  8
Calque 1
 62
   250
420
  2236966
370
    50
100
AcDbVertex
100
AcDb2dVertex
 10
555.2225696447231
 20
2208.639691288118
 30
0.0
  0
VERTEX
  5
689
330
687
100
AcDbEntity
  8
Calque 1
 62
   250
420
  2236966
370
    50
100
AcDbVertex
100
AcDb2dVertex
 10
1650.222613791003
 20
2208.639691288118
 30
0.0
  0
SEQEND
  5
68A
330
687
100
AcDbEntity
  8
Calque 1
 62
   250
420
  2236966
370
    50
  0
POLYLINE
  5
68B
330
1F
100
AcDbEntity
  8
Calque 1
 62
   250
420
  2236966
370
    50
100
AcDb2dPolyline
 66
     1
 10
0.0
 20
0.0
 30
0.0
  0
VERTEX
  5
68C
330
68B
100
AcDbEntity
  8
Calque 1
 62
   250
420
  2236966
370
    50
100
AcDbVertex
100
AcDb2dVertex
 10
1650.222613791003
 20
2210.569117014632
 30
0.0
  0
VERTEX
  5
68D
330
68B
100
AcDbEntity
  8
Calque 1
 62
   250
420
  2236966
370
    50
100
AcDbVertex
100
AcDb2dVertex
 10
1650.222613791003
 20
2202.469180764487
 30
0.0
  0
SEQEND
  5
68E
330
68B
100
AcDbEntity
  8
Calque 1
 62
   250
420
  2236966
370
    50
  0
POLYLINE
  5
68F
330
1F
100
AcDbEntity
  8
Calque 1
 62
   250
420
  2236966
370
    50
100
AcDb2dPolyline
 66
     1
 10
0.0
 20
0.0
 30
0.0
  0
VERTEX
  5
690
330
68F
100
AcDbEntity
  8
Calque 1
 62
   250
420
  2236966
370
    50
100
AcDbVertex
100
AcDb2dVertex
 10
1650.422601583922
 20
2202.269192971568
 30
0.0
  0
VERTEX
  5
691
330
68F
100
AcDbEntity
  8
Calque 1
 62
   250
420
  2236966
370
    50
100
AcDbVertex
100
AcDb2dVertex
 10
1650.422601583922
 20
2210.769104807551
 30
0.0
  0
SEQEND
  5
692
330
68F
100
AcDbEntity
  8
Calque 1
 62
   250
420
  2236966
370
    50
  0
POLYLINE
  5
693
330
1F
100
AcDbEntity
  8
Calque 1
 62
   250
420
  2236966
370
    50
100
AcDb2dPolyline
 66
     1
 10
0.0
 20
0.0
 30
0.0
  0
VERTEX
  5
694
330
693
100
AcDbEntity
  8
Calque 1
 62
   250
420
  2236966
370
    50
100
AcDbVertex
100
AcDb2dVertex
 10
1698.022624629748
 20
2210.769104807551
 30
0.0
  0
VERTEX
  5
695
330
693
100
AcDbEntity
  8
Calque 1
 62
   250
420
  2236966
370
    50
100
AcDbVertex
100
AcDb2dVertex
 10
1698.022624629748
 20
2202.269192971568
 30
0.0
  0
SEQEND
  5
696
330
693
100
AcDbEntity
  8
Calque 1
 62
   250
420
  2236966
370
    50
  0
POLYLINE
  5
697
330
1F
100
AcDbEntity
  8
Calque 1
 62
   250
420
  2236966
370
    50
100
AcDb2dPolyline
 66
     1
 10
0.0
 20
0.0
 30
0.0
  0
VERTEX
  5
698
330
697
100
AcDbEntity
  8
Calque 1
 62
   250
420
  2236966
370
    50
100
AcDbVertex
100
AcDb2dVertex
 10
1698.222612422667
 20
2210.569117014632
 30
0.0
  0
VERTEX
  5
699
330
697
100
AcDbEntity
  8
Calque 1
 62
   250
420
  2236966
370
    50
100
AcDbVertex
100
AcDb2dVertex
 10
1698.222612422667
 20
2202.469180764487
 30
0.0
  0
SEQEND
  5
69A
330
697
100
AcDbEntity
  8
Calque 1
 62
   250
420
  2236966
370
    50
  0
POLYLINE
  5
69B
330
1F
100
AcDbEntity
  8
Calque 1
 62
   250
420
  2236966
370
    50
100
AcDb2dPolyline
 66
     1
 10
0.0
 20
0.0
 30
0.0
  0
VERTEX
  5
69C
330
69B
100
AcDbEntity
  8
Calque 1
 62
   250
420
  2236966
370
    50
100
AcDbVertex
100
AcDb2dVertex
 10
1650.422601583922
 20
2202.269192971568
 30
0.0
  0
VERTEX
  5
69D
330
69B
100
AcDbEntity
  8
Calque 1
 62
   250
420
  2236966
370
    50
100
AcDbVertex
100
AcDb2dVertex
 10
1698.022624629748
 20
2202.269192971568
 30
0.0
  0
SEQEND
  5
69E
330
69B
100
AcDbEntity
  8
Calque 1
 62
   250
420
  2236966
370
    50
  0
POLYLINE
  5
69F
330
1F
100
AcDbEntity
  8
Calque 1
 62
   250
420
  2236966
370
    50
100
AcDb2dPolyline
 66
     1
 10
0.0
 20
0.0
 30
0.0
  0
VERTEX
  5
6A0
330
69F
100
AcDbEntity
  8
Calque 1
 62
   250
420
  2236966
370
    50
100
AcDbVertex
100
AcDb2dVertex
 10
1698.022624629748
 20
2202.462118318742
 30
0.0
  0
VERTEX
  5
6A1
330
69F
100
AcDbEntity
  8
Calque 1
 62
   250
420
  2236966
370
    50
100
AcDbVertex
100
AcDb2dVertex
 10
1650.422601583922
 20
2202.462118318742
 30
0.0
  0
SEQEND
  5
6A2
330
69F
100
AcDbEntity
  8
Calque 1
 62
   250
420
  2236966
370
    50
  0
POLYLINE
  5
6A3
330
1F
100
AcDbEntity
  8
Calque 1
 62
   250
420
  2236966
370
    50
100
AcDb2dPolyline
 66
     1
 10
0.0
 20
0.0
 30
0.0
  0
VERTEX
  5
6A4
330
6A3
100
AcDbEntity
  8
Calque 1
 62
   250
420
  2236966
370
    50
100
AcDbVertex
100
AcDb2dVertex
 10
1650.422601583922
 20
2210.562054568888
 30
0.0
  0
VERTEX
  5
6A5
330
6A3
100
AcDbEntity
  8
Calque 1
 62
   250
420
  2236966
370
    50
100
AcDbVertex
100
AcDb2dVertex
 10
1698.022624629748
 20
2210.562054568888
 30
0.0
  0
SEQEND
  5
6A6
330
6A3
100
AcDbEntity
  8
Calque 1
 62
   250
420
  2236966
370
    50
  0
POLYLINE
  5
6A7
330
1F
100
AcDbEntity
  8
Calque 1
 62
   250
420
  2236966
370
    50
100
AcDb2dPolyline
 66
     1
 10
0.0
 20
0.0
 30
0.0
  0
VERTEX
  5
6A8
330
6A7
100
AcDbEntity
  8
Calque 1
 62
   250
420
  2236966
370
    50
100
AcDbVertex
100
AcDb2dVertex
 10
1698.022624629748
 20
2210.769104807551
 30
0.0
  0
VERTEX
  5
6A9
330
6A7
100
AcDbEntity
  8
Calque 1
 62
   250
420
  2236966
370
    50
100
AcDbVertex
100
AcDb2dVertex
 10
1650.422601583922
 20
2210.769104807551
 30
0.0
  0
SEQEND
  5
6AA
330
6A7
100
AcDbEntity
  8
Calque 1
 62
   250
420
  2236966
370
    50
  0
SPLINE
  5
6AB
330
1F
100
AcDbEntity
  8
Calque 1
 62
   250
420
  2236966
370
    50
100
AcDbSpline
210
0.0
220
0.0
230
1.0
 70
     8
 71
     3
 72
     8
 73
     4
 74
     0
 42
0.0000000001
 43
0.0000000001
 12
1.0
 22
0.0
 32
0.0
 13
1.0
 23
0.0
 33
0.0
 40
0.0
 40
0.0
 40
0.0
 40
0.0
 40
1.0
 40
1.0
 40
1.0
 40
1.0
 10
1698.222612422667
 20
2210.569117014632
 30
0.0
 10
1698.222612422667
 20
2210.679532324934
 30
0.0
 10
1698.13303994005
 20
2210.769104807551
 30
0.0
 10
1698.022624629748
 20
2210.769104807551
 30
0.0
  0
SPLINE
  5
6AC
330
1F
100
AcDbEntity
  8
Calque 1
 62
   250
420
  2236966
370
    50
100
AcDbSpline
210
0.0
220
0.0
230
1.0
 70
     8
 71
     3
 72
     8
 73
     4
 74
     0
 42
0.0000000001
 43
0.0000000001
 12
1.0
 22
0.0
 32
0.0
 13
1.0
 23
0.0
 33
0.0
 40
0.0
 40
0.0
 40
0.0
 40
0.0
 40
1.0
 40
1.0
 40
1.0
 40
1.0
 10
1650.281180414253
 20
2210.710538184302
 30
0.0
 10
1650.243628873463
 20
2210.672986643513
 30
0.0
 10
1650.222613791003
 20
2210.622171485105
 30
0.0
 10
1650.222613791003
 20
2210.569117014632
 30
0.0
  0
SPLINE
  5
6AD
330
1F
100
AcDbEntity
  8
Calque 1
 62
   250
420
  2236966
370
    50
100
AcDbSpline
210
0.0
220
0.0
230
1.0
 70
     8
 71
     3
 72
     8
 73
     4
 74
     0
 42
0.0000000001
 43
0.0000000001
 12
1.0
 22
0.0
 32
0.0
 13
1.0
 23
0.0
 33
0.0
 40
0.0
 40
0.0
 40
0.0
 40
0.0
 40
1.0
 40
1.0
 40
1.0
 40
1.0
 10
1650.422601583922
 20
2210.769104807551
 30
0.0
 10
1650.369547113449
 20
2210.769104807551
 30
0.0
 10
1650.318731955042
 20
2210.748089725091
 30
0.0
 10
1650.281180414253
 20
2210.710538184302
 30
0.0
  0
SPLINE
  5
6AE
330
1F
100
AcDbEntity
  8
Calque 1
 62
   250
420
  2236966
370
    50
100
AcDbSpline
210
0.0
220
0.0
230
1.0
 70
     8
 71
     3
 72
     8
 73
     4
 74
     0
 42
0.0000000001
 43
0.0000000001
 12
1.0
 22
0.0
 32
0.0
 13
1.0
 23
0.0
 33
0.0
 40
0.0
 40
0.0
 40
0.0
 40
0.0
 40
1.0
 40
1.0
 40
1.0
 40
1.0
 10
1698.022624629748
 20
2202.269192971568
 30
0.0
 10
1698.13303994005
 20
2202.269192971568
 30
0.0
 10
1698.222612422667
 20
2202.35859319941
 30
0.0
 10
1698.222612422667
 20
2202.469180764487
 30
0.0
  0
SPLINE
  5
6AF
330
1F
100
AcDbEntity
  8
Calque 1
 62
   250
420
  2236966
370
    50
100
AcDbSpline
210
0.0
220
0.0
230
1.0
 70
     8
 71
     3
 72
     8
 73
     4
 74
     0
 42
0.0000000001
 43
0.0000000001
 12
1.0
 22
0.0
 32
0.0
 13
1.0
 23
0.0
 33
0.0
 40
0.0
 40
0.0
 40
0.0
 40
0.0
 40
1.0
 40
1.0
 40
1.0
 40
1.0
 10
1650.222613791003
 20
2202.469180764487
 30
0.0
 10
1650.222613791003
 20
2202.35859319941
 30
0.0
 10
1650.31218627362
 20
2202.269192971568
 30
0.0
 10
1650.422601583922
 20
2202.269192971568
 30
0.0
  0
POLYLINE
  5
6B0
330
1F
100
AcDbEntity
  8
Calque 1
 62
   250
420
  2236966
370
    50
100
AcDb2dPolyline
 66
     1
 10
0.0
 20
0.0
 30
0.0
  0
VERTEX
  5
6B1
330
6B0
100
AcDbEntity
  8
Calque 1
 62
   250
420
  2236966
370
    50
100
AcDbVertex
100
AcDb2dVertex
 10
1698.022624629748
 20
2210.562054568888
 30
0.0
  0
VERTEX
  5
6B2
330
6B0
100
AcDbEntity
  8
Calque 1
 62
   250
420
  2236966
370
    50
100
AcDbVertex
100
AcDb2dVertex
 10
1698.038988833303
 20
2210.562226823662
 30
0.0
  0
VERTEX
  5
6B3
330
6B0
100
AcDbEntity
  8
Calque 1
 62
   250
420
  2236966
370
    50
100
AcDbVertex
100
AcDb2dVertex
 10
1698.058798132343
 20
2210.562399078436
 30
0.0
  0
VERTEX
  5
6B4
330
6B0
100
AcDbEntity
  8
Calque 1
 62
   250
420
  2236966
370
    50
100
AcDbVertex
100
AcDb2dVertex
 10
1698.078779686158
 20
2210.562743587985
 30
0.0
  0
VERTEX
  5
6B5
330
6B0
100
AcDbEntity
  8
Calque 1
 62
   250
420
  2236966
370
    50
100
AcDbVertex
100
AcDb2dVertex
 10
1698.099105749521
 20
2210.562743587985
 30
0.0
  0
VERTEX
  5
6B6
330
6B0
100
AcDbEntity
  8
Calque 1
 62
   250
420
  2236966
370
    50
100
AcDbVertex
100
AcDb2dVertex
 10
1698.104101137974
 20
2210.56257133321
 30
0.0
  0
VERTEX
  5
6B7
330
6B0
100
AcDbEntity
  8
Calque 1
 62
   250
420
  2236966
370
    50
100
AcDbVertex
100
AcDb2dVertex
 10
1698.12494396566
 20
2210.562399078436
 30
0.0
  0
VERTEX
  5
6B8
330
6B0
100
AcDbEntity
  8
Calque 1
 62
   250
420
  2236966
370
    50
100
AcDbVertex
100
AcDb2dVertex
 10
1698.145270029023
 20
2210.562743587985
 30
0.0
  0
VERTEX
  5
6B9
330
6B0
100
AcDbEntity
  8
Calque 1
 62
   250
420
  2236966
370
    50
100
AcDbVertex
100
AcDb2dVertex
 10
1698.164045799417
 20
2210.564121626178
 30
0.0
  0
VERTEX
  5
6BA
330
6B0
100
AcDbEntity
  8
Calque 1
 62
   250
420
  2236966
370
    50
100
AcDbVertex
100
AcDb2dVertex
 10
1698.16697413058
 20
2210.564638390501
 30
0.0
  0
VERTEX
  5
6BB
330
6B0
100
AcDbEntity
  8
Calque 1
 62
   250
420
  2236966
370
    50
100
AcDbVertex
100
AcDb2dVertex
 10
1698.184544117555
 20
2210.567049957341
 30
0.0
  0
VERTEX
  5
6BC
330
6B0
100
AcDbEntity
  8
Calque 1
 62
   250
420
  2236966
370
    50
100
AcDbVertex
100
AcDb2dVertex
 10
1698.207281747757
 20
2210.566533193018
 30
0.0
  0
VERTEX
  5
6BD
330
6B0
100
AcDbEntity
  8
Calque 1
 62
   250
420
  2236966
370
    50
100
AcDbVertex
100
AcDb2dVertex
 10
1698.214860957825
 20
2210.565499664373
 30
0.0
  0
VERTEX
  5
6BE
330
6B0
100
AcDbEntity
  8
Calque 1
 62
   250
420
  2236966
370
    50
100
AcDbVertex
100
AcDb2dVertex
 10
1698.222612422667
 20
2210.569117014632
 30
0.0
  0
SEQEND
  5
6BF
330
6B0
100
AcDbEntity
  8
Calque 1
 62
   250
420
  2236966
370
    50
  0
POLYLINE
  5
6C0
330
1F
100
AcDbEntity
  8
Calque 1
 62
   250
420
  2236966
370
    50
100
AcDb2dPolyline
 66
     1
 10
0.0
 20
0.0
 30
0.0
  0
VERTEX
  5
6C1
330
6C0
100
AcDbEntity
  8
Calque 1
 62
   250
420
  2236966
370
    50
100
AcDbVertex
100
AcDb2dVertex
 10
1698.222612422667
 20
2202.469180764487
 30
0.0
  0
VERTEX
  5
6C2
330
6C0
100
AcDbEntity
  8
Calque 1
 62
   250
420
  2236966
370
    50
100
AcDbVertex
100
AcDb2dVertex
 10
1698.214860957825
 20
2202.465563414227
 30
0.0
  0
VERTEX
  5
6C3
330
6C0
100
AcDbEntity
  8
Calque 1
 62
   250
420
  2236966
370
    50
100
AcDbVertex
100
AcDb2dVertex
 10
1698.207281747757
 20
2202.466424688099
 30
0.0
  0
VERTEX
  5
6C4
330
6C0
100
AcDbEntity
  8
Calque 1
 62
   250
420
  2236966
370
    50
100
AcDbVertex
100
AcDb2dVertex
 10
1698.202975378401
 20
2202.466941452421
 30
0.0
  0
VERTEX
  5
6C5
330
6C0
100
AcDbEntity
  8
Calque 1
 62
   250
420
  2236966
370
    50
100
AcDbVertex
100
AcDb2dVertex
 10
1698.181443531618
 20
2202.466769197647
 30
0.0
  0
VERTEX
  5
6C6
330
6C0
100
AcDbEntity
  8
Calque 1
 62
   250
420
  2236966
370
    50
100
AcDbVertex
100
AcDb2dVertex
 10
1698.164045799417
 20
2202.464185376034
 30
0.0
  0
VERTEX
  5
6C7
330
6C0
100
AcDbEntity
  8
Calque 1
 62
   250
420
  2236966
370
    50
100
AcDbVertex
100
AcDb2dVertex
 10
1698.159739430061
 20
2202.463668611711
 30
0.0
  0
VERTEX
  5
6C8
330
6C0
100
AcDbEntity
  8
Calque 1
 62
   250
420
  2236966
370
    50
100
AcDbVertex
100
AcDb2dVertex
 10
1698.140446895344
 20
2202.462635083065
 30
0.0
  0
VERTEX
  5
6C9
330
6C0
100
AcDbEntity
  8
Calque 1
 62
   250
420
  2236966
370
    50
100
AcDbVertex
100
AcDb2dVertex
 10
1698.119948577206
 20
2202.462462828291
 30
0.0
  0
VERTEX
  5
6CA
330
6C0
100
AcDbEntity
  8
Calque 1
 62
   250
420
  2236966
370
    50
100
AcDbVertex
100
AcDb2dVertex
 10
1698.099105749521
 20
2202.462635083065
 30
0.0
  0
VERTEX
  5
6CB
330
6C0
100
AcDbEntity
  8
Calque 1
 62
   250
420
  2236966
370
    50
100
AcDbVertex
100
AcDb2dVertex
 10
1698.082397036417
 20
2202.462635083065
 30
0.0
  0
VERTEX
  5
6CC
330
6C0
100
AcDbEntity
  8
Calque 1
 62
   250
420
  2236966
370
    50
100
AcDbVertex
100
AcDb2dVertex
 10
1698.062243227828
 20
2202.462462828291
 30
0.0
  0
VERTEX
  5
6CD
330
6C0
100
AcDbEntity
  8
Calque 1
 62
   250
420
  2236966
370
    50
100
AcDbVertex
100
AcDb2dVertex
 10
1698.042433928788
 20
2202.462290573516
 30
0.0
  0
VERTEX
  5
6CE
330
6C0
100
AcDbEntity
  8
Calque 1
 62
   250
420
  2236966
370
    50
100
AcDbVertex
100
AcDb2dVertex
 10
1698.022624629748
 20
2202.462118318742
 30
0.0
  0
SEQEND
  5
6CF
330
6C0
100
AcDbEntity
  8
Calque 1
 62
   250
420
  2236966
370
    50
  0
POLYLINE
  5
6D0
330
1F
100
AcDbEntity
  8
Calque 1
 62
   250
420
  2236966
370
    50
100
AcDb2dPolyline
 66
     1
 10
0.0
 20
0.0
 30
0.0
  0
VERTEX
  5
6D1
330
6D0
100
AcDbEntity
  8
Calque 1
 62
   250
420
  2236966
370
    50
100
AcDbVertex
100
AcDb2dVertex
 10
1650.422601583922
 20
2210.562054568888
 30
0.0
  0
VERTEX
  5
6D2
330
6D0
100
AcDbEntity
  8
Calque 1
 62
   250
420
  2236966
370
    50
100
AcDbVertex
100
AcDb2dVertex
 10
1650.406237380367
 20
2210.562226823662
 30
0.0
  0
VERTEX
  5
6D3
330
6D0
100
AcDbEntity
  8
Calque 1
 62
   250
420
  2236966
370
    50
100
AcDbVertex
100
AcDb2dVertex
 10
1650.386428081327
 20
2210.562399078436
 30
0.0
  0
VERTEX
  5
6D4
330
6D0
100
AcDbEntity
  8
Calque 1
 62
   250
420
  2236966
370
    50
100
AcDbVertex
100
AcDb2dVertex
 10
1650.366446527513
 20
2210.562743587985
 30
0.0
  0
VERTEX
  5
6D5
330
6D0
100
AcDbEntity
  8
Calque 1
 62
   250
420
  2236966
370
    50
100
AcDbVertex
100
AcDb2dVertex
 10
1650.345948209375
 20
2210.562743587985
 30
0.0
  0
VERTEX
  5
6D6
330
6D0
100
AcDbEntity
  8
Calque 1
 62
   250
420
  2236966
370
    50
100
AcDbVertex
100
AcDb2dVertex
 10
1650.341125075696
 20
2210.56257133321
 30
0.0
  0
VERTEX
  5
6D7
330
6D0
100
AcDbEntity
  8
Calque 1
 62
   250
420
  2236966
370
    50
100
AcDbVertex
100
AcDb2dVertex
 10
1650.32028224801
 20
2210.562399078436
 30
0.0
  0
VERTEX
  5
6D8
330
6D0
100
AcDbEntity
  8
Calque 1
 62
   250
420
  2236966
370
    50
100
AcDbVertex
100
AcDb2dVertex
 10
1650.299956184647
 20
2210.562743587985
 30
0.0
  0
VERTEX
  5
6D9
330
6D0
100
AcDbEntity
  8
Calque 1
 62
   250
420
  2236966
370
    50
100
AcDbVertex
100
AcDb2dVertex
 10
1650.281180414253
 20
2210.564121626178
 30
0.0
  0
VERTEX
  5
6DA
330
6D0
100
AcDbEntity
  8
Calque 1
 62
   250
420
  2236966
370
    50
100
AcDbVertex
100
AcDb2dVertex
 10
1650.27825208309
 20
2210.564638390501
 30
0.0
  0
VERTEX
  5
6DB
330
6D0
100
AcDbEntity
  8
Calque 1
 62
   250
420
  2236966
370
    50
100
AcDbVertex
100
AcDb2dVertex
 10
1650.260509841341
 20
2210.567049957341
 30
0.0
  0
VERTEX
  5
6DC
330
6D0
100
AcDbEntity
  8
Calque 1
 62
   250
420
  2236966
370
    50
100
AcDbVertex
100
AcDb2dVertex
 10
1650.237772211138
 20
2210.566533193018
 30
0.0
  0
VERTEX
  5
6DD
330
6D0
100
AcDbEntity
  8
Calque 1
 62
   250
420
  2236966
370
    50
100
AcDbVertex
100
AcDb2dVertex
 10
1650.230193001071
 20
2210.565499664373
 30
0.0
  0
VERTEX
  5
6DE
330
6D0
100
AcDbEntity
  8
Calque 1
 62
   250
420
  2236966
370
    50
100
AcDbVertex
100
AcDb2dVertex
 10
1650.222613791003
 20
2210.569117014632
 30
0.0
  0
SEQEND
  5
6DF
330
6D0
100
AcDbEntity
  8
Calque 1
 62
   250
420
  2236966
370
    50
  0
POLYLINE
  5
6E0
330
1F
100
AcDbEntity
  8
Calque 1
 62
   250
420
  2236966
370
    50
100
AcDb2dPolyline
 66
     1
 10
0.0
 20
0.0
 30
0.0
  0
VERTEX
  5
6E1
330
6E0
100
AcDbEntity
  8
Calque 1
 62
   250
420
  2236966
370
    50
100
AcDbVertex
100
AcDb2dVertex
 10
1650.422601583922
 20
2202.462118318742
 30
0.0
  0
VERTEX
  5
6E2
330
6E0
100
AcDbEntity
  8
Calque 1
 62
   250
420
  2236966
370
    50
100
AcDbVertex
100
AcDb2dVertex
 10
1650.406237380367
 20
2202.462290573516
 30
0.0
  0
VERTEX
  5
6E3
330
6E0
100
AcDbEntity
  8
Calque 1
 62
   250
420
  2236966
370
    50
100
AcDbVertex
100
AcDb2dVertex
 10
1650.386428081327
 20
2202.462462828291
 30
0.0
  0
VERTEX
  5
6E4
330
6E0
100
AcDbEntity
  8
Calque 1
 62
   250
420
  2236966
370
    50
100
AcDbVertex
100
AcDb2dVertex
 10
1650.366446527513
 20
2202.462635083065
 30
0.0
  0
VERTEX
  5
6E5
330
6E0
100
AcDbEntity
  8
Calque 1
 62
   250
420
  2236966
370
    50
100
AcDbVertex
100
AcDb2dVertex
 10
1650.345948209375
 20
2202.462635083065
 30
0.0
  0
VERTEX
  5
6E6
330
6E0
100
AcDbEntity
  8
Calque 1
 62
   250
420
  2236966
370
    50
100
AcDbVertex
100
AcDb2dVertex
 10
1650.341125075696
 20
2202.462635083065
 30
0.0
  0
VERTEX
  5
6E7
330
6E0
100
AcDbEntity
  8
Calque 1
 62
   250
420
  2236966
370
    50
100
AcDbVertex
100
AcDb2dVertex
 10
1650.32028224801
 20
2202.462462828291
 30
0.0
  0
VERTEX
  5
6E8
330
6E0
100
AcDbEntity
  8
Calque 1
 62
   250
420
  2236966
370
    50
100
AcDbVertex
100
AcDb2dVertex
 10
1650.299956184647
 20
2202.462807337839
 30
0.0
  0
VERTEX
  5
6E9
330
6E0
100
AcDbEntity
  8
Calque 1
 62
   250
420
  2236966
370
    50
100
AcDbVertex
100
AcDb2dVertex
 10
1650.281180414253
 20
2202.464185376034
 30
0.0
  0
VERTEX
  5
6EA
330
6E0
100
AcDbEntity
  8
Calque 1
 62
   250
420
  2236966
370
    50
100
AcDbVertex
100
AcDb2dVertex
 10
1650.27825208309
 20
2202.464529885582
 30
0.0
  0
VERTEX
  5
6EB
330
6E0
100
AcDbEntity
  8
Calque 1
 62
   250
420
  2236966
370
    50
100
AcDbVertex
100
AcDb2dVertex
 10
1650.260509841341
 20
2202.466941452421
 30
0.0
  0
VERTEX
  5
6EC
330
6E0
100
AcDbEntity
  8
Calque 1
 62
   250
420
  2236966
370
    50
100
AcDbVertex
100
AcDb2dVertex
 10
1650.237772211138
 20
2202.466424688099
 30
0.0
  0
VERTEX
  5
6ED
330
6E0
100
AcDbEntity
  8
Calque 1
 62
   250
420
  2236966
370
    50
100
AcDbVertex
100
AcDb2dVertex
 10
1650.230193001071
 20
2202.465563414227
 30
0.0
  0
VERTEX
  5
6EE
330
6E0
100
AcDbEntity
  8
Calque 1
 62
   250
420
  2236966
370
    50
100
AcDbVertex
100
AcDb2dVertex
 10
1650.222613791003
 20
2202.469180764487
 30
0.0
  0
SEQEND
  5
6EF
330
6E0
100
AcDbEntity
  8
Calque 1
 62
   250
420
  2236966
370
    50
  0
POLYLINE
  5
6F0
330
1F
100
AcDbEntity
  8
Calque 1
 62
   250
420
  2236966
370
    50
100
AcDb2dPolyline
 66
     1
 10
0.0
 20
0.0
 30
0.0
  0
VERTEX
  5
6F1
330
6F0
100
AcDbEntity
  8
Calque 1
 62
   250
420
  2236966
370
    50
100
AcDbVertex
100
AcDb2dVertex
 10
536.2225665977152
 20
2163.839669597929
 30
0.0
  0
VERTEX
  5
6F2
330
6F0
100
AcDbEntity
  8
Calque 1
 62
   250
420
  2236966
370
    50
100
AcDbVertex
100
AcDb2dVertex
 10
536.2225665977152
 20
2163.63968180501
 30
0.0
  0
SEQEND
  5
6F3
330
6F0
100
AcDbEntity
  8
Calque 1
 62
   250
420
  2236966
370
    50
  0
POLYLINE
  5
6F4
330
1F
100
AcDbEntity
  8
Calque 1
 62
   250
420
  2236966
370
    50
100
AcDb2dPolyline
 66
     1
 10
0.0
 20
0.0
 30
0.0
  0
VERTEX
  5
6F5
330
6F4
100
AcDbEntity
  8
Calque 1
 62
   250
420
  2236966
370
    50
100
AcDbVertex
100
AcDb2dVertex
 10
555.2225696447231
 20
2163.63968180501
 30
0.0
  0
VERTEX
  5
6F6
330
6F4
100
AcDbEntity
  8
Calque 1
 62
   250
420
  2236966
370
    50
100
AcDbVertex
100
AcDb2dVertex
 10
555.2225696447231
 20
2163.839669597929
 30
0.0
  0
SEQEND
  5
6F7
330
6F4
100
AcDbEntity
  8
Calque 1
 62
   250
420
  2236966
370
    50
  0
POLYLINE
  5
6F8
330
1F
100
AcDbEntity
  8
Calque 1
 62
   250
420
  2236966
370
    50
100
AcDb2dPolyline
 66
     1
 10
0.0
 20
0.0
 30
0.0
  0
VERTEX
  5
6F9
330
6F8
100
AcDbEntity
  8
Calque 1
 62
   250
420
  2236966
370
    50
100
AcDbVertex
100
AcDb2dVertex
 10
536.2225665977152
 20
2163.63968180501
 30
0.0
  0
VERTEX
  5
6FA
330
6F8
100
AcDbEntity
  8
Calque 1
 62
   250
420
  2236966
370
    50
100
AcDbVertex
100
AcDb2dVertex
 10
536.422554390634
 20
2163.63968180501
 30
0.0
  0
SEQEND
  5
6FB
330
6F8
100
AcDbEntity
  8
Calque 1
 62
   250
420
  2236966
370
    50
  0
POLYLINE
  5
6FC
330
1F
100
AcDbEntity
  8
Calque 1
 62
   250
420
  2236966
370
    50
100
AcDb2dPolyline
 66
     1
 10
0.0
 20
0.0
 30
0.0
  0
VERTEX
  5
6FD
330
6FC
100
AcDbEntity
  8
Calque 1
 62
   250
420
  2236966
370
    50
100
AcDbVertex
100
AcDb2dVertex
 10
555.0225818518043
 20
2163.63968180501
 30
0.0
  0
VERTEX
  5
6FE
330
6FC
100
AcDbEntity
  8
Calque 1
 62
   250
420
  2236966
370
    50
100
AcDbVertex
100
AcDb2dVertex
 10
555.2225696447231
 20
2163.63968180501
 30
0.0
  0
SEQEND
  5
6FF
330
6FC
100
AcDbEntity
  8
Calque 1
 62
   250
420
  2236966
370
    50
  0
ENDSEC
  0
SECTION
  2
OBJECTS
  0
DICTIONARY
  5
C
330
0
100
AcDbDictionary
281
     1
  3
ACAD_GROUP
350
D
  3
ACAD_LAYOUT
350
1A
  3
ACAD_MATERIAL
350
3B
  3
ACAD_MLEADERSTYLE
350
701
  3
ACAD_MLINESTYLE
350
17
  3
ACAD_PLOTSETTINGS
350
19
  3
ACAD_PLOTSTYLENAME
350
E
  3
ACAD_TABLESTYLE
350
700
  3
ACAD_VISUALSTYLE
350
2A
  0
SUN
  5
3F
330
29
100
AcDbSun
 90
        1
290
     0
 63
     7
421
 16777215
 40
1.0
291
     1
 91
  2455826
 92
 54000000
292
     0
 70
     2
 71
   256
280
     1
  0
DICTIONARY
  5
D
102
{ACAD_REACTORS
330
C
102
}
330
C
100
AcDbDictionary
281
     1
  0
DICTIONARY
  5
1A
102
{ACAD_REACTORS
330
C
102
}
330
C
100
AcDbDictionary
281
     1
  3
Layout1
350
1E
  3
Layout2
350
26
  3
Model
350
22
  0
DICTIONARY
  5
3B
102
{ACAD_REACTORS
330
C
102
}
330
C
100
AcDbDictionary
281
     1
  3
ByBlock
350
3D
  3
ByLayer
350
3C
  3
Global
350
3E
  0
DICTIONARY
  5
701
102
{ACAD_REACTORS
330
C
102
}
330
C
100
AcDbDictionary
281
     1
  0
DICTIONARY
  5
17
102
{ACAD_REACTORS
330
C
102
}
330
C
100
AcDbDictionary
281
     1
  3
Standard
350
18
  0
DICTIONARY
  5
19
102
{ACAD_REACTORS
330
C
102
}
330
C
100
AcDbDictionary
281
     1
  0
ACDBDICTIONARYWDFLT
  5
E
102
{ACAD_REACTORS
330
C
102
}
330
C
100
AcDbDictionary
281
     1
  3
Normal
350
F
100
AcDbDictionaryWithDefault
340
F
  0
DICTIONARY
  5
700
102
{ACAD_REACTORS
330
C
102
}
330
C
100
AcDbDictionary
281
     1
  0
DICTIONARY
  5
2A
102
{ACAD_REACTORS
330
C
102
}
330
C
100
AcDbDictionary
281
     1
  3
2dWireframe
350
2F
  3
3D Hidden
350
31
  3
3dWireframe
350
30
  3
Basic
350
32
  3
Brighten
350
36
  3
ColorChange
350
3A
  3
Conceptual
350
34
  3
Dim
350
35
  3
Facepattern
350
39
  3
Flat
350
2B
  3
FlatWithEdges
350
2C
  3
Gouraud
350
2D
  3
GouraudWithEdges
350
2E
  3
Linepattern
350
38
  3
Realistic
350
33
  3
Thicken
350
37
  0
LAYOUT
  5
1E
102
{ACAD_REACTORS
330
1A
102
}
330
1A
100
AcDbPlotSettings
  1

  2
none_device
  4

  6

 40
0.0
 41
0.0
 42
0.0
 43
0.0
 44
0.0
 45
0.0
 46
0.0
 47
0.0
 48
0.0
 49
0.0
140
0.0
141
0.0
142
1.0
143
1.0
 70
   688
 72
     0
 73
     0
 74
     5
  7

 75
    16
 76
     0
 77
     2
 78
   300
147
1.0
148
0.0
149
0.0
100
AcDbLayout
  1
Layout1
 70
     1
 71
     1
 10
0.0
 20
0.0
 11
12.0
 21
9.0
 12
0.0
 22
0.0
 32
0.0
 14
1.000000000000000E+20
 24
1.000000000000000E+20
 34
1.000000000000000E+20
 15
-1.000000000000000E+20
 25
-1.000000000000000E+20
 35
-1.000000000000000E+20
146
0.0
 13
0.0
 23
0.0
 33
0.0
 16
1.0
 26
0.0
 36
0.0
 17
0.0
 27
1.0
 37
0.0
 76
     0
330
1B
  0
LAYOUT
  5
26
102
{ACAD_REACTORS
330
1A
102
}
330
1A
100
AcDbPlotSettings
  1

  2
none_device
  4

  6

 40
0.0
 41
0.0
 42
0.0
 43
0.0
 44
0.0
 45
0.0
 46
0.0
 47
0.0
 48
0.0
 49
0.0
140
0.0
141
0.0
142
1.0
143
1.0
 70
   688
 72
     0
 73
     0
 74
     5
  7

 75
    16
 76
     0
 77
     2
 78
   300
147
1.0
148
0.0
149
0.0
100
AcDbLayout
  1
Layout2
 70
     1
 71
     2
 10
0.0
 20
0.0
 11
0.0
 21
0.0
 12
0.0
 22
0.0
 32
0.0
 14
0.0
 24
0.0
 34
0.0
 15
0.0
 25
0.0
 35
0.0
146
0.0
 13
0.0
 23
0.0
 33
0.0
 16
1.0
 26
0.0
 36
0.0
 17
0.0
 27
1.0
 37
0.0
 76
     0
330
23
  0
LAYOUT
  5
22
102
{ACAD_REACTORS
330
1A
102
}
330
1A
100
AcDbPlotSettings
  1

  2
none_device
  4

  6

 40
0.0
 41
0.0
 42
0.0
 43
0.0
 44
0.0
 45
0.0
 46
0.0
 47
0.0
 48
0.0
 49
0.0
140
0.0
141
0.0
142
1.0
143
1.0
 70
  1712
 72
     0
 73
     0
 74
     0
  7

 75
     0
 76
     0
 77
     2
 78
   300
147
1.0
148
0.0
149
0.0
100
AcDbLayout
  1
Model
 70
     1
 71
     0
 10
0.0
 20
0.0
 11
12.0
 21
9.0
 12
0.0
 22
0.0
 32
0.0
 14
1.000000000000000E+20
 24
1.000000000000000E+20
 34
1.000000000000000E+20
 15
-1.000000000000000E+20
 25
-1.000000000000000E+20
 35
-1.000000000000000E+20
146
0.0
 13
0.0
 23
0.0
 33
0.0
 16
1.0
 26
0.0
 36
0.0
 17
0.0
 27
1.0
 37
0.0
 76
     0
330
1F
331
29
  0
MATERIAL
  5
3D
102
{ACAD_REACTORS
330
3B
102
}
330
3B
100
AcDbMaterial
  1
ByBlock
 72
     1
 94
      127
  0
MATERIAL
  5
3C
102
{ACAD_REACTORS
330
3B
102
}
330
3B
100
AcDbMaterial
  1
ByLayer
 72
     1
 94
      127
  0
MATERIAL
  5
3E
102
{ACAD_REACTORS
330
3B
102
}
330
3B
100
AcDbMaterial
  1
Global
 72
     1
 94
      127
  0
MLINESTYLE
  5
18
102
{ACAD_REACTORS
330
17
102
}
330
17
100
AcDbMlineStyle
  2
Standard
 70
     0
  3

 62
   256
 51
90.0
 52
90.0
 71
     2
 49
0.5
 62
   256
  6
BYLAYER
 49
-0.5
 62
   256
  6
BYLAYER
  0
ACDBPLACEHOLDER
  5
F
102
{ACAD_REACTORS
330
E
102
}
330
E
  0
VISUALSTYLE
  5
2F
102
{ACAD_REACTORS
330
2A
102
}
330
2A
100
AcDbVisualStyle
  2
2dWireframe
 70
     4
177
     2
291
     0
 71
     0
176
     1
 72
     2
176
     1
 73
     0
176
     1
 90
        0
176
     1
 40
-0.6
176
     1
 41
-30.0
176
     1
 62
     5
 63
     7
421
 16777215
176
     1
 74
     1
176
     1
 91
        4
176
     1
 64
     7
176
     1
 65
   257
176
     1
 75
     1
176
     1
175
     1
176
     1
 42
1.0
176
     1
 92
        0
176
     1
 66
   257
176
     1
 43
1.0
176
     1
 76
     1
176
     1
 77
     6
176
     1
 78
     2
176
     1
 67
     7
176
     1
 79
     5
176
     1
170
     0
176
     1
171
     0
176
     1
290
     0
176
     1
 93
        1
176
     1
 44
0.0
176
     1
173
     0
176
     1
  0
VISUALSTYLE
  5
31
102
{ACAD_REACTORS
330
2A
102
}
330
2A
100
AcDbVisualStyle
  2
3D Hidden
 70
     6
177
     2
291
     0
 71
     1
176
     1
 72
     2
176
     1
 73
     2
176
     1
 90
        0
176
     1
 40
-0.6
176
     1
 41
-30.0
176
     1
 62
     5
 63
     7
421
 16777215
176
     1
 74
     2
176
     1
 91
        2
176
     1
 64
     7
176
     1
 65
   257
176
     1
 75
     2
176
     1
175
     1
176
     1
 42
40.0
176
     1
 92
        0
176
     1
 66
   257
176
     1
 43
1.0
176
     1
 76
     1
176
     1
 77
     6
176
     1
 78
     2
176
     1
 67
     7
176
     1
 79
     3
176
     1
170
     0
176
     1
171
     0
176
     1
290
     0
176
     1
 93
        1
176
     1
 44
0.0
176
     1
173
     0
176
     1
  0
VISUALSTYLE
  5
30
102
{ACAD_REACTORS
330
2A
102
}
330
2A
100
AcDbVisualStyle
  2
3dWireframe
 70
     5
177
     2
291
     0
 71
     0
176
     1
 72
     2
176
     1
 73
     0
176
     1
 90
        0
176
     1
 40
-0.6
176
     1
 41
-30.0
176
     1
 62
     5
 63
     7
421
 16777215
176
     1
 74
     1
176
     1
 91
        4
176
     1
 64
     7
176
     1
 65
   257
176
     1
 75
     1
176
     1
175
     1
176
     1
 42
1.0
176
     1
 92
        0
176
     1
 66
   257
176
     1
 43
1.0
176
     1
 76
     1
176
     1
 77
     6
176
     1
 78
     2
176
     1
 67
     7
176
     1
 79
     5
176
     1
170
     0
176
     1
171
     0
176
     1
290
     0
176
     1
 93
        1
176
     1
 44
0.0
176
     1
173
     0
176
     1
  0
VISUALSTYLE
  5
32
102
{ACAD_REACTORS
330
2A
102
}
330
2A
100
AcDbVisualStyle
  2
Basic
 70
     7
177
     2
291
     1
 71
     1
176
     1
 72
     0
176
     1
 73
     1
176
     1
 90
        0
176
     1
 40
-0.6
176
     1
 41
-30.0
176
     1
 62
     5
 63
     7
421
 16777215
176
     1
 74
     0
176
     1
 91
        4
176
     1
 64
     7
176
     1
 65
   257
176
     1
 75
     1
176
     1
175
     1
176
     1
 42
1.0
176
     1
 92
        8
176
     1
 66
     7
176
     1
 43
1.0
176
     1
 76
     1
176
     1
 77
     6
176
     1
 78
     2
176
     1
 67
     7
176
     1
 79
     5
176
     1
170
     0
176
     1
171
     0
176
     1
290
     0
176
     1
 93
        1
176
     1
 44
0.0
176
     1
173
     0
176
     1
  0
VISUALSTYLE
  5
36
102
{ACAD_REACTORS
330
2A
102
}
330
2A
100
AcDbVisualStyle
  2
Brighten
 70
    12
177
     2
291
     1
 71
     2
176
     1
 72
     2
176
     1
 73
     0
176
     1
 90
        0
176
     1
 40
-0.6
176
     1
 41
-30.0
176
     1
 62
     5
 63
     7
421
 16777215
176
     1
 74
     1
176
     1
 91
        4
176
     1
 64
     7
176
     1
 65
   257
176
     1
 75
     1
176
     1
175
     1
176
     1
 42
1.0
176
     1
 92
        8
176
     1
 66
     7
176
     1
 43
1.0
176
     1
 76
     1
176
     1
 77
     6
176
     1
 78
     2
176
     1
 67
     7
176
     1
 79
     5
176
     1
170
     0
176
     1
171
     0
176
     1
290
     0
176
     1
 93
        1
176
     1
 44
50.0
176
     1
173
     0
176
     1
  0
VISUALSTYLE
  5
3A
102
{ACAD_REACTORS
330
2A
102
}
330
2A
100
AcDbVisualStyle
  2
ColorChange
 70
    16
177
     2
291
     1
 71
     2
176
     1
 72
     2
176
     1
 73
     3
176
     1
 90
        0
176
     1
 40
-0.6
176
     1
 41
-30.0
176
     1
 62
     5
 63
     8
421
  8421504
176
     1
 74
     1
176
     1
 91
        4
176
     1
 64
     7
176
     1
 65
   257
176
     1
 75
     1
176
     1
175
     1
176
     1
 42
1.0
176
     1
 92
        8
176
     1
 66
     8
424
  8421504
176
     1
 43
1.0
176
     1
 76
     1
176
     1
 77
     6
176
     1
 78
     2
176
     1
 67
     7
176
     1
 79
     5
176
     1
170
     0
176
     1
171
     0
176
     1
290
     0
176
     1
 93
        1
176
     1
 44
0.0
176
     1
173
     0
176
     1
  0
VISUALSTYLE
  5
34
102
{ACAD_REACTORS
330
2A
102
}
330
2A
100
AcDbVisualStyle
  2
Conceptual
 70
     9
177
     2
291
     0
 71
     3
176
     1
 72
     2
176
     1
 73
     0
176
     1
 90
        0
176
     1
 40
-0.6
176
     1
 41
-30.0
176
     1
 62
     5
 63
     7
421
 16777215
176
     1
 74
     2
176
     1
 91
        2
176
     1
 64
     7
176
     1
 65
   257
176
     1
 75
     1
176
     1
175
     1
176
     1
 42
40.0
176
     1
 92
        8
176
     1
 66
     7
176
     1
 43
1.0
176
     1
 76
     1
176
     1
 77
     6
176
     1
 78
     2
176
     1
 67
     7
176
     1
 79
     3
176
     1
170
     0
176
     1
171
     0
176
     1
290
     0
176
     1
 93
        1
176
     1
 44
0.0
176
     1
173
     0
176
     1
  0
VISUALSTYLE
  5
35
102
{ACAD_REACTORS
330
2A
102
}
330
2A
100
AcDbVisualStyle
  2
Dim
 70
    11
177
     2
291
     1
 71
     2
176
     1
 72
     2
176
     1
 73
     0
176
     1
 90
        0
176
     1
 40
-0.6
176
     1
 41
-30.0
176
     1
 62
     5
 63
     7
421
 16777215
176
     1
 74
     1
176
     1
 91
        4
176
     1
 64
     7
176
     1
 65
   257
176
     1
 75
     1
176
     1
175
     1
176
     1
 42
1.0
176
     1
 92
        8
176
     1
 66
     7
176
     1
 43
1.0
176
     1
 76
     1
176
     1
 77
     6
176
     1
 78
     2
176
     1
 67
     7
176
     1
 79
     5
176
     1
170
     0
176
     1
171
     0
176
     1
290
     0
176
     1
 93
        1
176
     1
 44
-50.0
176
     1
173
     0
176
     1
  0
VISUALSTYLE
  5
39
102
{ACAD_REACTORS
330
2A
102
}
330
2A
100
AcDbVisualStyle
  2
Facepattern
 70
    15
177
     2
291
     1
 71
     2
176
     1
 72
     2
176
     1
 73
     0
176
     1
 90
        0
176
     1
 40
-0.6
176
     1
 41
-30.0
176
     1
 62
     5
 63
     7
421
 16777215
176
     1
 74
     1
176
     1
 91
        4
176
     1
 64
     7
176
     1
 65
   257
176
     1
 75
     1
176
     1
175
     1
176
     1
 42
1.0
176
     1
 92
        8
176
     1
 66
     7
176
     1
 43
1.0
176
     1
 76
     1
176
     1
 77
     6
176
     1
 78
     2
176
     1
 67
     7
176
     1
 79
     5
176
     1
170
     0
176
     1
171
     0
176
     1
290
     0
176
     1
 93
        1
176
     1
 44
0.0
176
     1
173
     0
176
     1
  0
VISUALSTYLE
  5
2B
102
{ACAD_REACTORS
330
2A
102
}
330
2A
100
AcDbVisualStyle
  2
Flat
 70
     0
177
     2
291
     1
 71
     2
176
     1
 72
     1
176
     1
 73
     1
176
     1
 90
        2
176
     1
 40
-0.6
176
     1
 41
30.0
176
     1
 62
     5
 63
     7
421
 16777215
176
     1
 74
     0
176
     1
 91
        4
176
     1
 64
     7
176
     1
 65
   257
176
     1
 75
     1
176
     1
175
     1
176
     1
 42
1.0
176
     1
 92
        8
176
     1
 66
     7
176
     1
 43
1.0
176
     1
 76
     1
176
     1
 77
     6
176
     1
 78
     2
176
     1
 67
     7
176
     1
 79
     5
176
     1
170
     0
176
     1
171
     0
176
     1
290
     0
176
     1
 93
       13
176
     1
 44
0.0
176
     1
173
     0
176
     1
  0
VISUALSTYLE
  5
2C
102
{ACAD_REACTORS
330
2A
102
}
330
2A
100
AcDbVisualStyle
  2
FlatWithEdges
 70
     1
177
     2
291
     1
 71
     2
176
     1
 72
     1
176
     1
 73
     1
176
     1
 90
        2
176
     1
 40
-0.6
176
     1
 41
30.0
176
     1
 62
     5
 63
     7
421
 16777215
176
     1
 74
     1
176
     1
 91
        4
176
     1
 64
     7
176
     1
 65
   257
176
     1
 75
     1
176
     1
175
     1
176
     1
 42
1.0
176
     1
 92
        0
176
     1
 66
   257
176
     1
 43
1.0
176
     1
 76
     1
176
     1
 77
     6
176
     1
 78
     2
176
     1
 67
     7
176
     1
 79
     5
176
     1
170
     0
176
     1
171
     0
176
     1
290
     0
176
     1
 93
       13
176
     1
 44
0.0
176
     1
173
     0
176
     1
  0
VISUALSTYLE
  5
2D
102
{ACAD_REACTORS
330
2A
102
}
330
2A
100
AcDbVisualStyle
  2
Gouraud
 70
     2
177
     2
291
     1
 71
     2
176
     1
 72
     2
176
     1
 73
     1
176
     1
 90
        2
176
     1
 40
-0.6
176
     1
 41
30.0
176
     1
 62
     5
 63
     7
421
 16777215
176
     1
 74
     0
176
     1
 91
        4
176
     1
 64
     7
176
     1
 65
   257
176
     1
 75
     1
176
     1
175
     1
176
     1
 42
1.0
176
     1
 92
        0
176
     1
 66
     7
176
     1
 43
1.0
176
     1
 76
     1
176
     1
 77
     6
176
     1
 78
     2
176
     1
 67
     7
176
     1
 79
     5
176
     1
170
     0
176
     1
171
     0
176
     1
290
     0
176
     1
 93
       13
176
     1
 44
0.0
176
     1
173
     0
176
     1
  0
VISUALSTYLE
  5
2E
102
{ACAD_REACTORS
330
2A
102
}
330
2A
100
AcDbVisualStyle
  2
GouraudWithEdges
 70
     3
177
     2
291
     1
 71
     2
176
     1
 72
     2
176
     1
 73
     1
176
     1
 90
        2
176
     1
 40
-0.6
176
     1
 41
30.0
176
     1
 62
     5
 63
     7
421
 16777215
176
     1
 74
     1
176
     1
 91
        4
176
     1
 64
     7
176
     1
 65
   257
176
     1
 75
     1
176
     1
175
     1
176
     1
 42
1.0
176
     1
 92
        0
176
     1
 66
   257
176
     1
 43
1.0
176
     1
 76
     1
176
     1
 77
     6
176
     1
 78
     2
176
     1
 67
     7
176
     1
 79
     5
176
     1
170
     0
176
     1
171
     0
176
     1
290
     0
176
     1
 93
       13
176
     1
 44
0.0
176
     1
173
     0
176
     1
  0
VISUALSTYLE
  5
38
102
{ACAD_REACTORS
330
2A
102
}
330
2A
100
AcDbVisualStyle
  2
Linepattern
 70
    14
177
     2
291
     1
 71
     2
176
     1
 72
     2
176
     1
 73
     0
176
     1
 90
        0
176
     1
 40
-0.6
176
     1
 41
-30.0
176
     1
 62
     5
 63
     7
421
 16777215
176
     1
 74
     1
176
     1
 91
        4
176
     1
 64
     7
176
     1
 65
   257
176
     1
 75
     7
176
     1
175
     7
176
     1
 42
1.0
176
     1
 92
        8
176
     1
 66
     7
176
     1
 43
1.0
176
     1
 76
     1
176
     1
 77
     6
176
     1
 78
     2
176
     1
 67
     7
176
     1
 79
     5
176
     1
170
     0
176
     1
171
     0
176
     1
290
     0
176
     1
 93
        1
176
     1
 44
0.0
176
     1
173
     0
176
     1
  0
VISUALSTYLE
  5
33
102
{ACAD_REACTORS
330
2A
102
}
330
2A
100
AcDbVisualStyle
  2
Realistic
 70
     8
177
     2
291
     0
 71
     2
176
     1
 72
     2
176
     1
 73
     0
176
     1
 90
        0
176
     1
 40
-0.6
176
     1
 41
-30.0
176
     1
 62
     5
 63
     7
421
 16777215
176
     1
 74
     1
176
     1
 91
        0
176
     1
 64
     7
176
     1
 65
   257
176
     1
 75
     1
176
     1
175
     1
176
     1
 42
1.0
176
     1
 92
        8
176
     1
 66
     8
424
  7895160
176
     1
 43
1.0
176
     1
 76
     1
176
     1
 77
     6
176
     1
 78
     2
176
     1
 67
     7
176
     1
 79
     5
176
     1
170
     0
176
     1
171
     0
176
     1
290
     0
176
     1
 93
       13
176
     1
 44
0.0
176
     1
173
     0
176
     1
  0
VISUALSTYLE
  5
37
102
{ACAD_REACTORS
330
2A
102
}
330
2A
100
AcDbVisualStyle
  2
Thicken
 70
    13
177
     2
291
     1
 71
     2
176
     1
 72
     2
176
     1
 73
     0
176
     1
 90
        0
176
     1
 40
-0.6
176
     1
 41
-30.0
176
     1
 62
     5
 63
     7
421
 16777215
176
     1
 74
     1
176
     1
 91
        4
176
     1
 64
     7
176
     1
 65
   257
176
     1
 75
     1
176
     1
175
     1
176
     1
 42
1.0
176
     1
 92
       12
176
     1
 66
     7
176
     1
 43
1.0
176
     1
 76
     1
176
     1
 77
     6
176
     1
 78
     2
176
     1
 67
     7
176
     1
 79
     5
176
     1
170
     0
176
     1
171
     0
176
     1
290
     0
176
     1
 93
        1
176
     1
 44
0.0
176
     1
173
     0
176
     1
  0
ENDSEC
  0
EOF
