  0
SECTION
  2
HEADER
  9
$ACADVER
  1
AC1024
  9
$ACADMAINTVER
 70
     6
  9
$DWGCODEPAGE
  3
ANSI_1252
  9
$INSBASE
 10
0.0
 20
0.0
 30
0.0
  9
$EXTMIN
 10
1.000000000000000E+20
 20
1.000000000000000E+20
 30
1.000000000000000E+20
  9
$EXTMAX
 10
-1.000000000000000E+20
 20
-1.000000000000000E+20
 30
-1.000000000000000E+20
  9
$LIMMIN
 10
0.0
 20
0.0
  9
$LIMMAX
 10
12.0
 20
9.0
  9
$ORTHOMODE
 70
     0
  9
$REGENMODE
 70
     1
  9
$FILLMODE
 70
     1
  9
$QTEXTMODE
 70
     0
  9
$MIRRTEXT
 70
     1
  9
$LTSCALE
 40
1.0
  9
$ATTMODE
 70
     1
  9
$TEXTSIZE
 40
0.2
  9
$TRACEWID
 40
0.05
  9
$TEXTSTYLE
  7
Standard
  9
$CLAYER
  8
0
  9
$CELTYPE
  6
ByLayer
  9
$CECOLOR
 62
   256
  9
$CELTSCALE
 40
1.0
  9
$DISPSILH
 70
     0
  9
$DIMSCALE
 40
1.0
  9
$DIMASZ
 40
0.18
  9
$DIMEXO
 40
0.0625
  9
$DIMDLI
 40
0.38
  9
$DIMRND
 40
0.0
  9
$DIMDLE
 40
0.0
  9
$DIMEXE
 40
0.18
  9
$DIMTP
 40
0.0
  9
$DIMTM
 40
0.0
  9
$DIMTXT
 40
0.18
  9
$DIMCEN
 40
0.09
  9
$DIMTSZ
 40
0.0
  9
$DIMTOL
 70
     0
  9
$DIMLIM
 70
     0
  9
$DIMTIH
 70
     1
  9
$DIMTOH
 70
     1
  9
$DIMSE1
 70
     0
  9
$DIMSE2
 70
     0
  9
$DIMTAD
 70
     0
  9
$DIMZIN
 70
     0
  9
$DIMBLK
  1

  9
$DIMASO
 70
     1
  9
$DIMSHO
 70
     1
  9
$DIMPOST
  1

  9
$DIMAPOST
  1

  9
$DIMALT
 70
     0
  9
$DIMALTD
 70
     2
  9
$DIMALTF
 40
25.4
  9
$DIMLFAC
 40
1.0
  9
$DIMTOFL
 70
     0
  9
$DIMTVP
 40
0.0
  9
$DIMTIX
 70
     0
  9
$DIMSOXD
 70
     0
  9
$DIMSAH
 70
     0
  9
$DIMBLK1
  1

  9
$DIMBLK2
  1

  9
$DIMSTYLE
  2
Standard
  9
$DIMCLRD
 70
     0
  9
$DIMCLRE
 70
     0
  9
$DIMCLRT
 70
     0
  9
$DIMTFAC
 40
1.0
  9
$DIMGAP
 40
0.09
  9
$DIMJUST
 70
     0
  9
$DIMSD1
 70
     0
  9
$DIMSD2
 70
     0
  9
$DIMTOLJ
 70
     1
  9
$DIMTZIN
 70
     0
  9
$DIMALTZ
 70
     0
  9
$DIMALTTZ
 70
     0
  9
$DIMUPT
 70
     0
  9
$DIMDEC
 70
     4
  9
$DIMTDEC
 70
     4
  9
$DIMALTU
 70
     2
  9
$DIMALTTD
 70
     2
  9
$DIMTXSTY
  7
Standard
  9
$DIMAUNIT
 70
     0
  9
$DIMADEC
 70
     0
  9
$DIMALTRND
 40
0.0
  9
$DIMAZIN
 70
     0
  9
$DIMDSEP
 70
    46
  9
$DIMATFIT
 70
     3
  9
$DIMFRAC
 70
     0
  9
$DIMLDRBLK
  1

  9
$DIMLUNIT
 70
     2
  9
$DIMLWD
 70
    -2
  9
$DIMLWE
 70
    -2
  9
$DIMTMOVE
 70
     0
  9
$DIMFXL
 40
1.0
  9
$DIMFXLON
 70
     0
  9
$DIMJOGANG
 40
0.7853981633974483
  9
$DIMTFILL
 70
     0
  9
$DIMTFILLCLR
 70
     0
  9
$DIMARCSYM
 70
     0
  9
$DIMLTYPE
  6

  9
$DIMLTEX1
  6

  9
$DIMLTEX2
  6

  9
$DIMTXTDIRECTION
 70
     0
  9
$LUNITS
 70
     2
  9
$LUPREC
 70
     4
  9
$SKETCHINC
 40
0.1
  9
$FILLETRAD
 40
0.5
  9
$AUNITS
 70
     0
  9
$AUPREC
 70
     0
  9
$MENU
  1
.
  9
$ELEVATION
 40
0.0
  9
$PELEVATION
 40
0.0
  9
$THICKNESS
 40
0.0
  9
$LIMCHECK
 70
     0
  9
$CHAMFERA
 40
0.5
  9
$CHAMFERB
 40
0.5
  9
$CHAMFERC
 40
1.0
  9
$CHAMFERD
 40
0.0
  9
$SKPOLY
 70
     0
  9
$TDCREATE
 40
2458589.381481586
  9
$TDUCREATE
 40
2458589.298148253
  9
$TDUPDATE
 40
2458589.381482963
  9
$TDUUPDATE
 40
2458589.298149629
  9
$TDINDWG
 40
0.0000000116
  9
$TDUSRTIMER
 40
0.0000000116
  9
$USRTIMER
 70
     1
  9
$ANGBASE
 50
0.0
  9
$ANGDIR
 70
     0
  9
$PDMODE
 70
     0
  9
$PDSIZE
 40
0.0
  9
$PLINEWID
 40
0.0
  9
$SPLFRAME
 70
     0
  9
$SPLINETYPE
 70
     6
  9
$SPLINESEGS
 70
     8
  9
$HANDSEED
  5
718
  9
$SURFTAB1
 70
     6
  9
$SURFTAB2
 70
     6
  9
$SURFTYPE
 70
     6
  9
$SURFU
 70
     6
  9
$SURFV
 70
     6
  9
$UCSBASE
  2

  9
$UCSNAME
  2

  9
$UCSORG
 10
0.0
 20
0.0
 30
0.0
  9
$UCSXDIR
 10
1.0
 20
0.0
 30
0.0
  9
$UCSYDIR
 10
0.0
 20
1.0
 30
0.0
  9
$UCSORTHOREF
  2

  9
$UCSORTHOVIEW
 70
     0
  9
$UCSORGTOP
 10
0.0
 20
0.0
 30
0.0
  9
$UCSORGBOTTOM
 10
0.0
 20
0.0
 30
0.0
  9
$UCSORGLEFT
 10
0.0
 20
0.0
 30
0.0
  9
$UCSORGRIGHT
 10
0.0
 20
0.0
 30
0.0
  9
$UCSORGFRONT
 10
0.0
 20
0.0
 30
0.0
  9
$UCSORGBACK
 10
0.0
 20
0.0
 30
0.0
  9
$PUCSBASE
  2

  9
$PUCSNAME
  2

  9
$PUCSORG
 10
0.0
 20
0.0
 30
0.0
  9
$PUCSXDIR
 10
1.0
 20
0.0
 30
0.0
  9
$PUCSYDIR
 10
0.0
 20
1.0
 30
0.0
  9
$PUCSORTHOREF
  2

  9
$PUCSORTHOVIEW
 70
     0
  9
$PUCSORGTOP
 10
0.0
 20
0.0
 30
0.0
  9
$PUCSORGBOTTOM
 10
0.0
 20
0.0
 30
0.0
  9
$PUCSORGLEFT
 10
0.0
 20
0.0
 30
0.0
  9
$PUCSORGRIGHT
 10
0.0
 20
0.0
 30
0.0
  9
$PUCSORGFRONT
 10
0.0
 20
0.0
 30
0.0
  9
$PUCSORGBACK
 10
0.0
 20
0.0
 30
0.0
  9
$USERI1
 70
     0
  9
$USERI2
 70
     0
  9
$USERI3
 70
     0
  9
$USERI4
 70
     0
  9
$USERI5
 70
     0
  9
$USERR1
 40
0.0
  9
$USERR2
 40
0.0
  9
$USERR3
 40
0.0
  9
$USERR4
 40
0.0
  9
$USERR5
 40
0.0
  9
$WORLDVIEW
 70
     1
  9
$SHADEDGE
 70
     3
  9
$SHADEDIF
 70
    70
  9
$TILEMODE
 70
     1
  9
$MAXACTVP
 70
    64
  9
$PINSBASE
 10
0.0
 20
0.0
 30
0.0
  9
$PLIMCHECK
 70
     0
  9
$PEXTMIN
 10
1.000000000000000E+20
 20
1.000000000000000E+20
 30
1.000000000000000E+20
  9
$PEXTMAX
 10
-1.000000000000000E+20
 20
-1.000000000000000E+20
 30
-1.000000000000000E+20
  9
$PLIMMIN
 10
0.0
 20
0.0
  9
$PLIMMAX
 10
12.0
 20
9.0
  9
$UNITMODE
 70
     0
  9
$VISRETAIN
 70
     1
  9
$PLINEGEN
 70
     0
  9
$PSLTSCALE
 70
     1
  9
$TREEDEPTH
 70
  3020
  9
$CMLSTYLE
  2
Standard
  9
$CMLJUST
 70
     0
  9
$CMLSCALE
 40
1.0
  9
$PROXYGRAPHICS
 70
     1
  9
$MEASUREMENT
 70
     0
  9
$CELWEIGHT
370
    -1
  9
$ENDCAPS
280
     0
  9
$JOINSTYLE
280
     0
  9
$LWDISPLAY
290
     1
  9
$INSUNITS
 70
     1
  9
$HYPERLINKBASE
  1

  9
$STYLESHEET
  1

  9
$XEDIT
290
     1
  9
$CEPSNTYPE
380
     0
  9
$PSTYLEMODE
290
     1
  9
$FINGERPRINTGUID
  2
{5B48F4D6-9C61-4C44-BB1D-9668BECC5943}
  9
$VERSIONGUID
  2
{FAEB1C32-E019-11D5-929B-00C0DF256EC4}
  9
$EXTNAMES
290
     1
  9
$PSVPSCALE
 40
0.0
  9
$OLESTARTUP
290
     0
  9
$SORTENTS
280
   127
  9
$INDEXCTL
280
     0
  9
$HIDETEXT
280
     1
  9
$XCLIPFRAME
280
     2
  9
$HALOGAP
280
     0
  9
$OBSCOLOR
 70
   257
  9
$OBSLTYPE
280
     0
  9
$INTERSECTIONDISPLAY
280
     0
  9
$INTERSECTIONCOLOR
 70
   257
  9
$DIMASSOC
280
     2
  9
$PROJECTNAME
  1

  9
$CAMERADISPLAY
290
     0
  9
$LENSLENGTH
 40
50.0
  9
$CAMERAHEIGHT
 40
0.0
  9
$STEPSPERSEC
 40
2.0
  9
$STEPSIZE
 40
6.0
  9
$3DDWFPREC
 40
2.0
  9
$PSOLWIDTH
 40
0.25
  9
$PSOLHEIGHT
 40
4.0
  9
$LOFTANG1
 40
1.570796326794897
  9
$LOFTANG2
 40
1.570796326794897
  9
$LOFTMAG1
 40
0.0
  9
$LOFTMAG2
 40
0.0
  9
$LOFTPARAM
 70
     7
  9
$LOFTNORMALS
280
     1
  9
$LATITUDE
 40
37.795
  9
$LONGITUDE
 40
-122.394
  9
$NORTHDIRECTION
 40
0.0
  9
$TIMEZONE
 70
 -8000
  9
$LIGHTGLYPHDISPLAY
280
     1
  9
$TILEMODELIGHTSYNCH
280
     1
  9
$CMATERIAL
347
3C
  9
$SOLIDHIST
280
     1
  9
$SHOWHIST
280
     1
  9
$DWFFRAME
280
     2
  9
$DGNFRAME
280
     2
  9
$REALWORLDSCALE
290
     1
  9
$INTERFERECOLOR
 62
   256
  9
$CSHADOW
280
     0
  9
$SHADOWPLANELOCATION
 40
0.0
  0
ENDSEC
  0
SECTION
  2
CLASSES
  0
CLASS
  1
ACDBDICTIONARYWDFLT
  2
AcDbDictionaryWithDefault
  3
ObjectDBX Classes
 90
        0
 91
        4
280
     0
281
     0
  0
CLASS
  1
VISUALSTYLE
  2
AcDbVisualStyle
  3
ObjectDBX Classes
 90
     4095
 91
        4
280
     0
281
     0
  0
CLASS
  1
MATERIAL
  2
AcDbMaterial
  3
ObjectDBX Classes
 90
     1153
 91
        4
280
     0
281
     0
  0
CLASS
  1
SUN
  2
AcDbSun
  3
SCENEOE
 90
     1024
 91
        4
280
     0
281
     0
  0
ENDSEC
  0
SECTION
  2
TABLES
  0
TABLE
  2
VPORT
  5
8
330
0
100
AcDbSymbolTable
 70
     1
  0
VPORT
  5
29
330
8
100
AcDbSymbolTableRecord
100
AcDbViewportTableRecord
  2
*Active
 70
     0
 10
0.0
 20
0.0
 11
1.0
 21
1.0
 12
0.0
 22
0.0
 13
0.0
 23
0.0
 14
0.5
 24
0.5
 15
0.5
 25
0.5
 16
0.0
 26
0.0
 36
1.0
 17
750.0003015974391
 27
1249.999239460721
 37
0.0
 40
2499.998478921441
 41
0.6000006063371743
 42
50.0
 43
0.0
 44
0.0
 50
0.0
 51
0.0
 71
     0
 72
   100
 73
     1
 74
     3
 75
     0
 76
     0
 77
     0
 78
     0
281
     0
 65
     1
110
0.0
120
0.0
130
0.0
111
1.0
121
0.0
131
0.0
112
0.0
122
1.0
132
0.0
 79
     0
146
0.0
 60
     3
 61
     5
292
     1
282
     1
141
0.0
142
0.0
 63
   250
361
3F
  0
ENDTAB
  0
TABLE
  2
LTYPE
  5
5
330
0
100
AcDbSymbolTable
 70
     1
  0
LTYPE
  5
14
330
5
100
AcDbSymbolTableRecord
100
AcDbLinetypeTableRecord
  2
ByBlock
 70
     0
  3

 72
    65
 73
     0
 40
0.0
  0
LTYPE
  5
15
330
5
100
AcDbSymbolTableRecord
100
AcDbLinetypeTableRecord
  2
ByLayer
 70
     0
  3

 72
    65
 73
     0
 40
0.0
  0
LTYPE
  5
16
330
5
100
AcDbSymbolTableRecord
100
AcDbLinetypeTableRecord
  2
Continuous
 70
     0
  3
Solid line
 72
    65
 73
     0
 40
0.0
  0
ENDTAB
  0
TABLE
  2
LAYER
  5
2
330
0
100
AcDbSymbolTable
 70
     2
  0
LAYER
  5
10
330
2
100
AcDbSymbolTableRecord
100
AcDbLayerTableRecord
  2
0
 70
     0
 62
     7
  6
Continuous
370
    -3
390
F
347
3E
  0
LAYER
  5
40
330
2
100
AcDbSymbolTableRecord
100
AcDbLayerTableRecord
  2
Calque 1
 70
     0
 62
     7
  6
Continuous
370
    -3
390
F
347
3E
  0
ENDTAB
  0
TABLE
  2
STYLE
  5
3
330
0
100
AcDbSymbolTable
 70
     1
  0
STYLE
  5
11
330
3
100
AcDbSymbolTableRecord
100
AcDbTextStyleTableRecord
  2
Standard
 70
     0
 40
0.0
 41
1.0
 50
0.0
 71
     0
 42
0.2
  3
txt
  4

  0
ENDTAB
  0
TABLE
  2
VIEW
  5
6
330
0
100
AcDbSymbolTable
 70
     0
  0
ENDTAB
  0
TABLE
  2
UCS
  5
7
330
0
100
AcDbSymbolTable
 70
     0
  0
ENDTAB
  0
TABLE
  2
APPID
  5
9
330
0
100
AcDbSymbolTable
 70
     1
  0
APPID
  5
12
330
9
100
AcDbSymbolTableRecord
100
AcDbRegAppTableRecord
  2
ACAD
 70
     0
  0
ENDTAB
  0
TABLE
  2
DIMSTYLE
  5
A
330
0
100
AcDbSymbolTable
 70
     1
100
AcDbDimStyleTable
  0
DIMSTYLE
105
27
330
A
100
AcDbSymbolTableRecord
100
AcDbDimStyleTableRecord
  2
Standard
 70
     0
178
     0
340
11
  0
ENDTAB
  0
TABLE
  2
BLOCK_RECORD
  5
1
330
0
100
AcDbSymbolTable
 70
     1
  0
BLOCK_RECORD
  5
1F
330
1
100
AcDbSymbolTableRecord
100
AcDbBlockTableRecord
  2
*Model_Space
340
22
 70
     0
280
     1
281
     0
  0
BLOCK_RECORD
  5
1B
330
1
100
AcDbSymbolTableRecord
100
AcDbBlockTableRecord
  2
*Paper_Space
340
1E
 70
     0
280
     1
281
     0
  0
BLOCK_RECORD
  5
23
330
1
100
AcDbSymbolTableRecord
100
AcDbBlockTableRecord
  2
*Paper_Space0
340
26
 70
     0
280
     1
281
     0
  0
ENDTAB
  0
ENDSEC
  0
SECTION
  2
BLOCKS
  0
BLOCK
  5
20
330
1F
100
AcDbEntity
  8
0
100
AcDbBlockBegin
  2
*Model_Space
 70
     0
 10
0.0
 20
0.0
 30
0.0
  3
*Model_Space
  1

  0
ENDBLK
  5
21
330
1F
100
AcDbEntity
  8
0
100
AcDbBlockEnd
  0
BLOCK
  5
1C
330
1B
100
AcDbEntity
 67
     1
  8
0
100
AcDbBlockBegin
  2
*Paper_Space
 70
     0
 10
0.0
 20
0.0
 30
0.0
  3
*Paper_Space
  1

  0
ENDBLK
  5
1D
330
1B
100
AcDbEntity
 67
     1
  8
0
100
AcDbBlockEnd
  0
BLOCK
  5
24
330
23
100
AcDbEntity
  8
0
100
AcDbBlockBegin
  2
*Paper_Space0
 70
     0
 10
0.0
 20
0.0
 30
0.0
  3
*Paper_Space0
  1

  0
ENDBLK
  5
25
330
23
100
AcDbEntity
  8
0
100
AcDbBlockEnd
  0
ENDSEC
  0
SECTION
  2
ENTITIES
  0
POLYLINE
  5
41
330
1F
100
AcDbEntity
  8
Calque 1
 62
   250
420
  2236966
370
    50
100
AcDb2dPolyline
 66
     1
 10
0.0
 20
0.0
 30
0.0
  0
VERTEX
  5
42
330
41
100
AcDbEntity
  8
Calque 1
 62
   250
420
  2236966
370
    50
100
AcDbVertex
100
AcDb2dVertex
 10
0.0
 20
0.0
 30
0.0
  0
VERTEX
  5
43
330
41
100
AcDbEntity
  8
Calque 1
 62
   250
420
  2236966
370
    50
100
AcDbVertex
100
AcDb2dVertex
 10
1499.999914175781
 20
0.0
 30
0.0
  0
SEQEND
  5
44
330
41
100
AcDbEntity
  8
Calque 1
 62
   250
420
  2236966
370
    50
  0
POLYLINE
  5
45
330
1F
100
AcDbEntity
  8
Calque 1
 62
   250
420
  2236966
370
    50
100
AcDb2dPolyline
 66
     1
 10
0.0
 20
0.0
 30
0.0
  0
VERTEX
  5
46
330
45
100
AcDbEntity
  8
Calque 1
 62
   250
420
  2236966
370
    50
100
AcDbVertex
100
AcDb2dVertex
 10
0.0
 20
0.0
 30
0.0
  0
VERTEX
  5
47
330
45
100
AcDbEntity
  8
Calque 1
 62
   250
420
  2236966
370
    50
100
AcDbVertex
100
AcDb2dVertex
 10
0.0
 20
2500.00002921441
 30
0.0
  0
SEQEND
  5
48
330
45
100
AcDbEntity
  8
Calque 1
 62
   250
420
  2236966
370
    50
  0
POLYLINE
  5
49
330
1F
100
AcDbEntity
  8
Calque 1
 62
   250
420
  2236966
370
    50
100
AcDb2dPolyline
 66
     1
 10
0.0
 20
0.0
 30
0.0
  0
VERTEX
  5
4A
330
49
100
AcDbEntity
  8
Calque 1
 62
   250
420
  2236966
370
    50
100
AcDbVertex
100
AcDb2dVertex
 10
1499.999914175781
 20
0.0
 30
0.0
  0
VERTEX
  5
4B
330
49
100
AcDbEntity
  8
Calque 1
 62
   250
420
  2236966
370
    50
100
AcDbVertex
100
AcDb2dVertex
 10
1499.999914175781
 20
2500.00002921441
 30
0.0
  0
SEQEND
  5
4C
330
49
100
AcDbEntity
  8
Calque 1
 62
   250
420
  2236966
370
    50
  0
POLYLINE
  5
4D
330
1F
100
AcDbEntity
  8
Calque 1
 62
   250
420
  2236966
370
    50
100
AcDb2dPolyline
 66
     1
 10
0.0
 20
0.0
 30
0.0
  0
VERTEX
  5
4E
330
4D
100
AcDbEntity
  8
Calque 1
 62
   250
420
  2236966
370
    50
100
AcDbVertex
100
AcDb2dVertex
 10
0.0
 20
2500.00002921441
 30
0.0
  0
VERTEX
  5
4F
330
4D
100
AcDbEntity
  8
Calque 1
 62
   250
420
  2236966
370
    50
100
AcDbVertex
100
AcDb2dVertex
 10
1499.999914175781
 20
2500.00002921441
 30
0.0
  0
SEQEND
  5
50
330
4D
100
AcDbEntity
  8
Calque 1
 62
   250
420
  2236966
370
    50
  0
POLYLINE
  5
51
330
1F
100
AcDbEntity
  8
Calque 1
 62
   193
420
 10040268
370
    50
100
AcDb2dPolyline
 66
     1
 10
0.0
 20
0.0
 30
0.0
  0
VERTEX
  5
52
330
51
100
AcDbEntity
  8
Calque 1
 62
   193
420
 10040268
370
    50
100
AcDbVertex
100
AcDb2dVertex
 10
1309.967241425981
 20
2220.271022665419
 30
0.0
  0
VERTEX
  5
53
330
51
100
AcDbEntity
  8
Calque 1
 62
   193
420
 10040268
370
    50
100
AcDbVertex
100
AcDb2dVertex
 10
1310.05853645634
 20
2220.307712932336
 30
0.0
  0
VERTEX
  5
54
330
51
100
AcDbEntity
  8
Calque 1
 62
   193
420
 10040268
370
    50
100
AcDbVertex
100
AcDb2dVertex
 10
1310.151812416603
 20
2220.339924575123
 30
0.0
  0
VERTEX
  5
55
330
51
100
AcDbEntity
  8
Calque 1
 62
   193
420
 10040268
370
    50
100
AcDbVertex
100
AcDb2dVertex
 10
1310.24586352335
 20
2220.367313084231
 30
0.0
  0
VERTEX
  5
56
330
51
100
AcDbEntity
  8
Calque 1
 62
   193
420
 10040268
370
    50
100
AcDbVertex
100
AcDb2dVertex
 10
1310.339914630097
 20
2220.389878459659
 30
0.0
  0
VERTEX
  5
57
330
51
100
AcDbEntity
  8
Calque 1
 62
   193
420
 10040268
370
    50
100
AcDbVertex
100
AcDb2dVertex
 10
1310.434827010716
 20
2220.407792956183
 30
0.0
  0
VERTEX
  5
58
330
51
100
AcDbEntity
  8
Calque 1
 62
   193
420
 10040268
370
    50
100
AcDbVertex
100
AcDb2dVertex
 10
1310.53017002827
 20
2220.421056573801
 30
0.0
  0
VERTEX
  5
59
330
51
100
AcDbEntity
  8
Calque 1
 62
   193
420
 10040268
370
    50
100
AcDbVertex
100
AcDb2dVertex
 10
1310.625599173212
 20
2220.429669312514
 30
0.0
  0
VERTEX
  5
5A
330
51
100
AcDbEntity
  8
Calque 1
 62
   193
420
 10040268
370
    50
100
AcDbVertex
100
AcDb2dVertex
 10
1310.720769935992
 20
2220.433803427096
 30
0.0
  0
VERTEX
  5
5B
330
51
100
AcDbEntity
  8
Calque 1
 62
   193
420
 10040268
370
    50
100
AcDbVertex
100
AcDb2dVertex
 10
1310.814821042739
 20
2220.433458917548
 30
0.0
  0
VERTEX
  5
5C
330
51
100
AcDbEntity
  8
Calque 1
 62
   193
420
 10040268
370
    50
100
AcDbVertex
100
AcDb2dVertex
 10
1310.90697734697
 20
2220.428635783869
 30
0.0
  0
SEQEND
  5
5D
330
51
100
AcDbEntity
  8
Calque 1
 62
   193
420
 10040268
370
    50
  0
POLYLINE
  5
5E
330
1F
100
AcDbEntity
  8
Calque 1
 62
   193
420
 10040268
370
    50
100
AcDb2dPolyline
 66
     1
 10
0.0
 20
0.0
 30
0.0
  0
VERTEX
  5
5F
330
5E
100
AcDbEntity
  8
Calque 1
 62
   193
420
 10040268
370
    50
100
AcDbVertex
100
AcDb2dVertex
 10
1309.78861322507
 20
2220.183172730545
 30
0.0
  0
VERTEX
  5
60
330
5E
100
AcDbEntity
  8
Calque 1
 62
   193
420
 10040268
370
    50
100
AcDbVertex
100
AcDb2dVertex
 10
1309.880855656688
 20
2220.231231812564
 30
0.0
  0
SEQEND
  5
61
330
5E
100
AcDbEntity
  8
Calque 1
 62
   193
420
 10040268
370
    50
  0
POLYLINE
  5
62
330
1F
100
AcDbEntity
  8
Calque 1
 62
   193
420
 10040268
370
    50
100
AcDb2dPolyline
 66
     1
 10
0.0
 20
0.0
 30
0.0
  0
VERTEX
  5
63
330
62
100
AcDbEntity
  8
Calque 1
 62
   193
420
 10040268
370
    50
100
AcDbVertex
100
AcDb2dVertex
 10
1309.877410561203
 20
2220.229681519595
 30
0.0
  0
VERTEX
  5
64
330
62
100
AcDbEntity
  8
Calque 1
 62
   193
420
 10040268
370
    50
100
AcDbVertex
100
AcDb2dVertex
 10
1309.974389999112
 20
2220.273950996581
 30
0.0
  0
VERTEX
  5
65
330
62
100
AcDbEntity
  8
Calque 1
 62
   193
420
 10040268
370
    50
100
AcDbVertex
100
AcDb2dVertex
 10
1310.069560761892
 20
2220.311674792144
 30
0.0
  0
VERTEX
  5
66
330
62
100
AcDbEntity
  8
Calque 1
 62
   193
420
 10040268
370
    50
100
AcDbVertex
100
AcDb2dVertex
 10
1310.166195690254
 20
2220.344403199254
 30
0.0
  0
VERTEX
  5
67
330
62
100
AcDbEntity
  8
Calque 1
 62
   193
420
 10040268
370
    50
100
AcDbVertex
100
AcDb2dVertex
 10
1310.263519637712
 20
2220.371963963136
 30
0.0
  0
VERTEX
  5
68
330
62
100
AcDbEntity
  8
Calque 1
 62
   193
420
 10040268
370
    50
100
AcDbVertex
100
AcDb2dVertex
 10
1310.359723929138
 20
2220.394012574242
 30
0.0
  0
VERTEX
  5
69
330
62
100
AcDbEntity
  8
Calque 1
 62
   193
420
 10040268
370
    50
100
AcDbVertex
100
AcDb2dVertex
 10
1310.45541145624
 20
2220.411065796894
 30
0.0
  0
VERTEX
  5
6A
330
62
100
AcDbEntity
  8
Calque 1
 62
   193
420
 10040268
370
    50
100
AcDbVertex
100
AcDb2dVertex
 10
1310.550065454698
 20
2220.423295885867
 30
0.0
  0
VERTEX
  5
6B
330
62
100
AcDbEntity
  8
Calque 1
 62
   193
420
 10040268
370
    50
100
AcDbVertex
100
AcDb2dVertex
 10
1310.641963376767
 20
2220.43070284116
 30
0.0
  0
VERTEX
  5
6C
330
62
100
AcDbEntity
  8
Calque 1
 62
   193
420
 10040268
370
    50
100
AcDbVertex
100
AcDb2dVertex
 10
1310.731708114157
 20
2220.433975681871
 30
0.0
  0
VERTEX
  5
6D
330
62
100
AcDbEntity
  8
Calque 1
 62
   193
420
 10040268
370
    50
100
AcDbVertex
100
AcDb2dVertex
 10
1310.820677705064
 20
2220.433114407999
 30
0.0
  0
SEQEND
  5
6E
330
62
100
AcDbEntity
  8
Calque 1
 62
   193
420
 10040268
370
    50
  0
POLYLINE
  5
6F
330
1F
100
AcDbEntity
  8
Calque 1
 62
   193
420
 10040268
370
    50
100
AcDb2dPolyline
 66
     1
 10
0.0
 20
0.0
 30
0.0
  0
VERTEX
  5
70
330
6F
100
AcDbEntity
  8
Calque 1
 62
   193
420
 10040268
370
    50
100
AcDbVertex
100
AcDb2dVertex
 10
1309.701021672358
 20
2220.13166855304
 30
0.0
  0
VERTEX
  5
71
330
6F
100
AcDbEntity
  8
Calque 1
 62
   193
420
 10040268
370
    50
100
AcDbVertex
100
AcDb2dVertex
 10
1309.78861322507
 20
2220.183172730545
 30
0.0
  0
SEQEND
  5
72
330
6F
100
AcDbEntity
  8
Calque 1
 62
   193
420
 10040268
370
    50
  0
POLYLINE
  5
73
330
1F
100
AcDbEntity
  8
Calque 1
 62
   193
420
 10040268
370
    50
100
AcDb2dPolyline
 66
     1
 10
0.0
 20
0.0
 30
0.0
  0
VERTEX
  5
74
330
73
100
AcDbEntity
  8
Calque 1
 62
   193
420
 10040268
370
    50
100
AcDbVertex
100
AcDb2dVertex
 10
1309.595257240961
 20
2216.566855999678
 30
0.0
  0
VERTEX
  5
75
330
73
100
AcDbEntity
  8
Calque 1
 62
   193
420
 10040268
370
    50
100
AcDbVertex
100
AcDb2dVertex
 10
1309.700935544971
 20
2216.736699207101
 30
0.0
  0
SEQEND
  5
76
330
73
100
AcDbEntity
  8
Calque 1
 62
   193
420
 10040268
370
    50
  0
POLYLINE
  5
77
330
1F
100
AcDbEntity
  8
Calque 1
 62
   193
420
 10040268
370
    50
100
AcDb2dPolyline
 66
     1
 10
0.0
 20
0.0
 30
0.0
  0
VERTEX
  5
78
330
77
100
AcDbEntity
  8
Calque 1
 62
   193
420
 10040268
370
    50
100
AcDbVertex
100
AcDb2dVertex
 10
1309.595257240961
 20
2215.310085166659
 30
0.0
  0
VERTEX
  5
79
330
77
100
AcDbEntity
  8
Calque 1
 62
   193
420
 10040268
370
    50
100
AcDbVertex
100
AcDb2dVertex
 10
1309.481396835173
 20
2215.145581857238
 30
0.0
  0
SEQEND
  5
7A
330
77
100
AcDbEntity
  8
Calque 1
 62
   193
420
 10040268
370
    50
  0
POLYLINE
  5
7B
330
1F
100
AcDbEntity
  8
Calque 1
 62
   193
420
 10040268
370
    50
100
AcDb2dPolyline
 66
     1
 10
0.0
 20
0.0
 30
0.0
  0
VERTEX
  5
7C
330
7B
100
AcDbEntity
  8
Calque 1
 62
   193
420
 10040268
370
    50
100
AcDbVertex
100
AcDb2dVertex
 10
1310.921877384943
 20
2214.727347265329
 30
0.0
  0
VERTEX
  5
7D
330
7B
100
AcDbEntity
  8
Calque 1
 62
   193
420
 10040268
370
    50
100
AcDbVertex
100
AcDb2dVertex
 10
1310.877866290119
 20
2214.532354860864
 30
0.0
  0
SEQEND
  5
7E
330
7B
100
AcDbEntity
  8
Calque 1
 62
   193
420
 10040268
370
    50
  0
POLYLINE
  5
7F
330
1F
100
AcDbEntity
  8
Calque 1
 62
   193
420
 10040268
370
    50
100
AcDb2dPolyline
 66
     1
 10
0.0
 20
0.0
 30
0.0
  0
VERTEX
  5
80
330
7F
100
AcDbEntity
  8
Calque 1
 62
   193
420
 10040268
370
    50
100
AcDbVertex
100
AcDb2dVertex
 10
1310.930490123656
 20
2274.43050751516
 30
0.0
  0
VERTEX
  5
81
330
7F
100
AcDbEntity
  8
Calque 1
 62
   193
420
 10040268
370
    50
100
AcDbVertex
100
AcDb2dVertex
 10
1310.921877384943
 20
2274.230691977015
 30
0.0
  0
SEQEND
  5
82
330
7F
100
AcDbEntity
  8
Calque 1
 62
   193
420
 10040268
370
    50
  0
POLYLINE
  5
83
330
1F
100
AcDbEntity
  8
Calque 1
 62
   193
420
 10040268
370
    50
100
AcDb2dPolyline
 66
     1
 10
0.0
 20
0.0
 30
0.0
  0
VERTEX
  5
84
330
83
100
AcDbEntity
  8
Calque 1
 62
   193
420
 10040268
370
    50
100
AcDbVertex
100
AcDb2dVertex
 10
1310.921877384943
 20
2220.628106812464
 30
0.0
  0
VERTEX
  5
85
330
83
100
AcDbEntity
  8
Calque 1
 62
   193
420
 10040268
370
    50
100
AcDbVertex
100
AcDb2dVertex
 10
1310.90697734697
 20
2220.428635783869
 30
0.0
  0
SEQEND
  5
86
330
83
100
AcDbEntity
  8
Calque 1
 62
   193
420
 10040268
370
    50
  0
POLYLINE
  5
87
330
1F
100
AcDbEntity
  8
Calque 1
 62
   193
420
 10040268
370
    50
100
AcDb2dPolyline
 66
     1
 10
0.0
 20
0.0
 30
0.0
  0
VERTEX
  5
88
330
87
100
AcDbEntity
  8
Calque 1
 62
   193
420
 10040268
370
    50
100
AcDbVertex
100
AcDb2dVertex
 10
1307.758504583
 20
2271.434135716864
 30
0.0
  0
VERTEX
  5
89
330
87
100
AcDbEntity
  8
Calque 1
 62
   193
420
 10040268
370
    50
100
AcDbVertex
100
AcDb2dVertex
 10
1307.758504583
 20
2218.434097752683
 30
0.0
  0
SEQEND
  5
8A
330
87
100
AcDbEntity
  8
Calque 1
 62
   193
420
 10040268
370
    50
  0
POLYLINE
  5
8B
330
1F
100
AcDbEntity
  8
Calque 1
 62
   193
420
 10040268
370
    50
100
AcDb2dPolyline
 66
     1
 10
0.0
 20
0.0
 30
0.0
  0
VERTEX
  5
8C
330
8B
100
AcDbEntity
  8
Calque 1
 62
   193
420
 10040268
370
    50
100
AcDbVertex
100
AcDb2dVertex
 10
1307.958578503305
 20
2271.434135716864
 30
0.0
  0
VERTEX
  5
8D
330
8B
100
AcDbEntity
  8
Calque 1
 62
   193
420
 10040268
370
    50
100
AcDbVertex
100
AcDb2dVertex
 10
1307.958578503305
 20
2218.434097752683
 30
0.0
  0
SEQEND
  5
8E
330
8B
100
AcDbEntity
  8
Calque 1
 62
   193
420
 10040268
370
    50
  0
POLYLINE
  5
8F
330
1F
100
AcDbEntity
  8
Calque 1
 62
   193
420
 10040268
370
    50
100
AcDb2dPolyline
 66
     1
 10
0.0
 20
0.0
 30
0.0
  0
VERTEX
  5
90
330
8F
100
AcDbEntity
  8
Calque 1
 62
   193
420
 10040268
370
    50
100
AcDbVertex
100
AcDb2dVertex
 10
1309.595257240961
 20
2273.981094809109
 30
0.0
  0
VERTEX
  5
91
330
8F
100
AcDbEntity
  8
Calque 1
 62
   193
420
 10040268
370
    50
100
AcDbVertex
100
AcDb2dVertex
 10
1309.595257240961
 20
2220.301511760463
 30
0.0
  0
SEQEND
  5
92
330
8F
100
AcDbEntity
  8
Calque 1
 62
   193
420
 10040268
370
    50
  0
POLYLINE
  5
93
330
1F
100
AcDbEntity
  8
Calque 1
 62
   193
420
 10040268
370
    50
100
AcDb2dPolyline
 66
     1
 10
0.0
 20
0.0
 30
0.0
  0
VERTEX
  5
94
330
93
100
AcDbEntity
  8
Calque 1
 62
   193
420
 10040268
370
    50
100
AcDbVertex
100
AcDb2dVertex
 10
1309.595257240961
 20
2216.566855999678
 30
0.0
  0
VERTEX
  5
95
330
93
100
AcDbEntity
  8
Calque 1
 62
   193
420
 10040268
370
    50
100
AcDbVertex
100
AcDb2dVertex
 10
1309.595257240961
 20
2215.310085166659
 30
0.0
  0
SEQEND
  5
96
330
93
100
AcDbEntity
  8
Calque 1
 62
   193
420
 10040268
370
    50
  0
POLYLINE
  5
97
330
1F
100
AcDbEntity
  8
Calque 1
 62
   193
420
 10040268
370
    50
100
AcDb2dPolyline
 66
     1
 10
0.0
 20
0.0
 30
0.0
  0
VERTEX
  5
98
330
97
100
AcDbEntity
  8
Calque 1
 62
   193
420
 10040268
370
    50
100
AcDbVertex
100
AcDb2dVertex
 10
1309.70575867865
 20
2273.981094809109
 30
0.0
  0
VERTEX
  5
99
330
97
100
AcDbEntity
  8
Calque 1
 62
   193
420
 10040268
370
    50
100
AcDbVertex
100
AcDb2dVertex
 10
1309.70575867865
 20
2220.301511760463
 30
0.0
  0
SEQEND
  5
9A
330
97
100
AcDbEntity
  8
Calque 1
 62
   193
420
 10040268
370
    50
  0
POLYLINE
  5
9B
330
1F
100
AcDbEntity
  8
Calque 1
 62
   193
420
 10040268
370
    50
100
AcDb2dPolyline
 66
     1
 10
0.0
 20
0.0
 30
0.0
  0
VERTEX
  5
9C
330
9B
100
AcDbEntity
  8
Calque 1
 62
   193
420
 10040268
370
    50
100
AcDbVertex
100
AcDb2dVertex
 10
1309.70575867865
 20
2216.566855999678
 30
0.0
  0
VERTEX
  5
9D
330
9B
100
AcDbEntity
  8
Calque 1
 62
   193
420
 10040268
370
    50
100
AcDbVertex
100
AcDb2dVertex
 10
1309.70575867865
 20
2215.310085166659
 30
0.0
  0
SEQEND
  5
9E
330
9B
100
AcDbEntity
  8
Calque 1
 62
   193
420
 10040268
370
    50
  0
POLYLINE
  5
9F
330
1F
100
AcDbEntity
  8
Calque 1
 62
   193
420
 10040268
370
    50
100
AcDb2dPolyline
 66
     1
 10
0.0
 20
0.0
 30
0.0
  0
VERTEX
  5
A0
330
9F
100
AcDbEntity
  8
Calque 1
 62
   193
420
 10040268
370
    50
100
AcDbVertex
100
AcDb2dVertex
 10
1310.811289819867
 20
2274.230691977015
 30
0.0
  0
VERTEX
  5
A1
330
9F
100
AcDbEntity
  8
Calque 1
 62
   193
420
 10040268
370
    50
100
AcDbVertex
100
AcDb2dVertex
 10
1310.811289819867
 20
2220.628106812464
 30
0.0
  0
SEQEND
  5
A2
330
9F
100
AcDbEntity
  8
Calque 1
 62
   193
420
 10040268
370
    50
  0
POLYLINE
  5
A3
330
1F
100
AcDbEntity
  8
Calque 1
 62
   193
420
 10040268
370
    50
100
AcDb2dPolyline
 66
     1
 10
0.0
 20
0.0
 30
0.0
  0
VERTEX
  5
A4
330
A3
100
AcDbEntity
  8
Calque 1
 62
   193
420
 10040268
370
    50
100
AcDbVertex
100
AcDb2dVertex
 10
1310.811289819867
 20
2216.240260947676
 30
0.0
  0
VERTEX
  5
A5
330
A3
100
AcDbEntity
  8
Calque 1
 62
   193
420
 10040268
370
    50
100
AcDbVertex
100
AcDb2dVertex
 10
1310.811289819867
 20
2214.727347265329
 30
0.0
  0
SEQEND
  5
A6
330
A3
100
AcDbEntity
  8
Calque 1
 62
   193
420
 10040268
370
    50
  0
POLYLINE
  5
A7
330
1F
100
AcDbEntity
  8
Calque 1
 62
   193
420
 10040268
370
    50
100
AcDb2dPolyline
 66
     1
 10
0.0
 20
0.0
 30
0.0
  0
VERTEX
  5
A8
330
A7
100
AcDbEntity
  8
Calque 1
 62
   193
420
 10040268
370
    50
100
AcDbVertex
100
AcDb2dVertex
 10
1310.921877384943
 20
2274.230691977015
 30
0.0
  0
VERTEX
  5
A9
330
A7
100
AcDbEntity
  8
Calque 1
 62
   193
420
 10040268
370
    50
100
AcDbVertex
100
AcDb2dVertex
 10
1310.921877384943
 20
2220.628106812464
 30
0.0
  0
SEQEND
  5
AA
330
A7
100
AcDbEntity
  8
Calque 1
 62
   193
420
 10040268
370
    50
  0
POLYLINE
  5
AB
330
1F
100
AcDbEntity
  8
Calque 1
 62
   193
420
 10040268
370
    50
100
AcDb2dPolyline
 66
     1
 10
0.0
 20
0.0
 30
0.0
  0
VERTEX
  5
AC
330
AB
100
AcDbEntity
  8
Calque 1
 62
   193
420
 10040268
370
    50
100
AcDbVertex
100
AcDb2dVertex
 10
1310.921877384943
 20
2216.240260947676
 30
0.0
  0
VERTEX
  5
AD
330
AB
100
AcDbEntity
  8
Calque 1
 62
   193
420
 10040268
370
    50
100
AcDbVertex
100
AcDb2dVertex
 10
1310.921877384943
 20
2214.727347265329
 30
0.0
  0
SEQEND
  5
AE
330
AB
100
AcDbEntity
  8
Calque 1
 62
   193
420
 10040268
370
    50
  0
POLYLINE
  5
AF
330
1F
100
AcDbEntity
  8
Calque 1
 62
   193
420
 10040268
370
    50
100
AcDb2dPolyline
 66
     1
 10
0.0
 20
0.0
 30
0.0
  0
VERTEX
  5
B0
330
AF
100
AcDbEntity
  8
Calque 1
 62
   193
420
 10040268
370
    50
100
AcDbVertex
100
AcDb2dVertex
 10
1311.758518823536
 20
2214.434169639534
 30
0.0
  0
VERTEX
  5
B1
330
AF
100
AcDbEntity
  8
Calque 1
 62
   193
420
 10040268
370
    50
100
AcDbVertex
100
AcDb2dVertex
 10
1311.758518823536
 20
2214.634157432453
 30
0.0
  0
SEQEND
  5
B2
330
AF
100
AcDbEntity
  8
Calque 1
 62
   193
420
 10040268
370
    50
  0
POLYLINE
  5
B3
330
1F
100
AcDbEntity
  8
Calque 1
 62
   193
420
 10040268
370
    50
100
AcDb2dPolyline
 66
     1
 10
0.0
 20
0.0
 30
0.0
  0
VERTEX
  5
B4
330
B3
100
AcDbEntity
  8
Calque 1
 62
   193
420
 10040268
370
    50
100
AcDbVertex
100
AcDb2dVertex
 10
1313.758569007498
 20
2270.576995960133
 30
0.0
  0
VERTEX
  5
B5
330
B3
100
AcDbEntity
  8
Calque 1
 62
   193
420
 10040268
370
    50
100
AcDbVertex
100
AcDb2dVertex
 10
1313.758569007498
 20
2227.24734102305
 30
0.0
  0
SEQEND
  5
B6
330
B3
100
AcDbEntity
  8
Calque 1
 62
   193
420
 10040268
370
    50
  0
POLYLINE
  5
B7
330
1F
100
AcDbEntity
  8
Calque 1
 62
   193
420
 10040268
370
    50
100
AcDb2dPolyline
 66
     1
 10
0.0
 20
0.0
 30
0.0
  0
VERTEX
  5
B8
330
B7
100
AcDbEntity
  8
Calque 1
 62
   193
420
 10040268
370
    50
100
AcDbVertex
100
AcDb2dVertex
 10
1314.558520179173
 20
2270.43419675227
 30
0.0
  0
VERTEX
  5
B9
330
B7
100
AcDbEntity
  8
Calque 1
 62
   193
420
 10040268
370
    50
100
AcDbVertex
100
AcDb2dVertex
 10
1314.558520179173
 20
2214.634157432453
 30
0.0
  0
SEQEND
  5
BA
330
B7
100
AcDbEntity
  8
Calque 1
 62
   193
420
 10040268
370
    50
  0
POLYLINE
  5
BB
330
1F
100
AcDbEntity
  8
Calque 1
 62
   193
420
 10040268
370
    50
100
AcDb2dPolyline
 66
     1
 10
0.0
 20
0.0
 30
0.0
  0
VERTEX
  5
BC
330
BB
100
AcDbEntity
  8
Calque 1
 62
   193
420
 10040268
370
    50
100
AcDbVertex
100
AcDb2dVertex
 10
1314.758507972092
 20
2270.43419675227
 30
0.0
  0
VERTEX
  5
BD
330
BB
100
AcDbEntity
  8
Calque 1
 62
   193
420
 10040268
370
    50
100
AcDbVertex
100
AcDb2dVertex
 10
1314.758507972092
 20
2214.434169639534
 30
0.0
  0
SEQEND
  5
BE
330
BB
100
AcDbEntity
  8
Calque 1
 62
   193
420
 10040268
370
    50
  0
POLYLINE
  5
BF
330
1F
100
AcDbEntity
  8
Calque 1
 62
   193
420
 10040268
370
    50
100
AcDb2dPolyline
 66
     1
 10
0.0
 20
0.0
 30
0.0
  0
VERTEX
  5
C0
330
BF
100
AcDbEntity
  8
Calque 1
 62
   193
420
 10040268
370
    50
100
AcDbVertex
100
AcDb2dVertex
 10
1310.90697734697
 20
2216.439731976272
 30
0.0
  0
VERTEX
  5
C1
330
BF
100
AcDbEntity
  8
Calque 1
 62
   193
420
 10040268
370
    50
100
AcDbVertex
100
AcDb2dVertex
 10
1310.921877384943
 20
2216.240260947676
 30
0.0
  0
SEQEND
  5
C2
330
BF
100
AcDbEntity
  8
Calque 1
 62
   193
420
 10040268
370
    50
  0
POLYLINE
  5
C3
330
1F
100
AcDbEntity
  8
Calque 1
 62
   193
420
 10040268
370
    50
100
AcDb2dPolyline
 66
     1
 10
0.0
 20
0.0
 30
0.0
  0
VERTEX
  5
C4
330
C3
100
AcDbEntity
  8
Calque 1
 62
   193
420
 10040268
370
    50
100
AcDbVertex
100
AcDb2dVertex
 10
1309.512144312379
 20
2274.16299585073
 30
0.0
  0
VERTEX
  5
C5
330
C3
100
AcDbEntity
  8
Calque 1
 62
   193
420
 10040268
370
    50
100
AcDbVertex
100
AcDb2dVertex
 10
1309.595257240961
 20
2273.981094809109
 30
0.0
  0
SEQEND
  5
C6
330
C3
100
AcDbEntity
  8
Calque 1
 62
   193
420
 10040268
370
    50
  0
POLYLINE
  5
C7
330
1F
100
AcDbEntity
  8
Calque 1
 62
   193
420
 10040268
370
    50
100
AcDb2dPolyline
 66
     1
 10
0.0
 20
0.0
 30
0.0
  0
VERTEX
  5
C8
330
C7
100
AcDbEntity
  8
Calque 1
 62
   193
420
 10040268
370
    50
100
AcDbVertex
100
AcDb2dVertex
 10
1310.906718964808
 20
2216.439731976272
 30
0.0
  0
VERTEX
  5
C9
330
C7
100
AcDbEntity
  8
Calque 1
 62
   193
420
 10040268
370
    50
100
AcDbVertex
100
AcDb2dVertex
 10
1310.812323348512
 20
2216.434908842593
 30
0.0
  0
VERTEX
  5
CA
330
C7
100
AcDbEntity
  8
Calque 1
 62
   193
420
 10040268
370
    50
100
AcDbVertex
100
AcDb2dVertex
 10
1310.715860674925
 20
2216.434564333044
 30
0.0
  0
VERTEX
  5
CB
330
C7
100
AcDbEntity
  8
Calque 1
 62
   193
420
 10040268
370
    50
100
AcDbVertex
100
AcDb2dVertex
 10
1310.618622854854
 20
2216.439042957175
 30
0.0
  0
VERTEX
  5
CC
330
C7
100
AcDbEntity
  8
Calque 1
 62
   193
420
 10040268
370
    50
100
AcDbVertex
100
AcDb2dVertex
 10
1310.522849200364
 20
2216.448172460211
 30
0.0
  0
VERTEX
  5
CD
330
C7
100
AcDbEntity
  8
Calque 1
 62
   193
420
 10040268
370
    50
100
AcDbVertex
100
AcDb2dVertex
 10
1310.42750618281
 20
2216.461780587378
 30
0.0
  0
VERTEX
  5
CE
330
C7
100
AcDbEntity
  8
Calque 1
 62
   193
420
 10040268
370
    50
100
AcDbVertex
100
AcDb2dVertex
 10
1310.332852184353
 20
2216.480039593449
 30
0.0
  0
VERTEX
  5
CF
330
C7
100
AcDbEntity
  8
Calque 1
 62
   193
420
 10040268
370
    50
100
AcDbVertex
100
AcDb2dVertex
 10
1310.240179115799
 20
2216.502432714104
 30
0.0
  0
VERTEX
  5
D0
330
C7
100
AcDbEntity
  8
Calque 1
 62
   193
420
 10040268
370
    50
100
AcDbVertex
100
AcDb2dVertex
 10
1310.147936684182
 20
2216.529648968437
 30
0.0
  0
VERTEX
  5
D1
330
C7
100
AcDbEntity
  8
Calque 1
 62
   193
420
 10040268
370
    50
100
AcDbVertex
100
AcDb2dVertex
 10
1310.056555526436
 20
2216.561343846901
 30
0.0
  0
VERTEX
  5
D2
330
C7
100
AcDbEntity
  8
Calque 1
 62
   193
420
 10040268
370
    50
100
AcDbVertex
100
AcDb2dVertex
 10
1309.967758190303
 20
2216.597172839948
 30
0.0
  0
SEQEND
  5
D3
330
C7
100
AcDbEntity
  8
Calque 1
 62
   193
420
 10040268
370
    50
  0
POLYLINE
  5
D4
330
1F
100
AcDbEntity
  8
Calque 1
 62
   193
420
 10040268
370
    50
100
AcDb2dPolyline
 66
     1
 10
0.0
 20
0.0
 30
0.0
  0
VERTEX
  5
D5
330
D4
100
AcDbEntity
  8
Calque 1
 62
   193
420
 10040268
370
    50
100
AcDbVertex
100
AcDb2dVertex
 10
1310.82231412542
 20
2216.435253352141
 30
0.0
  0
VERTEX
  5
D6
330
D4
100
AcDbEntity
  8
Calque 1
 62
   193
420
 10040268
370
    50
100
AcDbVertex
100
AcDb2dVertex
 10
1310.734550317933
 20
2216.43439207827
 30
0.0
  0
VERTEX
  5
D7
330
D4
100
AcDbEntity
  8
Calque 1
 62
   193
420
 10040268
370
    50
100
AcDbVertex
100
AcDb2dVertex
 10
1310.6457529818
 20
2216.437320409432
 30
0.0
  0
VERTEX
  5
D8
330
D4
100
AcDbEntity
  8
Calque 1
 62
   193
420
 10040268
370
    50
100
AcDbVertex
100
AcDb2dVertex
 10
1310.554974715764
 20
2216.444555109952
 30
0.0
  0
VERTEX
  5
D9
330
D4
100
AcDbEntity
  8
Calque 1
 62
   193
420
 10040268
370
    50
100
AcDbVertex
100
AcDb2dVertex
 10
1310.460492972081
 20
2216.456440689376
 30
0.0
  0
VERTEX
  5
DA
330
D4
100
AcDbEntity
  8
Calque 1
 62
   193
420
 10040268
370
    50
100
AcDbVertex
100
AcDb2dVertex
 10
1310.364547062817
 20
2216.473321657253
 30
0.0
  0
VERTEX
  5
DB
330
D4
100
AcDbEntity
  8
Calque 1
 62
   193
420
 10040268
370
    50
100
AcDbVertex
100
AcDb2dVertex
 10
1310.26808438923
 20
2216.495198013585
 30
0.0
  0
VERTEX
  5
DC
330
D4
100
AcDbEntity
  8
Calque 1
 62
   193
420
 10040268
370
    50
100
AcDbVertex
100
AcDb2dVertex
 10
1310.170157550062
 20
2216.522586522693
 30
0.0
  0
VERTEX
  5
DD
330
D4
100
AcDbEntity
  8
Calque 1
 62
   193
420
 10040268
370
    50
100
AcDbVertex
100
AcDb2dVertex
 10
1310.072661347829
 20
2216.555487184577
 30
0.0
  0
VERTEX
  5
DE
330
D4
100
AcDbEntity
  8
Calque 1
 62
   193
420
 10040268
370
    50
100
AcDbVertex
100
AcDb2dVertex
 10
1309.976801565952
 20
2216.59321098014
 30
0.0
  0
SEQEND
  5
DF
330
D4
100
AcDbEntity
  8
Calque 1
 62
   193
420
 10040268
370
    50
  0
POLYLINE
  5
E0
330
1F
100
AcDbEntity
  8
Calque 1
 62
   193
420
 10040268
370
    50
100
AcDb2dPolyline
 66
     1
 10
0.0
 20
0.0
 30
0.0
  0
VERTEX
  5
E1
330
E0
100
AcDbEntity
  8
Calque 1
 62
   193
420
 10040268
370
    50
100
AcDbVertex
100
AcDb2dVertex
 10
1314.758507972092
 20
2214.434169639534
 30
0.0
  0
VERTEX
  5
E2
330
E0
100
AcDbEntity
  8
Calque 1
 62
   193
420
 10040268
370
    50
100
AcDbVertex
100
AcDb2dVertex
 10
1311.758518823536
 20
2214.434169639534
 30
0.0
  0
SEQEND
  5
E3
330
E0
100
AcDbEntity
  8
Calque 1
 62
   193
420
 10040268
370
    50
  0
POLYLINE
  5
E4
330
1F
100
AcDbEntity
  8
Calque 1
 62
   193
420
 10040268
370
    50
100
AcDb2dPolyline
 66
     1
 10
0.0
 20
0.0
 30
0.0
  0
VERTEX
  5
E5
330
E4
100
AcDbEntity
  8
Calque 1
 62
   193
420
 10040268
370
    50
100
AcDbVertex
100
AcDb2dVertex
 10
1314.558520179173
 20
2214.634157432453
 30
0.0
  0
VERTEX
  5
E6
330
E4
100
AcDbEntity
  8
Calque 1
 62
   193
420
 10040268
370
    50
100
AcDbVertex
100
AcDb2dVertex
 10
1311.758518823536
 20
2214.634157432453
 30
0.0
  0
SEQEND
  5
E7
330
E4
100
AcDbEntity
  8
Calque 1
 62
   193
420
 10040268
370
    50
  0
POLYLINE
  5
E8
330
1F
100
AcDbEntity
  8
Calque 1
 62
   193
420
 10040268
370
    50
100
AcDb2dPolyline
 66
     1
 10
0.0
 20
0.0
 30
0.0
  0
VERTEX
  5
E9
330
E8
100
AcDbEntity
  8
Calque 1
 62
   193
420
 10040268
370
    50
100
AcDbVertex
100
AcDb2dVertex
 10
1310.921877384943
 20
2214.727347265329
 30
0.0
  0
VERTEX
  5
EA
330
E8
100
AcDbEntity
  8
Calque 1
 62
   193
420
 10040268
370
    50
100
AcDbVertex
100
AcDb2dVertex
 10
1310.811289819867
 20
2214.727347265329
 30
0.0
  0
SEQEND
  5
EB
330
E8
100
AcDbEntity
  8
Calque 1
 62
   193
420
 10040268
370
    50
  0
POLYLINE
  5
EC
330
1F
100
AcDbEntity
  8
Calque 1
 62
   193
420
 10040268
370
    50
100
AcDb2dPolyline
 66
     1
 10
0.0
 20
0.0
 30
0.0
  0
VERTEX
  5
ED
330
EC
100
AcDbEntity
  8
Calque 1
 62
   193
420
 10040268
370
    50
100
AcDbVertex
100
AcDb2dVertex
 10
1309.70575867865
 20
2215.310085166659
 30
0.0
  0
VERTEX
  5
EE
330
EC
100
AcDbEntity
  8
Calque 1
 62
   193
420
 10040268
370
    50
100
AcDbVertex
100
AcDb2dVertex
 10
1309.595257240961
 20
2215.310085166659
 30
0.0
  0
SEQEND
  5
EF
330
EC
100
AcDbEntity
  8
Calque 1
 62
   193
420
 10040268
370
    50
  0
POLYLINE
  5
F0
330
1F
100
AcDbEntity
  8
Calque 1
 62
   193
420
 10040268
370
    50
100
AcDb2dPolyline
 66
     1
 10
0.0
 20
0.0
 30
0.0
  0
VERTEX
  5
F1
330
F0
100
AcDbEntity
  8
Calque 1
 62
   193
420
 10040268
370
    50
100
AcDbVertex
100
AcDb2dVertex
 10
1310.921877384943
 20
2216.240260947676
 30
0.0
  0
VERTEX
  5
F2
330
F0
100
AcDbEntity
  8
Calque 1
 62
   193
420
 10040268
370
    50
100
AcDbVertex
100
AcDb2dVertex
 10
1310.811289819867
 20
2216.240260947676
 30
0.0
  0
SEQEND
  5
F3
330
F0
100
AcDbEntity
  8
Calque 1
 62
   193
420
 10040268
370
    50
  0
POLYLINE
  5
F4
330
1F
100
AcDbEntity
  8
Calque 1
 62
   193
420
 10040268
370
    50
100
AcDb2dPolyline
 66
     1
 10
0.0
 20
0.0
 30
0.0
  0
VERTEX
  5
F5
330
F4
100
AcDbEntity
  8
Calque 1
 62
   193
420
 10040268
370
    50
100
AcDbVertex
100
AcDb2dVertex
 10
1309.70575867865
 20
2216.566855999678
 30
0.0
  0
VERTEX
  5
F6
330
F4
100
AcDbEntity
  8
Calque 1
 62
   193
420
 10040268
370
    50
100
AcDbVertex
100
AcDb2dVertex
 10
1309.595257240961
 20
2216.566855999678
 30
0.0
  0
SEQEND
  5
F7
330
F4
100
AcDbEntity
  8
Calque 1
 62
   193
420
 10040268
370
    50
  0
POLYLINE
  5
F8
330
1F
100
AcDbEntity
  8
Calque 1
 62
   193
420
 10040268
370
    50
100
AcDb2dPolyline
 66
     1
 10
0.0
 20
0.0
 30
0.0
  0
VERTEX
  5
F9
330
F8
100
AcDbEntity
  8
Calque 1
 62
   193
420
 10040268
370
    50
100
AcDbVertex
100
AcDb2dVertex
 10
1307.758504583
 20
2218.434097752683
 30
0.0
  0
VERTEX
  5
FA
330
F8
100
AcDbEntity
  8
Calque 1
 62
   193
420
 10040268
370
    50
100
AcDbVertex
100
AcDb2dVertex
 10
1307.958578503305
 20
2218.434097752683
 30
0.0
  0
SEQEND
  5
FB
330
F8
100
AcDbEntity
  8
Calque 1
 62
   193
420
 10040268
370
    50
  0
POLYLINE
  5
FC
330
1F
100
AcDbEntity
  8
Calque 1
 62
   193
420
 10040268
370
    50
100
AcDb2dPolyline
 66
     1
 10
0.0
 20
0.0
 30
0.0
  0
VERTEX
  5
FD
330
FC
100
AcDbEntity
  8
Calque 1
 62
   193
420
 10040268
370
    50
100
AcDbVertex
100
AcDb2dVertex
 10
1309.70575867865
 20
2220.301511760463
 30
0.0
  0
VERTEX
  5
FE
330
FC
100
AcDbEntity
  8
Calque 1
 62
   193
420
 10040268
370
    50
100
AcDbVertex
100
AcDb2dVertex
 10
1309.595257240961
 20
2220.301511760463
 30
0.0
  0
SEQEND
  5
FF
330
FC
100
AcDbEntity
  8
Calque 1
 62
   193
420
 10040268
370
    50
  0
POLYLINE
  5
100
330
1F
100
AcDbEntity
  8
Calque 1
 62
   193
420
 10040268
370
    50
100
AcDb2dPolyline
 66
     1
 10
0.0
 20
0.0
 30
0.0
  0
VERTEX
  5
101
330
100
100
AcDbEntity
  8
Calque 1
 62
   193
420
 10040268
370
    50
100
AcDbVertex
100
AcDb2dVertex
 10
1310.921877384943
 20
2220.628106812464
 30
0.0
  0
VERTEX
  5
102
330
100
100
AcDbEntity
  8
Calque 1
 62
   193
420
 10040268
370
    50
100
AcDbVertex
100
AcDb2dVertex
 10
1310.811289819867
 20
2220.628106812464
 30
0.0
  0
SEQEND
  5
103
330
100
100
AcDbEntity
  8
Calque 1
 62
   193
420
 10040268
370
    50
  0
POLYLINE
  5
104
330
1F
100
AcDbEntity
  8
Calque 1
 62
   193
420
 10040268
370
    50
100
AcDb2dPolyline
 66
     1
 10
0.0
 20
0.0
 30
0.0
  0
VERTEX
  5
105
330
104
100
AcDbEntity
  8
Calque 1
 62
   193
420
 10040268
370
    50
100
AcDbVertex
100
AcDb2dVertex
 10
1313.758569007498
 20
2227.24734102305
 30
0.0
  0
VERTEX
  5
106
330
104
100
AcDbEntity
  8
Calque 1
 62
   193
420
 10040268
370
    50
100
AcDbVertex
100
AcDb2dVertex
 10
1307.758504583
 20
2227.24734102305
 30
0.0
  0
SEQEND
  5
107
330
104
100
AcDbEntity
  8
Calque 1
 62
   193
420
 10040268
370
    50
  0
POLYLINE
  5
108
330
1F
100
AcDbEntity
  8
Calque 1
 62
   193
420
 10040268
370
    50
100
AcDb2dPolyline
 66
     1
 10
0.0
 20
0.0
 30
0.0
  0
VERTEX
  5
109
330
108
100
AcDbEntity
  8
Calque 1
 62
   193
420
 10040268
370
    50
100
AcDbVertex
100
AcDb2dVertex
 10
1309.595257240961
 20
2220.301511760463
 30
0.0
  0
VERTEX
  5
10A
330
108
100
AcDbEntity
  8
Calque 1
 62
   193
420
 10040268
370
    50
100
AcDbVertex
100
AcDb2dVertex
 10
1309.700935544971
 20
2220.13166855304
 30
0.0
  0
SEQEND
  5
10B
330
108
100
AcDbEntity
  8
Calque 1
 62
   193
420
 10040268
370
    50
  0
POLYLINE
  5
10C
330
1F
100
AcDbEntity
  8
Calque 1
 62
   193
420
 10040268
370
    50
100
AcDb2dPolyline
 66
     1
 10
0.0
 20
0.0
 30
0.0
  0
VERTEX
  5
10D
330
10C
100
AcDbEntity
  8
Calque 1
 62
   193
420
 10040268
370
    50
100
AcDbVertex
100
AcDb2dVertex
 10
1310.758493731555
 20
2274.43412486542
 30
0.0
  0
VERTEX
  5
10E
330
10C
100
AcDbEntity
  8
Calque 1
 62
   193
420
 10040268
370
    50
100
AcDbVertex
100
AcDb2dVertex
 10
1310.647733911704
 20
2274.432057808128
 30
0.0
  0
VERTEX
  5
10F
330
10C
100
AcDbEntity
  8
Calque 1
 62
   193
420
 10040268
370
    50
100
AcDbVertex
100
AcDb2dVertex
 10
1310.53077291998
 20
2274.425512126706
 30
0.0
  0
VERTEX
  5
110
330
10C
100
AcDbEntity
  8
Calque 1
 62
   193
420
 10040268
370
    50
100
AcDbVertex
100
AcDb2dVertex
 10
1310.40709399206
 20
2274.413454292508
 30
0.0
  0
VERTEX
  5
111
330
10C
100
AcDbEntity
  8
Calque 1
 62
   193
420
 10040268
370
    50
100
AcDbVertex
100
AcDb2dVertex
 10
1310.278333548299
 20
2274.395539795984
 30
0.0
  0
VERTEX
  5
112
330
10C
100
AcDbEntity
  8
Calque 1
 62
   193
420
 10040268
370
    50
100
AcDbVertex
100
AcDb2dVertex
 10
1310.148539575892
 20
2274.371424127588
 30
0.0
  0
VERTEX
  5
113
330
10C
100
AcDbEntity
  8
Calque 1
 62
   193
420
 10040268
370
    50
100
AcDbVertex
100
AcDb2dVertex
 10
1310.018831730872
 20
2274.34162405164
 30
0.0
  0
VERTEX
  5
114
330
10C
100
AcDbEntity
  8
Calque 1
 62
   193
420
 10040268
370
    50
100
AcDbVertex
100
AcDb2dVertex
 10
1309.888951631078
 20
2274.305450549045
 30
0.0
  0
VERTEX
  5
115
330
10C
100
AcDbEntity
  8
Calque 1
 62
   193
420
 10040268
370
    50
100
AcDbVertex
100
AcDb2dVertex
 10
1309.76070795164
 20
2274.263420384125
 30
0.0
  0
VERTEX
  5
116
330
10C
100
AcDbEntity
  8
Calque 1
 62
   193
420
 10040268
370
    50
100
AcDbVertex
100
AcDb2dVertex
 10
1309.634445202105
 20
2274.21553355688
 30
0.0
  0
VERTEX
  5
117
330
10C
100
AcDbEntity
  8
Calque 1
 62
   193
420
 10040268
370
    50
100
AcDbVertex
100
AcDb2dVertex
 10
1309.511972057605
 20
2274.16299585073
 30
0.0
  0
SEQEND
  5
118
330
10C
100
AcDbEntity
  8
Calque 1
 62
   193
420
 10040268
370
    50
  0
POLYLINE
  5
119
330
1F
100
AcDbEntity
  8
Calque 1
 62
   193
420
 10040268
370
    50
100
AcDb2dPolyline
 66
     1
 10
0.0
 20
0.0
 30
0.0
  0
VERTEX
  5
11A
330
119
100
AcDbEntity
  8
Calque 1
 62
   193
420
 10040268
370
    50
100
AcDbVertex
100
AcDb2dVertex
 10
1310.758493731555
 20
2274.43412486542
 30
0.0
  0
VERTEX
  5
11B
330
119
100
AcDbEntity
  8
Calque 1
 62
   193
420
 10040268
370
    50
100
AcDbVertex
100
AcDb2dVertex
 10
1310.647992293866
 20
2274.432230062902
 30
0.0
  0
SEQEND
  5
11C
330
119
100
AcDbEntity
  8
Calque 1
 62
   193
420
 10040268
370
    50
  0
POLYLINE
  5
11D
330
1F
100
AcDbEntity
  8
Calque 1
 62
   193
420
 10040268
370
    50
100
AcDb2dPolyline
 66
     1
 10
0.0
 20
0.0
 30
0.0
  0
VERTEX
  5
11E
330
11D
100
AcDbEntity
  8
Calque 1
 62
   193
420
 10040268
370
    50
100
AcDbVertex
100
AcDb2dVertex
 10
1314.758507972092
 20
2270.43419675227
 30
0.0
  0
VERTEX
  5
11F
330
11D
100
AcDbEntity
  8
Calque 1
 62
   193
420
 10040268
370
    50
100
AcDbVertex
100
AcDb2dVertex
 10
1314.558520179173
 20
2270.43419675227
 30
0.0
  0
SEQEND
  5
120
330
11D
100
AcDbEntity
  8
Calque 1
 62
   193
420
 10040268
370
    50
  0
POLYLINE
  5
121
330
1F
100
AcDbEntity
  8
Calque 1
 62
   193
420
 10040268
370
    50
100
AcDb2dPolyline
 66
     1
 10
0.0
 20
0.0
 30
0.0
  0
VERTEX
  5
122
330
121
100
AcDbEntity
  8
Calque 1
 62
   193
420
 10040268
370
    50
100
AcDbVertex
100
AcDb2dVertex
 10
1307.758504583
 20
2271.434135716864
 30
0.0
  0
VERTEX
  5
123
330
121
100
AcDbEntity
  8
Calque 1
 62
   193
420
 10040268
370
    50
100
AcDbVertex
100
AcDb2dVertex
 10
1307.958578503305
 20
2271.434135716864
 30
0.0
  0
SEQEND
  5
124
330
121
100
AcDbEntity
  8
Calque 1
 62
   193
420
 10040268
370
    50
  0
POLYLINE
  5
125
330
1F
100
AcDbEntity
  8
Calque 1
 62
   193
420
 10040268
370
    50
100
AcDb2dPolyline
 66
     1
 10
0.0
 20
0.0
 30
0.0
  0
VERTEX
  5
126
330
125
100
AcDbEntity
  8
Calque 1
 62
   193
420
 10040268
370
    50
100
AcDbVertex
100
AcDb2dVertex
 10
1309.70575867865
 20
2273.981094809109
 30
0.0
  0
VERTEX
  5
127
330
125
100
AcDbEntity
  8
Calque 1
 62
   193
420
 10040268
370
    50
100
AcDbVertex
100
AcDb2dVertex
 10
1309.595257240961
 20
2273.981094809109
 30
0.0
  0
SEQEND
  5
128
330
125
100
AcDbEntity
  8
Calque 1
 62
   193
420
 10040268
370
    50
  0
POLYLINE
  5
129
330
1F
100
AcDbEntity
  8
Calque 1
 62
   193
420
 10040268
370
    50
100
AcDb2dPolyline
 66
     1
 10
0.0
 20
0.0
 30
0.0
  0
VERTEX
  5
12A
330
129
100
AcDbEntity
  8
Calque 1
 62
   193
420
 10040268
370
    50
100
AcDbVertex
100
AcDb2dVertex
 10
1310.921877384943
 20
2274.230691977015
 30
0.0
  0
VERTEX
  5
12B
330
129
100
AcDbEntity
  8
Calque 1
 62
   193
420
 10040268
370
    50
100
AcDbVertex
100
AcDb2dVertex
 10
1310.811289819867
 20
2274.230691977015
 30
0.0
  0
SEQEND
  5
12C
330
129
100
AcDbEntity
  8
Calque 1
 62
   193
420
 10040268
370
    50
  0
POLYLINE
  5
12D
330
1F
100
AcDbEntity
  8
Calque 1
 62
   193
420
 10040268
370
    50
100
AcDb2dPolyline
 66
     1
 10
0.0
 20
0.0
 30
0.0
  0
VERTEX
  5
12E
330
12D
100
AcDbEntity
  8
Calque 1
 62
   193
420
 10040268
370
    50
100
AcDbVertex
100
AcDb2dVertex
 10
1310.930490123656
 20
2274.43050751516
 30
0.0
  0
VERTEX
  5
12F
330
12D
100
AcDbEntity
  8
Calque 1
 62
   193
420
 10040268
370
    50
100
AcDbVertex
100
AcDb2dVertex
 10
1310.889062850446
 20
2274.432057808128
 30
0.0
  0
VERTEX
  5
130
330
12D
100
AcDbEntity
  8
Calque 1
 62
   193
420
 10040268
370
    50
100
AcDbVertex
100
AcDb2dVertex
 10
1310.846515921203
 20
2274.433263591548
 30
0.0
  0
VERTEX
  5
131
330
12D
100
AcDbEntity
  8
Calque 1
 62
   193
420
 10040268
370
    50
100
AcDbVertex
100
AcDb2dVertex
 10
1310.802935463315
 20
2274.433952610645
 30
0.0
  0
VERTEX
  5
132
330
12D
100
AcDbEntity
  8
Calque 1
 62
   193
420
 10040268
370
    50
100
AcDbVertex
100
AcDb2dVertex
 10
1310.758579858942
 20
2274.43412486542
 30
0.0
  0
SEQEND
  5
133
330
12D
100
AcDbEntity
  8
Calque 1
 62
   193
420
 10040268
370
    50
  0
POLYLINE
  5
134
330
1F
100
AcDbEntity
  8
Calque 1
 62
   193
420
 10040268
370
    50
100
AcDb2dPolyline
 66
     1
 10
0.0
 20
0.0
 30
0.0
  0
VERTEX
  5
135
330
134
100
AcDbEntity
  8
Calque 1
 62
   193
420
 10040268
370
    50
100
AcDbVertex
100
AcDb2dVertex
 10
1313.758569007498
 20
2270.576995960133
 30
0.0
  0
VERTEX
  5
136
330
134
100
AcDbEntity
  8
Calque 1
 62
   193
420
 10040268
370
    50
100
AcDbVertex
100
AcDb2dVertex
 10
1307.758504583
 20
2271.434135716864
 30
0.0
  0
SEQEND
  5
137
330
134
100
AcDbEntity
  8
Calque 1
 62
   193
420
 10040268
370
    50
  0
POLYLINE
  5
138
330
1F
100
AcDbEntity
  8
Calque 1
 62
   193
420
 10040268
370
    50
100
AcDb2dPolyline
 66
     1
 10
0.0
 20
0.0
 30
0.0
  0
VERTEX
  5
139
330
138
100
AcDbEntity
  8
Calque 1
 62
   193
420
 10040268
370
    50
100
AcDbVertex
100
AcDb2dVertex
 10
1310.789241208761
 20
2214.553369943324
 30
0.0
  0
VERTEX
  5
13A
330
138
100
AcDbEntity
  8
Calque 1
 62
   193
420
 10040268
370
    50
100
AcDbVertex
100
AcDb2dVertex
 10
1310.877866290119
 20
2214.532354860864
 30
0.0
  0
SEQEND
  5
13B
330
138
100
AcDbEntity
  8
Calque 1
 62
   193
420
 10040268
370
    50
  0
POLYLINE
  5
13C
330
1F
100
AcDbEntity
  8
Calque 1
 62
   193
420
 10040268
370
    50
100
AcDb2dPolyline
 66
     1
 10
0.0
 20
0.0
 30
0.0
  0
VERTEX
  5
13D
330
13C
100
AcDbEntity
  8
Calque 1
 62
   193
420
 10040268
370
    50
100
AcDbVertex
100
AcDb2dVertex
 10
1310.691572751754
 20
2214.579035904689
 30
0.0
  0
VERTEX
  5
13E
330
13C
100
AcDbEntity
  8
Calque 1
 62
   193
420
 10040268
370
    50
100
AcDbVertex
100
AcDb2dVertex
 10
1310.787346406244
 20
2214.553886707646
 30
0.0
  0
SEQEND
  5
13F
330
13C
100
AcDbEntity
  8
Calque 1
 62
   193
420
 10040268
370
    50
  0
POLYLINE
  5
140
330
1F
100
AcDbEntity
  8
Calque 1
 62
   193
420
 10040268
370
    50
100
AcDb2dPolyline
 66
     1
 10
0.0
 20
0.0
 30
0.0
  0
VERTEX
  5
141
330
140
100
AcDbEntity
  8
Calque 1
 62
   193
420
 10040268
370
    50
100
AcDbVertex
100
AcDb2dVertex
 10
1310.490379175416
 20
2214.6405308591
 30
0.0
  0
VERTEX
  5
142
330
140
100
AcDbEntity
  8
Calque 1
 62
   193
420
 10040268
370
    50
100
AcDbVertex
100
AcDb2dVertex
 10
1310.594937823393
 20
2214.607113432894
 30
0.0
  0
VERTEX
  5
143
330
140
100
AcDbEntity
  8
Calque 1
 62
   193
420
 10040268
370
    50
100
AcDbVertex
100
AcDb2dVertex
 10
1310.694845592465
 20
2214.578174630818
 30
0.0
  0
SEQEND
  5
144
330
140
100
AcDbEntity
  8
Calque 1
 62
   193
420
 10040268
370
    50
  0
POLYLINE
  5
145
330
1F
100
AcDbEntity
  8
Calque 1
 62
   193
420
 10040268
370
    50
100
AcDb2dPolyline
 66
     1
 10
0.0
 20
0.0
 30
0.0
  0
VERTEX
  5
146
330
145
100
AcDbEntity
  8
Calque 1
 62
   193
420
 10040268
370
    50
100
AcDbVertex
100
AcDb2dVertex
 10
1309.976801565952
 20
2216.59321098014
 30
0.0
  0
VERTEX
  5
147
330
145
100
AcDbEntity
  8
Calque 1
 62
   193
420
 10040268
370
    50
100
AcDbVertex
100
AcDb2dVertex
 10
1309.878960854171
 20
2216.637997221448
 30
0.0
  0
SEQEND
  5
148
330
145
100
AcDbEntity
  8
Calque 1
 62
   193
420
 10040268
370
    50
  0
POLYLINE
  5
149
330
1F
100
AcDbEntity
  8
Calque 1
 62
   193
420
 10040268
370
    50
100
AcDb2dPolyline
 66
     1
 10
0.0
 20
0.0
 30
0.0
  0
VERTEX
  5
14A
330
149
100
AcDbEntity
  8
Calque 1
 62
   193
420
 10040268
370
    50
100
AcDbVertex
100
AcDb2dVertex
 10
1309.882147567495
 20
2216.63644692848
 30
0.0
  0
VERTEX
  5
14B
330
149
100
AcDbEntity
  8
Calque 1
 62
   193
420
 10040268
370
    50
100
AcDbVertex
100
AcDb2dVertex
 10
1309.790163518039
 20
2216.684333755725
 30
0.0
  0
SEQEND
  5
14C
330
149
100
AcDbEntity
  8
Calque 1
 62
   193
420
 10040268
370
    50
  0
POLYLINE
  5
14D
330
1F
100
AcDbEntity
  8
Calque 1
 62
   193
420
 10040268
370
    50
100
AcDb2dPolyline
 66
     1
 10
0.0
 20
0.0
 30
0.0
  0
VERTEX
  5
14E
330
14D
100
AcDbEntity
  8
Calque 1
 62
   193
420
 10040268
370
    50
100
AcDbVertex
100
AcDb2dVertex
 10
1309.789474498942
 20
2216.684678265273
 30
0.0
  0
VERTEX
  5
14F
330
14D
100
AcDbEntity
  8
Calque 1
 62
   193
420
 10040268
370
    50
100
AcDbVertex
100
AcDb2dVertex
 10
1309.701193927132
 20
2216.736526952327
 30
0.0
  0
SEQEND
  5
150
330
14D
100
AcDbEntity
  8
Calque 1
 62
   193
420
 10040268
370
    50
  0
POLYLINE
  5
151
330
1F
100
AcDbEntity
  8
Calque 1
 62
   193
420
 10040268
370
    50
100
AcDb2dPolyline
 66
     1
 10
0.0
 20
0.0
 30
0.0
  0
VERTEX
  5
152
330
151
100
AcDbEntity
  8
Calque 1
 62
   193
420
 10040268
370
    50
100
AcDbVertex
100
AcDb2dVertex
 10
1309.481310707786
 20
2215.145581857238
 30
0.0
  0
VERTEX
  5
153
330
151
100
AcDbEntity
  8
Calque 1
 62
   193
420
 10040268
370
    50
100
AcDbVertex
100
AcDb2dVertex
 10
1309.592328909798
 20
2215.071512304305
 30
0.0
  0
VERTEX
  5
154
330
151
100
AcDbEntity
  8
Calque 1
 62
   193
420
 10040268
370
    50
100
AcDbVertex
100
AcDb2dVertex
 10
1309.705241914327
 20
2215.001404611181
 30
0.0
  0
VERTEX
  5
155
330
151
100
AcDbEntity
  8
Calque 1
 62
   193
420
 10040268
370
    50
100
AcDbVertex
100
AcDb2dVertex
 10
1309.819016192728
 20
2214.935775542186
 30
0.0
  0
VERTEX
  5
156
330
151
100
AcDbEntity
  8
Calque 1
 62
   193
420
 10040268
370
    50
100
AcDbVertex
100
AcDb2dVertex
 10
1309.933737872386
 20
2214.874625097323
 30
0.0
  0
VERTEX
  5
157
330
151
100
AcDbEntity
  8
Calque 1
 62
   193
420
 10040268
370
    50
100
AcDbVertex
100
AcDb2dVertex
 10
1310.048631806819
 20
2214.818125531365
 30
0.0
  0
VERTEX
  5
158
330
151
100
AcDbEntity
  8
Calque 1
 62
   193
420
 10040268
370
    50
100
AcDbVertex
100
AcDb2dVertex
 10
1310.162319957833
 20
2214.766449099086
 30
0.0
  0
VERTEX
  5
159
330
151
100
AcDbEntity
  8
Calque 1
 62
   193
420
 10040268
370
    50
100
AcDbVertex
100
AcDb2dVertex
 10
1310.274113306329
 20
2214.719768055261
 30
0.0
  0
VERTEX
  5
15A
330
151
100
AcDbEntity
  8
Calque 1
 62
   193
420
 10040268
370
    50
100
AcDbVertex
100
AcDb2dVertex
 10
1310.384528616631
 20
2214.677565635567
 30
0.0
  0
VERTEX
  5
15B
330
151
100
AcDbEntity
  8
Calque 1
 62
   193
420
 10040268
370
    50
100
AcDbVertex
100
AcDb2dVertex
 10
1310.491498831448
 20
2214.640186349552
 30
0.0
  0
SEQEND
  5
15C
330
151
100
AcDbEntity
  8
Calque 1
 62
   193
420
 10040268
370
    50
  0
SPLINE
  5
15D
330
1F
100
AcDbEntity
  8
Calque 1
 62
   193
420
 10040268
370
    50
100
AcDbSpline
210
0.0
220
0.0
230
1.0
 70
     8
 71
     3
 72
     8
 73
     4
 74
     0
 42
0.0000000001
 43
0.0000000001
 12
1.0
 22
0.0
 32
0.0
 13
1.0
 23
0.0
 33
0.0
 40
0.0
 40
0.0
 40
0.0
 40
0.0
 40
1.0
 40
1.0
 40
1.0
 40
1.0
 10
1307.758504583
 20
2218.434097752683
 30
0.0
 10
1307.758504583
 20
2216.225102527541
 30
0.0
 10
1309.549437471007
 20
2214.434169639534
 30
0.0
 10
1311.758518823536
 20
2214.434169639534
 30
0.0
  0
SPLINE
  5
15E
330
1F
100
AcDbEntity
  8
Calque 1
 62
   193
420
 10040268
370
    50
100
AcDbSpline
210
0.0
220
0.0
230
1.0
 70
     8
 71
     3
 72
     8
 73
     4
 74
     0
 42
0.0000000001
 43
0.0000000001
 12
1.0
 22
0.0
 32
0.0
 13
1.0
 23
0.0
 33
0.0
 40
0.0
 40
0.0
 40
0.0
 40
0.0
 40
1.0
 40
1.0
 40
1.0
 40
1.0
 10
1310.921877384943
 20
2214.727347265329
 30
0.0
 10
1311.196451495118
 20
2214.665507801368
 30
0.0
 10
1311.477054522391
 20
2214.634157432453
 30
0.0
 10
1311.758518823536
 20
2214.634157432453
 30
0.0
  0
SPLINE
  5
15F
330
1F
100
AcDbEntity
  8
Calque 1
 62
   193
420
 10040268
370
    50
100
AcDbSpline
210
0.0
220
0.0
230
1.0
 70
     8
 71
     3
 72
     8
 73
     4
 74
     0
 42
0.0000000001
 43
0.0000000001
 12
1.0
 22
0.0
 32
0.0
 13
1.0
 23
0.0
 33
0.0
 40
0.0
 40
0.0
 40
0.0
 40
0.0
 40
1.0
 40
1.0
 40
1.0
 40
1.0
 10
1307.958578503305
 20
2218.434097752683
 30
0.0
 10
1307.958578503305
 20
2217.187317696571
 30
0.0
 10
1308.570169079325
 20
2216.019947091394
 30
0.0
 10
1309.595257240961
 20
2215.310085166659
 30
0.0
  0
SPLINE
  5
160
330
1F
100
AcDbEntity
  8
Calque 1
 62
   193
420
 10040268
370
    50
100
AcDbSpline
210
0.0
220
0.0
230
1.0
 70
     8
 71
     3
 72
     8
 73
     4
 74
     0
 42
0.0000000001
 43
0.0000000001
 12
1.0
 22
0.0
 32
0.0
 13
1.0
 23
0.0
 33
0.0
 40
0.0
 40
0.0
 40
0.0
 40
0.0
 40
1.0
 40
1.0
 40
1.0
 40
1.0
 10
1310.921877384943
 20
2220.628106812464
 30
0.0
 10
1312.070386092338
 20
2220.542668444431
 30
0.0
 10
1312.958531708436
 20
2219.585793173402
 30
0.0
 10
1312.958531708436
 20
2218.434097752683
 30
0.0
  0
SPLINE
  5
161
330
1F
100
AcDbEntity
  8
Calque 1
 62
   193
420
 10040268
370
    50
100
AcDbSpline
210
0.0
220
0.0
230
1.0
 70
     8
 71
     3
 72
     8
 73
     4
 74
     0
 42
0.0000000001
 43
0.0000000001
 12
1.0
 22
0.0
 32
0.0
 13
1.0
 23
0.0
 33
0.0
 40
0.0
 40
0.0
 40
0.0
 40
0.0
 40
1.0
 40
1.0
 40
1.0
 40
1.0
 10
1312.958531708436
 20
2218.434097752683
 30
0.0
 10
1312.958531708436
 20
2217.282574586739
 30
0.0
 10
1312.070386092338
 20
2216.32569931571
 30
0.0
 10
1310.921877384943
 20
2216.240260947676
 30
0.0
  0
SPLINE
  5
162
330
1F
100
AcDbEntity
  8
Calque 1
 62
   193
420
 10040268
370
    50
100
AcDbSpline
210
0.0
220
0.0
230
1.0
 70
     8
 71
     3
 72
     8
 73
     4
 74
     0
 42
0.0000000001
 43
0.0000000001
 12
1.0
 22
0.0
 32
0.0
 13
1.0
 23
0.0
 33
0.0
 40
0.0
 40
0.0
 40
0.0
 40
0.0
 40
1.0
 40
1.0
 40
1.0
 40
1.0
 10
1308.558541882062
 20
2218.434097752683
 30
0.0
 10
1308.558541882062
 20
2217.674454198186
 30
0.0
 10
1308.950421493509
 20
2216.968554133258
 30
0.0
 10
1309.595257240961
 20
2216.566855999678
 30
0.0
  0
SPLINE
  5
163
330
1F
100
AcDbEntity
  8
Calque 1
 62
   193
420
 10040268
370
    50
100
AcDbSpline
210
0.0
220
0.0
230
1.0
 70
     8
 71
     3
 72
     8
 73
     4
 74
     0
 42
0.0000000001
 43
0.0000000001
 12
1.0
 22
0.0
 32
0.0
 13
1.0
 23
0.0
 33
0.0
 40
0.0
 40
0.0
 40
0.0
 40
0.0
 40
1.0
 40
1.0
 40
1.0
 40
1.0
 10
1309.595257240961
 20
2220.301511760463
 30
0.0
 10
1308.950421493509
 20
2219.899813626883
 30
0.0
 10
1308.558541882062
 20
2219.193913561955
 30
0.0
 10
1308.558541882062
 20
2218.434097752683
 30
0.0
  0
SPLINE
  5
164
330
1F
100
AcDbEntity
  8
Calque 1
 62
   193
420
 10040268
370
    50
100
AcDbSpline
210
0.0
220
0.0
230
1.0
 70
    11
 71
     3
 72
    17
 73
    13
 74
     0
 42
0.0000000001
 43
0.0000000001
 12
1.0
 22
0.0
 32
0.0
 13
1.0
 23
0.0
 33
0.0
 40
0.0
 40
0.0
 40
0.0
 40
0.0
 40
1.0
 40
1.0
 40
1.0
 40
2.0
 40
2.0
 40
2.0
 40
3.0
 40
3.0
 40
3.0
 40
4.0
 40
4.0
 40
4.0
 40
4.0
 10
1312.758543915517
 20
2218.434097752683
 30
0.0
 10
1312.758543915517
 20
2219.538767620028
 30
0.0
 10
1311.863077471513
 20
2220.434147936645
 30
0.0
 10
1310.758579858942
 20
2220.434147936645
 30
0.0
 10
1309.653996118984
 20
2220.434147936645
 30
0.0
 10
1308.758529674981
 20
2219.538767620028
 30
0.0
 10
1308.758529674981
 20
2218.434097752683
 30
0.0
 10
1308.758529674981
 20
2217.329600140112
 30
0.0
 10
1309.653996118984
 20
2216.434219823496
 30
0.0
 10
1310.758579858942
 20
2216.434219823496
 30
0.0
 10
1311.863077471513
 20
2216.434219823496
 30
0.0
 10
1312.758543915517
 20
2217.329600140112
 30
0.0
 10
1312.758543915517
 20
2218.434097752683
 30
0.0
  0
SPLINE
  5
165
330
1F
100
AcDbEntity
  8
Calque 1
 62
   193
420
 10040268
370
    50
100
AcDbSpline
210
0.0
220
0.0
230
1.0
 70
     8
 71
     3
 72
     8
 73
     4
 74
     0
 42
0.0000000001
 43
0.0000000001
 12
1.0
 22
0.0
 32
0.0
 13
1.0
 23
0.0
 33
0.0
 40
0.0
 40
0.0
 40
0.0
 40
0.0
 40
1.0
 40
1.0
 40
1.0
 40
1.0
 10
1314.758507972092
 20
2270.43419675227
 30
0.0
 10
1314.758507972092
 20
2272.643364232186
 30
0.0
 10
1312.967661211472
 20
2274.43412486542
 30
0.0
 10
1310.758579858942
 20
2274.43412486542
 30
0.0
  0
SPLINE
  5
166
330
1F
100
AcDbEntity
  8
Calque 1
 62
   193
420
 10040268
370
    50
100
AcDbSpline
210
0.0
220
0.0
230
1.0
 70
     8
 71
     3
 72
     8
 73
     4
 74
     0
 42
0.0000000001
 43
0.0000000001
 12
1.0
 22
0.0
 32
0.0
 13
1.0
 23
0.0
 33
0.0
 40
0.0
 40
0.0
 40
0.0
 40
0.0
 40
1.0
 40
1.0
 40
1.0
 40
1.0
 10
1310.921877384943
 20
2274.230691977015
 30
0.0
 10
1312.955172740338
 20
2274.14318655169
 30
0.0
 10
1314.558520179173
 20
2272.469386910182
 30
0.0
 10
1314.558520179173
 20
2270.43419675227
 30
0.0
  0
SPLINE
  5
167
330
1F
100
AcDbEntity
  8
Calque 1
 62
   193
420
 10040268
370
    50
100
AcDbSpline
210
0.0
220
0.0
230
1.0
 70
     8
 71
     3
 72
     8
 73
     4
 74
     0
 42
0.0000000001
 43
0.0000000001
 12
1.0
 22
0.0
 32
0.0
 13
1.0
 23
0.0
 33
0.0
 40
0.0
 40
0.0
 40
0.0
 40
0.0
 40
1.0
 40
1.0
 40
1.0
 40
1.0
 10
1308.6372623139
 20
2273.555453261906
 30
0.0
 10
1308.074592093771
 20
2272.992869169165
 30
0.0
 10
1307.758504583
 20
2272.229780519182
 30
0.0
 10
1307.758504583
 20
2271.434135716864
 30
0.0
  0
SPLINE
  5
168
330
1F
100
AcDbEntity
  8
Calque 1
 62
   193
420
 10040268
370
    50
100
AcDbSpline
210
0.0
220
0.0
230
1.0
 70
     8
 71
     3
 72
     8
 73
     4
 74
     0
 42
0.0000000001
 43
0.0000000001
 12
1.0
 22
0.0
 32
0.0
 13
1.0
 23
0.0
 33
0.0
 40
0.0
 40
0.0
 40
0.0
 40
0.0
 40
1.0
 40
1.0
 40
1.0
 40
1.0
 10
1310.758579858942
 20
2274.43412486542
 30
0.0
 10
1309.962848929237
 20
2274.43412486542
 30
0.0
 10
1309.199846406641
 20
2274.118037354648
 30
0.0
 10
1308.6372623139
 20
2273.555453261906
 30
0.0
  0
SPLINE
  5
169
330
1F
100
AcDbEntity
  8
Calque 1
 62
   193
420
 10040268
370
    50
100
AcDbSpline
210
0.0
220
0.0
230
1.0
 70
     8
 71
     3
 72
     8
 73
     4
 74
     0
 42
0.0000000001
 43
0.0000000001
 12
1.0
 22
0.0
 32
0.0
 13
1.0
 23
0.0
 33
0.0
 40
0.0
 40
0.0
 40
0.0
 40
0.0
 40
1.0
 40
1.0
 40
1.0
 40
1.0
 10
1309.595257240961
 20
2273.981094809109
 30
0.0
 10
1308.598160480142
 20
2273.525653185959
 30
0.0
 10
1307.958578503305
 20
2272.530365100271
 30
0.0
 10
1307.958578503305
 20
2271.434135716864
 30
0.0
  0
SPLINE
  5
16A
330
1F
100
AcDbEntity
  8
Calque 1
 62
   193
420
 10040268
370
    50
100
AcDbSpline
210
0.0
220
0.0
230
1.0
 70
     8
 71
     3
 72
     8
 73
     4
 74
     0
 42
0.0000000001
 43
0.0000000001
 12
1.0
 22
0.0
 32
0.0
 13
1.0
 23
0.0
 33
0.0
 40
0.0
 40
0.0
 40
0.0
 40
0.0
 40
1.0
 40
1.0
 40
1.0
 40
1.0
 10
1310.811289819867
 20
2274.230691977015
 30
0.0
 10
1310.765986814236
 20
2274.232931289081
 30
0.0
 10
1310.720597681217
 20
2274.234137072501
 30
0.0
 10
1310.675208548199
 20
2274.234137072501
 30
0.0
  0
POLYLINE
  5
16B
330
1F
100
AcDbEntity
  8
Calque 1
 62
   193
420
 10040268
370
    50
100
AcDb2dPolyline
 66
     1
 10
0.0
 20
0.0
 30
0.0
  0
VERTEX
  5
16C
330
16B
100
AcDbEntity
  8
Calque 1
 62
   193
420
 10040268
370
    50
100
AcDbVertex
100
AcDb2dVertex
 10
1309.70575867865
 20
2216.566855999678
 30
0.0
  0
VERTEX
  5
16D
330
16B
100
AcDbEntity
  8
Calque 1
 62
   193
420
 10040268
370
    50
100
AcDbVertex
100
AcDb2dVertex
 10
1309.706878334683
 20
2216.569439821292
 30
0.0
  0
VERTEX
  5
16E
330
16B
100
AcDbEntity
  8
Calque 1
 62
   193
420
 10040268
370
    50
100
AcDbVertex
100
AcDb2dVertex
 10
1309.713768525653
 20
2216.586148534395
 30
0.0
  0
VERTEX
  5
16F
330
16B
100
AcDbEntity
  8
Calque 1
 62
   193
420
 10040268
370
    50
100
AcDbVertex
100
AcDb2dVertex
 10
1309.719366805817
 20
2216.603546266596
 30
0.0
  0
VERTEX
  5
170
330
16B
100
AcDbEntity
  8
Calque 1
 62
   193
420
 10040268
370
    50
100
AcDbVertex
100
AcDb2dVertex
 10
1309.723931557335
 20
2216.621116253571
 30
0.0
  0
VERTEX
  5
171
330
16B
100
AcDbEntity
  8
Calque 1
 62
   193
420
 10040268
370
    50
100
AcDbVertex
100
AcDb2dVertex
 10
1309.726946015884
 20
2216.636274673705
 30
0.0
  0
VERTEX
  5
172
330
16B
100
AcDbEntity
  8
Calque 1
 62
   193
420
 10040268
370
    50
100
AcDbVertex
100
AcDb2dVertex
 10
1309.72918532795
 20
2216.654361425003
 30
0.0
  0
VERTEX
  5
173
330
16B
100
AcDbEntity
  8
Calque 1
 62
   193
420
 10040268
370
    50
100
AcDbVertex
100
AcDb2dVertex
 10
1309.729702092272
 20
2216.672448176301
 30
0.0
  0
VERTEX
  5
174
330
16B
100
AcDbEntity
  8
Calque 1
 62
   193
420
 10040268
370
    50
100
AcDbVertex
100
AcDb2dVertex
 10
1309.729529837498
 20
2216.67727130998
 30
0.0
  0
VERTEX
  5
175
330
16B
100
AcDbEntity
  8
Calque 1
 62
   193
420
 10040268
370
    50
100
AcDbVertex
100
AcDb2dVertex
 10
1309.727204398046
 20
2216.695530316052
 30
0.0
  0
VERTEX
  5
176
330
16B
100
AcDbEntity
  8
Calque 1
 62
   193
420
 10040268
370
    50
100
AcDbVertex
100
AcDb2dVertex
 10
1309.721347735721
 20
2216.712755793478
 30
0.0
  0
VERTEX
  5
177
330
16B
100
AcDbEntity
  8
Calque 1
 62
   193
420
 10040268
370
    50
100
AcDbVertex
100
AcDb2dVertex
 10
1309.714285289976
 20
2216.724296863354
 30
0.0
  0
VERTEX
  5
178
330
16B
100
AcDbEntity
  8
Calque 1
 62
   193
420
 10040268
370
    50
100
AcDbVertex
100
AcDb2dVertex
 10
1309.700935544971
 20
2216.736699207101
 30
0.0
  0
SEQEND
  5
179
330
16B
100
AcDbEntity
  8
Calque 1
 62
   193
420
 10040268
370
    50
  0
POLYLINE
  5
17A
330
1F
100
AcDbEntity
  8
Calque 1
 62
   193
420
 10040268
370
    50
100
AcDb2dPolyline
 66
     1
 10
0.0
 20
0.0
 30
0.0
  0
VERTEX
  5
17B
330
17A
100
AcDbEntity
  8
Calque 1
 62
   193
420
 10040268
370
    50
100
AcDbVertex
100
AcDb2dVertex
 10
1309.700935544971
 20
2220.13166855304
 30
0.0
  0
VERTEX
  5
17C
330
17A
100
AcDbEntity
  8
Calque 1
 62
   193
420
 10040268
370
    50
100
AcDbVertex
100
AcDb2dVertex
 10
1309.711098576652
 20
2220.140281291753
 30
0.0
  0
VERTEX
  5
17D
330
17A
100
AcDbEntity
  8
Calque 1
 62
   193
420
 10040268
370
    50
100
AcDbVertex
100
AcDb2dVertex
 10
1309.721261608334
 20
2220.155611966662
 30
0.0
  0
VERTEX
  5
17E
330
17A
100
AcDbEntity
  8
Calque 1
 62
   193
420
 10040268
370
    50
100
AcDbVertex
100
AcDb2dVertex
 10
1309.723242538238
 20
2220.160090590794
 30
0.0
  0
VERTEX
  5
17F
330
17A
100
AcDbEntity
  8
Calque 1
 62
   193
420
 10040268
370
    50
100
AcDbVertex
100
AcDb2dVertex
 10
1309.728065671917
 20
2220.177660577768
 30
0.0
  0
VERTEX
  5
180
330
17A
100
AcDbEntity
  8
Calque 1
 62
   193
420
 10040268
370
    50
100
AcDbVertex
100
AcDb2dVertex
 10
1309.729702092272
 20
2220.195747329066
 30
0.0
  0
VERTEX
  5
181
330
17A
100
AcDbEntity
  8
Calque 1
 62
   193
420
 10040268
370
    50
100
AcDbVertex
100
AcDb2dVertex
 10
1309.729357582724
 20
2220.211250258749
 30
0.0
  0
VERTEX
  5
182
330
17A
100
AcDbEntity
  8
Calque 1
 62
   193
420
 10040268
370
    50
100
AcDbVertex
100
AcDb2dVertex
 10
1309.72737665282
 20
2220.229337010047
 30
0.0
  0
VERTEX
  5
183
330
17A
100
AcDbEntity
  8
Calque 1
 62
   193
420
 10040268
370
    50
100
AcDbVertex
100
AcDb2dVertex
 10
1309.723931557335
 20
2220.24725150657
 30
0.0
  0
VERTEX
  5
184
330
17A
100
AcDbEntity
  8
Calque 1
 62
   193
420
 10040268
370
    50
100
AcDbVertex
100
AcDb2dVertex
 10
1309.723328665625
 20
2220.250007582958
 30
0.0
  0
VERTEX
  5
185
330
17A
100
AcDbEntity
  8
Calque 1
 62
   193
420
 10040268
370
    50
100
AcDbVertex
100
AcDb2dVertex
 10
1309.718591659333
 20
2220.267405315159
 30
0.0
  0
VERTEX
  5
186
330
17A
100
AcDbEntity
  8
Calque 1
 62
   193
420
 10040268
370
    50
100
AcDbVertex
100
AcDb2dVertex
 10
1309.712734997008
 20
2220.284630792585
 30
0.0
  0
VERTEX
  5
187
330
17A
100
AcDbEntity
  8
Calque 1
 62
   193
420
 10040268
370
    50
100
AcDbVertex
100
AcDb2dVertex
 10
1309.70575867865
 20
2220.301511760463
 30
0.0
  0
SEQEND
  5
188
330
17A
100
AcDbEntity
  8
Calque 1
 62
   193
420
 10040268
370
    50
  0
POLYLINE
  5
189
330
1F
100
AcDbEntity
  8
Calque 1
 62
   193
420
 10040268
370
    50
100
AcDb2dPolyline
 66
     1
 10
0.0
 20
0.0
 30
0.0
  0
VERTEX
  5
18A
330
189
100
AcDbEntity
  8
Calque 1
 62
   193
420
 10040268
370
    50
100
AcDbVertex
100
AcDb2dVertex
 10
1309.70575867865
 20
2215.310085166659
 30
0.0
  0
VERTEX
  5
18B
330
189
100
AcDbEntity
  8
Calque 1
 62
   193
420
 10040268
370
    50
100
AcDbVertex
100
AcDb2dVertex
 10
1309.693356334903
 20
2215.285280479165
 30
0.0
  0
VERTEX
  5
18C
330
189
100
AcDbEntity
  8
Calque 1
 62
   193
420
 10040268
370
    50
100
AcDbVertex
100
AcDb2dVertex
 10
1309.677336640897
 20
2215.259786772574
 30
0.0
  0
VERTEX
  5
18D
330
189
100
AcDbEntity
  8
Calque 1
 62
   193
420
 10040268
370
    50
100
AcDbVertex
100
AcDb2dVertex
 10
1309.659249889599
 20
2215.235498849403
 30
0.0
  0
VERTEX
  5
18E
330
189
100
AcDbEntity
  8
Calque 1
 62
   193
420
 10040268
370
    50
100
AcDbVertex
100
AcDb2dVertex
 10
1309.647881074498
 20
2215.221718467462
 30
0.0
  0
VERTEX
  5
18F
330
189
100
AcDbEntity
  8
Calque 1
 62
   193
420
 10040268
370
    50
100
AcDbVertex
100
AcDb2dVertex
 10
1309.62738275636
 20
2215.199669856357
 30
0.0
  0
VERTEX
  5
190
330
189
100
AcDbEntity
  8
Calque 1
 62
   193
420
 10040268
370
    50
100
AcDbVertex
100
AcDb2dVertex
 10
1309.615755559098
 20
2215.188645550804
 30
0.0
  0
VERTEX
  5
191
330
189
100
AcDbEntity
  8
Calque 1
 62
   193
420
 10040268
370
    50
100
AcDbVertex
100
AcDb2dVertex
 10
1309.592328909798
 20
2215.169697525635
 30
0.0
  0
VERTEX
  5
192
330
189
100
AcDbEntity
  8
Calque 1
 62
   193
420
 10040268
370
    50
100
AcDbVertex
100
AcDb2dVertex
 10
1309.583802298472
 20
2215.163668608536
 30
0.0
  0
VERTEX
  5
193
330
189
100
AcDbEntity
  8
Calque 1
 62
   193
420
 10040268
370
    50
100
AcDbVertex
100
AcDb2dVertex
 10
1309.557619572784
 20
2215.148682443175
 30
0.0
  0
VERTEX
  5
194
330
189
100
AcDbEntity
  8
Calque 1
 62
   193
420
 10040268
370
    50
100
AcDbVertex
100
AcDb2dVertex
 10
1309.55503575117
 20
2215.147476659755
 30
0.0
  0
VERTEX
  5
195
330
189
100
AcDbEntity
  8
Calque 1
 62
   193
420
 10040268
370
    50
100
AcDbVertex
100
AcDb2dVertex
 10
1309.526355331256
 20
2215.138174901945
 30
0.0
  0
VERTEX
  5
196
330
189
100
AcDbEntity
  8
Calque 1
 62
   193
420
 10040268
370
    50
100
AcDbVertex
100
AcDb2dVertex
 10
1309.508785344281
 20
2215.137141373299
 30
0.0
  0
VERTEX
  5
197
330
189
100
AcDbEntity
  8
Calque 1
 62
   193
420
 10040268
370
    50
100
AcDbVertex
100
AcDb2dVertex
 10
1309.481396835173
 20
2215.145581857238
 30
0.0
  0
SEQEND
  5
198
330
189
100
AcDbEntity
  8
Calque 1
 62
   193
420
 10040268
370
    50
  0
POLYLINE
  5
199
330
1F
100
AcDbEntity
  8
Calque 1
 62
   193
420
 10040268
370
    50
100
AcDb2dPolyline
 66
     1
 10
0.0
 20
0.0
 30
0.0
  0
VERTEX
  5
19A
330
199
100
AcDbEntity
  8
Calque 1
 62
   193
420
 10040268
370
    50
100
AcDbVertex
100
AcDb2dVertex
 10
1310.877866290119
 20
2214.532354860864
 30
0.0
  0
VERTEX
  5
19B
330
199
100
AcDbEntity
  8
Calque 1
 62
   193
420
 10040268
370
    50
100
AcDbVertex
100
AcDb2dVertex
 10
1310.862104978274
 20
2214.538383777963
 30
0.0
  0
VERTEX
  5
19C
330
199
100
AcDbEntity
  8
Calque 1
 62
   193
420
 10040268
370
    50
100
AcDbVertex
100
AcDb2dVertex
 10
1310.844276609138
 20
2214.552336414678
 30
0.0
  0
VERTEX
  5
19D
330
199
100
AcDbEntity
  8
Calque 1
 62
   193
420
 10040268
370
    50
100
AcDbVertex
100
AcDb2dVertex
 10
1310.842898570944
 20
2214.553886707646
 30
0.0
  0
VERTEX
  5
19E
330
199
100
AcDbEntity
  8
Calque 1
 62
   193
420
 10040268
370
    50
100
AcDbVertex
100
AcDb2dVertex
 10
1310.829893335487
 20
2214.57180120417
 30
0.0
  0
VERTEX
  5
19F
330
199
100
AcDbEntity
  8
Calque 1
 62
   193
420
 10040268
370
    50
100
AcDbVertex
100
AcDb2dVertex
 10
1310.827309513873
 20
2214.576624337849
 30
0.0
  0
VERTEX
  5
1A0
330
199
100
AcDbEntity
  8
Calque 1
 62
   193
420
 10040268
370
    50
100
AcDbVertex
100
AcDb2dVertex
 10
1310.81869677516
 20
2214.597122655986
 30
0.0
  0
VERTEX
  5
1A1
330
199
100
AcDbEntity
  8
Calque 1
 62
   193
420
 10040268
370
    50
100
AcDbVertex
100
AcDb2dVertex
 10
1310.816112953546
 20
2214.605563139925
 30
0.0
  0
VERTEX
  5
1A2
330
199
100
AcDbEntity
  8
Calque 1
 62
   193
420
 10040268
370
    50
100
AcDbVertex
100
AcDb2dVertex
 10
1310.810945310318
 20
2214.627094986708
 30
0.0
  0
VERTEX
  5
1A3
330
199
100
AcDbEntity
  8
Calque 1
 62
   193
420
 10040268
370
    50
100
AcDbVertex
100
AcDb2dVertex
 10
1310.809308889963
 20
2214.637774782712
 30
0.0
  0
VERTEX
  5
1A4
330
199
100
AcDbEntity
  8
Calque 1
 62
   193
420
 10040268
370
    50
100
AcDbVertex
100
AcDb2dVertex
 10
1310.807414087446
 20
2214.659995648592
 30
0.0
  0
VERTEX
  5
1A5
330
199
100
AcDbEntity
  8
Calque 1
 62
   193
420
 10040268
370
    50
100
AcDbVertex
100
AcDb2dVertex
 10
1310.807414087446
 20
2214.660856922463
 30
0.0
  0
VERTEX
  5
1A6
330
199
100
AcDbEntity
  8
Calque 1
 62
   193
420
 10040268
370
    50
100
AcDbVertex
100
AcDb2dVertex
 10
1310.807155705284
 20
2214.683077788343
 30
0.0
  0
VERTEX
  5
1A7
330
199
100
AcDbEntity
  8
Calque 1
 62
   193
420
 10040268
370
    50
100
AcDbVertex
100
AcDb2dVertex
 10
1310.808447616091
 20
2214.705298654223
 30
0.0
  0
VERTEX
  5
1A8
330
199
100
AcDbEntity
  8
Calque 1
 62
   193
420
 10040268
370
    50
100
AcDbVertex
100
AcDb2dVertex
 10
1310.811289819867
 20
2214.727347265329
 30
0.0
  0
SEQEND
  5
1A9
330
199
100
AcDbEntity
  8
Calque 1
 62
   193
420
 10040268
370
    50
  0
POLYLINE
  5
1AA
330
1F
100
AcDbEntity
  8
Calque 1
 62
   193
420
 10040268
370
    50
100
AcDb2dPolyline
 66
     1
 10
0.0
 20
0.0
 30
0.0
  0
VERTEX
  5
1AB
330
1AA
100
AcDbEntity
  8
Calque 1
 62
   193
420
 10040268
370
    50
100
AcDbVertex
100
AcDb2dVertex
 10
1314.558520179173
 20
2214.634157432453
 30
0.0
  0
VERTEX
  5
1AC
330
1AA
100
AcDbEntity
  8
Calque 1
 62
   193
420
 10040268
370
    50
100
AcDbVertex
100
AcDb2dVertex
 10
1314.578329478213
 20
2214.614348133412
 30
0.0
  0
VERTEX
  5
1AD
330
1AA
100
AcDbEntity
  8
Calque 1
 62
   193
420
 10040268
370
    50
100
AcDbVertex
100
AcDb2dVertex
 10
1314.598311032028
 20
2214.594366579598
 30
0.0
  0
VERTEX
  5
1AE
330
1AA
100
AcDbEntity
  8
Calque 1
 62
   193
420
 10040268
370
    50
100
AcDbVertex
100
AcDb2dVertex
 10
1314.618292585842
 20
2214.574385025784
 30
0.0
  0
VERTEX
  5
1AF
330
1AA
100
AcDbEntity
  8
Calque 1
 62
   193
420
 10040268
370
    50
100
AcDbVertex
100
AcDb2dVertex
 10
1314.638274139656
 20
2214.554403471969
 30
0.0
  0
VERTEX
  5
1B0
330
1AA
100
AcDbEntity
  8
Calque 1
 62
   193
420
 10040268
370
    50
100
AcDbVertex
100
AcDb2dVertex
 10
1314.642149872077
 20
2214.550613866935
 30
0.0
  0
VERTEX
  5
1B1
330
1AA
100
AcDbEntity
  8
Calque 1
 62
   193
420
 10040268
370
    50
100
AcDbVertex
100
AcDb2dVertex
 10
1314.662131425892
 20
2214.530632313121
 30
0.0
  0
VERTEX
  5
1B2
330
1AA
100
AcDbEntity
  8
Calque 1
 62
   193
420
 10040268
370
    50
100
AcDbVertex
100
AcDb2dVertex
 10
1314.682199107093
 20
2214.510478504532
 30
0.0
  0
VERTEX
  5
1B3
330
1AA
100
AcDbEntity
  8
Calque 1
 62
   193
420
 10040268
370
    50
100
AcDbVertex
100
AcDb2dVertex
 10
1314.702180660908
 20
2214.490496950718
 30
0.0
  0
VERTEX
  5
1B4
330
1AA
100
AcDbEntity
  8
Calque 1
 62
   193
420
 10040268
370
    50
100
AcDbVertex
100
AcDb2dVertex
 10
1314.718544864463
 20
2214.474132747163
 30
0.0
  0
VERTEX
  5
1B5
330
1AA
100
AcDbEntity
  8
Calque 1
 62
   193
420
 10040268
370
    50
100
AcDbVertex
100
AcDb2dVertex
 10
1314.738526418277
 20
2214.454151193348
 30
0.0
  0
VERTEX
  5
1B6
330
1AA
100
AcDbEntity
  8
Calque 1
 62
   193
420
 10040268
370
    50
100
AcDbVertex
100
AcDb2dVertex
 10
1314.758507972092
 20
2214.434169639534
 30
0.0
  0
SEQEND
  5
1B7
330
1AA
100
AcDbEntity
  8
Calque 1
 62
   193
420
 10040268
370
    50
  0
POLYLINE
  5
1B8
330
1F
100
AcDbEntity
  8
Calque 1
 62
   193
420
 10040268
370
    50
100
AcDb2dPolyline
 66
     1
 10
0.0
 20
0.0
 30
0.0
  0
VERTEX
  5
1B9
330
1B8
100
AcDbEntity
  8
Calque 1
 62
   193
420
 10040268
370
    50
100
AcDbVertex
100
AcDb2dVertex
 10
1314.558520179173
 20
2214.634157432453
 30
0.0
  0
VERTEX
  5
1BA
330
1B8
100
AcDbEntity
  8
Calque 1
 62
   193
420
 10040268
370
    50
100
AcDbVertex
100
AcDb2dVertex
 10
1314.578329478213
 20
2214.614348133412
 30
0.0
  0
VERTEX
  5
1BB
330
1B8
100
AcDbEntity
  8
Calque 1
 62
   193
420
 10040268
370
    50
100
AcDbVertex
100
AcDb2dVertex
 10
1314.598311032028
 20
2214.594366579598
 30
0.0
  0
VERTEX
  5
1BC
330
1B8
100
AcDbEntity
  8
Calque 1
 62
   193
420
 10040268
370
    50
100
AcDbVertex
100
AcDb2dVertex
 10
1314.618292585842
 20
2214.574385025784
 30
0.0
  0
VERTEX
  5
1BD
330
1B8
100
AcDbEntity
  8
Calque 1
 62
   193
420
 10040268
370
    50
100
AcDbVertex
100
AcDb2dVertex
 10
1314.638274139656
 20
2214.554403471969
 30
0.0
  0
VERTEX
  5
1BE
330
1B8
100
AcDbEntity
  8
Calque 1
 62
   193
420
 10040268
370
    50
100
AcDbVertex
100
AcDb2dVertex
 10
1314.642322126852
 20
2214.550441612161
 30
0.0
  0
VERTEX
  5
1BF
330
1B8
100
AcDbEntity
  8
Calque 1
 62
   193
420
 10040268
370
    50
100
AcDbVertex
100
AcDb2dVertex
 10
1314.662303680666
 20
2214.530460058347
 30
0.0
  0
VERTEX
  5
1C0
330
1B8
100
AcDbEntity
  8
Calque 1
 62
   193
420
 10040268
370
    50
100
AcDbVertex
100
AcDb2dVertex
 10
1314.682285234481
 20
2214.510478504532
 30
0.0
  0
VERTEX
  5
1C1
330
1B8
100
AcDbEntity
  8
Calque 1
 62
   193
420
 10040268
370
    50
100
AcDbVertex
100
AcDb2dVertex
 10
1314.702266788295
 20
2214.490324695943
 30
0.0
  0
VERTEX
  5
1C2
330
1B8
100
AcDbEntity
  8
Calque 1
 62
   193
420
 10040268
370
    50
100
AcDbVertex
100
AcDb2dVertex
 10
1314.718544864463
 20
2214.474132747163
 30
0.0
  0
VERTEX
  5
1C3
330
1B8
100
AcDbEntity
  8
Calque 1
 62
   193
420
 10040268
370
    50
100
AcDbVertex
100
AcDb2dVertex
 10
1314.738526418277
 20
2214.454151193348
 30
0.0
  0
VERTEX
  5
1C4
330
1B8
100
AcDbEntity
  8
Calque 1
 62
   193
420
 10040268
370
    50
100
AcDbVertex
100
AcDb2dVertex
 10
1314.758507972092
 20
2214.434169639534
 30
0.0
  0
SEQEND
  5
1C5
330
1B8
100
AcDbEntity
  8
Calque 1
 62
   193
420
 10040268
370
    50
  0
POLYLINE
  5
1C6
330
1F
100
AcDbEntity
  8
Calque 1
 62
   193
420
 10040268
370
    50
100
AcDb2dPolyline
 66
     1
 10
0.0
 20
0.0
 30
0.0
  0
VERTEX
  5
1C7
330
1C6
100
AcDbEntity
  8
Calque 1
 62
   193
420
 10040268
370
    50
100
AcDbVertex
100
AcDb2dVertex
 10
1310.811289819867
 20
2214.727347265329
 30
0.0
  0
VERTEX
  5
1C8
330
1C6
100
AcDbEntity
  8
Calque 1
 62
   193
420
 10040268
370
    50
100
AcDbVertex
100
AcDb2dVertex
 10
1310.811203692479
 20
2214.726658246232
 30
0.0
  0
VERTEX
  5
1C9
330
1C6
100
AcDbEntity
  8
Calque 1
 62
   193
420
 10040268
370
    50
100
AcDbVertex
100
AcDb2dVertex
 10
1310.808275361317
 20
2214.704609635126
 30
0.0
  0
VERTEX
  5
1CA
330
1C6
100
AcDbEntity
  8
Calque 1
 62
   193
420
 10040268
370
    50
100
AcDbVertex
100
AcDb2dVertex
 10
1310.807069577897
 20
2214.682388769246
 30
0.0
  0
VERTEX
  5
1CB
330
1C6
100
AcDbEntity
  8
Calque 1
 62
   193
420
 10040268
370
    50
100
AcDbVertex
100
AcDb2dVertex
 10
1310.807500214833
 20
2214.659995648592
 30
0.0
  0
VERTEX
  5
1CC
330
1C6
100
AcDbEntity
  8
Calque 1
 62
   193
420
 10040268
370
    50
100
AcDbVertex
100
AcDb2dVertex
 10
1310.80818923393
 20
2214.649315852588
 30
0.0
  0
VERTEX
  5
1CD
330
1C6
100
AcDbEntity
  8
Calque 1
 62
   193
420
 10040268
370
    50
100
AcDbVertex
100
AcDb2dVertex
 10
1310.810945310318
 20
2214.627094986708
 30
0.0
  0
VERTEX
  5
1CE
330
1C6
100
AcDbEntity
  8
Calque 1
 62
   193
420
 10040268
370
    50
100
AcDbVertex
100
AcDb2dVertex
 10
1310.812667858061
 20
2214.618654502769
 30
0.0
  0
VERTEX
  5
1CF
330
1C6
100
AcDbEntity
  8
Calque 1
 62
   193
420
 10040268
370
    50
100
AcDbVertex
100
AcDb2dVertex
 10
1310.81869677516
 20
2214.597122655986
 30
0.0
  0
VERTEX
  5
1D0
330
1C6
100
AcDbEntity
  8
Calque 1
 62
   193
420
 10040268
370
    50
100
AcDbVertex
100
AcDb2dVertex
 10
1310.820591577677
 20
2214.592127267533
 30
0.0
  0
VERTEX
  5
1D1
330
1C6
100
AcDbEntity
  8
Calque 1
 62
   193
420
 10040268
370
    50
100
AcDbVertex
100
AcDb2dVertex
 10
1310.829893335487
 20
2214.57180120417
 30
0.0
  0
VERTEX
  5
1D2
330
1C6
100
AcDbEntity
  8
Calque 1
 62
   193
420
 10040268
370
    50
100
AcDbVertex
100
AcDb2dVertex
 10
1310.830840736746
 20
2214.570250911201
 30
0.0
  0
VERTEX
  5
1D3
330
1C6
100
AcDbEntity
  8
Calque 1
 62
   193
420
 10040268
370
    50
100
AcDbVertex
100
AcDb2dVertex
 10
1310.844190481751
 20
2214.552336414678
 30
0.0
  0
VERTEX
  5
1D4
330
1C6
100
AcDbEntity
  8
Calque 1
 62
   193
420
 10040268
370
    50
100
AcDbVertex
100
AcDb2dVertex
 10
1310.857367971982
 20
2214.541312109125
 30
0.0
  0
VERTEX
  5
1D5
330
1C6
100
AcDbEntity
  8
Calque 1
 62
   193
420
 10040268
370
    50
100
AcDbVertex
100
AcDb2dVertex
 10
1310.877866290119
 20
2214.532354860864
 30
0.0
  0
SEQEND
  5
1D6
330
1C6
100
AcDbEntity
  8
Calque 1
 62
   193
420
 10040268
370
    50
  0
POLYLINE
  5
1D7
330
1F
100
AcDbEntity
  8
Calque 1
 62
   193
420
 10040268
370
    50
100
AcDb2dPolyline
 66
     1
 10
0.0
 20
0.0
 30
0.0
  0
VERTEX
  5
1D8
330
1D7
100
AcDbEntity
  8
Calque 1
 62
   193
420
 10040268
370
    50
100
AcDbVertex
100
AcDb2dVertex
 10
1310.811289819867
 20
2220.628106812464
 30
0.0
  0
VERTEX
  5
1D9
330
1D7
100
AcDbEntity
  8
Calque 1
 62
   193
420
 10040268
370
    50
100
AcDbVertex
100
AcDb2dVertex
 10
1310.796045272344
 20
2220.629312595885
 30
0.0
  0
VERTEX
  5
1DA
330
1D7
100
AcDbEntity
  8
Calque 1
 62
   193
420
 10040268
370
    50
100
AcDbVertex
100
AcDb2dVertex
 10
1310.678309134136
 20
2220.634135729564
 30
0.0
  0
VERTEX
  5
1DB
330
1D7
100
AcDbEntity
  8
Calque 1
 62
   193
420
 10040268
370
    50
100
AcDbVertex
100
AcDb2dVertex
 10
1310.608029186237
 20
2220.63275769137
 30
0.0
  0
VERTEX
  5
1DC
330
1D7
100
AcDbEntity
  8
Calque 1
 62
   193
420
 10040268
370
    50
100
AcDbVertex
100
AcDb2dVertex
 10
1310.535337671498
 20
2220.627762302916
 30
0.0
  0
VERTEX
  5
1DD
330
1D7
100
AcDbEntity
  8
Calque 1
 62
   193
420
 10040268
370
    50
100
AcDbVertex
100
AcDb2dVertex
 10
1310.46144037334
 20
2220.619149564203
 30
0.0
  0
VERTEX
  5
1DE
330
1D7
100
AcDbEntity
  8
Calque 1
 62
   193
420
 10040268
370
    50
100
AcDbVertex
100
AcDb2dVertex
 10
1310.387112438245
 20
2220.60691947523
 30
0.0
  0
VERTEX
  5
1DF
330
1D7
100
AcDbEntity
  8
Calque 1
 62
   193
420
 10040268
370
    50
100
AcDbVertex
100
AcDb2dVertex
 10
1310.31252612099
 20
2220.590727526449
 30
0.0
  0
VERTEX
  5
1E0
330
1D7
100
AcDbEntity
  8
Calque 1
 62
   193
420
 10040268
370
    50
100
AcDbVertex
100
AcDb2dVertex
 10
1310.237853676347
 20
2220.570573717861
 30
0.0
  0
VERTEX
  5
1E1
330
1D7
100
AcDbEntity
  8
Calque 1
 62
   193
420
 10040268
370
    50
100
AcDbVertex
100
AcDb2dVertex
 10
1310.163870250801
 20
2220.546802559013
 30
0.0
  0
VERTEX
  5
1E2
330
1D7
100
AcDbEntity
  8
Calque 1
 62
   193
420
 10040268
370
    50
100
AcDbVertex
100
AcDb2dVertex
 10
1310.091350990837
 20
2220.519586304679
 30
0.0
  0
VERTEX
  5
1E3
330
1D7
100
AcDbEntity
  8
Calque 1
 62
   193
420
 10040268
370
    50
100
AcDbVertex
100
AcDb2dVertex
 10
1310.058622583727
 20
2220.505978177513
 30
0.0
  0
VERTEX
  5
1E4
330
1D7
100
AcDbEntity
  8
Calque 1
 62
   193
420
 10040268
370
    50
100
AcDbVertex
100
AcDb2dVertex
 10
1309.951996878458
 20
2220.455679783428
 30
0.0
  0
VERTEX
  5
1E5
330
1D7
100
AcDbEntity
  8
Calque 1
 62
   193
420
 10040268
370
    50
100
AcDbVertex
100
AcDb2dVertex
 10
1309.925469643222
 20
2220.441899401487
 30
0.0
  0
VERTEX
  5
1E6
330
1D7
100
AcDbEntity
  8
Calque 1
 62
   193
420
 10040268
370
    50
100
AcDbVertex
100
AcDb2dVertex
 10
1309.823667071633
 20
2220.382471504366
 30
0.0
  0
VERTEX
  5
1E7
330
1D7
100
AcDbEntity
  8
Calque 1
 62
   193
420
 10040268
370
    50
100
AcDbVertex
100
AcDb2dVertex
 10
1309.802479734399
 20
2220.368863377199
 30
0.0
  0
VERTEX
  5
1E8
330
1D7
100
AcDbEntity
  8
Calque 1
 62
   193
420
 10040268
370
    50
100
AcDbVertex
100
AcDb2dVertex
 10
1309.70575867865
 20
2220.301511760463
 30
0.0
  0
SEQEND
  5
1E9
330
1D7
100
AcDbEntity
  8
Calque 1
 62
   193
420
 10040268
370
    50
  0
POLYLINE
  5
1EA
330
1F
100
AcDbEntity
  8
Calque 1
 62
   193
420
 10040268
370
    50
100
AcDb2dPolyline
 66
     1
 10
0.0
 20
0.0
 30
0.0
  0
VERTEX
  5
1EB
330
1EA
100
AcDbEntity
  8
Calque 1
 62
   193
420
 10040268
370
    50
100
AcDbVertex
100
AcDb2dVertex
 10
1310.811289819867
 20
2214.727347265329
 30
0.0
  0
VERTEX
  5
1EC
330
1EA
100
AcDbEntity
  8
Calque 1
 62
   193
420
 10040268
370
    50
100
AcDbVertex
100
AcDb2dVertex
 10
1310.795356253247
 20
2214.731653634685
 30
0.0
  0
VERTEX
  5
1ED
330
1EA
100
AcDbEntity
  8
Calque 1
 62
   193
420
 10040268
370
    50
100
AcDbVertex
100
AcDb2dVertex
 10
1310.674777911264
 20
2214.768171646829
 30
0.0
  0
VERTEX
  5
1EE
330
1EA
100
AcDbEntity
  8
Calque 1
 62
   193
420
 10040268
370
    50
100
AcDbVertex
100
AcDb2dVertex
 10
1310.649714841609
 20
2214.776439875994
 30
0.0
  0
VERTEX
  5
1EF
330
1EA
100
AcDbEntity
  8
Calque 1
 62
   193
420
 10040268
370
    50
100
AcDbVertex
100
AcDb2dVertex
 10
1310.53137581169
 20
2214.819675824333
 30
0.0
  0
VERTEX
  5
1F0
330
1EA
100
AcDbEntity
  8
Calque 1
 62
   193
420
 10040268
370
    50
100
AcDbVertex
100
AcDb2dVertex
 10
1310.45782302308
 20
2214.849648155055
 30
0.0
  0
VERTEX
  5
1F1
330
1EA
100
AcDbEntity
  8
Calque 1
 62
   193
420
 10040268
370
    50
100
AcDbVertex
100
AcDb2dVertex
 10
1310.383495087986
 20
2214.882376562165
 30
0.0
  0
VERTEX
  5
1F2
330
1EA
100
AcDbEntity
  8
Calque 1
 62
   193
420
 10040268
370
    50
100
AcDbVertex
100
AcDb2dVertex
 10
1310.349474770069
 20
2214.898051746623
 30
0.0
  0
VERTEX
  5
1F3
330
1EA
100
AcDbEntity
  8
Calque 1
 62
   193
420
 10040268
370
    50
100
AcDbVertex
100
AcDb2dVertex
 10
1310.236734020314
 20
2214.954034548258
 30
0.0
  0
VERTEX
  5
1F4
330
1EA
100
AcDbEntity
  8
Calque 1
 62
   193
420
 10040268
370
    50
100
AcDbVertex
100
AcDb2dVertex
 10
1310.202713702397
 20
2214.97229355433
 30
0.0
  0
VERTEX
  5
1F5
330
1EA
100
AcDbEntity
  8
Calque 1
 62
   193
420
 10040268
370
    50
100
AcDbVertex
100
AcDb2dVertex
 10
1310.093418048128
 20
2215.034822037387
 30
0.0
  0
VERTEX
  5
1F6
330
1EA
100
AcDbEntity
  8
Calque 1
 62
   193
420
 10040268
370
    50
100
AcDbVertex
100
AcDb2dVertex
 10
1310.02339648239
 20
2215.078230240501
 30
0.0
  0
VERTEX
  5
1F7
330
1EA
100
AcDbEntity
  8
Calque 1
 62
   193
420
 10040268
370
    50
100
AcDbVertex
100
AcDb2dVertex
 10
1309.955528101331
 20
2215.122499717487
 30
0.0
  0
VERTEX
  5
1F8
330
1EA
100
AcDbEntity
  8
Calque 1
 62
   193
420
 10040268
370
    50
100
AcDbVertex
100
AcDb2dVertex
 10
1309.928397974384
 20
2215.140930978333
 30
0.0
  0
VERTEX
  5
1F9
330
1EA
100
AcDbEntity
  8
Calque 1
 62
   193
420
 10040268
370
    50
100
AcDbVertex
100
AcDb2dVertex
 10
1309.825992511085
 20
2215.214139257394
 30
0.0
  0
VERTEX
  5
1FA
330
1EA
100
AcDbEntity
  8
Calque 1
 62
   193
420
 10040268
370
    50
100
AcDbVertex
100
AcDb2dVertex
 10
1309.803771645205
 20
2215.231020225272
 30
0.0
  0
VERTEX
  5
1FB
330
1EA
100
AcDbEntity
  8
Calque 1
 62
   193
420
 10040268
370
    50
100
AcDbVertex
100
AcDb2dVertex
 10
1309.70575867865
 20
2215.310085166659
 30
0.0
  0
SEQEND
  5
1FC
330
1EA
100
AcDbEntity
  8
Calque 1
 62
   193
420
 10040268
370
    50
  0
POLYLINE
  5
1FD
330
1F
100
AcDbEntity
  8
Calque 1
 62
   193
420
 10040268
370
    50
100
AcDb2dPolyline
 66
     1
 10
0.0
 20
0.0
 30
0.0
  0
VERTEX
  5
1FE
330
1FD
100
AcDbEntity
  8
Calque 1
 62
   193
420
 10040268
370
    50
100
AcDbVertex
100
AcDb2dVertex
 10
1310.811289819867
 20
2216.240260947676
 30
0.0
  0
VERTEX
  5
1FF
330
1FD
100
AcDbEntity
  8
Calque 1
 62
   193
420
 10040268
370
    50
100
AcDbVertex
100
AcDb2dVertex
 10
1310.811289819867
 20
2216.24043320245
 30
0.0
  0
VERTEX
  5
200
330
1FD
100
AcDbEntity
  8
Calque 1
 62
   193
420
 10040268
370
    50
100
AcDbVertex
100
AcDb2dVertex
 10
1310.810773055544
 20
2216.264376616073
 30
0.0
  0
VERTEX
  5
201
330
1FD
100
AcDbEntity
  8
Calque 1
 62
   193
420
 10040268
370
    50
100
AcDbVertex
100
AcDb2dVertex
 10
1310.811978838964
 20
2216.288320029696
 30
0.0
  0
VERTEX
  5
202
330
1FD
100
AcDbEntity
  8
Calque 1
 62
   193
420
 10040268
370
    50
100
AcDbVertex
100
AcDb2dVertex
 10
1310.814993297513
 20
2216.312091188543
 30
0.0
  0
VERTEX
  5
203
330
1FD
100
AcDbEntity
  8
Calque 1
 62
   193
420
 10040268
370
    50
100
AcDbVertex
100
AcDb2dVertex
 10
1310.81929966687
 20
2216.333278525778
 30
0.0
  0
VERTEX
  5
204
330
1FD
100
AcDbEntity
  8
Calque 1
 62
   193
420
 10040268
370
    50
100
AcDbVertex
100
AcDb2dVertex
 10
1310.826017603066
 20
2216.356188410755
 30
0.0
  0
VERTEX
  5
205
330
1FD
100
AcDbEntity
  8
Calque 1
 62
   193
420
 10040268
370
    50
100
AcDbVertex
100
AcDb2dVertex
 10
1310.835060978715
 20
2216.378409276635
 30
0.0
  0
VERTEX
  5
206
330
1FD
100
AcDbEntity
  8
Calque 1
 62
   193
420
 10040268
370
    50
100
AcDbVertex
100
AcDb2dVertex
 10
1310.838764456362
 20
2216.385816231928
 30
0.0
  0
VERTEX
  5
207
330
1FD
100
AcDbEntity
  8
Calque 1
 62
   193
420
 10040268
370
    50
100
AcDbVertex
100
AcDb2dVertex
 10
1310.851683564431
 20
2216.406142295291
 30
0.0
  0
VERTEX
  5
208
330
1FD
100
AcDbEntity
  8
Calque 1
 62
   193
420
 10040268
370
    50
100
AcDbVertex
100
AcDb2dVertex
 10
1310.868478404922
 20
2216.423367772717
 30
0.0
  0
VERTEX
  5
209
330
1FD
100
AcDbEntity
  8
Calque 1
 62
   193
420
 10040268
370
    50
100
AcDbVertex
100
AcDb2dVertex
 10
1310.883895207218
 20
2216.43318629485
 30
0.0
  0
VERTEX
  5
20A
330
1FD
100
AcDbEntity
  8
Calque 1
 62
   193
420
 10040268
370
    50
100
AcDbVertex
100
AcDb2dVertex
 10
1310.90697734697
 20
2216.439731976272
 30
0.0
  0
SEQEND
  5
20B
330
1FD
100
AcDbEntity
  8
Calque 1
 62
   193
420
 10040268
370
    50
  0
POLYLINE
  5
20C
330
1F
100
AcDbEntity
  8
Calque 1
 62
   193
420
 10040268
370
    50
100
AcDb2dPolyline
 66
     1
 10
0.0
 20
0.0
 30
0.0
  0
VERTEX
  5
20D
330
20C
100
AcDbEntity
  8
Calque 1
 62
   193
420
 10040268
370
    50
100
AcDbVertex
100
AcDb2dVertex
 10
1309.700935544971
 20
2216.736699207101
 30
0.0
  0
VERTEX
  5
20E
330
20C
100
AcDbEntity
  8
Calque 1
 62
   193
420
 10040268
370
    50
100
AcDbVertex
100
AcDb2dVertex
 10
1309.711098576652
 20
2216.728086468388
 30
0.0
  0
VERTEX
  5
20F
330
20C
100
AcDbEntity
  8
Calque 1
 62
   193
420
 10040268
370
    50
100
AcDbVertex
100
AcDb2dVertex
 10
1309.721261608334
 20
2216.712755793478
 30
0.0
  0
VERTEX
  5
210
330
20C
100
AcDbEntity
  8
Calque 1
 62
   193
420
 10040268
370
    50
100
AcDbVertex
100
AcDb2dVertex
 10
1309.723242538238
 20
2216.708277169347
 30
0.0
  0
VERTEX
  5
211
330
20C
100
AcDbEntity
  8
Calque 1
 62
   193
420
 10040268
370
    50
100
AcDbVertex
100
AcDb2dVertex
 10
1309.728065671917
 20
2216.690707182373
 30
0.0
  0
VERTEX
  5
212
330
20C
100
AcDbEntity
  8
Calque 1
 62
   193
420
 10040268
370
    50
100
AcDbVertex
100
AcDb2dVertex
 10
1309.729702092272
 20
2216.672620431075
 30
0.0
  0
VERTEX
  5
213
330
20C
100
AcDbEntity
  8
Calque 1
 62
   193
420
 10040268
370
    50
100
AcDbVertex
100
AcDb2dVertex
 10
1309.729357582724
 20
2216.656945246617
 30
0.0
  0
VERTEX
  5
214
330
20C
100
AcDbEntity
  8
Calque 1
 62
   193
420
 10040268
370
    50
100
AcDbVertex
100
AcDb2dVertex
 10
1309.72737665282
 20
2216.639030750094
 30
0.0
  0
VERTEX
  5
215
330
20C
100
AcDbEntity
  8
Calque 1
 62
   193
420
 10040268
370
    50
100
AcDbVertex
100
AcDb2dVertex
 10
1309.723931557335
 20
2216.621116253571
 30
0.0
  0
VERTEX
  5
216
330
20C
100
AcDbEntity
  8
Calque 1
 62
   193
420
 10040268
370
    50
100
AcDbVertex
100
AcDb2dVertex
 10
1309.723328665625
 20
2216.618360177182
 30
0.0
  0
VERTEX
  5
217
330
20C
100
AcDbEntity
  8
Calque 1
 62
   193
420
 10040268
370
    50
100
AcDbVertex
100
AcDb2dVertex
 10
1309.718591659333
 20
2216.600790190208
 30
0.0
  0
VERTEX
  5
218
330
20C
100
AcDbEntity
  8
Calque 1
 62
   193
420
 10040268
370
    50
100
AcDbVertex
100
AcDb2dVertex
 10
1309.712734997008
 20
2216.583736967556
 30
0.0
  0
VERTEX
  5
219
330
20C
100
AcDbEntity
  8
Calque 1
 62
   193
420
 10040268
370
    50
100
AcDbVertex
100
AcDb2dVertex
 10
1309.70575867865
 20
2216.566855999678
 30
0.0
  0
SEQEND
  5
21A
330
20C
100
AcDbEntity
  8
Calque 1
 62
   193
420
 10040268
370
    50
  0
POLYLINE
  5
21B
330
1F
100
AcDbEntity
  8
Calque 1
 62
   193
420
 10040268
370
    50
100
AcDb2dPolyline
 66
     1
 10
0.0
 20
0.0
 30
0.0
  0
VERTEX
  5
21C
330
21B
100
AcDbEntity
  8
Calque 1
 62
   193
420
 10040268
370
    50
100
AcDbVertex
100
AcDb2dVertex
 10
1309.70575867865
 20
2220.301511760463
 30
0.0
  0
VERTEX
  5
21D
330
21B
100
AcDbEntity
  8
Calque 1
 62
   193
420
 10040268
370
    50
100
AcDbVertex
100
AcDb2dVertex
 10
1309.706878334683
 20
2220.298927938849
 30
0.0
  0
VERTEX
  5
21E
330
21B
100
AcDbEntity
  8
Calque 1
 62
   193
420
 10040268
370
    50
100
AcDbVertex
100
AcDb2dVertex
 10
1309.713682398266
 20
2220.282219225745
 30
0.0
  0
VERTEX
  5
21F
330
21B
100
AcDbEntity
  8
Calque 1
 62
   193
420
 10040268
370
    50
100
AcDbVertex
100
AcDb2dVertex
 10
1309.719366805817
 20
2220.264821493545
 30
0.0
  0
VERTEX
  5
220
330
21B
100
AcDbEntity
  8
Calque 1
 62
   193
420
 10040268
370
    50
100
AcDbVertex
100
AcDb2dVertex
 10
1309.723931557335
 20
2220.24725150657
 30
0.0
  0
VERTEX
  5
221
330
21B
100
AcDbEntity
  8
Calque 1
 62
   193
420
 10040268
370
    50
100
AcDbVertex
100
AcDb2dVertex
 10
1309.725826359852
 20
2220.238638767857
 30
0.0
  0
VERTEX
  5
222
330
21B
100
AcDbEntity
  8
Calque 1
 62
   193
420
 10040268
370
    50
100
AcDbVertex
100
AcDb2dVertex
 10
1309.728668563627
 20
2220.220724271334
 30
0.0
  0
VERTEX
  5
223
330
21B
100
AcDbEntity
  8
Calque 1
 62
   193
420
 10040268
370
    50
100
AcDbVertex
100
AcDb2dVertex
 10
1309.729357582724
 20
2220.214006335138
 30
0.0
  0
VERTEX
  5
224
330
21B
100
AcDbEntity
  8
Calque 1
 62
   193
420
 10040268
370
    50
100
AcDbVertex
100
AcDb2dVertex
 10
1309.729702092272
 20
2220.195747329066
 30
0.0
  0
VERTEX
  5
225
330
21B
100
AcDbEntity
  8
Calque 1
 62
   193
420
 10040268
370
    50
100
AcDbVertex
100
AcDb2dVertex
 10
1309.729529837498
 20
2220.191096450161
 30
0.0
  0
VERTEX
  5
226
330
21B
100
AcDbEntity
  8
Calque 1
 62
   193
420
 10040268
370
    50
100
AcDbVertex
100
AcDb2dVertex
 10
1309.727118270659
 20
2220.172837444089
 30
0.0
  0
VERTEX
  5
227
330
21B
100
AcDbEntity
  8
Calque 1
 62
   193
420
 10040268
370
    50
100
AcDbVertex
100
AcDb2dVertex
 10
1309.721347735721
 20
2220.155611966662
 30
0.0
  0
VERTEX
  5
228
330
21B
100
AcDbEntity
  8
Calque 1
 62
   193
420
 10040268
370
    50
100
AcDbVertex
100
AcDb2dVertex
 10
1309.714285289976
 20
2220.144070896787
 30
0.0
  0
VERTEX
  5
229
330
21B
100
AcDbEntity
  8
Calque 1
 62
   193
420
 10040268
370
    50
100
AcDbVertex
100
AcDb2dVertex
 10
1309.700935544971
 20
2220.13166855304
 30
0.0
  0
SEQEND
  5
22A
330
21B
100
AcDbEntity
  8
Calque 1
 62
   193
420
 10040268
370
    50
  0
POLYLINE
  5
22B
330
1F
100
AcDbEntity
  8
Calque 1
 62
   193
420
 10040268
370
    50
100
AcDb2dPolyline
 66
     1
 10
0.0
 20
0.0
 30
0.0
  0
VERTEX
  5
22C
330
22B
100
AcDbEntity
  8
Calque 1
 62
   193
420
 10040268
370
    50
100
AcDbVertex
100
AcDb2dVertex
 10
1310.90697734697
 20
2220.428635783869
 30
0.0
  0
VERTEX
  5
22D
330
22B
100
AcDbEntity
  8
Calque 1
 62
   193
420
 10040268
370
    50
100
AcDbVertex
100
AcDb2dVertex
 10
1310.889665742156
 20
2220.432769898451
 30
0.0
  0
VERTEX
  5
22E
330
22B
100
AcDbEntity
  8
Calque 1
 62
   193
420
 10040268
370
    50
100
AcDbVertex
100
AcDb2dVertex
 10
1310.868564532309
 20
2220.444999987424
 30
0.0
  0
VERTEX
  5
22F
330
22B
100
AcDbEntity
  8
Calque 1
 62
   193
420
 10040268
370
    50
100
AcDbVertex
100
AcDb2dVertex
 10
1310.866755857179
 20
2220.446378025618
 30
0.0
  0
VERTEX
  5
230
330
22B
100
AcDbEntity
  8
Calque 1
 62
   193
420
 10040268
370
    50
100
AcDbVertex
100
AcDb2dVertex
 10
1310.850391653624
 20
2220.463948012592
 30
0.0
  0
VERTEX
  5
231
330
22B
100
AcDbEntity
  8
Calque 1
 62
   193
420
 10040268
370
    50
100
AcDbVertex
100
AcDb2dVertex
 10
1310.846860430752
 20
2220.468943401046
 30
0.0
  0
VERTEX
  5
232
330
22B
100
AcDbEntity
  8
Calque 1
 62
   193
420
 10040268
370
    50
100
AcDbVertex
100
AcDb2dVertex
 10
1310.835060978715
 20
2220.489958483506
 30
0.0
  0
VERTEX
  5
233
330
22B
100
AcDbEntity
  8
Calque 1
 62
   193
420
 10040268
370
    50
100
AcDbVertex
100
AcDb2dVertex
 10
1310.83101299152
 20
2220.498743476994
 30
0.0
  0
VERTEX
  5
234
330
22B
100
AcDbEntity
  8
Calque 1
 62
   193
420
 10040268
370
    50
100
AcDbVertex
100
AcDb2dVertex
 10
1310.822744762355
 20
2220.521308852422
 30
0.0
  0
VERTEX
  5
235
330
22B
100
AcDbEntity
  8
Calque 1
 62
   193
420
 10040268
370
    50
100
AcDbVertex
100
AcDb2dVertex
 10
1310.819644176418
 20
2220.532849922297
 30
0.0
  0
VERTEX
  5
236
330
22B
100
AcDbEntity
  8
Calque 1
 62
   193
420
 10040268
370
    50
100
AcDbVertex
100
AcDb2dVertex
 10
1310.814907170126
 20
2220.556276571597
 30
0.0
  0
VERTEX
  5
237
330
22B
100
AcDbEntity
  8
Calque 1
 62
   193
420
 10040268
370
    50
100
AcDbVertex
100
AcDb2dVertex
 10
1310.812064966351
 20
2220.58021998522
 30
0.0
  0
VERTEX
  5
238
330
22B
100
AcDbEntity
  8
Calque 1
 62
   193
420
 10040268
370
    50
100
AcDbVertex
100
AcDb2dVertex
 10
1310.810773055544
 20
2220.604163398842
 30
0.0
  0
VERTEX
  5
239
330
22B
100
AcDbEntity
  8
Calque 1
 62
   193
420
 10040268
370
    50
100
AcDbVertex
100
AcDb2dVertex
 10
1310.811289819867
 20
2220.628106812464
 30
0.0
  0
SEQEND
  5
23A
330
22B
100
AcDbEntity
  8
Calque 1
 62
   193
420
 10040268
370
    50
  0
POLYLINE
  5
23B
330
1F
100
AcDbEntity
  8
Calque 1
 62
   193
420
 10040268
370
    50
100
AcDb2dPolyline
 66
     1
 10
0.0
 20
0.0
 30
0.0
  0
VERTEX
  5
23C
330
23B
100
AcDbEntity
  8
Calque 1
 62
   193
420
 10040268
370
    50
100
AcDbVertex
100
AcDb2dVertex
 10
1310.811289819867
 20
2274.230691977015
 30
0.0
  0
VERTEX
  5
23D
330
23B
100
AcDbEntity
  8
Calque 1
 62
   193
420
 10040268
370
    50
100
AcDbVertex
100
AcDb2dVertex
 10
1310.812926240222
 20
2274.255496664509
 30
0.0
  0
VERTEX
  5
23E
330
23B
100
AcDbEntity
  8
Calque 1
 62
   193
420
 10040268
370
    50
100
AcDbVertex
100
AcDb2dVertex
 10
1310.81628520832
 20
2274.280473606777
 30
0.0
  0
VERTEX
  5
23F
330
23B
100
AcDbEntity
  8
Calque 1
 62
   193
420
 10040268
370
    50
100
AcDbVertex
100
AcDb2dVertex
 10
1310.821538978935
 20
2274.305278294271
 30
0.0
  0
VERTEX
  5
240
330
23B
100
AcDbEntity
  8
Calque 1
 62
   193
420
 10040268
370
    50
100
AcDbVertex
100
AcDb2dVertex
 10
1310.828084660357
 20
2274.327671414925
 30
0.0
  0
VERTEX
  5
241
330
23B
100
AcDbEntity
  8
Calque 1
 62
   193
420
 10040268
370
    50
100
AcDbVertex
100
AcDb2dVertex
 10
1310.83730029078
 20
2274.351098064225
 30
0.0
  0
VERTEX
  5
242
330
23B
100
AcDbEntity
  8
Calque 1
 62
   193
420
 10040268
370
    50
100
AcDbVertex
100
AcDb2dVertex
 10
1310.848927488043
 20
2274.373663439653
 30
0.0
  0
VERTEX
  5
243
330
23B
100
AcDbEntity
  8
Calque 1
 62
   193
420
 10040268
370
    50
100
AcDbVertex
100
AcDb2dVertex
 10
1310.853750621722
 20
2274.381414904495
 30
0.0
  0
VERTEX
  5
244
330
23B
100
AcDbEntity
  8
Calque 1
 62
   193
420
 10040268
370
    50
100
AcDbVertex
100
AcDb2dVertex
 10
1310.869253551406
 20
2274.401568713084
 30
0.0
  0
VERTEX
  5
245
330
23B
100
AcDbEntity
  8
Calque 1
 62
   193
420
 10040268
370
    50
100
AcDbVertex
100
AcDb2dVertex
 10
1310.888718340898
 20
2274.417760661865
 30
0.0
  0
VERTEX
  5
246
330
23B
100
AcDbEntity
  8
Calque 1
 62
   193
420
 10040268
370
    50
100
AcDbVertex
100
AcDb2dVertex
 10
1310.905513181388
 20
2274.426201145803
 30
0.0
  0
VERTEX
  5
247
330
23B
100
AcDbEntity
  8
Calque 1
 62
   193
420
 10040268
370
    50
100
AcDbVertex
100
AcDb2dVertex
 10
1310.930490123656
 20
2274.43050751516
 30
0.0
  0
SEQEND
  5
248
330
23B
100
AcDbEntity
  8
Calque 1
 62
   193
420
 10040268
370
    50
  0
POLYLINE
  5
249
330
1F
100
AcDbEntity
  8
Calque 1
 62
   193
420
 10040268
370
    50
100
AcDb2dPolyline
 66
     1
 10
0.0
 20
0.0
 30
0.0
  0
VERTEX
  5
24A
330
249
100
AcDbEntity
  8
Calque 1
 62
   193
420
 10040268
370
    50
100
AcDbVertex
100
AcDb2dVertex
 10
1310.758579858942
 20
2274.43412486542
 30
0.0
  0
VERTEX
  5
24B
330
249
100
AcDbEntity
  8
Calque 1
 62
   193
420
 10040268
370
    50
100
AcDbVertex
100
AcDb2dVertex
 10
1310.748072317712
 20
2274.432402317677
 30
0.0
  0
VERTEX
  5
24C
330
249
100
AcDbEntity
  8
Calque 1
 62
   193
420
 10040268
370
    50
100
AcDbVertex
100
AcDb2dVertex
 10
1310.727832381737
 20
2274.420172228704
 30
0.0
  0
VERTEX
  5
24D
330
249
100
AcDbEntity
  8
Calque 1
 62
   193
420
 10040268
370
    50
100
AcDbVertex
100
AcDb2dVertex
 10
1310.723009248057
 20
2274.415349095025
 30
0.0
  0
VERTEX
  5
24E
330
249
100
AcDbEntity
  8
Calque 1
 62
   193
420
 10040268
370
    50
100
AcDbVertex
100
AcDb2dVertex
 10
1310.709487248278
 20
2274.39657332463
 30
0.0
  0
VERTEX
  5
24F
330
249
100
AcDbEntity
  8
Calque 1
 62
   193
420
 10040268
370
    50
100
AcDbVertex
100
AcDb2dVertex
 10
1310.699582598757
 20
2274.37555824217
 30
0.0
  0
VERTEX
  5
250
330
249
100
AcDbEntity
  8
Calque 1
 62
   193
420
 10040268
370
    50
100
AcDbVertex
100
AcDb2dVertex
 10
1310.699238089209
 20
2274.374524713524
 30
0.0
  0
VERTEX
  5
251
330
249
100
AcDbEntity
  8
Calque 1
 62
   193
420
 10040268
370
    50
100
AcDbVertex
100
AcDb2dVertex
 10
1310.691572751754
 20
2274.352648357193
 30
0.0
  0
VERTEX
  5
252
330
249
100
AcDbEntity
  8
Calque 1
 62
   193
420
 10040268
370
    50
100
AcDbVertex
100
AcDb2dVertex
 10
1310.685543834655
 20
2274.330427491313
 30
0.0
  0
VERTEX
  5
253
330
249
100
AcDbEntity
  8
Calque 1
 62
   193
420
 10040268
370
    50
100
AcDbVertex
100
AcDb2dVertex
 10
1310.681065210524
 20
2274.307862115885
 30
0.0
  0
VERTEX
  5
254
330
249
100
AcDbEntity
  8
Calque 1
 62
   193
420
 10040268
370
    50
100
AcDbVertex
100
AcDb2dVertex
 10
1310.68029006404
 20
2274.30321123698
 30
0.0
  0
VERTEX
  5
255
330
249
100
AcDbEntity
  8
Calque 1
 62
   193
420
 10040268
370
    50
100
AcDbVertex
100
AcDb2dVertex
 10
1310.677447860265
 20
2274.280301352003
 30
0.0
  0
VERTEX
  5
256
330
249
100
AcDbEntity
  8
Calque 1
 62
   193
420
 10040268
370
    50
100
AcDbVertex
100
AcDb2dVertex
 10
1310.675725312522
 20
2274.257219212252
 30
0.0
  0
VERTEX
  5
257
330
249
100
AcDbEntity
  8
Calque 1
 62
   193
420
 10040268
370
    50
100
AcDbVertex
100
AcDb2dVertex
 10
1310.675208548199
 20
2274.234137072501
 30
0.0
  0
SEQEND
  5
258
330
249
100
AcDbEntity
  8
Calque 1
 62
   193
420
 10040268
370
    50
  0
POLYLINE
  5
259
330
1F
100
AcDbEntity
  8
Calque 1
 62
   193
420
 10040268
370
    50
100
AcDb2dPolyline
 66
     1
 10
0.0
 20
0.0
 30
0.0
  0
VERTEX
  5
25A
330
259
100
AcDbEntity
  8
Calque 1
 62
   193
420
 10040268
370
    50
100
AcDbVertex
100
AcDb2dVertex
 10
1309.512144312379
 20
2274.16299585073
 30
0.0
  0
VERTEX
  5
25B
330
259
100
AcDbEntity
  8
Calque 1
 62
   193
420
 10040268
370
    50
100
AcDbVertex
100
AcDb2dVertex
 10
1309.529025280257
 20
2274.167474474861
 30
0.0
  0
VERTEX
  5
25C
330
259
100
AcDbEntity
  8
Calque 1
 62
   193
420
 10040268
370
    50
100
AcDbVertex
100
AcDb2dVertex
 10
1309.558480846656
 20
2274.164373888924
 30
0.0
  0
VERTEX
  5
25D
330
259
100
AcDbEntity
  8
Calque 1
 62
   193
420
 10040268
370
    50
100
AcDbVertex
100
AcDb2dVertex
 10
1309.561236923044
 20
2274.163684869827
 30
0.0
  0
VERTEX
  5
25E
330
259
100
AcDbEntity
  8
Calque 1
 62
   193
420
 10040268
370
    50
100
AcDbVertex
100
AcDb2dVertex
 10
1309.587247393957
 20
2274.151110271306
 30
0.0
  0
VERTEX
  5
25F
330
259
100
AcDbEntity
  8
Calque 1
 62
   193
420
 10040268
370
    50
100
AcDbVertex
100
AcDb2dVertex
 10
1309.594998858799
 20
2274.145942628078
 30
0.0
  0
VERTEX
  5
260
330
259
100
AcDbEntity
  8
Calque 1
 62
   193
420
 10040268
370
    50
100
AcDbVertex
100
AcDb2dVertex
 10
1309.617478106841
 20
2274.127683622006
 30
0.0
  0
VERTEX
  5
261
330
259
100
AcDbEntity
  8
Calque 1
 62
   193
420
 10040268
370
    50
100
AcDbVertex
100
AcDb2dVertex
 10
1309.627468883748
 20
2274.117865099874
 30
0.0
  0
VERTEX
  5
262
330
259
100
AcDbEntity
  8
Calque 1
 62
   193
420
 10040268
370
    50
100
AcDbVertex
100
AcDb2dVertex
 10
1309.646158526755
 20
2274.095816488768
 30
0.0
  0
VERTEX
  5
263
330
259
100
AcDbEntity
  8
Calque 1
 62
   193
420
 10040268
370
    50
100
AcDbVertex
100
AcDb2dVertex
 10
1309.655804794114
 20
2274.082725125924
 30
0.0
  0
VERTEX
  5
264
330
259
100
AcDbEntity
  8
Calque 1
 62
   193
420
 10040268
370
    50
100
AcDbVertex
100
AcDb2dVertex
 10
1309.671479978572
 20
2274.058437202753
 30
0.0
  0
VERTEX
  5
265
330
259
100
AcDbEntity
  8
Calque 1
 62
   193
420
 10040268
370
    50
100
AcDbVertex
100
AcDb2dVertex
 10
1309.684312959254
 20
2274.034838298679
 30
0.0
  0
VERTEX
  5
266
330
259
100
AcDbEntity
  8
Calque 1
 62
   193
420
 10040268
370
    50
100
AcDbVertex
100
AcDb2dVertex
 10
1309.696198538678
 20
2274.008311063442
 30
0.0
  0
VERTEX
  5
267
330
259
100
AcDbEntity
  8
Calque 1
 62
   193
420
 10040268
370
    50
100
AcDbVertex
100
AcDb2dVertex
 10
1309.70575867865
 20
2273.981094809109
 30
0.0
  0
SEQEND
  5
268
330
259
100
AcDbEntity
  8
Calque 1
 62
   193
420
 10040268
370
    50
  0
POLYLINE
  5
269
330
1F
100
AcDbEntity
  8
Calque 1
 62
   193
420
 10040268
370
    50
100
AcDb2dPolyline
 66
     1
 10
0.0
 20
0.0
 30
0.0
  0
VERTEX
  5
26A
330
269
100
AcDbEntity
  8
Calque 1
 62
   193
420
 10040268
370
    50
100
AcDbVertex
100
AcDb2dVertex
 10
1310.811289819867
 20
2216.240260947676
 30
0.0
  0
VERTEX
  5
26B
330
269
100
AcDbEntity
  8
Calque 1
 62
   193
420
 10040268
370
    50
100
AcDbVertex
100
AcDb2dVertex
 10
1310.795700762796
 20
2216.238882909482
 30
0.0
  0
VERTEX
  5
26C
330
269
100
AcDbEntity
  8
Calque 1
 62
   193
420
 10040268
370
    50
100
AcDbVertex
100
AcDb2dVertex
 10
1310.6778784972
 20
2216.234232030577
 30
0.0
  0
VERTEX
  5
26D
330
269
100
AcDbEntity
  8
Calque 1
 62
   193
420
 10040268
370
    50
100
AcDbVertex
100
AcDb2dVertex
 10
1310.653504446642
 20
2216.234404285351
 30
0.0
  0
VERTEX
  5
26E
330
269
100
AcDbEntity
  8
Calque 1
 62
   193
420
 10040268
370
    50
100
AcDbVertex
100
AcDb2dVertex
 10
1310.535768308434
 20
2216.240605457225
 30
0.0
  0
VERTEX
  5
26F
330
269
100
AcDbEntity
  8
Calque 1
 62
   193
420
 10040268
370
    50
100
AcDbVertex
100
AcDb2dVertex
 10
1310.462043265049
 20
2216.249045941163
 30
0.0
  0
VERTEX
  5
270
330
269
100
AcDbEntity
  8
Calque 1
 62
   193
420
 10040268
370
    50
100
AcDbVertex
100
AcDb2dVertex
 10
1310.387112438245
 20
2216.26144828491
 30
0.0
  0
VERTEX
  5
271
330
269
100
AcDbEntity
  8
Calque 1
 62
   193
420
 10040268
370
    50
100
AcDbVertex
100
AcDb2dVertex
 10
1310.35274761078
 20
2216.268510730655
 30
0.0
  0
VERTEX
  5
272
330
269
100
AcDbEntity
  8
Calque 1
 62
   193
420
 10040268
370
    50
100
AcDbVertex
100
AcDb2dVertex
 10
1310.238542695444
 20
2216.297449532731
 30
0.0
  0
VERTEX
  5
273
330
269
100
AcDbEntity
  8
Calque 1
 62
   193
420
 10040268
370
    50
100
AcDbVertex
100
AcDb2dVertex
 10
1310.164903779447
 20
2216.321048436805
 30
0.0
  0
VERTEX
  5
274
330
269
100
AcDbEntity
  8
Calque 1
 62
   193
420
 10040268
370
    50
100
AcDbVertex
100
AcDb2dVertex
 10
1310.092212264708
 20
2216.348436945913
 30
0.0
  0
VERTEX
  5
275
330
269
100
AcDbEntity
  8
Calque 1
 62
   193
420
 10040268
370
    50
100
AcDbVertex
100
AcDb2dVertex
 10
1310.059742239759
 20
2216.361872818306
 30
0.0
  0
VERTEX
  5
276
330
269
100
AcDbEntity
  8
Calque 1
 62
   193
420
 10040268
370
    50
100
AcDbVertex
100
AcDb2dVertex
 10
1309.953030407104
 20
2216.411998957616
 30
0.0
  0
VERTEX
  5
277
330
269
100
AcDbEntity
  8
Calque 1
 62
   193
420
 10040268
370
    50
100
AcDbVertex
100
AcDb2dVertex
 10
1309.886626191626
 20
2216.448000205437
 30
0.0
  0
VERTEX
  5
278
330
269
100
AcDbEntity
  8
Calque 1
 62
   193
420
 10040268
370
    50
100
AcDbVertex
100
AcDb2dVertex
 10
1309.823408689471
 20
2216.486068510549
 30
0.0
  0
VERTEX
  5
279
330
269
100
AcDbEntity
  8
Calque 1
 62
   193
420
 10040268
370
    50
100
AcDbVertex
100
AcDb2dVertex
 10
1309.802479734399
 20
2216.499504382941
 30
0.0
  0
VERTEX
  5
27A
330
269
100
AcDbEntity
  8
Calque 1
 62
   193
420
 10040268
370
    50
100
AcDbVertex
100
AcDb2dVertex
 10
1309.70575867865
 20
2216.566855999678
 30
0.0
  0
SEQEND
  5
27B
330
269
100
AcDbEntity
  8
Calque 1
 62
   193
420
 10040268
370
    50
  0
POLYLINE
  5
27C
330
1F
100
AcDbEntity
  8
Calque 1
 62
   193
420
 10040268
370
    50
100
AcDb2dPolyline
 66
     1
 10
0.0
 20
0.0
 30
0.0
  0
VERTEX
  5
27D
330
27C
100
AcDbEntity
  8
Calque 1
 62
   193
420
 10040268
370
    50
100
AcDbVertex
100
AcDb2dVertex
 10
1309.70575867865
 20
2215.310085166659
 30
0.0
  0
VERTEX
  5
27E
330
27C
100
AcDbEntity
  8
Calque 1
 62
   193
420
 10040268
370
    50
100
AcDbVertex
100
AcDb2dVertex
 10
1309.726343124174
 20
2215.292515179684
 30
0.0
  0
VERTEX
  5
27F
330
27C
100
AcDbEntity
  8
Calque 1
 62
   193
420
 10040268
370
    50
100
AcDbVertex
100
AcDb2dVertex
 10
1309.825303491988
 20
2215.214656021717
 30
0.0
  0
VERTEX
  5
280
330
27C
100
AcDbEntity
  8
Calque 1
 62
   193
420
 10040268
370
    50
100
AcDbVertex
100
AcDb2dVertex
 10
1309.852605873709
 20
2215.194502213129
 30
0.0
  0
VERTEX
  5
281
330
27C
100
AcDbEntity
  8
Calque 1
 62
   193
420
 10040268
370
    50
100
AcDbVertex
100
AcDb2dVertex
 10
1309.955786483492
 20
2215.122155207938
 30
0.0
  0
VERTEX
  5
282
330
27C
100
AcDbEntity
  8
Calque 1
 62
   193
420
 10040268
370
    50
100
AcDbVertex
100
AcDb2dVertex
 10
1309.986189451149
 20
2215.102173654124
 30
0.0
  0
VERTEX
  5
283
330
27C
100
AcDbEntity
  8
Calque 1
 62
   193
420
 10040268
370
    50
100
AcDbVertex
100
AcDb2dVertex
 10
1310.092987411192
 20
2215.03533880171
 30
0.0
  0
VERTEX
  5
284
330
27C
100
AcDbEntity
  8
Calque 1
 62
   193
420
 10040268
370
    50
100
AcDbVertex
100
AcDb2dVertex
 10
1310.126232582625
 20
2215.015701757444
 30
0.0
  0
VERTEX
  5
285
330
27C
100
AcDbEntity
  8
Calque 1
 62
   193
420
 10040268
370
    50
100
AcDbVertex
100
AcDb2dVertex
 10
1310.236303383379
 20
2214.954379057807
 30
0.0
  0
VERTEX
  5
286
330
27C
100
AcDbEntity
  8
Calque 1
 62
   193
420
 10040268
370
    50
100
AcDbVertex
100
AcDb2dVertex
 10
1310.310200681537
 20
2214.916827517017
 30
0.0
  0
VERTEX
  5
287
330
27C
100
AcDbEntity
  8
Calque 1
 62
   193
420
 10040268
370
    50
100
AcDbVertex
100
AcDb2dVertex
 10
1310.384011852309
 20
2214.881859797842
 30
0.0
  0
VERTEX
  5
288
330
27C
100
AcDbEntity
  8
Calque 1
 62
   193
420
 10040268
370
    50
100
AcDbVertex
100
AcDb2dVertex
 10
1310.415017711676
 20
2214.868079415901
 30
0.0
  0
VERTEX
  5
289
330
27C
100
AcDbEntity
  8
Calque 1
 62
   193
420
 10040268
370
    50
100
AcDbVertex
100
AcDb2dVertex
 10
1310.531289684303
 20
2214.819675824333
 30
0.0
  0
VERTEX
  5
28A
330
27C
100
AcDbEntity
  8
Calque 1
 62
   193
420
 10040268
370
    50
100
AcDbVertex
100
AcDb2dVertex
 10
1310.604497963365
 20
2214.792287315226
 30
0.0
  0
VERTEX
  5
28B
330
27C
100
AcDbEntity
  8
Calque 1
 62
   193
420
 10040268
370
    50
100
AcDbVertex
100
AcDb2dVertex
 10
1310.675811439909
 20
2214.767654882506
 30
0.0
  0
VERTEX
  5
28C
330
27C
100
AcDbEntity
  8
Calque 1
 62
   193
420
 10040268
370
    50
100
AcDbVertex
100
AcDb2dVertex
 10
1310.690453095722
 20
2214.762831748827
 30
0.0
  0
VERTEX
  5
28D
330
27C
100
AcDbEntity
  8
Calque 1
 62
   193
420
 10040268
370
    50
100
AcDbVertex
100
AcDb2dVertex
 10
1310.811289819867
 20
2214.727347265329
 30
0.0
  0
SEQEND
  5
28E
330
27C
100
AcDbEntity
  8
Calque 1
 62
   193
420
 10040268
370
    50
  0
POLYLINE
  5
28F
330
1F
100
AcDbEntity
  8
Calque 1
 62
   193
420
 10040268
370
    50
100
AcDb2dPolyline
 66
     1
 10
0.0
 20
0.0
 30
0.0
  0
VERTEX
  5
290
330
28F
100
AcDbEntity
  8
Calque 1
 62
   193
420
 10040268
370
    50
100
AcDbVertex
100
AcDb2dVertex
 10
1310.675208548199
 20
2274.234137072501
 30
0.0
  0
VERTEX
  5
291
330
28F
100
AcDbEntity
  8
Calque 1
 62
   193
420
 10040268
370
    50
100
AcDbVertex
100
AcDb2dVertex
 10
1310.629388778246
 20
2274.233620308178
 30
0.0
  0
VERTEX
  5
292
330
28F
100
AcDbEntity
  8
Calque 1
 62
   193
420
 10040268
370
    50
100
AcDbVertex
100
AcDb2dVertex
 10
1310.528275225753
 20
2274.228624919724
 30
0.0
  0
VERTEX
  5
293
330
28F
100
AcDbEntity
  8
Calque 1
 62
   193
420
 10040268
370
    50
100
AcDbVertex
100
AcDb2dVertex
 10
1310.42750618281
 20
2274.218289633268
 30
0.0
  0
VERTEX
  5
294
330
28F
100
AcDbEntity
  8
Calque 1
 62
   193
420
 10040268
370
    50
100
AcDbVertex
100
AcDb2dVertex
 10
1310.398308998572
 20
2274.21432777346
 30
0.0
  0
VERTEX
  5
295
330
28F
100
AcDbEntity
  8
Calque 1
 62
   193
420
 10040268
370
    50
100
AcDbVertex
100
AcDb2dVertex
 10
1310.298487356887
 20
2274.197446805583
 30
0.0
  0
VERTEX
  5
296
330
28F
100
AcDbEntity
  8
Calque 1
 62
   193
420
 10040268
370
    50
100
AcDbVertex
100
AcDb2dVertex
 10
1310.269462427424
 20
2274.191590143258
 30
0.0
  0
VERTEX
  5
297
330
28F
100
AcDbEntity
  8
Calque 1
 62
   193
420
 10040268
370
    50
100
AcDbVertex
100
AcDb2dVertex
 10
1310.171018823933
 20
2274.167991239184
 30
0.0
  0
VERTEX
  5
298
330
28F
100
AcDbEntity
  8
Calque 1
 62
   193
420
 10040268
370
    50
100
AcDbVertex
100
AcDb2dVertex
 10
1310.107973576553
 20
2274.150248997435
 30
0.0
  0
VERTEX
  5
299
330
28F
100
AcDbEntity
  8
Calque 1
 62
   193
420
 10040268
370
    50
100
AcDbVertex
100
AcDb2dVertex
 10
1310.04561734827
 20
2274.13026744362
 30
0.0
  0
VERTEX
  5
29A
330
28F
100
AcDbEntity
  8
Calque 1
 62
   193
420
 10040268
370
    50
100
AcDbVertex
100
AcDb2dVertex
 10
1310.020123641679
 20
2274.121482450133
 30
0.0
  0
VERTEX
  5
29B
330
28F
100
AcDbEntity
  8
Calque 1
 62
   193
420
 10040268
370
    50
100
AcDbVertex
100
AcDb2dVertex
 10
1309.925469643222
 20
2274.085653457086
 30
0.0
  0
VERTEX
  5
29C
330
28F
100
AcDbEntity
  8
Calque 1
 62
   193
420
 10040268
370
    50
100
AcDbVertex
100
AcDb2dVertex
 10
1309.904368433375
 20
2274.077040718373
 30
0.0
  0
VERTEX
  5
29D
330
28F
100
AcDbEntity
  8
Calque 1
 62
   193
420
 10040268
370
    50
100
AcDbVertex
100
AcDb2dVertex
 10
1309.811953746983
 20
2274.035527317776
 30
0.0
  0
VERTEX
  5
29E
330
28F
100
AcDbEntity
  8
Calque 1
 62
   193
420
 10040268
370
    50
100
AcDbVertex
100
AcDb2dVertex
 10
1309.795675670815
 20
2274.02760359816
 30
0.0
  0
VERTEX
  5
29F
330
28F
100
AcDbEntity
  8
Calque 1
 62
   193
420
 10040268
370
    50
100
AcDbVertex
100
AcDb2dVertex
 10
1309.70575867865
 20
2273.981094809109
 30
0.0
  0
SEQEND
  5
2A0
330
28F
100
AcDbEntity
  8
Calque 1
 62
   193
420
 10040268
370
    50
  0
POLYLINE
  5
2A1
330
1F
100
AcDbEntity
  8
Calque 1
 62
   250
420
  2236966
370
    50
100
AcDb2dPolyline
 66
     1
 10
0.0
 20
0.0
 30
0.0
  0
VERTEX
  5
2A2
330
2A1
100
AcDbEntity
  8
Calque 1
 62
   250
420
  2236966
370
    50
100
AcDbVertex
100
AcDb2dVertex
 10
1287.758519507704
 20
274.4341747021705
 30
0.0
  0
VERTEX
  5
2A3
330
2A1
100
AcDbEntity
  8
Calque 1
 62
   250
420
  2236966
370
    50
100
AcDbVertex
100
AcDb2dVertex
 10
1287.758519507704
 20
2255.434251009492
 30
0.0
  0
SEQEND
  5
2A4
330
2A1
100
AcDbEntity
  8
Calque 1
 62
   250
420
  2236966
370
    50
  0
POLYLINE
  5
2A5
330
1F
100
AcDbEntity
  8
Calque 1
 62
   250
420
  2236966
370
    50
100
AcDb2dPolyline
 66
     1
 10
0.0
 20
0.0
 30
0.0
  0
VERTEX
  5
2A6
330
2A5
100
AcDbEntity
  8
Calque 1
 62
   250
420
  2236966
370
    50
100
AcDbVertex
100
AcDb2dVertex
 10
1287.958507300623
 20
2255.434251009492
 30
0.0
  0
VERTEX
  5
2A7
330
2A5
100
AcDbEntity
  8
Calque 1
 62
   250
420
  2236966
370
    50
100
AcDbVertex
100
AcDb2dVertex
 10
1287.958507300623
 20
274.4341747021705
 30
0.0
  0
SEQEND
  5
2A8
330
2A5
100
AcDbEntity
  8
Calque 1
 62
   250
420
  2236966
370
    50
  0
POLYLINE
  5
2A9
330
1F
100
AcDbEntity
  8
Calque 1
 62
   250
420
  2236966
370
    50
100
AcDb2dPolyline
 66
     1
 10
0.0
 20
0.0
 30
0.0
  0
VERTEX
  5
2AA
330
2A9
100
AcDbEntity
  8
Calque 1
 62
   250
420
  2236966
370
    50
100
AcDbVertex
100
AcDb2dVertex
 10
1294.508581219342
 20
2259.434179122642
 30
0.0
  0
VERTEX
  5
2AB
330
2A9
100
AcDbEntity
  8
Calque 1
 62
   250
420
  2236966
370
    50
100
AcDbVertex
100
AcDb2dVertex
 10
1294.508581219342
 20
274.4341747021705
 30
0.0
  0
SEQEND
  5
2AC
330
2A9
100
AcDbEntity
  8
Calque 1
 62
   250
420
  2236966
370
    50
  0
POLYLINE
  5
2AD
330
1F
100
AcDbEntity
  8
Calque 1
 62
   250
420
  2236966
370
    50
100
AcDb2dPolyline
 66
     1
 10
0.0
 20
0.0
 30
0.0
  0
VERTEX
  5
2AE
330
2AD
100
AcDbEntity
  8
Calque 1
 62
   250
420
  2236966
370
    50
100
AcDbVertex
100
AcDb2dVertex
 10
1307.008507295861
 20
2259.434179122642
 30
0.0
  0
VERTEX
  5
2AF
330
2AD
100
AcDbEntity
  8
Calque 1
 62
   250
420
  2236966
370
    50
100
AcDbVertex
100
AcDb2dVertex
 10
1307.008507295861
 20
274.4341747021705
 30
0.0
  0
SEQEND
  5
2B0
330
2AD
100
AcDbEntity
  8
Calque 1
 62
   250
420
  2236966
370
    50
  0
POLYLINE
  5
2B1
330
1F
100
AcDbEntity
  8
Calque 1
 62
   250
420
  2236966
370
    50
100
AcDb2dPolyline
 66
     1
 10
0.0
 20
0.0
 30
0.0
  0
VERTEX
  5
2B2
330
2B1
100
AcDbEntity
  8
Calque 1
 62
   250
420
  2236966
370
    50
100
AcDbVertex
100
AcDb2dVertex
 10
1307.008507295861
 20
2259.434179122642
 30
0.0
  0
VERTEX
  5
2B3
330
2B1
100
AcDbEntity
  8
Calque 1
 62
   250
420
  2236966
370
    50
100
AcDbVertex
100
AcDb2dVertex
 10
1294.508581219342
 20
2259.434179122642
 30
0.0
  0
SEQEND
  5
2B4
330
2B1
100
AcDbEntity
  8
Calque 1
 62
   250
420
  2236966
370
    50
  0
POLYLINE
  5
2B5
330
1F
100
AcDbEntity
  8
Calque 1
 62
   250
420
  2236966
370
    50
100
AcDb2dPolyline
 66
     1
 10
0.0
 20
0.0
 30
0.0
  0
VERTEX
  5
2B6
330
2B5
100
AcDbEntity
  8
Calque 1
 62
   250
420
  2236966
370
    50
100
AcDbVertex
100
AcDb2dVertex
 10
1290.75850865626
 20
2274.43412486542
 30
0.0
  0
VERTEX
  5
2B7
330
2B5
100
AcDbEntity
  8
Calque 1
 62
   250
420
  2236966
370
    50
100
AcDbVertex
100
AcDb2dVertex
 10
1290.75850865626
 20
2255.434251009492
 30
0.0
  0
SEQEND
  5
2B8
330
2B5
100
AcDbEntity
  8
Calque 1
 62
   250
420
  2236966
370
    50
  0
POLYLINE
  5
2B9
330
1F
100
AcDbEntity
  8
Calque 1
 62
   250
420
  2236966
370
    50
100
AcDb2dPolyline
 66
     1
 10
0.0
 20
0.0
 30
0.0
  0
VERTEX
  5
2BA
330
2B9
100
AcDbEntity
  8
Calque 1
 62
   250
420
  2236966
370
    50
100
AcDbVertex
100
AcDb2dVertex
 10
1290.75850865626
 20
2255.434251009492
 30
0.0
  0
VERTEX
  5
2BB
330
2B9
100
AcDbEntity
  8
Calque 1
 62
   250
420
  2236966
370
    50
100
AcDbVertex
100
AcDb2dVertex
 10
349.758539070004
 20
2255.434251009492
 30
0.0
  0
SEQEND
  5
2BC
330
2B9
100
AcDbEntity
  8
Calque 1
 62
   250
420
  2236966
370
    50
  0
POLYLINE
  5
2BD
330
1F
100
AcDbEntity
  8
Calque 1
 62
   250
420
  2236966
370
    50
100
AcDb2dPolyline
 66
     1
 10
0.0
 20
0.0
 30
0.0
  0
VERTEX
  5
2BE
330
2BD
100
AcDbEntity
  8
Calque 1
 62
   250
420
  2236966
370
    50
100
AcDbVertex
100
AcDb2dVertex
 10
349.758539070004
 20
2274.43412486542
 30
0.0
  0
VERTEX
  5
2BF
330
2BD
100
AcDbEntity
  8
Calque 1
 62
   250
420
  2236966
370
    50
100
AcDbVertex
100
AcDb2dVertex
 10
1290.75850865626
 20
2274.43412486542
 30
0.0
  0
SEQEND
  5
2C0
330
2BD
100
AcDbEntity
  8
Calque 1
 62
   250
420
  2236966
370
    50
  0
POLYLINE
  5
2C1
330
1F
100
AcDbEntity
  8
Calque 1
 62
   250
420
  2236966
370
    50
100
AcDb2dPolyline
 66
     1
 10
0.0
 20
0.0
 30
0.0
  0
VERTEX
  5
2C2
330
2C1
100
AcDbEntity
  8
Calque 1
 62
   250
420
  2236966
370
    50
100
AcDbVertex
100
AcDb2dVertex
 10
1319.258577822312
 20
259.4341643638524
 30
0.0
  0
VERTEX
  5
2C3
330
2C1
100
AcDbEntity
  8
Calque 1
 62
   250
420
  2236966
370
    50
100
AcDbVertex
100
AcDb2dVertex
 10
1284.058573083933
 20
259.4341643638524
 30
0.0
  0
SEQEND
  5
2C4
330
2C1
100
AcDbEntity
  8
Calque 1
 62
   250
420
  2236966
370
    50
  0
POLYLINE
  5
2C5
330
1F
100
AcDbEntity
  8
Calque 1
 62
   250
420
  2236966
370
    50
100
AcDb2dPolyline
 66
     1
 10
0.0
 20
0.0
 30
0.0
  0
VERTEX
  5
2C6
330
2C5
100
AcDbEntity
  8
Calque 1
 62
   250
420
  2236966
370
    50
100
AcDbVertex
100
AcDb2dVertex
 10
1284.058573083933
 20
272.4341675819023
 30
0.0
  0
VERTEX
  5
2C7
330
2C5
100
AcDbEntity
  8
Calque 1
 62
   250
420
  2236966
370
    50
100
AcDbVertex
100
AcDb2dVertex
 10
1319.258577822312
 20
272.4341675819023
 30
0.0
  0
SEQEND
  5
2C8
330
2C5
100
AcDbEntity
  8
Calque 1
 62
   250
420
  2236966
370
    50
  0
POLYLINE
  5
2C9
330
1F
100
AcDbEntity
  8
Calque 1
 62
   250
420
  2236966
370
    50
100
AcDb2dPolyline
 66
     1
 10
0.0
 20
0.0
 30
0.0
  0
VERTEX
  5
2CA
330
2C9
100
AcDbEntity
  8
Calque 1
 62
   250
420
  2236966
370
    50
100
AcDbVertex
100
AcDb2dVertex
 10
1317.25852763835
 20
274.4341747021705
 30
0.0
  0
VERTEX
  5
2CB
330
2C9
100
AcDbEntity
  8
Calque 1
 62
   250
420
  2236966
370
    50
100
AcDbVertex
100
AcDb2dVertex
 10
1286.058537140508
 20
274.4341747021705
 30
0.0
  0
SEQEND
  5
2CC
330
2C9
100
AcDbEntity
  8
Calque 1
 62
   250
420
  2236966
370
    50
  0
POLYLINE
  5
2CD
330
1F
100
AcDbEntity
  8
Calque 1
 62
   250
420
  2236966
370
    50
100
AcDb2dPolyline
 66
     1
 10
0.0
 20
0.0
 30
0.0
  0
VERTEX
  5
2CE
330
2CD
100
AcDbEntity
  8
Calque 1
 62
   250
420
  2236966
370
    50
100
AcDbVertex
100
AcDb2dVertex
 10
1284.058573083933
 20
259.4341643638524
 30
0.0
  0
VERTEX
  5
2CF
330
2CD
100
AcDbEntity
  8
Calque 1
 62
   250
420
  2236966
370
    50
100
AcDbVertex
100
AcDb2dVertex
 10
1284.058573083933
 20
272.4341675819023
 30
0.0
  0
SEQEND
  5
2D0
330
2CD
100
AcDbEntity
  8
Calque 1
 62
   250
420
  2236966
370
    50
  0
POLYLINE
  5
2D1
330
1F
100
AcDbEntity
  8
Calque 1
 62
   250
420
  2236966
370
    50
100
AcDb2dPolyline
 66
     1
 10
0.0
 20
0.0
 30
0.0
  0
VERTEX
  5
2D2
330
2D1
100
AcDbEntity
  8
Calque 1
 62
   250
420
  2236966
370
    50
100
AcDbVertex
100
AcDb2dVertex
 10
1286.058537140508
 20
259.4341643638524
 30
0.0
  0
VERTEX
  5
2D3
330
2D1
100
AcDbEntity
  8
Calque 1
 62
   250
420
  2236966
370
    50
100
AcDbVertex
100
AcDb2dVertex
 10
1286.058537140508
 20
274.4341747021705
 30
0.0
  0
SEQEND
  5
2D4
330
2D1
100
AcDbEntity
  8
Calque 1
 62
   250
420
  2236966
370
    50
  0
POLYLINE
  5
2D5
330
1F
100
AcDbEntity
  8
Calque 1
 62
   250
420
  2236966
370
    50
100
AcDb2dPolyline
 66
     1
 10
0.0
 20
0.0
 30
0.0
  0
VERTEX
  5
2D6
330
2D5
100
AcDbEntity
  8
Calque 1
 62
   250
420
  2236966
370
    50
100
AcDbVertex
100
AcDb2dVertex
 10
1317.25852763835
 20
259.4341643638524
 30
0.0
  0
VERTEX
  5
2D7
330
2D5
100
AcDbEntity
  8
Calque 1
 62
   250
420
  2236966
370
    50
100
AcDbVertex
100
AcDb2dVertex
 10
1317.25852763835
 20
274.4341747021705
 30
0.0
  0
SEQEND
  5
2D8
330
2D5
100
AcDbEntity
  8
Calque 1
 62
   250
420
  2236966
370
    50
  0
POLYLINE
  5
2D9
330
1F
100
AcDbEntity
  8
Calque 1
 62
   250
420
  2236966
370
    50
100
AcDb2dPolyline
 66
     1
 10
0.0
 20
0.0
 30
0.0
  0
VERTEX
  5
2DA
330
2D9
100
AcDbEntity
  8
Calque 1
 62
   250
420
  2236966
370
    50
100
AcDbVertex
100
AcDb2dVertex
 10
1319.258577822312
 20
259.4341643638524
 30
0.0
  0
VERTEX
  5
2DB
330
2D9
100
AcDbEntity
  8
Calque 1
 62
   250
420
  2236966
370
    50
100
AcDbVertex
100
AcDb2dVertex
 10
1319.258577822312
 20
272.4341675819023
 30
0.0
  0
SEQEND
  5
2DC
330
2D9
100
AcDbEntity
  8
Calque 1
 62
   250
420
  2236966
370
    50
  0
SPLINE
  5
2DD
330
1F
100
AcDbEntity
  8
Calque 1
 62
   250
420
  2236966
370
    50
100
AcDbSpline
210
0.0
220
0.0
230
1.0
 70
     8
 71
     3
 72
     8
 73
     4
 74
     0
 42
0.0000000001
 43
0.0000000001
 12
1.0
 22
0.0
 32
0.0
 13
1.0
 23
0.0
 33
0.0
 40
0.0
 40
0.0
 40
0.0
 40
0.0
 40
1.0
 40
1.0
 40
1.0
 40
1.0
 10
1284.644325443813
 20
273.8483792785974
 30
0.0
 10
1284.269240672856
 20
273.4733160394876
 30
0.0
 10
1284.058573083933
 20
272.9646046273969
 30
0.0
 10
1284.058573083933
 20
272.4341675819023
 30
0.0
  0
SPLINE
  5
2DE
330
1F
100
AcDbEntity
  8
Calque 1
 62
   250
420
  2236966
370
    50
100
AcDbSpline
210
0.0
220
0.0
230
1.0
 70
     8
 71
     3
 72
     8
 73
     4
 74
     0
 42
0.0000000001
 43
0.0000000001
 12
1.0
 22
0.0
 32
0.0
 13
1.0
 23
0.0
 33
0.0
 40
0.0
 40
0.0
 40
0.0
 40
0.0
 40
1.0
 40
1.0
 40
1.0
 40
1.0
 10
1286.058537140508
 20
274.4341747021705
 30
0.0
 10
1285.528078563167
 20
274.4341747021705
 30
0.0
 10
1285.01941021477
 20
274.223464049554
 30
0.0
 10
1284.644325443813
 20
273.8483792785974
 30
0.0
  0
SPLINE
  5
2DF
330
1F
100
AcDbEntity
  8
Calque 1
 62
   250
420
  2236966
370
    50
100
AcDbSpline
210
0.0
220
0.0
230
1.0
 70
     8
 71
     3
 72
     8
 73
     4
 74
     0
 42
0.0000000001
 43
0.0000000001
 12
1.0
 22
0.0
 32
0.0
 13
1.0
 23
0.0
 33
0.0
 40
0.0
 40
0.0
 40
0.0
 40
0.0
 40
1.0
 40
1.0
 40
1.0
 40
1.0
 10
1319.258577822312
 20
272.4341675819023
 30
0.0
 10
1319.258577822312
 20
273.5387513218606
 30
0.0
 10
1318.363111378309
 20
274.4341747021705
 30
0.0
 10
1317.25852763835
 20
274.4341747021705
 30
0.0
  0
POLYLINE
  5
2E0
330
1F
100
AcDbEntity
  8
Calque 1
 62
   250
420
  2236966
370
    50
100
AcDb2dPolyline
 66
     1
 10
0.0
 20
0.0
 30
0.0
  0
VERTEX
  5
2E1
330
2E0
100
AcDbEntity
  8
Calque 1
 62
   250
420
  2236966
370
    50
100
AcDbVertex
100
AcDb2dVertex
 10
1307.008507295861
 20
274.6341840269361
 30
0.0
  0
VERTEX
  5
2E2
330
2E0
100
AcDbEntity
  8
Calque 1
 62
   250
420
  2236966
370
    50
100
AcDbVertex
100
AcDb2dVertex
 10
1307.708550698464
 20
274.6341840269361
 30
0.0
  0
SEQEND
  5
2E3
330
2E0
100
AcDbEntity
  8
Calque 1
 62
   250
420
  2236966
370
    50
  0
POLYLINE
  5
2E4
330
1F
100
AcDbEntity
  8
Calque 1
 62
   250
420
  2236966
370
    50
100
AcDb2dPolyline
 66
     1
 10
0.0
 20
0.0
 30
0.0
  0
VERTEX
  5
2E5
330
2E4
100
AcDbEntity
  8
Calque 1
 62
   250
420
  2236966
370
    50
100
AcDbVertex
100
AcDb2dVertex
 10
1297.108508654673
 20
274.4341747021705
 30
0.0
  0
VERTEX
  5
2E6
330
2E4
100
AcDbEntity
  8
Calque 1
 62
   250
420
  2236966
370
    50
100
AcDbVertex
100
AcDb2dVertex
 10
1297.108508654673
 20
274.6341840269361
 30
0.0
  0
SEQEND
  5
2E7
330
2E4
100
AcDbEntity
  8
Calque 1
 62
   250
420
  2236966
370
    50
  0
POLYLINE
  5
2E8
330
1F
100
AcDbEntity
  8
Calque 1
 62
   250
420
  2236966
370
    50
100
AcDb2dPolyline
 66
     1
 10
0.0
 20
0.0
 30
0.0
  0
VERTEX
  5
2E9
330
2E8
100
AcDbEntity
  8
Calque 1
 62
   250
420
  2236966
370
    50
100
AcDbVertex
100
AcDb2dVertex
 10
1307.708550698464
 20
274.4341747021705
 30
0.0
  0
VERTEX
  5
2EA
330
2E8
100
AcDbEntity
  8
Calque 1
 62
   250
420
  2236966
370
    50
100
AcDbVertex
100
AcDb2dVertex
 10
1307.708550698464
 20
274.6341840269361
 30
0.0
  0
SEQEND
  5
2EB
330
2E8
100
AcDbEntity
  8
Calque 1
 62
   250
420
  2236966
370
    50
  0
SPLINE
  5
2EC
330
1F
100
AcDbEntity
  8
Calque 1
 62
   250
420
  2236966
370
    50
100
AcDbSpline
210
0.0
220
0.0
230
1.0
 70
     8
 71
     3
 72
     8
 73
     4
 74
     0
 42
0.0000000001
 43
0.0000000001
 12
1.0
 22
0.0
 32
0.0
 13
1.0
 23
0.0
 33
0.0
 40
0.0
 40
0.0
 40
0.0
 40
0.0
 40
1.0
 40
1.0
 40
1.0
 40
1.0
 10
1307.708550698464
 20
274.6341840269361
 30
0.0
 10
1307.708550698464
 20
275.0373247942507
 30
0.0
 10
1307.408569009085
 20
275.3774849097255
 30
0.0
 10
1307.008593423248
 20
275.4278909630441
 30
0.0
  0
POLYLINE
  5
2ED
330
1F
100
AcDbEntity
  8
Calque 1
 62
   250
420
  2236966
370
    50
100
AcDb2dPolyline
 66
     1
 10
0.0
 20
0.0
 30
0.0
  0
VERTEX
  5
2EE
330
2ED
100
AcDbEntity
  8
Calque 1
 62
   250
420
  2236966
370
    50
100
AcDbVertex
100
AcDb2dVertex
 10
1290.75850865626
 20
2255.434251009492
 30
0.0
  0
VERTEX
  5
2EF
330
2ED
100
AcDbEntity
  8
Calque 1
 62
   250
420
  2236966
370
    50
100
AcDbVertex
100
AcDb2dVertex
 10
1290.75850865626
 20
2239.634181840265
 30
0.0
  0
SEQEND
  5
2F0
330
2ED
100
AcDbEntity
  8
Calque 1
 62
   250
420
  2236966
370
    50
  0
POLYLINE
  5
2F1
330
1F
100
AcDbEntity
  8
Calque 1
 62
   250
420
  2236966
370
    50
100
AcDb2dPolyline
 66
     1
 10
0.0
 20
0.0
 30
0.0
  0
VERTEX
  5
2F2
330
2F1
100
AcDbEntity
  8
Calque 1
 62
   250
420
  2236966
370
    50
100
AcDbVertex
100
AcDb2dVertex
 10
1290.958582576566
 20
2239.434194047346
 30
0.0
  0
VERTEX
  5
2F3
330
2F1
100
AcDbEntity
  8
Calque 1
 62
   250
420
  2236966
370
    50
100
AcDbVertex
100
AcDb2dVertex
 10
1290.958582576566
 20
2274.234137072501
 30
0.0
  0
SEQEND
  5
2F4
330
2F1
100
AcDbEntity
  8
Calque 1
 62
   250
420
  2236966
370
    50
  0
POLYLINE
  5
2F5
330
1F
100
AcDbEntity
  8
Calque 1
 62
   250
420
  2236966
370
    50
100
AcDb2dPolyline
 66
     1
 10
0.0
 20
0.0
 30
0.0
  0
VERTEX
  5
2F6
330
2F5
100
AcDbEntity
  8
Calque 1
 62
   250
420
  2236966
370
    50
100
AcDbVertex
100
AcDb2dVertex
 10
1295.958535781696
 20
2259.434179122642
 30
0.0
  0
VERTEX
  5
2F7
330
2F5
100
AcDbEntity
  8
Calque 1
 62
   250
420
  2236966
370
    50
100
AcDbVertex
100
AcDb2dVertex
 10
1295.958535781696
 20
2259.63416691556
 30
0.0
  0
SEQEND
  5
2F8
330
2F5
100
AcDbEntity
  8
Calque 1
 62
   250
420
  2236966
370
    50
  0
POLYLINE
  5
2F9
330
1F
100
AcDbEntity
  8
Calque 1
 62
   250
420
  2236966
370
    50
100
AcDb2dPolyline
 66
     1
 10
0.0
 20
0.0
 30
0.0
  0
VERTEX
  5
2FA
330
2F9
100
AcDbEntity
  8
Calque 1
 62
   250
420
  2236966
370
    50
100
AcDbVertex
100
AcDb2dVertex
 10
1305.558552733506
 20
2259.434179122642
 30
0.0
  0
VERTEX
  5
2FB
330
2F9
100
AcDbEntity
  8
Calque 1
 62
   250
420
  2236966
370
    50
100
AcDbVertex
100
AcDb2dVertex
 10
1305.558552733506
 20
2259.63416691556
 30
0.0
  0
SEQEND
  5
2FC
330
2F9
100
AcDbEntity
  8
Calque 1
 62
   250
420
  2236966
370
    50
  0
POLYLINE
  5
2FD
330
1F
100
AcDbEntity
  8
Calque 1
 62
   250
420
  2236966
370
    50
100
AcDb2dPolyline
 66
     1
 10
0.0
 20
0.0
 30
0.0
  0
VERTEX
  5
2FE
330
2FD
100
AcDbEntity
  8
Calque 1
 62
   250
420
  2236966
370
    50
100
AcDbVertex
100
AcDb2dVertex
 10
1310.758579858942
 20
2274.234137072501
 30
0.0
  0
VERTEX
  5
2FF
330
2FD
100
AcDbEntity
  8
Calque 1
 62
   250
420
  2236966
370
    50
100
AcDbVertex
100
AcDb2dVertex
 10
1310.758579858942
 20
2274.43412486542
 30
0.0
  0
SEQEND
  5
300
330
2FD
100
AcDbEntity
  8
Calque 1
 62
   250
420
  2236966
370
    50
  0
POLYLINE
  5
301
330
1F
100
AcDbEntity
  8
Calque 1
 62
   250
420
  2236966
370
    50
100
AcDb2dPolyline
 66
     1
 10
0.0
 20
0.0
 30
0.0
  0
VERTEX
  5
302
330
301
100
AcDbEntity
  8
Calque 1
 62
   250
420
  2236966
370
    50
100
AcDbVertex
100
AcDb2dVertex
 10
1314.558520179173
 20
2270.43419675227
 30
0.0
  0
VERTEX
  5
303
330
301
100
AcDbEntity
  8
Calque 1
 62
   250
420
  2236966
370
    50
100
AcDbVertex
100
AcDb2dVertex
 10
1314.558520179173
 20
2214.434169639534
 30
0.0
  0
SEQEND
  5
304
330
301
100
AcDbEntity
  8
Calque 1
 62
   250
420
  2236966
370
    50
  0
POLYLINE
  5
305
330
1F
100
AcDbEntity
  8
Calque 1
 62
   250
420
  2236966
370
    50
100
AcDb2dPolyline
 66
     1
 10
0.0
 20
0.0
 30
0.0
  0
VERTEX
  5
306
330
305
100
AcDbEntity
  8
Calque 1
 62
   250
420
  2236966
370
    50
100
AcDbVertex
100
AcDb2dVertex
 10
1314.758507972092
 20
2214.634157432453
 30
0.0
  0
VERTEX
  5
307
330
305
100
AcDbEntity
  8
Calque 1
 62
   250
420
  2236966
370
    50
100
AcDbVertex
100
AcDb2dVertex
 10
1314.758507972092
 20
2270.43419675227
 30
0.0
  0
SEQEND
  5
308
330
305
100
AcDbEntity
  8
Calque 1
 62
   250
420
  2236966
370
    50
  0
POLYLINE
  5
309
330
1F
100
AcDbEntity
  8
Calque 1
 62
   250
420
  2236966
370
    50
100
AcDb2dPolyline
 66
     1
 10
0.0
 20
0.0
 30
0.0
  0
VERTEX
  5
30A
330
309
100
AcDbEntity
  8
Calque 1
 62
   250
420
  2236966
370
    50
100
AcDbVertex
100
AcDb2dVertex
 10
1307.008507295861
 20
2214.434169639534
 30
0.0
  0
VERTEX
  5
30B
330
309
100
AcDbEntity
  8
Calque 1
 62
   250
420
  2236966
370
    50
100
AcDbVertex
100
AcDb2dVertex
 10
1314.558520179173
 20
2214.434169639534
 30
0.0
  0
SEQEND
  5
30C
330
309
100
AcDbEntity
  8
Calque 1
 62
   250
420
  2236966
370
    50
  0
POLYLINE
  5
30D
330
1F
100
AcDbEntity
  8
Calque 1
 62
   250
420
  2236966
370
    50
100
AcDb2dPolyline
 66
     1
 10
0.0
 20
0.0
 30
0.0
  0
VERTEX
  5
30E
330
30D
100
AcDbEntity
  8
Calque 1
 62
   250
420
  2236966
370
    50
100
AcDbVertex
100
AcDb2dVertex
 10
1314.758507972092
 20
2214.634157432453
 30
0.0
  0
VERTEX
  5
30F
330
30D
100
AcDbEntity
  8
Calque 1
 62
   250
420
  2236966
370
    50
100
AcDbVertex
100
AcDb2dVertex
 10
1307.008507295861
 20
2214.634157432453
 30
0.0
  0
SEQEND
  5
310
330
30D
100
AcDbEntity
  8
Calque 1
 62
   250
420
  2236966
370
    50
  0
POLYLINE
  5
311
330
1F
100
AcDbEntity
  8
Calque 1
 62
   250
420
  2236966
370
    50
100
AcDb2dPolyline
 66
     1
 10
0.0
 20
0.0
 30
0.0
  0
VERTEX
  5
312
330
311
100
AcDbEntity
  8
Calque 1
 62
   250
420
  2236966
370
    50
100
AcDbVertex
100
AcDb2dVertex
 10
1290.958582576566
 20
2239.434194047346
 30
0.0
  0
VERTEX
  5
313
330
311
100
AcDbEntity
  8
Calque 1
 62
   250
420
  2236966
370
    50
100
AcDbVertex
100
AcDb2dVertex
 10
1294.508581219342
 20
2239.434194047346
 30
0.0
  0
SEQEND
  5
314
330
311
100
AcDbEntity
  8
Calque 1
 62
   250
420
  2236966
370
    50
  0
POLYLINE
  5
315
330
1F
100
AcDbEntity
  8
Calque 1
 62
   250
420
  2236966
370
    50
100
AcDb2dPolyline
 66
     1
 10
0.0
 20
0.0
 30
0.0
  0
VERTEX
  5
316
330
315
100
AcDbEntity
  8
Calque 1
 62
   250
420
  2236966
370
    50
100
AcDbVertex
100
AcDb2dVertex
 10
1294.508581219342
 20
2242.434183195902
 30
0.0
  0
VERTEX
  5
317
330
315
100
AcDbEntity
  8
Calque 1
 62
   250
420
  2236966
370
    50
100
AcDbVertex
100
AcDb2dVertex
 10
1290.75850865626
 20
2242.434183195902
 30
0.0
  0
SEQEND
  5
318
330
315
100
AcDbEntity
  8
Calque 1
 62
   250
420
  2236966
370
    50
  0
POLYLINE
  5
319
330
1F
100
AcDbEntity
  8
Calque 1
 62
   250
420
  2236966
370
    50
100
AcDb2dPolyline
 66
     1
 10
0.0
 20
0.0
 30
0.0
  0
VERTEX
  5
31A
330
319
100
AcDbEntity
  8
Calque 1
 62
   250
420
  2236966
370
    50
100
AcDbVertex
100
AcDb2dVertex
 10
1305.558552733506
 20
2259.63416691556
 30
0.0
  0
VERTEX
  5
31B
330
319
100
AcDbEntity
  8
Calque 1
 62
   250
420
  2236966
370
    50
100
AcDbVertex
100
AcDb2dVertex
 10
1295.958535781696
 20
2259.63416691556
 30
0.0
  0
SEQEND
  5
31C
330
319
100
AcDbEntity
  8
Calque 1
 62
   250
420
  2236966
370
    50
  0
POLYLINE
  5
31D
330
1F
100
AcDbEntity
  8
Calque 1
 62
   250
420
  2236966
370
    50
100
AcDb2dPolyline
 66
     1
 10
0.0
 20
0.0
 30
0.0
  0
VERTEX
  5
31E
330
31D
100
AcDbEntity
  8
Calque 1
 62
   250
420
  2236966
370
    50
100
AcDbVertex
100
AcDb2dVertex
 10
1314.758507972092
 20
2270.43419675227
 30
0.0
  0
VERTEX
  5
31F
330
31D
100
AcDbEntity
  8
Calque 1
 62
   250
420
  2236966
370
    50
100
AcDbVertex
100
AcDb2dVertex
 10
1314.558520179173
 20
2270.43419675227
 30
0.0
  0
SEQEND
  5
320
330
31D
100
AcDbEntity
  8
Calque 1
 62
   250
420
  2236966
370
    50
  0
POLYLINE
  5
321
330
1F
100
AcDbEntity
  8
Calque 1
 62
   250
420
  2236966
370
    50
100
AcDb2dPolyline
 66
     1
 10
0.0
 20
0.0
 30
0.0
  0
VERTEX
  5
322
330
321
100
AcDbEntity
  8
Calque 1
 62
   250
420
  2236966
370
    50
100
AcDbVertex
100
AcDb2dVertex
 10
1310.758579858942
 20
2274.234137072501
 30
0.0
  0
VERTEX
  5
323
330
321
100
AcDbEntity
  8
Calque 1
 62
   250
420
  2236966
370
    50
100
AcDbVertex
100
AcDb2dVertex
 10
1290.958582576566
 20
2274.234137072501
 30
0.0
  0
SEQEND
  5
324
330
321
100
AcDbEntity
  8
Calque 1
 62
   250
420
  2236966
370
    50
  0
POLYLINE
  5
325
330
1F
100
AcDbEntity
  8
Calque 1
 62
   250
420
  2236966
370
    50
100
AcDb2dPolyline
 66
     1
 10
0.0
 20
0.0
 30
0.0
  0
VERTEX
  5
326
330
325
100
AcDbEntity
  8
Calque 1
 62
   250
420
  2236966
370
    50
100
AcDbVertex
100
AcDb2dVertex
 10
1290.75850865626
 20
2274.43412486542
 30
0.0
  0
VERTEX
  5
327
330
325
100
AcDbEntity
  8
Calque 1
 62
   250
420
  2236966
370
    50
100
AcDbVertex
100
AcDb2dVertex
 10
1310.758579858942
 20
2274.43412486542
 30
0.0
  0
SEQEND
  5
328
330
325
100
AcDbEntity
  8
Calque 1
 62
   250
420
  2236966
370
    50
  0
POLYLINE
  5
329
330
1F
100
AcDbEntity
  8
Calque 1
 62
   250
420
  2236966
370
    50
100
AcDb2dPolyline
 66
     1
 10
0.0
 20
0.0
 30
0.0
  0
VERTEX
  5
32A
330
329
100
AcDbEntity
  8
Calque 1
 62
   250
420
  2236966
370
    50
100
AcDbVertex
100
AcDb2dVertex
 10
1290.75850865626
 20
2274.43412486542
 30
0.0
  0
VERTEX
  5
32B
330
329
100
AcDbEntity
  8
Calque 1
 62
   250
420
  2236966
370
    50
100
AcDbVertex
100
AcDb2dVertex
 10
1290.958582576566
 20
2274.234137072501
 30
0.0
  0
SEQEND
  5
32C
330
329
100
AcDbEntity
  8
Calque 1
 62
   250
420
  2236966
370
    50
  0
SPLINE
  5
32D
330
1F
100
AcDbEntity
  8
Calque 1
 62
   250
420
  2236966
370
    50
100
AcDbSpline
210
0.0
220
0.0
230
1.0
 70
     8
 71
     3
 72
     8
 73
     4
 74
     0
 42
0.0000000001
 43
0.0000000001
 12
1.0
 22
0.0
 32
0.0
 13
1.0
 23
0.0
 33
0.0
 40
0.0
 40
0.0
 40
0.0
 40
0.0
 40
1.0
 40
1.0
 40
1.0
 40
1.0
 10
1290.817161406897
 20
2239.492760670596
 30
0.0
 10
1290.854626820299
 20
2239.455209129806
 30
0.0
 10
1290.905528106093
 20
2239.434194047346
 30
0.0
 10
1290.958582576566
 20
2239.434194047346
 30
0.0
  0
SPLINE
  5
32E
330
1F
100
AcDbEntity
  8
Calque 1
 62
   250
420
  2236966
370
    50
100
AcDbSpline
210
0.0
220
0.0
230
1.0
 70
     8
 71
     3
 72
     8
 73
     4
 74
     0
 42
0.0000000001
 43
0.0000000001
 12
1.0
 22
0.0
 32
0.0
 13
1.0
 23
0.0
 33
0.0
 40
0.0
 40
0.0
 40
0.0
 40
0.0
 40
1.0
 40
1.0
 40
1.0
 40
1.0
 10
1290.75850865626
 20
2239.634181840265
 30
0.0
 10
1290.75850865626
 20
2239.581127369792
 30
0.0
 10
1290.779609866107
 20
2239.530312211385
 30
0.0
 10
1290.817161406897
 20
2239.492760670596
 30
0.0
  0
SPLINE
  5
32F
330
1F
100
AcDbEntity
  8
Calque 1
 62
   250
420
  2236966
370
    50
100
AcDbSpline
210
0.0
220
0.0
230
1.0
 70
     8
 71
     3
 72
     8
 73
     4
 74
     0
 42
0.0000000001
 43
0.0000000001
 12
1.0
 22
0.0
 32
0.0
 13
1.0
 23
0.0
 33
0.0
 40
0.0
 40
0.0
 40
0.0
 40
0.0
 40
1.0
 40
1.0
 40
1.0
 40
1.0
 10
1295.958535781696
 20
2259.63416691556
 30
0.0
 10
1295.815736573833
 20
2259.63416691556
 30
0.0
 10
1295.68370328936
 20
2259.558030305336
 30
0.0
 10
1295.612217558041
 20
2259.434351377416
 30
0.0
  0
SPLINE
  5
330
330
1F
100
AcDbEntity
  8
Calque 1
 62
   250
420
  2236966
370
    50
100
AcDbSpline
210
0.0
220
0.0
230
1.0
 70
    11
 71
     3
 72
    17
 73
    13
 74
     0
 42
0.0000000001
 43
0.0000000001
 12
1.0
 22
0.0
 32
0.0
 13
1.0
 23
0.0
 33
0.0
 40
0.0
 40
0.0
 40
0.0
 40
0.0
 40
1.0
 40
1.0
 40
1.0
 40
2.0
 40
2.0
 40
2.0
 40
3.0
 40
3.0
 40
3.0
 40
4.0
 40
4.0
 40
4.0
 40
4.0
 10
1312.958531708436
 20
2218.434097752683
 30
0.0
 10
1312.958531708436
 20
2219.649182930331
 30
0.0
 10
1311.973578909203
 20
2220.634135729564
 30
0.0
 10
1310.758579858942
 20
2220.634135729564
 30
0.0
 10
1309.543494681295
 20
2220.634135729564
 30
0.0
 10
1308.558541882062
 20
2219.649182930331
 30
0.0
 10
1308.558541882062
 20
2218.434097752683
 30
0.0
 10
1308.558541882062
 20
2217.21918482981
 30
0.0
 10
1309.543494681295
 20
2216.234232030577
 30
0.0
 10
1310.758579858942
 20
2216.234232030577
 30
0.0
 10
1311.973578909203
 20
2216.234232030577
 30
0.0
 10
1312.958531708436
 20
2217.21918482981
 30
0.0
 10
1312.958531708436
 20
2218.434097752683
 30
0.0
  0
SPLINE
  5
331
330
1F
100
AcDbEntity
  8
Calque 1
 62
   250
420
  2236966
370
    50
100
AcDbSpline
210
0.0
220
0.0
230
1.0
 70
     8
 71
     3
 72
     8
 73
     4
 74
     0
 42
0.0000000001
 43
0.0000000001
 12
1.0
 22
0.0
 32
0.0
 13
1.0
 23
0.0
 33
0.0
 40
0.0
 40
0.0
 40
0.0
 40
0.0
 40
1.0
 40
1.0
 40
1.0
 40
1.0
 10
1314.558520179173
 20
2214.434169639534
 30
0.0
 10
1314.669021616862
 20
2214.434169639534
 30
0.0
 10
1314.758507972092
 20
2214.52374212215
 30
0.0
 10
1314.758507972092
 20
2214.634157432453
 30
0.0
  0
SPLINE
  5
332
330
1F
100
AcDbEntity
  8
Calque 1
 62
   250
420
  2236966
370
    50
100
AcDbSpline
210
0.0
220
0.0
230
1.0
 70
     8
 71
     3
 72
     8
 73
     4
 74
     0
 42
0.0000000001
 43
0.0000000001
 12
1.0
 22
0.0
 32
0.0
 13
1.0
 23
0.0
 33
0.0
 40
0.0
 40
0.0
 40
0.0
 40
0.0
 40
1.0
 40
1.0
 40
1.0
 40
1.0
 10
1313.587003252333
 20
2273.26262014566
 30
0.0
 10
1312.836833710419
 20
2274.012789687573
 30
0.0
 10
1311.819410886238
 20
2274.43412486542
 30
0.0
 10
1310.758579858942
 20
2274.43412486542
 30
0.0
  0
SPLINE
  5
333
330
1F
100
AcDbEntity
  8
Calque 1
 62
   250
420
  2236966
370
    50
100
AcDbSpline
210
0.0
220
0.0
230
1.0
 70
     8
 71
     3
 72
     8
 73
     4
 74
     0
 42
0.0000000001
 43
0.0000000001
 12
1.0
 22
0.0
 32
0.0
 13
1.0
 23
0.0
 33
0.0
 40
0.0
 40
0.0
 40
0.0
 40
0.0
 40
1.0
 40
1.0
 40
1.0
 40
1.0
 10
1314.758507972092
 20
2270.43419675227
 30
0.0
 10
1314.758507972092
 20
2271.495113906953
 30
0.0
 10
1314.337086666859
 20
2272.512450603747
 30
0.0
 10
1313.587003252333
 20
2273.26262014566
 30
0.0
  0
SPLINE
  5
334
330
1F
100
AcDbEntity
  8
Calque 1
 62
   250
420
  2236966
370
    50
100
AcDbSpline
210
0.0
220
0.0
230
1.0
 70
     8
 71
     3
 72
     8
 73
     4
 74
     0
 42
0.0000000001
 43
0.0000000001
 12
1.0
 22
0.0
 32
0.0
 13
1.0
 23
0.0
 33
0.0
 40
0.0
 40
0.0
 40
0.0
 40
0.0
 40
1.0
 40
1.0
 40
1.0
 40
1.0
 10
1314.558520179173
 20
2270.43419675227
 30
0.0
 10
1314.558520179173
 20
2272.53277666711
 30
0.0
 10
1312.857245901169
 20
2274.234137072501
 30
0.0
 10
1310.758579858942
 20
2274.234137072501
 30
0.0
  0
SPLINE
  5
335
330
1F
100
AcDbEntity
  8
Calque 1
 62
   250
420
  2236966
370
    50
100
AcDbSpline
210
0.0
220
0.0
230
1.0
 70
     8
 71
     3
 72
     8
 73
     4
 74
     0
 42
0.0000000001
 43
0.0000000001
 12
1.0
 22
0.0
 32
0.0
 13
1.0
 23
0.0
 33
0.0
 40
0.0
 40
0.0
 40
0.0
 40
0.0
 40
1.0
 40
1.0
 40
1.0
 40
1.0
 10
1305.904870957161
 20
2259.434351377416
 30
0.0
 10
1305.833385225842
 20
2259.558030305336
 30
0.0
 10
1305.701438068757
 20
2259.63416691556
 30
0.0
 10
1305.558552733506
 20
2259.63416691556
 30
0.0
  0
POLYLINE
  5
336
330
1F
100
AcDbEntity
  8
Calque 1
 62
   250
420
  2236966
370
    50
100
AcDb2dPolyline
 66
     1
 10
0.0
 20
0.0
 30
0.0
  0
VERTEX
  5
337
330
336
100
AcDbEntity
  8
Calque 1
 62
   250
420
  2236966
370
    50
100
AcDbVertex
100
AcDb2dVertex
 10
1312.133517467106
 20
2219.883104913779
 30
0.0
  0
VERTEX
  5
338
330
336
100
AcDbEntity
  8
Calque 1
 62
   250
420
  2236966
370
    50
100
AcDbVertex
100
AcDb2dVertex
 10
1312.243502140472
 20
2219.9191061616
 30
0.0
  0
SEQEND
  5
339
330
336
100
AcDbEntity
  8
Calque 1
 62
   250
420
  2236966
370
    50
  0
POLYLINE
  5
33A
330
1F
100
AcDbEntity
  8
Calque 1
 62
   250
420
  2236966
370
    50
100
AcDb2dPolyline
 66
     1
 10
0.0
 20
0.0
 30
0.0
  0
VERTEX
  5
33B
330
33A
100
AcDbEntity
  8
Calque 1
 62
   250
420
  2236966
370
    50
100
AcDbVertex
100
AcDb2dVertex
 10
1308.684373994661
 20
2218.762759861976
 30
0.0
  0
VERTEX
  5
33C
330
33A
100
AcDbEntity
  8
Calque 1
 62
   250
420
  2236966
370
    50
100
AcDbVertex
100
AcDb2dVertex
 10
1308.794444795414
 20
2218.798244345474
 30
0.0
  0
SEQEND
  5
33D
330
33A
100
AcDbEntity
  8
Calque 1
 62
   250
420
  2236966
370
    50
  0
POLYLINE
  5
33E
330
1F
100
AcDbEntity
  8
Calque 1
 62
   250
420
  2236966
370
    50
100
AcDb2dPolyline
 66
     1
 10
0.0
 20
0.0
 30
0.0
  0
VERTEX
  5
33F
330
33E
100
AcDbEntity
  8
Calque 1
 62
   250
420
  2236966
370
    50
100
AcDbVertex
100
AcDb2dVertex
 10
1312.832699595837
 20
2218.105607898165
 30
0.0
  0
VERTEX
  5
340
330
33E
100
AcDbEntity
  8
Calque 1
 62
   250
420
  2236966
370
    50
100
AcDbVertex
100
AcDb2dVertex
 10
1312.722628795083
 20
2218.070123414667
 30
0.0
  0
SEQEND
  5
341
330
33E
100
AcDbEntity
  8
Calque 1
 62
   250
420
  2236966
370
    50
  0
POLYLINE
  5
342
330
1F
100
AcDbEntity
  8
Calque 1
 62
   250
420
  2236966
370
    50
100
AcDb2dPolyline
 66
     1
 10
0.0
 20
0.0
 30
0.0
  0
VERTEX
  5
343
330
342
100
AcDbEntity
  8
Calque 1
 62
   250
420
  2236966
370
    50
100
AcDbVertex
100
AcDb2dVertex
 10
1312.055830563913
 20
2219.95304035213
 30
0.0
  0
VERTEX
  5
344
330
342
100
AcDbEntity
  8
Calque 1
 62
   250
420
  2236966
370
    50
100
AcDbVertex
100
AcDb2dVertex
 10
1312.163748179989
 20
2219.994726007501
 30
0.0
  0
SEQEND
  5
345
330
342
100
AcDbEntity
  8
Calque 1
 62
   250
420
  2236966
370
    50
  0
POLYLINE
  5
346
330
1F
100
AcDbEntity
  8
Calque 1
 62
   250
420
  2236966
370
    50
100
AcDb2dPolyline
 66
     1
 10
0.0
 20
0.0
 30
0.0
  0
VERTEX
  5
347
330
346
100
AcDbEntity
  8
Calque 1
 62
   250
420
  2236966
370
    50
100
AcDbVertex
100
AcDb2dVertex
 10
1309.461243026584
 20
2216.915155153237
 30
0.0
  0
VERTEX
  5
348
330
346
100
AcDbEntity
  8
Calque 1
 62
   250
420
  2236966
370
    50
100
AcDbVertex
100
AcDb2dVertex
 10
1309.353325410509
 20
2216.873641752639
 30
0.0
  0
SEQEND
  5
349
330
346
100
AcDbEntity
  8
Calque 1
 62
   250
420
  2236966
370
    50
  0
POLYLINE
  5
34A
330
1F
100
AcDbEntity
  8
Calque 1
 62
   250
420
  2236966
370
    50
100
AcDb2dPolyline
 66
     1
 10
0.0
 20
0.0
 30
0.0
  0
VERTEX
  5
34B
330
34A
100
AcDbEntity
  8
Calque 1
 62
   250
420
  2236966
370
    50
100
AcDbVertex
100
AcDb2dVertex
 10
1308.670076848397
 20
2218.653722589868
 30
0.0
  0
VERTEX
  5
34C
330
34A
100
AcDbEntity
  8
Calque 1
 62
   250
420
  2236966
370
    50
100
AcDbVertex
100
AcDb2dVertex
 10
1308.778080591859
 20
2218.694891480917
 30
0.0
  0
SEQEND
  5
34D
330
34A
100
AcDbEntity
  8
Calque 1
 62
   250
420
  2236966
370
    50
  0
POLYLINE
  5
34E
330
1F
100
AcDbEntity
  8
Calque 1
 62
   250
420
  2236966
370
    50
100
AcDb2dPolyline
 66
     1
 10
0.0
 20
0.0
 30
0.0
  0
VERTEX
  5
34F
330
34E
100
AcDbEntity
  8
Calque 1
 62
   250
420
  2236966
370
    50
100
AcDbVertex
100
AcDb2dVertex
 10
1312.846996742101
 20
2218.214645170273
 30
0.0
  0
VERTEX
  5
350
330
34E
100
AcDbEntity
  8
Calque 1
 62
   250
420
  2236966
370
    50
100
AcDbVertex
100
AcDb2dVertex
 10
1312.738992998638
 20
2218.173476279224
 30
0.0
  0
SEQEND
  5
351
330
34E
100
AcDbEntity
  8
Calque 1
 62
   250
420
  2236966
370
    50
  0
POLYLINE
  5
352
330
1F
100
AcDbEntity
  8
Calque 1
 62
   250
420
  2236966
370
    50
100
AcDb2dPolyline
 66
     1
 10
0.0
 20
0.0
 30
0.0
  0
VERTEX
  5
353
330
352
100
AcDbEntity
  8
Calque 1
 62
   250
420
  2236966
370
    50
100
AcDbVertex
100
AcDb2dVertex
 10
1309.383556123392
 20
2216.985262846361
 30
0.0
  0
VERTEX
  5
354
330
352
100
AcDbEntity
  8
Calque 1
 62
   250
420
  2236966
370
    50
100
AcDbVertex
100
AcDb2dVertex
 10
1309.273657577412
 20
2216.94926159854
 30
0.0
  0
SEQEND
  5
355
330
352
100
AcDbEntity
  8
Calque 1
 62
   250
420
  2236966
370
    50
  0
POLYLINE
  5
356
330
1F
100
AcDbEntity
  8
Calque 1
 62
   250
420
  2236966
370
    50
100
AcDb2dPolyline
 66
     1
 10
0.0
 20
0.0
 30
0.0
  0
VERTEX
  5
357
330
356
100
AcDbEntity
  8
Calque 1
 62
   250
420
  2236966
370
    50
100
AcDbVertex
100
AcDb2dVertex
 10
1311.896150388172
 20
2220.083609471021
 30
0.0
  0
VERTEX
  5
358
330
356
100
AcDbEntity
  8
Calque 1
 62
   250
420
  2236966
370
    50
100
AcDbVertex
100
AcDb2dVertex
 10
1311.99287144392
 20
2220.133046591234
 30
0.0
  0
SEQEND
  5
359
330
356
100
AcDbEntity
  8
Calque 1
 62
   250
420
  2236966
370
    50
  0
POLYLINE
  5
35A
330
1F
100
AcDbEntity
  8
Calque 1
 62
   250
420
  2236966
370
    50
100
AcDb2dPolyline
 66
     1
 10
0.0
 20
0.0
 30
0.0
  0
VERTEX
  5
35B
330
35A
100
AcDbEntity
  8
Calque 1
 62
   250
420
  2236966
370
    50
100
AcDbVertex
100
AcDb2dVertex
 10
1309.620923202326
 20
2216.78475828912
 30
0.0
  0
VERTEX
  5
35C
330
35A
100
AcDbEntity
  8
Calque 1
 62
   250
420
  2236966
370
    50
100
AcDbVertex
100
AcDb2dVertex
 10
1309.524202146577
 20
2216.735321168906
 30
0.0
  0
SEQEND
  5
35D
330
35A
100
AcDbEntity
  8
Calque 1
 62
   250
420
  2236966
370
    50
  0
POLYLINE
  5
35E
330
1F
100
AcDbEntity
  8
Calque 1
 62
   250
420
  2236966
370
    50
100
AcDb2dPolyline
 66
     1
 10
0.0
 20
0.0
 30
0.0
  0
VERTEX
  5
35F
330
35E
100
AcDbEntity
  8
Calque 1
 62
   250
420
  2236966
370
    50
100
AcDbVertex
100
AcDb2dVertex
 10
1308.658535778521
 20
2218.434097752683
 30
0.0
  0
VERTEX
  5
360
330
35E
100
AcDbEntity
  8
Calque 1
 62
   250
420
  2236966
370
    50
100
AcDbVertex
100
AcDb2dVertex
 10
1308.761716388304
 20
2218.486463204059
 30
0.0
  0
SEQEND
  5
361
330
35E
100
AcDbEntity
  8
Calque 1
 62
   250
420
  2236966
370
    50
  0
POLYLINE
  5
362
330
1F
100
AcDbEntity
  8
Calque 1
 62
   250
420
  2236966
370
    50
100
AcDb2dPolyline
 66
     1
 10
0.0
 20
0.0
 30
0.0
  0
VERTEX
  5
363
330
362
100
AcDbEntity
  8
Calque 1
 62
   250
420
  2236966
370
    50
100
AcDbVertex
100
AcDb2dVertex
 10
1312.858537811976
 20
2218.434097752683
 30
0.0
  0
VERTEX
  5
364
330
362
100
AcDbEntity
  8
Calque 1
 62
   250
420
  2236966
370
    50
100
AcDbVertex
100
AcDb2dVertex
 10
1312.755357202193
 20
2218.381904556082
 30
0.0
  0
SEQEND
  5
365
330
362
100
AcDbEntity
  8
Calque 1
 62
   250
420
  2236966
370
    50
  0
POLYLINE
  5
366
330
1F
100
AcDbEntity
  8
Calque 1
 62
   250
420
  2236966
370
    50
100
AcDb2dPolyline
 66
     1
 10
0.0
 20
0.0
 30
0.0
  0
VERTEX
  5
367
330
366
100
AcDbEntity
  8
Calque 1
 62
   250
420
  2236966
370
    50
100
AcDbVertex
100
AcDb2dVertex
 10
1311.974526310461
 20
2220.019013930672
 30
0.0
  0
VERTEX
  5
368
330
366
100
AcDbEntity
  8
Calque 1
 62
   250
420
  2236966
370
    50
100
AcDbVertex
100
AcDb2dVertex
 10
1312.080118487084
 20
2220.06621173882
 30
0.0
  0
SEQEND
  5
369
330
366
100
AcDbEntity
  8
Calque 1
 62
   250
420
  2236966
370
    50
  0
POLYLINE
  5
36A
330
1F
100
AcDbEntity
  8
Calque 1
 62
   250
420
  2236966
370
    50
100
AcDb2dPolyline
 66
     1
 10
0.0
 20
0.0
 30
0.0
  0
VERTEX
  5
36B
330
36A
100
AcDbEntity
  8
Calque 1
 62
   250
420
  2236966
370
    50
100
AcDbVertex
100
AcDb2dVertex
 10
1309.542547280036
 20
2216.849353829468
 30
0.0
  0
VERTEX
  5
36C
330
36A
100
AcDbEntity
  8
Calque 1
 62
   250
420
  2236966
370
    50
100
AcDbVertex
100
AcDb2dVertex
 10
1309.436955103413
 20
2216.802156021321
 30
0.0
  0
SEQEND
  5
36D
330
36A
100
AcDbEntity
  8
Calque 1
 62
   250
420
  2236966
370
    50
  0
POLYLINE
  5
36E
330
1F
100
AcDbEntity
  8
Calque 1
 62
   250
420
  2236966
370
    50
100
AcDb2dPolyline
 66
     1
 10
0.0
 20
0.0
 30
0.0
  0
VERTEX
  5
36F
330
36E
100
AcDbEntity
  8
Calque 1
 62
   250
420
  2236966
370
    50
100
AcDbVertex
100
AcDb2dVertex
 10
1308.661377982296
 20
2218.543996298663
 30
0.0
  0
VERTEX
  5
370
330
36E
100
AcDbEntity
  8
Calque 1
 62
   250
420
  2236966
370
    50
100
AcDbVertex
100
AcDb2dVertex
 10
1308.767142413694
 20
2218.590849597262
 30
0.0
  0
SEQEND
  5
371
330
36E
100
AcDbEntity
  8
Calque 1
 62
   250
420
  2236966
370
    50
  0
POLYLINE
  5
372
330
1F
100
AcDbEntity
  8
Calque 1
 62
   250
420
  2236966
370
    50
100
AcDb2dPolyline
 66
     1
 10
0.0
 20
0.0
 30
0.0
  0
VERTEX
  5
373
330
372
100
AcDbEntity
  8
Calque 1
 62
   250
420
  2236966
370
    50
100
AcDbVertex
100
AcDb2dVertex
 10
1312.855695608201
 20
2218.324199206704
 30
0.0
  0
VERTEX
  5
374
330
372
100
AcDbEntity
  8
Calque 1
 62
   250
420
  2236966
370
    50
100
AcDbVertex
100
AcDb2dVertex
 10
1312.749931176804
 20
2218.277518162879
 30
0.0
  0
SEQEND
  5
375
330
372
100
AcDbEntity
  8
Calque 1
 62
   250
420
  2236966
370
    50
  0
POLYLINE
  5
376
330
1F
100
AcDbEntity
  8
Calque 1
 62
   250
420
  2236966
370
    50
100
AcDb2dPolyline
 66
     1
 10
0.0
 20
0.0
 30
0.0
  0
VERTEX
  5
377
330
376
100
AcDbEntity
  8
Calque 1
 62
   250
420
  2236966
370
    50
100
AcDbVertex
100
AcDb2dVertex
 10
1311.711837779711
 20
2220.189718411967
 30
0.0
  0
VERTEX
  5
378
330
376
100
AcDbEntity
  8
Calque 1
 62
   250
420
  2236966
370
    50
100
AcDbVertex
100
AcDb2dVertex
 10
1311.805372122136
 20
2220.250696602056
 30
0.0
  0
SEQEND
  5
379
330
376
100
AcDbEntity
  8
Calque 1
 62
   250
420
  2236966
370
    50
  0
POLYLINE
  5
37A
330
1F
100
AcDbEntity
  8
Calque 1
 62
   250
420
  2236966
370
    50
100
AcDb2dPolyline
 66
     1
 10
0.0
 20
0.0
 30
0.0
  0
VERTEX
  5
37B
330
37A
100
AcDbEntity
  8
Calque 1
 62
   250
420
  2236966
370
    50
100
AcDbVertex
100
AcDb2dVertex
 10
1308.670076848397
 20
2218.214645170273
 30
0.0
  0
VERTEX
  5
37C
330
37A
100
AcDbEntity
  8
Calque 1
 62
   250
420
  2236966
370
    50
100
AcDbVertex
100
AcDb2dVertex
 10
1308.767142413694
 20
2218.277518162879
 30
0.0
  0
SEQEND
  5
37D
330
37A
100
AcDbEntity
  8
Calque 1
 62
   250
420
  2236966
370
    50
  0
POLYLINE
  5
37E
330
1F
100
AcDbEntity
  8
Calque 1
 62
   250
420
  2236966
370
    50
100
AcDb2dPolyline
 66
     1
 10
0.0
 20
0.0
 30
0.0
  0
VERTEX
  5
37F
330
37E
100
AcDbEntity
  8
Calque 1
 62
   250
420
  2236966
370
    50
100
AcDbVertex
100
AcDb2dVertex
 10
1312.846996742101
 20
2218.653722589868
 30
0.0
  0
VERTEX
  5
380
330
37E
100
AcDbEntity
  8
Calque 1
 62
   250
420
  2236966
370
    50
100
AcDbVertex
100
AcDb2dVertex
 10
1312.749931176804
 20
2218.590849597262
 30
0.0
  0
SEQEND
  5
381
330
37E
100
AcDbEntity
  8
Calque 1
 62
   250
420
  2236966
370
    50
  0
POLYLINE
  5
382
330
1F
100
AcDbEntity
  8
Calque 1
 62
   250
420
  2236966
370
    50
100
AcDb2dPolyline
 66
     1
 10
0.0
 20
0.0
 30
0.0
  0
VERTEX
  5
383
330
382
100
AcDbEntity
  8
Calque 1
 62
   250
420
  2236966
370
    50
100
AcDbVertex
100
AcDb2dVertex
 10
1311.805372122136
 20
2220.139247763108
 30
0.0
  0
VERTEX
  5
384
330
382
100
AcDbEntity
  8
Calque 1
 62
   250
420
  2236966
370
    50
100
AcDbVertex
100
AcDb2dVertex
 10
1311.896150388172
 20
2220.191785469258
 30
0.0
  0
SEQEND
  5
385
330
382
100
AcDbEntity
  8
Calque 1
 62
   250
420
  2236966
370
    50
  0
POLYLINE
  5
386
330
1F
100
AcDbEntity
  8
Calque 1
 62
   250
420
  2236966
370
    50
100
AcDb2dPolyline
 66
     1
 10
0.0
 20
0.0
 30
0.0
  0
VERTEX
  5
387
330
386
100
AcDbEntity
  8
Calque 1
 62
   250
420
  2236966
370
    50
100
AcDbVertex
100
AcDb2dVertex
 10
1309.711701468362
 20
2216.729119997033
 30
0.0
  0
VERTEX
  5
388
330
386
100
AcDbEntity
  8
Calque 1
 62
   250
420
  2236966
370
    50
100
AcDbVertex
100
AcDb2dVertex
 10
1309.620923202326
 20
2216.676582290883
 30
0.0
  0
SEQEND
  5
389
330
386
100
AcDbEntity
  8
Calque 1
 62
   250
420
  2236966
370
    50
  0
POLYLINE
  5
38A
330
1F
100
AcDbEntity
  8
Calque 1
 62
   250
420
  2236966
370
    50
100
AcDb2dPolyline
 66
     1
 10
0.0
 20
0.0
 30
0.0
  0
VERTEX
  5
38B
330
38A
100
AcDbEntity
  8
Calque 1
 62
   250
420
  2236966
370
    50
100
AcDbVertex
100
AcDb2dVertex
 10
1308.661377982296
 20
2218.324199206704
 30
0.0
  0
VERTEX
  5
38C
330
38A
100
AcDbEntity
  8
Calque 1
 62
   250
420
  2236966
370
    50
100
AcDbVertex
100
AcDb2dVertex
 10
1308.761716388304
 20
2218.381904556082
 30
0.0
  0
SEQEND
  5
38D
330
38A
100
AcDbEntity
  8
Calque 1
 62
   250
420
  2236966
370
    50
  0
POLYLINE
  5
38E
330
1F
100
AcDbEntity
  8
Calque 1
 62
   250
420
  2236966
370
    50
100
AcDb2dPolyline
 66
     1
 10
0.0
 20
0.0
 30
0.0
  0
VERTEX
  5
38F
330
38E
100
AcDbEntity
  8
Calque 1
 62
   250
420
  2236966
370
    50
100
AcDbVertex
100
AcDb2dVertex
 10
1312.855695608201
 20
2218.543996298663
 30
0.0
  0
VERTEX
  5
390
330
38E
100
AcDbEntity
  8
Calque 1
 62
   250
420
  2236966
370
    50
100
AcDbVertex
100
AcDb2dVertex
 10
1312.755357202193
 20
2218.486463204059
 30
0.0
  0
SEQEND
  5
391
330
38E
100
AcDbEntity
  8
Calque 1
 62
   250
420
  2236966
370
    50
  0
POLYLINE
  5
392
330
1F
100
AcDbEntity
  8
Calque 1
 62
   250
420
  2236966
370
    50
100
AcDb2dPolyline
 66
     1
 10
0.0
 20
0.0
 30
0.0
  0
VERTEX
  5
393
330
392
100
AcDbEntity
  8
Calque 1
 62
   250
420
  2236966
370
    50
100
AcDbVertex
100
AcDb2dVertex
 10
1311.615633488285
 20
2220.235021417598
 30
0.0
  0
VERTEX
  5
394
330
392
100
AcDbEntity
  8
Calque 1
 62
   250
420
  2236966
370
    50
100
AcDbVertex
100
AcDb2dVertex
 10
1311.711837779711
 20
2220.305129110723
 30
0.0
  0
SEQEND
  5
395
330
392
100
AcDbEntity
  8
Calque 1
 62
   250
420
  2236966
370
    50
  0
POLYLINE
  5
396
330
1F
100
AcDbEntity
  8
Calque 1
 62
   250
420
  2236966
370
    50
100
AcDb2dPolyline
 66
     1
 10
0.0
 20
0.0
 30
0.0
  0
VERTEX
  5
397
330
396
100
AcDbEntity
  8
Calque 1
 62
   250
420
  2236966
370
    50
100
AcDbVertex
100
AcDb2dVertex
 10
1309.901526229599
 20
2216.633346342543
 30
0.0
  0
VERTEX
  5
398
330
396
100
AcDbEntity
  8
Calque 1
 62
   250
420
  2236966
370
    50
100
AcDbVertex
100
AcDb2dVertex
 10
1309.805235810787
 20
2216.563066394644
 30
0.0
  0
SEQEND
  5
399
330
396
100
AcDbEntity
  8
Calque 1
 62
   250
420
  2236966
370
    50
  0
POLYLINE
  5
39A
330
1F
100
AcDbEntity
  8
Calque 1
 62
   250
420
  2236966
370
    50
100
AcDb2dPolyline
 66
     1
 10
0.0
 20
0.0
 30
0.0
  0
VERTEX
  5
39B
330
39A
100
AcDbEntity
  8
Calque 1
 62
   250
420
  2236966
370
    50
100
AcDbVertex
100
AcDb2dVertex
 10
1308.684373994661
 20
2218.105607898165
 30
0.0
  0
VERTEX
  5
39C
330
39A
100
AcDbEntity
  8
Calque 1
 62
   250
420
  2236966
370
    50
100
AcDbVertex
100
AcDb2dVertex
 10
1308.778080591859
 20
2218.173476279224
 30
0.0
  0
SEQEND
  5
39D
330
39A
100
AcDbEntity
  8
Calque 1
 62
   250
420
  2236966
370
    50
  0
POLYLINE
  5
39E
330
1F
100
AcDbEntity
  8
Calque 1
 62
   250
420
  2236966
370
    50
100
AcDb2dPolyline
 66
     1
 10
0.0
 20
0.0
 30
0.0
  0
VERTEX
  5
39F
330
39E
100
AcDbEntity
  8
Calque 1
 62
   250
420
  2236966
370
    50
100
AcDbVertex
100
AcDb2dVertex
 10
1312.832699595837
 20
2218.762759861976
 30
0.0
  0
VERTEX
  5
3A0
330
39E
100
AcDbEntity
  8
Calque 1
 62
   250
420
  2236966
370
    50
100
AcDbVertex
100
AcDb2dVertex
 10
1312.738992998638
 20
2218.694891480917
 30
0.0
  0
SEQEND
  5
3A1
330
39E
100
AcDbEntity
  8
Calque 1
 62
   250
420
  2236966
370
    50
  0
POLYLINE
  5
3A2
330
1F
100
AcDbEntity
  8
Calque 1
 62
   250
420
  2236966
370
    50
100
AcDb2dPolyline
 66
     1
 10
0.0
 20
0.0
 30
0.0
  0
VERTEX
  5
3A3
330
3A2
100
AcDbEntity
  8
Calque 1
 62
   250
420
  2236966
370
    50
100
AcDbVertex
100
AcDb2dVertex
 10
1309.805235810787
 20
2216.678649348174
 30
0.0
  0
VERTEX
  5
3A4
330
3A2
100
AcDbEntity
  8
Calque 1
 62
   250
420
  2236966
370
    50
100
AcDbVertex
100
AcDb2dVertex
 10
1309.711701468362
 20
2216.617498903311
 30
0.0
  0
SEQEND
  5
3A5
330
3A2
100
AcDbEntity
  8
Calque 1
 62
   250
420
  2236966
370
    50
  0
POLYLINE
  5
3A6
330
1F
100
AcDbEntity
  8
Calque 1
 62
   250
420
  2236966
370
    50
100
AcDb2dPolyline
 66
     1
 10
0.0
 20
0.0
 30
0.0
  0
VERTEX
  5
3A7
330
3A6
100
AcDbEntity
  8
Calque 1
 62
   250
420
  2236966
370
    50
100
AcDbVertex
100
AcDb2dVertex
 10
1308.730107637227
 20
2217.890633939885
 30
0.0
  0
VERTEX
  5
3A8
330
3A6
100
AcDbEntity
  8
Calque 1
 62
   250
420
  2236966
370
    50
100
AcDbVertex
100
AcDb2dVertex
 10
1308.816148896971
 20
2217.967804078755
 30
0.0
  0
SEQEND
  5
3A9
330
3A6
100
AcDbEntity
  8
Calque 1
 62
   250
420
  2236966
370
    50
  0
POLYLINE
  5
3AA
330
1F
100
AcDbEntity
  8
Calque 1
 62
   250
420
  2236966
370
    50
100
AcDb2dPolyline
 66
     1
 10
0.0
 20
0.0
 30
0.0
  0
VERTEX
  5
3AB
330
3AA
100
AcDbEntity
  8
Calque 1
 62
   250
420
  2236966
370
    50
100
AcDbVertex
100
AcDb2dVertex
 10
1312.78696595327
 20
2218.977733820256
 30
0.0
  0
VERTEX
  5
3AC
330
3AA
100
AcDbEntity
  8
Calque 1
 62
   250
420
  2236966
370
    50
100
AcDbVertex
100
AcDb2dVertex
 10
1312.700924693526
 20
2218.900563681386
 30
0.0
  0
SEQEND
  5
3AD
330
3AA
100
AcDbEntity
  8
Calque 1
 62
   250
420
  2236966
370
    50
  0
POLYLINE
  5
3AE
330
1F
100
AcDbEntity
  8
Calque 1
 62
   250
420
  2236966
370
    50
100
AcDb2dPolyline
 66
     1
 10
0.0
 20
0.0
 30
0.0
  0
VERTEX
  5
3AF
330
3AE
100
AcDbEntity
  8
Calque 1
 62
   250
420
  2236966
370
    50
100
AcDbVertex
100
AcDb2dVertex
 10
1311.51701763002
 20
2220.274812270452
 30
0.0
  0
VERTEX
  5
3B0
330
3AE
100
AcDbEntity
  8
Calque 1
 62
   250
420
  2236966
370
    50
100
AcDbVertex
100
AcDb2dVertex
 10
1311.615633488285
 20
2220.354910740484
 30
0.0
  0
SEQEND
  5
3B1
330
3AE
100
AcDbEntity
  8
Calque 1
 62
   250
420
  2236966
370
    50
  0
POLYLINE
  5
3B2
330
1F
100
AcDbEntity
  8
Calque 1
 62
   250
420
  2236966
370
    50
100
AcDb2dPolyline
 66
     1
 10
0.0
 20
0.0
 30
0.0
  0
VERTEX
  5
3B3
330
3B2
100
AcDbEntity
  8
Calque 1
 62
   250
420
  2236966
370
    50
100
AcDbVertex
100
AcDb2dVertex
 10
1310.000055960478
 20
2216.593555489689
 30
0.0
  0
VERTEX
  5
3B4
330
3B2
100
AcDbEntity
  8
Calque 1
 62
   250
420
  2236966
370
    50
100
AcDbVertex
100
AcDb2dVertex
 10
1309.901526229599
 20
2216.513284764882
 30
0.0
  0
SEQEND
  5
3B5
330
3B2
100
AcDbEntity
  8
Calque 1
 62
   250
420
  2236966
370
    50
  0
POLYLINE
  5
3B6
330
1F
100
AcDbEntity
  8
Calque 1
 62
   250
420
  2236966
370
    50
100
AcDb2dPolyline
 66
     1
 10
0.0
 20
0.0
 30
0.0
  0
VERTEX
  5
3B7
330
3B6
100
AcDbEntity
  8
Calque 1
 62
   250
420
  2236966
370
    50
100
AcDbVertex
100
AcDb2dVertex
 10
1308.704441675862
 20
2217.997604154702
 30
0.0
  0
VERTEX
  5
3B8
330
3B6
100
AcDbEntity
  8
Calque 1
 62
   250
420
  2236966
370
    50
100
AcDbVertex
100
AcDb2dVertex
 10
1308.794444795414
 20
2218.070123414667
 30
0.0
  0
SEQEND
  5
3B9
330
3B6
100
AcDbEntity
  8
Calque 1
 62
   250
420
  2236966
370
    50
  0
POLYLINE
  5
3BA
330
1F
100
AcDbEntity
  8
Calque 1
 62
   250
420
  2236966
370
    50
100
AcDb2dPolyline
 66
     1
 10
0.0
 20
0.0
 30
0.0
  0
VERTEX
  5
3BB
330
3BA
100
AcDbEntity
  8
Calque 1
 62
   250
420
  2236966
370
    50
100
AcDbVertex
100
AcDb2dVertex
 10
1312.812631914635
 20
2218.870763605439
 30
0.0
  0
VERTEX
  5
3BC
330
3BA
100
AcDbEntity
  8
Calque 1
 62
   250
420
  2236966
370
    50
100
AcDbVertex
100
AcDb2dVertex
 10
1312.722628795083
 20
2218.798244345474
 30
0.0
  0
SEQEND
  5
3BD
330
3BA
100
AcDbEntity
  8
Calque 1
 62
   250
420
  2236966
370
    50
  0
POLYLINE
  5
3BE
330
1F
100
AcDbEntity
  8
Calque 1
 62
   250
420
  2236966
370
    50
100
AcDb2dPolyline
 66
     1
 10
0.0
 20
0.0
 30
0.0
  0
VERTEX
  5
3BF
330
3BE
100
AcDbEntity
  8
Calque 1
 62
   250
420
  2236966
370
    50
100
AcDbVertex
100
AcDb2dVertex
 10
1311.325900957976
 20
2220.349398587708
 30
0.0
  0
VERTEX
  5
3C0
330
3BE
100
AcDbEntity
  8
Calque 1
 62
   250
420
  2236966
370
    50
100
AcDbVertex
100
AcDb2dVertex
 10
1311.407463593589
 20
2220.431391860257
 30
0.0
  0
SEQEND
  5
3C1
330
3BE
100
AcDbEntity
  8
Calque 1
 62
   250
420
  2236966
370
    50
  0
POLYLINE
  5
3C2
330
1F
100
AcDbEntity
  8
Calque 1
 62
   250
420
  2236966
370
    50
100
AcDb2dPolyline
 66
     1
 10
0.0
 20
0.0
 30
0.0
  0
VERTEX
  5
3C3
330
3C2
100
AcDbEntity
  8
Calque 1
 62
   250
420
  2236966
370
    50
100
AcDbVertex
100
AcDb2dVertex
 10
1310.191172632522
 20
2216.518969172433
 30
0.0
  0
VERTEX
  5
3C4
330
3C2
100
AcDbEntity
  8
Calque 1
 62
   250
420
  2236966
370
    50
100
AcDbVertex
100
AcDb2dVertex
 10
1310.109609996908
 20
2216.436975899884
 30
0.0
  0
SEQEND
  5
3C5
330
3C2
100
AcDbEntity
  8
Calque 1
 62
   250
420
  2236966
370
    50
  0
POLYLINE
  5
3C6
330
1F
100
AcDbEntity
  8
Calque 1
 62
   250
420
  2236966
370
    50
100
AcDb2dPolyline
 66
     1
 10
0.0
 20
0.0
 30
0.0
  0
VERTEX
  5
3C7
330
3C6
100
AcDbEntity
  8
Calque 1
 62
   250
420
  2236966
370
    50
100
AcDbVertex
100
AcDb2dVertex
 10
1308.761285751369
 20
2217.785214018037
 30
0.0
  0
VERTEX
  5
3C8
330
3C6
100
AcDbEntity
  8
Calque 1
 62
   250
420
  2236966
370
    50
100
AcDbVertex
100
AcDb2dVertex
 10
1308.843279023918
 20
2217.866862781037
 30
0.0
  0
SEQEND
  5
3C9
330
3C6
100
AcDbEntity
  8
Calque 1
 62
   250
420
  2236966
370
    50
  0
POLYLINE
  5
3CA
330
1F
100
AcDbEntity
  8
Calque 1
 62
   250
420
  2236966
370
    50
100
AcDb2dPolyline
 66
     1
 10
0.0
 20
0.0
 30
0.0
  0
VERTEX
  5
3CB
330
3CA
100
AcDbEntity
  8
Calque 1
 62
   250
420
  2236966
370
    50
100
AcDbVertex
100
AcDb2dVertex
 10
1312.755787839129
 20
2219.083153742105
 30
0.0
  0
VERTEX
  5
3CC
330
3CA
100
AcDbEntity
  8
Calque 1
 62
   250
420
  2236966
370
    50
100
AcDbVertex
100
AcDb2dVertex
 10
1312.67379456658
 20
2219.001504979104
 30
0.0
  0
SEQEND
  5
3CD
330
3CA
100
AcDbEntity
  8
Calque 1
 62
   250
420
  2236966
370
    50
  0
POLYLINE
  5
3CE
330
1F
100
AcDbEntity
  8
Calque 1
 62
   250
420
  2236966
370
    50
100
AcDb2dPolyline
 66
     1
 10
0.0
 20
0.0
 30
0.0
  0
VERTEX
  5
3CF
330
3CE
100
AcDbEntity
  8
Calque 1
 62
   250
420
  2236966
370
    50
100
AcDbVertex
100
AcDb2dVertex
 10
1311.425291962725
 20
2220.317186944921
 30
0.0
  0
VERTEX
  5
3D0
330
3CE
100
AcDbEntity
  8
Calque 1
 62
   250
420
  2236966
370
    50
100
AcDbVertex
100
AcDb2dVertex
 10
1311.51701763002
 20
2220.400041491341
 30
0.0
  0
SEQEND
  5
3D1
330
3CE
100
AcDbEntity
  8
Calque 1
 62
   250
420
  2236966
370
    50
  0
POLYLINE
  5
3D2
330
1F
100
AcDbEntity
  8
Calque 1
 62
   250
420
  2236966
370
    50
100
AcDb2dPolyline
 66
     1
 10
0.0
 20
0.0
 30
0.0
  0
VERTEX
  5
3D3
330
3D2
100
AcDbEntity
  8
Calque 1
 62
   250
420
  2236966
370
    50
100
AcDbVertex
100
AcDb2dVertex
 10
1310.091781627772
 20
2216.55118081522
 30
0.0
  0
VERTEX
  5
3D4
330
3D2
100
AcDbEntity
  8
Calque 1
 62
   250
420
  2236966
370
    50
100
AcDbVertex
100
AcDb2dVertex
 10
1310.000055960478
 20
2216.4683262688
 30
0.0
  0
SEQEND
  5
3D5
330
3D2
100
AcDbEntity
  8
Calque 1
 62
   250
420
  2236966
370
    50
  0
POLYLINE
  5
3D6
330
1F
100
AcDbEntity
  8
Calque 1
 62
   250
420
  2236966
370
    50
100
AcDb2dPolyline
 66
     1
 10
0.0
 20
0.0
 30
0.0
  0
VERTEX
  5
3D7
330
3D6
100
AcDbEntity
  8
Calque 1
 62
   250
420
  2236966
370
    50
100
AcDbVertex
100
AcDb2dVertex
 10
1311.224873532871
 20
2220.376442587267
 30
0.0
  0
VERTEX
  5
3D8
330
3D6
100
AcDbEntity
  8
Calque 1
 62
   250
420
  2236966
370
    50
100
AcDbVertex
100
AcDb2dVertex
 10
1311.30204367174
 20
2220.462569974398
 30
0.0
  0
SEQEND
  5
3D9
330
3D6
100
AcDbEntity
  8
Calque 1
 62
   250
420
  2236966
370
    50
  0
POLYLINE
  5
3DA
330
1F
100
AcDbEntity
  8
Calque 1
 62
   250
420
  2236966
370
    50
100
AcDb2dPolyline
 66
     1
 10
0.0
 20
0.0
 30
0.0
  0
VERTEX
  5
3DB
330
3DA
100
AcDbEntity
  8
Calque 1
 62
   250
420
  2236966
370
    50
100
AcDbVertex
100
AcDb2dVertex
 10
1310.292200057627
 20
2216.491752918099
 30
0.0
  0
VERTEX
  5
3DC
330
3DA
100
AcDbEntity
  8
Calque 1
 62
   250
420
  2236966
370
    50
100
AcDbVertex
100
AcDb2dVertex
 10
1310.215029918757
 20
2216.405797785742
 30
0.0
  0
SEQEND
  5
3DD
330
3DA
100
AcDbEntity
  8
Calque 1
 62
   250
420
  2236966
370
    50
  0
POLYLINE
  5
3DE
330
1F
100
AcDbEntity
  8
Calque 1
 62
   250
420
  2236966
370
    50
100
AcDb2dPolyline
 66
     1
 10
0.0
 20
0.0
 30
0.0
  0
VERTEX
  5
3DF
330
3DE
100
AcDbEntity
  8
Calque 1
 62
   250
420
  2236966
370
    50
100
AcDbVertex
100
AcDb2dVertex
 10
1308.792636120284
 20
2217.675659981605
 30
0.0
  0
VERTEX
  5
3E0
330
3DE
100
AcDbEntity
  8
Calque 1
 62
   250
420
  2236966
370
    50
100
AcDbVertex
100
AcDb2dVertex
 10
1308.875576794092
 20
2217.767299521513
 30
0.0
  0
SEQEND
  5
3E1
330
3DE
100
AcDbEntity
  8
Calque 1
 62
   250
420
  2236966
370
    50
  0
POLYLINE
  5
3E2
330
1F
100
AcDbEntity
  8
Calque 1
 62
   250
420
  2236966
370
    50
100
AcDb2dPolyline
 66
     1
 10
0.0
 20
0.0
 30
0.0
  0
VERTEX
  5
3E3
330
3E2
100
AcDbEntity
  8
Calque 1
 62
   250
420
  2236966
370
    50
100
AcDbVertex
100
AcDb2dVertex
 10
1312.724437470213
 20
2219.192707778535
 30
0.0
  0
VERTEX
  5
3E4
330
3E2
100
AcDbEntity
  8
Calque 1
 62
   250
420
  2236966
370
    50
100
AcDbVertex
100
AcDb2dVertex
 10
1312.641496796406
 20
2219.100895983853
 30
0.0
  0
SEQEND
  5
3E5
330
3E2
100
AcDbEntity
  8
Calque 1
 62
   250
420
  2236966
370
    50
  0
POLYLINE
  5
3E6
330
1F
100
AcDbEntity
  8
Calque 1
 62
   250
420
  2236966
370
    50
100
AcDb2dPolyline
 66
     1
 10
0.0
 20
0.0
 30
0.0
  0
VERTEX
  5
3E7
330
3E6
100
AcDbEntity
  8
Calque 1
 62
   250
420
  2236966
370
    50
100
AcDbVertex
100
AcDb2dVertex
 10
1311.019287459789
 20
2220.414683147153
 30
0.0
  0
VERTEX
  5
3E8
330
3E6
100
AcDbEntity
  8
Calque 1
 62
   250
420
  2236966
370
    50
100
AcDbVertex
100
AcDb2dVertex
 10
1311.087069713461
 20
2220.508389744352
 30
0.0
  0
SEQEND
  5
3E9
330
3E6
100
AcDbEntity
  8
Calque 1
 62
   250
420
  2236966
370
    50
  0
POLYLINE
  5
3EA
330
1F
100
AcDbEntity
  8
Calque 1
 62
   250
420
  2236966
370
    50
100
AcDb2dPolyline
 66
     1
 10
0.0
 20
0.0
 30
0.0
  0
VERTEX
  5
3EB
330
3EA
100
AcDbEntity
  8
Calque 1
 62
   250
420
  2236966
370
    50
100
AcDbVertex
100
AcDb2dVertex
 10
1310.497786130709
 20
2216.453684612987
 30
0.0
  0
VERTEX
  5
3EC
330
3EA
100
AcDbEntity
  8
Calque 1
 62
   250
420
  2236966
370
    50
100
AcDbVertex
100
AcDb2dVertex
 10
1310.430003877037
 20
2216.359978015789
 30
0.0
  0
SEQEND
  5
3ED
330
3EA
100
AcDbEntity
  8
Calque 1
 62
   250
420
  2236966
370
    50
  0
POLYLINE
  5
3EE
330
1F
100
AcDbEntity
  8
Calque 1
 62
   250
420
  2236966
370
    50
100
AcDb2dPolyline
 66
     1
 10
0.0
 20
0.0
 30
0.0
  0
VERTEX
  5
3EF
330
3EE
100
AcDbEntity
  8
Calque 1
 62
   250
420
  2236966
370
    50
100
AcDbVertex
100
AcDb2dVertex
 10
1308.887548500903
 20
2217.480839831915
 30
0.0
  0
VERTEX
  5
3F0
330
3EE
100
AcDbEntity
  8
Calque 1
 62
   250
420
  2236966
370
    50
100
AcDbVertex
100
AcDb2dVertex
 10
1308.957742321415
 20
2217.577130250727
 30
0.0
  0
SEQEND
  5
3F1
330
3EE
100
AcDbEntity
  8
Calque 1
 62
   250
420
  2236966
370
    50
  0
POLYLINE
  5
3F2
330
1F
100
AcDbEntity
  8
Calque 1
 62
   250
420
  2236966
370
    50
100
AcDb2dPolyline
 66
     1
 10
0.0
 20
0.0
 30
0.0
  0
VERTEX
  5
3F3
330
3F2
100
AcDbEntity
  8
Calque 1
 62
   250
420
  2236966
370
    50
100
AcDbVertex
100
AcDb2dVertex
 10
1312.629611216982
 20
2219.387355673452
 30
0.0
  0
VERTEX
  5
3F4
330
3F2
100
AcDbEntity
  8
Calque 1
 62
   250
420
  2236966
370
    50
100
AcDbVertex
100
AcDb2dVertex
 10
1312.559331269082
 20
2219.291237509413
 30
0.0
  0
SEQEND
  5
3F5
330
3F2
100
AcDbEntity
  8
Calque 1
 62
   250
420
  2236966
370
    50
  0
POLYLINE
  5
3F6
330
1F
100
AcDbEntity
  8
Calque 1
 62
   250
420
  2236966
370
    50
100
AcDb2dPolyline
 66
     1
 10
0.0
 20
0.0
 30
0.0
  0
VERTEX
  5
3F7
330
3F6
100
AcDbEntity
  8
Calque 1
 62
   250
420
  2236966
370
    50
100
AcDbVertex
100
AcDb2dVertex
 10
1311.122554196959
 20
2220.398318943598
 30
0.0
  0
VERTEX
  5
3F8
330
3F6
100
AcDbEntity
  8
Calque 1
 62
   250
420
  2236966
370
    50
100
AcDbVertex
100
AcDb2dVertex
 10
1311.195159584311
 20
2220.488235935763
 30
0.0
  0
SEQEND
  5
3F9
330
3F6
100
AcDbEntity
  8
Calque 1
 62
   250
420
  2236966
370
    50
  0
POLYLINE
  5
3FA
330
1F
100
AcDbEntity
  8
Calque 1
 62
   250
420
  2236966
370
    50
100
AcDb2dPolyline
 66
     1
 10
0.0
 20
0.0
 30
0.0
  0
VERTEX
  5
3FB
330
3FA
100
AcDbEntity
  8
Calque 1
 62
   250
420
  2236966
370
    50
100
AcDbVertex
100
AcDb2dVertex
 10
1310.394519393539
 20
2216.470048816542
 30
0.0
  0
VERTEX
  5
3FC
330
3FA
100
AcDbEntity
  8
Calque 1
 62
   250
420
  2236966
370
    50
100
AcDbVertex
100
AcDb2dVertex
 10
1310.321914006187
 20
2216.380131824377
 30
0.0
  0
SEQEND
  5
3FD
330
3FA
100
AcDbEntity
  8
Calque 1
 62
   250
420
  2236966
370
    50
  0
POLYLINE
  5
3FE
330
1F
100
AcDbEntity
  8
Calque 1
 62
   250
420
  2236966
370
    50
100
AcDb2dPolyline
 66
     1
 10
0.0
 20
0.0
 30
0.0
  0
VERTEX
  5
3FF
330
3FE
100
AcDbEntity
  8
Calque 1
 62
   250
420
  2236966
370
    50
100
AcDbVertex
100
AcDb2dVertex
 10
1308.837766871141
 20
2217.577130250727
 30
0.0
  0
VERTEX
  5
400
330
3FE
100
AcDbEntity
  8
Calque 1
 62
   250
420
  2236966
370
    50
100
AcDbVertex
100
AcDb2dVertex
 10
1308.917865341173
 20
2217.675659981605
 30
0.0
  0
SEQEND
  5
401
330
3FE
100
AcDbEntity
  8
Calque 1
 62
   250
420
  2236966
370
    50
  0
POLYLINE
  5
402
330
1F
100
AcDbEntity
  8
Calque 1
 62
   250
420
  2236966
370
    50
100
AcDb2dPolyline
 66
     1
 10
0.0
 20
0.0
 30
0.0
  0
VERTEX
  5
403
330
402
100
AcDbEntity
  8
Calque 1
 62
   250
420
  2236966
370
    50
100
AcDbVertex
100
AcDb2dVertex
 10
1312.679392846743
 20
2219.291237509413
 30
0.0
  0
VERTEX
  5
404
330
402
100
AcDbEntity
  8
Calque 1
 62
   250
420
  2236966
370
    50
100
AcDbVertex
100
AcDb2dVertex
 10
1312.599208249324
 20
2219.192707778535
 30
0.0
  0
SEQEND
  5
405
330
402
100
AcDbEntity
  8
Calque 1
 62
   250
420
  2236966
370
    50
  0
POLYLINE
  5
406
330
1F
100
AcDbEntity
  8
Calque 1
 62
   250
420
  2236966
370
    50
100
AcDb2dPolyline
 66
     1
 10
0.0
 20
0.0
 30
0.0
  0
VERTEX
  5
407
330
406
100
AcDbEntity
  8
Calque 1
 62
   250
420
  2236966
370
    50
100
AcDbVertex
100
AcDb2dVertex
 10
1310.915245576134
 20
2220.425535197932
 30
0.0
  0
VERTEX
  5
408
330
406
100
AcDbEntity
  8
Calque 1
 62
   250
420
  2236966
370
    50
100
AcDbVertex
100
AcDb2dVertex
 10
1310.978032441353
 20
2220.522686890616
 30
0.0
  0
SEQEND
  5
409
330
406
100
AcDbEntity
  8
Calque 1
 62
   250
420
  2236966
370
    50
  0
POLYLINE
  5
40A
330
1F
100
AcDbEntity
  8
Calque 1
 62
   250
420
  2236966
370
    50
100
AcDb2dPolyline
 66
     1
 10
0.0
 20
0.0
 30
0.0
  0
VERTEX
  5
40B
330
40A
100
AcDbEntity
  8
Calque 1
 62
   250
420
  2236966
370
    50
100
AcDbVertex
100
AcDb2dVertex
 10
1310.601828014363
 20
2216.442832562209
 30
0.0
  0
VERTEX
  5
40C
330
40A
100
AcDbEntity
  8
Calque 1
 62
   250
420
  2236966
370
    50
100
AcDbVertex
100
AcDb2dVertex
 10
1310.539041149145
 20
2216.345680869525
 30
0.0
  0
SEQEND
  5
40D
330
40A
100
AcDbEntity
  8
Calque 1
 62
   250
420
  2236966
370
    50
  0
POLYLINE
  5
40E
330
1F
100
AcDbEntity
  8
Calque 1
 62
   250
420
  2236966
370
    50
100
AcDb2dPolyline
 66
     1
 10
0.0
 20
0.0
 30
0.0
  0
VERTEX
  5
40F
330
40E
100
AcDbEntity
  8
Calque 1
 62
   250
420
  2236966
370
    50
100
AcDbVertex
100
AcDb2dVertex
 10
1308.94198100957
 20
2217.38730548949
 30
0.0
  0
VERTEX
  5
410
330
40E
100
AcDbEntity
  8
Calque 1
 62
   250
420
  2236966
370
    50
100
AcDbVertex
100
AcDb2dVertex
 10
1309.002959199659
 20
2217.480839831915
 30
0.0
  0
SEQEND
  5
411
330
40E
100
AcDbEntity
  8
Calque 1
 62
   250
420
  2236966
370
    50
  0
POLYLINE
  5
412
330
1F
100
AcDbEntity
  8
Calque 1
 62
   250
420
  2236966
370
    50
100
AcDb2dPolyline
 66
     1
 10
0.0
 20
0.0
 30
0.0
  0
VERTEX
  5
413
330
412
100
AcDbEntity
  8
Calque 1
 62
   250
420
  2236966
370
    50
100
AcDbVertex
100
AcDb2dVertex
 10
1312.575178708315
 20
2219.48106227065
 30
0.0
  0
VERTEX
  5
414
330
412
100
AcDbEntity
  8
Calque 1
 62
   250
420
  2236966
370
    50
100
AcDbVertex
100
AcDb2dVertex
 10
1312.514114390839
 20
2219.387355673452
 30
0.0
  0
SEQEND
  5
415
330
412
100
AcDbEntity
  8
Calque 1
 62
   250
420
  2236966
370
    50
  0
POLYLINE
  5
416
330
1F
100
AcDbEntity
  8
Calque 1
 62
   250
420
  2236966
370
    50
100
AcDb2dPolyline
 66
     1
 10
0.0
 20
0.0
 30
0.0
  0
VERTEX
  5
417
330
416
100
AcDbEntity
  8
Calque 1
 62
   250
420
  2236966
370
    50
100
AcDbVertex
100
AcDb2dVertex
 10
1310.810859182931
 20
2220.431047350708
 30
0.0
  0
VERTEX
  5
418
330
416
100
AcDbEntity
  8
Calque 1
 62
   250
420
  2236966
370
    50
100
AcDbVertex
100
AcDb2dVertex
 10
1310.868478404922
 20
2220.531299629329
 30
0.0
  0
SEQEND
  5
419
330
416
100
AcDbEntity
  8
Calque 1
 62
   250
420
  2236966
370
    50
  0
POLYLINE
  5
41A
330
1F
100
AcDbEntity
  8
Calque 1
 62
   250
420
  2236966
370
    50
100
AcDb2dPolyline
 66
     1
 10
0.0
 20
0.0
 30
0.0
  0
VERTEX
  5
41B
330
41A
100
AcDbEntity
  8
Calque 1
 62
   250
420
  2236966
370
    50
100
AcDbVertex
100
AcDb2dVertex
 10
1310.706214407566
 20
2216.437320409432
 30
0.0
  0
VERTEX
  5
41C
330
41A
100
AcDbEntity
  8
Calque 1
 62
   250
420
  2236966
370
    50
100
AcDbVertex
100
AcDb2dVertex
 10
1310.648595185576
 20
2216.337068130812
 30
0.0
  0
SEQEND
  5
41D
330
41A
100
AcDbEntity
  8
Calque 1
 62
   250
420
  2236966
370
    50
  0
POLYLINE
  5
41E
330
1F
100
AcDbEntity
  8
Calque 1
 62
   250
420
  2236966
370
    50
100
AcDb2dPolyline
 66
     1
 10
0.0
 20
0.0
 30
0.0
  0
VERTEX
  5
41F
330
41E
100
AcDbEntity
  8
Calque 1
 62
   250
420
  2236966
370
    50
100
AcDbVertex
100
AcDb2dVertex
 10
1309.000892142368
 20
2217.296527223454
 30
0.0
  0
VERTEX
  5
420
330
41E
100
AcDbEntity
  8
Calque 1
 62
   250
420
  2236966
370
    50
100
AcDbVertex
100
AcDb2dVertex
 10
1309.053515975905
 20
2217.38730548949
 30
0.0
  0
SEQEND
  5
421
330
41E
100
AcDbEntity
  8
Calque 1
 62
   250
420
  2236966
370
    50
  0
POLYLINE
  5
422
330
1F
100
AcDbEntity
  8
Calque 1
 62
   250
420
  2236966
370
    50
100
AcDb2dPolyline
 66
     1
 10
0.0
 20
0.0
 30
0.0
  0
VERTEX
  5
423
330
422
100
AcDbEntity
  8
Calque 1
 62
   250
420
  2236966
370
    50
100
AcDbVertex
100
AcDb2dVertex
 10
1312.51618144813
 20
2219.571840536687
 30
0.0
  0
VERTEX
  5
424
330
422
100
AcDbEntity
  8
Calque 1
 62
   250
420
  2236966
370
    50
100
AcDbVertex
100
AcDb2dVertex
 10
1312.463557614592
 20
2219.48106227065
 30
0.0
  0
SEQEND
  5
425
330
422
100
AcDbEntity
  8
Calque 1
 62
   250
420
  2236966
370
    50
  0
POLYLINE
  5
426
330
1F
100
AcDbEntity
  8
Calque 1
 62
   250
420
  2236966
370
    50
100
AcDb2dPolyline
 66
     1
 10
0.0
 20
0.0
 30
0.0
  0
VERTEX
  5
427
330
426
100
AcDbEntity
  8
Calque 1
 62
   250
420
  2236966
370
    50
100
AcDbVertex
100
AcDb2dVertex
 10
1310.601828014363
 20
2220.425535197932
 30
0.0
  0
VERTEX
  5
428
330
426
100
AcDbEntity
  8
Calque 1
 62
   250
420
  2236966
370
    50
100
AcDbVertex
100
AcDb2dVertex
 10
1310.648595185576
 20
2220.531299629329
 30
0.0
  0
SEQEND
  5
429
330
426
100
AcDbEntity
  8
Calque 1
 62
   250
420
  2236966
370
    50
  0
POLYLINE
  5
42A
330
1F
100
AcDbEntity
  8
Calque 1
 62
   250
420
  2236966
370
    50
100
AcDb2dPolyline
 66
     1
 10
0.0
 20
0.0
 30
0.0
  0
VERTEX
  5
42B
330
42A
100
AcDbEntity
  8
Calque 1
 62
   250
420
  2236966
370
    50
100
AcDbVertex
100
AcDb2dVertex
 10
1310.915245576134
 20
2216.442832562209
 30
0.0
  0
VERTEX
  5
42C
330
42A
100
AcDbEntity
  8
Calque 1
 62
   250
420
  2236966
370
    50
100
AcDbVertex
100
AcDb2dVertex
 10
1310.868478404922
 20
2216.337068130812
 30
0.0
  0
SEQEND
  5
42D
330
42A
100
AcDbEntity
  8
Calque 1
 62
   250
420
  2236966
370
    50
  0
POLYLINE
  5
42E
330
1F
100
AcDbEntity
  8
Calque 1
 62
   250
420
  2236966
370
    50
100
AcDb2dPolyline
 66
     1
 10
0.0
 20
0.0
 30
0.0
  0
VERTEX
  5
42F
330
42E
100
AcDbEntity
  8
Calque 1
 62
   250
420
  2236966
370
    50
100
AcDbVertex
100
AcDb2dVertex
 10
1309.126552000192
 20
2217.112559124541
 30
0.0
  0
VERTEX
  5
430
330
42E
100
AcDbEntity
  8
Calque 1
 62
   250
420
  2236966
370
    50
100
AcDbVertex
100
AcDb2dVertex
 10
1309.17374980834
 20
2217.218151301164
 30
0.0
  0
SEQEND
  5
431
330
42E
100
AcDbEntity
  8
Calque 1
 62
   250
420
  2236966
370
    50
  0
POLYLINE
  5
432
330
1F
100
AcDbEntity
  8
Calque 1
 62
   250
420
  2236966
370
    50
100
AcDb2dPolyline
 66
     1
 10
0.0
 20
0.0
 30
0.0
  0
VERTEX
  5
433
330
432
100
AcDbEntity
  8
Calque 1
 62
   250
420
  2236966
370
    50
100
AcDbVertex
100
AcDb2dVertex
 10
1312.390521590305
 20
2219.755808635599
 30
0.0
  0
VERTEX
  5
434
330
432
100
AcDbEntity
  8
Calque 1
 62
   250
420
  2236966
370
    50
100
AcDbVertex
100
AcDb2dVertex
 10
1312.343323782157
 20
2219.650216458977
 30
0.0
  0
SEQEND
  5
435
330
432
100
AcDbEntity
  8
Calque 1
 62
   250
420
  2236966
370
    50
  0
POLYLINE
  5
436
330
1F
100
AcDbEntity
  8
Calque 1
 62
   250
420
  2236966
370
    50
100
AcDb2dPolyline
 66
     1
 10
0.0
 20
0.0
 30
0.0
  0
VERTEX
  5
437
330
436
100
AcDbEntity
  8
Calque 1
 62
   250
420
  2236966
370
    50
100
AcDbVertex
100
AcDb2dVertex
 10
1310.706214407566
 20
2220.431047350708
 30
0.0
  0
VERTEX
  5
438
330
436
100
AcDbEntity
  8
Calque 1
 62
   250
420
  2236966
370
    50
100
AcDbVertex
100
AcDb2dVertex
 10
1310.758579858942
 20
2220.534227960492
 30
0.0
  0
SEQEND
  5
439
330
436
100
AcDbEntity
  8
Calque 1
 62
   250
420
  2236966
370
    50
  0
POLYLINE
  5
43A
330
1F
100
AcDbEntity
  8
Calque 1
 62
   250
420
  2236966
370
    50
100
AcDb2dPolyline
 66
     1
 10
0.0
 20
0.0
 30
0.0
  0
VERTEX
  5
43B
330
43A
100
AcDbEntity
  8
Calque 1
 62
   250
420
  2236966
370
    50
100
AcDbVertex
100
AcDb2dVertex
 10
1310.810859182931
 20
2216.437320409432
 30
0.0
  0
VERTEX
  5
43C
330
43A
100
AcDbEntity
  8
Calque 1
 62
   250
420
  2236966
370
    50
100
AcDbVertex
100
AcDb2dVertex
 10
1310.758579858942
 20
2216.334139799649
 30
0.0
  0
SEQEND
  5
43D
330
43A
100
AcDbEntity
  8
Calque 1
 62
   250
420
  2236966
370
    50
  0
POLYLINE
  5
43E
330
1F
100
AcDbEntity
  8
Calque 1
 62
   250
420
  2236966
370
    50
100
AcDb2dPolyline
 66
     1
 10
0.0
 20
0.0
 30
0.0
  0
VERTEX
  5
43F
330
43E
100
AcDbEntity
  8
Calque 1
 62
   250
420
  2236966
370
    50
100
AcDbVertex
100
AcDb2dVertex
 10
1309.059631020391
 20
2217.199892295092
 30
0.0
  0
VERTEX
  5
440
330
43E
100
AcDbEntity
  8
Calque 1
 62
   250
420
  2236966
370
    50
100
AcDbVertex
100
AcDb2dVertex
 10
1309.109154267992
 20
2217.296527223454
 30
0.0
  0
SEQEND
  5
441
330
43E
100
AcDbEntity
  8
Calque 1
 62
   250
420
  2236966
370
    50
  0
POLYLINE
  5
442
330
1F
100
AcDbEntity
  8
Calque 1
 62
   250
420
  2236966
370
    50
100
AcDb2dPolyline
 66
     1
 10
0.0
 20
0.0
 30
0.0
  0
VERTEX
  5
443
330
442
100
AcDbEntity
  8
Calque 1
 62
   250
420
  2236966
370
    50
100
AcDbVertex
100
AcDb2dVertex
 10
1312.457442570106
 20
2219.668475465048
 30
0.0
  0
VERTEX
  5
444
330
442
100
AcDbEntity
  8
Calque 1
 62
   250
420
  2236966
370
    50
100
AcDbVertex
100
AcDb2dVertex
 10
1312.407919322506
 20
2219.571840536687
 30
0.0
  0
SEQEND
  5
445
330
442
100
AcDbEntity
  8
Calque 1
 62
   250
420
  2236966
370
    50
  0
POLYLINE
  5
446
330
1F
100
AcDbEntity
  8
Calque 1
 62
   250
420
  2236966
370
    50
100
AcDb2dPolyline
 66
     1
 10
0.0
 20
0.0
 30
0.0
  0
VERTEX
  5
447
330
446
100
AcDbEntity
  8
Calque 1
 62
   250
420
  2236966
370
    50
100
AcDbVertex
100
AcDb2dVertex
 10
1310.497786130709
 20
2220.414683147153
 30
0.0
  0
VERTEX
  5
448
330
446
100
AcDbEntity
  8
Calque 1
 62
   250
420
  2236966
370
    50
100
AcDbVertex
100
AcDb2dVertex
 10
1310.539041149145
 20
2220.522686890616
 30
0.0
  0
SEQEND
  5
449
330
446
100
AcDbEntity
  8
Calque 1
 62
   250
420
  2236966
370
    50
  0
POLYLINE
  5
44A
330
1F
100
AcDbEntity
  8
Calque 1
 62
   250
420
  2236966
370
    50
100
AcDb2dPolyline
 66
     1
 10
0.0
 20
0.0
 30
0.0
  0
VERTEX
  5
44B
330
44A
100
AcDbEntity
  8
Calque 1
 62
   250
420
  2236966
370
    50
100
AcDbVertex
100
AcDb2dVertex
 10
1311.019287459789
 20
2216.453684612987
 30
0.0
  0
VERTEX
  5
44C
330
44A
100
AcDbEntity
  8
Calque 1
 62
   250
420
  2236966
370
    50
100
AcDbVertex
100
AcDb2dVertex
 10
1310.978032441353
 20
2216.345680869525
 30
0.0
  0
SEQEND
  5
44D
330
44A
100
AcDbEntity
  8
Calque 1
 62
   250
420
  2236966
370
    50
  0
POLYLINE
  5
44E
330
1F
100
AcDbEntity
  8
Calque 1
 62
   250
420
  2236966
370
    50
100
AcDb2dPolyline
 66
     1
 10
0.0
 20
0.0
 30
0.0
  0
VERTEX
  5
44F
330
44E
100
AcDbEntity
  8
Calque 1
 62
   250
420
  2236966
370
    50
100
AcDbVertex
100
AcDb2dVertex
 10
1309.197951604124
 20
2217.029015559024
 30
0.0
  0
VERTEX
  5
450
330
44E
100
AcDbEntity
  8
Calque 1
 62
   250
420
  2236966
370
    50
100
AcDbVertex
100
AcDb2dVertex
 10
1309.239637259496
 20
2217.136847047712
 30
0.0
  0
SEQEND
  5
451
330
44E
100
AcDbEntity
  8
Calque 1
 62
   250
420
  2236966
370
    50
  0
POLYLINE
  5
452
330
1F
100
AcDbEntity
  8
Calque 1
 62
   250
420
  2236966
370
    50
100
AcDb2dPolyline
 66
     1
 10
0.0
 20
0.0
 30
0.0
  0
VERTEX
  5
453
330
452
100
AcDbEntity
  8
Calque 1
 62
   250
420
  2236966
370
    50
100
AcDbVertex
100
AcDb2dVertex
 10
1312.319121986373
 20
2219.839352201117
 30
0.0
  0
VERTEX
  5
454
330
452
100
AcDbEntity
  8
Calque 1
 62
   250
420
  2236966
370
    50
100
AcDbVertex
100
AcDb2dVertex
 10
1312.277522458389
 20
2219.731520712428
 30
0.0
  0
SEQEND
  5
455
330
452
100
AcDbEntity
  8
Calque 1
 62
   250
420
  2236966
370
    50
  0
POLYLINE
  5
456
330
1F
100
AcDbEntity
  8
Calque 1
 62
   250
420
  2236966
370
    50
100
AcDb2dPolyline
 66
     1
 10
0.0
 20
0.0
 30
0.0
  0
VERTEX
  5
457
330
456
100
AcDbEntity
  8
Calque 1
 62
   250
420
  2236966
370
    50
100
AcDbVertex
100
AcDb2dVertex
 10
1310.394519393539
 20
2220.398318943598
 30
0.0
  0
VERTEX
  5
458
330
456
100
AcDbEntity
  8
Calque 1
 62
   250
420
  2236966
370
    50
100
AcDbVertex
100
AcDb2dVertex
 10
1310.430003877037
 20
2220.508389744352
 30
0.0
  0
SEQEND
  5
459
330
456
100
AcDbEntity
  8
Calque 1
 62
   250
420
  2236966
370
    50
  0
POLYLINE
  5
45A
330
1F
100
AcDbEntity
  8
Calque 1
 62
   250
420
  2236966
370
    50
100
AcDb2dPolyline
 66
     1
 10
0.0
 20
0.0
 30
0.0
  0
VERTEX
  5
45B
330
45A
100
AcDbEntity
  8
Calque 1
 62
   250
420
  2236966
370
    50
100
AcDbVertex
100
AcDb2dVertex
 10
1311.122554196959
 20
2216.470048816542
 30
0.0
  0
VERTEX
  5
45C
330
45A
100
AcDbEntity
  8
Calque 1
 62
   250
420
  2236966
370
    50
100
AcDbVertex
100
AcDb2dVertex
 10
1311.087069713461
 20
2216.359978015789
 30
0.0
  0
SEQEND
  5
45D
330
45A
100
AcDbEntity
  8
Calque 1
 62
   250
420
  2236966
370
    50
  0
POLYLINE
  5
45E
330
1F
100
AcDbEntity
  8
Calque 1
 62
   250
420
  2236966
370
    50
100
AcDb2dPolyline
 66
     1
 10
0.0
 20
0.0
 30
0.0
  0
VERTEX
  5
45F
330
45E
100
AcDbEntity
  8
Calque 1
 62
   250
420
  2236966
370
    50
100
AcDbVertex
100
AcDb2dVertex
 10
1309.273657577412
 20
2216.94926159854
 30
0.0
  0
VERTEX
  5
460
330
45E
100
AcDbEntity
  8
Calque 1
 62
   250
420
  2236966
370
    50
100
AcDbVertex
100
AcDb2dVertex
 10
1309.309572697846
 20
2217.05916014452
 30
0.0
  0
SEQEND
  5
461
330
45E
100
AcDbEntity
  8
Calque 1
 62
   250
420
  2236966
370
    50
  0
POLYLINE
  5
462
330
1F
100
AcDbEntity
  8
Calque 1
 62
   250
420
  2236966
370
    50
100
AcDb2dPolyline
 66
     1
 10
0.0
 20
0.0
 30
0.0
  0
VERTEX
  5
463
330
462
100
AcDbEntity
  8
Calque 1
 62
   250
420
  2236966
370
    50
100
AcDbVertex
100
AcDb2dVertex
 10
1312.243502140472
 20
2219.9191061616
 30
0.0
  0
VERTEX
  5
464
330
462
100
AcDbEntity
  8
Calque 1
 62
   250
420
  2236966
370
    50
100
AcDbVertex
100
AcDb2dVertex
 10
1312.207500892651
 20
2219.809207615621
 30
0.0
  0
SEQEND
  5
465
330
462
100
AcDbEntity
  8
Calque 1
 62
   250
420
  2236966
370
    50
  0
POLYLINE
  5
466
330
1F
100
AcDbEntity
  8
Calque 1
 62
   250
420
  2236966
370
    50
100
AcDb2dPolyline
 66
     1
 10
0.0
 20
0.0
 30
0.0
  0
VERTEX
  5
467
330
466
100
AcDbEntity
  8
Calque 1
 62
   250
420
  2236966
370
    50
100
AcDbVertex
100
AcDb2dVertex
 10
1310.191172632522
 20
2220.349398587708
 30
0.0
  0
VERTEX
  5
468
330
466
100
AcDbEntity
  8
Calque 1
 62
   250
420
  2236966
370
    50
100
AcDbVertex
100
AcDb2dVertex
 10
1310.215029918757
 20
2220.462569974398
 30
0.0
  0
SEQEND
  5
469
330
466
100
AcDbEntity
  8
Calque 1
 62
   250
420
  2236966
370
    50
  0
POLYLINE
  5
46A
330
1F
100
AcDbEntity
  8
Calque 1
 62
   250
420
  2236966
370
    50
100
AcDb2dPolyline
 66
     1
 10
0.0
 20
0.0
 30
0.0
  0
VERTEX
  5
46B
330
46A
100
AcDbEntity
  8
Calque 1
 62
   250
420
  2236966
370
    50
100
AcDbVertex
100
AcDb2dVertex
 10
1311.325900957976
 20
2216.518969172433
 30
0.0
  0
VERTEX
  5
46C
330
46A
100
AcDbEntity
  8
Calque 1
 62
   250
420
  2236966
370
    50
100
AcDbVertex
100
AcDb2dVertex
 10
1311.30204367174
 20
2216.405797785742
 30
0.0
  0
SEQEND
  5
46D
330
46A
100
AcDbEntity
  8
Calque 1
 62
   250
420
  2236966
370
    50
  0
POLYLINE
  5
46E
330
1F
100
AcDbEntity
  8
Calque 1
 62
   250
420
  2236966
370
    50
100
AcDb2dPolyline
 66
     1
 10
0.0
 20
0.0
 30
0.0
  0
VERTEX
  5
46F
330
46E
100
AcDbEntity
  8
Calque 1
 62
   250
420
  2236966
370
    50
100
AcDbVertex
100
AcDb2dVertex
 10
1309.436955103413
 20
2216.802156021321
 30
0.0
  0
VERTEX
  5
470
330
46E
100
AcDbEntity
  8
Calque 1
 62
   250
420
  2236966
370
    50
100
AcDbVertex
100
AcDb2dVertex
 10
1309.461243026584
 20
2216.915155153237
 30
0.0
  0
SEQEND
  5
471
330
46E
100
AcDbEntity
  8
Calque 1
 62
   250
420
  2236966
370
    50
  0
POLYLINE
  5
472
330
1F
100
AcDbEntity
  8
Calque 1
 62
   250
420
  2236966
370
    50
100
AcDb2dPolyline
 66
     1
 10
0.0
 20
0.0
 30
0.0
  0
VERTEX
  5
473
330
472
100
AcDbEntity
  8
Calque 1
 62
   250
420
  2236966
370
    50
100
AcDbVertex
100
AcDb2dVertex
 10
1312.080118487084
 20
2220.06621173882
 30
0.0
  0
VERTEX
  5
474
330
472
100
AcDbEntity
  8
Calque 1
 62
   250
420
  2236966
370
    50
100
AcDbVertex
100
AcDb2dVertex
 10
1312.055830563913
 20
2219.95304035213
 30
0.0
  0
SEQEND
  5
475
330
472
100
AcDbEntity
  8
Calque 1
 62
   250
420
  2236966
370
    50
  0
POLYLINE
  5
476
330
1F
100
AcDbEntity
  8
Calque 1
 62
   250
420
  2236966
370
    50
100
AcDb2dPolyline
 66
     1
 10
0.0
 20
0.0
 30
0.0
  0
VERTEX
  5
477
330
476
100
AcDbEntity
  8
Calque 1
 62
   250
420
  2236966
370
    50
100
AcDbVertex
100
AcDb2dVertex
 10
1310.292200057627
 20
2220.376442587267
 30
0.0
  0
VERTEX
  5
478
330
476
100
AcDbEntity
  8
Calque 1
 62
   250
420
  2236966
370
    50
100
AcDbVertex
100
AcDb2dVertex
 10
1310.321914006187
 20
2220.488235935763
 30
0.0
  0
SEQEND
  5
479
330
476
100
AcDbEntity
  8
Calque 1
 62
   250
420
  2236966
370
    50
  0
POLYLINE
  5
47A
330
1F
100
AcDbEntity
  8
Calque 1
 62
   250
420
  2236966
370
    50
100
AcDb2dPolyline
 66
     1
 10
0.0
 20
0.0
 30
0.0
  0
VERTEX
  5
47B
330
47A
100
AcDbEntity
  8
Calque 1
 62
   250
420
  2236966
370
    50
100
AcDbVertex
100
AcDb2dVertex
 10
1311.224873532871
 20
2216.491752918099
 30
0.0
  0
VERTEX
  5
47C
330
47A
100
AcDbEntity
  8
Calque 1
 62
   250
420
  2236966
370
    50
100
AcDbVertex
100
AcDb2dVertex
 10
1311.195159584311
 20
2216.380131824377
 30
0.0
  0
SEQEND
  5
47D
330
47A
100
AcDbEntity
  8
Calque 1
 62
   250
420
  2236966
370
    50
  0
POLYLINE
  5
47E
330
1F
100
AcDbEntity
  8
Calque 1
 62
   250
420
  2236966
370
    50
100
AcDb2dPolyline
 66
     1
 10
0.0
 20
0.0
 30
0.0
  0
VERTEX
  5
47F
330
47E
100
AcDbEntity
  8
Calque 1
 62
   250
420
  2236966
370
    50
100
AcDbVertex
100
AcDb2dVertex
 10
1309.353325410509
 20
2216.873641752639
 30
0.0
  0
VERTEX
  5
480
330
47E
100
AcDbEntity
  8
Calque 1
 62
   250
420
  2236966
370
    50
100
AcDbVertex
100
AcDb2dVertex
 10
1309.383556123392
 20
2216.985262846361
 30
0.0
  0
SEQEND
  5
481
330
47E
100
AcDbEntity
  8
Calque 1
 62
   250
420
  2236966
370
    50
  0
POLYLINE
  5
482
330
1F
100
AcDbEntity
  8
Calque 1
 62
   250
420
  2236966
370
    50
100
AcDb2dPolyline
 66
     1
 10
0.0
 20
0.0
 30
0.0
  0
VERTEX
  5
483
330
482
100
AcDbEntity
  8
Calque 1
 62
   250
420
  2236966
370
    50
100
AcDbVertex
100
AcDb2dVertex
 10
1312.163748179989
 20
2219.994726007501
 30
0.0
  0
VERTEX
  5
484
330
482
100
AcDbEntity
  8
Calque 1
 62
   250
420
  2236966
370
    50
100
AcDbVertex
100
AcDb2dVertex
 10
1312.133517467106
 20
2219.883104913779
 30
0.0
  0
SEQEND
  5
485
330
482
100
AcDbEntity
  8
Calque 1
 62
   250
420
  2236966
370
    50
  0
POLYLINE
  5
486
330
1F
100
AcDbEntity
  8
Calque 1
 62
   250
420
  2236966
370
    50
100
AcDb2dPolyline
 66
     1
 10
0.0
 20
0.0
 30
0.0
  0
VERTEX
  5
487
330
486
100
AcDbEntity
  8
Calque 1
 62
   250
420
  2236966
370
    50
100
AcDbVertex
100
AcDb2dVertex
 10
1310.109609996908
 20
2220.431391860257
 30
0.0
  0
VERTEX
  5
488
330
486
100
AcDbEntity
  8
Calque 1
 62
   250
420
  2236966
370
    50
100
AcDbVertex
100
AcDb2dVertex
 10
1310.091781627772
 20
2220.317186944921
 30
0.0
  0
SEQEND
  5
489
330
486
100
AcDbEntity
  8
Calque 1
 62
   250
420
  2236966
370
    50
  0
POLYLINE
  5
48A
330
1F
100
AcDbEntity
  8
Calque 1
 62
   250
420
  2236966
370
    50
100
AcDb2dPolyline
 66
     1
 10
0.0
 20
0.0
 30
0.0
  0
VERTEX
  5
48B
330
48A
100
AcDbEntity
  8
Calque 1
 62
   250
420
  2236966
370
    50
100
AcDbVertex
100
AcDb2dVertex
 10
1311.407463593589
 20
2216.436975899884
 30
0.0
  0
VERTEX
  5
48C
330
48A
100
AcDbEntity
  8
Calque 1
 62
   250
420
  2236966
370
    50
100
AcDbVertex
100
AcDb2dVertex
 10
1311.425291962725
 20
2216.55118081522
 30
0.0
  0
SEQEND
  5
48D
330
48A
100
AcDbEntity
  8
Calque 1
 62
   250
420
  2236966
370
    50
  0
POLYLINE
  5
48E
330
1F
100
AcDbEntity
  8
Calque 1
 62
   250
420
  2236966
370
    50
100
AcDb2dPolyline
 66
     1
 10
0.0
 20
0.0
 30
0.0
  0
VERTEX
  5
48F
330
48E
100
AcDbEntity
  8
Calque 1
 62
   250
420
  2236966
370
    50
100
AcDbVertex
100
AcDb2dVertex
 10
1309.542547280036
 20
2216.849353829468
 30
0.0
  0
VERTEX
  5
490
330
48E
100
AcDbEntity
  8
Calque 1
 62
   250
420
  2236966
370
    50
100
AcDbVertex
100
AcDb2dVertex
 10
1309.524202146577
 20
2216.735321168906
 30
0.0
  0
SEQEND
  5
491
330
48E
100
AcDbEntity
  8
Calque 1
 62
   250
420
  2236966
370
    50
  0
POLYLINE
  5
492
330
1F
100
AcDbEntity
  8
Calque 1
 62
   250
420
  2236966
370
    50
100
AcDb2dPolyline
 66
     1
 10
0.0
 20
0.0
 30
0.0
  0
VERTEX
  5
493
330
492
100
AcDbEntity
  8
Calque 1
 62
   250
420
  2236966
370
    50
100
AcDbVertex
100
AcDb2dVertex
 10
1311.974526310461
 20
2220.019013930672
 30
0.0
  0
VERTEX
  5
494
330
492
100
AcDbEntity
  8
Calque 1
 62
   250
420
  2236966
370
    50
100
AcDbVertex
100
AcDb2dVertex
 10
1311.99287144392
 20
2220.133046591234
 30
0.0
  0
SEQEND
  5
495
330
492
100
AcDbEntity
  8
Calque 1
 62
   250
420
  2236966
370
    50
  0
POLYLINE
  5
496
330
1F
100
AcDbEntity
  8
Calque 1
 62
   250
420
  2236966
370
    50
100
AcDb2dPolyline
 66
     1
 10
0.0
 20
0.0
 30
0.0
  0
VERTEX
  5
497
330
496
100
AcDbEntity
  8
Calque 1
 62
   250
420
  2236966
370
    50
100
AcDbVertex
100
AcDb2dVertex
 10
1309.904368433375
 20
2220.352671428419
 30
0.0
  0
VERTEX
  5
498
330
496
100
AcDbEntity
  8
Calque 1
 62
   250
420
  2236966
370
    50
100
AcDbVertex
100
AcDb2dVertex
 10
1309.898684025824
 20
2220.239844551277
 30
0.0
  0
SEQEND
  5
499
330
496
100
AcDbEntity
  8
Calque 1
 62
   250
420
  2236966
370
    50
  0
POLYLINE
  5
49A
330
1F
100
AcDbEntity
  8
Calque 1
 62
   250
420
  2236966
370
    50
100
AcDb2dPolyline
 66
     1
 10
0.0
 20
0.0
 30
0.0
  0
VERTEX
  5
49B
330
49A
100
AcDbEntity
  8
Calque 1
 62
   250
420
  2236966
370
    50
100
AcDbVertex
100
AcDb2dVertex
 10
1311.612705157123
 20
2216.515696331722
 30
0.0
  0
VERTEX
  5
49C
330
49A
100
AcDbEntity
  8
Calque 1
 62
   250
420
  2236966
370
    50
100
AcDbVertex
100
AcDb2dVertex
 10
1311.618389564674
 20
2216.628350954089
 30
0.0
  0
SEQEND
  5
49D
330
49A
100
AcDbEntity
  8
Calque 1
 62
   250
420
  2236966
370
    50
  0
POLYLINE
  5
49E
330
1F
100
AcDbEntity
  8
Calque 1
 62
   250
420
  2236966
370
    50
100
AcDb2dPolyline
 66
     1
 10
0.0
 20
0.0
 30
0.0
  0
VERTEX
  5
49F
330
49E
100
AcDbEntity
  8
Calque 1
 62
   250
420
  2236966
370
    50
100
AcDbVertex
100
AcDb2dVertex
 10
1309.714715926912
 20
2216.728258723162
 30
0.0
  0
VERTEX
  5
4A0
330
49E
100
AcDbEntity
  8
Calque 1
 62
   250
420
  2236966
370
    50
100
AcDbVertex
100
AcDb2dVertex
 10
1309.708514755038
 20
2216.615604100794
 30
0.0
  0
SEQEND
  5
4A1
330
49E
100
AcDbEntity
  8
Calque 1
 62
   250
420
  2236966
370
    50
  0
POLYLINE
  5
4A2
330
1F
100
AcDbEntity
  8
Calque 1
 62
   250
420
  2236966
370
    50
100
AcDb2dPolyline
 66
     1
 10
0.0
 20
0.0
 30
0.0
  0
VERTEX
  5
4A3
330
4A2
100
AcDbEntity
  8
Calque 1
 62
   250
420
  2236966
370
    50
100
AcDbVertex
100
AcDb2dVertex
 10
1311.802443790973
 20
2220.140109036979
 30
0.0
  0
VERTEX
  5
4A4
330
4A2
100
AcDbEntity
  8
Calque 1
 62
   250
420
  2236966
370
    50
100
AcDbVertex
100
AcDb2dVertex
 10
1311.808558835459
 20
2220.252763659347
 30
0.0
  0
SEQEND
  5
4A5
330
4A2
100
AcDbEntity
  8
Calque 1
 62
   250
420
  2236966
370
    50
  0
POLYLINE
  5
4A6
330
1F
100
AcDbEntity
  8
Calque 1
 62
   250
420
  2236966
370
    50
100
AcDb2dPolyline
 66
     1
 10
0.0
 20
0.0
 30
0.0
  0
VERTEX
  5
4A7
330
4A6
100
AcDbEntity
  8
Calque 1
 62
   250
420
  2236966
370
    50
100
AcDbVertex
100
AcDb2dVertex
 10
1310.00599875019
 20
2220.394701593339
 30
0.0
  0
VERTEX
  5
4A8
330
4A6
100
AcDbEntity
  8
Calque 1
 62
   250
420
  2236966
370
    50
100
AcDbVertex
100
AcDb2dVertex
 10
1309.994371552927
 20
2220.28239148052
 30
0.0
  0
SEQEND
  5
4A9
330
4A6
100
AcDbEntity
  8
Calque 1
 62
   250
420
  2236966
370
    50
  0
POLYLINE
  5
4AA
330
1F
100
AcDbEntity
  8
Calque 1
 62
   250
420
  2236966
370
    50
100
AcDb2dPolyline
 66
     1
 10
0.0
 20
0.0
 30
0.0
  0
VERTEX
  5
4AB
330
4AA
100
AcDbEntity
  8
Calque 1
 62
   250
420
  2236966
370
    50
100
AcDbVertex
100
AcDb2dVertex
 10
1311.511074840308
 20
2216.473666166802
 30
0.0
  0
VERTEX
  5
4AC
330
4AA
100
AcDbEntity
  8
Calque 1
 62
   250
420
  2236966
370
    50
100
AcDbVertex
100
AcDb2dVertex
 10
1311.522702037571
 20
2216.585976279621
 30
0.0
  0
SEQEND
  5
4AD
330
4AA
100
AcDbEntity
  8
Calque 1
 62
   250
420
  2236966
370
    50
  0
POLYLINE
  5
4AE
330
1F
100
AcDbEntity
  8
Calque 1
 62
   250
420
  2236966
370
    50
100
AcDb2dPolyline
 66
     1
 10
0.0
 20
0.0
 30
0.0
  0
VERTEX
  5
4AF
330
4AE
100
AcDbEntity
  8
Calque 1
 62
   250
420
  2236966
370
    50
100
AcDbVertex
100
AcDb2dVertex
 10
1309.626779864651
 20
2216.785102798669
 30
0.0
  0
VERTEX
  5
4B0
330
4AE
100
AcDbEntity
  8
Calque 1
 62
   250
420
  2236966
370
    50
100
AcDbVertex
100
AcDb2dVertex
 10
1309.614808157839
 20
2216.672964940623
 30
0.0
  0
SEQEND
  5
4B1
330
4AE
100
AcDbEntity
  8
Calque 1
 62
   250
420
  2236966
370
    50
  0
POLYLINE
  5
4B2
330
1F
100
AcDbEntity
  8
Calque 1
 62
   250
420
  2236966
370
    50
100
AcDb2dPolyline
 66
     1
 10
0.0
 20
0.0
 30
0.0
  0
VERTEX
  5
4B3
330
4B2
100
AcDbEntity
  8
Calque 1
 62
   250
420
  2236966
370
    50
100
AcDbVertex
100
AcDb2dVertex
 10
1311.890293725847
 20
2220.083092706698
 30
0.0
  0
VERTEX
  5
4B4
330
4B2
100
AcDbEntity
  8
Calque 1
 62
   250
420
  2236966
370
    50
100
AcDbVertex
100
AcDb2dVertex
 10
1311.902265432658
 20
2220.195402819517
 30
0.0
  0
SEQEND
  5
4B5
330
4B2
100
AcDbEntity
  8
Calque 1
 62
   250
420
  2236966
370
    50
  0
POLYLINE
  5
4B6
330
1F
100
AcDbEntity
  8
Calque 1
 62
   250
420
  2236966
370
    50
100
AcDb2dPolyline
 66
     1
 10
0.0
 20
0.0
 30
0.0
  0
VERTEX
  5
4B7
330
4B6
100
AcDbEntity
  8
Calque 1
 62
   250
420
  2236966
370
    50
100
AcDbVertex
100
AcDb2dVertex
 10
1309.8051496834
 20
2220.305301365497
 30
0.0
  0
VERTEX
  5
4B8
330
4B6
100
AcDbEntity
  8
Calque 1
 62
   250
420
  2236966
370
    50
100
AcDbVertex
100
AcDb2dVertex
 10
1309.805408065561
 20
2220.192474488355
 30
0.0
  0
SEQEND
  5
4B9
330
4B6
100
AcDbEntity
  8
Calque 1
 62
   250
420
  2236966
370
    50
  0
POLYLINE
  5
4BA
330
1F
100
AcDbEntity
  8
Calque 1
 62
   250
420
  2236966
370
    50
100
AcDb2dPolyline
 66
     1
 10
0.0
 20
0.0
 30
0.0
  0
VERTEX
  5
4BB
330
4BA
100
AcDbEntity
  8
Calque 1
 62
   250
420
  2236966
370
    50
100
AcDbVertex
100
AcDb2dVertex
 10
1311.711923907098
 20
2216.563066394644
 30
0.0
  0
VERTEX
  5
4BC
330
4BA
100
AcDbEntity
  8
Calque 1
 62
   250
420
  2236966
370
    50
100
AcDbVertex
100
AcDb2dVertex
 10
1311.711665524937
 20
2216.675893271786
 30
0.0
  0
SEQEND
  5
4BD
330
4BA
100
AcDbEntity
  8
Calque 1
 62
   250
420
  2236966
370
    50
  0
POLYLINE
  5
4BE
330
1F
100
AcDbEntity
  8
Calque 1
 62
   250
420
  2236966
370
    50
100
AcDb2dPolyline
 66
     1
 10
0.0
 20
0.0
 30
0.0
  0
VERTEX
  5
4BF
330
4BE
100
AcDbEntity
  8
Calque 1
 62
   250
420
  2236966
370
    50
100
AcDbVertex
100
AcDb2dVertex
 10
1309.805408065561
 20
2216.675893271786
 30
0.0
  0
VERTEX
  5
4C0
330
4BE
100
AcDbEntity
  8
Calque 1
 62
   250
420
  2236966
370
    50
100
AcDbVertex
100
AcDb2dVertex
 10
1309.8051496834
 20
2216.563066394644
 30
0.0
  0
SEQEND
  5
4C1
330
4BE
100
AcDbEntity
  8
Calque 1
 62
   250
420
  2236966
370
    50
  0
POLYLINE
  5
4C2
330
1F
100
AcDbEntity
  8
Calque 1
 62
   250
420
  2236966
370
    50
100
AcDb2dPolyline
 66
     1
 10
0.0
 20
0.0
 30
0.0
  0
VERTEX
  5
4C3
330
4C2
100
AcDbEntity
  8
Calque 1
 62
   250
420
  2236966
370
    50
100
AcDbVertex
100
AcDb2dVertex
 10
1311.711665524937
 20
2220.192474488355
 30
0.0
  0
VERTEX
  5
4C4
330
4C2
100
AcDbEntity
  8
Calque 1
 62
   250
420
  2236966
370
    50
100
AcDbVertex
100
AcDb2dVertex
 10
1311.711923907098
 20
2220.305301365497
 30
0.0
  0
SEQEND
  5
4C5
330
4C2
100
AcDbEntity
  8
Calque 1
 62
   250
420
  2236966
370
    50
  0
POLYLINE
  5
4C6
330
1F
100
AcDbEntity
  8
Calque 1
 62
   250
420
  2236966
370
    50
100
AcDb2dPolyline
 66
     1
 10
0.0
 20
0.0
 30
0.0
  0
VERTEX
  5
4C7
330
4C6
100
AcDbEntity
  8
Calque 1
 62
   250
420
  2236966
370
    50
100
AcDbVertex
100
AcDb2dVertex
 10
1309.614808157839
 20
2220.195402819517
 30
0.0
  0
VERTEX
  5
4C8
330
4C6
100
AcDbEntity
  8
Calque 1
 62
   250
420
  2236966
370
    50
100
AcDbVertex
100
AcDb2dVertex
 10
1309.626779864651
 20
2220.083092706698
 30
0.0
  0
SEQEND
  5
4C9
330
4C6
100
AcDbEntity
  8
Calque 1
 62
   250
420
  2236966
370
    50
  0
POLYLINE
  5
4CA
330
1F
100
AcDbEntity
  8
Calque 1
 62
   250
420
  2236966
370
    50
100
AcDb2dPolyline
 66
     1
 10
0.0
 20
0.0
 30
0.0
  0
VERTEX
  5
4CB
330
4CA
100
AcDbEntity
  8
Calque 1
 62
   250
420
  2236966
370
    50
100
AcDbVertex
100
AcDb2dVertex
 10
1311.902265432658
 20
2216.672964940623
 30
0.0
  0
VERTEX
  5
4CC
330
4CA
100
AcDbEntity
  8
Calque 1
 62
   250
420
  2236966
370
    50
100
AcDbVertex
100
AcDb2dVertex
 10
1311.890293725847
 20
2216.785102798669
 30
0.0
  0
SEQEND
  5
4CD
330
4CA
100
AcDbEntity
  8
Calque 1
 62
   250
420
  2236966
370
    50
  0
POLYLINE
  5
4CE
330
1F
100
AcDbEntity
  8
Calque 1
 62
   250
420
  2236966
370
    50
100
AcDb2dPolyline
 66
     1
 10
0.0
 20
0.0
 30
0.0
  0
VERTEX
  5
4CF
330
4CE
100
AcDbEntity
  8
Calque 1
 62
   250
420
  2236966
370
    50
100
AcDbVertex
100
AcDb2dVertex
 10
1309.994371552927
 20
2216.585976279621
 30
0.0
  0
VERTEX
  5
4D0
330
4CE
100
AcDbEntity
  8
Calque 1
 62
   250
420
  2236966
370
    50
100
AcDbVertex
100
AcDb2dVertex
 10
1310.00599875019
 20
2216.473666166802
 30
0.0
  0
SEQEND
  5
4D1
330
4CE
100
AcDbEntity
  8
Calque 1
 62
   250
420
  2236966
370
    50
  0
POLYLINE
  5
4D2
330
1F
100
AcDbEntity
  8
Calque 1
 62
   250
420
  2236966
370
    50
100
AcDb2dPolyline
 66
     1
 10
0.0
 20
0.0
 30
0.0
  0
VERTEX
  5
4D3
330
4D2
100
AcDbEntity
  8
Calque 1
 62
   250
420
  2236966
370
    50
100
AcDbVertex
100
AcDb2dVertex
 10
1311.522702037571
 20
2220.28239148052
 30
0.0
  0
VERTEX
  5
4D4
330
4D2
100
AcDbEntity
  8
Calque 1
 62
   250
420
  2236966
370
    50
100
AcDbVertex
100
AcDb2dVertex
 10
1311.511074840308
 20
2220.394701593339
 30
0.0
  0
SEQEND
  5
4D5
330
4D2
100
AcDbEntity
  8
Calque 1
 62
   250
420
  2236966
370
    50
  0
POLYLINE
  5
4D6
330
1F
100
AcDbEntity
  8
Calque 1
 62
   250
420
  2236966
370
    50
100
AcDb2dPolyline
 66
     1
 10
0.0
 20
0.0
 30
0.0
  0
VERTEX
  5
4D7
330
4D6
100
AcDbEntity
  8
Calque 1
 62
   250
420
  2236966
370
    50
100
AcDbVertex
100
AcDb2dVertex
 10
1309.708514755038
 20
2220.252763659347
 30
0.0
  0
VERTEX
  5
4D8
330
4D6
100
AcDbEntity
  8
Calque 1
 62
   250
420
  2236966
370
    50
100
AcDbVertex
100
AcDb2dVertex
 10
1309.714715926912
 20
2220.140109036979
 30
0.0
  0
SEQEND
  5
4D9
330
4D6
100
AcDbEntity
  8
Calque 1
 62
   250
420
  2236966
370
    50
  0
POLYLINE
  5
4DA
330
1F
100
AcDbEntity
  8
Calque 1
 62
   250
420
  2236966
370
    50
100
AcDb2dPolyline
 66
     1
 10
0.0
 20
0.0
 30
0.0
  0
VERTEX
  5
4DB
330
4DA
100
AcDbEntity
  8
Calque 1
 62
   250
420
  2236966
370
    50
100
AcDbVertex
100
AcDb2dVertex
 10
1311.808558835459
 20
2216.615604100794
 30
0.0
  0
VERTEX
  5
4DC
330
4DA
100
AcDbEntity
  8
Calque 1
 62
   250
420
  2236966
370
    50
100
AcDbVertex
100
AcDb2dVertex
 10
1311.802443790973
 20
2216.728258723162
 30
0.0
  0
SEQEND
  5
4DD
330
4DA
100
AcDbEntity
  8
Calque 1
 62
   250
420
  2236966
370
    50
  0
POLYLINE
  5
4DE
330
1F
100
AcDbEntity
  8
Calque 1
 62
   250
420
  2236966
370
    50
100
AcDb2dPolyline
 66
     1
 10
0.0
 20
0.0
 30
0.0
  0
VERTEX
  5
4DF
330
4DE
100
AcDbEntity
  8
Calque 1
 62
   250
420
  2236966
370
    50
100
AcDbVertex
100
AcDb2dVertex
 10
1309.898684025824
 20
2216.628350954089
 30
0.0
  0
VERTEX
  5
4E0
330
4DE
100
AcDbEntity
  8
Calque 1
 62
   250
420
  2236966
370
    50
100
AcDbVertex
100
AcDb2dVertex
 10
1309.904368433375
 20
2216.515696331722
 30
0.0
  0
SEQEND
  5
4E1
330
4DE
100
AcDbEntity
  8
Calque 1
 62
   250
420
  2236966
370
    50
  0
POLYLINE
  5
4E2
330
1F
100
AcDbEntity
  8
Calque 1
 62
   250
420
  2236966
370
    50
100
AcDb2dPolyline
 66
     1
 10
0.0
 20
0.0
 30
0.0
  0
VERTEX
  5
4E3
330
4E2
100
AcDbEntity
  8
Calque 1
 62
   250
420
  2236966
370
    50
100
AcDbVertex
100
AcDb2dVertex
 10
1311.618389564674
 20
2220.239844551277
 30
0.0
  0
VERTEX
  5
4E4
330
4E2
100
AcDbEntity
  8
Calque 1
 62
   250
420
  2236966
370
    50
100
AcDbVertex
100
AcDb2dVertex
 10
1311.612705157123
 20
2220.352671428419
 30
0.0
  0
SEQEND
  5
4E5
330
4E2
100
AcDbEntity
  8
Calque 1
 62
   250
420
  2236966
370
    50
  0
POLYLINE
  5
4E6
330
1F
100
AcDbEntity
  8
Calque 1
 62
   250
420
  2236966
370
    50
100
AcDb2dPolyline
 66
     1
 10
0.0
 20
0.0
 30
0.0
  0
VERTEX
  5
4E7
330
4E6
100
AcDbEntity
  8
Calque 1
 62
   250
420
  2236966
370
    50
100
AcDbVertex
100
AcDb2dVertex
 10
1309.524202146577
 20
2220.133046591234
 30
0.0
  0
VERTEX
  5
4E8
330
4E6
100
AcDbEntity
  8
Calque 1
 62
   250
420
  2236966
370
    50
100
AcDbVertex
100
AcDb2dVertex
 10
1309.542547280036
 20
2220.019013930672
 30
0.0
  0
SEQEND
  5
4E9
330
4E6
100
AcDbEntity
  8
Calque 1
 62
   250
420
  2236966
370
    50
  0
POLYLINE
  5
4EA
330
1F
100
AcDbEntity
  8
Calque 1
 62
   250
420
  2236966
370
    50
100
AcDb2dPolyline
 66
     1
 10
0.0
 20
0.0
 30
0.0
  0
VERTEX
  5
4EB
330
4EA
100
AcDbEntity
  8
Calque 1
 62
   250
420
  2236966
370
    50
100
AcDbVertex
100
AcDb2dVertex
 10
1311.99287144392
 20
2216.735321168906
 30
0.0
  0
VERTEX
  5
4EC
330
4EA
100
AcDbEntity
  8
Calque 1
 62
   250
420
  2236966
370
    50
100
AcDbVertex
100
AcDb2dVertex
 10
1311.974526310461
 20
2216.849353829468
 30
0.0
  0
SEQEND
  5
4ED
330
4EA
100
AcDbEntity
  8
Calque 1
 62
   250
420
  2236966
370
    50
  0
POLYLINE
  5
4EE
330
1F
100
AcDbEntity
  8
Calque 1
 62
   250
420
  2236966
370
    50
100
AcDb2dPolyline
 66
     1
 10
0.0
 20
0.0
 30
0.0
  0
VERTEX
  5
4EF
330
4EE
100
AcDbEntity
  8
Calque 1
 62
   250
420
  2236966
370
    50
100
AcDbVertex
100
AcDb2dVertex
 10
1310.091781627772
 20
2216.55118081522
 30
0.0
  0
VERTEX
  5
4F0
330
4EE
100
AcDbEntity
  8
Calque 1
 62
   250
420
  2236966
370
    50
100
AcDbVertex
100
AcDb2dVertex
 10
1310.109609996908
 20
2216.436975899884
 30
0.0
  0
SEQEND
  5
4F1
330
4EE
100
AcDbEntity
  8
Calque 1
 62
   250
420
  2236966
370
    50
  0
POLYLINE
  5
4F2
330
1F
100
AcDbEntity
  8
Calque 1
 62
   250
420
  2236966
370
    50
100
AcDb2dPolyline
 66
     1
 10
0.0
 20
0.0
 30
0.0
  0
VERTEX
  5
4F3
330
4F2
100
AcDbEntity
  8
Calque 1
 62
   250
420
  2236966
370
    50
100
AcDbVertex
100
AcDb2dVertex
 10
1311.425291962725
 20
2220.317186944921
 30
0.0
  0
VERTEX
  5
4F4
330
4F2
100
AcDbEntity
  8
Calque 1
 62
   250
420
  2236966
370
    50
100
AcDbVertex
100
AcDb2dVertex
 10
1311.407463593589
 20
2220.431391860257
 30
0.0
  0
SEQEND
  5
4F5
330
4F2
100
AcDbEntity
  8
Calque 1
 62
   250
420
  2236966
370
    50
  0
POLYLINE
  5
4F6
330
1F
100
AcDbEntity
  8
Calque 1
 62
   250
420
  2236966
370
    50
100
AcDb2dPolyline
 66
     1
 10
0.0
 20
0.0
 30
0.0
  0
VERTEX
  5
4F7
330
4F6
100
AcDbEntity
  8
Calque 1
 62
   250
420
  2236966
370
    50
100
AcDbVertex
100
AcDb2dVertex
 10
1309.383556123392
 20
2219.883104913779
 30
0.0
  0
VERTEX
  5
4F8
330
4F6
100
AcDbEntity
  8
Calque 1
 62
   250
420
  2236966
370
    50
100
AcDbVertex
100
AcDb2dVertex
 10
1309.353325410509
 20
2219.994726007501
 30
0.0
  0
SEQEND
  5
4F9
330
4F6
100
AcDbEntity
  8
Calque 1
 62
   250
420
  2236966
370
    50
  0
POLYLINE
  5
4FA
330
1F
100
AcDbEntity
  8
Calque 1
 62
   250
420
  2236966
370
    50
100
AcDb2dPolyline
 66
     1
 10
0.0
 20
0.0
 30
0.0
  0
VERTEX
  5
4FB
330
4FA
100
AcDbEntity
  8
Calque 1
 62
   250
420
  2236966
370
    50
100
AcDbVertex
100
AcDb2dVertex
 10
1312.133517467106
 20
2216.985262846361
 30
0.0
  0
VERTEX
  5
4FC
330
4FA
100
AcDbEntity
  8
Calque 1
 62
   250
420
  2236966
370
    50
100
AcDbVertex
100
AcDb2dVertex
 10
1312.163748179989
 20
2216.873641752639
 30
0.0
  0
SEQEND
  5
4FD
330
4FA
100
AcDbEntity
  8
Calque 1
 62
   250
420
  2236966
370
    50
  0
POLYLINE
  5
4FE
330
1F
100
AcDbEntity
  8
Calque 1
 62
   250
420
  2236966
370
    50
100
AcDb2dPolyline
 66
     1
 10
0.0
 20
0.0
 30
0.0
  0
VERTEX
  5
4FF
330
4FE
100
AcDbEntity
  8
Calque 1
 62
   250
420
  2236966
370
    50
100
AcDbVertex
100
AcDb2dVertex
 10
1310.321914006187
 20
2216.380131824377
 30
0.0
  0
VERTEX
  5
500
330
4FE
100
AcDbEntity
  8
Calque 1
 62
   250
420
  2236966
370
    50
100
AcDbVertex
100
AcDb2dVertex
 10
1310.292200057627
 20
2216.491752918099
 30
0.0
  0
SEQEND
  5
501
330
4FE
100
AcDbEntity
  8
Calque 1
 62
   250
420
  2236966
370
    50
  0
POLYLINE
  5
502
330
1F
100
AcDbEntity
  8
Calque 1
 62
   250
420
  2236966
370
    50
100
AcDb2dPolyline
 66
     1
 10
0.0
 20
0.0
 30
0.0
  0
VERTEX
  5
503
330
502
100
AcDbEntity
  8
Calque 1
 62
   250
420
  2236966
370
    50
100
AcDbVertex
100
AcDb2dVertex
 10
1311.195159584311
 20
2220.488235935763
 30
0.0
  0
VERTEX
  5
504
330
502
100
AcDbEntity
  8
Calque 1
 62
   250
420
  2236966
370
    50
100
AcDbVertex
100
AcDb2dVertex
 10
1311.224873532871
 20
2220.376442587267
 30
0.0
  0
SEQEND
  5
505
330
502
100
AcDbEntity
  8
Calque 1
 62
   250
420
  2236966
370
    50
  0
POLYLINE
  5
506
330
1F
100
AcDbEntity
  8
Calque 1
 62
   250
420
  2236966
370
    50
100
AcDb2dPolyline
 66
     1
 10
0.0
 20
0.0
 30
0.0
  0
VERTEX
  5
507
330
506
100
AcDbEntity
  8
Calque 1
 62
   250
420
  2236966
370
    50
100
AcDbVertex
100
AcDb2dVertex
 10
1309.461243026584
 20
2219.95304035213
 30
0.0
  0
VERTEX
  5
508
330
506
100
AcDbEntity
  8
Calque 1
 62
   250
420
  2236966
370
    50
100
AcDbVertex
100
AcDb2dVertex
 10
1309.436955103413
 20
2220.06621173882
 30
0.0
  0
SEQEND
  5
509
330
506
100
AcDbEntity
  8
Calque 1
 62
   250
420
  2236966
370
    50
  0
POLYLINE
  5
50A
330
1F
100
AcDbEntity
  8
Calque 1
 62
   250
420
  2236966
370
    50
100
AcDb2dPolyline
 66
     1
 10
0.0
 20
0.0
 30
0.0
  0
VERTEX
  5
50B
330
50A
100
AcDbEntity
  8
Calque 1
 62
   250
420
  2236966
370
    50
100
AcDbVertex
100
AcDb2dVertex
 10
1312.055830563913
 20
2216.915155153237
 30
0.0
  0
VERTEX
  5
50C
330
50A
100
AcDbEntity
  8
Calque 1
 62
   250
420
  2236966
370
    50
100
AcDbVertex
100
AcDb2dVertex
 10
1312.080118487084
 20
2216.802156021321
 30
0.0
  0
SEQEND
  5
50D
330
50A
100
AcDbEntity
  8
Calque 1
 62
   250
420
  2236966
370
    50
  0
POLYLINE
  5
50E
330
1F
100
AcDbEntity
  8
Calque 1
 62
   250
420
  2236966
370
    50
100
AcDb2dPolyline
 66
     1
 10
0.0
 20
0.0
 30
0.0
  0
VERTEX
  5
50F
330
50E
100
AcDbEntity
  8
Calque 1
 62
   250
420
  2236966
370
    50
100
AcDbVertex
100
AcDb2dVertex
 10
1310.215029918757
 20
2216.405797785742
 30
0.0
  0
VERTEX
  5
510
330
50E
100
AcDbEntity
  8
Calque 1
 62
   250
420
  2236966
370
    50
100
AcDbVertex
100
AcDb2dVertex
 10
1310.191172632522
 20
2216.518969172433
 30
0.0
  0
SEQEND
  5
511
330
50E
100
AcDbEntity
  8
Calque 1
 62
   250
420
  2236966
370
    50
  0
POLYLINE
  5
512
330
1F
100
AcDbEntity
  8
Calque 1
 62
   250
420
  2236966
370
    50
100
AcDb2dPolyline
 66
     1
 10
0.0
 20
0.0
 30
0.0
  0
VERTEX
  5
513
330
512
100
AcDbEntity
  8
Calque 1
 62
   250
420
  2236966
370
    50
100
AcDbVertex
100
AcDb2dVertex
 10
1311.30204367174
 20
2220.462569974398
 30
0.0
  0
VERTEX
  5
514
330
512
100
AcDbEntity
  8
Calque 1
 62
   250
420
  2236966
370
    50
100
AcDbVertex
100
AcDb2dVertex
 10
1311.325900957976
 20
2220.349398587708
 30
0.0
  0
SEQEND
  5
515
330
512
100
AcDbEntity
  8
Calque 1
 62
   250
420
  2236966
370
    50
  0
POLYLINE
  5
516
330
1F
100
AcDbEntity
  8
Calque 1
 62
   250
420
  2236966
370
    50
100
AcDb2dPolyline
 66
     1
 10
0.0
 20
0.0
 30
0.0
  0
VERTEX
  5
517
330
516
100
AcDbEntity
  8
Calque 1
 62
   250
420
  2236966
370
    50
100
AcDbVertex
100
AcDb2dVertex
 10
1309.309572697846
 20
2217.05916014452
 30
0.0
  0
VERTEX
  5
518
330
516
100
AcDbEntity
  8
Calque 1
 62
   250
420
  2236966
370
    50
100
AcDbVertex
100
AcDb2dVertex
 10
1309.197951604124
 20
2217.029015559024
 30
0.0
  0
SEQEND
  5
519
330
516
100
AcDbEntity
  8
Calque 1
 62
   250
420
  2236966
370
    50
  0
POLYLINE
  5
51A
330
1F
100
AcDbEntity
  8
Calque 1
 62
   250
420
  2236966
370
    50
100
AcDb2dPolyline
 66
     1
 10
0.0
 20
0.0
 30
0.0
  0
VERTEX
  5
51B
330
51A
100
AcDbEntity
  8
Calque 1
 62
   250
420
  2236966
370
    50
100
AcDbVertex
100
AcDb2dVertex
 10
1312.207500892651
 20
2219.809207615621
 30
0.0
  0
VERTEX
  5
51C
330
51A
100
AcDbEntity
  8
Calque 1
 62
   250
420
  2236966
370
    50
100
AcDbVertex
100
AcDb2dVertex
 10
1312.319121986373
 20
2219.839352201117
 30
0.0
  0
SEQEND
  5
51D
330
51A
100
AcDbEntity
  8
Calque 1
 62
   250
420
  2236966
370
    50
  0
POLYLINE
  5
51E
330
1F
100
AcDbEntity
  8
Calque 1
 62
   250
420
  2236966
370
    50
100
AcDb2dPolyline
 66
     1
 10
0.0
 20
0.0
 30
0.0
  0
VERTEX
  5
51F
330
51E
100
AcDbEntity
  8
Calque 1
 62
   250
420
  2236966
370
    50
100
AcDbVertex
100
AcDb2dVertex
 10
1312.812631914635
 20
2217.997604154702
 30
0.0
  0
VERTEX
  5
520
330
51E
100
AcDbEntity
  8
Calque 1
 62
   250
420
  2236966
370
    50
100
AcDbVertex
100
AcDb2dVertex
 10
1312.700924693526
 20
2217.967804078755
 30
0.0
  0
SEQEND
  5
521
330
51E
100
AcDbEntity
  8
Calque 1
 62
   250
420
  2236966
370
    50
  0
POLYLINE
  5
522
330
1F
100
AcDbEntity
  8
Calque 1
 62
   250
420
  2236966
370
    50
100
AcDb2dPolyline
 66
     1
 10
0.0
 20
0.0
 30
0.0
  0
VERTEX
  5
523
330
522
100
AcDbEntity
  8
Calque 1
 62
   250
420
  2236966
370
    50
100
AcDbVertex
100
AcDb2dVertex
 10
1308.704441675862
 20
2218.870763605439
 30
0.0
  0
VERTEX
  5
524
330
522
100
AcDbEntity
  8
Calque 1
 62
   250
420
  2236966
370
    50
100
AcDbVertex
100
AcDb2dVertex
 10
1308.816148896971
 20
2218.900563681386
 30
0.0
  0
SEQEND
  5
525
330
522
100
AcDbEntity
  8
Calque 1
 62
   250
420
  2236966
370
    50
  0
POLYLINE
  5
526
330
1F
100
AcDbEntity
  8
Calque 1
 62
   250
420
  2236966
370
    50
100
AcDb2dPolyline
 66
     1
 10
0.0
 20
0.0
 30
0.0
  0
VERTEX
  5
527
330
526
100
AcDbEntity
  8
Calque 1
 62
   250
420
  2236966
370
    50
100
AcDbVertex
100
AcDb2dVertex
 10
1309.239637259496
 20
2217.136847047712
 30
0.0
  0
VERTEX
  5
528
330
526
100
AcDbEntity
  8
Calque 1
 62
   250
420
  2236966
370
    50
100
AcDbVertex
100
AcDb2dVertex
 10
1309.126552000192
 20
2217.112559124541
 30
0.0
  0
SEQEND
  5
529
330
526
100
AcDbEntity
  8
Calque 1
 62
   250
420
  2236966
370
    50
  0
POLYLINE
  5
52A
330
1F
100
AcDbEntity
  8
Calque 1
 62
   250
420
  2236966
370
    50
100
AcDb2dPolyline
 66
     1
 10
0.0
 20
0.0
 30
0.0
  0
VERTEX
  5
52B
330
52A
100
AcDbEntity
  8
Calque 1
 62
   250
420
  2236966
370
    50
100
AcDbVertex
100
AcDb2dVertex
 10
1312.277522458389
 20
2219.731520712428
 30
0.0
  0
VERTEX
  5
52C
330
52A
100
AcDbEntity
  8
Calque 1
 62
   250
420
  2236966
370
    50
100
AcDbVertex
100
AcDb2dVertex
 10
1312.390521590305
 20
2219.755808635599
 30
0.0
  0
SEQEND
  5
52D
330
52A
100
AcDbEntity
  8
Calque 1
 62
   250
420
  2236966
370
    50
  0
POLYLINE
  5
52E
330
1F
100
AcDbEntity
  8
Calque 1
 62
   250
420
  2236966
370
    50
100
AcDb2dPolyline
 66
     1
 10
0.0
 20
0.0
 30
0.0
  0
VERTEX
  5
52F
330
52E
100
AcDbEntity
  8
Calque 1
 62
   250
420
  2236966
370
    50
100
AcDbVertex
100
AcDb2dVertex
 10
1312.78696595327
 20
2217.890633939885
 30
0.0
  0
VERTEX
  5
530
330
52E
100
AcDbEntity
  8
Calque 1
 62
   250
420
  2236966
370
    50
100
AcDbVertex
100
AcDb2dVertex
 10
1312.67379456658
 20
2217.866862781037
 30
0.0
  0
SEQEND
  5
531
330
52E
100
AcDbEntity
  8
Calque 1
 62
   250
420
  2236966
370
    50
  0
POLYLINE
  5
532
330
1F
100
AcDbEntity
  8
Calque 1
 62
   250
420
  2236966
370
    50
100
AcDb2dPolyline
 66
     1
 10
0.0
 20
0.0
 30
0.0
  0
VERTEX
  5
533
330
532
100
AcDbEntity
  8
Calque 1
 62
   250
420
  2236966
370
    50
100
AcDbVertex
100
AcDb2dVertex
 10
1308.730107637227
 20
2218.977733820256
 30
0.0
  0
VERTEX
  5
534
330
532
100
AcDbEntity
  8
Calque 1
 62
   250
420
  2236966
370
    50
100
AcDbVertex
100
AcDb2dVertex
 10
1308.843279023918
 20
2219.001504979104
 30
0.0
  0
SEQEND
  5
535
330
532
100
AcDbEntity
  8
Calque 1
 62
   250
420
  2236966
370
    50
  0
POLYLINE
  5
536
330
1F
100
AcDbEntity
  8
Calque 1
 62
   250
420
  2236966
370
    50
100
AcDb2dPolyline
 66
     1
 10
0.0
 20
0.0
 30
0.0
  0
VERTEX
  5
537
330
536
100
AcDbEntity
  8
Calque 1
 62
   250
420
  2236966
370
    50
100
AcDbVertex
100
AcDb2dVertex
 10
1309.239637259496
 20
2219.731520712428
 30
0.0
  0
VERTEX
  5
538
330
536
100
AcDbEntity
  8
Calque 1
 62
   250
420
  2236966
370
    50
100
AcDbVertex
100
AcDb2dVertex
 10
1309.197951604124
 20
2219.839352201117
 30
0.0
  0
SEQEND
  5
539
330
536
100
AcDbEntity
  8
Calque 1
 62
   250
420
  2236966
370
    50
  0
POLYLINE
  5
53A
330
1F
100
AcDbEntity
  8
Calque 1
 62
   250
420
  2236966
370
    50
100
AcDb2dPolyline
 66
     1
 10
0.0
 20
0.0
 30
0.0
  0
VERTEX
  5
53B
330
53A
100
AcDbEntity
  8
Calque 1
 62
   250
420
  2236966
370
    50
100
AcDbVertex
100
AcDb2dVertex
 10
1312.277522458389
 20
2217.136847047712
 30
0.0
  0
VERTEX
  5
53C
330
53A
100
AcDbEntity
  8
Calque 1
 62
   250
420
  2236966
370
    50
100
AcDbVertex
100
AcDb2dVertex
 10
1312.319121986373
 20
2217.029015559024
 30
0.0
  0
SEQEND
  5
53D
330
53A
100
AcDbEntity
  8
Calque 1
 62
   250
420
  2236966
370
    50
  0
POLYLINE
  5
53E
330
1F
100
AcDbEntity
  8
Calque 1
 62
   250
420
  2236966
370
    50
100
AcDb2dPolyline
 66
     1
 10
0.0
 20
0.0
 30
0.0
  0
VERTEX
  5
53F
330
53E
100
AcDbEntity
  8
Calque 1
 62
   250
420
  2236966
370
    50
100
AcDbVertex
100
AcDb2dVertex
 10
1310.539041149145
 20
2216.345680869525
 30
0.0
  0
VERTEX
  5
540
330
53E
100
AcDbEntity
  8
Calque 1
 62
   250
420
  2236966
370
    50
100
AcDbVertex
100
AcDb2dVertex
 10
1310.497786130709
 20
2216.453684612987
 30
0.0
  0
SEQEND
  5
541
330
53E
100
AcDbEntity
  8
Calque 1
 62
   250
420
  2236966
370
    50
  0
POLYLINE
  5
542
330
1F
100
AcDbEntity
  8
Calque 1
 62
   250
420
  2236966
370
    50
100
AcDb2dPolyline
 66
     1
 10
0.0
 20
0.0
 30
0.0
  0
VERTEX
  5
543
330
542
100
AcDbEntity
  8
Calque 1
 62
   250
420
  2236966
370
    50
100
AcDbVertex
100
AcDb2dVertex
 10
1310.978032441353
 20
2220.522686890616
 30
0.0
  0
VERTEX
  5
544
330
542
100
AcDbEntity
  8
Calque 1
 62
   250
420
  2236966
370
    50
100
AcDbVertex
100
AcDb2dVertex
 10
1311.019287459789
 20
2220.414683147153
 30
0.0
  0
SEQEND
  5
545
330
542
100
AcDbEntity
  8
Calque 1
 62
   250
420
  2236966
370
    50
  0
POLYLINE
  5
546
330
1F
100
AcDbEntity
  8
Calque 1
 62
   250
420
  2236966
370
    50
100
AcDb2dPolyline
 66
     1
 10
0.0
 20
0.0
 30
0.0
  0
VERTEX
  5
547
330
546
100
AcDbEntity
  8
Calque 1
 62
   250
420
  2236966
370
    50
100
AcDbVertex
100
AcDb2dVertex
 10
1309.309572697846
 20
2219.809207615621
 30
0.0
  0
VERTEX
  5
548
330
546
100
AcDbEntity
  8
Calque 1
 62
   250
420
  2236966
370
    50
100
AcDbVertex
100
AcDb2dVertex
 10
1309.273657577412
 20
2219.9191061616
 30
0.0
  0
SEQEND
  5
549
330
546
100
AcDbEntity
  8
Calque 1
 62
   250
420
  2236966
370
    50
  0
POLYLINE
  5
54A
330
1F
100
AcDbEntity
  8
Calque 1
 62
   250
420
  2236966
370
    50
100
AcDb2dPolyline
 66
     1
 10
0.0
 20
0.0
 30
0.0
  0
VERTEX
  5
54B
330
54A
100
AcDbEntity
  8
Calque 1
 62
   250
420
  2236966
370
    50
100
AcDbVertex
100
AcDb2dVertex
 10
1312.207500892651
 20
2217.05916014452
 30
0.0
  0
VERTEX
  5
54C
330
54A
100
AcDbEntity
  8
Calque 1
 62
   250
420
  2236966
370
    50
100
AcDbVertex
100
AcDb2dVertex
 10
1312.243502140472
 20
2216.94926159854
 30
0.0
  0
SEQEND
  5
54D
330
54A
100
AcDbEntity
  8
Calque 1
 62
   250
420
  2236966
370
    50
  0
POLYLINE
  5
54E
330
1F
100
AcDbEntity
  8
Calque 1
 62
   250
420
  2236966
370
    50
100
AcDb2dPolyline
 66
     1
 10
0.0
 20
0.0
 30
0.0
  0
VERTEX
  5
54F
330
54E
100
AcDbEntity
  8
Calque 1
 62
   250
420
  2236966
370
    50
100
AcDbVertex
100
AcDb2dVertex
 10
1310.430003877037
 20
2216.359978015789
 30
0.0
  0
VERTEX
  5
550
330
54E
100
AcDbEntity
  8
Calque 1
 62
   250
420
  2236966
370
    50
100
AcDbVertex
100
AcDb2dVertex
 10
1310.394519393539
 20
2216.470048816542
 30
0.0
  0
SEQEND
  5
551
330
54E
100
AcDbEntity
  8
Calque 1
 62
   250
420
  2236966
370
    50
  0
POLYLINE
  5
552
330
1F
100
AcDbEntity
  8
Calque 1
 62
   250
420
  2236966
370
    50
100
AcDb2dPolyline
 66
     1
 10
0.0
 20
0.0
 30
0.0
  0
VERTEX
  5
553
330
552
100
AcDbEntity
  8
Calque 1
 62
   250
420
  2236966
370
    50
100
AcDbVertex
100
AcDb2dVertex
 10
1311.087069713461
 20
2220.508389744352
 30
0.0
  0
VERTEX
  5
554
330
552
100
AcDbEntity
  8
Calque 1
 62
   250
420
  2236966
370
    50
100
AcDbVertex
100
AcDb2dVertex
 10
1311.122554196959
 20
2220.398318943598
 30
0.0
  0
SEQEND
  5
555
330
552
100
AcDbEntity
  8
Calque 1
 62
   250
420
  2236966
370
    50
  0
POLYLINE
  5
556
330
1F
100
AcDbEntity
  8
Calque 1
 62
   250
420
  2236966
370
    50
100
AcDb2dPolyline
 66
     1
 10
0.0
 20
0.0
 30
0.0
  0
VERTEX
  5
557
330
556
100
AcDbEntity
  8
Calque 1
 62
   250
420
  2236966
370
    50
100
AcDbVertex
100
AcDb2dVertex
 10
1309.059631020391
 20
2217.199892295092
 30
0.0
  0
VERTEX
  5
558
330
556
100
AcDbEntity
  8
Calque 1
 62
   250
420
  2236966
370
    50
100
AcDbVertex
100
AcDb2dVertex
 10
1309.17374980834
 20
2217.218151301164
 30
0.0
  0
SEQEND
  5
559
330
556
100
AcDbEntity
  8
Calque 1
 62
   250
420
  2236966
370
    50
  0
POLYLINE
  5
55A
330
1F
100
AcDbEntity
  8
Calque 1
 62
   250
420
  2236966
370
    50
100
AcDb2dPolyline
 66
     1
 10
0.0
 20
0.0
 30
0.0
  0
VERTEX
  5
55B
330
55A
100
AcDbEntity
  8
Calque 1
 62
   250
420
  2236966
370
    50
100
AcDbVertex
100
AcDb2dVertex
 10
1312.457442570106
 20
2219.668475465048
 30
0.0
  0
VERTEX
  5
55C
330
55A
100
AcDbEntity
  8
Calque 1
 62
   250
420
  2236966
370
    50
100
AcDbVertex
100
AcDb2dVertex
 10
1312.343323782157
 20
2219.650216458977
 30
0.0
  0
SEQEND
  5
55D
330
55A
100
AcDbEntity
  8
Calque 1
 62
   250
420
  2236966
370
    50
  0
POLYLINE
  5
55E
330
1F
100
AcDbEntity
  8
Calque 1
 62
   250
420
  2236966
370
    50
100
AcDb2dPolyline
 66
     1
 10
0.0
 20
0.0
 30
0.0
  0
VERTEX
  5
55F
330
55E
100
AcDbEntity
  8
Calque 1
 62
   250
420
  2236966
370
    50
100
AcDbVertex
100
AcDb2dVertex
 10
1312.641496796406
 20
2217.767299521513
 30
0.0
  0
VERTEX
  5
560
330
55E
100
AcDbEntity
  8
Calque 1
 62
   250
420
  2236966
370
    50
100
AcDbVertex
100
AcDb2dVertex
 10
1312.755787839129
 20
2217.785214018037
 30
0.0
  0
SEQEND
  5
561
330
55E
100
AcDbEntity
  8
Calque 1
 62
   250
420
  2236966
370
    50
  0
POLYLINE
  5
562
330
1F
100
AcDbEntity
  8
Calque 1
 62
   250
420
  2236966
370
    50
100
AcDb2dPolyline
 66
     1
 10
0.0
 20
0.0
 30
0.0
  0
VERTEX
  5
563
330
562
100
AcDbEntity
  8
Calque 1
 62
   250
420
  2236966
370
    50
100
AcDbVertex
100
AcDb2dVertex
 10
1308.875576794092
 20
2219.100895983853
 30
0.0
  0
VERTEX
  5
564
330
562
100
AcDbEntity
  8
Calque 1
 62
   250
420
  2236966
370
    50
100
AcDbVertex
100
AcDb2dVertex
 10
1308.761285751369
 20
2219.083153742105
 30
0.0
  0
SEQEND
  5
565
330
562
100
AcDbEntity
  8
Calque 1
 62
   250
420
  2236966
370
    50
  0
POLYLINE
  5
566
330
1F
100
AcDbEntity
  8
Calque 1
 62
   250
420
  2236966
370
    50
100
AcDb2dPolyline
 66
     1
 10
0.0
 20
0.0
 30
0.0
  0
VERTEX
  5
567
330
566
100
AcDbEntity
  8
Calque 1
 62
   250
420
  2236966
370
    50
100
AcDbVertex
100
AcDb2dVertex
 10
1308.997360919496
 20
2217.290498306354
 30
0.0
  0
VERTEX
  5
568
330
566
100
AcDbEntity
  8
Calque 1
 62
   250
420
  2236966
370
    50
100
AcDbVertex
100
AcDb2dVertex
 10
1309.10949877754
 20
2217.302383885778
 30
0.0
  0
SEQEND
  5
569
330
566
100
AcDbEntity
  8
Calque 1
 62
   250
420
  2236966
370
    50
  0
POLYLINE
  5
56A
330
1F
100
AcDbEntity
  8
Calque 1
 62
   250
420
  2236966
370
    50
100
AcDb2dPolyline
 66
     1
 10
0.0
 20
0.0
 30
0.0
  0
VERTEX
  5
56B
330
56A
100
AcDbEntity
  8
Calque 1
 62
   250
420
  2236966
370
    50
100
AcDbVertex
100
AcDb2dVertex
 10
1312.519712671002
 20
2219.577869453786
 30
0.0
  0
VERTEX
  5
56C
330
56A
100
AcDbEntity
  8
Calque 1
 62
   250
420
  2236966
370
    50
100
AcDbVertex
100
AcDb2dVertex
 10
1312.407574812957
 20
2219.565811619588
 30
0.0
  0
SEQEND
  5
56D
330
56A
100
AcDbEntity
  8
Calque 1
 62
   250
420
  2236966
370
    50
  0
POLYLINE
  5
56E
330
1F
100
AcDbEntity
  8
Calque 1
 62
   250
420
  2236966
370
    50
100
AcDb2dPolyline
 66
     1
 10
0.0
 20
0.0
 30
0.0
  0
VERTEX
  5
56F
330
56E
100
AcDbEntity
  8
Calque 1
 62
   250
420
  2236966
370
    50
100
AcDbVertex
100
AcDb2dVertex
 10
1312.606787459392
 20
2217.669975574055
 30
0.0
  0
VERTEX
  5
570
330
56E
100
AcDbEntity
  8
Calque 1
 62
   250
420
  2236966
370
    50
100
AcDbVertex
100
AcDb2dVertex
 10
1312.719097572211
 20
2217.681516643931
 30
0.0
  0
SEQEND
  5
571
330
56E
100
AcDbEntity
  8
Calque 1
 62
   250
420
  2236966
370
    50
  0
POLYLINE
  5
572
330
1F
100
AcDbEntity
  8
Calque 1
 62
   250
420
  2236966
370
    50
100
AcDb2dPolyline
 66
     1
 10
0.0
 20
0.0
 30
0.0
  0
VERTEX
  5
573
330
572
100
AcDbEntity
  8
Calque 1
 62
   250
420
  2236966
370
    50
100
AcDbVertex
100
AcDb2dVertex
 10
1308.910286131106
 20
2219.198392186086
 30
0.0
  0
VERTEX
  5
574
330
572
100
AcDbEntity
  8
Calque 1
 62
   250
420
  2236966
370
    50
100
AcDbVertex
100
AcDb2dVertex
 10
1308.798062145674
 20
2219.186678861436
 30
0.0
  0
SEQEND
  5
575
330
572
100
AcDbEntity
  8
Calque 1
 62
   250
420
  2236966
370
    50
  0
POLYLINE
  5
576
330
1F
100
AcDbEntity
  8
Calque 1
 62
   250
420
  2236966
370
    50
100
AcDb2dPolyline
 66
     1
 10
0.0
 20
0.0
 30
0.0
  0
VERTEX
  5
577
330
576
100
AcDbEntity
  8
Calque 1
 62
   250
420
  2236966
370
    50
100
AcDbVertex
100
AcDb2dVertex
 10
1309.053515975905
 20
2219.48106227065
 30
0.0
  0
VERTEX
  5
578
330
576
100
AcDbEntity
  8
Calque 1
 62
   250
420
  2236966
370
    50
100
AcDbVertex
100
AcDb2dVertex
 10
1309.000892142368
 20
2219.571840536687
 30
0.0
  0
SEQEND
  5
579
330
576
100
AcDbEntity
  8
Calque 1
 62
   250
420
  2236966
370
    50
  0
POLYLINE
  5
57A
330
1F
100
AcDbEntity
  8
Calque 1
 62
   250
420
  2236966
370
    50
100
AcDb2dPolyline
 66
     1
 10
0.0
 20
0.0
 30
0.0
  0
VERTEX
  5
57B
330
57A
100
AcDbEntity
  8
Calque 1
 62
   250
420
  2236966
370
    50
100
AcDbVertex
100
AcDb2dVertex
 10
1312.463557614592
 20
2217.38730548949
 30
0.0
  0
VERTEX
  5
57C
330
57A
100
AcDbEntity
  8
Calque 1
 62
   250
420
  2236966
370
    50
100
AcDbVertex
100
AcDb2dVertex
 10
1312.51618144813
 20
2217.296527223454
 30
0.0
  0
SEQEND
  5
57D
330
57A
100
AcDbEntity
  8
Calque 1
 62
   250
420
  2236966
370
    50
  0
POLYLINE
  5
57E
330
1F
100
AcDbEntity
  8
Calque 1
 62
   250
420
  2236966
370
    50
100
AcDb2dPolyline
 66
     1
 10
0.0
 20
0.0
 30
0.0
  0
VERTEX
  5
57F
330
57E
100
AcDbEntity
  8
Calque 1
 62
   250
420
  2236966
370
    50
100
AcDbVertex
100
AcDb2dVertex
 10
1310.868478404922
 20
2216.337068130812
 30
0.0
  0
VERTEX
  5
580
330
57E
100
AcDbEntity
  8
Calque 1
 62
   250
420
  2236966
370
    50
100
AcDbVertex
100
AcDb2dVertex
 10
1310.810859182931
 20
2216.437320409432
 30
0.0
  0
SEQEND
  5
581
330
57E
100
AcDbEntity
  8
Calque 1
 62
   250
420
  2236966
370
    50
  0
POLYLINE
  5
582
330
1F
100
AcDbEntity
  8
Calque 1
 62
   250
420
  2236966
370
    50
100
AcDb2dPolyline
 66
     1
 10
0.0
 20
0.0
 30
0.0
  0
VERTEX
  5
583
330
582
100
AcDbEntity
  8
Calque 1
 62
   250
420
  2236966
370
    50
100
AcDbVertex
100
AcDb2dVertex
 10
1310.648595185576
 20
2220.531299629329
 30
0.0
  0
VERTEX
  5
584
330
582
100
AcDbEntity
  8
Calque 1
 62
   250
420
  2236966
370
    50
100
AcDbVertex
100
AcDb2dVertex
 10
1310.706214407566
 20
2220.431047350708
 30
0.0
  0
SEQEND
  5
585
330
582
100
AcDbEntity
  8
Calque 1
 62
   250
420
  2236966
370
    50
  0
POLYLINE
  5
586
330
1F
100
AcDbEntity
  8
Calque 1
 62
   250
420
  2236966
370
    50
100
AcDb2dPolyline
 66
     1
 10
0.0
 20
0.0
 30
0.0
  0
VERTEX
  5
587
330
586
100
AcDbEntity
  8
Calque 1
 62
   250
420
  2236966
370
    50
100
AcDbVertex
100
AcDb2dVertex
 10
1309.109154267992
 20
2219.571840536687
 30
0.0
  0
VERTEX
  5
588
330
586
100
AcDbEntity
  8
Calque 1
 62
   250
420
  2236966
370
    50
100
AcDbVertex
100
AcDb2dVertex
 10
1309.059631020391
 20
2219.668475465048
 30
0.0
  0
SEQEND
  5
589
330
586
100
AcDbEntity
  8
Calque 1
 62
   250
420
  2236966
370
    50
  0
POLYLINE
  5
58A
330
1F
100
AcDbEntity
  8
Calque 1
 62
   250
420
  2236966
370
    50
100
AcDb2dPolyline
 66
     1
 10
0.0
 20
0.0
 30
0.0
  0
VERTEX
  5
58B
330
58A
100
AcDbEntity
  8
Calque 1
 62
   250
420
  2236966
370
    50
100
AcDbVertex
100
AcDb2dVertex
 10
1312.407919322506
 20
2217.296527223454
 30
0.0
  0
VERTEX
  5
58C
330
58A
100
AcDbEntity
  8
Calque 1
 62
   250
420
  2236966
370
    50
100
AcDbVertex
100
AcDb2dVertex
 10
1312.457442570106
 20
2217.199892295092
 30
0.0
  0
SEQEND
  5
58D
330
58A
100
AcDbEntity
  8
Calque 1
 62
   250
420
  2236966
370
    50
  0
POLYLINE
  5
58E
330
1F
100
AcDbEntity
  8
Calque 1
 62
   250
420
  2236966
370
    50
100
AcDb2dPolyline
 66
     1
 10
0.0
 20
0.0
 30
0.0
  0
VERTEX
  5
58F
330
58E
100
AcDbEntity
  8
Calque 1
 62
   250
420
  2236966
370
    50
100
AcDbVertex
100
AcDb2dVertex
 10
1310.758579858942
 20
2216.334139799649
 30
0.0
  0
VERTEX
  5
590
330
58E
100
AcDbEntity
  8
Calque 1
 62
   250
420
  2236966
370
    50
100
AcDbVertex
100
AcDb2dVertex
 10
1310.706214407566
 20
2216.437320409432
 30
0.0
  0
SEQEND
  5
591
330
58E
100
AcDbEntity
  8
Calque 1
 62
   250
420
  2236966
370
    50
  0
POLYLINE
  5
592
330
1F
100
AcDbEntity
  8
Calque 1
 62
   250
420
  2236966
370
    50
100
AcDb2dPolyline
 66
     1
 10
0.0
 20
0.0
 30
0.0
  0
VERTEX
  5
593
330
592
100
AcDbEntity
  8
Calque 1
 62
   250
420
  2236966
370
    50
100
AcDbVertex
100
AcDb2dVertex
 10
1310.758579858942
 20
2220.534227960492
 30
0.0
  0
VERTEX
  5
594
330
592
100
AcDbEntity
  8
Calque 1
 62
   250
420
  2236966
370
    50
100
AcDbVertex
100
AcDb2dVertex
 10
1310.810859182931
 20
2220.431047350708
 30
0.0
  0
SEQEND
  5
595
330
592
100
AcDbEntity
  8
Calque 1
 62
   250
420
  2236966
370
    50
  0
POLYLINE
  5
596
330
1F
100
AcDbEntity
  8
Calque 1
 62
   250
420
  2236966
370
    50
100
AcDb2dPolyline
 66
     1
 10
0.0
 20
0.0
 30
0.0
  0
VERTEX
  5
597
330
596
100
AcDbEntity
  8
Calque 1
 62
   250
420
  2236966
370
    50
100
AcDbVertex
100
AcDb2dVertex
 10
1309.17374980834
 20
2219.650216458977
 30
0.0
  0
VERTEX
  5
598
330
596
100
AcDbEntity
  8
Calque 1
 62
   250
420
  2236966
370
    50
100
AcDbVertex
100
AcDb2dVertex
 10
1309.126552000192
 20
2219.755808635599
 30
0.0
  0
SEQEND
  5
599
330
596
100
AcDbEntity
  8
Calque 1
 62
   250
420
  2236966
370
    50
  0
POLYLINE
  5
59A
330
1F
100
AcDbEntity
  8
Calque 1
 62
   250
420
  2236966
370
    50
100
AcDb2dPolyline
 66
     1
 10
0.0
 20
0.0
 30
0.0
  0
VERTEX
  5
59B
330
59A
100
AcDbEntity
  8
Calque 1
 62
   250
420
  2236966
370
    50
100
AcDbVertex
100
AcDb2dVertex
 10
1312.343323782157
 20
2217.218151301164
 30
0.0
  0
VERTEX
  5
59C
330
59A
100
AcDbEntity
  8
Calque 1
 62
   250
420
  2236966
370
    50
100
AcDbVertex
100
AcDb2dVertex
 10
1312.390521590305
 20
2217.112559124541
 30
0.0
  0
SEQEND
  5
59D
330
59A
100
AcDbEntity
  8
Calque 1
 62
   250
420
  2236966
370
    50
  0
POLYLINE
  5
59E
330
1F
100
AcDbEntity
  8
Calque 1
 62
   250
420
  2236966
370
    50
100
AcDb2dPolyline
 66
     1
 10
0.0
 20
0.0
 30
0.0
  0
VERTEX
  5
59F
330
59E
100
AcDbEntity
  8
Calque 1
 62
   250
420
  2236966
370
    50
100
AcDbVertex
100
AcDb2dVertex
 10
1310.648595185576
 20
2216.337068130812
 30
0.0
  0
VERTEX
  5
5A0
330
59E
100
AcDbEntity
  8
Calque 1
 62
   250
420
  2236966
370
    50
100
AcDbVertex
100
AcDb2dVertex
 10
1310.601828014363
 20
2216.442832562209
 30
0.0
  0
SEQEND
  5
5A1
330
59E
100
AcDbEntity
  8
Calque 1
 62
   250
420
  2236966
370
    50
  0
POLYLINE
  5
5A2
330
1F
100
AcDbEntity
  8
Calque 1
 62
   250
420
  2236966
370
    50
100
AcDb2dPolyline
 66
     1
 10
0.0
 20
0.0
 30
0.0
  0
VERTEX
  5
5A3
330
5A2
100
AcDbEntity
  8
Calque 1
 62
   250
420
  2236966
370
    50
100
AcDbVertex
100
AcDb2dVertex
 10
1310.868478404922
 20
2220.531299629329
 30
0.0
  0
VERTEX
  5
5A4
330
5A2
100
AcDbEntity
  8
Calque 1
 62
   250
420
  2236966
370
    50
100
AcDbVertex
100
AcDb2dVertex
 10
1310.915245576134
 20
2220.425535197932
 30
0.0
  0
SEQEND
  5
5A5
330
5A2
100
AcDbEntity
  8
Calque 1
 62
   250
420
  2236966
370
    50
  0
POLYLINE
  5
5A6
330
1F
100
AcDbEntity
  8
Calque 1
 62
   250
420
  2236966
370
    50
100
AcDb2dPolyline
 66
     1
 10
0.0
 20
0.0
 30
0.0
  0
VERTEX
  5
5A7
330
5A6
100
AcDbEntity
  8
Calque 1
 62
   250
420
  2236966
370
    50
100
AcDbVertex
100
AcDb2dVertex
 10
1308.939913952279
 20
2217.384204903553
 30
0.0
  0
VERTEX
  5
5A8
330
5A6
100
AcDbEntity
  8
Calque 1
 62
   250
420
  2236966
370
    50
100
AcDbVertex
100
AcDb2dVertex
 10
1309.052568574647
 20
2217.390233820653
 30
0.0
  0
SEQEND
  5
5A9
330
5A6
100
AcDbEntity
  8
Calque 1
 62
   250
420
  2236966
370
    50
  0
POLYLINE
  5
5AA
330
1F
100
AcDbEntity
  8
Calque 1
 62
   250
420
  2236966
370
    50
100
AcDb2dPolyline
 66
     1
 10
0.0
 20
0.0
 30
0.0
  0
VERTEX
  5
5AB
330
5AA
100
AcDbEntity
  8
Calque 1
 62
   250
420
  2236966
370
    50
100
AcDbVertex
100
AcDb2dVertex
 10
1312.577159638219
 20
2219.484162856587
 30
0.0
  0
VERTEX
  5
5AC
330
5AA
100
AcDbEntity
  8
Calque 1
 62
   250
420
  2236966
370
    50
100
AcDbVertex
100
AcDb2dVertex
 10
1312.464505015851
 20
2219.477961684714
 30
0.0
  0
SEQEND
  5
5AD
330
5AA
100
AcDbEntity
  8
Calque 1
 62
   250
420
  2236966
370
    50
  0
POLYLINE
  5
5AE
330
1F
100
AcDbEntity
  8
Calque 1
 62
   250
420
  2236966
370
    50
100
AcDb2dPolyline
 66
     1
 10
0.0
 20
0.0
 30
0.0
  0
VERTEX
  5
5AF
330
5AE
100
AcDbEntity
  8
Calque 1
 62
   250
420
  2236966
370
    50
100
AcDbVertex
100
AcDb2dVertex
 10
1312.564240530149
 20
2217.574374174339
 30
0.0
  0
VERTEX
  5
5B0
330
5AE
100
AcDbEntity
  8
Calque 1
 62
   250
420
  2236966
370
    50
100
AcDbVertex
100
AcDb2dVertex
 10
1312.676981279904
 20
2217.58005858189
 30
0.0
  0
SEQEND
  5
5B1
330
5AE
100
AcDbEntity
  8
Calque 1
 62
   250
420
  2236966
370
    50
  0
POLYLINE
  5
5B2
330
1F
100
AcDbEntity
  8
Calque 1
 62
   250
420
  2236966
370
    50
100
AcDb2dPolyline
 66
     1
 10
0.0
 20
0.0
 30
0.0
  0
VERTEX
  5
5B3
330
5B2
100
AcDbEntity
  8
Calque 1
 62
   250
420
  2236966
370
    50
100
AcDbVertex
100
AcDb2dVertex
 10
1308.952833060349
 20
2219.293993585802
 30
0.0
  0
VERTEX
  5
5B4
330
5B2
100
AcDbEntity
  8
Calque 1
 62
   250
420
  2236966
370
    50
100
AcDbVertex
100
AcDb2dVertex
 10
1308.840092310594
 20
2219.288309178251
 30
0.0
  0
SEQEND
  5
5B5
330
5B2
100
AcDbEntity
  8
Calque 1
 62
   250
420
  2236966
370
    50
  0
POLYLINE
  5
5B6
330
1F
100
AcDbEntity
  8
Calque 1
 62
   250
420
  2236966
370
    50
100
AcDb2dPolyline
 66
     1
 10
0.0
 20
0.0
 30
0.0
  0
VERTEX
  5
5B7
330
5B6
100
AcDbEntity
  8
Calque 1
 62
   250
420
  2236966
370
    50
100
AcDbVertex
100
AcDb2dVertex
 10
1308.887462373516
 20
2217.480839831915
 30
0.0
  0
VERTEX
  5
5B8
330
5B6
100
AcDbEntity
  8
Calque 1
 62
   250
420
  2236966
370
    50
100
AcDbVertex
100
AcDb2dVertex
 10
1309.000289250658
 20
2217.481012086689
 30
0.0
  0
SEQEND
  5
5B9
330
5B6
100
AcDbEntity
  8
Calque 1
 62
   250
420
  2236966
370
    50
  0
POLYLINE
  5
5BA
330
1F
100
AcDbEntity
  8
Calque 1
 62
   250
420
  2236966
370
    50
100
AcDb2dPolyline
 66
     1
 10
0.0
 20
0.0
 30
0.0
  0
VERTEX
  5
5BB
330
5BA
100
AcDbEntity
  8
Calque 1
 62
   250
420
  2236966
370
    50
100
AcDbVertex
100
AcDb2dVertex
 10
1312.629697344369
 20
2219.387527928226
 30
0.0
  0
VERTEX
  5
5BC
330
5BA
100
AcDbEntity
  8
Calque 1
 62
   250
420
  2236966
370
    50
100
AcDbVertex
100
AcDb2dVertex
 10
1312.51678433984
 20
2219.387355673452
 30
0.0
  0
SEQEND
  5
5BD
330
5BA
100
AcDbEntity
  8
Calque 1
 62
   250
420
  2236966
370
    50
  0
POLYLINE
  5
5BE
330
1F
100
AcDbEntity
  8
Calque 1
 62
   250
420
  2236966
370
    50
100
AcDb2dPolyline
 66
     1
 10
0.0
 20
0.0
 30
0.0
  0
VERTEX
  5
5BF
330
5BE
100
AcDbEntity
  8
Calque 1
 62
   250
420
  2236966
370
    50
100
AcDbVertex
100
AcDb2dVertex
 10
1312.51678433984
 20
2217.481012086689
 30
0.0
  0
VERTEX
  5
5C0
330
5BE
100
AcDbEntity
  8
Calque 1
 62
   250
420
  2236966
370
    50
100
AcDbVertex
100
AcDb2dVertex
 10
1312.629697344369
 20
2217.480839831915
 30
0.0
  0
SEQEND
  5
5C1
330
5BE
100
AcDbEntity
  8
Calque 1
 62
   250
420
  2236966
370
    50
  0
POLYLINE
  5
5C2
330
1F
100
AcDbEntity
  8
Calque 1
 62
   250
420
  2236966
370
    50
100
AcDb2dPolyline
 66
     1
 10
0.0
 20
0.0
 30
0.0
  0
VERTEX
  5
5C3
330
5C2
100
AcDbEntity
  8
Calque 1
 62
   250
420
  2236966
370
    50
100
AcDbVertex
100
AcDb2dVertex
 10
1309.000289250658
 20
2219.387355673452
 30
0.0
  0
VERTEX
  5
5C4
330
5C2
100
AcDbEntity
  8
Calque 1
 62
   250
420
  2236966
370
    50
100
AcDbVertex
100
AcDb2dVertex
 10
1308.887462373516
 20
2219.387527928226
 30
0.0
  0
SEQEND
  5
5C5
330
5C2
100
AcDbEntity
  8
Calque 1
 62
   250
420
  2236966
370
    50
  0
POLYLINE
  5
5C6
330
1F
100
AcDbEntity
  8
Calque 1
 62
   250
420
  2236966
370
    50
100
AcDb2dPolyline
 66
     1
 10
0.0
 20
0.0
 30
0.0
  0
VERTEX
  5
5C7
330
5C6
100
AcDbEntity
  8
Calque 1
 62
   250
420
  2236966
370
    50
100
AcDbVertex
100
AcDb2dVertex
 10
1308.840092310594
 20
2217.58005858189
 30
0.0
  0
VERTEX
  5
5C8
330
5C6
100
AcDbEntity
  8
Calque 1
 62
   250
420
  2236966
370
    50
100
AcDbVertex
100
AcDb2dVertex
 10
1308.952833060349
 20
2217.574374174339
 30
0.0
  0
SEQEND
  5
5C9
330
5C6
100
AcDbEntity
  8
Calque 1
 62
   250
420
  2236966
370
    50
  0
POLYLINE
  5
5CA
330
1F
100
AcDbEntity
  8
Calque 1
 62
   250
420
  2236966
370
    50
100
AcDb2dPolyline
 66
     1
 10
0.0
 20
0.0
 30
0.0
  0
VERTEX
  5
5CB
330
5CA
100
AcDbEntity
  8
Calque 1
 62
   250
420
  2236966
370
    50
100
AcDbVertex
100
AcDb2dVertex
 10
1312.676981279904
 20
2219.288309178251
 30
0.0
  0
VERTEX
  5
5CC
330
5CA
100
AcDbEntity
  8
Calque 1
 62
   250
420
  2236966
370
    50
100
AcDbVertex
100
AcDb2dVertex
 10
1312.564240530149
 20
2219.293993585802
 30
0.0
  0
SEQEND
  5
5CD
330
5CA
100
AcDbEntity
  8
Calque 1
 62
   250
420
  2236966
370
    50
  0
POLYLINE
  5
5CE
330
1F
100
AcDbEntity
  8
Calque 1
 62
   250
420
  2236966
370
    50
100
AcDb2dPolyline
 66
     1
 10
0.0
 20
0.0
 30
0.0
  0
VERTEX
  5
5CF
330
5CE
100
AcDbEntity
  8
Calque 1
 62
   250
420
  2236966
370
    50
100
AcDbVertex
100
AcDb2dVertex
 10
1312.464505015851
 20
2217.390233820653
 30
0.0
  0
VERTEX
  5
5D0
330
5CE
100
AcDbEntity
  8
Calque 1
 62
   250
420
  2236966
370
    50
100
AcDbVertex
100
AcDb2dVertex
 10
1312.577159638219
 20
2217.384204903553
 30
0.0
  0
SEQEND
  5
5D1
330
5CE
100
AcDbEntity
  8
Calque 1
 62
   250
420
  2236966
370
    50
  0
POLYLINE
  5
5D2
330
1F
100
AcDbEntity
  8
Calque 1
 62
   250
420
  2236966
370
    50
100
AcDb2dPolyline
 66
     1
 10
0.0
 20
0.0
 30
0.0
  0
VERTEX
  5
5D3
330
5D2
100
AcDbEntity
  8
Calque 1
 62
   250
420
  2236966
370
    50
100
AcDbVertex
100
AcDb2dVertex
 10
1309.052568574647
 20
2219.477961684714
 30
0.0
  0
VERTEX
  5
5D4
330
5D2
100
AcDbEntity
  8
Calque 1
 62
   250
420
  2236966
370
    50
100
AcDbVertex
100
AcDb2dVertex
 10
1308.939913952279
 20
2219.484162856587
 30
0.0
  0
SEQEND
  5
5D5
330
5D2
100
AcDbEntity
  8
Calque 1
 62
   250
420
  2236966
370
    50
  0
POLYLINE
  5
5D6
330
1F
100
AcDbEntity
  8
Calque 1
 62
   250
420
  2236966
370
    50
100
AcDb2dPolyline
 66
     1
 10
0.0
 20
0.0
 30
0.0
  0
VERTEX
  5
5D7
330
5D6
100
AcDbEntity
  8
Calque 1
 62
   250
420
  2236966
370
    50
100
AcDbVertex
100
AcDb2dVertex
 10
1308.917865341173
 20
2219.192707778535
 30
0.0
  0
VERTEX
  5
5D8
330
5D6
100
AcDbEntity
  8
Calque 1
 62
   250
420
  2236966
370
    50
100
AcDbVertex
100
AcDb2dVertex
 10
1308.837766871141
 20
2219.291237509413
 30
0.0
  0
SEQEND
  5
5D9
330
5D6
100
AcDbEntity
  8
Calque 1
 62
   250
420
  2236966
370
    50
  0
POLYLINE
  5
5DA
330
1F
100
AcDbEntity
  8
Calque 1
 62
   250
420
  2236966
370
    50
100
AcDb2dPolyline
 66
     1
 10
0.0
 20
0.0
 30
0.0
  0
VERTEX
  5
5DB
330
5DA
100
AcDbEntity
  8
Calque 1
 62
   250
420
  2236966
370
    50
100
AcDbVertex
100
AcDb2dVertex
 10
1311.195159584311
 20
2216.380131824377
 30
0.0
  0
VERTEX
  5
5DC
330
5DA
100
AcDbEntity
  8
Calque 1
 62
   250
420
  2236966
370
    50
100
AcDbVertex
100
AcDb2dVertex
 10
1311.122554196959
 20
2216.470048816542
 30
0.0
  0
SEQEND
  5
5DD
330
5DA
100
AcDbEntity
  8
Calque 1
 62
   250
420
  2236966
370
    50
  0
POLYLINE
  5
5DE
330
1F
100
AcDbEntity
  8
Calque 1
 62
   250
420
  2236966
370
    50
100
AcDb2dPolyline
 66
     1
 10
0.0
 20
0.0
 30
0.0
  0
VERTEX
  5
5DF
330
5DE
100
AcDbEntity
  8
Calque 1
 62
   250
420
  2236966
370
    50
100
AcDbVertex
100
AcDb2dVertex
 10
1310.321914006187
 20
2220.488235935763
 30
0.0
  0
VERTEX
  5
5E0
330
5DE
100
AcDbEntity
  8
Calque 1
 62
   250
420
  2236966
370
    50
100
AcDbVertex
100
AcDb2dVertex
 10
1310.394519393539
 20
2220.398318943598
 30
0.0
  0
SEQEND
  5
5E1
330
5DE
100
AcDbEntity
  8
Calque 1
 62
   250
420
  2236966
370
    50
  0
POLYLINE
  5
5E2
330
1F
100
AcDbEntity
  8
Calque 1
 62
   250
420
  2236966
370
    50
100
AcDb2dPolyline
 66
     1
 10
0.0
 20
0.0
 30
0.0
  0
VERTEX
  5
5E3
330
5E2
100
AcDbEntity
  8
Calque 1
 62
   250
420
  2236966
370
    50
100
AcDbVertex
100
AcDb2dVertex
 10
1308.957742321415
 20
2219.291237509413
 30
0.0
  0
VERTEX
  5
5E4
330
5E2
100
AcDbEntity
  8
Calque 1
 62
   250
420
  2236966
370
    50
100
AcDbVertex
100
AcDb2dVertex
 10
1308.887548500903
 20
2219.387355673452
 30
0.0
  0
SEQEND
  5
5E5
330
5E2
100
AcDbEntity
  8
Calque 1
 62
   250
420
  2236966
370
    50
  0
POLYLINE
  5
5E6
330
1F
100
AcDbEntity
  8
Calque 1
 62
   250
420
  2236966
370
    50
100
AcDb2dPolyline
 66
     1
 10
0.0
 20
0.0
 30
0.0
  0
VERTEX
  5
5E7
330
5E6
100
AcDbEntity
  8
Calque 1
 62
   250
420
  2236966
370
    50
100
AcDbVertex
100
AcDb2dVertex
 10
1312.559331269082
 20
2217.577130250727
 30
0.0
  0
VERTEX
  5
5E8
330
5E6
100
AcDbEntity
  8
Calque 1
 62
   250
420
  2236966
370
    50
100
AcDbVertex
100
AcDb2dVertex
 10
1312.629611216982
 20
2217.480839831915
 30
0.0
  0
SEQEND
  5
5E9
330
5E6
100
AcDbEntity
  8
Calque 1
 62
   250
420
  2236966
370
    50
  0
POLYLINE
  5
5EA
330
1F
100
AcDbEntity
  8
Calque 1
 62
   250
420
  2236966
370
    50
100
AcDb2dPolyline
 66
     1
 10
0.0
 20
0.0
 30
0.0
  0
VERTEX
  5
5EB
330
5EA
100
AcDbEntity
  8
Calque 1
 62
   250
420
  2236966
370
    50
100
AcDbVertex
100
AcDb2dVertex
 10
1311.087069713461
 20
2216.359978015789
 30
0.0
  0
VERTEX
  5
5EC
330
5EA
100
AcDbEntity
  8
Calque 1
 62
   250
420
  2236966
370
    50
100
AcDbVertex
100
AcDb2dVertex
 10
1311.019287459789
 20
2216.453684612987
 30
0.0
  0
SEQEND
  5
5ED
330
5EA
100
AcDbEntity
  8
Calque 1
 62
   250
420
  2236966
370
    50
  0
POLYLINE
  5
5EE
330
1F
100
AcDbEntity
  8
Calque 1
 62
   250
420
  2236966
370
    50
100
AcDb2dPolyline
 66
     1
 10
0.0
 20
0.0
 30
0.0
  0
VERTEX
  5
5EF
330
5EE
100
AcDbEntity
  8
Calque 1
 62
   250
420
  2236966
370
    50
100
AcDbVertex
100
AcDb2dVertex
 10
1310.430003877037
 20
2220.508389744352
 30
0.0
  0
VERTEX
  5
5F0
330
5EE
100
AcDbEntity
  8
Calque 1
 62
   250
420
  2236966
370
    50
100
AcDbVertex
100
AcDb2dVertex
 10
1310.497786130709
 20
2220.414683147153
 30
0.0
  0
SEQEND
  5
5F1
330
5EE
100
AcDbEntity
  8
Calque 1
 62
   250
420
  2236966
370
    50
  0
POLYLINE
  5
5F2
330
1F
100
AcDbEntity
  8
Calque 1
 62
   250
420
  2236966
370
    50
100
AcDb2dPolyline
 66
     1
 10
0.0
 20
0.0
 30
0.0
  0
VERTEX
  5
5F3
330
5F2
100
AcDbEntity
  8
Calque 1
 62
   250
420
  2236966
370
    50
100
AcDbVertex
100
AcDb2dVertex
 10
1309.002959199659
 20
2219.387355673452
 30
0.0
  0
VERTEX
  5
5F4
330
5F2
100
AcDbEntity
  8
Calque 1
 62
   250
420
  2236966
370
    50
100
AcDbVertex
100
AcDb2dVertex
 10
1308.94198100957
 20
2219.48106227065
 30
0.0
  0
SEQEND
  5
5F5
330
5F2
100
AcDbEntity
  8
Calque 1
 62
   250
420
  2236966
370
    50
  0
POLYLINE
  5
5F6
330
1F
100
AcDbEntity
  8
Calque 1
 62
   250
420
  2236966
370
    50
100
AcDb2dPolyline
 66
     1
 10
0.0
 20
0.0
 30
0.0
  0
VERTEX
  5
5F7
330
5F6
100
AcDbEntity
  8
Calque 1
 62
   250
420
  2236966
370
    50
100
AcDbVertex
100
AcDb2dVertex
 10
1312.514114390839
 20
2217.480839831915
 30
0.0
  0
VERTEX
  5
5F8
330
5F6
100
AcDbEntity
  8
Calque 1
 62
   250
420
  2236966
370
    50
100
AcDbVertex
100
AcDb2dVertex
 10
1312.575178708315
 20
2217.38730548949
 30
0.0
  0
SEQEND
  5
5F9
330
5F6
100
AcDbEntity
  8
Calque 1
 62
   250
420
  2236966
370
    50
  0
POLYLINE
  5
5FA
330
1F
100
AcDbEntity
  8
Calque 1
 62
   250
420
  2236966
370
    50
100
AcDb2dPolyline
 66
     1
 10
0.0
 20
0.0
 30
0.0
  0
VERTEX
  5
5FB
330
5FA
100
AcDbEntity
  8
Calque 1
 62
   250
420
  2236966
370
    50
100
AcDbVertex
100
AcDb2dVertex
 10
1310.978032441353
 20
2216.345680869525
 30
0.0
  0
VERTEX
  5
5FC
330
5FA
100
AcDbEntity
  8
Calque 1
 62
   250
420
  2236966
370
    50
100
AcDbVertex
100
AcDb2dVertex
 10
1310.915245576134
 20
2216.442832562209
 30
0.0
  0
SEQEND
  5
5FD
330
5FA
100
AcDbEntity
  8
Calque 1
 62
   250
420
  2236966
370
    50
  0
POLYLINE
  5
5FE
330
1F
100
AcDbEntity
  8
Calque 1
 62
   250
420
  2236966
370
    50
100
AcDb2dPolyline
 66
     1
 10
0.0
 20
0.0
 30
0.0
  0
VERTEX
  5
5FF
330
5FE
100
AcDbEntity
  8
Calque 1
 62
   250
420
  2236966
370
    50
100
AcDbVertex
100
AcDb2dVertex
 10
1310.539041149145
 20
2220.522686890616
 30
0.0
  0
VERTEX
  5
600
330
5FE
100
AcDbEntity
  8
Calque 1
 62
   250
420
  2236966
370
    50
100
AcDbVertex
100
AcDb2dVertex
 10
1310.601828014363
 20
2220.425535197932
 30
0.0
  0
SEQEND
  5
601
330
5FE
100
AcDbEntity
  8
Calque 1
 62
   250
420
  2236966
370
    50
  0
POLYLINE
  5
602
330
1F
100
AcDbEntity
  8
Calque 1
 62
   250
420
  2236966
370
    50
100
AcDb2dPolyline
 66
     1
 10
0.0
 20
0.0
 30
0.0
  0
VERTEX
  5
603
330
602
100
AcDbEntity
  8
Calque 1
 62
   250
420
  2236966
370
    50
100
AcDbVertex
100
AcDb2dVertex
 10
1308.798062145674
 20
2217.681516643931
 30
0.0
  0
VERTEX
  5
604
330
602
100
AcDbEntity
  8
Calque 1
 62
   250
420
  2236966
370
    50
100
AcDbVertex
100
AcDb2dVertex
 10
1308.910286131106
 20
2217.669975574055
 30
0.0
  0
SEQEND
  5
605
330
602
100
AcDbEntity
  8
Calque 1
 62
   250
420
  2236966
370
    50
  0
POLYLINE
  5
606
330
1F
100
AcDbEntity
  8
Calque 1
 62
   250
420
  2236966
370
    50
100
AcDb2dPolyline
 66
     1
 10
0.0
 20
0.0
 30
0.0
  0
VERTEX
  5
607
330
606
100
AcDbEntity
  8
Calque 1
 62
   250
420
  2236966
370
    50
100
AcDbVertex
100
AcDb2dVertex
 10
1312.719097572211
 20
2219.186678861436
 30
0.0
  0
VERTEX
  5
608
330
606
100
AcDbEntity
  8
Calque 1
 62
   250
420
  2236966
370
    50
100
AcDbVertex
100
AcDb2dVertex
 10
1312.606787459392
 20
2219.198392186086
 30
0.0
  0
SEQEND
  5
609
330
606
100
AcDbEntity
  8
Calque 1
 62
   250
420
  2236966
370
    50
  0
POLYLINE
  5
60A
330
1F
100
AcDbEntity
  8
Calque 1
 62
   250
420
  2236966
370
    50
100
AcDb2dPolyline
 66
     1
 10
0.0
 20
0.0
 30
0.0
  0
VERTEX
  5
60B
330
60A
100
AcDbEntity
  8
Calque 1
 62
   250
420
  2236966
370
    50
100
AcDbVertex
100
AcDb2dVertex
 10
1312.407574812957
 20
2217.302383885778
 30
0.0
  0
VERTEX
  5
60C
330
60A
100
AcDbEntity
  8
Calque 1
 62
   250
420
  2236966
370
    50
100
AcDbVertex
100
AcDb2dVertex
 10
1312.519712671002
 20
2217.290498306354
 30
0.0
  0
SEQEND
  5
60D
330
60A
100
AcDbEntity
  8
Calque 1
 62
   250
420
  2236966
370
    50
  0
POLYLINE
  5
60E
330
1F
100
AcDbEntity
  8
Calque 1
 62
   250
420
  2236966
370
    50
100
AcDb2dPolyline
 66
     1
 10
0.0
 20
0.0
 30
0.0
  0
VERTEX
  5
60F
330
60E
100
AcDbEntity
  8
Calque 1
 62
   250
420
  2236966
370
    50
100
AcDbVertex
100
AcDb2dVertex
 10
1309.10949877754
 20
2219.565811619588
 30
0.0
  0
VERTEX
  5
610
330
60E
100
AcDbEntity
  8
Calque 1
 62
   250
420
  2236966
370
    50
100
AcDbVertex
100
AcDb2dVertex
 10
1308.997360919496
 20
2219.577869453786
 30
0.0
  0
SEQEND
  5
611
330
60E
100
AcDbEntity
  8
Calque 1
 62
   250
420
  2236966
370
    50
  0
POLYLINE
  5
612
330
1F
100
AcDbEntity
  8
Calque 1
 62
   250
420
  2236966
370
    50
100
AcDb2dPolyline
 66
     1
 10
0.0
 20
0.0
 30
0.0
  0
VERTEX
  5
613
330
612
100
AcDbEntity
  8
Calque 1
 62
   250
420
  2236966
370
    50
100
AcDbVertex
100
AcDb2dVertex
 10
1308.761285751369
 20
2217.785214018037
 30
0.0
  0
VERTEX
  5
614
330
612
100
AcDbEntity
  8
Calque 1
 62
   250
420
  2236966
370
    50
100
AcDbVertex
100
AcDb2dVertex
 10
1308.875576794092
 20
2217.767299521513
 30
0.0
  0
SEQEND
  5
615
330
612
100
AcDbEntity
  8
Calque 1
 62
   250
420
  2236966
370
    50
  0
POLYLINE
  5
616
330
1F
100
AcDbEntity
  8
Calque 1
 62
   250
420
  2236966
370
    50
100
AcDb2dPolyline
 66
     1
 10
0.0
 20
0.0
 30
0.0
  0
VERTEX
  5
617
330
616
100
AcDbEntity
  8
Calque 1
 62
   250
420
  2236966
370
    50
100
AcDbVertex
100
AcDb2dVertex
 10
1312.755787839129
 20
2219.083153742105
 30
0.0
  0
VERTEX
  5
618
330
616
100
AcDbEntity
  8
Calque 1
 62
   250
420
  2236966
370
    50
100
AcDbVertex
100
AcDb2dVertex
 10
1312.641496796406
 20
2219.100895983853
 30
0.0
  0
SEQEND
  5
619
330
616
100
AcDbEntity
  8
Calque 1
 62
   250
420
  2236966
370
    50
  0
POLYLINE
  5
61A
330
1F
100
AcDbEntity
  8
Calque 1
 62
   250
420
  2236966
370
    50
100
AcDb2dPolyline
 66
     1
 10
0.0
 20
0.0
 30
0.0
  0
VERTEX
  5
61B
330
61A
100
AcDbEntity
  8
Calque 1
 62
   250
420
  2236966
370
    50
100
AcDbVertex
100
AcDb2dVertex
 10
1312.343323782157
 20
2217.218151301164
 30
0.0
  0
VERTEX
  5
61C
330
61A
100
AcDbEntity
  8
Calque 1
 62
   250
420
  2236966
370
    50
100
AcDbVertex
100
AcDb2dVertex
 10
1312.457442570106
 20
2217.199892295092
 30
0.0
  0
SEQEND
  5
61D
330
61A
100
AcDbEntity
  8
Calque 1
 62
   250
420
  2236966
370
    50
  0
POLYLINE
  5
61E
330
1F
100
AcDbEntity
  8
Calque 1
 62
   250
420
  2236966
370
    50
100
AcDb2dPolyline
 66
     1
 10
0.0
 20
0.0
 30
0.0
  0
VERTEX
  5
61F
330
61E
100
AcDbEntity
  8
Calque 1
 62
   250
420
  2236966
370
    50
100
AcDbVertex
100
AcDb2dVertex
 10
1309.17374980834
 20
2219.650216458977
 30
0.0
  0
VERTEX
  5
620
330
61E
100
AcDbEntity
  8
Calque 1
 62
   250
420
  2236966
370
    50
100
AcDbVertex
100
AcDb2dVertex
 10
1309.059631020391
 20
2219.668475465048
 30
0.0
  0
SEQEND
  5
621
330
61E
100
AcDbEntity
  8
Calque 1
 62
   250
420
  2236966
370
    50
  0
POLYLINE
  5
622
330
1F
100
AcDbEntity
  8
Calque 1
 62
   250
420
  2236966
370
    50
100
AcDb2dPolyline
 66
     1
 10
0.0
 20
0.0
 30
0.0
  0
VERTEX
  5
623
330
622
100
AcDbEntity
  8
Calque 1
 62
   250
420
  2236966
370
    50
100
AcDbVertex
100
AcDb2dVertex
 10
1308.843279023918
 20
2217.866862781037
 30
0.0
  0
VERTEX
  5
624
330
622
100
AcDbEntity
  8
Calque 1
 62
   250
420
  2236966
370
    50
100
AcDbVertex
100
AcDb2dVertex
 10
1308.730107637227
 20
2217.890633939885
 30
0.0
  0
SEQEND
  5
625
330
622
100
AcDbEntity
  8
Calque 1
 62
   250
420
  2236966
370
    50
  0
POLYLINE
  5
626
330
1F
100
AcDbEntity
  8
Calque 1
 62
   250
420
  2236966
370
    50
100
AcDb2dPolyline
 66
     1
 10
0.0
 20
0.0
 30
0.0
  0
VERTEX
  5
627
330
626
100
AcDbEntity
  8
Calque 1
 62
   250
420
  2236966
370
    50
100
AcDbVertex
100
AcDb2dVertex
 10
1312.67379456658
 20
2219.001504979104
 30
0.0
  0
VERTEX
  5
628
330
626
100
AcDbEntity
  8
Calque 1
 62
   250
420
  2236966
370
    50
100
AcDbVertex
100
AcDb2dVertex
 10
1312.78696595327
 20
2218.977733820256
 30
0.0
  0
SEQEND
  5
629
330
626
100
AcDbEntity
  8
Calque 1
 62
   250
420
  2236966
370
    50
  0
POLYLINE
  5
62A
330
1F
100
AcDbEntity
  8
Calque 1
 62
   250
420
  2236966
370
    50
100
AcDb2dPolyline
 66
     1
 10
0.0
 20
0.0
 30
0.0
  0
VERTEX
  5
62B
330
62A
100
AcDbEntity
  8
Calque 1
 62
   250
420
  2236966
370
    50
100
AcDbVertex
100
AcDb2dVertex
 10
1312.390521590305
 20
2217.112559124541
 30
0.0
  0
VERTEX
  5
62C
330
62A
100
AcDbEntity
  8
Calque 1
 62
   250
420
  2236966
370
    50
100
AcDbVertex
100
AcDb2dVertex
 10
1312.277522458389
 20
2217.136847047712
 30
0.0
  0
SEQEND
  5
62D
330
62A
100
AcDbEntity
  8
Calque 1
 62
   250
420
  2236966
370
    50
  0
POLYLINE
  5
62E
330
1F
100
AcDbEntity
  8
Calque 1
 62
   250
420
  2236966
370
    50
100
AcDb2dPolyline
 66
     1
 10
0.0
 20
0.0
 30
0.0
  0
VERTEX
  5
62F
330
62E
100
AcDbEntity
  8
Calque 1
 62
   250
420
  2236966
370
    50
100
AcDbVertex
100
AcDb2dVertex
 10
1309.126552000192
 20
2219.755808635599
 30
0.0
  0
VERTEX
  5
630
330
62E
100
AcDbEntity
  8
Calque 1
 62
   250
420
  2236966
370
    50
100
AcDbVertex
100
AcDb2dVertex
 10
1309.239637259496
 20
2219.731520712428
 30
0.0
  0
SEQEND
  5
631
330
62E
100
AcDbEntity
  8
Calque 1
 62
   250
420
  2236966
370
    50
  0
POLYLINE
  5
632
330
1F
100
AcDbEntity
  8
Calque 1
 62
   250
420
  2236966
370
    50
100
AcDb2dPolyline
 66
     1
 10
0.0
 20
0.0
 30
0.0
  0
VERTEX
  5
633
330
632
100
AcDbEntity
  8
Calque 1
 62
   250
420
  2236966
370
    50
100
AcDbVertex
100
AcDb2dVertex
 10
1308.816148896971
 20
2217.967804078755
 30
0.0
  0
VERTEX
  5
634
330
632
100
AcDbEntity
  8
Calque 1
 62
   250
420
  2236966
370
    50
100
AcDbVertex
100
AcDb2dVertex
 10
1308.704441675862
 20
2217.997604154702
 30
0.0
  0
SEQEND
  5
635
330
632
100
AcDbEntity
  8
Calque 1
 62
   250
420
  2236966
370
    50
  0
POLYLINE
  5
636
330
1F
100
AcDbEntity
  8
Calque 1
 62
   250
420
  2236966
370
    50
100
AcDb2dPolyline
 66
     1
 10
0.0
 20
0.0
 30
0.0
  0
VERTEX
  5
637
330
636
100
AcDbEntity
  8
Calque 1
 62
   250
420
  2236966
370
    50
100
AcDbVertex
100
AcDb2dVertex
 10
1312.700924693526
 20
2218.900563681386
 30
0.0
  0
VERTEX
  5
638
330
636
100
AcDbEntity
  8
Calque 1
 62
   250
420
  2236966
370
    50
100
AcDbVertex
100
AcDb2dVertex
 10
1312.812631914635
 20
2218.870763605439
 30
0.0
  0
SEQEND
  5
639
330
636
100
AcDbEntity
  8
Calque 1
 62
   250
420
  2236966
370
    50
  0
POLYLINE
  5
63A
330
1F
100
AcDbEntity
  8
Calque 1
 62
   250
420
  2236966
370
    50
100
AcDb2dPolyline
 66
     1
 10
0.0
 20
0.0
 30
0.0
  0
VERTEX
  5
63B
330
63A
100
AcDbEntity
  8
Calque 1
 62
   250
420
  2236966
370
    50
100
AcDbVertex
100
AcDb2dVertex
 10
1312.319121986373
 20
2217.029015559024
 30
0.0
  0
VERTEX
  5
63C
330
63A
100
AcDbEntity
  8
Calque 1
 62
   250
420
  2236966
370
    50
100
AcDbVertex
100
AcDb2dVertex
 10
1312.207500892651
 20
2217.05916014452
 30
0.0
  0
SEQEND
  5
63D
330
63A
100
AcDbEntity
  8
Calque 1
 62
   250
420
  2236966
370
    50
  0
POLYLINE
  5
63E
330
1F
100
AcDbEntity
  8
Calque 1
 62
   250
420
  2236966
370
    50
100
AcDb2dPolyline
 66
     1
 10
0.0
 20
0.0
 30
0.0
  0
VERTEX
  5
63F
330
63E
100
AcDbEntity
  8
Calque 1
 62
   250
420
  2236966
370
    50
100
AcDbVertex
100
AcDb2dVertex
 10
1309.197951604124
 20
2219.839352201117
 30
0.0
  0
VERTEX
  5
640
330
63E
100
AcDbEntity
  8
Calque 1
 62
   250
420
  2236966
370
    50
100
AcDbVertex
100
AcDb2dVertex
 10
1309.309572697846
 20
2219.809207615621
 30
0.0
  0
SEQEND
  5
641
330
63E
100
AcDbEntity
  8
Calque 1
 62
   250
420
  2236966
370
    50
  0
POLYLINE
  5
642
330
1F
100
AcDbEntity
  8
Calque 1
 62
   250
420
  2236966
370
    50
100
AcDb2dPolyline
 66
     1
 10
0.0
 20
0.0
 30
0.0
  0
VERTEX
  5
643
330
642
100
AcDbEntity
  8
Calque 1
 62
   250
420
  2236966
370
    50
100
AcDbVertex
100
AcDb2dVertex
 10
1308.794444795414
 20
2218.070123414667
 30
0.0
  0
VERTEX
  5
644
330
642
100
AcDbEntity
  8
Calque 1
 62
   250
420
  2236966
370
    50
100
AcDbVertex
100
AcDb2dVertex
 10
1308.684373994661
 20
2218.105607898165
 30
0.0
  0
SEQEND
  5
645
330
642
100
AcDbEntity
  8
Calque 1
 62
   250
420
  2236966
370
    50
  0
POLYLINE
  5
646
330
1F
100
AcDbEntity
  8
Calque 1
 62
   250
420
  2236966
370
    50
100
AcDb2dPolyline
 66
     1
 10
0.0
 20
0.0
 30
0.0
  0
VERTEX
  5
647
330
646
100
AcDbEntity
  8
Calque 1
 62
   250
420
  2236966
370
    50
100
AcDbVertex
100
AcDb2dVertex
 10
1312.722628795083
 20
2218.798244345474
 30
0.0
  0
VERTEX
  5
648
330
646
100
AcDbEntity
  8
Calque 1
 62
   250
420
  2236966
370
    50
100
AcDbVertex
100
AcDb2dVertex
 10
1312.832699595837
 20
2218.762759861976
 30
0.0
  0
SEQEND
  5
649
330
646
100
AcDbEntity
  8
Calque 1
 62
   250
420
  2236966
370
    50
  0
POLYLINE
  5
64A
330
1F
100
AcDbEntity
  8
Calque 1
 62
   250
420
  2236966
370
    50
100
AcDb2dPolyline
 66
     1
 10
0.0
 20
0.0
 30
0.0
  0
VERTEX
  5
64B
330
64A
100
AcDbEntity
  8
Calque 1
 62
   250
420
  2236966
370
    50
100
AcDbVertex
100
AcDb2dVertex
 10
1312.243502140472
 20
2216.94926159854
 30
0.0
  0
VERTEX
  5
64C
330
64A
100
AcDbEntity
  8
Calque 1
 62
   250
420
  2236966
370
    50
100
AcDbVertex
100
AcDb2dVertex
 10
1312.133517467106
 20
2216.985262846361
 30
0.0
  0
SEQEND
  5
64D
330
64A
100
AcDbEntity
  8
Calque 1
 62
   250
420
  2236966
370
    50
  0
POLYLINE
  5
64E
330
1F
100
AcDbEntity
  8
Calque 1
 62
   250
420
  2236966
370
    50
100
AcDb2dPolyline
 66
     1
 10
0.0
 20
0.0
 30
0.0
  0
VERTEX
  5
64F
330
64E
100
AcDbEntity
  8
Calque 1
 62
   250
420
  2236966
370
    50
100
AcDbVertex
100
AcDb2dVertex
 10
1309.273657577412
 20
2219.9191061616
 30
0.0
  0
VERTEX
  5
650
330
64E
100
AcDbEntity
  8
Calque 1
 62
   250
420
  2236966
370
    50
100
AcDbVertex
100
AcDb2dVertex
 10
1309.383556123392
 20
2219.883104913779
 30
0.0
  0
SEQEND
  5
651
330
64E
100
AcDbEntity
  8
Calque 1
 62
   250
420
  2236966
370
    50
  0
POLYLINE
  5
652
330
1F
100
AcDbEntity
  8
Calque 1
 62
   250
420
  2236966
370
    50
100
AcDb2dPolyline
 66
     1
 10
0.0
 20
0.0
 30
0.0
  0
VERTEX
  5
653
330
652
100
AcDbEntity
  8
Calque 1
 62
   250
420
  2236966
370
    50
100
AcDbVertex
100
AcDb2dVertex
 10
1308.778080591859
 20
2218.173476279224
 30
0.0
  0
VERTEX
  5
654
330
652
100
AcDbEntity
  8
Calque 1
 62
   250
420
  2236966
370
    50
100
AcDbVertex
100
AcDb2dVertex
 10
1308.670076848397
 20
2218.214645170273
 30
0.0
  0
SEQEND
  5
655
330
652
100
AcDbEntity
  8
Calque 1
 62
   250
420
  2236966
370
    50
  0
POLYLINE
  5
656
330
1F
100
AcDbEntity
  8
Calque 1
 62
   250
420
  2236966
370
    50
100
AcDb2dPolyline
 66
     1
 10
0.0
 20
0.0
 30
0.0
  0
VERTEX
  5
657
330
656
100
AcDbEntity
  8
Calque 1
 62
   250
420
  2236966
370
    50
100
AcDbVertex
100
AcDb2dVertex
 10
1312.738992998638
 20
2218.694891480917
 30
0.0
  0
VERTEX
  5
658
330
656
100
AcDbEntity
  8
Calque 1
 62
   250
420
  2236966
370
    50
100
AcDbVertex
100
AcDb2dVertex
 10
1312.846996742101
 20
2218.653722589868
 30
0.0
  0
SEQEND
  5
659
330
656
100
AcDbEntity
  8
Calque 1
 62
   250
420
  2236966
370
    50
  0
POLYLINE
  5
65A
330
1F
100
AcDbEntity
  8
Calque 1
 62
   250
420
  2236966
370
    50
100
AcDb2dPolyline
 66
     1
 10
0.0
 20
0.0
 30
0.0
  0
VERTEX
  5
65B
330
65A
100
AcDbEntity
  8
Calque 1
 62
   250
420
  2236966
370
    50
100
AcDbVertex
100
AcDb2dVertex
 10
1312.163748179989
 20
2216.873641752639
 30
0.0
  0
VERTEX
  5
65C
330
65A
100
AcDbEntity
  8
Calque 1
 62
   250
420
  2236966
370
    50
100
AcDbVertex
100
AcDb2dVertex
 10
1312.055830563913
 20
2216.915155153237
 30
0.0
  0
SEQEND
  5
65D
330
65A
100
AcDbEntity
  8
Calque 1
 62
   250
420
  2236966
370
    50
  0
POLYLINE
  5
65E
330
1F
100
AcDbEntity
  8
Calque 1
 62
   250
420
  2236966
370
    50
100
AcDb2dPolyline
 66
     1
 10
0.0
 20
0.0
 30
0.0
  0
VERTEX
  5
65F
330
65E
100
AcDbEntity
  8
Calque 1
 62
   250
420
  2236966
370
    50
100
AcDbVertex
100
AcDb2dVertex
 10
1309.353325410509
 20
2219.994726007501
 30
0.0
  0
VERTEX
  5
660
330
65E
100
AcDbEntity
  8
Calque 1
 62
   250
420
  2236966
370
    50
100
AcDbVertex
100
AcDb2dVertex
 10
1309.461243026584
 20
2219.95304035213
 30
0.0
  0
SEQEND
  5
661
330
65E
100
AcDbEntity
  8
Calque 1
 62
   250
420
  2236966
370
    50
  0
POLYLINE
  5
662
330
1F
100
AcDbEntity
  8
Calque 1
 62
   250
420
  2236966
370
    50
100
AcDb2dPolyline
 66
     1
 10
0.0
 20
0.0
 30
0.0
  0
VERTEX
  5
663
330
662
100
AcDbEntity
  8
Calque 1
 62
   250
420
  2236966
370
    50
100
AcDbVertex
100
AcDb2dVertex
 10
1308.767142413694
 20
2218.277518162879
 30
0.0
  0
VERTEX
  5
664
330
662
100
AcDbEntity
  8
Calque 1
 62
   250
420
  2236966
370
    50
100
AcDbVertex
100
AcDb2dVertex
 10
1308.661377982296
 20
2218.324199206704
 30
0.0
  0
SEQEND
  5
665
330
662
100
AcDbEntity
  8
Calque 1
 62
   250
420
  2236966
370
    50
  0
POLYLINE
  5
666
330
1F
100
AcDbEntity
  8
Calque 1
 62
   250
420
  2236966
370
    50
100
AcDb2dPolyline
 66
     1
 10
0.0
 20
0.0
 30
0.0
  0
VERTEX
  5
667
330
666
100
AcDbEntity
  8
Calque 1
 62
   250
420
  2236966
370
    50
100
AcDbVertex
100
AcDb2dVertex
 10
1312.749931176804
 20
2218.590849597262
 30
0.0
  0
VERTEX
  5
668
330
666
100
AcDbEntity
  8
Calque 1
 62
   250
420
  2236966
370
    50
100
AcDbVertex
100
AcDb2dVertex
 10
1312.855695608201
 20
2218.543996298663
 30
0.0
  0
SEQEND
  5
669
330
666
100
AcDbEntity
  8
Calque 1
 62
   250
420
  2236966
370
    50
  0
POLYLINE
  5
66A
330
1F
100
AcDbEntity
  8
Calque 1
 62
   250
420
  2236966
370
    50
100
AcDb2dPolyline
 66
     1
 10
0.0
 20
0.0
 30
0.0
  0
VERTEX
  5
66B
330
66A
100
AcDbEntity
  8
Calque 1
 62
   250
420
  2236966
370
    50
100
AcDbVertex
100
AcDb2dVertex
 10
1312.080118487084
 20
2216.802156021321
 30
0.0
  0
VERTEX
  5
66C
330
66A
100
AcDbEntity
  8
Calque 1
 62
   250
420
  2236966
370
    50
100
AcDbVertex
100
AcDb2dVertex
 10
1311.974526310461
 20
2216.849353829468
 30
0.0
  0
SEQEND
  5
66D
330
66A
100
AcDbEntity
  8
Calque 1
 62
   250
420
  2236966
370
    50
  0
POLYLINE
  5
66E
330
1F
100
AcDbEntity
  8
Calque 1
 62
   250
420
  2236966
370
    50
100
AcDb2dPolyline
 66
     1
 10
0.0
 20
0.0
 30
0.0
  0
VERTEX
  5
66F
330
66E
100
AcDbEntity
  8
Calque 1
 62
   250
420
  2236966
370
    50
100
AcDbVertex
100
AcDb2dVertex
 10
1309.436955103413
 20
2220.06621173882
 30
0.0
  0
VERTEX
  5
670
330
66E
100
AcDbEntity
  8
Calque 1
 62
   250
420
  2236966
370
    50
100
AcDbVertex
100
AcDb2dVertex
 10
1309.542547280036
 20
2220.019013930672
 30
0.0
  0
SEQEND
  5
671
330
66E
100
AcDbEntity
  8
Calque 1
 62
   250
420
  2236966
370
    50
  0
POLYLINE
  5
672
330
1F
100
AcDbEntity
  8
Calque 1
 62
   250
420
  2236966
370
    50
100
AcDb2dPolyline
 66
     1
 10
0.0
 20
0.0
 30
0.0
  0
VERTEX
  5
673
330
672
100
AcDbEntity
  8
Calque 1
 62
   250
420
  2236966
370
    50
100
AcDbVertex
100
AcDb2dVertex
 10
1308.761716388304
 20
2218.381904556082
 30
0.0
  0
VERTEX
  5
674
330
672
100
AcDbEntity
  8
Calque 1
 62
   250
420
  2236966
370
    50
100
AcDbVertex
100
AcDb2dVertex
 10
1308.658535778521
 20
2218.434097752683
 30
0.0
  0
SEQEND
  5
675
330
672
100
AcDbEntity
  8
Calque 1
 62
   250
420
  2236966
370
    50
  0
POLYLINE
  5
676
330
1F
100
AcDbEntity
  8
Calque 1
 62
   250
420
  2236966
370
    50
100
AcDb2dPolyline
 66
     1
 10
0.0
 20
0.0
 30
0.0
  0
VERTEX
  5
677
330
676
100
AcDbEntity
  8
Calque 1
 62
   250
420
  2236966
370
    50
100
AcDbVertex
100
AcDb2dVertex
 10
1312.755357202193
 20
2218.486463204059
 30
0.0
  0
VERTEX
  5
678
330
676
100
AcDbEntity
  8
Calque 1
 62
   250
420
  2236966
370
    50
100
AcDbVertex
100
AcDb2dVertex
 10
1312.858537811976
 20
2218.434097752683
 30
0.0
  0
SEQEND
  5
679
330
676
100
AcDbEntity
  8
Calque 1
 62
   250
420
  2236966
370
    50
  0
POLYLINE
  5
67A
330
1F
100
AcDbEntity
  8
Calque 1
 62
   250
420
  2236966
370
    50
100
AcDb2dPolyline
 66
     1
 10
0.0
 20
0.0
 30
0.0
  0
VERTEX
  5
67B
330
67A
100
AcDbEntity
  8
Calque 1
 62
   250
420
  2236966
370
    50
100
AcDbVertex
100
AcDb2dVertex
 10
1311.99287144392
 20
2216.735321168906
 30
0.0
  0
VERTEX
  5
67C
330
67A
100
AcDbEntity
  8
Calque 1
 62
   250
420
  2236966
370
    50
100
AcDbVertex
100
AcDb2dVertex
 10
1311.896150388172
 20
2216.78475828912
 30
0.0
  0
SEQEND
  5
67D
330
67A
100
AcDbEntity
  8
Calque 1
 62
   250
420
  2236966
370
    50
  0
POLYLINE
  5
67E
330
1F
100
AcDbEntity
  8
Calque 1
 62
   250
420
  2236966
370
    50
100
AcDb2dPolyline
 66
     1
 10
0.0
 20
0.0
 30
0.0
  0
VERTEX
  5
67F
330
67E
100
AcDbEntity
  8
Calque 1
 62
   250
420
  2236966
370
    50
100
AcDbVertex
100
AcDb2dVertex
 10
1309.524202146577
 20
2220.133046591234
 30
0.0
  0
VERTEX
  5
680
330
67E
100
AcDbEntity
  8
Calque 1
 62
   250
420
  2236966
370
    50
100
AcDbVertex
100
AcDb2dVertex
 10
1309.620923202326
 20
2220.083609471021
 30
0.0
  0
SEQEND
  5
681
330
67E
100
AcDbEntity
  8
Calque 1
 62
   250
420
  2236966
370
    50
  0
POLYLINE
  5
682
330
1F
100
AcDbEntity
  8
Calque 1
 62
   250
420
  2236966
370
    50
100
AcDb2dPolyline
 66
     1
 10
0.0
 20
0.0
 30
0.0
  0
VERTEX
  5
683
330
682
100
AcDbEntity
  8
Calque 1
 62
   250
420
  2236966
370
    50
100
AcDbVertex
100
AcDb2dVertex
 10
1308.761716388304
 20
2218.486463204059
 30
0.0
  0
VERTEX
  5
684
330
682
100
AcDbEntity
  8
Calque 1
 62
   250
420
  2236966
370
    50
100
AcDbVertex
100
AcDb2dVertex
 10
1308.661377982296
 20
2218.543996298663
 30
0.0
  0
SEQEND
  5
685
330
682
100
AcDbEntity
  8
Calque 1
 62
   250
420
  2236966
370
    50
  0
POLYLINE
  5
686
330
1F
100
AcDbEntity
  8
Calque 1
 62
   250
420
  2236966
370
    50
100
AcDb2dPolyline
 66
     1
 10
0.0
 20
0.0
 30
0.0
  0
VERTEX
  5
687
330
686
100
AcDbEntity
  8
Calque 1
 62
   250
420
  2236966
370
    50
100
AcDbVertex
100
AcDb2dVertex
 10
1312.755357202193
 20
2218.381904556082
 30
0.0
  0
VERTEX
  5
688
330
686
100
AcDbEntity
  8
Calque 1
 62
   250
420
  2236966
370
    50
100
AcDbVertex
100
AcDb2dVertex
 10
1312.855695608201
 20
2218.324199206704
 30
0.0
  0
SEQEND
  5
689
330
686
100
AcDbEntity
  8
Calque 1
 62
   250
420
  2236966
370
    50
  0
POLYLINE
  5
68A
330
1F
100
AcDbEntity
  8
Calque 1
 62
   250
420
  2236966
370
    50
100
AcDb2dPolyline
 66
     1
 10
0.0
 20
0.0
 30
0.0
  0
VERTEX
  5
68B
330
68A
100
AcDbEntity
  8
Calque 1
 62
   250
420
  2236966
370
    50
100
AcDbVertex
100
AcDb2dVertex
 10
1311.896150388172
 20
2216.676582290883
 30
0.0
  0
VERTEX
  5
68C
330
68A
100
AcDbEntity
  8
Calque 1
 62
   250
420
  2236966
370
    50
100
AcDbVertex
100
AcDb2dVertex
 10
1311.805372122136
 20
2216.729119997033
 30
0.0
  0
SEQEND
  5
68D
330
68A
100
AcDbEntity
  8
Calque 1
 62
   250
420
  2236966
370
    50
  0
POLYLINE
  5
68E
330
1F
100
AcDbEntity
  8
Calque 1
 62
   250
420
  2236966
370
    50
100
AcDb2dPolyline
 66
     1
 10
0.0
 20
0.0
 30
0.0
  0
VERTEX
  5
68F
330
68E
100
AcDbEntity
  8
Calque 1
 62
   250
420
  2236966
370
    50
100
AcDbVertex
100
AcDb2dVertex
 10
1309.620923202326
 20
2220.191785469258
 30
0.0
  0
VERTEX
  5
690
330
68E
100
AcDbEntity
  8
Calque 1
 62
   250
420
  2236966
370
    50
100
AcDbVertex
100
AcDb2dVertex
 10
1309.711701468362
 20
2220.139247763108
 30
0.0
  0
SEQEND
  5
691
330
68E
100
AcDbEntity
  8
Calque 1
 62
   250
420
  2236966
370
    50
  0
POLYLINE
  5
692
330
1F
100
AcDbEntity
  8
Calque 1
 62
   250
420
  2236966
370
    50
100
AcDb2dPolyline
 66
     1
 10
0.0
 20
0.0
 30
0.0
  0
VERTEX
  5
693
330
692
100
AcDbEntity
  8
Calque 1
 62
   250
420
  2236966
370
    50
100
AcDbVertex
100
AcDb2dVertex
 10
1308.767142413694
 20
2218.590849597262
 30
0.0
  0
VERTEX
  5
694
330
692
100
AcDbEntity
  8
Calque 1
 62
   250
420
  2236966
370
    50
100
AcDbVertex
100
AcDb2dVertex
 10
1308.670076848397
 20
2218.653722589868
 30
0.0
  0
SEQEND
  5
695
330
692
100
AcDbEntity
  8
Calque 1
 62
   250
420
  2236966
370
    50
  0
POLYLINE
  5
696
330
1F
100
AcDbEntity
  8
Calque 1
 62
   250
420
  2236966
370
    50
100
AcDb2dPolyline
 66
     1
 10
0.0
 20
0.0
 30
0.0
  0
VERTEX
  5
697
330
696
100
AcDbEntity
  8
Calque 1
 62
   250
420
  2236966
370
    50
100
AcDbVertex
100
AcDb2dVertex
 10
1312.749931176804
 20
2218.277518162879
 30
0.0
  0
VERTEX
  5
698
330
696
100
AcDbEntity
  8
Calque 1
 62
   250
420
  2236966
370
    50
100
AcDbVertex
100
AcDb2dVertex
 10
1312.846996742101
 20
2218.214645170273
 30
0.0
  0
SEQEND
  5
699
330
696
100
AcDbEntity
  8
Calque 1
 62
   250
420
  2236966
370
    50
  0
POLYLINE
  5
69A
330
1F
100
AcDbEntity
  8
Calque 1
 62
   250
420
  2236966
370
    50
100
AcDb2dPolyline
 66
     1
 10
0.0
 20
0.0
 30
0.0
  0
VERTEX
  5
69B
330
69A
100
AcDbEntity
  8
Calque 1
 62
   250
420
  2236966
370
    50
100
AcDbVertex
100
AcDb2dVertex
 10
1311.805372122136
 20
2216.617498903311
 30
0.0
  0
VERTEX
  5
69C
330
69A
100
AcDbEntity
  8
Calque 1
 62
   250
420
  2236966
370
    50
100
AcDbVertex
100
AcDb2dVertex
 10
1311.711837779711
 20
2216.678649348174
 30
0.0
  0
SEQEND
  5
69D
330
69A
100
AcDbEntity
  8
Calque 1
 62
   250
420
  2236966
370
    50
  0
POLYLINE
  5
69E
330
1F
100
AcDbEntity
  8
Calque 1
 62
   250
420
  2236966
370
    50
100
AcDb2dPolyline
 66
     1
 10
0.0
 20
0.0
 30
0.0
  0
VERTEX
  5
69F
330
69E
100
AcDbEntity
  8
Calque 1
 62
   250
420
  2236966
370
    50
100
AcDbVertex
100
AcDb2dVertex
 10
1309.711701468362
 20
2220.250696602056
 30
0.0
  0
VERTEX
  5
6A0
330
69E
100
AcDbEntity
  8
Calque 1
 62
   250
420
  2236966
370
    50
100
AcDbVertex
100
AcDb2dVertex
 10
1309.805235810787
 20
2220.189718411967
 30
0.0
  0
SEQEND
  5
6A1
330
69E
100
AcDbEntity
  8
Calque 1
 62
   250
420
  2236966
370
    50
  0
POLYLINE
  5
6A2
330
1F
100
AcDbEntity
  8
Calque 1
 62
   250
420
  2236966
370
    50
100
AcDb2dPolyline
 66
     1
 10
0.0
 20
0.0
 30
0.0
  0
VERTEX
  5
6A3
330
6A2
100
AcDbEntity
  8
Calque 1
 62
   250
420
  2236966
370
    50
100
AcDbVertex
100
AcDb2dVertex
 10
1308.778080591859
 20
2218.694891480917
 30
0.0
  0
VERTEX
  5
6A4
330
6A2
100
AcDbEntity
  8
Calque 1
 62
   250
420
  2236966
370
    50
100
AcDbVertex
100
AcDb2dVertex
 10
1308.684373994661
 20
2218.762759861976
 30
0.0
  0
SEQEND
  5
6A5
330
6A2
100
AcDbEntity
  8
Calque 1
 62
   250
420
  2236966
370
    50
  0
POLYLINE
  5
6A6
330
1F
100
AcDbEntity
  8
Calque 1
 62
   250
420
  2236966
370
    50
100
AcDb2dPolyline
 66
     1
 10
0.0
 20
0.0
 30
0.0
  0
VERTEX
  5
6A7
330
6A6
100
AcDbEntity
  8
Calque 1
 62
   250
420
  2236966
370
    50
100
AcDbVertex
100
AcDb2dVertex
 10
1312.738992998638
 20
2218.173476279224
 30
0.0
  0
VERTEX
  5
6A8
330
6A6
100
AcDbEntity
  8
Calque 1
 62
   250
420
  2236966
370
    50
100
AcDbVertex
100
AcDb2dVertex
 10
1312.832699595837
 20
2218.105607898165
 30
0.0
  0
SEQEND
  5
6A9
330
6A6
100
AcDbEntity
  8
Calque 1
 62
   250
420
  2236966
370
    50
  0
POLYLINE
  5
6AA
330
1F
100
AcDbEntity
  8
Calque 1
 62
   250
420
  2236966
370
    50
100
AcDb2dPolyline
 66
     1
 10
0.0
 20
0.0
 30
0.0
  0
VERTEX
  5
6AB
330
6AA
100
AcDbEntity
  8
Calque 1
 62
   250
420
  2236966
370
    50
100
AcDbVertex
100
AcDb2dVertex
 10
1311.711837779711
 20
2216.563066394644
 30
0.0
  0
VERTEX
  5
6AC
330
6AA
100
AcDbEntity
  8
Calque 1
 62
   250
420
  2236966
370
    50
100
AcDbVertex
100
AcDb2dVertex
 10
1311.615633488285
 20
2216.633346342543
 30
0.0
  0
SEQEND
  5
6AD
330
6AA
100
AcDbEntity
  8
Calque 1
 62
   250
420
  2236966
370
    50
  0
POLYLINE
  5
6AE
330
1F
100
AcDbEntity
  8
Calque 1
 62
   250
420
  2236966
370
    50
100
AcDb2dPolyline
 66
     1
 10
0.0
 20
0.0
 30
0.0
  0
VERTEX
  5
6AF
330
6AE
100
AcDbEntity
  8
Calque 1
 62
   250
420
  2236966
370
    50
100
AcDbVertex
100
AcDb2dVertex
 10
1309.805235810787
 20
2220.305129110723
 30
0.0
  0
VERTEX
  5
6B0
330
6AE
100
AcDbEntity
  8
Calque 1
 62
   250
420
  2236966
370
    50
100
AcDbVertex
100
AcDb2dVertex
 10
1309.901526229599
 20
2220.235021417598
 30
0.0
  0
SEQEND
  5
6B1
330
6AE
100
AcDbEntity
  8
Calque 1
 62
   250
420
  2236966
370
    50
  0
POLYLINE
  5
6B2
330
1F
100
AcDbEntity
  8
Calque 1
 62
   250
420
  2236966
370
    50
100
AcDb2dPolyline
 66
     1
 10
0.0
 20
0.0
 30
0.0
  0
VERTEX
  5
6B3
330
6B2
100
AcDbEntity
  8
Calque 1
 62
   250
420
  2236966
370
    50
100
AcDbVertex
100
AcDb2dVertex
 10
1308.794444795414
 20
2218.798244345474
 30
0.0
  0
VERTEX
  5
6B4
330
6B2
100
AcDbEntity
  8
Calque 1
 62
   250
420
  2236966
370
    50
100
AcDbVertex
100
AcDb2dVertex
 10
1308.704441675862
 20
2218.870763605439
 30
0.0
  0
SEQEND
  5
6B5
330
6B2
100
AcDbEntity
  8
Calque 1
 62
   250
420
  2236966
370
    50
  0
POLYLINE
  5
6B6
330
1F
100
AcDbEntity
  8
Calque 1
 62
   250
420
  2236966
370
    50
100
AcDb2dPolyline
 66
     1
 10
0.0
 20
0.0
 30
0.0
  0
VERTEX
  5
6B7
330
6B6
100
AcDbEntity
  8
Calque 1
 62
   250
420
  2236966
370
    50
100
AcDbVertex
100
AcDb2dVertex
 10
1312.722628795083
 20
2218.070123414667
 30
0.0
  0
VERTEX
  5
6B8
330
6B6
100
AcDbEntity
  8
Calque 1
 62
   250
420
  2236966
370
    50
100
AcDbVertex
100
AcDb2dVertex
 10
1312.812631914635
 20
2217.997604154702
 30
0.0
  0
SEQEND
  5
6B9
330
6B6
100
AcDbEntity
  8
Calque 1
 62
   250
420
  2236966
370
    50
  0
POLYLINE
  5
6BA
330
1F
100
AcDbEntity
  8
Calque 1
 62
   250
420
  2236966
370
    50
100
AcDb2dPolyline
 66
     1
 10
0.0
 20
0.0
 30
0.0
  0
VERTEX
  5
6BB
330
6BA
100
AcDbEntity
  8
Calque 1
 62
   250
420
  2236966
370
    50
100
AcDbVertex
100
AcDb2dVertex
 10
1311.615633488285
 20
2216.513284764882
 30
0.0
  0
VERTEX
  5
6BC
330
6BA
100
AcDbEntity
  8
Calque 1
 62
   250
420
  2236966
370
    50
100
AcDbVertex
100
AcDb2dVertex
 10
1311.51701763002
 20
2216.593555489689
 30
0.0
  0
SEQEND
  5
6BD
330
6BA
100
AcDbEntity
  8
Calque 1
 62
   250
420
  2236966
370
    50
  0
POLYLINE
  5
6BE
330
1F
100
AcDbEntity
  8
Calque 1
 62
   250
420
  2236966
370
    50
100
AcDb2dPolyline
 66
     1
 10
0.0
 20
0.0
 30
0.0
  0
VERTEX
  5
6BF
330
6BE
100
AcDbEntity
  8
Calque 1
 62
   250
420
  2236966
370
    50
100
AcDbVertex
100
AcDb2dVertex
 10
1309.901526229599
 20
2220.354910740484
 30
0.0
  0
VERTEX
  5
6C0
330
6BE
100
AcDbEntity
  8
Calque 1
 62
   250
420
  2236966
370
    50
100
AcDbVertex
100
AcDb2dVertex
 10
1310.000055960478
 20
2220.274812270452
 30
0.0
  0
SEQEND
  5
6C1
330
6BE
100
AcDbEntity
  8
Calque 1
 62
   250
420
  2236966
370
    50
  0
POLYLINE
  5
6C2
330
1F
100
AcDbEntity
  8
Calque 1
 62
   250
420
  2236966
370
    50
100
AcDb2dPolyline
 66
     1
 10
0.0
 20
0.0
 30
0.0
  0
VERTEX
  5
6C3
330
6C2
100
AcDbEntity
  8
Calque 1
 62
   250
420
  2236966
370
    50
100
AcDbVertex
100
AcDb2dVertex
 10
1308.816148896971
 20
2218.900563681386
 30
0.0
  0
VERTEX
  5
6C4
330
6C2
100
AcDbEntity
  8
Calque 1
 62
   250
420
  2236966
370
    50
100
AcDbVertex
100
AcDb2dVertex
 10
1308.730107637227
 20
2218.977733820256
 30
0.0
  0
SEQEND
  5
6C5
330
6C2
100
AcDbEntity
  8
Calque 1
 62
   250
420
  2236966
370
    50
  0
POLYLINE
  5
6C6
330
1F
100
AcDbEntity
  8
Calque 1
 62
   250
420
  2236966
370
    50
100
AcDb2dPolyline
 66
     1
 10
0.0
 20
0.0
 30
0.0
  0
VERTEX
  5
6C7
330
6C6
100
AcDbEntity
  8
Calque 1
 62
   250
420
  2236966
370
    50
100
AcDbVertex
100
AcDb2dVertex
 10
1312.700924693526
 20
2217.967804078755
 30
0.0
  0
VERTEX
  5
6C8
330
6C6
100
AcDbEntity
  8
Calque 1
 62
   250
420
  2236966
370
    50
100
AcDbVertex
100
AcDb2dVertex
 10
1312.78696595327
 20
2217.890633939885
 30
0.0
  0
SEQEND
  5
6C9
330
6C6
100
AcDbEntity
  8
Calque 1
 62
   250
420
  2236966
370
    50
  0
POLYLINE
  5
6CA
330
1F
100
AcDbEntity
  8
Calque 1
 62
   250
420
  2236966
370
    50
100
AcDb2dPolyline
 66
     1
 10
0.0
 20
0.0
 30
0.0
  0
VERTEX
  5
6CB
330
6CA
100
AcDbEntity
  8
Calque 1
 62
   250
420
  2236966
370
    50
100
AcDbVertex
100
AcDb2dVertex
 10
1311.51701763002
 20
2216.4683262688
 30
0.0
  0
VERTEX
  5
6CC
330
6CA
100
AcDbEntity
  8
Calque 1
 62
   250
420
  2236966
370
    50
100
AcDbVertex
100
AcDb2dVertex
 10
1311.425291962725
 20
2216.55118081522
 30
0.0
  0
SEQEND
  5
6CD
330
6CA
100
AcDbEntity
  8
Calque 1
 62
   250
420
  2236966
370
    50
  0
POLYLINE
  5
6CE
330
1F
100
AcDbEntity
  8
Calque 1
 62
   250
420
  2236966
370
    50
100
AcDb2dPolyline
 66
     1
 10
0.0
 20
0.0
 30
0.0
  0
VERTEX
  5
6CF
330
6CE
100
AcDbEntity
  8
Calque 1
 62
   250
420
  2236966
370
    50
100
AcDbVertex
100
AcDb2dVertex
 10
1310.000055960478
 20
2220.400041491341
 30
0.0
  0
VERTEX
  5
6D0
330
6CE
100
AcDbEntity
  8
Calque 1
 62
   250
420
  2236966
370
    50
100
AcDbVertex
100
AcDb2dVertex
 10
1310.091781627772
 20
2220.317186944921
 30
0.0
  0
SEQEND
  5
6D1
330
6CE
100
AcDbEntity
  8
Calque 1
 62
   250
420
  2236966
370
    50
  0
POLYLINE
  5
6D2
330
1F
100
AcDbEntity
  8
Calque 1
 62
   250
420
  2236966
370
    50
100
AcDb2dPolyline
 66
     1
 10
0.0
 20
0.0
 30
0.0
  0
VERTEX
  5
6D3
330
6D2
100
AcDbEntity
  8
Calque 1
 62
   250
420
  2236966
370
    50
100
AcDbVertex
100
AcDb2dVertex
 10
1308.843279023918
 20
2219.001504979104
 30
0.0
  0
VERTEX
  5
6D4
330
6D2
100
AcDbEntity
  8
Calque 1
 62
   250
420
  2236966
370
    50
100
AcDbVertex
100
AcDb2dVertex
 10
1308.761285751369
 20
2219.083153742105
 30
0.0
  0
SEQEND
  5
6D5
330
6D2
100
AcDbEntity
  8
Calque 1
 62
   250
420
  2236966
370
    50
  0
POLYLINE
  5
6D6
330
1F
100
AcDbEntity
  8
Calque 1
 62
   250
420
  2236966
370
    50
100
AcDb2dPolyline
 66
     1
 10
0.0
 20
0.0
 30
0.0
  0
VERTEX
  5
6D7
330
6D6
100
AcDbEntity
  8
Calque 1
 62
   250
420
  2236966
370
    50
100
AcDbVertex
100
AcDb2dVertex
 10
1312.67379456658
 20
2217.866862781037
 30
0.0
  0
VERTEX
  5
6D8
330
6D6
100
AcDbEntity
  8
Calque 1
 62
   250
420
  2236966
370
    50
100
AcDbVertex
100
AcDb2dVertex
 10
1312.755787839129
 20
2217.785214018037
 30
0.0
  0
SEQEND
  5
6D9
330
6D6
100
AcDbEntity
  8
Calque 1
 62
   250
420
  2236966
370
    50
  0
POLYLINE
  5
6DA
330
1F
100
AcDbEntity
  8
Calque 1
 62
   250
420
  2236966
370
    50
100
AcDb2dPolyline
 66
     1
 10
0.0
 20
0.0
 30
0.0
  0
VERTEX
  5
6DB
330
6DA
100
AcDbEntity
  8
Calque 1
 62
   250
420
  2236966
370
    50
100
AcDbVertex
100
AcDb2dVertex
 10
1311.407463593589
 20
2216.436975899884
 30
0.0
  0
VERTEX
  5
6DC
330
6DA
100
AcDbEntity
  8
Calque 1
 62
   250
420
  2236966
370
    50
100
AcDbVertex
100
AcDb2dVertex
 10
1311.325900957976
 20
2216.518969172433
 30
0.0
  0
SEQEND
  5
6DD
330
6DA
100
AcDbEntity
  8
Calque 1
 62
   250
420
  2236966
370
    50
  0
POLYLINE
  5
6DE
330
1F
100
AcDbEntity
  8
Calque 1
 62
   250
420
  2236966
370
    50
100
AcDb2dPolyline
 66
     1
 10
0.0
 20
0.0
 30
0.0
  0
VERTEX
  5
6DF
330
6DE
100
AcDbEntity
  8
Calque 1
 62
   250
420
  2236966
370
    50
100
AcDbVertex
100
AcDb2dVertex
 10
1310.109609996908
 20
2220.431391860257
 30
0.0
  0
VERTEX
  5
6E0
330
6DE
100
AcDbEntity
  8
Calque 1
 62
   250
420
  2236966
370
    50
100
AcDbVertex
100
AcDb2dVertex
 10
1310.191172632522
 20
2220.349398587708
 30
0.0
  0
SEQEND
  5
6E1
330
6DE
100
AcDbEntity
  8
Calque 1
 62
   250
420
  2236966
370
    50
  0
POLYLINE
  5
6E2
330
1F
100
AcDbEntity
  8
Calque 1
 62
   250
420
  2236966
370
    50
100
AcDb2dPolyline
 66
     1
 10
0.0
 20
0.0
 30
0.0
  0
VERTEX
  5
6E3
330
6E2
100
AcDbEntity
  8
Calque 1
 62
   250
420
  2236966
370
    50
100
AcDbVertex
100
AcDb2dVertex
 10
1308.875576794092
 20
2219.100895983853
 30
0.0
  0
VERTEX
  5
6E4
330
6E2
100
AcDbEntity
  8
Calque 1
 62
   250
420
  2236966
370
    50
100
AcDbVertex
100
AcDb2dVertex
 10
1308.792636120284
 20
2219.192707778535
 30
0.0
  0
SEQEND
  5
6E5
330
6E2
100
AcDbEntity
  8
Calque 1
 62
   250
420
  2236966
370
    50
  0
POLYLINE
  5
6E6
330
1F
100
AcDbEntity
  8
Calque 1
 62
   250
420
  2236966
370
    50
100
AcDb2dPolyline
 66
     1
 10
0.0
 20
0.0
 30
0.0
  0
VERTEX
  5
6E7
330
6E6
100
AcDbEntity
  8
Calque 1
 62
   250
420
  2236966
370
    50
100
AcDbVertex
100
AcDb2dVertex
 10
1312.641496796406
 20
2217.767299521513
 30
0.0
  0
VERTEX
  5
6E8
330
6E6
100
AcDbEntity
  8
Calque 1
 62
   250
420
  2236966
370
    50
100
AcDbVertex
100
AcDb2dVertex
 10
1312.724437470213
 20
2217.675659981605
 30
0.0
  0
SEQEND
  5
6E9
330
6E6
100
AcDbEntity
  8
Calque 1
 62
   250
420
  2236966
370
    50
  0
POLYLINE
  5
6EA
330
1F
100
AcDbEntity
  8
Calque 1
 62
   250
420
  2236966
370
    50
100
AcDb2dPolyline
 66
     1
 10
0.0
 20
0.0
 30
0.0
  0
VERTEX
  5
6EB
330
6EA
100
AcDbEntity
  8
Calque 1
 62
   250
420
  2236966
370
    50
100
AcDbVertex
100
AcDb2dVertex
 10
1311.30204367174
 20
2216.405797785742
 30
0.0
  0
VERTEX
  5
6EC
330
6EA
100
AcDbEntity
  8
Calque 1
 62
   250
420
  2236966
370
    50
100
AcDbVertex
100
AcDb2dVertex
 10
1311.224873532871
 20
2216.491752918099
 30
0.0
  0
SEQEND
  5
6ED
330
6EA
100
AcDbEntity
  8
Calque 1
 62
   250
420
  2236966
370
    50
  0
POLYLINE
  5
6EE
330
1F
100
AcDbEntity
  8
Calque 1
 62
   250
420
  2236966
370
    50
100
AcDb2dPolyline
 66
     1
 10
0.0
 20
0.0
 30
0.0
  0
VERTEX
  5
6EF
330
6EE
100
AcDbEntity
  8
Calque 1
 62
   250
420
  2236966
370
    50
100
AcDbVertex
100
AcDb2dVertex
 10
1310.215029918757
 20
2220.462569974398
 30
0.0
  0
VERTEX
  5
6F0
330
6EE
100
AcDbEntity
  8
Calque 1
 62
   250
420
  2236966
370
    50
100
AcDbVertex
100
AcDb2dVertex
 10
1310.292200057627
 20
2220.376442587267
 30
0.0
  0
SEQEND
  5
6F1
330
6EE
100
AcDbEntity
  8
Calque 1
 62
   250
420
  2236966
370
    50
  0
POLYLINE
  5
6F2
330
1F
100
AcDbEntity
  8
Calque 1
 62
   250
420
  2236966
370
    50
100
AcDb2dPolyline
 66
     1
 10
0.0
 20
0.0
 30
0.0
  0
VERTEX
  5
6F3
330
6F2
100
AcDbEntity
  8
Calque 1
 62
   250
420
  2236966
370
    50
100
AcDbVertex
100
AcDb2dVertex
 10
1312.599208249324
 20
2217.675659981605
 30
0.0
  0
VERTEX
  5
6F4
330
6F2
100
AcDbEntity
  8
Calque 1
 62
   250
420
  2236966
370
    50
100
AcDbVertex
100
AcDb2dVertex
 10
1312.679392846743
 20
2217.577130250727
 30
0.0
  0
SEQEND
  5
6F5
330
6F2
100
AcDbEntity
  8
Calque 1
 62
   250
420
  2236966
370
    50
  0
POLYLINE
  5
6F6
330
1F
100
AcDbEntity
  8
Calque 1
 62
   250
420
  2236966
370
    50
100
AcDb2dPolyline
 66
     1
 10
0.0
 20
0.0
 30
0.0
  0
VERTEX
  5
6F7
330
6F6
100
AcDbEntity
  8
Calque 1
 62
   250
420
  2236966
370
    50
100
AcDbVertex
100
AcDb2dVertex
 10
289.7585407804249
 20
2253.134133008765
 30
0.0
  0
VERTEX
  5
6F8
330
6F6
100
AcDbEntity
  8
Calque 1
 62
   250
420
  2236966
370
    50
100
AcDbVertex
100
AcDb2dVertex
 10
289.7585407804249
 20
2277.234126221056
 30
0.0
  0
SEQEND
  5
6F9
330
6F6
100
AcDbEntity
  8
Calque 1
 62
   250
420
  2236966
370
    50
  0
POLYLINE
  5
6FA
330
1F
100
AcDbEntity
  8
Calque 1
 62
   250
420
  2236966
370
    50
100
AcDb2dPolyline
 66
     1
 10
0.0
 20
0.0
 30
0.0
  0
VERTEX
  5
6FB
330
6FA
100
AcDbEntity
  8
Calque 1
 62
   250
420
  2236966
370
    50
100
AcDbVertex
100
AcDb2dVertex
 10
289.9585501051905
 20
2277.434114013975
 30
0.0
  0
VERTEX
  5
6FC
330
6FA
100
AcDbEntity
  8
Calque 1
 62
   250
420
  2236966
370
    50
100
AcDbVertex
100
AcDb2dVertex
 10
289.9585501051905
 20
2252.934145215846
 30
0.0
  0
SEQEND
  5
6FD
330
6FA
100
AcDbEntity
  8
Calque 1
 62
   250
420
  2236966
370
    50
  0
POLYLINE
  5
6FE
330
1F
100
AcDbEntity
  8
Calque 1
 62
   250
420
  2236966
370
    50
100
AcDb2dPolyline
 66
     1
 10
0.0
 20
0.0
 30
0.0
  0
VERTEX
  5
6FF
330
6FE
100
AcDbEntity
  8
Calque 1
 62
   250
420
  2236966
370
    50
100
AcDbVertex
100
AcDb2dVertex
 10
349.5585512770852
 20
2252.934145215846
 30
0.0
  0
VERTEX
  5
700
330
6FE
100
AcDbEntity
  8
Calque 1
 62
   250
420
  2236966
370
    50
100
AcDbVertex
100
AcDb2dVertex
 10
349.5585512770852
 20
2277.434114013975
 30
0.0
  0
SEQEND
  5
701
330
6FE
100
AcDbEntity
  8
Calque 1
 62
   250
420
  2236966
370
    50
  0
POLYLINE
  5
702
330
1F
100
AcDbEntity
  8
Calque 1
 62
   250
420
  2236966
370
    50
100
AcDb2dPolyline
 66
     1
 10
0.0
 20
0.0
 30
0.0
  0
VERTEX
  5
703
330
702
100
AcDbEntity
  8
Calque 1
 62
   250
420
  2236966
370
    50
100
AcDbVertex
100
AcDb2dVertex
 10
349.758539070004
 20
2277.234126221056
 30
0.0
  0
VERTEX
  5
704
330
702
100
AcDbEntity
  8
Calque 1
 62
   250
420
  2236966
370
    50
100
AcDbVertex
100
AcDb2dVertex
 10
349.758539070004
 20
2253.134133008765
 30
0.0
  0
SEQEND
  5
705
330
702
100
AcDbEntity
  8
Calque 1
 62
   250
420
  2236966
370
    50
  0
POLYLINE
  5
706
330
1F
100
AcDbEntity
  8
Calque 1
 62
   250
420
  2236966
370
    50
100
AcDb2dPolyline
 66
     1
 10
0.0
 20
0.0
 30
0.0
  0
VERTEX
  5
707
330
706
100
AcDbEntity
  8
Calque 1
 62
   250
420
  2236966
370
    50
100
AcDbVertex
100
AcDb2dVertex
 10
289.9585501051905
 20
2252.934145215846
 30
0.0
  0
VERTEX
  5
708
330
706
100
AcDbEntity
  8
Calque 1
 62
   250
420
  2236966
370
    50
100
AcDbVertex
100
AcDb2dVertex
 10
349.5585512770852
 20
2252.934145215846
 30
0.0
  0
SEQEND
  5
709
330
706
100
AcDbEntity
  8
Calque 1
 62
   250
420
  2236966
370
    50
  0
POLYLINE
  5
70A
330
1F
100
AcDbEntity
  8
Calque 1
 62
   250
420
  2236966
370
    50
100
AcDb2dPolyline
 66
     1
 10
0.0
 20
0.0
 30
0.0
  0
VERTEX
  5
70B
330
70A
100
AcDbEntity
  8
Calque 1
 62
   250
420
  2236966
370
    50
100
AcDbVertex
100
AcDb2dVertex
 10
289.9585501051905
 20
2277.434114013975
 30
0.0
  0
VERTEX
  5
70C
330
70A
100
AcDbEntity
  8
Calque 1
 62
   250
420
  2236966
370
    50
100
AcDbVertex
100
AcDb2dVertex
 10
349.5585512770852
 20
2277.434114013975
 30
0.0
  0
SEQEND
  5
70D
330
70A
100
AcDbEntity
  8
Calque 1
 62
   250
420
  2236966
370
    50
  0
SPLINE
  5
70E
330
1F
100
AcDbEntity
  8
Calque 1
 62
   250
420
  2236966
370
    50
100
AcDbSpline
210
0.0
220
0.0
230
1.0
 70
     8
 71
     3
 72
     8
 73
     4
 74
     0
 42
0.0000000001
 43
0.0000000001
 12
1.0
 22
0.0
 32
0.0
 13
1.0
 23
0.0
 33
0.0
 40
0.0
 40
0.0
 40
0.0
 40
0.0
 40
1.0
 40
1.0
 40
1.0
 40
1.0
 10
349.6999724467547
 20
2252.992711839096
 30
0.0
 10
349.7374593920036
 20
2253.030263379885
 30
0.0
 10
349.758539070004
 20
2253.081078538292
 30
0.0
 10
349.758539070004
 20
2253.134133008765
 30
0.0
  0
SPLINE
  5
70F
330
1F
100
AcDbEntity
  8
Calque 1
 62
   250
420
  2236966
370
    50
100
AcDbSpline
210
0.0
220
0.0
230
1.0
 70
     8
 71
     3
 72
     8
 73
     4
 74
     0
 42
0.0000000001
 43
0.0000000001
 12
1.0
 22
0.0
 32
0.0
 13
1.0
 23
0.0
 33
0.0
 40
0.0
 40
0.0
 40
0.0
 40
0.0
 40
1.0
 40
1.0
 40
1.0
 40
1.0
 10
349.5585512770852
 20
2252.934145215846
 30
0.0
 10
349.6115842157113
 20
2252.934145215846
 30
0.0
 10
349.662463969659
 20
2252.955160298307
 30
0.0
 10
349.6999724467547
 20
2252.992711839096
 30
0.0
  0
SPLINE
  5
710
330
1F
100
AcDbEntity
  8
Calque 1
 62
   250
420
  2236966
370
    50
100
AcDbSpline
210
0.0
220
0.0
230
1.0
 70
     8
 71
     3
 72
     8
 73
     4
 74
     0
 42
0.0000000001
 43
0.0000000001
 12
1.0
 22
0.0
 32
0.0
 13
1.0
 23
0.0
 33
0.0
 40
0.0
 40
0.0
 40
0.0
 40
0.0
 40
1.0
 40
1.0
 40
1.0
 40
1.0
 10
289.817128935521
 20
2252.992711839096
 30
0.0
 10
289.8546374126166
 20
2252.955160298307
 30
0.0
 10
289.9054956347176
 20
2252.934145215846
 30
0.0
 10
289.9585501051905
 20
2252.934145215846
 30
0.0
  0
SPLINE
  5
711
330
1F
100
AcDbEntity
  8
Calque 1
 62
   250
420
  2236966
370
    50
100
AcDbSpline
210
0.0
220
0.0
230
1.0
 70
     8
 71
     3
 72
     8
 73
     4
 74
     0
 42
0.0000000001
 43
0.0000000001
 12
1.0
 22
0.0
 32
0.0
 13
1.0
 23
0.0
 33
0.0
 40
0.0
 40
0.0
 40
0.0
 40
0.0
 40
1.0
 40
1.0
 40
1.0
 40
1.0
 10
289.7585407804249
 20
2253.134133008765
 30
0.0
 10
289.7585407804249
 20
2253.081078538292
 30
0.0
 10
289.7796204584253
 20
2253.030263379885
 30
0.0
 10
289.817128935521
 20
2252.992711839096
 30
0.0
  0
SPLINE
  5
712
330
1F
100
AcDbEntity
  8
Calque 1
 62
   250
420
  2236966
370
    50
100
AcDbSpline
210
0.0
220
0.0
230
1.0
 70
     8
 71
     3
 72
     8
 73
     4
 74
     0
 42
0.0000000001
 43
0.0000000001
 12
1.0
 22
0.0
 32
0.0
 13
1.0
 23
0.0
 33
0.0
 40
0.0
 40
0.0
 40
0.0
 40
0.0
 40
1.0
 40
1.0
 40
1.0
 40
1.0
 10
349.6999724467547
 20
2277.375547390726
 30
0.0
 10
349.662463969659
 20
2277.413098931515
 30
0.0
 10
349.6115842157113
 20
2277.434114013975
 30
0.0
 10
349.5585512770852
 20
2277.434114013975
 30
0.0
  0
SPLINE
  5
713
330
1F
100
AcDbEntity
  8
Calque 1
 62
   250
420
  2236966
370
    50
100
AcDbSpline
210
0.0
220
0.0
230
1.0
 70
     8
 71
     3
 72
     8
 73
     4
 74
     0
 42
0.0000000001
 43
0.0000000001
 12
1.0
 22
0.0
 32
0.0
 13
1.0
 23
0.0
 33
0.0
 40
0.0
 40
0.0
 40
0.0
 40
0.0
 40
1.0
 40
1.0
 40
1.0
 40
1.0
 10
349.758539070004
 20
2277.234126221056
 30
0.0
 10
349.758539070004
 20
2277.287180691529
 30
0.0
 10
349.7374593920036
 20
2277.338168104711
 30
0.0
 10
349.6999724467547
 20
2277.375547390726
 30
0.0
  0
SPLINE
  5
714
330
1F
100
AcDbEntity
  8
Calque 1
 62
   250
420
  2236966
370
    50
100
AcDbSpline
210
0.0
220
0.0
230
1.0
 70
     8
 71
     3
 72
     8
 73
     4
 74
     0
 42
0.0000000001
 43
0.0000000001
 12
1.0
 22
0.0
 32
0.0
 13
1.0
 23
0.0
 33
0.0
 40
0.0
 40
0.0
 40
0.0
 40
0.0
 40
1.0
 40
1.0
 40
1.0
 40
1.0
 10
289.817128935521
 20
2277.375547390726
 30
0.0
 10
289.7796204584253
 20
2277.338168104711
 30
0.0
 10
289.7585407804249
 20
2277.287180691529
 30
0.0
 10
289.7585407804249
 20
2277.234126221056
 30
0.0
  0
SPLINE
  5
715
330
1F
100
AcDbEntity
  8
Calque 1
 62
   250
420
  2236966
370
    50
100
AcDbSpline
210
0.0
220
0.0
230
1.0
 70
     8
 71
     3
 72
     8
 73
     4
 74
     0
 42
0.0000000001
 43
0.0000000001
 12
1.0
 22
0.0
 32
0.0
 13
1.0
 23
0.0
 33
0.0
 40
0.0
 40
0.0
 40
0.0
 40
0.0
 40
1.0
 40
1.0
 40
1.0
 40
1.0
 10
289.9585501051905
 20
2277.434114013975
 30
0.0
 10
289.9054956347176
 20
2277.434114013975
 30
0.0
 10
289.8546374126166
 20
2277.413098931515
 30
0.0
 10
289.817128935521
 20
2277.375547390726
 30
0.0
  0
ENDSEC
  0
SECTION
  2
OBJECTS
  0
DICTIONARY
  5
C
330
0
100
AcDbDictionary
281
     1
  3
ACAD_GROUP
350
D
  3
ACAD_LAYOUT
350
1A
  3
ACAD_MATERIAL
350
3B
  3
ACAD_MLEADERSTYLE
350
717
  3
ACAD_MLINESTYLE
350
17
  3
ACAD_PLOTSETTINGS
350
19
  3
ACAD_PLOTSTYLENAME
350
E
  3
ACAD_TABLESTYLE
350
716
  3
ACAD_VISUALSTYLE
350
2A
  0
SUN
  5
3F
330
29
100
AcDbSun
 90
        1
290
     0
 63
     7
421
 16777215
 40
1.0
291
     1
 91
  2455826
 92
 54000000
292
     0
 70
     2
 71
   256
280
     1
  0
DICTIONARY
  5
D
102
{ACAD_REACTORS
330
C
102
}
330
C
100
AcDbDictionary
281
     1
  0
DICTIONARY
  5
1A
102
{ACAD_REACTORS
330
C
102
}
330
C
100
AcDbDictionary
281
     1
  3
Layout1
350
1E
  3
Layout2
350
26
  3
Model
350
22
  0
DICTIONARY
  5
3B
102
{ACAD_REACTORS
330
C
102
}
330
C
100
AcDbDictionary
281
     1
  3
ByBlock
350
3D
  3
ByLayer
350
3C
  3
Global
350
3E
  0
DICTIONARY
  5
717
102
{ACAD_REACTORS
330
C
102
}
330
C
100
AcDbDictionary
281
     1
  0
DICTIONARY
  5
17
102
{ACAD_REACTORS
330
C
102
}
330
C
100
AcDbDictionary
281
     1
  3
Standard
350
18
  0
DICTIONARY
  5
19
102
{ACAD_REACTORS
330
C
102
}
330
C
100
AcDbDictionary
281
     1
  0
ACDBDICTIONARYWDFLT
  5
E
102
{ACAD_REACTORS
330
C
102
}
330
C
100
AcDbDictionary
281
     1
  3
Normal
350
F
100
AcDbDictionaryWithDefault
340
F
  0
DICTIONARY
  5
716
102
{ACAD_REACTORS
330
C
102
}
330
C
100
AcDbDictionary
281
     1
  0
DICTIONARY
  5
2A
102
{ACAD_REACTORS
330
C
102
}
330
C
100
AcDbDictionary
281
     1
  3
2dWireframe
350
2F
  3
3D Hidden
350
31
  3
3dWireframe
350
30
  3
Basic
350
32
  3
Brighten
350
36
  3
ColorChange
350
3A
  3
Conceptual
350
34
  3
Dim
350
35
  3
Facepattern
350
39
  3
Flat
350
2B
  3
FlatWithEdges
350
2C
  3
Gouraud
350
2D
  3
GouraudWithEdges
350
2E
  3
Linepattern
350
38
  3
Realistic
350
33
  3
Thicken
350
37
  0
LAYOUT
  5
1E
102
{ACAD_REACTORS
330
1A
102
}
330
1A
100
AcDbPlotSettings
  1

  2
none_device
  4

  6

 40
0.0
 41
0.0
 42
0.0
 43
0.0
 44
0.0
 45
0.0
 46
0.0
 47
0.0
 48
0.0
 49
0.0
140
0.0
141
0.0
142
1.0
143
1.0
 70
   688
 72
     0
 73
     0
 74
     5
  7

 75
    16
 76
     0
 77
     2
 78
   300
147
1.0
148
0.0
149
0.0
100
AcDbLayout
  1
Layout1
 70
     1
 71
     1
 10
0.0
 20
0.0
 11
12.0
 21
9.0
 12
0.0
 22
0.0
 32
0.0
 14
1.000000000000000E+20
 24
1.000000000000000E+20
 34
1.000000000000000E+20
 15
-1.000000000000000E+20
 25
-1.000000000000000E+20
 35
-1.000000000000000E+20
146
0.0
 13
0.0
 23
0.0
 33
0.0
 16
1.0
 26
0.0
 36
0.0
 17
0.0
 27
1.0
 37
0.0
 76
     0
330
1B
  0
LAYOUT
  5
26
102
{ACAD_REACTORS
330
1A
102
}
330
1A
100
AcDbPlotSettings
  1

  2
none_device
  4

  6

 40
0.0
 41
0.0
 42
0.0
 43
0.0
 44
0.0
 45
0.0
 46
0.0
 47
0.0
 48
0.0
 49
0.0
140
0.0
141
0.0
142
1.0
143
1.0
 70
   688
 72
     0
 73
     0
 74
     5
  7

 75
    16
 76
     0
 77
     2
 78
   300
147
1.0
148
0.0
149
0.0
100
AcDbLayout
  1
Layout2
 70
     1
 71
     2
 10
0.0
 20
0.0
 11
0.0
 21
0.0
 12
0.0
 22
0.0
 32
0.0
 14
0.0
 24
0.0
 34
0.0
 15
0.0
 25
0.0
 35
0.0
146
0.0
 13
0.0
 23
0.0
 33
0.0
 16
1.0
 26
0.0
 36
0.0
 17
0.0
 27
1.0
 37
0.0
 76
     0
330
23
  0
LAYOUT
  5
22
102
{ACAD_REACTORS
330
1A
102
}
330
1A
100
AcDbPlotSettings
  1

  2
none_device
  4

  6

 40
0.0
 41
0.0
 42
0.0
 43
0.0
 44
0.0
 45
0.0
 46
0.0
 47
0.0
 48
0.0
 49
0.0
140
0.0
141
0.0
142
1.0
143
1.0
 70
  1712
 72
     0
 73
     0
 74
     0
  7

 75
     0
 76
     0
 77
     2
 78
   300
147
1.0
148
0.0
149
0.0
100
AcDbLayout
  1
Model
 70
     1
 71
     0
 10
0.0
 20
0.0
 11
12.0
 21
9.0
 12
0.0
 22
0.0
 32
0.0
 14
1.000000000000000E+20
 24
1.000000000000000E+20
 34
1.000000000000000E+20
 15
-1.000000000000000E+20
 25
-1.000000000000000E+20
 35
-1.000000000000000E+20
146
0.0
 13
0.0
 23
0.0
 33
0.0
 16
1.0
 26
0.0
 36
0.0
 17
0.0
 27
1.0
 37
0.0
 76
     0
330
1F
331
29
  0
MATERIAL
  5
3D
102
{ACAD_REACTORS
330
3B
102
}
330
3B
100
AcDbMaterial
  1
ByBlock
 72
     1
 94
      127
  0
MATERIAL
  5
3C
102
{ACAD_REACTORS
330
3B
102
}
330
3B
100
AcDbMaterial
  1
ByLayer
 72
     1
 94
      127
  0
MATERIAL
  5
3E
102
{ACAD_REACTORS
330
3B
102
}
330
3B
100
AcDbMaterial
  1
Global
 72
     1
 94
      127
  0
MLINESTYLE
  5
18
102
{ACAD_REACTORS
330
17
102
}
330
17
100
AcDbMlineStyle
  2
Standard
 70
     0
  3

 62
   256
 51
90.0
 52
90.0
 71
     2
 49
0.5
 62
   256
  6
BYLAYER
 49
-0.5
 62
   256
  6
BYLAYER
  0
ACDBPLACEHOLDER
  5
F
102
{ACAD_REACTORS
330
E
102
}
330
E
  0
VISUALSTYLE
  5
2F
102
{ACAD_REACTORS
330
2A
102
}
330
2A
100
AcDbVisualStyle
  2
2dWireframe
 70
     4
177
     2
291
     0
 71
     0
176
     1
 72
     2
176
     1
 73
     0
176
     1
 90
        0
176
     1
 40
-0.6
176
     1
 41
-30.0
176
     1
 62
     5
 63
     7
421
 16777215
176
     1
 74
     1
176
     1
 91
        4
176
     1
 64
     7
176
     1
 65
   257
176
     1
 75
     1
176
     1
175
     1
176
     1
 42
1.0
176
     1
 92
        0
176
     1
 66
   257
176
     1
 43
1.0
176
     1
 76
     1
176
     1
 77
     6
176
     1
 78
     2
176
     1
 67
     7
176
     1
 79
     5
176
     1
170
     0
176
     1
171
     0
176
     1
290
     0
176
     1
 93
        1
176
     1
 44
0.0
176
     1
173
     0
176
     1
  0
VISUALSTYLE
  5
31
102
{ACAD_REACTORS
330
2A
102
}
330
2A
100
AcDbVisualStyle
  2
3D Hidden
 70
     6
177
     2
291
     0
 71
     1
176
     1
 72
     2
176
     1
 73
     2
176
     1
 90
        0
176
     1
 40
-0.6
176
     1
 41
-30.0
176
     1
 62
     5
 63
     7
421
 16777215
176
     1
 74
     2
176
     1
 91
        2
176
     1
 64
     7
176
     1
 65
   257
176
     1
 75
     2
176
     1
175
     1
176
     1
 42
40.0
176
     1
 92
        0
176
     1
 66
   257
176
     1
 43
1.0
176
     1
 76
     1
176
     1
 77
     6
176
     1
 78
     2
176
     1
 67
     7
176
     1
 79
     3
176
     1
170
     0
176
     1
171
     0
176
     1
290
     0
176
     1
 93
        1
176
     1
 44
0.0
176
     1
173
     0
176
     1
  0
VISUALSTYLE
  5
30
102
{ACAD_REACTORS
330
2A
102
}
330
2A
100
AcDbVisualStyle
  2
3dWireframe
 70
     5
177
     2
291
     0
 71
     0
176
     1
 72
     2
176
     1
 73
     0
176
     1
 90
        0
176
     1
 40
-0.6
176
     1
 41
-30.0
176
     1
 62
     5
 63
     7
421
 16777215
176
     1
 74
     1
176
     1
 91
        4
176
     1
 64
     7
176
     1
 65
   257
176
     1
 75
     1
176
     1
175
     1
176
     1
 42
1.0
176
     1
 92
        0
176
     1
 66
   257
176
     1
 43
1.0
176
     1
 76
     1
176
     1
 77
     6
176
     1
 78
     2
176
     1
 67
     7
176
     1
 79
     5
176
     1
170
     0
176
     1
171
     0
176
     1
290
     0
176
     1
 93
        1
176
     1
 44
0.0
176
     1
173
     0
176
     1
  0
VISUALSTYLE
  5
32
102
{ACAD_REACTORS
330
2A
102
}
330
2A
100
AcDbVisualStyle
  2
Basic
 70
     7
177
     2
291
     1
 71
     1
176
     1
 72
     0
176
     1
 73
     1
176
     1
 90
        0
176
     1
 40
-0.6
176
     1
 41
-30.0
176
     1
 62
     5
 63
     7
421
 16777215
176
     1
 74
     0
176
     1
 91
        4
176
     1
 64
     7
176
     1
 65
   257
176
     1
 75
     1
176
     1
175
     1
176
     1
 42
1.0
176
     1
 92
        8
176
     1
 66
     7
176
     1
 43
1.0
176
     1
 76
     1
176
     1
 77
     6
176
     1
 78
     2
176
     1
 67
     7
176
     1
 79
     5
176
     1
170
     0
176
     1
171
     0
176
     1
290
     0
176
     1
 93
        1
176
     1
 44
0.0
176
     1
173
     0
176
     1
  0
VISUALSTYLE
  5
36
102
{ACAD_REACTORS
330
2A
102
}
330
2A
100
AcDbVisualStyle
  2
Brighten
 70
    12
177
     2
291
     1
 71
     2
176
     1
 72
     2
176
     1
 73
     0
176
     1
 90
        0
176
     1
 40
-0.6
176
     1
 41
-30.0
176
     1
 62
     5
 63
     7
421
 16777215
176
     1
 74
     1
176
     1
 91
        4
176
     1
 64
     7
176
     1
 65
   257
176
     1
 75
     1
176
     1
175
     1
176
     1
 42
1.0
176
     1
 92
        8
176
     1
 66
     7
176
     1
 43
1.0
176
     1
 76
     1
176
     1
 77
     6
176
     1
 78
     2
176
     1
 67
     7
176
     1
 79
     5
176
     1
170
     0
176
     1
171
     0
176
     1
290
     0
176
     1
 93
        1
176
     1
 44
50.0
176
     1
173
     0
176
     1
  0
VISUALSTYLE
  5
3A
102
{ACAD_REACTORS
330
2A
102
}
330
2A
100
AcDbVisualStyle
  2
ColorChange
 70
    16
177
     2
291
     1
 71
     2
176
     1
 72
     2
176
     1
 73
     3
176
     1
 90
        0
176
     1
 40
-0.6
176
     1
 41
-30.0
176
     1
 62
     5
 63
     8
421
  8421504
176
     1
 74
     1
176
     1
 91
        4
176
     1
 64
     7
176
     1
 65
   257
176
     1
 75
     1
176
     1
175
     1
176
     1
 42
1.0
176
     1
 92
        8
176
     1
 66
     8
424
  8421504
176
     1
 43
1.0
176
     1
 76
     1
176
     1
 77
     6
176
     1
 78
     2
176
     1
 67
     7
176
     1
 79
     5
176
     1
170
     0
176
     1
171
     0
176
     1
290
     0
176
     1
 93
        1
176
     1
 44
0.0
176
     1
173
     0
176
     1
  0
VISUALSTYLE
  5
34
102
{ACAD_REACTORS
330
2A
102
}
330
2A
100
AcDbVisualStyle
  2
Conceptual
 70
     9
177
     2
291
     0
 71
     3
176
     1
 72
     2
176
     1
 73
     0
176
     1
 90
        0
176
     1
 40
-0.6
176
     1
 41
-30.0
176
     1
 62
     5
 63
     7
421
 16777215
176
     1
 74
     2
176
     1
 91
        2
176
     1
 64
     7
176
     1
 65
   257
176
     1
 75
     1
176
     1
175
     1
176
     1
 42
40.0
176
     1
 92
        8
176
     1
 66
     7
176
     1
 43
1.0
176
     1
 76
     1
176
     1
 77
     6
176
     1
 78
     2
176
     1
 67
     7
176
     1
 79
     3
176
     1
170
     0
176
     1
171
     0
176
     1
290
     0
176
     1
 93
        1
176
     1
 44
0.0
176
     1
173
     0
176
     1
  0
VISUALSTYLE
  5
35
102
{ACAD_REACTORS
330
2A
102
}
330
2A
100
AcDbVisualStyle
  2
Dim
 70
    11
177
     2
291
     1
 71
     2
176
     1
 72
     2
176
     1
 73
     0
176
     1
 90
        0
176
     1
 40
-0.6
176
     1
 41
-30.0
176
     1
 62
     5
 63
     7
421
 16777215
176
     1
 74
     1
176
     1
 91
        4
176
     1
 64
     7
176
     1
 65
   257
176
     1
 75
     1
176
     1
175
     1
176
     1
 42
1.0
176
     1
 92
        8
176
     1
 66
     7
176
     1
 43
1.0
176
     1
 76
     1
176
     1
 77
     6
176
     1
 78
     2
176
     1
 67
     7
176
     1
 79
     5
176
     1
170
     0
176
     1
171
     0
176
     1
290
     0
176
     1
 93
        1
176
     1
 44
-50.0
176
     1
173
     0
176
     1
  0
VISUALSTYLE
  5
39
102
{ACAD_REACTORS
330
2A
102
}
330
2A
100
AcDbVisualStyle
  2
Facepattern
 70
    15
177
     2
291
     1
 71
     2
176
     1
 72
     2
176
     1
 73
     0
176
     1
 90
        0
176
     1
 40
-0.6
176
     1
 41
-30.0
176
     1
 62
     5
 63
     7
421
 16777215
176
     1
 74
     1
176
     1
 91
        4
176
     1
 64
     7
176
     1
 65
   257
176
     1
 75
     1
176
     1
175
     1
176
     1
 42
1.0
176
     1
 92
        8
176
     1
 66
     7
176
     1
 43
1.0
176
     1
 76
     1
176
     1
 77
     6
176
     1
 78
     2
176
     1
 67
     7
176
     1
 79
     5
176
     1
170
     0
176
     1
171
     0
176
     1
290
     0
176
     1
 93
        1
176
     1
 44
0.0
176
     1
173
     0
176
     1
  0
VISUALSTYLE
  5
2B
102
{ACAD_REACTORS
330
2A
102
}
330
2A
100
AcDbVisualStyle
  2
Flat
 70
     0
177
     2
291
     1
 71
     2
176
     1
 72
     1
176
     1
 73
     1
176
     1
 90
        2
176
     1
 40
-0.6
176
     1
 41
30.0
176
     1
 62
     5
 63
     7
421
 16777215
176
     1
 74
     0
176
     1
 91
        4
176
     1
 64
     7
176
     1
 65
   257
176
     1
 75
     1
176
     1
175
     1
176
     1
 42
1.0
176
     1
 92
        8
176
     1
 66
     7
176
     1
 43
1.0
176
     1
 76
     1
176
     1
 77
     6
176
     1
 78
     2
176
     1
 67
     7
176
     1
 79
     5
176
     1
170
     0
176
     1
171
     0
176
     1
290
     0
176
     1
 93
       13
176
     1
 44
0.0
176
     1
173
     0
176
     1
  0
VISUALSTYLE
  5
2C
102
{ACAD_REACTORS
330
2A
102
}
330
2A
100
AcDbVisualStyle
  2
FlatWithEdges
 70
     1
177
     2
291
     1
 71
     2
176
     1
 72
     1
176
     1
 73
     1
176
     1
 90
        2
176
     1
 40
-0.6
176
     1
 41
30.0
176
     1
 62
     5
 63
     7
421
 16777215
176
     1
 74
     1
176
     1
 91
        4
176
     1
 64
     7
176
     1
 65
   257
176
     1
 75
     1
176
     1
175
     1
176
     1
 42
1.0
176
     1
 92
        0
176
     1
 66
   257
176
     1
 43
1.0
176
     1
 76
     1
176
     1
 77
     6
176
     1
 78
     2
176
     1
 67
     7
176
     1
 79
     5
176
     1
170
     0
176
     1
171
     0
176
     1
290
     0
176
     1
 93
       13
176
     1
 44
0.0
176
     1
173
     0
176
     1
  0
VISUALSTYLE
  5
2D
102
{ACAD_REACTORS
330
2A
102
}
330
2A
100
AcDbVisualStyle
  2
Gouraud
 70
     2
177
     2
291
     1
 71
     2
176
     1
 72
     2
176
     1
 73
     1
176
     1
 90
        2
176
     1
 40
-0.6
176
     1
 41
30.0
176
     1
 62
     5
 63
     7
421
 16777215
176
     1
 74
     0
176
     1
 91
        4
176
     1
 64
     7
176
     1
 65
   257
176
     1
 75
     1
176
     1
175
     1
176
     1
 42
1.0
176
     1
 92
        0
176
     1
 66
     7
176
     1
 43
1.0
176
     1
 76
     1
176
     1
 77
     6
176
     1
 78
     2
176
     1
 67
     7
176
     1
 79
     5
176
     1
170
     0
176
     1
171
     0
176
     1
290
     0
176
     1
 93
       13
176
     1
 44
0.0
176
     1
173
     0
176
     1
  0
VISUALSTYLE
  5
2E
102
{ACAD_REACTORS
330
2A
102
}
330
2A
100
AcDbVisualStyle
  2
GouraudWithEdges
 70
     3
177
     2
291
     1
 71
     2
176
     1
 72
     2
176
     1
 73
     1
176
     1
 90
        2
176
     1
 40
-0.6
176
     1
 41
30.0
176
     1
 62
     5
 63
     7
421
 16777215
176
     1
 74
     1
176
     1
 91
        4
176
     1
 64
     7
176
     1
 65
   257
176
     1
 75
     1
176
     1
175
     1
176
     1
 42
1.0
176
     1
 92
        0
176
     1
 66
   257
176
     1
 43
1.0
176
     1
 76
     1
176
     1
 77
     6
176
     1
 78
     2
176
     1
 67
     7
176
     1
 79
     5
176
     1
170
     0
176
     1
171
     0
176
     1
290
     0
176
     1
 93
       13
176
     1
 44
0.0
176
     1
173
     0
176
     1
  0
VISUALSTYLE
  5
38
102
{ACAD_REACTORS
330
2A
102
}
330
2A
100
AcDbVisualStyle
  2
Linepattern
 70
    14
177
     2
291
     1
 71
     2
176
     1
 72
     2
176
     1
 73
     0
176
     1
 90
        0
176
     1
 40
-0.6
176
     1
 41
-30.0
176
     1
 62
     5
 63
     7
421
 16777215
176
     1
 74
     1
176
     1
 91
        4
176
     1
 64
     7
176
     1
 65
   257
176
     1
 75
     7
176
     1
175
     7
176
     1
 42
1.0
176
     1
 92
        8
176
     1
 66
     7
176
     1
 43
1.0
176
     1
 76
     1
176
     1
 77
     6
176
     1
 78
     2
176
     1
 67
     7
176
     1
 79
     5
176
     1
170
     0
176
     1
171
     0
176
     1
290
     0
176
     1
 93
        1
176
     1
 44
0.0
176
     1
173
     0
176
     1
  0
VISUALSTYLE
  5
33
102
{ACAD_REACTORS
330
2A
102
}
330
2A
100
AcDbVisualStyle
  2
Realistic
 70
     8
177
     2
291
     0
 71
     2
176
     1
 72
     2
176
     1
 73
     0
176
     1
 90
        0
176
     1
 40
-0.6
176
     1
 41
-30.0
176
     1
 62
     5
 63
     7
421
 16777215
176
     1
 74
     1
176
     1
 91
        0
176
     1
 64
     7
176
     1
 65
   257
176
     1
 75
     1
176
     1
175
     1
176
     1
 42
1.0
176
     1
 92
        8
176
     1
 66
     8
424
  7895160
176
     1
 43
1.0
176
     1
 76
     1
176
     1
 77
     6
176
     1
 78
     2
176
     1
 67
     7
176
     1
 79
     5
176
     1
170
     0
176
     1
171
     0
176
     1
290
     0
176
     1
 93
       13
176
     1
 44
0.0
176
     1
173
     0
176
     1
  0
VISUALSTYLE
  5
37
102
{ACAD_REACTORS
330
2A
102
}
330
2A
100
AcDbVisualStyle
  2
Thicken
 70
    13
177
     2
291
     1
 71
     2
176
     1
 72
     2
176
     1
 73
     0
176
     1
 90
        0
176
     1
 40
-0.6
176
     1
 41
-30.0
176
     1
 62
     5
 63
     7
421
 16777215
176
     1
 74
     1
176
     1
 91
        4
176
     1
 64
     7
176
     1
 65
   257
176
     1
 75
     1
176
     1
175
     1
176
     1
 42
1.0
176
     1
 92
       12
176
     1
 66
     7
176
     1
 43
1.0
176
     1
 76
     1
176
     1
 77
     6
176
     1
 78
     2
176
     1
 67
     7
176
     1
 79
     5
176
     1
170
     0
176
     1
171
     0
176
     1
290
     0
176
     1
 93
        1
176
     1
 44
0.0
176
     1
173
     0
176
     1
  0
ENDSEC
  0
EOF
