  0
SECTION
  2
HEADER
  9
$ACADVER
  1
AC1024
  9
$ACADMAINTVER
 70
     6
  9
$DWGCODEPAGE
  3
ANSI_1252
  9
$INSBASE
 10
0.0
 20
0.0
 30
0.0
  9
$EXTMIN
 10
1.000000000000000E+20
 20
1.000000000000000E+20
 30
1.000000000000000E+20
  9
$EXTMAX
 10
-1.000000000000000E+20
 20
-1.000000000000000E+20
 30
-1.000000000000000E+20
  9
$LIMMIN
 10
0.0
 20
0.0
  9
$LIMMAX
 10
12.0
 20
9.0
  9
$ORTHOMODE
 70
     0
  9
$REGENMODE
 70
     1
  9
$FILLMODE
 70
     1
  9
$QTEXTMODE
 70
     0
  9
$MIRRTEXT
 70
     1
  9
$LTSCALE
 40
1.0
  9
$ATTMODE
 70
     1
  9
$TEXTSIZE
 40
0.2
  9
$TRACEWID
 40
0.05
  9
$TEXTSTYLE
  7
Standard
  9
$CLAYER
  8
0
  9
$CELTYPE
  6
ByLayer
  9
$CECOLOR
 62
   256
  9
$CELTSCALE
 40
1.0
  9
$DISPSILH
 70
     0
  9
$DIMSCALE
 40
1.0
  9
$DIMASZ
 40
0.18
  9
$DIMEXO
 40
0.0625
  9
$DIMDLI
 40
0.38
  9
$DIMRND
 40
0.0
  9
$DIMDLE
 40
0.0
  9
$DIMEXE
 40
0.18
  9
$DIMTP
 40
0.0
  9
$DIMTM
 40
0.0
  9
$DIMTXT
 40
0.18
  9
$DIMCEN
 40
0.09
  9
$DIMTSZ
 40
0.0
  9
$DIMTOL
 70
     0
  9
$DIMLIM
 70
     0
  9
$DIMTIH
 70
     1
  9
$DIMTOH
 70
     1
  9
$DIMSE1
 70
     0
  9
$DIMSE2
 70
     0
  9
$DIMTAD
 70
     0
  9
$DIMZIN
 70
     0
  9
$DIMBLK
  1

  9
$DIMASO
 70
     1
  9
$DIMSHO
 70
     1
  9
$DIMPOST
  1

  9
$DIMAPOST
  1

  9
$DIMALT
 70
     0
  9
$DIMALTD
 70
     2
  9
$DIMALTF
 40
25.4
  9
$DIMLFAC
 40
1.0
  9
$DIMTOFL
 70
     0
  9
$DIMTVP
 40
0.0
  9
$DIMTIX
 70
     0
  9
$DIMSOXD
 70
     0
  9
$DIMSAH
 70
     0
  9
$DIMBLK1
  1

  9
$DIMBLK2
  1

  9
$DIMSTYLE
  2
Standard
  9
$DIMCLRD
 70
     0
  9
$DIMCLRE
 70
     0
  9
$DIMCLRT
 70
     0
  9
$DIMTFAC
 40
1.0
  9
$DIMGAP
 40
0.09
  9
$DIMJUST
 70
     0
  9
$DIMSD1
 70
     0
  9
$DIMSD2
 70
     0
  9
$DIMTOLJ
 70
     1
  9
$DIMTZIN
 70
     0
  9
$DIMALTZ
 70
     0
  9
$DIMALTTZ
 70
     0
  9
$DIMUPT
 70
     0
  9
$DIMDEC
 70
     4
  9
$DIMTDEC
 70
     4
  9
$DIMALTU
 70
     2
  9
$DIMALTTD
 70
     2
  9
$DIMTXSTY
  7
Standard
  9
$DIMAUNIT
 70
     0
  9
$DIMADEC
 70
     0
  9
$DIMALTRND
 40
0.0
  9
$DIMAZIN
 70
     0
  9
$DIMDSEP
 70
    46
  9
$DIMATFIT
 70
     3
  9
$DIMFRAC
 70
     0
  9
$DIMLDRBLK
  1

  9
$DIMLUNIT
 70
     2
  9
$DIMLWD
 70
    -2
  9
$DIMLWE
 70
    -2
  9
$DIMTMOVE
 70
     0
  9
$DIMFXL
 40
1.0
  9
$DIMFXLON
 70
     0
  9
$DIMJOGANG
 40
0.7853981633974483
  9
$DIMTFILL
 70
     0
  9
$DIMTFILLCLR
 70
     0
  9
$DIMARCSYM
 70
     0
  9
$DIMLTYPE
  6

  9
$DIMLTEX1
  6

  9
$DIMLTEX2
  6

  9
$DIMTXTDIRECTION
 70
     0
  9
$LUNITS
 70
     2
  9
$LUPREC
 70
     4
  9
$SKETCHINC
 40
0.1
  9
$FILLETRAD
 40
0.5
  9
$AUNITS
 70
     0
  9
$AUPREC
 70
     0
  9
$MENU
  1
.
  9
$ELEVATION
 40
0.0
  9
$PELEVATION
 40
0.0
  9
$THICKNESS
 40
0.0
  9
$LIMCHECK
 70
     0
  9
$CHAMFERA
 40
0.5
  9
$CHAMFERB
 40
0.5
  9
$CHAMFERC
 40
1.0
  9
$CHAMFERD
 40
0.0
  9
$SKPOLY
 70
     0
  9
$TDCREATE
 40
2458554.424000208
  9
$TDUCREATE
 40
2458554.382333542
  9
$TDUPDATE
 40
2458554.424000845
  9
$TDUUPDATE
 40
2458554.382334178
  9
$TDINDWG
 40
0.0000000116
  9
$TDUSRTIMER
 40
0.0000000116
  9
$USRTIMER
 70
     1
  9
$ANGBASE
 50
0.0
  9
$ANGDIR
 70
     0
  9
$PDMODE
 70
     0
  9
$PDSIZE
 40
0.0
  9
$PLINEWID
 40
0.0
  9
$SPLFRAME
 70
     0
  9
$SPLINETYPE
 70
     6
  9
$SPLINESEGS
 70
     8
  9
$HANDSEED
  5
2F0
  9
$SURFTAB1
 70
     6
  9
$SURFTAB2
 70
     6
  9
$SURFTYPE
 70
     6
  9
$SURFU
 70
     6
  9
$SURFV
 70
     6
  9
$UCSBASE
  2

  9
$UCSNAME
  2

  9
$UCSORG
 10
0.0
 20
0.0
 30
0.0
  9
$UCSXDIR
 10
1.0
 20
0.0
 30
0.0
  9
$UCSYDIR
 10
0.0
 20
1.0
 30
0.0
  9
$UCSORTHOREF
  2

  9
$UCSORTHOVIEW
 70
     0
  9
$UCSORGTOP
 10
0.0
 20
0.0
 30
0.0
  9
$UCSORGBOTTOM
 10
0.0
 20
0.0
 30
0.0
  9
$UCSORGLEFT
 10
0.0
 20
0.0
 30
0.0
  9
$UCSORGRIGHT
 10
0.0
 20
0.0
 30
0.0
  9
$UCSORGFRONT
 10
0.0
 20
0.0
 30
0.0
  9
$UCSORGBACK
 10
0.0
 20
0.0
 30
0.0
  9
$PUCSBASE
  2

  9
$PUCSNAME
  2

  9
$PUCSORG
 10
0.0
 20
0.0
 30
0.0
  9
$PUCSXDIR
 10
1.0
 20
0.0
 30
0.0
  9
$PUCSYDIR
 10
0.0
 20
1.0
 30
0.0
  9
$PUCSORTHOREF
  2

  9
$PUCSORTHOVIEW
 70
     0
  9
$PUCSORGTOP
 10
0.0
 20
0.0
 30
0.0
  9
$PUCSORGBOTTOM
 10
0.0
 20
0.0
 30
0.0
  9
$PUCSORGLEFT
 10
0.0
 20
0.0
 30
0.0
  9
$PUCSORGRIGHT
 10
0.0
 20
0.0
 30
0.0
  9
$PUCSORGFRONT
 10
0.0
 20
0.0
 30
0.0
  9
$PUCSORGBACK
 10
0.0
 20
0.0
 30
0.0
  9
$USERI1
 70
     0
  9
$USERI2
 70
     0
  9
$USERI3
 70
     0
  9
$USERI4
 70
     0
  9
$USERI5
 70
     0
  9
$USERR1
 40
0.0
  9
$USERR2
 40
0.0
  9
$USERR3
 40
0.0
  9
$USERR4
 40
0.0
  9
$USERR5
 40
0.0
  9
$WORLDVIEW
 70
     1
  9
$SHADEDGE
 70
     3
  9
$SHADEDIF
 70
    70
  9
$TILEMODE
 70
     1
  9
$MAXACTVP
 70
    64
  9
$PINSBASE
 10
0.0
 20
0.0
 30
0.0
  9
$PLIMCHECK
 70
     0
  9
$PEXTMIN
 10
1.000000000000000E+20
 20
1.000000000000000E+20
 30
1.000000000000000E+20
  9
$PEXTMAX
 10
-1.000000000000000E+20
 20
-1.000000000000000E+20
 30
-1.000000000000000E+20
  9
$PLIMMIN
 10
0.0
 20
0.0
  9
$PLIMMAX
 10
12.0
 20
9.0
  9
$UNITMODE
 70
     0
  9
$VISRETAIN
 70
     1
  9
$PLINEGEN
 70
     0
  9
$PSLTSCALE
 70
     1
  9
$TREEDEPTH
 70
  3020
  9
$CMLSTYLE
  2
Standard
  9
$CMLJUST
 70
     0
  9
$CMLSCALE
 40
1.0
  9
$PROXYGRAPHICS
 70
     1
  9
$MEASUREMENT
 70
     0
  9
$CELWEIGHT
370
    -1
  9
$ENDCAPS
280
     0
  9
$JOINSTYLE
280
     0
  9
$LWDISPLAY
290
     1
  9
$INSUNITS
 70
     1
  9
$HYPERLINKBASE
  1

  9
$STYLESHEET
  1

  9
$XEDIT
290
     1
  9
$CEPSNTYPE
380
     0
  9
$PSTYLEMODE
290
     1
  9
$FINGERPRINTGUID
  2
{4A05DF47-6942-46FE-A06C-FC1519340194}
  9
$VERSIONGUID
  2
{FAEB1C32-E019-11D5-929B-00C0DF256EC4}
  9
$EXTNAMES
290
     1
  9
$PSVPSCALE
 40
0.0
  9
$OLESTARTUP
290
     0
  9
$SORTENTS
280
   127
  9
$INDEXCTL
280
     0
  9
$HIDETEXT
280
     1
  9
$XCLIPFRAME
280
     2
  9
$HALOGAP
280
     0
  9
$OBSCOLOR
 70
   257
  9
$OBSLTYPE
280
     0
  9
$INTERSECTIONDISPLAY
280
     0
  9
$INTERSECTIONCOLOR
 70
   257
  9
$DIMASSOC
280
     2
  9
$PROJECTNAME
  1

  9
$CAMERADISPLAY
290
     0
  9
$LENSLENGTH
 40
50.0
  9
$CAMERAHEIGHT
 40
0.0
  9
$STEPSPERSEC
 40
2.0
  9
$STEPSIZE
 40
6.0
  9
$3DDWFPREC
 40
2.0
  9
$PSOLWIDTH
 40
0.25
  9
$PSOLHEIGHT
 40
4.0
  9
$LOFTANG1
 40
1.570796326794897
  9
$LOFTANG2
 40
1.570796326794897
  9
$LOFTMAG1
 40
0.0
  9
$LOFTMAG2
 40
0.0
  9
$LOFTPARAM
 70
     7
  9
$LOFTNORMALS
280
     1
  9
$LATITUDE
 40
37.795
  9
$LONGITUDE
 40
-122.394
  9
$NORTHDIRECTION
 40
0.0
  9
$TIMEZONE
 70
 -8000
  9
$LIGHTGLYPHDISPLAY
280
     1
  9
$TILEMODELIGHTSYNCH
280
     1
  9
$CMATERIAL
347
3C
  9
$SOLIDHIST
280
     1
  9
$SHOWHIST
280
     1
  9
$DWFFRAME
280
     2
  9
$DGNFRAME
280
     2
  9
$REALWORLDSCALE
290
     1
  9
$INTERFERECOLOR
 62
   256
  9
$CSHADOW
280
     0
  9
$SHADOWPLANELOCATION
 40
0.0
  0
ENDSEC
  0
SECTION
  2
CLASSES
  0
CLASS
  1
ACDBDICTIONARYWDFLT
  2
AcDbDictionaryWithDefault
  3
ObjectDBX Classes
 90
        0
 91
        4
280
     0
281
     0
  0
CLASS
  1
VISUALSTYLE
  2
AcDbVisualStyle
  3
ObjectDBX Classes
 90
     4095
 91
        4
280
     0
281
     0
  0
CLASS
  1
MATERIAL
  2
AcDbMaterial
  3
ObjectDBX Classes
 90
     1153
 91
        4
280
     0
281
     0
  0
CLASS
  1
SUN
  2
AcDbSun
  3
SCENEOE
 90
     1024
 91
        4
280
     0
281
     0
  0
ENDSEC
  0
SECTION
  2
TABLES
  0
TABLE
  2
VPORT
  5
8
330
0
100
AcDbSymbolTable
 70
     1
  0
VPORT
  5
29
330
8
100
AcDbSymbolTableRecord
100
AcDbViewportTableRecord
  2
*Active
 70
     0
 10
0.0
 20
0.0
 11
1.0
 21
1.0
 12
0.0
 22
0.0
 13
0.0
 23
0.0
 14
0.5
 24
0.5
 15
0.5
 25
0.5
 16
0.0
 26
0.0
 36
1.0
 17
750.0003015974391
 27
215.899999946025
 37
0.0
 40
431.79999989205
 41
3.473831874872344
 42
50.0
 43
0.0
 44
0.0
 50
0.0
 51
0.0
 71
     0
 72
   100
 73
     1
 74
     3
 75
     0
 76
     0
 77
     0
 78
     0
281
     0
 65
     1
110
0.0
120
0.0
130
0.0
111
1.0
121
0.0
131
0.0
112
0.0
122
1.0
132
0.0
 79
     0
146
0.0
 60
     3
 61
     5
292
     1
282
     1
141
0.0
142
0.0
 63
   250
361
3F
  0
ENDTAB
  0
TABLE
  2
LTYPE
  5
5
330
0
100
AcDbSymbolTable
 70
     1
  0
LTYPE
  5
14
330
5
100
AcDbSymbolTableRecord
100
AcDbLinetypeTableRecord
  2
ByBlock
 70
     0
  3

 72
    65
 73
     0
 40
0.0
  0
LTYPE
  5
15
330
5
100
AcDbSymbolTableRecord
100
AcDbLinetypeTableRecord
  2
ByLayer
 70
     0
  3

 72
    65
 73
     0
 40
0.0
  0
LTYPE
  5
16
330
5
100
AcDbSymbolTableRecord
100
AcDbLinetypeTableRecord
  2
Continuous
 70
     0
  3
Solid line
 72
    65
 73
     0
 40
0.0
  0
ENDTAB
  0
TABLE
  2
LAYER
  5
2
330
0
100
AcDbSymbolTable
 70
     2
  0
LAYER
  5
10
330
2
100
AcDbSymbolTableRecord
100
AcDbLayerTableRecord
  2
0
 70
     0
 62
     7
  6
Continuous
370
    -3
390
F
347
3E
  0
LAYER
  5
40
330
2
100
AcDbSymbolTableRecord
100
AcDbLayerTableRecord
  2
Calque 1
 70
     0
 62
     7
  6
Continuous
370
    -3
390
F
347
3E
  0
ENDTAB
  0
TABLE
  2
STYLE
  5
3
330
0
100
AcDbSymbolTable
 70
     1
  0
STYLE
  5
11
330
3
100
AcDbSymbolTableRecord
100
AcDbTextStyleTableRecord
  2
Standard
 70
     0
 40
0.0
 41
1.0
 50
0.0
 71
     0
 42
0.2
  3
txt
  4

  0
ENDTAB
  0
TABLE
  2
VIEW
  5
6
330
0
100
AcDbSymbolTable
 70
     0
  0
ENDTAB
  0
TABLE
  2
UCS
  5
7
330
0
100
AcDbSymbolTable
 70
     0
  0
ENDTAB
  0
TABLE
  2
APPID
  5
9
330
0
100
AcDbSymbolTable
 70
     1
  0
APPID
  5
12
330
9
100
AcDbSymbolTableRecord
100
AcDbRegAppTableRecord
  2
ACAD
 70
     0
  0
ENDTAB
  0
TABLE
  2
DIMSTYLE
  5
A
330
0
100
AcDbSymbolTable
 70
     1
100
AcDbDimStyleTable
  0
DIMSTYLE
105
27
330
A
100
AcDbSymbolTableRecord
100
AcDbDimStyleTableRecord
  2
Standard
 70
     0
178
     0
340
11
  0
ENDTAB
  0
TABLE
  2
BLOCK_RECORD
  5
1
330
0
100
AcDbSymbolTable
 70
     1
  0
BLOCK_RECORD
  5
1F
330
1
100
AcDbSymbolTableRecord
100
AcDbBlockTableRecord
  2
*Model_Space
340
22
 70
     0
280
     1
281
     0
  0
BLOCK_RECORD
  5
1B
330
1
100
AcDbSymbolTableRecord
100
AcDbBlockTableRecord
  2
*Paper_Space
340
1E
 70
     0
280
     1
281
     0
  0
BLOCK_RECORD
  5
23
330
1
100
AcDbSymbolTableRecord
100
AcDbBlockTableRecord
  2
*Paper_Space0
340
26
 70
     0
280
     1
281
     0
  0
ENDTAB
  0
ENDSEC
  0
SECTION
  2
BLOCKS
  0
BLOCK
  5
20
330
1F
100
AcDbEntity
  8
0
100
AcDbBlockBegin
  2
*Model_Space
 70
     0
 10
0.0
 20
0.0
 30
0.0
  3
*Model_Space
  1

  0
ENDBLK
  5
21
330
1F
100
AcDbEntity
  8
0
100
AcDbBlockEnd
  0
BLOCK
  5
1C
330
1B
100
AcDbEntity
 67
     1
  8
0
100
AcDbBlockBegin
  2
*Paper_Space
 70
     0
 10
0.0
 20
0.0
 30
0.0
  3
*Paper_Space
  1

  0
ENDBLK
  5
1D
330
1B
100
AcDbEntity
 67
     1
  8
0
100
AcDbBlockEnd
  0
BLOCK
  5
24
330
23
100
AcDbEntity
  8
0
100
AcDbBlockBegin
  2
*Paper_Space0
 70
     0
 10
0.0
 20
0.0
 30
0.0
  3
*Paper_Space0
  1

  0
ENDBLK
  5
25
330
23
100
AcDbEntity
  8
0
100
AcDbBlockEnd
  0
ENDSEC
  0
SECTION
  2
ENTITIES
  0
POLYLINE
  5
41
330
1F
100
AcDbEntity
  8
Calque 1
 62
   250
420
  2236966
370
    50
100
AcDb2dPolyline
 66
     1
 10
0.0
 20
0.0
 30
0.0
  0
VERTEX
  5
42
330
41
100
AcDbEntity
  8
Calque 1
 62
   250
420
  2236966
370
    50
100
AcDbVertex
100
AcDb2dVertex
 10
0.0
 20
0.0
 30
0.0
  0
VERTEX
  5
43
330
41
100
AcDbEntity
  8
Calque 1
 62
   250
420
  2236966
370
    50
100
AcDbVertex
100
AcDb2dVertex
 10
0.0
 20
431.79999989205
 30
0.0
  0
SEQEND
  5
44
330
41
100
AcDbEntity
  8
Calque 1
 62
   250
420
  2236966
370
    50
  0
POLYLINE
  5
45
330
1F
100
AcDbEntity
  8
Calque 1
 62
   250
420
  2236966
370
    50
100
AcDb2dPolyline
 66
     1
 10
0.0
 20
0.0
 30
0.0
  0
VERTEX
  5
46
330
45
100
AcDbEntity
  8
Calque 1
 62
   250
420
  2236966
370
    50
100
AcDbVertex
100
AcDb2dVertex
 10
0.0
 20
0.0
 30
0.0
  0
VERTEX
  5
47
330
45
100
AcDbEntity
  8
Calque 1
 62
   250
420
  2236966
370
    50
100
AcDbVertex
100
AcDb2dVertex
 10
1499.999914175781
 20
0.0
 30
0.0
  0
SEQEND
  5
48
330
45
100
AcDbEntity
  8
Calque 1
 62
   250
420
  2236966
370
    50
  0
POLYLINE
  5
49
330
1F
100
AcDbEntity
  8
Calque 1
 62
   250
420
  2236966
370
    50
100
AcDb2dPolyline
 66
     1
 10
0.0
 20
0.0
 30
0.0
  0
VERTEX
  5
4A
330
49
100
AcDbEntity
  8
Calque 1
 62
   250
420
  2236966
370
    50
100
AcDbVertex
100
AcDb2dVertex
 10
0.0
 20
431.79999989205
 30
0.0
  0
VERTEX
  5
4B
330
49
100
AcDbEntity
  8
Calque 1
 62
   250
420
  2236966
370
    50
100
AcDbVertex
100
AcDb2dVertex
 10
1499.999914175781
 20
431.79999989205
 30
0.0
  0
SEQEND
  5
4C
330
49
100
AcDbEntity
  8
Calque 1
 62
   250
420
  2236966
370
    50
  0
POLYLINE
  5
4D
330
1F
100
AcDbEntity
  8
Calque 1
 62
   250
420
  2236966
370
    50
100
AcDb2dPolyline
 66
     1
 10
0.0
 20
0.0
 30
0.0
  0
VERTEX
  5
4E
330
4D
100
AcDbEntity
  8
Calque 1
 62
   250
420
  2236966
370
    50
100
AcDbVertex
100
AcDb2dVertex
 10
1499.999914175781
 20
0.0
 30
0.0
  0
VERTEX
  5
4F
330
4D
100
AcDbEntity
  8
Calque 1
 62
   250
420
  2236966
370
    50
100
AcDbVertex
100
AcDb2dVertex
 10
1499.999914175781
 20
431.79999989205
 30
0.0
  0
SEQEND
  5
50
330
4D
100
AcDbEntity
  8
Calque 1
 62
   250
420
  2236966
370
    50
  0
POLYLINE
  5
51
330
1F
100
AcDbEntity
  8
Calque 1
 62
   250
420
  2236966
370
    50
100
AcDb2dPolyline
 66
     1
 10
0.0
 20
0.0
 30
0.0
  0
VERTEX
  5
52
330
51
100
AcDbEntity
  8
Calque 1
 62
   250
420
  2236966
370
    50
100
AcDbVertex
100
AcDb2dVertex
 10
195.9554593761956
 20
194.6448373943726
 30
0.0
  0
VERTEX
  5
53
330
51
100
AcDbEntity
  8
Calque 1
 62
   250
420
  2236966
370
    50
100
AcDbVertex
100
AcDb2dVertex
 10
195.9554593761956
 20
188.2452926165129
 30
0.0
  0
SEQEND
  5
54
330
51
100
AcDbEntity
  8
Calque 1
 62
   250
420
  2236966
370
    50
  0
POLYLINE
  5
55
330
1F
100
AcDbEntity
  8
Calque 1
 62
   250
420
  2236966
370
    50
100
AcDb2dPolyline
 66
     1
 10
0.0
 20
0.0
 30
0.0
  0
VERTEX
  5
56
330
55
100
AcDbEntity
  8
Calque 1
 62
   250
420
  2236966
370
    50
100
AcDbVertex
100
AcDb2dVertex
 10
197.6278379158166
 20
194.6886547025757
 30
0.0
  0
VERTEX
  5
57
330
55
100
AcDbEntity
  8
Calque 1
 62
   250
420
  2236966
370
    50
100
AcDbVertex
100
AcDb2dVertex
 10
197.6278379158166
 20
188.2014537764631
 30
0.0
  0
SEQEND
  5
58
330
55
100
AcDbEntity
  8
Calque 1
 62
   250
420
  2236966
370
    50
  0
POLYLINE
  5
59
330
1F
100
AcDbEntity
  8
Calque 1
 62
   250
420
  2236966
370
    50
100
AcDb2dPolyline
 66
     1
 10
0.0
 20
0.0
 30
0.0
  0
VERTEX
  5
5A
330
59
100
AcDbEntity
  8
Calque 1
 62
   250
420
  2236966
370
    50
100
AcDbVertex
100
AcDb2dVertex
 10
199.4223881540832
 20
194.7356802559493
 30
0.0
  0
VERTEX
  5
5B
330
59
100
AcDbEntity
  8
Calque 1
 62
   250
420
  2236966
370
    50
100
AcDbVertex
100
AcDb2dVertex
 10
199.4223881540832
 20
188.1544282230894
 30
0.0
  0
SEQEND
  5
5C
330
59
100
AcDbEntity
  8
Calque 1
 62
   250
420
  2236966
370
    50
  0
POLYLINE
  5
5D
330
1F
100
AcDbEntity
  8
Calque 1
 62
   250
420
  2236966
370
    50
100
AcDb2dPolyline
 66
     1
 10
0.0
 20
0.0
 30
0.0
  0
VERTEX
  5
5E
330
5D
100
AcDbEntity
  8
Calque 1
 62
   250
420
  2236966
370
    50
100
AcDbVertex
100
AcDb2dVertex
 10
201.3480458074104
 20
194.7861509048082
 30
0.0
  0
VERTEX
  5
5F
330
5D
100
AcDbEntity
  8
Calque 1
 62
   250
420
  2236966
370
    50
100
AcDbVertex
100
AcDb2dVertex
 10
201.3480458074104
 20
188.1039575742305
 30
0.0
  0
SEQEND
  5
60
330
5D
100
AcDbEntity
  8
Calque 1
 62
   250
420
  2236966
370
    50
  0
POLYLINE
  5
61
330
1F
100
AcDbEntity
  8
Calque 1
 62
   250
420
  2236966
370
    50
100
AcDb2dPolyline
 66
     1
 10
0.0
 20
0.0
 30
0.0
  0
VERTEX
  5
62
330
61
100
AcDbEntity
  8
Calque 1
 62
   250
420
  2236966
370
    50
100
AcDbVertex
100
AcDb2dVertex
 10
203.0198860508618
 20
194.8299682130113
 30
0.0
  0
VERTEX
  5
63
330
61
100
AcDbEntity
  8
Calque 1
 62
   250
420
  2236966
370
    50
100
AcDbVertex
100
AcDb2dVertex
 10
203.0198860508618
 20
188.0601617978743
 30
0.0
  0
SEQEND
  5
64
330
61
100
AcDbEntity
  8
Calque 1
 62
   250
420
  2236966
370
    50
  0
POLYLINE
  5
65
330
1F
100
AcDbEntity
  8
Calque 1
 62
   250
420
  2236966
370
    50
100
AcDb2dPolyline
 66
     1
 10
0.0
 20
0.0
 30
0.0
  0
VERTEX
  5
66
330
65
100
AcDbEntity
  8
Calque 1
 62
   250
420
  2236966
370
    50
100
AcDbVertex
100
AcDb2dVertex
 10
204.7905790028931
 20
188.0135022858959
 30
0.0
  0
VERTEX
  5
67
330
65
100
AcDbEntity
  8
Calque 1
 62
   250
420
  2236966
370
    50
100
AcDbVertex
100
AcDb2dVertex
 10
204.7905790028931
 20
194.5544036378848
 30
0.0
  0
SEQEND
  5
68
330
65
100
AcDbEntity
  8
Calque 1
 62
   250
420
  2236966
370
    50
  0
POLYLINE
  5
69
330
1F
100
AcDbEntity
  8
Calque 1
 62
   250
420
  2236966
370
    50
100
AcDb2dPolyline
 66
     1
 10
0.0
 20
0.0
 30
0.0
  0
VERTEX
  5
6A
330
69
100
AcDbEntity
  8
Calque 1
 62
   250
420
  2236966
370
    50
100
AcDbVertex
100
AcDb2dVertex
 10
204.7905790028931
 20
194.6693191041647
 30
0.0
  0
VERTEX
  5
6B
330
69
100
AcDbEntity
  8
Calque 1
 62
   250
420
  2236966
370
    50
100
AcDbVertex
100
AcDb2dVertex
 10
204.7905790028931
 20
194.8766277249896
 30
0.0
  0
SEQEND
  5
6C
330
69
100
AcDbEntity
  8
Calque 1
 62
   250
420
  2236966
370
    50
  0
POLYLINE
  5
6D
330
1F
100
AcDbEntity
  8
Calque 1
 62
   250
420
  2236966
370
    50
100
AcDb2dPolyline
 66
     1
 10
0.0
 20
0.0
 30
0.0
  0
VERTEX
  5
6E
330
6D
100
AcDbEntity
  8
Calque 1
 62
   250
420
  2236966
370
    50
100
AcDbVertex
100
AcDb2dVertex
 10
212.255454964026
 20
190.8795202837688
 30
0.0
  0
VERTEX
  5
6F
330
6D
100
AcDbEntity
  8
Calque 1
 62
   250
420
  2236966
370
    50
100
AcDbVertex
100
AcDb2dVertex
 10
212.255454964026
 20
189.3091811660516
 30
0.0
  0
SEQEND
  5
70
330
6D
100
AcDbEntity
  8
Calque 1
 62
   250
420
  2236966
370
    50
  0
POLYLINE
  5
71
330
1F
100
AcDbEntity
  8
Calque 1
 62
   250
420
  2236966
370
    50
100
AcDb2dPolyline
 66
     1
 10
0.0
 20
0.0
 30
0.0
  0
VERTEX
  5
72
330
71
100
AcDbEntity
  8
Calque 1
 62
   250
420
  2236966
370
    50
100
AcDbVertex
100
AcDb2dVertex
 10
212.4773406451229
 20
194.740675644403
 30
0.0
  0
VERTEX
  5
73
330
71
100
AcDbEntity
  8
Calque 1
 62
   250
420
  2236966
370
    50
100
AcDbVertex
100
AcDb2dVertex
 10
212.4773406451229
 20
194.8555911106828
 30
0.0
  0
SEQEND
  5
74
330
71
100
AcDbEntity
  8
Calque 1
 62
   250
420
  2236966
370
    50
  0
POLYLINE
  5
75
330
1F
100
AcDbEntity
  8
Calque 1
 62
   250
420
  2236966
370
    50
100
AcDb2dPolyline
 66
     1
 10
0.0
 20
0.0
 30
0.0
  0
VERTEX
  5
76
330
75
100
AcDbEntity
  8
Calque 1
 62
   250
420
  2236966
370
    50
100
AcDbVertex
100
AcDb2dVertex
 10
213.0879838198834
 20
190.5014210542627
 30
0.0
  0
VERTEX
  5
77
330
75
100
AcDbEntity
  8
Calque 1
 62
   250
420
  2236966
370
    50
100
AcDbVertex
100
AcDb2dVertex
 10
213.0879838198834
 20
189.4942043254563
 30
0.0
  0
SEQEND
  5
78
330
75
100
AcDbEntity
  8
Calque 1
 62
   250
420
  2236966
370
    50
  0
POLYLINE
  5
79
330
1F
100
AcDbEntity
  8
Calque 1
 62
   250
420
  2236966
370
    50
100
AcDb2dPolyline
 66
     1
 10
0.0
 20
0.0
 30
0.0
  0
VERTEX
  5
7A
330
79
100
AcDbEntity
  8
Calque 1
 62
   250
420
  2236966
370
    50
100
AcDbVertex
100
AcDb2dVertex
 10
214.3648008022573
 20
190.4734081215982
 30
0.0
  0
VERTEX
  5
7B
330
79
100
AcDbEntity
  8
Calque 1
 62
   250
420
  2236966
370
    50
100
AcDbVertex
100
AcDb2dVertex
 10
214.3648008022573
 20
189.4168188681189
 30
0.0
  0
SEQEND
  5
7C
330
79
100
AcDbEntity
  8
Calque 1
 62
   250
420
  2236966
370
    50
  0
POLYLINE
  5
7D
330
1F
100
AcDbEntity
  8
Calque 1
 62
   250
420
  2236966
370
    50
100
AcDb2dPolyline
 66
     1
 10
0.0
 20
0.0
 30
0.0
  0
VERTEX
  5
7E
330
7D
100
AcDbEntity
  8
Calque 1
 62
   250
420
  2236966
370
    50
100
AcDbVertex
100
AcDb2dVertex
 10
215.6291293134972
 20
190.3923622503077
 30
0.0
  0
VERTEX
  5
7F
330
7D
100
AcDbEntity
  8
Calque 1
 62
   250
420
  2236966
370
    50
100
AcDbVertex
100
AcDb2dVertex
 10
215.6291293134972
 20
189.3912820978345
 30
0.0
  0
SEQEND
  5
80
330
7D
100
AcDbEntity
  8
Calque 1
 62
   250
420
  2236966
370
    50
  0
POLYLINE
  5
81
330
1F
100
AcDbEntity
  8
Calque 1
 62
   250
420
  2236966
370
    50
100
AcDb2dPolyline
 66
     1
 10
0.0
 20
0.0
 30
0.0
  0
VERTEX
  5
82
330
81
100
AcDbEntity
  8
Calque 1
 62
   250
420
  2236966
370
    50
100
AcDbVertex
100
AcDb2dVertex
 10
216.6896158312443
 20
190.4642786185623
 30
0.0
  0
VERTEX
  5
83
330
81
100
AcDbEntity
  8
Calque 1
 62
   250
420
  2236966
370
    50
100
AcDbVertex
100
AcDb2dVertex
 10
216.6896158312443
 20
189.3027862075571
 30
0.0
  0
SEQEND
  5
84
330
81
100
AcDbEntity
  8
Calque 1
 62
   250
420
  2236966
370
    50
  0
POLYLINE
  5
85
330
1F
100
AcDbEntity
  8
Calque 1
 62
   250
420
  2236966
370
    50
100
AcDb2dPolyline
 66
     1
 10
0.0
 20
0.0
 30
0.0
  0
VERTEX
  5
86
330
85
100
AcDbEntity
  8
Calque 1
 62
   250
420
  2236966
370
    50
100
AcDbVertex
100
AcDb2dVertex
 10
217.5103667669115
 20
190.4558166027767
 30
0.0
  0
VERTEX
  5
87
330
85
100
AcDbEntity
  8
Calque 1
 62
   250
420
  2236966
370
    50
100
AcDbVertex
100
AcDb2dVertex
 10
217.5103667669115
 20
189.6244504666456
 30
0.0
  0
SEQEND
  5
88
330
85
100
AcDbEntity
  8
Calque 1
 62
   250
420
  2236966
370
    50
  0
POLYLINE
  5
89
330
1F
100
AcDbEntity
  8
Calque 1
 62
   250
420
  2236966
370
    50
100
AcDb2dPolyline
 66
     1
 10
0.0
 20
0.0
 30
0.0
  0
VERTEX
  5
8A
330
89
100
AcDbEntity
  8
Calque 1
 62
   250
420
  2236966
370
    50
100
AcDbVertex
100
AcDb2dVertex
 10
218.2554547929839
 20
189.247277106551
 30
0.0
  0
VERTEX
  5
8B
330
89
100
AcDbEntity
  8
Calque 1
 62
   250
420
  2236966
370
    50
100
AcDbVertex
100
AcDb2dVertex
 10
218.2554547929839
 20
190.8176162242682
 30
0.0
  0
SEQEND
  5
8C
330
89
100
AcDbEntity
  8
Calque 1
 62
   250
420
  2236966
370
    50
  0
POLYLINE
  5
8D
330
1F
100
AcDbEntity
  8
Calque 1
 62
   250
420
  2236966
370
    50
100
AcDb2dPolyline
 66
     1
 10
0.0
 20
0.0
 30
0.0
  0
VERTEX
  5
8E
330
8D
100
AcDbEntity
  8
Calque 1
 62
   250
420
  2236966
370
    50
100
AcDbVertex
100
AcDb2dVertex
 10
220.7554529273958
 20
186.6956025398604
 30
0.0
  0
VERTEX
  5
8F
330
8D
100
AcDbEntity
  8
Calque 1
 62
   250
420
  2236966
370
    50
100
AcDbVertex
100
AcDb2dVertex
 10
220.7554529273958
 20
196.1945059391784
 30
0.0
  0
SEQEND
  5
90
330
8D
100
AcDbEntity
  8
Calque 1
 62
   250
420
  2236966
370
    50
  0
POLYLINE
  5
91
330
1F
100
AcDbEntity
  8
Calque 1
 62
   250
420
  2236966
370
    50
100
AcDb2dPolyline
 66
     1
 10
0.0
 20
0.0
 30
0.0
  0
VERTEX
  5
92
330
91
100
AcDbEntity
  8
Calque 1
 62
   250
420
  2236966
370
    50
100
AcDbVertex
100
AcDb2dVertex
 10
217.5103667669115
 20
190.4558166027767
 30
0.0
  0
VERTEX
  5
93
330
91
100
AcDbEntity
  8
Calque 1
 62
   250
420
  2236966
370
    50
100
AcDbVertex
100
AcDb2dVertex
 10
217.6912127480403
 20
190.8234298228996
 30
0.0
  0
SEQEND
  5
94
330
91
100
AcDbEntity
  8
Calque 1
 62
   250
420
  2236966
370
    50
  0
POLYLINE
  5
95
330
1F
100
AcDbEntity
  8
Calque 1
 62
   250
420
  2236966
370
    50
100
AcDb2dPolyline
 66
     1
 10
0.0
 20
0.0
 30
0.0
  0
VERTEX
  5
96
330
95
100
AcDbEntity
  8
Calque 1
 62
   250
420
  2236966
370
    50
100
AcDbVertex
100
AcDb2dVertex
 10
217.8159467364531
 20
190.2456657781764
 30
0.0
  0
VERTEX
  5
97
330
95
100
AcDbEntity
  8
Calque 1
 62
   250
420
  2236966
370
    50
100
AcDbVertex
100
AcDb2dVertex
 10
217.5103667669115
 20
189.6244504666456
 30
0.0
  0
SEQEND
  5
98
330
95
100
AcDbEntity
  8
Calque 1
 62
   250
420
  2236966
370
    50
  0
POLYLINE
  5
99
330
1F
100
AcDbEntity
  8
Calque 1
 62
   250
420
  2236966
370
    50
100
AcDb2dPolyline
 66
     1
 10
0.0
 20
0.0
 30
0.0
  0
VERTEX
  5
9A
330
99
100
AcDbEntity
  8
Calque 1
 62
   250
420
  2236966
370
    50
100
AcDbVertex
100
AcDb2dVertex
 10
192.4449501404196
 20
191.8366539369584
 30
0.0
  0
VERTEX
  5
9B
330
99
100
AcDbEntity
  8
Calque 1
 62
   250
420
  2236966
370
    50
100
AcDbVertex
100
AcDb2dVertex
 10
195.9554593761956
 20
194.6450527128405
 30
0.0
  0
SEQEND
  5
9C
330
99
100
AcDbEntity
  8
Calque 1
 62
   250
420
  2236966
370
    50
  0
POLYLINE
  5
9D
330
1F
100
AcDbEntity
  8
Calque 1
 62
   250
420
  2236966
370
    50
100
AcDb2dPolyline
 66
     1
 10
0.0
 20
0.0
 30
0.0
  0
VERTEX
  5
9E
330
9D
100
AcDbEntity
  8
Calque 1
 62
   250
420
  2236966
370
    50
100
AcDbVertex
100
AcDb2dVertex
 10
195.8500609861937
 20
194.3772180707091
 30
0.0
  0
VERTEX
  5
9F
330
9D
100
AcDbEntity
  8
Calque 1
 62
   250
420
  2236966
370
    50
100
AcDbVertex
100
AcDb2dVertex
 10
195.9554593761956
 20
194.4551848879096
 30
0.0
  0
SEQEND
  5
A0
330
9D
100
AcDbEntity
  8
Calque 1
 62
   250
420
  2236966
370
    50
  0
POLYLINE
  5
A1
330
1F
100
AcDbEntity
  8
Calque 1
 62
   250
420
  2236966
370
    50
100
AcDb2dPolyline
 66
     1
 10
0.0
 20
0.0
 30
0.0
  0
VERTEX
  5
A2
330
A1
100
AcDbEntity
  8
Calque 1
 62
   250
420
  2236966
370
    50
100
AcDbVertex
100
AcDb2dVertex
 10
192.4449501404196
 20
191.0534545420804
 30
0.0
  0
VERTEX
  5
A3
330
A1
100
AcDbEntity
  8
Calque 1
 62
   250
420
  2236966
370
    50
100
AcDbVertex
100
AcDb2dVertex
 10
195.9554593761956
 20
188.2450557661983
 30
0.0
  0
SEQEND
  5
A4
330
A1
100
AcDbEntity
  8
Calque 1
 62
   250
420
  2236966
370
    50
  0
POLYLINE
  5
A5
330
1F
100
AcDbEntity
  8
Calque 1
 62
   250
420
  2236966
370
    50
100
AcDb2dPolyline
 66
     1
 10
0.0
 20
0.0
 30
0.0
  0
VERTEX
  5
A6
330
A5
100
AcDbEntity
  8
Calque 1
 62
   250
420
  2236966
370
    50
100
AcDbVertex
100
AcDb2dVertex
 10
201.3480458074104
 20
194.0450678022374
 30
0.0
  0
VERTEX
  5
A7
330
A5
100
AcDbEntity
  8
Calque 1
 62
   250
420
  2236966
370
    50
100
AcDbVertex
100
AcDb2dVertex
 10
203.0198860508618
 20
194.8302050633259
 30
0.0
  0
SEQEND
  5
A8
330
A5
100
AcDbEntity
  8
Calque 1
 62
   250
420
  2236966
370
    50
  0
POLYLINE
  5
A9
330
1F
100
AcDbEntity
  8
Calque 1
 62
   250
420
  2236966
370
    50
100
AcDb2dPolyline
 66
     1
 10
0.0
 20
0.0
 30
0.0
  0
VERTEX
  5
AA
330
A9
100
AcDbEntity
  8
Calque 1
 62
   250
420
  2236966
370
    50
100
AcDbVertex
100
AcDb2dVertex
 10
203.0198860508618
 20
194.0450678022374
 30
0.0
  0
VERTEX
  5
AB
330
A9
100
AcDbEntity
  8
Calque 1
 62
   250
420
  2236966
370
    50
100
AcDbVertex
100
AcDb2dVertex
 10
204.7905790028931
 20
194.8766277249896
 30
0.0
  0
SEQEND
  5
AC
330
A9
100
AcDbEntity
  8
Calque 1
 62
   250
420
  2236966
370
    50
  0
POLYLINE
  5
AD
330
1F
100
AcDbEntity
  8
Calque 1
 62
   250
420
  2236966
370
    50
100
AcDb2dPolyline
 66
     1
 10
0.0
 20
0.0
 30
0.0
  0
VERTEX
  5
AE
330
AD
100
AcDbEntity
  8
Calque 1
 62
   250
420
  2236966
370
    50
100
AcDbVertex
100
AcDb2dVertex
 10
201.3900329086369
 20
193.8035450768747
 30
0.0
  0
VERTEX
  5
AF
330
AD
100
AcDbEntity
  8
Calque 1
 62
   250
420
  2236966
370
    50
100
AcDbVertex
100
AcDb2dVertex
 10
201.3480458074104
 20
193.7852860708028
 30
0.0
  0
SEQEND
  5
B0
330
AD
100
AcDbEntity
  8
Calque 1
 62
   250
420
  2236966
370
    50
  0
POLYLINE
  5
B1
330
1F
100
AcDbEntity
  8
Calque 1
 62
   250
420
  2236966
370
    50
100
AcDb2dPolyline
 66
     1
 10
0.0
 20
0.0
 30
0.0
  0
VERTEX
  5
B2
330
B1
100
AcDbEntity
  8
Calque 1
 62
   250
420
  2236966
370
    50
100
AcDbVertex
100
AcDb2dVertex
 10
201.3900329086369
 20
193.8035450768747
 30
0.0
  0
VERTEX
  5
B3
330
B1
100
AcDbEntity
  8
Calque 1
 62
   250
420
  2236966
370
    50
100
AcDbVertex
100
AcDb2dVertex
 10
201.3480458074104
 20
193.7852860708028
 30
0.0
  0
SEQEND
  5
B4
330
B1
100
AcDbEntity
  8
Calque 1
 62
   250
420
  2236966
370
    50
  0
POLYLINE
  5
B5
330
1F
100
AcDbEntity
  8
Calque 1
 62
   250
420
  2236966
370
    50
100
AcDb2dPolyline
 66
     1
 10
0.0
 20
0.0
 30
0.0
  0
VERTEX
  5
B6
330
B5
100
AcDbEntity
  8
Calque 1
 62
   250
420
  2236966
370
    50
100
AcDbVertex
100
AcDb2dVertex
 10
202.9779204814821
 20
194.6081686593015
 30
0.0
  0
VERTEX
  5
B7
330
B5
100
AcDbEntity
  8
Calque 1
 62
   250
420
  2236966
370
    50
100
AcDbVertex
100
AcDb2dVertex
 10
203.0198860508618
 20
194.6264061335266
 30
0.0
  0
SEQEND
  5
B8
330
B5
100
AcDbEntity
  8
Calque 1
 62
   250
420
  2236966
370
    50
  0
POLYLINE
  5
B9
330
1F
100
AcDbEntity
  8
Calque 1
 62
   250
420
  2236966
370
    50
100
AcDb2dPolyline
 66
     1
 10
0.0
 20
0.0
 30
0.0
  0
VERTEX
  5
BA
330
B9
100
AcDbEntity
  8
Calque 1
 62
   250
420
  2236966
370
    50
100
AcDbVertex
100
AcDb2dVertex
 10
201.3480458074104
 20
188.8450622086481
 30
0.0
  0
VERTEX
  5
BB
330
B9
100
AcDbEntity
  8
Calque 1
 62
   250
420
  2236966
370
    50
100
AcDbVertex
100
AcDb2dVertex
 10
203.0198860508618
 20
188.0599034157129
 30
0.0
  0
SEQEND
  5
BC
330
B9
100
AcDbEntity
  8
Calque 1
 62
   250
420
  2236966
370
    50
  0
POLYLINE
  5
BD
330
1F
100
AcDbEntity
  8
Calque 1
 62
   250
420
  2236966
370
    50
100
AcDb2dPolyline
 66
     1
 10
0.0
 20
0.0
 30
0.0
  0
VERTEX
  5
BE
330
BD
100
AcDbEntity
  8
Calque 1
 62
   250
420
  2236966
370
    50
100
AcDbVertex
100
AcDb2dVertex
 10
203.0198860508618
 20
188.8450622086481
 30
0.0
  0
VERTEX
  5
BF
330
BD
100
AcDbEntity
  8
Calque 1
 62
   250
420
  2236966
370
    50
100
AcDbVertex
100
AcDb2dVertex
 10
204.7905790028931
 20
188.0135022858959
 30
0.0
  0
SEQEND
  5
C0
330
BD
100
AcDbEntity
  8
Calque 1
 62
   250
420
  2236966
370
    50
  0
POLYLINE
  5
C1
330
1F
100
AcDbEntity
  8
Calque 1
 62
   250
420
  2236966
370
    50
100
AcDb2dPolyline
 66
     1
 10
0.0
 20
0.0
 30
0.0
  0
VERTEX
  5
C2
330
C1
100
AcDbEntity
  8
Calque 1
 62
   250
420
  2236966
370
    50
100
AcDbVertex
100
AcDb2dVertex
 10
203.0618946839351
 20
193.8035450768747
 30
0.0
  0
VERTEX
  5
C3
330
C1
100
AcDbEntity
  8
Calque 1
 62
   250
420
  2236966
370
    50
100
AcDbVertex
100
AcDb2dVertex
 10
203.0198860508618
 20
193.7852860708028
 30
0.0
  0
SEQEND
  5
C4
330
C1
100
AcDbEntity
  8
Calque 1
 62
   250
420
  2236966
370
    50
  0
POLYLINE
  5
C5
330
1F
100
AcDbEntity
  8
Calque 1
 62
   250
420
  2236966
370
    50
100
AcDb2dPolyline
 66
     1
 10
0.0
 20
0.0
 30
0.0
  0
VERTEX
  5
C6
330
C5
100
AcDbEntity
  8
Calque 1
 62
   250
420
  2236966
370
    50
100
AcDbVertex
100
AcDb2dVertex
 10
203.0618946839351
 20
193.8035450768747
 30
0.0
  0
VERTEX
  5
C7
330
C5
100
AcDbEntity
  8
Calque 1
 62
   250
420
  2236966
370
    50
100
AcDbVertex
100
AcDb2dVertex
 10
203.0198860508618
 20
193.7852860708028
 30
0.0
  0
SEQEND
  5
C8
330
C5
100
AcDbEntity
  8
Calque 1
 62
   250
420
  2236966
370
    50
  0
POLYLINE
  5
C9
330
1F
100
AcDbEntity
  8
Calque 1
 62
   250
420
  2236966
370
    50
100
AcDb2dPolyline
 66
     1
 10
0.0
 20
0.0
 30
0.0
  0
VERTEX
  5
CA
330
C9
100
AcDbEntity
  8
Calque 1
 62
   250
420
  2236966
370
    50
100
AcDbVertex
100
AcDb2dVertex
 10
204.7485919016666
 20
194.6510816299397
 30
0.0
  0
VERTEX
  5
CB
330
C9
100
AcDbEntity
  8
Calque 1
 62
   250
420
  2236966
370
    50
100
AcDbVertex
100
AcDb2dVertex
 10
204.7905790028931
 20
194.6693191041647
 30
0.0
  0
SEQEND
  5
CC
330
C9
100
AcDbEntity
  8
Calque 1
 62
   250
420
  2236966
370
    50
  0
POLYLINE
  5
CD
330
1F
100
AcDbEntity
  8
Calque 1
 62
   250
420
  2236966
370
    50
100
AcDb2dPolyline
 66
     1
 10
0.0
 20
0.0
 30
0.0
  0
VERTEX
  5
CE
330
CD
100
AcDbEntity
  8
Calque 1
 62
   250
420
  2236966
370
    50
100
AcDbVertex
100
AcDb2dVertex
 10
195.9554593761956
 20
194.0450678022374
 30
0.0
  0
VERTEX
  5
CF
330
CD
100
AcDbEntity
  8
Calque 1
 62
   250
420
  2236966
370
    50
100
AcDbVertex
100
AcDb2dVertex
 10
197.6278379158166
 20
194.6888915528903
 30
0.0
  0
SEQEND
  5
D0
330
CD
100
AcDbEntity
  8
Calque 1
 62
   250
420
  2236966
370
    50
  0
POLYLINE
  5
D1
330
1F
100
AcDbEntity
  8
Calque 1
 62
   250
420
  2236966
370
    50
100
AcDb2dPolyline
 66
     1
 10
0.0
 20
0.0
 30
0.0
  0
VERTEX
  5
D2
330
D1
100
AcDbEntity
  8
Calque 1
 62
   250
420
  2236966
370
    50
100
AcDbVertex
100
AcDb2dVertex
 10
197.6278379158166
 20
194.0450678022374
 30
0.0
  0
VERTEX
  5
D3
330
D1
100
AcDbEntity
  8
Calque 1
 62
   250
420
  2236966
370
    50
100
AcDbVertex
100
AcDb2dVertex
 10
199.4223881540832
 20
194.7359171062639
 30
0.0
  0
SEQEND
  5
D4
330
D1
100
AcDbEntity
  8
Calque 1
 62
   250
420
  2236966
370
    50
  0
POLYLINE
  5
D5
330
1F
100
AcDbEntity
  8
Calque 1
 62
   250
420
  2236966
370
    50
100
AcDb2dPolyline
 66
     1
 10
0.0
 20
0.0
 30
0.0
  0
VERTEX
  5
D6
330
D5
100
AcDbEntity
  8
Calque 1
 62
   250
420
  2236966
370
    50
100
AcDbVertex
100
AcDb2dVertex
 10
199.4223881540832
 20
194.0450678022374
 30
0.0
  0
VERTEX
  5
D7
330
D5
100
AcDbEntity
  8
Calque 1
 62
   250
420
  2236966
370
    50
100
AcDbVertex
100
AcDb2dVertex
 10
201.3480458074104
 20
194.7863877551229
 30
0.0
  0
SEQEND
  5
D8
330
D5
100
AcDbEntity
  8
Calque 1
 62
   250
420
  2236966
370
    50
  0
POLYLINE
  5
D9
330
1F
100
AcDbEntity
  8
Calque 1
 62
   250
420
  2236966
370
    50
100
AcDb2dPolyline
 66
     1
 10
0.0
 20
0.0
 30
0.0
  0
VERTEX
  5
DA
330
D9
100
AcDbEntity
  8
Calque 1
 62
   250
420
  2236966
370
    50
100
AcDbVertex
100
AcDb2dVertex
 10
195.9917836017182
 20
193.7982267107193
 30
0.0
  0
VERTEX
  5
DB
330
D9
100
AcDbEntity
  8
Calque 1
 62
   250
420
  2236966
370
    50
100
AcDbVertex
100
AcDb2dVertex
 10
195.9554593761956
 20
193.7852860708028
 30
0.0
  0
SEQEND
  5
DC
330
D9
100
AcDbEntity
  8
Calque 1
 62
   250
420
  2236966
370
    50
  0
POLYLINE
  5
DD
330
1F
100
AcDbEntity
  8
Calque 1
 62
   250
420
  2236966
370
    50
100
AcDb2dPolyline
 66
     1
 10
0.0
 20
0.0
 30
0.0
  0
VERTEX
  5
DE
330
DD
100
AcDbEntity
  8
Calque 1
 62
   250
420
  2236966
370
    50
100
AcDbVertex
100
AcDb2dVertex
 10
197.6641621413392
 20
193.7982267107193
 30
0.0
  0
VERTEX
  5
DF
330
DD
100
AcDbEntity
  8
Calque 1
 62
   250
420
  2236966
370
    50
100
AcDbVertex
100
AcDb2dVertex
 10
197.6278379158166
 20
193.7852860708028
 30
0.0
  0
SEQEND
  5
E0
330
DD
100
AcDbEntity
  8
Calque 1
 62
   250
420
  2236966
370
    50
  0
POLYLINE
  5
E1
330
1F
100
AcDbEntity
  8
Calque 1
 62
   250
420
  2236966
370
    50
100
AcDb2dPolyline
 66
     1
 10
0.0
 20
0.0
 30
0.0
  0
VERTEX
  5
E2
330
E1
100
AcDbEntity
  8
Calque 1
 62
   250
420
  2236966
370
    50
100
AcDbVertex
100
AcDb2dVertex
 10
197.6641621413392
 20
193.7982267107193
 30
0.0
  0
VERTEX
  5
E3
330
E1
100
AcDbEntity
  8
Calque 1
 62
   250
420
  2236966
370
    50
100
AcDbVertex
100
AcDb2dVertex
 10
197.6278379158166
 20
193.7852860708028
 30
0.0
  0
SEQEND
  5
E4
330
E1
100
AcDbEntity
  8
Calque 1
 62
   250
420
  2236966
370
    50
  0
POLYLINE
  5
E5
330
1F
100
AcDbEntity
  8
Calque 1
 62
   250
420
  2236966
370
    50
100
AcDb2dPolyline
 66
     1
 10
0.0
 20
0.0
 30
0.0
  0
VERTEX
  5
E6
330
E5
100
AcDbEntity
  8
Calque 1
 62
   250
420
  2236966
370
    50
100
AcDbVertex
100
AcDb2dVertex
 10
199.4587123796058
 20
193.7982267107193
 30
0.0
  0
VERTEX
  5
E7
330
E5
100
AcDbEntity
  8
Calque 1
 62
   250
420
  2236966
370
    50
100
AcDbVertex
100
AcDb2dVertex
 10
199.4223881540832
 20
193.7852860708028
 30
0.0
  0
SEQEND
  5
E8
330
E5
100
AcDbEntity
  8
Calque 1
 62
   250
420
  2236966
370
    50
  0
POLYLINE
  5
E9
330
1F
100
AcDbEntity
  8
Calque 1
 62
   250
420
  2236966
370
    50
100
AcDb2dPolyline
 66
     1
 10
0.0
 20
0.0
 30
0.0
  0
VERTEX
  5
EA
330
E9
100
AcDbEntity
  8
Calque 1
 62
   250
420
  2236966
370
    50
100
AcDbVertex
100
AcDb2dVertex
 10
199.4587123796058
 20
193.7982267107193
 30
0.0
  0
VERTEX
  5
EB
330
E9
100
AcDbEntity
  8
Calque 1
 62
   250
420
  2236966
370
    50
100
AcDbVertex
100
AcDb2dVertex
 10
199.4223881540832
 20
193.7852860708028
 30
0.0
  0
SEQEND
  5
EC
330
E9
100
AcDbEntity
  8
Calque 1
 62
   250
420
  2236966
370
    50
  0
POLYLINE
  5
ED
330
1F
100
AcDbEntity
  8
Calque 1
 62
   250
420
  2236966
370
    50
100
AcDb2dPolyline
 66
     1
 10
0.0
 20
0.0
 30
0.0
  0
VERTEX
  5
EE
330
ED
100
AcDbEntity
  8
Calque 1
 62
   250
420
  2236966
370
    50
100
AcDbVertex
100
AcDb2dVertex
 10
197.5915352221407
 20
194.482810247332
 30
0.0
  0
VERTEX
  5
EF
330
ED
100
AcDbEntity
  8
Calque 1
 62
   250
420
  2236966
370
    50
100
AcDbVertex
100
AcDb2dVertex
 10
197.6278379158166
 20
194.4957293554017
 30
0.0
  0
SEQEND
  5
F0
330
ED
100
AcDbEntity
  8
Calque 1
 62
   250
420
  2236966
370
    50
  0
POLYLINE
  5
F1
330
1F
100
AcDbEntity
  8
Calque 1
 62
   250
420
  2236966
370
    50
100
AcDb2dPolyline
 66
     1
 10
0.0
 20
0.0
 30
0.0
  0
VERTEX
  5
F2
330
F1
100
AcDbEntity
  8
Calque 1
 62
   250
420
  2236966
370
    50
100
AcDbVertex
100
AcDb2dVertex
 10
199.3860854604074
 20
194.5263045778333
 30
0.0
  0
VERTEX
  5
F3
330
F1
100
AcDbEntity
  8
Calque 1
 62
   250
420
  2236966
370
    50
100
AcDbVertex
100
AcDb2dVertex
 10
199.4223881540832
 20
194.539223685903
 30
0.0
  0
SEQEND
  5
F4
330
F1
100
AcDbEntity
  8
Calque 1
 62
   250
420
  2236966
370
    50
  0
POLYLINE
  5
F5
330
1F
100
AcDbEntity
  8
Calque 1
 62
   250
420
  2236966
370
    50
100
AcDb2dPolyline
 66
     1
 10
0.0
 20
0.0
 30
0.0
  0
VERTEX
  5
F6
330
F5
100
AcDbEntity
  8
Calque 1
 62
   250
420
  2236966
370
    50
100
AcDbVertex
100
AcDb2dVertex
 10
201.3117431137346
 20
194.5729640898116
 30
0.0
  0
VERTEX
  5
F7
330
F5
100
AcDbEntity
  8
Calque 1
 62
   250
420
  2236966
370
    50
100
AcDbVertex
100
AcDb2dVertex
 10
201.3480458074104
 20
194.5858831978813
 30
0.0
  0
SEQEND
  5
F8
330
F5
100
AcDbEntity
  8
Calque 1
 62
   250
420
  2236966
370
    50
  0
POLYLINE
  5
F9
330
1F
100
AcDbEntity
  8
Calque 1
 62
   250
420
  2236966
370
    50
100
AcDb2dPolyline
 66
     1
 10
0.0
 20
0.0
 30
0.0
  0
VERTEX
  5
FA
330
F9
100
AcDbEntity
  8
Calque 1
 62
   250
420
  2236966
370
    50
100
AcDbVertex
100
AcDb2dVertex
 10
195.9554593761956
 20
188.8450622086481
 30
0.0
  0
VERTEX
  5
FB
330
F9
100
AcDbEntity
  8
Calque 1
 62
   250
420
  2236966
370
    50
100
AcDbVertex
100
AcDb2dVertex
 10
197.6278379158166
 20
188.2012169261485
 30
0.0
  0
SEQEND
  5
FC
330
F9
100
AcDbEntity
  8
Calque 1
 62
   250
420
  2236966
370
    50
  0
POLYLINE
  5
FD
330
1F
100
AcDbEntity
  8
Calque 1
 62
   250
420
  2236966
370
    50
100
AcDb2dPolyline
 66
     1
 10
0.0
 20
0.0
 30
0.0
  0
VERTEX
  5
FE
330
FD
100
AcDbEntity
  8
Calque 1
 62
   250
420
  2236966
370
    50
100
AcDbVertex
100
AcDb2dVertex
 10
197.6278379158166
 20
188.8450622086481
 30
0.0
  0
VERTEX
  5
FF
330
FD
100
AcDbEntity
  8
Calque 1
 62
   250
420
  2236966
370
    50
100
AcDbVertex
100
AcDb2dVertex
 10
199.4223881540832
 20
188.1541913727748
 30
0.0
  0
SEQEND
  5
100
330
FD
100
AcDbEntity
  8
Calque 1
 62
   250
420
  2236966
370
    50
  0
POLYLINE
  5
101
330
1F
100
AcDbEntity
  8
Calque 1
 62
   250
420
  2236966
370
    50
100
AcDb2dPolyline
 66
     1
 10
0.0
 20
0.0
 30
0.0
  0
VERTEX
  5
102
330
101
100
AcDbEntity
  8
Calque 1
 62
   250
420
  2236966
370
    50
100
AcDbVertex
100
AcDb2dVertex
 10
199.4223881540832
 20
188.8450622086481
 30
0.0
  0
VERTEX
  5
103
330
101
100
AcDbEntity
  8
Calque 1
 62
   250
420
  2236966
370
    50
100
AcDbVertex
100
AcDb2dVertex
 10
201.3480458074104
 20
188.1037207239159
 30
0.0
  0
SEQEND
  5
104
330
101
100
AcDbEntity
  8
Calque 1
 62
   250
420
  2236966
370
    50
  0
POLYLINE
  5
105
330
1F
100
AcDbEntity
  8
Calque 1
 62
   250
420
  2236966
370
    50
100
AcDb2dPolyline
 66
     1
 10
0.0
 20
0.0
 30
0.0
  0
VERTEX
  5
106
330
105
100
AcDbEntity
  8
Calque 1
 62
   250
420
  2236966
370
    50
100
AcDbVertex
100
AcDb2dVertex
 10
213.0879838198834
 20
189.4942043254563
 30
0.0
  0
VERTEX
  5
107
330
105
100
AcDbEntity
  8
Calque 1
 62
   250
420
  2236966
370
    50
100
AcDbVertex
100
AcDb2dVertex
 10
212.255454964026
 20
189.6593320584337
 30
0.0
  0
SEQEND
  5
108
330
105
100
AcDbEntity
  8
Calque 1
 62
   250
420
  2236966
370
    50
  0
POLYLINE
  5
109
330
1F
100
AcDbEntity
  8
Calque 1
 62
   250
420
  2236966
370
    50
100
AcDb2dPolyline
 66
     1
 10
0.0
 20
0.0
 30
0.0
  0
VERTEX
  5
10A
330
109
100
AcDbEntity
  8
Calque 1
 62
   250
420
  2236966
370
    50
100
AcDbVertex
100
AcDb2dVertex
 10
214.3648008022573
 20
189.4168188681189
 30
0.0
  0
VERTEX
  5
10B
330
109
100
AcDbEntity
  8
Calque 1
 62
   250
420
  2236966
370
    50
100
AcDbVertex
100
AcDb2dVertex
 10
213.0879838198834
 20
189.6700764499783
 30
0.0
  0
SEQEND
  5
10C
330
109
100
AcDbEntity
  8
Calque 1
 62
   250
420
  2236966
370
    50
  0
POLYLINE
  5
10D
330
1F
100
AcDbEntity
  8
Calque 1
 62
   250
420
  2236966
370
    50
100
AcDb2dPolyline
 66
     1
 10
0.0
 20
0.0
 30
0.0
  0
VERTEX
  5
10E
330
10D
100
AcDbEntity
  8
Calque 1
 62
   250
420
  2236966
370
    50
100
AcDbVertex
100
AcDb2dVertex
 10
215.6291293134972
 20
189.3912820978345
 30
0.0
  0
VERTEX
  5
10F
330
10D
100
AcDbEntity
  8
Calque 1
 62
   250
420
  2236966
370
    50
100
AcDbVertex
100
AcDb2dVertex
 10
214.3648008022573
 20
189.6420419854671
 30
0.0
  0
SEQEND
  5
110
330
10D
100
AcDbEntity
  8
Calque 1
 62
   250
420
  2236966
370
    50
  0
POLYLINE
  5
111
330
1F
100
AcDbEntity
  8
Calque 1
 62
   250
420
  2236966
370
    50
100
AcDb2dPolyline
 66
     1
 10
0.0
 20
0.0
 30
0.0
  0
VERTEX
  5
112
330
111
100
AcDbEntity
  8
Calque 1
 62
   250
420
  2236966
370
    50
100
AcDbVertex
100
AcDb2dVertex
 10
212.255454964026
 20
190.490676662718
 30
0.0
  0
VERTEX
  5
113
330
111
100
AcDbEntity
  8
Calque 1
 62
   250
420
  2236966
370
    50
100
AcDbVertex
100
AcDb2dVertex
 10
213.0879838198834
 20
190.3255489297407
 30
0.0
  0
SEQEND
  5
114
330
111
100
AcDbEntity
  8
Calque 1
 62
   250
420
  2236966
370
    50
  0
POLYLINE
  5
115
330
1F
100
AcDbEntity
  8
Calque 1
 62
   250
420
  2236966
370
    50
100
AcDb2dPolyline
 66
     1
 10
0.0
 20
0.0
 30
0.0
  0
VERTEX
  5
116
330
115
100
AcDbEntity
  8
Calque 1
 62
   250
420
  2236966
370
    50
100
AcDbVertex
100
AcDb2dVertex
 10
213.0879838198834
 20
190.5014210542627
 30
0.0
  0
VERTEX
  5
117
330
115
100
AcDbEntity
  8
Calque 1
 62
   250
420
  2236966
370
    50
100
AcDbVertex
100
AcDb2dVertex
 10
214.3648008022573
 20
190.24818500425
 30
0.0
  0
SEQEND
  5
118
330
115
100
AcDbEntity
  8
Calque 1
 62
   250
420
  2236966
370
    50
  0
POLYLINE
  5
119
330
1F
100
AcDbEntity
  8
Calque 1
 62
   250
420
  2236966
370
    50
100
AcDb2dPolyline
 66
     1
 10
0.0
 20
0.0
 30
0.0
  0
VERTEX
  5
11A
330
119
100
AcDbEntity
  8
Calque 1
 62
   250
420
  2236966
370
    50
100
AcDbVertex
100
AcDb2dVertex
 10
214.3648008022573
 20
190.4734081215982
 30
0.0
  0
VERTEX
  5
11B
330
119
100
AcDbEntity
  8
Calque 1
 62
   250
420
  2236966
370
    50
100
AcDbVertex
100
AcDb2dVertex
 10
215.6291293134972
 20
190.2226267021188
 30
0.0
  0
SEQEND
  5
11C
330
119
100
AcDbEntity
  8
Calque 1
 62
   250
420
  2236966
370
    50
  0
POLYLINE
  5
11D
330
1F
100
AcDbEntity
  8
Calque 1
 62
   250
420
  2236966
370
    50
100
AcDb2dPolyline
 66
     1
 10
0.0
 20
0.0
 30
0.0
  0
VERTEX
  5
11E
330
11D
100
AcDbEntity
  8
Calque 1
 62
   250
420
  2236966
370
    50
100
AcDbVertex
100
AcDb2dVertex
 10
216.6896158312443
 20
189.3027862075571
 30
0.0
  0
VERTEX
  5
11F
330
11D
100
AcDbEntity
  8
Calque 1
 62
   250
420
  2236966
370
    50
100
AcDbVertex
100
AcDb2dVertex
 10
215.6291293134972
 20
189.5610176460234
 30
0.0
  0
SEQEND
  5
120
330
11D
100
AcDbEntity
  8
Calque 1
 62
   250
420
  2236966
370
    50
  0
POLYLINE
  5
121
330
1F
100
AcDbEntity
  8
Calque 1
 62
   250
420
  2236966
370
    50
100
AcDb2dPolyline
 66
     1
 10
0.0
 20
0.0
 30
0.0
  0
VERTEX
  5
122
330
121
100
AcDbEntity
  8
Calque 1
 62
   250
420
  2236966
370
    50
100
AcDbVertex
100
AcDb2dVertex
 10
215.6291293134972
 20
190.3923622503077
 30
0.0
  0
VERTEX
  5
123
330
121
100
AcDbEntity
  8
Calque 1
 62
   250
420
  2236966
370
    50
100
AcDbVertex
100
AcDb2dVertex
 10
216.6896158312443
 20
190.1341523436883
 30
0.0
  0
SEQEND
  5
124
330
121
100
AcDbEntity
  8
Calque 1
 62
   250
420
  2236966
370
    50
  0
POLYLINE
  5
125
330
1F
100
AcDbEntity
  8
Calque 1
 62
   250
420
  2236966
370
    50
100
AcDb2dPolyline
 66
     1
 10
0.0
 20
0.0
 30
0.0
  0
VERTEX
  5
126
330
125
100
AcDbEntity
  8
Calque 1
 62
   250
420
  2236966
370
    50
100
AcDbVertex
100
AcDb2dVertex
 10
220.7554529273958
 20
186.6950642436908
 30
0.0
  0
VERTEX
  5
127
330
125
100
AcDbEntity
  8
Calque 1
 62
   250
420
  2236966
370
    50
100
AcDbVertex
100
AcDb2dVertex
 10
221.9554658122954
 20
186.6950642436908
 30
0.0
  0
SEQEND
  5
128
330
125
100
AcDbEntity
  8
Calque 1
 62
   250
420
  2236966
370
    50
  0
POLYLINE
  5
129
330
1F
100
AcDbEntity
  8
Calque 1
 62
   250
420
  2236966
370
    50
100
AcDb2dPolyline
 66
     1
 10
0.0
 20
0.0
 30
0.0
  0
VERTEX
  5
12A
330
129
100
AcDbEntity
  8
Calque 1
 62
   250
420
  2236966
370
    50
100
AcDbVertex
100
AcDb2dVertex
 10
220.7554529273958
 20
196.1950657671947
 30
0.0
  0
VERTEX
  5
12B
330
129
100
AcDbEntity
  8
Calque 1
 62
   250
420
  2236966
370
    50
100
AcDbVertex
100
AcDb2dVertex
 10
221.9554658122954
 20
196.1950657671947
 30
0.0
  0
SEQEND
  5
12C
330
129
100
AcDbEntity
  8
Calque 1
 62
   250
420
  2236966
370
    50
  0
POLYLINE
  5
12D
330
1F
100
AcDbEntity
  8
Calque 1
 62
   250
420
  2236966
370
    50
100
AcDb2dPolyline
 66
     1
 10
0.0
 20
0.0
 30
0.0
  0
VERTEX
  5
12E
330
12D
100
AcDbEntity
  8
Calque 1
 62
   250
420
  2236966
370
    50
100
AcDbVertex
100
AcDb2dVertex
 10
218.2554547929839
 20
189.247277106551
 30
0.0
  0
VERTEX
  5
12F
330
12D
100
AcDbEntity
  8
Calque 1
 62
   250
420
  2236966
370
    50
100
AcDbVertex
100
AcDb2dVertex
 10
216.6892067261554
 20
189.2634259916381
 30
0.0
  0
SEQEND
  5
130
330
12D
100
AcDbEntity
  8
Calque 1
 62
   250
420
  2236966
370
    50
  0
POLYLINE
  5
131
330
1F
100
AcDbEntity
  8
Calque 1
 62
   250
420
  2236966
370
    50
100
AcDb2dPolyline
 66
     1
 10
0.0
 20
0.0
 30
0.0
  0
VERTEX
  5
132
330
131
100
AcDbEntity
  8
Calque 1
 62
   250
420
  2236966
370
    50
100
AcDbVertex
100
AcDb2dVertex
 10
217.5103667669115
 20
189.6244504666456
 30
0.0
  0
VERTEX
  5
133
330
131
100
AcDbEntity
  8
Calque 1
 62
   250
420
  2236966
370
    50
100
AcDbVertex
100
AcDb2dVertex
 10
216.6896158312443
 20
189.6329124824312
 30
0.0
  0
SEQEND
  5
134
330
131
100
AcDbEntity
  8
Calque 1
 62
   250
420
  2236966
370
    50
  0
POLYLINE
  5
135
330
1F
100
AcDbEntity
  8
Calque 1
 62
   250
420
  2236966
370
    50
100
AcDb2dPolyline
 66
     1
 10
0.0
 20
0.0
 30
0.0
  0
VERTEX
  5
136
330
135
100
AcDbEntity
  8
Calque 1
 62
   250
420
  2236966
370
    50
100
AcDbVertex
100
AcDb2dVertex
 10
216.6896158312443
 20
190.4642786185623
 30
0.0
  0
VERTEX
  5
137
330
135
100
AcDbEntity
  8
Calque 1
 62
   250
420
  2236966
370
    50
100
AcDbVertex
100
AcDb2dVertex
 10
217.5103667669115
 20
190.4558166027767
 30
0.0
  0
SEQEND
  5
138
330
135
100
AcDbEntity
  8
Calque 1
 62
   250
420
  2236966
370
    50
  0
POLYLINE
  5
139
330
1F
100
AcDbEntity
  8
Calque 1
 62
   250
420
  2236966
370
    50
100
AcDb2dPolyline
 66
     1
 10
0.0
 20
0.0
 30
0.0
  0
VERTEX
  5
13A
330
139
100
AcDbEntity
  8
Calque 1
 62
   250
420
  2236966
370
    50
100
AcDbVertex
100
AcDb2dVertex
 10
204.7905790028931
 20
188.0135022858959
 30
0.0
  0
VERTEX
  5
13B
330
139
100
AcDbEntity
  8
Calque 1
 62
   250
420
  2236966
370
    50
100
AcDbVertex
100
AcDb2dVertex
 10
220.7554529273958
 20
187.5950523755188
 30
0.0
  0
SEQEND
  5
13C
330
139
100
AcDbEntity
  8
Calque 1
 62
   250
420
  2236966
370
    50
  0
POLYLINE
  5
13D
330
1F
100
AcDbEntity
  8
Calque 1
 62
   250
420
  2236966
370
    50
100
AcDb2dPolyline
 66
     1
 10
0.0
 20
0.0
 30
0.0
  0
VERTEX
  5
13E
330
13D
100
AcDbEntity
  8
Calque 1
 62
   250
420
  2236966
370
    50
100
AcDbVertex
100
AcDb2dVertex
 10
204.7905790028931
 20
194.8766277249896
 30
0.0
  0
VERTEX
  5
13F
330
13D
100
AcDbEntity
  8
Calque 1
 62
   250
420
  2236966
370
    50
100
AcDbVertex
100
AcDb2dVertex
 10
220.7554529273958
 20
195.29505610352
 30
0.0
  0
SEQEND
  5
140
330
13D
100
AcDbEntity
  8
Calque 1
 62
   250
420
  2236966
370
    50
  0
POLYLINE
  5
141
330
1F
100
AcDbEntity
  8
Calque 1
 62
   250
420
  2236966
370
    50
100
AcDb2dPolyline
 66
     1
 10
0.0
 20
0.0
 30
0.0
  0
VERTEX
  5
142
330
141
100
AcDbEntity
  8
Calque 1
 62
   250
420
  2236966
370
    50
100
AcDbVertex
100
AcDb2dVertex
 10
204.7905790028931
 20
194.5544036378848
 30
0.0
  0
VERTEX
  5
143
330
141
100
AcDbEntity
  8
Calque 1
 62
   250
420
  2236966
370
    50
100
AcDbVertex
100
AcDb2dVertex
 10
212.4773406451229
 20
194.740675644403
 30
0.0
  0
SEQEND
  5
144
330
141
100
AcDbEntity
  8
Calque 1
 62
   250
420
  2236966
370
    50
  0
POLYLINE
  5
145
330
1F
100
AcDbEntity
  8
Calque 1
 62
   250
420
  2236966
370
    50
100
AcDb2dPolyline
 66
     1
 10
0.0
 20
0.0
 30
0.0
  0
VERTEX
  5
146
330
145
100
AcDbEntity
  8
Calque 1
 62
   250
420
  2236966
370
    50
100
AcDbVertex
100
AcDb2dVertex
 10
212.4773406451229
 20
194.8555911106828
 30
0.0
  0
VERTEX
  5
147
330
145
100
AcDbEntity
  8
Calque 1
 62
   250
420
  2236966
370
    50
100
AcDbVertex
100
AcDb2dVertex
 10
204.7905790028931
 20
194.6693191041647
 30
0.0
  0
SEQEND
  5
148
330
145
100
AcDbEntity
  8
Calque 1
 62
   250
420
  2236966
370
    50
  0
POLYLINE
  5
149
330
1F
100
AcDbEntity
  8
Calque 1
 62
   250
420
  2236966
370
    50
100
AcDb2dPolyline
 66
     1
 10
0.0
 20
0.0
 30
0.0
  0
VERTEX
  5
14A
330
149
100
AcDbEntity
  8
Calque 1
 62
   250
420
  2236966
370
    50
100
AcDbVertex
100
AcDb2dVertex
 10
192.4449501404196
 20
191.0534545420804
 30
0.0
  0
VERTEX
  5
14B
330
149
100
AcDbEntity
  8
Calque 1
 62
   250
420
  2236966
370
    50
100
AcDbVertex
100
AcDb2dVertex
 10
192.4424524461928
 20
191.0554570038312
 30
0.0
  0
VERTEX
  5
14C
330
149
100
AcDbEntity
  8
Calque 1
 62
   250
420
  2236966
370
    50
100
AcDbVertex
100
AcDb2dVertex
 10
192.4067311123801
 20
191.0842450829798
 30
0.0
  0
VERTEX
  5
14D
330
149
100
AcDbEntity
  8
Calque 1
 62
   250
420
  2236966
370
    50
100
AcDbVertex
100
AcDb2dVertex
 10
192.3712035651885
 20
191.1133992035238
 30
0.0
  0
VERTEX
  5
14E
330
149
100
AcDbEntity
  8
Calque 1
 62
   250
420
  2236966
370
    50
100
AcDbVertex
100
AcDb2dVertex
 10
192.3360635912389
 20
191.142919365463
 30
0.0
  0
VERTEX
  5
14F
330
149
100
AcDbEntity
  8
Calque 1
 62
   250
420
  2236966
370
    50
100
AcDbVertex
100
AcDb2dVertex
 10
192.3014188497654
 20
191.1728701643379
 30
0.0
  0
VERTEX
  5
150
330
149
100
AcDbEntity
  8
Calque 1
 62
   250
420
  2236966
370
    50
100
AcDbVertex
100
AcDb2dVertex
 10
192.2675061910824
 20
191.2032731319952
 30
0.0
  0
VERTEX
  5
151
330
149
100
AcDbEntity
  8
Calque 1
 62
   250
420
  2236966
370
    50
100
AcDbVertex
100
AcDb2dVertex
 10
192.2504314365837
 20
191.2190990393806
 30
0.0
  0
VERTEX
  5
152
330
149
100
AcDbEntity
  8
Calque 1
 62
   250
420
  2236966
370
    50
100
AcDbVertex
100
AcDb2dVertex
 10
192.2181551982562
 20
191.251181491087
 30
0.0
  0
VERTEX
  5
153
330
149
100
AcDbEntity
  8
Calque 1
 62
   250
420
  2236966
370
    50
100
AcDbVertex
100
AcDb2dVertex
 10
192.1877522305989
 20
191.2862784013429
 30
0.0
  0
VERTEX
  5
154
330
149
100
AcDbEntity
  8
Calque 1
 62
   250
420
  2236966
370
    50
100
AcDbVertex
100
AcDb2dVertex
 10
192.1749838454567
 20
191.3034177513821
 30
0.0
  0
VERTEX
  5
155
330
149
100
AcDbEntity
  8
Calque 1
 62
   250
420
  2236966
370
    50
100
AcDbVertex
100
AcDb2dVertex
 10
192.1520308967862
 20
191.3445435787372
 30
0.0
  0
VERTEX
  5
156
330
149
100
AcDbEntity
  8
Calque 1
 62
   250
420
  2236966
370
    50
100
AcDbVertex
100
AcDb2dVertex
 10
192.1430521166778
 20
191.3876072723029
 30
0.0
  0
SEQEND
  5
157
330
149
100
AcDbEntity
  8
Calque 1
 62
   250
420
  2236966
370
    50
  0
POLYLINE
  5
158
330
1F
100
AcDbEntity
  8
Calque 1
 62
   250
420
  2236966
370
    50
100
AcDb2dPolyline
 66
     1
 10
0.0
 20
0.0
 30
0.0
  0
VERTEX
  5
159
330
158
100
AcDbEntity
  8
Calque 1
 62
   250
420
  2236966
370
    50
100
AcDbVertex
100
AcDb2dVertex
 10
192.1430521166778
 20
191.3876072723029
 30
0.0
  0
VERTEX
  5
15A
330
158
100
AcDbEntity
  8
Calque 1
 62
   250
420
  2236966
370
    50
100
AcDbVertex
100
AcDb2dVertex
 10
192.1446024096462
 20
191.4050696000437
 30
0.0
  0
VERTEX
  5
15B
330
158
100
AcDbEntity
  8
Calque 1
 62
   250
420
  2236966
370
    50
100
AcDbVertex
100
AcDb2dVertex
 10
192.1586411737485
 20
191.4449465802855
 30
0.0
  0
VERTEX
  5
15C
330
158
100
AcDbEntity
  8
Calque 1
 62
   250
420
  2236966
370
    50
100
AcDbVertex
100
AcDb2dVertex
 10
192.1820032275079
 20
191.4815507198163
 30
0.0
  0
VERTEX
  5
15D
330
158
100
AcDbEntity
  8
Calque 1
 62
   250
420
  2236966
370
    50
100
AcDbVertex
100
AcDb2dVertex
 10
192.1955467591343
 20
191.4987331335489
 30
0.0
  0
VERTEX
  5
15E
330
158
100
AcDbEntity
  8
Calque 1
 62
   250
420
  2236966
370
    50
100
AcDbVertex
100
AcDb2dVertex
 10
192.2238180739601
 20
191.5298681839969
 30
0.0
  0
VERTEX
  5
15F
330
158
100
AcDbEntity
  8
Calque 1
 62
   250
420
  2236966
370
    50
100
AcDbVertex
100
AcDb2dVertex
 10
192.2536827454479
 20
191.5589792408472
 30
0.0
  0
VERTEX
  5
160
330
158
100
AcDbEntity
  8
Calque 1
 62
   250
420
  2236966
370
    50
100
AcDbVertex
100
AcDb2dVertex
 10
192.2558143982794
 20
191.560981702598
 30
0.0
  0
VERTEX
  5
161
330
158
100
AcDbEntity
  8
Calque 1
 62
   250
420
  2236966
370
    50
100
AcDbVertex
100
AcDb2dVertex
 10
192.2866910665659
 20
191.5892530174239
 30
0.0
  0
VERTEX
  5
162
330
158
100
AcDbEntity
  8
Calque 1
 62
   250
420
  2236966
370
    50
100
AcDbVertex
100
AcDb2dVertex
 10
192.318213690256
 20
191.6170290997737
 30
0.0
  0
VERTEX
  5
163
330
158
100
AcDbEntity
  8
Calque 1
 62
   250
420
  2236966
370
    50
100
AcDbVertex
100
AcDb2dVertex
 10
192.3502746101156
 20
191.6443530133411
 30
0.0
  0
VERTEX
  5
164
330
158
100
AcDbEntity
  8
Calque 1
 62
   250
420
  2236966
370
    50
100
AcDbVertex
100
AcDb2dVertex
 10
192.3826800395237
 20
191.6712893536664
 30
0.0
  0
VERTEX
  5
165
330
158
100
AcDbEntity
  8
Calque 1
 62
   250
420
  2236966
370
    50
100
AcDbVertex
100
AcDb2dVertex
 10
192.4153007873996
 20
191.6978811844432
 30
0.0
  0
SEQEND
  5
166
330
158
100
AcDbEntity
  8
Calque 1
 62
   250
420
  2236966
370
    50
  0
POLYLINE
  5
167
330
1F
100
AcDbEntity
  8
Calque 1
 62
   250
420
  2236966
370
    50
100
AcDb2dPolyline
 66
     1
 10
0.0
 20
0.0
 30
0.0
  0
VERTEX
  5
168
330
167
100
AcDbEntity
  8
Calque 1
 62
   250
420
  2236966
370
    50
100
AcDbVertex
100
AcDb2dVertex
 10
192.4153007873996
 20
191.6978811844432
 30
0.0
  0
VERTEX
  5
169
330
167
100
AcDbEntity
  8
Calque 1
 62
   250
420
  2236966
370
    50
100
AcDbVertex
100
AcDb2dVertex
 10
192.4305668667687
 20
191.7101974008029
 30
0.0
  0
VERTEX
  5
16A
330
167
100
AcDbEntity
  8
Calque 1
 62
   250
420
  2236966
370
    50
100
AcDbVertex
100
AcDb2dVertex
 10
192.4458760098312
 20
191.7224705534691
 30
0.0
  0
VERTEX
  5
16B
330
167
100
AcDbEntity
  8
Calque 1
 62
   250
420
  2236966
370
    50
100
AcDbVertex
100
AcDb2dVertex
 10
192.4612066847406
 20
191.7347221742885
 30
0.0
  0
VERTEX
  5
16C
330
167
100
AcDbEntity
  8
Calque 1
 62
   250
420
  2236966
370
    50
100
AcDbVertex
100
AcDb2dVertex
 10
192.4765588914968
 20
191.7469091995676
 30
0.0
  0
VERTEX
  5
16D
330
167
100
AcDbEntity
  8
Calque 1
 62
   250
420
  2236966
370
    50
100
AcDbVertex
100
AcDb2dVertex
 10
192.4919541619465
 20
191.7590746929999
 30
0.0
  0
VERTEX
  5
16E
330
167
100
AcDbEntity
  8
Calque 1
 62
   250
420
  2236966
370
    50
100
AcDbVertex
100
AcDb2dVertex
 10
192.5073924960898
 20
191.7712186545854
 30
0.0
  0
VERTEX
  5
16F
330
167
100
AcDbEntity
  8
Calque 1
 62
   250
420
  2236966
370
    50
100
AcDbVertex
100
AcDb2dVertex
 10
192.522830830233
 20
191.7833195524774
 30
0.0
  0
VERTEX
  5
170
330
167
100
AcDbEntity
  8
Calque 1
 62
   250
420
  2236966
370
    50
100
AcDbVertex
100
AcDb2dVertex
 10
192.5382906962231
 20
191.7953989185225
 30
0.0
  0
VERTEX
  5
171
330
167
100
AcDbEntity
  8
Calque 1
 62
   250
420
  2236966
370
    50
100
AcDbVertex
100
AcDb2dVertex
 10
192.5537720940599
 20
191.8074782845677
 30
0.0
  0
VERTEX
  5
172
330
167
100
AcDbEntity
  8
Calque 1
 62
   250
420
  2236966
370
    50
100
AcDbVertex
100
AcDb2dVertex
 10
192.5692534918967
 20
191.8195145869193
 30
0.0
  0
SEQEND
  5
173
330
167
100
AcDbEntity
  8
Calque 1
 62
   250
420
  2236966
370
    50
  0
POLYLINE
  5
174
330
1F
100
AcDbEntity
  8
Calque 1
 62
   250
420
  2236966
370
    50
100
AcDb2dPolyline
 66
     1
 10
0.0
 20
0.0
 30
0.0
  0
VERTEX
  5
175
330
174
100
AcDbEntity
  8
Calque 1
 62
   250
420
  2236966
370
    50
100
AcDbVertex
100
AcDb2dVertex
 10
192.5692534918967
 20
191.8195145869193
 30
0.0
  0
VERTEX
  5
176
330
174
100
AcDbEntity
  8
Calque 1
 62
   250
420
  2236966
370
    50
100
AcDbVertex
100
AcDb2dVertex
 10
192.7361037726168
 20
191.9479520529787
 30
0.0
  0
VERTEX
  5
177
330
174
100
AcDbEntity
  8
Calque 1
 62
   250
420
  2236966
370
    50
100
AcDbVertex
100
AcDb2dVertex
 10
193.0729479836871
 20
192.202415418258
 30
0.0
  0
VERTEX
  5
178
330
174
100
AcDbEntity
  8
Calque 1
 62
   250
420
  2236966
370
    50
100
AcDbVertex
100
AcDb2dVertex
 10
193.4114932106532
 20
192.4546179396251
 30
0.0
  0
VERTEX
  5
179
330
174
100
AcDbEntity
  8
Calque 1
 62
   250
420
  2236966
370
    50
100
AcDbVertex
100
AcDb2dVertex
 10
193.5809703766807
 20
192.5805792433045
 30
0.0
  0
VERTEX
  5
17A
330
174
100
AcDbEntity
  8
Calque 1
 62
   250
420
  2236966
370
    50
100
AcDbVertex
100
AcDb2dVertex
 10
193.919795517655
 20
192.8323726595827
 30
0.0
  0
VERTEX
  5
17B
330
174
100
AcDbEntity
  8
Calque 1
 62
   250
420
  2236966
370
    50
100
AcDbVertex
100
AcDb2dVertex
 10
194.2587283178633
 20
193.0840368847802
 30
0.0
  0
VERTEX
  5
17C
330
174
100
AcDbEntity
  8
Calque 1
 62
   250
420
  2236966
370
    50
100
AcDbVertex
100
AcDb2dVertex
 10
194.2590728274118
 20
193.0842952669416
 30
0.0
  0
VERTEX
  5
17D
330
174
100
AcDbEntity
  8
Calque 1
 62
   250
420
  2236966
370
    50
100
AcDbVertex
100
AcDb2dVertex
 10
194.5981778823943
 20
193.3357226418245
 30
0.0
  0
VERTEX
  5
17E
330
174
100
AcDbEntity
  8
Calque 1
 62
   250
420
  2236966
370
    50
100
AcDbVertex
100
AcDb2dVertex
 10
194.9373905966107
 20
193.5869992937799
 30
0.0
  0
VERTEX
  5
17F
330
174
100
AcDbEntity
  8
Calque 1
 62
   250
420
  2236966
370
    50
100
AcDbVertex
100
AcDb2dVertex
 10
195.276710970061
 20
193.8381467546546
 30
0.0
  0
VERTEX
  5
180
330
174
100
AcDbEntity
  8
Calque 1
 62
   250
420
  2236966
370
    50
100
AcDbVertex
100
AcDb2dVertex
 10
195.6160744072049
 20
194.089229619989
 30
0.0
  0
VERTEX
  5
181
330
174
100
AcDbEntity
  8
Calque 1
 62
   250
420
  2236966
370
    50
100
AcDbVertex
100
AcDb2dVertex
 10
195.9554593761956
 20
194.3402909534766
 30
0.0
  0
SEQEND
  5
182
330
174
100
AcDbEntity
  8
Calque 1
 62
   250
420
  2236966
370
    50
  0
POLYLINE
  5
183
330
1F
100
AcDbEntity
  8
Calque 1
 62
   250
420
  2236966
370
    50
100
AcDb2dPolyline
 66
     1
 10
0.0
 20
0.0
 30
0.0
  0
VERTEX
  5
184
330
183
100
AcDbEntity
  8
Calque 1
 62
   250
420
  2236966
370
    50
100
AcDbVertex
100
AcDb2dVertex
 10
203.0198860508618
 20
194.5114906672467
 30
0.0
  0
VERTEX
  5
185
330
183
100
AcDbEntity
  8
Calque 1
 62
   250
420
  2236966
370
    50
100
AcDbVertex
100
AcDb2dVertex
 10
202.8569115025627
 20
194.4407154868716
 30
0.0
  0
VERTEX
  5
186
330
183
100
AcDbEntity
  8
Calque 1
 62
   250
420
  2236966
370
    50
100
AcDbVertex
100
AcDb2dVertex
 10
202.6939154224168
 20
194.3699403064965
 30
0.0
  0
VERTEX
  5
187
330
183
100
AcDbEntity
  8
Calque 1
 62
   250
420
  2236966
370
    50
100
AcDbVertex
100
AcDb2dVertex
 10
202.5309193422709
 20
194.2991435942746
 30
0.0
  0
VERTEX
  5
188
330
183
100
AcDbEntity
  8
Calque 1
 62
   250
420
  2236966
370
    50
100
AcDbVertex
100
AcDb2dVertex
 10
202.3679447939718
 20
194.2283684138995
 30
0.0
  0
VERTEX
  5
189
330
183
100
AcDbEntity
  8
Calque 1
 62
   250
420
  2236966
370
    50
100
AcDbVertex
100
AcDb2dVertex
 10
202.2049487138259
 20
194.1575717016776
 30
0.0
  0
VERTEX
  5
18A
330
183
100
AcDbEntity
  8
Calque 1
 62
   250
420
  2236966
370
    50
100
AcDbVertex
100
AcDb2dVertex
 10
202.0419526336801
 20
194.0867749894557
 30
0.0
  0
VERTEX
  5
18B
330
183
100
AcDbEntity
  8
Calque 1
 62
   250
420
  2236966
370
    50
100
AcDbVertex
100
AcDb2dVertex
 10
201.878978085381
 20
194.0159782772339
 30
0.0
  0
VERTEX
  5
18C
330
183
100
AcDbEntity
  8
Calque 1
 62
   250
420
  2236966
370
    50
100
AcDbVertex
100
AcDb2dVertex
 10
201.7160035370819
 20
193.9451600331652
 30
0.0
  0
VERTEX
  5
18D
330
183
100
AcDbEntity
  8
Calque 1
 62
   250
420
  2236966
370
    50
100
AcDbVertex
100
AcDb2dVertex
 10
201.5530289887828
 20
193.8743633209433
 30
0.0
  0
VERTEX
  5
18E
330
183
100
AcDbEntity
  8
Calque 1
 62
   250
420
  2236966
370
    50
100
AcDbVertex
100
AcDb2dVertex
 10
201.3900329086369
 20
193.8035450768747
 30
0.0
  0
SEQEND
  5
18F
330
183
100
AcDbEntity
  8
Calque 1
 62
   250
420
  2236966
370
    50
  0
POLYLINE
  5
190
330
1F
100
AcDbEntity
  8
Calque 1
 62
   250
420
  2236966
370
    50
100
AcDb2dPolyline
 66
     1
 10
0.0
 20
0.0
 30
0.0
  0
VERTEX
  5
191
330
190
100
AcDbEntity
  8
Calque 1
 62
   250
420
  2236966
370
    50
100
AcDbVertex
100
AcDb2dVertex
 10
204.7905790028931
 20
194.5544036378848
 30
0.0
  0
VERTEX
  5
192
330
190
100
AcDbEntity
  8
Calque 1
 62
   250
420
  2236966
370
    50
100
AcDbVertex
100
AcDb2dVertex
 10
204.6176998050739
 20
194.47934362
 30
0.0
  0
VERTEX
  5
193
330
190
100
AcDbEntity
  8
Calque 1
 62
   250
420
  2236966
370
    50
100
AcDbVertex
100
AcDb2dVertex
 10
204.4448206072547
 20
194.4042620702683
 30
0.0
  0
VERTEX
  5
194
330
190
100
AcDbEntity
  8
Calque 1
 62
   250
420
  2236966
370
    50
100
AcDbVertex
100
AcDb2dVertex
 10
204.2719414094355
 20
194.3291805205366
 30
0.0
  0
VERTEX
  5
195
330
190
100
AcDbEntity
  8
Calque 1
 62
   250
420
  2236966
370
    50
100
AcDbVertex
100
AcDb2dVertex
 10
204.0990837434631
 20
194.2541205026517
 30
0.0
  0
VERTEX
  5
196
330
190
100
AcDbEntity
  8
Calque 1
 62
   250
420
  2236966
370
    50
100
AcDbVertex
100
AcDb2dVertex
 10
203.9262045456439
 20
194.1790174210733
 30
0.0
  0
VERTEX
  5
197
330
190
100
AcDbEntity
  8
Calque 1
 62
   250
420
  2236966
370
    50
100
AcDbVertex
100
AcDb2dVertex
 10
203.7533468796715
 20
194.1039358713416
 30
0.0
  0
VERTEX
  5
198
330
190
100
AcDbEntity
  8
Calque 1
 62
   250
420
  2236966
370
    50
100
AcDbVertex
100
AcDb2dVertex
 10
203.5804676818523
 20
194.02885432161
 30
0.0
  0
VERTEX
  5
199
330
190
100
AcDbEntity
  8
Calque 1
 62
   250
420
  2236966
370
    50
100
AcDbVertex
100
AcDb2dVertex
 10
203.4076100158799
 20
193.9537512400315
 30
0.0
  0
VERTEX
  5
19A
330
190
100
AcDbEntity
  8
Calque 1
 62
   250
420
  2236966
370
    50
100
AcDbVertex
100
AcDb2dVertex
 10
203.2347523499075
 20
193.8786481584531
 30
0.0
  0
VERTEX
  5
19B
330
190
100
AcDbEntity
  8
Calque 1
 62
   250
420
  2236966
370
    50
100
AcDbVertex
100
AcDb2dVertex
 10
203.0618946839351
 20
193.8035450768747
 30
0.0
  0
SEQEND
  5
19C
330
190
100
AcDbEntity
  8
Calque 1
 62
   250
420
  2236966
370
    50
  0
POLYLINE
  5
19D
330
1F
100
AcDbEntity
  8
Calque 1
 62
   250
420
  2236966
370
    50
100
AcDb2dPolyline
 66
     1
 10
0.0
 20
0.0
 30
0.0
  0
VERTEX
  5
19E
330
19D
100
AcDbEntity
  8
Calque 1
 62
   250
420
  2236966
370
    50
100
AcDbVertex
100
AcDb2dVertex
 10
212.255454964026
 20
190.8795202837688
 30
0.0
  0
VERTEX
  5
19F
330
19D
100
AcDbEntity
  8
Calque 1
 62
   250
420
  2236966
370
    50
100
AcDbVertex
100
AcDb2dVertex
 10
212.8554614064758
 20
190.8733191118954
 30
0.0
  0
VERTEX
  5
1A0
330
19D
100
AcDbEntity
  8
Calque 1
 62
   250
420
  2236966
370
    50
100
AcDbVertex
100
AcDb2dVertex
 10
213.4554678489257
 20
190.867117940022
 30
0.0
  0
VERTEX
  5
1A1
330
19D
100
AcDbEntity
  8
Calque 1
 62
   250
420
  2236966
370
    50
100
AcDbVertex
100
AcDb2dVertex
 10
214.0554527595287
 20
190.8609382999953
 30
0.0
  0
VERTEX
  5
1A2
330
19D
100
AcDbEntity
  8
Calque 1
 62
   250
420
  2236966
370
    50
100
AcDbVertex
100
AcDb2dVertex
 10
214.6554592019785
 20
190.8547371281218
 30
0.0
  0
VERTEX
  5
1A3
330
19D
100
AcDbEntity
  8
Calque 1
 62
   250
420
  2236966
370
    50
100
AcDbVertex
100
AcDb2dVertex
 10
215.2554656444283
 20
190.8485574880952
 30
0.0
  0
VERTEX
  5
1A4
330
19D
100
AcDbEntity
  8
Calque 1
 62
   250
420
  2236966
370
    50
100
AcDbVertex
100
AcDb2dVertex
 10
215.8554505550314
 20
190.8423563162217
 30
0.0
  0
VERTEX
  5
1A5
330
19D
100
AcDbEntity
  8
Calque 1
 62
   250
420
  2236966
370
    50
100
AcDbVertex
100
AcDb2dVertex
 10
216.4554569974812
 20
190.836176676195
 30
0.0
  0
VERTEX
  5
1A6
330
19D
100
AcDbEntity
  8
Calque 1
 62
   250
420
  2236966
370
    50
100
AcDbVertex
100
AcDb2dVertex
 10
217.055463439931
 20
190.8299970361684
 30
0.0
  0
VERTEX
  5
1A7
330
19D
100
AcDbEntity
  8
Calque 1
 62
   250
420
  2236966
370
    50
100
AcDbVertex
100
AcDb2dVertex
 10
217.6554483505341
 20
190.8238173961417
 30
0.0
  0
VERTEX
  5
1A8
330
19D
100
AcDbEntity
  8
Calque 1
 62
   250
420
  2236966
370
    50
100
AcDbVertex
100
AcDb2dVertex
 10
218.2554547929839
 20
190.8176162242682
 30
0.0
  0
SEQEND
  5
1A9
330
19D
100
AcDbEntity
  8
Calque 1
 62
   250
420
  2236966
370
    50
  0
POLYLINE
  5
1AA
330
1F
100
AcDbEntity
  8
Calque 1
 62
   250
420
  2236966
370
    50
100
AcDb2dPolyline
 66
     1
 10
0.0
 20
0.0
 30
0.0
  0
VERTEX
  5
1AB
330
1AA
100
AcDbEntity
  8
Calque 1
 62
   250
420
  2236966
370
    50
100
AcDbVertex
100
AcDb2dVertex
 10
197.6278379158166
 20
194.3808138891218
 30
0.0
  0
VERTEX
  5
1AC
330
1AA
100
AcDbEntity
  8
Calque 1
 62
   250
420
  2236966
370
    50
100
AcDbVertex
100
AcDb2dVertex
 10
197.464217412114
 20
194.3225702435743
 30
0.0
  0
VERTEX
  5
1AD
330
1AA
100
AcDbEntity
  8
Calque 1
 62
   250
420
  2236966
370
    50
100
AcDbVertex
100
AcDb2dVertex
 10
197.3006184402582
 20
194.2643265980268
 30
0.0
  0
VERTEX
  5
1AE
330
1AA
100
AcDbEntity
  8
Calque 1
 62
   250
420
  2236966
370
    50
100
AcDbVertex
100
AcDb2dVertex
 10
197.1370194684024
 20
194.2060614206325
 30
0.0
  0
VERTEX
  5
1AF
330
1AA
100
AcDbEntity
  8
Calque 1
 62
   250
420
  2236966
370
    50
100
AcDbVertex
100
AcDb2dVertex
 10
196.9733989646998
 20
194.147817775085
 30
0.0
  0
VERTEX
  5
1B0
330
1AA
100
AcDbEntity
  8
Calque 1
 62
   250
420
  2236966
370
    50
100
AcDbVertex
100
AcDb2dVertex
 10
196.809799992844
 20
194.0895525976907
 30
0.0
  0
VERTEX
  5
1B1
330
1AA
100
AcDbEntity
  8
Calque 1
 62
   250
420
  2236966
370
    50
100
AcDbVertex
100
AcDb2dVertex
 10
196.6462010209882
 20
194.0313089521432
 30
0.0
  0
VERTEX
  5
1B2
330
1AA
100
AcDbEntity
  8
Calque 1
 62
   250
420
  2236966
370
    50
100
AcDbVertex
100
AcDb2dVertex
 10
196.4825805172856
 20
193.9730437747489
 30
0.0
  0
VERTEX
  5
1B3
330
1AA
100
AcDbEntity
  8
Calque 1
 62
   250
420
  2236966
370
    50
100
AcDbVertex
100
AcDb2dVertex
 10
196.3189815454298
 20
193.9147785973547
 30
0.0
  0
VERTEX
  5
1B4
330
1AA
100
AcDbEntity
  8
Calque 1
 62
   250
420
  2236966
370
    50
100
AcDbVertex
100
AcDb2dVertex
 10
196.155382573574
 20
193.8565134199604
 30
0.0
  0
VERTEX
  5
1B5
330
1AA
100
AcDbEntity
  8
Calque 1
 62
   250
420
  2236966
370
    50
100
AcDbVertex
100
AcDb2dVertex
 10
195.9917836017182
 20
193.7982267107193
 30
0.0
  0
SEQEND
  5
1B6
330
1AA
100
AcDbEntity
  8
Calque 1
 62
   250
420
  2236966
370
    50
  0
POLYLINE
  5
1B7
330
1F
100
AcDbEntity
  8
Calque 1
 62
   250
420
  2236966
370
    50
100
AcDb2dPolyline
 66
     1
 10
0.0
 20
0.0
 30
0.0
  0
VERTEX
  5
1B8
330
1B7
100
AcDbEntity
  8
Calque 1
 62
   250
420
  2236966
370
    50
100
AcDbVertex
100
AcDb2dVertex
 10
199.4223881540832
 20
194.4243082196231
 30
0.0
  0
VERTEX
  5
1B9
330
1B7
100
AcDbEntity
  8
Calque 1
 62
   250
420
  2236966
370
    50
100
AcDbVertex
100
AcDb2dVertex
 10
199.2465590932548
 20
194.3617151410255
 30
0.0
  0
VERTEX
  5
1BA
330
1B7
100
AcDbEntity
  8
Calque 1
 62
   250
420
  2236966
370
    50
100
AcDbVertex
100
AcDb2dVertex
 10
199.0707300324263
 20
194.2991220624278
 30
0.0
  0
VERTEX
  5
1BB
330
1B7
100
AcDbEntity
  8
Calque 1
 62
   250
420
  2236966
370
    50
100
AcDbVertex
100
AcDb2dVertex
 10
198.8949009715979
 20
194.2365289838302
 30
0.0
  0
VERTEX
  5
1BC
330
1B7
100
AcDbEntity
  8
Calque 1
 62
   250
420
  2236966
370
    50
100
AcDbVertex
100
AcDb2dVertex
 10
198.7190934426162
 20
194.1739143733858
 30
0.0
  0
VERTEX
  5
1BD
330
1B7
100
AcDbEntity
  8
Calque 1
 62
   250
420
  2236966
370
    50
100
AcDbVertex
100
AcDb2dVertex
 10
198.5432643817878
 20
194.1113212947882
 30
0.0
  0
VERTEX
  5
1BE
330
1B7
100
AcDbEntity
  8
Calque 1
 62
   250
420
  2236966
370
    50
100
AcDbVertex
100
AcDb2dVertex
 10
198.3674353209594
 20
194.0487066843437
 30
0.0
  0
VERTEX
  5
1BF
330
1B7
100
AcDbEntity
  8
Calque 1
 62
   250
420
  2236966
370
    50
100
AcDbVertex
100
AcDb2dVertex
 10
198.1916062601309
 20
193.9860920738993
 30
0.0
  0
VERTEX
  5
1C0
330
1B7
100
AcDbEntity
  8
Calque 1
 62
   250
420
  2236966
370
    50
100
AcDbVertex
100
AcDb2dVertex
 10
198.0157987311493
 20
193.9234774634549
 30
0.0
  0
VERTEX
  5
1C1
330
1B7
100
AcDbEntity
  8
Calque 1
 62
   250
420
  2236966
370
    50
100
AcDbVertex
100
AcDb2dVertex
 10
197.8399696703208
 20
193.8608628530105
 30
0.0
  0
VERTEX
  5
1C2
330
1B7
100
AcDbEntity
  8
Calque 1
 62
   250
420
  2236966
370
    50
100
AcDbVertex
100
AcDb2dVertex
 10
197.6641621413392
 20
193.7982267107193
 30
0.0
  0
SEQEND
  5
1C3
330
1B7
100
AcDbEntity
  8
Calque 1
 62
   250
420
  2236966
370
    50
  0
POLYLINE
  5
1C4
330
1F
100
AcDbEntity
  8
Calque 1
 62
   250
420
  2236966
370
    50
100
AcDb2dPolyline
 66
     1
 10
0.0
 20
0.0
 30
0.0
  0
VERTEX
  5
1C5
330
1C4
100
AcDbEntity
  8
Calque 1
 62
   250
420
  2236966
370
    50
100
AcDbVertex
100
AcDb2dVertex
 10
201.3480458074104
 20
194.4709677316015
 30
0.0
  0
VERTEX
  5
1C6
330
1C4
100
AcDbEntity
  8
Calque 1
 62
   250
420
  2236966
370
    50
100
AcDbVertex
100
AcDb2dVertex
 10
201.1591038518912
 20
194.4037237740987
 30
0.0
  0
VERTEX
  5
1C7
330
1C4
100
AcDbEntity
  8
Calque 1
 62
   250
420
  2236966
370
    50
100
AcDbVertex
100
AcDb2dVertex
 10
200.970161896372
 20
194.3364582847492
 30
0.0
  0
VERTEX
  5
1C8
330
1C4
100
AcDbEntity
  8
Calque 1
 62
   250
420
  2236966
370
    50
100
AcDbVertex
100
AcDb2dVertex
 10
200.7812199408529
 20
194.2691927953997
 30
0.0
  0
VERTEX
  5
1C9
330
1C4
100
AcDbEntity
  8
Calque 1
 62
   250
420
  2236966
370
    50
100
AcDbVertex
100
AcDb2dVertex
 10
200.5922995171805
 20
194.2019273060502
 30
0.0
  0
VERTEX
  5
1CA
330
1C4
100
AcDbEntity
  8
Calque 1
 62
   250
420
  2236966
370
    50
100
AcDbVertex
100
AcDb2dVertex
 10
200.4033575616613
 20
194.1346618167007
 30
0.0
  0
VERTEX
  5
1CB
330
1C4
100
AcDbEntity
  8
Calque 1
 62
   250
420
  2236966
370
    50
100
AcDbVertex
100
AcDb2dVertex
 10
200.2144371379889
 20
194.0673747955044
 30
0.0
  0
VERTEX
  5
1CC
330
1C4
100
AcDbEntity
  8
Calque 1
 62
   250
420
  2236966
370
    50
100
AcDbVertex
100
AcDb2dVertex
 10
200.0254951824698
 20
194.0000877743082
 30
0.0
  0
VERTEX
  5
1CD
330
1C4
100
AcDbEntity
  8
Calque 1
 62
   250
420
  2236966
370
    50
100
AcDbVertex
100
AcDb2dVertex
 10
199.8365747587974
 20
193.9328222849586
 30
0.0
  0
VERTEX
  5
1CE
330
1C4
100
AcDbEntity
  8
Calque 1
 62
   250
420
  2236966
370
    50
100
AcDbVertex
100
AcDb2dVertex
 10
199.6476328032782
 20
193.8655352637624
 30
0.0
  0
VERTEX
  5
1CF
330
1C4
100
AcDbEntity
  8
Calque 1
 62
   250
420
  2236966
370
    50
100
AcDbVertex
100
AcDb2dVertex
 10
199.4587123796058
 20
193.7982267107193
 30
0.0
  0
SEQEND
  5
1D0
330
1C4
100
AcDbEntity
  8
Calque 1
 62
   250
420
  2236966
370
    50
  0
POLYLINE
  5
1D1
330
1F
100
AcDbEntity
  8
Calque 1
 62
   250
420
  2236966
370
    50
100
AcDb2dPolyline
 66
     1
 10
0.0
 20
0.0
 30
0.0
  0
VERTEX
  5
1D2
330
1D1
100
AcDbEntity
  8
Calque 1
 62
   250
420
  2236966
370
    50
100
AcDbVertex
100
AcDb2dVertex
 10
192.1584473871275
 20
191.4450542395194
 30
0.0
  0
VERTEX
  5
1D3
330
1D1
100
AcDbEntity
  8
Calque 1
 62
   250
420
  2236966
370
    50
100
AcDbVertex
100
AcDb2dVertex
 10
192.154830036868
 20
191.4525473221998
 30
0.0
  0
VERTEX
  5
1D4
330
1D1
100
AcDbEntity
  8
Calque 1
 62
   250
420
  2236966
370
    50
100
AcDbVertex
100
AcDb2dVertex
 10
192.1516648553909
 20
191.460363382582
 30
0.0
  0
VERTEX
  5
1D5
330
1D1
100
AcDbEntity
  8
Calque 1
 62
   250
420
  2236966
370
    50
100
AcDbVertex
100
AcDb2dVertex
 10
192.1489518426963
 20
191.468394761432
 30
0.0
  0
VERTEX
  5
1D6
330
1D1
100
AcDbEntity
  8
Calque 1
 62
   250
420
  2236966
370
    50
100
AcDbVertex
100
AcDb2dVertex
 10
192.1467340624776
 20
191.4766414587498
 30
0.0
  0
VERTEX
  5
1D7
330
1D1
100
AcDbEntity
  8
Calque 1
 62
   250
420
  2236966
370
    50
100
AcDbVertex
100
AcDb2dVertex
 10
192.1450545784286
 20
191.4849958153015
 30
0.0
  0
VERTEX
  5
1D8
330
1D1
100
AcDbEntity
  8
Calque 1
 62
   250
420
  2236966
370
    50
100
AcDbVertex
100
AcDb2dVertex
 10
192.1439564542427
 20
191.4934362992404
 30
0.0
  0
VERTEX
  5
1D9
330
1D1
100
AcDbEntity
  8
Calque 1
 62
   250
420
  2236966
370
    50
100
AcDbVertex
100
AcDb2dVertex
 10
192.1434396899199
 20
191.5018767831792
 30
0.0
  0
VERTEX
  5
1DA
330
1D1
100
AcDbEntity
  8
Calque 1
 62
   250
420
  2236966
370
    50
100
AcDbVertex
100
AcDb2dVertex
 10
192.1435473491538
 20
191.5102957352713
 30
0.0
  0
VERTEX
  5
1DB
330
1D1
100
AcDbEntity
  8
Calque 1
 62
   250
420
  2236966
370
    50
100
AcDbVertex
100
AcDb2dVertex
 10
192.1443440274847
 20
191.5186070281295
 30
0.0
  0
VERTEX
  5
1DC
330
1D1
100
AcDbEntity
  8
Calque 1
 62
   250
420
  2236966
370
    50
100
AcDbVertex
100
AcDb2dVertex
 10
192.145808193066
 20
191.5267675980602
 30
0.0
  0
SEQEND
  5
1DD
330
1D1
100
AcDbEntity
  8
Calque 1
 62
   250
420
  2236966
370
    50
  0
POLYLINE
  5
1DE
330
1F
100
AcDbEntity
  8
Calque 1
 62
   250
420
  2236966
370
    50
100
AcDb2dPolyline
 66
     1
 10
0.0
 20
0.0
 30
0.0
  0
VERTEX
  5
1DF
330
1DE
100
AcDbEntity
  8
Calque 1
 62
   250
420
  2236966
370
    50
100
AcDbVertex
100
AcDb2dVertex
 10
192.145808193066
 20
191.5267675980602
 30
0.0
  0
VERTEX
  5
1E0
330
1DE
100
AcDbEntity
  8
Calque 1
 62
   250
420
  2236966
370
    50
100
AcDbVertex
100
AcDb2dVertex
 10
192.1514495369231
 20
191.5451342633659
 30
0.0
  0
VERTEX
  5
1E1
330
1DE
100
AcDbEntity
  8
Calque 1
 62
   250
420
  2236966
370
    50
100
AcDbVertex
100
AcDb2dVertex
 10
192.1722062372217
 20
191.5835040143329
 30
0.0
  0
VERTEX
  5
1E2
330
1DE
100
AcDbEntity
  8
Calque 1
 62
   250
420
  2236966
370
    50
100
AcDbVertex
100
AcDb2dVertex
 10
192.1998100647973
 20
191.6182994787339
 30
0.0
  0
VERTEX
  5
1E3
330
1DE
100
AcDbEntity
  8
Calque 1
 62
   250
420
  2236966
370
    50
100
AcDbVertex
100
AcDb2dVertex
 10
192.2147746983113
 20
191.6348359370631
 30
0.0
  0
VERTEX
  5
1E4
330
1DE
100
AcDbEntity
  8
Calque 1
 62
   250
420
  2236966
370
    50
100
AcDbVertex
100
AcDb2dVertex
 10
192.2452853252026
 20
191.6658417964303
 30
0.0
  0
VERTEX
  5
1E5
330
1DE
100
AcDbEntity
  8
Calque 1
 62
   250
420
  2236966
370
    50
100
AcDbVertex
100
AcDb2dVertex
 10
192.2768510125862
 20
191.6954050220631
 30
0.0
  0
VERTEX
  5
1E6
330
1DE
100
AcDbEntity
  8
Calque 1
 62
   250
420
  2236966
370
    50
100
AcDbVertex
100
AcDb2dVertex
 10
192.2784228374013
 20
191.6968476557976
 30
0.0
  0
VERTEX
  5
1E7
330
1DE
100
AcDbEntity
  8
Calque 1
 62
   250
420
  2236966
370
    50
100
AcDbVertex
100
AcDb2dVertex
 10
192.3108067349627
 20
191.725657266793
 30
0.0
  0
VERTEX
  5
1E8
330
1DE
100
AcDbEntity
  8
Calque 1
 62
   250
420
  2236966
370
    50
100
AcDbVertex
100
AcDb2dVertex
 10
192.3437935242339
 20
191.7539716453124
 30
0.0
  0
VERTEX
  5
1E9
330
1DE
100
AcDbEntity
  8
Calque 1
 62
   250
420
  2236966
370
    50
100
AcDbVertex
100
AcDb2dVertex
 10
192.3772540141344
 20
191.7818553868961
 30
0.0
  0
VERTEX
  5
1EA
330
1DE
100
AcDbEntity
  8
Calque 1
 62
   250
420
  2236966
370
    50
100
AcDbVertex
100
AcDb2dVertex
 10
192.4110159498899
 20
191.8093730870846
 30
0.0
  0
VERTEX
  5
1EB
330
1DE
100
AcDbEntity
  8
Calque 1
 62
   250
420
  2236966
370
    50
100
AcDbVertex
100
AcDb2dVertex
 10
192.4449501404196
 20
191.8366539369584
 30
0.0
  0
SEQEND
  5
1EC
330
1DE
100
AcDbEntity
  8
Calque 1
 62
   250
420
  2236966
370
    50
  0
POLYLINE
  5
1ED
330
1F
100
AcDbEntity
  8
Calque 1
 62
   250
420
  2236966
370
    50
100
AcDb2dPolyline
 66
     1
 10
0.0
 20
0.0
 30
0.0
  0
VERTEX
  5
1EE
330
1ED
100
AcDbEntity
  8
Calque 1
 62
   250
420
  2236966
370
    50
100
AcDbVertex
100
AcDb2dVertex
 10
197.6278379158166
 20
193.9002015370827
 30
0.0
  0
VERTEX
  5
1EF
330
1ED
100
AcDbEntity
  8
Calque 1
 62
   250
420
  2236966
370
    50
100
AcDbVertex
100
AcDb2dVertex
 10
197.8036454447982
 20
193.9628376793739
 30
0.0
  0
VERTEX
  5
1F0
330
1ED
100
AcDbEntity
  8
Calque 1
 62
   250
420
  2236966
370
    50
100
AcDbVertex
100
AcDb2dVertex
 10
197.9794745056267
 20
194.0254522898183
 30
0.0
  0
VERTEX
  5
1F1
330
1ED
100
AcDbEntity
  8
Calque 1
 62
   250
420
  2236966
370
    50
100
AcDbVertex
100
AcDb2dVertex
 10
198.1553035664551
 20
194.0880669002627
 30
0.0
  0
VERTEX
  5
1F2
330
1ED
100
AcDbEntity
  8
Calque 1
 62
   250
420
  2236966
370
    50
100
AcDbVertex
100
AcDb2dVertex
 10
198.3311110954368
 20
194.1506815107071
 30
0.0
  0
VERTEX
  5
1F3
330
1ED
100
AcDbEntity
  8
Calque 1
 62
   250
420
  2236966
370
    50
100
AcDbVertex
100
AcDb2dVertex
 10
198.5069401562652
 20
194.2132961211516
 30
0.0
  0
VERTEX
  5
1F4
330
1ED
100
AcDbEntity
  8
Calque 1
 62
   250
420
  2236966
370
    50
100
AcDbVertex
100
AcDb2dVertex
 10
198.6827692170936
 20
194.275910731596
 30
0.0
  0
VERTEX
  5
1F5
330
1ED
100
AcDbEntity
  8
Calque 1
 62
   250
420
  2236966
370
    50
100
AcDbVertex
100
AcDb2dVertex
 10
198.8585982779221
 20
194.3385038101936
 30
0.0
  0
VERTEX
  5
1F6
330
1ED
100
AcDbEntity
  8
Calque 1
 62
   250
420
  2236966
370
    50
100
AcDbVertex
100
AcDb2dVertex
 10
199.0344273387505
 20
194.4010968887912
 30
0.0
  0
VERTEX
  5
1F7
330
1ED
100
AcDbEntity
  8
Calque 1
 62
   250
420
  2236966
370
    50
100
AcDbVertex
100
AcDb2dVertex
 10
199.210256399579
 20
194.4637114992356
 30
0.0
  0
VERTEX
  5
1F8
330
1ED
100
AcDbEntity
  8
Calque 1
 62
   250
420
  2236966
370
    50
100
AcDbVertex
100
AcDb2dVertex
 10
199.3860854604074
 20
194.5263045778333
 30
0.0
  0
SEQEND
  5
1F9
330
1ED
100
AcDbEntity
  8
Calque 1
 62
   250
420
  2236966
370
    50
  0
POLYLINE
  5
1FA
330
1F
100
AcDbEntity
  8
Calque 1
 62
   250
420
  2236966
370
    50
100
AcDb2dPolyline
 66
     1
 10
0.0
 20
0.0
 30
0.0
  0
VERTEX
  5
1FB
330
1FA
100
AcDbEntity
  8
Calque 1
 62
   250
420
  2236966
370
    50
100
AcDbVertex
100
AcDb2dVertex
 10
216.6892067261554
 20
189.2634259916381
 30
0.0
  0
VERTEX
  5
1FC
330
1FA
100
AcDbEntity
  8
Calque 1
 62
   250
420
  2236966
370
    50
100
AcDbVertex
100
AcDb2dVertex
 10
216.2458229372037
 20
189.2679907431561
 30
0.0
  0
VERTEX
  5
1FD
330
1FA
100
AcDbEntity
  8
Calque 1
 62
   250
420
  2236966
370
    50
100
AcDbVertex
100
AcDb2dVertex
 10
215.8024606800989
 20
189.2725770265208
 30
0.0
  0
VERTEX
  5
1FE
330
1FA
100
AcDbEntity
  8
Calque 1
 62
   250
420
  2236966
370
    50
100
AcDbVertex
100
AcDb2dVertex
 10
215.3590768911472
 20
189.2771417780388
 30
0.0
  0
VERTEX
  5
1FF
330
1FA
100
AcDbEntity
  8
Calque 1
 62
   250
420
  2236966
370
    50
100
AcDbVertex
100
AcDb2dVertex
 10
214.9157146340424
 20
189.2817280614035
 30
0.0
  0
VERTEX
  5
200
330
1FA
100
AcDbEntity
  8
Calque 1
 62
   250
420
  2236966
370
    50
100
AcDbVertex
100
AcDb2dVertex
 10
214.4723308450907
 20
189.2862928129215
 30
0.0
  0
VERTEX
  5
201
330
1FA
100
AcDbEntity
  8
Calque 1
 62
   250
420
  2236966
370
    50
100
AcDbVertex
100
AcDb2dVertex
 10
214.0289685879858
 20
189.2908575644394
 30
0.0
  0
VERTEX
  5
202
330
1FA
100
AcDbEntity
  8
Calque 1
 62
   250
420
  2236966
370
    50
100
AcDbVertex
100
AcDb2dVertex
 10
213.5855847990342
 20
189.2954438478042
 30
0.0
  0
VERTEX
  5
203
330
1FA
100
AcDbEntity
  8
Calque 1
 62
   250
420
  2236966
370
    50
100
AcDbVertex
100
AcDb2dVertex
 10
213.1422010100825
 20
189.3000085993222
 30
0.0
  0
VERTEX
  5
204
330
1FA
100
AcDbEntity
  8
Calque 1
 62
   250
420
  2236966
370
    50
100
AcDbVertex
100
AcDb2dVertex
 10
212.6988387529777
 20
189.3045948826869
 30
0.0
  0
VERTEX
  5
205
330
1FA
100
AcDbEntity
  8
Calque 1
 62
   250
420
  2236966
370
    50
100
AcDbVertex
100
AcDb2dVertex
 10
212.255454964026
 20
189.3091811660516
 30
0.0
  0
SEQEND
  5
206
330
1FA
100
AcDbEntity
  8
Calque 1
 62
   250
420
  2236966
370
    50
  0
POLYLINE
  5
207
330
1F
100
AcDbEntity
  8
Calque 1
 62
   250
420
  2236966
370
    50
100
AcDb2dPolyline
 66
     1
 10
0.0
 20
0.0
 30
0.0
  0
VERTEX
  5
208
330
207
100
AcDbEntity
  8
Calque 1
 62
   250
420
  2236966
370
    50
100
AcDbVertex
100
AcDb2dVertex
 10
203.0198860508618
 20
193.9002015370827
 30
0.0
  0
VERTEX
  5
209
330
207
100
AcDbEntity
  8
Calque 1
 62
   250
420
  2236966
370
    50
100
AcDbVertex
100
AcDb2dVertex
 10
203.192765248681
 20
193.9753261505079
 30
0.0
  0
VERTEX
  5
20A
330
207
100
AcDbEntity
  8
Calque 1
 62
   250
420
  2236966
370
    50
100
AcDbVertex
100
AcDb2dVertex
 10
203.3656229146534
 20
194.0504292320864
 30
0.0
  0
VERTEX
  5
20B
330
207
100
AcDbEntity
  8
Calque 1
 62
   250
420
  2236966
370
    50
100
AcDbVertex
100
AcDb2dVertex
 10
203.5384805806258
 20
194.125510781818
 30
0.0
  0
VERTEX
  5
20C
330
207
100
AcDbEntity
  8
Calque 1
 62
   250
420
  2236966
370
    50
100
AcDbVertex
100
AcDb2dVertex
 10
203.7113382465982
 20
194.2006138633965
 30
0.0
  0
VERTEX
  5
20D
330
207
100
AcDbEntity
  8
Calque 1
 62
   250
420
  2236966
370
    50
100
AcDbVertex
100
AcDb2dVertex
 10
203.8842174444174
 20
194.2756954131281
 30
0.0
  0
VERTEX
  5
20E
330
207
100
AcDbEntity
  8
Calque 1
 62
   250
420
  2236966
370
    50
100
AcDbVertex
100
AcDb2dVertex
 10
204.0570966422366
 20
194.3507769628598
 30
0.0
  0
VERTEX
  5
20F
330
207
100
AcDbEntity
  8
Calque 1
 62
   250
420
  2236966
370
    50
100
AcDbVertex
100
AcDb2dVertex
 10
204.229954308209
 20
194.4258585125915
 30
0.0
  0
VERTEX
  5
210
330
207
100
AcDbEntity
  8
Calque 1
 62
   250
420
  2236966
370
    50
100
AcDbVertex
100
AcDb2dVertex
 10
204.4028335060282
 20
194.5009400623231
 30
0.0
  0
VERTEX
  5
211
330
207
100
AcDbEntity
  8
Calque 1
 62
   250
420
  2236966
370
    50
100
AcDbVertex
100
AcDb2dVertex
 10
204.5757127038474
 20
194.5760216120548
 30
0.0
  0
VERTEX
  5
212
330
207
100
AcDbEntity
  8
Calque 1
 62
   250
420
  2236966
370
    50
100
AcDbVertex
100
AcDb2dVertex
 10
204.7485919016666
 20
194.6510816299397
 30
0.0
  0
SEQEND
  5
213
330
207
100
AcDbEntity
  8
Calque 1
 62
   250
420
  2236966
370
    50
  0
POLYLINE
  5
214
330
1F
100
AcDbEntity
  8
Calque 1
 62
   250
420
  2236966
370
    50
100
AcDb2dPolyline
 66
     1
 10
0.0
 20
0.0
 30
0.0
  0
VERTEX
  5
215
330
214
100
AcDbEntity
  8
Calque 1
 62
   250
420
  2236966
370
    50
100
AcDbVertex
100
AcDb2dVertex
 10
195.9554593761956
 20
193.9002015370827
 30
0.0
  0
VERTEX
  5
216
330
214
100
AcDbEntity
  8
Calque 1
 62
   250
420
  2236966
370
    50
100
AcDbVertex
100
AcDb2dVertex
 10
196.1190583480514
 20
193.9584882463238
 30
0.0
  0
VERTEX
  5
217
330
214
100
AcDbEntity
  8
Calque 1
 62
   250
420
  2236966
370
    50
100
AcDbVertex
100
AcDb2dVertex
 10
196.2826573199072
 20
194.016753423718
 30
0.0
  0
VERTEX
  5
218
330
214
100
AcDbEntity
  8
Calque 1
 62
   250
420
  2236966
370
    50
100
AcDbVertex
100
AcDb2dVertex
 10
196.4462778236098
 20
194.0750186011123
 30
0.0
  0
VERTEX
  5
219
330
214
100
AcDbEntity
  8
Calque 1
 62
   250
420
  2236966
370
    50
100
AcDbVertex
100
AcDb2dVertex
 10
196.6098767954656
 20
194.1332837785066
 30
0.0
  0
VERTEX
  5
21A
330
214
100
AcDbEntity
  8
Calque 1
 62
   250
420
  2236966
370
    50
100
AcDbVertex
100
AcDb2dVertex
 10
196.7734757673214
 20
194.1915489559009
 30
0.0
  0
VERTEX
  5
21B
330
214
100
AcDbEntity
  8
Calque 1
 62
   250
420
  2236966
370
    50
100
AcDbVertex
100
AcDb2dVertex
 10
196.937096271024
 20
194.2497926014484
 30
0.0
  0
VERTEX
  5
21C
330
214
100
AcDbEntity
  8
Calque 1
 62
   250
420
  2236966
370
    50
100
AcDbVertex
100
AcDb2dVertex
 10
197.1006952428798
 20
194.3080577788427
 30
0.0
  0
VERTEX
  5
21D
330
214
100
AcDbEntity
  8
Calque 1
 62
   250
420
  2236966
370
    50
100
AcDbVertex
100
AcDb2dVertex
 10
197.2643157465824
 20
194.3663014243902
 30
0.0
  0
VERTEX
  5
21E
330
214
100
AcDbEntity
  8
Calque 1
 62
   250
420
  2236966
370
    50
100
AcDbVertex
100
AcDb2dVertex
 10
197.4279147184382
 20
194.4245666017845
 30
0.0
  0
VERTEX
  5
21F
330
214
100
AcDbEntity
  8
Calque 1
 62
   250
420
  2236966
370
    50
100
AcDbVertex
100
AcDb2dVertex
 10
197.5915352221407
 20
194.482810247332
 30
0.0
  0
SEQEND
  5
220
330
214
100
AcDbEntity
  8
Calque 1
 62
   250
420
  2236966
370
    50
  0
POLYLINE
  5
221
330
1F
100
AcDbEntity
  8
Calque 1
 62
   250
420
  2236966
370
    50
100
AcDb2dPolyline
 66
     1
 10
0.0
 20
0.0
 30
0.0
  0
VERTEX
  5
222
330
221
100
AcDbEntity
  8
Calque 1
 62
   250
420
  2236966
370
    50
100
AcDbVertex
100
AcDb2dVertex
 10
199.4223881540832
 20
193.9002015370827
 30
0.0
  0
VERTEX
  5
223
330
221
100
AcDbEntity
  8
Calque 1
 62
   250
420
  2236966
370
    50
100
AcDbVertex
100
AcDb2dVertex
 10
199.6113085777556
 20
193.9675100901258
 30
0.0
  0
VERTEX
  5
224
330
221
100
AcDbEntity
  8
Calque 1
 62
   250
420
  2236966
370
    50
100
AcDbVertex
100
AcDb2dVertex
 10
199.8002505332748
 20
194.034797111322
 30
0.0
  0
VERTEX
  5
225
330
221
100
AcDbEntity
  8
Calque 1
 62
   250
420
  2236966
370
    50
100
AcDbVertex
100
AcDb2dVertex
 10
199.9891709569472
 20
194.1020841325183
 30
0.0
  0
VERTEX
  5
226
330
221
100
AcDbEntity
  8
Calque 1
 62
   250
420
  2236966
370
    50
100
AcDbVertex
100
AcDb2dVertex
 10
200.1781129124663
 20
194.1693496218678
 30
0.0
  0
VERTEX
  5
227
330
221
100
AcDbEntity
  8
Calque 1
 62
   250
420
  2236966
370
    50
100
AcDbVertex
100
AcDb2dVertex
 10
200.3670548679855
 20
194.2366366430641
 30
0.0
  0
VERTEX
  5
228
330
221
100
AcDbEntity
  8
Calque 1
 62
   250
420
  2236966
370
    50
100
AcDbVertex
100
AcDb2dVertex
 10
200.5559752916579
 20
194.3039021324136
 30
0.0
  0
VERTEX
  5
229
330
221
100
AcDbEntity
  8
Calque 1
 62
   250
420
  2236966
370
    50
100
AcDbVertex
100
AcDb2dVertex
 10
200.7449172471771
 20
194.3711676217631
 30
0.0
  0
VERTEX
  5
22A
330
221
100
AcDbEntity
  8
Calque 1
 62
   250
420
  2236966
370
    50
100
AcDbVertex
100
AcDb2dVertex
 10
200.9338592026962
 20
194.4384331111126
 30
0.0
  0
VERTEX
  5
22B
330
221
100
AcDbEntity
  8
Calque 1
 62
   250
420
  2236966
370
    50
100
AcDbVertex
100
AcDb2dVertex
 10
201.1228011582154
 20
194.5056986004621
 30
0.0
  0
VERTEX
  5
22C
330
221
100
AcDbEntity
  8
Calque 1
 62
   250
420
  2236966
370
    50
100
AcDbVertex
100
AcDb2dVertex
 10
201.3117431137346
 20
194.5729640898116
 30
0.0
  0
SEQEND
  5
22D
330
221
100
AcDbEntity
  8
Calque 1
 62
   250
420
  2236966
370
    50
  0
POLYLINE
  5
22E
330
1F
100
AcDbEntity
  8
Calque 1
 62
   250
420
  2236966
370
    50
100
AcDb2dPolyline
 66
     1
 10
0.0
 20
0.0
 30
0.0
  0
VERTEX
  5
22F
330
22E
100
AcDbEntity
  8
Calque 1
 62
   250
420
  2236966
370
    50
100
AcDbVertex
100
AcDb2dVertex
 10
201.3480458074104
 20
193.9002015370827
 30
0.0
  0
VERTEX
  5
230
330
22E
100
AcDbEntity
  8
Calque 1
 62
   250
420
  2236966
370
    50
100
AcDbVertex
100
AcDb2dVertex
 10
201.5110203557095
 20
193.9710197811513
 30
0.0
  0
VERTEX
  5
231
330
22E
100
AcDbEntity
  8
Calque 1
 62
   250
420
  2236966
370
    50
100
AcDbVertex
100
AcDb2dVertex
 10
201.6739949040086
 20
194.04183802522
 30
0.0
  0
VERTEX
  5
232
330
22E
100
AcDbEntity
  8
Calque 1
 62
   250
420
  2236966
370
    50
100
AcDbVertex
100
AcDb2dVertex
 10
201.8369909841545
 20
194.1126347374419
 30
0.0
  0
VERTEX
  5
233
330
22E
100
AcDbEntity
  8
Calque 1
 62
   250
420
  2236966
370
    50
100
AcDbVertex
100
AcDb2dVertex
 10
201.9999655324536
 20
194.1834529815106
 30
0.0
  0
VERTEX
  5
234
330
22E
100
AcDbEntity
  8
Calque 1
 62
   250
420
  2236966
370
    50
100
AcDbVertex
100
AcDb2dVertex
 10
202.1629616125994
 20
194.2542496937324
 30
0.0
  0
VERTEX
  5
235
330
22E
100
AcDbEntity
  8
Calque 1
 62
   250
420
  2236966
370
    50
100
AcDbVertex
100
AcDb2dVertex
 10
202.3259361608986
 20
194.3250464059543
 30
0.0
  0
VERTEX
  5
236
330
22E
100
AcDbEntity
  8
Calque 1
 62
   250
420
  2236966
370
    50
100
AcDbVertex
100
AcDb2dVertex
 10
202.4889322410444
 20
194.3958215863294
 30
0.0
  0
VERTEX
  5
237
330
22E
100
AcDbEntity
  8
Calque 1
 62
   250
420
  2236966
370
    50
100
AcDbVertex
100
AcDb2dVertex
 10
202.6519283211903
 20
194.4666182985513
 30
0.0
  0
VERTEX
  5
238
330
22E
100
AcDbEntity
  8
Calque 1
 62
   250
420
  2236966
370
    50
100
AcDbVertex
100
AcDb2dVertex
 10
202.8149244013362
 20
194.5373934789264
 30
0.0
  0
VERTEX
  5
239
330
22E
100
AcDbEntity
  8
Calque 1
 62
   250
420
  2236966
370
    50
100
AcDbVertex
100
AcDb2dVertex
 10
202.9779204814821
 20
194.6081686593015
 30
0.0
  0
SEQEND
  5
23A
330
22E
100
AcDbEntity
  8
Calque 1
 62
   250
420
  2236966
370
    50
  0
POLYLINE
  5
23B
330
1F
100
AcDbEntity
  8
Calque 1
 62
   250
420
  2236966
370
    50
100
AcDb2dPolyline
 66
     1
 10
0.0
 20
0.0
 30
0.0
  0
VERTEX
  5
23C
330
23B
100
AcDbEntity
  8
Calque 1
 62
   250
420
  2236966
370
    50
100
AcDbVertex
100
AcDb2dVertex
 10
192.4449501404196
 20
191.8366539369584
 30
0.0
  0
VERTEX
  5
23D
330
23B
100
AcDbEntity
  8
Calque 1
 62
   250
420
  2236966
370
    50
100
AcDbVertex
100
AcDb2dVertex
 10
192.5276970276059
 20
191.9021968785653
 30
0.0
  0
VERTEX
  5
23E
330
23B
100
AcDbEntity
  8
Calque 1
 62
   250
420
  2236966
370
    50
100
AcDbVertex
100
AcDb2dVertex
 10
192.8651656622329
 20
192.1603421896444
 30
0.0
  0
VERTEX
  5
23F
330
23B
100
AcDbEntity
  8
Calque 1
 62
   250
420
  2236966
370
    50
100
AcDbVertex
100
AcDb2dVertex
 10
192.9499365430169
 20
192.2241625835086
 30
0.0
  0
VERTEX
  5
240
330
23B
100
AcDbEntity
  8
Calque 1
 62
   250
420
  2236966
370
    50
100
AcDbVertex
100
AcDb2dVertex
 10
193.2899459355642
 20
192.4788843309493
 30
0.0
  0
VERTEX
  5
241
330
23B
100
AcDbEntity
  8
Calque 1
 62
   250
420
  2236966
370
    50
100
AcDbVertex
100
AcDb2dVertex
 10
193.4603274391566
 20
192.6059868225082
 30
0.0
  0
VERTEX
  5
242
330
23B
100
AcDbEntity
  8
Calque 1
 62
   250
420
  2236966
370
    50
100
AcDbVertex
100
AcDb2dVertex
 10
193.8012196374221
 20
192.8595458502226
 30
0.0
  0
VERTEX
  5
243
330
23B
100
AcDbEntity
  8
Calque 1
 62
   250
420
  2236966
370
    50
100
AcDbVertex
100
AcDb2dVertex
 10
194.1424348133893
 20
193.1126957728481
 30
0.0
  0
VERTEX
  5
244
330
23B
100
AcDbEntity
  8
Calque 1
 62
   250
420
  2236966
370
    50
100
AcDbVertex
100
AcDb2dVertex
 10
194.3132900176109
 20
193.2393676274714
 30
0.0
  0
VERTEX
  5
245
330
23B
100
AcDbEntity
  8
Calque 1
 62
   250
420
  2236966
370
    50
100
AcDbVertex
100
AcDb2dVertex
 10
194.6546343846588
 20
193.4923237634759
 30
0.0
  0
VERTEX
  5
246
330
23B
100
AcDbEntity
  8
Calque 1
 62
   250
420
  2236966
370
    50
100
AcDbVertex
100
AcDb2dVertex
 10
194.9960433472471
 20
193.7451722402464
 30
0.0
  0
VERTEX
  5
247
330
23B
100
AcDbEntity
  8
Calque 1
 62
   250
420
  2236966
370
    50
100
AcDbVertex
100
AcDb2dVertex
 10
195.1670277425494
 20
193.8717794993294
 30
0.0
  0
VERTEX
  5
248
330
23B
100
AcDbEntity
  8
Calque 1
 62
   250
420
  2236966
370
    50
100
AcDbVertex
100
AcDb2dVertex
 10
195.5085228325248
 20
194.124520316866
 30
0.0
  0
VERTEX
  5
249
330
23B
100
AcDbEntity
  8
Calque 1
 62
   250
420
  2236966
370
    50
100
AcDbVertex
100
AcDb2dVertex
 10
195.8500609861937
 20
194.3772180707091
 30
0.0
  0
SEQEND
  5
24A
330
23B
100
AcDbEntity
  8
Calque 1
 62
   250
420
  2236966
370
    50
  0
POLYLINE
  5
24B
330
1F
100
AcDbEntity
  8
Calque 1
 62
   250
420
  2236966
370
    50
100
AcDb2dPolyline
 66
     1
 10
0.0
 20
0.0
 30
0.0
  0
VERTEX
  5
24C
330
24B
100
AcDbEntity
  8
Calque 1
 62
   250
420
  2236966
370
    50
100
AcDbVertex
100
AcDb2dVertex
 10
1219.955423007728
 20
181.9450527160155
 30
0.0
  0
VERTEX
  5
24D
330
24B
100
AcDbEntity
  8
Calque 1
 62
   250
420
  2236966
370
    50
100
AcDbVertex
100
AcDb2dVertex
 10
1223.655455558887
 20
181.9450527160155
 30
0.0
  0
SEQEND
  5
24E
330
24B
100
AcDbEntity
  8
Calque 1
 62
   250
420
  2236966
370
    50
  0
POLYLINE
  5
24F
330
1F
100
AcDbEntity
  8
Calque 1
 62
   250
420
  2236966
370
    50
100
AcDb2dPolyline
 66
     1
 10
0.0
 20
0.0
 30
0.0
  0
VERTEX
  5
250
330
24F
100
AcDbEntity
  8
Calque 1
 62
   250
420
  2236966
370
    50
100
AcDbVertex
100
AcDb2dVertex
 10
1223.955437248265
 20
182.2450559372404
 30
0.0
  0
VERTEX
  5
251
330
24F
100
AcDbEntity
  8
Calque 1
 62
   250
420
  2236966
370
    50
100
AcDbVertex
100
AcDb2dVertex
 10
1219.955423007728
 20
182.2450559372404
 30
0.0
  0
SEQEND
  5
252
330
24F
100
AcDbEntity
  8
Calque 1
 62
   250
420
  2236966
370
    50
  0
POLYLINE
  5
253
330
1F
100
AcDbEntity
  8
Calque 1
 62
   250
420
  2236966
370
    50
100
AcDb2dPolyline
 66
     1
 10
0.0
 20
0.0
 30
0.0
  0
VERTEX
  5
254
330
253
100
AcDbEntity
  8
Calque 1
 62
   250
420
  2236966
370
    50
100
AcDbVertex
100
AcDb2dVertex
 10
1219.955423007728
 20
200.6450525417984
 30
0.0
  0
VERTEX
  5
255
330
253
100
AcDbEntity
  8
Calque 1
 62
   250
420
  2236966
370
    50
100
AcDbVertex
100
AcDb2dVertex
 10
1223.955437248265
 20
200.6450525417984
 30
0.0
  0
SEQEND
  5
256
330
253
100
AcDbEntity
  8
Calque 1
 62
   250
420
  2236966
370
    50
  0
POLYLINE
  5
257
330
1F
100
AcDbEntity
  8
Calque 1
 62
   250
420
  2236966
370
    50
100
AcDb2dPolyline
 66
     1
 10
0.0
 20
0.0
 30
0.0
  0
VERTEX
  5
258
330
257
100
AcDbEntity
  8
Calque 1
 62
   250
420
  2236966
370
    50
100
AcDbVertex
100
AcDb2dVertex
 10
1223.655455558887
 20
200.9450557630233
 30
0.0
  0
VERTEX
  5
259
330
257
100
AcDbEntity
  8
Calque 1
 62
   250
420
  2236966
370
    50
100
AcDbVertex
100
AcDb2dVertex
 10
1219.955423007728
 20
200.9450557630233
 30
0.0
  0
SEQEND
  5
25A
330
257
100
AcDbEntity
  8
Calque 1
 62
   250
420
  2236966
370
    50
  0
POLYLINE
  5
25B
330
1F
100
AcDbEntity
  8
Calque 1
 62
   250
420
  2236966
370
    50
100
AcDb2dPolyline
 66
     1
 10
0.0
 20
0.0
 30
0.0
  0
VERTEX
  5
25C
330
25B
100
AcDbEntity
  8
Calque 1
 62
   250
420
  2236966
370
    50
100
AcDbVertex
100
AcDb2dVertex
 10
1219.955423007728
 20
181.9450527160155
 30
0.0
  0
VERTEX
  5
25D
330
25B
100
AcDbEntity
  8
Calque 1
 62
   250
420
  2236966
370
    50
100
AcDbVertex
100
AcDb2dVertex
 10
1219.955423007728
 20
200.9450557630233
 30
0.0
  0
SEQEND
  5
25E
330
25B
100
AcDbEntity
  8
Calque 1
 62
   250
420
  2236966
370
    50
  0
POLYLINE
  5
25F
330
1F
100
AcDbEntity
  8
Calque 1
 62
   250
420
  2236966
370
    50
100
AcDb2dPolyline
 66
     1
 10
0.0
 20
0.0
 30
0.0
  0
VERTEX
  5
260
330
25F
100
AcDbEntity
  8
Calque 1
 62
   250
420
  2236966
370
    50
100
AcDbVertex
100
AcDb2dVertex
 10
1223.655455558887
 20
200.9450557630233
 30
0.0
  0
VERTEX
  5
261
330
25F
100
AcDbEntity
  8
Calque 1
 62
   250
420
  2236966
370
    50
100
AcDbVertex
100
AcDb2dVertex
 10
1223.655455558887
 20
181.9450527160155
 30
0.0
  0
SEQEND
  5
262
330
25F
100
AcDbEntity
  8
Calque 1
 62
   250
420
  2236966
370
    50
  0
POLYLINE
  5
263
330
1F
100
AcDbEntity
  8
Calque 1
 62
   250
420
  2236966
370
    50
100
AcDb2dPolyline
 66
     1
 10
0.0
 20
0.0
 30
0.0
  0
VERTEX
  5
264
330
263
100
AcDbEntity
  8
Calque 1
 62
   250
420
  2236966
370
    50
100
AcDbVertex
100
AcDb2dVertex
 10
1223.955437248265
 20
182.2450559372404
 30
0.0
  0
VERTEX
  5
265
330
263
100
AcDbEntity
  8
Calque 1
 62
   250
420
  2236966
370
    50
100
AcDbVertex
100
AcDb2dVertex
 10
1223.955437248265
 20
200.6450525417984
 30
0.0
  0
SEQEND
  5
266
330
263
100
AcDbEntity
  8
Calque 1
 62
   250
420
  2236966
370
    50
  0
SPLINE
  5
267
330
1F
100
AcDbEntity
  8
Calque 1
 62
   250
420
  2236966
370
    50
100
AcDbSpline
210
0.0
220
0.0
230
1.0
 70
     8
 71
     3
 72
     8
 73
     4
 74
     0
 42
0.0000000001
 43
0.0000000001
 12
1.0
 22
0.0
 32
0.0
 13
1.0
 23
0.0
 33
0.0
 40
0.0
 40
0.0
 40
0.0
 40
0.0
 40
1.0
 40
1.0
 40
1.0
 40
1.0
 10
1223.955437248265
 20
200.6450525417984
 30
0.0
 10
1223.955437248265
 20
200.8107401027921
 30
0.0
 10
1223.821164651727
 20
200.9450557630233
 30
0.0
 10
1223.655455558887
 20
200.9450557630233
 30
0.0
  0
SPLINE
  5
268
330
1F
100
AcDbEntity
  8
Calque 1
 62
   250
420
  2236966
370
    50
100
AcDbSpline
210
0.0
220
0.0
230
1.0
 70
     8
 71
     3
 72
     8
 73
     4
 74
     0
 42
0.0000000001
 43
0.0000000001
 12
1.0
 22
0.0
 32
0.0
 13
1.0
 23
0.0
 33
0.0
 40
0.0
 40
0.0
 40
0.0
 40
0.0
 40
1.0
 40
1.0
 40
1.0
 40
1.0
 10
1223.655455558887
 20
181.9450527160155
 30
0.0
 10
1223.821164651727
 20
181.9450527160155
 30
0.0
 10
1223.955437248265
 20
182.0793683762467
 30
0.0
 10
1223.955437248265
 20
182.2450559372404
 30
0.0
  0
POLYLINE
  5
269
330
1F
100
AcDbEntity
  8
Calque 1
 62
   250
420
  2236966
370
    50
100
AcDb2dPolyline
 66
     1
 10
0.0
 20
0.0
 30
0.0
  0
VERTEX
  5
26A
330
269
100
AcDbEntity
  8
Calque 1
 62
   250
420
  2236966
370
    50
100
AcDbVertex
100
AcDb2dVertex
 10
221.9554658122954
 20
181.9450527160155
 30
0.0
  0
VERTEX
  5
26B
330
269
100
AcDbEntity
  8
Calque 1
 62
   250
420
  2236966
370
    50
100
AcDbVertex
100
AcDb2dVertex
 10
221.9554658122954
 20
200.9450557630233
 30
0.0
  0
SEQEND
  5
26C
330
269
100
AcDbEntity
  8
Calque 1
 62
   250
420
  2236966
370
    50
  0
POLYLINE
  5
26D
330
1F
100
AcDbEntity
  8
Calque 1
 62
   250
420
  2236966
370
    50
100
AcDb2dPolyline
 66
     1
 10
0.0
 20
0.0
 30
0.0
  0
VERTEX
  5
26E
330
26D
100
AcDbEntity
  8
Calque 1
 62
   250
420
  2236966
370
    50
100
AcDbVertex
100
AcDb2dVertex
 10
221.9554658122954
 20
181.9450527160155
 30
0.0
  0
VERTEX
  5
26F
330
26D
100
AcDbEntity
  8
Calque 1
 62
   250
420
  2236966
370
    50
100
AcDbVertex
100
AcDb2dVertex
 10
1197.455418266174
 20
181.9450527160155
 30
0.0
  0
SEQEND
  5
270
330
26D
100
AcDbEntity
  8
Calque 1
 62
   250
420
  2236966
370
    50
  0
POLYLINE
  5
271
330
1F
100
AcDbEntity
  8
Calque 1
 62
   250
420
  2236966
370
    50
100
AcDb2dPolyline
 66
     1
 10
0.0
 20
0.0
 30
0.0
  0
VERTEX
  5
272
330
271
100
AcDbEntity
  8
Calque 1
 62
   250
420
  2236966
370
    50
100
AcDbVertex
100
AcDb2dVertex
 10
1207.955466413506
 20
181.9450527160155
 30
0.0
  0
VERTEX
  5
273
330
271
100
AcDbEntity
  8
Calque 1
 62
   250
420
  2236966
370
    50
100
AcDbVertex
100
AcDb2dVertex
 10
1219.955423007728
 20
181.9450527160155
 30
0.0
  0
SEQEND
  5
274
330
271
100
AcDbEntity
  8
Calque 1
 62
   250
420
  2236966
370
    50
  0
POLYLINE
  5
275
330
1F
100
AcDbEntity
  8
Calque 1
 62
   250
420
  2236966
370
    50
100
AcDb2dPolyline
 66
     1
 10
0.0
 20
0.0
 30
0.0
  0
VERTEX
  5
276
330
275
100
AcDbEntity
  8
Calque 1
 62
   250
420
  2236966
370
    50
100
AcDbVertex
100
AcDb2dVertex
 10
1219.955423007728
 20
182.2450559372404
 30
0.0
  0
VERTEX
  5
277
330
275
100
AcDbEntity
  8
Calque 1
 62
   250
420
  2236966
370
    50
100
AcDbVertex
100
AcDb2dVertex
 10
1207.955466413506
 20
182.2450559372404
 30
0.0
  0
SEQEND
  5
278
330
275
100
AcDbEntity
  8
Calque 1
 62
   250
420
  2236966
370
    50
  0
POLYLINE
  5
279
330
1F
100
AcDbEntity
  8
Calque 1
 62
   250
420
  2236966
370
    50
100
AcDb2dPolyline
 66
     1
 10
0.0
 20
0.0
 30
0.0
  0
VERTEX
  5
27A
330
279
100
AcDbEntity
  8
Calque 1
 62
   250
420
  2236966
370
    50
100
AcDbVertex
100
AcDb2dVertex
 10
1197.455418266174
 20
182.2450559372404
 30
0.0
  0
VERTEX
  5
27B
330
279
100
AcDbEntity
  8
Calque 1
 62
   250
420
  2236966
370
    50
100
AcDbVertex
100
AcDb2dVertex
 10
221.9554658122954
 20
182.2450559372404
 30
0.0
  0
SEQEND
  5
27C
330
279
100
AcDbEntity
  8
Calque 1
 62
   250
420
  2236966
370
    50
  0
POLYLINE
  5
27D
330
1F
100
AcDbEntity
  8
Calque 1
 62
   250
420
  2236966
370
    50
100
AcDb2dPolyline
 66
     1
 10
0.0
 20
0.0
 30
0.0
  0
VERTEX
  5
27E
330
27D
100
AcDbEntity
  8
Calque 1
 62
   250
420
  2236966
370
    50
100
AcDbVertex
100
AcDb2dVertex
 10
1207.955466413506
 20
197.9450666144677
 30
0.0
  0
VERTEX
  5
27F
330
27D
100
AcDbEntity
  8
Calque 1
 62
   250
420
  2236966
370
    50
100
AcDbVertex
100
AcDb2dVertex
 10
1197.455418266174
 20
197.9450666144677
 30
0.0
  0
SEQEND
  5
280
330
27D
100
AcDbEntity
  8
Calque 1
 62
   250
420
  2236966
370
    50
  0
POLYLINE
  5
281
330
1F
100
AcDbEntity
  8
Calque 1
 62
   250
420
  2236966
370
    50
100
AcDb2dPolyline
 66
     1
 10
0.0
 20
0.0
 30
0.0
  0
VERTEX
  5
282
330
281
100
AcDbEntity
  8
Calque 1
 62
   250
420
  2236966
370
    50
100
AcDbVertex
100
AcDb2dVertex
 10
221.9554658122954
 20
200.6450525417984
 30
0.0
  0
VERTEX
  5
283
330
281
100
AcDbEntity
  8
Calque 1
 62
   250
420
  2236966
370
    50
100
AcDbVertex
100
AcDb2dVertex
 10
1219.955423007728
 20
200.6450525417984
 30
0.0
  0
SEQEND
  5
284
330
281
100
AcDbEntity
  8
Calque 1
 62
   250
420
  2236966
370
    50
  0
POLYLINE
  5
285
330
1F
100
AcDbEntity
  8
Calque 1
 62
   250
420
  2236966
370
    50
100
AcDb2dPolyline
 66
     1
 10
0.0
 20
0.0
 30
0.0
  0
VERTEX
  5
286
330
285
100
AcDbEntity
  8
Calque 1
 62
   250
420
  2236966
370
    50
100
AcDbVertex
100
AcDb2dVertex
 10
1219.955423007728
 20
200.9450557630233
 30
0.0
  0
VERTEX
  5
287
330
285
100
AcDbEntity
  8
Calque 1
 62
   250
420
  2236966
370
    50
100
AcDbVertex
100
AcDb2dVertex
 10
221.9554658122954
 20
200.9450557630233
 30
0.0
  0
SEQEND
  5
288
330
285
100
AcDbEntity
  8
Calque 1
 62
   250
420
  2236966
370
    50
  0
POLYLINE
  5
289
330
1F
100
AcDbEntity
  8
Calque 1
 62
   250
420
  2236966
370
    50
100
AcDb2dPolyline
 66
     1
 10
0.0
 20
0.0
 30
0.0
  0
VERTEX
  5
28A
330
289
100
AcDbEntity
  8
Calque 1
 62
   250
420
  2236966
370
    50
100
AcDbVertex
100
AcDb2dVertex
 10
1197.455418266174
 20
197.9450666144677
 30
0.0
  0
VERTEX
  5
28B
330
289
100
AcDbEntity
  8
Calque 1
 62
   250
420
  2236966
370
    50
100
AcDbVertex
100
AcDb2dVertex
 10
1197.455418266174
 20
181.9450527160155
 30
0.0
  0
SEQEND
  5
28C
330
289
100
AcDbEntity
  8
Calque 1
 62
   250
420
  2236966
370
    50
  0
POLYLINE
  5
28D
330
1F
100
AcDbEntity
  8
Calque 1
 62
   250
420
  2236966
370
    50
100
AcDb2dPolyline
 66
     1
 10
0.0
 20
0.0
 30
0.0
  0
VERTEX
  5
28E
330
28D
100
AcDbEntity
  8
Calque 1
 62
   250
420
  2236966
370
    50
100
AcDbVertex
100
AcDb2dVertex
 10
1207.955466413506
 20
181.9450527160155
 30
0.0
  0
VERTEX
  5
28F
330
28D
100
AcDbEntity
  8
Calque 1
 62
   250
420
  2236966
370
    50
100
AcDbVertex
100
AcDb2dVertex
 10
1207.955466413506
 20
197.9450666144677
 30
0.0
  0
SEQEND
  5
290
330
28D
100
AcDbEntity
  8
Calque 1
 62
   250
420
  2236966
370
    50
  0
POLYLINE
  5
291
330
1F
100
AcDbEntity
  8
Calque 1
 62
   250
420
  2236966
370
    50
100
AcDb2dPolyline
 66
     1
 10
0.0
 20
0.0
 30
0.0
  0
VERTEX
  5
292
330
291
100
AcDbEntity
  8
Calque 1
 62
   250
420
  2236966
370
    50
100
AcDbVertex
100
AcDb2dVertex
 10
1219.955423007728
 20
181.9450527160155
 30
0.0
  0
VERTEX
  5
293
330
291
100
AcDbEntity
  8
Calque 1
 62
   250
420
  2236966
370
    50
100
AcDbVertex
100
AcDb2dVertex
 10
1219.955423007728
 20
200.9450557630233
 30
0.0
  0
SEQEND
  5
294
330
291
100
AcDbEntity
  8
Calque 1
 62
   250
420
  2236966
370
    50
  0
POLYLINE
  5
295
330
1F
100
AcDbEntity
  8
Calque 1
 62
   250
420
  2236966
370
    50
100
AcDb2dPolyline
 66
     1
 10
0.0
 20
0.0
 30
0.0
  0
VERTEX
  5
296
330
295
100
AcDbEntity
  8
Calque 1
 62
   250
420
  2236966
370
    50
100
AcDbVertex
100
AcDb2dVertex
 10
242.2054571605858
 20
200.9450557630233
 30
0.0
  0
VERTEX
  5
297
330
295
100
AcDbEntity
  8
Calque 1
 62
   250
420
  2236966
370
    50
100
AcDbVertex
100
AcDb2dVertex
 10
242.2054571605858
 20
203.0822638109916
 30
0.0
  0
SEQEND
  5
298
330
295
100
AcDbEntity
  8
Calque 1
 62
   250
420
  2236966
370
    50
  0
POLYLINE
  5
299
330
1F
100
AcDbEntity
  8
Calque 1
 62
   250
420
  2236966
370
    50
100
AcDb2dPolyline
 66
     1
 10
0.0
 20
0.0
 30
0.0
  0
VERTEX
  5
29A
330
299
100
AcDbEntity
  8
Calque 1
 62
   250
420
  2236966
370
    50
100
AcDbVertex
100
AcDb2dVertex
 10
246.4654684510247
 20
204.5908711239825
 30
0.0
  0
VERTEX
  5
29B
330
299
100
AcDbEntity
  8
Calque 1
 62
   250
420
  2236966
370
    50
100
AcDbVertex
100
AcDb2dVertex
 10
246.4654684510247
 20
204.3053373037956
 30
0.0
  0
SEQEND
  5
29C
330
299
100
AcDbEntity
  8
Calque 1
 62
   250
420
  2236966
370
    50
  0
POLYLINE
  5
29D
330
1F
100
AcDbEntity
  8
Calque 1
 62
   250
420
  2236966
370
    50
100
AcDb2dPolyline
 66
     1
 10
0.0
 20
0.0
 30
0.0
  0
VERTEX
  5
29E
330
29D
100
AcDbEntity
  8
Calque 1
 62
   250
420
  2236966
370
    50
100
AcDbVertex
100
AcDb2dVertex
 10
247.4454689254976
 20
204.3053373037956
 30
0.0
  0
VERTEX
  5
29F
330
29D
100
AcDbEntity
  8
Calque 1
 62
   250
420
  2236966
370
    50
100
AcDbVertex
100
AcDb2dVertex
 10
247.4454689254976
 20
204.5908711239825
 30
0.0
  0
SEQEND
  5
2A0
330
29D
100
AcDbEntity
  8
Calque 1
 62
   250
420
  2236966
370
    50
  0
POLYLINE
  5
2A1
330
1F
100
AcDbEntity
  8
Calque 1
 62
   250
420
  2236966
370
    50
100
AcDb2dPolyline
 66
     1
 10
0.0
 20
0.0
 30
0.0
  0
VERTEX
  5
2A2
330
2A1
100
AcDbEntity
  8
Calque 1
 62
   250
420
  2236966
370
    50
100
AcDbVertex
100
AcDb2dVertex
 10
251.7054586840897
 20
200.9450557630233
 30
0.0
  0
VERTEX
  5
2A3
330
2A1
100
AcDbEntity
  8
Calque 1
 62
   250
420
  2236966
370
    50
100
AcDbVertex
100
AcDb2dVertex
 10
251.7054586840897
 20
203.0822638109916
 30
0.0
  0
SEQEND
  5
2A4
330
2A1
100
AcDbEntity
  8
Calque 1
 62
   250
420
  2236966
370
    50
  0
POLYLINE
  5
2A5
330
1F
100
AcDbEntity
  8
Calque 1
 62
   250
420
  2236966
370
    50
100
AcDb2dPolyline
 66
     1
 10
0.0
 20
0.0
 30
0.0
  0
VERTEX
  5
2A6
330
2A5
100
AcDbEntity
  8
Calque 1
 62
   250
420
  2236966
370
    50
100
AcDbVertex
100
AcDb2dVertex
 10
249.2093147502519
 20
204.3053373037956
 30
0.0
  0
VERTEX
  5
2A7
330
2A5
100
AcDbEntity
  8
Calque 1
 62
   250
420
  2236966
370
    50
100
AcDbVertex
100
AcDb2dVertex
 10
249.217044683247
 20
204.3187301124945
 30
0.0
  0
SEQEND
  5
2A8
330
2A5
100
AcDbEntity
  8
Calque 1
 62
   250
420
  2236966
370
    50
  0
POLYLINE
  5
2A9
330
1F
100
AcDbEntity
  8
Calque 1
 62
   250
420
  2236966
370
    50
100
AcDb2dPolyline
 66
     1
 10
0.0
 20
0.0
 30
0.0
  0
VERTEX
  5
2AA
330
2A9
100
AcDbEntity
  8
Calque 1
 62
   250
420
  2236966
370
    50
100
AcDbVertex
100
AcDb2dVertex
 10
244.6938711614285
 20
204.3187301124945
 30
0.0
  0
VERTEX
  5
2AB
330
2A9
100
AcDbEntity
  8
Calque 1
 62
   250
420
  2236966
370
    50
100
AcDbVertex
100
AcDb2dVertex
 10
244.7016010944236
 20
204.3053373037956
 30
0.0
  0
SEQEND
  5
2AC
330
2A9
100
AcDbEntity
  8
Calque 1
 62
   250
420
  2236966
370
    50
  0
POLYLINE
  5
2AD
330
1F
100
AcDbEntity
  8
Calque 1
 62
   250
420
  2236966
370
    50
100
AcDb2dPolyline
 66
     1
 10
0.0
 20
0.0
 30
0.0
  0
VERTEX
  5
2AE
330
2AD
100
AcDbEntity
  8
Calque 1
 62
   250
420
  2236966
370
    50
100
AcDbVertex
100
AcDb2dVertex
 10
242.2054571605858
 20
203.0822638109916
 30
0.0
  0
VERTEX
  5
2AF
330
2AD
100
AcDbEntity
  8
Calque 1
 62
   250
420
  2236966
370
    50
100
AcDbVertex
100
AcDb2dVertex
 10
251.7054586840897
 20
203.0822638109916
 30
0.0
  0
SEQEND
  5
2B0
330
2AD
100
AcDbEntity
  8
Calque 1
 62
   250
420
  2236966
370
    50
  0
SPLINE
  5
2B1
330
1F
100
AcDbEntity
  8
Calque 1
 62
   250
420
  2236966
370
    50
100
AcDbSpline
210
0.0
220
0.0
230
1.0
 70
     8
 71
     3
 72
     8
 73
     4
 74
     0
 42
0.0000000001
 43
0.0000000001
 12
1.0
 22
0.0
 32
0.0
 13
1.0
 23
0.0
 33
0.0
 40
0.0
 40
0.0
 40
0.0
 40
0.0
 40
1.0
 40
1.0
 40
1.0
 40
1.0
 10
247.4454689254976
 20
204.3053373037956
 30
0.0
 10
247.1190461282702
 20
204.3231872047786
 30
0.0
 10
246.7918912482521
 20
204.3231872047786
 30
0.0
 10
246.4654684510247
 20
204.3053373037956
 30
0.0
  0
SPLINE
  5
2B2
330
1F
100
AcDbEntity
  8
Calque 1
 62
   250
420
  2236966
370
    50
100
AcDbSpline
210
0.0
220
0.0
230
1.0
 70
     8
 71
     3
 72
     8
 73
     4
 74
     0
 42
0.0000000001
 43
0.0000000001
 12
1.0
 22
0.0
 32
0.0
 13
1.0
 23
0.0
 33
0.0
 40
0.0
 40
0.0
 40
0.0
 40
0.0
 40
1.0
 40
1.0
 40
1.0
 40
1.0
 10
244.6938711614285
 20
204.3187301124945
 30
0.0
 10
243.7986200358928
 20
204.054878862018
 30
0.0
 10
242.9564449126767
 20
203.636407419794
 30
0.0
 10
242.2054571605858
 20
203.0822638109916
 30
0.0
  0
SPLINE
  5
2B3
330
1F
100
AcDbEntity
  8
Calque 1
 62
   250
420
  2236966
370
    50
100
AcDbSpline
210
0.0
220
0.0
230
1.0
 70
     8
 71
     3
 72
     8
 73
     4
 74
     0
 42
0.0000000001
 43
0.0000000001
 12
1.0
 22
0.0
 32
0.0
 13
1.0
 23
0.0
 33
0.0
 40
0.0
 40
0.0
 40
0.0
 40
0.0
 40
1.0
 40
1.0
 40
1.0
 40
1.0
 10
251.7054586840897
 20
203.0822638109916
 30
0.0
 10
250.9544709319988
 20
203.636407419794
 30
0.0
 10
250.1122958087827
 20
204.054878862018
 30
0.0
 10
249.217044683247
 20
204.3187301124945
 30
0.0
  0
SPLINE
  5
2B4
330
1F
100
AcDbEntity
  8
Calque 1
 62
   250
420
  2236966
370
    50
100
AcDbSpline
210
0.0
220
0.0
230
1.0
 70
     8
 71
     3
 72
     8
 73
     4
 74
     0
 42
0.0000000001
 43
0.0000000001
 12
1.0
 22
0.0
 32
0.0
 13
1.0
 23
0.0
 33
0.0
 40
0.0
 40
0.0
 40
0.0
 40
0.0
 40
1.0
 40
1.0
 40
1.0
 40
1.0
 10
246.1654652297998
 20
204.5908711239825
 30
0.0
 10
245.6696729257788
 20
204.5415631948499
 30
0.0
 10
245.1795650293084
 20
204.445983326981
 30
0.0
 10
244.7016010944236
 20
204.3053373037956
 30
0.0
  0
SPLINE
  5
2B5
330
1F
100
AcDbEntity
  8
Calque 1
 62
   250
420
  2236966
370
    50
100
AcDbSpline
210
0.0
220
0.0
230
1.0
 70
     8
 71
     3
 72
     8
 73
     4
 74
     0
 42
0.0000000001
 43
0.0000000001
 12
1.0
 22
0.0
 32
0.0
 13
1.0
 23
0.0
 33
0.0
 40
0.0
 40
0.0
 40
0.0
 40
0.0
 40
1.0
 40
1.0
 40
1.0
 40
1.0
 10
249.2093147502519
 20
204.3053373037956
 30
0.0
 10
248.7313508153671
 20
204.445983326981
 30
0.0
 10
248.2412429188967
 20
204.5415631948499
 30
0.0
 10
247.7454506148757
 20
204.5908711239825
 30
0.0
  0
POLYLINE
  5
2B6
330
1F
100
AcDbEntity
  8
Calque 1
 62
   250
420
  2236966
370
    50
100
AcDb2dPolyline
 66
     1
 10
0.0
 20
0.0
 30
0.0
  0
VERTEX
  5
2B7
330
2B6
100
AcDbEntity
  8
Calque 1
 62
   250
420
  2236966
370
    50
100
AcDbVertex
100
AcDb2dVertex
 10
247.4454689254976
 20
204.5908711239825
 30
0.0
  0
VERTEX
  5
2B8
330
2B6
100
AcDbEntity
  8
Calque 1
 62
   250
420
  2236966
370
    50
100
AcDbVertex
100
AcDb2dVertex
 10
247.4512609922822
 20
204.5960602990572
 30
0.0
  0
VERTEX
  5
2B9
330
2B6
100
AcDbEntity
  8
Calque 1
 62
   250
420
  2236966
370
    50
100
AcDbVertex
100
AcDb2dVertex
 10
247.4682926830874
 20
204.5999575633248
 30
0.0
  0
VERTEX
  5
2BA
330
2B6
100
AcDbEntity
  8
Calque 1
 62
   250
420
  2236966
370
    50
100
AcDbVertex
100
AcDb2dVertex
 10
247.4725559887504
 20
204.6004097321073
 30
0.0
  0
VERTEX
  5
2BB
330
2B6
100
AcDbEntity
  8
Calque 1
 62
   250
420
  2236966
370
    50
100
AcDbVertex
100
AcDb2dVertex
 10
247.5024206602381
 20
204.602519853092
 30
0.0
  0
VERTEX
  5
2BC
330
2B6
100
AcDbEntity
  8
Calque 1
 62
   250
420
  2236966
370
    50
100
AcDbVertex
100
AcDb2dVertex
 10
247.5333188603715
 20
204.6031658084955
 30
0.0
  0
VERTEX
  5
2BD
330
2B6
100
AcDbEntity
  8
Calque 1
 62
   250
420
  2236966
370
    50
100
AcDbVertex
100
AcDb2dVertex
 10
247.5402521150355
 20
204.6031658084955
 30
0.0
  0
VERTEX
  5
2BE
330
2B6
100
AcDbEntity
  8
Calque 1
 62
   250
420
  2236966
370
    50
100
AcDbVertex
100
AcDb2dVertex
 10
247.57074121008
 20
204.602713639713
 30
0.0
  0
VERTEX
  5
2BF
330
2B6
100
AcDbEntity
  8
Calque 1
 62
   250
420
  2236966
370
    50
100
AcDbVertex
100
AcDb2dVertex
 10
247.6008857955759
 20
204.6015724518336
 30
0.0
  0
VERTEX
  5
2C0
330
2B6
100
AcDbEntity
  8
Calque 1
 62
   250
420
  2236966
370
    50
100
AcDbVertex
100
AcDb2dVertex
 10
247.6309442536847
 20
204.5999575633248
 30
0.0
  0
VERTEX
  5
2C1
330
2B6
100
AcDbEntity
  8
Calque 1
 62
   250
420
  2236966
370
    50
100
AcDbVertex
100
AcDb2dVertex
 10
247.6548230717669
 20
204.5984288022033
 30
0.0
  0
VERTEX
  5
2C2
330
2B6
100
AcDbEntity
  8
Calque 1
 62
   250
420
  2236966
370
    50
100
AcDbVertex
100
AcDb2dVertex
 10
247.6850322528032
 20
204.5962110219846
 30
0.0
  0
VERTEX
  5
2C3
330
2B6
100
AcDbEntity
  8
Calque 1
 62
   250
420
  2236966
370
    50
100
AcDbVertex
100
AcDb2dVertex
 10
247.7152629656862
 20
204.593691795911
 30
0.0
  0
VERTEX
  5
2C4
330
2B6
100
AcDbEntity
  8
Calque 1
 62
   250
420
  2236966
370
    50
100
AcDbVertex
100
AcDb2dVertex
 10
247.7454506148757
 20
204.5908711239825
 30
0.0
  0
SEQEND
  5
2C5
330
2B6
100
AcDbEntity
  8
Calque 1
 62
   250
420
  2236966
370
    50
  0
POLYLINE
  5
2C6
330
1F
100
AcDbEntity
  8
Calque 1
 62
   250
420
  2236966
370
    50
100
AcDb2dPolyline
 66
     1
 10
0.0
 20
0.0
 30
0.0
  0
VERTEX
  5
2C7
330
2C6
100
AcDbEntity
  8
Calque 1
 62
   250
420
  2236966
370
    50
100
AcDbVertex
100
AcDb2dVertex
 10
246.1654652297998
 20
204.5908711239825
 30
0.0
  0
VERTEX
  5
2C8
330
2C6
100
AcDbEntity
  8
Calque 1
 62
   250
420
  2236966
370
    50
100
AcDbVertex
100
AcDb2dVertex
 10
246.1893655797287
 20
204.5931319678947
 30
0.0
  0
VERTEX
  5
2C9
330
2C6
100
AcDbEntity
  8
Calque 1
 62
   250
420
  2236966
370
    50
100
AcDbVertex
100
AcDb2dVertex
 10
246.2195962926118
 20
204.5957157895086
 30
0.0
  0
VERTEX
  5
2CA
330
2C6
100
AcDbEntity
  8
Calque 1
 62
   250
420
  2236966
370
    50
100
AcDbVertex
100
AcDb2dVertex
 10
246.2498270054948
 20
204.5979981652676
 30
0.0
  0
VERTEX
  5
2CB
330
2C6
100
AcDbEntity
  8
Calque 1
 62
   250
420
  2236966
370
    50
100
AcDbVertex
100
AcDb2dVertex
 10
246.2799715909908
 20
204.5999575633248
 30
0.0
  0
VERTEX
  5
2CC
330
2C6
100
AcDbEntity
  8
Calque 1
 62
   250
420
  2236966
370
    50
100
AcDbVertex
100
AcDb2dVertex
 10
246.2867541227274
 20
204.6003451365669
 30
0.0
  0
VERTEX
  5
2CD
330
2C6
100
AcDbEntity
  8
Calque 1
 62
   250
420
  2236966
370
    50
100
AcDbVertex
100
AcDb2dVertex
 10
246.3168125808362
 20
204.6018738976885
 30
0.0
  0
VERTEX
  5
2CE
330
2C6
100
AcDbEntity
  8
Calque 1
 62
   250
420
  2236966
370
    50
100
AcDbVertex
100
AcDb2dVertex
 10
246.3470217618725
 20
204.6028858944873
 30
0.0
  0
VERTEX
  5
2CF
330
2C6
100
AcDbEntity
  8
Calque 1
 62
   250
420
  2236966
370
    50
100
AcDbVertex
100
AcDb2dVertex
 10
246.3776185161508
 20
204.6031658084955
 30
0.0
  0
VERTEX
  5
2D0
330
2C6
100
AcDbEntity
  8
Calque 1
 62
   250
420
  2236966
370
    50
100
AcDbVertex
100
AcDb2dVertex
 10
246.3822263313623
 20
204.6031442766487
 30
0.0
  0
VERTEX
  5
2D1
330
2C6
100
AcDbEntity
  8
Calque 1
 62
   250
420
  2236966
370
    50
100
AcDbVertex
100
AcDb2dVertex
 10
246.4130814678021
 20
204.6023045346242
 30
0.0
  0
VERTEX
  5
2D2
330
2C6
100
AcDbEntity
  8
Calque 1
 62
   250
420
  2236966
370
    50
100
AcDbVertex
100
AcDb2dVertex
 10
246.4426446934349
 20
204.5999575633248
 30
0.0
  0
VERTEX
  5
2D3
330
2C6
100
AcDbEntity
  8
Calque 1
 62
   250
420
  2236966
370
    50
100
AcDbVertex
100
AcDb2dVertex
 10
246.4596548523934
 20
204.5960602990572
 30
0.0
  0
VERTEX
  5
2D4
330
2C6
100
AcDbEntity
  8
Calque 1
 62
   250
420
  2236966
370
    50
100
AcDbVertex
100
AcDb2dVertex
 10
246.4654684510247
 20
204.5908711239825
 30
0.0
  0
SEQEND
  5
2D5
330
2C6
100
AcDbEntity
  8
Calque 1
 62
   250
420
  2236966
370
    50
  0
POLYLINE
  5
2D6
330
1F
100
AcDbEntity
  8
Calque 1
 62
   250
420
  2236966
370
    50
100
AcDb2dPolyline
 66
     1
 10
0.0
 20
0.0
 30
0.0
  0
VERTEX
  5
2D7
330
2D6
100
AcDbEntity
  8
Calque 1
 62
   250
420
  2236966
370
    50
100
AcDbVertex
100
AcDb2dVertex
 10
1197.955473875858
 20
181.9450527160155
 30
0.0
  0
VERTEX
  5
2D8
330
2D6
100
AcDbEntity
  8
Calque 1
 62
   250
420
  2236966
370
    50
100
AcDbVertex
100
AcDb2dVertex
 10
1198.955498967839
 20
181.9450527160155
 30
0.0
  0
SEQEND
  5
2D9
330
2D6
100
AcDbEntity
  8
Calque 1
 62
   250
420
  2236966
370
    50
  0
POLYLINE
  5
2DA
330
1F
100
AcDbEntity
  8
Calque 1
 62
   250
420
  2236966
370
    50
100
AcDb2dPolyline
 66
     1
 10
0.0
 20
0.0
 30
0.0
  0
VERTEX
  5
2DB
330
2DA
100
AcDbEntity
  8
Calque 1
 62
   250
420
  2236966
370
    50
100
AcDbVertex
100
AcDb2dVertex
 10
1206.955441321525
 20
181.9450527160155
 30
0.0
  0
VERTEX
  5
2DC
330
2DA
100
AcDbEntity
  8
Calque 1
 62
   250
420
  2236966
370
    50
100
AcDbVertex
100
AcDb2dVertex
 10
1207.955466413506
 20
181.9450527160155
 30
0.0
  0
SEQEND
  5
2DD
330
2DA
100
AcDbEntity
  8
Calque 1
 62
   250
420
  2236966
370
    50
  0
POLYLINE
  5
2DE
330
1F
100
AcDbEntity
  8
Calque 1
 62
   250
420
  2236966
370
    50
100
AcDb2dPolyline
 66
     1
 10
0.0
 20
0.0
 30
0.0
  0
VERTEX
  5
2DF
330
2DE
100
AcDbEntity
  8
Calque 1
 62
   250
420
  2236966
370
    50
100
AcDbVertex
100
AcDb2dVertex
 10
1198.955498967839
 20
196.9450630543336
 30
0.0
  0
VERTEX
  5
2E0
330
2DE
100
AcDbEntity
  8
Calque 1
 62
   250
420
  2236966
370
    50
100
AcDbVertex
100
AcDb2dVertex
 10
1206.955441321525
 20
196.9450630543336
 30
0.0
  0
SEQEND
  5
2E1
330
2DE
100
AcDbEntity
  8
Calque 1
 62
   250
420
  2236966
370
    50
  0
POLYLINE
  5
2E2
330
1F
100
AcDbEntity
  8
Calque 1
 62
   250
420
  2236966
370
    50
100
AcDb2dPolyline
 66
     1
 10
0.0
 20
0.0
 30
0.0
  0
VERTEX
  5
2E3
330
2E2
100
AcDbEntity
  8
Calque 1
 62
   250
420
  2236966
370
    50
100
AcDbVertex
100
AcDb2dVertex
 10
1197.955473875858
 20
197.9450666144677
 30
0.0
  0
VERTEX
  5
2E4
330
2E2
100
AcDbEntity
  8
Calque 1
 62
   250
420
  2236966
370
    50
100
AcDbVertex
100
AcDb2dVertex
 10
1197.955473875858
 20
181.9450527160155
 30
0.0
  0
SEQEND
  5
2E5
330
2E2
100
AcDbEntity
  8
Calque 1
 62
   250
420
  2236966
370
    50
  0
POLYLINE
  5
2E6
330
1F
100
AcDbEntity
  8
Calque 1
 62
   250
420
  2236966
370
    50
100
AcDb2dPolyline
 66
     1
 10
0.0
 20
0.0
 30
0.0
  0
VERTEX
  5
2E7
330
2E6
100
AcDbEntity
  8
Calque 1
 62
   250
420
  2236966
370
    50
100
AcDbVertex
100
AcDb2dVertex
 10
1198.955498967839
 20
181.9450527160155
 30
0.0
  0
VERTEX
  5
2E8
330
2E6
100
AcDbEntity
  8
Calque 1
 62
   250
420
  2236966
370
    50
100
AcDbVertex
100
AcDb2dVertex
 10
1198.955498967839
 20
196.9450630543336
 30
0.0
  0
SEQEND
  5
2E9
330
2E6
100
AcDbEntity
  8
Calque 1
 62
   250
420
  2236966
370
    50
  0
POLYLINE
  5
2EA
330
1F
100
AcDbEntity
  8
Calque 1
 62
   250
420
  2236966
370
    50
100
AcDb2dPolyline
 66
     1
 10
0.0
 20
0.0
 30
0.0
  0
VERTEX
  5
2EB
330
2EA
100
AcDbEntity
  8
Calque 1
 62
   250
420
  2236966
370
    50
100
AcDbVertex
100
AcDb2dVertex
 10
1206.955441321525
 20
196.9450630543336
 30
0.0
  0
VERTEX
  5
2EC
330
2EA
100
AcDbEntity
  8
Calque 1
 62
   250
420
  2236966
370
    50
100
AcDbVertex
100
AcDb2dVertex
 10
1206.955441321525
 20
181.9450527160155
 30
0.0
  0
SEQEND
  5
2ED
330
2EA
100
AcDbEntity
  8
Calque 1
 62
   250
420
  2236966
370
    50
  0
ENDSEC
  0
SECTION
  2
OBJECTS
  0
DICTIONARY
  5
C
330
0
100
AcDbDictionary
281
     1
  3
ACAD_GROUP
350
D
  3
ACAD_LAYOUT
350
1A
  3
ACAD_MATERIAL
350
3B
  3
ACAD_MLEADERSTYLE
350
2EF
  3
ACAD_MLINESTYLE
350
17
  3
ACAD_PLOTSETTINGS
350
19
  3
ACAD_PLOTSTYLENAME
350
E
  3
ACAD_TABLESTYLE
350
2EE
  3
ACAD_VISUALSTYLE
350
2A
  0
SUN
  5
3F
330
29
100
AcDbSun
 90
        1
290
     0
 63
     7
421
 16777215
 40
1.0
291
     1
 91
  2455826
 92
 54000000
292
     0
 70
     2
 71
   256
280
     1
  0
DICTIONARY
  5
D
102
{ACAD_REACTORS
330
C
102
}
330
C
100
AcDbDictionary
281
     1
  0
DICTIONARY
  5
1A
102
{ACAD_REACTORS
330
C
102
}
330
C
100
AcDbDictionary
281
     1
  3
Layout1
350
1E
  3
Layout2
350
26
  3
Model
350
22
  0
DICTIONARY
  5
3B
102
{ACAD_REACTORS
330
C
102
}
330
C
100
AcDbDictionary
281
     1
  3
ByBlock
350
3D
  3
ByLayer
350
3C
  3
Global
350
3E
  0
DICTIONARY
  5
2EF
102
{ACAD_REACTORS
330
C
102
}
330
C
100
AcDbDictionary
281
     1
  0
DICTIONARY
  5
17
102
{ACAD_REACTORS
330
C
102
}
330
C
100
AcDbDictionary
281
     1
  3
Standard
350
18
  0
DICTIONARY
  5
19
102
{ACAD_REACTORS
330
C
102
}
330
C
100
AcDbDictionary
281
     1
  0
ACDBDICTIONARYWDFLT
  5
E
102
{ACAD_REACTORS
330
C
102
}
330
C
100
AcDbDictionary
281
     1
  3
Normal
350
F
100
AcDbDictionaryWithDefault
340
F
  0
DICTIONARY
  5
2EE
102
{ACAD_REACTORS
330
C
102
}
330
C
100
AcDbDictionary
281
     1
  0
DICTIONARY
  5
2A
102
{ACAD_REACTORS
330
C
102
}
330
C
100
AcDbDictionary
281
     1
  3
2dWireframe
350
2F
  3
3D Hidden
350
31
  3
3dWireframe
350
30
  3
Basic
350
32
  3
Brighten
350
36
  3
ColorChange
350
3A
  3
Conceptual
350
34
  3
Dim
350
35
  3
Facepattern
350
39
  3
Flat
350
2B
  3
FlatWithEdges
350
2C
  3
Gouraud
350
2D
  3
GouraudWithEdges
350
2E
  3
Linepattern
350
38
  3
Realistic
350
33
  3
Thicken
350
37
  0
LAYOUT
  5
1E
102
{ACAD_REACTORS
330
1A
102
}
330
1A
100
AcDbPlotSettings
  1

  2
none_device
  4

  6

 40
0.0
 41
0.0
 42
0.0
 43
0.0
 44
0.0
 45
0.0
 46
0.0
 47
0.0
 48
0.0
 49
0.0
140
0.0
141
0.0
142
1.0
143
1.0
 70
   688
 72
     0
 73
     0
 74
     5
  7

 75
    16
 76
     0
 77
     2
 78
   300
147
1.0
148
0.0
149
0.0
100
AcDbLayout
  1
Layout1
 70
     1
 71
     1
 10
0.0
 20
0.0
 11
12.0
 21
9.0
 12
0.0
 22
0.0
 32
0.0
 14
1.000000000000000E+20
 24
1.000000000000000E+20
 34
1.000000000000000E+20
 15
-1.000000000000000E+20
 25
-1.000000000000000E+20
 35
-1.000000000000000E+20
146
0.0
 13
0.0
 23
0.0
 33
0.0
 16
1.0
 26
0.0
 36
0.0
 17
0.0
 27
1.0
 37
0.0
 76
     0
330
1B
  0
LAYOUT
  5
26
102
{ACAD_REACTORS
330
1A
102
}
330
1A
100
AcDbPlotSettings
  1

  2
none_device
  4

  6

 40
0.0
 41
0.0
 42
0.0
 43
0.0
 44
0.0
 45
0.0
 46
0.0
 47
0.0
 48
0.0
 49
0.0
140
0.0
141
0.0
142
1.0
143
1.0
 70
   688
 72
     0
 73
     0
 74
     5
  7

 75
    16
 76
     0
 77
     2
 78
   300
147
1.0
148
0.0
149
0.0
100
AcDbLayout
  1
Layout2
 70
     1
 71
     2
 10
0.0
 20
0.0
 11
0.0
 21
0.0
 12
0.0
 22
0.0
 32
0.0
 14
0.0
 24
0.0
 34
0.0
 15
0.0
 25
0.0
 35
0.0
146
0.0
 13
0.0
 23
0.0
 33
0.0
 16
1.0
 26
0.0
 36
0.0
 17
0.0
 27
1.0
 37
0.0
 76
     0
330
23
  0
LAYOUT
  5
22
102
{ACAD_REACTORS
330
1A
102
}
330
1A
100
AcDbPlotSettings
  1

  2
none_device
  4

  6

 40
0.0
 41
0.0
 42
0.0
 43
0.0
 44
0.0
 45
0.0
 46
0.0
 47
0.0
 48
0.0
 49
0.0
140
0.0
141
0.0
142
1.0
143
1.0
 70
  1712
 72
     0
 73
     0
 74
     0
  7

 75
     0
 76
     0
 77
     2
 78
   300
147
1.0
148
0.0
149
0.0
100
AcDbLayout
  1
Model
 70
     1
 71
     0
 10
0.0
 20
0.0
 11
12.0
 21
9.0
 12
0.0
 22
0.0
 32
0.0
 14
1.000000000000000E+20
 24
1.000000000000000E+20
 34
1.000000000000000E+20
 15
-1.000000000000000E+20
 25
-1.000000000000000E+20
 35
-1.000000000000000E+20
146
0.0
 13
0.0
 23
0.0
 33
0.0
 16
1.0
 26
0.0
 36
0.0
 17
0.0
 27
1.0
 37
0.0
 76
     0
330
1F
331
29
  0
MATERIAL
  5
3D
102
{ACAD_REACTORS
330
3B
102
}
330
3B
100
AcDbMaterial
  1
ByBlock
 72
     1
 94
      127
  0
MATERIAL
  5
3C
102
{ACAD_REACTORS
330
3B
102
}
330
3B
100
AcDbMaterial
  1
ByLayer
 72
     1
 94
      127
  0
MATERIAL
  5
3E
102
{ACAD_REACTORS
330
3B
102
}
330
3B
100
AcDbMaterial
  1
Global
 72
     1
 94
      127
  0
MLINESTYLE
  5
18
102
{ACAD_REACTORS
330
17
102
}
330
17
100
AcDbMlineStyle
  2
Standard
 70
     0
  3

 62
   256
 51
90.0
 52
90.0
 71
     2
 49
0.5
 62
   256
  6
BYLAYER
 49
-0.5
 62
   256
  6
BYLAYER
  0
ACDBPLACEHOLDER
  5
F
102
{ACAD_REACTORS
330
E
102
}
330
E
  0
VISUALSTYLE
  5
2F
102
{ACAD_REACTORS
330
2A
102
}
330
2A
100
AcDbVisualStyle
  2
2dWireframe
 70
     4
177
     2
291
     0
 71
     0
176
     1
 72
     2
176
     1
 73
     0
176
     1
 90
        0
176
     1
 40
-0.6
176
     1
 41
-30.0
176
     1
 62
     5
 63
     7
421
 16777215
176
     1
 74
     1
176
     1
 91
        4
176
     1
 64
     7
176
     1
 65
   257
176
     1
 75
     1
176
     1
175
     1
176
     1
 42
1.0
176
     1
 92
        0
176
     1
 66
   257
176
     1
 43
1.0
176
     1
 76
     1
176
     1
 77
     6
176
     1
 78
     2
176
     1
 67
     7
176
     1
 79
     5
176
     1
170
     0
176
     1
171
     0
176
     1
290
     0
176
     1
 93
        1
176
     1
 44
0.0
176
     1
173
     0
176
     1
  0
VISUALSTYLE
  5
31
102
{ACAD_REACTORS
330
2A
102
}
330
2A
100
AcDbVisualStyle
  2
3D Hidden
 70
     6
177
     2
291
     0
 71
     1
176
     1
 72
     2
176
     1
 73
     2
176
     1
 90
        0
176
     1
 40
-0.6
176
     1
 41
-30.0
176
     1
 62
     5
 63
     7
421
 16777215
176
     1
 74
     2
176
     1
 91
        2
176
     1
 64
     7
176
     1
 65
   257
176
     1
 75
     2
176
     1
175
     1
176
     1
 42
40.0
176
     1
 92
        0
176
     1
 66
   257
176
     1
 43
1.0
176
     1
 76
     1
176
     1
 77
     6
176
     1
 78
     2
176
     1
 67
     7
176
     1
 79
     3
176
     1
170
     0
176
     1
171
     0
176
     1
290
     0
176
     1
 93
        1
176
     1
 44
0.0
176
     1
173
     0
176
     1
  0
VISUALSTYLE
  5
30
102
{ACAD_REACTORS
330
2A
102
}
330
2A
100
AcDbVisualStyle
  2
3dWireframe
 70
     5
177
     2
291
     0
 71
     0
176
     1
 72
     2
176
     1
 73
     0
176
     1
 90
        0
176
     1
 40
-0.6
176
     1
 41
-30.0
176
     1
 62
     5
 63
     7
421
 16777215
176
     1
 74
     1
176
     1
 91
        4
176
     1
 64
     7
176
     1
 65
   257
176
     1
 75
     1
176
     1
175
     1
176
     1
 42
1.0
176
     1
 92
        0
176
     1
 66
   257
176
     1
 43
1.0
176
     1
 76
     1
176
     1
 77
     6
176
     1
 78
     2
176
     1
 67
     7
176
     1
 79
     5
176
     1
170
     0
176
     1
171
     0
176
     1
290
     0
176
     1
 93
        1
176
     1
 44
0.0
176
     1
173
     0
176
     1
  0
VISUALSTYLE
  5
32
102
{ACAD_REACTORS
330
2A
102
}
330
2A
100
AcDbVisualStyle
  2
Basic
 70
     7
177
     2
291
     1
 71
     1
176
     1
 72
     0
176
     1
 73
     1
176
     1
 90
        0
176
     1
 40
-0.6
176
     1
 41
-30.0
176
     1
 62
     5
 63
     7
421
 16777215
176
     1
 74
     0
176
     1
 91
        4
176
     1
 64
     7
176
     1
 65
   257
176
     1
 75
     1
176
     1
175
     1
176
     1
 42
1.0
176
     1
 92
        8
176
     1
 66
     7
176
     1
 43
1.0
176
     1
 76
     1
176
     1
 77
     6
176
     1
 78
     2
176
     1
 67
     7
176
     1
 79
     5
176
     1
170
     0
176
     1
171
     0
176
     1
290
     0
176
     1
 93
        1
176
     1
 44
0.0
176
     1
173
     0
176
     1
  0
VISUALSTYLE
  5
36
102
{ACAD_REACTORS
330
2A
102
}
330
2A
100
AcDbVisualStyle
  2
Brighten
 70
    12
177
     2
291
     1
 71
     2
176
     1
 72
     2
176
     1
 73
     0
176
     1
 90
        0
176
     1
 40
-0.6
176
     1
 41
-30.0
176
     1
 62
     5
 63
     7
421
 16777215
176
     1
 74
     1
176
     1
 91
        4
176
     1
 64
     7
176
     1
 65
   257
176
     1
 75
     1
176
     1
175
     1
176
     1
 42
1.0
176
     1
 92
        8
176
     1
 66
     7
176
     1
 43
1.0
176
     1
 76
     1
176
     1
 77
     6
176
     1
 78
     2
176
     1
 67
     7
176
     1
 79
     5
176
     1
170
     0
176
     1
171
     0
176
     1
290
     0
176
     1
 93
        1
176
     1
 44
50.0
176
     1
173
     0
176
     1
  0
VISUALSTYLE
  5
3A
102
{ACAD_REACTORS
330
2A
102
}
330
2A
100
AcDbVisualStyle
  2
ColorChange
 70
    16
177
     2
291
     1
 71
     2
176
     1
 72
     2
176
     1
 73
     3
176
     1
 90
        0
176
     1
 40
-0.6
176
     1
 41
-30.0
176
     1
 62
     5
 63
     8
421
  8421504
176
     1
 74
     1
176
     1
 91
        4
176
     1
 64
     7
176
     1
 65
   257
176
     1
 75
     1
176
     1
175
     1
176
     1
 42
1.0
176
     1
 92
        8
176
     1
 66
     8
424
  8421504
176
     1
 43
1.0
176
     1
 76
     1
176
     1
 77
     6
176
     1
 78
     2
176
     1
 67
     7
176
     1
 79
     5
176
     1
170
     0
176
     1
171
     0
176
     1
290
     0
176
     1
 93
        1
176
     1
 44
0.0
176
     1
173
     0
176
     1
  0
VISUALSTYLE
  5
34
102
{ACAD_REACTORS
330
2A
102
}
330
2A
100
AcDbVisualStyle
  2
Conceptual
 70
     9
177
     2
291
     0
 71
     3
176
     1
 72
     2
176
     1
 73
     0
176
     1
 90
        0
176
     1
 40
-0.6
176
     1
 41
-30.0
176
     1
 62
     5
 63
     7
421
 16777215
176
     1
 74
     2
176
     1
 91
        2
176
     1
 64
     7
176
     1
 65
   257
176
     1
 75
     1
176
     1
175
     1
176
     1
 42
40.0
176
     1
 92
        8
176
     1
 66
     7
176
     1
 43
1.0
176
     1
 76
     1
176
     1
 77
     6
176
     1
 78
     2
176
     1
 67
     7
176
     1
 79
     3
176
     1
170
     0
176
     1
171
     0
176
     1
290
     0
176
     1
 93
        1
176
     1
 44
0.0
176
     1
173
     0
176
     1
  0
VISUALSTYLE
  5
35
102
{ACAD_REACTORS
330
2A
102
}
330
2A
100
AcDbVisualStyle
  2
Dim
 70
    11
177
     2
291
     1
 71
     2
176
     1
 72
     2
176
     1
 73
     0
176
     1
 90
        0
176
     1
 40
-0.6
176
     1
 41
-30.0
176
     1
 62
     5
 63
     7
421
 16777215
176
     1
 74
     1
176
     1
 91
        4
176
     1
 64
     7
176
     1
 65
   257
176
     1
 75
     1
176
     1
175
     1
176
     1
 42
1.0
176
     1
 92
        8
176
     1
 66
     7
176
     1
 43
1.0
176
     1
 76
     1
176
     1
 77
     6
176
     1
 78
     2
176
     1
 67
     7
176
     1
 79
     5
176
     1
170
     0
176
     1
171
     0
176
     1
290
     0
176
     1
 93
        1
176
     1
 44
-50.0
176
     1
173
     0
176
     1
  0
VISUALSTYLE
  5
39
102
{ACAD_REACTORS
330
2A
102
}
330
2A
100
AcDbVisualStyle
  2
Facepattern
 70
    15
177
     2
291
     1
 71
     2
176
     1
 72
     2
176
     1
 73
     0
176
     1
 90
        0
176
     1
 40
-0.6
176
     1
 41
-30.0
176
     1
 62
     5
 63
     7
421
 16777215
176
     1
 74
     1
176
     1
 91
        4
176
     1
 64
     7
176
     1
 65
   257
176
     1
 75
     1
176
     1
175
     1
176
     1
 42
1.0
176
     1
 92
        8
176
     1
 66
     7
176
     1
 43
1.0
176
     1
 76
     1
176
     1
 77
     6
176
     1
 78
     2
176
     1
 67
     7
176
     1
 79
     5
176
     1
170
     0
176
     1
171
     0
176
     1
290
     0
176
     1
 93
        1
176
     1
 44
0.0
176
     1
173
     0
176
     1
  0
VISUALSTYLE
  5
2B
102
{ACAD_REACTORS
330
2A
102
}
330
2A
100
AcDbVisualStyle
  2
Flat
 70
     0
177
     2
291
     1
 71
     2
176
     1
 72
     1
176
     1
 73
     1
176
     1
 90
        2
176
     1
 40
-0.6
176
     1
 41
30.0
176
     1
 62
     5
 63
     7
421
 16777215
176
     1
 74
     0
176
     1
 91
        4
176
     1
 64
     7
176
     1
 65
   257
176
     1
 75
     1
176
     1
175
     1
176
     1
 42
1.0
176
     1
 92
        8
176
     1
 66
     7
176
     1
 43
1.0
176
     1
 76
     1
176
     1
 77
     6
176
     1
 78
     2
176
     1
 67
     7
176
     1
 79
     5
176
     1
170
     0
176
     1
171
     0
176
     1
290
     0
176
     1
 93
       13
176
     1
 44
0.0
176
     1
173
     0
176
     1
  0
VISUALSTYLE
  5
2C
102
{ACAD_REACTORS
330
2A
102
}
330
2A
100
AcDbVisualStyle
  2
FlatWithEdges
 70
     1
177
     2
291
     1
 71
     2
176
     1
 72
     1
176
     1
 73
     1
176
     1
 90
        2
176
     1
 40
-0.6
176
     1
 41
30.0
176
     1
 62
     5
 63
     7
421
 16777215
176
     1
 74
     1
176
     1
 91
        4
176
     1
 64
     7
176
     1
 65
   257
176
     1
 75
     1
176
     1
175
     1
176
     1
 42
1.0
176
     1
 92
        0
176
     1
 66
   257
176
     1
 43
1.0
176
     1
 76
     1
176
     1
 77
     6
176
     1
 78
     2
176
     1
 67
     7
176
     1
 79
     5
176
     1
170
     0
176
     1
171
     0
176
     1
290
     0
176
     1
 93
       13
176
     1
 44
0.0
176
     1
173
     0
176
     1
  0
VISUALSTYLE
  5
2D
102
{ACAD_REACTORS
330
2A
102
}
330
2A
100
AcDbVisualStyle
  2
Gouraud
 70
     2
177
     2
291
     1
 71
     2
176
     1
 72
     2
176
     1
 73
     1
176
     1
 90
        2
176
     1
 40
-0.6
176
     1
 41
30.0
176
     1
 62
     5
 63
     7
421
 16777215
176
     1
 74
     0
176
     1
 91
        4
176
     1
 64
     7
176
     1
 65
   257
176
     1
 75
     1
176
     1
175
     1
176
     1
 42
1.0
176
     1
 92
        0
176
     1
 66
     7
176
     1
 43
1.0
176
     1
 76
     1
176
     1
 77
     6
176
     1
 78
     2
176
     1
 67
     7
176
     1
 79
     5
176
     1
170
     0
176
     1
171
     0
176
     1
290
     0
176
     1
 93
       13
176
     1
 44
0.0
176
     1
173
     0
176
     1
  0
VISUALSTYLE
  5
2E
102
{ACAD_REACTORS
330
2A
102
}
330
2A
100
AcDbVisualStyle
  2
GouraudWithEdges
 70
     3
177
     2
291
     1
 71
     2
176
     1
 72
     2
176
     1
 73
     1
176
     1
 90
        2
176
     1
 40
-0.6
176
     1
 41
30.0
176
     1
 62
     5
 63
     7
421
 16777215
176
     1
 74
     1
176
     1
 91
        4
176
     1
 64
     7
176
     1
 65
   257
176
     1
 75
     1
176
     1
175
     1
176
     1
 42
1.0
176
     1
 92
        0
176
     1
 66
   257
176
     1
 43
1.0
176
     1
 76
     1
176
     1
 77
     6
176
     1
 78
     2
176
     1
 67
     7
176
     1
 79
     5
176
     1
170
     0
176
     1
171
     0
176
     1
290
     0
176
     1
 93
       13
176
     1
 44
0.0
176
     1
173
     0
176
     1
  0
VISUALSTYLE
  5
38
102
{ACAD_REACTORS
330
2A
102
}
330
2A
100
AcDbVisualStyle
  2
Linepattern
 70
    14
177
     2
291
     1
 71
     2
176
     1
 72
     2
176
     1
 73
     0
176
     1
 90
        0
176
     1
 40
-0.6
176
     1
 41
-30.0
176
     1
 62
     5
 63
     7
421
 16777215
176
     1
 74
     1
176
     1
 91
        4
176
     1
 64
     7
176
     1
 65
   257
176
     1
 75
     7
176
     1
175
     7
176
     1
 42
1.0
176
     1
 92
        8
176
     1
 66
     7
176
     1
 43
1.0
176
     1
 76
     1
176
     1
 77
     6
176
     1
 78
     2
176
     1
 67
     7
176
     1
 79
     5
176
     1
170
     0
176
     1
171
     0
176
     1
290
     0
176
     1
 93
        1
176
     1
 44
0.0
176
     1
173
     0
176
     1
  0
VISUALSTYLE
  5
33
102
{ACAD_REACTORS
330
2A
102
}
330
2A
100
AcDbVisualStyle
  2
Realistic
 70
     8
177
     2
291
     0
 71
     2
176
     1
 72
     2
176
     1
 73
     0
176
     1
 90
        0
176
     1
 40
-0.6
176
     1
 41
-30.0
176
     1
 62
     5
 63
     7
421
 16777215
176
     1
 74
     1
176
     1
 91
        0
176
     1
 64
     7
176
     1
 65
   257
176
     1
 75
     1
176
     1
175
     1
176
     1
 42
1.0
176
     1
 92
        8
176
     1
 66
     8
424
  7895160
176
     1
 43
1.0
176
     1
 76
     1
176
     1
 77
     6
176
     1
 78
     2
176
     1
 67
     7
176
     1
 79
     5
176
     1
170
     0
176
     1
171
     0
176
     1
290
     0
176
     1
 93
       13
176
     1
 44
0.0
176
     1
173
     0
176
     1
  0
VISUALSTYLE
  5
37
102
{ACAD_REACTORS
330
2A
102
}
330
2A
100
AcDbVisualStyle
  2
Thicken
 70
    13
177
     2
291
     1
 71
     2
176
     1
 72
     2
176
     1
 73
     0
176
     1
 90
        0
176
     1
 40
-0.6
176
     1
 41
-30.0
176
     1
 62
     5
 63
     7
421
 16777215
176
     1
 74
     1
176
     1
 91
        4
176
     1
 64
     7
176
     1
 65
   257
176
     1
 75
     1
176
     1
175
     1
176
     1
 42
1.0
176
     1
 92
       12
176
     1
 66
     7
176
     1
 43
1.0
176
     1
 76
     1
176
     1
 77
     6
176
     1
 78
     2
176
     1
 67
     7
176
     1
 79
     5
176
     1
170
     0
176
     1
171
     0
176
     1
290
     0
176
     1
 93
        1
176
     1
 44
0.0
176
     1
173
     0
176
     1
  0
ENDSEC
  0
EOF
