  0
SECTION
  2
HEADER
  9
$ACADVER
  1
AC1024
  9
$ACADMAINTVER
 70
     6
  9
$DWGCODEPAGE
  3
ANSI_1252
  9
$INSBASE
 10
0.0
 20
0.0
 30
0.0
  9
$EXTMIN
 10
1.000000000000000E+20
 20
1.000000000000000E+20
 30
1.000000000000000E+20
  9
$EXTMAX
 10
-1.000000000000000E+20
 20
-1.000000000000000E+20
 30
-1.000000000000000E+20
  9
$LIMMIN
 10
0.0
 20
0.0
  9
$LIMMAX
 10
12.0
 20
9.0
  9
$ORTHOMODE
 70
     0
  9
$REGENMODE
 70
     1
  9
$FILLMODE
 70
     1
  9
$QTEXTMODE
 70
     0
  9
$MIRRTEXT
 70
     1
  9
$LTSCALE
 40
1.0
  9
$ATTMODE
 70
     1
  9
$TEXTSIZE
 40
0.2
  9
$TRACEWID
 40
0.05
  9
$TEXTSTYLE
  7
Standard
  9
$CLAYER
  8
0
  9
$CELTYPE
  6
ByLayer
  9
$CECOLOR
 62
   256
  9
$CELTSCALE
 40
1.0
  9
$DISPSILH
 70
     0
  9
$DIMSCALE
 40
1.0
  9
$DIMASZ
 40
0.18
  9
$DIMEXO
 40
0.0625
  9
$DIMDLI
 40
0.38
  9
$DIMRND
 40
0.0
  9
$DIMDLE
 40
0.0
  9
$DIMEXE
 40
0.18
  9
$DIMTP
 40
0.0
  9
$DIMTM
 40
0.0
  9
$DIMTXT
 40
0.18
  9
$DIMCEN
 40
0.09
  9
$DIMTSZ
 40
0.0
  9
$DIMTOL
 70
     0
  9
$DIMLIM
 70
     0
  9
$DIMTIH
 70
     1
  9
$DIMTOH
 70
     1
  9
$DIMSE1
 70
     0
  9
$DIMSE2
 70
     0
  9
$DIMTAD
 70
     0
  9
$DIMZIN
 70
     0
  9
$DIMBLK
  1

  9
$DIMASO
 70
     1
  9
$DIMSHO
 70
     1
  9
$DIMPOST
  1

  9
$DIMAPOST
  1

  9
$DIMALT
 70
     0
  9
$DIMALTD
 70
     2
  9
$DIMALTF
 40
25.4
  9
$DIMLFAC
 40
1.0
  9
$DIMTOFL
 70
     0
  9
$DIMTVP
 40
0.0
  9
$DIMTIX
 70
     0
  9
$DIMSOXD
 70
     0
  9
$DIMSAH
 70
     0
  9
$DIMBLK1
  1

  9
$DIMBLK2
  1

  9
$DIMSTYLE
  2
Standard
  9
$DIMCLRD
 70
     0
  9
$DIMCLRE
 70
     0
  9
$DIMCLRT
 70
     0
  9
$DIMTFAC
 40
1.0
  9
$DIMGAP
 40
0.09
  9
$DIMJUST
 70
     0
  9
$DIMSD1
 70
     0
  9
$DIMSD2
 70
     0
  9
$DIMTOLJ
 70
     1
  9
$DIMTZIN
 70
     0
  9
$DIMALTZ
 70
     0
  9
$DIMALTTZ
 70
     0
  9
$DIMUPT
 70
     0
  9
$DIMDEC
 70
     4
  9
$DIMTDEC
 70
     4
  9
$DIMALTU
 70
     2
  9
$DIMALTTD
 70
     2
  9
$DIMTXSTY
  7
Standard
  9
$DIMAUNIT
 70
     0
  9
$DIMADEC
 70
     0
  9
$DIMALTRND
 40
0.0
  9
$DIMAZIN
 70
     0
  9
$DIMDSEP
 70
    46
  9
$DIMATFIT
 70
     3
  9
$DIMFRAC
 70
     0
  9
$DIMLDRBLK
  1

  9
$DIMLUNIT
 70
     2
  9
$DIMLWD
 70
    -2
  9
$DIMLWE
 70
    -2
  9
$DIMTMOVE
 70
     0
  9
$DIMFXL
 40
1.0
  9
$DIMFXLON
 70
     0
  9
$DIMJOGANG
 40
0.7853981633974483
  9
$DIMTFILL
 70
     0
  9
$DIMTFILLCLR
 70
     0
  9
$DIMARCSYM
 70
     0
  9
$DIMLTYPE
  6

  9
$DIMLTEX1
  6

  9
$DIMLTEX2
  6

  9
$DIMTXTDIRECTION
 70
     0
  9
$LUNITS
 70
     2
  9
$LUPREC
 70
     4
  9
$SKETCHINC
 40
0.1
  9
$FILLETRAD
 40
0.5
  9
$AUNITS
 70
     0
  9
$AUPREC
 70
     0
  9
$MENU
  1
.
  9
$ELEVATION
 40
0.0
  9
$PELEVATION
 40
0.0
  9
$THICKNESS
 40
0.0
  9
$LIMCHECK
 70
     0
  9
$CHAMFERA
 40
0.5
  9
$CHAMFERB
 40
0.5
  9
$CHAMFERC
 40
1.0
  9
$CHAMFERD
 40
0.0
  9
$SKPOLY
 70
     0
  9
$TDCREATE
 40
2458554.369713947
  9
$TDUCREATE
 40
2458554.32804728
  9
$TDUPDATE
 40
2458554.36971412
  9
$TDUUPDATE
 40
2458554.328047454
  9
$TDINDWG
 40
0.0000000116
  9
$TDUSRTIMER
 40
0.0000000116
  9
$USRTIMER
 70
     1
  9
$ANGBASE
 50
0.0
  9
$ANGDIR
 70
     0
  9
$PDMODE
 70
     0
  9
$PDSIZE
 40
0.0
  9
$PLINEWID
 40
0.0
  9
$SPLFRAME
 70
     0
  9
$SPLINETYPE
 70
     6
  9
$SPLINESEGS
 70
     8
  9
$HANDSEED
  5
165
  9
$SURFTAB1
 70
     6
  9
$SURFTAB2
 70
     6
  9
$SURFTYPE
 70
     6
  9
$SURFU
 70
     6
  9
$SURFV
 70
     6
  9
$UCSBASE
  2

  9
$UCSNAME
  2

  9
$UCSORG
 10
0.0
 20
0.0
 30
0.0
  9
$UCSXDIR
 10
1.0
 20
0.0
 30
0.0
  9
$UCSYDIR
 10
0.0
 20
1.0
 30
0.0
  9
$UCSORTHOREF
  2

  9
$UCSORTHOVIEW
 70
     0
  9
$UCSORGTOP
 10
0.0
 20
0.0
 30
0.0
  9
$UCSORGBOTTOM
 10
0.0
 20
0.0
 30
0.0
  9
$UCSORGLEFT
 10
0.0
 20
0.0
 30
0.0
  9
$UCSORGRIGHT
 10
0.0
 20
0.0
 30
0.0
  9
$UCSORGFRONT
 10
0.0
 20
0.0
 30
0.0
  9
$UCSORGBACK
 10
0.0
 20
0.0
 30
0.0
  9
$PUCSBASE
  2

  9
$PUCSNAME
  2

  9
$PUCSORG
 10
0.0
 20
0.0
 30
0.0
  9
$PUCSXDIR
 10
1.0
 20
0.0
 30
0.0
  9
$PUCSYDIR
 10
0.0
 20
1.0
 30
0.0
  9
$PUCSORTHOREF
  2

  9
$PUCSORTHOVIEW
 70
     0
  9
$PUCSORGTOP
 10
0.0
 20
0.0
 30
0.0
  9
$PUCSORGBOTTOM
 10
0.0
 20
0.0
 30
0.0
  9
$PUCSORGLEFT
 10
0.0
 20
0.0
 30
0.0
  9
$PUCSORGRIGHT
 10
0.0
 20
0.0
 30
0.0
  9
$PUCSORGFRONT
 10
0.0
 20
0.0
 30
0.0
  9
$PUCSORGBACK
 10
0.0
 20
0.0
 30
0.0
  9
$USERI1
 70
     0
  9
$USERI2
 70
     0
  9
$USERI3
 70
     0
  9
$USERI4
 70
     0
  9
$USERI5
 70
     0
  9
$USERR1
 40
0.0
  9
$USERR2
 40
0.0
  9
$USERR3
 40
0.0
  9
$USERR4
 40
0.0
  9
$USERR5
 40
0.0
  9
$WORLDVIEW
 70
     1
  9
$SHADEDGE
 70
     3
  9
$SHADEDIF
 70
    70
  9
$TILEMODE
 70
     1
  9
$MAXACTVP
 70
    64
  9
$PINSBASE
 10
0.0
 20
0.0
 30
0.0
  9
$PLIMCHECK
 70
     0
  9
$PEXTMIN
 10
1.000000000000000E+20
 20
1.000000000000000E+20
 30
1.000000000000000E+20
  9
$PEXTMAX
 10
-1.000000000000000E+20
 20
-1.000000000000000E+20
 30
-1.000000000000000E+20
  9
$PLIMMIN
 10
0.0
 20
0.0
  9
$PLIMMAX
 10
12.0
 20
9.0
  9
$UNITMODE
 70
     0
  9
$VISRETAIN
 70
     1
  9
$PLINEGEN
 70
     0
  9
$PSLTSCALE
 70
     1
  9
$TREEDEPTH
 70
  3020
  9
$CMLSTYLE
  2
Standard
  9
$CMLJUST
 70
     0
  9
$CMLSCALE
 40
1.0
  9
$PROXYGRAPHICS
 70
     1
  9
$MEASUREMENT
 70
     0
  9
$CELWEIGHT
370
    -1
  9
$ENDCAPS
280
     0
  9
$JOINSTYLE
280
     0
  9
$LWDISPLAY
290
     1
  9
$INSUNITS
 70
     1
  9
$HYPERLINKBASE
  1

  9
$STYLESHEET
  1

  9
$XEDIT
290
     1
  9
$CEPSNTYPE
380
     0
  9
$PSTYLEMODE
290
     1
  9
$FINGERPRINTGUID
  2
{CF89F32F-BAE3-405C-BA33-70474A425724}
  9
$VERSIONGUID
  2
{FAEB1C32-E019-11D5-929B-00C0DF256EC4}
  9
$EXTNAMES
290
     1
  9
$PSVPSCALE
 40
0.0
  9
$OLESTARTUP
290
     0
  9
$SORTENTS
280
   127
  9
$INDEXCTL
280
     0
  9
$HIDETEXT
280
     1
  9
$XCLIPFRAME
280
     2
  9
$HALOGAP
280
     0
  9
$OBSCOLOR
 70
   257
  9
$OBSLTYPE
280
     0
  9
$INTERSECTIONDISPLAY
280
     0
  9
$INTERSECTIONCOLOR
 70
   257
  9
$DIMASSOC
280
     2
  9
$PROJECTNAME
  1

  9
$CAMERADISPLAY
290
     0
  9
$LENSLENGTH
 40
50.0
  9
$CAMERAHEIGHT
 40
0.0
  9
$STEPSPERSEC
 40
2.0
  9
$STEPSIZE
 40
6.0
  9
$3DDWFPREC
 40
2.0
  9
$PSOLWIDTH
 40
0.25
  9
$PSOLHEIGHT
 40
4.0
  9
$LOFTANG1
 40
1.570796326794897
  9
$LOFTANG2
 40
1.570796326794897
  9
$LOFTMAG1
 40
0.0
  9
$LOFTMAG2
 40
0.0
  9
$LOFTPARAM
 70
     7
  9
$LOFTNORMALS
280
     1
  9
$LATITUDE
 40
37.795
  9
$LONGITUDE
 40
-122.394
  9
$NORTHDIRECTION
 40
0.0
  9
$TIMEZONE
 70
 -8000
  9
$LIGHTGLYPHDISPLAY
280
     1
  9
$TILEMODELIGHTSYNCH
280
     1
  9
$CMATERIAL
347
3C
  9
$SOLIDHIST
280
     1
  9
$SHOWHIST
280
     1
  9
$DWFFRAME
280
     2
  9
$DGNFRAME
280
     2
  9
$REALWORLDSCALE
290
     1
  9
$INTERFERECOLOR
 62
   256
  9
$CSHADOW
280
     0
  9
$SHADOWPLANELOCATION
 40
0.0
  0
ENDSEC
  0
SECTION
  2
CLASSES
  0
CLASS
  1
ACDBDICTIONARYWDFLT
  2
AcDbDictionaryWithDefault
  3
ObjectDBX Classes
 90
        0
 91
        4
280
     0
281
     0
  0
CLASS
  1
VISUALSTYLE
  2
AcDbVisualStyle
  3
ObjectDBX Classes
 90
     4095
 91
        4
280
     0
281
     0
  0
CLASS
  1
MATERIAL
  2
AcDbMaterial
  3
ObjectDBX Classes
 90
     1153
 91
        4
280
     0
281
     0
  0
CLASS
  1
SUN
  2
AcDbSun
  3
SCENEOE
 90
     1024
 91
        4
280
     0
281
     0
  0
ENDSEC
  0
SECTION
  2
TABLES
  0
TABLE
  2
VPORT
  5
8
330
0
100
AcDbSymbolTable
 70
     1
  0
VPORT
  5
29
330
8
100
AcDbSymbolTableRecord
100
AcDbViewportTableRecord
  2
*Active
 70
     0
 10
0.0
 20
0.0
 11
1.0
 21
1.0
 12
0.0
 22
0.0
 13
0.0
 23
0.0
 14
0.5
 24
0.5
 15
0.5
 25
0.5
 16
0.0
 26
0.0
 36
1.0
 17
279.39999993015
 27
215.899999946025
 37
0.0
 40
431.79999989205
 41
1.294117647058823
 42
50.0
 43
0.0
 44
0.0
 50
0.0
 51
0.0
 71
     0
 72
   100
 73
     1
 74
     3
 75
     0
 76
     0
 77
     0
 78
     0
281
     0
 65
     1
110
0.0
120
0.0
130
0.0
111
1.0
121
0.0
131
0.0
112
0.0
122
1.0
132
0.0
 79
     0
146
0.0
 60
     3
 61
     5
292
     1
282
     1
141
0.0
142
0.0
 63
   250
361
3F
  0
ENDTAB
  0
TABLE
  2
LTYPE
  5
5
330
0
100
AcDbSymbolTable
 70
     1
  0
LTYPE
  5
14
330
5
100
AcDbSymbolTableRecord
100
AcDbLinetypeTableRecord
  2
ByBlock
 70
     0
  3

 72
    65
 73
     0
 40
0.0
  0
LTYPE
  5
15
330
5
100
AcDbSymbolTableRecord
100
AcDbLinetypeTableRecord
  2
ByLayer
 70
     0
  3

 72
    65
 73
     0
 40
0.0
  0
LTYPE
  5
16
330
5
100
AcDbSymbolTableRecord
100
AcDbLinetypeTableRecord
  2
Continuous
 70
     0
  3
Solid line
 72
    65
 73
     0
 40
0.0
  0
ENDTAB
  0
TABLE
  2
LAYER
  5
2
330
0
100
AcDbSymbolTable
 70
     2
  0
LAYER
  5
10
330
2
100
AcDbSymbolTableRecord
100
AcDbLayerTableRecord
  2
0
 70
     0
 62
     7
  6
Continuous
370
    -3
390
F
347
3E
  0
LAYER
  5
40
330
2
100
AcDbSymbolTableRecord
100
AcDbLayerTableRecord
  2
Calque 1
 70
     0
 62
     7
  6
Continuous
370
    -3
390
F
347
3E
  0
ENDTAB
  0
TABLE
  2
STYLE
  5
3
330
0
100
AcDbSymbolTable
 70
     1
  0
STYLE
  5
11
330
3
100
AcDbSymbolTableRecord
100
AcDbTextStyleTableRecord
  2
Standard
 70
     0
 40
0.0
 41
1.0
 50
0.0
 71
     0
 42
0.2
  3
txt
  4

  0
ENDTAB
  0
TABLE
  2
VIEW
  5
6
330
0
100
AcDbSymbolTable
 70
     0
  0
ENDTAB
  0
TABLE
  2
UCS
  5
7
330
0
100
AcDbSymbolTable
 70
     0
  0
ENDTAB
  0
TABLE
  2
APPID
  5
9
330
0
100
AcDbSymbolTable
 70
     1
  0
APPID
  5
12
330
9
100
AcDbSymbolTableRecord
100
AcDbRegAppTableRecord
  2
ACAD
 70
     0
  0
ENDTAB
  0
TABLE
  2
DIMSTYLE
  5
A
330
0
100
AcDbSymbolTable
 70
     1
100
AcDbDimStyleTable
  0
DIMSTYLE
105
27
330
A
100
AcDbSymbolTableRecord
100
AcDbDimStyleTableRecord
  2
Standard
 70
     0
178
     0
340
11
  0
ENDTAB
  0
TABLE
  2
BLOCK_RECORD
  5
1
330
0
100
AcDbSymbolTable
 70
     1
  0
BLOCK_RECORD
  5
1F
330
1
100
AcDbSymbolTableRecord
100
AcDbBlockTableRecord
  2
*Model_Space
340
22
 70
     0
280
     1
281
     0
  0
BLOCK_RECORD
  5
1B
330
1
100
AcDbSymbolTableRecord
100
AcDbBlockTableRecord
  2
*Paper_Space
340
1E
 70
     0
280
     1
281
     0
  0
BLOCK_RECORD
  5
23
330
1
100
AcDbSymbolTableRecord
100
AcDbBlockTableRecord
  2
*Paper_Space0
340
26
 70
     0
280
     1
281
     0
  0
ENDTAB
  0
ENDSEC
  0
SECTION
  2
BLOCKS
  0
BLOCK
  5
20
330
1F
100
AcDbEntity
  8
0
100
AcDbBlockBegin
  2
*Model_Space
 70
     0
 10
0.0
 20
0.0
 30
0.0
  3
*Model_Space
  1

  0
ENDBLK
  5
21
330
1F
100
AcDbEntity
  8
0
100
AcDbBlockEnd
  0
BLOCK
  5
1C
330
1B
100
AcDbEntity
 67
     1
  8
0
100
AcDbBlockBegin
  2
*Paper_Space
 70
     0
 10
0.0
 20
0.0
 30
0.0
  3
*Paper_Space
  1

  0
ENDBLK
  5
1D
330
1B
100
AcDbEntity
 67
     1
  8
0
100
AcDbBlockEnd
  0
BLOCK
  5
24
330
23
100
AcDbEntity
  8
0
100
AcDbBlockBegin
  2
*Paper_Space0
 70
     0
 10
0.0
 20
0.0
 30
0.0
  3
*Paper_Space0
  1

  0
ENDBLK
  5
25
330
23
100
AcDbEntity
  8
0
100
AcDbBlockEnd
  0
ENDSEC
  0
SECTION
  2
ENTITIES
  0
POLYLINE
  5
41
330
1F
100
AcDbEntity
  8
Calque 1
 62
   250
420
  2236966
370
    50
100
AcDb2dPolyline
 66
     1
 10
0.0
 20
0.0
 30
0.0
  0
VERTEX
  5
42
330
41
100
AcDbEntity
  8
Calque 1
 62
   250
420
  2236966
370
    50
100
AcDbVertex
100
AcDb2dVertex
 10
0.0
 20
0.0
 30
0.0
  0
VERTEX
  5
43
330
41
100
AcDbEntity
  8
Calque 1
 62
   250
420
  2236966
370
    50
100
AcDbVertex
100
AcDb2dVertex
 10
0.0
 20
431.79999989205
 30
0.0
  0
SEQEND
  5
44
330
41
100
AcDbEntity
  8
Calque 1
 62
   250
420
  2236966
370
    50
  0
POLYLINE
  5
45
330
1F
100
AcDbEntity
  8
Calque 1
 62
   250
420
  2236966
370
    50
100
AcDb2dPolyline
 66
     1
 10
0.0
 20
0.0
 30
0.0
  0
VERTEX
  5
46
330
45
100
AcDbEntity
  8
Calque 1
 62
   250
420
  2236966
370
    50
100
AcDbVertex
100
AcDb2dVertex
 10
0.0
 20
0.0
 30
0.0
  0
VERTEX
  5
47
330
45
100
AcDbEntity
  8
Calque 1
 62
   250
420
  2236966
370
    50
100
AcDbVertex
100
AcDb2dVertex
 10
558.7999998603
 20
0.0
 30
0.0
  0
SEQEND
  5
48
330
45
100
AcDbEntity
  8
Calque 1
 62
   250
420
  2236966
370
    50
  0
POLYLINE
  5
49
330
1F
100
AcDbEntity
  8
Calque 1
 62
   250
420
  2236966
370
    50
100
AcDb2dPolyline
 66
     1
 10
0.0
 20
0.0
 30
0.0
  0
VERTEX
  5
4A
330
49
100
AcDbEntity
  8
Calque 1
 62
   250
420
  2236966
370
    50
100
AcDbVertex
100
AcDb2dVertex
 10
0.0
 20
431.79999989205
 30
0.0
  0
VERTEX
  5
4B
330
49
100
AcDbEntity
  8
Calque 1
 62
   250
420
  2236966
370
    50
100
AcDbVertex
100
AcDb2dVertex
 10
558.7999998603
 20
431.79999989205
 30
0.0
  0
SEQEND
  5
4C
330
49
100
AcDbEntity
  8
Calque 1
 62
   250
420
  2236966
370
    50
  0
POLYLINE
  5
4D
330
1F
100
AcDbEntity
  8
Calque 1
 62
   250
420
  2236966
370
    50
100
AcDb2dPolyline
 66
     1
 10
0.0
 20
0.0
 30
0.0
  0
VERTEX
  5
4E
330
4D
100
AcDbEntity
  8
Calque 1
 62
   250
420
  2236966
370
    50
100
AcDbVertex
100
AcDb2dVertex
 10
558.7999998603
 20
0.0
 30
0.0
  0
VERTEX
  5
4F
330
4D
100
AcDbEntity
  8
Calque 1
 62
   250
420
  2236966
370
    50
100
AcDbVertex
100
AcDb2dVertex
 10
558.7999998603
 20
431.79999989205
 30
0.0
  0
SEQEND
  5
50
330
4D
100
AcDbEntity
  8
Calque 1
 62
   250
420
  2236966
370
    50
  0
POLYLINE
  5
51
330
1F
100
AcDbEntity
  8
Calque 1
 62
   250
420
  2236966
370
    50
100
AcDb2dPolyline
 66
     1
 10
0.0
 20
0.0
 30
0.0
  0
VERTEX
  5
52
330
51
100
AcDbEntity
  8
Calque 1
 62
   250
420
  2236966
370
    50
100
AcDbVertex
100
AcDb2dVertex
 10
244.7716657238548
 20
257.8157446322692
 30
0.0
  0
VERTEX
  5
53
330
51
100
AcDbEntity
  8
Calque 1
 62
   250
420
  2236966
370
    50
100
AcDbVertex
100
AcDb2dVertex
 10
244.4269193250152
 20
256.984378496138
 30
0.0
  0
SEQEND
  5
54
330
51
100
AcDbEntity
  8
Calque 1
 62
   250
420
  2236966
370
    50
  0
POLYLINE
  5
55
330
1F
100
AcDbEntity
  8
Calque 1
 62
   250
420
  2236966
370
    50
100
AcDb2dPolyline
 66
     1
 10
0.0
 20
0.0
 30
0.0
  0
VERTEX
  5
56
330
55
100
AcDbEntity
  8
Calque 1
 62
   250
420
  2236966
370
    50
100
AcDbVertex
100
AcDb2dVertex
 10
244.9850463254725
 20
257.7272487419918
 30
0.0
  0
VERTEX
  5
57
330
55
100
AcDbEntity
  8
Calque 1
 62
   250
420
  2236966
370
    50
100
AcDbVertex
100
AcDb2dVertex
 10
244.6402999266329
 20
256.8959041377075
 30
0.0
  0
SEQEND
  5
58
330
55
100
AcDbEntity
  8
Calque 1
 62
   250
420
  2236966
370
    50
  0
POLYLINE
  5
59
330
1F
100
AcDbEntity
  8
Calque 1
 62
   250
420
  2236966
370
    50
100
AcDb2dPolyline
 66
     1
 10
0.0
 20
0.0
 30
0.0
  0
VERTEX
  5
5A
330
59
100
AcDbEntity
  8
Calque 1
 62
   250
420
  2236966
370
    50
100
AcDbVertex
100
AcDb2dVertex
 10
245.0466489391181
 20
257.7017119717074
 30
0.0
  0
VERTEX
  5
5B
330
59
100
AcDbEntity
  8
Calque 1
 62
   250
420
  2236966
370
    50
100
AcDbVertex
100
AcDb2dVertex
 10
244.7019025402785
 20
256.8703673674231
 30
0.0
  0
SEQEND
  5
5C
330
59
100
AcDbEntity
  8
Calque 1
 62
   250
420
  2236966
370
    50
  0
POLYLINE
  5
5D
330
1F
100
AcDbEntity
  8
Calque 1
 62
   250
420
  2236966
370
    50
100
AcDb2dPolyline
 66
     1
 10
0.0
 20
0.0
 30
0.0
  0
VERTEX
  5
5E
330
5D
100
AcDbEntity
  8
Calque 1
 62
   250
420
  2236966
370
    50
100
AcDbVertex
100
AcDb2dVertex
 10
245.233243923338
 20
257.6243480462168
 30
0.0
  0
VERTEX
  5
5F
330
5D
100
AcDbEntity
  8
Calque 1
 62
   250
420
  2236966
370
    50
100
AcDbVertex
100
AcDb2dVertex
 10
244.8884975244984
 20
256.7929819100856
 30
0.0
  0
SEQEND
  5
60
330
5D
100
AcDbEntity
  8
Calque 1
 62
   250
420
  2236966
370
    50
  0
POLYLINE
  5
61
330
1F
100
AcDbEntity
  8
Calque 1
 62
   250
420
  2236966
370
    50
100
AcDb2dPolyline
 66
     1
 10
0.0
 20
0.0
 30
0.0
  0
VERTEX
  5
62
330
61
100
AcDbEntity
  8
Calque 1
 62
   250
420
  2236966
370
    50
100
AcDbVertex
100
AcDb2dVertex
 10
251.8439084589032
 20
253.4756994673386
 30
0.0
  0
VERTEX
  5
63
330
61
100
AcDbEntity
  8
Calque 1
 62
   250
420
  2236966
370
    50
100
AcDbVertex
100
AcDb2dVertex
 10
251.6946712288515
 20
253.5376035268391
 30
0.0
  0
SEQEND
  5
64
330
61
100
AcDbEntity
  8
Calque 1
 62
   250
420
  2236966
370
    50
  0
POLYLINE
  5
65
330
1F
100
AcDbEntity
  8
Calque 1
 62
   250
420
  2236966
370
    50
100
AcDb2dPolyline
 66
     1
 10
0.0
 20
0.0
 30
0.0
  0
VERTEX
  5
66
330
65
100
AcDbEntity
  8
Calque 1
 62
   250
420
  2236966
370
    50
100
AcDbVertex
100
AcDb2dVertex
 10
245.1801248573248
 20
256.2390320879042
 30
0.0
  0
VERTEX
  5
67
330
65
100
AcDbEntity
  8
Calque 1
 62
   250
420
  2236966
370
    50
100
AcDbVertex
100
AcDb2dVertex
 10
245.0308876272731
 20
256.300914615558
 30
0.0
  0
SEQEND
  5
68
330
65
100
AcDbEntity
  8
Calque 1
 62
   250
420
  2236966
370
    50
  0
POLYLINE
  5
69
330
1F
100
AcDbEntity
  8
Calque 1
 62
   250
420
  2236966
370
    50
100
AcDb2dPolyline
 66
     1
 10
0.0
 20
0.0
 30
0.0
  0
VERTEX
  5
6A
330
69
100
AcDbEntity
  8
Calque 1
 62
   250
420
  2236966
370
    50
100
AcDbVertex
100
AcDb2dVertex
 10
252.7542964727272
 20
253.5312085683447
 30
0.0
  0
VERTEX
  5
6B
330
69
100
AcDbEntity
  8
Calque 1
 62
   250
420
  2236966
370
    50
100
AcDbVertex
100
AcDb2dVertex
 10
251.9150712125204
 20
253.8792278078952
 30
0.0
  0
SEQEND
  5
6C
330
69
100
AcDbEntity
  8
Calque 1
 62
   250
420
  2236966
370
    50
  0
POLYLINE
  5
6D
330
1F
100
AcDbEntity
  8
Calque 1
 62
   250
420
  2236966
370
    50
100
AcDb2dPolyline
 66
     1
 10
0.0
 20
0.0
 30
0.0
  0
VERTEX
  5
6E
330
6D
100
AcDbEntity
  8
Calque 1
 62
   250
420
  2236966
370
    50
100
AcDbVertex
100
AcDb2dVertex
 10
245.2661661170689
 20
256.6363807884342
 30
0.0
  0
VERTEX
  5
6F
330
6D
100
AcDbEntity
  8
Calque 1
 62
   250
420
  2236966
370
    50
100
AcDbVertex
100
AcDb2dVertex
 10
244.4269193250152
 20
256.984378496138
 30
0.0
  0
SEQEND
  5
70
330
6D
100
AcDbEntity
  8
Calque 1
 62
   250
420
  2236966
370
    50
  0
POLYLINE
  5
71
330
1F
100
AcDbEntity
  8
Calque 1
 62
   250
420
  2236966
370
    50
100
AcDb2dPolyline
 66
     1
 10
0.0
 20
0.0
 30
0.0
  0
VERTEX
  5
72
330
71
100
AcDbEntity
  8
Calque 1
 62
   250
420
  2236966
370
    50
100
AcDbVertex
100
AcDb2dVertex
 10
244.7716657238548
 20
257.8157446322692
 30
0.0
  0
VERTEX
  5
73
330
71
100
AcDbEntity
  8
Calque 1
 62
   250
420
  2236966
370
    50
100
AcDbVertex
100
AcDb2dVertex
 10
245.6109125159085
 20
257.4677253927186
 30
0.0
  0
SEQEND
  5
74
330
71
100
AcDbEntity
  8
Calque 1
 62
   250
420
  2236966
370
    50
  0
POLYLINE
  5
75
330
1F
100
AcDbEntity
  8
Calque 1
 62
   250
420
  2236966
370
    50
100
AcDb2dPolyline
 66
     1
 10
0.0
 20
0.0
 30
0.0
  0
VERTEX
  5
76
330
75
100
AcDbEntity
  8
Calque 1
 62
   250
420
  2236966
370
    50
100
AcDbVertex
100
AcDb2dVertex
 10
252.2597960795132
 20
254.7105724121796
 30
0.0
  0
VERTEX
  5
77
330
75
100
AcDbEntity
  8
Calque 1
 62
   250
420
  2236966
370
    50
100
AcDbVertex
100
AcDb2dVertex
 10
253.0990428715668
 20
254.3625747044758
 30
0.0
  0
SEQEND
  5
78
330
75
100
AcDbEntity
  8
Calque 1
 62
   250
420
  2236966
370
    50
  0
POLYLINE
  5
79
330
1F
100
AcDbEntity
  8
Calque 1
 62
   250
420
  2236966
370
    50
100
AcDb2dPolyline
 66
     1
 10
0.0
 20
0.0
 30
0.0
  0
VERTEX
  5
7A
330
79
100
AcDbEntity
  8
Calque 1
 62
   250
420
  2236966
370
    50
100
AcDbVertex
100
AcDb2dVertex
 10
245.6820752695257
 20
257.8712537332752
 30
0.0
  0
VERTEX
  5
7B
330
79
100
AcDbEntity
  8
Calque 1
 62
   250
420
  2236966
370
    50
100
AcDbVertex
100
AcDb2dVertex
 10
245.8313124995773
 20
257.8093712056215
 30
0.0
  0
SEQEND
  5
7C
330
79
100
AcDbEntity
  8
Calque 1
 62
   250
420
  2236966
370
    50
  0
POLYLINE
  5
7D
330
1F
100
AcDbEntity
  8
Calque 1
 62
   250
420
  2236966
370
    50
100
AcDb2dPolyline
 66
     1
 10
0.0
 20
0.0
 30
0.0
  0
VERTEX
  5
7E
330
7D
100
AcDbEntity
  8
Calque 1
 62
   250
420
  2236966
370
    50
100
AcDbVertex
100
AcDb2dVertex
 10
252.3458373392573
 20
255.1079426445563
 30
0.0
  0
VERTEX
  5
7F
330
7D
100
AcDbEntity
  8
Calque 1
 62
   250
420
  2236966
370
    50
100
AcDbVertex
100
AcDb2dVertex
 10
252.4950961011558
 20
255.0460385850558
 30
0.0
  0
SEQEND
  5
80
330
7D
100
AcDbEntity
  8
Calque 1
 62
   250
420
  2236966
370
    50
  0
POLYLINE
  5
81
330
1F
100
AcDbEntity
  8
Calque 1
 62
   250
420
  2236966
370
    50
100
AcDb2dPolyline
 66
     1
 10
0.0
 20
0.0
 30
0.0
  0
VERTEX
  5
82
330
81
100
AcDbEntity
  8
Calque 1
 62
   250
420
  2236966
370
    50
100
AcDbVertex
100
AcDb2dVertex
 10
247.3112178608067
 20
252.5641272019414
 30
0.0
  0
VERTEX
  5
83
330
81
100
AcDbEntity
  8
Calque 1
 62
   250
420
  2236966
370
    50
100
AcDbVertex
100
AcDb2dVertex
 10
247.2339831263968
 20
252.3778551954233
 30
0.0
  0
SEQEND
  5
84
330
81
100
AcDbEntity
  8
Calque 1
 62
   250
420
  2236966
370
    50
  0
POLYLINE
  5
85
330
1F
100
AcDbEntity
  8
Calque 1
 62
   250
420
  2236966
370
    50
100
AcDb2dPolyline
 66
     1
 10
0.0
 20
0.0
 30
0.0
  0
VERTEX
  5
86
330
85
100
AcDbEntity
  8
Calque 1
 62
   250
420
  2236966
370
    50
100
AcDbVertex
100
AcDb2dVertex
 10
247.3290246980961
 20
252.6070401725796
 30
0.0
  0
VERTEX
  5
87
330
85
100
AcDbEntity
  8
Calque 1
 62
   250
420
  2236966
370
    50
100
AcDbVertex
100
AcDb2dVertex
 10
250.0148642020905
 20
259.0840134714703
 30
0.0
  0
SEQEND
  5
88
330
85
100
AcDbEntity
  8
Calque 1
 62
   250
420
  2236966
370
    50
  0
POLYLINE
  5
89
330
1F
100
AcDbEntity
  8
Calque 1
 62
   250
420
  2236966
370
    50
100
AcDb2dPolyline
 66
     1
 10
0.0
 20
0.0
 30
0.0
  0
VERTEX
  5
8A
330
89
100
AcDbEntity
  8
Calque 1
 62
   250
420
  2236966
370
    50
100
AcDbVertex
100
AcDb2dVertex
 10
247.5110979944916
 20
252.2629397291435
 30
0.0
  0
VERTEX
  5
8B
330
89
100
AcDbEntity
  8
Calque 1
 62
   250
420
  2236966
370
    50
100
AcDbVertex
100
AcDb2dVertex
 10
250.1969590303327
 20
258.7399130280342
 30
0.0
  0
SEQEND
  5
8C
330
89
100
AcDbEntity
  8
Calque 1
 62
   250
420
  2236966
370
    50
  0
POLYLINE
  5
8D
330
1F
100
AcDbEntity
  8
Calque 1
 62
   250
420
  2236966
370
    50
100
AcDb2dPolyline
 66
     1
 10
0.0
 20
0.0
 30
0.0
  0
VERTEX
  5
8E
330
8D
100
AcDbEntity
  8
Calque 1
 62
   250
420
  2236966
370
    50
100
AcDbVertex
100
AcDb2dVertex
 10
250.2147443357753
 20
258.7828259986724
 30
0.0
  0
VERTEX
  5
8F
330
8D
100
AcDbEntity
  8
Calque 1
 62
   250
420
  2236966
370
    50
100
AcDbVertex
100
AcDb2dVertex
 10
250.2919790701852
 20
258.9690980051905
 30
0.0
  0
SEQEND
  5
90
330
8D
100
AcDbEntity
  8
Calque 1
 62
   250
420
  2236966
370
    50
  0
POLYLINE
  5
91
330
1F
100
AcDbEntity
  8
Calque 1
 62
   250
420
  2236966
370
    50
100
AcDb2dPolyline
 66
     1
 10
0.0
 20
0.0
 30
0.0
  0
VERTEX
  5
92
330
91
100
AcDbEntity
  8
Calque 1
 62
   250
420
  2236966
370
    50
100
AcDbVertex
100
AcDb2dVertex
 10
252.6374646720837
 20
254.5539712905282
 30
0.0
  0
VERTEX
  5
93
330
91
100
AcDbEntity
  8
Calque 1
 62
   250
420
  2236966
370
    50
100
AcDbVertex
100
AcDb2dVertex
 10
252.2927398050909
 20
253.7226266862438
 30
0.0
  0
SEQEND
  5
94
330
91
100
AcDbEntity
  8
Calque 1
 62
   250
420
  2236966
370
    50
  0
POLYLINE
  5
95
330
1F
100
AcDbEntity
  8
Calque 1
 62
   250
420
  2236966
370
    50
100
AcDb2dPolyline
 66
     1
 10
0.0
 20
0.0
 30
0.0
  0
VERTEX
  5
96
330
95
100
AcDbEntity
  8
Calque 1
 62
   250
420
  2236966
370
    50
100
AcDbVertex
100
AcDb2dVertex
 10
252.8240596563035
 20
254.4766073650376
 30
0.0
  0
VERTEX
  5
97
330
95
100
AcDbEntity
  8
Calque 1
 62
   250
420
  2236966
370
    50
100
AcDbVertex
100
AcDb2dVertex
 10
252.479313257464
 20
253.6452412289064
 30
0.0
  0
SEQEND
  5
98
330
95
100
AcDbEntity
  8
Calque 1
 62
   250
420
  2236966
370
    50
  0
POLYLINE
  5
99
330
1F
100
AcDbEntity
  8
Calque 1
 62
   250
420
  2236966
370
    50
100
AcDb2dPolyline
 66
     1
 10
0.0
 20
0.0
 30
0.0
  0
VERTEX
  5
9A
330
99
100
AcDbEntity
  8
Calque 1
 62
   250
420
  2236966
370
    50
100
AcDbVertex
100
AcDb2dVertex
 10
252.8856622699492
 20
254.4510490629063
 30
0.0
  0
VERTEX
  5
9B
330
99
100
AcDbEntity
  8
Calque 1
 62
   250
420
  2236966
370
    50
100
AcDbVertex
100
AcDb2dVertex
 10
252.5409158711096
 20
253.619704458622
 30
0.0
  0
SEQEND
  5
9C
330
99
100
AcDbEntity
  8
Calque 1
 62
   250
420
  2236966
370
    50
  0
POLYLINE
  5
9D
330
1F
100
AcDbEntity
  8
Calque 1
 62
   250
420
  2236966
370
    50
100
AcDb2dPolyline
 66
     1
 10
0.0
 20
0.0
 30
0.0
  0
VERTEX
  5
9E
330
9D
100
AcDbEntity
  8
Calque 1
 62
   250
420
  2236966
370
    50
100
AcDbVertex
100
AcDb2dVertex
 10
253.0990428715668
 20
254.3625747044758
 30
0.0
  0
VERTEX
  5
9F
330
9D
100
AcDbEntity
  8
Calque 1
 62
   250
420
  2236966
370
    50
100
AcDbVertex
100
AcDb2dVertex
 10
252.7542964727272
 20
253.5312085683447
 30
0.0
  0
SEQEND
  5
A0
330
9D
100
AcDbEntity
  8
Calque 1
 62
   250
420
  2236966
370
    50
  0
SPLINE
  5
A1
330
1F
100
AcDbEntity
  8
Calque 1
 62
   250
420
  2236966
370
    50
100
AcDbSpline
210
0.0
220
0.0
230
1.0
 70
    11
 71
     3
 72
    17
 73
    13
 74
     0
 42
0.0000000001
 43
0.0000000001
 12
1.0
 22
0.0
 32
0.0
 13
1.0
 23
0.0
 33
0.0
 40
0.0
 40
0.0
 40
0.0
 40
0.0
 40
1.0
 40
1.0
 40
1.0
 40
2.0
 40
2.0
 40
2.0
 40
3.0
 40
3.0
 40
3.0
 40
4.0
 40
4.0
 40
4.0
 40
4.0
 10
253.5129926259664
 20
255.6734766003069
 30
0.0
 10
253.5129926259664
 20
258.2968306849375
 30
0.0
 10
251.3863351829217
 20
260.4234881279822
 30
0.0
 10
248.762981098291
 20
260.4234881279822
 30
0.0
 10
246.1396270136604
 20
260.4234881279822
 30
0.0
 10
244.0129911024625
 20
258.2968306849375
 30
0.0
 10
244.0129911024625
 20
255.6734766003069
 30
0.0
 10
244.0129911024625
 20
253.0501225156763
 30
0.0
 10
246.1396270136604
 20
250.9234866044783
 30
0.0
 10
248.762981098291
 20
250.9234866044783
 30
0.0
 10
251.3863351829217
 20
250.9234866044783
 30
0.0
 10
253.5129926259664
 20
253.0501225156763
 30
0.0
 10
253.5129926259664
 20
255.6734766003069
 30
0.0
  0
SPLINE
  5
A2
330
1F
100
AcDbEntity
  8
Calque 1
 62
   250
420
  2236966
370
    50
100
AcDbSpline
210
0.0
220
0.0
230
1.0
 70
     8
 71
     3
 72
     8
 73
     4
 74
     0
 42
0.0000000001
 43
0.0000000001
 12
1.0
 22
0.0
 32
0.0
 13
1.0
 23
0.0
 33
0.0
 40
0.0
 40
0.0
 40
0.0
 40
0.0
 40
1.0
 40
1.0
 40
1.0
 40
1.0
 10
247.2882003165959
 20
252.1171475945771
 30
0.0
 10
249.0912125706482
 20
251.3694542150439
 30
0.0
 10
251.1684544253264
 20
252.0893284485337
 30
0.0
 10
252.1221429830307
 20
253.7923683379734
 30
0.0
  0
SPLINE
  5
A3
330
1F
100
AcDbEntity
  8
Calque 1
 62
   250
420
  2236966
370
    50
100
AcDbSpline
210
0.0
220
0.0
230
1.0
 70
     8
 71
     3
 72
     8
 73
     4
 74
     0
 42
0.0000000001
 43
0.0000000001
 12
1.0
 22
0.0
 32
0.0
 13
1.0
 23
0.0
 33
0.0
 40
0.0
 40
0.0
 40
0.0
 40
0.0
 40
1.0
 40
1.0
 40
1.0
 40
1.0
 10
245.0584053274615
 20
256.7216469016942
 30
0.0
 10
244.5270208807085
 20
254.8434885023699
 30
0.0
 10
245.4852095943904
 20
252.8648409741102
 30
0.0
 10
247.2882003165959
 20
252.1171475945771
 30
0.0
  0
SPLINE
  5
A4
330
1F
100
AcDbEntity
  8
Calque 1
 62
   250
420
  2236966
370
    50
100
AcDbSpline
210
0.0
220
0.0
230
1.0
 70
     8
 71
     3
 72
     8
 73
     4
 74
     0
 42
0.0000000001
 43
0.0000000001
 12
1.0
 22
0.0
 32
0.0
 13
1.0
 23
0.0
 33
0.0
 40
0.0
 40
0.0
 40
0.0
 40
0.0
 40
1.0
 40
1.0
 40
1.0
 40
1.0
 10
245.4029579396801
 20
257.5530345696721
 30
0.0
 10
246.3560436056744
 20
259.2568065419024
 30
0.0
 10
248.4334577151269
 20
259.9775635811102
 30
0.0
 10
250.2369436698084
 20
259.2301501155853
 30
0.0
  0
SPLINE
  5
A5
330
1F
100
AcDbEntity
  8
Calque 1
 62
   250
420
  2236966
370
    50
100
AcDbSpline
210
0.0
220
0.0
230
1.0
 70
     8
 71
     3
 72
     8
 73
     4
 74
     0
 42
0.0000000001
 43
0.0000000001
 12
1.0
 22
0.0
 32
0.0
 13
1.0
 23
0.0
 33
0.0
 40
0.0
 40
0.0
 40
0.0
 40
0.0
 40
1.0
 40
1.0
 40
1.0
 40
1.0
 10
250.2369436698084
 20
259.2301501155853
 30
0.0
 10
252.0404296244899
 20
258.4827366500603
 30
0.0
 10
252.9990489751075
 20
256.5038092077925
 30
0.0
 10
252.4675568691205
 20
254.6253062989196
 30
0.0
  0
SPLINE
  5
A6
330
1F
100
AcDbEntity
  8
Calque 1
 62
   250
420
  2236966
370
    50
100
AcDbSpline
210
0.0
220
0.0
230
1.0
 70
     8
 71
     3
 72
     8
 73
     4
 74
     0
 42
0.0000000001
 43
0.0000000001
 12
1.0
 22
0.0
 32
0.0
 13
1.0
 23
0.0
 33
0.0
 40
0.0
 40
0.0
 40
0.0
 40
0.0
 40
1.0
 40
1.0
 40
1.0
 40
1.0
 10
245.6820752695257
 20
257.8712537332752
 30
0.0
 10
245.6053788312853
 20
257.7637452222887
 30
0.0
 10
245.5343668005956
 20
257.6522963833409
 30
0.0
 10
245.4693190914647
 20
257.5373593852142
 30
0.0
  0
SPLINE
  5
A7
330
1F
100
AcDbEntity
  8
Calque 1
 62
   250
420
  2236966
370
    50
100
AcDbSpline
210
0.0
220
0.0
230
1.0
 70
     8
 71
     3
 72
     8
 73
     4
 74
     0
 42
0.0000000001
 43
0.0000000001
 12
1.0
 22
0.0
 32
0.0
 13
1.0
 23
0.0
 33
0.0
 40
0.0
 40
0.0
 40
0.0
 40
0.0
 40
1.0
 40
1.0
 40
1.0
 40
1.0
 10
245.1195773041715
 20
256.6971221282085
 30
0.0
 10
245.0829516327939
 20
256.5667467959386
 30
0.0
 10
245.0533453434676
 20
256.4344766611518
 30
0.0
 10
245.0308876272731
 20
256.300914615558
 30
0.0
  0
SPLINE
  5
A8
330
1F
100
AcDbEntity
  8
Calque 1
 62
   250
420
  2236966
370
    50
100
AcDbSpline
210
0.0
220
0.0
230
1.0
 70
     8
 71
     3
 72
     8
 73
     4
 74
     0
 42
0.0000000001
 43
0.0000000001
 12
1.0
 22
0.0
 32
0.0
 13
1.0
 23
0.0
 33
0.0
 40
0.0
 40
0.0
 40
0.0
 40
0.0
 40
1.0
 40
1.0
 40
1.0
 40
1.0
 10
251.8439084589032
 20
253.4756994673386
 30
0.0
 10
251.9225642952008
 20
253.5859640547133
 30
0.0
 10
251.9952342780928
 20
253.7003627566704
 30
0.0
 10
252.0616169617242
 20
253.8184218725806
 30
0.0
  0
SPLINE
  5
A9
330
1F
100
AcDbEntity
  8
Calque 1
 62
   250
420
  2236966
370
    50
100
AcDbSpline
210
0.0
220
0.0
230
1.0
 70
     8
 71
     3
 72
     8
 73
     4
 74
     0
 42
0.0000000001
 43
0.0000000001
 12
1.0
 22
0.0
 32
0.0
 13
1.0
 23
0.0
 33
0.0
 40
0.0
 40
0.0
 40
0.0
 40
0.0
 40
1.0
 40
1.0
 40
1.0
 40
1.0
 10
252.4063848924106
 20
254.6498310724052
 30
0.0
 10
252.4430320956349
 20
254.780227936522
 30
0.0
 10
252.4726383849613
 20
254.912476539462
 30
0.0
 10
252.4950961011558
 20
255.0460385850558
 30
0.0
  0
SPLINE
  5
AA
330
1F
100
AcDbEntity
  8
Calque 1
 62
   250
420
  2236966
370
    50
100
AcDbSpline
210
0.0
220
0.0
230
1.0
 70
     8
 71
     3
 72
     8
 73
     4
 74
     0
 42
0.0000000001
 43
0.0000000001
 12
1.0
 22
0.0
 32
0.0
 13
1.0
 23
0.0
 33
0.0
 40
0.0
 40
0.0
 40
0.0
 40
0.0
 40
1.0
 40
1.0
 40
1.0
 40
1.0
 10
250.2919790701852
 20
258.9690980051905
 30
0.0
 10
250.2012438678425
 20
259.0111927656508
 30
0.0
 10
250.1087861177571
 20
259.0495409847711
 30
0.0
 10
250.0148642020905
 20
259.0840134714703
 30
0.0
  0
SPLINE
  5
AB
330
1F
100
AcDbEntity
  8
Calque 1
 62
   250
420
  2236966
370
    50
100
AcDbSpline
210
0.0
220
0.0
230
1.0
 70
     8
 71
     3
 72
     8
 73
     4
 74
     0
 42
0.0000000001
 43
0.0000000001
 12
1.0
 22
0.0
 32
0.0
 13
1.0
 23
0.0
 33
0.0
 40
0.0
 40
0.0
 40
0.0
 40
0.0
 40
1.0
 40
1.0
 40
1.0
 40
1.0
 10
247.2339831263968
 20
252.3778551954233
 30
0.0
 10
247.3247398605864
 20
252.3357604349629
 30
0.0
 10
247.4171976106718
 20
252.2974122158428
 30
0.0
 10
247.5110979944916
 20
252.2629397291435
 30
0.0
  0
SPLINE
  5
AC
330
1F
100
AcDbEntity
  8
Calque 1
 62
   250
420
  2236966
370
    50
100
AcDbSpline
210
0.0
220
0.0
230
1.0
 70
     8
 71
     3
 72
     8
 73
     4
 74
     0
 42
0.0000000001
 43
0.0000000001
 12
1.0
 22
0.0
 32
0.0
 13
1.0
 23
0.0
 33
0.0
 40
0.0
 40
0.0
 40
0.0
 40
0.0
 40
1.0
 40
1.0
 40
1.0
 40
1.0
 10
245.8313124995773
 20
257.8093712056215
 30
0.0
 10
245.4929179955387
 20
257.3448862068227
 30
0.0
 10
245.2697404036348
 20
256.8066546327927
 30
0.0
 10
245.1801248573248
 20
256.2390320879042
 30
0.0
  0
SPLINE
  5
AD
330
1F
100
AcDbEntity
  8
Calque 1
 62
   250
420
  2236966
370
    50
100
AcDbSpline
210
0.0
220
0.0
230
1.0
 70
     8
 71
     3
 72
     8
 73
     4
 74
     0
 42
0.0000000001
 43
0.0000000001
 12
1.0
 22
0.0
 32
0.0
 13
1.0
 23
0.0
 33
0.0
 40
0.0
 40
0.0
 40
0.0
 40
0.0
 40
1.0
 40
1.0
 40
1.0
 40
1.0
 10
251.6946712288515
 20
253.5376035268391
 30
0.0
 10
252.0330442010434
 20
254.0020669937912
 30
0.0
 10
252.256243324794
 20
254.5402985678211
 30
0.0
 10
252.3458373392573
 20
255.1079426445563
 30
0.0
  0
SPLINE
  5
AE
330
1F
100
AcDbEntity
  8
Calque 1
 62
   250
420
  2236966
370
    50
100
AcDbSpline
210
0.0
220
0.0
230
1.0
 70
     8
 71
     3
 72
     8
 73
     4
 74
     0
 42
0.0000000001
 43
0.0000000001
 12
1.0
 22
0.0
 32
0.0
 13
1.0
 23
0.0
 33
0.0
 40
0.0
 40
0.0
 40
0.0
 40
0.0
 40
1.0
 40
1.0
 40
1.0
 40
1.0
 10
245.5931487423126
 20
256.9879312508572
 30
0.0
 10
244.8895525849907
 20
255.2911786606781
 30
0.0
 10
245.646849168189
 20
253.3412330841799
 30
0.0
 10
247.3112178608067
 20
252.5641272019414
 30
0.0
  0
SPLINE
  5
AF
330
1F
100
AcDbEntity
  8
Calque 1
 62
   250
420
  2236966
370
    50
100
AcDbSpline
210
0.0
220
0.0
230
1.0
 70
     8
 71
     3
 72
     8
 73
     4
 74
     0
 42
0.0000000001
 43
0.0000000001
 12
1.0
 22
0.0
 32
0.0
 13
1.0
 23
0.0
 33
0.0
 40
0.0
 40
0.0
 40
0.0
 40
0.0
 40
1.0
 40
1.0
 40
1.0
 40
1.0
 10
249.9376294676805
 20
258.8977414649522
 30
0.0
 10
248.2117227569575
 20
259.5265144547039
 30
0.0
 10
246.2967664314814
 20
258.6847053728831
 30
0.0
 10
245.5931487423126
 20
256.9879312508572
 30
0.0
  0
SPLINE
  5
B0
330
1F
100
AcDbEntity
  8
Calque 1
 62
   250
420
  2236966
370
    50
100
AcDbSpline
210
0.0
220
0.0
230
1.0
 70
     8
 71
     3
 72
     8
 73
     4
 74
     0
 42
0.0000000001
 43
0.0000000001
 12
1.0
 22
0.0
 32
0.0
 13
1.0
 23
0.0
 33
0.0
 40
0.0
 40
0.0
 40
0.0
 40
0.0
 40
1.0
 40
1.0
 40
1.0
 40
1.0
 10
250.2147443357753
 20
258.7828259986724
 30
0.0
 10
251.8791345602399
 20
258.0057201164339
 30
0.0
 10
252.6364311434381
 20
256.0557745399357
 30
0.0
 10
251.9328134542694
 20
254.3590219497566
 30
0.0
  0
SPLINE
  5
B1
330
1F
100
AcDbEntity
  8
Calque 1
 62
   250
420
  2236966
370
    50
100
AcDbSpline
210
0.0
220
0.0
230
1.0
 70
     8
 71
     3
 72
     8
 73
     4
 74
     0
 42
0.0000000001
 43
0.0000000001
 12
1.0
 22
0.0
 32
0.0
 13
1.0
 23
0.0
 33
0.0
 40
0.0
 40
0.0
 40
0.0
 40
0.0
 40
1.0
 40
1.0
 40
1.0
 40
1.0
 10
251.9328134542694
 20
254.3590219497566
 30
0.0
 10
251.2292172969475
 20
252.6622478277307
 30
0.0
 10
249.3142394396246
 20
251.8204387459099
 30
0.0
 10
247.5883542607483
 20
252.4492117356616
 30
0.0
  0
SPLINE
  5
B2
330
1F
100
AcDbEntity
  8
Calque 1
 62
   250
420
  2236966
370
    50
100
AcDbSpline
210
0.0
220
0.0
230
1.0
 70
     8
 71
     3
 72
     8
 73
     4
 74
     0
 42
0.0000000001
 43
0.0000000001
 12
1.0
 22
0.0
 32
0.0
 13
1.0
 23
0.0
 33
0.0
 40
0.0
 40
0.0
 40
0.0
 40
0.0
 40
1.0
 40
1.0
 40
1.0
 40
1.0
 10
250.1969590303327
 20
258.7399130280342
 30
0.0
 10
251.8376642233362
 20
257.9726687316223
 30
0.0
 10
252.5837427143606
 20
256.049896345764
 30
0.0
 10
251.8899435473248
 20
254.3768072551992
 30
0.0
  0
SPLINE
  5
B3
330
1F
100
AcDbEntity
  8
Calque 1
 62
   250
420
  2236966
370
    50
100
AcDbSpline
210
0.0
220
0.0
230
1.0
 70
     8
 71
     3
 72
     8
 73
     4
 74
     0
 42
0.0000000001
 43
0.0000000001
 12
1.0
 22
0.0
 32
0.0
 13
1.0
 23
0.0
 33
0.0
 40
0.0
 40
0.0
 40
0.0
 40
0.0
 40
1.0
 40
1.0
 40
1.0
 40
1.0
 10
251.8899435473248
 20
254.3768072551992
 30
0.0
 10
251.1961659121359
 20
252.7036966327876
 30
0.0
 10
249.3083397136061
 20
251.8731487068342
 30
0.0
 10
247.6061395661909
 20
252.4921247062997
 30
0.0
  0
SPLINE
  5
B4
330
1F
100
AcDbEntity
  8
Calque 1
 62
   250
420
  2236966
370
    50
100
AcDbSpline
210
0.0
220
0.0
230
1.0
 70
     8
 71
     3
 72
     8
 73
     4
 74
     0
 42
0.0000000001
 43
0.0000000001
 12
1.0
 22
0.0
 32
0.0
 13
1.0
 23
0.0
 33
0.0
 40
0.0
 40
0.0
 40
0.0
 40
0.0
 40
1.0
 40
1.0
 40
1.0
 40
1.0
 10
245.6360186492572
 20
256.9701674772614
 30
0.0
 10
244.9422410140683
 20
255.2970568548498
 30
0.0
 10
245.6883195050927
 20
253.3742844689915
 30
0.0
 10
247.3290246980961
 20
252.6070401725796
 30
0.0
  0
SPLINE
  5
B5
330
1F
100
AcDbEntity
  8
Calque 1
 62
   250
420
  2236966
370
    50
100
AcDbSpline
210
0.0
220
0.0
230
1.0
 70
     8
 71
     3
 72
     8
 73
     4
 74
     0
 42
0.0000000001
 43
0.0000000001
 12
1.0
 22
0.0
 32
0.0
 13
1.0
 23
0.0
 33
0.0
 40
0.0
 40
0.0
 40
0.0
 40
0.0
 40
1.0
 40
1.0
 40
1.0
 40
1.0
 10
249.9198441622379
 20
258.8548284943141
 30
0.0
 10
248.2176440148228
 20
259.4738044937795
 30
0.0
 10
246.329817816293
 20
258.6432565678262
 30
0.0
 10
245.6360186492572
 20
256.9701674772614
 30
0.0
  0
SPLINE
  5
B6
330
1F
100
AcDbEntity
  8
Calque 1
 62
   250
420
  2236966
370
    50
100
AcDbSpline
210
0.0
220
0.0
230
1.0
 70
     8
 71
     3
 72
     8
 73
     4
 74
     0
 42
0.0000000001
 43
0.0000000001
 12
1.0
 22
0.0
 32
0.0
 13
1.0
 23
0.0
 33
0.0
 40
0.0
 40
0.0
 40
0.0
 40
0.0
 40
1.0
 40
1.0
 40
1.0
 40
1.0
 10
250.1801426579953
 20
258.699390092389
 30
0.0
 10
251.7984977940382
 20
257.9414475537872
 30
0.0
 10
252.5340041482923
 20
256.0443195974473
 30
0.0
 10
251.8494852072199
 20
254.393580563843
 30
0.0
  0
SPLINE
  5
B7
330
1F
100
AcDbEntity
  8
Calque 1
 62
   250
420
  2236966
370
    50
100
AcDbSpline
210
0.0
220
0.0
230
1.0
 70
     8
 71
     3
 72
     8
 73
     4
 74
     0
 42
0.0000000001
 43
0.0000000001
 12
1.0
 22
0.0
 32
0.0
 13
1.0
 23
0.0
 33
0.0
 40
0.0
 40
0.0
 40
0.0
 40
0.0
 40
1.0
 40
1.0
 40
1.0
 40
1.0
 10
251.8494852072199
 20
254.393580563843
 30
0.0
 10
251.1649447343008
 20
252.7428415302388
 30
0.0
 10
249.3027414334425
 20
251.9229088047493
 30
0.0
 10
247.6229344066815
 20
252.532647641945
 30
0.0
  0
SPLINE
  5
B8
330
1F
100
AcDbEntity
  8
Calque 1
 62
   250
420
  2236966
370
    50
100
AcDbSpline
210
0.0
220
0.0
230
1.0
 70
     8
 71
     3
 72
     8
 73
     4
 74
     0
 42
0.0000000001
 43
0.0000000001
 12
1.0
 22
0.0
 32
0.0
 13
1.0
 23
0.0
 33
0.0
 40
0.0
 40
0.0
 40
0.0
 40
0.0
 40
1.0
 40
1.0
 40
1.0
 40
1.0
 10
245.6764985212089
 20
256.9533726367708
 30
0.0
 10
244.9919795801366
 20
255.3026336031665
 30
0.0
 10
245.7274859343906
 20
253.4055056468266
 30
0.0
 10
247.3458195385867
 20
252.6475631082248
 30
0.0
  0
SPLINE
  5
B9
330
1F
100
AcDbEntity
  8
Calque 1
 62
   250
420
  2236966
370
    50
100
AcDbSpline
210
0.0
220
0.0
230
1.0
 70
     8
 71
     3
 72
     8
 73
     4
 74
     0
 42
0.0000000001
 43
0.0000000001
 12
1.0
 22
0.0
 32
0.0
 13
1.0
 23
0.0
 33
0.0
 40
0.0
 40
0.0
 40
0.0
 40
0.0
 40
1.0
 40
1.0
 40
1.0
 40
1.0
 10
249.9030277899006
 20
258.8143055586688
 30
0.0
 10
248.2232207631395
 20
259.4240443958645
 30
0.0
 10
246.3610174622813
 20
258.604111670375
 30
0.0
 10
245.6764985212089
 20
256.9533726367708
 30
0.0
  0
SPLINE
  5
BA
330
1F
100
AcDbEntity
  8
Calque 1
 62
   250
420
  2236966
370
    50
100
AcDbSpline
210
0.0
220
0.0
230
1.0
 70
     8
 71
     3
 72
     8
 73
     4
 74
     0
 42
0.0000000001
 43
0.0000000001
 12
1.0
 22
0.0
 32
0.0
 13
1.0
 23
0.0
 33
0.0
 40
0.0
 40
0.0
 40
0.0
 40
0.0
 40
1.0
 40
1.0
 40
1.0
 40
1.0
 10
250.1608070595844
 20
258.6527305804106
 30
0.0
 10
251.7533885750283
 20
257.9055109015067
 30
0.0
 10
252.4767079040032
 20
256.037903107106
 30
0.0
 10
251.8028472270884
 20
254.412916162254
 30
0.0
  0
SPLINE
  5
BB
330
1F
100
AcDbEntity
  8
Calque 1
 62
   250
420
  2236966
370
    50
100
AcDbSpline
210
0.0
220
0.0
230
1.0
 70
     8
 71
     3
 72
     8
 73
     4
 74
     0
 42
0.0000000001
 43
0.0000000001
 12
1.0
 22
0.0
 32
0.0
 13
1.0
 23
0.0
 33
0.0
 40
0.0
 40
0.0
 40
0.0
 40
0.0
 40
1.0
 40
1.0
 40
1.0
 40
1.0
 10
251.8028472270884
 20
254.412916162254
 30
0.0
 10
251.1290080820203
 20
252.787929217402
 30
0.0
 10
249.2963034112545
 20
251.9802265808852
 30
0.0
 10
247.6422915369393
 20
252.5793071539233
 30
0.0
  0
SPLINE
  5
BC
330
1F
100
AcDbEntity
  8
Calque 1
 62
   250
420
  2236966
370
    50
100
AcDbSpline
210
0.0
220
0.0
230
1.0
 70
     8
 71
     3
 72
     8
 73
     4
 74
     0
 42
0.0000000001
 43
0.0000000001
 12
1.0
 22
0.0
 32
0.0
 13
1.0
 23
0.0
 33
0.0
 40
0.0
 40
0.0
 40
0.0
 40
0.0
 40
1.0
 40
1.0
 40
1.0
 40
1.0
 10
245.7231149694937
 20
256.9340370383598
 30
0.0
 10
245.0492758244256
 20
255.3090500935078
 30
0.0
 10
245.7725736215538
 20
253.4414422991071
 30
0.0
 10
247.3651766688445
 20
252.6942226202032
 30
0.0
  0
SPLINE
  5
BD
330
1F
100
AcDbEntity
  8
Calque 1
 62
   250
420
  2236966
370
    50
100
AcDbSpline
210
0.0
220
0.0
230
1.0
 70
     8
 71
     3
 72
     8
 73
     4
 74
     0
 42
0.0000000001
 43
0.0000000001
 12
1.0
 22
0.0
 32
0.0
 13
1.0
 23
0.0
 33
0.0
 40
0.0
 40
0.0
 40
0.0
 40
0.0
 40
1.0
 40
1.0
 40
1.0
 40
1.0
 10
249.8836706596428
 20
258.7676460466905
 30
0.0
 10
248.2296587853276
 20
259.3667266197286
 30
0.0
 10
246.3969756464086
 20
258.5590455150586
 30
0.0
 10
245.7231149694937
 20
256.9340370383598
 30
0.0
  0
SPLINE
  5
BE
330
1F
100
AcDbEntity
  8
Calque 1
 62
   250
420
  2236966
370
    50
100
AcDbSpline
210
0.0
220
0.0
230
1.0
 70
     8
 71
     3
 72
     8
 73
     4
 74
     0
 42
0.0000000001
 43
0.0000000001
 12
1.0
 22
0.0
 32
0.0
 13
1.0
 23
0.0
 33
0.0
 40
0.0
 40
0.0
 40
0.0
 40
0.0
 40
1.0
 40
1.0
 40
1.0
 40
1.0
 10
250.1427633719804
 20
258.6092362499093
 30
0.0
 10
251.7113584101082
 20
257.8720073479126
 30
0.0
 10
252.4233089239819
 20
256.0319387855471
 30
0.0
 10
251.7593959602806
 20
254.4309383180112
 30
0.0
  0
SPLINE
  5
BF
330
1F
100
AcDbEntity
  8
Calque 1
 62
   250
420
  2236966
370
    50
100
AcDbSpline
210
0.0
220
0.0
230
1.0
 70
     8
 71
     3
 72
     8
 73
     4
 74
     0
 42
0.0000000001
 43
0.0000000001
 12
1.0
 22
0.0
 32
0.0
 13
1.0
 23
0.0
 33
0.0
 40
0.0
 40
0.0
 40
0.0
 40
0.0
 40
1.0
 40
1.0
 40
1.0
 40
1.0
 10
251.7593959602806
 20
254.4309383180112
 30
0.0
 10
251.0955045284262
 20
252.8299378504753
 30
0.0
 10
249.2903175578489
 20
252.0336470927533
 30
0.0
 10
247.6603352245433
 20
252.6228014844246
 30
0.0
  0
SPLINE
  5
C0
330
1F
100
AcDbEntity
  8
Calque 1
 62
   250
420
  2236966
370
    50
100
AcDbSpline
210
0.0
220
0.0
230
1.0
 70
     8
 71
     3
 72
     8
 73
     4
 74
     0
 42
0.0000000001
 43
0.0000000001
 12
1.0
 22
0.0
 32
0.0
 13
1.0
 23
0.0
 33
0.0
 40
0.0
 40
0.0
 40
0.0
 40
0.0
 40
1.0
 40
1.0
 40
1.0
 40
1.0
 10
245.7665662363014
 20
256.9160148826026
 30
0.0
 10
245.102674804447
 20
255.3150144150667
 30
0.0
 10
245.8146253183207
 20
253.4749458527012
 30
0.0
 10
247.3832203564485
 20
252.7377169507045
 30
0.0
  0
SPLINE
  5
C1
330
1F
100
AcDbEntity
  8
Calque 1
 62
   250
420
  2236966
370
    50
100
AcDbSpline
210
0.0
220
0.0
230
1.0
 70
     8
 71
     3
 72
     8
 73
     4
 74
     0
 42
0.0000000001
 43
0.0000000001
 12
1.0
 22
0.0
 32
0.0
 13
1.0
 23
0.0
 33
0.0
 40
0.0
 40
0.0
 40
0.0
 40
0.0
 40
1.0
 40
1.0
 40
1.0
 40
1.0
 10
249.8656485038856
 20
258.7241517161892
 30
0.0
 10
248.23566617058
 20
259.3133061078605
 30
0.0
 10
246.4304576681558
 20
258.5170368819853
 30
0.0
 10
245.7665662363014
 20
256.9160148826026
 30
0.0
  0
SPLINE
  5
C2
330
1F
100
AcDbEntity
  8
Calque 1
 62
   250
420
  2236966
370
    50
100
AcDbSpline
210
0.0
220
0.0
230
1.0
 70
     8
 71
     3
 72
     8
 73
     4
 74
     0
 42
0.0000000001
 43
0.0000000001
 12
1.0
 22
0.0
 32
0.0
 13
1.0
 23
0.0
 33
0.0
 40
0.0
 40
0.0
 40
0.0
 40
0.0
 40
1.0
 40
1.0
 40
1.0
 40
1.0
 10
250.125946999643
 20
258.5686917824173
 30
0.0
 10
251.6721704489635
 20
257.8407861700776
 30
0.0
 10
252.3735488260668
 20
256.0263620372304
 30
0.0
 10
251.718916088329
 20
254.447711626655
 30
0.0
  0
SPLINE
  5
C3
330
1F
100
AcDbEntity
  8
Calque 1
 62
   250
420
  2236966
370
    50
100
AcDbSpline
210
0.0
220
0.0
230
1.0
 70
     8
 71
     3
 72
     8
 73
     4
 74
     0
 42
0.0000000001
 43
0.0000000001
 12
1.0
 22
0.0
 32
0.0
 13
1.0
 23
0.0
 33
0.0
 40
0.0
 40
0.0
 40
0.0
 40
0.0
 40
1.0
 40
1.0
 40
1.0
 40
1.0
 10
251.718916088329
 20
254.447711626655
 30
0.0
 10
251.0642833505912
 20
252.8690827479264
 30
0.0
 10
249.2847408095321
 20
252.0834287225152
 30
0.0
 10
247.6771300650339
 20
252.6633459519167
 30
0.0
  0
SPLINE
  5
C4
330
1F
100
AcDbEntity
  8
Calque 1
 62
   250
420
  2236966
370
    50
100
AcDbSpline
210
0.0
220
0.0
230
1.0
 70
     8
 71
     3
 72
     8
 73
     4
 74
     0
 42
0.0000000001
 43
0.0000000001
 12
1.0
 22
0.0
 32
0.0
 13
1.0
 23
0.0
 33
0.0
 40
0.0
 40
0.0
 40
0.0
 40
0.0
 40
1.0
 40
1.0
 40
1.0
 40
1.0
 10
245.8070676400999
 20
256.8992415739588
 30
0.0
 10
245.1524349023621
 20
255.3205911633834
 30
0.0
 10
245.8537917476186
 20
253.5061670305362
 30
0.0
 10
247.4000151969391
 20
252.7782614181965
 30
0.0
  0
SPLINE
  5
C5
330
1F
100
AcDbEntity
  8
Calque 1
 62
   250
420
  2236966
370
    50
100
AcDbSpline
210
0.0
220
0.0
230
1.0
 70
     8
 71
     3
 72
     8
 73
     4
 74
     0
 42
0.0000000001
 43
0.0000000001
 12
1.0
 22
0.0
 32
0.0
 13
1.0
 23
0.0
 33
0.0
 40
0.0
 40
0.0
 40
0.0
 40
0.0
 40
1.0
 40
1.0
 40
1.0
 40
1.0
 10
249.8488321315482
 20
258.6836072486972
 30
0.0
 10
248.2412429188967
 20
259.2635244780986
 30
0.0
 10
246.4616788459909
 20
258.4778704526874
 30
0.0
 10
245.8070676400999
 20
256.8992415739588
 30
0.0
  0
POLYLINE
  5
C6
330
1F
100
AcDbEntity
  8
Calque 1
 62
   250
420
  2236966
370
    50
100
AcDb2dPolyline
 66
     1
 10
0.0
 20
0.0
 30
0.0
  0
VERTEX
  5
C7
330
C6
100
AcDbEntity
  8
Calque 1
 62
   250
420
  2236966
370
    50
100
AcDbVertex
100
AcDb2dVertex
 10
239.5629827960121
 20
246.173475076803
 30
0.0
  0
VERTEX
  5
C8
330
C6
100
AcDbEntity
  8
Calque 1
 62
   250
420
  2236966
370
    50
100
AcDbVertex
100
AcDb2dVertex
 10
257.96297940057
 20
246.173475076803
 30
0.0
  0
SEQEND
  5
C9
330
C6
100
AcDbEntity
  8
Calque 1
 62
   250
420
  2236966
370
    50
  0
POLYLINE
  5
CA
330
1F
100
AcDbEntity
  8
Calque 1
 62
   250
420
  2236966
370
    50
100
AcDb2dPolyline
 66
     1
 10
0.0
 20
0.0
 30
0.0
  0
VERTEX
  5
CB
330
CA
100
AcDbEntity
  8
Calque 1
 62
   250
420
  2236966
370
    50
100
AcDbVertex
100
AcDb2dVertex
 10
240.2629831349213
 20
247.1734786369371
 30
0.0
  0
VERTEX
  5
CC
330
CA
100
AcDbEntity
  8
Calque 1
 62
   250
420
  2236966
370
    50
100
AcDbVertex
100
AcDb2dVertex
 10
257.2629790616608
 20
247.1734786369371
 30
0.0
  0
SEQEND
  5
CD
330
CA
100
AcDbEntity
  8
Calque 1
 62
   250
420
  2236966
370
    50
  0
POLYLINE
  5
CE
330
1F
100
AcDbEntity
  8
Calque 1
 62
   250
420
  2236966
370
    50
100
AcDb2dPolyline
 66
     1
 10
0.0
 20
0.0
 30
0.0
  0
VERTEX
  5
CF
330
CE
100
AcDbEntity
  8
Calque 1
 62
   250
420
  2236966
370
    50
100
AcDbVertex
100
AcDb2dVertex
 10
239.2629795747871
 20
264.8734749025859
 30
0.0
  0
VERTEX
  5
D0
330
CE
100
AcDbEntity
  8
Calque 1
 62
   250
420
  2236966
370
    50
100
AcDbVertex
100
AcDb2dVertex
 10
239.2629795747871
 20
246.4734782980279
 30
0.0
  0
SEQEND
  5
D1
330
CE
100
AcDbEntity
  8
Calque 1
 62
   250
420
  2236966
370
    50
  0
POLYLINE
  5
D2
330
1F
100
AcDbEntity
  8
Calque 1
 62
   250
420
  2236966
370
    50
100
AcDb2dPolyline
 66
     1
 10
0.0
 20
0.0
 30
0.0
  0
VERTEX
  5
D3
330
D2
100
AcDbEntity
  8
Calque 1
 62
   250
420
  2236966
370
    50
100
AcDbVertex
100
AcDb2dVertex
 10
240.2629831349213
 20
264.1734745636767
 30
0.0
  0
VERTEX
  5
D4
330
D2
100
AcDbEntity
  8
Calque 1
 62
   250
420
  2236966
370
    50
100
AcDbVertex
100
AcDb2dVertex
 10
240.2629831349213
 20
247.1734786369371
 30
0.0
  0
SEQEND
  5
D5
330
D2
100
AcDbEntity
  8
Calque 1
 62
   250
420
  2236966
370
    50
  0
POLYLINE
  5
D6
330
1F
100
AcDbEntity
  8
Calque 1
 62
   250
420
  2236966
370
    50
100
AcDb2dPolyline
 66
     1
 10
0.0
 20
0.0
 30
0.0
  0
VERTEX
  5
D7
330
D6
100
AcDbEntity
  8
Calque 1
 62
   250
420
  2236966
370
    50
100
AcDbVertex
100
AcDb2dVertex
 10
257.2629790616608
 20
264.1734745636767
 30
0.0
  0
VERTEX
  5
D8
330
D6
100
AcDbEntity
  8
Calque 1
 62
   250
420
  2236966
370
    50
100
AcDbVertex
100
AcDb2dVertex
 10
240.2629831349213
 20
264.1734745636767
 30
0.0
  0
SEQEND
  5
D9
330
D6
100
AcDbEntity
  8
Calque 1
 62
   250
420
  2236966
370
    50
  0
POLYLINE
  5
DA
330
1F
100
AcDbEntity
  8
Calque 1
 62
   250
420
  2236966
370
    50
100
AcDb2dPolyline
 66
     1
 10
0.0
 20
0.0
 30
0.0
  0
VERTEX
  5
DB
330
DA
100
AcDbEntity
  8
Calque 1
 62
   250
420
  2236966
370
    50
100
AcDbVertex
100
AcDb2dVertex
 10
257.96297940057
 20
265.1734781238108
 30
0.0
  0
VERTEX
  5
DC
330
DA
100
AcDbEntity
  8
Calque 1
 62
   250
420
  2236966
370
    50
100
AcDbVertex
100
AcDb2dVertex
 10
239.5629827960121
 20
265.1734781238108
 30
0.0
  0
SEQEND
  5
DD
330
DA
100
AcDbEntity
  8
Calque 1
 62
   250
420
  2236966
370
    50
  0
POLYLINE
  5
DE
330
1F
100
AcDbEntity
  8
Calque 1
 62
   250
420
  2236966
370
    50
100
AcDb2dPolyline
 66
     1
 10
0.0
 20
0.0
 30
0.0
  0
VERTEX
  5
DF
330
DE
100
AcDbEntity
  8
Calque 1
 62
   250
420
  2236966
370
    50
100
AcDbVertex
100
AcDb2dVertex
 10
257.2629790616608
 20
247.1734786369371
 30
0.0
  0
VERTEX
  5
E0
330
DE
100
AcDbEntity
  8
Calque 1
 62
   250
420
  2236966
370
    50
100
AcDbVertex
100
AcDb2dVertex
 10
257.2629790616608
 20
264.1734745636767
 30
0.0
  0
SEQEND
  5
E1
330
DE
100
AcDbEntity
  8
Calque 1
 62
   250
420
  2236966
370
    50
  0
POLYLINE
  5
E2
330
1F
100
AcDbEntity
  8
Calque 1
 62
   250
420
  2236966
370
    50
100
AcDb2dPolyline
 66
     1
 10
0.0
 20
0.0
 30
0.0
  0
VERTEX
  5
E3
330
E2
100
AcDbEntity
  8
Calque 1
 62
   250
420
  2236966
370
    50
100
AcDbVertex
100
AcDb2dVertex
 10
258.2629826217949
 20
246.4734782980279
 30
0.0
  0
VERTEX
  5
E4
330
E2
100
AcDbEntity
  8
Calque 1
 62
   250
420
  2236966
370
    50
100
AcDbVertex
100
AcDb2dVertex
 10
258.2629826217949
 20
264.8734749025859
 30
0.0
  0
SEQEND
  5
E5
330
E2
100
AcDbEntity
  8
Calque 1
 62
   250
420
  2236966
370
    50
  0
SPLINE
  5
E6
330
1F
100
AcDbEntity
  8
Calque 1
 62
   250
420
  2236966
370
    50
100
AcDbSpline
210
0.0
220
0.0
230
1.0
 70
     8
 71
     3
 72
     8
 73
     4
 74
     0
 42
0.0000000001
 43
0.0000000001
 12
1.0
 22
0.0
 32
0.0
 13
1.0
 23
0.0
 33
0.0
 40
0.0
 40
0.0
 40
0.0
 40
0.0
 40
1.0
 40
1.0
 40
1.0
 40
1.0
 10
239.3508510415078
 20
246.2613465435236
 30
0.0
 10
239.4071137571513
 20
246.2050838278802
 30
0.0
 10
239.4834226221496
 20
246.173475076803
 30
0.0
 10
239.5629827960121
 20
246.173475076803
 30
0.0
  0
SPLINE
  5
E7
330
1F
100
AcDbEntity
  8
Calque 1
 62
   250
420
  2236966
370
    50
100
AcDbSpline
210
0.0
220
0.0
230
1.0
 70
     8
 71
     3
 72
     8
 73
     4
 74
     0
 42
0.0000000001
 43
0.0000000001
 12
1.0
 22
0.0
 32
0.0
 13
1.0
 23
0.0
 33
0.0
 40
0.0
 40
0.0
 40
0.0
 40
0.0
 40
1.0
 40
1.0
 40
1.0
 40
1.0
 10
239.2629795747871
 20
246.4734782980279
 30
0.0
 10
239.2629795747871
 20
246.3939181241654
 30
0.0
 10
239.2945883258643
 20
246.3176092591671
 30
0.0
 10
239.3508510415078
 20
246.2613465435236
 30
0.0
  0
SPLINE
  5
E8
330
1F
100
AcDbEntity
  8
Calque 1
 62
   250
420
  2236966
370
    50
100
AcDbSpline
210
0.0
220
0.0
230
1.0
 70
     8
 71
     3
 72
     8
 73
     4
 74
     0
 42
0.0000000001
 43
0.0000000001
 12
1.0
 22
0.0
 32
0.0
 13
1.0
 23
0.0
 33
0.0
 40
0.0
 40
0.0
 40
0.0
 40
0.0
 40
1.0
 40
1.0
 40
1.0
 40
1.0
 10
239.3508510415078
 20
265.0856066570902
 30
0.0
 10
239.2945883258643
 20
265.0293439414467
 30
0.0
 10
239.2629795747871
 20
264.9530350764484
 30
0.0
 10
239.2629795747871
 20
264.8734749025859
 30
0.0
  0
SPLINE
  5
E9
330
1F
100
AcDbEntity
  8
Calque 1
 62
   250
420
  2236966
370
    50
100
AcDbSpline
210
0.0
220
0.0
230
1.0
 70
     8
 71
     3
 72
     8
 73
     4
 74
     0
 42
0.0000000001
 43
0.0000000001
 12
1.0
 22
0.0
 32
0.0
 13
1.0
 23
0.0
 33
0.0
 40
0.0
 40
0.0
 40
0.0
 40
0.0
 40
1.0
 40
1.0
 40
1.0
 40
1.0
 10
239.5629827960121
 20
265.1734781238108
 30
0.0
 10
239.4834226221496
 20
265.1734781238108
 30
0.0
 10
239.4071137571513
 20
265.1418693727337
 30
0.0
 10
239.3508510415078
 20
265.0856066570902
 30
0.0
  0
SPLINE
  5
EA
330
1F
100
AcDbEntity
  8
Calque 1
 62
   250
420
  2236966
370
    50
100
AcDbSpline
210
0.0
220
0.0
230
1.0
 70
     8
 71
     3
 72
     8
 73
     4
 74
     0
 42
0.0000000001
 43
0.0000000001
 12
1.0
 22
0.0
 32
0.0
 13
1.0
 23
0.0
 33
0.0
 40
0.0
 40
0.0
 40
0.0
 40
0.0
 40
1.0
 40
1.0
 40
1.0
 40
1.0
 10
257.96297940057
 20
246.173475076803
 30
0.0
 10
258.1286669615637
 20
246.173475076803
 30
0.0
 10
258.2629826217949
 20
246.3077907370342
 30
0.0
 10
258.2629826217949
 20
246.4734782980279
 30
0.0
  0
SPLINE
  5
EB
330
1F
100
AcDbEntity
  8
Calque 1
 62
   250
420
  2236966
370
    50
100
AcDbSpline
210
0.0
220
0.0
230
1.0
 70
     8
 71
     3
 72
     8
 73
     4
 74
     0
 42
0.0000000001
 43
0.0000000001
 12
1.0
 22
0.0
 32
0.0
 13
1.0
 23
0.0
 33
0.0
 40
0.0
 40
0.0
 40
0.0
 40
0.0
 40
1.0
 40
1.0
 40
1.0
 40
1.0
 10
258.2629826217949
 20
264.8734749025859
 30
0.0
 10
258.2629826217949
 20
265.0391624635797
 30
0.0
 10
258.1286669615637
 20
265.1734781238108
 30
0.0
 10
257.96297940057
 20
265.1734781238108
 30
0.0
  0
POLYLINE
  5
EC
330
1F
100
AcDbEntity
  8
Calque 1
 62
   250
420
  2236966
370
    50
100
AcDb2dPolyline
 66
     1
 10
0.0
 20
0.0
 30
0.0
  0
VERTEX
  5
ED
330
EC
100
AcDbEntity
  8
Calque 1
 62
   250
420
  2236966
370
    50
100
AcDbVertex
100
AcDb2dVertex
 10
246.298488979224
 20
264.1734745636767
 30
0.0
  0
VERTEX
  5
EE
330
EC
100
AcDbEntity
  8
Calque 1
 62
   250
420
  2236966
370
    50
100
AcDbVertex
100
AcDb2dVertex
 10
246.2629829638792
 20
264.1529762455394
 30
0.0
  0
SEQEND
  5
EF
330
EC
100
AcDbEntity
  8
Calque 1
 62
   250
420
  2236966
370
    50
  0
POLYLINE
  5
F0
330
1F
100
AcDbEntity
  8
Calque 1
 62
   250
420
  2236966
370
    50
100
AcDb2dPolyline
 66
     1
 10
0.0
 20
0.0
 30
0.0
  0
VERTEX
  5
F1
330
F0
100
AcDbEntity
  8
Calque 1
 62
   250
420
  2236966
370
    50
100
AcDbVertex
100
AcDb2dVertex
 10
244.0129911024625
 20
267.3106646399323
 30
0.0
  0
VERTEX
  5
F2
330
F0
100
AcDbEntity
  8
Calque 1
 62
   250
420
  2236966
370
    50
100
AcDbVertex
100
AcDb2dVertex
 10
244.0129911024625
 20
265.1734781238108
 30
0.0
  0
SEQEND
  5
F3
330
F0
100
AcDbEntity
  8
Calque 1
 62
   250
420
  2236966
370
    50
  0
POLYLINE
  5
F4
330
1F
100
AcDbEntity
  8
Calque 1
 62
   250
420
  2236966
370
    50
100
AcDb2dPolyline
 66
     1
 10
0.0
 20
0.0
 30
0.0
  0
VERTEX
  5
F5
330
F4
100
AcDbEntity
  8
Calque 1
 62
   250
420
  2236966
370
    50
100
AcDbVertex
100
AcDb2dVertex
 10
251.0154706539345
 20
263.9234682906815
 30
0.0
  0
VERTEX
  5
F6
330
F4
100
AcDbEntity
  8
Calque 1
 62
   250
420
  2236966
370
    50
100
AcDbVertex
100
AcDb2dVertex
 10
251.2629792327029
 20
264.066375157779
 30
0.0
  0
SEQEND
  5
F7
330
F4
100
AcDbEntity
  8
Calque 1
 62
   250
420
  2236966
370
    50
  0
POLYLINE
  5
F8
330
1F
100
AcDbEntity
  8
Calque 1
 62
   250
420
  2236966
370
    50
100
AcDb2dPolyline
 66
     1
 10
0.0
 20
0.0
 30
0.0
  0
VERTEX
  5
F9
330
F8
100
AcDbEntity
  8
Calque 1
 62
   250
420
  2236966
370
    50
100
AcDbVertex
100
AcDb2dVertex
 10
251.0168486921286
 20
268.5337596645832
 30
0.0
  0
VERTEX
  5
FA
330
F8
100
AcDbEntity
  8
Calque 1
 62
   250
420
  2236966
370
    50
100
AcDbVertex
100
AcDb2dVertex
 10
251.0245786251236
 20
268.547152473282
 30
0.0
  0
SEQEND
  5
FB
330
F8
100
AcDbEntity
  8
Calque 1
 62
   250
420
  2236966
370
    50
  0
POLYLINE
  5
FC
330
1F
100
AcDbEntity
  8
Calque 1
 62
   250
420
  2236966
370
    50
100
AcDb2dPolyline
 66
     1
 10
0.0
 20
0.0
 30
0.0
  0
VERTEX
  5
FD
330
FC
100
AcDbEntity
  8
Calque 1
 62
   250
420
  2236966
370
    50
100
AcDbVertex
100
AcDb2dVertex
 10
246.2629829638792
 20
264.1529762455394
 30
0.0
  0
VERTEX
  5
FE
330
FC
100
AcDbEntity
  8
Calque 1
 62
   250
420
  2236966
370
    50
100
AcDbVertex
100
AcDb2dVertex
 10
246.2629829638792
 20
264.066375157779
 30
0.0
  0
SEQEND
  5
FF
330
FC
100
AcDbEntity
  8
Calque 1
 62
   250
420
  2236966
370
    50
  0
POLYLINE
  5
100
330
1F
100
AcDbEntity
  8
Calque 1
 62
   250
420
  2236966
370
    50
100
AcDb2dPolyline
 66
     1
 10
0.0
 20
0.0
 30
0.0
  0
VERTEX
  5
101
330
100
100
AcDbEntity
  8
Calque 1
 62
   250
420
  2236966
370
    50
100
AcDbVertex
100
AcDb2dVertex
 10
248.2729808610546
 20
268.8192719529233
 30
0.0
  0
VERTEX
  5
102
330
100
100
AcDbEntity
  8
Calque 1
 62
   250
420
  2236966
370
    50
100
AcDbVertex
100
AcDb2dVertex
 10
248.2729808610546
 20
268.5337596645832
 30
0.0
  0
SEQEND
  5
103
330
100
100
AcDbEntity
  8
Calque 1
 62
   250
420
  2236966
370
    50
  0
POLYLINE
  5
104
330
1F
100
AcDbEntity
  8
Calque 1
 62
   250
420
  2236966
370
    50
100
AcDb2dPolyline
 66
     1
 10
0.0
 20
0.0
 30
0.0
  0
VERTEX
  5
105
330
104
100
AcDbEntity
  8
Calque 1
 62
   250
420
  2236966
370
    50
100
AcDbVertex
100
AcDb2dVertex
 10
249.2529813355275
 20
268.5337596645832
 30
0.0
  0
VERTEX
  5
106
330
104
100
AcDbEntity
  8
Calque 1
 62
   250
420
  2236966
370
    50
100
AcDbVertex
100
AcDb2dVertex
 10
249.2529813355275
 20
268.8192719529233
 30
0.0
  0
SEQEND
  5
107
330
104
100
AcDbEntity
  8
Calque 1
 62
   250
420
  2236966
370
    50
  0
POLYLINE
  5
108
330
1F
100
AcDbEntity
  8
Calque 1
 62
   250
420
  2236966
370
    50
100
AcDb2dPolyline
 66
     1
 10
0.0
 20
0.0
 30
0.0
  0
VERTEX
  5
109
330
108
100
AcDbEntity
  8
Calque 1
 62
   250
420
  2236966
370
    50
100
AcDbVertex
100
AcDb2dVertex
 10
251.2629792327029
 20
264.1529762455394
 30
0.0
  0
VERTEX
  5
10A
330
108
100
AcDbEntity
  8
Calque 1
 62
   250
420
  2236966
370
    50
100
AcDbVertex
100
AcDb2dVertex
 10
251.2629792327029
 20
264.066375157779
 30
0.0
  0
SEQEND
  5
10B
330
108
100
AcDbEntity
  8
Calque 1
 62
   250
420
  2236966
370
    50
  0
POLYLINE
  5
10C
330
1F
100
AcDbEntity
  8
Calque 1
 62
   250
420
  2236966
370
    50
100
AcDb2dPolyline
 66
     1
 10
0.0
 20
0.0
 30
0.0
  0
VERTEX
  5
10D
330
10C
100
AcDbEntity
  8
Calque 1
 62
   250
420
  2236966
370
    50
100
AcDbVertex
100
AcDb2dVertex
 10
246.5014051033052
 20
268.547152473282
 30
0.0
  0
VERTEX
  5
10E
330
10C
100
AcDbEntity
  8
Calque 1
 62
   250
420
  2236966
370
    50
100
AcDbVertex
100
AcDb2dVertex
 10
246.5091135044535
 20
268.5337596645832
 30
0.0
  0
SEQEND
  5
10F
330
10C
100
AcDbEntity
  8
Calque 1
 62
   250
420
  2236966
370
    50
  0
POLYLINE
  5
110
330
1F
100
AcDbEntity
  8
Calque 1
 62
   250
420
  2236966
370
    50
100
AcDb2dPolyline
 66
     1
 10
0.0
 20
0.0
 30
0.0
  0
VERTEX
  5
111
330
110
100
AcDbEntity
  8
Calque 1
 62
   250
420
  2236966
370
    50
100
AcDbVertex
100
AcDb2dVertex
 10
253.5129926259664
 20
267.3106646399323
 30
0.0
  0
VERTEX
  5
112
330
110
100
AcDbEntity
  8
Calque 1
 62
   250
420
  2236966
370
    50
100
AcDbVertex
100
AcDb2dVertex
 10
253.5129926259664
 20
265.1734781238108
 30
0.0
  0
SEQEND
  5
113
330
110
100
AcDbEntity
  8
Calque 1
 62
   250
420
  2236966
370
    50
  0
POLYLINE
  5
114
330
1F
100
AcDbEntity
  8
Calque 1
 62
   250
420
  2236966
370
    50
100
AcDb2dPolyline
 66
     1
 10
0.0
 20
0.0
 30
0.0
  0
VERTEX
  5
115
330
114
100
AcDbEntity
  8
Calque 1
 62
   250
420
  2236966
370
    50
100
AcDbVertex
100
AcDb2dVertex
 10
246.5104915426476
 20
263.9234682906815
 30
0.0
  0
VERTEX
  5
116
330
114
100
AcDbEntity
  8
Calque 1
 62
   250
420
  2236966
370
    50
100
AcDbVertex
100
AcDb2dVertex
 10
246.2629829638792
 20
264.066375157779
 30
0.0
  0
SEQEND
  5
117
330
114
100
AcDbEntity
  8
Calque 1
 62
   250
420
  2236966
370
    50
  0
POLYLINE
  5
118
330
1F
100
AcDbEntity
  8
Calque 1
 62
   250
420
  2236966
370
    50
100
AcDb2dPolyline
 66
     1
 10
0.0
 20
0.0
 30
0.0
  0
VERTEX
  5
119
330
118
100
AcDbEntity
  8
Calque 1
 62
   250
420
  2236966
370
    50
100
AcDbVertex
100
AcDb2dVertex
 10
251.2629792327029
 20
264.066375157779
 30
0.0
  0
VERTEX
  5
11A
330
118
100
AcDbEntity
  8
Calque 1
 62
   250
420
  2236966
370
    50
100
AcDbVertex
100
AcDb2dVertex
 10
246.2629829638792
 20
264.066375157779
 30
0.0
  0
SEQEND
  5
11B
330
118
100
AcDbEntity
  8
Calque 1
 62
   250
420
  2236966
370
    50
  0
POLYLINE
  5
11C
330
1F
100
AcDbEntity
  8
Calque 1
 62
   250
420
  2236966
370
    50
100
AcDb2dPolyline
 66
     1
 10
0.0
 20
0.0
 30
0.0
  0
VERTEX
  5
11D
330
11C
100
AcDbEntity
  8
Calque 1
 62
   250
420
  2236966
370
    50
100
AcDbVertex
100
AcDb2dVertex
 10
246.2629829638792
 20
264.1529762455394
 30
0.0
  0
VERTEX
  5
11E
330
11C
100
AcDbEntity
  8
Calque 1
 62
   250
420
  2236966
370
    50
100
AcDbVertex
100
AcDb2dVertex
 10
251.2629792327029
 20
264.1529762455394
 30
0.0
  0
SEQEND
  5
11F
330
11C
100
AcDbEntity
  8
Calque 1
 62
   250
420
  2236966
370
    50
  0
POLYLINE
  5
120
330
1F
100
AcDbEntity
  8
Calque 1
 62
   250
420
  2236966
370
    50
100
AcDb2dPolyline
 66
     1
 10
0.0
 20
0.0
 30
0.0
  0
VERTEX
  5
121
330
120
100
AcDbEntity
  8
Calque 1
 62
   250
420
  2236966
370
    50
100
AcDbVertex
100
AcDb2dVertex
 10
251.2274732173581
 20
264.1734745636767
 30
0.0
  0
VERTEX
  5
122
330
120
100
AcDbEntity
  8
Calque 1
 62
   250
420
  2236966
370
    50
100
AcDbVertex
100
AcDb2dVertex
 10
251.2629792327029
 20
264.1529762455394
 30
0.0
  0
SEQEND
  5
123
330
120
100
AcDbEntity
  8
Calque 1
 62
   250
420
  2236966
370
    50
  0
POLYLINE
  5
124
330
1F
100
AcDbEntity
  8
Calque 1
 62
   250
420
  2236966
370
    50
100
AcDb2dPolyline
 66
     1
 10
0.0
 20
0.0
 30
0.0
  0
VERTEX
  5
125
330
124
100
AcDbEntity
  8
Calque 1
 62
   250
420
  2236966
370
    50
100
AcDbVertex
100
AcDb2dVertex
 10
244.0129911024625
 20
267.3106646399323
 30
0.0
  0
VERTEX
  5
126
330
124
100
AcDbEntity
  8
Calque 1
 62
   250
420
  2236966
370
    50
100
AcDbVertex
100
AcDb2dVertex
 10
253.5129926259664
 20
267.3106646399323
 30
0.0
  0
SEQEND
  5
127
330
124
100
AcDbEntity
  8
Calque 1
 62
   250
420
  2236966
370
    50
  0
SPLINE
  5
128
330
1F
100
AcDbEntity
  8
Calque 1
 62
   250
420
  2236966
370
    50
100
AcDbSpline
210
0.0
220
0.0
230
1.0
 70
     8
 71
     3
 72
     8
 73
     4
 74
     0
 42
0.0000000001
 43
0.0000000001
 12
1.0
 22
0.0
 32
0.0
 13
1.0
 23
0.0
 33
0.0
 40
0.0
 40
0.0
 40
0.0
 40
0.0
 40
1.0
 40
1.0
 40
1.0
 40
1.0
 10
249.2529813355275
 20
268.5337596645832
 30
0.0
 10
248.9265585383
 20
268.5516095655661
 30
0.0
 10
248.599403658282
 20
268.5516095655661
 30
0.0
 10
248.2729808610546
 20
268.5337596645832
 30
0.0
  0
SPLINE
  5
129
330
1F
100
AcDbEntity
  8
Calque 1
 62
   250
420
  2236966
370
    50
100
AcDbSpline
210
0.0
220
0.0
230
1.0
 70
     8
 71
     3
 72
     8
 73
     4
 74
     0
 42
0.0000000001
 43
0.0000000001
 12
1.0
 22
0.0
 32
0.0
 13
1.0
 23
0.0
 33
0.0
 40
0.0
 40
0.0
 40
0.0
 40
0.0
 40
1.0
 40
1.0
 40
1.0
 40
1.0
 10
246.5024816956443
 20
268.5474754509838
 30
0.0
 10
245.6068214650197
 20
268.283645732354
 30
0.0
 10
244.7642803004083
 20
267.8650450990494
 30
0.0
 10
244.0129911024625
 20
267.3106646399323
 30
0.0
  0
SPLINE
  5
12A
330
1F
100
AcDbEntity
  8
Calque 1
 62
   250
420
  2236966
370
    50
100
AcDbSpline
210
0.0
220
0.0
230
1.0
 70
     8
 71
     3
 72
     8
 73
     4
 74
     0
 42
0.0000000001
 43
0.0000000001
 12
1.0
 22
0.0
 32
0.0
 13
1.0
 23
0.0
 33
0.0
 40
0.0
 40
0.0
 40
0.0
 40
0.0
 40
1.0
 40
1.0
 40
1.0
 40
1.0
 10
253.5129926259664
 20
267.3106646399323
 30
0.0
 10
252.7616818961737
 20
267.8650450990494
 30
0.0
 10
251.9191407315623
 20
268.283645732354
 30
0.0
 10
251.0235020327845
 20
268.5474754509838
 30
0.0
  0
SPLINE
  5
12B
330
1F
100
AcDbEntity
  8
Calque 1
 62
   250
420
  2236966
370
    50
100
AcDbSpline
210
0.0
220
0.0
230
1.0
 70
     8
 71
     3
 72
     8
 73
     4
 74
     0
 42
0.0000000001
 43
0.0000000001
 12
1.0
 22
0.0
 32
0.0
 13
1.0
 23
0.0
 33
0.0
 40
0.0
 40
0.0
 40
0.0
 40
0.0
 40
1.0
 40
1.0
 40
1.0
 40
1.0
 10
247.9729776398297
 20
268.8192719529233
 30
0.0
 10
247.4771853358087
 20
268.7699855556374
 30
0.0
 10
246.9870989711851
 20
268.6744056877685
 30
0.0
 10
246.5091135044535
 20
268.5337596645832
 30
0.0
  0
SPLINE
  5
12C
330
1F
100
AcDbEntity
  8
Calque 1
 62
   250
420
  2236966
370
    50
100
AcDbSpline
210
0.0
220
0.0
230
1.0
 70
     8
 71
     3
 72
     8
 73
     4
 74
     0
 42
0.0000000001
 43
0.0000000001
 12
1.0
 22
0.0
 32
0.0
 13
1.0
 23
0.0
 33
0.0
 40
0.0
 40
0.0
 40
0.0
 40
0.0
 40
1.0
 40
1.0
 40
1.0
 40
1.0
 10
251.0168486921286
 20
268.5337596645832
 30
0.0
 10
250.5388847572437
 20
268.6744056877685
 30
0.0
 10
250.0487768607734
 20
268.7699855556374
 30
0.0
 10
249.5529845567524
 20
268.8192719529233
 30
0.0
  0
POLYLINE
  5
12D
330
1F
100
AcDbEntity
  8
Calque 1
 62
   250
420
  2236966
370
    50
100
AcDb2dPolyline
 66
     1
 10
0.0
 20
0.0
 30
0.0
  0
VERTEX
  5
12E
330
12D
100
AcDbEntity
  8
Calque 1
 62
   250
420
  2236966
370
    50
100
AcDbVertex
100
AcDb2dVertex
 10
247.9729776398297
 20
268.8192719529233
 30
0.0
  0
VERTEX
  5
12F
330
12D
100
AcDbEntity
  8
Calque 1
 62
   250
420
  2236966
370
    50
100
AcDbVertex
100
AcDb2dVertex
 10
247.9968564579118
 20
268.8215543286822
 30
0.0
  0
VERTEX
  5
130
330
12D
100
AcDbEntity
  8
Calque 1
 62
   250
420
  2236966
370
    50
100
AcDbVertex
100
AcDb2dVertex
 10
248.0270441071013
 20
268.8241596821429
 30
0.0
  0
VERTEX
  5
131
330
12D
100
AcDbEntity
  8
Calque 1
 62
   250
420
  2236966
370
    50
100
AcDbVertex
100
AcDb2dVertex
 10
248.0572532881376
 20
268.8264420579019
 30
0.0
  0
VERTEX
  5
132
330
12D
100
AcDbEntity
  8
Calque 1
 62
   250
420
  2236966
370
    50
100
AcDbVertex
100
AcDb2dVertex
 10
248.0875055328675
 20
268.8283583922656
 30
0.0
  0
VERTEX
  5
133
330
12D
100
AcDbEntity
  8
Calque 1
 62
   250
420
  2236966
370
    50
100
AcDbVertex
100
AcDb2dVertex
 10
248.0943095964508
 20
268.8287459655077
 30
0.0
  0
VERTEX
  5
134
330
12D
100
AcDbEntity
  8
Calque 1
 62
   250
420
  2236966
370
    50
100
AcDbVertex
100
AcDb2dVertex
 10
248.124626436721
 20
268.8302101310889
 30
0.0
  0
VERTEX
  5
135
330
12D
100
AcDbEntity
  8
Calque 1
 62
   250
420
  2236966
370
    50
100
AcDbVertex
100
AcDb2dVertex
 10
248.1549217451444
 20
268.8311790641941
 30
0.0
  0
VERTEX
  5
136
330
12D
100
AcDbEntity
  8
Calque 1
 62
   250
420
  2236966
370
    50
100
AcDbVertex
100
AcDb2dVertex
 10
248.1851524580275
 20
268.831588169283
 30
0.0
  0
VERTEX
  5
137
330
12D
100
AcDbEntity
  8
Calque 1
 62
   250
420
  2236966
370
    50
100
AcDbVertex
100
AcDb2dVertex
 10
248.1921718400787
 20
268.831588169283
 30
0.0
  0
VERTEX
  5
138
330
12D
100
AcDbEntity
  8
Calque 1
 62
   250
420
  2236966
370
    50
100
AcDbVertex
100
AcDb2dVertex
 10
248.2224886803489
 20
268.830791490952
 30
0.0
  0
VERTEX
  5
139
330
12D
100
AcDbEntity
  8
Calque 1
 62
   250
420
  2236966
370
    50
100
AcDbVertex
100
AcDb2dVertex
 10
248.2501571034648
 20
268.8283799241124
 30
0.0
  0
VERTEX
  5
13A
330
12D
100
AcDbEntity
  8
Calque 1
 62
   250
420
  2236966
370
    50
100
AcDbVertex
100
AcDb2dVertex
 10
248.26718879427
 20
268.8244826598446
 30
0.0
  0
VERTEX
  5
13B
330
12D
100
AcDbEntity
  8
Calque 1
 62
   250
420
  2236966
370
    50
100
AcDbVertex
100
AcDb2dVertex
 10
248.2729808610546
 20
268.8192719529233
 30
0.0
  0
SEQEND
  5
13C
330
12D
100
AcDbEntity
  8
Calque 1
 62
   250
420
  2236966
370
    50
  0
POLYLINE
  5
13D
330
1F
100
AcDbEntity
  8
Calque 1
 62
   250
420
  2236966
370
    50
100
AcDb2dPolyline
 66
     1
 10
0.0
 20
0.0
 30
0.0
  0
VERTEX
  5
13E
330
13D
100
AcDbEntity
  8
Calque 1
 62
   250
420
  2236966
370
    50
100
AcDbVertex
100
AcDb2dVertex
 10
249.2529813355275
 20
268.8192719529233
 30
0.0
  0
VERTEX
  5
13F
330
13D
100
AcDbEntity
  8
Calque 1
 62
   250
420
  2236966
370
    50
100
AcDbVertex
100
AcDb2dVertex
 10
249.2587949341588
 20
268.8244611279979
 30
0.0
  0
VERTEX
  5
140
330
13D
100
AcDbEntity
  8
Calque 1
 62
   250
420
  2236966
370
    50
100
AcDbVertex
100
AcDb2dVertex
 10
249.2758266249641
 20
268.8283583922656
 30
0.0
  0
VERTEX
  5
141
330
13D
100
AcDbEntity
  8
Calque 1
 62
   250
420
  2236966
370
    50
100
AcDbVertex
100
AcDb2dVertex
 10
249.3034735162332
 20
268.8307699591052
 30
0.0
  0
VERTEX
  5
142
330
13D
100
AcDbEntity
  8
Calque 1
 62
   250
420
  2236966
370
    50
100
AcDbVertex
100
AcDb2dVertex
 10
249.3106220893651
 20
268.8311144686538
 30
0.0
  0
VERTEX
  5
143
330
13D
100
AcDbEntity
  8
Calque 1
 62
   250
420
  2236966
370
    50
100
AcDbVertex
100
AcDb2dVertex
 10
249.3408528022481
 20
268.831588169283
 30
0.0
  0
VERTEX
  5
144
330
13D
100
AcDbEntity
  8
Calque 1
 62
   250
420
  2236966
370
    50
100
AcDbVertex
100
AcDb2dVertex
 10
249.3476138021379
 20
268.8315451055894
 30
0.0
  0
VERTEX
  5
145
330
13D
100
AcDbEntity
  8
Calque 1
 62
   250
420
  2236966
370
    50
100
AcDbVertex
100
AcDb2dVertex
 10
249.377844515021
 20
268.8310068094199
 30
0.0
  0
VERTEX
  5
146
330
13D
100
AcDbEntity
  8
Calque 1
 62
   250
420
  2236966
370
    50
100
AcDbVertex
100
AcDb2dVertex
 10
249.4081613552912
 20
268.8299302170807
 30
0.0
  0
VERTEX
  5
147
330
13D
100
AcDbEntity
  8
Calque 1
 62
   250
420
  2236966
370
    50
100
AcDbVertex
100
AcDb2dVertex
 10
249.4384781955614
 20
268.8283799241124
 30
0.0
  0
VERTEX
  5
148
330
13D
100
AcDbEntity
  8
Calque 1
 62
   250
420
  2236966
370
    50
100
AcDbVertex
100
AcDb2dVertex
 10
249.4624431410307
 20
268.8268726948376
 30
0.0
  0
VERTEX
  5
149
330
13D
100
AcDbEntity
  8
Calque 1
 62
   250
420
  2236966
370
    50
100
AcDbVertex
100
AcDb2dVertex
 10
249.492652322067
 20
268.8246764464657
 30
0.0
  0
VERTEX
  5
14A
330
13D
100
AcDbEntity
  8
Calque 1
 62
   250
420
  2236966
370
    50
100
AcDbVertex
100
AcDb2dVertex
 10
249.5228399712564
 20
268.8221356885454
 30
0.0
  0
VERTEX
  5
14B
330
13D
100
AcDbEntity
  8
Calque 1
 62
   250
420
  2236966
370
    50
100
AcDbVertex
100
AcDb2dVertex
 10
249.5529845567524
 20
268.8192719529233
 30
0.0
  0
SEQEND
  5
14C
330
13D
100
AcDbEntity
  8
Calque 1
 62
   250
420
  2236966
370
    50
  0
SPLINE
  5
14D
330
1F
100
AcDbEntity
  8
Calque 1
 62
   250
420
  2236966
370
    50
100
AcDbSpline
210
0.0
220
0.0
230
1.0
 70
     8
 71
     3
 72
     8
 73
     4
 74
     0
 42
0.0000000001
 43
0.0000000001
 12
1.0
 22
0.0
 32
0.0
 13
1.0
 23
0.0
 33
0.0
 40
0.0
 40
0.0
 40
0.0
 40
0.0
 40
1.0
 40
1.0
 40
1.0
 40
1.0
 10
249.7040519937806
 20
257.5508167894534
 30
0.0
 10
249.6144579793173
 20
257.5957322218424
 30
0.0
 10
249.5217633789173
 20
257.6341665683497
 30
0.0
 10
249.4266787435244
 20
257.6658399149673
 30
0.0
  0
SPLINE
  5
14E
330
1F
100
AcDbEntity
  8
Calque 1
 62
   250
420
  2236966
370
    50
100
AcDbSpline
210
0.0
220
0.0
230
1.0
 70
     8
 71
     3
 72
     8
 73
     4
 74
     0
 42
0.0000000001
 43
0.0000000001
 12
1.0
 22
0.0
 32
0.0
 13
1.0
 23
0.0
 33
0.0
 40
0.0
 40
0.0
 40
0.0
 40
0.0
 40
1.0
 40
1.0
 40
1.0
 40
1.0
 10
247.8219102028015
 20
253.7961364111603
 30
0.0
 10
247.9115042172648
 20
253.7512209787714
 30
0.0
 10
248.0041988176648
 20
253.7127866322641
 30
0.0
 10
248.0992834530577
 20
253.6811132856466
 30
0.0
  0
POLYLINE
  5
14F
330
1F
100
AcDbEntity
  8
Calque 1
 62
   250
420
  2236966
370
    50
100
AcDb2dPolyline
 66
     1
 10
0.0
 20
0.0
 30
0.0
  0
VERTEX
  5
150
330
14F
100
AcDbEntity
  8
Calque 1
 62
   250
420
  2236966
370
    50
100
AcDbVertex
100
AcDb2dVertex
 10
241.0129804220601
 20
247.4234849099323
 30
0.0
  0
VERTEX
  5
151
330
14F
100
AcDbEntity
  8
Calque 1
 62
   250
420
  2236966
370
    50
100
AcDbVertex
100
AcDb2dVertex
 10
256.512981774522
 20
247.4234849099323
 30
0.0
  0
SEQEND
  5
152
330
14F
100
AcDbEntity
  8
Calque 1
 62
   250
420
  2236966
370
    50
  0
POLYLINE
  5
153
330
1F
100
AcDbEntity
  8
Calque 1
 62
   250
420
  2236966
370
    50
100
AcDb2dPolyline
 66
     1
 10
0.0
 20
0.0
 30
0.0
  0
VERTEX
  5
154
330
153
100
AcDbEntity
  8
Calque 1
 62
   250
420
  2236966
370
    50
100
AcDbVertex
100
AcDb2dVertex
 10
240.5129894079165
 20
263.4234772765378
 30
0.0
  0
VERTEX
  5
155
330
153
100
AcDbEntity
  8
Calque 1
 62
   250
420
  2236966
370
    50
100
AcDbVertex
100
AcDb2dVertex
 10
240.5129894079165
 20
247.923475924076
 30
0.0
  0
SEQEND
  5
156
330
153
100
AcDbEntity
  8
Calque 1
 62
   250
420
  2236966
370
    50
  0
POLYLINE
  5
157
330
1F
100
AcDbEntity
  8
Calque 1
 62
   250
420
  2236966
370
    50
100
AcDb2dPolyline
 66
     1
 10
0.0
 20
0.0
 30
0.0
  0
VERTEX
  5
158
330
157
100
AcDbEntity
  8
Calque 1
 62
   250
420
  2236966
370
    50
100
AcDbVertex
100
AcDb2dVertex
 10
256.512981774522
 20
263.9234682906815
 30
0.0
  0
VERTEX
  5
159
330
157
100
AcDbEntity
  8
Calque 1
 62
   250
420
  2236966
370
    50
100
AcDbVertex
100
AcDb2dVertex
 10
241.0129804220601
 20
263.9234682906815
 30
0.0
  0
SEQEND
  5
15A
330
157
100
AcDbEntity
  8
Calque 1
 62
   250
420
  2236966
370
    50
  0
POLYLINE
  5
15B
330
1F
100
AcDbEntity
  8
Calque 1
 62
   250
420
  2236966
370
    50
100
AcDb2dPolyline
 66
     1
 10
0.0
 20
0.0
 30
0.0
  0
VERTEX
  5
15C
330
15B
100
AcDbEntity
  8
Calque 1
 62
   250
420
  2236966
370
    50
100
AcDbVertex
100
AcDb2dVertex
 10
257.0129943205124
 20
247.923475924076
 30
0.0
  0
VERTEX
  5
15D
330
15B
100
AcDbEntity
  8
Calque 1
 62
   250
420
  2236966
370
    50
100
AcDbVertex
100
AcDb2dVertex
 10
257.0129943205124
 20
263.4234772765378
 30
0.0
  0
SEQEND
  5
15E
330
15B
100
AcDbEntity
  8
Calque 1
 62
   250
420
  2236966
370
    50
  0
SPLINE
  5
15F
330
1F
100
AcDbEntity
  8
Calque 1
 62
   250
420
  2236966
370
    50
100
AcDbSpline
210
0.0
220
0.0
230
1.0
 70
     8
 71
     3
 72
     8
 73
     4
 74
     0
 42
0.0000000001
 43
0.0000000001
 12
1.0
 22
0.0
 32
0.0
 13
1.0
 23
0.0
 33
0.0
 40
0.0
 40
0.0
 40
0.0
 40
0.0
 40
1.0
 40
1.0
 40
1.0
 40
1.0
 10
240.5129894079165
 20
247.923475924076
 30
0.0
 10
240.5129894079165
 20
247.6473299890864
 30
0.0
 10
240.7368344870706
 20
247.4234849099323
 30
0.0
 10
241.0129804220601
 20
247.4234849099323
 30
0.0
  0
SPLINE
  5
160
330
1F
100
AcDbEntity
  8
Calque 1
 62
   250
420
  2236966
370
    50
100
AcDbSpline
210
0.0
220
0.0
230
1.0
 70
     8
 71
     3
 72
     8
 73
     4
 74
     0
 42
0.0000000001
 43
0.0000000001
 12
1.0
 22
0.0
 32
0.0
 13
1.0
 23
0.0
 33
0.0
 40
0.0
 40
0.0
 40
0.0
 40
0.0
 40
1.0
 40
1.0
 40
1.0
 40
1.0
 10
241.0129804220601
 20
263.9234682906815
 30
0.0
 10
240.7368344870706
 20
263.9234682906815
 30
0.0
 10
240.5129894079165
 20
263.6996232115274
 30
0.0
 10
240.5129894079165
 20
263.4234772765378
 30
0.0
  0
SPLINE
  5
161
330
1F
100
AcDbEntity
  8
Calque 1
 62
   250
420
  2236966
370
    50
100
AcDbSpline
210
0.0
220
0.0
230
1.0
 70
     8
 71
     3
 72
     8
 73
     4
 74
     0
 42
0.0000000001
 43
0.0000000001
 12
1.0
 22
0.0
 32
0.0
 13
1.0
 23
0.0
 33
0.0
 40
0.0
 40
0.0
 40
0.0
 40
0.0
 40
1.0
 40
1.0
 40
1.0
 40
1.0
 10
256.512981774522
 20
247.4234849099323
 30
0.0
 10
256.7891277095115
 20
247.4234849099323
 30
0.0
 10
257.0129943205124
 20
247.6473299890864
 30
0.0
 10
257.0129943205124
 20
247.923475924076
 30
0.0
  0
SPLINE
  5
162
330
1F
100
AcDbEntity
  8
Calque 1
 62
   250
420
  2236966
370
    50
100
AcDbSpline
210
0.0
220
0.0
230
1.0
 70
     8
 71
     3
 72
     8
 73
     4
 74
     0
 42
0.0000000001
 43
0.0000000001
 12
1.0
 22
0.0
 32
0.0
 13
1.0
 23
0.0
 33
0.0
 40
0.0
 40
0.0
 40
0.0
 40
0.0
 40
1.0
 40
1.0
 40
1.0
 40
1.0
 10
257.0129943205124
 20
263.4234772765378
 30
0.0
 10
257.0129943205124
 20
263.6996232115274
 30
0.0
 10
256.7891277095115
 20
263.9234682906815
 30
0.0
 10
256.512981774522
 20
263.9234682906815
 30
0.0
  0
ENDSEC
  0
SECTION
  2
OBJECTS
  0
DICTIONARY
  5
C
330
0
100
AcDbDictionary
281
     1
  3
ACAD_GROUP
350
D
  3
ACAD_LAYOUT
350
1A
  3
ACAD_MATERIAL
350
3B
  3
ACAD_MLEADERSTYLE
350
164
  3
ACAD_MLINESTYLE
350
17
  3
ACAD_PLOTSETTINGS
350
19
  3
ACAD_PLOTSTYLENAME
350
E
  3
ACAD_TABLESTYLE
350
163
  3
ACAD_VISUALSTYLE
350
2A
  0
SUN
  5
3F
330
29
100
AcDbSun
 90
        1
290
     0
 63
     7
421
 16777215
 40
1.0
291
     1
 91
  2455826
 92
 54000000
292
     0
 70
     2
 71
   256
280
     1
  0
DICTIONARY
  5
D
102
{ACAD_REACTORS
330
C
102
}
330
C
100
AcDbDictionary
281
     1
  0
DICTIONARY
  5
1A
102
{ACAD_REACTORS
330
C
102
}
330
C
100
AcDbDictionary
281
     1
  3
Layout1
350
1E
  3
Layout2
350
26
  3
Model
350
22
  0
DICTIONARY
  5
3B
102
{ACAD_REACTORS
330
C
102
}
330
C
100
AcDbDictionary
281
     1
  3
ByBlock
350
3D
  3
ByLayer
350
3C
  3
Global
350
3E
  0
DICTIONARY
  5
164
102
{ACAD_REACTORS
330
C
102
}
330
C
100
AcDbDictionary
281
     1
  0
DICTIONARY
  5
17
102
{ACAD_REACTORS
330
C
102
}
330
C
100
AcDbDictionary
281
     1
  3
Standard
350
18
  0
DICTIONARY
  5
19
102
{ACAD_REACTORS
330
C
102
}
330
C
100
AcDbDictionary
281
     1
  0
ACDBDICTIONARYWDFLT
  5
E
102
{ACAD_REACTORS
330
C
102
}
330
C
100
AcDbDictionary
281
     1
  3
Normal
350
F
100
AcDbDictionaryWithDefault
340
F
  0
DICTIONARY
  5
163
102
{ACAD_REACTORS
330
C
102
}
330
C
100
AcDbDictionary
281
     1
  0
DICTIONARY
  5
2A
102
{ACAD_REACTORS
330
C
102
}
330
C
100
AcDbDictionary
281
     1
  3
2dWireframe
350
2F
  3
3D Hidden
350
31
  3
3dWireframe
350
30
  3
Basic
350
32
  3
Brighten
350
36
  3
ColorChange
350
3A
  3
Conceptual
350
34
  3
Dim
350
35
  3
Facepattern
350
39
  3
Flat
350
2B
  3
FlatWithEdges
350
2C
  3
Gouraud
350
2D
  3
GouraudWithEdges
350
2E
  3
Linepattern
350
38
  3
Realistic
350
33
  3
Thicken
350
37
  0
LAYOUT
  5
1E
102
{ACAD_REACTORS
330
1A
102
}
330
1A
100
AcDbPlotSettings
  1

  2
none_device
  4

  6

 40
0.0
 41
0.0
 42
0.0
 43
0.0
 44
0.0
 45
0.0
 46
0.0
 47
0.0
 48
0.0
 49
0.0
140
0.0
141
0.0
142
1.0
143
1.0
 70
   688
 72
     0
 73
     0
 74
     5
  7

 75
    16
 76
     0
 77
     2
 78
   300
147
1.0
148
0.0
149
0.0
100
AcDbLayout
  1
Layout1
 70
     1
 71
     1
 10
0.0
 20
0.0
 11
12.0
 21
9.0
 12
0.0
 22
0.0
 32
0.0
 14
1.000000000000000E+20
 24
1.000000000000000E+20
 34
1.000000000000000E+20
 15
-1.000000000000000E+20
 25
-1.000000000000000E+20
 35
-1.000000000000000E+20
146
0.0
 13
0.0
 23
0.0
 33
0.0
 16
1.0
 26
0.0
 36
0.0
 17
0.0
 27
1.0
 37
0.0
 76
     0
330
1B
  0
LAYOUT
  5
26
102
{ACAD_REACTORS
330
1A
102
}
330
1A
100
AcDbPlotSettings
  1

  2
none_device
  4

  6

 40
0.0
 41
0.0
 42
0.0
 43
0.0
 44
0.0
 45
0.0
 46
0.0
 47
0.0
 48
0.0
 49
0.0
140
0.0
141
0.0
142
1.0
143
1.0
 70
   688
 72
     0
 73
     0
 74
     5
  7

 75
    16
 76
     0
 77
     2
 78
   300
147
1.0
148
0.0
149
0.0
100
AcDbLayout
  1
Layout2
 70
     1
 71
     2
 10
0.0
 20
0.0
 11
0.0
 21
0.0
 12
0.0
 22
0.0
 32
0.0
 14
0.0
 24
0.0
 34
0.0
 15
0.0
 25
0.0
 35
0.0
146
0.0
 13
0.0
 23
0.0
 33
0.0
 16
1.0
 26
0.0
 36
0.0
 17
0.0
 27
1.0
 37
0.0
 76
     0
330
23
  0
LAYOUT
  5
22
102
{ACAD_REACTORS
330
1A
102
}
330
1A
100
AcDbPlotSettings
  1

  2
none_device
  4

  6

 40
0.0
 41
0.0
 42
0.0
 43
0.0
 44
0.0
 45
0.0
 46
0.0
 47
0.0
 48
0.0
 49
0.0
140
0.0
141
0.0
142
1.0
143
1.0
 70
  1712
 72
     0
 73
     0
 74
     0
  7

 75
     0
 76
     0
 77
     2
 78
   300
147
1.0
148
0.0
149
0.0
100
AcDbLayout
  1
Model
 70
     1
 71
     0
 10
0.0
 20
0.0
 11
12.0
 21
9.0
 12
0.0
 22
0.0
 32
0.0
 14
1.000000000000000E+20
 24
1.000000000000000E+20
 34
1.000000000000000E+20
 15
-1.000000000000000E+20
 25
-1.000000000000000E+20
 35
-1.000000000000000E+20
146
0.0
 13
0.0
 23
0.0
 33
0.0
 16
1.0
 26
0.0
 36
0.0
 17
0.0
 27
1.0
 37
0.0
 76
     0
330
1F
331
29
  0
MATERIAL
  5
3D
102
{ACAD_REACTORS
330
3B
102
}
330
3B
100
AcDbMaterial
  1
ByBlock
 72
     1
 94
      127
  0
MATERIAL
  5
3C
102
{ACAD_REACTORS
330
3B
102
}
330
3B
100
AcDbMaterial
  1
ByLayer
 72
     1
 94
      127
  0
MATERIAL
  5
3E
102
{ACAD_REACTORS
330
3B
102
}
330
3B
100
AcDbMaterial
  1
Global
 72
     1
 94
      127
  0
MLINESTYLE
  5
18
102
{ACAD_REACTORS
330
17
102
}
330
17
100
AcDbMlineStyle
  2
Standard
 70
     0
  3

 62
   256
 51
90.0
 52
90.0
 71
     2
 49
0.5
 62
   256
  6
BYLAYER
 49
-0.5
 62
   256
  6
BYLAYER
  0
ACDBPLACEHOLDER
  5
F
102
{ACAD_REACTORS
330
E
102
}
330
E
  0
VISUALSTYLE
  5
2F
102
{ACAD_REACTORS
330
2A
102
}
330
2A
100
AcDbVisualStyle
  2
2dWireframe
 70
     4
177
     2
291
     0
 71
     0
176
     1
 72
     2
176
     1
 73
     0
176
     1
 90
        0
176
     1
 40
-0.6
176
     1
 41
-30.0
176
     1
 62
     5
 63
     7
421
 16777215
176
     1
 74
     1
176
     1
 91
        4
176
     1
 64
     7
176
     1
 65
   257
176
     1
 75
     1
176
     1
175
     1
176
     1
 42
1.0
176
     1
 92
        0
176
     1
 66
   257
176
     1
 43
1.0
176
     1
 76
     1
176
     1
 77
     6
176
     1
 78
     2
176
     1
 67
     7
176
     1
 79
     5
176
     1
170
     0
176
     1
171
     0
176
     1
290
     0
176
     1
 93
        1
176
     1
 44
0.0
176
     1
173
     0
176
     1
  0
VISUALSTYLE
  5
31
102
{ACAD_REACTORS
330
2A
102
}
330
2A
100
AcDbVisualStyle
  2
3D Hidden
 70
     6
177
     2
291
     0
 71
     1
176
     1
 72
     2
176
     1
 73
     2
176
     1
 90
        0
176
     1
 40
-0.6
176
     1
 41
-30.0
176
     1
 62
     5
 63
     7
421
 16777215
176
     1
 74
     2
176
     1
 91
        2
176
     1
 64
     7
176
     1
 65
   257
176
     1
 75
     2
176
     1
175
     1
176
     1
 42
40.0
176
     1
 92
        0
176
     1
 66
   257
176
     1
 43
1.0
176
     1
 76
     1
176
     1
 77
     6
176
     1
 78
     2
176
     1
 67
     7
176
     1
 79
     3
176
     1
170
     0
176
     1
171
     0
176
     1
290
     0
176
     1
 93
        1
176
     1
 44
0.0
176
     1
173
     0
176
     1
  0
VISUALSTYLE
  5
30
102
{ACAD_REACTORS
330
2A
102
}
330
2A
100
AcDbVisualStyle
  2
3dWireframe
 70
     5
177
     2
291
     0
 71
     0
176
     1
 72
     2
176
     1
 73
     0
176
     1
 90
        0
176
     1
 40
-0.6
176
     1
 41
-30.0
176
     1
 62
     5
 63
     7
421
 16777215
176
     1
 74
     1
176
     1
 91
        4
176
     1
 64
     7
176
     1
 65
   257
176
     1
 75
     1
176
     1
175
     1
176
     1
 42
1.0
176
     1
 92
        0
176
     1
 66
   257
176
     1
 43
1.0
176
     1
 76
     1
176
     1
 77
     6
176
     1
 78
     2
176
     1
 67
     7
176
     1
 79
     5
176
     1
170
     0
176
     1
171
     0
176
     1
290
     0
176
     1
 93
        1
176
     1
 44
0.0
176
     1
173
     0
176
     1
  0
VISUALSTYLE
  5
32
102
{ACAD_REACTORS
330
2A
102
}
330
2A
100
AcDbVisualStyle
  2
Basic
 70
     7
177
     2
291
     1
 71
     1
176
     1
 72
     0
176
     1
 73
     1
176
     1
 90
        0
176
     1
 40
-0.6
176
     1
 41
-30.0
176
     1
 62
     5
 63
     7
421
 16777215
176
     1
 74
     0
176
     1
 91
        4
176
     1
 64
     7
176
     1
 65
   257
176
     1
 75
     1
176
     1
175
     1
176
     1
 42
1.0
176
     1
 92
        8
176
     1
 66
     7
176
     1
 43
1.0
176
     1
 76
     1
176
     1
 77
     6
176
     1
 78
     2
176
     1
 67
     7
176
     1
 79
     5
176
     1
170
     0
176
     1
171
     0
176
     1
290
     0
176
     1
 93
        1
176
     1
 44
0.0
176
     1
173
     0
176
     1
  0
VISUALSTYLE
  5
36
102
{ACAD_REACTORS
330
2A
102
}
330
2A
100
AcDbVisualStyle
  2
Brighten
 70
    12
177
     2
291
     1
 71
     2
176
     1
 72
     2
176
     1
 73
     0
176
     1
 90
        0
176
     1
 40
-0.6
176
     1
 41
-30.0
176
     1
 62
     5
 63
     7
421
 16777215
176
     1
 74
     1
176
     1
 91
        4
176
     1
 64
     7
176
     1
 65
   257
176
     1
 75
     1
176
     1
175
     1
176
     1
 42
1.0
176
     1
 92
        8
176
     1
 66
     7
176
     1
 43
1.0
176
     1
 76
     1
176
     1
 77
     6
176
     1
 78
     2
176
     1
 67
     7
176
     1
 79
     5
176
     1
170
     0
176
     1
171
     0
176
     1
290
     0
176
     1
 93
        1
176
     1
 44
50.0
176
     1
173
     0
176
     1
  0
VISUALSTYLE
  5
3A
102
{ACAD_REACTORS
330
2A
102
}
330
2A
100
AcDbVisualStyle
  2
ColorChange
 70
    16
177
     2
291
     1
 71
     2
176
     1
 72
     2
176
     1
 73
     3
176
     1
 90
        0
176
     1
 40
-0.6
176
     1
 41
-30.0
176
     1
 62
     5
 63
     8
421
  8421504
176
     1
 74
     1
176
     1
 91
        4
176
     1
 64
     7
176
     1
 65
   257
176
     1
 75
     1
176
     1
175
     1
176
     1
 42
1.0
176
     1
 92
        8
176
     1
 66
     8
424
  8421504
176
     1
 43
1.0
176
     1
 76
     1
176
     1
 77
     6
176
     1
 78
     2
176
     1
 67
     7
176
     1
 79
     5
176
     1
170
     0
176
     1
171
     0
176
     1
290
     0
176
     1
 93
        1
176
     1
 44
0.0
176
     1
173
     0
176
     1
  0
VISUALSTYLE
  5
34
102
{ACAD_REACTORS
330
2A
102
}
330
2A
100
AcDbVisualStyle
  2
Conceptual
 70
     9
177
     2
291
     0
 71
     3
176
     1
 72
     2
176
     1
 73
     0
176
     1
 90
        0
176
     1
 40
-0.6
176
     1
 41
-30.0
176
     1
 62
     5
 63
     7
421
 16777215
176
     1
 74
     2
176
     1
 91
        2
176
     1
 64
     7
176
     1
 65
   257
176
     1
 75
     1
176
     1
175
     1
176
     1
 42
40.0
176
     1
 92
        8
176
     1
 66
     7
176
     1
 43
1.0
176
     1
 76
     1
176
     1
 77
     6
176
     1
 78
     2
176
     1
 67
     7
176
     1
 79
     3
176
     1
170
     0
176
     1
171
     0
176
     1
290
     0
176
     1
 93
        1
176
     1
 44
0.0
176
     1
173
     0
176
     1
  0
VISUALSTYLE
  5
35
102
{ACAD_REACTORS
330
2A
102
}
330
2A
100
AcDbVisualStyle
  2
Dim
 70
    11
177
     2
291
     1
 71
     2
176
     1
 72
     2
176
     1
 73
     0
176
     1
 90
        0
176
     1
 40
-0.6
176
     1
 41
-30.0
176
     1
 62
     5
 63
     7
421
 16777215
176
     1
 74
     1
176
     1
 91
        4
176
     1
 64
     7
176
     1
 65
   257
176
     1
 75
     1
176
     1
175
     1
176
     1
 42
1.0
176
     1
 92
        8
176
     1
 66
     7
176
     1
 43
1.0
176
     1
 76
     1
176
     1
 77
     6
176
     1
 78
     2
176
     1
 67
     7
176
     1
 79
     5
176
     1
170
     0
176
     1
171
     0
176
     1
290
     0
176
     1
 93
        1
176
     1
 44
-50.0
176
     1
173
     0
176
     1
  0
VISUALSTYLE
  5
39
102
{ACAD_REACTORS
330
2A
102
}
330
2A
100
AcDbVisualStyle
  2
Facepattern
 70
    15
177
     2
291
     1
 71
     2
176
     1
 72
     2
176
     1
 73
     0
176
     1
 90
        0
176
     1
 40
-0.6
176
     1
 41
-30.0
176
     1
 62
     5
 63
     7
421
 16777215
176
     1
 74
     1
176
     1
 91
        4
176
     1
 64
     7
176
     1
 65
   257
176
     1
 75
     1
176
     1
175
     1
176
     1
 42
1.0
176
     1
 92
        8
176
     1
 66
     7
176
     1
 43
1.0
176
     1
 76
     1
176
     1
 77
     6
176
     1
 78
     2
176
     1
 67
     7
176
     1
 79
     5
176
     1
170
     0
176
     1
171
     0
176
     1
290
     0
176
     1
 93
        1
176
     1
 44
0.0
176
     1
173
     0
176
     1
  0
VISUALSTYLE
  5
2B
102
{ACAD_REACTORS
330
2A
102
}
330
2A
100
AcDbVisualStyle
  2
Flat
 70
     0
177
     2
291
     1
 71
     2
176
     1
 72
     1
176
     1
 73
     1
176
     1
 90
        2
176
     1
 40
-0.6
176
     1
 41
30.0
176
     1
 62
     5
 63
     7
421
 16777215
176
     1
 74
     0
176
     1
 91
        4
176
     1
 64
     7
176
     1
 65
   257
176
     1
 75
     1
176
     1
175
     1
176
     1
 42
1.0
176
     1
 92
        8
176
     1
 66
     7
176
     1
 43
1.0
176
     1
 76
     1
176
     1
 77
     6
176
     1
 78
     2
176
     1
 67
     7
176
     1
 79
     5
176
     1
170
     0
176
     1
171
     0
176
     1
290
     0
176
     1
 93
       13
176
     1
 44
0.0
176
     1
173
     0
176
     1
  0
VISUALSTYLE
  5
2C
102
{ACAD_REACTORS
330
2A
102
}
330
2A
100
AcDbVisualStyle
  2
FlatWithEdges
 70
     1
177
     2
291
     1
 71
     2
176
     1
 72
     1
176
     1
 73
     1
176
     1
 90
        2
176
     1
 40
-0.6
176
     1
 41
30.0
176
     1
 62
     5
 63
     7
421
 16777215
176
     1
 74
     1
176
     1
 91
        4
176
     1
 64
     7
176
     1
 65
   257
176
     1
 75
     1
176
     1
175
     1
176
     1
 42
1.0
176
     1
 92
        0
176
     1
 66
   257
176
     1
 43
1.0
176
     1
 76
     1
176
     1
 77
     6
176
     1
 78
     2
176
     1
 67
     7
176
     1
 79
     5
176
     1
170
     0
176
     1
171
     0
176
     1
290
     0
176
     1
 93
       13
176
     1
 44
0.0
176
     1
173
     0
176
     1
  0
VISUALSTYLE
  5
2D
102
{ACAD_REACTORS
330
2A
102
}
330
2A
100
AcDbVisualStyle
  2
Gouraud
 70
     2
177
     2
291
     1
 71
     2
176
     1
 72
     2
176
     1
 73
     1
176
     1
 90
        2
176
     1
 40
-0.6
176
     1
 41
30.0
176
     1
 62
     5
 63
     7
421
 16777215
176
     1
 74
     0
176
     1
 91
        4
176
     1
 64
     7
176
     1
 65
   257
176
     1
 75
     1
176
     1
175
     1
176
     1
 42
1.0
176
     1
 92
        0
176
     1
 66
     7
176
     1
 43
1.0
176
     1
 76
     1
176
     1
 77
     6
176
     1
 78
     2
176
     1
 67
     7
176
     1
 79
     5
176
     1
170
     0
176
     1
171
     0
176
     1
290
     0
176
     1
 93
       13
176
     1
 44
0.0
176
     1
173
     0
176
     1
  0
VISUALSTYLE
  5
2E
102
{ACAD_REACTORS
330
2A
102
}
330
2A
100
AcDbVisualStyle
  2
GouraudWithEdges
 70
     3
177
     2
291
     1
 71
     2
176
     1
 72
     2
176
     1
 73
     1
176
     1
 90
        2
176
     1
 40
-0.6
176
     1
 41
30.0
176
     1
 62
     5
 63
     7
421
 16777215
176
     1
 74
     1
176
     1
 91
        4
176
     1
 64
     7
176
     1
 65
   257
176
     1
 75
     1
176
     1
175
     1
176
     1
 42
1.0
176
     1
 92
        0
176
     1
 66
   257
176
     1
 43
1.0
176
     1
 76
     1
176
     1
 77
     6
176
     1
 78
     2
176
     1
 67
     7
176
     1
 79
     5
176
     1
170
     0
176
     1
171
     0
176
     1
290
     0
176
     1
 93
       13
176
     1
 44
0.0
176
     1
173
     0
176
     1
  0
VISUALSTYLE
  5
38
102
{ACAD_REACTORS
330
2A
102
}
330
2A
100
AcDbVisualStyle
  2
Linepattern
 70
    14
177
     2
291
     1
 71
     2
176
     1
 72
     2
176
     1
 73
     0
176
     1
 90
        0
176
     1
 40
-0.6
176
     1
 41
-30.0
176
     1
 62
     5
 63
     7
421
 16777215
176
     1
 74
     1
176
     1
 91
        4
176
     1
 64
     7
176
     1
 65
   257
176
     1
 75
     7
176
     1
175
     7
176
     1
 42
1.0
176
     1
 92
        8
176
     1
 66
     7
176
     1
 43
1.0
176
     1
 76
     1
176
     1
 77
     6
176
     1
 78
     2
176
     1
 67
     7
176
     1
 79
     5
176
     1
170
     0
176
     1
171
     0
176
     1
290
     0
176
     1
 93
        1
176
     1
 44
0.0
176
     1
173
     0
176
     1
  0
VISUALSTYLE
  5
33
102
{ACAD_REACTORS
330
2A
102
}
330
2A
100
AcDbVisualStyle
  2
Realistic
 70
     8
177
     2
291
     0
 71
     2
176
     1
 72
     2
176
     1
 73
     0
176
     1
 90
        0
176
     1
 40
-0.6
176
     1
 41
-30.0
176
     1
 62
     5
 63
     7
421
 16777215
176
     1
 74
     1
176
     1
 91
        0
176
     1
 64
     7
176
     1
 65
   257
176
     1
 75
     1
176
     1
175
     1
176
     1
 42
1.0
176
     1
 92
        8
176
     1
 66
     8
424
  7895160
176
     1
 43
1.0
176
     1
 76
     1
176
     1
 77
     6
176
     1
 78
     2
176
     1
 67
     7
176
     1
 79
     5
176
     1
170
     0
176
     1
171
     0
176
     1
290
     0
176
     1
 93
       13
176
     1
 44
0.0
176
     1
173
     0
176
     1
  0
VISUALSTYLE
  5
37
102
{ACAD_REACTORS
330
2A
102
}
330
2A
100
AcDbVisualStyle
  2
Thicken
 70
    13
177
     2
291
     1
 71
     2
176
     1
 72
     2
176
     1
 73
     0
176
     1
 90
        0
176
     1
 40
-0.6
176
     1
 41
-30.0
176
     1
 62
     5
 63
     7
421
 16777215
176
     1
 74
     1
176
     1
 91
        4
176
     1
 64
     7
176
     1
 65
   257
176
     1
 75
     1
176
     1
175
     1
176
     1
 42
1.0
176
     1
 92
       12
176
     1
 66
     7
176
     1
 43
1.0
176
     1
 76
     1
176
     1
 77
     6
176
     1
 78
     2
176
     1
 67
     7
176
     1
 79
     5
176
     1
170
     0
176
     1
171
     0
176
     1
290
     0
176
     1
 93
        1
176
     1
 44
0.0
176
     1
173
     0
176
     1
  0
ENDSEC
  0
EOF
