  0
SECTION
  2
HEADER
  9
$ACADVER
  1
AC1018
  9
$ACADMAINTVER
 70
     0
  9
$DWGCODEPAGE
  3
ANSI_936
  9
$INSBASE
 10
0.0
 20
0.0
 30
0.0
  9
$EXTMIN
 10
253.8122517186162
 20
792.0091317073955
 30
0.0
  9
$EXTMAX
 10
394.5166041504722
 20
1007.110106643439
 30
0.0
  9
$LIMMIN
 10
0.0
 20
0.0
  9
$LIMMAX
 10
12.0
 20
9.0
  9
$ORTHOMODE
 70
     0
  9
$REGENMODE
 70
     1
  9
$FILLMODE
 70
     1
  9
$QTEXTMODE
 70
     0
  9
$MIRRTEXT
 70
     1
  9
$LTSCALE
 40
1.0
  9
$ATTMODE
 70
     1
  9
$TEXTSIZE
 40
0.2
  9
$TRACEWID
 40
0.05
  9
$TEXTSTYLE
  7
Standard
  9
$CLAYER
  8
0
  9
$CELTYPE
  6
ByLayer
  9
$CECOLOR
 62
   256
  9
$CELTSCALE
 40
1.0
  9
$DISPSILH
 70
     0
  9
$DIMSCALE
 40
1.0
  9
$DIMASZ
 40
0.18
  9
$DIMEXO
 40
0.0625
  9
$DIMDLI
 40
0.38
  9
$DIMRND
 40
0.0
  9
$DIMDLE
 40
0.0
  9
$DIMEXE
 40
0.18
  9
$DIMTP
 40
0.0
  9
$DIMTM
 40
0.0
  9
$DIMTXT
 40
0.18
  9
$DIMCEN
 40
0.09
  9
$DIMTSZ
 40
0.0
  9
$DIMTOL
 70
     0
  9
$DIMLIM
 70
     0
  9
$DIMTIH
 70
     1
  9
$DIMTOH
 70
     1
  9
$DIMSE1
 70
     0
  9
$DIMSE2
 70
     0
  9
$DIMTAD
 70
     0
  9
$DIMZIN
 70
     0
  9
$DIMBLK
  1

  9
$DIMASO
 70
     1
  9
$DIMSHO
 70
     1
  9
$DIMPOST
  1

  9
$DIMAPOST
  1

  9
$DIMALT
 70
     0
  9
$DIMALTD
 70
     2
  9
$DIMALTF
 40
25.4
  9
$DIMLFAC
 40
1.0
  9
$DIMTOFL
 70
     0
  9
$DIMTVP
 40
0.0
  9
$DIMTIX
 70
     0
  9
$DIMSOXD
 70
     0
  9
$DIMSAH
 70
     0
  9
$DIMBLK1
  1

  9
$DIMBLK2
  1

  9
$DIMSTYLE
  2
Standard
  9
$DIMCLRD
 70
     0
  9
$DIMCLRE
 70
     0
  9
$DIMCLRT
 70
     0
  9
$DIMTFAC
 40
1.0
  9
$DIMGAP
 40
0.09
  9
$DIMJUST
 70
     0
  9
$DIMSD1
 70
     0
  9
$DIMSD2
 70
     0
  9
$DIMTOLJ
 70
     1
  9
$DIMTZIN
 70
     0
  9
$DIMALTZ
 70
     0
  9
$DIMALTTZ
 70
     0
  9
$DIMUPT
 70
     0
  9
$DIMDEC
 70
     4
  9
$DIMTDEC
 70
     4
  9
$DIMALTU
 70
     2
  9
$DIMALTTD
 70
     2
  9
$DIMTXSTY
  7
Standard
  9
$DIMAUNIT
 70
     0
  9
$DIMADEC
 70
     0
  9
$DIMALTRND
 40
0.0
  9
$DIMAZIN
 70
     0
  9
$DIMDSEP
 70
    46
  9
$DIMATFIT
 70
     3
  9
$DIMFRAC
 70
     0
  9
$DIMLDRBLK
  1

  9
$DIMLUNIT
 70
     2
  9
$DIMLWD
 70
    -2
  9
$DIMLWE
 70
    -2
  9
$DIMTMOVE
 70
     2
  9
$LUNITS
 70
     2
  9
$LUPREC
 70
     3
  9
$SKETCHINC
 40
0.1
  9
$FILLETRAD
 40
0.5
  9
$AUNITS
 70
     0
  9
$AUPREC
 70
     0
  9
$MENU
  1
.
  9
$ELEVATION
 40
0.0
  9
$PELEVATION
 40
0.0
  9
$THICKNESS
 40
0.0
  9
$LIMCHECK
 70
     0
  9
$CHAMFERA
 40
0.5
  9
$CHAMFERB
 40
0.5
  9
$CHAMFERC
 40
1.0
  9
$CHAMFERD
 40
0.0
  9
$SKPOLY
 70
     0
  9
$TDCREATE
 40
2456860.521741285
  9
$TDUCREATE
 40
2456860.188407952
  9
$TDUPDATE
 40
2456860.521742292
  9
$TDUUPDATE
 40
2456860.188408958
  9
$TDINDWG
 40
0.0000000116
  9
$TDUSRTIMER
 40
0.0000000116
  9
$USRTIMER
 70
     1
  9
$ANGBASE
 50
0.0
  9
$ANGDIR
 70
     0
  9
$PDMODE
 70
     0
  9
$PDSIZE
 40
0.0
  9
$PLINEWID
 40
0.0
  9
$SPLFRAME
 70
     0
  9
$SPLINETYPE
 70
     6
  9
$SPLINESEGS
 70
     8
  9
$HANDSEED
  5
639
  9
$SURFTAB1
 70
     6
  9
$SURFTAB2
 70
     6
  9
$SURFTYPE
 70
     6
  9
$SURFU
 70
     6
  9
$SURFV
 70
     6
  9
$UCSBASE
  2

  9
$UCSNAME
  2

  9
$UCSORG
 10
0.0
 20
0.0
 30
0.0
  9
$UCSXDIR
 10
1.0
 20
0.0
 30
0.0
  9
$UCSYDIR
 10
0.0
 20
1.0
 30
0.0
  9
$UCSORTHOREF
  2

  9
$UCSORTHOVIEW
 70
     0
  9
$UCSORGTOP
 10
0.0
 20
0.0
 30
0.0
  9
$UCSORGBOTTOM
 10
0.0
 20
0.0
 30
0.0
  9
$UCSORGLEFT
 10
0.0
 20
0.0
 30
0.0
  9
$UCSORGRIGHT
 10
0.0
 20
0.0
 30
0.0
  9
$UCSORGFRONT
 10
0.0
 20
0.0
 30
0.0
  9
$UCSORGBACK
 10
0.0
 20
0.0
 30
0.0
  9
$PUCSBASE
  2

  9
$PUCSNAME
  2

  9
$PUCSORG
 10
0.0
 20
0.0
 30
0.0
  9
$PUCSXDIR
 10
1.0
 20
0.0
 30
0.0
  9
$PUCSYDIR
 10
0.0
 20
1.0
 30
0.0
  9
$PUCSORTHOREF
  2

  9
$PUCSORTHOVIEW
 70
     0
  9
$PUCSORGTOP
 10
0.0
 20
0.0
 30
0.0
  9
$PUCSORGBOTTOM
 10
0.0
 20
0.0
 30
0.0
  9
$PUCSORGLEFT
 10
0.0
 20
0.0
 30
0.0
  9
$PUCSORGRIGHT
 10
0.0
 20
0.0
 30
0.0
  9
$PUCSORGFRONT
 10
0.0
 20
0.0
 30
0.0
  9
$PUCSORGBACK
 10
0.0
 20
0.0
 30
0.0
  9
$USERI1
 70
     0
  9
$USERI2
 70
     0
  9
$USERI3
 70
     0
  9
$USERI4
 70
     0
  9
$USERI5
 70
     0
  9
$USERR1
 40
0.0
  9
$USERR2
 40
0.0
  9
$USERR3
 40
0.0
  9
$USERR4
 40
0.0
  9
$USERR5
 40
0.0
  9
$WORLDVIEW
 70
     1
  9
$SHADEDGE
 70
     3
  9
$SHADEDIF
 70
    70
  9
$TILEMODE
 70
     1
  9
$MAXACTVP
 70
    64
  9
$PINSBASE
 10
0.0
 20
0.0
 30
0.0
  9
$PLIMCHECK
 70
     0
  9
$PEXTMIN
 10
1.000000000000000E+20
 20
1.000000000000000E+20
 30
1.000000000000000E+20
  9
$PEXTMAX
 10
-1.000000000000000E+20
 20
-1.000000000000000E+20
 30
-1.000000000000000E+20
  9
$PLIMMIN
 10
0.0
 20
0.0
  9
$PLIMMAX
 10
12.0
 20
9.0
  9
$UNITMODE
 70
     0
  9
$VISRETAIN
 70
     1
  9
$PLINEGEN
 70
     0
  9
$PSLTSCALE
 70
     1
  9
$TREEDEPTH
 70
  3020
  9
$CMLSTYLE
  2
Standard
  9
$CMLJUST
 70
     0
  9
$CMLSCALE
 40
1.0
  9
$PROXYGRAPHICS
 70
     1
  9
$MEASUREMENT
 70
     0
  9
$CELWEIGHT
370
    -1
  9
$ENDCAPS
280
     0
  9
$JOINSTYLE
280
     0
  9
$LWDISPLAY
290
     0
  9
$INSUNITS
 70
     4
  9
$HYPERLINKBASE
  1

  9
$STYLESHEET
  1

  9
$XEDIT
290
     1
  9
$CEPSNTYPE
380
     0
  9
$PSTYLEMODE
290
     1
  9
$FINGERPRINTGUID
  2
{C959BB8D-2569-4628-9AC5-3F2484CFDEA2}
  9
$VERSIONGUID
  2
{FAEB1C32-E019-11D5-929B-00C0DF256EC4}
  9
$EXTNAMES
290
     1
  9
$PSVPSCALE
 40
0.0
  9
$OLESTARTUP
290
     0
  9
$SORTENTS
280
   127
  9
$INDEXCTL
280
     0
  9
$HIDETEXT
280
     1
  9
$XCLIPFRAME
290
     0
  9
$HALOGAP
280
     0
  9
$OBSCOLOR
 70
   257
  9
$OBSLTYPE
280
     0
  9
$INTERSECTIONDISPLAY
280
     0
  9
$INTERSECTIONCOLOR
 70
   257
  9
$DIMASSOC
280
     2
  9
$PROJECTNAME
  1

  0
ENDSEC
  0
SECTION
  2
CLASSES
  0
CLASS
  1
ACDBDICTIONARYWDFLT
  2
AcDbDictionaryWithDefault
  3
ObjectDBX Classes
 90
        0
 91
        4
280
     0
281
     0
  0
CLASS
  1
VISUALSTYLE
  2
AcDbVisualStyle
  3
ObjectDBX Classes
 90
     4095
 91
        4
280
     0
281
     0
  0
CLASS
  1
MATERIAL
  2
AcDbMaterial
  3
ObjectDBX Classes
 90
     1153
 91
        4
280
     0
281
     0
  0
CLASS
  1
SCALE
  2
AcDbScale
  3
ObjectDBX Classes
 90
     1153
 91
        4
280
     0
281
     0
  0
CLASS
  1
SUN
  2
AcDbSun
  3
SCENEOE
 90
     1153
 91
        4
280
     0
281
     0
  0
CLASS
  1
DICTIONARYVAR
  2
AcDbDictionaryVar
  3
ObjectDBX Classes
 90
        0
 91
        4
280
     0
281
     0
  0
ENDSEC
  0
SECTION
  2
TABLES
  0
TABLE
  2
VPORT
  5
8
330
0
100
AcDbSymbolTable
 70
     1
  0
VPORT
  5
29
330
8
100
AcDbSymbolTableRecord
100
AcDbViewportTableRecord
  2
*Active
 70
     0
 10
0.0
 20
0.0
 11
1.0
 21
1.0
 12
324.1644259325078
 22
899.6069831156492
 13
0.0
 23
0.0
 14
0.5
 24
0.5
 15
0.5
 25
0.5
 16
0.0
 26
0.0
 36
1.0
 17
0.0
 27
0.0
 37
0.0
 40
219.306371996692
 41
0.6544198150270968
 42
50.0
 43
0.0
 44
0.0
 50
0.0
 51
0.0
 71
     0
 72
   100
 73
     1
 74
     3
 75
     0
 76
     0
 77
     0
 78
     0
281
     0
 65
     1
110
0.0
120
0.0
130
0.0
111
1.0
121
0.0
131
0.0
112
0.0
122
1.0
132
0.0
 79
     0
146
0.0
  0
ENDTAB
  0
TABLE
  2
LTYPE
  5
5
330
0
100
AcDbSymbolTable
 70
     1
  0
LTYPE
  5
14
330
5
100
AcDbSymbolTableRecord
100
AcDbLinetypeTableRecord
  2
ByBlock
 70
     0
  3

 72
    65
 73
     0
 40
0.0
  0
LTYPE
  5
15
330
5
100
AcDbSymbolTableRecord
100
AcDbLinetypeTableRecord
  2
ByLayer
 70
     0
  3

 72
    65
 73
     0
 40
0.0
  0
LTYPE
  5
16
330
5
100
AcDbSymbolTableRecord
100
AcDbLinetypeTableRecord
  2
Continuous
 70
     0
  3
Solid line
 72
    65
 73
     0
 40
0.0
  0
ENDTAB
  0
TABLE
  2
LAYER
  5
2
330
0
100
AcDbSymbolTable
 70
     3
  0
LAYER
  5
10
330
2
100
AcDbSymbolTableRecord
100
AcDbLayerTableRecord
  2
0
 70
     0
 62
     7
  6
Continuous
370
    -3
390
F
  0
LAYER
  5
62
330
2
100
AcDbSymbolTableRecord
100
AcDbLayerTableRecord
  2
预设值
 70
     0
 62
    18
420
        0
  6
Continuous
370
    -3
390
F
  0
LAYER
  5
6D
330
2
100
AcDbSymbolTableRecord
100
AcDbLayerTableRecord
  2
Make2D$可见线$普通线
 70
     0
 62
    18
420
        0
  6
Continuous
370
    -3
390
F
  0
ENDTAB
  0
TABLE
  2
STYLE
  5
3
330
0
100
AcDbSymbolTable
 70
     1
  0
STYLE
  5
11
330
3
100
AcDbSymbolTableRecord
100
AcDbTextStyleTableRecord
  2
Standard
 70
     0
 40
0.0
 41
1.0
 50
0.0
 71
     0
 42
0.2
  3
txt
  4

  0
ENDTAB
  0
TABLE
  2
VIEW
  5
6
330
0
100
AcDbSymbolTable
 70
     0
  0
ENDTAB
  0
TABLE
  2
UCS
  5
7
330
0
100
AcDbSymbolTable
 70
     0
  0
ENDTAB
  0
TABLE
  2
APPID
  5
9
330
0
100
AcDbSymbolTable
 70
     1
  0
APPID
  5
12
330
9
100
AcDbSymbolTableRecord
100
AcDbRegAppTableRecord
  2
ACAD
 70
     0
  0
ENDTAB
  0
TABLE
  2
DIMSTYLE
  5
A
330
0
100
AcDbSymbolTable
 70
     1
100
AcDbDimStyleTable
  0
DIMSTYLE
105
27
330
A
100
AcDbSymbolTableRecord
100
AcDbDimStyleTableRecord
  2
Standard
 70
     0
178
     0
340
11
  0
ENDTAB
  0
TABLE
  2
BLOCK_RECORD
  5
1
330
0
100
AcDbSymbolTable
 70
     1
  0
BLOCK_RECORD
  5
1F
330
1
100
AcDbSymbolTableRecord
100
AcDbBlockTableRecord
  2
*Model_Space
340
22
  0
BLOCK_RECORD
  5
1B
330
1
100
AcDbSymbolTableRecord
100
AcDbBlockTableRecord
  2
*Paper_Space
340
1E
  0
BLOCK_RECORD
  5
23
330
1
100
AcDbSymbolTableRecord
100
AcDbBlockTableRecord
  2
*Paper_Space0
340
26
  0
ENDTAB
  0
ENDSEC
  0
SECTION
  2
BLOCKS
  0
BLOCK
  5
20
330
1F
100
AcDbEntity
  8
0
100
AcDbBlockBegin
  2
*Model_Space
 70
     0
 10
0.0
 20
0.0
 30
0.0
  3
*Model_Space
  1
*Model_Space
  0
ENDBLK
  5
21
330
1F
100
AcDbEntity
  8
0
100
AcDbBlockEnd
  0
BLOCK
  5
1C
330
1B
100
AcDbEntity
 67
     1
  8
0
100
AcDbBlockBegin
  2
*Paper_Space
 70
     0
 10
0.0
 20
0.0
 30
0.0
  3
*Paper_Space
  1
*Paper_Space
  0
ENDBLK
  5
1D
330
1B
100
AcDbEntity
 67
     1
  8
0
100
AcDbBlockEnd
  0
BLOCK
  5
24
330
23
100
AcDbEntity
  8
0
100
AcDbBlockBegin
  2
*Paper_Space0
 70
     0
 10
0.0
 20
0.0
 30
0.0
  3
*Paper_Space0
  1
*Paper_Space0
  0
ENDBLK
  5
25
330
23
100
AcDbEntity
  8
0
100
AcDbBlockEnd
  0
ENDSEC
  0
SECTION
  2
ENTITIES
  0
ARC
  5
63
330
1F
100
AcDbEntity
  8
预设值
100
AcDbCircle
 10
300.0267408622826
 20
871.9152121255975
 30
0.0
 40
51.91984996068864
100
AcDbArc
 50
81.83549689830046
 51
89.24966100900896
  0
SPLINE
  5
64
330
1F
100
AcDbEntity
  8
预设值
100
AcDbSpline
210
0.0
220
0.0
230
1.0
 70
     8
 71
     3
 72
    10
 73
     6
 74
     0
 42
0.000000001
 43
0.0000000001
 12
1.0
 22
0.0
 32
0.0
 13
1.0
 23
0.0
 33
0.0
 40
-55.22561588429296
 40
-55.22561588429296
 40
-55.22561588429296
 40
-55.22561588429296
 40
-39.40228556027011
 40
-28.04439648168817
 40
-26.8846919500926
 40
-26.8846919500926
 40
-26.8846919500926
 40
-26.8846919500926
 10
292.5470607087926
 20
923.369179357175
 30
0.0
 10
292.7852600893661
 20
918.1001173276484
 30
0.0
 10
293.4584132128007
 20
909.0570363986731
 30
0.0
 10
294.9846364061056
 20
899.7244647331613
 30
0.0
 10
295.9635638306789
 20
895.6670327648562
 30
0.0
 10
296.0569449121026
 20
895.29176508201
 30
0.0
  0
POLYLINE
  5
65
330
1F
100
AcDbEntity
  8
预设值
100
AcDb2dPolyline
 66
     1
 10
0.0
 20
0.0
 30
0.0
  0
VERTEX
  5
66
330
65
100
AcDbEntity
  8
预设值
100
AcDbVertex
100
AcDb2dVertex
 10
305.0142840493737
 20
923.5888045160698
 30
0.0
 42
0.013794061991218
  0
VERTEX
  5
67
330
65
100
AcDbEntity
  8
预设值
100
AcDbVertex
100
AcDb2dVertex
 10
305.8189360997757
 20
912.5277304167432
 30
0.0
 42
0.0120592245454577
  0
VERTEX
  5
68
330
65
100
AcDbEntity
  8
预设值
100
AcDbVertex
100
AcDb2dVertex
 10
306.6415799478152
 20
905.9977409251577
 30
0.0
  0
VERTEX
  5
69
330
65
100
AcDbEntity
  8
预设值
100
AcDbVertex
100
AcDb2dVertex
 10
306.674419784373
 20
905.783323710283
 30
0.0
 42
0.0102206361832593
  0
VERTEX
  5
6A
330
65
100
AcDbEntity
  8
预设值
100
AcDbVertex
100
AcDb2dVertex
 10
307.3709020562692
 20
901.7875934246161
 30
0.0
  0
VERTEX
  5
6B
330
65
100
AcDbEntity
  8
预设值
100
AcDbVertex
100
AcDb2dVertex
 10
307.4817378875525
 20
901.2661784954532
 30
0.0
  0
SEQEND
  5
6C
330
65
100
AcDbEntity
  8
预设值
  0
LINE
  5
6E
330
1F
100
AcDbEntity
  8
Make2D$可见线$普通线
100
AcDbLine
 10
383.6066064937119
 20
835.5833463943973
 30
0.0
 11
375.4978469852841
 21
835.5833450551849
 31
0.0
  0
LINE
  5
6F
330
1F
100
AcDbEntity
  8
Make2D$可见线$普通线
100
AcDbLine
 10
268.6067105476919
 20
835.5833463943973
 30
0.0
 11
276.7154700561192
 21
835.5833450551849
 31
0.0
  0
POLYLINE
  5
70
330
1F
100
AcDbEntity
  8
Make2D$可见线$普通线
100
AcDb2dPolyline
 66
     1
 10
0.0
 20
0.0
 30
0.0
  0
VERTEX
  5
71
330
70
100
AcDbEntity
  8
Make2D$可见线$普通线
100
AcDbVertex
100
AcDb2dVertex
 10
369.1237861827094
 20
865.7300299160127
 30
0.0
  0
VERTEX
  5
72
330
70
100
AcDbEntity
  8
Make2D$可见线$普通线
100
AcDbVertex
100
AcDb2dVertex
 10
368.6853348802621
 20
866.4544205835215
 30
0.0
  0
VERTEX
  5
73
330
70
100
AcDbEntity
  8
Make2D$可见线$普通线
100
AcDbVertex
100
AcDb2dVertex
 10
368.2214085531426
 20
867.1742121922192
 30
0.0
  0
VERTEX
  5
74
330
70
100
AcDbEntity
  8
Make2D$可见线$普通线
100
AcDbVertex
100
AcDb2dVertex
 10
367.7320520352633
 20
867.8886772011774
 30
0.0
  0
VERTEX
  5
75
330
70
100
AcDbEntity
  8
Make2D$可见线$普通线
100
AcDbVertex
100
AcDb2dVertex
 10
367.2173549228771
 20
868.5970854829309
 30
0.0
  0
VERTEX
  5
76
330
70
100
AcDbEntity
  8
Make2D$可见线$普通线
100
AcDbVertex
100
AcDb2dVertex
 10
366.6774521940465
 20
869.2987063868758
 30
0.0
  0
VERTEX
  5
77
330
70
100
AcDbEntity
  8
Make2D$可见线$普通线
100
AcDbVertex
100
AcDb2dVertex
 10
366.1125246444944
 20
869.9928108519165
 30
0.0
  0
VERTEX
  5
78
330
70
100
AcDbEntity
  8
Make2D$可见线$普通线
100
AcDbVertex
100
AcDb2dVertex
 10
365.5227991324703
 20
870.6786735566997
 30
0.0
  0
VERTEX
  5
79
330
70
100
AcDbEntity
  8
Make2D$可见线$普通线
100
AcDbVertex
100
AcDb2dVertex
 10
364.908548626614
 20
871.3555750951398
 30
0.0
  0
VERTEX
  5
7A
330
70
100
AcDbEntity
  8
Make2D$可见线$普通线
100
AcDbVertex
100
AcDb2dVertex
 10
364.2700920522632
 20
872.0228041644126
 30
0.0
  0
VERTEX
  5
7B
330
70
100
AcDbEntity
  8
Make2D$可见线$普通线
100
AcDbVertex
100
AcDb2dVertex
 10
363.6077939331933
 20
872.6796597521912
 30
0.0
  0
VERTEX
  5
7C
330
70
100
AcDbEntity
  8
Make2D$可见线$普通线
100
AcDbVertex
100
AcDb2dVertex
 10
362.9220638274007
 20
873.3254533096202
 30
0.0
  0
VERTEX
  5
7D
330
70
100
AcDbEntity
  8
Make2D$可见线$普通线
100
AcDbVertex
100
AcDb2dVertex
 10
362.2133555572067
 20
873.9595108963898
 30
0.0
  0
VERTEX
  5
7E
330
70
100
AcDbEntity
  8
Make2D$可见线$普通线
100
AcDbVertex
100
AcDb2dVertex
 10
361.4821662356605
 20
874.5811752842673
 30
0.0
  0
VERTEX
  5
7F
330
70
100
AcDbEntity
  8
Make2D$可见线$普通线
100
AcDbVertex
100
AcDb2dVertex
 10
360.7290350929285
 20
875.1898080055996
 30
0.0
  0
VERTEX
  5
80
330
70
100
AcDbEntity
  8
Make2D$可见线$普通线
100
AcDbVertex
100
AcDb2dVertex
 10
359.9545421080517
 20
875.7847913335886
 30
0.0
  0
VERTEX
  5
81
330
70
100
AcDbEntity
  8
Make2D$可见线$普通线
100
AcDbVertex
100
AcDb2dVertex
 10
359.1593064531101
 20
876.3655301815785
 30
0.0
 42
0.1509732358209375
  0
VERTEX
  5
82
330
70
100
AcDbEntity
  8
Make2D$可见线$普通线
100
AcDbVertex
100
AcDb2dVertex
 10
326.1066585207019
 20
886.1648292890468
 30
0.0
 42
0.1509732358209435
  0
VERTEX
  5
83
330
70
100
AcDbEntity
  8
Make2D$可见线$普通线
100
AcDbVertex
100
AcDb2dVertex
 10
293.0540105882943
 20
876.3655301815786
 30
0.0
  0
VERTEX
  5
84
330
70
100
AcDbEntity
  8
Make2D$可见线$普通线
100
AcDbVertex
100
AcDb2dVertex
 10
292.258774657176
 20
875.7847910329826
 30
0.0
  0
VERTEX
  5
85
330
70
100
AcDbEntity
  8
Make2D$可见线$普通线
100
AcDbVertex
100
AcDb2dVertex
 10
291.4842814555735
 20
875.1898074610083
 30
0.0
  0
VERTEX
  5
86
330
70
100
AcDbEntity
  8
Make2D$可见线$普通线
100
AcDbVertex
100
AcDb2dVertex
 10
290.7311501508231
 20
874.581174549
 30
0.0
  0
VERTEX
  5
87
330
70
100
AcDbEntity
  8
Make2D$可见线$普通线
100
AcDbVertex
100
AcDb2dVertex
 10
289.9999607171535
 20
873.9595100203444
 30
0.0
  0
VERTEX
  5
88
330
70
100
AcDbEntity
  8
Make2D$可见线$普通线
100
AcDbVertex
100
AcDb2dVertex
 10
289.2912523798653
 20
873.3254523391951
 30
0.0
  0
VERTEX
  5
89
330
70
100
AcDbEntity
  8
Make2D$可见线$普通线
100
AcDbVertex
100
AcDb2dVertex
 10
288.6055222471034
 20
872.679658730208
 30
0.0
  0
VERTEX
  5
8A
330
70
100
AcDbEntity
  8
Make2D$可见线$普通线
100
AcDbVertex
100
AcDb2dVertex
 10
287.9432241362623
 20
872.0228031300522
 30
0.0
  0
VERTEX
  5
8B
330
70
100
AcDbEntity
  8
Make2D$可见线$普通线
100
AcDbVertex
100
AcDb2dVertex
 10
287.3047676004037
 20
871.3555740838882
 30
0.0
  0
VERTEX
  5
8C
330
70
100
AcDbEntity
  8
Make2D$可见线$普通线
100
AcDbVertex
100
AcDb2dVertex
 10
286.6905171583765
 20
870.6786726003079
 30
0.0
  0
VERTEX
  5
8D
330
70
100
AcDbEntity
  8
Make2D$可见线$普通线
100
AcDbVertex
100
AcDb2dVertex
 10
286.1007917306133
 20
869.9928099783722
 30
0.0
  0
VERTEX
  5
8E
330
70
100
AcDbEntity
  8
Make2D$可见线$普通线
100
AcDbVertex
100
AcDb2dVertex
 10
285.5358642808861
 20
869.2987056203871
 30
0.0
  0
VERTEX
  5
8F
330
70
100
AcDbEntity
  8
Make2D$可见线$普通线
100
AcDbVertex
100
AcDb2dVertex
 10
284.9959616626271
 20
868.5970848439217
 30
0.0
  0
VERTEX
  5
90
330
70
100
AcDbEntity
  8
Make2D$可见线$普通线
100
AcDbVertex
100
AcDb2dVertex
 10
284.4812646668057
 20
867.8886767062965
 30
0.0
  0
VERTEX
  5
91
330
70
100
AcDbEntity
  8
Make2D$可见线$普通线
100
AcDbVertex
100
AcDb2dVertex
 10
283.9919082668071
 20
867.174211854359
 30
0.0
  0
VERTEX
  5
92
330
70
100
AcDbEntity
  8
Make2D$可见线$普通线
100
AcDbVertex
100
AcDb2dVertex
 10
283.5279820542957
 20
866.4544204118495
 30
0.0
  0
VERTEX
  5
93
330
70
100
AcDbEntity
  8
Make2D$可见线$普通线
100
AcDbVertex
100
AcDb2dVertex
 10
283.0895308586955
 20
865.7300299160127
 30
0.0
  0
SEQEND
  5
94
330
70
100
AcDbEntity
  8
Make2D$可见线$普通线
  0
POLYLINE
  5
95
330
1F
100
AcDbEntity
  8
Make2D$可见线$普通线
100
AcDb2dPolyline
 66
     1
 10
0.0
 20
0.0
 30
0.0
  0
VERTEX
  5
96
330
95
100
AcDbEntity
  8
Make2D$可见线$普通线
100
AcDbVertex
100
AcDb2dVertex
 10
383.6066408001353
 20
843.8024605028737
 30
0.0
  0
VERTEX
  5
97
330
95
100
AcDbEntity
  8
Make2D$可见线$普通线
100
AcDbVertex
100
AcDb2dVertex
 10
375.9235524198353
 20
843.3833138426513
 30
0.0
  0
VERTEX
  5
98
330
95
100
AcDbEntity
  8
Make2D$可见线$普通线
100
AcDbVertex
100
AcDb2dVertex
 10
375.8798700585684
 20
842.3530159797325
 30
0.0
  0
VERTEX
  5
99
330
95
100
AcDbEntity
  8
Make2D$可见线$普通线
100
AcDbVertex
100
AcDb2dVertex
 10
375.8250036572745
 20
841.3421540694898
 30
0.0
  0
VERTEX
  5
9A
330
95
100
AcDbEntity
  8
Make2D$可见线$普通线
100
AcDbVertex
100
AcDb2dVertex
 10
375.6972366455503
 20
839.3941862518777
 30
0.0
  0
VERTEX
  5
9B
330
95
100
AcDbEntity
  8
Make2D$可见线$普通线
100
AcDbVertex
100
AcDb2dVertex
 10
375.5712872065519
 20
837.5703066795049
 30
0.0
  0
VERTEX
  5
9C
330
95
100
AcDbEntity
  8
Make2D$可见线$普通线
100
AcDbVertex
100
AcDb2dVertex
 10
375.4781911621682
 20
835.9014116420612
 30
0.0
  0
VERTEX
  5
9D
330
95
100
AcDbEntity
  8
Make2D$可见线$普通线
100
AcDbVertex
100
AcDb2dVertex
 10
375.2743025255798
 20
835.0973250398969
 30
0.0
  0
VERTEX
  5
9E
330
95
100
AcDbEntity
  8
Make2D$可见线$普通线
100
AcDbVertex
100
AcDb2dVertex
 10
375.0471439783433
 20
834.3048063414009
 30
0.0
  0
VERTEX
  5
9F
330
95
100
AcDbEntity
  8
Make2D$可见线$普通线
100
AcDbVertex
100
AcDb2dVertex
 10
374.7967537198084
 20
833.523436827534
 30
0.0
  0
VERTEX
  5
A0
330
95
100
AcDbEntity
  8
Make2D$可见线$普通线
100
AcDbVertex
100
AcDb2dVertex
 10
374.5231699493248
 20
832.7527977792572
 30
0.0
  0
VERTEX
  5
A1
330
95
100
AcDbEntity
  8
Make2D$可见线$普通线
100
AcDbVertex
100
AcDb2dVertex
 10
374.2264308662424
 20
831.9924704775309
 30
0.0
  0
VERTEX
  5
A2
330
95
100
AcDbEntity
  8
Make2D$可见线$普通线
100
AcDbVertex
100
AcDb2dVertex
 10
373.9065746699109
 20
831.242036203316
 30
0.0
  0
VERTEX
  5
A3
330
95
100
AcDbEntity
  8
Make2D$可见线$普通线
100
AcDbVertex
100
AcDb2dVertex
 10
373.56363955968
 20
830.5010762375734
 30
0.0
  0
VERTEX
  5
A4
330
95
100
AcDbEntity
  8
Make2D$可见线$普通线
100
AcDbVertex
100
AcDb2dVertex
 10
373.1976637348995
 20
829.7691718612635
 30
0.0
  0
VERTEX
  5
A5
330
95
100
AcDbEntity
  8
Make2D$可见线$普通线
100
AcDbVertex
100
AcDb2dVertex
 10
372.949820092098
 20
829.3094090364644
 30
0.0
  0
VERTEX
  5
A6
330
95
100
AcDbEntity
  8
Make2D$可见线$普通线
100
AcDbVertex
100
AcDb2dVertex
 10
372.6930683990231
 20
828.8530624025897
 30
0.0
  0
VERTEX
  5
A7
330
95
100
AcDbEntity
  8
Make2D$可见线$普通线
100
AcDbVertex
100
AcDb2dVertex
 10
372.4274726537514
 20
828.4003857155335
 30
0.0
  0
VERTEX
  5
A8
330
95
100
AcDbEntity
  8
Make2D$可见线$普通线
100
AcDbVertex
100
AcDb2dVertex
 10
372.1531063459931
 20
827.9516314227028
 30
0.0
  0
VERTEX
  5
A9
330
95
100
AcDbEntity
  8
Make2D$可见线$普通线
100
AcDbVertex
100
AcDb2dVertex
 10
371.8700524412765
 20
827.5070502243865
 30
0.0
  0
VERTEX
  5
AA
330
95
100
AcDbEntity
  8
Make2D$可见线$普通线
100
AcDbVertex
100
AcDb2dVertex
 10
371.57840334102
 20
827.0668906337796
 30
0.0
  0
VERTEX
  5
AB
330
95
100
AcDbEntity
  8
Make2D$可见线$普通线
100
AcDbVertex
100
AcDb2dVertex
 10
371.27826081828
 20
826.6313985371963
 30
0.0
  0
VERTEX
  5
AC
330
95
100
AcDbEntity
  8
Make2D$可见线$普通线
100
AcDbVertex
100
AcDb2dVertex
 10
370.9697359290698
 20
826.2008167560351
 30
0.0
  0
VERTEX
  5
AD
330
95
100
AcDbEntity
  8
Make2D$可见线$普通线
100
AcDbVertex
100
AcDb2dVertex
 10
370.6529488992625
 20
825.7753846120689
 30
0.0
  0
VERTEX
  5
AE
330
95
100
AcDbEntity
  8
Make2D$可见线$普通线
100
AcDbVertex
100
AcDb2dVertex
 10
370.3280289872025
 20
825.3553374976416
 30
0.0
  0
VERTEX
  5
AF
330
95
100
AcDbEntity
  8
Make2D$可见线$普通线
100
AcDbVertex
100
AcDb2dVertex
 10
369.9951143222733
 20
824.9409064523484
 30
0.0
  0
VERTEX
  5
B0
330
95
100
AcDbEntity
  8
Make2D$可见线$普通线
100
AcDbVertex
100
AcDb2dVertex
 10
369.654351719778
 20
824.5323177477646
 30
0.0
  0
VERTEX
  5
B1
330
95
100
AcDbEntity
  8
Make2D$可见线$普通线
100
AcDbVertex
100
AcDb2dVertex
 10
369.3058964726104
 20
824.1297924817603
 30
0.0
  0
VERTEX
  5
B2
330
95
100
AcDbEntity
  8
Make2D$可见线$普通线
100
AcDbVertex
100
AcDb2dVertex
 10
368.9499121203069
 20
823.7335461839086
 30
0.0
  0
VERTEX
  5
B3
330
95
100
AcDbEntity
  8
Make2D$可见线$普通线
100
AcDbVertex
100
AcDb2dVertex
 10
368.5865701961814
 20
823.3437884334531
 30
0.0
  0
VERTEX
  5
B4
330
95
100
AcDbEntity
  8
Make2D$可见线$普通线
100
AcDbVertex
100
AcDb2dVertex
 10
368.216049953351
 20
822.9607224912487
 30
0.0
  0
VERTEX
  5
B5
330
95
100
AcDbEntity
  8
Make2D$可见线$普通线
100
AcDbVertex
100
AcDb2dVertex
 10
367.8385380705677
 20
822.5845449470206
 30
0.0
  0
VERTEX
  5
B6
330
95
100
AcDbEntity
  8
Make2D$可见线$普通线
100
AcDbVertex
100
AcDb2dVertex
 10
367.4542283388651
 20
822.2154453832364
 30
0.0
  0
VERTEX
  5
B7
330
95
100
AcDbEntity
  8
Make2D$可见线$普通线
100
AcDbVertex
100
AcDb2dVertex
 10
367.063321330127
 20
821.8536060567866
 30
0.0
  0
VERTEX
  5
B8
330
95
100
AcDbEntity
  8
Make2D$可见线$普通线
100
AcDbVertex
100
AcDb2dVertex
 10
366.6660240487643
 20
821.499201599602
 30
0.0
  0
VERTEX
  5
B9
330
95
100
AcDbEntity
  8
Make2D$可见线$普通线
100
AcDbVertex
100
AcDb2dVertex
 10
366.26254956777
 20
821.1523987392345
 30
0.0
  0
VERTEX
  5
BA
330
95
100
AcDbEntity
  8
Make2D$可见线$普通线
100
AcDbVertex
100
AcDb2dVertex
 10
365.8531166504903
 20
820.8133560403373
 30
0.0
  0
VERTEX
  5
BB
330
95
100
AcDbEntity
  8
Make2D$可见线$普通线
100
AcDbVertex
100
AcDb2dVertex
 10
365.4379493595133
 20
820.4822236678716
 30
0.0
  0
VERTEX
  5
BC
330
95
100
AcDbEntity
  8
Make2D$可见线$普通线
100
AcDbVertex
100
AcDb2dVertex
 10
365.0172766541267
 20
820.1591431727677
 30
0.0
  0
VERTEX
  5
BD
330
95
100
AcDbEntity
  8
Make2D$可见线$普通线
100
AcDbVertex
100
AcDb2dVertex
 10
364.5913319778465
 20
819.8442473006475
 30
0.0
  0
VERTEX
  5
BE
330
95
100
AcDbEntity
  8
Make2D$可见线$普通线
100
AcDbVertex
100
AcDb2dVertex
 10
364.1603528375447
 20
819.5376598241126
 30
0.0
  0
VERTEX
  5
BF
330
95
100
AcDbEntity
  8
Make2D$可见线$普通线
100
AcDbVertex
100
AcDb2dVertex
 10
363.7245803757389
 20
819.2394953989784
 30
0.0
  0
VERTEX
  5
C0
330
95
100
AcDbEntity
  8
Make2D$可见线$普通线
100
AcDbVertex
100
AcDb2dVertex
 10
363.2842589376116
 20
818.9498594447231
 30
0.0
  0
VERTEX
  5
C1
330
95
100
AcDbEntity
  8
Make2D$可见线$普通线
100
AcDbVertex
100
AcDb2dVertex
 10
362.8396356343434
 20
818.6688480492998
 30
0.0
  0
VERTEX
  5
C2
330
95
100
AcDbEntity
  8
Make2D$可见线$普通线
100
AcDbVertex
100
AcDb2dVertex
 10
362.3909599043301
 20
818.3965478983494
 30
0.0
  0
VERTEX
  5
C3
330
95
100
AcDbEntity
  8
Make2D$可见线$普通线
100
AcDbVertex
100
AcDb2dVertex
 10
361.9384830738497
 20
818.1330362287326
 30
0.0
  0
VERTEX
  5
C4
330
95
100
AcDbEntity
  8
Make2D$可见线$普通线
100
AcDbVertex
100
AcDb2dVertex
 10
361.4824579187162
 20
817.8783808061912
 30
0.0
 42
-0.121445054367316
  0
VERTEX
  5
C5
330
95
100
AcDbEntity
  8
Make2D$可见线$普通线
100
AcDbVertex
100
AcDb2dVertex
 10
326.1066585207023
 20
811.0511478066836
 30
0.0
 42
-0.1214450543672954
  0
VERTEX
  5
C6
330
95
100
AcDbEntity
  8
Make2D$可见线$普通线
100
AcDbVertex
100
AcDb2dVertex
 10
290.7308591226875
 20
817.8783808061912
 30
0.0
  0
VERTEX
  5
C7
330
95
100
AcDbEntity
  8
Make2D$可见线$普通线
100
AcDbVertex
100
AcDb2dVertex
 10
290.2748339675541
 20
818.1330362287326
 30
0.0
  0
VERTEX
  5
C8
330
95
100
AcDbEntity
  8
Make2D$可见线$普通线
100
AcDbVertex
100
AcDb2dVertex
 10
289.8223571370737
 20
818.3965478983494
 30
0.0
  0
VERTEX
  5
C9
330
95
100
AcDbEntity
  8
Make2D$可见线$普通线
100
AcDbVertex
100
AcDb2dVertex
 10
289.3736814070604
 20
818.6688480492998
 30
0.0
  0
VERTEX
  5
CA
330
95
100
AcDbEntity
  8
Make2D$可见线$普通线
100
AcDbVertex
100
AcDb2dVertex
 10
288.9290581037922
 20
818.9498594447231
 30
0.0
  0
VERTEX
  5
CB
330
95
100
AcDbEntity
  8
Make2D$可见线$普通线
100
AcDbVertex
100
AcDb2dVertex
 10
288.488736665665
 20
819.2394953989784
 30
0.0
  0
VERTEX
  5
CC
330
95
100
AcDbEntity
  8
Make2D$可见线$普通线
100
AcDbVertex
100
AcDb2dVertex
 10
288.0529642038592
 20
819.5376598241126
 30
0.0
  0
VERTEX
  5
CD
330
95
100
AcDbEntity
  8
Make2D$可见线$普通线
100
AcDbVertex
100
AcDb2dVertex
 10
287.6219850635575
 20
819.8442473006475
 30
0.0
  0
VERTEX
  5
CE
330
95
100
AcDbEntity
  8
Make2D$可见线$普通线
100
AcDbVertex
100
AcDb2dVertex
 10
287.1960403872771
 20
820.1591431727677
 30
0.0
  0
VERTEX
  5
CF
330
95
100
AcDbEntity
  8
Make2D$可见线$普通线
100
AcDbVertex
100
AcDb2dVertex
 10
286.7753676818905
 20
820.4822236678716
 30
0.0
  0
VERTEX
  5
D0
330
95
100
AcDbEntity
  8
Make2D$可见线$普通线
100
AcDbVertex
100
AcDb2dVertex
 10
286.3602003909135
 20
820.8133560403373
 30
0.0
  0
VERTEX
  5
D1
330
95
100
AcDbEntity
  8
Make2D$可见线$普通线
100
AcDbVertex
100
AcDb2dVertex
 10
285.9507674736339
 20
821.1523987392345
 30
0.0
  0
VERTEX
  5
D2
330
95
100
AcDbEntity
  8
Make2D$可见线$普通线
100
AcDbVertex
100
AcDb2dVertex
 10
285.5472929926395
 20
821.499201599602
 30
0.0
  0
VERTEX
  5
D3
330
95
100
AcDbEntity
  8
Make2D$可见线$普通线
100
AcDbVertex
100
AcDb2dVertex
 10
285.1499957112767
 20
821.8536060567866
 30
0.0
  0
VERTEX
  5
D4
330
95
100
AcDbEntity
  8
Make2D$可见线$普通线
100
AcDbVertex
100
AcDb2dVertex
 10
284.7590887025387
 20
822.2154453832364
 30
0.0
  0
VERTEX
  5
D5
330
95
100
AcDbEntity
  8
Make2D$可见线$普通线
100
AcDbVertex
100
AcDb2dVertex
 10
284.374778970836
 20
822.5845449470206
 30
0.0
  0
VERTEX
  5
D6
330
95
100
AcDbEntity
  8
Make2D$可见线$普通线
100
AcDbVertex
100
AcDb2dVertex
 10
283.9972670880526
 20
822.9607224912487
 30
0.0
  0
VERTEX
  5
D7
330
95
100
AcDbEntity
  8
Make2D$可见线$普通线
100
AcDbVertex
100
AcDb2dVertex
 10
283.6267468452222
 20
823.3437884334531
 30
0.0
  0
VERTEX
  5
D8
330
95
100
AcDbEntity
  8
Make2D$可见线$普通线
100
AcDbVertex
100
AcDb2dVertex
 10
283.2634049210968
 20
823.7335461839086
 30
0.0
  0
VERTEX
  5
D9
330
95
100
AcDbEntity
  8
Make2D$可见线$普通线
100
AcDbVertex
100
AcDb2dVertex
 10
282.9074205687933
 20
824.1297924817603
 30
0.0
  0
VERTEX
  5
DA
330
95
100
AcDbEntity
  8
Make2D$可见线$普通线
100
AcDbVertex
100
AcDb2dVertex
 10
282.5589653216256
 20
824.5323177477646
 30
0.0
  0
VERTEX
  5
DB
330
95
100
AcDbEntity
  8
Make2D$可见线$普通线
100
AcDbVertex
100
AcDb2dVertex
 10
282.2182027191303
 20
824.9409064523484
 30
0.0
  0
VERTEX
  5
DC
330
95
100
AcDbEntity
  8
Make2D$可见线$普通线
100
AcDbVertex
100
AcDb2dVertex
 10
281.8852880542012
 20
825.3553374976416
 30
0.0
  0
VERTEX
  5
DD
330
95
100
AcDbEntity
  8
Make2D$可见线$普通线
100
AcDbVertex
100
AcDb2dVertex
 10
281.5603681421411
 20
825.7753846120689
 30
0.0
  0
VERTEX
  5
DE
330
95
100
AcDbEntity
  8
Make2D$可见线$普通线
100
AcDbVertex
100
AcDb2dVertex
 10
281.2435811123337
 20
826.2008167560351
 30
0.0
  0
VERTEX
  5
DF
330
95
100
AcDbEntity
  8
Make2D$可见线$普通线
100
AcDbVertex
100
AcDb2dVertex
 10
280.9350562231238
 20
826.6313985371963
 30
0.0
  0
VERTEX
  5
E0
330
95
100
AcDbEntity
  8
Make2D$可见线$普通线
100
AcDbVertex
100
AcDb2dVertex
 10
280.6349137003838
 20
827.0668906337796
 30
0.0
  0
VERTEX
  5
E1
330
95
100
AcDbEntity
  8
Make2D$可见线$普通线
100
AcDbVertex
100
AcDb2dVertex
 10
280.3432646001273
 20
827.5070502243865
 30
0.0
  0
VERTEX
  5
E2
330
95
100
AcDbEntity
  8
Make2D$可见线$普通线
100
AcDbVertex
100
AcDb2dVertex
 10
280.0602106954106
 20
827.9516314227028
 30
0.0
  0
VERTEX
  5
E3
330
95
100
AcDbEntity
  8
Make2D$可见线$普通线
100
AcDbVertex
100
AcDb2dVertex
 10
279.7858443876523
 20
828.4003857155335
 30
0.0
  0
VERTEX
  5
E4
330
95
100
AcDbEntity
  8
Make2D$可见线$普通线
100
AcDbVertex
100
AcDb2dVertex
 10
279.5202486423806
 20
828.8530624025897
 30
0.0
  0
VERTEX
  5
E5
330
95
100
AcDbEntity
  8
Make2D$可见线$普通线
100
AcDbVertex
100
AcDb2dVertex
 10
279.2634969493057
 20
829.3094090364644
 30
0.0
  0
VERTEX
  5
E6
330
95
100
AcDbEntity
  8
Make2D$可见线$普通线
100
AcDbVertex
100
AcDb2dVertex
 10
279.0156533065043
 20
829.7691718612635
 30
0.0
  0
VERTEX
  5
E7
330
95
100
AcDbEntity
  8
Make2D$可见线$普通线
100
AcDbVertex
100
AcDb2dVertex
 10
278.6496774817238
 20
830.5010762375734
 30
0.0
  0
VERTEX
  5
E8
330
95
100
AcDbEntity
  8
Make2D$可见线$普通线
100
AcDbVertex
100
AcDb2dVertex
 10
278.3067423714929
 20
831.242036203316
 30
0.0
  0
VERTEX
  5
E9
330
95
100
AcDbEntity
  8
Make2D$可见线$普通线
100
AcDbVertex
100
AcDb2dVertex
 10
277.9868861751614
 20
831.9924704775309
 30
0.0
  0
VERTEX
  5
EA
330
95
100
AcDbEntity
  8
Make2D$可见线$普通线
100
AcDbVertex
100
AcDb2dVertex
 10
277.690147092079
 20
832.7527977792572
 30
0.0
  0
VERTEX
  5
EB
330
95
100
AcDbEntity
  8
Make2D$可见线$普通线
100
AcDbVertex
100
AcDb2dVertex
 10
277.4165633215954
 20
833.523436827534
 30
0.0
  0
VERTEX
  5
EC
330
95
100
AcDbEntity
  8
Make2D$可见线$普通线
100
AcDbVertex
100
AcDb2dVertex
 10
277.1661730630605
 20
834.3048063414009
 30
0.0
  0
VERTEX
  5
ED
330
95
100
AcDbEntity
  8
Make2D$可见线$普通线
100
AcDbVertex
100
AcDb2dVertex
 10
276.939014515824
 20
835.0973250398969
 30
0.0
  0
VERTEX
  5
EE
330
95
100
AcDbEntity
  8
Make2D$可见线$普通线
100
AcDbVertex
100
AcDb2dVertex
 10
276.7351258792356
 20
835.9014116420612
 30
0.0
  0
VERTEX
  5
EF
330
95
100
AcDbEntity
  8
Make2D$可见线$普通线
100
AcDbVertex
100
AcDb2dVertex
 10
276.6420298348519
 20
837.5703066795049
 30
0.0
  0
VERTEX
  5
F0
330
95
100
AcDbEntity
  8
Make2D$可见线$普通线
100
AcDbVertex
100
AcDb2dVertex
 10
276.5160803958535
 20
839.3941862518777
 30
0.0
  0
VERTEX
  5
F1
330
95
100
AcDbEntity
  8
Make2D$可见线$普通线
100
AcDbVertex
100
AcDb2dVertex
 10
276.3883133841293
 20
841.3421540694898
 30
0.0
  0
VERTEX
  5
F2
330
95
100
AcDbEntity
  8
Make2D$可见线$普通线
100
AcDbVertex
100
AcDb2dVertex
 10
276.3334469828354
 20
842.3530159797325
 30
0.0
  0
VERTEX
  5
F3
330
95
100
AcDbEntity
  8
Make2D$可见线$普通线
100
AcDbVertex
100
AcDb2dVertex
 10
276.2897646215685
 20
843.3833138426513
 30
0.0
  0
VERTEX
  5
F4
330
95
100
AcDbEntity
  8
Make2D$可见线$普通线
100
AcDbVertex
100
AcDb2dVertex
 10
268.6066762412685
 20
843.8024605028737
 30
0.0
  0
SEQEND
  5
F5
330
95
100
AcDbEntity
  8
Make2D$可见线$普通线
  0
POLYLINE
  5
F6
330
1F
100
AcDbEntity
  8
预设值
100
AcDb2dPolyline
 66
     1
 10
0.0
 20
0.0
 30
0.0
  0
VERTEX
  5
F7
330
F6
100
AcDbEntity
  8
预设值
100
AcDbVertex
100
AcDb2dVertex
 10
279.3981495778563
 20
852.5912425757712
 30
0.0
  0
VERTEX
  5
F8
330
F6
100
AcDbEntity
  8
预设值
100
AcDbVertex
100
AcDb2dVertex
 10
278.0553240377504
 20
854.6504461971584
 30
0.0
  0
VERTEX
  5
F9
330
F6
100
AcDbEntity
  8
预设值
100
AcDbVertex
100
AcDb2dVertex
 10
277.891186246548
 20
854.5199492050965
 30
0.0
  0
VERTEX
  5
FA
330
F6
100
AcDbEntity
  8
预设值
100
AcDbVertex
100
AcDb2dVertex
 10
277.8126041046908
 20
854.4540280057101
 30
0.0
  0
VERTEX
  5
FB
330
F6
100
AcDbEntity
  8
预设值
100
AcDbVertex
100
AcDb2dVertex
 10
277.7363022746537
 20
854.3876679303294
 30
0.0
  0
VERTEX
  5
FC
330
F6
100
AcDbEntity
  8
预设值
100
AcDbVertex
100
AcDb2dVertex
 10
277.6622476134298
 20
854.3208761736358
 30
0.0
  0
VERTEX
  5
FD
330
F6
100
AcDbEntity
  8
预设值
100
AcDbVertex
100
AcDb2dVertex
 10
277.5904069780123
 20
854.2536599303112
 30
0.0
  0
VERTEX
  5
FE
330
F6
100
AcDbEntity
  8
预设值
100
AcDbVertex
100
AcDb2dVertex
 10
277.5207472253942
 20
854.1860263950373
 30
0.0
  0
VERTEX
  5
FF
330
F6
100
AcDbEntity
  8
预设值
100
AcDbVertex
100
AcDb2dVertex
 10
277.4532352125688
 20
854.1179827624958
 30
0.0
  0
VERTEX
  5
100
330
F6
100
AcDbEntity
  8
预设值
100
AcDbVertex
100
AcDb2dVertex
 10
277.387837796529
 20
854.0495362273685
 30
0.0
  0
VERTEX
  5
101
330
F6
100
AcDbEntity
  8
预设值
100
AcDbVertex
100
AcDb2dVertex
 10
277.324521834268
 20
853.9806939843372
 30
0.0
  0
VERTEX
  5
102
330
F6
100
AcDbEntity
  8
预设值
100
AcDbVertex
100
AcDb2dVertex
 10
277.2632541827788
 20
853.9114632280837
 30
0.0
  0
VERTEX
  5
103
330
F6
100
AcDbEntity
  8
预设值
100
AcDbVertex
100
AcDb2dVertex
 10
277.2040016990547
 20
853.8418511532897
 30
0.0
  0
VERTEX
  5
104
330
F6
100
AcDbEntity
  8
预设值
100
AcDbVertex
100
AcDb2dVertex
 10
277.1467312400887
 20
853.7718649546368
 30
0.0
  0
VERTEX
  5
105
330
F6
100
AcDbEntity
  8
预设值
100
AcDbVertex
100
AcDb2dVertex
 10
277.091409662874
 20
853.701511826807
 30
0.0
  0
VERTEX
  5
106
330
F6
100
AcDbEntity
  8
预设值
100
AcDbVertex
100
AcDb2dVertex
 10
277.0380038244035
 20
853.6307989644818
 30
0.0
  0
VERTEX
  5
107
330
F6
100
AcDbEntity
  8
预设值
100
AcDbVertex
100
AcDb2dVertex
 10
276.9864805816705
 20
853.5597335623432
 30
0.0
  0
VERTEX
  5
108
330
F6
100
AcDbEntity
  8
预设值
100
AcDbVertex
100
AcDb2dVertex
 10
276.9368067916681
 20
853.4883228150729
 30
0.0
  0
VERTEX
  5
109
330
F6
100
AcDbEntity
  8
预设值
100
AcDbVertex
100
AcDb2dVertex
 10
276.8889493113893
 20
853.4165739173525
 30
0.0
  0
VERTEX
  5
10A
330
F6
100
AcDbEntity
  8
预设值
100
AcDbVertex
100
AcDb2dVertex
 10
276.8428749978273
 20
853.3444940638637
 30
0.0
  0
VERTEX
  5
10B
330
F6
100
AcDbEntity
  8
预设值
100
AcDbVertex
100
AcDb2dVertex
 10
276.7985507079752
 20
853.2720904492887
 30
0.0
  0
VERTEX
  5
10C
330
F6
100
AcDbEntity
  8
预设值
100
AcDbVertex
100
AcDb2dVertex
 10
276.7559432988261
 20
853.1993702683089
 30
0.0
  0
VERTEX
  5
10D
330
F6
100
AcDbEntity
  8
预设值
100
AcDbVertex
100
AcDb2dVertex
 10
276.7150196273731
 20
853.1263407156061
 30
0.0
  0
VERTEX
  5
10E
330
F6
100
AcDbEntity
  8
预设值
100
AcDbVertex
100
AcDb2dVertex
 10
276.6757465506092
 20
853.0530089858621
 30
0.0
  0
VERTEX
  5
10F
330
F6
100
AcDbEntity
  8
预设值
100
AcDbVertex
100
AcDb2dVertex
 10
276.6380909255278
 20
852.9793822737586
 30
0.0
  0
VERTEX
  5
110
330
F6
100
AcDbEntity
  8
预设值
100
AcDbVertex
100
AcDb2dVertex
 10
276.6020196091217
 20
852.9054677739773
 30
0.0
  0
VERTEX
  5
111
330
F6
100
AcDbEntity
  8
预设值
100
AcDbVertex
100
AcDb2dVertex
 10
276.5674994583842
 20
852.8312726812001
 30
0.0
  0
VERTEX
  5
112
330
F6
100
AcDbEntity
  8
预设值
100
AcDbVertex
100
AcDb2dVertex
 10
276.5344973303083
 20
852.7568041901086
 30
0.0
  0
VERTEX
  5
113
330
F6
100
AcDbEntity
  8
预设值
100
AcDbVertex
100
AcDb2dVertex
 10
276.5029800818872
 20
852.6820694953847
 30
0.0
  0
VERTEX
  5
114
330
F6
100
AcDbEntity
  8
预设值
100
AcDbVertex
100
AcDb2dVertex
 10
276.472914570114
 20
852.60707579171
 30
0.0
  0
VERTEX
  5
115
330
F6
100
AcDbEntity
  8
预设值
100
AcDbVertex
100
AcDb2dVertex
 10
276.4442676519818
 20
852.5318302737664
 30
0.0
  0
VERTEX
  5
116
330
F6
100
AcDbEntity
  8
预设值
100
AcDbVertex
100
AcDb2dVertex
 10
276.3910970246126
 20
852.3806125737995
 30
0.0
  0
VERTEX
  5
117
330
F6
100
AcDbEntity
  8
预设值
100
AcDbVertex
100
AcDb2dVertex
 10
276.3432030557246
 20
852.2284739529375
 30
0.0
  0
VERTEX
  5
118
330
F6
100
AcDbEntity
  8
预设值
100
AcDbVertex
100
AcDb2dVertex
 10
276.3003206012628
 20
852.0754719686352
 30
0.0
  0
VERTEX
  5
119
330
F6
100
AcDbEntity
  8
预设值
100
AcDbVertex
100
AcDb2dVertex
 10
276.2621845171719
 20
851.9216641783457
 30
0.0
  0
VERTEX
  5
11A
330
F6
100
AcDbEntity
  8
预设值
100
AcDbVertex
100
AcDb2dVertex
 10
276.2285296593969
 20
851.7671081395238
 30
0.0
  0
VERTEX
  5
11B
330
F6
100
AcDbEntity
  8
预设值
100
AcDbVertex
100
AcDb2dVertex
 10
276.1990908838827
 20
851.6118614096231
 30
0.0
  0
VERTEX
  5
11C
330
F6
100
AcDbEntity
  8
预设值
100
AcDbVertex
100
AcDb2dVertex
 10
276.173603046574
 20
851.455981546098
 30
0.0
  0
VERTEX
  5
11D
330
F6
100
AcDbEntity
  8
预设值
100
AcDbVertex
100
AcDb2dVertex
 10
276.1518010034158
 20
851.299526106402
 30
0.0
  0
VERTEX
  5
11E
330
F6
100
AcDbEntity
  8
预设值
100
AcDbVertex
100
AcDb2dVertex
 10
276.133419610353
 20
851.1425526479895
 30
0.0
  0
VERTEX
  5
11F
330
F6
100
AcDbEntity
  8
预设值
100
AcDbVertex
100
AcDb2dVertex
 10
276.1181937233304
 20
850.9851187283145
 30
0.0
  0
VERTEX
  5
120
330
F6
100
AcDbEntity
  8
预设值
100
AcDbVertex
100
AcDb2dVertex
 10
276.1058581982929
 20
850.8272819048309
 30
0.0
  0
VERTEX
  5
121
330
F6
100
AcDbEntity
  8
预设值
100
AcDbVertex
100
AcDb2dVertex
 10
276.0887976579527
 20
850.5106297762544
 30
0.0
  0
VERTEX
  5
122
330
F6
100
AcDbEntity
  8
预设值
100
AcDbVertex
100
AcDb2dVertex
 10
276.0801168368915
 20
850.193056721892
 30
0.0
  0
VERTEX
  5
123
330
F6
100
AcDbEntity
  8
预设值
100
AcDbVertex
100
AcDb2dVertex
 10
276.0816520499665
 20
849.4347128493436
 30
0.0
  0
VERTEX
  5
124
330
F6
100
AcDbEntity
  8
预设值
100
AcDbVertex
100
AcDb2dVertex
 10
276.0935003806587
 20
848.9944654903892
 30
0.0
  0
VERTEX
  5
125
330
F6
100
AcDbEntity
  8
预设值
100
AcDbVertex
100
AcDb2dVertex
 10
276.113203378173
 20
848.554344130085
 30
0.0
  0
VERTEX
  5
126
330
F6
100
AcDbEntity
  8
预设值
100
AcDbVertex
100
AcDb2dVertex
 10
276.1407248459371
 20
848.1144117740037
 30
0.0
  0
VERTEX
  5
127
330
F6
100
AcDbEntity
  8
预设值
100
AcDbVertex
100
AcDb2dVertex
 10
276.1760285873789
 20
847.6747314277172
 30
0.0
  0
VERTEX
  5
128
330
F6
100
AcDbEntity
  8
预设值
100
AcDbVertex
100
AcDb2dVertex
 10
276.2190784059263
 20
847.2353660967983
 30
0.0
  0
VERTEX
  5
129
330
F6
100
AcDbEntity
  8
预设值
100
AcDbVertex
100
AcDb2dVertex
 10
276.3282714880494
 20
846.357832503352
 30
0.0
  0
VERTEX
  5
12A
330
F6
100
AcDbEntity
  8
预设值
100
AcDbVertex
100
AcDb2dVertex
 10
276.4680145197292
 20
845.4823150382441
 30
0.0
  0
VERTEX
  5
12B
330
F6
100
AcDbEntity
  8
预设值
100
AcDbVertex
100
AcDb2dVertex
 10
276.6380179283886
 20
844.6093177460536
 30
0.0
  0
VERTEX
  5
12C
330
F6
100
AcDbEntity
  8
预设值
100
AcDbVertex
100
AcDb2dVertex
 10
276.8379921414506
 20
843.7393446713595
 30
0.0
  0
VERTEX
  5
12D
330
F6
100
AcDbEntity
  8
预设值
100
AcDbVertex
100
AcDb2dVertex
 10
277.067647586338
 20
842.872899858741
 30
0.0
  0
VERTEX
  5
12E
330
F6
100
AcDbEntity
  8
预设值
100
AcDbVertex
100
AcDb2dVertex
 10
277.3266946904737
 20
842.0104873527771
 30
0.0
  0
VERTEX
  5
12F
330
F6
100
AcDbEntity
  8
预设值
100
AcDbVertex
100
AcDb2dVertex
 10
277.6148438812807
 20
841.152611198047
 30
0.0
  0
VERTEX
  5
130
330
F6
100
AcDbEntity
  8
预设值
100
AcDbVertex
100
AcDb2dVertex
 10
277.9318055861818
 20
840.2997754391295
 30
0.0
  0
VERTEX
  5
131
330
F6
100
AcDbEntity
  8
预设值
100
AcDbVertex
100
AcDb2dVertex
 10
278.2772902326
 20
839.4524841206039
 30
0.0
  0
VERTEX
  5
132
330
F6
100
AcDbEntity
  8
预设值
100
AcDbVertex
100
AcDb2dVertex
 10
278.651008247958
 20
838.6112412870493
 30
0.0
  0
VERTEX
  5
133
330
F6
100
AcDbEntity
  8
预设值
100
AcDbVertex
100
AcDb2dVertex
 10
279.0526700596789
 20
837.7765509830449
 30
0.0
  0
VERTEX
  5
134
330
F6
100
AcDbEntity
  8
预设值
100
AcDbVertex
100
AcDb2dVertex
 10
279.4819860951856
 20
836.9489172531696
 30
0.0
  0
VERTEX
  5
135
330
F6
100
AcDbEntity
  8
预设值
100
AcDbVertex
100
AcDb2dVertex
 10
279.9386667819009
 20
836.1288441420024
 30
0.0
  0
VERTEX
  5
136
330
F6
100
AcDbEntity
  8
预设值
100
AcDbVertex
100
AcDb2dVertex
 10
280.4224225472478
 20
835.3168356941227
 30
0.0
  0
VERTEX
  5
137
330
F6
100
AcDbEntity
  8
预设值
100
AcDbVertex
100
AcDb2dVertex
 10
280.9329638186491
 20
834.5133959541092
 30
0.0
  0
VERTEX
  5
138
330
F6
100
AcDbEntity
  8
预设值
100
AcDbVertex
100
AcDb2dVertex
 10
281.4700010235279
 20
833.7190289665413
 30
0.0
  0
VERTEX
  5
139
330
F6
100
AcDbEntity
  8
预设值
100
AcDbVertex
100
AcDb2dVertex
 10
282.0332445893068
 20
832.9342387759979
 30
0.0
  0
VERTEX
  5
13A
330
F6
100
AcDbEntity
  8
预设值
100
AcDbVertex
100
AcDb2dVertex
 10
282.622404943409
 20
832.159529427058
 30
0.0
  0
VERTEX
  5
13B
330
F6
100
AcDbEntity
  8
预设值
100
AcDbVertex
100
AcDb2dVertex
 10
283.2371925132572
 20
831.3954049643012
 30
0.0
  0
VERTEX
  5
13C
330
F6
100
AcDbEntity
  8
预设值
100
AcDbVertex
100
AcDb2dVertex
 10
283.8773177262744
 20
830.6423694323059
 30
0.0
  0
VERTEX
  5
13D
330
F6
100
AcDbEntity
  8
预设值
100
AcDbVertex
100
AcDb2dVertex
 10
284.5424910098835
 20
829.9009268756516
 30
0.0
  0
VERTEX
  5
13E
330
F6
100
AcDbEntity
  8
预设值
100
AcDbVertex
100
AcDb2dVertex
 10
285.2324227915074
 20
829.1715813389172
 30
0.0
  0
VERTEX
  5
13F
330
F6
100
AcDbEntity
  8
预设值
100
AcDbVertex
100
AcDb2dVertex
 10
285.946823498569
 20
828.4548368666821
 30
0.0
  0
VERTEX
  5
140
330
F6
100
AcDbEntity
  8
预设值
100
AcDbVertex
100
AcDb2dVertex
 10
286.6854035584911
 20
827.751197503525
 30
0.0
  0
VERTEX
  5
141
330
F6
100
AcDbEntity
  8
预设值
100
AcDbVertex
100
AcDb2dVertex
 10
287.4478733986967
 20
827.0611672940253
 30
0.0
  0
VERTEX
  5
142
330
F6
100
AcDbEntity
  8
预设值
100
AcDbVertex
100
AcDb2dVertex
 10
288.2339434466088
 20
826.3852502827618
 30
0.0
  0
VERTEX
  5
143
330
F6
100
AcDbEntity
  8
预设值
100
AcDbVertex
100
AcDb2dVertex
 10
289.0433241296502
 20
825.7239505143137
 30
0.0
  0
VERTEX
  5
144
330
F6
100
AcDbEntity
  8
预设值
100
AcDbVertex
100
AcDb2dVertex
 10
289.8757258752437
 20
825.0777720332601
 30
0.0
  0
VERTEX
  5
145
330
F6
100
AcDbEntity
  8
预设值
100
AcDbVertex
100
AcDb2dVertex
 10
290.7308591108124
 20
824.4472188841802
 30
0.0
  0
VERTEX
  5
146
330
F6
100
AcDbEntity
  8
预设值
100
AcDbVertex
100
AcDb2dVertex
 10
291.6083635668552
 20
823.8327468612077
 30
0.0
  0
VERTEX
  5
147
330
F6
100
AcDbEntity
  8
预设值
100
AcDbVertex
100
AcDb2dVertex
 10
292.5076068640982
 20
823.2346113443632
 30
0.0
  0
VERTEX
  5
148
330
F6
100
AcDbEntity
  8
预设值
100
AcDbVertex
100
AcDb2dVertex
 10
293.4278860169731
 20
822.6530195283589
 30
0.0
  0
VERTEX
  5
149
330
F6
100
AcDbEntity
  8
预设值
100
AcDbVertex
100
AcDb2dVertex
 10
294.3684980399115
 20
822.0881786079068
 30
0.0
  0
VERTEX
  5
14A
330
F6
100
AcDbEntity
  8
预设值
100
AcDbVertex
100
AcDb2dVertex
 10
295.3287399473452
 20
821.5402957777192
 30
0.0
  0
VERTEX
  5
14B
330
F6
100
AcDbEntity
  8
预设值
100
AcDbVertex
100
AcDb2dVertex
 10
296.3079087537059
 20
821.009578232508
 30
0.0
  0
VERTEX
  5
14C
330
F6
100
AcDbEntity
  8
预设值
100
AcDbVertex
100
AcDb2dVertex
 10
297.3053014734252
 20
820.4962331669857
 30
0.0
  0
VERTEX
  5
14D
330
F6
100
AcDbEntity
  8
预设值
100
AcDbVertex
100
AcDb2dVertex
 10
298.3202151209348
 20
820.0004677758644
 30
0.0
  0
VERTEX
  5
14E
330
F6
100
AcDbEntity
  8
预设值
100
AcDbVertex
100
AcDb2dVertex
 10
299.3519467106665
 20
819.5224892538563
 30
0.0
  0
VERTEX
  5
14F
330
F6
100
AcDbEntity
  8
预设值
100
AcDbVertex
100
AcDb2dVertex
 10
300.3997932570521
 20
819.0625047956735
 30
0.0
  0
VERTEX
  5
150
330
F6
100
AcDbEntity
  8
预设值
100
AcDbVertex
100
AcDb2dVertex
 10
301.463051774523
 20
818.6207215960283
 30
0.0
  0
VERTEX
  5
151
330
F6
100
AcDbEntity
  8
预设值
100
AcDbVertex
100
AcDb2dVertex
 10
302.5410192775112
 20
818.1973468496328
 30
0.0
  0
VERTEX
  5
152
330
F6
100
AcDbEntity
  8
预设值
100
AcDbVertex
100
AcDb2dVertex
 10
303.6329927804483
 20
817.7925877511991
 30
0.0
  0
VERTEX
  5
153
330
F6
100
AcDbEntity
  8
预设值
100
AcDbVertex
100
AcDb2dVertex
 10
304.7382692977659
 20
817.4066514954396
 30
0.0
  0
VERTEX
  5
154
330
F6
100
AcDbEntity
  8
预设值
100
AcDbVertex
100
AcDb2dVertex
 10
305.8561458438959
 20
817.0397452770665
 30
0.0
  0
VERTEX
  5
155
330
F6
100
AcDbEntity
  8
预设值
100
AcDbVertex
100
AcDb2dVertex
 10
306.9859194332697
 20
816.6920762907916
 30
0.0
  0
VERTEX
  5
156
330
F6
100
AcDbEntity
  8
预设值
100
AcDbVertex
100
AcDb2dVertex
 10
308.1268870803193
 20
816.3638517313275
 30
0.0
  0
VERTEX
  5
157
330
F6
100
AcDbEntity
  8
预设值
100
AcDbVertex
100
AcDb2dVertex
 10
309.2783457994762
 20
816.0552787933862
 30
0.0
  0
VERTEX
  5
158
330
F6
100
AcDbEntity
  8
预设值
100
AcDbVertex
100
AcDb2dVertex
 10
310.4395926051723
 20
815.7665646716798
 30
0.0
  0
VERTEX
  5
159
330
F6
100
AcDbEntity
  8
预设值
100
AcDbVertex
100
AcDb2dVertex
 10
311.609924511839
 20
815.4979165609207
 30
0.0
  0
VERTEX
  5
15A
330
F6
100
AcDbEntity
  8
预设值
100
AcDbVertex
100
AcDb2dVertex
 10
312.7886385339084
 20
815.2495416558207
 30
0.0
  0
VERTEX
  5
15B
330
F6
100
AcDbEntity
  8
预设值
100
AcDbVertex
100
AcDb2dVertex
 10
313.9750316858119
 20
815.0216471510925
 30
0.0
  0
VERTEX
  5
15C
330
F6
100
AcDbEntity
  8
预设值
100
AcDbVertex
100
AcDb2dVertex
 10
315.1684009819813
 20
814.8144402414479
 30
0.0
  0
VERTEX
  5
15D
330
F6
100
AcDbEntity
  8
预设值
100
AcDbVertex
100
AcDb2dVertex
 10
316.3680434368483
 20
814.6281281215992
 30
0.0
  0
VERTEX
  5
15E
330
F6
100
AcDbEntity
  8
预设值
100
AcDbVertex
100
AcDb2dVertex
 10
317.5732560648445
 20
814.4629179862586
 30
0.0
  0
VERTEX
  5
15F
330
F6
100
AcDbEntity
  8
预设值
100
AcDbVertex
100
AcDb2dVertex
 10
318.7833358804018
 20
814.3190170301383
 30
0.0
  0
VERTEX
  5
160
330
F6
100
AcDbEntity
  8
预设值
100
AcDbVertex
100
AcDb2dVertex
 10
319.9975798979518
 20
814.1966324479505
 30
0.0
  0
VERTEX
  5
161
330
F6
100
AcDbEntity
  8
预设值
100
AcDbVertex
100
AcDb2dVertex
 10
321.2152851319262
 20
814.0959714344073
 30
0.0
  0
VERTEX
  5
162
330
F6
100
AcDbEntity
  8
预设值
100
AcDbVertex
100
AcDb2dVertex
 10
322.4357485967568
 20
814.0172411842209
 30
0.0
  0
VERTEX
  5
163
330
F6
100
AcDbEntity
  8
预设值
100
AcDbVertex
100
AcDb2dVertex
 10
323.658267306875
 20
813.9606488921034
 30
0.0
  0
VERTEX
  5
164
330
F6
100
AcDbEntity
  8
预设值
100
AcDbVertex
100
AcDb2dVertex
 10
324.8821382767129
 20
813.9264017527672
 30
0.0
  0
VERTEX
  5
165
330
F6
100
AcDbEntity
  8
预设值
100
AcDbVertex
100
AcDb2dVertex
 10
326.1066585207019
 20
813.9147069609244
 30
0.0
  0
VERTEX
  5
166
330
F6
100
AcDbEntity
  8
预设值
100
AcDbVertex
100
AcDb2dVertex
 10
327.3311787646909
 20
813.9264017527672
 30
0.0
  0
VERTEX
  5
167
330
F6
100
AcDbEntity
  8
预设值
100
AcDbVertex
100
AcDb2dVertex
 10
328.5550497345288
 20
813.9606488921034
 30
0.0
  0
VERTEX
  5
168
330
F6
100
AcDbEntity
  8
预设值
100
AcDbVertex
100
AcDb2dVertex
 10
329.777568444647
 20
814.0172411842209
 30
0.0
  0
VERTEX
  5
169
330
F6
100
AcDbEntity
  8
预设值
100
AcDbVertex
100
AcDb2dVertex
 10
330.9980319094776
 20
814.0959714344073
 30
0.0
  0
VERTEX
  5
16A
330
F6
100
AcDbEntity
  8
预设值
100
AcDbVertex
100
AcDb2dVertex
 10
332.215737143452
 20
814.1966324479505
 30
0.0
  0
VERTEX
  5
16B
330
F6
100
AcDbEntity
  8
预设值
100
AcDbVertex
100
AcDb2dVertex
 10
333.429981161002
 20
814.3190170301383
 30
0.0
  0
VERTEX
  5
16C
330
F6
100
AcDbEntity
  8
预设值
100
AcDbVertex
100
AcDb2dVertex
 10
334.6400609765593
 20
814.4629179862586
 30
0.0
  0
VERTEX
  5
16D
330
F6
100
AcDbEntity
  8
预设值
100
AcDbVertex
100
AcDb2dVertex
 10
335.8452736045555
 20
814.6281281215992
 30
0.0
  0
VERTEX
  5
16E
330
F6
100
AcDbEntity
  8
预设值
100
AcDbVertex
100
AcDb2dVertex
 10
337.0449160594225
 20
814.8144402414479
 30
0.0
  0
VERTEX
  5
16F
330
F6
100
AcDbEntity
  8
预设值
100
AcDbVertex
100
AcDb2dVertex
 10
338.2382853555919
 20
815.0216471510925
 30
0.0
  0
VERTEX
  5
170
330
F6
100
AcDbEntity
  8
预设值
100
AcDbVertex
100
AcDb2dVertex
 10
339.4246785074954
 20
815.2495416558207
 30
0.0
  0
VERTEX
  5
171
330
F6
100
AcDbEntity
  8
预设值
100
AcDbVertex
100
AcDb2dVertex
 10
340.6033925295648
 20
815.4979165609207
 30
0.0
  0
VERTEX
  5
172
330
F6
100
AcDbEntity
  8
预设值
100
AcDbVertex
100
AcDb2dVertex
 10
341.7737244362315
 20
815.7665646716798
 30
0.0
  0
VERTEX
  5
173
330
F6
100
AcDbEntity
  8
预设值
100
AcDbVertex
100
AcDb2dVertex
 10
342.9349712419276
 20
816.0552787933862
 30
0.0
  0
VERTEX
  5
174
330
F6
100
AcDbEntity
  8
预设值
100
AcDbVertex
100
AcDb2dVertex
 10
344.0864299610845
 20
816.3638517313275
 30
0.0
  0
VERTEX
  5
175
330
F6
100
AcDbEntity
  8
预设值
100
AcDbVertex
100
AcDb2dVertex
 10
345.2273976081341
 20
816.6920762907916
 30
0.0
  0
VERTEX
  5
176
330
F6
100
AcDbEntity
  8
预设值
100
AcDbVertex
100
AcDb2dVertex
 10
346.357171197508
 20
817.0397452770665
 30
0.0
  0
VERTEX
  5
177
330
F6
100
AcDbEntity
  8
预设值
100
AcDbVertex
100
AcDb2dVertex
 10
347.475047743638
 20
817.4066514954396
 30
0.0
  0
VERTEX
  5
178
330
F6
100
AcDbEntity
  8
预设值
100
AcDbVertex
100
AcDb2dVertex
 10
348.5803242609555
 20
817.7925877511991
 30
0.0
  0
VERTEX
  5
179
330
F6
100
AcDbEntity
  8
预设值
100
AcDbVertex
100
AcDb2dVertex
 10
349.6722977638926
 20
818.1973468496328
 30
0.0
  0
VERTEX
  5
17A
330
F6
100
AcDbEntity
  8
预设值
100
AcDbVertex
100
AcDb2dVertex
 10
350.7502652668808
 20
818.6207215960284
 30
0.0
  0
VERTEX
  5
17B
330
F6
100
AcDbEntity
  8
预设值
100
AcDbVertex
100
AcDb2dVertex
 10
351.8135237843517
 20
819.0625047956736
 30
0.0
  0
VERTEX
  5
17C
330
F6
100
AcDbEntity
  8
预设值
100
AcDbVertex
100
AcDb2dVertex
 10
352.8613703307373
 20
819.5224892538563
 30
0.0
  0
VERTEX
  5
17D
330
F6
100
AcDbEntity
  8
预设值
100
AcDbVertex
100
AcDb2dVertex
 10
353.893101920469
 20
820.0004677758645
 30
0.0
  0
VERTEX
  5
17E
330
F6
100
AcDbEntity
  8
预设值
100
AcDbVertex
100
AcDb2dVertex
 10
354.9080155679786
 20
820.4962331669858
 30
0.0
  0
VERTEX
  5
17F
330
F6
100
AcDbEntity
  8
预设值
100
AcDbVertex
100
AcDb2dVertex
 10
355.9054082876979
 20
821.0095782325081
 30
0.0
  0
VERTEX
  5
180
330
F6
100
AcDbEntity
  8
预设值
100
AcDbVertex
100
AcDb2dVertex
 10
356.8845770940586
 20
821.5402957777192
 30
0.0
  0
VERTEX
  5
181
330
F6
100
AcDbEntity
  8
预设值
100
AcDbVertex
100
AcDb2dVertex
 10
357.8448190014923
 20
822.0881786079069
 30
0.0
  0
VERTEX
  5
182
330
F6
100
AcDbEntity
  8
预设值
100
AcDbVertex
100
AcDb2dVertex
 10
358.7854310244307
 20
822.653019528359
 30
0.0
  0
VERTEX
  5
183
330
F6
100
AcDbEntity
  8
预设值
100
AcDbVertex
100
AcDb2dVertex
 10
359.7057101773055
 20
823.2346113443634
 30
0.0
  0
VERTEX
  5
184
330
F6
100
AcDbEntity
  8
预设值
100
AcDbVertex
100
AcDb2dVertex
 10
360.6049534745486
 20
823.832746861208
 30
0.0
  0
VERTEX
  5
185
330
F6
100
AcDbEntity
  8
预设值
100
AcDbVertex
100
AcDb2dVertex
 10
361.4824579305914
 20
824.4472188841803
 30
0.0
  0
VERTEX
  5
186
330
F6
100
AcDbEntity
  8
预设值
100
AcDbVertex
100
AcDb2dVertex
 10
362.33759116616
 20
825.0777720332601
 30
0.0
  0
VERTEX
  5
187
330
F6
100
AcDbEntity
  8
预设值
100
AcDbVertex
100
AcDb2dVertex
 10
363.1699929117535
 20
825.7239505143137
 30
0.0
  0
VERTEX
  5
188
330
F6
100
AcDbEntity
  8
预设值
100
AcDbVertex
100
AcDb2dVertex
 10
363.9793735947949
 20
826.3852502827618
 30
0.0
  0
VERTEX
  5
189
330
F6
100
AcDbEntity
  8
预设值
100
AcDbVertex
100
AcDb2dVertex
 10
364.7654436427069
 20
827.0611672940253
 30
0.0
  0
VERTEX
  5
18A
330
F6
100
AcDbEntity
  8
预设值
100
AcDbVertex
100
AcDb2dVertex
 10
365.5279134829125
 20
827.751197503525
 30
0.0
  0
VERTEX
  5
18B
330
F6
100
AcDbEntity
  8
预设值
100
AcDbVertex
100
AcDb2dVertex
 10
366.2664935428346
 20
828.4548368666821
 30
0.0
  0
VERTEX
  5
18C
330
F6
100
AcDbEntity
  8
预设值
100
AcDbVertex
100
AcDb2dVertex
 10
366.9808942498962
 20
829.1715813389172
 30
0.0
  0
VERTEX
  5
18D
330
F6
100
AcDbEntity
  8
预设值
100
AcDbVertex
100
AcDb2dVertex
 10
367.6708260315201
 20
829.9009268756516
 30
0.0
  0
VERTEX
  5
18E
330
F6
100
AcDbEntity
  8
预设值
100
AcDbVertex
100
AcDb2dVertex
 10
368.3359993151291
 20
830.6423694323059
 30
0.0
  0
VERTEX
  5
18F
330
F6
100
AcDbEntity
  8
预设值
100
AcDbVertex
100
AcDb2dVertex
 10
368.9761245281463
 20
831.3954049643012
 30
0.0
  0
VERTEX
  5
190
330
F6
100
AcDbEntity
  8
预设值
100
AcDbVertex
100
AcDb2dVertex
 10
369.5909120979945
 20
832.159529427058
 30
0.0
  0
VERTEX
  5
191
330
F6
100
AcDbEntity
  8
预设值
100
AcDbVertex
100
AcDb2dVertex
 10
370.1800724520967
 20
832.9342387759979
 30
0.0
  0
VERTEX
  5
192
330
F6
100
AcDbEntity
  8
预设值
100
AcDbVertex
100
AcDb2dVertex
 10
370.7433160178756
 20
833.7190289665413
 30
0.0
  0
VERTEX
  5
193
330
F6
100
AcDbEntity
  8
预设值
100
AcDbVertex
100
AcDb2dVertex
 10
371.2803532227543
 20
834.5133959541092
 30
0.0
  0
VERTEX
  5
194
330
F6
100
AcDbEntity
  8
预设值
100
AcDbVertex
100
AcDb2dVertex
 10
371.7908944941557
 20
835.3168356941227
 30
0.0
  0
VERTEX
  5
195
330
F6
100
AcDbEntity
  8
预设值
100
AcDbVertex
100
AcDb2dVertex
 10
372.2746502595026
 20
836.1288441420024
 30
0.0
  0
VERTEX
  5
196
330
F6
100
AcDbEntity
  8
预设值
100
AcDbVertex
100
AcDb2dVertex
 10
372.731330946218
 20
836.9489172531696
 30
0.0
  0
VERTEX
  5
197
330
F6
100
AcDbEntity
  8
预设值
100
AcDbVertex
100
AcDb2dVertex
 10
373.1606469817247
 20
837.7765509830449
 30
0.0
  0
VERTEX
  5
198
330
F6
100
AcDbEntity
  8
预设值
100
AcDbVertex
100
AcDb2dVertex
 10
373.5623087934455
 20
838.6112412870493
 30
0.0
  0
VERTEX
  5
199
330
F6
100
AcDbEntity
  8
预设值
100
AcDbVertex
100
AcDb2dVertex
 10
373.9360268088036
 20
839.4524841206039
 30
0.0
  0
VERTEX
  5
19A
330
F6
100
AcDbEntity
  8
预设值
100
AcDbVertex
100
AcDb2dVertex
 10
374.2815114552218
 20
840.2997754391295
 30
0.0
  0
VERTEX
  5
19B
330
F6
100
AcDbEntity
  8
预设值
100
AcDbVertex
100
AcDb2dVertex
 10
374.5984731601228
 20
841.152611198047
 30
0.0
  0
VERTEX
  5
19C
330
F6
100
AcDbEntity
  8
预设值
100
AcDbVertex
100
AcDb2dVertex
 10
374.8866223509298
 20
842.0104873527771
 30
0.0
  0
VERTEX
  5
19D
330
F6
100
AcDbEntity
  8
预设值
100
AcDbVertex
100
AcDb2dVertex
 10
375.1456694550655
 20
842.872899858741
 30
0.0
  0
VERTEX
  5
19E
330
F6
100
AcDbEntity
  8
预设值
100
AcDbVertex
100
AcDb2dVertex
 10
375.3753248999529
 20
843.7393446713595
 30
0.0
  0
VERTEX
  5
19F
330
F6
100
AcDbEntity
  8
预设值
100
AcDbVertex
100
AcDb2dVertex
 10
375.5752991130149
 20
844.6093177460536
 30
0.0
  0
VERTEX
  5
1A0
330
F6
100
AcDbEntity
  8
预设值
100
AcDbVertex
100
AcDb2dVertex
 10
375.7453025216744
 20
845.4823150382441
 30
0.0
  0
VERTEX
  5
1A1
330
F6
100
AcDbEntity
  8
预设值
100
AcDbVertex
100
AcDb2dVertex
 10
375.8850455533542
 20
846.357832503352
 30
0.0
  0
VERTEX
  5
1A2
330
F6
100
AcDbEntity
  8
预设值
100
AcDbVertex
100
AcDb2dVertex
 10
375.9942386354772
 20
847.2353660967983
 30
0.0
  0
VERTEX
  5
1A3
330
F6
100
AcDbEntity
  8
预设值
100
AcDbVertex
100
AcDb2dVertex
 10
376.0372884540246
 20
847.6747314277172
 30
0.0
  0
VERTEX
  5
1A4
330
F6
100
AcDbEntity
  8
预设值
100
AcDbVertex
100
AcDb2dVertex
 10
376.0725921954665
 20
848.1144117740037
 30
0.0
  0
VERTEX
  5
1A5
330
F6
100
AcDbEntity
  8
预设值
100
AcDbVertex
100
AcDb2dVertex
 10
376.1001136632307
 20
848.554344130085
 30
0.0
  0
VERTEX
  5
1A6
330
F6
100
AcDbEntity
  8
预设值
100
AcDbVertex
100
AcDb2dVertex
 10
376.119816660745
 20
848.9944654903892
 30
0.0
  0
VERTEX
  5
1A7
330
F6
100
AcDbEntity
  8
预设值
100
AcDbVertex
100
AcDb2dVertex
 10
376.1316649914372
 20
849.4347128493436
 30
0.0
  0
VERTEX
  5
1A8
330
F6
100
AcDbEntity
  8
预设值
100
AcDbVertex
100
AcDb2dVertex
 10
376.1332002045123
 20
850.1930567218918
 30
0.0
  0
VERTEX
  5
1A9
330
F6
100
AcDbEntity
  8
预设值
100
AcDbVertex
100
AcDb2dVertex
 10
376.1245193834511
 20
850.5106297762543
 30
0.0
  0
VERTEX
  5
1AA
330
F6
100
AcDbEntity
  8
预设值
100
AcDbVertex
100
AcDb2dVertex
 10
376.1074588431109
 20
850.8272819048309
 30
0.0
  0
VERTEX
  5
1AB
330
F6
100
AcDbEntity
  8
预设值
100
AcDbVertex
100
AcDb2dVertex
 10
376.0951233180734
 20
850.9851187283145
 30
0.0
  0
VERTEX
  5
1AC
330
F6
100
AcDbEntity
  8
预设值
100
AcDbVertex
100
AcDb2dVertex
 10
376.0798974310508
 20
851.1425526479895
 30
0.0
  0
VERTEX
  5
1AD
330
F6
100
AcDbEntity
  8
预设值
100
AcDbVertex
100
AcDb2dVertex
 10
376.061516037988
 20
851.299526106402
 30
0.0
  0
VERTEX
  5
1AE
330
F6
100
AcDbEntity
  8
预设值
100
AcDbVertex
100
AcDb2dVertex
 10
376.0397139948298
 20
851.455981546098
 30
0.0
  0
VERTEX
  5
1AF
330
F6
100
AcDbEntity
  8
预设值
100
AcDbVertex
100
AcDb2dVertex
 10
376.0142261575211
 20
851.6118614096231
 30
0.0
  0
VERTEX
  5
1B0
330
F6
100
AcDbEntity
  8
预设值
100
AcDbVertex
100
AcDb2dVertex
 10
375.9847873820069
 20
851.7671081395238
 30
0.0
  0
VERTEX
  5
1B1
330
F6
100
AcDbEntity
  8
预设值
100
AcDbVertex
100
AcDb2dVertex
 10
375.9511325242319
 20
851.9216641783457
 30
0.0
  0
VERTEX
  5
1B2
330
F6
100
AcDbEntity
  8
预设值
100
AcDbVertex
100
AcDb2dVertex
 10
375.912996440141
 20
852.0754719686352
 30
0.0
  0
VERTEX
  5
1B3
330
F6
100
AcDbEntity
  8
预设值
100
AcDbVertex
100
AcDb2dVertex
 10
375.8701139856792
 20
852.2284739529375
 30
0.0
  0
VERTEX
  5
1B4
330
F6
100
AcDbEntity
  8
预设值
100
AcDbVertex
100
AcDb2dVertex
 10
375.8222200167912
 20
852.3806125737993
 30
0.0
  0
VERTEX
  5
1B5
330
F6
100
AcDbEntity
  8
预设值
100
AcDbVertex
100
AcDb2dVertex
 10
375.769049389422
 20
852.5318302737662
 30
0.0
  0
VERTEX
  5
1B6
330
F6
100
AcDbEntity
  8
预设值
100
AcDbVertex
100
AcDb2dVertex
 10
375.7404024712898
 20
852.6070757917098
 30
0.0
  0
VERTEX
  5
1B7
330
F6
100
AcDbEntity
  8
预设值
100
AcDbVertex
100
AcDb2dVertex
 10
375.7103369595166
 20
852.6820694953844
 30
0.0
  0
VERTEX
  5
1B8
330
F6
100
AcDbEntity
  8
预设值
100
AcDbVertex
100
AcDb2dVertex
 10
375.6788197110955
 20
852.7568041901084
 30
0.0
  0
VERTEX
  5
1B9
330
F6
100
AcDbEntity
  8
预设值
100
AcDbVertex
100
AcDb2dVertex
 10
375.6458175830196
 20
852.8312726811998
 30
0.0
  0
VERTEX
  5
1BA
330
F6
100
AcDbEntity
  8
预设值
100
AcDbVertex
100
AcDb2dVertex
 10
375.6112974322821
 20
852.9054677739771
 30
0.0
  0
VERTEX
  5
1BB
330
F6
100
AcDbEntity
  8
预设值
100
AcDbVertex
100
AcDb2dVertex
 10
375.575226115876
 20
852.9793822737583
 30
0.0
  0
VERTEX
  5
1BC
330
F6
100
AcDbEntity
  8
预设值
100
AcDbVertex
100
AcDb2dVertex
 10
375.5375704907946
 20
853.0530089858619
 30
0.0
  0
VERTEX
  5
1BD
330
F6
100
AcDbEntity
  8
预设值
100
AcDbVertex
100
AcDb2dVertex
 10
375.4982974140307
 20
853.1263407156059
 30
0.0
  0
VERTEX
  5
1BE
330
F6
100
AcDbEntity
  8
预设值
100
AcDbVertex
100
AcDb2dVertex
 10
375.4573737425777
 20
853.1993702683089
 30
0.0
  0
VERTEX
  5
1BF
330
F6
100
AcDbEntity
  8
预设值
100
AcDbVertex
100
AcDb2dVertex
 10
375.4147663334286
 20
853.2720904492887
 30
0.0
  0
VERTEX
  5
1C0
330
F6
100
AcDbEntity
  8
预设值
100
AcDbVertex
100
AcDb2dVertex
 10
375.3704420435765
 20
853.3444940638637
 30
0.0
  0
VERTEX
  5
1C1
330
F6
100
AcDbEntity
  8
预设值
100
AcDbVertex
100
AcDb2dVertex
 10
375.3243677300145
 20
853.4165739173524
 30
0.0
  0
VERTEX
  5
1C2
330
F6
100
AcDbEntity
  8
预设值
100
AcDbVertex
100
AcDb2dVertex
 10
375.2765102497357
 20
853.4883228150727
 30
0.0
  0
VERTEX
  5
1C3
330
F6
100
AcDbEntity
  8
预设值
100
AcDbVertex
100
AcDb2dVertex
 10
375.2268364597332
 20
853.5597335623431
 30
0.0
  0
VERTEX
  5
1C4
330
F6
100
AcDbEntity
  8
预设值
100
AcDbVertex
100
AcDb2dVertex
 10
375.1753132170003
 20
853.6307989644818
 30
0.0
  0
VERTEX
  5
1C5
330
F6
100
AcDbEntity
  8
预设值
100
AcDbVertex
100
AcDb2dVertex
 10
375.1219073785298
 20
853.7015118268068
 30
0.0
  0
VERTEX
  5
1C6
330
F6
100
AcDbEntity
  8
预设值
100
AcDbVertex
100
AcDb2dVertex
 10
375.0665858013151
 20
853.7718649546367
 30
0.0
  0
VERTEX
  5
1C7
330
F6
100
AcDbEntity
  8
预设值
100
AcDbVertex
100
AcDb2dVertex
 10
375.0093153423491
 20
853.8418511532896
 30
0.0
  0
VERTEX
  5
1C8
330
F6
100
AcDbEntity
  8
预设值
100
AcDbVertex
100
AcDb2dVertex
 10
374.950062858625
 20
853.9114632280837
 30
0.0
  0
VERTEX
  5
1C9
330
F6
100
AcDbEntity
  8
预设值
100
AcDbVertex
100
AcDb2dVertex
 10
374.8887952071358
 20
853.9806939843371
 30
0.0
  0
VERTEX
  5
1CA
330
F6
100
AcDbEntity
  8
预设值
100
AcDbVertex
100
AcDb2dVertex
 10
374.8254792448748
 20
854.0495362273684
 30
0.0
  0
VERTEX
  5
1CB
330
F6
100
AcDbEntity
  8
预设值
100
AcDbVertex
100
AcDb2dVertex
 10
374.760081828835
 20
854.1179827624957
 30
0.0
  0
VERTEX
  5
1CC
330
F6
100
AcDbEntity
  8
预设值
100
AcDbVertex
100
AcDb2dVertex
 10
374.6925698160096
 20
854.1860263950371
 30
0.0
  0
VERTEX
  5
1CD
330
F6
100
AcDbEntity
  8
预设值
100
AcDbVertex
100
AcDb2dVertex
 10
374.6229100633915
 20
854.2536599303111
 30
0.0
  0
VERTEX
  5
1CE
330
F6
100
AcDbEntity
  8
预设值
100
AcDbVertex
100
AcDb2dVertex
 10
374.551069427974
 20
854.3208761736357
 30
0.0
  0
VERTEX
  5
1CF
330
F6
100
AcDbEntity
  8
预设值
100
AcDbVertex
100
AcDb2dVertex
 10
374.4770147667501
 20
854.3876679303294
 30
0.0
  0
VERTEX
  5
1D0
330
F6
100
AcDbEntity
  8
预设值
100
AcDbVertex
100
AcDb2dVertex
 10
374.400712936713
 20
854.4540280057101
 30
0.0
  0
VERTEX
  5
1D1
330
F6
100
AcDbEntity
  8
预设值
100
AcDbVertex
100
AcDb2dVertex
 10
374.3221307948558
 20
854.5199492050965
 30
0.0
  0
VERTEX
  5
1D2
330
F6
100
AcDbEntity
  8
预设值
100
AcDbVertex
100
AcDb2dVertex
 10
374.1579930036534
 20
854.6504461971584
 30
0.0
  0
VERTEX
  5
1D3
330
F6
100
AcDbEntity
  8
预设值
100
AcDbVertex
100
AcDb2dVertex
 10
372.8151674635475
 20
852.5912425757712
 30
0.0
  0
VERTEX
  5
1D4
330
F6
100
AcDbEntity
  8
预设值
100
AcDbVertex
100
AcDb2dVertex
 10
372.7593483408147
 20
851.7339639076083
 30
0.0
  0
VERTEX
  5
1D5
330
F6
100
AcDbEntity
  8
预设值
100
AcDbVertex
100
AcDb2dVertex
 10
372.6785127371217
 20
850.8730990081349
 30
0.0
  0
VERTEX
  5
1D6
330
F6
100
AcDbEntity
  8
预设值
100
AcDbVertex
100
AcDb2dVertex
 10
372.5722925731508
 20
850.0097040062998
 30
0.0
  0
VERTEX
  5
1D7
330
F6
100
AcDbEntity
  8
预设值
100
AcDbVertex
100
AcDb2dVertex
 10
372.440377400842
 20
849.144867556042
 30
0.0
  0
VERTEX
  5
1D8
330
F6
100
AcDbEntity
  8
预设值
100
AcDbVertex
100
AcDb2dVertex
 10
372.2825174797902
 20
848.2797070137254
 30
0.0
  0
VERTEX
  5
1D9
330
F6
100
AcDbEntity
  8
预设值
100
AcDbVertex
100
AcDb2dVertex
 10
372.098526557304
 20
847.4153642935861
 30
0.0
  0
VERTEX
  5
1DA
330
F6
100
AcDbEntity
  8
预设值
100
AcDbVertex
100
AcDb2dVertex
 10
371.8882843147113
 20
846.5530014273102
 30
0.0
  0
VERTEX
  5
1DB
330
F6
100
AcDbEntity
  8
预设值
100
AcDbVertex
100
AcDb2dVertex
 10
371.6517384450672
 20
845.6937958586734
 30
0.0
  0
VERTEX
  5
1DC
330
F6
100
AcDbEntity
  8
预设值
100
AcDbVertex
100
AcDb2dVertex
 10
371.3889063306547
 20
844.8389355086928
 30
0.0
  0
VERTEX
  5
1DD
330
F6
100
AcDbEntity
  8
预设值
100
AcDbVertex
100
AcDb2dVertex
 10
371.0998762925617
 20
843.9896136509017
 30
0.0
  0
VERTEX
  5
1DE
330
F6
100
AcDbEntity
  8
预设值
100
AcDbVertex
100
AcDb2dVertex
 10
370.7848083891046
 20
843.1470236400264
 30
0.0
  0
VERTEX
  5
1DF
330
F6
100
AcDbEntity
  8
预设值
100
AcDbVertex
100
AcDb2dVertex
 10
370.443934744884
 20
842.3123535404378
 30
0.0
  0
VERTEX
  5
1E0
330
F6
100
AcDbEntity
  8
预设值
100
AcDbVertex
100
AcDb2dVertex
 10
370.077559397728
 20
841.4867807031869
 30
0.0
  0
VERTEX
  5
1E1
330
F6
100
AcDbEntity
  8
预设值
100
AcDbVertex
100
AcDb2dVertex
 10
369.6860576565948
 20
840.6714663421428
 30
0.0
  0
VERTEX
  5
1E2
330
F6
100
AcDbEntity
  8
预设值
100
AcDbVertex
100
AcDb2dVertex
 10
369.2698749695647
 20
839.8675501606741
 30
0.0
  0
VERTEX
  5
1E3
330
F6
100
AcDbEntity
  8
预设值
100
AcDbVertex
100
AcDb2dVertex
 10
368.8295253072429
 20
839.0761450804198
 30
0.0
  0
VERTEX
  5
1E4
330
F6
100
AcDbEntity
  8
预设值
100
AcDbVertex
100
AcDb2dVertex
 10
368.3655890730752
 20
838.2983321229643
 30
0.0
  0
VERTEX
  5
1E5
330
F6
100
AcDbEntity
  8
预设值
100
AcDbVertex
100
AcDb2dVertex
 10
367.8787105581465
 20
837.5351554936628
 30
0.0
  0
VERTEX
  5
1E6
330
F6
100
AcDbEntity
  8
预设值
100
AcDbVertex
100
AcDb2dVertex
 10
367.3695949638449
 20
836.7876179144911
 30
0.0
  0
VERTEX
  5
1E7
330
F6
100
AcDbEntity
  8
预设值
100
AcDbVertex
100
AcDb2dVertex
 10
366.8390050212218
 20
836.0566762496526
 30
0.0
  0
VERTEX
  5
1E8
330
F6
100
AcDbEntity
  8
预设值
100
AcDbVertex
100
AcDb2dVertex
 10
366.2877572408484
 20
835.3432374638379
 30
0.0
  0
VERTEX
  5
1E9
330
F6
100
AcDbEntity
  8
预设值
100
AcDbVertex
100
AcDb2dVertex
 10
365.7167178313655
 20
834.6481549485686
 30
0.0
  0
VERTEX
  5
1EA
330
F6
100
AcDbEntity
  8
预设值
100
AcDbVertex
100
AcDb2dVertex
 10
365.1267983286567
 20
833.972225247072
 30
0.0
  0
VERTEX
  5
1EB
330
F6
100
AcDbEntity
  8
预设值
100
AcDbVertex
100
AcDb2dVertex
 10
364.5189509805887
 20
833.3161852027283
 30
0.0
  0
VERTEX
  5
1EC
330
F6
100
AcDbEntity
  8
预设值
100
AcDbVertex
100
AcDb2dVertex
 10
363.8941639345014
 20
832.6807095504306
 30
0.0
  0
VERTEX
  5
1ED
330
F6
100
AcDbEntity
  8
预设值
100
AcDbVertex
100
AcDb2dVertex
 10
363.253456276068
 20
832.0664089642947
 30
0.0
  0
VERTEX
  5
1EE
330
F6
100
AcDbEntity
  8
预设值
100
AcDbVertex
100
AcDb2dVertex
 10
362.5978729687818
 20
831.4738285692229
 30
0.0
  0
VERTEX
  5
1EF
330
F6
100
AcDbEntity
  8
预设值
100
AcDbVertex
100
AcDb2dVertex
 10
361.9284797431613
 20
830.903446917915
 30
0.0
  0
VERTEX
  5
1F0
330
F6
100
AcDbEntity
  8
预设值
100
AcDbVertex
100
AcDb2dVertex
 10
361.2463579838405
 20
830.3556754292076
 30
0.0
  0
VERTEX
  5
1F1
330
F6
100
AcDbEntity
  8
预设值
100
AcDbVertex
100
AcDb2dVertex
 10
360.5525996610711
 20
829.8308582781764
 30
0.0
  0
VERTEX
  5
1F2
330
F6
100
AcDbEntity
  8
预设值
100
AcDbVertex
100
AcDb2dVertex
 10
359.8483023508669
 20
829.329272723352
 30
0.0
  0
VERTEX
  5
1F3
330
F6
100
AcDbEntity
  8
预设值
100
AcDbVertex
100
AcDb2dVertex
 10
358.2331489171917
 20
828.2592509976488
 30
0.0
  0
VERTEX
  5
1F4
330
F6
100
AcDbEntity
  8
预设值
100
AcDbVertex
100
AcDb2dVertex
 10
357.3184846035399
 20
827.6826964701903
 30
0.0
  0
VERTEX
  5
1F5
330
F6
100
AcDbEntity
  8
预设值
100
AcDbVertex
100
AcDb2dVertex
 10
356.3909548330436
 20
827.1218900906866
 30
0.0
  0
VERTEX
  5
1F6
330
F6
100
AcDbEntity
  8
预设值
100
AcDbVertex
100
AcDb2dVertex
 10
355.4509604833607
 20
826.57724313849
 30
0.0
  0
VERTEX
  5
1F7
330
F6
100
AcDbEntity
  8
预设值
100
AcDbVertex
100
AcDb2dVertex
 10
354.4989194185906
 20
826.0491534701337
 30
0.0
  0
VERTEX
  5
1F8
330
F6
100
AcDbEntity
  8
预设值
100
AcDbVertex
100
AcDb2dVertex
 10
353.5352659345972
 20
825.5380046620456
 30
0.0
  0
VERTEX
  5
1F9
330
F6
100
AcDbEntity
  8
预设值
100
AcDbVertex
100
AcDb2dVertex
 10
352.5604501532774
 20
825.0441651804415
 30
0.0
  0
VERTEX
  5
1FA
330
F6
100
AcDbEntity
  8
预设值
100
AcDbVertex
100
AcDb2dVertex
 10
351.5749373673131
 20
824.5679875819009
 30
0.0
  0
VERTEX
  5
1FB
330
F6
100
AcDbEntity
  8
预设值
100
AcDbVertex
100
AcDb2dVertex
 10
350.5792073372148
 20
824.1098077480301
 30
0.0
  0
VERTEX
  5
1FC
330
F6
100
AcDbEntity
  8
预设值
100
AcDbVertex
100
AcDb2dVertex
 10
349.5737535427319
 20
823.6699441574929
 30
0.0
  0
VERTEX
  5
1FD
330
F6
100
AcDbEntity
  8
预设值
100
AcDbVertex
100
AcDb2dVertex
 10
348.5590823909582
 20
823.2486971985472
 30
0.0
  0
VERTEX
  5
1FE
330
F6
100
AcDbEntity
  8
预设值
100
AcDbVertex
100
AcDb2dVertex
 10
347.5357123837089
 20
822.8463485250585
 30
0.0
  0
VERTEX
  5
1FF
330
F6
100
AcDbEntity
  8
预设值
100
AcDbVertex
100
AcDb2dVertex
 10
346.5041732469704
 20
822.4631604587663
 30
0.0
  0
VERTEX
  5
200
330
F6
100
AcDbEntity
  8
预设值
100
AcDbVertex
100
AcDb2dVertex
 10
345.4650050254457
 20
822.0993754403845
 30
0.0
  0
VERTEX
  5
201
330
F6
100
AcDbEntity
  8
预设值
100
AcDbVertex
100
AcDb2dVertex
 10
344.4187571454086
 20
821.7552155318726
 30
0.0
  0
VERTEX
  5
202
330
F6
100
AcDbEntity
  8
预设值
100
AcDbVertex
100
AcDb2dVertex
 10
343.3659874492623
 20
821.4308819719857
 30
0.0
  0
VERTEX
  5
203
330
F6
100
AcDbEntity
  8
预设值
100
AcDbVertex
100
AcDb2dVertex
 10
342.3072612053539
 20
821.1265547869426
 30
0.0
  0
VERTEX
  5
204
330
F6
100
AcDbEntity
  8
预设值
100
AcDbVertex
100
AcDb2dVertex
 10
341.2431500967297
 20
820.8423924577868
 30
0.0
  0
VERTEX
  5
205
330
F6
100
AcDbEntity
  8
预设值
100
AcDbVertex
100
AcDb2dVertex
 10
340.1742311926267
 20
820.5785316457249
 30
0.0
  0
VERTEX
  5
206
330
F6
100
AcDbEntity
  8
预设值
100
AcDbVertex
100
AcDb2dVertex
 10
339.1010859065873
 20
820.3350869764449
 30
0.0
  0
VERTEX
  5
207
330
F6
100
AcDbEntity
  8
预设值
100
AcDbVertex
100
AcDb2dVertex
 10
338.0242989451373
 20
820.1121508841112
 30
0.0
  0
VERTEX
  5
208
330
F6
100
AcDbEntity
  8
预设值
100
AcDbVertex
100
AcDb2dVertex
 10
336.9444572510125
 20
819.9097935154379
 30
0.0
  0
VERTEX
  5
209
330
F6
100
AcDbEntity
  8
预设值
100
AcDbVertex
100
AcDb2dVertex
 10
335.8621489449209
 20
819.7280626939348
 30
0.0
  0
VERTEX
  5
20A
330
F6
100
AcDbEntity
  8
预设值
100
AcDbVertex
100
AcDb2dVertex
 10
334.7779622698199
 20
819.5669839441263
 30
0.0
  0
VERTEX
  5
20B
330
F6
100
AcDbEntity
  8
预设值
100
AcDbVertex
100
AcDb2dVertex
 10
333.6924845416406
 20
819.426560575236
 30
0.0
  0
VERTEX
  5
20C
330
F6
100
AcDbEntity
  8
预设值
100
AcDbVertex
100
AcDb2dVertex
 10
332.6063011103282
 20
819.306773823545
 30
0.0
  0
VERTEX
  5
20D
330
F6
100
AcDbEntity
  8
预设值
100
AcDbVertex
100
AcDb2dVertex
 10
331.51999433498
 20
819.2075830523484
 30
0.0
  0
VERTEX
  5
20E
330
F6
100
AcDbEntity
  8
预设值
100
AcDbVertex
100
AcDb2dVertex
 10
330.4341425767442
 20
819.128926008151
 30
0.0
  0
VERTEX
  5
20F
330
F6
100
AcDbEntity
  8
预设值
100
AcDbVertex
100
AcDb2dVertex
 10
329.3493192130131
 20
819.0707191314981
 30
0.0
  0
VERTEX
  5
210
330
F6
100
AcDbEntity
  8
预设值
100
AcDbVertex
100
AcDb2dVertex
 10
328.2660916762871
 20
819.0328579205734
 30
0.0
  0
VERTEX
  5
211
330
F6
100
AcDbEntity
  8
预设值
100
AcDbVertex
100
AcDb2dVertex
 10
327.1850205209123
 20
819.0152173454787
 30
0.0
  0
VERTEX
  5
212
330
F6
100
AcDbEntity
  8
预设值
100
AcDbVertex
100
AcDb2dVertex
 10
326.1066585207019
 20
819.017652310885
 30
0.0
  0
VERTEX
  5
213
330
F6
100
AcDbEntity
  8
预设值
100
AcDbVertex
100
AcDb2dVertex
 10
325.0282965204914
 20
819.0152173454787
 30
0.0
  0
VERTEX
  5
214
330
F6
100
AcDbEntity
  8
预设值
100
AcDbVertex
100
AcDb2dVertex
 10
323.9472253651167
 20
819.0328579205734
 30
0.0
  0
VERTEX
  5
215
330
F6
100
AcDbEntity
  8
预设值
100
AcDbVertex
100
AcDb2dVertex
 10
322.8639978283908
 20
819.0707191314981
 30
0.0
  0
VERTEX
  5
216
330
F6
100
AcDbEntity
  8
预设值
100
AcDbVertex
100
AcDb2dVertex
 10
321.7791744646596
 20
819.128926008151
 30
0.0
  0
VERTEX
  5
217
330
F6
100
AcDbEntity
  8
预设值
100
AcDbVertex
100
AcDb2dVertex
 10
320.6933227064237
 20
819.2075830523484
 30
0.0
  0
VERTEX
  5
218
330
F6
100
AcDbEntity
  8
预设值
100
AcDbVertex
100
AcDb2dVertex
 10
319.6070159310756
 20
819.306773823545
 30
0.0
  0
VERTEX
  5
219
330
F6
100
AcDbEntity
  8
预设值
100
AcDbVertex
100
AcDb2dVertex
 10
318.5208324997633
 20
819.426560575236
 30
0.0
  0
VERTEX
  5
21A
330
F6
100
AcDbEntity
  8
预设值
100
AcDbVertex
100
AcDb2dVertex
 10
317.4353547715839
 20
819.5669839441263
 30
0.0
  0
VERTEX
  5
21B
330
F6
100
AcDbEntity
  8
预设值
100
AcDbVertex
100
AcDb2dVertex
 10
316.351168096483
 20
819.7280626939348
 30
0.0
  0
VERTEX
  5
21C
330
F6
100
AcDbEntity
  8
预设值
100
AcDbVertex
100
AcDb2dVertex
 10
315.2688597903913
 20
819.9097935154379
 30
0.0
  0
VERTEX
  5
21D
330
F6
100
AcDbEntity
  8
预设值
100
AcDbVertex
100
AcDb2dVertex
 10
314.1890180962664
 20
820.1121508841112
 30
0.0
  0
VERTEX
  5
21E
330
F6
100
AcDbEntity
  8
预设值
100
AcDbVertex
100
AcDb2dVertex
 10
313.1122311348166
 20
820.3350869764449
 30
0.0
  0
VERTEX
  5
21F
330
F6
100
AcDbEntity
  8
预设值
100
AcDbVertex
100
AcDb2dVertex
 10
312.0390858487772
 20
820.5785316457249
 30
0.0
  0
VERTEX
  5
220
330
F6
100
AcDbEntity
  8
预设值
100
AcDbVertex
100
AcDb2dVertex
 10
310.9701669446742
 20
820.8423924577868
 30
0.0
  0
VERTEX
  5
221
330
F6
100
AcDbEntity
  8
预设值
100
AcDbVertex
100
AcDb2dVertex
 10
309.9060558360499
 20
821.1265547869426
 30
0.0
  0
VERTEX
  5
222
330
F6
100
AcDbEntity
  8
预设值
100
AcDbVertex
100
AcDb2dVertex
 10
308.8473295921416
 20
821.4308819719857
 30
0.0
  0
VERTEX
  5
223
330
F6
100
AcDbEntity
  8
预设值
100
AcDbVertex
100
AcDb2dVertex
 10
307.7945598959952
 20
821.7552155318726
 30
0.0
  0
VERTEX
  5
224
330
F6
100
AcDbEntity
  8
预设值
100
AcDbVertex
100
AcDb2dVertex
 10
306.7483120159582
 20
822.0993754403845
 30
0.0
  0
VERTEX
  5
225
330
F6
100
AcDbEntity
  8
预设值
100
AcDbVertex
100
AcDb2dVertex
 10
305.7091437944335
 20
822.4631604587663
 30
0.0
  0
VERTEX
  5
226
330
F6
100
AcDbEntity
  8
预设值
100
AcDbVertex
100
AcDb2dVertex
 10
304.6776046576951
 20
822.8463485250585
 30
0.0
  0
VERTEX
  5
227
330
F6
100
AcDbEntity
  8
预设值
100
AcDbVertex
100
AcDb2dVertex
 10
303.6542346504456
 20
823.2486971985472
 30
0.0
  0
VERTEX
  5
228
330
F6
100
AcDbEntity
  8
预设值
100
AcDbVertex
100
AcDb2dVertex
 10
302.639563498672
 20
823.6699441574929
 30
0.0
  0
VERTEX
  5
229
330
F6
100
AcDbEntity
  8
预设值
100
AcDbVertex
100
AcDb2dVertex
 10
301.634109704189
 20
824.1098077480301
 30
0.0
  0
VERTEX
  5
22A
330
F6
100
AcDbEntity
  8
预设值
100
AcDbVertex
100
AcDb2dVertex
 10
300.6383796740907
 20
824.5679875819009
 30
0.0
  0
VERTEX
  5
22B
330
F6
100
AcDbEntity
  8
预设值
100
AcDbVertex
100
AcDb2dVertex
 10
299.6528668881264
 20
825.0441651804415
 30
0.0
  0
VERTEX
  5
22C
330
F6
100
AcDbEntity
  8
预设值
100
AcDbVertex
100
AcDb2dVertex
 10
298.6780511068065
 20
825.5380046620456
 30
0.0
  0
VERTEX
  5
22D
330
F6
100
AcDbEntity
  8
预设值
100
AcDbVertex
100
AcDb2dVertex
 10
297.7143976228131
 20
826.0491534701337
 30
0.0
  0
VERTEX
  5
22E
330
F6
100
AcDbEntity
  8
预设值
100
AcDbVertex
100
AcDb2dVertex
 10
296.7623565580431
 20
826.57724313849
 30
0.0
  0
VERTEX
  5
22F
330
F6
100
AcDbEntity
  8
预设值
100
AcDbVertex
100
AcDb2dVertex
 10
295.8223622083603
 20
827.1218900906866
 30
0.0
  0
VERTEX
  5
230
330
F6
100
AcDbEntity
  8
预设值
100
AcDbVertex
100
AcDb2dVertex
 10
294.8948324378638
 20
827.6826964701903
 30
0.0
  0
VERTEX
  5
231
330
F6
100
AcDbEntity
  8
预设值
100
AcDbVertex
100
AcDb2dVertex
 10
293.980168124212
 20
828.2592509976488
 30
0.0
  0
VERTEX
  5
232
330
F6
100
AcDbEntity
  8
预设值
100
AcDbVertex
100
AcDb2dVertex
 10
292.365014690537
 20
829.329272723352
 30
0.0
  0
VERTEX
  5
233
330
F6
100
AcDbEntity
  8
预设值
100
AcDbVertex
100
AcDb2dVertex
 10
291.6607173803326
 20
829.8308582781764
 30
0.0
  0
VERTEX
  5
234
330
F6
100
AcDbEntity
  8
预设值
100
AcDbVertex
100
AcDb2dVertex
 10
290.9669590575634
 20
830.3556754292076
 30
0.0
  0
VERTEX
  5
235
330
F6
100
AcDbEntity
  8
预设值
100
AcDbVertex
100
AcDb2dVertex
 10
290.2848372982426
 20
830.903446917915
 30
0.0
  0
VERTEX
  5
236
330
F6
100
AcDbEntity
  8
预设值
100
AcDbVertex
100
AcDb2dVertex
 10
289.615444072622
 20
831.4738285692229
 30
0.0
  0
VERTEX
  5
237
330
F6
100
AcDbEntity
  8
预设值
100
AcDbVertex
100
AcDb2dVertex
 10
288.9598607653359
 20
832.0664089642947
 30
0.0
  0
VERTEX
  5
238
330
F6
100
AcDbEntity
  8
预设值
100
AcDbVertex
100
AcDb2dVertex
 10
288.3191531069025
 20
832.6807095504306
 30
0.0
  0
VERTEX
  5
239
330
F6
100
AcDbEntity
  8
预设值
100
AcDbVertex
100
AcDb2dVertex
 10
287.6943660608152
 20
833.3161852027283
 30
0.0
  0
VERTEX
  5
23A
330
F6
100
AcDbEntity
  8
预设值
100
AcDbVertex
100
AcDb2dVertex
 10
287.0865187127472
 20
833.972225247072
 30
0.0
  0
VERTEX
  5
23B
330
F6
100
AcDbEntity
  8
预设值
100
AcDbVertex
100
AcDb2dVertex
 10
286.4965992100384
 20
834.6481549485686
 30
0.0
  0
VERTEX
  5
23C
330
F6
100
AcDbEntity
  8
预设值
100
AcDbVertex
100
AcDb2dVertex
 10
285.9255598005556
 20
835.3432374638379
 30
0.0
  0
VERTEX
  5
23D
330
F6
100
AcDbEntity
  8
预设值
100
AcDbVertex
100
AcDb2dVertex
 10
285.3743120201822
 20
836.0566762496526
 30
0.0
  0
VERTEX
  5
23E
330
F6
100
AcDbEntity
  8
预设值
100
AcDbVertex
100
AcDb2dVertex
 10
284.843722077559
 20
836.7876179144911
 30
0.0
  0
VERTEX
  5
23F
330
F6
100
AcDbEntity
  8
预设值
100
AcDbVertex
100
AcDb2dVertex
 10
284.3346064832575
 20
837.5351554936628
 30
0.0
  0
VERTEX
  5
240
330
F6
100
AcDbEntity
  8
预设值
100
AcDbVertex
100
AcDb2dVertex
 10
283.8477279683287
 20
838.2983321229643
 30
0.0
  0
VERTEX
  5
241
330
F6
100
AcDbEntity
  8
预设值
100
AcDbVertex
100
AcDb2dVertex
 10
283.383791734161
 20
839.0761450804198
 30
0.0
  0
VERTEX
  5
242
330
F6
100
AcDbEntity
  8
预设值
100
AcDbVertex
100
AcDb2dVertex
 10
282.9434420718391
 20
839.8675501606741
 30
0.0
  0
VERTEX
  5
243
330
F6
100
AcDbEntity
  8
预设值
100
AcDbVertex
100
AcDb2dVertex
 10
282.527259384809
 20
840.6714663421428
 30
0.0
  0
VERTEX
  5
244
330
F6
100
AcDbEntity
  8
预设值
100
AcDbVertex
100
AcDb2dVertex
 10
282.1357576436757
 20
841.4867807031869
 30
0.0
  0
VERTEX
  5
245
330
F6
100
AcDbEntity
  8
预设值
100
AcDbVertex
100
AcDb2dVertex
 10
281.7693822965198
 20
842.3123535404378
 30
0.0
  0
VERTEX
  5
246
330
F6
100
AcDbEntity
  8
预设值
100
AcDbVertex
100
AcDb2dVertex
 10
281.4285086522992
 20
843.1470236400264
 30
0.0
  0
VERTEX
  5
247
330
F6
100
AcDbEntity
  8
预设值
100
AcDbVertex
100
AcDb2dVertex
 10
281.1134407488422
 20
843.9896136509017
 30
0.0
  0
VERTEX
  5
248
330
F6
100
AcDbEntity
  8
预设值
100
AcDbVertex
100
AcDb2dVertex
 10
280.8244107107492
 20
844.8389355086928
 30
0.0
  0
VERTEX
  5
249
330
F6
100
AcDbEntity
  8
预设值
100
AcDbVertex
100
AcDb2dVertex
 10
280.5615785963367
 20
845.6937958586734
 30
0.0
  0
VERTEX
  5
24A
330
F6
100
AcDbEntity
  8
预设值
100
AcDbVertex
100
AcDb2dVertex
 10
280.3250327266927
 20
846.5530014273102
 30
0.0
  0
VERTEX
  5
24B
330
F6
100
AcDbEntity
  8
预设值
100
AcDbVertex
100
AcDb2dVertex
 10
280.1147904840999
 20
847.4153642935861
 30
0.0
  0
VERTEX
  5
24C
330
F6
100
AcDbEntity
  8
预设值
100
AcDbVertex
100
AcDb2dVertex
 10
279.9307995616136
 20
848.2797070137254
 30
0.0
  0
VERTEX
  5
24D
330
F6
100
AcDbEntity
  8
预设值
100
AcDbVertex
100
AcDb2dVertex
 10
279.772939640562
 20
849.144867556042
 30
0.0
  0
VERTEX
  5
24E
330
F6
100
AcDbEntity
  8
预设值
100
AcDbVertex
100
AcDb2dVertex
 10
279.6410244682531
 20
850.0097040062998
 30
0.0
  0
VERTEX
  5
24F
330
F6
100
AcDbEntity
  8
预设值
100
AcDbVertex
100
AcDb2dVertex
 10
279.5348043042821
 20
850.8730990081349
 30
0.0
  0
VERTEX
  5
250
330
F6
100
AcDbEntity
  8
预设值
100
AcDbVertex
100
AcDb2dVertex
 10
279.4539687005891
 20
851.7339639076083
 30
0.0
  0
VERTEX
  5
251
330
F6
100
AcDbEntity
  8
预设值
100
AcDbVertex
100
AcDb2dVertex
 10
279.3981495778563
 20
852.5912425757712
 30
0.0
  0
SEQEND
  5
252
330
F6
100
AcDbEntity
  8
预设值
  0
POLYLINE
  5
253
330
1F
100
AcDbEntity
  8
Make2D$可见线$普通线
100
AcDb2dPolyline
 66
     1
 10
0.0
 20
0.0
 30
0.0
  0
VERTEX
  5
254
330
253
100
AcDbEntity
  8
Make2D$可见线$普通线
100
AcDbVertex
100
AcDb2dVertex
 10
326.1066585207019
 20
946.3526773871124
 30
0.0
 42
0.0518306958689996
  0
VERTEX
  5
255
330
253
100
AcDbEntity
  8
Make2D$可见线$普通线
100
AcDbVertex
100
AcDb2dVertex
 10
320.868013904411
 20
945.8208903838334
 30
0.0
  0
VERTEX
  5
256
330
253
100
AcDbEntity
  8
Make2D$可见线$普通线
100
AcDbVertex
100
AcDb2dVertex
 10
320.5376915033683
 20
945.7533346422106
 30
0.0
  0
VERTEX
  5
257
330
253
100
AcDbEntity
  8
Make2D$可见线$普通线
100
AcDbVertex
100
AcDb2dVertex
 10
320.5156377861167
 20
945.749398651013
 30
0.0
  0
VERTEX
  5
258
330
253
100
AcDbEntity
  8
Make2D$可见线$普通线
100
AcDbVertex
100
AcDb2dVertex
 10
320.5125791435695
 20
945.7489236163622
 30
0.0
  0
VERTEX
  5
259
330
253
100
AcDbEntity
  8
Make2D$可见线$普通线
100
AcDbVertex
100
AcDb2dVertex
 10
320.5103506279088
 20
945.7486178131576
 30
0.0
  0
VERTEX
  5
25A
330
253
100
AcDbEntity
  8
Make2D$可见线$普通线
100
AcDbVertex
100
AcDb2dVertex
 10
320.509523950814
 20
945.7485230055645
 30
0.0
  0
VERTEX
  5
25B
330
253
100
AcDbEntity
  8
Make2D$可见线$普通线
100
AcDbVertex
100
AcDb2dVertex
 10
320.5088763452247
 20
945.7484640644929
 30
0.0
  0
VERTEX
  5
25C
330
253
100
AcDbEntity
  8
Make2D$可见线$普通线
100
AcDbVertex
100
AcDb2dVertex
 10
320.5086167296388
 20
945.7484473729297
 30
0.0
  0
VERTEX
  5
25D
330
253
100
AcDbEntity
  8
Make2D$可见线$普通线
100
AcDbVertex
100
AcDb2dVertex
 10
320.5083983244022
 20
945.7484388428295
 30
0.0
  0
VERTEX
  5
25E
330
253
100
AcDbEntity
  8
Make2D$可见线$普通线
100
AcDbVertex
100
AcDb2dVertex
 10
320.5082199436725
 20
945.748438205803
 30
0.0
  0
VERTEX
  5
25F
330
253
100
AcDbEntity
  8
Make2D$可见线$普通线
100
AcDbVertex
100
AcDb2dVertex
 10
320.5080804016075
 20
945.7484451934612
 30
0.0
  0
VERTEX
  5
260
330
253
100
AcDbEntity
  8
Make2D$可见线$普通线
100
AcDbVertex
100
AcDb2dVertex
 10
320.5079785123648
 20
945.7484595374146
 30
0.0
  0
VERTEX
  5
261
330
253
100
AcDbEntity
  8
Make2D$可见线$普通线
100
AcDbVertex
100
AcDb2dVertex
 10
320.5079130901021
 20
945.7484809692745
 30
0.0
  0
VERTEX
  5
262
330
253
100
AcDbEntity
  8
Make2D$可见线$普通线
100
AcDbVertex
100
AcDb2dVertex
 10
320.5078829489771
 20
945.7485092206514
 30
0.0
  0
VERTEX
  5
263
330
253
100
AcDbEntity
  8
Make2D$可见线$普通线
100
AcDbVertex
100
AcDb2dVertex
 10
320.5078869031473
 20
945.7485440231562
 30
0.0
  0
VERTEX
  5
264
330
253
100
AcDbEntity
  8
Make2D$可见线$普通线
100
AcDbVertex
100
AcDb2dVertex
 10
320.5079237667704
 20
945.7485851083998
 30
0.0
  0
VERTEX
  5
265
330
253
100
AcDbEntity
  8
Make2D$可见线$普通线
100
AcDbVertex
100
AcDb2dVertex
 10
320.5079923540043
 20
945.7486322079931
 30
0.0
  0
VERTEX
  5
266
330
253
100
AcDbEntity
  8
Make2D$可见线$普通线
100
AcDbVertex
100
AcDb2dVertex
 10
320.5080914790063
 20
945.7486850535465
 30
0.0
  0
VERTEX
  5
267
330
253
100
AcDbEntity
  8
Make2D$可见线$普通线
100
AcDbVertex
100
AcDb2dVertex
 10
320.5082199559342
 20
945.7487433766714
 30
0.0
  0
VERTEX
  5
268
330
253
100
AcDbEntity
  8
Make2D$可见线$普通线
100
AcDbVertex
100
AcDb2dVertex
 10
320.5083765989458
 20
945.7488069089783
 30
0.0
  0
VERTEX
  5
269
330
253
100
AcDbEntity
  8
Make2D$可见线$普通线
100
AcDbVertex
100
AcDb2dVertex
 10
320.5085602221986
 20
945.7488753820783
 30
0.0
  0
VERTEX
  5
26A
330
253
100
AcDbEntity
  8
Make2D$可见线$普通线
100
AcDbVertex
100
AcDb2dVertex
 10
320.5090036660584
 20
945.7490260771001
 30
0.0
  0
VERTEX
  5
26B
330
253
100
AcDbEntity
  8
Make2D$可见线$普通线
100
AcDbVertex
100
AcDb2dVertex
 10
320.5095408007752
 20
945.7491933146239
 30
0.0
  0
VERTEX
  5
26C
330
253
100
AcDbEntity
  8
Make2D$可见线$普通线
100
AcDbVertex
100
AcDb2dVertex
 10
320.5101621396101
 20
945.7493749475359
 30
0.0
  0
VERTEX
  5
26D
330
253
100
AcDbEntity
  8
Make2D$可见线$普通线
100
AcDbVertex
100
AcDb2dVertex
 10
320.5132998013562
 20
945.7502024908025
 30
0.0
  0
VERTEX
  5
26E
330
253
100
AcDbEntity
  8
Make2D$可见线$普通线
100
AcDbVertex
100
AcDb2dVertex
 10
320.5170257898938
 20
945.7510885912186
 30
0.0
  0
VERTEX
  5
26F
330
253
100
AcDbEntity
  8
Make2D$可见线$普通线
100
AcDbVertex
100
AcDb2dVertex
 10
320.5223897420116
 20
945.7522269406338
 30
0.0
  0
VERTEX
  5
270
330
253
100
AcDbEntity
  8
Make2D$可见线$普通线
100
AcDbVertex
100
AcDb2dVertex
 10
320.5238141422278
 20
945.7524868024902
 30
0.0
  0
VERTEX
  5
271
330
253
100
AcDbEntity
  8
Make2D$可见线$普通线
100
AcDbVertex
100
AcDb2dVertex
 10
320.5244154800449
 20
945.7525846486682
 30
0.0
  0
VERTEX
  5
272
330
253
100
AcDbEntity
  8
Make2D$可见线$普通线
100
AcDbVertex
100
AcDb2dVertex
 10
320.5249302606828
 20
945.7526582421949
 30
0.0
  0
VERTEX
  5
273
330
253
100
AcDbEntity
  8
Make2D$可见线$普通线
100
AcDbVertex
100
AcDb2dVertex
 10
320.5251522274538
 20
945.7526852732411
 30
0.0
  0
VERTEX
  5
274
330
253
100
AcDbEntity
  8
Make2D$可见线$普通线
100
AcDbVertex
100
AcDb2dVertex
 10
320.525348997403
 20
945.7527054359568
 30
0.0
  0
VERTEX
  5
275
330
253
100
AcDbEntity
  8
Make2D$可见线$普通线
100
AcDbVertex
100
AcDb2dVertex
 10
320.5255193846881
 20
945.7527184619532
 30
0.0
  0
VERTEX
  5
276
330
253
100
AcDbEntity
  8
Make2D$可见线$普通线
100
AcDbVertex
100
AcDb2dVertex
 10
320.5256622034667
 20
945.752724082841
 30
0.0
  0
VERTEX
  5
277
330
253
100
AcDbEntity
  8
Make2D$可见线$普通线
100
AcDbVertex
100
AcDb2dVertex
 10
320.5257762678965
 20
945.752722030231
 30
0.0
  0
VERTEX
  5
278
330
253
100
AcDbEntity
  8
Make2D$可见线$普通线
100
AcDbVertex
100
AcDb2dVertex
 10
320.5258603921351
 20
945.752712035734
 30
0.0
  0
VERTEX
  5
279
330
253
100
AcDbEntity
  8
Make2D$可见线$普通线
100
AcDbVertex
100
AcDb2dVertex
 10
320.5259133903403
 20
945.7526938309608
 30
0.0
  0
VERTEX
  5
27A
330
253
100
AcDbEntity
  8
Make2D$可见线$普通线
100
AcDbVertex
100
AcDb2dVertex
 10
320.5259340766696
 20
945.7526671475223
 30
0.0
  0
VERTEX
  5
27B
330
253
100
AcDbEntity
  8
Make2D$可见线$普通线
100
AcDbVertex
100
AcDb2dVertex
 10
320.5259212652808
 20
945.7526317170293
 30
0.0
  0
VERTEX
  5
27C
330
253
100
AcDbEntity
  8
Make2D$可见线$普通线
100
AcDbVertex
100
AcDb2dVertex
 10
320.5258737703314
 20
945.7525872710927
 30
0.0
  0
VERTEX
  5
27D
330
253
100
AcDbEntity
  8
Make2D$可见线$普通线
100
AcDbVertex
100
AcDb2dVertex
 10
320.5257904059792
 20
945.7525335413233
 30
0.0
  0
VERTEX
  5
27E
330
253
100
AcDbEntity
  8
Make2D$可见线$普通线
100
AcDbVertex
100
AcDb2dVertex
 10
320.5256699863818
 20
945.752470259332
 30
0.0
  0
VERTEX
  5
27F
330
253
100
AcDbEntity
  8
Make2D$可见线$普通线
100
AcDbVertex
100
AcDb2dVertex
 10
320.5255113256968
 20
945.7523971567296
 30
0.0
  0
VERTEX
  5
280
330
253
100
AcDbEntity
  8
Make2D$可见线$普通线
100
AcDbVertex
100
AcDb2dVertex
 10
320.5253132380819
 20
945.7523139651267
 30
0.0
  0
VERTEX
  5
281
330
253
100
AcDbEntity
  8
Make2D$可见线$普通线
100
AcDbVertex
100
AcDb2dVertex
 10
320.5250745376949
 20
945.7522204161344
 30
0.0
  0
VERTEX
  5
282
330
253
100
AcDbEntity
  8
Make2D$可见线$普通线
100
AcDbVertex
100
AcDb2dVertex
 10
320.5247940386932
 20
945.7521162413636
 30
0.0
  0
VERTEX
  5
283
330
253
100
AcDbEntity
  8
Make2D$可见线$普通线
100
AcDbVertex
100
AcDb2dVertex
 10
320.5241029014769
 20
945.7518749409294
 30
0.0
  0
VERTEX
  5
284
330
253
100
AcDbEntity
  8
Make2D$可见线$普通线
100
AcDbVertex
100
AcDb2dVertex
 10
320.5232303396941
 20
945.7515879167106
 30
0.0
  0
VERTEX
  5
285
330
253
100
AcDbEntity
  8
Make2D$可见线$普通线
100
AcDbVertex
100
AcDb2dVertex
 10
320.5177361121249
 20
945.749939639725
 30
0.0
  0
VERTEX
  5
286
330
253
100
AcDbEntity
  8
Make2D$可见线$普通线
100
AcDbVertex
100
AcDb2dVertex
 10
320.4951553092266
 20
945.7437956216504
 30
0.0
  0
VERTEX
  5
287
330
253
100
AcDbEntity
  8
Make2D$可见线$普通线
100
AcDbVertex
100
AcDb2dVertex
 10
320.161218606606
 20
945.6610991242987
 30
0.0
  0
VERTEX
  5
288
330
253
100
AcDbEntity
  8
Make2D$可见线$普通线
100
AcDbVertex
100
AcDb2dVertex
 10
319.8293759799749
 20
945.5826502532163
 30
0.0
  0
VERTEX
  5
289
330
253
100
AcDbEntity
  8
Make2D$可见线$普通线
100
AcDbVertex
100
AcDb2dVertex
 10
319.8089714242003
 20
945.5784645021251
 30
0.0
  0
VERTEX
  5
28A
330
253
100
AcDbEntity
  8
Make2D$可见线$普通线
100
AcDbVertex
100
AcDb2dVertex
 10
319.8064071419964
 20
945.578026613626
 30
0.0
  0
VERTEX
  5
28B
330
253
100
AcDbEntity
  8
Make2D$可见线$普通线
100
AcDbVertex
100
AcDb2dVertex
 10
319.8054515940653
 20
945.577884981575
 30
0.0
  0
VERTEX
  5
28C
330
253
100
AcDbEntity
  8
Make2D$可见线$普通线
100
AcDbVertex
100
AcDb2dVertex
 10
319.8047006996809
 20
945.5777915042768
 30
0.0
  0
VERTEX
  5
28D
330
253
100
AcDbEntity
  8
Make2D$可见线$普通线
100
AcDbVertex
100
AcDb2dVertex
 10
319.8043989330607
 20
945.5777620298988
 30
0.0
  0
VERTEX
  5
28E
330
253
100
AcDbEntity
  8
Make2D$可见线$普通线
100
AcDbVertex
100
AcDb2dVertex
 10
319.8041446524177
 20
945.5777436416961
 30
0.0
  0
VERTEX
  5
28F
330
253
100
AcDbEntity
  8
Make2D$可见线$普通线
100
AcDbVertex
100
AcDb2dVertex
 10
319.8039366319485
 20
945.5777360221639
 30
0.0
  0
VERTEX
  5
290
330
253
100
AcDbEntity
  8
Make2D$可见线$普通线
100
AcDbVertex
100
AcDb2dVertex
 10
319.8037736458501
 20
945.577738853798
 30
0.0
  0
VERTEX
  5
291
330
253
100
AcDbEntity
  8
Make2D$可见线$普通线
100
AcDbVertex
100
AcDb2dVertex
 10
319.8036544683193
 20
945.577751819094
 30
0.0
  0
VERTEX
  5
292
330
253
100
AcDbEntity
  8
Make2D$可见线$普通线
100
AcDbVertex
100
AcDb2dVertex
 10
319.8035778735529
 20
945.5777746005476
 30
0.0
  0
VERTEX
  5
293
330
253
100
AcDbEntity
  8
Make2D$可见线$普通线
100
AcDbVertex
100
AcDb2dVertex
 10
319.8035426357476
 20
945.5778068806544
 30
0.0
  0
VERTEX
  5
294
330
253
100
AcDbEntity
  8
Make2D$可见线$普通线
100
AcDbVertex
100
AcDb2dVertex
 10
319.8035475291003
 20
945.5778483419101
 30
0.0
  0
VERTEX
  5
295
330
253
100
AcDbEntity
  8
Make2D$可见线$普通线
100
AcDbVertex
100
AcDb2dVertex
 10
319.8035913278079
 20
945.5778986668103
 30
0.0
  0
VERTEX
  5
296
330
253
100
AcDbEntity
  8
Make2D$可见线$普通线
100
AcDbVertex
100
AcDb2dVertex
 10
319.8036728060671
 20
945.5779575378504
 30
0.0
  0
VERTEX
  5
297
330
253
100
AcDbEntity
  8
Make2D$可见线$普通线
100
AcDbVertex
100
AcDb2dVertex
 10
319.8037907380748
 20
945.5780246375261
 30
0.0
  0
VERTEX
  5
298
330
253
100
AcDbEntity
  8
Make2D$可见线$普通线
100
AcDbVertex
100
AcDb2dVertex
 10
319.8039438980277
 20
945.5780996483334
 30
0.0
  0
VERTEX
  5
299
330
253
100
AcDbEntity
  8
Make2D$可见线$普通线
100
AcDbVertex
100
AcDb2dVertex
 10
319.8041310601228
 20
945.5781822527676
 30
0.0
  0
VERTEX
  5
29A
330
253
100
AcDbEntity
  8
Make2D$可见线$普通线
100
AcDbVertex
100
AcDb2dVertex
 10
319.8043509985567
 20
945.5782721333244
 30
0.0
  0
VERTEX
  5
29B
330
253
100
AcDbEntity
  8
Make2D$可见线$普通线
100
AcDbVertex
100
AcDb2dVertex
 10
319.8048843012286
 20
945.5784724527882
 30
0.0
  0
VERTEX
  5
29C
330
253
100
AcDbEntity
  8
Make2D$可见线$普通线
100
AcDbVertex
100
AcDb2dVertex
 10
319.8062902872992
 20
945.5789464349948
 30
0.0
  0
VERTEX
  5
29D
330
253
100
AcDbEntity
  8
Make2D$可见线$普通线
100
AcDbVertex
100
AcDb2dVertex
 10
319.8080834048359
 20
945.5795012746735
 30
0.0
  0
VERTEX
  5
29E
330
253
100
AcDbEntity
  8
Make2D$可见线$普通线
100
AcDbVertex
100
AcDb2dVertex
 10
319.8125172286923
 20
945.5807722453291
 30
0.0
  0
VERTEX
  5
29F
330
253
100
AcDbEntity
  8
Make2D$可见线$普通线
100
AcDbVertex
100
AcDb2dVertex
 10
319.8225785922327
 20
945.5833903840015
 30
0.0
  0
VERTEX
  5
2A0
330
253
100
AcDbEntity
  8
Make2D$可见线$普通线
100
AcDbVertex
100
AcDb2dVertex
 10
319.8269509094569
 20
945.5844124275441
 30
0.0
  0
VERTEX
  5
2A1
330
253
100
AcDbEntity
  8
Make2D$可见线$普通线
100
AcDbVertex
100
AcDb2dVertex
 10
319.8286978970194
 20
945.5847805718881
 30
0.0
  0
VERTEX
  5
2A2
330
253
100
AcDbEntity
  8
Make2D$可见线$普通线
100
AcDbVertex
100
AcDb2dVertex
 10
319.8294272755492
 20
945.584920034581
 30
0.0
  0
VERTEX
  5
2A3
330
253
100
AcDbEntity
  8
Make2D$可见线$普通线
100
AcDbVertex
100
AcDb2dVertex
 10
319.8300475020106
 20
945.5850263709078
 30
0.0
  0
VERTEX
  5
2A4
330
253
100
AcDbEntity
  8
Make2D$可见线$普通线
100
AcDbVertex
100
AcDb2dVertex
 10
319.8303136187077
 20
945.585066322923
 30
0.0
  0
VERTEX
  5
2A5
330
253
100
AcDbEntity
  8
Make2D$可见线$普通线
100
AcDbVertex
100
AcDb2dVertex
 10
319.8305487699782
 20
945.5850970408336
 30
0.0
  0
VERTEX
  5
2A6
330
253
100
AcDbEntity
  8
Make2D$可见线$普通线
100
AcDbVertex
100
AcDb2dVertex
 10
319.830751730019
 20
945.5851182071352
 30
0.0
  0
VERTEX
  5
2A7
330
253
100
AcDbEntity
  8
Make2D$可见线$普通线
100
AcDbVertex
100
AcDb2dVertex
 10
319.8309212730267
 20
945.5851295043235
 30
0.0
  0
VERTEX
  5
2A8
330
253
100
AcDbEntity
  8
Make2D$可见线$普通线
100
AcDbVertex
100
AcDb2dVertex
 10
319.8310561731982
 20
945.585130614894
 30
0.0
  0
VERTEX
  5
2A9
330
253
100
AcDbEntity
  8
Make2D$可见线$普通线
100
AcDbVertex
100
AcDb2dVertex
 10
319.8311552047304
 20
945.5851212213424
 30
0.0
  0
VERTEX
  5
2AA
330
253
100
AcDbEntity
  8
Make2D$可见线$普通线
100
AcDbVertex
100
AcDb2dVertex
 10
319.83121714182
 20
945.5851010061645
 30
0.0
  0
VERTEX
  5
2AB
330
253
100
AcDbEntity
  8
Make2D$可见线$普通线
100
AcDbVertex
100
AcDb2dVertex
 10
319.8312407586639
 20
945.5850696518555
 30
0.0
  0
VERTEX
  5
2AC
330
253
100
AcDbEntity
  8
Make2D$可见线$普通线
100
AcDbVertex
100
AcDb2dVertex
 10
319.8312248294588
 20
945.5850268409115
 30
0.0
  0
VERTEX
  5
2AD
330
253
100
AcDbEntity
  8
Make2D$可见线$普通线
100
AcDbVertex
100
AcDb2dVertex
 10
319.8311681284017
 20
945.5849722558278
 30
0.0
  0
VERTEX
  5
2AE
330
253
100
AcDbEntity
  8
Make2D$可见线$普通线
100
AcDbVertex
100
AcDb2dVertex
 10
319.8310694296894
 20
945.5849055791001
 30
0.0
  0
VERTEX
  5
2AF
330
253
100
AcDbEntity
  8
Make2D$可见线$普通线
100
AcDbVertex
100
AcDb2dVertex
 10
319.8309275075185
 20
945.5848264932242
 30
0.0
  0
VERTEX
  5
2B0
330
253
100
AcDbEntity
  8
Make2D$可见线$普通线
100
AcDbVertex
100
AcDb2dVertex
 10
319.830741136086
 20
945.5847346806956
 30
0.0
  0
VERTEX
  5
2B1
330
253
100
AcDbEntity
  8
Make2D$可见线$普通线
100
AcDbVertex
100
AcDb2dVertex
 10
319.8305090895886
 20
945.5846298240099
 30
0.0
  0
VERTEX
  5
2B2
330
253
100
AcDbEntity
  8
Make2D$可见线$普通线
100
AcDbVertex
100
AcDb2dVertex
 10
319.8302301422233
 20
945.5845116056629
 30
0.0
  0
VERTEX
  5
2B3
330
253
100
AcDbEntity
  8
Make2D$可见线$普通线
100
AcDbVertex
100
AcDb2dVertex
 10
319.8299030681868
 20
945.58437970815
 30
0.0
  0
VERTEX
  5
2B4
330
253
100
AcDbEntity
  8
Make2D$可见线$普通线
100
AcDbVertex
100
AcDb2dVertex
 10
319.8290996368874
 20
945.5840736056093
 30
0.0
  0
VERTEX
  5
2B5
330
253
100
AcDbEntity
  8
Make2D$可见线$普通线
100
AcDbVertex
100
AcDb2dVertex
 10
319.8254068193494
 20
945.582793977554
 30
0.0
  0
VERTEX
  5
2B6
330
253
100
AcDbEntity
  8
Make2D$可见线$普通线
100
AcDbVertex
100
AcDb2dVertex
 10
319.8044282016745
 20
945.5762849067418
 30
0.0
  0
VERTEX
  5
2B7
330
253
100
AcDbEntity
  8
Make2D$可见线$普通线
100
AcDbVertex
100
AcDb2dVertex
 10
319.4686491505842
 20
945.4819047004288
 30
0.0
  0
VERTEX
  5
2B8
330
253
100
AcDbEntity
  8
Make2D$可见线$普通线
100
AcDbVertex
100
AcDb2dVertex
 10
318.7879618245594
 20
945.2829536013348
 30
0.0
  0
VERTEX
  5
2B9
330
253
100
AcDbEntity
  8
Make2D$可见线$普通线
100
AcDbVertex
100
AcDb2dVertex
 10
318.120638622475
 20
945.0648212140728
 30
0.0
  0
VERTEX
  5
2BA
330
253
100
AcDbEntity
  8
Make2D$可见线$普通线
100
AcDbVertex
100
AcDb2dVertex
 10
317.4671509790606
 20
944.8278243486337
 30
0.0
  0
VERTEX
  5
2BB
330
253
100
AcDbEntity
  8
Make2D$可见线$普通线
100
AcDbVertex
100
AcDb2dVertex
 10
316.8279260311152
 20
944.5722477452217
 30
0.0
  0
VERTEX
  5
2BC
330
253
100
AcDbEntity
  8
Make2D$可见线$普通线
100
AcDbVertex
100
AcDb2dVertex
 10
316.2033450250757
 20
944.2983336710314
 30
0.0
  0
VERTEX
  5
2BD
330
253
100
AcDbEntity
  8
Make2D$可见线$普通线
100
AcDbVertex
100
AcDb2dVertex
 10
315.5937410288208
 20
944.0062708829827
 30
0.0
  0
VERTEX
  5
2BE
330
253
100
AcDbEntity
  8
Make2D$可见线$普通线
100
AcDbVertex
100
AcDb2dVertex
 10
315.2873582907253
 20
943.8496735648048
 30
0.0
  0
VERTEX
  5
2BF
330
253
100
AcDbEntity
  8
Make2D$可见线$普通线
100
AcDbVertex
100
AcDb2dVertex
 10
314.9898010998447
 20
943.6909633679489
 30
0.0
  0
VERTEX
  5
2C0
330
253
100
AcDbEntity
  8
Make2D$可见线$普通线
100
AcDbVertex
100
AcDb2dVertex
 10
314.4205139245911
 20
943.3680874236205
 30
0.0
  0
VERTEX
  5
2C1
330
253
100
AcDbEntity
  8
Make2D$可见线$普通线
100
AcDbVertex
100
AcDb2dVertex
 10
314.3251495878873
 20
943.3114124511806
 30
0.0
  0
VERTEX
  5
2C2
330
253
100
AcDbEntity
  8
Make2D$可见线$普通线
100
AcDbVertex
100
AcDb2dVertex
 10
313.7954849700452
 20
942.9836529456044
 30
0.0
  0
VERTEX
  5
2C3
330
253
100
AcDbEntity
  8
Make2D$可见线$普通线
100
AcDbVertex
100
AcDb2dVertex
 10
313.3098756851256
 20
942.6575880891686
 30
0.0
  0
VERTEX
  5
2C4
330
253
100
AcDbEntity
  8
Make2D$可见线$普通线
100
AcDbVertex
100
AcDb2dVertex
 10
313.0179559076906
 20
942.4519354424615
 30
0.0
  0
VERTEX
  5
2C5
330
253
100
AcDbEntity
  8
Make2D$可见线$普通线
100
AcDbVertex
100
AcDb2dVertex
 10
312.7593410620693
 20
942.262018800676
 30
0.0
  0
VERTEX
  5
2C6
330
253
100
AcDbEntity
  8
Make2D$可见线$普通线
100
AcDbVertex
100
AcDb2dVertex
 10
312.5140259764001
 20
942.0735597154529
 30
0.0
  0
VERTEX
  5
2C7
330
253
100
AcDbEntity
  8
Make2D$可见线$普通线
100
AcDbVertex
100
AcDb2dVertex
 10
311.9853229615645
 20
941.6439453842239
 30
0.0
  0
VERTEX
  5
2C8
330
253
100
AcDbEntity
  8
Make2D$可见线$普通线
100
AcDbVertex
100
AcDb2dVertex
 10
311.7408585552134
 20
941.4335417742202
 30
0.0
  0
VERTEX
  5
2C9
330
253
100
AcDbEntity
  8
Make2D$可见线$普通线
100
AcDbVertex
100
AcDb2dVertex
 10
311.5109289518513
 20
941.2264901258982
 30
0.0
  0
VERTEX
  5
2CA
330
253
100
AcDbEntity
  8
Make2D$可见线$普通线
100
AcDbVertex
100
AcDb2dVertex
 10
311.2778508435614
 20
941.0082116567338
 30
0.0
  0
VERTEX
  5
2CB
330
253
100
AcDbEntity
  8
Make2D$可见线$普通线
100
AcDbVertex
100
AcDb2dVertex
 10
311.0248307290805
 20
940.7623459162039
 30
0.0
  0
VERTEX
  5
2CC
330
253
100
AcDbEntity
  8
Make2D$可见线$普通线
100
AcDbVertex
100
AcDb2dVertex
 10
310.7871416122846
 20
940.5212795402072
 30
0.0
  0
VERTEX
  5
2CD
330
253
100
AcDbEntity
  8
Make2D$可见线$普通线
100
AcDbVertex
100
AcDb2dVertex
 10
310.5638781810914
 20
940.2852395548134
 30
0.0
  0
VERTEX
  5
2CE
330
253
100
AcDbEntity
  8
Make2D$可见线$普通线
100
AcDbVertex
100
AcDb2dVertex
 10
310.3541351234181
 20
940.0544529860928
 30
0.0
  0
VERTEX
  5
2CF
330
253
100
AcDbEntity
  8
Make2D$可见线$普通线
100
AcDbVertex
100
AcDb2dVertex
 10
310.0992193305847
 20
939.7635117978984
 30
0.0
  0
VERTEX
  5
2D0
330
253
100
AcDbEntity
  8
Make2D$可见线$普通线
100
AcDbVertex
100
AcDb2dVertex
 10
309.8880955085276
 20
939.5110388089155
 30
0.0
  0
VERTEX
  5
2D1
330
253
100
AcDbEntity
  8
Make2D$可见线$普通线
100
AcDbVertex
100
AcDb2dVertex
 10
309.6933915698323
 20
939.2651049463092
 30
0.0
  0
VERTEX
  5
2D2
330
253
100
AcDbEntity
  8
Make2D$可见线$普通线
100
AcDbVertex
100
AcDb2dVertex
 10
309.487735427084
 20
938.9937811372446
 30
0.0
  0
VERTEX
  5
2D3
330
253
100
AcDbEntity
  8
Make2D$可见线$普通线
100
AcDbVertex
100
AcDb2dVertex
 10
309.2472110231503
 20
938.6641797737605
 30
0.0
  0
VERTEX
  5
2D4
330
253
100
AcDbEntity
  8
Make2D$可见线$普通线
100
AcDbVertex
100
AcDb2dVertex
 10
309.0242042341769
 20
938.3428678062005
 30
0.0
  0
VERTEX
  5
2D5
330
253
100
AcDbEntity
  8
Make2D$可见线$普通线
100
AcDbVertex
100
AcDb2dVertex
 10
308.816897083196
 20
938.0281680025862
 30
0.0
  0
VERTEX
  5
2D6
330
253
100
AcDbEntity
  8
Make2D$可见线$普通线
100
AcDbVertex
100
AcDb2dVertex
 10
308.6234715932391
 20
937.7184031309392
 30
0.0
  0
VERTEX
  5
2D7
330
253
100
AcDbEntity
  8
Make2D$可见线$普通线
100
AcDbVertex
100
AcDb2dVertex
 10
308.4421097873384
 20
937.4118959592811
 30
0.0
  0
VERTEX
  5
2D8
330
253
100
AcDbEntity
  8
Make2D$可见线$普通线
100
AcDbVertex
100
AcDb2dVertex
 10
308.2709936885258
 20
937.1069692556337
 30
0.0
  0
VERTEX
  5
2D9
330
253
100
AcDbEntity
  8
Make2D$可见线$普通线
100
AcDbVertex
100
AcDb2dVertex
 10
308.1083053198331
 20
936.8019457880184
 30
0.0
  0
VERTEX
  5
2DA
330
253
100
AcDbEntity
  8
Make2D$可见线$普通线
100
AcDbVertex
100
AcDb2dVertex
 10
307.9000485172247
 20
936.389355480539
 30
0.0
  0
VERTEX
  5
2DB
330
253
100
AcDbEntity
  8
Make2D$可见线$普通线
100
AcDbVertex
100
AcDb2dVertex
 10
307.655675279531
 20
935.8666776295552
 30
0.0
  0
VERTEX
  5
2DC
330
253
100
AcDbEntity
  8
Make2D$可见线$普通线
100
AcDbVertex
100
AcDb2dVertex
 10
307.4288388721214
 20
935.335037960474
 30
0.0
  0
VERTEX
  5
2DD
330
253
100
AcDbEntity
  8
Make2D$可见线$普通线
100
AcDbVertex
100
AcDb2dVertex
 10
307.2205963833915
 20
934.7976913822347
 30
0.0
  0
VERTEX
  5
2DE
330
253
100
AcDbEntity
  8
Make2D$可见线$普通线
100
AcDbVertex
100
AcDb2dVertex
 10
307.0320049017365
 20
934.2578928037759
 30
0.0
  0
VERTEX
  5
2DF
330
253
100
AcDbEntity
  8
Make2D$可见线$普通线
100
AcDbVertex
100
AcDb2dVertex
 10
306.9017768163167
 20
933.8463861224375
 30
0.0
  0
VERTEX
  5
2E0
330
253
100
AcDbEntity
  8
Make2D$可见线$普通线
100
AcDbVertex
100
AcDb2dVertex
 10
306.7882439044771
 20
933.4538484419535
 30
0.0
  0
VERTEX
  5
2E1
330
253
100
AcDbEntity
  8
Make2D$可见线$普通线
100
AcDbVertex
100
AcDb2dVertex
 10
306.645742398955
 20
932.9012820908773
 30
0.0
  0
VERTEX
  5
2E2
330
253
100
AcDbEntity
  8
Make2D$可见线$普通线
100
AcDbVertex
100
AcDb2dVertex
 10
306.5809668145838
 20
932.6201764902161
 30
0.0
  0
VERTEX
  5
2E3
330
253
100
AcDbEntity
  8
Make2D$可见线$普通线
100
AcDbVertex
100
AcDb2dVertex
 10
306.5207048989402
 20
932.3358308186375
 30
0.0
  0
VERTEX
  5
2E4
330
253
100
AcDbEntity
  8
Make2D$可见线$普通线
100
AcDbVertex
100
AcDb2dVertex
 10
306.4381166188941
 20
931.8975755921997
 30
0.0
  0
VERTEX
  5
2E5
330
253
100
AcDbEntity
  8
Make2D$可见线$普通线
100
AcDbVertex
100
AcDb2dVertex
 10
306.3669543353423
 20
931.4515765084544
 30
0.0
  0
VERTEX
  5
2E6
330
253
100
AcDbEntity
  8
Make2D$可见线$普通线
100
AcDbVertex
100
AcDb2dVertex
 10
306.3079438574889
 20
930.9974480371582
 30
0.0
  0
VERTEX
  5
2E7
330
253
100
AcDbEntity
  8
Make2D$可见线$普通线
100
AcDbVertex
100
AcDb2dVertex
 10
306.2618109945385
 20
930.5348046480677
 30
0.0
  0
VERTEX
  5
2E8
330
253
100
AcDbEntity
  8
Make2D$可见线$普通线
100
AcDbVertex
100
AcDb2dVertex
 10
306.2325998425537
 20
930.1217169458993
 30
0.0
  0
VERTEX
  5
2E9
330
253
100
AcDbEntity
  8
Make2D$可见线$普通线
100
AcDbVertex
100
AcDb2dVertex
 10
306.2183490607331
 20
929.810551710867
 30
0.0
  0
VERTEX
  5
2EA
330
253
100
AcDbEntity
  8
Make2D$可见线$普通线
100
AcDbVertex
100
AcDb2dVertex
 10
306.2104580848163
 20
929.4908338017576
 30
0.0
  0
VERTEX
  5
2EB
330
253
100
AcDbEntity
  8
Make2D$可见线$普通线
100
AcDbVertex
100
AcDb2dVertex
 10
306.2091911476327
 20
929.1690472603108
 30
0.0
  0
VERTEX
  5
2EC
330
253
100
AcDbEntity
  8
Make2D$可见线$普通线
100
AcDbVertex
100
AcDb2dVertex
 10
306.214812482012
 20
928.8516761282661
 30
0.0
  0
VERTEX
  5
2ED
330
253
100
AcDbEntity
  8
Make2D$可见线$普通线
100
AcDbVertex
100
AcDb2dVertex
 10
306.2313506464505
 20
928.4634757364804
 30
0.0
  0
VERTEX
  5
2EE
330
253
100
AcDbEntity
  8
Make2D$可见线$普通线
100
AcDbVertex
100
AcDb2dVertex
 10
306.258213361408
 20
928.076297842247
 30
0.0
  0
VERTEX
  5
2EF
330
253
100
AcDbEntity
  8
Make2D$可见线$普通线
100
AcDbVertex
100
AcDb2dVertex
 10
306.2953805145972
 20
927.6899825045373
 30
0.0
  0
VERTEX
  5
2F0
330
253
100
AcDbEntity
  8
Make2D$可见线$普通线
100
AcDbVertex
100
AcDb2dVertex
 10
306.3428319937308
 20
927.3043697823233
 30
0.0
  0
VERTEX
  5
2F1
330
253
100
AcDbEntity
  8
Make2D$可见线$普通线
100
AcDbVertex
100
AcDb2dVertex
 10
306.394555010728
 20
926.9562780457923
 30
0.0
  0
VERTEX
  5
2F2
330
253
100
AcDbEntity
  8
Make2D$可见线$普通线
100
AcDbVertex
100
AcDb2dVertex
 10
306.4535994638092
 20
926.6139804619588
 30
0.0
  0
VERTEX
  5
2F3
330
253
100
AcDbEntity
  8
Make2D$可见线$普通线
100
AcDbVertex
100
AcDb2dVertex
 10
306.5194976030951
 20
926.277385311945
 30
0.0
  0
VERTEX
  5
2F4
330
253
100
AcDbEntity
  8
Make2D$可见线$普通线
100
AcDbVertex
100
AcDb2dVertex
 10
306.5917816787065
 20
925.946400876873
 30
0.0
  0
VERTEX
  5
2F5
330
253
100
AcDbEntity
  8
Make2D$可见线$普通线
100
AcDbVertex
100
AcDb2dVertex
 10
306.663589355281
 20
925.6463305985051
 30
0.0
  0
VERTEX
  5
2F6
330
253
100
AcDbEntity
  8
Make2D$可见线$普通线
100
AcDbVertex
100
AcDb2dVertex
 10
306.7388948538449
 20
925.3549693253221
 30
0.0
  0
VERTEX
  5
2F7
330
253
100
AcDbEntity
  8
Make2D$可见线$普通线
100
AcDbVertex
100
AcDb2dVertex
 10
306.8984914159715
 20
924.7946930691621
 30
0.0
  0
VERTEX
  5
2F8
330
253
100
AcDbEntity
  8
Make2D$可见线$普通线
100
AcDbVertex
100
AcDb2dVertex
 10
307.0915156173312
 20
924.1876620407926
 30
0.0
  0
VERTEX
  5
2F9
330
253
100
AcDbEntity
  8
Make2D$可见线$普通线
100
AcDbVertex
100
AcDb2dVertex
 10
307.2368830446383
 20
923.7635981378871
 30
0.0
  0
VERTEX
  5
2FA
330
253
100
AcDbEntity
  8
Make2D$可见线$普通线
100
AcDbVertex
100
AcDb2dVertex
 10
307.5241059272468
 20
922.9744860255615
 30
0.0
  0
VERTEX
  5
2FB
330
253
100
AcDbEntity
  8
Make2D$可见线$普通线
100
AcDbVertex
100
AcDb2dVertex
 10
308.3883744698005
 20
920.684351718273
 30
0.0
  0
VERTEX
  5
2FC
330
253
100
AcDbEntity
  8
Make2D$可见线$普通线
100
AcDbVertex
100
AcDb2dVertex
 10
308.6738393862094
 20
919.8766100875296
 30
0.0
  0
VERTEX
  5
2FD
330
253
100
AcDbEntity
  8
Make2D$可见线$普通线
100
AcDbVertex
100
AcDb2dVertex
 10
308.8821627493068
 20
919.2521470718413
 30
0.0
  0
VERTEX
  5
2FE
330
253
100
AcDbEntity
  8
Make2D$可见线$普通线
100
AcDbVertex
100
AcDb2dVertex
 10
309.2265415326202
 20
918.1290481993798
 30
0.0
  0
VERTEX
  5
2FF
330
253
100
AcDbEntity
  8
Make2D$可见线$普通线
100
AcDbVertex
100
AcDb2dVertex
 10
309.4868862544682
 20
917.1747123133844
 30
0.0
  0
VERTEX
  5
300
330
253
100
AcDbEntity
  8
Make2D$可见线$普通线
100
AcDbVertex
100
AcDb2dVertex
 10
309.7279867005737
 20
916.1691295267127
 30
0.0
  0
VERTEX
  5
301
330
253
100
AcDbEntity
  8
Make2D$可见线$普通线
100
AcDbVertex
100
AcDb2dVertex
 10
309.8392510141882
 20
915.6475302676001
 30
0.0
  0
VERTEX
  5
302
330
253
100
AcDbEntity
  8
Make2D$可见线$普通线
100
AcDbVertex
100
AcDb2dVertex
 10
309.9431519164769
 20
915.1137729681383
 30
0.0
  0
VERTEX
  5
303
330
253
100
AcDbEntity
  8
Make2D$可见线$普通线
100
AcDbVertex
100
AcDb2dVertex
 10
310.0382745645639
 20
914.5711380961952
 30
0.0
  0
VERTEX
  5
304
330
253
100
AcDbEntity
  8
Make2D$可见线$普通线
100
AcDbVertex
100
AcDb2dVertex
 10
310.1238471958075
 20
914.0193113194422
 30
0.0
  0
VERTEX
  5
305
330
253
100
AcDbEntity
  8
Make2D$可见线$普通线
100
AcDbVertex
100
AcDb2dVertex
 10
310.1988880599541
 20
913.4589478843353
 30
0.0
  0
VERTEX
  5
306
330
253
100
AcDbEntity
  8
Make2D$可见线$普通线
100
AcDbVertex
100
AcDb2dVertex
 10
310.2624154067499
 20
912.8907030373307
 30
0.0
  0
VERTEX
  5
307
330
253
100
AcDbEntity
  8
Make2D$可见线$普通线
100
AcDbVertex
100
AcDb2dVertex
 10
310.3131465467085
 20
912.3186368291588
 30
0.0
  0
VERTEX
  5
308
330
253
100
AcDbEntity
  8
Make2D$可见线$普通线
100
AcDbVertex
100
AcDb2dVertex
 10
310.3502280035354
 20
911.7422861467668
 30
0.0
  0
VERTEX
  5
309
330
253
100
AcDbEntity
  8
Make2D$可见线$普通线
100
AcDbVertex
100
AcDb2dVertex
 10
310.3726342927696
 20
911.1623675118071
 30
0.0
  0
VERTEX
  5
30A
330
253
100
AcDbEntity
  8
Make2D$可见线$普通线
100
AcDbVertex
100
AcDb2dVertex
 10
310.3793399299499
 20
910.5795974459321
 30
0.0
  0
VERTEX
  5
30B
330
253
100
AcDbEntity
  8
Make2D$可见线$普通线
100
AcDbVertex
100
AcDb2dVertex
 10
310.3703918727013
 20
910.0295158736196
 30
0.0
  0
VERTEX
  5
30C
330
253
100
AcDbEntity
  8
Make2D$可见线$普通线
100
AcDbVertex
100
AcDb2dVertex
 10
310.3457558103461
 20
909.4792527142246
 30
0.0
  0
VERTEX
  5
30D
330
253
100
AcDbEntity
  8
Make2D$可见线$普通线
100
AcDbVertex
100
AcDb2dVertex
 10
310.2989390507277
 20
908.8685225001109
 30
0.0
  0
VERTEX
  5
30E
330
253
100
AcDbEntity
  8
Make2D$可见线$普通线
100
AcDbVertex
100
AcDb2dVertex
 10
310.2674941522588
 20
908.5634991643012
 30
0.0
  0
VERTEX
  5
30F
330
253
100
AcDbEntity
  8
Make2D$可见线$普通线
100
AcDbVertex
100
AcDb2dVertex
 10
310.2304927014658
 20
908.25879428028
 30
0.0
  0
VERTEX
  5
310
330
253
100
AcDbEntity
  8
Make2D$可见线$普通线
100
AcDbVertex
100
AcDb2dVertex
 10
310.1906269581229
 20
907.9735658960485
 30
0.0
  0
VERTEX
  5
311
330
253
100
AcDbEntity
  8
Make2D$可见线$普通线
100
AcDbVertex
100
AcDb2dVertex
 10
310.1454335169253
 20
907.6875541909023
 30
0.0
  0
VERTEX
  5
312
330
253
100
AcDbEntity
  8
Make2D$可见线$普通线
100
AcDbVertex
100
AcDb2dVertex
 10
310.0947703446906
 20
907.4008825774151
 30
0.0
  0
VERTEX
  5
313
330
253
100
AcDbEntity
  8
Make2D$可见线$普通线
100
AcDbVertex
100
AcDb2dVertex
 10
310.038495408236
 20
907.1136744681603
 30
0.0
  0
VERTEX
  5
314
330
253
100
AcDbEntity
  8
Make2D$可见线$普通线
100
AcDbVertex
100
AcDb2dVertex
 10
309.9764666743792
 20
906.8260532757117
 30
0.0
  0
VERTEX
  5
315
330
253
100
AcDbEntity
  8
Make2D$可见线$普通线
100
AcDbVertex
100
AcDb2dVertex
 10
309.9085421099376
 20
906.5381424126431
 30
0.0
  0
VERTEX
  5
316
330
253
100
AcDbEntity
  8
Make2D$可见线$普通线
100
AcDbVertex
100
AcDb2dVertex
 10
309.8345796817288
 20
906.2500652915278
 30
0.0
  0
VERTEX
  5
317
330
253
100
AcDbEntity
  8
Make2D$可见线$普通线
100
AcDbVertex
100
AcDb2dVertex
 10
309.7013205225591
 20
905.7824404600552
 30
0.0
  0
VERTEX
  5
318
330
253
100
AcDbEntity
  8
Make2D$可见线$普通线
100
AcDbVertex
100
AcDb2dVertex
 10
309.5454953934867
 20
905.2979322702515
 30
0.0
  0
VERTEX
  5
319
330
253
100
AcDbEntity
  8
Make2D$可见线$普通线
100
AcDbVertex
100
AcDb2dVertex
 10
309.460046909018
 20
905.05408141695
 30
0.0
  0
VERTEX
  5
31A
330
253
100
AcDbEntity
  8
Make2D$可见线$普通线
100
AcDbVertex
100
AcDb2dVertex
 10
309.3694049517441
 20
904.8092156602032
 30
0.0
  0
VERTEX
  5
31B
330
253
100
AcDbEntity
  8
Make2D$可见线$普通线
100
AcDbVertex
100
AcDb2dVertex
 10
309.2570361442914
 20
904.5224964897748
 30
0.0
  0
VERTEX
  5
31C
330
253
100
AcDbEntity
  8
Make2D$可见线$普通线
100
AcDbVertex
100
AcDb2dVertex
 10
309.1367556004615
 20
904.2332007904856
 30
0.0
  0
VERTEX
  5
31D
330
253
100
AcDbEntity
  8
Make2D$可见线$普通线
100
AcDbVertex
100
AcDb2dVertex
 10
309.0082382681894
 20
903.9412780836976
 30
0.0
  0
VERTEX
  5
31E
330
253
100
AcDbEntity
  8
Make2D$可见线$普通线
100
AcDbVertex
100
AcDb2dVertex
 10
308.8711590954098
 20
903.6466778907721
 30
0.0
  0
VERTEX
  5
31F
330
253
100
AcDbEntity
  8
Make2D$可见线$普通线
100
AcDbVertex
100
AcDb2dVertex
 10
308.7251930300577
 20
903.3493497330708
 30
0.0
  0
VERTEX
  5
320
330
253
100
AcDbEntity
  8
Make2D$可见线$普通线
100
AcDbVertex
100
AcDb2dVertex
 10
308.5700150200677
 20
903.0492431319553
 30
0.0
  0
VERTEX
  5
321
330
253
100
AcDbEntity
  8
Make2D$可见线$普通线
100
AcDbVertex
100
AcDb2dVertex
 10
308.405300013375
 20
902.7463076087872
 30
0.0
  0
VERTEX
  5
322
330
253
100
AcDbEntity
  8
Make2D$可见线$普通线
100
AcDbVertex
100
AcDb2dVertex
 10
308.1539929922197
 20
902.3105390996608
 30
0.0
  0
VERTEX
  5
323
330
253
100
AcDbEntity
  8
Make2D$可见线$普通线
100
AcDbVertex
100
AcDb2dVertex
 10
307.9790517966921
 20
902.023418217719
 30
0.0
  0
VERTEX
  5
324
330
253
100
AcDbEntity
  8
Make2D$可见线$普通线
100
AcDbVertex
100
AcDb2dVertex
 10
307.7950186481233
 20
901.7337975711268
 30
0.0
  0
VERTEX
  5
325
330
253
100
AcDbEntity
  8
Make2D$可见线$普通线
100
AcDbVertex
100
AcDb2dVertex
 10
307.6016652876818
 20
901.4416886220026
 30
0.0
  0
VERTEX
  5
326
330
253
100
AcDbEntity
  8
Make2D$可见线$普通线
100
AcDbVertex
100
AcDb2dVertex
 10
307.3987634565357
 20
901.1471028324654
 30
0.0
  0
VERTEX
  5
327
330
253
100
AcDbEntity
  8
Make2D$可见线$普通线
100
AcDbVertex
100
AcDb2dVertex
 10
307.1860848958537
 20
900.8500516646338
 30
0.0
  0
VERTEX
  5
328
330
253
100
AcDbEntity
  8
Make2D$可见线$普通线
100
AcDbVertex
100
AcDb2dVertex
 10
306.9634013468039
 20
900.5505465806266
 30
0.0
  0
VERTEX
  5
329
330
253
100
AcDbEntity
  8
Make2D$可见线$普通线
100
AcDbVertex
100
AcDb2dVertex
 10
306.4871062482749
 20
899.9442205125605
 30
0.0
 42
0.0191662482681603
  0
VERTEX
  5
32A
330
253
100
AcDbEntity
  8
Make2D$可见线$普通线
100
AcDbVertex
100
AcDb2dVertex
 10
299.6436564764591
 20
897.0699172261349
 30
0.0
  0
VERTEX
  5
32B
330
253
100
AcDbEntity
  8
Make2D$可见线$普通线
100
AcDbVertex
100
AcDb2dVertex
 10
297.806176465957
 20
896.1857209552314
 30
0.0
  0
VERTEX
  5
32C
330
253
100
AcDbEntity
  8
Make2D$可见线$普通线
100
AcDbVertex
100
AcDb2dVertex
 10
296.4081215204136
 20
895.4754607137216
 30
0.0
  0
VERTEX
  5
32D
330
253
100
AcDbEntity
  8
Make2D$可见线$普通线
100
AcDbVertex
100
AcDb2dVertex
 10
295.0118527753392
 20
894.7325848502356
 30
0.0
  0
VERTEX
  5
32E
330
253
100
AcDbEntity
  8
Make2D$可见线$普通线
100
AcDbVertex
100
AcDb2dVertex
 10
293.6198680167275
 20
893.9587336833217
 30
0.0
  0
VERTEX
  5
32F
330
253
100
AcDbEntity
  8
Make2D$可见线$普通线
100
AcDbVertex
100
AcDb2dVertex
 10
292.2346650305727
 20
893.1555475315283
 30
0.0
  0
VERTEX
  5
330
330
253
100
AcDbEntity
  8
Make2D$可见线$普通线
100
AcDbVertex
100
AcDb2dVertex
 10
290.8587416028686
 20
892.3246667134035
 30
0.0
  0
VERTEX
  5
331
330
253
100
AcDbEntity
  8
Make2D$可见线$普通线
100
AcDbVertex
100
AcDb2dVertex
 10
289.4945955196091
 20
891.4677315474961
 30
0.0
  0
VERTEX
  5
332
330
253
100
AcDbEntity
  8
Make2D$可见线$普通线
100
AcDbVertex
100
AcDb2dVertex
 10
288.144724566788
 20
890.5863823523541
 30
0.0
  0
VERTEX
  5
333
330
253
100
AcDbEntity
  8
Make2D$可见线$普通线
100
AcDbVertex
100
AcDb2dVertex
 10
286.8116265303995
 20
889.6822594465261
 30
0.0
  0
VERTEX
  5
334
330
253
100
AcDbEntity
  8
Make2D$可见线$普通线
100
AcDbVertex
100
AcDb2dVertex
 10
285.4977991964371
 20
888.7570031485606
 30
0.0
  0
VERTEX
  5
335
330
253
100
AcDbEntity
  8
Make2D$可见线$普通线
100
AcDbVertex
100
AcDb2dVertex
 10
284.205740350895
 20
887.8122537770055
 30
0.0
  0
VERTEX
  5
336
330
253
100
AcDbEntity
  8
Make2D$可见线$普通线
100
AcDbVertex
100
AcDb2dVertex
 10
282.9379477797669
 20
886.8496516504094
 30
0.0
  0
VERTEX
  5
337
330
253
100
AcDbEntity
  8
Make2D$可见线$普通线
100
AcDbVertex
100
AcDb2dVertex
 10
281.6969192690469
 20
885.8708370873208
 30
0.0
  0
VERTEX
  5
338
330
253
100
AcDbEntity
  8
Make2D$可见线$普通线
100
AcDbVertex
100
AcDb2dVertex
 10
280.4851526047287
 20
884.8774504062878
 30
0.0
  0
VERTEX
  5
339
330
253
100
AcDbEntity
  8
Make2D$可见线$普通线
100
AcDbVertex
100
AcDb2dVertex
 10
279.3051455728064
 20
883.8711319258591
 30
0.0
  0
VERTEX
  5
33A
330
253
100
AcDbEntity
  8
Make2D$可见线$普通线
100
AcDbVertex
100
AcDb2dVertex
 10
278.1593959592738
 20
882.8535219645829
 30
0.0
  0
VERTEX
  5
33B
330
253
100
AcDbEntity
  8
Make2D$可见线$普通线
100
AcDbVertex
100
AcDb2dVertex
 10
277.0504015501247
 20
881.8262608410076
 30
0.0
 42
0.017688974491684
  0
VERTEX
  5
33C
330
253
100
AcDbEntity
  8
Make2D$可见线$普通线
100
AcDbVertex
100
AcDb2dVertex
 10
273.1400480210286
 20
877.6010388462514
 30
0.0
 42
-0.0026217708801572
  0
VERTEX
  5
33D
330
253
100
AcDbEntity
  8
Make2D$可见线$普通线
100
AcDbVertex
100
AcDb2dVertex
 10
272.2672764174071
 20
876.5950093459862
 30
0.0
 42
0.0340012680629598
  0
VERTEX
  5
33E
330
253
100
AcDbEntity
  8
Make2D$可见线$普通线
100
AcDbVertex
100
AcDb2dVertex
 10
266.8343977570195
 20
869.4547329959286
 30
0.0
 42
0.0523521702145581
  0
VERTEX
  5
33F
330
253
100
AcDbEntity
  8
Make2D$可见线$普通线
100
AcDbVertex
100
AcDb2dVertex
 10
260.9358892690599
 20
857.9613124004424
 30
0.0
 42
0.040984175381354
  0
VERTEX
  5
340
330
253
100
AcDbEntity
  8
Make2D$可见线$普通线
100
AcDbVertex
100
AcDb2dVertex
 10
258.4951609878941
 20
849.2870447043769
 30
0.0
 42
0.0456709211775197
  0
VERTEX
  5
341
330
253
100
AcDbEntity
  8
Make2D$可见线$普通线
100
AcDbVertex
100
AcDb2dVertex
 10
257.6967168950039
 20
840.5246839089117
 30
0.0
 42
0.0132681737552223
  0
VERTEX
  5
342
330
253
100
AcDbEntity
  8
Make2D$可见线$普通线
100
AcDbVertex
100
AcDb2dVertex
 10
257.7884637505182
 20
837.830627330261
 30
0.0
  0
VERTEX
  5
343
330
253
100
AcDbEntity
  8
Make2D$可见线$普通线
100
AcDbVertex
100
AcDb2dVertex
 10
257.8633706024308
 20
836.7904908022568
 30
0.0
 42
0.3623639153996328
  0
VERTEX
  5
344
330
253
100
AcDbEntity
  8
Make2D$可见线$普通线
100
AcDbVertex
100
AcDb2dVertex
 10
326.1066585207019
 20
792.4598452282521
 30
0.0
 42
0.3623639153996361
  0
VERTEX
  5
345
330
253
100
AcDbEntity
  8
Make2D$可见线$普通线
100
AcDbVertex
100
AcDb2dVertex
 10
394.3499464389723
 20
836.7904908022568
 30
0.0
  0
VERTEX
  5
346
330
253
100
AcDbEntity
  8
Make2D$可见线$普通线
100
AcDbVertex
100
AcDb2dVertex
 10
394.4248532908856
 20
837.830627330261
 30
0.0
 42
0.0132681737552699
  0
VERTEX
  5
347
330
253
100
AcDbEntity
  8
Make2D$可见线$普通线
100
AcDbVertex
100
AcDb2dVertex
 10
394.5166001463994
 20
840.5246839089118
 30
0.0
 42
0.0456709211776234
  0
VERTEX
  5
348
330
253
100
AcDbEntity
  8
Make2D$可见线$普通线
100
AcDbVertex
100
AcDb2dVertex
 10
393.7181560535097
 20
849.2870447043769
 30
0.0
 42
0.0409841753813526
  0
VERTEX
  5
349
330
253
100
AcDbEntity
  8
Make2D$可见线$普通线
100
AcDbVertex
100
AcDb2dVertex
 10
391.2774277723439
 20
857.9613124004424
 30
0.0
 42
0.0523521702145486
  0
VERTEX
  5
34A
330
253
100
AcDbEntity
  8
Make2D$可见线$普通线
100
AcDbVertex
100
AcDb2dVertex
 10
385.3789192843839
 20
869.4547329959286
 30
0.0
 42
0.0340012680629744
  0
VERTEX
  5
34B
330
253
100
AcDbEntity
  8
Make2D$可见线$普通线
100
AcDbVertex
100
AcDb2dVertex
 10
379.9460406239968
 20
876.5950093459865
 30
0.0
 42
-0.0026217708802865
  0
VERTEX
  5
34C
330
253
100
AcDbEntity
  8
Make2D$可见线$普通线
100
AcDbVertex
100
AcDb2dVertex
 10
379.0732690203747
 20
877.6010388462514
 30
0.0
 42
0.0176889744917242
  0
VERTEX
  5
34D
330
253
100
AcDbEntity
  8
Make2D$可见线$普通线
100
AcDbVertex
100
AcDb2dVertex
 10
375.162915491279
 20
881.8262608410076
 30
0.0
  0
VERTEX
  5
34E
330
253
100
AcDbEntity
  8
Make2D$可见线$普通线
100
AcDbVertex
100
AcDb2dVertex
 10
374.0539210821299
 20
882.8535219645829
 30
0.0
  0
VERTEX
  5
34F
330
253
100
AcDbEntity
  8
Make2D$可见线$普通线
100
AcDbVertex
100
AcDb2dVertex
 10
372.9081714685973
 20
883.8711319258591
 30
0.0
  0
VERTEX
  5
350
330
253
100
AcDbEntity
  8
Make2D$可见线$普通线
100
AcDbVertex
100
AcDb2dVertex
 10
371.7281644366749
 20
884.8774504062878
 30
0.0
  0
VERTEX
  5
351
330
253
100
AcDbEntity
  8
Make2D$可见线$普通线
100
AcDbVertex
100
AcDb2dVertex
 10
370.5163977723567
 20
885.8708370873208
 30
0.0
  0
VERTEX
  5
352
330
253
100
AcDbEntity
  8
Make2D$可见线$普通线
100
AcDbVertex
100
AcDb2dVertex
 10
369.2753692616367
 20
886.8496516504094
 30
0.0
  0
VERTEX
  5
353
330
253
100
AcDbEntity
  8
Make2D$可见线$普通线
100
AcDbVertex
100
AcDb2dVertex
 10
368.0075766905086
 20
887.8122537770055
 30
0.0
  0
VERTEX
  5
354
330
253
100
AcDbEntity
  8
Make2D$可见线$普通线
100
AcDbVertex
100
AcDb2dVertex
 10
366.7155178449664
 20
888.7570031485606
 30
0.0
  0
VERTEX
  5
355
330
253
100
AcDbEntity
  8
Make2D$可见线$普通线
100
AcDbVertex
100
AcDb2dVertex
 10
365.4016905110041
 20
889.6822594465261
 30
0.0
  0
VERTEX
  5
356
330
253
100
AcDbEntity
  8
Make2D$可见线$普通线
100
AcDbVertex
100
AcDb2dVertex
 10
364.0685924746156
 20
890.5863823523541
 30
0.0
  0
VERTEX
  5
357
330
253
100
AcDbEntity
  8
Make2D$可见线$普通线
100
AcDbVertex
100
AcDb2dVertex
 10
362.7187215217945
 20
891.4677315474961
 30
0.0
  0
VERTEX
  5
358
330
253
100
AcDbEntity
  8
Make2D$可见线$普通线
100
AcDbVertex
100
AcDb2dVertex
 10
361.354575438535
 20
892.3246667134035
 30
0.0
  0
VERTEX
  5
359
330
253
100
AcDbEntity
  8
Make2D$可见线$普通线
100
AcDbVertex
100
AcDb2dVertex
 10
359.9786520108308
 20
893.1555475315283
 30
0.0
  0
VERTEX
  5
35A
330
253
100
AcDbEntity
  8
Make2D$可见线$普通线
100
AcDbVertex
100
AcDb2dVertex
 10
358.593449024676
 20
893.9587336833217
 30
0.0
  0
VERTEX
  5
35B
330
253
100
AcDbEntity
  8
Make2D$可见线$普通线
100
AcDbVertex
100
AcDb2dVertex
 10
357.2014642660644
 20
894.7325848502356
 30
0.0
  0
VERTEX
  5
35C
330
253
100
AcDbEntity
  8
Make2D$可见线$普通线
100
AcDbVertex
100
AcDb2dVertex
 10
355.8051955209899
 20
895.4754607137216
 30
0.0
  0
VERTEX
  5
35D
330
253
100
AcDbEntity
  8
Make2D$可见线$普通线
100
AcDbVertex
100
AcDb2dVertex
 10
354.4071405754463
 20
896.1857209552314
 30
0.0
  0
VERTEX
  5
35E
330
253
100
AcDbEntity
  8
Make2D$可见线$普通线
100
AcDbVertex
100
AcDb2dVertex
 10
352.5696605649447
 20
897.0699172261349
 30
0.0
 42
0.0191662482681616
  0
VERTEX
  5
35F
330
253
100
AcDbEntity
  8
Make2D$可见线$普通线
100
AcDbVertex
100
AcDb2dVertex
 10
345.7262107931289
 20
899.9442205125606
 30
0.0
  0
VERTEX
  5
360
330
253
100
AcDbEntity
  8
Make2D$可见线$普通线
100
AcDbVertex
100
AcDb2dVertex
 10
345.2499155688911
 20
900.550546764925
 30
0.0
  0
VERTEX
  5
361
330
253
100
AcDbEntity
  8
Make2D$可见线$普通线
100
AcDbVertex
100
AcDb2dVertex
 10
345.0272320019025
 20
900.85005187791
 30
0.0
  0
VERTEX
  5
362
330
253
100
AcDbEntity
  8
Make2D$可见线$普通线
100
AcDbVertex
100
AcDb2dVertex
 10
344.8145534460313
 20
901.1471030417234
 30
0.0
  0
VERTEX
  5
363
330
253
100
AcDbEntity
  8
Make2D$可见线$普通线
100
AcDbVertex
100
AcDb2dVertex
 10
344.6116516370507
 20
901.4416888010853
 30
0.0
  0
VERTEX
  5
364
330
253
100
AcDbEntity
  8
Make2D$可见线$普通线
100
AcDbVertex
100
AcDb2dVertex
 10
344.4182983107339
 20
901.7337977007156
 30
0.0
  0
VERTEX
  5
365
330
253
100
AcDbEntity
  8
Make2D$可见线$普通线
100
AcDbVertex
100
AcDb2dVertex
 10
344.2342652028539
 20
902.0234182853341
 30
0.0
  0
VERTEX
  5
366
330
253
100
AcDbEntity
  8
Make2D$可见线$普通线
100
AcDbVertex
100
AcDb2dVertex
 10
343.9825940834895
 20
902.4404926849278
 30
0.0
  0
VERTEX
  5
367
330
253
100
AcDbEntity
  8
Make2D$可见线$普通线
100
AcDbVertex
100
AcDb2dVertex
 10
343.8080170280288
 20
902.7463076087872
 30
0.0
  0
VERTEX
  5
368
330
253
100
AcDbEntity
  8
Make2D$可见线$普通线
100
AcDbVertex
100
AcDb2dVertex
 10
343.643302021336
 20
903.0492431319553
 30
0.0
  0
VERTEX
  5
369
330
253
100
AcDbEntity
  8
Make2D$可见线$普通线
100
AcDbVertex
100
AcDb2dVertex
 10
343.4881240113461
 20
903.3493497330708
 30
0.0
  0
VERTEX
  5
36A
330
253
100
AcDbEntity
  8
Make2D$可见线$普通线
100
AcDbVertex
100
AcDb2dVertex
 10
343.3421579459938
 20
903.6466778907721
 30
0.0
  0
VERTEX
  5
36B
330
253
100
AcDbEntity
  8
Make2D$可见线$普通线
100
AcDbVertex
100
AcDb2dVertex
 10
343.2050787732142
 20
903.9412780836976
 30
0.0
  0
VERTEX
  5
36C
330
253
100
AcDbEntity
  8
Make2D$可见线$普通线
100
AcDbVertex
100
AcDb2dVertex
 10
343.0765614409421
 20
904.2332007904856
 30
0.0
  0
VERTEX
  5
36D
330
253
100
AcDbEntity
  8
Make2D$可见线$普通线
100
AcDbVertex
100
AcDb2dVertex
 10
342.9562808971123
 20
904.5224964897748
 30
0.0
  0
VERTEX
  5
36E
330
253
100
AcDbEntity
  8
Make2D$可见线$普通线
100
AcDbVertex
100
AcDb2dVertex
 10
342.8439120896597
 20
904.8092156602032
 30
0.0
  0
VERTEX
  5
36F
330
253
100
AcDbEntity
  8
Make2D$可见线$普通线
100
AcDbVertex
100
AcDb2dVertex
 10
342.7532701323858
 20
905.05408141695
 30
0.0
  0
VERTEX
  5
370
330
253
100
AcDbEntity
  8
Make2D$可见线$普通线
100
AcDbVertex
100
AcDb2dVertex
 10
342.6678216479171
 20
905.2979322702515
 30
0.0
  0
VERTEX
  5
371
330
253
100
AcDbEntity
  8
Make2D$可见线$普通线
100
AcDbVertex
100
AcDb2dVertex
 10
342.5119965188447
 20
905.7824404600552
 30
0.0
  0
VERTEX
  5
372
330
253
100
AcDbEntity
  8
Make2D$可见线$普通线
100
AcDbVertex
100
AcDb2dVertex
 10
342.378737359675
 20
906.2500652915278
 30
0.0
  0
VERTEX
  5
373
330
253
100
AcDbEntity
  8
Make2D$可见线$普通线
100
AcDbVertex
100
AcDb2dVertex
 10
342.3047749314662
 20
906.5381424126431
 30
0.0
  0
VERTEX
  5
374
330
253
100
AcDbEntity
  8
Make2D$可见线$普通线
100
AcDbVertex
100
AcDb2dVertex
 10
342.2368503670246
 20
906.8260532757117
 30
0.0
  0
VERTEX
  5
375
330
253
100
AcDbEntity
  8
Make2D$可见线$普通线
100
AcDbVertex
100
AcDb2dVertex
 10
342.1748216331678
 20
907.1136744681603
 30
0.0
  0
VERTEX
  5
376
330
253
100
AcDbEntity
  8
Make2D$可见线$普通线
100
AcDbVertex
100
AcDb2dVertex
 10
342.1185466967132
 20
907.4008825774151
 30
0.0
  0
VERTEX
  5
377
330
253
100
AcDbEntity
  8
Make2D$可见线$普通线
100
AcDbVertex
100
AcDb2dVertex
 10
342.0678835244785
 20
907.6875541909023
 30
0.0
  0
VERTEX
  5
378
330
253
100
AcDbEntity
  8
Make2D$可见线$普通线
100
AcDbVertex
100
AcDb2dVertex
 10
342.0226900832808
 20
907.9735658960485
 30
0.0
  0
VERTEX
  5
379
330
253
100
AcDbEntity
  8
Make2D$可见线$普通线
100
AcDbVertex
100
AcDb2dVertex
 10
341.982824339938
 20
908.25879428028
 30
0.0
  0
VERTEX
  5
37A
330
253
100
AcDbEntity
  8
Make2D$可见线$普通线
100
AcDbVertex
100
AcDb2dVertex
 10
341.9458228891449
 20
908.5634991643012
 30
0.0
  0
VERTEX
  5
37B
330
253
100
AcDbEntity
  8
Make2D$可见线$普通线
100
AcDbVertex
100
AcDb2dVertex
 10
341.914377990676
 20
908.8685225001109
 30
0.0
  0
VERTEX
  5
37C
330
253
100
AcDbEntity
  8
Make2D$可见线$普通线
100
AcDbVertex
100
AcDb2dVertex
 10
341.8675612310577
 20
909.4792527142246
 30
0.0
  0
VERTEX
  5
37D
330
253
100
AcDbEntity
  8
Make2D$可见线$普通线
100
AcDbVertex
100
AcDb2dVertex
 10
341.8429251687027
 20
910.0295158736196
 30
0.0
  0
VERTEX
  5
37E
330
253
100
AcDbEntity
  8
Make2D$可见线$普通线
100
AcDbVertex
100
AcDb2dVertex
 10
341.8339771114539
 20
910.5795974459321
 30
0.0
  0
VERTEX
  5
37F
330
253
100
AcDbEntity
  8
Make2D$可见线$普通线
100
AcDbVertex
100
AcDb2dVertex
 10
341.8406827486342
 20
911.1623675118071
 30
0.0
  0
VERTEX
  5
380
330
253
100
AcDbEntity
  8
Make2D$可见线$普通线
100
AcDbVertex
100
AcDb2dVertex
 10
341.8630890378684
 20
911.7422861467668
 30
0.0
  0
VERTEX
  5
381
330
253
100
AcDbEntity
  8
Make2D$可见线$普通线
100
AcDbVertex
100
AcDb2dVertex
 10
341.9001704946953
 20
912.3186368291588
 30
0.0
  0
VERTEX
  5
382
330
253
100
AcDbEntity
  8
Make2D$可见线$普通线
100
AcDbVertex
100
AcDb2dVertex
 10
341.9509016346539
 20
912.8907030373307
 30
0.0
  0
VERTEX
  5
383
330
253
100
AcDbEntity
  8
Make2D$可见线$普通线
100
AcDbVertex
100
AcDb2dVertex
 10
342.0144289814497
 20
913.4589478843353
 30
0.0
  0
VERTEX
  5
384
330
253
100
AcDbEntity
  8
Make2D$可见线$普通线
100
AcDbVertex
100
AcDb2dVertex
 10
342.0894698455961
 20
914.0193113194422
 30
0.0
  0
VERTEX
  5
385
330
253
100
AcDbEntity
  8
Make2D$可见线$普通线
100
AcDbVertex
100
AcDb2dVertex
 10
342.1750424768395
 20
914.5711380961952
 30
0.0
  0
VERTEX
  5
386
330
253
100
AcDbEntity
  8
Make2D$可见线$普通线
100
AcDbVertex
100
AcDb2dVertex
 10
342.2701651249264
 20
915.1137729681383
 30
0.0
  0
VERTEX
  5
387
330
253
100
AcDbEntity
  8
Make2D$可见线$普通线
100
AcDbVertex
100
AcDb2dVertex
 10
342.3740660272154
 20
915.6475302676001
 30
0.0
  0
VERTEX
  5
388
330
253
100
AcDbEntity
  8
Make2D$可见线$普通线
100
AcDbVertex
100
AcDb2dVertex
 10
342.48533034083
 20
916.1691295267127
 30
0.0
  0
VERTEX
  5
389
330
253
100
AcDbEntity
  8
Make2D$可见线$普通线
100
AcDbVertex
100
AcDb2dVertex
 10
342.7264307869356
 20
917.1747123133844
 30
0.0
  0
VERTEX
  5
38A
330
253
100
AcDbEntity
  8
Make2D$可见线$普通线
100
AcDbVertex
100
AcDb2dVertex
 10
342.986775508784
 20
918.1290481993798
 30
0.0
  0
VERTEX
  5
38B
330
253
100
AcDbEntity
  8
Make2D$可见线$普通线
100
AcDbVertex
100
AcDb2dVertex
 10
343.331154292097
 20
919.2521470718413
 30
0.0
  0
VERTEX
  5
38C
330
253
100
AcDbEntity
  8
Make2D$可见线$普通线
100
AcDbVertex
100
AcDb2dVertex
 10
343.5394776551944
 20
919.8766100875296
 30
0.0
  0
VERTEX
  5
38D
330
253
100
AcDbEntity
  8
Make2D$可见线$普通线
100
AcDbVertex
100
AcDb2dVertex
 10
343.8249425716032
 20
920.684351718273
 30
0.0
  0
VERTEX
  5
38E
330
253
100
AcDbEntity
  8
Make2D$可见线$普通线
100
AcDbVertex
100
AcDb2dVertex
 10
344.6892111141566
 20
922.9744860255615
 30
0.0
  0
VERTEX
  5
38F
330
253
100
AcDbEntity
  8
Make2D$可见线$普通线
100
AcDbVertex
100
AcDb2dVertex
 10
344.9764339967654
 20
923.7635981378871
 30
0.0
  0
VERTEX
  5
390
330
253
100
AcDbEntity
  8
Make2D$可见线$普通线
100
AcDbVertex
100
AcDb2dVertex
 10
345.1218014240726
 20
924.1876620407926
 30
0.0
  0
VERTEX
  5
391
330
253
100
AcDbEntity
  8
Make2D$可见线$普通线
100
AcDbVertex
100
AcDb2dVertex
 10
345.3148256254323
 20
924.7946930691621
 30
0.0
  0
VERTEX
  5
392
330
253
100
AcDbEntity
  8
Make2D$可见线$普通线
100
AcDbVertex
100
AcDb2dVertex
 10
345.4744221875589
 20
925.3549693253221
 30
0.0
  0
VERTEX
  5
393
330
253
100
AcDbEntity
  8
Make2D$可见线$普通线
100
AcDbVertex
100
AcDb2dVertex
 10
345.5497276861228
 20
925.6463305985051
 30
0.0
  0
VERTEX
  5
394
330
253
100
AcDbEntity
  8
Make2D$可见线$普通线
100
AcDbVertex
100
AcDb2dVertex
 10
345.6215353626973
 20
925.946400876873
 30
0.0
  0
VERTEX
  5
395
330
253
100
AcDbEntity
  8
Make2D$可见线$普通线
100
AcDbVertex
100
AcDb2dVertex
 10
345.6938194383087
 20
926.277385311945
 30
0.0
  0
VERTEX
  5
396
330
253
100
AcDbEntity
  8
Make2D$可见线$普通线
100
AcDbVertex
100
AcDb2dVertex
 10
345.7597175775946
 20
926.6139804619588
 30
0.0
  0
VERTEX
  5
397
330
253
100
AcDbEntity
  8
Make2D$可见线$普通线
100
AcDbVertex
100
AcDb2dVertex
 10
345.8187620306758
 20
926.9562780457923
 30
0.0
  0
VERTEX
  5
398
330
253
100
AcDbEntity
  8
Make2D$可见线$普通线
100
AcDbVertex
100
AcDb2dVertex
 10
345.870485047673
 20
927.3043697823233
 30
0.0
  0
VERTEX
  5
399
330
253
100
AcDbEntity
  8
Make2D$可见线$普通线
100
AcDbVertex
100
AcDb2dVertex
 10
345.9179365268064
 20
927.6899825045373
 30
0.0
  0
VERTEX
  5
39A
330
253
100
AcDbEntity
  8
Make2D$可见线$普通线
100
AcDbVertex
100
AcDb2dVertex
 10
345.9551036799955
 20
928.076297842247
 30
0.0
  0
VERTEX
  5
39B
330
253
100
AcDbEntity
  8
Make2D$可见线$普通线
100
AcDbVertex
100
AcDb2dVertex
 10
345.9819663949531
 20
928.4634757364804
 30
0.0
  0
VERTEX
  5
39C
330
253
100
AcDbEntity
  8
Make2D$可见线$普通线
100
AcDbVertex
100
AcDb2dVertex
 10
345.9985045593918
 20
928.8516761282661
 30
0.0
  0
VERTEX
  5
39D
330
253
100
AcDbEntity
  8
Make2D$可见线$普通线
100
AcDbVertex
100
AcDb2dVertex
 10
346.004125893771
 20
929.1690472603108
 30
0.0
  0
VERTEX
  5
39E
330
253
100
AcDbEntity
  8
Make2D$可见线$普通线
100
AcDbVertex
100
AcDb2dVertex
 10
346.0028589565873
 20
929.4908338017576
 30
0.0
  0
VERTEX
  5
39F
330
253
100
AcDbEntity
  8
Make2D$可见线$普通线
100
AcDbVertex
100
AcDb2dVertex
 10
345.9949679806704
 20
929.810551710867
 30
0.0
  0
VERTEX
  5
3A0
330
253
100
AcDbEntity
  8
Make2D$可见线$普通线
100
AcDbVertex
100
AcDb2dVertex
 10
345.9807171988497
 20
930.1217169458993
 30
0.0
  0
VERTEX
  5
3A1
330
253
100
AcDbEntity
  8
Make2D$可见线$普通线
100
AcDbVertex
100
AcDb2dVertex
 10
345.9515060468653
 20
930.5348046480677
 30
0.0
  0
VERTEX
  5
3A2
330
253
100
AcDbEntity
  8
Make2D$可见线$普通线
100
AcDbVertex
100
AcDb2dVertex
 10
345.9053731839149
 20
930.9974480371582
 30
0.0
  0
VERTEX
  5
3A3
330
253
100
AcDbEntity
  8
Make2D$可见线$普通线
100
AcDbVertex
100
AcDb2dVertex
 10
345.8463627060615
 20
931.4515765084544
 30
0.0
  0
VERTEX
  5
3A4
330
253
100
AcDbEntity
  8
Make2D$可见线$普通线
100
AcDbVertex
100
AcDb2dVertex
 10
345.7752004225095
 20
931.8975755921997
 30
0.0
  0
VERTEX
  5
3A5
330
253
100
AcDbEntity
  8
Make2D$可见线$普通线
100
AcDbVertex
100
AcDb2dVertex
 10
345.6926121424632
 20
932.3358308186375
 30
0.0
  0
VERTEX
  5
3A6
330
253
100
AcDbEntity
  8
Make2D$可见线$普通线
100
AcDbVertex
100
AcDb2dVertex
 10
345.6323502268195
 20
932.6201764902161
 30
0.0
  0
VERTEX
  5
3A7
330
253
100
AcDbEntity
  8
Make2D$可见线$普通线
100
AcDbVertex
100
AcDb2dVertex
 10
345.5675746424484
 20
932.9012820908773
 30
0.0
  0
VERTEX
  5
3A8
330
253
100
AcDbEntity
  8
Make2D$可见线$普通线
100
AcDbVertex
100
AcDb2dVertex
 10
345.4250731369262
 20
933.4538484419535
 30
0.0
  0
VERTEX
  5
3A9
330
253
100
AcDbEntity
  8
Make2D$可见线$普通线
100
AcDbVertex
100
AcDb2dVertex
 10
345.3115402250867
 20
933.8463861224375
 30
0.0
  0
VERTEX
  5
3AA
330
253
100
AcDbEntity
  8
Make2D$可见线$普通线
100
AcDbVertex
100
AcDb2dVertex
 10
345.1813121396673
 20
934.2578928037759
 30
0.0
  0
VERTEX
  5
3AB
330
253
100
AcDbEntity
  8
Make2D$可见线$普通线
100
AcDbVertex
100
AcDb2dVertex
 10
344.9927206580126
 20
934.7976913822347
 30
0.0
  0
VERTEX
  5
3AC
330
253
100
AcDbEntity
  8
Make2D$可见线$普通线
100
AcDbVertex
100
AcDb2dVertex
 10
344.7844781692826
 20
935.335037960474
 30
0.0
  0
VERTEX
  5
3AD
330
253
100
AcDbEntity
  8
Make2D$可见线$普通线
100
AcDbVertex
100
AcDb2dVertex
 10
344.5576417618729
 20
935.8666776295552
 30
0.0
  0
VERTEX
  5
3AE
330
253
100
AcDbEntity
  8
Make2D$可见线$普通线
100
AcDbVertex
100
AcDb2dVertex
 10
344.3132685241791
 20
936.389355480539
 30
0.0
  0
VERTEX
  5
3AF
330
253
100
AcDbEntity
  8
Make2D$可见线$普通线
100
AcDbVertex
100
AcDb2dVertex
 10
344.1050117215703
 20
936.8019457880184
 30
0.0
  0
VERTEX
  5
3B0
330
253
100
AcDbEntity
  8
Make2D$可见线$普通线
100
AcDbVertex
100
AcDb2dVertex
 10
343.9423233528778
 20
937.1069692556337
 30
0.0
  0
VERTEX
  5
3B1
330
253
100
AcDbEntity
  8
Make2D$可见线$普通线
100
AcDbVertex
100
AcDb2dVertex
 10
343.7712072540652
 20
937.4118959592811
 30
0.0
  0
VERTEX
  5
3B2
330
253
100
AcDbEntity
  8
Make2D$可见线$普通线
100
AcDbVertex
100
AcDb2dVertex
 10
343.5898454481646
 20
937.7184031309392
 30
0.0
  0
VERTEX
  5
3B3
330
253
100
AcDbEntity
  8
Make2D$可见线$普通线
100
AcDbVertex
100
AcDb2dVertex
 10
343.3964199582078
 20
938.0281680025862
 30
0.0
  0
VERTEX
  5
3B4
330
253
100
AcDbEntity
  8
Make2D$可见线$普通线
100
AcDbVertex
100
AcDb2dVertex
 10
343.1891128072269
 20
938.3428678062005
 30
0.0
  0
VERTEX
  5
3B5
330
253
100
AcDbEntity
  8
Make2D$可见线$普通线
100
AcDbVertex
100
AcDb2dVertex
 10
342.9661060182535
 20
938.6641797737605
 30
0.0
  0
VERTEX
  5
3B6
330
253
100
AcDbEntity
  8
Make2D$可见线$普通线
100
AcDbVertex
100
AcDb2dVertex
 10
342.7255816143198
 20
938.9937811372446
 30
0.0
  0
VERTEX
  5
3B7
330
253
100
AcDbEntity
  8
Make2D$可见线$普通线
100
AcDbVertex
100
AcDb2dVertex
 10
342.5199254715715
 20
939.2651049463092
 30
0.0
  0
VERTEX
  5
3B8
330
253
100
AcDbEntity
  8
Make2D$可见线$普通线
100
AcDbVertex
100
AcDb2dVertex
 10
342.325221532876
 20
939.5110388089155
 30
0.0
  0
VERTEX
  5
3B9
330
253
100
AcDbEntity
  8
Make2D$可见线$普通线
100
AcDbVertex
100
AcDb2dVertex
 10
342.1140977108188
 20
939.7635117978984
 30
0.0
  0
VERTEX
  5
3BA
330
253
100
AcDbEntity
  8
Make2D$可见线$普通线
100
AcDbVertex
100
AcDb2dVertex
 10
341.8591819179852
 20
940.0544529860928
 30
0.0
  0
VERTEX
  5
3BB
330
253
100
AcDbEntity
  8
Make2D$可见线$普通线
100
AcDbVertex
100
AcDb2dVertex
 10
341.6494388603122
 20
940.2852395548134
 30
0.0
  0
VERTEX
  5
3BC
330
253
100
AcDbEntity
  8
Make2D$可见线$普通线
100
AcDbVertex
100
AcDb2dVertex
 10
341.4261754291191
 20
940.5212795402072
 30
0.0
  0
VERTEX
  5
3BD
330
253
100
AcDbEntity
  8
Make2D$可见线$普通线
100
AcDbVertex
100
AcDb2dVertex
 10
341.1884863123233
 20
940.7623459162039
 30
0.0
  0
VERTEX
  5
3BE
330
253
100
AcDbEntity
  8
Make2D$可见线$普通线
100
AcDbVertex
100
AcDb2dVertex
 10
340.9354661978424
 20
941.0082116567338
 30
0.0
  0
VERTEX
  5
3BF
330
253
100
AcDbEntity
  8
Make2D$可见线$普通线
100
AcDbVertex
100
AcDb2dVertex
 10
340.7023880895525
 20
941.2264901258982
 30
0.0
  0
VERTEX
  5
3C0
330
253
100
AcDbEntity
  8
Make2D$可见线$普通线
100
AcDbVertex
100
AcDb2dVertex
 10
340.4724584861904
 20
941.4335417742202
 30
0.0
  0
VERTEX
  5
3C1
330
253
100
AcDbEntity
  8
Make2D$可见线$普通线
100
AcDbVertex
100
AcDb2dVertex
 10
340.2279940798391
 20
941.6439453842239
 30
0.0
  0
VERTEX
  5
3C2
330
253
100
AcDbEntity
  8
Make2D$可见线$普通线
100
AcDbVertex
100
AcDb2dVertex
 10
339.6992910650034
 20
942.0735597154529
 30
0.0
  0
VERTEX
  5
3C3
330
253
100
AcDbEntity
  8
Make2D$可见线$普通线
100
AcDbVertex
100
AcDb2dVertex
 10
339.4539759793344
 20
942.262018800676
 30
0.0
  0
VERTEX
  5
3C4
330
253
100
AcDbEntity
  8
Make2D$可见线$普通线
100
AcDbVertex
100
AcDb2dVertex
 10
339.195361133713
 20
942.4519354424615
 30
0.0
  0
VERTEX
  5
3C5
330
253
100
AcDbEntity
  8
Make2D$可见线$普通线
100
AcDbVertex
100
AcDb2dVertex
 10
338.9034413562778
 20
942.6575880891686
 30
0.0
  0
VERTEX
  5
3C6
330
253
100
AcDbEntity
  8
Make2D$可见线$普通线
100
AcDbVertex
100
AcDb2dVertex
 10
338.4178320713585
 20
942.9836529456044
 30
0.0
  0
VERTEX
  5
3C7
330
253
100
AcDbEntity
  8
Make2D$可见线$普通线
100
AcDbVertex
100
AcDb2dVertex
 10
337.8881674535165
 20
943.3114124511806
 30
0.0
  0
VERTEX
  5
3C8
330
253
100
AcDbEntity
  8
Make2D$可见线$普通线
100
AcDbVertex
100
AcDb2dVertex
 10
337.7928031168127
 20
943.3680874236205
 30
0.0
  0
VERTEX
  5
3C9
330
253
100
AcDbEntity
  8
Make2D$可见线$普通线
100
AcDbVertex
100
AcDb2dVertex
 10
337.2235159415587
 20
943.6909633679489
 30
0.0
  0
VERTEX
  5
3CA
330
253
100
AcDbEntity
  8
Make2D$可见线$普通线
100
AcDbVertex
100
AcDb2dVertex
 10
336.9259587506783
 20
943.8496735648048
 30
0.0
  0
VERTEX
  5
3CB
330
253
100
AcDbEntity
  8
Make2D$可见线$普通线
100
AcDbVertex
100
AcDb2dVertex
 10
336.619576012583
 20
944.0062708829827
 30
0.0
  0
VERTEX
  5
3CC
330
253
100
AcDbEntity
  8
Make2D$可见线$普通线
100
AcDbVertex
100
AcDb2dVertex
 10
336.0099720163281
 20
944.2983336710314
 30
0.0
  0
VERTEX
  5
3CD
330
253
100
AcDbEntity
  8
Make2D$可见线$普通线
100
AcDbVertex
100
AcDb2dVertex
 10
335.3853910102886
 20
944.5722477452217
 30
0.0
  0
VERTEX
  5
3CE
330
253
100
AcDbEntity
  8
Make2D$可见线$普通线
100
AcDbVertex
100
AcDb2dVertex
 10
334.7461660623427
 20
944.8278243486337
 30
0.0
  0
VERTEX
  5
3CF
330
253
100
AcDbEntity
  8
Make2D$可见线$普通线
100
AcDbVertex
100
AcDb2dVertex
 10
334.0926784189284
 20
945.0648212140728
 30
0.0
  0
VERTEX
  5
3D0
330
253
100
AcDbEntity
  8
Make2D$可见线$普通线
100
AcDbVertex
100
AcDb2dVertex
 10
333.4253552168444
 20
945.2829536013348
 30
0.0
  0
VERTEX
  5
3D1
330
253
100
AcDbEntity
  8
Make2D$可见线$普通线
100
AcDbVertex
100
AcDb2dVertex
 10
332.7446678908196
 20
945.4819047004288
 30
0.0
  0
VERTEX
  5
3D2
330
253
100
AcDbEntity
  8
Make2D$可见线$普通线
100
AcDbVertex
100
AcDb2dVertex
 10
332.4088888397293
 20
945.5762849067418
 30
0.0
  0
VERTEX
  5
3D3
330
253
100
AcDbEntity
  8
Make2D$可见线$普通线
100
AcDbVertex
100
AcDb2dVertex
 10
332.3879102220542
 20
945.582793977554
 30
0.0
  0
VERTEX
  5
3D4
330
253
100
AcDbEntity
  8
Make2D$可见线$普通线
100
AcDbVertex
100
AcDb2dVertex
 10
332.3842174045163
 20
945.5840736056093
 30
0.0
  0
VERTEX
  5
3D5
330
253
100
AcDbEntity
  8
Make2D$可见线$普通线
100
AcDbVertex
100
AcDb2dVertex
 10
332.3834139732169
 20
945.58437970815
 30
0.0
  0
VERTEX
  5
3D6
330
253
100
AcDbEntity
  8
Make2D$可见线$普通线
100
AcDbVertex
100
AcDb2dVertex
 10
332.3830868991804
 20
945.5845116056629
 30
0.0
  0
VERTEX
  5
3D7
330
253
100
AcDbEntity
  8
Make2D$可见线$普通线
100
AcDbVertex
100
AcDb2dVertex
 10
332.3828079518151
 20
945.5846298240099
 30
0.0
  0
VERTEX
  5
3D8
330
253
100
AcDbEntity
  8
Make2D$可见线$普通线
100
AcDbVertex
100
AcDb2dVertex
 10
332.3825759053177
 20
945.5847346806956
 30
0.0
  0
VERTEX
  5
3D9
330
253
100
AcDbEntity
  8
Make2D$可见线$普通线
100
AcDbVertex
100
AcDb2dVertex
 10
332.3823895338852
 20
945.5848264932242
 30
0.0
  0
VERTEX
  5
3DA
330
253
100
AcDbEntity
  8
Make2D$可见线$普通线
100
AcDbVertex
100
AcDb2dVertex
 10
332.3822476117143
 20
945.5849055791001
 30
0.0
  0
VERTEX
  5
3DB
330
253
100
AcDbEntity
  8
Make2D$可见线$普通线
100
AcDbVertex
100
AcDb2dVertex
 10
332.382148913002
 20
945.5849722558278
 30
0.0
  0
VERTEX
  5
3DC
330
253
100
AcDbEntity
  8
Make2D$可见线$普通线
100
AcDbVertex
100
AcDb2dVertex
 10
332.3820922119448
 20
945.5850268409115
 30
0.0
  0
VERTEX
  5
3DD
330
253
100
AcDbEntity
  8
Make2D$可见线$普通线
100
AcDbVertex
100
AcDb2dVertex
 10
332.3820762827398
 20
945.5850696518555
 30
0.0
  0
VERTEX
  5
3DE
330
253
100
AcDbEntity
  8
Make2D$可见线$普通线
100
AcDbVertex
100
AcDb2dVertex
 10
332.3820998995837
 20
945.5851010061645
 30
0.0
  0
VERTEX
  5
3DF
330
253
100
AcDbEntity
  8
Make2D$可见线$普通线
100
AcDbVertex
100
AcDb2dVertex
 10
332.3821618366733
 20
945.5851212213424
 30
0.0
  0
VERTEX
  5
3E0
330
253
100
AcDbEntity
  8
Make2D$可见线$普通线
100
AcDbVertex
100
AcDb2dVertex
 10
332.3822608682055
 20
945.585130614894
 30
0.0
  0
VERTEX
  5
3E1
330
253
100
AcDbEntity
  8
Make2D$可见线$普通线
100
AcDbVertex
100
AcDb2dVertex
 10
332.382395768377
 20
945.5851295043235
 30
0.0
  0
VERTEX
  5
3E2
330
253
100
AcDbEntity
  8
Make2D$可见线$普通线
100
AcDbVertex
100
AcDb2dVertex
 10
332.3825653113847
 20
945.5851182071352
 30
0.0
  0
VERTEX
  5
3E3
330
253
100
AcDbEntity
  8
Make2D$可见线$普通线
100
AcDbVertex
100
AcDb2dVertex
 10
332.3827682714254
 20
945.5850970408336
 30
0.0
  0
VERTEX
  5
3E4
330
253
100
AcDbEntity
  8
Make2D$可见线$普通线
100
AcDbVertex
100
AcDb2dVertex
 10
332.3830034226959
 20
945.585066322923
 30
0.0
  0
VERTEX
  5
3E5
330
253
100
AcDbEntity
  8
Make2D$可见线$普通线
100
AcDbVertex
100
AcDb2dVertex
 10
332.383269539393
 20
945.5850263709078
 30
0.0
  0
VERTEX
  5
3E6
330
253
100
AcDbEntity
  8
Make2D$可见线$普通线
100
AcDbVertex
100
AcDb2dVertex
 10
332.3838897658545
 20
945.584920034581
 30
0.0
  0
VERTEX
  5
3E7
330
253
100
AcDbEntity
  8
Make2D$可见线$普通线
100
AcDbVertex
100
AcDb2dVertex
 10
332.3846191443842
 20
945.5847805718881
 30
0.0
  0
VERTEX
  5
3E8
330
253
100
AcDbEntity
  8
Make2D$可见线$普通线
100
AcDbVertex
100
AcDb2dVertex
 10
332.3863661319467
 20
945.5844124275441
 30
0.0
  0
VERTEX
  5
3E9
330
253
100
AcDbEntity
  8
Make2D$可见线$普通线
100
AcDbVertex
100
AcDb2dVertex
 10
332.3907384491708
 20
945.5833903840015
 30
0.0
  0
VERTEX
  5
3EA
330
253
100
AcDbEntity
  8
Make2D$可见线$普通线
100
AcDbVertex
100
AcDb2dVertex
 10
332.4007998127113
 20
945.5807722453291
 30
0.0
  0
VERTEX
  5
3EB
330
253
100
AcDbEntity
  8
Make2D$可见线$普通线
100
AcDbVertex
100
AcDb2dVertex
 10
332.4052336365677
 20
945.5795012746735
 30
0.0
  0
VERTEX
  5
3EC
330
253
100
AcDbEntity
  8
Make2D$可见线$普通线
100
AcDbVertex
100
AcDb2dVertex
 10
332.4070267541043
 20
945.5789464349948
 30
0.0
  0
VERTEX
  5
3ED
330
253
100
AcDbEntity
  8
Make2D$可见线$普通线
100
AcDbVertex
100
AcDb2dVertex
 10
332.408432740175
 20
945.5784724527882
 30
0.0
  0
VERTEX
  5
3EE
330
253
100
AcDbEntity
  8
Make2D$可见线$普通线
100
AcDbVertex
100
AcDb2dVertex
 10
332.4089660428469
 20
945.5782721333244
 30
0.0
  0
VERTEX
  5
3EF
330
253
100
AcDbEntity
  8
Make2D$可见线$普通线
100
AcDbVertex
100
AcDb2dVertex
 10
332.4091859812809
 20
945.5781822527676
 30
0.0
  0
VERTEX
  5
3F0
330
253
100
AcDbEntity
  8
Make2D$可见线$普通线
100
AcDbVertex
100
AcDb2dVertex
 10
332.4093731433759
 20
945.5780996483334
 30
0.0
  0
VERTEX
  5
3F1
330
253
100
AcDbEntity
  8
Make2D$可见线$普通线
100
AcDbVertex
100
AcDb2dVertex
 10
332.4095263033288
 20
945.5780246375261
 30
0.0
  0
VERTEX
  5
3F2
330
253
100
AcDbEntity
  8
Make2D$可见线$普通线
100
AcDbVertex
100
AcDb2dVertex
 10
332.4096442353365
 20
945.5779575378504
 30
0.0
  0
VERTEX
  5
3F3
330
253
100
AcDbEntity
  8
Make2D$可见线$普通线
100
AcDbVertex
100
AcDb2dVertex
 10
332.4097257135958
 20
945.5778986668103
 30
0.0
  0
VERTEX
  5
3F4
330
253
100
AcDbEntity
  8
Make2D$可见线$普通线
100
AcDbVertex
100
AcDb2dVertex
 10
332.4097695123033
 20
945.5778483419101
 30
0.0
  0
VERTEX
  5
3F5
330
253
100
AcDbEntity
  8
Make2D$可见线$普通线
100
AcDbVertex
100
AcDb2dVertex
 10
332.409774405656
 20
945.5778068806544
 30
0.0
  0
VERTEX
  5
3F6
330
253
100
AcDbEntity
  8
Make2D$可见线$普通线
100
AcDbVertex
100
AcDb2dVertex
 10
332.4097391678508
 20
945.5777746005476
 30
0.0
  0
VERTEX
  5
3F7
330
253
100
AcDbEntity
  8
Make2D$可见线$普通线
100
AcDbVertex
100
AcDb2dVertex
 10
332.4096625730843
 20
945.577751819094
 30
0.0
  0
VERTEX
  5
3F8
330
253
100
AcDbEntity
  8
Make2D$可见线$普通线
100
AcDbVertex
100
AcDb2dVertex
 10
332.4095433955534
 20
945.577738853798
 30
0.0
  0
VERTEX
  5
3F9
330
253
100
AcDbEntity
  8
Make2D$可见线$普通线
100
AcDbVertex
100
AcDb2dVertex
 10
332.4093804094551
 20
945.5777360221639
 30
0.0
  0
VERTEX
  5
3FA
330
253
100
AcDbEntity
  8
Make2D$可见线$普通线
100
AcDbVertex
100
AcDb2dVertex
 10
332.4091723889859
 20
945.5777436416961
 30
0.0
  0
VERTEX
  5
3FB
330
253
100
AcDbEntity
  8
Make2D$可见线$普通线
100
AcDbVertex
100
AcDb2dVertex
 10
332.4089181083428
 20
945.5777620298988
 30
0.0
  0
VERTEX
  5
3FC
330
253
100
AcDbEntity
  8
Make2D$可见线$普通线
100
AcDbVertex
100
AcDb2dVertex
 10
332.4086163417227
 20
945.5777915042768
 30
0.0
  0
VERTEX
  5
3FD
330
253
100
AcDbEntity
  8
Make2D$可见线$普通线
100
AcDbVertex
100
AcDb2dVertex
 10
332.4078654473384
 20
945.577884981575
 30
0.0
  0
VERTEX
  5
3FE
330
253
100
AcDbEntity
  8
Make2D$可见线$普通线
100
AcDbVertex
100
AcDb2dVertex
 10
332.4069098994073
 20
945.578026613626
 30
0.0
  0
VERTEX
  5
3FF
330
253
100
AcDbEntity
  8
Make2D$可见线$普通线
100
AcDbVertex
100
AcDb2dVertex
 10
332.4043456172034
 20
945.5784645021251
 30
0.0
  0
VERTEX
  5
400
330
253
100
AcDbEntity
  8
Make2D$可见线$普通线
100
AcDbVertex
100
AcDb2dVertex
 10
332.3839410614287
 20
945.5826502532163
 30
0.0
  0
VERTEX
  5
401
330
253
100
AcDbEntity
  8
Make2D$可见线$普通线
100
AcDbVertex
100
AcDb2dVertex
 10
332.0520984347978
 20
945.6610991242987
 30
0.0
  0
VERTEX
  5
402
330
253
100
AcDbEntity
  8
Make2D$可见线$普通线
100
AcDbVertex
100
AcDb2dVertex
 10
331.7181617321774
 20
945.7437956216504
 30
0.0
  0
VERTEX
  5
403
330
253
100
AcDbEntity
  8
Make2D$可见线$普通线
100
AcDbVertex
100
AcDb2dVertex
 10
331.6955809292791
 20
945.749939639725
 30
0.0
  0
VERTEX
  5
404
330
253
100
AcDbEntity
  8
Make2D$可见线$普通线
100
AcDbVertex
100
AcDb2dVertex
 10
331.6900867017099
 20
945.7515879167106
 30
0.0
  0
VERTEX
  5
405
330
253
100
AcDbEntity
  8
Make2D$可见线$普通线
100
AcDbVertex
100
AcDb2dVertex
 10
331.6892141399271
 20
945.7518749409294
 30
0.0
  0
VERTEX
  5
406
330
253
100
AcDbEntity
  8
Make2D$可见线$普通线
100
AcDbVertex
100
AcDb2dVertex
 10
331.6885230027108
 20
945.7521162413636
 30
0.0
  0
VERTEX
  5
407
330
253
100
AcDbEntity
  8
Make2D$可见线$普通线
100
AcDbVertex
100
AcDb2dVertex
 10
331.6882425037091
 20
945.7522204161344
 30
0.0
  0
VERTEX
  5
408
330
253
100
AcDbEntity
  8
Make2D$可见线$普通线
100
AcDbVertex
100
AcDb2dVertex
 10
331.6880038033221
 20
945.7523139651267
 30
0.0
  0
VERTEX
  5
409
330
253
100
AcDbEntity
  8
Make2D$可见线$普通线
100
AcDbVertex
100
AcDb2dVertex
 10
331.6878057157072
 20
945.7523971567296
 30
0.0
  0
VERTEX
  5
40A
330
253
100
AcDbEntity
  8
Make2D$可见线$普通线
100
AcDbVertex
100
AcDb2dVertex
 10
331.6876470550222
 20
945.752470259332
 30
0.0
  0
VERTEX
  5
40B
330
253
100
AcDbEntity
  8
Make2D$可见线$普通线
100
AcDbVertex
100
AcDb2dVertex
 10
331.6875266354248
 20
945.7525335413233
 30
0.0
  0
VERTEX
  5
40C
330
253
100
AcDbEntity
  8
Make2D$可见线$普通线
100
AcDbVertex
100
AcDb2dVertex
 10
331.6874432710727
 20
945.7525872710927
 30
0.0
  0
VERTEX
  5
40D
330
253
100
AcDbEntity
  8
Make2D$可见线$普通线
100
AcDbVertex
100
AcDb2dVertex
 10
331.6873957761233
 20
945.7526317170293
 30
0.0
  0
VERTEX
  5
40E
330
253
100
AcDbEntity
  8
Make2D$可见线$普通线
100
AcDbVertex
100
AcDb2dVertex
 10
331.6873829647344
 20
945.7526671475223
 30
0.0
  0
VERTEX
  5
40F
330
253
100
AcDbEntity
  8
Make2D$可见线$普通线
100
AcDbVertex
100
AcDb2dVertex
 10
331.6874036510637
 20
945.7526938309608
 30
0.0
  0
VERTEX
  5
410
330
253
100
AcDbEntity
  8
Make2D$可见线$普通线
100
AcDbVertex
100
AcDb2dVertex
 10
331.6874566492689
 20
945.752712035734
 30
0.0
  0
VERTEX
  5
411
330
253
100
AcDbEntity
  8
Make2D$可见线$普通线
100
AcDbVertex
100
AcDb2dVertex
 10
331.6875407735075
 20
945.752722030231
 30
0.0
  0
VERTEX
  5
412
330
253
100
AcDbEntity
  8
Make2D$可见线$普通线
100
AcDbVertex
100
AcDb2dVertex
 10
331.6876548379373
 20
945.752724082841
 30
0.0
  0
VERTEX
  5
413
330
253
100
AcDbEntity
  8
Make2D$可见线$普通线
100
AcDbVertex
100
AcDb2dVertex
 10
331.6877976567159
 20
945.7527184619532
 30
0.0
  0
VERTEX
  5
414
330
253
100
AcDbEntity
  8
Make2D$可见线$普通线
100
AcDbVertex
100
AcDb2dVertex
 10
331.687968044001
 20
945.7527054359568
 30
0.0
  0
VERTEX
  5
415
330
253
100
AcDbEntity
  8
Make2D$可见线$普通线
100
AcDbVertex
100
AcDb2dVertex
 10
331.6881648139502
 20
945.7526852732411
 30
0.0
  0
VERTEX
  5
416
330
253
100
AcDbEntity
  8
Make2D$可见线$普通线
100
AcDbVertex
100
AcDb2dVertex
 10
331.6883867807212
 20
945.7526582421949
 30
0.0
  0
VERTEX
  5
417
330
253
100
AcDbEntity
  8
Make2D$可见线$普通线
100
AcDbVertex
100
AcDb2dVertex
 10
331.6889015613592
 20
945.7525846486682
 30
0.0
  0
VERTEX
  5
418
330
253
100
AcDbEntity
  8
Make2D$可见线$普通线
100
AcDbVertex
100
AcDb2dVertex
 10
331.6895028991761
 20
945.7524868024902
 30
0.0
  0
VERTEX
  5
419
330
253
100
AcDbEntity
  8
Make2D$可见线$普通线
100
AcDbVertex
100
AcDb2dVertex
 10
331.6909272993924
 20
945.7522269406338
 30
0.0
  0
VERTEX
  5
41A
330
253
100
AcDbEntity
  8
Make2D$可见线$普通线
100
AcDbVertex
100
AcDb2dVertex
 10
331.6962912515102
 20
945.7510885912186
 30
0.0
  0
VERTEX
  5
41B
330
253
100
AcDbEntity
  8
Make2D$可见线$普通线
100
AcDbVertex
100
AcDb2dVertex
 10
331.7000172400478
 20
945.7502024908025
 30
0.0
  0
VERTEX
  5
41C
330
253
100
AcDbEntity
  8
Make2D$可见线$普通线
100
AcDbVertex
100
AcDb2dVertex
 10
331.7031549017938
 20
945.7493749475359
 30
0.0
  0
VERTEX
  5
41D
330
253
100
AcDbEntity
  8
Make2D$可见线$普通线
100
AcDbVertex
100
AcDb2dVertex
 10
331.7037762406287
 20
945.7491933146239
 30
0.0
  0
VERTEX
  5
41E
330
253
100
AcDbEntity
  8
Make2D$可见线$普通线
100
AcDbVertex
100
AcDb2dVertex
 10
331.7043133753455
 20
945.7490260771001
 30
0.0
  0
VERTEX
  5
41F
330
253
100
AcDbEntity
  8
Make2D$可见线$普通线
100
AcDbVertex
100
AcDb2dVertex
 10
331.7047568192053
 20
945.7488753820783
 30
0.0
  0
VERTEX
  5
420
330
253
100
AcDbEntity
  8
Make2D$可见线$普通线
100
AcDbVertex
100
AcDb2dVertex
 10
331.7049404424581
 20
945.7488069089783
 30
0.0
  0
VERTEX
  5
421
330
253
100
AcDbEntity
  8
Make2D$可见线$普通线
100
AcDbVertex
100
AcDb2dVertex
 10
331.7050970854696
 20
945.7487433766714
 30
0.0
  0
VERTEX
  5
422
330
253
100
AcDbEntity
  8
Make2D$可见线$普通线
100
AcDbVertex
100
AcDb2dVertex
 10
331.7052255623975
 20
945.7486850535465
 30
0.0
  0
VERTEX
  5
423
330
253
100
AcDbEntity
  8
Make2D$可见线$普通线
100
AcDbVertex
100
AcDb2dVertex
 10
331.7053246873995
 20
945.7486322079931
 30
0.0
  0
VERTEX
  5
424
330
253
100
AcDbEntity
  8
Make2D$可见线$普通线
100
AcDbVertex
100
AcDb2dVertex
 10
331.7053932746334
 20
945.7485851083998
 30
0.0
  0
VERTEX
  5
425
330
253
100
AcDbEntity
  8
Make2D$可见线$普通线
100
AcDbVertex
100
AcDb2dVertex
 10
331.7054301382565
 20
945.7485440231562
 30
0.0
  0
VERTEX
  5
426
330
253
100
AcDbEntity
  8
Make2D$可见线$普通线
100
AcDbVertex
100
AcDb2dVertex
 10
331.7054340924267
 20
945.7485092206514
 30
0.0
  0
VERTEX
  5
427
330
253
100
AcDbEntity
  8
Make2D$可见线$普通线
100
AcDbVertex
100
AcDb2dVertex
 10
331.7054039513017
 20
945.7484809692745
 30
0.0
  0
VERTEX
  5
428
330
253
100
AcDbEntity
  8
Make2D$可见线$普通线
100
AcDbVertex
100
AcDb2dVertex
 10
331.705338529039
 20
945.7484595374146
 30
0.0
  0
VERTEX
  5
429
330
253
100
AcDbEntity
  8
Make2D$可见线$普通线
100
AcDbVertex
100
AcDb2dVertex
 10
331.7052366397963
 20
945.7484451934612
 30
0.0
  0
VERTEX
  5
42A
330
253
100
AcDbEntity
  8
Make2D$可见线$普通线
100
AcDbVertex
100
AcDb2dVertex
 10
331.7050970977314
 20
945.748438205803
 30
0.0
  0
VERTEX
  5
42B
330
253
100
AcDbEntity
  8
Make2D$可见线$普通线
100
AcDbVertex
100
AcDb2dVertex
 10
331.7049187170018
 20
945.7484388428295
 30
0.0
  0
VERTEX
  5
42C
330
253
100
AcDbEntity
  8
Make2D$可见线$普通线
100
AcDbVertex
100
AcDb2dVertex
 10
331.7047003117651
 20
945.7484473729297
 30
0.0
  0
VERTEX
  5
42D
330
253
100
AcDbEntity
  8
Make2D$可见线$普通线
100
AcDbVertex
100
AcDb2dVertex
 10
331.7044406961792
 20
945.7484640644929
 30
0.0
  0
VERTEX
  5
42E
330
253
100
AcDbEntity
  8
Make2D$可见线$普通线
100
AcDbVertex
100
AcDb2dVertex
 10
331.7037930905899
 20
945.7485230055645
 30
0.0
  0
VERTEX
  5
42F
330
253
100
AcDbEntity
  8
Make2D$可见线$普通线
100
AcDbVertex
100
AcDb2dVertex
 10
331.7029664134951
 20
945.7486178131576
 30
0.0
  0
VERTEX
  5
430
330
253
100
AcDbEntity
  8
Make2D$可见线$普通线
100
AcDbVertex
100
AcDb2dVertex
 10
331.7007378978344
 20
945.7489236163622
 30
0.0
  0
VERTEX
  5
431
330
253
100
AcDbEntity
  8
Make2D$可见线$普通线
100
AcDbVertex
100
AcDb2dVertex
 10
331.6976792552872
 20
945.749398651013
 30
0.0
  0
VERTEX
  5
432
330
253
100
AcDbEntity
  8
Make2D$可见线$普通线
100
AcDbVertex
100
AcDb2dVertex
 10
331.6756255380355
 20
945.7533346422106
 30
0.0
  0
VERTEX
  5
433
330
253
100
AcDbEntity
  8
Make2D$可见线$普通线
100
AcDbVertex
100
AcDb2dVertex
 10
331.3453031369928
 20
945.8208903838336
 30
0.0
 42
0.0518306958690445
  0
VERTEX
  5
434
330
253
100
AcDbEntity
  8
Make2D$可见线$普通线
100
AcDbVertex
100
AcDb2dVertex
 10
326.1066585207019
 20
946.3526773871124
 30
0.0
  0
SEQEND
  5
435
330
253
100
AcDbEntity
  8
Make2D$可见线$普通线
  0
POLYLINE
  5
436
330
1F
100
AcDbEntity
  8
Make2D$可见线$普通线
100
AcDb2dPolyline
 66
     1
 10
0.0
 20
0.0
 30
0.0
  0
VERTEX
  5
437
330
436
100
AcDbEntity
  8
Make2D$可见线$普通线
100
AcDbVertex
100
AcDb2dVertex
 10
316.9259960754526
 20
890.38339058439
 30
0.0
 42
0.0158798179962389
  0
VERTEX
  5
438
330
436
100
AcDbEntity
  8
Make2D$可见线$普通线
100
AcDbVertex
100
AcDb2dVertex
 10
311.6455899661647
 20
889.6492576211318
 30
0.0
 42
0.0289341356831635
  0
VERTEX
  5
439
330
436
100
AcDbEntity
  8
Make2D$可见线$普通线
100
AcDbVertex
100
AcDb2dVertex
 10
302.781487522792
 20
887.6015051121046
 30
0.0
  0
VERTEX
  5
43A
330
436
100
AcDbEntity
  8
Make2D$可见线$普通线
100
AcDbVertex
100
AcDb2dVertex
 10
301.0572764554178
 20
887.0716589429293
 30
0.0
  0
VERTEX
  5
43B
330
436
100
AcDbEntity
  8
Make2D$可见线$普通线
100
AcDbVertex
100
AcDb2dVertex
 10
299.8063142324631
 20
886.6579655371598
 30
0.0
  0
VERTEX
  5
43C
330
436
100
AcDbEntity
  8
Make2D$可见线$普通线
100
AcDbVertex
100
AcDb2dVertex
 10
298.5687645011225
 20
886.2237355946046
 30
0.0
  0
VERTEX
  5
43D
330
436
100
AcDbEntity
  8
Make2D$可见线$普通线
100
AcDbVertex
100
AcDb2dVertex
 10
297.3452156674732
 20
885.7692673081046
 30
0.0
  0
VERTEX
  5
43E
330
436
100
AcDbEntity
  8
Make2D$可见线$普通线
100
AcDbVertex
100
AcDb2dVertex
 10
296.1362561375927
 20
885.294858870501
 30
0.0
  0
VERTEX
  5
43F
330
436
100
AcDbEntity
  8
Make2D$可见线$普通线
100
AcDbVertex
100
AcDb2dVertex
 10
294.9424743175582
 20
884.8008084746348
 30
0.0
  0
VERTEX
  5
440
330
436
100
AcDbEntity
  8
Make2D$可见线$普通线
100
AcDbVertex
100
AcDb2dVertex
 10
293.7644586134471
 20
884.2874143133465
 30
0.0
  0
VERTEX
  5
441
330
436
100
AcDbEntity
  8
Make2D$可见线$普通线
100
AcDbVertex
100
AcDb2dVertex
 10
292.6027974313366
 20
883.7549745794777
 30
0.0
  0
VERTEX
  5
442
330
436
100
AcDbEntity
  8
Make2D$可见线$普通线
100
AcDbVertex
100
AcDb2dVertex
 10
291.4580791773043
 20
883.2037874658688
 30
0.0
  0
VERTEX
  5
443
330
436
100
AcDbEntity
  8
Make2D$可见线$普通线
100
AcDbVertex
100
AcDb2dVertex
 10
290.3308922574273
 20
882.6341511653613
 30
0.0
  0
VERTEX
  5
444
330
436
100
AcDbEntity
  8
Make2D$可见线$普通线
100
AcDbVertex
100
AcDb2dVertex
 10
289.2218250777831
 20
882.0463638707959
 30
0.0
  0
VERTEX
  5
445
330
436
100
AcDbEntity
  8
Make2D$可见线$普通线
100
AcDbVertex
100
AcDb2dVertex
 10
288.1314660444489
 20
881.4407237750136
 30
0.0
  0
VERTEX
  5
446
330
436
100
AcDbEntity
  8
Make2D$可见线$普通线
100
AcDbVertex
100
AcDb2dVertex
 10
287.0604035635022
 20
880.8175290708552
 30
0.0
  0
VERTEX
  5
447
330
436
100
AcDbEntity
  8
Make2D$可见线$普通线
100
AcDbVertex
100
AcDb2dVertex
 10
286.0092260410202
 20
880.1770779511621
 30
0.0
  0
VERTEX
  5
448
330
436
100
AcDbEntity
  8
Make2D$可见线$普通线
100
AcDbVertex
100
AcDb2dVertex
 10
284.9785218830802
 20
879.519668608775
 30
0.0
  0
VERTEX
  5
449
330
436
100
AcDbEntity
  8
Make2D$可见线$普通线
100
AcDbVertex
100
AcDb2dVertex
 10
283.9688794957597
 20
878.845599236535
 30
0.0
  0
VERTEX
  5
44A
330
436
100
AcDbEntity
  8
Make2D$可见线$普通线
100
AcDbVertex
100
AcDb2dVertex
 10
282.9808872851359
 20
878.1551680272829
 30
0.0
 42
0.021030601929355
  0
VERTEX
  5
44B
330
436
100
AcDbEntity
  8
Make2D$可见线$普通线
100
AcDbVertex
100
AcDb2dVertex
 10
279.1056400197996
 20
874.8978364588057
 30
0.0
 42
0.0390655143390452
  0
VERTEX
  5
44C
330
436
100
AcDbEntity
  8
Make2D$可见线$普通线
100
AcDbVertex
100
AcDb2dVertex
 10
273.8686019808175
 20
869.6385572975712
 30
0.0
  0
VERTEX
  5
44D
330
436
100
AcDbEntity
  8
Make2D$可见线$普通线
100
AcDbVertex
100
AcDb2dVertex
 10
273.0972017335412
 20
868.7020316983715
 30
0.0
  0
VERTEX
  5
44E
330
436
100
AcDbEntity
  8
Make2D$可见线$普通线
100
AcDbVertex
100
AcDb2dVertex
 10
272.358480803895
 20
867.751969585068
 30
0.0
  0
VERTEX
  5
44F
330
436
100
AcDbEntity
  8
Make2D$可见线$普通线
100
AcDbVertex
100
AcDb2dVertex
 10
271.65290995741
 20
866.7889613984066
 30
0.0
  0
VERTEX
  5
450
330
436
100
AcDbEntity
  8
Make2D$可见线$普通线
100
AcDbVertex
100
AcDb2dVertex
 10
270.9809599596175
 20
865.813597579133
 30
0.0
  0
VERTEX
  5
451
330
436
100
AcDbEntity
  8
Make2D$可见线$普通线
100
AcDbVertex
100
AcDb2dVertex
 10
270.3431015760484
 20
864.8264685679928
 30
0.0
  0
VERTEX
  5
452
330
436
100
AcDbEntity
  8
Make2D$可见线$普通线
100
AcDbVertex
100
AcDb2dVertex
 10
269.7398055722339
 20
863.8281648057317
 30
0.0
  0
VERTEX
  5
453
330
436
100
AcDbEntity
  8
Make2D$可见线$普通线
100
AcDbVertex
100
AcDb2dVertex
 10
269.1715427137053
 20
862.8192767330955
 30
0.0
  0
VERTEX
  5
454
330
436
100
AcDbEntity
  8
Make2D$可见线$普通线
100
AcDbVertex
100
AcDb2dVertex
 10
268.6387837659934
 20
861.8003947908298
 30
0.0
  0
VERTEX
  5
455
330
436
100
AcDbEntity
  8
Make2D$可见线$普通线
100
AcDbVertex
100
AcDb2dVertex
 10
268.2829545365702
 20
861.0725908726979
 30
0.0
  0
VERTEX
  5
456
330
436
100
AcDbEntity
  8
Make2D$可见线$普通线
100
AcDbVertex
100
AcDb2dVertex
 10
267.9452705879621
 20
860.340338075164
 30
0.0
  0
VERTEX
  5
457
330
436
100
AcDbEntity
  8
Make2D$可见线$普通线
100
AcDbVertex
100
AcDb2dVertex
 10
267.6257899388097
 20
859.6038749767641
 30
0.0
  0
VERTEX
  5
458
330
436
100
AcDbEntity
  8
Make2D$可见线$普通线
100
AcDbVertex
100
AcDb2dVertex
 10
267.3245706077534
 20
858.8634401560338
 30
0.0
  0
VERTEX
  5
459
330
436
100
AcDbEntity
  8
Make2D$可见线$普通线
100
AcDbVertex
100
AcDb2dVertex
 10
267.0416706134338
 20
858.119272191509
 30
0.0
  0
VERTEX
  5
45A
330
436
100
AcDbEntity
  8
Make2D$可见线$普通线
100
AcDbVertex
100
AcDb2dVertex
 10
266.7771479744912
 20
857.3716096617254
 30
0.0
  0
VERTEX
  5
45B
330
436
100
AcDbEntity
  8
Make2D$可见线$普通线
100
AcDbVertex
100
AcDb2dVertex
 10
266.5310607095662
 20
856.6206911452189
 30
0.0
  0
VERTEX
  5
45C
330
436
100
AcDbEntity
  8
Make2D$可见线$普通线
100
AcDbVertex
100
AcDb2dVertex
 10
266.3034668372994
 20
855.8667552205252
 30
0.0
 42
0.0687911072539047
  0
VERTEX
  5
45D
330
436
100
AcDbEntity
  8
Make2D$可见线$普通线
100
AcDbVertex
100
AcDb2dVertex
 10
265.0854733993002
 20
847.1539365596487
 30
0.0
  0
VERTEX
  5
45E
330
436
100
AcDbEntity
  8
Make2D$可见线$普通线
100
AcDbVertex
100
AcDb2dVertex
 10
265.0880578760588
 20
846.5993092745041
 30
0.0
  0
VERTEX
  5
45F
330
436
100
AcDbEntity
  8
Make2D$可见线$普通线
100
AcDbVertex
100
AcDb2dVertex
 10
265.1012420706062
 20
846.0452414781803
 30
0.0
  0
VERTEX
  5
460
330
436
100
AcDbEntity
  8
Make2D$可见线$普通线
100
AcDbVertex
100
AcDb2dVertex
 10
265.1249046434046
 20
845.4918553605539
 30
0.0
  0
VERTEX
  5
461
330
436
100
AcDbEntity
  8
Make2D$可见线$普通线
100
AcDbVertex
100
AcDb2dVertex
 10
265.1589242549164
 20
844.9392731115014
 30
0.0
  0
VERTEX
  5
462
330
436
100
AcDbEntity
  8
Make2D$可见线$普通线
100
AcDbVertex
100
AcDb2dVertex
 10
265.2031795656036
 20
844.3876169208991
 30
0.0
  0
VERTEX
  5
463
330
436
100
AcDbEntity
  8
Make2D$可见线$普通线
100
AcDbVertex
100
AcDb2dVertex
 10
265.2575492359287
 20
843.8370089786233
 30
0.0
  0
VERTEX
  5
464
330
436
100
AcDbEntity
  8
Make2D$可见线$普通线
100
AcDbVertex
100
AcDb2dVertex
 10
265.3219119263538
 20
843.2875714745505
 30
0.0
  0
VERTEX
  5
465
330
436
100
AcDbEntity
  8
Make2D$可见线$普通线
100
AcDbVertex
100
AcDb2dVertex
 10
265.396146297341
 20
842.739426598557
 30
0.0
  0
VERTEX
  5
466
330
436
100
AcDbEntity
  8
Make2D$可见线$普通线
100
AcDbVertex
100
AcDb2dVertex
 10
265.4801310093527
 20
842.1926965405191
 30
0.0
  0
VERTEX
  5
467
330
436
100
AcDbEntity
  8
Make2D$可见线$普通线
100
AcDbVertex
100
AcDb2dVertex
 10
265.5737447228511
 20
841.6475034903134
 30
0.0
  0
VERTEX
  5
468
330
436
100
AcDbEntity
  8
Make2D$可见线$普通线
100
AcDbVertex
100
AcDb2dVertex
 10
265.7893737961568
 20
840.5622171729037
 30
0.0
  0
VERTEX
  5
469
330
436
100
AcDbEntity
  8
Make2D$可见线$普通线
100
AcDbVertex
100
AcDb2dVertex
 10
266.0420628009559
 20
839.4845451653388
 30
0.0
  0
VERTEX
  5
46A
330
436
100
AcDbEntity
  8
Make2D$可见线$普通线
100
AcDbVertex
100
AcDb2dVertex
 10
266.3308410209463
 20
838.4154649866296
 30
0.0
  0
VERTEX
  5
46B
330
436
100
AcDbEntity
  8
Make2D$可见线$普通线
100
AcDbVertex
100
AcDb2dVertex
 10
266.6547377398258
 20
837.355954155787
 30
0.0
  0
VERTEX
  5
46C
330
436
100
AcDbEntity
  8
Make2D$可见线$普通线
100
AcDbVertex
100
AcDb2dVertex
 10
267.0127822412923
 20
836.3069901918224
 30
0.0
  0
VERTEX
  5
46D
330
436
100
AcDbEntity
  8
Make2D$可见线$普通线
100
AcDbVertex
100
AcDb2dVertex
 10
267.4040038090434
 20
835.2695506137464
 30
0.0
  0
VERTEX
  5
46E
330
436
100
AcDbEntity
  8
Make2D$可见线$普通线
100
AcDbVertex
100
AcDb2dVertex
 10
267.8274317267771
 20
834.2446129405703
 30
0.0
  0
VERTEX
  5
46F
330
436
100
AcDbEntity
  8
Make2D$可见线$普通线
100
AcDbVertex
100
AcDb2dVertex
 10
268.2820952781914
 20
833.2331546913049
 30
0.0
  0
VERTEX
  5
470
330
436
100
AcDbEntity
  8
Make2D$可见线$普通线
100
AcDbVertex
100
AcDb2dVertex
 10
268.7670237469838
 20
832.2361533849613
 30
0.0
  0
VERTEX
  5
471
330
436
100
AcDbEntity
  8
Make2D$可见线$普通线
100
AcDbVertex
100
AcDb2dVertex
 10
269.2812464168524
 20
831.2545865405505
 30
0.0
  0
VERTEX
  5
472
330
436
100
AcDbEntity
  8
Make2D$可见线$普通线
100
AcDbVertex
100
AcDb2dVertex
 10
269.8237925714948
 20
830.2894316770835
 30
0.0
  0
VERTEX
  5
473
330
436
100
AcDbEntity
  8
Make2D$可见线$普通线
100
AcDbVertex
100
AcDb2dVertex
 10
270.4500267835496
 20
829.2511005805804
 30
0.0
  0
VERTEX
  5
474
330
436
100
AcDbEntity
  8
Make2D$可见线$普通线
100
AcDbVertex
100
AcDb2dVertex
 10
271.1079749633562
 20
828.233715610296
 30
0.0
  0
VERTEX
  5
475
330
436
100
AcDbEntity
  8
Make2D$可见线$普通线
100
AcDbVertex
100
AcDb2dVertex
 10
271.7964737771043
 20
827.2373211751467
 30
0.0
  0
VERTEX
  5
476
330
436
100
AcDbEntity
  8
Make2D$可见线$普通线
100
AcDbVertex
100
AcDb2dVertex
 10
272.5143598909833
 20
826.2619616840487
 30
0.0
  0
VERTEX
  5
477
330
436
100
AcDbEntity
  8
Make2D$可见线$普通线
100
AcDbVertex
100
AcDb2dVertex
 10
273.2604699711828
 20
825.3076815459185
 30
0.0
  0
VERTEX
  5
478
330
436
100
AcDbEntity
  8
Make2D$可见线$普通线
100
AcDbVertex
100
AcDb2dVertex
 10
274.0336406838923
 20
824.3745251696723
 30
0.0
  0
VERTEX
  5
479
330
436
100
AcDbEntity
  8
Make2D$可见线$普通线
100
AcDbVertex
100
AcDb2dVertex
 10
274.8327086953013
 20
823.4625369642265
 30
0.0
  0
VERTEX
  5
47A
330
436
100
AcDbEntity
  8
Make2D$可见线$普通线
100
AcDbVertex
100
AcDb2dVertex
 10
275.6565106715996
 20
822.5717613384978
 30
0.0
  0
VERTEX
  5
47B
330
436
100
AcDbEntity
  8
Make2D$可见线$普通线
100
AcDbVertex
100
AcDb2dVertex
 10
276.5038832789763
 20
821.7022427014023
 30
0.0
  0
VERTEX
  5
47C
330
436
100
AcDbEntity
  8
Make2D$可见线$普通线
100
AcDbVertex
100
AcDb2dVertex
 10
277.3736631836214
 20
820.8540254618563
 30
0.0
  0
VERTEX
  5
47D
330
436
100
AcDbEntity
  8
Make2D$可见线$普通线
100
AcDbVertex
100
AcDb2dVertex
 10
278.2646870517242
 20
820.0271540287762
 30
0.0
  0
VERTEX
  5
47E
330
436
100
AcDbEntity
  8
Make2D$可见线$普通线
100
AcDbVertex
100
AcDb2dVertex
 10
279.1757915494742
 20
819.2216728110785
 30
0.0
  0
VERTEX
  5
47F
330
436
100
AcDbEntity
  8
Make2D$可见线$普通线
100
AcDbVertex
100
AcDb2dVertex
 10
280.105813343061
 20
818.4376262176796
 30
0.0
  0
VERTEX
  5
480
330
436
100
AcDbEntity
  8
Make2D$可见线$普通线
100
AcDbVertex
100
AcDb2dVertex
 10
281.053589098674
 20
817.6750586574956
 30
0.0
  0
VERTEX
  5
481
330
436
100
AcDbEntity
  8
Make2D$可见线$普通线
100
AcDbVertex
100
AcDb2dVertex
 10
282.017955482503
 20
816.9340145394431
 30
0.0
  0
VERTEX
  5
482
330
436
100
AcDbEntity
  8
Make2D$可见线$普通线
100
AcDbVertex
100
AcDb2dVertex
 10
282.9977491607374
 20
816.2145382724383
 30
0.0
  0
VERTEX
  5
483
330
436
100
AcDbEntity
  8
Make2D$可见线$普通线
100
AcDbVertex
100
AcDb2dVertex
 10
284.1171813407321
 20
815.4308993620667
 30
0.0
  0
VERTEX
  5
484
330
436
100
AcDbEntity
  8
Make2D$可见线$普通线
100
AcDbVertex
100
AcDb2dVertex
 10
285.2539562606965
 20
814.6743552342734
 30
0.0
  0
VERTEX
  5
485
330
436
100
AcDbEntity
  8
Make2D$可见线$普通线
100
AcDbVertex
100
AcDb2dVertex
 10
286.4073633651005
 20
813.9446469424286
 30
0.0
  0
VERTEX
  5
486
330
436
100
AcDbEntity
  8
Make2D$可见线$普通线
100
AcDbVertex
100
AcDb2dVertex
 10
287.576692098414
 20
813.2415155399021
 30
0.0
  0
VERTEX
  5
487
330
436
100
AcDbEntity
  8
Make2D$可见线$普通线
100
AcDbVertex
100
AcDb2dVertex
 10
288.7612319051071
 20
812.5647020800645
 30
0.0
  0
VERTEX
  5
488
330
436
100
AcDbEntity
  8
Make2D$可见线$普通线
100
AcDbVertex
100
AcDb2dVertex
 10
289.9602722296499
 20
811.9139476162859
 30
0.0
  0
VERTEX
  5
489
330
436
100
AcDbEntity
  8
Make2D$可见线$普通线
100
AcDbVertex
100
AcDb2dVertex
 10
291.1731025165125
 20
811.2889932019366
 30
0.0
  0
VERTEX
  5
48A
330
436
100
AcDbEntity
  8
Make2D$可见线$普通线
100
AcDbVertex
100
AcDb2dVertex
 10
292.3990122101645
 20
810.6895798903865
 30
0.0
  0
VERTEX
  5
48B
330
436
100
AcDbEntity
  8
Make2D$可见线$普通线
100
AcDbVertex
100
AcDb2dVertex
 10
293.6372907550763
 20
810.1154487350062
 30
0.0
  0
VERTEX
  5
48C
330
436
100
AcDbEntity
  8
Make2D$可见线$普通线
100
AcDbVertex
100
AcDb2dVertex
 10
294.8872275957177
 20
809.5663407891657
 30
0.0
  0
VERTEX
  5
48D
330
436
100
AcDbEntity
  8
Make2D$可见线$普通线
100
AcDbVertex
100
AcDb2dVertex
 10
296.1481121765588
 20
809.0419971062353
 30
0.0
  0
VERTEX
  5
48E
330
436
100
AcDbEntity
  8
Make2D$可见线$普通线
100
AcDbVertex
100
AcDb2dVertex
 10
297.4192339420697
 20
808.5421587395851
 30
0.0
  0
VERTEX
  5
48F
330
436
100
AcDbEntity
  8
Make2D$可见线$普通线
100
AcDbVertex
100
AcDb2dVertex
 10
298.6998823367203
 20
808.0665667425855
 30
0.0
  0
VERTEX
  5
490
330
436
100
AcDbEntity
  8
Make2D$可见线$普通线
100
AcDbVertex
100
AcDb2dVertex
 10
299.9893468049805
 20
807.6149621686066
 30
0.0
  0
VERTEX
  5
491
330
436
100
AcDbEntity
  8
Make2D$可见线$普通线
100
AcDbVertex
100
AcDb2dVertex
 10
301.2869167913206
 20
807.1870860710185
 30
0.0
  0
VERTEX
  5
492
330
436
100
AcDbEntity
  8
Make2D$可见线$普通线
100
AcDbVertex
100
AcDb2dVertex
 10
302.5918817402104
 20
806.7826795031917
 30
0.0
  0
VERTEX
  5
493
330
436
100
AcDbEntity
  8
Make2D$可见线$普通线
100
AcDbVertex
100
AcDb2dVertex
 10
304.0234627896269
 20
806.3679216718492
 30
0.0
  0
VERTEX
  5
494
330
436
100
AcDbEntity
  8
Make2D$可见线$普通线
100
AcDbVertex
100
AcDb2dVertex
 10
305.4624941816868
 20
805.9806919778675
 30
0.0
  0
VERTEX
  5
495
330
436
100
AcDbEntity
  8
Make2D$可见线$普通线
100
AcDbVertex
100
AcDb2dVertex
 10
306.9084677715198
 20
805.6208839254248
 30
0.0
  0
VERTEX
  5
496
330
436
100
AcDbEntity
  8
Make2D$可见线$普通线
100
AcDbVertex
100
AcDb2dVertex
 10
308.3608754142556
 20
805.288391018699
 30
0.0
  0
VERTEX
  5
497
330
436
100
AcDbEntity
  8
Make2D$可见线$普通线
100
AcDbVertex
100
AcDb2dVertex
 10
309.8192089650238
 20
804.9831067618679
 30
0.0
  0
VERTEX
  5
498
330
436
100
AcDbEntity
  8
Make2D$可见线$普通线
100
AcDbVertex
100
AcDb2dVertex
 10
311.2829602789541
 20
804.7049246591095
 30
0.0
  0
VERTEX
  5
499
330
436
100
AcDbEntity
  8
Make2D$可见线$普通线
100
AcDbVertex
100
AcDb2dVertex
 10
312.7516212111763
 20
804.4537382146016
 30
0.0
  0
VERTEX
  5
49A
330
436
100
AcDbEntity
  8
Make2D$可见线$普通线
100
AcDbVertex
100
AcDb2dVertex
 10
314.2246836168199
 20
804.229440932522
 30
0.0
  0
VERTEX
  5
49B
330
436
100
AcDbEntity
  8
Make2D$可见线$普通线
100
AcDbVertex
100
AcDb2dVertex
 10
315.7016393510147
 20
804.0319263170489
 30
0.0
  0
VERTEX
  5
49C
330
436
100
AcDbEntity
  8
Make2D$可见线$普通线
100
AcDbVertex
100
AcDb2dVertex
 10
317.1819802688902
 20
803.8610878723599
 30
0.0
  0
VERTEX
  5
49D
330
436
100
AcDbEntity
  8
Make2D$可见线$普通线
100
AcDbVertex
100
AcDb2dVertex
 10
318.6651982255762
 20
803.716819102633
 30
0.0
  0
VERTEX
  5
49E
330
436
100
AcDbEntity
  8
Make2D$可见线$普通线
100
AcDbVertex
100
AcDb2dVertex
 10
320.1507850762024
 20
803.5990135120462
 30
0.0
  0
VERTEX
  5
49F
330
436
100
AcDbEntity
  8
Make2D$可见线$普通线
100
AcDbVertex
100
AcDb2dVertex
 10
321.6382326758984
 20
803.5075646047774
 30
0.0
  0
VERTEX
  5
4A0
330
436
100
AcDbEntity
  8
Make2D$可见线$普通线
100
AcDbVertex
100
AcDb2dVertex
 10
323.1270328797938
 20
803.4423658850043
 30
0.0
  0
VERTEX
  5
4A1
330
436
100
AcDbEntity
  8
Make2D$可见线$普通线
100
AcDbVertex
100
AcDb2dVertex
 10
324.6166775430185
 20
803.4033108569051
 30
0.0
  0
VERTEX
  5
4A2
330
436
100
AcDbEntity
  8
Make2D$可见线$普通线
100
AcDbVertex
100
AcDb2dVertex
 10
326.1066585207019
 20
803.3902930246575
 30
0.0
  0
VERTEX
  5
4A3
330
436
100
AcDbEntity
  8
Make2D$可见线$普通线
100
AcDbVertex
100
AcDb2dVertex
 10
327.5966394983852
 20
803.4033108569051
 30
0.0
  0
VERTEX
  5
4A4
330
436
100
AcDbEntity
  8
Make2D$可见线$普通线
100
AcDbVertex
100
AcDb2dVertex
 10
329.0862841616099
 20
803.4423658850043
 30
0.0
  0
VERTEX
  5
4A5
330
436
100
AcDbEntity
  8
Make2D$可见线$普通线
100
AcDbVertex
100
AcDb2dVertex
 10
330.5750843655053
 20
803.5075646047774
 30
0.0
  0
VERTEX
  5
4A6
330
436
100
AcDbEntity
  8
Make2D$可见线$普通线
100
AcDbVertex
100
AcDb2dVertex
 10
332.0625319652012
 20
803.5990135120462
 30
0.0
  0
VERTEX
  5
4A7
330
436
100
AcDbEntity
  8
Make2D$可见线$普通线
100
AcDbVertex
100
AcDb2dVertex
 10
333.5481188158274
 20
803.716819102633
 30
0.0
  0
VERTEX
  5
4A8
330
436
100
AcDbEntity
  8
Make2D$可见线$普通线
100
AcDbVertex
100
AcDb2dVertex
 10
335.0313367725133
 20
803.8610878723599
 30
0.0
  0
VERTEX
  5
4A9
330
436
100
AcDbEntity
  8
Make2D$可见线$普通线
100
AcDbVertex
100
AcDb2dVertex
 10
336.5116776903889
 20
804.0319263170489
 30
0.0
  0
VERTEX
  5
4AA
330
436
100
AcDbEntity
  8
Make2D$可见线$普通线
100
AcDbVertex
100
AcDb2dVertex
 10
337.9886334245836
 20
804.229440932522
 30
0.0
  0
VERTEX
  5
4AB
330
436
100
AcDbEntity
  8
Make2D$可见线$普通线
100
AcDbVertex
100
AcDb2dVertex
 10
339.4616958302272
 20
804.4537382146016
 30
0.0
  0
VERTEX
  5
4AC
330
436
100
AcDbEntity
  8
Make2D$可见线$普通线
100
AcDbVertex
100
AcDb2dVertex
 10
340.9303567624494
 20
804.7049246591096
 30
0.0
  0
VERTEX
  5
4AD
330
436
100
AcDbEntity
  8
Make2D$可见线$普通线
100
AcDbVertex
100
AcDb2dVertex
 10
342.3941080763798
 20
804.9831067618682
 30
0.0
  0
VERTEX
  5
4AE
330
436
100
AcDbEntity
  8
Make2D$可见线$普通线
100
AcDbVertex
100
AcDb2dVertex
 10
343.852441627148
 20
805.2883910186993
 30
0.0
  0
VERTEX
  5
4AF
330
436
100
AcDbEntity
  8
Make2D$可见线$普通线
100
AcDbVertex
100
AcDb2dVertex
 10
345.3048492698839
 20
805.620883925425
 30
0.0
  0
VERTEX
  5
4B0
330
436
100
AcDbEntity
  8
Make2D$可见线$普通线
100
AcDbVertex
100
AcDb2dVertex
 10
346.7508228597169
 20
805.9806919778678
 30
0.0
  0
VERTEX
  5
4B1
330
436
100
AcDbEntity
  8
Make2D$可见线$普通线
100
AcDbVertex
100
AcDb2dVertex
 10
348.1898542517768
 20
806.3679216718492
 30
0.0
  0
VERTEX
  5
4B2
330
436
100
AcDbEntity
  8
Make2D$可见线$普通线
100
AcDbVertex
100
AcDb2dVertex
 10
349.6214353011933
 20
806.7826795031918
 30
0.0
  0
VERTEX
  5
4B3
330
436
100
AcDbEntity
  8
Make2D$可见线$普通线
100
AcDbVertex
100
AcDb2dVertex
 10
350.9264002500831
 20
807.1870860710186
 30
0.0
  0
VERTEX
  5
4B4
330
436
100
AcDbEntity
  8
Make2D$可见线$普通线
100
AcDbVertex
100
AcDb2dVertex
 10
352.2239702364232
 20
807.6149621686066
 30
0.0
  0
VERTEX
  5
4B5
330
436
100
AcDbEntity
  8
Make2D$可见线$普通线
100
AcDbVertex
100
AcDb2dVertex
 10
353.5134347046834
 20
808.0665667425855
 30
0.0
  0
VERTEX
  5
4B6
330
436
100
AcDbEntity
  8
Make2D$可见线$普通线
100
AcDbVertex
100
AcDb2dVertex
 10
354.794083099334
 20
808.5421587395851
 30
0.0
  0
VERTEX
  5
4B7
330
436
100
AcDbEntity
  8
Make2D$可见线$普通线
100
AcDbVertex
100
AcDb2dVertex
 10
356.0652048648449
 20
809.0419971062353
 30
0.0
  0
VERTEX
  5
4B8
330
436
100
AcDbEntity
  8
Make2D$可见线$普通线
100
AcDbVertex
100
AcDb2dVertex
 10
357.3260894456861
 20
809.5663407891657
 30
0.0
  0
VERTEX
  5
4B9
330
436
100
AcDbEntity
  8
Make2D$可见线$普通线
100
AcDbVertex
100
AcDb2dVertex
 10
358.5760262863275
 20
810.1154487350062
 30
0.0
  0
VERTEX
  5
4BA
330
436
100
AcDbEntity
  8
Make2D$可见线$普通线
100
AcDbVertex
100
AcDb2dVertex
 10
359.8143048312393
 20
810.6895798903867
 30
0.0
  0
VERTEX
  5
4BB
330
436
100
AcDbEntity
  8
Make2D$可见线$普通线
100
AcDbVertex
100
AcDb2dVertex
 10
361.0402145248913
 20
811.2889932019368
 30
0.0
  0
VERTEX
  5
4BC
330
436
100
AcDbEntity
  8
Make2D$可见线$普通线
100
AcDbVertex
100
AcDb2dVertex
 10
362.2530448117539
 20
811.9139476162861
 30
0.0
  0
VERTEX
  5
4BD
330
436
100
AcDbEntity
  8
Make2D$可见线$普通线
100
AcDbVertex
100
AcDb2dVertex
 10
363.4520851362967
 20
812.5647020800646
 30
0.0
  0
VERTEX
  5
4BE
330
436
100
AcDbEntity
  8
Make2D$可见线$普通线
100
AcDbVertex
100
AcDb2dVertex
 10
364.6366249429898
 20
813.2415155399021
 30
0.0
  0
VERTEX
  5
4BF
330
436
100
AcDbEntity
  8
Make2D$可见线$普通线
100
AcDbVertex
100
AcDb2dVertex
 10
365.8059536763034
 20
813.9446469424286
 30
0.0
  0
VERTEX
  5
4C0
330
436
100
AcDbEntity
  8
Make2D$可见线$普通线
100
AcDbVertex
100
AcDb2dVertex
 10
366.9593607807074
 20
814.6743552342734
 30
0.0
  0
VERTEX
  5
4C1
330
436
100
AcDbEntity
  8
Make2D$可见线$普通线
100
AcDbVertex
100
AcDb2dVertex
 10
368.0961357006717
 20
815.4308993620667
 30
0.0
  0
VERTEX
  5
4C2
330
436
100
AcDbEntity
  8
Make2D$可见线$普通线
100
AcDbVertex
100
AcDb2dVertex
 10
369.2155678806665
 20
816.2145382724382
 30
0.0
  0
VERTEX
  5
4C3
330
436
100
AcDbEntity
  8
Make2D$可见线$普通线
100
AcDbVertex
100
AcDb2dVertex
 10
370.1953615589008
 20
816.9340145394428
 30
0.0
  0
VERTEX
  5
4C4
330
436
100
AcDbEntity
  8
Make2D$可见线$普通线
100
AcDbVertex
100
AcDb2dVertex
 10
371.1597279427298
 20
817.6750586574954
 30
0.0
  0
VERTEX
  5
4C5
330
436
100
AcDbEntity
  8
Make2D$可见线$普通线
100
AcDbVertex
100
AcDb2dVertex
 10
372.1075036983428
 20
818.4376262176794
 30
0.0
  0
VERTEX
  5
4C6
330
436
100
AcDbEntity
  8
Make2D$可见线$普通线
100
AcDbVertex
100
AcDb2dVertex
 10
373.0375254919296
 20
819.2216728110784
 30
0.0
  0
VERTEX
  5
4C7
330
436
100
AcDbEntity
  8
Make2D$可见线$普通线
100
AcDbVertex
100
AcDb2dVertex
 10
373.9486299896796
 20
820.0271540287761
 30
0.0
  0
VERTEX
  5
4C8
330
436
100
AcDbEntity
  8
Make2D$可见线$普通线
100
AcDbVertex
100
AcDb2dVertex
 10
374.8396538577824
 20
820.854025461856
 30
0.0
  0
VERTEX
  5
4C9
330
436
100
AcDbEntity
  8
Make2D$可见线$普通线
100
AcDbVertex
100
AcDb2dVertex
 10
375.7094337624275
 20
821.702242701402
 30
0.0
  0
VERTEX
  5
4CA
330
436
100
AcDbEntity
  8
Make2D$可见线$普通线
100
AcDbVertex
100
AcDb2dVertex
 10
376.5568063698042
 20
822.5717613384977
 30
0.0
  0
VERTEX
  5
4CB
330
436
100
AcDbEntity
  8
Make2D$可见线$普通线
100
AcDbVertex
100
AcDb2dVertex
 10
377.3806083461025
 20
823.4625369642265
 30
0.0
  0
VERTEX
  5
4CC
330
436
100
AcDbEntity
  8
Make2D$可见线$普通线
100
AcDbVertex
100
AcDb2dVertex
 10
378.1796763575115
 20
824.3745251696722
 30
0.0
  0
VERTEX
  5
4CD
330
436
100
AcDbEntity
  8
Make2D$可见线$普通线
100
AcDbVertex
100
AcDb2dVertex
 10
378.9528470702211
 20
825.3076815459183
 30
0.0
  0
VERTEX
  5
4CE
330
436
100
AcDbEntity
  8
Make2D$可见线$普通线
100
AcDbVertex
100
AcDb2dVertex
 10
379.6989571504206
 20
826.2619616840486
 30
0.0
  0
VERTEX
  5
4CF
330
436
100
AcDbEntity
  8
Make2D$可见线$普通线
100
AcDbVertex
100
AcDb2dVertex
 10
380.4168432642996
 20
827.2373211751467
 30
0.0
  0
VERTEX
  5
4D0
330
436
100
AcDbEntity
  8
Make2D$可见线$普通线
100
AcDbVertex
100
AcDb2dVertex
 10
381.1053420780477
 20
828.233715610296
 30
0.0
  0
VERTEX
  5
4D1
330
436
100
AcDbEntity
  8
Make2D$可见线$普通线
100
AcDbVertex
100
AcDb2dVertex
 10
381.7632902578544
 20
829.2511005805804
 30
0.0
  0
VERTEX
  5
4D2
330
436
100
AcDbEntity
  8
Make2D$可见线$普通线
100
AcDbVertex
100
AcDb2dVertex
 10
382.3895244699091
 20
830.2894316770836
 30
0.0
  0
VERTEX
  5
4D3
330
436
100
AcDbEntity
  8
Make2D$可见线$普通线
100
AcDbVertex
100
AcDb2dVertex
 10
382.9320706245516
 20
831.2545865405505
 30
0.0
  0
VERTEX
  5
4D4
330
436
100
AcDbEntity
  8
Make2D$可见线$普通线
100
AcDbVertex
100
AcDb2dVertex
 10
383.4462932944201
 20
832.2361533849613
 30
0.0
  0
VERTEX
  5
4D5
330
436
100
AcDbEntity
  8
Make2D$可见线$普通线
100
AcDbVertex
100
AcDb2dVertex
 10
383.9312217632125
 20
833.2331546913049
 30
0.0
  0
VERTEX
  5
4D6
330
436
100
AcDbEntity
  8
Make2D$可见线$普通线
100
AcDbVertex
100
AcDb2dVertex
 10
384.3858853146268
 20
834.2446129405703
 30
0.0
  0
VERTEX
  5
4D7
330
436
100
AcDbEntity
  8
Make2D$可见线$普通线
100
AcDbVertex
100
AcDb2dVertex
 10
384.8093132323605
 20
835.2695506137464
 30
0.0
  0
VERTEX
  5
4D8
330
436
100
AcDbEntity
  8
Make2D$可见线$普通线
100
AcDbVertex
100
AcDb2dVertex
 10
385.2005348001118
 20
836.3069901918224
 30
0.0
  0
VERTEX
  5
4D9
330
436
100
AcDbEntity
  8
Make2D$可见线$普通线
100
AcDbVertex
100
AcDb2dVertex
 10
385.5585793015782
 20
837.355954155787
 30
0.0
  0
VERTEX
  5
4DA
330
436
100
AcDbEntity
  8
Make2D$可见线$普通线
100
AcDbVertex
100
AcDb2dVertex
 10
385.8824760204577
 20
838.4154649866296
 30
0.0
  0
VERTEX
  5
4DB
330
436
100
AcDbEntity
  8
Make2D$可见线$普通线
100
AcDbVertex
100
AcDb2dVertex
 10
386.171254240448
 20
839.4845451653388
 30
0.0
  0
VERTEX
  5
4DC
330
436
100
AcDbEntity
  8
Make2D$可见线$普通线
100
AcDbVertex
100
AcDb2dVertex
 10
386.4239432452471
 20
840.5622171729037
 30
0.0
  0
VERTEX
  5
4DD
330
436
100
AcDbEntity
  8
Make2D$可见线$普通线
100
AcDbVertex
100
AcDb2dVertex
 10
386.6395723185527
 20
841.6475034903134
 30
0.0
  0
VERTEX
  5
4DE
330
436
100
AcDbEntity
  8
Make2D$可见线$普通线
100
AcDbVertex
100
AcDb2dVertex
 10
386.7331860320511
 20
842.1926965405191
 30
0.0
  0
VERTEX
  5
4DF
330
436
100
AcDbEntity
  8
Make2D$可见线$普通线
100
AcDbVertex
100
AcDb2dVertex
 10
386.8171707440628
 20
842.739426598557
 30
0.0
  0
VERTEX
  5
4E0
330
436
100
AcDbEntity
  8
Make2D$可见线$普通线
100
AcDbVertex
100
AcDb2dVertex
 10
386.8914051150499
 20
843.2875714745505
 30
0.0
  0
VERTEX
  5
4E1
330
436
100
AcDbEntity
  8
Make2D$可见线$普通线
100
AcDbVertex
100
AcDb2dVertex
 10
386.955767805475
 20
843.8370089786233
 30
0.0
  0
VERTEX
  5
4E2
330
436
100
AcDbEntity
  8
Make2D$可见线$普通线
100
AcDbVertex
100
AcDb2dVertex
 10
387.0101374758
 20
844.3876169208991
 30
0.0
  0
VERTEX
  5
4E3
330
436
100
AcDbEntity
  8
Make2D$可见线$普通线
100
AcDbVertex
100
AcDb2dVertex
 10
387.0543927864873
 20
844.9392731115014
 30
0.0
  0
VERTEX
  5
4E4
330
436
100
AcDbEntity
  8
Make2D$可见线$普通线
100
AcDbVertex
100
AcDb2dVertex
 10
387.088412397999
 20
845.4918553605539
 30
0.0
  0
VERTEX
  5
4E5
330
436
100
AcDbEntity
  8
Make2D$可见线$普通线
100
AcDbVertex
100
AcDb2dVertex
 10
387.1120749707974
 20
846.0452414781803
 30
0.0
  0
VERTEX
  5
4E6
330
436
100
AcDbEntity
  8
Make2D$可见线$普通线
100
AcDbVertex
100
AcDb2dVertex
 10
387.1252591653446
 20
846.5993092745041
 30
0.0
  0
VERTEX
  5
4E7
330
436
100
AcDbEntity
  8
Make2D$可见线$普通线
100
AcDbVertex
100
AcDb2dVertex
 10
387.127843642103
 20
847.1539365596487
 30
0.0
 42
0.0687911072539796
  0
VERTEX
  5
4E8
330
436
100
AcDbEntity
  8
Make2D$可见线$普通线
100
AcDbVertex
100
AcDb2dVertex
 10
385.9098502041039
 20
855.8667552205252
 30
0.0
  0
VERTEX
  5
4E9
330
436
100
AcDbEntity
  8
Make2D$可见线$普通线
100
AcDbVertex
100
AcDb2dVertex
 10
385.6822563318373
 20
856.6206911452189
 30
0.0
  0
VERTEX
  5
4EA
330
436
100
AcDbEntity
  8
Make2D$可见线$普通线
100
AcDbVertex
100
AcDb2dVertex
 10
385.4361690669124
 20
857.3716096617254
 30
0.0
  0
VERTEX
  5
4EB
330
436
100
AcDbEntity
  8
Make2D$可见线$普通线
100
AcDbVertex
100
AcDb2dVertex
 10
385.1716464279699
 20
858.119272191509
 30
0.0
  0
VERTEX
  5
4EC
330
436
100
AcDbEntity
  8
Make2D$可见线$普通线
100
AcDbVertex
100
AcDb2dVertex
 10
384.8887464336503
 20
858.8634401560338
 30
0.0
  0
VERTEX
  5
4ED
330
436
100
AcDbEntity
  8
Make2D$可见线$普通线
100
AcDbVertex
100
AcDb2dVertex
 10
384.5875271025941
 20
859.6038749767641
 30
0.0
  0
VERTEX
  5
4EE
330
436
100
AcDbEntity
  8
Make2D$可见线$普通线
100
AcDbVertex
100
AcDb2dVertex
 10
384.2680464534417
 20
860.340338075164
 30
0.0
  0
VERTEX
  5
4EF
330
436
100
AcDbEntity
  8
Make2D$可见线$普通线
100
AcDbVertex
100
AcDb2dVertex
 10
383.9303625048336
 20
861.0725908726979
 30
0.0
  0
VERTEX
  5
4F0
330
436
100
AcDbEntity
  8
Make2D$可见线$普通线
100
AcDbVertex
100
AcDb2dVertex
 10
383.5745332754104
 20
861.8003947908298
 30
0.0
  0
VERTEX
  5
4F1
330
436
100
AcDbEntity
  8
Make2D$可见线$普通线
100
AcDbVertex
100
AcDb2dVertex
 10
383.0417743276985
 20
862.8192767330955
 30
0.0
  0
VERTEX
  5
4F2
330
436
100
AcDbEntity
  8
Make2D$可见线$普通线
100
AcDbVertex
100
AcDb2dVertex
 10
382.4735114691699
 20
863.8281648057317
 30
0.0
  0
VERTEX
  5
4F3
330
436
100
AcDbEntity
  8
Make2D$可见线$普通线
100
AcDbVertex
100
AcDb2dVertex
 10
381.8702154653554
 20
864.8264685679928
 30
0.0
  0
VERTEX
  5
4F4
330
436
100
AcDbEntity
  8
Make2D$可见线$普通线
100
AcDbVertex
100
AcDb2dVertex
 10
381.2323570817863
 20
865.813597579133
 30
0.0
  0
VERTEX
  5
4F5
330
436
100
AcDbEntity
  8
Make2D$可见线$普通线
100
AcDbVertex
100
AcDb2dVertex
 10
380.5604070839937
 20
866.7889613984066
 30
0.0
  0
VERTEX
  5
4F6
330
436
100
AcDbEntity
  8
Make2D$可见线$普通线
100
AcDbVertex
100
AcDb2dVertex
 10
379.8548362375086
 20
867.751969585068
 30
0.0
  0
VERTEX
  5
4F7
330
436
100
AcDbEntity
  8
Make2D$可见线$普通线
100
AcDbVertex
100
AcDb2dVertex
 10
379.1161153078623
 20
868.7020316983715
 30
0.0
  0
VERTEX
  5
4F8
330
436
100
AcDbEntity
  8
Make2D$可见线$普通线
100
AcDbVertex
100
AcDb2dVertex
 10
378.3447150605858
 20
869.6385572975712
 30
0.0
 42
0.0390655143390764
  0
VERTEX
  5
4F9
330
436
100
AcDbEntity
  8
Make2D$可见线$普通线
100
AcDbVertex
100
AcDb2dVertex
 10
373.1076770216042
 20
874.8978364588057
 30
0.0
 42
0.021030601929445
  0
VERTEX
  5
4FA
330
436
100
AcDbEntity
  8
Make2D$可见线$普通线
100
AcDbVertex
100
AcDb2dVertex
 10
369.2324297562678
 20
878.1551680272829
 30
0.0
  0
VERTEX
  5
4FB
330
436
100
AcDbEntity
  8
Make2D$可见线$普通线
100
AcDbVertex
100
AcDb2dVertex
 10
368.244437545644
 20
878.845599236535
 30
0.0
  0
VERTEX
  5
4FC
330
436
100
AcDbEntity
  8
Make2D$可见线$普通线
100
AcDbVertex
100
AcDb2dVertex
 10
367.2347951583234
 20
879.519668608775
 30
0.0
  0
VERTEX
  5
4FD
330
436
100
AcDbEntity
  8
Make2D$可见线$普通线
100
AcDbVertex
100
AcDb2dVertex
 10
366.2040910003835
 20
880.1770779511621
 30
0.0
  0
VERTEX
  5
4FE
330
436
100
AcDbEntity
  8
Make2D$可见线$普通线
100
AcDbVertex
100
AcDb2dVertex
 10
365.1529134779014
 20
880.8175290708552
 30
0.0
  0
VERTEX
  5
4FF
330
436
100
AcDbEntity
  8
Make2D$可见线$普通线
100
AcDbVertex
100
AcDb2dVertex
 10
364.0818509969546
 20
881.4407237750136
 30
0.0
  0
VERTEX
  5
500
330
436
100
AcDbEntity
  8
Make2D$可见线$普通线
100
AcDbVertex
100
AcDb2dVertex
 10
362.9914919636205
 20
882.0463638707959
 30
0.0
  0
VERTEX
  5
501
330
436
100
AcDbEntity
  8
Make2D$可见线$普通线
100
AcDbVertex
100
AcDb2dVertex
 10
361.8824247839763
 20
882.6341511653613
 30
0.0
  0
VERTEX
  5
502
330
436
100
AcDbEntity
  8
Make2D$可见线$普通线
100
AcDbVertex
100
AcDb2dVertex
 10
360.7552378640993
 20
883.2037874658688
 30
0.0
  0
VERTEX
  5
503
330
436
100
AcDbEntity
  8
Make2D$可见线$普通线
100
AcDbVertex
100
AcDb2dVertex
 10
359.610519610067
 20
883.7549745794777
 30
0.0
  0
VERTEX
  5
504
330
436
100
AcDbEntity
  8
Make2D$可见线$普通线
100
AcDbVertex
100
AcDb2dVertex
 10
358.4488584279566
 20
884.2874143133465
 30
0.0
  0
VERTEX
  5
505
330
436
100
AcDbEntity
  8
Make2D$可见线$普通线
100
AcDbVertex
100
AcDb2dVertex
 10
357.2708427238455
 20
884.8008084746348
 30
0.0
  0
VERTEX
  5
506
330
436
100
AcDbEntity
  8
Make2D$可见线$普通线
100
AcDbVertex
100
AcDb2dVertex
 10
356.077060903811
 20
885.294858870501
 30
0.0
  0
VERTEX
  5
507
330
436
100
AcDbEntity
  8
Make2D$可见线$普通线
100
AcDbVertex
100
AcDb2dVertex
 10
354.8681013739305
 20
885.7692673081046
 30
0.0
  0
VERTEX
  5
508
330
436
100
AcDbEntity
  8
Make2D$可见线$普通线
100
AcDbVertex
100
AcDb2dVertex
 10
353.6445525402813
 20
886.2237355946046
 30
0.0
  0
VERTEX
  5
509
330
436
100
AcDbEntity
  8
Make2D$可见线$普通线
100
AcDbVertex
100
AcDb2dVertex
 10
352.4070028089407
 20
886.6579655371598
 30
0.0
  0
VERTEX
  5
50A
330
436
100
AcDbEntity
  8
Make2D$可见线$普通线
100
AcDbVertex
100
AcDb2dVertex
 10
351.156040585986
 20
887.0716589429293
 30
0.0
  0
VERTEX
  5
50B
330
436
100
AcDbEntity
  8
Make2D$可见线$普通线
100
AcDbVertex
100
AcDb2dVertex
 10
349.4318295186118
 20
887.6015051121046
 30
0.0
 42
0.0289341356831483
  0
VERTEX
  5
50C
330
436
100
AcDbEntity
  8
Make2D$可见线$普通线
100
AcDbVertex
100
AcDb2dVertex
 10
340.5677270752391
 20
889.6492576211318
 30
0.0
 42
0.0158798179962933
  0
VERTEX
  5
50D
330
436
100
AcDbEntity
  8
Make2D$可见线$普通线
100
AcDbVertex
100
AcDb2dVertex
 10
335.2873209659512
 20
890.3833905843901
 30
0.0
 42
0.0266141873550891
  0
VERTEX
  5
50E
330
436
100
AcDbEntity
  8
Make2D$可见线$普通线
100
AcDbVertex
100
AcDb2dVertex
 10
326.1066585207019
 20
890.8717123192577
 30
0.0
 42
0.0266141873550908
  0
VERTEX
  5
50F
330
436
100
AcDbEntity
  8
Make2D$可见线$普通线
100
AcDbVertex
100
AcDb2dVertex
 10
316.9259960754526
 20
890.38339058439
 30
0.0
  0
SEQEND
  5
510
330
436
100
AcDbEntity
  8
Make2D$可见线$普通线
  0
POLYLINE
  5
511
330
1F
100
AcDbEntity
  8
Make2D$可见线$普通线
100
AcDb2dPolyline
 66
     1
 10
0.0
 20
0.0
 30
0.0
  0
VERTEX
  5
512
330
511
100
AcDbEntity
  8
Make2D$可见线$普通线
100
AcDbVertex
100
AcDb2dVertex
 10
283.1571757450089
 20
865.6897655936027
 30
0.0
  0
VERTEX
  5
513
330
511
100
AcDbEntity
  8
Make2D$可见线$普通线
100
AcDbVertex
100
AcDb2dVertex
 10
282.7588202188616
 20
864.9933461459864
 30
0.0
  0
VERTEX
  5
514
330
511
100
AcDbEntity
  8
Make2D$可见线$普通线
100
AcDbVertex
100
AcDb2dVertex
 10
282.3816645436069
 20
864.29087164767
 30
0.0
  0
VERTEX
  5
515
330
511
100
AcDbEntity
  8
Make2D$可见线$普通线
100
AcDbVertex
100
AcDb2dVertex
 10
282.0259144877543
 20
863.5827002763787
 30
0.0
  0
VERTEX
  5
516
330
511
100
AcDbEntity
  8
Make2D$可见线$普通线
100
AcDbVertex
100
AcDb2dVertex
 10
281.6917758198133
 20
862.8691902098377
 30
0.0
  0
VERTEX
  5
517
330
511
100
AcDbEntity
  8
Make2D$可见线$普通线
100
AcDbVertex
100
AcDb2dVertex
 10
281.3794543082932
 20
862.1506996257722
 30
0.0
  0
VERTEX
  5
518
330
511
100
AcDbEntity
  8
Make2D$可见线$普通线
100
AcDbVertex
100
AcDb2dVertex
 10
281.0891557217035
 20
861.4275867019071
 30
0.0
  0
VERTEX
  5
519
330
511
100
AcDbEntity
  8
Make2D$可见线$普通线
100
AcDbVertex
100
AcDb2dVertex
 10
280.8210858285536
 20
860.7002096159679
 30
0.0
  0
VERTEX
  5
51A
330
511
100
AcDbEntity
  8
Make2D$可见线$普通线
100
AcDbVertex
100
AcDb2dVertex
 10
280.5754503973527
 20
859.9689265456797
 30
0.0
  0
VERTEX
  5
51B
330
511
100
AcDbEntity
  8
Make2D$可见线$普通线
100
AcDbVertex
100
AcDb2dVertex
 10
280.3524551966104
 20
859.2340956687676
 30
0.0
  0
VERTEX
  5
51C
330
511
100
AcDbEntity
  8
Make2D$可见线$普通线
100
AcDbVertex
100
AcDb2dVertex
 10
280.1523059948362
 20
858.4960751629567
 30
0.0
  0
VERTEX
  5
51D
330
511
100
AcDbEntity
  8
Make2D$可见线$普通线
100
AcDbVertex
100
AcDb2dVertex
 10
279.9752085605393
 20
857.7552232059722
 30
0.0
  0
VERTEX
  5
51E
330
511
100
AcDbEntity
  8
Make2D$可见线$普通线
100
AcDbVertex
100
AcDb2dVertex
 10
279.8213686622291
 20
857.0118979755393
 30
0.0
  0
VERTEX
  5
51F
330
511
100
AcDbEntity
  8
Make2D$可见线$普通线
100
AcDbVertex
100
AcDb2dVertex
 10
279.6909920684152
 20
856.2664576493833
 30
0.0
  0
VERTEX
  5
520
330
511
100
AcDbEntity
  8
Make2D$可见线$普通线
100
AcDbVertex
100
AcDb2dVertex
 10
279.5842845476068
 20
855.5192604052291
 30
0.0
  0
VERTEX
  5
521
330
511
100
AcDbEntity
  8
Make2D$可见线$普通线
100
AcDbVertex
100
AcDb2dVertex
 10
279.5014518683135
 20
854.7706644208021
 30
0.0
  0
VERTEX
  5
522
330
511
100
AcDbEntity
  8
Make2D$可见线$普通线
100
AcDbVertex
100
AcDb2dVertex
 10
279.4426997990446
 20
854.0210278738274
 30
0.0
  0
VERTEX
  5
523
330
511
100
AcDbEntity
  8
Make2D$可见线$普通线
100
AcDbVertex
100
AcDb2dVertex
 10
279.5014518683135
 20
854.7706644208021
 30
0.0
  0
VERTEX
  5
524
330
511
100
AcDbEntity
  8
Make2D$可见线$普通线
100
AcDbVertex
100
AcDb2dVertex
 10
279.5842845476068
 20
855.5192604052291
 30
0.0
  0
VERTEX
  5
525
330
511
100
AcDbEntity
  8
Make2D$可见线$普通线
100
AcDbVertex
100
AcDb2dVertex
 10
279.6909920684152
 20
856.2664576493833
 30
0.0
  0
VERTEX
  5
526
330
511
100
AcDbEntity
  8
Make2D$可见线$普通线
100
AcDbVertex
100
AcDb2dVertex
 10
279.8213686622291
 20
857.0118979755393
 30
0.0
  0
VERTEX
  5
527
330
511
100
AcDbEntity
  8
Make2D$可见线$普通线
100
AcDbVertex
100
AcDb2dVertex
 10
279.9752085605393
 20
857.7552232059722
 30
0.0
  0
VERTEX
  5
528
330
511
100
AcDbEntity
  8
Make2D$可见线$普通线
100
AcDbVertex
100
AcDb2dVertex
 10
280.1523059948362
 20
858.4960751629567
 30
0.0
  0
VERTEX
  5
529
330
511
100
AcDbEntity
  8
Make2D$可见线$普通线
100
AcDbVertex
100
AcDb2dVertex
 10
280.3524551966104
 20
859.2340956687676
 30
0.0
  0
VERTEX
  5
52A
330
511
100
AcDbEntity
  8
Make2D$可见线$普通线
100
AcDbVertex
100
AcDb2dVertex
 10
280.5754503973527
 20
859.9689265456797
 30
0.0
  0
VERTEX
  5
52B
330
511
100
AcDbEntity
  8
Make2D$可见线$普通线
100
AcDbVertex
100
AcDb2dVertex
 10
280.8210858285536
 20
860.7002096159679
 30
0.0
  0
VERTEX
  5
52C
330
511
100
AcDbEntity
  8
Make2D$可见线$普通线
100
AcDbVertex
100
AcDb2dVertex
 10
281.0891557217035
 20
861.4275867019071
 30
0.0
  0
VERTEX
  5
52D
330
511
100
AcDbEntity
  8
Make2D$可见线$普通线
100
AcDbVertex
100
AcDb2dVertex
 10
281.3794543082932
 20
862.1506996257722
 30
0.0
  0
VERTEX
  5
52E
330
511
100
AcDbEntity
  8
Make2D$可见线$普通线
100
AcDbVertex
100
AcDb2dVertex
 10
281.6917758198133
 20
862.8691902098377
 30
0.0
  0
VERTEX
  5
52F
330
511
100
AcDbEntity
  8
Make2D$可见线$普通线
100
AcDbVertex
100
AcDb2dVertex
 10
282.0259144877543
 20
863.5827002763787
 30
0.0
  0
VERTEX
  5
530
330
511
100
AcDbEntity
  8
Make2D$可见线$普通线
100
AcDbVertex
100
AcDb2dVertex
 10
282.3816645436069
 20
864.29087164767
 30
0.0
  0
VERTEX
  5
531
330
511
100
AcDbEntity
  8
Make2D$可见线$普通线
100
AcDbVertex
100
AcDb2dVertex
 10
282.7588202188616
 20
864.9933461459864
 30
0.0
  0
VERTEX
  5
532
330
511
100
AcDbEntity
  8
Make2D$可见线$普通线
100
AcDbVertex
100
AcDb2dVertex
 10
283.1571757450089
 20
865.6897655936027
 30
0.0
  0
SEQEND
  5
533
330
511
100
AcDbEntity
  8
Make2D$可见线$普通线
  0
POLYLINE
  5
534
330
1F
100
AcDbEntity
  8
Make2D$可见线$普通线
100
AcDb2dPolyline
 66
     1
 10
0.0
 20
0.0
 30
0.0
  0
VERTEX
  5
535
330
534
100
AcDbEntity
  8
Make2D$可见线$普通线
100
AcDbVertex
100
AcDb2dVertex
 10
369.0561412963941
 20
865.6897655936027
 30
0.0
  0
VERTEX
  5
536
330
534
100
AcDbEntity
  8
Make2D$可见线$普通线
100
AcDbVertex
100
AcDb2dVertex
 10
369.4544968225414
 20
864.9933461459864
 30
0.0
  0
VERTEX
  5
537
330
534
100
AcDbEntity
  8
Make2D$可见线$普通线
100
AcDbVertex
100
AcDb2dVertex
 10
369.8316524977961
 20
864.29087164767
 30
0.0
  0
VERTEX
  5
538
330
534
100
AcDbEntity
  8
Make2D$可见线$普通线
100
AcDbVertex
100
AcDb2dVertex
 10
370.1874025536487
 20
863.5827002763787
 30
0.0
  0
VERTEX
  5
539
330
534
100
AcDbEntity
  8
Make2D$可见线$普通线
100
AcDbVertex
100
AcDb2dVertex
 10
370.5215412215898
 20
862.8691902098377
 30
0.0
  0
VERTEX
  5
53A
330
534
100
AcDbEntity
  8
Make2D$可见线$普通线
100
AcDbVertex
100
AcDb2dVertex
 10
370.8338627331099
 20
862.1506996257722
 30
0.0
  0
VERTEX
  5
53B
330
534
100
AcDbEntity
  8
Make2D$可见线$普通线
100
AcDbVertex
100
AcDb2dVertex
 10
371.1241613196997
 20
861.4275867019071
 30
0.0
  0
VERTEX
  5
53C
330
534
100
AcDbEntity
  8
Make2D$可见线$普通线
100
AcDbVertex
100
AcDb2dVertex
 10
371.3922312128498
 20
860.7002096159679
 30
0.0
  0
VERTEX
  5
53D
330
534
100
AcDbEntity
  8
Make2D$可见线$普通线
100
AcDbVertex
100
AcDb2dVertex
 10
371.6378666440506
 20
859.9689265456797
 30
0.0
  0
VERTEX
  5
53E
330
534
100
AcDbEntity
  8
Make2D$可见线$普通线
100
AcDbVertex
100
AcDb2dVertex
 10
371.860861844793
 20
859.2340956687676
 30
0.0
  0
VERTEX
  5
53F
330
534
100
AcDbEntity
  8
Make2D$可见线$普通线
100
AcDbVertex
100
AcDb2dVertex
 10
372.0610110465673
 20
858.4960751629567
 30
0.0
  0
VERTEX
  5
540
330
534
100
AcDbEntity
  8
Make2D$可见线$普通线
100
AcDbVertex
100
AcDb2dVertex
 10
372.2381084808643
 20
857.7552232059722
 30
0.0
  0
VERTEX
  5
541
330
534
100
AcDbEntity
  8
Make2D$可见线$普通线
100
AcDbVertex
100
AcDb2dVertex
 10
372.3919483791745
 20
857.0118979755393
 30
0.0
  0
VERTEX
  5
542
330
534
100
AcDbEntity
  8
Make2D$可见线$普通线
100
AcDbVertex
100
AcDb2dVertex
 10
372.5223249729885
 20
856.2664576493833
 30
0.0
  0
VERTEX
  5
543
330
534
100
AcDbEntity
  8
Make2D$可见线$普通线
100
AcDbVertex
100
AcDb2dVertex
 10
372.6290324937969
 20
855.5192604052291
 30
0.0
  0
VERTEX
  5
544
330
534
100
AcDbEntity
  8
Make2D$可见线$普通线
100
AcDbVertex
100
AcDb2dVertex
 10
372.7118651730902
 20
854.7706644208021
 30
0.0
  0
VERTEX
  5
545
330
534
100
AcDbEntity
  8
Make2D$可见线$普通线
100
AcDbVertex
100
AcDb2dVertex
 10
372.7706172423592
 20
854.0210278738274
 30
0.0
  0
VERTEX
  5
546
330
534
100
AcDbEntity
  8
Make2D$可见线$普通线
100
AcDbVertex
100
AcDb2dVertex
 10
372.7118651730902
 20
854.7706644208021
 30
0.0
  0
VERTEX
  5
547
330
534
100
AcDbEntity
  8
Make2D$可见线$普通线
100
AcDbVertex
100
AcDb2dVertex
 10
372.6290324937969
 20
855.5192604052291
 30
0.0
  0
VERTEX
  5
548
330
534
100
AcDbEntity
  8
Make2D$可见线$普通线
100
AcDbVertex
100
AcDb2dVertex
 10
372.5223249729885
 20
856.2664576493833
 30
0.0
  0
VERTEX
  5
549
330
534
100
AcDbEntity
  8
Make2D$可见线$普通线
100
AcDbVertex
100
AcDb2dVertex
 10
372.3919483791745
 20
857.0118979755393
 30
0.0
  0
VERTEX
  5
54A
330
534
100
AcDbEntity
  8
Make2D$可见线$普通线
100
AcDbVertex
100
AcDb2dVertex
 10
372.2381084808643
 20
857.7552232059722
 30
0.0
  0
VERTEX
  5
54B
330
534
100
AcDbEntity
  8
Make2D$可见线$普通线
100
AcDbVertex
100
AcDb2dVertex
 10
372.0610110465673
 20
858.4960751629567
 30
0.0
  0
VERTEX
  5
54C
330
534
100
AcDbEntity
  8
Make2D$可见线$普通线
100
AcDbVertex
100
AcDb2dVertex
 10
371.860861844793
 20
859.2340956687676
 30
0.0
  0
VERTEX
  5
54D
330
534
100
AcDbEntity
  8
Make2D$可见线$普通线
100
AcDbVertex
100
AcDb2dVertex
 10
371.6378666440506
 20
859.9689265456797
 30
0.0
  0
VERTEX
  5
54E
330
534
100
AcDbEntity
  8
Make2D$可见线$普通线
100
AcDbVertex
100
AcDb2dVertex
 10
371.3922312128498
 20
860.7002096159679
 30
0.0
  0
VERTEX
  5
54F
330
534
100
AcDbEntity
  8
Make2D$可见线$普通线
100
AcDbVertex
100
AcDb2dVertex
 10
371.1241613196997
 20
861.4275867019071
 30
0.0
  0
VERTEX
  5
550
330
534
100
AcDbEntity
  8
Make2D$可见线$普通线
100
AcDbVertex
100
AcDb2dVertex
 10
370.8338627331099
 20
862.1506996257722
 30
0.0
  0
VERTEX
  5
551
330
534
100
AcDbEntity
  8
Make2D$可见线$普通线
100
AcDbVertex
100
AcDb2dVertex
 10
370.5215412215898
 20
862.8691902098377
 30
0.0
  0
VERTEX
  5
552
330
534
100
AcDbEntity
  8
Make2D$可见线$普通线
100
AcDbVertex
100
AcDb2dVertex
 10
370.1874025536487
 20
863.5827002763787
 30
0.0
  0
VERTEX
  5
553
330
534
100
AcDbEntity
  8
Make2D$可见线$普通线
100
AcDbVertex
100
AcDb2dVertex
 10
369.8316524977961
 20
864.29087164767
 30
0.0
  0
VERTEX
  5
554
330
534
100
AcDbEntity
  8
Make2D$可见线$普通线
100
AcDbVertex
100
AcDb2dVertex
 10
369.4544968225414
 20
864.9933461459864
 30
0.0
  0
VERTEX
  5
555
330
534
100
AcDbEntity
  8
Make2D$可见线$普通线
100
AcDbVertex
100
AcDb2dVertex
 10
369.0561412963941
 20
865.6897655936027
 30
0.0
  0
SEQEND
  5
556
330
534
100
AcDbEntity
  8
Make2D$可见线$普通线
  0
POLYLINE
  5
557
330
1F
100
AcDbEntity
  8
预设值
100
AcDb2dPolyline
 66
     1
 10
0.0
 20
0.0
 30
0.0
  0
VERTEX
  5
558
330
557
100
AcDbEntity
  8
预设值
100
AcDbVertex
100
AcDb2dVertex
 10
292.3235742537427
 20
944.6278978688115
 30
0.0
 42
-0.0059284035488143
  0
VERTEX
  5
559
330
557
100
AcDbEntity
  8
预设值
100
AcDbVertex
100
AcDb2dVertex
 10
292.6653703805668
 20
955.432599409957
 30
0.0
  0
VERTEX
  5
55A
330
557
100
AcDbEntity
  8
预设值
100
AcDbVertex
100
AcDb2dVertex
 10
292.6862266624826
 20
955.9106349450173
 30
0.0
 42
-0.0060108599061848
  0
VERTEX
  5
55B
330
557
100
AcDbEntity
  8
预设值
100
AcDbVertex
100
AcDb2dVertex
 10
293.433135741531
 20
969.1256451930947
 30
0.0
  0
VERTEX
  5
55C
330
557
100
AcDbEntity
  8
预设值
100
AcDbVertex
100
AcDb2dVertex
 10
293.5293897044843
 20
970.5104522197132
 30
0.0
 42
-0.0038354799971337
  0
VERTEX
  5
55D
330
557
100
AcDbEntity
  8
预设值
100
AcDbVertex
100
AcDb2dVertex
 10
294.2454168838809
 20
979.6424742833756
 30
0.0
 42
-0.0028734222995641
  0
VERTEX
  5
55E
330
557
100
AcDbEntity
  8
预设值
100
AcDbVertex
100
AcDb2dVertex
 10
294.8643492604986
 20
986.3718871412146
 30
0.0
  0
SEQEND
  5
55F
330
557
100
AcDbEntity
  8
预设值
  0
POLYLINE
  5
560
330
1F
100
AcDbEntity
  8
预设值
100
AcDb2dPolyline
 66
     1
 10
0.0
 20
0.0
 30
0.0
  0
VERTEX
  5
561
330
560
100
AcDbEntity
  8
预设值
100
AcDbVertex
100
AcDb2dVertex
 10
307.2639368780433
 20
985.0951625127061
 30
0.0
 42
0.0028604428821334
  0
VERTEX
  5
562
330
560
100
AcDbEntity
  8
预设值
100
AcDbVertex
100
AcDb2dVertex
 10
306.6587363110973
 20
978.5146222882036
 30
0.0
 42
0.0038314662011671
  0
VERTEX
  5
563
330
560
100
AcDbEntity
  8
预设值
100
AcDbVertex
100
AcDb2dVertex
 10
305.9590442531421
 20
969.5930938272072
 30
0.0
  0
VERTEX
  5
564
330
560
100
AcDbEntity
  8
预设值
100
AcDbVertex
100
AcDb2dVertex
 10
305.8637480007544
 20
968.2222361573863
 30
0.0
 42
0.0060070375052127
  0
VERTEX
  5
565
330
560
100
AcDbEntity
  8
预设值
100
AcDbVertex
100
AcDb2dVertex
 10
305.1357604141074
 20
955.3460895421742
 30
0.0
  0
VERTEX
  5
566
330
560
100
AcDbEntity
  8
预设值
100
AcDbVertex
100
AcDb2dVertex
 10
305.1151395565871
 20
954.8736235015239
 30
0.0
 42
0.0057432873675589
  0
VERTEX
  5
567
330
560
100
AcDbEntity
  8
预设值
100
AcDbVertex
100
AcDb2dVertex
 10
304.7895579743133
 20
944.7030245369684
 30
0.0
  0
SEQEND
  5
568
330
560
100
AcDbEntity
  8
预设值
  0
POLYLINE
  5
569
330
1F
100
AcDbEntity
  8
预设值
100
AcDb2dPolyline
 66
     1
 10
0.0
 20
0.0
 30
0.0
  0
VERTEX
  5
56A
330
569
100
AcDbEntity
  8
预设值
100
AcDbVertex
100
AcDb2dVertex
 10
300.7066578583197
 20
944.4832691388974
 30
0.0
  0
VERTEX
  5
56B
330
569
100
AcDbEntity
  8
预设值
100
AcDbVertex
100
AcDb2dVertex
 10
301.5275875993117
 20
944.4940448555166
 30
0.0
  0
VERTEX
  5
56C
330
569
100
AcDbEntity
  8
预设值
100
AcDbVertex
100
AcDb2dVertex
 10
302.3958345640028
 20
944.5263720053741
 30
0.0
  0
VERTEX
  5
56D
330
569
100
AcDbEntity
  8
预设值
100
AcDbVertex
100
AcDb2dVertex
 10
303.3113987523931
 20
944.5802505884701
 30
0.0
  0
VERTEX
  5
56E
330
569
100
AcDbEntity
  8
预设值
100
AcDbVertex
100
AcDb2dVertex
 10
304.2742801644825
 20
944.6556806048043
 30
0.0
  0
VERTEX
  5
56F
330
569
100
AcDbEntity
  8
预设值
100
AcDbVertex
100
AcDb2dVertex
 10
305.2844788002711
 20
944.752662054377
 30
0.0
  0
VERTEX
  5
570
330
569
100
AcDbEntity
  8
预设值
100
AcDbVertex
100
AcDb2dVertex
 10
306.3419946597588
 20
944.871194937188
 30
0.0
  0
VERTEX
  5
571
330
569
100
AcDbEntity
  8
预设值
100
AcDbVertex
100
AcDb2dVertex
 10
307.4468277429456
 20
945.0112792532374
 30
0.0
  0
VERTEX
  5
572
330
569
100
AcDbEntity
  8
预设值
100
AcDbVertex
100
AcDb2dVertex
 10
308.5989780498317
 20
945.1729150025251
 30
0.0
  0
VERTEX
  5
573
330
569
100
AcDbEntity
  8
预设值
100
AcDbVertex
100
AcDb2dVertex
 10
309.7984455804169
 20
945.3561021850512
 30
0.0
  0
VERTEX
  5
574
330
569
100
AcDbEntity
  8
预设值
100
AcDbVertex
100
AcDb2dVertex
 10
311.0452303347012
 20
945.5608408008156
 30
0.0
  0
VERTEX
  5
575
330
569
100
AcDbEntity
  8
预设值
100
AcDbVertex
100
AcDb2dVertex
 10
312.3393323126847
 20
945.7871308498185
 30
0.0
  0
VERTEX
  5
576
330
569
100
AcDbEntity
  8
预设值
100
AcDbVertex
100
AcDb2dVertex
 10
313.6807515143673
 20
946.0349723320596
 30
0.0
  0
VERTEX
  5
577
330
569
100
AcDbEntity
  8
预设值
100
AcDbVertex
100
AcDb2dVertex
 10
315.069487939749
 20
946.3043652475392
 30
0.0
  0
VERTEX
  5
578
330
569
100
AcDbEntity
  8
预设值
100
AcDbVertex
100
AcDb2dVertex
 10
316.5055415888299
 20
946.5953095962572
 30
0.0
  0
VERTEX
  5
579
330
569
100
AcDbEntity
  8
预设值
100
AcDbVertex
100
AcDb2dVertex
 10
317.98891246161
 20
946.9078053782134
 30
0.0
  0
VERTEX
  5
57A
330
569
100
AcDbEntity
  8
预设值
100
AcDbVertex
100
AcDb2dVertex
 10
319.5196005580891
 20
947.2418525934081
 30
0.0
  0
VERTEX
  5
57B
330
569
100
AcDbEntity
  8
预设值
100
AcDbVertex
100
AcDb2dVertex
 10
320.3019460693257
 20
947.4144300704229
 30
0.0
  0
VERTEX
  5
57C
330
569
100
AcDbEntity
  8
预设值
100
AcDbVertex
100
AcDb2dVertex
 10
321.070254737273
 20
947.5653306521165
 30
0.0
  0
VERTEX
  5
57D
330
569
100
AcDbEntity
  8
预设值
100
AcDbVertex
100
AcDb2dVertex
 10
321.8245265619311
 20
947.6945543384885
 30
0.0
  0
VERTEX
  5
57E
330
569
100
AcDbEntity
  8
预设值
100
AcDbVertex
100
AcDb2dVertex
 10
322.5647615432999
 20
947.8021011295393
 30
0.0
  0
VERTEX
  5
57F
330
569
100
AcDbEntity
  8
预设值
100
AcDbVertex
100
AcDb2dVertex
 10
323.2909596813795
 20
947.8879710252688
 30
0.0
  0
VERTEX
  5
580
330
569
100
AcDbEntity
  8
预设值
100
AcDbVertex
100
AcDb2dVertex
 10
324.0031209761698
 20
947.952164025677
 30
0.0
  0
VERTEX
  5
581
330
569
100
AcDbEntity
  8
预设值
100
AcDbVertex
100
AcDb2dVertex
 10
324.701245427671
 20
947.9946801307638
 30
0.0
  0
VERTEX
  5
582
330
569
100
AcDbEntity
  8
预设值
100
AcDbVertex
100
AcDb2dVertex
 10
325.3853330358828
 20
948.0155193405292
 30
0.0
  0
VERTEX
  5
583
330
569
100
AcDbEntity
  8
预设值
100
AcDbVertex
100
AcDb2dVertex
 10
326.0553838008054
 20
948.0146816549732
 30
0.0
  0
VERTEX
  5
584
330
569
100
AcDbEntity
  8
预设值
100
AcDbVertex
100
AcDb2dVertex
 10
326.7113977224387
 20
947.992167074096
 30
0.0
  0
VERTEX
  5
585
330
569
100
AcDbEntity
  8
预设值
100
AcDbVertex
100
AcDb2dVertex
 10
327.034140867022
 20
947.9727809479118
 30
0.0
  0
VERTEX
  5
586
330
569
100
AcDbEntity
  8
预设值
100
AcDbVertex
100
AcDb2dVertex
 10
327.3533748007828
 20
947.9479755978973
 30
0.0
  0
VERTEX
  5
587
330
569
100
AcDbEntity
  8
预设值
100
AcDbVertex
100
AcDb2dVertex
 10
327.6690995237214
 20
947.9177510240526
 30
0.0
  0
VERTEX
  5
588
330
569
100
AcDbEntity
  8
预设值
100
AcDbVertex
100
AcDb2dVertex
 10
327.9813150358377
 20
947.8821072263775
 30
0.0
  0
VERTEX
  5
589
330
569
100
AcDbEntity
  8
预设值
100
AcDbVertex
100
AcDb2dVertex
 10
328.2900213371316
 20
947.841044204872
 30
0.0
  0
VERTEX
  5
58A
330
569
100
AcDbEntity
  8
预设值
100
AcDbVertex
100
AcDb2dVertex
 10
328.5952184276033
 20
947.7945619595362
 30
0.0
  0
VERTEX
  5
58B
330
569
100
AcDbEntity
  8
预设值
100
AcDbVertex
100
AcDb2dVertex
 10
328.8969063072526
 20
947.7426604903701
 30
0.0
  0
VERTEX
  5
58C
330
569
100
AcDbEntity
  8
预设值
100
AcDbVertex
100
AcDb2dVertex
 10
329.1950849760796
 20
947.6853397973737
 30
0.0
  0
VERTEX
  5
58D
330
569
100
AcDbEntity
  8
预设值
100
AcDbVertex
100
AcDb2dVertex
 10
329.4897544340843
 20
947.6225998805469
 30
0.0
  0
VERTEX
  5
58E
330
569
100
AcDbEntity
  8
预设值
100
AcDbVertex
100
AcDb2dVertex
 10
329.7809146812667
 20
947.5544407398897
 30
0.0
  0
VERTEX
  5
58F
330
569
100
AcDbEntity
  8
预设值
100
AcDbVertex
100
AcDb2dVertex
 10
330.0685657176267
 20
947.4808623754022
 30
0.0
  0
VERTEX
  5
590
330
569
100
AcDbEntity
  8
预设值
100
AcDbVertex
100
AcDb2dVertex
 10
330.3527075431645
 20
947.4018647870845
 30
0.0
 42
-0.1081603355032474
  0
VERTEX
  5
591
330
569
100
AcDbEntity
  8
预设值
100
AcDbVertex
100
AcDb2dVertex
 10
335.6840777091249
 20
944.3757045478458
 30
0.0
  0
SEQEND
  5
592
330
569
100
AcDbEntity
  8
预设值
  0
POLYLINE
  5
593
330
1F
100
AcDbEntity
  8
预设值
100
AcDb2dPolyline
 66
     1
 10
0.0
 20
0.0
 30
0.0
  0
VERTEX
  5
594
330
593
100
AcDbEntity
  8
预设值
100
AcDbVertex
100
AcDb2dVertex
 10
279.5252582440822
 20
945.7010276179014
 30
0.0
  0
VERTEX
  5
595
330
593
100
AcDbEntity
  8
预设值
100
AcDbVertex
100
AcDb2dVertex
 10
279.4068626922492
 20
945.860774019169
 30
0.0
  0
VERTEX
  5
596
330
593
100
AcDbEntity
  8
预设值
100
AcDbVertex
100
AcDb2dVertex
 10
279.2924652416382
 20
946.0211175861319
 30
0.0
  0
VERTEX
  5
597
330
593
100
AcDbEntity
  8
预设值
100
AcDbVertex
100
AcDb2dVertex
 10
279.1820658922493
 20
946.1820583187905
 30
0.0
  0
VERTEX
  5
598
330
593
100
AcDbEntity
  8
预设值
100
AcDbVertex
100
AcDb2dVertex
 10
279.0756646440826
 20
946.3435962171445
 30
0.0
  0
VERTEX
  5
599
330
593
100
AcDbEntity
  8
预设值
100
AcDbVertex
100
AcDb2dVertex
 10
278.9732614971379
 20
946.5057312811941
 30
0.0
  0
VERTEX
  5
59A
330
593
100
AcDbEntity
  8
预设值
100
AcDbVertex
100
AcDb2dVertex
 10
278.8748564514151
 20
946.6684635109392
 30
0.0
  0
VERTEX
  5
59B
330
593
100
AcDbEntity
  8
预设值
100
AcDbVertex
100
AcDb2dVertex
 10
278.7804495069145
 20
946.8317929063799
 30
0.0
  0
VERTEX
  5
59C
330
593
100
AcDbEntity
  8
预设值
100
AcDbVertex
100
AcDb2dVertex
 10
278.6900406636358
 20
946.995719467516
 30
0.0
  0
VERTEX
  5
59D
330
593
100
AcDbEntity
  8
预设值
100
AcDbVertex
100
AcDb2dVertex
 10
278.6036299215793
 20
947.1602431943477
 30
0.0
  0
VERTEX
  5
59E
330
593
100
AcDbEntity
  8
预设值
100
AcDbVertex
100
AcDb2dVertex
 10
278.5212172807448
 20
947.3253640868749
 30
0.0
  0
VERTEX
  5
59F
330
593
100
AcDbEntity
  8
预设值
100
AcDbVertex
100
AcDb2dVertex
 10
278.4428027411325
 20
947.4910821450975
 30
0.0
  0
VERTEX
  5
5A0
330
593
100
AcDbEntity
  8
预设值
100
AcDbVertex
100
AcDb2dVertex
 10
278.3683863027421
 20
947.6573973690157
 30
0.0
  0
VERTEX
  5
5A1
330
593
100
AcDbEntity
  8
预设值
100
AcDbVertex
100
AcDb2dVertex
 10
278.2979679655738
 20
947.8243097586294
 30
0.0
  0
VERTEX
  5
5A2
330
593
100
AcDbEntity
  8
预设值
100
AcDbVertex
100
AcDb2dVertex
 10
278.2315477296276
 20
947.9918193139387
 30
0.0
  0
VERTEX
  5
5A3
330
593
100
AcDbEntity
  8
预设值
100
AcDbVertex
100
AcDb2dVertex
 10
278.1691255949033
 20
948.1599260349435
 30
0.0
  0
VERTEX
  5
5A4
330
593
100
AcDbEntity
  8
预设值
100
AcDbVertex
100
AcDb2dVertex
 10
278.1107015614012
 20
948.3286299216438
 30
0.0
  0
VERTEX
  5
5A5
330
593
100
AcDbEntity
  8
预设值
100
AcDbVertex
100
AcDb2dVertex
 10
278.0562756291212
 20
948.4979309740397
 30
0.0
  0
VERTEX
  5
5A6
330
593
100
AcDbEntity
  8
预设值
100
AcDbVertex
100
AcDb2dVertex
 10
278.0058477980631
 20
948.6678291921311
 30
0.0
  0
VERTEX
  5
5A7
330
593
100
AcDbEntity
  8
预设值
100
AcDbVertex
100
AcDb2dVertex
 10
277.9594180682271
 20
948.8383245759179
 30
0.0
  0
VERTEX
  5
5A8
330
593
100
AcDbEntity
  8
预设值
100
AcDbVertex
100
AcDb2dVertex
 10
277.9169864396132
 20
949.0094171254003
 30
0.0
  0
VERTEX
  5
5A9
330
593
100
AcDbEntity
  8
预设值
100
AcDbVertex
100
AcDb2dVertex
 10
277.8785529122214
 20
949.1811068405782
 30
0.0
  0
VERTEX
  5
5AA
330
593
100
AcDbEntity
  8
预设值
100
AcDbVertex
100
AcDb2dVertex
 10
277.8441174860516
 20
949.3533937214517
 30
0.0
  0
VERTEX
  5
5AB
330
593
100
AcDbEntity
  8
预设值
100
AcDbVertex
100
AcDb2dVertex
 10
277.8136801611038
 20
949.5262777680207
 30
0.0
  0
VERTEX
  5
5AC
330
593
100
AcDbEntity
  8
预设值
100
AcDbVertex
100
AcDb2dVertex
 10
277.7872409373782
 20
949.6997589802852
 30
0.0
  0
VERTEX
  5
5AD
330
593
100
AcDbEntity
  8
预设值
100
AcDbVertex
100
AcDb2dVertex
 10
277.7647998148746
 20
949.8738373582453
 30
0.0
  0
VERTEX
  5
5AE
330
593
100
AcDbEntity
  8
预设值
100
AcDbVertex
100
AcDb2dVertex
 10
277.746356793593
 20
950.0485129019007
 30
0.0
  0
VERTEX
  5
5AF
330
593
100
AcDbEntity
  8
预设值
100
AcDbVertex
100
AcDb2dVertex
 10
277.7319118735334
 20
950.2237856112517
 30
0.0
  0
VERTEX
  5
5B0
330
593
100
AcDbEntity
  8
预设值
100
AcDbVertex
100
AcDb2dVertex
 10
277.721465054696
 20
950.3996554862983
 30
0.0
  0
VERTEX
  5
5B1
330
593
100
AcDbEntity
  8
预设值
100
AcDbVertex
100
AcDb2dVertex
 10
277.7150163370807
 20
950.5761225270405
 30
0.0
  0
VERTEX
  5
5B2
330
593
100
AcDbEntity
  8
预设值
100
AcDbVertex
100
AcDb2dVertex
 10
277.7125657206873
 20
950.7531867334781
 30
0.0
  0
VERTEX
  5
5B3
330
593
100
AcDbEntity
  8
预设值
100
AcDbVertex
100
AcDb2dVertex
 10
277.714113205516
 20
950.9308481056112
 30
0.0
  0
VERTEX
  5
5B4
330
593
100
AcDbEntity
  8
预设值
100
AcDbVertex
100
AcDb2dVertex
 10
277.7196587915668
 20
951.1091066434399
 30
0.0
  0
VERTEX
  5
5B5
330
593
100
AcDbEntity
  8
预设值
100
AcDbVertex
100
AcDb2dVertex
 10
279.6246587899917
 20
996.1941066434398
 30
0.0
  0
VERTEX
  5
5B6
330
593
100
AcDbEntity
  8
预设值
100
AcDbVertex
100
AcDb2dVertex
 10
259.3046587899917
 20
996.1941066434397
 30
0.0
  0
VERTEX
  5
5B7
330
593
100
AcDbEntity
  8
预设值
100
AcDbVertex
100
AcDb2dVertex
 10
261.2096587899918
 20
951.1091066434399
 30
0.0
  0
VERTEX
  5
5B8
330
593
100
AcDbEntity
  8
预设值
100
AcDbVertex
100
AcDb2dVertex
 10
261.2152044039468
 20
950.9308481424385
 30
0.0
  0
VERTEX
  5
5B9
330
593
100
AcDbEntity
  8
预设值
100
AcDbVertex
100
AcDb2dVertex
 10
261.2167519148826
 20
950.7531868047568
 30
0.0
  0
VERTEX
  5
5BA
330
593
100
AcDbEntity
  8
预设值
100
AcDbVertex
100
AcDb2dVertex
 10
261.2143013227993
 20
950.5761226303946
 30
0.0
  0
VERTEX
  5
5BB
330
593
100
AcDbEntity
  8
预设值
100
AcDbVertex
100
AcDb2dVertex
 10
261.2078526276968
 20
950.399655619352
 30
0.0
  0
VERTEX
  5
5BC
330
593
100
AcDbEntity
  8
预设值
100
AcDbVertex
100
AcDb2dVertex
 10
261.1974058295752
 20
950.2237857716289
 30
0.0
  0
VERTEX
  5
5BD
330
593
100
AcDbEntity
  8
预设值
100
AcDbVertex
100
AcDb2dVertex
 10
261.1829609284344
 20
950.0485130872254
 30
0.0
  0
VERTEX
  5
5BE
330
593
100
AcDbEntity
  8
预设值
100
AcDbVertex
100
AcDb2dVertex
 10
261.1645179242745
 20
949.8738375661414
 30
0.0
  0
VERTEX
  5
5BF
330
593
100
AcDbEntity
  8
预设值
100
AcDbVertex
100
AcDb2dVertex
 10
261.1420768170954
 20
949.6997592083771
 30
0.0
  0
VERTEX
  5
5C0
330
593
100
AcDbEntity
  8
预设值
100
AcDbVertex
100
AcDb2dVertex
 10
261.1156376068971
 20
949.5262780139324
 30
0.0
  0
VERTEX
  5
5C1
330
593
100
AcDbEntity
  8
预设值
100
AcDbVertex
100
AcDb2dVertex
 10
261.0852002936797
 20
949.3533939828071
 30
0.0
  0
VERTEX
  5
5C2
330
593
100
AcDbEntity
  8
预设值
100
AcDbVertex
100
AcDb2dVertex
 10
261.0507648774432
 20
949.1811071150015
 30
0.0
  0
VERTEX
  5
5C3
330
593
100
AcDbEntity
  8
预设值
100
AcDbVertex
100
AcDb2dVertex
 10
261.0123313581875
 20
949.0094174105154
 30
0.0
  0
VERTEX
  5
5C4
330
593
100
AcDbEntity
  8
预设值
100
AcDbVertex
100
AcDb2dVertex
 10
260.9698997359126
 20
948.8383248693489
 30
0.0
  0
VERTEX
  5
5C5
330
593
100
AcDbEntity
  8
预设值
100
AcDbVertex
100
AcDb2dVertex
 10
260.9234700106185
 20
948.6678294915018
 30
0.0
  0
VERTEX
  5
5C6
330
593
100
AcDbEntity
  8
预设值
100
AcDbVertex
100
AcDb2dVertex
 10
260.8730421823054
 20
948.4979312769744
 30
0.0
  0
VERTEX
  5
5C7
330
593
100
AcDbEntity
  8
预设值
100
AcDbVertex
100
AcDb2dVertex
 10
260.8186162509731
 20
948.3286302257666
 30
0.0
  0
VERTEX
  5
5C8
330
593
100
AcDbEntity
  8
预设值
100
AcDbVertex
100
AcDb2dVertex
 10
260.7601922166216
 20
948.1599263378782
 30
0.0
  0
VERTEX
  5
5C9
330
593
100
AcDbEntity
  8
预设值
100
AcDbVertex
100
AcDb2dVertex
 10
260.697770079251
 20
947.9918196133095
 30
0.0
  0
VERTEX
  5
5CA
330
593
100
AcDbEntity
  8
预设值
100
AcDbVertex
100
AcDb2dVertex
 10
260.6313498388613
 20
947.8243100520604
 30
0.0
  0
VERTEX
  5
5CB
330
593
100
AcDbEntity
  8
预设值
100
AcDbVertex
100
AcDb2dVertex
 10
260.5609314954523
 20
947.6573976541307
 30
0.0
  0
VERTEX
  5
5CC
330
593
100
AcDbEntity
  8
预设值
100
AcDbVertex
100
AcDb2dVertex
 10
260.4865150490243
 20
947.4910824195206
 30
0.0
  0
VERTEX
  5
5CD
330
593
100
AcDbEntity
  8
预设值
100
AcDbVertex
100
AcDb2dVertex
 10
260.408100499577
 20
947.3253643482301
 30
0.0
  0
VERTEX
  5
5CE
330
593
100
AcDbEntity
  8
预设值
100
AcDbVertex
100
AcDb2dVertex
 10
260.3256878471107
 20
947.1602434402593
 30
0.0
  0
VERTEX
  5
5CF
330
593
100
AcDbEntity
  8
预设值
100
AcDbVertex
100
AcDb2dVertex
 10
260.2392770916251
 20
946.9957196956079
 30
0.0
  0
VERTEX
  5
5D0
330
593
100
AcDbEntity
  8
预设值
100
AcDbVertex
100
AcDb2dVertex
 10
260.1488682331204
 20
946.8317931142761
 30
0.0
  0
VERTEX
  5
5D1
330
593
100
AcDbEntity
  8
预设值
100
AcDbVertex
100
AcDb2dVertex
 10
260.0544612715966
 20
946.6684636962639
 30
0.0
  0
VERTEX
  5
5D2
330
593
100
AcDbEntity
  8
预设值
100
AcDbVertex
100
AcDb2dVertex
 10
259.9560562070536
 20
946.5057314415712
 30
0.0
  0
VERTEX
  5
5D3
330
593
100
AcDbEntity
  8
预设值
100
AcDbVertex
100
AcDb2dVertex
 10
259.8536530394915
 20
946.3435963501981
 30
0.0
  0
VERTEX
  5
5D4
330
593
100
AcDbEntity
  8
预设值
100
AcDbVertex
100
AcDb2dVertex
 10
259.7472517689102
 20
946.1820584221446
 30
0.0
  0
VERTEX
  5
5D5
330
593
100
AcDbEntity
  8
预设值
100
AcDbVertex
100
AcDb2dVertex
 10
259.6368523953097
 20
946.0211176574106
 30
0.0
  0
VERTEX
  5
5D6
330
593
100
AcDbEntity
  8
预设值
100
AcDbVertex
100
AcDb2dVertex
 10
259.5224549186901
 20
945.8607740559962
 30
0.0
  0
VERTEX
  5
5D7
330
593
100
AcDbEntity
  8
预设值
100
AcDbVertex
100
AcDb2dVertex
 10
259.4040593390513
 20
945.7010276179014
 30
0.0
  0
SEQEND
  5
5D8
330
593
100
AcDbEntity
  8
预设值
  0
ARC
  5
5D9
330
1F
100
AcDbEntity
  8
预设值
100
AcDbCircle
 10
269.4646587899917
 20
933.7101066434398
 30
0.0
 40
15.65240707137555
100
AcDbArc
 50
111.8960937949209
 51
68.10390619734144
  0
POLYLINE
  5
5DA
330
1F
100
AcDbEntity
  8
Make2D$可见线$普通线
100
AcDb2dPolyline
 66
     1
 10
0.0
 20
0.0
 30
0.0
  0
VERTEX
  5
5DB
330
5DA
100
AcDbEntity
  8
Make2D$可见线$普通线
100
AcDbVertex
100
AcDb2dVertex
 10
263.6274923112967
 20
943.507653992959
 30
0.0
  0
VERTEX
  5
5DC
330
5DA
100
AcDbEntity
  8
Make2D$可见线$普通线
100
AcDbVertex
100
AcDb2dVertex
 10
263.6274923112967
 20
951.1091066434398
 30
0.0
  0
VERTEX
  5
5DD
330
5DA
100
AcDbEntity
  8
Make2D$可见线$普通线
100
AcDbVertex
100
AcDb2dVertex
 10
275.3018252718367
 20
951.1091066434398
 30
0.0
  0
VERTEX
  5
5DE
330
5DA
100
AcDbEntity
  8
Make2D$可见线$普通线
100
AcDbVertex
100
AcDb2dVertex
 10
275.3018252686866
 20
943.507653992959
 30
0.0
  0
SEQEND
  5
5DF
330
5DA
100
AcDbEntity
  8
Make2D$可见线$普通线
  0
POLYLINE
  5
5E0
330
1F
100
AcDbEntity
  8
预设值
100
AcDb2dPolyline
 66
     1
 10
0.0
 20
0.0
 30
0.0
  0
VERTEX
  5
5E1
330
5E0
100
AcDbEntity
  8
预设值
100
AcDbVertex
100
AcDb2dVertex
 10
273.9481439137062
 20
918.7135667667387
 30
0.0
  0
VERTEX
  5
5E2
330
5E0
100
AcDbEntity
  8
预设值
100
AcDbVertex
100
AcDb2dVertex
 10
281.0834283762376
 20
920.7844457733978
 30
0.0
 42
-0.0656898733728089
  0
VERTEX
  5
5E3
330
5E0
100
AcDbEntity
  8
预设值
100
AcDbVertex
100
AcDb2dVertex
 10
299.9001351274811
 20
923.8079187592904
 30
0.0
  0
VERTEX
  5
5E4
330
5E0
100
AcDbEntity
  8
预设值
100
AcDbVertex
100
AcDb2dVertex
 10
300.7066578583197
 20
923.8306099649565
 30
0.0
  0
VERTEX
  5
5E5
330
5E0
100
AcDbEntity
  8
预设值
100
AcDbVertex
100
AcDb2dVertex
 10
300.7066578583196
 20
944.4832691388975
 30
0.0
 42
-0.0684888606209433
  0
VERTEX
  5
5E6
330
5E0
100
AcDbEntity
  8
预设值
100
AcDbVertex
100
AcDb2dVertex
 10
281.0834283846161
 20
946.6357675064902
 30
0.0
  0
VERTEX
  5
5E7
330
5E0
100
AcDbEntity
  8
预设值
100
AcDbVertex
100
AcDb2dVertex
 10
280.7260028182848
 20
946.8357387131266
 30
0.0
  0
VERTEX
  5
5E8
330
5E0
100
AcDbEntity
  8
预设值
100
AcDbVertex
100
AcDb2dVertex
 10
280.3899187496048
 20
947.0329974047118
 30
0.0
  0
VERTEX
  5
5E9
330
5E0
100
AcDbEntity
  8
预设值
100
AcDbVertex
100
AcDb2dVertex
 10
280.0751761785764
 20
947.2275435812455
 30
0.0
  0
VERTEX
  5
5EA
330
5E0
100
AcDbEntity
  8
预设值
100
AcDbVertex
100
AcDb2dVertex
 10
279.7817751051995
 20
947.419377242728
 30
0.0
  0
VERTEX
  5
5EB
330
5E0
100
AcDbEntity
  8
预设值
100
AcDbVertex
100
AcDb2dVertex
 10
279.509715529474
 20
947.6084983891593
 30
0.0
  0
VERTEX
  5
5EC
330
5E0
100
AcDbEntity
  8
预设值
100
AcDbVertex
100
AcDb2dVertex
 10
279.2589974514
 20
947.7949070205392
 30
0.0
  0
VERTEX
  5
5ED
330
5E0
100
AcDbEntity
  8
预设值
100
AcDbVertex
100
AcDb2dVertex
 10
279.1416414739823
 20
947.8870941430849
 30
0.0
  0
VERTEX
  5
5EE
330
5E0
100
AcDbEntity
  8
预设值
100
AcDbVertex
100
AcDb2dVertex
 10
279.0296208709775
 20
947.9786031368678
 30
0.0
  0
VERTEX
  5
5EF
330
5E0
100
AcDbEntity
  8
预设值
100
AcDbVertex
100
AcDb2dVertex
 10
278.9229356423856
 20
948.0694340018879
 30
0.0
  0
VERTEX
  5
5F0
330
5E0
100
AcDbEntity
  8
预设值
100
AcDbVertex
100
AcDb2dVertex
 10
278.8215857882065
 20
948.1595867381452
 30
0.0
  0
VERTEX
  5
5F1
330
5E0
100
AcDbEntity
  8
预设值
100
AcDbVertex
100
AcDb2dVertex
 10
278.7255713084403
 20
948.2490613456396
 30
0.0
  0
VERTEX
  5
5F2
330
5E0
100
AcDbEntity
  8
预设值
100
AcDbVertex
100
AcDb2dVertex
 10
278.634892203087
 20
948.3378578243712
 30
0.0
  0
VERTEX
  5
5F3
330
5E0
100
AcDbEntity
  8
预设值
100
AcDbVertex
100
AcDb2dVertex
 10
278.5495484721465
 20
948.42597617434
 30
0.0
  0
VERTEX
  5
5F4
330
5E0
100
AcDbEntity
  8
预设值
100
AcDbVertex
100
AcDb2dVertex
 10
278.4695401156189
 20
948.5134163955461
 30
0.0
  0
VERTEX
  5
5F5
330
5E0
100
AcDbEntity
  8
预设值
100
AcDbVertex
100
AcDb2dVertex
 10
278.3948671335042
 20
948.6001784879893
 30
0.0
  0
VERTEX
  5
5F6
330
5E0
100
AcDbEntity
  8
预设值
100
AcDbVertex
100
AcDb2dVertex
 10
278.3255295258024
 20
948.6862624516696
 30
0.0
  0
VERTEX
  5
5F7
330
5E0
100
AcDbEntity
  8
预设值
100
AcDbVertex
100
AcDb2dVertex
 10
278.2928614873563
 20
948.7290501352237
 30
0.0
  0
VERTEX
  5
5F8
330
5E0
100
AcDbEntity
  8
预设值
100
AcDbVertex
100
AcDb2dVertex
 10
278.2615272925134
 20
948.7716682865871
 30
0.0
  0
VERTEX
  5
5F9
330
5E0
100
AcDbEntity
  8
预设值
100
AcDbVertex
100
AcDb2dVertex
 10
278.2315269412738
 20
948.8141169057599
 30
0.0
  0
VERTEX
  5
5FA
330
5E0
100
AcDbEntity
  8
预设值
100
AcDbVertex
100
AcDb2dVertex
 10
278.2028604336373
 20
948.8563959927419
 30
0.0
  0
VERTEX
  5
5FB
330
5E0
100
AcDbEntity
  8
预设值
100
AcDbVertex
100
AcDb2dVertex
 10
278.1755277696041
 20
948.8985055475332
 30
0.0
  0
VERTEX
  5
5FC
330
5E0
100
AcDbEntity
  8
预设值
100
AcDbVertex
100
AcDb2dVertex
 10
278.1495289491742
 20
948.9404455701338
 30
0.0
  0
VERTEX
  5
5FD
330
5E0
100
AcDbEntity
  8
预设值
100
AcDbVertex
100
AcDb2dVertex
 10
278.1248639723474
 20
948.9822160605437
 30
0.0
  0
VERTEX
  5
5FE
330
5E0
100
AcDbEntity
  8
预设值
100
AcDbVertex
100
AcDb2dVertex
 10
278.1015328391238
 20
949.0238170187629
 30
0.0
  0
VERTEX
  5
5FF
330
5E0
100
AcDbEntity
  8
预设值
100
AcDbVertex
100
AcDb2dVertex
 10
278.0795355495035
 20
949.0652484447913
 30
0.0
  0
VERTEX
  5
600
330
5E0
100
AcDbEntity
  8
预设值
100
AcDbVertex
100
AcDb2dVertex
 10
278.0588721034864
 20
949.106510338629
 30
0.0
  0
VERTEX
  5
601
330
5E0
100
AcDbEntity
  8
预设值
100
AcDbVertex
100
AcDb2dVertex
 10
278.0395425010724
 20
949.1476027002761
 30
0.0
  0
VERTEX
  5
602
330
5E0
100
AcDbEntity
  8
预设值
100
AcDbVertex
100
AcDb2dVertex
 10
278.0215467422617
 20
949.1885255297326
 30
0.0
  0
VERTEX
  5
603
330
5E0
100
AcDbEntity
  8
预设值
100
AcDbVertex
100
AcDb2dVertex
 10
278.0048848270542
 20
949.2292788269983
 30
0.0
  0
VERTEX
  5
604
330
5E0
100
AcDbEntity
  8
预设值
100
AcDbVertex
100
AcDb2dVertex
 10
277.9895567554499
 20
949.2698625920732
 30
0.0
  0
VERTEX
  5
605
330
5E0
100
AcDbEntity
  8
预设值
100
AcDbVertex
100
AcDb2dVertex
 10
277.9755625274489
 20
949.3102768249574
 30
0.0
  0
VERTEX
  5
606
330
5E0
100
AcDbEntity
  8
预设值
100
AcDbVertex
100
AcDb2dVertex
 10
277.9629021430511
 20
949.350521525651
 30
0.0
  0
VERTEX
  5
607
330
5E0
100
AcDbEntity
  8
预设值
100
AcDbVertex
100
AcDb2dVertex
 10
277.9515756022565
 20
949.3905966941538
 30
0.0
  0
VERTEX
  5
608
330
5E0
100
AcDbEntity
  8
预设值
100
AcDbVertex
100
AcDb2dVertex
 10
277.9415829050652
 20
949.430502330466
 30
0.0
  0
VERTEX
  5
609
330
5E0
100
AcDbEntity
  8
预设值
100
AcDbVertex
100
AcDb2dVertex
 10
277.932924051477
 20
949.4702384345874
 30
0.0
  0
VERTEX
  5
60A
330
5E0
100
AcDbEntity
  8
预设值
100
AcDbVertex
100
AcDb2dVertex
 10
277.925599041492
 20
949.509805006518
 30
0.0
  0
SEQEND
  5
60B
330
5E0
100
AcDbEntity
  8
预设值
  0
CIRCLE
  5
60C
330
1F
100
AcDbEntity
  8
预设值
100
AcDbCircle
 10
269.4646587899917
 20
933.7101066434398
 30
0.0
 40
11.40458006969435
  0
CIRCLE
  5
60D
330
1F
100
AcDbEntity
  8
Make2D$可见线$普通线
100
AcDbCircle
 10
303.1066587899919
 20
995.7101066434398
 30
0.0
 40
11.39999999999964
  0
ENDSEC
  0
SECTION
  2
OBJECTS
  0
DICTIONARY
  5
C
330
0
100
AcDbDictionary
281
     1
  3
ACAD_GROUP
350
D
  3
ACAD_LAYOUT
350
1A
  3
ACAD_MATERIAL
350
3B
  3
ACAD_MLEADERSTYLE
350
638
  3
ACAD_MLINESTYLE
350
17
  3
ACAD_PLOTSETTINGS
350
19
  3
ACAD_PLOTSTYLENAME
350
E
  3
ACAD_SCALELIST
350
3F
  3
ACAD_TABLESTYLE
350
637
  3
ACAD_VISUALSTYLE
350
2A
  3
AcDbVariableDictionary
350
60E
  0
DICTIONARY
  5
D
102
{ACAD_REACTORS
330
C
102
}
330
C
100
AcDbDictionary
281
     1
  0
DICTIONARY
  5
1A
102
{ACAD_REACTORS
330
C
102
}
330
C
100
AcDbDictionary
281
     1
  3
Layout1
350
1E
  3
Layout2
350
26
  3
Model
350
22
  0
DICTIONARY
  5
3B
102
{ACAD_REACTORS
330
C
102
}
330
C
100
AcDbDictionary
281
     1
  3
ByBlock
350
3D
  3
ByLayer
350
3C
  3
Global
350
3E
  0
DICTIONARY
  5
638
102
{ACAD_REACTORS
330
C
102
}
330
C
100
AcDbDictionary
281
     1
  0
DICTIONARY
  5
17
102
{ACAD_REACTORS
330
C
102
}
330
C
100
AcDbDictionary
281
     1
  3
Standard
350
18
  0
DICTIONARY
  5
19
102
{ACAD_REACTORS
330
C
102
}
330
C
100
AcDbDictionary
281
     1
  0
ACDBDICTIONARYWDFLT
  5
E
102
{ACAD_REACTORS
330
C
102
}
330
C
100
AcDbDictionary
281
     1
  3
Normal
350
F
100
AcDbDictionaryWithDefault
340
F
  0
DICTIONARY
  5
3F
102
{ACAD_REACTORS
330
C
102
}
330
C
100
AcDbDictionary
281
     1
  3
A0
350
40
  3
A1
350
41
  3
A2
350
42
  3
A3
350
43
  3
A4
350
44
  3
A5
350
45
  3
A6
350
46
  3
A7
350
47
  3
A8
350
48
  3
A9
350
49
  3
B0
350
4A
  3
B1
350
4B
  3
B2
350
4C
  3
B3
350
4D
  3
B4
350
4E
  3
B5
350
4F
  3
B6
350
50
  3
B7
350
51
  3
B8
350
52
  3
B9
350
53
  3
C0
350
54
  3
C1
350
55
  3
C2
350
56
  3
C3
350
57
  3
C4
350
58
  3
C5
350
59
  3
C6
350
5A
  3
C7
350
5B
  3
C8
350
5C
  3
C9
350
5D
  3
D0
350
5E
  3
D1
350
5F
  3
D2
350
60
  0
DICTIONARY
  5
637
102
{ACAD_REACTORS
330
C
102
}
330
C
100
AcDbDictionary
281
     1
  0
DICTIONARY
  5
2A
102
{ACAD_REACTORS
330
C
102
}
330
C
100
AcDbDictionary
281
     1
  3
2dWireframe
350
2F
  3
3D Hidden
350
31
  3
3dWireframe
350
30
  3
Basic
350
32
  3
Brighten
350
36
  3
ColorChange
350
3A
  3
Conceptual
350
34
  3
Dim
350
35
  3
Facepattern
350
39
  3
Flat
350
2B
  3
FlatWithEdges
350
2C
  3
Gouraud
350
2D
  3
GouraudWithEdges
350
2E
  3
Linepattern
350
38
  3
Realistic
350
33
  3
Thicken
350
37
  0
DICTIONARY
  5
60E
102
{ACAD_REACTORS
330
C
102
}
330
C
100
AcDbDictionary
281
     1
  3
CANNOSCALE
350
60F
  3
MSLTSCALE
350
610
  0
LAYOUT
  5
1E
102
{ACAD_REACTORS
330
1A
102
}
330
1A
100
AcDbPlotSettings
  1

  2
none_device
  4

  6

 40
0.0
 41
0.0
 42
0.0
 43
0.0
 44
0.0
 45
0.0
 46
0.0
 47
0.0
 48
0.0
 49
0.0
140
0.0
141
0.0
142
1.0
143
1.0
 70
   688
 72
     0
 73
     0
 74
     5
  7

 75
    16
 76
     0
 77
     2
 78
   300
147
1.0
148
0.0
149
0.0
100
AcDbLayout
  1
Layout1
 70
     1
 71
     1
 10
0.0
 20
0.0
 11
12.0
 21
9.0
 12
0.0
 22
0.0
 32
0.0
 14
1.000000000000000E+20
 24
1.000000000000000E+20
 34
1.000000000000000E+20
 15
-1.000000000000000E+20
 25
-1.000000000000000E+20
 35
-1.000000000000000E+20
146
0.0
 13
0.0
 23
0.0
 33
0.0
 16
1.0
 26
0.0
 36
0.0
 17
0.0
 27
1.0
 37
0.0
 76
     0
330
1B
  0
LAYOUT
  5
26
102
{ACAD_REACTORS
330
1A
102
}
330
1A
100
AcDbPlotSettings
  1

  2
none_device
  4

  6

 40
0.0
 41
0.0
 42
0.0
 43
0.0
 44
0.0
 45
0.0
 46
0.0
 47
0.0
 48
0.0
 49
0.0
140
0.0
141
0.0
142
1.0
143
1.0
 70
   688
 72
     0
 73
     0
 74
     5
  7

 75
    16
 76
     0
 77
     2
 78
   300
147
1.0
148
0.0
149
0.0
100
AcDbLayout
  1
Layout2
 70
     1
 71
     2
 10
0.0
 20
0.0
 11
0.0
 21
0.0
 12
0.0
 22
0.0
 32
0.0
 14
0.0
 24
0.0
 34
0.0
 15
0.0
 25
0.0
 35
0.0
146
0.0
 13
0.0
 23
0.0
 33
0.0
 16
1.0
 26
0.0
 36
0.0
 17
0.0
 27
1.0
 37
0.0
 76
     0
330
23
  0
LAYOUT
  5
22
102
{ACAD_REACTORS
330
1A
102
}
330
1A
100
AcDbPlotSettings
  1

  2
none_device
  4
Letter_(8.50_x_11.00_Inches)
  6

 40
6.35
 41
6.35
 42
6.35000508
 43
6.35000508
 44
215.9
 45
279.4
 46
0.0
 47
0.0
 48
0.0
 49
0.0
140
0.0
141
0.0
142
1.0
143
1.0
 70
  1712
 72
     0
 73
     0
 74
     0
  7

 75
     0
 76
     0
 77
     2
 78
   300
147
1.0
148
0.0
149
0.0
100
AcDbLayout
  1
Model
 70
     1
 71
     0
 10
0.0
 20
0.0
 11
12.0
 21
9.0
 12
0.0
 22
0.0
 32
0.0
 14
253.8122517186162
 24
792.0091317073955
 34
0.0
 15
394.5166041504722
 25
1007.110106643439
 35
0.0
146
0.0
 13
0.0
 23
0.0
 33
0.0
 16
1.0
 26
0.0
 36
0.0
 17
0.0
 27
1.0
 37
0.0
 76
     0
330
1F
331
29
  0
MATERIAL
  5
3D
102
{ACAD_REACTORS
330
3B
102
}
102
{ACAD_XDICTIONARY
360
633
102
}
330
3B
100
AcDbMaterial
  1
ByBlock
  0
MATERIAL
  5
3C
102
{ACAD_REACTORS
330
3B
102
}
102
{ACAD_XDICTIONARY
360
631
102
}
330
3B
100
AcDbMaterial
  1
ByLayer
  0
MATERIAL
  5
3E
102
{ACAD_REACTORS
330
3B
102
}
102
{ACAD_XDICTIONARY
360
635
102
}
330
3B
100
AcDbMaterial
  1
Global
  0
MLINESTYLE
  5
18
102
{ACAD_REACTORS
330
17
102
}
330
17
100
AcDbMlineStyle
  2
Standard
 70
     0
  3

 62
   256
 51
90.0
 52
90.0
 71
     2
 49
0.5
 62
   256
  6
BYLAYER
 49
-0.5
 62
   256
  6
BYLAYER
  0
ACDBPLACEHOLDER
  5
F
102
{ACAD_REACTORS
330
E
102
}
330
E
  0
SCALE
  5
40
102
{ACAD_REACTORS
330
3F
102
}
330
3F
100
AcDbScale
 70
     0
300
1:1
140
1.0
141
1.0
290
     1
  0
SCALE
  5
41
102
{ACAD_REACTORS
330
3F
102
}
330
3F
100
AcDbScale
 70
     0
300
1:2
140
1.0
141
2.0
290
     0
  0
SCALE
  5
42
102
{ACAD_REACTORS
330
3F
102
}
330
3F
100
AcDbScale
 70
     0
300
1:4
140
1.0
141
4.0
290
     0
  0
SCALE
  5
43
102
{ACAD_REACTORS
330
3F
102
}
330
3F
100
AcDbScale
 70
     0
300
1:5
140
1.0
141
5.0
290
     0
  0
SCALE
  5
44
102
{ACAD_REACTORS
330
3F
102
}
330
3F
100
AcDbScale
 70
     0
300
1:8
140
1.0
141
8.0
290
     0
  0
SCALE
  5
45
102
{ACAD_REACTORS
330
3F
102
}
330
3F
100
AcDbScale
 70
     0
300
1:10
140
1.0
141
10.0
290
     0
  0
SCALE
  5
46
102
{ACAD_REACTORS
330
3F
102
}
330
3F
100
AcDbScale
 70
     0
300
1:16
140
1.0
141
16.0
290
     0
  0
SCALE
  5
47
102
{ACAD_REACTORS
330
3F
102
}
330
3F
100
AcDbScale
 70
     0
300
1:20
140
1.0
141
20.0
290
     0
  0
SCALE
  5
48
102
{ACAD_REACTORS
330
3F
102
}
330
3F
100
AcDbScale
 70
     0
300
1:30
140
1.0
141
30.0
290
     0
  0
SCALE
  5
49
102
{ACAD_REACTORS
330
3F
102
}
330
3F
100
AcDbScale
 70
     0
300
1:40
140
1.0
141
40.0
290
     0
  0
SCALE
  5
4A
102
{ACAD_REACTORS
330
3F
102
}
330
3F
100
AcDbScale
 70
     0
300
1:50
140
1.0
141
50.0
290
     0
  0
SCALE
  5
4B
102
{ACAD_REACTORS
330
3F
102
}
330
3F
100
AcDbScale
 70
     0
300
1:100
140
1.0
141
100.0
290
     0
  0
SCALE
  5
4C
102
{ACAD_REACTORS
330
3F
102
}
330
3F
100
AcDbScale
 70
     0
300
2:1
140
2.0
141
1.0
290
     0
  0
SCALE
  5
4D
102
{ACAD_REACTORS
330
3F
102
}
330
3F
100
AcDbScale
 70
     0
300
4:1
140
4.0
141
1.0
290
     0
  0
SCALE
  5
4E
102
{ACAD_REACTORS
330
3F
102
}
330
3F
100
AcDbScale
 70
     0
300
8:1
140
8.0
141
1.0
290
     0
  0
SCALE
  5
4F
102
{ACAD_REACTORS
330
3F
102
}
330
3F
100
AcDbScale
 70
     0
300
10:1
140
10.0
141
1.0
290
     0
  0
SCALE
  5
50
102
{ACAD_REACTORS
330
3F
102
}
330
3F
100
AcDbScale
 70
     0
300
100:1
140
100.0
141
1.0
290
     0
  0
SCALE
  5
51
102
{ACAD_REACTORS
330
3F
102
}
330
3F
100
AcDbScale
 70
     0
300
1/128" = 1'-0"
140
0.0078125
141
12.0
290
     0
  0
SCALE
  5
52
102
{ACAD_REACTORS
330
3F
102
}
330
3F
100
AcDbScale
 70
     0
300
1/64" = 1'-0"
140
0.015625
141
12.0
290
     0
  0
SCALE
  5
53
102
{ACAD_REACTORS
330
3F
102
}
330
3F
100
AcDbScale
 70
     0
300
1/32" = 1'-0"
140
0.03125
141
12.0
290
     0
  0
SCALE
  5
54
102
{ACAD_REACTORS
330
3F
102
}
330
3F
100
AcDbScale
 70
     0
300
1/16" = 1'-0"
140
0.0625
141
12.0
290
     0
  0
SCALE
  5
55
102
{ACAD_REACTORS
330
3F
102
}
330
3F
100
AcDbScale
 70
     0
300
3/32" = 1'-0"
140
0.09375
141
12.0
290
     0
  0
SCALE
  5
56
102
{ACAD_REACTORS
330
3F
102
}
330
3F
100
AcDbScale
 70
     0
300
1/8" = 1'-0"
140
0.125
141
12.0
290
     0
  0
SCALE
  5
57
102
{ACAD_REACTORS
330
3F
102
}
330
3F
100
AcDbScale
 70
     0
300
3/16" = 1'-0"
140
0.1875
141
12.0
290
     0
  0
SCALE
  5
58
102
{ACAD_REACTORS
330
3F
102
}
330
3F
100
AcDbScale
 70
     0
300
1/4" = 1'-0"
140
0.25
141
12.0
290
     0
  0
SCALE
  5
59
102
{ACAD_REACTORS
330
3F
102
}
330
3F
100
AcDbScale
 70
     0
300
3/8" = 1'-0"
140
0.375
141
12.0
290
     0
  0
SCALE
  5
5A
102
{ACAD_REACTORS
330
3F
102
}
330
3F
100
AcDbScale
 70
     0
300
1/2" = 1'-0"
140
0.5
141
12.0
290
     0
  0
SCALE
  5
5B
102
{ACAD_REACTORS
330
3F
102
}
330
3F
100
AcDbScale
 70
     0
300
3/4" = 1'-0"
140
0.75
141
12.0
290
     0
  0
SCALE
  5
5C
102
{ACAD_REACTORS
330
3F
102
}
330
3F
100
AcDbScale
 70
     0
300
1" = 1'-0"
140
1.0
141
12.0
290
     0
  0
SCALE
  5
5D
102
{ACAD_REACTORS
330
3F
102
}
330
3F
100
AcDbScale
 70
     0
300
1-1/2" = 1'-0"
140
1.5
141
12.0
290
     0
  0
SCALE
  5
5E
102
{ACAD_REACTORS
330
3F
102
}
330
3F
100
AcDbScale
 70
     0
300
3" = 1'-0"
140
3.0
141
12.0
290
     0
  0
SCALE
  5
5F
102
{ACAD_REACTORS
330
3F
102
}
330
3F
100
AcDbScale
 70
     0
300
6" = 1'-0"
140
6.0
141
12.0
290
     0
  0
SCALE
  5
60
102
{ACAD_REACTORS
330
3F
102
}
330
3F
100
AcDbScale
 70
     0
300
1'-0" = 1'-0"
140
12.0
141
12.0
290
     0
  0
VISUALSTYLE
  5
2F
102
{ACAD_REACTORS
330
2A
102
}
102
{ACAD_XDICTIONARY
360
619
102
}
330
2A
100
AcDbVisualStyle
  2
2dWireframe
 70
     4
 71
     0
 72
     2
 73
     0
 90
        0
 40
0.6
 41
30.0
 62
     5
 63
     7
421
 16777215
 74
     1
 91
        4
 64
     7
 65
   257
 75
     1
175
     1
 42
1.0
 92
        0
 66
   257
 43
1.0
 76
     1
 77
     6
 78
     2
 67
     7
 79
     5
170
     0
171
     0
290
     0
174
     0
 93
        1
 44
0.0
173
     0
291
     0
 45
0.0
1001
ACAD
1000
AcDbSavedByObjectVersion
1070
     0
  0
VISUALSTYLE
  5
31
102
{ACAD_REACTORS
330
2A
102
}
102
{ACAD_XDICTIONARY
360
61D
102
}
330
2A
100
AcDbVisualStyle
  2
3D Hidden
 70
     6
 71
     1
 72
     2
 73
     2
 90
        0
 40
0.6
 41
30.0
 62
     5
 63
     7
421
 16777215
 74
     2
 91
        2
 64
     7
 65
   257
 75
     2
175
     1
 42
40.0
 92
        0
 66
   257
 43
1.0
 76
     1
 77
     6
 78
     2
 67
     7
 79
     3
170
     0
171
     0
290
     0
174
     0
 93
        1
 44
0.0
173
     0
291
     0
 45
0.0
1001
ACAD
1000
AcDbSavedByObjectVersion
1070
     0
  0
VISUALSTYLE
  5
30
102
{ACAD_REACTORS
330
2A
102
}
102
{ACAD_XDICTIONARY
360
61B
102
}
330
2A
100
AcDbVisualStyle
  2
3dWireframe
 70
     5
 71
     0
 72
     2
 73
     0
 90
        0
 40
0.6
 41
30.0
 62
     5
 63
     7
421
 16777215
 74
     1
 91
        4
 64
     7
 65
   257
 75
     1
175
     1
 42
1.0
 92
        0
 66
   257
 43
1.0
 76
     1
 77
     6
 78
     2
 67
     7
 79
     5
170
     0
171
     0
290
     0
174
     0
 93
        1
 44
0.0
173
     0
291
     0
 45
0.0
1001
ACAD
1000
AcDbSavedByObjectVersion
1070
     0
  0
VISUALSTYLE
  5
32
102
{ACAD_REACTORS
330
2A
102
}
102
{ACAD_XDICTIONARY
360
61F
102
}
330
2A
100
AcDbVisualStyle
  2
Basic
 70
     7
 71
     1
 72
     0
 73
     1
 90
        0
 40
0.6
 41
30.0
 62
     5
 63
     7
421
 16777215
 74
     0
 91
        4
 64
     7
 65
   257
 75
     1
175
     1
 42
1.0
 92
        8
 66
     7
 43
1.0
 76
     1
 77
     6
 78
     2
 67
     7
 79
     5
170
     0
171
     0
290
     0
174
     0
 93
        1
 44
0.0
173
     0
291
     1
 45
0.0
1001
ACAD
1000
AcDbSavedByObjectVersion
1070
     0
  0
VISUALSTYLE
  5
36
102
{ACAD_REACTORS
330
2A
102
}
102
{ACAD_XDICTIONARY
360
627
102
}
330
2A
100
AcDbVisualStyle
  2
Brighten
 70
    12
 71
     2
 72
     2
 73
     0
 90
        0
 40
0.6
 41
30.0
 62
     5
 63
     7
421
 16777215
 74
     1
 91
        4
 64
     7
 65
   257
 75
     1
175
     1
 42
1.0
 92
        8
 66
     7
 43
1.0
 76
     1
 77
     6
 78
     2
 67
     7
 79
     5
170
     0
171
     0
290
     0
174
     0
 93
        1
 44
50.0
173
     0
291
     1
 45
0.0
1001
ACAD
1000
AcDbSavedByObjectVersion
1070
     0
  0
VISUALSTYLE
  5
3A
102
{ACAD_REACTORS
330
2A
102
}
102
{ACAD_XDICTIONARY
360
62F
102
}
330
2A
100
AcDbVisualStyle
  2
ColorChange
 70
    16
 71
     2
 72
     2
 73
     3
 90
        0
 40
0.6
 41
30.0
 62
     5
 63
     8
421
  8421504
 74
     1
 91
        4
 64
     7
 65
   257
 75
     1
175
     1
 42
1.0
 92
        8
 66
     8
424
  8421504
 43
1.0
 76
     1
 77
     6
 78
     2
 67
     7
 79
     5
170
     0
171
     0
290
     0
174
     0
 93
        1
 44
0.0
173
     0
291
     1
 45
0.0
1001
ACAD
1000
AcDbSavedByObjectVersion
1070
     0
  0
VISUALSTYLE
  5
34
102
{ACAD_REACTORS
330
2A
102
}
102
{ACAD_XDICTIONARY
360
623
102
}
330
2A
100
AcDbVisualStyle
  2
Conceptual
 70
     9
 71
     3
 72
     2
 73
     0
 90
        0
 40
0.6
 41
30.0
 62
     5
 63
     7
421
 16777215
 74
     2
 91
        2
 64
     7
 65
   257
 75
     1
175
     1
 42
40.0
 92
        8
 66
     7
 43
1.0
 76
     1
 77
     6
 78
     2
 67
     7
 79
     3
170
     0
171
     0
290
     0
174
     0
 93
        1
 44
0.0
173
     0
291
     0
 45
0.0
1001
ACAD
1000
AcDbSavedByObjectVersion
1070
     0
  0
VISUALSTYLE
  5
35
102
{ACAD_REACTORS
330
2A
102
}
102
{ACAD_XDICTIONARY
360
625
102
}
330
2A
100
AcDbVisualStyle
  2
Dim
 70
    11
 71
     2
 72
     2
 73
     0
 90
        0
 40
0.6
 41
30.0
 62
     5
 63
     7
421
 16777215
 74
     1
 91
        4
 64
     7
 65
   257
 75
     1
175
     1
 42
1.0
 92
        8
 66
     7
 43
1.0
 76
     1
 77
     6
 78
     2
 67
     7
 79
     5
170
     0
171
     0
290
     0
174
     0
 93
        1
 44
-50.0
173
     0
291
     1
 45
0.0
1001
ACAD
1000
AcDbSavedByObjectVersion
1070
     0
  0
VISUALSTYLE
  5
39
102
{ACAD_REACTORS
330
2A
102
}
102
{ACAD_XDICTIONARY
360
62D
102
}
330
2A
100
AcDbVisualStyle
  2
Facepattern
 70
    15
 71
     2
 72
     2
 73
     0
 90
        0
 40
0.6
 41
30.0
 62
     5
 63
     7
421
 16777215
 74
     1
 91
        4
 64
     7
 65
   257
 75
     1
175
     1
 42
1.0
 92
        8
 66
     7
 43
1.0
 76
     1
 77
     6
 78
     2
 67
     7
 79
     5
170
     0
171
     0
290
     0
174
     0
 93
        1
 44
0.0
173
     0
291
     1
 45
0.0
1001
ACAD
1000
AcDbSavedByObjectVersion
1070
     0
  0
VISUALSTYLE
  5
2B
102
{ACAD_REACTORS
330
2A
102
}
102
{ACAD_XDICTIONARY
360
611
102
}
330
2A
100
AcDbVisualStyle
  2
Flat
 70
     0
 71
     2
 72
     1
 73
     1
 90
        2
 40
0.6
 41
30.0
 62
     5
 63
     7
421
 16777215
 74
     0
 91
        4
 64
     7
 65
   257
 75
     1
175
     1
 42
1.0
 92
        8
 66
     7
 43
1.0
 76
     1
 77
     6
 78
     2
 67
     7
 79
     5
170
     0
171
     0
290
     0
174
     0
 93
       13
 44
0.0
173
     0
291
     1
 45
0.0
1001
ACAD
1000
AcDbSavedByObjectVersion
1070
     0
  0
VISUALSTYLE
  5
2C
102
{ACAD_REACTORS
330
2A
102
}
102
{ACAD_XDICTIONARY
360
613
102
}
330
2A
100
AcDbVisualStyle
  2
FlatWithEdges
 70
     1
 71
     2
 72
     1
 73
     1
 90
        2
 40
0.6
 41
30.0
 62
     5
 63
     7
421
 16777215
 74
     1
 91
        4
 64
     7
 65
   257
 75
     1
175
     1
 42
1.0
 92
        0
 66
   257
 43
1.0
 76
     1
 77
     6
 78
     2
 67
     7
 79
     5
170
     0
171
     0
290
     0
174
     0
 93
       13
 44
0.0
173
     0
291
     1
 45
0.0
1001
ACAD
1000
AcDbSavedByObjectVersion
1070
     0
  0
VISUALSTYLE
  5
2D
102
{ACAD_REACTORS
330
2A
102
}
102
{ACAD_XDICTIONARY
360
615
102
}
330
2A
100
AcDbVisualStyle
  2
Gouraud
 70
     2
 71
     2
 72
     2
 73
     1
 90
        2
 40
0.6
 41
30.0
 62
     5
 63
     7
421
 16777215
 74
     0
 91
        4
 64
     7
 65
   257
 75
     1
175
     1
 42
1.0
 92
        0
 66
     7
 43
1.0
 76
     1
 77
     6
 78
     2
 67
     7
 79
     5
170
     0
171
     0
290
     0
174
     0
 93
       13
 44
0.0
173
     0
291
     1
 45
0.0
1001
ACAD
1000
AcDbSavedByObjectVersion
1070
     0
  0
VISUALSTYLE
  5
2E
102
{ACAD_REACTORS
330
2A
102
}
102
{ACAD_XDICTIONARY
360
617
102
}
330
2A
100
AcDbVisualStyle
  2
GouraudWithEdges
 70
     3
 71
     2
 72
     2
 73
     1
 90
        2
 40
0.6
 41
30.0
 62
     5
 63
     7
421
 16777215
 74
     1
 91
        4
 64
     7
 65
   257
 75
     1
175
     1
 42
1.0
 92
        0
 66
   257
 43
1.0
 76
     1
 77
     6
 78
     2
 67
     7
 79
     5
170
     0
171
     0
290
     0
174
     0
 93
       13
 44
0.0
173
     0
291
     1
 45
0.0
1001
ACAD
1000
AcDbSavedByObjectVersion
1070
     0
  0
VISUALSTYLE
  5
38
102
{ACAD_REACTORS
330
2A
102
}
102
{ACAD_XDICTIONARY
360
62B
102
}
330
2A
100
AcDbVisualStyle
  2
Linepattern
 70
    14
 71
     2
 72
     2
 73
     0
 90
        0
 40
0.6
 41
30.0
 62
     5
 63
     7
421
 16777215
 74
     1
 91
        4
 64
     7
 65
   257
 75
     7
175
     7
 42
1.0
 92
        8
 66
     7
 43
1.0
 76
     1
 77
     6
 78
     2
 67
     7
 79
     5
170
     0
171
     0
290
     0
174
     0
 93
        1
 44
0.0
173
     0
291
     1
 45
0.0
1001
ACAD
1000
AcDbSavedByObjectVersion
1070
     0
  0
VISUALSTYLE
  5
33
102
{ACAD_REACTORS
330
2A
102
}
102
{ACAD_XDICTIONARY
360
621
102
}
330
2A
100
AcDbVisualStyle
  2
Realistic
 70
     8
 71
     2
 72
     3
 73
     0
 90
        2
 40
0.6
 41
30.0
 62
     5
 63
     7
421
 16777215
 74
     0
 91
        0
 64
     7
 65
   257
 75
     1
175
     1
 42
1.0
 92
        8
 66
   257
 43
1.0
 76
     1
 77
     6
 78
     2
 67
     7
 79
     3
170
     0
171
     0
290
     0
174
     0
 93
       13
 44
0.0
173
     0
291
     0
 45
0.0
1001
ACAD
1000
AcDbSavedByObjectVersion
1070
     0
  0
VISUALSTYLE
  5
37
102
{ACAD_REACTORS
330
2A
102
}
102
{ACAD_XDICTIONARY
360
629
102
}
330
2A
100
AcDbVisualStyle
  2
Thicken
 70
    13
 71
     2
 72
     2
 73
     0
 90
        0
 40
0.6
 41
30.0
 62
     5
 63
     7
421
 16777215
 74
     1
 91
        4
 64
     7
 65
   257
 75
     1
175
     1
 42
1.0
 92
       12
 66
     7
 43
1.0
 76
     1
 77
     6
 78
     2
 67
     7
 79
     5
170
     0
171
     0
290
     0
174
     0
 93
        1
 44
0.0
173
     0
291
     1
 45
0.0
1001
ACAD
1000
AcDbSavedByObjectVersion
1070
     0
  0
DICTIONARYVAR
  5
60F
102
{ACAD_REACTORS
330
60E
102
}
330
60E
100
DictionaryVariables
280
     0
  1
1:1
  0
DICTIONARYVAR
  5
610
102
{ACAD_REACTORS
330
60E
102
}
330
60E
100
DictionaryVariables
280
     0
  1
1
  0
DICTIONARY
  5
633
330
3D
100
AcDbDictionary
280
     1
281
     1
  3
ACAD_XREC_ROUNDTRIP
360
634
  0
DICTIONARY
  5
631
330
3C
100
AcDbDictionary
280
     1
281
     1
  3
ACAD_XREC_ROUNDTRIP
360
632
  0
DICTIONARY
  5
635
330
3E
100
AcDbDictionary
280
     1
281
     1
  3
ACAD_XREC_ROUNDTRIP
360
636
  0
DICTIONARY
  5
619
330
2F
100
AcDbDictionary
280
     1
281
     1
  3
ACAD_XREC_ROUNDTRIP
360
61A
  0
DICTIONARY
  5
61D
330
31
100
AcDbDictionary
280
     1
281
     1
  3
ACAD_XREC_ROUNDTRIP
360
61E
  0
DICTIONARY
  5
61B
330
30
100
AcDbDictionary
280
     1
281
     1
  3
ACAD_XREC_ROUNDTRIP
360
61C
  0
DICTIONARY
  5
61F
330
32
100
AcDbDictionary
280
     1
281
     1
  3
ACAD_XREC_ROUNDTRIP
360
620
  0
DICTIONARY
  5
627
330
36
100
AcDbDictionary
280
     1
281
     1
  3
ACAD_XREC_ROUNDTRIP
360
628
  0
DICTIONARY
  5
62F
330
3A
100
AcDbDictionary
280
     1
281
     1
  3
ACAD_XREC_ROUNDTRIP
360
630
  0
DICTIONARY
  5
623
330
34
100
AcDbDictionary
280
     1
281
     1
  3
ACAD_XREC_ROUNDTRIP
360
624
  0
DICTIONARY
  5
625
330
35
100
AcDbDictionary
280
     1
281
     1
  3
ACAD_XREC_ROUNDTRIP
360
626
  0
DICTIONARY
  5
62D
330
39
100
AcDbDictionary
280
     1
281
     1
  3
ACAD_XREC_ROUNDTRIP
360
62E
  0
DICTIONARY
  5
611
330
2B
100
AcDbDictionary
280
     1
281
     1
  3
ACAD_XREC_ROUNDTRIP
360
612
  0
DICTIONARY
  5
613
330
2C
100
AcDbDictionary
280
     1
281
     1
  3
ACAD_XREC_ROUNDTRIP
360
614
  0
DICTIONARY
  5
615
330
2D
100
AcDbDictionary
280
     1
281
     1
  3
ACAD_XREC_ROUNDTRIP
360
616
  0
DICTIONARY
  5
617
330
2E
100
AcDbDictionary
280
     1
281
     1
  3
ACAD_XREC_ROUNDTRIP
360
618
  0
DICTIONARY
  5
62B
330
38
100
AcDbDictionary
280
     1
281
     1
  3
ACAD_XREC_ROUNDTRIP
360
62C
  0
DICTIONARY
  5
621
330
33
100
AcDbDictionary
280
     1
281
     1
  3
ACAD_XREC_ROUNDTRIP
360
622
  0
DICTIONARY
  5
629
330
37
100
AcDbDictionary
280
     1
281
     1
  3
ACAD_XREC_ROUNDTRIP
360
62A
  0
XRECORD
  5
634
102
{ACAD_REACTORS
330
633
102
}
330
633
100
AcDbXrecord
280
     1
102
MATERIAL
148
0.0
149
0.0
149
0.0
 93
        0
 94
      127
282
     0
 72
     1
 77
     1
171
     1
175
     1
179
     1
273
     0
  0
XRECORD
  5
632
102
{ACAD_REACTORS
330
631
102
}
330
631
100
AcDbXrecord
280
     1
102
MATERIAL
148
0.0
149
0.0
149
0.0
 93
        0
 94
      127
282
     0
 72
     1
 77
     1
171
     1
175
     1
179
     1
273
     0
  0
XRECORD
  5
636
102
{ACAD_REACTORS
330
635
102
}
330
635
100
AcDbXrecord
280
     1
102
MATERIAL
148
0.0
149
0.0
149
0.0
 93
        0
 94
      127
282
     0
 72
     1
 77
     1
171
     1
175
     1
179
     1
273
     0
  0
XRECORD
  5
61A
102
{ACAD_REACTORS
330
619
102
}
330
619
100
AcDbXrecord
280
     1
102
RTVSPropertyOp0
 70
     1
102
RTVSPropertyOp1
 70
     1
102
RTVSPropertyOp2
 70
     1
102
RTVSPropertyOp3
 70
     1
102
RTVSPropertyOp4
 70
     1
102
RTVSPropertyOp5
 70
     1
102
RTVSPropertyOp6
 70
     1
102
RTVSPropertyOp7
 70
     1
102
RTVSPropertyOp8
 70
     1
102
RTVSPropertyOp9
 70
     1
102
RTVSPropertyOp10
 70
     1
102
RTVSPropertyOp11
 70
     1
102
RTVSPropertyOp12
 70
     1
102
RTVSPropertyOp13
 70
     1
102
RTVSPropertyOp14
 70
     1
102
RTVSPropertyOp15
 70
     1
102
RTVSPropertyOp16
 70
     1
102
RTVSPropertyOp17
 70
     1
102
RTVSPropertyOp18
 70
     1
102
RTVSPropertyOp19
 70
     1
102
RTVSPropertyOp20
 70
     1
102
RTVSPropertyOp21
 70
     1
102
RTVSPropertyOp22
 70
     1
102
RTVSPropertyOp23
 70
     1
102
RTVSPropertyOp24
 70
     1
102
RTVSPropertyOp25
 70
     1
102
RTVSPropertyOp26
 70
     1
102
RTVSPropertyOp27
 70
     1
102
RTVSPropertyOp28
 70
     1
102
RTVSPropertyOp29
 70
     1
102
RTVSPropertyOp30
 70
     1
102
RTVSPropertyOp31
 70
     1
102
RTVSPropertyOp32
 70
     1
102
RTVSPropertyOp33
 70
     1
102
RTVSPropertyOp34
 70
     1
102
RTVSPropertyOp35
 70
     1
102
RTVSPropertyOp36
 70
     1
102
RTVSPropertyOp37
 70
     1
102
RTVSPropertyOp38
 70
     1
102
RTVSPropertyOp39
 70
     1
102
RTVSPropertyOp40
 70
     1
102
RTVSPropertyOp41
 70
     1
102
RTVSPropertyOp42
 70
     1
102
RTVSPropertyOp43
 70
     1
102
RTVSPropertyOp44
 70
     1
102
RTVSPropertyOp45
 70
     1
102
RTVSPropertyOp46
 70
     1
102
RTVSPropertyOp47
 70
     1
102
RTVSPropertyOp48
 70
     1
102
RTVSPropertyOp49
 70
     1
102
RTVSPropertyOp50
 70
     1
102
RTVSPropertyOp51
 70
     0
102
RTVSPropertyOp52
 70
     0
102
RTVSPropertyOp53
 70
     1
102
RTVSPropertyOp54
 70
     1
102
RTVSPropertyOp55
 70
     1
102
RTVSPropertyOp56
 70
     1
102
RTVSPropertyOp57
 70
     1
102
RTVSPost2010Prop28
280
     1
102
RTVSPost2010PropOp28
 70
     1
102
RTVSPost2010Prop29
280
     1
102
RTVSPost2010PropOp29
 70
     1
102
RTVSPost2010Prop30
280
     0
102
RTVSPost2010PropOp30
 70
     1
102
RTVSPost2010Prop31
280
     0
102
RTVSPost2010PropOp31
 70
     1
102
RTVSPost2010Prop32
280
     0
102
RTVSPost2010PropOp32
 70
     1
102
RTVSPost2010Prop33
280
     0
102
RTVSPost2010PropOp33
 70
     1
102
RTVSPost2010Prop34
280
     0
102
RTVSPost2010PropOp34
 70
     1
102
RTVSPost2010Prop35
280
     0
102
RTVSPost2010PropOp35
 70
     1
102
RTVSPost2010Prop36
280
     0
102
RTVSPost2010PropOp36
 70
     1
102
RTVSPost2010Prop37
 90
       50
102
RTVSPost2010PropOp37
 70
     1
102
RTVSPost2010Prop38
140
0.0
102
RTVSPost2010PropOp38
 70
     1
102
RTVSPost2010Prop39
140
1.0
102
RTVSPost2010PropOp39
 70
     1
102
RTVSPost2010Prop40
 90
        0
102
RTVSPost2010PropOp40
 70
     1
102
RTVSPost2010Prop41ColorIndex
 90
       18
102
RTVSPost2010Prop41ColorRGB
 90
        0
102
RTVSPost2010PropOp41
 70
     1
102
RTVSPost2010Prop42
 90
       50
102
RTVSPost2010PropOp42
 70
     1
102
RTVSPost2010Prop43
 90
        3
102
RTVSPost2010PropOp43
 70
     1
102
RTVSPost2010Prop44ColorIndex
 90
        5
102
RTVSPost2010Prop44ColorRGB
 90
      255
102
RTVSPost2010PropOp44
 70
     1
102
RTVSPost2010Prop45
280
     0
102
RTVSPost2010PropOp45
 70
     1
102
RTVSPost2010Prop46
 90
       50
102
RTVSPost2010PropOp46
 70
     1
102
RTVSPost2010Prop47
 90
       50
102
RTVSPost2010PropOp47
 70
     1
102
RTVSPost2010Prop48
 90
       50
102
RTVSPost2010PropOp48
 70
     1
102
RTVSPost2010Prop49
280
     0
102
RTVSPost2010PropOp49
 70
     1
102
RTVSPost2010Prop50
 90
       50
102
RTVSPost2010PropOp50
 70
     1
102
RTVSPost2010Prop51ColorIndex
 90
      256
102
RTVSPost2010Prop51ColorRGB
 90
-16777216
102
RTVSPost2010PropOp51
 70
     0
102
RTVSPost2010Prop52
140
1.0
102
RTVSPost2010PropOp52
 70
     0
102
RTVSPost2010Prop53
 90
        2
102
RTVSPost2010PropOp53
 70
     1
102
RTVSPost2010Prop54
  1
strokes_ogs.tif
102
RTVSPost2010PropOp54
 70
     1
102
RTVSPost2010Prop55
280
     0
102
RTVSPost2010PropOp55
 70
     1
102
RTVSPost2010Prop56
140
1.0
102
RTVSPost2010PropOp56
 70
     1
102
RTVSPost2010Prop57
140
1.0
102
RTVSPost2010PropOp57
 70
     1
  0
XRECORD
  5
61E
102
{ACAD_REACTORS
330
61D
102
}
330
61D
100
AcDbXrecord
280
     1
102
RTVSPropertyOp0
 70
     1
102
RTVSPropertyOp1
 70
     1
102
RTVSPropertyOp2
 70
     1
102
RTVSPropertyOp3
 70
     1
102
RTVSPropertyOp4
 70
     1
102
RTVSPropertyOp5
 70
     1
102
RTVSPropertyOp6
 70
     1
102
RTVSPropertyOp7
 70
     1
102
RTVSPropertyOp8
 70
     1
102
RTVSPropertyOp9
 70
     1
102
RTVSPropertyOp10
 70
     1
102
RTVSPropertyOp11
 70
     1
102
RTVSPropertyOp12
 70
     1
102
RTVSPropertyOp13
 70
     1
102
RTVSPropertyOp14
 70
     1
102
RTVSPropertyOp15
 70
     1
102
RTVSPropertyOp16
 70
     1
102
RTVSPropertyOp17
 70
     1
102
RTVSPropertyOp18
 70
     1
102
RTVSPropertyOp19
 70
     1
102
RTVSPropertyOp20
 70
     1
102
RTVSPropertyOp21
 70
     1
102
RTVSPropertyOp22
 70
     1
102
RTVSPropertyOp23
 70
     1
102
RTVSPropertyOp24
 70
     1
102
RTVSPropertyOp25
 70
     1
102
RTVSPropertyOp26
 70
     1
102
RTVSPropertyOp27
 70
     1
102
RTVSPropertyOp28
 70
     1
102
RTVSPropertyOp29
 70
     1
102
RTVSPropertyOp30
 70
     1
102
RTVSPropertyOp31
 70
     1
102
RTVSPropertyOp32
 70
     1
102
RTVSPropertyOp33
 70
     1
102
RTVSPropertyOp34
 70
     1
102
RTVSPropertyOp35
 70
     1
102
RTVSPropertyOp36
 70
     1
102
RTVSPropertyOp37
 70
     1
102
RTVSPropertyOp38
 70
     1
102
RTVSPropertyOp39
 70
     1
102
RTVSPropertyOp40
 70
     1
102
RTVSPropertyOp41
 70
     1
102
RTVSPropertyOp42
 70
     1
102
RTVSPropertyOp43
 70
     1
102
RTVSPropertyOp44
 70
     1
102
RTVSPropertyOp45
 70
     1
102
RTVSPropertyOp46
 70
     1
102
RTVSPropertyOp47
 70
     1
102
RTVSPropertyOp48
 70
     1
102
RTVSPropertyOp49
 70
     1
102
RTVSPropertyOp50
 70
     1
102
RTVSPropertyOp51
 70
     0
102
RTVSPropertyOp52
 70
     0
102
RTVSPropertyOp53
 70
     1
102
RTVSPropertyOp54
 70
     1
102
RTVSPropertyOp55
 70
     1
102
RTVSPropertyOp56
 70
     1
102
RTVSPropertyOp57
 70
     1
102
RTVSPost2010Prop28
280
     0
102
RTVSPost2010PropOp28
 70
     1
102
RTVSPost2010Prop29
280
     1
102
RTVSPost2010PropOp29
 70
     1
102
RTVSPost2010Prop30
280
     1
102
RTVSPost2010PropOp30
 70
     1
102
RTVSPost2010Prop31
280
     0
102
RTVSPost2010PropOp31
 70
     1
102
RTVSPost2010Prop32
280
     0
102
RTVSPost2010PropOp32
 70
     1
102
RTVSPost2010Prop33
280
     0
102
RTVSPost2010PropOp33
 70
     1
102
RTVSPost2010Prop34
280
     0
102
RTVSPost2010PropOp34
 70
     1
102
RTVSPost2010Prop35
280
     0
102
RTVSPost2010PropOp35
 70
     1
102
RTVSPost2010Prop36
280
     0
102
RTVSPost2010PropOp36
 70
     1
102
RTVSPost2010Prop37
 90
       50
102
RTVSPost2010PropOp37
 70
     1
102
RTVSPost2010Prop38
140
0.0
102
RTVSPost2010PropOp38
 70
     1
102
RTVSPost2010Prop39
140
1.0
102
RTVSPost2010PropOp39
 70
     1
102
RTVSPost2010Prop40
 90
        0
102
RTVSPost2010PropOp40
 70
     1
102
RTVSPost2010Prop41ColorIndex
 90
       18
102
RTVSPost2010Prop41ColorRGB
 90
        0
102
RTVSPost2010PropOp41
 70
     1
102
RTVSPost2010Prop42
 90
       50
102
RTVSPost2010PropOp42
 70
     1
102
RTVSPost2010Prop43
 90
        3
102
RTVSPost2010PropOp43
 70
     1
102
RTVSPost2010Prop44ColorIndex
 90
        5
102
RTVSPost2010Prop44ColorRGB
 90
      255
102
RTVSPost2010PropOp44
 70
     1
102
RTVSPost2010Prop45
280
     0
102
RTVSPost2010PropOp45
 70
     1
102
RTVSPost2010Prop46
 90
       50
102
RTVSPost2010PropOp46
 70
     1
102
RTVSPost2010Prop47
 90
       50
102
RTVSPost2010PropOp47
 70
     1
102
RTVSPost2010Prop48
 90
       50
102
RTVSPost2010PropOp48
 70
     1
102
RTVSPost2010Prop49
280
     0
102
RTVSPost2010PropOp49
 70
     1
102
RTVSPost2010Prop50
 90
       50
102
RTVSPost2010PropOp50
 70
     1
102
RTVSPost2010Prop51ColorIndex
 90
      256
102
RTVSPost2010Prop51ColorRGB
 90
-16777216
102
RTVSPost2010PropOp51
 70
     0
102
RTVSPost2010Prop52
140
1.0
102
RTVSPost2010PropOp52
 70
     0
102
RTVSPost2010Prop53
 90
        2
102
RTVSPost2010PropOp53
 70
     1
102
RTVSPost2010Prop54
  1
strokes_ogs.tif
102
RTVSPost2010PropOp54
 70
     1
102
RTVSPost2010Prop55
280
     0
102
RTVSPost2010PropOp55
 70
     1
102
RTVSPost2010Prop56
140
1.0
102
RTVSPost2010PropOp56
 70
     1
102
RTVSPost2010Prop57
140
1.0
102
RTVSPost2010PropOp57
 70
     1
  0
XRECORD
  5
61C
102
{ACAD_REACTORS
330
61B
102
}
330
61B
100
AcDbXrecord
280
     1
102
RTVSPropertyOp0
 70
     1
102
RTVSPropertyOp1
 70
     1
102
RTVSPropertyOp2
 70
     1
102
RTVSPropertyOp3
 70
     1
102
RTVSPropertyOp4
 70
     1
102
RTVSPropertyOp5
 70
     1
102
RTVSPropertyOp6
 70
     1
102
RTVSPropertyOp7
 70
     1
102
RTVSPropertyOp8
 70
     1
102
RTVSPropertyOp9
 70
     1
102
RTVSPropertyOp10
 70
     1
102
RTVSPropertyOp11
 70
     1
102
RTVSPropertyOp12
 70
     1
102
RTVSPropertyOp13
 70
     1
102
RTVSPropertyOp14
 70
     1
102
RTVSPropertyOp15
 70
     1
102
RTVSPropertyOp16
 70
     1
102
RTVSPropertyOp17
 70
     1
102
RTVSPropertyOp18
 70
     1
102
RTVSPropertyOp19
 70
     1
102
RTVSPropertyOp20
 70
     1
102
RTVSPropertyOp21
 70
     1
102
RTVSPropertyOp22
 70
     1
102
RTVSPropertyOp23
 70
     1
102
RTVSPropertyOp24
 70
     1
102
RTVSPropertyOp25
 70
     1
102
RTVSPropertyOp26
 70
     1
102
RTVSPropertyOp27
 70
     1
102
RTVSPropertyOp28
 70
     1
102
RTVSPropertyOp29
 70
     1
102
RTVSPropertyOp30
 70
     1
102
RTVSPropertyOp31
 70
     1
102
RTVSPropertyOp32
 70
     1
102
RTVSPropertyOp33
 70
     1
102
RTVSPropertyOp34
 70
     1
102
RTVSPropertyOp35
 70
     1
102
RTVSPropertyOp36
 70
     1
102
RTVSPropertyOp37
 70
     1
102
RTVSPropertyOp38
 70
     1
102
RTVSPropertyOp39
 70
     1
102
RTVSPropertyOp40
 70
     1
102
RTVSPropertyOp41
 70
     1
102
RTVSPropertyOp42
 70
     1
102
RTVSPropertyOp43
 70
     1
102
RTVSPropertyOp44
 70
     1
102
RTVSPropertyOp45
 70
     1
102
RTVSPropertyOp46
 70
     1
102
RTVSPropertyOp47
 70
     1
102
RTVSPropertyOp48
 70
     1
102
RTVSPropertyOp49
 70
     1
102
RTVSPropertyOp50
 70
     1
102
RTVSPropertyOp51
 70
     0
102
RTVSPropertyOp52
 70
     0
102
RTVSPropertyOp53
 70
     1
102
RTVSPropertyOp54
 70
     1
102
RTVSPropertyOp55
 70
     1
102
RTVSPropertyOp56
 70
     1
102
RTVSPropertyOp57
 70
     1
102
RTVSPost2010Prop28
280
     0
102
RTVSPost2010PropOp28
 70
     1
102
RTVSPost2010Prop29
280
     1
102
RTVSPost2010PropOp29
 70
     1
102
RTVSPost2010Prop30
280
     1
102
RTVSPost2010PropOp30
 70
     1
102
RTVSPost2010Prop31
280
     0
102
RTVSPost2010PropOp31
 70
     1
102
RTVSPost2010Prop32
280
     0
102
RTVSPost2010PropOp32
 70
     1
102
RTVSPost2010Prop33
280
     0
102
RTVSPost2010PropOp33
 70
     1
102
RTVSPost2010Prop34
280
     0
102
RTVSPost2010PropOp34
 70
     1
102
RTVSPost2010Prop35
280
     0
102
RTVSPost2010PropOp35
 70
     1
102
RTVSPost2010Prop36
280
     0
102
RTVSPost2010PropOp36
 70
     1
102
RTVSPost2010Prop37
 90
       50
102
RTVSPost2010PropOp37
 70
     1
102
RTVSPost2010Prop38
140
0.0
102
RTVSPost2010PropOp38
 70
     1
102
RTVSPost2010Prop39
140
1.0
102
RTVSPost2010PropOp39
 70
     1
102
RTVSPost2010Prop40
 90
        0
102
RTVSPost2010PropOp40
 70
     1
102
RTVSPost2010Prop41ColorIndex
 90
       18
102
RTVSPost2010Prop41ColorRGB
 90
        0
102
RTVSPost2010PropOp41
 70
     1
102
RTVSPost2010Prop42
 90
       50
102
RTVSPost2010PropOp42
 70
     1
102
RTVSPost2010Prop43
 90
        3
102
RTVSPost2010PropOp43
 70
     1
102
RTVSPost2010Prop44ColorIndex
 90
        5
102
RTVSPost2010Prop44ColorRGB
 90
      255
102
RTVSPost2010PropOp44
 70
     1
102
RTVSPost2010Prop45
280
     0
102
RTVSPost2010PropOp45
 70
     1
102
RTVSPost2010Prop46
 90
       50
102
RTVSPost2010PropOp46
 70
     1
102
RTVSPost2010Prop47
 90
       50
102
RTVSPost2010PropOp47
 70
     1
102
RTVSPost2010Prop48
 90
       50
102
RTVSPost2010PropOp48
 70
     1
102
RTVSPost2010Prop49
280
     0
102
RTVSPost2010PropOp49
 70
     1
102
RTVSPost2010Prop50
 90
       50
102
RTVSPost2010PropOp50
 70
     1
102
RTVSPost2010Prop51ColorIndex
 90
      256
102
RTVSPost2010Prop51ColorRGB
 90
-16777216
102
RTVSPost2010PropOp51
 70
     0
102
RTVSPost2010Prop52
140
1.0
102
RTVSPost2010PropOp52
 70
     0
102
RTVSPost2010Prop53
 90
        2
102
RTVSPost2010PropOp53
 70
     1
102
RTVSPost2010Prop54
  1
strokes_ogs.tif
102
RTVSPost2010PropOp54
 70
     1
102
RTVSPost2010Prop55
280
     0
102
RTVSPost2010PropOp55
 70
     1
102
RTVSPost2010Prop56
140
1.0
102
RTVSPost2010PropOp56
 70
     1
102
RTVSPost2010Prop57
140
1.0
102
RTVSPost2010PropOp57
 70
     1
  0
XRECORD
  5
620
102
{ACAD_REACTORS
330
61F
102
}
330
61F
100
AcDbXrecord
280
     1
102
RTVSPropertyOp0
 70
     1
102
RTVSPropertyOp1
 70
     1
102
RTVSPropertyOp2
 70
     1
102
RTVSPropertyOp3
 70
     1
102
RTVSPropertyOp4
 70
     1
102
RTVSPropertyOp5
 70
     1
102
RTVSPropertyOp6
 70
     1
102
RTVSPropertyOp7
 70
     1
102
RTVSPropertyOp8
 70
     1
102
RTVSPropertyOp9
 70
     1
102
RTVSPropertyOp10
 70
     1
102
RTVSPropertyOp11
 70
     1
102
RTVSPropertyOp12
 70
     1
102
RTVSPropertyOp13
 70
     1
102
RTVSPropertyOp14
 70
     1
102
RTVSPropertyOp15
 70
     1
102
RTVSPropertyOp16
 70
     1
102
RTVSPropertyOp17
 70
     1
102
RTVSPropertyOp18
 70
     1
102
RTVSPropertyOp19
 70
     1
102
RTVSPropertyOp20
 70
     1
102
RTVSPropertyOp21
 70
     1
102
RTVSPropertyOp22
 70
     1
102
RTVSPropertyOp23
 70
     1
102
RTVSPropertyOp24
 70
     1
102
RTVSPropertyOp25
 70
     1
102
RTVSPropertyOp26
 70
     1
102
RTVSPropertyOp27
 70
     1
102
RTVSPropertyOp28
 70
     1
102
RTVSPropertyOp29
 70
     1
102
RTVSPropertyOp30
 70
     1
102
RTVSPropertyOp31
 70
     1
102
RTVSPropertyOp32
 70
     1
102
RTVSPropertyOp33
 70
     1
102
RTVSPropertyOp34
 70
     1
102
RTVSPropertyOp35
 70
     1
102
RTVSPropertyOp36
 70
     1
102
RTVSPropertyOp37
 70
     1
102
RTVSPropertyOp38
 70
     1
102
RTVSPropertyOp39
 70
     1
102
RTVSPropertyOp40
 70
     1
102
RTVSPropertyOp41
 70
     1
102
RTVSPropertyOp42
 70
     1
102
RTVSPropertyOp43
 70
     1
102
RTVSPropertyOp44
 70
     1
102
RTVSPropertyOp45
 70
     1
102
RTVSPropertyOp46
 70
     1
102
RTVSPropertyOp47
 70
     1
102
RTVSPropertyOp48
 70
     1
102
RTVSPropertyOp49
 70
     1
102
RTVSPropertyOp50
 70
     1
102
RTVSPropertyOp51
 70
     0
102
RTVSPropertyOp52
 70
     0
102
RTVSPropertyOp53
 70
     1
102
RTVSPropertyOp54
 70
     1
102
RTVSPropertyOp55
 70
     1
102
RTVSPropertyOp56
 70
     1
102
RTVSPropertyOp57
 70
     1
102
RTVSPost2010Prop28
280
     0
102
RTVSPost2010PropOp28
 70
     1
102
RTVSPost2010Prop29
280
     1
102
RTVSPost2010PropOp29
 70
     1
102
RTVSPost2010Prop30
280
     1
102
RTVSPost2010PropOp30
 70
     1
102
RTVSPost2010Prop31
280
     0
102
RTVSPost2010PropOp31
 70
     1
102
RTVSPost2010Prop32
280
     0
102
RTVSPost2010PropOp32
 70
     1
102
RTVSPost2010Prop33
280
     0
102
RTVSPost2010PropOp33
 70
     1
102
RTVSPost2010Prop34
280
     0
102
RTVSPost2010PropOp34
 70
     1
102
RTVSPost2010Prop35
280
     0
102
RTVSPost2010PropOp35
 70
     1
102
RTVSPost2010Prop36
280
     0
102
RTVSPost2010PropOp36
 70
     1
102
RTVSPost2010Prop37
 90
       50
102
RTVSPost2010PropOp37
 70
     1
102
RTVSPost2010Prop38
140
0.0
102
RTVSPost2010PropOp38
 70
     1
102
RTVSPost2010Prop39
140
1.0
102
RTVSPost2010PropOp39
 70
     1
102
RTVSPost2010Prop40
 90
        0
102
RTVSPost2010PropOp40
 70
     1
102
RTVSPost2010Prop41ColorIndex
 90
       18
102
RTVSPost2010Prop41ColorRGB
 90
        0
102
RTVSPost2010PropOp41
 70
     1
102
RTVSPost2010Prop42
 90
       50
102
RTVSPost2010PropOp42
 70
     1
102
RTVSPost2010Prop43
 90
        3
102
RTVSPost2010PropOp43
 70
     1
102
RTVSPost2010Prop44ColorIndex
 90
        5
102
RTVSPost2010Prop44ColorRGB
 90
      255
102
RTVSPost2010PropOp44
 70
     1
102
RTVSPost2010Prop45
280
     0
102
RTVSPost2010PropOp45
 70
     1
102
RTVSPost2010Prop46
 90
       50
102
RTVSPost2010PropOp46
 70
     1
102
RTVSPost2010Prop47
 90
       50
102
RTVSPost2010PropOp47
 70
     1
102
RTVSPost2010Prop48
 90
       50
102
RTVSPost2010PropOp48
 70
     1
102
RTVSPost2010Prop49
280
     0
102
RTVSPost2010PropOp49
 70
     1
102
RTVSPost2010Prop50
 90
       50
102
RTVSPost2010PropOp50
 70
     1
102
RTVSPost2010Prop51ColorIndex
 90
      256
102
RTVSPost2010Prop51ColorRGB
 90
-16777216
102
RTVSPost2010PropOp51
 70
     0
102
RTVSPost2010Prop52
140
1.0
102
RTVSPost2010PropOp52
 70
     0
102
RTVSPost2010Prop53
 90
        2
102
RTVSPost2010PropOp53
 70
     1
102
RTVSPost2010Prop54
  1
strokes_ogs.tif
102
RTVSPost2010PropOp54
 70
     1
102
RTVSPost2010Prop55
280
     0
102
RTVSPost2010PropOp55
 70
     1
102
RTVSPost2010Prop56
140
1.0
102
RTVSPost2010PropOp56
 70
     1
102
RTVSPost2010Prop57
140
1.0
102
RTVSPost2010PropOp57
 70
     1
  0
XRECORD
  5
628
102
{ACAD_REACTORS
330
627
102
}
330
627
100
AcDbXrecord
280
     1
102
RTVSPropertyOp0
 70
     1
102
RTVSPropertyOp1
 70
     1
102
RTVSPropertyOp2
 70
     1
102
RTVSPropertyOp3
 70
     1
102
RTVSPropertyOp4
 70
     1
102
RTVSPropertyOp5
 70
     1
102
RTVSPropertyOp6
 70
     1
102
RTVSPropertyOp7
 70
     1
102
RTVSPropertyOp8
 70
     1
102
RTVSPropertyOp9
 70
     1
102
RTVSPropertyOp10
 70
     1
102
RTVSPropertyOp11
 70
     1
102
RTVSPropertyOp12
 70
     1
102
RTVSPropertyOp13
 70
     1
102
RTVSPropertyOp14
 70
     1
102
RTVSPropertyOp15
 70
     1
102
RTVSPropertyOp16
 70
     1
102
RTVSPropertyOp17
 70
     1
102
RTVSPropertyOp18
 70
     1
102
RTVSPropertyOp19
 70
     1
102
RTVSPropertyOp20
 70
     1
102
RTVSPropertyOp21
 70
     1
102
RTVSPropertyOp22
 70
     1
102
RTVSPropertyOp23
 70
     1
102
RTVSPropertyOp24
 70
     1
102
RTVSPropertyOp25
 70
     1
102
RTVSPropertyOp26
 70
     1
102
RTVSPropertyOp27
 70
     1
102
RTVSPropertyOp28
 70
     1
102
RTVSPropertyOp29
 70
     1
102
RTVSPropertyOp30
 70
     1
102
RTVSPropertyOp31
 70
     1
102
RTVSPropertyOp32
 70
     1
102
RTVSPropertyOp33
 70
     1
102
RTVSPropertyOp34
 70
     1
102
RTVSPropertyOp35
 70
     1
102
RTVSPropertyOp36
 70
     1
102
RTVSPropertyOp37
 70
     1
102
RTVSPropertyOp38
 70
     1
102
RTVSPropertyOp39
 70
     1
102
RTVSPropertyOp40
 70
     1
102
RTVSPropertyOp41
 70
     1
102
RTVSPropertyOp42
 70
     1
102
RTVSPropertyOp43
 70
     1
102
RTVSPropertyOp44
 70
     1
102
RTVSPropertyOp45
 70
     1
102
RTVSPropertyOp46
 70
     1
102
RTVSPropertyOp47
 70
     1
102
RTVSPropertyOp48
 70
     1
102
RTVSPropertyOp49
 70
     1
102
RTVSPropertyOp50
 70
     1
102
RTVSPropertyOp51
 70
     0
102
RTVSPropertyOp52
 70
     0
102
RTVSPropertyOp53
 70
     1
102
RTVSPropertyOp54
 70
     1
102
RTVSPropertyOp55
 70
     1
102
RTVSPropertyOp56
 70
     1
102
RTVSPropertyOp57
 70
     1
102
RTVSPost2010Prop28
280
     0
102
RTVSPost2010PropOp28
 70
     1
102
RTVSPost2010Prop29
280
     1
102
RTVSPost2010PropOp29
 70
     1
102
RTVSPost2010Prop30
280
     1
102
RTVSPost2010PropOp30
 70
     1
102
RTVSPost2010Prop31
280
     0
102
RTVSPost2010PropOp31
 70
     1
102
RTVSPost2010Prop32
280
     0
102
RTVSPost2010PropOp32
 70
     1
102
RTVSPost2010Prop33
280
     0
102
RTVSPost2010PropOp33
 70
     1
102
RTVSPost2010Prop34
280
     0
102
RTVSPost2010PropOp34
 70
     1
102
RTVSPost2010Prop35
280
     0
102
RTVSPost2010PropOp35
 70
     1
102
RTVSPost2010Prop36
280
     0
102
RTVSPost2010PropOp36
 70
     1
102
RTVSPost2010Prop37
 90
       50
102
RTVSPost2010PropOp37
 70
     1
102
RTVSPost2010Prop38
140
0.0
102
RTVSPost2010PropOp38
 70
     1
102
RTVSPost2010Prop39
140
1.0
102
RTVSPost2010PropOp39
 70
     1
102
RTVSPost2010Prop40
 90
        0
102
RTVSPost2010PropOp40
 70
     1
102
RTVSPost2010Prop41ColorIndex
 90
       18
102
RTVSPost2010Prop41ColorRGB
 90
        0
102
RTVSPost2010PropOp41
 70
     1
102
RTVSPost2010Prop42
 90
       50
102
RTVSPost2010PropOp42
 70
     1
102
RTVSPost2010Prop43
 90
        3
102
RTVSPost2010PropOp43
 70
     1
102
RTVSPost2010Prop44ColorIndex
 90
        5
102
RTVSPost2010Prop44ColorRGB
 90
      255
102
RTVSPost2010PropOp44
 70
     1
102
RTVSPost2010Prop45
280
     0
102
RTVSPost2010PropOp45
 70
     1
102
RTVSPost2010Prop46
 90
       50
102
RTVSPost2010PropOp46
 70
     1
102
RTVSPost2010Prop47
 90
       50
102
RTVSPost2010PropOp47
 70
     1
102
RTVSPost2010Prop48
 90
       50
102
RTVSPost2010PropOp48
 70
     1
102
RTVSPost2010Prop49
280
     0
102
RTVSPost2010PropOp49
 70
     1
102
RTVSPost2010Prop50
 90
       50
102
RTVSPost2010PropOp50
 70
     1
102
RTVSPost2010Prop51ColorIndex
 90
      256
102
RTVSPost2010Prop51ColorRGB
 90
-16777216
102
RTVSPost2010PropOp51
 70
     0
102
RTVSPost2010Prop52
140
1.0
102
RTVSPost2010PropOp52
 70
     0
102
RTVSPost2010Prop53
 90
        2
102
RTVSPost2010PropOp53
 70
     1
102
RTVSPost2010Prop54
  1
strokes_ogs.tif
102
RTVSPost2010PropOp54
 70
     1
102
RTVSPost2010Prop55
280
     0
102
RTVSPost2010PropOp55
 70
     1
102
RTVSPost2010Prop56
140
1.0
102
RTVSPost2010PropOp56
 70
     1
102
RTVSPost2010Prop57
140
1.0
102
RTVSPost2010PropOp57
 70
     1
  0
XRECORD
  5
630
102
{ACAD_REACTORS
330
62F
102
}
330
62F
100
AcDbXrecord
280
     1
102
RTVSPropertyOp0
 70
     1
102
RTVSPropertyOp1
 70
     1
102
RTVSPropertyOp2
 70
     1
102
RTVSPropertyOp3
 70
     1
102
RTVSPropertyOp4
 70
     1
102
RTVSPropertyOp5
 70
     1
102
RTVSPropertyOp6
 70
     1
102
RTVSPropertyOp7
 70
     1
102
RTVSPropertyOp8
 70
     1
102
RTVSPropertyOp9
 70
     1
102
RTVSPropertyOp10
 70
     1
102
RTVSPropertyOp11
 70
     1
102
RTVSPropertyOp12
 70
     1
102
RTVSPropertyOp13
 70
     1
102
RTVSPropertyOp14
 70
     1
102
RTVSPropertyOp15
 70
     1
102
RTVSPropertyOp16
 70
     1
102
RTVSPropertyOp17
 70
     1
102
RTVSPropertyOp18
 70
     1
102
RTVSPropertyOp19
 70
     1
102
RTVSPropertyOp20
 70
     1
102
RTVSPropertyOp21
 70
     1
102
RTVSPropertyOp22
 70
     1
102
RTVSPropertyOp23
 70
     1
102
RTVSPropertyOp24
 70
     1
102
RTVSPropertyOp25
 70
     1
102
RTVSPropertyOp26
 70
     1
102
RTVSPropertyOp27
 70
     1
102
RTVSPropertyOp28
 70
     1
102
RTVSPropertyOp29
 70
     1
102
RTVSPropertyOp30
 70
     1
102
RTVSPropertyOp31
 70
     1
102
RTVSPropertyOp32
 70
     1
102
RTVSPropertyOp33
 70
     1
102
RTVSPropertyOp34
 70
     1
102
RTVSPropertyOp35
 70
     1
102
RTVSPropertyOp36
 70
     1
102
RTVSPropertyOp37
 70
     1
102
RTVSPropertyOp38
 70
     1
102
RTVSPropertyOp39
 70
     1
102
RTVSPropertyOp40
 70
     1
102
RTVSPropertyOp41
 70
     1
102
RTVSPropertyOp42
 70
     1
102
RTVSPropertyOp43
 70
     1
102
RTVSPropertyOp44
 70
     1
102
RTVSPropertyOp45
 70
     1
102
RTVSPropertyOp46
 70
     1
102
RTVSPropertyOp47
 70
     1
102
RTVSPropertyOp48
 70
     1
102
RTVSPropertyOp49
 70
     1
102
RTVSPropertyOp50
 70
     1
102
RTVSPropertyOp51
 70
     0
102
RTVSPropertyOp52
 70
     0
102
RTVSPropertyOp53
 70
     1
102
RTVSPropertyOp54
 70
     1
102
RTVSPropertyOp55
 70
     1
102
RTVSPropertyOp56
 70
     1
102
RTVSPropertyOp57
 70
     1
102
RTVSPost2010Prop28
280
     0
102
RTVSPost2010PropOp28
 70
     1
102
RTVSPost2010Prop29
280
     1
102
RTVSPost2010PropOp29
 70
     1
102
RTVSPost2010Prop30
280
     1
102
RTVSPost2010PropOp30
 70
     1
102
RTVSPost2010Prop31
280
     0
102
RTVSPost2010PropOp31
 70
     1
102
RTVSPost2010Prop32
280
     0
102
RTVSPost2010PropOp32
 70
     1
102
RTVSPost2010Prop33
280
     0
102
RTVSPost2010PropOp33
 70
     1
102
RTVSPost2010Prop34
280
     0
102
RTVSPost2010PropOp34
 70
     1
102
RTVSPost2010Prop35
280
     0
102
RTVSPost2010PropOp35
 70
     1
102
RTVSPost2010Prop36
280
     0
102
RTVSPost2010PropOp36
 70
     1
102
RTVSPost2010Prop37
 90
       50
102
RTVSPost2010PropOp37
 70
     1
102
RTVSPost2010Prop38
140
0.0
102
RTVSPost2010PropOp38
 70
     1
102
RTVSPost2010Prop39
140
1.0
102
RTVSPost2010PropOp39
 70
     1
102
RTVSPost2010Prop40
 90
        0
102
RTVSPost2010PropOp40
 70
     1
102
RTVSPost2010Prop41ColorIndex
 90
       18
102
RTVSPost2010Prop41ColorRGB
 90
        0
102
RTVSPost2010PropOp41
 70
     1
102
RTVSPost2010Prop42
 90
       50
102
RTVSPost2010PropOp42
 70
     1
102
RTVSPost2010Prop43
 90
        3
102
RTVSPost2010PropOp43
 70
     1
102
RTVSPost2010Prop44ColorIndex
 90
        5
102
RTVSPost2010Prop44ColorRGB
 90
      255
102
RTVSPost2010PropOp44
 70
     1
102
RTVSPost2010Prop45
280
     0
102
RTVSPost2010PropOp45
 70
     1
102
RTVSPost2010Prop46
 90
       50
102
RTVSPost2010PropOp46
 70
     1
102
RTVSPost2010Prop47
 90
       50
102
RTVSPost2010PropOp47
 70
     1
102
RTVSPost2010Prop48
 90
       50
102
RTVSPost2010PropOp48
 70
     1
102
RTVSPost2010Prop49
280
     0
102
RTVSPost2010PropOp49
 70
     1
102
RTVSPost2010Prop50
 90
       50
102
RTVSPost2010PropOp50
 70
     1
102
RTVSPost2010Prop51ColorIndex
 90
      256
102
RTVSPost2010Prop51ColorRGB
 90
-16777216
102
RTVSPost2010PropOp51
 70
     0
102
RTVSPost2010Prop52
140
1.0
102
RTVSPost2010PropOp52
 70
     0
102
RTVSPost2010Prop53
 90
        2
102
RTVSPost2010PropOp53
 70
     1
102
RTVSPost2010Prop54
  1
strokes_ogs.tif
102
RTVSPost2010PropOp54
 70
     1
102
RTVSPost2010Prop55
280
     0
102
RTVSPost2010PropOp55
 70
     1
102
RTVSPost2010Prop56
140
1.0
102
RTVSPost2010PropOp56
 70
     1
102
RTVSPost2010Prop57
140
1.0
102
RTVSPost2010PropOp57
 70
     1
  0
XRECORD
  5
624
102
{ACAD_REACTORS
330
623
102
}
330
623
100
AcDbXrecord
280
     1
102
RTVSPropertyOp0
 70
     1
102
RTVSPropertyOp1
 70
     1
102
RTVSPropertyOp2
 70
     1
102
RTVSPropertyOp3
 70
     1
102
RTVSPropertyOp4
 70
     1
102
RTVSPropertyOp5
 70
     1
102
RTVSPropertyOp6
 70
     1
102
RTVSPropertyOp7
 70
     1
102
RTVSPropertyOp8
 70
     1
102
RTVSPropertyOp9
 70
     1
102
RTVSPropertyOp10
 70
     1
102
RTVSPropertyOp11
 70
     1
102
RTVSPropertyOp12
 70
     1
102
RTVSPropertyOp13
 70
     1
102
RTVSPropertyOp14
 70
     1
102
RTVSPropertyOp15
 70
     1
102
RTVSPropertyOp16
 70
     1
102
RTVSPropertyOp17
 70
     1
102
RTVSPropertyOp18
 70
     1
102
RTVSPropertyOp19
 70
     1
102
RTVSPropertyOp20
 70
     1
102
RTVSPropertyOp21
 70
     1
102
RTVSPropertyOp22
 70
     1
102
RTVSPropertyOp23
 70
     1
102
RTVSPropertyOp24
 70
     1
102
RTVSPropertyOp25
 70
     1
102
RTVSPropertyOp26
 70
     1
102
RTVSPropertyOp27
 70
     1
102
RTVSPropertyOp28
 70
     1
102
RTVSPropertyOp29
 70
     1
102
RTVSPropertyOp30
 70
     1
102
RTVSPropertyOp31
 70
     1
102
RTVSPropertyOp32
 70
     1
102
RTVSPropertyOp33
 70
     1
102
RTVSPropertyOp34
 70
     1
102
RTVSPropertyOp35
 70
     1
102
RTVSPropertyOp36
 70
     1
102
RTVSPropertyOp37
 70
     1
102
RTVSPropertyOp38
 70
     1
102
RTVSPropertyOp39
 70
     1
102
RTVSPropertyOp40
 70
     1
102
RTVSPropertyOp41
 70
     1
102
RTVSPropertyOp42
 70
     1
102
RTVSPropertyOp43
 70
     1
102
RTVSPropertyOp44
 70
     1
102
RTVSPropertyOp45
 70
     1
102
RTVSPropertyOp46
 70
     1
102
RTVSPropertyOp47
 70
     1
102
RTVSPropertyOp48
 70
     1
102
RTVSPropertyOp49
 70
     1
102
RTVSPropertyOp50
 70
     1
102
RTVSPropertyOp51
 70
     0
102
RTVSPropertyOp52
 70
     0
102
RTVSPropertyOp53
 70
     1
102
RTVSPropertyOp54
 70
     1
102
RTVSPropertyOp55
 70
     1
102
RTVSPropertyOp56
 70
     1
102
RTVSPropertyOp57
 70
     1
102
RTVSPost2010Prop28
280
     0
102
RTVSPost2010PropOp28
 70
     1
102
RTVSPost2010Prop29
280
     1
102
RTVSPost2010PropOp29
 70
     1
102
RTVSPost2010Prop30
280
     1
102
RTVSPost2010PropOp30
 70
     1
102
RTVSPost2010Prop31
280
     0
102
RTVSPost2010PropOp31
 70
     1
102
RTVSPost2010Prop32
280
     0
102
RTVSPost2010PropOp32
 70
     1
102
RTVSPost2010Prop33
280
     0
102
RTVSPost2010PropOp33
 70
     1
102
RTVSPost2010Prop34
280
     0
102
RTVSPost2010PropOp34
 70
     1
102
RTVSPost2010Prop35
280
     0
102
RTVSPost2010PropOp35
 70
     1
102
RTVSPost2010Prop36
280
     0
102
RTVSPost2010PropOp36
 70
     1
102
RTVSPost2010Prop37
 90
       50
102
RTVSPost2010PropOp37
 70
     1
102
RTVSPost2010Prop38
140
0.0
102
RTVSPost2010PropOp38
 70
     1
102
RTVSPost2010Prop39
140
1.0
102
RTVSPost2010PropOp39
 70
     1
102
RTVSPost2010Prop40
 90
        0
102
RTVSPost2010PropOp40
 70
     1
102
RTVSPost2010Prop41ColorIndex
 90
       18
102
RTVSPost2010Prop41ColorRGB
 90
        0
102
RTVSPost2010PropOp41
 70
     1
102
RTVSPost2010Prop42
 90
       50
102
RTVSPost2010PropOp42
 70
     1
102
RTVSPost2010Prop43
 90
        3
102
RTVSPost2010PropOp43
 70
     1
102
RTVSPost2010Prop44ColorIndex
 90
        5
102
RTVSPost2010Prop44ColorRGB
 90
      255
102
RTVSPost2010PropOp44
 70
     1
102
RTVSPost2010Prop45
280
     0
102
RTVSPost2010PropOp45
 70
     1
102
RTVSPost2010Prop46
 90
       50
102
RTVSPost2010PropOp46
 70
     1
102
RTVSPost2010Prop47
 90
       50
102
RTVSPost2010PropOp47
 70
     1
102
RTVSPost2010Prop48
 90
       50
102
RTVSPost2010PropOp48
 70
     1
102
RTVSPost2010Prop49
280
     0
102
RTVSPost2010PropOp49
 70
     1
102
RTVSPost2010Prop50
 90
       50
102
RTVSPost2010PropOp50
 70
     1
102
RTVSPost2010Prop51ColorIndex
 90
      256
102
RTVSPost2010Prop51ColorRGB
 90
-16777216
102
RTVSPost2010PropOp51
 70
     0
102
RTVSPost2010Prop52
140
1.0
102
RTVSPost2010PropOp52
 70
     0
102
RTVSPost2010Prop53
 90
        2
102
RTVSPost2010PropOp53
 70
     1
102
RTVSPost2010Prop54
  1
strokes_ogs.tif
102
RTVSPost2010PropOp54
 70
     1
102
RTVSPost2010Prop55
280
     0
102
RTVSPost2010PropOp55
 70
     1
102
RTVSPost2010Prop56
140
1.0
102
RTVSPost2010PropOp56
 70
     1
102
RTVSPost2010Prop57
140
1.0
102
RTVSPost2010PropOp57
 70
     1
  0
XRECORD
  5
626
102
{ACAD_REACTORS
330
625
102
}
330
625
100
AcDbXrecord
280
     1
102
RTVSPropertyOp0
 70
     1
102
RTVSPropertyOp1
 70
     1
102
RTVSPropertyOp2
 70
     1
102
RTVSPropertyOp3
 70
     1
102
RTVSPropertyOp4
 70
     1
102
RTVSPropertyOp5
 70
     1
102
RTVSPropertyOp6
 70
     1
102
RTVSPropertyOp7
 70
     1
102
RTVSPropertyOp8
 70
     1
102
RTVSPropertyOp9
 70
     1
102
RTVSPropertyOp10
 70
     1
102
RTVSPropertyOp11
 70
     1
102
RTVSPropertyOp12
 70
     1
102
RTVSPropertyOp13
 70
     1
102
RTVSPropertyOp14
 70
     1
102
RTVSPropertyOp15
 70
     1
102
RTVSPropertyOp16
 70
     1
102
RTVSPropertyOp17
 70
     1
102
RTVSPropertyOp18
 70
     1
102
RTVSPropertyOp19
 70
     1
102
RTVSPropertyOp20
 70
     1
102
RTVSPropertyOp21
 70
     1
102
RTVSPropertyOp22
 70
     1
102
RTVSPropertyOp23
 70
     1
102
RTVSPropertyOp24
 70
     1
102
RTVSPropertyOp25
 70
     1
102
RTVSPropertyOp26
 70
     1
102
RTVSPropertyOp27
 70
     1
102
RTVSPropertyOp28
 70
     1
102
RTVSPropertyOp29
 70
     1
102
RTVSPropertyOp30
 70
     1
102
RTVSPropertyOp31
 70
     1
102
RTVSPropertyOp32
 70
     1
102
RTVSPropertyOp33
 70
     1
102
RTVSPropertyOp34
 70
     1
102
RTVSPropertyOp35
 70
     1
102
RTVSPropertyOp36
 70
     1
102
RTVSPropertyOp37
 70
     1
102
RTVSPropertyOp38
 70
     1
102
RTVSPropertyOp39
 70
     1
102
RTVSPropertyOp40
 70
     1
102
RTVSPropertyOp41
 70
     1
102
RTVSPropertyOp42
 70
     1
102
RTVSPropertyOp43
 70
     1
102
RTVSPropertyOp44
 70
     1
102
RTVSPropertyOp45
 70
     1
102
RTVSPropertyOp46
 70
     1
102
RTVSPropertyOp47
 70
     1
102
RTVSPropertyOp48
 70
     1
102
RTVSPropertyOp49
 70
     1
102
RTVSPropertyOp50
 70
     1
102
RTVSPropertyOp51
 70
     0
102
RTVSPropertyOp52
 70
     0
102
RTVSPropertyOp53
 70
     1
102
RTVSPropertyOp54
 70
     1
102
RTVSPropertyOp55
 70
     1
102
RTVSPropertyOp56
 70
     1
102
RTVSPropertyOp57
 70
     1
102
RTVSPost2010Prop28
280
     0
102
RTVSPost2010PropOp28
 70
     1
102
RTVSPost2010Prop29
280
     1
102
RTVSPost2010PropOp29
 70
     1
102
RTVSPost2010Prop30
280
     1
102
RTVSPost2010PropOp30
 70
     1
102
RTVSPost2010Prop31
280
     0
102
RTVSPost2010PropOp31
 70
     1
102
RTVSPost2010Prop32
280
     0
102
RTVSPost2010PropOp32
 70
     1
102
RTVSPost2010Prop33
280
     0
102
RTVSPost2010PropOp33
 70
     1
102
RTVSPost2010Prop34
280
     0
102
RTVSPost2010PropOp34
 70
     1
102
RTVSPost2010Prop35
280
     0
102
RTVSPost2010PropOp35
 70
     1
102
RTVSPost2010Prop36
280
     0
102
RTVSPost2010PropOp36
 70
     1
102
RTVSPost2010Prop37
 90
       50
102
RTVSPost2010PropOp37
 70
     1
102
RTVSPost2010Prop38
140
0.0
102
RTVSPost2010PropOp38
 70
     1
102
RTVSPost2010Prop39
140
1.0
102
RTVSPost2010PropOp39
 70
     1
102
RTVSPost2010Prop40
 90
        0
102
RTVSPost2010PropOp40
 70
     1
102
RTVSPost2010Prop41ColorIndex
 90
       18
102
RTVSPost2010Prop41ColorRGB
 90
        0
102
RTVSPost2010PropOp41
 70
     1
102
RTVSPost2010Prop42
 90
       50
102
RTVSPost2010PropOp42
 70
     1
102
RTVSPost2010Prop43
 90
        3
102
RTVSPost2010PropOp43
 70
     1
102
RTVSPost2010Prop44ColorIndex
 90
        5
102
RTVSPost2010Prop44ColorRGB
 90
      255
102
RTVSPost2010PropOp44
 70
     1
102
RTVSPost2010Prop45
280
     0
102
RTVSPost2010PropOp45
 70
     1
102
RTVSPost2010Prop46
 90
       50
102
RTVSPost2010PropOp46
 70
     1
102
RTVSPost2010Prop47
 90
       50
102
RTVSPost2010PropOp47
 70
     1
102
RTVSPost2010Prop48
 90
       50
102
RTVSPost2010PropOp48
 70
     1
102
RTVSPost2010Prop49
280
     0
102
RTVSPost2010PropOp49
 70
     1
102
RTVSPost2010Prop50
 90
       50
102
RTVSPost2010PropOp50
 70
     1
102
RTVSPost2010Prop51ColorIndex
 90
      256
102
RTVSPost2010Prop51ColorRGB
 90
-16777216
102
RTVSPost2010PropOp51
 70
     0
102
RTVSPost2010Prop52
140
1.0
102
RTVSPost2010PropOp52
 70
     0
102
RTVSPost2010Prop53
 90
        2
102
RTVSPost2010PropOp53
 70
     1
102
RTVSPost2010Prop54
  1
strokes_ogs.tif
102
RTVSPost2010PropOp54
 70
     1
102
RTVSPost2010Prop55
280
     0
102
RTVSPost2010PropOp55
 70
     1
102
RTVSPost2010Prop56
140
1.0
102
RTVSPost2010PropOp56
 70
     1
102
RTVSPost2010Prop57
140
1.0
102
RTVSPost2010PropOp57
 70
     1
  0
XRECORD
  5
62E
102
{ACAD_REACTORS
330
62D
102
}
330
62D
100
AcDbXrecord
280
     1
102
RTVSPropertyOp0
 70
     1
102
RTVSPropertyOp1
 70
     1
102
RTVSPropertyOp2
 70
     1
102
RTVSPropertyOp3
 70
     1
102
RTVSPropertyOp4
 70
     1
102
RTVSPropertyOp5
 70
     1
102
RTVSPropertyOp6
 70
     1
102
RTVSPropertyOp7
 70
     1
102
RTVSPropertyOp8
 70
     1
102
RTVSPropertyOp9
 70
     1
102
RTVSPropertyOp10
 70
     1
102
RTVSPropertyOp11
 70
     1
102
RTVSPropertyOp12
 70
     1
102
RTVSPropertyOp13
 70
     1
102
RTVSPropertyOp14
 70
     1
102
RTVSPropertyOp15
 70
     1
102
RTVSPropertyOp16
 70
     1
102
RTVSPropertyOp17
 70
     1
102
RTVSPropertyOp18
 70
     1
102
RTVSPropertyOp19
 70
     1
102
RTVSPropertyOp20
 70
     1
102
RTVSPropertyOp21
 70
     1
102
RTVSPropertyOp22
 70
     1
102
RTVSPropertyOp23
 70
     1
102
RTVSPropertyOp24
 70
     1
102
RTVSPropertyOp25
 70
     1
102
RTVSPropertyOp26
 70
     1
102
RTVSPropertyOp27
 70
     1
102
RTVSPropertyOp28
 70
     1
102
RTVSPropertyOp29
 70
     1
102
RTVSPropertyOp30
 70
     1
102
RTVSPropertyOp31
 70
     1
102
RTVSPropertyOp32
 70
     1
102
RTVSPropertyOp33
 70
     1
102
RTVSPropertyOp34
 70
     1
102
RTVSPropertyOp35
 70
     1
102
RTVSPropertyOp36
 70
     1
102
RTVSPropertyOp37
 70
     1
102
RTVSPropertyOp38
 70
     1
102
RTVSPropertyOp39
 70
     1
102
RTVSPropertyOp40
 70
     1
102
RTVSPropertyOp41
 70
     1
102
RTVSPropertyOp42
 70
     1
102
RTVSPropertyOp43
 70
     1
102
RTVSPropertyOp44
 70
     1
102
RTVSPropertyOp45
 70
     1
102
RTVSPropertyOp46
 70
     1
102
RTVSPropertyOp47
 70
     1
102
RTVSPropertyOp48
 70
     1
102
RTVSPropertyOp49
 70
     1
102
RTVSPropertyOp50
 70
     1
102
RTVSPropertyOp51
 70
     0
102
RTVSPropertyOp52
 70
     0
102
RTVSPropertyOp53
 70
     1
102
RTVSPropertyOp54
 70
     1
102
RTVSPropertyOp55
 70
     1
102
RTVSPropertyOp56
 70
     1
102
RTVSPropertyOp57
 70
     1
102
RTVSPost2010Prop28
280
     0
102
RTVSPost2010PropOp28
 70
     1
102
RTVSPost2010Prop29
280
     1
102
RTVSPost2010PropOp29
 70
     1
102
RTVSPost2010Prop30
280
     1
102
RTVSPost2010PropOp30
 70
     1
102
RTVSPost2010Prop31
280
     0
102
RTVSPost2010PropOp31
 70
     1
102
RTVSPost2010Prop32
280
     0
102
RTVSPost2010PropOp32
 70
     1
102
RTVSPost2010Prop33
280
     0
102
RTVSPost2010PropOp33
 70
     1
102
RTVSPost2010Prop34
280
     0
102
RTVSPost2010PropOp34
 70
     1
102
RTVSPost2010Prop35
280
     0
102
RTVSPost2010PropOp35
 70
     1
102
RTVSPost2010Prop36
280
     0
102
RTVSPost2010PropOp36
 70
     1
102
RTVSPost2010Prop37
 90
       50
102
RTVSPost2010PropOp37
 70
     1
102
RTVSPost2010Prop38
140
0.0
102
RTVSPost2010PropOp38
 70
     1
102
RTVSPost2010Prop39
140
1.0
102
RTVSPost2010PropOp39
 70
     1
102
RTVSPost2010Prop40
 90
        0
102
RTVSPost2010PropOp40
 70
     1
102
RTVSPost2010Prop41ColorIndex
 90
       18
102
RTVSPost2010Prop41ColorRGB
 90
        0
102
RTVSPost2010PropOp41
 70
     1
102
RTVSPost2010Prop42
 90
       50
102
RTVSPost2010PropOp42
 70
     1
102
RTVSPost2010Prop43
 90
        3
102
RTVSPost2010PropOp43
 70
     1
102
RTVSPost2010Prop44ColorIndex
 90
        5
102
RTVSPost2010Prop44ColorRGB
 90
      255
102
RTVSPost2010PropOp44
 70
     1
102
RTVSPost2010Prop45
280
     0
102
RTVSPost2010PropOp45
 70
     1
102
RTVSPost2010Prop46
 90
       50
102
RTVSPost2010PropOp46
 70
     1
102
RTVSPost2010Prop47
 90
       50
102
RTVSPost2010PropOp47
 70
     1
102
RTVSPost2010Prop48
 90
       50
102
RTVSPost2010PropOp48
 70
     1
102
RTVSPost2010Prop49
280
     0
102
RTVSPost2010PropOp49
 70
     1
102
RTVSPost2010Prop50
 90
       50
102
RTVSPost2010PropOp50
 70
     1
102
RTVSPost2010Prop51ColorIndex
 90
      256
102
RTVSPost2010Prop51ColorRGB
 90
-16777216
102
RTVSPost2010PropOp51
 70
     0
102
RTVSPost2010Prop52
140
1.0
102
RTVSPost2010PropOp52
 70
     0
102
RTVSPost2010Prop53
 90
        2
102
RTVSPost2010PropOp53
 70
     1
102
RTVSPost2010Prop54
  1
strokes_ogs.tif
102
RTVSPost2010PropOp54
 70
     1
102
RTVSPost2010Prop55
280
     0
102
RTVSPost2010PropOp55
 70
     1
102
RTVSPost2010Prop56
140
1.0
102
RTVSPost2010PropOp56
 70
     1
102
RTVSPost2010Prop57
140
1.0
102
RTVSPost2010PropOp57
 70
     1
  0
XRECORD
  5
612
102
{ACAD_REACTORS
330
611
102
}
330
611
100
AcDbXrecord
280
     1
102
RTVSPropertyOp0
 70
     1
102
RTVSPropertyOp1
 70
     1
102
RTVSPropertyOp2
 70
     1
102
RTVSPropertyOp3
 70
     1
102
RTVSPropertyOp4
 70
     1
102
RTVSPropertyOp5
 70
     1
102
RTVSPropertyOp6
 70
     1
102
RTVSPropertyOp7
 70
     1
102
RTVSPropertyOp8
 70
     1
102
RTVSPropertyOp9
 70
     1
102
RTVSPropertyOp10
 70
     1
102
RTVSPropertyOp11
 70
     1
102
RTVSPropertyOp12
 70
     1
102
RTVSPropertyOp13
 70
     1
102
RTVSPropertyOp14
 70
     1
102
RTVSPropertyOp15
 70
     1
102
RTVSPropertyOp16
 70
     1
102
RTVSPropertyOp17
 70
     1
102
RTVSPropertyOp18
 70
     1
102
RTVSPropertyOp19
 70
     1
102
RTVSPropertyOp20
 70
     1
102
RTVSPropertyOp21
 70
     1
102
RTVSPropertyOp22
 70
     1
102
RTVSPropertyOp23
 70
     1
102
RTVSPropertyOp24
 70
     1
102
RTVSPropertyOp25
 70
     1
102
RTVSPropertyOp26
 70
     1
102
RTVSPropertyOp27
 70
     1
102
RTVSPropertyOp28
 70
     1
102
RTVSPropertyOp29
 70
     1
102
RTVSPropertyOp30
 70
     1
102
RTVSPropertyOp31
 70
     1
102
RTVSPropertyOp32
 70
     1
102
RTVSPropertyOp33
 70
     1
102
RTVSPropertyOp34
 70
     1
102
RTVSPropertyOp35
 70
     1
102
RTVSPropertyOp36
 70
     1
102
RTVSPropertyOp37
 70
     1
102
RTVSPropertyOp38
 70
     1
102
RTVSPropertyOp39
 70
     1
102
RTVSPropertyOp40
 70
     1
102
RTVSPropertyOp41
 70
     1
102
RTVSPropertyOp42
 70
     1
102
RTVSPropertyOp43
 70
     1
102
RTVSPropertyOp44
 70
     1
102
RTVSPropertyOp45
 70
     1
102
RTVSPropertyOp46
 70
     1
102
RTVSPropertyOp47
 70
     1
102
RTVSPropertyOp48
 70
     1
102
RTVSPropertyOp49
 70
     1
102
RTVSPropertyOp50
 70
     1
102
RTVSPropertyOp51
 70
     0
102
RTVSPropertyOp52
 70
     0
102
RTVSPropertyOp53
 70
     1
102
RTVSPropertyOp54
 70
     1
102
RTVSPropertyOp55
 70
     1
102
RTVSPropertyOp56
 70
     1
102
RTVSPropertyOp57
 70
     1
102
RTVSPost2010Prop28
280
     0
102
RTVSPost2010PropOp28
 70
     1
102
RTVSPost2010Prop29
280
     1
102
RTVSPost2010PropOp29
 70
     1
102
RTVSPost2010Prop30
280
     1
102
RTVSPost2010PropOp30
 70
     1
102
RTVSPost2010Prop31
280
     0
102
RTVSPost2010PropOp31
 70
     1
102
RTVSPost2010Prop32
280
     0
102
RTVSPost2010PropOp32
 70
     1
102
RTVSPost2010Prop33
280
     0
102
RTVSPost2010PropOp33
 70
     1
102
RTVSPost2010Prop34
280
     0
102
RTVSPost2010PropOp34
 70
     1
102
RTVSPost2010Prop35
280
     0
102
RTVSPost2010PropOp35
 70
     1
102
RTVSPost2010Prop36
280
     0
102
RTVSPost2010PropOp36
 70
     1
102
RTVSPost2010Prop37
 90
       50
102
RTVSPost2010PropOp37
 70
     1
102
RTVSPost2010Prop38
140
0.0
102
RTVSPost2010PropOp38
 70
     1
102
RTVSPost2010Prop39
140
1.0
102
RTVSPost2010PropOp39
 70
     1
102
RTVSPost2010Prop40
 90
        0
102
RTVSPost2010PropOp40
 70
     1
102
RTVSPost2010Prop41ColorIndex
 90
       18
102
RTVSPost2010Prop41ColorRGB
 90
        0
102
RTVSPost2010PropOp41
 70
     1
102
RTVSPost2010Prop42
 90
       50
102
RTVSPost2010PropOp42
 70
     1
102
RTVSPost2010Prop43
 90
        3
102
RTVSPost2010PropOp43
 70
     1
102
RTVSPost2010Prop44ColorIndex
 90
        5
102
RTVSPost2010Prop44ColorRGB
 90
      255
102
RTVSPost2010PropOp44
 70
     1
102
RTVSPost2010Prop45
280
     0
102
RTVSPost2010PropOp45
 70
     1
102
RTVSPost2010Prop46
 90
       50
102
RTVSPost2010PropOp46
 70
     1
102
RTVSPost2010Prop47
 90
       50
102
RTVSPost2010PropOp47
 70
     1
102
RTVSPost2010Prop48
 90
       50
102
RTVSPost2010PropOp48
 70
     1
102
RTVSPost2010Prop49
280
     0
102
RTVSPost2010PropOp49
 70
     1
102
RTVSPost2010Prop50
 90
       50
102
RTVSPost2010PropOp50
 70
     1
102
RTVSPost2010Prop51ColorIndex
 90
      256
102
RTVSPost2010Prop51ColorRGB
 90
-16777216
102
RTVSPost2010PropOp51
 70
     0
102
RTVSPost2010Prop52
140
1.0
102
RTVSPost2010PropOp52
 70
     0
102
RTVSPost2010Prop53
 90
        2
102
RTVSPost2010PropOp53
 70
     1
102
RTVSPost2010Prop54
  1
strokes_ogs.tif
102
RTVSPost2010PropOp54
 70
     1
102
RTVSPost2010Prop55
280
     0
102
RTVSPost2010PropOp55
 70
     1
102
RTVSPost2010Prop56
140
1.0
102
RTVSPost2010PropOp56
 70
     1
102
RTVSPost2010Prop57
140
1.0
102
RTVSPost2010PropOp57
 70
     1
  0
XRECORD
  5
614
102
{ACAD_REACTORS
330
613
102
}
330
613
100
AcDbXrecord
280
     1
102
RTVSPropertyOp0
 70
     1
102
RTVSPropertyOp1
 70
     1
102
RTVSPropertyOp2
 70
     1
102
RTVSPropertyOp3
 70
     1
102
RTVSPropertyOp4
 70
     1
102
RTVSPropertyOp5
 70
     1
102
RTVSPropertyOp6
 70
     1
102
RTVSPropertyOp7
 70
     1
102
RTVSPropertyOp8
 70
     1
102
RTVSPropertyOp9
 70
     1
102
RTVSPropertyOp10
 70
     1
102
RTVSPropertyOp11
 70
     1
102
RTVSPropertyOp12
 70
     1
102
RTVSPropertyOp13
 70
     1
102
RTVSPropertyOp14
 70
     1
102
RTVSPropertyOp15
 70
     1
102
RTVSPropertyOp16
 70
     1
102
RTVSPropertyOp17
 70
     1
102
RTVSPropertyOp18
 70
     1
102
RTVSPropertyOp19
 70
     1
102
RTVSPropertyOp20
 70
     1
102
RTVSPropertyOp21
 70
     1
102
RTVSPropertyOp22
 70
     1
102
RTVSPropertyOp23
 70
     1
102
RTVSPropertyOp24
 70
     1
102
RTVSPropertyOp25
 70
     1
102
RTVSPropertyOp26
 70
     1
102
RTVSPropertyOp27
 70
     1
102
RTVSPropertyOp28
 70
     1
102
RTVSPropertyOp29
 70
     1
102
RTVSPropertyOp30
 70
     1
102
RTVSPropertyOp31
 70
     1
102
RTVSPropertyOp32
 70
     1
102
RTVSPropertyOp33
 70
     1
102
RTVSPropertyOp34
 70
     1
102
RTVSPropertyOp35
 70
     1
102
RTVSPropertyOp36
 70
     1
102
RTVSPropertyOp37
 70
     1
102
RTVSPropertyOp38
 70
     1
102
RTVSPropertyOp39
 70
     1
102
RTVSPropertyOp40
 70
     1
102
RTVSPropertyOp41
 70
     1
102
RTVSPropertyOp42
 70
     1
102
RTVSPropertyOp43
 70
     1
102
RTVSPropertyOp44
 70
     1
102
RTVSPropertyOp45
 70
     1
102
RTVSPropertyOp46
 70
     1
102
RTVSPropertyOp47
 70
     1
102
RTVSPropertyOp48
 70
     1
102
RTVSPropertyOp49
 70
     1
102
RTVSPropertyOp50
 70
     1
102
RTVSPropertyOp51
 70
     0
102
RTVSPropertyOp52
 70
     0
102
RTVSPropertyOp53
 70
     1
102
RTVSPropertyOp54
 70
     1
102
RTVSPropertyOp55
 70
     1
102
RTVSPropertyOp56
 70
     1
102
RTVSPropertyOp57
 70
     1
102
RTVSPost2010Prop28
280
     0
102
RTVSPost2010PropOp28
 70
     1
102
RTVSPost2010Prop29
280
     1
102
RTVSPost2010PropOp29
 70
     1
102
RTVSPost2010Prop30
280
     1
102
RTVSPost2010PropOp30
 70
     1
102
RTVSPost2010Prop31
280
     0
102
RTVSPost2010PropOp31
 70
     1
102
RTVSPost2010Prop32
280
     0
102
RTVSPost2010PropOp32
 70
     1
102
RTVSPost2010Prop33
280
     0
102
RTVSPost2010PropOp33
 70
     1
102
RTVSPost2010Prop34
280
     0
102
RTVSPost2010PropOp34
 70
     1
102
RTVSPost2010Prop35
280
     0
102
RTVSPost2010PropOp35
 70
     1
102
RTVSPost2010Prop36
280
     0
102
RTVSPost2010PropOp36
 70
     1
102
RTVSPost2010Prop37
 90
       50
102
RTVSPost2010PropOp37
 70
     1
102
RTVSPost2010Prop38
140
0.0
102
RTVSPost2010PropOp38
 70
     1
102
RTVSPost2010Prop39
140
1.0
102
RTVSPost2010PropOp39
 70
     1
102
RTVSPost2010Prop40
 90
        0
102
RTVSPost2010PropOp40
 70
     1
102
RTVSPost2010Prop41ColorIndex
 90
       18
102
RTVSPost2010Prop41ColorRGB
 90
        0
102
RTVSPost2010PropOp41
 70
     1
102
RTVSPost2010Prop42
 90
       50
102
RTVSPost2010PropOp42
 70
     1
102
RTVSPost2010Prop43
 90
        3
102
RTVSPost2010PropOp43
 70
     1
102
RTVSPost2010Prop44ColorIndex
 90
        5
102
RTVSPost2010Prop44ColorRGB
 90
      255
102
RTVSPost2010PropOp44
 70
     1
102
RTVSPost2010Prop45
280
     0
102
RTVSPost2010PropOp45
 70
     1
102
RTVSPost2010Prop46
 90
       50
102
RTVSPost2010PropOp46
 70
     1
102
RTVSPost2010Prop47
 90
       50
102
RTVSPost2010PropOp47
 70
     1
102
RTVSPost2010Prop48
 90
       50
102
RTVSPost2010PropOp48
 70
     1
102
RTVSPost2010Prop49
280
     0
102
RTVSPost2010PropOp49
 70
     1
102
RTVSPost2010Prop50
 90
       50
102
RTVSPost2010PropOp50
 70
     1
102
RTVSPost2010Prop51ColorIndex
 90
      256
102
RTVSPost2010Prop51ColorRGB
 90
-16777216
102
RTVSPost2010PropOp51
 70
     0
102
RTVSPost2010Prop52
140
1.0
102
RTVSPost2010PropOp52
 70
     0
102
RTVSPost2010Prop53
 90
        2
102
RTVSPost2010PropOp53
 70
     1
102
RTVSPost2010Prop54
  1
strokes_ogs.tif
102
RTVSPost2010PropOp54
 70
     1
102
RTVSPost2010Prop55
280
     0
102
RTVSPost2010PropOp55
 70
     1
102
RTVSPost2010Prop56
140
1.0
102
RTVSPost2010PropOp56
 70
     1
102
RTVSPost2010Prop57
140
1.0
102
RTVSPost2010PropOp57
 70
     1
  0
XRECORD
  5
616
102
{ACAD_REACTORS
330
615
102
}
330
615
100
AcDbXrecord
280
     1
102
RTVSPropertyOp0
 70
     1
102
RTVSPropertyOp1
 70
     1
102
RTVSPropertyOp2
 70
     1
102
RTVSPropertyOp3
 70
     1
102
RTVSPropertyOp4
 70
     1
102
RTVSPropertyOp5
 70
     1
102
RTVSPropertyOp6
 70
     1
102
RTVSPropertyOp7
 70
     1
102
RTVSPropertyOp8
 70
     1
102
RTVSPropertyOp9
 70
     1
102
RTVSPropertyOp10
 70
     1
102
RTVSPropertyOp11
 70
     1
102
RTVSPropertyOp12
 70
     1
102
RTVSPropertyOp13
 70
     1
102
RTVSPropertyOp14
 70
     1
102
RTVSPropertyOp15
 70
     1
102
RTVSPropertyOp16
 70
     1
102
RTVSPropertyOp17
 70
     1
102
RTVSPropertyOp18
 70
     1
102
RTVSPropertyOp19
 70
     1
102
RTVSPropertyOp20
 70
     1
102
RTVSPropertyOp21
 70
     1
102
RTVSPropertyOp22
 70
     1
102
RTVSPropertyOp23
 70
     1
102
RTVSPropertyOp24
 70
     1
102
RTVSPropertyOp25
 70
     1
102
RTVSPropertyOp26
 70
     1
102
RTVSPropertyOp27
 70
     1
102
RTVSPropertyOp28
 70
     1
102
RTVSPropertyOp29
 70
     1
102
RTVSPropertyOp30
 70
     1
102
RTVSPropertyOp31
 70
     1
102
RTVSPropertyOp32
 70
     1
102
RTVSPropertyOp33
 70
     1
102
RTVSPropertyOp34
 70
     1
102
RTVSPropertyOp35
 70
     1
102
RTVSPropertyOp36
 70
     1
102
RTVSPropertyOp37
 70
     1
102
RTVSPropertyOp38
 70
     1
102
RTVSPropertyOp39
 70
     1
102
RTVSPropertyOp40
 70
     1
102
RTVSPropertyOp41
 70
     1
102
RTVSPropertyOp42
 70
     1
102
RTVSPropertyOp43
 70
     1
102
RTVSPropertyOp44
 70
     1
102
RTVSPropertyOp45
 70
     1
102
RTVSPropertyOp46
 70
     1
102
RTVSPropertyOp47
 70
     1
102
RTVSPropertyOp48
 70
     1
102
RTVSPropertyOp49
 70
     1
102
RTVSPropertyOp50
 70
     1
102
RTVSPropertyOp51
 70
     0
102
RTVSPropertyOp52
 70
     0
102
RTVSPropertyOp53
 70
     1
102
RTVSPropertyOp54
 70
     1
102
RTVSPropertyOp55
 70
     1
102
RTVSPropertyOp56
 70
     1
102
RTVSPropertyOp57
 70
     1
102
RTVSPost2010Prop28
280
     0
102
RTVSPost2010PropOp28
 70
     1
102
RTVSPost2010Prop29
280
     1
102
RTVSPost2010PropOp29
 70
     1
102
RTVSPost2010Prop30
280
     1
102
RTVSPost2010PropOp30
 70
     1
102
RTVSPost2010Prop31
280
     0
102
RTVSPost2010PropOp31
 70
     1
102
RTVSPost2010Prop32
280
     0
102
RTVSPost2010PropOp32
 70
     1
102
RTVSPost2010Prop33
280
     0
102
RTVSPost2010PropOp33
 70
     1
102
RTVSPost2010Prop34
280
     0
102
RTVSPost2010PropOp34
 70
     1
102
RTVSPost2010Prop35
280
     0
102
RTVSPost2010PropOp35
 70
     1
102
RTVSPost2010Prop36
280
     0
102
RTVSPost2010PropOp36
 70
     1
102
RTVSPost2010Prop37
 90
       50
102
RTVSPost2010PropOp37
 70
     1
102
RTVSPost2010Prop38
140
0.0
102
RTVSPost2010PropOp38
 70
     1
102
RTVSPost2010Prop39
140
1.0
102
RTVSPost2010PropOp39
 70
     1
102
RTVSPost2010Prop40
 90
        0
102
RTVSPost2010PropOp40
 70
     1
102
RTVSPost2010Prop41ColorIndex
 90
       18
102
RTVSPost2010Prop41ColorRGB
 90
        0
102
RTVSPost2010PropOp41
 70
     1
102
RTVSPost2010Prop42
 90
       50
102
RTVSPost2010PropOp42
 70
     1
102
RTVSPost2010Prop43
 90
        3
102
RTVSPost2010PropOp43
 70
     1
102
RTVSPost2010Prop44ColorIndex
 90
        5
102
RTVSPost2010Prop44ColorRGB
 90
      255
102
RTVSPost2010PropOp44
 70
     1
102
RTVSPost2010Prop45
280
     0
102
RTVSPost2010PropOp45
 70
     1
102
RTVSPost2010Prop46
 90
       50
102
RTVSPost2010PropOp46
 70
     1
102
RTVSPost2010Prop47
 90
       50
102
RTVSPost2010PropOp47
 70
     1
102
RTVSPost2010Prop48
 90
       50
102
RTVSPost2010PropOp48
 70
     1
102
RTVSPost2010Prop49
280
     0
102
RTVSPost2010PropOp49
 70
     1
102
RTVSPost2010Prop50
 90
       50
102
RTVSPost2010PropOp50
 70
     1
102
RTVSPost2010Prop51ColorIndex
 90
      256
102
RTVSPost2010Prop51ColorRGB
 90
-16777216
102
RTVSPost2010PropOp51
 70
     0
102
RTVSPost2010Prop52
140
1.0
102
RTVSPost2010PropOp52
 70
     0
102
RTVSPost2010Prop53
 90
        2
102
RTVSPost2010PropOp53
 70
     1
102
RTVSPost2010Prop54
  1
strokes_ogs.tif
102
RTVSPost2010PropOp54
 70
     1
102
RTVSPost2010Prop55
280
     0
102
RTVSPost2010PropOp55
 70
     1
102
RTVSPost2010Prop56
140
1.0
102
RTVSPost2010PropOp56
 70
     1
102
RTVSPost2010Prop57
140
1.0
102
RTVSPost2010PropOp57
 70
     1
  0
XRECORD
  5
618
102
{ACAD_REACTORS
330
617
102
}
330
617
100
AcDbXrecord
280
     1
102
RTVSPropertyOp0
 70
     1
102
RTVSPropertyOp1
 70
     1
102
RTVSPropertyOp2
 70
     1
102
RTVSPropertyOp3
 70
     1
102
RTVSPropertyOp4
 70
     1
102
RTVSPropertyOp5
 70
     1
102
RTVSPropertyOp6
 70
     1
102
RTVSPropertyOp7
 70
     1
102
RTVSPropertyOp8
 70
     1
102
RTVSPropertyOp9
 70
     1
102
RTVSPropertyOp10
 70
     1
102
RTVSPropertyOp11
 70
     1
102
RTVSPropertyOp12
 70
     1
102
RTVSPropertyOp13
 70
     1
102
RTVSPropertyOp14
 70
     1
102
RTVSPropertyOp15
 70
     1
102
RTVSPropertyOp16
 70
     1
102
RTVSPropertyOp17
 70
     1
102
RTVSPropertyOp18
 70
     1
102
RTVSPropertyOp19
 70
     1
102
RTVSPropertyOp20
 70
     1
102
RTVSPropertyOp21
 70
     1
102
RTVSPropertyOp22
 70
     1
102
RTVSPropertyOp23
 70
     1
102
RTVSPropertyOp24
 70
     1
102
RTVSPropertyOp25
 70
     1
102
RTVSPropertyOp26
 70
     1
102
RTVSPropertyOp27
 70
     1
102
RTVSPropertyOp28
 70
     1
102
RTVSPropertyOp29
 70
     1
102
RTVSPropertyOp30
 70
     1
102
RTVSPropertyOp31
 70
     1
102
RTVSPropertyOp32
 70
     1
102
RTVSPropertyOp33
 70
     1
102
RTVSPropertyOp34
 70
     1
102
RTVSPropertyOp35
 70
     1
102
RTVSPropertyOp36
 70
     1
102
RTVSPropertyOp37
 70
     1
102
RTVSPropertyOp38
 70
     1
102
RTVSPropertyOp39
 70
     1
102
RTVSPropertyOp40
 70
     1
102
RTVSPropertyOp41
 70
     1
102
RTVSPropertyOp42
 70
     1
102
RTVSPropertyOp43
 70
     1
102
RTVSPropertyOp44
 70
     1
102
RTVSPropertyOp45
 70
     1
102
RTVSPropertyOp46
 70
     1
102
RTVSPropertyOp47
 70
     1
102
RTVSPropertyOp48
 70
     1
102
RTVSPropertyOp49
 70
     1
102
RTVSPropertyOp50
 70
     1
102
RTVSPropertyOp51
 70
     0
102
RTVSPropertyOp52
 70
     0
102
RTVSPropertyOp53
 70
     1
102
RTVSPropertyOp54
 70
     1
102
RTVSPropertyOp55
 70
     1
102
RTVSPropertyOp56
 70
     1
102
RTVSPropertyOp57
 70
     1
102
RTVSPost2010Prop28
280
     0
102
RTVSPost2010PropOp28
 70
     1
102
RTVSPost2010Prop29
280
     1
102
RTVSPost2010PropOp29
 70
     1
102
RTVSPost2010Prop30
280
     1
102
RTVSPost2010PropOp30
 70
     1
102
RTVSPost2010Prop31
280
     0
102
RTVSPost2010PropOp31
 70
     1
102
RTVSPost2010Prop32
280
     0
102
RTVSPost2010PropOp32
 70
     1
102
RTVSPost2010Prop33
280
     0
102
RTVSPost2010PropOp33
 70
     1
102
RTVSPost2010Prop34
280
     0
102
RTVSPost2010PropOp34
 70
     1
102
RTVSPost2010Prop35
280
     0
102
RTVSPost2010PropOp35
 70
     1
102
RTVSPost2010Prop36
280
     0
102
RTVSPost2010PropOp36
 70
     1
102
RTVSPost2010Prop37
 90
       50
102
RTVSPost2010PropOp37
 70
     1
102
RTVSPost2010Prop38
140
0.0
102
RTVSPost2010PropOp38
 70
     1
102
RTVSPost2010Prop39
140
1.0
102
RTVSPost2010PropOp39
 70
     1
102
RTVSPost2010Prop40
 90
        0
102
RTVSPost2010PropOp40
 70
     1
102
RTVSPost2010Prop41ColorIndex
 90
       18
102
RTVSPost2010Prop41ColorRGB
 90
        0
102
RTVSPost2010PropOp41
 70
     1
102
RTVSPost2010Prop42
 90
       50
102
RTVSPost2010PropOp42
 70
     1
102
RTVSPost2010Prop43
 90
        3
102
RTVSPost2010PropOp43
 70
     1
102
RTVSPost2010Prop44ColorIndex
 90
        5
102
RTVSPost2010Prop44ColorRGB
 90
      255
102
RTVSPost2010PropOp44
 70
     1
102
RTVSPost2010Prop45
280
     0
102
RTVSPost2010PropOp45
 70
     1
102
RTVSPost2010Prop46
 90
       50
102
RTVSPost2010PropOp46
 70
     1
102
RTVSPost2010Prop47
 90
       50
102
RTVSPost2010PropOp47
 70
     1
102
RTVSPost2010Prop48
 90
       50
102
RTVSPost2010PropOp48
 70
     1
102
RTVSPost2010Prop49
280
     0
102
RTVSPost2010PropOp49
 70
     1
102
RTVSPost2010Prop50
 90
       50
102
RTVSPost2010PropOp50
 70
     1
102
RTVSPost2010Prop51ColorIndex
 90
      256
102
RTVSPost2010Prop51ColorRGB
 90
-16777216
102
RTVSPost2010PropOp51
 70
     0
102
RTVSPost2010Prop52
140
1.0
102
RTVSPost2010PropOp52
 70
     0
102
RTVSPost2010Prop53
 90
        2
102
RTVSPost2010PropOp53
 70
     1
102
RTVSPost2010Prop54
  1
strokes_ogs.tif
102
RTVSPost2010PropOp54
 70
     1
102
RTVSPost2010Prop55
280
     0
102
RTVSPost2010PropOp55
 70
     1
102
RTVSPost2010Prop56
140
1.0
102
RTVSPost2010PropOp56
 70
     1
102
RTVSPost2010Prop57
140
1.0
102
RTVSPost2010PropOp57
 70
     1
  0
XRECORD
  5
62C
102
{ACAD_REACTORS
330
62B
102
}
330
62B
100
AcDbXrecord
280
     1
102
RTVSPropertyOp0
 70
     1
102
RTVSPropertyOp1
 70
     1
102
RTVSPropertyOp2
 70
     1
102
RTVSPropertyOp3
 70
     1
102
RTVSPropertyOp4
 70
     1
102
RTVSPropertyOp5
 70
     1
102
RTVSPropertyOp6
 70
     1
102
RTVSPropertyOp7
 70
     1
102
RTVSPropertyOp8
 70
     1
102
RTVSPropertyOp9
 70
     1
102
RTVSPropertyOp10
 70
     1
102
RTVSPropertyOp11
 70
     1
102
RTVSPropertyOp12
 70
     1
102
RTVSPropertyOp13
 70
     1
102
RTVSPropertyOp14
 70
     1
102
RTVSPropertyOp15
 70
     1
102
RTVSPropertyOp16
 70
     1
102
RTVSPropertyOp17
 70
     1
102
RTVSPropertyOp18
 70
     1
102
RTVSPropertyOp19
 70
     1
102
RTVSPropertyOp20
 70
     1
102
RTVSPropertyOp21
 70
     1
102
RTVSPropertyOp22
 70
     1
102
RTVSPropertyOp23
 70
     1
102
RTVSPropertyOp24
 70
     1
102
RTVSPropertyOp25
 70
     1
102
RTVSPropertyOp26
 70
     1
102
RTVSPropertyOp27
 70
     1
102
RTVSPropertyOp28
 70
     1
102
RTVSPropertyOp29
 70
     1
102
RTVSPropertyOp30
 70
     1
102
RTVSPropertyOp31
 70
     1
102
RTVSPropertyOp32
 70
     1
102
RTVSPropertyOp33
 70
     1
102
RTVSPropertyOp34
 70
     1
102
RTVSPropertyOp35
 70
     1
102
RTVSPropertyOp36
 70
     1
102
RTVSPropertyOp37
 70
     1
102
RTVSPropertyOp38
 70
     1
102
RTVSPropertyOp39
 70
     1
102
RTVSPropertyOp40
 70
     1
102
RTVSPropertyOp41
 70
     1
102
RTVSPropertyOp42
 70
     1
102
RTVSPropertyOp43
 70
     1
102
RTVSPropertyOp44
 70
     1
102
RTVSPropertyOp45
 70
     1
102
RTVSPropertyOp46
 70
     1
102
RTVSPropertyOp47
 70
     1
102
RTVSPropertyOp48
 70
     1
102
RTVSPropertyOp49
 70
     1
102
RTVSPropertyOp50
 70
     1
102
RTVSPropertyOp51
 70
     0
102
RTVSPropertyOp52
 70
     0
102
RTVSPropertyOp53
 70
     1
102
RTVSPropertyOp54
 70
     1
102
RTVSPropertyOp55
 70
     1
102
RTVSPropertyOp56
 70
     1
102
RTVSPropertyOp57
 70
     1
102
RTVSPost2010Prop28
280
     0
102
RTVSPost2010PropOp28
 70
     1
102
RTVSPost2010Prop29
280
     1
102
RTVSPost2010PropOp29
 70
     1
102
RTVSPost2010Prop30
280
     1
102
RTVSPost2010PropOp30
 70
     1
102
RTVSPost2010Prop31
280
     0
102
RTVSPost2010PropOp31
 70
     1
102
RTVSPost2010Prop32
280
     0
102
RTVSPost2010PropOp32
 70
     1
102
RTVSPost2010Prop33
280
     0
102
RTVSPost2010PropOp33
 70
     1
102
RTVSPost2010Prop34
280
     0
102
RTVSPost2010PropOp34
 70
     1
102
RTVSPost2010Prop35
280
     0
102
RTVSPost2010PropOp35
 70
     1
102
RTVSPost2010Prop36
280
     0
102
RTVSPost2010PropOp36
 70
     1
102
RTVSPost2010Prop37
 90
       50
102
RTVSPost2010PropOp37
 70
     1
102
RTVSPost2010Prop38
140
0.0
102
RTVSPost2010PropOp38
 70
     1
102
RTVSPost2010Prop39
140
1.0
102
RTVSPost2010PropOp39
 70
     1
102
RTVSPost2010Prop40
 90
        0
102
RTVSPost2010PropOp40
 70
     1
102
RTVSPost2010Prop41ColorIndex
 90
       18
102
RTVSPost2010Prop41ColorRGB
 90
        0
102
RTVSPost2010PropOp41
 70
     1
102
RTVSPost2010Prop42
 90
       50
102
RTVSPost2010PropOp42
 70
     1
102
RTVSPost2010Prop43
 90
        3
102
RTVSPost2010PropOp43
 70
     1
102
RTVSPost2010Prop44ColorIndex
 90
        5
102
RTVSPost2010Prop44ColorRGB
 90
      255
102
RTVSPost2010PropOp44
 70
     1
102
RTVSPost2010Prop45
280
     0
102
RTVSPost2010PropOp45
 70
     1
102
RTVSPost2010Prop46
 90
       50
102
RTVSPost2010PropOp46
 70
     1
102
RTVSPost2010Prop47
 90
       50
102
RTVSPost2010PropOp47
 70
     1
102
RTVSPost2010Prop48
 90
       50
102
RTVSPost2010PropOp48
 70
     1
102
RTVSPost2010Prop49
280
     0
102
RTVSPost2010PropOp49
 70
     1
102
RTVSPost2010Prop50
 90
       50
102
RTVSPost2010PropOp50
 70
     1
102
RTVSPost2010Prop51ColorIndex
 90
      256
102
RTVSPost2010Prop51ColorRGB
 90
-16777216
102
RTVSPost2010PropOp51
 70
     0
102
RTVSPost2010Prop52
140
1.0
102
RTVSPost2010PropOp52
 70
     0
102
RTVSPost2010Prop53
 90
        2
102
RTVSPost2010PropOp53
 70
     1
102
RTVSPost2010Prop54
  1
strokes_ogs.tif
102
RTVSPost2010PropOp54
 70
     1
102
RTVSPost2010Prop55
280
     0
102
RTVSPost2010PropOp55
 70
     1
102
RTVSPost2010Prop56
140
1.0
102
RTVSPost2010PropOp56
 70
     1
102
RTVSPost2010Prop57
140
1.0
102
RTVSPost2010PropOp57
 70
     1
  0
XRECORD
  5
622
102
{ACAD_REACTORS
330
621
102
}
330
621
100
AcDbXrecord
280
     1
102
RTVSPropertyOp0
 70
     1
102
RTVSPropertyOp1
 70
     1
102
RTVSPropertyOp2
 70
     1
102
RTVSPropertyOp3
 70
     1
102
RTVSPropertyOp4
 70
     1
102
RTVSPropertyOp5
 70
     1
102
RTVSPropertyOp6
 70
     1
102
RTVSPropertyOp7
 70
     1
102
RTVSPropertyOp8
 70
     1
102
RTVSPropertyOp9
 70
     1
102
RTVSPropertyOp10
 70
     1
102
RTVSPropertyOp11
 70
     1
102
RTVSPropertyOp12
 70
     1
102
RTVSPropertyOp13
 70
     1
102
RTVSPropertyOp14
 70
     1
102
RTVSPropertyOp15
 70
     1
102
RTVSPropertyOp16
 70
     1
102
RTVSPropertyOp17
 70
     1
102
RTVSPropertyOp18
 70
     1
102
RTVSPropertyOp19
 70
     1
102
RTVSPropertyOp20
 70
     1
102
RTVSPropertyOp21
 70
     1
102
RTVSPropertyOp22
 70
     1
102
RTVSPropertyOp23
 70
     1
102
RTVSPropertyOp24
 70
     1
102
RTVSPropertyOp25
 70
     1
102
RTVSPropertyOp26
 70
     1
102
RTVSPropertyOp27
 70
     1
102
RTVSPropertyOp28
 70
     1
102
RTVSPropertyOp29
 70
     1
102
RTVSPropertyOp30
 70
     1
102
RTVSPropertyOp31
 70
     1
102
RTVSPropertyOp32
 70
     1
102
RTVSPropertyOp33
 70
     1
102
RTVSPropertyOp34
 70
     1
102
RTVSPropertyOp35
 70
     1
102
RTVSPropertyOp36
 70
     1
102
RTVSPropertyOp37
 70
     1
102
RTVSPropertyOp38
 70
     1
102
RTVSPropertyOp39
 70
     1
102
RTVSPropertyOp40
 70
     1
102
RTVSPropertyOp41
 70
     1
102
RTVSPropertyOp42
 70
     1
102
RTVSPropertyOp43
 70
     1
102
RTVSPropertyOp44
 70
     1
102
RTVSPropertyOp45
 70
     1
102
RTVSPropertyOp46
 70
     1
102
RTVSPropertyOp47
 70
     1
102
RTVSPropertyOp48
 70
     1
102
RTVSPropertyOp49
 70
     1
102
RTVSPropertyOp50
 70
     1
102
RTVSPropertyOp51
 70
     0
102
RTVSPropertyOp52
 70
     0
102
RTVSPropertyOp53
 70
     1
102
RTVSPropertyOp54
 70
     1
102
RTVSPropertyOp55
 70
     1
102
RTVSPropertyOp56
 70
     1
102
RTVSPropertyOp57
 70
     1
102
RTVSPost2010Prop28
280
     0
102
RTVSPost2010PropOp28
 70
     1
102
RTVSPost2010Prop29
280
     1
102
RTVSPost2010PropOp29
 70
     1
102
RTVSPost2010Prop30
280
     1
102
RTVSPost2010PropOp30
 70
     1
102
RTVSPost2010Prop31
280
     0
102
RTVSPost2010PropOp31
 70
     1
102
RTVSPost2010Prop32
280
     0
102
RTVSPost2010PropOp32
 70
     1
102
RTVSPost2010Prop33
280
     0
102
RTVSPost2010PropOp33
 70
     1
102
RTVSPost2010Prop34
280
     0
102
RTVSPost2010PropOp34
 70
     1
102
RTVSPost2010Prop35
280
     0
102
RTVSPost2010PropOp35
 70
     1
102
RTVSPost2010Prop36
280
     0
102
RTVSPost2010PropOp36
 70
     1
102
RTVSPost2010Prop37
 90
       50
102
RTVSPost2010PropOp37
 70
     1
102
RTVSPost2010Prop38
140
0.0
102
RTVSPost2010PropOp38
 70
     1
102
RTVSPost2010Prop39
140
1.0
102
RTVSPost2010PropOp39
 70
     1
102
RTVSPost2010Prop40
 90
        0
102
RTVSPost2010PropOp40
 70
     1
102
RTVSPost2010Prop41ColorIndex
 90
       18
102
RTVSPost2010Prop41ColorRGB
 90
        0
102
RTVSPost2010PropOp41
 70
     1
102
RTVSPost2010Prop42
 90
       50
102
RTVSPost2010PropOp42
 70
     1
102
RTVSPost2010Prop43
 90
        3
102
RTVSPost2010PropOp43
 70
     1
102
RTVSPost2010Prop44ColorIndex
 90
        5
102
RTVSPost2010Prop44ColorRGB
 90
      255
102
RTVSPost2010PropOp44
 70
     1
102
RTVSPost2010Prop45
280
     0
102
RTVSPost2010PropOp45
 70
     1
102
RTVSPost2010Prop46
 90
       50
102
RTVSPost2010PropOp46
 70
     1
102
RTVSPost2010Prop47
 90
       50
102
RTVSPost2010PropOp47
 70
     1
102
RTVSPost2010Prop48
 90
       50
102
RTVSPost2010PropOp48
 70
     1
102
RTVSPost2010Prop49
280
     0
102
RTVSPost2010PropOp49
 70
     1
102
RTVSPost2010Prop50
 90
       50
102
RTVSPost2010PropOp50
 70
     1
102
RTVSPost2010Prop51ColorIndex
 90
      256
102
RTVSPost2010Prop51ColorRGB
 90
-16777216
102
RTVSPost2010PropOp51
 70
     0
102
RTVSPost2010Prop52
140
1.0
102
RTVSPost2010PropOp52
 70
     0
102
RTVSPost2010Prop53
 90
        2
102
RTVSPost2010PropOp53
 70
     1
102
RTVSPost2010Prop54
  1
strokes_ogs.tif
102
RTVSPost2010PropOp54
 70
     1
102
RTVSPost2010Prop55
280
     0
102
RTVSPost2010PropOp55
 70
     1
102
RTVSPost2010Prop56
140
1.0
102
RTVSPost2010PropOp56
 70
     1
102
RTVSPost2010Prop57
140
1.0
102
RTVSPost2010PropOp57
 70
     1
  0
XRECORD
  5
62A
102
{ACAD_REACTORS
330
629
102
}
330
629
100
AcDbXrecord
280
     1
102
RTVSPropertyOp0
 70
     1
102
RTVSPropertyOp1
 70
     1
102
RTVSPropertyOp2
 70
     1
102
RTVSPropertyOp3
 70
     1
102
RTVSPropertyOp4
 70
     1
102
RTVSPropertyOp5
 70
     1
102
RTVSPropertyOp6
 70
     1
102
RTVSPropertyOp7
 70
     1
102
RTVSPropertyOp8
 70
     1
102
RTVSPropertyOp9
 70
     1
102
RTVSPropertyOp10
 70
     1
102
RTVSPropertyOp11
 70
     1
102
RTVSPropertyOp12
 70
     1
102
RTVSPropertyOp13
 70
     1
102
RTVSPropertyOp14
 70
     1
102
RTVSPropertyOp15
 70
     1
102
RTVSPropertyOp16
 70
     1
102
RTVSPropertyOp17
 70
     1
102
RTVSPropertyOp18
 70
     1
102
RTVSPropertyOp19
 70
     1
102
RTVSPropertyOp20
 70
     1
102
RTVSPropertyOp21
 70
     1
102
RTVSPropertyOp22
 70
     1
102
RTVSPropertyOp23
 70
     1
102
RTVSPropertyOp24
 70
     1
102
RTVSPropertyOp25
 70
     1
102
RTVSPropertyOp26
 70
     1
102
RTVSPropertyOp27
 70
     1
102
RTVSPropertyOp28
 70
     1
102
RTVSPropertyOp29
 70
     1
102
RTVSPropertyOp30
 70
     1
102
RTVSPropertyOp31
 70
     1
102
RTVSPropertyOp32
 70
     1
102
RTVSPropertyOp33
 70
     1
102
RTVSPropertyOp34
 70
     1
102
RTVSPropertyOp35
 70
     1
102
RTVSPropertyOp36
 70
     1
102
RTVSPropertyOp37
 70
     1
102
RTVSPropertyOp38
 70
     1
102
RTVSPropertyOp39
 70
     1
102
RTVSPropertyOp40
 70
     1
102
RTVSPropertyOp41
 70
     1
102
RTVSPropertyOp42
 70
     1
102
RTVSPropertyOp43
 70
     1
102
RTVSPropertyOp44
 70
     1
102
RTVSPropertyOp45
 70
     1
102
RTVSPropertyOp46
 70
     1
102
RTVSPropertyOp47
 70
     1
102
RTVSPropertyOp48
 70
     1
102
RTVSPropertyOp49
 70
     1
102
RTVSPropertyOp50
 70
     1
102
RTVSPropertyOp51
 70
     0
102
RTVSPropertyOp52
 70
     0
102
RTVSPropertyOp53
 70
     1
102
RTVSPropertyOp54
 70
     1
102
RTVSPropertyOp55
 70
     1
102
RTVSPropertyOp56
 70
     1
102
RTVSPropertyOp57
 70
     1
102
RTVSPost2010Prop28
280
     0
102
RTVSPost2010PropOp28
 70
     1
102
RTVSPost2010Prop29
280
     1
102
RTVSPost2010PropOp29
 70
     1
102
RTVSPost2010Prop30
280
     1
102
RTVSPost2010PropOp30
 70
     1
102
RTVSPost2010Prop31
280
     0
102
RTVSPost2010PropOp31
 70
     1
102
RTVSPost2010Prop32
280
     0
102
RTVSPost2010PropOp32
 70
     1
102
RTVSPost2010Prop33
280
     0
102
RTVSPost2010PropOp33
 70
     1
102
RTVSPost2010Prop34
280
     0
102
RTVSPost2010PropOp34
 70
     1
102
RTVSPost2010Prop35
280
     0
102
RTVSPost2010PropOp35
 70
     1
102
RTVSPost2010Prop36
280
     0
102
RTVSPost2010PropOp36
 70
     1
102
RTVSPost2010Prop37
 90
       50
102
RTVSPost2010PropOp37
 70
     1
102
RTVSPost2010Prop38
140
0.0
102
RTVSPost2010PropOp38
 70
     1
102
RTVSPost2010Prop39
140
1.0
102
RTVSPost2010PropOp39
 70
     1
102
RTVSPost2010Prop40
 90
        0
102
RTVSPost2010PropOp40
 70
     1
102
RTVSPost2010Prop41ColorIndex
 90
       18
102
RTVSPost2010Prop41ColorRGB
 90
        0
102
RTVSPost2010PropOp41
 70
     1
102
RTVSPost2010Prop42
 90
       50
102
RTVSPost2010PropOp42
 70
     1
102
RTVSPost2010Prop43
 90
        3
102
RTVSPost2010PropOp43
 70
     1
102
RTVSPost2010Prop44ColorIndex
 90
        5
102
RTVSPost2010Prop44ColorRGB
 90
      255
102
RTVSPost2010PropOp44
 70
     1
102
RTVSPost2010Prop45
280
     0
102
RTVSPost2010PropOp45
 70
     1
102
RTVSPost2010Prop46
 90
       50
102
RTVSPost2010PropOp46
 70
     1
102
RTVSPost2010Prop47
 90
       50
102
RTVSPost2010PropOp47
 70
     1
102
RTVSPost2010Prop48
 90
       50
102
RTVSPost2010PropOp48
 70
     1
102
RTVSPost2010Prop49
280
     0
102
RTVSPost2010PropOp49
 70
     1
102
RTVSPost2010Prop50
 90
       50
102
RTVSPost2010PropOp50
 70
     1
102
RTVSPost2010Prop51ColorIndex
 90
      256
102
RTVSPost2010Prop51ColorRGB
 90
-16777216
102
RTVSPost2010PropOp51
 70
     0
102
RTVSPost2010Prop52
140
1.0
102
RTVSPost2010PropOp52
 70
     0
102
RTVSPost2010Prop53
 90
        2
102
RTVSPost2010PropOp53
 70
     1
102
RTVSPost2010Prop54
  1
strokes_ogs.tif
102
RTVSPost2010PropOp54
 70
     1
102
RTVSPost2010Prop55
280
     0
102
RTVSPost2010PropOp55
 70
     1
102
RTVSPost2010Prop56
140
1.0
102
RTVSPost2010PropOp56
 70
     1
102
RTVSPost2010Prop57
140
1.0
102
RTVSPost2010PropOp57
 70
     1
  0
ENDSEC
  0
EOF
