  0
SECTION
  2
HEADER
  9
$ACADVER
  1
AC1018
  9
$ACADMAINTVER
 70
     0
  9
$DWGCODEPAGE
  3
ANSI_936
  9
$INSBASE
 10
0.0
 20
0.0
 30
0.0
  9
$EXTMIN
 10
61.7640290745494
 20
1297.066151974285
 30
0.0
  9
$EXTMAX
 10
721.1802644527862
 20
1533.066158834926
 30
0.0
  9
$LIMMIN
 10
0.0
 20
0.0
  9
$LIMMAX
 10
12.0
 20
9.0
  9
$ORTHOMODE
 70
     0
  9
$REGENMODE
 70
     1
  9
$FILLMODE
 70
     1
  9
$QTEXTMODE
 70
     0
  9
$MIRRTEXT
 70
     1
  9
$LTSCALE
 40
1.0
  9
$ATTMODE
 70
     1
  9
$TEXTSIZE
 40
0.2
  9
$TRACEWID
 40
0.05
  9
$TEXTSTYLE
  7
Standard
  9
$CLAYER
  8
E14775$Inox
  9
$CELTYPE
  6
ByLayer
  9
$CECOLOR
 62
   256
  9
$CELTSCALE
 40
1.0
  9
$DISPSILH
 70
     0
  9
$DIMSCALE
 40
1.0
  9
$DIMASZ
 40
0.18
  9
$DIMEXO
 40
0.0625
  9
$DIMDLI
 40
0.38
  9
$DIMRND
 40
0.0
  9
$DIMDLE
 40
0.0
  9
$DIMEXE
 40
0.18
  9
$DIMTP
 40
0.0
  9
$DIMTM
 40
0.0
  9
$DIMTXT
 40
0.18
  9
$DIMCEN
 40
0.09
  9
$DIMTSZ
 40
0.0
  9
$DIMTOL
 70
     0
  9
$DIMLIM
 70
     0
  9
$DIMTIH
 70
     1
  9
$DIMTOH
 70
     1
  9
$DIMSE1
 70
     0
  9
$DIMSE2
 70
     0
  9
$DIMTAD
 70
     0
  9
$DIMZIN
 70
     0
  9
$DIMBLK
  1

  9
$DIMASO
 70
     1
  9
$DIMSHO
 70
     1
  9
$DIMPOST
  1

  9
$DIMAPOST
  1

  9
$DIMALT
 70
     0
  9
$DIMALTD
 70
     2
  9
$DIMALTF
 40
25.4
  9
$DIMLFAC
 40
1.0
  9
$DIMTOFL
 70
     0
  9
$DIMTVP
 40
0.0
  9
$DIMTIX
 70
     0
  9
$DIMSOXD
 70
     0
  9
$DIMSAH
 70
     0
  9
$DIMBLK1
  1

  9
$DIMBLK2
  1

  9
$DIMSTYLE
  2
Standard
  9
$DIMCLRD
 70
     0
  9
$DIMCLRE
 70
     0
  9
$DIMCLRT
 70
     0
  9
$DIMTFAC
 40
1.0
  9
$DIMGAP
 40
0.09
  9
$DIMJUST
 70
     0
  9
$DIMSD1
 70
     0
  9
$DIMSD2
 70
     0
  9
$DIMTOLJ
 70
     1
  9
$DIMTZIN
 70
     0
  9
$DIMALTZ
 70
     0
  9
$DIMALTTZ
 70
     0
  9
$DIMUPT
 70
     0
  9
$DIMDEC
 70
     4
  9
$DIMTDEC
 70
     4
  9
$DIMALTU
 70
     2
  9
$DIMALTTD
 70
     2
  9
$DIMTXSTY
  7
Standard
  9
$DIMAUNIT
 70
     0
  9
$DIMADEC
 70
     0
  9
$DIMALTRND
 40
0.0
  9
$DIMAZIN
 70
     0
  9
$DIMDSEP
 70
    46
  9
$DIMATFIT
 70
     3
  9
$DIMFRAC
 70
     0
  9
$DIMLDRBLK
  1

  9
$DIMLUNIT
 70
     2
  9
$DIMLWD
 70
    -2
  9
$DIMLWE
 70
    -2
  9
$DIMTMOVE
 70
     2
  9
$LUNITS
 70
     2
  9
$LUPREC
 70
     2
  9
$SKETCHINC
 40
0.1
  9
$FILLETRAD
 40
0.5
  9
$AUNITS
 70
     0
  9
$AUPREC
 70
     0
  9
$MENU
  1
.
  9
$ELEVATION
 40
0.0
  9
$PELEVATION
 40
0.0
  9
$THICKNESS
 40
0.0
  9
$LIMCHECK
 70
     0
  9
$CHAMFERA
 40
0.5
  9
$CHAMFERB
 40
0.5
  9
$CHAMFERC
 40
1.0
  9
$CHAMFERD
 40
0.0
  9
$SKPOLY
 70
     0
  9
$TDCREATE
 40
2456765.971823009
  9
$TDUCREATE
 40
2456765.638489676
  9
$TDUPDATE
 40
2456765.971827951
  9
$TDUUPDATE
 40
2456765.638494618
  9
$TDINDWG
 40
0.0000000116
  9
$TDUSRTIMER
 40
0.0000000116
  9
$USRTIMER
 70
     1
  9
$ANGBASE
 50
0.0
  9
$ANGDIR
 70
     0
  9
$PDMODE
 70
     0
  9
$PDSIZE
 40
0.0
  9
$PLINEWID
 40
0.0
  9
$SPLFRAME
 70
     0
  9
$SPLINETYPE
 70
     6
  9
$SPLINESEGS
 70
     8
  9
$HANDSEED
  5
3FC
  9
$SURFTAB1
 70
     6
  9
$SURFTAB2
 70
     6
  9
$SURFTYPE
 70
     6
  9
$SURFU
 70
     6
  9
$SURFV
 70
     6
  9
$UCSBASE
  2

  9
$UCSNAME
  2

  9
$UCSORG
 10
0.0
 20
0.0
 30
0.0
  9
$UCSXDIR
 10
1.0
 20
0.0
 30
0.0
  9
$UCSYDIR
 10
0.0
 20
1.0
 30
0.0
  9
$UCSORTHOREF
  2

  9
$UCSORTHOVIEW
 70
     0
  9
$UCSORGTOP
 10
0.0
 20
0.0
 30
0.0
  9
$UCSORGBOTTOM
 10
0.0
 20
0.0
 30
0.0
  9
$UCSORGLEFT
 10
0.0
 20
0.0
 30
0.0
  9
$UCSORGRIGHT
 10
0.0
 20
0.0
 30
0.0
  9
$UCSORGFRONT
 10
0.0
 20
0.0
 30
0.0
  9
$UCSORGBACK
 10
0.0
 20
0.0
 30
0.0
  9
$PUCSBASE
  2

  9
$PUCSNAME
  2

  9
$PUCSORG
 10
0.0
 20
0.0
 30
0.0
  9
$PUCSXDIR
 10
1.0
 20
0.0
 30
0.0
  9
$PUCSYDIR
 10
0.0
 20
1.0
 30
0.0
  9
$PUCSORTHOREF
  2

  9
$PUCSORTHOVIEW
 70
     0
  9
$PUCSORGTOP
 10
0.0
 20
0.0
 30
0.0
  9
$PUCSORGBOTTOM
 10
0.0
 20
0.0
 30
0.0
  9
$PUCSORGLEFT
 10
0.0
 20
0.0
 30
0.0
  9
$PUCSORGRIGHT
 10
0.0
 20
0.0
 30
0.0
  9
$PUCSORGFRONT
 10
0.0
 20
0.0
 30
0.0
  9
$PUCSORGBACK
 10
0.0
 20
0.0
 30
0.0
  9
$USERI1
 70
     0
  9
$USERI2
 70
     0
  9
$USERI3
 70
     0
  9
$USERI4
 70
     0
  9
$USERI5
 70
     0
  9
$USERR1
 40
0.0
  9
$USERR2
 40
0.0
  9
$USERR3
 40
0.0
  9
$USERR4
 40
0.0
  9
$USERR5
 40
0.0
  9
$WORLDVIEW
 70
     1
  9
$SHADEDGE
 70
     3
  9
$SHADEDIF
 70
    70
  9
$TILEMODE
 70
     1
  9
$MAXACTVP
 70
    64
  9
$PINSBASE
 10
0.0
 20
0.0
 30
0.0
  9
$PLIMCHECK
 70
     0
  9
$PEXTMIN
 10
1.000000000000000E+20
 20
1.000000000000000E+20
 30
1.000000000000000E+20
  9
$PEXTMAX
 10
-1.000000000000000E+20
 20
-1.000000000000000E+20
 30
-1.000000000000000E+20
  9
$PLIMMIN
 10
0.0
 20
0.0
  9
$PLIMMAX
 10
12.0
 20
9.0
  9
$UNITMODE
 70
     0
  9
$VISRETAIN
 70
     1
  9
$PLINEGEN
 70
     0
  9
$PSLTSCALE
 70
     1
  9
$TREEDEPTH
 70
  3020
  9
$CMLSTYLE
  2
Standard
  9
$CMLJUST
 70
     0
  9
$CMLSCALE
 40
1.0
  9
$PROXYGRAPHICS
 70
     1
  9
$MEASUREMENT
 70
     0
  9
$CELWEIGHT
370
    -1
  9
$ENDCAPS
280
     0
  9
$JOINSTYLE
280
     0
  9
$LWDISPLAY
290
     0
  9
$INSUNITS
 70
     4
  9
$HYPERLINKBASE
  1

  9
$STYLESHEET
  1

  9
$XEDIT
290
     1
  9
$CEPSNTYPE
380
     0
  9
$PSTYLEMODE
290
     1
  9
$FINGERPRINTGUID
  2
{A7F65386-169E-470A-A95A-03D4D6EAC3B7}
  9
$VERSIONGUID
  2
{FAEB1C32-E019-11D5-929B-00C0DF256EC4}
  9
$EXTNAMES
290
     1
  9
$PSVPSCALE
 40
0.0
  9
$OLESTARTUP
290
     0
  9
$SORTENTS
280
   127
  9
$INDEXCTL
280
     0
  9
$HIDETEXT
280
     1
  9
$XCLIPFRAME
290
     0
  9
$HALOGAP
280
     0
  9
$OBSCOLOR
 70
   257
  9
$OBSLTYPE
280
     0
  9
$INTERSECTIONDISPLAY
280
     0
  9
$INTERSECTIONCOLOR
 70
   257
  9
$DIMASSOC
280
     2
  9
$PROJECTNAME
  1

  0
ENDSEC
  0
SECTION
  2
CLASSES
  0
CLASS
  1
ACDBDICTIONARYWDFLT
  2
AcDbDictionaryWithDefault
  3
ObjectDBX Classes
 90
        0
 91
        4
280
     0
281
     0
  0
CLASS
  1
VISUALSTYLE
  2
AcDbVisualStyle
  3
ObjectDBX Classes
 90
     4095
 91
        4
280
     0
281
     0
  0
CLASS
  1
MATERIAL
  2
AcDbMaterial
  3
ObjectDBX Classes
 90
     1153
 91
        4
280
     0
281
     0
  0
CLASS
  1
SCALE
  2
AcDbScale
  3
ObjectDBX Classes
 90
     1153
 91
        4
280
     0
281
     0
  0
CLASS
  1
SUN
  2
AcDbSun
  3
SCENEOE
 90
     1153
 91
        4
280
     0
281
     0
  0
CLASS
  1
DICTIONARYVAR
  2
AcDbDictionaryVar
  3
ObjectDBX Classes
 90
        0
 91
        4
280
     0
281
     0
  0
ENDSEC
  0
SECTION
  2
TABLES
  0
TABLE
  2
VPORT
  5
8
330
0
100
AcDbSymbolTable
 70
     1
  0
VPORT
  5
29
330
8
100
AcDbSymbolTableRecord
100
AcDbViewportTableRecord
  2
*Active
 70
     0
 10
0.0
 20
0.0
 11
1.0
 21
1.0
 12
391.4721467564623
 22
1415.066154856256
 13
0.0
 23
0.0
 14
0.5
 24
0.5
 15
0.5
 25
0.5
 16
0.0
 26
0.0
 36
1.0
 17
0.0
 27
0.0
 37
0.0
 40
240.7200000000009
 41
2.794136590524675
 42
50.0
 43
0.0
 44
0.0
 50
0.0
 51
0.0
 71
     0
 72
   100
 73
     1
 74
     3
 75
     0
 76
     0
 77
     0
 78
     0
281
     0
 65
     1
110
0.0
120
0.0
130
0.0
111
1.0
121
0.0
131
0.0
112
0.0
122
1.0
132
0.0
 79
     0
146
0.0
  0
ENDTAB
  0
TABLE
  2
LTYPE
  5
5
330
0
100
AcDbSymbolTable
 70
     1
  0
LTYPE
  5
14
330
5
100
AcDbSymbolTableRecord
100
AcDbLinetypeTableRecord
  2
ByBlock
 70
     0
  3

 72
    65
 73
     0
 40
0.0
  0
LTYPE
  5
15
330
5
100
AcDbSymbolTableRecord
100
AcDbLinetypeTableRecord
  2
ByLayer
 70
     0
  3

 72
    65
 73
     0
 40
0.0
  0
LTYPE
  5
16
330
5
100
AcDbSymbolTableRecord
100
AcDbLinetypeTableRecord
  2
Continuous
 70
     0
  3
Solid line
 72
    65
 73
     0
 40
0.0
  0
ENDTAB
  0
TABLE
  2
LAYER
  5
2
330
0
100
AcDbSymbolTable
 70
     3
  0
LAYER
  5
10
330
2
100
AcDbSymbolTableRecord
100
AcDbLayerTableRecord
  2
0
 70
     0
 62
     7
  6
Continuous
370
    -3
390
F
  0
LAYER
  5
62
330
2
100
AcDbSymbolTableRecord
100
AcDbLayerTableRecord
  2
Make2D$可见线$普通线
 70
     0
 62
    18
420
        0
  6
Continuous
370
    -3
390
F
  0
LAYER
  5
AD
330
2
100
AcDbSymbolTableRecord
100
AcDbLayerTableRecord
  2
E14775$Inox
 70
     0
 62
    18
420
        0
  6
Continuous
370
    -3
390
F
  0
ENDTAB
  0
TABLE
  2
STYLE
  5
3
330
0
100
AcDbSymbolTable
 70
     1
  0
STYLE
  5
11
330
3
100
AcDbSymbolTableRecord
100
AcDbTextStyleTableRecord
  2
Standard
 70
     0
 40
0.0
 41
1.0
 50
0.0
 71
     0
 42
0.2
  3
txt
  4

  0
ENDTAB
  0
TABLE
  2
VIEW
  5
6
330
0
100
AcDbSymbolTable
 70
     0
  0
ENDTAB
  0
TABLE
  2
UCS
  5
7
330
0
100
AcDbSymbolTable
 70
     0
  0
ENDTAB
  0
TABLE
  2
APPID
  5
9
330
0
100
AcDbSymbolTable
 70
     1
  0
APPID
  5
12
330
9
100
AcDbSymbolTableRecord
100
AcDbRegAppTableRecord
  2
ACAD
 70
     0
  0
ENDTAB
  0
TABLE
  2
DIMSTYLE
  5
A
330
0
100
AcDbSymbolTable
 70
     1
100
AcDbDimStyleTable
  0
DIMSTYLE
105
27
330
A
100
AcDbSymbolTableRecord
100
AcDbDimStyleTableRecord
  2
Standard
 70
     0
178
     0
340
11
  0
ENDTAB
  0
TABLE
  2
BLOCK_RECORD
  5
1
330
0
100
AcDbSymbolTable
 70
     1
  0
BLOCK_RECORD
  5
1F
330
1
100
AcDbSymbolTableRecord
100
AcDbBlockTableRecord
  2
*Model_Space
340
22
  0
BLOCK_RECORD
  5
1B
330
1
100
AcDbSymbolTableRecord
100
AcDbBlockTableRecord
  2
*Paper_Space
340
1E
  0
BLOCK_RECORD
  5
23
330
1
100
AcDbSymbolTableRecord
100
AcDbBlockTableRecord
  2
*Paper_Space0
340
26
  0
ENDTAB
  0
ENDSEC
  0
SECTION
  2
BLOCKS
  0
BLOCK
  5
20
330
1F
100
AcDbEntity
  8
0
100
AcDbBlockBegin
  2
*Model_Space
 70
     0
 10
0.0
 20
0.0
 30
0.0
  3
*Model_Space
  1
*Model_Space
  0
ENDBLK
  5
21
330
1F
100
AcDbEntity
  8
0
100
AcDbBlockEnd
  0
BLOCK
  5
1C
330
1B
100
AcDbEntity
 67
     1
  8
0
100
AcDbBlockBegin
  2
*Paper_Space
 70
     0
 10
0.0
 20
0.0
 30
0.0
  3
*Paper_Space
  1
*Paper_Space
  0
ENDBLK
  5
1D
330
1B
100
AcDbEntity
 67
     1
  8
0
100
AcDbBlockEnd
  0
BLOCK
  5
24
330
23
100
AcDbEntity
  8
0
100
AcDbBlockBegin
  2
*Paper_Space0
 70
     0
 10
0.0
 20
0.0
 30
0.0
  3
*Paper_Space0
  1
*Paper_Space0
  0
ENDBLK
  5
25
330
23
100
AcDbEntity
  8
0
100
AcDbBlockEnd
  0
ENDSEC
  0
SECTION
  2
ENTITIES
  0
LINE
  5
63
330
1F
100
AcDbEntity
  8
Make2D$可见线$普通线
100
AcDbLine
 10
681.0620126057768
 20
1523.066154856308
 30
0.0
 11
681.0725842192121
 21
1523.066154856308
 31
0.0
  0
ARC
  5
64
330
1F
100
AcDbEntity
  8
Make2D$可见线$普通线
100
AcDbCircle
 10
681.1797907645771
 20
1309.066154591626
 30
0.0
 40
1.000000002375373
100
AcDbArc
 50
291.5982025248512
 51
0.0000151651647776
  0
ARC
  5
65
330
1F
100
AcDbEntity
  8
Make2D$可见线$普通线
100
AcDbCircle
 10
711.1803900915429
 20
1309.066161027456
 30
0.0
 40
1.00000119853638
100
AcDbArc
 50
180.0003535802862
 51
262.0051646682385
  0
POLYLINE
  5
66
330
1F
100
AcDbEntity
  8
Make2D$可见线$普通线
100
AcDb2dPolyline
 66
     1
 10
0.0
 20
0.0
 30
0.0
  0
VERTEX
  5
67
330
66
100
AcDbEntity
  8
Make2D$可见线$普通线
100
AcDbVertex
100
AcDb2dVertex
 10
711.3268350296746
 20
1521.05538394894
 30
0.0
 42
-0.3720544226421424
  0
VERTEX
  5
68
330
66
100
AcDbEntity
  8
Make2D$可见线$普通线
100
AcDbVertex
100
AcDb2dVertex
 10
712.180154731462
 20
1520.066154856308
 30
0.0
  0
VERTEX
  5
69
330
66
100
AcDbEntity
  8
Make2D$可见线$普通线
100
AcDbVertex
100
AcDb2dVertex
 10
712.1801547314657
 20
1429.066154856308
 30
0.0
 42
-0.372042499793362
  0
VERTEX
  5
6A
330
66
100
AcDbEntity
  8
Make2D$可见线$普通线
100
AcDbVertex
100
AcDb2dVertex
 10
711.3268142025504
 20
1428.076922682255
 30
0.0
  0
SEQEND
  5
6B
330
66
100
AcDbEntity
  8
Make2D$可见线$普通线
  0
POLYLINE
  5
6C
330
1F
100
AcDbEntity
  8
Make2D$可见线$普通线
100
AcDb2dPolyline
 66
     1
 10
0.0
 20
0.0
 30
0.0
  0
VERTEX
  5
6D
330
6C
100
AcDbEntity
  8
Make2D$可见线$普通线
100
AcDbVertex
100
AcDb2dVertex
 10
711.1788009261259
 20
1308.066154856308
 30
0.0
 42
-0.4138334002764542
  0
VERTEX
  5
6E
330
6C
100
AcDbEntity
  8
Make2D$可见线$普通线
100
AcDbVertex
100
AcDb2dVertex
 10
712.1792733810428
 20
1307.066154856309
 30
0.0
  0
VERTEX
  5
6F
330
6C
100
AcDbEntity
  8
Make2D$可见线$普通线
100
AcDbVertex
100
AcDb2dVertex
 10
712.180154731461
 20
1304.066154856257
 30
0.0
 42
-0.3796494064375516
  0
VERTEX
  5
70
330
6C
100
AcDbEntity
  8
Make2D$可见线$普通线
100
AcDbVertex
100
AcDb2dVertex
 10
711.3003861273387
 20
1303.07337223754
 30
0.0
  0
SEQEND
  5
71
330
6C
100
AcDbEntity
  8
Make2D$可见线$普通线
  0
POLYLINE
  5
72
330
1F
100
AcDbEntity
  8
Make2D$可见线$普通线
100
AcDb2dPolyline
 66
     1
 10
0.0
 20
0.0
 30
0.0
  0
VERTEX
  5
73
330
72
100
AcDbEntity
  8
Make2D$可见线$普通线
100
AcDbVertex
100
AcDb2dVertex
 10
721.1802644383753
 20
1298.066159062952
 30
0.0
 42
-0.4151146241129639
  0
VERTEX
  5
74
330
72
100
AcDbEntity
  8
Make2D$可见线$普通线
100
AcDbVertex
100
AcDb2dVertex
 10
720.1775242128685
 20
1297.066158457349
 30
0.0
  0
VERTEX
  5
75
330
72
100
AcDbEntity
  8
Make2D$可见线$普通线
100
AcDbVertex
100
AcDb2dVertex
 10
720.1119266769354
 20
1297.066158444305
 30
0.0
  0
VERTEX
  5
76
330
72
100
AcDbEntity
  8
Make2D$可见线$普通线
100
AcDbVertex
100
AcDb2dVertex
 10
719.8948286403074
 20
1297.066158424961
 30
0.0
  0
VERTEX
  5
77
330
72
100
AcDbEntity
  8
Make2D$可见线$普通线
100
AcDbVertex
100
AcDb2dVertex
 10
718.8723527564189
 20
1297.066158373726
 30
0.0
  0
VERTEX
  5
78
330
72
100
AcDbEntity
  8
Make2D$可见线$普通线
100
AcDbVertex
100
AcDb2dVertex
 10
673.21156093602
 20
1297.066157084626
 30
0.0
  0
VERTEX
  5
79
330
72
100
AcDbEntity
  8
Make2D$可见线$普通线
100
AcDbVertex
100
AcDb2dVertex
 10
672.1828376187647
 20
1297.066157099422
 30
0.0
  0
VERTEX
  5
7A
330
72
100
AcDbEntity
  8
Make2D$可见线$普通线
100
AcDbVertex
100
AcDb2dVertex
 10
671.9981760888178
 20
1297.082851728687
 30
0.0
 42
-0.3615806790006378
  0
VERTEX
  5
7B
330
72
100
AcDbEntity
  8
Make2D$可见线$普通线
100
AcDbVertex
100
AcDb2dVertex
 10
671.180138643301
 20
1298.06615712485
 30
0.0
  0
VERTEX
  5
7C
330
72
100
AcDbEntity
  8
Make2D$可见线$普通线
100
AcDbVertex
100
AcDb2dVertex
 10
671.1801322717974
 20
1302.066153626433
 30
0.0
 42
-0.4150307712498556
  0
VERTEX
  5
7D
330
72
100
AcDbEntity
  8
Make2D$可见线$普通线
100
AcDbVertex
100
AcDb2dVertex
 10
672.182911887906
 20
1303.066153600812
 30
0.0
  0
VERTEX
  5
7E
330
72
100
AcDbEntity
  8
Make2D$可见线$普通线
100
AcDbVertex
100
AcDb2dVertex
 10
672.5393872247498
 20
1303.066153582974
 30
0.0
  0
VERTEX
  5
7F
330
72
100
AcDbEntity
  8
Make2D$可见线$普通线
100
AcDbVertex
100
AcDb2dVertex
 10
673.4879788009212
 20
1303.066153590519
 30
0.0
  0
VERTEX
  5
80
330
72
100
AcDbEntity
  8
Make2D$可见线$普通线
100
AcDbVertex
100
AcDb2dVertex
 10
718.872299559077
 20
1303.066154871866
 30
0.0
  0
VERTEX
  5
81
330
72
100
AcDbEntity
  8
Make2D$可见线$普通线
100
AcDbVertex
100
AcDb2dVertex
 10
720.1774449010735
 20
1303.066154955398
 30
0.0
 42
-0.4151365717672051
  0
VERTEX
  5
82
330
72
100
AcDbEntity
  8
Make2D$可见线$普通线
100
AcDbVertex
100
AcDb2dVertex
 10
721.1802637875759
 20
1302.066155562161
 30
0.0
  0
VERTEX
  5
83
330
72
100
AcDbEntity
  8
Make2D$可见线$普通线
100
AcDbVertex
100
AcDb2dVertex
 10
721.1802644383753
 20
1298.066159062952
 30
0.0
  0
SEQEND
  5
84
330
72
100
AcDbEntity
  8
Make2D$可见线$普通线
  0
POLYLINE
  5
85
330
1F
100
AcDbEntity
  8
Make2D$可见线$普通线
100
AcDb2dPolyline
 66
     1
 10
0.0
 20
0.0
 30
0.0
  0
VERTEX
  5
86
330
85
100
AcDbEntity
  8
Make2D$可见线$普通线
100
AcDbVertex
100
AcDb2dVertex
 10
680.2915035361234
 20
1307.525459549965
 30
0.0
  0
VERTEX
  5
87
330
85
100
AcDbEntity
  8
Make2D$可见线$普通线
100
AcDbVertex
100
AcDb2dVertex
 10
680.249995719544
 20
1307.434254065369
 30
0.0
 42
0.0945409040494634
  0
VERTEX
  5
88
330
85
100
AcDbEntity
  8
Make2D$可见线$普通线
100
AcDbVertex
100
AcDb2dVertex
 10
680.1797977158778
 20
1307.066154856309
 30
0.0
  0
VERTEX
  5
89
330
85
100
AcDbEntity
  8
Make2D$可见线$普通线
100
AcDbVertex
100
AcDb2dVertex
 10
680.1798110009807
 20
1304.066154856257
 30
0.0
 42
0.4142149655819218
  0
VERTEX
  5
8A
330
85
100
AcDbEntity
  8
Make2D$可见线$普通线
100
AcDbVertex
100
AcDb2dVertex
 10
681.1798133295206
 20
1303.066154856256
 30
0.0
  0
SEQEND
  5
8B
330
85
100
AcDbEntity
  8
Make2D$可见线$普通线
  0
POLYLINE
  5
8C
330
1F
100
AcDbEntity
  8
Make2D$可见线$普通线
100
AcDb2dPolyline
 66
     1
 10
0.0
 20
0.0
 30
0.0
  0
VERTEX
  5
8D
330
8C
100
AcDbEntity
  8
Make2D$可见线$普通线
100
AcDbVertex
100
AcDb2dVertex
 10
681.0306528702678
 20
1523.077341852047
 30
0.0
  0
VERTEX
  5
8E
330
8C
100
AcDbEntity
  8
Make2D$可见线$普通线
100
AcDbVertex
100
AcDb2dVertex
 10
680.9978502771127
 20
1523.082849487891
 30
0.0
  0
VERTEX
  5
8F
330
8C
100
AcDbEntity
  8
Make2D$可见线$普通线
100
AcDbVertex
100
AcDb2dVertex
 10
681.075759766728
 20
1523.071586503596
 30
0.0
 42
-0.3840136723053683
  0
VERTEX
  5
90
330
8C
100
AcDbEntity
  8
Make2D$可见线$普通线
100
AcDbVertex
100
AcDb2dVertex
 10
680.1798129451336
 20
1524.066154856308
 30
0.0
  0
VERTEX
  5
91
330
8C
100
AcDbEntity
  8
Make2D$可见线$普通线
100
AcDbVertex
100
AcDb2dVertex
 10
680.1798129451331
 20
1532.066154856257
 30
0.0
 42
-0.3411195147938692
  0
VERTEX
  5
92
330
8C
100
AcDbEntity
  8
Make2D$可见线$普通线
100
AcDbVertex
100
AcDb2dVertex
 10
680.9275228412218
 20
1533.034027156227
 30
0.0
  0
VERTEX
  5
93
330
8C
100
AcDbEntity
  8
Make2D$可见线$普通线
100
AcDbVertex
100
AcDb2dVertex
 10
681.0545966677388
 20
1533.058521188788
 30
0.0
  0
VERTEX
  5
94
330
8C
100
AcDbEntity
  8
Make2D$可见线$普通线
100
AcDbVertex
100
AcDb2dVertex
 10
681.1798133295187
 20
1533.066154856257
 30
0.0
  0
VERTEX
  5
95
330
8C
100
AcDbEntity
  8
Make2D$可见线$普通线
100
AcDbVertex
100
AcDb2dVertex
 10
711.1778754172343
 20
1533.066154856256
 30
0.0
 42
-0.4151999492903972
  0
VERTEX
  5
96
330
8C
100
AcDbEntity
  8
Make2D$可见线$普通线
100
AcDbVertex
100
AcDb2dVertex
 10
712.1801547314618
 20
1532.066154856257
 30
0.0
  0
VERTEX
  5
97
330
8C
100
AcDbEntity
  8
Make2D$可见线$普通线
100
AcDbVertex
100
AcDb2dVertex
 10
712.1801547314619
 20
1524.066154856308
 30
0.0
 42
-0.3720365088081979
  0
VERTEX
  5
98
330
8C
100
AcDbEntity
  8
Make2D$可见线$普通线
100
AcDbVertex
100
AcDb2dVertex
 10
711.3268350296746
 20
1523.076925763677
 30
0.0
  0
SEQEND
  5
99
330
8C
100
AcDbEntity
  8
Make2D$可见线$普通线
  0
POLYLINE
  5
9A
330
1F
100
AcDbEntity
  8
Make2D$可见线$普通线
100
AcDb2dPolyline
 66
     1
 10
0.0
 20
0.0
 30
0.0
  0
VERTEX
  5
9B
330
9A
100
AcDbEntity
  8
Make2D$可见线$普通线
100
AcDbVertex
100
AcDb2dVertex
 10
681.1798133295206
 20
1428.066154856308
 30
0.0
 42
-0.4142128631965917
  0
VERTEX
  5
9C
330
9A
100
AcDbEntity
  8
Make2D$可见线$普通线
100
AcDbVertex
100
AcDb2dVertex
 10
680.1798110009913
 20
1429.066154856308
 30
0.0
  0
VERTEX
  5
9D
330
9A
100
AcDbEntity
  8
Make2D$可见线$普通线
100
AcDbVertex
100
AcDb2dVertex
 10
680.1798129451336
 20
1520.066154856308
 30
0.0
 42
-0.3411195113292404
  0
VERTEX
  5
9E
330
9A
100
AcDbEntity
  8
Make2D$可见线$普通线
100
AcDbVertex
100
AcDb2dVertex
 10
680.9275228285788
 20
1521.034027152861
 30
0.0
  0
VERTEX
  5
9F
330
9A
100
AcDbEntity
  8
Make2D$可见线$普通线
100
AcDbVertex
100
AcDb2dVertex
 10
681.0446266069056
 20
1521.056445625503
 30
0.0
  0
VERTEX
  5
A0
330
9A
100
AcDbEntity
  8
Make2D$可见线$普通线
100
AcDbVertex
100
AcDb2dVertex
 10
681.0284107465627
 20
1521.054500058089
 30
0.0
  0
VERTEX
  5
A1
330
9A
100
AcDbEntity
  8
Make2D$可见线$普通线
100
AcDbVertex
100
AcDb2dVertex
 10
681.0783241140441
 20
1521.060991495732
 30
0.0
  0
SEQEND
  5
A2
330
9A
100
AcDbEntity
  8
Make2D$可见线$普通线
  0
LINE
  5
A3
330
1F
100
AcDbEntity
  8
Make2D$可见线$普通线
100
AcDbLine
 10
711.3727805068484
 20
1521.066154856308
 30
0.0
 11
681.0306109019307
 21
1521.066154856308
 31
0.0
  0
ARC
  5
A4
330
1F
100
AcDbEntity
  8
Make2D$可见线$普通线
100
AcDbCircle
 10
711.1804404518186
 20
1522.066154856308
 30
0.0
 40
0.999996001478427
100
AcDbArc
 50
98.4203171245838
 51
261.5796828754291
  0
POLYLINE
  5
A5
330
1F
100
AcDbEntity
  8
Make2D$可见线$普通线
100
AcDb2dPolyline
 66
     1
 10
0.0
 20
0.0
 30
0.0
  0
VERTEX
  5
A6
330
A5
100
AcDbEntity
  8
Make2D$可见线$普通线
100
AcDbVertex
100
AcDb2dVertex
 10
681.2443983961036
 20
1521.068244068128
 30
0.0
  0
VERTEX
  5
A7
330
A5
100
AcDbEntity
  8
Make2D$可见线$普通线
100
AcDbVertex
100
AcDb2dVertex
 10
681.4237764204631
 20
1521.096375845863
 30
0.0
 42
0.8270235512678867
  0
VERTEX
  5
A8
330
A5
100
AcDbEntity
  8
Make2D$可见线$普通线
100
AcDbVertex
100
AcDb2dVertex
 10
681.310518203579
 20
1523.057551690328
 30
0.0
  0
VERTEX
  5
A9
330
A5
100
AcDbEntity
  8
Make2D$可见线$普通线
100
AcDbVertex
100
AcDb2dVertex
 10
681.242433197342
 20
1523.065110244311
 30
0.0
  0
VERTEX
  5
AA
330
A5
100
AcDbEntity
  8
Make2D$可见线$普通线
100
AcDbVertex
100
AcDb2dVertex
 10
681.3031998555953
 20
1523.066154856308
 30
0.0
  0
VERTEX
  5
AB
330
A5
100
AcDbEntity
  8
Make2D$可见线$普通线
100
AcDbVertex
100
AcDb2dVertex
 10
711.3727805068479
 20
1523.066154856308
 30
0.0
  0
SEQEND
  5
AC
330
A5
100
AcDbEntity
  8
Make2D$可见线$普通线
  0
POLYLINE
  5
AE
330
1F
100
AcDbEntity
  8
E14775$Inox
100
AcDb2dPolyline
 66
     1
 10
0.0
 20
0.0
 30
0.0
  0
VERTEX
  5
AF
330
AE
100
AcDbEntity
  8
E14775$Inox
100
AcDbVertex
100
AcDb2dVertex
 10
680.5888099111778
 20
1309.074502172299
 30
0.0
 42
-0.3615798469403257
  0
VERTEX
  5
B0
330
AE
100
AcDbEntity
  8
E14775$Inox
100
AcDbVertex
100
AcDb2dVertex
 10
680.1797914396301
 20
1309.566154856308
 30
0.0
  0
VERTEX
  5
B1
330
AE
100
AcDbEntity
  8
E14775$Inox
100
AcDbVertex
100
AcDb2dVertex
 10
680.1797891110905
 20
1427.066154856308
 30
0.0
  0
VERTEX
  5
B2
330
AE
100
AcDbEntity
  8
E14775$Inox
100
AcDbVertex
100
AcDb2dVertex
 10
680.179966851678
 20
1427.085885159976
 30
0.0
  0
VERTEX
  5
B3
330
AE
100
AcDbEntity
  8
E14775$Inox
100
AcDbVertex
100
AcDb2dVertex
 10
680.1805441534211
 20
1427.105606575292
 30
0.0
  0
VERTEX
  5
B4
330
AE
100
AcDbEntity
  8
E14775$Inox
100
AcDbVertex
100
AcDb2dVertex
 10
680.1815182061141
 20
1427.125311726786
 30
0.0
  0
VERTEX
  5
B5
330
AE
100
AcDbEntity
  8
E14775$Inox
100
AcDbVertex
100
AcDb2dVertex
 10
680.1828861995518
 20
1427.144993238987
 30
0.0
  0
VERTEX
  5
B6
330
AE
100
AcDbEntity
  8
E14775$Inox
100
AcDbVertex
100
AcDb2dVertex
 10
680.1846453235287
 20
1427.164643736426
 30
0.0
  0
VERTEX
  5
B7
330
AE
100
AcDbEntity
  8
E14775$Inox
100
AcDbVertex
100
AcDb2dVertex
 10
680.1867927678393
 20
1427.184255843631
 30
0.0
  0
VERTEX
  5
B8
330
AE
100
AcDbEntity
  8
E14775$Inox
100
AcDbVertex
100
AcDb2dVertex
 10
680.189325722278
 20
1427.203822185134
 30
0.0
  0
VERTEX
  5
B9
330
AE
100
AcDbEntity
  8
E14775$Inox
100
AcDbVertex
100
AcDb2dVertex
 10
680.1922413766396
 20
1427.223335385462
 30
0.0
  0
VERTEX
  5
BA
330
AE
100
AcDbEntity
  8
E14775$Inox
100
AcDbVertex
100
AcDb2dVertex
 10
680.1963805477849
 20
1427.247424449254
 30
0.0
  0
VERTEX
  5
BB
330
AE
100
AcDbEntity
  8
E14775$Inox
100
AcDbVertex
100
AcDb2dVertex
 10
680.201101008021
 20
1427.271406109299
 30
0.0
  0
VERTEX
  5
BC
330
AE
100
AcDbEntity
  8
E14775$Inox
100
AcDbVertex
100
AcDb2dVertex
 10
680.2064010129799
 20
1427.295265839403
 30
0.0
  0
VERTEX
  5
BD
330
AE
100
AcDbEntity
  8
E14775$Inox
100
AcDbVertex
100
AcDb2dVertex
 10
680.2122788182925
 20
1427.318989113375
 30
0.0
  0
VERTEX
  5
BE
330
AE
100
AcDbEntity
  8
E14775$Inox
100
AcDbVertex
100
AcDb2dVertex
 10
680.2187326795904
 20
1427.342561405023
 30
0.0
  0
VERTEX
  5
BF
330
AE
100
AcDbEntity
  8
E14775$Inox
100
AcDbVertex
100
AcDb2dVertex
 10
680.2257608525047
 20
1427.365968188153
 30
0.0
  0
VERTEX
  5
C0
330
AE
100
AcDbEntity
  8
E14775$Inox
100
AcDbVertex
100
AcDb2dVertex
 10
680.2333615926667
 20
1427.389194936574
 30
0.0
  0
VERTEX
  5
C1
330
AE
100
AcDbEntity
  8
E14775$Inox
100
AcDbVertex
100
AcDb2dVertex
 10
680.2415331557081
 20
1427.412227124093
 30
0.0
  0
VERTEX
  5
C2
330
AE
100
AcDbEntity
  8
E14775$Inox
100
AcDbVertex
100
AcDb2dVertex
 10
680.2503001267656
 20
1427.435119397332
 30
0.0
  0
VERTEX
  5
C3
330
AE
100
AcDbEntity
  8
E14775$Inox
100
AcDbVertex
100
AcDb2dVertex
 10
680.2596317062696
 20
1427.45778861444
 30
0.0
  0
VERTEX
  5
C4
330
AE
100
AcDbEntity
  8
E14775$Inox
100
AcDbVertex
100
AcDb2dVertex
 10
680.2695199690702
 20
1427.480222075823
 30
0.0
  0
VERTEX
  5
C5
330
AE
100
AcDbEntity
  8
E14775$Inox
100
AcDbVertex
100
AcDb2dVertex
 10
680.279956990018
 20
1427.502407081888
 30
0.0
  0
VERTEX
  5
C6
330
AE
100
AcDbEntity
  8
E14775$Inox
100
AcDbVertex
100
AcDb2dVertex
 10
680.2909348439633
 20
1427.524330933043
 30
0.0
  0
VERTEX
  5
C7
330
AE
100
AcDbEntity
  8
E14775$Inox
100
AcDbVertex
100
AcDb2dVertex
 10
680.3024456057565
 20
1427.545980929694
 30
0.0
  0
VERTEX
  5
C8
330
AE
100
AcDbEntity
  8
E14775$Inox
100
AcDbVertex
100
AcDb2dVertex
 10
680.3144813502479
 20
1427.567344372248
 30
0.0
  0
VERTEX
  5
C9
330
AE
100
AcDbEntity
  8
E14775$Inox
100
AcDbVertex
100
AcDb2dVertex
 10
680.3270341522878
 20
1427.588408561112
 30
0.0
  0
VERTEX
  5
CA
330
AE
100
AcDbEntity
  8
E14775$Inox
100
AcDbVertex
100
AcDb2dVertex
 10
680.3400960867266
 20
1427.609160796695
 30
0.0
  0
VERTEX
  5
CB
330
AE
100
AcDbEntity
  8
E14775$Inox
100
AcDbVertex
100
AcDb2dVertex
 10
680.3536592284149
 20
1427.629588379402
 30
0.0
  0
VERTEX
  5
CC
330
AE
100
AcDbEntity
  8
E14775$Inox
100
AcDbVertex
100
AcDb2dVertex
 10
680.3677156522028
 20
1427.649678609641
 30
0.0
  0
VERTEX
  5
CD
330
AE
100
AcDbEntity
  8
E14775$Inox
100
AcDbVertex
100
AcDb2dVertex
 10
680.3822574329406
 20
1427.669418787818
 30
0.0
  0
VERTEX
  5
CE
330
AE
100
AcDbEntity
  8
E14775$Inox
100
AcDbVertex
100
AcDb2dVertex
 10
680.397276645479
 20
1427.688796214341
 30
0.0
  0
VERTEX
  5
CF
330
AE
100
AcDbEntity
  8
E14775$Inox
100
AcDbVertex
100
AcDb2dVertex
 10
680.4127653646681
 20
1427.707798189617
 30
0.0
  0
VERTEX
  5
D0
330
AE
100
AcDbEntity
  8
E14775$Inox
100
AcDbVertex
100
AcDb2dVertex
 10
680.4287156653584
 20
1427.726412014053
 30
0.0
  0
VERTEX
  5
D1
330
AE
100
AcDbEntity
  8
E14775$Inox
100
AcDbVertex
100
AcDb2dVertex
 10
680.4451196224002
 20
1427.744624988056
 30
0.0
  0
VERTEX
  5
D2
330
AE
100
AcDbEntity
  8
E14775$Inox
100
AcDbVertex
100
AcDb2dVertex
 10
680.4617246594346
 20
1427.762173504544
 30
0.0
  0
VERTEX
  5
D3
330
AE
100
AcDbEntity
  8
E14775$Inox
100
AcDbVertex
100
AcDb2dVertex
 10
680.4787515864273
 20
1427.779311936127
 30
0.0
  0
VERTEX
  5
D4
330
AE
100
AcDbEntity
  8
E14775$Inox
100
AcDbVertex
100
AcDb2dVertex
 10
680.4961892187517
 20
1427.796032005097
 30
0.0
  0
VERTEX
  5
D5
330
AE
100
AcDbEntity
  8
E14775$Inox
100
AcDbVertex
100
AcDb2dVertex
 10
680.5140263717815
 20
1427.81232543375
 30
0.0
  0
VERTEX
  5
D6
330
AE
100
AcDbEntity
  8
E14775$Inox
100
AcDbVertex
100
AcDb2dVertex
 10
680.5322518608899
 20
1427.828183944378
 30
0.0
  0
VERTEX
  5
D7
330
AE
100
AcDbEntity
  8
E14775$Inox
100
AcDbVertex
100
AcDb2dVertex
 10
680.5508545014504
 20
1427.843599259274
 30
0.0
  0
VERTEX
  5
D8
330
AE
100
AcDbEntity
  8
E14775$Inox
100
AcDbVertex
100
AcDb2dVertex
 10
680.5698231088365
 20
1427.858563100733
 30
0.0
  0
VERTEX
  5
D9
330
AE
100
AcDbEntity
  8
E14775$Inox
100
AcDbVertex
100
AcDb2dVertex
 10
680.5891464984218
 20
1427.873067191049
 30
0.0
  0
VERTEX
  5
DA
330
AE
100
AcDbEntity
  8
E14775$Inox
100
AcDbVertex
100
AcDb2dVertex
 10
680.6088134855793
 20
1427.887103252514
 30
0.0
  0
VERTEX
  5
DB
330
AE
100
AcDbEntity
  8
E14775$Inox
100
AcDbVertex
100
AcDb2dVertex
 10
680.6288128856829
 20
1427.900663007424
 30
0.0
  0
VERTEX
  5
DC
330
AE
100
AcDbEntity
  8
E14775$Inox
100
AcDbVertex
100
AcDb2dVertex
 10
680.6491335141056
 20
1427.91373817807
 30
0.0
  0
VERTEX
  5
DD
330
AE
100
AcDbEntity
  8
E14775$Inox
100
AcDbVertex
100
AcDb2dVertex
 10
680.6697641862213
 20
1427.926320486747
 30
0.0
  0
VERTEX
  5
DE
330
AE
100
AcDbEntity
  8
E14775$Inox
100
AcDbVertex
100
AcDb2dVertex
 10
680.6906937174031
 20
1427.938401655749
 30
0.0
  0
VERTEX
  5
DF
330
AE
100
AcDbEntity
  8
E14775$Inox
100
AcDbVertex
100
AcDb2dVertex
 10
680.7119109230246
 20
1427.949973407369
 30
0.0
  0
VERTEX
  5
E0
330
AE
100
AcDbEntity
  8
E14775$Inox
100
AcDbVertex
100
AcDb2dVertex
 10
680.7334046184592
 20
1427.9610274639
 30
0.0
  0
VERTEX
  5
E1
330
AE
100
AcDbEntity
  8
E14775$Inox
100
AcDbVertex
100
AcDb2dVertex
 10
680.7551636190805
 20
1427.971555547638
 30
0.0
  0
VERTEX
  5
E2
330
AE
100
AcDbEntity
  8
E14775$Inox
100
AcDbVertex
100
AcDb2dVertex
 10
680.7762772850192
 20
1427.981154728308
 30
0.0
  0
VERTEX
  5
E3
330
AE
100
AcDbEntity
  8
E14775$Inox
100
AcDbVertex
100
AcDb2dVertex
 10
680.7976104048382
 20
1427.990258783595
 30
0.0
  0
VERTEX
  5
E4
330
AE
100
AcDbEntity
  8
E14775$Inox
100
AcDbVertex
100
AcDb2dVertex
 10
680.8191485309537
 20
1427.998864330992
 30
0.0
  0
VERTEX
  5
E5
330
AE
100
AcDbEntity
  8
E14775$Inox
100
AcDbVertex
100
AcDb2dVertex
 10
680.840877215782
 20
1428.006967987988
 30
0.0
  0
VERTEX
  5
E6
330
AE
100
AcDbEntity
  8
E14775$Inox
100
AcDbVertex
100
AcDb2dVertex
 10
680.8627820117395
 20
1428.014566372074
 30
0.0
  0
VERTEX
  5
E7
330
AE
100
AcDbEntity
  8
E14775$Inox
100
AcDbVertex
100
AcDb2dVertex
 10
680.8848484712421
 20
1428.021656100743
 30
0.0
  0
VERTEX
  5
E8
330
AE
100
AcDbEntity
  8
E14775$Inox
100
AcDbVertex
100
AcDb2dVertex
 10
680.9070621467064
 20
1428.028233791484
 30
0.0
  0
VERTEX
  5
E9
330
AE
100
AcDbEntity
  8
E14775$Inox
100
AcDbVertex
100
AcDb2dVertex
 10
680.9294085905485
 20
1428.034296061789
 30
0.0
  0
VERTEX
  5
EA
330
AE
100
AcDbEntity
  8
E14775$Inox
100
AcDbVertex
100
AcDb2dVertex
 10
680.9518407716841
 20
1428.039830821833
 30
0.0
  0
VERTEX
  5
EB
330
AE
100
AcDbEntity
  8
E14775$Inox
100
AcDbVertex
100
AcDb2dVertex
 10
680.9744082577165
 20
1428.04484623214
 30
0.0
  0
VERTEX
  5
EC
330
AE
100
AcDbEntity
  8
E14775$Inox
100
AcDbVertex
100
AcDb2dVertex
 10
680.997128430437
 20
1428.049340002169
 30
0.0
  0
VERTEX
  5
ED
330
AE
100
AcDbEntity
  8
E14775$Inox
100
AcDbVertex
100
AcDb2dVertex
 10
681.0200186716369
 20
1428.053309841376
 30
0.0
  0
VERTEX
  5
EE
330
AE
100
AcDbEntity
  8
E14775$Inox
100
AcDbVertex
100
AcDb2dVertex
 10
681.0414138694772
 20
1428.056528423605
 30
0.0
  0
VERTEX
  5
EF
330
AE
100
AcDbEntity
  8
E14775$Inox
100
AcDbVertex
100
AcDb2dVertex
 10
681.0624008167188
 20
1428.05925076209
 30
0.0
  0
VERTEX
  5
F0
330
AE
100
AcDbEntity
  8
E14775$Inox
100
AcDbVertex
100
AcDb2dVertex
 10
681.0907171273668
 20
1428.062208262296
 30
0.0
  0
VERTEX
  5
F1
330
AE
100
AcDbEntity
  8
E14775$Inox
100
AcDbVertex
100
AcDb2dVertex
 10
681.0938868799669
 20
1428.06246587037
 30
0.0
  0
VERTEX
  5
F2
330
AE
100
AcDbEntity
  8
E14775$Inox
100
AcDbVertex
100
AcDb2dVertex
 10
681.0941852870487
 20
1428.06248081531
 30
0.0
  0
VERTEX
  5
F3
330
AE
100
AcDbEntity
  8
E14775$Inox
100
AcDbVertex
100
AcDb2dVertex
 10
681.0942833398692
 20
1428.062482788656
 30
0.0
  0
VERTEX
  5
F4
330
AE
100
AcDbEntity
  8
E14775$Inox
100
AcDbVertex
100
AcDb2dVertex
 10
681.0943189588443
 20
1428.062482338151
 30
0.0
  0
VERTEX
  5
F5
330
AE
100
AcDbEntity
  8
E14775$Inox
100
AcDbVertex
100
AcDb2dVertex
 10
681.0943333390035
 20
1428.062481745805
 30
0.0
  0
VERTEX
  5
F6
330
AE
100
AcDbEntity
  8
E14775$Inox
100
AcDbVertex
100
AcDb2dVertex
 10
681.0943454034318
 20
1428.062480905757
 30
0.0
  0
VERTEX
  5
F7
330
AE
100
AcDbEntity
  8
E14775$Inox
100
AcDbVertex
100
AcDb2dVertex
 10
681.09435056033
 20
1428.062480392149
 30
0.0
  0
VERTEX
  5
F8
330
AE
100
AcDbEntity
  8
E14775$Inox
100
AcDbVertex
100
AcDb2dVertex
 10
681.0943551299952
 20
1428.062479815781
 30
0.0
  0
VERTEX
  5
F9
330
AE
100
AcDbEntity
  8
E14775$Inox
100
AcDbVertex
100
AcDb2dVertex
 10
681.0943591096604
 20
1428.062479176373
 30
0.0
  0
VERTEX
  5
FA
330
AE
100
AcDbEntity
  8
E14775$Inox
100
AcDbVertex
100
AcDb2dVertex
 10
681.0943624965591
 20
1428.062478473646
 30
0.0
  0
VERTEX
  5
FB
330
AE
100
AcDbEntity
  8
E14775$Inox
100
AcDbVertex
100
AcDb2dVertex
 10
681.0943652879246
 20
1428.062477707324
 30
0.0
  0
VERTEX
  5
FC
330
AE
100
AcDbEntity
  8
E14775$Inox
100
AcDbVertex
100
AcDb2dVertex
 10
681.09436748099
 20
1428.062476877126
 30
0.0
  0
VERTEX
  5
FD
330
AE
100
AcDbEntity
  8
E14775$Inox
100
AcDbVertex
100
AcDb2dVertex
 10
681.0943690729885
 20
1428.062475982775
 30
0.0
  0
VERTEX
  5
FE
330
AE
100
AcDbEntity
  8
E14775$Inox
100
AcDbVertex
100
AcDb2dVertex
 10
681.0943700611533
 20
1428.062475023992
 30
0.0
  0
VERTEX
  5
FF
330
AE
100
AcDbEntity
  8
E14775$Inox
100
AcDbVertex
100
AcDb2dVertex
 10
681.0943704427177
 20
1428.062474000497
 30
0.0
  0
VERTEX
  5
100
330
AE
100
AcDbEntity
  8
E14775$Inox
100
AcDbVertex
100
AcDb2dVertex
 10
681.0943702149152
 20
1428.062472912014
 30
0.0
  0
VERTEX
  5
101
330
AE
100
AcDbEntity
  8
E14775$Inox
100
AcDbVertex
100
AcDb2dVertex
 10
681.0943693749787
 20
1428.062471758263
 30
0.0
  0
VERTEX
  5
102
330
AE
100
AcDbEntity
  8
E14775$Inox
100
AcDbVertex
100
AcDb2dVertex
 10
681.0943679201415
 20
1428.062470538965
 30
0.0
  0
VERTEX
  5
103
330
AE
100
AcDbEntity
  8
E14775$Inox
100
AcDbVertex
100
AcDb2dVertex
 10
681.0943658476369
 20
1428.062469253842
 30
0.0
  0
VERTEX
  5
104
330
AE
100
AcDbEntity
  8
E14775$Inox
100
AcDbVertex
100
AcDb2dVertex
 10
681.094363154698
 20
1428.062467902615
 30
0.0
  0
VERTEX
  5
105
330
AE
100
AcDbEntity
  8
E14775$Inox
100
AcDbVertex
100
AcDb2dVertex
 10
681.0943598385583
 20
1428.062466485007
 30
0.0
  0
VERTEX
  5
106
330
AE
100
AcDbEntity
  8
E14775$Inox
100
AcDbVertex
100
AcDb2dVertex
 10
681.0943558964508
 20
1428.062465000738
 30
0.0
  0
VERTEX
  5
107
330
AE
100
AcDbEntity
  8
E14775$Inox
100
AcDbVertex
100
AcDb2dVertex
 10
681.0943526288995
 20
1428.062463877255
 30
0.0
  0
VERTEX
  5
108
330
AE
100
AcDbEntity
  8
E14775$Inox
100
AcDbVertex
100
AcDb2dVertex
 10
681.0943490345863
 20
1428.062462720532
 30
0.0
  0
VERTEX
  5
109
330
AE
100
AcDbEntity
  8
E14775$Inox
100
AcDbVertex
100
AcDb2dVertex
 10
681.0943408944279
 20
1428.062460316623
 30
0.0
  0
VERTEX
  5
10A
330
AE
100
AcDbEntity
  8
E14775$Inox
100
AcDbVertex
100
AcDb2dVertex
 10
681.0943315334821
 20
1428.062457807527
 30
0.0
  0
VERTEX
  5
10B
330
AE
100
AcDbEntity
  8
E14775$Inox
100
AcDbVertex
100
AcDb2dVertex
 10
681.0943210092557
 20
1428.062455211757
 30
0.0
  0
VERTEX
  5
10C
330
AE
100
AcDbEntity
  8
E14775$Inox
100
AcDbVertex
100
AcDb2dVertex
 10
681.094296700988
 20
1428.062449834258
 30
0.0
  0
VERTEX
  5
10D
330
AE
100
AcDbEntity
  8
E14775$Inox
100
AcDbVertex
100
AcDb2dVertex
 10
681.0942684296779
 20
1428.062444332246
 30
0.0
  0
VERTEX
  5
10E
330
AE
100
AcDbEntity
  8
E14775$Inox
100
AcDbVertex
100
AcDb2dVertex
 10
681.0942031357097
 20
1428.062433599383
 30
0.0
  0
VERTEX
  5
10F
330
AE
100
AcDbEntity
  8
E14775$Inox
100
AcDbVertex
100
AcDb2dVertex
 10
681.0941263401373
 20
1428.06242304478
 30
0.0
  0
VERTEX
  5
110
330
AE
100
AcDbEntity
  8
E14775$Inox
100
AcDbVertex
100
AcDb2dVertex
 10
681.0939459020342
 20
1428.062402821739
 30
0.0
  0
VERTEX
  5
111
330
AE
100
AcDbEntity
  8
E14775$Inox
100
AcDbVertex
100
AcDb2dVertex
 10
681.0935312429799
 20
1428.062368380019
 30
0.0
  0
VERTEX
  5
112
330
AE
100
AcDbEntity
  8
E14775$Inox
100
AcDbVertex
100
AcDb2dVertex
 10
681.0931469781953
 20
1428.062346629261
 30
0.0
  0
VERTEX
  5
113
330
AE
100
AcDbEntity
  8
E14775$Inox
100
AcDbVertex
100
AcDb2dVertex
 10
681.0930045329291
 20
1428.062342269924
 30
0.0
  0
VERTEX
  5
114
330
AE
100
AcDbEntity
  8
E14775$Inox
100
AcDbVertex
100
AcDb2dVertex
 10
681.0929524327007
 20
1428.062342026728
 30
0.0
  0
VERTEX
  5
115
330
AE
100
AcDbEntity
  8
E14775$Inox
100
AcDbVertex
100
AcDb2dVertex
 10
681.0929320007656
 20
1428.062342427681
 30
0.0
  0
VERTEX
  5
116
330
AE
100
AcDbEntity
  8
E14775$Inox
100
AcDbVertex
100
AcDb2dVertex
 10
681.09292329404
 20
1428.0623427636
 30
0.0
  0
VERTEX
  5
117
330
AE
100
AcDbEntity
  8
E14775$Inox
100
AcDbVertex
100
AcDb2dVertex
 10
681.0929156333603
 20
1428.062343191643
 30
0.0
  0
VERTEX
  5
118
330
AE
100
AcDbEntity
  8
E14775$Inox
100
AcDbVertex
100
AcDb2dVertex
 10
681.0929065754857
 20
1428.062343961534
 30
0.0
  0
VERTEX
  5
119
330
AE
100
AcDbEntity
  8
E14775$Inox
100
AcDbVertex
100
AcDb2dVertex
 10
681.0928996823981
 20
1428.062344919067
 30
0.0
  0
VERTEX
  5
11A
330
AE
100
AcDbEntity
  8
E14775$Inox
100
AcDbVertex
100
AcDb2dVertex
 10
681.0928949390277
 20
1428.062346062461
 30
0.0
  0
VERTEX
  5
11B
330
AE
100
AcDbEntity
  8
E14775$Inox
100
AcDbVertex
100
AcDb2dVertex
 10
681.0928923303052
 20
1428.062347389936
 30
0.0
  0
VERTEX
  5
11C
330
AE
100
AcDbEntity
  8
E14775$Inox
100
AcDbVertex
100
AcDb2dVertex
 10
681.0928918411607
 20
1428.062348899712
 30
0.0
  0
VERTEX
  5
11D
330
AE
100
AcDbEntity
  8
E14775$Inox
100
AcDbVertex
100
AcDb2dVertex
 10
681.092893456525
 20
1428.062350590008
 30
0.0
  0
VERTEX
  5
11E
330
AE
100
AcDbEntity
  8
E14775$Inox
100
AcDbVertex
100
AcDb2dVertex
 10
681.092897161328
 20
1428.062352459043
 30
0.0
  0
VERTEX
  5
11F
330
AE
100
AcDbEntity
  8
E14775$Inox
100
AcDbVertex
100
AcDb2dVertex
 10
681.0929029405004
 20
1428.062354505038
 30
0.0
  0
VERTEX
  5
120
330
AE
100
AcDbEntity
  8
E14775$Inox
100
AcDbVertex
100
AcDb2dVertex
 10
681.0929107789725
 20
1428.062356726213
 30
0.0
  0
VERTEX
  5
121
330
AE
100
AcDbEntity
  8
E14775$Inox
100
AcDbVertex
100
AcDb2dVertex
 10
681.092920661675
 20
1428.062359120785
 30
0.0
  0
VERTEX
  5
122
330
AE
100
AcDbEntity
  8
E14775$Inox
100
AcDbVertex
100
AcDb2dVertex
 10
681.0929325735378
 20
1428.062361686976
 30
0.0
  0
VERTEX
  5
123
330
AE
100
AcDbEntity
  8
E14775$Inox
100
AcDbVertex
100
AcDb2dVertex
 10
681.0929464994916
 20
1428.062364423004
 30
0.0
  0
VERTEX
  5
124
330
AE
100
AcDbEntity
  8
E14775$Inox
100
AcDbVertex
100
AcDb2dVertex
 10
681.0929803333937
 20
1428.062370397452
 30
0.0
  0
VERTEX
  5
125
330
AE
100
AcDbEntity
  8
E14775$Inox
100
AcDbVertex
100
AcDb2dVertex
 10
681.0930220428246
 20
1428.062377029885
 30
0.0
  0
VERTEX
  5
126
330
AE
100
AcDbEntity
  8
E14775$Inox
100
AcDbVertex
100
AcDb2dVertex
 10
681.0932652246986
 20
1428.062409854606
 30
0.0
  0
VERTEX
  5
127
330
AE
100
AcDbEntity
  8
E14775$Inox
100
AcDbVertex
100
AcDb2dVertex
 10
681.0960722801117
 20
1428.062696571057
 30
0.0
  0
VERTEX
  5
128
330
AE
100
AcDbEntity
  8
E14775$Inox
100
AcDbVertex
100
AcDb2dVertex
 10
681.1042072144558
 20
1428.063359096207
 30
0.0
  0
VERTEX
  5
129
330
AE
100
AcDbEntity
  8
E14775$Inox
100
AcDbVertex
100
AcDb2dVertex
 10
681.1089070379792
 20
1428.06366043587
 30
0.0
  0
VERTEX
  5
12A
330
AE
100
AcDbEntity
  8
E14775$Inox
100
AcDbVertex
100
AcDb2dVertex
 10
681.1133700316061
 20
1428.063864038893
 30
0.0
  0
VERTEX
  5
12B
330
AE
100
AcDbEntity
  8
E14775$Inox
100
AcDbVertex
100
AcDb2dVertex
 10
681.1153584045212
 20
1428.063910957593
 30
0.0
  0
VERTEX
  5
12C
330
AE
100
AcDbEntity
  8
E14775$Inox
100
AcDbVertex
100
AcDb2dVertex
 10
681.1171023947379
 20
1428.063911564249
 30
0.0
  0
VERTEX
  5
12D
330
AE
100
AcDbEntity
  8
E14775$Inox
100
AcDbVertex
100
AcDb2dVertex
 10
681.1178634572484
 20
1428.063892221614
 30
0.0
  0
VERTEX
  5
12E
330
AE
100
AcDbEntity
  8
E14775$Inox
100
AcDbVertex
100
AcDb2dVertex
 10
681.1185402771812
 20
1428.063858566232
 30
0.0
  0
VERTEX
  5
12F
330
AE
100
AcDbEntity
  8
E14775$Inox
100
AcDbVertex
100
AcDb2dVertex
 10
681.1188446850451
 20
1428.063836086393
 30
0.0
  0
VERTEX
  5
130
330
AE
100
AcDbEntity
  8
E14775$Inox
100
AcDbVertex
100
AcDb2dVertex
 10
681.119125138902
 20
1428.063809686525
 30
0.0
  0
VERTEX
  5
131
330
AE
100
AcDbEntity
  8
E14775$Inox
100
AcDbVertex
100
AcDb2dVertex
 10
681.1193806742972
 20
1428.063779252681
 30
0.0
  0
VERTEX
  5
132
330
AE
100
AcDbEntity
  8
E14775$Inox
100
AcDbVertex
100
AcDb2dVertex
 10
681.1194987961796
 20
1428.06376248741
 30
0.0
  0
VERTEX
  5
133
330
AE
100
AcDbEntity
  8
E14775$Inox
100
AcDbVertex
100
AcDb2dVertex
 10
681.1196103267764
 20
1428.063744670914
 30
0.0
  0
VERTEX
  5
134
330
AE
100
AcDbEntity
  8
E14775$Inox
100
AcDbVertex
100
AcDb2dVertex
 10
681.1797914395611
 20
1428.066154856308
 30
0.0
  0
VERTEX
  5
135
330
AE
100
AcDbEntity
  8
E14775$Inox
100
AcDbVertex
100
AcDb2dVertex
 10
711.1804532330359
 20
1428.066154856069
 30
0.0
 42
-0.4144405852755111
  0
VERTEX
  5
136
330
AE
100
AcDbEntity
  8
E14775$Inox
100
AcDbVertex
100
AcDb2dVertex
 10
712.1801328415709
 20
1427.066154856308
 30
0.0
  0
VERTEX
  5
137
330
AE
100
AcDbEntity
  8
E14775$Inox
100
AcDbVertex
100
AcDb2dVertex
 10
712.1800549273441
 20
1309.566154856308
 30
0.0
 42
-0.4144317979298671
  0
VERTEX
  5
138
330
AE
100
AcDbEntity
  8
E14775$Inox
100
AcDbVertex
100
AcDb2dVertex
 10
711.6803019496147
 20
1309.066154856308
 30
0.0
  0
VERTEX
  5
139
330
AE
100
AcDbEntity
  8
E14775$Inox
100
AcDbVertex
100
AcDb2dVertex
 10
680.6797914372046
 20
1309.066154856308
 30
0.0
  0
SEQEND
  5
13A
330
AE
100
AcDbEntity
  8
E14775$Inox
  0
LINE
  5
13B
330
1F
100
AcDbEntity
  8
Make2D$可见线$普通线
100
AcDbLine
 10
418.7952017607297
 20
1384.566154856256
 30
0.0
 11
373.0652489976947
 21
1384.566154856256
 31
0.0
  0
LINE
  5
13C
330
1F
100
AcDbEntity
  8
Make2D$可见线$普通线
100
AcDbLine
 10
418.794971407362
 20
1383.066154856256
 30
0.0
 11
373.0652489981394
 21
1383.066154856256
 31
0.0
  0
POLYLINE
  5
13D
330
1F
100
AcDbEntity
  8
Make2D$可见线$普通线
100
AcDb2dPolyline
 66
     1
 10
0.0
 20
0.0
 30
0.0
  0
VERTEX
  5
13E
330
13D
100
AcDbEntity
  8
Make2D$可见线$普通线
100
AcDbVertex
100
AcDb2dVertex
 10
373.6867731511504
 20
1383.071258296447
 30
0.0
 42
0.3569605093790589
  0
VERTEX
  5
13F
330
13D
100
AcDbEntity
  8
Make2D$可见线$普通线
100
AcDbVertex
100
AcDb2dVertex
 10
373.9318764978624
 20
1383.362155441008
 30
0.0
 42
-0.0136019890728996
  0
VERTEX
  5
140
330
13D
100
AcDbEntity
  8
Make2D$可见线$普通线
100
AcDbVertex
100
AcDb2dVertex
 10
373.9813061354862
 20
1384.566154863256
 30
0.0
  0
SEQEND
  5
141
330
13D
100
AcDbEntity
  8
Make2D$可见线$普通线
  0
POLYLINE
  5
142
330
1F
100
AcDbEntity
  8
Make2D$可见线$普通线
100
AcDb2dPolyline
 66
     1
 10
0.0
 20
0.0
 30
0.0
  0
VERTEX
  5
143
330
142
100
AcDbEntity
  8
Make2D$可见线$普通线
100
AcDbVertex
100
AcDb2dVertex
 10
426.6128263906878
 20
1403.922151450785
 30
0.0
 42
0.3988731239305848
  0
VERTEX
  5
144
330
142
100
AcDbEntity
  8
Make2D$可见线$普通线
100
AcDbVertex
100
AcDb2dVertex
 10
420.9301172532754
 20
1397.93117596212
 30
0.0
  0
VERTEX
  5
145
330
142
100
AcDbEntity
  8
Make2D$可见线$普通线
100
AcDbVertex
100
AcDb2dVertex
 10
420.9301172533445
 20
1385.066154856379
 30
0.0
 42
-0.414223533678669
  0
VERTEX
  5
146
330
142
100
AcDbEntity
  8
Make2D$可见线$普通线
100
AcDbVertex
100
AcDb2dVertex
 10
420.4301219538181
 20
1384.566154856256
 30
0.0
  0
VERTEX
  5
147
330
142
100
AcDbEntity
  8
Make2D$可见线$普通线
100
AcDbVertex
100
AcDb2dVertex
 10
418.8266679227668
 20
1384.566154856256
 30
0.0
  0
SEQEND
  5
148
330
142
100
AcDbEntity
  8
Make2D$可见线$普通线
  0
POLYLINE
  5
149
330
1F
100
AcDbEntity
  8
Make2D$可见线$普通线
100
AcDb2dPolyline
 66
     1
 10
0.0
 20
0.0
 30
0.0
  0
VERTEX
  5
14A
330
149
100
AcDbEntity
  8
Make2D$可见线$普通线
100
AcDbVertex
100
AcDb2dVertex
 10
417.8789142697376
 20
1384.566154864541
 30
0.0
 42
-0.0136959165363218
  0
VERTEX
  5
14B
330
149
100
AcDbEntity
  8
Make2D$可见线$普通线
100
AcDbVertex
100
AcDb2dVertex
 10
417.9281200422411
 20
1383.362118981808
 30
0.0
 42
0.395402680932231
  0
VERTEX
  5
14C
330
149
100
AcDbEntity
  8
Make2D$可见线$普通线
100
AcDbVertex
100
AcDb2dVertex
 10
418.204334842161
 20
1383.070693814501
 30
0.0
  0
SEQEND
  5
14D
330
149
100
AcDbEntity
  8
Make2D$可见线$普通线
  0
POLYLINE
  5
14E
330
1F
100
AcDbEntity
  8
Make2D$可见线$普通线
100
AcDb2dPolyline
 66
     1
 10
0.0
 20
0.0
 30
0.0
  0
VERTEX
  5
14F
330
14E
100
AcDbEntity
  8
Make2D$可见线$普通线
100
AcDbVertex
100
AcDb2dVertex
 10
373.0337664224551
 20
1383.066154856256
 30
0.0
  0
VERTEX
  5
150
330
14E
100
AcDbEntity
  8
Make2D$可见线$普通线
100
AcDbVertex
100
AcDb2dVertex
 10
371.4335764959375
 20
1383.066154856256
 30
0.0
 42
0.4162451395871339
  0
VERTEX
  5
151
330
14E
100
AcDbEntity
  8
Make2D$可见线$普通线
100
AcDbVertex
100
AcDb2dVertex
 10
370.9301032630563
 20
1382.566154856255
 30
0.0
  0
VERTEX
  5
152
330
14E
100
AcDbEntity
  8
Make2D$可见线$普通线
100
AcDbVertex
100
AcDb2dVertex
 10
370.9299856292522
 20
1298.066154856256
 30
0.0
 42
0.4149665344729989
  0
VERTEX
  5
153
330
14E
100
AcDbEntity
  8
Make2D$可见线$普通线
100
AcDbVertex
100
AcDb2dVertex
 10
371.9322200429244
 20
1297.066154856256
 30
0.0
  0
VERTEX
  5
154
330
14E
100
AcDbEntity
  8
Make2D$可见线$普通线
100
AcDbVertex
100
AcDb2dVertex
 10
419.9301932516859
 20
1297.066154856256
 30
0.0
 42
0.4143259709695322
  0
VERTEX
  5
155
330
14E
100
AcDbEntity
  8
Make2D$可见线$普通线
100
AcDbVertex
100
AcDb2dVertex
 10
420.9302347760609
 20
1298.066154856255
 30
0.0
  0
VERTEX
  5
156
330
14E
100
AcDbEntity
  8
Make2D$可见线$普通线
100
AcDbVertex
100
AcDb2dVertex
 10
420.9302347822223
 20
1382.566154856255
 30
0.0
 42
0.4164680315438198
  0
VERTEX
  5
157
330
14E
100
AcDbEntity
  8
Make2D$可见线$普通线
100
AcDbVertex
100
AcDb2dVertex
 10
420.4267419426566
 20
1383.066154856256
 30
0.0
  0
VERTEX
  5
158
330
14E
100
AcDbEntity
  8
Make2D$可见线$普通线
100
AcDbVertex
100
AcDb2dVertex
 10
418.8264539804763
 20
1383.066154856256
 30
0.0
  0
SEQEND
  5
159
330
14E
100
AcDbEntity
  8
Make2D$可见线$普通线
  0
POLYLINE
  5
15A
330
1F
100
AcDbEntity
  8
Make2D$可见线$普通线
100
AcDb2dPolyline
 66
     1
 10
0.0
 20
0.0
 30
0.0
  0
VERTEX
  5
15B
330
15A
100
AcDbEntity
  8
Make2D$可见线$普通线
100
AcDbVertex
100
AcDb2dVertex
 10
429.3462558336125
 20
1403.931175962132
 30
0.0
  0
VERTEX
  5
15C
330
15A
100
AcDbEntity
  8
Make2D$可见线$普通线
100
AcDbVertex
100
AcDb2dVertex
 10
362.5140000457926
 20
1403.931175962132
 30
0.0
 42
-0.4142134636167899
  0
VERTEX
  5
15D
330
15A
100
AcDbEntity
  8
Make2D$可见线$普通线
100
AcDbVertex
100
AcDb2dVertex
 10
361.5140000457927
 20
1404.931175962132
 30
0.0
  0
VERTEX
  5
15E
330
15A
100
AcDbEntity
  8
Make2D$可见线$普通线
100
AcDbVertex
100
AcDb2dVertex
 10
361.5140000490758
 20
1408.178002829938
 30
0.0
 42
-0.33526956484633
  0
VERTEX
  5
15F
330
15A
100
AcDbEntity
  8
Make2D$可见线$普通线
100
AcDbVertex
100
AcDb2dVertex
 10
362.2452242529591
 20
1409.141265307195
 30
0.0
  0
VERTEX
  5
160
330
15A
100
AcDbEntity
  8
Make2D$可见线$普通线
100
AcDbVertex
100
AcDb2dVertex
 10
364.299357730354
 20
1409.706720504782
 30
0.0
  0
VERTEX
  5
161
330
15A
100
AcDbEntity
  8
Make2D$可见线$普通线
100
AcDbVertex
100
AcDb2dVertex
 10
366.363536680989
 20
1410.238496986976
 30
0.0
  0
VERTEX
  5
162
330
15A
100
AcDbEntity
  8
Make2D$可见线$普通线
100
AcDbVertex
100
AcDb2dVertex
 10
368.4370705892562
 20
1410.736208091088
 30
0.0
  0
VERTEX
  5
163
330
15A
100
AcDbEntity
  8
Make2D$可见线$普通线
100
AcDbVertex
100
AcDb2dVertex
 10
370.5192689395477
 20
1411.199467154427
 30
0.0
  0
VERTEX
  5
164
330
15A
100
AcDbEntity
  8
Make2D$可见线$普通线
100
AcDbVertex
100
AcDb2dVertex
 10
372.6094412162557
 20
1411.627887514301
 30
0.0
  0
VERTEX
  5
165
330
15A
100
AcDbEntity
  8
Make2D$可见线$普通线
100
AcDbVertex
100
AcDb2dVertex
 10
374.7068969037725
 20
1412.021082508022
 30
0.0
  0
VERTEX
  5
166
330
15A
100
AcDbEntity
  8
Make2D$可见线$普通线
100
AcDbVertex
100
AcDb2dVertex
 10
376.8109454864903
 20
1412.378665472897
 30
0.0
  0
VERTEX
  5
167
330
15A
100
AcDbEntity
  8
Make2D$可见线$普通线
100
AcDbVertex
100
AcDb2dVertex
 10
378.9208964488012
 20
1412.700249746236
 30
0.0
  0
VERTEX
  5
168
330
15A
100
AcDbEntity
  8
Make2D$可见线$普通线
100
AcDbVertex
100
AcDb2dVertex
 10
381.0360592750973
 20
1412.985448665349
 30
0.0
  0
VERTEX
  5
169
330
15A
100
AcDbEntity
  8
Make2D$可见线$普通线
100
AcDbVertex
100
AcDb2dVertex
 10
383.155743449771
 20
1413.233875567545
 30
0.0
  0
VERTEX
  5
16A
330
15A
100
AcDbEntity
  8
Make2D$可见线$普通线
100
AcDbVertex
100
AcDb2dVertex
 10
385.2792584572143
 20
1413.445143790132
 30
0.0
  0
VERTEX
  5
16B
330
15A
100
AcDbEntity
  8
Make2D$可见线$普通线
100
AcDbVertex
100
AcDb2dVertex
 10
387.4059137818194
 20
1413.618866670421
 30
0.0
  0
VERTEX
  5
16C
330
15A
100
AcDbEntity
  8
Make2D$可见线$普通线
100
AcDbVertex
100
AcDb2dVertex
 10
389.5350189079786
 20
1413.754657545721
 30
0.0
  0
VERTEX
  5
16D
330
15A
100
AcDbEntity
  8
Make2D$可见线$普通线
100
AcDbVertex
100
AcDb2dVertex
 10
391.665883320084
 20
1413.85212975334
 30
0.0
  0
VERTEX
  5
16E
330
15A
100
AcDbEntity
  8
Make2D$可见线$普通线
100
AcDbVertex
100
AcDb2dVertex
 10
393.797816502528
 20
1413.910896630589
 30
0.0
  0
VERTEX
  5
16F
330
15A
100
AcDbEntity
  8
Make2D$可见线$普通线
100
AcDbVertex
100
AcDb2dVertex
 10
395.9301279397024
 20
1413.930571514777
 30
0.0
  0
VERTEX
  5
170
330
15A
100
AcDbEntity
  8
Make2D$可见线$普通线
100
AcDbVertex
100
AcDb2dVertex
 10
398.0624393764527
 20
1413.910896630745
 30
0.0
  0
VERTEX
  5
171
330
15A
100
AcDbEntity
  8
Make2D$可见线$普通线
100
AcDbVertex
100
AcDb2dVertex
 10
400.1943725586443
 20
1413.852129753594
 30
0.0
  0
VERTEX
  5
172
330
15A
100
AcDbEntity
  8
Make2D$可见线$普通线
100
AcDbVertex
100
AcDb2dVertex
 10
402.3252369706447
 20
1413.754657546021
 30
0.0
  0
VERTEX
  5
173
330
15A
100
AcDbEntity
  8
Make2D$可见线$普通线
100
AcDbVertex
100
AcDb2dVertex
 10
404.4543420968214
 20
1413.618866670728
 30
0.0
  0
VERTEX
  5
174
330
15A
100
AcDbEntity
  8
Make2D$可见线$普通线
100
AcDbVertex
100
AcDb2dVertex
 10
406.5809974215417
 20
1413.44514379041
 30
0.0
  0
VERTEX
  5
175
330
15A
100
AcDbEntity
  8
Make2D$可见线$普通线
100
AcDbVertex
100
AcDb2dVertex
 10
408.7045124291733
 20
1413.233875567768
 30
0.0
  0
VERTEX
  5
176
330
15A
100
AcDbEntity
  8
Make2D$可见线$普通线
100
AcDbVertex
100
AcDb2dVertex
 10
410.8241966040835
 20
1412.985448665501
 30
0.0
  0
VERTEX
  5
177
330
15A
100
AcDbEntity
  8
Make2D$可见线$普通线
100
AcDbVertex
100
AcDb2dVertex
 10
412.9393594306397
 20
1412.700249746305
 30
0.0
  0
VERTEX
  5
178
330
15A
100
AcDbEntity
  8
Make2D$可见线$普通线
100
AcDbVertex
100
AcDb2dVertex
 10
415.0493103932096
 20
1412.378665472881
 30
0.0
  0
VERTEX
  5
179
330
15A
100
AcDbEntity
  8
Make2D$可见线$普通线
100
AcDbVertex
100
AcDb2dVertex
 10
417.1533589761605
 20
1412.021082507928
 30
0.0
  0
VERTEX
  5
17A
330
15A
100
AcDbEntity
  8
Make2D$可见线$普通线
100
AcDbVertex
100
AcDb2dVertex
 10
419.25081466386
 20
1411.627887514142
 30
0.0
  0
VERTEX
  5
17B
330
15A
100
AcDbEntity
  8
Make2D$可见线$普通线
100
AcDbVertex
100
AcDb2dVertex
 10
421.3409869406754
 20
1411.199467154224
 30
0.0
  0
VERTEX
  5
17C
330
15A
100
AcDbEntity
  8
Make2D$可见线$普通线
100
AcDbVertex
100
AcDb2dVertex
 10
423.4231852909742
 20
1410.736208090872
 30
0.0
  0
VERTEX
  5
17D
330
15A
100
AcDbEntity
  8
Make2D$可见线$普通线
100
AcDbVertex
100
AcDb2dVertex
 10
425.496719199124
 20
1410.238496986784
 30
0.0
  0
VERTEX
  5
17E
330
15A
100
AcDbEntity
  8
Make2D$可见线$普通线
100
AcDbVertex
100
AcDb2dVertex
 10
427.5608981494921
 20
1409.706720504659
 30
0.0
  0
VERTEX
  5
17F
330
15A
100
AcDbEntity
  8
Make2D$可见线$普通线
100
AcDbVertex
100
AcDb2dVertex
 10
429.6150316264461
 20
1409.141265307196
 30
0.0
 42
-0.3352695648450303
  0
VERTEX
  5
180
330
15A
100
AcDbEntity
  8
Make2D$可见线$普通线
100
AcDbVertex
100
AcDb2dVertex
 10
430.3462558303298
 20
1408.178002829957
 30
0.0
  0
VERTEX
  5
181
330
15A
100
AcDbEntity
  8
Make2D$可见线$普通线
100
AcDbVertex
100
AcDb2dVertex
 10
430.3462558336124
 20
1404.931175962132
 30
0.0
 42
-0.4142134636173048
  0
VERTEX
  5
182
330
15A
100
AcDbEntity
  8
Make2D$可见线$普通线
100
AcDbVertex
100
AcDb2dVertex
 10
429.3462558336126
 20
1403.931175962132
 30
0.0
  0
SEQEND
  5
183
330
15A
100
AcDbEntity
  8
Make2D$可见线$普通线
  0
POLYLINE
  5
184
330
1F
100
AcDbEntity
  8
Make2D$可见线$普通线
100
AcDb2dPolyline
 66
     1
 10
0.0
 20
0.0
 30
0.0
  0
VERTEX
  5
185
330
184
100
AcDbEntity
  8
Make2D$可见线$普通线
100
AcDbVertex
100
AcDb2dVertex
 10
373.0337765309398
 20
1384.566154856256
 30
0.0
  0
VERTEX
  5
186
330
184
100
AcDbEntity
  8
Make2D$可见线$普通线
100
AcDbVertex
100
AcDb2dVertex
 10
371.4299014191436
 20
1384.566154856255
 30
0.0
 42
-0.4143908764644725
  0
VERTEX
  5
187
330
184
100
AcDbEntity
  8
Make2D$可见线$普通线
100
AcDbVertex
100
AcDb2dVertex
 10
370.9299849325921
 20
1385.06615508462
 30
0.0
  0
VERTEX
  5
188
330
184
100
AcDbEntity
  8
Make2D$可见线$普通线
100
AcDbVertex
100
AcDb2dVertex
 10
370.9301031520459
 20
1397.931175954736
 30
0.0
 42
0.397025887409684
  0
VERTEX
  5
189
330
184
100
AcDbEntity
  8
Make2D$可见线$普通线
100
AcDbVertex
100
AcDb2dVertex
 10
365.2878460201043
 20
1403.918960969252
 30
0.0
  0
SEQEND
  5
18A
330
184
100
AcDbEntity
  8
Make2D$可见线$普通线
  0
LINE
  5
18B
330
1F
100
AcDbEntity
  8
Make2D$可见线$普通线
100
AcDbLine
 10
65.55072315120526
 20
1516.41969263647
 30
0.0
 11
65.48903518279326
 21
1516.423191884474
 31
0.0
  0
LINE
  5
18C
330
1F
100
AcDbEntity
  8
Make2D$可见线$普通线
100
AcDbLine
 10
124.1698417276484
 20
1516.431175962132
 30
0.0
 11
124.1257868225398
 21
1516.431175962132
 31
0.0
  0
ARC
  5
18D
330
1F
100
AcDbEntity
  8
Make2D$可见线$普通线
100
AcDbCircle
 10
124.1801392307483
 20
1504.431175984581
 30
0.0
 40
11.99999997752954
100
AcDbArc
 50
92.20488037810753
 51
92.55510665310496
  0
ARC
  5
18E
330
1F
100
AcDbEntity
  8
Make2D$可见线$普通线
100
AcDbCircle
 10
102.6843503780678
 20
1504.830633739667
 30
0.0
 40
10.3243009891024
100
AcDbArc
 50
336.8897450372966
 51
346.4202269008226
  0
LINE
  5
18F
330
1F
100
AcDbEntity
  8
Make2D$可见线$普通线
100
AcDbLine
 10
126.8694841246154
 20
1516.431175962132
 30
0.0
 11
126.2444377845554
 21
1516.431175962132
 31
0.0
  0
LINE
  5
190
330
1F
100
AcDbEntity
  8
Make2D$可见线$普通线
100
AcDbLine
 10
72.11745457031304
 20
1516.431175962132
 30
0.0
 11
71.7738687243509
 21
1516.431175962132
 31
0.0
  0
LINE
  5
191
330
1F
100
AcDbEntity
  8
Make2D$可见线$普通线
100
AcDbLine
 10
65.5200364079875
 20
1516.431175962132
 30
0.0
 11
65.44256389726002
 21
1516.431175962132
 31
0.0
  0
ARC
  5
192
330
1F
100
AcDbEntity
  8
Make2D$可见线$普通线
100
AcDbCircle
 10
68.18673074299276
 20
1504.433432877214
 30
0.0
 40
11.99280812916545
100
AcDbArc
 50
359.9973778925847
 51
88.9316296326567
  0
POLYLINE
  5
193
330
1F
100
AcDbEntity
  8
Make2D$可见线$普通线
100
AcDb2dPolyline
 66
     1
 10
0.0
 20
0.0
 30
0.0
  0
VERTEX
  5
194
330
193
100
AcDbEntity
  8
Make2D$可见线$普通线
100
AcDbVertex
100
AcDb2dVertex
 10
112.1697795591371
 20
1498.644956003582
 30
0.0
  0
VERTEX
  5
195
330
193
100
AcDbEntity
  8
Make2D$可见线$普通线
100
AcDbVertex
100
AcDb2dVertex
 10
112.1667448857268
 20
1498.620709189471
 30
0.0
  0
VERTEX
  5
196
330
193
100
AcDbEntity
  8
Make2D$可见线$普通线
100
AcDbVertex
100
AcDb2dVertex
 10
112.1632901871734
 20
1498.596567487205
 30
0.0
  0
VERTEX
  5
197
330
193
100
AcDbEntity
  8
Make2D$可见线$普通线
100
AcDbVertex
100
AcDb2dVertex
 10
112.1551363126823
 20
1498.548603823069
 30
0.0
  0
VERTEX
  5
198
330
193
100
AcDbEntity
  8
Make2D$可见线$普通线
100
AcDbVertex
100
AcDb2dVertex
 10
112.1453491317536
 20
1498.501073820895
 30
0.0
  0
VERTEX
  5
199
330
193
100
AcDbEntity
  8
Make2D$可见线$普通线
100
AcDbVertex
100
AcDb2dVertex
 10
112.1339598404768
 20
1498.453986290401
 30
0.0
  0
VERTEX
  5
19A
330
193
100
AcDbEntity
  8
Make2D$可见线$普通线
100
AcDbVertex
100
AcDb2dVertex
 10
112.1209996349418
 20
1498.407350041308
 30
0.0
  0
VERTEX
  5
19B
330
193
100
AcDbEntity
  8
Make2D$可见线$普通线
100
AcDbVertex
100
AcDb2dVertex
 10
112.1064997112382
 20
1498.361173883333
 30
0.0
  0
VERTEX
  5
19C
330
193
100
AcDbEntity
  8
Make2D$可见线$普通线
100
AcDbVertex
100
AcDb2dVertex
 10
112.090491265456
 20
1498.315466626196
 30
0.0
  0
VERTEX
  5
19D
330
193
100
AcDbEntity
  8
Make2D$可见线$普通线
100
AcDbVertex
100
AcDb2dVertex
 10
112.0730054936847
 20
1498.270237079618
 30
0.0
  0
VERTEX
  5
19E
330
193
100
AcDbEntity
  8
Make2D$可见线$普通线
100
AcDbVertex
100
AcDb2dVertex
 10
112.0550786454022
 20
1498.227774323798
 30
0.0
  0
VERTEX
  5
19F
330
193
100
AcDbEntity
  8
Make2D$可见线$普通线
100
AcDbVertex
100
AcDb2dVertex
 10
112.0358935225281
 20
1498.185789373985
 30
0.0
  0
VERTEX
  5
1A0
330
193
100
AcDbEntity
  8
Make2D$可见线$普通线
100
AcDbVertex
100
AcDb2dVertex
 10
112.0154939333249
 20
1498.144321977535
 30
0.0
  0
VERTEX
  5
1A1
330
193
100
AcDbEntity
  8
Make2D$可见线$普通线
100
AcDbVertex
100
AcDb2dVertex
 10
111.9939236860553
 20
1498.103411881805
 30
0.0
  0
VERTEX
  5
1A2
330
193
100
AcDbEntity
  8
Make2D$可见线$普通线
100
AcDbVertex
100
AcDb2dVertex
 10
111.9712265889818
 20
1498.063098834151
 30
0.0
  0
VERTEX
  5
1A3
330
193
100
AcDbEntity
  8
Make2D$可见线$普通线
100
AcDbVertex
100
AcDb2dVertex
 10
111.9474464503669
 20
1498.02342258193
 30
0.0
  0
VERTEX
  5
1A4
330
193
100
AcDbEntity
  8
Make2D$可见线$普通线
100
AcDbVertex
100
AcDb2dVertex
 10
111.9226270784733
 20
1497.984422872499
 30
0.0
  0
VERTEX
  5
1A5
330
193
100
AcDbEntity
  8
Make2D$可见线$普通线
100
AcDbVertex
100
AcDb2dVertex
 10
111.8968122815635
 20
1497.946139453214
 30
0.0
  0
VERTEX
  5
1A6
330
193
100
AcDbEntity
  8
Make2D$可见线$普通线
100
AcDbVertex
100
AcDb2dVertex
 10
111.8669761376525
 20
1497.904428811733
 30
0.0
  0
VERTEX
  5
1A7
330
193
100
AcDbEntity
  8
Make2D$可见线$普通线
100
AcDbVertex
100
AcDb2dVertex
 10
111.8360101222802
 20
1497.863635861484
 30
0.0
  0
VERTEX
  5
1A8
330
193
100
AcDbEntity
  8
Make2D$可见线$普通线
100
AcDbVertex
100
AcDb2dVertex
 10
111.8039620458367
 20
1497.823742652704
 30
0.0
  0
VERTEX
  5
1A9
330
193
100
AcDbEntity
  8
Make2D$可见线$普通线
100
AcDbVertex
100
AcDb2dVertex
 10
111.7708797187117
 20
1497.784731235629
 30
0.0
  0
VERTEX
  5
1AA
330
193
100
AcDbEntity
  8
Make2D$可见线$普通线
100
AcDbVertex
100
AcDb2dVertex
 10
111.7368109512954
 20
1497.746583660497
 30
0.0
  0
VERTEX
  5
1AB
330
193
100
AcDbEntity
  8
Make2D$可见线$普通线
100
AcDbVertex
100
AcDb2dVertex
 10
111.7018035539777
 20
1497.709281977546
 30
0.0
  0
VERTEX
  5
1AC
330
193
100
AcDbEntity
  8
Make2D$可见线$普通线
100
AcDbVertex
100
AcDb2dVertex
 10
111.6659053371486
 20
1497.67280823701
 30
0.0
  0
VERTEX
  5
1AD
330
193
100
AcDbEntity
  8
Make2D$可见线$普通线
100
AcDbVertex
100
AcDb2dVertex
 10
111.629164111198
 20
1497.637144489128
 30
0.0
  0
VERTEX
  5
1AE
330
193
100
AcDbEntity
  8
Make2D$可见线$普通线
100
AcDbVertex
100
AcDb2dVertex
 10
111.5916276865158
 20
1497.602272784137
 30
0.0
  0
VERTEX
  5
1AF
330
193
100
AcDbEntity
  8
Make2D$可见线$普通线
100
AcDbVertex
100
AcDb2dVertex
 10
111.5533438734922
 20
1497.568175172273
 30
0.0
  0
VERTEX
  5
1B0
330
193
100
AcDbEntity
  8
Make2D$可见线$普通线
100
AcDbVertex
100
AcDb2dVertex
 10
111.514360482517
 20
1497.534833703773
 30
0.0
  0
VERTEX
  5
1B1
330
193
100
AcDbEntity
  8
Make2D$可见线$普通线
100
AcDbVertex
100
AcDb2dVertex
 10
111.4747253239802
 20
1497.502230428875
 30
0.0
  0
VERTEX
  5
1B2
330
193
100
AcDbEntity
  8
Make2D$可见线$普通线
100
AcDbVertex
100
AcDb2dVertex
 10
111.3936909457817
 20
1497.439166660829
 30
0.0
  0
VERTEX
  5
1B3
330
193
100
AcDbEntity
  8
Make2D$可见线$普通线
100
AcDbVertex
100
AcDb2dVertex
 10
111.3106232220166
 20
1497.378840270032
 30
0.0
  0
VERTEX
  5
1B4
330
193
100
AcDbEntity
  8
Make2D$可见线$普通线
100
AcDbVertex
100
AcDb2dVertex
 10
111.2542989843213
 20
1497.340078827563
 30
0.0
  0
VERTEX
  5
1B5
330
193
100
AcDbEntity
  8
Make2D$可见线$普通线
100
AcDbVertex
100
AcDb2dVertex
 10
111.1972751207261
 20
1497.302431784201
 30
0.0
  0
VERTEX
  5
1B6
330
193
100
AcDbEntity
  8
Make2D$可见线$普通线
100
AcDbVertex
100
AcDb2dVertex
 10
111.1395855086874
 20
1497.265861083434
 30
0.0
  0
VERTEX
  5
1B7
330
193
100
AcDbEntity
  8
Make2D$可见线$普通线
100
AcDbVertex
100
AcDb2dVertex
 10
111.081264025661
 20
1497.230328668748
 30
0.0
  0
VERTEX
  5
1B8
330
193
100
AcDbEntity
  8
Make2D$可见线$普通线
100
AcDbVertex
100
AcDb2dVertex
 10
110.9628609564697
 20
1497.16222647157
 30
0.0
  0
VERTEX
  5
1B9
330
193
100
AcDbEntity
  8
Make2D$可见线$普通线
100
AcDbVertex
100
AcDb2dVertex
 10
110.8423369328008
 20
1497.097820740562
 30
0.0
  0
VERTEX
  5
1BA
330
193
100
AcDbEntity
  8
Make2D$可见线$普通线
100
AcDbVertex
100
AcDb2dVertex
 10
110.7199629743028
 20
1497.036807023619
 30
0.0
  0
VERTEX
  5
1BB
330
193
100
AcDbEntity
  8
Make2D$可见线$普通线
100
AcDbVertex
100
AcDb2dVertex
 10
110.5960101006243
 20
1496.978880868638
 30
0.0
  0
VERTEX
  5
1BC
330
193
100
AcDbEntity
  8
Make2D$可见线$普通线
100
AcDbVertex
100
AcDb2dVertex
 10
110.4707493314137
 20
1496.923737823515
 30
0.0
  0
VERTEX
  5
1BD
330
193
100
AcDbEntity
  8
Make2D$可见线$普通线
100
AcDbVertex
100
AcDb2dVertex
 10
110.3444516863198
 20
1496.871073436143
 30
0.0
  0
VERTEX
  5
1BE
330
193
100
AcDbEntity
  8
Make2D$可见线$普通线
100
AcDbVertex
100
AcDb2dVertex
 10
110.1792094560732
 20
1496.805936850844
 30
0.0
  0
VERTEX
  5
1BF
330
193
100
AcDbEntity
  8
Make2D$可见线$普通线
100
AcDbVertex
100
AcDb2dVertex
 10
110.0127707456443
 20
1496.744230140994
 30
0.0
  0
VERTEX
  5
1C0
330
193
100
AcDbEntity
  8
Make2D$可见线$普通线
100
AcDbVertex
100
AcDb2dVertex
 10
109.8452313081388
 20
1496.685714633319
 30
0.0
  0
VERTEX
  5
1C1
330
193
100
AcDbEntity
  8
Make2D$可见线$普通线
100
AcDbVertex
100
AcDb2dVertex
 10
109.6766868966625
 20
1496.630151654544
 30
0.0
  0
VERTEX
  5
1C2
330
193
100
AcDbEntity
  8
Make2D$可见线$普通线
100
AcDbVertex
100
AcDb2dVertex
 10
109.33696616422
 20
1496.526928590597
 30
0.0
  0
VERTEX
  5
1C3
330
193
100
AcDbEntity
  8
Make2D$可见线$普通线
100
AcDbVertex
100
AcDb2dVertex
 10
108.9943745731621
 20
1496.432651562956
 30
0.0
  0
VERTEX
  5
1C4
330
193
100
AcDbEntity
  8
Make2D$可见线$普通线
100
AcDbVertex
100
AcDb2dVertex
 10
108.6508284494498
 20
1496.345155507265
 30
0.0
  0
VERTEX
  5
1C5
330
193
100
AcDbEntity
  8
Make2D$可见线$普通线
100
AcDbVertex
100
AcDb2dVertex
 10
108.2907031759472
 20
1496.260563464034
 30
0.0
  0
VERTEX
  5
1C6
330
193
100
AcDbEntity
  8
Make2D$可见线$普通线
100
AcDbVertex
100
AcDb2dVertex
 10
107.5225954443271
 20
1496.100261688128
 30
0.0
  0
VERTEX
  5
1C7
330
193
100
AcDbEntity
  8
Make2D$可见线$普通线
100
AcDbVertex
100
AcDb2dVertex
 10
106.6938119078151
 20
1495.952086781588
 30
0.0
  0
VERTEX
  5
1C8
330
193
100
AcDbEntity
  8
Make2D$可见线$普通线
100
AcDbVertex
100
AcDb2dVertex
 10
105.8081130959244
 20
1495.816379290762
 30
0.0
  0
VERTEX
  5
1C9
330
193
100
AcDbEntity
  8
Make2D$可见线$普通线
100
AcDbVertex
100
AcDb2dVertex
 10
104.8692595381683
 20
1495.693479761998
 30
0.0
  0
VERTEX
  5
1CA
330
193
100
AcDbEntity
  8
Make2D$可见线$普通线
100
AcDbVertex
100
AcDb2dVertex
 10
103.8810117640598
 20
1495.583728741645
 30
0.0
  0
VERTEX
  5
1CB
330
193
100
AcDbEntity
  8
Make2D$可见线$普通线
100
AcDbVertex
100
AcDb2dVertex
 10
102.8471303031124
 20
1495.48746677605
 30
0.0
  0
VERTEX
  5
1CC
330
193
100
AcDbEntity
  8
Make2D$可见线$普通线
100
AcDbVertex
100
AcDb2dVertex
 10
101.7713756848391
 20
1495.405034411561
 30
0.0
  0
VERTEX
  5
1CD
330
193
100
AcDbEntity
  8
Make2D$可见线$普通线
100
AcDbVertex
100
AcDb2dVertex
 10
100.7288107065857
 20
1495.342487780064
 30
0.0
  0
VERTEX
  5
1CE
330
193
100
AcDbEntity
  8
Make2D$可见线$普通线
100
AcDbVertex
100
AcDb2dVertex
 10
99.68531958343848
 20
1495.292744229729
 30
0.0
  0
VERTEX
  5
1CF
330
193
100
AcDbEntity
  8
Make2D$可见线$普通线
100
AcDbVertex
100
AcDb2dVertex
 10
98.64113825105264
 20
1495.255822285802
 30
0.0
  0
VERTEX
  5
1D0
330
193
100
AcDbEntity
  8
Make2D$可见线$普通线
100
AcDbVertex
100
AcDb2dVertex
 10
97.59650310048181
 20
1495.231734673622
 30
0.0
  0
VERTEX
  5
1D1
330
193
100
AcDbEntity
  8
Make2D$可见线$普通线
100
AcDbVertex
100
AcDb2dVertex
 10
96.55165079987766
 20
1495.220488305724
 30
0.0
  0
VERTEX
  5
1D2
330
193
100
AcDbEntity
  8
Make2D$可见线$普通线
100
AcDbVertex
100
AcDb2dVertex
 10
95.50681811579534
 20
1495.222084275523
 30
0.0
  0
VERTEX
  5
1D3
330
193
100
AcDbEntity
  8
Make2D$可见线$普通线
100
AcDbVertex
100
AcDb2dVertex
 10
94.46224173438712
 20
1495.236517857585
 30
0.0
  0
VERTEX
  5
1D4
330
193
100
AcDbEntity
  8
Make2D$可见线$普通线
100
AcDbVertex
100
AcDb2dVertex
 10
93.41815808276851
 20
1495.263778514488
 30
0.0
  0
VERTEX
  5
1D5
330
193
100
AcDbEntity
  8
Make2D$可见线$普通线
100
AcDbVertex
100
AcDb2dVertex
 10
92.30027187736557
 20
1495.30747287077
 30
0.0
  0
VERTEX
  5
1D6
330
193
100
AcDbEntity
  8
Make2D$可见线$普通线
100
AcDbVertex
100
AcDb2dVertex
 10
91.20511666476217
 20
1495.365692895354
 30
0.0
  0
VERTEX
  5
1D7
330
193
100
AcDbEntity
  8
Make2D$可见线$普通线
100
AcDbVertex
100
AcDb2dVertex
 10
90.13783920875971
 20
1495.438034217198
 30
0.0
  0
VERTEX
  5
1D8
330
193
100
AcDbEntity
  8
Make2D$可见线$普通线
100
AcDbVertex
100
AcDb2dVertex
 10
89.10358627315965
 20
1495.524092465261
 30
0.0
  0
VERTEX
  5
1D9
330
193
100
AcDbEntity
  8
Make2D$可见线$普通线
100
AcDbVertex
100
AcDb2dVertex
 10
88.1075046217634
 20
1495.623463268504
 30
0.0
  0
VERTEX
  5
1DA
330
193
100
AcDbEntity
  8
Make2D$可见线$普通线
100
AcDbVertex
100
AcDb2dVertex
 10
87.15474101837238
 20
1495.735742255887
 30
0.0
  0
VERTEX
  5
1DB
330
193
100
AcDbEntity
  8
Make2D$可见线$普通线
100
AcDbVertex
100
AcDb2dVertex
 10
86.25044222678801
 20
1495.860525056367
 30
0.0
  0
VERTEX
  5
1DC
330
193
100
AcDbEntity
  8
Make2D$可见线$普通线
100
AcDbVertex
100
AcDb2dVertex
 10
85.39975501081176
 20
1495.997407298906
 30
0.0
  0
VERTEX
  5
1DD
330
193
100
AcDbEntity
  8
Make2D$可见线$普通线
100
AcDbVertex
100
AcDb2dVertex
 10
84.60277584390863
 20
1496.146808342085
 30
0.0
  0
VERTEX
  5
1DE
330
193
100
AcDbEntity
  8
Make2D$可见线$普通线
100
AcDbVertex
100
AcDb2dVertex
 10
83.86998295446848
 20
1496.30724568375
 30
0.0
  0
VERTEX
  5
1DF
330
193
100
AcDbEntity
  8
Make2D$可见线$普通线
100
AcDbVertex
100
AcDb2dVertex
 10
83.52747201731518
 20
1496.391741693489
 30
0.0
  0
VERTEX
  5
1E0
330
193
100
AcDbEntity
  8
Make2D$可见线$普通线
100
AcDbVertex
100
AcDb2dVertex
 10
83.20078643374937
 20
1496.479163250219
 30
0.0
  0
VERTEX
  5
1E1
330
193
100
AcDbEntity
  8
Make2D$可见线$普通线
100
AcDbVertex
100
AcDb2dVertex
 10
82.88985246517835
 20
1496.569565844729
 30
0.0
  0
VERTEX
  5
1E2
330
193
100
AcDbEntity
  8
Make2D$可见线$普通线
100
AcDbVertex
100
AcDb2dVertex
 10
82.59459637300938
 20
1496.663004967809
 30
0.0
  0
VERTEX
  5
1E3
330
193
100
AcDbEntity
  8
Make2D$可见线$普通线
100
AcDbVertex
100
AcDb2dVertex
 10
82.31615159289252
 20
1496.758484414209
 30
0.0
  0
VERTEX
  5
1E4
330
193
100
AcDbEntity
  8
Make2D$可见线$普通线
100
AcDbVertex
100
AcDb2dVertex
 10
82.0502674161012
 20
1496.857870197682
 30
0.0
  0
VERTEX
  5
1E5
330
193
100
AcDbEntity
  8
Make2D$可见线$普通线
100
AcDbVertex
100
AcDb2dVertex
 10
81.92218385943583
 20
1496.909496440697
 30
0.0
  0
VERTEX
  5
1E6
330
193
100
AcDbEntity
  8
Make2D$可见线$普通线
100
AcDbVertex
100
AcDb2dVertex
 10
81.7974184201817
 20
1496.962661437832
 30
0.0
  0
VERTEX
  5
1E7
330
193
100
AcDbEntity
  8
Make2D$可见线$普通线
100
AcDbVertex
100
AcDb2dVertex
 10
81.67603042053209
 20
1497.017552579037
 30
0.0
  0
VERTEX
  5
1E8
330
193
100
AcDbEntity
  8
Make2D$可见线$普通线
100
AcDbVertex
100
AcDb2dVertex
 10
81.55807918268027
 20
1497.074357254264
 30
0.0
  0
VERTEX
  5
1E9
330
193
100
AcDbEntity
  8
Make2D$可见线$普通线
100
AcDbVertex
100
AcDb2dVertex
 10
81.44362402881956
 20
1497.133262853462
 30
0.0
  0
VERTEX
  5
1EA
330
193
100
AcDbEntity
  8
Make2D$可见线$普通线
100
AcDbVertex
100
AcDb2dVertex
 10
81.33272428114321
 20
1497.194456766581
 30
0.0
  0
VERTEX
  5
1EB
330
193
100
AcDbEntity
  8
Make2D$可见线$普通线
100
AcDbVertex
100
AcDb2dVertex
 10
81.22543926184453
 20
1497.258126383573
 30
0.0
  0
VERTEX
  5
1EC
330
193
100
AcDbEntity
  8
Make2D$可见线$普通线
100
AcDbVertex
100
AcDb2dVertex
 10
81.1731708135222
 20
1497.290948140381
 30
0.0
  0
VERTEX
  5
1ED
330
193
100
AcDbEntity
  8
Make2D$可见线$普通线
100
AcDbVertex
100
AcDb2dVertex
 10
81.12182829311678
 20
1497.324459094388
 30
0.0
  0
VERTEX
  5
1EE
330
193
100
AcDbEntity
  8
Make2D$可见线$普通线
100
AcDbVertex
100
AcDb2dVertex
 10
81.07141911590242
 20
1497.358682669338
 30
0.0
  0
VERTEX
  5
1EF
330
193
100
AcDbEntity
  8
Make2D$可见线$普通线
100
AcDbVertex
100
AcDb2dVertex
 10
81.02195069715326
 20
1497.393642288976
 30
0.0
  0
VERTEX
  5
1F0
330
193
100
AcDbEntity
  8
Make2D$可见线$普通线
100
AcDbVertex
100
AcDb2dVertex
 10
80.97343045214348
 20
1497.429361377044
 30
0.0
  0
VERTEX
  5
1F1
330
193
100
AcDbEntity
  8
Make2D$可见线$普通线
100
AcDbVertex
100
AcDb2dVertex
 10
80.92586579614725
 20
1497.465863357288
 30
0.0
  0
VERTEX
  5
1F2
330
193
100
AcDbEntity
  8
Make2D$可见线$普通线
100
AcDbVertex
100
AcDb2dVertex
 10
80.87926414443871
 20
1497.503171653449
 30
0.0
  0
VERTEX
  5
1F3
330
193
100
AcDbEntity
  8
Make2D$可见线$普通线
100
AcDbVertex
100
AcDb2dVertex
 10
80.83363291229205
 20
1497.541309689274
 30
0.0
  0
VERTEX
  5
1F4
330
193
100
AcDbEntity
  8
Make2D$可见线$普通线
100
AcDbVertex
100
AcDb2dVertex
 10
80.78897951498138
 20
1497.580300888504
 30
0.0
  0
VERTEX
  5
1F5
330
193
100
AcDbEntity
  8
Make2D$可见线$普通线
100
AcDbVertex
100
AcDb2dVertex
 10
80.74531136778089
 20
1497.620168674885
 30
0.0
 42
-0.2114086709416063
  0
VERTEX
  5
1F6
330
193
100
AcDbEntity
  8
Make2D$可见线$普通线
100
AcDbVertex
100
AcDb2dVertex
 10
80.17931836001026
 20
1498.823843576358
 30
0.0
  0
VERTEX
  5
1F7
330
193
100
AcDbEntity
  8
Make2D$可见线$普通线
100
AcDbVertex
100
AcDb2dVertex
 10
80.18013923141211
 20
1504.402911794361
 30
0.0
  0
SEQEND
  5
1F8
330
193
100
AcDbEntity
  8
Make2D$可见线$普通线
  0
POLYLINE
  5
1F9
330
1F
100
AcDbEntity
  8
Make2D$可见线$普通线
100
AcDb2dPolyline
 66
     1
 10
0.0
 20
0.0
 30
0.0
  0
VERTEX
  5
1FA
330
1F9
100
AcDbEntity
  8
Make2D$可见线$普通线
100
AcDbVertex
100
AcDb2dVertex
 10
123.905270291556
 20
1516.42277970805
 30
0.0
 42
0.407828155194403
  0
VERTEX
  5
1FB
330
1F9
100
AcDbEntity
  8
Make2D$可见线$普通线
100
AcDbVertex
100
AcDb2dVertex
 10
112.1801719364015
 20
1504.431175950632
 30
0.0
  0
VERTEX
  5
1FC
330
1F9
100
AcDbEntity
  8
Make2D$可见线$普通线
100
AcDbVertex
100
AcDb2dVertex
 10
112.1801661408413
 20
1498.824909439984
 30
0.0
  0
VERTEX
  5
1FD
330
1F9
100
AcDbEntity
  8
Make2D$可见线$普通线
100
AcDbVertex
100
AcDb2dVertex
 10
112.1799741428398
 20
1498.807015496123
 30
0.0
  0
SEQEND
  5
1FE
330
1F9
100
AcDbEntity
  8
Make2D$可见线$普通线
  0
POLYLINE
  5
1FF
330
1F
100
AcDbEntity
  8
Make2D$可见线$普通线
100
AcDb2dPolyline
 66
     1
 10
0.0
 20
0.0
 30
0.0
  0
VERTEX
  5
200
330
1FF
100
AcDbEntity
  8
Make2D$可见线$普通线
100
AcDbVertex
100
AcDb2dVertex
 10
126.4890054473892
 20
1516.391222316366
 30
0.0
 42
0.0361894588158082
  0
VERTEX
  5
201
330
1FF
100
AcDbEntity
  8
Make2D$可见线$普通线
100
AcDbVertex
100
AcDb2dVertex
 10
125.6374713427932
 20
1516.229483555216
 30
0.0
 42
0.0453097000079035
  0
VERTEX
  5
202
330
1FF
100
AcDbEntity
  8
Make2D$可见线$普通线
100
AcDbVertex
100
AcDb2dVertex
 10
124.6176656667299
 20
1515.856461801343
 30
0.0
 42
0.2901642887922634
  0
VERTEX
  5
203
330
1FF
100
AcDbEntity
  8
Make2D$可见线$普通线
100
AcDbVertex
100
AcDb2dVertex
 10
121.1801392314135
 20
1510.431175962132
 30
0.0
  0
VERTEX
  5
204
330
1FF
100
AcDbEntity
  8
Make2D$可见线$普通线
100
AcDbVertex
100
AcDb2dVertex
 10
121.1801392314132
 20
1303.066154856164
 30
0.0
  0
VERTEX
  5
205
330
1FF
100
AcDbEntity
  8
Make2D$可见线$普通线
100
AcDbVertex
100
AcDb2dVertex
 10
121.1802638048175
 20
1298.066154856256
 30
0.0
 42
-0.4143259709695429
  0
VERTEX
  5
206
330
1FF
100
AcDbEntity
  8
Make2D$可见线$普通线
100
AcDbVertex
100
AcDb2dVertex
 10
120.1802222804425
 20
1297.066154856256
 30
0.0
  0
VERTEX
  5
207
330
1FF
100
AcDbEntity
  8
Make2D$可见线$普通线
100
AcDbVertex
100
AcDb2dVertex
 10
72.18005618241108
 20
1297.066154856256
 30
0.0
 42
-0.414325970976668
  0
VERTEX
  5
208
330
1FF
100
AcDbEntity
  8
Make2D$可见线$普通线
100
AcDbVertex
100
AcDb2dVertex
 10
71.18001465800884
 20
1298.066154856256
 30
0.0
  0
VERTEX
  5
209
330
1FF
100
AcDbEntity
  8
Make2D$可见线$普通线
100
AcDbVertex
100
AcDb2dVertex
 10
71.18013923141325
 20
1303.066154856187
 30
0.0
  0
VERTEX
  5
20A
330
1FF
100
AcDbEntity
  8
Make2D$可见线$普通线
100
AcDbVertex
100
AcDb2dVertex
 10
71.18013923141325
 20
1510.431175962132
 30
0.0
  0
VERTEX
  5
20B
330
1FF
100
AcDbEntity
  8
Make2D$可见线$普通线
100
AcDbVertex
100
AcDb2dVertex
 10
71.16684741026357
 20
1510.910492590758
 30
0.0
  0
VERTEX
  5
20C
330
1FF
100
AcDbEntity
  8
Make2D$可见线$普通线
100
AcDbVertex
100
AcDb2dVertex
 10
71.13381938351709
 20
1511.175089713113
 30
0.0
 42
0.0448146809351657
  0
VERTEX
  5
20D
330
1FF
100
AcDbEntity
  8
Make2D$可见线$普通线
100
AcDbVertex
100
AcDb2dVertex
 10
70.90722418082969
 20
1512.220047300566
 30
0.0
  0
VERTEX
  5
20E
330
1FF
100
AcDbEntity
  8
Make2D$可见线$普通线
100
AcDbVertex
100
AcDb2dVertex
 10
70.85391928752271
 20
1512.382312560835
 30
0.0
 42
0.0332896799456698
  0
VERTEX
  5
20F
330
1FF
100
AcDbEntity
  8
Make2D$可见线$普通线
100
AcDbVertex
100
AcDb2dVertex
 10
70.54618193605245
 20
1513.115606263999
 30
0.0
 42
0.0520065166555107
  0
VERTEX
  5
210
330
1FF
100
AcDbEntity
  8
Make2D$可见线$普通线
100
AcDbVertex
100
AcDb2dVertex
 10
69.87497358804227
 20
1514.167245807912
 30
0.0
 42
0.0338084893308987
  0
VERTEX
  5
211
330
1FF
100
AcDbEntity
  8
Make2D$可见线$普通线
100
AcDbVertex
100
AcDb2dVertex
 10
69.33086002752395
 20
1514.763958646011
 30
0.0
  0
VERTEX
  5
212
330
1FF
100
AcDbEntity
  8
Make2D$可见线$普通线
100
AcDbVertex
100
AcDb2dVertex
 10
69.18047391881296
 20
1514.90293484064
 30
0.0
 42
0.0793644541754047
  0
VERTEX
  5
213
330
1FF
100
AcDbEntity
  8
Make2D$可见线$普通线
100
AcDbVertex
100
AcDb2dVertex
 10
67.58919261378792
 20
1515.926303928641
 30
0.0
 42
0.0375848723725323
  0
VERTEX
  5
214
330
1FF
100
AcDbEntity
  8
Make2D$可见线$普通线
100
AcDbVertex
100
AcDb2dVertex
 10
66.73899060383809
 20
1516.225151909573
 30
0.0
 42
0.0379754164181365
  0
VERTEX
  5
215
330
1FF
100
AcDbEntity
  8
Make2D$可见线$普通线
100
AcDbVertex
100
AcDb2dVertex
 10
65.84528291072502
 20
1516.394175891152
 30
0.0
  0
SEQEND
  5
216
330
1FF
100
AcDbEntity
  8
Make2D$可见线$普通线
  0
POLYLINE
  5
217
330
1F
100
AcDbEntity
  8
Make2D$可见线$普通线
100
AcDb2dPolyline
 66
     1
 10
0.0
 20
0.0
 30
0.0
  0
VERTEX
  5
218
330
217
100
AcDbEntity
  8
Make2D$可见线$普通线
100
AcDbVertex
100
AcDb2dVertex
 10
85.00564754992183
 20
1499.577718355192
 30
0.0
  0
VERTEX
  5
219
330
217
100
AcDbEntity
  8
Make2D$可见线$普通线
100
AcDbVertex
100
AcDb2dVertex
 10
85.54330557095409
 20
1499.677900418448
 30
0.0
  0
VERTEX
  5
21A
330
217
100
AcDbEntity
  8
Make2D$可见线$普通线
100
AcDbVertex
100
AcDb2dVertex
 10
86.11207605179739
 20
1499.77257153222
 30
0.0
  0
VERTEX
  5
21B
330
217
100
AcDbEntity
  8
Make2D$可见线$普通线
100
AcDbVertex
100
AcDb2dVertex
 10
87.3346577369679
 20
1499.94485524913
 30
0.0
  0
VERTEX
  5
21C
330
217
100
AcDbEntity
  8
Make2D$可见线$普通线
100
AcDbVertex
100
AcDb2dVertex
 10
88.65679929353513
 20
1500.093518181558
 30
0.0
  0
VERTEX
  5
21D
330
217
100
AcDbEntity
  8
Make2D$可见线$普通线
100
AcDbVertex
100
AcDb2dVertex
 10
90.06190740960082
 20
1500.217509005142
 30
0.0
  0
VERTEX
  5
21E
330
217
100
AcDbEntity
  8
Make2D$可见线$普通线
100
AcDbVertex
100
AcDb2dVertex
 10
91.53338877326668
 20
1500.315776395521
 30
0.0
  0
VERTEX
  5
21F
330
217
100
AcDbEntity
  8
Make2D$可见线$普通线
100
AcDbVertex
100
AcDb2dVertex
 10
93.05465007263447
 20
1500.387269028332
 30
0.0
  0
VERTEX
  5
220
330
217
100
AcDbEntity
  8
Make2D$可见线$普通线
100
AcDbVertex
100
AcDb2dVertex
 10
94.60909799580595
 20
1500.430935579214
 30
0.0
  0
VERTEX
  5
221
330
217
100
AcDbEntity
  8
Make2D$可见线$普通线
100
AcDbVertex
100
AcDb2dVertex
 10
96.18013923088283
 20
1500.445724723803
 30
0.0
  0
VERTEX
  5
222
330
217
100
AcDbEntity
  8
Make2D$可见线$普通线
100
AcDbVertex
100
AcDb2dVertex
 10
97.75118046596572
 20
1500.430935579192
 30
0.0
  0
VERTEX
  5
223
330
217
100
AcDbEntity
  8
Make2D$可见线$普通线
100
AcDbVertex
100
AcDb2dVertex
 10
99.305628389153
 20
1500.38726902829
 30
0.0
  0
VERTEX
  5
224
330
217
100
AcDbEntity
  8
Make2D$可见线$普通线
100
AcDbVertex
100
AcDb2dVertex
 10
100.8268896885419
 20
1500.315776395458
 30
0.0
  0
VERTEX
  5
225
330
217
100
AcDbEntity
  8
Make2D$可见线$普通线
100
AcDbVertex
100
AcDb2dVertex
 10
102.2983710522296
 20
1500.217509005059
 30
0.0
  0
VERTEX
  5
226
330
217
100
AcDbEntity
  8
Make2D$可见线$普通线
100
AcDbVertex
100
AcDb2dVertex
 10
103.7034791683133
 20
1500.093518181456
 30
0.0
  0
VERTEX
  5
227
330
217
100
AcDbEntity
  8
Make2D$可见线$普通线
100
AcDbVertex
100
AcDb2dVertex
 10
105.0256207248902
 20
1499.94485524901
 30
0.0
  0
VERTEX
  5
228
330
217
100
AcDbEntity
  8
Make2D$可见线$普通线
100
AcDbVertex
100
AcDb2dVertex
 10
106.2482024100577
 20
1499.772571532084
 30
0.0
  0
VERTEX
  5
229
330
217
100
AcDbEntity
  8
Make2D$可见线$普通线
100
AcDbVertex
100
AcDb2dVertex
 10
106.8169728908933
 20
1499.677900418304
 30
0.0
  0
VERTEX
  5
22A
330
217
100
AcDbEntity
  8
Make2D$可见线$普通线
100
AcDbVertex
100
AcDb2dVertex
 10
107.3546309119129
 20
1499.577718355041
 30
0.0
  0
VERTEX
  5
22B
330
217
100
AcDbEntity
  8
Make2D$可见线$普通线
100
AcDbVertex
100
AcDb2dVertex
 10
107.801084081056
 20
1499.487482529046
 30
0.0
  0
VERTEX
  5
22C
330
217
100
AcDbEntity
  8
Make2D$可见线$普通线
100
AcDbVertex
100
AcDb2dVertex
 10
108.2222369510201
 20
1499.393727292546
 30
0.0
  0
VERTEX
  5
22D
330
217
100
AcDbEntity
  8
Make2D$可见线$普通线
100
AcDbVertex
100
AcDb2dVertex
 10
108.6175864745097
 20
1499.296682084774
 30
0.0
  0
VERTEX
  5
22E
330
217
100
AcDbEntity
  8
Make2D$可见线$普通线
100
AcDbVertex
100
AcDb2dVertex
 10
108.9866296042298
 20
1499.196576344959
 30
0.0
  0
VERTEX
  5
22F
330
217
100
AcDbEntity
  8
Make2D$可见线$普通线
100
AcDbVertex
100
AcDb2dVertex
 10
109.3288632928853
 20
1499.093639512332
 30
0.0
  0
VERTEX
  5
230
330
217
100
AcDbEntity
  8
Make2D$可见线$普通线
100
AcDbVertex
100
AcDb2dVertex
 10
109.643784493181
 20
1498.988101026124
 30
0.0
  0
VERTEX
  5
231
330
217
100
AcDbEntity
  8
Make2D$可见线$普通线
100
AcDbVertex
100
AcDb2dVertex
 10
109.7908457079142
 20
1498.934427862687
 30
0.0
  0
VERTEX
  5
232
330
217
100
AcDbEntity
  8
Make2D$可见线$普通线
100
AcDbVertex
100
AcDb2dVertex
 10
109.9308901578218
 20
1498.880190325566
 30
0.0
  0
VERTEX
  5
233
330
217
100
AcDbEntity
  8
Make2D$可见线$普通线
100
AcDbVertex
100
AcDb2dVertex
 10
110.0638549619918
 20
1498.825417094665
 30
0.0
  0
VERTEX
  5
234
330
217
100
AcDbEntity
  8
Make2D$可见线$普通线
100
AcDbVertex
100
AcDb2dVertex
 10
110.1896772395123
 20
1498.770136849888
 30
0.0
  0
VERTEX
  5
235
330
217
100
AcDbEntity
  8
Make2D$可见线$普通线
100
AcDbVertex
100
AcDb2dVertex
 10
110.3082941094716
 20
1498.714378271139
 30
0.0
  0
VERTEX
  5
236
330
217
100
AcDbEntity
  8
Make2D$可见线$普通线
100
AcDbVertex
100
AcDb2dVertex
 10
110.4196426909576
 20
1498.658170038322
 30
0.0
  0
VERTEX
  5
237
330
217
100
AcDbEntity
  8
Make2D$可见线$普通线
100
AcDbVertex
100
AcDb2dVertex
 10
110.5236601030585
 20
1498.60154083134
 30
0.0
  0
VERTEX
  5
238
330
217
100
AcDbEntity
  8
Make2D$可见线$普通线
100
AcDbVertex
100
AcDb2dVertex
 10
110.5728999703046
 20
1498.573077325007
 30
0.0
  0
VERTEX
  5
239
330
217
100
AcDbEntity
  8
Make2D$可见线$普通线
100
AcDbVertex
100
AcDb2dVertex
 10
110.6202834648625
 20
1498.544519330098
 30
0.0
  0
VERTEX
  5
23A
330
217
100
AcDbEntity
  8
Make2D$可见线$普通线
100
AcDbVertex
100
AcDb2dVertex
 10
110.6658027266181
 20
1498.515870431599
 30
0.0
  0
VERTEX
  5
23B
330
217
100
AcDbEntity
  8
Make2D$可见线$普通线
100
AcDbVertex
100
AcDb2dVertex
 10
110.7094498954575
 20
1498.487134214498
 30
0.0
  0
VERTEX
  5
23C
330
217
100
AcDbEntity
  8
Make2D$可见线$普通线
100
AcDbVertex
100
AcDb2dVertex
 10
110.7512171112667
 20
1498.458314263785
 30
0.0
  0
VERTEX
  5
23D
330
217
100
AcDbEntity
  8
Make2D$可见线$普通线
100
AcDbVertex
100
AcDb2dVertex
 10
110.7910965139317
 20
1498.429414164446
 30
0.0
  0
VERTEX
  5
23E
330
217
100
AcDbEntity
  8
Make2D$可见线$普通线
100
AcDbVertex
100
AcDb2dVertex
 10
110.8290802433385
 20
1498.40043750147
 30
0.0
  0
VERTEX
  5
23F
330
217
100
AcDbEntity
  8
Make2D$可见线$普通线
100
AcDbVertex
100
AcDb2dVertex
 10
110.8651604393732
 20
1498.371387859845
 30
0.0
  0
VERTEX
  5
240
330
217
100
AcDbEntity
  8
Make2D$可见线$普通线
100
AcDbVertex
100
AcDb2dVertex
 10
110.8993292419218
 20
1498.342268824558
 30
0.0
  0
VERTEX
  5
241
330
217
100
AcDbEntity
  8
Make2D$可见线$普通线
100
AcDbVertex
100
AcDb2dVertex
 10
110.9315787908702
 20
1498.313083980598
 30
0.0
  0
VERTEX
  5
242
330
217
100
AcDbEntity
  8
Make2D$可见线$普通线
100
AcDbVertex
100
AcDb2dVertex
 10
110.9619012261044
 20
1498.283836912953
 30
0.0
  0
VERTEX
  5
243
330
217
100
AcDbEntity
  8
Make2D$可见线$普通线
100
AcDbVertex
100
AcDb2dVertex
 10
110.9763373197932
 20
1498.269191165557
 30
0.0
  0
VERTEX
  5
244
330
217
100
AcDbEntity
  8
Make2D$可见线$普通线
100
AcDbVertex
100
AcDb2dVertex
 10
110.9902886875106
 20
1498.25453120661
 30
0.0
  0
VERTEX
  5
245
330
217
100
AcDbEntity
  8
Make2D$可见线$普通线
100
AcDbVertex
100
AcDb2dVertex
 10
111.0037543467426
 20
1498.239857484236
 30
0.0
  0
VERTEX
  5
246
330
217
100
AcDbEntity
  8
Make2D$可见线$普通线
100
AcDbVertex
100
AcDb2dVertex
 10
111.0167333149747
 20
1498.225170446558
 30
0.0
  0
VERTEX
  5
247
330
217
100
AcDbEntity
  8
Make2D$可见线$普通线
100
AcDbVertex
100
AcDb2dVertex
 10
111.0292246096928
 20
1498.2104705417
 30
0.0
  0
VERTEX
  5
248
330
217
100
AcDbEntity
  8
Make2D$可见线$普通线
100
AcDbVertex
100
AcDb2dVertex
 10
111.0412272483827
 20
1498.195758217784
 30
0.0
  0
VERTEX
  5
249
330
217
100
AcDbEntity
  8
Make2D$可见线$普通线
100
AcDbVertex
100
AcDb2dVertex
 10
111.0527402485301
 20
1498.181033922936
 30
0.0
  0
VERTEX
  5
24A
330
217
100
AcDbEntity
  8
Make2D$可见线$普通线
100
AcDbVertex
100
AcDb2dVertex
 10
111.0637626276206
 20
1498.166298105278
 30
0.0
  0
VERTEX
  5
24B
330
217
100
AcDbEntity
  8
Make2D$可见线$普通线
100
AcDbVertex
100
AcDb2dVertex
 10
111.0742934031402
 20
1498.151551212933
 30
0.0
  0
VERTEX
  5
24C
330
217
100
AcDbEntity
  8
Make2D$可见线$普通线
100
AcDbVertex
100
AcDb2dVertex
 10
111.0843315925745
 20
1498.136793694025
 30
0.0
  0
VERTEX
  5
24D
330
217
100
AcDbEntity
  8
Make2D$可见线$普通线
100
AcDbVertex
100
AcDb2dVertex
 10
111.0938762134093
 20
1498.122025996678
 30
0.0
  0
VERTEX
  5
24E
330
217
100
AcDbEntity
  8
Make2D$可见线$普通线
100
AcDbVertex
100
AcDb2dVertex
 10
111.1029262831304
 20
1498.107248569015
 30
0.0
  0
VERTEX
  5
24F
330
217
100
AcDbEntity
  8
Make2D$可见线$普通线
100
AcDbVertex
100
AcDb2dVertex
 10
111.1114808192234
 20
1498.09246185916
 30
0.0
  0
VERTEX
  5
250
330
217
100
AcDbEntity
  8
Make2D$可见线$普通线
100
AcDbVertex
100
AcDb2dVertex
 10
111.1195388391742
 20
1498.077666315236
 30
0.0
  0
VERTEX
  5
251
330
217
100
AcDbEntity
  8
Make2D$可见线$普通线
100
AcDbVertex
100
AcDb2dVertex
 10
111.1270993604685
 20
1498.062862385367
 30
0.0
  0
VERTEX
  5
252
330
217
100
AcDbEntity
  8
Make2D$可见线$普通线
100
AcDbVertex
100
AcDb2dVertex
 10
111.134161400592
 20
1498.048050517675
 30
0.0
  0
VERTEX
  5
253
330
217
100
AcDbEntity
  8
Make2D$可见线$普通线
100
AcDbVertex
100
AcDb2dVertex
 10
111.1407239770305
 20
1498.033231160285
 30
0.0
  0
VERTEX
  5
254
330
217
100
AcDbEntity
  8
Make2D$可见线$普通线
100
AcDbVertex
100
AcDb2dVertex
 10
111.1467861072698
 20
1498.018404761321
 30
0.0
  0
VERTEX
  5
255
330
217
100
AcDbEntity
  8
Make2D$可见线$普通线
100
AcDbVertex
100
AcDb2dVertex
 10
111.1523468087956
 20
1498.003571768905
 30
0.0
  0
VERTEX
  5
256
330
217
100
AcDbEntity
  8
Make2D$可见线$普通线
100
AcDbVertex
100
AcDb2dVertex
 10
111.1574050990936
 20
1497.98873263116
 30
0.0
  0
VERTEX
  5
257
330
217
100
AcDbEntity
  8
Make2D$可见线$普通线
100
AcDbVertex
100
AcDb2dVertex
 10
111.1619599956496
 20
1497.973887796212
 30
0.0
  0
VERTEX
  5
258
330
217
100
AcDbEntity
  8
Make2D$可见线$普通线
100
AcDbVertex
100
AcDb2dVertex
 10
111.1660105159494
 20
1497.959037712183
 30
0.0
  0
VERTEX
  5
259
330
217
100
AcDbEntity
  8
Make2D$可见线$普通线
100
AcDbVertex
100
AcDb2dVertex
 10
111.1695556774787
 20
1497.944182827197
 30
0.0
  0
VERTEX
  5
25A
330
217
100
AcDbEntity
  8
Make2D$可见线$普通线
100
AcDbVertex
100
AcDb2dVertex
 10
111.1725944977233
 20
1497.929323589376
 30
0.0
  0
VERTEX
  5
25B
330
217
100
AcDbEntity
  8
Make2D$可见线$普通线
100
AcDbVertex
100
AcDb2dVertex
 10
111.1751259941689
 20
1497.914460446845
 30
0.0
  0
VERTEX
  5
25C
330
217
100
AcDbEntity
  8
Make2D$可见线$普通线
100
AcDbVertex
100
AcDb2dVertex
 10
111.1771491843012
 20
1497.899593847727
 30
0.0
  0
VERTEX
  5
25D
330
217
100
AcDbEntity
  8
Make2D$可见线$普通线
100
AcDbVertex
100
AcDb2dVertex
 10
111.1786630856061
 20
1497.884724240146
 30
0.0
  0
VERTEX
  5
25E
330
217
100
AcDbEntity
  8
Make2D$可见线$普通线
100
AcDbVertex
100
AcDb2dVertex
 10
111.1796667155692
 20
1497.869852072225
 30
0.0
  0
VERTEX
  5
25F
330
217
100
AcDbEntity
  8
Make2D$可见线$普通线
100
AcDbVertex
100
AcDb2dVertex
 10
111.1801590916763
 20
1497.854977792087
 30
0.0
  0
VERTEX
  5
260
330
217
100
AcDbEntity
  8
Make2D$可见线$普通线
100
AcDbVertex
100
AcDb2dVertex
 10
111.1801392314132
 20
1497.840101847857
 30
0.0
  0
VERTEX
  5
261
330
217
100
AcDbEntity
  8
Make2D$可见线$普通线
100
AcDbVertex
100
AcDb2dVertex
 10
111.1801922228508
 20
1497.832726627
 30
0.0
  0
VERTEX
  5
262
330
217
100
AcDbEntity
  8
Make2D$可见线$普通线
100
AcDbVertex
100
AcDb2dVertex
 10
111.1801083537347
 20
1497.825361733197
 30
0.0
  0
VERTEX
  5
263
330
217
100
AcDbEntity
  8
Make2D$可见线$普通线
100
AcDbVertex
100
AcDb2dVertex
 10
111.179889637401
 20
1497.818008195863
 30
0.0
  0
VERTEX
  5
264
330
217
100
AcDbEntity
  8
Make2D$可见线$普通线
100
AcDbVertex
100
AcDb2dVertex
 10
111.1795380871863
 20
1497.810667044411
 30
0.0
  0
VERTEX
  5
265
330
217
100
AcDbEntity
  8
Make2D$可见线$普通线
100
AcDbVertex
100
AcDb2dVertex
 10
111.1790557164267
 20
1497.803339308254
 30
0.0
  0
VERTEX
  5
266
330
217
100
AcDbEntity
  8
Make2D$可见线$普通线
100
AcDbVertex
100
AcDb2dVertex
 10
111.1784445384584
 20
1497.796026016807
 30
0.0
  0
VERTEX
  5
267
330
217
100
AcDbEntity
  8
Make2D$可见线$普通线
100
AcDbVertex
100
AcDb2dVertex
 10
111.1768438142414
 20
1497.781446885696
 30
0.0
  0
VERTEX
  5
268
330
217
100
AcDbEntity
  8
Make2D$可见线$普通线
100
AcDbVertex
100
AcDb2dVertex
 10
111.1747520212254
 20
1497.766937886389
 30
0.0
  0
VERTEX
  5
269
330
217
100
AcDbEntity
  8
Make2D$可见线$普通线
100
AcDbVertex
100
AcDb2dVertex
 10
111.1721852661008
 20
1497.752507254197
 30
0.0
  0
VERTEX
  5
26A
330
217
100
AcDbEntity
  8
Make2D$可见线$普通线
100
AcDbVertex
100
AcDb2dVertex
 10
111.169159655558
 20
1497.738163224431
 30
0.0
  0
VERTEX
  5
26B
330
217
100
AcDbEntity
  8
Make2D$可见线$普通线
100
AcDbVertex
100
AcDb2dVertex
 10
111.1656912962872
 20
1497.7239140324
 30
0.0
  0
VERTEX
  5
26C
330
217
100
AcDbEntity
  8
Make2D$可见线$普通线
100
AcDbVertex
100
AcDb2dVertex
 10
111.1617962949786
 20
1497.709767913415
 30
0.0
  0
VERTEX
  5
26D
330
217
100
AcDbEntity
  8
Make2D$可见线$普通线
100
AcDbVertex
100
AcDb2dVertex
 10
111.1574907583227
 20
1497.695733102788
 30
0.0
  0
VERTEX
  5
26E
330
217
100
AcDbEntity
  8
Make2D$可见线$普通线
100
AcDbVertex
100
AcDb2dVertex
 10
111.1527907930097
 20
1497.681817835828
 30
0.0
  0
VERTEX
  5
26F
330
217
100
AcDbEntity
  8
Make2D$可见线$普通线
100
AcDbVertex
100
AcDb2dVertex
 10
111.1477125057299
 20
1497.668030347847
 30
0.0
  0
VERTEX
  5
270
330
217
100
AcDbEntity
  8
Make2D$可见线$普通线
100
AcDbVertex
100
AcDb2dVertex
 10
111.1422720031736
 20
1497.654378874154
 30
0.0
  0
VERTEX
  5
271
330
217
100
AcDbEntity
  8
Make2D$可见线$普通线
100
AcDbVertex
100
AcDb2dVertex
 10
111.1364853920311
 20
1497.640871650061
 30
0.0
  0
VERTEX
  5
272
330
217
100
AcDbEntity
  8
Make2D$可见线$普通线
100
AcDbVertex
100
AcDb2dVertex
 10
111.1303687789927
 20
1497.627516910878
 30
0.0
  0
VERTEX
  5
273
330
217
100
AcDbEntity
  8
Make2D$可见线$普通线
100
AcDbVertex
100
AcDb2dVertex
 10
111.1239382707487
 20
1497.614322891915
 30
0.0
  0
VERTEX
  5
274
330
217
100
AcDbEntity
  8
Make2D$可见线$普通线
100
AcDbVertex
100
AcDb2dVertex
 10
111.1157989097659
 20
1497.598656166611
 30
0.0
  0
VERTEX
  5
275
330
217
100
AcDbEntity
  8
Make2D$可见线$普通线
100
AcDbVertex
100
AcDb2dVertex
 10
111.1072450476528
 20
1497.583230199996
 30
0.0
  0
VERTEX
  5
276
330
217
100
AcDbEntity
  8
Make2D$可见线$普通线
100
AcDbVertex
100
AcDb2dVertex
 10
111.0982940254221
 20
1497.568040737556
 30
0.0
  0
VERTEX
  5
277
330
217
100
AcDbEntity
  8
Make2D$可见线$普通线
100
AcDbVertex
100
AcDb2dVertex
 10
111.0889631840863
 20
1497.553083524775
 30
0.0
  0
VERTEX
  5
278
330
217
100
AcDbEntity
  8
Make2D$可见线$普通线
100
AcDbVertex
100
AcDb2dVertex
 10
111.0792698646581
 20
1497.538354307137
 30
0.0
  0
VERTEX
  5
279
330
217
100
AcDbEntity
  8
Make2D$可见线$普通线
100
AcDbVertex
100
AcDb2dVertex
 10
111.0692314081501
 20
1497.523848830128
 30
0.0
  0
VERTEX
  5
27A
330
217
100
AcDbEntity
  8
Make2D$可见线$普通线
100
AcDbVertex
100
AcDb2dVertex
 10
111.0588651555747
 20
1497.509562839232
 30
0.0
  0
VERTEX
  5
27B
330
217
100
AcDbEntity
  8
Make2D$可见线$普通线
100
AcDbVertex
100
AcDb2dVertex
 10
111.0481884479446
 20
1497.495492079933
 30
0.0
  0
VERTEX
  5
27C
330
217
100
AcDbEntity
  8
Make2D$可见线$普通线
100
AcDbVertex
100
AcDb2dVertex
 10
111.0372186262723
 20
1497.481632297717
 30
0.0
  0
VERTEX
  5
27D
330
217
100
AcDbEntity
  8
Make2D$可见线$普通线
100
AcDbVertex
100
AcDb2dVertex
 10
111.0259730315705
 20
1497.467979238067
 30
0.0
  0
VERTEX
  5
27E
330
217
100
AcDbEntity
  8
Make2D$可见线$普通线
100
AcDbVertex
100
AcDb2dVertex
 10
111.0144690048517
 20
1497.454528646468
 30
0.0
  0
VERTEX
  5
27F
330
217
100
AcDbEntity
  8
Make2D$可见线$普通线
100
AcDbVertex
100
AcDb2dVertex
 10
111.0027238871285
 20
1497.441276268406
 30
0.0
  0
VERTEX
  5
280
330
217
100
AcDbEntity
  8
Make2D$可见线$普通线
100
AcDbVertex
100
AcDb2dVertex
 10
110.9785797427192
 20
1497.415349134826
 30
0.0
  0
VERTEX
  5
281
330
217
100
AcDbEntity
  8
Make2D$可见线$普通线
100
AcDbVertex
100
AcDb2dVertex
 10
110.9536793264432
 20
1497.390163801204
 30
0.0
  0
VERTEX
  5
282
330
217
100
AcDbEntity
  8
Make2D$可见线$普通线
100
AcDbVertex
100
AcDb2dVertex
 10
110.9212082421256
 20
1497.359249894874
 30
0.0
  0
VERTEX
  5
283
330
217
100
AcDbEntity
  8
Make2D$可见线$普通线
100
AcDbVertex
100
AcDb2dVertex
 10
110.8878200009493
 20
1497.329409893247
 30
0.0
  0
VERTEX
  5
284
330
217
100
AcDbEntity
  8
Make2D$可见线$普通线
100
AcDbVertex
100
AcDb2dVertex
 10
110.8535899032285
 20
1497.300580250798
 30
0.0
  0
VERTEX
  5
285
330
217
100
AcDbEntity
  8
Make2D$可见线$普通线
100
AcDbVertex
100
AcDb2dVertex
 10
110.8185932492775
 20
1497.272697422006
 30
0.0
  0
VERTEX
  5
286
330
217
100
AcDbEntity
  8
Make2D$可见线$普通线
100
AcDbVertex
100
AcDb2dVertex
 10
110.7829053394105
 20
1497.245697861349
 30
0.0
  0
VERTEX
  5
287
330
217
100
AcDbEntity
  8
Make2D$可见线$普通线
100
AcDbVertex
100
AcDb2dVertex
 10
110.7466014739418
 20
1497.219518023305
 30
0.0
  0
VERTEX
  5
288
330
217
100
AcDbEntity
  8
Make2D$可见线$普通线
100
AcDbVertex
100
AcDb2dVertex
 10
110.7097569531856
 20
1497.194094362352
 30
0.0
  0
VERTEX
  5
289
330
217
100
AcDbEntity
  8
Make2D$可见线$普通线
100
AcDbVertex
100
AcDb2dVertex
 10
110.6724470774561
 20
1497.169363332968
 30
0.0
  0
VERTEX
  5
28A
330
217
100
AcDbEntity
  8
Make2D$可见线$普通线
100
AcDbVertex
100
AcDb2dVertex
 10
110.6075308288949
 20
1497.128401260461
 30
0.0
  0
VERTEX
  5
28B
330
217
100
AcDbEntity
  8
Make2D$可见线$普通线
100
AcDbVertex
100
AcDb2dVertex
 10
110.5415678500539
 20
1497.089166298176
 30
0.0
  0
VERTEX
  5
28C
330
217
100
AcDbEntity
  8
Make2D$可见线$普通线
100
AcDbVertex
100
AcDb2dVertex
 10
110.4746592465381
 20
1497.051534309283
 30
0.0
  0
VERTEX
  5
28D
330
217
100
AcDbEntity
  8
Make2D$可见线$普通线
100
AcDbVertex
100
AcDb2dVertex
 10
110.4069061239527
 20
1497.015381156952
 30
0.0
  0
VERTEX
  5
28E
330
217
100
AcDbEntity
  8
Make2D$可见线$普通线
100
AcDbVertex
100
AcDb2dVertex
 10
110.3384095879028
 20
1496.980582704349
 30
0.0
  0
VERTEX
  5
28F
330
217
100
AcDbEntity
  8
Make2D$可见线$普通线
100
AcDbVertex
100
AcDb2dVertex
 10
110.2692707439936
 20
1496.947014814643
 30
0.0
  0
VERTEX
  5
290
330
217
100
AcDbEntity
  8
Make2D$可见线$普通线
100
AcDbVertex
100
AcDb2dVertex
 10
110.1294705550174
 20
1496.883074176599
 30
0.0
  0
VERTEX
  5
291
330
217
100
AcDbEntity
  8
Make2D$可见线$普通线
100
AcDbVertex
100
AcDb2dVertex
 10
109.9603227668147
 20
1496.811230582015
 30
0.0
  0
VERTEX
  5
292
330
217
100
AcDbEntity
  8
Make2D$可见线$普通线
100
AcDbVertex
100
AcDb2dVertex
 10
109.7894198538283
 20
1496.743928835691
 30
0.0
  0
VERTEX
  5
293
330
217
100
AcDbEntity
  8
Make2D$可见线$普通线
100
AcDbVertex
100
AcDb2dVertex
 10
109.6169470994417
 20
1496.680798662214
 30
0.0
  0
VERTEX
  5
294
330
217
100
AcDbEntity
  8
Make2D$可见线$普通线
100
AcDbVertex
100
AcDb2dVertex
 10
109.4430897870386
 20
1496.621469786174
 30
0.0
  0
VERTEX
  5
295
330
217
100
AcDbEntity
  8
Make2D$可见线$普通线
100
AcDbVertex
100
AcDb2dVertex
 10
109.2680332000024
 20
1496.565571932158
 30
0.0
  0
VERTEX
  5
296
330
217
100
AcDbEntity
  8
Make2D$可见线$普通线
100
AcDbVertex
100
AcDb2dVertex
 10
109.0919626217168
 20
1496.512734824755
 30
0.0
  0
VERTEX
  5
297
330
217
100
AcDbEntity
  8
Make2D$可见线$普通线
100
AcDbVertex
100
AcDb2dVertex
 10
108.7375206249309
 20
1496.41476174814
 30
0.0
  0
VERTEX
  5
298
330
217
100
AcDbEntity
  8
Make2D$可见线$普通线
100
AcDbVertex
100
AcDb2dVertex
 10
108.3099395385733
 20
1496.307940362586
 30
0.0
  0
VERTEX
  5
299
330
217
100
AcDbEntity
  8
Make2D$可见线$普通线
100
AcDbVertex
100
AcDb2dVertex
 10
107.8801480056002
 20
1496.210922947771
 30
0.0
  0
VERTEX
  5
29A
330
217
100
AcDbEntity
  8
Make2D$可见线$普通线
100
AcDbVertex
100
AcDb2dVertex
 10
107.015628013555
 20
1496.040672192604
 30
0.0
  0
VERTEX
  5
29B
330
217
100
AcDbEntity
  8
Make2D$可见线$普通线
100
AcDbVertex
100
AcDb2dVertex
 10
106.4090595964445
 20
1495.936172337672
 30
0.0
  0
VERTEX
  5
29C
330
217
100
AcDbEntity
  8
Make2D$可见线$普通线
100
AcDbVertex
100
AcDb2dVertex
 10
105.8008519038244
 20
1495.841853735877
 30
0.0
  0
VERTEX
  5
29D
330
217
100
AcDbEntity
  8
Make2D$可见线$普通线
100
AcDbVertex
100
AcDb2dVertex
 10
104.5802994491333
 20
1495.680885514183
 30
0.0
  0
VERTEX
  5
29E
330
217
100
AcDbEntity
  8
Make2D$可见线$普通线
100
AcDbVertex
100
AcDb2dVertex
 10
103.3555321636377
 20
1495.552017972501
 30
0.0
  0
VERTEX
  5
29F
330
217
100
AcDbEntity
  8
Make2D$可见线$普通线
100
AcDbVertex
100
AcDb2dVertex
 10
102.1281115614934
 20
1495.449501555811
 30
0.0
  0
VERTEX
  5
2A0
330
217
100
AcDbEntity
  8
Make2D$可见线$普通线
100
AcDbVertex
100
AcDb2dVertex
 10
100.7962193529289
 20
1495.362530430037
 30
0.0
  0
VERTEX
  5
2A1
330
217
100
AcDbEntity
  8
Make2D$可见线$普通线
100
AcDbVertex
100
AcDb2dVertex
 10
99.46328035437452
 20
1495.298814348499
 30
0.0
  0
VERTEX
  5
2A2
330
217
100
AcDbEntity
  8
Make2D$可见线$普通线
100
AcDbVertex
100
AcDb2dVertex
 10
98.12953049748839
 20
1495.257404270942
 30
0.0
  0
VERTEX
  5
2A3
330
217
100
AcDbEntity
  8
Make2D$可见线$普通线
100
AcDbVertex
100
AcDb2dVertex
 10
96.79520571392871
 20
1495.237351157111
 30
0.0
  0
VERTEX
  5
2A4
330
217
100
AcDbEntity
  8
Make2D$可见线$普通线
100
AcDbVertex
100
AcDb2dVertex
 10
95.41306233638718
 20
1495.238368090084
 30
0.0
  0
VERTEX
  5
2A5
330
217
100
AcDbEntity
  8
Make2D$可见线$普通线
100
AcDbVertex
100
AcDb2dVertex
 10
94.03101490693516
 20
1495.261928917903
 30
0.0
  0
VERTEX
  5
2A6
330
217
100
AcDbEntity
  8
Make2D$可见线$普通线
100
AcDbVertex
100
AcDb2dVertex
 10
92.64952293221712
 20
1495.30869085616
 30
0.0
  0
VERTEX
  5
2A7
330
217
100
AcDbEntity
  8
Make2D$可见线$普通线
100
AcDbVertex
100
AcDb2dVertex
 10
91.26904591887765
 20
1495.37931112045
 30
0.0
  0
VERTEX
  5
2A8
330
217
100
AcDbEntity
  8
Make2D$可见线$普通线
100
AcDbVertex
100
AcDb2dVertex
 10
90.00492723532386
 20
1495.466179688109
 30
0.0
  0
VERTEX
  5
2A9
330
217
100
AcDbEntity
  8
Make2D$可见线$普通线
100
AcDbVertex
100
AcDb2dVertex
 10
88.74295841799628
 20
1495.577808382945
 30
0.0
  0
VERTEX
  5
2AA
330
217
100
AcDbEntity
  8
Make2D$可见线$普通线
100
AcDbVertex
100
AcDb2dVertex
 10
87.4840502560846
 20
1495.71835556649
 30
0.0
  0
VERTEX
  5
2AB
330
217
100
AcDbEntity
  8
Make2D$可见线$普通线
100
AcDbVertex
100
AcDb2dVertex
 10
86.22911353877853
 20
1495.891979600274
 30
0.0
  0
VERTEX
  5
2AC
330
217
100
AcDbEntity
  8
Make2D$可见线$普通线
100
AcDbVertex
100
AcDb2dVertex
 10
85.2994917385922
 20
1496.046450365721
 30
0.0
  0
VERTEX
  5
2AD
330
217
100
AcDbEntity
  8
Make2D$可见线$普通线
100
AcDbVertex
100
AcDb2dVertex
 10
84.83668026840384
 20
1496.134661398446
 30
0.0
  0
VERTEX
  5
2AE
330
217
100
AcDbEntity
  8
Make2D$可见线$普通线
100
AcDbVertex
100
AcDb2dVertex
 10
84.37572816251145
 20
1496.231925175733
 30
0.0
  0
VERTEX
  5
2AF
330
217
100
AcDbEntity
  8
Make2D$可见线$普通线
100
AcDbVertex
100
AcDb2dVertex
 10
84.00542957035576
 20
1496.317982766358
 30
0.0
  0
VERTEX
  5
2B0
330
217
100
AcDbEntity
  8
Make2D$可见线$普通线
100
AcDbVertex
100
AcDb2dVertex
 10
83.63708979876785
 20
1496.411954970847
 30
0.0
  0
VERTEX
  5
2B1
330
217
100
AcDbEntity
  8
Make2D$可见线$普通线
100
AcDbVertex
100
AcDb2dVertex
 10
83.27119977939586
 20
1496.515013696789
 30
0.0
  0
VERTEX
  5
2B2
330
217
100
AcDbEntity
  8
Make2D$可见线$普通线
100
AcDbVertex
100
AcDb2dVertex
 10
82.90825044388795
 20
1496.628330851774
 30
0.0
  0
VERTEX
  5
2B3
330
217
100
AcDbEntity
  8
Make2D$可见线$普通线
100
AcDbVertex
100
AcDb2dVertex
 10
82.64090944256571
 20
1496.720288978352
 30
0.0
  0
VERTEX
  5
2B4
330
217
100
AcDbEntity
  8
Make2D$可见线$普通线
100
AcDbVertex
100
AcDb2dVertex
 10
82.50846670865948
 20
1496.769516291754
 30
0.0
  0
VERTEX
  5
2B5
330
217
100
AcDbEntity
  8
Make2D$可见线$普通线
100
AcDbVertex
100
AcDb2dVertex
 10
82.37711810798334
 20
1496.821378475207
 30
0.0
  0
VERTEX
  5
2B6
330
217
100
AcDbEntity
  8
Make2D$可见线$普通线
100
AcDbVertex
100
AcDb2dVertex
 10
82.2470703570824
 20
1496.876227556189
 30
0.0
  0
VERTEX
  5
2B7
330
217
100
AcDbEntity
  8
Make2D$可见线$普通线
100
AcDbVertex
100
AcDb2dVertex
 10
82.11853017250176
 20
1496.934415562183
 30
0.0
  0
VERTEX
  5
2B8
330
217
100
AcDbEntity
  8
Make2D$可见线$普通线
100
AcDbVertex
100
AcDb2dVertex
 10
81.99170427078657
 20
1496.996294520668
 30
0.0
  0
VERTEX
  5
2B9
330
217
100
AcDbEntity
  8
Make2D$可见线$普通线
100
AcDbVertex
100
AcDb2dVertex
 10
81.86679936848189
 20
1497.062216459125
 30
0.0
  0
VERTEX
  5
2BA
330
217
100
AcDbEntity
  8
Make2D$可见线$普通线
100
AcDbVertex
100
AcDb2dVertex
 10
81.77615076955794
 20
1497.113697114633
 30
0.0
  0
VERTEX
  5
2BB
330
217
100
AcDbEntity
  8
Make2D$可见线$普通线
100
AcDbVertex
100
AcDb2dVertex
 10
81.73144756679308
 20
1497.140537000638
 30
0.0
  0
VERTEX
  5
2BC
330
217
100
AcDbEntity
  8
Make2D$可见线$普通线
100
AcDbVertex
100
AcDb2dVertex
 10
81.68725838345708
 20
1497.168218590555
 30
0.0
  0
VERTEX
  5
2BD
330
217
100
AcDbEntity
  8
Make2D$可见线$普通线
100
AcDbVertex
100
AcDb2dVertex
 10
81.64365818577302
 20
1497.196823383195
 30
0.0
  0
VERTEX
  5
2BE
330
217
100
AcDbEntity
  8
Make2D$可见线$普通线
100
AcDbVertex
100
AcDb2dVertex
 10
81.60072193996398
 20
1497.226432877367
 30
0.0
  0
VERTEX
  5
2BF
330
217
100
AcDbEntity
  8
Make2D$可见线$普通线
100
AcDbVertex
100
AcDb2dVertex
 10
81.55852461225304
 20
1497.25712857188
 30
0.0
  0
VERTEX
  5
2C0
330
217
100
AcDbEntity
  8
Make2D$可见线$普通线
100
AcDbVertex
100
AcDb2dVertex
 10
81.5171411688633
 20
1497.288991965544
 30
0.0
  0
VERTEX
  5
2C1
330
217
100
AcDbEntity
  8
Make2D$可见线$普通线
100
AcDbVertex
100
AcDb2dVertex
 10
81.4771667272998
 20
1497.321701352106
 30
0.0
  0
VERTEX
  5
2C2
330
217
100
AcDbEntity
  8
Make2D$可见线$普通线
100
AcDbVertex
100
AcDb2dVertex
 10
81.45759392622934
 20
1497.33854806932
 30
0.0
  0
VERTEX
  5
2C3
330
217
100
AcDbEntity
  8
Make2D$可见线$普通线
100
AcDbVertex
100
AcDb2dVertex
 10
81.43834493725542
 20
1497.355741388774
 30
0.0
  0
VERTEX
  5
2C4
330
217
100
AcDbEntity
  8
Make2D$可见线$普通线
100
AcDbVertex
100
AcDb2dVertex
 10
81.41945540959485
 20
1497.373295250183
 30
0.0
  0
VERTEX
  5
2C5
330
217
100
AcDbEntity
  8
Make2D$可见线$普通线
100
AcDbVertex
100
AcDb2dVertex
 10
81.40096099246436
 20
1497.391223593258
 30
0.0
  0
VERTEX
  5
2C6
330
217
100
AcDbEntity
  8
Make2D$可见线$普通线
100
AcDbVertex
100
AcDb2dVertex
 10
81.38289733508074
 20
1497.409540357716
 30
0.0
  0
VERTEX
  5
2C7
330
217
100
AcDbEntity
  8
Make2D$可见线$普通线
100
AcDbVertex
100
AcDb2dVertex
 10
81.36530008666078
 20
1497.428259483268
 30
0.0
  0
VERTEX
  5
2C8
330
217
100
AcDbEntity
  8
Make2D$可见线$普通线
100
AcDbVertex
100
AcDb2dVertex
 10
81.34820489642124
 20
1497.447394909628
 30
0.0
  0
VERTEX
  5
2C9
330
217
100
AcDbEntity
  8
Make2D$可见线$普通线
100
AcDbVertex
100
AcDb2dVertex
 10
81.33164741357888
 20
1497.46696057651
 30
0.0
  0
VERTEX
  5
2CA
330
217
100
AcDbEntity
  8
Make2D$可见线$普通线
100
AcDbVertex
100
AcDb2dVertex
 10
81.3156632873505
 20
1497.486970423628
 30
0.0
  0
VERTEX
  5
2CB
330
217
100
AcDbEntity
  8
Make2D$可见线$普通线
100
AcDbVertex
100
AcDb2dVertex
 10
81.30028816695284
 20
1497.507438390695
 30
0.0
  0
VERTEX
  5
2CC
330
217
100
AcDbEntity
  8
Make2D$可见线$普通线
100
AcDbVertex
100
AcDb2dVertex
 10
81.2855577016027
 20
1497.528378417425
 30
0.0
  0
VERTEX
  5
2CD
330
217
100
AcDbEntity
  8
Make2D$可见线$普通线
100
AcDbVertex
100
AcDb2dVertex
 10
81.27150754051684
 20
1497.549804443531
 30
0.0
  0
VERTEX
  5
2CE
330
217
100
AcDbEntity
  8
Make2D$可见线$普通线
100
AcDbVertex
100
AcDb2dVertex
 10
81.25817333291202
 20
1497.571730408726
 30
0.0
  0
VERTEX
  5
2CF
330
217
100
AcDbEntity
  8
Make2D$可见线$普通线
100
AcDbVertex
100
AcDb2dVertex
 10
81.25178585204524
 20
1497.582885224643
 30
0.0
  0
VERTEX
  5
2D0
330
217
100
AcDbEntity
  8
Make2D$可见线$普通线
100
AcDbVertex
100
AcDb2dVertex
 10
81.24559072800503
 20
1497.594170252725
 30
0.0
  0
VERTEX
  5
2D1
330
217
100
AcDbEntity
  8
Make2D$可见线$普通线
100
AcDbVertex
100
AcDb2dVertex
 10
81.2385825978929
 20
1497.607562439303
 30
0.0
  0
VERTEX
  5
2D2
330
217
100
AcDbEntity
  8
Make2D$可见线$普通线
100
AcDbVertex
100
AcDb2dVertex
 10
81.23186295816976
 20
1497.621125842547
 30
0.0
  0
VERTEX
  5
2D3
330
217
100
AcDbEntity
  8
Make2D$可见线$普通线
100
AcDbVertex
100
AcDb2dVertex
 10
81.2254499521886
 20
1497.634850423074
 30
0.0
  0
VERTEX
  5
2D4
330
217
100
AcDbEntity
  8
Make2D$可见线$普通线
100
AcDbVertex
100
AcDb2dVertex
 10
81.2193617233024
 20
1497.648726141502
 30
0.0
  0
VERTEX
  5
2D5
330
217
100
AcDbEntity
  8
Make2D$可见线$普通线
100
AcDbVertex
100
AcDb2dVertex
 10
81.21361641486416
 20
1497.662742958449
 30
0.0
  0
VERTEX
  5
2D6
330
217
100
AcDbEntity
  8
Make2D$可见线$普通线
100
AcDbVertex
100
AcDb2dVertex
 10
81.20823217022692
 20
1497.67689083453
 30
0.0
  0
VERTEX
  5
2D7
330
217
100
AcDbEntity
  8
Make2D$可见线$普通线
100
AcDbVertex
100
AcDb2dVertex
 10
81.2032271327436
 20
1497.691159730364
 30
0.0
  0
VERTEX
  5
2D8
330
217
100
AcDbEntity
  8
Make2D$可见线$普通线
100
AcDbVertex
100
AcDb2dVertex
 10
81.19861944576726
 20
1497.705539606568
 30
0.0
  0
VERTEX
  5
2D9
330
217
100
AcDbEntity
  8
Make2D$可见线$普通线
100
AcDbVertex
100
AcDb2dVertex
 10
81.19442725265087
 20
1497.720020423758
 30
0.0
  0
VERTEX
  5
2DA
330
217
100
AcDbEntity
  8
Make2D$可见线$普通线
100
AcDbVertex
100
AcDb2dVertex
 10
81.1906686967474
 20
1497.734592142553
 30
0.0
  0
VERTEX
  5
2DB
330
217
100
AcDbEntity
  8
Make2D$可见线$普通线
100
AcDbVertex
100
AcDb2dVertex
 10
81.18736192140989
 20
1497.74924472357
 30
0.0
  0
VERTEX
  5
2DC
330
217
100
AcDbEntity
  8
Make2D$可见线$普通线
100
AcDbVertex
100
AcDb2dVertex
 10
81.1845250699913
 20
1497.763968127425
 30
0.0
  0
VERTEX
  5
2DD
330
217
100
AcDbEntity
  8
Make2D$可见线$普通线
100
AcDbVertex
100
AcDb2dVertex
 10
81.18217628584463
 20
1497.778752314736
 30
0.0
  0
VERTEX
  5
2DE
330
217
100
AcDbEntity
  8
Make2D$可见线$普通线
100
AcDbVertex
100
AcDb2dVertex
 10
81.1803337123229
 20
1497.79358724612
 30
0.0
  0
VERTEX
  5
2DF
330
217
100
AcDbEntity
  8
Make2D$可见线$普通线
100
AcDbVertex
100
AcDb2dVertex
 10
81.1796079243442
 20
1497.801020603532
 30
0.0
  0
VERTEX
  5
2E0
330
217
100
AcDbEntity
  8
Make2D$可见线$普通线
100
AcDbVertex
100
AcDb2dVertex
 10
81.17901549277909
 20
1497.808462882194
 30
0.0
  0
VERTEX
  5
2E1
330
217
100
AcDbEntity
  8
Make2D$可见线$普通线
100
AcDbVertex
100
AcDb2dVertex
 10
81.17855868554669
 20
1497.815912827183
 30
0.0
  0
VERTEX
  5
2E2
330
217
100
AcDbEntity
  8
Make2D$可见线$普通线
100
AcDbVertex
100
AcDb2dVertex
 10
81.17823977056617
 20
1497.823369183577
 30
0.0
  0
VERTEX
  5
2E3
330
217
100
AcDbEntity
  8
Make2D$可见线$普通线
100
AcDbVertex
100
AcDb2dVertex
 10
81.17804102368919
 20
1497.832329199511
 30
0.0
  0
VERTEX
  5
2E4
330
217
100
AcDbEntity
  8
Make2D$可见线$普通线
100
AcDbVertex
100
AcDb2dVertex
 10
81.17804109955057
 20
1497.841294178561
 30
0.0
  0
VERTEX
  5
2E5
330
217
100
AcDbEntity
  8
Make2D$可见线$普通线
100
AcDbVertex
100
AcDb2dVertex
 10
81.17823673139718
 20
1497.85026164899
 30
0.0
  0
VERTEX
  5
2E6
330
217
100
AcDbEntity
  8
Make2D$可见线$普通线
100
AcDbVertex
100
AcDb2dVertex
 10
81.17862465247583
 20
1497.859229139058
 30
0.0
  0
VERTEX
  5
2E7
330
217
100
AcDbEntity
  8
Make2D$可见线$普通线
100
AcDbVertex
100
AcDb2dVertex
 10
81.1792015960334
 20
1497.868194177026
 30
0.0
  0
VERTEX
  5
2E8
330
217
100
AcDbEntity
  8
Make2D$可见线$普通线
100
AcDbVertex
100
AcDb2dVertex
 10
81.1799642953167
 20
1497.877154291156
 30
0.0
  0
VERTEX
  5
2E9
330
217
100
AcDbEntity
  8
Make2D$可见线$普通线
100
AcDbVertex
100
AcDb2dVertex
 10
81.18090948357258
 20
1497.886107009708
 30
0.0
  0
VERTEX
  5
2EA
330
217
100
AcDbEntity
  8
Make2D$可见线$普通线
100
AcDbVertex
100
AcDb2dVertex
 10
81.18203389404789
 20
1497.895049860944
 30
0.0
  0
VERTEX
  5
2EB
330
217
100
AcDbEntity
  8
Make2D$可见线$普通线
100
AcDbVertex
100
AcDb2dVertex
 10
81.18333425998946
 20
1497.903980373125
 30
0.0
  0
VERTEX
  5
2EC
330
217
100
AcDbEntity
  8
Make2D$可见线$普通线
100
AcDbVertex
100
AcDb2dVertex
 10
81.18480731464413
 20
1497.912896074511
 30
0.0
  0
VERTEX
  5
2ED
330
217
100
AcDbEntity
  8
Make2D$可见线$普通线
100
AcDbVertex
100
AcDb2dVertex
 10
81.18644979125875
 20
1497.921794493364
 30
0.0
  0
VERTEX
  5
2EE
330
217
100
AcDbEntity
  8
Make2D$可见线$普通线
100
AcDbVertex
100
AcDb2dVertex
 10
81.18825842308016
 20
1497.930673157945
 30
0.0
  0
VERTEX
  5
2EF
330
217
100
AcDbEntity
  8
Make2D$可见线$普通线
100
AcDbVertex
100
AcDb2dVertex
 10
81.19022994335516
 20
1497.939529596515
 30
0.0
  0
VERTEX
  5
2F0
330
217
100
AcDbEntity
  8
Make2D$可见线$普通线
100
AcDbVertex
100
AcDb2dVertex
 10
81.19236108533065
 20
1497.948361337335
 30
0.0
  0
VERTEX
  5
2F1
330
217
100
AcDbEntity
  8
Make2D$可见线$普通线
100
AcDbVertex
100
AcDb2dVertex
 10
81.19708916737036
 20
1497.96594083877
 30
0.0
  0
VERTEX
  5
2F2
330
217
100
AcDbEntity
  8
Make2D$可见线$普通线
100
AcDbVertex
100
AcDb2dVertex
 10
81.202416535174
 20
1497.983391888338
 30
0.0
  0
VERTEX
  5
2F3
330
217
100
AcDbEntity
  8
Make2D$可见线$普通线
100
AcDbVertex
100
AcDb2dVertex
 10
81.20831705471628
 20
1498.00069471213
 30
0.0
  0
VERTEX
  5
2F4
330
217
100
AcDbEntity
  8
Make2D$可见线$普通线
100
AcDbVertex
100
AcDb2dVertex
 10
81.21476459197191
 20
1498.017829536233
 30
0.0
  0
VERTEX
  5
2F5
330
217
100
AcDbEntity
  8
Make2D$可见线$普通线
100
AcDbVertex
100
AcDb2dVertex
 10
81.22173301291565
 20
1498.034776586735
 30
0.0
  0
VERTEX
  5
2F6
330
217
100
AcDbEntity
  8
Make2D$可见线$普通线
100
AcDbVertex
100
AcDb2dVertex
 10
81.22919618352219
 20
1498.051516089727
 30
0.0
  0
VERTEX
  5
2F7
330
217
100
AcDbEntity
  8
Make2D$可见线$普通线
100
AcDbVertex
100
AcDb2dVertex
 10
81.23712796976626
 20
1498.068028271296
 30
0.0
  0
VERTEX
  5
2F8
330
217
100
AcDbEntity
  8
Make2D$可见线$普通线
100
AcDbVertex
100
AcDb2dVertex
 10
81.24550223762259
 20
1498.084293357532
 30
0.0
  0
VERTEX
  5
2F9
330
217
100
AcDbEntity
  8
Make2D$可见线$普通线
100
AcDbVertex
100
AcDb2dVertex
 10
81.25429285306588
 20
1498.100291574523
 30
0.0
  0
VERTEX
  5
2FA
330
217
100
AcDbEntity
  8
Make2D$可见线$普通线
100
AcDbVertex
100
AcDb2dVertex
 10
81.26504982403742
 20
1498.11861070874
 30
0.0
  0
VERTEX
  5
2FB
330
217
100
AcDbEntity
  8
Make2D$可见线$普通线
100
AcDbVertex
100
AcDb2dVertex
 10
81.27631582712229
 20
1498.136550322579
 30
0.0
  0
VERTEX
  5
2FC
330
217
100
AcDbEntity
  8
Make2D$可见线$普通线
100
AcDbVertex
100
AcDb2dVertex
 10
81.28806811708021
 20
1498.15412152878
 30
0.0
  0
VERTEX
  5
2FD
330
217
100
AcDbEntity
  8
Make2D$可见线$普通线
100
AcDbVertex
100
AcDb2dVertex
 10
81.30028394867088
 20
1498.171335440082
 30
0.0
  0
VERTEX
  5
2FE
330
217
100
AcDbEntity
  8
Make2D$可见线$普通线
100
AcDbVertex
100
AcDb2dVertex
 10
81.31294057665397
 20
1498.188203169221
 30
0.0
  0
VERTEX
  5
2FF
330
217
100
AcDbEntity
  8
Make2D$可见线$普通线
100
AcDbVertex
100
AcDb2dVertex
 10
81.32601525578916
 20
1498.204735828937
 30
0.0
  0
VERTEX
  5
300
330
217
100
AcDbEntity
  8
Make2D$可见线$普通线
100
AcDbVertex
100
AcDb2dVertex
 10
81.33948524083615
 20
1498.220944531967
 30
0.0
  0
VERTEX
  5
301
330
217
100
AcDbEntity
  8
Make2D$可见线$普通线
100
AcDbVertex
100
AcDb2dVertex
 10
81.35332778655462
 20
1498.236840391049
 30
0.0
  0
VERTEX
  5
302
330
217
100
AcDbEntity
  8
Make2D$可见线$普通线
100
AcDbVertex
100
AcDb2dVertex
 10
81.36752014770428
 20
1498.252434518922
 30
0.0
  0
VERTEX
  5
303
330
217
100
AcDbEntity
  8
Make2D$可见线$普通线
100
AcDbVertex
100
AcDb2dVertex
 10
81.38203957904483
 20
1498.267738028324
 30
0.0
  0
VERTEX
  5
304
330
217
100
AcDbEntity
  8
Make2D$可见线$普通线
100
AcDbVertex
100
AcDb2dVertex
 10
81.39686333533592
 20
1498.282762031993
 30
0.0
  0
VERTEX
  5
305
330
217
100
AcDbEntity
  8
Make2D$可见线$普通线
100
AcDbVertex
100
AcDb2dVertex
 10
81.41196867133726
 20
1498.297517642667
 30
0.0
  0
VERTEX
  5
306
330
217
100
AcDbEntity
  8
Make2D$可见线$普通线
100
AcDbVertex
100
AcDb2dVertex
 10
81.44293310150942
 20
1498.326268135982
 30
0.0
  0
VERTEX
  5
307
330
217
100
AcDbEntity
  8
Make2D$可见线$普通线
100
AcDbVertex
100
AcDb2dVertex
 10
81.47475090763888
 20
1498.354078410176
 30
0.0
  0
VERTEX
  5
308
330
217
100
AcDbEntity
  8
Make2D$可见线$普通线
100
AcDbVertex
100
AcDb2dVertex
 10
81.49920266674197
 20
1498.374473947822
 30
0.0
  0
VERTEX
  5
309
330
217
100
AcDbEntity
  8
Make2D$可见线$普通线
100
AcDbVertex
100
AcDb2dVertex
 10
81.52401810892644
 20
1498.394403171618
 30
0.0
  0
VERTEX
  5
30A
330
217
100
AcDbEntity
  8
Make2D$可见线$普通线
100
AcDbVertex
100
AcDb2dVertex
 10
81.57466827343947
 20
1498.432932944718
 30
0.0
  0
VERTEX
  5
30B
330
217
100
AcDbEntity
  8
Make2D$可见线$普通线
100
AcDbVertex
100
AcDb2dVertex
 10
81.62655786297768
 20
1498.469808263592
 30
0.0
  0
VERTEX
  5
30C
330
217
100
AcDbEntity
  8
Make2D$可见线$普通线
100
AcDbVertex
100
AcDb2dVertex
 10
81.67954333934077
 20
1498.505169662361
 30
0.0
  0
VERTEX
  5
30D
330
217
100
AcDbEntity
  8
Make2D$可见线$普通线
100
AcDbVertex
100
AcDb2dVertex
 10
81.73348116432848
 20
1498.539157675141
 30
0.0
  0
VERTEX
  5
30E
330
217
100
AcDbEntity
  8
Make2D$可见线$普通线
100
AcDbVertex
100
AcDb2dVertex
 10
81.78822779974054
 20
1498.571912836052
 30
0.0
  0
VERTEX
  5
30F
330
217
100
AcDbEntity
  8
Make2D$可见线$普通线
100
AcDbVertex
100
AcDb2dVertex
 10
81.89957334903654
 20
1498.634286738739
 30
0.0
  0
VERTEX
  5
310
330
217
100
AcDbEntity
  8
Make2D$可见线$普通线
100
AcDbVertex
100
AcDb2dVertex
 10
81.98108895972331
 20
1498.677207055072
 30
0.0
  0
VERTEX
  5
311
330
217
100
AcDbEntity
  8
Make2D$可见线$普通线
100
AcDbVertex
100
AcDb2dVertex
 10
82.06335274101717
 20
1498.718505318656
 30
0.0
  0
VERTEX
  5
312
330
217
100
AcDbEntity
  8
Make2D$可见线$普通线
100
AcDbVertex
100
AcDb2dVertex
 10
82.14632326318207
 20
1498.758253210131
 30
0.0
  0
VERTEX
  5
313
330
217
100
AcDbEntity
  8
Make2D$可见线$普通线
100
AcDbVertex
100
AcDb2dVertex
 10
82.22995909648189
 20
1498.79652241014
 30
0.0
  0
VERTEX
  5
314
330
217
100
AcDbEntity
  8
Make2D$可见线$普通线
100
AcDbVertex
100
AcDb2dVertex
 10
82.3990609775419
 20
1498.868911458325
 30
0.0
  0
VERTEX
  5
315
330
217
100
AcDbEntity
  8
Make2D$可见线$普通线
100
AcDbVertex
100
AcDb2dVertex
 10
82.5703269463084
 20
1498.936245908345
 30
0.0
  0
VERTEX
  5
316
330
217
100
AcDbEntity
  8
Make2D$可见线$普通线
100
AcDbVertex
100
AcDb2dVertex
 10
82.74342556489256
 20
1498.999099205334
 30
0.0
  0
VERTEX
  5
317
330
217
100
AcDbEntity
  8
Make2D$可见线$普通线
100
AcDbVertex
100
AcDb2dVertex
 10
82.91802539540558
 20
1499.058044794427
 30
0.0
  0
VERTEX
  5
318
330
217
100
AcDbEntity
  8
Make2D$可见线$普通线
100
AcDbVertex
100
AcDb2dVertex
 10
83.27040294066296
 20
1499.166506629455
 30
0.0
  0
VERTEX
  5
319
330
217
100
AcDbEntity
  8
Make2D$可见线$普通线
100
AcDbVertex
100
AcDb2dVertex
 10
83.7003278007224
 20
1499.285419467879
 30
0.0
  0
VERTEX
  5
31A
330
217
100
AcDbEntity
  8
Make2D$可见线$普通线
100
AcDbVertex
100
AcDb2dVertex
 10
84.13299649408961
 20
1499.392756193356
 30
0.0
  0
VERTEX
  5
31B
330
217
100
AcDbEntity
  8
Make2D$可见线$普通线
100
AcDbVertex
100
AcDb2dVertex
 10
84.56817956305821
 20
1499.489771068317
 30
0.0
  0
VERTEX
  5
31C
330
217
100
AcDbEntity
  8
Make2D$可见线$普通线
100
AcDbVertex
100
AcDb2dVertex
 10
85.00564754992183
 20
1499.577718355192
 30
0.0
  0
SEQEND
  5
31D
330
217
100
AcDbEntity
  8
Make2D$可见线$普通线
  0
POLYLINE
  5
31E
330
1F
100
AcDbEntity
  8
Make2D$可见线$普通线
100
AcDb2dPolyline
 66
     1
 10
0.0
 20
0.0
 30
0.0
  0
VERTEX
  5
31F
330
31E
100
AcDbEntity
  8
Make2D$可见线$普通线
100
AcDbVertex
100
AcDb2dVertex
 10
83.97791376312443
 20
1496.281977766416
 30
0.0
 42
0.1408806559043681
  0
VERTEX
  5
320
330
31E
100
AcDbEntity
  8
Make2D$可见线$普通线
100
AcDbVertex
100
AcDb2dVertex
 10
88.63670187228445
 20
1494.931175962133
 30
0.0
  0
VERTEX
  5
321
330
31E
100
AcDbEntity
  8
Make2D$可见线$普通线
100
AcDbVertex
100
AcDb2dVertex
 10
103.7235765905425
 20
1494.931175962133
 30
0.0
 42
0.1408382176671486
  0
VERTEX
  5
322
330
31E
100
AcDbEntity
  8
Make2D$可见线$普通线
100
AcDbVertex
100
AcDb2dVertex
 10
108.3810447173007
 20
1496.281156403101
 30
0.0
  0
SEQEND
  5
323
330
31E
100
AcDbEntity
  8
Make2D$可见线$普通线
  0
POLYLINE
  5
324
330
1F
100
AcDbEntity
  8
Make2D$可见线$普通线
100
AcDb2dPolyline
 66
     1
 10
0.0
 20
0.0
 30
0.0
  0
VERTEX
  5
325
330
324
100
AcDbEntity
  8
Make2D$可见线$普通线
100
AcDbVertex
100
AcDb2dVertex
 10
62.49063179483574
 20
1521.639951980275
 30
0.0
  0
VERTEX
  5
326
330
324
100
AcDbEntity
  8
Make2D$可见线$普通线
100
AcDbVertex
100
AcDb2dVertex
 10
64.54448503794553
 20
1522.205481735693
 30
0.0
  0
VERTEX
  5
327
330
324
100
AcDbEntity
  8
Make2D$可见线$普通线
100
AcDbVertex
100
AcDb2dVertex
 10
66.60849397784061
 20
1522.737344291866
 30
0.0
  0
VERTEX
  5
328
330
324
100
AcDbEntity
  8
Make2D$可见线$普通线
100
AcDbVertex
100
AcDb2dVertex
 10
68.681960738931
 20
1523.235150733359
 30
0.0
  0
VERTEX
  5
329
330
324
100
AcDbEntity
  8
Make2D$可见线$普通线
100
AcDbVertex
100
AcDb2dVertex
 10
70.76418744562677
 20
1523.698512144739
 30
0.0
  0
VERTEX
  5
32A
330
324
100
AcDbEntity
  8
Make2D$可见线$普通线
100
AcDbVertex
100
AcDb2dVertex
 10
72.85447622233798
 20
1524.127039610573
 30
0.0
  0
VERTEX
  5
32B
330
324
100
AcDbEntity
  8
Make2D$可见线$普通线
100
AcDbVertex
100
AcDb2dVertex
 10
74.95212919347472
 20
1524.520344215428
 30
0.0
  0
VERTEX
  5
32C
330
324
100
AcDbEntity
  8
Make2D$可见线$普通线
100
AcDbVertex
100
AcDb2dVertex
 10
77.05644848344701
 20
1524.87803704387
 30
0.0
  0
VERTEX
  5
32D
330
324
100
AcDbEntity
  8
Make2D$可见线$普通线
100
AcDbVertex
100
AcDb2dVertex
 10
79.16673621666497
 20
1525.199729180466
 30
0.0
  0
VERTEX
  5
32E
330
324
100
AcDbEntity
  8
Make2D$可见线$普通线
100
AcDbVertex
100
AcDb2dVertex
 10
81.28229451753862
 20
1525.485031709783
 30
0.0
  0
VERTEX
  5
32F
330
324
100
AcDbEntity
  8
Make2D$可见线$普通线
100
AcDbVertex
100
AcDb2dVertex
 10
83.40242551047803
 20
1525.733555716387
 30
0.0
  0
VERTEX
  5
330
330
324
100
AcDbEntity
  8
Make2D$可见线$普通线
100
AcDbVertex
100
AcDb2dVertex
 10
85.52643131989325
 20
1525.944912284845
 30
0.0
  0
VERTEX
  5
331
330
324
100
AcDbEntity
  8
Make2D$可见线$普通线
100
AcDbVertex
100
AcDb2dVertex
 10
87.65361407019438
 20
1526.118712499723
 30
0.0
  0
VERTEX
  5
332
330
324
100
AcDbEntity
  8
Make2D$可见线$普通线
100
AcDbVertex
100
AcDb2dVertex
 10
89.78327588579145
 20
1526.254567445589
 30
0.0
  0
VERTEX
  5
333
330
324
100
AcDbEntity
  8
Make2D$可见线$普通线
100
AcDbVertex
100
AcDb2dVertex
 10
91.91471889109454
 20
1526.352088207009
 30
0.0
  0
VERTEX
  5
334
330
324
100
AcDbEntity
  8
Make2D$可见线$普通线
100
AcDbVertex
100
AcDb2dVertex
 10
94.04724521051372
 20
1526.410885868549
 30
0.0
  0
VERTEX
  5
335
330
324
100
AcDbEntity
  8
Make2D$可见线$普通线
100
AcDbVertex
100
AcDb2dVertex
 10
96.18015696845904
 20
1526.430571514777
 30
0.0
  0
VERTEX
  5
336
330
324
100
AcDbEntity
  8
Make2D$可见线$普通线
100
AcDbVertex
100
AcDb2dVertex
 10
98.31306821938054
 20
1526.410885877534
 30
0.0
  0
VERTEX
  5
337
330
324
100
AcDbEntity
  8
Make2D$可见线$普通线
100
AcDbVertex
100
AcDb2dVertex
 10
100.4455940437452
 20
1526.352088240224
 30
0.0
  0
VERTEX
  5
338
330
324
100
AcDbEntity
  8
Make2D$可见线$普通线
100
AcDbVertex
100
AcDb2dVertex
 10
102.5770365778846
 20
1526.254567514758
 30
0.0
  0
VERTEX
  5
339
330
324
100
AcDbEntity
  8
Make2D$可见线$普通线
100
AcDbVertex
100
AcDb2dVertex
 10
104.7066979581304
 20
1526.118712613043
 30
0.0
  0
VERTEX
  5
33A
330
324
100
AcDbEntity
  8
Make2D$可见线$普通线
100
AcDbVertex
100
AcDb2dVertex
 10
106.8338803208142
 20
1525.944912446991
 30
0.0
  0
VERTEX
  5
33B
330
324
100
AcDbEntity
  8
Make2D$可见线$普通线
100
AcDbVertex
100
AcDb2dVertex
 10
108.9578858022676
 20
1525.73355592851
 30
0.0
  0
VERTEX
  5
33C
330
324
100
AcDbEntity
  8
Make2D$可见线$普通线
100
AcDbVertex
100
AcDb2dVertex
 10
111.0780165388222
 20
1525.485031969511
 30
0.0
  0
VERTEX
  5
33D
330
324
100
AcDbEntity
  8
Make2D$可见线$普通线
100
AcDbVertex
100
AcDb2dVertex
 10
113.1935746668096
 20
1525.199729481903
 30
0.0
  0
VERTEX
  5
33E
330
324
100
AcDbEntity
  8
Make2D$可见线$普通线
100
AcDbVertex
100
AcDb2dVertex
 10
115.3038623225614
 20
1524.878037377596
 30
0.0
  0
VERTEX
  5
33F
330
324
100
AcDbEntity
  8
Make2D$可见线$普通线
100
AcDbVertex
100
AcDb2dVertex
 10
117.4081816424093
 20
1524.520344568499
 30
0.0
  0
VERTEX
  5
340
330
324
100
AcDbEntity
  8
Make2D$可见线$普通线
100
AcDbVertex
100
AcDb2dVertex
 10
119.5058347626847
 20
1524.127039966522
 30
0.0
  0
VERTEX
  5
341
330
324
100
AcDbEntity
  8
Make2D$可见线$普通线
100
AcDbVertex
100
AcDb2dVertex
 10
121.5961238197195
 20
1523.698512483575
 30
0.0
  0
VERTEX
  5
342
330
324
100
AcDbEntity
  8
Make2D$可见线$普通线
100
AcDbVertex
100
AcDb2dVertex
 10
123.6783509498451
 20
1523.235151031567
 30
0.0
  0
VERTEX
  5
343
330
324
100
AcDbEntity
  8
Make2D$可见线$普通线
100
AcDbVertex
100
AcDb2dVertex
 10
125.7518182893931
 20
1522.737344522408
 30
0.0
  0
VERTEX
  5
344
330
324
100
AcDbEntity
  8
Make2D$可见线$普通线
100
AcDbVertex
100
AcDb2dVertex
 10
127.8158279746953
 20
1522.205481868008
 30
0.0
  0
VERTEX
  5
345
330
324
100
AcDbEntity
  8
Make2D$可见线$普通线
100
AcDbVertex
100
AcDb2dVertex
 10
129.8696821420831
 20
1521.639951980276
 30
0.0
 42
-0.3352732049581335
  0
VERTEX
  5
346
330
324
100
AcDbEntity
  8
Make2D$可见线$普通线
100
AcDbVertex
100
AcDb2dVertex
 10
130.5962848590864
 20
1520.678002829957
 30
0.0
  0
VERTEX
  5
347
330
324
100
AcDbEntity
  8
Make2D$可见线$普通线
100
AcDbVertex
100
AcDb2dVertex
 10
130.5962848623692
 20
1517.431175962132
 30
0.0
 42
-0.4142135623730479
  0
VERTEX
  5
348
330
324
100
AcDbEntity
  8
Make2D$可见线$普通线
100
AcDbVertex
100
AcDb2dVertex
 10
129.5962848623692
 20
1516.431175962132
 30
0.0
  0
VERTEX
  5
349
330
324
100
AcDbEntity
  8
Make2D$可见线$普通线
100
AcDbVertex
100
AcDb2dVertex
 10
62.7640290745494
 20
1516.431175962132
 30
0.0
 42
-0.4142135623731878
  0
VERTEX
  5
34A
330
324
100
AcDbEntity
  8
Make2D$可见线$普通线
100
AcDbVertex
100
AcDb2dVertex
 10
61.7640290745494
 20
1517.431175962133
 30
0.0
  0
VERTEX
  5
34B
330
324
100
AcDbEntity
  8
Make2D$可见线$普通线
100
AcDbVertex
100
AcDb2dVertex
 10
61.76402907783244
 20
1520.678002829938
 30
0.0
 42
-0.3352732848814375
  0
VERTEX
  5
34C
330
324
100
AcDbEntity
  8
Make2D$可见线$普通线
100
AcDbVertex
100
AcDb2dVertex
 10
62.49063179483576
 20
1521.639951980275
 30
0.0
  0
SEQEND
  5
34D
330
324
100
AcDbEntity
  8
Make2D$可见线$普通线
  0
SPLINE
  5
34E
330
1F
100
AcDbEntity
  8
Make2D$可见线$普通线
100
AcDbSpline
210
0.0
220
0.0
230
1.0
 70
    11
 71
     3
 72
    31
 73
    27
 74
     0
 42
0.000000001
 43
0.0000000001
 12
1.0
 22
0.0
 32
0.0
 13
1.0
 23
0.0
 33
0.0
 40
0.0
 40
0.0
 40
0.0
 40
0.0
 40
0.441437166593496
 40
1.168759987268247
 40
2.236411181811757
 40
3.630669836890206
 40
7.231882800746758
 40
11.44101796623916
 40
15.6520238417915
 40
19.2536533575029
 40
20.64581606657075
 40
21.71185590057519
 40
22.44040135982353
 40
22.88462148484166
 40
23.32884160985967
 40
24.05738706910782
 40
25.12342690311222
 40
26.51558961218015
 40
30.11721912789146
 40
34.32822500344437
 40
38.5373601689362
 40
42.13857313279286
 40
43.53283178787116
 40
44.60048298241463
 40
45.32780580308935
 40
45.76924296968287
 40
45.76924296968287
 40
45.76924296968287
 40
45.76924296968287
 10
107.1801392314132
 20
1497.840101847857
 30
0.0
 10
107.1817310257198
 20
1497.997071807377
 30
0.0
 10
106.9171914389275
 20
1498.307409663586
 30
0.0
 10
106.2421297278254
 20
1498.63353601681
 30
0.0
 10
105.2258990437958
 20
1498.949753764582
 30
0.0
 10
103.2420480519952
 20
1499.347861055062
 30
0.0
 10
100.1867303663977
 20
1499.661314346466
 30
0.0
 10
96.18048469472899
 20
1499.799816617365
 30
0.0
 10
92.17272983933697
 20
1499.662255861836
 30
0.0
 10
89.11839321932496
 20
1499.34723986685
 30
0.0
 10
87.13539014436014
 20
1498.95002516473
 30
0.0
 10
86.11967678918154
 20
1498.634304231693
 30
0.0
 10
85.44602313952919
 20
1498.307817613809
 30
0.0
 10
85.0729073264157
 20
1497.858129490258
 30
0.0
 10
85.44627600537615
 20
1497.334718417639
 30
0.0
 10
86.11879799400629
 20
1497.076927423853
 30
0.0
 10
87.13599263224785
 20
1496.713929654397
 30
0.0
 10
89.11742481255544
 20
1496.343854752191
 30
0.0
 10
92.1737630562917
 20
1496.01019853928
 30
0.0
 10
96.17951142791128
 20
1495.885894288851
 30
0.0
 10
100.1875444029974
 20
1496.014340541705
 30
0.0
 10
103.2415885942066
 20
1496.335146195852
 30
0.0
 10
105.226019862354
 20
1496.729162154413
 30
0.0
 10
106.2423807391144
 20
1497.046501417774
 30
0.0
 10
106.9169178148096
 20
1497.37338407623
 30
0.0
 10
107.1818432688299
 20
1497.682889846858
 30
0.0
 10
107.1801392314132
 20
1497.840101847857
 30
0.0
  0
CIRCLE
  5
34F
330
1F
100
AcDbEntity
  8
Make2D$可见线$普通线
100
AcDbCircle
 10
696.17979143963
 20
1503.066154856308
 30
0.0
 40
1.0
  0
CIRCLE
  5
350
330
1F
100
AcDbEntity
  8
Make2D$可见线$普通线
100
AcDbCircle
 10
696.1797914396304
 20
1503.066154856308
 30
0.0
 40
0.5
  0
CIRCLE
  5
351
330
1F
100
AcDbEntity
  8
Make2D$可见线$普通线
100
AcDbCircle
 10
696.1797914396298
 20
1491.066154856308
 30
0.0
 40
1.000000000000455
  0
CIRCLE
  5
352
330
1F
100
AcDbEntity
  8
Make2D$可见线$普通线
100
AcDbCircle
 10
696.1797914396301
 20
1491.066154856308
 30
0.0
 40
0.5000000000002274
  0
CIRCLE
  5
353
330
1F
100
AcDbEntity
  8
Make2D$可见线$普通线
100
AcDbCircle
 10
696.1797914396304
 20
1495.066154856309
 30
0.0
 40
0.9999999999997726
  0
CIRCLE
  5
354
330
1F
100
AcDbEntity
  8
Make2D$可见线$普通线
100
AcDbCircle
 10
696.1797914396299
 20
1495.066154856308
 30
0.0
 40
0.5000000000002274
  0
CIRCLE
  5
355
330
1F
100
AcDbEntity
  8
Make2D$可见线$普通线
100
AcDbCircle
 10
696.1797914396302
 20
1499.066154856309
 30
0.0
 40
0.9999999999997726
  0
CIRCLE
  5
356
330
1F
100
AcDbEntity
  8
Make2D$可见线$普通线
100
AcDbCircle
 10
696.1797914396307
 20
1499.066154856309
 30
0.0
 40
0.4999999999997726
  0
CIRCLE
  5
357
330
1F
100
AcDbEntity
  8
Make2D$可见线$普通线
100
AcDbCircle
 10
696.1797914396298
 20
1487.066154856308
 30
0.0
 40
1.000000000000227
  0
CIRCLE
  5
358
330
1F
100
AcDbEntity
  8
Make2D$可见线$普通线
100
AcDbCircle
 10
696.1797914396301
 20
1487.066154856308
 30
0.0
 40
0.5
  0
CIRCLE
  5
359
330
1F
100
AcDbEntity
  8
Make2D$可见线$普通线
100
AcDbCircle
 10
696.1797914396302
 20
1483.066154856308
 30
0.0
 40
1.000000000000455
  0
CIRCLE
  5
35A
330
1F
100
AcDbEntity
  8
Make2D$可见线$普通线
100
AcDbCircle
 10
696.1797914396302
 20
1483.066154856308
 30
0.0
 40
0.5000000000002274
  0
CIRCLE
  5
35B
330
1F
100
AcDbEntity
  8
Make2D$可见线$普通线
100
AcDbCircle
 10
696.1797914396309
 20
1479.066154856308
 30
0.0
 40
1.0
  0
CIRCLE
  5
35C
330
1F
100
AcDbEntity
  8
Make2D$可见线$普通线
100
AcDbCircle
 10
696.1797914396307
 20
1479.066154856309
 30
0.0
 40
0.4999999999997726
  0
CIRCLE
  5
35D
330
1F
100
AcDbEntity
  8
Make2D$可见线$普通线
100
AcDbCircle
 10
696.1797914396299
 20
1475.066154856308
 30
0.0
 40
1.000000000000455
  0
CIRCLE
  5
35E
330
1F
100
AcDbEntity
  8
Make2D$可见线$普通线
100
AcDbCircle
 10
696.1797914396299
 20
1475.066154856308
 30
0.0
 40
0.5000000000004547
  0
CIRCLE
  5
35F
330
1F
100
AcDbEntity
  8
Make2D$可见线$普通线
100
AcDbCircle
 10
696.17979143963
 20
1471.066154856308
 30
0.0
 40
1.000000000000227
  0
CIRCLE
  5
360
330
1F
100
AcDbEntity
  8
Make2D$可见线$普通线
100
AcDbCircle
 10
696.1797914396302
 20
1471.066154856309
 30
0.0
 40
0.4999999999995453
  0
CIRCLE
  5
361
330
1F
100
AcDbEntity
  8
Make2D$可见线$普通线
100
AcDbCircle
 10
696.1797914396302
 20
1467.066154856308
 30
0.0
 40
1.0
  0
CIRCLE
  5
362
330
1F
100
AcDbEntity
  8
Make2D$可见线$普通线
100
AcDbCircle
 10
696.1797914396309
 20
1467.066154856309
 30
0.0
 40
0.4999999999997726
  0
CIRCLE
  5
363
330
1F
100
AcDbEntity
  8
Make2D$可见线$普通线
100
AcDbCircle
 10
696.1797914396299
 20
1463.066154856308
 30
0.0
 40
1.000000000000455
  0
CIRCLE
  5
364
330
1F
100
AcDbEntity
  8
Make2D$可见线$普通线
100
AcDbCircle
 10
696.1797914396305
 20
1463.066154856308
 30
0.0
 40
0.5
  0
CIRCLE
  5
365
330
1F
100
AcDbEntity
  8
Make2D$可见线$普通线
100
AcDbCircle
 10
696.1797914396298
 20
1459.066154856308
 30
0.0
 40
1.000000000000227
  0
CIRCLE
  5
366
330
1F
100
AcDbEntity
  8
Make2D$可见线$普通线
100
AcDbCircle
 10
696.1797914396302
 20
1459.066154856308
 30
0.0
 40
0.5000000000002274
  0
CIRCLE
  5
367
330
1F
100
AcDbEntity
  8
Make2D$可见线$普通线
100
AcDbCircle
 10
696.1797914396303
 20
1455.066154856308
 30
0.0
 40
1.0
  0
CIRCLE
  5
368
330
1F
100
AcDbEntity
  8
Make2D$可见线$普通线
100
AcDbCircle
 10
696.17979143963
 20
1455.066154856308
 30
0.0
 40
0.5
  0
CIRCLE
  5
369
330
1F
100
AcDbEntity
  8
Make2D$可见线$普通线
100
AcDbCircle
 10
693.1797914396304
 20
1501.066154856308
 30
0.0
 40
1.0
  0
CIRCLE
  5
36A
330
1F
100
AcDbEntity
  8
Make2D$可见线$普通线
100
AcDbCircle
 10
693.1797914396304
 20
1501.066154856308
 30
0.0
 40
0.5
  0
CIRCLE
  5
36B
330
1F
100
AcDbEntity
  8
Make2D$可见线$普通线
100
AcDbCircle
 10
693.1797914396292
 20
1489.066154856308
 30
0.0
 40
1.000000000000455
  0
CIRCLE
  5
36C
330
1F
100
AcDbEntity
  8
Make2D$可见线$普通线
100
AcDbCircle
 10
693.1797914396304
 20
1489.066154856308
 30
0.0
 40
0.5
  0
CIRCLE
  5
36D
330
1F
100
AcDbEntity
  8
Make2D$可见线$普通线
100
AcDbCircle
 10
693.1797914396292
 20
1493.066154856308
 30
0.0
 40
1.000000000000455
  0
CIRCLE
  5
36E
330
1F
100
AcDbEntity
  8
Make2D$可见线$普通线
100
AcDbCircle
 10
693.1797914396302
 20
1493.066154856308
 30
0.0
 40
0.5
  0
CIRCLE
  5
36F
330
1F
100
AcDbEntity
  8
Make2D$可见线$普通线
100
AcDbCircle
 10
693.1797914396296
 20
1497.066154856308
 30
0.0
 40
1.000000000000682
  0
CIRCLE
  5
370
330
1F
100
AcDbEntity
  8
Make2D$可见线$普通线
100
AcDbCircle
 10
693.1797914396302
 20
1497.066154856309
 30
0.0
 40
0.4999999999997726
  0
CIRCLE
  5
371
330
1F
100
AcDbEntity
  8
Make2D$可见线$普通线
100
AcDbCircle
 10
693.17979143963
 20
1485.066154856308
 30
0.0
 40
1.000000000000227
  0
CIRCLE
  5
372
330
1F
100
AcDbEntity
  8
Make2D$可见线$普通线
100
AcDbCircle
 10
693.1797914396307
 20
1485.066154856309
 30
0.0
 40
0.4999999999997726
  0
CIRCLE
  5
373
330
1F
100
AcDbEntity
  8
Make2D$可见线$普通线
100
AcDbCircle
 10
693.1797914396294
 20
1481.066154856308
 30
0.0
 40
1.000000000000455
  0
CIRCLE
  5
374
330
1F
100
AcDbEntity
  8
Make2D$可见线$普通线
100
AcDbCircle
 10
693.1797914396301
 20
1481.066154856308
 30
0.0
 40
0.5000000000002274
  0
CIRCLE
  5
375
330
1F
100
AcDbEntity
  8
Make2D$可见线$普通线
100
AcDbCircle
 10
693.1797914396299
 20
1477.066154856308
 30
0.0
 40
1.000000000000455
  0
CIRCLE
  5
376
330
1F
100
AcDbEntity
  8
Make2D$可见线$普通线
100
AcDbCircle
 10
693.1797914396302
 20
1477.066154856308
 30
0.0
 40
0.5000000000004547
  0
CIRCLE
  5
377
330
1F
100
AcDbEntity
  8
Make2D$可见线$普通线
100
AcDbCircle
 10
693.17979143963
 20
1473.066154856308
 30
0.0
 40
1.0
  0
CIRCLE
  5
378
330
1F
100
AcDbEntity
  8
Make2D$可见线$普通线
100
AcDbCircle
 10
693.1797914396304
 20
1473.066154856308
 30
0.0
 40
0.5000000000002274
  0
CIRCLE
  5
379
330
1F
100
AcDbEntity
  8
Make2D$可见线$普通线
100
AcDbCircle
 10
693.1797914396295
 20
1469.066154856308
 30
0.0
 40
1.000000000000455
  0
CIRCLE
  5
37A
330
1F
100
AcDbEntity
  8
Make2D$可见线$普通线
100
AcDbCircle
 10
693.1797914396295
 20
1469.066154856308
 30
0.0
 40
0.5000000000004547
  0
CIRCLE
  5
37B
330
1F
100
AcDbEntity
  8
Make2D$可见线$普通线
100
AcDbCircle
 10
693.1797914396302
 20
1465.066154856308
 30
0.0
 40
1.0
  0
CIRCLE
  5
37C
330
1F
100
AcDbEntity
  8
Make2D$可见线$普通线
100
AcDbCircle
 10
693.1797914396302
 20
1465.066154856309
 30
0.0
 40
0.4999999999997726
  0
CIRCLE
  5
37D
330
1F
100
AcDbEntity
  8
Make2D$可见线$普通线
100
AcDbCircle
 10
693.1797914396294
 20
1461.066154856308
 30
0.0
 40
1.000000000000227
  0
CIRCLE
  5
37E
330
1F
100
AcDbEntity
  8
Make2D$可见线$普通线
100
AcDbCircle
 10
693.1797914396307
 20
1461.066154856308
 30
0.0
 40
0.5
  0
CIRCLE
  5
37F
330
1F
100
AcDbEntity
  8
Make2D$可见线$普通线
100
AcDbCircle
 10
693.1797914396301
 20
1457.066154856308
 30
0.0
 40
1.0
  0
CIRCLE
  5
380
330
1F
100
AcDbEntity
  8
Make2D$可见线$普通线
100
AcDbCircle
 10
693.1797914396302
 20
1457.066154856308
 30
0.0
 40
0.5
  0
CIRCLE
  5
381
330
1F
100
AcDbEntity
  8
Make2D$可见线$普通线
100
AcDbCircle
 10
693.1797914396302
 20
1453.066154856308
 30
0.0
 40
1.0
  0
CIRCLE
  5
382
330
1F
100
AcDbEntity
  8
Make2D$可见线$普通线
100
AcDbCircle
 10
693.1797914396302
 20
1453.066154856309
 30
0.0
 40
0.4999999999997726
  0
CIRCLE
  5
383
330
1F
100
AcDbEntity
  8
Make2D$可见线$普通线
100
AcDbCircle
 10
690.1797914396302
 20
1503.066154856309
 30
0.0
 40
0.9999999999997726
  0
CIRCLE
  5
384
330
1F
100
AcDbEntity
  8
Make2D$可见线$普通线
100
AcDbCircle
 10
690.1797914396305
 20
1503.066154856308
 30
0.0
 40
0.5
  0
CIRCLE
  5
385
330
1F
100
AcDbEntity
  8
Make2D$可见线$普通线
100
AcDbCircle
 10
690.1797914396305
 20
1491.066154856309
 30
0.0
 40
0.9999999999997726
  0
CIRCLE
  5
386
330
1F
100
AcDbEntity
  8
Make2D$可见线$普通线
100
AcDbCircle
 10
690.1797914396304
 20
1491.066154856308
 30
0.0
 40
0.5000000000002274
  0
CIRCLE
  5
387
330
1F
100
AcDbEntity
  8
Make2D$可见线$普通线
100
AcDbCircle
 10
690.1797914396307
 20
1495.066154856308
 30
0.0
 40
1.000000000000227
  0
CIRCLE
  5
388
330
1F
100
AcDbEntity
  8
Make2D$可见线$普通线
100
AcDbCircle
 10
690.1797914396307
 20
1495.066154856309
 30
0.0
 40
0.4999999999995453
  0
CIRCLE
  5
389
330
1F
100
AcDbEntity
  8
Make2D$可见线$普通线
100
AcDbCircle
 10
690.1797914396303
 20
1499.066154856308
 30
0.0
 40
1.0
  0
CIRCLE
  5
38A
330
1F
100
AcDbEntity
  8
Make2D$可见线$普通线
100
AcDbCircle
 10
690.17979143963
 20
1499.066154856308
 30
0.0
 40
0.5
  0
CIRCLE
  5
38B
330
1F
100
AcDbEntity
  8
Make2D$可见线$普通线
100
AcDbCircle
 10
690.17979143963
 20
1487.066154856308
 30
0.0
 40
1.0
  0
CIRCLE
  5
38C
330
1F
100
AcDbEntity
  8
Make2D$可见线$普通线
100
AcDbCircle
 10
690.1797914396305
 20
1487.066154856308
 30
0.0
 40
0.5
  0
CIRCLE
  5
38D
330
1F
100
AcDbEntity
  8
Make2D$可见线$普通线
100
AcDbCircle
 10
690.17979143963
 20
1483.066154856308
 30
0.0
 40
1.000000000000227
  0
CIRCLE
  5
38E
330
1F
100
AcDbEntity
  8
Make2D$可见线$普通线
100
AcDbCircle
 10
690.1797914396304
 20
1483.066154856309
 30
0.0
 40
0.4999999999997726
  0
CIRCLE
  5
38F
330
1F
100
AcDbEntity
  8
Make2D$可见线$普通线
100
AcDbCircle
 10
690.1797914396302
 20
1479.066154856308
 30
0.0
 40
1.0
  0
CIRCLE
  5
390
330
1F
100
AcDbEntity
  8
Make2D$可见线$普通线
100
AcDbCircle
 10
690.1797914396304
 20
1479.066154856308
 30
0.0
 40
0.5
  0
CIRCLE
  5
391
330
1F
100
AcDbEntity
  8
Make2D$可见线$普通线
100
AcDbCircle
 10
690.1797914396304
 20
1475.066154856309
 30
0.0
 40
0.9999999999997726
  0
CIRCLE
  5
392
330
1F
100
AcDbEntity
  8
Make2D$可见线$普通线
100
AcDbCircle
 10
690.1797914396301
 20
1475.066154856308
 30
0.0
 40
0.5
  0
CIRCLE
  5
393
330
1F
100
AcDbEntity
  8
Make2D$可见线$普通线
100
AcDbCircle
 10
690.1797914396302
 20
1471.066154856308
 30
0.0
 40
1.0
  0
CIRCLE
  5
394
330
1F
100
AcDbEntity
  8
Make2D$可见线$普通线
100
AcDbCircle
 10
690.1797914396301
 20
1471.066154856308
 30
0.0
 40
0.5000000000006821
  0
CIRCLE
  5
395
330
1F
100
AcDbEntity
  8
Make2D$可见线$普通线
100
AcDbCircle
 10
690.1797914396302
 20
1467.066154856308
 30
0.0
 40
1.0
  0
CIRCLE
  5
396
330
1F
100
AcDbEntity
  8
Make2D$可见线$普通线
100
AcDbCircle
 10
690.17979143963
 20
1467.066154856308
 30
0.0
 40
0.5000000000004547
  0
CIRCLE
  5
397
330
1F
100
AcDbEntity
  8
Make2D$可见线$普通线
100
AcDbCircle
 10
690.1797914396303
 20
1463.066154856309
 30
0.0
 40
0.9999999999997726
  0
CIRCLE
  5
398
330
1F
100
AcDbEntity
  8
Make2D$可见线$普通线
100
AcDbCircle
 10
690.1797914396307
 20
1463.066154856308
 30
0.0
 40
0.5
  0
CIRCLE
  5
399
330
1F
100
AcDbEntity
  8
Make2D$可见线$普通线
100
AcDbCircle
 10
690.1797914396296
 20
1459.066154856308
 30
0.0
 40
1.000000000000227
  0
CIRCLE
  5
39A
330
1F
100
AcDbEntity
  8
Make2D$可见线$普通线
100
AcDbCircle
 10
690.17979143963
 20
1459.066154856309
 30
0.0
 40
0.4999999999997726
  0
CIRCLE
  5
39B
330
1F
100
AcDbEntity
  8
Make2D$可见线$普通线
100
AcDbCircle
 10
690.1797914396299
 20
1455.066154856308
 30
0.0
 40
1.000000000000455
  0
CIRCLE
  5
39C
330
1F
100
AcDbEntity
  8
Make2D$可见线$普通线
100
AcDbCircle
 10
690.1797914396302
 20
1455.066154856308
 30
0.0
 40
0.5
  0
CIRCLE
  5
39D
330
1F
100
AcDbEntity
  8
Make2D$可见线$普通线
100
AcDbCircle
 10
699.17979143963
 20
1501.066154856308
 30
0.0
 40
1.000000000000455
  0
CIRCLE
  5
39E
330
1F
100
AcDbEntity
  8
Make2D$可见线$普通线
100
AcDbCircle
 10
699.17979143963
 20
1501.066154856309
 30
0.0
 40
0.4999999999997726
  0
CIRCLE
  5
39F
330
1F
100
AcDbEntity
  8
Make2D$可见线$普通线
100
AcDbCircle
 10
699.1797914396299
 20
1489.066154856308
 30
0.0
 40
1.000000000000227
  0
CIRCLE
  5
3A0
330
1F
100
AcDbEntity
  8
Make2D$可见线$普通线
100
AcDbCircle
 10
699.17979143963
 20
1489.066154856308
 30
0.0
 40
0.5
  0
CIRCLE
  5
3A1
330
1F
100
AcDbEntity
  8
Make2D$可见线$普通线
100
AcDbCircle
 10
699.1797914396299
 20
1493.066154856308
 30
0.0
 40
1.0
  0
CIRCLE
  5
3A2
330
1F
100
AcDbEntity
  8
Make2D$可见线$普通线
100
AcDbCircle
 10
699.1797914396303
 20
1493.066154856309
 30
0.0
 40
0.4999999999997726
  0
CIRCLE
  5
3A3
330
1F
100
AcDbEntity
  8
Make2D$可见线$普通线
100
AcDbCircle
 10
699.1797914396303
 20
1497.066154856308
 30
0.0
 40
1.0
  0
CIRCLE
  5
3A4
330
1F
100
AcDbEntity
  8
Make2D$可见线$普通线
100
AcDbCircle
 10
699.1797914396302
 20
1497.066154856308
 30
0.0
 40
0.5000000000002274
  0
CIRCLE
  5
3A5
330
1F
100
AcDbEntity
  8
Make2D$可见线$普通线
100
AcDbCircle
 10
699.1797914396304
 20
1485.066154856309
 30
0.0
 40
0.9999999999995453
  0
CIRCLE
  5
3A6
330
1F
100
AcDbEntity
  8
Make2D$可见线$普通线
100
AcDbCircle
 10
699.1797914396296
 20
1485.066154856308
 30
0.0
 40
0.5
  0
CIRCLE
  5
3A7
330
1F
100
AcDbEntity
  8
Make2D$可见线$普通线
100
AcDbCircle
 10
699.1797914396299
 20
1481.066154856309
 30
0.0
 40
0.9999999999997726
  0
CIRCLE
  5
3A8
330
1F
100
AcDbEntity
  8
Make2D$可见线$普通线
100
AcDbCircle
 10
699.1797914396308
 20
1481.066154856308
 30
0.0
 40
0.5000000000004547
  0
CIRCLE
  5
3A9
330
1F
100
AcDbEntity
  8
Make2D$可见线$普通线
100
AcDbCircle
 10
699.1797914396302
 20
1477.066154856309
 30
0.0
 40
0.9999999999997726
  0
CIRCLE
  5
3AA
330
1F
100
AcDbEntity
  8
Make2D$可见线$普通线
100
AcDbCircle
 10
699.1797914396302
 20
1477.066154856308
 30
0.0
 40
0.5000000000002274
  0
CIRCLE
  5
3AB
330
1F
100
AcDbEntity
  8
Make2D$可见线$普通线
100
AcDbCircle
 10
699.1797914396299
 20
1473.066154856308
 30
0.0
 40
1.0
  0
CIRCLE
  5
3AC
330
1F
100
AcDbEntity
  8
Make2D$可见线$普通线
100
AcDbCircle
 10
699.1797914396302
 20
1473.066154856309
 30
0.0
 40
0.4999999999997726
  0
CIRCLE
  5
3AD
330
1F
100
AcDbEntity
  8
Make2D$可见线$普通线
100
AcDbCircle
 10
699.1797914396303
 20
1469.066154856308
 30
0.0
 40
1.0
  0
CIRCLE
  5
3AE
330
1F
100
AcDbEntity
  8
Make2D$可见线$普通线
100
AcDbCircle
 10
699.17979143963
 20
1469.066154856309
 30
0.0
 40
0.4999999999997726
  0
CIRCLE
  5
3AF
330
1F
100
AcDbEntity
  8
Make2D$可见线$普通线
100
AcDbCircle
 10
699.1797914396301
 20
1465.066154856309
 30
0.0
 40
0.9999999999997726
  0
CIRCLE
  5
3B0
330
1F
100
AcDbEntity
  8
Make2D$可见线$普通线
100
AcDbCircle
 10
699.1797914396298
 20
1465.066154856309
 30
0.0
 40
0.4999999999997726
  0
CIRCLE
  5
3B1
330
1F
100
AcDbEntity
  8
Make2D$可见线$普通线
100
AcDbCircle
 10
699.1797914396302
 20
1461.066154856308
 30
0.0
 40
1.0
  0
CIRCLE
  5
3B2
330
1F
100
AcDbEntity
  8
Make2D$可见线$普通线
100
AcDbCircle
 10
699.1797914396302
 20
1461.066154856308
 30
0.0
 40
0.5
  0
CIRCLE
  5
3B3
330
1F
100
AcDbEntity
  8
Make2D$可见线$普通线
100
AcDbCircle
 10
699.1797914396298
 20
1457.066154856308
 30
0.0
 40
1.000000000000227
  0
CIRCLE
  5
3B4
330
1F
100
AcDbEntity
  8
Make2D$可见线$普通线
100
AcDbCircle
 10
699.1797914396305
 20
1457.066154856308
 30
0.0
 40
0.5
  0
CIRCLE
  5
3B5
330
1F
100
AcDbEntity
  8
Make2D$可见线$普通线
100
AcDbCircle
 10
699.1797914396303
 20
1453.066154856308
 30
0.0
 40
1.000000000000455
  0
CIRCLE
  5
3B6
330
1F
100
AcDbEntity
  8
Make2D$可见线$普通线
100
AcDbCircle
 10
699.1797914396305
 20
1453.066154856308
 30
0.0
 40
0.5000000000002274
  0
CIRCLE
  5
3B7
330
1F
100
AcDbEntity
  8
Make2D$可见线$普通线
100
AcDbCircle
 10
702.17979143963
 20
1503.066154856308
 30
0.0
 40
1.0
  0
CIRCLE
  5
3B8
330
1F
100
AcDbEntity
  8
Make2D$可见线$普通线
100
AcDbCircle
 10
702.1797914396302
 20
1503.066154856308
 30
0.0
 40
0.5
  0
CIRCLE
  5
3B9
330
1F
100
AcDbEntity
  8
Make2D$可见线$普通线
100
AcDbCircle
 10
702.1797914396303
 20
1491.066154856308
 30
0.0
 40
1.0
  0
CIRCLE
  5
3BA
330
1F
100
AcDbEntity
  8
Make2D$可见线$普通线
100
AcDbCircle
 10
702.1797914396303
 20
1491.066154856308
 30
0.0
 40
0.5
  0
CIRCLE
  5
3BB
330
1F
100
AcDbEntity
  8
Make2D$可见线$普通线
100
AcDbCircle
 10
702.17979143963
 20
1495.066154856308
 30
0.0
 40
1.0
  0
CIRCLE
  5
3BC
330
1F
100
AcDbEntity
  8
Make2D$可见线$普通线
100
AcDbCircle
 10
702.1797914396304
 20
1495.066154856308
 30
0.0
 40
0.5
  0
CIRCLE
  5
3BD
330
1F
100
AcDbEntity
  8
Make2D$可见线$普通线
100
AcDbCircle
 10
702.1797914396301
 20
1499.066154856308
 30
0.0
 40
1.000000000000227
  0
CIRCLE
  5
3BE
330
1F
100
AcDbEntity
  8
Make2D$可见线$普通线
100
AcDbCircle
 10
702.1797914396304
 20
1499.066154856308
 30
0.0
 40
0.5
  0
CIRCLE
  5
3BF
330
1F
100
AcDbEntity
  8
Make2D$可见线$普通线
100
AcDbCircle
 10
702.17979143963
 20
1487.066154856308
 30
0.0
 40
1.000000000000455
  0
CIRCLE
  5
3C0
330
1F
100
AcDbEntity
  8
Make2D$可见线$普通线
100
AcDbCircle
 10
702.1797914396304
 20
1487.066154856308
 30
0.0
 40
0.5000000000004547
  0
CIRCLE
  5
3C1
330
1F
100
AcDbEntity
  8
Make2D$可见线$普通线
100
AcDbCircle
 10
702.1797914396305
 20
1483.066154856308
 30
0.0
 40
1.000000000000455
  0
CIRCLE
  5
3C2
330
1F
100
AcDbEntity
  8
Make2D$可见线$普通线
100
AcDbCircle
 10
702.1797914396301
 20
1483.066154856308
 30
0.0
 40
0.5
  0
CIRCLE
  5
3C3
330
1F
100
AcDbEntity
  8
Make2D$可见线$普通线
100
AcDbCircle
 10
702.1797914396299
 20
1479.066154856308
 30
0.0
 40
1.0
  0
CIRCLE
  5
3C4
330
1F
100
AcDbEntity
  8
Make2D$可见线$普通线
100
AcDbCircle
 10
702.17979143963
 20
1479.066154856309
 30
0.0
 40
0.4999999999997726
  0
CIRCLE
  5
3C5
330
1F
100
AcDbEntity
  8
Make2D$可见线$普通线
100
AcDbCircle
 10
702.1797914396302
 20
1475.066154856308
 30
0.0
 40
1.000000000000227
  0
CIRCLE
  5
3C6
330
1F
100
AcDbEntity
  8
Make2D$可见线$普通线
100
AcDbCircle
 10
702.17979143963
 20
1475.066154856308
 30
0.0
 40
0.5
  0
CIRCLE
  5
3C7
330
1F
100
AcDbEntity
  8
Make2D$可见线$普通线
100
AcDbCircle
 10
702.1797914396299
 20
1471.066154856308
 30
0.0
 40
1.0
  0
CIRCLE
  5
3C8
330
1F
100
AcDbEntity
  8
Make2D$可见线$普通线
100
AcDbCircle
 10
702.1797914396302
 20
1471.066154856308
 30
0.0
 40
0.5
  0
CIRCLE
  5
3C9
330
1F
100
AcDbEntity
  8
Make2D$可见线$普通线
100
AcDbCircle
 10
702.1797914396294
 20
1467.066154856309
 30
0.0
 40
0.9999999999997726
  0
CIRCLE
  5
3CA
330
1F
100
AcDbEntity
  8
Make2D$可见线$普通线
100
AcDbCircle
 10
702.1797914396305
 20
1467.066154856308
 30
0.0
 40
0.5000000000004547
  0
CIRCLE
  5
3CB
330
1F
100
AcDbEntity
  8
Make2D$可见线$普通线
100
AcDbCircle
 10
702.1797914396298
 20
1463.066154856308
 30
0.0
 40
1.0
  0
CIRCLE
  5
3CC
330
1F
100
AcDbEntity
  8
Make2D$可见线$普通线
100
AcDbCircle
 10
702.1797914396305
 20
1463.066154856308
 30
0.0
 40
0.5000000000002274
  0
CIRCLE
  5
3CD
330
1F
100
AcDbEntity
  8
Make2D$可见线$普通线
100
AcDbCircle
 10
702.1797914396304
 20
1459.066154856309
 30
0.0
 40
0.9999999999997726
  0
CIRCLE
  5
3CE
330
1F
100
AcDbEntity
  8
Make2D$可见线$普通线
100
AcDbCircle
 10
702.1797914396302
 20
1459.066154856308
 30
0.0
 40
0.5000000000004547
  0
CIRCLE
  5
3CF
330
1F
100
AcDbEntity
  8
Make2D$可见线$普通线
100
AcDbCircle
 10
702.1797914396307
 20
1455.066154856308
 30
0.0
 40
1.000000000000227
  0
CIRCLE
  5
3D0
330
1F
100
AcDbEntity
  8
Make2D$可见线$普通线
100
AcDbCircle
 10
702.1797914396301
 20
1455.066154856308
 30
0.0
 40
0.5
  0
ENDSEC
  0
SECTION
  2
OBJECTS
  0
DICTIONARY
  5
C
330
0
100
AcDbDictionary
281
     1
  3
ACAD_GROUP
350
D
  3
ACAD_LAYOUT
350
1A
  3
ACAD_MATERIAL
350
3B
  3
ACAD_MLEADERSTYLE
350
3FB
  3
ACAD_MLINESTYLE
350
17
  3
ACAD_PLOTSETTINGS
350
19
  3
ACAD_PLOTSTYLENAME
350
E
  3
ACAD_SCALELIST
350
3F
  3
ACAD_TABLESTYLE
350
3FA
  3
ACAD_VISUALSTYLE
350
2A
  3
AcDbVariableDictionary
350
3D1
  0
DICTIONARY
  5
D
102
{ACAD_REACTORS
330
C
102
}
330
C
100
AcDbDictionary
281
     1
  0
DICTIONARY
  5
1A
102
{ACAD_REACTORS
330
C
102
}
330
C
100
AcDbDictionary
281
     1
  3
Layout1
350
1E
  3
Layout2
350
26
  3
Model
350
22
  0
DICTIONARY
  5
3B
102
{ACAD_REACTORS
330
C
102
}
330
C
100
AcDbDictionary
281
     1
  3
ByBlock
350
3D
  3
ByLayer
350
3C
  3
Global
350
3E
  0
DICTIONARY
  5
3FB
102
{ACAD_REACTORS
330
C
102
}
330
C
100
AcDbDictionary
281
     1
  0
DICTIONARY
  5
17
102
{ACAD_REACTORS
330
C
102
}
330
C
100
AcDbDictionary
281
     1
  3
Standard
350
18
  0
DICTIONARY
  5
19
102
{ACAD_REACTORS
330
C
102
}
330
C
100
AcDbDictionary
281
     1
  0
ACDBDICTIONARYWDFLT
  5
E
102
{ACAD_REACTORS
330
C
102
}
330
C
100
AcDbDictionary
281
     1
  3
Normal
350
F
100
AcDbDictionaryWithDefault
340
F
  0
DICTIONARY
  5
3F
102
{ACAD_REACTORS
330
C
102
}
330
C
100
AcDbDictionary
281
     1
  3
A0
350
40
  3
A1
350
41
  3
A2
350
42
  3
A3
350
43
  3
A4
350
44
  3
A5
350
45
  3
A6
350
46
  3
A7
350
47
  3
A8
350
48
  3
A9
350
49
  3
B0
350
4A
  3
B1
350
4B
  3
B2
350
4C
  3
B3
350
4D
  3
B4
350
4E
  3
B5
350
4F
  3
B6
350
50
  3
B7
350
51
  3
B8
350
52
  3
B9
350
53
  3
C0
350
54
  3
C1
350
55
  3
C2
350
56
  3
C3
350
57
  3
C4
350
58
  3
C5
350
59
  3
C6
350
5A
  3
C7
350
5B
  3
C8
350
5C
  3
C9
350
5D
  3
D0
350
5E
  3
D1
350
5F
  3
D2
350
60
  0
DICTIONARY
  5
3FA
102
{ACAD_REACTORS
330
C
102
}
330
C
100
AcDbDictionary
281
     1
  0
DICTIONARY
  5
2A
102
{ACAD_REACTORS
330
C
102
}
330
C
100
AcDbDictionary
281
     1
  3
2dWireframe
350
2F
  3
3D Hidden
350
31
  3
3dWireframe
350
30
  3
Basic
350
32
  3
Brighten
350
36
  3
ColorChange
350
3A
  3
Conceptual
350
34
  3
Dim
350
35
  3
Facepattern
350
39
  3
Flat
350
2B
  3
FlatWithEdges
350
2C
  3
Gouraud
350
2D
  3
GouraudWithEdges
350
2E
  3
Linepattern
350
38
  3
Realistic
350
33
  3
Thicken
350
37
  0
DICTIONARY
  5
3D1
102
{ACAD_REACTORS
330
C
102
}
330
C
100
AcDbDictionary
281
     1
  3
CANNOSCALE
350
3D2
  3
MSLTSCALE
350
3D3
  0
LAYOUT
  5
1E
102
{ACAD_REACTORS
330
1A
102
}
330
1A
100
AcDbPlotSettings
  1

  2
none_device
  4

  6

 40
0.0
 41
0.0
 42
0.0
 43
0.0
 44
0.0
 45
0.0
 46
0.0
 47
0.0
 48
0.0
 49
0.0
140
0.0
141
0.0
142
1.0
143
1.0
 70
   688
 72
     0
 73
     0
 74
     5
  7

 75
    16
 76
     0
 77
     2
 78
   300
147
1.0
148
0.0
149
0.0
100
AcDbLayout
  1
Layout1
 70
     1
 71
     1
 10
0.0
 20
0.0
 11
12.0
 21
9.0
 12
0.0
 22
0.0
 32
0.0
 14
1.000000000000000E+20
 24
1.000000000000000E+20
 34
1.000000000000000E+20
 15
-1.000000000000000E+20
 25
-1.000000000000000E+20
 35
-1.000000000000000E+20
146
0.0
 13
0.0
 23
0.0
 33
0.0
 16
1.0
 26
0.0
 36
0.0
 17
0.0
 27
1.0
 37
0.0
 76
     0
330
1B
  0
LAYOUT
  5
26
102
{ACAD_REACTORS
330
1A
102
}
330
1A
100
AcDbPlotSettings
  1

  2
none_device
  4

  6

 40
0.0
 41
0.0
 42
0.0
 43
0.0
 44
0.0
 45
0.0
 46
0.0
 47
0.0
 48
0.0
 49
0.0
140
0.0
141
0.0
142
1.0
143
1.0
 70
   688
 72
     0
 73
     0
 74
     5
  7

 75
    16
 76
     0
 77
     2
 78
   300
147
1.0
148
0.0
149
0.0
100
AcDbLayout
  1
Layout2
 70
     1
 71
     2
 10
0.0
 20
0.0
 11
0.0
 21
0.0
 12
0.0
 22
0.0
 32
0.0
 14
0.0
 24
0.0
 34
0.0
 15
0.0
 25
0.0
 35
0.0
146
0.0
 13
0.0
 23
0.0
 33
0.0
 16
1.0
 26
0.0
 36
0.0
 17
0.0
 27
1.0
 37
0.0
 76
     0
330
23
  0
LAYOUT
  5
22
102
{ACAD_REACTORS
330
1A
102
}
330
1A
100
AcDbPlotSettings
  1

  2
none_device
  4
Letter_(8.50_x_11.00_Inches)
  6

 40
6.35
 41
6.35
 42
6.35000508
 43
6.35000508
 44
215.9
 45
279.4
 46
0.0
 47
0.0
 48
0.0
 49
0.0
140
0.0
141
0.0
142
1.0
143
1.0
 70
  1712
 72
     0
 73
     0
 74
     0
  7

 75
     0
 76
     0
 77
     2
 78
   300
147
1.0
148
0.0
149
0.0
100
AcDbLayout
  1
Model
 70
     1
 71
     0
 10
0.0
 20
0.0
 11
12.0
 21
9.0
 12
0.0
 22
0.0
 32
0.0
 14
61.7640290745494
 24
1297.066151974285
 34
0.0
 15
721.1802644527862
 25
1533.066158834926
 35
0.0
146
0.0
 13
0.0
 23
0.0
 33
0.0
 16
1.0
 26
0.0
 36
0.0
 17
0.0
 27
1.0
 37
0.0
 76
     0
330
1F
331
29
  0
MATERIAL
  5
3D
102
{ACAD_REACTORS
330
3B
102
}
102
{ACAD_XDICTIONARY
360
3F6
102
}
330
3B
100
AcDbMaterial
  1
ByBlock
  0
MATERIAL
  5
3C
102
{ACAD_REACTORS
330
3B
102
}
102
{ACAD_XDICTIONARY
360
3F4
102
}
330
3B
100
AcDbMaterial
  1
ByLayer
  0
MATERIAL
  5
3E
102
{ACAD_REACTORS
330
3B
102
}
102
{ACAD_XDICTIONARY
360
3F8
102
}
330
3B
100
AcDbMaterial
  1
Global
  0
MLINESTYLE
  5
18
102
{ACAD_REACTORS
330
17
102
}
330
17
100
AcDbMlineStyle
  2
Standard
 70
     0
  3

 62
   256
 51
90.0
 52
90.0
 71
     2
 49
0.5
 62
   256
  6
BYLAYER
 49
-0.5
 62
   256
  6
BYLAYER
  0
ACDBPLACEHOLDER
  5
F
102
{ACAD_REACTORS
330
E
102
}
330
E
  0
SCALE
  5
40
102
{ACAD_REACTORS
330
3F
102
}
330
3F
100
AcDbScale
 70
     0
300
1:1
140
1.0
141
1.0
290
     1
  0
SCALE
  5
41
102
{ACAD_REACTORS
330
3F
102
}
330
3F
100
AcDbScale
 70
     0
300
1:2
140
1.0
141
2.0
290
     0
  0
SCALE
  5
42
102
{ACAD_REACTORS
330
3F
102
}
330
3F
100
AcDbScale
 70
     0
300
1:4
140
1.0
141
4.0
290
     0
  0
SCALE
  5
43
102
{ACAD_REACTORS
330
3F
102
}
330
3F
100
AcDbScale
 70
     0
300
1:5
140
1.0
141
5.0
290
     0
  0
SCALE
  5
44
102
{ACAD_REACTORS
330
3F
102
}
330
3F
100
AcDbScale
 70
     0
300
1:8
140
1.0
141
8.0
290
     0
  0
SCALE
  5
45
102
{ACAD_REACTORS
330
3F
102
}
330
3F
100
AcDbScale
 70
     0
300
1:10
140
1.0
141
10.0
290
     0
  0
SCALE
  5
46
102
{ACAD_REACTORS
330
3F
102
}
330
3F
100
AcDbScale
 70
     0
300
1:16
140
1.0
141
16.0
290
     0
  0
SCALE
  5
47
102
{ACAD_REACTORS
330
3F
102
}
330
3F
100
AcDbScale
 70
     0
300
1:20
140
1.0
141
20.0
290
     0
  0
SCALE
  5
48
102
{ACAD_REACTORS
330
3F
102
}
330
3F
100
AcDbScale
 70
     0
300
1:30
140
1.0
141
30.0
290
     0
  0
SCALE
  5
49
102
{ACAD_REACTORS
330
3F
102
}
330
3F
100
AcDbScale
 70
     0
300
1:40
140
1.0
141
40.0
290
     0
  0
SCALE
  5
4A
102
{ACAD_REACTORS
330
3F
102
}
330
3F
100
AcDbScale
 70
     0
300
1:50
140
1.0
141
50.0
290
     0
  0
SCALE
  5
4B
102
{ACAD_REACTORS
330
3F
102
}
330
3F
100
AcDbScale
 70
     0
300
1:100
140
1.0
141
100.0
290
     0
  0
SCALE
  5
4C
102
{ACAD_REACTORS
330
3F
102
}
330
3F
100
AcDbScale
 70
     0
300
2:1
140
2.0
141
1.0
290
     0
  0
SCALE
  5
4D
102
{ACAD_REACTORS
330
3F
102
}
330
3F
100
AcDbScale
 70
     0
300
4:1
140
4.0
141
1.0
290
     0
  0
SCALE
  5
4E
102
{ACAD_REACTORS
330
3F
102
}
330
3F
100
AcDbScale
 70
     0
300
8:1
140
8.0
141
1.0
290
     0
  0
SCALE
  5
4F
102
{ACAD_REACTORS
330
3F
102
}
330
3F
100
AcDbScale
 70
     0
300
10:1
140
10.0
141
1.0
290
     0
  0
SCALE
  5
50
102
{ACAD_REACTORS
330
3F
102
}
330
3F
100
AcDbScale
 70
     0
300
100:1
140
100.0
141
1.0
290
     0
  0
SCALE
  5
51
102
{ACAD_REACTORS
330
3F
102
}
330
3F
100
AcDbScale
 70
     0
300
1/128" = 1'-0"
140
0.0078125
141
12.0
290
     0
  0
SCALE
  5
52
102
{ACAD_REACTORS
330
3F
102
}
330
3F
100
AcDbScale
 70
     0
300
1/64" = 1'-0"
140
0.015625
141
12.0
290
     0
  0
SCALE
  5
53
102
{ACAD_REACTORS
330
3F
102
}
330
3F
100
AcDbScale
 70
     0
300
1/32" = 1'-0"
140
0.03125
141
12.0
290
     0
  0
SCALE
  5
54
102
{ACAD_REACTORS
330
3F
102
}
330
3F
100
AcDbScale
 70
     0
300
1/16" = 1'-0"
140
0.0625
141
12.0
290
     0
  0
SCALE
  5
55
102
{ACAD_REACTORS
330
3F
102
}
330
3F
100
AcDbScale
 70
     0
300
3/32" = 1'-0"
140
0.09375
141
12.0
290
     0
  0
SCALE
  5
56
102
{ACAD_REACTORS
330
3F
102
}
330
3F
100
AcDbScale
 70
     0
300
1/8" = 1'-0"
140
0.125
141
12.0
290
     0
  0
SCALE
  5
57
102
{ACAD_REACTORS
330
3F
102
}
330
3F
100
AcDbScale
 70
     0
300
3/16" = 1'-0"
140
0.1875
141
12.0
290
     0
  0
SCALE
  5
58
102
{ACAD_REACTORS
330
3F
102
}
330
3F
100
AcDbScale
 70
     0
300
1/4" = 1'-0"
140
0.25
141
12.0
290
     0
  0
SCALE
  5
59
102
{ACAD_REACTORS
330
3F
102
}
330
3F
100
AcDbScale
 70
     0
300
3/8" = 1'-0"
140
0.375
141
12.0
290
     0
  0
SCALE
  5
5A
102
{ACAD_REACTORS
330
3F
102
}
330
3F
100
AcDbScale
 70
     0
300
1/2" = 1'-0"
140
0.5
141
12.0
290
     0
  0
SCALE
  5
5B
102
{ACAD_REACTORS
330
3F
102
}
330
3F
100
AcDbScale
 70
     0
300
3/4" = 1'-0"
140
0.75
141
12.0
290
     0
  0
SCALE
  5
5C
102
{ACAD_REACTORS
330
3F
102
}
330
3F
100
AcDbScale
 70
     0
300
1" = 1'-0"
140
1.0
141
12.0
290
     0
  0
SCALE
  5
5D
102
{ACAD_REACTORS
330
3F
102
}
330
3F
100
AcDbScale
 70
     0
300
1-1/2" = 1'-0"
140
1.5
141
12.0
290
     0
  0
SCALE
  5
5E
102
{ACAD_REACTORS
330
3F
102
}
330
3F
100
AcDbScale
 70
     0
300
3" = 1'-0"
140
3.0
141
12.0
290
     0
  0
SCALE
  5
5F
102
{ACAD_REACTORS
330
3F
102
}
330
3F
100
AcDbScale
 70
     0
300
6" = 1'-0"
140
6.0
141
12.0
290
     0
  0
SCALE
  5
60
102
{ACAD_REACTORS
330
3F
102
}
330
3F
100
AcDbScale
 70
     0
300
1'-0" = 1'-0"
140
12.0
141
12.0
290
     0
  0
VISUALSTYLE
  5
2F
102
{ACAD_REACTORS
330
2A
102
}
102
{ACAD_XDICTIONARY
360
3DC
102
}
330
2A
100
AcDbVisualStyle
  2
2dWireframe
 70
     4
 71
     0
 72
     2
 73
     0
 90
        0
 40
0.6
 41
30.0
 62
     5
 63
     7
421
 16777215
 74
     1
 91
        4
 64
     7
 65
   257
 75
     1
175
     1
 42
1.0
 92
        0
 66
   257
 43
1.0
 76
     1
 77
     6
 78
     2
 67
     7
 79
     5
170
     0
171
     0
290
     0
174
     0
 93
        1
 44
0.0
173
     0
291
     0
 45
0.0
1001
ACAD
1000
AcDbSavedByObjectVersion
1070
     0
  0
VISUALSTYLE
  5
31
102
{ACAD_REACTORS
330
2A
102
}
102
{ACAD_XDICTIONARY
360
3E0
102
}
330
2A
100
AcDbVisualStyle
  2
3D Hidden
 70
     6
 71
     1
 72
     2
 73
     2
 90
        0
 40
0.6
 41
30.0
 62
     5
 63
     7
421
 16777215
 74
     2
 91
        2
 64
     7
 65
   257
 75
     2
175
     1
 42
40.0
 92
        0
 66
   257
 43
1.0
 76
     1
 77
     6
 78
     2
 67
     7
 79
     3
170
     0
171
     0
290
     0
174
     0
 93
        1
 44
0.0
173
     0
291
     0
 45
0.0
1001
ACAD
1000
AcDbSavedByObjectVersion
1070
     0
  0
VISUALSTYLE
  5
30
102
{ACAD_REACTORS
330
2A
102
}
102
{ACAD_XDICTIONARY
360
3DE
102
}
330
2A
100
AcDbVisualStyle
  2
3dWireframe
 70
     5
 71
     0
 72
     2
 73
     0
 90
        0
 40
0.6
 41
30.0
 62
     5
 63
     7
421
 16777215
 74
     1
 91
        4
 64
     7
 65
   257
 75
     1
175
     1
 42
1.0
 92
        0
 66
   257
 43
1.0
 76
     1
 77
     6
 78
     2
 67
     7
 79
     5
170
     0
171
     0
290
     0
174
     0
 93
        1
 44
0.0
173
     0
291
     0
 45
0.0
1001
ACAD
1000
AcDbSavedByObjectVersion
1070
     0
  0
VISUALSTYLE
  5
32
102
{ACAD_REACTORS
330
2A
102
}
102
{ACAD_XDICTIONARY
360
3E2
102
}
330
2A
100
AcDbVisualStyle
  2
Basic
 70
     7
 71
     1
 72
     0
 73
     1
 90
        0
 40
0.6
 41
30.0
 62
     5
 63
     7
421
 16777215
 74
     0
 91
        4
 64
     7
 65
   257
 75
     1
175
     1
 42
1.0
 92
        8
 66
     7
 43
1.0
 76
     1
 77
     6
 78
     2
 67
     7
 79
     5
170
     0
171
     0
290
     0
174
     0
 93
        1
 44
0.0
173
     0
291
     1
 45
0.0
1001
ACAD
1000
AcDbSavedByObjectVersion
1070
     0
  0
VISUALSTYLE
  5
36
102
{ACAD_REACTORS
330
2A
102
}
102
{ACAD_XDICTIONARY
360
3EA
102
}
330
2A
100
AcDbVisualStyle
  2
Brighten
 70
    12
 71
     2
 72
     2
 73
     0
 90
        0
 40
0.6
 41
30.0
 62
     5
 63
     7
421
 16777215
 74
     1
 91
        4
 64
     7
 65
   257
 75
     1
175
     1
 42
1.0
 92
        8
 66
     7
 43
1.0
 76
     1
 77
     6
 78
     2
 67
     7
 79
     5
170
     0
171
     0
290
     0
174
     0
 93
        1
 44
50.0
173
     0
291
     1
 45
0.0
1001
ACAD
1000
AcDbSavedByObjectVersion
1070
     0
  0
VISUALSTYLE
  5
3A
102
{ACAD_REACTORS
330
2A
102
}
102
{ACAD_XDICTIONARY
360
3F2
102
}
330
2A
100
AcDbVisualStyle
  2
ColorChange
 70
    16
 71
     2
 72
     2
 73
     3
 90
        0
 40
0.6
 41
30.0
 62
     5
 63
     8
421
  8421504
 74
     1
 91
        4
 64
     7
 65
   257
 75
     1
175
     1
 42
1.0
 92
        8
 66
     8
424
  8421504
 43
1.0
 76
     1
 77
     6
 78
     2
 67
     7
 79
     5
170
     0
171
     0
290
     0
174
     0
 93
        1
 44
0.0
173
     0
291
     1
 45
0.0
1001
ACAD
1000
AcDbSavedByObjectVersion
1070
     0
  0
VISUALSTYLE
  5
34
102
{ACAD_REACTORS
330
2A
102
}
102
{ACAD_XDICTIONARY
360
3E6
102
}
330
2A
100
AcDbVisualStyle
  2
Conceptual
 70
     9
 71
     3
 72
     2
 73
     0
 90
        0
 40
0.6
 41
30.0
 62
     5
 63
     7
421
 16777215
 74
     2
 91
        2
 64
     7
 65
   257
 75
     1
175
     1
 42
40.0
 92
        8
 66
     7
 43
1.0
 76
     1
 77
     6
 78
     2
 67
     7
 79
     3
170
     0
171
     0
290
     0
174
     0
 93
        1
 44
0.0
173
     0
291
     0
 45
0.0
1001
ACAD
1000
AcDbSavedByObjectVersion
1070
     0
  0
VISUALSTYLE
  5
35
102
{ACAD_REACTORS
330
2A
102
}
102
{ACAD_XDICTIONARY
360
3E8
102
}
330
2A
100
AcDbVisualStyle
  2
Dim
 70
    11
 71
     2
 72
     2
 73
     0
 90
        0
 40
0.6
 41
30.0
 62
     5
 63
     7
421
 16777215
 74
     1
 91
        4
 64
     7
 65
   257
 75
     1
175
     1
 42
1.0
 92
        8
 66
     7
 43
1.0
 76
     1
 77
     6
 78
     2
 67
     7
 79
     5
170
     0
171
     0
290
     0
174
     0
 93
        1
 44
-50.0
173
     0
291
     1
 45
0.0
1001
ACAD
1000
AcDbSavedByObjectVersion
1070
     0
  0
VISUALSTYLE
  5
39
102
{ACAD_REACTORS
330
2A
102
}
102
{ACAD_XDICTIONARY
360
3F0
102
}
330
2A
100
AcDbVisualStyle
  2
Facepattern
 70
    15
 71
     2
 72
     2
 73
     0
 90
        0
 40
0.6
 41
30.0
 62
     5
 63
     7
421
 16777215
 74
     1
 91
        4
 64
     7
 65
   257
 75
     1
175
     1
 42
1.0
 92
        8
 66
     7
 43
1.0
 76
     1
 77
     6
 78
     2
 67
     7
 79
     5
170
     0
171
     0
290
     0
174
     0
 93
        1
 44
0.0
173
     0
291
     1
 45
0.0
1001
ACAD
1000
AcDbSavedByObjectVersion
1070
     0
  0
VISUALSTYLE
  5
2B
102
{ACAD_REACTORS
330
2A
102
}
102
{ACAD_XDICTIONARY
360
3D4
102
}
330
2A
100
AcDbVisualStyle
  2
Flat
 70
     0
 71
     2
 72
     1
 73
     1
 90
        2
 40
0.6
 41
30.0
 62
     5
 63
     7
421
 16777215
 74
     0
 91
        4
 64
     7
 65
   257
 75
     1
175
     1
 42
1.0
 92
        8
 66
     7
 43
1.0
 76
     1
 77
     6
 78
     2
 67
     7
 79
     5
170
     0
171
     0
290
     0
174
     0
 93
       13
 44
0.0
173
     0
291
     1
 45
0.0
1001
ACAD
1000
AcDbSavedByObjectVersion
1070
     0
  0
VISUALSTYLE
  5
2C
102
{ACAD_REACTORS
330
2A
102
}
102
{ACAD_XDICTIONARY
360
3D6
102
}
330
2A
100
AcDbVisualStyle
  2
FlatWithEdges
 70
     1
 71
     2
 72
     1
 73
     1
 90
        2
 40
0.6
 41
30.0
 62
     5
 63
     7
421
 16777215
 74
     1
 91
        4
 64
     7
 65
   257
 75
     1
175
     1
 42
1.0
 92
        0
 66
   257
 43
1.0
 76
     1
 77
     6
 78
     2
 67
     7
 79
     5
170
     0
171
     0
290
     0
174
     0
 93
       13
 44
0.0
173
     0
291
     1
 45
0.0
1001
ACAD
1000
AcDbSavedByObjectVersion
1070
     0
  0
VISUALSTYLE
  5
2D
102
{ACAD_REACTORS
330
2A
102
}
102
{ACAD_XDICTIONARY
360
3D8
102
}
330
2A
100
AcDbVisualStyle
  2
Gouraud
 70
     2
 71
     2
 72
     2
 73
     1
 90
        2
 40
0.6
 41
30.0
 62
     5
 63
     7
421
 16777215
 74
     0
 91
        4
 64
     7
 65
   257
 75
     1
175
     1
 42
1.0
 92
        0
 66
     7
 43
1.0
 76
     1
 77
     6
 78
     2
 67
     7
 79
     5
170
     0
171
     0
290
     0
174
     0
 93
       13
 44
0.0
173
     0
291
     1
 45
0.0
1001
ACAD
1000
AcDbSavedByObjectVersion
1070
     0
  0
VISUALSTYLE
  5
2E
102
{ACAD_REACTORS
330
2A
102
}
102
{ACAD_XDICTIONARY
360
3DA
102
}
330
2A
100
AcDbVisualStyle
  2
GouraudWithEdges
 70
     3
 71
     2
 72
     2
 73
     1
 90
        2
 40
0.6
 41
30.0
 62
     5
 63
     7
421
 16777215
 74
     1
 91
        4
 64
     7
 65
   257
 75
     1
175
     1
 42
1.0
 92
        0
 66
   257
 43
1.0
 76
     1
 77
     6
 78
     2
 67
     7
 79
     5
170
     0
171
     0
290
     0
174
     0
 93
       13
 44
0.0
173
     0
291
     1
 45
0.0
1001
ACAD
1000
AcDbSavedByObjectVersion
1070
     0
  0
VISUALSTYLE
  5
38
102
{ACAD_REACTORS
330
2A
102
}
102
{ACAD_XDICTIONARY
360
3EE
102
}
330
2A
100
AcDbVisualStyle
  2
Linepattern
 70
    14
 71
     2
 72
     2
 73
     0
 90
        0
 40
0.6
 41
30.0
 62
     5
 63
     7
421
 16777215
 74
     1
 91
        4
 64
     7
 65
   257
 75
     7
175
     7
 42
1.0
 92
        8
 66
     7
 43
1.0
 76
     1
 77
     6
 78
     2
 67
     7
 79
     5
170
     0
171
     0
290
     0
174
     0
 93
        1
 44
0.0
173
     0
291
     1
 45
0.0
1001
ACAD
1000
AcDbSavedByObjectVersion
1070
     0
  0
VISUALSTYLE
  5
33
102
{ACAD_REACTORS
330
2A
102
}
102
{ACAD_XDICTIONARY
360
3E4
102
}
330
2A
100
AcDbVisualStyle
  2
Realistic
 70
     8
 71
     2
 72
     3
 73
     0
 90
        2
 40
0.6
 41
30.0
 62
     5
 63
     7
421
 16777215
 74
     0
 91
        0
 64
     7
 65
   257
 75
     1
175
     1
 42
1.0
 92
        8
 66
   257
 43
1.0
 76
     1
 77
     6
 78
     2
 67
     7
 79
     3
170
     0
171
     0
290
     0
174
     0
 93
       13
 44
0.0
173
     0
291
     0
 45
0.0
1001
ACAD
1000
AcDbSavedByObjectVersion
1070
     0
  0
VISUALSTYLE
  5
37
102
{ACAD_REACTORS
330
2A
102
}
102
{ACAD_XDICTIONARY
360
3EC
102
}
330
2A
100
AcDbVisualStyle
  2
Thicken
 70
    13
 71
     2
 72
     2
 73
     0
 90
        0
 40
0.6
 41
30.0
 62
     5
 63
     7
421
 16777215
 74
     1
 91
        4
 64
     7
 65
   257
 75
     1
175
     1
 42
1.0
 92
       12
 66
     7
 43
1.0
 76
     1
 77
     6
 78
     2
 67
     7
 79
     5
170
     0
171
     0
290
     0
174
     0
 93
        1
 44
0.0
173
     0
291
     1
 45
0.0
1001
ACAD
1000
AcDbSavedByObjectVersion
1070
     0
  0
DICTIONARYVAR
  5
3D2
102
{ACAD_REACTORS
330
3D1
102
}
330
3D1
100
DictionaryVariables
280
     0
  1
1:1
  0
DICTIONARYVAR
  5
3D3
102
{ACAD_REACTORS
330
3D1
102
}
330
3D1
100
DictionaryVariables
280
     0
  1
1
  0
DICTIONARY
  5
3F6
330
3D
100
AcDbDictionary
280
     1
281
     1
  3
ACAD_XREC_ROUNDTRIP
360
3F7
  0
DICTIONARY
  5
3F4
330
3C
100
AcDbDictionary
280
     1
281
     1
  3
ACAD_XREC_ROUNDTRIP
360
3F5
  0
DICTIONARY
  5
3F8
330
3E
100
AcDbDictionary
280
     1
281
     1
  3
ACAD_XREC_ROUNDTRIP
360
3F9
  0
DICTIONARY
  5
3DC
330
2F
100
AcDbDictionary
280
     1
281
     1
  3
ACAD_XREC_ROUNDTRIP
360
3DD
  0
DICTIONARY
  5
3E0
330
31
100
AcDbDictionary
280
     1
281
     1
  3
ACAD_XREC_ROUNDTRIP
360
3E1
  0
DICTIONARY
  5
3DE
330
30
100
AcDbDictionary
280
     1
281
     1
  3
ACAD_XREC_ROUNDTRIP
360
3DF
  0
DICTIONARY
  5
3E2
330
32
100
AcDbDictionary
280
     1
281
     1
  3
ACAD_XREC_ROUNDTRIP
360
3E3
  0
DICTIONARY
  5
3EA
330
36
100
AcDbDictionary
280
     1
281
     1
  3
ACAD_XREC_ROUNDTRIP
360
3EB
  0
DICTIONARY
  5
3F2
330
3A
100
AcDbDictionary
280
     1
281
     1
  3
ACAD_XREC_ROUNDTRIP
360
3F3
  0
DICTIONARY
  5
3E6
330
34
100
AcDbDictionary
280
     1
281
     1
  3
ACAD_XREC_ROUNDTRIP
360
3E7
  0
DICTIONARY
  5
3E8
330
35
100
AcDbDictionary
280
     1
281
     1
  3
ACAD_XREC_ROUNDTRIP
360
3E9
  0
DICTIONARY
  5
3F0
330
39
100
AcDbDictionary
280
     1
281
     1
  3
ACAD_XREC_ROUNDTRIP
360
3F1
  0
DICTIONARY
  5
3D4
330
2B
100
AcDbDictionary
280
     1
281
     1
  3
ACAD_XREC_ROUNDTRIP
360
3D5
  0
DICTIONARY
  5
3D6
330
2C
100
AcDbDictionary
280
     1
281
     1
  3
ACAD_XREC_ROUNDTRIP
360
3D7
  0
DICTIONARY
  5
3D8
330
2D
100
AcDbDictionary
280
     1
281
     1
  3
ACAD_XREC_ROUNDTRIP
360
3D9
  0
DICTIONARY
  5
3DA
330
2E
100
AcDbDictionary
280
     1
281
     1
  3
ACAD_XREC_ROUNDTRIP
360
3DB
  0
DICTIONARY
  5
3EE
330
38
100
AcDbDictionary
280
     1
281
     1
  3
ACAD_XREC_ROUNDTRIP
360
3EF
  0
DICTIONARY
  5
3E4
330
33
100
AcDbDictionary
280
     1
281
     1
  3
ACAD_XREC_ROUNDTRIP
360
3E5
  0
DICTIONARY
  5
3EC
330
37
100
AcDbDictionary
280
     1
281
     1
  3
ACAD_XREC_ROUNDTRIP
360
3ED
  0
XRECORD
  5
3F7
102
{ACAD_REACTORS
330
3F6
102
}
330
3F6
100
AcDbXrecord
280
     1
102
MATERIAL
148
0.0
149
0.0
149
0.0
 93
        0
 94
      127
282
     0
 72
     1
 77
     1
171
     1
175
     1
179
     1
273
     0
  0
XRECORD
  5
3F5
102
{ACAD_REACTORS
330
3F4
102
}
330
3F4
100
AcDbXrecord
280
     1
102
MATERIAL
148
0.0
149
0.0
149
0.0
 93
        0
 94
      127
282
     0
 72
     1
 77
     1
171
     1
175
     1
179
     1
273
     0
  0
XRECORD
  5
3F9
102
{ACAD_REACTORS
330
3F8
102
}
330
3F8
100
AcDbXrecord
280
     1
102
MATERIAL
148
0.0
149
0.0
149
0.0
 93
        0
 94
      127
282
     0
 72
     1
 77
     1
171
     1
175
     1
179
     1
273
     0
  0
XRECORD
  5
3DD
102
{ACAD_REACTORS
330
3DC
102
}
330
3DC
100
AcDbXrecord
280
     1
102
RTVSPropertyOp0
 70
     1
102
RTVSPropertyOp1
 70
     1
102
RTVSPropertyOp2
 70
     1
102
RTVSPropertyOp3
 70
     1
102
RTVSPropertyOp4
 70
     1
102
RTVSPropertyOp5
 70
     1
102
RTVSPropertyOp6
 70
     1
102
RTVSPropertyOp7
 70
     1
102
RTVSPropertyOp8
 70
     1
102
RTVSPropertyOp9
 70
     1
102
RTVSPropertyOp10
 70
     1
102
RTVSPropertyOp11
 70
     1
102
RTVSPropertyOp12
 70
     1
102
RTVSPropertyOp13
 70
     1
102
RTVSPropertyOp14
 70
     1
102
RTVSPropertyOp15
 70
     1
102
RTVSPropertyOp16
 70
     1
102
RTVSPropertyOp17
 70
     1
102
RTVSPropertyOp18
 70
     1
102
RTVSPropertyOp19
 70
     1
102
RTVSPropertyOp20
 70
     1
102
RTVSPropertyOp21
 70
     1
102
RTVSPropertyOp22
 70
     1
102
RTVSPropertyOp23
 70
     1
102
RTVSPropertyOp24
 70
     1
102
RTVSPropertyOp25
 70
     1
102
RTVSPropertyOp26
 70
     1
102
RTVSPropertyOp27
 70
     1
102
RTVSPropertyOp28
 70
     1
102
RTVSPropertyOp29
 70
     1
102
RTVSPropertyOp30
 70
     1
102
RTVSPropertyOp31
 70
     1
102
RTVSPropertyOp32
 70
     1
102
RTVSPropertyOp33
 70
     1
102
RTVSPropertyOp34
 70
     1
102
RTVSPropertyOp35
 70
     1
102
RTVSPropertyOp36
 70
     1
102
RTVSPropertyOp37
 70
     1
102
RTVSPropertyOp38
 70
     1
102
RTVSPropertyOp39
 70
     1
102
RTVSPropertyOp40
 70
     1
102
RTVSPropertyOp41
 70
     1
102
RTVSPropertyOp42
 70
     1
102
RTVSPropertyOp43
 70
     1
102
RTVSPropertyOp44
 70
     1
102
RTVSPropertyOp45
 70
     1
102
RTVSPropertyOp46
 70
     1
102
RTVSPropertyOp47
 70
     1
102
RTVSPropertyOp48
 70
     1
102
RTVSPropertyOp49
 70
     1
102
RTVSPropertyOp50
 70
     1
102
RTVSPropertyOp51
 70
     0
102
RTVSPropertyOp52
 70
     0
102
RTVSPropertyOp53
 70
     1
102
RTVSPropertyOp54
 70
     1
102
RTVSPropertyOp55
 70
     1
102
RTVSPropertyOp56
 70
     1
102
RTVSPropertyOp57
 70
     1
102
RTVSPost2010Prop28
280
     1
102
RTVSPost2010PropOp28
 70
     1
102
RTVSPost2010Prop29
280
     1
102
RTVSPost2010PropOp29
 70
     1
102
RTVSPost2010Prop30
280
     0
102
RTVSPost2010PropOp30
 70
     1
102
RTVSPost2010Prop31
280
     0
102
RTVSPost2010PropOp31
 70
     1
102
RTVSPost2010Prop32
280
     0
102
RTVSPost2010PropOp32
 70
     1
102
RTVSPost2010Prop33
280
     0
102
RTVSPost2010PropOp33
 70
     1
102
RTVSPost2010Prop34
280
     0
102
RTVSPost2010PropOp34
 70
     1
102
RTVSPost2010Prop35
280
     0
102
RTVSPost2010PropOp35
 70
     1
102
RTVSPost2010Prop36
280
     0
102
RTVSPost2010PropOp36
 70
     1
102
RTVSPost2010Prop37
 90
       50
102
RTVSPost2010PropOp37
 70
     1
102
RTVSPost2010Prop38
140
0.0
102
RTVSPost2010PropOp38
 70
     1
102
RTVSPost2010Prop39
140
1.0
102
RTVSPost2010PropOp39
 70
     1
102
RTVSPost2010Prop40
 90
        0
102
RTVSPost2010PropOp40
 70
     1
102
RTVSPost2010Prop41ColorIndex
 90
       18
102
RTVSPost2010Prop41ColorRGB
 90
        0
102
RTVSPost2010PropOp41
 70
     1
102
RTVSPost2010Prop42
 90
       50
102
RTVSPost2010PropOp42
 70
     1
102
RTVSPost2010Prop43
 90
        3
102
RTVSPost2010PropOp43
 70
     1
102
RTVSPost2010Prop44ColorIndex
 90
        5
102
RTVSPost2010Prop44ColorRGB
 90
      255
102
RTVSPost2010PropOp44
 70
     1
102
RTVSPost2010Prop45
280
     0
102
RTVSPost2010PropOp45
 70
     1
102
RTVSPost2010Prop46
 90
       50
102
RTVSPost2010PropOp46
 70
     1
102
RTVSPost2010Prop47
 90
       50
102
RTVSPost2010PropOp47
 70
     1
102
RTVSPost2010Prop48
 90
       50
102
RTVSPost2010PropOp48
 70
     1
102
RTVSPost2010Prop49
280
     0
102
RTVSPost2010PropOp49
 70
     1
102
RTVSPost2010Prop50
 90
       50
102
RTVSPost2010PropOp50
 70
     1
102
RTVSPost2010Prop51ColorIndex
 90
      256
102
RTVSPost2010Prop51ColorRGB
 90
-16777216
102
RTVSPost2010PropOp51
 70
     0
102
RTVSPost2010Prop52
140
1.0
102
RTVSPost2010PropOp52
 70
     0
102
RTVSPost2010Prop53
 90
        2
102
RTVSPost2010PropOp53
 70
     1
102
RTVSPost2010Prop54
  1
strokes_ogs.tif
102
RTVSPost2010PropOp54
 70
     1
102
RTVSPost2010Prop55
280
     0
102
RTVSPost2010PropOp55
 70
     1
102
RTVSPost2010Prop56
140
1.0
102
RTVSPost2010PropOp56
 70
     1
102
RTVSPost2010Prop57
140
1.0
102
RTVSPost2010PropOp57
 70
     1
  0
XRECORD
  5
3E1
102
{ACAD_REACTORS
330
3E0
102
}
330
3E0
100
AcDbXrecord
280
     1
102
RTVSPropertyOp0
 70
     1
102
RTVSPropertyOp1
 70
     1
102
RTVSPropertyOp2
 70
     1
102
RTVSPropertyOp3
 70
     1
102
RTVSPropertyOp4
 70
     1
102
RTVSPropertyOp5
 70
     1
102
RTVSPropertyOp6
 70
     1
102
RTVSPropertyOp7
 70
     1
102
RTVSPropertyOp8
 70
     1
102
RTVSPropertyOp9
 70
     1
102
RTVSPropertyOp10
 70
     1
102
RTVSPropertyOp11
 70
     1
102
RTVSPropertyOp12
 70
     1
102
RTVSPropertyOp13
 70
     1
102
RTVSPropertyOp14
 70
     1
102
RTVSPropertyOp15
 70
     1
102
RTVSPropertyOp16
 70
     1
102
RTVSPropertyOp17
 70
     1
102
RTVSPropertyOp18
 70
     1
102
RTVSPropertyOp19
 70
     1
102
RTVSPropertyOp20
 70
     1
102
RTVSPropertyOp21
 70
     1
102
RTVSPropertyOp22
 70
     1
102
RTVSPropertyOp23
 70
     1
102
RTVSPropertyOp24
 70
     1
102
RTVSPropertyOp25
 70
     1
102
RTVSPropertyOp26
 70
     1
102
RTVSPropertyOp27
 70
     1
102
RTVSPropertyOp28
 70
     1
102
RTVSPropertyOp29
 70
     1
102
RTVSPropertyOp30
 70
     1
102
RTVSPropertyOp31
 70
     1
102
RTVSPropertyOp32
 70
     1
102
RTVSPropertyOp33
 70
     1
102
RTVSPropertyOp34
 70
     1
102
RTVSPropertyOp35
 70
     1
102
RTVSPropertyOp36
 70
     1
102
RTVSPropertyOp37
 70
     1
102
RTVSPropertyOp38
 70
     1
102
RTVSPropertyOp39
 70
     1
102
RTVSPropertyOp40
 70
     1
102
RTVSPropertyOp41
 70
     1
102
RTVSPropertyOp42
 70
     1
102
RTVSPropertyOp43
 70
     1
102
RTVSPropertyOp44
 70
     1
102
RTVSPropertyOp45
 70
     1
102
RTVSPropertyOp46
 70
     1
102
RTVSPropertyOp47
 70
     1
102
RTVSPropertyOp48
 70
     1
102
RTVSPropertyOp49
 70
     1
102
RTVSPropertyOp50
 70
     1
102
RTVSPropertyOp51
 70
     0
102
RTVSPropertyOp52
 70
     0
102
RTVSPropertyOp53
 70
     1
102
RTVSPropertyOp54
 70
     1
102
RTVSPropertyOp55
 70
     1
102
RTVSPropertyOp56
 70
     1
102
RTVSPropertyOp57
 70
     1
102
RTVSPost2010Prop28
280
     0
102
RTVSPost2010PropOp28
 70
     1
102
RTVSPost2010Prop29
280
     1
102
RTVSPost2010PropOp29
 70
     1
102
RTVSPost2010Prop30
280
     1
102
RTVSPost2010PropOp30
 70
     1
102
RTVSPost2010Prop31
280
     0
102
RTVSPost2010PropOp31
 70
     1
102
RTVSPost2010Prop32
280
     0
102
RTVSPost2010PropOp32
 70
     1
102
RTVSPost2010Prop33
280
     0
102
RTVSPost2010PropOp33
 70
     1
102
RTVSPost2010Prop34
280
     0
102
RTVSPost2010PropOp34
 70
     1
102
RTVSPost2010Prop35
280
     0
102
RTVSPost2010PropOp35
 70
     1
102
RTVSPost2010Prop36
280
     0
102
RTVSPost2010PropOp36
 70
     1
102
RTVSPost2010Prop37
 90
       50
102
RTVSPost2010PropOp37
 70
     1
102
RTVSPost2010Prop38
140
0.0
102
RTVSPost2010PropOp38
 70
     1
102
RTVSPost2010Prop39
140
1.0
102
RTVSPost2010PropOp39
 70
     1
102
RTVSPost2010Prop40
 90
        0
102
RTVSPost2010PropOp40
 70
     1
102
RTVSPost2010Prop41ColorIndex
 90
       18
102
RTVSPost2010Prop41ColorRGB
 90
        0
102
RTVSPost2010PropOp41
 70
     1
102
RTVSPost2010Prop42
 90
       50
102
RTVSPost2010PropOp42
 70
     1
102
RTVSPost2010Prop43
 90
        3
102
RTVSPost2010PropOp43
 70
     1
102
RTVSPost2010Prop44ColorIndex
 90
        5
102
RTVSPost2010Prop44ColorRGB
 90
      255
102
RTVSPost2010PropOp44
 70
     1
102
RTVSPost2010Prop45
280
     0
102
RTVSPost2010PropOp45
 70
     1
102
RTVSPost2010Prop46
 90
       50
102
RTVSPost2010PropOp46
 70
     1
102
RTVSPost2010Prop47
 90
       50
102
RTVSPost2010PropOp47
 70
     1
102
RTVSPost2010Prop48
 90
       50
102
RTVSPost2010PropOp48
 70
     1
102
RTVSPost2010Prop49
280
     0
102
RTVSPost2010PropOp49
 70
     1
102
RTVSPost2010Prop50
 90
       50
102
RTVSPost2010PropOp50
 70
     1
102
RTVSPost2010Prop51ColorIndex
 90
      256
102
RTVSPost2010Prop51ColorRGB
 90
-16777216
102
RTVSPost2010PropOp51
 70
     0
102
RTVSPost2010Prop52
140
1.0
102
RTVSPost2010PropOp52
 70
     0
102
RTVSPost2010Prop53
 90
        2
102
RTVSPost2010PropOp53
 70
     1
102
RTVSPost2010Prop54
  1
strokes_ogs.tif
102
RTVSPost2010PropOp54
 70
     1
102
RTVSPost2010Prop55
280
     0
102
RTVSPost2010PropOp55
 70
     1
102
RTVSPost2010Prop56
140
1.0
102
RTVSPost2010PropOp56
 70
     1
102
RTVSPost2010Prop57
140
1.0
102
RTVSPost2010PropOp57
 70
     1
  0
XRECORD
  5
3DF
102
{ACAD_REACTORS
330
3DE
102
}
330
3DE
100
AcDbXrecord
280
     1
102
RTVSPropertyOp0
 70
     1
102
RTVSPropertyOp1
 70
     1
102
RTVSPropertyOp2
 70
     1
102
RTVSPropertyOp3
 70
     1
102
RTVSPropertyOp4
 70
     1
102
RTVSPropertyOp5
 70
     1
102
RTVSPropertyOp6
 70
     1
102
RTVSPropertyOp7
 70
     1
102
RTVSPropertyOp8
 70
     1
102
RTVSPropertyOp9
 70
     1
102
RTVSPropertyOp10
 70
     1
102
RTVSPropertyOp11
 70
     1
102
RTVSPropertyOp12
 70
     1
102
RTVSPropertyOp13
 70
     1
102
RTVSPropertyOp14
 70
     1
102
RTVSPropertyOp15
 70
     1
102
RTVSPropertyOp16
 70
     1
102
RTVSPropertyOp17
 70
     1
102
RTVSPropertyOp18
 70
     1
102
RTVSPropertyOp19
 70
     1
102
RTVSPropertyOp20
 70
     1
102
RTVSPropertyOp21
 70
     1
102
RTVSPropertyOp22
 70
     1
102
RTVSPropertyOp23
 70
     1
102
RTVSPropertyOp24
 70
     1
102
RTVSPropertyOp25
 70
     1
102
RTVSPropertyOp26
 70
     1
102
RTVSPropertyOp27
 70
     1
102
RTVSPropertyOp28
 70
     1
102
RTVSPropertyOp29
 70
     1
102
RTVSPropertyOp30
 70
     1
102
RTVSPropertyOp31
 70
     1
102
RTVSPropertyOp32
 70
     1
102
RTVSPropertyOp33
 70
     1
102
RTVSPropertyOp34
 70
     1
102
RTVSPropertyOp35
 70
     1
102
RTVSPropertyOp36
 70
     1
102
RTVSPropertyOp37
 70
     1
102
RTVSPropertyOp38
 70
     1
102
RTVSPropertyOp39
 70
     1
102
RTVSPropertyOp40
 70
     1
102
RTVSPropertyOp41
 70
     1
102
RTVSPropertyOp42
 70
     1
102
RTVSPropertyOp43
 70
     1
102
RTVSPropertyOp44
 70
     1
102
RTVSPropertyOp45
 70
     1
102
RTVSPropertyOp46
 70
     1
102
RTVSPropertyOp47
 70
     1
102
RTVSPropertyOp48
 70
     1
102
RTVSPropertyOp49
 70
     1
102
RTVSPropertyOp50
 70
     1
102
RTVSPropertyOp51
 70
     0
102
RTVSPropertyOp52
 70
     0
102
RTVSPropertyOp53
 70
     1
102
RTVSPropertyOp54
 70
     1
102
RTVSPropertyOp55
 70
     1
102
RTVSPropertyOp56
 70
     1
102
RTVSPropertyOp57
 70
     1
102
RTVSPost2010Prop28
280
     0
102
RTVSPost2010PropOp28
 70
     1
102
RTVSPost2010Prop29
280
     1
102
RTVSPost2010PropOp29
 70
     1
102
RTVSPost2010Prop30
280
     1
102
RTVSPost2010PropOp30
 70
     1
102
RTVSPost2010Prop31
280
     0
102
RTVSPost2010PropOp31
 70
     1
102
RTVSPost2010Prop32
280
     0
102
RTVSPost2010PropOp32
 70
     1
102
RTVSPost2010Prop33
280
     0
102
RTVSPost2010PropOp33
 70
     1
102
RTVSPost2010Prop34
280
     0
102
RTVSPost2010PropOp34
 70
     1
102
RTVSPost2010Prop35
280
     0
102
RTVSPost2010PropOp35
 70
     1
102
RTVSPost2010Prop36
280
     0
102
RTVSPost2010PropOp36
 70
     1
102
RTVSPost2010Prop37
 90
       50
102
RTVSPost2010PropOp37
 70
     1
102
RTVSPost2010Prop38
140
0.0
102
RTVSPost2010PropOp38
 70
     1
102
RTVSPost2010Prop39
140
1.0
102
RTVSPost2010PropOp39
 70
     1
102
RTVSPost2010Prop40
 90
        0
102
RTVSPost2010PropOp40
 70
     1
102
RTVSPost2010Prop41ColorIndex
 90
       18
102
RTVSPost2010Prop41ColorRGB
 90
        0
102
RTVSPost2010PropOp41
 70
     1
102
RTVSPost2010Prop42
 90
       50
102
RTVSPost2010PropOp42
 70
     1
102
RTVSPost2010Prop43
 90
        3
102
RTVSPost2010PropOp43
 70
     1
102
RTVSPost2010Prop44ColorIndex
 90
        5
102
RTVSPost2010Prop44ColorRGB
 90
      255
102
RTVSPost2010PropOp44
 70
     1
102
RTVSPost2010Prop45
280
     0
102
RTVSPost2010PropOp45
 70
     1
102
RTVSPost2010Prop46
 90
       50
102
RTVSPost2010PropOp46
 70
     1
102
RTVSPost2010Prop47
 90
       50
102
RTVSPost2010PropOp47
 70
     1
102
RTVSPost2010Prop48
 90
       50
102
RTVSPost2010PropOp48
 70
     1
102
RTVSPost2010Prop49
280
     0
102
RTVSPost2010PropOp49
 70
     1
102
RTVSPost2010Prop50
 90
       50
102
RTVSPost2010PropOp50
 70
     1
102
RTVSPost2010Prop51ColorIndex
 90
      256
102
RTVSPost2010Prop51ColorRGB
 90
-16777216
102
RTVSPost2010PropOp51
 70
     0
102
RTVSPost2010Prop52
140
1.0
102
RTVSPost2010PropOp52
 70
     0
102
RTVSPost2010Prop53
 90
        2
102
RTVSPost2010PropOp53
 70
     1
102
RTVSPost2010Prop54
  1
strokes_ogs.tif
102
RTVSPost2010PropOp54
 70
     1
102
RTVSPost2010Prop55
280
     0
102
RTVSPost2010PropOp55
 70
     1
102
RTVSPost2010Prop56
140
1.0
102
RTVSPost2010PropOp56
 70
     1
102
RTVSPost2010Prop57
140
1.0
102
RTVSPost2010PropOp57
 70
     1
  0
XRECORD
  5
3E3
102
{ACAD_REACTORS
330
3E2
102
}
330
3E2
100
AcDbXrecord
280
     1
102
RTVSPropertyOp0
 70
     1
102
RTVSPropertyOp1
 70
     1
102
RTVSPropertyOp2
 70
     1
102
RTVSPropertyOp3
 70
     1
102
RTVSPropertyOp4
 70
     1
102
RTVSPropertyOp5
 70
     1
102
RTVSPropertyOp6
 70
     1
102
RTVSPropertyOp7
 70
     1
102
RTVSPropertyOp8
 70
     1
102
RTVSPropertyOp9
 70
     1
102
RTVSPropertyOp10
 70
     1
102
RTVSPropertyOp11
 70
     1
102
RTVSPropertyOp12
 70
     1
102
RTVSPropertyOp13
 70
     1
102
RTVSPropertyOp14
 70
     1
102
RTVSPropertyOp15
 70
     1
102
RTVSPropertyOp16
 70
     1
102
RTVSPropertyOp17
 70
     1
102
RTVSPropertyOp18
 70
     1
102
RTVSPropertyOp19
 70
     1
102
RTVSPropertyOp20
 70
     1
102
RTVSPropertyOp21
 70
     1
102
RTVSPropertyOp22
 70
     1
102
RTVSPropertyOp23
 70
     1
102
RTVSPropertyOp24
 70
     1
102
RTVSPropertyOp25
 70
     1
102
RTVSPropertyOp26
 70
     1
102
RTVSPropertyOp27
 70
     1
102
RTVSPropertyOp28
 70
     1
102
RTVSPropertyOp29
 70
     1
102
RTVSPropertyOp30
 70
     1
102
RTVSPropertyOp31
 70
     1
102
RTVSPropertyOp32
 70
     1
102
RTVSPropertyOp33
 70
     1
102
RTVSPropertyOp34
 70
     1
102
RTVSPropertyOp35
 70
     1
102
RTVSPropertyOp36
 70
     1
102
RTVSPropertyOp37
 70
     1
102
RTVSPropertyOp38
 70
     1
102
RTVSPropertyOp39
 70
     1
102
RTVSPropertyOp40
 70
     1
102
RTVSPropertyOp41
 70
     1
102
RTVSPropertyOp42
 70
     1
102
RTVSPropertyOp43
 70
     1
102
RTVSPropertyOp44
 70
     1
102
RTVSPropertyOp45
 70
     1
102
RTVSPropertyOp46
 70
     1
102
RTVSPropertyOp47
 70
     1
102
RTVSPropertyOp48
 70
     1
102
RTVSPropertyOp49
 70
     1
102
RTVSPropertyOp50
 70
     1
102
RTVSPropertyOp51
 70
     0
102
RTVSPropertyOp52
 70
     0
102
RTVSPropertyOp53
 70
     1
102
RTVSPropertyOp54
 70
     1
102
RTVSPropertyOp55
 70
     1
102
RTVSPropertyOp56
 70
     1
102
RTVSPropertyOp57
 70
     1
102
RTVSPost2010Prop28
280
     0
102
RTVSPost2010PropOp28
 70
     1
102
RTVSPost2010Prop29
280
     1
102
RTVSPost2010PropOp29
 70
     1
102
RTVSPost2010Prop30
280
     1
102
RTVSPost2010PropOp30
 70
     1
102
RTVSPost2010Prop31
280
     0
102
RTVSPost2010PropOp31
 70
     1
102
RTVSPost2010Prop32
280
     0
102
RTVSPost2010PropOp32
 70
     1
102
RTVSPost2010Prop33
280
     0
102
RTVSPost2010PropOp33
 70
     1
102
RTVSPost2010Prop34
280
     0
102
RTVSPost2010PropOp34
 70
     1
102
RTVSPost2010Prop35
280
     0
102
RTVSPost2010PropOp35
 70
     1
102
RTVSPost2010Prop36
280
     0
102
RTVSPost2010PropOp36
 70
     1
102
RTVSPost2010Prop37
 90
       50
102
RTVSPost2010PropOp37
 70
     1
102
RTVSPost2010Prop38
140
0.0
102
RTVSPost2010PropOp38
 70
     1
102
RTVSPost2010Prop39
140
1.0
102
RTVSPost2010PropOp39
 70
     1
102
RTVSPost2010Prop40
 90
        0
102
RTVSPost2010PropOp40
 70
     1
102
RTVSPost2010Prop41ColorIndex
 90
       18
102
RTVSPost2010Prop41ColorRGB
 90
        0
102
RTVSPost2010PropOp41
 70
     1
102
RTVSPost2010Prop42
 90
       50
102
RTVSPost2010PropOp42
 70
     1
102
RTVSPost2010Prop43
 90
        3
102
RTVSPost2010PropOp43
 70
     1
102
RTVSPost2010Prop44ColorIndex
 90
        5
102
RTVSPost2010Prop44ColorRGB
 90
      255
102
RTVSPost2010PropOp44
 70
     1
102
RTVSPost2010Prop45
280
     0
102
RTVSPost2010PropOp45
 70
     1
102
RTVSPost2010Prop46
 90
       50
102
RTVSPost2010PropOp46
 70
     1
102
RTVSPost2010Prop47
 90
       50
102
RTVSPost2010PropOp47
 70
     1
102
RTVSPost2010Prop48
 90
       50
102
RTVSPost2010PropOp48
 70
     1
102
RTVSPost2010Prop49
280
     0
102
RTVSPost2010PropOp49
 70
     1
102
RTVSPost2010Prop50
 90
       50
102
RTVSPost2010PropOp50
 70
     1
102
RTVSPost2010Prop51ColorIndex
 90
      256
102
RTVSPost2010Prop51ColorRGB
 90
-16777216
102
RTVSPost2010PropOp51
 70
     0
102
RTVSPost2010Prop52
140
1.0
102
RTVSPost2010PropOp52
 70
     0
102
RTVSPost2010Prop53
 90
        2
102
RTVSPost2010PropOp53
 70
     1
102
RTVSPost2010Prop54
  1
strokes_ogs.tif
102
RTVSPost2010PropOp54
 70
     1
102
RTVSPost2010Prop55
280
     0
102
RTVSPost2010PropOp55
 70
     1
102
RTVSPost2010Prop56
140
1.0
102
RTVSPost2010PropOp56
 70
     1
102
RTVSPost2010Prop57
140
1.0
102
RTVSPost2010PropOp57
 70
     1
  0
XRECORD
  5
3EB
102
{ACAD_REACTORS
330
3EA
102
}
330
3EA
100
AcDbXrecord
280
     1
102
RTVSPropertyOp0
 70
     1
102
RTVSPropertyOp1
 70
     1
102
RTVSPropertyOp2
 70
     1
102
RTVSPropertyOp3
 70
     1
102
RTVSPropertyOp4
 70
     1
102
RTVSPropertyOp5
 70
     1
102
RTVSPropertyOp6
 70
     1
102
RTVSPropertyOp7
 70
     1
102
RTVSPropertyOp8
 70
     1
102
RTVSPropertyOp9
 70
     1
102
RTVSPropertyOp10
 70
     1
102
RTVSPropertyOp11
 70
     1
102
RTVSPropertyOp12
 70
     1
102
RTVSPropertyOp13
 70
     1
102
RTVSPropertyOp14
 70
     1
102
RTVSPropertyOp15
 70
     1
102
RTVSPropertyOp16
 70
     1
102
RTVSPropertyOp17
 70
     1
102
RTVSPropertyOp18
 70
     1
102
RTVSPropertyOp19
 70
     1
102
RTVSPropertyOp20
 70
     1
102
RTVSPropertyOp21
 70
     1
102
RTVSPropertyOp22
 70
     1
102
RTVSPropertyOp23
 70
     1
102
RTVSPropertyOp24
 70
     1
102
RTVSPropertyOp25
 70
     1
102
RTVSPropertyOp26
 70
     1
102
RTVSPropertyOp27
 70
     1
102
RTVSPropertyOp28
 70
     1
102
RTVSPropertyOp29
 70
     1
102
RTVSPropertyOp30
 70
     1
102
RTVSPropertyOp31
 70
     1
102
RTVSPropertyOp32
 70
     1
102
RTVSPropertyOp33
 70
     1
102
RTVSPropertyOp34
 70
     1
102
RTVSPropertyOp35
 70
     1
102
RTVSPropertyOp36
 70
     1
102
RTVSPropertyOp37
 70
     1
102
RTVSPropertyOp38
 70
     1
102
RTVSPropertyOp39
 70
     1
102
RTVSPropertyOp40
 70
     1
102
RTVSPropertyOp41
 70
     1
102
RTVSPropertyOp42
 70
     1
102
RTVSPropertyOp43
 70
     1
102
RTVSPropertyOp44
 70
     1
102
RTVSPropertyOp45
 70
     1
102
RTVSPropertyOp46
 70
     1
102
RTVSPropertyOp47
 70
     1
102
RTVSPropertyOp48
 70
     1
102
RTVSPropertyOp49
 70
     1
102
RTVSPropertyOp50
 70
     1
102
RTVSPropertyOp51
 70
     0
102
RTVSPropertyOp52
 70
     0
102
RTVSPropertyOp53
 70
     1
102
RTVSPropertyOp54
 70
     1
102
RTVSPropertyOp55
 70
     1
102
RTVSPropertyOp56
 70
     1
102
RTVSPropertyOp57
 70
     1
102
RTVSPost2010Prop28
280
     0
102
RTVSPost2010PropOp28
 70
     1
102
RTVSPost2010Prop29
280
     1
102
RTVSPost2010PropOp29
 70
     1
102
RTVSPost2010Prop30
280
     1
102
RTVSPost2010PropOp30
 70
     1
102
RTVSPost2010Prop31
280
     0
102
RTVSPost2010PropOp31
 70
     1
102
RTVSPost2010Prop32
280
     0
102
RTVSPost2010PropOp32
 70
     1
102
RTVSPost2010Prop33
280
     0
102
RTVSPost2010PropOp33
 70
     1
102
RTVSPost2010Prop34
280
     0
102
RTVSPost2010PropOp34
 70
     1
102
RTVSPost2010Prop35
280
     0
102
RTVSPost2010PropOp35
 70
     1
102
RTVSPost2010Prop36
280
     0
102
RTVSPost2010PropOp36
 70
     1
102
RTVSPost2010Prop37
 90
       50
102
RTVSPost2010PropOp37
 70
     1
102
RTVSPost2010Prop38
140
0.0
102
RTVSPost2010PropOp38
 70
     1
102
RTVSPost2010Prop39
140
1.0
102
RTVSPost2010PropOp39
 70
     1
102
RTVSPost2010Prop40
 90
        0
102
RTVSPost2010PropOp40
 70
     1
102
RTVSPost2010Prop41ColorIndex
 90
       18
102
RTVSPost2010Prop41ColorRGB
 90
        0
102
RTVSPost2010PropOp41
 70
     1
102
RTVSPost2010Prop42
 90
       50
102
RTVSPost2010PropOp42
 70
     1
102
RTVSPost2010Prop43
 90
        3
102
RTVSPost2010PropOp43
 70
     1
102
RTVSPost2010Prop44ColorIndex
 90
        5
102
RTVSPost2010Prop44ColorRGB
 90
      255
102
RTVSPost2010PropOp44
 70
     1
102
RTVSPost2010Prop45
280
     0
102
RTVSPost2010PropOp45
 70
     1
102
RTVSPost2010Prop46
 90
       50
102
RTVSPost2010PropOp46
 70
     1
102
RTVSPost2010Prop47
 90
       50
102
RTVSPost2010PropOp47
 70
     1
102
RTVSPost2010Prop48
 90
       50
102
RTVSPost2010PropOp48
 70
     1
102
RTVSPost2010Prop49
280
     0
102
RTVSPost2010PropOp49
 70
     1
102
RTVSPost2010Prop50
 90
       50
102
RTVSPost2010PropOp50
 70
     1
102
RTVSPost2010Prop51ColorIndex
 90
      256
102
RTVSPost2010Prop51ColorRGB
 90
-16777216
102
RTVSPost2010PropOp51
 70
     0
102
RTVSPost2010Prop52
140
1.0
102
RTVSPost2010PropOp52
 70
     0
102
RTVSPost2010Prop53
 90
        2
102
RTVSPost2010PropOp53
 70
     1
102
RTVSPost2010Prop54
  1
strokes_ogs.tif
102
RTVSPost2010PropOp54
 70
     1
102
RTVSPost2010Prop55
280
     0
102
RTVSPost2010PropOp55
 70
     1
102
RTVSPost2010Prop56
140
1.0
102
RTVSPost2010PropOp56
 70
     1
102
RTVSPost2010Prop57
140
1.0
102
RTVSPost2010PropOp57
 70
     1
  0
XRECORD
  5
3F3
102
{ACAD_REACTORS
330
3F2
102
}
330
3F2
100
AcDbXrecord
280
     1
102
RTVSPropertyOp0
 70
     1
102
RTVSPropertyOp1
 70
     1
102
RTVSPropertyOp2
 70
     1
102
RTVSPropertyOp3
 70
     1
102
RTVSPropertyOp4
 70
     1
102
RTVSPropertyOp5
 70
     1
102
RTVSPropertyOp6
 70
     1
102
RTVSPropertyOp7
 70
     1
102
RTVSPropertyOp8
 70
     1
102
RTVSPropertyOp9
 70
     1
102
RTVSPropertyOp10
 70
     1
102
RTVSPropertyOp11
 70
     1
102
RTVSPropertyOp12
 70
     1
102
RTVSPropertyOp13
 70
     1
102
RTVSPropertyOp14
 70
     1
102
RTVSPropertyOp15
 70
     1
102
RTVSPropertyOp16
 70
     1
102
RTVSPropertyOp17
 70
     1
102
RTVSPropertyOp18
 70
     1
102
RTVSPropertyOp19
 70
     1
102
RTVSPropertyOp20
 70
     1
102
RTVSPropertyOp21
 70
     1
102
RTVSPropertyOp22
 70
     1
102
RTVSPropertyOp23
 70
     1
102
RTVSPropertyOp24
 70
     1
102
RTVSPropertyOp25
 70
     1
102
RTVSPropertyOp26
 70
     1
102
RTVSPropertyOp27
 70
     1
102
RTVSPropertyOp28
 70
     1
102
RTVSPropertyOp29
 70
     1
102
RTVSPropertyOp30
 70
     1
102
RTVSPropertyOp31
 70
     1
102
RTVSPropertyOp32
 70
     1
102
RTVSPropertyOp33
 70
     1
102
RTVSPropertyOp34
 70
     1
102
RTVSPropertyOp35
 70
     1
102
RTVSPropertyOp36
 70
     1
102
RTVSPropertyOp37
 70
     1
102
RTVSPropertyOp38
 70
     1
102
RTVSPropertyOp39
 70
     1
102
RTVSPropertyOp40
 70
     1
102
RTVSPropertyOp41
 70
     1
102
RTVSPropertyOp42
 70
     1
102
RTVSPropertyOp43
 70
     1
102
RTVSPropertyOp44
 70
     1
102
RTVSPropertyOp45
 70
     1
102
RTVSPropertyOp46
 70
     1
102
RTVSPropertyOp47
 70
     1
102
RTVSPropertyOp48
 70
     1
102
RTVSPropertyOp49
 70
     1
102
RTVSPropertyOp50
 70
     1
102
RTVSPropertyOp51
 70
     0
102
RTVSPropertyOp52
 70
     0
102
RTVSPropertyOp53
 70
     1
102
RTVSPropertyOp54
 70
     1
102
RTVSPropertyOp55
 70
     1
102
RTVSPropertyOp56
 70
     1
102
RTVSPropertyOp57
 70
     1
102
RTVSPost2010Prop28
280
     0
102
RTVSPost2010PropOp28
 70
     1
102
RTVSPost2010Prop29
280
     1
102
RTVSPost2010PropOp29
 70
     1
102
RTVSPost2010Prop30
280
     1
102
RTVSPost2010PropOp30
 70
     1
102
RTVSPost2010Prop31
280
     0
102
RTVSPost2010PropOp31
 70
     1
102
RTVSPost2010Prop32
280
     0
102
RTVSPost2010PropOp32
 70
     1
102
RTVSPost2010Prop33
280
     0
102
RTVSPost2010PropOp33
 70
     1
102
RTVSPost2010Prop34
280
     0
102
RTVSPost2010PropOp34
 70
     1
102
RTVSPost2010Prop35
280
     0
102
RTVSPost2010PropOp35
 70
     1
102
RTVSPost2010Prop36
280
     0
102
RTVSPost2010PropOp36
 70
     1
102
RTVSPost2010Prop37
 90
       50
102
RTVSPost2010PropOp37
 70
     1
102
RTVSPost2010Prop38
140
0.0
102
RTVSPost2010PropOp38
 70
     1
102
RTVSPost2010Prop39
140
1.0
102
RTVSPost2010PropOp39
 70
     1
102
RTVSPost2010Prop40
 90
        0
102
RTVSPost2010PropOp40
 70
     1
102
RTVSPost2010Prop41ColorIndex
 90
       18
102
RTVSPost2010Prop41ColorRGB
 90
        0
102
RTVSPost2010PropOp41
 70
     1
102
RTVSPost2010Prop42
 90
       50
102
RTVSPost2010PropOp42
 70
     1
102
RTVSPost2010Prop43
 90
        3
102
RTVSPost2010PropOp43
 70
     1
102
RTVSPost2010Prop44ColorIndex
 90
        5
102
RTVSPost2010Prop44ColorRGB
 90
      255
102
RTVSPost2010PropOp44
 70
     1
102
RTVSPost2010Prop45
280
     0
102
RTVSPost2010PropOp45
 70
     1
102
RTVSPost2010Prop46
 90
       50
102
RTVSPost2010PropOp46
 70
     1
102
RTVSPost2010Prop47
 90
       50
102
RTVSPost2010PropOp47
 70
     1
102
RTVSPost2010Prop48
 90
       50
102
RTVSPost2010PropOp48
 70
     1
102
RTVSPost2010Prop49
280
     0
102
RTVSPost2010PropOp49
 70
     1
102
RTVSPost2010Prop50
 90
       50
102
RTVSPost2010PropOp50
 70
     1
102
RTVSPost2010Prop51ColorIndex
 90
      256
102
RTVSPost2010Prop51ColorRGB
 90
-16777216
102
RTVSPost2010PropOp51
 70
     0
102
RTVSPost2010Prop52
140
1.0
102
RTVSPost2010PropOp52
 70
     0
102
RTVSPost2010Prop53
 90
        2
102
RTVSPost2010PropOp53
 70
     1
102
RTVSPost2010Prop54
  1
strokes_ogs.tif
102
RTVSPost2010PropOp54
 70
     1
102
RTVSPost2010Prop55
280
     0
102
RTVSPost2010PropOp55
 70
     1
102
RTVSPost2010Prop56
140
1.0
102
RTVSPost2010PropOp56
 70
     1
102
RTVSPost2010Prop57
140
1.0
102
RTVSPost2010PropOp57
 70
     1
  0
XRECORD
  5
3E7
102
{ACAD_REACTORS
330
3E6
102
}
330
3E6
100
AcDbXrecord
280
     1
102
RTVSPropertyOp0
 70
     1
102
RTVSPropertyOp1
 70
     1
102
RTVSPropertyOp2
 70
     1
102
RTVSPropertyOp3
 70
     1
102
RTVSPropertyOp4
 70
     1
102
RTVSPropertyOp5
 70
     1
102
RTVSPropertyOp6
 70
     1
102
RTVSPropertyOp7
 70
     1
102
RTVSPropertyOp8
 70
     1
102
RTVSPropertyOp9
 70
     1
102
RTVSPropertyOp10
 70
     1
102
RTVSPropertyOp11
 70
     1
102
RTVSPropertyOp12
 70
     1
102
RTVSPropertyOp13
 70
     1
102
RTVSPropertyOp14
 70
     1
102
RTVSPropertyOp15
 70
     1
102
RTVSPropertyOp16
 70
     1
102
RTVSPropertyOp17
 70
     1
102
RTVSPropertyOp18
 70
     1
102
RTVSPropertyOp19
 70
     1
102
RTVSPropertyOp20
 70
     1
102
RTVSPropertyOp21
 70
     1
102
RTVSPropertyOp22
 70
     1
102
RTVSPropertyOp23
 70
     1
102
RTVSPropertyOp24
 70
     1
102
RTVSPropertyOp25
 70
     1
102
RTVSPropertyOp26
 70
     1
102
RTVSPropertyOp27
 70
     1
102
RTVSPropertyOp28
 70
     1
102
RTVSPropertyOp29
 70
     1
102
RTVSPropertyOp30
 70
     1
102
RTVSPropertyOp31
 70
     1
102
RTVSPropertyOp32
 70
     1
102
RTVSPropertyOp33
 70
     1
102
RTVSPropertyOp34
 70
     1
102
RTVSPropertyOp35
 70
     1
102
RTVSPropertyOp36
 70
     1
102
RTVSPropertyOp37
 70
     1
102
RTVSPropertyOp38
 70
     1
102
RTVSPropertyOp39
 70
     1
102
RTVSPropertyOp40
 70
     1
102
RTVSPropertyOp41
 70
     1
102
RTVSPropertyOp42
 70
     1
102
RTVSPropertyOp43
 70
     1
102
RTVSPropertyOp44
 70
     1
102
RTVSPropertyOp45
 70
     1
102
RTVSPropertyOp46
 70
     1
102
RTVSPropertyOp47
 70
     1
102
RTVSPropertyOp48
 70
     1
102
RTVSPropertyOp49
 70
     1
102
RTVSPropertyOp50
 70
     1
102
RTVSPropertyOp51
 70
     0
102
RTVSPropertyOp52
 70
     0
102
RTVSPropertyOp53
 70
     1
102
RTVSPropertyOp54
 70
     1
102
RTVSPropertyOp55
 70
     1
102
RTVSPropertyOp56
 70
     1
102
RTVSPropertyOp57
 70
     1
102
RTVSPost2010Prop28
280
     0
102
RTVSPost2010PropOp28
 70
     1
102
RTVSPost2010Prop29
280
     1
102
RTVSPost2010PropOp29
 70
     1
102
RTVSPost2010Prop30
280
     1
102
RTVSPost2010PropOp30
 70
     1
102
RTVSPost2010Prop31
280
     0
102
RTVSPost2010PropOp31
 70
     1
102
RTVSPost2010Prop32
280
     0
102
RTVSPost2010PropOp32
 70
     1
102
RTVSPost2010Prop33
280
     0
102
RTVSPost2010PropOp33
 70
     1
102
RTVSPost2010Prop34
280
     0
102
RTVSPost2010PropOp34
 70
     1
102
RTVSPost2010Prop35
280
     0
102
RTVSPost2010PropOp35
 70
     1
102
RTVSPost2010Prop36
280
     0
102
RTVSPost2010PropOp36
 70
     1
102
RTVSPost2010Prop37
 90
       50
102
RTVSPost2010PropOp37
 70
     1
102
RTVSPost2010Prop38
140
0.0
102
RTVSPost2010PropOp38
 70
     1
102
RTVSPost2010Prop39
140
1.0
102
RTVSPost2010PropOp39
 70
     1
102
RTVSPost2010Prop40
 90
        0
102
RTVSPost2010PropOp40
 70
     1
102
RTVSPost2010Prop41ColorIndex
 90
       18
102
RTVSPost2010Prop41ColorRGB
 90
        0
102
RTVSPost2010PropOp41
 70
     1
102
RTVSPost2010Prop42
 90
       50
102
RTVSPost2010PropOp42
 70
     1
102
RTVSPost2010Prop43
 90
        3
102
RTVSPost2010PropOp43
 70
     1
102
RTVSPost2010Prop44ColorIndex
 90
        5
102
RTVSPost2010Prop44ColorRGB
 90
      255
102
RTVSPost2010PropOp44
 70
     1
102
RTVSPost2010Prop45
280
     0
102
RTVSPost2010PropOp45
 70
     1
102
RTVSPost2010Prop46
 90
       50
102
RTVSPost2010PropOp46
 70
     1
102
RTVSPost2010Prop47
 90
       50
102
RTVSPost2010PropOp47
 70
     1
102
RTVSPost2010Prop48
 90
       50
102
RTVSPost2010PropOp48
 70
     1
102
RTVSPost2010Prop49
280
     0
102
RTVSPost2010PropOp49
 70
     1
102
RTVSPost2010Prop50
 90
       50
102
RTVSPost2010PropOp50
 70
     1
102
RTVSPost2010Prop51ColorIndex
 90
      256
102
RTVSPost2010Prop51ColorRGB
 90
-16777216
102
RTVSPost2010PropOp51
 70
     0
102
RTVSPost2010Prop52
140
1.0
102
RTVSPost2010PropOp52
 70
     0
102
RTVSPost2010Prop53
 90
        2
102
RTVSPost2010PropOp53
 70
     1
102
RTVSPost2010Prop54
  1
strokes_ogs.tif
102
RTVSPost2010PropOp54
 70
     1
102
RTVSPost2010Prop55
280
     0
102
RTVSPost2010PropOp55
 70
     1
102
RTVSPost2010Prop56
140
1.0
102
RTVSPost2010PropOp56
 70
     1
102
RTVSPost2010Prop57
140
1.0
102
RTVSPost2010PropOp57
 70
     1
  0
XRECORD
  5
3E9
102
{ACAD_REACTORS
330
3E8
102
}
330
3E8
100
AcDbXrecord
280
     1
102
RTVSPropertyOp0
 70
     1
102
RTVSPropertyOp1
 70
     1
102
RTVSPropertyOp2
 70
     1
102
RTVSPropertyOp3
 70
     1
102
RTVSPropertyOp4
 70
     1
102
RTVSPropertyOp5
 70
     1
102
RTVSPropertyOp6
 70
     1
102
RTVSPropertyOp7
 70
     1
102
RTVSPropertyOp8
 70
     1
102
RTVSPropertyOp9
 70
     1
102
RTVSPropertyOp10
 70
     1
102
RTVSPropertyOp11
 70
     1
102
RTVSPropertyOp12
 70
     1
102
RTVSPropertyOp13
 70
     1
102
RTVSPropertyOp14
 70
     1
102
RTVSPropertyOp15
 70
     1
102
RTVSPropertyOp16
 70
     1
102
RTVSPropertyOp17
 70
     1
102
RTVSPropertyOp18
 70
     1
102
RTVSPropertyOp19
 70
     1
102
RTVSPropertyOp20
 70
     1
102
RTVSPropertyOp21
 70
     1
102
RTVSPropertyOp22
 70
     1
102
RTVSPropertyOp23
 70
     1
102
RTVSPropertyOp24
 70
     1
102
RTVSPropertyOp25
 70
     1
102
RTVSPropertyOp26
 70
     1
102
RTVSPropertyOp27
 70
     1
102
RTVSPropertyOp28
 70
     1
102
RTVSPropertyOp29
 70
     1
102
RTVSPropertyOp30
 70
     1
102
RTVSPropertyOp31
 70
     1
102
RTVSPropertyOp32
 70
     1
102
RTVSPropertyOp33
 70
     1
102
RTVSPropertyOp34
 70
     1
102
RTVSPropertyOp35
 70
     1
102
RTVSPropertyOp36
 70
     1
102
RTVSPropertyOp37
 70
     1
102
RTVSPropertyOp38
 70
     1
102
RTVSPropertyOp39
 70
     1
102
RTVSPropertyOp40
 70
     1
102
RTVSPropertyOp41
 70
     1
102
RTVSPropertyOp42
 70
     1
102
RTVSPropertyOp43
 70
     1
102
RTVSPropertyOp44
 70
     1
102
RTVSPropertyOp45
 70
     1
102
RTVSPropertyOp46
 70
     1
102
RTVSPropertyOp47
 70
     1
102
RTVSPropertyOp48
 70
     1
102
RTVSPropertyOp49
 70
     1
102
RTVSPropertyOp50
 70
     1
102
RTVSPropertyOp51
 70
     0
102
RTVSPropertyOp52
 70
     0
102
RTVSPropertyOp53
 70
     1
102
RTVSPropertyOp54
 70
     1
102
RTVSPropertyOp55
 70
     1
102
RTVSPropertyOp56
 70
     1
102
RTVSPropertyOp57
 70
     1
102
RTVSPost2010Prop28
280
     0
102
RTVSPost2010PropOp28
 70
     1
102
RTVSPost2010Prop29
280
     1
102
RTVSPost2010PropOp29
 70
     1
102
RTVSPost2010Prop30
280
     1
102
RTVSPost2010PropOp30
 70
     1
102
RTVSPost2010Prop31
280
     0
102
RTVSPost2010PropOp31
 70
     1
102
RTVSPost2010Prop32
280
     0
102
RTVSPost2010PropOp32
 70
     1
102
RTVSPost2010Prop33
280
     0
102
RTVSPost2010PropOp33
 70
     1
102
RTVSPost2010Prop34
280
     0
102
RTVSPost2010PropOp34
 70
     1
102
RTVSPost2010Prop35
280
     0
102
RTVSPost2010PropOp35
 70
     1
102
RTVSPost2010Prop36
280
     0
102
RTVSPost2010PropOp36
 70
     1
102
RTVSPost2010Prop37
 90
       50
102
RTVSPost2010PropOp37
 70
     1
102
RTVSPost2010Prop38
140
0.0
102
RTVSPost2010PropOp38
 70
     1
102
RTVSPost2010Prop39
140
1.0
102
RTVSPost2010PropOp39
 70
     1
102
RTVSPost2010Prop40
 90
        0
102
RTVSPost2010PropOp40
 70
     1
102
RTVSPost2010Prop41ColorIndex
 90
       18
102
RTVSPost2010Prop41ColorRGB
 90
        0
102
RTVSPost2010PropOp41
 70
     1
102
RTVSPost2010Prop42
 90
       50
102
RTVSPost2010PropOp42
 70
     1
102
RTVSPost2010Prop43
 90
        3
102
RTVSPost2010PropOp43
 70
     1
102
RTVSPost2010Prop44ColorIndex
 90
        5
102
RTVSPost2010Prop44ColorRGB
 90
      255
102
RTVSPost2010PropOp44
 70
     1
102
RTVSPost2010Prop45
280
     0
102
RTVSPost2010PropOp45
 70
     1
102
RTVSPost2010Prop46
 90
       50
102
RTVSPost2010PropOp46
 70
     1
102
RTVSPost2010Prop47
 90
       50
102
RTVSPost2010PropOp47
 70
     1
102
RTVSPost2010Prop48
 90
       50
102
RTVSPost2010PropOp48
 70
     1
102
RTVSPost2010Prop49
280
     0
102
RTVSPost2010PropOp49
 70
     1
102
RTVSPost2010Prop50
 90
       50
102
RTVSPost2010PropOp50
 70
     1
102
RTVSPost2010Prop51ColorIndex
 90
      256
102
RTVSPost2010Prop51ColorRGB
 90
-16777216
102
RTVSPost2010PropOp51
 70
     0
102
RTVSPost2010Prop52
140
1.0
102
RTVSPost2010PropOp52
 70
     0
102
RTVSPost2010Prop53
 90
        2
102
RTVSPost2010PropOp53
 70
     1
102
RTVSPost2010Prop54
  1
strokes_ogs.tif
102
RTVSPost2010PropOp54
 70
     1
102
RTVSPost2010Prop55
280
     0
102
RTVSPost2010PropOp55
 70
     1
102
RTVSPost2010Prop56
140
1.0
102
RTVSPost2010PropOp56
 70
     1
102
RTVSPost2010Prop57
140
1.0
102
RTVSPost2010PropOp57
 70
     1
  0
XRECORD
  5
3F1
102
{ACAD_REACTORS
330
3F0
102
}
330
3F0
100
AcDbXrecord
280
     1
102
RTVSPropertyOp0
 70
     1
102
RTVSPropertyOp1
 70
     1
102
RTVSPropertyOp2
 70
     1
102
RTVSPropertyOp3
 70
     1
102
RTVSPropertyOp4
 70
     1
102
RTVSPropertyOp5
 70
     1
102
RTVSPropertyOp6
 70
     1
102
RTVSPropertyOp7
 70
     1
102
RTVSPropertyOp8
 70
     1
102
RTVSPropertyOp9
 70
     1
102
RTVSPropertyOp10
 70
     1
102
RTVSPropertyOp11
 70
     1
102
RTVSPropertyOp12
 70
     1
102
RTVSPropertyOp13
 70
     1
102
RTVSPropertyOp14
 70
     1
102
RTVSPropertyOp15
 70
     1
102
RTVSPropertyOp16
 70
     1
102
RTVSPropertyOp17
 70
     1
102
RTVSPropertyOp18
 70
     1
102
RTVSPropertyOp19
 70
     1
102
RTVSPropertyOp20
 70
     1
102
RTVSPropertyOp21
 70
     1
102
RTVSPropertyOp22
 70
     1
102
RTVSPropertyOp23
 70
     1
102
RTVSPropertyOp24
 70
     1
102
RTVSPropertyOp25
 70
     1
102
RTVSPropertyOp26
 70
     1
102
RTVSPropertyOp27
 70
     1
102
RTVSPropertyOp28
 70
     1
102
RTVSPropertyOp29
 70
     1
102
RTVSPropertyOp30
 70
     1
102
RTVSPropertyOp31
 70
     1
102
RTVSPropertyOp32
 70
     1
102
RTVSPropertyOp33
 70
     1
102
RTVSPropertyOp34
 70
     1
102
RTVSPropertyOp35
 70
     1
102
RTVSPropertyOp36
 70
     1
102
RTVSPropertyOp37
 70
     1
102
RTVSPropertyOp38
 70
     1
102
RTVSPropertyOp39
 70
     1
102
RTVSPropertyOp40
 70
     1
102
RTVSPropertyOp41
 70
     1
102
RTVSPropertyOp42
 70
     1
102
RTVSPropertyOp43
 70
     1
102
RTVSPropertyOp44
 70
     1
102
RTVSPropertyOp45
 70
     1
102
RTVSPropertyOp46
 70
     1
102
RTVSPropertyOp47
 70
     1
102
RTVSPropertyOp48
 70
     1
102
RTVSPropertyOp49
 70
     1
102
RTVSPropertyOp50
 70
     1
102
RTVSPropertyOp51
 70
     0
102
RTVSPropertyOp52
 70
     0
102
RTVSPropertyOp53
 70
     1
102
RTVSPropertyOp54
 70
     1
102
RTVSPropertyOp55
 70
     1
102
RTVSPropertyOp56
 70
     1
102
RTVSPropertyOp57
 70
     1
102
RTVSPost2010Prop28
280
     0
102
RTVSPost2010PropOp28
 70
     1
102
RTVSPost2010Prop29
280
     1
102
RTVSPost2010PropOp29
 70
     1
102
RTVSPost2010Prop30
280
     1
102
RTVSPost2010PropOp30
 70
     1
102
RTVSPost2010Prop31
280
     0
102
RTVSPost2010PropOp31
 70
     1
102
RTVSPost2010Prop32
280
     0
102
RTVSPost2010PropOp32
 70
     1
102
RTVSPost2010Prop33
280
     0
102
RTVSPost2010PropOp33
 70
     1
102
RTVSPost2010Prop34
280
     0
102
RTVSPost2010PropOp34
 70
     1
102
RTVSPost2010Prop35
280
     0
102
RTVSPost2010PropOp35
 70
     1
102
RTVSPost2010Prop36
280
     0
102
RTVSPost2010PropOp36
 70
     1
102
RTVSPost2010Prop37
 90
       50
102
RTVSPost2010PropOp37
 70
     1
102
RTVSPost2010Prop38
140
0.0
102
RTVSPost2010PropOp38
 70
     1
102
RTVSPost2010Prop39
140
1.0
102
RTVSPost2010PropOp39
 70
     1
102
RTVSPost2010Prop40
 90
        0
102
RTVSPost2010PropOp40
 70
     1
102
RTVSPost2010Prop41ColorIndex
 90
       18
102
RTVSPost2010Prop41ColorRGB
 90
        0
102
RTVSPost2010PropOp41
 70
     1
102
RTVSPost2010Prop42
 90
       50
102
RTVSPost2010PropOp42
 70
     1
102
RTVSPost2010Prop43
 90
        3
102
RTVSPost2010PropOp43
 70
     1
102
RTVSPost2010Prop44ColorIndex
 90
        5
102
RTVSPost2010Prop44ColorRGB
 90
      255
102
RTVSPost2010PropOp44
 70
     1
102
RTVSPost2010Prop45
280
     0
102
RTVSPost2010PropOp45
 70
     1
102
RTVSPost2010Prop46
 90
       50
102
RTVSPost2010PropOp46
 70
     1
102
RTVSPost2010Prop47
 90
       50
102
RTVSPost2010PropOp47
 70
     1
102
RTVSPost2010Prop48
 90
       50
102
RTVSPost2010PropOp48
 70
     1
102
RTVSPost2010Prop49
280
     0
102
RTVSPost2010PropOp49
 70
     1
102
RTVSPost2010Prop50
 90
       50
102
RTVSPost2010PropOp50
 70
     1
102
RTVSPost2010Prop51ColorIndex
 90
      256
102
RTVSPost2010Prop51ColorRGB
 90
-16777216
102
RTVSPost2010PropOp51
 70
     0
102
RTVSPost2010Prop52
140
1.0
102
RTVSPost2010PropOp52
 70
     0
102
RTVSPost2010Prop53
 90
        2
102
RTVSPost2010PropOp53
 70
     1
102
RTVSPost2010Prop54
  1
strokes_ogs.tif
102
RTVSPost2010PropOp54
 70
     1
102
RTVSPost2010Prop55
280
     0
102
RTVSPost2010PropOp55
 70
     1
102
RTVSPost2010Prop56
140
1.0
102
RTVSPost2010PropOp56
 70
     1
102
RTVSPost2010Prop57
140
1.0
102
RTVSPost2010PropOp57
 70
     1
  0
XRECORD
  5
3D5
102
{ACAD_REACTORS
330
3D4
102
}
330
3D4
100
AcDbXrecord
280
     1
102
RTVSPropertyOp0
 70
     1
102
RTVSPropertyOp1
 70
     1
102
RTVSPropertyOp2
 70
     1
102
RTVSPropertyOp3
 70
     1
102
RTVSPropertyOp4
 70
     1
102
RTVSPropertyOp5
 70
     1
102
RTVSPropertyOp6
 70
     1
102
RTVSPropertyOp7
 70
     1
102
RTVSPropertyOp8
 70
     1
102
RTVSPropertyOp9
 70
     1
102
RTVSPropertyOp10
 70
     1
102
RTVSPropertyOp11
 70
     1
102
RTVSPropertyOp12
 70
     1
102
RTVSPropertyOp13
 70
     1
102
RTVSPropertyOp14
 70
     1
102
RTVSPropertyOp15
 70
     1
102
RTVSPropertyOp16
 70
     1
102
RTVSPropertyOp17
 70
     1
102
RTVSPropertyOp18
 70
     1
102
RTVSPropertyOp19
 70
     1
102
RTVSPropertyOp20
 70
     1
102
RTVSPropertyOp21
 70
     1
102
RTVSPropertyOp22
 70
     1
102
RTVSPropertyOp23
 70
     1
102
RTVSPropertyOp24
 70
     1
102
RTVSPropertyOp25
 70
     1
102
RTVSPropertyOp26
 70
     1
102
RTVSPropertyOp27
 70
     1
102
RTVSPropertyOp28
 70
     1
102
RTVSPropertyOp29
 70
     1
102
RTVSPropertyOp30
 70
     1
102
RTVSPropertyOp31
 70
     1
102
RTVSPropertyOp32
 70
     1
102
RTVSPropertyOp33
 70
     1
102
RTVSPropertyOp34
 70
     1
102
RTVSPropertyOp35
 70
     1
102
RTVSPropertyOp36
 70
     1
102
RTVSPropertyOp37
 70
     1
102
RTVSPropertyOp38
 70
     1
102
RTVSPropertyOp39
 70
     1
102
RTVSPropertyOp40
 70
     1
102
RTVSPropertyOp41
 70
     1
102
RTVSPropertyOp42
 70
     1
102
RTVSPropertyOp43
 70
     1
102
RTVSPropertyOp44
 70
     1
102
RTVSPropertyOp45
 70
     1
102
RTVSPropertyOp46
 70
     1
102
RTVSPropertyOp47
 70
     1
102
RTVSPropertyOp48
 70
     1
102
RTVSPropertyOp49
 70
     1
102
RTVSPropertyOp50
 70
     1
102
RTVSPropertyOp51
 70
     0
102
RTVSPropertyOp52
 70
     0
102
RTVSPropertyOp53
 70
     1
102
RTVSPropertyOp54
 70
     1
102
RTVSPropertyOp55
 70
     1
102
RTVSPropertyOp56
 70
     1
102
RTVSPropertyOp57
 70
     1
102
RTVSPost2010Prop28
280
     0
102
RTVSPost2010PropOp28
 70
     1
102
RTVSPost2010Prop29
280
     1
102
RTVSPost2010PropOp29
 70
     1
102
RTVSPost2010Prop30
280
     1
102
RTVSPost2010PropOp30
 70
     1
102
RTVSPost2010Prop31
280
     0
102
RTVSPost2010PropOp31
 70
     1
102
RTVSPost2010Prop32
280
     0
102
RTVSPost2010PropOp32
 70
     1
102
RTVSPost2010Prop33
280
     0
102
RTVSPost2010PropOp33
 70
     1
102
RTVSPost2010Prop34
280
     0
102
RTVSPost2010PropOp34
 70
     1
102
RTVSPost2010Prop35
280
     0
102
RTVSPost2010PropOp35
 70
     1
102
RTVSPost2010Prop36
280
     0
102
RTVSPost2010PropOp36
 70
     1
102
RTVSPost2010Prop37
 90
       50
102
RTVSPost2010PropOp37
 70
     1
102
RTVSPost2010Prop38
140
0.0
102
RTVSPost2010PropOp38
 70
     1
102
RTVSPost2010Prop39
140
1.0
102
RTVSPost2010PropOp39
 70
     1
102
RTVSPost2010Prop40
 90
        0
102
RTVSPost2010PropOp40
 70
     1
102
RTVSPost2010Prop41ColorIndex
 90
       18
102
RTVSPost2010Prop41ColorRGB
 90
        0
102
RTVSPost2010PropOp41
 70
     1
102
RTVSPost2010Prop42
 90
       50
102
RTVSPost2010PropOp42
 70
     1
102
RTVSPost2010Prop43
 90
        3
102
RTVSPost2010PropOp43
 70
     1
102
RTVSPost2010Prop44ColorIndex
 90
        5
102
RTVSPost2010Prop44ColorRGB
 90
      255
102
RTVSPost2010PropOp44
 70
     1
102
RTVSPost2010Prop45
280
     0
102
RTVSPost2010PropOp45
 70
     1
102
RTVSPost2010Prop46
 90
       50
102
RTVSPost2010PropOp46
 70
     1
102
RTVSPost2010Prop47
 90
       50
102
RTVSPost2010PropOp47
 70
     1
102
RTVSPost2010Prop48
 90
       50
102
RTVSPost2010PropOp48
 70
     1
102
RTVSPost2010Prop49
280
     0
102
RTVSPost2010PropOp49
 70
     1
102
RTVSPost2010Prop50
 90
       50
102
RTVSPost2010PropOp50
 70
     1
102
RTVSPost2010Prop51ColorIndex
 90
      256
102
RTVSPost2010Prop51ColorRGB
 90
-16777216
102
RTVSPost2010PropOp51
 70
     0
102
RTVSPost2010Prop52
140
1.0
102
RTVSPost2010PropOp52
 70
     0
102
RTVSPost2010Prop53
 90
        2
102
RTVSPost2010PropOp53
 70
     1
102
RTVSPost2010Prop54
  1
strokes_ogs.tif
102
RTVSPost2010PropOp54
 70
     1
102
RTVSPost2010Prop55
280
     0
102
RTVSPost2010PropOp55
 70
     1
102
RTVSPost2010Prop56
140
1.0
102
RTVSPost2010PropOp56
 70
     1
102
RTVSPost2010Prop57
140
1.0
102
RTVSPost2010PropOp57
 70
     1
  0
XRECORD
  5
3D7
102
{ACAD_REACTORS
330
3D6
102
}
330
3D6
100
AcDbXrecord
280
     1
102
RTVSPropertyOp0
 70
     1
102
RTVSPropertyOp1
 70
     1
102
RTVSPropertyOp2
 70
     1
102
RTVSPropertyOp3
 70
     1
102
RTVSPropertyOp4
 70
     1
102
RTVSPropertyOp5
 70
     1
102
RTVSPropertyOp6
 70
     1
102
RTVSPropertyOp7
 70
     1
102
RTVSPropertyOp8
 70
     1
102
RTVSPropertyOp9
 70
     1
102
RTVSPropertyOp10
 70
     1
102
RTVSPropertyOp11
 70
     1
102
RTVSPropertyOp12
 70
     1
102
RTVSPropertyOp13
 70
     1
102
RTVSPropertyOp14
 70
     1
102
RTVSPropertyOp15
 70
     1
102
RTVSPropertyOp16
 70
     1
102
RTVSPropertyOp17
 70
     1
102
RTVSPropertyOp18
 70
     1
102
RTVSPropertyOp19
 70
     1
102
RTVSPropertyOp20
 70
     1
102
RTVSPropertyOp21
 70
     1
102
RTVSPropertyOp22
 70
     1
102
RTVSPropertyOp23
 70
     1
102
RTVSPropertyOp24
 70
     1
102
RTVSPropertyOp25
 70
     1
102
RTVSPropertyOp26
 70
     1
102
RTVSPropertyOp27
 70
     1
102
RTVSPropertyOp28
 70
     1
102
RTVSPropertyOp29
 70
     1
102
RTVSPropertyOp30
 70
     1
102
RTVSPropertyOp31
 70
     1
102
RTVSPropertyOp32
 70
     1
102
RTVSPropertyOp33
 70
     1
102
RTVSPropertyOp34
 70
     1
102
RTVSPropertyOp35
 70
     1
102
RTVSPropertyOp36
 70
     1
102
RTVSPropertyOp37
 70
     1
102
RTVSPropertyOp38
 70
     1
102
RTVSPropertyOp39
 70
     1
102
RTVSPropertyOp40
 70
     1
102
RTVSPropertyOp41
 70
     1
102
RTVSPropertyOp42
 70
     1
102
RTVSPropertyOp43
 70
     1
102
RTVSPropertyOp44
 70
     1
102
RTVSPropertyOp45
 70
     1
102
RTVSPropertyOp46
 70
     1
102
RTVSPropertyOp47
 70
     1
102
RTVSPropertyOp48
 70
     1
102
RTVSPropertyOp49
 70
     1
102
RTVSPropertyOp50
 70
     1
102
RTVSPropertyOp51
 70
     0
102
RTVSPropertyOp52
 70
     0
102
RTVSPropertyOp53
 70
     1
102
RTVSPropertyOp54
 70
     1
102
RTVSPropertyOp55
 70
     1
102
RTVSPropertyOp56
 70
     1
102
RTVSPropertyOp57
 70
     1
102
RTVSPost2010Prop28
280
     0
102
RTVSPost2010PropOp28
 70
     1
102
RTVSPost2010Prop29
280
     1
102
RTVSPost2010PropOp29
 70
     1
102
RTVSPost2010Prop30
280
     1
102
RTVSPost2010PropOp30
 70
     1
102
RTVSPost2010Prop31
280
     0
102
RTVSPost2010PropOp31
 70
     1
102
RTVSPost2010Prop32
280
     0
102
RTVSPost2010PropOp32
 70
     1
102
RTVSPost2010Prop33
280
     0
102
RTVSPost2010PropOp33
 70
     1
102
RTVSPost2010Prop34
280
     0
102
RTVSPost2010PropOp34
 70
     1
102
RTVSPost2010Prop35
280
     0
102
RTVSPost2010PropOp35
 70
     1
102
RTVSPost2010Prop36
280
     0
102
RTVSPost2010PropOp36
 70
     1
102
RTVSPost2010Prop37
 90
       50
102
RTVSPost2010PropOp37
 70
     1
102
RTVSPost2010Prop38
140
0.0
102
RTVSPost2010PropOp38
 70
     1
102
RTVSPost2010Prop39
140
1.0
102
RTVSPost2010PropOp39
 70
     1
102
RTVSPost2010Prop40
 90
        0
102
RTVSPost2010PropOp40
 70
     1
102
RTVSPost2010Prop41ColorIndex
 90
       18
102
RTVSPost2010Prop41ColorRGB
 90
        0
102
RTVSPost2010PropOp41
 70
     1
102
RTVSPost2010Prop42
 90
       50
102
RTVSPost2010PropOp42
 70
     1
102
RTVSPost2010Prop43
 90
        3
102
RTVSPost2010PropOp43
 70
     1
102
RTVSPost2010Prop44ColorIndex
 90
        5
102
RTVSPost2010Prop44ColorRGB
 90
      255
102
RTVSPost2010PropOp44
 70
     1
102
RTVSPost2010Prop45
280
     0
102
RTVSPost2010PropOp45
 70
     1
102
RTVSPost2010Prop46
 90
       50
102
RTVSPost2010PropOp46
 70
     1
102
RTVSPost2010Prop47
 90
       50
102
RTVSPost2010PropOp47
 70
     1
102
RTVSPost2010Prop48
 90
       50
102
RTVSPost2010PropOp48
 70
     1
102
RTVSPost2010Prop49
280
     0
102
RTVSPost2010PropOp49
 70
     1
102
RTVSPost2010Prop50
 90
       50
102
RTVSPost2010PropOp50
 70
     1
102
RTVSPost2010Prop51ColorIndex
 90
      256
102
RTVSPost2010Prop51ColorRGB
 90
-16777216
102
RTVSPost2010PropOp51
 70
     0
102
RTVSPost2010Prop52
140
1.0
102
RTVSPost2010PropOp52
 70
     0
102
RTVSPost2010Prop53
 90
        2
102
RTVSPost2010PropOp53
 70
     1
102
RTVSPost2010Prop54
  1
strokes_ogs.tif
102
RTVSPost2010PropOp54
 70
     1
102
RTVSPost2010Prop55
280
     0
102
RTVSPost2010PropOp55
 70
     1
102
RTVSPost2010Prop56
140
1.0
102
RTVSPost2010PropOp56
 70
     1
102
RTVSPost2010Prop57
140
1.0
102
RTVSPost2010PropOp57
 70
     1
  0
XRECORD
  5
3D9
102
{ACAD_REACTORS
330
3D8
102
}
330
3D8
100
AcDbXrecord
280
     1
102
RTVSPropertyOp0
 70
     1
102
RTVSPropertyOp1
 70
     1
102
RTVSPropertyOp2
 70
     1
102
RTVSPropertyOp3
 70
     1
102
RTVSPropertyOp4
 70
     1
102
RTVSPropertyOp5
 70
     1
102
RTVSPropertyOp6
 70
     1
102
RTVSPropertyOp7
 70
     1
102
RTVSPropertyOp8
 70
     1
102
RTVSPropertyOp9
 70
     1
102
RTVSPropertyOp10
 70
     1
102
RTVSPropertyOp11
 70
     1
102
RTVSPropertyOp12
 70
     1
102
RTVSPropertyOp13
 70
     1
102
RTVSPropertyOp14
 70
     1
102
RTVSPropertyOp15
 70
     1
102
RTVSPropertyOp16
 70
     1
102
RTVSPropertyOp17
 70
     1
102
RTVSPropertyOp18
 70
     1
102
RTVSPropertyOp19
 70
     1
102
RTVSPropertyOp20
 70
     1
102
RTVSPropertyOp21
 70
     1
102
RTVSPropertyOp22
 70
     1
102
RTVSPropertyOp23
 70
     1
102
RTVSPropertyOp24
 70
     1
102
RTVSPropertyOp25
 70
     1
102
RTVSPropertyOp26
 70
     1
102
RTVSPropertyOp27
 70
     1
102
RTVSPropertyOp28
 70
     1
102
RTVSPropertyOp29
 70
     1
102
RTVSPropertyOp30
 70
     1
102
RTVSPropertyOp31
 70
     1
102
RTVSPropertyOp32
 70
     1
102
RTVSPropertyOp33
 70
     1
102
RTVSPropertyOp34
 70
     1
102
RTVSPropertyOp35
 70
     1
102
RTVSPropertyOp36
 70
     1
102
RTVSPropertyOp37
 70
     1
102
RTVSPropertyOp38
 70
     1
102
RTVSPropertyOp39
 70
     1
102
RTVSPropertyOp40
 70
     1
102
RTVSPropertyOp41
 70
     1
102
RTVSPropertyOp42
 70
     1
102
RTVSPropertyOp43
 70
     1
102
RTVSPropertyOp44
 70
     1
102
RTVSPropertyOp45
 70
     1
102
RTVSPropertyOp46
 70
     1
102
RTVSPropertyOp47
 70
     1
102
RTVSPropertyOp48
 70
     1
102
RTVSPropertyOp49
 70
     1
102
RTVSPropertyOp50
 70
     1
102
RTVSPropertyOp51
 70
     0
102
RTVSPropertyOp52
 70
     0
102
RTVSPropertyOp53
 70
     1
102
RTVSPropertyOp54
 70
     1
102
RTVSPropertyOp55
 70
     1
102
RTVSPropertyOp56
 70
     1
102
RTVSPropertyOp57
 70
     1
102
RTVSPost2010Prop28
280
     0
102
RTVSPost2010PropOp28
 70
     1
102
RTVSPost2010Prop29
280
     1
102
RTVSPost2010PropOp29
 70
     1
102
RTVSPost2010Prop30
280
     1
102
RTVSPost2010PropOp30
 70
     1
102
RTVSPost2010Prop31
280
     0
102
RTVSPost2010PropOp31
 70
     1
102
RTVSPost2010Prop32
280
     0
102
RTVSPost2010PropOp32
 70
     1
102
RTVSPost2010Prop33
280
     0
102
RTVSPost2010PropOp33
 70
     1
102
RTVSPost2010Prop34
280
     0
102
RTVSPost2010PropOp34
 70
     1
102
RTVSPost2010Prop35
280
     0
102
RTVSPost2010PropOp35
 70
     1
102
RTVSPost2010Prop36
280
     0
102
RTVSPost2010PropOp36
 70
     1
102
RTVSPost2010Prop37
 90
       50
102
RTVSPost2010PropOp37
 70
     1
102
RTVSPost2010Prop38
140
0.0
102
RTVSPost2010PropOp38
 70
     1
102
RTVSPost2010Prop39
140
1.0
102
RTVSPost2010PropOp39
 70
     1
102
RTVSPost2010Prop40
 90
        0
102
RTVSPost2010PropOp40
 70
     1
102
RTVSPost2010Prop41ColorIndex
 90
       18
102
RTVSPost2010Prop41ColorRGB
 90
        0
102
RTVSPost2010PropOp41
 70
     1
102
RTVSPost2010Prop42
 90
       50
102
RTVSPost2010PropOp42
 70
     1
102
RTVSPost2010Prop43
 90
        3
102
RTVSPost2010PropOp43
 70
     1
102
RTVSPost2010Prop44ColorIndex
 90
        5
102
RTVSPost2010Prop44ColorRGB
 90
      255
102
RTVSPost2010PropOp44
 70
     1
102
RTVSPost2010Prop45
280
     0
102
RTVSPost2010PropOp45
 70
     1
102
RTVSPost2010Prop46
 90
       50
102
RTVSPost2010PropOp46
 70
     1
102
RTVSPost2010Prop47
 90
       50
102
RTVSPost2010PropOp47
 70
     1
102
RTVSPost2010Prop48
 90
       50
102
RTVSPost2010PropOp48
 70
     1
102
RTVSPost2010Prop49
280
     0
102
RTVSPost2010PropOp49
 70
     1
102
RTVSPost2010Prop50
 90
       50
102
RTVSPost2010PropOp50
 70
     1
102
RTVSPost2010Prop51ColorIndex
 90
      256
102
RTVSPost2010Prop51ColorRGB
 90
-16777216
102
RTVSPost2010PropOp51
 70
     0
102
RTVSPost2010Prop52
140
1.0
102
RTVSPost2010PropOp52
 70
     0
102
RTVSPost2010Prop53
 90
        2
102
RTVSPost2010PropOp53
 70
     1
102
RTVSPost2010Prop54
  1
strokes_ogs.tif
102
RTVSPost2010PropOp54
 70
     1
102
RTVSPost2010Prop55
280
     0
102
RTVSPost2010PropOp55
 70
     1
102
RTVSPost2010Prop56
140
1.0
102
RTVSPost2010PropOp56
 70
     1
102
RTVSPost2010Prop57
140
1.0
102
RTVSPost2010PropOp57
 70
     1
  0
XRECORD
  5
3DB
102
{ACAD_REACTORS
330
3DA
102
}
330
3DA
100
AcDbXrecord
280
     1
102
RTVSPropertyOp0
 70
     1
102
RTVSPropertyOp1
 70
     1
102
RTVSPropertyOp2
 70
     1
102
RTVSPropertyOp3
 70
     1
102
RTVSPropertyOp4
 70
     1
102
RTVSPropertyOp5
 70
     1
102
RTVSPropertyOp6
 70
     1
102
RTVSPropertyOp7
 70
     1
102
RTVSPropertyOp8
 70
     1
102
RTVSPropertyOp9
 70
     1
102
RTVSPropertyOp10
 70
     1
102
RTVSPropertyOp11
 70
     1
102
RTVSPropertyOp12
 70
     1
102
RTVSPropertyOp13
 70
     1
102
RTVSPropertyOp14
 70
     1
102
RTVSPropertyOp15
 70
     1
102
RTVSPropertyOp16
 70
     1
102
RTVSPropertyOp17
 70
     1
102
RTVSPropertyOp18
 70
     1
102
RTVSPropertyOp19
 70
     1
102
RTVSPropertyOp20
 70
     1
102
RTVSPropertyOp21
 70
     1
102
RTVSPropertyOp22
 70
     1
102
RTVSPropertyOp23
 70
     1
102
RTVSPropertyOp24
 70
     1
102
RTVSPropertyOp25
 70
     1
102
RTVSPropertyOp26
 70
     1
102
RTVSPropertyOp27
 70
     1
102
RTVSPropertyOp28
 70
     1
102
RTVSPropertyOp29
 70
     1
102
RTVSPropertyOp30
 70
     1
102
RTVSPropertyOp31
 70
     1
102
RTVSPropertyOp32
 70
     1
102
RTVSPropertyOp33
 70
     1
102
RTVSPropertyOp34
 70
     1
102
RTVSPropertyOp35
 70
     1
102
RTVSPropertyOp36
 70
     1
102
RTVSPropertyOp37
 70
     1
102
RTVSPropertyOp38
 70
     1
102
RTVSPropertyOp39
 70
     1
102
RTVSPropertyOp40
 70
     1
102
RTVSPropertyOp41
 70
     1
102
RTVSPropertyOp42
 70
     1
102
RTVSPropertyOp43
 70
     1
102
RTVSPropertyOp44
 70
     1
102
RTVSPropertyOp45
 70
     1
102
RTVSPropertyOp46
 70
     1
102
RTVSPropertyOp47
 70
     1
102
RTVSPropertyOp48
 70
     1
102
RTVSPropertyOp49
 70
     1
102
RTVSPropertyOp50
 70
     1
102
RTVSPropertyOp51
 70
     0
102
RTVSPropertyOp52
 70
     0
102
RTVSPropertyOp53
 70
     1
102
RTVSPropertyOp54
 70
     1
102
RTVSPropertyOp55
 70
     1
102
RTVSPropertyOp56
 70
     1
102
RTVSPropertyOp57
 70
     1
102
RTVSPost2010Prop28
280
     0
102
RTVSPost2010PropOp28
 70
     1
102
RTVSPost2010Prop29
280
     1
102
RTVSPost2010PropOp29
 70
     1
102
RTVSPost2010Prop30
280
     1
102
RTVSPost2010PropOp30
 70
     1
102
RTVSPost2010Prop31
280
     0
102
RTVSPost2010PropOp31
 70
     1
102
RTVSPost2010Prop32
280
     0
102
RTVSPost2010PropOp32
 70
     1
102
RTVSPost2010Prop33
280
     0
102
RTVSPost2010PropOp33
 70
     1
102
RTVSPost2010Prop34
280
     0
102
RTVSPost2010PropOp34
 70
     1
102
RTVSPost2010Prop35
280
     0
102
RTVSPost2010PropOp35
 70
     1
102
RTVSPost2010Prop36
280
     0
102
RTVSPost2010PropOp36
 70
     1
102
RTVSPost2010Prop37
 90
       50
102
RTVSPost2010PropOp37
 70
     1
102
RTVSPost2010Prop38
140
0.0
102
RTVSPost2010PropOp38
 70
     1
102
RTVSPost2010Prop39
140
1.0
102
RTVSPost2010PropOp39
 70
     1
102
RTVSPost2010Prop40
 90
        0
102
RTVSPost2010PropOp40
 70
     1
102
RTVSPost2010Prop41ColorIndex
 90
       18
102
RTVSPost2010Prop41ColorRGB
 90
        0
102
RTVSPost2010PropOp41
 70
     1
102
RTVSPost2010Prop42
 90
       50
102
RTVSPost2010PropOp42
 70
     1
102
RTVSPost2010Prop43
 90
        3
102
RTVSPost2010PropOp43
 70
     1
102
RTVSPost2010Prop44ColorIndex
 90
        5
102
RTVSPost2010Prop44ColorRGB
 90
      255
102
RTVSPost2010PropOp44
 70
     1
102
RTVSPost2010Prop45
280
     0
102
RTVSPost2010PropOp45
 70
     1
102
RTVSPost2010Prop46
 90
       50
102
RTVSPost2010PropOp46
 70
     1
102
RTVSPost2010Prop47
 90
       50
102
RTVSPost2010PropOp47
 70
     1
102
RTVSPost2010Prop48
 90
       50
102
RTVSPost2010PropOp48
 70
     1
102
RTVSPost2010Prop49
280
     0
102
RTVSPost2010PropOp49
 70
     1
102
RTVSPost2010Prop50
 90
       50
102
RTVSPost2010PropOp50
 70
     1
102
RTVSPost2010Prop51ColorIndex
 90
      256
102
RTVSPost2010Prop51ColorRGB
 90
-16777216
102
RTVSPost2010PropOp51
 70
     0
102
RTVSPost2010Prop52
140
1.0
102
RTVSPost2010PropOp52
 70
     0
102
RTVSPost2010Prop53
 90
        2
102
RTVSPost2010PropOp53
 70
     1
102
RTVSPost2010Prop54
  1
strokes_ogs.tif
102
RTVSPost2010PropOp54
 70
     1
102
RTVSPost2010Prop55
280
     0
102
RTVSPost2010PropOp55
 70
     1
102
RTVSPost2010Prop56
140
1.0
102
RTVSPost2010PropOp56
 70
     1
102
RTVSPost2010Prop57
140
1.0
102
RTVSPost2010PropOp57
 70
     1
  0
XRECORD
  5
3EF
102
{ACAD_REACTORS
330
3EE
102
}
330
3EE
100
AcDbXrecord
280
     1
102
RTVSPropertyOp0
 70
     1
102
RTVSPropertyOp1
 70
     1
102
RTVSPropertyOp2
 70
     1
102
RTVSPropertyOp3
 70
     1
102
RTVSPropertyOp4
 70
     1
102
RTVSPropertyOp5
 70
     1
102
RTVSPropertyOp6
 70
     1
102
RTVSPropertyOp7
 70
     1
102
RTVSPropertyOp8
 70
     1
102
RTVSPropertyOp9
 70
     1
102
RTVSPropertyOp10
 70
     1
102
RTVSPropertyOp11
 70
     1
102
RTVSPropertyOp12
 70
     1
102
RTVSPropertyOp13
 70
     1
102
RTVSPropertyOp14
 70
     1
102
RTVSPropertyOp15
 70
     1
102
RTVSPropertyOp16
 70
     1
102
RTVSPropertyOp17
 70
     1
102
RTVSPropertyOp18
 70
     1
102
RTVSPropertyOp19
 70
     1
102
RTVSPropertyOp20
 70
     1
102
RTVSPropertyOp21
 70
     1
102
RTVSPropertyOp22
 70
     1
102
RTVSPropertyOp23
 70
     1
102
RTVSPropertyOp24
 70
     1
102
RTVSPropertyOp25
 70
     1
102
RTVSPropertyOp26
 70
     1
102
RTVSPropertyOp27
 70
     1
102
RTVSPropertyOp28
 70
     1
102
RTVSPropertyOp29
 70
     1
102
RTVSPropertyOp30
 70
     1
102
RTVSPropertyOp31
 70
     1
102
RTVSPropertyOp32
 70
     1
102
RTVSPropertyOp33
 70
     1
102
RTVSPropertyOp34
 70
     1
102
RTVSPropertyOp35
 70
     1
102
RTVSPropertyOp36
 70
     1
102
RTVSPropertyOp37
 70
     1
102
RTVSPropertyOp38
 70
     1
102
RTVSPropertyOp39
 70
     1
102
RTVSPropertyOp40
 70
     1
102
RTVSPropertyOp41
 70
     1
102
RTVSPropertyOp42
 70
     1
102
RTVSPropertyOp43
 70
     1
102
RTVSPropertyOp44
 70
     1
102
RTVSPropertyOp45
 70
     1
102
RTVSPropertyOp46
 70
     1
102
RTVSPropertyOp47
 70
     1
102
RTVSPropertyOp48
 70
     1
102
RTVSPropertyOp49
 70
     1
102
RTVSPropertyOp50
 70
     1
102
RTVSPropertyOp51
 70
     0
102
RTVSPropertyOp52
 70
     0
102
RTVSPropertyOp53
 70
     1
102
RTVSPropertyOp54
 70
     1
102
RTVSPropertyOp55
 70
     1
102
RTVSPropertyOp56
 70
     1
102
RTVSPropertyOp57
 70
     1
102
RTVSPost2010Prop28
280
     0
102
RTVSPost2010PropOp28
 70
     1
102
RTVSPost2010Prop29
280
     1
102
RTVSPost2010PropOp29
 70
     1
102
RTVSPost2010Prop30
280
     1
102
RTVSPost2010PropOp30
 70
     1
102
RTVSPost2010Prop31
280
     0
102
RTVSPost2010PropOp31
 70
     1
102
RTVSPost2010Prop32
280
     0
102
RTVSPost2010PropOp32
 70
     1
102
RTVSPost2010Prop33
280
     0
102
RTVSPost2010PropOp33
 70
     1
102
RTVSPost2010Prop34
280
     0
102
RTVSPost2010PropOp34
 70
     1
102
RTVSPost2010Prop35
280
     0
102
RTVSPost2010PropOp35
 70
     1
102
RTVSPost2010Prop36
280
     0
102
RTVSPost2010PropOp36
 70
     1
102
RTVSPost2010Prop37
 90
       50
102
RTVSPost2010PropOp37
 70
     1
102
RTVSPost2010Prop38
140
0.0
102
RTVSPost2010PropOp38
 70
     1
102
RTVSPost2010Prop39
140
1.0
102
RTVSPost2010PropOp39
 70
     1
102
RTVSPost2010Prop40
 90
        0
102
RTVSPost2010PropOp40
 70
     1
102
RTVSPost2010Prop41ColorIndex
 90
       18
102
RTVSPost2010Prop41ColorRGB
 90
        0
102
RTVSPost2010PropOp41
 70
     1
102
RTVSPost2010Prop42
 90
       50
102
RTVSPost2010PropOp42
 70
     1
102
RTVSPost2010Prop43
 90
        3
102
RTVSPost2010PropOp43
 70
     1
102
RTVSPost2010Prop44ColorIndex
 90
        5
102
RTVSPost2010Prop44ColorRGB
 90
      255
102
RTVSPost2010PropOp44
 70
     1
102
RTVSPost2010Prop45
280
     0
102
RTVSPost2010PropOp45
 70
     1
102
RTVSPost2010Prop46
 90
       50
102
RTVSPost2010PropOp46
 70
     1
102
RTVSPost2010Prop47
 90
       50
102
RTVSPost2010PropOp47
 70
     1
102
RTVSPost2010Prop48
 90
       50
102
RTVSPost2010PropOp48
 70
     1
102
RTVSPost2010Prop49
280
     0
102
RTVSPost2010PropOp49
 70
     1
102
RTVSPost2010Prop50
 90
       50
102
RTVSPost2010PropOp50
 70
     1
102
RTVSPost2010Prop51ColorIndex
 90
      256
102
RTVSPost2010Prop51ColorRGB
 90
-16777216
102
RTVSPost2010PropOp51
 70
     0
102
RTVSPost2010Prop52
140
1.0
102
RTVSPost2010PropOp52
 70
     0
102
RTVSPost2010Prop53
 90
        2
102
RTVSPost2010PropOp53
 70
     1
102
RTVSPost2010Prop54
  1
strokes_ogs.tif
102
RTVSPost2010PropOp54
 70
     1
102
RTVSPost2010Prop55
280
     0
102
RTVSPost2010PropOp55
 70
     1
102
RTVSPost2010Prop56
140
1.0
102
RTVSPost2010PropOp56
 70
     1
102
RTVSPost2010Prop57
140
1.0
102
RTVSPost2010PropOp57
 70
     1
  0
XRECORD
  5
3E5
102
{ACAD_REACTORS
330
3E4
102
}
330
3E4
100
AcDbXrecord
280
     1
102
RTVSPropertyOp0
 70
     1
102
RTVSPropertyOp1
 70
     1
102
RTVSPropertyOp2
 70
     1
102
RTVSPropertyOp3
 70
     1
102
RTVSPropertyOp4
 70
     1
102
RTVSPropertyOp5
 70
     1
102
RTVSPropertyOp6
 70
     1
102
RTVSPropertyOp7
 70
     1
102
RTVSPropertyOp8
 70
     1
102
RTVSPropertyOp9
 70
     1
102
RTVSPropertyOp10
 70
     1
102
RTVSPropertyOp11
 70
     1
102
RTVSPropertyOp12
 70
     1
102
RTVSPropertyOp13
 70
     1
102
RTVSPropertyOp14
 70
     1
102
RTVSPropertyOp15
 70
     1
102
RTVSPropertyOp16
 70
     1
102
RTVSPropertyOp17
 70
     1
102
RTVSPropertyOp18
 70
     1
102
RTVSPropertyOp19
 70
     1
102
RTVSPropertyOp20
 70
     1
102
RTVSPropertyOp21
 70
     1
102
RTVSPropertyOp22
 70
     1
102
RTVSPropertyOp23
 70
     1
102
RTVSPropertyOp24
 70
     1
102
RTVSPropertyOp25
 70
     1
102
RTVSPropertyOp26
 70
     1
102
RTVSPropertyOp27
 70
     1
102
RTVSPropertyOp28
 70
     1
102
RTVSPropertyOp29
 70
     1
102
RTVSPropertyOp30
 70
     1
102
RTVSPropertyOp31
 70
     1
102
RTVSPropertyOp32
 70
     1
102
RTVSPropertyOp33
 70
     1
102
RTVSPropertyOp34
 70
     1
102
RTVSPropertyOp35
 70
     1
102
RTVSPropertyOp36
 70
     1
102
RTVSPropertyOp37
 70
     1
102
RTVSPropertyOp38
 70
     1
102
RTVSPropertyOp39
 70
     1
102
RTVSPropertyOp40
 70
     1
102
RTVSPropertyOp41
 70
     1
102
RTVSPropertyOp42
 70
     1
102
RTVSPropertyOp43
 70
     1
102
RTVSPropertyOp44
 70
     1
102
RTVSPropertyOp45
 70
     1
102
RTVSPropertyOp46
 70
     1
102
RTVSPropertyOp47
 70
     1
102
RTVSPropertyOp48
 70
     1
102
RTVSPropertyOp49
 70
     1
102
RTVSPropertyOp50
 70
     1
102
RTVSPropertyOp51
 70
     0
102
RTVSPropertyOp52
 70
     0
102
RTVSPropertyOp53
 70
     1
102
RTVSPropertyOp54
 70
     1
102
RTVSPropertyOp55
 70
     1
102
RTVSPropertyOp56
 70
     1
102
RTVSPropertyOp57
 70
     1
102
RTVSPost2010Prop28
280
     0
102
RTVSPost2010PropOp28
 70
     1
102
RTVSPost2010Prop29
280
     1
102
RTVSPost2010PropOp29
 70
     1
102
RTVSPost2010Prop30
280
     1
102
RTVSPost2010PropOp30
 70
     1
102
RTVSPost2010Prop31
280
     0
102
RTVSPost2010PropOp31
 70
     1
102
RTVSPost2010Prop32
280
     0
102
RTVSPost2010PropOp32
 70
     1
102
RTVSPost2010Prop33
280
     0
102
RTVSPost2010PropOp33
 70
     1
102
RTVSPost2010Prop34
280
     0
102
RTVSPost2010PropOp34
 70
     1
102
RTVSPost2010Prop35
280
     0
102
RTVSPost2010PropOp35
 70
     1
102
RTVSPost2010Prop36
280
     0
102
RTVSPost2010PropOp36
 70
     1
102
RTVSPost2010Prop37
 90
       50
102
RTVSPost2010PropOp37
 70
     1
102
RTVSPost2010Prop38
140
0.0
102
RTVSPost2010PropOp38
 70
     1
102
RTVSPost2010Prop39
140
1.0
102
RTVSPost2010PropOp39
 70
     1
102
RTVSPost2010Prop40
 90
        0
102
RTVSPost2010PropOp40
 70
     1
102
RTVSPost2010Prop41ColorIndex
 90
       18
102
RTVSPost2010Prop41ColorRGB
 90
        0
102
RTVSPost2010PropOp41
 70
     1
102
RTVSPost2010Prop42
 90
       50
102
RTVSPost2010PropOp42
 70
     1
102
RTVSPost2010Prop43
 90
        3
102
RTVSPost2010PropOp43
 70
     1
102
RTVSPost2010Prop44ColorIndex
 90
        5
102
RTVSPost2010Prop44ColorRGB
 90
      255
102
RTVSPost2010PropOp44
 70
     1
102
RTVSPost2010Prop45
280
     0
102
RTVSPost2010PropOp45
 70
     1
102
RTVSPost2010Prop46
 90
       50
102
RTVSPost2010PropOp46
 70
     1
102
RTVSPost2010Prop47
 90
       50
102
RTVSPost2010PropOp47
 70
     1
102
RTVSPost2010Prop48
 90
       50
102
RTVSPost2010PropOp48
 70
     1
102
RTVSPost2010Prop49
280
     0
102
RTVSPost2010PropOp49
 70
     1
102
RTVSPost2010Prop50
 90
       50
102
RTVSPost2010PropOp50
 70
     1
102
RTVSPost2010Prop51ColorIndex
 90
      256
102
RTVSPost2010Prop51ColorRGB
 90
-16777216
102
RTVSPost2010PropOp51
 70
     0
102
RTVSPost2010Prop52
140
1.0
102
RTVSPost2010PropOp52
 70
     0
102
RTVSPost2010Prop53
 90
        2
102
RTVSPost2010PropOp53
 70
     1
102
RTVSPost2010Prop54
  1
strokes_ogs.tif
102
RTVSPost2010PropOp54
 70
     1
102
RTVSPost2010Prop55
280
     0
102
RTVSPost2010PropOp55
 70
     1
102
RTVSPost2010Prop56
140
1.0
102
RTVSPost2010PropOp56
 70
     1
102
RTVSPost2010Prop57
140
1.0
102
RTVSPost2010PropOp57
 70
     1
  0
XRECORD
  5
3ED
102
{ACAD_REACTORS
330
3EC
102
}
330
3EC
100
AcDbXrecord
280
     1
102
RTVSPropertyOp0
 70
     1
102
RTVSPropertyOp1
 70
     1
102
RTVSPropertyOp2
 70
     1
102
RTVSPropertyOp3
 70
     1
102
RTVSPropertyOp4
 70
     1
102
RTVSPropertyOp5
 70
     1
102
RTVSPropertyOp6
 70
     1
102
RTVSPropertyOp7
 70
     1
102
RTVSPropertyOp8
 70
     1
102
RTVSPropertyOp9
 70
     1
102
RTVSPropertyOp10
 70
     1
102
RTVSPropertyOp11
 70
     1
102
RTVSPropertyOp12
 70
     1
102
RTVSPropertyOp13
 70
     1
102
RTVSPropertyOp14
 70
     1
102
RTVSPropertyOp15
 70
     1
102
RTVSPropertyOp16
 70
     1
102
RTVSPropertyOp17
 70
     1
102
RTVSPropertyOp18
 70
     1
102
RTVSPropertyOp19
 70
     1
102
RTVSPropertyOp20
 70
     1
102
RTVSPropertyOp21
 70
     1
102
RTVSPropertyOp22
 70
     1
102
RTVSPropertyOp23
 70
     1
102
RTVSPropertyOp24
 70
     1
102
RTVSPropertyOp25
 70
     1
102
RTVSPropertyOp26
 70
     1
102
RTVSPropertyOp27
 70
     1
102
RTVSPropertyOp28
 70
     1
102
RTVSPropertyOp29
 70
     1
102
RTVSPropertyOp30
 70
     1
102
RTVSPropertyOp31
 70
     1
102
RTVSPropertyOp32
 70
     1
102
RTVSPropertyOp33
 70
     1
102
RTVSPropertyOp34
 70
     1
102
RTVSPropertyOp35
 70
     1
102
RTVSPropertyOp36
 70
     1
102
RTVSPropertyOp37
 70
     1
102
RTVSPropertyOp38
 70
     1
102
RTVSPropertyOp39
 70
     1
102
RTVSPropertyOp40
 70
     1
102
RTVSPropertyOp41
 70
     1
102
RTVSPropertyOp42
 70
     1
102
RTVSPropertyOp43
 70
     1
102
RTVSPropertyOp44
 70
     1
102
RTVSPropertyOp45
 70
     1
102
RTVSPropertyOp46
 70
     1
102
RTVSPropertyOp47
 70
     1
102
RTVSPropertyOp48
 70
     1
102
RTVSPropertyOp49
 70
     1
102
RTVSPropertyOp50
 70
     1
102
RTVSPropertyOp51
 70
     0
102
RTVSPropertyOp52
 70
     0
102
RTVSPropertyOp53
 70
     1
102
RTVSPropertyOp54
 70
     1
102
RTVSPropertyOp55
 70
     1
102
RTVSPropertyOp56
 70
     1
102
RTVSPropertyOp57
 70
     1
102
RTVSPost2010Prop28
280
     0
102
RTVSPost2010PropOp28
 70
     1
102
RTVSPost2010Prop29
280
     1
102
RTVSPost2010PropOp29
 70
     1
102
RTVSPost2010Prop30
280
     1
102
RTVSPost2010PropOp30
 70
     1
102
RTVSPost2010Prop31
280
     0
102
RTVSPost2010PropOp31
 70
     1
102
RTVSPost2010Prop32
280
     0
102
RTVSPost2010PropOp32
 70
     1
102
RTVSPost2010Prop33
280
     0
102
RTVSPost2010PropOp33
 70
     1
102
RTVSPost2010Prop34
280
     0
102
RTVSPost2010PropOp34
 70
     1
102
RTVSPost2010Prop35
280
     0
102
RTVSPost2010PropOp35
 70
     1
102
RTVSPost2010Prop36
280
     0
102
RTVSPost2010PropOp36
 70
     1
102
RTVSPost2010Prop37
 90
       50
102
RTVSPost2010PropOp37
 70
     1
102
RTVSPost2010Prop38
140
0.0
102
RTVSPost2010PropOp38
 70
     1
102
RTVSPost2010Prop39
140
1.0
102
RTVSPost2010PropOp39
 70
     1
102
RTVSPost2010Prop40
 90
        0
102
RTVSPost2010PropOp40
 70
     1
102
RTVSPost2010Prop41ColorIndex
 90
       18
102
RTVSPost2010Prop41ColorRGB
 90
        0
102
RTVSPost2010PropOp41
 70
     1
102
RTVSPost2010Prop42
 90
       50
102
RTVSPost2010PropOp42
 70
     1
102
RTVSPost2010Prop43
 90
        3
102
RTVSPost2010PropOp43
 70
     1
102
RTVSPost2010Prop44ColorIndex
 90
        5
102
RTVSPost2010Prop44ColorRGB
 90
      255
102
RTVSPost2010PropOp44
 70
     1
102
RTVSPost2010Prop45
280
     0
102
RTVSPost2010PropOp45
 70
     1
102
RTVSPost2010Prop46
 90
       50
102
RTVSPost2010PropOp46
 70
     1
102
RTVSPost2010Prop47
 90
       50
102
RTVSPost2010PropOp47
 70
     1
102
RTVSPost2010Prop48
 90
       50
102
RTVSPost2010PropOp48
 70
     1
102
RTVSPost2010Prop49
280
     0
102
RTVSPost2010PropOp49
 70
     1
102
RTVSPost2010Prop50
 90
       50
102
RTVSPost2010PropOp50
 70
     1
102
RTVSPost2010Prop51ColorIndex
 90
      256
102
RTVSPost2010Prop51ColorRGB
 90
-16777216
102
RTVSPost2010PropOp51
 70
     0
102
RTVSPost2010Prop52
140
1.0
102
RTVSPost2010PropOp52
 70
     0
102
RTVSPost2010Prop53
 90
        2
102
RTVSPost2010PropOp53
 70
     1
102
RTVSPost2010Prop54
  1
strokes_ogs.tif
102
RTVSPost2010PropOp54
 70
     1
102
RTVSPost2010Prop55
280
     0
102
RTVSPost2010PropOp55
 70
     1
102
RTVSPost2010Prop56
140
1.0
102
RTVSPost2010PropOp56
 70
     1
102
RTVSPost2010Prop57
140
1.0
102
RTVSPost2010PropOp57
 70
     1
  0
ENDSEC
  0
EOF
