  0
SECTION
  2
HEADER
  9
$ACADVER
  1
AC1018
  9
$ACADMAINTVER
 70
     0
  9
$DWGCODEPAGE
  3
ANSI_936
  9
$INSBASE
 10
0.0
 20
0.0
 30
0.0
  9
$EXTMIN
 10
-0.0000001518140227
 20
1071.788226310014
 30
0.0
  9
$EXTMAX
 10
202.6604268166416
 20
1721.789312986084
 30
0.0
  9
$LIMMIN
 10
0.0
 20
0.0
  9
$LIMMAX
 10
12.0
 20
9.0
  9
$ORTHOMODE
 70
     0
  9
$REGENMODE
 70
     1
  9
$FILLMODE
 70
     1
  9
$QTEXTMODE
 70
     0
  9
$MIRRTEXT
 70
     1
  9
$LTSCALE
 40
1.0
  9
$ATTMODE
 70
     1
  9
$TEXTSIZE
 40
0.2
  9
$TRACEWID
 40
0.05
  9
$TEXTSTYLE
  7
Standard
  9
$CLAYER
  8
0
  9
$CELTYPE
  6
ByLayer
  9
$CECOLOR
 62
   256
  9
$CELTSCALE
 40
1.0
  9
$DISPSILH
 70
     0
  9
$DIMSCALE
 40
1.0
  9
$DIMASZ
 40
0.18
  9
$DIMEXO
 40
0.0625
  9
$DIMDLI
 40
0.38
  9
$DIMRND
 40
0.0
  9
$DIMDLE
 40
0.0
  9
$DIMEXE
 40
0.18
  9
$DIMTP
 40
0.0
  9
$DIMTM
 40
0.0
  9
$DIMTXT
 40
0.18
  9
$DIMCEN
 40
0.09
  9
$DIMTSZ
 40
0.0
  9
$DIMTOL
 70
     0
  9
$DIMLIM
 70
     0
  9
$DIMTIH
 70
     1
  9
$DIMTOH
 70
     1
  9
$DIMSE1
 70
     0
  9
$DIMSE2
 70
     0
  9
$DIMTAD
 70
     0
  9
$DIMZIN
 70
     0
  9
$DIMBLK
  1

  9
$DIMASO
 70
     1
  9
$DIMSHO
 70
     1
  9
$DIMPOST
  1

  9
$DIMAPOST
  1

  9
$DIMALT
 70
     0
  9
$DIMALTD
 70
     2
  9
$DIMALTF
 40
25.4
  9
$DIMLFAC
 40
1.0
  9
$DIMTOFL
 70
     0
  9
$DIMTVP
 40
0.0
  9
$DIMTIX
 70
     0
  9
$DIMSOXD
 70
     0
  9
$DIMSAH
 70
     0
  9
$DIMBLK1
  1

  9
$DIMBLK2
  1

  9
$DIMSTYLE
  2
Standard
  9
$DIMCLRD
 70
     0
  9
$DIMCLRE
 70
     0
  9
$DIMCLRT
 70
     0
  9
$DIMTFAC
 40
1.0
  9
$DIMGAP
 40
0.09
  9
$DIMJUST
 70
     0
  9
$DIMSD1
 70
     0
  9
$DIMSD2
 70
     0
  9
$DIMTOLJ
 70
     1
  9
$DIMTZIN
 70
     0
  9
$DIMALTZ
 70
     0
  9
$DIMALTTZ
 70
     0
  9
$DIMUPT
 70
     0
  9
$DIMDEC
 70
     4
  9
$DIMTDEC
 70
     4
  9
$DIMALTU
 70
     2
  9
$DIMALTTD
 70
     2
  9
$DIMTXSTY
  7
Standard
  9
$DIMAUNIT
 70
     0
  9
$DIMADEC
 70
     0
  9
$DIMALTRND
 40
0.0
  9
$DIMAZIN
 70
     0
  9
$DIMDSEP
 70
    46
  9
$DIMATFIT
 70
     3
  9
$DIMFRAC
 70
     0
  9
$DIMLDRBLK
  1

  9
$DIMLUNIT
 70
     2
  9
$DIMLWD
 70
    -2
  9
$DIMLWE
 70
    -2
  9
$DIMTMOVE
 70
     2
  9
$LUNITS
 70
     2
  9
$LUPREC
 70
     2
  9
$SKETCHINC
 40
0.1
  9
$FILLETRAD
 40
0.5
  9
$AUNITS
 70
     0
  9
$AUPREC
 70
     0
  9
$MENU
  1
.
  9
$ELEVATION
 40
0.0
  9
$PELEVATION
 40
0.0
  9
$THICKNESS
 40
0.0
  9
$LIMCHECK
 70
     0
  9
$CHAMFERA
 40
0.5
  9
$CHAMFERB
 40
0.5
  9
$CHAMFERC
 40
1.0
  9
$CHAMFERD
 40
0.0
  9
$SKPOLY
 70
     0
  9
$TDCREATE
 40
2456841.692456539
  9
$TDUCREATE
 40
2456841.359123206
  9
$TDUPDATE
 40
2456841.692458866
  9
$TDUUPDATE
 40
2456841.359125532
  9
$TDINDWG
 40
0.0000000116
  9
$TDUSRTIMER
 40
0.0000000116
  9
$USRTIMER
 70
     1
  9
$ANGBASE
 50
0.0
  9
$ANGDIR
 70
     0
  9
$PDMODE
 70
     0
  9
$PDSIZE
 40
0.0
  9
$PLINEWID
 40
0.0
  9
$SPLFRAME
 70
     0
  9
$SPLINETYPE
 70
     6
  9
$SPLINESEGS
 70
     8
  9
$HANDSEED
  5
4E1
  9
$SURFTAB1
 70
     6
  9
$SURFTAB2
 70
     6
  9
$SURFTYPE
 70
     6
  9
$SURFU
 70
     6
  9
$SURFV
 70
     6
  9
$UCSBASE
  2

  9
$UCSNAME
  2

  9
$UCSORG
 10
0.0
 20
0.0
 30
0.0
  9
$UCSXDIR
 10
1.0
 20
0.0
 30
0.0
  9
$UCSYDIR
 10
0.0
 20
1.0
 30
0.0
  9
$UCSORTHOREF
  2

  9
$UCSORTHOVIEW
 70
     0
  9
$UCSORGTOP
 10
0.0
 20
0.0
 30
0.0
  9
$UCSORGBOTTOM
 10
0.0
 20
0.0
 30
0.0
  9
$UCSORGLEFT
 10
0.0
 20
0.0
 30
0.0
  9
$UCSORGRIGHT
 10
0.0
 20
0.0
 30
0.0
  9
$UCSORGFRONT
 10
0.0
 20
0.0
 30
0.0
  9
$UCSORGBACK
 10
0.0
 20
0.0
 30
0.0
  9
$PUCSBASE
  2

  9
$PUCSNAME
  2

  9
$PUCSORG
 10
0.0
 20
0.0
 30
0.0
  9
$PUCSXDIR
 10
1.0
 20
0.0
 30
0.0
  9
$PUCSYDIR
 10
0.0
 20
1.0
 30
0.0
  9
$PUCSORTHOREF
  2

  9
$PUCSORTHOVIEW
 70
     0
  9
$PUCSORGTOP
 10
0.0
 20
0.0
 30
0.0
  9
$PUCSORGBOTTOM
 10
0.0
 20
0.0
 30
0.0
  9
$PUCSORGLEFT
 10
0.0
 20
0.0
 30
0.0
  9
$PUCSORGRIGHT
 10
0.0
 20
0.0
 30
0.0
  9
$PUCSORGFRONT
 10
0.0
 20
0.0
 30
0.0
  9
$PUCSORGBACK
 10
0.0
 20
0.0
 30
0.0
  9
$USERI1
 70
     0
  9
$USERI2
 70
     0
  9
$USERI3
 70
     0
  9
$USERI4
 70
     0
  9
$USERI5
 70
     0
  9
$USERR1
 40
0.0
  9
$USERR2
 40
0.0
  9
$USERR3
 40
0.0
  9
$USERR4
 40
0.0
  9
$USERR5
 40
0.0
  9
$WORLDVIEW
 70
     1
  9
$SHADEDGE
 70
     3
  9
$SHADEDIF
 70
    70
  9
$TILEMODE
 70
     1
  9
$MAXACTVP
 70
    64
  9
$PINSBASE
 10
0.0
 20
0.0
 30
0.0
  9
$PLIMCHECK
 70
     0
  9
$PEXTMIN
 10
1.000000000000000E+20
 20
1.000000000000000E+20
 30
1.000000000000000E+20
  9
$PEXTMAX
 10
-1.000000000000000E+20
 20
-1.000000000000000E+20
 30
-1.000000000000000E+20
  9
$PLIMMIN
 10
0.0
 20
0.0
  9
$PLIMMAX
 10
12.0
 20
9.0
  9
$UNITMODE
 70
     0
  9
$VISRETAIN
 70
     1
  9
$PLINEGEN
 70
     0
  9
$PSLTSCALE
 70
     1
  9
$TREEDEPTH
 70
  3020
  9
$CMLSTYLE
  2
Standard
  9
$CMLJUST
 70
     0
  9
$CMLSCALE
 40
1.0
  9
$PROXYGRAPHICS
 70
     1
  9
$MEASUREMENT
 70
     0
  9
$CELWEIGHT
370
    -1
  9
$ENDCAPS
280
     0
  9
$JOINSTYLE
280
     0
  9
$LWDISPLAY
290
     0
  9
$INSUNITS
 70
     4
  9
$HYPERLINKBASE
  1

  9
$STYLESHEET
  1

  9
$XEDIT
290
     1
  9
$CEPSNTYPE
380
     0
  9
$PSTYLEMODE
290
     1
  9
$FINGERPRINTGUID
  2
{E0611ACA-4C9A-48CA-9DEC-1C6DE664CF17}
  9
$VERSIONGUID
  2
{FAEB1C32-E019-11D5-929B-00C0DF256EC4}
  9
$EXTNAMES
290
     1
  9
$PSVPSCALE
 40
0.0
  9
$OLESTARTUP
290
     0
  9
$SORTENTS
280
   127
  9
$INDEXCTL
280
     0
  9
$HIDETEXT
280
     1
  9
$XCLIPFRAME
290
     0
  9
$HALOGAP
280
     0
  9
$OBSCOLOR
 70
   257
  9
$OBSLTYPE
280
     0
  9
$INTERSECTIONDISPLAY
280
     0
  9
$INTERSECTIONCOLOR
 70
   257
  9
$DIMASSOC
280
     2
  9
$PROJECTNAME
  1

  0
ENDSEC
  0
SECTION
  2
CLASSES
  0
CLASS
  1
ACDBDICTIONARYWDFLT
  2
AcDbDictionaryWithDefault
  3
ObjectDBX Classes
 90
        0
 91
        4
280
     0
281
     0
  0
CLASS
  1
VISUALSTYLE
  2
AcDbVisualStyle
  3
ObjectDBX Classes
 90
     4095
 91
        4
280
     0
281
     0
  0
CLASS
  1
MATERIAL
  2
AcDbMaterial
  3
ObjectDBX Classes
 90
     1153
 91
        4
280
     0
281
     0
  0
CLASS
  1
SCALE
  2
AcDbScale
  3
ObjectDBX Classes
 90
     1153
 91
        4
280
     0
281
     0
  0
CLASS
  1
SUN
  2
AcDbSun
  3
SCENEOE
 90
     1153
 91
        4
280
     0
281
     0
  0
CLASS
  1
DICTIONARYVAR
  2
AcDbDictionaryVar
  3
ObjectDBX Classes
 90
        0
 91
        4
280
     0
281
     0
  0
ENDSEC
  0
SECTION
  2
TABLES
  0
TABLE
  2
VPORT
  5
8
330
0
100
AcDbSymbolTable
 70
     1
  0
VPORT
  5
29
330
8
100
AcDbSymbolTableRecord
100
AcDbViewportTableRecord
  2
*Active
 70
     0
 10
0.0
 20
0.0
 11
1.0
 21
1.0
 12
101.3302133324138
 22
1396.788769648049
 13
0.0
 23
0.0
 14
0.5
 24
0.5
 15
0.5
 25
0.5
 16
0.0
 26
0.0
 36
1.0
 17
0.0
 27
0.0
 37
0.0
 40
663.0011084095918
 41
0.3117847510145039
 42
50.0
 43
0.0
 44
0.0
 50
0.0
 51
0.0
 71
     0
 72
   100
 73
     1
 74
     3
 75
     0
 76
     0
 77
     0
 78
     0
281
     0
 65
     1
110
0.0
120
0.0
130
0.0
111
1.0
121
0.0
131
0.0
112
0.0
122
1.0
132
0.0
 79
     0
146
0.0
  0
ENDTAB
  0
TABLE
  2
LTYPE
  5
5
330
0
100
AcDbSymbolTable
 70
     1
  0
LTYPE
  5
14
330
5
100
AcDbSymbolTableRecord
100
AcDbLinetypeTableRecord
  2
ByBlock
 70
     0
  3

 72
    65
 73
     0
 40
0.0
  0
LTYPE
  5
15
330
5
100
AcDbSymbolTableRecord
100
AcDbLinetypeTableRecord
  2
ByLayer
 70
     0
  3

 72
    65
 73
     0
 40
0.0
  0
LTYPE
  5
16
330
5
100
AcDbSymbolTableRecord
100
AcDbLinetypeTableRecord
  2
Continuous
 70
     0
  3
Solid line
 72
    65
 73
     0
 40
0.0
  0
ENDTAB
  0
TABLE
  2
LAYER
  5
2
330
0
100
AcDbSymbolTable
 70
     2
  0
LAYER
  5
10
330
2
100
AcDbSymbolTableRecord
100
AcDbLayerTableRecord
  2
0
 70
     0
 62
     7
  6
Continuous
370
    -3
390
F
  0
LAYER
  5
62
330
2
100
AcDbSymbolTableRecord
100
AcDbLayerTableRecord
  2
Make2D$可见线$普通线
 70
     0
 62
    18
420
        0
  6
Continuous
370
    -3
390
F
  0
ENDTAB
  0
TABLE
  2
STYLE
  5
3
330
0
100
AcDbSymbolTable
 70
     1
  0
STYLE
  5
11
330
3
100
AcDbSymbolTableRecord
100
AcDbTextStyleTableRecord
  2
Standard
 70
     0
 40
0.0
 41
1.0
 50
0.0
 71
     0
 42
0.2
  3
txt
  4

  0
ENDTAB
  0
TABLE
  2
VIEW
  5
6
330
0
100
AcDbSymbolTable
 70
     0
  0
ENDTAB
  0
TABLE
  2
UCS
  5
7
330
0
100
AcDbSymbolTable
 70
     0
  0
ENDTAB
  0
TABLE
  2
APPID
  5
9
330
0
100
AcDbSymbolTable
 70
     1
  0
APPID
  5
12
330
9
100
AcDbSymbolTableRecord
100
AcDbRegAppTableRecord
  2
ACAD
 70
     0
  0
ENDTAB
  0
TABLE
  2
DIMSTYLE
  5
A
330
0
100
AcDbSymbolTable
 70
     1
100
AcDbDimStyleTable
  0
DIMSTYLE
105
27
330
A
100
AcDbSymbolTableRecord
100
AcDbDimStyleTableRecord
  2
Standard
 70
     0
178
     0
340
11
  0
ENDTAB
  0
TABLE
  2
BLOCK_RECORD
  5
1
330
0
100
AcDbSymbolTable
 70
     1
  0
BLOCK_RECORD
  5
1F
330
1
100
AcDbSymbolTableRecord
100
AcDbBlockTableRecord
  2
*Model_Space
340
22
  0
BLOCK_RECORD
  5
1B
330
1
100
AcDbSymbolTableRecord
100
AcDbBlockTableRecord
  2
*Paper_Space
340
1E
  0
BLOCK_RECORD
  5
23
330
1
100
AcDbSymbolTableRecord
100
AcDbBlockTableRecord
  2
*Paper_Space0
340
26
  0
ENDTAB
  0
ENDSEC
  0
SECTION
  2
BLOCKS
  0
BLOCK
  5
20
330
1F
100
AcDbEntity
  8
0
100
AcDbBlockBegin
  2
*Model_Space
 70
     0
 10
0.0
 20
0.0
 30
0.0
  3
*Model_Space
  1
*Model_Space
  0
ENDBLK
  5
21
330
1F
100
AcDbEntity
  8
0
100
AcDbBlockEnd
  0
BLOCK
  5
1C
330
1B
100
AcDbEntity
 67
     1
  8
0
100
AcDbBlockBegin
  2
*Paper_Space
 70
     0
 10
0.0
 20
0.0
 30
0.0
  3
*Paper_Space
  1
*Paper_Space
  0
ENDBLK
  5
1D
330
1B
100
AcDbEntity
 67
     1
  8
0
100
AcDbBlockEnd
  0
BLOCK
  5
24
330
23
100
AcDbEntity
  8
0
100
AcDbBlockBegin
  2
*Paper_Space0
 70
     0
 10
0.0
 20
0.0
 30
0.0
  3
*Paper_Space0
  1
*Paper_Space0
  0
ENDBLK
  5
25
330
23
100
AcDbEntity
  8
0
100
AcDbBlockEnd
  0
ENDSEC
  0
SECTION
  2
ENTITIES
  0
LINE
  5
63
330
1F
100
AcDbEntity
  8
Make2D$可见线$普通线
100
AcDbLine
 10
151.6604268124206
 20
1445.788941489346
 30
0.0
 11
113.6604268124206
 21
1445.788941489346
 31
0.0
  0
LINE
  5
64
330
1F
100
AcDbEntity
  8
Make2D$可见线$普通线
100
AcDbLine
 10
151.6604268124206
 20
1445.788941489346
 30
0.0
 11
151.6604268124206
 21
1443.004556678487
 31
0.0
  0
LINE
  5
65
330
1F
100
AcDbEntity
  8
Make2D$可见线$普通线
100
AcDbLine
 10
147.6604268123884
 20
1411.788941489346
 30
0.0
 11
117.6604268124516
 21
1411.788941489346
 31
0.0
  0
LINE
  5
66
330
1F
100
AcDbEntity
  8
Make2D$可见线$普通线
100
AcDbLine
 10
147.6604268116287
 20
1409.788941489346
 30
0.0
 11
146.7777527728664
 21
1409.788941489346
 31
0.0
  0
LINE
  5
67
330
1F
100
AcDbEntity
  8
Make2D$可见线$普通线
100
AcDbLine
 10
146.5574274763874
 20
1409.788941489346
 30
0.0
 11
146.5438840911362
 21
1409.788941489346
 31
0.0
  0
LINE
  5
68
330
1F
100
AcDbEntity
  8
Make2D$可见线$普通线
100
AcDbLine
 10
146.3138694787223
 20
1409.788941489346
 30
0.0
 11
146.3018637268626
 21
1409.788941489346
 31
0.0
  0
LINE
  5
69
330
1F
100
AcDbEntity
  8
Make2D$可见线$普通线
100
AcDbLine
 10
146.062132280178
 20
1409.788941489346
 30
0.0
 11
146.0518010262338
 21
1409.788941489346
 31
0.0
  0
LINE
  5
6A
330
1F
100
AcDbEntity
  8
Make2D$可见线$普通线
100
AcDbLine
 10
144.6846795943359
 20
1409.788941489346
 30
0.0
 11
120.6361740305058
 21
1409.788941489346
 31
0.0
  0
LINE
  5
6B
330
1F
100
AcDbEntity
  8
Make2D$可见线$普通线
100
AcDbLine
 10
119.2690525986083
 20
1409.788941489346
 30
0.0
 11
119.2587213446637
 21
1409.788941489346
 31
0.0
  0
LINE
  5
6C
330
1F
100
AcDbEntity
  8
Make2D$可见线$普通线
100
AcDbLine
 10
119.0189898979789
 20
1409.788941489346
 30
0.0
 11
119.0069841461194
 21
1409.788941489346
 31
0.0
  0
LINE
  5
6D
330
1F
100
AcDbEntity
  8
Make2D$可见线$普通线
100
AcDbLine
 10
118.7769695337048
 20
1409.788941489346
 30
0.0
 11
118.7634261484542
 21
1409.788941489346
 31
0.0
  0
LINE
  5
6E
330
1F
100
AcDbEntity
  8
Make2D$可见线$普通线
100
AcDbLine
 10
118.5431008519747
 20
1409.788941489346
 30
0.0
 11
117.6604268132116
 21
1409.788941489346
 31
0.0
  0
LINE
  5
6F
330
1F
100
AcDbEntity
  8
Make2D$可见线$普通线
100
AcDbLine
 10
58.76242423589608
 20
1601.177104232696
 30
0.0
 11
58.8089904542102
 21
1601.130538014382
 31
0.0
  0
LINE
  5
70
330
1F
100
AcDbEntity
  8
Make2D$可见线$普通线
100
AcDbLine
 10
58.81725891780051
 20
1601.122269550791
 30
0.0
 11
58.87153254262378
 21
1601.067995925968
 31
0.0
  0
LINE
  5
71
330
1F
100
AcDbEntity
  8
Make2D$可见线$普通线
100
AcDbLine
 10
58.87994726110323
 20
1601.059581207489
 30
0.0
 11
58.94156694628454
 21
1600.997961522307
 31
0.0
  0
LINE
  5
72
330
1F
100
AcDbEntity
  8
Make2D$可见线$普通线
100
AcDbLine
 10
58.94983658032992
 20
1600.989691888262
 30
0.0
 11
59.01841281968808
 21
1600.921115648904
 31
0.0
  0
LINE
  5
73
330
1F
100
AcDbEntity
  8
Make2D$可见线$普通线
100
AcDbLine
 10
59.02627419037639
 20
1600.913254278216
 30
0.0
 11
59.10860740622259
 21
1600.83092106237
 31
0.0
  0
ARC
  5
74
330
1F
100
AcDbEntity
  8
Make2D$可见线$普通线
100
AcDbCircle
 10
58.98275728270224
 20
1601.663877966973
 30
0.0
 40
0.4999999999273388
100
AcDbArc
 50
219.0352467174395
 51
225.0000000005602
  0
LINE
  5
75
330
1F
100
AcDbEntity
  8
Make2D$可见线$普通线
100
AcDbLine
 10
60.04341745453712
 20
1600.603217795242
 30
0.0
 11
59.68986406394379
 21
1600.249664404649
 31
0.0
  0
LINE
  5
76
330
1F
100
AcDbEntity
  8
Make2D$可见线$普通线
100
AcDbLine
 10
60.04341745453712
 20
1600.603217795242
 30
0.0
 11
59.30444388535912
 21
1601.34219136442
 31
0.0
  0
LINE
  5
77
330
1F
100
AcDbEntity
  8
Make2D$可见线$普通线
100
AcDbLine
 10
60.27112072232428
 20
1599.668407746268
 30
0.0
 11
60.35345393826076
 21
1599.586074530332
 31
0.0
  0
LINE
  5
78
330
1F
100
AcDbEntity
  8
Make2D$可见线$普通线
100
AcDbLine
 10
60.43816118202702
 20
1599.501367286566
 30
0.0
 11
60.49978086768871
 21
1599.439747600904
 31
0.0
  0
LINE
  5
79
330
1F
100
AcDbEntity
  8
Make2D$可见线$普通线
100
AcDbLine
 10
60.50819553958598
 20
1599.431332929006
 30
0.0
 11
60.56246921105732
 21
1599.377059257535
 31
0.0
  0
SPLINE
  5
7A
330
1F
100
AcDbEntity
  8
Make2D$可见线$普通线
100
AcDbSpline
210
0.0
220
0.0
230
1.0
 70
    24
 71
     3
 72
     8
 73
     4
 74
     0
 42
0.000000001
 43
0.0000000001
 12
1.0
 22
0.0
 32
0.0
 13
1.0
 23
0.0
 33
0.0
 40
-0.2181150350705691
 40
-0.2181150350705691
 40
-0.2181150350705691
 40
-0.2181150350705691
 40
0.0
 40
0.0
 40
0.0
 40
0.0
 10
60.74148297765183
 20
1599.19804549094
 30
0.0
 10
60.74873306910618
 20
1599.190795399486
 30
0.0
 10
60.75186973347577
 20
1599.187658735116
 30
0.0
 10
60.75052423641546
 20
1599.189004232177
 30
0.0
  0
LINE
  5
7B
330
1F
100
AcDbEntity
  8
Make2D$可见线$普通线
100
AcDbLine
 10
61.45191039380941
 20
1599.194724855969
 30
0.0
 11
60.04341745453712
 21
1600.603217795242
 31
0.0
  0
LINE
  5
7C
330
1F
100
AcDbEntity
  8
Make2D$可见线$普通线
100
AcDbLine
 10
63.22539796987621
 20
1600.956771185835
 30
0.0
 11
61.45763101691
 21
1599.189004232869
 31
0.0
  0
LINE
  5
7D
330
1F
100
AcDbEntity
  8
Make2D$可见线$普通线
100
AcDbLine
 10
58.58825058441792
 20
1601.351277884174
 30
0.0
 11
58.59226381772547
 21
1601.347264650867
 31
0.0
  0
LINE
  5
7E
330
1F
100
AcDbEntity
  8
Make2D$可见线$普通线
100
AcDbLine
 10
56.48879157161035
 20
1603.450736896982
 30
0.0
 11
56.55915481332222
 21
1603.38037365527
 31
0.0
  0
LINE
  5
7F
330
1F
100
AcDbEntity
  8
Make2D$可见线$普通线
100
AcDbLine
 10
56.57683721597174
 20
1603.36269125262
 30
0.0
 11
56.71696574276133
 21
1603.222562725831
 31
0.0
  0
LINE
  5
80
330
1F
100
AcDbEntity
  8
Make2D$可见线$普通线
100
AcDbLine
 10
56.74723988078429
 20
1603.192288587808
 30
0.0
 11
56.94492448397357
 21
1602.994603984619
 31
0.0
  0
LINE
  5
81
330
1F
100
AcDbEntity
  8
Make2D$可见线$普通线
100
AcDbLine
 10
56.98767739665475
 20
1602.951851071937
 30
0.0
 11
57.1063356153163
 21
1602.833192853276
 31
0.0
  0
LINE
  5
82
330
1F
100
AcDbEntity
  8
Make2D$可见线$普通线
100
AcDbLine
 10
59.30444388524524
 20
1601.342191364533
 30
0.0
 11
59.19696846947863
 21
1601.4496667803
 31
0.0
  0
ARC
  5
83
330
1F
100
AcDbEntity
  8
Make2D$可见线$普通线
100
AcDbCircle
 10
58.84337288166432
 20
1601.777374019441
 30
0.0
 40
0.4821015186738906
100
AcDbArc
 50
227.3554856658184
 51
317.1760952430467
  0
SPLINE
  5
84
330
1F
100
AcDbEntity
  8
Make2D$可见线$普通线
100
AcDbSpline
210
0.0
220
0.0
230
1.0
 70
    12
 71
     2
 72
     6
 73
     3
 74
     0
 42
0.000000001
 43
0.0000000001
 12
1.0
 22
0.0
 32
0.0
 13
1.0
 23
0.0
 33
0.0
 40
0.0
 40
0.0
 40
0.0
 40
1.0
 40
1.0
 40
1.0
 10
57.34920940445636
 20
1603.297425845322
 30
0.0
 41
1.0
 10
56.99565601386356
 20
1602.943872454729
 30
0.0
 41
0.7071067811866905
 10
57.13095503889963
 20
1602.808573429692
 30
0.0
 41
1.0
  0
LINE
  5
85
330
1F
100
AcDbEntity
  8
Make2D$可见线$普通线
100
AcDbLine
 10
57.34920940445636
 20
1603.297425845322
 30
0.0
 11
56.58384253972596
 21
1604.062792710052
 31
0.0
  0
LINE
  5
86
330
1F
100
AcDbEntity
  8
Make2D$可见线$普通线
100
AcDbLine
 10
57.13095503889963
 20
1602.808573429693
 30
0.0
 11
58.49356942284096
 21
1601.445959045751
 31
0.0
  0
LINE
  5
87
330
1F
100
AcDbEntity
  8
Make2D$可见线$普通线
100
AcDbLine
 10
59.19696846947863
 20
1601.4496667803
 30
0.0
 11
57.34998892888509
 21
1603.296646320894
 31
0.0
  0
LINE
  5
88
330
1F
100
AcDbEntity
  8
Make2D$可见线$普通线
100
AcDbLine
 10
52.4337419629986
 20
1607.505786505594
 30
0.0
 11
52.44052032095178
 21
1607.499008147641
 31
0.0
  0
LINE
  5
89
330
1F
100
AcDbEntity
  8
Make2D$可见线$普通线
100
AcDbLine
 10
52.45180365761152
 20
1607.487724810981
 30
0.0
 11
52.45902831278582
 21
1607.480500155806
 31
0.0
  0
LINE
  5
8A
330
1F
100
AcDbEntity
  8
Make2D$可见线$普通线
100
AcDbLine
 10
50.36660662972925
 20
1609.572921838863
 30
0.0
 11
50.61010205408516
 21
1609.329426414506
 31
0.0
  0
LINE
  5
8B
330
1F
100
AcDbEntity
  8
Make2D$可见线$普通线
100
AcDbLine
 10
53.17335976944803
 20
1607.473275480331
 30
0.0
 11
52.75914620707499
 21
1607.887489042704
 31
0.0
  0
SPLINE
  5
8C
330
1F
100
AcDbEntity
  8
Make2D$可见线$普通线
100
AcDbSpline
210
0.0
220
0.0
230
1.0
 70
    12
 71
     2
 72
     6
 73
     3
 74
     0
 42
0.000000001
 43
0.0000000001
 12
1.0
 22
0.0
 32
0.0
 13
1.0
 23
0.0
 33
0.0
 40
0.0
 40
0.0
 40
0.0
 40
1.0
 40
1.0
 40
1.0
 10
52.75914620707499
 20
1607.887489042704
 30
0.0
 41
1.0
 10
52.4055928167213
 20
1607.533935651872
 30
0.0
 41
0.707106781186504
 10
52.15559281696051
 20
1607.783935651632
 30
0.0
 41
1.0
  0
SPLINE
  5
8D
330
1F
100
AcDbEntity
  8
Make2D$可见线$普通线
100
AcDbSpline
210
0.0
220
0.0
230
1.0
 70
    12
 71
     2
 72
     6
 73
     3
 74
     0
 42
0.000000001
 43
0.0000000001
 12
1.0
 22
0.0
 32
0.0
 13
1.0
 23
0.0
 33
0.0
 40
0.0
 40
0.0
 40
0.0
 40
1.0
 40
1.0
 40
1.0
 10
50.75914620707499
 20
1609.887489042704
 30
0.0
 41
1.0
 10
50.40559281648181
 20
1609.533935652111
 30
0.0
 41
0.7071067811866905
 10
50.65559281648166
 20
1609.28393565211
 30
0.0
 41
1.0
  0
LINE
  5
8E
330
1F
100
AcDbEntity
  8
Make2D$可见线$普通线
100
AcDbLine
 10
50.75914620707499
 20
1609.887489042704
 30
0.0
 11
50.34493264470206
 21
1610.301702605076
 31
0.0
  0
LINE
  5
8F
330
1F
100
AcDbEntity
  8
Make2D$可见线$普通线
100
AcDbLine
 10
50.65559281648166
 20
1609.28393565211
 30
0.0
 11
50.77353040241491
 21
1609.165998066177
 31
0.0
  0
LINE
  5
90
330
1F
100
AcDbEntity
  8
Make2D$可见线$普通线
100
AcDbLine
 10
50.89501272099054
 20
1609.044515747601
 30
0.0
 11
52.11010205387484
 21
1607.829426414717
 31
0.0
  0
LINE
  5
91
330
1F
100
AcDbEntity
  8
Make2D$可见线$普通线
100
AcDbLine
 10
52.75914620707499
 20
1607.887489042704
 30
0.0
 11
50.75914620707499
 21
1609.887489042704
 31
0.0
  0
LINE
  5
92
330
1F
100
AcDbEntity
  8
Make2D$可见线$普通线
100
AcDbLine
 10
42.66003131834915
 20
1617.279497150243
 30
0.0
 11
42.77868953659754
 21
1617.160838931995
 31
0.0
  0
LINE
  5
93
330
1F
100
AcDbEntity
  8
Make2D$可见线$普通线
100
AcDbLine
 10
42.81813638303105
 20
1617.121392085561
 30
0.0
 11
42.97992055987813
 21
1616.959607908714
 31
0.0
  0
LINE
  5
94
330
1F
100
AcDbEntity
  8
Make2D$可见线$普通线
100
AcDbLine
 10
42.98071779961674
 20
1616.958810668975
 30
0.0
 11
43.01912705153067
 21
1616.920401417062
 31
0.0
  0
LINE
  5
95
330
1F
100
AcDbEntity
  8
Make2D$可见线$普通线
100
AcDbLine
 10
43.05039051580992
 20
1616.889137952782
 30
0.0
 11
43.11272629272406
 21
1616.826802175868
 31
0.0
  0
LINE
  5
96
330
1F
100
AcDbEntity
  8
Make2D$可见线$普通线
100
AcDbLine
 10
43.12611274762823
 20
1616.813415720964
 30
0.0
 11
43.18952971481122
 21
1616.749998753781
 31
0.0
  0
LINE
  5
97
330
1F
100
AcDbEntity
  8
Make2D$可见线$普通线
100
AcDbLine
 10
43.20943704307312
 20
1616.73009142552
 30
0.0
 11
43.24657360015593
 21
1616.692954868436
 31
0.0
  0
LINE
  5
98
330
1F
100
AcDbEntity
  8
Make2D$可见线$普通线
100
AcDbLine
 10
43.26069195736468
 20
1616.678836511227
 30
0.0
 11
43.27598227631612
 21
1616.663546192276
 31
0.0
  0
SPLINE
  5
99
330
1F
100
AcDbEntity
  8
Make2D$可见线$普通线
100
AcDbSpline
210
0.0
220
0.0
230
1.0
 70
    24
 71
     3
 72
     8
 73
     4
 74
     0
 42
0.000000001
 43
0.0000000001
 12
1.0
 22
0.0
 32
0.0
 13
1.0
 23
0.0
 33
0.0
 40
-7.820233371851536
 40
-7.820233371851536
 40
-7.820233371851536
 40
-7.820233371851536
 40
-7.51018038378901
 40
-7.51018038378901
 40
-7.51018038378901
 40
-7.51018038378901
 10
43.28366287625361
 20
1616.655865592339
 30
0.0
 10
43.29243825092561
 20
1616.647090217667
 30
0.0
 10
43.29385006726758
 20
1616.645678401325
 30
0.0
 10
43.28732510803087
 20
1616.652203360561
 30
0.0
  0
SPLINE
  5
9A
330
1F
100
AcDbEntity
  8
Make2D$可见线$普通线
100
AcDbSpline
210
0.0
220
0.0
230
1.0
 70
    28
 71
     2
 72
     6
 73
     3
 74
     0
 42
0.000000001
 43
0.0000000001
 12
1.0
 22
0.0
 32
0.0
 13
1.0
 23
0.0
 33
0.0
 40
7.554689393826605
 40
7.554689393826605
 40
7.554689393826605
 40
9.424539847472987
 40
9.424539847472987
 40
9.424539847472987
 10
43.99223563858514
 20
1616.654399611193
 30
0.0
 41
0.9040519189139113
 10
44.07950163756619
 20
1616.567133612213
 30
0.0
 41
0.7675572380480179
 10
43.12426431014501
 20
1617.522370939633
 30
0.0
 41
1.0
  0
SPLINE
  5
9B
330
1F
100
AcDbEntity
  8
Make2D$可见线$普通线
100
AcDbSpline
210
0.0
220
0.0
230
1.0
 70
    12
 71
     2
 72
     6
 73
     3
 74
     0
 42
0.000000001
 43
0.0000000001
 12
1.0
 22
0.0
 32
0.0
 13
1.0
 23
0.0
 33
0.0
 40
0.0
 40
0.0
 40
0.0
 40
1.0
 40
1.0
 40
1.0
 10
43.12426431014501
 20
1617.522370939633
 30
0.0
 41
1.0
 10
42.77071091967721
 20
1617.168817548915
 30
0.0
 41
0.707106781186504
 10
42.63541189476609
 20
1617.304116573826
 30
0.0
 41
1.0
  0
ARC
  5
9C
330
1F
100
AcDbEntity
  8
Make2D$可见线$普通线
100
AcDbCircle
 10
41.60421248530425
 20
1619.016534416826
 30
0.0
 40
0.4821015193923819
100
AcDbArc
 50
132.8239048463656
 51
222.6445143554444
  0
LINE
  5
9D
330
1F
100
AcDbEntity
  8
Make2D$可见线$普通线
100
AcDbLine
 10
41.27650524512228
 20
1619.370130004656
 30
0.0
 11
41.17390078141344
 21
1619.472734468364
 31
0.0
  0
LINE
  5
9E
330
1F
100
AcDbEntity
  8
Make2D$可见线$普通线
100
AcDbLine
 10
41.24959259574825
 20
1618.689935872843
 30
0.0
 11
41.27051955555074
 21
1618.669008913041
 31
0.0
  0
LINE
  5
9F
330
1F
100
AcDbEntity
  8
Make2D$可见线$普通线
100
AcDbLine
 10
41.44312121475079
 20
1618.496407253841
 30
0.0
 11
41.77696745014392
 21
1618.162561018449
 31
0.0
  0
LINE
  5
A0
330
1F
100
AcDbEntity
  8
Make2D$可见线$普通线
100
AcDbLine
 10
41.79899832070004
 20
1618.140530147892
 30
0.0
 11
41.82361774428767
 21
1618.115910724305
 31
0.0
  0
LINE
  5
A1
330
1F
100
AcDbEntity
  8
Make2D$可见线$普通线
100
AcDbLine
 10
41.84823716734965
 20
1618.091291301242
 30
0.0
 11
42.27936098546379
 21
1617.660167483128
 31
0.0
  0
LINE
  5
A2
330
1F
100
AcDbEntity
  8
Make2D$可见线$普通线
100
AcDbLine
 10
42.33259807386143
 20
1617.606930394731
 30
0.0
 11
42.53671806374469
 21
1617.402810404848
 31
0.0
  0
LINE
  5
A3
330
1F
100
AcDbEntity
  8
Make2D$可见线$普通线
100
AcDbLine
 10
43.12426431014501
 20
1617.522370939633
 30
0.0
 11
41.27650524512228
 21
1619.370130004656
 31
0.0
  0
LINE
  5
A4
330
1F
100
AcDbEntity
  8
Make2D$可见线$普通线
100
AcDbLine
 10
32.07704403953284
 20
1627.862484429059
 30
0.0
 11
32.11305286225141
 21
1627.82647560634
 31
0.0
  0
LINE
  5
A5
330
1F
100
AcDbEntity
  8
Make2D$可见线$普通线
100
AcDbLine
 10
32.18980110491874
 20
1627.749727363674
 30
0.0
 11
32.21550961927564
 21
1627.724018849316
 31
0.0
  0
LINE
  5
A6
330
1F
100
AcDbEntity
  8
Make2D$可见线$普通线
100
AcDbLine
 10
32.2864664122683
 20
1627.653062056324
 30
0.0
 11
32.31145451176175
 21
1627.628073956831
 31
0.0
  0
SPLINE
  5
A7
330
1F
100
AcDbEntity
  8
Make2D$可见线$普通线
100
AcDbSpline
210
0.0
220
0.0
230
1.0
 70
    24
 71
     3
 72
     8
 73
     4
 74
     0
 42
0.000000001
 43
0.0000000001
 12
1.0
 22
0.0
 32
0.0
 13
1.0
 23
0.0
 33
0.0
 40
-7.33838557688014
 40
-7.33838557688014
 40
-7.33838557688014
 40
-7.33838557688014
 40
-7.068404885607125
 40
-7.068404885607125
 40
-7.068404885607125
 40
-7.068404885607125
 10
32.4513469054052
 20
1627.488181563187
 30
0.0
 10
32.46271664066059
 20
1627.476811827932
 30
0.0
 10
32.46791843032042
 20
1627.471610038272
 30
0.0
 10
32.46625298826166
 20
1627.473275480331
 30
0.0
  0
LINE
  5
A8
330
1F
100
AcDbEntity
  8
Make2D$可见线$普通线
100
AcDbLine
 10
33.17335976944833
 20
1627.473275480331
 30
0.0
 11
31.75914620707499
 21
1628.887489042704
 31
0.0
  0
LINE
  5
A9
330
1F
100
AcDbEntity
  8
Make2D$可见线$普通线
100
AcDbLine
 10
31.75914620707499
 20
1628.887489042704
 30
0.0
 11
31.41149526006914
 21
1628.539838095725
 31
0.0
  0
LINE
  5
AA
330
1F
100
AcDbEntity
  8
Make2D$可见线$普通线
100
AcDbLine
 10
30.47815298843056
 20
1629.461375480161
 30
0.0
 11
30.52471920674239
 21
1629.41480926185
 31
0.0
  0
LINE
  5
AB
330
1F
100
AcDbEntity
  8
Make2D$可见线$普通线
100
AcDbLine
 10
30.53298767033615
 20
1629.406540798256
 30
0.0
 11
30.58726129515492
 21
1629.352267173438
 31
0.0
  0
LINE
  5
AC
330
1F
100
AcDbEntity
  8
Make2D$可见线$普通线
100
AcDbLine
 10
30.66556533286671
 20
1629.273963135726
 30
0.0
 11
30.73414157221713
 21
1629.205386896376
 31
0.0
  0
LINE
  5
AD
330
1F
100
AcDbEntity
  8
Make2D$可见线$普通线
100
AcDbLine
 10
30.74200294291318
 20
1629.197525525679
 30
0.0
 11
30.82433615876077
 21
1629.115192309831
 31
0.0
  0
LINE
  5
AE
330
1F
100
AcDbEntity
  8
Make2D$可见线$普通线
100
AcDbLine
 10
31.75914620707499
 20
1628.887489042704
 30
0.0
 11
30.34493264470166
 21
1630.301702605077
 31
0.0
  0
LINE
  5
AF
330
1F
100
AcDbEntity
  8
Make2D$可见线$普通线
100
AcDbLine
 10
20.53182464749931
 20
1639.407703821093
 30
0.0
 11
20.5822345823467
 21
1639.357293886245
 31
0.0
  0
LINE
  5
B0
330
1F
100
AcDbEntity
  8
Make2D$可见线$普通线
100
AcDbLine
 10
20.70770446210042
 20
1639.231824006492
 30
0.0
 11
20.76333556468295
 21
1639.176192903909
 31
0.0
  0
LINE
  5
B1
330
1F
100
AcDbEntity
  8
Make2D$可见线$普通线
100
AcDbLine
 10
21.02718935973657
 20
1638.912339108856
 30
0.0
 11
21.05392335624244
 21
1638.88560511235
 31
0.0
  0
LINE
  5
B2
330
1F
100
AcDbEntity
  8
Make2D$可见线$普通线
100
AcDbLine
 10
21.2940692484368
 20
1638.645459220155
 30
0.0
 11
21.33287384419513
 21
1638.606654624397
 31
0.0
  0
LINE
  5
B3
330
1F
100
AcDbEntity
  8
Make2D$可见线$普通线
100
AcDbLine
 10
21.48286832686624
 20
1638.456660141726
 30
0.0
 11
21.50215649080971
 21
1638.437371977783
 31
0.0
  0
LINE
  5
B4
330
1F
100
AcDbEntity
  8
Make2D$可见线$普通线
100
AcDbLine
 10
22.2417871690277
 20
1638.404848080751
 30
0.0
 11
20.39402810400497
 21
1640.252607145774
 31
0.0
  0
SPLINE
  5
B5
330
1F
100
AcDbEntity
  8
Make2D$可见线$普通线
100
AcDbSpline
210
0.0
220
0.0
230
1.0
 70
    12
 71
     2
 72
     6
 73
     3
 74
     0
 42
0.000000001
 43
0.0000000001
 12
1.0
 22
0.0
 32
0.0
 13
1.0
 23
0.0
 33
0.0
 40
0.0
 40
0.0
 40
0.0
 40
1.0
 40
1.0
 40
1.0
 10
20.39402810400497
 20
1640.252607145774
 30
0.0
 41
1.0
 10
20.04047471327208
 20
1639.89905375532
 30
0.0
 41
0.707106781186504
 10
20.17577373816948
 20
1639.763754730423
 30
0.0
 41
1.0
  0
LINE
  5
B6
330
1F
100
AcDbEntity
  8
Make2D$可见线$普通线
100
AcDbLine
 10
21.50215649080971
 20
1638.437371977783
 30
0.0
 11
21.51522987337631
 21
1638.424298595216
 31
0.0
  0
ARC
  5
B7
330
1F
100
AcDbEntity
  8
Make2D$可见线$普通线
100
AcDbCircle
 10
21.88819158119782
 20
1638.732555320933
 30
0.0
 40
0.4821015193921017
100
AcDbArc
 50
227.3554856445345
 51
317.1760951536703
  0
SPLINE
  5
B8
330
1F
100
AcDbEntity
  8
Make2D$可见线$普通线
100
AcDbSpline
210
0.0
220
0.0
230
1.0
 70
    28
 71
     2
 72
     6
 73
     3
 74
     0
 42
0.000000001
 43
0.0000000001
 12
1.0
 22
0.0
 32
0.0
 13
1.0
 23
0.0
 33
0.0
 40
6.332112710020913
 40
6.332112710020913
 40
6.332112710020913
 40
7.068404885604741
 40
7.068404885604741
 40
7.068404885604741
 10
22.34439163234728
 20
1638.302243617432
 30
0.0
 41
0.8741474450410942
 10
22.37342438126972
 20
1638.27321086851
 30
0.0
 41
0.9084708691207959
 10
22.2417871690277
 20
1638.404848080751
 30
0.0
 41
1.0
  0
LINE
  5
B9
330
1F
100
AcDbEntity
  8
Make2D$可见线$普通线
100
AcDbLine
 10
19.53581543946065
 20
1640.403713029131
 30
0.0
 11
19.78231435411232
 21
1640.15721411448
 31
0.0
  0
LINE
  5
BA
330
1F
100
AcDbEntity
  8
Make2D$可见线$普通线
100
AcDbLine
 10
19.79205858043854
 20
1640.147469888154
 30
0.0
 11
19.99304925251979
 21
1639.946479216072
 31
0.0
  0
LINE
  5
BB
330
1F
100
AcDbEntity
  8
Make2D$可见线$普通线
100
AcDbLine
 10
20.03249609636628
 20
1639.907032372226
 30
0.0
 11
20.15115431461621
 21
1639.788374153976
 31
0.0
  0
LINE
  5
BC
330
1F
100
AcDbEntity
  8
Make2D$可见线$普通线
100
AcDbLine
 10
20.39402810400497
 20
1640.252607145774
 30
0.0
 11
19.62866123927469
 21
1641.017974010505
 31
0.0
  0
LINE
  5
BD
330
1F
100
AcDbEntity
  8
Make2D$可见线$普通线
100
AcDbLine
 10
11.10655447275433
 20
1648.832973995838
 30
0.0
 11
11.14804899829545
 21
1648.791479470297
 31
0.0
  0
LINE
  5
BE
330
1F
100
AcDbEntity
  8
Make2D$可见线$普通线
100
AcDbLine
 10
11.44913374879257
 20
1648.4903947198
 30
0.0
 11
11.45758303190869
 21
1648.481945436684
 31
0.0
  0
LINE
  5
BF
330
1F
100
AcDbEntity
  8
Make2D$可见线$普通线
100
AcDbLine
 10
11.7627841909899
 20
1648.176744277602
 30
0.0
 11
11.81140436672018
 21
1648.128124101872
 31
0.0
  0
LINE
  5
C0
330
1F
100
AcDbEntity
  8
Make2D$可见线$普通线
100
AcDbLine
 10
12.03765523056423
 20
1647.901873238028
 30
0.0
 11
12.07865888929436
 21
1647.860869579298
 31
0.0
  0
LINE
  5
C1
330
1F
100
AcDbEntity
  8
Make2D$可见线$普通线
100
AcDbLine
 10
12.20108357887818
 20
1647.738444889714
 30
0.0
 11
12.45902831257045
 21
1647.480500156022
 31
0.0
  0
LINE
  5
C2
330
1F
100
AcDbEntity
  8
Make2D$可见线$普通线
100
AcDbLine
 10
12.75914620707499
 20
1647.887489042703
 30
0.0
 11
10.75914620707499
 21
1649.887489042703
 31
0.0
  0
SPLINE
  5
C3
330
1F
100
AcDbEntity
  8
Make2D$可见线$普通线
100
AcDbSpline
210
0.0
220
0.0
230
1.0
 70
    12
 71
     2
 72
     6
 73
     3
 74
     0
 42
0.000000001
 43
0.0000000001
 12
1.0
 22
0.0
 32
0.0
 13
1.0
 23
0.0
 33
0.0
 40
0.0
 40
0.0
 40
0.0
 40
1.0
 40
1.0
 40
1.0
 10
10.75914620707499
 20
1649.887489042703
 30
0.0
 41
1.0
 10
10.40559281623186
 20
1649.53393565236
 30
0.0
 41
0.707106781186504
 10
10.65559281598144
 20
1649.28393565261
 30
0.0
 41
1.0
  0
SPLINE
  5
C4
330
1F
100
AcDbEntity
  8
Make2D$可见线$普通线
100
AcDbSpline
210
0.0
220
0.0
230
1.0
 70
    12
 71
     2
 72
     6
 73
     3
 74
     0
 42
0.000000001
 43
0.0000000001
 12
1.0
 22
0.0
 32
0.0
 13
1.0
 23
0.0
 33
0.0
 40
0.0
 40
0.0
 40
0.0
 40
1.0
 40
1.0
 40
1.0
 10
12.75914620707499
 20
1647.887489042703
 30
0.0
 41
1.0
 10
12.40559281648227
 20
1647.533935652111
 30
0.0
 41
0.7071067811865532
 10
12.15559281648166
 20
1647.783935652111
 30
0.0
 41
1.0
  0
LINE
  5
C5
330
1F
100
AcDbEntity
  8
Make2D$可见线$普通线
100
AcDbLine
 10
13.17335976944817
 20
1647.473275480331
 30
0.0
 11
12.75914620707499
 21
1647.887489042703
 31
0.0
  0
LINE
  5
C6
330
1F
100
AcDbEntity
  8
Make2D$可见线$普通线
100
AcDbLine
 10
10.35938197520808
 20
1649.580146493384
 30
0.0
 11
10.6101020536354
 21
1649.329426414956
 31
0.0
  0
LINE
  5
C7
330
1F
100
AcDbEntity
  8
Make2D$可见线$普通线
100
AcDbLine
 10
10.75914620707499
 20
1649.887489042703
 30
0.0
 11
10.34493264470236
 21
1650.301702605077
 31
0.0
  0
LINE
  5
C8
330
1F
100
AcDbEntity
  8
Make2D$可见线$普通线
100
AcDbLine
 10
4.893055867428351
 20
1655.046472601164
 30
0.0
 11
4.917851541562547
 21
1655.021676927029
 31
0.0
  0
LINE
  5
C9
330
1F
100
AcDbEntity
  8
Make2D$可见线$普通线
100
AcDbLine
 10
5.531181518367214
 20
1654.408346950225
 30
0.0
 11
5.562274399913926
 21
1654.377254068678
 31
0.0
  0
LINE
  5
CA
330
1F
100
AcDbEntity
  8
Make2D$可见线$普通线
100
AcDbLine
 10
5.704850017647691
 20
1654.234678450944
 30
0.0
 11
5.823508236309278
 21
1654.116020232283
 31
0.0
  0
LINE
  5
CB
330
1F
100
AcDbEntity
  8
Make2D$可见线$普通线
100
AcDbLine
 10
5.866261148992059
 20
1654.0732673196
 30
0.0
 11
6.063945752179371
 21
1653.875582716413
 31
0.0
  0
LINE
  5
CC
330
1F
100
AcDbEntity
  8
Make2D$可见线$普通线
100
AcDbLine
 10
6.094219890203521
 20
1653.845308578388
 30
0.0
 11
6.234348416991912
 21
1653.7051800516
 31
0.0
  0
LINE
  5
CD
330
1F
100
AcDbEntity
  8
Make2D$可见线$普通线
100
AcDbLine
 10
6.2520308196398
 20
1653.687497648952
 30
0.0
 11
6.329745222147377
 21
1653.609783246445
 31
0.0
  0
LINE
  5
CE
330
1F
100
AcDbEntity
  8
Make2D$可见线$普通线
100
AcDbLine
 10
6.168303485265576
 20
1654.478331764513
 30
0.0
 11
4.321323944671349
 21
1656.325311305108
 31
0.0
  0
ARC
  5
CF
330
1F
100
AcDbEntity
  8
Make2D$可见线$普通线
100
AcDbCircle
 10
4.649031183795582
 20
1655.971715717293
 30
0.0
 40
0.4821015186625517
100
AcDbArc
 50
132.8239047553602
 51
222.6445143335398
  0
SPLINE
  5
D0
330
1F
100
AcDbEntity
  8
Make2D$可见线$普通线
100
AcDbSpline
210
0.0
220
0.0
230
1.0
 70
    12
 71
     2
 72
     6
 73
     3
 74
     0
 42
0.000000001
 43
0.0000000001
 12
1.0
 22
0.0
 32
0.0
 13
1.0
 23
0.0
 33
0.0
 40
0.0
 40
0.0
 40
0.0
 40
1.0
 40
1.0
 40
1.0
 10
6.169083009693622
 20
1654.477552240085
 30
0.0
 41
1.0
 10
5.815529619100532
 20
1654.123998849493
 30
0.0
 41
0.7071067811865532
 10
5.680230594064142
 20
1654.259297874528
 30
0.0
 41
1.0
  0
LINE
  5
D1
330
1F
100
AcDbEntity
  8
Make2D$可见线$普通线
100
AcDbLine
 10
6.934449874424002
 20
1653.712185375355
 30
0.0
 11
6.169083009693622
 21
1654.477552240085
 31
0.0
  0
LINE
  5
D2
330
1F
100
AcDbEntity
  8
Make2D$可见线$普通线
100
AcDbLine
 10
4.321323944671349
 20
1656.325311305108
 30
0.0
 11
4.213848528904744
 21
1656.432786720875
 31
0.0
  0
LINE
  5
D3
330
1F
100
AcDbEntity
  8
Make2D$可见线$普通线
100
AcDbLine
 10
2.193881739692073
 20
1657.7456467289
 30
0.0
 11
2.212199355154405
 21
1657.727329113438
 31
0.0
  0
LINE
  5
D4
330
1F
100
AcDbEntity
  8
Make2D$可见线$普通线
100
AcDbLine
 10
2.274078933392495
 20
1657.6654495352
 30
0.0
 11
2.302990097274361
 21
1657.636538371318
 31
0.0
  0
LINE
  5
D5
330
1F
100
AcDbEntity
  8
Make2D$可见线$普通线
100
AcDbLine
 10
2.381294084605784
 20
1657.558234383986
 30
0.0
 11
2.410638548350248
 21
1657.528889920242
 31
0.0
  0
LINE
  5
D6
330
1F
100
AcDbEntity
  8
Make2D$可见线$普通线
100
AcDbLine
 10
2.493684118076696
 20
1657.445844350516
 30
0.0
 11
2.532846854980676
 21
1657.406681613611
 31
0.0
  0
LINE
  5
D7
330
1F
100
AcDbEntity
  8
Make2D$可见线$普通线
100
AcDbLine
 10
2.932480440411296
 20
1657.00704802818
 30
0.0
 11
2.963852374185299
 21
1656.975676094406
 31
0.0
  0
LINE
  5
D8
330
1F
100
AcDbEntity
  8
Make2D$可见线$普通线
100
AcDbLine
 10
3.702578226740031
 20
1656.236950241852
 30
0.0
 11
3.784911442587151
 21
1656.154617026005
 31
0.0
  0
LINE
  5
D9
330
1F
100
AcDbEntity
  8
Make2D$可见线$普通线
100
AcDbLine
 10
3.792772813274577
 20
1656.146755655318
 30
0.0
 11
3.861349052632904
 21
1656.078179415959
 31
0.0
  0
LINE
  5
DA
330
1F
100
AcDbEntity
  8
Make2D$可见线$普通线
100
AcDbLine
 10
3.869618686677486
 20
1656.069909781915
 30
0.0
 11
3.931238371859805
 21
1656.008290096732
 31
0.0
  0
LINE
  5
DB
330
1F
100
AcDbEntity
  8
Make2D$可见线$普通线
100
AcDbLine
 10
3.939653090337652
 20
1655.999875378255
 30
0.0
 11
3.993926715162457
 21
1655.94560175343
 31
0.0
  0
LINE
  5
DC
330
1F
100
AcDbEntity
  8
Make2D$可见线$普通线
100
AcDbLine
 10
4.002195178750759
 20
1655.937333289842
 30
0.0
 11
4.048761397067294
 21
1655.890767071525
 31
0.0
  0
LINE
  5
DD
330
1F
100
AcDbEntity
  8
Make2D$可见线$普通线
100
AcDbLine
 10
4.171257384655736
 20
1655.768271083936
 30
0.0
 11
4.178691299459393
 21
1655.760837169132
 31
0.0
  0
LINE
  5
DE
330
1F
100
AcDbEntity
  8
Make2D$可见线$普通线
100
AcDbLine
 10
3.474874959612862
 20
1657.171760290165
 30
0.0
 11
2.066382020340689
 21
1658.580253229438
 31
0.0
  0
LINE
  5
DF
330
1F
100
AcDbEntity
  8
Make2D$可见线$普通线
100
AcDbLine
 10
3.474874959612862
 20
1657.171760290165
 30
0.0
 11
3.121321569019983
 21
1656.818206899572
 31
0.0
  0
LINE
  5
E0
330
1F
100
AcDbEntity
  8
Make2D$可见线$普通线
100
AcDbLine
 10
4.213848528790924
 20
1656.432786720987
 30
0.0
 11
3.474874959612862
 21
1657.171760290165
 31
0.0
  0
LINE
  5
E1
330
1F
100
AcDbEntity
  8
Make2D$可见线$普通线
100
AcDbLine
 10
3.828428350206195
 20
1660.353740805505
 30
0.0
 11
2.060661397239983
 21
1658.585973852539
 31
0.0
  0
LINE
  5
E2
330
1F
100
AcDbEntity
  8
Make2D$可见线$普通线
100
AcDbLine
 10
50.27714286165633
 20
1609.662385606936
 30
0.0
 11
50.32370907997125
 21
1609.615819388621
 31
0.0
  0
LINE
  5
E3
330
1F
100
AcDbEntity
  8
Make2D$可见线$普通线
100
AcDbLine
 10
50.34493264807011
 20
1610.301702601708
 30
0.0
 11
50.31826600956693
 21
1610.328369240212
 31
0.0
  0
LINE
  5
E4
330
1F
100
AcDbEntity
  8
Make2D$可见线$普通线
100
AcDbLine
 10
49.54268061188341
 20
1610.396847856709
 30
0.0
 11
49.60480845018537
 21
1610.334720018407
 31
0.0
  0
LINE
  5
E5
330
1F
100
AcDbEntity
  8
Make2D$可见线$普通线
100
AcDbLine
 10
47.51220783973785
 20
1612.427320628854
 30
0.0
 11
47.56136142033653
 21
1612.378167048255
 31
0.0
  0
LINE
  5
E6
330
1F
100
AcDbEntity
  8
Make2D$可见线$普通线
100
AcDbLine
 10
47.57774778361367
 20
1612.361780684978
 30
0.0
 11
47.77555679924631
 21
1612.163971669346
 31
0.0
  0
LINE
  5
E7
330
1F
100
AcDbEntity
  8
Make2D$可见线$普通线
100
AcDbLine
 10
47.79721279319635
 20
1612.142315675396
 30
0.0
 11
47.9921014550354
 21
1611.947427013557
 31
0.0
  0
LINE
  5
E8
330
1F
100
AcDbEntity
  8
Make2D$可见线$普通线
100
AcDbLine
 10
50.31826600957334
 20
1610.328369240205
 30
0.0
 11
50.13031927794873
 21
1610.516315971829
 31
0.0
  0
ARC
  5
E9
330
1F
100
AcDbEntity
  8
Make2D$可见线$普通线
100
AcDbCircle
 10
49.77652045505636
 20
1610.825920619981
 30
0.0
 40
0.4701368367158044
100
AcDbArc
 50
229.4019496776919
 51
318.8112611337713
  0
SPLINE
  5
EA
330
1F
100
AcDbEntity
  8
Make2D$可见线$普通线
100
AcDbSpline
210
0.0
220
0.0
230
1.0
 70
    12
 71
     2
 72
     6
 73
     3
 74
     0
 42
0.000000001
 43
0.0000000001
 12
1.0
 22
0.0
 32
0.0
 13
1.0
 23
0.0
 33
0.0
 40
0.0
 40
0.0
 40
0.0
 40
1.0
 40
1.0
 40
1.0
 10
48.19846762537054
 20
1612.448167624408
 30
0.0
 41
1.0
 10
47.84491423477684
 20
1612.094614233815
 30
0.0
 41
0.7071067811866503
 10
48.02169093007433
 20
1611.917837538518
 30
0.0
 41
1.0
  0
SPLINE
  5
EB
330
1F
100
AcDbEntity
  8
Make2D$可见线$普通线
100
AcDbSpline
210
0.0
220
0.0
230
1.0
 70
    28
 71
     2
 72
     6
 73
     3
 74
     0
 42
0.000000001
 43
0.0000000001
 12
1.0
 22
0.0
 32
0.0
 13
1.0
 23
0.0
 33
0.0
 40
2.356134961869502
 40
2.356134961869502
 40
2.356134961869502
 40
3.975977748154716
 40
3.975977748154716
 40
3.975977748154716
 10
48.19846762537054
 20
1612.448167624408
 30
0.0
 41
1.0
 10
47.45295586449589
 20
1613.193679385282
 30
0.0
 41
0.7986359120657591
 10
47.49288280354101
 20
1613.153752446237
 30
0.0
 41
0.8741474450410995
  0
LINE
  5
EC
330
1F
100
AcDbEntity
  8
Make2D$可见线$普通线
100
AcDbLine
 10
48.02169093007433
 20
1611.917837538518
 30
0.0
 11
49.45279620524828
 21
1610.486732263343
 31
0.0
  0
LINE
  5
ED
330
1F
100
AcDbEntity
  8
Make2D$可见线$普通线
100
AcDbLine
 10
50.13031927794873
 20
1610.516315971829
 30
0.0
 11
48.19846762537054
 21
1612.448167624408
 31
0.0
  0
LINE
  5
EE
330
1F
100
AcDbEntity
  8
Make2D$可见线$普通线
100
AcDbLine
 10
40.25230024844854
 20
1619.687228220144
 30
0.0
 11
40.31442815743993
 21
1619.625100311152
 31
0.0
  0
LINE
  5
EF
330
1F
100
AcDbEntity
  8
Make2D$可见线$普通线
100
AcDbLine
 10
40.32384349706622
 20
1619.615684971526
 30
0.0
 11
40.3308145207931
 21
1619.608713947799
 31
0.0
  0
ARC
  5
F0
330
1F
100
AcDbEntity
  8
Make2D$可见线$普通线
100
AcDbCircle
 10
40.74350092138387
 20
1619.85894015457
 30
0.0
 40
0.4701368373488303
100
AcDbArc
 50
131.1887389504959
 51
220.5980503478522
  0
SPLINE
  5
F1
330
1F
100
AcDbEntity
  8
Make2D$可见线$普通线
100
AcDbSpline
210
0.0
220
0.0
230
1.0
 70
    28
 71
     2
 72
     6
 73
     3
 74
     0
 42
0.000000001
 43
0.0000000001
 12
1.0
 22
0.0
 32
0.0
 13
1.0
 23
0.0
 33
0.0
 40
2.356134961869502
 40
2.356134961869502
 40
2.356134961869502
 40
3.239685572570528
 40
3.239685572570528
 40
3.239685572570528
 10
40.43389627229499
 20
1620.212738977483
 30
0.0
 41
1.0
 10
40.22326117548226
 20
1620.423374074296
 30
0.0
 41
0.8901650429449597
 10
40.24659945659373
 20
1620.400035793184
 30
0.0
 41
0.8627063036811995
  0
LINE
  5
F2
330
1F
100
AcDbEntity
  8
Make2D$可见线$普通线
100
AcDbLine
 10
40.38652909954999
 20
1619.552999369042
 30
0.0
 11
40.4043867909965
 21
1619.535141677596
 31
0.0
  0
LINE
  5
F3
330
1F
100
AcDbEntity
  8
Make2D$可见线$普通线
100
AcDbLine
 10
40.60294191542693
 20
1619.336586553165
 30
0.0
 11
41.10323328130267
 21
1618.836295187289
 31
0.0
  0
LINE
  5
F4
330
1F
100
AcDbEntity
  8
Make2D$可见线$普通线
100
AcDbLine
 10
41.17390078180422
 20
1619.472734467975
 30
0.0
 11
40.43389627229499
 21
1620.212738977483
 31
0.0
  0
LINE
  5
F5
330
1F
100
AcDbEntity
  8
Make2D$可见线$普通线
100
AcDbLine
 10
21.82990066918093
 20
1638.109627799411
 30
0.0
 11
21.84645393992248
 21
1638.093074528669
 31
0.0
  0
LINE
  5
F6
330
1F
100
AcDbEntity
  8
Make2D$可见线$普通线
100
AcDbLine
 10
22.10974332965861
 20
1637.829785138934
 30
0.0
 11
22.12611593840551
 21
1637.813412530186
 31
0.0
  0
LINE
  5
F7
330
1F
100
AcDbEntity
  8
Make2D$可见线$普通线
100
AcDbLine
 10
22.33785080554031
 20
1637.601677663052
 30
0.0
 11
22.34877288471855
 21
1637.590755583873
 31
0.0
  0
LINE
  5
F8
330
1F
100
AcDbEntity
  8
Make2D$可见线$普通线
100
AcDbLine
 10
22.48037111217032
 20
1637.459157356422
 30
0.0
 11
22.48734213589763
 21
1637.452186332695
 31
0.0
  0
LINE
  5
F9
330
1F
100
AcDbEntity
  8
Make2D$可见线$普通线
100
AcDbLine
 10
22.49675747552389
 20
1637.442770993068
 30
0.0
 11
22.55888538451792
 21
1637.380643084074
 31
0.0
  0
LINE
  5
FA
330
1F
100
AcDbEntity
  8
Make2D$可见线$普通线
100
AcDbLine
 10
22.56247564784814
 20
1637.377052820744
 30
0.0
 11
22.56606591113787
 21
1637.373462557454
 31
0.0
  0
LINE
  5
FB
330
1F
100
AcDbEntity
  8
Make2D$可见线$普通线
100
AcDbLine
 10
23.084396141855
 20
1637.562239107924
 30
0.0
 11
22.34439163234612
 21
1638.302243617433
 31
0.0
  0
ARC
  5
FC
330
1F
100
AcDbEntity
  8
Make2D$可见线$普通线
100
AcDbCircle
 10
22.7305973189408
 20
1637.871843757013
 30
0.0
 40
0.4701368373497379
100
AcDbArc
 50
229.4019496523007
 51
318.8112610495249
  0
SPLINE
  5
FD
330
1F
100
AcDbEntity
  8
Make2D$可见线$普通线
100
AcDbSpline
210
0.0
220
0.0
230
1.0
 70
    28
 71
     2
 72
     6
 73
     3
 74
     0
 42
0.000000001
 43
0.0000000001
 12
1.0
 22
0.0
 32
0.0
 13
1.0
 23
0.0
 33
0.0
 40
6.184854274907316
 40
6.184854274907316
 40
6.184854274907316
 40
7.068404885608363
 40
7.068404885608363
 40
7.068404885608363
 10
23.27169295755634
 20
1637.374942292223
 30
0.0
 41
0.8627063036811939
 10
23.29503123866773
 20
1637.351604011111
 30
0.0
 41
0.8901650429449551
 10
23.084396141855
 20
1637.562239107924
 30
0.0
 41
1.0
  0
LINE
  5
FE
330
1F
100
AcDbEntity
  8
Make2D$可见线$普通线
100
AcDbLine
 10
13.7360686427774
 20
1646.203459825815
 30
0.0
 11
13.74429181128775
 21
1646.195236657305
 31
0.0
  0
LINE
  5
FF
330
1F
100
AcDbEntity
  8
Make2D$可见线$普通线
100
AcDbLine
 10
14.01889130326922
 20
1645.920637165323
 30
0.0
 11
14.03579921127865
 21
1645.903729257313
 31
0.0
  0
LINE
  5
100
330
1F
100
AcDbEntity
  8
Make2D$可见线$普通线
100
AcDbLine
 10
14.32836189242488
 20
1645.611166576167
 30
0.0
 11
14.34555991433965
 21
1645.593968554252
 31
0.0
  0
LINE
  5
101
330
1F
100
AcDbEntity
  8
Make2D$可见线$普通线
100
AcDbLine
 10
14.63213488101348
 20
1645.307393587579
 30
0.0
 11
14.69651187862203
 21
1645.24301658997
 31
0.0
  0
LINE
  5
102
330
1F
100
AcDbEntity
  8
Make2D$可见线$普通线
100
AcDbLine
 10
14.81908417792854
 20
1645.120444290663
 30
0.0
 11
15.01397283976634
 21
1644.925555628825
 31
0.0
  0
LINE
  5
103
330
1F
100
AcDbEntity
  8
Make2D$可见线$普通线
100
AcDbLine
 10
15.0356288337195
 20
1644.903899634872
 30
0.0
 11
15.23343784934937
 21
1644.706090619243
 31
0.0
  0
LINE
  5
104
330
1F
100
AcDbEntity
  8
Make2D$可见线$普通线
100
AcDbLine
 10
15.24982421262639
 20
1644.689704255965
 30
0.0
 11
15.31626091389031
 21
1644.623267554702
 31
0.0
  0
LINE
  5
105
330
1F
100
AcDbEntity
  8
Make2D$可见线$普通线
100
AcDbLine
 10
15.31982478877944
 20
1645.326810461
 30
0.0
 11
13.38797313620125
 21
1647.258662113578
 31
0.0
  0
ARC
  5
106
330
1F
100
AcDbEntity
  8
Make2D$可见线$普通线
100
AcDbCircle
 10
13.71566457357576
 20
1646.898464964787
 30
0.0
 40
0.4869534517031325
100
AcDbArc
 50
132.2945391047893
 51
209.2486024346756
  0
LINE
  5
107
330
1F
100
AcDbEntity
  8
Make2D$可见线$普通线
100
AcDbLine
 10
13.31114645763666
 20
1646.632089501702
 30
0.0
 11
13.3406059628478
 21
1646.598922505744
 31
0.0
  0
SPLINE
  5
108
330
1F
100
AcDbEntity
  8
Make2D$可见线$普通线
100
AcDbSpline
210
0.0
220
0.0
230
1.0
 70
    12
 71
     2
 72
     6
 73
     3
 74
     0
 42
0.000000001
 43
0.0000000001
 12
1.0
 22
0.0
 32
0.0
 13
1.0
 23
0.0
 33
0.0
 40
0.0
 40
0.0
 40
0.0
 40
1.0
 40
1.0
 40
1.0
 10
15.31982478877944
 20
1645.326810461
 30
0.0
 41
1.0
 10
14.96627139818616
 20
1644.973257070406
 30
0.0
 41
0.707106781186513
 10
14.78949470288944
 20
1645.150033765703
 30
0.0
 41
1.0
  0
SPLINE
  5
109
330
1F
100
AcDbEntity
  8
Make2D$可见线$普通线
100
AcDbSpline
210
0.0
220
0.0
230
1.0
 70
    28
 71
     2
 72
     6
 73
     3
 74
     0
 42
0.000000001
 43
0.0000000001
 12
1.0
 22
0.0
 32
0.0
 13
1.0
 23
0.0
 33
0.0
 40
5.448562099323111
 40
5.448562099323111
 40
5.448562099323111
 40
7.068404885608363
 40
7.068404885608363
 40
7.068404885608363
 10
16.02540961060894
 20
1644.62122563917
 30
0.0
 41
0.8741474450410942
 10
16.06533654965404
 20
1644.581298700125
 30
0.0
 41
0.7986359120657509
 10
15.31982478877944
 20
1645.326810461
 30
0.0
 41
1.0
  0
LINE
  5
10A
330
1F
100
AcDbEntity
  8
Make2D$可见线$普通线
100
AcDbLine
 10
13.22004039057133
 20
1646.71948807802
 30
0.0
 11
13.26850502108011
 21
1646.671023447511
 31
0.0
  0
LINE
  5
10B
330
1F
100
AcDbEntity
  8
Make2D$可见线$普通线
100
AcDbLine
 10
13.29079382770313
 20
1646.660539528091
 30
0.0
 11
13.31114645763666
 21
1646.632089501702
 31
0.0
  0
LINE
  5
10C
330
1F
100
AcDbEntity
  8
Make2D$可见线$普通线
100
AcDbLine
 10
13.38797313620125
 20
1647.258662113578
 30
0.0
 11
13.20002640457675
 21
1647.446608845202
 31
0.0
  0
LINE
  5
10D
330
1F
100
AcDbEntity
  8
Make2D$可见线$普通线
100
AcDbLine
 10
12.48747655298939
 20
1647.452051915603
 30
0.0
 11
12.5340427713072
 21
1647.405485697285
 31
0.0
  0
LINE
  5
10E
330
1F
100
AcDbEntity
  8
Make2D$可见线$普通线
100
AcDbLine
 10
12.65653875889504
 20
1647.282989709697
 30
0.0
 11
12.66397267369803
 21
1647.275555794894
 31
0.0
  0
LINE
  5
10F
330
1F
100
AcDbEntity
  8
Make2D$可见线$普通线
100
AcDbLine
 10
13.20002640458261
 20
1647.446608845196
 30
0.0
 11
13.17335976608046
 21
1647.473275483698
 31
0.0
  0
LINE
  5
110
330
1F
100
AcDbEntity
  8
Make2D$可见线$普通线
100
AcDbLine
 10
43.30777606236911
 20
1616.631752406224
 30
0.0
 11
43.38289118978338
 21
1616.556637278809
 31
0.0
  0
LINE
  5
111
330
1F
100
AcDbEntity
  8
Make2D$可见线$普通线
100
AcDbLine
 10
43.39075256005784
 20
1616.548775908534
 30
0.0
 11
43.45932879991097
 21
1616.480199668681
 31
0.0
  0
LINE
  5
112
330
1F
100
AcDbEntity
  8
Make2D$可见线$普通线
100
AcDbLine
 10
43.46759843350632
 20
1616.471930035086
 30
0.0
 11
43.52921811921268
 21
1616.410310349379
 31
0.0
  0
LINE
  5
113
330
1F
100
AcDbEntity
  8
Make2D$可见线$普通线
100
AcDbLine
 10
43.53763283720956
 20
1616.401895631383
 30
0.0
 11
43.59190646258128
 21
1616.347622006011
 31
0.0
  0
LINE
  5
114
330
1F
100
AcDbEntity
  8
Make2D$可见线$普通线
100
AcDbLine
 10
43.60017492566266
 20
1616.33935354293
 30
0.0
 11
43.64674114454344
 21
1616.292787324049
 31
0.0
  0
SPLINE
  5
115
330
1F
100
AcDbEntity
  8
Make2D$可见线$普通线
100
AcDbSpline
210
0.0
220
0.0
230
1.0
 70
    24
 71
     3
 72
     8
 73
     4
 74
     0
 42
0.000000001
 43
0.0000000001
 12
1.0
 22
0.0
 32
0.0
 13
1.0
 23
0.0
 33
0.0
 40
-0.2181148698528073
 40
-0.2181148698528073
 40
-0.2181148698528073
 40
-0.2181148698528073
 40
0.0
 40
0.0
 40
0.0
 40
0.0
 10
43.77092024557018
 20
1616.168608223022
 30
0.0
 10
43.77817032529871
 20
1616.161358143294
 30
0.0
 10
43.78130698389496
 20
1616.158221484697
 30
0.0
 10
43.77996148785178
 20
1616.15956698074
 30
0.0
  0
LINE
  5
116
330
1F
100
AcDbEntity
  8
Make2D$可见线$普通线
100
AcDbLine
 10
44.48134764533255
 20
1616.165287604446
 30
0.0
 11
43.99223563819184
 21
1616.654399611587
 31
0.0
  0
LINE
  5
117
330
1F
100
AcDbEntity
  8
Make2D$可见线$普通线
100
AcDbLine
 10
46.25483522139939
 20
1617.927333934312
 30
0.0
 11
44.48706826843272
 21
1616.159566981346
 31
0.0
  0
LINE
  5
118
330
1F
100
AcDbEntity
  8
Make2D$可见线$普通线
100
AcDbLine
 10
38.36660662972801
 20
1621.572921838864
 30
0.0
 11
38.61010205408602
 21
1621.329426414505
 31
0.0
  0
LINE
  5
119
330
1F
100
AcDbEntity
  8
Make2D$可见线$普通线
100
AcDbLine
 10
40.20086514206971
 20
1619.748042199934
 30
0.0
 11
40.15559281690048
 21
1619.783935651692
 31
0.0
  0
SPLINE
  5
11A
330
1F
100
AcDbEntity
  8
Make2D$可见线$普通线
100
AcDbSpline
210
0.0
220
0.0
230
1.0
 70
    12
 71
     2
 72
     6
 73
     3
 74
     0
 42
0.000000001
 43
0.0000000001
 12
1.0
 22
0.0
 32
0.0
 13
1.0
 23
0.0
 33
0.0
 40
0.0
 40
0.0
 40
0.0
 40
1.0
 40
1.0
 40
1.0
 10
38.75914620707499
 20
1621.887489042704
 30
0.0
 41
1.0
 10
38.40559281648169
 20
1621.53393565211
 30
0.0
 41
0.7071067811865934
 10
38.65559281648166
 20
1621.28393565211
 30
0.0
 41
1.0
  0
LINE
  5
11B
330
1F
100
AcDbEntity
  8
Make2D$可见线$普通线
100
AcDbLine
 10
38.75914620707499
 20
1621.887489042703
 30
0.0
 11
38.34493264470187
 21
1622.301702605076
 31
0.0
  0
LINE
  5
11C
330
1F
100
AcDbEntity
  8
Make2D$可见线$普通线
100
AcDbLine
 10
38.65559281648166
 20
1621.28393565211
 30
0.0
 11
38.73249274995601
 21
1621.207035718635
 31
0.0
  0
LINE
  5
11D
330
1F
100
AcDbEntity
  8
Make2D$可见线$普通线
100
AcDbLine
 10
38.99978126633782
 20
1620.939747202254
 30
0.0
 11
40.11010205381891
 21
1619.829426414773
 31
0.0
  0
LINE
  5
11E
330
1F
100
AcDbEntity
  8
Make2D$可见线$普通线
100
AcDbLine
 10
40.24659945660817
 20
1620.400035793171
 30
0.0
 11
38.75914620707499
 21
1621.887489042704
 31
0.0
  0
LINE
  5
11F
330
1F
100
AcDbEntity
  8
Make2D$可见线$普通线
100
AcDbLine
 10
22.90554983532924
 20
1637.033978633263
 30
0.0
 11
24.15559281648166
 21
1635.783935652111
 31
0.0
  0
LINE
  5
120
330
1F
100
AcDbEntity
  8
Make2D$可见线$普通线
100
AcDbLine
 10
24.20108357887707
 20
1635.738444889715
 30
0.0
 11
24.45902831257111
 21
1635.480500156021
 31
0.0
  0
LINE
  5
121
330
1F
100
AcDbEntity
  8
Make2D$可见线$普通线
100
AcDbLine
 10
24.75914620707499
 20
1635.887489042704
 30
0.0
 11
23.27169295754213
 21
1637.374942292237
 31
0.0
  0
LINE
  5
122
330
1F
100
AcDbEntity
  8
Make2D$可见线$普通线
100
AcDbLine
 10
22.63187910926488
 20
1637.311356948786
 30
0.0
 11
22.65559281604419
 21
1637.283935652548
 31
0.0
  0
SPLINE
  5
123
330
1F
100
AcDbEntity
  8
Make2D$可见线$普通线
100
AcDbSpline
210
0.0
220
0.0
230
1.0
 70
    12
 71
     2
 72
     6
 73
     3
 74
     0
 42
0.000000001
 43
0.0000000001
 12
1.0
 22
0.0
 32
0.0
 13
1.0
 23
0.0
 33
0.0
 40
0.0
 40
0.0
 40
0.0
 40
1.0
 40
1.0
 40
1.0
 10
24.75914620707499
 20
1635.887489042703
 30
0.0
 41
1.0
 10
24.4055928164824
 20
1635.53393565211
 30
0.0
 41
0.7071067811864562
 10
24.15559281648166
 20
1635.783935652111
 30
0.0
 41
1.0
  0
LINE
  5
124
330
1F
100
AcDbEntity
  8
Make2D$可见线$普通线
100
AcDbLine
 10
25.17335976944789
 20
1635.47327548033
 30
0.0
 11
24.75914620707499
 21
1635.887489042703
 31
0.0
  0
LINE
  5
125
330
1F
100
AcDbEntity
  8
Make2D$可见线$普通线
100
AcDbLine
 10
19.16444448842045
 20
1640.775083980171
 30
0.0
 11
19.21101070730045
 21
1640.728517761291
 31
0.0
  0
LINE
  5
126
330
1F
100
AcDbEntity
  8
Make2D$可见线$普通线
100
AcDbLine
 10
19.21927917038283
 20
1640.720249298209
 30
0.0
 11
19.27355279575355
 21
1640.665975672838
 31
0.0
  0
LINE
  5
127
330
1F
100
AcDbEntity
  8
Make2D$可见线$普通线
100
AcDbLine
 10
19.28196751375143
 20
1640.65756095484
 30
0.0
 11
19.34358719945681
 21
1640.595941269135
 31
0.0
  0
LINE
  5
128
330
1F
100
AcDbEntity
  8
Make2D$可见线$普通线
100
AcDbLine
 10
19.35185683305247
 20
1640.587671635539
 30
0.0
 11
19.4204330729053
 21
1640.519095395686
 31
0.0
  0
LINE
  5
129
330
1F
100
AcDbEntity
  8
Make2D$可见线$普通线
100
AcDbLine
 10
19.42829444317986
 20
1640.511234025412
 30
0.0
 11
19.50340957059409
 21
1640.436118897997
 31
0.0
  0
LINE
  5
12A
330
1F
100
AcDbEntity
  8
Make2D$可见线$普通线
100
AcDbLine
 10
19.52605677595826
 20
1641.120578473819
 30
0.0
 11
19.03694476881791
 21
1641.609690480961
 31
0.0
  0
LINE
  5
12B
330
1F
100
AcDbEntity
  8
Make2D$可见线$普通线
100
AcDbLine
 10
20.79899109868347
 20
1643.383178057028
 30
0.0
 11
19.03122414571726
 21
1641.615411104061
 31
0.0
  0
LINE
  5
12C
330
1F
100
AcDbEntity
  8
Make2D$可见线$普通线
100
AcDbLine
 10
68.17514543818197
 20
1597.421237279902
 30
0.0
 11
0.2928944442737702
 21
1665.303488273811
 31
0.0
  0
LINE
  5
12D
330
1F
100
AcDbEntity
  8
Make2D$可见线$普通线
100
AcDbLine
 10
64.42859959834996
 20
1599.753569557362
 30
0.0
 11
2.625226721733219
 21
1661.556942433978
 31
0.0
  0
LINE
  5
12E
330
1F
100
AcDbEntity
  8
Make2D$可见线$普通线
100
AcDbLine
 10
77.36753359360728
 20
1603.785198310581
 30
0.0
 11
6.656855474952408
 21
1674.495876429236
 31
0.0
  0
LINE
  5
12F
330
1F
100
AcDbEntity
  8
Make2D$可见线$普通线
100
AcDbLine
 10
77.35025348604267
 20
1605.216691980519
 30
0.0
 11
77.32924639132605
 21
1605.237699075236
 31
0.0
  0
LINE
  5
130
330
1F
100
AcDbEntity
  8
Make2D$可见线$普通线
100
AcDbLine
 10
77.32141137217613
 20
1605.245534094386
 30
0.0
 11
77.28107452832094
 21
1605.285870938241
 31
0.0
  0
LINE
  5
131
330
1F
100
AcDbEntity
  8
Make2D$可见线$普通线
100
AcDbLine
 10
77.2732504140314
 20
1605.29369505253
 30
0.0
 11
77.21366631686953
 21
1605.353279149692
 31
0.0
  0
LINE
  5
132
330
1F
100
AcDbEntity
  8
Make2D$可见线$普通线
100
AcDbLine
 10
77.20585746343174
 20
1605.36108800313
 30
0.0
 11
77.12710862656928
 21
1605.439836839992
 31
0.0
  0
LINE
  5
133
330
1F
100
AcDbEntity
  8
Make2D$可见线$普通线
100
AcDbLine
 10
77.11931936491337
 20
1605.447626101648
 30
0.0
 11
77.02148832701774
 21
1605.545457139544
 31
0.0
  0
LINE
  5
134
330
1F
100
AcDbEntity
  8
Make2D$可见线$普通线
100
AcDbLine
 10
77.01372297726458
 20
1605.553222489298
 30
0.0
 11
76.89689228781235
 21
1605.67005317875
 31
0.0
  0
LINE
  5
135
330
1F
100
AcDbEntity
  8
Make2D$可见线$普通线
100
AcDbLine
 10
76.88915514463716
 20
1605.677790321924
 30
0.0
 11
76.75340737855063
 21
1605.813538088011
 31
0.0
  0
LINE
  5
136
330
1F
100
AcDbEntity
  8
Make2D$可见线$普通线
100
AcDbLine
 10
76.74570271773146
 20
1605.82124274883
 30
0.0
 11
76.59112046883008
 21
1605.975824997731
 31
0.0
  0
LINE
  5
137
330
1F
100
AcDbEntity
  8
Make2D$可见线$普通线
100
AcDbLine
 10
76.58345254667748
 20
1605.983492919884
 30
0.0
 11
76.41011842824818
 21
1606.156827038313
 31
0.0
  0
LINE
  5
138
330
1F
100
AcDbEntity
  8
Make2D$可见线$普通线
100
AcDbLine
 10
76.40249148146933
 20
1606.164453985093
 30
0.0
 11
76.21048812640248
 21
1606.35645734016
 31
0.0
  0
LINE
  5
139
330
1F
100
AcDbEntity
  8
Make2D$可见线$普通线
100
AcDbLine
 10
76.20290637206054
 20
1606.364039094501
 30
0.0
 11
75.99231643289042
 21
1606.574629033671
 31
0.0
  0
LINE
  5
13A
330
1F
100
AcDbEntity
  8
Make2D$可见线$普通线
100
AcDbLine
 10
75.98478406838888
 20
1606.582161398173
 30
0.0
 11
75.75569021730954
 21
1606.811255249252
 31
0.0
  0
LINE
  5
13B
330
1F
100
AcDbEntity
  8
Make2D$可见线$普通线
100
AcDbLine
 10
75.74821142039134
 20
1606.81873404617
 30
0.0
 11
75.50069634925728
 21
1607.066249117304
 31
0.0
  0
LINE
  5
13C
330
1F
100
AcDbEntity
  8
Make2D$可见线$普通线
100
AcDbLine
 10
75.49327527800132
 20
1607.07367018856
 30
0.0
 11
75.22742169833118
 21
1607.33952376823
 31
0.0
  0
LINE
  5
13D
330
1F
100
AcDbEntity
  8
Make2D$可见线$普通线
100
AcDbLine
 10
75.22006249115051
 20
1607.346882975411
 30
0.0
 11
10.21854013978258
 21
1672.348405326779
 31
0.0
  0
LINE
  5
13E
330
1F
100
AcDbEntity
  8
Make2D$可见线$普通线
100
AcDbLine
 10
10.21118093260177
 20
1672.35576453396
 30
0.0
 11
9.945327352932384
 21
1672.62161811363
 31
0.0
  0
LINE
  5
13F
330
1F
100
AcDbEntity
  8
Make2D$可见线$普通线
100
AcDbLine
 10
9.937906281675707
 20
1672.629039184886
 30
0.0
 11
9.690391210541572
 21
1672.87655425602
 31
0.0
  0
LINE
  5
140
330
1F
100
AcDbEntity
  8
Make2D$可见线$普通线
100
AcDbLine
 10
9.682912413623498
 20
1672.884033052938
 30
0.0
 11
9.453818562543884
 21
1673.113126904017
 31
0.0
  0
LINE
  5
141
330
1F
100
AcDbEntity
  8
Make2D$可见线$普通线
100
AcDbLine
 10
9.446286198042639
 20
1673.120659268519
 30
0.0
 11
9.235696258873395
 21
1673.331249207688
 31
0.0
  0
LINE
  5
142
330
1F
100
AcDbEntity
  8
Make2D$可见线$普通线
100
AcDbLine
 10
9.228114504530618
 20
1673.338830962031
 30
0.0
 11
9.036111149463311
 21
1673.530834317098
 31
0.0
  0
LINE
  5
143
330
1F
100
AcDbEntity
  8
Make2D$可见线$普通线
100
AcDbLine
 10
9.028484202684934
 20
1673.538461263876
 30
0.0
 11
8.855150084255158
 21
1673.711795382306
 31
0.0
  0
LINE
  5
144
330
1F
100
AcDbEntity
  8
Make2D$可见线$普通线
100
AcDbLine
 10
8.847482162103079
 20
1673.719463304458
 30
0.0
 11
8.692899913201911
 21
1673.87404555336
 31
0.0
  0
LINE
  5
145
330
1F
100
AcDbEntity
  8
Make2D$可见线$普通线
100
AcDbLine
 10
8.685195252382558
 20
1673.881750214179
 30
0.0
 11
8.549447486296193
 21
1674.017497980265
 31
0.0
  0
LINE
  5
146
330
1F
100
AcDbEntity
  8
Make2D$可见线$普通线
100
AcDbLine
 10
8.541710343120858
 20
1674.025235123441
 30
0.0
 11
8.424879653668565
 21
1674.142065812893
 31
0.0
  0
LINE
  5
147
330
1F
100
AcDbEntity
  8
Make2D$可见线$普通线
100
AcDbLine
 10
8.417114303915488
 20
1674.149831162646
 30
0.0
 11
8.319283266019953
 21
1674.247662200542
 31
0.0
  0
LINE
  5
148
330
1F
100
AcDbEntity
  8
Make2D$可见线$普通线
100
AcDbLine
 10
8.31149400436393
 20
1674.255451462198
 30
0.0
 11
8.232745167501333
 21
1674.334200299061
 31
0.0
  0
LINE
  5
149
330
1F
100
AcDbEntity
  8
Make2D$可见线$普通线
100
AcDbLine
 10
8.224936314063681
 20
1674.342009152498
 30
0.0
 11
8.165352216902102
 21
1674.40159324966
 31
0.0
  0
LINE
  5
14A
330
1F
100
AcDbEntity
  8
Make2D$可见线$普通线
100
AcDbLine
 10
8.157528102612243
 20
1674.409417363949
 30
0.0
 11
8.117191258757368
 21
1674.449754207804
 31
0.0
  0
LINE
  5
14B
330
1F
100
AcDbEntity
  8
Make2D$可见线$普通线
100
AcDbLine
 10
8.10935623960711
 20
1674.457589226955
 30
0.0
 11
8.088349144890355
 21
1674.478596321671
 31
0.0
  0
LINE
  5
14C
330
1F
100
AcDbEntity
  8
Make2D$可见线$普通线
100
AcDbLine
 10
71.00357256292864
 20
1597.421237279902
 30
0.0
 11
0.2928944442737702
 21
1668.131915398557
 31
0.0
  0
LINE
  5
14D
330
1F
100
AcDbEntity
  8
Make2D$可见线$普通线
100
AcDbLine
 10
68.2141418398382
 20
1598.796454440619
 30
0.0
 11
67.7225217562051
 21
1599.288074524252
 31
0.0
  0
LINE
  5
14E
330
1F
100
AcDbEntity
  8
Make2D$可见线$普通线
100
AcDbLine
 10
67.15777854107702
 20
1599.85281773938
 30
0.0
 11
2.724474903751373
 21
1664.286121376706
 31
0.0
  0
LINE
  5
14F
330
1F
100
AcDbEntity
  8
Make2D$可见线$普通线
100
AcDbLine
 10
2.159731688623975
 20
1664.850864591834
 30
0.0
 11
1.668111604990864
 21
1665.342484675467
 31
0.0
  0
SPLINE
  5
150
330
1F
100
AcDbEntity
  8
Make2D$可见线$普通线
100
AcDbSpline
210
0.0
220
0.0
230
1.0
 70
     8
 71
     3
 72
    12
 73
     8
 74
     0
 42
0.000000001
 43
0.0000000001
 12
1.0
 22
0.0
 32
0.0
 13
1.0
 23
0.0
 33
0.0
 40
32.00151288240845
 40
32.00151288240845
 40
32.00151288240845
 40
32.00151288240845
 40
36.5892100926218
 40
45.15726727222349
 40
49.86286022463517
 40
57.65881570594166
 40
65.17426796776756
 40
65.17426796776756
 40
65.17426796776756
 40
65.17426796776756
 10
86.26168215662528
 20
1626.297387230125
 30
0.0
 10
85.90680251501675
 20
1624.86277551335
 30
0.0
 10
84.83293948966514
 20
1620.770327887191
 30
0.0
 10
83.21191509798656
 20
1615.473521793469
 30
0.0
 10
81.4338794435984
 20
1610.115199832751
 30
0.0
 10
80.09571434186682
 20
1606.18290151013
 30
0.0
 10
79.79419469222869
 20
1604.881125703257
 30
0.0
 10
79.88335625535092
 20
1604.76158266931
 30
0.0
  0
POLYLINE
  5
151
330
1F
100
AcDbEntity
  8
Make2D$可见线$普通线
100
AcDb2dPolyline
 66
     1
 10
0.0
 20
0.0
 30
0.0
  0
VERTEX
  5
152
330
151
100
AcDbEntity
  8
Make2D$可见线$普通线
100
AcDbVertex
100
AcDb2dVertex
 10
78.39476315925606
 20
1604.823299427819
 30
0.0
  0
VERTEX
  5
153
330
151
100
AcDbEntity
  8
Make2D$可见线$普通线
100
AcDbVertex
100
AcDb2dVertex
 10
78.39789571545634
 20
1604.818750396974
 30
0.0
  0
VERTEX
  5
154
330
151
100
AcDbEntity
  8
Make2D$可见线$普通线
100
AcDbVertex
100
AcDb2dVertex
 10
78.34772986224016
 20
1604.891210592486
 30
0.0
  0
VERTEX
  5
155
330
151
100
AcDbEntity
  8
Make2D$可见线$普通线
100
AcDbVertex
100
AcDb2dVertex
 10
78.34658045520402
 20
1604.892794717631
 30
0.0
  0
VERTEX
  5
156
330
151
100
AcDbEntity
  8
Make2D$可见线$普通线
100
AcDbVertex
100
AcDb2dVertex
 10
78.34546128751418
 20
1604.894440833132
 30
0.0
  0
VERTEX
  5
157
330
151
100
AcDbEntity
  8
Make2D$可见线$普通线
100
AcDbVertex
100
AcDb2dVertex
 10
78.34437232359085
 20
1604.896148881716
 30
0.0
  0
VERTEX
  5
158
330
151
100
AcDbEntity
  8
Make2D$可见线$普通线
100
AcDbVertex
100
AcDb2dVertex
 10
78.34331352785418
 20
1604.897918806109
 30
0.0
  0
VERTEX
  5
159
330
151
100
AcDbEntity
  8
Make2D$可见线$普通线
100
AcDbVertex
100
AcDb2dVertex
 10
78.3422848647244
 20
1604.899750549039
 30
0.0
  0
VERTEX
  5
15A
330
151
100
AcDbEntity
  8
Make2D$可见线$普通线
100
AcDbVertex
100
AcDb2dVertex
 10
78.34128629862171
 20
1604.901644053233
 30
0.0
  0
VERTEX
  5
15B
330
151
100
AcDbEntity
  8
Make2D$可见线$普通线
100
AcDbVertex
100
AcDb2dVertex
 10
78.34031779396628
 20
1604.903599261416
 30
0.0
  0
VERTEX
  5
15C
330
151
100
AcDbEntity
  8
Make2D$可见线$普通线
100
AcDbVertex
100
AcDb2dVertex
 10
78.33937931517833
 20
1604.905616116316
 30
0.0
  0
VERTEX
  5
15D
330
151
100
AcDbEntity
  8
Make2D$可见线$普通线
100
AcDbVertex
100
AcDb2dVertex
 10
78.33847082667806
 20
1604.907694560661
 30
0.0
  0
VERTEX
  5
15E
330
151
100
AcDbEntity
  8
Make2D$可见线$普通线
100
AcDbVertex
100
AcDb2dVertex
 10
78.33759229288567
 20
1604.909834537175
 30
0.0
  0
VERTEX
  5
15F
330
151
100
AcDbEntity
  8
Make2D$可见线$普通线
100
AcDbVertex
100
AcDb2dVertex
 10
78.33674367822134
 20
1604.912035988587
 30
0.0
  0
VERTEX
  5
160
330
151
100
AcDbEntity
  8
Make2D$可见线$普通线
100
AcDbVertex
100
AcDb2dVertex
 10
78.33592494710527
 20
1604.914298857623
 30
0.0
  0
VERTEX
  5
161
330
151
100
AcDbEntity
  8
Make2D$可见线$普通线
100
AcDbVertex
100
AcDb2dVertex
 10
78.33513606395768
 20
1604.91662308701
 30
0.0
  0
VERTEX
  5
162
330
151
100
AcDbEntity
  8
Make2D$可见线$普通线
100
AcDbVertex
100
AcDb2dVertex
 10
78.33437699319873
 20
1604.919008619474
 30
0.0
  0
VERTEX
  5
163
330
151
100
AcDbEntity
  8
Make2D$可见线$普通线
100
AcDbVertex
100
AcDb2dVertex
 10
78.33364769924864
 20
1604.921455397743
 30
0.0
  0
VERTEX
  5
164
330
151
100
AcDbEntity
  8
Make2D$可见线$普通线
100
AcDbVertex
100
AcDb2dVertex
 10
78.3329481465276
 20
1604.923963364543
 30
0.0
  0
VERTEX
  5
165
330
151
100
AcDbEntity
  8
Make2D$可见线$普通线
100
AcDbVertex
100
AcDb2dVertex
 10
78.33163812245348
 20
1604.929162634645
 30
0.0
  0
VERTEX
  5
166
330
151
100
AcDbEntity
  8
Make2D$可见线$普通线
100
AcDbVertex
100
AcDb2dVertex
 10
78.33044663633795
 20
1604.934605971594
 30
0.0
  0
VERTEX
  5
167
330
151
100
AcDbEntity
  8
Make2D$可见线$普通线
100
AcDbVertex
100
AcDb2dVertex
 10
78.32937340354258
 20
1604.940292917204
 30
0.0
  0
VERTEX
  5
168
330
151
100
AcDbEntity
  8
Make2D$可见线$普通线
100
AcDbVertex
100
AcDb2dVertex
 10
78.32841813942895
 20
1604.94622301329
 30
0.0
  0
VERTEX
  5
169
330
151
100
AcDbEntity
  8
Make2D$可见线$普通线
100
AcDbVertex
100
AcDb2dVertex
 10
78.32758055935862
 20
1604.952395801666
 30
0.0
  0
VERTEX
  5
16A
330
151
100
AcDbEntity
  8
Make2D$可见线$普通线
100
AcDbVertex
100
AcDb2dVertex
 10
78.3268603786932
 20
1604.958810824146
 30
0.0
  0
VERTEX
  5
16B
330
151
100
AcDbEntity
  8
Make2D$可见线$普通线
100
AcDbVertex
100
AcDb2dVertex
 10
78.32625731279424
 20
1604.965467622545
 30
0.0
  0
VERTEX
  5
16C
330
151
100
AcDbEntity
  8
Make2D$可见线$普通线
100
AcDbVertex
100
AcDb2dVertex
 10
78.32577107702332
 20
1604.972365738678
 30
0.0
  0
VERTEX
  5
16D
330
151
100
AcDbEntity
  8
Make2D$可见线$普通线
100
AcDbVertex
100
AcDb2dVertex
 10
78.32514795731194
 20
1604.9868840914
 30
0.0
  0
VERTEX
  5
16E
330
151
100
AcDbEntity
  8
Make2D$可见线$普通线
100
AcDbVertex
100
AcDb2dVertex
 10
78.3249887424517
 20
1605.00236221683
 30
0.0
  0
VERTEX
  5
16F
330
151
100
AcDbEntity
  8
Make2D$可见线$普通线
100
AcDbVertex
100
AcDb2dVertex
 10
78.32529115533518
 20
1605.01879644948
 30
0.0
  0
VERTEX
  5
170
330
151
100
AcDbEntity
  8
Make2D$可见线$普通线
100
AcDbVertex
100
AcDb2dVertex
 10
78.32605291885505
 20
1605.036183123868
 30
0.0
  0
VERTEX
  5
171
330
151
100
AcDbEntity
  8
Make2D$可见线$普通线
100
AcDbVertex
100
AcDb2dVertex
 10
78.3272717559039
 20
1605.054518574507
 30
0.0
  0
VERTEX
  5
172
330
151
100
AcDbEntity
  8
Make2D$可见线$普通线
100
AcDbVertex
100
AcDb2dVertex
 10
78.32894538937435
 20
1605.073799135914
 30
0.0
  0
VERTEX
  5
173
330
151
100
AcDbEntity
  8
Make2D$可见线$普通线
100
AcDbVertex
100
AcDb2dVertex
 10
78.3336479371506
 20
1605.115180929092
 30
0.0
  0
VERTEX
  5
174
330
151
100
AcDbEntity
  8
Make2D$可见线$普通线
100
AcDbVertex
100
AcDb2dVertex
 10
78.34014234532475
 20
1605.160299179523
 30
0.0
  0
VERTEX
  5
175
330
151
100
AcDbEntity
  8
Make2D$可见线$普通线
100
AcDbVertex
100
AcDb2dVertex
 10
78.34841039703775
 20
1605.209124563329
 30
0.0
  0
VERTEX
  5
176
330
151
100
AcDbEntity
  8
Make2D$可见线$普通线
100
AcDbVertex
100
AcDb2dVertex
 10
78.35843387543062
 20
1605.261627756633
 30
0.0
  0
VERTEX
  5
177
330
151
100
AcDbEntity
  8
Make2D$可见线$普通线
100
AcDbVertex
100
AcDb2dVertex
 10
78.37019456364428
 20
1605.317779435557
 30
0.0
  0
VERTEX
  5
178
330
151
100
AcDbEntity
  8
Make2D$可见线$普通线
100
AcDbVertex
100
AcDb2dVertex
 10
78.39885470209798
 20
1605.440910954756
 30
0.0
  0
VERTEX
  5
179
330
151
100
AcDbEntity
  8
Make2D$可见线$普通线
100
AcDbVertex
100
AcDb2dVertex
 10
78.43424507752661
 20
1605.578284529902
 30
0.0
  0
SEQEND
  5
17A
330
151
100
AcDbEntity
  8
Make2D$可见线$普通线
  0
POLYLINE
  5
17B
330
1F
100
AcDbEntity
  8
Make2D$可见线$普通线
100
AcDb2dPolyline
 66
     1
 10
0.0
 20
0.0
 30
0.0
  0
VERTEX
  5
17C
330
17B
100
AcDbEntity
  8
Make2D$可见线$普通线
100
AcDbVertex
100
AcDb2dVertex
 10
85.39017838271681
 20
1626.536623113037
 30
0.0
 42
-0.0069918859014916
  0
VERTEX
  5
17D
330
17B
100
AcDbEntity
  8
Make2D$可见线$普通线
100
AcDbVertex
100
AcDb2dVertex
 10
84.14451814786986
 20
1622.241216714573
 30
0.0
 42
-0.0102730404210196
  0
VERTEX
  5
17E
330
17B
100
AcDbEntity
  8
Make2D$可见线$普通线
100
AcDbVertex
100
AcDb2dVertex
 10
81.66842140891913
 20
1614.725338789804
 30
0.0
 42
-0.0029923134304939
  0
VERTEX
  5
17F
330
17B
100
AcDbEntity
  8
Make2D$可见线$普通线
100
AcDbVertex
100
AcDb2dVertex
 10
80.38558279963713
 20
1611.149095770782
 30
0.0
 42
0.0049760954719673
  0
VERTEX
  5
180
330
17B
100
AcDbEntity
  8
Make2D$可见线$普通线
100
AcDbVertex
100
AcDb2dVertex
 10
78.78320634615697
 20
1606.698724129267
 30
0.0
 42
0.0150760874806048
  0
VERTEX
  5
181
330
17B
100
AcDbEntity
  8
Make2D$可见线$普通线
100
AcDbVertex
100
AcDb2dVertex
 10
78.43424507752661
 20
1605.578284529902
 30
0.0
  0
SEQEND
  5
182
330
17B
100
AcDbEntity
  8
Make2D$可见线$普通线
  0
LINE
  5
183
330
1F
100
AcDbEntity
  8
Make2D$可见线$普通线
100
AcDbLine
 10
86.26168215662528
 20
1626.297387230125
 30
0.0
 11
85.39020737984583
 21
1626.536728728344
 31
0.0
  0
ARC
  5
184
330
1F
100
AcDbEntity
  8
Make2D$可见线$普通线
100
AcDbCircle
 10
43.71206136794387
 20
1637.963525654745
 30
0.0
 40
43.21619537842981
100
AcDbArc
 50
344.6680984217008
 51
354.8939018280133
  0
LINE
  5
185
330
1F
100
AcDbEntity
  8
Make2D$可见线$普通线
100
AcDbLine
 10
87.65798099074073
 20
1634.036421546196
 30
0.0
 11
86.75676485556232
 21
1634.117351281325
 31
0.0
  0
ARC
  5
186
330
1F
100
AcDbEntity
  8
Make2D$可见线$普通线
100
AcDbCircle
 10
43.7094644182388
 20
1637.970260048284
 30
0.0
 40
44.12422457430826
100
AcDbArc
 50
344.6600414528807
 51
354.8850772368634
  0
SPLINE
  5
187
330
1F
100
AcDbEntity
  8
Make2D$可见线$普通线
100
AcDbSpline
210
0.0
220
0.0
230
1.0
 70
     8
 71
     3
 72
    11
 73
     7
 74
     0
 42
0.000000001
 43
0.0000000001
 12
1.0
 22
0.0
 32
0.0
 13
1.0
 23
0.0
 33
0.0
 40
21.31119874899366
 40
21.31119874899366
 40
21.31119874899366
 40
21.31119874899366
 40
24.60130593304534
 40
27.96024644733301
 40
31.69075589721449
 40
36.27877691093953
 40
36.27877691093953
 40
36.27877691093953
 40
36.27877691093953
 10
84.47941270114598
 20
1663.668182648511
 30
0.0
 10
84.2950278408635
 20
1663.857464847953
 30
0.0
 10
84.14838793534949
 20
1663.731934716922
 30
0.0
 10
84.57312797311077
 20
1662.178800438629
 30
0.0
 10
85.30883625835388
 20
1659.689517533205
 30
0.0
 10
85.8395685164142
 20
1657.601119040071
 30
0.0
 10
86.10770968625684
 20
1656.393254126619
 30
0.0
  0
ARC
  5
188
330
1F
100
AcDbEntity
  8
Make2D$可见线$普通线
100
AcDbCircle
 10
86.26055612088271
 20
1657.082467991645
 30
0.0
 40
0.7059587695622783
100
AcDbArc
 50
226.5049875772355
 51
257.4959273014388
  0
SPLINE
  5
189
330
1F
100
AcDbEntity
  8
Make2D$可见线$普通线
100
AcDbSpline
210
0.0
220
0.0
230
1.0
 70
     8
 71
     3
 72
    11
 73
     7
 74
     0
 42
0.000000001
 43
0.0000000001
 12
1.0
 22
0.0
 32
0.0
 13
1.0
 23
0.0
 33
0.0
 40
21.31119874899387
 40
21.31119874899387
 40
21.31119874899387
 40
21.31119874899387
 40
24.60130593304535
 40
27.96024644733302
 40
31.69075589721451
 40
36.27877691093953
 40
36.27877691093953
 40
36.27877691093953
 40
36.27877691093953
 10
84.33177209059204
 20
1663.859346791795
 30
0.0
 10
84.15100334504956
 20
1664.045187605539
 30
0.0
 10
83.9996784453287
 20
1663.914670128077
 30
0.0
 10
84.3854948824487
 20
1662.360428337601
 30
0.0
 10
85.05927590808817
 20
1659.871030149898
 30
0.0
 10
85.53732343787766
 20
1657.780418074453
 30
0.0
 10
85.77465075020928
 20
1656.570341293383
 30
0.0
  0
ARC
  5
18A
330
1F
100
AcDbEntity
  8
Make2D$可见线$普通线
100
AcDbCircle
 10
85.15087239281308
 20
1664.339297563502
 30
0.0
 40
0.9493566497164644
100
AcDbArc
 50
210.3681154398501
 51
219.7607361244071
  0
LINE
  5
18B
330
1F
100
AcDbEntity
  8
Make2D$可见线$普通线
100
AcDbLine
 10
84.57073104207443
 20
1663.62038784026
 30
0.0
 11
84.33177209059204
 21
1663.859346791795
 31
0.0
  0
SPLINE
  5
18C
330
1F
100
AcDbEntity
  8
Make2D$可见线$普通线
100
AcDbSpline
210
0.0
220
0.0
230
1.0
 70
     8
 71
     3
 72
     9
 73
     5
 74
     0
 42
0.000000001
 43
0.0000000001
 12
1.0
 22
0.0
 32
0.0
 13
1.0
 23
0.0
 33
0.0
 40
-0.2894278754867567
 40
-0.2894278754867567
 40
-0.2894278754867567
 40
-0.2894278754867567
 40
8.412122556379845
 40
24.12699817326911
 40
24.12699817326911
 40
24.12699817326911
 40
24.12699817326911
 10
85.77465075020928
 20
1656.570341293383
 30
0.0
 10
86.22673435485484
 20
1654.270019171006
 30
0.0
 10
87.27002756682091
 20
1647.209074405662
 30
0.0
 10
87.22316672639498
 20
1639.232290221566
 30
0.0
 10
86.75676485556232
 20
1634.117351281325
 30
0.0
  0
SPLINE
  5
18D
330
1F
100
AcDbEntity
  8
Make2D$可见线$普通线
100
AcDbSpline
210
0.0
220
0.0
230
1.0
 70
     8
 71
     3
 72
     9
 73
     5
 74
     0
 42
0.000000001
 43
0.0000000001
 12
1.0
 22
0.0
 32
0.0
 13
1.0
 23
0.0
 33
0.0
 40
-0.2894278754867639
 40
-0.2894278754867639
 40
-0.2894278754867639
 40
-0.2894278754867639
 40
8.412122556379845
 40
24.1270804442532
 40
24.1270804442532
 40
24.1270804442532
 40
24.1270804442532
 10
86.10770968625684
 20
1656.393254126619
 30
0.0
 10
86.61331445917875
 20
1654.102174453404
 30
0.0
 10
87.8248670435502
 20
1647.071084744841
 30
0.0
 10
87.98465457375958
 20
1639.130556296923
 30
0.0
 10
87.65798099074073
 20
1634.036421546196
 30
0.0
  0
LINE
  5
18E
330
1F
100
AcDbEntity
  8
Make2D$可见线$普通线
100
AcDbLine
 10
8.094772003212116
 20
1675.917757604218
 30
0.0
 11
43.44209338590144
 21
1640.57043622153
 31
0.0
  0
LINE
  5
18F
330
1F
100
AcDbEntity
  8
Make2D$可见线$普通线
100
AcDbLine
 10
43.44209338590144
 20
1640.57043622153
 30
0.0
 11
78.43424507752661
 21
1605.578284529902
 31
0.0
  0
LINE
  5
190
330
1F
100
AcDbEntity
  8
Make2D$可见线$普通线
100
AcDbLine
 10
147.6604268124203
 20
1449.788941489346
 30
0.0
 11
117.660426812421
 21
1449.788941489346
 31
0.0
  0
LINE
  5
191
330
1F
100
AcDbEntity
  8
Make2D$可见线$普通线
100
AcDbLine
 10
132.6604268124206
 20
1447.788941489346
 30
0.0
 11
118.3434830176711
 21
1447.788941489346
 31
0.0
  0
LINE
  5
192
330
1F
100
AcDbEntity
  8
Make2D$可见线$普通线
100
AcDbLine
 10
117.029356638166
 20
1447.788941489346
 30
0.0
 11
116.3924566196837
 21
1447.788941489346
 31
0.0
  0
LINE
  5
193
330
1F
100
AcDbEntity
  8
Make2D$可见线$普通线
100
AcDbLine
 10
116.3735317908133
 20
1447.788941489346
 30
0.0
 11
116.1860998402037
 21
1447.788941489346
 31
0.0
  0
LINE
  5
194
330
1F
100
AcDbEntity
  8
Make2D$可见线$普通线
100
AcDbLine
 10
115.9404465069813
 20
1447.788941489346
 30
0.0
 11
115.9057485508479
 21
1447.788941489346
 31
0.0
  0
LINE
  5
195
330
1F
100
AcDbEntity
  8
Make2D$可见线$普通线
100
AcDbLine
 10
115.2197403834502
 20
1447.788941489345
 30
0.0
 11
114.9944490932257
 21
1447.788941489346
 31
0.0
  0
LINE
  5
196
330
1F
100
AcDbEntity
  8
Make2D$可见线$普通线
100
AcDbLine
 10
114.9011860595739
 20
1447.788941489346
 30
0.0
 11
114.8267238662272
 21
1447.788941489346
 31
0.0
  0
LINE
  5
197
330
1F
100
AcDbEntity
  8
Make2D$可见线$普通线
100
AcDbLine
 10
114.6170253292763
 20
1447.788941489346
 30
0.0
 11
114.5264802078761
 21
1447.788941489346
 31
0.0
  0
LINE
  5
198
330
1F
100
AcDbEntity
  8
Make2D$可见线$普通线
100
AcDbLine
 10
114.3680815054372
 20
1447.788941489346
 30
0.0
 11
113.977624806991
 21
1447.788941489346
 31
0.0
  0
LINE
  5
199
330
1F
100
AcDbEntity
  8
Make2D$可见线$普通线
100
AcDbLine
 10
113.8283851276939
 20
1447.788941489346
 30
0.0
 11
113.8209126364273
 21
1447.788941489346
 31
0.0
  0
LINE
  5
19A
330
1F
100
AcDbEntity
  8
Make2D$可见线$普通线
100
AcDbLine
 10
151.4999409884149
 20
1447.788941489346
 30
0.0
 11
151.4924684971686
 21
1447.788941489346
 31
0.0
  0
LINE
  5
19B
330
1F
100
AcDbEntity
  8
Make2D$可见线$普通线
100
AcDbLine
 10
151.3432288178503
 20
1447.788941489346
 30
0.0
 11
150.9527721193988
 21
1447.788941489346
 31
0.0
  0
LINE
  5
19C
330
1F
100
AcDbEntity
  8
Make2D$可见线$普通线
100
AcDbLine
 10
150.7943734169668
 20
1447.788941489346
 30
0.0
 11
150.7038282955571
 21
1447.788941489346
 31
0.0
  0
LINE
  5
19D
330
1F
100
AcDbEntity
  8
Make2D$可见线$普通线
100
AcDbLine
 10
150.4941297586135
 20
1447.788941489346
 30
0.0
 11
150.4196675652581
 21
1447.788941489346
 31
0.0
  0
LINE
  5
19E
330
1F
100
AcDbEntity
  8
Make2D$可见线$普通线
100
AcDbLine
 10
150.326404531615
 20
1447.788941489346
 30
0.0
 11
150.1011152275358
 21
1447.788941489346
 31
0.0
  0
LINE
  5
19F
330
1F
100
AcDbEntity
  8
Make2D$可见线$普通线
100
AcDbLine
 10
149.4151050741962
 20
1447.788941489346
 30
0.0
 11
149.380407117864
 21
1447.788941489346
 31
0.0
  0
LINE
  5
1A0
330
1F
100
AcDbEntity
  8
Make2D$可见线$普通线
100
AcDbLine
 10
149.1347537846373
 20
1447.788941489346
 30
0.0
 11
148.9473218340158
 21
1447.788941489346
 31
0.0
  0
LINE
  5
1A1
330
1F
100
AcDbEntity
  8
Make2D$可见线$普通线
100
AcDbLine
 10
148.9283970051573
 20
1447.788941489346
 30
0.0
 11
148.291496986675
 21
1447.788941489346
 31
0.0
  0
LINE
  5
1A2
330
1F
100
AcDbEntity
  8
Make2D$可见线$普通线
100
AcDbLine
 10
146.9773706071578
 20
1447.788941489346
 30
0.0
 11
132.6604268124206
 21
1447.788941489346
 31
0.0
  0
LINE
  5
1A3
330
1F
100
AcDbEntity
  8
Make2D$可见线$普通线
100
AcDbLine
 10
111.6604268124197
 20
1502.945971252781
 30
0.0
 11
153.6604268124202
 21
1502.945971252781
 31
0.0
  0
LINE
  5
1A4
330
1F
100
AcDbEntity
  8
Make2D$可见线$普通线
100
AcDbLine
 10
86.10770968625684
 20
1656.393254126619
 30
0.0
 11
88.93102545463626
 21
1659.216569894998
 31
0.0
  0
LINE
  5
1A5
330
1F
100
AcDbEntity
  8
Make2D$可见线$普通线
100
AcDbLine
 10
142.660427332755
 20
1258.788769648049
 30
0.0
 11
152.6504848794773
 21
1258.788769648049
 31
0.0
  0
ARC
  5
1A6
330
1F
100
AcDbEntity
  8
Make2D$可见线$普通线
100
AcDbCircle
 10
150.6604268124038
 20
1258.788769648049
 30
0.0
 40
2.000000000016769
100
AcDbArc
 50
0.0000000000195413
 51
5.155233067997645
  0
LINE
  5
1A7
330
1F
100
AcDbEntity
  8
Make2D$可见线$普通线
100
AcDbLine
 10
142.6616255503814
 20
1260.788769648049
 30
0.0
 11
144.6184084547378
 21
1260.78876964805
 31
0.0
  0
LINE
  5
1A8
330
1F
100
AcDbEntity
  8
Make2D$可见线$普通线
100
AcDbLine
 10
144.6604278581605
 20
1260.78876964805
 30
0.0
 11
148.3188987098097
 21
1260.78876964805
 31
0.0
  0
SPLINE
  5
1A9
330
1F
100
AcDbEntity
  8
Make2D$可见线$普通线
100
AcDbSpline
210
0.0
220
0.0
230
1.0
 70
    24
 71
     3
 72
     8
 73
     4
 74
     0
 42
0.000000001
 43
0.0000000001
 12
1.0
 22
0.0
 32
0.0
 13
1.0
 23
0.0
 33
0.0
 40
11.89469437127237
 40
11.89469437127237
 40
11.89469437127237
 40
11.89469437127237
 40
12.56605312980331
 40
12.56605312980331
 40
12.56605312980331
 40
12.56605312980331
 10
150.6348687674366
 20
1260.788769648049
 30
0.0
 10
150.6533252670501
 20
1260.788769648049
 30
0.0
 10
150.6619617108315
 20
1260.788769648049
 30
0.0
 10
150.6604268124206
 20
1260.788769648049
 30
0.0
  0
LINE
  5
1AA
330
1F
100
AcDbEntity
  8
Make2D$可见线$普通线
100
AcDbLine
 10
142.6604268124206
 20
1258.788769648049
 30
0.0
 11
142.6604268124206
 21
1260.788769648049
 31
0.0
  0
LINE
  5
1AB
330
1F
100
AcDbEntity
  8
Make2D$可见线$普通线
100
AcDbLine
 10
142.6604268124206
 20
1232.788769648049
 30
0.0
 11
152.6504848794773
 21
1232.788769648049
 31
0.0
  0
ARC
  5
1AC
330
1F
100
AcDbEntity
  8
Make2D$可见线$普通线
100
AcDbCircle
 10
150.660426812411
 20
1232.788769648049
 30
0.0
 40
2.000000000009607
100
AcDbArc
 50
354.8447669320099
 51
0.0000000000130276
  0
LINE
  5
1AD
330
1F
100
AcDbEntity
  8
Make2D$可见线$普通线
100
AcDbLine
 10
142.6604268124206
 20
1230.788769648049
 30
0.0
 11
148.3188987098092
 21
1230.78876964805
 31
0.0
  0
SPLINE
  5
1AE
330
1F
100
AcDbEntity
  8
Make2D$可见线$普通线
100
AcDbSpline
210
0.0
220
0.0
230
1.0
 70
    24
 71
     3
 72
     8
 73
     4
 74
     0
 42
0.000000001
 43
0.0000000001
 12
1.0
 22
0.0
 32
0.0
 13
1.0
 23
0.0
 33
0.0
 40
11.89469437127788
 40
11.89469437127788
 40
11.89469437127788
 40
11.89469437127788
 40
12.56605312980331
 40
12.56605312980331
 40
12.56605312980331
 40
12.56605312980331
 10
150.6348687674372
 20
1230.788769648049
 30
0.0
 10
150.6533252670504
 20
1230.788769648049
 30
0.0
 10
150.6619617108315
 20
1230.788769648049
 30
0.0
 10
150.6604268124206
 20
1230.788769648049
 30
0.0
  0
LINE
  5
1AF
330
1F
100
AcDbEntity
  8
Make2D$可见线$普通线
100
AcDbLine
 10
142.6604268124206
 20
1232.788769648049
 30
0.0
 11
142.6604268124206
 21
1230.788769648049
 31
0.0
  0
LINE
  5
1B0
330
1F
100
AcDbEntity
  8
Make2D$可见线$普通线
100
AcDbLine
 10
64.21423703549544
 20
1258.788769648049
 30
0.0
 11
142.6604268124206
 21
1258.788769648049
 31
0.0
  0
LINE
  5
1B1
330
1F
100
AcDbEntity
  8
Make2D$可见线$普通线
100
AcDbLine
 10
64.21423703549544
 20
1260.788769648049
 30
0.0
 11
142.6604268124206
 21
1260.788769648049
 31
0.0
  0
LINE
  5
1B2
330
1F
100
AcDbEntity
  8
Make2D$可见线$普通线
100
AcDbLine
 10
64.21423703549544
 20
1258.788769648049
 30
0.0
 11
64.21423703549544
 21
1260.788769647953
 31
0.0
  0
LINE
  5
1B3
330
1F
100
AcDbEntity
  8
Make2D$可见线$普通线
100
AcDbLine
 10
64.21423703549544
 20
1232.788769648049
 30
0.0
 11
142.6604268124206
 21
1232.788769648049
 31
0.0
  0
LINE
  5
1B4
330
1F
100
AcDbEntity
  8
Make2D$可见线$普通线
100
AcDbLine
 10
64.21423703549544
 20
1230.788769648049
 30
0.0
 11
142.6604268124206
 21
1230.788769648049
 31
0.0
  0
LINE
  5
1B5
330
1F
100
AcDbEntity
  8
Make2D$可见线$普通线
100
AcDbLine
 10
64.21423703549544
 20
1232.788769648049
 30
0.0
 11
64.21423703549544
 21
1230.788769648049
 31
0.0
  0
SPLINE
  5
1B6
330
1F
100
AcDbEntity
  8
Make2D$可见线$普通线
100
AcDbSpline
210
0.0
220
0.0
230
1.0
 70
    28
 71
     2
 72
     8
 73
     5
 74
     0
 42
0.000000001
 43
0.0000000001
 12
1.0
 22
0.0
 32
0.0
 13
1.0
 23
0.0
 33
0.0
 40
144.0651369776035
 40
144.0651369776035
 40
144.0651369776035
 40
149.8942536573281
 40
149.8942536573281
 40
157.0685511092968
 40
157.0685511092968
 40
157.0685511092968
 10
54.21597330652019
 20
1258.78876964805
 30
0.0
 41
0.971273724298956
 10
54.14647379264621
 20
1258.78876964805
 30
0.0
 41
0.9233965981305486
 10
56.53593513144551
 20
1258.788769648049
 30
0.0
 41
1.0
 10
59.53421026577323
 20
1258.78876964805
 30
0.0
 41
0.9057188900068294
 10
64.21423703549544
 20
1258.788769648049
 30
0.0
 41
1.0
  0
LINE
  5
1B7
330
1F
100
AcDbEntity
  8
Make2D$可见线$普通线
100
AcDbLine
 10
56.24921578387355
 20
1260.788769648049
 30
0.0
 11
56.39783346991348
 21
1260.788769648049
 31
0.0
  0
LINE
  5
1B8
330
1F
100
AcDbEntity
  8
Make2D$可见线$普通线
100
AcDbLine
 10
56.60277552834812
 20
1260.788769648049
 30
0.0
 11
56.91533338394731
 21
1260.788769648049
 31
0.0
  0
LINE
  5
1B9
330
1F
100
AcDbEntity
  8
Make2D$可见线$普通线
100
AcDbLine
 10
57.54647584163453
 20
1260.788769648049
 30
0.0
 11
57.61698370397194
 21
1260.788769648049
 31
0.0
  0
LINE
  5
1BA
330
1F
100
AcDbEntity
  8
Make2D$可见线$普通线
100
AcDbLine
 10
58.07159551225558
 20
1260.788769648049
 30
0.0
 11
64.21120234176165
 21
1260.788769648049
 31
0.0
  0
SPLINE
  5
1BB
330
1F
100
AcDbEntity
  8
Make2D$可见线$普通线
100
AcDbSpline
210
0.0
220
0.0
230
1.0
 70
    28
 71
     2
 72
     8
 73
     5
 74
     0
 42
0.000000001
 43
0.0000000001
 12
1.0
 22
0.0
 32
0.0
 13
1.0
 23
0.0
 33
0.0
 40
144.0651369776035
 40
144.0651369776035
 40
144.0651369776035
 40
149.8942536573281
 40
149.8942536573281
 40
157.0685511092968
 40
157.0685511092968
 40
157.0685511092968
 10
54.21597330652019
 20
1232.788769648049
 30
0.0
 41
0.971273724298956
 10
54.14647379264621
 20
1232.78876964805
 30
0.0
 41
0.9233965981305486
 10
56.53593513144551
 20
1232.788769648049
 30
0.0
 41
1.0
 10
59.53421026577323
 20
1232.78876964805
 30
0.0
 41
0.9057188900068294
 10
64.21423703549544
 20
1232.788769648049
 30
0.0
 41
1.0
  0
LINE
  5
1BC
330
1F
100
AcDbEntity
  8
Make2D$可见线$普通线
100
AcDbLine
 10
56.24921578387345
 20
1230.788769648049
 30
0.0
 11
56.39783346991392
 21
1230.788769648049
 31
0.0
  0
LINE
  5
1BD
330
1F
100
AcDbEntity
  8
Make2D$可见线$普通线
100
AcDbLine
 10
56.60277552834793
 20
1230.788769648049
 30
0.0
 11
56.91533338394713
 21
1230.78876964805
 31
0.0
  0
LINE
  5
1BE
330
1F
100
AcDbEntity
  8
Make2D$可见线$普通线
100
AcDbLine
 10
57.54647584163438
 20
1230.788769648049
 30
0.0
 11
57.61698370397274
 21
1230.788769648049
 31
0.0
  0
LINE
  5
1BF
330
1F
100
AcDbEntity
  8
Make2D$可见线$普通线
100
AcDbLine
 10
58.07159551225597
 20
1230.788769648049
 30
0.0
 11
64.21423703549544
 21
1230.788769648049
 31
0.0
  0
LINE
  5
1C0
330
1F
100
AcDbEntity
  8
Make2D$可见线$普通线
100
AcDbLine
 10
142.6604268124206
 20
1232.788769648049
 30
0.0
 11
142.6604268124206
 21
1258.788769648049
 31
0.0
  0
LINE
  5
1C1
330
1F
100
AcDbEntity
  8
Make2D$可见线$普通线
100
AcDbLine
 10
152.6604268124206
 20
1232.788769648049
 30
0.0
 11
152.6604268124206
 21
1258.788769648049
 31
0.0
  0
LINE
  5
1C2
330
1F
100
AcDbEntity
  8
Make2D$可见线$普通线
100
AcDbLine
 10
64.21423703549544
 20
1232.788769648049
 30
0.0
 11
64.21423703549544
 21
1258.788769648049
 31
0.0
  0
LINE
  5
1C3
330
1F
100
AcDbEntity
  8
Make2D$可见线$普通线
100
AcDbLine
 10
112.6604268124206
 20
1096.788769648049
 30
0.0
 11
112.6604268124209
 21
1110.934949391482
 31
0.0
  0
LINE
  5
1C4
330
1F
100
AcDbEntity
  8
Make2D$可见线$普通线
100
AcDbLine
 10
112.6604268124208
 20
1112.23980319629
 30
0.0
 11
112.6604268124208
 21
1112.249829772814
 31
0.0
  0
LINE
  5
1C5
330
1F
100
AcDbEntity
  8
Make2D$可见线$普通线
100
AcDbLine
 10
112.6604268124208
 20
1112.543327546653
 30
0.0
 11
112.6604268124208
 21
1112.555481963058
 31
0.0
  0
LINE
  5
1C6
330
1F
100
AcDbEntity
  8
Make2D$可见线$普通线
100
AcDbLine
 10
112.6604268124208
 20
1112.837518959157
 30
0.0
 11
112.6604268124208
 21
1112.85164337311
 31
0.0
  0
LINE
  5
1C7
330
1F
100
AcDbEntity
  8
Make2D$可见线$普通线
100
AcDbLine
 10
112.6604268124208
 20
1113.122248799479
 30
0.0
 11
112.6604268124207
 21
1113.138182193893
 31
0.0
  0
LINE
  5
1C8
330
1F
100
AcDbEntity
  8
Make2D$可见线$普通线
100
AcDbLine
 10
112.6604268124207
 20
1113.397388425044
 30
0.0
 11
112.6604268124207
 21
1113.414966616328
 31
0.0
  0
LINE
  5
1C9
330
1F
100
AcDbEntity
  8
Make2D$可见线$普通线
100
AcDbLine
 10
112.6604268124207
 20
1113.662809193277
 30
0.0
 11
112.6604268124207
 21
1113.681864831338
 31
0.0
  0
LINE
  5
1CA
330
1F
100
AcDbEntity
  8
Make2D$可见线$普通线
100
AcDbLine
 10
112.6604268124207
 20
1113.918382461605
 30
0.0
 11
112.6604268124207
 21
1113.938745029845
 31
0.0
  0
LINE
  5
1CB
330
1F
100
AcDbEntity
  8
Make2D$可见线$普通线
100
AcDbLine
 10
112.6604268124206
 20
1114.163979587454
 30
0.0
 11
112.6604268124206
 21
1114.18547540277
 31
0.0
  0
LINE
  5
1CC
330
1F
100
AcDbEntity
  8
Make2D$可见线$普通线
100
AcDbLine
 10
112.6604268124206
 20
1114.399471928246
 30
0.0
 11
112.6604268124206
 21
1114.421924141037
 31
0.0
  0
LINE
  5
1CD
330
1F
100
AcDbEntity
  8
Make2D$可见线$普通线
100
AcDbLine
 10
112.6604268124206
 20
1114.624730841411
 30
0.0
 11
112.6604268124206
 21
1114.647959435566
 31
0.0
  0
LINE
  5
1CE
330
1F
100
AcDbEntity
  8
Make2D$可见线$普通线
100
AcDbLine
 10
112.6604268124206
 20
1114.839627684372
 30
0.0
 11
112.6604268124206
 21
1114.863449477281
 31
0.0
  0
LINE
  5
1CF
330
1F
100
AcDbEntity
  8
Make2D$可见线$普通线
100
AcDbLine
 10
112.6604268124206
 20
1115.044033814558
 30
0.0
 11
112.6604268124206
 21
1115.068262457104
 31
0.0
  0
LINE
  5
1D0
330
1F
100
AcDbEntity
  8
Make2D$可见线$普通线
100
AcDbLine
 10
112.6604268124205
 20
1115.23782058939
 30
0.0
 11
112.6604268124205
 21
1115.262266565956
 31
0.0
  0
LINE
  5
1D1
330
1F
100
AcDbEntity
  8
Make2D$可见线$普通线
100
AcDbLine
 10
112.6604268124205
 20
1115.420859366295
 30
0.0
 11
112.6604268124205
 21
1115.445329994759
 31
0.0
  0
LINE
  5
1D2
330
1F
100
AcDbEntity
  8
Make2D$可见线$普通线
100
AcDbLine
 10
112.6604268124205
 20
1115.5930215027
 30
0.0
 11
112.6604268124205
 21
1115.617320934436
 31
0.0
  0
LINE
  5
1D3
330
1F
100
AcDbEntity
  8
Make2D$可见线$普通线
100
AcDbLine
 10
112.6604268124205
 20
1115.754178356027
 30
0.0
 11
112.6604268124205
 21
1115.778107575909
 31
0.0
  0
LINE
  5
1D4
330
1F
100
AcDbEntity
  8
Make2D$可见线$普通线
100
AcDbLine
 10
112.6604268124205
 20
1115.904201283697
 30
0.0
 11
112.6604268124205
 21
1115.927558110101
 31
0.0
  0
LINE
  5
1D5
330
1F
100
AcDbEntity
  8
Make2D$可见线$普通线
100
AcDbLine
 10
112.6604268124205
 20
1116.042961643132
 30
0.0
 11
112.6604268124205
 21
1116.065540727932
 31
0.0
  0
LINE
  5
1D6
330
1F
100
AcDbEntity
  8
Make2D$可见线$普通线
100
AcDbLine
 10
112.6604268124204
 20
1116.170330791745
 30
0.0
 11
112.6604268124204
 21
1116.191923620325
 31
0.0
  0
LINE
  5
1D7
330
1F
100
AcDbEntity
  8
Make2D$可见线$普通线
100
AcDbLine
 10
112.6604268124204
 20
1116.286180086936
 30
0.0
 11
112.6604268124204
 21
1116.306574978203
 31
0.0
  0
LINE
  5
1D8
330
1F
100
AcDbEntity
  8
Make2D$可见线$普通线
100
AcDbLine
 10
112.6604268124205
 20
1116.39038088607
 30
0.0
 11
112.6604268124205
 21
1116.409362992488
 31
0.0
  0
LINE
  5
1D9
330
1F
100
AcDbEntity
  8
Make2D$可见线$普通线
100
AcDbLine
 10
112.6604268124205
 20
1116.482804546428
 30
0.0
 11
112.6604268124205
 21
1116.500155854101
 31
0.0
  0
LINE
  5
1DA
330
1F
100
AcDbEntity
  8
Make2D$可见线$普通线
100
AcDbLine
 10
112.6604268124205
 20
1116.563322425029
 30
0.0
 11
112.6604268124205
 21
1116.578821753964
 31
0.0
  0
LINE
  5
1DB
330
1F
100
AcDbEntity
  8
Make2D$可见线$普通线
100
AcDbLine
 10
112.6604268124205
 20
1116.631805878001
 30
0.0
 11
112.6604268124205
 21
1116.645228883001
 31
0.0
  0
LINE
  5
1DC
330
1F
100
AcDbEntity
  8
Make2D$可见线$普通线
100
AcDbLine
 10
112.6604268124209
 20
1076.932310376454
 30
0.0
 11
112.6604268124209
 21
1076.94573336504
 31
0.0
  0
LINE
  5
1DD
330
1F
100
AcDbEntity
  8
Make2D$可见线$普通线
100
AcDbLine
 10
112.6604268124209
 20
1076.998717485342
 30
0.0
 11
112.6604268124209
 21
1077.014216794955
 31
0.0
  0
LINE
  5
1DE
330
1F
100
AcDbEntity
  8
Make2D$可见线$普通线
100
AcDbLine
 10
112.6604268124209
 20
1077.077383360983
 30
0.0
 11
112.6604268124209
 21
1077.094734646583
 31
0.0
  0
LINE
  5
1DF
330
1F
100
AcDbEntity
  8
Make2D$可见线$普通线
100
AcDbLine
 10
112.6604268124209
 20
1077.168176194382
 30
0.0
 11
112.6604268124209
 21
1077.187158276133
 31
0.0
  0
LINE
  5
1E0
330
1F
100
AcDbEntity
  8
Make2D$可见线$普通线
100
AcDbLine
 10
112.660426812421
 20
1077.270964176548
 30
0.0
 11
112.660426812421
 21
1077.291359040708
 31
0.0
  0
LINE
  5
1E1
330
1F
100
AcDbEntity
  8
Make2D$可见线$普通线
100
AcDbLine
 10
112.660426812421
 20
1077.385615498489
 30
0.0
 11
112.660426812421
 21
1077.407208297675
 31
0.0
  0
LINE
  5
1E2
330
1F
100
AcDbEntity
  8
Make2D$可见线$普通线
100
AcDbLine
 10
112.660426812421
 20
1077.511998351216
 30
0.0
 11
112.660426812421
 21
1077.534577404482
 31
0.0
  0
LINE
  5
1E3
330
1F
100
AcDbEntity
  8
Make2D$可见线$普通线
100
AcDbLine
 10
112.660426812421
 20
1077.649980925737
 30
0.0
 11
112.660426812421
 21
1077.673337718614
 31
0.0
  0
LINE
  5
1E4
330
1F
100
AcDbEntity
  8
Make2D$可见线$普通线
100
AcDbLine
 10
112.6604268124211
 20
1077.799431413062
 30
0.0
 11
112.6604268124211
 21
1077.823360597569
 31
0.0
  0
LINE
  5
1E5
330
1F
100
AcDbEntity
  8
Make2D$可见线$普通线
100
AcDbLine
 10
112.6604268124211
 20
1077.960218004199
 30
0.0
 11
112.6604268124211
 21
1077.98451739885
 31
0.0
  0
LINE
  5
1E6
330
1F
100
AcDbEntity
  8
Make2D$可见线$普通线
100
AcDbLine
 10
112.6604268124211
 20
1078.13220884783
 30
0.0
 11
112.6604268124211
 21
1078.156679479965
 31
0.0
  0
LINE
  5
1E7
330
1F
100
AcDbEntity
  8
Make2D$可见线$普通线
100
AcDbLine
 10
112.6604268124211
 20
1078.315272216998
 30
0.0
 11
112.6604268124211
 21
1078.339718198421
 31
0.0
  0
LINE
  5
1E8
330
1F
100
AcDbEntity
  8
Make2D$可见线$普通线
100
AcDbLine
 10
112.6604268124211
 20
1078.50927626304
 30
0.0
 11
112.6604268124211
 21
1078.533504911728
 31
0.0
  0
LINE
  5
1E9
330
1F
100
AcDbEntity
  8
Make2D$可见线$普通线
100
AcDbLine
 10
112.660426812421
 20
1078.714089176965
 30
0.0
 11
112.6604268124211
 21
1078.737910977395
 31
0.0
  0
LINE
  5
1EA
330
1F
100
AcDbEntity
  8
Make2D$可见线$普通线
100
AcDbLine
 10
112.6604268124211
 20
1078.929579149783
 30
0.0
 11
112.6604268124211
 21
1078.952807752931
 31
0.0
  0
LINE
  5
1EB
330
1F
100
AcDbEntity
  8
Make2D$可见线$普通线
100
AcDbLine
 10
112.6604268124211
 20
1079.155614372503
 30
0.0
 11
112.6604268124211
 21
1079.178066595847
 31
0.0
  0
LINE
  5
1EC
330
1F
100
AcDbEntity
  8
Make2D$可见线$普通线
100
AcDbLine
 10
112.6604268124211
 20
1079.392063036134
 30
0.0
 11
112.6604268124211
 21
1079.413558863654
 31
0.0
  0
LINE
  5
1ED
330
1F
100
AcDbEntity
  8
Make2D$可见线$普通线
100
AcDbLine
 10
112.6604268124211
 20
1079.638793331686
 30
0.0
 11
112.6604268124211
 21
1079.65915591386
 31
0.0
  0
LINE
  5
1EE
330
1F
100
AcDbEntity
  8
Make2D$可见线$普通线
100
AcDbLine
 10
112.6604268124211
 20
1079.89567345017
 30
0.0
 11
112.6604268124211
 21
1079.914729103975
 31
0.0
  0
LINE
  5
1EF
330
1F
100
AcDbEntity
  8
Make2D$可见线$普通线
100
AcDbLine
 10
112.6604268124211
 20
1080.162571582594
 30
0.0
 11
112.6604268124211
 21
1080.18014979151
 31
0.0
  0
LINE
  5
1F0
330
1F
100
AcDbEntity
  8
Make2D$可见线$普通线
100
AcDbLine
 10
112.6604268124211
 20
1080.439355919969
 30
0.0
 11
112.6604268124211
 21
1080.455289333976
 31
0.0
  0
LINE
  5
1F1
330
1F
100
AcDbEntity
  8
Make2D$可见线$普通线
100
AcDbLine
 10
112.6604268124211
 20
1080.725894653302
 30
0.0
 11
112.6604268124211
 21
1080.74001908888
 31
0.0
  0
LINE
  5
1F2
330
1F
100
AcDbEntity
  8
Make2D$可见线$普通线
100
AcDbLine
 10
112.6604268124211
 20
1081.022055973604
 30
0.0
 11
112.6604268124211
 21
1081.034210413734
 31
0.0
  0
LINE
  5
1F3
330
1F
100
AcDbEntity
  8
Make2D$可见线$普通线
100
AcDbLine
 10
112.6604268124211
 20
1081.327708071887
 30
0.0
 11
112.6604268124211
 21
1081.337734674948
 31
0.0
  0
LINE
  5
1F4
330
1F
100
AcDbEntity
  8
Make2D$可见线$普通线
100
AcDbLine
 10
112.660426812421
 20
1082.642588100594
 30
0.0
 11
112.6604268124206
 21
1096.788769648049
 31
0.0
  0
LINE
  5
1F5
330
1F
100
AcDbEntity
  8
Make2D$可见线$普通线
100
AcDbLine
 10
117.6604268124206
 20
1071.79492865571
 30
0.0
 11
117.6604268124206
 21
1096.788769648049
 31
0.0
  0
LINE
  5
1F6
330
1F
100
AcDbEntity
  8
Make2D$可见线$普通线
100
AcDbLine
 10
117.6604268124206
 20
1096.788769648049
 30
0.0
 11
117.6604268124206
 21
1121.788769648049
 31
0.0
  0
LINE
  5
1F7
330
1F
100
AcDbEntity
  8
Make2D$可见线$普通线
100
AcDbLine
 10
202.6604268124206
 20
1096.788769648049
 30
0.0
 11
202.6604268124206
 21
1121.782610640389
 31
0.0
  0
LINE
  5
1F8
330
1F
100
AcDbEntity
  8
Make2D$可见线$普通线
100
AcDbLine
 10
202.6604268124206
 20
1071.79492865571
 30
0.0
 11
202.6604268124206
 21
1096.788769648049
 31
0.0
  0
POLYLINE
  5
1F9
330
1F
100
AcDbEntity
  8
Make2D$可见线$普通线
100
AcDb2dPolyline
 66
     1
 10
0.0
 20
0.0
 30
0.0
  0
VERTEX
  5
1FA
330
1F9
100
AcDbEntity
  8
Make2D$可见线$普通线
100
AcDbVertex
100
AcDb2dVertex
 10
147.655600681062
 20
1121.78581271066
 30
0.0
  0
VERTEX
  5
1FB
330
1F9
100
AcDbEntity
  8
Make2D$可见线$普通线
100
AcDbVertex
100
AcDb2dVertex
 10
147.6604268124206
 20
1121.788769648049
 30
0.0
  0
VERTEX
  5
1FC
330
1F9
100
AcDbEntity
  8
Make2D$可见线$普通线
100
AcDbVertex
100
AcDb2dVertex
 10
146.6104568637194
 20
1121.172604807549
 30
0.0
  0
VERTEX
  5
1FD
330
1F9
100
AcDbEntity
  8
Make2D$可见线$普通线
100
AcDbVertex
100
AcDb2dVertex
 10
145.5468312701399
 20
1120.580208650879
 30
0.0
  0
VERTEX
  5
1FE
330
1F9
100
AcDbEntity
  8
Make2D$可见线$普通线
100
AcDbVertex
100
AcDb2dVertex
 10
144.601547841869
 20
1120.081987765282
 30
0.0
  0
VERTEX
  5
1FF
330
1F9
100
AcDbEntity
  8
Make2D$可见线$普通线
100
AcDbVertex
100
AcDb2dVertex
 10
143.6446719600211
 20
1119.606394301895
 30
0.0
  0
VERTEX
  5
200
330
1F9
100
AcDbEntity
  8
Make2D$可见线$普通线
100
AcDbVertex
100
AcDb2dVertex
 10
142.7014962883722
 20
1119.167536048129
 30
0.0
  0
VERTEX
  5
201
330
1F9
100
AcDbEntity
  8
Make2D$可见线$普通线
100
AcDbVertex
100
AcDb2dVertex
 10
141.7463846739136
 20
1118.755465236213
 30
0.0
  0
VERTEX
  5
202
330
1F9
100
AcDbEntity
  8
Make2D$可见线$普通线
100
AcDbVertex
100
AcDb2dVertex
 10
140.7790818485455
 20
1118.373376448366
 30
0.0
  0
VERTEX
  5
203
330
1F9
100
AcDbEntity
  8
Make2D$可见线$普通线
100
AcDbVertex
100
AcDb2dVertex
 10
140.2907789604892
 20
1118.194573620412
 30
0.0
  0
VERTEX
  5
204
330
1F9
100
AcDbEntity
  8
Make2D$可见线$普通线
100
AcDbVertex
100
AcDb2dVertex
 10
139.7993325441681
 20
1118.024464266805
 30
0.0
  0
VERTEX
  5
205
330
1F9
100
AcDbEntity
  8
Make2D$可见线$普通线
100
AcDbVertex
100
AcDb2dVertex
 10
138.9236130463771
 20
1117.746490093799
 30
0.0
  0
VERTEX
  5
206
330
1F9
100
AcDbEntity
  8
Make2D$可见线$普通线
100
AcDbVertex
100
AcDb2dVertex
 10
138.4822652040728
 20
1117.618908061306
 30
0.0
  0
VERTEX
  5
207
330
1F9
100
AcDbEntity
  8
Make2D$可见线$普通线
100
AcDbVertex
100
AcDb2dVertex
 10
138.0387132327398
 20
1117.499337871766
 30
0.0
  0
VERTEX
  5
208
330
1F9
100
AcDbEntity
  8
Make2D$可见线$普通线
100
AcDbVertex
100
AcDb2dVertex
 10
137.5930480823108
 20
1117.38808588039
 30
0.0
  0
VERTEX
  5
209
330
1F9
100
AcDbEntity
  8
Make2D$可见线$普通线
100
AcDbVertex
100
AcDb2dVertex
 10
137.1453607027187
 20
1117.28545844239
 30
0.0
  0
VERTEX
  5
20A
330
1F9
100
AcDbEntity
  8
Make2D$可见线$普通线
100
AcDbVertex
100
AcDb2dVertex
 10
136.6957420438963
 20
1117.191761912976
 30
0.0
  0
VERTEX
  5
20B
330
1F9
100
AcDbEntity
  8
Make2D$可见线$普通线
100
AcDbVertex
100
AcDb2dVertex
 10
136.2442830557765
 20
1117.107302647358
 30
0.0
  0
VERTEX
  5
20C
330
1F9
100
AcDbEntity
  8
Make2D$可见线$普通线
100
AcDbVertex
100
AcDb2dVertex
 10
135.8000285507964
 20
1117.033745018854
 30
0.0
  0
VERTEX
  5
20D
330
1F9
100
AcDbEntity
  8
Make2D$可见线$普通线
100
AcDbVertex
100
AcDb2dVertex
 10
135.3542982348163
 20
1116.969515313499
 30
0.0
  0
VERTEX
  5
20E
330
1F9
100
AcDbEntity
  8
Make2D$可见线$普通线
100
AcDbVertex
100
AcDb2dVertex
 10
134.907297509702
 20
1116.914769713088
 30
0.0
  0
VERTEX
  5
20F
330
1F9
100
AcDbEntity
  8
Make2D$可见线$普通线
100
AcDbVertex
100
AcDb2dVertex
 10
134.4592317773193
 20
1116.869664399418
 30
0.0
  0
VERTEX
  5
210
330
1F9
100
AcDbEntity
  8
Make2D$可见线$普通线
100
AcDbVertex
100
AcDb2dVertex
 10
134.010306439534
 20
1116.834355554283
 30
0.0
  0
VERTEX
  5
211
330
1F9
100
AcDbEntity
  8
Make2D$可见线$普通线
100
AcDbVertex
100
AcDb2dVertex
 10
133.560726898212
 20
1116.80899935948
 30
0.0
  0
VERTEX
  5
212
330
1F9
100
AcDbEntity
  8
Make2D$可见线$普通线
100
AcDbVertex
100
AcDb2dVertex
 10
133.1106985552189
 20
1116.793751996803
 30
0.0
  0
VERTEX
  5
213
330
1F9
100
AcDbEntity
  8
Make2D$可见线$普通线
100
AcDbVertex
100
AcDb2dVertex
 10
132.6604268124206
 20
1116.788769648049
 30
0.0
  0
SEQEND
  5
214
330
1F9
100
AcDbEntity
  8
Make2D$可见线$普通线
  0
SPLINE
  5
215
330
1F
100
AcDbEntity
  8
Make2D$可见线$普通线
100
AcDbSpline
210
0.0
220
0.0
230
1.0
 70
     8
 71
     3
 72
    12
 73
     8
 74
     0
 42
0.000000001
 43
0.0000000001
 12
1.0
 22
0.0
 32
0.0
 13
1.0
 23
0.0
 33
0.0
 40
0.0
 40
0.0
 40
0.0
 40
0.0
 40
1.703830097943204
 40
3.516417266903427
 40
7.277210417346917
 40
11.43811952167689
 40
16.01021704053053
 40
16.01021704053053
 40
16.01021704053053
 40
16.01021704053053
 10
132.6604268124206
 20
1116.788769648049
 30
0.0
 10
132.0923874656981
 20
1116.788822632398
 30
0.0
 10
130.9205460652505
 20
1116.839106768581
 30
0.0
 10
128.5121214699182
 20
1117.151252950877
 30
0.0
 10
125.364431459665
 20
1117.978997474722
 30
0.0
 10
121.5186261255306
 20
1119.597070867369
 30
0.0
 10
118.9668102167829
 20
1121.004034948941
 30
0.0
 10
117.6604268124206
 20
1121.788769648049
 30
0.0
  0
LINE
  5
216
330
1F
100
AcDbEntity
  8
Make2D$可见线$普通线
100
AcDbLine
 10
117.6604268124206
 20
1696.788769648049
 30
0.0
 11
117.6604268123691
 21
1721.784849474634
 31
0.0
  0
LINE
  5
217
330
1F
100
AcDbEntity
  8
Make2D$可见线$普通线
100
AcDbLine
 10
117.6604268165894
 20
1671.792689821465
 30
0.0
 11
117.6604268124206
 21
1696.788769648049
 31
0.0
  0
LINE
  5
218
330
1F
100
AcDbEntity
  8
Make2D$可见线$普通线
100
AcDbLine
 10
112.6604268124206
 20
1696.788769648049
 30
0.0
 11
112.660426812421
 21
1710.934949391477
 31
0.0
  0
LINE
  5
219
330
1F
100
AcDbEntity
  8
Make2D$可见线$普通线
100
AcDbLine
 10
112.6604268124211
 20
1712.23980319629
 30
0.0
 11
112.660426812421
 21
1712.249829772813
 31
0.0
  0
LINE
  5
21A
330
1F
100
AcDbEntity
  8
Make2D$可见线$普通线
100
AcDbLine
 10
112.660426812421
 20
1712.543327546653
 30
0.0
 11
112.660426812421
 21
1712.555481963058
 31
0.0
  0
LINE
  5
21B
330
1F
100
AcDbEntity
  8
Make2D$可见线$普通线
100
AcDbLine
 10
112.660426812421
 20
1712.837518959157
 30
0.0
 11
112.660426812421
 21
1712.85164337311
 31
0.0
  0
LINE
  5
21C
330
1F
100
AcDbEntity
  8
Make2D$可见线$普通线
100
AcDbLine
 10
112.660426812421
 20
1713.122248799479
 30
0.0
 11
112.660426812421
 21
1713.138182193892
 31
0.0
  0
LINE
  5
21D
330
1F
100
AcDbEntity
  8
Make2D$可见线$普通线
100
AcDbLine
 10
112.660426812421
 20
1713.397388425045
 30
0.0
 11
112.660426812421
 21
1713.414966616327
 31
0.0
  0
LINE
  5
21E
330
1F
100
AcDbEntity
  8
Make2D$可见线$普通线
100
AcDbLine
 10
112.6604268124211
 20
1713.662809193279
 30
0.0
 11
112.6604268124211
 21
1713.681864831337
 31
0.0
  0
LINE
  5
21F
330
1F
100
AcDbEntity
  8
Make2D$可见线$普通线
100
AcDbLine
 10
112.660426812421
 20
1713.918382461606
 30
0.0
 11
112.6604268124211
 21
1713.938745029844
 31
0.0
  0
LINE
  5
220
330
1F
100
AcDbEntity
  8
Make2D$可见线$普通线
100
AcDbLine
 10
112.660426812421
 20
1714.163979587452
 30
0.0
 11
112.660426812421
 21
1714.185475402769
 31
0.0
  0
LINE
  5
221
330
1F
100
AcDbEntity
  8
Make2D$可见线$普通线
100
AcDbLine
 10
112.660426812421
 20
1714.399471928244
 30
0.0
 11
112.660426812421
 21
1714.421924141036
 31
0.0
  0
LINE
  5
222
330
1F
100
AcDbEntity
  8
Make2D$可见线$普通线
100
AcDbLine
 10
112.660426812421
 20
1714.624730841409
 30
0.0
 11
112.660426812421
 21
1714.647959435566
 31
0.0
  0
LINE
  5
223
330
1F
100
AcDbEntity
  8
Make2D$可见线$普通线
100
AcDbLine
 10
112.660426812421
 20
1714.839627684371
 30
0.0
 11
112.660426812421
 21
1714.863449477281
 31
0.0
  0
LINE
  5
224
330
1F
100
AcDbEntity
  8
Make2D$可见线$普通线
100
AcDbLine
 10
112.660426812421
 20
1715.044033814557
 30
0.0
 11
112.660426812421
 21
1715.068262457103
 31
0.0
  0
LINE
  5
225
330
1F
100
AcDbEntity
  8
Make2D$可见线$普通线
100
AcDbLine
 10
112.660426812421
 20
1715.237820589389
 30
0.0
 11
112.660426812421
 21
1715.262266565955
 31
0.0
  0
LINE
  5
226
330
1F
100
AcDbEntity
  8
Make2D$可见线$普通线
100
AcDbLine
 10
112.660426812421
 20
1715.420859366297
 30
0.0
 11
112.660426812421
 21
1715.445329994759
 31
0.0
  0
LINE
  5
227
330
1F
100
AcDbEntity
  8
Make2D$可见线$普通线
100
AcDbLine
 10
112.660426812421
 20
1715.5930215027
 30
0.0
 11
112.660426812421
 21
1715.617320934436
 31
0.0
  0
LINE
  5
228
330
1F
100
AcDbEntity
  8
Make2D$可见线$普通线
100
AcDbLine
 10
112.660426812421
 20
1715.754178356027
 30
0.0
 11
112.660426812421
 21
1715.778107575909
 31
0.0
  0
LINE
  5
229
330
1F
100
AcDbEntity
  8
Make2D$可见线$普通线
100
AcDbLine
 10
112.660426812421
 20
1715.904201283698
 30
0.0
 11
112.660426812421
 21
1715.9275581101
 31
0.0
  0
LINE
  5
22A
330
1F
100
AcDbEntity
  8
Make2D$可见线$普通线
100
AcDbLine
 10
112.660426812421
 20
1716.042961643132
 30
0.0
 11
112.660426812421
 21
1716.065540727931
 31
0.0
  0
LINE
  5
22B
330
1F
100
AcDbEntity
  8
Make2D$可见线$普通线
100
AcDbLine
 10
112.660426812421
 20
1716.170330791745
 30
0.0
 11
112.6604268124209
 21
1716.191923620325
 31
0.0
  0
LINE
  5
22C
330
1F
100
AcDbEntity
  8
Make2D$可见线$普通线
100
AcDbLine
 10
112.6604268124209
 20
1716.286180086935
 30
0.0
 11
112.6604268124209
 21
1716.306574978203
 31
0.0
  0
LINE
  5
22D
330
1F
100
AcDbEntity
  8
Make2D$可见线$普通线
100
AcDbLine
 10
112.6604268124209
 20
1716.390380886071
 30
0.0
 11
112.6604268124209
 21
1716.409362992487
 31
0.0
  0
LINE
  5
22E
330
1F
100
AcDbEntity
  8
Make2D$可见线$普通线
100
AcDbLine
 10
112.6604268124209
 20
1716.482804546428
 30
0.0
 11
112.6604268124209
 21
1716.5001558541
 31
0.0
  0
LINE
  5
22F
330
1F
100
AcDbEntity
  8
Make2D$可见线$普通线
100
AcDbLine
 10
112.6604268124209
 20
1716.56332242503
 30
0.0
 11
112.6604268124209
 21
1716.578821753964
 31
0.0
  0
LINE
  5
230
330
1F
100
AcDbEntity
  8
Make2D$可见线$普通线
100
AcDbLine
 10
112.6604268124209
 20
1716.631805878001
 30
0.0
 11
112.6604268124208
 21
1716.645228883
 31
0.0
  0
LINE
  5
231
330
1F
100
AcDbEntity
  8
Make2D$可见线$普通线
100
AcDbLine
 10
112.6604268124208
 20
1676.932310413099
 30
0.0
 11
112.6604268124208
 21
1676.945733418098
 31
0.0
  0
LINE
  5
232
330
1F
100
AcDbEntity
  8
Make2D$可见线$普通线
100
AcDbLine
 10
112.6604268124208
 20
1676.998717542135
 30
0.0
 11
112.6604268124208
 21
1677.014216871069
 31
0.0
  0
LINE
  5
233
330
1F
100
AcDbEntity
  8
Make2D$可见线$普通线
100
AcDbLine
 10
112.6604268124209
 20
1677.077383441999
 30
0.0
 11
112.6604268124209
 21
1677.094734749671
 31
0.0
  0
LINE
  5
234
330
1F
100
AcDbEntity
  8
Make2D$可见线$普通线
100
AcDbLine
 10
112.6604268124209
 20
1677.168176303612
 30
0.0
 11
112.6604268124209
 21
1677.187158410028
 31
0.0
  0
LINE
  5
235
330
1F
100
AcDbEntity
  8
Make2D$可见线$普通线
100
AcDbLine
 10
112.6604268124209
 20
1677.270964317896
 30
0.0
 11
112.6604268124209
 21
1677.291359209163
 31
0.0
  0
LINE
  5
236
330
1F
100
AcDbEntity
  8
Make2D$可见线$普通线
100
AcDbLine
 10
112.6604268124209
 20
1677.385615675774
 30
0.0
 11
112.6604268124209
 21
1677.407208504355
 31
0.0
  0
LINE
  5
237
330
1F
100
AcDbEntity
  8
Make2D$可见线$普通线
100
AcDbLine
 10
112.6604268124209
 20
1677.511998568167
 30
0.0
 11
112.6604268124209
 21
1677.534577652968
 31
0.0
  0
LINE
  5
238
330
1F
100
AcDbEntity
  8
Make2D$可见线$普通线
100
AcDbLine
 10
112.6604268124209
 20
1677.649981185999
 30
0.0
 11
112.6604268124209
 21
1677.673338012402
 31
0.0
  0
LINE
  5
239
330
1F
100
AcDbEntity
  8
Make2D$可见线$普通线
100
AcDbLine
 10
112.660426812421
 20
1677.799431720189
 30
0.0
 11
112.660426812421
 21
1677.823360940072
 31
0.0
  0
LINE
  5
23A
330
1F
100
AcDbEntity
  8
Make2D$可见线$普通线
100
AcDbLine
 10
112.660426812421
 20
1677.960218361663
 30
0.0
 11
112.660426812421
 21
1677.984517793398
 31
0.0
  0
LINE
  5
23B
330
1F
100
AcDbEntity
  8
Make2D$可见线$普通线
100
AcDbLine
 10
112.6604268124209
 20
1678.13220930134
 30
0.0
 11
112.6604268124209
 21
1678.156679929803
 31
0.0
  0
LINE
  5
23C
330
1F
100
AcDbEntity
  8
Make2D$可见线$普通线
100
AcDbLine
 10
112.660426812421
 20
1678.315272730144
 30
0.0
 11
112.660426812421
 21
1678.339718706708
 31
0.0
  0
LINE
  5
23D
330
1F
100
AcDbEntity
  8
Make2D$可见线$普通线
100
AcDbLine
 10
112.660426812421
 20
1678.509276838996
 30
0.0
 11
112.660426812421
 21
1678.533505481541
 31
0.0
  0
LINE
  5
23E
330
1F
100
AcDbEntity
  8
Make2D$可见线$普通线
100
AcDbLine
 10
112.660426812421
 20
1678.714089818818
 30
0.0
 11
112.660426812421
 21
1678.737911611727
 31
0.0
  0
LINE
  5
23F
330
1F
100
AcDbEntity
  8
Make2D$可见线$普通线
100
AcDbLine
 10
112.660426812421
 20
1678.929579860534
 30
0.0
 11
112.660426812421
 21
1678.952808454688
 31
0.0
  0
LINE
  5
240
330
1F
100
AcDbEntity
  8
Make2D$可见线$普通线
100
AcDbLine
 10
112.660426812421
 20
1679.155615155063
 30
0.0
 11
112.660426812421
 21
1679.178067367853
 31
0.0
  0
LINE
  5
241
330
1F
100
AcDbEntity
  8
Make2D$可见线$普通线
100
AcDbLine
 10
112.660426812421
 20
1679.39206389333
 30
0.0
 11
112.660426812421
 21
1679.413559708645
 31
0.0
  0
LINE
  5
242
330
1F
100
AcDbEntity
  8
Make2D$可见线$普通线
100
AcDbLine
 10
112.660426812421
 20
1679.638794266255
 30
0.0
 11
112.660426812421
 21
1679.659156834494
 31
0.0
  0
LINE
  5
243
330
1F
100
AcDbEntity
  8
Make2D$可见线$普通线
100
AcDbLine
 10
112.6604268124211
 20
1679.895674464762
 30
0.0
 11
112.6604268124211
 21
1679.914730102822
 31
0.0
  0
LINE
  5
244
330
1F
100
AcDbEntity
  8
Make2D$可见线$普通线
100
AcDbLine
 10
112.660426812421
 20
1680.162572679772
 30
0.0
 11
112.660426812421
 21
1680.180150871055
 31
0.0
  0
LINE
  5
245
330
1F
100
AcDbEntity
  8
Make2D$可见线$普通线
100
AcDbLine
 10
112.660426812421
 20
1680.439357102206
 30
0.0
 11
112.660426812421
 21
1680.455290496619
 31
0.0
  0
LINE
  5
246
330
1F
100
AcDbEntity
  8
Make2D$可见线$普通线
100
AcDbLine
 10
112.660426812421
 20
1680.72589592299
 30
0.0
 11
112.660426812421
 21
1680.740020336942
 31
0.0
  0
LINE
  5
247
330
1F
100
AcDbEntity
  8
Make2D$可见线$普通线
100
AcDbLine
 10
112.660426812421
 20
1681.022057333042
 30
0.0
 11
112.660426812421
 21
1681.034211749445
 31
0.0
  0
LINE
  5
248
330
1F
100
AcDbEntity
  8
Make2D$可见线$普通线
100
AcDbLine
 10
112.660426812421
 20
1681.327709523285
 30
0.0
 11
112.660426812421
 21
1681.337736099809
 31
0.0
  0
LINE
  5
249
330
1F
100
AcDbEntity
  8
Make2D$可见线$普通线
100
AcDbLine
 10
112.660426812421
 20
1682.642589904622
 30
0.0
 11
112.6604268124206
 21
1696.788769648049
 31
0.0
  0
ARC
  5
24A
330
1F
100
AcDbEntity
  8
Make2D$可见线$普通线
100
AcDbCircle
 10
132.7043950867966
 20
1655.898064374394
 30
0.0
 40
20.89075154319476
100
AcDbArc
 50
90.1205891596114
 51
102.5015778417478
  0
SPLINE
  5
24B
330
1F
100
AcDbEntity
  8
Make2D$可见线$普通线
100
AcDbSpline
210
0.0
220
0.0
230
1.0
 70
     8
 71
     3
 72
    11
 73
     7
 74
     0
 42
0.000000001
 43
0.0000000001
 12
1.0
 22
0.0
 32
0.0
 13
1.0
 23
0.0
 33
0.0
 40
0.0
 40
0.0
 40
0.0
 40
0.0
 40
1.263078340246369
 40
2.346898615604028
 40
4.875161644681842
 40
10.81033186875669
 40
10.81033186875669
 40
10.81033186875669
 40
10.81033186875669
 10
127.5166263944734
 20
1676.13786580437
 30
0.0
 10
127.1080486000212
 20
1676.03627958372
 30
0.0
 10
126.3540307211654
 20
1675.826700019245
 30
0.0
 10
124.8081910581659
 20
1675.324960268988
 30
0.0
 10
121.8480550510889
 20
1674.147692695495
 30
0.0
 10
119.3579121025407
 20
1672.807703848443
 30
0.0
 10
117.6621729339019
 20
1671.789840743885
 30
0.0
  0
POLYLINE
  5
24C
330
1F
100
AcDbEntity
  8
Make2D$可见线$普通线
100
AcDb2dPolyline
 66
     1
 10
0.0
 20
0.0
 30
0.0
  0
VERTEX
  5
24D
330
24C
100
AcDbEntity
  8
Make2D$可见线$普通线
100
AcDbVertex
100
AcDb2dVertex
 10
147.655600685283
 20
1671.791726585439
 30
0.0
  0
VERTEX
  5
24E
330
24C
100
AcDbEntity
  8
Make2D$可见线$普通线
100
AcDbVertex
100
AcDb2dVertex
 10
147.6604268166416
 20
1671.788769648049
 30
0.0
  0
VERTEX
  5
24F
330
24C
100
AcDbEntity
  8
Make2D$可见线$普通线
100
AcDbVertex
100
AcDb2dVertex
 10
146.6104568679399
 20
1672.40493448855
 30
0.0
  0
VERTEX
  5
250
330
24C
100
AcDbEntity
  8
Make2D$可见线$普通线
100
AcDbVertex
100
AcDb2dVertex
 10
145.5468312743604
 20
1672.99733064522
 30
0.0
  0
VERTEX
  5
251
330
24C
100
AcDbEntity
  8
Make2D$可见线$普通线
100
AcDbVertex
100
AcDb2dVertex
 10
144.6015478460896
 20
1673.495551530817
 30
0.0
  0
VERTEX
  5
252
330
24C
100
AcDbEntity
  8
Make2D$可见线$普通线
100
AcDbVertex
100
AcDb2dVertex
 10
143.6446719642419
 20
1673.971144994203
 30
0.0
  0
VERTEX
  5
253
330
24C
100
AcDbEntity
  8
Make2D$可见线$普通线
100
AcDbVertex
100
AcDb2dVertex
 10
142.701496292593
 20
1674.41000324797
 30
0.0
  0
VERTEX
  5
254
330
24C
100
AcDbEntity
  8
Make2D$可见线$普通线
100
AcDbVertex
100
AcDb2dVertex
 10
141.7463846781345
 20
1674.822074059885
 30
0.0
  0
VERTEX
  5
255
330
24C
100
AcDbEntity
  8
Make2D$可见线$普通线
100
AcDbVertex
100
AcDb2dVertex
 10
140.7790818527664
 20
1675.204162847733
 30
0.0
  0
VERTEX
  5
256
330
24C
100
AcDbEntity
  8
Make2D$可见线$普通线
100
AcDbVertex
100
AcDb2dVertex
 10
140.2907789647101
 20
1675.382965675688
 30
0.0
  0
VERTEX
  5
257
330
24C
100
AcDbEntity
  8
Make2D$可见线$普通线
100
AcDbVertex
100
AcDb2dVertex
 10
139.799332548389
 20
1675.553075029294
 30
0.0
  0
VERTEX
  5
258
330
24C
100
AcDbEntity
  8
Make2D$可见线$普通线
100
AcDbVertex
100
AcDb2dVertex
 10
138.9236130505981
 20
1675.8310492023
 30
0.0
  0
VERTEX
  5
259
330
24C
100
AcDbEntity
  8
Make2D$可见线$普通线
100
AcDbVertex
100
AcDb2dVertex
 10
138.4822652082938
 20
1675.958631234793
 30
0.0
  0
VERTEX
  5
25A
330
24C
100
AcDbEntity
  8
Make2D$可见线$普通线
100
AcDbVertex
100
AcDb2dVertex
 10
138.0387132369608
 20
1676.078201424333
 30
0.0
  0
VERTEX
  5
25B
330
24C
100
AcDbEntity
  8
Make2D$可见线$普通线
100
AcDbVertex
100
AcDb2dVertex
 10
137.5930480865318
 20
1676.189453415708
 30
0.0
  0
VERTEX
  5
25C
330
24C
100
AcDbEntity
  8
Make2D$可见线$普通线
100
AcDbVertex
100
AcDb2dVertex
 10
137.1453607069398
 20
1676.292080853708
 30
0.0
  0
VERTEX
  5
25D
330
24C
100
AcDbEntity
  8
Make2D$可见线$普通线
100
AcDbVertex
100
AcDb2dVertex
 10
136.6957420481174
 20
1676.385777383123
 30
0.0
  0
VERTEX
  5
25E
330
24C
100
AcDbEntity
  8
Make2D$可见线$普通线
100
AcDbVertex
100
AcDb2dVertex
 10
136.2442830599975
 20
1676.47023664874
 30
0.0
  0
VERTEX
  5
25F
330
24C
100
AcDbEntity
  8
Make2D$可见线$普通线
100
AcDbVertex
100
AcDb2dVertex
 10
135.8000285550174
 20
1676.543794277244
 30
0.0
  0
VERTEX
  5
260
330
24C
100
AcDbEntity
  8
Make2D$可见线$普通线
100
AcDbVertex
100
AcDb2dVertex
 10
135.3542982390373
 20
1676.608023982599
 30
0.0
  0
VERTEX
  5
261
330
24C
100
AcDbEntity
  8
Make2D$可见线$普通线
100
AcDbVertex
100
AcDb2dVertex
 10
134.907297513923
 20
1676.66276958301
 30
0.0
  0
VERTEX
  5
262
330
24C
100
AcDbEntity
  8
Make2D$可见线$普通线
100
AcDbVertex
100
AcDb2dVertex
 10
134.4592317815403
 20
1676.70787489668
 30
0.0
  0
VERTEX
  5
263
330
24C
100
AcDbEntity
  8
Make2D$可见线$普通线
100
AcDbVertex
100
AcDb2dVertex
 10
134.010306443755
 20
1676.743183741815
 30
0.0
  0
VERTEX
  5
264
330
24C
100
AcDbEntity
  8
Make2D$可见线$普通线
100
AcDbVertex
100
AcDb2dVertex
 10
133.5607269024329
 20
1676.768539936619
 30
0.0
  0
VERTEX
  5
265
330
24C
100
AcDbEntity
  8
Make2D$可见线$普通线
100
AcDbVertex
100
AcDb2dVertex
 10
133.1106985594399
 20
1676.783787299295
 30
0.0
  0
VERTEX
  5
266
330
24C
100
AcDbEntity
  8
Make2D$可见线$普通线
100
AcDbVertex
100
AcDb2dVertex
 10
132.6604268166416
 20
1676.788769648049
 30
0.0
  0
SEQEND
  5
267
330
24C
100
AcDbEntity
  8
Make2D$可见线$普通线
  0
LINE
  5
268
330
1F
100
AcDbEntity
  8
Make2D$可见线$普通线
100
AcDbLine
 10
128.1822472258854
 20
1676.293497166163
 30
0.0
 11
127.5166263944734
 21
1676.13786580437
 31
0.0
  0
LINE
  5
269
330
1F
100
AcDbEntity
  8
Make2D$可见线$普通线
100
AcDbLine
 10
202.6604268166416
 20
1696.788769648049
 30
0.0
 11
202.6604268166416
 21
1671.79492865571
 31
0.0
  0
LINE
  5
26A
330
1F
100
AcDbEntity
  8
Make2D$可见线$普通线
100
AcDbLine
 10
202.6604268166416
 20
1721.782610640389
 30
0.0
 11
202.6604268166416
 21
1696.788769648049
 31
0.0
  0
ARC
  5
26B
330
1F
100
AcDbEntity
  8
Make2D$可见线$普通线
100
AcDbCircle
 10
115.660482949466
 20
1442.037121791546
 30
0.0
 40
1.999943861985519
100
AcDbArc
 50
0.1541515099221507
 51
6.643115193925372
  0
ARC
  5
26C
330
1F
100
AcDbEntity
  8
Make2D$可见线$普通线
100
AcDbCircle
 10
115.6606518454275
 20
1442.036894226546
 30
0.0
 40
2.000034735972799
100
AcDbArc
 50
88.54003868760753
 51
127.1150667346993
  0
LINE
  5
26D
330
1F
100
AcDbEntity
  8
Make2D$可见线$普通线
100
AcDbLine
 10
115.6607057269892
 20
1442.035511360209
 30
0.0
 11
117.6523429608675
 21
1442.037011651066
 31
0.0
  0
LINE
  5
26E
330
1F
100
AcDbEntity
  8
Make2D$可见线$普通线
100
AcDbLine
 10
114.4462855813181
 20
1443.626061852798
 30
0.0
 11
115.6605616633879
 21
1442.035511303507
 31
0.0
  0
LINE
  5
26F
330
1F
100
AcDbEntity
  8
Make2D$可见线$普通线
100
AcDbLine
 10
114.4462855813181
 20
1395.951477443301
 30
0.0
 11
115.6605430840407
 21
1397.542003667112
 31
0.0
  0
LINE
  5
270
330
1F
100
AcDbEntity
  8
Make2D$可见线$普通线
100
AcDbLine
 10
115.6605616633879
 20
1397.542027992592
 30
0.0
 11
117.6523429608675
 21
1397.540527645033
 31
0.0
  0
ARC
  5
271
330
1F
100
AcDbEntity
  8
Make2D$可见线$普通线
100
AcDbCircle
 10
115.6606518454855
 20
1397.540645069823
 30
0.0
 40
2.000034736240814
100
AcDbArc
 50
232.8848453741628
 51
271.4599622983463
  0
ARC
  5
272
330
1F
100
AcDbEntity
  8
Make2D$可见线$普通线
100
AcDbCircle
 10
115.6604823693549
 20
1397.540417549427
 30
0.0
 40
1.999944443393003
100
AcDbArc
 50
353.356885451723
 51
0.0010366393271963
  0
ARC
  5
273
330
1F
100
AcDbEntity
  8
Make2D$可见线$普通线
100
AcDbCircle
 10
110.6604268124054
 20
1437.109277723754
 30
0.0
 40
1.999999999978225
100
AcDbArc
 50
134.7312873989364
 51
138.5395189335205
  0
ARC
  5
274
330
1F
100
AcDbEntity
  8
Make2D$可见线$普通线
100
AcDbCircle
 10
154.6604268135421
 20
1437.109277718583
 30
0.0
 40
2.000000002308916
100
AcDbArc
 50
42.65770600715427
 51
45.26871259716611
  0
ARC
  5
275
330
1F
100
AcDbEntity
  8
Make2D$可见线$普通线
100
AcDbCircle
 10
154.6604268125439
 20
1402.468261572245
 30
0.0
 40
1.999999999830967
100
AcDbArc
 50
314.7312873987598
 51
318.5395189579114
  0
LINE
  5
276
330
1F
100
AcDbEntity
  8
Make2D$可见线$普通线
100
AcDbLine
 10
150.8745680435236
 20
1443.626061852798
 30
0.0
 11
149.6603103939452
 21
1442.035535740405
 31
0.0
  0
LINE
  5
277
330
1F
100
AcDbEntity
  8
Make2D$可见线$普通线
100
AcDbLine
 10
149.6602918149733
 20
1442.035511415418
 30
0.0
 11
147.6685106570965
 21
1442.037011656321
 31
0.0
  0
ARC
  5
278
330
1F
100
AcDbEntity
  8
Make2D$可见线$普通线
100
AcDbCircle
 10
149.6602017793536
 20
1442.036894226271
 30
0.0
 40
2.000034736246369
100
AcDbArc
 50
52.88484529142789
 51
91.45996229832997
  0
ARC
  5
279
330
1F
100
AcDbEntity
  8
Make2D$可见线$普通线
100
AcDbCircle
 10
149.6603712554516
 20
1442.037121746673
 30
0.0
 40
1.999944443358293
100
AcDbArc
 50
173.3568854516531
 51
180.0010366393598
  0
ARC
  5
27A
330
1F
100
AcDbEntity
  8
Make2D$可见线$普通线
100
AcDbCircle
 10
149.6603711276397
 20
1397.540417564937
 30
0.0
 40
1.999944315482019
100
AcDbArc
 50
180.0069079927644
 51
186.6512012386219
  0
ARC
  5
27B
330
1F
100
AcDbEntity
  8
Make2D$可见线$普通线
100
AcDbCircle
 10
149.6602016243683
 20
1397.540646031739
 30
0.0
 40
2.000035649443853
100
AcDbArc
 50
268.5399640442944
 51
307.3811305495587
  0
LINE
  5
27C
330
1F
100
AcDbEntity
  8
Make2D$可见线$普通线
100
AcDbLine
 10
149.6598146018873
 20
1397.542027581011
 30
0.0
 11
147.6685152719479
 21
1397.540527656506
 31
0.0
  0
LINE
  5
27D
330
1F
100
AcDbEntity
  8
Make2D$可见线$普通线
100
AcDbLine
 10
150.8723005084177
 20
1395.954490920171
 30
0.0
 11
149.6606132396226
 21
1397.541606743707
 31
0.0
  0
ARC
  5
27E
330
1F
100
AcDbEntity
  8
Make2D$可见线$普通线
100
AcDbCircle
 10
132.6595829679824
 20
1419.788769648038
 30
0.0
 40
29.99901167237782
100
AcDbArc
 50
127.3824125336368
 51
232.6175873901481
  0
ARC
  5
27F
330
1F
100
AcDbEntity
  8
Make2D$可见线$普通线
100
AcDbCircle
 10
132.6568123075785
 20
1419.788769648037
 30
0.0
 40
27.9962506461898
100
AcDbArc
 50
127.379406749667
 51
232.6205952462271
  0
ARC
  5
280
330
1F
100
AcDbEntity
  8
Make2D$可见线$普通线
100
AcDbCircle
 10
132.661220029259
 20
1419.788562771547
 30
0.0
 40
29.99920679488027
100
AcDbArc
 50
0.0003951154622569
 51
52.61775056994045
  0
LINE
  5
281
330
1F
100
AcDbEntity
  8
Make2D$可见线$普通线
100
AcDbLine
 10
162.660426823426
 20
1419.788769648049
 30
0.0
 11
160.6604268303959
 21
1419.788769648049
 31
0.0
  0
ARC
  5
282
330
1F
100
AcDbEntity
  8
Make2D$可见线$普通线
100
AcDbCircle
 10
132.6424502440389
 20
1419.777923992508
 30
0.0
 40
28.01797868551349
100
AcDbArc
 50
0.0221789841100423
 51
52.59897485363314
  0
LINE
  5
283
330
1F
100
AcDbEntity
  8
Make2D$可见线$普通线
100
AcDbLine
 10
115.6605616633879
 20
1442.035321037691
 30
0.0
 11
115.6605616633879
 21
1397.542027992592
 31
0.0
  0
LINE
  5
284
330
1F
100
AcDbEntity
  8
Make2D$可见线$普通线
100
AcDbLine
 10
117.6604268124206
 20
1442.037011651068
 30
0.0
 11
117.6604268124206
 21
1397.540527645033
 31
0.0
  0
LINE
  5
285
330
1F
100
AcDbEntity
  8
Make2D$可见线$普通线
100
AcDbLine
 10
149.6602916684933
 20
1397.542027768769
 30
0.0
 11
149.6602918149733
 21
1442.035511415418
 31
0.0
  0
LINE
  5
286
330
1F
100
AcDbEntity
  8
Make2D$可见线$普通线
100
AcDbLine
 10
147.6604268124197
 20
1397.540453733959
 30
0.0
 11
147.6604268124206
 21
1442.037011656319
 31
0.0
  0
ARC
  5
287
330
1F
100
AcDbEntity
  8
Make2D$可见线$普通线
100
AcDbCircle
 10
115.6604823693546
 20
1442.037121746672
 30
0.0
 40
1.999944443393353
100
AcDbArc
 50
359.9989633606859
 51
6.643114548282371
  0
SPLINE
  5
288
330
1F
100
AcDbEntity
  8
Make2D$可见线$普通线
100
AcDbSpline
210
0.0
220
0.0
230
1.0
 70
     8
 71
     3
 72
    15
 73
    11
 74
     0
 42
0.000000001
 43
0.0000000001
 12
1.0
 22
0.0
 32
0.0
 13
1.0
 23
0.0
 33
0.0
 40
16.85832819093265
 40
16.85832819093265
 40
16.85832819093265
 40
16.85832819093265
 40
19.49085008802768
 40
28.07032934676288
 40
36.5111415339479
 40
36.5111415339479
 40
36.5111415339479
 40
44.95195372102986
 40
53.53143297976499
 40
56.16138068903279
 40
56.16138068903279
 40
56.16138068903279
 40
56.16138068903279
 10
117.6297901200316
 20
1397.191450565876
 30
0.0
 10
118.1032810909094
 20
1396.810209547873
 30
0.0
 10
120.2482597611478
 20
1395.200949886986
 30
0.0
 10
124.9723032459936
 20
1392.691791983393
 30
0.0
 10
130.0986567269502
 20
1391.780908172144
 30
0.0
 10
132.6604268125166
 20
1391.788769641786
 30
0.0
 10
135.2206576487745
 20
1391.778804459436
 30
0.0
 10
140.3517978665774
 20
1392.696227270151
 30
0.0
 10
145.0689519948656
 20
1395.196500415676
 30
0.0
 10
147.2173099775302
 20
1396.810434426266
 30
0.0
 10
147.6909554969486
 20
1397.192061074257
 30
0.0
  0
LINE
  5
289
330
1F
100
AcDbEntity
  8
Make2D$可见线$普通线
100
AcDbLine
 10
114.5605246258581
 20
1395.864090845172
 30
0.0
 11
115.0113945363603
 21
1395.529441185877
 31
0.0
  0
LINE
  5
28A
330
1F
100
AcDbEntity
  8
Make2D$可见线$普通线
100
AcDbLine
 10
115.2775914768674
 20
1395.337916380893
 30
0.0
 11
115.4531782675181
 21
1395.213983359091
 31
0.0
  0
LINE
  5
28B
330
1F
100
AcDbEntity
  8
Make2D$可见线$普通线
100
AcDbLine
 10
115.9509436024934
 20
1394.872757701954
 30
0.0
 11
116.7266643532934
 21
1394.369712258411
 31
0.0
  0
LINE
  5
28C
330
1F
100
AcDbEntity
  8
Make2D$可见线$普通线
100
AcDbLine
 10
117.1156418526978
 20
1394.130112677752
 30
0.0
 11
117.2861166867328
 21
1394.027672326239
 31
0.0
  0
LINE
  5
28D
330
1F
100
AcDbEntity
  8
Make2D$可见线$普通线
100
AcDbLine
 10
117.6104933506217
 20
1393.836966316716
 30
0.0
 11
117.8737083878147
 21
1393.686200125597
 31
0.0
  0
ARC
  5
28E
330
1F
100
AcDbEntity
  8
Make2D$可见线$普通线
100
AcDbCircle
 10
132.7425030625935
 20
1419.952295018946
 30
0.0
 40
30.18259427556132
100
AcDbArc
 50
241.4230274224851
 51
241.4877695173686
  0
ARC
  5
28F
330
1F
100
AcDbEntity
  8
Make2D$可见线$普通线
100
AcDbCircle
 10
132.7525047680792
 20
1419.970823051892
 30
0.0
 40
30.2036495298827
100
AcDbArc
 50
241.8176621264331
 51
241.8616896780654
  0
LINE
  5
290
330
1F
100
AcDbEntity
  8
Make2D$可见线$普通线
100
AcDbLine
 10
118.5188328238584
 20
1393.331321781827
 30
0.0
 11
118.6745869780322
 21
1393.248684609818
 31
0.0
  0
ARC
  5
291
330
1F
100
AcDbEntity
  8
Make2D$可见线$普通线
100
AcDbCircle
 10
132.7622896772901
 20
1419.989300154296
 30
0.0
 40
30.22455769052703
100
AcDbArc
 50
242.3848352405477
 51
242.4211692829783
  0
ARC
  5
292
330
1F
100
AcDbEntity
  8
Make2D$可见线$普通线
100
AcDbCircle
 10
132.76529812888
 20
1419.995089110243
 30
0.0
 40
30.23108171397627
100
AcDbArc
 50
242.6614453372492
 51
242.7386650702423
  0
LINE
  5
293
330
1F
100
AcDbEntity
  8
Make2D$可见线$普通线
100
AcDbLine
 10
119.0587276155502
 20
1393.049806999552
 30
0.0
 11
119.4618178270452
 21
1392.848528518877
 31
0.0
  0
LINE
  5
294
330
1F
100
AcDbEntity
  8
Make2D$可见线$普通线
100
AcDbLine
 10
119.5583196234987
 20
1392.801448878017
 30
0.0
 11
119.6569173864647
 21
1392.753783894314
 31
0.0
  0
LINE
  5
295
330
1F
100
AcDbEntity
  8
Make2D$可见线$普通线
100
AcDbLine
 10
119.8580059834594
 20
1392.657932349105
 30
0.0
 11
120.0790716779707
 21
1392.554647149619
 31
0.0
  0
ARC
  5
296
330
1F
100
AcDbEntity
  8
Make2D$可见线$普通线
100
AcDbCircle
 10
132.6822537173965
 20
1419.810986193155
 30
0.0
 40
30.02911167566482
100
AcDbArc
 50
245.5228029813366
 51
249.0647933309372
  0
ARC
  5
297
330
1F
100
AcDbEntity
  8
Make2D$可见线$普通线
100
AcDbCircle
 10
132.7536154074679
 20
1420.258297635896
 30
0.0
 40
30.47741397220288
100
AcDbArc
 50
254.5560680213691
 51
262.903357370379
  0
ARC
  5
298
330
1F
100
AcDbEntity
  8
Make2D$可见线$普通线
100
AcDbCircle
 10
132.6675124149609
 20
1419.5522275495
 30
0.0
 40
29.76608216143701
100
AcDbArc
 50
263.4667673536769
 51
265.6400647558499
  0
LINE
  5
299
330
1F
100
AcDbEntity
  8
Make2D$可见线$普通线
100
AcDbLine
 10
130.5172125433757
 20
1389.863925762722
 30
0.0
 11
130.7789005961785
 21
1389.846177525206
 31
0.0
  0
LINE
  5
29A
330
1F
100
AcDbEntity
  8
Make2D$可见线$普通线
100
AcDbLine
 10
130.9663576469063
 20
1389.834913188863
 30
0.0
 11
131.3717780431195
 21
1389.814709492036
 31
0.0
  0
LINE
  5
29B
330
1F
100
AcDbEntity
  8
Make2D$可见线$普通线
100
AcDbLine
 10
131.5298311800674
 20
1389.808381156876
 30
0.0
 11
131.982709038491
 21
1389.795093017379
 31
0.0
  0
ARC
  5
29C
330
1F
100
AcDbEntity
  8
Make2D$可见线$普通线
100
AcDbCircle
 10
132.66430256002
 20
1419.642507176208
 30
0.0
 40
29.85502031499464
100
AcDbArc
 50
268.9067064623397
 51
282.9010809268941
  0
LINE
  5
29D
330
1F
100
AcDbEntity
  8
Make2D$可见线$普通线
100
AcDbLine
 10
143.6123976770572
 20
1391.85893038086
 30
0.0
 11
143.7073977206801
 21
1391.896372314119
 31
0.0
  0
ARC
  5
29E
330
1F
100
AcDbEntity
  8
Make2D$可见线$普通线
100
AcDbCircle
 10
132.6995698379047
 20
1419.713359221072
 30
0.0
 40
29.91563069361747
100
AcDbArc
 50
292.8587076062452
 51
304.6656549375242
  0
ARC
  5
29F
330
1F
100
AcDbEntity
  8
Make2D$可见线$普通线
100
AcDbCircle
 10
132.537557936054
 20
1419.92975476888
 30
0.0
 40
30.18577427315244
100
AcDbArc
 50
305.6964738198861
 51
305.7700507000018
  0
LINE
  5
2A0
330
1F
100
AcDbEntity
  8
Make2D$可见线$普通线
100
AcDbLine
 10
150.6190956487999
 20
1395.758707988298
 30
0.0
 11
150.7598951586949
 21
1395.86466398865
 31
0.0
  0
ARC
  5
2A1
330
1F
100
AcDbEntity
  8
Make2D$可见线$普通线
100
AcDbCircle
 10
154.6604268132474
 20
1437.109277718298
 30
0.0
 40
2.000000002719346
100
AcDbArc
 50
42.82893706119551
 51
45.26871259693134
  0
ARC
  5
2A2
330
1F
100
AcDbEntity
  8
Make2D$可见线$普通线
100
AcDbCircle
 10
132.660426923675
 20
1419.788769499909
 30
0.0
 40
29.99999981473534
100
AcDbArc
 50
306.7722973812277
 51
306.9568305749961
  0
ARC
  5
2A3
330
1F
100
AcDbEntity
  8
Make2D$可见线$普通线
100
AcDbCircle
 10
132.6604263345989
 20
1419.788769376601
 30
0.0
 40
30.0000005495434
100
AcDbArc
 50
29.55018378280074
 51
29.65440574478701
  0
ARC
  5
2A4
330
1F
100
AcDbEntity
  8
Make2D$可见线$普通线
100
AcDbCircle
 10
132.6612265718385
 20
1419.788973289388
 30
0.0
 40
29.99920025227865
100
AcDbArc
 50
307.3820961076714
 51
359.9996110633245
  0
ARC
  5
2A5
330
1F
100
AcDbEntity
  8
Make2D$可见线$普通线
100
AcDbCircle
 10
132.6424513069241
 20
1419.79961477812
 30
0.0
 40
28.01797762242504
100
AcDbArc
 50
307.4010236953966
 51
359.9778220896155
  0
ARC
  5
2A6
330
1F
100
AcDbEntity
  8
Make2D$可见线$普通线
100
AcDbCircle
 10
149.6675565185805
 20
1445.791505471253
 30
0.0
 40
1.993284879785325
100
AcDbArc
 50
359.9262998560887
 51
85.04056977493042
  0
ARC
  5
2A7
330
1F
100
AcDbEntity
  8
Make2D$可见线$普通线
100
AcDbCircle
 10
115.6575364970091
 20
1445.789884896574
 30
0.0
 40
1.997522844275492
100
AcDbArc
 50
93.23892503858498
 51
180.0270601433452
  0
LINE
  5
2A8
330
1F
100
AcDbEntity
  8
Make2D$可见线$普通线
100
AcDbLine
 10
113.6604268124206
 20
1445.788941489346
 30
0.0
 11
113.6604268124206
 21
1443.004548756576
 31
0.0
  0
LINE
  5
2A9
330
1F
100
AcDbEntity
  8
Make2D$可见线$普通线
100
AcDbLine
 10
146.777752772867
 20
1409.788941489346
 30
0.0
 11
146.5574274768519
 21
1409.788941489346
 31
0.0
  0
LINE
  5
2AA
330
1F
100
AcDbEntity
  8
Make2D$可见线$普通线
100
AcDbLine
 10
146.5438840911369
 20
1409.788941489346
 30
0.0
 11
146.3138694789876
 21
1409.788941489346
 31
0.0
  0
LINE
  5
2AB
330
1F
100
AcDbEntity
  8
Make2D$可见线$普通线
100
AcDbLine
 10
146.301863726863
 20
1409.788941489346
 30
0.0
 11
146.0621322803174
 21
1409.788941489346
 31
0.0
  0
LINE
  5
2AC
330
1F
100
AcDbEntity
  8
Make2D$可见线$普通线
100
AcDbLine
 10
146.0518010262337
 20
1409.788941489346
 30
0.0
 11
144.6846795943361
 21
1409.788941489345
 31
0.0
  0
LINE
  5
2AD
330
1F
100
AcDbEntity
  8
Make2D$可见线$普通线
100
AcDbLine
 10
120.6361740305035
 20
1409.788941489346
 30
0.0
 11
119.2690525986079
 21
1409.788941489346
 31
0.0
  0
LINE
  5
2AE
330
1F
100
AcDbEntity
  8
Make2D$可见线$普通线
100
AcDbLine
 10
119.2587213445244
 20
1409.788941489346
 30
0.0
 11
119.0189898979785
 21
1409.788941489346
 31
0.0
  0
LINE
  5
2AF
330
1F
100
AcDbEntity
  8
Make2D$可见线$普通线
100
AcDbLine
 10
119.0069841458542
 20
1409.788941489346
 30
0.0
 11
118.7769695337047
 21
1409.788941489346
 31
0.0
  0
LINE
  5
2B0
330
1F
100
AcDbEntity
  8
Make2D$可见线$普通线
100
AcDbLine
 10
118.7634261479898
 20
1409.788941489346
 30
0.0
 11
118.5431008519745
 21
1409.788941489346
 31
0.0
  0
LINE
  5
2B1
330
1F
100
AcDbEntity
  8
Make2D$可见线$普通线
100
AcDbLine
 10
59.68986406394379
 20
1600.249664404649
 30
0.0
 11
59.1086074062169
 21
1600.830921062376
 31
0.0
  0
LINE
  5
2B2
330
1F
100
AcDbEntity
  8
Make2D$可见线$普通线
100
AcDbLine
 10
59.02627419036279
 20
1600.91325427823
 30
0.0
 11
59.01841282088212
 21
1600.92111564771
 31
0.0
  0
LINE
  5
2B3
330
1F
100
AcDbEntity
  8
Make2D$可见线$普通线
100
AcDbLine
 10
58.94983658029506
 20
1600.989691888297
 30
0.0
 11
58.94156694628648
 21
1600.997961522306
 31
0.0
  0
LINE
  5
2B4
330
1F
100
AcDbEntity
  8
Make2D$可见线$普通线
100
AcDbLine
 10
58.87994726099432
 20
1601.059581207598
 30
0.0
 11
58.87153254262662
 21
1601.067995925966
 31
0.0
  0
LINE
  5
2B5
330
1F
100
AcDbEntity
  8
Make2D$可见线$普通线
100
AcDbLine
 10
58.81725891744117
 20
1601.122269551151
 30
0.0
 11
58.80899045421575
 21
1601.130538014376
 31
0.0
  0
LINE
  5
2B6
330
1F
100
AcDbEntity
  8
Make2D$可见线$普通线
100
AcDbLine
 10
58.76242423461611
 20
1601.177104233976
 30
0.0
 11
58.63249433350457
 21
1601.307034135087
 31
0.0
  0
LINE
  5
2B7
330
1F
100
AcDbEntity
  8
Make2D$可见线$普通线
100
AcDbLine
 10
58.62889970573269
 20
1601.31062876286
 30
0.0
 11
58.6163838951092
 21
1601.328811744114
 31
0.0
  0
LINE
  5
2B8
330
1F
100
AcDbEntity
  8
Make2D$可见线$普通线
100
AcDbLine
 10
60.74148297765458
 20
1599.198045490937
 30
0.0
 11
60.73244171898696
 21
1599.207086749605
 31
0.0
  0
LINE
  5
2B9
330
1F
100
AcDbEntity
  8
Make2D$可见线$普通线
100
AcDbLine
 10
60.59898627664077
 20
1599.340542191951
 30
0.0
 11
60.56246921219291
 21
1599.377059256399
 31
0.0
  0
LINE
  5
2BA
330
1F
100
AcDbEntity
  8
Make2D$可见线$普通线
100
AcDbLine
 10
60.5081955356878
 20
1599.431332932904
 30
0.0
 11
60.49978086878045
 21
1599.439747599811
 31
0.0
  0
LINE
  5
2BB
330
1F
100
AcDbEntity
  8
Make2D$可见线$普通线
100
AcDbLine
 10
60.43816118202677
 20
1599.501367286565
 30
0.0
 11
60.4298915495885
 21
1599.509636919003
 31
0.0
  0
LINE
  5
2BC
330
1F
100
AcDbEntity
  8
Make2D$可见线$普通线
100
AcDbLine
 10
60.40054708457131
 20
1599.538981384021
 30
0.0
 11
60.35345393958335
 21
1599.586074529009
 31
0.0
  0
LINE
  5
2BD
330
1F
100
AcDbEntity
  8
Make2D$可见线$普通线
100
AcDbLine
 10
59.89874348786621
 20
1600.040784980726
 30
0.0
 11
59.68986406394379
 21
1600.249664404649
 31
0.0
  0
ARC
  5
2BE
330
1F
100
AcDbEntity
  8
Make2D$可见线$普通线
100
AcDbCircle
 10
61.10448320821467
 20
1599.542253446416
 30
0.0
 40
0.5000717091965828
100
AcDbArc
 50
224.9917860199743
 51
314.9917844983397
  0
LINE
  5
2BF
330
1F
100
AcDbEntity
  8
Make2D$可见线$普通线
100
AcDbLine
 10
60.73244171898686
 20
1599.207086749605
 30
0.0
 11
60.59898627664072
 21
1599.340542191951
 31
0.0
  0
LINE
  5
2C0
330
1F
100
AcDbEntity
  8
Make2D$可见线$普通线
100
AcDbLine
 10
60.42989154759824
 20
1599.509636920994
 30
0.0
 11
60.40054708457143
 21
1599.538981384021
 31
0.0
  0
LINE
  5
2C1
330
1F
100
AcDbEntity
  8
Make2D$可见线$普通线
100
AcDbLine
 10
60.27112072167595
 20
1599.668407746917
 30
0.0
 11
59.8987434878664
 21
1600.040784980727
 31
0.0
  0
LINE
  5
2C2
330
1F
100
AcDbEntity
  8
Make2D$可见线$普通线
100
AcDbLine
 10
56.98767739663775
 20
1602.951851071955
 30
0.0
 11
56.94492448412183
 21
1602.994603984471
 31
0.0
  0
LINE
  5
2C3
330
1F
100
AcDbEntity
  8
Make2D$可见线$普通线
100
AcDbLine
 10
56.74723988061337
 20
1603.192288587979
 30
0.0
 11
56.71696574400892
 21
1603.222562724583
 31
0.0
  0
LINE
  5
2C4
330
1F
100
AcDbEntity
  8
Make2D$可见线$普通线
100
AcDbLine
 10
56.57683721755406
 20
1603.362691251038
 30
0.0
 11
56.55915481332216
 21
1603.38037365527
 31
0.0
  0
LINE
  5
2C5
330
1F
100
AcDbEntity
  8
Make2D$可见线$普通线
100
AcDbLine
 10
56.48879157160169
 20
1603.45073689699
 30
0.0
 11
56.48144041081692
 21
1603.458088057775
 31
0.0
  0
ARC
  5
2C6
330
1F
100
AcDbEntity
  8
Make2D$可见线$普通线
100
AcDbCircle
 10
58.95268443740031
 20
1601.694355796379
 30
0.0
 40
0.5002864486534463
100
AcDbArc
 50
224.9672511224165
 51
314.9672035538582
  0
LINE
  5
2C7
330
1F
100
AcDbEntity
  8
Make2D$可见线$普通线
100
AcDbLine
 10
58.58825058442254
 20
1601.35127788417
 30
0.0
 11
58.57621088444
 21
1601.363317584152
 31
0.0
  0
ARC
  5
2C8
330
1F
100
AcDbEntity
  8
Make2D$可见线$普通线
100
AcDbCircle
 10
56.82853155586869
 20
1603.818508677986
 30
0.0
 40
0.5002864487074157
100
AcDbArc
 50
135.0327964521894
 51
225.0327488799714
  0
LINE
  5
2C9
330
1F
100
AcDbEntity
  8
Make2D$可见线$普通线
100
AcDbLine
 10
58.51677433877512
 20
1601.422754129817
 30
0.0
 11
58.49356942284071
 21
1601.445959045752
 31
0.0
  0
LINE
  5
2CA
330
1F
100
AcDbEntity
  8
Make2D$可见线$普通线
100
AcDbLine
 10
61.07238601994238
 20
1603.109783135769
 30
0.0
 11
59.30461906697594
 21
1601.342016182802
 31
0.0
  0
LINE
  5
2CB
330
1F
100
AcDbEntity
  8
Make2D$可见线$普通线
100
AcDbLine
 10
56.47619194222962
 20
1604.17044330755
 30
0.0
 11
58.24395889519607
 21
1605.938210260516
 31
0.0
  0
LINE
  5
2CC
330
1F
100
AcDbEntity
  8
Make2D$可见线$普通线
100
AcDbLine
 10
52.45180365809639
 20
1607.487724810495
 30
0.0
 11
52.44052032156906
 21
1607.499008147023
 31
0.0
  0
LINE
  5
2CD
330
1F
100
AcDbEntity
  8
Make2D$可见线$普通线
100
AcDbLine
 10
52.43374196302943
 20
1607.505786505562
 30
0.0
 11
52.20108357932838
 21
1607.738444889264
 31
0.0
  0
LINE
  5
2CE
330
1F
100
AcDbEntity
  8
Make2D$可见线$普通线
100
AcDbLine
 10
50.36660662972898
 20
1609.572921838864
 30
0.0
 11
50.35215732039403
 21
1609.587371148199
 31
0.0
  0
ARC
  5
2CF
330
1F
100
AcDbEntity
  8
Make2D$可见线$普通线
100
AcDbCircle
 10
52.81659539185159
 20
1607.829238273944
 30
0.0
 40
0.4994335180334993
100
AcDbArc
 50
225.0652136185732
 51
315.0650248071981
  0
ARC
  5
2D0
330
1F
100
AcDbEntity
  8
Make2D$可见线$普通线
100
AcDbCircle
 10
50.70203207783177
 20
1609.944466242176
 30
0.0
 40
0.5005706752814583
100
AcDbArc
 50
134.9889174393811
 51
179.9190640125626
  0
ARC
  5
2D1
330
1F
100
AcDbEntity
  8
Make2D$可见线$普通线
100
AcDbCircle
 10
50.69981419567842
 20
1609.944482746061
 30
0.0
 40
0.498346582450194
100
AcDbArc
 50
183.8827648953247
 51
224.985516859435
  0
LINE
  5
2D2
330
1F
100
AcDbEntity
  8
Make2D$可见线$普通线
100
AcDbLine
 10
52.1555928173193
 20
1607.783935651273
 30
0.0
 11
52.110102053875
 21
1607.829426414717
 31
0.0
  0
LINE
  5
2D3
330
1F
100
AcDbEntity
  8
Make2D$可见线$普通线
100
AcDbLine
 10
50.89501272099049
 20
1609.044515747601
 30
0.0
 11
50.77353040241488
 21
1609.165998066177
 31
0.0
  0
LINE
  5
2D4
330
1F
100
AcDbEntity
  8
Make2D$可见线$普通线
100
AcDbLine
 10
52.11269959766864
 20
1612.069469558042
 30
0.0
 11
50.34493264470209
 21
1610.301702605076
 31
0.0
  0
LINE
  5
2D5
330
1F
100
AcDbEntity
  8
Make2D$可见线$普通线
100
AcDbLine
 10
54.94112672241457
 20
1609.241042433297
 30
0.0
 11
53.17335976944856
 21
1607.473275480329
 31
0.0
  0
LINE
  5
2D6
330
1F
100
AcDbEntity
  8
Make2D$可见线$普通线
100
AcDbLine
 10
43.28366287623068
 20
1616.655865592361
 30
0.0
 11
43.27598227653486
 21
1616.663546192057
 31
0.0
  0
LINE
  5
2D7
330
1F
100
AcDbEntity
  8
Make2D$可见线$普通线
100
AcDbLine
 10
43.2606919568504
 20
1616.678836511742
 30
0.0
 11
43.24657360001859
 21
1616.692954868573
 31
0.0
  0
LINE
  5
2D8
330
1F
100
AcDbEntity
  8
Make2D$可见线$普通线
100
AcDbLine
 10
43.20943704306353
 20
1616.730091425528
 30
0.0
 11
43.18952971591376
 21
1616.749998752678
 31
0.0
  0
LINE
  5
2D9
330
1F
100
AcDbEntity
  8
Make2D$可见线$普通线
100
AcDbLine
 10
43.12611274846719
 20
1616.813415720124
 30
0.0
 11
43.112726293391
 21
1616.826802175201
 31
0.0
  0
LINE
  5
2DA
330
1F
100
AcDbEntity
  8
Make2D$可见线$普通线
100
AcDbLine
 10
43.05039051496404
 20
1616.889137953628
 30
0.0
 11
43.01912705294941
 21
1616.920401415643
 31
0.0
  0
LINE
  5
2DB
330
1F
100
AcDbEntity
  8
Make2D$可见线$普通线
100
AcDbLine
 10
42.81813638217179
 20
1617.12139208642
 30
0.0
 11
42.77868953709586
 21
1617.160838931496
 31
0.0
  0
ARC
  5
2DC
330
1F
100
AcDbEntity
  8
Make2D$可见线$普通线
100
AcDbCircle
 10
43.64534714280956
 20
1617.001693091052
 30
0.0
 40
0.5002864487127966
100
AcDbArc
 50
224.9672511196803
 51
314.9672035471769
  0
ARC
  5
2DD
330
1F
100
AcDbEntity
  8
Make2D$可见线$普通线
100
AcDbCircle
 10
41.52119441946127
 20
1619.12584597267
 30
0.0
 40
0.5002865605623829
100
AcDbArc
 50
135.0328092624381
 51
225.0327360619544
  0
LINE
  5
2DE
330
1F
100
AcDbEntity
  8
Make2D$可见线$普通线
100
AcDbLine
 10
42.6354118949539
 20
1617.304116573638
 30
0.0
 11
42.53671806367391
 21
1617.402810404918
 31
0.0
  0
LINE
  5
2DF
330
1F
100
AcDbEntity
  8
Make2D$可见线$普通线
100
AcDbLine
 10
42.33259807348663
 20
1617.606930395105
 30
0.0
 11
42.31239159534884
 21
1617.627136873243
 31
0.0
  0
LINE
  5
2E0
330
1F
100
AcDbEntity
  8
Make2D$可见线$普通线
100
AcDbLine
 10
42.29581090836605
 20
1617.643717560226
 30
0.0
 11
42.27936098546344
 21
1617.660167483128
 31
0.0
  0
LINE
  5
2E1
330
1F
100
AcDbEntity
  8
Make2D$可见线$普通线
100
AcDbLine
 10
41.79899832069963
 20
1618.140530147892
 30
0.0
 11
41.78399627320545
 21
1618.155532195386
 31
0.0
  0
LINE
  5
2E2
330
1F
100
AcDbEntity
  8
Make2D$可见线$普通线
100
AcDbLine
 10
41.44312121475055
 20
1618.496407253841
 30
0.0
 11
41.2705195555507
 21
1618.669008913041
 31
0.0
  0
LINE
  5
2E3
330
1F
100
AcDbEntity
  8
Make2D$可见线$普通线
100
AcDbLine
 10
42.31239159534942
 20
1617.627136873243
 30
0.0
 11
42.29581090836664
 21
1617.643717560226
 31
0.0
  0
LINE
  5
2E4
330
1F
100
AcDbEntity
  8
Make2D$可见线$普通线
100
AcDbLine
 10
41.84823716734986
 20
1618.091291301243
 30
0.0
 11
41.82361774428786
 21
1618.115910724305
 31
0.0
  0
LINE
  5
2E5
330
1F
100
AcDbEntity
  8
Make2D$可见线$普通线
100
AcDbLine
 10
41.78399627320604
 20
1618.155532195387
 30
0.0
 11
41.77696745014411
 21
1618.162561018449
 31
0.0
  0
LINE
  5
2E6
330
1F
100
AcDbEntity
  8
Make2D$可见线$普通线
100
AcDbLine
 10
45.76504872533796
 20
1618.417120430373
 30
0.0
 11
43.99728177237151
 21
1616.649353477407
 31
0.0
  0
LINE
  5
2E7
330
1F
100
AcDbEntity
  8
Make2D$可见线$普通线
100
AcDbLine
 10
41.16885464762595
 20
1619.477780602153
 30
0.0
 11
42.93662160059189
 21
1621.245547555119
 31
0.0
  0
LINE
  5
2E8
330
1F
100
AcDbEntity
  8
Make2D$可见线$普通线
100
AcDbLine
 10
32.46655717469275
 20
1627.4729712939
 30
0.0
 11
32.46550473011234
 21
1627.47402373848
 31
0.0
  0
LINE
  5
2E9
330
1F
100
AcDbEntity
  8
Make2D$可见线$普通线
100
AcDbLine
 10
32.4513469052758
 20
1627.488181563317
 30
0.0
 11
32.31145451162541
 21
1627.628073956967
 31
0.0
  0
LINE
  5
2EA
330
1F
100
AcDbEntity
  8
Make2D$可见线$普通线
100
AcDbLine
 10
32.2864664122661
 20
1627.653062056326
 30
0.0
 11
32.21550961942645
 21
1627.724018849166
 31
0.0
  0
LINE
  5
2EB
330
1F
100
AcDbEntity
  8
Make2D$可见线$普通线
100
AcDbLine
 10
32.18980110479986
 20
1627.749727363792
 30
0.0
 11
32.11305286153438
 21
1627.826475607058
 31
0.0
  0
LINE
  5
2EC
330
1F
100
AcDbEntity
  8
Make2D$可见线$普通线
100
AcDbLine
 10
32.07704403833958
 20
1627.862484430252
 30
0.0
 11
31.40559281645528
 21
1628.533935652137
 31
0.0
  0
ARC
  5
2ED
330
1F
100
AcDbEntity
  8
Make2D$可见线$普通线
100
AcDbCircle
 10
32.82021196077676
 20
1627.826524853365
 30
0.0
 40
0.5000718219721852
100
AcDbArc
 50
224.9917989401041
 51
314.9917715771393
  0
LINE
  5
2EE
330
1F
100
AcDbEntity
  8
Make2D$可见线$普通线
100
AcDbLine
 10
31.40559281645528
 20
1628.533935652137
 30
0.0
 11
31.19671339263331
 21
1628.742815075959
 31
0.0
  0
LINE
  5
2EF
330
1F
100
AcDbEntity
  8
Make2D$可见线$普通线
100
AcDbLine
 10
30.74200294292313
 20
1629.197525525668
 30
0.0
 11
30.73414157334382
 21
1629.205386895248
 31
0.0
  0
LINE
  5
2F0
330
1F
100
AcDbEntity
  8
Make2D$可见线$普通线
100
AcDbLine
 10
30.66556533285398
 20
1629.273963135738
 30
0.0
 11
30.621384528161
 21
1629.318143940431
 31
0.0
  0
LINE
  5
2F1
330
1F
100
AcDbEntity
  8
Make2D$可见线$普通线
100
AcDbLine
 10
30.59567601355074
 20
1629.343852455041
 30
0.0
 11
30.58726129508309
 21
1629.352267173509
 31
0.0
  0
LINE
  5
2F2
330
1F
100
AcDbEntity
  8
Make2D$可见线$普通线
100
AcDbLine
 10
30.5329876699943
 20
1629.406540798597
 30
0.0
 11
30.52471920667332
 21
1629.414809261918
 31
0.0
  0
LINE
  5
2F3
330
1F
100
AcDbEntity
  8
Make2D$可见线$普通线
100
AcDbLine
 10
30.47815298716558
 20
1629.461375481427
 30
0.0
 11
30.34822308601926
 21
1629.591305382573
 31
0.0
  0
LINE
  5
2F4
330
1F
100
AcDbEntity
  8
Make2D$可见线$普通线
100
AcDbLine
 10
31.19671339263307
 20
1628.742815075959
 30
0.0
 11
30.82433615875899
 21
1629.115192309833
 31
0.0
  0
LINE
  5
2F5
330
1F
100
AcDbEntity
  8
Make2D$可见线$普通线
100
AcDbLine
 10
30.62138452816104
 20
1629.318143940431
 30
0.0
 11
30.59567601353514
 21
1629.343852455057
 31
0.0
  0
ARC
  5
2F6
330
1F
100
AcDbEntity
  8
Make2D$可见线$普通线
100
AcDbCircle
 10
30.69818185825723
 20
1629.948554796383
 30
0.0
 40
0.5000717092039639
100
AcDbArc
 50
135.0082155023023
 51
225.0082139803399
  0
LINE
  5
2F7
330
1F
100
AcDbEntity
  8
Make2D$可见线$普通线
100
AcDbLine
 10
32.11269959766832
 20
1632.069469558043
 30
0.0
 11
30.34493264470211
 21
1630.301702605077
 31
0.0
  0
LINE
  5
2F8
330
1F
100
AcDbEntity
  8
Make2D$可见线$普通线
100
AcDbLine
 10
34.94112672241454
 20
1629.241042433297
 30
0.0
 11
33.17335976944833
 21
1627.473275480331
 31
0.0
  0
LINE
  5
2F9
330
1F
100
AcDbEntity
  8
Make2D$可见线$普通线
100
AcDbLine
 10
21.56159303721506
 20
1638.377935431377
 30
0.0
 11
21.51522987340004
 21
1638.424298595193
 31
0.0
  0
LINE
  5
2FA
330
1F
100
AcDbEntity
  8
Make2D$可见线$普通线
100
AcDbLine
 10
21.40254650989393
 20
1638.536981958698
 30
0.0
 11
21.33287384464145
 21
1638.606654623951
 31
0.0
  0
LINE
  5
2FB
330
1F
100
AcDbEntity
  8
Make2D$可见线$普通线
100
AcDbLine
 10
21.29406924847909
 20
1638.645459220113
 30
0.0
 11
21.05392335540325
 21
1638.885605113189
 31
0.0
  0
LINE
  5
2FC
330
1F
100
AcDbEntity
  8
Make2D$可见线$普通线
100
AcDbLine
 10
21.02718935975761
 20
1638.912339108835
 30
0.0
 11
20.76333556175279
 21
1639.17619290684
 31
0.0
  0
LINE
  5
2FD
330
1F
100
AcDbEntity
  8
Make2D$可见线$普通线
100
AcDbLine
 10
20.70770446518237
 20
1639.23182400341
 30
0.0
 11
20.58223458290898
 21
1639.357293885683
 31
0.0
  0
LINE
  5
2FE
330
1F
100
AcDbEntity
  8
Make2D$可见线$普通线
100
AcDbLine
 10
20.53182464749921
 20
1639.407703821092
 30
0.0
 11
20.1757737379603
 21
1639.763754730632
 31
0.0
  0
LINE
  5
2FF
330
1F
100
AcDbEntity
  8
Make2D$可见线$普通线
100
AcDbLine
 10
21.48286832637865
 20
1638.456660142213
 30
0.0
 11
21.40254650989607
 21
1638.536981958696
 31
0.0
  0
ARC
  5
300
330
1F
100
AcDbEntity
  8
Make2D$可见线$普通线
100
AcDbCircle
 10
21.99750313694767
 20
1638.649537096828
 30
0.0
 40
0.5002864486525506
100
AcDbArc
 50
224.9672511224104
 51
314.9672035541608
  0
LINE
  5
301
330
1F
100
AcDbEntity
  8
Make2D$可见线$普通线
100
AcDbLine
 10
20.03249609606527
 20
1639.907032372527
 30
0.0
 11
19.99304925079113
 21
1639.946479217802
 31
0.0
  0
LINE
  5
302
330
1F
100
AcDbEntity
  8
Make2D$可见线$普通线
100
AcDbLine
 10
19.79205858033073
 20
1640.147469888262
 30
0.0
 11
19.78231435405661
 21
1640.157214114536
 31
0.0
  0
LINE
  5
303
330
1F
100
AcDbEntity
  8
Make2D$可见线$普通线
100
AcDbLine
 10
19.53118498855164
 20
1640.40834348004
 30
0.0
 11
19.52386052454127
 21
1640.41566794405
 31
0.0
  0
LINE
  5
304
330
1F
100
AcDbEntity
  8
Make2D$可见线$普通线
100
AcDbLine
 10
19.5358154403536
 20
1640.403713028238
 30
0.0
 11
19.53118498855184
 21
1640.40834348004
 31
0.0
  0
LINE
  5
305
330
1F
100
AcDbEntity
  8
Make2D$可见线$普通线
100
AcDbLine
 10
19.5197965711036
 20
1640.419731897488
 30
0.0
 11
19.5038517247027
 21
1640.436518051768
 31
0.0
  0
ARC
  5
306
330
1F
100
AcDbEntity
  8
Make2D$可见线$普通线
100
AcDbCircle
 10
19.87271479738674
 20
1640.773969878151
 30
0.0
 40
0.4996391123015074
100
AcDbArc
 50
135.004007786363
 51
181.3474193959966
  0
LINE
  5
307
330
1F
100
AcDbEntity
  8
Make2D$可见线$普通线
100
AcDbLine
 10
24.11720471949
 20
1640.064964436221
 30
0.0
 11
22.34943776652406
 21
1638.297197483254
 31
0.0
  0
LINE
  5
308
330
1F
100
AcDbEntity
  8
Make2D$可见线$普通线
100
AcDbLine
 10
19.52101064177781
 20
1641.125624608001
 30
0.0
 11
21.28877759474426
 21
1642.893391560967
 31
0.0
  0
LINE
  5
309
330
1F
100
AcDbEntity
  8
Make2D$可见线$普通线
100
AcDbLine
 10
12.15559281648166
 20
1647.783935652111
 30
0.0
 11
12.07865888940783
 21
1647.860869579185
 31
0.0
  0
LINE
  5
30A
330
1F
100
AcDbEntity
  8
Make2D$可见线$普通线
100
AcDbLine
 10
12.03765523054797
 20
1647.901873238045
 30
0.0
 11
11.81140436670783
 21
1648.128124101885
 31
0.0
  0
LINE
  5
30B
330
1F
100
AcDbEntity
  8
Make2D$可见线$普通线
100
AcDbLine
 10
11.76278419098955
 20
1648.176744277603
 30
0.0
 11
11.45758303201806
 21
1648.481945436574
 31
0.0
  0
LINE
  5
30C
330
1F
100
AcDbEntity
  8
Make2D$可见线$普通线
100
AcDbLine
 10
11.44913374847047
 20
1648.490394720122
 30
0.0
 11
11.14804899829532
 21
1648.791479470297
 31
0.0
  0
LINE
  5
30D
330
1F
100
AcDbEntity
  8
Make2D$可见线$普通线
100
AcDbLine
 10
11.10655447275399
 20
1648.832973995839
 30
0.0
 11
10.65559281560672
 21
1649.283935652986
 31
0.0
  0
ARC
  5
30E
330
1F
100
AcDbEntity
  8
Make2D$可见线$普通线
100
AcDbCircle
 10
12.81659539179179
 20
1647.829238326797
 30
0.0
 40
0.4994335554057886
100
AcDbArc
 50
225.0652179060076
 51
315.0650205197608
  0
LINE
  5
30F
330
1F
100
AcDbEntity
  8
Make2D$可见线$普通线
100
AcDbLine
 10
10.35938197525932
 20
1649.580146493334
 30
0.0
 11
10.35215732039268
 21
1649.5873711482
 31
0.0
  0
ARC
  5
310
330
1F
100
AcDbEntity
  8
Make2D$可见线$普通线
100
AcDbCircle
 10
10.70203207783702
 20
1649.944466242173
 30
0.0
 40
0.5005706752872686
100
AcDbArc
 50
134.9889174395679
 51
179.9190640122252
  0
ARC
  5
311
330
1F
100
AcDbEntity
  8
Make2D$可见线$普通线
100
AcDbCircle
 10
10.69981419545853
 20
1649.944482745961
 30
0.0
 40
0.4983465822239448
100
AcDbArc
 50
183.8827648855615
 51
224.9855168691716
  0
LINE
  5
312
330
1F
100
AcDbEntity
  8
Make2D$可见线$普通线
100
AcDbLine
 10
12.1126995976685
 20
1652.069469558043
 30
0.0
 11
10.34493264470196
 21
1650.301702605076
 31
0.0
  0
LINE
  5
313
330
1F
100
AcDbEntity
  8
Make2D$可见线$普通线
100
AcDbLine
 10
14.94112672241497
 20
1649.241042433296
 30
0.0
 11
13.17335976944843
 21
1647.47327548033
 31
0.0
  0
LINE
  5
314
330
1F
100
AcDbEntity
  8
Make2D$可见线$普通线
100
AcDbLine
 10
5.680230594064142
 20
1654.259297874528
 30
0.0
 11
5.562274399000491
 21
1654.377254069592
 31
0.0
  0
LINE
  5
315
330
1F
100
AcDbEntity
  8
Make2D$可见线$普通线
100
AcDbLine
 10
5.531181518369538
 20
1654.408346950223
 30
0.0
 11
4.917851541532329
 21
1655.02167692706
 31
0.0
  0
LINE
  5
316
330
1F
100
AcDbEntity
  8
Make2D$可见线$普通线
100
AcDbLine
 10
4.893055866880715
 20
1655.046472601711
 30
0.0
 11
4.29441129416773
 21
1655.645117174424
 31
0.0
  0
LINE
  5
317
330
1F
100
AcDbEntity
  8
Make2D$可见线$普通线
100
AcDbLine
 10
6.252030819641583
 20
1653.687497648951
 30
0.0
 11
6.234348415411052
 21
1653.705180053181
 31
0.0
  0
LINE
  5
318
330
1F
100
AcDbEntity
  8
Make2D$可见线$普通线
100
AcDbLine
 10
6.094219888954619
 20
1653.845308579638
 30
0.0
 11
6.063945752349045
 21
1653.875582716243
 31
0.0
  0
LINE
  5
319
330
1F
100
AcDbEntity
  8
Make2D$可见线$普通线
100
AcDbLine
 10
5.86626114884174
 20
1654.073267319751
 30
0.0
 11
5.823508236324408
 21
1654.116020232268
 31
0.0
  0
ARC
  5
31A
330
1F
100
AcDbEntity
  8
Make2D$可见线$普通线
100
AcDbCircle
 10
6.690165842538022
 20
1653.956874707253
 30
0.0
 40
0.5002866719816413
100
AcDbArc
 50
224.967276689852
 51
314.9671779772615
  0
LINE
  5
31B
330
1F
100
AcDbEntity
  8
Make2D$可见线$普通线
100
AcDbLine
 10
4.234974748400022
 20
1655.704553720193
 30
0.0
 11
4.218921815258111
 21
1655.720606653335
 31
0.0
  0
ARC
  5
31C
330
1F
100
AcDbEntity
  8
Make2D$可见线$普通线
100
AcDbCircle
 10
4.566012960753992
 20
1656.081027273031
 30
0.0
 40
0.5002864486589943
100
AcDbArc
 50
135.0327964466867
 51
225.0327488778958
  0
LINE
  5
31D
330
1F
100
AcDbEntity
  8
Make2D$可见线$普通线
100
AcDbLine
 10
8.809867424887196
 20
1655.372301730824
 30
0.0
 11
7.04210047192075
 21
1653.604534777858
 31
0.0
  0
LINE
  5
31E
330
1F
100
AcDbEntity
  8
Make2D$可见线$普通线
100
AcDbLine
 10
4.21367334717458
 20
1656.432961902603
 30
0.0
 11
5.981440300141042
 21
1658.20072885557
 31
0.0
  0
LINE
  5
31F
330
1F
100
AcDbEntity
  8
Make2D$可见线$普通线
100
AcDbLine
 10
3.121321569019983
 20
1656.818206899572
 30
0.0
 11
2.963852376835558
 21
1656.975676091757
 31
0.0
  0
LINE
  5
320
330
1F
100
AcDbEntity
  8
Make2D$可见线$普通线
100
AcDbLine
 10
2.932480442247786
 20
1657.007048026345
 30
0.0
 11
2.811751620827561
 21
1657.127776847765
 31
0.0
  0
LINE
  5
321
330
1F
100
AcDbEntity
  8
Make2D$可见线$普通线
100
AcDbLine
 10
2.540064910636899
 20
1657.399463557955
 30
0.0
 11
2.532846851725167
 21
1657.406681616867
 31
0.0
  0
LINE
  5
322
330
1F
100
AcDbEntity
  8
Make2D$可见线$普通线
100
AcDbLine
 10
2.493684118430332
 20
1657.445844350161
 30
0.0
 11
2.45773169469317
 21
1657.481796773898
 31
0.0
  0
LINE
  5
323
330
1F
100
AcDbEntity
  8
Make2D$可见线$普通线
100
AcDbLine
 10
2.449870325584074
 20
1657.489658143008
 30
0.0
 11
2.410638548390903
 21
1657.528889920201
 31
0.0
  0
LINE
  5
324
330
1F
100
AcDbEntity
  8
Make2D$可见线$普通线
100
AcDbLine
 10
2.311404765167385
 20
1657.628123703425
 30
0.0
 11
2.302990097274796
 21
1657.636538371317
 31
0.0
  0
LINE
  5
325
330
1F
100
AcDbEntity
  8
Make2D$可见线$普通线
100
AcDbLine
 10
2.274078936933545
 20
1657.665449531658
 30
0.0
 11
2.248716421547578
 21
1657.690812047045
 31
0.0
  0
LINE
  5
326
330
1F
100
AcDbEntity
  8
Make2D$可见线$普通线
100
AcDbLine
 10
2.240447958770509
 20
1657.699080509822
 30
0.0
 11
2.21219935632228
 21
1657.72732911227
 31
0.0
  0
LINE
  5
327
330
1F
100
AcDbEntity
  8
Make2D$可见线$普通线
100
AcDbLine
 10
4.171257384667666
 20
1655.768271083925
 30
0.0
 11
4.048761398346286
 21
1655.890767070246
 31
0.0
  0
LINE
  5
328
330
1F
100
AcDbEntity
  8
Make2D$可见线$普通线
100
AcDbLine
 10
4.002195178748389
 20
1655.937333289844
 30
0.0
 11
3.993926715520675
 21
1655.945601753072
 31
0.0
  0
LINE
  5
329
330
1F
100
AcDbEntity
  8
Make2D$可见线$普通线
100
AcDbLine
 10
3.939653090337525
 20
1655.999875378255
 30
0.0
 11
3.93123837196695
 21
1656.008290096626
 31
0.0
  0
LINE
  5
32A
330
1F
100
AcDbEntity
  8
Make2D$可见线$普通线
100
AcDbLine
 10
3.869618686677701
 20
1656.069909781914
 30
0.0
 11
3.861349052665728
 21
1656.078179415926
 31
0.0
  0
LINE
  5
32B
330
1F
100
AcDbEntity
  8
Make2D$可见线$普通线
100
AcDbLine
 10
3.792772812082069
 20
1656.146755656511
 30
0.0
 11
3.784911442597626
 21
1656.154617025995
 31
0.0
  0
LINE
  5
32C
330
1F
100
AcDbEntity
  8
Make2D$可见线$普通线
100
AcDbLine
 10
3.702578226743259
 20
1656.236950241849
 30
0.0
 11
3.121321569019983
 21
1656.818206899572
 31
0.0
  0
LINE
  5
32D
330
1F
100
AcDbEntity
  8
Make2D$可见线$普通线
100
AcDbLine
 10
2.811751620827555
 20
1657.127776847765
 30
0.0
 11
2.540064911295237
 21
1657.399463557297
 31
0.0
  0
LINE
  5
32E
330
1F
100
AcDbEntity
  8
Make2D$可见线$普通线
100
AcDbLine
 10
2.457731695440312
 20
1657.481796773152
 30
0.0
 11
2.449870325584278
 21
1657.489658143008
 31
0.0
  0
LINE
  5
32F
330
1F
100
AcDbEntity
  8
Make2D$可见线$普通线
100
AcDbLine
 10
2.381294085371622
 20
1657.55823438322
 30
0.0
 11
2.311404766069801
 21
1657.628123702522
 31
0.0
  0
LINE
  5
330
330
1F
100
AcDbEntity
  8
Make2D$可见线$普通线
100
AcDbLine
 10
2.248716422515487
 20
1657.690812046076
 30
0.0
 11
2.240447958770794
 21
1657.699080509821
 31
0.0
  0
LINE
  5
331
330
1F
100
AcDbEntity
  8
Make2D$可见线$普通线
100
AcDbLine
 10
2.193881739689322
 20
1657.745646728903
 30
0.0
 11
2.060357210802977
 21
1657.879171257789
 31
0.0
  0
ARC
  5
332
330
1F
100
AcDbEntity
  8
Make2D$可见线$普通线
100
AcDbCircle
 10
2.41391076964752
 20
1658.232826043865
 30
0.0
 40
0.5000718215278063
100
AcDbArc
 50
135.0082283718833
 51
225.0082011095304
  0
LINE
  5
333
330
1F
100
AcDbEntity
  8
Make2D$可见线$普通线
100
AcDbLine
 10
4.22060884794709
 20
1655.722683482308
 30
0.0
 11
4.182285927230955
 21
1655.757242541361
 31
0.0
  0
LINE
  5
334
330
1F
100
AcDbEntity
  8
Make2D$可见线$普通线
100
AcDbLine
 10
50.27714286037887
 20
1609.662385608213
 30
0.0
 11
50.14721295926549
 21
1609.792315509326
 31
0.0
  0
ARC
  5
335
330
1F
100
AcDbEntity
  8
Make2D$可见线$普通线
100
AcDbCircle
 10
50.49729244823078
 20
1610.149613908245
 30
0.0
 40
0.5001917018234612
100
AcDbArc
 50
176.2823944092426
 51
225.0024019305319
  0
LINE
  5
336
330
1F
100
AcDbEntity
  8
Make2D$可见线$普通线
100
AcDbLine
 10
49.54268061187923
 20
1610.396847856713
 30
0.0
 11
49.5262942488659
 21
1610.413234219726
 31
0.0
  0
LINE
  5
337
330
1F
100
AcDbEntity
  8
Make2D$可见线$普通线
100
AcDbLine
 10
47.79721279295978
 20
1612.142315675633
 30
0.0
 11
47.77555679937391
 21
1612.163971669218
 31
0.0
  0
LINE
  5
338
330
1F
100
AcDbEntity
  8
Make2D$可见线$普通线
100
AcDbLine
 10
47.57774778360955
 20
1612.361780684982
 30
0.0
 11
47.56136141918084
 21
1612.378167049411
 31
0.0
  0
LINE
  5
339
330
1F
100
AcDbEntity
  8
Make2D$可见线$普通线
100
AcDbLine
 10
47.50759950768609
 20
1612.431928960906
 30
0.0
 11
47.49492471906859
 21
1612.444603749523
 31
0.0
  0
ARC
  5
33A
330
1F
100
AcDbEntity
  8
Make2D$可见线$普通线
100
AcDbCircle
 10
49.9656083055238
 20
1610.680870478743
 30
0.0
 40
0.4998893744509851
100
AcDbArc
 50
225.0126976233674
 51
315.0126809666
  0
LINE
  5
33B
330
1F
100
AcDbEntity
  8
Make2D$可见线$普通线
100
AcDbLine
 10
47.51220783987768
 20
1612.427320628714
 30
0.0
 11
47.5075995076861
 21
1612.431928960905
 31
0.0
  0
ARC
  5
33C
330
1F
100
AcDbEntity
  8
Make2D$可见线$普通线
100
AcDbCircle
 10
47.84538404212016
 20
1612.801094742194
 30
0.0
 40
0.4998893744840607
100
AcDbArc
 50
134.9873190372252
 51
224.9873023786784
  0
LINE
  5
33D
330
1F
100
AcDbEntity
  8
Make2D$可见线$普通线
100
AcDbLine
 10
49.47057967054434
 20
1610.468948798048
 30
0.0
 11
49.4527962052485
 21
1610.486732263344
 31
0.0
  0
LINE
  5
33E
330
1F
100
AcDbEntity
  8
Make2D$可见线$普通线
100
AcDbLine
 10
52.08755492189656
 20
1612.094614233815
 30
0.0
 11
50.31978796893042
 21
1610.326847280848
 31
0.0
  0
LINE
  5
33F
330
1F
100
AcDbEntity
  8
Make2D$可见线$普通线
100
AcDbLine
 10
47.49136084418412
 20
1613.155274405595
 30
0.0
 11
49.25912779715025
 21
1614.923041358562
 31
0.0
  0
LINE
  5
340
330
1F
100
AcDbEntity
  8
Make2D$可见线$普通线
100
AcDbLine
 10
40.3238434989032
 20
1619.615684969689
 30
0.0
 11
40.31442815744282
 21
1619.625100311149
 31
0.0
  0
LINE
  5
341
330
1F
100
AcDbEntity
  8
Make2D$可见线$普通线
100
AcDbLine
 10
40.25230024844547
 20
1619.687228220147
 30
0.0
 11
40.24511972181752
 21
1619.694408746775
 31
0.0
  0
ARC
  5
342
330
1F
100
AcDbEntity
  8
Make2D$可见线$普通线
100
AcDbCircle
 10
40.59845073877337
 20
1620.048028005068
 30
0.0
 40
0.4998893458592237
100
AcDbArc
 50
134.9873157563207
 51
224.9873056536568
  0
LINE
  5
343
330
1F
100
AcDbEntity
  8
Make2D$可见线$普通线
100
AcDbLine
 10
40.60294191542673
 20
1619.336586553165
 30
0.0
 11
40.40438679099645
 21
1619.535141677596
 31
0.0
  0
LINE
  5
344
330
1F
100
AcDbEntity
  8
Make2D$可见线$普通线
100
AcDbLine
 10
40.24442758131334
 20
1620.402207668466
 30
0.0
 11
42.01219453428001
 21
1622.169974621431
 31
0.0
  0
LINE
  5
345
330
1F
100
AcDbEntity
  8
Make2D$可见线$普通线
100
AcDbLine
 10
22.42465653341378
 20
1637.514871935178
 30
0.0
 11
22.34877288397686
 21
1637.590755584615
 31
0.0
  0
LINE
  5
346
330
1F
100
AcDbEntity
  8
Make2D$可见线$普通线
100
AcDbLine
 10
22.33785080520543
 20
1637.601677663387
 30
0.0
 11
22.12611593883692
 21
1637.813412529755
 31
0.0
  0
LINE
  5
347
330
1F
100
AcDbEntity
  8
Make2D$可见线$普通线
100
AcDbLine
 10
22.10974332789563
 20
1637.829785140696
 30
0.0
 11
21.84645394296472
 21
1638.093074525627
 31
0.0
  0
LINE
  5
348
330
1F
100
AcDbEntity
  8
Make2D$可见线$普通线
100
AcDbLine
 10
21.82990066918152
 20
1638.109627799411
 30
0.0
 11
21.63948110535429
 21
1638.300047363238
 31
0.0
  0
LINE
  5
349
330
1F
100
AcDbEntity
  8
Make2D$可见线$普通线
100
AcDbLine
 10
22.56247564782849
 20
1637.377052820764
 30
0.0
 11
22.55888538451917
 21
1637.380643084073
 31
0.0
  0
LINE
  5
34A
330
1F
100
AcDbEntity
  8
Make2D$可见线$普通线
100
AcDbLine
 10
22.49675747552127
 20
1637.442770993071
 30
0.0
 11
22.48734213406089
 21
1637.452186334531
 31
0.0
  0
ARC
  5
34B
330
1F
100
AcDbEntity
  8
Make2D$可见线$普通线
100
AcDbCircle
 10
22.91968516943655
 20
1637.726793574404
 30
0.0
 40
0.4998893458591017
100
AcDbArc
 50
225.0126943470325
 51
315.0126842437455
  0
LINE
  5
34C
330
1F
100
AcDbEntity
  8
Make2D$可见线$普通线
100
AcDbLine
 10
25.0416317858024
 20
1639.140537369909
 30
0.0
 11
23.27386483283627
 21
1637.372770416943
 31
0.0
  0
LINE
  5
34D
330
1F
100
AcDbEntity
  8
Make2D$可见线$普通线
100
AcDbLine
 10
14.78949470288944
 20
1645.150033765703
 30
0.0
 11
14.69651188242355
 21
1645.243016586169
 31
0.0
  0
LINE
  5
34E
330
1F
100
AcDbEntity
  8
Make2D$可见线$普通线
100
AcDbLine
 10
14.63213488101542
 20
1645.307393587576
 30
0.0
 11
14.34555991487928
 21
1645.593968553713
 31
0.0
  0
LINE
  5
34F
330
1F
100
AcDbEntity
  8
Make2D$可见线$普通线
100
AcDbLine
 10
14.328361892281
 20
1645.611166576311
 30
0.0
 11
14.03579921127891
 21
1645.903729257313
 31
0.0
  0
LINE
  5
350
330
1F
100
AcDbEntity
  8
Make2D$可见线$普通线
100
AcDbLine
 10
14.01889130521648
 20
1645.920637163376
 30
0.0
 11
13.74429181382456
 21
1646.195236654768
 31
0.0
  0
LINE
  5
351
330
1F
100
AcDbEntity
  8
Make2D$可见线$普通线
100
AcDbLine
 10
13.73606863888029
 20
1646.203459829712
 30
0.0
 11
13.34060596239215
 21
1646.5989225062
 31
0.0
  0
LINE
  5
352
330
1F
100
AcDbEntity
  8
Make2D$可见线$普通线
100
AcDbLine
 10
15.24982421378312
 20
1644.689704254809
 30
0.0
 11
15.23343784935349
 21
1644.706090619239
 31
0.0
  0
LINE
  5
353
330
1F
100
AcDbEntity
  8
Make2D$可见线$普通线
100
AcDbLine
 10
15.03562883358951
 20
1644.903899635003
 30
0.0
 11
15.01397284000522
 21
1644.925555628587
 31
0.0
  0
ARC
  5
354
330
1F
100
AcDbEntity
  8
Make2D$可见线$普通线
100
AcDbCircle
 10
15.67275190657642
 20
1644.973726837237
 30
0.0
 40
0.4998893458400536
100
AcDbArc
 50
225.0126943370911
 51
315.0126842458375
  0
LINE
  5
355
330
1F
100
AcDbEntity
  8
Make2D$可见线$普通线
100
AcDbLine
 10
13.28489138409821
 20
1646.654637084494
 30
0.0
 11
13.26850502108487
 21
1646.671023447507
 31
0.0
  0
LINE
  5
356
330
1F
100
AcDbEntity
  8
Make2D$可见线$普通线
100
AcDbLine
 10
13.2200403911249
 20
1646.719488077467
 30
0.0
 11
13.20206831968472
 21
1646.737460148908
 31
0.0
  0
ARC
  5
357
330
1F
100
AcDbEntity
  8
Make2D$可见线$普通线
100
AcDbCircle
 10
13.55252764311406
 20
1647.093951141153
 30
0.0
 40
0.4998893744510627
100
AcDbArc
 50
134.9873190333382
 51
224.9873023765632
  0
LINE
  5
358
330
1F
100
AcDbEntity
  8
Make2D$可见线$普通线
100
AcDbLine
 10
17.79469852293193
 20
1646.387470632779
 30
0.0
 11
16.0269315699658
 21
1644.619703679812
 31
0.0
  0
LINE
  5
359
330
1F
100
AcDbEntity
  8
Make2D$可见线$普通线
100
AcDbLine
 10
13.19850444521929
 20
1647.448130804559
 30
0.0
 11
14.96627139818543
 21
1649.215897757525
 31
0.0
  0
LINE
  5
35A
330
1F
100
AcDbEntity
  8
Make2D$可见线$普通线
100
AcDbLine
 10
12.65653875890671
 20
1647.282989709686
 30
0.0
 11
12.53404277258602
 21
1647.405485696006
 31
0.0
  0
ARC
  5
35B
330
1F
100
AcDbEntity
  8
Make2D$可见线$普通线
100
AcDbCircle
 10
13.0313219342755
 20
1647.652315205532
 30
0.0
 40
0.5262951903848787
100
AcDbArc
 50
226.2779291572498
 51
272.4372745029755
  0
LINE
  5
35C
330
1F
100
AcDbEntity
  8
Make2D$可见线$普通线
100
AcDbLine
 10
43.77092024557302
 20
1616.168608223019
 30
0.0
 11
43.76187900338638
 21
1616.177649465206
 31
0.0
  0
LINE
  5
35D
330
1F
100
AcDbEntity
  8
Make2D$可见线$普通线
100
AcDbLine
 10
43.60017492566048
 20
1616.339353542932
 30
0.0
 11
43.59190646371594
 21
1616.347622004876
 31
0.0
  0
LINE
  5
35E
330
1F
100
AcDbEntity
  8
Make2D$可见线$普通线
100
AcDbLine
 10
43.53763283720917
 20
1616.401895631383
 30
0.0
 11
43.5292181203035
 21
1616.410310348289
 31
0.0
  0
LINE
  5
35F
330
1F
100
AcDbEntity
  8
Make2D$可见线$普通线
100
AcDbLine
 10
43.46759843350661
 20
1616.471930035086
 30
0.0
 11
43.45932880111155
 21
1616.480199667481
 31
0.0
  0
LINE
  5
360
330
1F
100
AcDbEntity
  8
Make2D$可见线$普通线
100
AcDbLine
 10
43.39075255886512
 20
1616.548775909727
 30
0.0
 11
43.3828911911064
 21
1616.556637277486
 31
0.0
  0
ARC
  5
361
330
1F
100
AcDbEntity
  8
Make2D$可见线$普通线
100
AcDbCircle
 10
44.13392045973933
 20
1616.512816214412
 30
0.0
 40
0.5000717229991272
100
AcDbArc
 50
224.9917876014819
 51
314.9917829170495
  0
LINE
  5
362
330
1F
100
AcDbEntity
  8
Make2D$可见线$普通线
100
AcDbLine
 10
43.76187900338631
 20
1616.177649465206
 30
0.0
 11
43.64674114480002
 21
1616.292787323792
 31
0.0
  0
LINE
  5
363
330
1F
100
AcDbEntity
  8
Make2D$可见线$普通线
100
AcDbLine
 10
38.36660662972902
 20
1621.572921838864
 30
0.0
 11
38.35215732039402
 21
1621.587371148198
 31
0.0
  0
ARC
  5
364
330
1F
100
AcDbEntity
  8
Make2D$可见线$普通线
100
AcDbCircle
 10
38.70203207782603
 20
1621.94446624218
 30
0.0
 40
0.5005706752767508
100
AcDbArc
 50
134.9889174392102
 51
179.9190640129002
  0
ARC
  5
365
330
1F
100
AcDbEntity
  8
Make2D$可见线$普通线
100
AcDbCircle
 10
38.69981419557924
 20
1621.944482746016
 30
0.0
 40
0.4983465823485372
100
AcDbArc
 50
183.8827648908253
 51
224.9855168640943
  0
LINE
  5
366
330
1F
100
AcDbEntity
  8
Make2D$可见线$普通线
100
AcDbLine
 10
40.1555928173193
 20
1619.783935651273
 30
0.0
 11
40.11010205381913
 21
1619.829426414773
 31
0.0
  0
LINE
  5
367
330
1F
100
AcDbEntity
  8
Make2D$可见线$普通线
100
AcDbLine
 10
38.99978126641074
 20
1620.939747202181
 30
0.0
 11
38.73249275009661
 21
1621.207035718495
 31
0.0
  0
LINE
  5
368
330
1F
100
AcDbEntity
  8
Make2D$可见线$普通线
100
AcDbLine
 10
40.11269959766833
 20
1624.069469558043
 30
0.0
 11
38.34493264470232
 21
1622.301702605076
 31
0.0
  0
LINE
  5
369
330
1F
100
AcDbEntity
  8
Make2D$可见线$普通线
100
AcDbLine
 10
22.90554983522469
 20
1637.033978633368
 30
0.0
 11
22.65559281560672
 21
1637.283935652986
 31
0.0
  0
ARC
  5
36A
330
1F
100
AcDbEntity
  8
Make2D$可见线$普通线
100
AcDbCircle
 10
24.816595391958
 20
1635.829238178635
 30
0.0
 40
0.4994334506383912
100
AcDbArc
 50
225.065205887505
 51
315.0650325388587
  0
LINE
  5
36B
330
1F
100
AcDbEntity
  8
Make2D$可见线$普通线
100
AcDbLine
 10
26.94112672241474
 20
1637.241042433296
 30
0.0
 11
25.1733597694482
 21
1635.473275480329
 31
0.0
  0
LINE
  5
36C
330
1F
100
AcDbEntity
  8
Make2D$可见线$普通线
100
AcDbLine
 10
19.42829444317013
 20
1640.511234025422
 30
0.0
 11
19.42043307409872
 21
1640.519095394493
 31
0.0
  0
LINE
  5
36D
330
1F
100
AcDbEntity
  8
Make2D$可见线$普通线
100
AcDbLine
 10
19.35185683301994
 20
1640.587671635573
 30
0.0
 11
19.34358719945696
 21
1640.595941269135
 31
0.0
  0
LINE
  5
36E
330
1F
100
AcDbEntity
  8
Make2D$可见线$普通线
100
AcDbLine
 10
19.2819675136444
 20
1640.657560954948
 30
0.0
 11
19.27355279575419
 21
1640.665975672838
 31
0.0
  0
LINE
  5
36F
330
1F
100
AcDbEntity
  8
Make2D$可见线$普通线
100
AcDbLine
 10
19.21927917002459
 20
1640.720249298568
 30
0.0
 11
19.21101070730288
 21
1640.728517761289
 31
0.0
  0
LINE
  5
370
330
1F
100
AcDbEntity
  8
Make2D$可见线$普通线
100
AcDbLine
 10
19.16444448816327
 20
1640.775083980428
 30
0.0
 11
19.03122414506448
 21
1640.908304323528
 31
0.0
  0
ARC
  5
371
330
1F
100
AcDbEntity
  8
Make2D$可见线$普通线
100
AcDbCircle
 10
19.3844733782155
 20
1641.262263295369
 30
0.0
 40
0.5000717225976572
100
AcDbArc
 50
135.0082170368589
 51
225.0082124446894
  0
ARC
  5
372
330
1F
100
AcDbEntity
  8
Make2D$可见线$普通线
100
AcDbCircle
 10
67.46804425877747
 20
1598.128315531522
 30
0.0
 40
0.9999789667575669
100
AcDbArc
 50
239.7062221283299
 51
315.0009289212147
  0
LINE
  5
373
330
1F
100
AcDbEntity
  8
Make2D$可见线$普通线
100
AcDbLine
 10
66.96133961964308
 20
1597.2662606861
 30
0.0
 11
66.87741814310877
 21
1597.313662167881
 31
0.0
  0
SPLINE
  5
374
330
1F
100
AcDbEntity
  8
Make2D$可见线$普通线
100
AcDbSpline
210
0.0
220
0.0
230
1.0
 70
     8
 71
     3
 72
    11
 73
     7
 74
     0
 42
0.000000001
 43
0.0000000001
 12
1.0
 22
0.0
 32
0.0
 13
1.0
 23
0.0
 33
0.0
 40
0.0
 40
0.0
 40
0.0
 40
0.0
 40
0.0179621201185543
 40
0.0414919226205871
 40
0.0547801208340704
 40
0.0913033217037637
 40
0.0913033217037637
 40
0.0913033217037637
 40
0.0913033217037637
 10
66.88108636036566
 20
1597.318721951159
 30
0.0
 10
66.87583560151624
 20
1597.322579810349
 30
0.0
 10
66.86680846583765
 20
1597.329048971622
 30
0.0
 10
66.84648871394889
 20
1597.344976859007
 30
0.0
 10
66.8576807619052
 20
1597.3361601652
 30
0.0
 10
66.82545548814764
 20
1597.361645575336
 30
0.0
 10
66.82239139301389
 20
1597.364291517668
 30
0.0
  0
LINE
  5
375
330
1F
100
AcDbEntity
  8
Make2D$可见线$普通线
100
AcDbLine
 10
66.82259666613663
 20
1597.364534434528
 30
0.0
 11
66.76093187580909
 21
1597.421237279902
 31
0.0
  0
LINE
  5
376
330
1F
100
AcDbEntity
  8
Make2D$可见线$普通线
100
AcDbLine
 10
66.76093402295828
 20
1597.421235132753
 30
0.0
 11
64.42859959834982
 21
1599.753569557362
 31
0.0
  0
LINE
  5
377
330
1F
100
AcDbEntity
  8
Make2D$可见线$普通线
100
AcDbLine
 10
2.625226721733499
 20
1661.556942433978
 30
0.0
 11
0.2928944442575152
 21
1663.889274711454
 31
0.0
  0
ARC
  5
378
330
1F
100
AcDbEntity
  8
Make2D$可见线$普通线
100
AcDbCircle
 10
1.000002005216522
 20
1664.596383685459
 30
0.0
 40
1.000002101939448
100
AcDbArc
 50
135.0001204320003
 51
225.0000572496592
  0
LINE
  5
379
330
1F
100
AcDbEntity
  8
Make2D$可见线$普通线
100
AcDbLine
 10
68.88225221936864
 20
1598.128344061089
 30
0.0
 11
68.17514543818197
 21
1597.421237279902
 31
0.0
  0
LINE
  5
37A
330
1F
100
AcDbEntity
  8
Make2D$可见线$普通线
100
AcDbLine
 10
1.000001225460437
 20
1666.010595054998
 30
0.0
 11
0.2928944442737702
 21
1665.303488273811
 31
0.0
  0
ARC
  5
37B
330
1F
100
AcDbEntity
  8
Make2D$可见线$普通线
100
AcDbCircle
 10
76.66042681241476
 20
1604.492305091763
 30
0.0
 40
1.000000000008051
100
AcDbArc
 50
23.40183901649355
 51
41.38713055121823
  0
ARC
  5
37C
330
1F
100
AcDbEntity
  8
Make2D$可见线$普通线
100
AcDbCircle
 10
76.66042820565634
 20
1604.492301900735
 30
0.0
 40
0.9999999887818705
100
AcDbArc
 50
315.0000728363815
 51
23.40203851489651
  0
LINE
  5
37D
330
1F
100
AcDbEntity
  8
Make2D$可见线$普通线
100
AcDbLine
 10
77.36753359362422
 20
1605.199411872938
 30
0.0
 11
77.35025348604105
 21
1605.216691980521
 31
0.0
  0
LINE
  5
37E
330
1F
100
AcDbEntity
  8
Make2D$可见线$普通线
100
AcDbLine
 10
77.32924639132484
 20
1605.237699075237
 30
0.0
 11
77.32141137192285
 21
1605.245534094639
 31
0.0
  0
LINE
  5
37F
330
1F
100
AcDbEntity
  8
Make2D$可见线$普通线
100
AcDbLine
 10
77.28107452832089
 20
1605.28587093824
 30
0.0
 11
77.27325041112944
 21
1605.293695055432
 31
0.0
  0
LINE
  5
380
330
1F
100
AcDbEntity
  8
Make2D$可见线$普通线
100
AcDbLine
 10
77.21366632017147
 20
1605.35327914639
 30
0.0
 11
77.20585746329203
 21
1605.361088003269
 31
0.0
  0
LINE
  5
381
330
1F
100
AcDbEntity
  8
Make2D$可见线$普通线
100
AcDbLine
 10
77.12710862813599
 20
1605.439836838426
 30
0.0
 11
77.11931937095216
 21
1605.447626095609
 31
0.0
  0
LINE
  5
382
330
1F
100
AcDbEntity
  8
Make2D$可见线$普通线
100
AcDbLine
 10
77.02148832781306
 20
1605.545457138748
 30
0.0
 11
77.01372298199566
 21
1605.553222484566
 31
0.0
  0
LINE
  5
383
330
1F
100
AcDbEntity
  8
Make2D$可见线$普通线
100
AcDbLine
 10
76.89689228822884
 20
1605.670053178333
 30
0.0
 11
76.88915514807236
 21
1605.677790318489
 31
0.0
  0
LINE
  5
384
330
1F
100
AcDbEntity
  8
Make2D$可见线$普通线
100
AcDbLine
 10
76.75340737877048
 20
1605.813538087791
 30
0.0
 11
76.745702720079
 21
1605.821242746483
 31
0.0
  0
LINE
  5
385
330
1F
100
AcDbEntity
  8
Make2D$可见线$普通线
100
AcDbLine
 10
76.59112046894377
 20
1605.975824997618
 30
0.0
 11
76.58345254820904
 21
1605.983492918352
 31
0.0
  0
LINE
  5
386
330
1F
100
AcDbEntity
  8
Make2D$可见线$普通线
100
AcDbLine
 10
76.410118428305
 20
1606.156827038256
 30
0.0
 11
76.40249148242177
 21
1606.16445398414
 31
0.0
  0
LINE
  5
387
330
1F
100
AcDbEntity
  8
Make2D$可见线$普通线
100
AcDbLine
 10
76.21048812642945
 20
1606.356457340132
 30
0.0
 11
76.2029063726157
 21
1606.364039093946
 31
0.0
  0
LINE
  5
388
330
1F
100
AcDbEntity
  8
Make2D$可见线$普通线
100
AcDbLine
 10
75.99231643096527
 20
1606.574629035597
 30
0.0
 11
75.98478406868053
 21
1606.582161397881
 31
0.0
  0
LINE
  5
389
330
1F
100
AcDbEntity
  8
Make2D$可见线$普通线
100
AcDbLine
 10
75.75569023025673
 20
1606.811255236305
 30
0.0
 11
75.74821142051782
 21
1606.818734046043
 31
0.0
  0
LINE
  5
38A
330
1F
100
AcDbEntity
  8
Make2D$可见线$普通线
100
AcDbLine
 10
75.50069635455549
 20
1607.066249112006
 30
0.0
 11
75.49327527803668
 21
1607.073670188525
 31
0.0
  0
LINE
  5
38B
330
1F
100
AcDbEntity
  8
Make2D$可见线$普通线
100
AcDbLine
 10
75.22742169955717
 20
1607.339523767005
 30
0.0
 11
75.22006249115269
 21
1607.346882975409
 31
0.0
  0
LINE
  5
38C
330
1F
100
AcDbEntity
  8
Make2D$可见线$普通线
100
AcDbLine
 10
10.21854013978049
 20
1672.348405326781
 30
0.0
 11
10.21118093137511
 21
1672.355764535186
 31
0.0
  0
LINE
  5
38D
330
1F
100
AcDbEntity
  8
Make2D$可见线$普通线
100
AcDbLine
 10
9.94532735289704
 20
1672.621618113665
 30
0.0
 11
9.937906276376635
 21
1672.629039190185
 31
0.0
  0
LINE
  5
38E
330
1F
100
AcDbEntity
  8
Make2D$可见线$普通线
100
AcDbLine
 10
9.690391210415033
 20
1672.876554256147
 30
0.0
 11
9.682912400675677
 21
1672.884033065886
 31
0.0
  0
LINE
  5
38F
330
1F
100
AcDbEntity
  8
Make2D$可见线$普通线
100
AcDbLine
 10
9.453818562252168
 20
1673.11312690431
 30
0.0
 11
9.446286199967671
 21
1673.120659266594
 31
0.0
  0
LINE
  5
390
330
1F
100
AcDbEntity
  8
Make2D$可见线$普通线
100
AcDbLine
 10
9.235696258318159
 20
1673.331249208244
 30
0.0
 11
9.228114504503479
 21
1673.338830962058
 31
0.0
  0
LINE
  5
391
330
1F
100
AcDbEntity
  8
Make2D$可见线$普通线
100
AcDbLine
 10
9.036111148510741
 20
1673.530834318051
 30
0.0
 11
9.0284842026273
 21
1673.538461263935
 31
0.0
  0
LINE
  5
392
330
1F
100
AcDbEntity
  8
Make2D$可见线$普通线
100
AcDbLine
 10
8.855150082723487
 20
1673.711795383838
 30
0.0
 11
8.847482161988752
 21
1673.719463304573
 31
0.0
  0
LINE
  5
393
330
1F
100
AcDbEntity
  8
Make2D$可见线$普通线
100
AcDbLine
 10
8.692899910854218
 20
1673.874045555708
 30
0.0
 11
8.685195252162298
 21
1673.8817502144
 31
0.0
  0
LINE
  5
394
330
1F
100
AcDbEntity
  8
Make2D$可见线$普通线
100
AcDbLine
 10
8.549447482860831
 20
1674.017497983701
 30
0.0
 11
8.541710342703906
 21
1674.025235123858
 31
0.0
  0
LINE
  5
395
330
1F
100
AcDbEntity
  8
Make2D$可见线$普通线
100
AcDbLine
 10
8.424879648937303
 20
1674.142065817624
 30
0.0
 11
8.417114303119675
 21
1674.149831163442
 31
0.0
  0
LINE
  5
396
330
1F
100
AcDbEntity
  8
Make2D$可见线$普通线
100
AcDbLine
 10
8.319283259981018
 20
1674.247662206581
 30
0.0
 11
8.311494002796742
 21
1674.255451463765
 31
0.0
  0
LINE
  5
397
330
1F
100
AcDbEntity
  8
Make2D$可见线$普通线
100
AcDbLine
 10
8.232745167640912
 20
1674.334200298921
 30
0.0
 11
8.224936310761475
 21
1674.3420091558
 31
0.0
  0
LINE
  5
398
330
1F
100
AcDbEntity
  8
Make2D$可见线$普通线
100
AcDbLine
 10
8.165352219803944
 20
1674.401593246757
 30
0.0
 11
8.15752810261227
 21
1674.409417363949
 31
0.0
  0
LINE
  5
399
330
1F
100
AcDbEntity
  8
Make2D$可见线$普通线
100
AcDbLine
 10
8.117191259010578
 20
1674.449754207551
 30
0.0
 11
8.109356239608354
 21
1674.457589226953
 31
0.0
  0
LINE
  5
39A
330
1F
100
AcDbEntity
  8
Make2D$可见线$普通线
100
AcDbLine
 10
8.088349144891911
 20
1674.47859632167
 30
0.0
 11
8.07106903730857
 21
1674.495876429253
 31
0.0
  0
SPLINE
  5
39B
330
1F
100
AcDbEntity
  8
Make2D$可见线$普通线
100
AcDbSpline
210
0.0
220
0.0
230
1.0
 70
     8
 71
     3
 72
    20
 73
    16
 74
     0
 42
0.000000001
 43
0.0000000001
 12
1.0
 22
0.0
 32
0.0
 13
1.0
 23
0.0
 33
0.0
 40
0.0
 40
0.0
 40
0.0
 40
0.0
 40
0.1578277680120596
 40
0.3533523672583964
 40
0.7455868863879486
 40
1.091281018401508
 40
1.256860029742516
 40
1.312626388809168
 40
1.329903585357076
 40
1.337682222842784
 40
1.340728191814841
 40
1.349680586036424
 40
1.350082259963438
 40
1.354291051230991
 40
1.521267984995527
 40
1.521267984995527
 40
1.521267984995527
 40
1.521267984995527
 10
6.656853190751463
 20
1674.495878713437
 30
0.0
 10
6.693927655874492
 20
1674.533190725247
 30
0.0
 10
6.784155691903478
 20
1674.609595289642
 30
0.0
 10
6.999057767022066
 20
1674.736338286833
 30
0.0
 10
7.308310996897632
 20
1674.809938555746
 30
0.0
 10
7.610175773592329
 20
1674.769975592704
 30
0.0
 10
7.787112257325451
 20
1674.697142715179
 30
0.0
 10
7.855015637607897
 20
1674.660223631627
 30
0.0
 10
7.882018411432367
 20
1674.644158131986
 30
0.0
 10
7.878292056241572
 20
1674.646286836258
 30
0.0
 10
7.873684335906275
 20
1674.649199220523
 30
0.0
 10
7.889802781760205
 20
1674.639423516132
 30
0.0
 10
7.881074040303535
 20
1674.644636819052
 30
0.0
 10
7.925216098825072
 20
1674.618512340812
 30
0.0
 10
7.978745012472092
 20
1674.58649080617
 30
0.0
 10
8.025232535631622
 20
1674.559061844608
 30
0.0
  0
LINE
  5
39C
330
1F
100
AcDbEntity
  8
Make2D$可见线$普通线
100
AcDbLine
 10
7.980395868908359
 20
1674.576149203878
 30
0.0
 11
8.021037451468803
 21
1674.543104369503
 31
0.0
  0
LINE
  5
39D
330
1F
100
AcDbEntity
  8
Make2D$可见线$普通线
100
AcDbLine
 10
7.995425588517734
 20
1674.562772568812
 30
0.0
 11
7.984156877895362
 21
1674.57172322822
 31
0.0
  0
LINE
  5
39E
330
1F
100
AcDbEntity
  8
Make2D$可见线$普通线
100
AcDbLine
 10
8.020785197492675
 20
1674.542814779036
 30
0.0
 11
8.071069037325742
 21
1674.495876429236
 31
0.0
  0
SPLINE
  5
39F
330
1F
100
AcDbEntity
  8
Make2D$可见线$普通线
100
AcDbSpline
210
0.0
220
0.0
230
1.0
 70
     8
 71
     3
 72
    20
 73
    16
 74
     0
 42
0.000000001
 43
0.0000000001
 12
1.0
 22
0.0
 32
0.0
 13
1.0
 23
0.0
 33
0.0
 40
0.0
 40
0.0
 40
0.0
 40
0.0
 40
0.1578277680123175
 40
0.3533523672588444
 40
0.7455868863881655
 40
1.091281018401963
 40
1.256860029742409
 40
1.312626388812863
 40
1.329903585364612
 40
1.337682222846397
 40
1.340728191822177
 40
1.349680586038408
 40
1.350082259963118
 40
1.354291051227368
 40
1.521267982855035
 40
1.521267982855035
 40
1.521267982855035
 40
1.521267982855035
 10
71.00357484712958
 20
1597.421234995701
 30
0.0
 10
70.96650038200674
 20
1597.383922983897
 30
0.0
 10
70.87627234597751
 20
1597.307518419491
 30
0.0
 10
70.66137027085864
 20
1597.180775422309
 30
0.0
 10
70.35211704098381
 20
1597.10717515339
 30
0.0
 10
70.05025226428778
 20
1597.147138116438
 30
0.0
 10
69.8733157805554
 20
1597.219970993959
 30
0.0
 10
69.80541240026825
 20
1597.256890077512
 30
0.0
 10
69.77840962644783
 20
1597.27295557715
 30
0.0
 10
69.78213598162344
 20
1597.270826872889
 30
0.0
 10
69.78674370198542
 20
1597.267914488604
 30
0.0
 10
69.7706252560587
 20
1597.277690193051
 30
0.0
 10
69.77935399762565
 20
1597.272476890047
 30
0.0
 10
69.7352119389754
 20
1597.298601368571
 30
0.0
 10
69.68168302692018
 20
1597.330622901771
 30
0.0
 10
69.63519550414554
 20
1597.358051863572
 30
0.0
  0
LINE
  5
3A0
330
1F
100
AcDbEntity
  8
Make2D$可见线$普通线
100
AcDbLine
 10
69.68003216805387
 20
1597.340964506004
 30
0.0
 11
69.63939058638351
 21
1597.37400933966
 31
0.0
  0
LINE
  5
3A1
330
1F
100
AcDbEntity
  8
Make2D$可见线$普通线
100
AcDbLine
 10
69.66500244944037
 20
1597.354341140269
 30
0.0
 11
69.67627116005488
 21
1597.345390480867
 31
0.0
  0
LINE
  5
3A2
330
1F
100
AcDbEntity
  8
Make2D$可见线$普通线
100
AcDbLine
 10
69.63964284046375
 20
1597.374298930037
 30
0.0
 11
69.5893590005553
 21
1597.421237279902
 31
0.0
  0
LINE
  5
3A3
330
1F
100
AcDbEntity
  8
Make2D$可见线$普通线
100
AcDbLine
 10
69.58935900057226
 20
1597.421237279885
 30
0.0
 11
68.21414183791367
 21
1598.796454442544
 31
0.0
  0
LINE
  5
3A4
330
1F
100
AcDbEntity
  8
Make2D$可见线$普通线
100
AcDbLine
 10
67.7225217615043
 20
1599.288074518953
 30
0.0
 11
67.15777854107746
 21
1599.85281773938
 31
0.0
  0
LINE
  5
3A5
330
1F
100
AcDbEntity
  8
Make2D$可见线$普通线
100
AcDbLine
 10
2.724474903752478
 20
1664.286121376705
 30
0.0
 11
2.159731683324727
 21
1664.850864597133
 31
0.0
  0
LINE
  5
3A6
330
1F
100
AcDbEntity
  8
Make2D$可见线$普通线
100
AcDbLine
 10
1.668111606916081
 20
1665.342484673541
 30
0.0
 11
0.2928944442561412
 21
1666.717701836201
 31
0.0
  0
ARC
  5
3A7
330
1F
100
AcDbEntity
  8
Make2D$可见线$普通线
100
AcDbCircle
 10
1.00000203770537
 20
1667.424810901573
 30
0.0
 40
1.000002189519393
100
AcDbArc
 50
135.0001254499458
 51
225.0000596350862
  0
LINE
  5
3A8
330
1F
100
AcDbEntity
  8
Make2D$可见线$普通线
100
AcDbLine
 10
77.36753359360728
 20
1603.785198310581
 30
0.0
 11
71.00357256292864
 21
1597.421237279902
 31
0.0
  0
LINE
  5
3A9
330
1F
100
AcDbEntity
  8
Make2D$可见线$普通线
100
AcDbLine
 10
6.656855474952408
 20
1674.495876429236
 30
0.0
 11
0.2928944442737702
 21
1668.131915398557
 31
0.0
  0
ARC
  5
3AA
330
1F
100
AcDbEntity
  8
Make2D$可见线$普通线
100
AcDbCircle
 10
79.11202655409602
 20
1604.118787439543
 30
0.0
 40
1.000000000004756
100
AcDbArc
 50
39.80646883605397
 51
135.5138520486758
  0
ARC
  5
3AB
330
1F
100
AcDbEntity
  8
Make2D$可见线$普通线
100
AcDbCircle
 10
85.43394893000782
 20
1664.127859976513
 30
0.0
 40
0.9999999961037227
100
AcDbArc
 50
210.7484417632276
 51
217.1951594213047
  0
SPLINE
  5
3AC
330
1F
100
AcDbEntity
  8
Make2D$可见线$普通线
100
AcDbSpline
210
0.0
220
0.0
230
1.0
 70
    12
 71
     2
 72
    12
 73
     9
 74
     0
 42
0.000000001
 43
0.0000000001
 12
1.0
 22
0.0
 32
0.0
 13
1.0
 23
0.0
 33
0.0
 40
0.0
 40
0.0
 40
0.0
 40
18.51782846643565
 40
18.51782846643565
 40
38.37949086641942
 40
38.37949086641942
 40
57.98331391803162
 40
57.98331391803162
 40
75.95477495397101
 40
75.95477495397101
 40
75.95477495397101
 10
76.66042681242061
 20
1673.788769648049
 30
0.0
 41
1.0
 10
70.04514533310973
 20
1680.408568770924
 30
0.0
 41
0.9840961657783466
 10
61.532917715867
 20
1684.297742265379
 30
0.0
 41
1.0
 10
52.38405368146033
 20
1688.486048077787
 30
0.0
 41
0.9805617623414637
 10
42.32799477753913
 20
1688.831443531116
 30
0.0
 41
1.0
 10
32.39316502495393
 20
1689.173715958574
 30
0.0
 41
0.9791849958026693
 10
23.14085068580813
 20
1685.538792025795
 30
0.0
 41
1.0
 10
14.6735189524611
 20
1682.205028457867
 30
0.0
 41
0.9812731424037228
 10
8.094772003212057
 20
1675.917757604219
 30
0.0
 41
1.0
  0
ARC
  5
3AD
330
1F
100
AcDbEntity
  8
Make2D$可见线$普通线
100
AcDbCircle
 10
39.91863846903158
 20
1637.038376150464
 30
0.0
 40
51.9668205001785
100
AcDbArc
 50
30.78320757877248
 51
45.00670872741716
  0
ARC
  5
3AE
330
1F
100
AcDbEntity
  8
Make2D$可见线$普通线
100
AcDbCircle
 10
40.15665961821152
 20
1637.192370671969
 30
0.0
 40
51.68352220485981
100
AcDbArc
 50
30.7542124732348
 51
30.75721836048227
  0
ARC
  5
3AF
330
1F
100
AcDbEntity
  8
Make2D$可见线$普通线
100
AcDbCircle
 10
151.6604268124157
 20
1449.78894148938
 30
0.0
 40
2.00000000003388
100
AcDbArc
 50
270.0000000001401
 51
280.5006012751871
  0
ARC
  5
3B0
330
1F
100
AcDbEntity
  8
Make2D$可见线$普通线
100
AcDbCircle
 10
151.6607962419996
 20
1449.788963263153
 30
0.0
 40
2.000021773924862
100
AcDbArc
 50
269.9993785413448
 51
359.9993762331613
  0
LINE
  5
3B1
330
1F
100
AcDbEntity
  8
Make2D$可见线$普通线
100
AcDbLine
 10
151.6604268123979
 20
1447.788941489346
 30
0.0
 11
151.4999409873122
 21
1447.788941489346
 31
0.0
  0
LINE
  5
3B2
330
1F
100
AcDbEntity
  8
Make2D$可见线$普通线
100
AcDbLine
 10
151.4924684971134
 20
1447.788941489346
 30
0.0
 11
151.3432288160394
 21
1447.788941489346
 31
0.0
  0
LINE
  5
3B3
330
1F
100
AcDbEntity
  8
Make2D$可见线$普通线
100
AcDbLine
 10
150.9527721209693
 20
1447.788941489346
 30
0.0
 11
150.7943734166413
 21
1447.788941489346
 31
0.0
  0
LINE
  5
3B4
330
1F
100
AcDbEntity
  8
Make2D$可见线$普通线
100
AcDbLine
 10
150.7038282961457
 20
1447.788941489346
 30
0.0
 11
150.4941297585685
 21
1447.788941489346
 31
0.0
  0
LINE
  5
3B5
330
1F
100
AcDbEntity
  8
Make2D$可见线$普通线
100
AcDbLine
 10
150.4196675654867
 20
1447.788941489346
 30
0.0
 11
150.3264045315922
 21
1447.788941489346
 31
0.0
  0
LINE
  5
3B6
330
1F
100
AcDbEntity
  8
Make2D$可见线$普通线
100
AcDbLine
 10
150.10111522764
 20
1447.788941489346
 30
0.0
 11
149.4151050875644
 21
1447.788941489346
 31
0.0
  0
LINE
  5
3B7
330
1F
100
AcDbEntity
  8
Make2D$可见线$普通线
100
AcDbLine
 10
149.3804071206362
 20
1447.788941489346
 30
0.0
 11
149.1347537846256
 21
1447.788941489346
 31
0.0
  0
LINE
  5
3B8
330
1F
100
AcDbEntity
  8
Make2D$可见线$普通线
100
AcDbLine
 10
148.9473218340002
 20
1447.788941489346
 30
0.0
 11
148.9283970051528
 21
1447.788941489346
 31
0.0
  0
LINE
  5
3B9
330
1F
100
AcDbEntity
  8
Make2D$可见线$普通线
100
AcDbLine
 10
148.2914969866668
 20
1447.788941489346
 30
0.0
 11
146.9773706071577
 21
1447.788941489346
 31
0.0
  0
LINE
  5
3BA
330
1F
100
AcDbEntity
  8
Make2D$可见线$普通线
100
AcDbLine
 10
133.4951870170117
 20
1447.788941489346
 30
0.0
 11
133.0780112812135
 21
1447.788941489346
 31
0.0
  0
LINE
  5
3BB
330
1F
100
AcDbEntity
  8
Make2D$可见线$普通线
100
AcDbLine
 10
131.9733506902628
 20
1447.788941489346
 30
0.0
 11
131.8256666078293
 21
1447.788941489346
 31
0.0
  0
LINE
  5
3BC
330
1F
100
AcDbEntity
  8
Make2D$可见线$普通线
100
AcDbLine
 10
118.3434830176706
 20
1447.788941489345
 30
0.0
 11
117.0293566381738
 21
1447.788941489345
 31
0.0
  0
LINE
  5
3BD
330
1F
100
AcDbEntity
  8
Make2D$可见线$普通线
100
AcDbLine
 10
116.3924566196878
 20
1447.788941489345
 30
0.0
 11
116.3735317908111
 21
1447.788941489345
 31
0.0
  0
LINE
  5
3BE
330
1F
100
AcDbEntity
  8
Make2D$可见线$普通线
100
AcDbLine
 10
116.1860998402149
 20
1447.788941489345
 30
0.0
 11
115.9404465042139
 21
1447.788941489345
 31
0.0
  0
LINE
  5
3BF
330
1F
100
AcDbEntity
  8
Make2D$可见线$普通线
100
AcDbLine
 10
115.905748537277
 20
1447.788941489346
 30
0.0
 11
115.2197403833476
 21
1447.788941489346
 31
0.0
  0
LINE
  5
3C0
330
1F
100
AcDbEntity
  8
Make2D$可见线$普通线
100
AcDbLine
 10
114.9944490932485
 20
1447.788941489346
 30
0.0
 11
114.9011860593316
 21
1447.788941489346
 31
0.0
  0
LINE
  5
3C1
330
1F
100
AcDbEntity
  8
Make2D$可见线$普通线
100
AcDbLine
 10
114.826723866272
 20
1447.788941489346
 30
0.0
 11
114.6170253286763
 21
1447.788941489346
 31
0.0
  0
LINE
  5
3C2
330
1F
100
AcDbEntity
  8
Make2D$可见线$普通线
100
AcDbLine
 10
114.5264802082013
 20
1447.788941489346
 30
0.0
 11
114.3680815038566
 21
1447.788941489346
 31
0.0
  0
LINE
  5
3C3
330
1F
100
AcDbEntity
  8
Make2D$可见线$普通线
100
AcDbLine
 10
113.9776248088018
 20
1447.788941489346
 30
0.0
 11
113.8283851277487
 21
1447.788941489346
 31
0.0
  0
LINE
  5
3C4
330
1F
100
AcDbEntity
  8
Make2D$可见线$普通线
100
AcDbLine
 10
113.8209126375299
 20
1447.788941489346
 30
0.0
 11
113.6604268124195
 21
1447.788941489346
 31
0.0
  0
ARC
  5
3C5
330
1F
100
AcDbEntity
  8
Make2D$可见线$普通线
100
AcDbCircle
 10
113.6600573935825
 20
1449.788963273895
 30
0.0
 40
2.000021784666821
100
AcDbArc
 50
180.0006240745819
 51
270.0006211509786
  0
LINE
  5
3C6
330
1F
100
AcDbEntity
  8
Make2D$可见线$普通线
100
AcDbLine
 10
153.6604268124202
 20
1502.945971252781
 30
0.0
 11
153.6604268124207
 21
1449.788941489346
 31
0.0
  0
LINE
  5
3C7
330
1F
100
AcDbEntity
  8
Make2D$可见线$普通线
100
AcDbLine
 10
111.6604268124202
 20
1449.788941489346
 30
0.0
 11
111.6604268124197
 21
1502.945971252781
 31
0.0
  0
SPLINE
  5
3C8
330
1F
100
AcDbEntity
  8
Make2D$可见线$普通线
100
AcDbSpline
210
0.0
220
0.0
230
1.0
 70
     8
 71
     3
 72
    17
 73
    13
 74
     0
 42
0.000000001
 43
0.0000000001
 12
1.0
 22
0.0
 32
0.0
 13
1.0
 23
0.0
 33
0.0
 40
0.0
 40
0.0
 40
0.0
 40
0.0
 40
0.1133690700090322
 40
0.2276286568545897
 40
0.4601612240085446
 40
0.6712225702745452
 40
0.7630330711550829
 40
0.7891767954809973
 40
0.8056898579319922
 40
0.8176266656870573
 40
0.8282506410086339
 40
0.9474732344956437
 40
0.9474732344956437
 40
0.9474732344956437
 40
0.9474732344956437
 10
78.32801266413635
 20
1604.949073303829
 30
0.0
 10
78.29155132793191
 20
1604.939185678549
 30
0.0
 10
78.2171390923946
 20
1604.923562934293
 30
0.0
 10
78.06425148454242
 20
1604.909113312351
 30
0.0
 10
77.87748765089387
 20
1604.924084827123
 30
0.0
 10
77.70634405759395
 20
1604.977234657847
 30
0.0
 10
77.60736149320739
 20
1605.025446546035
 30
0.0
 10
77.56866259680363
 20
1605.047158941135
 30
0.0
 10
77.55089441593279
 20
1605.057688608901
 30
0.0
 10
77.55837551815415
 20
1605.053311242332
 30
0.0
 10
77.53082820931752
 20
1605.069398665981
 30
0.0
 10
77.48399311773572
 20
1605.096879924181
 30
0.0
 10
77.45227865856569
 20
1605.115016490589
 30
0.0
  0
LINE
  5
3C9
330
1F
100
AcDbEntity
  8
Make2D$可见线$普通线
100
AcDbLine
 10
77.43868579283415
 20
1605.136238073075
 30
0.0
 11
77.41349290749143
 21
1605.15673204916
 31
0.0
  0
ARC
  5
3CA
330
1F
100
AcDbEntity
  8
Make2D$可见线$普通线
100
AcDbCircle
 10
77.28036090923047
 20
1604.896995184243
 30
0.0
 40
0.2859251238693518
100
AcDbArc
 50
51.6899274355612
 51
52.91560279744982
  0
LINE
  5
3CB
330
1F
100
AcDbEntity
  8
Make2D$可见线$普通线
100
AcDbLine
 10
77.4465604326015
 20
1605.129946595282
 30
0.0
 11
77.43868579302479
 21
1605.136238073312
 31
0.0
  0
LINE
  5
3CC
330
1F
100
AcDbEntity
  8
Make2D$可见线$普通线
100
AcDbLine
 10
77.41380275051522
 20
1605.156998897529
 30
0.0
 11
77.36774109931198
 21
1605.199631147254
 31
0.0
  0
ARC
  5
3CD
330
1F
100
AcDbEntity
  8
Make2D$可见线$普通线
100
AcDbCircle
 10
8.786019506190415
 20
1675.195139524052
 30
0.0
 40
1.000000000929346
100
AcDbArc
 50
219.8982728863966
 51
220.4427315278554
  0
ARC
  5
3CE
330
1F
100
AcDbEntity
  8
Make2D$可见线$普通线
100
AcDbCircle
 10
8.78601950545847
 20
1675.195139523468
 30
0.0
 40
0.9999999999930976
100
AcDbArc
 50
203.1238755483482
 51
218.0533885041772
  0
ARC
  5
3CF
330
1F
100
AcDbEntity
  8
Make2D$可见线$普通线
100
AcDbCircle
 10
8.786018107330547
 20
1675.195142704712
 30
0.0
 40
0.9999999635394556
100
AcDbArc
 50
133.729012994171
 51
203.124074635742
  0
ARC
  5
3D0
330
1F
100
AcDbEntity
  8
Make2D$可见线$普通线
100
AcDbCircle
 10
-67.37434975344992
 20
1502.917324804772
 30
0.0
 40
221.0448468856994
100
AcDbArc
 50
33.86064322068296
 51
44.9988764405308
  0
ARC
  5
3D1
330
1F
100
AcDbEntity
  8
Make2D$可见线$普通线
100
AcDbCircle
 10
-67.37445843234441
 20
1502.94260247931
 30
0.0
 40
179.034885276458
100
AcDbArc
 50
0.0010780943710466
 51
11.1394285095456
  0
ARC
  5
3D2
330
1F
100
AcDbEntity
  8
Make2D$可见线$普通线
100
AcDbCircle
 10
-67.01700951349959
 20
1503.167498251623
 30
0.0
 40
178.6087216562799
100
AcDbArc
 50
33.85813993926818
 51
34.66715145249763
  0
ARC
  5
3D3
330
1F
100
AcDbEntity
  8
Make2D$可见线$普通线
100
AcDbCircle
 10
-67.52435140853105
 20
1502.847021406129
 30
0.0
 40
221.208580261
100
AcDbArc
 50
22.50538684997962
 51
33.85411674308839
  0
ARC
  5
3D4
330
1F
100
AcDbEntity
  8
Make2D$可见线$普通线
100
AcDbCircle
 10
-67.48923518555
 20
1502.865826354356
 30
0.0
 40
179.1689405733966
100
AcDbArc
 50
22.50538684998082
 51
33.85411674308877
  0
ARC
  5
3D5
330
1F
100
AcDbEntity
  8
Make2D$可见线$普通线
100
AcDbCircle
 10
-67.54461981297393
 20
1502.883942660958
 30
0.0
 40
221.2131766982043
100
AcDbArc
 50
11.14602951334279
 51
22.49454284338249
  0
ARC
  5
3D6
330
1F
100
AcDbEntity
  8
Make2D$可见线$普通线
100
AcDbCircle
 10
-67.50565167606263
 20
1502.895730900117
 30
0.0
 40
179.1726634795838
100
AcDbArc
 50
11.14602951334354
 51
22.49454284338066
  0
ARC
  5
3D7
330
1F
100
AcDbEntity
  8
Make2D$可见线$普通线
100
AcDbCircle
 10
-67.38264379704158
 20
1502.941812040839
 30
0.0
 40
221.0430706485922
100
AcDbArc
 50
0.0010780943720064
 51
11.13942850954634
  0
LINE
  5
3D8
330
1F
100
AcDbEntity
  8
Make2D$可见线$普通线
100
AcDbLine
 10
84.47941270114588
 20
1663.668182648511
 30
0.0
 11
88.93102545464762
 21
1659.216569895009
 31
0.0
  0
LINE
  5
3D9
330
1F
100
AcDbEntity
  8
Make2D$可见线$普通线
100
AcDbLine
 10
117.6604268124206
 20
1671.792689821466
 30
0.0
 11
117.6604268124206
 21
1623.842440584146
 31
0.0
  0
LINE
  5
3DA
330
1F
100
AcDbEntity
  8
Make2D$可见线$普通线
100
AcDbLine
 10
117.6604268124206
 20
1393.808093493031
 30
0.0
 11
117.6604268124206
 21
1260.788769648049
 31
0.0
  0
LINE
  5
3DB
330
1F
100
AcDbEntity
  8
Make2D$可见线$普通线
100
AcDbLine
 10
117.6604268124206
 20
1230.788769648049
 30
0.0
 11
117.6604268124206
 21
1121.788769648049
 31
0.0
  0
LINE
  5
3DC
330
1F
100
AcDbEntity
  8
Make2D$可见线$普通线
100
AcDbLine
 10
147.6604268124206
 20
1671.791726585438
 30
0.0
 11
147.6604268124206
 21
1554.09064507031
 31
0.0
  0
LINE
  5
3DD
330
1F
100
AcDbEntity
  8
Make2D$可见线$普通线
100
AcDbLine
 10
147.6604268124206
 20
1393.807258226338
 30
0.0
 11
147.6604268124206
 21
1260.788769648049
 31
0.0
  0
LINE
  5
3DE
330
1F
100
AcDbEntity
  8
Make2D$可见线$普通线
100
AcDbLine
 10
147.6604268124206
 20
1230.788769648049
 30
0.0
 11
147.6604268124206
 21
1121.78581271066
 31
0.0
  0
LINE
  5
3DF
330
1F
100
AcDbEntity
  8
Make2D$可见线$普通线
100
AcDbLine
 10
144.6184084547376
 20
1260.78876964805
 30
0.0
 11
144.6604278581604
 21
1260.78876964805
 31
0.0
  0
LINE
  5
3E0
330
1F
100
AcDbEntity
  8
Make2D$可见线$普通线
100
AcDbLine
 10
148.3188987098089
 20
1260.78876964805
 30
0.0
 11
150.6348687673001
 21
1260.78876964805
 31
0.0
  0
ARC
  5
3E1
330
1F
100
AcDbEntity
  8
Make2D$可见线$普通线
100
AcDbCircle
 10
150.6606224136524
 20
1258.788747914067
 30
0.0
 40
2.000021734100147
100
AcDbArc
 50
0.0006226259430893
 51
90.00062259955772
  0
LINE
  5
3E2
330
1F
100
AcDbEntity
  8
Make2D$可见线$普通线
100
AcDbLine
 10
148.3188987098093
 20
1230.788769648049
 30
0.0
 11
150.6348687673006
 21
1230.788769648049
 31
0.0
  0
ARC
  5
3E3
330
1F
100
AcDbEntity
  8
Make2D$可见线$普通线
100
AcDbCircle
 10
150.6606224136438
 20
1232.78879138204
 30
0.0
 40
2.000021734109025
100
AcDbArc
 50
269.9993774006914
 51
359.9993773737833
  0
ARC
  5
3E4
330
1F
100
AcDbEntity
  8
Make2D$可见线$普通线
100
AcDbCircle
 10
56.21247677484871
 20
1258.788574022433
 30
0.0
 40
2.000195635174659
100
AcDbArc
 50
89.99439842674879
 51
179.9943962870125
  0
LINE
  5
3E5
330
1F
100
AcDbEntity
  8
Make2D$可见线$普通线
100
AcDbLine
 10
56.21267232576796
 20
1260.78876964805
 30
0.0
 11
56.24921578387058
 21
1260.78876964805
 31
0.0
  0
LINE
  5
3E6
330
1F
100
AcDbEntity
  8
Make2D$可见线$普通线
100
AcDbLine
 10
56.39783346593261
 20
1260.78876964805
 30
0.0
 11
56.60277552929009
 21
1260.78876964805
 31
0.0
  0
LINE
  5
3E7
330
1F
100
AcDbEntity
  8
Make2D$可见线$普通线
100
AcDbLine
 10
56.91533338396165
 20
1260.788769648049
 30
0.0
 11
57.54647584165778
 21
1260.788769648049
 31
0.0
  0
LINE
  5
3E8
330
1F
100
AcDbEntity
  8
Make2D$可见线$普通线
100
AcDbLine
 10
57.61698370380569
 20
1260.78876964805
 30
0.0
 11
58.0715955122555
 21
1260.788769648049
 31
0.0
  0
ARC
  5
3E9
330
1F
100
AcDbEntity
  8
Make2D$可见线$普通线
100
AcDbCircle
 10
56.21247713037434
 20
1232.78896562926
 30
0.0
 40
2.000195990734858
100
AcDbArc
 50
180.0056138979657
 51
270.0055913881952
  0
LINE
  5
3EA
330
1F
100
AcDbEntity
  8
Make2D$可见线$普通线
100
AcDbLine
 10
56.21348806735782
 20
1230.788769648049
 30
0.0
 11
56.24921578387191
 21
1230.788769648049
 31
0.0
  0
LINE
  5
3EB
330
1F
100
AcDbEntity
  8
Make2D$可见线$普通线
100
AcDbLine
 10
56.39783346593302
 20
1230.788769648049
 30
0.0
 11
56.60277552929006
 21
1230.788769648049
 31
0.0
  0
LINE
  5
3EC
330
1F
100
AcDbEntity
  8
Make2D$可见线$普通线
100
AcDbLine
 10
56.91533338396166
 20
1230.788769648049
 30
0.0
 11
57.54647584165686
 21
1230.788769648049
 31
0.0
  0
LINE
  5
3ED
330
1F
100
AcDbEntity
  8
Make2D$可见线$普通线
100
AcDbLine
 10
57.61698370380661
 20
1230.788769648049
 30
0.0
 11
58.0715955122555
 21
1230.788769648049
 31
0.0
  0
LINE
  5
3EE
330
1F
100
AcDbEntity
  8
Make2D$可见线$普通线
100
AcDbLine
 10
152.6604268124206
 20
1232.788769648049
 30
0.0
 11
152.6604268124206
 21
1258.788769648049
 31
0.0
  0
LINE
  5
3EF
330
1F
100
AcDbEntity
  8
Make2D$可见线$普通线
100
AcDbLine
 10
54.214237035495
 20
1232.788769648049
 30
0.0
 11
54.214237035495
 21
1258.788769648049
 31
0.0
  0
LINE
  5
3F0
330
1F
100
AcDbEntity
  8
Make2D$可见线$普通线
100
AcDbLine
 10
112.6604268124207
 20
1110.934949391478
 30
0.0
 11
112.6604268124208
 21
1112.239803204539
 31
0.0
  0
LINE
  5
3F1
330
1F
100
AcDbEntity
  8
Make2D$可见线$普通线
100
AcDbLine
 10
112.6604268124208
 20
1112.24982977289
 30
0.0
 11
112.6604268124208
 21
1112.543327546653
 31
0.0
  0
LINE
  5
3F2
330
1F
100
AcDbEntity
  8
Make2D$可见线$普通线
100
AcDbLine
 10
112.6604268124208
 20
1112.555481963221
 30
0.0
 11
112.6604268124208
 21
1112.837518959158
 31
0.0
  0
LINE
  5
3F3
330
1F
100
AcDbEntity
  8
Make2D$可见线$普通线
100
AcDbLine
 10
112.6604268124208
 20
1112.851643373421
 30
0.0
 11
112.6604268124208
 21
1113.12224879948
 31
0.0
  0
LINE
  5
3F4
330
1F
100
AcDbEntity
  8
Make2D$可见线$普通线
100
AcDbLine
 10
112.6604268124208
 20
1113.138182194437
 30
0.0
 11
112.6604268124208
 21
1113.397388425045
 31
0.0
  0
LINE
  5
3F5
330
1F
100
AcDbEntity
  8
Make2D$可见线$普通线
100
AcDbLine
 10
112.6604268124209
 20
1113.414966617229
 30
0.0
 11
112.6604268124208
 21
1113.662809193279
 31
0.0
  0
LINE
  5
3F6
330
1F
100
AcDbEntity
  8
Make2D$可见线$普通线
100
AcDbLine
 10
112.6604268124208
 20
1113.681864832761
 30
0.0
 11
112.6604268124208
 21
1113.918382461607
 31
0.0
  0
LINE
  5
3F7
330
1F
100
AcDbEntity
  8
Make2D$可见线$普通线
100
AcDbLine
 10
112.6604268124208
 20
1113.938745032018
 30
0.0
 11
112.6604268124208
 21
1114.163979587454
 31
0.0
  0
LINE
  5
3F8
330
1F
100
AcDbEntity
  8
Make2D$可见线$普通线
100
AcDbLine
 10
112.6604268124208
 20
1114.185475406003
 30
0.0
 11
112.6604268124208
 21
1114.399471928248
 31
0.0
  0
LINE
  5
3F9
330
1F
100
AcDbEntity
  8
Make2D$可见线$普通线
100
AcDbLine
 10
112.6604268124208
 20
1114.421924145746
 30
0.0
 11
112.6604268124208
 21
1114.624730841414
 31
0.0
  0
LINE
  5
3FA
330
1F
100
AcDbEntity
  8
Make2D$可见线$普通线
100
AcDbLine
 10
112.6604268124208
 20
1114.647959442313
 30
0.0
 11
112.6604268124207
 21
1114.839627684377
 31
0.0
  0
LINE
  5
3FB
330
1F
100
AcDbEntity
  8
Make2D$可见线$普通线
100
AcDbLine
 10
112.6604268124207
 20
1114.863449486821
 30
0.0
 11
112.6604268124207
 21
1115.044033814563
 31
0.0
  0
LINE
  5
3FC
330
1F
100
AcDbEntity
  8
Make2D$可见线$普通线
100
AcDbLine
 10
112.6604268124207
 20
1115.06826247046
 30
0.0
 11
112.6604268124207
 21
1115.237820589399
 31
0.0
  0
LINE
  5
3FD
330
1F
100
AcDbEntity
  8
Make2D$可见线$普通线
100
AcDbLine
 10
112.6604268124207
 20
1115.262266584527
 30
0.0
 11
112.6604268124207
 21
1115.420859366309
 31
0.0
  0
LINE
  5
3FE
330
1F
100
AcDbEntity
  8
Make2D$可见线$普通线
100
AcDbLine
 10
112.6604268124207
 20
1115.445329978475
 30
0.0
 11
112.6604268124206
 21
1115.593021502719
 31
0.0
  0
LINE
  5
3FF
330
1F
100
AcDbEntity
  8
Make2D$可见线$普通线
100
AcDbLine
 10
112.6604268124206
 20
1115.617320930585
 30
0.0
 11
112.6604268124206
 21
1115.754178356057
 31
0.0
  0
LINE
  5
400
330
1F
100
AcDbEntity
  8
Make2D$可见线$普通线
100
AcDbLine
 10
112.6604268124206
 20
1115.77810757591
 30
0.0
 11
112.6604268124206
 21
1115.904201283746
 31
0.0
  0
LINE
  5
401
330
1F
100
AcDbEntity
  8
Make2D$可见线$普通线
100
AcDbLine
 10
112.6604268124206
 20
1115.9275581101
 30
0.0
 11
112.6604268124206
 21
1116.042961643213
 31
0.0
  0
LINE
  5
402
330
1F
100
AcDbEntity
  8
Make2D$可见线$普通线
100
AcDbLine
 10
112.6604268124206
 20
1116.065540727929
 30
0.0
 11
112.6604268124206
 21
1116.170330791885
 31
0.0
  0
LINE
  5
403
330
1F
100
AcDbEntity
  8
Make2D$可见线$普通线
100
AcDbLine
 10
112.6604268124205
 20
1116.191923620323
 30
0.0
 11
112.6604268124205
 21
1116.286180087185
 31
0.0
  0
LINE
  5
404
330
1F
100
AcDbEntity
  8
Make2D$可见线$普通线
100
AcDbLine
 10
112.6604268124206
 20
1116.306574978199
 30
0.0
 11
112.6604268124205
 21
1116.390380886542
 31
0.0
  0
LINE
  5
405
330
1F
100
AcDbEntity
  8
Make2D$可见线$普通线
100
AcDbLine
 10
112.6604268124205
 20
1116.409362992478
 30
0.0
 11
112.6604268124205
 21
1116.482804547379
 31
0.0
  0
LINE
  5
406
330
1F
100
AcDbEntity
  8
Make2D$可见线$普通线
100
AcDbLine
 10
112.6604268124205
 20
1116.500155854079
 30
0.0
 11
112.6604268124205
 21
1116.563322427123
 31
0.0
  0
LINE
  5
407
330
1F
100
AcDbEntity
  8
Make2D$可见线$普通线
100
AcDbLine
 10
112.6604268124205
 20
1116.578821753908
 30
0.0
 11
112.6604268124205
 21
1116.6318058832
 31
0.0
  0
LINE
  5
408
330
1F
100
AcDbEntity
  8
Make2D$可见线$普通线
100
AcDbLine
 10
112.6604268124205
 20
1116.645228882827
 30
0.0
 11
112.6604268124206
 21
1116.785633509316
 31
0.0
  0
ARC
  5
409
330
1F
100
AcDbEntity
  8
Make2D$可见线$普通线
100
AcDbCircle
 10
117.6604811473661
 20
1116.789258651138
 30
0.0
 40
5.000054335240661
100
AcDbArc
 50
90.00062262584392
 51
180.0006225996642
  0
LINE
  5
40A
330
1F
100
AcDbEntity
  8
Make2D$可见线$普通线
100
AcDbLine
 10
112.6604268124206
 20
1076.791905786984
 30
0.0
 11
112.6604268124208
 21
1076.932310369883
 31
0.0
  0
LINE
  5
40B
330
1F
100
AcDbEntity
  8
Make2D$可见线$普通线
100
AcDbLine
 10
112.6604268124209
 20
1076.945733365964
 30
0.0
 11
112.6604268124209
 21
1076.998717477244
 31
0.0
  0
LINE
  5
40C
330
1F
100
AcDbEntity
  8
Make2D$可见线$普通线
100
AcDbLine
 10
112.6604268124209
 20
1077.014216800434
 30
0.0
 11
112.6604268124209
 21
1077.077383351426
 31
0.0
  0
LINE
  5
40D
330
1F
100
AcDbEntity
  8
Make2D$可见线$普通线
100
AcDbLine
 10
112.6604268124209
 20
1077.09473465466
 30
0.0
 11
112.6604268124209
 21
1077.168176183379
 31
0.0
  0
LINE
  5
40E
330
1F
100
AcDbEntity
  8
Make2D$可见线$普通线
100
AcDbLine
 10
112.6604268124209
 20
1077.187158286148
 30
0.0
 11
112.6604268124209
 21
1077.270964164096
 31
0.0
  0
LINE
  5
40F
330
1F
100
AcDbEntity
  8
Make2D$可见线$普通线
100
AcDbLine
 10
112.6604268124209
 20
1077.29135905241
 30
0.0
 11
112.6604268124209
 21
1077.385615484583
 31
0.0
  0
LINE
  5
410
330
1F
100
AcDbEntity
  8
Make2D$可见线$普通线
100
AcDbLine
 10
112.6604268124209
 20
1077.407208310959
 30
0.0
 11
112.6604268124209
 21
1077.511998335848
 31
0.0
  0
LINE
  5
411
330
1F
100
AcDbEntity
  8
Make2D$可见线$普通线
100
AcDbLine
 10
112.6604268124209
 20
1077.534577419301
 30
0.0
 11
112.6604268124209
 21
1077.6499809089
 31
0.0
  0
LINE
  5
412
330
1F
100
AcDbEntity
  8
Make2D$可见线$普通线
100
AcDbLine
 10
112.6604268124209
 20
1077.673337734949
 30
0.0
 11
112.6604268124209
 21
1077.799431394749
 31
0.0
  0
LINE
  5
413
330
1F
100
AcDbEntity
  8
Make2D$可见线$普通线
100
AcDbLine
 10
112.6604268124209
 20
1077.823360615411
 30
0.0
 11
112.6604268124209
 21
1077.960217988271
 31
0.0
  0
LINE
  5
414
330
1F
100
AcDbEntity
  8
Make2D$可见线$普通线
100
AcDbLine
 10
112.6604268124209
 20
1077.984517418198
 30
0.0
 11
112.6604268124209
 21
1078.132208885173
 31
0.0
  0
LINE
  5
415
330
1F
100
AcDbEntity
  8
Make2D$可见线$普通线
100
AcDbLine
 10
112.6604268124209
 20
1078.15667950082
 30
0.0
 11
112.6604268124209
 21
1078.315272220612
 31
0.0
  0
LINE
  5
416
330
1F
100
AcDbEntity
  8
Make2D$可见线$普通线
100
AcDbLine
 10
112.6604268124209
 20
1078.339718220787
 30
0.0
 11
112.6604268124209
 21
1078.509276272956
 31
0.0
  0
LINE
  5
417
330
1F
100
AcDbEntity
  8
Make2D$可见线$普通线
100
AcDbLine
 10
112.6604268124209
 20
1078.533504888135
 30
0.0
 11
112.6604268124209
 21
1078.71408919175
 31
0.0
  0
LINE
  5
418
330
1F
100
AcDbEntity
  8
Make2D$可见线$普通线
100
AcDbLine
 10
112.6604268124209
 20
1078.737910952805
 30
0.0
 11
112.6604268124209
 21
1078.929579168372
 31
0.0
  0
LINE
  5
419
330
1F
100
AcDbEntity
  8
Make2D$可见线$普通线
100
AcDbLine
 10
112.6604268124209
 20
1078.95280772738
 30
0.0
 11
112.6604268124209
 21
1079.155614394102
 31
0.0
  0
LINE
  5
41A
330
1F
100
AcDbEntity
  8
Make2D$可见线$普通线
100
AcDbLine
 10
112.6604268124209
 20
1079.17806656937
 30
0.0
 11
112.6604268124209
 21
1079.392063060145
 31
0.0
  0
LINE
  5
41B
330
1F
100
AcDbEntity
  8
Make2D$可见线$普通线
100
AcDbLine
 10
112.6604268124209
 20
1079.413558836286
 30
0.0
 11
112.6604268124208
 21
1079.638793357656
 31
0.0
  0
LINE
  5
41C
330
1F
100
AcDbEntity
  8
Make2D$可见线$普通线
100
AcDbLine
 10
112.6604268124208
 20
1079.659155885638
 30
0.0
 11
112.6604268124208
 21
1079.895673477752
 31
0.0
  0
LINE
  5
41D
330
1F
100
AcDbEntity
  8
Make2D$可见线$普通线
100
AcDbLine
 10
112.6604268124208
 20
1079.914729074934
 30
0.0
 11
112.6604268124208
 21
1080.162571611524
 31
0.0
  0
LINE
  5
41E
330
1F
100
AcDbEntity
  8
Make2D$可见线$普通线
100
AcDbLine
 10
112.6604268124208
 20
1080.180149761686
 30
0.0
 11
112.6604268124208
 21
1080.439355950043
 31
0.0
  0
LINE
  5
41F
330
1F
100
AcDbEntity
  8
Make2D$可见线$普通线
100
AcDbLine
 10
112.6604268124208
 20
1080.455289303404
 30
0.0
 11
112.6604268124208
 21
1080.725894684361
 31
0.0
  0
LINE
  5
420
330
1F
100
AcDbEntity
  8
Make2D$可见线$普通线
100
AcDbLine
 10
112.6604268124208
 20
1080.740019057595
 30
0.0
 11
112.6604268124208
 21
1081.022056005526
 31
0.0
  0
LINE
  5
421
330
1F
100
AcDbEntity
  8
Make2D$可见线$普通线
100
AcDbLine
 10
112.6604268124207
 20
1081.034210381772
 30
0.0
 11
112.6604268124207
 21
1081.327708104573
 31
0.0
  0
LINE
  5
422
330
1F
100
AcDbEntity
  8
Make2D$可见线$普通线
100
AcDbLine
 10
112.6604268124208
 20
1081.337734633444
 30
0.0
 11
112.6604268124207
 21
1082.642588100585
 31
0.0
  0
ARC
  5
423
330
1F
100
AcDbEntity
  8
Make2D$可见线$普通线
100
AcDbCircle
 10
117.6604811406701
 20
1076.788280638263
 30
0.0
 40
5.000054328544842
100
AcDbArc
 50
179.9993773235957
 51
269.9993774508833
  0
LINE
  5
424
330
1F
100
AcDbEntity
  8
Make2D$可见线$普通线
100
AcDbLine
 10
202.6604268124206
 20
1121.788769648049
 30
0.0
 11
147.6604268124207
 21
1121.788769648049
 31
0.0
  0
LINE
  5
425
330
1F
100
AcDbEntity
  8
Make2D$可见线$普通线
100
AcDbLine
 10
202.6604268124206
 20
1071.788769648049
 30
0.0
 11
117.6604268124206
 21
1071.788769648049
 31
0.0
  0
LINE
  5
426
330
1F
100
AcDbEntity
  8
Make2D$可见线$普通线
100
AcDbLine
 10
112.660426812421
 20
1710.934949391478
 30
0.0
 11
112.660426812421
 21
1712.239803204538
 31
0.0
  0
LINE
  5
427
330
1F
100
AcDbEntity
  8
Make2D$可见线$普通线
100
AcDbLine
 10
112.660426812421
 20
1712.24982977289
 30
0.0
 11
112.660426812421
 21
1712.543327546653
 31
0.0
  0
LINE
  5
428
330
1F
100
AcDbEntity
  8
Make2D$可见线$普通线
100
AcDbLine
 10
112.660426812421
 20
1712.555481963221
 30
0.0
 11
112.660426812421
 21
1712.837518959158
 31
0.0
  0
LINE
  5
429
330
1F
100
AcDbEntity
  8
Make2D$可见线$普通线
100
AcDbLine
 10
112.660426812421
 20
1712.851643373422
 30
0.0
 11
112.660426812421
 21
1713.122248799479
 31
0.0
  0
LINE
  5
42A
330
1F
100
AcDbEntity
  8
Make2D$可见线$普通线
100
AcDbLine
 10
112.660426812421
 20
1713.138182194439
 30
0.0
 11
112.660426812421
 21
1713.397388425044
 31
0.0
  0
LINE
  5
42B
330
1F
100
AcDbEntity
  8
Make2D$可见线$普通线
100
AcDbLine
 10
112.660426812421
 20
1713.41496661723
 30
0.0
 11
112.660426812421
 21
1713.662809193278
 31
0.0
  0
LINE
  5
42C
330
1F
100
AcDbEntity
  8
Make2D$可见线$普通线
100
AcDbLine
 10
112.660426812421
 20
1713.681864832763
 30
0.0
 11
112.660426812421
 21
1713.918382461605
 31
0.0
  0
LINE
  5
42D
330
1F
100
AcDbEntity
  8
Make2D$可见线$普通线
100
AcDbLine
 10
112.660426812421
 20
1713.938745032021
 30
0.0
 11
112.660426812421
 21
1714.163979587454
 31
0.0
  0
LINE
  5
42E
330
1F
100
AcDbEntity
  8
Make2D$可见线$普通线
100
AcDbLine
 10
112.6604268124211
 20
1714.185475406004
 30
0.0
 11
112.660426812421
 21
1714.399471928248
 31
0.0
  0
LINE
  5
42F
330
1F
100
AcDbEntity
  8
Make2D$可见线$普通线
100
AcDbLine
 10
112.6604268124211
 20
1714.421924145746
 30
0.0
 11
112.660426812421
 21
1714.624730841413
 31
0.0
  0
LINE
  5
430
330
1F
100
AcDbEntity
  8
Make2D$可见线$普通线
100
AcDbLine
 10
112.660426812421
 20
1714.647959442311
 30
0.0
 11
112.660426812421
 21
1714.839627684376
 31
0.0
  0
LINE
  5
431
330
1F
100
AcDbEntity
  8
Make2D$可见线$普通线
100
AcDbLine
 10
112.660426812421
 20
1714.863449486819
 30
0.0
 11
112.660426812421
 21
1715.044033814563
 31
0.0
  0
LINE
  5
432
330
1F
100
AcDbEntity
  8
Make2D$可见线$普通线
100
AcDbLine
 10
112.660426812421
 20
1715.068262470461
 30
0.0
 11
112.660426812421
 21
1715.237820589398
 31
0.0
  0
LINE
  5
433
330
1F
100
AcDbEntity
  8
Make2D$可见线$普通线
100
AcDbLine
 10
112.6604268124211
 20
1715.262266584528
 30
0.0
 11
112.660426812421
 21
1715.420859366309
 31
0.0
  0
LINE
  5
434
330
1F
100
AcDbEntity
  8
Make2D$可见线$普通线
100
AcDbLine
 10
112.660426812421
 20
1715.445329978476
 30
0.0
 11
112.660426812421
 21
1715.593021502719
 31
0.0
  0
LINE
  5
435
330
1F
100
AcDbEntity
  8
Make2D$可见线$普通线
100
AcDbLine
 10
112.660426812421
 20
1715.617320930587
 30
0.0
 11
112.660426812421
 21
1715.754178356057
 31
0.0
  0
LINE
  5
436
330
1F
100
AcDbEntity
  8
Make2D$可见线$普通线
100
AcDbLine
 10
112.660426812421
 20
1715.778107575911
 30
0.0
 11
112.660426812421
 21
1715.904201283746
 31
0.0
  0
LINE
  5
437
330
1F
100
AcDbEntity
  8
Make2D$可见线$普通线
100
AcDbLine
 10
112.660426812421
 20
1715.927558110101
 30
0.0
 11
112.660426812421
 21
1716.042961643213
 31
0.0
  0
LINE
  5
438
330
1F
100
AcDbEntity
  8
Make2D$可见线$普通线
100
AcDbLine
 10
112.660426812421
 20
1716.06554072793
 30
0.0
 11
112.660426812421
 21
1716.170330791885
 31
0.0
  0
LINE
  5
439
330
1F
100
AcDbEntity
  8
Make2D$可见线$普通线
100
AcDbLine
 10
112.6604268124209
 20
1716.191923620323
 30
0.0
 11
112.6604268124209
 21
1716.286180087186
 31
0.0
  0
LINE
  5
43A
330
1F
100
AcDbEntity
  8
Make2D$可见线$普通线
100
AcDbLine
 10
112.660426812421
 20
1716.3065749782
 30
0.0
 11
112.6604268124209
 21
1716.390380886542
 31
0.0
  0
LINE
  5
43B
330
1F
100
AcDbEntity
  8
Make2D$可见线$普通线
100
AcDbLine
 10
112.6604268124209
 20
1716.409362992479
 30
0.0
 11
112.6604268124209
 21
1716.482804547379
 31
0.0
  0
LINE
  5
43C
330
1F
100
AcDbEntity
  8
Make2D$可见线$普通线
100
AcDbLine
 10
112.6604268124209
 20
1716.50015585408
 30
0.0
 11
112.6604268124209
 21
1716.563322427123
 31
0.0
  0
LINE
  5
43D
330
1F
100
AcDbEntity
  8
Make2D$可见线$普通线
100
AcDbLine
 10
112.6604268124208
 20
1716.578821753908
 30
0.0
 11
112.6604268124208
 21
1716.6318058832
 31
0.0
  0
LINE
  5
43E
330
1F
100
AcDbEntity
  8
Make2D$可见线$普通线
100
AcDbLine
 10
112.6604268124208
 20
1716.645228882827
 30
0.0
 11
112.6604268124206
 21
1716.785633509316
 31
0.0
  0
ARC
  5
43F
330
1F
100
AcDbEntity
  8
Make2D$可见线$普通线
100
AcDbCircle
 10
117.6604811473777
 20
1716.789258651127
 30
0.0
 40
5.000054335252242
100
AcDbArc
 50
90.00062262597255
 51
180.0006225995365
  0
ARC
  5
440
330
1F
100
AcDbEntity
  8
Make2D$可见线$普通线
100
AcDbCircle
 10
117.6604811473671
 20
1676.78828064496
 30
0.0
 40
5.000054335241524
100
AcDbArc
 50
179.9993774003384
 51
269.999377374143
  0
LINE
  5
441
330
1F
100
AcDbEntity
  8
Make2D$可见线$普通线
100
AcDbLine
 10
112.6604268124206
 20
1676.791905786782
 30
0.0
 11
112.6604268124208
 21
1676.932310413272
 31
0.0
  0
LINE
  5
442
330
1F
100
AcDbEntity
  8
Make2D$可见线$普通线
100
AcDbLine
 10
112.6604268124208
 20
1676.945733412899
 30
0.0
 11
112.6604268124208
 21
1676.998717542192
 31
0.0
  0
LINE
  5
443
330
1F
100
AcDbEntity
  8
Make2D$可见线$普通线
100
AcDbLine
 10
112.6604268124208
 20
1677.014216868976
 30
0.0
 11
112.6604268124208
 21
1677.07738344202
 31
0.0
  0
LINE
  5
444
330
1F
100
AcDbEntity
  8
Make2D$可见线$普通线
100
AcDbLine
 10
112.6604268124208
 20
1677.09473474872
 30
0.0
 11
112.6604268124208
 21
1677.168176303621
 31
0.0
  0
LINE
  5
445
330
1F
100
AcDbEntity
  8
Make2D$可见线$普通线
100
AcDbLine
 10
112.6604268124208
 20
1677.187158409558
 30
0.0
 11
112.6604268124208
 21
1677.270964317901
 31
0.0
  0
LINE
  5
446
330
1F
100
AcDbEntity
  8
Make2D$可见线$普通线
100
AcDbLine
 10
112.6604268124208
 20
1677.291359208913
 30
0.0
 11
112.6604268124208
 21
1677.385615675776
 31
0.0
  0
LINE
  5
447
330
1F
100
AcDbEntity
  8
Make2D$可见线$普通线
100
AcDbLine
 10
112.6604268124208
 20
1677.407208504215
 30
0.0
 11
112.6604268124208
 21
1677.511998568168
 31
0.0
  0
LINE
  5
448
330
1F
100
AcDbEntity
  8
Make2D$可见线$普通线
100
AcDbLine
 10
112.6604268124208
 20
1677.534577652885
 30
0.0
 11
112.6604268124208
 21
1677.649981185998
 31
0.0
  0
LINE
  5
449
330
1F
100
AcDbEntity
  8
Make2D$可见线$普通线
100
AcDbLine
 10
112.6604268124208
 20
1677.673338012353
 30
0.0
 11
112.6604268124208
 21
1677.799431720189
 31
0.0
  0
LINE
  5
44A
330
1F
100
AcDbEntity
  8
Make2D$可见线$普通线
100
AcDbLine
 10
112.6604268124208
 20
1677.823360940043
 30
0.0
 11
112.6604268124208
 21
1677.960218365512
 31
0.0
  0
LINE
  5
44B
330
1F
100
AcDbEntity
  8
Make2D$可见线$普通线
100
AcDbLine
 10
112.6604268124208
 20
1677.98451779338
 30
0.0
 11
112.6604268124208
 21
1678.132209317622
 31
0.0
  0
LINE
  5
44C
330
1F
100
AcDbEntity
  8
Make2D$可见线$普通线
100
AcDbLine
 10
112.6604268124208
 20
1678.156679929791
 30
0.0
 11
112.6604268124208
 21
1678.315272711571
 31
0.0
  0
LINE
  5
44D
330
1F
100
AcDbEntity
  8
Make2D$可见线$普通线
100
AcDbLine
 10
112.6604268124208
 20
1678.339718706701
 30
0.0
 11
112.6604268124208
 21
1678.509276825637
 31
0.0
  0
LINE
  5
44E
330
1F
100
AcDbEntity
  8
Make2D$可见线$普通线
100
AcDbLine
 10
112.6604268124208
 20
1678.533505481536
 30
0.0
 11
112.6604268124208
 21
1678.714089809278
 31
0.0
  0
LINE
  5
44F
330
1F
100
AcDbEntity
  8
Make2D$可见线$普通线
100
AcDbLine
 10
112.6604268124208
 20
1678.737911611722
 30
0.0
 11
112.6604268124208
 21
1678.929579853785
 31
0.0
  0
LINE
  5
450
330
1F
100
AcDbEntity
  8
Make2D$可见线$普通线
100
AcDbLine
 10
112.6604268124208
 20
1678.952808454685
 30
0.0
 11
112.6604268124208
 21
1679.155615150351
 31
0.0
  0
LINE
  5
451
330
1F
100
AcDbEntity
  8
Make2D$可见线$普通线
100
AcDbLine
 10
112.6604268124208
 20
1679.17806736785
 30
0.0
 11
112.6604268124207
 21
1679.392063890093
 31
0.0
  0
LINE
  5
452
330
1F
100
AcDbEntity
  8
Make2D$可见线$普通线
100
AcDbLine
 10
112.6604268124207
 20
1679.413559708645
 30
0.0
 11
112.6604268124207
 21
1679.638794264078
 31
0.0
  0
LINE
  5
453
330
1F
100
AcDbEntity
  8
Make2D$可见线$普通线
100
AcDbLine
 10
112.6604268124207
 20
1679.659156834492
 30
0.0
 11
112.6604268124207
 21
1679.895674463335
 31
0.0
  0
LINE
  5
454
330
1F
100
AcDbEntity
  8
Make2D$可见线$普通线
100
AcDbLine
 10
112.6604268124207
 20
1679.91473010282
 30
0.0
 11
112.6604268124207
 21
1680.162572678868
 31
0.0
  0
LINE
  5
455
330
1F
100
AcDbEntity
  8
Make2D$可见线$普通线
100
AcDbLine
 10
112.6604268124207
 20
1680.180150871053
 30
0.0
 11
112.6604268124207
 21
1680.43935710166
 31
0.0
  0
LINE
  5
456
330
1F
100
AcDbEntity
  8
Make2D$可见线$普通线
100
AcDbLine
 10
112.6604268124207
 20
1680.455290496618
 30
0.0
 11
112.6604268124207
 21
1680.725895922677
 31
0.0
  0
LINE
  5
457
330
1F
100
AcDbEntity
  8
Make2D$可见线$普通线
100
AcDbLine
 10
112.6604268124207
 20
1680.740020336941
 30
0.0
 11
112.6604268124207
 21
1681.022057332876
 31
0.0
  0
LINE
  5
458
330
1F
100
AcDbEntity
  8
Make2D$可见线$普通线
100
AcDbLine
 10
112.6604268124207
 20
1681.034211749446
 30
0.0
 11
112.6604268124207
 21
1681.327709523208
 31
0.0
  0
LINE
  5
459
330
1F
100
AcDbEntity
  8
Make2D$可见线$普通线
100
AcDbLine
 10
112.6604268124207
 20
1681.33773609156
 30
0.0
 11
112.6604268124206
 21
1682.642589904618
 31
0.0
  0
LINE
  5
45A
330
1F
100
AcDbEntity
  8
Make2D$可见线$普通线
100
AcDbLine
 10
202.6604268166416
 20
1671.788769648049
 30
0.0
 11
147.6604268166415
 21
1671.788769648049
 31
0.0
  0
LINE
  5
45B
330
1F
100
AcDbEntity
  8
Make2D$可见线$普通线
100
AcDbLine
 10
202.6604268166416
 20
1721.788769648049
 30
0.0
 11
117.6604268124206
 21
1721.788769648049
 31
0.0
  0
ARC
  5
45C
330
1F
100
AcDbEntity
  8
Make2D$可见线$普通线
100
AcDbCircle
 10
132.68627166885
 20
1419.765741159169
 30
0.0
 40
30.03366697442803
100
AcDbArc
 50
150.3315661465473
 51
150.4359152097424
  0
ARC
  5
45D
330
1F
100
AcDbEntity
  8
Make2D$可见线$普通线
100
AcDbCircle
 10
132.6345822818814
 20
1419.811797951663
 30
0.0
 40
30.0336665995576
100
AcDbArc
 50
330.3315762914653
 51
330.4359152167714
  0
ARC
  5
45E
330
1F
100
AcDbEntity
  8
Make2D$可见线$普通线
100
AcDbCircle
 10
110.6604268121838
 20
1437.109277723968
 30
0.0
 40
1.999999999669891
100
AcDbArc
 50
134.7312873986923
 51
136.5585721565513
  0
ARC
  5
45F
330
1F
100
AcDbEntity
  8
Make2D$可见线$普通线
100
AcDbCircle
 10
110.6604268117204
 20
1402.468261571684
 30
0.0
 40
1.999999999026853
100
AcDbArc
 50
223.4414090068609
 51
225.2687126005037
  0
ARC
  5
460
330
1F
100
AcDbEntity
  8
Make2D$可见线$普通线
100
AcDbCircle
 10
154.6604268139442
 20
1437.109277725213
 30
0.0
 40
1.999999997879426
100
AcDbArc
 50
43.44140876858631
 51
45.26871247168793
  0
ARC
  5
461
330
1F
100
AcDbEntity
  8
Make2D$可见线$普通线
100
AcDbCircle
 10
154.6604268133077
 20
1402.468261571497
 30
0.0
 40
1.999999998761891
100
AcDbArc
 50
314.7312873982574
 51
316.5585722074547
  0
ARC
  5
462
330
1F
100
AcDbEntity
  8
Make2D$可见线$普通线
100
AcDbCircle
 10
115.6604268124207
 20
1442.037365109336
 30
0.0
 40
1.999999999999861
100
AcDbArc
 50
6.636005257997173
 51
88.53324685694389
  0
ARC
  5
463
330
1F
100
AcDbEntity
  8
Make2D$可见线$普通线
100
AcDbCircle
 10
115.6604268124203
 20
1397.540174186763
 30
0.0
 40
2.000000000000526
100
AcDbArc
 50
271.4667541310698
 51
0.0000000000390827
  0
ARC
  5
464
330
1F
100
AcDbEntity
  8
Make2D$可见线$普通线
100
AcDbCircle
 10
110.6604268117129
 20
1437.109277724428
 30
0.0
 40
1.999999999011944
100
AcDbArc
 50
134.7312873984358
 51
137.1673209340412
  0
LINE
  5
465
330
1F
100
AcDbEntity
  8
Make2D$可见线$普通线
100
AcDbLine
 10
132.0946564077308
 20
1389.792921898173
 30
0.0
 11
131.9827090538008
 21
1389.795093017047
 31
0.0
  0
LINE
  5
466
330
1F
100
AcDbEntity
  8
Make2D$可见线$普通线
100
AcDbLine
 10
131.5298311825215
 20
1389.808381156781
 30
0.0
 11
131.3717780120958
 21
1389.814709493359
 31
0.0
  0
LINE
  5
467
330
1F
100
AcDbEntity
  8
Make2D$可见线$普通线
100
AcDbLine
 10
130.9663576471554
 20
1389.834913188845
 30
0.0
 11
130.7789005930111
 21
1389.846177525402
 31
0.0
  0
LINE
  5
468
330
1F
100
AcDbEntity
  8
Make2D$可见线$普通线
100
AcDbLine
 10
130.5172125434942
 20
1389.863925762709
 30
0.0
 11
130.4046410240162
 21
1389.872283811182
 31
0.0
  0
LINE
  5
469
330
1F
100
AcDbEntity
  8
Make2D$可见线$普通线
100
AcDbLine
 10
129.2807429070385
 20
1389.97944547642
 30
0.0
 11
128.9883342354071
 21
1390.014365680401
 31
0.0
  0
LINE
  5
46A
330
1F
100
AcDbEntity
  8
Make2D$可见线$普通线
100
AcDbLine
 10
118.3049924841981
 20
1393.44668645204
 30
0.0
 11
117.8737083879654
 21
1393.686200125509
 31
0.0
  0
LINE
  5
46B
330
1F
100
AcDbEntity
  8
Make2D$可见线$普通线
100
AcDbLine
 10
117.6104933729995
 20
1393.836966303745
 30
0.0
 11
117.2861167049943
 21
1394.027672315347
 31
0.0
  0
LINE
  5
46C
330
1F
100
AcDbEntity
  8
Make2D$可见线$普通线
100
AcDbLine
 10
117.1156416642821
 20
1394.130112348408
 30
0.0
 11
116.726664336008
 21
1394.369712233674
 31
0.0
  0
LINE
  5
46D
330
1F
100
AcDbEntity
  8
Make2D$可见线$普通线
100
AcDbLine
 10
115.9508907614104
 20
1394.872678721964
 30
0.0
 11
115.4531017239552
 21
1395.213874048907
 31
0.0
  0
LINE
  5
46E
330
1F
100
AcDbEntity
  8
Make2D$可见线$普通线
100
AcDbLine
 10
115.2775175895699
 20
1395.337812563654
 30
0.0
 11
115.011336231238
 21
1395.529361292006
 31
0.0
  0
LINE
  5
46F
330
1F
100
AcDbEntity
  8
Make2D$可见线$普通线
100
AcDbLine
 10
114.6013257295193
 20
1395.833227233843
 30
0.0
 11
114.5681833815233
 21
1395.858264286791
 31
0.0
  0
ARC
  5
470
330
1F
100
AcDbEntity
  8
Make2D$可见线$普通线
100
AcDbCircle
 10
132.5244244410935
 20
1419.39282055054
 30
0.0
 40
29.58215699767626
100
AcDbArc
 50
249.0612580321352
 51
254.5198910975897
  0
ARC
  5
471
330
1F
100
AcDbEntity
  8
Make2D$可见线$普通线
100
AcDbCircle
 10
132.6911374499506
 20
1419.860409302699
 30
0.0
 40
30.07732411260496
100
AcDbArc
 50
240.2191411687847
 51
240.283142200913
  0
LINE
  5
472
330
1F
100
AcDbEntity
  8
Make2D$可见线$普通线
100
AcDbLine
 10
118.3349520443854
 20
1393.430389528182
 30
0.0
 11
118.487953262694
 21
1393.347843968508
 31
0.0
  0
ARC
  5
473
330
1F
100
AcDbEntity
  8
Make2D$可见线$普通线
100
AcDbCircle
 10
132.7532363527691
 20
1419.972190774123
 30
0.0
 40
30.20520061990474
100
AcDbArc
 50
241.8616894884406
 51
241.8840966081755
  0
LINE
  5
474
330
1F
100
AcDbEntity
  8
Make2D$可见线$普通线
100
AcDbLine
 10
118.6745869780308
 20
1393.248684609815
 30
0.0
 11
118.7522830777255
 21
1393.207896108422
 31
0.0
  0
LINE
  5
475
330
1F
100
AcDbEntity
  8
Make2D$可见线$普通线
100
AcDbLine
 10
118.7692692853934
 20
1393.19901706695
 30
0.0
 11
118.8817522621982
 21
1393.140565175438
 31
0.0
  0
LINE
  5
476
330
1F
100
AcDbEntity
  8
Make2D$可见线$普通线
100
AcDbLine
 10
118.9179577384468
 20
1393.121878179862
 30
0.0
 11
119.0587276155488
 21
1393.04980699955
 31
0.0
  0
LINE
  5
477
330
1F
100
AcDbEntity
  8
Make2D$可见线$普通线
100
AcDbLine
 10
119.4618178270438
 20
1392.848528518875
 30
0.0
 11
119.5583196234972
 21
1392.801448878014
 31
0.0
  0
LINE
  5
478
330
1F
100
AcDbEntity
  8
Make2D$可见线$普通线
100
AcDbLine
 10
119.6569173864634
 20
1392.753783894312
 30
0.0
 11
119.858005983458
 21
1392.657932349102
 31
0.0
  0
LINE
  5
479
330
1F
100
AcDbEntity
  8
Make2D$可见线$普通线
100
AcDbLine
 10
120.0790716779694
 20
1392.554647149617
 30
0.0
 11
120.2402601368622
 21
1392.48070365214
 31
0.0
  0
LINE
  5
47A
330
1F
100
AcDbEntity
  8
Make2D$可见线$普通线
100
AcDbLine
 10
144.3205945854989
 20
1392.147134532374
 30
0.0
 11
143.7073968802618
 21
1391.896374418625
 31
0.0
  0
ARC
  5
47B
330
1F
100
AcDbEntity
  8
Make2D$可见线$普通线
100
AcDbCircle
 10
132.7234973716625
 20
1419.626766661701
 30
0.0
 40
29.8265103107687
100
AcDbArc
 50
282.7969909069125
 51
291.4121696113972
  0
ARC
  5
47C
330
1F
100
AcDbEntity
  8
Make2D$可见线$普通线
100
AcDbCircle
 10
132.4330341728585
 20
1420.071731175803
 30
0.0
 40
30.36208055066545
100
AcDbArc
 50
307.0323578836901
 51
307.1107502943949
  0
LINE
  5
47D
330
1F
100
AcDbEntity
  8
Make2D$可见线$普通线
100
AcDbLine
 10
150.6190956308204
 20
1395.758707974846
 30
0.0
 11
150.1821584713707
 21
1395.43793898444
 31
0.0
  0
LINE
  5
47E
330
1F
100
AcDbEntity
  8
Make2D$可见线$普通线
100
AcDbLine
 10
150.1506925526447
 20
1395.415300717286
 30
0.0
 11
149.7151797102235
 21
1395.10819755792
 31
0.0
  0
ARC
  5
47F
330
1F
100
AcDbEntity
  8
Make2D$可见线$普通线
100
AcDbCircle
 10
149.6604268124203
 20
1442.037365109336
 30
0.0
 40
1.999999999999645
100
AcDbArc
 50
91.4667541311014
 51
180.0000000000326
  0
POLYLINE
  5
480
330
1F
100
AcDbEntity
  8
Make2D$可见线$普通线
100
AcDb2dPolyline
 66
     1
 10
0.0
 20
0.0
 30
0.0
  0
VERTEX
  5
481
330
480
100
AcDbEntity
  8
Make2D$可见线$普通线
100
AcDbVertex
100
AcDb2dVertex
 10
147.6604268124206
 20
1397.540174186763
 30
0.0
  0
VERTEX
  5
482
330
480
100
AcDbEntity
  8
Make2D$可见线$普通线
100
AcDbVertex
100
AcDb2dVertex
 10
147.6616057723708
 20
1397.471512335242
 30
0.0
  0
VERTEX
  5
483
330
480
100
AcDbEntity
  8
Make2D$可见线$普通线
100
AcDbVertex
100
AcDb2dVertex
 10
147.6651412622749
 20
1397.402931433295
 30
0.0
  0
VERTEX
  5
484
330
480
100
AcDbEntity
  8
Make2D$可见线$普通线
100
AcDbVertex
100
AcDb2dVertex
 10
147.6710291139317
 20
1397.334512335057
 30
0.0
  0
VERTEX
  5
485
330
480
100
AcDbEntity
  8
Make2D$可见线$普通线
100
AcDbVertex
100
AcDb2dVertex
 10
147.6792623858001
 20
1397.266335703906
 30
0.0
  0
VERTEX
  5
486
330
480
100
AcDbEntity
  8
Make2D$可见线$普通线
100
AcDbVertex
100
AcDb2dVertex
 10
147.6898313711822
 20
1397.198481917359
 30
0.0
  0
VERTEX
  5
487
330
480
100
AcDbEntity
  8
Make2D$可见线$普通线
100
AcDbVertex
100
AcDb2dVertex
 10
147.7027236096676
 20
1397.131030972313
 30
0.0
  0
VERTEX
  5
488
330
480
100
AcDbEntity
  8
Make2D$可见线$普通线
100
AcDbVertex
100
AcDb2dVertex
 10
147.7179239018234
 20
1397.06406239073
 30
0.0
  0
VERTEX
  5
489
330
480
100
AcDbEntity
  8
Make2D$可见线$普通线
100
AcDbVertex
100
AcDb2dVertex
 10
147.735414327114
 20
1396.997655125887
 30
0.0
  0
VERTEX
  5
48A
330
480
100
AcDbEntity
  8
Make2D$可见线$普通线
100
AcDbVertex
100
AcDb2dVertex
 10
147.7551742650283
 20
1396.931887469289
 30
0.0
  0
VERTEX
  5
48B
330
480
100
AcDbEntity
  8
Make2D$可见线$普通线
100
AcDbVertex
100
AcDb2dVertex
 10
147.7771804193911
 20
1396.866836958369
 30
0.0
  0
VERTEX
  5
48C
330
480
100
AcDbEntity
  8
Make2D$可见线$普通线
100
AcDbVertex
100
AcDb2dVertex
 10
147.8014068458276
 20
1396.802580285074
 30
0.0
  0
VERTEX
  5
48D
330
480
100
AcDbEntity
  8
Make2D$可见线$普通线
100
AcDbVertex
100
AcDb2dVertex
 10
147.8278249823512
 20
1396.739193205449
 30
0.0
  0
VERTEX
  5
48E
330
480
100
AcDbEntity
  8
Make2D$可见线$普通线
100
AcDbVertex
100
AcDb2dVertex
 10
147.8564036830373
 20
1396.676750450322
 30
0.0
  0
VERTEX
  5
48F
330
480
100
AcDbEntity
  8
Make2D$可见线$普通线
100
AcDbVertex
100
AcDb2dVertex
 10
147.8871092547421
 20
1396.6153256372
 30
0.0
  0
VERTEX
  5
490
330
480
100
AcDbEntity
  8
Make2D$可见线$普通线
100
AcDbVertex
100
AcDb2dVertex
 10
147.9199054968263
 20
1396.554991183478
 30
0.0
  0
VERTEX
  5
491
330
480
100
AcDbEntity
  8
Make2D$可见线$普通线
100
AcDbVertex
100
AcDb2dVertex
 10
147.9547537438341
 20
1396.49581822106
 30
0.0
  0
VERTEX
  5
492
330
480
100
AcDbEntity
  8
Make2D$可见线$普通线
100
AcDbVertex
100
AcDb2dVertex
 10
147.9916129110779
 20
1396.4378765125
 30
0.0
  0
VERTEX
  5
493
330
480
100
AcDbEntity
  8
Make2D$可见线$普通线
100
AcDbVertex
100
AcDb2dVertex
 10
148.0304395430758
 20
1396.381234368751
 30
0.0
  0
VERTEX
  5
494
330
480
100
AcDbEntity
  8
Make2D$可见线$普通线
100
AcDbVertex
100
AcDb2dVertex
 10
148.0711878647835
 20
1396.325958568632
 30
0.0
  0
VERTEX
  5
495
330
480
100
AcDbEntity
  8
Make2D$可见线$普通线
100
AcDbVertex
100
AcDb2dVertex
 10
148.1138098355617
 20
1396.272114280098
 30
0.0
  0
VERTEX
  5
496
330
480
100
AcDbEntity
  8
Make2D$可见线$普通线
100
AcDbVertex
100
AcDb2dVertex
 10
148.158255205814
 20
1396.219764983408
 30
0.0
  0
VERTEX
  5
497
330
480
100
AcDbEntity
  8
Make2D$可见线$普通线
100
AcDbVertex
100
AcDb2dVertex
 10
148.2044715762288
 20
1396.168972396287
 30
0.0
  0
VERTEX
  5
498
330
480
100
AcDbEntity
  8
Make2D$可见线$普通线
100
AcDbVertex
100
AcDb2dVertex
 10
148.2524044595563
 20
1396.11979640116
 30
0.0
  0
VERTEX
  5
499
330
480
100
AcDbEntity
  8
Make2D$可见线$普通线
100
AcDbVertex
100
AcDb2dVertex
 10
148.3019973448469
 20
1396.072294974556
 30
0.0
  0
VERTEX
  5
49A
330
480
100
AcDbEntity
  8
Make2D$可见线$普通线
100
AcDbVertex
100
AcDb2dVertex
 10
148.3531917640749
 20
1396.026524118756
 30
0.0
  0
VERTEX
  5
49B
330
480
100
AcDbEntity
  8
Make2D$可见线$普通线
100
AcDbVertex
100
AcDb2dVertex
 10
148.4059273610704
 20
1395.982537795765
 30
0.0
  0
VERTEX
  5
49C
330
480
100
AcDbEntity
  8
Make2D$可见线$普通线
100
AcDbVertex
100
AcDb2dVertex
 10
148.4601419626765
 20
1395.940387863695
 30
0.0
  0
VERTEX
  5
49D
330
480
100
AcDbEntity
  8
Make2D$可见线$普通线
100
AcDbVertex
100
AcDb2dVertex
 10
148.5157716520494
 20
1395.900124015629
 30
0.0
  0
VERTEX
  5
49E
330
480
100
AcDbEntity
  8
Make2D$可见线$普通线
100
AcDbVertex
100
AcDb2dVertex
 10
148.5727508440131
 20
1395.861793721032
 30
0.0
  0
VERTEX
  5
49F
330
480
100
AcDbEntity
  8
Make2D$可见线$普通线
100
AcDbVertex
100
AcDb2dVertex
 10
148.6310123623823
 20
1395.825442169784
 30
0.0
  0
VERTEX
  5
4A0
330
480
100
AcDbEntity
  8
Make2D$可见线$普通线
100
AcDbVertex
100
AcDb2dVertex
 10
148.6904875191603
 20
1395.79111221891
 30
0.0
  0
VERTEX
  5
4A1
330
480
100
AcDbEntity
  8
Make2D$可见线$普通线
100
AcDbVertex
100
AcDb2dVertex
 10
148.7511061955192
 20
1395.758844342046
 30
0.0
  0
VERTEX
  5
4A2
330
480
100
AcDbEntity
  8
Make2D$可见线$普通线
100
AcDbVertex
100
AcDb2dVertex
 10
148.8127969244673
 20
1395.728676581728
 30
0.0
  0
VERTEX
  5
4A3
330
480
100
AcDbEntity
  8
Make2D$可见线$普通线
100
AcDbVertex
100
AcDb2dVertex
 10
148.8754869751058
 20
1395.700644504535
 30
0.0
  0
VERTEX
  5
4A4
330
480
100
AcDbEntity
  8
Make2D$可见线$普通线
100
AcDbVertex
100
AcDb2dVertex
 10
148.9391024383759
 20
1395.674781159165
 30
0.0
  0
VERTEX
  5
4A5
330
480
100
AcDbEntity
  8
Make2D$可见线$普通线
100
AcDbVertex
100
AcDb2dVertex
 10
149.0035683141941
 20
1395.651117037467
 30
0.0
  0
VERTEX
  5
4A6
330
480
100
AcDbEntity
  8
Make2D$可见线$普通线
100
AcDbVertex
100
AcDb2dVertex
 10
149.0688085998747
 20
1395.62968003849
 30
0.0
  0
VERTEX
  5
4A7
330
480
100
AcDbEntity
  8
Make2D$可见线$普通线
100
AcDbVertex
100
AcDb2dVertex
 10
149.1347463797336
 20
1395.6104954356
 30
0.0
  0
VERTEX
  5
4A8
330
480
100
AcDbEntity
  8
Make2D$可见线$普通线
100
AcDbVertex
100
AcDb2dVertex
 10
149.2013039157693
 20
1395.593585846674
 30
0.0
  0
VERTEX
  5
4A9
330
480
100
AcDbEntity
  8
Make2D$可见线$普通线
100
AcDbVertex
100
AcDb2dVertex
 10
149.2684027393123
 20
1395.57897120744
 30
0.0
  0
VERTEX
  5
4AA
330
480
100
AcDbEntity
  8
Make2D$可见线$普通线
100
AcDbVertex
100
AcDb2dVertex
 10
149.3359637435371
 20
1395.566668747974
 30
0.0
  0
VERTEX
  5
4AB
330
480
100
AcDbEntity
  8
Make2D$可见线$普通线
100
AcDbVertex
100
AcDb2dVertex
 10
149.4039072767254
 20
1395.556692972381
 30
0.0
  0
VERTEX
  5
4AC
330
480
100
AcDbEntity
  8
Make2D$可见线$普通线
100
AcDbVertex
100
AcDb2dVertex
 10
149.4721532361727
 20
1395.549055641702
 30
0.0
  0
VERTEX
  5
4AD
330
480
100
AcDbEntity
  8
Make2D$可见线$普通线
100
AcDbVertex
100
AcDb2dVertex
 10
149.5406211626261
 20
1395.543765760043
 30
0.0
  0
VERTEX
  5
4AE
330
480
100
AcDbEntity
  8
Make2D$可见线$普通线
100
AcDbVertex
100
AcDb2dVertex
 10
149.6092303351424
 20
1395.540829563964
 30
0.0
  0
SEQEND
  5
4AF
330
480
100
AcDbEntity
  8
Make2D$可见线$普通线
  0
ARC
  5
4B0
330
1F
100
AcDbEntity
  8
Make2D$可见线$普通线
100
AcDbCircle
 10
132.5493519169125
 20
1419.867170234347
 30
0.0
 40
30.1346870488445
100
AcDbArc
 50
330.1776835579304
 51
330.2914284714023
  0
ARC
  5
4B1
330
1F
100
AcDbEntity
  8
Make2D$可见线$普通线
100
AcDbCircle
 10
132.5920452301252
 20
1419.893834379761
 30
0.0
 40
30.12484554083795
100
AcDbArc
 50
306.792387762456
 51
306.9249067143596
  0
ARC
  5
4B2
330
1F
100
AcDbEntity
  8
Make2D$可见线$普通线
100
AcDbCircle
 10
132.6862672440939
 20
1419.81179562343
 30
0.0
 40
30.03366188560304
100
AcDbArc
 50
209.564084783556
 51
209.6682150152458
  0
ARC
  5
4B3
330
1F
100
AcDbEntity
  8
Make2D$可见线$普通线
100
AcDbCircle
 10
132.7715016159241
 20
1419.710369114355
 30
0.0
 40
30.13468694286372
100
AcDbArc
 50
150.1776835534121
 51
150.2914284662841
  0
LINE
  5
4B4
330
1F
100
AcDbEntity
  8
Make2D$可见线$普通线
100
AcDbLine
 10
117.6604268124206
 20
1397.540174186763
 30
0.0
 11
117.6604268124206
 21
1442.037365109336
 31
0.0
  0
LINE
  5
4B5
330
1F
100
AcDbEntity
  8
Make2D$可见线$普通线
100
AcDbLine
 10
147.6604268124206
 20
1397.540174186763
 30
0.0
 11
147.6604268124206
 21
1409.788941489347
 31
0.0
  0
ENDSEC
  0
SECTION
  2
OBJECTS
  0
DICTIONARY
  5
C
330
0
100
AcDbDictionary
281
     1
  3
ACAD_GROUP
350
D
  3
ACAD_LAYOUT
350
1A
  3
ACAD_MATERIAL
350
3B
  3
ACAD_MLEADERSTYLE
350
4E0
  3
ACAD_MLINESTYLE
350
17
  3
ACAD_PLOTSETTINGS
350
19
  3
ACAD_PLOTSTYLENAME
350
E
  3
ACAD_SCALELIST
350
3F
  3
ACAD_TABLESTYLE
350
4DF
  3
ACAD_VISUALSTYLE
350
2A
  3
AcDbVariableDictionary
350
4B6
  0
DICTIONARY
  5
D
102
{ACAD_REACTORS
330
C
102
}
330
C
100
AcDbDictionary
281
     1
  0
DICTIONARY
  5
1A
102
{ACAD_REACTORS
330
C
102
}
330
C
100
AcDbDictionary
281
     1
  3
Layout1
350
1E
  3
Layout2
350
26
  3
Model
350
22
  0
DICTIONARY
  5
3B
102
{ACAD_REACTORS
330
C
102
}
330
C
100
AcDbDictionary
281
     1
  3
ByBlock
350
3D
  3
ByLayer
350
3C
  3
Global
350
3E
  0
DICTIONARY
  5
4E0
102
{ACAD_REACTORS
330
C
102
}
330
C
100
AcDbDictionary
281
     1
  0
DICTIONARY
  5
17
102
{ACAD_REACTORS
330
C
102
}
330
C
100
AcDbDictionary
281
     1
  3
Standard
350
18
  0
DICTIONARY
  5
19
102
{ACAD_REACTORS
330
C
102
}
330
C
100
AcDbDictionary
281
     1
  0
ACDBDICTIONARYWDFLT
  5
E
102
{ACAD_REACTORS
330
C
102
}
330
C
100
AcDbDictionary
281
     1
  3
Normal
350
F
100
AcDbDictionaryWithDefault
340
F
  0
DICTIONARY
  5
3F
102
{ACAD_REACTORS
330
C
102
}
330
C
100
AcDbDictionary
281
     1
  3
A0
350
40
  3
A1
350
41
  3
A2
350
42
  3
A3
350
43
  3
A4
350
44
  3
A5
350
45
  3
A6
350
46
  3
A7
350
47
  3
A8
350
48
  3
A9
350
49
  3
B0
350
4A
  3
B1
350
4B
  3
B2
350
4C
  3
B3
350
4D
  3
B4
350
4E
  3
B5
350
4F
  3
B6
350
50
  3
B7
350
51
  3
B8
350
52
  3
B9
350
53
  3
C0
350
54
  3
C1
350
55
  3
C2
350
56
  3
C3
350
57
  3
C4
350
58
  3
C5
350
59
  3
C6
350
5A
  3
C7
350
5B
  3
C8
350
5C
  3
C9
350
5D
  3
D0
350
5E
  3
D1
350
5F
  3
D2
350
60
  0
DICTIONARY
  5
4DF
102
{ACAD_REACTORS
330
C
102
}
330
C
100
AcDbDictionary
281
     1
  0
DICTIONARY
  5
2A
102
{ACAD_REACTORS
330
C
102
}
330
C
100
AcDbDictionary
281
     1
  3
2dWireframe
350
2F
  3
3D Hidden
350
31
  3
3dWireframe
350
30
  3
Basic
350
32
  3
Brighten
350
36
  3
ColorChange
350
3A
  3
Conceptual
350
34
  3
Dim
350
35
  3
Facepattern
350
39
  3
Flat
350
2B
  3
FlatWithEdges
350
2C
  3
Gouraud
350
2D
  3
GouraudWithEdges
350
2E
  3
Linepattern
350
38
  3
Realistic
350
33
  3
Thicken
350
37
  0
DICTIONARY
  5
4B6
102
{ACAD_REACTORS
330
C
102
}
330
C
100
AcDbDictionary
281
     1
  3
CANNOSCALE
350
4B7
  3
MSLTSCALE
350
4B8
  0
LAYOUT
  5
1E
102
{ACAD_REACTORS
330
1A
102
}
330
1A
100
AcDbPlotSettings
  1

  2
none_device
  4

  6

 40
0.0
 41
0.0
 42
0.0
 43
0.0
 44
0.0
 45
0.0
 46
0.0
 47
0.0
 48
0.0
 49
0.0
140
0.0
141
0.0
142
1.0
143
1.0
 70
   688
 72
     0
 73
     0
 74
     5
  7

 75
    16
 76
     0
 77
     2
 78
   300
147
1.0
148
0.0
149
0.0
100
AcDbLayout
  1
Layout1
 70
     1
 71
     1
 10
0.0
 20
0.0
 11
12.0
 21
9.0
 12
0.0
 22
0.0
 32
0.0
 14
1.000000000000000E+20
 24
1.000000000000000E+20
 34
1.000000000000000E+20
 15
-1.000000000000000E+20
 25
-1.000000000000000E+20
 35
-1.000000000000000E+20
146
0.0
 13
0.0
 23
0.0
 33
0.0
 16
1.0
 26
0.0
 36
0.0
 17
0.0
 27
1.0
 37
0.0
 76
     0
330
1B
  0
LAYOUT
  5
26
102
{ACAD_REACTORS
330
1A
102
}
330
1A
100
AcDbPlotSettings
  1

  2
none_device
  4

  6

 40
0.0
 41
0.0
 42
0.0
 43
0.0
 44
0.0
 45
0.0
 46
0.0
 47
0.0
 48
0.0
 49
0.0
140
0.0
141
0.0
142
1.0
143
1.0
 70
   688
 72
     0
 73
     0
 74
     5
  7

 75
    16
 76
     0
 77
     2
 78
   300
147
1.0
148
0.0
149
0.0
100
AcDbLayout
  1
Layout2
 70
     1
 71
     2
 10
0.0
 20
0.0
 11
0.0
 21
0.0
 12
0.0
 22
0.0
 32
0.0
 14
0.0
 24
0.0
 34
0.0
 15
0.0
 25
0.0
 35
0.0
146
0.0
 13
0.0
 23
0.0
 33
0.0
 16
1.0
 26
0.0
 36
0.0
 17
0.0
 27
1.0
 37
0.0
 76
     0
330
23
  0
LAYOUT
  5
22
102
{ACAD_REACTORS
330
1A
102
}
330
1A
100
AcDbPlotSettings
  1

  2
none_device
  4
Letter_(8.50_x_11.00_Inches)
  6

 40
6.35
 41
6.35
 42
6.35000508
 43
6.35000508
 44
215.9
 45
279.4
 46
0.0
 47
0.0
 48
0.0
 49
0.0
140
0.0
141
0.0
142
1.0
143
1.0
 70
  1712
 72
     0
 73
     0
 74
     0
  7

 75
     0
 76
     0
 77
     2
 78
   300
147
1.0
148
0.0
149
0.0
100
AcDbLayout
  1
Model
 70
     1
 71
     0
 10
0.0
 20
0.0
 11
12.0
 21
9.0
 12
0.0
 22
0.0
 32
0.0
 14
-0.0000001518140227
 24
1071.788226310014
 34
0.0
 15
202.6604268166416
 25
1721.789312986084
 35
0.0
146
0.0
 13
0.0
 23
0.0
 33
0.0
 16
1.0
 26
0.0
 36
0.0
 17
0.0
 27
1.0
 37
0.0
 76
     0
330
1F
331
29
  0
MATERIAL
  5
3D
102
{ACAD_REACTORS
330
3B
102
}
102
{ACAD_XDICTIONARY
360
4DB
102
}
330
3B
100
AcDbMaterial
  1
ByBlock
  0
MATERIAL
  5
3C
102
{ACAD_REACTORS
330
3B
102
}
102
{ACAD_XDICTIONARY
360
4D9
102
}
330
3B
100
AcDbMaterial
  1
ByLayer
  0
MATERIAL
  5
3E
102
{ACAD_REACTORS
330
3B
102
}
102
{ACAD_XDICTIONARY
360
4DD
102
}
330
3B
100
AcDbMaterial
  1
Global
  0
MLINESTYLE
  5
18
102
{ACAD_REACTORS
330
17
102
}
330
17
100
AcDbMlineStyle
  2
Standard
 70
     0
  3

 62
   256
 51
90.0
 52
90.0
 71
     2
 49
0.5
 62
   256
  6
BYLAYER
 49
-0.5
 62
   256
  6
BYLAYER
  0
ACDBPLACEHOLDER
  5
F
102
{ACAD_REACTORS
330
E
102
}
330
E
  0
SCALE
  5
40
102
{ACAD_REACTORS
330
3F
102
}
330
3F
100
AcDbScale
 70
     0
300
1:1
140
1.0
141
1.0
290
     1
  0
SCALE
  5
41
102
{ACAD_REACTORS
330
3F
102
}
330
3F
100
AcDbScale
 70
     0
300
1:2
140
1.0
141
2.0
290
     0
  0
SCALE
  5
42
102
{ACAD_REACTORS
330
3F
102
}
330
3F
100
AcDbScale
 70
     0
300
1:4
140
1.0
141
4.0
290
     0
  0
SCALE
  5
43
102
{ACAD_REACTORS
330
3F
102
}
330
3F
100
AcDbScale
 70
     0
300
1:5
140
1.0
141
5.0
290
     0
  0
SCALE
  5
44
102
{ACAD_REACTORS
330
3F
102
}
330
3F
100
AcDbScale
 70
     0
300
1:8
140
1.0
141
8.0
290
     0
  0
SCALE
  5
45
102
{ACAD_REACTORS
330
3F
102
}
330
3F
100
AcDbScale
 70
     0
300
1:10
140
1.0
141
10.0
290
     0
  0
SCALE
  5
46
102
{ACAD_REACTORS
330
3F
102
}
330
3F
100
AcDbScale
 70
     0
300
1:16
140
1.0
141
16.0
290
     0
  0
SCALE
  5
47
102
{ACAD_REACTORS
330
3F
102
}
330
3F
100
AcDbScale
 70
     0
300
1:20
140
1.0
141
20.0
290
     0
  0
SCALE
  5
48
102
{ACAD_REACTORS
330
3F
102
}
330
3F
100
AcDbScale
 70
     0
300
1:30
140
1.0
141
30.0
290
     0
  0
SCALE
  5
49
102
{ACAD_REACTORS
330
3F
102
}
330
3F
100
AcDbScale
 70
     0
300
1:40
140
1.0
141
40.0
290
     0
  0
SCALE
  5
4A
102
{ACAD_REACTORS
330
3F
102
}
330
3F
100
AcDbScale
 70
     0
300
1:50
140
1.0
141
50.0
290
     0
  0
SCALE
  5
4B
102
{ACAD_REACTORS
330
3F
102
}
330
3F
100
AcDbScale
 70
     0
300
1:100
140
1.0
141
100.0
290
     0
  0
SCALE
  5
4C
102
{ACAD_REACTORS
330
3F
102
}
330
3F
100
AcDbScale
 70
     0
300
2:1
140
2.0
141
1.0
290
     0
  0
SCALE
  5
4D
102
{ACAD_REACTORS
330
3F
102
}
330
3F
100
AcDbScale
 70
     0
300
4:1
140
4.0
141
1.0
290
     0
  0
SCALE
  5
4E
102
{ACAD_REACTORS
330
3F
102
}
330
3F
100
AcDbScale
 70
     0
300
8:1
140
8.0
141
1.0
290
     0
  0
SCALE
  5
4F
102
{ACAD_REACTORS
330
3F
102
}
330
3F
100
AcDbScale
 70
     0
300
10:1
140
10.0
141
1.0
290
     0
  0
SCALE
  5
50
102
{ACAD_REACTORS
330
3F
102
}
330
3F
100
AcDbScale
 70
     0
300
100:1
140
100.0
141
1.0
290
     0
  0
SCALE
  5
51
102
{ACAD_REACTORS
330
3F
102
}
330
3F
100
AcDbScale
 70
     0
300
1/128" = 1'-0"
140
0.0078125
141
12.0
290
     0
  0
SCALE
  5
52
102
{ACAD_REACTORS
330
3F
102
}
330
3F
100
AcDbScale
 70
     0
300
1/64" = 1'-0"
140
0.015625
141
12.0
290
     0
  0
SCALE
  5
53
102
{ACAD_REACTORS
330
3F
102
}
330
3F
100
AcDbScale
 70
     0
300
1/32" = 1'-0"
140
0.03125
141
12.0
290
     0
  0
SCALE
  5
54
102
{ACAD_REACTORS
330
3F
102
}
330
3F
100
AcDbScale
 70
     0
300
1/16" = 1'-0"
140
0.0625
141
12.0
290
     0
  0
SCALE
  5
55
102
{ACAD_REACTORS
330
3F
102
}
330
3F
100
AcDbScale
 70
     0
300
3/32" = 1'-0"
140
0.09375
141
12.0
290
     0
  0
SCALE
  5
56
102
{ACAD_REACTORS
330
3F
102
}
330
3F
100
AcDbScale
 70
     0
300
1/8" = 1'-0"
140
0.125
141
12.0
290
     0
  0
SCALE
  5
57
102
{ACAD_REACTORS
330
3F
102
}
330
3F
100
AcDbScale
 70
     0
300
3/16" = 1'-0"
140
0.1875
141
12.0
290
     0
  0
SCALE
  5
58
102
{ACAD_REACTORS
330
3F
102
}
330
3F
100
AcDbScale
 70
     0
300
1/4" = 1'-0"
140
0.25
141
12.0
290
     0
  0
SCALE
  5
59
102
{ACAD_REACTORS
330
3F
102
}
330
3F
100
AcDbScale
 70
     0
300
3/8" = 1'-0"
140
0.375
141
12.0
290
     0
  0
SCALE
  5
5A
102
{ACAD_REACTORS
330
3F
102
}
330
3F
100
AcDbScale
 70
     0
300
1/2" = 1'-0"
140
0.5
141
12.0
290
     0
  0
SCALE
  5
5B
102
{ACAD_REACTORS
330
3F
102
}
330
3F
100
AcDbScale
 70
     0
300
3/4" = 1'-0"
140
0.75
141
12.0
290
     0
  0
SCALE
  5
5C
102
{ACAD_REACTORS
330
3F
102
}
330
3F
100
AcDbScale
 70
     0
300
1" = 1'-0"
140
1.0
141
12.0
290
     0
  0
SCALE
  5
5D
102
{ACAD_REACTORS
330
3F
102
}
330
3F
100
AcDbScale
 70
     0
300
1-1/2" = 1'-0"
140
1.5
141
12.0
290
     0
  0
SCALE
  5
5E
102
{ACAD_REACTORS
330
3F
102
}
330
3F
100
AcDbScale
 70
     0
300
3" = 1'-0"
140
3.0
141
12.0
290
     0
  0
SCALE
  5
5F
102
{ACAD_REACTORS
330
3F
102
}
330
3F
100
AcDbScale
 70
     0
300
6" = 1'-0"
140
6.0
141
12.0
290
     0
  0
SCALE
  5
60
102
{ACAD_REACTORS
330
3F
102
}
330
3F
100
AcDbScale
 70
     0
300
1'-0" = 1'-0"
140
12.0
141
12.0
290
     0
  0
VISUALSTYLE
  5
2F
102
{ACAD_REACTORS
330
2A
102
}
102
{ACAD_XDICTIONARY
360
4C1
102
}
330
2A
100
AcDbVisualStyle
  2
2dWireframe
 70
     4
 71
     0
 72
     2
 73
     0
 90
        0
 40
0.6
 41
30.0
 62
     5
 63
     7
421
 16777215
 74
     1
 91
        4
 64
     7
 65
   257
 75
     1
175
     1
 42
1.0
 92
        0
 66
   257
 43
1.0
 76
     1
 77
     6
 78
     2
 67
     7
 79
     5
170
     0
171
     0
290
     0
174
     0
 93
        1
 44
0.0
173
     0
291
     0
 45
0.0
1001
ACAD
1000
AcDbSavedByObjectVersion
1070
     0
  0
VISUALSTYLE
  5
31
102
{ACAD_REACTORS
330
2A
102
}
102
{ACAD_XDICTIONARY
360
4C5
102
}
330
2A
100
AcDbVisualStyle
  2
3D Hidden
 70
     6
 71
     1
 72
     2
 73
     2
 90
        0
 40
0.6
 41
30.0
 62
     5
 63
     7
421
 16777215
 74
     2
 91
        2
 64
     7
 65
   257
 75
     2
175
     1
 42
40.0
 92
        0
 66
   257
 43
1.0
 76
     1
 77
     6
 78
     2
 67
     7
 79
     3
170
     0
171
     0
290
     0
174
     0
 93
        1
 44
0.0
173
     0
291
     0
 45
0.0
1001
ACAD
1000
AcDbSavedByObjectVersion
1070
     0
  0
VISUALSTYLE
  5
30
102
{ACAD_REACTORS
330
2A
102
}
102
{ACAD_XDICTIONARY
360
4C3
102
}
330
2A
100
AcDbVisualStyle
  2
3dWireframe
 70
     5
 71
     0
 72
     2
 73
     0
 90
        0
 40
0.6
 41
30.0
 62
     5
 63
     7
421
 16777215
 74
     1
 91
        4
 64
     7
 65
   257
 75
     1
175
     1
 42
1.0
 92
        0
 66
   257
 43
1.0
 76
     1
 77
     6
 78
     2
 67
     7
 79
     5
170
     0
171
     0
290
     0
174
     0
 93
        1
 44
0.0
173
     0
291
     0
 45
0.0
1001
ACAD
1000
AcDbSavedByObjectVersion
1070
     0
  0
VISUALSTYLE
  5
32
102
{ACAD_REACTORS
330
2A
102
}
102
{ACAD_XDICTIONARY
360
4C7
102
}
330
2A
100
AcDbVisualStyle
  2
Basic
 70
     7
 71
     1
 72
     0
 73
     1
 90
        0
 40
0.6
 41
30.0
 62
     5
 63
     7
421
 16777215
 74
     0
 91
        4
 64
     7
 65
   257
 75
     1
175
     1
 42
1.0
 92
        8
 66
     7
 43
1.0
 76
     1
 77
     6
 78
     2
 67
     7
 79
     5
170
     0
171
     0
290
     0
174
     0
 93
        1
 44
0.0
173
     0
291
     1
 45
0.0
1001
ACAD
1000
AcDbSavedByObjectVersion
1070
     0
  0
VISUALSTYLE
  5
36
102
{ACAD_REACTORS
330
2A
102
}
102
{ACAD_XDICTIONARY
360
4CF
102
}
330
2A
100
AcDbVisualStyle
  2
Brighten
 70
    12
 71
     2
 72
     2
 73
     0
 90
        0
 40
0.6
 41
30.0
 62
     5
 63
     7
421
 16777215
 74
     1
 91
        4
 64
     7
 65
   257
 75
     1
175
     1
 42
1.0
 92
        8
 66
     7
 43
1.0
 76
     1
 77
     6
 78
     2
 67
     7
 79
     5
170
     0
171
     0
290
     0
174
     0
 93
        1
 44
50.0
173
     0
291
     1
 45
0.0
1001
ACAD
1000
AcDbSavedByObjectVersion
1070
     0
  0
VISUALSTYLE
  5
3A
102
{ACAD_REACTORS
330
2A
102
}
102
{ACAD_XDICTIONARY
360
4D7
102
}
330
2A
100
AcDbVisualStyle
  2
ColorChange
 70
    16
 71
     2
 72
     2
 73
     3
 90
        0
 40
0.6
 41
30.0
 62
     5
 63
     8
421
  8421504
 74
     1
 91
        4
 64
     7
 65
   257
 75
     1
175
     1
 42
1.0
 92
        8
 66
     8
424
  8421504
 43
1.0
 76
     1
 77
     6
 78
     2
 67
     7
 79
     5
170
     0
171
     0
290
     0
174
     0
 93
        1
 44
0.0
173
     0
291
     1
 45
0.0
1001
ACAD
1000
AcDbSavedByObjectVersion
1070
     0
  0
VISUALSTYLE
  5
34
102
{ACAD_REACTORS
330
2A
102
}
102
{ACAD_XDICTIONARY
360
4CB
102
}
330
2A
100
AcDbVisualStyle
  2
Conceptual
 70
     9
 71
     3
 72
     2
 73
     0
 90
        0
 40
0.6
 41
30.0
 62
     5
 63
     7
421
 16777215
 74
     2
 91
        2
 64
     7
 65
   257
 75
     1
175
     1
 42
40.0
 92
        8
 66
     7
 43
1.0
 76
     1
 77
     6
 78
     2
 67
     7
 79
     3
170
     0
171
     0
290
     0
174
     0
 93
        1
 44
0.0
173
     0
291
     0
 45
0.0
1001
ACAD
1000
AcDbSavedByObjectVersion
1070
     0
  0
VISUALSTYLE
  5
35
102
{ACAD_REACTORS
330
2A
102
}
102
{ACAD_XDICTIONARY
360
4CD
102
}
330
2A
100
AcDbVisualStyle
  2
Dim
 70
    11
 71
     2
 72
     2
 73
     0
 90
        0
 40
0.6
 41
30.0
 62
     5
 63
     7
421
 16777215
 74
     1
 91
        4
 64
     7
 65
   257
 75
     1
175
     1
 42
1.0
 92
        8
 66
     7
 43
1.0
 76
     1
 77
     6
 78
     2
 67
     7
 79
     5
170
     0
171
     0
290
     0
174
     0
 93
        1
 44
-50.0
173
     0
291
     1
 45
0.0
1001
ACAD
1000
AcDbSavedByObjectVersion
1070
     0
  0
VISUALSTYLE
  5
39
102
{ACAD_REACTORS
330
2A
102
}
102
{ACAD_XDICTIONARY
360
4D5
102
}
330
2A
100
AcDbVisualStyle
  2
Facepattern
 70
    15
 71
     2
 72
     2
 73
     0
 90
        0
 40
0.6
 41
30.0
 62
     5
 63
     7
421
 16777215
 74
     1
 91
        4
 64
     7
 65
   257
 75
     1
175
     1
 42
1.0
 92
        8
 66
     7
 43
1.0
 76
     1
 77
     6
 78
     2
 67
     7
 79
     5
170
     0
171
     0
290
     0
174
     0
 93
        1
 44
0.0
173
     0
291
     1
 45
0.0
1001
ACAD
1000
AcDbSavedByObjectVersion
1070
     0
  0
VISUALSTYLE
  5
2B
102
{ACAD_REACTORS
330
2A
102
}
102
{ACAD_XDICTIONARY
360
4B9
102
}
330
2A
100
AcDbVisualStyle
  2
Flat
 70
     0
 71
     2
 72
     1
 73
     1
 90
        2
 40
0.6
 41
30.0
 62
     5
 63
     7
421
 16777215
 74
     0
 91
        4
 64
     7
 65
   257
 75
     1
175
     1
 42
1.0
 92
        8
 66
     7
 43
1.0
 76
     1
 77
     6
 78
     2
 67
     7
 79
     5
170
     0
171
     0
290
     0
174
     0
 93
       13
 44
0.0
173
     0
291
     1
 45
0.0
1001
ACAD
1000
AcDbSavedByObjectVersion
1070
     0
  0
VISUALSTYLE
  5
2C
102
{ACAD_REACTORS
330
2A
102
}
102
{ACAD_XDICTIONARY
360
4BB
102
}
330
2A
100
AcDbVisualStyle
  2
FlatWithEdges
 70
     1
 71
     2
 72
     1
 73
     1
 90
        2
 40
0.6
 41
30.0
 62
     5
 63
     7
421
 16777215
 74
     1
 91
        4
 64
     7
 65
   257
 75
     1
175
     1
 42
1.0
 92
        0
 66
   257
 43
1.0
 76
     1
 77
     6
 78
     2
 67
     7
 79
     5
170
     0
171
     0
290
     0
174
     0
 93
       13
 44
0.0
173
     0
291
     1
 45
0.0
1001
ACAD
1000
AcDbSavedByObjectVersion
1070
     0
  0
VISUALSTYLE
  5
2D
102
{ACAD_REACTORS
330
2A
102
}
102
{ACAD_XDICTIONARY
360
4BD
102
}
330
2A
100
AcDbVisualStyle
  2
Gouraud
 70
     2
 71
     2
 72
     2
 73
     1
 90
        2
 40
0.6
 41
30.0
 62
     5
 63
     7
421
 16777215
 74
     0
 91
        4
 64
     7
 65
   257
 75
     1
175
     1
 42
1.0
 92
        0
 66
     7
 43
1.0
 76
     1
 77
     6
 78
     2
 67
     7
 79
     5
170
     0
171
     0
290
     0
174
     0
 93
       13
 44
0.0
173
     0
291
     1
 45
0.0
1001
ACAD
1000
AcDbSavedByObjectVersion
1070
     0
  0
VISUALSTYLE
  5
2E
102
{ACAD_REACTORS
330
2A
102
}
102
{ACAD_XDICTIONARY
360
4BF
102
}
330
2A
100
AcDbVisualStyle
  2
GouraudWithEdges
 70
     3
 71
     2
 72
     2
 73
     1
 90
        2
 40
0.6
 41
30.0
 62
     5
 63
     7
421
 16777215
 74
     1
 91
        4
 64
     7
 65
   257
 75
     1
175
     1
 42
1.0
 92
        0
 66
   257
 43
1.0
 76
     1
 77
     6
 78
     2
 67
     7
 79
     5
170
     0
171
     0
290
     0
174
     0
 93
       13
 44
0.0
173
     0
291
     1
 45
0.0
1001
ACAD
1000
AcDbSavedByObjectVersion
1070
     0
  0
VISUALSTYLE
  5
38
102
{ACAD_REACTORS
330
2A
102
}
102
{ACAD_XDICTIONARY
360
4D3
102
}
330
2A
100
AcDbVisualStyle
  2
Linepattern
 70
    14
 71
     2
 72
     2
 73
     0
 90
        0
 40
0.6
 41
30.0
 62
     5
 63
     7
421
 16777215
 74
     1
 91
        4
 64
     7
 65
   257
 75
     7
175
     7
 42
1.0
 92
        8
 66
     7
 43
1.0
 76
     1
 77
     6
 78
     2
 67
     7
 79
     5
170
     0
171
     0
290
     0
174
     0
 93
        1
 44
0.0
173
     0
291
     1
 45
0.0
1001
ACAD
1000
AcDbSavedByObjectVersion
1070
     0
  0
VISUALSTYLE
  5
33
102
{ACAD_REACTORS
330
2A
102
}
102
{ACAD_XDICTIONARY
360
4C9
102
}
330
2A
100
AcDbVisualStyle
  2
Realistic
 70
     8
 71
     2
 72
     3
 73
     0
 90
        2
 40
0.6
 41
30.0
 62
     5
 63
     7
421
 16777215
 74
     0
 91
        0
 64
     7
 65
   257
 75
     1
175
     1
 42
1.0
 92
        8
 66
   257
 43
1.0
 76
     1
 77
     6
 78
     2
 67
     7
 79
     3
170
     0
171
     0
290
     0
174
     0
 93
       13
 44
0.0
173
     0
291
     0
 45
0.0
1001
ACAD
1000
AcDbSavedByObjectVersion
1070
     0
  0
VISUALSTYLE
  5
37
102
{ACAD_REACTORS
330
2A
102
}
102
{ACAD_XDICTIONARY
360
4D1
102
}
330
2A
100
AcDbVisualStyle
  2
Thicken
 70
    13
 71
     2
 72
     2
 73
     0
 90
        0
 40
0.6
 41
30.0
 62
     5
 63
     7
421
 16777215
 74
     1
 91
        4
 64
     7
 65
   257
 75
     1
175
     1
 42
1.0
 92
       12
 66
     7
 43
1.0
 76
     1
 77
     6
 78
     2
 67
     7
 79
     5
170
     0
171
     0
290
     0
174
     0
 93
        1
 44
0.0
173
     0
291
     1
 45
0.0
1001
ACAD
1000
AcDbSavedByObjectVersion
1070
     0
  0
DICTIONARYVAR
  5
4B7
102
{ACAD_REACTORS
330
4B6
102
}
330
4B6
100
DictionaryVariables
280
     0
  1
1:1
  0
DICTIONARYVAR
  5
4B8
102
{ACAD_REACTORS
330
4B6
102
}
330
4B6
100
DictionaryVariables
280
     0
  1
1
  0
DICTIONARY
  5
4DB
330
3D
100
AcDbDictionary
280
     1
281
     1
  3
ACAD_XREC_ROUNDTRIP
360
4DC
  0
DICTIONARY
  5
4D9
330
3C
100
AcDbDictionary
280
     1
281
     1
  3
ACAD_XREC_ROUNDTRIP
360
4DA
  0
DICTIONARY
  5
4DD
330
3E
100
AcDbDictionary
280
     1
281
     1
  3
ACAD_XREC_ROUNDTRIP
360
4DE
  0
DICTIONARY
  5
4C1
330
2F
100
AcDbDictionary
280
     1
281
     1
  3
ACAD_XREC_ROUNDTRIP
360
4C2
  0
DICTIONARY
  5
4C5
330
31
100
AcDbDictionary
280
     1
281
     1
  3
ACAD_XREC_ROUNDTRIP
360
4C6
  0
DICTIONARY
  5
4C3
330
30
100
AcDbDictionary
280
     1
281
     1
  3
ACAD_XREC_ROUNDTRIP
360
4C4
  0
DICTIONARY
  5
4C7
330
32
100
AcDbDictionary
280
     1
281
     1
  3
ACAD_XREC_ROUNDTRIP
360
4C8
  0
DICTIONARY
  5
4CF
330
36
100
AcDbDictionary
280
     1
281
     1
  3
ACAD_XREC_ROUNDTRIP
360
4D0
  0
DICTIONARY
  5
4D7
330
3A
100
AcDbDictionary
280
     1
281
     1
  3
ACAD_XREC_ROUNDTRIP
360
4D8
  0
DICTIONARY
  5
4CB
330
34
100
AcDbDictionary
280
     1
281
     1
  3
ACAD_XREC_ROUNDTRIP
360
4CC
  0
DICTIONARY
  5
4CD
330
35
100
AcDbDictionary
280
     1
281
     1
  3
ACAD_XREC_ROUNDTRIP
360
4CE
  0
DICTIONARY
  5
4D5
330
39
100
AcDbDictionary
280
     1
281
     1
  3
ACAD_XREC_ROUNDTRIP
360
4D6
  0
DICTIONARY
  5
4B9
330
2B
100
AcDbDictionary
280
     1
281
     1
  3
ACAD_XREC_ROUNDTRIP
360
4BA
  0
DICTIONARY
  5
4BB
330
2C
100
AcDbDictionary
280
     1
281
     1
  3
ACAD_XREC_ROUNDTRIP
360
4BC
  0
DICTIONARY
  5
4BD
330
2D
100
AcDbDictionary
280
     1
281
     1
  3
ACAD_XREC_ROUNDTRIP
360
4BE
  0
DICTIONARY
  5
4BF
330
2E
100
AcDbDictionary
280
     1
281
     1
  3
ACAD_XREC_ROUNDTRIP
360
4C0
  0
DICTIONARY
  5
4D3
330
38
100
AcDbDictionary
280
     1
281
     1
  3
ACAD_XREC_ROUNDTRIP
360
4D4
  0
DICTIONARY
  5
4C9
330
33
100
AcDbDictionary
280
     1
281
     1
  3
ACAD_XREC_ROUNDTRIP
360
4CA
  0
DICTIONARY
  5
4D1
330
37
100
AcDbDictionary
280
     1
281
     1
  3
ACAD_XREC_ROUNDTRIP
360
4D2
  0
XRECORD
  5
4DC
102
{ACAD_REACTORS
330
4DB
102
}
330
4DB
100
AcDbXrecord
280
     1
102
MATERIAL
148
0.0
149
0.0
149
0.0
 93
        0
 94
      127
282
     0
 72
     1
 77
     1
171
     1
175
     1
179
     1
273
     0
  0
XRECORD
  5
4DA
102
{ACAD_REACTORS
330
4D9
102
}
330
4D9
100
AcDbXrecord
280
     1
102
MATERIAL
148
0.0
149
0.0
149
0.0
 93
        0
 94
      127
282
     0
 72
     1
 77
     1
171
     1
175
     1
179
     1
273
     0
  0
XRECORD
  5
4DE
102
{ACAD_REACTORS
330
4DD
102
}
330
4DD
100
AcDbXrecord
280
     1
102
MATERIAL
148
0.0
149
0.0
149
0.0
 93
        0
 94
      127
282
     0
 72
     1
 77
     1
171
     1
175
     1
179
     1
273
     0
  0
XRECORD
  5
4C2
102
{ACAD_REACTORS
330
4C1
102
}
330
4C1
100
AcDbXrecord
280
     1
102
RTVSPropertyOp0
 70
     1
102
RTVSPropertyOp1
 70
     1
102
RTVSPropertyOp2
 70
     1
102
RTVSPropertyOp3
 70
     1
102
RTVSPropertyOp4
 70
     1
102
RTVSPropertyOp5
 70
     1
102
RTVSPropertyOp6
 70
     1
102
RTVSPropertyOp7
 70
     1
102
RTVSPropertyOp8
 70
     1
102
RTVSPropertyOp9
 70
     1
102
RTVSPropertyOp10
 70
     1
102
RTVSPropertyOp11
 70
     1
102
RTVSPropertyOp12
 70
     1
102
RTVSPropertyOp13
 70
     1
102
RTVSPropertyOp14
 70
     1
102
RTVSPropertyOp15
 70
     1
102
RTVSPropertyOp16
 70
     1
102
RTVSPropertyOp17
 70
     1
102
RTVSPropertyOp18
 70
     1
102
RTVSPropertyOp19
 70
     1
102
RTVSPropertyOp20
 70
     1
102
RTVSPropertyOp21
 70
     1
102
RTVSPropertyOp22
 70
     1
102
RTVSPropertyOp23
 70
     1
102
RTVSPropertyOp24
 70
     1
102
RTVSPropertyOp25
 70
     1
102
RTVSPropertyOp26
 70
     1
102
RTVSPropertyOp27
 70
     1
102
RTVSPropertyOp28
 70
     1
102
RTVSPropertyOp29
 70
     1
102
RTVSPropertyOp30
 70
     1
102
RTVSPropertyOp31
 70
     1
102
RTVSPropertyOp32
 70
     1
102
RTVSPropertyOp33
 70
     1
102
RTVSPropertyOp34
 70
     1
102
RTVSPropertyOp35
 70
     1
102
RTVSPropertyOp36
 70
     1
102
RTVSPropertyOp37
 70
     1
102
RTVSPropertyOp38
 70
     1
102
RTVSPropertyOp39
 70
     1
102
RTVSPropertyOp40
 70
     1
102
RTVSPropertyOp41
 70
     1
102
RTVSPropertyOp42
 70
     1
102
RTVSPropertyOp43
 70
     1
102
RTVSPropertyOp44
 70
     1
102
RTVSPropertyOp45
 70
     1
102
RTVSPropertyOp46
 70
     1
102
RTVSPropertyOp47
 70
     1
102
RTVSPropertyOp48
 70
     1
102
RTVSPropertyOp49
 70
     1
102
RTVSPropertyOp50
 70
     1
102
RTVSPropertyOp51
 70
     0
102
RTVSPropertyOp52
 70
     0
102
RTVSPropertyOp53
 70
     1
102
RTVSPropertyOp54
 70
     1
102
RTVSPropertyOp55
 70
     1
102
RTVSPropertyOp56
 70
     1
102
RTVSPropertyOp57
 70
     1
102
RTVSPost2010Prop28
280
     1
102
RTVSPost2010PropOp28
 70
     1
102
RTVSPost2010Prop29
280
     1
102
RTVSPost2010PropOp29
 70
     1
102
RTVSPost2010Prop30
280
     0
102
RTVSPost2010PropOp30
 70
     1
102
RTVSPost2010Prop31
280
     0
102
RTVSPost2010PropOp31
 70
     1
102
RTVSPost2010Prop32
280
     0
102
RTVSPost2010PropOp32
 70
     1
102
RTVSPost2010Prop33
280
     0
102
RTVSPost2010PropOp33
 70
     1
102
RTVSPost2010Prop34
280
     0
102
RTVSPost2010PropOp34
 70
     1
102
RTVSPost2010Prop35
280
     0
102
RTVSPost2010PropOp35
 70
     1
102
RTVSPost2010Prop36
280
     0
102
RTVSPost2010PropOp36
 70
     1
102
RTVSPost2010Prop37
 90
       50
102
RTVSPost2010PropOp37
 70
     1
102
RTVSPost2010Prop38
140
0.0
102
RTVSPost2010PropOp38
 70
     1
102
RTVSPost2010Prop39
140
1.0
102
RTVSPost2010PropOp39
 70
     1
102
RTVSPost2010Prop40
 90
        0
102
RTVSPost2010PropOp40
 70
     1
102
RTVSPost2010Prop41ColorIndex
 90
       18
102
RTVSPost2010Prop41ColorRGB
 90
        0
102
RTVSPost2010PropOp41
 70
     1
102
RTVSPost2010Prop42
 90
       50
102
RTVSPost2010PropOp42
 70
     1
102
RTVSPost2010Prop43
 90
        3
102
RTVSPost2010PropOp43
 70
     1
102
RTVSPost2010Prop44ColorIndex
 90
        5
102
RTVSPost2010Prop44ColorRGB
 90
      255
102
RTVSPost2010PropOp44
 70
     1
102
RTVSPost2010Prop45
280
     0
102
RTVSPost2010PropOp45
 70
     1
102
RTVSPost2010Prop46
 90
       50
102
RTVSPost2010PropOp46
 70
     1
102
RTVSPost2010Prop47
 90
       50
102
RTVSPost2010PropOp47
 70
     1
102
RTVSPost2010Prop48
 90
       50
102
RTVSPost2010PropOp48
 70
     1
102
RTVSPost2010Prop49
280
     0
102
RTVSPost2010PropOp49
 70
     1
102
RTVSPost2010Prop50
 90
       50
102
RTVSPost2010PropOp50
 70
     1
102
RTVSPost2010Prop51ColorIndex
 90
      256
102
RTVSPost2010Prop51ColorRGB
 90
-16777216
102
RTVSPost2010PropOp51
 70
     0
102
RTVSPost2010Prop52
140
1.0
102
RTVSPost2010PropOp52
 70
     0
102
RTVSPost2010Prop53
 90
        2
102
RTVSPost2010PropOp53
 70
     1
102
RTVSPost2010Prop54
  1
strokes_ogs.tif
102
RTVSPost2010PropOp54
 70
     1
102
RTVSPost2010Prop55
280
     0
102
RTVSPost2010PropOp55
 70
     1
102
RTVSPost2010Prop56
140
1.0
102
RTVSPost2010PropOp56
 70
     1
102
RTVSPost2010Prop57
140
1.0
102
RTVSPost2010PropOp57
 70
     1
  0
XRECORD
  5
4C6
102
{ACAD_REACTORS
330
4C5
102
}
330
4C5
100
AcDbXrecord
280
     1
102
RTVSPropertyOp0
 70
     1
102
RTVSPropertyOp1
 70
     1
102
RTVSPropertyOp2
 70
     1
102
RTVSPropertyOp3
 70
     1
102
RTVSPropertyOp4
 70
     1
102
RTVSPropertyOp5
 70
     1
102
RTVSPropertyOp6
 70
     1
102
RTVSPropertyOp7
 70
     1
102
RTVSPropertyOp8
 70
     1
102
RTVSPropertyOp9
 70
     1
102
RTVSPropertyOp10
 70
     1
102
RTVSPropertyOp11
 70
     1
102
RTVSPropertyOp12
 70
     1
102
RTVSPropertyOp13
 70
     1
102
RTVSPropertyOp14
 70
     1
102
RTVSPropertyOp15
 70
     1
102
RTVSPropertyOp16
 70
     1
102
RTVSPropertyOp17
 70
     1
102
RTVSPropertyOp18
 70
     1
102
RTVSPropertyOp19
 70
     1
102
RTVSPropertyOp20
 70
     1
102
RTVSPropertyOp21
 70
     1
102
RTVSPropertyOp22
 70
     1
102
RTVSPropertyOp23
 70
     1
102
RTVSPropertyOp24
 70
     1
102
RTVSPropertyOp25
 70
     1
102
RTVSPropertyOp26
 70
     1
102
RTVSPropertyOp27
 70
     1
102
RTVSPropertyOp28
 70
     1
102
RTVSPropertyOp29
 70
     1
102
RTVSPropertyOp30
 70
     1
102
RTVSPropertyOp31
 70
     1
102
RTVSPropertyOp32
 70
     1
102
RTVSPropertyOp33
 70
     1
102
RTVSPropertyOp34
 70
     1
102
RTVSPropertyOp35
 70
     1
102
RTVSPropertyOp36
 70
     1
102
RTVSPropertyOp37
 70
     1
102
RTVSPropertyOp38
 70
     1
102
RTVSPropertyOp39
 70
     1
102
RTVSPropertyOp40
 70
     1
102
RTVSPropertyOp41
 70
     1
102
RTVSPropertyOp42
 70
     1
102
RTVSPropertyOp43
 70
     1
102
RTVSPropertyOp44
 70
     1
102
RTVSPropertyOp45
 70
     1
102
RTVSPropertyOp46
 70
     1
102
RTVSPropertyOp47
 70
     1
102
RTVSPropertyOp48
 70
     1
102
RTVSPropertyOp49
 70
     1
102
RTVSPropertyOp50
 70
     1
102
RTVSPropertyOp51
 70
     0
102
RTVSPropertyOp52
 70
     0
102
RTVSPropertyOp53
 70
     1
102
RTVSPropertyOp54
 70
     1
102
RTVSPropertyOp55
 70
     1
102
RTVSPropertyOp56
 70
     1
102
RTVSPropertyOp57
 70
     1
102
RTVSPost2010Prop28
280
     0
102
RTVSPost2010PropOp28
 70
     1
102
RTVSPost2010Prop29
280
     1
102
RTVSPost2010PropOp29
 70
     1
102
RTVSPost2010Prop30
280
     1
102
RTVSPost2010PropOp30
 70
     1
102
RTVSPost2010Prop31
280
     0
102
RTVSPost2010PropOp31
 70
     1
102
RTVSPost2010Prop32
280
     0
102
RTVSPost2010PropOp32
 70
     1
102
RTVSPost2010Prop33
280
     0
102
RTVSPost2010PropOp33
 70
     1
102
RTVSPost2010Prop34
280
     0
102
RTVSPost2010PropOp34
 70
     1
102
RTVSPost2010Prop35
280
     0
102
RTVSPost2010PropOp35
 70
     1
102
RTVSPost2010Prop36
280
     0
102
RTVSPost2010PropOp36
 70
     1
102
RTVSPost2010Prop37
 90
       50
102
RTVSPost2010PropOp37
 70
     1
102
RTVSPost2010Prop38
140
0.0
102
RTVSPost2010PropOp38
 70
     1
102
RTVSPost2010Prop39
140
1.0
102
RTVSPost2010PropOp39
 70
     1
102
RTVSPost2010Prop40
 90
        0
102
RTVSPost2010PropOp40
 70
     1
102
RTVSPost2010Prop41ColorIndex
 90
       18
102
RTVSPost2010Prop41ColorRGB
 90
        0
102
RTVSPost2010PropOp41
 70
     1
102
RTVSPost2010Prop42
 90
       50
102
RTVSPost2010PropOp42
 70
     1
102
RTVSPost2010Prop43
 90
        3
102
RTVSPost2010PropOp43
 70
     1
102
RTVSPost2010Prop44ColorIndex
 90
        5
102
RTVSPost2010Prop44ColorRGB
 90
      255
102
RTVSPost2010PropOp44
 70
     1
102
RTVSPost2010Prop45
280
     0
102
RTVSPost2010PropOp45
 70
     1
102
RTVSPost2010Prop46
 90
       50
102
RTVSPost2010PropOp46
 70
     1
102
RTVSPost2010Prop47
 90
       50
102
RTVSPost2010PropOp47
 70
     1
102
RTVSPost2010Prop48
 90
       50
102
RTVSPost2010PropOp48
 70
     1
102
RTVSPost2010Prop49
280
     0
102
RTVSPost2010PropOp49
 70
     1
102
RTVSPost2010Prop50
 90
       50
102
RTVSPost2010PropOp50
 70
     1
102
RTVSPost2010Prop51ColorIndex
 90
      256
102
RTVSPost2010Prop51ColorRGB
 90
-16777216
102
RTVSPost2010PropOp51
 70
     0
102
RTVSPost2010Prop52
140
1.0
102
RTVSPost2010PropOp52
 70
     0
102
RTVSPost2010Prop53
 90
        2
102
RTVSPost2010PropOp53
 70
     1
102
RTVSPost2010Prop54
  1
strokes_ogs.tif
102
RTVSPost2010PropOp54
 70
     1
102
RTVSPost2010Prop55
280
     0
102
RTVSPost2010PropOp55
 70
     1
102
RTVSPost2010Prop56
140
1.0
102
RTVSPost2010PropOp56
 70
     1
102
RTVSPost2010Prop57
140
1.0
102
RTVSPost2010PropOp57
 70
     1
  0
XRECORD
  5
4C4
102
{ACAD_REACTORS
330
4C3
102
}
330
4C3
100
AcDbXrecord
280
     1
102
RTVSPropertyOp0
 70
     1
102
RTVSPropertyOp1
 70
     1
102
RTVSPropertyOp2
 70
     1
102
RTVSPropertyOp3
 70
     1
102
RTVSPropertyOp4
 70
     1
102
RTVSPropertyOp5
 70
     1
102
RTVSPropertyOp6
 70
     1
102
RTVSPropertyOp7
 70
     1
102
RTVSPropertyOp8
 70
     1
102
RTVSPropertyOp9
 70
     1
102
RTVSPropertyOp10
 70
     1
102
RTVSPropertyOp11
 70
     1
102
RTVSPropertyOp12
 70
     1
102
RTVSPropertyOp13
 70
     1
102
RTVSPropertyOp14
 70
     1
102
RTVSPropertyOp15
 70
     1
102
RTVSPropertyOp16
 70
     1
102
RTVSPropertyOp17
 70
     1
102
RTVSPropertyOp18
 70
     1
102
RTVSPropertyOp19
 70
     1
102
RTVSPropertyOp20
 70
     1
102
RTVSPropertyOp21
 70
     1
102
RTVSPropertyOp22
 70
     1
102
RTVSPropertyOp23
 70
     1
102
RTVSPropertyOp24
 70
     1
102
RTVSPropertyOp25
 70
     1
102
RTVSPropertyOp26
 70
     1
102
RTVSPropertyOp27
 70
     1
102
RTVSPropertyOp28
 70
     1
102
RTVSPropertyOp29
 70
     1
102
RTVSPropertyOp30
 70
     1
102
RTVSPropertyOp31
 70
     1
102
RTVSPropertyOp32
 70
     1
102
RTVSPropertyOp33
 70
     1
102
RTVSPropertyOp34
 70
     1
102
RTVSPropertyOp35
 70
     1
102
RTVSPropertyOp36
 70
     1
102
RTVSPropertyOp37
 70
     1
102
RTVSPropertyOp38
 70
     1
102
RTVSPropertyOp39
 70
     1
102
RTVSPropertyOp40
 70
     1
102
RTVSPropertyOp41
 70
     1
102
RTVSPropertyOp42
 70
     1
102
RTVSPropertyOp43
 70
     1
102
RTVSPropertyOp44
 70
     1
102
RTVSPropertyOp45
 70
     1
102
RTVSPropertyOp46
 70
     1
102
RTVSPropertyOp47
 70
     1
102
RTVSPropertyOp48
 70
     1
102
RTVSPropertyOp49
 70
     1
102
RTVSPropertyOp50
 70
     1
102
RTVSPropertyOp51
 70
     0
102
RTVSPropertyOp52
 70
     0
102
RTVSPropertyOp53
 70
     1
102
RTVSPropertyOp54
 70
     1
102
RTVSPropertyOp55
 70
     1
102
RTVSPropertyOp56
 70
     1
102
RTVSPropertyOp57
 70
     1
102
RTVSPost2010Prop28
280
     0
102
RTVSPost2010PropOp28
 70
     1
102
RTVSPost2010Prop29
280
     1
102
RTVSPost2010PropOp29
 70
     1
102
RTVSPost2010Prop30
280
     1
102
RTVSPost2010PropOp30
 70
     1
102
RTVSPost2010Prop31
280
     0
102
RTVSPost2010PropOp31
 70
     1
102
RTVSPost2010Prop32
280
     0
102
RTVSPost2010PropOp32
 70
     1
102
RTVSPost2010Prop33
280
     0
102
RTVSPost2010PropOp33
 70
     1
102
RTVSPost2010Prop34
280
     0
102
RTVSPost2010PropOp34
 70
     1
102
RTVSPost2010Prop35
280
     0
102
RTVSPost2010PropOp35
 70
     1
102
RTVSPost2010Prop36
280
     0
102
RTVSPost2010PropOp36
 70
     1
102
RTVSPost2010Prop37
 90
       50
102
RTVSPost2010PropOp37
 70
     1
102
RTVSPost2010Prop38
140
0.0
102
RTVSPost2010PropOp38
 70
     1
102
RTVSPost2010Prop39
140
1.0
102
RTVSPost2010PropOp39
 70
     1
102
RTVSPost2010Prop40
 90
        0
102
RTVSPost2010PropOp40
 70
     1
102
RTVSPost2010Prop41ColorIndex
 90
       18
102
RTVSPost2010Prop41ColorRGB
 90
        0
102
RTVSPost2010PropOp41
 70
     1
102
RTVSPost2010Prop42
 90
       50
102
RTVSPost2010PropOp42
 70
     1
102
RTVSPost2010Prop43
 90
        3
102
RTVSPost2010PropOp43
 70
     1
102
RTVSPost2010Prop44ColorIndex
 90
        5
102
RTVSPost2010Prop44ColorRGB
 90
      255
102
RTVSPost2010PropOp44
 70
     1
102
RTVSPost2010Prop45
280
     0
102
RTVSPost2010PropOp45
 70
     1
102
RTVSPost2010Prop46
 90
       50
102
RTVSPost2010PropOp46
 70
     1
102
RTVSPost2010Prop47
 90
       50
102
RTVSPost2010PropOp47
 70
     1
102
RTVSPost2010Prop48
 90
       50
102
RTVSPost2010PropOp48
 70
     1
102
RTVSPost2010Prop49
280
     0
102
RTVSPost2010PropOp49
 70
     1
102
RTVSPost2010Prop50
 90
       50
102
RTVSPost2010PropOp50
 70
     1
102
RTVSPost2010Prop51ColorIndex
 90
      256
102
RTVSPost2010Prop51ColorRGB
 90
-16777216
102
RTVSPost2010PropOp51
 70
     0
102
RTVSPost2010Prop52
140
1.0
102
RTVSPost2010PropOp52
 70
     0
102
RTVSPost2010Prop53
 90
        2
102
RTVSPost2010PropOp53
 70
     1
102
RTVSPost2010Prop54
  1
strokes_ogs.tif
102
RTVSPost2010PropOp54
 70
     1
102
RTVSPost2010Prop55
280
     0
102
RTVSPost2010PropOp55
 70
     1
102
RTVSPost2010Prop56
140
1.0
102
RTVSPost2010PropOp56
 70
     1
102
RTVSPost2010Prop57
140
1.0
102
RTVSPost2010PropOp57
 70
     1
  0
XRECORD
  5
4C8
102
{ACAD_REACTORS
330
4C7
102
}
330
4C7
100
AcDbXrecord
280
     1
102
RTVSPropertyOp0
 70
     1
102
RTVSPropertyOp1
 70
     1
102
RTVSPropertyOp2
 70
     1
102
RTVSPropertyOp3
 70
     1
102
RTVSPropertyOp4
 70
     1
102
RTVSPropertyOp5
 70
     1
102
RTVSPropertyOp6
 70
     1
102
RTVSPropertyOp7
 70
     1
102
RTVSPropertyOp8
 70
     1
102
RTVSPropertyOp9
 70
     1
102
RTVSPropertyOp10
 70
     1
102
RTVSPropertyOp11
 70
     1
102
RTVSPropertyOp12
 70
     1
102
RTVSPropertyOp13
 70
     1
102
RTVSPropertyOp14
 70
     1
102
RTVSPropertyOp15
 70
     1
102
RTVSPropertyOp16
 70
     1
102
RTVSPropertyOp17
 70
     1
102
RTVSPropertyOp18
 70
     1
102
RTVSPropertyOp19
 70
     1
102
RTVSPropertyOp20
 70
     1
102
RTVSPropertyOp21
 70
     1
102
RTVSPropertyOp22
 70
     1
102
RTVSPropertyOp23
 70
     1
102
RTVSPropertyOp24
 70
     1
102
RTVSPropertyOp25
 70
     1
102
RTVSPropertyOp26
 70
     1
102
RTVSPropertyOp27
 70
     1
102
RTVSPropertyOp28
 70
     1
102
RTVSPropertyOp29
 70
     1
102
RTVSPropertyOp30
 70
     1
102
RTVSPropertyOp31
 70
     1
102
RTVSPropertyOp32
 70
     1
102
RTVSPropertyOp33
 70
     1
102
RTVSPropertyOp34
 70
     1
102
RTVSPropertyOp35
 70
     1
102
RTVSPropertyOp36
 70
     1
102
RTVSPropertyOp37
 70
     1
102
RTVSPropertyOp38
 70
     1
102
RTVSPropertyOp39
 70
     1
102
RTVSPropertyOp40
 70
     1
102
RTVSPropertyOp41
 70
     1
102
RTVSPropertyOp42
 70
     1
102
RTVSPropertyOp43
 70
     1
102
RTVSPropertyOp44
 70
     1
102
RTVSPropertyOp45
 70
     1
102
RTVSPropertyOp46
 70
     1
102
RTVSPropertyOp47
 70
     1
102
RTVSPropertyOp48
 70
     1
102
RTVSPropertyOp49
 70
     1
102
RTVSPropertyOp50
 70
     1
102
RTVSPropertyOp51
 70
     0
102
RTVSPropertyOp52
 70
     0
102
RTVSPropertyOp53
 70
     1
102
RTVSPropertyOp54
 70
     1
102
RTVSPropertyOp55
 70
     1
102
RTVSPropertyOp56
 70
     1
102
RTVSPropertyOp57
 70
     1
102
RTVSPost2010Prop28
280
     0
102
RTVSPost2010PropOp28
 70
     1
102
RTVSPost2010Prop29
280
     1
102
RTVSPost2010PropOp29
 70
     1
102
RTVSPost2010Prop30
280
     1
102
RTVSPost2010PropOp30
 70
     1
102
RTVSPost2010Prop31
280
     0
102
RTVSPost2010PropOp31
 70
     1
102
RTVSPost2010Prop32
280
     0
102
RTVSPost2010PropOp32
 70
     1
102
RTVSPost2010Prop33
280
     0
102
RTVSPost2010PropOp33
 70
     1
102
RTVSPost2010Prop34
280
     0
102
RTVSPost2010PropOp34
 70
     1
102
RTVSPost2010Prop35
280
     0
102
RTVSPost2010PropOp35
 70
     1
102
RTVSPost2010Prop36
280
     0
102
RTVSPost2010PropOp36
 70
     1
102
RTVSPost2010Prop37
 90
       50
102
RTVSPost2010PropOp37
 70
     1
102
RTVSPost2010Prop38
140
0.0
102
RTVSPost2010PropOp38
 70
     1
102
RTVSPost2010Prop39
140
1.0
102
RTVSPost2010PropOp39
 70
     1
102
RTVSPost2010Prop40
 90
        0
102
RTVSPost2010PropOp40
 70
     1
102
RTVSPost2010Prop41ColorIndex
 90
       18
102
RTVSPost2010Prop41ColorRGB
 90
        0
102
RTVSPost2010PropOp41
 70
     1
102
RTVSPost2010Prop42
 90
       50
102
RTVSPost2010PropOp42
 70
     1
102
RTVSPost2010Prop43
 90
        3
102
RTVSPost2010PropOp43
 70
     1
102
RTVSPost2010Prop44ColorIndex
 90
        5
102
RTVSPost2010Prop44ColorRGB
 90
      255
102
RTVSPost2010PropOp44
 70
     1
102
RTVSPost2010Prop45
280
     0
102
RTVSPost2010PropOp45
 70
     1
102
RTVSPost2010Prop46
 90
       50
102
RTVSPost2010PropOp46
 70
     1
102
RTVSPost2010Prop47
 90
       50
102
RTVSPost2010PropOp47
 70
     1
102
RTVSPost2010Prop48
 90
       50
102
RTVSPost2010PropOp48
 70
     1
102
RTVSPost2010Prop49
280
     0
102
RTVSPost2010PropOp49
 70
     1
102
RTVSPost2010Prop50
 90
       50
102
RTVSPost2010PropOp50
 70
     1
102
RTVSPost2010Prop51ColorIndex
 90
      256
102
RTVSPost2010Prop51ColorRGB
 90
-16777216
102
RTVSPost2010PropOp51
 70
     0
102
RTVSPost2010Prop52
140
1.0
102
RTVSPost2010PropOp52
 70
     0
102
RTVSPost2010Prop53
 90
        2
102
RTVSPost2010PropOp53
 70
     1
102
RTVSPost2010Prop54
  1
strokes_ogs.tif
102
RTVSPost2010PropOp54
 70
     1
102
RTVSPost2010Prop55
280
     0
102
RTVSPost2010PropOp55
 70
     1
102
RTVSPost2010Prop56
140
1.0
102
RTVSPost2010PropOp56
 70
     1
102
RTVSPost2010Prop57
140
1.0
102
RTVSPost2010PropOp57
 70
     1
  0
XRECORD
  5
4D0
102
{ACAD_REACTORS
330
4CF
102
}
330
4CF
100
AcDbXrecord
280
     1
102
RTVSPropertyOp0
 70
     1
102
RTVSPropertyOp1
 70
     1
102
RTVSPropertyOp2
 70
     1
102
RTVSPropertyOp3
 70
     1
102
RTVSPropertyOp4
 70
     1
102
RTVSPropertyOp5
 70
     1
102
RTVSPropertyOp6
 70
     1
102
RTVSPropertyOp7
 70
     1
102
RTVSPropertyOp8
 70
     1
102
RTVSPropertyOp9
 70
     1
102
RTVSPropertyOp10
 70
     1
102
RTVSPropertyOp11
 70
     1
102
RTVSPropertyOp12
 70
     1
102
RTVSPropertyOp13
 70
     1
102
RTVSPropertyOp14
 70
     1
102
RTVSPropertyOp15
 70
     1
102
RTVSPropertyOp16
 70
     1
102
RTVSPropertyOp17
 70
     1
102
RTVSPropertyOp18
 70
     1
102
RTVSPropertyOp19
 70
     1
102
RTVSPropertyOp20
 70
     1
102
RTVSPropertyOp21
 70
     1
102
RTVSPropertyOp22
 70
     1
102
RTVSPropertyOp23
 70
     1
102
RTVSPropertyOp24
 70
     1
102
RTVSPropertyOp25
 70
     1
102
RTVSPropertyOp26
 70
     1
102
RTVSPropertyOp27
 70
     1
102
RTVSPropertyOp28
 70
     1
102
RTVSPropertyOp29
 70
     1
102
RTVSPropertyOp30
 70
     1
102
RTVSPropertyOp31
 70
     1
102
RTVSPropertyOp32
 70
     1
102
RTVSPropertyOp33
 70
     1
102
RTVSPropertyOp34
 70
     1
102
RTVSPropertyOp35
 70
     1
102
RTVSPropertyOp36
 70
     1
102
RTVSPropertyOp37
 70
     1
102
RTVSPropertyOp38
 70
     1
102
RTVSPropertyOp39
 70
     1
102
RTVSPropertyOp40
 70
     1
102
RTVSPropertyOp41
 70
     1
102
RTVSPropertyOp42
 70
     1
102
RTVSPropertyOp43
 70
     1
102
RTVSPropertyOp44
 70
     1
102
RTVSPropertyOp45
 70
     1
102
RTVSPropertyOp46
 70
     1
102
RTVSPropertyOp47
 70
     1
102
RTVSPropertyOp48
 70
     1
102
RTVSPropertyOp49
 70
     1
102
RTVSPropertyOp50
 70
     1
102
RTVSPropertyOp51
 70
     0
102
RTVSPropertyOp52
 70
     0
102
RTVSPropertyOp53
 70
     1
102
RTVSPropertyOp54
 70
     1
102
RTVSPropertyOp55
 70
     1
102
RTVSPropertyOp56
 70
     1
102
RTVSPropertyOp57
 70
     1
102
RTVSPost2010Prop28
280
     0
102
RTVSPost2010PropOp28
 70
     1
102
RTVSPost2010Prop29
280
     1
102
RTVSPost2010PropOp29
 70
     1
102
RTVSPost2010Prop30
280
     1
102
RTVSPost2010PropOp30
 70
     1
102
RTVSPost2010Prop31
280
     0
102
RTVSPost2010PropOp31
 70
     1
102
RTVSPost2010Prop32
280
     0
102
RTVSPost2010PropOp32
 70
     1
102
RTVSPost2010Prop33
280
     0
102
RTVSPost2010PropOp33
 70
     1
102
RTVSPost2010Prop34
280
     0
102
RTVSPost2010PropOp34
 70
     1
102
RTVSPost2010Prop35
280
     0
102
RTVSPost2010PropOp35
 70
     1
102
RTVSPost2010Prop36
280
     0
102
RTVSPost2010PropOp36
 70
     1
102
RTVSPost2010Prop37
 90
       50
102
RTVSPost2010PropOp37
 70
     1
102
RTVSPost2010Prop38
140
0.0
102
RTVSPost2010PropOp38
 70
     1
102
RTVSPost2010Prop39
140
1.0
102
RTVSPost2010PropOp39
 70
     1
102
RTVSPost2010Prop40
 90
        0
102
RTVSPost2010PropOp40
 70
     1
102
RTVSPost2010Prop41ColorIndex
 90
       18
102
RTVSPost2010Prop41ColorRGB
 90
        0
102
RTVSPost2010PropOp41
 70
     1
102
RTVSPost2010Prop42
 90
       50
102
RTVSPost2010PropOp42
 70
     1
102
RTVSPost2010Prop43
 90
        3
102
RTVSPost2010PropOp43
 70
     1
102
RTVSPost2010Prop44ColorIndex
 90
        5
102
RTVSPost2010Prop44ColorRGB
 90
      255
102
RTVSPost2010PropOp44
 70
     1
102
RTVSPost2010Prop45
280
     0
102
RTVSPost2010PropOp45
 70
     1
102
RTVSPost2010Prop46
 90
       50
102
RTVSPost2010PropOp46
 70
     1
102
RTVSPost2010Prop47
 90
       50
102
RTVSPost2010PropOp47
 70
     1
102
RTVSPost2010Prop48
 90
       50
102
RTVSPost2010PropOp48
 70
     1
102
RTVSPost2010Prop49
280
     0
102
RTVSPost2010PropOp49
 70
     1
102
RTVSPost2010Prop50
 90
       50
102
RTVSPost2010PropOp50
 70
     1
102
RTVSPost2010Prop51ColorIndex
 90
      256
102
RTVSPost2010Prop51ColorRGB
 90
-16777216
102
RTVSPost2010PropOp51
 70
     0
102
RTVSPost2010Prop52
140
1.0
102
RTVSPost2010PropOp52
 70
     0
102
RTVSPost2010Prop53
 90
        2
102
RTVSPost2010PropOp53
 70
     1
102
RTVSPost2010Prop54
  1
strokes_ogs.tif
102
RTVSPost2010PropOp54
 70
     1
102
RTVSPost2010Prop55
280
     0
102
RTVSPost2010PropOp55
 70
     1
102
RTVSPost2010Prop56
140
1.0
102
RTVSPost2010PropOp56
 70
     1
102
RTVSPost2010Prop57
140
1.0
102
RTVSPost2010PropOp57
 70
     1
  0
XRECORD
  5
4D8
102
{ACAD_REACTORS
330
4D7
102
}
330
4D7
100
AcDbXrecord
280
     1
102
RTVSPropertyOp0
 70
     1
102
RTVSPropertyOp1
 70
     1
102
RTVSPropertyOp2
 70
     1
102
RTVSPropertyOp3
 70
     1
102
RTVSPropertyOp4
 70
     1
102
RTVSPropertyOp5
 70
     1
102
RTVSPropertyOp6
 70
     1
102
RTVSPropertyOp7
 70
     1
102
RTVSPropertyOp8
 70
     1
102
RTVSPropertyOp9
 70
     1
102
RTVSPropertyOp10
 70
     1
102
RTVSPropertyOp11
 70
     1
102
RTVSPropertyOp12
 70
     1
102
RTVSPropertyOp13
 70
     1
102
RTVSPropertyOp14
 70
     1
102
RTVSPropertyOp15
 70
     1
102
RTVSPropertyOp16
 70
     1
102
RTVSPropertyOp17
 70
     1
102
RTVSPropertyOp18
 70
     1
102
RTVSPropertyOp19
 70
     1
102
RTVSPropertyOp20
 70
     1
102
RTVSPropertyOp21
 70
     1
102
RTVSPropertyOp22
 70
     1
102
RTVSPropertyOp23
 70
     1
102
RTVSPropertyOp24
 70
     1
102
RTVSPropertyOp25
 70
     1
102
RTVSPropertyOp26
 70
     1
102
RTVSPropertyOp27
 70
     1
102
RTVSPropertyOp28
 70
     1
102
RTVSPropertyOp29
 70
     1
102
RTVSPropertyOp30
 70
     1
102
RTVSPropertyOp31
 70
     1
102
RTVSPropertyOp32
 70
     1
102
RTVSPropertyOp33
 70
     1
102
RTVSPropertyOp34
 70
     1
102
RTVSPropertyOp35
 70
     1
102
RTVSPropertyOp36
 70
     1
102
RTVSPropertyOp37
 70
     1
102
RTVSPropertyOp38
 70
     1
102
RTVSPropertyOp39
 70
     1
102
RTVSPropertyOp40
 70
     1
102
RTVSPropertyOp41
 70
     1
102
RTVSPropertyOp42
 70
     1
102
RTVSPropertyOp43
 70
     1
102
RTVSPropertyOp44
 70
     1
102
RTVSPropertyOp45
 70
     1
102
RTVSPropertyOp46
 70
     1
102
RTVSPropertyOp47
 70
     1
102
RTVSPropertyOp48
 70
     1
102
RTVSPropertyOp49
 70
     1
102
RTVSPropertyOp50
 70
     1
102
RTVSPropertyOp51
 70
     0
102
RTVSPropertyOp52
 70
     0
102
RTVSPropertyOp53
 70
     1
102
RTVSPropertyOp54
 70
     1
102
RTVSPropertyOp55
 70
     1
102
RTVSPropertyOp56
 70
     1
102
RTVSPropertyOp57
 70
     1
102
RTVSPost2010Prop28
280
     0
102
RTVSPost2010PropOp28
 70
     1
102
RTVSPost2010Prop29
280
     1
102
RTVSPost2010PropOp29
 70
     1
102
RTVSPost2010Prop30
280
     1
102
RTVSPost2010PropOp30
 70
     1
102
RTVSPost2010Prop31
280
     0
102
RTVSPost2010PropOp31
 70
     1
102
RTVSPost2010Prop32
280
     0
102
RTVSPost2010PropOp32
 70
     1
102
RTVSPost2010Prop33
280
     0
102
RTVSPost2010PropOp33
 70
     1
102
RTVSPost2010Prop34
280
     0
102
RTVSPost2010PropOp34
 70
     1
102
RTVSPost2010Prop35
280
     0
102
RTVSPost2010PropOp35
 70
     1
102
RTVSPost2010Prop36
280
     0
102
RTVSPost2010PropOp36
 70
     1
102
RTVSPost2010Prop37
 90
       50
102
RTVSPost2010PropOp37
 70
     1
102
RTVSPost2010Prop38
140
0.0
102
RTVSPost2010PropOp38
 70
     1
102
RTVSPost2010Prop39
140
1.0
102
RTVSPost2010PropOp39
 70
     1
102
RTVSPost2010Prop40
 90
        0
102
RTVSPost2010PropOp40
 70
     1
102
RTVSPost2010Prop41ColorIndex
 90
       18
102
RTVSPost2010Prop41ColorRGB
 90
        0
102
RTVSPost2010PropOp41
 70
     1
102
RTVSPost2010Prop42
 90
       50
102
RTVSPost2010PropOp42
 70
     1
102
RTVSPost2010Prop43
 90
        3
102
RTVSPost2010PropOp43
 70
     1
102
RTVSPost2010Prop44ColorIndex
 90
        5
102
RTVSPost2010Prop44ColorRGB
 90
      255
102
RTVSPost2010PropOp44
 70
     1
102
RTVSPost2010Prop45
280
     0
102
RTVSPost2010PropOp45
 70
     1
102
RTVSPost2010Prop46
 90
       50
102
RTVSPost2010PropOp46
 70
     1
102
RTVSPost2010Prop47
 90
       50
102
RTVSPost2010PropOp47
 70
     1
102
RTVSPost2010Prop48
 90
       50
102
RTVSPost2010PropOp48
 70
     1
102
RTVSPost2010Prop49
280
     0
102
RTVSPost2010PropOp49
 70
     1
102
RTVSPost2010Prop50
 90
       50
102
RTVSPost2010PropOp50
 70
     1
102
RTVSPost2010Prop51ColorIndex
 90
      256
102
RTVSPost2010Prop51ColorRGB
 90
-16777216
102
RTVSPost2010PropOp51
 70
     0
102
RTVSPost2010Prop52
140
1.0
102
RTVSPost2010PropOp52
 70
     0
102
RTVSPost2010Prop53
 90
        2
102
RTVSPost2010PropOp53
 70
     1
102
RTVSPost2010Prop54
  1
strokes_ogs.tif
102
RTVSPost2010PropOp54
 70
     1
102
RTVSPost2010Prop55
280
     0
102
RTVSPost2010PropOp55
 70
     1
102
RTVSPost2010Prop56
140
1.0
102
RTVSPost2010PropOp56
 70
     1
102
RTVSPost2010Prop57
140
1.0
102
RTVSPost2010PropOp57
 70
     1
  0
XRECORD
  5
4CC
102
{ACAD_REACTORS
330
4CB
102
}
330
4CB
100
AcDbXrecord
280
     1
102
RTVSPropertyOp0
 70
     1
102
RTVSPropertyOp1
 70
     1
102
RTVSPropertyOp2
 70
     1
102
RTVSPropertyOp3
 70
     1
102
RTVSPropertyOp4
 70
     1
102
RTVSPropertyOp5
 70
     1
102
RTVSPropertyOp6
 70
     1
102
RTVSPropertyOp7
 70
     1
102
RTVSPropertyOp8
 70
     1
102
RTVSPropertyOp9
 70
     1
102
RTVSPropertyOp10
 70
     1
102
RTVSPropertyOp11
 70
     1
102
RTVSPropertyOp12
 70
     1
102
RTVSPropertyOp13
 70
     1
102
RTVSPropertyOp14
 70
     1
102
RTVSPropertyOp15
 70
     1
102
RTVSPropertyOp16
 70
     1
102
RTVSPropertyOp17
 70
     1
102
RTVSPropertyOp18
 70
     1
102
RTVSPropertyOp19
 70
     1
102
RTVSPropertyOp20
 70
     1
102
RTVSPropertyOp21
 70
     1
102
RTVSPropertyOp22
 70
     1
102
RTVSPropertyOp23
 70
     1
102
RTVSPropertyOp24
 70
     1
102
RTVSPropertyOp25
 70
     1
102
RTVSPropertyOp26
 70
     1
102
RTVSPropertyOp27
 70
     1
102
RTVSPropertyOp28
 70
     1
102
RTVSPropertyOp29
 70
     1
102
RTVSPropertyOp30
 70
     1
102
RTVSPropertyOp31
 70
     1
102
RTVSPropertyOp32
 70
     1
102
RTVSPropertyOp33
 70
     1
102
RTVSPropertyOp34
 70
     1
102
RTVSPropertyOp35
 70
     1
102
RTVSPropertyOp36
 70
     1
102
RTVSPropertyOp37
 70
     1
102
RTVSPropertyOp38
 70
     1
102
RTVSPropertyOp39
 70
     1
102
RTVSPropertyOp40
 70
     1
102
RTVSPropertyOp41
 70
     1
102
RTVSPropertyOp42
 70
     1
102
RTVSPropertyOp43
 70
     1
102
RTVSPropertyOp44
 70
     1
102
RTVSPropertyOp45
 70
     1
102
RTVSPropertyOp46
 70
     1
102
RTVSPropertyOp47
 70
     1
102
RTVSPropertyOp48
 70
     1
102
RTVSPropertyOp49
 70
     1
102
RTVSPropertyOp50
 70
     1
102
RTVSPropertyOp51
 70
     0
102
RTVSPropertyOp52
 70
     0
102
RTVSPropertyOp53
 70
     1
102
RTVSPropertyOp54
 70
     1
102
RTVSPropertyOp55
 70
     1
102
RTVSPropertyOp56
 70
     1
102
RTVSPropertyOp57
 70
     1
102
RTVSPost2010Prop28
280
     0
102
RTVSPost2010PropOp28
 70
     1
102
RTVSPost2010Prop29
280
     1
102
RTVSPost2010PropOp29
 70
     1
102
RTVSPost2010Prop30
280
     1
102
RTVSPost2010PropOp30
 70
     1
102
RTVSPost2010Prop31
280
     0
102
RTVSPost2010PropOp31
 70
     1
102
RTVSPost2010Prop32
280
     0
102
RTVSPost2010PropOp32
 70
     1
102
RTVSPost2010Prop33
280
     0
102
RTVSPost2010PropOp33
 70
     1
102
RTVSPost2010Prop34
280
     0
102
RTVSPost2010PropOp34
 70
     1
102
RTVSPost2010Prop35
280
     0
102
RTVSPost2010PropOp35
 70
     1
102
RTVSPost2010Prop36
280
     0
102
RTVSPost2010PropOp36
 70
     1
102
RTVSPost2010Prop37
 90
       50
102
RTVSPost2010PropOp37
 70
     1
102
RTVSPost2010Prop38
140
0.0
102
RTVSPost2010PropOp38
 70
     1
102
RTVSPost2010Prop39
140
1.0
102
RTVSPost2010PropOp39
 70
     1
102
RTVSPost2010Prop40
 90
        0
102
RTVSPost2010PropOp40
 70
     1
102
RTVSPost2010Prop41ColorIndex
 90
       18
102
RTVSPost2010Prop41ColorRGB
 90
        0
102
RTVSPost2010PropOp41
 70
     1
102
RTVSPost2010Prop42
 90
       50
102
RTVSPost2010PropOp42
 70
     1
102
RTVSPost2010Prop43
 90
        3
102
RTVSPost2010PropOp43
 70
     1
102
RTVSPost2010Prop44ColorIndex
 90
        5
102
RTVSPost2010Prop44ColorRGB
 90
      255
102
RTVSPost2010PropOp44
 70
     1
102
RTVSPost2010Prop45
280
     0
102
RTVSPost2010PropOp45
 70
     1
102
RTVSPost2010Prop46
 90
       50
102
RTVSPost2010PropOp46
 70
     1
102
RTVSPost2010Prop47
 90
       50
102
RTVSPost2010PropOp47
 70
     1
102
RTVSPost2010Prop48
 90
       50
102
RTVSPost2010PropOp48
 70
     1
102
RTVSPost2010Prop49
280
     0
102
RTVSPost2010PropOp49
 70
     1
102
RTVSPost2010Prop50
 90
       50
102
RTVSPost2010PropOp50
 70
     1
102
RTVSPost2010Prop51ColorIndex
 90
      256
102
RTVSPost2010Prop51ColorRGB
 90
-16777216
102
RTVSPost2010PropOp51
 70
     0
102
RTVSPost2010Prop52
140
1.0
102
RTVSPost2010PropOp52
 70
     0
102
RTVSPost2010Prop53
 90
        2
102
RTVSPost2010PropOp53
 70
     1
102
RTVSPost2010Prop54
  1
strokes_ogs.tif
102
RTVSPost2010PropOp54
 70
     1
102
RTVSPost2010Prop55
280
     0
102
RTVSPost2010PropOp55
 70
     1
102
RTVSPost2010Prop56
140
1.0
102
RTVSPost2010PropOp56
 70
     1
102
RTVSPost2010Prop57
140
1.0
102
RTVSPost2010PropOp57
 70
     1
  0
XRECORD
  5
4CE
102
{ACAD_REACTORS
330
4CD
102
}
330
4CD
100
AcDbXrecord
280
     1
102
RTVSPropertyOp0
 70
     1
102
RTVSPropertyOp1
 70
     1
102
RTVSPropertyOp2
 70
     1
102
RTVSPropertyOp3
 70
     1
102
RTVSPropertyOp4
 70
     1
102
RTVSPropertyOp5
 70
     1
102
RTVSPropertyOp6
 70
     1
102
RTVSPropertyOp7
 70
     1
102
RTVSPropertyOp8
 70
     1
102
RTVSPropertyOp9
 70
     1
102
RTVSPropertyOp10
 70
     1
102
RTVSPropertyOp11
 70
     1
102
RTVSPropertyOp12
 70
     1
102
RTVSPropertyOp13
 70
     1
102
RTVSPropertyOp14
 70
     1
102
RTVSPropertyOp15
 70
     1
102
RTVSPropertyOp16
 70
     1
102
RTVSPropertyOp17
 70
     1
102
RTVSPropertyOp18
 70
     1
102
RTVSPropertyOp19
 70
     1
102
RTVSPropertyOp20
 70
     1
102
RTVSPropertyOp21
 70
     1
102
RTVSPropertyOp22
 70
     1
102
RTVSPropertyOp23
 70
     1
102
RTVSPropertyOp24
 70
     1
102
RTVSPropertyOp25
 70
     1
102
RTVSPropertyOp26
 70
     1
102
RTVSPropertyOp27
 70
     1
102
RTVSPropertyOp28
 70
     1
102
RTVSPropertyOp29
 70
     1
102
RTVSPropertyOp30
 70
     1
102
RTVSPropertyOp31
 70
     1
102
RTVSPropertyOp32
 70
     1
102
RTVSPropertyOp33
 70
     1
102
RTVSPropertyOp34
 70
     1
102
RTVSPropertyOp35
 70
     1
102
RTVSPropertyOp36
 70
     1
102
RTVSPropertyOp37
 70
     1
102
RTVSPropertyOp38
 70
     1
102
RTVSPropertyOp39
 70
     1
102
RTVSPropertyOp40
 70
     1
102
RTVSPropertyOp41
 70
     1
102
RTVSPropertyOp42
 70
     1
102
RTVSPropertyOp43
 70
     1
102
RTVSPropertyOp44
 70
     1
102
RTVSPropertyOp45
 70
     1
102
RTVSPropertyOp46
 70
     1
102
RTVSPropertyOp47
 70
     1
102
RTVSPropertyOp48
 70
     1
102
RTVSPropertyOp49
 70
     1
102
RTVSPropertyOp50
 70
     1
102
RTVSPropertyOp51
 70
     0
102
RTVSPropertyOp52
 70
     0
102
RTVSPropertyOp53
 70
     1
102
RTVSPropertyOp54
 70
     1
102
RTVSPropertyOp55
 70
     1
102
RTVSPropertyOp56
 70
     1
102
RTVSPropertyOp57
 70
     1
102
RTVSPost2010Prop28
280
     0
102
RTVSPost2010PropOp28
 70
     1
102
RTVSPost2010Prop29
280
     1
102
RTVSPost2010PropOp29
 70
     1
102
RTVSPost2010Prop30
280
     1
102
RTVSPost2010PropOp30
 70
     1
102
RTVSPost2010Prop31
280
     0
102
RTVSPost2010PropOp31
 70
     1
102
RTVSPost2010Prop32
280
     0
102
RTVSPost2010PropOp32
 70
     1
102
RTVSPost2010Prop33
280
     0
102
RTVSPost2010PropOp33
 70
     1
102
RTVSPost2010Prop34
280
     0
102
RTVSPost2010PropOp34
 70
     1
102
RTVSPost2010Prop35
280
     0
102
RTVSPost2010PropOp35
 70
     1
102
RTVSPost2010Prop36
280
     0
102
RTVSPost2010PropOp36
 70
     1
102
RTVSPost2010Prop37
 90
       50
102
RTVSPost2010PropOp37
 70
     1
102
RTVSPost2010Prop38
140
0.0
102
RTVSPost2010PropOp38
 70
     1
102
RTVSPost2010Prop39
140
1.0
102
RTVSPost2010PropOp39
 70
     1
102
RTVSPost2010Prop40
 90
        0
102
RTVSPost2010PropOp40
 70
     1
102
RTVSPost2010Prop41ColorIndex
 90
       18
102
RTVSPost2010Prop41ColorRGB
 90
        0
102
RTVSPost2010PropOp41
 70
     1
102
RTVSPost2010Prop42
 90
       50
102
RTVSPost2010PropOp42
 70
     1
102
RTVSPost2010Prop43
 90
        3
102
RTVSPost2010PropOp43
 70
     1
102
RTVSPost2010Prop44ColorIndex
 90
        5
102
RTVSPost2010Prop44ColorRGB
 90
      255
102
RTVSPost2010PropOp44
 70
     1
102
RTVSPost2010Prop45
280
     0
102
RTVSPost2010PropOp45
 70
     1
102
RTVSPost2010Prop46
 90
       50
102
RTVSPost2010PropOp46
 70
     1
102
RTVSPost2010Prop47
 90
       50
102
RTVSPost2010PropOp47
 70
     1
102
RTVSPost2010Prop48
 90
       50
102
RTVSPost2010PropOp48
 70
     1
102
RTVSPost2010Prop49
280
     0
102
RTVSPost2010PropOp49
 70
     1
102
RTVSPost2010Prop50
 90
       50
102
RTVSPost2010PropOp50
 70
     1
102
RTVSPost2010Prop51ColorIndex
 90
      256
102
RTVSPost2010Prop51ColorRGB
 90
-16777216
102
RTVSPost2010PropOp51
 70
     0
102
RTVSPost2010Prop52
140
1.0
102
RTVSPost2010PropOp52
 70
     0
102
RTVSPost2010Prop53
 90
        2
102
RTVSPost2010PropOp53
 70
     1
102
RTVSPost2010Prop54
  1
strokes_ogs.tif
102
RTVSPost2010PropOp54
 70
     1
102
RTVSPost2010Prop55
280
     0
102
RTVSPost2010PropOp55
 70
     1
102
RTVSPost2010Prop56
140
1.0
102
RTVSPost2010PropOp56
 70
     1
102
RTVSPost2010Prop57
140
1.0
102
RTVSPost2010PropOp57
 70
     1
  0
XRECORD
  5
4D6
102
{ACAD_REACTORS
330
4D5
102
}
330
4D5
100
AcDbXrecord
280
     1
102
RTVSPropertyOp0
 70
     1
102
RTVSPropertyOp1
 70
     1
102
RTVSPropertyOp2
 70
     1
102
RTVSPropertyOp3
 70
     1
102
RTVSPropertyOp4
 70
     1
102
RTVSPropertyOp5
 70
     1
102
RTVSPropertyOp6
 70
     1
102
RTVSPropertyOp7
 70
     1
102
RTVSPropertyOp8
 70
     1
102
RTVSPropertyOp9
 70
     1
102
RTVSPropertyOp10
 70
     1
102
RTVSPropertyOp11
 70
     1
102
RTVSPropertyOp12
 70
     1
102
RTVSPropertyOp13
 70
     1
102
RTVSPropertyOp14
 70
     1
102
RTVSPropertyOp15
 70
     1
102
RTVSPropertyOp16
 70
     1
102
RTVSPropertyOp17
 70
     1
102
RTVSPropertyOp18
 70
     1
102
RTVSPropertyOp19
 70
     1
102
RTVSPropertyOp20
 70
     1
102
RTVSPropertyOp21
 70
     1
102
RTVSPropertyOp22
 70
     1
102
RTVSPropertyOp23
 70
     1
102
RTVSPropertyOp24
 70
     1
102
RTVSPropertyOp25
 70
     1
102
RTVSPropertyOp26
 70
     1
102
RTVSPropertyOp27
 70
     1
102
RTVSPropertyOp28
 70
     1
102
RTVSPropertyOp29
 70
     1
102
RTVSPropertyOp30
 70
     1
102
RTVSPropertyOp31
 70
     1
102
RTVSPropertyOp32
 70
     1
102
RTVSPropertyOp33
 70
     1
102
RTVSPropertyOp34
 70
     1
102
RTVSPropertyOp35
 70
     1
102
RTVSPropertyOp36
 70
     1
102
RTVSPropertyOp37
 70
     1
102
RTVSPropertyOp38
 70
     1
102
RTVSPropertyOp39
 70
     1
102
RTVSPropertyOp40
 70
     1
102
RTVSPropertyOp41
 70
     1
102
RTVSPropertyOp42
 70
     1
102
RTVSPropertyOp43
 70
     1
102
RTVSPropertyOp44
 70
     1
102
RTVSPropertyOp45
 70
     1
102
RTVSPropertyOp46
 70
     1
102
RTVSPropertyOp47
 70
     1
102
RTVSPropertyOp48
 70
     1
102
RTVSPropertyOp49
 70
     1
102
RTVSPropertyOp50
 70
     1
102
RTVSPropertyOp51
 70
     0
102
RTVSPropertyOp52
 70
     0
102
RTVSPropertyOp53
 70
     1
102
RTVSPropertyOp54
 70
     1
102
RTVSPropertyOp55
 70
     1
102
RTVSPropertyOp56
 70
     1
102
RTVSPropertyOp57
 70
     1
102
RTVSPost2010Prop28
280
     0
102
RTVSPost2010PropOp28
 70
     1
102
RTVSPost2010Prop29
280
     1
102
RTVSPost2010PropOp29
 70
     1
102
RTVSPost2010Prop30
280
     1
102
RTVSPost2010PropOp30
 70
     1
102
RTVSPost2010Prop31
280
     0
102
RTVSPost2010PropOp31
 70
     1
102
RTVSPost2010Prop32
280
     0
102
RTVSPost2010PropOp32
 70
     1
102
RTVSPost2010Prop33
280
     0
102
RTVSPost2010PropOp33
 70
     1
102
RTVSPost2010Prop34
280
     0
102
RTVSPost2010PropOp34
 70
     1
102
RTVSPost2010Prop35
280
     0
102
RTVSPost2010PropOp35
 70
     1
102
RTVSPost2010Prop36
280
     0
102
RTVSPost2010PropOp36
 70
     1
102
RTVSPost2010Prop37
 90
       50
102
RTVSPost2010PropOp37
 70
     1
102
RTVSPost2010Prop38
140
0.0
102
RTVSPost2010PropOp38
 70
     1
102
RTVSPost2010Prop39
140
1.0
102
RTVSPost2010PropOp39
 70
     1
102
RTVSPost2010Prop40
 90
        0
102
RTVSPost2010PropOp40
 70
     1
102
RTVSPost2010Prop41ColorIndex
 90
       18
102
RTVSPost2010Prop41ColorRGB
 90
        0
102
RTVSPost2010PropOp41
 70
     1
102
RTVSPost2010Prop42
 90
       50
102
RTVSPost2010PropOp42
 70
     1
102
RTVSPost2010Prop43
 90
        3
102
RTVSPost2010PropOp43
 70
     1
102
RTVSPost2010Prop44ColorIndex
 90
        5
102
RTVSPost2010Prop44ColorRGB
 90
      255
102
RTVSPost2010PropOp44
 70
     1
102
RTVSPost2010Prop45
280
     0
102
RTVSPost2010PropOp45
 70
     1
102
RTVSPost2010Prop46
 90
       50
102
RTVSPost2010PropOp46
 70
     1
102
RTVSPost2010Prop47
 90
       50
102
RTVSPost2010PropOp47
 70
     1
102
RTVSPost2010Prop48
 90
       50
102
RTVSPost2010PropOp48
 70
     1
102
RTVSPost2010Prop49
280
     0
102
RTVSPost2010PropOp49
 70
     1
102
RTVSPost2010Prop50
 90
       50
102
RTVSPost2010PropOp50
 70
     1
102
RTVSPost2010Prop51ColorIndex
 90
      256
102
RTVSPost2010Prop51ColorRGB
 90
-16777216
102
RTVSPost2010PropOp51
 70
     0
102
RTVSPost2010Prop52
140
1.0
102
RTVSPost2010PropOp52
 70
     0
102
RTVSPost2010Prop53
 90
        2
102
RTVSPost2010PropOp53
 70
     1
102
RTVSPost2010Prop54
  1
strokes_ogs.tif
102
RTVSPost2010PropOp54
 70
     1
102
RTVSPost2010Prop55
280
     0
102
RTVSPost2010PropOp55
 70
     1
102
RTVSPost2010Prop56
140
1.0
102
RTVSPost2010PropOp56
 70
     1
102
RTVSPost2010Prop57
140
1.0
102
RTVSPost2010PropOp57
 70
     1
  0
XRECORD
  5
4BA
102
{ACAD_REACTORS
330
4B9
102
}
330
4B9
100
AcDbXrecord
280
     1
102
RTVSPropertyOp0
 70
     1
102
RTVSPropertyOp1
 70
     1
102
RTVSPropertyOp2
 70
     1
102
RTVSPropertyOp3
 70
     1
102
RTVSPropertyOp4
 70
     1
102
RTVSPropertyOp5
 70
     1
102
RTVSPropertyOp6
 70
     1
102
RTVSPropertyOp7
 70
     1
102
RTVSPropertyOp8
 70
     1
102
RTVSPropertyOp9
 70
     1
102
RTVSPropertyOp10
 70
     1
102
RTVSPropertyOp11
 70
     1
102
RTVSPropertyOp12
 70
     1
102
RTVSPropertyOp13
 70
     1
102
RTVSPropertyOp14
 70
     1
102
RTVSPropertyOp15
 70
     1
102
RTVSPropertyOp16
 70
     1
102
RTVSPropertyOp17
 70
     1
102
RTVSPropertyOp18
 70
     1
102
RTVSPropertyOp19
 70
     1
102
RTVSPropertyOp20
 70
     1
102
RTVSPropertyOp21
 70
     1
102
RTVSPropertyOp22
 70
     1
102
RTVSPropertyOp23
 70
     1
102
RTVSPropertyOp24
 70
     1
102
RTVSPropertyOp25
 70
     1
102
RTVSPropertyOp26
 70
     1
102
RTVSPropertyOp27
 70
     1
102
RTVSPropertyOp28
 70
     1
102
RTVSPropertyOp29
 70
     1
102
RTVSPropertyOp30
 70
     1
102
RTVSPropertyOp31
 70
     1
102
RTVSPropertyOp32
 70
     1
102
RTVSPropertyOp33
 70
     1
102
RTVSPropertyOp34
 70
     1
102
RTVSPropertyOp35
 70
     1
102
RTVSPropertyOp36
 70
     1
102
RTVSPropertyOp37
 70
     1
102
RTVSPropertyOp38
 70
     1
102
RTVSPropertyOp39
 70
     1
102
RTVSPropertyOp40
 70
     1
102
RTVSPropertyOp41
 70
     1
102
RTVSPropertyOp42
 70
     1
102
RTVSPropertyOp43
 70
     1
102
RTVSPropertyOp44
 70
     1
102
RTVSPropertyOp45
 70
     1
102
RTVSPropertyOp46
 70
     1
102
RTVSPropertyOp47
 70
     1
102
RTVSPropertyOp48
 70
     1
102
RTVSPropertyOp49
 70
     1
102
RTVSPropertyOp50
 70
     1
102
RTVSPropertyOp51
 70
     0
102
RTVSPropertyOp52
 70
     0
102
RTVSPropertyOp53
 70
     1
102
RTVSPropertyOp54
 70
     1
102
RTVSPropertyOp55
 70
     1
102
RTVSPropertyOp56
 70
     1
102
RTVSPropertyOp57
 70
     1
102
RTVSPost2010Prop28
280
     0
102
RTVSPost2010PropOp28
 70
     1
102
RTVSPost2010Prop29
280
     1
102
RTVSPost2010PropOp29
 70
     1
102
RTVSPost2010Prop30
280
     1
102
RTVSPost2010PropOp30
 70
     1
102
RTVSPost2010Prop31
280
     0
102
RTVSPost2010PropOp31
 70
     1
102
RTVSPost2010Prop32
280
     0
102
RTVSPost2010PropOp32
 70
     1
102
RTVSPost2010Prop33
280
     0
102
RTVSPost2010PropOp33
 70
     1
102
RTVSPost2010Prop34
280
     0
102
RTVSPost2010PropOp34
 70
     1
102
RTVSPost2010Prop35
280
     0
102
RTVSPost2010PropOp35
 70
     1
102
RTVSPost2010Prop36
280
     0
102
RTVSPost2010PropOp36
 70
     1
102
RTVSPost2010Prop37
 90
       50
102
RTVSPost2010PropOp37
 70
     1
102
RTVSPost2010Prop38
140
0.0
102
RTVSPost2010PropOp38
 70
     1
102
RTVSPost2010Prop39
140
1.0
102
RTVSPost2010PropOp39
 70
     1
102
RTVSPost2010Prop40
 90
        0
102
RTVSPost2010PropOp40
 70
     1
102
RTVSPost2010Prop41ColorIndex
 90
       18
102
RTVSPost2010Prop41ColorRGB
 90
        0
102
RTVSPost2010PropOp41
 70
     1
102
RTVSPost2010Prop42
 90
       50
102
RTVSPost2010PropOp42
 70
     1
102
RTVSPost2010Prop43
 90
        3
102
RTVSPost2010PropOp43
 70
     1
102
RTVSPost2010Prop44ColorIndex
 90
        5
102
RTVSPost2010Prop44ColorRGB
 90
      255
102
RTVSPost2010PropOp44
 70
     1
102
RTVSPost2010Prop45
280
     0
102
RTVSPost2010PropOp45
 70
     1
102
RTVSPost2010Prop46
 90
       50
102
RTVSPost2010PropOp46
 70
     1
102
RTVSPost2010Prop47
 90
       50
102
RTVSPost2010PropOp47
 70
     1
102
RTVSPost2010Prop48
 90
       50
102
RTVSPost2010PropOp48
 70
     1
102
RTVSPost2010Prop49
280
     0
102
RTVSPost2010PropOp49
 70
     1
102
RTVSPost2010Prop50
 90
       50
102
RTVSPost2010PropOp50
 70
     1
102
RTVSPost2010Prop51ColorIndex
 90
      256
102
RTVSPost2010Prop51ColorRGB
 90
-16777216
102
RTVSPost2010PropOp51
 70
     0
102
RTVSPost2010Prop52
140
1.0
102
RTVSPost2010PropOp52
 70
     0
102
RTVSPost2010Prop53
 90
        2
102
RTVSPost2010PropOp53
 70
     1
102
RTVSPost2010Prop54
  1
strokes_ogs.tif
102
RTVSPost2010PropOp54
 70
     1
102
RTVSPost2010Prop55
280
     0
102
RTVSPost2010PropOp55
 70
     1
102
RTVSPost2010Prop56
140
1.0
102
RTVSPost2010PropOp56
 70
     1
102
RTVSPost2010Prop57
140
1.0
102
RTVSPost2010PropOp57
 70
     1
  0
XRECORD
  5
4BC
102
{ACAD_REACTORS
330
4BB
102
}
330
4BB
100
AcDbXrecord
280
     1
102
RTVSPropertyOp0
 70
     1
102
RTVSPropertyOp1
 70
     1
102
RTVSPropertyOp2
 70
     1
102
RTVSPropertyOp3
 70
     1
102
RTVSPropertyOp4
 70
     1
102
RTVSPropertyOp5
 70
     1
102
RTVSPropertyOp6
 70
     1
102
RTVSPropertyOp7
 70
     1
102
RTVSPropertyOp8
 70
     1
102
RTVSPropertyOp9
 70
     1
102
RTVSPropertyOp10
 70
     1
102
RTVSPropertyOp11
 70
     1
102
RTVSPropertyOp12
 70
     1
102
RTVSPropertyOp13
 70
     1
102
RTVSPropertyOp14
 70
     1
102
RTVSPropertyOp15
 70
     1
102
RTVSPropertyOp16
 70
     1
102
RTVSPropertyOp17
 70
     1
102
RTVSPropertyOp18
 70
     1
102
RTVSPropertyOp19
 70
     1
102
RTVSPropertyOp20
 70
     1
102
RTVSPropertyOp21
 70
     1
102
RTVSPropertyOp22
 70
     1
102
RTVSPropertyOp23
 70
     1
102
RTVSPropertyOp24
 70
     1
102
RTVSPropertyOp25
 70
     1
102
RTVSPropertyOp26
 70
     1
102
RTVSPropertyOp27
 70
     1
102
RTVSPropertyOp28
 70
     1
102
RTVSPropertyOp29
 70
     1
102
RTVSPropertyOp30
 70
     1
102
RTVSPropertyOp31
 70
     1
102
RTVSPropertyOp32
 70
     1
102
RTVSPropertyOp33
 70
     1
102
RTVSPropertyOp34
 70
     1
102
RTVSPropertyOp35
 70
     1
102
RTVSPropertyOp36
 70
     1
102
RTVSPropertyOp37
 70
     1
102
RTVSPropertyOp38
 70
     1
102
RTVSPropertyOp39
 70
     1
102
RTVSPropertyOp40
 70
     1
102
RTVSPropertyOp41
 70
     1
102
RTVSPropertyOp42
 70
     1
102
RTVSPropertyOp43
 70
     1
102
RTVSPropertyOp44
 70
     1
102
RTVSPropertyOp45
 70
     1
102
RTVSPropertyOp46
 70
     1
102
RTVSPropertyOp47
 70
     1
102
RTVSPropertyOp48
 70
     1
102
RTVSPropertyOp49
 70
     1
102
RTVSPropertyOp50
 70
     1
102
RTVSPropertyOp51
 70
     0
102
RTVSPropertyOp52
 70
     0
102
RTVSPropertyOp53
 70
     1
102
RTVSPropertyOp54
 70
     1
102
RTVSPropertyOp55
 70
     1
102
RTVSPropertyOp56
 70
     1
102
RTVSPropertyOp57
 70
     1
102
RTVSPost2010Prop28
280
     0
102
RTVSPost2010PropOp28
 70
     1
102
RTVSPost2010Prop29
280
     1
102
RTVSPost2010PropOp29
 70
     1
102
RTVSPost2010Prop30
280
     1
102
RTVSPost2010PropOp30
 70
     1
102
RTVSPost2010Prop31
280
     0
102
RTVSPost2010PropOp31
 70
     1
102
RTVSPost2010Prop32
280
     0
102
RTVSPost2010PropOp32
 70
     1
102
RTVSPost2010Prop33
280
     0
102
RTVSPost2010PropOp33
 70
     1
102
RTVSPost2010Prop34
280
     0
102
RTVSPost2010PropOp34
 70
     1
102
RTVSPost2010Prop35
280
     0
102
RTVSPost2010PropOp35
 70
     1
102
RTVSPost2010Prop36
280
     0
102
RTVSPost2010PropOp36
 70
     1
102
RTVSPost2010Prop37
 90
       50
102
RTVSPost2010PropOp37
 70
     1
102
RTVSPost2010Prop38
140
0.0
102
RTVSPost2010PropOp38
 70
     1
102
RTVSPost2010Prop39
140
1.0
102
RTVSPost2010PropOp39
 70
     1
102
RTVSPost2010Prop40
 90
        0
102
RTVSPost2010PropOp40
 70
     1
102
RTVSPost2010Prop41ColorIndex
 90
       18
102
RTVSPost2010Prop41ColorRGB
 90
        0
102
RTVSPost2010PropOp41
 70
     1
102
RTVSPost2010Prop42
 90
       50
102
RTVSPost2010PropOp42
 70
     1
102
RTVSPost2010Prop43
 90
        3
102
RTVSPost2010PropOp43
 70
     1
102
RTVSPost2010Prop44ColorIndex
 90
        5
102
RTVSPost2010Prop44ColorRGB
 90
      255
102
RTVSPost2010PropOp44
 70
     1
102
RTVSPost2010Prop45
280
     0
102
RTVSPost2010PropOp45
 70
     1
102
RTVSPost2010Prop46
 90
       50
102
RTVSPost2010PropOp46
 70
     1
102
RTVSPost2010Prop47
 90
       50
102
RTVSPost2010PropOp47
 70
     1
102
RTVSPost2010Prop48
 90
       50
102
RTVSPost2010PropOp48
 70
     1
102
RTVSPost2010Prop49
280
     0
102
RTVSPost2010PropOp49
 70
     1
102
RTVSPost2010Prop50
 90
       50
102
RTVSPost2010PropOp50
 70
     1
102
RTVSPost2010Prop51ColorIndex
 90
      256
102
RTVSPost2010Prop51ColorRGB
 90
-16777216
102
RTVSPost2010PropOp51
 70
     0
102
RTVSPost2010Prop52
140
1.0
102
RTVSPost2010PropOp52
 70
     0
102
RTVSPost2010Prop53
 90
        2
102
RTVSPost2010PropOp53
 70
     1
102
RTVSPost2010Prop54
  1
strokes_ogs.tif
102
RTVSPost2010PropOp54
 70
     1
102
RTVSPost2010Prop55
280
     0
102
RTVSPost2010PropOp55
 70
     1
102
RTVSPost2010Prop56
140
1.0
102
RTVSPost2010PropOp56
 70
     1
102
RTVSPost2010Prop57
140
1.0
102
RTVSPost2010PropOp57
 70
     1
  0
XRECORD
  5
4BE
102
{ACAD_REACTORS
330
4BD
102
}
330
4BD
100
AcDbXrecord
280
     1
102
RTVSPropertyOp0
 70
     1
102
RTVSPropertyOp1
 70
     1
102
RTVSPropertyOp2
 70
     1
102
RTVSPropertyOp3
 70
     1
102
RTVSPropertyOp4
 70
     1
102
RTVSPropertyOp5
 70
     1
102
RTVSPropertyOp6
 70
     1
102
RTVSPropertyOp7
 70
     1
102
RTVSPropertyOp8
 70
     1
102
RTVSPropertyOp9
 70
     1
102
RTVSPropertyOp10
 70
     1
102
RTVSPropertyOp11
 70
     1
102
RTVSPropertyOp12
 70
     1
102
RTVSPropertyOp13
 70
     1
102
RTVSPropertyOp14
 70
     1
102
RTVSPropertyOp15
 70
     1
102
RTVSPropertyOp16
 70
     1
102
RTVSPropertyOp17
 70
     1
102
RTVSPropertyOp18
 70
     1
102
RTVSPropertyOp19
 70
     1
102
RTVSPropertyOp20
 70
     1
102
RTVSPropertyOp21
 70
     1
102
RTVSPropertyOp22
 70
     1
102
RTVSPropertyOp23
 70
     1
102
RTVSPropertyOp24
 70
     1
102
RTVSPropertyOp25
 70
     1
102
RTVSPropertyOp26
 70
     1
102
RTVSPropertyOp27
 70
     1
102
RTVSPropertyOp28
 70
     1
102
RTVSPropertyOp29
 70
     1
102
RTVSPropertyOp30
 70
     1
102
RTVSPropertyOp31
 70
     1
102
RTVSPropertyOp32
 70
     1
102
RTVSPropertyOp33
 70
     1
102
RTVSPropertyOp34
 70
     1
102
RTVSPropertyOp35
 70
     1
102
RTVSPropertyOp36
 70
     1
102
RTVSPropertyOp37
 70
     1
102
RTVSPropertyOp38
 70
     1
102
RTVSPropertyOp39
 70
     1
102
RTVSPropertyOp40
 70
     1
102
RTVSPropertyOp41
 70
     1
102
RTVSPropertyOp42
 70
     1
102
RTVSPropertyOp43
 70
     1
102
RTVSPropertyOp44
 70
     1
102
RTVSPropertyOp45
 70
     1
102
RTVSPropertyOp46
 70
     1
102
RTVSPropertyOp47
 70
     1
102
RTVSPropertyOp48
 70
     1
102
RTVSPropertyOp49
 70
     1
102
RTVSPropertyOp50
 70
     1
102
RTVSPropertyOp51
 70
     0
102
RTVSPropertyOp52
 70
     0
102
RTVSPropertyOp53
 70
     1
102
RTVSPropertyOp54
 70
     1
102
RTVSPropertyOp55
 70
     1
102
RTVSPropertyOp56
 70
     1
102
RTVSPropertyOp57
 70
     1
102
RTVSPost2010Prop28
280
     0
102
RTVSPost2010PropOp28
 70
     1
102
RTVSPost2010Prop29
280
     1
102
RTVSPost2010PropOp29
 70
     1
102
RTVSPost2010Prop30
280
     1
102
RTVSPost2010PropOp30
 70
     1
102
RTVSPost2010Prop31
280
     0
102
RTVSPost2010PropOp31
 70
     1
102
RTVSPost2010Prop32
280
     0
102
RTVSPost2010PropOp32
 70
     1
102
RTVSPost2010Prop33
280
     0
102
RTVSPost2010PropOp33
 70
     1
102
RTVSPost2010Prop34
280
     0
102
RTVSPost2010PropOp34
 70
     1
102
RTVSPost2010Prop35
280
     0
102
RTVSPost2010PropOp35
 70
     1
102
RTVSPost2010Prop36
280
     0
102
RTVSPost2010PropOp36
 70
     1
102
RTVSPost2010Prop37
 90
       50
102
RTVSPost2010PropOp37
 70
     1
102
RTVSPost2010Prop38
140
0.0
102
RTVSPost2010PropOp38
 70
     1
102
RTVSPost2010Prop39
140
1.0
102
RTVSPost2010PropOp39
 70
     1
102
RTVSPost2010Prop40
 90
        0
102
RTVSPost2010PropOp40
 70
     1
102
RTVSPost2010Prop41ColorIndex
 90
       18
102
RTVSPost2010Prop41ColorRGB
 90
        0
102
RTVSPost2010PropOp41
 70
     1
102
RTVSPost2010Prop42
 90
       50
102
RTVSPost2010PropOp42
 70
     1
102
RTVSPost2010Prop43
 90
        3
102
RTVSPost2010PropOp43
 70
     1
102
RTVSPost2010Prop44ColorIndex
 90
        5
102
RTVSPost2010Prop44ColorRGB
 90
      255
102
RTVSPost2010PropOp44
 70
     1
102
RTVSPost2010Prop45
280
     0
102
RTVSPost2010PropOp45
 70
     1
102
RTVSPost2010Prop46
 90
       50
102
RTVSPost2010PropOp46
 70
     1
102
RTVSPost2010Prop47
 90
       50
102
RTVSPost2010PropOp47
 70
     1
102
RTVSPost2010Prop48
 90
       50
102
RTVSPost2010PropOp48
 70
     1
102
RTVSPost2010Prop49
280
     0
102
RTVSPost2010PropOp49
 70
     1
102
RTVSPost2010Prop50
 90
       50
102
RTVSPost2010PropOp50
 70
     1
102
RTVSPost2010Prop51ColorIndex
 90
      256
102
RTVSPost2010Prop51ColorRGB
 90
-16777216
102
RTVSPost2010PropOp51
 70
     0
102
RTVSPost2010Prop52
140
1.0
102
RTVSPost2010PropOp52
 70
     0
102
RTVSPost2010Prop53
 90
        2
102
RTVSPost2010PropOp53
 70
     1
102
RTVSPost2010Prop54
  1
strokes_ogs.tif
102
RTVSPost2010PropOp54
 70
     1
102
RTVSPost2010Prop55
280
     0
102
RTVSPost2010PropOp55
 70
     1
102
RTVSPost2010Prop56
140
1.0
102
RTVSPost2010PropOp56
 70
     1
102
RTVSPost2010Prop57
140
1.0
102
RTVSPost2010PropOp57
 70
     1
  0
XRECORD
  5
4C0
102
{ACAD_REACTORS
330
4BF
102
}
330
4BF
100
AcDbXrecord
280
     1
102
RTVSPropertyOp0
 70
     1
102
RTVSPropertyOp1
 70
     1
102
RTVSPropertyOp2
 70
     1
102
RTVSPropertyOp3
 70
     1
102
RTVSPropertyOp4
 70
     1
102
RTVSPropertyOp5
 70
     1
102
RTVSPropertyOp6
 70
     1
102
RTVSPropertyOp7
 70
     1
102
RTVSPropertyOp8
 70
     1
102
RTVSPropertyOp9
 70
     1
102
RTVSPropertyOp10
 70
     1
102
RTVSPropertyOp11
 70
     1
102
RTVSPropertyOp12
 70
     1
102
RTVSPropertyOp13
 70
     1
102
RTVSPropertyOp14
 70
     1
102
RTVSPropertyOp15
 70
     1
102
RTVSPropertyOp16
 70
     1
102
RTVSPropertyOp17
 70
     1
102
RTVSPropertyOp18
 70
     1
102
RTVSPropertyOp19
 70
     1
102
RTVSPropertyOp20
 70
     1
102
RTVSPropertyOp21
 70
     1
102
RTVSPropertyOp22
 70
     1
102
RTVSPropertyOp23
 70
     1
102
RTVSPropertyOp24
 70
     1
102
RTVSPropertyOp25
 70
     1
102
RTVSPropertyOp26
 70
     1
102
RTVSPropertyOp27
 70
     1
102
RTVSPropertyOp28
 70
     1
102
RTVSPropertyOp29
 70
     1
102
RTVSPropertyOp30
 70
     1
102
RTVSPropertyOp31
 70
     1
102
RTVSPropertyOp32
 70
     1
102
RTVSPropertyOp33
 70
     1
102
RTVSPropertyOp34
 70
     1
102
RTVSPropertyOp35
 70
     1
102
RTVSPropertyOp36
 70
     1
102
RTVSPropertyOp37
 70
     1
102
RTVSPropertyOp38
 70
     1
102
RTVSPropertyOp39
 70
     1
102
RTVSPropertyOp40
 70
     1
102
RTVSPropertyOp41
 70
     1
102
RTVSPropertyOp42
 70
     1
102
RTVSPropertyOp43
 70
     1
102
RTVSPropertyOp44
 70
     1
102
RTVSPropertyOp45
 70
     1
102
RTVSPropertyOp46
 70
     1
102
RTVSPropertyOp47
 70
     1
102
RTVSPropertyOp48
 70
     1
102
RTVSPropertyOp49
 70
     1
102
RTVSPropertyOp50
 70
     1
102
RTVSPropertyOp51
 70
     0
102
RTVSPropertyOp52
 70
     0
102
RTVSPropertyOp53
 70
     1
102
RTVSPropertyOp54
 70
     1
102
RTVSPropertyOp55
 70
     1
102
RTVSPropertyOp56
 70
     1
102
RTVSPropertyOp57
 70
     1
102
RTVSPost2010Prop28
280
     0
102
RTVSPost2010PropOp28
 70
     1
102
RTVSPost2010Prop29
280
     1
102
RTVSPost2010PropOp29
 70
     1
102
RTVSPost2010Prop30
280
     1
102
RTVSPost2010PropOp30
 70
     1
102
RTVSPost2010Prop31
280
     0
102
RTVSPost2010PropOp31
 70
     1
102
RTVSPost2010Prop32
280
     0
102
RTVSPost2010PropOp32
 70
     1
102
RTVSPost2010Prop33
280
     0
102
RTVSPost2010PropOp33
 70
     1
102
RTVSPost2010Prop34
280
     0
102
RTVSPost2010PropOp34
 70
     1
102
RTVSPost2010Prop35
280
     0
102
RTVSPost2010PropOp35
 70
     1
102
RTVSPost2010Prop36
280
     0
102
RTVSPost2010PropOp36
 70
     1
102
RTVSPost2010Prop37
 90
       50
102
RTVSPost2010PropOp37
 70
     1
102
RTVSPost2010Prop38
140
0.0
102
RTVSPost2010PropOp38
 70
     1
102
RTVSPost2010Prop39
140
1.0
102
RTVSPost2010PropOp39
 70
     1
102
RTVSPost2010Prop40
 90
        0
102
RTVSPost2010PropOp40
 70
     1
102
RTVSPost2010Prop41ColorIndex
 90
       18
102
RTVSPost2010Prop41ColorRGB
 90
        0
102
RTVSPost2010PropOp41
 70
     1
102
RTVSPost2010Prop42
 90
       50
102
RTVSPost2010PropOp42
 70
     1
102
RTVSPost2010Prop43
 90
        3
102
RTVSPost2010PropOp43
 70
     1
102
RTVSPost2010Prop44ColorIndex
 90
        5
102
RTVSPost2010Prop44ColorRGB
 90
      255
102
RTVSPost2010PropOp44
 70
     1
102
RTVSPost2010Prop45
280
     0
102
RTVSPost2010PropOp45
 70
     1
102
RTVSPost2010Prop46
 90
       50
102
RTVSPost2010PropOp46
 70
     1
102
RTVSPost2010Prop47
 90
       50
102
RTVSPost2010PropOp47
 70
     1
102
RTVSPost2010Prop48
 90
       50
102
RTVSPost2010PropOp48
 70
     1
102
RTVSPost2010Prop49
280
     0
102
RTVSPost2010PropOp49
 70
     1
102
RTVSPost2010Prop50
 90
       50
102
RTVSPost2010PropOp50
 70
     1
102
RTVSPost2010Prop51ColorIndex
 90
      256
102
RTVSPost2010Prop51ColorRGB
 90
-16777216
102
RTVSPost2010PropOp51
 70
     0
102
RTVSPost2010Prop52
140
1.0
102
RTVSPost2010PropOp52
 70
     0
102
RTVSPost2010Prop53
 90
        2
102
RTVSPost2010PropOp53
 70
     1
102
RTVSPost2010Prop54
  1
strokes_ogs.tif
102
RTVSPost2010PropOp54
 70
     1
102
RTVSPost2010Prop55
280
     0
102
RTVSPost2010PropOp55
 70
     1
102
RTVSPost2010Prop56
140
1.0
102
RTVSPost2010PropOp56
 70
     1
102
RTVSPost2010Prop57
140
1.0
102
RTVSPost2010PropOp57
 70
     1
  0
XRECORD
  5
4D4
102
{ACAD_REACTORS
330
4D3
102
}
330
4D3
100
AcDbXrecord
280
     1
102
RTVSPropertyOp0
 70
     1
102
RTVSPropertyOp1
 70
     1
102
RTVSPropertyOp2
 70
     1
102
RTVSPropertyOp3
 70
     1
102
RTVSPropertyOp4
 70
     1
102
RTVSPropertyOp5
 70
     1
102
RTVSPropertyOp6
 70
     1
102
RTVSPropertyOp7
 70
     1
102
RTVSPropertyOp8
 70
     1
102
RTVSPropertyOp9
 70
     1
102
RTVSPropertyOp10
 70
     1
102
RTVSPropertyOp11
 70
     1
102
RTVSPropertyOp12
 70
     1
102
RTVSPropertyOp13
 70
     1
102
RTVSPropertyOp14
 70
     1
102
RTVSPropertyOp15
 70
     1
102
RTVSPropertyOp16
 70
     1
102
RTVSPropertyOp17
 70
     1
102
RTVSPropertyOp18
 70
     1
102
RTVSPropertyOp19
 70
     1
102
RTVSPropertyOp20
 70
     1
102
RTVSPropertyOp21
 70
     1
102
RTVSPropertyOp22
 70
     1
102
RTVSPropertyOp23
 70
     1
102
RTVSPropertyOp24
 70
     1
102
RTVSPropertyOp25
 70
     1
102
RTVSPropertyOp26
 70
     1
102
RTVSPropertyOp27
 70
     1
102
RTVSPropertyOp28
 70
     1
102
RTVSPropertyOp29
 70
     1
102
RTVSPropertyOp30
 70
     1
102
RTVSPropertyOp31
 70
     1
102
RTVSPropertyOp32
 70
     1
102
RTVSPropertyOp33
 70
     1
102
RTVSPropertyOp34
 70
     1
102
RTVSPropertyOp35
 70
     1
102
RTVSPropertyOp36
 70
     1
102
RTVSPropertyOp37
 70
     1
102
RTVSPropertyOp38
 70
     1
102
RTVSPropertyOp39
 70
     1
102
RTVSPropertyOp40
 70
     1
102
RTVSPropertyOp41
 70
     1
102
RTVSPropertyOp42
 70
     1
102
RTVSPropertyOp43
 70
     1
102
RTVSPropertyOp44
 70
     1
102
RTVSPropertyOp45
 70
     1
102
RTVSPropertyOp46
 70
     1
102
RTVSPropertyOp47
 70
     1
102
RTVSPropertyOp48
 70
     1
102
RTVSPropertyOp49
 70
     1
102
RTVSPropertyOp50
 70
     1
102
RTVSPropertyOp51
 70
     0
102
RTVSPropertyOp52
 70
     0
102
RTVSPropertyOp53
 70
     1
102
RTVSPropertyOp54
 70
     1
102
RTVSPropertyOp55
 70
     1
102
RTVSPropertyOp56
 70
     1
102
RTVSPropertyOp57
 70
     1
102
RTVSPost2010Prop28
280
     0
102
RTVSPost2010PropOp28
 70
     1
102
RTVSPost2010Prop29
280
     1
102
RTVSPost2010PropOp29
 70
     1
102
RTVSPost2010Prop30
280
     1
102
RTVSPost2010PropOp30
 70
     1
102
RTVSPost2010Prop31
280
     0
102
RTVSPost2010PropOp31
 70
     1
102
RTVSPost2010Prop32
280
     0
102
RTVSPost2010PropOp32
 70
     1
102
RTVSPost2010Prop33
280
     0
102
RTVSPost2010PropOp33
 70
     1
102
RTVSPost2010Prop34
280
     0
102
RTVSPost2010PropOp34
 70
     1
102
RTVSPost2010Prop35
280
     0
102
RTVSPost2010PropOp35
 70
     1
102
RTVSPost2010Prop36
280
     0
102
RTVSPost2010PropOp36
 70
     1
102
RTVSPost2010Prop37
 90
       50
102
RTVSPost2010PropOp37
 70
     1
102
RTVSPost2010Prop38
140
0.0
102
RTVSPost2010PropOp38
 70
     1
102
RTVSPost2010Prop39
140
1.0
102
RTVSPost2010PropOp39
 70
     1
102
RTVSPost2010Prop40
 90
        0
102
RTVSPost2010PropOp40
 70
     1
102
RTVSPost2010Prop41ColorIndex
 90
       18
102
RTVSPost2010Prop41ColorRGB
 90
        0
102
RTVSPost2010PropOp41
 70
     1
102
RTVSPost2010Prop42
 90
       50
102
RTVSPost2010PropOp42
 70
     1
102
RTVSPost2010Prop43
 90
        3
102
RTVSPost2010PropOp43
 70
     1
102
RTVSPost2010Prop44ColorIndex
 90
        5
102
RTVSPost2010Prop44ColorRGB
 90
      255
102
RTVSPost2010PropOp44
 70
     1
102
RTVSPost2010Prop45
280
     0
102
RTVSPost2010PropOp45
 70
     1
102
RTVSPost2010Prop46
 90
       50
102
RTVSPost2010PropOp46
 70
     1
102
RTVSPost2010Prop47
 90
       50
102
RTVSPost2010PropOp47
 70
     1
102
RTVSPost2010Prop48
 90
       50
102
RTVSPost2010PropOp48
 70
     1
102
RTVSPost2010Prop49
280
     0
102
RTVSPost2010PropOp49
 70
     1
102
RTVSPost2010Prop50
 90
       50
102
RTVSPost2010PropOp50
 70
     1
102
RTVSPost2010Prop51ColorIndex
 90
      256
102
RTVSPost2010Prop51ColorRGB
 90
-16777216
102
RTVSPost2010PropOp51
 70
     0
102
RTVSPost2010Prop52
140
1.0
102
RTVSPost2010PropOp52
 70
     0
102
RTVSPost2010Prop53
 90
        2
102
RTVSPost2010PropOp53
 70
     1
102
RTVSPost2010Prop54
  1
strokes_ogs.tif
102
RTVSPost2010PropOp54
 70
     1
102
RTVSPost2010Prop55
280
     0
102
RTVSPost2010PropOp55
 70
     1
102
RTVSPost2010Prop56
140
1.0
102
RTVSPost2010PropOp56
 70
     1
102
RTVSPost2010Prop57
140
1.0
102
RTVSPost2010PropOp57
 70
     1
  0
XRECORD
  5
4CA
102
{ACAD_REACTORS
330
4C9
102
}
330
4C9
100
AcDbXrecord
280
     1
102
RTVSPropertyOp0
 70
     1
102
RTVSPropertyOp1
 70
     1
102
RTVSPropertyOp2
 70
     1
102
RTVSPropertyOp3
 70
     1
102
RTVSPropertyOp4
 70
     1
102
RTVSPropertyOp5
 70
     1
102
RTVSPropertyOp6
 70
     1
102
RTVSPropertyOp7
 70
     1
102
RTVSPropertyOp8
 70
     1
102
RTVSPropertyOp9
 70
     1
102
RTVSPropertyOp10
 70
     1
102
RTVSPropertyOp11
 70
     1
102
RTVSPropertyOp12
 70
     1
102
RTVSPropertyOp13
 70
     1
102
RTVSPropertyOp14
 70
     1
102
RTVSPropertyOp15
 70
     1
102
RTVSPropertyOp16
 70
     1
102
RTVSPropertyOp17
 70
     1
102
RTVSPropertyOp18
 70
     1
102
RTVSPropertyOp19
 70
     1
102
RTVSPropertyOp20
 70
     1
102
RTVSPropertyOp21
 70
     1
102
RTVSPropertyOp22
 70
     1
102
RTVSPropertyOp23
 70
     1
102
RTVSPropertyOp24
 70
     1
102
RTVSPropertyOp25
 70
     1
102
RTVSPropertyOp26
 70
     1
102
RTVSPropertyOp27
 70
     1
102
RTVSPropertyOp28
 70
     1
102
RTVSPropertyOp29
 70
     1
102
RTVSPropertyOp30
 70
     1
102
RTVSPropertyOp31
 70
     1
102
RTVSPropertyOp32
 70
     1
102
RTVSPropertyOp33
 70
     1
102
RTVSPropertyOp34
 70
     1
102
RTVSPropertyOp35
 70
     1
102
RTVSPropertyOp36
 70
     1
102
RTVSPropertyOp37
 70
     1
102
RTVSPropertyOp38
 70
     1
102
RTVSPropertyOp39
 70
     1
102
RTVSPropertyOp40
 70
     1
102
RTVSPropertyOp41
 70
     1
102
RTVSPropertyOp42
 70
     1
102
RTVSPropertyOp43
 70
     1
102
RTVSPropertyOp44
 70
     1
102
RTVSPropertyOp45
 70
     1
102
RTVSPropertyOp46
 70
     1
102
RTVSPropertyOp47
 70
     1
102
RTVSPropertyOp48
 70
     1
102
RTVSPropertyOp49
 70
     1
102
RTVSPropertyOp50
 70
     1
102
RTVSPropertyOp51
 70
     0
102
RTVSPropertyOp52
 70
     0
102
RTVSPropertyOp53
 70
     1
102
RTVSPropertyOp54
 70
     1
102
RTVSPropertyOp55
 70
     1
102
RTVSPropertyOp56
 70
     1
102
RTVSPropertyOp57
 70
     1
102
RTVSPost2010Prop28
280
     0
102
RTVSPost2010PropOp28
 70
     1
102
RTVSPost2010Prop29
280
     1
102
RTVSPost2010PropOp29
 70
     1
102
RTVSPost2010Prop30
280
     1
102
RTVSPost2010PropOp30
 70
     1
102
RTVSPost2010Prop31
280
     0
102
RTVSPost2010PropOp31
 70
     1
102
RTVSPost2010Prop32
280
     0
102
RTVSPost2010PropOp32
 70
     1
102
RTVSPost2010Prop33
280
     0
102
RTVSPost2010PropOp33
 70
     1
102
RTVSPost2010Prop34
280
     0
102
RTVSPost2010PropOp34
 70
     1
102
RTVSPost2010Prop35
280
     0
102
RTVSPost2010PropOp35
 70
     1
102
RTVSPost2010Prop36
280
     0
102
RTVSPost2010PropOp36
 70
     1
102
RTVSPost2010Prop37
 90
       50
102
RTVSPost2010PropOp37
 70
     1
102
RTVSPost2010Prop38
140
0.0
102
RTVSPost2010PropOp38
 70
     1
102
RTVSPost2010Prop39
140
1.0
102
RTVSPost2010PropOp39
 70
     1
102
RTVSPost2010Prop40
 90
        0
102
RTVSPost2010PropOp40
 70
     1
102
RTVSPost2010Prop41ColorIndex
 90
       18
102
RTVSPost2010Prop41ColorRGB
 90
        0
102
RTVSPost2010PropOp41
 70
     1
102
RTVSPost2010Prop42
 90
       50
102
RTVSPost2010PropOp42
 70
     1
102
RTVSPost2010Prop43
 90
        3
102
RTVSPost2010PropOp43
 70
     1
102
RTVSPost2010Prop44ColorIndex
 90
        5
102
RTVSPost2010Prop44ColorRGB
 90
      255
102
RTVSPost2010PropOp44
 70
     1
102
RTVSPost2010Prop45
280
     0
102
RTVSPost2010PropOp45
 70
     1
102
RTVSPost2010Prop46
 90
       50
102
RTVSPost2010PropOp46
 70
     1
102
RTVSPost2010Prop47
 90
       50
102
RTVSPost2010PropOp47
 70
     1
102
RTVSPost2010Prop48
 90
       50
102
RTVSPost2010PropOp48
 70
     1
102
RTVSPost2010Prop49
280
     0
102
RTVSPost2010PropOp49
 70
     1
102
RTVSPost2010Prop50
 90
       50
102
RTVSPost2010PropOp50
 70
     1
102
RTVSPost2010Prop51ColorIndex
 90
      256
102
RTVSPost2010Prop51ColorRGB
 90
-16777216
102
RTVSPost2010PropOp51
 70
     0
102
RTVSPost2010Prop52
140
1.0
102
RTVSPost2010PropOp52
 70
     0
102
RTVSPost2010Prop53
 90
        2
102
RTVSPost2010PropOp53
 70
     1
102
RTVSPost2010Prop54
  1
strokes_ogs.tif
102
RTVSPost2010PropOp54
 70
     1
102
RTVSPost2010Prop55
280
     0
102
RTVSPost2010PropOp55
 70
     1
102
RTVSPost2010Prop56
140
1.0
102
RTVSPost2010PropOp56
 70
     1
102
RTVSPost2010Prop57
140
1.0
102
RTVSPost2010PropOp57
 70
     1
  0
XRECORD
  5
4D2
102
{ACAD_REACTORS
330
4D1
102
}
330
4D1
100
AcDbXrecord
280
     1
102
RTVSPropertyOp0
 70
     1
102
RTVSPropertyOp1
 70
     1
102
RTVSPropertyOp2
 70
     1
102
RTVSPropertyOp3
 70
     1
102
RTVSPropertyOp4
 70
     1
102
RTVSPropertyOp5
 70
     1
102
RTVSPropertyOp6
 70
     1
102
RTVSPropertyOp7
 70
     1
102
RTVSPropertyOp8
 70
     1
102
RTVSPropertyOp9
 70
     1
102
RTVSPropertyOp10
 70
     1
102
RTVSPropertyOp11
 70
     1
102
RTVSPropertyOp12
 70
     1
102
RTVSPropertyOp13
 70
     1
102
RTVSPropertyOp14
 70
     1
102
RTVSPropertyOp15
 70
     1
102
RTVSPropertyOp16
 70
     1
102
RTVSPropertyOp17
 70
     1
102
RTVSPropertyOp18
 70
     1
102
RTVSPropertyOp19
 70
     1
102
RTVSPropertyOp20
 70
     1
102
RTVSPropertyOp21
 70
     1
102
RTVSPropertyOp22
 70
     1
102
RTVSPropertyOp23
 70
     1
102
RTVSPropertyOp24
 70
     1
102
RTVSPropertyOp25
 70
     1
102
RTVSPropertyOp26
 70
     1
102
RTVSPropertyOp27
 70
     1
102
RTVSPropertyOp28
 70
     1
102
RTVSPropertyOp29
 70
     1
102
RTVSPropertyOp30
 70
     1
102
RTVSPropertyOp31
 70
     1
102
RTVSPropertyOp32
 70
     1
102
RTVSPropertyOp33
 70
     1
102
RTVSPropertyOp34
 70
     1
102
RTVSPropertyOp35
 70
     1
102
RTVSPropertyOp36
 70
     1
102
RTVSPropertyOp37
 70
     1
102
RTVSPropertyOp38
 70
     1
102
RTVSPropertyOp39
 70
     1
102
RTVSPropertyOp40
 70
     1
102
RTVSPropertyOp41
 70
     1
102
RTVSPropertyOp42
 70
     1
102
RTVSPropertyOp43
 70
     1
102
RTVSPropertyOp44
 70
     1
102
RTVSPropertyOp45
 70
     1
102
RTVSPropertyOp46
 70
     1
102
RTVSPropertyOp47
 70
     1
102
RTVSPropertyOp48
 70
     1
102
RTVSPropertyOp49
 70
     1
102
RTVSPropertyOp50
 70
     1
102
RTVSPropertyOp51
 70
     0
102
RTVSPropertyOp52
 70
     0
102
RTVSPropertyOp53
 70
     1
102
RTVSPropertyOp54
 70
     1
102
RTVSPropertyOp55
 70
     1
102
RTVSPropertyOp56
 70
     1
102
RTVSPropertyOp57
 70
     1
102
RTVSPost2010Prop28
280
     0
102
RTVSPost2010PropOp28
 70
     1
102
RTVSPost2010Prop29
280
     1
102
RTVSPost2010PropOp29
 70
     1
102
RTVSPost2010Prop30
280
     1
102
RTVSPost2010PropOp30
 70
     1
102
RTVSPost2010Prop31
280
     0
102
RTVSPost2010PropOp31
 70
     1
102
RTVSPost2010Prop32
280
     0
102
RTVSPost2010PropOp32
 70
     1
102
RTVSPost2010Prop33
280
     0
102
RTVSPost2010PropOp33
 70
     1
102
RTVSPost2010Prop34
280
     0
102
RTVSPost2010PropOp34
 70
     1
102
RTVSPost2010Prop35
280
     0
102
RTVSPost2010PropOp35
 70
     1
102
RTVSPost2010Prop36
280
     0
102
RTVSPost2010PropOp36
 70
     1
102
RTVSPost2010Prop37
 90
       50
102
RTVSPost2010PropOp37
 70
     1
102
RTVSPost2010Prop38
140
0.0
102
RTVSPost2010PropOp38
 70
     1
102
RTVSPost2010Prop39
140
1.0
102
RTVSPost2010PropOp39
 70
     1
102
RTVSPost2010Prop40
 90
        0
102
RTVSPost2010PropOp40
 70
     1
102
RTVSPost2010Prop41ColorIndex
 90
       18
102
RTVSPost2010Prop41ColorRGB
 90
        0
102
RTVSPost2010PropOp41
 70
     1
102
RTVSPost2010Prop42
 90
       50
102
RTVSPost2010PropOp42
 70
     1
102
RTVSPost2010Prop43
 90
        3
102
RTVSPost2010PropOp43
 70
     1
102
RTVSPost2010Prop44ColorIndex
 90
        5
102
RTVSPost2010Prop44ColorRGB
 90
      255
102
RTVSPost2010PropOp44
 70
     1
102
RTVSPost2010Prop45
280
     0
102
RTVSPost2010PropOp45
 70
     1
102
RTVSPost2010Prop46
 90
       50
102
RTVSPost2010PropOp46
 70
     1
102
RTVSPost2010Prop47
 90
       50
102
RTVSPost2010PropOp47
 70
     1
102
RTVSPost2010Prop48
 90
       50
102
RTVSPost2010PropOp48
 70
     1
102
RTVSPost2010Prop49
280
     0
102
RTVSPost2010PropOp49
 70
     1
102
RTVSPost2010Prop50
 90
       50
102
RTVSPost2010PropOp50
 70
     1
102
RTVSPost2010Prop51ColorIndex
 90
      256
102
RTVSPost2010Prop51ColorRGB
 90
-16777216
102
RTVSPost2010PropOp51
 70
     0
102
RTVSPost2010Prop52
140
1.0
102
RTVSPost2010PropOp52
 70
     0
102
RTVSPost2010Prop53
 90
        2
102
RTVSPost2010PropOp53
 70
     1
102
RTVSPost2010Prop54
  1
strokes_ogs.tif
102
RTVSPost2010PropOp54
 70
     1
102
RTVSPost2010Prop55
280
     0
102
RTVSPost2010PropOp55
 70
     1
102
RTVSPost2010Prop56
140
1.0
102
RTVSPost2010PropOp56
 70
     1
102
RTVSPost2010Prop57
140
1.0
102
RTVSPost2010PropOp57
 70
     1
  0
ENDSEC
  0
EOF
