  0
SECTION
  2
HEADER
  9
$ACADVER
  1
AC1018
  9
$ACADMAINTVER
 70
     0
  9
$DWGCODEPAGE
  3
ANSI_936
  9
$INSBASE
 10
0.0
 20
0.0
 30
0.0
  9
$EXTMIN
 10
363.105606651819
 20
463.0019951693407
 30
0.0
  9
$EXTMAX
 10
502.9910685576538
 20
687.4115879107385
 30
0.0
  9
$LIMMIN
 10
0.0
 20
0.0
  9
$LIMMAX
 10
12.0
 20
9.0
  9
$ORTHOMODE
 70
     0
  9
$REGENMODE
 70
     1
  9
$FILLMODE
 70
     1
  9
$QTEXTMODE
 70
     0
  9
$MIRRTEXT
 70
     1
  9
$LTSCALE
 40
1.0
  9
$ATTMODE
 70
     1
  9
$TEXTSIZE
 40
0.2
  9
$TRACEWID
 40
0.05
  9
$TEXTSTYLE
  7
Standard
  9
$CLAYER
  8
0
  9
$CELTYPE
  6
ByLayer
  9
$CECOLOR
 62
   256
  9
$CELTSCALE
 40
1.0
  9
$DISPSILH
 70
     0
  9
$DIMSCALE
 40
1.0
  9
$DIMASZ
 40
0.18
  9
$DIMEXO
 40
0.0625
  9
$DIMDLI
 40
0.38
  9
$DIMRND
 40
0.0
  9
$DIMDLE
 40
0.0
  9
$DIMEXE
 40
0.18
  9
$DIMTP
 40
0.0
  9
$DIMTM
 40
0.0
  9
$DIMTXT
 40
0.18
  9
$DIMCEN
 40
0.09
  9
$DIMTSZ
 40
0.0
  9
$DIMTOL
 70
     0
  9
$DIMLIM
 70
     0
  9
$DIMTIH
 70
     1
  9
$DIMTOH
 70
     1
  9
$DIMSE1
 70
     0
  9
$DIMSE2
 70
     0
  9
$DIMTAD
 70
     0
  9
$DIMZIN
 70
     0
  9
$DIMBLK
  1

  9
$DIMASO
 70
     1
  9
$DIMSHO
 70
     1
  9
$DIMPOST
  1

  9
$DIMAPOST
  1

  9
$DIMALT
 70
     0
  9
$DIMALTD
 70
     2
  9
$DIMALTF
 40
25.4
  9
$DIMLFAC
 40
1.0
  9
$DIMTOFL
 70
     0
  9
$DIMTVP
 40
0.0
  9
$DIMTIX
 70
     0
  9
$DIMSOXD
 70
     0
  9
$DIMSAH
 70
     0
  9
$DIMBLK1
  1

  9
$DIMBLK2
  1

  9
$DIMSTYLE
  2
Standard
  9
$DIMCLRD
 70
     0
  9
$DIMCLRE
 70
     0
  9
$DIMCLRT
 70
     0
  9
$DIMTFAC
 40
1.0
  9
$DIMGAP
 40
0.09
  9
$DIMJUST
 70
     0
  9
$DIMSD1
 70
     0
  9
$DIMSD2
 70
     0
  9
$DIMTOLJ
 70
     1
  9
$DIMTZIN
 70
     0
  9
$DIMALTZ
 70
     0
  9
$DIMALTTZ
 70
     0
  9
$DIMUPT
 70
     0
  9
$DIMDEC
 70
     4
  9
$DIMTDEC
 70
     4
  9
$DIMALTU
 70
     2
  9
$DIMALTTD
 70
     2
  9
$DIMTXSTY
  7
Standard
  9
$DIMAUNIT
 70
     0
  9
$DIMADEC
 70
     0
  9
$DIMALTRND
 40
0.0
  9
$DIMAZIN
 70
     0
  9
$DIMDSEP
 70
    46
  9
$DIMATFIT
 70
     3
  9
$DIMFRAC
 70
     0
  9
$DIMLDRBLK
  1

  9
$DIMLUNIT
 70
     2
  9
$DIMLWD
 70
    -2
  9
$DIMLWE
 70
    -2
  9
$DIMTMOVE
 70
     2
  9
$LUNITS
 70
     2
  9
$LUPREC
 70
     3
  9
$SKETCHINC
 40
0.1
  9
$FILLETRAD
 40
0.5
  9
$AUNITS
 70
     0
  9
$AUPREC
 70
     0
  9
$MENU
  1
.
  9
$ELEVATION
 40
0.0
  9
$PELEVATION
 40
0.0
  9
$THICKNESS
 40
0.0
  9
$LIMCHECK
 70
     0
  9
$CHAMFERA
 40
0.5
  9
$CHAMFERB
 40
0.5
  9
$CHAMFERC
 40
1.0
  9
$CHAMFERD
 40
0.0
  9
$SKPOLY
 70
     0
  9
$TDCREATE
 40
2456854.7336039
  9
$TDUCREATE
 40
2456854.400270567
  9
$TDUPDATE
 40
2456854.733606343
  9
$TDUUPDATE
 40
2456854.400273009
  9
$TDINDWG
 40
0.0000000116
  9
$TDUSRTIMER
 40
0.0000000116
  9
$USRTIMER
 70
     1
  9
$ANGBASE
 50
0.0
  9
$ANGDIR
 70
     0
  9
$PDMODE
 70
     0
  9
$PDSIZE
 40
0.0
  9
$PLINEWID
 40
0.0
  9
$SPLFRAME
 70
     0
  9
$SPLINETYPE
 70
     6
  9
$SPLINESEGS
 70
     8
  9
$HANDSEED
  5
55E
  9
$SURFTAB1
 70
     6
  9
$SURFTAB2
 70
     6
  9
$SURFTYPE
 70
     6
  9
$SURFU
 70
     6
  9
$SURFV
 70
     6
  9
$UCSBASE
  2

  9
$UCSNAME
  2

  9
$UCSORG
 10
0.0
 20
0.0
 30
0.0
  9
$UCSXDIR
 10
1.0
 20
0.0
 30
0.0
  9
$UCSYDIR
 10
0.0
 20
1.0
 30
0.0
  9
$UCSORTHOREF
  2

  9
$UCSORTHOVIEW
 70
     0
  9
$UCSORGTOP
 10
0.0
 20
0.0
 30
0.0
  9
$UCSORGBOTTOM
 10
0.0
 20
0.0
 30
0.0
  9
$UCSORGLEFT
 10
0.0
 20
0.0
 30
0.0
  9
$UCSORGRIGHT
 10
0.0
 20
0.0
 30
0.0
  9
$UCSORGFRONT
 10
0.0
 20
0.0
 30
0.0
  9
$UCSORGBACK
 10
0.0
 20
0.0
 30
0.0
  9
$PUCSBASE
  2

  9
$PUCSNAME
  2

  9
$PUCSORG
 10
0.0
 20
0.0
 30
0.0
  9
$PUCSXDIR
 10
1.0
 20
0.0
 30
0.0
  9
$PUCSYDIR
 10
0.0
 20
1.0
 30
0.0
  9
$PUCSORTHOREF
  2

  9
$PUCSORTHOVIEW
 70
     0
  9
$PUCSORGTOP
 10
0.0
 20
0.0
 30
0.0
  9
$PUCSORGBOTTOM
 10
0.0
 20
0.0
 30
0.0
  9
$PUCSORGLEFT
 10
0.0
 20
0.0
 30
0.0
  9
$PUCSORGRIGHT
 10
0.0
 20
0.0
 30
0.0
  9
$PUCSORGFRONT
 10
0.0
 20
0.0
 30
0.0
  9
$PUCSORGBACK
 10
0.0
 20
0.0
 30
0.0
  9
$USERI1
 70
     0
  9
$USERI2
 70
     0
  9
$USERI3
 70
     0
  9
$USERI4
 70
     0
  9
$USERI5
 70
     0
  9
$USERR1
 40
0.0
  9
$USERR2
 40
0.0
  9
$USERR3
 40
0.0
  9
$USERR4
 40
0.0
  9
$USERR5
 40
0.0
  9
$WORLDVIEW
 70
     1
  9
$SHADEDGE
 70
     3
  9
$SHADEDIF
 70
    70
  9
$TILEMODE
 70
     1
  9
$MAXACTVP
 70
    64
  9
$PINSBASE
 10
0.0
 20
0.0
 30
0.0
  9
$PLIMCHECK
 70
     0
  9
$PEXTMIN
 10
1.000000000000000E+20
 20
1.000000000000000E+20
 30
1.000000000000000E+20
  9
$PEXTMAX
 10
-1.000000000000000E+20
 20
-1.000000000000000E+20
 30
-1.000000000000000E+20
  9
$PLIMMIN
 10
0.0
 20
0.0
  9
$PLIMMAX
 10
12.0
 20
9.0
  9
$UNITMODE
 70
     0
  9
$VISRETAIN
 70
     1
  9
$PLINEGEN
 70
     0
  9
$PSLTSCALE
 70
     1
  9
$TREEDEPTH
 70
  3020
  9
$CMLSTYLE
  2
Standard
  9
$CMLJUST
 70
     0
  9
$CMLSCALE
 40
1.0
  9
$PROXYGRAPHICS
 70
     1
  9
$MEASUREMENT
 70
     0
  9
$CELWEIGHT
370
    -1
  9
$ENDCAPS
280
     0
  9
$JOINSTYLE
280
     0
  9
$LWDISPLAY
290
     0
  9
$INSUNITS
 70
     4
  9
$HYPERLINKBASE
  1

  9
$STYLESHEET
  1

  9
$XEDIT
290
     1
  9
$CEPSNTYPE
380
     0
  9
$PSTYLEMODE
290
     1
  9
$FINGERPRINTGUID
  2
{37288883-831B-46CC-B676-6C84ADD94BA9}
  9
$VERSIONGUID
  2
{FAEB1C32-E019-11D5-929B-00C0DF256EC4}
  9
$EXTNAMES
290
     1
  9
$PSVPSCALE
 40
0.0
  9
$OLESTARTUP
290
     0
  9
$SORTENTS
280
   127
  9
$INDEXCTL
280
     0
  9
$HIDETEXT
280
     1
  9
$XCLIPFRAME
290
     0
  9
$HALOGAP
280
     0
  9
$OBSCOLOR
 70
   257
  9
$OBSLTYPE
280
     0
  9
$INTERSECTIONDISPLAY
280
     0
  9
$INTERSECTIONCOLOR
 70
   257
  9
$DIMASSOC
280
     2
  9
$PROJECTNAME
  1

  0
ENDSEC
  0
SECTION
  2
CLASSES
  0
CLASS
  1
ACDBDICTIONARYWDFLT
  2
AcDbDictionaryWithDefault
  3
ObjectDBX Classes
 90
        0
 91
        4
280
     0
281
     0
  0
CLASS
  1
VISUALSTYLE
  2
AcDbVisualStyle
  3
ObjectDBX Classes
 90
     4095
 91
        4
280
     0
281
     0
  0
CLASS
  1
MATERIAL
  2
AcDbMaterial
  3
ObjectDBX Classes
 90
     1153
 91
        4
280
     0
281
     0
  0
CLASS
  1
SCALE
  2
AcDbScale
  3
ObjectDBX Classes
 90
     1153
 91
        4
280
     0
281
     0
  0
CLASS
  1
SUN
  2
AcDbSun
  3
SCENEOE
 90
     1153
 91
        4
280
     0
281
     0
  0
CLASS
  1
DICTIONARYVAR
  2
AcDbDictionaryVar
  3
ObjectDBX Classes
 90
        0
 91
        4
280
     0
281
     0
  0
ENDSEC
  0
SECTION
  2
TABLES
  0
TABLE
  2
VPORT
  5
8
330
0
100
AcDbSymbolTable
 70
     1
  0
VPORT
  5
29
330
8
100
AcDbSymbolTableRecord
100
AcDbViewportTableRecord
  2
*Active
 70
     0
 10
0.0
 20
0.0
 11
1.0
 21
1.0
 12
433.0483376047364
 22
575.2239158848295
 13
0.0
 23
0.0
 14
0.5
 24
0.5
 15
0.5
 25
0.5
 16
0.0
 26
0.0
 36
1.0
 17
0.0
 27
0.0
 37
0.0
 40
228.8628509328544
 41
0.6234439995935075
 42
50.0
 43
0.0
 44
0.0
 50
0.0
 51
0.0
 71
     0
 72
   100
 73
     1
 74
     3
 75
     0
 76
     0
 77
     0
 78
     0
281
     0
 65
     1
110
0.0
120
0.0
130
0.0
111
1.0
121
0.0
131
0.0
112
0.0
122
1.0
132
0.0
 79
     0
146
0.0
  0
ENDTAB
  0
TABLE
  2
LTYPE
  5
5
330
0
100
AcDbSymbolTable
 70
     1
  0
LTYPE
  5
14
330
5
100
AcDbSymbolTableRecord
100
AcDbLinetypeTableRecord
  2
ByBlock
 70
     0
  3

 72
    65
 73
     0
 40
0.0
  0
LTYPE
  5
15
330
5
100
AcDbSymbolTableRecord
100
AcDbLinetypeTableRecord
  2
ByLayer
 70
     0
  3

 72
    65
 73
     0
 40
0.0
  0
LTYPE
  5
16
330
5
100
AcDbSymbolTableRecord
100
AcDbLinetypeTableRecord
  2
Continuous
 70
     0
  3
Solid line
 72
    65
 73
     0
 40
0.0
  0
ENDTAB
  0
TABLE
  2
LAYER
  5
2
330
0
100
AcDbSymbolTable
 70
     2
  0
LAYER
  5
10
330
2
100
AcDbSymbolTableRecord
100
AcDbLayerTableRecord
  2
0
 70
     0
 62
     7
  6
Continuous
370
    -3
390
F
  0
LAYER
  5
62
330
2
100
AcDbSymbolTableRecord
100
AcDbLayerTableRecord
  2
Make2D$可见线$普通线
 70
     0
 62
    18
420
        0
  6
Continuous
370
    -3
390
F
  0
ENDTAB
  0
TABLE
  2
STYLE
  5
3
330
0
100
AcDbSymbolTable
 70
     1
  0
STYLE
  5
11
330
3
100
AcDbSymbolTableRecord
100
AcDbTextStyleTableRecord
  2
Standard
 70
     0
 40
0.0
 41
1.0
 50
0.0
 71
     0
 42
0.2
  3
txt
  4

  0
ENDTAB
  0
TABLE
  2
VIEW
  5
6
330
0
100
AcDbSymbolTable
 70
     0
  0
ENDTAB
  0
TABLE
  2
UCS
  5
7
330
0
100
AcDbSymbolTable
 70
     0
  0
ENDTAB
  0
TABLE
  2
APPID
  5
9
330
0
100
AcDbSymbolTable
 70
     1
  0
APPID
  5
12
330
9
100
AcDbSymbolTableRecord
100
AcDbRegAppTableRecord
  2
ACAD
 70
     0
  0
ENDTAB
  0
TABLE
  2
DIMSTYLE
  5
A
330
0
100
AcDbSymbolTable
 70
     1
100
AcDbDimStyleTable
  0
DIMSTYLE
105
27
330
A
100
AcDbSymbolTableRecord
100
AcDbDimStyleTableRecord
  2
Standard
 70
     0
178
     0
340
11
  0
ENDTAB
  0
TABLE
  2
BLOCK_RECORD
  5
1
330
0
100
AcDbSymbolTable
 70
     1
  0
BLOCK_RECORD
  5
1F
330
1
100
AcDbSymbolTableRecord
100
AcDbBlockTableRecord
  2
*Model_Space
340
22
  0
BLOCK_RECORD
  5
1B
330
1
100
AcDbSymbolTableRecord
100
AcDbBlockTableRecord
  2
*Paper_Space
340
1E
  0
BLOCK_RECORD
  5
23
330
1
100
AcDbSymbolTableRecord
100
AcDbBlockTableRecord
  2
*Paper_Space0
340
26
  0
ENDTAB
  0
ENDSEC
  0
SECTION
  2
BLOCKS
  0
BLOCK
  5
20
330
1F
100
AcDbEntity
  8
0
100
AcDbBlockBegin
  2
*Model_Space
 70
     0
 10
0.0
 20
0.0
 30
0.0
  3
*Model_Space
  1
*Model_Space
  0
ENDBLK
  5
21
330
1F
100
AcDbEntity
  8
0
100
AcDbBlockEnd
  0
BLOCK
  5
1C
330
1B
100
AcDbEntity
 67
     1
  8
0
100
AcDbBlockBegin
  2
*Paper_Space
 70
     0
 10
0.0
 20
0.0
 30
0.0
  3
*Paper_Space
  1
*Paper_Space
  0
ENDBLK
  5
1D
330
1B
100
AcDbEntity
 67
     1
  8
0
100
AcDbBlockEnd
  0
BLOCK
  5
24
330
23
100
AcDbEntity
  8
0
100
AcDbBlockBegin
  2
*Paper_Space0
 70
     0
 10
0.0
 20
0.0
 30
0.0
  3
*Paper_Space0
  1
*Paper_Space0
  0
ENDBLK
  5
25
330
23
100
AcDbEntity
  8
0
100
AcDbBlockEnd
  0
ENDSEC
  0
SECTION
  2
ENTITIES
  0
ARC
  5
63
330
1F
100
AcDbEntity
  8
Make2D$可见线$普通线
100
AcDbCircle
 10
402.1893917801856
 20
586.1593326912198
 30
0.0
 40
39.62485361789179
100
AcDbArc
 50
138.8177397681577
 51
144.6941631555324
  0
ARC
  5
64
330
1F
100
AcDbEntity
  8
Make2D$可见线$普通线
100
AcDbCircle
 10
415.5974275991978
 20
571.9242861332822
 30
0.0
 40
59.23226865114658
100
AcDbArc
 50
123.0306362592327
 51
128.5523127747819
  0
SPLINE
  5
65
330
1F
100
AcDbEntity
  8
Make2D$可见线$普通线
100
AcDbSpline
210
0.0
220
0.0
230
1.0
 70
     8
 71
     3
 72
    17
 73
    13
 74
     0
 42
0.000000001
 43
0.0000000001
 12
1.0
 22
0.0
 32
0.0
 13
1.0
 23
0.0
 33
0.0
 40
19.36450902295389
 40
19.36450902295389
 40
19.36450902295389
 40
19.36450902295389
 40
56.26378790256587
 40
56.26378790256587
 40
56.26378790256587
 40
112.1857817803083
 40
112.1857817803083
 40
112.1857817803083
 40
168.1077756580507
 40
168.1077756580507
 40
168.1077756580507
 40
205.0070870422327
 40
205.0070870422327
 40
205.0070870422327
 40
205.0070870422327
 10
500.3782376643931
 20
566.9752293041777
 30
0.0
 10
497.1093599035014
 20
559.665587753972
 30
0.0
 10
490.8739460468969
 20
552.9796659222376
 30
0.0
 10
482.2356639042432
 20
547.6258397795075
 30
0.0
 10
469.1036802777137
 20
539.4869116819334
 30
0.0
 10
451.4335888103974
 20
534.976268626351
 30
0.0
 10
433.0483376043603
 20
534.976268626382
 30
0.0
 10
414.6630863983235
 20
534.976268626413
 30
0.0
 10
396.9929949310254
 20
539.4869116820549
 30
0.0
 10
383.8610113045293
 20
547.6258397796734
 30
0.0
 10
375.2227215524351
 20
552.979670638618
 30
0.0
 10
368.9873043197714
 20
559.6655995334442
 30
0.0
 10
365.7184289058035
 20
566.9752486215925
 30
0.0
  0
POLYLINE
  5
66
330
1F
100
AcDbEntity
  8
Make2D$可见线$普通线
100
AcDb2dPolyline
 66
     1
 10
0.0
 20
0.0
 30
0.0
  0
VERTEX
  5
67
330
66
100
AcDbEntity
  8
Make2D$可见线$普通线
100
AcDbVertex
100
AcDb2dVertex
 10
451.0364295541262
 20
495.102098709666
 30
0.0
 42
0.0142788825284066
  0
VERTEX
  5
68
330
66
100
AcDbEntity
  8
Make2D$可见线$普通线
100
AcDbVertex
100
AcDb2dVertex
 10
452.1267588784472
 20
521.0356028903601
 30
0.0
 42
0.0114566102446146
  0
VERTEX
  5
69
330
66
100
AcDbEntity
  8
Make2D$可见线$普通线
100
AcDbVertex
100
AcDb2dVertex
 10
451.975347741894
 20
536.5456463229026
 30
0.0
  0
VERTEX
  5
6A
330
66
100
AcDbEntity
  8
Make2D$可见线$普通线
100
AcDbVertex
100
AcDb2dVertex
 10
451.9733448394576
 20
536.604378232687
 30
0.0
  0
SEQEND
  5
6B
330
66
100
AcDbEntity
  8
Make2D$可见线$普通线
  0
ARC
  5
6C
330
1F
100
AcDbEntity
  8
Make2D$可见线$普通线
100
AcDbCircle
 10
535.8472589311244
 20
470.6310205880065
 30
0.0
 40
72.6663091580382
100
AcDbArc
 50
177.2643928606947
 51
179.6365264599749
  0
POLYLINE
  5
6D
330
1F
100
AcDbEntity
  8
Make2D$可见线$普通线
100
AcDb2dPolyline
 66
     1
 10
0.0
 20
0.0
 30
0.0
  0
VERTEX
  5
6E
330
6D
100
AcDbEntity
  8
Make2D$可见线$普通线
100
AcDbVertex
100
AcDb2dVertex
 10
466.636149345285
 20
540.3453705256369
 30
0.0
 42
-0.0141697491642218
  0
VERTEX
  5
6F
330
6D
100
AcDbEntity
  8
Make2D$可见线$普通线
100
AcDbVertex
100
AcDb2dVertex
 10
466.9254691092883
 20
520.8545099544716
 30
0.0
 42
-0.0080382877487486
  0
VERTEX
  5
70
330
6D
100
AcDbEntity
  8
Make2D$可见线$普通线
100
AcDbVertex
100
AcDb2dVertex
 10
466.514989558626
 20
506.5510080382878
 30
0.0
 42
-0.0077690146245609
  0
VERTEX
  5
71
330
6D
100
AcDbEntity
  8
Make2D$可见线$普通线
100
AcDbVertex
100
AcDb2dVertex
 10
465.5885663720121
 20
491.1641844266235
 30
0.0
  0
SEQEND
  5
72
330
6D
100
AcDbEntity
  8
Make2D$可见线$普通线
  0
LINE
  5
73
330
1F
100
AcDbEntity
  8
Make2D$可见线$普通线
100
AcDbLine
 10
447.2006158279137
 20
636.0860912329654
 30
0.0
 11
447.0900769328365
 21
641.0318347118975
 31
0.0
  0
SPLINE
  5
74
330
1F
100
AcDbEntity
  8
Make2D$可见线$普通线
100
AcDbSpline
210
0.0
220
0.0
230
1.0
 70
     8
 71
     3
 72
    10
 73
     6
 74
     0
 42
0.000000001
 43
0.0000000001
 12
1.0
 22
0.0
 32
0.0
 13
1.0
 23
0.0
 33
0.0
 40
0.0
 40
0.0
 40
0.0
 40
0.0
 40
0.5000006486171977
 40
0.5000006486171977
 40
1.0
 40
1.0
 40
1.0
 40
1.0
 10
487.0035519505564
 20
618.3812690436164
 30
0.0
 10
491.6273291249736
 20
614.6425590858738
 30
0.0
 10
495.2546455252245
 20
610.4451958825757
 30
0.0
 10
500.1368397556389
 20
601.5548190627962
 30
0.0
 10
501.39297457352
 20
596.8635868859784
 30
0.0
 10
501.3792786685697
 20
592.1761362488041
 30
0.0
  0
LINE
  5
75
330
1F
100
AcDbEntity
  8
Make2D$可见线$普通线
100
AcDbLine
 10
474.2936724855302
 20
543.8858662695576
 30
0.0
 11
474.5163396914057
 21
543.9870488133544
 31
0.0
  0
LINE
  5
76
330
1F
100
AcDbEntity
  8
Make2D$可见线$普通线
100
AcDbLine
 10
391.5802712767913
 20
543.9870781261823
 30
0.0
 11
391.8030044224672
 21
543.8858655007319
 31
0.0
  0
LINE
  5
77
330
1F
100
AcDbEntity
  8
Make2D$可见线$普通线
100
AcDbLine
 10
485.0199484623816
 20
549.8850163085707
 30
0.0
 11
486.0754734625878
 21
550.6282542253128
 31
0.0
  0
ARC
  5
78
330
1F
100
AcDbEntity
  8
Make2D$可见线$普通线
100
AcDbCircle
 10
441.3088479216785
 20
616.7606374434001
 30
0.0
 40
79.99192453436591
100
AcDbArc
 50
292.0472722027552
 51
295.2287505018741
  0
ARC
  5
79
330
1F
100
AcDbEntity
  8
Make2D$可见线$普通线
100
AcDbCircle
 10
424.7878277702533
 20
616.76063851867
 30
0.0
 40
79.99192571287628
100
AcDbArc
 50
244.7712494945258
 51
247.9527290131198
  0
LINE
  5
7A
330
1F
100
AcDbEntity
  8
Make2D$可见线$普通线
100
AcDbLine
 10
380.0212017457037
 20
550.6282542258444
 30
0.0
 11
381.0767279615403
 21
549.8850154725652
 31
0.0
  0
SPLINE
  5
7B
330
1F
100
AcDbEntity
  8
Make2D$可见线$普通线
100
AcDbSpline
210
0.0
220
0.0
230
1.0
 70
     8
 71
     3
 72
    12
 73
     8
 74
     0
 42
0.000000001
 43
0.0000000001
 12
1.0
 22
0.0
 32
0.0
 13
1.0
 23
0.0
 33
0.0
 40
0.0
 40
0.0
 40
0.0
 40
0.0
 40
0.1135352208811231
 40
0.4017764367129038
 40
1.03289857154685
 40
3.001510710885753
 40
12.60419320442864
 40
12.60419320442864
 40
12.60419320442864
 40
12.60419320442864
 10
448.47682820489
 20
649.2764692318945
 30
0.0
 10
448.4513760577623
 20
649.3287621502652
 30
0.0
 10
448.3106023478068
 20
649.2880341866995
 30
0.0
 10
448.1729647949817
 20
648.9608356967126
 30
0.0
 10
447.9204145581909
 20
648.0324270152994
 30
0.0
 10
447.3360150383865
 20
644.0040639852514
 30
0.0
 10
446.9847390316841
 20
640.1623243865645
 30
0.0
 10
446.7544786414119
 20
636.9696202529708
 30
0.0
  0
ARC
  5
7C
330
1F
100
AcDbEntity
  8
Make2D$可见线$普通线
100
AcDbCircle
 10
385.2252349951231
 20
627.579915128936
 30
0.0
 40
61.33167642221481
100
AcDbArc
 50
9.527756914565192
 51
16.81122045390459
  0
ARC
  5
7D
330
1F
100
AcDbEntity
  8
Make2D$可见线$普通线
100
AcDbCircle
 10
480.9101225013271
 20
627.571745079699
 30
0.0
 40
61.37116951079064
100
AcDbArc
 50
163.2114781351843
 51
170.4707353148421
  0
ARC
  5
7E
330
1F
100
AcDbEntity
  8
Make2D$可见线$普通线
100
AcDbCircle
 10
457.7038610410194
 20
484.5792091945209
 30
0.0
 40
12.97020671490393
100
AcDbArc
 50
266.1204337668236
 51
282.6939984390818
  0
LINE
  5
7F
330
1F
100
AcDbEntity
  8
Make2D$可见线$普通线
100
AcDbLine
 10
461.5894460217838
 20
473.2728592986797
 30
0.0
 11
461.2900417711512
 21
472.8627545014995
 31
0.0
  0
POLYLINE
  5
80
330
1F
100
AcDbEntity
  8
Make2D$可见线$普通线
100
AcDb2dPolyline
 66
     1
 10
0.0
 20
0.0
 30
0.0
  0
VERTEX
  5
81
330
80
100
AcDbEntity
  8
Make2D$可见线$普通线
100
AcDbVertex
100
AcDb2dVertex
 10
464.0811172122174
 20
475.2089618028082
 30
0.0
 42
-0.0140001460411735
  0
VERTEX
  5
82
330
80
100
AcDbEntity
  8
Make2D$可见线$普通线
100
AcDbVertex
100
AcDb2dVertex
 10
463.3290425613081
 20
469.776621450815
 30
0.0
 42
-0.1826408931890785
  0
VERTEX
  5
83
330
80
100
AcDbEntity
  8
Make2D$可见线$普通线
100
AcDbVertex
100
AcDb2dVertex
 10
460.5294707939838
 20
464.6579118423357
 30
0.0
 42
-0.1961596193645547
  0
VERTEX
  5
84
330
80
100
AcDbEntity
  8
Make2D$可见线$普通线
100
AcDbVertex
100
AcDb2dVertex
 10
455.0857778782043
 20
463.0382136081906
 30
0.0
 42
-0.1951759044743661
  0
VERTEX
  5
85
330
80
100
AcDbEntity
  8
Make2D$可见线$普通线
100
AcDbVertex
100
AcDb2dVertex
 10
450.0940456213914
 20
465.7442054000721
 30
0.0
 42
-0.1628433113544197
  0
VERTEX
  5
86
330
80
100
AcDbEntity
  8
Make2D$可见线$普通线
100
AcDbVertex
100
AcDb2dVertex
 10
448.3973143490497
 20
470.5233831560992
 30
0.0
 42
-0.0159040788958131
  0
VERTEX
  5
87
330
80
100
AcDbEntity
  8
Make2D$可见线$普通线
100
AcDbVertex
100
AcDb2dVertex
 10
448.4714529823113
 20
474.5480517114244
 30
0.0
  0
SEQEND
  5
88
330
80
100
AcDbEntity
  8
Make2D$可见线$普通线
  0
POLYLINE
  5
89
330
1F
100
AcDbEntity
  8
Make2D$可见线$普通线
100
AcDb2dPolyline
 66
     1
 10
0.0
 20
0.0
 30
0.0
  0
VERTEX
  5
8A
330
89
100
AcDbEntity
  8
Make2D$可见线$普通线
100
AcDbVertex
100
AcDb2dVertex
 10
442.0967491203405
 20
670.7737807768992
 30
0.0
  0
VERTEX
  5
8B
330
89
100
AcDbEntity
  8
Make2D$可见线$普通线
100
AcDbVertex
100
AcDb2dVertex
 10
442.2483623582759
 20
670.615733234878
 30
0.0
  0
VERTEX
  5
8C
330
89
100
AcDbEntity
  8
Make2D$可见线$普通线
100
AcDbVertex
100
AcDb2dVertex
 10
442.3949559585481
 20
670.4546857380078
 30
0.0
  0
VERTEX
  5
8D
330
89
100
AcDbEntity
  8
Make2D$可见线$普通线
100
AcDbVertex
100
AcDb2dVertex
 10
442.5370249344074
 20
670.2908175661789
 30
0.0
  0
VERTEX
  5
8E
330
89
100
AcDbEntity
  8
Make2D$可见线$普通线
100
AcDbVertex
100
AcDb2dVertex
 10
442.6750642991038
 20
670.124307999281
 30
0.0
  0
VERTEX
  5
8F
330
89
100
AcDbEntity
  8
Make2D$可见线$普通线
100
AcDbVertex
100
AcDb2dVertex
 10
442.8095690658878
 20
669.9553363172042
 30
0.0
  0
VERTEX
  5
90
330
89
100
AcDbEntity
  8
Make2D$可见线$普通线
100
AcDbVertex
100
AcDb2dVertex
 10
442.9410342480093
 20
669.7840817998382
 30
0.0
  0
VERTEX
  5
91
330
89
100
AcDbEntity
  8
Make2D$可见线$普通线
100
AcDbVertex
100
AcDb2dVertex
 10
443.1968259112662
 20
669.4354413787984
 30
0.0
  0
VERTEX
  5
92
330
89
100
AcDbEntity
  8
Make2D$可见线$普通线
100
AcDbVertex
100
AcDb2dVertex
 10
443.4935856672545
 20
669.0088042068616
 30
0.0
  0
VERTEX
  5
93
330
89
100
AcDbEntity
  8
Make2D$可见线$普通线
100
AcDbVertex
100
AcDb2dVertex
 10
443.7790167911033
 20
668.5725999046272
 30
0.0
  0
VERTEX
  5
94
330
89
100
AcDbEntity
  8
Make2D$可见线$普通线
100
AcDbVertex
100
AcDb2dVertex
 10
444.0506969022015
 20
668.1272587177405
 30
0.0
  0
VERTEX
  5
95
330
89
100
AcDbEntity
  8
Make2D$可见线$普通线
100
AcDbVertex
100
AcDb2dVertex
 10
444.180623334028
 20
667.9012962443167
 30
0.0
  0
VERTEX
  5
96
330
89
100
AcDbEntity
  8
Make2D$可见线$普通线
100
AcDbVertex
100
AcDb2dVertex
 10
444.3062036199376
 20
667.6732108918467
 30
0.0
  0
VERTEX
  5
97
330
89
100
AcDbEntity
  8
Make2D$可见线$普通线
100
AcDbVertex
100
AcDb2dVertex
 10
444.4321790378566
 20
667.4334037823403
 30
0.0
  0
VERTEX
  5
98
330
89
100
AcDbEntity
  8
Make2D$可见线$普通线
100
AcDbVertex
100
AcDb2dVertex
 10
444.5533430405872
 20
667.1914696300867
 30
0.0
  0
VERTEX
  5
99
330
89
100
AcDbEntity
  8
Make2D$可见线$普通线
100
AcDbVertex
100
AcDb2dVertex
 10
444.6699298295698
 20
666.9475270373996
 30
0.0
  0
VERTEX
  5
9A
330
89
100
AcDbEntity
  8
Make2D$可见线$普通线
100
AcDbVertex
100
AcDb2dVertex
 10
444.7821736062452
 20
666.7016946065925
 30
0.0
  0
VERTEX
  5
9B
330
89
100
AcDbEntity
  8
Make2D$可见线$普通线
100
AcDbVertex
100
AcDb2dVertex
 10
444.9945689284365
 20
666.2048346398733
 30
0.0
  0
VERTEX
  5
9C
330
89
100
AcDbEntity
  8
Make2D$可见线$普通线
100
AcDbVertex
100
AcDb2dVertex
 10
445.1924026186861
 20
665.7018385484381
 30
0.0
  0
VERTEX
  5
9D
330
89
100
AcDbEntity
  8
Make2D$可见线$普通线
100
AcDbVertex
100
AcDb2dVertex
 10
445.377548288519
 20
665.1936551507963
 30
0.0
  0
VERTEX
  5
9E
330
89
100
AcDbEntity
  8
Make2D$可见线$普通线
100
AcDbVertex
100
AcDb2dVertex
 10
445.5518795494601
 20
664.6812332654567
 30
0.0
  0
VERTEX
  5
9F
330
89
100
AcDbEntity
  8
Make2D$可见线$普通线
100
AcDbVertex
100
AcDb2dVertex
 10
445.8755932907667
 20
663.6474693057215
 30
0.0
  0
VERTEX
  5
A0
330
89
100
AcDbEntity
  8
Make2D$可见线$普通线
100
AcDbVertex
100
AcDb2dVertex
 10
446.130929960114
 20
662.7684654719937
 30
0.0
  0
VERTEX
  5
A1
330
89
100
AcDbEntity
  8
Make2D$可见线$普通线
100
AcDbVertex
100
AcDb2dVertex
 10
446.3718767811096
 20
661.8857165271845
 30
0.0
  0
VERTEX
  5
A2
330
89
100
AcDbEntity
  8
Make2D$可见线$普通线
100
AcDbVertex
100
AcDb2dVertex
 10
446.5988807236926
 20
660.9994540681801
 30
0.0
  0
VERTEX
  5
A3
330
89
100
AcDbEntity
  8
Make2D$可见线$普通线
100
AcDbVertex
100
AcDb2dVertex
 10
446.8123887578023
 20
660.109909691866
 30
0.0
  0
VERTEX
  5
A4
330
89
100
AcDbEntity
  8
Make2D$可见线$普通线
100
AcDbVertex
100
AcDb2dVertex
 10
447.0128478533779
 20
659.2173149951283
 30
0.0
  0
VERTEX
  5
A5
330
89
100
AcDbEntity
  8
Make2D$可见线$普通线
100
AcDbVertex
100
AcDb2dVertex
 10
447.2007049803586
 20
658.3219015748526
 30
0.0
  0
VERTEX
  5
A6
330
89
100
AcDbEntity
  8
Make2D$可见线$普通线
100
AcDbVertex
100
AcDb2dVertex
 10
447.3764071086836
 20
657.423901027925
 30
0.0
  0
VERTEX
  5
A7
330
89
100
AcDbEntity
  8
Make2D$可见线$普通线
100
AcDbVertex
100
AcDb2dVertex
 10
447.5404012082921
 20
656.5235449512311
 30
0.0
  0
VERTEX
  5
A8
330
89
100
AcDbEntity
  8
Make2D$可见线$普通线
100
AcDbVertex
100
AcDb2dVertex
 10
447.6931342491234
 20
655.6210649416569
 30
0.0
  0
VERTEX
  5
A9
330
89
100
AcDbEntity
  8
Make2D$可见线$普通线
100
AcDbVertex
100
AcDb2dVertex
 10
447.8350532011166
 20
654.7166925960879
 30
0.0
  0
VERTEX
  5
AA
330
89
100
AcDbEntity
  8
Make2D$可见线$普通线
100
AcDbVertex
100
AcDb2dVertex
 10
447.9666050342109
 20
653.8106595114102
 30
0.0
  0
VERTEX
  5
AB
330
89
100
AcDbEntity
  8
Make2D$可见线$普通线
100
AcDbVertex
100
AcDb2dVertex
 10
448.0882367183456
 20
652.9031972845098
 30
0.0
  0
VERTEX
  5
AC
330
89
100
AcDbEntity
  8
Make2D$可见线$普通线
100
AcDbVertex
100
AcDb2dVertex
 10
448.3035275194928
 20
651.0849117915835
 30
0.0
  0
VERTEX
  5
AD
330
89
100
AcDbEntity
  8
Make2D$可见线$普通线
100
AcDbVertex
100
AcDb2dVertex
 10
448.4845013640721
 20
649.2636888923957
 30
0.0
 42
-0.1980058022235851
  0
VERTEX
  5
AE
330
89
100
AcDbEntity
  8
Make2D$可见线$普通线
100
AcDbVertex
100
AcDb2dVertex
 10
447.9355695256416
 20
647.5009002028119
 30
0.0
  0
SEQEND
  5
AF
330
89
100
AcDbEntity
  8
Make2D$可见线$普通线
  0
POLYLINE
  5
B0
330
1F
100
AcDbEntity
  8
Make2D$可见线$普通线
100
AcDb2dPolyline
 66
     1
 10
0.0
 20
0.0
 30
0.0
  0
VERTEX
  5
B1
330
B0
100
AcDbEntity
  8
Make2D$可见线$普通线
100
AcDbVertex
100
AcDb2dVertex
 10
428.7124675318657
 20
673.7268882238992
 30
0.0
 42
-0.0836428191564445
  0
VERTEX
  5
B2
330
B0
100
AcDbEntity
  8
Make2D$可见线$普通线
100
AcDbVertex
100
AcDb2dVertex
 10
433.0454678772271
 20
674.4231323394756
 30
0.0
 42
-0.0838212932788611
  0
VERTEX
  5
B3
330
B0
100
AcDbEntity
  8
Make2D$可见线$普通线
100
AcDbVertex
100
AcDb2dVertex
 10
437.3834810070405
 20
673.7272274153488
 30
0.0
  0
SEQEND
  5
B4
330
B0
100
AcDbEntity
  8
Make2D$可见线$普通线
  0
POLYLINE
  5
B5
330
1F
100
AcDbEntity
  8
Make2D$可见线$普通线
100
AcDb2dPolyline
 66
     1
 10
0.0
 20
0.0
 30
0.0
  0
VERTEX
  5
B6
330
B5
100
AcDbEntity
  8
Make2D$可见线$普通线
100
AcDbVertex
100
AcDb2dVertex
 10
422.2271968647349
 20
645.5319616629807
 30
0.0
 42
-0.028297451911171
  0
VERTEX
  5
B7
330
B5
100
AcDbEntity
  8
Make2D$可见线$普通线
100
AcDbVertex
100
AcDb2dVertex
 10
422.9340985432074
 20
647.457845242718
 30
0.0
 42
-0.6957927791652495
  0
VERTEX
  5
B8
330
B5
100
AcDbEntity
  8
Make2D$可见线$普通线
100
AcDbVertex
100
AcDb2dVertex
 10
443.1625338153813
 20
647.4577487163529
 30
0.0
 42
-0.0283163184227478
  0
VERTEX
  5
B9
330
B5
100
AcDbEntity
  8
Make2D$可见线$普通线
100
AcDbVertex
100
AcDb2dVertex
 10
443.8694968021976
 20
645.5319184762391
 30
0.0
  0
SEQEND
  5
BA
330
B5
100
AcDbEntity
  8
Make2D$可见线$普通线
  0
POLYLINE
  5
BB
330
1F
100
AcDbEntity
  8
Make2D$可见线$普通线
100
AcDb2dPolyline
 66
     1
 10
0.0
 20
0.0
 30
0.0
  0
VERTEX
  5
BC
330
BB
100
AcDbEntity
  8
Make2D$可见线$普通线
100
AcDbVertex
100
AcDb2dVertex
 10
405.7143904434115
 20
631.4534565541117
 30
0.0
 42
0.0106683710097595
  0
VERTEX
  5
BD
330
BB
100
AcDbEntity
  8
Make2D$可见线$普通线
100
AcDbVertex
100
AcDb2dVertex
 10
401.7483956508481
 20
630.1061381688751
 30
0.0
  0
VERTEX
  5
BE
330
BB
100
AcDbEntity
  8
Make2D$可见线$普通线
100
AcDbVertex
100
AcDb2dVertex
 10
400.7716622527068
 20
629.7410482359152
 30
0.0
  0
VERTEX
  5
BF
330
BB
100
AcDbEntity
  8
Make2D$可见线$普通线
100
AcDbVertex
100
AcDb2dVertex
 10
399.8057203757485
 20
629.3642028912627
 30
0.0
  0
SEQEND
  5
C0
330
BB
100
AcDbEntity
  8
Make2D$可见线$普通线
  0
POLYLINE
  5
C1
330
1F
100
AcDbEntity
  8
Make2D$可见线$普通线
100
AcDb2dPolyline
 66
     1
 10
0.0
 20
0.0
 30
0.0
  0
VERTEX
  5
C2
330
C1
100
AcDbEntity
  8
Make2D$可见线$普通线
100
AcDbVertex
100
AcDb2dVertex
 10
445.2623740633535
 20
638.3401613575438
 30
0.0
 42
-0.0337664883243209
  0
VERTEX
  5
C3
330
C1
100
AcDbEntity
  8
Make2D$可见线$普通线
100
AcDbVertex
100
AcDb2dVertex
 10
444.2319354044693
 20
639.354864268133
 30
0.0
 42
-0.0367873346017082
  0
VERTEX
  5
C4
330
C1
100
AcDbEntity
  8
Make2D$可见线$普通线
100
AcDbVertex
100
AcDb2dVertex
 10
443.4188588022989
 20
640.4234230396886
 30
0.0
 42
-0.0352427455250041
  0
VERTEX
  5
C5
330
C1
100
AcDbEntity
  8
Make2D$可见线$普通线
100
AcDbVertex
100
AcDb2dVertex
 10
442.8281613472575
 20
641.4928269442164
 30
0.0
  0
SEQEND
  5
C6
330
C1
100
AcDbEntity
  8
Make2D$可见线$普通线
  0
POLYLINE
  5
C7
330
1F
100
AcDbEntity
  8
Make2D$可见线$普通线
100
AcDb2dPolyline
 66
     1
 10
0.0
 20
0.0
 30
0.0
  0
VERTEX
  5
C8
330
C7
100
AcDbEntity
  8
Make2D$可见线$普通线
100
AcDbVertex
100
AcDb2dVertex
 10
423.2684423648561
 20
641.4929337178687
 30
0.0
 42
-0.035812475188412
  0
VERTEX
  5
C9
330
C7
100
AcDbEntity
  8
Make2D$可见线$普通线
100
AcDbVertex
100
AcDb2dVertex
 10
422.6696170262564
 20
640.4109758981641
 30
0.0
 42
-0.0364661078678138
  0
VERTEX
  5
CA
330
C7
100
AcDbEntity
  8
Make2D$可见线$普通线
100
AcDbVertex
100
AcDb2dVertex
 10
421.8648284518119
 20
639.354983610686
 30
0.0
 42
-0.0336726648965658
  0
VERTEX
  5
CB
330
C7
100
AcDbEntity
  8
Make2D$可见线$普通线
100
AcDbVertex
100
AcDb2dVertex
 10
420.838741420544
 20
638.3438457303539
 30
0.0
  0
SEQEND
  5
CC
330
C7
100
AcDbEntity
  8
Make2D$可见线$普通线
  0
POLYLINE
  5
CD
330
1F
100
AcDbEntity
  8
Make2D$可见线$普通线
100
AcDb2dPolyline
 66
     1
 10
0.0
 20
0.0
 30
0.0
  0
VERTEX
  5
CE
330
CD
100
AcDbEntity
  8
Make2D$可见线$普通线
100
AcDbVertex
100
AcDb2dVertex
 10
363.7107799024571
 20
591.4506994618297
 30
0.0
 42
-0.0135045982398811
  0
VERTEX
  5
CF
330
CD
100
AcDbEntity
  8
Make2D$可见线$普通线
100
AcDbVertex
100
AcDb2dVertex
 10
363.7706956580574
 20
592.9356792309658
 30
0.0
  0
VERTEX
  5
D0
330
CD
100
AcDbEntity
  8
Make2D$可见线$普通线
100
AcDbVertex
100
AcDb2dVertex
 10
363.8254995228651
 20
593.6284312219813
 30
0.0
  0
VERTEX
  5
D1
330
CD
100
AcDbEntity
  8
Make2D$可见线$普通线
100
AcDbVertex
100
AcDb2dVertex
 10
363.8975040108457
 20
594.3202403722674
 30
0.0
  0
VERTEX
  5
D2
330
CD
100
AcDbEntity
  8
Make2D$可见线$普通线
100
AcDbVertex
100
AcDb2dVertex
 10
363.9866717707753
 20
595.0104728619154
 30
0.0
  0
VERTEX
  5
D3
330
CD
100
AcDbEntity
  8
Make2D$可见线$普通线
100
AcDbVertex
100
AcDb2dVertex
 10
364.092933976613
 20
595.6984962087179
 30
0.0
  0
VERTEX
  5
D4
330
CD
100
AcDbEntity
  8
Make2D$可见线$普通线
100
AcDbVertex
100
AcDb2dVertex
 10
364.2161904652916
 20
596.3836811984668
 30
0.0
  0
VERTEX
  5
D5
330
CD
100
AcDbEntity
  8
Make2D$可见线$普通线
100
AcDbVertex
100
AcDb2dVertex
 10
364.356310017924
 20
597.0654038038463
 30
0.0
  0
VERTEX
  5
D6
330
CD
100
AcDbEntity
  8
Make2D$可见线$普通线
100
AcDbVertex
100
AcDb2dVertex
 10
364.513130782783
 20
597.7430470796482
 30
0.0
  0
VERTEX
  5
D7
330
CD
100
AcDbEntity
  8
Make2D$可见线$普通线
100
AcDbVertex
100
AcDb2dVertex
 10
364.686460837203
 20
598.4160030222342
 30
0.0
  0
VERTEX
  5
D8
330
CD
100
AcDbEntity
  8
Make2D$可见线$普通线
100
AcDbVertex
100
AcDb2dVertex
 10
364.9486253010828
 20
599.3271930329159
 30
0.0
  0
VERTEX
  5
D9
330
CD
100
AcDbEntity
  8
Make2D$可见线$普通线
100
AcDbVertex
100
AcDb2dVertex
 10
365.2394877279106
 20
600.2301261641516
 30
0.0
  0
VERTEX
  5
DA
330
CD
100
AcDbEntity
  8
Make2D$可见线$普通线
100
AcDbVertex
100
AcDb2dVertex
 10
365.5586367936687
 20
601.1234531281738
 30
0.0
  0
VERTEX
  5
DB
330
CD
100
AcDbEntity
  8
Make2D$可见线$普通线
100
AcDbVertex
100
AcDb2dVertex
 10
365.9055770820337
 20
602.005853195035
 30
0.0
  0
VERTEX
  5
DC
330
CD
100
AcDbEntity
  8
Make2D$可见线$普通线
100
AcDbVertex
100
AcDb2dVertex
 10
366.3082540475705
 20
602.9442227272668
 30
0.0
  0
VERTEX
  5
DD
330
CD
100
AcDbEntity
  8
Make2D$可见线$普通线
100
AcDbVertex
100
AcDb2dVertex
 10
366.6082720611105
 20
603.594844777049
 30
0.0
  0
VERTEX
  5
DE
330
CD
100
AcDbEntity
  8
Make2D$可见线$普通线
100
AcDbVertex
100
AcDb2dVertex
 10
366.924028347433
 20
604.2425031698264
 30
0.0
  0
VERTEX
  5
DF
330
CD
100
AcDbEntity
  8
Make2D$可见线$普通线
100
AcDbVertex
100
AcDb2dVertex
 10
367.2552837113222
 20
604.8868305259315
 30
0.0
  0
VERTEX
  5
E0
330
CD
100
AcDbEntity
  8
Make2D$可见线$普通线
100
AcDbVertex
100
AcDb2dVertex
 10
367.6017989575629
 20
605.5274594656971
 30
0.0
  0
VERTEX
  5
E1
330
CD
100
AcDbEntity
  8
Make2D$可见线$普通线
100
AcDbVertex
100
AcDb2dVertex
 10
367.7463906748832
 20
605.7425235881599
 30
0.0
 42
-0.0273377714853383
  0
VERTEX
  5
E2
330
CD
100
AcDbEntity
  8
Make2D$可见线$普通线
100
AcDbVertex
100
AcDb2dVertex
 10
369.6704327662942
 20
608.7995862671495
 30
0.0
  0
SEQEND
  5
E3
330
CD
100
AcDbEntity
  8
Make2D$可见线$普通线
  0
POLYLINE
  5
E4
330
1F
100
AcDbEntity
  8
Make2D$可见线$普通线
100
AcDb2dPolyline
 66
     1
 10
0.0
 20
0.0
 30
0.0
  0
VERTEX
  5
E5
330
E4
100
AcDbEntity
  8
Make2D$可见线$普通线
100
AcDbVertex
100
AcDb2dVertex
 10
410.8939880548951
 20
633.2026920158007
 30
0.0
  0
VERTEX
  5
E6
330
E4
100
AcDbEntity
  8
Make2D$可见线$普通线
100
AcDbVertex
100
AcDb2dVertex
 10
409.0102681806376
 20
632.5482491873296
 30
0.0
  0
VERTEX
  5
E7
330
E4
100
AcDbEntity
  8
Make2D$可见线$普通线
100
AcDbVertex
100
AcDb2dVertex
 10
407.1300333872296
 20
631.8755995649096
 30
0.0
  0
SEQEND
  5
E8
330
E4
100
AcDbEntity
  8
Make2D$可见线$普通线
  0
POLYLINE
  5
E9
330
1F
100
AcDbEntity
  8
Make2D$可见线$普通线
100
AcDb2dPolyline
 66
     1
 10
0.0
 20
0.0
 30
0.0
  0
VERTEX
  5
EA
330
E9
100
AcDbEntity
  8
Make2D$可见线$普通线
100
AcDbVertex
100
AcDb2dVertex
 10
456.0483376036821
 20
473.7916678891821
 30
0.0
  0
VERTEX
  5
EB
330
E9
100
AcDbEntity
  8
Make2D$可见线$普通线
100
AcDbVertex
100
AcDb2dVertex
 10
456.2994704086458
 20
473.7925475348819
 30
0.0
  0
VERTEX
  5
EC
330
E9
100
AcDbEntity
  8
Make2D$可见线$普通线
100
AcDbVertex
100
AcDb2dVertex
 10
456.5527769498747
 20
473.7990840086072
 30
0.0
  0
VERTEX
  5
ED
330
E9
100
AcDbEntity
  8
Make2D$可见线$普通线
100
AcDbVertex
100
AcDb2dVertex
 10
456.8080924701981
 20
473.8114235566183
 30
0.0
  0
VERTEX
  5
EE
330
E9
100
AcDbEntity
  8
Make2D$可见线$普通线
100
AcDbVertex
100
AcDb2dVertex
 10
457.0652427875001
 20
473.8297073109649
 30
0.0
  0
VERTEX
  5
EF
330
E9
100
AcDbEntity
  8
Make2D$可见线$普通线
100
AcDbVertex
100
AcDb2dVertex
 10
457.324044399714
 20
473.8540706428547
 30
0.0
  0
VERTEX
  5
F0
330
E9
100
AcDbEntity
  8
Make2D$可见线$普通线
100
AcDbVertex
100
AcDb2dVertex
 10
457.5843046373888
 20
473.8846425081658
 30
0.0
  0
VERTEX
  5
F1
330
E9
100
AcDbEntity
  8
Make2D$可见线$普通线
100
AcDbVertex
100
AcDb2dVertex
 10
457.845821865737
 20
473.9215447887966
 30
0.0
  0
VERTEX
  5
F2
330
E9
100
AcDbEntity
  8
Make2D$可见线$普通线
100
AcDbVertex
100
AcDb2dVertex
 10
458.1083857377751
 20
473.9648916338363
 30
0.0
  0
VERTEX
  5
F3
330
E9
100
AcDbEntity
  8
Make2D$可见线$普通线
100
AcDbVertex
100
AcDb2dVertex
 10
458.3717774998385
 20
474.0147888048
 30
0.0
  0
VERTEX
  5
F4
330
E9
100
AcDbEntity
  8
Make2D$可见线$普通线
100
AcDbVertex
100
AcDb2dVertex
 10
458.6357703503811
 20
474.0713330294203
 30
0.0
  0
VERTEX
  5
F5
330
E9
100
AcDbEntity
  8
Make2D$可见线$普通线
100
AcDbVertex
100
AcDb2dVertex
 10
458.9001298525575
 20
474.134611368681
 30
0.0
  0
VERTEX
  5
F6
330
E9
100
AcDbEntity
  8
Make2D$可见线$普通线
100
AcDbVertex
100
AcDb2dVertex
 10
459.1646144006477
 20
474.2047006019565
 30
0.0
  0
VERTEX
  5
F7
330
E9
100
AcDbEntity
  8
Make2D$可见线$普通线
100
AcDbVertex
100
AcDb2dVertex
 10
459.4289757399062
 20
474.2816666352324
 30
0.0
  0
VERTEX
  5
F8
330
E9
100
AcDbEntity
  8
Make2D$可见线$普通线
100
AcDbVertex
100
AcDb2dVertex
 10
459.6929595389253
 20
474.3655639374654
 30
0.0
  0
VERTEX
  5
F9
330
E9
100
AcDbEntity
  8
Make2D$可见线$普通线
100
AcDbVertex
100
AcDb2dVertex
 10
459.9563060130751
 20
474.4564350101496
 30
0.0
  0
VERTEX
  5
FA
330
E9
100
AcDbEntity
  8
Make2D$可见线$普通线
100
AcDbVertex
100
AcDb2dVertex
 10
460.2187505970571
 20
474.5543098951321
 30
0.0
  0
VERTEX
  5
FB
330
E9
100
AcDbEntity
  8
Make2D$可见线$普通线
100
AcDbVertex
100
AcDb2dVertex
 10
460.4800246640639
 20
474.6592057256046
 30
0.0
  0
VERTEX
  5
FC
330
E9
100
AcDbEntity
  8
Make2D$可见线$普通线
100
AcDbVertex
100
AcDb2dVertex
 10
460.7398562884979
 20
474.7711263250559
 30
0.0
  0
VERTEX
  5
FD
330
E9
100
AcDbEntity
  8
Make2D$可见线$普通线
100
AcDbVertex
100
AcDb2dVertex
 10
460.9979710486687
 20
474.8900618587255
 30
0.0
  0
VERTEX
  5
FE
330
E9
100
AcDbEntity
  8
Make2D$可见线$普通线
100
AcDbVertex
100
AcDb2dVertex
 10
461.2540928653755
 20
475.0159885418218
 30
0.0
  0
VERTEX
  5
FF
330
E9
100
AcDbEntity
  8
Make2D$可见线$普通线
100
AcDbVertex
100
AcDb2dVertex
 10
461.5079448717848
 20
475.1488684084075
 30
0.0
  0
VERTEX
  5
100
330
E9
100
AcDbEntity
  8
Make2D$可见线$普通线
100
AcDbVertex
100
AcDb2dVertex
 10
461.7592503095616
 20
475.2886491444401
 30
0.0
  0
VERTEX
  5
101
330
E9
100
AcDbEntity
  8
Make2D$可见线$普通线
100
AcDbVertex
100
AcDb2dVertex
 10
462.0077334457896
 20
475.4352639879838
 30
0.0
  0
VERTEX
  5
102
330
E9
100
AcDbEntity
  8
Make2D$可见线$普通线
100
AcDbVertex
100
AcDb2dVertex
 10
462.2531205048542
 20
475.588631699078
 30
0.0
  0
VERTEX
  5
103
330
E9
100
AcDbEntity
  8
Make2D$可见线$普通线
100
AcDbVertex
100
AcDb2dVertex
 10
462.4951406091498
 20
475.7486566011752
 30
0.0
  0
VERTEX
  5
104
330
E9
100
AcDbEntity
  8
Make2D$可见线$普通线
100
AcDbVertex
100
AcDb2dVertex
 10
462.7335267222265
 20
475.9152286954443
 30
0.0
  0
VERTEX
  5
105
330
E9
100
AcDbEntity
  8
Make2D$可见线$普通线
100
AcDbVertex
100
AcDb2dVertex
 10
462.9680165878196
 20
476.0882238485822
 30
0.0
  0
VERTEX
  5
106
330
E9
100
AcDbEntity
  8
Make2D$可见线$普通线
100
AcDbVertex
100
AcDb2dVertex
 10
463.1983536580963
 20
476.2675040541094
 30
0.0
  0
VERTEX
  5
107
330
E9
100
AcDbEntity
  8
Make2D$可见线$普通线
100
AcDbVertex
100
AcDb2dVertex
 10
463.4242880044364
 20
476.4529177664285
 30
0.0
  0
VERTEX
  5
108
330
E9
100
AcDbEntity
  8
Make2D$可见线$普通线
100
AcDbVertex
100
AcDb2dVertex
 10
463.6455772041181
 20
476.6443003062367
 30
0.0
  0
VERTEX
  5
109
330
E9
100
AcDbEntity
  8
Make2D$可见线$普通线
100
AcDbVertex
100
AcDb2dVertex
 10
463.8619871964162
 20
476.8414743351942
 30
0.0
  0
VERTEX
  5
10A
330
E9
100
AcDbEntity
  8
Make2D$可见线$普通线
100
AcDbVertex
100
AcDb2dVertex
 10
464.0732931018376
 20
477.0442503970738
 30
0.0
  0
VERTEX
  5
10B
330
E9
100
AcDbEntity
  8
Make2D$可见线$普通线
100
AcDbVertex
100
AcDb2dVertex
 10
464.279279998517
 20
477.2524275219793
 30
0.0
  0
VERTEX
  5
10C
330
E9
100
AcDbEntity
  8
Make2D$可见线$普通线
100
AcDbVertex
100
AcDb2dVertex
 10
464.4797436501592
 20
477.4657938896007
 30
0.0
  0
VERTEX
  5
10D
330
E9
100
AcDbEntity
  8
Make2D$可见线$普通线
100
AcDbVertex
100
AcDb2dVertex
 10
464.6744911803627
 20
477.6841275469212
 30
0.0
  0
VERTEX
  5
10E
330
E9
100
AcDbEntity
  8
Make2D$可见线$普通线
100
AcDbVertex
100
AcDb2dVertex
 10
464.8633416886493
 20
477.9071971752706
 30
0.0
  0
VERTEX
  5
10F
330
E9
100
AcDbEntity
  8
Make2D$可见线$普通线
100
AcDbVertex
100
AcDb2dVertex
 10
465.0461268040931
 20
478.1347629011823
 30
0.0
  0
VERTEX
  5
110
330
E9
100
AcDbEntity
  8
Make2D$可见线$普通线
100
AcDbVertex
100
AcDb2dVertex
 10
465.2226911730369
 20
478.3665771451248
 30
0.0
  0
VERTEX
  5
111
330
E9
100
AcDbEntity
  8
Make2D$可见线$普通线
100
AcDbVertex
100
AcDb2dVertex
 10
465.39289287803
 20
478.6023855018775
 30
0.0
  0
VERTEX
  5
112
330
E9
100
AcDbEntity
  8
Make2D$可见线$普通线
100
AcDbVertex
100
AcDb2dVertex
 10
465.5566037857912
 20
478.8419276460911
 30
0.0
  0
VERTEX
  5
113
330
E9
100
AcDbEntity
  8
Make2D$可见线$普通线
100
AcDbVertex
100
AcDb2dVertex
 10
465.7137098226807
 20
479.0849382564264
 30
0.0
  0
VERTEX
  5
114
330
E9
100
AcDbEntity
  8
Make2D$可见线$普通线
100
AcDbVertex
100
AcDb2dVertex
 10
465.8641111768658
 20
479.3311479515978
 30
0.0
  0
VERTEX
  5
115
330
E9
100
AcDbEntity
  8
Make2D$可见线$普通线
100
AcDbVertex
100
AcDb2dVertex
 10
466.0077224270472
 20
479.5802842316602
 30
0.0
  0
VERTEX
  5
116
330
E9
100
AcDbEntity
  8
Make2D$可见线$普通线
100
AcDbVertex
100
AcDb2dVertex
 10
466.1444725982923
 20
479.8320724179722
 30
0.0
  0
VERTEX
  5
117
330
E9
100
AcDbEntity
  8
Make2D$可见线$普通线
100
AcDbVertex
100
AcDb2dVertex
 10
466.2743051461727
 20
480.0862365854302
 30
0.0
  0
VERTEX
  5
118
330
E9
100
AcDbEntity
  8
Make2D$可见线$普通线
100
AcDbVertex
100
AcDb2dVertex
 10
466.3971778710228
 20
480.34250048081
 30
0.0
  0
VERTEX
  5
119
330
E9
100
AcDbEntity
  8
Make2D$可见线$普通线
100
AcDbVertex
100
AcDb2dVertex
 10
466.5130627647183
 20
480.6005884213473
 30
0.0
  0
VERTEX
  5
11A
330
E9
100
AcDbEntity
  8
Make2D$可见线$普通线
100
AcDbVertex
100
AcDb2dVertex
 10
466.6219457929035
 20
480.8602261680522
 30
0.0
  0
VERTEX
  5
11B
330
E9
100
AcDbEntity
  8
Make2D$可见线$普通线
100
AcDbVertex
100
AcDb2dVertex
 10
466.7238266160809
 20
481.1211417686598
 30
0.0
  0
VERTEX
  5
11C
330
E9
100
AcDbEntity
  8
Make2D$可见线$普通线
100
AcDbVertex
100
AcDb2dVertex
 10
466.8187182533944
 20
481.3830663655689
 30
0.0
  0
VERTEX
  5
11D
330
E9
100
AcDbEntity
  8
Make2D$可见线$普通线
100
AcDbVertex
100
AcDb2dVertex
 10
466.9066466933008
 20
481.6457349646097
 30
0.0
  0
VERTEX
  5
11E
330
E9
100
AcDbEntity
  8
Make2D$可见线$普通线
100
AcDbVertex
100
AcDb2dVertex
 10
466.9876504556268
 20
481.908887160994
 30
0.0
  0
VERTEX
  5
11F
330
E9
100
AcDbEntity
  8
Make2D$可见线$普通线
100
AcDbVertex
100
AcDb2dVertex
 10
467.0617801097338
 20
482.1722678193223
 30
0.0
  0
VERTEX
  5
120
330
E9
100
AcDbEntity
  8
Make2D$可见线$普通线
100
AcDbVertex
100
AcDb2dVertex
 10
467.1290977536926
 20
482.4356277050726
 30
0.0
  0
VERTEX
  5
121
330
E9
100
AcDbEntity
  8
Make2D$可见线$普通线
100
AcDbVertex
100
AcDb2dVertex
 10
467.189676459469
 20
482.6987240655225
 30
0.0
  0
VERTEX
  5
122
330
E9
100
AcDbEntity
  8
Make2D$可见线$普通线
100
AcDbVertex
100
AcDb2dVertex
 10
467.2435996891722
 20
482.9613211585975
 30
0.0
  0
VERTEX
  5
123
330
E9
100
AcDbEntity
  8
Make2D$可见线$普通线
100
AcDbVertex
100
AcDb2dVertex
 10
467.2909606874056
 20
483.2231907286526
 30
0.0
  0
VERTEX
  5
124
330
E9
100
AcDbEntity
  8
Make2D$可见线$普通线
100
AcDbVertex
100
AcDb2dVertex
 10
467.3318618546915
 20
483.4841124286957
 30
0.0
  0
VERTEX
  5
125
330
E9
100
AcDbEntity
  8
Make2D$可见线$普通线
100
AcDbVertex
100
AcDb2dVertex
 10
467.3664141068289
 20
483.7438741890365
 30
0.0
  0
VERTEX
  5
126
330
E9
100
AcDbEntity
  8
Make2D$可见线$普通线
100
AcDbVertex
100
AcDb2dVertex
 10
467.3947362248838
 20
484.0022725327893
 30
0.0
  0
VERTEX
  5
127
330
E9
100
AcDbEntity
  8
Make2D$可见线$普通线
100
AcDbVertex
100
AcDb2dVertex
 10
467.4169542003112
 20
484.2591128390684
 30
0.0
  0
VERTEX
  5
128
330
E9
100
AcDbEntity
  8
Make2D$可见线$普通线
100
AcDbVertex
100
AcDb2dVertex
 10
467.4332005794743
 20
484.5142095550942
 30
0.0
  0
VERTEX
  5
129
330
E9
100
AcDbEntity
  8
Make2D$可见线$普通线
100
AcDbVertex
100
AcDb2dVertex
 10
467.4436138115704
 20
484.7673863587619
 30
0.0
  0
VERTEX
  5
12A
330
E9
100
AcDbEntity
  8
Make2D$可见线$普通线
100
AcDbVertex
100
AcDb2dVertex
 10
467.4483376036815
 20
485.0184762735208
 30
0.0
  0
VERTEX
  5
12B
330
E9
100
AcDbEntity
  8
Make2D$可见线$普通线
100
AcDbVertex
100
AcDb2dVertex
 10
467.4436138115704
 20
485.2695661882798
 30
0.0
  0
VERTEX
  5
12C
330
E9
100
AcDbEntity
  8
Make2D$可见线$普通线
100
AcDbVertex
100
AcDb2dVertex
 10
467.4332005794743
 20
485.5227429919475
 30
0.0
  0
VERTEX
  5
12D
330
E9
100
AcDbEntity
  8
Make2D$可见线$普通线
100
AcDbVertex
100
AcDb2dVertex
 10
467.4169542003112
 20
485.7778397079733
 30
0.0
  0
VERTEX
  5
12E
330
E9
100
AcDbEntity
  8
Make2D$可见线$普通线
100
AcDbVertex
100
AcDb2dVertex
 10
467.394736224884
 20
486.0346800142524
 30
0.0
  0
VERTEX
  5
12F
330
E9
100
AcDbEntity
  8
Make2D$可见线$普通线
100
AcDbVertex
100
AcDb2dVertex
 10
467.366414106829
 20
486.2930783580051
 30
0.0
  0
VERTEX
  5
130
330
E9
100
AcDbEntity
  8
Make2D$可见线$普通线
100
AcDbVertex
100
AcDb2dVertex
 10
467.3318618546916
 20
486.5528401183459
 30
0.0
  0
VERTEX
  5
131
330
E9
100
AcDbEntity
  8
Make2D$可见线$普通线
100
AcDbVertex
100
AcDb2dVertex
 10
467.2909606874057
 20
486.8137618183889
 30
0.0
  0
VERTEX
  5
132
330
E9
100
AcDbEntity
  8
Make2D$可见线$普通线
100
AcDbVertex
100
AcDb2dVertex
 10
467.2435996891724
 20
487.075631388444
 30
0.0
  0
VERTEX
  5
133
330
E9
100
AcDbEntity
  8
Make2D$可见线$普通线
100
AcDbVertex
100
AcDb2dVertex
 10
467.1896764594691
 20
487.3382284815191
 30
0.0
  0
VERTEX
  5
134
330
E9
100
AcDbEntity
  8
Make2D$可见线$普通线
100
AcDbVertex
100
AcDb2dVertex
 10
467.1290977536929
 20
487.601324841969
 30
0.0
  0
VERTEX
  5
135
330
E9
100
AcDbEntity
  8
Make2D$可见线$普通线
100
AcDbVertex
100
AcDb2dVertex
 10
467.0617801097339
 20
487.8646847277193
 30
0.0
  0
VERTEX
  5
136
330
E9
100
AcDbEntity
  8
Make2D$可见线$普通线
100
AcDbVertex
100
AcDb2dVertex
 10
466.9876504556268
 20
488.1280653860476
 30
0.0
  0
VERTEX
  5
137
330
E9
100
AcDbEntity
  8
Make2D$可见线$普通线
100
AcDbVertex
100
AcDb2dVertex
 10
466.9066466933008
 20
488.3912175824319
 30
0.0
  0
VERTEX
  5
138
330
E9
100
AcDbEntity
  8
Make2D$可见线$普通线
100
AcDbVertex
100
AcDb2dVertex
 10
466.8187182533944
 20
488.6538861814729
 30
0.0
  0
VERTEX
  5
139
330
E9
100
AcDbEntity
  8
Make2D$可见线$普通线
100
AcDbVertex
100
AcDb2dVertex
 10
466.723826616081
 20
488.9158107783817
 30
0.0
  0
VERTEX
  5
13A
330
E9
100
AcDbEntity
  8
Make2D$可见线$普通线
100
AcDbVertex
100
AcDb2dVertex
 10
466.6219457929035
 20
489.1767263789894
 30
0.0
  0
VERTEX
  5
13B
330
E9
100
AcDbEntity
  8
Make2D$可见线$普通线
100
AcDbVertex
100
AcDb2dVertex
 10
466.5130627647183
 20
489.4363641256944
 30
0.0
  0
VERTEX
  5
13C
330
E9
100
AcDbEntity
  8
Make2D$可见线$普通线
100
AcDbVertex
100
AcDb2dVertex
 10
466.3971778710229
 20
489.6944520662317
 30
0.0
  0
VERTEX
  5
13D
330
E9
100
AcDbEntity
  8
Make2D$可见线$普通线
100
AcDbVertex
100
AcDb2dVertex
 10
466.2743051461728
 20
489.9507159616114
 30
0.0
  0
VERTEX
  5
13E
330
E9
100
AcDbEntity
  8
Make2D$可见线$普通线
100
AcDbVertex
100
AcDb2dVertex
 10
466.1444725982923
 20
490.2048801290695
 30
0.0
  0
VERTEX
  5
13F
330
E9
100
AcDbEntity
  8
Make2D$可见线$普通线
100
AcDbVertex
100
AcDb2dVertex
 10
466.0077224270472
 20
490.4566683153815
 30
0.0
  0
VERTEX
  5
140
330
E9
100
AcDbEntity
  8
Make2D$可见线$普通线
100
AcDbVertex
100
AcDb2dVertex
 10
465.8641111768657
 20
490.7058045954439
 30
0.0
  0
VERTEX
  5
141
330
E9
100
AcDbEntity
  8
Make2D$可见线$普通线
100
AcDbVertex
100
AcDb2dVertex
 10
465.7137098226808
 20
490.9520142906153
 30
0.0
  0
VERTEX
  5
142
330
E9
100
AcDbEntity
  8
Make2D$可见线$普通线
100
AcDbVertex
100
AcDb2dVertex
 10
465.5566037857913
 20
491.1950249009507
 30
0.0
  0
VERTEX
  5
143
330
E9
100
AcDbEntity
  8
Make2D$可见线$普通线
100
AcDbVertex
100
AcDb2dVertex
 10
465.3928928780301
 20
491.4345670451643
 30
0.0
  0
VERTEX
  5
144
330
E9
100
AcDbEntity
  8
Make2D$可见线$普通线
100
AcDbVertex
100
AcDb2dVertex
 10
465.2226911730369
 20
491.6703754019169
 30
0.0
  0
VERTEX
  5
145
330
E9
100
AcDbEntity
  8
Make2D$可见线$普通线
100
AcDbVertex
100
AcDb2dVertex
 10
465.0461268040932
 20
491.9021896458595
 30
0.0
  0
VERTEX
  5
146
330
E9
100
AcDbEntity
  8
Make2D$可见线$普通线
100
AcDbVertex
100
AcDb2dVertex
 10
464.8633416886494
 20
492.1297553717711
 30
0.0
  0
VERTEX
  5
147
330
E9
100
AcDbEntity
  8
Make2D$可见线$普通线
100
AcDbVertex
100
AcDb2dVertex
 10
464.6744911803626
 20
492.3528250001204
 30
0.0
  0
VERTEX
  5
148
330
E9
100
AcDbEntity
  8
Make2D$可见线$普通线
100
AcDbVertex
100
AcDb2dVertex
 10
464.4797436501594
 20
492.5711586574409
 30
0.0
  0
VERTEX
  5
149
330
E9
100
AcDbEntity
  8
Make2D$可见线$普通线
100
AcDbVertex
100
AcDb2dVertex
 10
464.279279998517
 20
492.7845250250624
 30
0.0
  0
VERTEX
  5
14A
330
E9
100
AcDbEntity
  8
Make2D$可见线$普通线
100
AcDbVertex
100
AcDb2dVertex
 10
464.0732931018377
 20
492.9927021499678
 30
0.0
  0
VERTEX
  5
14B
330
E9
100
AcDbEntity
  8
Make2D$可见线$普通线
100
AcDbVertex
100
AcDb2dVertex
 10
463.8619871964161
 20
493.1954782118475
 30
0.0
  0
VERTEX
  5
14C
330
E9
100
AcDbEntity
  8
Make2D$可见线$普通线
100
AcDbVertex
100
AcDb2dVertex
 10
463.6455772041181
 20
493.392652240805
 30
0.0
  0
VERTEX
  5
14D
330
E9
100
AcDbEntity
  8
Make2D$可见线$普通线
100
AcDbVertex
100
AcDb2dVertex
 10
463.4242880044363
 20
493.5840347806132
 30
0.0
  0
VERTEX
  5
14E
330
E9
100
AcDbEntity
  8
Make2D$可见线$普通线
100
AcDbVertex
100
AcDb2dVertex
 10
463.1983536580963
 20
493.7694484929323
 30
0.0
  0
VERTEX
  5
14F
330
E9
100
AcDbEntity
  8
Make2D$可见线$普通线
100
AcDbVertex
100
AcDb2dVertex
 10
462.9680165878196
 20
493.9487286984594
 30
0.0
  0
VERTEX
  5
150
330
E9
100
AcDbEntity
  8
Make2D$可见线$普通线
100
AcDbVertex
100
AcDb2dVertex
 10
462.7335267222264
 20
494.1217238515974
 30
0.0
  0
VERTEX
  5
151
330
E9
100
AcDbEntity
  8
Make2D$可见线$普通线
100
AcDbVertex
100
AcDb2dVertex
 10
462.4951406091497
 20
494.2882959458664
 30
0.0
  0
VERTEX
  5
152
330
E9
100
AcDbEntity
  8
Make2D$可见线$普通线
100
AcDbVertex
100
AcDb2dVertex
 10
462.2531205048542
 20
494.4483208479637
 30
0.0
  0
VERTEX
  5
153
330
E9
100
AcDbEntity
  8
Make2D$可见线$普通线
100
AcDbVertex
100
AcDb2dVertex
 10
462.0077334457895
 20
494.6016885590578
 30
0.0
  0
VERTEX
  5
154
330
E9
100
AcDbEntity
  8
Make2D$可见线$普通线
100
AcDbVertex
100
AcDb2dVertex
 10
461.7592503095614
 20
494.7483034026016
 30
0.0
  0
VERTEX
  5
155
330
E9
100
AcDbEntity
  8
Make2D$可见线$普通线
100
AcDbVertex
100
AcDb2dVertex
 10
461.5079448717847
 20
494.8880841386343
 30
0.0
  0
VERTEX
  5
156
330
E9
100
AcDbEntity
  8
Make2D$可见线$普通线
100
AcDbVertex
100
AcDb2dVertex
 10
461.2540928653754
 20
495.0209640052199
 30
0.0
  0
VERTEX
  5
157
330
E9
100
AcDbEntity
  8
Make2D$可见线$普通线
100
AcDbVertex
100
AcDb2dVertex
 10
460.9979710486687
 20
495.1468906883161
 30
0.0
  0
VERTEX
  5
158
330
E9
100
AcDbEntity
  8
Make2D$可见线$普通线
100
AcDbVertex
100
AcDb2dVertex
 10
460.7398562884978
 20
495.2658262219857
 30
0.0
  0
VERTEX
  5
159
330
E9
100
AcDbEntity
  8
Make2D$可见线$普通线
100
AcDbVertex
100
AcDb2dVertex
 10
460.4800246640638
 20
495.377746821437
 30
0.0
  0
VERTEX
  5
15A
330
E9
100
AcDbEntity
  8
Make2D$可见线$普通线
100
AcDbVertex
100
AcDb2dVertex
 10
460.218750597057
 20
495.4826426519096
 30
0.0
  0
VERTEX
  5
15B
330
E9
100
AcDbEntity
  8
Make2D$可见线$普通线
100
AcDbVertex
100
AcDb2dVertex
 10
459.9563060130751
 20
495.5805175368919
 30
0.0
  0
VERTEX
  5
15C
330
E9
100
AcDbEntity
  8
Make2D$可见线$普通线
100
AcDbVertex
100
AcDb2dVertex
 10
459.6929595389254
 20
495.6713886095765
 30
0.0
  0
VERTEX
  5
15D
330
E9
100
AcDbEntity
  8
Make2D$可见线$普通线
100
AcDbVertex
100
AcDb2dVertex
 10
459.4289757399063
 20
495.7552859118093
 30
0.0
  0
VERTEX
  5
15E
330
E9
100
AcDbEntity
  8
Make2D$可见线$普通线
100
AcDbVertex
100
AcDb2dVertex
 10
459.1646144006476
 20
495.8322519450853
 30
0.0
  0
VERTEX
  5
15F
330
E9
100
AcDbEntity
  8
Make2D$可见线$普通线
100
AcDbVertex
100
AcDb2dVertex
 10
458.9001298525575
 20
495.9023411783607
 30
0.0
  0
VERTEX
  5
160
330
E9
100
AcDbEntity
  8
Make2D$可见线$普通线
100
AcDbVertex
100
AcDb2dVertex
 10
458.6357703503812
 20
495.9656195176215
 30
0.0
  0
VERTEX
  5
161
330
E9
100
AcDbEntity
  8
Make2D$可见线$普通线
100
AcDbVertex
100
AcDb2dVertex
 10
458.3717774998386
 20
496.0221637422417
 30
0.0
  0
VERTEX
  5
162
330
E9
100
AcDbEntity
  8
Make2D$可见线$普通线
100
AcDbVertex
100
AcDb2dVertex
 10
458.1083857377751
 20
496.0720609132055
 30
0.0
  0
VERTEX
  5
163
330
E9
100
AcDbEntity
  8
Make2D$可见线$普通线
100
AcDbVertex
100
AcDb2dVertex
 10
457.845821865737
 20
496.115407758245
 30
0.0
  0
VERTEX
  5
164
330
E9
100
AcDbEntity
  8
Make2D$可见线$普通线
100
AcDbVertex
100
AcDb2dVertex
 10
457.5843046373888
 20
496.1523100388759
 30
0.0
  0
VERTEX
  5
165
330
E9
100
AcDbEntity
  8
Make2D$可见线$普通线
100
AcDbVertex
100
AcDb2dVertex
 10
457.324044399714
 20
496.182881904187
 30
0.0
  0
VERTEX
  5
166
330
E9
100
AcDbEntity
  8
Make2D$可见线$普通线
100
AcDbVertex
100
AcDb2dVertex
 10
457.0652427875002
 20
496.2072452360768
 30
0.0
  0
VERTEX
  5
167
330
E9
100
AcDbEntity
  8
Make2D$可见线$普通线
100
AcDbVertex
100
AcDb2dVertex
 10
456.808092470198
 20
496.2255289904234
 30
0.0
  0
VERTEX
  5
168
330
E9
100
AcDbEntity
  8
Make2D$可见线$普通线
100
AcDbVertex
100
AcDb2dVertex
 10
456.5527769498747
 20
496.2378685384346
 30
0.0
  0
VERTEX
  5
169
330
E9
100
AcDbEntity
  8
Make2D$可见线$普通线
100
AcDbVertex
100
AcDb2dVertex
 10
456.2994704086458
 20
496.2444050121599
 30
0.0
  0
VERTEX
  5
16A
330
E9
100
AcDbEntity
  8
Make2D$可见线$普通线
100
AcDbVertex
100
AcDb2dVertex
 10
456.0483376036821
 20
496.2452846578596
 30
0.0
  0
VERTEX
  5
16B
330
E9
100
AcDbEntity
  8
Make2D$可见线$普通线
100
AcDbVertex
100
AcDb2dVertex
 10
455.7972047987183
 20
496.2444050121599
 30
0.0
  0
VERTEX
  5
16C
330
E9
100
AcDbEntity
  8
Make2D$可见线$普通线
100
AcDbVertex
100
AcDb2dVertex
 10
455.5438982574894
 20
496.2378685384345
 30
0.0
  0
VERTEX
  5
16D
330
E9
100
AcDbEntity
  8
Make2D$可见线$普通线
100
AcDbVertex
100
AcDb2dVertex
 10
455.2885827371661
 20
496.2255289904233
 30
0.0
  0
VERTEX
  5
16E
330
E9
100
AcDbEntity
  8
Make2D$可见线$普通线
100
AcDbVertex
100
AcDb2dVertex
 10
455.0314324198639
 20
496.2072452360766
 30
0.0
  0
VERTEX
  5
16F
330
E9
100
AcDbEntity
  8
Make2D$可见线$普通线
100
AcDbVertex
100
AcDb2dVertex
 10
454.77263080765
 20
496.1828819041867
 30
0.0
  0
VERTEX
  5
170
330
E9
100
AcDbEntity
  8
Make2D$可见线$普通线
100
AcDbVertex
100
AcDb2dVertex
 10
454.5123705699752
 20
496.1523100388758
 30
0.0
  0
VERTEX
  5
171
330
E9
100
AcDbEntity
  8
Make2D$可见线$普通线
100
AcDbVertex
100
AcDb2dVertex
 10
454.2508533416271
 20
496.1154077582449
 30
0.0
  0
VERTEX
  5
172
330
E9
100
AcDbEntity
  8
Make2D$可见线$普通线
100
AcDbVertex
100
AcDb2dVertex
 10
453.988289469589
 20
496.0720609132053
 30
0.0
  0
VERTEX
  5
173
330
E9
100
AcDbEntity
  8
Make2D$可见线$普通线
100
AcDbVertex
100
AcDb2dVertex
 10
453.7248977075256
 20
496.0221637422415
 30
0.0
  0
VERTEX
  5
174
330
E9
100
AcDbEntity
  8
Make2D$可见线$普通线
100
AcDbVertex
100
AcDb2dVertex
 10
453.4609048569829
 20
495.9656195176213
 30
0.0
  0
VERTEX
  5
175
330
E9
100
AcDbEntity
  8
Make2D$可见线$普通线
100
AcDbVertex
100
AcDb2dVertex
 10
453.1965453548065
 20
495.9023411783606
 30
0.0
  0
VERTEX
  5
176
330
E9
100
AcDbEntity
  8
Make2D$可见线$普通线
100
AcDbVertex
100
AcDb2dVertex
 10
452.9320608067165
 20
495.8322519450851
 30
0.0
  0
VERTEX
  5
177
330
E9
100
AcDbEntity
  8
Make2D$可见线$普通线
100
AcDbVertex
100
AcDb2dVertex
 10
452.6676994674578
 20
495.755285911809
 30
0.0
  0
VERTEX
  5
178
330
E9
100
AcDbEntity
  8
Make2D$可见线$普通线
100
AcDbVertex
100
AcDb2dVertex
 10
452.4037156684387
 20
495.6713886095762
 30
0.0
  0
VERTEX
  5
179
330
E9
100
AcDbEntity
  8
Make2D$可见线$普通线
100
AcDbVertex
100
AcDb2dVertex
 10
452.140369194289
 20
495.5805175368918
 30
0.0
  0
VERTEX
  5
17A
330
E9
100
AcDbEntity
  8
Make2D$可见线$普通线
100
AcDbVertex
100
AcDb2dVertex
 10
451.877924610307
 20
495.4826426519095
 30
0.0
  0
VERTEX
  5
17B
330
E9
100
AcDbEntity
  8
Make2D$可见线$普通线
100
AcDbVertex
100
AcDb2dVertex
 10
451.6166505433002
 20
495.3777468214369
 30
0.0
  0
VERTEX
  5
17C
330
E9
100
AcDbEntity
  8
Make2D$可见线$普通线
100
AcDbVertex
100
AcDb2dVertex
 10
451.3568189188662
 20
495.2658262219856
 30
0.0
  0
VERTEX
  5
17D
330
E9
100
AcDbEntity
  8
Make2D$可见线$普通线
100
AcDbVertex
100
AcDb2dVertex
 10
451.0987041586955
 20
495.1468906883161
 30
0.0
  0
VERTEX
  5
17E
330
E9
100
AcDbEntity
  8
Make2D$可见线$普通线
100
AcDbVertex
100
AcDb2dVertex
 10
450.8425823419887
 20
495.0209640052199
 30
0.0
  0
VERTEX
  5
17F
330
E9
100
AcDbEntity
  8
Make2D$可见线$普通线
100
AcDbVertex
100
AcDb2dVertex
 10
450.5887303355793
 20
494.8880841386343
 30
0.0
  0
VERTEX
  5
180
330
E9
100
AcDbEntity
  8
Make2D$可见线$普通线
100
AcDbVertex
100
AcDb2dVertex
 10
450.3374248978026
 20
494.7483034026017
 30
0.0
  0
VERTEX
  5
181
330
E9
100
AcDbEntity
  8
Make2D$可见线$普通线
100
AcDbVertex
100
AcDb2dVertex
 10
450.0889417615745
 20
494.6016885590578
 30
0.0
  0
VERTEX
  5
182
330
E9
100
AcDbEntity
  8
Make2D$可见线$普通线
100
AcDbVertex
100
AcDb2dVertex
 10
449.8435547025099
 20
494.4483208479637
 30
0.0
  0
VERTEX
  5
183
330
E9
100
AcDbEntity
  8
Make2D$可见线$普通线
100
AcDbVertex
100
AcDb2dVertex
 10
449.6015345982144
 20
494.2882959458665
 30
0.0
  0
VERTEX
  5
184
330
E9
100
AcDbEntity
  8
Make2D$可见线$普通线
100
AcDbVertex
100
AcDb2dVertex
 10
449.3631484851376
 20
494.1217238515974
 30
0.0
  0
VERTEX
  5
185
330
E9
100
AcDbEntity
  8
Make2D$可见线$普通线
100
AcDbVertex
100
AcDb2dVertex
 10
449.1286586195444
 20
493.9487286984594
 30
0.0
  0
VERTEX
  5
186
330
E9
100
AcDbEntity
  8
Make2D$可见线$普通线
100
AcDbVertex
100
AcDb2dVertex
 10
448.8983215492678
 20
493.7694484929323
 30
0.0
  0
VERTEX
  5
187
330
E9
100
AcDbEntity
  8
Make2D$可见线$普通线
100
AcDbVertex
100
AcDb2dVertex
 10
448.6723872029278
 20
493.5840347806132
 30
0.0
  0
VERTEX
  5
188
330
E9
100
AcDbEntity
  8
Make2D$可见线$普通线
100
AcDbVertex
100
AcDb2dVertex
 10
448.4510980032461
 20
493.392652240805
 30
0.0
  0
VERTEX
  5
189
330
E9
100
AcDbEntity
  8
Make2D$可见线$普通线
100
AcDbVertex
100
AcDb2dVertex
 10
448.234688010948
 20
493.1954782118476
 30
0.0
  0
VERTEX
  5
18A
330
E9
100
AcDbEntity
  8
Make2D$可见线$普通线
100
AcDbVertex
100
AcDb2dVertex
 10
448.0233821055264
 20
492.9927021499678
 30
0.0
  0
VERTEX
  5
18B
330
E9
100
AcDbEntity
  8
Make2D$可见线$普通线
100
AcDbVertex
100
AcDb2dVertex
 10
447.8173952088471
 20
492.7845250250625
 30
0.0
  0
VERTEX
  5
18C
330
E9
100
AcDbEntity
  8
Make2D$可见线$普通线
100
AcDbVertex
100
AcDb2dVertex
 10
447.6169315572048
 20
492.5711586574409
 30
0.0
  0
VERTEX
  5
18D
330
E9
100
AcDbEntity
  8
Make2D$可见线$普通线
100
AcDbVertex
100
AcDb2dVertex
 10
447.4221840270014
 20
492.3528250001204
 30
0.0
  0
VERTEX
  5
18E
330
E9
100
AcDbEntity
  8
Make2D$可见线$普通线
100
AcDbVertex
100
AcDb2dVertex
 10
447.2333335187148
 20
492.1297553717711
 30
0.0
  0
VERTEX
  5
18F
330
E9
100
AcDbEntity
  8
Make2D$可见线$普通线
100
AcDbVertex
100
AcDb2dVertex
 10
447.0505484032709
 20
491.9021896458594
 30
0.0
  0
VERTEX
  5
190
330
E9
100
AcDbEntity
  8
Make2D$可见线$普通线
100
AcDbVertex
100
AcDb2dVertex
 10
446.8739840343273
 20
491.6703754019169
 30
0.0
  0
VERTEX
  5
191
330
E9
100
AcDbEntity
  8
Make2D$可见线$普通线
100
AcDbVertex
100
AcDb2dVertex
 10
446.703782329334
 20
491.4345670451643
 30
0.0
  0
VERTEX
  5
192
330
E9
100
AcDbEntity
  8
Make2D$可见线$普通线
100
AcDbVertex
100
AcDb2dVertex
 10
446.5400714215728
 20
491.1950249009507
 30
0.0
  0
VERTEX
  5
193
330
E9
100
AcDbEntity
  8
Make2D$可见线$普通线
100
AcDbVertex
100
AcDb2dVertex
 10
446.3829653846833
 20
490.9520142906152
 30
0.0
  0
VERTEX
  5
194
330
E9
100
AcDbEntity
  8
Make2D$可见线$普通线
100
AcDbVertex
100
AcDb2dVertex
 10
446.2325640304983
 20
490.705804595444
 30
0.0
  0
VERTEX
  5
195
330
E9
100
AcDbEntity
  8
Make2D$可见线$普通线
100
AcDbVertex
100
AcDb2dVertex
 10
446.0889527803169
 20
490.4566683153814
 30
0.0
  0
VERTEX
  5
196
330
E9
100
AcDbEntity
  8
Make2D$可见线$普通线
100
AcDbVertex
100
AcDb2dVertex
 10
445.9522026090718
 20
490.2048801290695
 30
0.0
  0
VERTEX
  5
197
330
E9
100
AcDbEntity
  8
Make2D$可见线$普通线
100
AcDbVertex
100
AcDb2dVertex
 10
445.8223700611914
 20
489.9507159616115
 30
0.0
  0
VERTEX
  5
198
330
E9
100
AcDbEntity
  8
Make2D$可见线$普通线
100
AcDbVertex
100
AcDb2dVertex
 10
445.6994973363411
 20
489.6944520662316
 30
0.0
  0
VERTEX
  5
199
330
E9
100
AcDbEntity
  8
Make2D$可见线$普通线
100
AcDbVertex
100
AcDb2dVertex
 10
445.5836124426457
 20
489.4363641256945
 30
0.0
  0
VERTEX
  5
19A
330
E9
100
AcDbEntity
  8
Make2D$可见线$普通线
100
AcDbVertex
100
AcDb2dVertex
 10
445.4747294144606
 20
489.1767263789894
 30
0.0
  0
VERTEX
  5
19B
330
E9
100
AcDbEntity
  8
Make2D$可见线$普通线
100
AcDbVertex
100
AcDb2dVertex
 10
445.3728485912831
 20
488.9158107783817
 30
0.0
  0
VERTEX
  5
19C
330
E9
100
AcDbEntity
  8
Make2D$可见线$普通线
100
AcDbVertex
100
AcDb2dVertex
 10
445.2779569539697
 20
488.6538861814728
 30
0.0
  0
VERTEX
  5
19D
330
E9
100
AcDbEntity
  8
Make2D$可见线$普通线
100
AcDbVertex
100
AcDb2dVertex
 10
445.1900285140632
 20
488.3912175824318
 30
0.0
  0
VERTEX
  5
19E
330
E9
100
AcDbEntity
  8
Make2D$可见线$普通线
100
AcDbVertex
100
AcDb2dVertex
 10
445.1090247517372
 20
488.1280653860476
 30
0.0
  0
VERTEX
  5
19F
330
E9
100
AcDbEntity
  8
Make2D$可见线$普通线
100
AcDbVertex
100
AcDb2dVertex
 10
445.0348950976301
 20
487.8646847277191
 30
0.0
  0
VERTEX
  5
1A0
330
E9
100
AcDbEntity
  8
Make2D$可见线$普通线
100
AcDbVertex
100
AcDb2dVertex
 10
444.9675774536713
 20
487.6013248419688
 30
0.0
  0
VERTEX
  5
1A1
330
E9
100
AcDbEntity
  8
Make2D$可见线$普通线
100
AcDbVertex
100
AcDb2dVertex
 10
444.906998747895
 20
487.338228481519
 30
0.0
  0
VERTEX
  5
1A2
330
E9
100
AcDbEntity
  8
Make2D$可见线$普通线
100
AcDbVertex
100
AcDb2dVertex
 10
444.8530755181918
 20
487.075631388444
 30
0.0
  0
VERTEX
  5
1A3
330
E9
100
AcDbEntity
  8
Make2D$可见线$普通线
100
AcDbVertex
100
AcDb2dVertex
 10
444.8057145199583
 20
486.813761818389
 30
0.0
  0
VERTEX
  5
1A4
330
E9
100
AcDbEntity
  8
Make2D$可见线$普通线
100
AcDbVertex
100
AcDb2dVertex
 10
444.7648133526724
 20
486.5528401183458
 30
0.0
  0
VERTEX
  5
1A5
330
E9
100
AcDbEntity
  8
Make2D$可见线$普通线
100
AcDbVertex
100
AcDb2dVertex
 10
444.7302611005351
 20
486.2930783580049
 30
0.0
  0
VERTEX
  5
1A6
330
E9
100
AcDbEntity
  8
Make2D$可见线$普通线
100
AcDbVertex
100
AcDb2dVertex
 10
444.7019389824801
 20
486.0346800142522
 30
0.0
  0
VERTEX
  5
1A7
330
E9
100
AcDbEntity
  8
Make2D$可见线$普通线
100
AcDbVertex
100
AcDb2dVertex
 10
444.6797210070529
 20
485.7778397079733
 30
0.0
  0
VERTEX
  5
1A8
330
E9
100
AcDbEntity
  8
Make2D$可见线$普通线
100
AcDbVertex
100
AcDb2dVertex
 10
444.6634746278898
 20
485.5227429919474
 30
0.0
  0
VERTEX
  5
1A9
330
E9
100
AcDbEntity
  8
Make2D$可见线$普通线
100
AcDbVertex
100
AcDb2dVertex
 10
444.6530613957937
 20
485.2695661882798
 30
0.0
  0
VERTEX
  5
1AA
330
E9
100
AcDbEntity
  8
Make2D$可见线$普通线
100
AcDbVertex
100
AcDb2dVertex
 10
444.6483376036826
 20
485.0184762735208
 30
0.0
  0
VERTEX
  5
1AB
330
E9
100
AcDbEntity
  8
Make2D$可见线$普通线
100
AcDbVertex
100
AcDb2dVertex
 10
444.6530613949348
 20
484.7673864188887
 30
0.0
  0
VERTEX
  5
1AC
330
E9
100
AcDbEntity
  8
Make2D$可见线$普通线
100
AcDbVertex
100
AcDb2dVertex
 10
444.6634746253375
 20
484.5142096763186
 30
0.0
  0
VERTEX
  5
1AD
330
E9
100
AcDbEntity
  8
Make2D$可见线$普通线
100
AcDbVertex
100
AcDb2dVertex
 10
444.6797210019201
 20
484.2591130222382
 30
0.0
  0
VERTEX
  5
1AE
330
E9
100
AcDbEntity
  8
Make2D$可见线$普通线
100
AcDbVertex
100
AcDb2dVertex
 10
444.7019389738317
 20
484.0022727786217
 30
0.0
  0
VERTEX
  5
1AF
330
E9
100
AcDbEntity
  8
Make2D$可见线$普通线
100
AcDbVertex
100
AcDb2dVertex
 10
444.7302610873913
 20
483.7438744981084
 30
0.0
  0
VERTEX
  5
1B0
330
E9
100
AcDbEntity
  8
Make2D$可见线$普通线
100
AcDbVertex
100
AcDb2dVertex
 10
444.7648133340139
 20
483.4841128014352
 30
0.0
  0
VERTEX
  5
1B1
330
E9
100
AcDbEntity
  8
Make2D$可见线$普通线
100
AcDbVertex
100
AcDb2dVertex
 10
444.8057144947311
 20
483.2231911653314
 30
0.0
  0
VERTEX
  5
1B2
330
E9
100
AcDbEntity
  8
Make2D$可见线$普通线
100
AcDbVertex
100
AcDb2dVertex
 10
444.8530754853135
 20
482.9613216593231
 30
0.0
  0
VERTEX
  5
1B3
330
E9
100
AcDbEntity
  8
Make2D$可见线$普通线
100
AcDbVertex
100
AcDb2dVertex
 10
444.9069987062608
 20
482.6987246302301
 30
0.0
  0
VERTEX
  5
1B4
330
E9
100
AcDbEntity
  8
Make2D$可见线$普通线
100
AcDbVertex
100
AcDb2dVertex
 10
444.9675774021609
 20
482.4356283335192
 30
0.0
  0
VERTEX
  5
1B5
330
E9
100
AcDbEntity
  8
Make2D$可见线$普通线
100
AcDbVertex
100
AcDb2dVertex
 10
445.0348950351153
 20
482.1722685110797
 30
0.0
  0
VERTEX
  5
1B6
330
E9
100
AcDbEntity
  8
Make2D$可见线$普通线
100
AcDbVertex
100
AcDb2dVertex
 10
445.1090246770895
 20
481.908887915444
 30
0.0
  0
VERTEX
  5
1B7
330
E9
100
AcDbEntity
  8
Make2D$可见线$普通线
100
AcDbVertex
100
AcDb2dVertex
 10
445.1900284261621
 20
481.645735780939
 30
0.0
  0
VERTEX
  5
1B8
330
E9
100
AcDbEntity
  8
Make2D$可见线$普通线
100
AcDbVertex
100
AcDb2dVertex
 10
445.2779568517116
 20
481.3830672427651
 30
0.0
  0
VERTEX
  5
1B9
330
E9
100
AcDbEntity
  8
Make2D$可见线$普通线
100
AcDbVertex
100
AcDb2dVertex
 10
445.3728484735898
 20
481.1211427055086
 30
0.0
  0
VERTEX
  5
1BA
330
E9
100
AcDbEntity
  8
Make2D$可见线$普通线
100
AcDbVertex
100
AcDb2dVertex
 10
445.4747292802892
 20
480.8602271631352
 30
0.0
  0
VERTEX
  5
1BB
330
E9
100
AcDbEntity
  8
Make2D$可见线$普通线
100
AcDbVertex
100
AcDb2dVertex
 10
445.5836122909978
 20
480.6005894730409
 30
0.0
  0
VERTEX
  5
1BC
330
E9
100
AcDbEntity
  8
Make2D$可见线$普通线
100
AcDbVertex
100
AcDb2dVertex
 10
445.6994971662723
 20
480.3425015872858
 30
0.0
  0
VERTEX
  5
1BD
330
E9
100
AcDbEntity
  8
Make2D$可见线$普通线
100
AcDbVertex
100
AcDb2dVertex
 10
445.8223698718208
 20
480.0862377446556
 30
0.0
  0
VERTEX
  5
1BE
330
E9
100
AcDbEntity
  8
Make2D$可见线$普通线
100
AcDbVertex
100
AcDb2dVertex
 10
445.9522023995926
 20
479.832073627713
 30
0.0
  0
VERTEX
  5
1BF
330
E9
100
AcDbEntity
  8
Make2D$可见线$普通线
100
AcDbVertex
100
AcDb2dVertex
 10
446.088952550005
 20
479.580285489484
 30
0.0
  0
VERTEX
  5
1C0
330
E9
100
AcDbEntity
  8
Make2D$可见线$普通线
100
AcDbVertex
100
AcDb2dVertex
 10
446.2325637787221
 20
479.3311492548786
 30
0.0
  0
VERTEX
  5
1C1
330
E9
100
AcDbEntity
  8
Make2D$可见线$普通线
100
AcDbVertex
100
AcDb2dVertex
 10
446.3829651109129
 20
479.0849396023504
 30
0.0
  0
VERTEX
  5
1C2
330
E9
100
AcDbEntity
  8
Make2D$可见线$普通线
100
AcDbVertex
100
AcDb2dVertex
 10
446.5400711253885
 20
478.8419290316635
 30
0.0
  0
VERTEX
  5
1C3
330
E9
100
AcDbEntity
  8
Make2D$可见线$普通线
100
AcDbVertex
100
AcDb2dVertex
 10
446.7037820104351
 20
478.602386923931
 30
0.0
  0
VERTEX
  5
1C4
330
E9
100
AcDbEntity
  8
Make2D$可见线$普通线
100
AcDbVertex
100
AcDb2dVertex
 10
446.8739836925396
 20
478.3665786003284
 30
0.0
  0
VERTEX
  5
1C5
330
E9
100
AcDbEntity
  8
Make2D$可见线$普通线
100
AcDbVertex
100
AcDb2dVertex
 10
447.0505480385542
 20
478.1347643860517
 30
0.0
  0
VERTEX
  5
1C6
330
E9
100
AcDbEntity
  8
Make2D$可见线$普通线
100
AcDbVertex
100
AcDb2dVertex
 10
447.2333331311689
 20
477.9071986861796
 30
0.0
  0
VERTEX
  5
1C7
330
E9
100
AcDbEntity
  8
Make2D$可见线$普通线
100
AcDbVertex
100
AcDb2dVertex
 10
447.4221836168726
 20
477.6841290801139
 30
0.0
  0
VERTEX
  5
1C8
330
E9
100
AcDbEntity
  8
Make2D$可见线$普通线
100
AcDbVertex
100
AcDb2dVertex
 10
447.6169311248904
 20
477.4657954412044
 30
0.0
  0
VERTEX
  5
1C9
330
E9
100
AcDbEntity
  8
Make2D$可见线$普通线
100
AcDbVertex
100
AcDb2dVertex
 10
447.8173947548995
 20
477.2524290880183
 30
0.0
  0
VERTEX
  5
1CA
330
E9
100
AcDbEntity
  8
Make2D$可见线$普通线
100
AcDbVertex
100
AcDb2dVertex
 10
448.0233816306564
 20
477.0442519734847
 30
0.0
  0
VERTEX
  5
1CB
330
E9
100
AcDbEntity
  8
Make2D$可见线$普通线
100
AcDbVertex
100
AcDb2dVertex
 10
448.2346875160271
 20
476.84147591784
 30
0.0
  0
VERTEX
  5
1CC
330
E9
100
AcDbEntity
  8
Make2D$可见线$普通线
100
AcDbVertex
100
AcDb2dVertex
 10
448.4510974893076
 20
476.6443018909232
 30
0.0
  0
VERTEX
  5
1CD
330
E9
100
AcDbEntity
  8
Make2D$可见线$普通线
100
AcDbVertex
100
AcDb2dVertex
 10
448.6723866711669
 20
476.4529193489196
 30
0.0
  0
VERTEX
  5
1CE
330
E9
100
AcDbEntity
  8
Make2D$可见线$普通线
100
AcDbVertex
100
AcDb2dVertex
 10
448.8983210010409
 20
476.2675056301439
 30
0.0
  0
VERTEX
  5
1CF
330
E9
100
AcDbEntity
  8
Make2D$可见线$普通线
100
AcDbVertex
100
AcDb2dVertex
 10
449.1286580563669
 20
476.0882254138895
 30
0.0
  0
VERTEX
  5
1D0
330
E9
100
AcDbEntity
  8
Make2D$可见线$普通线
100
AcDbVertex
100
AcDb2dVertex
 10
449.3631479086815
 20
475.9152302457612
 30
0.0
  0
VERTEX
  5
1D1
330
E9
100
AcDbEntity
  8
Make2D$可见线$普通线
100
AcDbVertex
100
AcDb2dVertex
 10
449.6015340103038
 20
475.7486581322616
 30
0.0
  0
VERTEX
  5
1D2
330
E9
100
AcDbEntity
  8
Make2D$可见线$普通线
100
AcDbVertex
100
AcDb2dVertex
 10
449.8435541051168
 20
475.588633206733
 30
0.0
  0
VERTEX
  5
1D3
330
E9
100
AcDbEntity
  8
Make2D$可见线$普通线
100
AcDbVertex
100
AcDb2dVertex
 10
450.0889411568128
 20
475.4352654680615
 30
0.0
  0
VERTEX
  5
1D4
330
E9
100
AcDbEntity
  8
Make2D$可见线$普通线
100
AcDbVertex
100
AcDb2dVertex
 10
450.3374242879209
 20
475.2886505928641
 30
0.0
  0
VERTEX
  5
1D5
330
E9
100
AcDbEntity
  8
Make2D$可见线$普通线
100
AcDbVertex
100
AcDb2dVertex
 10
450.5887297229544
 20
475.1488698211861
 30
0.0
  0
VERTEX
  5
1D6
330
E9
100
AcDbEntity
  8
Make2D$可见线$普通线
100
AcDbVertex
100
AcDb2dVertex
 10
450.8425817291162
 20
475.0159899150614
 30
0.0
  0
VERTEX
  5
1D7
330
E9
100
AcDbEntity
  8
Make2D$可见线$普通线
100
AcDbVertex
100
AcDb2dVertex
 10
451.0987035481821
 20
474.8900631886438
 30
0.0
  0
VERTEX
  5
1D8
330
E9
100
AcDbEntity
  8
Make2D$可见线$普通线
100
AcDbVertex
100
AcDb2dVertex
 10
451.3568183134197
 20
474.7711276079942
 30
0.0
  0
VERTEX
  5
1D9
330
E9
100
AcDbEntity
  8
Make2D$可见线$普通线
100
AcDbVertex
100
AcDb2dVertex
 10
451.6166499457192
 20
474.6592069580391
 30
0.0
  0
VERTEX
  5
1DA
330
E9
100
AcDbEntity
  8
Make2D$可见线$普通线
100
AcDbVertex
100
AcDb2dVertex
 10
451.8779240234708
 20
474.5543110736842
 30
0.0
  0
VERTEX
  5
1DB
330
E9
100
AcDbEntity
  8
Make2D$可见线$普通线
100
AcDbVertex
100
AcDb2dVertex
 10
452.1403686211467
 20
474.456436131596
 30
0.0
  0
VERTEX
  5
1DC
330
E9
100
AcDbEntity
  8
Make2D$可见线$普通线
100
AcDbVertex
100
AcDb2dVertex
 10
452.4037151119986
 20
474.3655649987456
 30
0.0
  0
VERTEX
  5
1DD
330
E9
100
AcDbEntity
  8
Make2D$可见线$普通线
100
AcDbVertex
100
AcDb2dVertex
 10
452.6676989307754
 20
474.2816676334568
 30
0.0
  0
VERTEX
  5
1DE
330
E9
100
AcDbEntity
  8
Make2D$可见线$普通线
100
AcDbVertex
100
AcDb2dVertex
 10
452.9320602928838
 20
474.204701534412
 30
0.0
  0
VERTEX
  5
1DF
330
E9
100
AcDbEntity
  8
Make2D$可见线$普通线
100
AcDbVertex
100
AcDb2dVertex
 10
453.1965448669407
 20
474.1346122328368
 30
0.0
  0
VERTEX
  5
1E0
330
E9
100
AcDbEntity
  8
Make2D$可见线$普通线
100
AcDbVertex
100
AcDb2dVertex
 10
453.4609043982153
 20
474.0713338229318
 30
0.0
  0
VERTEX
  5
1E1
330
E9
100
AcDbEntity
  8
Make2D$可见线$普通线
100
AcDbVertex
100
AcDb2dVertex
 10
453.7248972809898
 20
474.0147895255116
 30
0.0
  0
VERTEX
  5
1E2
330
E9
100
AcDbEntity
  8
Make2D$可见线$普通线
100
AcDbVertex
100
AcDb2dVertex
 10
453.9882890784111
 20
473.9648922797838
 30
0.0
  0
VERTEX
  5
1E3
330
E9
100
AcDbEntity
  8
Make2D$可见线$普通线
100
AcDbVertex
100
AcDb2dVertex
 10
454.2508529889146
 20
473.9215453582081
 30
0.0
  0
VERTEX
  5
1E4
330
E9
100
AcDbEntity
  8
Make2D$可见线$普通线
100
AcDbVertex
100
AcDb2dVertex
 10
454.5123702588076
 20
473.8846429994618
 30
0.0
  0
VERTEX
  5
1E5
330
E9
100
AcDbEntity
  8
Make2D$可见线$普通线
100
AcDbVertex
100
AcDb2dVertex
 10
454.7726305410678
 20
473.8540710546474
 30
0.0
  0
VERTEX
  5
1E6
330
E9
100
AcDbEntity
  8
Make2D$可见线$普通线
100
AcDbVertex
100
AcDb2dVertex
 10
455.0314322008603
 20
473.8297076420562
 30
0.0
  0
VERTEX
  5
1E7
330
E9
100
AcDbEntity
  8
Make2D$可见线$普通线
100
AcDbVertex
100
AcDb2dVertex
 10
455.2885825686781
 20
473.8114238059975
 30
0.0
  0
VERTEX
  5
1E8
330
E9
100
AcDbEntity
  8
Make2D$可见线$普通线
100
AcDbVertex
100
AcDb2dVertex
 10
455.5438981423899
 20
473.7990841754479
 30
0.0
  0
VERTEX
  5
1E9
330
E9
100
AcDbEntity
  8
Make2D$可见线$普通线
100
AcDbVertex
100
AcDb2dVertex
 10
455.7972047398077
 20
473.7925476185376
 30
0.0
  0
VERTEX
  5
1EA
330
E9
100
AcDbEntity
  8
Make2D$可见线$普通线
100
AcDbVertex
100
AcDb2dVertex
 10
456.0483376036821
 20
473.7916678891821
 30
0.0
  0
SEQEND
  5
1EB
330
E9
100
AcDbEntity
  8
Make2D$可见线$普通线
  0
POLYLINE
  5
1EC
330
1F
100
AcDbEntity
  8
Make2D$可见线$普通线
100
AcDb2dPolyline
 66
     1
 10
0.0
 20
0.0
 30
0.0
  0
VERTEX
  5
1ED
330
1EC
100
AcDbEntity
  8
Make2D$可见线$普通线
100
AcDbVertex
100
AcDb2dVertex
 10
454.8827561660219
 20
471.6427230606189
 30
0.0
 42
-0.0655644942256872
  0
VERTEX
  5
1EE
330
1EC
100
AcDbEntity
  8
Make2D$可见线$普通线
100
AcDbVertex
100
AcDb2dVertex
 10
451.542688817733
 20
471.9260258905242
 30
0.0
 42
-0.1703356312234665
  0
VERTEX
  5
1EF
330
1EC
100
AcDbEntity
  8
Make2D$可见线$普通线
100
AcDbVertex
100
AcDb2dVertex
 10
447.3477001931496
 20
476.4828336585106
 30
0.0
  0
VERTEX
  5
1F0
330
1EC
100
AcDbEntity
  8
Make2D$可见线$普通线
100
AcDbVertex
100
AcDb2dVertex
 10
445.8926997497499
 20
479.8494441837806
 30
0.0
  0
SEQEND
  5
1F1
330
1EC
100
AcDbEntity
  8
Make2D$可见线$普通线
  0
POLYLINE
  5
1F2
330
1F
100
AcDbEntity
  8
Make2D$可见线$普通线
100
AcDb2dPolyline
 66
     1
 10
0.0
 20
0.0
 30
0.0
  0
VERTEX
  5
1F3
330
1F2
100
AcDbEntity
  8
Make2D$可见线$普通线
100
AcDbVertex
100
AcDb2dVertex
 10
417.6027444338145
 20
649.0057458160875
 30
0.0
  0
VERTEX
  5
1F4
330
1F2
100
AcDbEntity
  8
Make2D$可见线$普通线
100
AcDbVertex
100
AcDb2dVertex
 10
417.6124491564506
 20
649.267832559153
 30
0.0
 42
0.09262893373343
  0
VERTEX
  5
1F5
330
1F2
100
AcDbEntity
  8
Make2D$可见线$普通线
100
AcDbVertex
100
AcDb2dVertex
 10
417.7013916212316
 20
648.3645847770056
 30
0.0
 42
0.0938415736945154
  0
VERTEX
  5
1F6
330
1F2
100
AcDbEntity
  8
Make2D$可见线$普通线
100
AcDbVertex
100
AcDb2dVertex
 10
418.1466545930857
 20
647.5175943641632
 30
0.0
  0
SEQEND
  5
1F7
330
1F2
100
AcDbEntity
  8
Make2D$可见线$普通线
  0
POLYLINE
  5
1F8
330
1F
100
AcDbEntity
  8
Make2D$可见线$普通线
100
AcDb2dPolyline
 66
     1
 10
0.0
 20
0.0
 30
0.0
  0
VERTEX
  5
1F9
330
1F8
100
AcDbEntity
  8
Make2D$可见线$普通线
100
AcDbVertex
100
AcDb2dVertex
 10
419.3421739541716
 20
636.9695937572637
 30
0.0
  0
VERTEX
  5
1FA
330
1F8
100
AcDbEntity
  8
Make2D$可见线$普通线
100
AcDbVertex
100
AcDb2dVertex
 10
419.1567055942818
 20
639.3631688495153
 30
0.0
  0
VERTEX
  5
1FB
330
1F8
100
AcDbEntity
  8
Make2D$可见线$普通线
100
AcDbVertex
100
AcDb2dVertex
 10
418.9410503863651
 20
641.7539668396812
 30
0.0
  0
VERTEX
  5
1FC
330
1F8
100
AcDbEntity
  8
Make2D$可见线$普通线
100
AcDbVertex
100
AcDb2dVertex
 10
418.8195739019576
 20
642.9480641284126
 30
0.0
  0
VERTEX
  5
1FD
330
1F8
100
AcDbEntity
  8
Make2D$可见线$普通线
100
AcDbVertex
100
AcDb2dVertex
 10
418.6877561306164
 20
644.1411547899392
 30
0.0
  0
VERTEX
  5
1FE
330
1F8
100
AcDbEntity
  8
Make2D$可见线$普通线
100
AcDbVertex
100
AcDb2dVertex
 10
418.5446655473658
 20
645.3331347070333
 30
0.0
  0
VERTEX
  5
1FF
330
1F8
100
AcDbEntity
  8
Make2D$可见线$普通线
100
AcDbVertex
100
AcDb2dVertex
 10
418.3893706272301
 20
646.5238997624672
 30
0.0
  0
VERTEX
  5
200
330
1F8
100
AcDbEntity
  8
Make2D$可见线$普通线
100
AcDbVertex
100
AcDb2dVertex
 10
418.2371437658734
 20
647.5481958908188
 30
0.0
  0
VERTEX
  5
201
330
1F8
100
AcDbEntity
  8
Make2D$可见线$普通线
100
AcDbVertex
100
AcDb2dVertex
 10
418.1426690187764
 20
648.0564047772965
 30
0.0
  0
VERTEX
  5
202
330
1F8
100
AcDbEntity
  8
Make2D$可见线$普通线
100
AcDbVertex
100
AcDb2dVertex
 10
418.0882696264106
 20
648.3088994874532
 30
0.0
  0
VERTEX
  5
203
330
1F8
100
AcDbEntity
  8
Make2D$可见线$普通线
100
AcDbVertex
100
AcDb2dVertex
 10
418.0281158635142
 20
648.5600829703524
 30
0.0
  0
VERTEX
  5
204
330
1F8
100
AcDbEntity
  8
Make2D$可见线$普通线
100
AcDbVertex
100
AcDb2dVertex
 10
417.9942671433232
 20
648.6896954684644
 30
0.0
  0
VERTEX
  5
205
330
1F8
100
AcDbEntity
  8
Make2D$可见线$普通线
100
AcDbVertex
100
AcDb2dVertex
 10
417.95755816432
 20
648.8189900432615
 30
0.0
  0
VERTEX
  5
206
330
1F8
100
AcDbEntity
  8
Make2D$可见线$普通线
100
AcDbVertex
100
AcDb2dVertex
 10
417.916871369358
 20
648.9480488621195
 30
0.0
  0
VERTEX
  5
207
330
1F8
100
AcDbEntity
  8
Make2D$可见线$普通线
100
AcDbVertex
100
AcDb2dVertex
 10
417.894687054284
 20
649.0125155403761
 30
0.0
  0
VERTEX
  5
208
330
1F8
100
AcDbEntity
  8
Make2D$可见线$普通线
100
AcDbVertex
100
AcDb2dVertex
 10
417.8710892012903
 20
649.0769540924136
 30
0.0
  0
VERTEX
  5
209
330
1F8
100
AcDbEntity
  8
Make2D$可见线$普通线
100
AcDbVertex
100
AcDb2dVertex
 10
417.8577593436212
 20
649.1113219085585
 30
0.0
  0
VERTEX
  5
20A
330
1F8
100
AcDbEntity
  8
Make2D$可见线$普通线
100
AcDbVertex
100
AcDb2dVertex
 10
417.850779913481
 20
649.1283148849639
 30
0.0
  0
VERTEX
  5
20B
330
1F8
100
AcDbEntity
  8
Make2D$可见线$普通线
100
AcDbVertex
100
AcDb2dVertex
 10
417.8435120081625
 20
649.1450797656285
 30
0.0
  0
VERTEX
  5
20C
330
1F8
100
AcDbEntity
  8
Make2D$可见线$普通线
100
AcDbVertex
100
AcDb2dVertex
 10
417.8358965219348
 20
649.1615409445806
 30
0.0
  0
VERTEX
  5
20D
330
1F8
100
AcDbEntity
  8
Make2D$可见线$普通线
100
AcDbVertex
100
AcDb2dVertex
 10
417.8278743490673
 20
649.1776228158478
 30
0.0
  0
VERTEX
  5
20E
330
1F8
100
AcDbEntity
  8
Make2D$可见线$普通线
100
AcDbVertex
100
AcDb2dVertex
 10
417.8236922846027
 20
649.1854978842334
 30
0.0
  0
VERTEX
  5
20F
330
1F8
100
AcDbEntity
  8
Make2D$可见线$普通线
100
AcDbVertex
100
AcDb2dVertex
 10
417.819386383829
 20
649.1932497734584
 30
0.0
  0
VERTEX
  5
210
330
1F8
100
AcDbEntity
  8
Make2D$可见线$普通线
100
AcDbVertex
100
AcDb2dVertex
 10
417.81494925853
 20
649.2008690327762
 30
0.0
  0
VERTEX
  5
211
330
1F8
100
AcDbEntity
  8
Make2D$可见线$普通线
100
AcDbVertex
100
AcDb2dVertex
 10
417.8103735204891
 20
649.2083462114404
 30
0.0
  0
VERTEX
  5
212
330
1F8
100
AcDbEntity
  8
Make2D$可见线$普通线
100
AcDbVertex
100
AcDb2dVertex
 10
417.8056517814901
 20
649.2156718587044
 30
0.0
  0
VERTEX
  5
213
330
1F8
100
AcDbEntity
  8
Make2D$可见线$普通线
100
AcDbVertex
100
AcDb2dVertex
 10
417.8007766533167
 20
649.2228365238216
 30
0.0
  0
VERTEX
  5
214
330
1F8
100
AcDbEntity
  8
Make2D$可见线$普通线
100
AcDbVertex
100
AcDb2dVertex
 10
417.7957407477524
 20
649.2298307560455
 30
0.0
  0
VERTEX
  5
215
330
1F8
100
AcDbEntity
  8
Make2D$可见线$普通线
100
AcDbVertex
100
AcDb2dVertex
 10
417.7905366765809
 20
649.23664510463
 30
0.0
  0
VERTEX
  5
216
330
1F8
100
AcDbEntity
  8
Make2D$可见线$普通线
100
AcDbVertex
100
AcDb2dVertex
 10
417.785157051586
 20
649.2432701188283
 30
0.0
  0
VERTEX
  5
217
330
1F8
100
AcDbEntity
  8
Make2D$可见线$普通线
100
AcDbVertex
100
AcDb2dVertex
 10
417.7795944845511
 20
649.2496963478937
 30
0.0
  0
VERTEX
  5
218
330
1F8
100
AcDbEntity
  8
Make2D$可见线$普通线
100
AcDbVertex
100
AcDb2dVertex
 10
417.77384158726
 20
649.2559143410801
 30
0.0
  0
VERTEX
  5
219
330
1F8
100
AcDbEntity
  8
Make2D$可见线$普通线
100
AcDbVertex
100
AcDb2dVertex
 10
417.7708914559507
 20
649.2589422958603
 30
0.0
  0
VERTEX
  5
21A
330
1F8
100
AcDbEntity
  8
Make2D$可见线$普通线
100
AcDbVertex
100
AcDb2dVertex
 10
417.7678909714963
 20
649.2619146476408
 30
0.0
  0
VERTEX
  5
21B
330
1F8
100
AcDbEntity
  8
Make2D$可见线$普通线
100
AcDbVertex
100
AcDb2dVertex
 10
417.7648392103696
 20
649.2648302150782
 30
0.0
  0
VERTEX
  5
21C
330
1F8
100
AcDbEntity
  8
Make2D$可见线$普通线
100
AcDbVertex
100
AcDb2dVertex
 10
417.7617352490436
 20
649.2676878168293
 30
0.0
  0
VERTEX
  5
21D
330
1F8
100
AcDbEntity
  8
Make2D$可见线$普通线
100
AcDbVertex
100
AcDb2dVertex
 10
417.7585781639913
 20
649.2704862715507
 30
0.0
  0
VERTEX
  5
21E
330
1F8
100
AcDbEntity
  8
Make2D$可见线$普通线
100
AcDbVertex
100
AcDb2dVertex
 10
417.7553670316856
 20
649.273224397899
 30
0.0
  0
VERTEX
  5
21F
330
1F8
100
AcDbEntity
  8
Make2D$可见线$普通线
100
AcDbVertex
100
AcDb2dVertex
 10
417.7521009285995
 20
649.275901014531
 30
0.0
  0
VERTEX
  5
220
330
1F8
100
AcDbEntity
  8
Make2D$可见线$普通线
100
AcDbVertex
100
AcDb2dVertex
 10
417.7487789312059
 20
649.2785149401036
 30
0.0
  0
VERTEX
  5
221
330
1F8
100
AcDbEntity
  8
Make2D$可见线$普通线
100
AcDbVertex
100
AcDb2dVertex
 10
417.7454001159779
 20
649.2810649932733
 30
0.0
  0
VERTEX
  5
222
330
1F8
100
AcDbEntity
  8
Make2D$可见线$普通线
100
AcDbVertex
100
AcDb2dVertex
 10
417.7419635593884
 20
649.2835499926965
 30
0.0
  0
VERTEX
  5
223
330
1F8
100
AcDbEntity
  8
Make2D$可见线$普通线
100
AcDbVertex
100
AcDb2dVertex
 10
417.7384683379102
 20
649.2859687570303
 30
0.0
  0
VERTEX
  5
224
330
1F8
100
AcDbEntity
  8
Make2D$可见线$普通线
100
AcDbVertex
100
AcDb2dVertex
 10
417.7349135280164
 20
649.2883201049312
 30
0.0
  0
VERTEX
  5
225
330
1F8
100
AcDbEntity
  8
Make2D$可见线$普通线
100
AcDbVertex
100
AcDb2dVertex
 10
417.7312982061799
 20
649.290602855056
 30
0.0
  0
VERTEX
  5
226
330
1F8
100
AcDbEntity
  8
Make2D$可见线$普通线
100
AcDbVertex
100
AcDb2dVertex
 10
417.7276214488736
 20
649.2928158260613
 30
0.0
  0
VERTEX
  5
227
330
1F8
100
AcDbEntity
  8
Make2D$可见线$普通线
100
AcDbVertex
100
AcDb2dVertex
 10
417.7238823325706
 20
649.2949578366038
 30
0.0
  0
VERTEX
  5
228
330
1F8
100
AcDbEntity
  8
Make2D$可见线$普通线
100
AcDbVertex
100
AcDb2dVertex
 10
417.7200799337438
 20
649.2970277053402
 30
0.0
  0
VERTEX
  5
229
330
1F8
100
AcDbEntity
  8
Make2D$可见线$普通线
100
AcDbVertex
100
AcDb2dVertex
 10
417.716213328866
 20
649.299024250927
 30
0.0
  0
VERTEX
  5
22A
330
1F8
100
AcDbEntity
  8
Make2D$可见线$普通线
100
AcDbVertex
100
AcDb2dVertex
 10
417.7122815944105
 20
649.3009462920212
 30
0.0
  0
VERTEX
  5
22B
330
1F8
100
AcDbEntity
  8
Make2D$可见线$普通线
100
AcDbVertex
100
AcDb2dVertex
 10
417.7089803919092
 20
649.302477419769
 30
0.0
  0
VERTEX
  5
22C
330
1F8
100
AcDbEntity
  8
Make2D$可见线$普通线
100
AcDbVertex
100
AcDb2dVertex
 10
417.7056391663514
 20
649.3039464189721
 30
0.0
  0
VERTEX
  5
22D
330
1F8
100
AcDbEntity
  8
Make2D$可见线$普通线
100
AcDbVertex
100
AcDb2dVertex
 10
417.7022630906157
 20
649.3053429480855
 30
0.0
  0
VERTEX
  5
22E
330
1F8
100
AcDbEntity
  8
Make2D$可见线$普通线
100
AcDbVertex
100
AcDb2dVertex
 10
417.6988573375808
 20
649.3066566655643
 30
0.0
  0
VERTEX
  5
22F
330
1F8
100
AcDbEntity
  8
Make2D$可见线$普通线
100
AcDbVertex
100
AcDb2dVertex
 10
417.6954270801252
 20
649.3078772298638
 30
0.0
  0
VERTEX
  5
230
330
1F8
100
AcDbEntity
  8
Make2D$可见线$普通线
100
AcDbVertex
100
AcDb2dVertex
 10
417.6919774911279
 20
649.3089942994391
 30
0.0
  0
VERTEX
  5
231
330
1F8
100
AcDbEntity
  8
Make2D$可见线$普通线
100
AcDbVertex
100
AcDb2dVertex
 10
417.6885137434673
 20
649.3099975327452
 30
0.0
  0
VERTEX
  5
232
330
1F8
100
AcDbEntity
  8
Make2D$可见线$普通线
100
AcDbVertex
100
AcDb2dVertex
 10
417.6867781766629
 20
649.3104532290646
 30
0.0
  0
VERTEX
  5
233
330
1F8
100
AcDbEntity
  8
Make2D$可见线$普通线
100
AcDbVertex
100
AcDb2dVertex
 10
417.6850410100221
 20
649.3108765882373
 30
0.0
  0
VERTEX
  5
234
330
1F8
100
AcDbEntity
  8
Make2D$可见线$普通线
100
AcDbVertex
100
AcDb2dVertex
 10
417.6833028901548
 20
649.3112663175704
 30
0.0
  0
VERTEX
  5
235
330
1F8
100
AcDbEntity
  8
Make2D$可见线$普通线
100
AcDbVertex
100
AcDb2dVertex
 10
417.6815644636709
 20
649.3116211243705
 30
0.0
  0
VERTEX
  5
236
330
1F8
100
AcDbEntity
  8
Make2D$可见线$普通线
100
AcDbVertex
100
AcDb2dVertex
 10
417.6798263771801
 20
649.3119397159447
 30
0.0
  0
VERTEX
  5
237
330
1F8
100
AcDbEntity
  8
Make2D$可见线$普通线
100
AcDbVertex
100
AcDb2dVertex
 10
417.6780892772924
 20
649.3122207995998
 30
0.0
  0
VERTEX
  5
238
330
1F8
100
AcDbEntity
  8
Make2D$可见线$普通线
100
AcDbVertex
100
AcDb2dVertex
 10
417.6763538106175
 20
649.3124630826427
 30
0.0
  0
VERTEX
  5
239
330
1F8
100
AcDbEntity
  8
Make2D$可见线$普通线
100
AcDbVertex
100
AcDb2dVertex
 10
417.6746206237653
 20
649.3126652723804
 30
0.0
  0
VERTEX
  5
23A
330
1F8
100
AcDbEntity
  8
Make2D$可见线$普通线
100
AcDbVertex
100
AcDb2dVertex
 10
417.6728903633456
 20
649.3128260761197
 30
0.0
  0
VERTEX
  5
23B
330
1F8
100
AcDbEntity
  8
Make2D$可见线$普通线
100
AcDbVertex
100
AcDb2dVertex
 10
417.6711636759683
 20
649.3129442011675
 30
0.0
  0
VERTEX
  5
23C
330
1F8
100
AcDbEntity
  8
Make2D$可见线$普通线
100
AcDbVertex
100
AcDb2dVertex
 10
417.669441208243
 20
649.3130183548307
 30
0.0
  0
VERTEX
  5
23D
330
1F8
100
AcDbEntity
  8
Make2D$可见线$普通线
100
AcDbVertex
100
AcDb2dVertex
 10
417.6677236067798
 20
649.3130472444162
 30
0.0
  0
VERTEX
  5
23E
330
1F8
100
AcDbEntity
  8
Make2D$可见线$普通线
100
AcDbVertex
100
AcDb2dVertex
 10
417.6660115181884
 20
649.313029577231
 30
0.0
  0
VERTEX
  5
23F
330
1F8
100
AcDbEntity
  8
Make2D$可见线$普通线
100
AcDbVertex
100
AcDb2dVertex
 10
417.6643055890787
 20
649.3129640605816
 30
0.0
  0
VERTEX
  5
240
330
1F8
100
AcDbEntity
  8
Make2D$可见线$普通线
100
AcDbVertex
100
AcDb2dVertex
 10
417.6626064660605
 20
649.3128494017753
 30
0.0
  0
VERTEX
  5
241
330
1F8
100
AcDbEntity
  8
Make2D$可见线$普通线
100
AcDbVertex
100
AcDb2dVertex
 10
417.6609147957436
 20
649.3126843081188
 30
0.0
  0
VERTEX
  5
242
330
1F8
100
AcDbEntity
  8
Make2D$可见线$普通线
100
AcDbVertex
100
AcDb2dVertex
 10
417.6592312247378
 20
649.3124674869191
 30
0.0
  0
VERTEX
  5
243
330
1F8
100
AcDbEntity
  8
Make2D$可见线$普通线
100
AcDbVertex
100
AcDb2dVertex
 10
417.6575563996529
 20
649.312197645483
 30
0.0
  0
VERTEX
  5
244
330
1F8
100
AcDbEntity
  8
Make2D$可见线$普通线
100
AcDbVertex
100
AcDb2dVertex
 10
417.655890967099
 20
649.3118734911175
 30
0.0
  0
VERTEX
  5
245
330
1F8
100
AcDbEntity
  8
Make2D$可见线$普通线
100
AcDbVertex
100
AcDb2dVertex
 10
417.6542355736856
 20
649.3114937311293
 30
0.0
  0
VERTEX
  5
246
330
1F8
100
AcDbEntity
  8
Make2D$可见线$普通线
100
AcDbVertex
100
AcDb2dVertex
 10
417.6525908660228
 20
649.3110570728254
 30
0.0
  0
VERTEX
  5
247
330
1F8
100
AcDbEntity
  8
Make2D$可见线$普通线
100
AcDbVertex
100
AcDb2dVertex
 10
417.6517727214134
 20
649.3108170028386
 30
0.0
  0
VERTEX
  5
248
330
1F8
100
AcDbEntity
  8
Make2D$可见线$普通线
100
AcDbVertex
100
AcDb2dVertex
 10
417.6509574907202
 20
649.3105622235128
 30
0.0
  0
VERTEX
  5
249
330
1F8
100
AcDbEntity
  8
Make2D$可见线$普通线
100
AcDbVertex
100
AcDb2dVertex
 10
417.6501452547697
 20
649.3102925732614
 30
0.0
  0
VERTEX
  5
24A
330
1F8
100
AcDbEntity
  8
Make2D$可见线$普通线
100
AcDbVertex
100
AcDb2dVertex
 10
417.6493360943879
 20
649.3100078904981
 30
0.0
  0
VERTEX
  5
24B
330
1F8
100
AcDbEntity
  8
Make2D$可见线$普通线
100
AcDbVertex
100
AcDb2dVertex
 10
417.648530090401
 20
649.309708013636
 30
0.0
  0
VERTEX
  5
24C
330
1F8
100
AcDbEntity
  8
Make2D$可见线$普通线
100
AcDbVertex
100
AcDb2dVertex
 10
417.6477273236354
 20
649.3093927810885
 30
0.0
  0
VERTEX
  5
24D
330
1F8
100
AcDbEntity
  8
Make2D$可见线$普通线
100
AcDbVertex
100
AcDb2dVertex
 10
417.6469278749173
 20
649.3090620312689
 30
0.0
  0
VERTEX
  5
24E
330
1F8
100
AcDbEntity
  8
Make2D$可见线$普通线
100
AcDbVertex
100
AcDb2dVertex
 10
417.6461318250728
 20
649.3087156025906
 30
0.0
  0
VERTEX
  5
24F
330
1F8
100
AcDbEntity
  8
Make2D$可见线$普通线
100
AcDbVertex
100
AcDb2dVertex
 10
417.6453392549282
 20
649.308353333467
 30
0.0
  0
VERTEX
  5
250
330
1F8
100
AcDbEntity
  8
Make2D$可见线$普通线
100
AcDbVertex
100
AcDb2dVertex
 10
417.6445502453098
 20
649.3079750623116
 30
0.0
  0
VERTEX
  5
251
330
1F8
100
AcDbEntity
  8
Make2D$可见线$普通线
100
AcDbVertex
100
AcDb2dVertex
 10
417.6437648770437
 20
649.3075806275375
 30
0.0
  0
VERTEX
  5
252
330
1F8
100
AcDbEntity
  8
Make2D$可见线$普通线
100
AcDbVertex
100
AcDb2dVertex
 10
417.6429832309563
 20
649.3071698675582
 30
0.0
  0
VERTEX
  5
253
330
1F8
100
AcDbEntity
  8
Make2D$可见线$普通线
100
AcDbVertex
100
AcDb2dVertex
 10
417.6422053878737
 20
649.3067426207871
 30
0.0
  0
VERTEX
  5
254
330
1F8
100
AcDbEntity
  8
Make2D$可见线$普通线
100
AcDbVertex
100
AcDb2dVertex
 10
417.6414314286221
 20
649.3062987256374
 30
0.0
  0
VERTEX
  5
255
330
1F8
100
AcDbEntity
  8
Make2D$可见线$普通线
100
AcDbVertex
100
AcDb2dVertex
 10
417.6406614340278
 20
649.3058380205225
 30
0.0
  0
VERTEX
  5
256
330
1F8
100
AcDbEntity
  8
Make2D$可见线$普通线
100
AcDbVertex
100
AcDb2dVertex
 10
417.639895484917
 20
649.3053603438559
 30
0.0
  0
VERTEX
  5
257
330
1F8
100
AcDbEntity
  8
Make2D$可见线$普通线
100
AcDbVertex
100
AcDb2dVertex
 10
417.6391336621159
 20
649.3048655340508
 30
0.0
  0
VERTEX
  5
258
330
1F8
100
AcDbEntity
  8
Make2D$可见线$普通线
100
AcDbVertex
100
AcDb2dVertex
 10
417.6383760464508
 20
649.3043534295207
 30
0.0
  0
VERTEX
  5
259
330
1F8
100
AcDbEntity
  8
Make2D$可见线$普通线
100
AcDbVertex
100
AcDb2dVertex
 10
417.637622718748
 20
649.3038238686789
 30
0.0
  0
VERTEX
  5
25A
330
1F8
100
AcDbEntity
  8
Make2D$可见线$普通线
100
AcDbVertex
100
AcDb2dVertex
 10
417.6368737598335
 20
649.3032766899388
 30
0.0
  0
VERTEX
  5
25B
330
1F8
100
AcDbEntity
  8
Make2D$可见线$普通线
100
AcDbVertex
100
AcDb2dVertex
 10
417.6361292505337
 20
649.3027117317135
 30
0.0
  0
VERTEX
  5
25C
330
1F8
100
AcDbEntity
  8
Make2D$可见线$普通线
100
AcDbVertex
100
AcDb2dVertex
 10
417.6353892716749
 20
649.3021288324169
 30
0.0
  0
VERTEX
  5
25D
330
1F8
100
AcDbEntity
  8
Make2D$可见线$普通线
100
AcDbVertex
100
AcDb2dVertex
 10
417.6346539040831
 20
649.3015278304619
 30
0.0
  0
VERTEX
  5
25E
330
1F8
100
AcDbEntity
  8
Make2D$可见线$普通线
100
AcDbVertex
100
AcDb2dVertex
 10
417.6339232285846
 20
649.3009085642619
 30
0.0
  0
VERTEX
  5
25F
330
1F8
100
AcDbEntity
  8
Make2D$可见线$普通线
100
AcDbVertex
100
AcDb2dVertex
 10
417.6331973260057
 20
649.3002708722304
 30
0.0
  0
VERTEX
  5
260
330
1F8
100
AcDbEntity
  8
Make2D$可见线$普通线
100
AcDbVertex
100
AcDb2dVertex
 10
417.6324762771726
 20
649.2996145927808
 30
0.0
  0
VERTEX
  5
261
330
1F8
100
AcDbEntity
  8
Make2D$可见线$普通线
100
AcDbVertex
100
AcDb2dVertex
 10
417.6310490640487
 20
649.2982456252805
 30
0.0
  0
VERTEX
  5
262
330
1F8
100
AcDbEntity
  8
Make2D$可见线$普通线
100
AcDbVertex
100
AcDb2dVertex
 10
417.6296422358229
 20
649.2968003690679
 30
0.0
  0
VERTEX
  5
263
330
1F8
100
AcDbEntity
  8
Make2D$可见线$普通线
100
AcDbVertex
100
AcDb2dVertex
 10
417.6282564391047
 20
649.2952775314498
 30
0.0
  0
VERTEX
  5
264
330
1F8
100
AcDbEntity
  8
Make2D$可见线$普通线
100
AcDbVertex
100
AcDb2dVertex
 10
417.6268923205042
 20
649.2936758197332
 30
0.0
  0
VERTEX
  5
265
330
1F8
100
AcDbEntity
  8
Make2D$可见线$普通线
100
AcDbVertex
100
AcDb2dVertex
 10
417.6255505266312
 20
649.2919939412247
 30
0.0
  0
VERTEX
  5
266
330
1F8
100
AcDbEntity
  8
Make2D$可见线$普通线
100
AcDbVertex
100
AcDb2dVertex
 10
417.6242317040953
 20
649.2902306032316
 30
0.0
  0
VERTEX
  5
267
330
1F8
100
AcDbEntity
  8
Make2D$可见线$普通线
100
AcDbVertex
100
AcDb2dVertex
 10
417.6229364995066
 20
649.2883845130607
 30
0.0
  0
VERTEX
  5
268
330
1F8
100
AcDbEntity
  8
Make2D$可见线$普通线
100
AcDbVertex
100
AcDb2dVertex
 10
417.6216655594749
 20
649.2864543780187
 30
0.0
  0
VERTEX
  5
269
330
1F8
100
AcDbEntity
  8
Make2D$可见线$普通线
100
AcDbVertex
100
AcDb2dVertex
 10
417.62041953061
 20
649.2844389054126
 30
0.0
  0
VERTEX
  5
26A
330
1F8
100
AcDbEntity
  8
Make2D$可见线$普通线
100
AcDbVertex
100
AcDb2dVertex
 10
417.6191990595216
 20
649.2823368025491
 30
0.0
  0
VERTEX
  5
26B
330
1F8
100
AcDbEntity
  8
Make2D$可见线$普通线
100
AcDbVertex
100
AcDb2dVertex
 10
417.6180047928197
 20
649.2801467767356
 30
0.0
  0
VERTEX
  5
26C
330
1F8
100
AcDbEntity
  8
Make2D$可见线$普通线
100
AcDbVertex
100
AcDb2dVertex
 10
417.616837377114
 20
649.2778675352783
 30
0.0
  0
VERTEX
  5
26D
330
1F8
100
AcDbEntity
  8
Make2D$可见线$普通线
100
AcDbVertex
100
AcDb2dVertex
 10
417.6156974590144
 20
649.2754977854846
 30
0.0
  0
VERTEX
  5
26E
330
1F8
100
AcDbEntity
  8
Make2D$可见线$普通线
100
AcDbVertex
100
AcDb2dVertex
 10
417.6145856851307
 20
649.2730362346613
 30
0.0
  0
VERTEX
  5
26F
330
1F8
100
AcDbEntity
  8
Make2D$可见线$普通线
100
AcDbVertex
100
AcDb2dVertex
 10
417.6135027020729
 20
649.2704815901151
 30
0.0
  0
VERTEX
  5
270
330
1F8
100
AcDbEntity
  8
Make2D$可见线$普通线
100
AcDbVertex
100
AcDb2dVertex
 10
417.6124491564506
 20
649.267832559153
 30
0.0
  0
VERTEX
  5
271
330
1F8
100
AcDbEntity
  8
Make2D$可见线$普通线
100
AcDbVertex
100
AcDb2dVertex
 10
417.7757234083064
 20
650.9543560450634
 30
0.0
  0
VERTEX
  5
272
330
1F8
100
AcDbEntity
  8
Make2D$可见线$普通线
100
AcDbVertex
100
AcDb2dVertex
 10
417.9697810769752
 20
652.6372947244668
 30
0.0
  0
VERTEX
  5
273
330
1F8
100
AcDbEntity
  8
Make2D$可见线$普通线
100
AcDbVertex
100
AcDb2dVertex
 10
418.1822429058425
 20
654.2072522354551
 30
0.0
  0
VERTEX
  5
274
330
1F8
100
AcDbEntity
  8
Make2D$可见线$普通线
100
AcDbVertex
100
AcDb2dVertex
 10
418.4258313220619
 20
655.7727385736283
 30
0.0
  0
VERTEX
  5
275
330
1F8
100
AcDbEntity
  8
Make2D$可见线$普通线
100
AcDbVertex
100
AcDb2dVertex
 10
418.7049273910185
 20
657.3515293823036
 30
0.0
  0
VERTEX
  5
276
330
1F8
100
AcDbEntity
  8
Make2D$可见线$普通线
100
AcDbVertex
100
AcDb2dVertex
 10
419.018379855107
 20
658.9235667385735
 30
0.0
  0
VERTEX
  5
277
330
1F8
100
AcDbEntity
  8
Make2D$可见线$普通线
100
AcDbVertex
100
AcDb2dVertex
 10
419.3680260209007
 20
660.4881040585113
 30
0.0
  0
VERTEX
  5
278
330
1F8
100
AcDbEntity
  8
Make2D$可见线$普通线
100
AcDbVertex
100
AcDb2dVertex
 10
419.7557031949727
 20
662.0443947581902
 30
0.0
  0
VERTEX
  5
279
330
1F8
100
AcDbEntity
  8
Make2D$可见线$普通线
100
AcDbVertex
100
AcDb2dVertex
 10
420.0526271455113
 20
663.1294501382645
 30
0.0
  0
VERTEX
  5
27A
330
1F8
100
AcDbEntity
  8
Make2D$可见线$普通线
100
AcDbVertex
100
AcDb2dVertex
 10
420.3785926006635
 20
664.2056012389692
 30
0.0
  0
VERTEX
  5
27B
330
1F8
100
AcDbEntity
  8
Make2D$可见线$普通线
100
AcDbVertex
100
AcDb2dVertex
 10
420.5554177444957
 20
664.7389364184552
 30
0.0
  0
VERTEX
  5
27C
330
1F8
100
AcDbEntity
  8
Make2D$可见线$普通线
100
AcDbVertex
100
AcDb2dVertex
 10
420.7430454869126
 20
665.2683640087755
 30
0.0
  0
VERTEX
  5
27D
330
1F8
100
AcDbEntity
  8
Make2D$可见线$普通线
100
AcDbVertex
100
AcDb2dVertex
 10
420.9426565687245
 20
665.7933235034889
 30
0.0
  0
VERTEX
  5
27E
330
1F8
100
AcDbEntity
  8
Make2D$可见线$普通线
100
AcDbVertex
100
AcDb2dVertex
 10
421.1554317307417
 20
666.3132543961544
 30
0.0
  0
VERTEX
  5
27F
330
1F8
100
AcDbEntity
  8
Make2D$可见线$普通线
100
AcDbVertex
100
AcDb2dVertex
 10
421.3474801544914
 20
666.7506842150021
 30
0.0
  0
VERTEX
  5
280
330
1F8
100
AcDbEntity
  8
Make2D$可见线$普通线
100
AcDbVertex
100
AcDb2dVertex
 10
421.550517503092
 20
667.1832485517054
 30
0.0
  0
VERTEX
  5
281
330
1F8
100
AcDbEntity
  8
Make2D$可见线$普通线
100
AcDbVertex
100
AcDb2dVertex
 10
421.7651713439433
 20
667.6101189735066
 30
0.0
  0
VERTEX
  5
282
330
1F8
100
AcDbEntity
  8
Make2D$可见线$普通线
100
AcDbVertex
100
AcDb2dVertex
 10
421.9920692444454
 20
668.0304670476485
 30
0.0
  0
VERTEX
  5
283
330
1F8
100
AcDbEntity
  8
Make2D$可见线$普通线
100
AcDbVertex
100
AcDb2dVertex
 10
422.2318387719979
 20
668.4434643413733
 30
0.0
  0
VERTEX
  5
284
330
1F8
100
AcDbEntity
  8
Make2D$可见线$普通线
100
AcDbVertex
100
AcDb2dVertex
 10
422.4851074940008
 20
668.8482824219238
 30
0.0
  0
VERTEX
  5
285
330
1F8
100
AcDbEntity
  8
Make2D$可见线$普通线
100
AcDbVertex
100
AcDb2dVertex
 10
422.6170001677335
 20
669.047365372022
 30
0.0
  0
VERTEX
  5
286
330
1F8
100
AcDbEntity
  8
Make2D$可见线$普通线
100
AcDbVertex
100
AcDb2dVertex
 10
422.7525029778537
 20
669.2440928565425
 30
0.0
  0
VERTEX
  5
287
330
1F8
100
AcDbEntity
  8
Make2D$可见线$普通线
100
AcDbVertex
100
AcDb2dVertex
 10
422.8916943702865
 20
669.4383613213904
 30
0.0
  0
VERTEX
  5
288
330
1F8
100
AcDbEntity
  8
Make2D$可见线$普通线
100
AcDbVertex
100
AcDb2dVertex
 10
423.0346527909568
 20
669.6300672124714
 30
0.0
 42
-0.1443541666568949
  0
VERTEX
  5
289
330
1F8
100
AcDbEntity
  8
Make2D$可见线$普通线
100
AcDbVertex
100
AcDb2dVertex
 10
428.3228762317974
 20
673.660348643495
 30
0.0
  0
VERTEX
  5
28A
330
1F8
100
AcDbEntity
  8
Make2D$可见线$普通线
100
AcDbVertex
100
AcDb2dVertex
 10
428.4678756649682
 20
673.7061863098412
 30
0.0
  0
SEQEND
  5
28B
330
1F8
100
AcDbEntity
  8
Make2D$可见线$普通线
  0
POLYLINE
  5
28C
330
1F
100
AcDbEntity
  8
Make2D$可见线$普通线
100
AcDb2dPolyline
 66
     1
 10
0.0
 20
0.0
 30
0.0
  0
VERTEX
  5
28D
330
28C
100
AcDbEntity
  8
Make2D$可见线$普通线
100
AcDbVertex
100
AcDb2dVertex
 10
493.2851445410547
 20
612.7543078224253
 30
0.0
 42
0.040272181374792
  0
VERTEX
  5
28E
330
28C
100
AcDbEntity
  8
Make2D$可见线$普通线
100
AcDbVertex
100
AcDb2dVertex
 10
487.4708413982007
 20
618.1981465143419
 30
0.0
 42
0.20174928789636
  0
VERTEX
  5
28F
330
28C
100
AcDbEntity
  8
Make2D$可见线$普通线
100
AcDbVertex
100
AcDb2dVertex
 10
487.0035519505564
 20
618.3812690436165
 30
0.0
 42
0.0802335547933005
  0
VERTEX
  5
290
330
28C
100
AcDbEntity
  8
Make2D$可见线$普通线
100
AcDbVertex
100
AcDb2dVertex
 10
467.4906974846931
 20
629.1182062547721
 30
0.0
 42
0.0173524264570796
  0
VERTEX
  5
291
330
28C
100
AcDbEntity
  8
Make2D$可见线$普通线
100
AcDbVertex
100
AcDb2dVertex
 10
461.2682928634375
 20
631.1457005386936
 30
0.0
 42
0.0210062564211072
  0
VERTEX
  5
292
330
28C
100
AcDbEntity
  8
Make2D$可见线$普通线
100
AcDbVertex
100
AcDb2dVertex
 10
458.967024952633
 20
631.8752228737841
 30
0.0
  0
VERTEX
  5
293
330
28C
100
AcDbEntity
  8
Make2D$可见线$普通线
100
AcDbVertex
100
AcDb2dVertex
 10
457.0866899364235
 20
632.5479136156591
 30
0.0
  0
SEQEND
  5
294
330
28C
100
AcDbEntity
  8
Make2D$可见线$普通线
  0
POLYLINE
  5
295
330
1F
100
AcDbEntity
  8
Make2D$可见线$普通线
100
AcDb2dPolyline
 66
     1
 10
0.0
 20
0.0
 30
0.0
  0
VERTEX
  5
296
330
295
100
AcDbEntity
  8
Make2D$可见线$普通线
100
AcDbVertex
100
AcDb2dVertex
 10
451.5426888177331
 20
471.9260258905242
 30
0.0
 42
-0.0187923834100072
  0
VERTEX
  5
297
330
295
100
AcDbEntity
  8
Make2D$可见线$普通线
100
AcDbVertex
100
AcDb2dVertex
 10
450.47493130924
 20
473.3181369327365
 30
0.0
  0
VERTEX
  5
298
330
295
100
AcDbEntity
  8
Make2D$可见线$普通线
100
AcDbVertex
100
AcDb2dVertex
 10
450.5537534520307
 20
473.2905495217584
 30
0.0
 42
0.0333332840475217
  0
VERTEX
  5
299
330
295
100
AcDbEntity
  8
Make2D$可见线$普通线
100
AcDbVertex
100
AcDb2dVertex
 10
451.7249628514588
 20
472.6400502007344
 30
0.0
 42
0.1105090758117598
  0
VERTEX
  5
29A
330
295
100
AcDbEntity
  8
Make2D$可见线$普通线
100
AcDbVertex
100
AcDb2dVertex
 10
456.0483376036821
 20
471.6737805334783
 30
0.0
 42
0.1477135611008786
  0
VERTEX
  5
29B
330
295
100
AcDbEntity
  8
Make2D$可见线$普通线
100
AcDbVertex
100
AcDb2dVertex
 10
461.6540234808628
 20
473.3633890239259
 30
0.0
 42
-0.0191808887214356
  0
VERTEX
  5
29C
330
295
100
AcDbEntity
  8
Make2D$可见线$普通线
100
AcDbVertex
100
AcDb2dVertex
 10
460.5539863896311
 20
471.9260258905243
 30
0.0
 42
0.1703356312234718
  0
VERTEX
  5
29D
330
295
100
AcDbEntity
  8
Make2D$可见线$普通线
100
AcDbVertex
100
AcDb2dVertex
 10
464.7489750142146
 20
476.4828336585107
 30
0.0
  0
VERTEX
  5
29E
330
295
100
AcDbEntity
  8
Make2D$可见线$普通线
100
AcDbVertex
100
AcDb2dVertex
 10
466.2039754576142
 20
479.8494441837801
 30
0.0
  0
SEQEND
  5
29F
330
295
100
AcDbEntity
  8
Make2D$可见线$普通线
  0
POLYLINE
  5
2A0
330
1F
100
AcDbEntity
  8
Make2D$可见线$普通线
100
AcDb2dPolyline
 66
     1
 10
0.0
 20
0.0
 30
0.0
  0
VERTEX
  5
2A1
330
2A0
100
AcDbEntity
  8
Make2D$可见线$普通线
100
AcDbVertex
100
AcDb2dVertex
 10
396.959969062374
 20
628.4887566960297
 30
0.0
  0
VERTEX
  5
2A2
330
2A0
100
AcDbEntity
  8
Make2D$可见线$普通线
100
AcDbVertex
100
AcDb2dVertex
 10
398.6059977268433
 20
629.1182733654844
 30
0.0
  0
VERTEX
  5
2A3
330
2A0
100
AcDbEntity
  8
Make2D$可见线$普通线
100
AcDbVertex
100
AcDb2dVertex
 10
400.3305020894834
 20
629.7308889043866
 30
0.0
  0
SEQEND
  5
2A4
330
2A0
100
AcDbEntity
  8
Make2D$可见线$普通线
  0
POLYLINE
  5
2A5
330
1F
100
AcDbEntity
  8
Make2D$可见线$普通线
100
AcDb2dPolyline
 66
     1
 10
0.0
 20
0.0
 30
0.0
  0
VERTEX
  5
2A6
330
2A5
100
AcDbEntity
  8
Make2D$可见线$普通线
100
AcDbVertex
100
AcDb2dVertex
 10
502.4207178649177
 20
591.1121487701582
 30
0.0
  0
VERTEX
  5
2A7
330
2A5
100
AcDbEntity
  8
Make2D$可见线$普通线
100
AcDbVertex
100
AcDb2dVertex
 10
502.9580722341209
 20
580.2734975775945
 30
0.0
  0
VERTEX
  5
2A8
330
2A5
100
AcDbEntity
  8
Make2D$可见线$普通线
100
AcDbVertex
100
AcDb2dVertex
 10
502.9828519877225
 20
579.6065634125911
 30
0.0
  0
VERTEX
  5
2A9
330
2A5
100
AcDbEntity
  8
Make2D$可见线$普通线
100
AcDbVertex
100
AcDb2dVertex
 10
502.9910685576538
 20
578.942084277443
 30
0.0
  0
VERTEX
  5
2AA
330
2A5
100
AcDbEntity
  8
Make2D$可见线$普通线
100
AcDbVertex
100
AcDb2dVertex
 10
502.9867801349522
 20
578.462056822893
 30
0.0
  0
VERTEX
  5
2AB
330
2A5
100
AcDbEntity
  8
Make2D$可见线$普通线
100
AcDbVertex
100
AcDb2dVertex
 10
502.9738374756706
 20
577.9799114779437
 30
0.0
  0
VERTEX
  5
2AC
330
2A5
100
AcDbEntity
  8
Make2D$可见线$普通线
100
AcDbVertex
100
AcDb2dVertex
 10
502.9521257847238
 20
577.4957242969963
 30
0.0
  0
VERTEX
  5
2AD
330
2A5
100
AcDbEntity
  8
Make2D$可见线$普通线
100
AcDbVertex
100
AcDb2dVertex
 10
502.9215320247384
 20
577.0095735993849
 30
0.0
  0
VERTEX
  5
2AE
330
2A5
100
AcDbEntity
  8
Make2D$可见线$普通线
100
AcDbVertex
100
AcDb2dVertex
 10
502.8819450382168
 20
576.5215399630339
 30
0.0
  0
VERTEX
  5
2AF
330
2A5
100
AcDbEntity
  8
Make2D$可见线$普通线
100
AcDbVertex
100
AcDb2dVertex
 10
502.8332556709171
 20
576.0317062154604
 30
0.0
  0
VERTEX
  5
2B0
330
2A5
100
AcDbEntity
  8
Make2D$可见线$普通线
100
AcDbVertex
100
AcDb2dVertex
 10
502.7753568962884
 20
575.5401574220465
 30
0.0
  0
VERTEX
  5
2B1
330
2A5
100
AcDbEntity
  8
Make2D$可见线$普通线
100
AcDbVertex
100
AcDb2dVertex
 10
502.7081439408084
 20
575.0469808715208
 30
0.0
  0
VERTEX
  5
2B2
330
2A5
100
AcDbEntity
  8
Make2D$可见线$普通线
100
AcDbVertex
100
AcDb2dVertex
 10
502.6315144100489
 20
574.5522660585834
 30
0.0
  0
VERTEX
  5
2B3
330
2A5
100
AcDbEntity
  8
Make2D$可见线$普通线
100
AcDbVertex
100
AcDb2dVertex
 10
502.5453684152973
 20
574.0561046636179
 30
0.0
  0
VERTEX
  5
2B4
330
2A5
100
AcDbEntity
  8
Make2D$可见线$普通线
100
AcDbVertex
100
AcDb2dVertex
 10
502.4496087005486
 20
573.5585905294328
 30
0.0
  0
VERTEX
  5
2B5
330
2A5
100
AcDbEntity
  8
Make2D$可见线$普通线
100
AcDbVertex
100
AcDb2dVertex
 10
502.3441407696801
 20
573.0598196349863
 30
0.0
  0
VERTEX
  5
2B6
330
2A5
100
AcDbEntity
  8
Make2D$可见线$普通线
100
AcDbVertex
100
AcDb2dVertex
 10
502.2288730136114
 20
572.5598900660482
 30
0.0
  0
VERTEX
  5
2B7
330
2A5
100
AcDbEntity
  8
Make2D$可见线$普通线
100
AcDbVertex
100
AcDb2dVertex
 10
502.1037168372465
 20
572.0589019827545
 30
0.0
  0
VERTEX
  5
2B8
330
2A5
100
AcDbEntity
  8
Make2D$可见线$普通线
100
AcDbVertex
100
AcDb2dVertex
 10
501.9685867859894
 20
571.5569575840261
 30
0.0
  0
VERTEX
  5
2B9
330
2A5
100
AcDbEntity
  8
Make2D$可见线$普通线
100
AcDbVertex
100
AcDb2dVertex
 10
501.8234006716187
 20
571.0541610688178
 30
0.0
  0
VERTEX
  5
2BA
330
2A5
100
AcDbEntity
  8
Make2D$可见线$普通线
100
AcDbVertex
100
AcDb2dVertex
 10
501.6680796973007
 20
570.5506185941746
 30
0.0
  0
VERTEX
  5
2BB
330
2A5
100
AcDbEntity
  8
Make2D$可见线$普通线
100
AcDbVertex
100
AcDb2dVertex
 10
501.502548581516
 20
570.0464382300803
 30
0.0
  0
VERTEX
  5
2BC
330
2A5
100
AcDbEntity
  8
Make2D$可见线$普通线
100
AcDbVertex
100
AcDb2dVertex
 10
501.3267356806698
 20
569.5417299110858
 30
0.0
  0
VERTEX
  5
2BD
330
2A5
100
AcDbEntity
  8
Make2D$可见线$普通线
100
AcDbVertex
100
AcDb2dVertex
 10
501.1405731101548
 20
569.0366053847117
 30
0.0
  0
VERTEX
  5
2BE
330
2A5
100
AcDbEntity
  8
Make2D$可见线$普通线
100
AcDbVertex
100
AcDb2dVertex
 10
500.9439968636255
 20
568.5311781566304
 30
0.0
  0
VERTEX
  5
2BF
330
2A5
100
AcDbEntity
  8
Make2D$可见线$普通线
100
AcDbVertex
100
AcDb2dVertex
 10
500.7369469302478
 20
568.0255634326359
 30
0.0
  0
VERTEX
  5
2C0
330
2A5
100
AcDbEntity
  8
Make2D$可见线$普通线
100
AcDbVertex
100
AcDb2dVertex
 10
500.5193674096809
 20
567.5198780574184
 30
0.0
  0
VERTEX
  5
2C1
330
2A5
100
AcDbEntity
  8
Make2D$可见线$普通线
100
AcDbVertex
100
AcDb2dVertex
 10
500.2912066245472
 20
567.0142404501686
 30
0.0
  0
VERTEX
  5
2C2
330
2A5
100
AcDbEntity
  8
Make2D$可见线$普通线
100
AcDbVertex
100
AcDb2dVertex
 10
499.8029563211571
 20
566.0035896805407
 30
0.0
  0
VERTEX
  5
2C3
330
2A5
100
AcDbEntity
  8
Make2D$可见线$普通线
100
AcDbVertex
100
AcDb2dVertex
 10
499.2718711523948
 20
564.994587323954
 30
0.0
  0
VERTEX
  5
2C4
330
2A5
100
AcDbEntity
  8
Make2D$可见线$普通线
100
AcDbVertex
100
AcDb2dVertex
 10
498.6977005058979
 20
563.9882301328113
 30
0.0
  0
VERTEX
  5
2C5
330
2A5
100
AcDbEntity
  8
Make2D$可见线$普通线
100
AcDbVertex
100
AcDb2dVertex
 10
498.0802710369228
 20
562.9855328197993
 30
0.0
  0
VERTEX
  5
2C6
330
2A5
100
AcDbEntity
  8
Make2D$可见线$普通线
100
AcDbVertex
100
AcDb2dVertex
 10
497.4194894114228
 20
561.9875252885769
 30
0.0
  0
VERTEX
  5
2C7
330
2A5
100
AcDbEntity
  8
Make2D$可见线$普通线
100
AcDbVertex
100
AcDb2dVertex
 10
496.7153447505139
 20
560.995249698886
 30
0.0
  0
VERTEX
  5
2C8
330
2A5
100
AcDbEntity
  8
Make2D$可见线$普通线
100
AcDbVertex
100
AcDb2dVertex
 10
495.9679107483623
 20
560.0097573799384
 30
0.0
  0
VERTEX
  5
2C9
330
2A5
100
AcDbEntity
  8
Make2D$可见线$普通线
100
AcDbVertex
100
AcDb2dVertex
 10
495.1773474373452
 20
559.0321056078999
 30
0.0
  0
VERTEX
  5
2CA
330
2A5
100
AcDbEntity
  8
Make2D$可见线$普通线
100
AcDbVertex
100
AcDb2dVertex
 10
494.3439025765516
 20
558.0633542651697
 30
0.0
  0
VERTEX
  5
2CB
330
2A5
100
AcDbEntity
  8
Make2D$可见线$普通线
100
AcDbVertex
100
AcDb2dVertex
 10
493.4679126422815
 20
557.1045624008927
 30
0.0
  0
VERTEX
  5
2CC
330
2A5
100
AcDbEntity
  8
Make2D$可见线$普通线
100
AcDbVertex
100
AcDb2dVertex
 10
492.5498034021537
 20
556.1567847137311
 30
0.0
  0
VERTEX
  5
2CD
330
2A5
100
AcDbEntity
  8
Make2D$可见线$普通线
100
AcDbVertex
100
AcDb2dVertex
 10
491.5900900577104
 20
555.2210679793062
 30
0.0
  0
VERTEX
  5
2CE
330
2A5
100
AcDbEntity
  8
Make2D$可见线$普通线
100
AcDbVertex
100
AcDb2dVertex
 10
490.5893769439828
 20
554.2984474458964
 30
0.0
  0
VERTEX
  5
2CF
330
2A5
100
AcDbEntity
  8
Make2D$可见线$普通线
100
AcDbVertex
100
AcDb2dVertex
 10
489.5483567783043
 20
553.3899432228984
 30
0.0
  0
VERTEX
  5
2D0
330
2A5
100
AcDbEntity
  8
Make2D$可见线$普通线
100
AcDbVertex
100
AcDb2dVertex
 10
488.4678094546879
 20
552.4965566872208
 30
0.0
  0
VERTEX
  5
2D1
330
2A5
100
AcDbEntity
  8
Make2D$可见线$普通线
100
AcDbVertex
100
AcDb2dVertex
 10
487.3486003842528
 20
551.6192669331402
 30
0.0
  0
VERTEX
  5
2D2
330
2A5
100
AcDbEntity
  8
Make2D$可见线$普通线
100
AcDbVertex
100
AcDb2dVertex
 10
486.1916783864533
 20
550.7590272912324
 30
0.0
  0
VERTEX
  5
2D3
330
2A5
100
AcDbEntity
  8
Make2D$可见线$普通线
100
AcDbVertex
100
AcDb2dVertex
 10
484.9980731401448
 20
549.9167619417456
 30
0.0
  0
VERTEX
  5
2D4
330
2A5
100
AcDbEntity
  8
Make2D$可见线$普通线
100
AcDbVertex
100
AcDb2dVertex
 10
483.7688922077811
 20
549.0933626472437
 30
0.0
  0
VERTEX
  5
2D5
330
2A5
100
AcDbEntity
  8
Make2D$可见线$普通线
100
AcDbVertex
100
AcDb2dVertex
 10
482.5053176501722
 20
548.2896856284895
 30
0.0
  0
VERTEX
  5
2D6
330
2A5
100
AcDbEntity
  8
Make2D$可见线$普通线
100
AcDbVertex
100
AcDb2dVertex
 10
481.2086022532292
 20
547.5065486063902
 30
0.0
  0
VERTEX
  5
2D7
330
2A5
100
AcDbEntity
  8
Make2D$可见线$普通线
100
AcDbVertex
100
AcDb2dVertex
 10
479.8800653918576
 20
546.7447280313907
 30
0.0
  0
VERTEX
  5
2D8
330
2A5
100
AcDbEntity
  8
Make2D$可见线$普通线
100
AcDbVertex
100
AcDb2dVertex
 10
478.5210885596465
 20
546.0049565200035
 30
0.0
  0
VERTEX
  5
2D9
330
2A5
100
AcDbEntity
  8
Make2D$可见线$普通线
100
AcDbVertex
100
AcDb2dVertex
 10
477.1331105961102
 20
545.2879205162228
 30
0.0
  0
VERTEX
  5
2DA
330
2A5
100
AcDbEntity
  8
Make2D$可见线$普通线
100
AcDbVertex
100
AcDb2dVertex
 10
475.7176226459957
 20
544.5942581934236
 30
0.0
  0
VERTEX
  5
2DB
330
2A5
100
AcDbEntity
  8
Make2D$可见线$普通线
100
AcDbVertex
100
AcDb2dVertex
 10
474.2761628874708
 20
543.9245576100195
 30
0.0
  0
VERTEX
  5
2DC
330
2A5
100
AcDbEntity
  8
Make2D$可见线$普通线
100
AcDbVertex
100
AcDb2dVertex
 10
472.8103110678783
 20
543.2793551296893
 30
0.0
  0
VERTEX
  5
2DD
330
2A5
100
AcDbEntity
  8
Make2D$可见线$普通线
100
AcDbVertex
100
AcDb2dVertex
 10
471.3216828871037
 20
542.6591341144028
 30
0.0
  0
VERTEX
  5
2DE
330
2A5
100
AcDbEntity
  8
Make2D$可见线$普通线
100
AcDbVertex
100
AcDb2dVertex
 10
469.8119242694995
 20
542.0643238958532
 30
0.0
  0
VERTEX
  5
2DF
330
2A5
100
AcDbEntity
  8
Make2D$可见线$普通线
100
AcDbVertex
100
AcDb2dVertex
 10
468.2827055656751
 20
541.4952990282369
 30
0.0
  0
VERTEX
  5
2E0
330
2A5
100
AcDbEntity
  8
Make2D$可见线$普通线
100
AcDbVertex
100
AcDb2dVertex
 10
466.7357157253599
 20
540.9523788226832
 30
0.0
  0
VERTEX
  5
2E1
330
2A5
100
AcDbEntity
  8
Make2D$可见线$普通线
100
AcDbVertex
100
AcDb2dVertex
 10
465.1726564819393
 20
540.4358271610528
 30
0.0
  0
VERTEX
  5
2E2
330
2A5
100
AcDbEntity
  8
Make2D$可见线$普通线
100
AcDbVertex
100
AcDb2dVertex
 10
463.5952365882103
 20
539.9458525843191
 30
0.0
  0
VERTEX
  5
2E3
330
2A5
100
AcDbEntity
  8
Make2D$可见线$普通线
100
AcDbVertex
100
AcDb2dVertex
 10
462.0051661414087
 20
539.4826086483898
 30
0.0
  0
VERTEX
  5
2E4
330
2A5
100
AcDbEntity
  8
Make2D$可见线$普通线
100
AcDbVertex
100
AcDb2dVertex
 10
460.4041510336715
 20
539.0461945379959
 30
0.0
  0
VERTEX
  5
2E5
330
2A5
100
AcDbEntity
  8
Make2D$可见线$普通线
100
AcDbVertex
100
AcDb2dVertex
 10
458.793887561856
 20
538.6366559272569
 30
0.0
  0
VERTEX
  5
2E6
330
2A5
100
AcDbEntity
  8
Make2D$可见线$普通线
100
AcDbVertex
100
AcDb2dVertex
 10
457.1760572280812
 20
538.2539860736895
 30
0.0
  0
VERTEX
  5
2E7
330
2A5
100
AcDbEntity
  8
Make2D$可见线$普通线
100
AcDbVertex
100
AcDb2dVertex
 10
455.5523217595428
 20
537.8981271308293
 30
0.0
  0
VERTEX
  5
2E8
330
2A5
100
AcDbEntity
  8
Make2D$可见线$普通线
100
AcDbVertex
100
AcDb2dVertex
 10
453.9243183731352
 20
537.5689716632606
 30
0.0
  0
VERTEX
  5
2E9
330
2A5
100
AcDbEntity
  8
Make2D$可见线$普通线
100
AcDbVertex
100
AcDb2dVertex
 10
452.2936553072253
 20
537.2663643467175
 30
0.0
  0
VERTEX
  5
2EA
330
2A5
100
AcDbEntity
  8
Make2D$可见线$普通线
100
AcDbVertex
100
AcDb2dVertex
 10
450.6619076396524
 20
536.9901038350442
 30
0.0
  0
VERTEX
  5
2EB
330
2A5
100
AcDbEntity
  8
Make2D$可见线$普通线
100
AcDbVertex
100
AcDb2dVertex
 10
449.0306134076821
 20
536.739944775162
 30
0.0
  0
VERTEX
  5
2EC
330
2A5
100
AcDbEntity
  8
Make2D$可见线$普通线
100
AcDbVertex
100
AcDb2dVertex
 10
447.4012700423106
 20
536.5155999508002
 30
0.0
  0
VERTEX
  5
2ED
330
2A5
100
AcDbEntity
  8
Make2D$可见线$普通线
100
AcDbVertex
100
AcDb2dVertex
 10
445.7753311260167
 20
536.316742535584
 30
0.0
  0
VERTEX
  5
2EE
330
2A5
100
AcDbEntity
  8
Make2D$可见线$普通线
100
AcDbVertex
100
AcDb2dVertex
 10
444.1542034798499
 20
536.1430084361396
 30
0.0
  0
VERTEX
  5
2EF
330
2A5
100
AcDbEntity
  8
Make2D$可见线$普通线
100
AcDbVertex
100
AcDb2dVertex
 10
442.5392445826521
 20
535.9939987061296
 30
0.0
  0
VERTEX
  5
2F0
330
2A5
100
AcDbEntity
  8
Make2D$可见线$普通线
100
AcDbVertex
100
AcDb2dVertex
 10
440.9317603222838
 20
535.869282012603
 30
0.0
  0
VERTEX
  5
2F1
330
2A5
100
AcDbEntity
  8
Make2D$可见线$普通线
100
AcDbVertex
100
AcDb2dVertex
 10
439.3330030759755
 20
535.7683971366578
 30
0.0
  0
VERTEX
  5
2F2
330
2A5
100
AcDbEntity
  8
Make2D$可见线$普通线
100
AcDbVertex
100
AcDb2dVertex
 10
437.7441701143913
 20
535.6908554911928
 30
0.0
  0
VERTEX
  5
2F3
330
2A5
100
AcDbEntity
  8
Make2D$可见线$普通线
100
AcDbVertex
100
AcDb2dVertex
 10
436.1664023216771
 20
535.6361436394318
 30
0.0
  0
VERTEX
  5
2F4
330
2A5
100
AcDbEntity
  8
Make2D$可见线$普通线
100
AcDbVertex
100
AcDb2dVertex
 10
434.6007832216938
 20
535.6037257989087
 30
0.0
  0
VERTEX
  5
2F5
330
2A5
100
AcDbEntity
  8
Make2D$可见线$普通线
100
AcDbVertex
100
AcDb2dVertex
 10
433.0483382988151
 20
535.5930463167055
 30
0.0
  0
VERTEX
  5
2F6
330
2A5
100
AcDbEntity
  8
Make2D$可见线$普通线
100
AcDbVertex
100
AcDb2dVertex
 10
431.4958929948098
 20
535.603726140149
 30
0.0
  0
VERTEX
  5
2F7
330
2A5
100
AcDbEntity
  8
Make2D$可见线$普通线
100
AcDbVertex
100
AcDb2dVertex
 10
429.9302735321409
 20
535.6361443198974
 30
0.0
  0
VERTEX
  5
2F8
330
2A5
100
AcDbEntity
  8
Make2D$可见线$普通线
100
AcDbVertex
100
AcDb2dVertex
 10
428.3525053956576
 20
535.690856508126
 30
0.0
  0
VERTEX
  5
2F9
330
2A5
100
AcDbEntity
  8
Make2D$可见线$普通线
100
AcDbVertex
100
AcDb2dVertex
 10
426.7636721096447
 20
535.7683984865395
 30
0.0
  0
VERTEX
  5
2FA
330
2A5
100
AcDbEntity
  8
Make2D$可见线$普通线
100
AcDbVertex
100
AcDb2dVertex
 10
425.1649145586162
 20
535.8692836911376
 30
0.0
  0
VERTEX
  5
2FB
330
2A5
100
AcDbEntity
  8
Make2D$可见线$普通线
100
AcDbVertex
100
AcDb2dVertex
 10
423.5574300135456
 20
535.9940007082328
 30
0.0
  0
VERTEX
  5
2FC
330
2A5
100
AcDbEntity
  8
Make2D$可见线$普通线
100
AcDbVertex
100
AcDb2dVertex
 10
421.9424708519101
 20
536.1430107559283
 30
0.0
  0
VERTEX
  5
2FD
330
2A5
100
AcDbEntity
  8
Make2D$可见线$普通线
100
AcDbVertex
100
AcDb2dVertex
 10
420.3213429617508
 20
536.3167451663713
 30
0.0
  0
VERTEX
  5
2FE
330
2A5
100
AcDbEntity
  8
Make2D$可见线$普通线
100
AcDbVertex
100
AcDb2dVertex
 10
418.6954038220218
 20
536.5156028850937
 30
0.0
  0
VERTEX
  5
2FF
330
2A5
100
AcDbEntity
  8
Make2D$可见线$普通线
100
AcDbVertex
100
AcDb2dVertex
 10
417.0660602538126
 20
536.7399480046657
 30
0.0
  0
VERTEX
  5
300
330
2A5
100
AcDbEntity
  8
Make2D$可见线$普通线
100
AcDbVertex
100
AcDb2dVertex
 10
415.4347658395693
 20
536.9901073506645
 30
0.0
  0
VERTEX
  5
301
330
2A5
100
AcDbEntity
  8
Make2D$可见线$普通线
100
AcDbVertex
100
AcDb2dVertex
 10
413.8030180101799
 20
537.2663681385744
 30
0.0
  0
VERTEX
  5
302
330
2A5
100
AcDbEntity
  8
Make2D$可见线$普通线
100
AcDbVertex
100
AcDb2dVertex
 10
412.1723548027251
 20
537.5689757207022
 30
0.0
  0
VERTEX
  5
303
330
2A5
100
AcDbEntity
  8
Make2D$可见线$普通线
100
AcDbVertex
100
AcDb2dVertex
 10
410.5443512947822
 20
537.8981314424515
 30
0.0
  0
VERTEX
  5
304
330
2A5
100
AcDbEntity
  8
Make2D$可见线$普通线
100
AcDbVertex
100
AcDb2dVertex
 10
408.9206157243792
 20
538.2539906273604
 30
0.0
  0
VERTEX
  5
305
330
2A5
100
AcDbEntity
  8
Make2D$可见线$普通线
100
AcDbVertex
100
AcDb2dVertex
 10
407.3027853079941
 20
538.6366607101455
 30
0.0
  0
VERTEX
  5
306
330
2A5
100
AcDbEntity
  8
Make2D$可见线$普通线
100
AcDbVertex
100
AcDb2dVertex
 10
405.6925217723311
 20
539.046199536605
 30
0.0
  0
VERTEX
  5
307
330
2A5
100
AcDbEntity
  8
Make2D$可见线$普通线
100
AcDbVertex
100
AcDb2dVertex
 10
404.0915066189428
 20
539.4826138485936
 30
0.0
  0
VERTEX
  5
308
330
2A5
100
AcDbEntity
  8
Make2D$可见线$普通线
100
AcDbVertex
100
AcDb2dVertex
 10
402.5014361440488
 20
539.9458579714061
 30
0.0
  0
VERTEX
  5
309
330
2A5
100
AcDbEntity
  8
Make2D$可见线$普通线
100
AcDbVertex
100
AcDb2dVertex
 10
400.9240162390789
 20
540.4358327197712
 30
0.0
  0
VERTEX
  5
30A
330
2A5
100
AcDbEntity
  8
Make2D$可见线$普通线
100
AcDbVertex
100
AcDb2dVertex
 10
399.3609570004963
 20
540.9523845372916
 30
0.0
  0
VERTEX
  5
30B
330
2A5
100
AcDbEntity
  8
Make2D$可见线$普通线
100
AcDbVertex
100
AcDb2dVertex
 10
397.8139671802643
 20
541.4953048825579
 30
0.0
  0
VERTEX
  5
30C
330
2A5
100
AcDbEntity
  8
Make2D$可见线$普通线
100
AcDbVertex
100
AcDb2dVertex
 10
396.2847485108767
 20
542.0643298733308
 30
0.0
  0
VERTEX
  5
30D
330
2A5
100
AcDbEntity
  8
Make2D$可见线$普通线
100
AcDbVertex
100
AcDb2dVertex
 10
394.7749899411205
 20
542.6591401981628
 30
0.0
  0
VERTEX
  5
30E
330
2A5
100
AcDbEntity
  8
Make2D$可见线$普通线
100
AcDbVertex
100
AcDb2dVertex
 10
393.286361820616
 20
543.2793613026022
 30
0.0
  0
VERTEX
  5
30F
330
2A5
100
AcDbEntity
  8
Make2D$可见线$普通线
100
AcDbVertex
100
AcDb2dVertex
 10
391.8205100726862
 20
543.9245638547657
 30
0.0
  0
VERTEX
  5
310
330
2A5
100
AcDbEntity
  8
Make2D$可见线$普通线
100
AcDbVertex
100
AcDb2dVertex
 10
390.3790503961543
 20
544.59426449256
 30
0.0
  0
VERTEX
  5
311
330
2A5
100
AcDbEntity
  8
Make2D$可见线$普通线
100
AcDbVertex
100
AcDb2dVertex
 10
388.963562537273
 20
545.2879268522522
 30
0.0
  0
VERTEX
  5
312
330
2A5
100
AcDbEntity
  8
Make2D$可见线$普通线
100
AcDbVertex
100
AcDb2dVertex
 10
387.5755846731009
 20
546.0049628754424
 30
0.0
  0
VERTEX
  5
313
330
2A5
100
AcDbEntity
  8
Make2D$可见线$普通线
100
AcDbVertex
100
AcDb2dVertex
 10
386.216607947262
 20
546.7447343888398
 30
0.0
  0
VERTEX
  5
314
330
2A5
100
AcDbEntity
  8
Make2D$可见线$普通线
100
AcDbVertex
100
AcDb2dVertex
 10
384.8880711981426
 20
547.5065549486028
 30
0.0
  0
VERTEX
  5
315
330
2A5
100
AcDbEntity
  8
Make2D$可见线$普通线
100
AcDbVertex
100
AcDb2dVertex
 10
383.5913559182053
 20
548.2896919384402
 30
0.0
  0
VERTEX
  5
316
330
2A5
100
AcDbEntity
  8
Make2D$可见线$普通线
100
AcDbVertex
100
AcDb2dVertex
 10
382.327781481239
 20
549.0933689081955
 30
0.0
  0
VERTEX
  5
317
330
2A5
100
AcDbEntity
  8
Make2D$可见线$普通线
100
AcDbVertex
100
AcDb2dVertex
 10
381.0986006720525
 20
549.9167681373156
 30
0.0
  0
VERTEX
  5
318
330
2A5
100
AcDbEntity
  8
Make2D$可见线$普通线
100
AcDbVertex
100
AcDb2dVertex
 10
379.9049955503785
 20
550.7590334054545
 30
0.0
  0
VERTEX
  5
319
330
2A5
100
AcDbEntity
  8
Make2D$可见线$普通线
100
AcDbVertex
100
AcDb2dVertex
 10
378.7480736776216
 20
551.6192729505258
 30
0.0
  0
VERTEX
  5
31A
330
2A5
100
AcDbEntity
  8
Make2D$可见线$普通线
100
AcDbVertex
100
AcDb2dVertex
 10
377.6288647316253
 20
552.496562592816
 30
0.0
  0
VERTEX
  5
31B
330
2A5
100
AcDbEntity
  8
Make2D$可见线$普通线
100
AcDbVertex
100
AcDb2dVertex
 10
376.5483175308729
 20
553.3899490023374
 30
0.0
  0
VERTEX
  5
31C
330
2A5
100
AcDbEntity
  8
Make2D$可见线$普通线
100
AcDbVertex
100
AcDb2dVertex
 10
375.5072974855607
 20
554.2984530854518
 30
0.0
  0
VERTEX
  5
31D
330
2A5
100
AcDbEntity
  8
Make2D$可见线$普通线
100
AcDbVertex
100
AcDb2dVertex
 10
374.5065844888307
 20
555.2210734659346
 30
0.0
  0
VERTEX
  5
31E
330
2A5
100
AcDbEntity
  8
Make2D$可见线$普通线
100
AcDbVertex
100
AcDb2dVertex
 10
373.5468712572024
 20
556.1567900351135
 30
0.0
  0
VERTEX
  5
31F
330
2A5
100
AcDbEntity
  8
Make2D$可见线$普通线
100
AcDbVertex
100
AcDb2dVertex
 10
372.6287621249534
 20
557.1045675454717
 30
0.0
  0
VERTEX
  5
320
330
2A5
100
AcDbEntity
  8
Make2D$可见线$普通线
100
AcDbVertex
100
AcDb2dVertex
 10
371.7527722929361
 20
558.0633592221801
 30
0.0
  0
VERTEX
  5
321
330
2A5
100
AcDbEntity
  8
Make2D$可见线$普通线
100
AcDbVertex
100
AcDb2dVertex
 10
370.9193275281464
 20
559.032110367396
 30
0.0
  0
VERTEX
  5
322
330
2A5
100
AcDbEntity
  8
Make2D$可见线$普通线
100
AcDbVertex
100
AcDb2dVertex
 10
370.1287643063295
 20
560.0097619328141
 30
0.0
  0
VERTEX
  5
323
330
2A5
100
AcDbEntity
  8
Make2D$可见线$普通线
100
AcDbVertex
100
AcDb2dVertex
 10
369.3813303860895
 20
560.9952540368926
 30
0.0
  0
VERTEX
  5
324
330
2A5
100
AcDbEntity
  8
Make2D$可见线$普通线
100
AcDbVertex
100
AcDb2dVertex
 10
368.6771857993891
 20
561.987529404333
 30
0.0
  0
VERTEX
  5
325
330
2A5
100
AcDbEntity
  8
Make2D$可见线$普通线
100
AcDbVertex
100
AcDb2dVertex
 10
368.0164042400506
 20
562.9855367067973
 30
0.0
  0
VERTEX
  5
326
330
2A5
100
AcDbEntity
  8
Make2D$可见线$普通线
100
AcDbVertex
100
AcDb2dVertex
 10
367.3989748289171
 20
563.9882337854191
 30
0.0
  0
VERTEX
  5
327
330
2A5
100
AcDbEntity
  8
Make2D$可见线$普通线
100
AcDbVertex
100
AcDb2dVertex
 10
366.8248042317374
 20
564.9945907374108
 30
0.0
  0
VERTEX
  5
328
330
2A5
100
AcDbEntity
  8
Make2D$可见线$普通线
100
AcDbVertex
100
AcDb2dVertex
 10
366.2937191036315
 20
566.0035928509496
 30
0.0
  0
VERTEX
  5
329
330
2A5
100
AcDbEntity
  8
Make2D$可见线$普通线
100
AcDbVertex
100
AcDb2dVertex
 10
365.8054688321661
 20
567.0142433744845
 30
0.0
  0
VERTEX
  5
32A
330
2A5
100
AcDbEntity
  8
Make2D$可见线$普通线
100
AcDbVertex
100
AcDb2dVertex
 10
365.5773080597156
 20
567.5198808578075
 30
0.0
  0
VERTEX
  5
32B
330
2A5
100
AcDbEntity
  8
Make2D$可见线$普通线
100
AcDbVertex
100
AcDb2dVertex
 10
365.3597285496512
 20
568.0255661086486
 30
0.0
  0
VERTEX
  5
32C
330
2A5
100
AcDbEntity
  8
Make2D$可见线$普通线
100
AcDbVertex
100
AcDb2dVertex
 10
365.1526786246033
 20
568.5311807079181
 30
0.0
  0
VERTEX
  5
32D
330
2A5
100
AcDbEntity
  8
Make2D$可见线$普通线
100
AcDbVertex
100
AcDb2dVertex
 10
364.9561023842434
 20
569.036607811026
 30
0.0
  0
VERTEX
  5
32E
330
2A5
100
AcDbEntity
  8
Make2D$可见线$普通线
100
AcDbVertex
100
AcDb2dVertex
 10
364.7699398177531
 20
569.5417322122762
 30
0.0
  0
VERTEX
  5
32F
330
2A5
100
AcDbEntity
  8
Make2D$可见线$普通线
100
AcDbVertex
100
AcDb2dVertex
 10
364.5941269188056
 20
570.046440406093
 30
0.0
  0
VERTEX
  5
330
330
2A5
100
AcDbEntity
  8
Make2D$可见线$普通线
100
AcDbVertex
100
AcDb2dVertex
 10
364.4285958028157
 20
570.5506206450507
 30
0.0
  0
VERTEX
  5
331
330
2A5
100
AcDbEntity
  8
Make2D$可见线$普通线
100
AcDbVertex
100
AcDb2dVertex
 10
364.2732748262141
 20
571.0541629946913
 30
0.0
  0
VERTEX
  5
332
330
2A5
100
AcDbEntity
  8
Make2D$可见线$普通线
100
AcDbVertex
100
AcDb2dVertex
 10
364.1280887075097
 20
571.5569593851219
 30
0.0
  0
VERTEX
  5
333
330
2A5
100
AcDbEntity
  8
Make2D$可见线$普通线
100
AcDbVertex
100
AcDb2dVertex
 10
363.9929586498999
 20
572.0589036593866
 30
0.0
  0
VERTEX
  5
334
330
2A5
100
AcDbEntity
  8
Make2D$可见线$普通线
100
AcDbVertex
100
AcDb2dVertex
 10
363.8678024651974
 20
572.5598916186177
 30
0.0
  0
VERTEX
  5
335
330
2A5
100
AcDbEntity
  8
Make2D$可见线$普通线
100
AcDbVertex
100
AcDb2dVertex
 10
363.7525346988426
 20
573.059821063979
 30
0.0
  0
VERTEX
  5
336
330
2A5
100
AcDbEntity
  8
Make2D$可见线$普通线
100
AcDbVertex
100
AcDb2dVertex
 10
363.647066755779
 20
573.5585918354176
 30
0.0
  0
VERTEX
  5
337
330
2A5
100
AcDbEntity
  8
Make2D$可见线$普通线
100
AcDbVertex
100
AcDb2dVertex
 10
363.5513070269672
 20
574.0561058472441
 30
0.0
  0
VERTEX
  5
338
330
2A5
100
AcDbEntity
  8
Make2D$可见线$普通线
100
AcDbVertex
100
AcDb2dVertex
 10
363.4651610163285
 20
574.5522671205784
 30
0.0
  0
VERTEX
  5
339
330
2A5
100
AcDbEntity
  8
Make2D$可见线$普通线
100
AcDbVertex
100
AcDb2dVertex
 10
363.3885314679038
 20
575.0469818126878
 30
0.0
  0
VERTEX
  5
33A
330
2A5
100
AcDbEntity
  8
Make2D$可见线$普通线
100
AcDbVertex
100
AcDb2dVertex
 10
363.3213184930281
 20
575.5401582432623
 30
0.0
  0
VERTEX
  5
33B
330
2A5
100
AcDbEntity
  8
Make2D$可见线$普通线
100
AcDbVertex
100
AcDb2dVertex
 10
363.2634196973231
 20
576.0317069176733
 30
0.0
  0
VERTEX
  5
33C
330
2A5
100
AcDbEntity
  8
Make2D$可见线$普通线
100
AcDbVertex
100
AcDb2dVertex
 10
363.2147303073178
 20
576.5215405472604
 30
0.0
  0
VERTEX
  5
33D
330
2A5
100
AcDbEntity
  8
Make2D$可见线$普通线
100
AcDbVertex
100
AcDb2dVertex
 10
363.1751432965146
 20
577.0095740667081
 30
0.0
  0
VERTEX
  5
33E
330
2A5
100
AcDbEntity
  8
Make2D$可见线$普通线
100
AcDbVertex
100
AcDb2dVertex
 10
363.1445495107257
 20
577.495724648563
 30
0.0
  0
VERTEX
  5
33F
330
2A5
100
AcDbEntity
  8
Make2D$可见线$普通线
100
AcDbVertex
100
AcDb2dVertex
 10
363.1228377925095
 20
577.979911714962
 30
0.0
  0
VERTEX
  5
340
330
2A5
100
AcDbEntity
  8
Make2D$可见线$普通线
100
AcDbVertex
100
AcDb2dVertex
 10
363.1098951045496
 20
578.4620569466305
 30
0.0
  0
VERTEX
  5
341
330
2A5
100
AcDbEntity
  8
Make2D$可见线$普通线
100
AcDbVertex
100
AcDb2dVertex
 10
363.105606651819
 20
578.9420842892231
 30
0.0
  0
VERTEX
  5
342
330
2A5
100
AcDbEntity
  8
Make2D$可见线$普通线
100
AcDbVertex
100
AcDb2dVertex
 10
363.11382342665
 20
579.6065635314422
 30
0.0
  0
VERTEX
  5
343
330
2A5
100
AcDbEntity
  8
Make2D$可见线$普通线
100
AcDbVertex
100
AcDb2dVertex
 10
363.1386032482358
 20
580.273497817248
 30
0.0
  0
VERTEX
  5
344
330
2A5
100
AcDbEntity
  8
Make2D$可见线$普通线
100
AcDbVertex
100
AcDb2dVertex
 10
363.6922588109197
 20
591.1114348146617
 30
0.0
  0
VERTEX
  5
345
330
2A5
100
AcDbEntity
  8
Make2D$可见线$普通线
100
AcDbVertex
100
AcDb2dVertex
 10
363.7018267654876
 20
590.575821929752
 30
0.0
  0
VERTEX
  5
346
330
2A5
100
AcDbEntity
  8
Make2D$可见线$普通线
100
AcDbVertex
100
AcDb2dVertex
 10
363.7213694495078
 20
590.0408937300554
 30
0.0
  0
VERTEX
  5
347
330
2A5
100
AcDbEntity
  8
Make2D$可见线$普通线
100
AcDbVertex
100
AcDb2dVertex
 10
363.7508747447828
 20
589.5067984794457
 30
0.0
  0
VERTEX
  5
348
330
2A5
100
AcDbEntity
  8
Make2D$可见线$普通线
100
AcDbVertex
100
AcDb2dVertex
 10
363.7903305331149
 20
588.973684441797
 30
0.0
  0
VERTEX
  5
349
330
2A5
100
AcDbEntity
  8
Make2D$可见线$普通线
100
AcDbVertex
100
AcDb2dVertex
 10
363.8397246963066
 20
588.4416998809838
 30
0.0
  0
VERTEX
  5
34A
330
2A5
100
AcDbEntity
  8
Make2D$可见线$普通线
100
AcDbVertex
100
AcDb2dVertex
 10
363.8990451161604
 20
587.9109930608797
 30
0.0
  0
VERTEX
  5
34B
330
2A5
100
AcDbEntity
  8
Make2D$可见线$普通线
100
AcDbVertex
100
AcDb2dVertex
 10
363.9682796744789
 20
587.3817122453593
 30
0.0
  0
VERTEX
  5
34C
330
2A5
100
AcDbEntity
  8
Make2D$可见线$普通线
100
AcDbVertex
100
AcDb2dVertex
 10
364.0474162530645
 20
586.8540056982962
 30
0.0
  0
VERTEX
  5
34D
330
2A5
100
AcDbEntity
  8
Make2D$可见线$普通线
100
AcDbVertex
100
AcDb2dVertex
 10
364.1364427337195
 20
586.3280216835649
 30
0.0
  0
VERTEX
  5
34E
330
2A5
100
AcDbEntity
  8
Make2D$可见线$普通线
100
AcDbVertex
100
AcDb2dVertex
 10
364.2353469982466
 20
585.8039084650392
 30
0.0
  0
VERTEX
  5
34F
330
2A5
100
AcDbEntity
  8
Make2D$可见线$普通线
100
AcDbVertex
100
AcDb2dVertex
 10
364.3441169284482
 20
585.2818143065933
 30
0.0
  0
VERTEX
  5
350
330
2A5
100
AcDbEntity
  8
Make2D$可见线$普通线
100
AcDbVertex
100
AcDb2dVertex
 10
364.4627404061268
 20
584.7618874721014
 30
0.0
  0
VERTEX
  5
351
330
2A5
100
AcDbEntity
  8
Make2D$可见线$普通线
100
AcDbVertex
100
AcDb2dVertex
 10
364.5912053130847
 20
584.2442762254375
 30
0.0
  0
VERTEX
  5
352
330
2A5
100
AcDbEntity
  8
Make2D$可见线$普通线
100
AcDbVertex
100
AcDb2dVertex
 10
364.7294995311246
 20
583.7291288304757
 30
0.0
  0
VERTEX
  5
353
330
2A5
100
AcDbEntity
  8
Make2D$可见线$普通线
100
AcDbVertex
100
AcDb2dVertex
 10
364.8776109420489
 20
583.21659355109
 30
0.0
  0
VERTEX
  5
354
330
2A5
100
AcDbEntity
  8
Make2D$可见线$普通线
100
AcDbVertex
100
AcDb2dVertex
 10
365.03552742766
 20
582.7068186511547
 30
0.0
  0
VERTEX
  5
355
330
2A5
100
AcDbEntity
  8
Make2D$可见线$普通线
100
AcDbVertex
100
AcDb2dVertex
 10
365.212353458889
 20
582.1731766199896
 30
0.0
  0
VERTEX
  5
356
330
2A5
100
AcDbEntity
  8
Make2D$可见线$普通线
100
AcDbVertex
100
AcDb2dVertex
 10
365.3997797763291
 20
581.6428794998325
 30
0.0
  0
VERTEX
  5
357
330
2A5
100
AcDbEntity
  8
Make2D$可见线$普通线
100
AcDbVertex
100
AcDb2dVertex
 10
365.597548678646
 20
581.1160472294346
 30
0.0
  0
VERTEX
  5
358
330
2A5
100
AcDbEntity
  8
Make2D$可见线$普通线
100
AcDbVertex
100
AcDb2dVertex
 10
365.8054024645053
 20
580.5927997475469
 30
0.0
  0
VERTEX
  5
359
330
2A5
100
AcDbEntity
  8
Make2D$可见线$普通线
100
AcDbVertex
100
AcDb2dVertex
 10
366.0230834325727
 20
580.0732569929208
 30
0.0
  0
VERTEX
  5
35A
330
2A5
100
AcDbEntity
  8
Make2D$可见线$普通线
100
AcDbVertex
100
AcDb2dVertex
 10
366.2503338815137
 20
579.5575389043075
 30
0.0
  0
VERTEX
  5
35B
330
2A5
100
AcDbEntity
  8
Make2D$可见线$普通线
100
AcDbVertex
100
AcDb2dVertex
 10
366.4868961099941
 20
579.0457654204581
 30
0.0
  0
VERTEX
  5
35C
330
2A5
100
AcDbEntity
  8
Make2D$可见线$普通线
100
AcDbVertex
100
AcDb2dVertex
 10
366.7325124166794
 20
578.5380564801237
 30
0.0
  0
VERTEX
  5
35D
330
2A5
100
AcDbEntity
  8
Make2D$可见线$普通线
100
AcDbVertex
100
AcDb2dVertex
 10
367.2498764593274
 20
577.5353119850048
 30
0.0
  0
VERTEX
  5
35E
330
2A5
100
AcDbEntity
  8
Make2D$可见线$普通线
100
AcDbVertex
100
AcDb2dVertex
 10
367.8003643987827
 20
576.5502649289601
 30
0.0
  0
VERTEX
  5
35F
330
2A5
100
AcDbEntity
  8
Make2D$可见线$普通线
100
AcDbVertex
100
AcDb2dVertex
 10
368.3819146243702
 20
575.5838748219992
 30
0.0
  0
VERTEX
  5
360
330
2A5
100
AcDbEntity
  8
Make2D$可见线$普通线
100
AcDbVertex
100
AcDb2dVertex
 10
368.9924655254152
 20
574.6371011741314
 30
0.0
  0
VERTEX
  5
361
330
2A5
100
AcDbEntity
  8
Make2D$可见线$普通线
100
AcDbVertex
100
AcDb2dVertex
 10
369.3548981100882
 20
574.1033699204685
 30
0.0
  0
VERTEX
  5
362
330
2A5
100
AcDbEntity
  8
Make2D$可见线$普通线
100
AcDbVertex
100
AcDb2dVertex
 10
369.7260075753953
 20
573.5763643724035
 30
0.0
  0
VERTEX
  5
363
330
2A5
100
AcDbEntity
  8
Make2D$可见线$普通线
100
AcDbVertex
100
AcDb2dVertex
 10
370.105612419371
 20
573.0560442320327
 30
0.0
  0
VERTEX
  5
364
330
2A5
100
AcDbEntity
  8
Make2D$可见线$普通线
100
AcDbVertex
100
AcDb2dVertex
 10
370.4935311400499
 20
572.5423692014522
 30
0.0
  0
VERTEX
  5
365
330
2A5
100
AcDbEntity
  8
Make2D$可见线$普通线
100
AcDbVertex
100
AcDb2dVertex
 10
370.8895822354667
 20
572.0352989827577
 30
0.0
  0
VERTEX
  5
366
330
2A5
100
AcDbEntity
  8
Make2D$可见线$普通线
100
AcDbVertex
100
AcDb2dVertex
 10
371.2935842036561
 20
571.5347932780453
 30
0.0
  0
VERTEX
  5
367
330
2A5
100
AcDbEntity
  8
Make2D$可见线$普通线
100
AcDbVertex
100
AcDb2dVertex
 10
372.1247147504907
 20
570.5533142189506
 30
0.0
  0
VERTEX
  5
368
330
2A5
100
AcDbEntity
  8
Make2D$可见线$普通线
100
AcDbVertex
100
AcDb2dVertex
 10
372.985470764831
 20
569.5976096409362
 30
0.0
  0
VERTEX
  5
369
330
2A5
100
AcDbEntity
  8
Make2D$可见线$普通线
100
AcDbVertex
100
AcDb2dVertex
 10
373.8744002309539
 20
568.6673571607698
 30
0.0
  0
VERTEX
  5
36A
330
2A5
100
AcDbEntity
  8
Make2D$可见线$普通线
100
AcDbVertex
100
AcDb2dVertex
 10
374.7900511331366
 20
567.7622343952193
 30
0.0
  0
VERTEX
  5
36B
330
2A5
100
AcDbEntity
  8
Make2D$可见线$普通线
100
AcDbVertex
100
AcDb2dVertex
 10
375.7309714556559
 20
566.8819189610526
 30
0.0
  0
VERTEX
  5
36C
330
2A5
100
AcDbEntity
  8
Make2D$可见线$普通线
100
AcDbVertex
100
AcDb2dVertex
 10
376.6957091827891
 20
566.0260884750378
 30
0.0
  0
VERTEX
  5
36D
330
2A5
100
AcDbEntity
  8
Make2D$可见线$普通线
100
AcDbVertex
100
AcDb2dVertex
 10
377.682812298813
 20
565.1944205539423
 30
0.0
  0
VERTEX
  5
36E
330
2A5
100
AcDbEntity
  8
Make2D$可见线$普通线
100
AcDbVertex
100
AcDb2dVertex
 10
378.6908287880049
 20
564.3865928145344
 30
0.0
  0
VERTEX
  5
36F
330
2A5
100
AcDbEntity
  8
Make2D$可见线$普通线
100
AcDbVertex
100
AcDb2dVertex
 10
379.7183066346416
 20
563.6022828735818
 30
0.0
  0
VERTEX
  5
370
330
2A5
100
AcDbEntity
  8
Make2D$可见线$普通线
100
AcDbVertex
100
AcDb2dVertex
 10
380.7637938230003
 20
562.8411683478523
 30
0.0
  0
VERTEX
  5
371
330
2A5
100
AcDbEntity
  8
Make2D$可见线$普通线
100
AcDbVertex
100
AcDb2dVertex
 10
381.825838337358
 20
562.102926854114
 30
0.0
  0
VERTEX
  5
372
330
2A5
100
AcDbEntity
  8
Make2D$可见线$普通线
100
AcDbVertex
100
AcDb2dVertex
 10
382.9029881619917
 20
561.3872360091348
 30
0.0
  0
VERTEX
  5
373
330
2A5
100
AcDbEntity
  8
Make2D$可见线$普通线
100
AcDbVertex
100
AcDb2dVertex
 10
383.9937912811785
 20
560.6937734296822
 30
0.0
  0
VERTEX
  5
374
330
2A5
100
AcDbEntity
  8
Make2D$可见线$普通线
100
AcDbVertex
100
AcDb2dVertex
 10
385.2989183720007
 20
559.9023921762266
 30
0.0
  0
VERTEX
  5
375
330
2A5
100
AcDbEntity
  8
Make2D$可见线$普通线
100
AcDbVertex
100
AcDb2dVertex
 10
386.6203700608226
 20
559.1411216868371
 30
0.0
  0
VERTEX
  5
376
330
2A5
100
AcDbEntity
  8
Make2D$可见线$普通线
100
AcDbVertex
100
AcDb2dVertex
 10
387.9574269094998
 20
558.4094722733819
 30
0.0
  0
VERTEX
  5
377
330
2A5
100
AcDbEntity
  8
Make2D$可见线$普通线
100
AcDbVertex
100
AcDb2dVertex
 10
389.309369479888
 20
557.706954247729
 30
0.0
  0
VERTEX
  5
378
330
2A5
100
AcDbEntity
  8
Make2D$可见线$普通线
100
AcDbVertex
100
AcDb2dVertex
 10
390.675478333843
 20
557.0330779217466
 30
0.0
  0
VERTEX
  5
379
330
2A5
100
AcDbEntity
  8
Make2D$可见线$普通线
100
AcDbVertex
100
AcDb2dVertex
 10
392.0550340332204
 20
556.3873536073029
 30
0.0
  0
VERTEX
  5
37A
330
2A5
100
AcDbEntity
  8
Make2D$可见线$普通线
100
AcDbVertex
100
AcDb2dVertex
 10
393.4473171398758
 20
555.769291616266
 30
0.0
  0
VERTEX
  5
37B
330
2A5
100
AcDbEntity
  8
Make2D$可见线$普通线
100
AcDbVertex
100
AcDb2dVertex
 10
394.8516082156652
 20
555.178402260504
 30
0.0
  0
VERTEX
  5
37C
330
2A5
100
AcDbEntity
  8
Make2D$可见线$普通线
100
AcDbVertex
100
AcDb2dVertex
 10
396.2671878224441
 20
554.6141958518849
 30
0.0
  0
VERTEX
  5
37D
330
2A5
100
AcDbEntity
  8
Make2D$可见线$普通线
100
AcDbVertex
100
AcDb2dVertex
 10
397.6933365220682
 20
554.0761827022768
 30
0.0
  0
VERTEX
  5
37E
330
2A5
100
AcDbEntity
  8
Make2D$可见线$普通线
100
AcDbVertex
100
AcDb2dVertex
 10
399.1293348763933
 20
553.5638731235479
 30
0.0
  0
VERTEX
  5
37F
330
2A5
100
AcDbEntity
  8
Make2D$可见线$普通线
100
AcDbVertex
100
AcDb2dVertex
 10
400.5744634472748
 20
553.0767774275662
 30
0.0
  0
VERTEX
  5
380
330
2A5
100
AcDbEntity
  8
Make2D$可见线$普通线
100
AcDbVertex
100
AcDb2dVertex
 10
402.0280027965687
 20
552.6144059262001
 30
0.0
  0
VERTEX
  5
381
330
2A5
100
AcDbEntity
  8
Make2D$可见线$普通线
100
AcDbVertex
100
AcDb2dVertex
 10
403.4892334861307
 20
552.1762689313174
 30
0.0
  0
VERTEX
  5
382
330
2A5
100
AcDbEntity
  8
Make2D$可见线$普通线
100
AcDbVertex
100
AcDb2dVertex
 10
404.9574360778163
 20
551.7618767547864
 30
0.0
  0
VERTEX
  5
383
330
2A5
100
AcDbEntity
  8
Make2D$可见线$普通线
100
AcDbVertex
100
AcDb2dVertex
 10
406.4318911334814
 20
551.3707397084752
 30
0.0
  0
VERTEX
  5
384
330
2A5
100
AcDbEntity
  8
Make2D$可见线$普通线
100
AcDbVertex
100
AcDb2dVertex
 10
408.0634085842535
 20
550.9660833751173
 30
0.0
  0
VERTEX
  5
385
330
2A5
100
AcDbEntity
  8
Make2D$可见线$普通线
100
AcDbVertex
100
AcDb2dVertex
 10
409.7012141491362
 20
550.5888851624427
 30
0.0
  0
VERTEX
  5
386
330
2A5
100
AcDbEntity
  8
Make2D$可见线$普通线
100
AcDbVertex
100
AcDb2dVertex
 10
411.3448749724035
 20
550.2389499948281
 30
0.0
  0
VERTEX
  5
387
330
2A5
100
AcDbEntity
  8
Make2D$可见线$普通线
100
AcDbVertex
100
AcDb2dVertex
 10
412.9939581983298
 20
549.9160827966505
 30
0.0
  0
VERTEX
  5
388
330
2A5
100
AcDbEntity
  8
Make2D$可见线$普通线
100
AcDbVertex
100
AcDb2dVertex
 10
414.648030971189
 20
549.6200884922865
 30
0.0
  0
VERTEX
  5
389
330
2A5
100
AcDbEntity
  8
Make2D$可见线$普通线
100
AcDbVertex
100
AcDb2dVertex
 10
416.3066604352553
 20
549.350772006113
 30
0.0
  0
VERTEX
  5
38A
330
2A5
100
AcDbEntity
  8
Make2D$可见线$普通线
100
AcDbVertex
100
AcDb2dVertex
 10
417.9694137348026
 20
549.1079382625067
 30
0.0
  0
VERTEX
  5
38B
330
2A5
100
AcDbEntity
  8
Make2D$可见线$普通线
100
AcDbVertex
100
AcDb2dVertex
 10
419.6358580141053
 20
548.8913921858443
 30
0.0
  0
VERTEX
  5
38C
330
2A5
100
AcDbEntity
  8
Make2D$可见线$普通线
100
AcDbVertex
100
AcDb2dVertex
 10
421.3055604174374
 20
548.7009387005028
 30
0.0
  0
VERTEX
  5
38D
330
2A5
100
AcDbEntity
  8
Make2D$可见线$普通线
100
AcDbVertex
100
AcDb2dVertex
 10
422.978088089073
 20
548.536382730859
 30
0.0
  0
VERTEX
  5
38E
330
2A5
100
AcDbEntity
  8
Make2D$可见线$普通线
100
AcDbVertex
100
AcDb2dVertex
 10
424.6530081732862
 20
548.3975292012897
 30
0.0
  0
VERTEX
  5
38F
330
2A5
100
AcDbEntity
  8
Make2D$可见线$普通线
100
AcDbVertex
100
AcDb2dVertex
 10
426.3298878143512
 20
548.2841830361715
 30
0.0
  0
VERTEX
  5
390
330
2A5
100
AcDbEntity
  8
Make2D$可见线$普通线
100
AcDbVertex
100
AcDb2dVertex
 10
428.008294156542
 20
548.1961491598813
 30
0.0
  0
VERTEX
  5
391
330
2A5
100
AcDbEntity
  8
Make2D$可见线$普通线
100
AcDbVertex
100
AcDb2dVertex
 10
429.6877943441328
 20
548.133232496796
 30
0.0
  0
VERTEX
  5
392
330
2A5
100
AcDbEntity
  8
Make2D$可见线$普通线
100
AcDbVertex
100
AcDb2dVertex
 10
431.3679555213977
 20
548.0952379712924
 30
0.0
  0
VERTEX
  5
393
330
2A5
100
AcDbEntity
  8
Make2D$可见线$普通线
100
AcDbVertex
100
AcDb2dVertex
 10
433.0483448326107
 20
548.081970507747
 30
0.0
  0
VERTEX
  5
394
330
2A5
100
AcDbEntity
  8
Make2D$可见线$普通线
100
AcDbVertex
100
AcDb2dVertex
 10
434.728733763974
 20
548.0952366378633
 30
0.0
  0
VERTEX
  5
395
330
2A5
100
AcDbEntity
  8
Make2D$可见线$普通线
100
AcDbVertex
100
AcDb2dVertex
 10
436.4088945825467
 20
548.1332298129945
 30
0.0
  0
VERTEX
  5
396
330
2A5
100
AcDbEntity
  8
Make2D$可见线$普通线
100
AcDbVertex
100
AcDb2dVertex
 10
438.088394432882
 20
548.1961451098168
 30
0.0
  0
VERTEX
  5
397
330
2A5
100
AcDbEntity
  8
Make2D$可见线$普通线
100
AcDbVertex
100
AcDb2dVertex
 10
439.7668004595325
 20
548.2841776050062
 30
0.0
  0
VERTEX
  5
398
330
2A5
100
AcDbEntity
  8
Make2D$可见线$普通线
100
AcDbVertex
100
AcDb2dVertex
 10
441.4436798070514
 20
548.3975223752386
 30
0.0
  0
VERTEX
  5
399
330
2A5
100
AcDbEntity
  8
Make2D$可见线$普通线
100
AcDbVertex
100
AcDb2dVertex
 10
443.1185996199915
 20
548.5363744971902
 30
0.0
  0
VERTEX
  5
39A
330
2A5
100
AcDbEntity
  8
Make2D$可见线$普通线
100
AcDbVertex
100
AcDb2dVertex
 10
444.7911270429059
 20
548.7009290475369
 30
0.0
  0
VERTEX
  5
39B
330
2A5
100
AcDbEntity
  8
Make2D$可见线$普通线
100
AcDbVertex
100
AcDb2dVertex
 10
446.4608292203476
 20
548.8913811029545
 30
0.0
  0
VERTEX
  5
39C
330
2A5
100
AcDbEntity
  8
Make2D$可见线$普通线
100
AcDbVertex
100
AcDb2dVertex
 10
448.1272732968693
 20
549.1079257401193
 30
0.0
  0
VERTEX
  5
39D
330
2A5
100
AcDbEntity
  8
Make2D$可见线$普通线
100
AcDbVertex
100
AcDb2dVertex
 10
449.790026417024
 20
549.3507580357073
 30
0.0
  0
VERTEX
  5
39E
330
2A5
100
AcDbEntity
  8
Make2D$可见线$普通线
100
AcDbVertex
100
AcDb2dVertex
 10
451.4486557253648
 20
549.6200730663943
 30
0.0
  0
VERTEX
  5
39F
330
2A5
100
AcDbEntity
  8
Make2D$可见线$普通线
100
AcDbVertex
100
AcDb2dVertex
 10
453.1027283664445
 20
549.9160659088565
 30
0.0
  0
VERTEX
  5
3A0
330
2A5
100
AcDbEntity
  8
Make2D$可见线$普通线
100
AcDbVertex
100
AcDb2dVertex
 10
454.751811484816
 20
550.2389316397697
 30
0.0
  0
VERTEX
  5
3A1
330
2A5
100
AcDbEntity
  8
Make2D$可见线$普通线
100
AcDbVertex
100
AcDb2dVertex
 10
456.3954722250323
 20
550.5888653358102
 30
0.0
  0
VERTEX
  5
3A2
330
2A5
100
AcDbEntity
  8
Make2D$可见线$普通线
100
AcDbVertex
100
AcDb2dVertex
 10
458.0332777316464
 20
550.9660620736537
 30
0.0
  0
VERTEX
  5
3A3
330
2A5
100
AcDbEntity
  8
Make2D$可见线$普通线
100
AcDbVertex
100
AcDb2dVertex
 10
459.6647951492113
 20
551.3707169299763
 30
0.0
  0
VERTEX
  5
3A4
330
2A5
100
AcDbEntity
  8
Make2D$可见线$普通线
100
AcDbVertex
100
AcDb2dVertex
 10
461.139249789252
 20
551.7618525237738
 30
0.0
  0
VERTEX
  5
3A5
330
2A5
100
AcDbEntity
  8
Make2D$可见线$普通线
100
AcDbVertex
100
AcDb2dVertex
 10
462.6074519897965
 20
552.1762432355299
 30
0.0
  0
VERTEX
  5
3A6
330
2A5
100
AcDbEntity
  8
Make2D$可见线$普通线
100
AcDbVertex
100
AcDb2dVertex
 10
464.0686823132583
 20
552.6143787546688
 30
0.0
  0
VERTEX
  5
3A7
330
2A5
100
AcDbEntity
  8
Make2D$可见线$普通线
100
AcDbVertex
100
AcDb2dVertex
 10
465.5222213220513
 20
553.0767487706142
 30
0.0
  0
VERTEX
  5
3A8
330
2A5
100
AcDbEntity
  8
Make2D$可见线$普通线
100
AcDbVertex
100
AcDb2dVertex
 10
466.9673495785894
 20
553.5638429727903
 30
0.0
  0
VERTEX
  5
3A9
330
2A5
100
AcDbEntity
  8
Make2D$可见线$普通线
100
AcDbVertex
100
AcDb2dVertex
 10
468.4033476452864
 20
554.076151050621
 30
0.0
  0
VERTEX
  5
3AA
330
2A5
100
AcDbEntity
  8
Make2D$可见线$普通线
100
AcDbVertex
100
AcDb2dVertex
 10
469.8294960845561
 20
554.61416269353
 30
0.0
  0
VERTEX
  5
3AB
330
2A5
100
AcDbEntity
  8
Make2D$可见线$普通线
100
AcDbVertex
100
AcDb2dVertex
 10
471.2450754588123
 20
555.1783675909414
 30
0.0
  0
VERTEX
  5
3AC
330
2A5
100
AcDbEntity
  8
Make2D$可见线$普通线
100
AcDbVertex
100
AcDb2dVertex
 10
472.6493663304689
 20
555.7692554322792
 30
0.0
  0
VERTEX
  5
3AD
330
2A5
100
AcDbEntity
  8
Make2D$可见线$普通线
100
AcDbVertex
100
AcDb2dVertex
 10
474.0416492619397
 20
556.3873159069673
 30
0.0
  0
VERTEX
  5
3AE
330
2A5
100
AcDbEntity
  8
Make2D$可见线$普通线
100
AcDbVertex
100
AcDb2dVertex
 10
475.4212048156384
 20
557.0330387044295
 30
0.0
  0
VERTEX
  5
3AF
330
2A5
100
AcDbEntity
  8
Make2D$可见线$普通线
100
AcDbVertex
100
AcDb2dVertex
 10
476.7873135539791
 20
557.7069135140899
 30
0.0
  0
VERTEX
  5
3B0
330
2A5
100
AcDbEntity
  8
Make2D$可见线$普通线
100
AcDbVertex
100
AcDb2dVertex
 10
478.1392560393753
 20
558.4094300253726
 30
0.0
  0
VERTEX
  5
3B1
330
2A5
100
AcDbEntity
  8
Make2D$可见线$普通线
100
AcDbVertex
100
AcDb2dVertex
 10
479.4763128342411
 20
559.1410779277012
 30
0.0
  0
VERTEX
  5
3B2
330
2A5
100
AcDbEntity
  8
Make2D$可见线$普通线
100
AcDbVertex
100
AcDb2dVertex
 10
480.7977645009901
 20
559.9023469104997
 30
0.0
  0
VERTEX
  5
3B3
330
2A5
100
AcDbEntity
  8
Make2D$可见线$普通线
100
AcDbVertex
100
AcDb2dVertex
 10
482.1028916020364
 20
560.6937266631921
 30
0.0
  0
VERTEX
  5
3B4
330
2A5
100
AcDbEntity
  8
Make2D$可见线$普通线
100
AcDbVertex
100
AcDb2dVertex
 10
483.1936943629277
 20
561.387187723846
 30
0.0
  0
VERTEX
  5
3B5
330
2A5
100
AcDbEntity
  8
Make2D$可见线$普通线
100
AcDbVertex
100
AcDb2dVertex
 10
484.270843861108
 20
562.1028770415687
 30
0.0
  0
VERTEX
  5
3B6
330
2A5
100
AcDbEntity
  8
Make2D$可见线$普通线
100
AcDbVertex
100
AcDb2dVertex
 10
485.3328880803499
 20
562.8411170018851
 30
0.0
  0
VERTEX
  5
3B7
330
2A5
100
AcDbEntity
  8
Make2D$可见线$普通线
100
AcDbVertex
100
AcDb2dVertex
 10
486.3783750044259
 20
563.60222999032
 30
0.0
  0
VERTEX
  5
3B8
330
2A5
100
AcDbEntity
  8
Make2D$可见线$普通线
100
AcDbVertex
100
AcDb2dVertex
 10
487.4058526171088
 20
564.3865383923983
 30
0.0
  0
VERTEX
  5
3B9
330
2A5
100
AcDbEntity
  8
Make2D$可见线$普通线
100
AcDbVertex
100
AcDb2dVertex
 10
488.413868902171
 20
565.1943645936447
 30
0.0
  0
VERTEX
  5
3BA
330
2A5
100
AcDbEntity
  8
Make2D$可见线$普通线
100
AcDbVertex
100
AcDb2dVertex
 10
489.400971843385
 20
566.026030979584
 30
0.0
  0
VERTEX
  5
3BB
330
2A5
100
AcDbEntity
  8
Make2D$可见线$普通线
100
AcDbVertex
100
AcDb2dVertex
 10
490.3657094245236
 20
566.881859935741
 30
0.0
  0
VERTEX
  5
3BC
330
2A5
100
AcDbEntity
  8
Make2D$可见线$普通线
100
AcDbVertex
100
AcDb2dVertex
 10
491.3066296293592
 20
567.7621738476406
 30
0.0
  0
VERTEX
  5
3BD
330
2A5
100
AcDbEntity
  8
Make2D$可见线$普通线
100
AcDbVertex
100
AcDb2dVertex
 10
492.2222804416645
 20
568.6672951008075
 30
0.0
  0
VERTEX
  5
3BE
330
2A5
100
AcDbEntity
  8
Make2D$可见线$普通线
100
AcDbVertex
100
AcDb2dVertex
 10
493.1112098452119
 20
569.5975460807665
 30
0.0
  0
VERTEX
  5
3BF
330
2A5
100
AcDbEntity
  8
Make2D$可见线$普通线
100
AcDbVertex
100
AcDb2dVertex
 10
493.9719658237742
 20
570.5532491730423
 30
0.0
  0
VERTEX
  5
3C0
330
2A5
100
AcDbEntity
  8
Make2D$可见线$普通线
100
AcDbVertex
100
AcDb2dVertex
 10
494.8030963611238
 20
571.5347267631599
 30
0.0
  0
VERTEX
  5
3C1
330
2A5
100
AcDbEntity
  8
Make2D$可见线$普通线
100
AcDbVertex
100
AcDb2dVertex
 10
495.2070983342729
 20
572.0352317403858
 30
0.0
  0
VERTEX
  5
3C2
330
2A5
100
AcDbEntity
  8
Make2D$可见线$普通线
100
AcDbVertex
100
AcDb2dVertex
 10
495.6031494410335
 20
572.5423012366439
 30
0.0
  0
VERTEX
  5
3C3
330
2A5
100
AcDbEntity
  8
Make2D$可见线$普通线
100
AcDbVertex
100
AcDb2dVertex
 10
495.9910681793772
 20
573.0559755501249
 30
0.0
  0
VERTEX
  5
3C4
330
2A5
100
AcDbEntity
  8
Make2D$可见线$普通线
100
AcDbVertex
100
AcDb2dVertex
 10
496.3706730472755
 20
573.5762949790193
 30
0.0
  0
VERTEX
  5
3C5
330
2A5
100
AcDbEntity
  8
Make2D$可见线$普通线
100
AcDbVertex
100
AcDb2dVertex
 10
496.7417825427002
 20
574.1032998215178
 30
0.0
  0
VERTEX
  5
3C6
330
2A5
100
AcDbEntity
  8
Make2D$可见线$普通线
100
AcDbVertex
100
AcDb2dVertex
 10
497.1042151636227
 20
574.6370303758108
 30
0.0
  0
VERTEX
  5
3C7
330
2A5
100
AcDbEntity
  8
Make2D$可见线$普通线
100
AcDbVertex
100
AcDb2dVertex
 10
497.7147659277184
 20
575.583802477184
 30
0.0
  0
VERTEX
  5
3C8
330
2A5
100
AcDbEntity
  8
Make2D$可见线$普通线
100
AcDbVertex
100
AcDb2dVertex
 10
498.2963160489613
 20
576.5501910445583
 30
0.0
  0
VERTEX
  5
3C9
330
2A5
100
AcDbEntity
  8
Make2D$可见线$普通线
100
AcDbVertex
100
AcDb2dVertex
 10
498.84680391154
 20
577.5352365698475
 30
0.0
  0
VERTEX
  5
3CA
330
2A5
100
AcDbEntity
  8
Make2D$可见线$普通线
100
AcDbVertex
100
AcDb2dVertex
 10
499.364167899643
 20
578.5379795449645
 30
0.0
  0
VERTEX
  5
3CB
330
2A5
100
AcDbEntity
  8
Make2D$可见线$普通线
100
AcDbVertex
100
AcDb2dVertex
 10
499.609784185825
 20
579.0456877299315
 30
0.0
  0
VERTEX
  5
3CC
330
2A5
100
AcDbEntity
  8
Make2D$可见线$普通线
100
AcDbVertex
100
AcDb2dVertex
 10
499.8463463974588
 20
579.557460461823
 30
0.0
  0
VERTEX
  5
3CD
330
2A5
100
AcDbEntity
  8
Make2D$可见线$普通线
100
AcDbVertex
100
AcDb2dVertex
 10
500.0735968325679
 20
580.0731778021282
 30
0.0
  0
VERTEX
  5
3CE
330
2A5
100
AcDbEntity
  8
Make2D$可见线$普通线
100
AcDbVertex
100
AcDb2dVertex
 10
500.291277789176
 20
580.5927198123361
 30
0.0
  0
VERTEX
  5
3CF
330
2A5
100
AcDbEntity
  8
Make2D$可见线$普通线
100
AcDbVertex
100
AcDb2dVertex
 10
500.4991315653066
 20
581.1159665539361
 30
0.0
  0
VERTEX
  5
3D0
330
2A5
100
AcDbEntity
  8
Make2D$可见线$普通线
100
AcDbVertex
100
AcDb2dVertex
 10
500.6969004589833
 20
581.6427980884173
 30
0.0
  0
VERTEX
  5
3D1
330
2A5
100
AcDbEntity
  8
Make2D$可见线$普通线
100
AcDbVertex
100
AcDb2dVertex
 10
500.8843267682296
 20
582.1730944772689
 30
0.0
  0
VERTEX
  5
3D2
330
2A5
100
AcDbEntity
  8
Make2D$可见线$普通线
100
AcDbVertex
100
AcDb2dVertex
 10
501.0611527910691
 20
582.7067357819801
 30
0.0
  0
VERTEX
  5
3D3
330
2A5
100
AcDbEntity
  8
Make2D$可见线$普通线
100
AcDbVertex
100
AcDb2dVertex
 10
501.2190652805377
 20
583.2165097700164
 30
0.0
  0
VERTEX
  5
3D4
330
2A5
100
AcDbEntity
  8
Make2D$可见线$普通线
100
AcDbVertex
100
AcDb2dVertex
 10
501.3671488234162
 20
583.7290429579382
 30
0.0
  0
VERTEX
  5
3D5
330
2A5
100
AcDbEntity
  8
Make2D$可见线$普通线
100
AcDbVertex
100
AcDb2dVertex
 10
501.5053674292343
 20
584.2441858980483
 30
0.0
  0
VERTEX
  5
3D6
330
2A5
100
AcDbEntity
  8
Make2D$可见线$普通线
100
AcDbVertex
100
AcDb2dVertex
 10
501.6336851075216
 20
584.7617891426493
 30
0.0
  0
VERTEX
  5
3D7
330
2A5
100
AcDbEntity
  8
Make2D$可见线$普通线
100
AcDbVertex
100
AcDb2dVertex
 10
501.7520658678078
 20
585.2817032440444
 30
0.0
  0
VERTEX
  5
3D8
330
2A5
100
AcDbEntity
  8
Make2D$可见线$普通线
100
AcDbVertex
100
AcDb2dVertex
 10
501.8604737196227
 20
585.8037787545361
 30
0.0
  0
VERTEX
  5
3D9
330
2A5
100
AcDbEntity
  8
Make2D$可见线$普通线
100
AcDbVertex
100
AcDb2dVertex
 10
501.958872672496
 20
586.3278662264274
 30
0.0
  0
VERTEX
  5
3DA
330
2A5
100
AcDbEntity
  8
Make2D$可见线$普通线
100
AcDbVertex
100
AcDb2dVertex
 10
502.0472267359575
 20
586.853816212021
 30
0.0
  0
VERTEX
  5
3DB
330
2A5
100
AcDbEntity
  8
Make2D$可见线$普通线
100
AcDbVertex
100
AcDb2dVertex
 10
502.1254999195367
 20
587.3814792636199
 30
0.0
  0
VERTEX
  5
3DC
330
2A5
100
AcDbEntity
  8
Make2D$可见线$普通线
100
AcDbVertex
100
AcDb2dVertex
 10
502.1936562327635
 20
587.9107059335266
 30
0.0
  0
VERTEX
  5
3DD
330
2A5
100
AcDbEntity
  8
Make2D$可见线$普通线
100
AcDbVertex
100
AcDb2dVertex
 10
502.2516596851675
 20
588.4413467740442
 30
0.0
  0
VERTEX
  5
3DE
330
2A5
100
AcDbEntity
  8
Make2D$可见线$普通线
100
AcDbVertex
100
AcDb2dVertex
 10
502.2994742862785
 20
588.9732523374753
 30
0.0
  0
VERTEX
  5
3DF
330
2A5
100
AcDbEntity
  8
Make2D$可见线$普通线
100
AcDbVertex
100
AcDb2dVertex
 10
502.3370640456262
 20
589.5062731761227
 30
0.0
  0
VERTEX
  5
3E0
330
2A5
100
AcDbEntity
  8
Make2D$可见线$普通线
100
AcDbVertex
100
AcDb2dVertex
 10
502.3643929727402
 20
590.0402598422893
 30
0.0
  0
VERTEX
  5
3E1
330
2A5
100
AcDbEntity
  8
Make2D$可见线$普通线
100
AcDbVertex
100
AcDb2dVertex
 10
502.3814250771504
 20
590.5750628882779
 30
0.0
  0
VERTEX
  5
3E2
330
2A5
100
AcDbEntity
  8
Make2D$可见线$普通线
100
AcDbVertex
100
AcDb2dVertex
 10
502.3881243683863
 20
591.1105328663914
 30
0.0
 42
0.3241215720087615
  0
VERTEX
  5
3E3
330
2A5
100
AcDbEntity
  8
Make2D$可见线$普通线
100
AcDbVertex
100
AcDb2dVertex
 10
501.3792786685697
 20
592.1761362488041
 30
0.0
  0
VERTEX
  5
3E4
330
2A5
100
AcDbEntity
  8
Make2D$可见线$普通线
100
AcDbVertex
100
AcDb2dVertex
 10
501.3721836318483
 20
591.6534626481442
 30
0.0
  0
VERTEX
  5
3E5
330
2A5
100
AcDbEntity
  8
Make2D$可见线$普通线
100
AcDbVertex
100
AcDb2dVertex
 10
501.3546997843172
 20
591.1310521131385
 30
0.0
  0
VERTEX
  5
3E6
330
2A5
100
AcDbEntity
  8
Make2D$可见线$普通线
100
AcDbVertex
100
AcDb2dVertex
 10
501.3268972636761
 20
590.6090899328682
 30
0.0
  0
VERTEX
  5
3E7
330
2A5
100
AcDbEntity
  8
Make2D$可见线$普通线
100
AcDbVertex
100
AcDb2dVertex
 10
501.2888462076251
 20
590.0877613964146
 30
0.0
  0
VERTEX
  5
3E8
330
2A5
100
AcDbEntity
  8
Make2D$可见线$普通线
100
AcDbVertex
100
AcDb2dVertex
 10
501.2406167538638
 20
589.5672517928588
 30
0.0
  0
VERTEX
  5
3E9
330
2A5
100
AcDbEntity
  8
Make2D$可见线$普通线
100
AcDbVertex
100
AcDb2dVertex
 10
501.1822790400922
 20
589.0477464112818
 30
0.0
  0
VERTEX
  5
3EA
330
2A5
100
AcDbEntity
  8
Make2D$可见线$普通线
100
AcDbVertex
100
AcDb2dVertex
 10
501.1139032040104
 20
588.529430540765
 30
0.0
  0
VERTEX
  5
3EB
330
2A5
100
AcDbEntity
  8
Make2D$可见线$普通线
100
AcDbVertex
100
AcDb2dVertex
 10
501.0355593833181
 20
588.0124894703897
 30
0.0
  0
VERTEX
  5
3EC
330
2A5
100
AcDbEntity
  8
Make2D$可见线$普通线
100
AcDbVertex
100
AcDb2dVertex
 10
500.9473177157153
 20
587.497108489237
 30
0.0
  0
VERTEX
  5
3ED
330
2A5
100
AcDbEntity
  8
Make2D$可见线$普通线
100
AcDbVertex
100
AcDb2dVertex
 10
500.8492483389017
 20
586.983472886388
 30
0.0
  0
VERTEX
  5
3EE
330
2A5
100
AcDbEntity
  8
Make2D$可见线$普通线
100
AcDbVertex
100
AcDb2dVertex
 10
500.7414213905773
 20
586.4717679509238
 30
0.0
  0
VERTEX
  5
3EF
330
2A5
100
AcDbEntity
  8
Make2D$可见线$普通线
100
AcDbVertex
100
AcDb2dVertex
 10
500.623907008442
 20
585.9621789719258
 30
0.0
  0
VERTEX
  5
3F0
330
2A5
100
AcDbEntity
  8
Make2D$可见线$普通线
100
AcDbVertex
100
AcDb2dVertex
 10
500.4967753301958
 20
585.4548912384752
 30
0.0
  0
VERTEX
  5
3F1
330
2A5
100
AcDbEntity
  8
Make2D$可见线$普通线
100
AcDbVertex
100
AcDb2dVertex
 10
500.3600964935384
 20
584.9500900396531
 30
0.0
  0
VERTEX
  5
3F2
330
2A5
100
AcDbEntity
  8
Make2D$可见线$普通线
100
AcDbVertex
100
AcDb2dVertex
 10
500.2139406361698
 20
584.4479606645407
 30
0.0
  0
VERTEX
  5
3F3
330
2A5
100
AcDbEntity
  8
Make2D$可见线$普通线
100
AcDbVertex
100
AcDb2dVertex
 10
500.0583778957899
 20
583.9486884022192
 30
0.0
  0
VERTEX
  5
3F4
330
2A5
100
AcDbEntity
  8
Make2D$可见线$普通线
100
AcDbVertex
100
AcDb2dVertex
 10
499.8839060742829
 20
583.4244848376852
 30
0.0
  0
VERTEX
  5
3F5
330
2A5
100
AcDbEntity
  8
Make2D$可见线$普通线
100
AcDbVertex
100
AcDb2dVertex
 10
499.6992477077828
 20
582.9037733318451
 30
0.0
  0
VERTEX
  5
3F6
330
2A5
100
AcDbEntity
  8
Make2D$可见线$普通线
100
AcDbVertex
100
AcDb2dVertex
 10
499.5046382887247
 20
582.3866498963624
 30
0.0
  0
VERTEX
  5
3F7
330
2A5
100
AcDbEntity
  8
Make2D$可见线$普通线
100
AcDbVertex
100
AcDb2dVertex
 10
499.3003133095436
 20
581.8732105429017
 30
0.0
  0
VERTEX
  5
3F8
330
2A5
100
AcDbEntity
  8
Make2D$可见线$普通线
100
AcDbVertex
100
AcDb2dVertex
 10
499.0865082626748
 20
581.3635512831265
 30
0.0
  0
VERTEX
  5
3F9
330
2A5
100
AcDbEntity
  8
Make2D$可见线$普通线
100
AcDbVertex
100
AcDb2dVertex
 10
498.8634586405531
 20
580.8577681287012
 30
0.0
  0
VERTEX
  5
3FA
330
2A5
100
AcDbEntity
  8
Make2D$可见线$普通线
100
AcDbVertex
100
AcDb2dVertex
 10
498.6313999356137
 20
580.3559570912894
 30
0.0
  0
VERTEX
  5
3FB
330
2A5
100
AcDbEntity
  8
Make2D$可见线$普通线
100
AcDbVertex
100
AcDb2dVertex
 10
498.3905676402916
 20
579.8582141825552
 30
0.0
  0
VERTEX
  5
3FC
330
2A5
100
AcDbEntity
  8
Make2D$可见线$普通线
100
AcDbVertex
100
AcDb2dVertex
 10
497.8835242482395
 20
578.8753167977759
 30
0.0
  0
VERTEX
  5
3FD
330
2A5
100
AcDbEntity
  8
Make2D$可见线$普通线
100
AcDbVertex
100
AcDb2dVertex
 10
497.3442124038773
 20
577.909844067675
 30
0.0
  0
VERTEX
  5
3FE
330
2A5
100
AcDbEntity
  8
Make2D$可见线$普通线
100
AcDbVertex
100
AcDb2dVertex
 10
496.7745160466856
 20
576.9625640855644
 30
0.0
  0
VERTEX
  5
3FF
330
2A5
100
AcDbEntity
  8
Make2D$可见线$普通线
100
AcDbVertex
100
AcDb2dVertex
 10
496.1763191161447
 20
576.034244944756
 30
0.0
  0
VERTEX
  5
400
330
2A5
100
AcDbEntity
  8
Make2D$可见线$普通线
100
AcDbVertex
100
AcDb2dVertex
 10
495.8211277912506
 20
575.5107260412206
 30
0.0
  0
VERTEX
  5
401
330
2A5
100
AcDbEntity
  8
Make2D$可见线$普通线
100
AcDbVertex
100
AcDb2dVertex
 10
495.457364532637
 20
574.9936623327417
 30
0.0
  0
VERTEX
  5
402
330
2A5
100
AcDbEntity
  8
Make2D$可见线$普通线
100
AcDbVertex
100
AcDb2dVertex
 10
495.0852100207064
 20
574.4830213513391
 30
0.0
  0
VERTEX
  5
403
330
2A5
100
AcDbEntity
  8
Make2D$可见线$普通线
100
AcDbVertex
100
AcDb2dVertex
 10
494.7048449358612
 20
573.9787706290324
 30
0.0
  0
VERTEX
  5
404
330
2A5
100
AcDbEntity
  8
Make2D$可见线$普通线
100
AcDbVertex
100
AcDb2dVertex
 10
494.3164499585042
 20
573.4808776978416
 30
0.0
  0
VERTEX
  5
405
330
2A5
100
AcDbEntity
  8
Make2D$可见线$普通线
100
AcDbVertex
100
AcDb2dVertex
 10
493.9202057690377
 20
572.9893100897862
 30
0.0
  0
VERTEX
  5
406
330
2A5
100
AcDbEntity
  8
Make2D$可见线$普通线
100
AcDbVertex
100
AcDb2dVertex
 10
493.1048924753868
 20
572.0250209711602
 30
0.0
  0
VERTEX
  5
407
330
2A5
100
AcDbEntity
  8
Make2D$可见线$普通线
100
AcDbVertex
100
AcDb2dVertex
 10
492.2603504981288
 20
571.0856435293123
 30
0.0
  0
VERTEX
  5
408
330
2A5
100
AcDbEntity
  8
Make2D$可见线$普通线
100
AcDbVertex
100
AcDb2dVertex
 10
491.3880252804841
 20
570.1709180203998
 30
0.0
  0
VERTEX
  5
409
330
2A5
100
AcDbEntity
  8
Make2D$可见线$普通线
100
AcDbVertex
100
AcDb2dVertex
 10
490.4893622656729
 20
569.2805847005804
 30
0.0
  0
VERTEX
  5
40A
330
2A5
100
AcDbEntity
  8
Make2D$可见线$普通线
100
AcDbVertex
100
AcDb2dVertex
 10
489.5658068969157
 20
568.4143838260119
 30
0.0
  0
VERTEX
  5
40B
330
2A5
100
AcDbEntity
  8
Make2D$可见线$普通线
100
AcDbVertex
100
AcDb2dVertex
 10
488.6188046174327
 20
567.5720556528515
 30
0.0
  0
VERTEX
  5
40C
330
2A5
100
AcDbEntity
  8
Make2D$可见线$普通线
100
AcDbVertex
100
AcDb2dVertex
 10
487.6498008704442
 20
566.753340437257
 30
0.0
  0
VERTEX
  5
40D
330
2A5
100
AcDbEntity
  8
Make2D$可见线$普通线
100
AcDbVertex
100
AcDb2dVertex
 10
486.6602410991705
 20
565.9579784353857
 30
0.0
  0
VERTEX
  5
40E
330
2A5
100
AcDbEntity
  8
Make2D$可见线$普通线
100
AcDbVertex
100
AcDb2dVertex
 10
485.6515707468322
 20
565.1857099033955
 30
0.0
  0
VERTEX
  5
40F
330
2A5
100
AcDbEntity
  8
Make2D$可见线$普通线
100
AcDbVertex
100
AcDb2dVertex
 10
484.6252352566494
 20
564.4362750974437
 30
0.0
  0
VERTEX
  5
410
330
2A5
100
AcDbEntity
  8
Make2D$可见线$普通线
100
AcDbVertex
100
AcDb2dVertex
 10
483.5826800718424
 20
563.7094142736881
 30
0.0
  0
VERTEX
  5
411
330
2A5
100
AcDbEntity
  8
Make2D$可见线$普通线
100
AcDbVertex
100
AcDb2dVertex
 10
482.5253506356317
 20
563.0048676882861
 30
0.0
  0
VERTEX
  5
412
330
2A5
100
AcDbEntity
  8
Make2D$可见线$普通线
100
AcDbVertex
100
AcDb2dVertex
 10
481.4546923912375
 20
562.3223755973954
 30
0.0
  0
VERTEX
  5
413
330
2A5
100
AcDbEntity
  8
Make2D$可见线$普通线
100
AcDbVertex
100
AcDb2dVertex
 10
480.1710624403662
 20
561.5421842793384
 30
0.0
  0
VERTEX
  5
414
330
2A5
100
AcDbEntity
  8
Make2D$可见线$普通线
100
AcDbVertex
100
AcDb2dVertex
 10
478.8714570784891
 20
560.7920121315234
 30
0.0
  0
VERTEX
  5
415
330
2A5
100
AcDbEntity
  8
Make2D$可见线$普通线
100
AcDbVertex
100
AcDb2dVertex
 10
477.5565709298797
 20
560.0713045545854
 30
0.0
  0
VERTEX
  5
416
330
2A5
100
AcDbEntity
  8
Make2D$可见线$普通线
100
AcDbVertex
100
AcDb2dVertex
 10
476.2270986188114
 20
559.3795069491588
 30
0.0
  0
VERTEX
  5
417
330
2A5
100
AcDbEntity
  8
Make2D$可见线$普通线
100
AcDbVertex
100
AcDb2dVertex
 10
474.8837347695573
 20
558.7160647158782
 30
0.0
  0
VERTEX
  5
418
330
2A5
100
AcDbEntity
  8
Make2D$可见线$普通线
100
AcDbVertex
100
AcDb2dVertex
 10
473.527174006391
 20
558.0804232553783
 30
0.0
  0
VERTEX
  5
419
330
2A5
100
AcDbEntity
  8
Make2D$可见线$普通线
100
AcDbVertex
100
AcDb2dVertex
 10
472.1581109535857
 20
557.4720279682936
 30
0.0
  0
VERTEX
  5
41A
330
2A5
100
AcDbEntity
  8
Make2D$可见线$普通线
100
AcDbVertex
100
AcDb2dVertex
 10
470.7772402354149
 20
556.8903242552586
 30
0.0
  0
VERTEX
  5
41B
330
2A5
100
AcDbEntity
  8
Make2D$可见线$普通线
100
AcDbVertex
100
AcDb2dVertex
 10
469.3852564761518
 20
556.334757516908
 30
0.0
  0
VERTEX
  5
41C
330
2A5
100
AcDbEntity
  8
Make2D$可见线$普通线
100
AcDbVertex
100
AcDb2dVertex
 10
467.9828543000698
 20
555.8047731538763
 30
0.0
  0
VERTEX
  5
41D
330
2A5
100
AcDbEntity
  8
Make2D$可见线$普通线
100
AcDbVertex
100
AcDb2dVertex
 10
466.5707283314422
 20
555.2998165667983
 30
0.0
  0
VERTEX
  5
41E
330
2A5
100
AcDbEntity
  8
Make2D$可见线$普通线
100
AcDbVertex
100
AcDb2dVertex
 10
465.1495731945425
 20
554.8193331563084
 30
0.0
  0
VERTEX
  5
41F
330
2A5
100
AcDbEntity
  8
Make2D$可见线$普通线
100
AcDbVertex
100
AcDb2dVertex
 10
463.720083513644
 20
554.3627683230412
 30
0.0
  0
VERTEX
  5
420
330
2A5
100
AcDbEntity
  8
Make2D$可见线$普通线
100
AcDbVertex
100
AcDb2dVertex
 10
462.28295391302
 20
553.9295674676314
 30
0.0
  0
VERTEX
  5
421
330
2A5
100
AcDbEntity
  8
Make2D$可见线$普通线
100
AcDbVertex
100
AcDb2dVertex
 10
460.8388790169438
 20
553.5191759907133
 30
0.0
  0
VERTEX
  5
422
330
2A5
100
AcDbEntity
  8
Make2D$可见线$普通线
100
AcDbVertex
100
AcDb2dVertex
 10
459.3885534496888
 20
553.1310392929217
 30
0.0
  0
VERTEX
  5
423
330
2A5
100
AcDbEntity
  8
Make2D$可见线$普通线
100
AcDbVertex
100
AcDb2dVertex
 10
458.4100619518121
 20
552.8822999035983
 30
0.0
  0
VERTEX
  5
424
330
2A5
100
AcDbEntity
  8
Make2D$可见线$普通线
100
AcDbVertex
100
AcDb2dVertex
 10
457.4291614558825
 20
552.6434176289345
 30
0.0
  0
VERTEX
  5
425
330
2A5
100
AcDbEntity
  8
Make2D$可见线$普通线
100
AcDbVertex
100
AcDb2dVertex
 10
456.4459555277288
 20
552.4144362956858
 30
0.0
  0
VERTEX
  5
426
330
2A5
100
AcDbEntity
  8
Make2D$可见线$普通线
100
AcDbVertex
100
AcDb2dVertex
 10
455.4605477331796
 20
552.1953997306083
 30
0.0
  0
VERTEX
  5
427
330
2A5
100
AcDbEntity
  8
Make2D$可见线$普通线
100
AcDbVertex
100
AcDb2dVertex
 10
454.4730416380637
 20
551.9863517604576
 30
0.0
  0
VERTEX
  5
428
330
2A5
100
AcDbEntity
  8
Make2D$可见线$普通线
100
AcDbVertex
100
AcDb2dVertex
 10
453.4835408082097
 20
551.7873362119899
 30
0.0
  0
VERTEX
  5
429
330
2A5
100
AcDbEntity
  8
Make2D$可见线$普通线
100
AcDbVertex
100
AcDb2dVertex
 10
452.4921488094461
 20
551.5983969119608
 30
0.0
  0
VERTEX
  5
42A
330
2A5
100
AcDbEntity
  8
Make2D$可见线$普通线
100
AcDbVertex
100
AcDb2dVertex
 10
451.4989692076019
 20
551.419577687126
 30
0.0
  0
VERTEX
  5
42B
330
2A5
100
AcDbEntity
  8
Make2D$可见线$普通线
100
AcDbVertex
100
AcDb2dVertex
 10
449.778321986601
 20
551.1343241844986
 30
0.0
  0
VERTEX
  5
42C
330
2A5
100
AcDbEntity
  8
Make2D$可见线$普通线
100
AcDbVertex
100
AcDb2dVertex
 10
448.0531353362084
 20
550.87873794918
 30
0.0
  0
VERTEX
  5
42D
330
2A5
100
AcDbEntity
  8
Make2D$可见线$普通线
100
AcDbVertex
100
AcDb2dVertex
 10
446.3239013469016
 20
550.6521188236784
 30
0.0
  0
VERTEX
  5
42E
330
2A5
100
AcDbEntity
  8
Make2D$可见线$普通线
100
AcDbVertex
100
AcDb2dVertex
 10
444.5911121091585
 20
550.4537666505017
 30
0.0
  0
VERTEX
  5
42F
330
2A5
100
AcDbEntity
  8
Make2D$可见线$普通线
100
AcDbVertex
100
AcDb2dVertex
 10
442.6138575254913
 20
550.2392958811606
 30
0.0
  0
VERTEX
  5
430
330
2A5
100
AcDbEntity
  8
Make2D$可见线$普通线
100
AcDbVertex
100
AcDb2dVertex
 10
441.9571714730342
 20
550.1529602139291
 30
0.0
  0
VERTEX
  5
431
330
2A5
100
AcDbEntity
  8
Make2D$可见线$普通线
100
AcDbVertex
100
AcDb2dVertex
 10
441.499475840491
 20
550.082338309939
 30
0.0
  0
VERTEX
  5
432
330
2A5
100
AcDbEntity
  8
Make2D$可见线$普通线
100
AcDbVertex
100
AcDb2dVertex
 10
441.2715463092285
 20
550.0412541841177
 30
0.0
  0
VERTEX
  5
433
330
2A5
100
AcDbEntity
  8
Make2D$可见线$普通线
100
AcDbVertex
100
AcDb2dVertex
 10
441.0444866232978
 20
549.9947656017246
 30
0.0
  0
VERTEX
  5
434
330
2A5
100
AcDbEntity
  8
Make2D$可见线$普通线
100
AcDbVertex
100
AcDb2dVertex
 10
440.2697287055557
 20
549.8170058854855
 30
0.0
  0
VERTEX
  5
435
330
2A5
100
AcDbEntity
  8
Make2D$可见线$普通线
100
AcDbVertex
100
AcDb2dVertex
 10
440.139850166469
 20
549.7928154425929
 30
0.0
  0
VERTEX
  5
436
330
2A5
100
AcDbEntity
  8
Make2D$可见线$普通线
100
AcDbVertex
100
AcDb2dVertex
 10
440.009411075301
 20
549.7724529227834
 30
0.0
  0
VERTEX
  5
437
330
2A5
100
AcDbEntity
  8
Make2D$可见线$普通线
100
AcDbVertex
100
AcDb2dVertex
 10
439.926398447974
 20
549.7618695621622
 30
0.0
  0
VERTEX
  5
438
330
2A5
100
AcDbEntity
  8
Make2D$可见线$普通线
100
AcDbVertex
100
AcDb2dVertex
 10
439.843137652405
 20
549.7531013642524
 30
0.0
  0
VERTEX
  5
439
330
2A5
100
AcDbEntity
  8
Make2D$可见线$普通线
100
AcDbVertex
100
AcDb2dVertex
 10
439.7596577712285
 20
549.7460830745422
 30
0.0
  0
VERTEX
  5
43A
330
2A5
100
AcDbEntity
  8
Make2D$可见线$普通线
100
AcDbVertex
100
AcDb2dVertex
 10
439.6759878870788
 20
549.7407494385202
 30
0.0
  0
VERTEX
  5
43B
330
2A5
100
AcDbEntity
  8
Make2D$可见线$普通线
100
AcDbVertex
100
AcDb2dVertex
 10
439.5921570825902
 20
549.7370352016751
 30
0.0
  0
VERTEX
  5
43C
330
2A5
100
AcDbEntity
  8
Make2D$可见线$普通线
100
AcDbVertex
100
AcDb2dVertex
 10
439.5081944403971
 20
549.7348751094955
 30
0.0
  0
VERTEX
  5
43D
330
2A5
100
AcDbEntity
  8
Make2D$可见线$普通线
100
AcDbVertex
100
AcDb2dVertex
 10
439.3399899734346
 20
549.7349563410871
 30
0.0
  0
VERTEX
  5
43E
330
2A5
100
AcDbEntity
  8
Make2D$可见线$普通线
100
AcDbVertex
100
AcDb2dVertex
 10
439.1716071472662
 20
549.7404710972035
 30
0.0
  0
VERTEX
  5
43F
330
2A5
100
AcDbEntity
  8
Make2D$可见线$普通线
100
AcDbVertex
100
AcDb2dVertex
 10
439.0032786229665
 20
549.7508973417534
 30
0.0
  0
VERTEX
  5
440
330
2A5
100
AcDbEntity
  8
Make2D$可见线$普通线
100
AcDbVertex
100
AcDb2dVertex
 10
438.8352370616104
 20
549.7657130386455
 30
0.0
  0
VERTEX
  5
441
330
2A5
100
AcDbEntity
  8
Make2D$可见线$普通线
100
AcDbVertex
100
AcDb2dVertex
 10
438.6677151242725
 20
549.7843961517883
 30
0.0
  0
VERTEX
  5
442
330
2A5
100
AcDbEntity
  8
Make2D$可见线$普通线
100
AcDbVertex
100
AcDb2dVertex
 10
438.3851704197962
 20
549.8235027469941
 30
0.0
  0
VERTEX
  5
443
330
2A5
100
AcDbEntity
  8
Make2D$可见线$普通线
100
AcDbVertex
100
AcDb2dVertex
 10
438.1043034284762
 20
549.8699769655686
 30
0.0
  0
VERTEX
  5
444
330
2A5
100
AcDbEntity
  8
Make2D$可见线$普通线
100
AcDbVertex
100
AcDb2dVertex
 10
436.7081178449602
 20
550.1339331549389
 30
0.0
  0
VERTEX
  5
445
330
2A5
100
AcDbEntity
  8
Make2D$可见线$普通线
100
AcDbVertex
100
AcDb2dVertex
 10
436.4271073380215
 20
550.1772555613063
 30
0.0
  0
VERTEX
  5
446
330
2A5
100
AcDbEntity
  8
Make2D$可见线$普通线
100
AcDbVertex
100
AcDb2dVertex
 10
436.2581683276337
 20
550.199393628055
 30
0.0
  0
VERTEX
  5
447
330
2A5
100
AcDbEntity
  8
Make2D$可见线$普通线
100
AcDbVertex
100
AcDb2dVertex
 10
436.0887023436281
 20
550.2185911935359
 30
0.0
  0
VERTEX
  5
448
330
2A5
100
AcDbEntity
  8
Make2D$可见线$普通线
100
AcDbVertex
100
AcDb2dVertex
 10
435.748553726532
 20
550.2484634555387
 30
0.0
  0
VERTEX
  5
449
330
2A5
100
AcDbEntity
  8
Make2D$可见线$普通线
100
AcDbVertex
100
AcDb2dVertex
 10
435.4073900302691
 20
550.2674696170036
 30
0.0
  0
VERTEX
  5
44A
330
2A5
100
AcDbEntity
  8
Make2D$可见线$普通线
100
AcDbVertex
100
AcDb2dVertex
 10
435.0659397983753
 20
550.2762069476194
 30
0.0
  0
VERTEX
  5
44B
330
2A5
100
AcDbEntity
  8
Make2D$可见线$普通线
100
AcDbVertex
100
AcDb2dVertex
 10
434.7406880038637
 20
550.2746758295868
 30
0.0
  0
VERTEX
  5
44C
330
2A5
100
AcDbEntity
  8
Make2D$可见线$普通线
100
AcDbVertex
100
AcDb2dVertex
 10
434.5784073743901
 20
550.269188973519
 30
0.0
  0
VERTEX
  5
44D
330
2A5
100
AcDbEntity
  8
Make2D$可见线$普通线
100
AcDbVertex
100
AcDb2dVertex
 10
434.4164606559993
 20
550.259796015275
 30
0.0
  0
VERTEX
  5
44E
330
2A5
100
AcDbEntity
  8
Make2D$可见线$普通线
100
AcDbVertex
100
AcDb2dVertex
 10
434.2549256481129
 20
550.2459280267482
 30
0.0
  0
VERTEX
  5
44F
330
2A5
100
AcDbEntity
  8
Make2D$可见线$普通线
100
AcDbVertex
100
AcDb2dVertex
 10
434.0938801501524
 20
550.2270160798319
 30
0.0
  0
VERTEX
  5
450
330
2A5
100
AcDbEntity
  8
Make2D$可见线$普通线
100
AcDbVertex
100
AcDb2dVertex
 10
434.0135652797134
 20
550.2154908319444
 30
0.0
  0
VERTEX
  5
451
330
2A5
100
AcDbEntity
  8
Make2D$可见线$普通线
100
AcDbVertex
100
AcDb2dVertex
 10
433.9334019615387
 20
550.2024912464196
 30
0.0
  0
VERTEX
  5
452
330
2A5
100
AcDbEntity
  8
Make2D$可见线$普通线
100
AcDbVertex
100
AcDb2dVertex
 10
433.8533999205562
 20
550.1879462072443
 30
0.0
  0
VERTEX
  5
453
330
2A5
100
AcDbEntity
  8
Make2D$可见线$普通线
100
AcDbVertex
100
AcDb2dVertex
 10
433.7735688816933
 20
550.1717845984048
 30
0.0
  0
VERTEX
  5
454
330
2A5
100
AcDbEntity
  8
Make2D$可见线$普通线
100
AcDbVertex
100
AcDb2dVertex
 10
433.6751026429531
 20
550.1493110697877
 30
0.0
  0
VERTEX
  5
455
330
2A5
100
AcDbEntity
  8
Make2D$可见线$普通线
100
AcDbVertex
100
AcDb2dVertex
 10
433.6261771734776
 20
550.1368345620633
 30
0.0
  0
VERTEX
  5
456
330
2A5
100
AcDbEntity
  8
Make2D$可见线$普通线
100
AcDbVertex
100
AcDb2dVertex
 10
433.5775654943146
 20
550.1233876072793
 30
0.0
  0
VERTEX
  5
457
330
2A5
100
AcDbEntity
  8
Make2D$可见线$普通线
100
AcDbVertex
100
AcDb2dVertex
 10
433.5293491232513
 20
550.108862241849
 30
0.0
  0
VERTEX
  5
458
330
2A5
100
AcDbEntity
  8
Make2D$可见线$普通线
100
AcDbVertex
100
AcDb2dVertex
 10
433.4816095780746
 20
550.0931505021858
 30
0.0
  0
VERTEX
  5
459
330
2A5
100
AcDbEntity
  8
Make2D$可见线$普通线
100
AcDbVertex
100
AcDb2dVertex
 10
433.4344283765718
 20
550.0761444247032
 30
0.0
  0
VERTEX
  5
45A
330
2A5
100
AcDbEntity
  8
Make2D$可见线$普通线
100
AcDbVertex
100
AcDb2dVertex
 10
433.3878870365297
 20
550.0577360458141
 30
0.0
  0
VERTEX
  5
45B
330
2A5
100
AcDbEntity
  8
Make2D$可见线$普通线
100
AcDbVertex
100
AcDb2dVertex
 10
433.3420670757357
 20
550.037817401932
 30
0.0
  0
VERTEX
  5
45C
330
2A5
100
AcDbEntity
  8
Make2D$可见线$普通线
100
AcDbVertex
100
AcDb2dVertex
 10
433.3194530868651
 20
550.0272579919978
 30
0.0
  0
VERTEX
  5
45D
330
2A5
100
AcDbEntity
  8
Make2D$可见线$普通线
100
AcDbVertex
100
AcDb2dVertex
 10
433.2970500119766
 20
550.0162805294702
 30
0.0
  0
VERTEX
  5
45E
330
2A5
100
AcDbEntity
  8
Make2D$可见线$普通线
100
AcDbVertex
100
AcDb2dVertex
 10
433.2748680407938
 20
550.0048715189012
 30
0.0
  0
VERTEX
  5
45F
330
2A5
100
AcDbEntity
  8
Make2D$可见线$普通线
100
AcDbVertex
100
AcDb2dVertex
 10
433.2529173630397
 20
549.9930174648423
 30
0.0
  0
VERTEX
  5
460
330
2A5
100
AcDbEntity
  8
Make2D$可见线$普通线
100
AcDbVertex
100
AcDb2dVertex
 10
433.231208168438
 20
549.980704871845
 30
0.0
  0
VERTEX
  5
461
330
2A5
100
AcDbEntity
  8
Make2D$可见线$普通线
100
AcDbVertex
100
AcDb2dVertex
 10
433.209750646712
 20
549.9679202444612
 30
0.0
  0
VERTEX
  5
462
330
2A5
100
AcDbEntity
  8
Make2D$可见线$普通线
100
AcDbVertex
100
AcDb2dVertex
 10
433.188554987585
 20
549.9546500872425
 30
0.0
  0
VERTEX
  5
463
330
2A5
100
AcDbEntity
  8
Make2D$可见线$普通线
100
AcDbVertex
100
AcDb2dVertex
 10
433.1676313807806
 20
549.9408809047404
 30
0.0
  0
VERTEX
  5
464
330
2A5
100
AcDbEntity
  8
Make2D$可见线$普通线
100
AcDbVertex
100
AcDb2dVertex
 10
433.146990016022
 20
549.9265992015067
 30
0.0
  0
VERTEX
  5
465
330
2A5
100
AcDbEntity
  8
Make2D$可见线$普通线
100
AcDbVertex
100
AcDb2dVertex
 10
433.1266410830326
 20
549.9117914820931
 30
0.0
  0
VERTEX
  5
466
330
2A5
100
AcDbEntity
  8
Make2D$可见线$普通线
100
AcDbVertex
100
AcDb2dVertex
 10
433.1065947715358
 20
549.8964442510512
 30
0.0
  0
VERTEX
  5
467
330
2A5
100
AcDbEntity
  8
Make2D$可见线$普通线
100
AcDbVertex
100
AcDb2dVertex
 10
433.086861271255
 20
549.8805440129329
 30
0.0
  0
VERTEX
  5
468
330
2A5
100
AcDbEntity
  8
Make2D$可见线$普通线
100
AcDbVertex
100
AcDb2dVertex
 10
433.0674507719137
 20
549.8640772722894
 30
0.0
  0
VERTEX
  5
469
330
2A5
100
AcDbEntity
  8
Make2D$可见线$普通线
100
AcDbVertex
100
AcDb2dVertex
 10
433.0483734632351
 20
549.8470305336728
 30
0.0
  0
VERTEX
  5
46A
330
2A5
100
AcDbEntity
  8
Make2D$可见线$普通线
100
AcDbVertex
100
AcDb2dVertex
 10
433.0279014925666
 20
549.8653710437311
 30
0.0
  0
VERTEX
  5
46B
330
2A5
100
AcDbEntity
  8
Make2D$可见线$普通线
100
AcDbVertex
100
AcDb2dVertex
 10
433.0071028930556
 20
549.8829808598668
 30
0.0
  0
VERTEX
  5
46C
330
2A5
100
AcDbEntity
  8
Make2D$可见线$普通线
100
AcDbVertex
100
AcDb2dVertex
 10
432.9859875113272
 20
549.8998793378621
 30
0.0
  0
VERTEX
  5
46D
330
2A5
100
AcDbEntity
  8
Make2D$可见线$普通线
100
AcDbVertex
100
AcDb2dVertex
 10
432.9645651940064
 20
549.9160858334992
 30
0.0
  0
VERTEX
  5
46E
330
2A5
100
AcDbEntity
  8
Make2D$可见线$普通线
100
AcDbVertex
100
AcDb2dVertex
 10
432.9428457877182
 20
549.9316197025605
 30
0.0
  0
VERTEX
  5
46F
330
2A5
100
AcDbEntity
  8
Make2D$可见线$普通线
100
AcDbVertex
100
AcDb2dVertex
 10
432.9208391390877
 20
549.9465003008281
 30
0.0
  0
VERTEX
  5
470
330
2A5
100
AcDbEntity
  8
Make2D$可见线$普通线
100
AcDbVertex
100
AcDb2dVertex
 10
432.8985550947398
 20
549.9607469840844
 30
0.0
  0
VERTEX
  5
471
330
2A5
100
AcDbEntity
  8
Make2D$可见线$普通线
100
AcDbVertex
100
AcDb2dVertex
 10
432.8760035012996
 20
549.9743791081114
 30
0.0
  0
VERTEX
  5
472
330
2A5
100
AcDbEntity
  8
Make2D$可见线$普通线
100
AcDbVertex
100
AcDb2dVertex
 10
432.8531942053921
 20
549.9874160286915
 30
0.0
  0
VERTEX
  5
473
330
2A5
100
AcDbEntity
  8
Make2D$可见线$普通线
100
AcDbVertex
100
AcDb2dVertex
 10
432.8301370536424
 20
549.9998771016071
 30
0.0
  0
VERTEX
  5
474
330
2A5
100
AcDbEntity
  8
Make2D$可见线$普通线
100
AcDbVertex
100
AcDb2dVertex
 10
432.8068418926754
 20
550.0117816826402
 30
0.0
  0
VERTEX
  5
475
330
2A5
100
AcDbEntity
  8
Make2D$可见线$普通线
100
AcDbVertex
100
AcDb2dVertex
 10
432.7833185691162
 20
550.0231491275731
 30
0.0
  0
VERTEX
  5
476
330
2A5
100
AcDbEntity
  8
Make2D$可见线$普通线
100
AcDbVertex
100
AcDb2dVertex
 10
432.7595769295898
 20
550.0339987921881
 30
0.0
  0
VERTEX
  5
477
330
2A5
100
AcDbEntity
  8
Make2D$可见线$普通线
100
AcDbVertex
100
AcDb2dVertex
 10
432.7356268207213
 20
550.0443500322675
 30
0.0
  0
VERTEX
  5
478
330
2A5
100
AcDbEntity
  8
Make2D$可见线$普通线
100
AcDbVertex
100
AcDb2dVertex
 10
432.7114780891357
 20
550.0542222035936
 30
0.0
  0
VERTEX
  5
479
330
2A5
100
AcDbEntity
  8
Make2D$可见线$普通线
100
AcDbVertex
100
AcDb2dVertex
 10
432.687140581458
 20
550.0636346619483
 30
0.0
  0
VERTEX
  5
47A
330
2A5
100
AcDbEntity
  8
Make2D$可见线$普通线
100
AcDbVertex
100
AcDb2dVertex
 10
432.6379386243264
 20
550.0811578628735
 30
0.0
  0
VERTEX
  5
47B
330
2A5
100
AcDbEntity
  8
Make2D$可见线$普通线
100
AcDbVertex
100
AcDb2dVertex
 10
432.5880997223266
 20
550.0970744813011
 30
0.0
  0
VERTEX
  5
47C
330
2A5
100
AcDbEntity
  8
Make2D$可见线$普通线
100
AcDbVertex
100
AcDb2dVertex
 10
432.5377026484589
 20
550.1115393634891
 30
0.0
  0
VERTEX
  5
47D
330
2A5
100
AcDbEntity
  8
Make2D$可见线$普通线
100
AcDbVertex
100
AcDb2dVertex
 10
432.4868261757235
 20
550.1247073556956
 30
0.0
  0
VERTEX
  5
47E
330
2A5
100
AcDbEntity
  8
Make2D$可见线$普通线
100
AcDbVertex
100
AcDb2dVertex
 10
432.4355490771206
 20
550.1367333041785
 30
0.0
  0
VERTEX
  5
47F
330
2A5
100
AcDbEntity
  8
Make2D$可见线$普通线
100
AcDbVertex
100
AcDb2dVertex
 10
432.3839501256504
 20
550.1477720551957
 30
0.0
  0
VERTEX
  5
480
330
2A5
100
AcDbEntity
  8
Make2D$可见线$普通线
100
AcDbVertex
100
AcDb2dVertex
 10
432.2801017561089
 20
550.1675073498654
 30
0.0
  0
VERTEX
  5
481
330
2A5
100
AcDbEntity
  8
Make2D$可见线$普通线
100
AcDbVertex
100
AcDb2dVertex
 10
432.109758241372
 20
550.1949368681982
 30
0.0
  0
VERTEX
  5
482
330
2A5
100
AcDbEntity
  8
Make2D$可见线$普通线
100
AcDbVertex
100
AcDb2dVertex
 10
431.9386547715118
 20
550.217106182629
 30
0.0
  0
VERTEX
  5
483
330
2A5
100
AcDbEntity
  8
Make2D$可见线$普通线
100
AcDbVertex
100
AcDb2dVertex
 10
431.7669424505811
 20
550.2343221589501
 30
0.0
  0
VERTEX
  5
484
330
2A5
100
AcDbEntity
  8
Make2D$可见线$普通线
100
AcDbVertex
100
AcDb2dVertex
 10
431.5947723826329
 20
550.2468916629539
 30
0.0
  0
VERTEX
  5
485
330
2A5
100
AcDbEntity
  8
Make2D$可见线$普通线
100
AcDbVertex
100
AcDb2dVertex
 10
431.42229567172
 20
550.2551215604324
 30
0.0
  0
VERTEX
  5
486
330
2A5
100
AcDbEntity
  8
Make2D$可见线$普通线
100
AcDbVertex
100
AcDb2dVertex
 10
431.2496634218955
 20
550.2593187171778
 30
0.0
  0
VERTEX
  5
487
330
2A5
100
AcDbEntity
  8
Make2D$可见线$普通线
100
AcDbVertex
100
AcDb2dVertex
 10
431.0770267372123
 20
550.2597899989825
 30
0.0
  0
VERTEX
  5
488
330
2A5
100
AcDbEntity
  8
Make2D$可见线$普通线
100
AcDbVertex
100
AcDb2dVertex
 10
430.9045367217234
 20
550.2568422716384
 30
0.0
  0
VERTEX
  5
489
330
2A5
100
AcDbEntity
  8
Make2D$可见线$普通线
100
AcDbVertex
100
AcDb2dVertex
 10
430.6631549468393
 20
550.2474859848163
 30
0.0
  0
VERTEX
  5
48A
330
2A5
100
AcDbEntity
  8
Make2D$可见线$普通线
100
AcDbVertex
100
AcDb2dVertex
 10
430.4223092568144
 20
550.2325448949646
 30
0.0
  0
VERTEX
  5
48B
330
2A5
100
AcDbEntity
  8
Make2D$可见线$普通线
100
AcDbVertex
100
AcDb2dVertex
 10
430.181950390237
 20
550.2125518792856
 30
0.0
  0
VERTEX
  5
48C
330
2A5
100
AcDbEntity
  8
Make2D$可见线$普通线
100
AcDbVertex
100
AcDb2dVertex
 10
429.9420290856955
 20
550.1880398149814
 30
0.0
  0
VERTEX
  5
48D
330
2A5
100
AcDbEntity
  8
Make2D$可见线$普通线
100
AcDbVertex
100
AcDb2dVertex
 10
429.4633021170739
 20
550.1275900493072
 30
0.0
  0
VERTEX
  5
48E
330
2A5
100
AcDbEntity
  8
Make2D$可见线$普通线
100
AcDbVertex
100
AcDb2dVertex
 10
428.985734259657
 20
550.0554586155604
 30
0.0
  0
VERTEX
  5
48F
330
2A5
100
AcDbEntity
  8
Make2D$可见线$普通线
100
AcDbVertex
100
AcDb2dVertex
 10
426.9185059793095
 20
549.7125348001106
 30
0.0
  0
VERTEX
  5
490
330
2A5
100
AcDbEntity
  8
Make2D$可见线$普通线
100
AcDbVertex
100
AcDb2dVertex
 10
426.8381375738342
 20
549.7031867703433
 30
0.0
  0
VERTEX
  5
491
330
2A5
100
AcDbEntity
  8
Make2D$可见线$普通线
100
AcDbVertex
100
AcDb2dVertex
 10
426.7577451466449
 20
549.6961078907086
 30
0.0
  0
VERTEX
  5
492
330
2A5
100
AcDbEntity
  8
Make2D$可见线$普通线
100
AcDbVertex
100
AcDb2dVertex
 10
426.717539816231
 20
549.6936273320213
 30
0.0
  0
VERTEX
  5
493
330
2A5
100
AcDbEntity
  8
Make2D$可见线$普通线
100
AcDbVertex
100
AcDb2dVertex
 10
426.6773283499766
 20
549.6919636006635
 30
0.0
  0
VERTEX
  5
494
330
2A5
100
AcDbEntity
  8
Make2D$可见线$普通线
100
AcDbVertex
100
AcDb2dVertex
 10
426.6371107044113
 20
549.6911998765676
 30
0.0
  0
VERTEX
  5
495
330
2A5
100
AcDbEntity
  8
Make2D$可见线$普通线
100
AcDbVertex
100
AcDb2dVertex
 10
426.5968868360643
 20
549.6914193396653
 30
0.0
  0
VERTEX
  5
496
330
2A5
100
AcDbEntity
  8
Make2D$可见线$普通线
100
AcDbVertex
100
AcDb2dVertex
 10
426.5566567014649
 20
549.6927051698892
 30
0.0
  0
VERTEX
  5
497
330
2A5
100
AcDbEntity
  8
Make2D$可见线$普通线
100
AcDbVertex
100
AcDb2dVertex
 10
426.5164202571426
 20
549.6951405471711
 30
0.0
  0
VERTEX
  5
498
330
2A5
100
AcDbEntity
  8
Make2D$可见线$普通线
100
AcDbVertex
100
AcDb2dVertex
 10
426.4761774596267
 20
549.6988086514432
 30
0.0
  0
VERTEX
  5
499
330
2A5
100
AcDbEntity
  8
Make2D$可见线$普通线
100
AcDbVertex
100
AcDb2dVertex
 10
426.4359282654466
 20
549.7037926626379
 30
0.0
  0
VERTEX
  5
49A
330
2A5
100
AcDbEntity
  8
Make2D$可见线$普通线
100
AcDbVertex
100
AcDb2dVertex
 10
426.3970875709491
 20
549.7099057205774
 30
0.0
  0
VERTEX
  5
49B
330
2A5
100
AcDbEntity
  8
Make2D$可见线$普通线
100
AcDbVertex
100
AcDb2dVertex
 10
426.3582923483202
 20
549.7172612391169
 30
0.0
  0
VERTEX
  5
49C
330
2A5
100
AcDbEntity
  8
Make2D$可见线$普通线
100
AcDbVertex
100
AcDb2dVertex
 10
426.3195940674772
 20
549.7257986330012
 30
0.0
  0
VERTEX
  5
49D
330
2A5
100
AcDbEntity
  8
Make2D$可见线$普通线
100
AcDbVertex
100
AcDb2dVertex
 10
426.2810441983375
 20
549.7354573169754
 30
0.0
  0
VERTEX
  5
49E
330
2A5
100
AcDbEntity
  8
Make2D$可见线$普通线
100
AcDbVertex
100
AcDb2dVertex
 10
426.2426942108182
 20
549.7461767057843
 30
0.0
  0
VERTEX
  5
49F
330
2A5
100
AcDbEntity
  8
Make2D$可见线$普通线
100
AcDbVertex
100
AcDb2dVertex
 10
426.2045955748368
 20
549.7578962141728
 30
0.0
  0
VERTEX
  5
4A0
330
2A5
100
AcDbEntity
  8
Make2D$可见线$普通线
100
AcDbVertex
100
AcDb2dVertex
 10
426.1667997603105
 20
549.7705552568859
 30
0.0
  0
VERTEX
  5
4A1
330
2A5
100
AcDbEntity
  8
Make2D$可见线$普通线
100
AcDbVertex
100
AcDb2dVertex
 10
426.1293582371565
 20
549.7840932486686
 30
0.0
  0
VERTEX
  5
4A2
330
2A5
100
AcDbEntity
  8
Make2D$可见线$普通线
100
AcDbVertex
100
AcDb2dVertex
 10
426.0704597547495
 20
549.8073264670443
 30
0.0
  0
VERTEX
  5
4A3
330
2A5
100
AcDbEntity
  8
Make2D$可见线$普通线
100
AcDbVertex
100
AcDb2dVertex
 10
426.012444664669
 20
549.8322711882673
 30
0.0
  0
VERTEX
  5
4A4
330
2A5
100
AcDbEntity
  8
Make2D$可见线$普通线
100
AcDbVertex
100
AcDb2dVertex
 10
425.955164778333
 20
549.8585583606604
 30
0.0
  0
VERTEX
  5
4A5
330
2A5
100
AcDbEntity
  8
Make2D$可见线$普通线
100
AcDbVertex
100
AcDb2dVertex
 10
425.6186261783538
 20
550.0238059756471
 30
0.0
  0
VERTEX
  5
4A6
330
2A5
100
AcDbEntity
  8
Make2D$可见线$普通线
100
AcDbVertex
100
AcDb2dVertex
 10
425.5623434379303
 20
550.0491568592597
 30
0.0
  0
VERTEX
  5
4A7
330
2A5
100
AcDbEntity
  8
Make2D$可见线$普通线
100
AcDbVertex
100
AcDb2dVertex
 10
425.5056103925946
 20
550.072897780622
 30
0.0
  0
VERTEX
  5
4A8
330
2A5
100
AcDbEntity
  8
Make2D$可见线$普通线
100
AcDbVertex
100
AcDb2dVertex
 10
425.4770286966526
 20
550.0840491768101
 30
0.0
  0
VERTEX
  5
4A9
330
2A5
100
AcDbEntity
  8
Make2D$可见线$普通线
100
AcDbVertex
100
AcDb2dVertex
 10
425.4482788537644
 20
550.0946596880567
 30
0.0
  0
VERTEX
  5
4AA
330
2A5
100
AcDbEntity
  8
Make2D$可见线$普通线
100
AcDbVertex
100
AcDb2dVertex
 10
425.4193423403569
 20
550.1046831829019
 30
0.0
  0
VERTEX
  5
4AB
330
2A5
100
AcDbEntity
  8
Make2D$可见线$普通线
100
AcDbVertex
100
AcDb2dVertex
 10
425.3902006328576
 20
550.1140735298861
 30
0.0
  0
VERTEX
  5
4AC
330
2A5
100
AcDbEntity
  8
Make2D$可见线$普通线
100
AcDbVertex
100
AcDb2dVertex
 10
425.3608352076935
 20
550.1227845975498
 30
0.0
  0
VERTEX
  5
4AD
330
2A5
100
AcDbEntity
  8
Make2D$可见线$普通线
100
AcDbVertex
100
AcDb2dVertex
 10
425.3312275412922
 20
550.1307702544332
 30
0.0
  0
VERTEX
  5
4AE
330
2A5
100
AcDbEntity
  8
Make2D$可见线$普通线
100
AcDbVertex
100
AcDb2dVertex
 10
425.3013591100806
 20
550.1379843690764
 30
0.0
  0
VERTEX
  5
4AF
330
2A5
100
AcDbEntity
  8
Make2D$可见线$普通线
100
AcDbVertex
100
AcDb2dVertex
 10
425.271211390486
 20
550.1443808100199
 30
0.0
  0
VERTEX
  5
4B0
330
2A5
100
AcDbEntity
  8
Make2D$可见线$普通线
100
AcDbVertex
100
AcDb2dVertex
 10
425.2407658589357
 20
550.149913445804
 30
0.0
  0
VERTEX
  5
4B1
330
2A5
100
AcDbEntity
  8
Make2D$可见线$普通线
100
AcDbVertex
100
AcDb2dVertex
 10
425.2100039918569
 20
550.1545361449689
 30
0.0
  0
VERTEX
  5
4B2
330
2A5
100
AcDbEntity
  8
Make2D$可见线$普通线
100
AcDbVertex
100
AcDb2dVertex
 10
425.1822934999047
 20
550.1578760423935
 30
0.0
  0
VERTEX
  5
4B3
330
2A5
100
AcDbEntity
  8
Make2D$可见线$普通线
100
AcDbVertex
100
AcDb2dVertex
 10
425.1543552931021
 20
550.1605550385736
 30
0.0
  0
VERTEX
  5
4B4
330
2A5
100
AcDbEntity
  8
Make2D$可见线$普通线
100
AcDbVertex
100
AcDb2dVertex
 10
425.0979504287063
 20
550.1643290207973
 30
0.0
  0
VERTEX
  5
4B5
330
2A5
100
AcDbEntity
  8
Make2D$可见线$普通线
100
AcDbVertex
100
AcDb2dVertex
 10
424.445526726133
 20
550.1900218318763
 30
0.0
  0
VERTEX
  5
4B6
330
2A5
100
AcDbEntity
  8
Make2D$可见线$普通线
100
AcDbVertex
100
AcDb2dVertex
 10
423.9144350813048
 20
550.2220219823076
 30
0.0
  0
VERTEX
  5
4B7
330
2A5
100
AcDbEntity
  8
Make2D$可见线$普通线
100
AcDbVertex
100
AcDb2dVertex
 10
423.1194336728435
 20
550.2836138803332
 30
0.0
  0
VERTEX
  5
4B8
330
2A5
100
AcDbEntity
  8
Make2D$可见线$普通线
100
AcDbVertex
100
AcDb2dVertex
 10
422.3233675478058
 20
550.3582351540269
 30
0.0
  0
VERTEX
  5
4B9
330
2A5
100
AcDbEntity
  8
Make2D$可见线$普通线
100
AcDbVertex
100
AcDb2dVertex
 10
420.7307067787825
 20
550.5346322119817
 30
0.0
  0
VERTEX
  5
4BA
330
2A5
100
AcDbEntity
  8
Make2D$可见线$普通线
100
AcDbVertex
100
AcDb2dVertex
 10
419.2250048656863
 20
550.7209001222561
 30
0.0
  0
VERTEX
  5
4BB
330
2A5
100
AcDbEntity
  8
Make2D$可见线$普通线
100
AcDbVertex
100
AcDb2dVertex
 10
417.7227677928317
 20
550.9242069566383
 30
0.0
  0
VERTEX
  5
4BC
330
2A5
100
AcDbEntity
  8
Make2D$可见线$普通线
100
AcDbVertex
100
AcDb2dVertex
 10
416.2241077684035
 20
551.1469572480943
 30
0.0
  0
VERTEX
  5
4BD
330
2A5
100
AcDbEntity
  8
Make2D$可见线$普通线
100
AcDbVertex
100
AcDb2dVertex
 10
414.7291370005862
 20
551.3915555295902
 30
0.0
  0
VERTEX
  5
4BE
330
2A5
100
AcDbEntity
  8
Make2D$可见线$普通线
100
AcDbVertex
100
AcDb2dVertex
 10
413.7713898856754
 20
551.5610926967428
 30
0.0
  0
VERTEX
  5
4BF
330
2A5
100
AcDbEntity
  8
Make2D$可见线$普通线
100
AcDbVertex
100
AcDb2dVertex
 10
412.815303927117
 20
551.7405195418199
 30
0.0
  0
VERTEX
  5
4C0
330
2A5
100
AcDbEntity
  8
Make2D$可见线$普通线
100
AcDbVertex
100
AcDb2dVertex
 10
410.9084930155864
 20
552.1286183061752
 30
0.0
  0
VERTEX
  5
4C1
330
2A5
100
AcDbEntity
  8
Make2D$可见线$普通线
100
AcDbVertex
100
AcDb2dVertex
 10
409.0094593390519
 20
552.5550039035104
 30
0.0
  0
VERTEX
  5
4C2
330
2A5
100
AcDbEntity
  8
Make2D$可见线$普通线
100
AcDbVertex
100
AcDb2dVertex
 10
407.1189579705712
 20
553.0188284146798
 30
0.0
  0
VERTEX
  5
4C3
330
2A5
100
AcDbEntity
  8
Make2D$可见线$普通线
100
AcDbVertex
100
AcDb2dVertex
 10
405.6601314754269
 20
553.4036811273827
 30
0.0
  0
VERTEX
  5
4C4
330
2A5
100
AcDbEntity
  8
Make2D$可见线$普通线
100
AcDbVertex
100
AcDb2dVertex
 10
404.2075538145354
 20
553.811035908886
 30
0.0
  0
VERTEX
  5
4C5
330
2A5
100
AcDbEntity
  8
Make2D$可见线$普通线
100
AcDbVertex
100
AcDb2dVertex
 10
402.7618948990064
 20
554.2414146438408
 30
0.0
  0
VERTEX
  5
4C6
330
2A5
100
AcDbEntity
  8
Make2D$可见线$普通线
100
AcDbVertex
100
AcDb2dVertex
 10
401.3238246399499
 20
554.6953392168989
 30
0.0
  0
VERTEX
  5
4C7
330
2A5
100
AcDbEntity
  8
Make2D$可见线$普通线
100
AcDbVertex
100
AcDb2dVertex
 10
399.8940129484755
 20
555.1733315127115
 30
0.0
  0
VERTEX
  5
4C8
330
2A5
100
AcDbEntity
  8
Make2D$可见线$普通线
100
AcDbVertex
100
AcDb2dVertex
 10
398.4731297356932
 20
555.67591341593
 30
0.0
  0
VERTEX
  5
4C9
330
2A5
100
AcDbEntity
  8
Make2D$可见线$普通线
100
AcDbVertex
100
AcDb2dVertex
 10
397.0618449127128
 20
556.2036068112061
 30
0.0
  0
VERTEX
  5
4CA
330
2A5
100
AcDbEntity
  8
Make2D$可见线$普通线
100
AcDbVertex
100
AcDb2dVertex
 10
395.6608283906441
 20
556.7569335831909
 30
0.0
  0
VERTEX
  5
4CB
330
2A5
100
AcDbEntity
  8
Make2D$可见线$普通线
100
AcDbVertex
100
AcDb2dVertex
 10
394.2707500805969
 20
557.336415616536
 30
0.0
  0
VERTEX
  5
4CC
330
2A5
100
AcDbEntity
  8
Make2D$可见线$普通线
100
AcDbVertex
100
AcDb2dVertex
 10
392.892279893681
 20
557.9425747958926
 30
0.0
  0
VERTEX
  5
4CD
330
2A5
100
AcDbEntity
  8
Make2D$可见线$普通线
100
AcDbVertex
100
AcDb2dVertex
 10
391.5260877410063
 20
558.5759330059122
 30
0.0
  0
VERTEX
  5
4CE
330
2A5
100
AcDbEntity
  8
Make2D$可见线$普通线
100
AcDbVertex
100
AcDb2dVertex
 10
390.1728435336826
 20
559.2370121312465
 30
0.0
  0
VERTEX
  5
4CF
330
2A5
100
AcDbEntity
  8
Make2D$可见线$普通线
100
AcDbVertex
100
AcDb2dVertex
 10
388.8332171828197
 20
559.9263340565467
 30
0.0
  0
VERTEX
  5
4D0
330
2A5
100
AcDbEntity
  8
Make2D$可见线$普通线
100
AcDbVertex
100
AcDb2dVertex
 10
387.5078785995274
 20
560.6444206664642
 30
0.0
  0
VERTEX
  5
4D1
330
2A5
100
AcDbEntity
  8
Make2D$可见线$普通线
100
AcDbVertex
100
AcDb2dVertex
 10
386.1974976949157
 20
561.3917938456502
 30
0.0
  0
VERTEX
  5
4D2
330
2A5
100
AcDbEntity
  8
Make2D$可见线$普通线
100
AcDbVertex
100
AcDb2dVertex
 10
384.9027443800942
 20
562.1689754787567
 30
0.0
  0
VERTEX
  5
4D3
330
2A5
100
AcDbEntity
  8
Make2D$可见线$普通线
100
AcDbVertex
100
AcDb2dVertex
 10
383.8195610439961
 20
562.850588697783
 30
0.0
  0
VERTEX
  5
4D4
330
2A5
100
AcDbEntity
  8
Make2D$可见线$普通线
100
AcDbVertex
100
AcDb2dVertex
 10
382.7495607538021
 20
563.5542681153149
 30
0.0
  0
VERTEX
  5
4D5
330
2A5
100
AcDbEntity
  8
Make2D$可见线$普通线
100
AcDbVertex
100
AcDb2dVertex
 10
381.6942469137084
 20
564.2803436225822
 30
0.0
  0
VERTEX
  5
4D6
330
2A5
100
AcDbEntity
  8
Make2D$可见线$普通线
100
AcDbVertex
100
AcDb2dVertex
 10
380.655122927911
 20
565.0291451108137
 30
0.0
  0
VERTEX
  5
4D7
330
2A5
100
AcDbEntity
  8
Make2D$可见线$普通线
100
AcDbVertex
100
AcDb2dVertex
 10
379.6336922006057
 20
565.8010024712387
 30
0.0
  0
VERTEX
  5
4D8
330
2A5
100
AcDbEntity
  8
Make2D$可见线$普通线
100
AcDbVertex
100
AcDb2dVertex
 10
378.6314581359886
 20
566.5962455950867
 30
0.0
  0
VERTEX
  5
4D9
330
2A5
100
AcDbEntity
  8
Make2D$可见线$普通线
100
AcDbVertex
100
AcDb2dVertex
 10
377.6499241382558
 20
567.4152043735866
 30
0.0
  0
VERTEX
  5
4DA
330
2A5
100
AcDbEntity
  8
Make2D$可见线$普通线
100
AcDbVertex
100
AcDb2dVertex
 10
376.690593611603
 20
568.2582086979678
 30
0.0
  0
VERTEX
  5
4DB
330
2A5
100
AcDbEntity
  8
Make2D$可见线$普通线
100
AcDbVertex
100
AcDb2dVertex
 10
375.7549699602264
 20
569.1255884594595
 30
0.0
  0
VERTEX
  5
4DC
330
2A5
100
AcDbEntity
  8
Make2D$可见线$普通线
100
AcDbVertex
100
AcDb2dVertex
 10
374.8445565883221
 20
570.017673549291
 30
0.0
  0
VERTEX
  5
4DD
330
2A5
100
AcDbEntity
  8
Make2D$可见线$普通线
100
AcDbVertex
100
AcDb2dVertex
 10
373.9608569000858
 20
570.9347938586914
 30
0.0
  0
VERTEX
  5
4DE
330
2A5
100
AcDbEntity
  8
Make2D$可见线$普通线
100
AcDbVertex
100
AcDb2dVertex
 10
373.1053742997137
 20
571.87727927889
 30
0.0
  0
VERTEX
  5
4DF
330
2A5
100
AcDbEntity
  8
Make2D$可见线$普通线
100
AcDbVertex
100
AcDb2dVertex
 10
372.2796121914018
 20
572.8454597011162
 30
0.0
  0
VERTEX
  5
4E0
330
2A5
100
AcDbEntity
  8
Make2D$可见线$普通线
100
AcDbVertex
100
AcDb2dVertex
 10
371.8783461355796
 20
573.3392886289986
 30
0.0
  0
VERTEX
  5
4E1
330
2A5
100
AcDbEntity
  8
Make2D$可见线$普通线
100
AcDbVertex
100
AcDb2dVertex
 10
371.4850739793459
 20
573.8396650165989
 30
0.0
  0
VERTEX
  5
4E2
330
2A5
100
AcDbEntity
  8
Make2D$可见线$普通线
100
AcDbVertex
100
AcDb2dVertex
 10
371.0999836482254
 20
574.3466301003207
 30
0.0
  0
VERTEX
  5
4E3
330
2A5
100
AcDbEntity
  8
Make2D$可见线$普通线
100
AcDbVertex
100
AcDb2dVertex
 10
370.7232630677422
 20
574.8602251165678
 30
0.0
  0
VERTEX
  5
4E4
330
2A5
100
AcDbEntity
  8
Make2D$可见线$普通线
100
AcDbVertex
100
AcDb2dVertex
 10
370.3551001634211
 20
575.3804913017434
 30
0.0
  0
VERTEX
  5
4E5
330
2A5
100
AcDbEntity
  8
Make2D$可见线$普通线
100
AcDbVertex
100
AcDb2dVertex
 10
369.9956828607866
 20
575.9074698922516
 30
0.0
  0
VERTEX
  5
4E6
330
2A5
100
AcDbEntity
  8
Make2D$可见线$普通线
100
AcDbVertex
100
AcDb2dVertex
 10
369.4057820127235
 20
576.8180305825958
 30
0.0
  0
VERTEX
  5
4E7
330
2A5
100
AcDbEntity
  8
Make2D$可见线$普通线
100
AcDbVertex
100
AcDb2dVertex
 10
368.8432331929029
 20
577.7471428190347
 30
0.0
  0
VERTEX
  5
4E8
330
2A5
100
AcDbEntity
  8
Make2D$可见线$普通线
100
AcDbVertex
100
AcDb2dVertex
 10
368.3096060780744
 20
578.6938669924912
 30
0.0
  0
VERTEX
  5
4E9
330
2A5
100
AcDbEntity
  8
Make2D$可见线$普通线
100
AcDbVertex
100
AcDb2dVertex
 10
367.8064703449882
 20
579.657263493889
 30
0.0
  0
VERTEX
  5
4EA
330
2A5
100
AcDbEntity
  8
Make2D$可见线$普通线
100
AcDbVertex
100
AcDb2dVertex
 10
367.3353956703938
 20
580.6363927141513
 30
0.0
  0
VERTEX
  5
4EB
330
2A5
100
AcDbEntity
  8
Make2D$可见线$普通线
100
AcDbVertex
100
AcDb2dVertex
 10
366.8979517310413
 20
581.6303150442016
 30
0.0
  0
VERTEX
  5
4EC
330
2A5
100
AcDbEntity
  8
Make2D$可见线$普通线
100
AcDbVertex
100
AcDb2dVertex
 10
366.692331811065
 20
582.1325299975608
 30
0.0
  0
VERTEX
  5
4ED
330
2A5
100
AcDbEntity
  8
Make2D$可见线$普通线
100
AcDbVertex
100
AcDb2dVertex
 10
366.4957082036804
 20
582.6380908749632
 30
0.0
  0
VERTEX
  5
4EE
330
2A5
100
AcDbEntity
  8
Make2D$可见线$普通线
100
AcDbVertex
100
AcDb2dVertex
 10
366.3082771184811
 20
583.1468802252742
 30
0.0
  0
VERTEX
  5
4EF
330
2A5
100
AcDbEntity
  8
Make2D$可见线$普通线
100
AcDbVertex
100
AcDb2dVertex
 10
366.130234765061
 20
583.6587805973594
 30
0.0
  0
VERTEX
  5
4F0
330
2A5
100
AcDbEntity
  8
Make2D$可见线$普通线
100
AcDbVertex
100
AcDb2dVertex
 10
365.9617773530137
 20
584.1736745400841
 30
0.0
  0
VERTEX
  5
4F1
330
2A5
100
AcDbEntity
  8
Make2D$可见线$普通线
100
AcDbVertex
100
AcDb2dVertex
 10
365.8031010919329
 20
584.6914446023138
 30
0.0
  0
VERTEX
  5
4F2
330
2A5
100
AcDbEntity
  8
Make2D$可见线$普通线
100
AcDbVertex
100
AcDb2dVertex
 10
365.6544021914125
 20
585.2119733329138
 30
0.0
  0
VERTEX
  5
4F3
330
2A5
100
AcDbEntity
  8
Make2D$可见线$普通线
100
AcDbVertex
100
AcDb2dVertex
 10
365.5158768610461
 20
585.7351432807495
 30
0.0
  0
VERTEX
  5
4F4
330
2A5
100
AcDbEntity
  8
Make2D$可见线$普通线
100
AcDbVertex
100
AcDb2dVertex
 10
365.3877213104275
 20
586.2608369946865
 30
0.0
  0
VERTEX
  5
4F5
330
2A5
100
AcDbEntity
  8
Make2D$可见线$普通线
100
AcDbVertex
100
AcDb2dVertex
 10
365.2701317491504
 20
586.78893702359
 30
0.0
  0
VERTEX
  5
4F6
330
2A5
100
AcDbEntity
  8
Make2D$可见线$普通线
100
AcDbVertex
100
AcDb2dVertex
 10
365.1633043868084
 20
587.3193259163259
 30
0.0
  0
VERTEX
  5
4F7
330
2A5
100
AcDbEntity
  8
Make2D$可见线$普通线
100
AcDbVertex
100
AcDb2dVertex
 10
365.0674354329954
 20
587.8518862217588
 30
0.0
  0
VERTEX
  5
4F8
330
2A5
100
AcDbEntity
  8
Make2D$可见线$普通线
100
AcDbVertex
100
AcDb2dVertex
 10
364.9827210973051
 20
588.3865004887548
 30
0.0
  0
VERTEX
  5
4F9
330
2A5
100
AcDbEntity
  8
Make2D$可见线$普通线
100
AcDbVertex
100
AcDb2dVertex
 10
364.9093575893312
 20
588.9230512661792
 30
0.0
  0
VERTEX
  5
4FA
330
2A5
100
AcDbEntity
  8
Make2D$可见线$普通线
100
AcDbVertex
100
AcDb2dVertex
 10
364.8475411186675
 20
589.4614211028972
 30
0.0
  0
VERTEX
  5
4FB
330
2A5
100
AcDbEntity
  8
Make2D$可见线$普通线
100
AcDbVertex
100
AcDb2dVertex
 10
364.7974678949076
 20
590.0014925477744
 30
0.0
  0
VERTEX
  5
4FC
330
2A5
100
AcDbEntity
  8
Make2D$可见线$普通线
100
AcDbVertex
100
AcDb2dVertex
 10
364.7593341276454
 20
590.5431481496762
 30
0.0
  0
VERTEX
  5
4FD
330
2A5
100
AcDbEntity
  8
Make2D$可见线$普通线
100
AcDbVertex
100
AcDb2dVertex
 10
364.7333360264745
 20
591.0862704574681
 30
0.0
  0
VERTEX
  5
4FE
330
2A5
100
AcDbEntity
  8
Make2D$可见线$普通线
100
AcDbVertex
100
AcDb2dVertex
 10
364.7196698009886
 20
591.6307420200153
 30
0.0
  0
VERTEX
  5
4FF
330
2A5
100
AcDbEntity
  8
Make2D$可见线$普通线
100
AcDbVertex
100
AcDb2dVertex
 10
364.7185316607815
 20
592.1764453861833
 30
0.0
  0
VERTEX
  5
500
330
2A5
100
AcDbEntity
  8
Make2D$可见线$普通线
100
AcDbVertex
100
AcDb2dVertex
 10
364.731164698215
 20
593.0554463915273
 30
0.0
  0
VERTEX
  5
501
330
2A5
100
AcDbEntity
  8
Make2D$可见线$普通线
100
AcDbVertex
100
AcDb2dVertex
 10
364.7731791007733
 20
593.9341031145644
 30
0.0
  0
VERTEX
  5
502
330
2A5
100
AcDbEntity
  8
Make2D$可见线$普通线
100
AcDbVertex
100
AcDb2dVertex
 10
364.8444823860672
 20
594.8120576906297
 30
0.0
  0
VERTEX
  5
503
330
2A5
100
AcDbEntity
  8
Make2D$可见线$普通线
100
AcDbVertex
100
AcDb2dVertex
 10
364.9449820717073
 20
595.6889522550574
 30
0.0
  0
VERTEX
  5
504
330
2A5
100
AcDbEntity
  8
Make2D$可见线$普通线
100
AcDbVertex
100
AcDb2dVertex
 10
365.0745856753043
 20
596.5644289431825
 30
0.0
  0
VERTEX
  5
505
330
2A5
100
AcDbEntity
  8
Make2D$可见线$普通线
100
AcDbVertex
100
AcDb2dVertex
 10
365.233200714469
 20
597.43812989034
 30
0.0
  0
VERTEX
  5
506
330
2A5
100
AcDbEntity
  8
Make2D$可见线$普通线
100
AcDbVertex
100
AcDb2dVertex
 10
365.4207347068121
 20
598.309697231864
 30
0.0
  0
VERTEX
  5
507
330
2A5
100
AcDbEntity
  8
Make2D$可见线$普通线
100
AcDbVertex
100
AcDb2dVertex
 10
365.6370951699444
 20
599.1787731030895
 30
0.0
  0
VERTEX
  5
508
330
2A5
100
AcDbEntity
  8
Make2D$可见线$普通线
100
AcDbVertex
100
AcDb2dVertex
 10
365.8821896214765
 20
600.0449996393511
 30
0.0
  0
VERTEX
  5
509
330
2A5
100
AcDbEntity
  8
Make2D$可见线$普通线
100
AcDbVertex
100
AcDb2dVertex
 10
366.1559255790191
 20
600.9080189759836
 30
0.0
  0
VERTEX
  5
50A
330
2A5
100
AcDbEntity
  8
Make2D$可见线$普通线
100
AcDbVertex
100
AcDb2dVertex
 10
366.4582105601831
 20
601.7674732483217
 30
0.0
  0
VERTEX
  5
50B
330
2A5
100
AcDbEntity
  8
Make2D$可见线$普通线
100
AcDbVertex
100
AcDb2dVertex
 10
366.7889520825792
 20
602.6230045917001
 30
0.0
  0
VERTEX
  5
50C
330
2A5
100
AcDbEntity
  8
Make2D$可见线$普通线
100
AcDbVertex
100
AcDb2dVertex
 10
367.148057663818
 20
603.4742551414535
 30
0.0
  0
VERTEX
  5
50D
330
2A5
100
AcDbEntity
  8
Make2D$可见线$普通线
100
AcDbVertex
100
AcDb2dVertex
 10
367.5354348215103
 20
604.3208670329163
 30
0.0
  0
VERTEX
  5
50E
330
2A5
100
AcDbEntity
  8
Make2D$可见线$普通线
100
AcDbVertex
100
AcDb2dVertex
 10
367.9509910732668
 20
605.1624824014236
 30
0.0
  0
VERTEX
  5
50F
330
2A5
100
AcDbEntity
  8
Make2D$可见线$普通线
100
AcDbVertex
100
AcDb2dVertex
 10
368.3946339366983
 20
605.9987433823101
 30
0.0
  0
VERTEX
  5
510
330
2A5
100
AcDbEntity
  8
Make2D$可见线$普通线
100
AcDbVertex
100
AcDb2dVertex
 10
368.866231294185
 20
606.8292751095576
 30
0.0
  0
VERTEX
  5
511
330
2A5
100
AcDbEntity
  8
Make2D$可见线$普通线
100
AcDbVertex
100
AcDb2dVertex
 10
369.3655088394825
 20
607.6537253584634
 30
0.0
  0
VERTEX
  5
512
330
2A5
100
AcDbEntity
  8
Make2D$可见线$普通线
100
AcDbVertex
100
AcDb2dVertex
 10
369.8921663211296
 20
608.4717802679766
 30
0.0
  0
VERTEX
  5
513
330
2A5
100
AcDbEntity
  8
Make2D$可见线$普通线
100
AcDbVertex
100
AcDb2dVertex
 10
370.4459034876653
 20
609.2831259770462
 30
0.0
  0
VERTEX
  5
514
330
2A5
100
AcDbEntity
  8
Make2D$可见线$普通线
100
AcDbVertex
100
AcDb2dVertex
 10
371.0264200876286
 20
610.0874486246216
 30
0.0
  0
VERTEX
  5
515
330
2A5
100
AcDbEntity
  8
Make2D$可见线$普通线
100
AcDbVertex
100
AcDb2dVertex
 10
371.6334158695583
 20
610.8844343496521
 30
0.0
  0
VERTEX
  5
516
330
2A5
100
AcDbEntity
  8
Make2D$可见线$普通线
100
AcDbVertex
100
AcDb2dVertex
 10
372.2665905819934
 20
611.6737692910865
 30
0.0
  0
VERTEX
  5
517
330
2A5
100
AcDbEntity
  8
Make2D$可见线$普通线
100
AcDbVertex
100
AcDb2dVertex
 10
372.9256439734728
 20
612.4551395878744
 30
0.0
  0
VERTEX
  5
518
330
2A5
100
AcDbEntity
  8
Make2D$可见线$普通线
100
AcDbVertex
100
AcDb2dVertex
 10
373.6102757925354
 20
613.2282313789649
 30
0.0
  0
VERTEX
  5
519
330
2A5
100
AcDbEntity
  8
Make2D$可见线$普通线
100
AcDbVertex
100
AcDb2dVertex
 10
374.3201857877202
 20
613.992730803307
 30
0.0
  0
VERTEX
  5
51A
330
2A5
100
AcDbEntity
  8
Make2D$可见线$普通线
100
AcDbVertex
100
AcDb2dVertex
 10
375.0550737075661
 20
614.7483239998501
 30
0.0
  0
VERTEX
  5
51B
330
2A5
100
AcDbEntity
  8
Make2D$可见线$普通线
100
AcDbVertex
100
AcDb2dVertex
 10
375.8146393006119
 20
615.4946971075431
 30
0.0
  0
VERTEX
  5
51C
330
2A5
100
AcDbEntity
  8
Make2D$可见线$普通线
100
AcDbVertex
100
AcDb2dVertex
 10
376.5985823153967
 20
616.2315362653354
 30
0.0
  0
VERTEX
  5
51D
330
2A5
100
AcDbEntity
  8
Make2D$可见线$普通线
100
AcDbVertex
100
AcDb2dVertex
 10
377.4066025004594
 20
616.9585276121763
 30
0.0
  0
VERTEX
  5
51E
330
2A5
100
AcDbEntity
  8
Make2D$可见线$普通线
100
AcDbVertex
100
AcDb2dVertex
 10
378.2383996043388
 20
617.6753572870149
 30
0.0
  0
VERTEX
  5
51F
330
2A5
100
AcDbEntity
  8
Make2D$可见线$普通线
100
AcDbVertex
100
AcDb2dVertex
 10
379.0936733755739
 20
618.3817114288003
 30
0.0
 42
-0.0740944300865823
  0
VERTEX
  5
520
330
2A5
100
AcDbEntity
  8
Make2D$可见线$普通线
100
AcDbVertex
100
AcDb2dVertex
 10
396.6157886178186
 20
628.3521444459076
 30
0.0
  0
SEQEND
  5
521
330
2A5
100
AcDbEntity
  8
Make2D$可见线$普通线
  0
POLYLINE
  5
522
330
1F
100
AcDbEntity
  8
Make2D$可见线$普通线
100
AcDb2dPolyline
 66
     1
 10
0.0
 20
0.0
 30
0.0
  0
VERTEX
  5
523
330
522
100
AcDbEntity
  8
Make2D$可见线$普通线
100
AcDbVertex
100
AcDb2dVertex
 10
493.7287345031421
 20
612.2514917878854
 30
0.0
 42
-0.0256462872928575
  0
VERTEX
  5
524
330
522
100
AcDbEntity
  8
Make2D$可见线$普通线
100
AcDbVertex
100
AcDb2dVertex
 10
496.2432903952808
 20
609.0610698455814
 30
0.0
 42
-0.0273670965584242
  0
VERTEX
  5
525
330
522
100
AcDbEntity
  8
Make2D$可见线$普通线
100
AcDbVertex
100
AcDb2dVertex
 10
498.3341958172186
 20
605.7350383404179
 30
0.0
 42
-0.0989875228756657
  0
VERTEX
  5
526
330
522
100
AcDbEntity
  8
Make2D$可见线$普通线
100
AcDbVertex
100
AcDb2dVertex
 10
498.5272365000401
 20
605.4624037299674
 30
0.0
  0
SEQEND
  5
527
330
522
100
AcDbEntity
  8
Make2D$可见线$普通线
  0
POLYLINE
  5
528
330
1F
100
AcDbEntity
  8
Make2D$可见线$普通线
100
AcDb2dPolyline
 66
     1
 10
0.0
 20
0.0
 30
0.0
  0
VERTEX
  5
529
330
528
100
AcDbEntity
  8
Make2D$可见线$普通线
100
AcDbVertex
100
AcDb2dVertex
 10
452.6200921306513
 20
634.1421757994231
 30
0.0
  0
VERTEX
  5
52A
330
528
100
AcDbEntity
  8
Make2D$可见线$普通线
100
AcDbVertex
100
AcDb2dVertex
 10
451.0152003966156
 20
634.9039969229427
 30
0.0
 42
0.022632213982689
  0
VERTEX
  5
52B
330
528
100
AcDbEntity
  8
Make2D$可见线$普通线
100
AcDbVertex
100
AcDb2dVertex
 10
453.555342269286
 20
687.4115878951263
 30
0.0
  0
VERTEX
  5
52C
330
528
100
AcDbEntity
  8
Make2D$可见线$普通线
100
AcDbVertex
100
AcDb2dVertex
 10
453.202411912285
 20
687.4115879080974
 30
0.0
  0
VERTEX
  5
52D
330
528
100
AcDbEntity
  8
Make2D$可见线$普通线
100
AcDbVertex
100
AcDb2dVertex
 10
412.8942640660189
 20
687.4115879107385
 30
0.0
  0
VERTEX
  5
52E
330
528
100
AcDbEntity
  8
Make2D$可见线$普通线
100
AcDbVertex
100
AcDb2dVertex
 10
412.5413316683898
 20
687.4115878917655
 30
0.0
 42
0.0226319241151473
  0
VERTEX
  5
52F
330
528
100
AcDbEntity
  8
Make2D$可见线$普通线
100
AcDbVertex
100
AcDb2dVertex
 10
415.0815356393514
 20
634.9037520203992
 30
0.0
  0
VERTEX
  5
530
330
528
100
AcDbEntity
  8
Make2D$可见线$普通线
100
AcDbVertex
100
AcDb2dVertex
 10
413.4767171409962
 20
634.1418822692978
 30
0.0
  0
SEQEND
  5
531
330
528
100
AcDbEntity
  8
Make2D$可见线$普通线
  0
SPLINE
  5
532
330
1F
100
AcDbEntity
  8
Make2D$可见线$普通线
100
AcDbSpline
210
0.0
220
0.0
230
1.0
 70
    15
 71
     2
 72
    12
 73
     9
 74
     0
 42
0.000000001
 43
0.0000000001
 12
1.0
 22
0.0
 32
0.0
 13
1.0
 23
0.0
 33
0.0
 40
0.0
 40
0.0
 40
0.0
 40
14.52179390548817
 40
14.52179390548817
 40
29.04358781097634
 40
29.04358781097634
 40
43.56538171646451
 40
43.56538171646451
 40
58.08717562195267
 40
58.08717562195267
 40
58.08717562195267
 10
456.0483376036821
 20
494.1924528967061
 30
0.0
 41
1.0
 10
465.2925384637307
 20
494.2626688425131
 30
0.0
 41
0.707148207797738
 10
465.363837603682
 20
485.0184762735208
 30
0.0
 41
1.0
 10
465.2925384637309
 20
475.7742837045283
 30
0.0
 41
0.7071482077977291
 10
456.0483376036821
 20
475.8444996503356
 30
0.0
 41
1.0
 10
446.8041367436333
 20
475.7742837045284
 30
0.0
 41
0.7071482077977328
 10
446.7328376036821
 20
485.0184762735208
 30
0.0
 41
1.0
 10
446.8041367436333
 20
494.2626688425132
 30
0.0
 41
0.7071482077977329
 10
456.0483376036821
 20
494.1924528967061
 30
0.0
 41
1.0
  0
ENDSEC
  0
SECTION
  2
OBJECTS
  0
DICTIONARY
  5
C
330
0
100
AcDbDictionary
281
     1
  3
ACAD_GROUP
350
D
  3
ACAD_LAYOUT
350
1A
  3
ACAD_MATERIAL
350
3B
  3
ACAD_MLEADERSTYLE
350
55D
  3
ACAD_MLINESTYLE
350
17
  3
ACAD_PLOTSETTINGS
350
19
  3
ACAD_PLOTSTYLENAME
350
E
  3
ACAD_SCALELIST
350
3F
  3
ACAD_TABLESTYLE
350
55C
  3
ACAD_VISUALSTYLE
350
2A
  3
AcDbVariableDictionary
350
533
  0
DICTIONARY
  5
D
102
{ACAD_REACTORS
330
C
102
}
330
C
100
AcDbDictionary
281
     1
  0
DICTIONARY
  5
1A
102
{ACAD_REACTORS
330
C
102
}
330
C
100
AcDbDictionary
281
     1
  3
Layout1
350
1E
  3
Layout2
350
26
  3
Model
350
22
  0
DICTIONARY
  5
3B
102
{ACAD_REACTORS
330
C
102
}
330
C
100
AcDbDictionary
281
     1
  3
ByBlock
350
3D
  3
ByLayer
350
3C
  3
Global
350
3E
  0
DICTIONARY
  5
55D
102
{ACAD_REACTORS
330
C
102
}
330
C
100
AcDbDictionary
281
     1
  0
DICTIONARY
  5
17
102
{ACAD_REACTORS
330
C
102
}
330
C
100
AcDbDictionary
281
     1
  3
Standard
350
18
  0
DICTIONARY
  5
19
102
{ACAD_REACTORS
330
C
102
}
330
C
100
AcDbDictionary
281
     1
  0
ACDBDICTIONARYWDFLT
  5
E
102
{ACAD_REACTORS
330
C
102
}
330
C
100
AcDbDictionary
281
     1
  3
Normal
350
F
100
AcDbDictionaryWithDefault
340
F
  0
DICTIONARY
  5
3F
102
{ACAD_REACTORS
330
C
102
}
330
C
100
AcDbDictionary
281
     1
  3
A0
350
40
  3
A1
350
41
  3
A2
350
42
  3
A3
350
43
  3
A4
350
44
  3
A5
350
45
  3
A6
350
46
  3
A7
350
47
  3
A8
350
48
  3
A9
350
49
  3
B0
350
4A
  3
B1
350
4B
  3
B2
350
4C
  3
B3
350
4D
  3
B4
350
4E
  3
B5
350
4F
  3
B6
350
50
  3
B7
350
51
  3
B8
350
52
  3
B9
350
53
  3
C0
350
54
  3
C1
350
55
  3
C2
350
56
  3
C3
350
57
  3
C4
350
58
  3
C5
350
59
  3
C6
350
5A
  3
C7
350
5B
  3
C8
350
5C
  3
C9
350
5D
  3
D0
350
5E
  3
D1
350
5F
  3
D2
350
60
  0
DICTIONARY
  5
55C
102
{ACAD_REACTORS
330
C
102
}
330
C
100
AcDbDictionary
281
     1
  0
DICTIONARY
  5
2A
102
{ACAD_REACTORS
330
C
102
}
330
C
100
AcDbDictionary
281
     1
  3
2dWireframe
350
2F
  3
3D Hidden
350
31
  3
3dWireframe
350
30
  3
Basic
350
32
  3
Brighten
350
36
  3
ColorChange
350
3A
  3
Conceptual
350
34
  3
Dim
350
35
  3
Facepattern
350
39
  3
Flat
350
2B
  3
FlatWithEdges
350
2C
  3
Gouraud
350
2D
  3
GouraudWithEdges
350
2E
  3
Linepattern
350
38
  3
Realistic
350
33
  3
Thicken
350
37
  0
DICTIONARY
  5
533
102
{ACAD_REACTORS
330
C
102
}
330
C
100
AcDbDictionary
281
     1
  3
CANNOSCALE
350
534
  3
MSLTSCALE
350
535
  0
LAYOUT
  5
1E
102
{ACAD_REACTORS
330
1A
102
}
330
1A
100
AcDbPlotSettings
  1

  2
none_device
  4

  6

 40
0.0
 41
0.0
 42
0.0
 43
0.0
 44
0.0
 45
0.0
 46
0.0
 47
0.0
 48
0.0
 49
0.0
140
0.0
141
0.0
142
1.0
143
1.0
 70
   688
 72
     0
 73
     0
 74
     5
  7

 75
    16
 76
     0
 77
     2
 78
   300
147
1.0
148
0.0
149
0.0
100
AcDbLayout
  1
Layout1
 70
     1
 71
     1
 10
0.0
 20
0.0
 11
12.0
 21
9.0
 12
0.0
 22
0.0
 32
0.0
 14
1.000000000000000E+20
 24
1.000000000000000E+20
 34
1.000000000000000E+20
 15
-1.000000000000000E+20
 25
-1.000000000000000E+20
 35
-1.000000000000000E+20
146
0.0
 13
0.0
 23
0.0
 33
0.0
 16
1.0
 26
0.0
 36
0.0
 17
0.0
 27
1.0
 37
0.0
 76
     0
330
1B
  0
LAYOUT
  5
26
102
{ACAD_REACTORS
330
1A
102
}
330
1A
100
AcDbPlotSettings
  1

  2
none_device
  4

  6

 40
0.0
 41
0.0
 42
0.0
 43
0.0
 44
0.0
 45
0.0
 46
0.0
 47
0.0
 48
0.0
 49
0.0
140
0.0
141
0.0
142
1.0
143
1.0
 70
   688
 72
     0
 73
     0
 74
     5
  7

 75
    16
 76
     0
 77
     2
 78
   300
147
1.0
148
0.0
149
0.0
100
AcDbLayout
  1
Layout2
 70
     1
 71
     2
 10
0.0
 20
0.0
 11
0.0
 21
0.0
 12
0.0
 22
0.0
 32
0.0
 14
0.0
 24
0.0
 34
0.0
 15
0.0
 25
0.0
 35
0.0
146
0.0
 13
0.0
 23
0.0
 33
0.0
 16
1.0
 26
0.0
 36
0.0
 17
0.0
 27
1.0
 37
0.0
 76
     0
330
23
  0
LAYOUT
  5
22
102
{ACAD_REACTORS
330
1A
102
}
330
1A
100
AcDbPlotSettings
  1

  2
none_device
  4
Letter_(8.50_x_11.00_Inches)
  6

 40
6.35
 41
6.35
 42
6.35000508
 43
6.35000508
 44
215.9
 45
279.4
 46
0.0
 47
0.0
 48
0.0
 49
0.0
140
0.0
141
0.0
142
1.0
143
1.0
 70
  1712
 72
     0
 73
     0
 74
     0
  7

 75
     0
 76
     0
 77
     2
 78
   300
147
1.0
148
0.0
149
0.0
100
AcDbLayout
  1
Model
 70
     1
 71
     0
 10
0.0
 20
0.0
 11
12.0
 21
9.0
 12
0.0
 22
0.0
 32
0.0
 14
363.105606651819
 24
463.0019951693407
 34
0.0
 15
502.9910685576538
 25
687.4115879107385
 35
0.0
146
0.0
 13
0.0
 23
0.0
 33
0.0
 16
1.0
 26
0.0
 36
0.0
 17
0.0
 27
1.0
 37
0.0
 76
     0
330
1F
331
29
  0
MATERIAL
  5
3D
102
{ACAD_REACTORS
330
3B
102
}
102
{ACAD_XDICTIONARY
360
558
102
}
330
3B
100
AcDbMaterial
  1
ByBlock
  0
MATERIAL
  5
3C
102
{ACAD_REACTORS
330
3B
102
}
102
{ACAD_XDICTIONARY
360
556
102
}
330
3B
100
AcDbMaterial
  1
ByLayer
  0
MATERIAL
  5
3E
102
{ACAD_REACTORS
330
3B
102
}
102
{ACAD_XDICTIONARY
360
55A
102
}
330
3B
100
AcDbMaterial
  1
Global
  0
MLINESTYLE
  5
18
102
{ACAD_REACTORS
330
17
102
}
330
17
100
AcDbMlineStyle
  2
Standard
 70
     0
  3

 62
   256
 51
90.0
 52
90.0
 71
     2
 49
0.5
 62
   256
  6
BYLAYER
 49
-0.5
 62
   256
  6
BYLAYER
  0
ACDBPLACEHOLDER
  5
F
102
{ACAD_REACTORS
330
E
102
}
330
E
  0
SCALE
  5
40
102
{ACAD_REACTORS
330
3F
102
}
330
3F
100
AcDbScale
 70
     0
300
1:1
140
1.0
141
1.0
290
     1
  0
SCALE
  5
41
102
{ACAD_REACTORS
330
3F
102
}
330
3F
100
AcDbScale
 70
     0
300
1:2
140
1.0
141
2.0
290
     0
  0
SCALE
  5
42
102
{ACAD_REACTORS
330
3F
102
}
330
3F
100
AcDbScale
 70
     0
300
1:4
140
1.0
141
4.0
290
     0
  0
SCALE
  5
43
102
{ACAD_REACTORS
330
3F
102
}
330
3F
100
AcDbScale
 70
     0
300
1:5
140
1.0
141
5.0
290
     0
  0
SCALE
  5
44
102
{ACAD_REACTORS
330
3F
102
}
330
3F
100
AcDbScale
 70
     0
300
1:8
140
1.0
141
8.0
290
     0
  0
SCALE
  5
45
102
{ACAD_REACTORS
330
3F
102
}
330
3F
100
AcDbScale
 70
     0
300
1:10
140
1.0
141
10.0
290
     0
  0
SCALE
  5
46
102
{ACAD_REACTORS
330
3F
102
}
330
3F
100
AcDbScale
 70
     0
300
1:16
140
1.0
141
16.0
290
     0
  0
SCALE
  5
47
102
{ACAD_REACTORS
330
3F
102
}
330
3F
100
AcDbScale
 70
     0
300
1:20
140
1.0
141
20.0
290
     0
  0
SCALE
  5
48
102
{ACAD_REACTORS
330
3F
102
}
330
3F
100
AcDbScale
 70
     0
300
1:30
140
1.0
141
30.0
290
     0
  0
SCALE
  5
49
102
{ACAD_REACTORS
330
3F
102
}
330
3F
100
AcDbScale
 70
     0
300
1:40
140
1.0
141
40.0
290
     0
  0
SCALE
  5
4A
102
{ACAD_REACTORS
330
3F
102
}
330
3F
100
AcDbScale
 70
     0
300
1:50
140
1.0
141
50.0
290
     0
  0
SCALE
  5
4B
102
{ACAD_REACTORS
330
3F
102
}
330
3F
100
AcDbScale
 70
     0
300
1:100
140
1.0
141
100.0
290
     0
  0
SCALE
  5
4C
102
{ACAD_REACTORS
330
3F
102
}
330
3F
100
AcDbScale
 70
     0
300
2:1
140
2.0
141
1.0
290
     0
  0
SCALE
  5
4D
102
{ACAD_REACTORS
330
3F
102
}
330
3F
100
AcDbScale
 70
     0
300
4:1
140
4.0
141
1.0
290
     0
  0
SCALE
  5
4E
102
{ACAD_REACTORS
330
3F
102
}
330
3F
100
AcDbScale
 70
     0
300
8:1
140
8.0
141
1.0
290
     0
  0
SCALE
  5
4F
102
{ACAD_REACTORS
330
3F
102
}
330
3F
100
AcDbScale
 70
     0
300
10:1
140
10.0
141
1.0
290
     0
  0
SCALE
  5
50
102
{ACAD_REACTORS
330
3F
102
}
330
3F
100
AcDbScale
 70
     0
300
100:1
140
100.0
141
1.0
290
     0
  0
SCALE
  5
51
102
{ACAD_REACTORS
330
3F
102
}
330
3F
100
AcDbScale
 70
     0
300
1/128" = 1'-0"
140
0.0078125
141
12.0
290
     0
  0
SCALE
  5
52
102
{ACAD_REACTORS
330
3F
102
}
330
3F
100
AcDbScale
 70
     0
300
1/64" = 1'-0"
140
0.015625
141
12.0
290
     0
  0
SCALE
  5
53
102
{ACAD_REACTORS
330
3F
102
}
330
3F
100
AcDbScale
 70
     0
300
1/32" = 1'-0"
140
0.03125
141
12.0
290
     0
  0
SCALE
  5
54
102
{ACAD_REACTORS
330
3F
102
}
330
3F
100
AcDbScale
 70
     0
300
1/16" = 1'-0"
140
0.0625
141
12.0
290
     0
  0
SCALE
  5
55
102
{ACAD_REACTORS
330
3F
102
}
330
3F
100
AcDbScale
 70
     0
300
3/32" = 1'-0"
140
0.09375
141
12.0
290
     0
  0
SCALE
  5
56
102
{ACAD_REACTORS
330
3F
102
}
330
3F
100
AcDbScale
 70
     0
300
1/8" = 1'-0"
140
0.125
141
12.0
290
     0
  0
SCALE
  5
57
102
{ACAD_REACTORS
330
3F
102
}
330
3F
100
AcDbScale
 70
     0
300
3/16" = 1'-0"
140
0.1875
141
12.0
290
     0
  0
SCALE
  5
58
102
{ACAD_REACTORS
330
3F
102
}
330
3F
100
AcDbScale
 70
     0
300
1/4" = 1'-0"
140
0.25
141
12.0
290
     0
  0
SCALE
  5
59
102
{ACAD_REACTORS
330
3F
102
}
330
3F
100
AcDbScale
 70
     0
300
3/8" = 1'-0"
140
0.375
141
12.0
290
     0
  0
SCALE
  5
5A
102
{ACAD_REACTORS
330
3F
102
}
330
3F
100
AcDbScale
 70
     0
300
1/2" = 1'-0"
140
0.5
141
12.0
290
     0
  0
SCALE
  5
5B
102
{ACAD_REACTORS
330
3F
102
}
330
3F
100
AcDbScale
 70
     0
300
3/4" = 1'-0"
140
0.75
141
12.0
290
     0
  0
SCALE
  5
5C
102
{ACAD_REACTORS
330
3F
102
}
330
3F
100
AcDbScale
 70
     0
300
1" = 1'-0"
140
1.0
141
12.0
290
     0
  0
SCALE
  5
5D
102
{ACAD_REACTORS
330
3F
102
}
330
3F
100
AcDbScale
 70
     0
300
1-1/2" = 1'-0"
140
1.5
141
12.0
290
     0
  0
SCALE
  5
5E
102
{ACAD_REACTORS
330
3F
102
}
330
3F
100
AcDbScale
 70
     0
300
3" = 1'-0"
140
3.0
141
12.0
290
     0
  0
SCALE
  5
5F
102
{ACAD_REACTORS
330
3F
102
}
330
3F
100
AcDbScale
 70
     0
300
6" = 1'-0"
140
6.0
141
12.0
290
     0
  0
SCALE
  5
60
102
{ACAD_REACTORS
330
3F
102
}
330
3F
100
AcDbScale
 70
     0
300
1'-0" = 1'-0"
140
12.0
141
12.0
290
     0
  0
VISUALSTYLE
  5
2F
102
{ACAD_REACTORS
330
2A
102
}
102
{ACAD_XDICTIONARY
360
53E
102
}
330
2A
100
AcDbVisualStyle
  2
2dWireframe
 70
     4
 71
     0
 72
     2
 73
     0
 90
        0
 40
0.6
 41
30.0
 62
     5
 63
     7
421
 16777215
 74
     1
 91
        4
 64
     7
 65
   257
 75
     1
175
     1
 42
1.0
 92
        0
 66
   257
 43
1.0
 76
     1
 77
     6
 78
     2
 67
     7
 79
     5
170
     0
171
     0
290
     0
174
     0
 93
        1
 44
0.0
173
     0
291
     0
 45
0.0
1001
ACAD
1000
AcDbSavedByObjectVersion
1070
     0
  0
VISUALSTYLE
  5
31
102
{ACAD_REACTORS
330
2A
102
}
102
{ACAD_XDICTIONARY
360
542
102
}
330
2A
100
AcDbVisualStyle
  2
3D Hidden
 70
     6
 71
     1
 72
     2
 73
     2
 90
        0
 40
0.6
 41
30.0
 62
     5
 63
     7
421
 16777215
 74
     2
 91
        2
 64
     7
 65
   257
 75
     2
175
     1
 42
40.0
 92
        0
 66
   257
 43
1.0
 76
     1
 77
     6
 78
     2
 67
     7
 79
     3
170
     0
171
     0
290
     0
174
     0
 93
        1
 44
0.0
173
     0
291
     0
 45
0.0
1001
ACAD
1000
AcDbSavedByObjectVersion
1070
     0
  0
VISUALSTYLE
  5
30
102
{ACAD_REACTORS
330
2A
102
}
102
{ACAD_XDICTIONARY
360
540
102
}
330
2A
100
AcDbVisualStyle
  2
3dWireframe
 70
     5
 71
     0
 72
     2
 73
     0
 90
        0
 40
0.6
 41
30.0
 62
     5
 63
     7
421
 16777215
 74
     1
 91
        4
 64
     7
 65
   257
 75
     1
175
     1
 42
1.0
 92
        0
 66
   257
 43
1.0
 76
     1
 77
     6
 78
     2
 67
     7
 79
     5
170
     0
171
     0
290
     0
174
     0
 93
        1
 44
0.0
173
     0
291
     0
 45
0.0
1001
ACAD
1000
AcDbSavedByObjectVersion
1070
     0
  0
VISUALSTYLE
  5
32
102
{ACAD_REACTORS
330
2A
102
}
102
{ACAD_XDICTIONARY
360
544
102
}
330
2A
100
AcDbVisualStyle
  2
Basic
 70
     7
 71
     1
 72
     0
 73
     1
 90
        0
 40
0.6
 41
30.0
 62
     5
 63
     7
421
 16777215
 74
     0
 91
        4
 64
     7
 65
   257
 75
     1
175
     1
 42
1.0
 92
        8
 66
     7
 43
1.0
 76
     1
 77
     6
 78
     2
 67
     7
 79
     5
170
     0
171
     0
290
     0
174
     0
 93
        1
 44
0.0
173
     0
291
     1
 45
0.0
1001
ACAD
1000
AcDbSavedByObjectVersion
1070
     0
  0
VISUALSTYLE
  5
36
102
{ACAD_REACTORS
330
2A
102
}
102
{ACAD_XDICTIONARY
360
54C
102
}
330
2A
100
AcDbVisualStyle
  2
Brighten
 70
    12
 71
     2
 72
     2
 73
     0
 90
        0
 40
0.6
 41
30.0
 62
     5
 63
     7
421
 16777215
 74
     1
 91
        4
 64
     7
 65
   257
 75
     1
175
     1
 42
1.0
 92
        8
 66
     7
 43
1.0
 76
     1
 77
     6
 78
     2
 67
     7
 79
     5
170
     0
171
     0
290
     0
174
     0
 93
        1
 44
50.0
173
     0
291
     1
 45
0.0
1001
ACAD
1000
AcDbSavedByObjectVersion
1070
     0
  0
VISUALSTYLE
  5
3A
102
{ACAD_REACTORS
330
2A
102
}
102
{ACAD_XDICTIONARY
360
554
102
}
330
2A
100
AcDbVisualStyle
  2
ColorChange
 70
    16
 71
     2
 72
     2
 73
     3
 90
        0
 40
0.6
 41
30.0
 62
     5
 63
     8
421
  8421504
 74
     1
 91
        4
 64
     7
 65
   257
 75
     1
175
     1
 42
1.0
 92
        8
 66
     8
424
  8421504
 43
1.0
 76
     1
 77
     6
 78
     2
 67
     7
 79
     5
170
     0
171
     0
290
     0
174
     0
 93
        1
 44
0.0
173
     0
291
     1
 45
0.0
1001
ACAD
1000
AcDbSavedByObjectVersion
1070
     0
  0
VISUALSTYLE
  5
34
102
{ACAD_REACTORS
330
2A
102
}
102
{ACAD_XDICTIONARY
360
548
102
}
330
2A
100
AcDbVisualStyle
  2
Conceptual
 70
     9
 71
     3
 72
     2
 73
     0
 90
        0
 40
0.6
 41
30.0
 62
     5
 63
     7
421
 16777215
 74
     2
 91
        2
 64
     7
 65
   257
 75
     1
175
     1
 42
40.0
 92
        8
 66
     7
 43
1.0
 76
     1
 77
     6
 78
     2
 67
     7
 79
     3
170
     0
171
     0
290
     0
174
     0
 93
        1
 44
0.0
173
     0
291
     0
 45
0.0
1001
ACAD
1000
AcDbSavedByObjectVersion
1070
     0
  0
VISUALSTYLE
  5
35
102
{ACAD_REACTORS
330
2A
102
}
102
{ACAD_XDICTIONARY
360
54A
102
}
330
2A
100
AcDbVisualStyle
  2
Dim
 70
    11
 71
     2
 72
     2
 73
     0
 90
        0
 40
0.6
 41
30.0
 62
     5
 63
     7
421
 16777215
 74
     1
 91
        4
 64
     7
 65
   257
 75
     1
175
     1
 42
1.0
 92
        8
 66
     7
 43
1.0
 76
     1
 77
     6
 78
     2
 67
     7
 79
     5
170
     0
171
     0
290
     0
174
     0
 93
        1
 44
-50.0
173
     0
291
     1
 45
0.0
1001
ACAD
1000
AcDbSavedByObjectVersion
1070
     0
  0
VISUALSTYLE
  5
39
102
{ACAD_REACTORS
330
2A
102
}
102
{ACAD_XDICTIONARY
360
552
102
}
330
2A
100
AcDbVisualStyle
  2
Facepattern
 70
    15
 71
     2
 72
     2
 73
     0
 90
        0
 40
0.6
 41
30.0
 62
     5
 63
     7
421
 16777215
 74
     1
 91
        4
 64
     7
 65
   257
 75
     1
175
     1
 42
1.0
 92
        8
 66
     7
 43
1.0
 76
     1
 77
     6
 78
     2
 67
     7
 79
     5
170
     0
171
     0
290
     0
174
     0
 93
        1
 44
0.0
173
     0
291
     1
 45
0.0
1001
ACAD
1000
AcDbSavedByObjectVersion
1070
     0
  0
VISUALSTYLE
  5
2B
102
{ACAD_REACTORS
330
2A
102
}
102
{ACAD_XDICTIONARY
360
536
102
}
330
2A
100
AcDbVisualStyle
  2
Flat
 70
     0
 71
     2
 72
     1
 73
     1
 90
        2
 40
0.6
 41
30.0
 62
     5
 63
     7
421
 16777215
 74
     0
 91
        4
 64
     7
 65
   257
 75
     1
175
     1
 42
1.0
 92
        8
 66
     7
 43
1.0
 76
     1
 77
     6
 78
     2
 67
     7
 79
     5
170
     0
171
     0
290
     0
174
     0
 93
       13
 44
0.0
173
     0
291
     1
 45
0.0
1001
ACAD
1000
AcDbSavedByObjectVersion
1070
     0
  0
VISUALSTYLE
  5
2C
102
{ACAD_REACTORS
330
2A
102
}
102
{ACAD_XDICTIONARY
360
538
102
}
330
2A
100
AcDbVisualStyle
  2
FlatWithEdges
 70
     1
 71
     2
 72
     1
 73
     1
 90
        2
 40
0.6
 41
30.0
 62
     5
 63
     7
421
 16777215
 74
     1
 91
        4
 64
     7
 65
   257
 75
     1
175
     1
 42
1.0
 92
        0
 66
   257
 43
1.0
 76
     1
 77
     6
 78
     2
 67
     7
 79
     5
170
     0
171
     0
290
     0
174
     0
 93
       13
 44
0.0
173
     0
291
     1
 45
0.0
1001
ACAD
1000
AcDbSavedByObjectVersion
1070
     0
  0
VISUALSTYLE
  5
2D
102
{ACAD_REACTORS
330
2A
102
}
102
{ACAD_XDICTIONARY
360
53A
102
}
330
2A
100
AcDbVisualStyle
  2
Gouraud
 70
     2
 71
     2
 72
     2
 73
     1
 90
        2
 40
0.6
 41
30.0
 62
     5
 63
     7
421
 16777215
 74
     0
 91
        4
 64
     7
 65
   257
 75
     1
175
     1
 42
1.0
 92
        0
 66
     7
 43
1.0
 76
     1
 77
     6
 78
     2
 67
     7
 79
     5
170
     0
171
     0
290
     0
174
     0
 93
       13
 44
0.0
173
     0
291
     1
 45
0.0
1001
ACAD
1000
AcDbSavedByObjectVersion
1070
     0
  0
VISUALSTYLE
  5
2E
102
{ACAD_REACTORS
330
2A
102
}
102
{ACAD_XDICTIONARY
360
53C
102
}
330
2A
100
AcDbVisualStyle
  2
GouraudWithEdges
 70
     3
 71
     2
 72
     2
 73
     1
 90
        2
 40
0.6
 41
30.0
 62
     5
 63
     7
421
 16777215
 74
     1
 91
        4
 64
     7
 65
   257
 75
     1
175
     1
 42
1.0
 92
        0
 66
   257
 43
1.0
 76
     1
 77
     6
 78
     2
 67
     7
 79
     5
170
     0
171
     0
290
     0
174
     0
 93
       13
 44
0.0
173
     0
291
     1
 45
0.0
1001
ACAD
1000
AcDbSavedByObjectVersion
1070
     0
  0
VISUALSTYLE
  5
38
102
{ACAD_REACTORS
330
2A
102
}
102
{ACAD_XDICTIONARY
360
550
102
}
330
2A
100
AcDbVisualStyle
  2
Linepattern
 70
    14
 71
     2
 72
     2
 73
     0
 90
        0
 40
0.6
 41
30.0
 62
     5
 63
     7
421
 16777215
 74
     1
 91
        4
 64
     7
 65
   257
 75
     7
175
     7
 42
1.0
 92
        8
 66
     7
 43
1.0
 76
     1
 77
     6
 78
     2
 67
     7
 79
     5
170
     0
171
     0
290
     0
174
     0
 93
        1
 44
0.0
173
     0
291
     1
 45
0.0
1001
ACAD
1000
AcDbSavedByObjectVersion
1070
     0
  0
VISUALSTYLE
  5
33
102
{ACAD_REACTORS
330
2A
102
}
102
{ACAD_XDICTIONARY
360
546
102
}
330
2A
100
AcDbVisualStyle
  2
Realistic
 70
     8
 71
     2
 72
     3
 73
     0
 90
        2
 40
0.6
 41
30.0
 62
     5
 63
     7
421
 16777215
 74
     0
 91
        0
 64
     7
 65
   257
 75
     1
175
     1
 42
1.0
 92
        8
 66
   257
 43
1.0
 76
     1
 77
     6
 78
     2
 67
     7
 79
     3
170
     0
171
     0
290
     0
174
     0
 93
       13
 44
0.0
173
     0
291
     0
 45
0.0
1001
ACAD
1000
AcDbSavedByObjectVersion
1070
     0
  0
VISUALSTYLE
  5
37
102
{ACAD_REACTORS
330
2A
102
}
102
{ACAD_XDICTIONARY
360
54E
102
}
330
2A
100
AcDbVisualStyle
  2
Thicken
 70
    13
 71
     2
 72
     2
 73
     0
 90
        0
 40
0.6
 41
30.0
 62
     5
 63
     7
421
 16777215
 74
     1
 91
        4
 64
     7
 65
   257
 75
     1
175
     1
 42
1.0
 92
       12
 66
     7
 43
1.0
 76
     1
 77
     6
 78
     2
 67
     7
 79
     5
170
     0
171
     0
290
     0
174
     0
 93
        1
 44
0.0
173
     0
291
     1
 45
0.0
1001
ACAD
1000
AcDbSavedByObjectVersion
1070
     0
  0
DICTIONARYVAR
  5
534
102
{ACAD_REACTORS
330
533
102
}
330
533
100
DictionaryVariables
280
     0
  1
1:1
  0
DICTIONARYVAR
  5
535
102
{ACAD_REACTORS
330
533
102
}
330
533
100
DictionaryVariables
280
     0
  1
1
  0
DICTIONARY
  5
558
330
3D
100
AcDbDictionary
280
     1
281
     1
  3
ACAD_XREC_ROUNDTRIP
360
559
  0
DICTIONARY
  5
556
330
3C
100
AcDbDictionary
280
     1
281
     1
  3
ACAD_XREC_ROUNDTRIP
360
557
  0
DICTIONARY
  5
55A
330
3E
100
AcDbDictionary
280
     1
281
     1
  3
ACAD_XREC_ROUNDTRIP
360
55B
  0
DICTIONARY
  5
53E
330
2F
100
AcDbDictionary
280
     1
281
     1
  3
ACAD_XREC_ROUNDTRIP
360
53F
  0
DICTIONARY
  5
542
330
31
100
AcDbDictionary
280
     1
281
     1
  3
ACAD_XREC_ROUNDTRIP
360
543
  0
DICTIONARY
  5
540
330
30
100
AcDbDictionary
280
     1
281
     1
  3
ACAD_XREC_ROUNDTRIP
360
541
  0
DICTIONARY
  5
544
330
32
100
AcDbDictionary
280
     1
281
     1
  3
ACAD_XREC_ROUNDTRIP
360
545
  0
DICTIONARY
  5
54C
330
36
100
AcDbDictionary
280
     1
281
     1
  3
ACAD_XREC_ROUNDTRIP
360
54D
  0
DICTIONARY
  5
554
330
3A
100
AcDbDictionary
280
     1
281
     1
  3
ACAD_XREC_ROUNDTRIP
360
555
  0
DICTIONARY
  5
548
330
34
100
AcDbDictionary
280
     1
281
     1
  3
ACAD_XREC_ROUNDTRIP
360
549
  0
DICTIONARY
  5
54A
330
35
100
AcDbDictionary
280
     1
281
     1
  3
ACAD_XREC_ROUNDTRIP
360
54B
  0
DICTIONARY
  5
552
330
39
100
AcDbDictionary
280
     1
281
     1
  3
ACAD_XREC_ROUNDTRIP
360
553
  0
DICTIONARY
  5
536
330
2B
100
AcDbDictionary
280
     1
281
     1
  3
ACAD_XREC_ROUNDTRIP
360
537
  0
DICTIONARY
  5
538
330
2C
100
AcDbDictionary
280
     1
281
     1
  3
ACAD_XREC_ROUNDTRIP
360
539
  0
DICTIONARY
  5
53A
330
2D
100
AcDbDictionary
280
     1
281
     1
  3
ACAD_XREC_ROUNDTRIP
360
53B
  0
DICTIONARY
  5
53C
330
2E
100
AcDbDictionary
280
     1
281
     1
  3
ACAD_XREC_ROUNDTRIP
360
53D
  0
DICTIONARY
  5
550
330
38
100
AcDbDictionary
280
     1
281
     1
  3
ACAD_XREC_ROUNDTRIP
360
551
  0
DICTIONARY
  5
546
330
33
100
AcDbDictionary
280
     1
281
     1
  3
ACAD_XREC_ROUNDTRIP
360
547
  0
DICTIONARY
  5
54E
330
37
100
AcDbDictionary
280
     1
281
     1
  3
ACAD_XREC_ROUNDTRIP
360
54F
  0
XRECORD
  5
559
102
{ACAD_REACTORS
330
558
102
}
330
558
100
AcDbXrecord
280
     1
102
MATERIAL
148
0.0
149
0.0
149
0.0
 93
        0
 94
      127
282
     0
 72
     1
 77
     1
171
     1
175
     1
179
     1
273
     0
  0
XRECORD
  5
557
102
{ACAD_REACTORS
330
556
102
}
330
556
100
AcDbXrecord
280
     1
102
MATERIAL
148
0.0
149
0.0
149
0.0
 93
        0
 94
      127
282
     0
 72
     1
 77
     1
171
     1
175
     1
179
     1
273
     0
  0
XRECORD
  5
55B
102
{ACAD_REACTORS
330
55A
102
}
330
55A
100
AcDbXrecord
280
     1
102
MATERIAL
148
0.0
149
0.0
149
0.0
 93
        0
 94
      127
282
     0
 72
     1
 77
     1
171
     1
175
     1
179
     1
273
     0
  0
XRECORD
  5
53F
102
{ACAD_REACTORS
330
53E
102
}
330
53E
100
AcDbXrecord
280
     1
102
RTVSPropertyOp0
 70
     1
102
RTVSPropertyOp1
 70
     1
102
RTVSPropertyOp2
 70
     1
102
RTVSPropertyOp3
 70
     1
102
RTVSPropertyOp4
 70
     1
102
RTVSPropertyOp5
 70
     1
102
RTVSPropertyOp6
 70
     1
102
RTVSPropertyOp7
 70
     1
102
RTVSPropertyOp8
 70
     1
102
RTVSPropertyOp9
 70
     1
102
RTVSPropertyOp10
 70
     1
102
RTVSPropertyOp11
 70
     1
102
RTVSPropertyOp12
 70
     1
102
RTVSPropertyOp13
 70
     1
102
RTVSPropertyOp14
 70
     1
102
RTVSPropertyOp15
 70
     1
102
RTVSPropertyOp16
 70
     1
102
RTVSPropertyOp17
 70
     1
102
RTVSPropertyOp18
 70
     1
102
RTVSPropertyOp19
 70
     1
102
RTVSPropertyOp20
 70
     1
102
RTVSPropertyOp21
 70
     1
102
RTVSPropertyOp22
 70
     1
102
RTVSPropertyOp23
 70
     1
102
RTVSPropertyOp24
 70
     1
102
RTVSPropertyOp25
 70
     1
102
RTVSPropertyOp26
 70
     1
102
RTVSPropertyOp27
 70
     1
102
RTVSPropertyOp28
 70
     1
102
RTVSPropertyOp29
 70
     1
102
RTVSPropertyOp30
 70
     1
102
RTVSPropertyOp31
 70
     1
102
RTVSPropertyOp32
 70
     1
102
RTVSPropertyOp33
 70
     1
102
RTVSPropertyOp34
 70
     1
102
RTVSPropertyOp35
 70
     1
102
RTVSPropertyOp36
 70
     1
102
RTVSPropertyOp37
 70
     1
102
RTVSPropertyOp38
 70
     1
102
RTVSPropertyOp39
 70
     1
102
RTVSPropertyOp40
 70
     1
102
RTVSPropertyOp41
 70
     1
102
RTVSPropertyOp42
 70
     1
102
RTVSPropertyOp43
 70
     1
102
RTVSPropertyOp44
 70
     1
102
RTVSPropertyOp45
 70
     1
102
RTVSPropertyOp46
 70
     1
102
RTVSPropertyOp47
 70
     1
102
RTVSPropertyOp48
 70
     1
102
RTVSPropertyOp49
 70
     1
102
RTVSPropertyOp50
 70
     1
102
RTVSPropertyOp51
 70
     0
102
RTVSPropertyOp52
 70
     0
102
RTVSPropertyOp53
 70
     1
102
RTVSPropertyOp54
 70
     1
102
RTVSPropertyOp55
 70
     1
102
RTVSPropertyOp56
 70
     1
102
RTVSPropertyOp57
 70
     1
102
RTVSPost2010Prop28
280
     1
102
RTVSPost2010PropOp28
 70
     1
102
RTVSPost2010Prop29
280
     1
102
RTVSPost2010PropOp29
 70
     1
102
RTVSPost2010Prop30
280
     0
102
RTVSPost2010PropOp30
 70
     1
102
RTVSPost2010Prop31
280
     0
102
RTVSPost2010PropOp31
 70
     1
102
RTVSPost2010Prop32
280
     0
102
RTVSPost2010PropOp32
 70
     1
102
RTVSPost2010Prop33
280
     0
102
RTVSPost2010PropOp33
 70
     1
102
RTVSPost2010Prop34
280
     0
102
RTVSPost2010PropOp34
 70
     1
102
RTVSPost2010Prop35
280
     0
102
RTVSPost2010PropOp35
 70
     1
102
RTVSPost2010Prop36
280
     0
102
RTVSPost2010PropOp36
 70
     1
102
RTVSPost2010Prop37
 90
       50
102
RTVSPost2010PropOp37
 70
     1
102
RTVSPost2010Prop38
140
0.0
102
RTVSPost2010PropOp38
 70
     1
102
RTVSPost2010Prop39
140
1.0
102
RTVSPost2010PropOp39
 70
     1
102
RTVSPost2010Prop40
 90
        0
102
RTVSPost2010PropOp40
 70
     1
102
RTVSPost2010Prop41ColorIndex
 90
       18
102
RTVSPost2010Prop41ColorRGB
 90
        0
102
RTVSPost2010PropOp41
 70
     1
102
RTVSPost2010Prop42
 90
       50
102
RTVSPost2010PropOp42
 70
     1
102
RTVSPost2010Prop43
 90
        3
102
RTVSPost2010PropOp43
 70
     1
102
RTVSPost2010Prop44ColorIndex
 90
        5
102
RTVSPost2010Prop44ColorRGB
 90
      255
102
RTVSPost2010PropOp44
 70
     1
102
RTVSPost2010Prop45
280
     0
102
RTVSPost2010PropOp45
 70
     1
102
RTVSPost2010Prop46
 90
       50
102
RTVSPost2010PropOp46
 70
     1
102
RTVSPost2010Prop47
 90
       50
102
RTVSPost2010PropOp47
 70
     1
102
RTVSPost2010Prop48
 90
       50
102
RTVSPost2010PropOp48
 70
     1
102
RTVSPost2010Prop49
280
     0
102
RTVSPost2010PropOp49
 70
     1
102
RTVSPost2010Prop50
 90
       50
102
RTVSPost2010PropOp50
 70
     1
102
RTVSPost2010Prop51ColorIndex
 90
      256
102
RTVSPost2010Prop51ColorRGB
 90
-16777216
102
RTVSPost2010PropOp51
 70
     0
102
RTVSPost2010Prop52
140
1.0
102
RTVSPost2010PropOp52
 70
     0
102
RTVSPost2010Prop53
 90
        2
102
RTVSPost2010PropOp53
 70
     1
102
RTVSPost2010Prop54
  1
strokes_ogs.tif
102
RTVSPost2010PropOp54
 70
     1
102
RTVSPost2010Prop55
280
     0
102
RTVSPost2010PropOp55
 70
     1
102
RTVSPost2010Prop56
140
1.0
102
RTVSPost2010PropOp56
 70
     1
102
RTVSPost2010Prop57
140
1.0
102
RTVSPost2010PropOp57
 70
     1
  0
XRECORD
  5
543
102
{ACAD_REACTORS
330
542
102
}
330
542
100
AcDbXrecord
280
     1
102
RTVSPropertyOp0
 70
     1
102
RTVSPropertyOp1
 70
     1
102
RTVSPropertyOp2
 70
     1
102
RTVSPropertyOp3
 70
     1
102
RTVSPropertyOp4
 70
     1
102
RTVSPropertyOp5
 70
     1
102
RTVSPropertyOp6
 70
     1
102
RTVSPropertyOp7
 70
     1
102
RTVSPropertyOp8
 70
     1
102
RTVSPropertyOp9
 70
     1
102
RTVSPropertyOp10
 70
     1
102
RTVSPropertyOp11
 70
     1
102
RTVSPropertyOp12
 70
     1
102
RTVSPropertyOp13
 70
     1
102
RTVSPropertyOp14
 70
     1
102
RTVSPropertyOp15
 70
     1
102
RTVSPropertyOp16
 70
     1
102
RTVSPropertyOp17
 70
     1
102
RTVSPropertyOp18
 70
     1
102
RTVSPropertyOp19
 70
     1
102
RTVSPropertyOp20
 70
     1
102
RTVSPropertyOp21
 70
     1
102
RTVSPropertyOp22
 70
     1
102
RTVSPropertyOp23
 70
     1
102
RTVSPropertyOp24
 70
     1
102
RTVSPropertyOp25
 70
     1
102
RTVSPropertyOp26
 70
     1
102
RTVSPropertyOp27
 70
     1
102
RTVSPropertyOp28
 70
     1
102
RTVSPropertyOp29
 70
     1
102
RTVSPropertyOp30
 70
     1
102
RTVSPropertyOp31
 70
     1
102
RTVSPropertyOp32
 70
     1
102
RTVSPropertyOp33
 70
     1
102
RTVSPropertyOp34
 70
     1
102
RTVSPropertyOp35
 70
     1
102
RTVSPropertyOp36
 70
     1
102
RTVSPropertyOp37
 70
     1
102
RTVSPropertyOp38
 70
     1
102
RTVSPropertyOp39
 70
     1
102
RTVSPropertyOp40
 70
     1
102
RTVSPropertyOp41
 70
     1
102
RTVSPropertyOp42
 70
     1
102
RTVSPropertyOp43
 70
     1
102
RTVSPropertyOp44
 70
     1
102
RTVSPropertyOp45
 70
     1
102
RTVSPropertyOp46
 70
     1
102
RTVSPropertyOp47
 70
     1
102
RTVSPropertyOp48
 70
     1
102
RTVSPropertyOp49
 70
     1
102
RTVSPropertyOp50
 70
     1
102
RTVSPropertyOp51
 70
     0
102
RTVSPropertyOp52
 70
     0
102
RTVSPropertyOp53
 70
     1
102
RTVSPropertyOp54
 70
     1
102
RTVSPropertyOp55
 70
     1
102
RTVSPropertyOp56
 70
     1
102
RTVSPropertyOp57
 70
     1
102
RTVSPost2010Prop28
280
     0
102
RTVSPost2010PropOp28
 70
     1
102
RTVSPost2010Prop29
280
     1
102
RTVSPost2010PropOp29
 70
     1
102
RTVSPost2010Prop30
280
     1
102
RTVSPost2010PropOp30
 70
     1
102
RTVSPost2010Prop31
280
     0
102
RTVSPost2010PropOp31
 70
     1
102
RTVSPost2010Prop32
280
     0
102
RTVSPost2010PropOp32
 70
     1
102
RTVSPost2010Prop33
280
     0
102
RTVSPost2010PropOp33
 70
     1
102
RTVSPost2010Prop34
280
     0
102
RTVSPost2010PropOp34
 70
     1
102
RTVSPost2010Prop35
280
     0
102
RTVSPost2010PropOp35
 70
     1
102
RTVSPost2010Prop36
280
     0
102
RTVSPost2010PropOp36
 70
     1
102
RTVSPost2010Prop37
 90
       50
102
RTVSPost2010PropOp37
 70
     1
102
RTVSPost2010Prop38
140
0.0
102
RTVSPost2010PropOp38
 70
     1
102
RTVSPost2010Prop39
140
1.0
102
RTVSPost2010PropOp39
 70
     1
102
RTVSPost2010Prop40
 90
        0
102
RTVSPost2010PropOp40
 70
     1
102
RTVSPost2010Prop41ColorIndex
 90
       18
102
RTVSPost2010Prop41ColorRGB
 90
        0
102
RTVSPost2010PropOp41
 70
     1
102
RTVSPost2010Prop42
 90
       50
102
RTVSPost2010PropOp42
 70
     1
102
RTVSPost2010Prop43
 90
        3
102
RTVSPost2010PropOp43
 70
     1
102
RTVSPost2010Prop44ColorIndex
 90
        5
102
RTVSPost2010Prop44ColorRGB
 90
      255
102
RTVSPost2010PropOp44
 70
     1
102
RTVSPost2010Prop45
280
     0
102
RTVSPost2010PropOp45
 70
     1
102
RTVSPost2010Prop46
 90
       50
102
RTVSPost2010PropOp46
 70
     1
102
RTVSPost2010Prop47
 90
       50
102
RTVSPost2010PropOp47
 70
     1
102
RTVSPost2010Prop48
 90
       50
102
RTVSPost2010PropOp48
 70
     1
102
RTVSPost2010Prop49
280
     0
102
RTVSPost2010PropOp49
 70
     1
102
RTVSPost2010Prop50
 90
       50
102
RTVSPost2010PropOp50
 70
     1
102
RTVSPost2010Prop51ColorIndex
 90
      256
102
RTVSPost2010Prop51ColorRGB
 90
-16777216
102
RTVSPost2010PropOp51
 70
     0
102
RTVSPost2010Prop52
140
1.0
102
RTVSPost2010PropOp52
 70
     0
102
RTVSPost2010Prop53
 90
        2
102
RTVSPost2010PropOp53
 70
     1
102
RTVSPost2010Prop54
  1
strokes_ogs.tif
102
RTVSPost2010PropOp54
 70
     1
102
RTVSPost2010Prop55
280
     0
102
RTVSPost2010PropOp55
 70
     1
102
RTVSPost2010Prop56
140
1.0
102
RTVSPost2010PropOp56
 70
     1
102
RTVSPost2010Prop57
140
1.0
102
RTVSPost2010PropOp57
 70
     1
  0
XRECORD
  5
541
102
{ACAD_REACTORS
330
540
102
}
330
540
100
AcDbXrecord
280
     1
102
RTVSPropertyOp0
 70
     1
102
RTVSPropertyOp1
 70
     1
102
RTVSPropertyOp2
 70
     1
102
RTVSPropertyOp3
 70
     1
102
RTVSPropertyOp4
 70
     1
102
RTVSPropertyOp5
 70
     1
102
RTVSPropertyOp6
 70
     1
102
RTVSPropertyOp7
 70
     1
102
RTVSPropertyOp8
 70
     1
102
RTVSPropertyOp9
 70
     1
102
RTVSPropertyOp10
 70
     1
102
RTVSPropertyOp11
 70
     1
102
RTVSPropertyOp12
 70
     1
102
RTVSPropertyOp13
 70
     1
102
RTVSPropertyOp14
 70
     1
102
RTVSPropertyOp15
 70
     1
102
RTVSPropertyOp16
 70
     1
102
RTVSPropertyOp17
 70
     1
102
RTVSPropertyOp18
 70
     1
102
RTVSPropertyOp19
 70
     1
102
RTVSPropertyOp20
 70
     1
102
RTVSPropertyOp21
 70
     1
102
RTVSPropertyOp22
 70
     1
102
RTVSPropertyOp23
 70
     1
102
RTVSPropertyOp24
 70
     1
102
RTVSPropertyOp25
 70
     1
102
RTVSPropertyOp26
 70
     1
102
RTVSPropertyOp27
 70
     1
102
RTVSPropertyOp28
 70
     1
102
RTVSPropertyOp29
 70
     1
102
RTVSPropertyOp30
 70
     1
102
RTVSPropertyOp31
 70
     1
102
RTVSPropertyOp32
 70
     1
102
RTVSPropertyOp33
 70
     1
102
RTVSPropertyOp34
 70
     1
102
RTVSPropertyOp35
 70
     1
102
RTVSPropertyOp36
 70
     1
102
RTVSPropertyOp37
 70
     1
102
RTVSPropertyOp38
 70
     1
102
RTVSPropertyOp39
 70
     1
102
RTVSPropertyOp40
 70
     1
102
RTVSPropertyOp41
 70
     1
102
RTVSPropertyOp42
 70
     1
102
RTVSPropertyOp43
 70
     1
102
RTVSPropertyOp44
 70
     1
102
RTVSPropertyOp45
 70
     1
102
RTVSPropertyOp46
 70
     1
102
RTVSPropertyOp47
 70
     1
102
RTVSPropertyOp48
 70
     1
102
RTVSPropertyOp49
 70
     1
102
RTVSPropertyOp50
 70
     1
102
RTVSPropertyOp51
 70
     0
102
RTVSPropertyOp52
 70
     0
102
RTVSPropertyOp53
 70
     1
102
RTVSPropertyOp54
 70
     1
102
RTVSPropertyOp55
 70
     1
102
RTVSPropertyOp56
 70
     1
102
RTVSPropertyOp57
 70
     1
102
RTVSPost2010Prop28
280
     0
102
RTVSPost2010PropOp28
 70
     1
102
RTVSPost2010Prop29
280
     1
102
RTVSPost2010PropOp29
 70
     1
102
RTVSPost2010Prop30
280
     1
102
RTVSPost2010PropOp30
 70
     1
102
RTVSPost2010Prop31
280
     0
102
RTVSPost2010PropOp31
 70
     1
102
RTVSPost2010Prop32
280
     0
102
RTVSPost2010PropOp32
 70
     1
102
RTVSPost2010Prop33
280
     0
102
RTVSPost2010PropOp33
 70
     1
102
RTVSPost2010Prop34
280
     0
102
RTVSPost2010PropOp34
 70
     1
102
RTVSPost2010Prop35
280
     0
102
RTVSPost2010PropOp35
 70
     1
102
RTVSPost2010Prop36
280
     0
102
RTVSPost2010PropOp36
 70
     1
102
RTVSPost2010Prop37
 90
       50
102
RTVSPost2010PropOp37
 70
     1
102
RTVSPost2010Prop38
140
0.0
102
RTVSPost2010PropOp38
 70
     1
102
RTVSPost2010Prop39
140
1.0
102
RTVSPost2010PropOp39
 70
     1
102
RTVSPost2010Prop40
 90
        0
102
RTVSPost2010PropOp40
 70
     1
102
RTVSPost2010Prop41ColorIndex
 90
       18
102
RTVSPost2010Prop41ColorRGB
 90
        0
102
RTVSPost2010PropOp41
 70
     1
102
RTVSPost2010Prop42
 90
       50
102
RTVSPost2010PropOp42
 70
     1
102
RTVSPost2010Prop43
 90
        3
102
RTVSPost2010PropOp43
 70
     1
102
RTVSPost2010Prop44ColorIndex
 90
        5
102
RTVSPost2010Prop44ColorRGB
 90
      255
102
RTVSPost2010PropOp44
 70
     1
102
RTVSPost2010Prop45
280
     0
102
RTVSPost2010PropOp45
 70
     1
102
RTVSPost2010Prop46
 90
       50
102
RTVSPost2010PropOp46
 70
     1
102
RTVSPost2010Prop47
 90
       50
102
RTVSPost2010PropOp47
 70
     1
102
RTVSPost2010Prop48
 90
       50
102
RTVSPost2010PropOp48
 70
     1
102
RTVSPost2010Prop49
280
     0
102
RTVSPost2010PropOp49
 70
     1
102
RTVSPost2010Prop50
 90
       50
102
RTVSPost2010PropOp50
 70
     1
102
RTVSPost2010Prop51ColorIndex
 90
      256
102
RTVSPost2010Prop51ColorRGB
 90
-16777216
102
RTVSPost2010PropOp51
 70
     0
102
RTVSPost2010Prop52
140
1.0
102
RTVSPost2010PropOp52
 70
     0
102
RTVSPost2010Prop53
 90
        2
102
RTVSPost2010PropOp53
 70
     1
102
RTVSPost2010Prop54
  1
strokes_ogs.tif
102
RTVSPost2010PropOp54
 70
     1
102
RTVSPost2010Prop55
280
     0
102
RTVSPost2010PropOp55
 70
     1
102
RTVSPost2010Prop56
140
1.0
102
RTVSPost2010PropOp56
 70
     1
102
RTVSPost2010Prop57
140
1.0
102
RTVSPost2010PropOp57
 70
     1
  0
XRECORD
  5
545
102
{ACAD_REACTORS
330
544
102
}
330
544
100
AcDbXrecord
280
     1
102
RTVSPropertyOp0
 70
     1
102
RTVSPropertyOp1
 70
     1
102
RTVSPropertyOp2
 70
     1
102
RTVSPropertyOp3
 70
     1
102
RTVSPropertyOp4
 70
     1
102
RTVSPropertyOp5
 70
     1
102
RTVSPropertyOp6
 70
     1
102
RTVSPropertyOp7
 70
     1
102
RTVSPropertyOp8
 70
     1
102
RTVSPropertyOp9
 70
     1
102
RTVSPropertyOp10
 70
     1
102
RTVSPropertyOp11
 70
     1
102
RTVSPropertyOp12
 70
     1
102
RTVSPropertyOp13
 70
     1
102
RTVSPropertyOp14
 70
     1
102
RTVSPropertyOp15
 70
     1
102
RTVSPropertyOp16
 70
     1
102
RTVSPropertyOp17
 70
     1
102
RTVSPropertyOp18
 70
     1
102
RTVSPropertyOp19
 70
     1
102
RTVSPropertyOp20
 70
     1
102
RTVSPropertyOp21
 70
     1
102
RTVSPropertyOp22
 70
     1
102
RTVSPropertyOp23
 70
     1
102
RTVSPropertyOp24
 70
     1
102
RTVSPropertyOp25
 70
     1
102
RTVSPropertyOp26
 70
     1
102
RTVSPropertyOp27
 70
     1
102
RTVSPropertyOp28
 70
     1
102
RTVSPropertyOp29
 70
     1
102
RTVSPropertyOp30
 70
     1
102
RTVSPropertyOp31
 70
     1
102
RTVSPropertyOp32
 70
     1
102
RTVSPropertyOp33
 70
     1
102
RTVSPropertyOp34
 70
     1
102
RTVSPropertyOp35
 70
     1
102
RTVSPropertyOp36
 70
     1
102
RTVSPropertyOp37
 70
     1
102
RTVSPropertyOp38
 70
     1
102
RTVSPropertyOp39
 70
     1
102
RTVSPropertyOp40
 70
     1
102
RTVSPropertyOp41
 70
     1
102
RTVSPropertyOp42
 70
     1
102
RTVSPropertyOp43
 70
     1
102
RTVSPropertyOp44
 70
     1
102
RTVSPropertyOp45
 70
     1
102
RTVSPropertyOp46
 70
     1
102
RTVSPropertyOp47
 70
     1
102
RTVSPropertyOp48
 70
     1
102
RTVSPropertyOp49
 70
     1
102
RTVSPropertyOp50
 70
     1
102
RTVSPropertyOp51
 70
     0
102
RTVSPropertyOp52
 70
     0
102
RTVSPropertyOp53
 70
     1
102
RTVSPropertyOp54
 70
     1
102
RTVSPropertyOp55
 70
     1
102
RTVSPropertyOp56
 70
     1
102
RTVSPropertyOp57
 70
     1
102
RTVSPost2010Prop28
280
     0
102
RTVSPost2010PropOp28
 70
     1
102
RTVSPost2010Prop29
280
     1
102
RTVSPost2010PropOp29
 70
     1
102
RTVSPost2010Prop30
280
     1
102
RTVSPost2010PropOp30
 70
     1
102
RTVSPost2010Prop31
280
     0
102
RTVSPost2010PropOp31
 70
     1
102
RTVSPost2010Prop32
280
     0
102
RTVSPost2010PropOp32
 70
     1
102
RTVSPost2010Prop33
280
     0
102
RTVSPost2010PropOp33
 70
     1
102
RTVSPost2010Prop34
280
     0
102
RTVSPost2010PropOp34
 70
     1
102
RTVSPost2010Prop35
280
     0
102
RTVSPost2010PropOp35
 70
     1
102
RTVSPost2010Prop36
280
     0
102
RTVSPost2010PropOp36
 70
     1
102
RTVSPost2010Prop37
 90
       50
102
RTVSPost2010PropOp37
 70
     1
102
RTVSPost2010Prop38
140
0.0
102
RTVSPost2010PropOp38
 70
     1
102
RTVSPost2010Prop39
140
1.0
102
RTVSPost2010PropOp39
 70
     1
102
RTVSPost2010Prop40
 90
        0
102
RTVSPost2010PropOp40
 70
     1
102
RTVSPost2010Prop41ColorIndex
 90
       18
102
RTVSPost2010Prop41ColorRGB
 90
        0
102
RTVSPost2010PropOp41
 70
     1
102
RTVSPost2010Prop42
 90
       50
102
RTVSPost2010PropOp42
 70
     1
102
RTVSPost2010Prop43
 90
        3
102
RTVSPost2010PropOp43
 70
     1
102
RTVSPost2010Prop44ColorIndex
 90
        5
102
RTVSPost2010Prop44ColorRGB
 90
      255
102
RTVSPost2010PropOp44
 70
     1
102
RTVSPost2010Prop45
280
     0
102
RTVSPost2010PropOp45
 70
     1
102
RTVSPost2010Prop46
 90
       50
102
RTVSPost2010PropOp46
 70
     1
102
RTVSPost2010Prop47
 90
       50
102
RTVSPost2010PropOp47
 70
     1
102
RTVSPost2010Prop48
 90
       50
102
RTVSPost2010PropOp48
 70
     1
102
RTVSPost2010Prop49
280
     0
102
RTVSPost2010PropOp49
 70
     1
102
RTVSPost2010Prop50
 90
       50
102
RTVSPost2010PropOp50
 70
     1
102
RTVSPost2010Prop51ColorIndex
 90
      256
102
RTVSPost2010Prop51ColorRGB
 90
-16777216
102
RTVSPost2010PropOp51
 70
     0
102
RTVSPost2010Prop52
140
1.0
102
RTVSPost2010PropOp52
 70
     0
102
RTVSPost2010Prop53
 90
        2
102
RTVSPost2010PropOp53
 70
     1
102
RTVSPost2010Prop54
  1
strokes_ogs.tif
102
RTVSPost2010PropOp54
 70
     1
102
RTVSPost2010Prop55
280
     0
102
RTVSPost2010PropOp55
 70
     1
102
RTVSPost2010Prop56
140
1.0
102
RTVSPost2010PropOp56
 70
     1
102
RTVSPost2010Prop57
140
1.0
102
RTVSPost2010PropOp57
 70
     1
  0
XRECORD
  5
54D
102
{ACAD_REACTORS
330
54C
102
}
330
54C
100
AcDbXrecord
280
     1
102
RTVSPropertyOp0
 70
     1
102
RTVSPropertyOp1
 70
     1
102
RTVSPropertyOp2
 70
     1
102
RTVSPropertyOp3
 70
     1
102
RTVSPropertyOp4
 70
     1
102
RTVSPropertyOp5
 70
     1
102
RTVSPropertyOp6
 70
     1
102
RTVSPropertyOp7
 70
     1
102
RTVSPropertyOp8
 70
     1
102
RTVSPropertyOp9
 70
     1
102
RTVSPropertyOp10
 70
     1
102
RTVSPropertyOp11
 70
     1
102
RTVSPropertyOp12
 70
     1
102
RTVSPropertyOp13
 70
     1
102
RTVSPropertyOp14
 70
     1
102
RTVSPropertyOp15
 70
     1
102
RTVSPropertyOp16
 70
     1
102
RTVSPropertyOp17
 70
     1
102
RTVSPropertyOp18
 70
     1
102
RTVSPropertyOp19
 70
     1
102
RTVSPropertyOp20
 70
     1
102
RTVSPropertyOp21
 70
     1
102
RTVSPropertyOp22
 70
     1
102
RTVSPropertyOp23
 70
     1
102
RTVSPropertyOp24
 70
     1
102
RTVSPropertyOp25
 70
     1
102
RTVSPropertyOp26
 70
     1
102
RTVSPropertyOp27
 70
     1
102
RTVSPropertyOp28
 70
     1
102
RTVSPropertyOp29
 70
     1
102
RTVSPropertyOp30
 70
     1
102
RTVSPropertyOp31
 70
     1
102
RTVSPropertyOp32
 70
     1
102
RTVSPropertyOp33
 70
     1
102
RTVSPropertyOp34
 70
     1
102
RTVSPropertyOp35
 70
     1
102
RTVSPropertyOp36
 70
     1
102
RTVSPropertyOp37
 70
     1
102
RTVSPropertyOp38
 70
     1
102
RTVSPropertyOp39
 70
     1
102
RTVSPropertyOp40
 70
     1
102
RTVSPropertyOp41
 70
     1
102
RTVSPropertyOp42
 70
     1
102
RTVSPropertyOp43
 70
     1
102
RTVSPropertyOp44
 70
     1
102
RTVSPropertyOp45
 70
     1
102
RTVSPropertyOp46
 70
     1
102
RTVSPropertyOp47
 70
     1
102
RTVSPropertyOp48
 70
     1
102
RTVSPropertyOp49
 70
     1
102
RTVSPropertyOp50
 70
     1
102
RTVSPropertyOp51
 70
     0
102
RTVSPropertyOp52
 70
     0
102
RTVSPropertyOp53
 70
     1
102
RTVSPropertyOp54
 70
     1
102
RTVSPropertyOp55
 70
     1
102
RTVSPropertyOp56
 70
     1
102
RTVSPropertyOp57
 70
     1
102
RTVSPost2010Prop28
280
     0
102
RTVSPost2010PropOp28
 70
     1
102
RTVSPost2010Prop29
280
     1
102
RTVSPost2010PropOp29
 70
     1
102
RTVSPost2010Prop30
280
     1
102
RTVSPost2010PropOp30
 70
     1
102
RTVSPost2010Prop31
280
     0
102
RTVSPost2010PropOp31
 70
     1
102
RTVSPost2010Prop32
280
     0
102
RTVSPost2010PropOp32
 70
     1
102
RTVSPost2010Prop33
280
     0
102
RTVSPost2010PropOp33
 70
     1
102
RTVSPost2010Prop34
280
     0
102
RTVSPost2010PropOp34
 70
     1
102
RTVSPost2010Prop35
280
     0
102
RTVSPost2010PropOp35
 70
     1
102
RTVSPost2010Prop36
280
     0
102
RTVSPost2010PropOp36
 70
     1
102
RTVSPost2010Prop37
 90
       50
102
RTVSPost2010PropOp37
 70
     1
102
RTVSPost2010Prop38
140
0.0
102
RTVSPost2010PropOp38
 70
     1
102
RTVSPost2010Prop39
140
1.0
102
RTVSPost2010PropOp39
 70
     1
102
RTVSPost2010Prop40
 90
        0
102
RTVSPost2010PropOp40
 70
     1
102
RTVSPost2010Prop41ColorIndex
 90
       18
102
RTVSPost2010Prop41ColorRGB
 90
        0
102
RTVSPost2010PropOp41
 70
     1
102
RTVSPost2010Prop42
 90
       50
102
RTVSPost2010PropOp42
 70
     1
102
RTVSPost2010Prop43
 90
        3
102
RTVSPost2010PropOp43
 70
     1
102
RTVSPost2010Prop44ColorIndex
 90
        5
102
RTVSPost2010Prop44ColorRGB
 90
      255
102
RTVSPost2010PropOp44
 70
     1
102
RTVSPost2010Prop45
280
     0
102
RTVSPost2010PropOp45
 70
     1
102
RTVSPost2010Prop46
 90
       50
102
RTVSPost2010PropOp46
 70
     1
102
RTVSPost2010Prop47
 90
       50
102
RTVSPost2010PropOp47
 70
     1
102
RTVSPost2010Prop48
 90
       50
102
RTVSPost2010PropOp48
 70
     1
102
RTVSPost2010Prop49
280
     0
102
RTVSPost2010PropOp49
 70
     1
102
RTVSPost2010Prop50
 90
       50
102
RTVSPost2010PropOp50
 70
     1
102
RTVSPost2010Prop51ColorIndex
 90
      256
102
RTVSPost2010Prop51ColorRGB
 90
-16777216
102
RTVSPost2010PropOp51
 70
     0
102
RTVSPost2010Prop52
140
1.0
102
RTVSPost2010PropOp52
 70
     0
102
RTVSPost2010Prop53
 90
        2
102
RTVSPost2010PropOp53
 70
     1
102
RTVSPost2010Prop54
  1
strokes_ogs.tif
102
RTVSPost2010PropOp54
 70
     1
102
RTVSPost2010Prop55
280
     0
102
RTVSPost2010PropOp55
 70
     1
102
RTVSPost2010Prop56
140
1.0
102
RTVSPost2010PropOp56
 70
     1
102
RTVSPost2010Prop57
140
1.0
102
RTVSPost2010PropOp57
 70
     1
  0
XRECORD
  5
555
102
{ACAD_REACTORS
330
554
102
}
330
554
100
AcDbXrecord
280
     1
102
RTVSPropertyOp0
 70
     1
102
RTVSPropertyOp1
 70
     1
102
RTVSPropertyOp2
 70
     1
102
RTVSPropertyOp3
 70
     1
102
RTVSPropertyOp4
 70
     1
102
RTVSPropertyOp5
 70
     1
102
RTVSPropertyOp6
 70
     1
102
RTVSPropertyOp7
 70
     1
102
RTVSPropertyOp8
 70
     1
102
RTVSPropertyOp9
 70
     1
102
RTVSPropertyOp10
 70
     1
102
RTVSPropertyOp11
 70
     1
102
RTVSPropertyOp12
 70
     1
102
RTVSPropertyOp13
 70
     1
102
RTVSPropertyOp14
 70
     1
102
RTVSPropertyOp15
 70
     1
102
RTVSPropertyOp16
 70
     1
102
RTVSPropertyOp17
 70
     1
102
RTVSPropertyOp18
 70
     1
102
RTVSPropertyOp19
 70
     1
102
RTVSPropertyOp20
 70
     1
102
RTVSPropertyOp21
 70
     1
102
RTVSPropertyOp22
 70
     1
102
RTVSPropertyOp23
 70
     1
102
RTVSPropertyOp24
 70
     1
102
RTVSPropertyOp25
 70
     1
102
RTVSPropertyOp26
 70
     1
102
RTVSPropertyOp27
 70
     1
102
RTVSPropertyOp28
 70
     1
102
RTVSPropertyOp29
 70
     1
102
RTVSPropertyOp30
 70
     1
102
RTVSPropertyOp31
 70
     1
102
RTVSPropertyOp32
 70
     1
102
RTVSPropertyOp33
 70
     1
102
RTVSPropertyOp34
 70
     1
102
RTVSPropertyOp35
 70
     1
102
RTVSPropertyOp36
 70
     1
102
RTVSPropertyOp37
 70
     1
102
RTVSPropertyOp38
 70
     1
102
RTVSPropertyOp39
 70
     1
102
RTVSPropertyOp40
 70
     1
102
RTVSPropertyOp41
 70
     1
102
RTVSPropertyOp42
 70
     1
102
RTVSPropertyOp43
 70
     1
102
RTVSPropertyOp44
 70
     1
102
RTVSPropertyOp45
 70
     1
102
RTVSPropertyOp46
 70
     1
102
RTVSPropertyOp47
 70
     1
102
RTVSPropertyOp48
 70
     1
102
RTVSPropertyOp49
 70
     1
102
RTVSPropertyOp50
 70
     1
102
RTVSPropertyOp51
 70
     0
102
RTVSPropertyOp52
 70
     0
102
RTVSPropertyOp53
 70
     1
102
RTVSPropertyOp54
 70
     1
102
RTVSPropertyOp55
 70
     1
102
RTVSPropertyOp56
 70
     1
102
RTVSPropertyOp57
 70
     1
102
RTVSPost2010Prop28
280
     0
102
RTVSPost2010PropOp28
 70
     1
102
RTVSPost2010Prop29
280
     1
102
RTVSPost2010PropOp29
 70
     1
102
RTVSPost2010Prop30
280
     1
102
RTVSPost2010PropOp30
 70
     1
102
RTVSPost2010Prop31
280
     0
102
RTVSPost2010PropOp31
 70
     1
102
RTVSPost2010Prop32
280
     0
102
RTVSPost2010PropOp32
 70
     1
102
RTVSPost2010Prop33
280
     0
102
RTVSPost2010PropOp33
 70
     1
102
RTVSPost2010Prop34
280
     0
102
RTVSPost2010PropOp34
 70
     1
102
RTVSPost2010Prop35
280
     0
102
RTVSPost2010PropOp35
 70
     1
102
RTVSPost2010Prop36
280
     0
102
RTVSPost2010PropOp36
 70
     1
102
RTVSPost2010Prop37
 90
       50
102
RTVSPost2010PropOp37
 70
     1
102
RTVSPost2010Prop38
140
0.0
102
RTVSPost2010PropOp38
 70
     1
102
RTVSPost2010Prop39
140
1.0
102
RTVSPost2010PropOp39
 70
     1
102
RTVSPost2010Prop40
 90
        0
102
RTVSPost2010PropOp40
 70
     1
102
RTVSPost2010Prop41ColorIndex
 90
       18
102
RTVSPost2010Prop41ColorRGB
 90
        0
102
RTVSPost2010PropOp41
 70
     1
102
RTVSPost2010Prop42
 90
       50
102
RTVSPost2010PropOp42
 70
     1
102
RTVSPost2010Prop43
 90
        3
102
RTVSPost2010PropOp43
 70
     1
102
RTVSPost2010Prop44ColorIndex
 90
        5
102
RTVSPost2010Prop44ColorRGB
 90
      255
102
RTVSPost2010PropOp44
 70
     1
102
RTVSPost2010Prop45
280
     0
102
RTVSPost2010PropOp45
 70
     1
102
RTVSPost2010Prop46
 90
       50
102
RTVSPost2010PropOp46
 70
     1
102
RTVSPost2010Prop47
 90
       50
102
RTVSPost2010PropOp47
 70
     1
102
RTVSPost2010Prop48
 90
       50
102
RTVSPost2010PropOp48
 70
     1
102
RTVSPost2010Prop49
280
     0
102
RTVSPost2010PropOp49
 70
     1
102
RTVSPost2010Prop50
 90
       50
102
RTVSPost2010PropOp50
 70
     1
102
RTVSPost2010Prop51ColorIndex
 90
      256
102
RTVSPost2010Prop51ColorRGB
 90
-16777216
102
RTVSPost2010PropOp51
 70
     0
102
RTVSPost2010Prop52
140
1.0
102
RTVSPost2010PropOp52
 70
     0
102
RTVSPost2010Prop53
 90
        2
102
RTVSPost2010PropOp53
 70
     1
102
RTVSPost2010Prop54
  1
strokes_ogs.tif
102
RTVSPost2010PropOp54
 70
     1
102
RTVSPost2010Prop55
280
     0
102
RTVSPost2010PropOp55
 70
     1
102
RTVSPost2010Prop56
140
1.0
102
RTVSPost2010PropOp56
 70
     1
102
RTVSPost2010Prop57
140
1.0
102
RTVSPost2010PropOp57
 70
     1
  0
XRECORD
  5
549
102
{ACAD_REACTORS
330
548
102
}
330
548
100
AcDbXrecord
280
     1
102
RTVSPropertyOp0
 70
     1
102
RTVSPropertyOp1
 70
     1
102
RTVSPropertyOp2
 70
     1
102
RTVSPropertyOp3
 70
     1
102
RTVSPropertyOp4
 70
     1
102
RTVSPropertyOp5
 70
     1
102
RTVSPropertyOp6
 70
     1
102
RTVSPropertyOp7
 70
     1
102
RTVSPropertyOp8
 70
     1
102
RTVSPropertyOp9
 70
     1
102
RTVSPropertyOp10
 70
     1
102
RTVSPropertyOp11
 70
     1
102
RTVSPropertyOp12
 70
     1
102
RTVSPropertyOp13
 70
     1
102
RTVSPropertyOp14
 70
     1
102
RTVSPropertyOp15
 70
     1
102
RTVSPropertyOp16
 70
     1
102
RTVSPropertyOp17
 70
     1
102
RTVSPropertyOp18
 70
     1
102
RTVSPropertyOp19
 70
     1
102
RTVSPropertyOp20
 70
     1
102
RTVSPropertyOp21
 70
     1
102
RTVSPropertyOp22
 70
     1
102
RTVSPropertyOp23
 70
     1
102
RTVSPropertyOp24
 70
     1
102
RTVSPropertyOp25
 70
     1
102
RTVSPropertyOp26
 70
     1
102
RTVSPropertyOp27
 70
     1
102
RTVSPropertyOp28
 70
     1
102
RTVSPropertyOp29
 70
     1
102
RTVSPropertyOp30
 70
     1
102
RTVSPropertyOp31
 70
     1
102
RTVSPropertyOp32
 70
     1
102
RTVSPropertyOp33
 70
     1
102
RTVSPropertyOp34
 70
     1
102
RTVSPropertyOp35
 70
     1
102
RTVSPropertyOp36
 70
     1
102
RTVSPropertyOp37
 70
     1
102
RTVSPropertyOp38
 70
     1
102
RTVSPropertyOp39
 70
     1
102
RTVSPropertyOp40
 70
     1
102
RTVSPropertyOp41
 70
     1
102
RTVSPropertyOp42
 70
     1
102
RTVSPropertyOp43
 70
     1
102
RTVSPropertyOp44
 70
     1
102
RTVSPropertyOp45
 70
     1
102
RTVSPropertyOp46
 70
     1
102
RTVSPropertyOp47
 70
     1
102
RTVSPropertyOp48
 70
     1
102
RTVSPropertyOp49
 70
     1
102
RTVSPropertyOp50
 70
     1
102
RTVSPropertyOp51
 70
     0
102
RTVSPropertyOp52
 70
     0
102
RTVSPropertyOp53
 70
     1
102
RTVSPropertyOp54
 70
     1
102
RTVSPropertyOp55
 70
     1
102
RTVSPropertyOp56
 70
     1
102
RTVSPropertyOp57
 70
     1
102
RTVSPost2010Prop28
280
     0
102
RTVSPost2010PropOp28
 70
     1
102
RTVSPost2010Prop29
280
     1
102
RTVSPost2010PropOp29
 70
     1
102
RTVSPost2010Prop30
280
     1
102
RTVSPost2010PropOp30
 70
     1
102
RTVSPost2010Prop31
280
     0
102
RTVSPost2010PropOp31
 70
     1
102
RTVSPost2010Prop32
280
     0
102
RTVSPost2010PropOp32
 70
     1
102
RTVSPost2010Prop33
280
     0
102
RTVSPost2010PropOp33
 70
     1
102
RTVSPost2010Prop34
280
     0
102
RTVSPost2010PropOp34
 70
     1
102
RTVSPost2010Prop35
280
     0
102
RTVSPost2010PropOp35
 70
     1
102
RTVSPost2010Prop36
280
     0
102
RTVSPost2010PropOp36
 70
     1
102
RTVSPost2010Prop37
 90
       50
102
RTVSPost2010PropOp37
 70
     1
102
RTVSPost2010Prop38
140
0.0
102
RTVSPost2010PropOp38
 70
     1
102
RTVSPost2010Prop39
140
1.0
102
RTVSPost2010PropOp39
 70
     1
102
RTVSPost2010Prop40
 90
        0
102
RTVSPost2010PropOp40
 70
     1
102
RTVSPost2010Prop41ColorIndex
 90
       18
102
RTVSPost2010Prop41ColorRGB
 90
        0
102
RTVSPost2010PropOp41
 70
     1
102
RTVSPost2010Prop42
 90
       50
102
RTVSPost2010PropOp42
 70
     1
102
RTVSPost2010Prop43
 90
        3
102
RTVSPost2010PropOp43
 70
     1
102
RTVSPost2010Prop44ColorIndex
 90
        5
102
RTVSPost2010Prop44ColorRGB
 90
      255
102
RTVSPost2010PropOp44
 70
     1
102
RTVSPost2010Prop45
280
     0
102
RTVSPost2010PropOp45
 70
     1
102
RTVSPost2010Prop46
 90
       50
102
RTVSPost2010PropOp46
 70
     1
102
RTVSPost2010Prop47
 90
       50
102
RTVSPost2010PropOp47
 70
     1
102
RTVSPost2010Prop48
 90
       50
102
RTVSPost2010PropOp48
 70
     1
102
RTVSPost2010Prop49
280
     0
102
RTVSPost2010PropOp49
 70
     1
102
RTVSPost2010Prop50
 90
       50
102
RTVSPost2010PropOp50
 70
     1
102
RTVSPost2010Prop51ColorIndex
 90
      256
102
RTVSPost2010Prop51ColorRGB
 90
-16777216
102
RTVSPost2010PropOp51
 70
     0
102
RTVSPost2010Prop52
140
1.0
102
RTVSPost2010PropOp52
 70
     0
102
RTVSPost2010Prop53
 90
        2
102
RTVSPost2010PropOp53
 70
     1
102
RTVSPost2010Prop54
  1
strokes_ogs.tif
102
RTVSPost2010PropOp54
 70
     1
102
RTVSPost2010Prop55
280
     0
102
RTVSPost2010PropOp55
 70
     1
102
RTVSPost2010Prop56
140
1.0
102
RTVSPost2010PropOp56
 70
     1
102
RTVSPost2010Prop57
140
1.0
102
RTVSPost2010PropOp57
 70
     1
  0
XRECORD
  5
54B
102
{ACAD_REACTORS
330
54A
102
}
330
54A
100
AcDbXrecord
280
     1
102
RTVSPropertyOp0
 70
     1
102
RTVSPropertyOp1
 70
     1
102
RTVSPropertyOp2
 70
     1
102
RTVSPropertyOp3
 70
     1
102
RTVSPropertyOp4
 70
     1
102
RTVSPropertyOp5
 70
     1
102
RTVSPropertyOp6
 70
     1
102
RTVSPropertyOp7
 70
     1
102
RTVSPropertyOp8
 70
     1
102
RTVSPropertyOp9
 70
     1
102
RTVSPropertyOp10
 70
     1
102
RTVSPropertyOp11
 70
     1
102
RTVSPropertyOp12
 70
     1
102
RTVSPropertyOp13
 70
     1
102
RTVSPropertyOp14
 70
     1
102
RTVSPropertyOp15
 70
     1
102
RTVSPropertyOp16
 70
     1
102
RTVSPropertyOp17
 70
     1
102
RTVSPropertyOp18
 70
     1
102
RTVSPropertyOp19
 70
     1
102
RTVSPropertyOp20
 70
     1
102
RTVSPropertyOp21
 70
     1
102
RTVSPropertyOp22
 70
     1
102
RTVSPropertyOp23
 70
     1
102
RTVSPropertyOp24
 70
     1
102
RTVSPropertyOp25
 70
     1
102
RTVSPropertyOp26
 70
     1
102
RTVSPropertyOp27
 70
     1
102
RTVSPropertyOp28
 70
     1
102
RTVSPropertyOp29
 70
     1
102
RTVSPropertyOp30
 70
     1
102
RTVSPropertyOp31
 70
     1
102
RTVSPropertyOp32
 70
     1
102
RTVSPropertyOp33
 70
     1
102
RTVSPropertyOp34
 70
     1
102
RTVSPropertyOp35
 70
     1
102
RTVSPropertyOp36
 70
     1
102
RTVSPropertyOp37
 70
     1
102
RTVSPropertyOp38
 70
     1
102
RTVSPropertyOp39
 70
     1
102
RTVSPropertyOp40
 70
     1
102
RTVSPropertyOp41
 70
     1
102
RTVSPropertyOp42
 70
     1
102
RTVSPropertyOp43
 70
     1
102
RTVSPropertyOp44
 70
     1
102
RTVSPropertyOp45
 70
     1
102
RTVSPropertyOp46
 70
     1
102
RTVSPropertyOp47
 70
     1
102
RTVSPropertyOp48
 70
     1
102
RTVSPropertyOp49
 70
     1
102
RTVSPropertyOp50
 70
     1
102
RTVSPropertyOp51
 70
     0
102
RTVSPropertyOp52
 70
     0
102
RTVSPropertyOp53
 70
     1
102
RTVSPropertyOp54
 70
     1
102
RTVSPropertyOp55
 70
     1
102
RTVSPropertyOp56
 70
     1
102
RTVSPropertyOp57
 70
     1
102
RTVSPost2010Prop28
280
     0
102
RTVSPost2010PropOp28
 70
     1
102
RTVSPost2010Prop29
280
     1
102
RTVSPost2010PropOp29
 70
     1
102
RTVSPost2010Prop30
280
     1
102
RTVSPost2010PropOp30
 70
     1
102
RTVSPost2010Prop31
280
     0
102
RTVSPost2010PropOp31
 70
     1
102
RTVSPost2010Prop32
280
     0
102
RTVSPost2010PropOp32
 70
     1
102
RTVSPost2010Prop33
280
     0
102
RTVSPost2010PropOp33
 70
     1
102
RTVSPost2010Prop34
280
     0
102
RTVSPost2010PropOp34
 70
     1
102
RTVSPost2010Prop35
280
     0
102
RTVSPost2010PropOp35
 70
     1
102
RTVSPost2010Prop36
280
     0
102
RTVSPost2010PropOp36
 70
     1
102
RTVSPost2010Prop37
 90
       50
102
RTVSPost2010PropOp37
 70
     1
102
RTVSPost2010Prop38
140
0.0
102
RTVSPost2010PropOp38
 70
     1
102
RTVSPost2010Prop39
140
1.0
102
RTVSPost2010PropOp39
 70
     1
102
RTVSPost2010Prop40
 90
        0
102
RTVSPost2010PropOp40
 70
     1
102
RTVSPost2010Prop41ColorIndex
 90
       18
102
RTVSPost2010Prop41ColorRGB
 90
        0
102
RTVSPost2010PropOp41
 70
     1
102
RTVSPost2010Prop42
 90
       50
102
RTVSPost2010PropOp42
 70
     1
102
RTVSPost2010Prop43
 90
        3
102
RTVSPost2010PropOp43
 70
     1
102
RTVSPost2010Prop44ColorIndex
 90
        5
102
RTVSPost2010Prop44ColorRGB
 90
      255
102
RTVSPost2010PropOp44
 70
     1
102
RTVSPost2010Prop45
280
     0
102
RTVSPost2010PropOp45
 70
     1
102
RTVSPost2010Prop46
 90
       50
102
RTVSPost2010PropOp46
 70
     1
102
RTVSPost2010Prop47
 90
       50
102
RTVSPost2010PropOp47
 70
     1
102
RTVSPost2010Prop48
 90
       50
102
RTVSPost2010PropOp48
 70
     1
102
RTVSPost2010Prop49
280
     0
102
RTVSPost2010PropOp49
 70
     1
102
RTVSPost2010Prop50
 90
       50
102
RTVSPost2010PropOp50
 70
     1
102
RTVSPost2010Prop51ColorIndex
 90
      256
102
RTVSPost2010Prop51ColorRGB
 90
-16777216
102
RTVSPost2010PropOp51
 70
     0
102
RTVSPost2010Prop52
140
1.0
102
RTVSPost2010PropOp52
 70
     0
102
RTVSPost2010Prop53
 90
        2
102
RTVSPost2010PropOp53
 70
     1
102
RTVSPost2010Prop54
  1
strokes_ogs.tif
102
RTVSPost2010PropOp54
 70
     1
102
RTVSPost2010Prop55
280
     0
102
RTVSPost2010PropOp55
 70
     1
102
RTVSPost2010Prop56
140
1.0
102
RTVSPost2010PropOp56
 70
     1
102
RTVSPost2010Prop57
140
1.0
102
RTVSPost2010PropOp57
 70
     1
  0
XRECORD
  5
553
102
{ACAD_REACTORS
330
552
102
}
330
552
100
AcDbXrecord
280
     1
102
RTVSPropertyOp0
 70
     1
102
RTVSPropertyOp1
 70
     1
102
RTVSPropertyOp2
 70
     1
102
RTVSPropertyOp3
 70
     1
102
RTVSPropertyOp4
 70
     1
102
RTVSPropertyOp5
 70
     1
102
RTVSPropertyOp6
 70
     1
102
RTVSPropertyOp7
 70
     1
102
RTVSPropertyOp8
 70
     1
102
RTVSPropertyOp9
 70
     1
102
RTVSPropertyOp10
 70
     1
102
RTVSPropertyOp11
 70
     1
102
RTVSPropertyOp12
 70
     1
102
RTVSPropertyOp13
 70
     1
102
RTVSPropertyOp14
 70
     1
102
RTVSPropertyOp15
 70
     1
102
RTVSPropertyOp16
 70
     1
102
RTVSPropertyOp17
 70
     1
102
RTVSPropertyOp18
 70
     1
102
RTVSPropertyOp19
 70
     1
102
RTVSPropertyOp20
 70
     1
102
RTVSPropertyOp21
 70
     1
102
RTVSPropertyOp22
 70
     1
102
RTVSPropertyOp23
 70
     1
102
RTVSPropertyOp24
 70
     1
102
RTVSPropertyOp25
 70
     1
102
RTVSPropertyOp26
 70
     1
102
RTVSPropertyOp27
 70
     1
102
RTVSPropertyOp28
 70
     1
102
RTVSPropertyOp29
 70
     1
102
RTVSPropertyOp30
 70
     1
102
RTVSPropertyOp31
 70
     1
102
RTVSPropertyOp32
 70
     1
102
RTVSPropertyOp33
 70
     1
102
RTVSPropertyOp34
 70
     1
102
RTVSPropertyOp35
 70
     1
102
RTVSPropertyOp36
 70
     1
102
RTVSPropertyOp37
 70
     1
102
RTVSPropertyOp38
 70
     1
102
RTVSPropertyOp39
 70
     1
102
RTVSPropertyOp40
 70
     1
102
RTVSPropertyOp41
 70
     1
102
RTVSPropertyOp42
 70
     1
102
RTVSPropertyOp43
 70
     1
102
RTVSPropertyOp44
 70
     1
102
RTVSPropertyOp45
 70
     1
102
RTVSPropertyOp46
 70
     1
102
RTVSPropertyOp47
 70
     1
102
RTVSPropertyOp48
 70
     1
102
RTVSPropertyOp49
 70
     1
102
RTVSPropertyOp50
 70
     1
102
RTVSPropertyOp51
 70
     0
102
RTVSPropertyOp52
 70
     0
102
RTVSPropertyOp53
 70
     1
102
RTVSPropertyOp54
 70
     1
102
RTVSPropertyOp55
 70
     1
102
RTVSPropertyOp56
 70
     1
102
RTVSPropertyOp57
 70
     1
102
RTVSPost2010Prop28
280
     0
102
RTVSPost2010PropOp28
 70
     1
102
RTVSPost2010Prop29
280
     1
102
RTVSPost2010PropOp29
 70
     1
102
RTVSPost2010Prop30
280
     1
102
RTVSPost2010PropOp30
 70
     1
102
RTVSPost2010Prop31
280
     0
102
RTVSPost2010PropOp31
 70
     1
102
RTVSPost2010Prop32
280
     0
102
RTVSPost2010PropOp32
 70
     1
102
RTVSPost2010Prop33
280
     0
102
RTVSPost2010PropOp33
 70
     1
102
RTVSPost2010Prop34
280
     0
102
RTVSPost2010PropOp34
 70
     1
102
RTVSPost2010Prop35
280
     0
102
RTVSPost2010PropOp35
 70
     1
102
RTVSPost2010Prop36
280
     0
102
RTVSPost2010PropOp36
 70
     1
102
RTVSPost2010Prop37
 90
       50
102
RTVSPost2010PropOp37
 70
     1
102
RTVSPost2010Prop38
140
0.0
102
RTVSPost2010PropOp38
 70
     1
102
RTVSPost2010Prop39
140
1.0
102
RTVSPost2010PropOp39
 70
     1
102
RTVSPost2010Prop40
 90
        0
102
RTVSPost2010PropOp40
 70
     1
102
RTVSPost2010Prop41ColorIndex
 90
       18
102
RTVSPost2010Prop41ColorRGB
 90
        0
102
RTVSPost2010PropOp41
 70
     1
102
RTVSPost2010Prop42
 90
       50
102
RTVSPost2010PropOp42
 70
     1
102
RTVSPost2010Prop43
 90
        3
102
RTVSPost2010PropOp43
 70
     1
102
RTVSPost2010Prop44ColorIndex
 90
        5
102
RTVSPost2010Prop44ColorRGB
 90
      255
102
RTVSPost2010PropOp44
 70
     1
102
RTVSPost2010Prop45
280
     0
102
RTVSPost2010PropOp45
 70
     1
102
RTVSPost2010Prop46
 90
       50
102
RTVSPost2010PropOp46
 70
     1
102
RTVSPost2010Prop47
 90
       50
102
RTVSPost2010PropOp47
 70
     1
102
RTVSPost2010Prop48
 90
       50
102
RTVSPost2010PropOp48
 70
     1
102
RTVSPost2010Prop49
280
     0
102
RTVSPost2010PropOp49
 70
     1
102
RTVSPost2010Prop50
 90
       50
102
RTVSPost2010PropOp50
 70
     1
102
RTVSPost2010Prop51ColorIndex
 90
      256
102
RTVSPost2010Prop51ColorRGB
 90
-16777216
102
RTVSPost2010PropOp51
 70
     0
102
RTVSPost2010Prop52
140
1.0
102
RTVSPost2010PropOp52
 70
     0
102
RTVSPost2010Prop53
 90
        2
102
RTVSPost2010PropOp53
 70
     1
102
RTVSPost2010Prop54
  1
strokes_ogs.tif
102
RTVSPost2010PropOp54
 70
     1
102
RTVSPost2010Prop55
280
     0
102
RTVSPost2010PropOp55
 70
     1
102
RTVSPost2010Prop56
140
1.0
102
RTVSPost2010PropOp56
 70
     1
102
RTVSPost2010Prop57
140
1.0
102
RTVSPost2010PropOp57
 70
     1
  0
XRECORD
  5
537
102
{ACAD_REACTORS
330
536
102
}
330
536
100
AcDbXrecord
280
     1
102
RTVSPropertyOp0
 70
     1
102
RTVSPropertyOp1
 70
     1
102
RTVSPropertyOp2
 70
     1
102
RTVSPropertyOp3
 70
     1
102
RTVSPropertyOp4
 70
     1
102
RTVSPropertyOp5
 70
     1
102
RTVSPropertyOp6
 70
     1
102
RTVSPropertyOp7
 70
     1
102
RTVSPropertyOp8
 70
     1
102
RTVSPropertyOp9
 70
     1
102
RTVSPropertyOp10
 70
     1
102
RTVSPropertyOp11
 70
     1
102
RTVSPropertyOp12
 70
     1
102
RTVSPropertyOp13
 70
     1
102
RTVSPropertyOp14
 70
     1
102
RTVSPropertyOp15
 70
     1
102
RTVSPropertyOp16
 70
     1
102
RTVSPropertyOp17
 70
     1
102
RTVSPropertyOp18
 70
     1
102
RTVSPropertyOp19
 70
     1
102
RTVSPropertyOp20
 70
     1
102
RTVSPropertyOp21
 70
     1
102
RTVSPropertyOp22
 70
     1
102
RTVSPropertyOp23
 70
     1
102
RTVSPropertyOp24
 70
     1
102
RTVSPropertyOp25
 70
     1
102
RTVSPropertyOp26
 70
     1
102
RTVSPropertyOp27
 70
     1
102
RTVSPropertyOp28
 70
     1
102
RTVSPropertyOp29
 70
     1
102
RTVSPropertyOp30
 70
     1
102
RTVSPropertyOp31
 70
     1
102
RTVSPropertyOp32
 70
     1
102
RTVSPropertyOp33
 70
     1
102
RTVSPropertyOp34
 70
     1
102
RTVSPropertyOp35
 70
     1
102
RTVSPropertyOp36
 70
     1
102
RTVSPropertyOp37
 70
     1
102
RTVSPropertyOp38
 70
     1
102
RTVSPropertyOp39
 70
     1
102
RTVSPropertyOp40
 70
     1
102
RTVSPropertyOp41
 70
     1
102
RTVSPropertyOp42
 70
     1
102
RTVSPropertyOp43
 70
     1
102
RTVSPropertyOp44
 70
     1
102
RTVSPropertyOp45
 70
     1
102
RTVSPropertyOp46
 70
     1
102
RTVSPropertyOp47
 70
     1
102
RTVSPropertyOp48
 70
     1
102
RTVSPropertyOp49
 70
     1
102
RTVSPropertyOp50
 70
     1
102
RTVSPropertyOp51
 70
     0
102
RTVSPropertyOp52
 70
     0
102
RTVSPropertyOp53
 70
     1
102
RTVSPropertyOp54
 70
     1
102
RTVSPropertyOp55
 70
     1
102
RTVSPropertyOp56
 70
     1
102
RTVSPropertyOp57
 70
     1
102
RTVSPost2010Prop28
280
     0
102
RTVSPost2010PropOp28
 70
     1
102
RTVSPost2010Prop29
280
     1
102
RTVSPost2010PropOp29
 70
     1
102
RTVSPost2010Prop30
280
     1
102
RTVSPost2010PropOp30
 70
     1
102
RTVSPost2010Prop31
280
     0
102
RTVSPost2010PropOp31
 70
     1
102
RTVSPost2010Prop32
280
     0
102
RTVSPost2010PropOp32
 70
     1
102
RTVSPost2010Prop33
280
     0
102
RTVSPost2010PropOp33
 70
     1
102
RTVSPost2010Prop34
280
     0
102
RTVSPost2010PropOp34
 70
     1
102
RTVSPost2010Prop35
280
     0
102
RTVSPost2010PropOp35
 70
     1
102
RTVSPost2010Prop36
280
     0
102
RTVSPost2010PropOp36
 70
     1
102
RTVSPost2010Prop37
 90
       50
102
RTVSPost2010PropOp37
 70
     1
102
RTVSPost2010Prop38
140
0.0
102
RTVSPost2010PropOp38
 70
     1
102
RTVSPost2010Prop39
140
1.0
102
RTVSPost2010PropOp39
 70
     1
102
RTVSPost2010Prop40
 90
        0
102
RTVSPost2010PropOp40
 70
     1
102
RTVSPost2010Prop41ColorIndex
 90
       18
102
RTVSPost2010Prop41ColorRGB
 90
        0
102
RTVSPost2010PropOp41
 70
     1
102
RTVSPost2010Prop42
 90
       50
102
RTVSPost2010PropOp42
 70
     1
102
RTVSPost2010Prop43
 90
        3
102
RTVSPost2010PropOp43
 70
     1
102
RTVSPost2010Prop44ColorIndex
 90
        5
102
RTVSPost2010Prop44ColorRGB
 90
      255
102
RTVSPost2010PropOp44
 70
     1
102
RTVSPost2010Prop45
280
     0
102
RTVSPost2010PropOp45
 70
     1
102
RTVSPost2010Prop46
 90
       50
102
RTVSPost2010PropOp46
 70
     1
102
RTVSPost2010Prop47
 90
       50
102
RTVSPost2010PropOp47
 70
     1
102
RTVSPost2010Prop48
 90
       50
102
RTVSPost2010PropOp48
 70
     1
102
RTVSPost2010Prop49
280
     0
102
RTVSPost2010PropOp49
 70
     1
102
RTVSPost2010Prop50
 90
       50
102
RTVSPost2010PropOp50
 70
     1
102
RTVSPost2010Prop51ColorIndex
 90
      256
102
RTVSPost2010Prop51ColorRGB
 90
-16777216
102
RTVSPost2010PropOp51
 70
     0
102
RTVSPost2010Prop52
140
1.0
102
RTVSPost2010PropOp52
 70
     0
102
RTVSPost2010Prop53
 90
        2
102
RTVSPost2010PropOp53
 70
     1
102
RTVSPost2010Prop54
  1
strokes_ogs.tif
102
RTVSPost2010PropOp54
 70
     1
102
RTVSPost2010Prop55
280
     0
102
RTVSPost2010PropOp55
 70
     1
102
RTVSPost2010Prop56
140
1.0
102
RTVSPost2010PropOp56
 70
     1
102
RTVSPost2010Prop57
140
1.0
102
RTVSPost2010PropOp57
 70
     1
  0
XRECORD
  5
539
102
{ACAD_REACTORS
330
538
102
}
330
538
100
AcDbXrecord
280
     1
102
RTVSPropertyOp0
 70
     1
102
RTVSPropertyOp1
 70
     1
102
RTVSPropertyOp2
 70
     1
102
RTVSPropertyOp3
 70
     1
102
RTVSPropertyOp4
 70
     1
102
RTVSPropertyOp5
 70
     1
102
RTVSPropertyOp6
 70
     1
102
RTVSPropertyOp7
 70
     1
102
RTVSPropertyOp8
 70
     1
102
RTVSPropertyOp9
 70
     1
102
RTVSPropertyOp10
 70
     1
102
RTVSPropertyOp11
 70
     1
102
RTVSPropertyOp12
 70
     1
102
RTVSPropertyOp13
 70
     1
102
RTVSPropertyOp14
 70
     1
102
RTVSPropertyOp15
 70
     1
102
RTVSPropertyOp16
 70
     1
102
RTVSPropertyOp17
 70
     1
102
RTVSPropertyOp18
 70
     1
102
RTVSPropertyOp19
 70
     1
102
RTVSPropertyOp20
 70
     1
102
RTVSPropertyOp21
 70
     1
102
RTVSPropertyOp22
 70
     1
102
RTVSPropertyOp23
 70
     1
102
RTVSPropertyOp24
 70
     1
102
RTVSPropertyOp25
 70
     1
102
RTVSPropertyOp26
 70
     1
102
RTVSPropertyOp27
 70
     1
102
RTVSPropertyOp28
 70
     1
102
RTVSPropertyOp29
 70
     1
102
RTVSPropertyOp30
 70
     1
102
RTVSPropertyOp31
 70
     1
102
RTVSPropertyOp32
 70
     1
102
RTVSPropertyOp33
 70
     1
102
RTVSPropertyOp34
 70
     1
102
RTVSPropertyOp35
 70
     1
102
RTVSPropertyOp36
 70
     1
102
RTVSPropertyOp37
 70
     1
102
RTVSPropertyOp38
 70
     1
102
RTVSPropertyOp39
 70
     1
102
RTVSPropertyOp40
 70
     1
102
RTVSPropertyOp41
 70
     1
102
RTVSPropertyOp42
 70
     1
102
RTVSPropertyOp43
 70
     1
102
RTVSPropertyOp44
 70
     1
102
RTVSPropertyOp45
 70
     1
102
RTVSPropertyOp46
 70
     1
102
RTVSPropertyOp47
 70
     1
102
RTVSPropertyOp48
 70
     1
102
RTVSPropertyOp49
 70
     1
102
RTVSPropertyOp50
 70
     1
102
RTVSPropertyOp51
 70
     0
102
RTVSPropertyOp52
 70
     0
102
RTVSPropertyOp53
 70
     1
102
RTVSPropertyOp54
 70
     1
102
RTVSPropertyOp55
 70
     1
102
RTVSPropertyOp56
 70
     1
102
RTVSPropertyOp57
 70
     1
102
RTVSPost2010Prop28
280
     0
102
RTVSPost2010PropOp28
 70
     1
102
RTVSPost2010Prop29
280
     1
102
RTVSPost2010PropOp29
 70
     1
102
RTVSPost2010Prop30
280
     1
102
RTVSPost2010PropOp30
 70
     1
102
RTVSPost2010Prop31
280
     0
102
RTVSPost2010PropOp31
 70
     1
102
RTVSPost2010Prop32
280
     0
102
RTVSPost2010PropOp32
 70
     1
102
RTVSPost2010Prop33
280
     0
102
RTVSPost2010PropOp33
 70
     1
102
RTVSPost2010Prop34
280
     0
102
RTVSPost2010PropOp34
 70
     1
102
RTVSPost2010Prop35
280
     0
102
RTVSPost2010PropOp35
 70
     1
102
RTVSPost2010Prop36
280
     0
102
RTVSPost2010PropOp36
 70
     1
102
RTVSPost2010Prop37
 90
       50
102
RTVSPost2010PropOp37
 70
     1
102
RTVSPost2010Prop38
140
0.0
102
RTVSPost2010PropOp38
 70
     1
102
RTVSPost2010Prop39
140
1.0
102
RTVSPost2010PropOp39
 70
     1
102
RTVSPost2010Prop40
 90
        0
102
RTVSPost2010PropOp40
 70
     1
102
RTVSPost2010Prop41ColorIndex
 90
       18
102
RTVSPost2010Prop41ColorRGB
 90
        0
102
RTVSPost2010PropOp41
 70
     1
102
RTVSPost2010Prop42
 90
       50
102
RTVSPost2010PropOp42
 70
     1
102
RTVSPost2010Prop43
 90
        3
102
RTVSPost2010PropOp43
 70
     1
102
RTVSPost2010Prop44ColorIndex
 90
        5
102
RTVSPost2010Prop44ColorRGB
 90
      255
102
RTVSPost2010PropOp44
 70
     1
102
RTVSPost2010Prop45
280
     0
102
RTVSPost2010PropOp45
 70
     1
102
RTVSPost2010Prop46
 90
       50
102
RTVSPost2010PropOp46
 70
     1
102
RTVSPost2010Prop47
 90
       50
102
RTVSPost2010PropOp47
 70
     1
102
RTVSPost2010Prop48
 90
       50
102
RTVSPost2010PropOp48
 70
     1
102
RTVSPost2010Prop49
280
     0
102
RTVSPost2010PropOp49
 70
     1
102
RTVSPost2010Prop50
 90
       50
102
RTVSPost2010PropOp50
 70
     1
102
RTVSPost2010Prop51ColorIndex
 90
      256
102
RTVSPost2010Prop51ColorRGB
 90
-16777216
102
RTVSPost2010PropOp51
 70
     0
102
RTVSPost2010Prop52
140
1.0
102
RTVSPost2010PropOp52
 70
     0
102
RTVSPost2010Prop53
 90
        2
102
RTVSPost2010PropOp53
 70
     1
102
RTVSPost2010Prop54
  1
strokes_ogs.tif
102
RTVSPost2010PropOp54
 70
     1
102
RTVSPost2010Prop55
280
     0
102
RTVSPost2010PropOp55
 70
     1
102
RTVSPost2010Prop56
140
1.0
102
RTVSPost2010PropOp56
 70
     1
102
RTVSPost2010Prop57
140
1.0
102
RTVSPost2010PropOp57
 70
     1
  0
XRECORD
  5
53B
102
{ACAD_REACTORS
330
53A
102
}
330
53A
100
AcDbXrecord
280
     1
102
RTVSPropertyOp0
 70
     1
102
RTVSPropertyOp1
 70
     1
102
RTVSPropertyOp2
 70
     1
102
RTVSPropertyOp3
 70
     1
102
RTVSPropertyOp4
 70
     1
102
RTVSPropertyOp5
 70
     1
102
RTVSPropertyOp6
 70
     1
102
RTVSPropertyOp7
 70
     1
102
RTVSPropertyOp8
 70
     1
102
RTVSPropertyOp9
 70
     1
102
RTVSPropertyOp10
 70
     1
102
RTVSPropertyOp11
 70
     1
102
RTVSPropertyOp12
 70
     1
102
RTVSPropertyOp13
 70
     1
102
RTVSPropertyOp14
 70
     1
102
RTVSPropertyOp15
 70
     1
102
RTVSPropertyOp16
 70
     1
102
RTVSPropertyOp17
 70
     1
102
RTVSPropertyOp18
 70
     1
102
RTVSPropertyOp19
 70
     1
102
RTVSPropertyOp20
 70
     1
102
RTVSPropertyOp21
 70
     1
102
RTVSPropertyOp22
 70
     1
102
RTVSPropertyOp23
 70
     1
102
RTVSPropertyOp24
 70
     1
102
RTVSPropertyOp25
 70
     1
102
RTVSPropertyOp26
 70
     1
102
RTVSPropertyOp27
 70
     1
102
RTVSPropertyOp28
 70
     1
102
RTVSPropertyOp29
 70
     1
102
RTVSPropertyOp30
 70
     1
102
RTVSPropertyOp31
 70
     1
102
RTVSPropertyOp32
 70
     1
102
RTVSPropertyOp33
 70
     1
102
RTVSPropertyOp34
 70
     1
102
RTVSPropertyOp35
 70
     1
102
RTVSPropertyOp36
 70
     1
102
RTVSPropertyOp37
 70
     1
102
RTVSPropertyOp38
 70
     1
102
RTVSPropertyOp39
 70
     1
102
RTVSPropertyOp40
 70
     1
102
RTVSPropertyOp41
 70
     1
102
RTVSPropertyOp42
 70
     1
102
RTVSPropertyOp43
 70
     1
102
RTVSPropertyOp44
 70
     1
102
RTVSPropertyOp45
 70
     1
102
RTVSPropertyOp46
 70
     1
102
RTVSPropertyOp47
 70
     1
102
RTVSPropertyOp48
 70
     1
102
RTVSPropertyOp49
 70
     1
102
RTVSPropertyOp50
 70
     1
102
RTVSPropertyOp51
 70
     0
102
RTVSPropertyOp52
 70
     0
102
RTVSPropertyOp53
 70
     1
102
RTVSPropertyOp54
 70
     1
102
RTVSPropertyOp55
 70
     1
102
RTVSPropertyOp56
 70
     1
102
RTVSPropertyOp57
 70
     1
102
RTVSPost2010Prop28
280
     0
102
RTVSPost2010PropOp28
 70
     1
102
RTVSPost2010Prop29
280
     1
102
RTVSPost2010PropOp29
 70
     1
102
RTVSPost2010Prop30
280
     1
102
RTVSPost2010PropOp30
 70
     1
102
RTVSPost2010Prop31
280
     0
102
RTVSPost2010PropOp31
 70
     1
102
RTVSPost2010Prop32
280
     0
102
RTVSPost2010PropOp32
 70
     1
102
RTVSPost2010Prop33
280
     0
102
RTVSPost2010PropOp33
 70
     1
102
RTVSPost2010Prop34
280
     0
102
RTVSPost2010PropOp34
 70
     1
102
RTVSPost2010Prop35
280
     0
102
RTVSPost2010PropOp35
 70
     1
102
RTVSPost2010Prop36
280
     0
102
RTVSPost2010PropOp36
 70
     1
102
RTVSPost2010Prop37
 90
       50
102
RTVSPost2010PropOp37
 70
     1
102
RTVSPost2010Prop38
140
0.0
102
RTVSPost2010PropOp38
 70
     1
102
RTVSPost2010Prop39
140
1.0
102
RTVSPost2010PropOp39
 70
     1
102
RTVSPost2010Prop40
 90
        0
102
RTVSPost2010PropOp40
 70
     1
102
RTVSPost2010Prop41ColorIndex
 90
       18
102
RTVSPost2010Prop41ColorRGB
 90
        0
102
RTVSPost2010PropOp41
 70
     1
102
RTVSPost2010Prop42
 90
       50
102
RTVSPost2010PropOp42
 70
     1
102
RTVSPost2010Prop43
 90
        3
102
RTVSPost2010PropOp43
 70
     1
102
RTVSPost2010Prop44ColorIndex
 90
        5
102
RTVSPost2010Prop44ColorRGB
 90
      255
102
RTVSPost2010PropOp44
 70
     1
102
RTVSPost2010Prop45
280
     0
102
RTVSPost2010PropOp45
 70
     1
102
RTVSPost2010Prop46
 90
       50
102
RTVSPost2010PropOp46
 70
     1
102
RTVSPost2010Prop47
 90
       50
102
RTVSPost2010PropOp47
 70
     1
102
RTVSPost2010Prop48
 90
       50
102
RTVSPost2010PropOp48
 70
     1
102
RTVSPost2010Prop49
280
     0
102
RTVSPost2010PropOp49
 70
     1
102
RTVSPost2010Prop50
 90
       50
102
RTVSPost2010PropOp50
 70
     1
102
RTVSPost2010Prop51ColorIndex
 90
      256
102
RTVSPost2010Prop51ColorRGB
 90
-16777216
102
RTVSPost2010PropOp51
 70
     0
102
RTVSPost2010Prop52
140
1.0
102
RTVSPost2010PropOp52
 70
     0
102
RTVSPost2010Prop53
 90
        2
102
RTVSPost2010PropOp53
 70
     1
102
RTVSPost2010Prop54
  1
strokes_ogs.tif
102
RTVSPost2010PropOp54
 70
     1
102
RTVSPost2010Prop55
280
     0
102
RTVSPost2010PropOp55
 70
     1
102
RTVSPost2010Prop56
140
1.0
102
RTVSPost2010PropOp56
 70
     1
102
RTVSPost2010Prop57
140
1.0
102
RTVSPost2010PropOp57
 70
     1
  0
XRECORD
  5
53D
102
{ACAD_REACTORS
330
53C
102
}
330
53C
100
AcDbXrecord
280
     1
102
RTVSPropertyOp0
 70
     1
102
RTVSPropertyOp1
 70
     1
102
RTVSPropertyOp2
 70
     1
102
RTVSPropertyOp3
 70
     1
102
RTVSPropertyOp4
 70
     1
102
RTVSPropertyOp5
 70
     1
102
RTVSPropertyOp6
 70
     1
102
RTVSPropertyOp7
 70
     1
102
RTVSPropertyOp8
 70
     1
102
RTVSPropertyOp9
 70
     1
102
RTVSPropertyOp10
 70
     1
102
RTVSPropertyOp11
 70
     1
102
RTVSPropertyOp12
 70
     1
102
RTVSPropertyOp13
 70
     1
102
RTVSPropertyOp14
 70
     1
102
RTVSPropertyOp15
 70
     1
102
RTVSPropertyOp16
 70
     1
102
RTVSPropertyOp17
 70
     1
102
RTVSPropertyOp18
 70
     1
102
RTVSPropertyOp19
 70
     1
102
RTVSPropertyOp20
 70
     1
102
RTVSPropertyOp21
 70
     1
102
RTVSPropertyOp22
 70
     1
102
RTVSPropertyOp23
 70
     1
102
RTVSPropertyOp24
 70
     1
102
RTVSPropertyOp25
 70
     1
102
RTVSPropertyOp26
 70
     1
102
RTVSPropertyOp27
 70
     1
102
RTVSPropertyOp28
 70
     1
102
RTVSPropertyOp29
 70
     1
102
RTVSPropertyOp30
 70
     1
102
RTVSPropertyOp31
 70
     1
102
RTVSPropertyOp32
 70
     1
102
RTVSPropertyOp33
 70
     1
102
RTVSPropertyOp34
 70
     1
102
RTVSPropertyOp35
 70
     1
102
RTVSPropertyOp36
 70
     1
102
RTVSPropertyOp37
 70
     1
102
RTVSPropertyOp38
 70
     1
102
RTVSPropertyOp39
 70
     1
102
RTVSPropertyOp40
 70
     1
102
RTVSPropertyOp41
 70
     1
102
RTVSPropertyOp42
 70
     1
102
RTVSPropertyOp43
 70
     1
102
RTVSPropertyOp44
 70
     1
102
RTVSPropertyOp45
 70
     1
102
RTVSPropertyOp46
 70
     1
102
RTVSPropertyOp47
 70
     1
102
RTVSPropertyOp48
 70
     1
102
RTVSPropertyOp49
 70
     1
102
RTVSPropertyOp50
 70
     1
102
RTVSPropertyOp51
 70
     0
102
RTVSPropertyOp52
 70
     0
102
RTVSPropertyOp53
 70
     1
102
RTVSPropertyOp54
 70
     1
102
RTVSPropertyOp55
 70
     1
102
RTVSPropertyOp56
 70
     1
102
RTVSPropertyOp57
 70
     1
102
RTVSPost2010Prop28
280
     0
102
RTVSPost2010PropOp28
 70
     1
102
RTVSPost2010Prop29
280
     1
102
RTVSPost2010PropOp29
 70
     1
102
RTVSPost2010Prop30
280
     1
102
RTVSPost2010PropOp30
 70
     1
102
RTVSPost2010Prop31
280
     0
102
RTVSPost2010PropOp31
 70
     1
102
RTVSPost2010Prop32
280
     0
102
RTVSPost2010PropOp32
 70
     1
102
RTVSPost2010Prop33
280
     0
102
RTVSPost2010PropOp33
 70
     1
102
RTVSPost2010Prop34
280
     0
102
RTVSPost2010PropOp34
 70
     1
102
RTVSPost2010Prop35
280
     0
102
RTVSPost2010PropOp35
 70
     1
102
RTVSPost2010Prop36
280
     0
102
RTVSPost2010PropOp36
 70
     1
102
RTVSPost2010Prop37
 90
       50
102
RTVSPost2010PropOp37
 70
     1
102
RTVSPost2010Prop38
140
0.0
102
RTVSPost2010PropOp38
 70
     1
102
RTVSPost2010Prop39
140
1.0
102
RTVSPost2010PropOp39
 70
     1
102
RTVSPost2010Prop40
 90
        0
102
RTVSPost2010PropOp40
 70
     1
102
RTVSPost2010Prop41ColorIndex
 90
       18
102
RTVSPost2010Prop41ColorRGB
 90
        0
102
RTVSPost2010PropOp41
 70
     1
102
RTVSPost2010Prop42
 90
       50
102
RTVSPost2010PropOp42
 70
     1
102
RTVSPost2010Prop43
 90
        3
102
RTVSPost2010PropOp43
 70
     1
102
RTVSPost2010Prop44ColorIndex
 90
        5
102
RTVSPost2010Prop44ColorRGB
 90
      255
102
RTVSPost2010PropOp44
 70
     1
102
RTVSPost2010Prop45
280
     0
102
RTVSPost2010PropOp45
 70
     1
102
RTVSPost2010Prop46
 90
       50
102
RTVSPost2010PropOp46
 70
     1
102
RTVSPost2010Prop47
 90
       50
102
RTVSPost2010PropOp47
 70
     1
102
RTVSPost2010Prop48
 90
       50
102
RTVSPost2010PropOp48
 70
     1
102
RTVSPost2010Prop49
280
     0
102
RTVSPost2010PropOp49
 70
     1
102
RTVSPost2010Prop50
 90
       50
102
RTVSPost2010PropOp50
 70
     1
102
RTVSPost2010Prop51ColorIndex
 90
      256
102
RTVSPost2010Prop51ColorRGB
 90
-16777216
102
RTVSPost2010PropOp51
 70
     0
102
RTVSPost2010Prop52
140
1.0
102
RTVSPost2010PropOp52
 70
     0
102
RTVSPost2010Prop53
 90
        2
102
RTVSPost2010PropOp53
 70
     1
102
RTVSPost2010Prop54
  1
strokes_ogs.tif
102
RTVSPost2010PropOp54
 70
     1
102
RTVSPost2010Prop55
280
     0
102
RTVSPost2010PropOp55
 70
     1
102
RTVSPost2010Prop56
140
1.0
102
RTVSPost2010PropOp56
 70
     1
102
RTVSPost2010Prop57
140
1.0
102
RTVSPost2010PropOp57
 70
     1
  0
XRECORD
  5
551
102
{ACAD_REACTORS
330
550
102
}
330
550
100
AcDbXrecord
280
     1
102
RTVSPropertyOp0
 70
     1
102
RTVSPropertyOp1
 70
     1
102
RTVSPropertyOp2
 70
     1
102
RTVSPropertyOp3
 70
     1
102
RTVSPropertyOp4
 70
     1
102
RTVSPropertyOp5
 70
     1
102
RTVSPropertyOp6
 70
     1
102
RTVSPropertyOp7
 70
     1
102
RTVSPropertyOp8
 70
     1
102
RTVSPropertyOp9
 70
     1
102
RTVSPropertyOp10
 70
     1
102
RTVSPropertyOp11
 70
     1
102
RTVSPropertyOp12
 70
     1
102
RTVSPropertyOp13
 70
     1
102
RTVSPropertyOp14
 70
     1
102
RTVSPropertyOp15
 70
     1
102
RTVSPropertyOp16
 70
     1
102
RTVSPropertyOp17
 70
     1
102
RTVSPropertyOp18
 70
     1
102
RTVSPropertyOp19
 70
     1
102
RTVSPropertyOp20
 70
     1
102
RTVSPropertyOp21
 70
     1
102
RTVSPropertyOp22
 70
     1
102
RTVSPropertyOp23
 70
     1
102
RTVSPropertyOp24
 70
     1
102
RTVSPropertyOp25
 70
     1
102
RTVSPropertyOp26
 70
     1
102
RTVSPropertyOp27
 70
     1
102
RTVSPropertyOp28
 70
     1
102
RTVSPropertyOp29
 70
     1
102
RTVSPropertyOp30
 70
     1
102
RTVSPropertyOp31
 70
     1
102
RTVSPropertyOp32
 70
     1
102
RTVSPropertyOp33
 70
     1
102
RTVSPropertyOp34
 70
     1
102
RTVSPropertyOp35
 70
     1
102
RTVSPropertyOp36
 70
     1
102
RTVSPropertyOp37
 70
     1
102
RTVSPropertyOp38
 70
     1
102
RTVSPropertyOp39
 70
     1
102
RTVSPropertyOp40
 70
     1
102
RTVSPropertyOp41
 70
     1
102
RTVSPropertyOp42
 70
     1
102
RTVSPropertyOp43
 70
     1
102
RTVSPropertyOp44
 70
     1
102
RTVSPropertyOp45
 70
     1
102
RTVSPropertyOp46
 70
     1
102
RTVSPropertyOp47
 70
     1
102
RTVSPropertyOp48
 70
     1
102
RTVSPropertyOp49
 70
     1
102
RTVSPropertyOp50
 70
     1
102
RTVSPropertyOp51
 70
     0
102
RTVSPropertyOp52
 70
     0
102
RTVSPropertyOp53
 70
     1
102
RTVSPropertyOp54
 70
     1
102
RTVSPropertyOp55
 70
     1
102
RTVSPropertyOp56
 70
     1
102
RTVSPropertyOp57
 70
     1
102
RTVSPost2010Prop28
280
     0
102
RTVSPost2010PropOp28
 70
     1
102
RTVSPost2010Prop29
280
     1
102
RTVSPost2010PropOp29
 70
     1
102
RTVSPost2010Prop30
280
     1
102
RTVSPost2010PropOp30
 70
     1
102
RTVSPost2010Prop31
280
     0
102
RTVSPost2010PropOp31
 70
     1
102
RTVSPost2010Prop32
280
     0
102
RTVSPost2010PropOp32
 70
     1
102
RTVSPost2010Prop33
280
     0
102
RTVSPost2010PropOp33
 70
     1
102
RTVSPost2010Prop34
280
     0
102
RTVSPost2010PropOp34
 70
     1
102
RTVSPost2010Prop35
280
     0
102
RTVSPost2010PropOp35
 70
     1
102
RTVSPost2010Prop36
280
     0
102
RTVSPost2010PropOp36
 70
     1
102
RTVSPost2010Prop37
 90
       50
102
RTVSPost2010PropOp37
 70
     1
102
RTVSPost2010Prop38
140
0.0
102
RTVSPost2010PropOp38
 70
     1
102
RTVSPost2010Prop39
140
1.0
102
RTVSPost2010PropOp39
 70
     1
102
RTVSPost2010Prop40
 90
        0
102
RTVSPost2010PropOp40
 70
     1
102
RTVSPost2010Prop41ColorIndex
 90
       18
102
RTVSPost2010Prop41ColorRGB
 90
        0
102
RTVSPost2010PropOp41
 70
     1
102
RTVSPost2010Prop42
 90
       50
102
RTVSPost2010PropOp42
 70
     1
102
RTVSPost2010Prop43
 90
        3
102
RTVSPost2010PropOp43
 70
     1
102
RTVSPost2010Prop44ColorIndex
 90
        5
102
RTVSPost2010Prop44ColorRGB
 90
      255
102
RTVSPost2010PropOp44
 70
     1
102
RTVSPost2010Prop45
280
     0
102
RTVSPost2010PropOp45
 70
     1
102
RTVSPost2010Prop46
 90
       50
102
RTVSPost2010PropOp46
 70
     1
102
RTVSPost2010Prop47
 90
       50
102
RTVSPost2010PropOp47
 70
     1
102
RTVSPost2010Prop48
 90
       50
102
RTVSPost2010PropOp48
 70
     1
102
RTVSPost2010Prop49
280
     0
102
RTVSPost2010PropOp49
 70
     1
102
RTVSPost2010Prop50
 90
       50
102
RTVSPost2010PropOp50
 70
     1
102
RTVSPost2010Prop51ColorIndex
 90
      256
102
RTVSPost2010Prop51ColorRGB
 90
-16777216
102
RTVSPost2010PropOp51
 70
     0
102
RTVSPost2010Prop52
140
1.0
102
RTVSPost2010PropOp52
 70
     0
102
RTVSPost2010Prop53
 90
        2
102
RTVSPost2010PropOp53
 70
     1
102
RTVSPost2010Prop54
  1
strokes_ogs.tif
102
RTVSPost2010PropOp54
 70
     1
102
RTVSPost2010Prop55
280
     0
102
RTVSPost2010PropOp55
 70
     1
102
RTVSPost2010Prop56
140
1.0
102
RTVSPost2010PropOp56
 70
     1
102
RTVSPost2010Prop57
140
1.0
102
RTVSPost2010PropOp57
 70
     1
  0
XRECORD
  5
547
102
{ACAD_REACTORS
330
546
102
}
330
546
100
AcDbXrecord
280
     1
102
RTVSPropertyOp0
 70
     1
102
RTVSPropertyOp1
 70
     1
102
RTVSPropertyOp2
 70
     1
102
RTVSPropertyOp3
 70
     1
102
RTVSPropertyOp4
 70
     1
102
RTVSPropertyOp5
 70
     1
102
RTVSPropertyOp6
 70
     1
102
RTVSPropertyOp7
 70
     1
102
RTVSPropertyOp8
 70
     1
102
RTVSPropertyOp9
 70
     1
102
RTVSPropertyOp10
 70
     1
102
RTVSPropertyOp11
 70
     1
102
RTVSPropertyOp12
 70
     1
102
RTVSPropertyOp13
 70
     1
102
RTVSPropertyOp14
 70
     1
102
RTVSPropertyOp15
 70
     1
102
RTVSPropertyOp16
 70
     1
102
RTVSPropertyOp17
 70
     1
102
RTVSPropertyOp18
 70
     1
102
RTVSPropertyOp19
 70
     1
102
RTVSPropertyOp20
 70
     1
102
RTVSPropertyOp21
 70
     1
102
RTVSPropertyOp22
 70
     1
102
RTVSPropertyOp23
 70
     1
102
RTVSPropertyOp24
 70
     1
102
RTVSPropertyOp25
 70
     1
102
RTVSPropertyOp26
 70
     1
102
RTVSPropertyOp27
 70
     1
102
RTVSPropertyOp28
 70
     1
102
RTVSPropertyOp29
 70
     1
102
RTVSPropertyOp30
 70
     1
102
RTVSPropertyOp31
 70
     1
102
RTVSPropertyOp32
 70
     1
102
RTVSPropertyOp33
 70
     1
102
RTVSPropertyOp34
 70
     1
102
RTVSPropertyOp35
 70
     1
102
RTVSPropertyOp36
 70
     1
102
RTVSPropertyOp37
 70
     1
102
RTVSPropertyOp38
 70
     1
102
RTVSPropertyOp39
 70
     1
102
RTVSPropertyOp40
 70
     1
102
RTVSPropertyOp41
 70
     1
102
RTVSPropertyOp42
 70
     1
102
RTVSPropertyOp43
 70
     1
102
RTVSPropertyOp44
 70
     1
102
RTVSPropertyOp45
 70
     1
102
RTVSPropertyOp46
 70
     1
102
RTVSPropertyOp47
 70
     1
102
RTVSPropertyOp48
 70
     1
102
RTVSPropertyOp49
 70
     1
102
RTVSPropertyOp50
 70
     1
102
RTVSPropertyOp51
 70
     0
102
RTVSPropertyOp52
 70
     0
102
RTVSPropertyOp53
 70
     1
102
RTVSPropertyOp54
 70
     1
102
RTVSPropertyOp55
 70
     1
102
RTVSPropertyOp56
 70
     1
102
RTVSPropertyOp57
 70
     1
102
RTVSPost2010Prop28
280
     0
102
RTVSPost2010PropOp28
 70
     1
102
RTVSPost2010Prop29
280
     1
102
RTVSPost2010PropOp29
 70
     1
102
RTVSPost2010Prop30
280
     1
102
RTVSPost2010PropOp30
 70
     1
102
RTVSPost2010Prop31
280
     0
102
RTVSPost2010PropOp31
 70
     1
102
RTVSPost2010Prop32
280
     0
102
RTVSPost2010PropOp32
 70
     1
102
RTVSPost2010Prop33
280
     0
102
RTVSPost2010PropOp33
 70
     1
102
RTVSPost2010Prop34
280
     0
102
RTVSPost2010PropOp34
 70
     1
102
RTVSPost2010Prop35
280
     0
102
RTVSPost2010PropOp35
 70
     1
102
RTVSPost2010Prop36
280
     0
102
RTVSPost2010PropOp36
 70
     1
102
RTVSPost2010Prop37
 90
       50
102
RTVSPost2010PropOp37
 70
     1
102
RTVSPost2010Prop38
140
0.0
102
RTVSPost2010PropOp38
 70
     1
102
RTVSPost2010Prop39
140
1.0
102
RTVSPost2010PropOp39
 70
     1
102
RTVSPost2010Prop40
 90
        0
102
RTVSPost2010PropOp40
 70
     1
102
RTVSPost2010Prop41ColorIndex
 90
       18
102
RTVSPost2010Prop41ColorRGB
 90
        0
102
RTVSPost2010PropOp41
 70
     1
102
RTVSPost2010Prop42
 90
       50
102
RTVSPost2010PropOp42
 70
     1
102
RTVSPost2010Prop43
 90
        3
102
RTVSPost2010PropOp43
 70
     1
102
RTVSPost2010Prop44ColorIndex
 90
        5
102
RTVSPost2010Prop44ColorRGB
 90
      255
102
RTVSPost2010PropOp44
 70
     1
102
RTVSPost2010Prop45
280
     0
102
RTVSPost2010PropOp45
 70
     1
102
RTVSPost2010Prop46
 90
       50
102
RTVSPost2010PropOp46
 70
     1
102
RTVSPost2010Prop47
 90
       50
102
RTVSPost2010PropOp47
 70
     1
102
RTVSPost2010Prop48
 90
       50
102
RTVSPost2010PropOp48
 70
     1
102
RTVSPost2010Prop49
280
     0
102
RTVSPost2010PropOp49
 70
     1
102
RTVSPost2010Prop50
 90
       50
102
RTVSPost2010PropOp50
 70
     1
102
RTVSPost2010Prop51ColorIndex
 90
      256
102
RTVSPost2010Prop51ColorRGB
 90
-16777216
102
RTVSPost2010PropOp51
 70
     0
102
RTVSPost2010Prop52
140
1.0
102
RTVSPost2010PropOp52
 70
     0
102
RTVSPost2010Prop53
 90
        2
102
RTVSPost2010PropOp53
 70
     1
102
RTVSPost2010Prop54
  1
strokes_ogs.tif
102
RTVSPost2010PropOp54
 70
     1
102
RTVSPost2010Prop55
280
     0
102
RTVSPost2010PropOp55
 70
     1
102
RTVSPost2010Prop56
140
1.0
102
RTVSPost2010PropOp56
 70
     1
102
RTVSPost2010Prop57
140
1.0
102
RTVSPost2010PropOp57
 70
     1
  0
XRECORD
  5
54F
102
{ACAD_REACTORS
330
54E
102
}
330
54E
100
AcDbXrecord
280
     1
102
RTVSPropertyOp0
 70
     1
102
RTVSPropertyOp1
 70
     1
102
RTVSPropertyOp2
 70
     1
102
RTVSPropertyOp3
 70
     1
102
RTVSPropertyOp4
 70
     1
102
RTVSPropertyOp5
 70
     1
102
RTVSPropertyOp6
 70
     1
102
RTVSPropertyOp7
 70
     1
102
RTVSPropertyOp8
 70
     1
102
RTVSPropertyOp9
 70
     1
102
RTVSPropertyOp10
 70
     1
102
RTVSPropertyOp11
 70
     1
102
RTVSPropertyOp12
 70
     1
102
RTVSPropertyOp13
 70
     1
102
RTVSPropertyOp14
 70
     1
102
RTVSPropertyOp15
 70
     1
102
RTVSPropertyOp16
 70
     1
102
RTVSPropertyOp17
 70
     1
102
RTVSPropertyOp18
 70
     1
102
RTVSPropertyOp19
 70
     1
102
RTVSPropertyOp20
 70
     1
102
RTVSPropertyOp21
 70
     1
102
RTVSPropertyOp22
 70
     1
102
RTVSPropertyOp23
 70
     1
102
RTVSPropertyOp24
 70
     1
102
RTVSPropertyOp25
 70
     1
102
RTVSPropertyOp26
 70
     1
102
RTVSPropertyOp27
 70
     1
102
RTVSPropertyOp28
 70
     1
102
RTVSPropertyOp29
 70
     1
102
RTVSPropertyOp30
 70
     1
102
RTVSPropertyOp31
 70
     1
102
RTVSPropertyOp32
 70
     1
102
RTVSPropertyOp33
 70
     1
102
RTVSPropertyOp34
 70
     1
102
RTVSPropertyOp35
 70
     1
102
RTVSPropertyOp36
 70
     1
102
RTVSPropertyOp37
 70
     1
102
RTVSPropertyOp38
 70
     1
102
RTVSPropertyOp39
 70
     1
102
RTVSPropertyOp40
 70
     1
102
RTVSPropertyOp41
 70
     1
102
RTVSPropertyOp42
 70
     1
102
RTVSPropertyOp43
 70
     1
102
RTVSPropertyOp44
 70
     1
102
RTVSPropertyOp45
 70
     1
102
RTVSPropertyOp46
 70
     1
102
RTVSPropertyOp47
 70
     1
102
RTVSPropertyOp48
 70
     1
102
RTVSPropertyOp49
 70
     1
102
RTVSPropertyOp50
 70
     1
102
RTVSPropertyOp51
 70
     0
102
RTVSPropertyOp52
 70
     0
102
RTVSPropertyOp53
 70
     1
102
RTVSPropertyOp54
 70
     1
102
RTVSPropertyOp55
 70
     1
102
RTVSPropertyOp56
 70
     1
102
RTVSPropertyOp57
 70
     1
102
RTVSPost2010Prop28
280
     0
102
RTVSPost2010PropOp28
 70
     1
102
RTVSPost2010Prop29
280
     1
102
RTVSPost2010PropOp29
 70
     1
102
RTVSPost2010Prop30
280
     1
102
RTVSPost2010PropOp30
 70
     1
102
RTVSPost2010Prop31
280
     0
102
RTVSPost2010PropOp31
 70
     1
102
RTVSPost2010Prop32
280
     0
102
RTVSPost2010PropOp32
 70
     1
102
RTVSPost2010Prop33
280
     0
102
RTVSPost2010PropOp33
 70
     1
102
RTVSPost2010Prop34
280
     0
102
RTVSPost2010PropOp34
 70
     1
102
RTVSPost2010Prop35
280
     0
102
RTVSPost2010PropOp35
 70
     1
102
RTVSPost2010Prop36
280
     0
102
RTVSPost2010PropOp36
 70
     1
102
RTVSPost2010Prop37
 90
       50
102
RTVSPost2010PropOp37
 70
     1
102
RTVSPost2010Prop38
140
0.0
102
RTVSPost2010PropOp38
 70
     1
102
RTVSPost2010Prop39
140
1.0
102
RTVSPost2010PropOp39
 70
     1
102
RTVSPost2010Prop40
 90
        0
102
RTVSPost2010PropOp40
 70
     1
102
RTVSPost2010Prop41ColorIndex
 90
       18
102
RTVSPost2010Prop41ColorRGB
 90
        0
102
RTVSPost2010PropOp41
 70
     1
102
RTVSPost2010Prop42
 90
       50
102
RTVSPost2010PropOp42
 70
     1
102
RTVSPost2010Prop43
 90
        3
102
RTVSPost2010PropOp43
 70
     1
102
RTVSPost2010Prop44ColorIndex
 90
        5
102
RTVSPost2010Prop44ColorRGB
 90
      255
102
RTVSPost2010PropOp44
 70
     1
102
RTVSPost2010Prop45
280
     0
102
RTVSPost2010PropOp45
 70
     1
102
RTVSPost2010Prop46
 90
       50
102
RTVSPost2010PropOp46
 70
     1
102
RTVSPost2010Prop47
 90
       50
102
RTVSPost2010PropOp47
 70
     1
102
RTVSPost2010Prop48
 90
       50
102
RTVSPost2010PropOp48
 70
     1
102
RTVSPost2010Prop49
280
     0
102
RTVSPost2010PropOp49
 70
     1
102
RTVSPost2010Prop50
 90
       50
102
RTVSPost2010PropOp50
 70
     1
102
RTVSPost2010Prop51ColorIndex
 90
      256
102
RTVSPost2010Prop51ColorRGB
 90
-16777216
102
RTVSPost2010PropOp51
 70
     0
102
RTVSPost2010Prop52
140
1.0
102
RTVSPost2010PropOp52
 70
     0
102
RTVSPost2010Prop53
 90
        2
102
RTVSPost2010PropOp53
 70
     1
102
RTVSPost2010Prop54
  1
strokes_ogs.tif
102
RTVSPost2010PropOp54
 70
     1
102
RTVSPost2010Prop55
280
     0
102
RTVSPost2010PropOp55
 70
     1
102
RTVSPost2010Prop56
140
1.0
102
RTVSPost2010PropOp56
 70
     1
102
RTVSPost2010Prop57
140
1.0
102
RTVSPost2010PropOp57
 70
     1
  0
ENDSEC
  0
EOF
