  0
SECTION
  2
HEADER
  9
$ACADVER
  1
AC1018
  9
$ACADMAINTVER
 70
     0
  9
$DWGCODEPAGE
  3
ANSI_936
  9
$INSBASE
 10
0.0
 20
0.0
 30
0.0
  9
$EXTMIN
 10
-379.5
 20
3292.375301667367
 30
0.0000000000003753
  9
$EXTMAX
 10
534.4997037830085
 20
5304.375301667367
 30
0.0000000000005229
  9
$LIMMIN
 10
0.0
 20
0.0
  9
$LIMMAX
 10
12.0
 20
9.0
  9
$ORTHOMODE
 70
     0
  9
$REGENMODE
 70
     1
  9
$FILLMODE
 70
     1
  9
$QTEXTMODE
 70
     0
  9
$MIRRTEXT
 70
     1
  9
$LTSCALE
 40
1.0
  9
$ATTMODE
 70
     1
  9
$TEXTSIZE
 40
0.2
  9
$TRACEWID
 40
0.05
  9
$TEXTSTYLE
  7
Standard
  9
$CLAYER
  8
0
  9
$CELTYPE
  6
ByLayer
  9
$CECOLOR
 62
   256
  9
$CELTSCALE
 40
1.0
  9
$DISPSILH
 70
     0
  9
$DIMSCALE
 40
1.0
  9
$DIMASZ
 40
0.18
  9
$DIMEXO
 40
0.0625
  9
$DIMDLI
 40
0.38
  9
$DIMRND
 40
0.0
  9
$DIMDLE
 40
0.0
  9
$DIMEXE
 40
0.18
  9
$DIMTP
 40
0.0
  9
$DIMTM
 40
0.0
  9
$DIMTXT
 40
0.18
  9
$DIMCEN
 40
0.09
  9
$DIMTSZ
 40
0.0
  9
$DIMTOL
 70
     0
  9
$DIMLIM
 70
     0
  9
$DIMTIH
 70
     1
  9
$DIMTOH
 70
     1
  9
$DIMSE1
 70
     0
  9
$DIMSE2
 70
     0
  9
$DIMTAD
 70
     0
  9
$DIMZIN
 70
     0
  9
$DIMBLK
  1

  9
$DIMASO
 70
     1
  9
$DIMSHO
 70
     1
  9
$DIMPOST
  1

  9
$DIMAPOST
  1

  9
$DIMALT
 70
     0
  9
$DIMALTD
 70
     2
  9
$DIMALTF
 40
25.4
  9
$DIMLFAC
 40
1.0
  9
$DIMTOFL
 70
     0
  9
$DIMTVP
 40
0.0
  9
$DIMTIX
 70
     0
  9
$DIMSOXD
 70
     0
  9
$DIMSAH
 70
     0
  9
$DIMBLK1
  1

  9
$DIMBLK2
  1

  9
$DIMSTYLE
  2
Standard
  9
$DIMCLRD
 70
     0
  9
$DIMCLRE
 70
     0
  9
$DIMCLRT
 70
     0
  9
$DIMTFAC
 40
1.0
  9
$DIMGAP
 40
0.09
  9
$DIMJUST
 70
     0
  9
$DIMSD1
 70
     0
  9
$DIMSD2
 70
     0
  9
$DIMTOLJ
 70
     1
  9
$DIMTZIN
 70
     0
  9
$DIMALTZ
 70
     0
  9
$DIMALTTZ
 70
     0
  9
$DIMUPT
 70
     0
  9
$DIMDEC
 70
     4
  9
$DIMTDEC
 70
     4
  9
$DIMALTU
 70
     2
  9
$DIMALTTD
 70
     2
  9
$DIMTXSTY
  7
Standard
  9
$DIMAUNIT
 70
     0
  9
$DIMADEC
 70
     0
  9
$DIMALTRND
 40
0.0
  9
$DIMAZIN
 70
     0
  9
$DIMDSEP
 70
    46
  9
$DIMATFIT
 70
     3
  9
$DIMFRAC
 70
     0
  9
$DIMLDRBLK
  1

  9
$DIMLUNIT
 70
     2
  9
$DIMLWD
 70
    -2
  9
$DIMLWE
 70
    -2
  9
$DIMTMOVE
 70
     2
  9
$LUNITS
 70
     2
  9
$LUPREC
 70
     3
  9
$SKETCHINC
 40
0.1
  9
$FILLETRAD
 40
0.5
  9
$AUNITS
 70
     0
  9
$AUPREC
 70
     0
  9
$MENU
  1
.
  9
$ELEVATION
 40
0.0
  9
$PELEVATION
 40
0.0
  9
$THICKNESS
 40
0.0
  9
$LIMCHECK
 70
     0
  9
$CHAMFERA
 40
0.5
  9
$CHAMFERB
 40
0.5
  9
$CHAMFERC
 40
1.0
  9
$CHAMFERD
 40
0.0
  9
$SKPOLY
 70
     0
  9
$TDCREATE
 40
2458142.385149282
  9
$TDUCREATE
 40
2458142.051815949
  9
$TDUPDATE
 40
2458142.385149479
  9
$TDUUPDATE
 40
2458142.051816146
  9
$TDINDWG
 40
0.0000000116
  9
$TDUSRTIMER
 40
0.0000000116
  9
$USRTIMER
 70
     1
  9
$ANGBASE
 50
0.0
  9
$ANGDIR
 70
     0
  9
$PDMODE
 70
     0
  9
$PDSIZE
 40
0.0
  9
$PLINEWID
 40
0.0
  9
$SPLFRAME
 70
     0
  9
$SPLINETYPE
 70
     6
  9
$SPLINESEGS
 70
     8
  9
$HANDSEED
  5
24A
  9
$SURFTAB1
 70
     6
  9
$SURFTAB2
 70
     6
  9
$SURFTYPE
 70
     6
  9
$SURFU
 70
     6
  9
$SURFV
 70
     6
  9
$UCSBASE
  2

  9
$UCSNAME
  2

  9
$UCSORG
 10
0.0
 20
0.0
 30
0.0
  9
$UCSXDIR
 10
1.0
 20
0.0
 30
0.0
  9
$UCSYDIR
 10
0.0
 20
1.0
 30
0.0
  9
$UCSORTHOREF
  2

  9
$UCSORTHOVIEW
 70
     0
  9
$UCSORGTOP
 10
0.0
 20
0.0
 30
0.0
  9
$UCSORGBOTTOM
 10
0.0
 20
0.0
 30
0.0
  9
$UCSORGLEFT
 10
0.0
 20
0.0
 30
0.0
  9
$UCSORGRIGHT
 10
0.0
 20
0.0
 30
0.0
  9
$UCSORGFRONT
 10
0.0
 20
0.0
 30
0.0
  9
$UCSORGBACK
 10
0.0
 20
0.0
 30
0.0
  9
$PUCSBASE
  2

  9
$PUCSNAME
  2

  9
$PUCSORG
 10
0.0
 20
0.0
 30
0.0
  9
$PUCSXDIR
 10
1.0
 20
0.0
 30
0.0
  9
$PUCSYDIR
 10
0.0
 20
1.0
 30
0.0
  9
$PUCSORTHOREF
  2

  9
$PUCSORTHOVIEW
 70
     0
  9
$PUCSORGTOP
 10
0.0
 20
0.0
 30
0.0
  9
$PUCSORGBOTTOM
 10
0.0
 20
0.0
 30
0.0
  9
$PUCSORGLEFT
 10
0.0
 20
0.0
 30
0.0
  9
$PUCSORGRIGHT
 10
0.0
 20
0.0
 30
0.0
  9
$PUCSORGFRONT
 10
0.0
 20
0.0
 30
0.0
  9
$PUCSORGBACK
 10
0.0
 20
0.0
 30
0.0
  9
$USERI1
 70
     0
  9
$USERI2
 70
     0
  9
$USERI3
 70
     0
  9
$USERI4
 70
     0
  9
$USERI5
 70
     0
  9
$USERR1
 40
0.0
  9
$USERR2
 40
0.0
  9
$USERR3
 40
0.0
  9
$USERR4
 40
0.0
  9
$USERR5
 40
0.0
  9
$WORLDVIEW
 70
     1
  9
$SHADEDGE
 70
     3
  9
$SHADEDIF
 70
    70
  9
$TILEMODE
 70
     1
  9
$MAXACTVP
 70
    64
  9
$PINSBASE
 10
0.0
 20
0.0
 30
0.0
  9
$PLIMCHECK
 70
     0
  9
$PEXTMIN
 10
1.000000000000000E+20
 20
1.000000000000000E+20
 30
1.000000000000000E+20
  9
$PEXTMAX
 10
-1.000000000000000E+20
 20
-1.000000000000000E+20
 30
-1.000000000000000E+20
  9
$PLIMMIN
 10
0.0
 20
0.0
  9
$PLIMMAX
 10
12.0
 20
9.0
  9
$UNITMODE
 70
     0
  9
$VISRETAIN
 70
     1
  9
$PLINEGEN
 70
     0
  9
$PSLTSCALE
 70
     1
  9
$TREEDEPTH
 70
  3020
  9
$CMLSTYLE
  2
Standard
  9
$CMLJUST
 70
     0
  9
$CMLSCALE
 40
1.0
  9
$PROXYGRAPHICS
 70
     1
  9
$MEASUREMENT
 70
     0
  9
$CELWEIGHT
370
    -1
  9
$ENDCAPS
280
     0
  9
$JOINSTYLE
280
     0
  9
$LWDISPLAY
290
     0
  9
$INSUNITS
 70
     4
  9
$HYPERLINKBASE
  1

  9
$STYLESHEET
  1

  9
$XEDIT
290
     1
  9
$CEPSNTYPE
380
     0
  9
$PSTYLEMODE
290
     1
  9
$FINGERPRINTGUID
  2
{C553714C-584A-4C5F-9706-D4C3FFEFB4C3}
  9
$VERSIONGUID
  2
{FAEB1C32-E019-11D5-929B-00C0DF256EC4}
  9
$EXTNAMES
290
     1
  9
$PSVPSCALE
 40
0.0
  9
$OLESTARTUP
290
     0
  9
$SORTENTS
280
   127
  9
$INDEXCTL
280
     0
  9
$HIDETEXT
280
     1
  9
$XCLIPFRAME
290
     0
  9
$HALOGAP
280
     0
  9
$OBSCOLOR
 70
   257
  9
$OBSLTYPE
280
     0
  9
$INTERSECTIONDISPLAY
280
     0
  9
$INTERSECTIONCOLOR
 70
   257
  9
$DIMASSOC
280
     2
  9
$PROJECTNAME
  1

  0
ENDSEC
  0
SECTION
  2
CLASSES
  0
CLASS
  1
ACDBDICTIONARYWDFLT
  2
AcDbDictionaryWithDefault
  3
ObjectDBX Classes
 90
        0
 91
        4
280
     0
281
     0
  0
CLASS
  1
VISUALSTYLE
  2
AcDbVisualStyle
  3
ObjectDBX Classes
 90
     4095
 91
        4
280
     0
281
     0
  0
CLASS
  1
MATERIAL
  2
AcDbMaterial
  3
ObjectDBX Classes
 90
     1153
 91
        4
280
     0
281
     0
  0
CLASS
  1
SCALE
  2
AcDbScale
  3
ObjectDBX Classes
 90
     1153
 91
        4
280
     0
281
     0
  0
CLASS
  1
SUN
  2
AcDbSun
  3
SCENEOE
 90
     1153
 91
        4
280
     0
281
     0
  0
CLASS
  1
DICTIONARYVAR
  2
AcDbDictionaryVar
  3
ObjectDBX Classes
 90
        0
 91
        4
280
     0
281
     0
  0
ENDSEC
  0
SECTION
  2
TABLES
  0
TABLE
  2
VPORT
  5
8
330
0
100
AcDbSymbolTable
 70
     1
  0
VPORT
  5
29
330
8
100
AcDbSymbolTableRecord
100
AcDbViewportTableRecord
  2
*Active
 70
     0
 10
0.0
 20
0.0
 11
1.0
 21
1.0
 12
77.49985189150425
 22
4298.375301667367
 13
0.0
 23
0.0
 14
0.5
 24
0.5
 15
0.5
 25
0.5
 16
0.0
 26
0.0
 36
1.0
 17
0.0
 27
0.0
 37
0.0
 40
2052.24
 41
0.4542742066515946
 42
50.0
 43
0.0
 44
0.0
 50
0.0
 51
0.0
 71
     0
 72
   100
 73
     1
 74
     3
 75
     0
 76
     0
 77
     0
 78
     0
281
     0
 65
     1
110
0.0
120
0.0
130
0.0
111
1.0
121
0.0
131
0.0
112
0.0
122
1.0
132
0.0
 79
     0
146
0.0
  0
ENDTAB
  0
TABLE
  2
LTYPE
  5
5
330
0
100
AcDbSymbolTable
 70
     1
  0
LTYPE
  5
14
330
5
100
AcDbSymbolTableRecord
100
AcDbLinetypeTableRecord
  2
ByBlock
 70
     0
  3

 72
    65
 73
     0
 40
0.0
  0
LTYPE
  5
15
330
5
100
AcDbSymbolTableRecord
100
AcDbLinetypeTableRecord
  2
ByLayer
 70
     0
  3

 72
    65
 73
     0
 40
0.0
  0
LTYPE
  5
16
330
5
100
AcDbSymbolTableRecord
100
AcDbLinetypeTableRecord
  2
Continuous
 70
     0
  3
Solid line
 72
    65
 73
     0
 40
0.0
  0
ENDTAB
  0
TABLE
  2
LAYER
  5
2
330
0
100
AcDbSymbolTable
 70
     2
  0
LAYER
  5
10
330
2
100
AcDbSymbolTableRecord
100
AcDbLayerTableRecord
  2
0
 70
     0
 62
     7
  6
Continuous
370
    -3
390
F
  0
LAYER
  5
62
330
2
100
AcDbSymbolTableRecord
100
AcDbLayerTableRecord
  2
Make2D$可见线$普通线
 70
     0
 62
    18
420
        0
  6
Continuous
370
    -3
390
F
  0
ENDTAB
  0
TABLE
  2
STYLE
  5
3
330
0
100
AcDbSymbolTable
 70
     1
  0
STYLE
  5
11
330
3
100
AcDbSymbolTableRecord
100
AcDbTextStyleTableRecord
  2
Standard
 70
     0
 40
0.0
 41
1.0
 50
0.0
 71
     0
 42
0.2
  3
txt
  4

  0
ENDTAB
  0
TABLE
  2
VIEW
  5
6
330
0
100
AcDbSymbolTable
 70
     0
  0
ENDTAB
  0
TABLE
  2
UCS
  5
7
330
0
100
AcDbSymbolTable
 70
     0
  0
ENDTAB
  0
TABLE
  2
APPID
  5
9
330
0
100
AcDbSymbolTable
 70
     1
  0
APPID
  5
12
330
9
100
AcDbSymbolTableRecord
100
AcDbRegAppTableRecord
  2
ACAD
 70
     0
  0
ENDTAB
  0
TABLE
  2
DIMSTYLE
  5
A
330
0
100
AcDbSymbolTable
 70
     1
100
AcDbDimStyleTable
  0
DIMSTYLE
105
27
330
A
100
AcDbSymbolTableRecord
100
AcDbDimStyleTableRecord
  2
Standard
 70
     0
178
     0
340
11
  0
ENDTAB
  0
TABLE
  2
BLOCK_RECORD
  5
1
330
0
100
AcDbSymbolTable
 70
     1
  0
BLOCK_RECORD
  5
1F
330
1
100
AcDbSymbolTableRecord
100
AcDbBlockTableRecord
  2
*Model_Space
340
22
  0
BLOCK_RECORD
  5
1B
330
1
100
AcDbSymbolTableRecord
100
AcDbBlockTableRecord
  2
*Paper_Space
340
1E
  0
BLOCK_RECORD
  5
23
330
1
100
AcDbSymbolTableRecord
100
AcDbBlockTableRecord
  2
*Paper_Space0
340
26
  0
ENDTAB
  0
ENDSEC
  0
SECTION
  2
BLOCKS
  0
BLOCK
  5
20
330
1F
100
AcDbEntity
  8
0
100
AcDbBlockBegin
  2
*Model_Space
 70
     0
 10
0.0
 20
0.0
 30
0.0
  3
*Model_Space
  1
*Model_Space
  0
ENDBLK
  5
21
330
1F
100
AcDbEntity
  8
0
100
AcDbBlockEnd
  0
BLOCK
  5
1C
330
1B
100
AcDbEntity
 67
     1
  8
0
100
AcDbBlockBegin
  2
*Paper_Space
 70
     0
 10
0.0
 20
0.0
 30
0.0
  3
*Paper_Space
  1
*Paper_Space
  0
ENDBLK
  5
1D
330
1B
100
AcDbEntity
 67
     1
  8
0
100
AcDbBlockEnd
  0
BLOCK
  5
24
330
23
100
AcDbEntity
  8
0
100
AcDbBlockBegin
  2
*Paper_Space0
 70
     0
 10
0.0
 20
0.0
 30
0.0
  3
*Paper_Space0
  1
*Paper_Space0
  0
ENDBLK
  5
25
330
23
100
AcDbEntity
  8
0
100
AcDbBlockEnd
  0
ENDSEC
  0
SECTION
  2
ENTITIES
  0
LINE
  5
63
330
1F
100
AcDbEntity
  8
Make2D$可见线$普通线
100
AcDbLine
 10
-165.5
 20
4292.375301667367
 30
0.0000000000004547
 11
161.5
 21
4292.375301667367
 31
0.0000000000004547
  0
LINE
  5
64
330
1F
100
AcDbEntity
  8
Make2D$可见线$普通线
100
AcDbLine
 10
534.4997037830085
 20
4250.575303054533
 30
0.0000000000004547
 11
261.500571310145
 21
4250.575303054533
 31
0.0000000000004547
  0
LINE
  5
65
330
1F
100
AcDbEntity
  8
Make2D$可见线$普通线
100
AcDbLine
 10
385.5000018866458
 20
4392.375301667369
 30
0.0000000000004547
 11
410.5000018866463
 21
4392.375301667369
 31
0.0000000000004547
  0
LINE
  5
66
330
1F
100
AcDbEntity
  8
Make2D$可见线$普通线
100
AcDbLine
 10
-265.5
 20
5292.375301667367
 30
0.0000000000004547
 11
-272.5
 21
5292.375301667367
 31
0.0000000000004547
  0
LINE
  5
67
330
1F
100
AcDbEntity
  8
Make2D$可见线$普通线
100
AcDbLine
 10
-265.5
 20
3292.375301667367
 30
0.0000000000004547
 11
-265.5
 21
5292.375301667367
 31
0.0000000000004547
  0
LINE
  5
68
330
1F
100
AcDbEntity
  8
Make2D$可见线$普通线
100
AcDbLine
 10
-272.5
 20
3292.375301667367
 30
0.0000000000004547
 11
-265.5
 21
3292.375301667367
 31
0.0000000000004547
  0
LINE
  5
69
330
1F
100
AcDbEntity
  8
Make2D$可见线$普通线
100
AcDbLine
 10
-272.5
 20
5292.375301667367
 30
0.0000000000004547
 11
-272.5
 21
3292.375301667367
 31
0.0000000000004547
  0
LINE
  5
6A
330
1F
100
AcDbEntity
  8
Make2D$可见线$普通线
100
AcDbLine
 10
-379.5
 20
5292.375301667367
 30
0.0000000000004547
 11
-372.5
 21
5292.375301667367
 31
0.0000000000004547
  0
LINE
  5
6B
330
1F
100
AcDbEntity
  8
Make2D$可见线$普通线
100
AcDbLine
 10
-379.5
 20
3292.375301667367
 30
0.0000000000004547
 11
-379.5
 21
5292.375301667367
 31
0.0000000000004547
  0
LINE
  5
6C
330
1F
100
AcDbEntity
  8
Make2D$可见线$普通线
100
AcDbLine
 10
-372.5
 20
3292.375301667367
 30
0.0000000000004547
 11
-379.5
 21
3292.375301667367
 31
0.0000000000004547
  0
LINE
  5
6D
330
1F
100
AcDbEntity
  8
Make2D$可见线$普通线
100
AcDbLine
 10
-372.5
 20
5292.375301667367
 30
0.0000000000004547
 11
-372.5
 21
3292.375301667367
 31
0.0000000000004547
  0
LINE
  5
6E
330
1F
100
AcDbEntity
  8
Make2D$可见线$普通线
100
AcDbLine
 10
144.5
 20
5275.875301667367
 30
0.0000000000004547
 11
109.5
 21
5275.875301667367
 31
0.0000000000004547
  0
LINE
  5
6F
330
1F
100
AcDbEntity
  8
Make2D$可见线$普通线
100
AcDbLine
 10
109.5
 20
5299.375301667367
 30
0.0000000000004547
 11
109.5
 21
5275.875301667367
 31
0.0000000000004547
  0
LINE
  5
70
330
1F
100
AcDbEntity
  8
Make2D$可见线$普通线
100
AcDbLine
 10
144.5
 20
5299.375301667367
 30
0.0000000000004547
 11
109.5
 21
5299.375301667367
 31
0.0000000000004547
  0
LINE
  5
71
330
1F
100
AcDbEntity
  8
Make2D$可见线$普通线
100
AcDbLine
 10
109.5
 20
5304.375301667367
 30
0.0000000000004547
 11
109.5
 21
5299.375301667367
 31
0.0000000000004547
  0
LINE
  5
72
330
1F
100
AcDbEntity
  8
Make2D$可见线$普通线
100
AcDbLine
 10
144.5
 20
5304.375301667367
 30
0.0000000000004547
 11
109.5
 21
5304.375301667367
 31
0.0000000000004547
  0
LINE
  5
73
330
1F
100
AcDbEntity
  8
Make2D$可见线$普通线
100
AcDbLine
 10
144.5
 20
5275.875301667367
 30
0.0000000000004547
 11
144.5
 21
5299.375301667367
 31
0.0000000000004547
  0
LINE
  5
74
330
1F
100
AcDbEntity
  8
Make2D$可见线$普通线
100
AcDbLine
 10
144.5
 20
5299.375301667367
 30
0.0000000000004547
 11
144.5
 21
5304.375301667367
 31
0.0000000000004547
  0
LINE
  5
75
330
1F
100
AcDbEntity
  8
Make2D$可见线$普通线
100
AcDbLine
 10
-148.5
 20
5275.875301667367
 30
0.0000000000004547
 11
-113.5
 21
5275.875301667367
 31
0.0000000000004547
  0
LINE
  5
76
330
1F
100
AcDbEntity
  8
Make2D$可见线$普通线
100
AcDbLine
 10
-113.5
 20
5299.375301667367
 30
0.0000000000004547
 11
-113.5
 21
5275.875301667367
 31
0.0000000000004547
  0
LINE
  5
77
330
1F
100
AcDbEntity
  8
Make2D$可见线$普通线
100
AcDbLine
 10
-148.5
 20
5299.375301667367
 30
0.0000000000004547
 11
-113.5
 21
5299.375301667367
 31
0.0000000000004547
  0
LINE
  5
78
330
1F
100
AcDbEntity
  8
Make2D$可见线$普通线
100
AcDbLine
 10
-113.5
 20
5304.375301667367
 30
0.0000000000004547
 11
-113.5
 21
5299.375301667367
 31
0.0000000000004547
  0
LINE
  5
79
330
1F
100
AcDbEntity
  8
Make2D$可见线$普通线
100
AcDbLine
 10
-148.5
 20
5304.375301667367
 30
0.0000000000004547
 11
-113.5
 21
5304.375301667367
 31
0.0000000000004547
  0
LINE
  5
7A
330
1F
100
AcDbEntity
  8
Make2D$可见线$普通线
100
AcDbLine
 10
-148.5
 20
5275.875301667367
 30
0.0000000000004547
 11
-148.5
 21
5299.375301667367
 31
0.0000000000004547
  0
LINE
  5
7B
330
1F
100
AcDbEntity
  8
Make2D$可见线$普通线
100
AcDbLine
 10
-148.5
 20
5299.375301667367
 30
0.0000000000004547
 11
-148.5
 21
5304.375301667367
 31
0.0000000000004547
  0
SPLINE
  5
7C
330
1F
100
AcDbEntity
  8
Make2D$可见线$普通线
100
AcDbSpline
210
0.0
220
0.0
230
1.0
 70
     8
 71
     3
 72
     9
 73
     5
 74
     0
 42
0.000000001
 43
0.0000000001
 12
1.0
 22
0.0
 32
0.0
 13
1.0
 23
0.0
 33
0.0
 40
0.0
 40
0.0
 40
0.0
 40
0.0
 40
0.6678491227412267
 40
1.0
 40
1.0
 40
1.0
 40
1.0
 10
3.658393055555734
 20
4278.756066389589
 30
0.0000000000004547
 10
3.731371961725927
 20
4278.824952650735
 30
0.0000000000004547
 10
3.947121647544463
 20
4279.060359117801
 30
0.0000000000004547
 10
3.701615822137228
 20
4279.014450175311
 30
0.0000000000004547
 10
3.668729444444125
 20
4278.976905278478
 30
0.0000000000004547
  0
SPLINE
  5
7D
330
1F
100
AcDbEntity
  8
Make2D$可见线$普通线
100
AcDbSpline
210
0.0
220
0.0
230
1.0
 70
     8
 71
     3
 72
     8
 73
     4
 74
     0
 42
0.000000001
 43
0.0000000001
 12
1.0
 22
0.0
 32
0.0
 13
1.0
 23
0.0
 33
0.0
 40
0.0
 40
0.0
 40
0.0
 40
0.0
 40
1.0
 40
1.0
 40
1.0
 40
1.0
 10
3.176780833332941
 20
4278.438460556255
 30
0.0000000000004547
 10
3.206333101082691
 20
4278.248441911206
 30
0.0000000000004547
 10
3.508304151001994
 20
4278.63584267011
 30
0.0000000000004547
 10
3.658393055555734
 20
4278.756066389589
 30
0.0000000000004547
  0
SPLINE
  5
7E
330
1F
100
AcDbEntity
  8
Make2D$可见线$普通线
100
AcDbSpline
210
0.0
220
0.0
230
1.0
 70
     8
 71
     3
 72
     9
 73
     5
 74
     0
 42
0.000000001
 43
0.0000000001
 12
1.0
 22
0.0
 32
0.0
 13
1.0
 23
0.0
 33
0.0
 40
0.0
 40
0.0
 40
0.0
 40
0.0
 40
0.6589874519463137
 40
1.0
 40
1.0
 40
1.0
 40
1.0
 10
-0.0605902777774645
 20
4279.149519445145
 30
0.0000000000004547
 10
-0.016856509957961
 20
4279.209704276464
 30
0.0000000000004547
 10
0.1177471781920758
 20
4279.334036374807
 30
0.0000000000004547
 10
-0.0474580308396071
 20
4279.411784772135
 30
0.0000000000004547
 10
-0.0791816666669547
 20
4279.389972778477
 30
0.0000000000004547
  0
SPLINE
  5
7F
330
1F
100
AcDbEntity
  8
Make2D$可见线$普通线
100
AcDbSpline
210
0.0
220
0.0
230
1.0
 70
     8
 71
     3
 72
     9
 73
     5
 74
     0
 42
0.000000001
 43
0.0000000001
 12
1.0
 22
0.0
 32
0.0
 13
1.0
 23
0.0
 33
0.0
 40
0.0
 40
0.0
 40
0.0
 40
0.0
 40
0.5813062686427208
 40
1.0
 40
1.0
 40
1.0
 40
1.0
 10
-0.0791816666669547
 20
4279.389972778477
 30
0.0000000000004547
 10
-0.2237489638928309
 20
4279.26242965136
 30
0.0000000000004547
 10
-0.643332158413159
 20
4278.69273760842
 30
0.0000000000004547
 10
-0.1439037239247227
 20
4279.03843241976
 30
0.0000000000004547
 10
-0.0605902777774645
 20
4279.149519445145
 30
0.0000000000004547
  0
ARC
  5
80
330
1F
100
AcDbEntity
  8
Make2D$可见线$普通线
100
AcDbCircle
 10
9.940978199770651
 20
4278.860254189053
 30
0.0000000000004547
 40
0.4581094171307868
100
AcDbArc
 50
280.9962643790114
 51
40.72700621268968
  0
SPLINE
  5
81
330
1F
100
AcDbEntity
  8
Make2D$可见线$普通线
100
AcDbSpline
210
0.0
220
0.0
230
1.0
 70
     8
 71
     3
 72
     8
 73
     4
 74
     0
 42
0.000000001
 43
0.0000000001
 12
1.0
 22
0.0
 32
0.0
 13
1.0
 23
0.0
 33
0.0
 40
0.0
 40
0.0
 40
0.0
 40
0.0
 40
1.0
 40
1.0
 40
1.0
 40
1.0
 10
9.077518333330772
 20
4278.534557222923
 30
0.0000000000004547
 10
9.298907678476098
 20
4278.30401256143
 30
0.0000000000004547
 10
9.71606798413768
 20
4278.342455860327
 30
0.0000000000004547
 10
10.02836027777994
 20
4278.410555834034
 30
0.0000000000004547
  0
SPLINE
  5
82
330
1F
100
AcDbEntity
  8
Make2D$可见线$普通线
100
AcDbSpline
210
0.0
220
0.0
230
1.0
 70
     8
 71
     3
 72
     9
 73
     5
 74
     0
 42
0.000000001
 43
0.0000000001
 12
1.0
 22
0.0
 32
0.0
 13
1.0
 23
0.0
 33
0.0
 40
0.0
 40
0.0
 40
0.0
 40
0.0
 40
0.4275131354107212
 40
1.0
 40
1.0
 40
1.0
 40
1.0
 10
6.05135527777793
 20
4275.652045278479
 30
0.0000000000004547
 10
6.147290318468549
 20
4275.946656800994
 30
0.0000000000004547
 10
6.300332603967945
 20
4276.37348280516
 30
0.0000000000004547
 10
6.459682007359788
 20
4278.122054753583
 30
0.0000000000004547
 10
6.203614166666739
 20
4277.795593611812
 30
0.0000000000004547
  0
SPLINE
  5
83
330
1F
100
AcDbEntity
  8
Make2D$可见线$普通线
100
AcDbSpline
210
0.0
220
0.0
230
1.0
 70
     8
 71
     3
 72
     8
 73
     4
 74
     0
 42
0.000000001
 43
0.0000000001
 12
1.0
 22
0.0
 32
0.0
 13
1.0
 23
0.0
 33
0.0
 40
0.0
 40
0.0
 40
0.0
 40
0.0
 40
1.0
 40
1.0
 40
1.0
 40
1.0
 10
5.291366111110619
 20
4273.903678611807
 30
0.0000000000004547
 10
5.426016177831571
 20
4274.103663304018
 30
0.0000000000004547
 10
5.403787266422569
 20
4274.38152492424
 30
0.0000000000004547
 10
5.531819444445773
 20
4274.585809722927
 30
0.0000000000004547
  0
SPLINE
  5
84
330
1F
100
AcDbEntity
  8
Make2D$可见线$普通线
100
AcDbSpline
210
0.0
220
0.0
230
1.0
 70
     8
 71
     3
 72
     9
 73
     5
 74
     0
 42
0.000000001
 43
0.0000000001
 12
1.0
 22
0.0
 32
0.0
 13
1.0
 23
0.0
 33
0.0
 40
0.0
 40
0.0
 40
0.0
 40
0.0
 40
0.4670684281986262
 40
1.0
 40
1.0
 40
1.0
 40
1.0
 10
3.65839305555528
 20
4272.423317222927
 30
0.0000000000004547
 10
3.908979565672325
 20
4272.178301251366
 30
0.0000000000004547
 10
4.740145342821961
 20
4273.099755082247
 30
0.0000000000004547
 10
5.05164092574887
 20
4273.583614363835
 30
0.0000000000004547
 10
5.291366111110619
 20
4273.903678611807
 30
0.0000000000004547
  0
ARC
  5
85
330
1F
100
AcDbEntity
  8
Make2D$可见线$普通线
100
AcDbCircle
 10
8.109449009551177
 20
4272.27807945715
 30
0.0000000000004547
 40
4.560648766005849
100
AcDbArc
 50
148.1916236618873
 51
172.1172763310411
  0
ARC
  5
86
330
1F
100
AcDbEntity
  8
Make2D$可见线$普通线
100
AcDbCircle
 10
9.303393667004027
 20
4275.038160316083
 30
0.0000000000004547
 40
4.148743343605087
100
AcDbArc
 50
138.3450554845962
 51
155.3796701102038
  0
SPLINE
  5
87
330
1F
100
AcDbEntity
  8
Make2D$可见线$普通线
100
AcDbSpline
210
0.0
220
0.0
230
1.0
 70
     8
 71
     3
 72
    11
 73
     7
 74
     0
 42
0.000000001
 43
0.0000000001
 12
1.0
 22
0.0
 32
0.0
 13
1.0
 23
0.0
 33
0.0
 40
0.0
 40
0.0
 40
0.0
 40
0.0
 40
0.0657604727340052
 40
0.2251999405206251
 40
0.4560942357899956
 40
1.0
 40
1.0
 40
1.0
 40
1.0
 10
4.090404722222047
 20
4282.819925278478
 30
0.0000000000004547
 10
4.091864403070304
 20
4282.85349793798
 30
0.0000000000004547
 10
3.89576086606894
 20
4282.823268411918
 30
0.0000000000004547
 10
3.803339631525887
 20
4282.639382270607
 30
0.0000000000004547
 10
3.432299409640109
 20
4282.302300307798
 30
0.0000000000004547
 10
3.209974593697552
 20
4281.982364137737
 30
0.0000000000004547
 10
3.052038611111129
 20
4281.753654445145
 30
0.0000000000004547
  0
SPLINE
  5
88
330
1F
100
AcDbEntity
  8
Make2D$可见线$普通线
100
AcDbSpline
210
0.0
220
0.0
230
1.0
 70
     8
 71
     3
 72
     9
 73
     5
 74
     0
 42
0.000000001
 43
0.0000000001
 12
1.0
 22
0.0
 32
0.0
 13
1.0
 23
0.0
 33
0.0
 40
0.0
 40
0.0
 40
0.0
 40
0.0
 40
0.3271768565449024
 40
1.0
 40
1.0
 40
1.0
 40
1.0
 10
2.064013888888894
 20
4280.014565834033
 30
0.0000000000004547
 10
2.116461280855674
 20
4279.829186258787
 30
0.0000000000004547
 10
2.805831907217907
 20
4280.789787383324
 30
0.0000000000004547
 10
2.975257441119538
 20
4281.022771520888
 30
0.0000000000004547
 10
3.197771111111251
 20
4281.350570556257
 30
0.0000000000004547
  0
SPLINE
  5
89
330
1F
100
AcDbEntity
  8
Make2D$可见线$普通线
100
AcDbSpline
210
0.0
220
0.0
230
1.0
 70
     8
 71
     3
 72
     9
 73
     5
 74
     0
 42
0.000000001
 43
0.0000000001
 12
1.0
 22
0.0
 32
0.0
 13
1.0
 23
0.0
 33
0.0
 40
0.0
 40
0.0
 40
0.0
 40
0.0
 40
0.6310997301226962
 40
1.0
 40
1.0
 40
1.0
 40
1.0
 10
3.052038611111129
 20
4281.753654445145
 30
0.0000000000004547
 10
2.809435778447096
 20
4281.407417451266
 30
0.0000000000004547
 10
2.512863838681369
 20
4280.87882050655
 30
0.0000000000004547
 10
1.990689425598703
 20
4280.250562532925
 30
0.0000000000004547
 10
2.064013888888894
 20
4280.014565834033
 30
0.0000000000004547
  0
SPLINE
  5
8A
330
1F
100
AcDbEntity
  8
Make2D$可见线$普通线
100
AcDbSpline
210
0.0
220
0.0
230
1.0
 70
     8
 71
     3
 72
     9
 73
     5
 74
     0
 42
0.000000001
 43
0.0000000001
 12
1.0
 22
0.0
 32
0.0
 13
1.0
 23
0.0
 33
0.0
 40
0.0
 40
0.0
 40
0.0
 40
0.0
 40
0.5110871207562655
 40
1.0
 40
1.0
 40
1.0
 40
1.0
 10
-7.73833999999988
 20
4277.699144167367
 30
0.0000000000004547
 10
-7.816623829591663
 20
4277.620205352589
 30
0.0000000000004547
 10
-7.927384345346127
 20
4277.354563073373
 30
0.0000000000004547
 10
-7.68001462131906
 20
4277.210116029306
 30
0.0000000000004547
 10
-7.574333611110887
 20
4277.198199722923
 30
0.0000000000004547
  0
LINE
  5
8B
330
1F
100
AcDbEntity
  8
Make2D$可见线$普通线
100
AcDbLine
 10
-1.637048333333041
 20
4279.149519445145
 30
0.0000000000004547
 11
-3.058178333332762
 21
4279.131598334034
 31
0.0000000000004547
  0
SPLINE
  5
8C
330
1F
100
AcDbEntity
  8
Make2D$可见线$普通线
100
AcDbSpline
210
0.0
220
0.0
230
1.0
 70
     8
 71
     3
 72
     9
 73
     5
 74
     0
 42
0.000000001
 43
0.0000000001
 12
1.0
 22
0.0
 32
0.0
 13
1.0
 23
0.0
 33
0.0
 40
0.0
 40
0.0
 40
0.0
 40
0.0
 40
0.6307600545436968
 40
1.0
 40
1.0
 40
1.0
 40
1.0
 10
-2.385678055555672
 20
4278.592448056257
 30
0.0000000000004547
 10
-2.207996394047768
 20
4278.67863641652
 30
0.0000000000004547
 10
-2.075409365776522
 20
4278.815607940738
 30
0.0000000000004547
 10
-1.542339673122115
 20
4279.083228232392
 30
0.0000000000004547
 10
-1.637048333333041
 20
4279.149519445145
 30
0.0000000000004547
  0
SPLINE
  5
8D
330
1F
100
AcDbEntity
  8
Make2D$可见线$普通线
100
AcDbSpline
210
0.0
220
0.0
230
1.0
 70
     8
 71
     3
 72
     9
 73
     5
 74
     0
 42
0.000000001
 43
0.0000000001
 12
1.0
 22
0.0
 32
0.0
 13
1.0
 23
0.0
 33
0.0
 40
0.0
 40
0.0
 40
0.0
 40
0.0
 40
0.450746675868071
 40
1.0
 40
1.0
 40
1.0
 40
1.0
 10
-7.574333611110887
 20
4277.198199722923
 30
0.0000000000004547
 10
-6.767340547053664
 20
4277.100831497257
 30
0.0000000000004547
 10
-4.947941958205774
 20
4277.514987287765
 30
0.0000000000004547
 10
-3.276686512262586
 20
4278.159820612191
 30
0.0000000000004547
 10
-2.385678055555672
 20
4278.592448056257
 30
0.0000000000004547
  0
ARC
  5
8E
330
1F
100
AcDbEntity
  8
Make2D$可见线$普通线
100
AcDbCircle
 10
-5.985543311831407
 20
4285.971626504246
 30
0.0000000000004547
 40
8.46633033682805
100
AcDbArc
 50
295.0832884596609
 51
305.6503602401255
  0
SPLINE
  5
8F
330
1F
100
AcDbEntity
  8
Make2D$可见线$普通线
100
AcDbSpline
210
0.0
220
0.0
230
1.0
 70
     8
 71
     3
 72
     8
 73
     4
 74
     0
 42
0.000000001
 43
0.0000000001
 12
1.0
 22
0.0
 32
0.0
 13
1.0
 23
0.0
 33
0.0
 40
0.0
 40
0.0
 40
0.0
 40
0.0
 40
1.0
 40
1.0
 40
1.0
 40
1.0
 10
-0.675552499999867
 20
4279.063053611811
 30
0.0000000000004547
 10
-0.6011370665669347
 20
4279.164156228773
 30
0.0000000000004547
 10
-0.9457908512745234
 20
4279.160392521215
 30
0.0000000000004547
 10
-1.051049166666417
 20
4279.091981389589
 30
0.0000000000004547
  0
ARC
  5
90
330
1F
100
AcDbEntity
  8
Make2D$可见线$普通线
100
AcDbCircle
 10
4.052581175499578
 20
4276.607857074954
 30
0.0000000000004547
 40
5.327592147301454
100
AcDbArc
 50
152.5583244601687
 51
160.3445035567304
  0
SPLINE
  5
91
330
1F
100
AcDbEntity
  8
Make2D$可见线$普通线
100
AcDbSpline
210
0.0
220
0.0
230
1.0
 70
     8
 71
     3
 72
     8
 73
     4
 74
     0
 42
0.000000001
 43
0.0000000001
 12
1.0
 22
0.0
 32
0.0
 13
1.0
 23
0.0
 33
0.0
 40
0.0
 40
0.0
 40
0.0
 40
0.0
 40
1.0
 40
1.0
 40
1.0
 40
1.0
 10
-1.808639444444452
 20
4278.122195278478
 30
0.0000000000004547
 10
-1.846343464986148
 20
4277.828419517353
 30
0.0000000000004547
 10
-1.188693425160182
 20
4278.206216318204
 30
0.0000000000004547
 10
-0.9645833333329392
 20
4278.399866667367
 30
0.0000000000004547
  0
SPLINE
  5
92
330
1F
100
AcDbEntity
  8
Make2D$可见线$普通线
100
AcDbSpline
210
0.0
220
0.0
230
1.0
 70
     8
 71
     3
 72
     8
 73
     4
 74
     0
 42
0.000000001
 43
0.0000000001
 12
1.0
 22
0.0
 32
0.0
 13
1.0
 23
0.0
 33
0.0
 40
0.0
 40
0.0
 40
0.0
 40
0.0
 40
1.0
 40
1.0
 40
1.0
 40
1.0
 10
-2.096647222222146
 20
4278.092914722924
 30
0.0000000000004547
 10
-2.017870423698241
 20
4278.148645997928
 30
0.0000000000004547
 10
-1.79735940799128
 20
4278.218031178731
 30
0.0000000000004547
 10
-1.808639444444452
 20
4278.122195278478
 30
0.0000000000004547
  0
ARC
  5
93
330
1F
100
AcDbEntity
  8
Make2D$可见线$普通线
100
AcDbCircle
 10
-1.690254835806667
 20
4277.410503943408
 30
0.0000000000004547
 40
0.7942538912308629
100
AcDbArc
 50
120.7748377196264
 51
161.6769134958568
  0
SPLINE
  5
94
330
1F
100
AcDbEntity
  8
Make2D$可见线$普通线
100
AcDbSpline
210
0.0
220
0.0
230
1.0
 70
     8
 71
     3
 72
     8
 73
     4
 74
     0
 42
0.000000001
 43
0.0000000001
 12
1.0
 22
0.0
 32
0.0
 13
1.0
 23
0.0
 33
0.0
 40
0.0
 40
0.0
 40
0.0
 40
0.0
 40
1.0
 40
1.0
 40
1.0
 40
1.0
 10
-1.876513888888894
 20
4277.546179722924
 30
0.0000000000004547
 10
-2.059170406065732
 20
4277.483781881729
 30
0.0000000000004547
 10
-2.487882141567752
 20
4277.472175734421
 30
0.0000000000004547
 10
-2.444239166666648
 20
4277.6601975007
 30
0.0000000000004547
  0
ARC
  5
95
330
1F
100
AcDbEntity
  8
Make2D$可见线$普通线
100
AcDbCircle
 10
-4.703207257294252
 20
4284.261058486043
 30
0.0000000000002276
 40
7.285587979180551
100
AcDbArc
 50
292.8291313964184
 51
300.7039071809437
  0
SPLINE
  5
96
330
1F
100
AcDbEntity
  8
Make2D$可见线$普通线
100
AcDbSpline
210
0.0
220
0.0
230
1.0
 70
     8
 71
     3
 72
     8
 73
     4
 74
     0
 42
0.000000001
 43
0.0000000001
 12
1.0
 22
0.0
 32
0.0
 13
1.0
 23
0.0
 33
0.0
 40
0.0
 40
0.0
 40
0.0
 40
0.0
 40
1.0
 40
1.0
 40
1.0
 40
1.0
 10
-0.5022680555557599
 20
4277.823851111811
 30
0.0000000000004547
 10
-0.6722414795622171
 20
4277.835193752915
 30
0.0000000000004547
 10
-0.8144751002018893
 20
4277.97311723589
 30
0.0000000000004547
 10
-0.9831747222219747
 20
4277.996782778479
 30
0.0000000000004547
  0
SPLINE
  5
97
330
1F
100
AcDbEntity
  8
Make2D$可见线$普通线
100
AcDbSpline
210
0.0
220
0.0
230
1.0
 70
     8
 71
     3
 72
     8
 73
     4
 74
     0
 42
0.000000001
 43
0.0000000001
 12
1.0
 22
0.0
 32
0.0
 13
1.0
 23
0.0
 33
0.0
 40
0.0
 40
0.0
 40
0.0
 40
0.0
 40
1.0
 40
1.0
 40
1.0
 40
1.0
 10
0.9674394444441532
 20
4278.458427778478
 30
0.0000000000004547
 10
0.541105052061539
 20
4278.137512671277
 30
0.0000000000004547
 10
0.0300070344537744
 20
4277.786025872689
 30
0.0000000000004547
 10
-0.5022680555557599
 20
4277.823851111811
 30
0.0000000000004547
  0
SPLINE
  5
98
330
1F
100
AcDbEntity
  8
Make2D$可见线$普通线
100
AcDbSpline
210
0.0
220
0.0
230
1.0
 70
     8
 71
     3
 72
     8
 73
     4
 74
     0
 42
0.000000001
 43
0.0000000001
 12
1.0
 22
0.0
 32
0.0
 13
1.0
 23
0.0
 33
0.0
 40
0.0
 40
0.0
 40
0.0
 40
0.0
 40
1.0
 40
1.0
 40
1.0
 40
1.0
 10
1.477979444444372
 20
4278.612062500701
 30
0.0000000000004547
 10
1.336134218780444
 20
4278.719131589029
 30
0.0000000000004547
 10
1.109127982411792
 20
4278.565704131546
 30
0.0000000000004547
 10
0.9674394444441532
 20
4278.458427778478
 30
0.0000000000004547
  0
SPLINE
  5
99
330
1F
100
AcDbEntity
  8
Make2D$可见线$普通线
100
AcDbSpline
210
0.0
220
0.0
230
1.0
 70
     8
 71
     3
 72
     9
 73
     5
 74
     0
 42
0.000000001
 43
0.0000000001
 12
1.0
 22
0.0
 32
0.0
 13
1.0
 23
0.0
 33
0.0
 40
0.0
 40
0.0
 40
0.0
 40
0.0
 40
0.5566163629048337
 40
1.0
 40
1.0
 40
1.0
 40
1.0
 10
2.947651666666843
 20
4278.149747222924
 30
0.0000000000004547
 10
2.795376477592981
 20
4278.203473291655
 30
0.0000000000004547
 10
2.498949292972611
 20
4278.049247622226
 30
0.0000000000004547
 10
2.211857285595215
 20
4278.050586646412
 30
0.0000000000004547
 10
2.083275555556156
 20
4278.053968056256
 30
0.0000000000004547
  0
SPLINE
  5
9A
330
1F
100
AcDbEntity
  8
Make2D$可见线$普通线
100
AcDbSpline
210
0.0
220
0.0
230
1.0
 70
     8
 71
     3
 72
     9
 73
     5
 74
     0
 42
0.000000001
 43
0.0000000001
 12
1.0
 22
0.0
 32
0.0
 13
1.0
 23
0.0
 33
0.0
 40
0.0
 40
0.0
 40
0.0
 40
0.0
 40
0.4885321996121753
 40
1.0
 40
1.0
 40
1.0
 40
1.0
 10
3.69628138888902
 20
4278.467388334035
 30
0.0000000000004547
 10
3.575437547801812
 20
4278.39633705662
 30
0.0000000000004547
 10
3.432105958424017
 20
4278.111633420885
 30
0.0000000000004547
 10
3.084791597302228
 20
4278.097472279087
 30
0.0000000000004547
 10
2.947651666666843
 20
4278.149747222924
 30
0.0000000000004547
  0
SPLINE
  5
9B
330
1F
100
AcDbEntity
  8
Make2D$可见线$普通线
100
AcDbSpline
210
0.0
220
0.0
230
1.0
 70
     8
 71
     3
 72
     8
 73
     4
 74
     0
 42
0.000000001
 43
0.0000000001
 12
1.0
 22
0.0
 32
0.0
 13
1.0
 23
0.0
 33
0.0
 40
0.0
 40
0.0
 40
0.0
 40
0.0
 40
1.0
 40
1.0
 40
1.0
 40
1.0
 10
4.013569722221746
 20
4278.323737222923
 30
0.0000000000004547
 10
3.915178144255606
 20
4278.385362799017
 30
0.0000000000004547
 10
3.791563648553165
 20
4278.533720115533
 30
0.0000000000004547
 10
3.69628138888902
 20
4278.467388334035
 30
0.0000000000004547
  0
SPLINE
  5
9C
330
1F
100
AcDbEntity
  8
Make2D$可见线$普通线
100
AcDbSpline
210
0.0
220
0.0
230
1.0
 70
     8
 71
     3
 72
     9
 73
     5
 74
     0
 42
0.000000001
 43
0.0000000001
 12
1.0
 22
0.0
 32
0.0
 13
1.0
 23
0.0
 33
0.0
 40
0.0
 40
0.0
 40
0.0
 40
0.0
 40
0.4788812207091941
 40
1.0
 40
1.0
 40
1.0
 40
1.0
 10
6.146781666666811
 20
4278.149747222924
 30
0.0000000000004547
 10
6.202574276366249
 20
4278.295498549583
 30
0.0000000000004547
 10
5.8731748303735
 20
4278.687800533644
 30
0.0000000000004547
 10
6.371085559167568
 20
4278.824806250777
 30
0.0000000000004547
 10
6.540905000000294
 20
4278.822917778478
 30
0.0000000000004547
  0
LINE
  5
9D
330
1F
100
AcDbEntity
  8
Make2D$可见线$普通线
100
AcDbLine
 10
5.369224166666754
 20
4277.074868611811
 30
0.0000000000004547
 11
6.146781666666811
 21
4278.149747222924
 31
0.0000000000004547
  0
ARC
  5
9E
330
1F
100
AcDbEntity
  8
Make2D$可见线$普通线
100
AcDbCircle
 10
-38.68215314606781
 20
4302.779845049076
 30
0.0000000000004547
 40
51.00264362549508
100
AcDbArc
 50
327.355287254383
 51
329.7354703593142
  0
SPLINE
  5
9F
330
1F
100
AcDbEntity
  8
Make2D$可见线$普通线
100
AcDbSpline
210
0.0
220
0.0
230
1.0
 70
     8
 71
     3
 72
     9
 73
     5
 74
     0
 42
0.000000001
 43
0.0000000001
 12
1.0
 22
0.0
 32
0.0
 13
1.0
 23
0.0
 33
0.0
 40
0.0
 40
0.0
 40
0.0
 40
0.0
 40
0.4422830641390424
 40
1.0
 40
1.0
 40
1.0
 40
1.0
 10
4.03286666666645
 20
4272.116682778478
 30
0.0000000000004547
 10
3.894511081826749
 20
4272.004813986805
 30
0.0000000000004547
 10
3.334061956679761
 20
4271.928399191218
 30
0.0000000000004547
 10
3.302158055555992
 20
4272.478003285145
 30
0.0000000000004547
 10
3.302158055555992
 20
4272.702364445147
 30
0.0000000000004547
  0
ARC
  5
A0
330
1F
100
AcDbEntity
  8
Make2D$可见线$普通线
100
AcDbCircle
 10
0.7132037442011311
 20
4276.270912478379
 30
0.0000000000002282
 40
5.317686180880409
100
AcDbArc
 50
308.6285028925271
 51
322.0456249956183
  0
SPLINE
  5
A1
330
1F
100
AcDbEntity
  8
Make2D$可见线$普通线
100
AcDbSpline
210
0.0
220
0.0
230
1.0
 70
     8
 71
     3
 72
     9
 73
     5
 74
     0
 42
0.000000001
 43
0.0000000001
 12
1.0
 22
0.0
 32
0.0
 13
1.0
 23
0.0
 33
0.0
 40
0.0
 40
0.0
 40
0.0
 40
0.0
 40
0.4598566892207702
 40
1.0
 40
1.0
 40
1.0
 40
1.0
 10
10.70153083333344
 20
4278.765379722923
 30
0.0000000000004547
 10
10.70764775469434
 20
4278.562305158546
 30
0.0000000000004547
 10
10.42824610251955
 20
4278.088050611957
 30
0.0000000000004547
 10
9.945471232875207
 20
4278.111604931955
 30
0.0000000000004547
 10
9.711777500000153
 20
4278.06328138959
 30
0.0000000000004547
  0
SPLINE
  5
A2
330
1F
100
AcDbEntity
  8
Make2D$可见线$普通线
100
AcDbSpline
210
0.0
220
0.0
230
1.0
 70
     8
 71
     3
 72
     8
 73
     4
 74
     0
 42
0.000000001
 43
0.0000000001
 12
1.0
 22
0.0
 32
0.0
 13
1.0
 23
0.0
 33
0.0
 40
0.0
 40
0.0
 40
0.0
 40
0.0
 40
1.0
 40
1.0
 40
1.0
 40
1.0
 10
10.71945194444015
 20
4278.948330278479
 30
0.0000000000004547
 10
10.66006389736094
 20
4278.963421154205
 30
0.0000000000004547
 10
10.7015308333298
 20
4278.826655123099
 30
0.0000000000004547
 10
10.70153083333344
 20
4278.765379722923
 30
0.0000000000004547
  0
ARC
  5
A3
330
1F
100
AcDbEntity
  8
Make2D$可见线$普通线
100
AcDbCircle
 10
10.91545658882818
 20
4278.459685890282
 30
0.0000000000004547
 40
0.3591328320126866
100
AcDbArc
 50
330.9212593456899
 51
58.34241852288739
  0
SPLINE
  5
A4
330
1F
100
AcDbEntity
  8
Make2D$可见线$普通线
100
AcDbSpline
210
0.0
220
0.0
230
1.0
 70
     8
 71
     3
 72
     8
 73
     4
 74
     0
 42
0.000000001
 43
0.0000000001
 12
1.0
 22
0.0
 32
0.0
 13
1.0
 23
0.0
 33
0.0
 40
0.0
 40
0.0
 40
0.0
 40
0.0
 40
1.0
 40
1.0
 40
1.0
 40
1.0
 10
11.65343111110997
 20
4278.149747222924
 30
0.0000000000004547
 10
11.56563754887702
 20
4278.030103519632
 30
0.0000000000004547
 10
11.17636602750781
 20
4278.146514240445
 30
0.0000000000004547
 10
11.22932166666897
 20
4278.285143334035
 30
0.0000000000004547
  0
SPLINE
  5
A5
330
1F
100
AcDbEntity
  8
Make2D$可见线$普通线
100
AcDbSpline
210
0.0
220
0.0
230
1.0
 70
     8
 71
     3
 72
     9
 73
     5
 74
     0
 42
0.000000001
 43
0.0000000001
 12
1.0
 22
0.0
 32
0.0
 13
1.0
 23
0.0
 33
0.0
 40
0.0
 40
0.0
 40
0.0
 40
0.0
 40
0.5358306194180017
 40
1.0
 40
1.0
 40
1.0
 40
1.0
 10
12.94015277777999
 20
4278.563837778478
 30
0.0000000000004547
 10
12.75920771636538
 20
4278.597351434139
 30
0.0000000000004547
 10
12.42511503141213
 20
4278.845082877371
 30
0.0000000000004547
 10
12.11773451756926
 20
4278.573730672957
 30
0.0000000000004547
 10
11.99897694444007
 20
4278.467388334035
 30
0.0000000000004547
  0
SPLINE
  5
A6
330
1F
100
AcDbEntity
  8
Make2D$可见线$普通线
100
AcDbSpline
210
0.0
220
0.0
230
1.0
 70
     8
 71
     3
 72
     9
 73
     5
 74
     0
 42
0.000000001
 43
0.0000000001
 12
1.0
 22
0.0
 32
0.0
 13
1.0
 23
0.0
 33
0.0
 40
0.0
 40
0.0
 40
0.0
 40
0.0
 40
0.2349590640921895
 40
1.0
 40
1.0
 40
1.0
 40
1.0
 10
16.73734694444011
 20
4278.438460556255
 30
0.0000000000004547
 10
16.44047064718006
 20
4278.414195866893
 30
0.0000000000004547
 10
15.17467683734731
 20
4278.363299346403
 30
0.0000000000004547
 10
13.89403138950547
 20
4278.388439525264
 30
0.0000000000004547
 10
12.94015277777999
 20
4278.563837778478
 30
0.0000000000004547
  0
SPLINE
  5
A7
330
1F
100
AcDbEntity
  8
Make2D$可见线$普通线
100
AcDbSpline
210
0.0
220
0.0
230
1.0
 70
     8
 71
     3
 72
     9
 73
     5
 74
     0
 42
0.000000001
 43
0.0000000001
 12
1.0
 22
0.0
 32
0.0
 13
1.0
 23
0.0
 33
0.0
 40
0.0
 40
0.0
 40
0.0
 40
0.0
 40
0.5478704775886836
 40
1.0
 40
1.0
 40
1.0
 40
1.0
 10
17.34126722222027
 20
4278.717155000701
 30
0.0000000000004547
 10
17.41338383066659
 20
4278.736758918974
 30
0.0000000000004547
 10
17.64434226143885
 20
4278.769634400447
 30
0.0000000000004547
 10
17.53784167582899
 20
4278.578167232086
 30
0.0000000000004547
 10
17.49423166666838
 20
4278.534557222925
 30
0.0000000000004547
  0
SPLINE
  5
A8
330
1F
100
AcDbEntity
  8
Make2D$可见线$普通线
100
AcDbSpline
210
0.0
220
0.0
230
1.0
 70
     8
 71
     3
 72
     8
 73
     4
 74
     0
 42
0.000000001
 43
0.0000000001
 12
1.0
 22
0.0
 32
0.0
 13
1.0
 23
0.0
 33
0.0
 40
0.0
 40
0.0
 40
0.0
 40
0.0
 40
1.0
 40
1.0
 40
1.0
 40
1.0
 10
11.9107825000001
 20
4278.870789722923
 30
0.0000000000004547
 10
12.12616316123149
 20
4279.036350315826
 30
0.0000000000004547
 10
12.45991231625612
 20
4279.398971013561
 30
0.0000000000004547
 10
12.65285055555887
 20
4279.207727778477
 30
0.0000000000004547
  0
ARC
  5
A9
330
1F
100
AcDbEntity
  8
Make2D$可见线$普通线
100
AcDbCircle
 10
11.74365498771772
 20
4279.139283869156
 30
0.0000000000008142
 40
0.3162605127470882
100
AcDbArc
 50
231.7871534424402
 51
301.9007113740709
  0
ARC
  5
AA
330
1F
100
AcDbEntity
  8
Make2D$可见线$普通线
100
AcDbCircle
 10
9.321161713422043
 20
4276.40712992362
 30
0.0000000000002277
 40
3.335787942010489
100
AcDbArc
 50
48.12049757589526
 51
56.4886318332704
  0
SPLINE
  5
AB
330
1F
100
AcDbEntity
  8
Make2D$可见线$普通线
100
AcDbSpline
210
0.0
220
0.0
230
1.0
 70
     8
 71
     3
 72
     9
 73
     5
 74
     0
 42
0.000000001
 43
0.0000000001
 12
1.0
 22
0.0
 32
0.0
 13
1.0
 23
0.0
 33
0.0
 40
0.0
 40
0.0
 40
0.0
 40
0.0
 40
0.3832754689713831
 40
1.0
 40
1.0
 40
1.0
 40
1.0
 10
9.961191388890256
 20
4279.6487000007
 30
0.0000000000004547
 10
10.04555885617219
 20
4279.641040048044
 30
0.0000000000004547
 10
10.27484135721943
 20
4279.615845510116
 30
0.0000000000004547
 10
10.42634089944022
 20
4279.41804609855
 30
0.0000000000004547
 10
10.55752694444027
 20
4279.381012222924
 30
0.0000000000004547
  0
ARC
  5
AC
330
1F
100
AcDbEntity
  8
Make2D$可见线$普通线
100
AcDbCircle
 10
8.487304010283879
 20
4279.268047218174
 30
0.0000000000002352
 40
0.3880830683126716
100
AcDbArc
 50
292.4530396643589
 51
334.5525887819856
  0
SPLINE
  5
AD
330
1F
100
AcDbEntity
  8
Make2D$可见线$普通线
100
AcDbSpline
210
0.0
220
0.0
230
1.0
 70
     8
 71
     3
 72
     9
 73
     5
 74
     0
 42
0.000000001
 43
0.0000000001
 12
1.0
 22
0.0
 32
0.0
 13
1.0
 23
0.0
 33
0.0
 40
0.0
 40
0.0
 40
0.0
 40
0.0
 40
0.2374560358660538
 40
1.0
 40
1.0
 40
1.0
 40
1.0
 10
6.839601944444439
 20
4278.698881111812
 30
0.0000000000004547
 10
6.771714715036524
 20
4278.568720955511
 30
0.0000000000004547
 10
7.90442589625809
 20
4278.551471326849
 30
0.0000000000004547
 10
8.18755735209561
 20
4278.762535666629
 30
0.0000000000004547
 10
8.635523055559588
 20
4278.909383611812
 30
0.0000000000004547
  0
ARC
  5
AE
330
1F
100
AcDbEntity
  8
Make2D$可见线$普通线
100
AcDbCircle
 10
23.93330368717814
 20
4269.318198690668
 30
0.0000000000004547
 40
19.4985087110753
100
AcDbArc
 50
133.8584707328894
 51
151.2428985767412
  0
SPLINE
  5
AF
330
1F
100
AcDbEntity
  8
Make2D$可见线$普通线
100
AcDbSpline
210
0.0
220
0.0
230
1.0
 70
     8
 71
     3
 72
     9
 73
     5
 74
     0
 42
0.000000001
 43
0.0000000001
 12
1.0
 22
0.0
 32
0.0
 13
1.0
 23
0.0
 33
0.0
 40
0.0
 40
0.0
 40
0.0
 40
0.0
 40
0.7649938524045148
 40
1.0
 40
1.0
 40
1.0
 40
1.0
 10
6.406531944443941
 20
4279.70761388959
 30
0.0000000000004547
 10
7.552966195043609
 20
4280.527690944764
 30
0.0000000000004547
 10
8.73176029872775
 20
4281.993675894913
 30
0.0000000000004547
 10
9.90195372360131
 20
4283.411122195495
 30
0.0000000000004547
 10
10.19099083333231
 20
4283.733549167366
 30
0.0000000000004547
  0
ARC
  5
B0
330
1F
100
AcDbEntity
  8
Make2D$可见线$普通线
100
AcDbCircle
 10
21.24877204451423
 20
4257.083408054053
 30
0.0000000000004547
 40
27.05821096962803
100
AcDbArc
 50
123.2662222459482
 51
126.1640693472938
  0
SPLINE
  5
B1
330
1F
100
AcDbEntity
  8
Make2D$可见线$普通线
100
AcDbSpline
210
0.0
220
0.0
230
1.0
 70
     8
 71
     3
 72
    10
 73
     6
 74
     0
 42
0.000000001
 43
0.0000000001
 12
1.0
 22
0.0
 32
0.0
 13
1.0
 23
0.0
 33
0.0
 40
0.0
 40
0.0
 40
0.0
 40
0.0
 40
0.1819832721663754
 40
0.4033718273453039
 40
1.0
 40
1.0
 40
1.0
 40
1.0
 10
4.215111666666871
 20
4278.880455834034
 30
0.0000000000004547
 10
4.190755106305915
 20
4278.80426538127
 30
0.0000000000004547
 10
4.23828521816813
 20
4278.569353298821
 30
0.0000000000004547
 10
4.76368587683919
 20
4278.643325481595
 30
0.0000000000004547
 10
5.075184194743542
 20
4278.766749704666
 30
0.0000000000004547
 10
5.281735277777898
 20
4278.928327778478
 30
0.0000000000004547
  0
SPLINE
  5
B2
330
1F
100
AcDbEntity
  8
Make2D$可见线$普通线
100
AcDbSpline
210
0.0
220
0.0
230
1.0
 70
     8
 71
     3
 72
     9
 73
     5
 74
     0
 42
0.000000001
 43
0.0000000001
 12
1.0
 22
0.0
 32
0.0
 13
1.0
 23
0.0
 33
0.0
 40
0.0
 40
0.0
 40
0.0
 40
0.0
 40
0.4106178921969302
 40
1.0
 40
1.0
 40
1.0
 40
1.0
 10
3.792766111110723
 20
4279.399286111811
 30
0.0000000000004547
 10
3.892582708280315
 20
4279.4826214776
 30
0.0000000000004547
 10
4.355374313598077
 20
4279.54117604549
 30
0.0000000000004547
 10
4.273443053645678
 20
4279.057747388693
 30
0.0000000000004547
 10
4.215111666666871
 20
4278.880455834034
 30
0.0000000000004547
  0
ARC
  5
B3
330
1F
100
AcDbEntity
  8
Make2D$可见线$普通线
100
AcDbCircle
 10
-21.81259743227884
 20
4307.869026193706
 30
0.0000000000004547
 40
38.29047848381895
100
AcDbArc
 50
310.1748441905516
 51
311.9678569706741
  0
SPLINE
  5
B4
330
1F
100
AcDbEntity
  8
Make2D$可见线$普通线
100
AcDbSpline
210
0.0
220
0.0
230
1.0
 70
     8
 71
     3
 72
     8
 73
     4
 74
     0
 42
0.000000001
 43
0.0000000001
 12
1.0
 22
0.0
 32
0.0
 13
1.0
 23
0.0
 33
0.0
 40
0.0
 40
0.0
 40
0.0
 40
0.0
 40
1.0
 40
1.0
 40
1.0
 40
1.0
 10
1.890729444444332
 20
4278.458427778478
 30
0.0000000000004547
 10
2.17328356239841
 20
4278.275093962244
 30
0.0000000000004547
 10
2.576222049930493
 20
4278.488205545418
 30
0.0000000000004547
 10
2.88944333333302
 20
4278.612062500701
 30
0.0000000000004547
  0
SPLINE
  5
B5
330
1F
100
AcDbEntity
  8
Make2D$可见线$普通线
100
AcDbSpline
210
0.0
220
0.0
230
1.0
 70
     8
 71
     3
 72
     8
 73
     4
 74
     0
 42
0.000000001
 43
0.0000000001
 12
1.0
 22
0.0
 32
0.0
 13
1.0
 23
0.0
 33
0.0
 40
0.0
 40
0.0
 40
0.0
 40
0.0
 40
1.0
 40
1.0
 40
1.0
 40
1.0
 10
1.735330833333137
 20
4279.091981389589
 30
0.0000000000004547
 10
1.586849848467409
 20
4278.933124542542
 30
0.0000000000004547
 10
1.706961844788111
 20
4278.574667057715
 30
0.0000000000004547
 10
1.890729444444332
 20
4278.458427778478
 30
0.0000000000004547
  0
ARC
  5
B6
330
1F
100
AcDbEntity
  8
Make2D$可见线$普通线
100
AcDbCircle
 10
-7.968062513990722
 20
4288.159116959224
 30
0.0000000000002277
 40
13.28039117989479
100
AcDbArc
 50
316.941390843133
 51
325.4156720484781
  0
ARC
  5
B7
330
1F
100
AcDbEntity
  8
Make2D$可见线$普通线
100
AcDbCircle
 10
145.9608580556451
 20
4185.276643114832
 30
0.0000000000004547
 40
171.8667588556804
100
AcDbArc
 50
145.6646359704675
 51
146.3060249813403
  0
ARC
  5
B8
330
1F
100
AcDbEntity
  8
Make2D$可见线$普通线
100
AcDbCircle
 10
33.90596597554266
 20
4263.411294616409
 30
0.0000000000002274
 40
35.29122622510103
100
AcDbArc
 50
145.9981463034944
 51
147.8028771042452
  0
SPLINE
  5
B9
330
1F
100
AcDbEntity
  8
Make2D$可见线$普通线
100
AcDbSpline
210
0.0
220
0.0
230
1.0
 70
     8
 71
     3
 72
     9
 73
     5
 74
     0
 42
0.000000001
 43
0.0000000001
 12
1.0
 22
0.0
 32
0.0
 13
1.0
 23
0.0
 33
0.0
 40
0.0
 40
0.0
 40
0.0
 40
0.0
 40
0.3815341845705073
 40
1.0
 40
1.0
 40
1.0
 40
1.0
 10
4.474861944444001
 20
4283.666380278479
 30
0.0000000000004547
 10
4.563076181806537
 20
4283.729223096183
 30
0.0000000000004547
 10
5.008666813196214
 20
4283.698454452868
 30
0.0000000000004547
 10
4.742292708966488
 20
4283.295483254169
 30
0.0000000000004547
 10
4.648851944444232
 20
4283.146844445146
 30
0.0000000000004547
  0
SPLINE
  5
BA
330
1F
100
AcDbEntity
  8
Make2D$可见线$普通线
100
AcDbSpline
210
0.0
220
0.0
230
1.0
 70
     8
 71
     3
 72
     9
 73
     5
 74
     0
 42
0.000000001
 43
0.0000000001
 12
1.0
 22
0.0
 32
0.0
 13
1.0
 23
0.0
 33
0.0
 40
0.0
 40
0.0
 40
0.0
 40
0.0
 40
0.2417271222207658
 40
1.0
 40
1.0
 40
1.0
 40
1.0
 10
1.371193611111266
 20
4279.168110834034
 30
0.0000000000004547
 10
1.519701514429471
 20
4279.585480479263
 30
0.0000000000004547
 10
2.268269892533226
 20
4281.250116848174
 30
0.0000000000004547
 10
3.342370157527057
 20
4282.861019952135
 30
0.0000000000004547
 10
4.474861944444001
 20
4283.666380278479
 30
0.0000000000004547
  0
ARC
  5
BB
330
1F
100
AcDbEntity
  8
Make2D$可见线$普通线
100
AcDbCircle
 10
-2.183933448762218
 20
4283.00711339969
 30
0.0000000000002292
 40
5.23229100021751
100
AcDbArc
 50
292.1141078448485
 51
312.8013795957787
  0
ARC
  5
BC
330
1F
100
AcDbEntity
  8
Make2D$可见线$普通线
100
AcDbCircle
 10
-0.2720709342465852
 20
4278.397188906791
 30
0.0000000000004547
 40
0.2444023085541314
100
AcDbArc
 50
190.6647189133989
 51
283.6908657682126
  0
SPLINE
  5
BD
330
1F
100
AcDbEntity
  8
Make2D$可见线$普通线
100
AcDbSpline
210
0.0
220
0.0
230
1.0
 70
     8
 71
     3
 72
     9
 73
     5
 74
     0
 42
0.000000001
 43
0.0000000001
 12
1.0
 22
0.0
 32
0.0
 13
1.0
 23
0.0
 33
0.0
 40
0.0
 40
0.0
 40
0.0
 40
0.0
 40
0.4342510291457986
 40
1.0
 40
1.0
 40
1.0
 40
1.0
 10
0.3628136111110507
 20
4279.716927222922
 30
0.0000000000004547
 10
0.5619758759576143
 20
4279.580120874036
 30
0.0000000000004547
 10
0.0260437372280649
 20
4278.876750091458
 30
0.0000000000004547
 10
-0.2169179602537952
 20
4278.460912248931
 30
0.0000000000004547
 10
-0.5122516666665433
 20
4278.351959445145
 30
0.0000000000004547
  0
SPLINE
  5
BE
330
1F
100
AcDbEntity
  8
Make2D$可见线$普通线
100
AcDbSpline
210
0.0
220
0.0
230
1.0
 70
     8
 71
     3
 72
     8
 73
     4
 74
     0
 42
0.000000001
 43
0.0000000001
 12
1.0
 22
0.0
 32
0.0
 13
1.0
 23
0.0
 33
0.0
 40
0.0
 40
0.0
 40
0.0
 40
0.0
 40
1.0
 40
1.0
 40
1.0
 40
1.0
 10
-0.3396374999997533
 20
4279.485751945145
 30
0.0000000000004547
 10
-0.1731595891201323
 20
4279.667547165489
 30
0.0000000000004547
 10
0.1566943207039913
 20
4279.852127944345
 30
0.0000000000004547
 10
0.3628136111110507
 20
4279.716927222922
 30
0.0000000000004547
  0
SPLINE
  5
BF
330
1F
100
AcDbEntity
  8
Make2D$可见线$普通线
100
AcDbSpline
210
0.0
220
0.0
230
1.0
 70
     8
 71
     3
 72
     9
 73
     5
 74
     0
 42
0.000000001
 43
0.0000000001
 12
1.0
 22
0.0
 32
0.0
 13
1.0
 23
0.0
 33
0.0
 40
0.0
 40
0.0
 40
0.0
 40
0.0
 40
0.5080175769766102
 40
1.0
 40
1.0
 40
1.0
 40
1.0
 10
-0.4740105555556511
 20
4279.563962778479
 30
0.0000000000004547
 10
-0.487515440516745
 20
4279.523644272978
 30
0.0000000000004547
 10
-0.481945121031913
 20
4279.387927124653
 30
0.0000000000004547
 10
-0.3668488227781381
 20
4279.454846035909
 30
0.0000000000004547
 10
-0.3396374999997533
 20
4279.485751945145
 30
0.0000000000004547
  0
SPLINE
  5
C0
330
1F
100
AcDbEntity
  8
Make2D$可见线$普通线
100
AcDbSpline
210
0.0
220
0.0
230
1.0
 70
     8
 71
     3
 72
     8
 73
     4
 74
     0
 42
0.000000001
 43
0.0000000001
 12
1.0
 22
0.0
 32
0.0
 13
1.0
 23
0.0
 33
0.0
 40
0.0
 40
0.0
 40
0.0
 40
0.0
 40
1.0
 40
1.0
 40
1.0
 40
1.0
 10
0.2752894444442973
 20
4281.071170556257
 30
0.0000000000004547
 10
0.3076426687171079
 20
4280.51104108756
 30
0.0000000000004547
 10
-0.071960841078635
 20
4279.95530378056
 30
0.0000000000004547
 10
-0.4740105555556511
 20
4279.563962778479
 30
0.0000000000004547
  0
ARC
  5
C1
330
1F
100
AcDbEntity
  8
Make2D$可见线$普通线
100
AcDbCircle
 10
-3.265347254994462
 20
4280.875731231198
 30
0.0000000000002334
 40
3.546026616819189
100
AcDbArc
 50
3.159458929769237
 51
40.0303239884461
  0
SPLINE
  5
C2
330
1F
100
AcDbEntity
  8
Make2D$可见线$普通线
100
AcDbSpline
210
0.0
220
0.0
230
1.0
 70
     8
 71
     3
 72
     9
 73
     5
 74
     0
 42
0.000000001
 43
0.0000000001
 12
1.0
 22
0.0
 32
0.0
 13
1.0
 23
0.0
 33
0.0
 40
0.0
 40
0.0
 40
0.0
 40
0.0
 40
0.4661137676289743
 40
1.0
 40
1.0
 40
1.0
 40
1.0
 10
-6.201463611110739
 20
4284.136985834033
 30
0.0000000000004547
 10
-5.292683598700478
 20
4284.303827623689
 30
0.0000000000004547
 10
-3.351405304642867
 20
4284.759504166201
 30
0.0000000000004547
 10
-1.248101253805999
 20
4283.952044932113
 30
0.0000000000004547
 10
-0.5501399999998284
 20
4283.156510556257
 30
0.0000000000004547
  0
SPLINE
  5
C3
330
1F
100
AcDbEntity
  8
Make2D$可见线$普通线
100
AcDbSpline
210
0.0
220
0.0
230
1.0
 70
     8
 71
     3
 72
     8
 73
     4
 74
     0
 42
0.000000001
 43
0.0000000001
 12
1.0
 22
0.0
 32
0.0
 13
1.0
 23
0.0
 33
0.0
 40
0.0
 40
0.0
 40
0.0
 40
0.0
 40
1.0
 40
1.0
 40
1.0
 40
1.0
 10
-7.267381666666552
 20
4283.579208889589
 30
0.0000000000004547
 10
-7.157423797173578
 20
4283.964851185468
 30
0.0000000000004547
 10
-6.594669759637782
 20
4284.058248052788
 30
0.0000000000004547
 10
-6.201463611110739
 20
4284.136985834033
 30
0.0000000000004547
  0
ARC
  5
C4
330
1F
100
AcDbEntity
  8
Make2D$可见线$普通线
100
AcDbCircle
 10
-6.715024519749704
 20
4283.430389584034
 30
0.0000000000004547
 40
0.2110334956750326
100
AcDbArc
 50
135.1548763529502
 51
224.8451236470498
  0
ARC
  5
C5
330
1F
100
AcDbEntity
  8
Make2D$可见线$普通线
100
AcDbCircle
 10
-4.435759597071979
 20
4278.667042202867
 30
0.0000000000004547
 40
5.479862484254398
100
AcDbArc
 50
90.87622864656832
 51
116.3107509838185
  0
SPLINE
  5
C6
330
1F
100
AcDbEntity
  8
Make2D$可见线$普通线
100
AcDbSpline
210
0.0
220
0.0
230
1.0
 70
     8
 71
     3
 72
     9
 73
     5
 74
     0
 42
0.000000001
 43
0.0000000001
 12
1.0
 22
0.0
 32
0.0
 13
1.0
 23
0.0
 33
0.0
 40
0.0
 40
0.0
 40
0.0
 40
0.0
 40
0.5401894128160161
 40
1.0
 40
1.0
 40
1.0
 40
1.0
 10
-0.5225880555553886
 20
4282.647311111812
 30
0.0000000000004547
 10
-1.008764999288815
 20
4283.286776158448
 30
0.0000000000004547
 10
-2.288283654047973
 20
4284.325755710095
 30
0.0000000000004547
 10
-3.837348526190908
 20
4284.192356992413
 30
0.0000000000004547
 10
-4.519560277778055
 20
4284.14626388959
 30
0.0000000000004547
  0
ARC
  5
C7
330
1F
100
AcDbEntity
  8
Make2D$可见线$普通线
100
AcDbCircle
 10
-1.548940789057497
 20
4280.59839828116
 30
0.0000000000004547
 40
1.245983792745464
100
AcDbArc
 50
276.6081198496241
 51
322.6009457477264
  0
SPLINE
  5
C8
330
1F
100
AcDbEntity
  8
Make2D$可见线$普通线
100
AcDbSpline
210
0.0
220
0.0
230
1.0
 70
     8
 71
     3
 72
     9
 73
     5
 74
     0
 42
0.000000001
 43
0.0000000001
 12
1.0
 22
0.0
 32
0.0
 13
1.0
 23
0.0
 33
0.0
 40
0.0
 40
0.0
 40
0.0
 40
0.0
 40
0.7323113656420084
 40
1.0
 40
1.0
 40
1.0
 40
1.0
 10
-5.104889166666908
 20
4279.101294722923
 30
0.0000000000004547
 10
-4.236417920305939
 20
4279.358470206154
 30
0.0000000000004547
 10
-2.968819461979365
 20
4279.342929632909
 30
0.0000000000004547
 10
-1.736367273082124
 20
4279.347194349439
 30
0.0000000000004547
 10
-1.405555555555566
 20
4279.360692222923
 30
0.0000000000004547
  0
SPLINE
  5
C9
330
1F
100
AcDbEntity
  8
Make2D$可见线$普通线
100
AcDbSpline
210
0.0
220
0.0
230
1.0
 70
     8
 71
     3
 72
    10
 73
     6
 74
     0
 42
0.000000001
 43
0.0000000001
 12
1.0
 22
0.0
 32
0.0
 13
1.0
 23
0.0
 33
0.0
 40
0.0
 40
0.0
 40
0.0
 40
0.0
 40
0.5665965164371565
 40
0.7652959762815139
 40
1.0
 40
1.0
 40
1.0
 40
1.0
 10
-5.171740555555516
 20
4279.870561945145
 30
0.0000000000004547
 10
-5.278408488747118
 20
4279.699798263391
 30
0.0000000000004547
 10
-5.406370059153232
 20
4279.479835676302
 30
0.0000000000004547
 10
-5.399861258826149
 20
4279.037998858445
 30
0.0000000000004547
 10
-5.182952308384756
 20
4279.071932661736
 30
0.0000000000004547
 10
-5.104889166666908
 20
4279.101294722923
 30
0.0000000000004547
  0
ARC
  5
CA
330
1F
100
AcDbEntity
  8
Make2D$可见线$普通线
100
AcDbCircle
 10
-90.94484604845039
 20
4323.843970968825
 30
0.0000000000004547
 40
96.38820636913623
100
AcDbArc
 50
332.857088058453
 51
333.6308854321992
  0
ARC
  5
CB
330
1F
100
AcDbEntity
  8
Make2D$可见线$普通线
100
AcDbCircle
 10
-3.834608584658261
 20
4282.480724899297
 30
0.0000000000004547
 40
0.2033557331980867
100
AcDbArc
 50
338.9031926505562
 51
65.61373682234857
  0
ARC
  5
CC
330
1F
100
AcDbEntity
  8
Make2D$可见线$普通线
100
AcDbCircle
 10
-3.768597429853571
 20
4282.414371501593
 30
0.0000000000004547
 40
0.2522059703567507
100
AcDbArc
 50
85.91833135079632
 51
156.9859048834433
  0
ARC
  5
CD
330
1F
100
AcDbEntity
  8
Make2D$可见线$普通线
100
AcDbCircle
 10
8.897197132153828
 20
4273.174522988935
 30
0.0000000000002277
 40
15.92366726461712
100
AcDbArc
 50
144.0944383098374
 51
153.2884090475382
  0
ARC
  5
CE
330
1F
100
AcDbEntity
  8
Make2D$可见线$普通线
100
AcDbCircle
 10
-3.57407130285992
 20
4270.666897331196
 30
0.0000000000002279
 40
8.534413397097865
100
AcDbArc
 50
105.5031589485102
 51
116.9401313856142
  0
SPLINE
  5
CF
330
1F
100
AcDbEntity
  8
Make2D$可见线$普通线
100
AcDbSpline
210
0.0
220
0.0
230
1.0
 70
     8
 71
     3
 72
     9
 73
     5
 74
     0
 42
0.000000001
 43
0.0000000001
 12
1.0
 22
0.0
 32
0.0
 13
1.0
 23
0.0
 33
0.0
 40
0.0
 40
0.0
 40
0.0
 40
0.0
 40
0.368366118408658
 40
1.0
 40
1.0
 40
1.0
 40
1.0
 10
-7.324566944444086
 20
4276.969105834034
 30
0.0000000000004547
 10
-7.445546423474298
 20
4276.964620094983
 30
0.0000000000004547
 10
-7.772817781975846
 20
4276.97056899921
 30
0.0000000000004547
 10
-8.100830467028572
 20
4277.175402838575
 30
0.0000000000004547
 10
-8.189966111111062
 20
4277.362876389589
 30
0.0000000000004547
  0
SPLINE
  5
D0
330
1F
100
AcDbEntity
  8
Make2D$可见线$普通线
100
AcDbSpline
210
0.0
220
0.0
230
1.0
 70
     8
 71
     3
 72
     9
 73
     5
 74
     0
 42
0.000000001
 43
0.0000000001
 12
1.0
 22
0.0
 32
0.0
 13
1.0
 23
0.0
 33
0.0
 40
0.0
 40
0.0
 40
0.0
 40
0.0
 40
0.23457213555112
 40
1.0
 40
1.0
 40
1.0
 40
1.0
 10
-2.396367222222125
 20
4278.303734722924
 30
0.0000000000004547
 10
-2.765242029801357
 20
4278.148446505777
 30
0.0000000000004547
 10
-4.328112905655871
 20
4277.492196496285
 30
0.0000000000004547
 10
-6.020450319360862
 20
4276.899388640282
 30
0.0000000000004547
 10
-7.324566944444086
 20
4276.969105834034
 30
0.0000000000004547
  0
SPLINE
  5
D1
330
1F
100
AcDbEntity
  8
Make2D$可见线$普通线
100
AcDbSpline
210
0.0
220
0.0
230
1.0
 70
     8
 71
     3
 72
     9
 73
     5
 74
     0
 42
0.000000001
 43
0.0000000001
 12
1.0
 22
0.0
 32
0.0
 13
1.0
 23
0.0
 33
0.0
 40
0.0
 40
0.0
 40
0.0
 40
0.0
 40
0.5808423313256655
 40
1.0
 40
1.0
 40
1.0
 40
1.0
 10
-10.41930999999977
 20
4277.967502222924
 30
0.0000000000004547
 10
-10.51307218979173
 20
4277.810468910126
 30
0.0000000000004547
 10
-10.73797648875825
 20
4277.474450024536
 30
0.0000000000004547
 10
-10.39660130501579
 20
4277.208888889589
 30
0.0000000000004547
 10
-10.26461694444379
 20
4277.208888889589
 30
0.0000000000004547
  0
SPLINE
  5
D2
330
1F
100
AcDbEntity
  8
Make2D$可见线$普通线
100
AcDbSpline
210
0.0
220
0.0
230
1.0
 70
     8
 71
     3
 72
     8
 73
     4
 74
     0
 42
0.000000001
 43
0.0000000001
 12
1.0
 22
0.0
 32
0.0
 13
1.0
 23
0.0
 33
0.0
 40
0.0
 40
0.0
 40
0.0
 40
0.0
 40
1.0
 40
1.0
 40
1.0
 40
1.0
 10
-9.88083000000006
 20
4278.592448056255
 30
0.0000000000004547
 10
-10.14747727878512
 20
4278.659622012396
 30
0.0000000000004547
 10
-10.27985700212321
 20
4278.204495836866
 30
0.0000000000004547
 10
-10.41930999999977
 20
4277.967502222924
 30
0.0000000000004547
  0
ARC
  5
D3
330
1F
100
AcDbEntity
  8
Make2D$可见线$普通线
100
AcDbCircle
 10
-11.98905833958895
 20
4277.919026825802
 30
0.0000000000004547
 40
0.1483493798608974
100
AcDbArc
 50
4.21538322555379
 51
103.4932331514848
  0
SPLINE
  5
D4
330
1F
100
AcDbEntity
  8
Make2D$可见线$普通线
100
AcDbSpline
210
0.0
220
0.0
230
1.0
 70
     8
 71
     3
 72
     8
 73
     4
 74
     0
 42
0.000000001
 43
0.0000000001
 12
1.0
 22
0.0
 32
0.0
 13
1.0
 23
0.0
 33
0.0
 40
0.0
 40
0.0
 40
0.0
 40
0.0
 40
1.0
 40
1.0
 40
1.0
 40
1.0
 10
-15.7902105555595
 20
4277.631269722924
 30
0.0000000000004547
 10
-15.98572883011548
 20
4277.728313723861
 30
0.0000000000004547
 10
-16.1538159125821
 20
4277.341662732368
 30
0.0000000000004547
 10
-16.2136144444421
 20
4277.131736389591
 30
0.0000000000004547
  0
SPLINE
  5
D5
330
1F
100
AcDbEntity
  8
Make2D$可见线$普通线
100
AcDbSpline
210
0.0
220
0.0
230
1.0
 70
     8
 71
     3
 72
     8
 73
     4
 74
     0
 42
0.000000001
 43
0.0000000001
 12
1.0
 22
0.0
 32
0.0
 13
1.0
 23
0.0
 33
0.0
 40
0.0
 40
0.0
 40
0.0
 40
0.0
 40
1.0
 40
1.0
 40
1.0
 40
1.0
 10
-16.2136144444421
 20
4277.131736389591
 30
0.0000000000004547
 10
-16.26963114891259
 20
4276.920769419128
 30
0.0000000000004547
 10
-15.5967642917044
 20
4277.530158512822
 30
0.0000000000004547
 10
-15.7902105555595
 20
4277.631269722924
 30
0.0000000000004547
  0
SPLINE
  5
D6
330
1F
100
AcDbEntity
  8
Make2D$可见线$普通线
100
AcDbSpline
210
0.0
220
0.0
230
1.0
 70
     8
 71
     3
 72
     9
 73
     5
 74
     0
 42
0.000000001
 43
0.0000000001
 12
1.0
 22
0.0
 32
0.0
 13
1.0
 23
0.0
 33
0.0
 40
0.0
 40
0.0
 40
0.0
 40
0.0
 40
0.6380715744453743
 40
1.0
 40
1.0
 40
1.0
 40
1.0
 10
-20.78646111111084
 20
4273.768282500698
 30
0.0000000000004547
 10
-20.63417717798302
 20
4274.008290295884
 30
0.0000000000004547
 10
-20.49379128712872
 20
4274.189718345446
 30
0.0000000000004547
 10
-19.95286478946218
 20
4274.919275832812
 30
0.0000000000004547
 10
-20.11396083333011
 20
4274.912728889589
 30
0.0000000000004547
  0
LINE
  5
D7
330
1F
100
AcDbEntity
  8
Make2D$可见线$普通线
100
AcDbLine
 10
-22.24805472221851
 20
4271.894820834035
 30
0.0000000000004547
 11
-20.78646111111084
 21
4273.768282500698
 31
0.0000000000004547
  0
SPLINE
  5
D8
330
1F
100
AcDbEntity
  8
Make2D$可见线$普通线
100
AcDbSpline
210
0.0
220
0.0
230
1.0
 70
     8
 71
     3
 72
    10
 73
     6
 74
     0
 42
0.000000001
 43
0.0000000001
 12
1.0
 22
0.0
 32
0.0
 13
1.0
 23
0.0
 33
0.0
 40
0.0
 40
0.0
 40
0.0
 40
0.0
 40
0.1767373214341642
 40
0.4649558149571879
 40
1.0
 40
1.0
 40
1.0
 40
1.0
 10
-20.11396083333011
 20
4274.912728889589
 30
0.0000000000004547
 10
-20.4030673105708
 20
4274.904355733368
 30
0.0000000000004547
 10
-21.03750329259901
 20
4274.339170298786
 30
0.0000000000004547
 10
-22.12376910596868
 20
4273.219745259617
 30
0.0000000000004547
 10
-23.0615165143945
 20
4272.12122306225
 30
0.0000000000004547
 10
-23.30515333333096
 20
4271.280211389587
 30
0.0000000000004547
  0
SPLINE
  5
D9
330
1F
100
AcDbEntity
  8
Make2D$可见线$普通线
100
AcDbSpline
210
0.0
220
0.0
230
1.0
 70
     8
 71
     3
 72
     8
 73
     4
 74
     0
 42
0.000000001
 43
0.0000000001
 12
1.0
 22
0.0
 32
0.0
 13
1.0
 23
0.0
 33
0.0
 40
0.0
 40
0.0
 40
0.0
 40
0.0
 40
1.0
 40
1.0
 40
1.0
 40
1.0
 10
-22.3343441666666
 20
4276.804781945144
 30
0.0000000000004547
 10
-22.34639844290223
 20
4276.69241234738
 30
0.0000000000004547
 10
-22.52810542189764
 20
4276.660425278478
 30
0.0000000000004547
 10
-22.64111972222008
 20
4276.660425278478
 30
0.0000000000004547
  0
SPLINE
  5
DA
330
1F
100
AcDbEntity
  8
Make2D$可见线$普通线
100
AcDbSpline
210
0.0
220
0.0
230
1.0
 70
     8
 71
     3
 72
     9
 73
     5
 74
     0
 42
0.000000001
 43
0.0000000001
 12
1.0
 22
0.0
 32
0.0
 13
1.0
 23
0.0
 33
0.0
 40
0.0
 40
0.0
 40
0.0
 40
0.0
 40
0.2224972341762539
 40
1.0
 40
1.0
 40
1.0
 40
1.0
 10
-21.17091833333143
 20
4278.447385834035
 30
0.0000000000004547
 10
-21.28119944335458
 20
4278.345622164868
 30
0.0000000000004547
 10
-21.76560458453923
 20
4277.886074217822
 30
0.0000000000004547
 10
-22.23151660805433
 20
4277.318973659316
 30
0.0000000000004547
 10
-22.3343441666666
 20
4276.804781945144
 30
0.0000000000004547
  0
LINE
  5
DB
330
1F
100
AcDbEntity
  8
Make2D$可见线$普通线
100
AcDbLine
 10
-16.2032780555578
 20
4283.108603334033
 30
0.0000000000004547
 11
-21.17091833333143
 21
4278.447385834035
 31
0.0000000000004547
  0
SPLINE
  5
DC
330
1F
100
AcDbEntity
  8
Make2D$可见线$普通线
100
AcDbSpline
210
0.0
220
0.0
230
1.0
 70
     8
 71
     3
 72
     9
 73
     5
 74
     0
 42
0.000000001
 43
0.0000000001
 12
1.0
 22
0.0
 32
0.0
 13
1.0
 23
0.0
 33
0.0
 40
0.0
 40
0.0
 40
0.0
 40
0.0
 40
0.8029809639902333
 40
1.0
 40
1.0
 40
1.0
 40
1.0
 10
-14.52239777778004
 20
4284.232765000701
 30
0.0000000000004547
 10
-15.05901313818185
 20
4284.320059595242
 30
0.0000000000004547
 10
-15.64083427377091
 20
4283.661452443788
 30
0.0000000000004547
 10
-16.10710568656395
 20
4283.201042280783
 30
0.0000000000004547
 10
-16.2032780555578
 20
4283.108603334033
 30
0.0000000000004547
  0
LINE
  5
DD
330
1F
100
AcDbEntity
  8
Make2D$可见线$普通线
100
AcDbLine
 10
-18.29856638888987
 20
4277.391486667368
 30
0.0000000000004547
 11
-15.26139666666859
 21
4282.032384167367
 31
0.0000000000004547
  0
LINE
  5
DE
330
1F
100
AcDbEntity
  8
Make2D$可见线$普通线
100
AcDbLine
 10
-19.10491055555576
 20
4276.084762500697
 30
0.0000000000004547
 11
-18.29856638888987
 21
4277.391486667368
 31
0.0000000000004547
  0
SPLINE
  5
DF
330
1F
100
AcDbEntity
  8
Make2D$可见线$普通线
100
AcDbSpline
210
0.0
220
0.0
230
1.0
 70
     8
 71
     3
 72
     9
 73
     5
 74
     0
 42
0.000000001
 43
0.0000000001
 12
1.0
 22
0.0
 32
0.0
 13
1.0
 23
0.0
 33
0.0
 40
0.0
 40
0.0
 40
0.0
 40
0.0
 40
0.8023230870417857
 40
1.0
 40
1.0
 40
1.0
 40
1.0
 10
-20.22956611111113
 20
4275.27654861181
 30
0.0000000000004547
 10
-19.91542584153967
 20
4275.477262269193
 30
0.0000000000004547
 10
-19.48469764332185
 20
4275.667668898053
 30
0.0000000000004547
 10
-19.15030620622656
 20
4276.004917668315
 30
0.0000000000004547
 10
-19.10491055555576
 20
4276.084762500697
 30
0.0000000000004547
  0
SPLINE
  5
E0
330
1F
100
AcDbEntity
  8
Make2D$可见线$普通线
100
AcDbSpline
210
0.0
220
0.0
230
1.0
 70
     8
 71
     3
 72
     9
 73
     5
 74
     0
 42
0.000000001
 43
0.0000000001
 12
1.0
 22
0.0
 32
0.0
 13
1.0
 23
0.0
 33
0.0
 40
0.0
 40
0.0
 40
0.0
 40
0.0
 40
0.4709625945045672
 40
1.0
 40
1.0
 40
1.0
 40
1.0
 10
-23.6799797222202
 20
4270.837863334038
 30
0.0000000000004547
 10
-23.55601383002931
 20
4271.725681060334
 30
0.0000000000004547
 10
-22.44487609444741
 20
4273.408288911838
 30
0.0000000000004547
 10
-21.07506891001412
 20
4274.729635331229
 30
0.0000000000004547
 10
-20.22956611111113
 20
4275.27654861181
 30
0.0000000000004547
  0
SPLINE
  5
E1
330
1F
100
AcDbEntity
  8
Make2D$可见线$普通线
100
AcDbSpline
210
0.0
220
0.0
230
1.0
 70
     8
 71
     3
 72
    23
 73
    19
 74
     0
 42
0.000000001
 43
0.0000000001
 12
1.0
 22
0.0
 32
0.0
 13
1.0
 23
0.0
 33
0.0
 40
0.0
 40
0.0
 40
0.0
 40
0.0
 40
0.3296590442693598
 40
0.7435172638451683
 40
1.07969846885599
 40
2.010190058304583
 40
2.345258186922127
 40
3.08057210335159
 40
4.059676356147907
 40
4.735256484257395
 40
5.892683274459997
 40
6.156485397414841
 40
6.708767718383509
 40
6.906460059588344
 40
7.019749450635233
 40
7.112788557535323
 40
7.214463221284861
 40
7.625614697993568
 40
7.625614697993568
 40
7.625614697993568
 40
7.625614697993568
 10
-19.10491055555758
 20
4275.585229167365
 30
0.0000000000004547
 10
-19.1957098706871
 20
4275.523306939916
 30
0.0000000000004547
 10
-19.38661249798042
 20
4275.363708139313
 30
0.0000000000004547
 10
-19.62080763585709
 20
4275.089054559681
 30
0.0000000000004547
 10
-19.93964900414267
 20
4274.628400870108
 30
0.0000000000004547
 10
-20.21698886948388
 20
4274.171568541163
 30
0.0000000000004547
 10
-20.61615245610665
 20
4273.636596680542
 30
0.0000000000004547
 10
-21.02667721161652
 20
4273.090884392444
 30
0.0000000000004547
 10
-21.49219330767346
 20
4272.444035067623
 30
0.0000000000004547
 10
-22.06540613314564
 20
4271.702403821196
 30
0.0000000000004547
 10
-22.51075489280583
 20
4271.163523386957
 30
0.0000000000004547
 10
-22.9193950360409
 20
4270.647935902096
 30
0.0000000000004547
 10
-23.19037983849739
 20
4270.437572950183
 30
0.0000000000004547
 10
-23.43757172411642
 20
4270.294173175929
 30
0.0000000000004547
 10
-23.57673328776991
 20
4270.263316509414
 30
0.0000000000004547
 10
-23.66452751269571
 20
4270.329841991397
 30
0.0000000000004547
 10
-23.7151092243862
 20
4270.529304793081
 30
0.0000000000004547
 10
-23.69611589189026
 20
4270.702511301808
 30
0.0000000000004547
 10
-23.67997972222065
 20
4270.837863334038
 30
0.0000000000004547
  0
SPLINE
  5
E2
330
1F
100
AcDbEntity
  8
Make2D$可见线$普通线
100
AcDbSpline
210
0.0
220
0.0
230
1.0
 70
     8
 71
     3
 72
     9
 73
     5
 74
     0
 42
0.000000001
 43
0.0000000001
 12
1.0
 22
0.0
 32
0.0
 13
1.0
 23
0.0
 33
0.0
 40
0.0
 40
0.0
 40
0.0
 40
0.0
 40
0.6655542698724918
 40
1.0
 40
1.0
 40
1.0
 40
1.0
 10
-16.66527583332982
 20
4276.410658611812
 30
0.0000000000004547
 10
-17.24476315339689
 20
4276.376700418359
 30
0.0000000000004547
 10
-18.0857210582808
 20
4276.217346500684
 30
0.0000000000004547
 10
-18.94350398791084
 20
4275.828199324453
 30
0.0000000000004547
 10
-19.10491055555758
 20
4275.585229167365
 30
0.0000000000004547
  0
SPLINE
  5
E3
330
1F
100
AcDbEntity
  8
Make2D$可见线$普通线
100
AcDbSpline
210
0.0
220
0.0
230
1.0
 70
     8
 71
     3
 72
     8
 73
     4
 74
     0
 42
0.000000001
 43
0.0000000001
 12
1.0
 22
0.0
 32
0.0
 13
1.0
 23
0.0
 33
0.0
 40
0.0
 40
0.0
 40
0.0
 40
0.0
 40
1.0
 40
1.0
 40
1.0
 40
1.0
 10
-15.40540055555994
 20
4276.891953334034
 30
0.0000000000004547
 10
-15.60939755057507
 20
4276.864381789152
 30
0.0000000000004547
 10
-15.85166287723223
 20
4276.905534975667
 30
0.0000000000004547
 10
-16.01207249999925
 20
4276.776524445144
 30
0.0000000000004547
  0
SPLINE
  5
E4
330
1F
100
AcDbEntity
  8
Make2D$可见线$普通线
100
AcDbSpline
210
0.0
220
0.0
230
1.0
 70
     8
 71
     3
 72
     8
 73
     4
 74
     0
 42
0.000000001
 43
0.0000000001
 12
1.0
 22
0.0
 32
0.0
 13
1.0
 23
0.0
 33
0.0
 40
0.0
 40
0.0
 40
0.0
 40
0.0
 40
1.0
 40
1.0
 40
1.0
 40
1.0
 10
-13.09957444444035
 20
4277.084534722922
 30
0.0000000000004547
 10
-13.39176944491601
 20
4277.1261897821
 30
0.0000000000004547
 10
-13.65236615150252
 20
4276.875392149585
 30
0.0000000000004547
 10
-13.93639861110978
 20
4276.795151111812
 30
0.0000000000004547
  0
ARC
  5
E5
330
1F
100
AcDbEntity
  8
Make2D$可见线$普通线
100
AcDbCircle
 10
-14.18369603583255
 20
4274.572511387781
 30
0.0000000000002276
 40
2.735978958475278
100
AcDbArc
 50
59.88361567232266
 51
66.65627351414018
  0
SPLINE
  5
E6
330
1F
100
AcDbEntity
  8
Make2D$可见线$普通线
100
AcDbSpline
210
0.0
220
0.0
230
1.0
 70
     8
 71
     3
 72
     8
 73
     4
 74
     0
 42
0.000000001
 43
0.0000000001
 12
1.0
 22
0.0
 32
0.0
 13
1.0
 23
0.0
 33
0.0
 40
0.0
 40
0.0
 40
0.0
 40
0.0
 40
1.0
 40
1.0
 40
1.0
 40
1.0
 10
-11.51415583333301
 20
4277.939244722924
 30
0.0000000000004547
 10
-11.62504686624197
 20
4277.404762197451
 30
0.0000000000004547
 10
-12.30468086914789
 20
4276.734914361283
 30
0.0000000000004547
 10
-12.81089638888989
 20
4276.9391550007
 30
0.0000000000004547
  0
SPLINE
  5
E7
330
1F
100
AcDbEntity
  8
Make2D$可见线$普通线
100
AcDbSpline
210
0.0
220
0.0
230
1.0
 70
     8
 71
     3
 72
     8
 73
     4
 74
     0
 42
0.000000001
 43
0.0000000001
 12
1.0
 22
0.0
 32
0.0
 13
1.0
 23
0.0
 33
0.0
 40
0.0
 40
0.0
 40
0.0
 40
0.0
 40
1.0
 40
1.0
 40
1.0
 40
1.0
 10
-11.41770638888875
 20
4278.245879167367
 30
0.0000000000004547
 10
-11.51694635318472
 20
4278.205478337848
 30
0.0000000000004547
 10
-11.49382005539837
 20
4278.044445738484
 30
0.0000000000004547
 10
-11.51415583333301
 20
4277.939244722924
 30
0.0000000000004547
  0
SPLINE
  5
E8
330
1F
100
AcDbEntity
  8
Make2D$可见线$普通线
100
AcDbSpline
210
0.0
220
0.0
230
1.0
 70
     8
 71
     3
 72
     8
 73
     4
 74
     0
 42
0.000000001
 43
0.0000000001
 12
1.0
 22
0.0
 32
0.0
 13
1.0
 23
0.0
 33
0.0
 40
0.0
 40
0.0
 40
0.0
 40
0.0
 40
1.0
 40
1.0
 40
1.0
 40
1.0
 10
-10.50542305555564
 20
4278.486685278478
 30
0.0000000000004547
 10
-10.51746978373058
 20
4278.800964409629
 30
0.0000000000004547
 10
-11.12632818104021
 20
4278.364265129061
 30
0.0000000000004547
 10
-11.41770638888875
 20
4278.245879167367
 30
0.0000000000004547
  0
SPLINE
  5
E9
330
1F
100
AcDbEntity
  8
Make2D$可见线$普通线
100
AcDbSpline
210
0.0
220
0.0
230
1.0
 70
     8
 71
     3
 72
     9
 73
     5
 74
     0
 42
0.000000001
 43
0.0000000001
 12
1.0
 22
0.0
 32
0.0
 13
1.0
 23
0.0
 33
0.0
 40
0.0
 40
0.0
 40
0.0
 40
0.0
 40
0.3331225959126425
 40
1.0
 40
1.0
 40
1.0
 40
1.0
 10
-10.81308055555564
 20
4277.775273611811
 30
0.0000000000004547
 10
-10.78104493447199
 20
4277.855161288169
 30
0.0000000000004547
 10
-10.68616625021286
 20
4278.09028136302
 30
0.0000000000004547
 10
-10.49260652360272
 20
4278.314856032601
 30
0.0000000000004547
 10
-10.50542305555564
 20
4278.486685278478
 30
0.0000000000004547
  0
SPLINE
  5
EA
330
1F
100
AcDbEntity
  8
Make2D$可见线$普通线
100
AcDbSpline
210
0.0
220
0.0
230
1.0
 70
     8
 71
     3
 72
     9
 73
     5
 74
     0
 42
0.000000001
 43
0.0000000001
 12
1.0
 22
0.0
 32
0.0
 13
1.0
 23
0.0
 33
0.0
 40
0.0
 40
0.0
 40
0.0
 40
0.0
 40
0.5208792914092861
 40
1.0
 40
1.0
 40
1.0
 40
1.0
 10
-9.372336111111053
 20
4277.813514722922
 30
0.0000000000004547
 10
-9.453213673351456
 20
4277.561048152751
 30
0.0000000000004547
 10
-9.774655247703777
 20
4277.191878661222
 30
0.0000000000004547
 10
-10.21717421337189
 20
4276.750193356809
 30
0.0000000000004547
 10
-10.4568455555559
 20
4276.795151111812
 30
0.0000000000004547
  0
SPLINE
  5
EB
330
1F
100
AcDbEntity
  8
Make2D$可见线$普通线
100
AcDbSpline
210
0.0
220
0.0
230
1.0
 70
     8
 71
     3
 72
     8
 73
     4
 74
     0
 42
0.000000001
 43
0.0000000001
 12
1.0
 22
0.0
 32
0.0
 13
1.0
 23
0.0
 33
0.0
 40
0.0
 40
0.0
 40
0.0
 40
0.0
 40
1.0
 40
1.0
 40
1.0
 40
1.0
 10
-9.122569444443798
 20
4279.696607222922
 30
0.0000000000004547
 10
-9.337885422899035
 20
4279.481869069834
 30
0.0000000000004547
 10
-9.814420804730162
 20
4279.233995421837
 30
0.0000000000004547
 10
-9.669657222222213
 20
4278.966568889589
 30
0.0000000000004547
  0
SPLINE
  5
EC
330
1F
100
AcDbEntity
  8
Make2D$可见线$普通线
100
AcDbSpline
210
0.0
220
0.0
230
1.0
 70
     8
 71
     3
 72
     9
 73
     5
 74
     0
 42
0.000000001
 43
0.0000000001
 12
1.0
 22
0.0
 32
0.0
 13
1.0
 23
0.0
 33
0.0
 40
0.0
 40
0.0
 40
0.0
 40
0.0
 40
0.4897788835567293
 40
1.0
 40
1.0
 40
1.0
 40
1.0
 10
-8.054605277777682
 20
4280.802142222923
 30
0.0000000000004547
 10
-8.135365638847816
 20
4280.564490087236
 30
0.0000000000004547
 10
-8.613421234429552
 20
4280.263336238953
 30
0.0000000000004547
 10
-8.93764079706898
 20
4279.8814610307
 30
0.0000000000004547
 10
-9.122569444443798
 20
4279.696607222922
 30
0.0000000000004547
  0
ARC
  5
ED
330
1F
100
AcDbEntity
  8
Make2D$可见线$普通线
100
AcDbCircle
 10
-8.193018442305554
 20
4280.86946739349
 30
0.0000000000004547
 40
0.1539184287437766
100
AcDbArc
 50
334.0613744215325
 51
131.7008653362353
  0
ARC
  5
EE
330
1F
100
AcDbEntity
  8
Make2D$可见线$普通线
100
AcDbCircle
 10
-94.02856998256786
 20
4364.551378331698
 30
0.0000000000004547
 40
119.7230825088591
100
AcDbArc
 50
314.5658134570345
 51
315.7330500461571
  0
ARC
  5
EF
330
1F
100
AcDbEntity
  8
Make2D$可见线$普通线
100
AcDbCircle
 10
-12.19249517373373
 20
4282.162367418727
 30
0.0000000000004547
 40
3.631853910037528
100
AcDbArc
 50
284.8001885382726
 51
306.8277535295479
  0
LINE
  5
F0
330
1F
100
AcDbEntity
  8
Make2D$可见线$普通线
100
AcDbLine
 10
-12.79226972222159
 20
4277.747368889592
 30
0.0000000000004547
 11
-12.37853194444097
 21
4278.159730834035
 31
0.0000000000004547
  0
ARC
  5
F1
330
1F
100
AcDbEntity
  8
Make2D$可见线$普通线
100
AcDbCircle
 10
-14.77852064866238
 20
4279.837865376467
 30
0.0000000000002297
 40
2.883638032837008
100
AcDbArc
 50
290.2083527519895
 51
313.535222140518
  0
SPLINE
  5
F2
330
1F
100
AcDbEntity
  8
Make2D$可见线$普通线
100
AcDbSpline
210
0.0
220
0.0
230
1.0
 70
     8
 71
     3
 72
     9
 73
     5
 74
     0
 42
0.000000001
 43
0.0000000001
 12
1.0
 22
0.0
 32
0.0
 13
1.0
 23
0.0
 33
0.0
 40
0.0
 40
0.0
 40
0.0
 40
0.0
 40
0.4493298515312145
 40
1.0
 40
1.0
 40
1.0
 40
1.0
 10
-14.137940555559
 20
4277.497602222922
 30
0.0000000000004547
 10
-14.2028072994276
 20
4277.417124860634
 30
0.0000000000004547
 10
-14.23575963693975
 20
4277.088805013384
 30
0.0000000000004547
 10
-13.90124522732503
 20
4277.087854404497
 30
0.0000000000004547
 10
-13.78241111110992
 20
4277.131736389589
 30
0.0000000000004547
  0
LINE
  5
F3
330
1F
100
AcDbEntity
  8
Make2D$可见线$普通线
100
AcDbLine
 10
-13.86785388888984
 20
4277.861739445145
 30
0.0000000000004547
 11
-14.137940555559
 21
4277.497602222922
 31
0.0000000000004547
  0
ARC
  5
F4
330
1F
100
AcDbEntity
  8
Make2D$可见线$普通线
100
AcDbCircle
 10
-13.06497270777163
 20
4278.231104774693
 30
0.0000000000004547
 40
0.1476553372540618
100
AcDbArc
 50
196.7064206865836
 51
267.4004167398214
  0
ARC
  5
F5
330
1F
100
AcDbEntity
  8
Make2D$可见线$普通线
100
AcDbCircle
 10
-13.00856937327131
 20
4277.827827630113
 30
0.0000000000004547
 40
0.8841055289609023
100
AcDbArc
 50
84.72891694335185
 51
127.9229235587114
  0
LINE
  5
F6
330
1F
100
AcDbEntity
  8
Make2D$可见线$普通线
100
AcDbLine
 10
-15.11668722221975
 20
4277.438688334034
 30
0.0000000000004547
 11
-14.28194444444034
 21
4277.92993138959
 31
0.0000000000004547
  0
SPLINE
  5
F7
330
1F
100
AcDbEntity
  8
Make2D$可见线$普通线
100
AcDbSpline
210
0.0
220
0.0
230
1.0
 70
     8
 71
     3
 72
    10
 73
     6
 74
     0
 42
0.000000001
 43
0.0000000001
 12
1.0
 22
0.0
 32
0.0
 13
1.0
 23
0.0
 33
0.0
 40
0.0
 40
0.0
 40
0.0
 40
0.0
 40
0.5157203879704706
 40
0.7318354529309745
 40
1.0
 40
1.0
 40
1.0
 40
1.0
 10
-15.78089722222012
 20
4278.06328138959
 30
0.0000000000004547
 10
-15.65134406542938
 20
4278.18684784353
 30
0.0000000000004547
 10
-15.43192553060999
 20
4278.331747277914
 30
0.0000000000004547
 10
-15.03028205756982
 20
4278.313413562257
 30
0.0000000000004547
 10
-14.99764695528938
 20
4278.09905401522
 30
0.0000000000004547
 10
-15.00266944444365
 20
4278.006096111811
 30
0.0000000000004547
  0
ARC
  5
F8
330
1F
100
AcDbEntity
  8
Make2D$可见线$普通线
100
AcDbCircle
 10
-7.914289935359339
 20
4270.305159044888
 30
0.0000000000002276
 40
11.048618579762
100
AcDbArc
 50
135.3978071681515
 51
142.7854433639252
  0
SPLINE
  5
F9
330
1F
100
AcDbEntity
  8
Make2D$可见线$普通线
100
AcDbSpline
210
0.0
220
0.0
230
1.0
 70
     8
 71
     3
 72
     9
 73
     5
 74
     0
 42
0.000000001
 43
0.0000000001
 12
1.0
 22
0.0
 32
0.0
 13
1.0
 23
0.0
 33
0.0
 40
0.0
 40
0.0
 40
0.0
 40
0.0
 40
0.5570908387349287
 40
1.0
 40
1.0
 40
1.0
 40
1.0
 10
-17.92426916667046
 20
4277.497602222922
 30
0.0000000000004547
 10
-18.17112977012312
 20
4277.123831897512
 30
0.0000000000004547
 10
-19.09966057059
 20
4275.851308394645
 30
0.0000000000004547
 10
-17.83766764140228
 20
4276.47976592638
 30
0.0000000000004547
 10
-17.49172833332977
 20
4276.564328611812
 30
0.0000000000004547
  0
LINE
  5
FA
330
1F
100
AcDbEntity
  8
Make2D$可见线$普通线
100
AcDbLine
 10
-15.06020749999971
 20
4281.917978334033
 30
0.0000000000004547
 11
-17.92426916667046
 21
4277.497602222922
 31
0.0000000000004547
  0
SPLINE
  5
FB
330
1F
100
AcDbEntity
  8
Make2D$可见线$普通线
100
AcDbSpline
210
0.0
220
0.0
230
1.0
 70
     8
 71
     3
 72
     9
 73
     5
 74
     0
 42
0.000000001
 43
0.0000000001
 12
1.0
 22
0.0
 32
0.0
 13
1.0
 23
0.0
 33
0.0
 40
0.0
 40
0.0
 40
0.0
 40
0.0
 40
0.7751729880508506
 40
1.0
 40
1.0
 40
1.0
 40
1.0
 10
-15.46431444443988
 20
4284.06050361181
 30
0.0000000000004547
 10
-15.17068291720125
 20
4284.32992703421
 30
0.0000000000004547
 10
-14.61999359050333
 20
4284.792200603857
 30
0.0000000000004547
 10
-14.15211972343195
 20
4284.40190475509
 30
0.0000000000004547
 10
-14.11966666666694
 20
4284.290973334035
 30
0.0000000000004547
  0
LINE
  5
FC
330
1F
100
AcDbEntity
  8
Make2D$可见线$普通线
100
AcDbLine
 10
-21.39278027777846
 20
4278.612062500699
 30
0.0000000000004547
 11
-15.46431444443988
 21
4284.06050361181
 31
0.0000000000004547
  0
LINE
  5
FD
330
1F
100
AcDbEntity
  8
Make2D$可见线$普通线
100
AcDbLine
 10
161.5
 20
4242.875301667367
 30
0.0000000000004547
 11
161.5
 21
4267.875301667367
 31
0.0000000000004547
  0
LINE
  5
FE
330
1F
100
AcDbEntity
  8
Make2D$可见线$普通线
100
AcDbLine
 10
161.5
 20
4242.875301667367
 30
0.0000000000004547
 11
-165.5
 21
4242.875301667367
 31
0.0000000000004547
  0
SPLINE
  5
FF
330
1F
100
AcDbEntity
  8
Make2D$可见线$普通线
100
AcDbSpline
210
0.0
220
0.0
230
1.0
 70
    28
 71
     2
 72
     6
 73
     3
 74
     0
 42
0.000000001
 43
0.0000000001
 12
1.0
 22
0.0
 32
0.0
 13
1.0
 23
0.0
 33
0.0
 40
-7.396893791488893
 40
-7.396893791488893
 40
-7.396893791488893
 40
-3.929599826728474
 40
-3.929599826728474
 40
-3.929599826728474
 10
161.5
 20
4290.329847121917
 30
0.0000000000004547
 41
1.0
 10
161.4999999999999
 20
4292.387423994282
 30
0.0000000000006023
 41
0.7550105977989523
 10
161.5
 20
4292.375259420372
 30
0.0000000000004691
 41
0.969376324724869
  0
SPLINE
  5
100
330
1F
100
AcDbEntity
  8
Make2D$可见线$普通线
100
AcDbSpline
210
0.0
220
0.0
230
1.0
 70
    28
 71
     2
 72
     6
 73
     3
 74
     0
 42
0.000000001
 43
0.0000000001
 12
1.0
 22
0.0
 32
0.0
 13
1.0
 23
0.0
 33
0.0
 40
3.929599826728474
 40
3.929599826728474
 40
3.929599826728474
 40
7.396893791488893
 40
7.396893791488893
 40
7.396893791488893
 10
-165.4999999999999
 20
4292.375259420372
 30
0.0000000000004691
 41
0.969376324724869
 10
-165.4999999999999
 20
4292.387423994283
 30
0.0000000000006023
 41
0.7550105977989525
 10
-165.5
 20
4290.329847121917
 30
0.0000000000004547
 41
1.0
  0
LINE
  5
101
330
1F
100
AcDbEntity
  8
Make2D$可见线$普通线
100
AcDbLine
 10
161.5
 20
4290.329847121917
 30
0.0000000000004547
 11
161.5
 21
4287.875301667367
 31
0.0000000000004547
  0
LINE
  5
102
330
1F
100
AcDbEntity
  8
Make2D$可见线$普通线
100
AcDbLine
 10
-165.5
 20
4290.329847121917
 30
0.0000000000004547
 11
-165.5
 21
4287.875301667367
 31
0.0000000000004547
  0
SPLINE
  5
103
330
1F
100
AcDbEntity
  8
Make2D$可见线$普通线
100
AcDbSpline
210
0.0
220
0.0
230
1.0
 70
     8
 71
     3
 72
     8
 73
     4
 74
     0
 42
0.000000001
 43
0.0000000001
 12
1.0
 22
0.0
 32
0.0
 13
1.0
 23
0.0
 33
0.0
 40
0.0
 40
0.0
 40
0.0
 40
0.0
 40
1.0
 40
1.0
 40
1.0
 40
1.0
 10
3.668729444444125
 20
4278.976905278478
 30
0.0000000000004547
 10
3.495982905787059
 20
4278.805841984376
 30
0.0000000000004547
 10
3.144798555573288
 20
4278.679460869775
 30
0.0000000000004547
 10
3.176780833332941
 20
4278.438460556255
 30
0.0000000000004547
  0
SPLINE
  5
104
330
1F
100
AcDbEntity
  8
Make2D$可见线$普通线
100
AcDbSpline
210
0.0
220
0.0
230
1.0
 70
     8
 71
     3
 72
     8
 73
     4
 74
     0
 42
0.000000001
 43
0.0000000001
 12
1.0
 22
0.0
 32
0.0
 13
1.0
 23
0.0
 33
0.0
 40
0.0
 40
0.0
 40
0.0
 40
0.0
 40
1.0
 40
1.0
 40
1.0
 40
1.0
 10
9.491608888889914
 20
4279.035466389591
 30
0.0000000000004547
 10
9.281565947640047
 20
4278.982426942068
 30
0.0000000000004547
 10
8.934936669750641
 20
4278.697657466244
 30
0.0000000000004547
 10
9.077518333330772
 20
4278.534557222923
 30
0.0000000000004547
  0
SPLINE
  5
105
330
1F
100
AcDbEntity
  8
Make2D$可见线$普通线
100
AcDbSpline
210
0.0
220
0.0
230
1.0
 70
     8
 71
     3
 72
     9
 73
     5
 74
     0
 42
0.000000001
 43
0.0000000001
 12
1.0
 22
0.0
 32
0.0
 13
1.0
 23
0.0
 33
0.0
 40
0.0
 40
0.0
 40
0.0
 40
0.0
 40
0.520196150914
 40
1.0
 40
1.0
 40
1.0
 40
1.0
 10
10.28814583332996
 20
4279.159150278478
 30
0.0000000000004547
 10
10.17078434606992
 20
4279.262689926269
 30
0.0000000000004547
 10
9.797273832120027
 20
4279.432006155475
 30
0.0000000000004547
 10
9.632189623229806
 20
4279.068254461474
 30
0.0000000000004547
 10
9.491608888889914
 20
4279.035466389591
 30
0.0000000000004547
  0
ARC
  5
106
330
1F
100
AcDbEntity
  8
Make2D$可见线$普通线
100
AcDbCircle
 10
1.842859917585454
 20
4277.042991458513
 30
0.0000000000002284
 40
4.432399403541229
100
AcDbArc
 50
326.3327839213368
 51
341.7108073050967
  0
ARC
  5
107
330
1F
100
AcDbEntity
  8
Make2D$可见线$普通线
100
AcDbCircle
 10
4.123130765863026
 20
4272.732391968086
 30
0.0000000000004547
 40
0.5581293196717343
100
AcDbArc
 50
162.141323137827
 51
213.6259720432762
  0
ARC
  5
108
330
1F
100
AcDbEntity
  8
Make2D$可见线$普通线
100
AcDbCircle
 10
42.53758800713307
 20
4252.276948916167
 30
0.0000000000004547
 40
44.37529739865303
100
AcDbArc
 50
146.5042980922156
 51
149.6754803650869
  0
SPLINE
  5
109
330
1F
100
AcDbEntity
  8
Make2D$可见线$普通线
100
AcDbSpline
210
0.0
220
0.0
230
1.0
 70
     8
 71
     3
 72
     9
 73
     5
 74
     0
 42
0.000000001
 43
0.0000000001
 12
1.0
 22
0.0
 32
0.0
 13
1.0
 23
0.0
 33
0.0
 40
0.0
 40
0.0
 40
0.0
 40
0.0
 40
0.5989424302222
 40
1.0
 40
1.0
 40
1.0
 40
1.0
 10
3.197771111111251
 20
4281.350570556257
 30
0.0000000000004547
 10
3.363952771961067
 20
4281.651044137514
 30
0.0000000000004547
 10
3.62889784375102
 20
4282.132058596037
 30
0.0000000000004547
 10
4.090404722222047
 20
4282.590003631709
 30
0.0000000000004547
 10
4.090404722222047
 20
4282.819925278478
 30
0.0000000000004547
  0
SPLINE
  5
10A
330
1F
100
AcDbEntity
  8
Make2D$可见线$普通线
100
AcDbSpline
210
0.0
220
0.0
230
1.0
 70
     8
 71
     3
 72
     9
 73
     5
 74
     0
 42
0.000000001
 43
0.0000000001
 12
1.0
 22
0.0
 32
0.0
 13
1.0
 23
0.0
 33
0.0
 40
0.0
 40
0.0
 40
0.0
 40
0.0
 40
0.2121173401359
 40
1.0
 40
1.0
 40
1.0
 40
1.0
 10
-6.056789444443893
 20
4278.582781945144
 30
0.0000000000004547
 10
-6.184721692045969
 20
4278.540776301694
 30
0.0000000000004547
 10
-6.776620376931987
 20
4278.32103501104
 30
0.0000000000004547
 10
-7.388263620553062
 20
4278.056346861371
 30
0.0000000000004547
 10
-7.73833999999988
 20
4277.699144167367
 30
0.0000000000004547
  0
ARC
  5
10B
330
1F
100
AcDbEntity
  8
Make2D$可见线$普通线
100
AcDbCircle
 10
-2.803652479958942
 20
4269.274644034374
 30
0.0000000000004547
 40
9.860239929921832
100
AcDbArc
 50
91.47916047747403
 51
109.2642067764059
  0
SPLINE
  5
10C
330
1F
100
AcDbEntity
  8
Make2D$可见线$普通线
100
AcDbSpline
210
0.0
220
0.0
230
1.0
 70
     8
 71
     3
 72
    10
 73
     6
 74
     0
 42
0.000000001
 43
0.0000000001
 12
1.0
 22
0.0
 32
0.0
 13
1.0
 23
0.0
 33
0.0
 40
0.0
 40
0.0
 40
0.0
 40
0.0
 40
0.4922320171452
 40
0.7631378326635
 40
1.0
 40
1.0
 40
1.0
 40
1.0
 10
-10.26461694444379
 20
4277.208888889589
 30
0.0000000000004547
 10
-9.975876954538762
 20
4277.200404772353
 30
0.0000000000004547
 10
-9.693280015078926
 20
4277.715155033831
 30
0.0000000000004547
 10
-9.483918240128787
 20
4278.28768235481
 30
0.0000000000004547
 10
-9.74554041304691
 20
4278.56053871688
 30
0.0000000000004547
 10
-9.88083000000006
 20
4278.592448056255
 30
0.0000000000004547
  0
SPLINE
  5
10D
330
1F
100
AcDbEntity
  8
Make2D$可见线$普通线
100
AcDbSpline
210
0.0
220
0.0
230
1.0
 70
     8
 71
     3
 72
     8
 73
     4
 74
     0
 42
0.000000001
 43
0.0000000001
 12
1.0
 22
0.0
 32
0.0
 13
1.0
 23
0.0
 33
0.0
 40
0.0
 40
0.0
 40
0.0
 40
0.0
 40
1.0
 40
1.0
 40
1.0
 40
1.0
 10
-12.46535055555887
 20
4277.305338334032
 30
0.0000000000004547
 10
-12.21317123173912
 20
4277.457157929894
 30
0.0000000000004547
 10
-11.9088722446304
 20
4277.643484331831
 30
0.0000000000004547
 10
-11.84111027777772
 20
4277.92993138959
 30
0.0000000000004547
  0
SPLINE
  5
10E
330
1F
100
AcDbEntity
  8
Make2D$可见线$普通线
100
AcDbSpline
210
0.0
220
0.0
230
1.0
 70
     8
 71
     3
 72
     9
 73
     5
 74
     0
 42
0.000000001
 43
0.0000000001
 12
1.0
 22
0.0
 32
0.0
 13
1.0
 23
0.0
 33
0.0
 40
0.0
 40
0.0
 40
0.0
 40
0.0
 40
0.544088790484
 40
1.0
 40
1.0
 40
1.0
 40
1.0
 10
-12.57111333333023
 20
4277.515840834034
 30
0.0000000000004547
 10
-12.61824643942009
 20
4277.474816178496
 30
0.0000000000004547
 10
-12.6853270610095
 20
4277.309426125783
 30
0.0000000000004547
 10
-12.51055820738884
 20
4277.278922559351
 30
0.0000000000004547
 10
-12.46535055555887
 20
4277.305338334032
 30
0.0000000000004547
  0
SPLINE
  5
10F
330
1F
100
AcDbEntity
  8
Make2D$可见线$普通线
100
AcDbSpline
210
0.0
220
0.0
230
1.0
 70
     8
 71
     3
 72
     8
 73
     4
 74
     0
 42
0.000000001
 43
0.0000000001
 12
1.0
 22
0.0
 32
0.0
 13
1.0
 23
0.0
 33
0.0
 40
0.0
 40
0.0
 40
0.0
 40
0.0
 40
1.0
 40
1.0
 40
1.0
 40
1.0
 10
-12.02367277777967
 20
4278.06328138959
 30
0.0000000000004547
 10
-12.25335527396965
 20
4277.945620916562
 30
0.0000000000004547
 10
-12.38123991608018
 20
4277.690615321273
 30
0.0000000000004547
 10
-12.57111333333023
 20
4277.515840834034
 30
0.0000000000004547
  0
SPLINE
  5
110
330
1F
100
AcDbEntity
  8
Make2D$可见线$普通线
100
AcDbSpline
210
0.0
220
0.0
230
1.0
 70
     8
 71
     3
 72
    10
 73
     6
 74
     0
 42
0.000000001
 43
0.0000000001
 12
1.0
 22
0.0
 32
0.0
 13
1.0
 23
0.0
 33
0.0
 40
0.0
 40
0.0
 40
0.0
 40
0.0
 40
0.2275751917574
 40
0.4485169438049
 40
1.0
 40
1.0
 40
1.0
 40
1.0
 10
-23.30515333333096
 20
4271.280211389587
 30
0.0000000000004547
 10
-23.34658093015105
 20
4271.137968472578
 30
0.0000000000004547
 10
-23.40814187679189
 20
4270.632479069289
 30
0.0000000000004547
 10
-22.68408341594977
 20
4271.330785151888
 30
0.0000000000004547
 10
-22.5236174918291
 20
4271.664690744987
 30
0.0000000000004547
 10
-22.24805472221851
 20
4271.894820834035
 30
0.0000000000004547
  0
ARC
  5
111
330
1F
100
AcDbEntity
  8
Make2D$可见线$普通线
100
AcDbCircle
 10
2.197129170080416
 20
4278.784743196003
 30
0.0000000000004547
 40
0.7395910697215573
100
AcDbArc
 50
193.5021183717267
 51
261.1445994077858
  0
SPLINE
  5
112
330
1F
100
AcDbEntity
  8
Make2D$可见线$普通线
100
AcDbSpline
210
0.0
220
0.0
230
1.0
 70
     8
 71
     3
 72
     9
 73
     5
 74
     0
 42
0.000000001
 43
0.0000000001
 12
1.0
 22
0.0
 32
0.0
 13
1.0
 23
0.0
 33
0.0
 40
0.0
 40
0.0
 40
0.0
 40
0.0
 40
0.3085183437993
 40
1.0
 40
1.0
 40
1.0
 40
1.0
 10
5.272774722222039
 20
4278.582781945144
 30
0.0000000000004547
 10
5.159075386482073
 20
4278.509902041613
 30
0.0000000000004547
 10
4.795910286562048
 20
4278.292169063234
 30
0.0000000000004547
 10
4.271385299220128
 20
4278.165139140508
 30
0.0000000000004547
 10
4.013569722221746
 20
4278.323737222923
 30
0.0000000000004547
  0
SPLINE
  5
113
330
1F
100
AcDbEntity
  8
Make2D$可见线$普通线
100
AcDbSpline
210
0.0
220
0.0
230
1.0
 70
     8
 71
     3
 72
     9
 73
     5
 74
     0
 42
0.000000001
 43
0.0000000001
 12
1.0
 22
0.0
 32
0.0
 13
1.0
 23
0.0
 33
0.0
 40
0.0
 40
0.0
 40
0.0
 40
0.0
 40
0.2996182298374
 40
1.0
 40
1.0
 40
1.0
 40
1.0
 10
7.174811388889339
 20
4279.900195278478
 30
0.0000000000004547
 10
6.949232820402358
 20
4279.950985308598
 30
0.0000000000004547
 10
6.339472676769219
 20
4279.195379781893
 30
0.0000000000004547
 10
5.729665133412254
 20
4278.871573893452
 30
0.0000000000004547
 10
5.272774722222039
 20
4278.582781945144
 30
0.0000000000004547
  0
SPLINE
  5
114
330
1F
100
AcDbEntity
  8
Make2D$可见线$普通线
100
AcDbSpline
210
0.0
220
0.0
230
1.0
 70
     8
 71
     3
 72
     9
 73
     5
 74
     0
 42
0.000000001
 43
0.0000000001
 12
1.0
 22
0.0
 32
0.0
 13
1.0
 23
0.0
 33
0.0
 40
0.0
 40
0.0
 40
0.0
 40
0.0
 40
0.6629862738807
 40
1.0
 40
1.0
 40
1.0
 40
1.0
 10
6.540905000000294
 20
4278.822917778478
 30
0.0000000000004547
 10
6.679447009521937
 20
4279.063083389326
 30
0.0000000000004547
 10
6.786903829925905
 20
4279.273249584177
 30
0.0000000000004547
 10
7.31291066874428
 20
4279.872045946986
 30
0.0000000000004547
 10
7.174811388889339
 20
4279.900195278478
 30
0.0000000000004547
  0
SPLINE
  5
115
330
1F
100
AcDbEntity
  8
Make2D$可见线$普通线
100
AcDbSpline
210
0.0
220
0.0
230
1.0
 70
     8
 71
     3
 72
     9
 73
     5
 74
     0
 42
0.000000001
 43
0.0000000001
 12
1.0
 22
0.0
 32
0.0
 13
1.0
 23
0.0
 33
0.0
 40
0.0
 40
0.0
 40
0.0
 40
0.0
 40
0.7822798422686
 40
1.0
 40
1.0
 40
1.0
 40
1.0
 10
3.302158055555992
 20
4272.702364445147
 30
0.0000000000004547
 10
3.295119034033632
 20
4273.419263845728
 30
0.0000000000004547
 10
3.707915442350895
 20
4274.308252470688
 30
0.0000000000004547
 10
4.162297867305824
 20
4275.095735238287
 30
0.0000000000004547
 10
4.263689166667064
 20
4275.267588056256
 30
0.0000000000004547
  0
SPLINE
  5
116
330
1F
100
AcDbEntity
  8
Make2D$可见线$普通线
100
AcDbSpline
210
0.0
220
0.0
230
1.0
 70
     8
 71
     3
 72
     9
 73
     5
 74
     0
 42
0.000000001
 43
0.0000000001
 12
1.0
 22
0.0
 32
0.0
 13
1.0
 23
0.0
 33
0.0
 40
0.0
 40
0.0
 40
0.0
 40
0.0
 40
0.2735408866556
 40
1.0
 40
1.0
 40
1.0
 40
1.0
 10
6.655981111111032
 20
4277.939244722924
 30
0.0000000000004547
 10
6.67215540053212
 20
4277.455519637568
 30
0.0000000000004547
 10
6.532958423007585
 20
4275.677510820065
 30
0.0000000000004547
 10
5.692292239335075
 20
4274.017339423746
 30
0.0000000000004547
 10
4.906203333334361
 20
4273.000355834036
 30
0.0000000000004547
  0
ARC
  5
117
330
1F
100
AcDbEntity
  8
Make2D$可见线$普通线
100
AcDbCircle
 10
6.987166563840093
 20
4277.980250325842
 30
0.0000000000002409
 40
0.3337143442682393
100
AcDbArc
 50
132.2549107666482
 51
187.0581345619196
  0
SPLINE
  5
118
330
1F
100
AcDbEntity
  8
Make2D$可见线$普通线
100
AcDbSpline
210
0.0
220
0.0
230
1.0
 70
     8
 71
     3
 72
     8
 73
     4
 74
     0
 42
0.000000001
 43
0.0000000001
 12
1.0
 22
0.0
 32
0.0
 13
1.0
 23
0.0
 33
0.0
 40
0.0
 40
0.0
 40
0.0
 40
0.0
 40
1.0
 40
1.0
 40
1.0
 40
1.0
 10
8.473598055559705
 20
4278.506652500702
 30
0.0000000000004547
 10
7.915947297464754
 20
4278.355274335994
 30
0.0000000000004547
 10
7.3198687924978
 20
4278.073866557261
 30
0.0000000000004547
 10
6.762766944444138
 20
4278.227252500701
 30
0.0000000000004547
  0
SPLINE
  5
119
330
1F
100
AcDbEntity
  8
Make2D$可见线$普通线
100
AcDbSpline
210
0.0
220
0.0
230
1.0
 70
     8
 71
     3
 72
     8
 73
     4
 74
     0
 42
0.000000001
 43
0.0000000001
 12
1.0
 22
0.0
 32
0.0
 13
1.0
 23
0.0
 33
0.0
 40
0.0
 40
0.0
 40
0.0
 40
0.0
 40
1.0
 40
1.0
 40
1.0
 40
1.0
 10
8.808807500001876
 20
4278.477371945146
 30
0.0000000000004547
 10
8.79454902299176
 20
4278.58862390397
 30
0.0000000000004547
 10
8.580025061420201
 20
4278.54205864327
 30
0.0000000000004547
 10
8.473598055559705
 20
4278.506652500702
 30
0.0000000000004547
  0
SPLINE
  5
11A
330
1F
100
AcDbEntity
  8
Make2D$可见线$普通线
100
AcDbSpline
210
0.0
220
0.0
230
1.0
 70
     8
 71
     3
 72
     8
 73
     4
 74
     0
 42
0.000000001
 43
0.0000000001
 12
1.0
 22
0.0
 32
0.0
 13
1.0
 23
0.0
 33
0.0
 40
0.0
 40
0.0
 40
0.0
 40
0.0
 40
1.0
 40
1.0
 40
1.0
 40
1.0
 10
9.711777500000153
 20
4278.06328138959
 30
0.0000000000004547
 10
9.388169502580695
 20
4277.993101790516
 30
0.0000000000004547
 10
8.870961936971526
 20
4278.152127209467
 30
0.0000000000004547
 10
8.808807500001876
 20
4278.477371945146
 30
0.0000000000004547
  0
ARC
  5
11B
330
1F
100
AcDbEntity
  8
Make2D$可见线$普通线
100
AcDbCircle
 10
10.63238919140144
 20
4278.26985368482
 30
0.0000000000002332
 40
0.6840397730467245
100
AcDbArc
 50
46.41988441179823
 51
82.6877124385418
  0
ARC
  5
11C
330
1F
100
AcDbEntity
  8
Make2D$可见线$普通线
100
AcDbCircle
 10
13.13297022020197
 20
4276.887002379244
 30
0.0000000000002282
 40
1.945137659799991
100
AcDbArc
 50
125.6610276145469
 51
139.5201794908802
  0
SPLINE
  5
11D
330
1F
100
AcDbEntity
  8
Make2D$可见线$普通线
100
AcDbSpline
210
0.0
220
0.0
230
1.0
 70
     8
 71
     3
 72
     8
 73
     4
 74
     0
 42
0.000000001
 43
0.0000000001
 12
1.0
 22
0.0
 32
0.0
 13
1.0
 23
0.0
 33
0.0
 40
0.0
 40
0.0
 40
0.0
 40
0.0
 40
1.0
 40
1.0
 40
1.0
 40
1.0
 10
17.49423166666838
 20
4278.534557222925
 30
0.0000000000004547
 10
17.29494128453871
 20
4278.376563149752
 30
0.0000000000004547
 10
16.99128172349947
 20
4278.452457397019
 30
0.0000000000004547
 10
16.73734694444011
 20
4278.438460556255
 30
0.0000000000004547
  0
ARC
  5
11E
330
1F
100
AcDbEntity
  8
Make2D$可见线$普通线
100
AcDbCircle
 10
16.48727307450278
 20
4282.367214498408
 30
0.0000000000004547
 40
3.748631795888053
100
AcDbArc
 50
262.4583808060414
 51
283.1684593586878
  0
SPLINE
  5
11F
330
1F
100
AcDbEntity
  8
Make2D$可见线$普通线
100
AcDbSpline
210
0.0
220
0.0
230
1.0
 70
     8
 71
     3
 72
     9
 73
     5
 74
     0
 42
0.000000001
 43
0.0000000001
 12
1.0
 22
0.0
 32
0.0
 13
1.0
 23
0.0
 33
0.0
 40
0.0
 40
0.0
 40
0.0
 40
0.0
 40
0.4300516996966
 40
1.0
 40
1.0
 40
1.0
 40
1.0
 10
12.65285055555887
 20
4279.207727778477
 30
0.0000000000004547
 10
12.996306451289
 20
4278.858606545597
 30
0.0000000000004547
 10
14.25988022414958
 20
4278.703085191446
 30
0.0000000000004547
 10
15.34955329431978
 20
4278.716680583457
 30
0.0000000000004547
 10
15.99527888888997
 20
4278.651009167366
 30
0.0000000000004547
  0
ARC
  5
120
330
1F
100
AcDbEntity
  8
Make2D$可见线$普通线
100
AcDbCircle
 10
9.980799215217303
 20
4276.520568431428
 30
0.0000000000004547
 40
2.91800506476003
100
AcDbArc
 50
66.10313738119984
 51
78.60074895877918
  0
ARC
  5
121
330
1F
100
AcDbEntity
  8
Make2D$可见线$普通线
100
AcDbCircle
 10
9.960288799178898
 20
4278.171227401006
 30
0.0000000000004547
 40
1.477472875390583
100
AcDbArc
 50
89.96499794671644
 51
124.4231548770334
  0
ARC
  5
122
330
1F
100
AcDbEntity
  8
Make2D$可见线$普通线
100
AcDbCircle
 10
9.527586216667556
 20
4278.701987908286
 30
0.0000000000002312
 40
0.7970823358349712
100
AcDbArc
 50
120.330257991343
 51
149.9364293791067
  0
SPLINE
  5
123
330
1F
100
AcDbEntity
  8
Make2D$可见线$普通线
100
AcDbSpline
210
0.0
220
0.0
230
1.0
 70
     8
 71
     3
 72
    10
 73
     6
 74
     0
 42
0.000000001
 43
0.0000000001
 12
1.0
 22
0.0
 32
0.0
 13
1.0
 23
0.0
 33
0.0
 40
0.0
 40
0.0
 40
0.0
 40
0.0
 40
0.3623286077422
 40
0.4902357760656
 40
1.0
 40
1.0
 40
1.0
 40
1.0
 10
10.19099083333231
 20
4283.733549167366
 30
0.0000000000004547
 10
10.29089562154286
 20
4283.846061943326
 30
0.0000000000004547
 10
10.42596780655322
 20
4284.091451063545
 30
0.0000000000004547
 10
10.88517759770139
 20
4283.88751288337
 30
0.0000000000004547
 10
10.57630241092056
 20
4283.523852170209
 30
0.0000000000004547
 10
10.42318916667045
 20
4283.377666945145
 30
0.0000000000004547
  0
SPLINE
  5
124
330
1F
100
AcDbEntity
  8
Make2D$可见线$普通线
100
AcDbSpline
210
0.0
220
0.0
230
1.0
 70
     8
 71
     3
 72
     8
 73
     4
 74
     0
 42
0.000000001
 43
0.0000000001
 12
1.0
 22
0.0
 32
0.0
 13
1.0
 23
0.0
 33
0.0
 40
0.0
 40
0.0
 40
0.0
 40
0.0
 40
1.0
 40
1.0
 40
1.0
 40
1.0
 10
-7.075153055555802
 20
4283.137883889589
 30
0.0000000000004547
 10
-7.160445908286874
 20
4283.27379470921
 30
0.0000000000004547
 10
-7.309388104701611
 20
4283.424347400571
 30
0.0000000000004547
 10
-7.267381666666552
 20
4283.579208889589
 30
0.0000000000004547
  0
SPLINE
  5
125
330
1F
100
AcDbEntity
  8
Make2D$可见线$普通线
100
AcDbSpline
210
0.0
220
0.0
230
1.0
 70
     8
 71
     3
 72
     9
 73
     5
 74
     0
 42
0.000000001
 43
0.0000000001
 12
1.0
 22
0.0
 32
0.0
 13
1.0
 23
0.0
 33
0.0
 40
0.0
 40
0.0
 40
0.0
 40
0.0
 40
0.448697657134
 40
1.0
 40
1.0
 40
1.0
 40
1.0
 10
-6.864650555555727
 20
4283.281570278479
 30
0.0000000000004547
 10
-6.827066902801562
 20
4283.229735496636
 30
0.0000000000004547
 10
-6.786585275296602
 20
4283.004038208939
 30
0.0000000000004547
 10
-7.010321149284664
 20
4283.093326214441
 30
0.0000000000004547
 10
-7.075153055555802
 20
4283.137883889589
 30
0.0000000000004547
  0
SPLINE
  5
126
330
1F
100
AcDbEntity
  8
Make2D$可见线$普通线
100
AcDbSpline
210
0.0
220
0.0
230
1.0
 70
     8
 71
     3
 72
     9
 73
     5
 74
     0
 42
0.000000001
 43
0.0000000001
 12
1.0
 22
0.0
 32
0.0
 13
1.0
 23
0.0
 33
0.0
 40
0.0
 40
0.0
 40
0.0
 40
0.0
 40
0.4988462380205
 40
1.0
 40
1.0
 40
1.0
 40
1.0
 10
-0.5591005555556876
 20
4279.841634167367
 30
0.0000000000004547
 10
-0.2238169023235059
 20
4280.208074216906
 30
0.0000000000004547
 10
0.1633518157223079
 20
4281.243017649304
 30
0.0000000000004547
 10
-0.2182533484756277
 20
4282.251885552269
 30
0.0000000000004547
 10
-0.5225880555553886
 20
4282.647311111812
 30
0.0000000000004547
  0
ARC
  5
127
330
1F
100
AcDbEntity
  8
Make2D$可见线$普通线
100
AcDbCircle
 10
3.109609352363341
 20
4276.775253437952
 30
0.0000000000004547
 40
8.794639564224681
100
AcDbArc
 50
140.1767570631092
 51
151.045054281538
  0
SPLINE
  5
128
330
1F
100
AcDbEntity
  8
Make2D$可见线$普通线
100
AcDbSpline
210
0.0
220
0.0
230
1.0
 70
     8
 71
     3
 72
     9
 73
     5
 74
     0
 42
0.000000001
 43
0.0000000001
 12
1.0
 22
0.0
 32
0.0
 13
1.0
 23
0.0
 33
0.0
 40
0.0
 40
0.0
 40
0.0
 40
0.0
 40
0.6876210647116
 40
1.0
 40
1.0
 40
1.0
 40
1.0
 10
-5.855247499999678
 20
4278.890792222923
 30
0.0000000000004547
 10
-5.608873270133699
 20
4279.142730202046
 30
0.0000000000004547
 10
-5.635548348909651
 20
4279.735201396636
 30
0.0000000000004547
 10
-5.41385406236077
 20
4280.197666666474
 30
0.0000000000004547
 10
-5.327103888888814
 20
4280.332206945146
 30
0.0000000000004547
  0
SPLINE
  5
129
330
1F
100
AcDbEntity
  8
Make2D$可见线$普通线
100
AcDbSpline
210
0.0
220
0.0
230
1.0
 70
     8
 71
     3
 72
     9
 73
     5
 74
     0
 42
0.000000001
 43
0.0000000001
 12
1.0
 22
0.0
 32
0.0
 13
1.0
 23
0.0
 33
0.0
 40
0.0
 40
0.0
 40
0.0
 40
0.0
 40
0.7913164442512
 40
1.0
 40
1.0
 40
1.0
 40
1.0
 10
-8.189966111111062
 20
4277.362876389589
 30
0.0000000000004547
 10
-8.32397289556775
 20
4277.648650636795
 30
0.0000000000004547
 10
-7.822974717627858
 20
4278.025710646689
 30
0.0000000000004547
 10
-7.51505234972592
 20
4278.237806649589
 30
0.0000000000004547
 10
-7.440666111110659
 20
4278.275159722923
 30
0.0000000000004547
  0
ARC
  5
12A
330
1F
100
AcDbEntity
  8
Make2D$可见线$普通线
100
AcDbCircle
 10
-22.66083740541944
 20
4276.873036538733
 30
0.0000000000004547
 40
0.21352361700239
100
AcDbArc
 50
198.6422607791972
 51
275.2984858266551
  0
SPLINE
  5
12B
330
1F
100
AcDbEntity
  8
Make2D$可见线$普通线
100
AcDbSpline
210
0.0
220
0.0
230
1.0
 70
     8
 71
     3
 72
     9
 73
     5
 74
     0
 42
0.000000001
 43
0.0000000001
 12
1.0
 22
0.0
 32
0.0
 13
1.0
 23
0.0
 33
0.0
 40
0.0
 40
0.0
 40
0.0
 40
0.0
 40
0.5634515479582
 40
1.0
 40
1.0
 40
1.0
 40
1.0
 10
-15.26139666666859
 20
4282.032384167367
 30
0.0000000000004547
 10
-15.05829368502873
 20
4282.425767972703
 30
0.0000000000004547
 10
-14.79332804532896
 20
4282.895814375317
 30
0.0000000000004547
 10
-14.18461435747986
 20
4284.173118958171
 30
0.0000000000004547
 10
-14.52239777778004
 20
4284.232765000701
 30
0.0000000000004547
  0
ARC
  5
12C
330
1F
100
AcDbEntity
  8
Make2D$可见线$普通线
100
AcDbCircle
 10
-16.77609968198794
 20
4277.374554872585
 30
0.0000000000002365
 40
0.9702463228286928
100
AcDbArc
 50
276.5587754280576
 51
321.9484878800559
  0
SPLINE
  5
12D
330
1F
100
AcDbEntity
  8
Make2D$可见线$普通线
100
AcDbSpline
210
0.0
220
0.0
230
1.0
 70
     8
 71
     3
 72
     8
 73
     4
 74
     0
 42
0.000000001
 43
0.0000000001
 12
1.0
 22
0.0
 32
0.0
 13
1.0
 23
0.0
 33
0.0
 40
0.0
 40
0.0
 40
0.0
 40
0.0
 40
1.0
 40
1.0
 40
1.0
 40
1.0
 10
-14.88794611111007
 20
4277.198199722923
 30
0.0000000000004547
 10
-15.06460005810004
 20
4277.103515217623
 30
0.0000000000004547
 10
-15.20681171748993
 20
4276.91905030666
 30
0.0000000000004547
 10
-15.40540055555994
 20
4276.891953334034
 30
0.0000000000004547
  0
SPLINE
  5
12E
330
1F
100
AcDbEntity
  8
Make2D$可见线$普通线
100
AcDbSpline
210
0.0
220
0.0
230
1.0
 70
     8
 71
     3
 72
     9
 73
     5
 74
     0
 42
0.000000001
 43
0.0000000001
 12
1.0
 22
0.0
 32
0.0
 13
1.0
 23
0.0
 33
0.0
 40
0.0
 40
0.0
 40
0.0
 40
0.0
 40
0.4456137230338
 40
1.0
 40
1.0
 40
1.0
 40
1.0
 10
-14.50345361110976
 20
4277.1417200007
 30
0.0000000000004547
 10
-14.51907676119981
 20
4277.214864313462
 30
0.0000000000004547
 10
-14.64219427015996
 20
4277.417575089385
 30
0.0000000000004547
 10
-14.80940272549969
 20
4277.248094193568
 30
0.0000000000004547
 10
-14.88794611111007
 20
4277.198199722923
 30
0.0000000000004547
  0
SPLINE
  5
12F
330
1F
100
AcDbEntity
  8
Make2D$可见线$普通线
100
AcDbSpline
210
0.0
220
0.0
230
1.0
 70
     8
 71
     3
 72
     8
 73
     4
 74
     0
 42
0.000000001
 43
0.0000000001
 12
1.0
 22
0.0
 32
0.0
 13
1.0
 23
0.0
 33
0.0
 40
0.0
 40
0.0
 40
0.0
 40
0.0
 40
1.0
 40
1.0
 40
1.0
 40
1.0
 10
-13.93639861110978
 20
4276.795151111812
 30
0.0000000000004547
 10
-14.15096566756984
 20
4276.740065146356
 30
0.0000000000004547
 10
-14.49293434486981
 20
4276.920444538107
 30
0.0000000000004547
 10
-14.50345361110976
 20
4277.1417200007
 30
0.0000000000004547
  0
SPLINE
  5
130
330
1F
100
AcDbEntity
  8
Make2D$可见线$普通线
100
AcDbSpline
210
0.0
220
0.0
230
1.0
 70
     8
 71
     3
 72
     9
 73
     5
 74
     0
 42
0.000000001
 43
0.0000000001
 12
1.0
 22
0.0
 32
0.0
 13
1.0
 23
0.0
 33
0.0
 40
0.0
 40
0.0
 40
0.0
 40
0.0
 40
0.657824609976
 40
1.0
 40
1.0
 40
1.0
 40
1.0
 10
-10.4568455555559
 20
4276.795151111812
 30
0.0000000000004547
 10
-10.69914135838599
 20
4276.847597769018
 30
0.0000000000004547
 10
-10.97642717450799
 20
4277.291375842058
 30
0.0000000000004547
 10
-10.86061257416168
 20
4277.655401663447
 30
0.0000000000004547
 10
-10.81308055555564
 20
4277.775273611811
 30
0.0000000000004547
  0
SPLINE
  5
131
330
1F
100
AcDbEntity
  8
Make2D$可见线$普通线
100
AcDbSpline
210
0.0
220
0.0
230
1.0
 70
     8
 71
     3
 72
     9
 73
     5
 74
     0
 42
0.000000001
 43
0.0000000001
 12
1.0
 22
0.0
 32
0.0
 13
1.0
 23
0.0
 33
0.0
 40
0.0
 40
0.0
 40
0.0
 40
0.0
 40
0.3921009193082
 40
1.0
 40
1.0
 40
1.0
 40
1.0
 10
-9.669657222222213
 20
4278.966568889589
 30
0.0000000000004547
 10
-9.594116603733255
 20
4278.82235111809
 30
0.0000000000004547
 10
-9.249965460683143
 20
4278.542498158862
 30
0.0000000000004547
 10
-9.29238146084117
 20
4278.052921856952
 30
0.0000000000004547
 10
-9.372336111111053
 20
4277.813514722922
 30
0.0000000000004547
  0
SPLINE
  5
132
330
1F
100
AcDbEntity
  8
Make2D$可见线$普通线
100
AcDbSpline
210
0.0
220
0.0
230
1.0
 70
     8
 71
     3
 72
     8
 73
     4
 74
     0
 42
0.000000001
 43
0.0000000001
 12
1.0
 22
0.0
 32
0.0
 13
1.0
 23
0.0
 33
0.0
 40
0.0
 40
0.0
 40
0.0
 40
0.0
 40
1.0
 40
1.0
 40
1.0
 40
1.0
 10
-11.93685416666631
 20
4278.534557222923
 30
0.0000000000004547
 10
-11.78445750403171
 20
4278.703302003776
 30
0.0000000000004547
 10
-11.48754704768362
 20
4278.605650267273
 30
0.0000000000004547
 10
-11.26474194444381
 20
4278.651009167366
 30
0.0000000000004547
  0
ARC
  5
133
330
1F
100
AcDbEntity
  8
Make2D$可见线$普通线
100
AcDbCircle
 10
-9.632895532508428
 20
4275.372041441341
 30
0.0000000000004547
 40
3.912765193142707
100
AcDbArc
 50
126.0741178375415
 51
134.5645635173472
  0
SPLINE
  5
134
330
1F
100
AcDbEntity
  8
Make2D$可见线$普通线
100
AcDbSpline
210
0.0
220
0.0
230
1.0
 70
     8
 71
     3
 72
     8
 73
     4
 74
     0
 42
0.000000001
 43
0.0000000001
 12
1.0
 22
0.0
 32
0.0
 13
1.0
 23
0.0
 33
0.0
 40
0.0
 40
0.0
 40
0.0
 40
0.0
 40
1.0
 40
1.0
 40
1.0
 40
1.0
 10
-13.20639555555863
 20
4278.188658611811
 30
0.0000000000004547
 10
-13.18384452905821
 20
4278.433568193563
 30
0.0000000000004547
 10
-13.7090694048793
 20
4278.049560476093
 30
0.0000000000004547
 10
-13.86785388888984
 20
4277.861739445145
 30
0.0000000000004547
  0
SPLINE
  5
135
330
1F
100
AcDbEntity
  8
Make2D$可见线$普通线
100
AcDbSpline
210
0.0
220
0.0
230
1.0
 70
     8
 71
     3
 72
     9
 73
     5
 74
     0
 42
0.000000001
 43
0.0000000001
 12
1.0
 22
0.0
 32
0.0
 13
1.0
 23
0.0
 33
0.0
 40
0.0
 40
0.0
 40
0.0
 40
0.0
 40
0.4862157372636
 40
1.0
 40
1.0
 40
1.0
 40
1.0
 10
-12.92734833332997
 20
4278.708194445146
 30
0.0000000000004547
 10
-12.80165436626021
 20
4278.677494095433
 30
0.0000000000004547
 10
-12.66443934936979
 20
4278.320653412213
 30
0.0000000000004547
 10
-12.93557016589966
 20
4278.070535832183
 30
0.0000000000004547
 10
-13.07166972221967
 20
4278.08360138959
 30
0.0000000000004547
  0
SPLINE
  5
136
330
1F
100
AcDbEntity
  8
Make2D$可见线$普通线
100
AcDbSpline
210
0.0
220
0.0
230
1.0
 70
     8
 71
     3
 72
     8
 73
     4
 74
     0
 42
0.000000001
 43
0.0000000001
 12
1.0
 22
0.0
 32
0.0
 13
1.0
 23
0.0
 33
0.0
 40
0.0
 40
0.0
 40
0.0
 40
0.0
 40
1.0
 40
1.0
 40
1.0
 40
1.0
 10
-14.28194444444034
 20
4277.92993138959
 30
0.0000000000004547
 10
-14.01888649590001
 20
4278.101365236611
 30
0.0000000000004547
 10
-13.82184403328029
 20
4278.364801966296
 30
0.0000000000004547
 10
-13.5519413888901
 20
4278.52524388959
 30
0.0000000000004547
  0
SPLINE
  5
137
330
1F
100
AcDbEntity
  8
Make2D$可见线$普通线
100
AcDbSpline
210
0.0
220
0.0
230
1.0
 70
     8
 71
     3
 72
     8
 73
     4
 74
     0
 42
0.000000001
 43
0.0000000001
 12
1.0
 22
0.0
 32
0.0
 13
1.0
 23
0.0
 33
0.0
 40
0.0
 40
0.0
 40
0.0
 40
0.0
 40
1.0
 40
1.0
 40
1.0
 40
1.0
 10
-15.33854916666996
 20
4277.468639167368
 30
0.0000000000004547
 10
-15.36969646057969
 20
4277.400825378581
 30
0.0000000000004547
 10
-15.18230932440974
 20
4277.403155200594
 30
0.0000000000004547
 10
-15.11668722221975
 20
4277.438688334034
 30
0.0000000000004547
  0
SPLINE
  5
138
330
1F
100
AcDbEntity
  8
Make2D$可见线$普通线
100
AcDbSpline
210
0.0
220
0.0
230
1.0
 70
     8
 71
     3
 72
     8
 73
     4
 74
     0
 42
0.000000001
 43
0.0000000001
 12
1.0
 22
0.0
 32
0.0
 13
1.0
 23
0.0
 33
0.0
 40
0.0
 40
0.0
 40
0.0
 40
0.0
 40
1.0
 40
1.0
 40
1.0
 40
1.0
 10
-15.00266944444365
 20
4278.006096111811
 30
0.0000000000004547
 10
-15.0186687815426
 20
4277.795443331193
 30
0.0000000000004547
 10
-15.24151777029101
 20
4277.656297049929
 30
0.0000000000004547
 10
-15.33854916666996
 20
4277.468639167368
 30
0.0000000000004547
  0
ARC
  5
139
330
1F
100
AcDbEntity
  8
Make2D$可见线$普通线
100
AcDbCircle
 10
-17.57042927861562
 20
4277.637142217143
 30
0.0000000000004547
 40
1.07569645838067
100
AcDbArc
 50
274.1956673976822
 51
322.8402872309542
  0
SPLINE
  5
13A
330
1F
100
AcDbEntity
  8
Make2D$可见线$普通线
100
AcDbSpline
210
0.0
220
0.0
230
1.0
 70
     8
 71
     3
 72
     9
 73
     5
 74
     0
 42
0.000000001
 43
0.0000000001
 12
1.0
 22
0.0
 32
0.0
 13
1.0
 23
0.0
 33
0.0
 40
0.0
 40
0.0
 40
0.0
 40
0.0
 40
0.7884203904672
 40
1.0
 40
1.0
 40
1.0
 40
1.0
 10
-14.11966666666694
 20
4284.290973334035
 30
0.0000000000004547
 10
-13.91412943800742
 20
4283.650243757658
 30
0.0000000000004547
 10
-14.55162528527853
 20
4282.789888009336
 30
0.0000000000004547
 10
-14.97641763120964
 20
4282.077937323584
 30
0.0000000000004547
 10
-15.06020749999971
 20
4281.917978334033
 30
0.0000000000004547
  0
SPLINE
  5
13B
330
1F
100
AcDbEntity
  8
Make2D$可见线$普通线
100
AcDbSpline
210
0.0
220
0.0
230
1.0
 70
     8
 71
     3
 72
     8
 73
     4
 74
     0
 42
0.000000001
 43
0.0000000001
 12
1.0
 22
0.0
 32
0.0
 13
1.0
 23
0.0
 33
0.0
 40
0.0
 40
0.0
 40
0.0
 40
0.0
 40
1.0
 40
1.0
 40
1.0
 40
1.0
 10
-22.86315805555705
 20
4276.804781945146
 30
0.0000000000004547
 10
-22.66267431271763
 20
4277.555080421722
 30
0.0000000000004547
 10
-21.96989325303775
 20
4278.092368216638
 30
0.0000000000004547
 10
-21.39278027777846
 20
4278.612062500699
 30
0.0000000000004547
  0
LINE
  5
13C
330
1F
100
AcDbEntity
  8
Make2D$可见线$普通线
100
AcDbLine
 10
161.5
 20
4287.875301667367
 30
0.0000000000004547
 11
-165.5
 21
4287.875301667367
 31
0.0000000000004547
  0
LINE
  5
13D
330
1F
100
AcDbEntity
  8
Make2D$可见线$普通线
100
AcDbLine
 10
161.5
 20
4267.875301667367
 30
0.0000000000004547
 11
161.5
 21
4287.875301667367
 31
0.0000000000004547
  0
LINE
  5
13E
330
1F
100
AcDbEntity
  8
Make2D$可见线$普通线
100
AcDbLine
 10
161.5
 20
4267.875301667367
 30
0.0000000000004547
 11
-165.5
 21
4267.875301667367
 31
0.0000000000004547
  0
LINE
  5
13F
330
1F
100
AcDbEntity
  8
Make2D$可见线$普通线
100
AcDbLine
 10
-165.5
 20
4287.875301667367
 30
0.0000000000004547
 11
-165.5
 21
4267.875301667367
 31
0.0000000000004547
  0
LINE
  5
140
330
1F
100
AcDbEntity
  8
Make2D$可见线$普通线
100
AcDbLine
 10
-165.5
 20
4267.875301667367
 30
0.0000000000004547
 11
-165.5
 21
4242.875301667367
 31
0.0000000000004547
  0
LINE
  5
141
330
1F
100
AcDbEntity
  8
Make2D$可见线$普通线
100
AcDbLine
 10
412.8330896644247
 20
4325.667078054536
 30
0.0000000000004547
 11
411.7087516088677
 21
4324.226333610093
 31
0.0000000000004547
  0
SPLINE
  5
142
330
1F
100
AcDbEntity
  8
Make2D$可见线$普通线
100
AcDbSpline
210
0.0
220
0.0
230
1.0
 70
     8
 71
     3
 72
     8
 73
     4
 74
     0
 42
0.000000001
 43
0.0000000001
 12
1.0
 22
0.0
 32
0.0
 13
1.0
 23
0.0
 33
0.0
 40
0.0
 40
0.0
 40
0.0
 40
0.0
 40
1.0
 40
1.0
 40
1.0
 40
1.0
 10
408.1909927199758
 20
4321.639096665644
 30
0.0000000000004547
 10
408.2342560479892
 20
4321.801276030774
 30
0.0000000000004547
 10
407.7166123495372
 20
4321.332622240967
 30
0.0000000000004547
 10
407.8654141088682
 20
4321.254956943423
 30
0.0000000000004547
  0
SPLINE
  5
143
330
1F
100
AcDbEntity
  8
Make2D$可见线$普通线
100
AcDbSpline
210
0.0
220
0.0
230
1.0
 70
     8
 71
     3
 72
     8
 73
     4
 74
     0
 42
0.000000001
 43
0.0000000001
 12
1.0
 22
0.0
 32
0.0
 13
1.0
 23
0.0
 33
0.0
 40
0.0
 40
0.0
 40
0.0
 40
0.0
 40
1.0
 40
1.0
 40
1.0
 40
1.0
 10
407.8654141088682
 20
4321.254956943423
 30
0.0000000000004547
 10
408.0156871954114
 20
4321.18017819321
 30
0.0000000000004547
 10
408.1451272972336
 20
4321.477633898983
 30
0.0000000000004547
 10
408.1909927199758
 20
4321.639096665644
 30
0.0000000000004547
  0
ARC
  5
144
330
1F
100
AcDbEntity
  8
Make2D$可见线$普通线
100
AcDbCircle
 10
405.286684239809
 20
4321.3933692488
 30
0.0000000000004547
 40
0.1140601856472077
100
AcDbArc
 50
334.0757677029861
 51
79.25388439976341
  0
SPLINE
  5
145
330
1F
100
AcDbEntity
  8
Make2D$可见线$普通线
100
AcDbSpline
210
0.0
220
0.0
230
1.0
 70
     8
 71
     3
 72
     8
 73
     4
 74
     0
 42
0.000000001
 43
0.0000000001
 12
1.0
 22
0.0
 32
0.0
 13
1.0
 23
0.0
 33
0.0
 40
0.0
 40
0.0
 40
0.0
 40
0.0
 40
1.0
 40
1.0
 40
1.0
 40
1.0
 10
403.8002146644239
 20
4320.596603054533
 30
0.0000000000004547
 10
403.809760736106
 20
4320.354797649461
 30
0.0000000000004547
 10
404.277906902113
 20
4320.690946894676
 30
0.0000000000004547
 10
404.5021366088672
 20
4320.781952498975
 30
0.0000000000004547
  0
SPLINE
  5
146
330
1F
100
AcDbEntity
  8
Make2D$可见线$普通线
100
AcDbSpline
210
0.0
220
0.0
230
1.0
 70
     8
 71
     3
 72
     9
 73
     5
 74
     0
 42
0.000000001
 43
0.0000000001
 12
1.0
 22
0.0
 32
0.0
 13
1.0
 23
0.0
 33
0.0
 40
0.0
 40
0.0
 40
0.0
 40
0.0
 40
0.3922679903307509
 40
1.0
 40
1.0
 40
1.0
 40
1.0
 10
403.1573477199804
 20
4320.227279998975
 30
0.0000000000004547
 10
403.0993178878871
 20
4320.338372954786
 30
0.0000000000004547
 10
402.8347055303966
 20
4320.553918372163
 30
0.0000000000004547
 10
402.8670426205363
 20
4320.930506391291
 30
0.0000000000004547
 10
402.9284302199794
 20
4321.114727776754
 30
0.0000000000004547
  0
SPLINE
  5
147
330
1F
100
AcDbEntity
  8
Make2D$可见线$普通线
100
AcDbSpline
210
0.0
220
0.0
230
1.0
 70
     8
 71
     3
 72
     9
 73
     5
 74
     0
 42
0.000000001
 43
0.0000000001
 12
1.0
 22
0.0
 32
0.0
 13
1.0
 23
0.0
 33
0.0
 40
0.0
 40
0.0
 40
0.0
 40
0.0
 40
0.1676560479970184
 40
1.0
 40
1.0
 40
1.0
 40
1.0
 10
401.9150407755351
 20
4318.815816110093
 30
0.0000000000004547
 10
401.9364332568966
 20
4318.878342795766
 30
0.0000000000004547
 10
402.2626628112484
 20
4319.139571878326
 30
0.0000000000004547
 10
402.5036712580554
 20
4319.434597105994
 30
0.0000000000004547
 10
402.7365191088684
 20
4319.665728332313
 30
0.0000000000004547
  0
LINE
  5
148
330
1F
100
AcDbEntity
  8
Make2D$可见线$普通线
100
AcDbLine
 10
405.5594468866466
 20
4321.165739443422
 30
0.0000000000004547
 11
405.2411354977589
 21
4320.848451110092
 31
0.0000000000004547
  0
ARC
  5
149
330
1F
100
AcDbEntity
  8
Make2D$可见线$普通线
100
AcDbCircle
 10
407.0864921973975
 20
4319.557995844003
 30
0.0000000000002297
 40
2.217364846514981
100
AcDbArc
 50
110.1910642637825
 51
133.5253710742301
  0
SPLINE
  5
14A
330
1F
100
AcDbEntity
  8
Make2D$可见线$普通线
100
AcDbSpline
210
0.0
220
0.0
230
1.0
 70
     8
 71
     3
 72
     9
 73
     5
 74
     0
 42
0.000000001
 43
0.0000000001
 12
1.0
 22
0.0
 32
0.0
 13
1.0
 23
0.0
 33
0.0
 40
0.0
 40
0.0
 40
0.0
 40
0.0
 40
0.4495009420949315
 40
1.0
 40
1.0
 40
1.0
 40
1.0
 10
406.594532164424
 20
4321.357615276753
 30
0.0000000000004547
 10
406.6443255766562
 20
4321.4195978473
 30
0.0000000000004547
 10
406.6696489363972
 20
4321.671931847064
 30
0.0000000000004547
 10
406.4125298493991
 20
4321.672762362812
 30
0.0000000000004547
 10
406.321164664424
 20
4321.639096665644
 30
0.0000000000004547
  0
LINE
  5
14B
330
1F
100
AcDbEntity
  8
Make2D$可见线$普通线
100
AcDbLine
 10
406.3867813310894
 20
4321.077544998974
 30
0.0000000000004547
 11
406.594532164424
 21
4321.357615276753
 31
0.0000000000004547
  0
SPLINE
  5
14C
330
1F
100
AcDbEntity
  8
Make2D$可见线$普通线
100
AcDbSpline
210
0.0
220
0.0
230
1.0
 70
     8
 71
     3
 72
     8
 73
     4
 74
     0
 42
0.000000001
 43
0.0000000001
 12
1.0
 22
0.0
 32
0.0
 13
1.0
 23
0.0
 33
0.0
 40
0.0
 40
0.0
 40
0.0
 40
0.0
 40
1.0
 40
1.0
 40
1.0
 40
1.0
 10
405.8777582755351
 20
4320.826049721203
 30
0.0000000000004547
 10
405.8605259810784
 20
4320.637581693234
 30
0.0000000000004547
 10
406.2647901196369
 20
4320.932854661123
 30
0.0000000000004547
 10
406.3867813310894
 20
4321.077544998974
 30
0.0000000000004547
  0
LINE
  5
14D
330
1F
100
AcDbEntity
  8
Make2D$可见线$普通线
100
AcDbLine
 10
407.347465775536
 20
4321.402735554531
 30
0.0000000000004547
 11
406.705269108867
 21
4321.025157498974
 31
0.0000000000004547
  0
SPLINE
  5
14E
330
1F
100
AcDbEntity
  8
Make2D$可见线$普通线
100
AcDbSpline
210
0.0
220
0.0
230
1.0
 70
     8
 71
     3
 72
     9
 73
     5
 74
     0
 42
0.000000001
 43
0.0000000001
 12
1.0
 22
0.0
 32
0.0
 13
1.0
 23
0.0
 33
0.0
 40
0.0
 40
0.0
 40
0.0
 40
0.0
 40
0.5549761105578224
 40
1.0
 40
1.0
 40
1.0
 40
1.0
 10
407.8581821644234
 20
4320.922499165645
 30
0.0000000000004547
 10
407.7585056939993
 20
4320.827473053989
 30
0.0000000000004547
 10
407.5342418798759
 20
4320.613645042995
 30
0.0000000000004547
 10
407.2536575958547
 20
4320.856325146393
 30
0.0000000000004547
 10
407.2595888310898
 20
4320.966596387863
 30
0.0000000000004547
  0
LINE
  5
14F
330
1F
100
AcDbEntity
  8
Make2D$可见线$普通线
100
AcDbLine
 10
407.3038624422047
 20
4317.957296110091
 30
0.0000000000004547
 11
409.5069949422054
 21
4321.357615276755
 31
0.0000000000004547
  0
SPLINE
  5
150
330
1F
100
AcDbEntity
  8
Make2D$可见线$普通线
100
AcDbSpline
210
0.0
220
0.0
230
1.0
 70
     8
 71
     3
 72
     8
 73
     4
 74
     0
 42
0.000000001
 43
0.0000000001
 12
1.0
 22
0.0
 32
0.0
 13
1.0
 23
0.0
 33
0.0
 40
0.0
 40
0.0
 40
0.0
 40
0.0
 40
1.0
 40
1.0
 40
1.0
 40
1.0
 10
407.6148007755337
 20
4316.309506387865
 30
0.0000000000004547
 10
407.3572890199212
 20
4316.072674532323
 30
0.0000000000004547
 10
406.6788577610596
 20
4315.796026160871
 30
0.0000000000004547
 10
406.580385775535
 20
4316.131741665644
 30
0.0000000000004547
  0
LINE
  5
151
330
1F
100
AcDbEntity
  8
Make2D$可见线$普通线
100
AcDbLine
 10
412.1752296644272
 20
4320.500118332311
 30
0.0000000000004547
 11
407.6148007755337
 21
4316.309506387865
 31
0.0000000000004547
  0
ARC
  5
152
330
1F
100
AcDbEntity
  8
Make2D$可见线$普通线
100
AcDbCircle
 10
413.1507619719507
 20
4321.838073124204
 30
0.0000000000004547
 40
0.1641375276113284
100
AcDbArc
 50
18.66101280474851
 51
95.31372885313645
  0
SPLINE
  5
153
330
1F
100
AcDbEntity
  8
Make2D$可见线$普通线
100
AcDbSpline
210
0.0
220
0.0
230
1.0
 70
     8
 71
     3
 72
     8
 73
     4
 74
     0
 42
0.000000001
 43
0.0000000001
 12
1.0
 22
0.0
 32
0.0
 13
1.0
 23
0.0
 33
0.0
 40
0.0
 40
0.0
 40
0.0
 40
0.0
 40
1.0
 40
1.0
 40
1.0
 40
1.0
 10
412.004520497755
 20
4320.626906665644
 30
0.0000000000004547
 10
412.3837997868368
 20
4320.977034998503
 30
0.0000000000004547
 10
412.7983083402387
 20
4321.384437670582
 30
0.0000000000004547
 10
412.8995529977547
 20
4321.890591943424
 30
0.0000000000004547
  0
LINE
  5
154
330
1F
100
AcDbEntity
  8
Make2D$可见线$普通线
100
AcDbLine
 10
408.1832316088676
 20
4317.041590832312
 30
0.0000000000004547
 11
412.004520497755
 21
4320.626906665644
 31
0.0000000000004547
  0
SPLINE
  5
155
330
1F
100
AcDbEntity
  8
Make2D$可见线$普通线
100
AcDbSpline
210
0.0
220
0.0
230
1.0
 70
     8
 71
     3
 72
     9
 73
     5
 74
     0
 42
0.000000001
 43
0.0000000001
 12
1.0
 22
0.0
 32
0.0
 13
1.0
 23
0.0
 33
0.0
 40
0.0
 40
0.0
 40
0.0
 40
0.0
 40
0.803066232556906
 40
1.0
 40
1.0
 40
1.0
 40
1.0
 10
406.8901246644236
 20
4316.176544443422
 30
0.0000000000004547
 10
407.3030889312449
 20
4316.109818037756
 30
0.0000000000004547
 10
407.7504768304375
 20
4316.616286854853
 30
0.0000000000004547
 10
408.10927434519
 20
4316.970501268383
 30
0.0000000000004547
 10
408.1832316088676
 20
4317.041590832312
 30
0.0000000000004547
  0
LINE
  5
156
330
1F
100
AcDbEntity
  8
Make2D$可见线$普通线
100
AcDbLine
 10
409.7950027199786
 20
4321.439600832313
 30
0.0000000000004547
 11
407.4585554977566
 21
4317.869454443424
 31
0.0000000000004547
  0
SPLINE
  5
157
330
1F
100
AcDbEntity
  8
Make2D$可见线$普通线
100
AcDbSpline
210
0.0
220
0.0
230
1.0
 70
     8
 71
     3
 72
    13
 73
     9
 74
     0
 42
0.000000001
 43
0.0000000001
 12
1.0
 22
0.0
 32
0.0
 13
1.0
 23
0.0
 33
0.0
 40
0.0
 40
0.0
 40
0.0
 40
0.0
 40
0.2193074674918359
 40
0.5813648639272195
 40
0.7480956090203696
 40
0.8699672458039922
 40
0.9270264466027418
 40
1.0
 40
1.0
 40
1.0
 40
1.0
 10
410.4152918866494
 20
4322.82901611009
 30
0.0000000000004547
 10
410.7669990528143
 20
4323.068944715704
 30
0.0000000000004547
 10
411.3472244834447
 20
4324.098827122787
 30
0.0000000000004547
 10
412.2110658532151
 20
4325.214221044485
 30
0.0000000000004547
 10
413.0390932010755
 20
4326.228587972095
 30
0.0000000000004547
 10
413.393288762386
 20
4326.703427012264
 30
0.0000000000004547
 10
413.9816392074154
 20
4327.036485386234
 30
0.0000000000004547
 10
413.9536138477638
 20
4326.62122055321
 30
0.0000000000004547
 10
413.9346382755371
 20
4326.480830554534
 30
0.0000000000004547
  0
ARC
  5
158
330
1F
100
AcDbEntity
  8
Make2D$可见线$普通线
100
AcDbCircle
 10
408.6218893916032
 20
4321.454569075445
 30
0.0000000000002366
 40
0.7435287678669339
100
AcDbArc
 50
96.4329077292127
 51
142.0042358166846
  0
ARC
  5
159
330
1F
100
AcDbEntity
  8
Make2D$可见线$普通线
100
AcDbCircle
 10
408.0523314105826
 20
4320.555351842958
 30
0.0000000000004547
 40
1.357178001197046
100
AcDbArc
 50
110.8399243253614
 51
130.4733795504586
  0
ARC
  5
15A
330
1F
100
AcDbEntity
  8
Make2D$可见线$普通线
100
AcDbCircle
 10
406.5113521351761
 20
4321.525036261034
 30
0.0000000000004547
 40
0.3796849908627229
100
AcDbArc
 50
16.28596765483348
 51
100.9377285296152
  0
SPLINE
  5
15B
330
1F
100
AcDbEntity
  8
Make2D$可见线$普通线
100
AcDbSpline
210
0.0
220
0.0
230
1.0
 70
     8
 71
     3
 72
     8
 73
     4
 74
     0
 42
0.000000001
 43
0.0000000001
 12
1.0
 22
0.0
 32
0.0
 13
1.0
 23
0.0
 33
0.0
 40
0.0
 40
0.0
 40
0.0
 40
0.0
 40
1.0
 40
1.0
 40
1.0
 40
1.0
 10
404.5762199422015
 20
4321.017925554534
 30
0.0000000000004547
 10
404.6615445295033
 20
4321.428994104559
 30
0.0000000000004547
 10
405.1845360971811
 20
4321.944299320341
 30
0.0000000000004547
 10
405.5737343866467
 20
4321.786875276755
 30
0.0000000000004547
  0
SPLINE
  5
15C
330
1F
100
AcDbEntity
  8
Make2D$可见线$普通线
100
AcDbSpline
210
0.0
220
0.0
230
1.0
 70
     8
 71
     3
 72
     9
 73
     5
 74
     0
 42
0.000000001
 43
0.0000000001
 12
1.0
 22
0.0
 32
0.0
 13
1.0
 23
0.0
 33
0.0
 40
0.0
 40
0.0
 40
0.0
 40
0.0
 40
0.6673908083860156
 40
1.0
 40
1.0
 40
1.0
 40
1.0
 10
392.9050963310888
 20
4320.389557776754
 30
0.0000000000004547
 10
392.8488642429711
 20
4320.336639972627
 30
0.0000000000004547
 10
392.682636956014
 20
4320.155621048765
 30
0.0000000000004547
 10
392.8717362661582
 20
4320.19080599842
 30
0.0000000000004547
 10
392.8971588310901
 20
4320.219695276754
 30
0.0000000000004547
  0
SPLINE
  5
15D
330
1F
100
AcDbEntity
  8
Make2D$可见线$普通线
100
AcDbSpline
210
0.0
220
0.0
230
1.0
 70
     8
 71
     3
 72
     8
 73
     4
 74
     0
 42
0.000000001
 43
0.0000000001
 12
1.0
 22
0.0
 32
0.0
 13
1.0
 23
0.0
 33
0.0
 40
0.0
 40
0.0
 40
0.0
 40
0.0
 40
1.0
 40
1.0
 40
1.0
 40
1.0
 10
393.275442442201
 20
4320.633821110094
 30
0.0000000000004547
 10
393.252989982012
 20
4320.779988366374
 30
0.0000000000004547
 10
393.0203056630044
 20
4320.482271258075
 30
0.0000000000004547
 10
392.9050963310888
 20
4320.389557776754
 30
0.0000000000004547
  0
SPLINE
  5
15E
330
1F
100
AcDbEntity
  8
Make2D$可见线$普通线
100
AcDbSpline
210
0.0
220
0.0
230
1.0
 70
     8
 71
     3
 72
     8
 73
     4
 74
     0
 42
0.000000001
 43
0.0000000001
 12
1.0
 22
0.0
 32
0.0
 13
1.0
 23
0.0
 33
0.0
 40
0.0
 40
0.0
 40
0.0
 40
0.0
 40
1.0
 40
1.0
 40
1.0
 40
1.0
 10
388.736532997757
 20
4320.560090554534
 30
0.0000000000004547
 10
388.5660718484069
 20
4320.737257344686
 30
0.0000000000004547
 10
388.2452342584647
 20
4320.707981364598
 30
0.0000000000004547
 10
388.0051188310899
 20
4320.655164165646
 30
0.0000000000004547
  0
SPLINE
  5
15F
330
1F
100
AcDbEntity
  8
Make2D$可见线$普通线
100
AcDbSpline
210
0.0
220
0.0
230
1.0
 70
     8
 71
     3
 72
     9
 73
     5
 74
     0
 42
0.000000001
 43
0.0000000001
 12
1.0
 22
0.0
 32
0.0
 13
1.0
 23
0.0
 33
0.0
 40
0.0
 40
0.0
 40
0.0
 40
0.0
 40
0.519695159880392
 40
1.0
 40
1.0
 40
1.0
 40
1.0
 10
387.8053054977572
 20
4320.079501387865
 30
0.0000000000004547
 10
387.8954298165945
 20
4319.999880123542
 30
0.0000000000004547
 10
388.1827325328486
 20
4319.869838102644
 30
0.0000000000004547
 10
388.3096504761807
 20
4320.149599495957
 30
0.0000000000004547
 10
388.4178688310894
 20
4320.174927776754
 30
0.0000000000004547
  0
ARC
  5
160
330
1F
100
AcDbEntity
  8
Make2D$可见线$普通线
100
AcDbCircle
 10
394.2859803076651
 20
4321.715303970494
 30
0.0000000000002284
 40
3.39214760501739
100
AcDbArc
 50
146.2960431980385
 51
161.754760373048
  0
SPLINE
  5
161
330
1F
100
AcDbEntity
  8
Make2D$可见线$普通线
100
AcDbSpline
210
0.0
220
0.0
230
1.0
 70
     8
 71
     3
 72
     9
 73
     5
 74
     0
 42
0.000000001
 43
0.0000000001
 12
1.0
 22
0.0
 32
0.0
 13
1.0
 23
0.0
 33
0.0
 40
0.0
 40
0.0
 40
0.0
 40
0.0
 40
0.1767543677989364
 40
1.0
 40
1.0
 40
1.0
 40
1.0
 10
392.9050963310897
 20
4325.260572221203
 30
0.0000000000004547
 10
392.8305255936684
 20
4325.333488470758
 30
0.0000000000004547
 10
392.1118985820917
 20
4325.071201819883
 30
0.0000000000004547
 10
391.9400650057232
 20
4324.510699631737
 30
0.0000000000004547
 10
391.6483254977575
 20
4324.122299443423
 30
0.0000000000004547
  0
ARC
  5
162
330
1F
100
AcDbEntity
  8
Make2D$可见线$普通线
100
AcDbCircle
 10
392.546799702733
 20
4325.022938196629
 30
0.0000000000004547
 40
0.4299376740034225
100
AcDbArc
 50
342.1637308714615
 51
33.55363703554111
  0
SPLINE
  5
163
330
1F
100
AcDbEntity
  8
Make2D$可见线$普通线
100
AcDbSpline
210
0.0
220
0.0
230
1.0
 70
     8
 71
     3
 72
    10
 73
     6
 74
     0
 42
0.000000001
 43
0.0000000001
 12
1.0
 22
0.0
 32
0.0
 13
1.0
 23
0.0
 33
0.0
 40
0.0
 40
0.0
 40
0.0
 40
0.0
 40
0.0655835626325818
 40
0.4555676467016339
 40
1.0
 40
1.0
 40
1.0
 40
1.0
 10
392.572638553313
 20
4317.263805554534
 30
0.0000000000004547
 10
392.5714432976292
 20
4317.238073027731
 30
0.0000000000004547
 10
392.8599719722865
 20
4317.290043871424
 30
0.0000000000004547
 10
392.9566668623806
 20
4317.643840238155
 30
0.0000000000004547
 10
393.2495979986852
 20
4317.907841261193
 30
0.0000000000004547
 10
393.3712216088679
 20
4318.083731665643
 30
0.0000000000004547
  0
SPLINE
  5
164
330
1F
100
AcDbEntity
  8
Make2D$可见线$普通线
100
AcDbSpline
210
0.0
220
0.0
230
1.0
 70
     8
 71
     3
 72
     9
 73
     5
 74
     0
 42
0.000000001
 43
0.0000000001
 12
1.0
 22
0.0
 32
0.0
 13
1.0
 23
0.0
 33
0.0
 40
0.0
 40
0.0
 40
0.0
 40
0.0
 40
0.5990930415681053
 40
1.0
 40
1.0
 40
1.0
 40
1.0
 10
393.2596027199788
 20
4318.393788054535
 30
0.0000000000004547
 10
393.1315137200963
 20
4318.162738342646
 30
0.0000000000004547
 10
392.9277399873286
 20
4317.792773539313
 30
0.0000000000004547
 10
392.572638553313
 20
4317.44059172436
 30
0.0000000000004547
 10
392.572638553313
 20
4317.263805554534
 30
0.0000000000004547
  0
SPLINE
  5
165
330
1F
100
AcDbEntity
  8
Make2D$可见线$普通线
100
AcDbSpline
210
0.0
220
0.0
230
1.0
 70
     8
 71
     3
 72
     9
 73
     5
 74
     0
 42
0.000000001
 43
0.0000000001
 12
1.0
 22
0.0
 32
0.0
 13
1.0
 23
0.0
 33
0.0
 40
0.0
 40
0.0
 40
0.0
 40
0.0
 40
0.5810831581987597
 40
1.0
 40
1.0
 40
1.0
 40
1.0
 10
395.7800235533127
 20
4319.902054165645
 30
0.0000000000004547
 10
395.8912464407485
 20
4319.999997025443
 30
0.0000000000004547
 10
396.2139433516431
 20
4320.437972073343
 30
0.0000000000004547
 10
395.8296667056402
 20
4320.17220452459
 30
0.0000000000004547
 10
395.7655596644249
 20
4320.086733332313
 30
0.0000000000004547
  0
SPLINE
  5
166
330
1F
100
AcDbEntity
  8
Make2D$可见线$普通线
100
AcDbSpline
210
0.0
220
0.0
230
1.0
 70
     8
 71
     3
 72
     8
 73
     4
 74
     0
 42
0.000000001
 43
0.0000000001
 12
1.0
 22
0.0
 32
0.0
 13
1.0
 23
0.0
 33
0.0
 40
0.0
 40
0.0
 40
0.0
 40
0.0
 40
1.0
 40
1.0
 40
1.0
 40
1.0
 10
395.7655596644249
 20
4320.086733332313
 30
0.0000000000004547
 10
395.72934438529
 20
4320.036720355452
 30
0.0000000000004547
 10
395.7290802623047
 20
4319.86715967612
 30
0.0000000000004547
 10
395.7800235533127
 20
4319.902054165645
 30
0.0000000000004547
  0
LINE
  5
167
330
1F
100
AcDbEntity
  8
Make2D$可见线$普通线
100
AcDbLine
 10
396.978233275534
 20
4320.086733332311
 30
0.0000000000004547
 11
398.0717032755347
 21
4320.100844443423
 31
0.0000000000004547
  0
SPLINE
  5
168
330
1F
100
AcDbEntity
  8
Make2D$可见线$普通线
100
AcDbSpline
210
0.0
220
0.0
230
1.0
 70
     8
 71
     3
 72
     9
 73
     5
 74
     0
 42
0.000000001
 43
0.0000000001
 12
1.0
 22
0.0
 32
0.0
 13
1.0
 23
0.0
 33
0.0
 40
0.0
 40
0.0
 40
0.0
 40
0.0
 40
0.3832436372709401
 40
1.0
 40
1.0
 40
1.0
 40
1.0
 10
388.0564832755354
 20
4319.702946387864
 30
0.0000000000004547
 10
387.9915994831708
 20
4319.708848840688
 30
0.0000000000004547
 10
387.8152505907783
 20
4319.728260308902
 30
0.0000000000004547
 10
387.6986963149861
 20
4319.880073506625
 30
0.0000000000004547
 10
387.5979074422048
 20
4319.908968610091
 30
0.0000000000004547
  0
ARC
  5
169
330
1F
100
AcDbEntity
  8
Make2D$可见线$普通线
100
AcDbCircle
 10
388.3874011952488
 20
4320.434981392573
 30
0.0000000000002312
 40
0.6174962467415215
100
AcDbArc
 50
300.3397532001472
 51
329.7514240244503
  0
ARC
  5
16A
330
1F
100
AcDbEntity
  8
Make2D$可见线$普通线
100
AcDbCircle
 10
389.1907919774289
 20
4319.995688682206
 30
0.0000000000002352
 40
0.2988727543903498
100
AcDbArc
 50
112.5405944641216
 51
154.5935476640279
  0
SPLINE
  5
16B
330
1F
100
AcDbEntity
  8
Make2D$可见线$普通线
100
AcDbSpline
210
0.0
220
0.0
230
1.0
 70
     8
 71
     3
 72
    10
 73
     6
 74
     0
 42
0.000000001
 43
0.0000000001
 12
1.0
 22
0.0
 32
0.0
 13
1.0
 23
0.0
 33
0.0
 40
0.0
 40
0.0
 40
0.0
 40
0.0
 40
0.0726148058384974
 40
0.4009809143338466
 40
1.0
 40
1.0
 40
1.0
 40
1.0
 10
390.4580532755335
 20
4320.433654998975
 30
0.0000000000004547
 10
390.4744743838196
 20
4320.465151813831
 30
0.0000000000004547
 10
390.2884231828275
 20
4320.663167895775
 30
0.0000000000004547
 10
389.7843821953779
 20
4320.402622513513
 30
0.0000000000004547
 10
389.3546679826363
 20
4320.36298582581
 30
0.0000000000004547
 10
389.076222719978
 20
4320.271729998976
 30
0.0000000000004547
  0
SPLINE
  5
16C
330
1F
100
AcDbEntity
  8
Make2D$可见线$普通线
100
AcDbSpline
210
0.0
220
0.0
230
1.0
 70
     8
 71
     3
 72
     8
 73
     4
 74
     0
 42
0.000000001
 43
0.0000000001
 12
1.0
 22
0.0
 32
0.0
 13
1.0
 23
0.0
 33
0.0
 40
0.0
 40
0.0
 40
0.0
 40
0.0
 40
1.0
 40
1.0
 40
1.0
 40
1.0
 10
392.4768593866452
 20
4320.294131387864
 30
0.0000000000004547
 10
392.5602425897514
 20
4320.554934134765
 30
0.0000000000004547
 10
391.8718864148941
 20
4320.426018512548
 30
0.0000000000004547
 10
391.6562629977584
 20
4320.257266110091
 30
0.0000000000004547
  0
SPLINE
  5
16D
330
1F
100
AcDbEntity
  8
Make2D$可见线$普通线
100
AcDbSpline
210
0.0
220
0.0
230
1.0
 70
     8
 71
     3
 72
     9
 73
     5
 74
     0
 42
0.000000001
 43
0.0000000001
 12
1.0
 22
0.0
 32
0.0
 13
1.0
 23
0.0
 33
0.0
 40
0.0
 40
0.0
 40
0.0
 40
0.0
 40
0.4106397260644913
 40
1.0
 40
1.0
 40
1.0
 40
1.0
 10
392.8017324422021
 20
4319.894822221204
 30
0.0000000000004547
 10
392.7249374485305
 20
4319.830685742971
 30
0.0000000000004547
 10
392.3688026016662
 20
4319.785838622753
 30
0.0000000000004547
 10
392.4318827046818
 20
4320.157755542821
 30
0.0000000000004547
 10
392.4768593866452
 20
4320.294131387864
 30
0.0000000000004547
  0
SPLINE
  5
16E
330
1F
100
AcDbEntity
  8
Make2D$可见线$普通线
100
AcDbSpline
210
0.0
220
0.0
230
1.0
 70
     8
 71
     3
 72
     8
 73
     4
 74
     0
 42
0.000000001
 43
0.0000000001
 12
1.0
 22
0.0
 32
0.0
 13
1.0
 23
0.0
 33
0.0
 40
0.0
 40
0.0
 40
0.0
 40
0.0
 40
1.0
 40
1.0
 40
1.0
 40
1.0
 10
394.3840818866452
 20
4320.130830554534
 30
0.0000000000004547
 10
394.4982035416274
 20
4320.253289240591
 30
0.0000000000004547
 10
394.4064552480986
 20
4320.529344091679
 30
0.0000000000004547
 10
394.2648782755355
 20
4320.618651665645
 30
0.0000000000004547
  0
ARC
  5
16F
330
1F
100
AcDbEntity
  8
Make2D$可见线$普通线
100
AcDbCircle
 10
401.8227137790761
 20
4313.175724474387
 30
0.0000000000002277
 40
10.18365086877913
100
AcDbArc
 50
136.9240015582957
 51
145.4212354347751
  0
SPLINE
  5
170
330
1F
100
AcDbEntity
  8
Make2D$可见线$普通线
100
AcDbSpline
210
0.0
220
0.0
230
1.0
 70
     8
 71
     3
 72
     9
 73
     5
 74
     0
 42
0.000000001
 43
0.0000000001
 12
1.0
 22
0.0
 32
0.0
 13
1.0
 23
0.0
 33
0.0
 40
0.0
 40
0.0
 40
0.0
 40
0.0
 40
0.3815451814256977
 40
1.0
 40
1.0
 40
1.0
 40
1.0
 10
392.2770460533147
 20
4316.612683610092
 30
0.0000000000004547
 10
392.2091764495935
 20
4316.564301089447
 30
0.0000000000004547
 10
391.8662495805947
 20
4316.587661949483
 30
0.0000000000004547
 10
392.0711867855789
 20
4316.897889940987
 30
0.0000000000004547
 10
392.1430257755346
 20
4317.012310276754
 30
0.0000000000004547
  0
ARC
  5
171
330
1F
100
AcDbEntity
  8
Make2D$可见线$普通线
100
AcDbCircle
 10
396.0089777387684
 20
4319.758309365459
 30
0.0000000000004547
 40
0.0755682508882062
100
AcDbArc
 50
7.663428759094013
 51
112.1038355767266
  0
SPLINE
  5
172
330
1F
100
AcDbEntity
  8
Make2D$可见线$普通线
100
AcDbSpline
210
0.0
220
0.0
230
1.0
 70
     8
 71
     3
 72
     9
 73
     5
 74
     0
 42
0.000000001
 43
0.0000000001
 12
1.0
 22
0.0
 32
0.0
 13
1.0
 23
0.0
 33
0.0
 40
0.0
 40
0.0
 40
0.0
 40
0.0
 40
0.4661142510085747
 40
1.0
 40
1.0
 40
1.0
 40
1.0
 10
400.4892893866449
 20
4316.250592498978
 30
0.0000000000004547
 10
399.7902755664327
 20
4316.12230471001
 30
0.0000000000004547
 10
398.2971128944782
 20
4315.771841713533
 30
0.0000000000004547
 10
396.6792994978123
 20
4316.392841229723
 30
0.0000000000004547
 10
396.1424321644226
 20
4317.004725554532
 30
0.0000000000004547
  0
SPLINE
  5
173
330
1F
100
AcDbEntity
  8
Make2D$可见线$普通线
100
AcDbSpline
210
0.0
220
0.0
230
1.0
 70
     8
 71
     3
 72
     8
 73
     4
 74
     0
 42
0.000000001
 43
0.0000000001
 12
1.0
 22
0.0
 32
0.0
 13
1.0
 23
0.0
 33
0.0
 40
0.0
 40
0.0
 40
0.0
 40
0.0
 40
1.0
 40
1.0
 40
1.0
 40
1.0
 10
401.3092154977567
 20
4316.679534998973
 30
0.0000000000004547
 10
401.2247721139615
 20
4316.382869394038
 30
0.0000000000004547
 10
400.7917953856568
 20
4316.310852658142
 30
0.0000000000004547
 10
400.4892893866449
 20
4316.250592498978
 30
0.0000000000004547
  0
ARC
  5
174
330
1F
100
AcDbEntity
  8
Make2D$可见线$普通线
100
AcDbCircle
 10
400.8838884886283
 20
4316.794081943423
 30
0.0000000000004547
 40
0.1627567898762422
100
AcDbArc
 50
315.267957183692
 51
44.73204281449678
  0
ARC
  5
175
330
1F
100
AcDbEntity
  8
Make2D$可见线$普通线
100
AcDbCircle
 10
399.1318025331278
 20
4320.455588023075
 30
0.0000000000004547
 40
4.212708709370928
100
AcDbArc
 50
270.8660486396164
 51
296.3178955449232
  0
SPLINE
  5
176
330
1F
100
AcDbEntity
  8
Make2D$可见线$普通线
100
AcDbSpline
210
0.0
220
0.0
230
1.0
 70
     8
 71
     3
 72
     8
 73
     4
 74
     0
 42
0.000000001
 43
0.0000000001
 12
1.0
 22
0.0
 32
0.0
 13
1.0
 23
0.0
 33
0.0
 40
0.0
 40
0.0
 40
0.0
 40
0.0
 40
1.0
 40
1.0
 40
1.0
 40
1.0
 10
399.6461152199799
 20
4320.123916110091
 30
0.0000000000004547
 10
398.7342877516271
 20
4319.854219680677
 30
0.0000000000004547
 10
397.7505434066256
 20
4319.963484635808
 30
0.0000000000004547
 10
396.8004685533128
 20
4319.924455554536
 30
0.0000000000004547
  0
SPLINE
  5
177
330
1F
100
AcDbEntity
  8
Make2D$可见线$普通线
100
AcDbSpline
210
0.0
220
0.0
230
1.0
 70
     8
 71
     3
 72
    10
 73
     6
 74
     0
 42
0.000000001
 43
0.0000000001
 12
1.0
 22
0.0
 32
0.0
 13
1.0
 23
0.0
 33
0.0
 40
0.0
 40
0.0
 40
0.0
 40
0.0
 40
0.5665345983273335
 40
0.7652202571975919
 40
1.0
 40
1.0
 40
1.0
 40
1.0
 10
399.6974443866452
 20
4319.532766387863
 30
0.0000000000004547
 10
399.7795115787076
 20
4319.663978844983
 30
0.0000000000004547
 10
399.8778992349776
 20
4319.833031087182
 30
0.0000000000004547
 10
399.8729379426077
 20
4320.172751200333
 30
0.0000000000004547
 10
399.7061341858712
 20
4320.146525070537
 30
0.0000000000004547
 10
399.6461152199799
 20
4320.123916110091
 30
0.0000000000004547
  0
ARC
  5
178
330
1F
100
AcDbEntity
  8
Make2D$可见线$普通线
100
AcDbCircle
 10
469.6004811220524
 20
4283.753096138307
 30
0.0000000000004547
 40
78.5278253105144
100
AcDbArc
 50
152.8944926411046
 51
153.6251884972929
  0
ARC
  5
179
330
1F
100
AcDbEntity
  8
Make2D$可见线$普通线
100
AcDbCircle
 10
393.3141719039083
 20
4321.922156822334
 30
0.0000000000002279
 40
6.780825764059434
100
AcDbArc
 50
320.1900119639892
 51
331.0353232393552
  0
ARC
  5
17A
330
1F
100
AcDbEntity
  8
Make2D$可见线$普通线
100
AcDbCircle
 10
398.6692227440674
 20
4317.524304978552
 30
0.0000000000004547
 40
0.1567374712640973
100
AcDbArc
 50
158.8818104892687
 51
245.5411259380584
  0
ARC
  5
17B
330
1F
100
AcDbEntity
  8
Make2D$可见线$普通线
100
AcDbCircle
 10
398.6170607619472
 20
4317.5763479319
 30
0.0000000000004547
 40
0.1951305199055351
100
AcDbArc
 50
266.2584007567472
 51
336.9073104835916
  0
ARC
  5
17C
330
1F
100
AcDbEntity
  8
Make2D$可见线$普通线
100
AcDbCircle
 10
388.8764666181681
 20
4324.683826086699
 30
0.0000000000002277
 40
12.24819170992449
100
AcDbArc
 50
324.0883849299427
 51
333.2828281315101
  0
ARC
  5
17D
330
1F
100
AcDbEntity
  8
Make2D$可见线$普通线
100
AcDbCircle
 10
401.4529628721654
 20
4321.100189610593
 30
0.0000000000004547
 40
0.6713768769530324
100
AcDbArc
 50
32.54167867109976
 51
98.52053225253563
  0
SPLINE
  5
17E
330
1F
100
AcDbEntity
  8
Make2D$可见线$普通线
100
AcDbSpline
210
0.0
220
0.0
230
1.0
 70
     8
 71
     3
 72
     9
 73
     5
 74
     0
 42
0.000000001
 43
0.0000000001
 12
1.0
 22
0.0
 32
0.0
 13
1.0
 23
0.0
 33
0.0
 40
0.0
 40
0.0
 40
0.0
 40
0.0
 40
0.2345754282913558
 40
1.0
 40
1.0
 40
1.0
 40
1.0
 10
397.5625038310895
 20
4320.737502498976
 30
0.0000000000004547
 10
397.846282223436
 20
4320.856910750674
 30
0.0000000000004547
 10
399.0484883282707
 20
4321.361716753247
 30
0.0000000000004547
 10
400.3503284382832
 20
4321.818096458936
 30
0.0000000000004547
 10
401.3534891088684
 20
4321.764156387866
 30
0.0000000000004547
  0
SPLINE
  5
17F
330
1F
100
AcDbEntity
  8
Make2D$可见线$普通线
100
AcDbSpline
210
0.0
220
0.0
230
1.0
 70
     8
 71
     3
 72
     8
 73
     4
 74
     0
 42
0.000000001
 43
0.0000000001
 12
1.0
 22
0.0
 32
0.0
 13
1.0
 23
0.0
 33
0.0
 40
0.0
 40
0.0
 40
0.0
 40
0.0
 40
1.0
 40
1.0
 40
1.0
 40
1.0
 10
396.2389168866471
 20
4320.153549443423
 30
0.0000000000004547
 10
396.1817298034375
 20
4320.075790624482
 30
0.0000000000004547
 10
396.4465649715494
 20
4320.078381147825
 30
0.0000000000004547
 10
396.5275949422021
 20
4320.130830554534
 30
0.0000000000004547
  0
ARC
  5
180
330
1F
100
AcDbEntity
  8
Make2D$可见线$普通线
100
AcDbCircle
 10
392.7019549900102
 20
4321.994887496453
 30
0.0000000000004547
 40
3.987558812581643
100
AcDbArc
 50
332.4985696060077
 51
340.4993739740519
  0
SPLINE
  5
181
330
1F
100
AcDbEntity
  8
Make2D$可见线$普通线
100
AcDbSpline
210
0.0
220
0.0
230
1.0
 70
     8
 71
     3
 72
     8
 73
     4
 74
     0
 42
0.000000001
 43
0.0000000001
 12
1.0
 22
0.0
 32
0.0
 13
1.0
 23
0.0
 33
0.0
 40
0.0
 40
0.0
 40
0.0
 40
0.0
 40
1.0
 40
1.0
 40
1.0
 40
1.0
 10
397.1105249422017
 20
4320.877378887864
 30
0.0000000000004547
 10
397.1391009973136
 20
4321.103566768792
 30
0.0000000000004547
 10
396.6334928737347
 20
4320.81259199542
 30
0.0000000000004547
 10
396.4607788310909
 20
4320.663771943422
 30
0.0000000000004547
  0
ARC
  5
182
330
1F
100
AcDbEntity
  8
Make2D$可见线$普通线
100
AcDbCircle
 10
397.0185733516336
 20
4321.425035885735
 30
0.0000000000004547
 40
0.6118597792969402
100
AcDbArc
 50
300.8561716254054
 51
341.6643931705116
  0
ARC
  5
183
330
1F
100
AcDbEntity
  8
Make2D$可见线$普通线
100
AcDbCircle
 10
399.3565913675429
 20
4316.112344602627
 30
0.0000000000002276
 40
5.651211735796588
100
AcDbArc
 50
112.8415961767891
 51
120.6547621669623
  0
SPLINE
  5
184
330
1F
100
AcDbEntity
  8
Make2D$可见线$普通线
100
AcDbSpline
210
0.0
220
0.0
230
1.0
 70
     8
 71
     3
 72
     8
 73
     4
 74
     0
 42
0.000000001
 43
0.0000000001
 12
1.0
 22
0.0
 32
0.0
 13
1.0
 23
0.0
 33
0.0
 40
0.0
 40
0.0
 40
0.0
 40
0.0
 40
1.0
 40
1.0
 40
1.0
 40
1.0
 10
394.9752668866458
 20
4320.618651665643
 30
0.0000000000004547
 10
395.3032645054873
 20
4320.865509138695
 30
0.0000000000004547
 10
395.6964289555176
 20
4321.135780852574
 30
0.0000000000004547
 10
396.1059196644242
 20
4321.106825554536
 30
0.0000000000004547
  0
SPLINE
  5
185
330
1F
100
AcDbEntity
  8
Make2D$可见线$普通线
100
AcDbSpline
210
0.0
220
0.0
230
1.0
 70
     8
 71
     3
 72
     8
 73
     4
 74
     0
 42
0.000000001
 43
0.0000000001
 12
1.0
 22
0.0
 32
0.0
 13
1.0
 23
0.0
 33
0.0
 40
0.0
 40
0.0
 40
0.0
 40
0.0
 40
1.0
 40
1.0
 40
1.0
 40
1.0
 10
394.5825193866449
 20
4320.500118332313
 30
0.0000000000004547
 10
394.6917049898484
 20
4320.417786155302
 30
0.0000000000004547
 10
394.8662766886378
 20
4320.536060987861
 30
0.0000000000004547
 10
394.9752668866458
 20
4320.618651665643
 30
0.0000000000004547
  0
ARC
  5
186
330
1F
100
AcDbEntity
  8
Make2D$可见线$普通线
100
AcDbCircle
 10
394.0287954036332
 20
4320.367082662659
 30
0.0000000000004547
 40
0.5694811136132683
100
AcDbArc
 50
13.50961703800019
 51
81.11559697204795
  0
SPLINE
  5
187
330
1F
100
AcDbEntity
  8
Make2D$可见线$普通线
100
AcDbSpline
210
0.0
220
0.0
230
1.0
 70
     8
 71
     3
 72
     8
 73
     4
 74
     0
 42
0.000000001
 43
0.0000000001
 12
1.0
 22
0.0
 32
0.0
 13
1.0
 23
0.0
 33
0.0
 40
0.0
 40
0.0
 40
0.0
 40
0.0
 40
1.0
 40
1.0
 40
1.0
 40
1.0
 10
392.6315524422012
 20
4320.722333054531
 30
0.0000000000004547
 10
392.7072119523618
 20
4320.674759767035
 30
0.0000000000004547
 10
392.8025164535184
 20
4320.560637495766
 30
0.0000000000004547
 10
392.8758157755337
 20
4320.611772498976
 30
0.0000000000004547
  0
SPLINE
  5
188
330
1F
100
AcDbEntity
  8
Make2D$可见线$普通线
100
AcDbSpline
210
0.0
220
0.0
230
1.0
 70
     8
 71
     3
 72
     8
 73
     4
 74
     0
 42
0.000000001
 43
0.0000000001
 12
1.0
 22
0.0
 32
0.0
 13
1.0
 23
0.0
 33
0.0
 40
0.0
 40
0.0
 40
0.0
 40
0.0
 40
1.0
 40
1.0
 40
1.0
 40
1.0
 10
391.663142164422
 20
4320.522872498977
 30
0.0000000000004547
 10
391.9405537553562
 20
4320.700820138676
 30
0.0000000000004547
 10
392.3508944911587
 20
4320.895115194164
 30
0.0000000000004547
 10
392.6315524422012
 20
4320.722333054531
 30
0.0000000000004547
  0
SPLINE
  5
189
330
1F
100
AcDbEntity
  8
Make2D$可见线$普通线
100
AcDbSpline
210
0.0
220
0.0
230
1.0
 70
     8
 71
     3
 72
     9
 73
     5
 74
     0
 42
0.000000001
 43
0.0000000001
 12
1.0
 22
0.0
 32
0.0
 13
1.0
 23
0.0
 33
0.0
 40
0.0
 40
0.0
 40
0.0
 40
0.0
 40
0.4788875885990299
 40
1.0
 40
1.0
 40
1.0
 40
1.0
 10
390.9906418866458
 20
4320.856000554533
 30
0.0000000000004547
 10
390.9477132632237
 20
4320.743921361411
 30
0.0000000000004547
 10
391.2009127548426
 20
4320.442236873194
 30
0.0000000000004547
 10
390.818093342541
 20
4320.336761831268
 30
0.0000000000004547
 10
390.6874999422025
 20
4320.338228610091
 30
0.0000000000004547
  0
LINE
  5
18A
330
1F
100
AcDbEntity
  8
Make2D$可见线$普通线
100
AcDbLine
 10
391.5890588310895
 20
4321.683193887864
 30
0.0000000000004547
 11
390.9906418866458
 21
4320.856000554533
 31
0.0000000000004547
  0
ARC
  5
18B
330
1F
100
AcDbEntity
  8
Make2D$可见线$普通线
100
AcDbCircle
 10
445.0913942356546
 20
4289.904415955139
 30
0.0000000000004547
 40
62.22853542097874
100
AcDbArc
 50
147.7908590785144
 51
149.2909621339474
  0
SPLINE
  5
18C
330
1F
100
AcDbEntity
  8
Make2D$可见线$普通线
100
AcDbSpline
210
0.0
220
0.0
230
1.0
 70
     8
 71
     3
 72
     9
 73
     5
 74
     0
 42
0.000000001
 43
0.0000000001
 12
1.0
 22
0.0
 32
0.0
 13
1.0
 23
0.0
 33
0.0
 40
0.0
 40
0.0
 40
0.0
 40
0.0
 40
0.7822577005609395
 40
1.0
 40
1.0
 40
1.0
 40
1.0
 10
393.1789929977567
 20
4325.046294998974
 30
0.0000000000004547
 10
393.1843961318546
 20
4324.494815111948
 30
0.0000000000004547
 10
392.8669374996457
 20
4323.810904429603
 30
0.0000000000004547
 10
392.5173489493654
 20
4323.205131581526
 30
0.0000000000004547
 10
392.4393238310904
 20
4323.072926665644
 30
0.0000000000004547
  0
ARC
  5
18D
330
1F
100
AcDbEntity
  8
Make2D$可见线$普通线
100
AcDbCircle
 10
387.5402701809945
 20
4320.763667632645
 30
0.0000000000002331
 40
0.5262560477855527
100
AcDbArc
 50
226.4382159893557
 51
262.6430656567454
  0
SPLINE
  5
18E
330
1F
100
AcDbEntity
  8
Make2D$可见线$普通线
100
AcDbSpline
210
0.0
220
0.0
230
1.0
 70
     8
 71
     3
 72
     9
 73
     5
 74
     0
 42
0.000000001
 43
0.0000000001
 12
1.0
 22
0.0
 32
0.0
 13
1.0
 23
0.0
 33
0.0
 40
0.0
 40
0.0
 40
0.0
 40
0.0
 40
0.5482555267921324
 40
1.0
 40
1.0
 40
1.0
 40
1.0
 10
382.3796538310871
 20
4320.419508610088
 30
0.0000000000004547
 10
382.324064814185
 20
4320.404510836648
 30
0.0000000000004547
 10
382.1461963264451
 20
4320.379252795416
 30
0.0000000000004547
 10
382.2282800091079
 20
4320.526544510327
 30
0.0000000000004547
 10
382.261826053315
 20
4320.560090554534
 30
0.0000000000004547
  0
ARC
  5
18F
330
1F
100
AcDbEntity
  8
Make2D$可见线$普通线
100
AcDbCircle
 10
383.0371221682001
 20
4317.604194956441
 30
0.0000000000002292
 40
2.891064783556529
100
AcDbArc
 50
82.49908856280491
 51
103.1448652838434
  0
SPLINE
  5
190
330
1F
100
AcDbEntity
  8
Make2D$可见线$普通线
100
AcDbSpline
210
0.0
220
0.0
230
1.0
 70
     8
 71
     3
 72
     8
 73
     4
 74
     0
 42
0.000000001
 43
0.0000000001
 12
1.0
 22
0.0
 32
0.0
 13
1.0
 23
0.0
 33
0.0
 40
0.0
 40
0.0
 40
0.0
 40
0.0
 40
1.0
 40
1.0
 40
1.0
 40
1.0
 10
386.556472164425
 20
4320.301363332315
 30
0.0000000000004547
 10
386.391137687182
 20
4320.173995900866
 30
0.0000000000004547
 10
386.1341515267768
 20
4319.895321347891
 30
0.0000000000004547
 10
385.9863127199751
 20
4320.042636110093
 30
0.0000000000004547
  0
ARC
  5
191
330
1F
100
AcDbEntity
  8
Make2D$可见线$普通线
100
AcDbCircle
 10
386.6850198107629
 20
4320.092859855285
 30
0.0000000000008217
 40
0.2449452945313599
100
AcDbArc
 50
51.98546166860575
 51
121.6548780917044
  0
ARC
  5
192
330
1F
100
AcDbEntity
  8
Make2D$可见线$普通线
100
AcDbCircle
 10
383.7500018866467
 20
4362.125303054535
 30
0.0000000000005879
 40
0.7500000000009095
100
AcDbArc
 50
180.0000000000695
 51
269.9999999999349
  0
ARC
  5
193
330
1F
100
AcDbEntity
  8
Make2D$可见线$普通线
100
AcDbCircle
 10
383.7500018866449
 20
4370.125303054535
 30
0.0000000000005879
 40
0.7499999999990905
100
AcDbArc
 50
89.99999999993052
 51
180.0000000000695
  0
ARC
  5
194
330
1F
100
AcDbEntity
  8
Make2D$可见线$普通线
100
AcDbCircle
 10
412.2500018866476
 20
4370.125303054536
 30
0.0000000000005879
 40
0.749999999998181
100
AcDbArc
 50
359.999999999861
 51
90.00000000013897
  0
ARC
  5
195
330
1F
100
AcDbEntity
  8
Make2D$可见线$普通线
100
AcDbCircle
 10
412.2500018866457
 20
4362.125303054534
 30
0.0000000000002664
 40
0.7500000000001137
100
AcDbArc
 50
270.0000000000086
 51
0.0
  0
ARC
  5
196
330
1F
100
AcDbEntity
  8
Make2D$可见线$普通线
100
AcDbCircle
 10
371.5000018866495
 20
4281.777058785142
 30
0.0000000000005975
 40
6.499999999996305
100
AcDbArc
 50
271.249999999931
 51
0.000000000008017
  0
ARC
  5
197
330
1F
100
AcDbEntity
  8
Make2D$可见线$普通线
100
AcDbCircle
 10
383.0000018866465
 20
4370.875303054532
 30
0.0000000000005879
 40
5.000000000001819
100
AcDbArc
 50
90.00000000000783
 51
179.9999999999792
  0
ARC
  5
198
330
1F
100
AcDbEntity
  8
Make2D$可见线$普通线
100
AcDbCircle
 10
413.0000018866484
 20
4370.875303054537
 30
0.0000000000005879
 40
4.999999999997442
100
AcDbArc
 50
359.9999999999687
 51
90.00000000002932
  0
ARC
  5
199
330
1F
100
AcDbEntity
  8
Make2D$可见线$普通线
100
AcDbCircle
 10
424.5000018866371
 20
4281.777058785141
 30
0.0000000000002652
 40
6.499999999991327
100
AcDbArc
 50
179.999999999984
 51
268.7500000001161
  0
LINE
  5
19A
330
1F
100
AcDbEntity
  8
Make2D$可见线$普通线
100
AcDbLine
 10
371.6417986393662
 20
4275.278605609126
 30
0.0000000000004547
 11
263.0000018866458
 21
4272.908033170945
 31
0.0000000000004547
  0
SPLINE
  5
19B
330
1F
100
AcDbEntity
  8
Make2D$可见线$普通线
100
AcDbSpline
210
0.0
220
0.0
230
1.0
 70
     8
 71
     3
 72
     9
 73
     5
 74
     0
 42
0.000000001
 43
0.0000000001
 12
1.0
 22
0.0
 32
0.0
 13
1.0
 23
0.0
 33
0.0
 40
0.0
 40
0.0
 40
0.0
 40
0.0
 40
0.9033748823116
 40
1.0
 40
1.0
 40
1.0
 40
1.0
 10
411.7087516088677
 20
4324.226333610093
 30
0.0000000000004547
 10
411.5404837649371
 20
4323.960834984233
 30
0.0000000000004547
 10
411.2583971393669
 20
4323.893262357315
 30
0.0000000000004547
 10
411.1578832965261
 20
4323.344684387364
 30
0.0000000000004547
 10
411.191473553316
 20
4323.346117776755
 30
0.0000000000004547
  0
SPLINE
  5
19C
330
1F
100
AcDbEntity
  8
Make2D$可见线$普通线
100
AcDbSpline
210
0.0
220
0.0
230
1.0
 70
     8
 71
     3
 72
    10
 73
     6
 74
     0
 42
0.000000001
 43
0.0000000001
 12
1.0
 22
0.0
 32
0.0
 13
1.0
 23
0.0
 33
0.0
 40
0.0
 40
0.0
 40
0.0
 40
0.0
 40
0.2275013108326
 40
0.4483939620149
 40
1.0
 40
1.0
 40
1.0
 40
1.0
 10
413.6462777199795
 20
4326.140435276753
 30
0.0000000000004547
 10
413.6781532918199
 20
4326.249848629002
 30
0.0000000000004547
 10
413.7254960352011
 20
4326.638722807671
 30
0.0000000000004547
 10
413.168503158417
 20
4326.101198542343
 30
0.0000000000004547
 10
413.0442491593958
 20
4325.845296668294
 30
0.0000000000004547
 10
412.8330896644247
 20
4325.667078054536
 30
0.0000000000004547
  0
SPLINE
  5
19D
330
1F
100
AcDbEntity
  8
Make2D$可见线$普通线
100
AcDbSpline
210
0.0
220
0.0
230
1.0
 70
     8
 71
     3
 72
    10
 73
     6
 74
     0
 42
0.000000001
 43
0.0000000001
 12
1.0
 22
0.0
 32
0.0
 13
1.0
 23
0.0
 33
0.0
 40
0.0
 40
0.0
 40
0.0
 40
0.0
 40
0.1767165743339
 40
0.4649099901564
 40
1.0
 40
1.0
 40
1.0
 40
1.0
 10
411.191473553316
 20
4323.346117776755
 30
0.0000000000004547
 10
411.4138461716361
 20
4323.352513642365
 30
0.0000000000004547
 10
411.9019102140364
 20
4323.787192597005
 30
0.0000000000004547
 10
412.7375781350279
 20
4324.648250884873
 30
0.0000000000004547
 10
413.4589524856588
 20
4325.493393032973
 30
0.0000000000004547
 10
413.6462777199795
 20
4326.140435276753
 30
0.0000000000004547
  0
SPLINE
  5
19E
330
1F
100
AcDbEntity
  8
Make2D$可见线$普通线
100
AcDbSpline
210
0.0
220
0.0
230
1.0
 70
     8
 71
     3
 72
    10
 73
     6
 74
     0
 42
0.000000001
 43
0.0000000001
 12
1.0
 22
0.0
 32
0.0
 13
1.0
 23
0.0
 33
0.0
 40
0.0
 40
0.0
 40
0.0
 40
0.0
 40
0.3469613333094
 40
0.7638310576358
 40
1.0
 40
1.0
 40
1.0
 40
1.0
 10
403.6152179977571
 20
4321.579477221201
 30
0.0000000000004547
 10
403.4582724519578
 20
4321.58412233496
 30
0.0000000000004547
 10
403.2190993951581
 20
4321.251623478431
 30
0.0000000000004547
 10
402.966230377157
 20
4320.812147659342
 30
0.0000000000004547
 10
403.2155953820429
 20
4320.540140518984
 30
0.0000000000004547
 10
403.319625497757
 20
4320.515640554533
 30
0.0000000000004547
  0
SPLINE
  5
19F
330
1F
100
AcDbEntity
  8
Make2D$可见线$普通线
100
AcDbSpline
210
0.0
220
0.0
230
1.0
 70
     8
 71
     3
 72
     9
 73
     5
 74
     0
 42
0.000000001
 43
0.0000000001
 12
1.0
 22
0.0
 32
0.0
 13
1.0
 23
0.0
 33
0.0
 40
0.0
 40
0.0
 40
0.0
 40
0.0
 40
0.5807879004848
 40
1.0
 40
1.0
 40
1.0
 40
1.0
 10
403.7340688310906
 20
4320.996229721204
 30
0.0000000000004547
 10
403.8062156126471
 20
4321.116891973234
 30
0.0000000000004547
 10
403.9790017949422
 20
4321.375178870692
 30
0.0000000000004547
 10
403.7166931176407
 20
4321.579477221201
 30
0.0000000000004547
 10
403.6152179977571
 20
4321.579477221201
 30
0.0000000000004547
  0
SPLINE
  5
1A0
330
1F
100
AcDbEntity
  8
Make2D$可见线$普通线
100
AcDbSpline
210
0.0
220
0.0
230
1.0
 70
     8
 71
     3
 72
     8
 73
     4
 74
     0
 42
0.000000001
 43
0.0000000001
 12
1.0
 22
0.0
 32
0.0
 13
1.0
 23
0.0
 33
0.0
 40
0.0
 40
0.0
 40
0.0
 40
0.0
 40
1.0
 40
1.0
 40
1.0
 40
1.0
 10
403.319625497757
 20
4320.515640554533
 30
0.0000000000004547
 10
403.524763107117
 20
4320.464004784524
 30
0.0000000000004547
 10
403.6269047850865
 20
4320.813846721003
 30
0.0000000000004547
 10
403.7340688310906
 20
4320.996229721204
 30
0.0000000000004547
  0
ARC
  5
1A1
330
1F
100
AcDbEntity
  8
Make2D$可见线$普通线
100
AcDbCircle
 10
404.9415530382981
 20
4321.033516996039
 30
0.0000000000004547
 40
0.1141443387599368
100
AcDbArc
 50
184.1998849842604
 51
283.4411541703715
  0
SPLINE
  5
1A2
330
1F
100
AcDbEntity
  8
Make2D$可见线$普通线
100
AcDbSpline
210
0.0
220
0.0
230
1.0
 70
     8
 71
     3
 72
     8
 73
     4
 74
     0
 42
0.000000001
 43
0.0000000001
 12
1.0
 22
0.0
 32
0.0
 13
1.0
 23
0.0
 33
0.0
 40
0.0
 40
0.0
 40
0.0
 40
0.0
 40
1.0
 40
1.0
 40
1.0
 40
1.0
 10
405.3079516088674
 20
4321.505429165645
 30
0.0000000000004547
 10
405.1138957070843
 20
4321.388825074873
 30
0.0000000000004547
 10
404.8798287165514
 20
4321.245471798284
 30
0.0000000000004547
 10
404.8277152199785
 20
4321.025157498974
 30
0.0000000000004547
  0
ARC
  5
1A3
330
1F
100
AcDbEntity
  8
Make2D$可见线$普通线
100
AcDbCircle
 10
403.6009842329895
 20
4322.711354632032
 30
0.0000000000004547
 40
2.25143726267476
100
AcDbArc
 50
307.3882336520596
 51
322.5877661059737
  0
SPLINE
  5
1A4
330
1F
100
AcDbEntity
  8
Make2D$可见线$普通线
100
AcDbSpline
210
0.0
220
0.0
230
1.0
 70
     8
 71
     3
 72
     8
 73
     4
 74
     0
 42
0.000000001
 43
0.0000000001
 12
1.0
 22
0.0
 32
0.0
 13
1.0
 23
0.0
 33
0.0
 40
0.0
 40
0.0
 40
0.0
 40
0.0
 40
1.0
 40
1.0
 40
1.0
 40
1.0
 10
392.8971588310901
 20
4320.219695276754
 30
0.0000000000004547
 10
393.0297759719729
 20
4320.351483381834
 30
0.0000000000004547
 10
393.3000903168963
 20
4320.448489264554
 30
0.0000000000004547
 10
393.275442442201
 20
4320.633821110094
 30
0.0000000000004547
  0
ARC
  5
1A5
330
1F
100
AcDbEntity
  8
Make2D$可见线$普通线
100
AcDbCircle
 10
388.071921149107
 20
4320.309467861372
 30
0.0000000000004547
 40
0.3520915853602627
100
AcDbArc
 50
100.9370246697116
 51
220.7790604988893
  0
SPLINE
  5
1A6
330
1F
100
AcDbEntity
  8
Make2D$可见线$普通线
100
AcDbSpline
210
0.0
220
0.0
230
1.0
 70
     8
 71
     3
 72
     8
 73
     4
 74
     0
 42
0.000000001
 43
0.0000000001
 12
1.0
 22
0.0
 32
0.0
 13
1.0
 23
0.0
 33
0.0
 40
0.0
 40
0.0
 40
0.0
 40
0.0
 40
1.0
 40
1.0
 40
1.0
 40
1.0
 10
388.4178688310894
 20
4320.174927776754
 30
0.0000000000004547
 10
388.5794720924796
 20
4320.215557117104
 30
0.0000000000004547
 10
388.846049349821
 20
4320.434501836804
 30
0.0000000000004547
 10
388.736532997757
 20
4320.560090554534
 30
0.0000000000004547
  0
ARC
  5
1A7
330
1F
100
AcDbEntity
  8
Make2D$可见线$普通线
100
AcDbCircle
 10
388.5599122236753
 20
4323.251301722212
 30
0.0000000000004547
 40
3.19461720030354
100
AcDbArc
 50
318.3570489038931
 51
335.3752629301217
  0
SPLINE
  5
1A8
330
1F
100
AcDbEntity
  8
Make2D$可见线$普通线
100
AcDbSpline
210
0.0
220
0.0
230
1.0
 70
     8
 71
     3
 72
     9
 73
     5
 74
     0
 42
0.000000001
 43
0.0000000001
 12
1.0
 22
0.0
 32
0.0
 13
1.0
 23
0.0
 33
0.0
 40
0.0
 40
0.0
 40
0.0
 40
0.0
 40
0.4274944509498
 40
1.0
 40
1.0
 40
1.0
 40
1.0
 10
391.0643724422016
 20
4322.777334165643
 30
0.0000000000004547
 10
390.9905374554437
 20
4322.550740895094
 30
0.0000000000004547
 10
390.8727173545831
 20
4322.222438025685
 30
0.0000000000004547
 10
390.7503366863202
 20
4320.877347736716
 30
0.0000000000004547
 10
390.9472502199774
 20
4321.128521387865
 30
0.0000000000004547
  0
SPLINE
  5
1A9
330
1F
100
AcDbEntity
  8
Make2D$可见线$普通线
100
AcDbSpline
210
0.0
220
0.0
230
1.0
 70
     8
 71
     3
 72
     8
 73
     4
 74
     0
 42
0.000000001
 43
0.0000000001
 12
1.0
 22
0.0
 32
0.0
 13
1.0
 23
0.0
 33
0.0
 40
0.0
 40
0.0
 40
0.0
 40
0.0
 40
1.0
 40
1.0
 40
1.0
 40
1.0
 10
391.6483254977575
 20
4324.122299443423
 30
0.0000000000004547
 10
391.5452142196382
 20
4323.968248729103
 30
0.0000000000004547
 10
391.5624718070389
 20
4323.754669369193
 30
0.0000000000004547
 10
391.4639991088675
 20
4323.597613054533
 30
0.0000000000004547
  0
ARC
  5
1AA
330
1F
100
AcDbEntity
  8
Make2D$可见线$普通线
100
AcDbCircle
 10
389.4807054697486
 20
4325.372771929892
 30
0.0000000000004547
 40
3.508566900668191
100
AcDbArc
 50
328.1933271690096
 51
352.1117156370592
  0
ARC
  5
1AB
330
1F
100
AcDbEntity
  8
Make2D$可见线$普通线
100
AcDbCircle
 10
362.5220918841374
 20
4341.054390688585
 30
0.0000000000004547
 40
34.69512400662497
100
AcDbArc
 50
326.5303369325821
 51
329.6499183266161
  0
SPLINE
  5
1AC
330
1F
100
AcDbEntity
  8
Make2D$可见线$普通线
100
AcDbSpline
210
0.0
220
0.0
230
1.0
 70
     8
 71
     3
 72
     9
 73
     5
 74
     0
 42
0.000000001
 43
0.0000000001
 12
1.0
 22
0.0
 32
0.0
 13
1.0
 23
0.0
 33
0.0
 40
0.0
 40
0.0
 40
0.0
 40
0.0
 40
0.3271033754275
 40
1.0
 40
1.0
 40
1.0
 40
1.0
 10
394.131881053313
 20
4319.421147498973
 30
0.0000000000004547
 10
394.0915390642872
 20
4319.563703692003
 30
0.0000000000004547
 10
393.560819712071
 20
4318.825465510683
 30
0.0000000000004547
 10
393.4307622166107
 20
4318.645961959253
 30
0.0000000000004547
 10
393.2596027199788
 20
4318.393788054535
 30
0.0000000000004547
  0
SPLINE
  5
1AD
330
1F
100
AcDbEntity
  8
Make2D$可见线$普通线
100
AcDbSpline
210
0.0
220
0.0
230
1.0
 70
     8
 71
     3
 72
     9
 73
     5
 74
     0
 42
0.000000001
 43
0.0000000001
 12
1.0
 22
0.0
 32
0.0
 13
1.0
 23
0.0
 33
0.0
 40
0.0
 40
0.0
 40
0.0
 40
0.0
 40
0.6312319875106
 40
1.0
 40
1.0
 40
1.0
 40
1.0
 10
393.3712216088679
 20
4318.083731665643
 30
0.0000000000004547
 10
393.5579393906742
 20
4318.350069246124
 30
0.0000000000004547
 10
393.7860880383191
 20
4318.756937392583
 30
0.0000000000004547
 10
394.1877772687212
 20
4319.239531849584
 30
0.0000000000004547
 10
394.131881053313
 20
4319.421147498973
 30
0.0000000000004547
  0
ARC
  5
1AE
330
1F
100
AcDbEntity
  8
Make2D$可见线$普通线
100
AcDbCircle
 10
397.8777262842784
 20
4327.674805045341
 30
0.0000000000002288
 40
7.576444170753242
100
AcDbArc
 50
271.4670836651188
 51
289.2707526816324
  0
SPLINE
  5
1AF
330
1F
100
AcDbEntity
  8
Make2D$可见线$普通线
100
AcDbSpline
210
0.0
220
0.0
230
1.0
 70
     8
 71
     3
 72
     9
 73
     5
 74
     0
 42
0.000000001
 43
0.0000000001
 12
1.0
 22
0.0
 32
0.0
 13
1.0
 23
0.0
 33
0.0
 40
0.0
 40
0.0
 40
0.0
 40
0.0
 40
0.8926181543654
 40
1.0
 40
1.0
 40
1.0
 40
1.0
 10
397.5542488310903
 20
4320.515640554533
 30
0.0000000000004547
 10
397.359975551788
 20
4320.421311332213
 30
0.0000000000004547
 10
397.2408950101426
 20
4320.359414608783
 30
0.0000000000004547
 10
396.9570517693965
 20
4320.101777340042
 30
0.0000000000004547
 10
396.978233275534
 20
4320.086733332311
 30
0.0000000000004547
  0
SPLINE
  5
1B0
330
1F
100
AcDbEntity
  8
Make2D$可见线$普通线
100
AcDbSpline
210
0.0
220
0.0
230
1.0
 70
     8
 71
     3
 72
     9
 73
     5
 74
     0
 42
0.000000001
 43
0.0000000001
 12
1.0
 22
0.0
 32
0.0
 13
1.0
 23
0.0
 33
0.0
 40
0.0
 40
0.0
 40
0.0
 40
0.0
 40
0.2036160696228
 40
1.0
 40
1.0
 40
1.0
 40
1.0
 10
401.5455766088685
 20
4321.587767498977
 30
0.0000000000004547
 10
401.2651943522465
 20
4321.621629992376
 30
0.0000000000004547
 10
399.8659072734913
 20
4321.515499870377
 30
0.0000000000004547
 10
398.5478913517704
 20
4320.998152461865
 30
0.0000000000004547
 10
397.5542488310903
 20
4320.515640554533
 30
0.0000000000004547
  0
ARC
  5
1B1
330
1F
100
AcDbEntity
  8
Make2D$可见线$普通线
100
AcDbCircle
 10
401.4380812480635
 20
4321.339361019101
 30
0.0000000000004547
 40
0.2706677517528115
100
AcDbArc
 50
329.6517032563204
 51
66.59994599641745
  0
SPLINE
  5
1B2
330
1F
100
AcDbEntity
  8
Make2D$可见线$普通线
100
AcDbSpline
210
0.0
220
0.0
230
1.0
 70
     8
 71
     3
 72
     9
 73
     5
 74
     0
 42
0.000000001
 43
0.0000000001
 12
1.0
 22
0.0
 32
0.0
 13
1.0
 23
0.0
 33
0.0
 40
0.0
 40
0.0
 40
0.0
 40
0.0
 40
0.2121008538893
 40
1.0
 40
1.0
 40
1.0
 40
1.0
 10
400.3781996644229
 20
4320.522872498977
 30
0.0000000000004547
 10
400.4766139008161
 20
4320.555141076156
 30
0.0000000000004547
 10
400.9319697341616
 20
4320.724019080075
 30
0.0000000000004547
 10
401.4024686908242
 20
4320.927730126024
 30
0.0000000000004547
 10
401.6716593866468
 20
4321.202604721202
 30
0.0000000000004547
  0
ARC
  5
1B3
330
1F
100
AcDbEntity
  8
Make2D$可见线$普通线
100
AcDbCircle
 10
404.2872911381736
 20
4320.979018558592
 30
0.0000000000004547
 40
0.2915366325699192
100
AcDbArc
 50
317.4715338716794
 51
7.669284479793381
  0
SPLINE
  5
1B4
330
1F
100
AcDbEntity
  8
Make2D$可见线$普通线
100
AcDbSpline
210
0.0
220
0.0
230
1.0
 70
     8
 71
     3
 72
     8
 73
     4
 74
     0
 42
0.000000001
 43
0.0000000001
 12
1.0
 22
0.0
 32
0.0
 13
1.0
 23
0.0
 33
0.0
 40
0.0
 40
0.0
 40
0.0
 40
0.0
 40
1.0
 40
1.0
 40
1.0
 40
1.0
 10
404.037069664425
 20
4321.144008332314
 30
0.0000000000004547
 10
403.9629838233186
 20
4320.959510689303
 30
0.0000000000004547
 10
403.7852453309101
 20
4320.794855447164
 30
0.0000000000004547
 10
403.8002146644239
 20
4320.596603054533
 30
0.0000000000004547
  0
ARC
  5
1B5
330
1F
100
AcDbEntity
  8
Make2D$可见线$普通线
100
AcDbCircle
 10
403.5658849917053
 20
4321.399380072313
 30
0.0000000000004547
 40
0.5359381693785423
100
AcDbArc
 50
331.5432803158592
 51
68.4410163427152
  0
SPLINE
  5
1B6
330
1F
100
AcDbEntity
  8
Make2D$可见线$普通线
100
AcDbSpline
210
0.0
220
0.0
230
1.0
 70
     8
 71
     3
 72
     8
 73
     4
 74
     0
 42
0.000000001
 43
0.0000000001
 12
1.0
 22
0.0
 32
0.0
 13
1.0
 23
0.0
 33
0.0
 40
0.0
 40
0.0
 40
0.0
 40
0.0
 40
1.0
 40
1.0
 40
1.0
 40
1.0
 10
402.9284302199794
 20
4321.114727776754
 30
0.0000000000004547
 10
403.045234277386
 20
4321.477840477484
 30
0.0000000000004547
 10
403.3879677731529
 20
4321.968390624854
 30
0.0000000000004547
 10
403.7628202199789
 20
4321.897823887864
 30
0.0000000000004547
  0
SPLINE
  5
1B7
330
1F
100
AcDbEntity
  8
Make2D$可见线$普通线
100
AcDbSpline
210
0.0
220
0.0
230
1.0
 70
     8
 71
     3
 72
     8
 73
     4
 74
     0
 42
0.000000001
 43
0.0000000001
 12
1.0
 22
0.0
 32
0.0
 13
1.0
 23
0.0
 33
0.0
 40
0.0
 40
0.0
 40
0.0
 40
0.0
 40
1.0
 40
1.0
 40
1.0
 40
1.0
 10
402.7365191088684
 20
4319.665728332313
 30
0.0000000000004547
 10
402.9017837072538
 20
4319.831266346393
 30
0.0000000000004547
 10
403.2688611425074
 20
4320.021659041435
 30
0.0000000000004547
 10
403.1573477199804
 20
4320.227279998975
 30
0.0000000000004547
  0
ARC
  5
1B8
330
1F
100
AcDbEntity
  8
Make2D$可见线$普通线
100
AcDbCircle
 10
402.0631968004116
 20
4318.819117326259
 30
0.0000000000004547
 40
0.1481927992028536
100
AcDbArc
 50
181.2764547387241
 51
284.4650664012561
  0
ARC
  5
1B9
330
1F
100
AcDbEntity
  8
Make2D$可见线$普通线
100
AcDbCircle
 10
469.0797013681674
 20
4253.374528179038
 30
0.0000000000004547
 40
93.54402511028192
100
AcDbArc
 50
134.5777861325703
 51
135.7269374120203
  0
ARC
  5
1BA
330
1F
100
AcDbEntity
  8
Make2D$可见线$普通线
100
AcDbCircle
 10
405.1009389841008
 20
4317.762735733463
 30
0.0000000000004547
 40
2.801009801677357
100
AcDbArc
 50
104.8237838623774
 51
126.7938980071616
  0
SPLINE
  5
1BB
330
1F
100
AcDbEntity
  8
Make2D$可见线$普通线
100
AcDbSpline
210
0.0
220
0.0
230
1.0
 70
     8
 71
     3
 72
     8
 73
     4
 74
     0
 42
0.000000001
 43
0.0000000001
 12
1.0
 22
0.0
 32
0.0
 13
1.0
 23
0.0
 33
0.0
 40
0.0
 40
0.0
 40
0.0
 40
0.0
 40
1.0
 40
1.0
 40
1.0
 40
1.0
 10
404.9012693866453
 20
4320.560090554534
 30
0.0000000000004547
 10
404.7844470532204
 20
4320.429943657884
 30
0.0000000000004547
 10
404.5556730314456
 20
4320.505448533695
 30
0.0000000000004547
 10
404.3843088310896
 20
4320.470520276755
 30
0.0000000000004547
  0
ARC
  5
1BC
330
1F
100
AcDbEntity
  8
Make2D$可见线$普通线
100
AcDbCircle
 10
382.5610984935929
 20
4347.235019724004
 30
0.0000000000004547
 40
34.79418172233689
100
AcDbArc
 50
309.9460700680219
 51
310.68003455412
  0
ARC
  5
1BD
330
1F
100
AcDbEntity
  8
Make2D$可见线$普通线
100
AcDbCircle
 10
405.7689343345467
 20
4320.793569050565
 30
0.0000000000004547
 40
0.1135677951594401
100
AcDbArc
 50
16.61878072333111
 51
87.3155735484262
  0
SPLINE
  5
1BE
330
1F
100
AcDbEntity
  8
Make2D$可见线$普通线
100
AcDbSpline
210
0.0
220
0.0
230
1.0
 70
     8
 71
     3
 72
     9
 73
     5
 74
     0
 42
0.000000001
 43
0.0000000001
 12
1.0
 22
0.0
 32
0.0
 13
1.0
 23
0.0
 33
0.0
 40
0.0
 40
0.0
 40
0.0
 40
0.0
 40
0.4862000915672
 40
1.0
 40
1.0
 40
1.0
 40
1.0
 10
405.6633046644238
 20
4320.426423054532
 30
0.0000000000004547
 10
405.5665927651557
 20
4320.450014388713
 30
0.0000000000004547
 10
405.4609808490477
 20
4320.724559060201
 30
0.0000000000004547
 10
405.6695331221285
 20
4320.917034479902
 30
0.0000000000004547
 10
405.7742532755346
 20
4320.907012221202
 30
0.0000000000004547
  0
ARC
  5
1BF
330
1F
100
AcDbEntity
  8
Make2D$可见线$普通线
100
AcDbCircle
 10
405.7255658217891
 20
4321.103597404413
 30
0.0000000000004547
 40
0.6800305521461384
100
AcDbArc
 50
264.7468473428346
 51
307.9447435646815
  0
ARC
  5
1C0
330
1F
100
AcDbEntity
  8
Make2D$可见线$普通线
100
AcDbCircle
 10
395.3473822795868
 20
4334.382728890531
 30
0.0000000000004547
 40
17.53357655206947
100
AcDbArc
 50
308.0065836722717
 51
310.3743743197315
  0
SPLINE
  5
1C1
330
1F
100
AcDbEntity
  8
Make2D$可见线$普通线
100
AcDbSpline
210
0.0
220
0.0
230
1.0
 70
     8
 71
     3
 72
     8
 73
     4
 74
     0
 42
0.000000001
 43
0.0000000001
 12
1.0
 22
0.0
 32
0.0
 13
1.0
 23
0.0
 33
0.0
 40
0.0
 40
0.0
 40
0.0
 40
0.0
 40
1.0
 40
1.0
 40
1.0
 40
1.0
 10
407.5179985533123
 20
4321.380016665644
 30
0.0000000000004547
 10
407.5419397124833
 20
4321.432126554115
 30
0.0000000000004547
 10
407.3977075340536
 20
4321.430383073042
 30
0.0000000000004547
 10
407.347465775536
 20
4321.402735554531
 30
0.0000000000004547
  0
SPLINE
  5
1C2
330
1F
100
AcDbEntity
  8
Make2D$可见线$普通线
100
AcDbSpline
210
0.0
220
0.0
230
1.0
 70
     8
 71
     3
 72
     8
 73
     4
 74
     0
 42
0.000000001
 43
0.0000000001
 12
1.0
 22
0.0
 32
0.0
 13
1.0
 23
0.0
 33
0.0
 40
0.0
 40
0.0
 40
0.0
 40
0.0
 40
1.0
 40
1.0
 40
1.0
 40
1.0
 10
407.2595888310898
 20
4320.966596387863
 30
0.0000000000004547
 10
407.2721571035727
 20
4321.128621851354
 30
0.0000000000004547
 10
407.4433171934779
 20
4321.235680575963
 30
0.0000000000004547
 10
407.5179985533123
 20
4321.380016665644
 30
0.0000000000004547
  0
ARC
  5
1C3
330
1F
100
AcDbEntity
  8
Make2D$可见线$普通线
100
AcDbCircle
 10
401.8198653999247
 20
4326.88098752709
 30
0.0000000000002276
 40
8.483210058810208
100
AcDbArc
 50
315.3812484263906
 51
322.782732161472
  0
ARC
  5
1C4
330
1F
100
AcDbEntity
  8
Make2D$可见线$普通线
100
AcDbCircle
 10
409.2352054056566
 20
4321.250010841947
 30
0.0000000000004547
 40
0.827814247633245
100
AcDbArc
 50
94.21261206056792
 51
142.8431394030194
  0
SPLINE
  5
1C5
330
1F
100
AcDbEntity
  8
Make2D$可见线$普通线
100
AcDbSpline
210
0.0
220
0.0
230
1.0
 70
     8
 71
     3
 72
     9
 73
     5
 74
     0
 42
0.000000001
 43
0.0000000001
 12
1.0
 22
0.0
 32
0.0
 13
1.0
 23
0.0
 33
0.0
 40
0.0
 40
0.0
 40
0.0
 40
0.0
 40
0.5571141415541
 40
1.0
 40
1.0
 40
1.0
 40
1.0
 10
409.5069949422054
 20
4321.357615276755
 30
0.0000000000004547
 10
409.696916226746
 20
4321.645128218222
 30
0.0000000000004547
 10
410.4112782636766
 20
4322.623936323002
 30
0.0000000000004547
 10
409.4404902708566
 20
4322.140625910932
 30
0.0000000000004547
 10
409.1743960533167
 20
4322.075588610091
 30
0.0000000000004547
  0
SPLINE
  5
1C6
330
1F
100
AcDbEntity
  8
Make2D$可见线$普通线
100
AcDbSpline
210
0.0
220
0.0
230
1.0
 70
     8
 71
     3
 72
     9
 73
     5
 74
     0
 42
0.000000001
 43
0.0000000001
 12
1.0
 22
0.0
 32
0.0
 13
1.0
 23
0.0
 33
0.0
 40
0.0
 40
0.0
 40
0.0
 40
0.0
 40
0.7884872303407
 40
1.0
 40
1.0
 40
1.0
 40
1.0
 10
406.580385775535
 20
4316.131741665644
 30
0.0000000000004547
 10
406.4223452908836
 20
4316.624722451063
 30
0.0000000000004547
 10
406.9125332677936
 20
4317.286618012122
 30
0.0000000000004547
 10
407.2394200567987
 20
4317.834281364063
 30
0.0000000000004547
 10
407.3038624422047
 20
4317.957296110091
 30
0.0000000000004547
  0
SPLINE
  5
1C7
330
1F
100
AcDbEntity
  8
Make2D$可见线$普通线
100
AcDbSpline
210
0.0
220
0.0
230
1.0
 70
     8
 71
     3
 72
     8
 73
     4
 74
     0
 42
0.000000001
 43
0.0000000001
 12
1.0
 22
0.0
 32
0.0
 13
1.0
 23
0.0
 33
0.0
 40
0.0
 40
0.0
 40
0.0
 40
0.0
 40
1.0
 40
1.0
 40
1.0
 40
1.0
 10
413.306270497756
 20
4321.890591943424
 30
0.0000000000004547
 10
413.1518899602265
 20
4321.313417785563
 30
0.0000000000004547
 10
412.6190702893368
 20
4320.900079403602
 30
0.0000000000004547
 10
412.1752296644272
 20
4320.500118332311
 30
0.0000000000004547
  0
ARC
  5
1C8
330
1F
100
AcDbEntity
  8
Make2D$可见线$普通线
100
AcDbCircle
 10
413.0944941753535
 20
4321.782337222321
 30
0.0000000000004547
 40
0.2229823924991059
100
AcDbArc
 50
79.38712684831395
 51
150.9557132369717
  0
SPLINE
  5
1C9
330
1F
100
AcDbEntity
  8
Make2D$可见线$普通线
100
AcDbSpline
210
0.0
220
0.0
230
1.0
 70
     8
 71
     3
 72
     9
 73
     5
 74
     0
 42
0.000000001
 43
0.0000000001
 12
1.0
 22
0.0
 32
0.0
 13
1.0
 23
0.0
 33
0.0
 40
0.0
 40
0.0
 40
0.0
 40
0.0
 40
0.5634718161713
 40
1.0
 40
1.0
 40
1.0
 40
1.0
 10
407.4585554977566
 20
4317.869454443424
 30
0.0000000000004547
 10
407.3025885499096
 20
4317.566645778114
 30
0.0000000000004547
 10
407.0985225376426
 20
4317.205006274264
 30
0.0000000000004547
 10
406.6303008526929
 20
4316.222626127043
 30
0.0000000000004547
 10
406.8901246644236
 20
4316.176544443422
 30
0.0000000000004547
  0
ARC
  5
1CA
330
1F
100
AcDbEntity
  8
Make2D$可见线$普通线
100
AcDbCircle
 10
548.628450361557
 20
4236.468655030607
 30
0.0000000000002274
 40
162.7721960731727
100
AcDbArc
 50
148.1161052437562
 51
148.5319038316204
  0
SPLINE
  5
1CB
330
1F
100
AcDbEntity
  8
Make2D$可见线$普通线
100
AcDbSpline
210
0.0
220
0.0
230
1.0
 70
     8
 71
     3
 72
     8
 73
     4
 74
     0
 42
0.000000001
 43
0.0000000001
 12
1.0
 22
0.0
 32
0.0
 13
1.0
 23
0.0
 33
0.0
 40
0.0
 40
0.0
 40
0.0
 40
0.0
 40
1.0
 40
1.0
 40
1.0
 40
1.0
 10
411.2805499422047
 20
4323.066047498975
 30
0.0000000000004547
 10
410.981183097605
 20
4322.875160539064
 30
0.0000000000004547
 10
410.5911270471051
 20
4322.753324658173
 30
0.0000000000004547
 10
410.4152918866448
 20
4322.444876387864
 30
0.0000000000004547
  0
SPLINE
  5
1CC
330
1F
100
AcDbEntity
  8
Make2D$可见线$普通线
100
AcDbSpline
210
0.0
220
0.0
230
1.0
 70
     8
 71
     3
 72
     9
 73
     5
 74
     0
 42
0.000000001
 43
0.0000000001
 12
1.0
 22
0.0
 32
0.0
 13
1.0
 23
0.0
 33
0.0
 40
0.0
 40
0.0
 40
0.0
 40
0.0
 40
0.4709985568891
 40
1.0
 40
1.0
 40
1.0
 40
1.0
 10
413.9346382755371
 20
4326.480830554534
 30
0.0000000000004547
 10
413.8392463441369
 20
4325.797803602394
 30
0.0000000000004547
 10
412.9845734427263
 20
4324.503379131045
 30
0.0000000000004547
 10
411.9308804873353
 20
4323.486825509905
 30
0.0000000000004547
 10
411.2805499422047
 20
4323.066047498975
 30
0.0000000000004547
  0
SPLINE
  5
1CD
330
1F
100
AcDbEntity
  8
Make2D$可见线$普通线
100
AcDbSpline
210
0.0
220
0.0
230
1.0
 70
     8
 71
     3
 72
     9
 73
     5
 74
     0
 42
0.000000001
 43
0.0000000001
 12
1.0
 22
0.0
 32
0.0
 13
1.0
 23
0.0
 33
0.0
 40
0.0
 40
0.0
 40
0.0
 40
0.0
 40
0.3781597649213
 40
1.0
 40
1.0
 40
1.0
 40
1.0
 10
408.5385846644258
 20
4322.193416387869
 30
0.0000000000004547
 10
408.7908239054059
 20
4322.208247970217
 30
0.0000000000004547
 10
409.4282502730375
 20
4322.304386054595
 30
0.0000000000004547
 10
410.1856371634085
 20
4322.482758028702
 30
0.0000000000004547
 10
410.4152918866494
 20
4322.82901611009
 30
0.0000000000004547
  0
ARC
  5
1CE
330
1F
100
AcDbEntity
  8
Make2D$可见线$普通线
100
AcDbCircle
 10
407.6377230245182
 20
4322.737202492803
 30
0.0000000000004547
 40
0.9160057495012616
100
AcDbArc
 50
265.7289807642085
 51
295.7687176711598
  0
SPLINE
  5
1CF
330
1F
100
AcDbEntity
  8
Make2D$可见线$普通线
100
AcDbSpline
210
0.0
220
0.0
230
1.0
 70
     8
 71
     3
 72
     9
 73
     5
 74
     0
 42
0.000000001
 43
0.0000000001
 12
1.0
 22
0.0
 32
0.0
 13
1.0
 23
0.0
 33
0.0
 40
0.0
 40
0.0
 40
0.0
 40
0.0
 40
0.4458249962052
 40
1.0
 40
1.0
 40
1.0
 40
1.0
 10
406.8758018866456
 20
4321.631511943424
 30
0.0000000000004547
 10
406.8877908029299
 20
4321.575221583684
 30
0.0000000000004547
 10
406.9822564009937
 20
4321.419177016474
 30
0.0000000000004547
 10
407.1110489037833
 20
4321.549343330094
 30
0.0000000000004547
 10
407.1713943866453
 20
4321.587767498975
 30
0.0000000000004547
  0
SPLINE
  5
1D0
330
1F
100
AcDbEntity
  8
Make2D$可见线$普通线
100
AcDbSpline
210
0.0
220
0.0
230
1.0
 70
     8
 71
     3
 72
     8
 73
     4
 74
     0
 42
0.000000001
 43
0.0000000001
 12
1.0
 22
0.0
 32
0.0
 13
1.0
 23
0.0
 33
0.0
 40
0.0
 40
0.0
 40
0.0
 40
0.0
 40
1.0
 40
1.0
 40
1.0
 40
1.0
 10
405.7957727199791
 20
4321.675609165644
 30
0.0000000000004547
 10
406.0204113706259
 20
4321.643365598025
 30
0.0000000000004547
 10
406.2209493389869
 20
4321.836011122345
 30
0.0000000000004547
 10
406.4393099422014
 20
4321.897823887864
 30
0.0000000000004547
  0
ARC
  5
1D1
330
1F
100
AcDbEntity
  8
Make2D$可见线$普通线
100
AcDbCircle
 10
406.6614356143018
 20
4323.680271039159
 30
0.0000000000002276
 40
2.183584546962128
100
AcDbArc
 50
240.1238755800317
 51
246.6441111646736
  0
ARC
  5
1D2
330
1F
100
AcDbEntity
  8
Make2D$可见线$普通线
100
AcDbCircle
 10
388.0348393225277
 20
4322.089156899184
 30
0.0000000000004547
 40
2.223540070235175
100
AcDbArc
 50
246.0476837652936
 51
258.6674728244388
  0
ARC
  5
1D3
330
1F
100
AcDbEntity
  8
Make2D$可见线$普通线
100
AcDbCircle
 10
388.0582493868387
 20
4320.834509000134
 30
0.0000000000004547
 40
1.131563990517413
100
AcDbArc
 50
269.9105744210977
 51
304.5086421804954
  0
ARC
  5
1D4
330
1F
100
AcDbEntity
  8
Make2D$可见线$普通线
100
AcDbCircle
 10
377.2992642974916
 20
4327.657440361883
 30
0.0000000000004547
 40
15.0112225464154
100
AcDbArc
 50
313.8639790598626
 51
331.2345180626198
  0
SPLINE
  5
1D5
330
1F
100
AcDbEntity
  8
Make2D$可见线$普通线
100
AcDbSpline
210
0.0
220
0.0
230
1.0
 70
     8
 71
     3
 72
     9
 73
     5
 74
     0
 42
0.000000001
 43
0.0000000001
 12
1.0
 22
0.0
 32
0.0
 13
1.0
 23
0.0
 33
0.0
 40
0.0
 40
0.0
 40
0.0
 40
0.0
 40
0.460455157366
 40
1.0
 40
1.0
 40
1.0
 40
1.0
 10
387.8793888310875
 20
4316.561001665643
 30
0.0000000000004547
 10
387.7872355353975
 20
4316.457059616152
 30
0.0000000000004547
 10
387.2948817217875
 20
4316.208780364472
 30
0.0000000000004547
 10
387.5834600668086
 20
4316.72223009391
 30
0.0000000000004547
 10
387.7012713310887
 20
4316.834545554531
 30
0.0000000000004547
  0
SPLINE
  5
1D6
330
1F
100
AcDbEntity
  8
Make2D$可见线$普通线
100
AcDbSpline
210
0.0
220
0.0
230
1.0
 70
     8
 71
     3
 72
     9
 73
     5
 74
     0
 42
0.000000001
 43
0.0000000001
 12
1.0
 22
0.0
 32
0.0
 13
1.0
 23
0.0
 33
0.0
 40
0.0
 40
0.0
 40
0.0
 40
0.0
 40
0.7649515110811
 40
1.0
 40
1.0
 40
1.0
 40
1.0
 10
390.790828553314
 20
4319.657826110091
 30
0.0000000000004547
 10
389.908915016852
 20
4319.027084406242
 30
0.0000000000004547
 10
389.0023350137881
 20
4317.899147510272
 30
0.0000000000004547
 10
388.1018817958306
 20
4316.808980171223
 30
0.0000000000004547
 10
387.8793888310875
 20
4316.561001665643
 30
0.0000000000004547
  0
ARC
  5
1D7
330
1F
100
AcDbEntity
  8
Make2D$可见线$普通线
100
AcDbCircle
 10
379.4933654808315
 20
4336.892855843478
 30
0.0000000000004547
 40
20.60773936619048
100
AcDbArc
 50
303.24461135477
 51
306.1719244785574
  0
ARC
  5
1D8
330
1F
100
AcDbEntity
  8
Make2D$可见线$普通线
100
AcDbCircle
 10
411.7700664244635
 20
4298.821092912344
 30
0.0000000000004547
 40
28.35312612474502
100
AcDbArc
 50
130.12787458395
 51
131.9901829426969
  0
SPLINE
  5
1D9
330
1F
100
AcDbEntity
  8
Make2D$可见线$普通线
100
AcDbSpline
210
0.0
220
0.0
230
1.0
 70
     8
 71
     3
 72
     8
 73
     4
 74
     0
 42
0.000000001
 43
0.0000000001
 12
1.0
 22
0.0
 32
0.0
 13
1.0
 23
0.0
 33
0.0
 40
0.0
 40
0.0
 40
0.0
 40
0.0
 40
1.0
 40
1.0
 40
1.0
 40
1.0
 10
394.2648782755355
 20
4320.618651665645
 30
0.0000000000004547
 10
394.0474146606357
 20
4320.759557324243
 30
0.0000000000004547
 10
393.7374234631493
 20
4320.595765209013
 30
0.0000000000004547
 10
393.4965988310905
 20
4320.500118332313
 30
0.0000000000004547
  0
ARC
  5
1DA
330
1F
100
AcDbEntity
  8
Make2D$可见线$普通线
100
AcDbCircle
 10
292.2928406339079
 20
4386.343772145524
 30
0.0000000000004547
 40
121.5382726477053
100
AcDbArc
 50
325.628503125184
 51
326.3262887506587
  0
ARC
  5
1DB
330
1F
100
AcDbEntity
  8
Make2D$可见线$普通线
100
AcDbCircle
 10
370.6626309771503
 20
4331.522964311737
 30
0.0000000000002274
 40
25.92231550647892
100
AcDbArc
 50
325.959788091695
 51
327.8495568119001
  0
SPLINE
  5
1DC
330
1F
100
AcDbEntity
  8
Make2D$可见线$普通线
100
AcDbSpline
210
0.0
220
0.0
230
1.0
 70
     8
 71
     3
 72
     8
 73
     4
 74
     0
 42
0.000000001
 43
0.0000000001
 12
1.0
 22
0.0
 32
0.0
 13
1.0
 23
0.0
 33
0.0
 40
0.0
 40
0.0
 40
0.0
 40
0.0
 40
1.0
 40
1.0
 40
1.0
 40
1.0
 10
394.6645049422018
 20
4320.072586943425
 30
0.0000000000004547
 10
394.1945915580204
 20
4318.752505981072
 30
0.0000000000004547
 10
393.4190729316142
 20
4317.424599212252
 30
0.0000000000004547
 10
392.2770460533147
 20
4316.612683610092
 30
0.0000000000004547
  0
ARC
  5
1DD
330
1F
100
AcDbEntity
  8
Make2D$可见线$普通线
100
AcDbCircle
 10
397.4003865670024
 20
4317.118571224933
 30
0.0000000000002292
 40
4.026320544867094
100
AcDbArc
 50
112.1234910961935
 51
132.8045218407313
  0
ARC
  5
1DE
330
1F
100
AcDbEntity
  8
Make2D$可见线$普通线
100
AcDbCircle
 10
395.9285209284049
 20
4320.666318978454
 30
0.0000000000004547
 40
0.1874809064358061
100
AcDbArc
 50
10.54742169267447
 51
103.7190561097592
  0
SPLINE
  5
1DF
330
1F
100
AcDbEntity
  8
Make2D$可见线$普通线
100
AcDbSpline
210
0.0
220
0.0
230
1.0
 70
     8
 71
     3
 72
     9
 73
     5
 74
     0
 42
0.000000001
 43
0.0000000001
 12
1.0
 22
0.0
 32
0.0
 13
1.0
 23
0.0
 33
0.0
 40
0.0
 40
0.0
 40
0.0
 40
0.0
 40
0.4342060112167
 40
1.0
 40
1.0
 40
1.0
 40
1.0
 10
395.4403338310922
 20
4319.650558887866
 30
0.0000000000004547
 10
395.2870833601032
 20
4319.755615538646
 30
0.0000000000004547
 10
395.6991232619562
 20
4320.296927846935
 30
0.0000000000004547
 10
395.8858373341936
 20
4320.616434266674
 30
0.0000000000004547
 10
396.1128341088684
 20
4320.700637221204
 30
0.0000000000004547
  0
SPLINE
  5
1E0
330
1F
100
AcDbEntity
  8
Make2D$可见线$普通线
100
AcDbSpline
210
0.0
220
0.0
230
1.0
 70
     8
 71
     3
 72
     8
 73
     4
 74
     0
 42
0.000000001
 43
0.0000000001
 12
1.0
 22
0.0
 32
0.0
 13
1.0
 23
0.0
 33
0.0
 40
0.0
 40
0.0
 40
0.0
 40
0.0
 40
1.0
 40
1.0
 40
1.0
 40
1.0
 10
395.9805424422029
 20
4319.828323610092
 30
0.0000000000004547
 10
395.8520430226854
 20
4319.688953306924
 30
0.0000000000004547
 10
395.598727092392
 20
4319.546406321915
 30
0.0000000000004547
 10
395.4403338310922
 20
4319.650558887866
 30
0.0000000000004547
  0
SPLINE
  5
1E1
330
1F
100
AcDbEntity
  8
Make2D$可见线$普通线
100
AcDbSpline
210
0.0
220
0.0
230
1.0
 70
     8
 71
     3
 72
     8
 73
     4
 74
     0
 42
0.000000001
 43
0.0000000001
 12
1.0
 22
0.0
 32
0.0
 13
1.0
 23
0.0
 33
0.0
 40
0.0
 40
0.0
 40
0.0
 40
0.0
 40
1.0
 40
1.0
 40
1.0
 40
1.0
 10
395.507185219979
 20
4318.608770832314
 30
0.0000000000004547
 10
395.4826035583519
 20
4319.039769299503
 30
0.0000000000004547
 10
395.7745682424543
 20
4319.467229384474
 30
0.0000000000004547
 10
396.0838710533117
 20
4319.768386665644
 30
0.0000000000004547
  0
ARC
  5
1E2
330
1F
100
AcDbEntity
  8
Make2D$可见线$普通线
100
AcDbCircle
 10
398.2356234880239
 20
4318.761498507445
 30
0.0000000000023985
 40
2.732709484245555
100
AcDbArc
 50
183.2038579960825
 51
220.0060533018276
  0
ARC
  5
1E3
330
1F
100
AcDbEntity
  8
Make2D$可见线$普通线
100
AcDbCircle
 10
400.8148931443783
 20
4316.66665466769
 30
0.0000000000004547
 40
0.4944901333531248
100
AcDbArc
 50
1.492592165307444
 51
45.47929750840268
  0
SPLINE
  5
1E4
330
1F
100
AcDbEntity
  8
Make2D$可见线$普通线
100
AcDbSpline
210
0.0
220
0.0
230
1.0
 70
     8
 71
     3
 72
     9
 73
     5
 74
     0
 42
0.000000001
 43
0.0000000001
 12
1.0
 22
0.0
 32
0.0
 13
1.0
 23
0.0
 33
0.0
 40
0.0
 40
0.0
 40
0.0
 40
0.0
 40
0.4483203586277
 40
1.0
 40
1.0
 40
1.0
 40
1.0
 10
400.9995118866482
 20
4316.908628887866
 30
0.0000000000004547
 10
400.9706207883351
 20
4316.948457179586
 30
0.0000000000004547
 10
400.9395709436149
 20
4317.121965232545
 30
0.0000000000004547
 10
401.1116434081296
 20
4317.053415202832
 30
0.0000000000004547
 10
401.1616132755344
 20
4317.019224721203
 30
0.0000000000004547
  0
SPLINE
  5
1E5
330
1F
100
AcDbEntity
  8
Make2D$可见线$普通线
100
AcDbSpline
210
0.0
220
0.0
230
1.0
 70
     8
 71
     3
 72
     9
 73
     5
 74
     0
 42
0.000000001
 43
0.0000000001
 12
1.0
 22
0.0
 32
0.0
 13
1.0
 23
0.0
 33
0.0
 40
0.0
 40
0.0
 40
0.0
 40
0.0
 40
0.5402269172049
 40
1.0
 40
1.0
 40
1.0
 40
1.0
 10
396.1210891088681
 20
4317.396097221204
 30
0.0000000000004547
 10
396.4951544170181
 20
4316.904292099864
 30
0.0000000000004547
 10
397.4793502572766
 20
4316.105312184614
 30
0.0000000000004547
 10
398.6708006996514
 20
4316.207852080684
 30
0.0000000000004547
 10
399.1954768866458
 20
4316.243360554536
 30
0.0000000000004547
  0
SPLINE
  5
1E6
330
1F
100
AcDbEntity
  8
Make2D$可见线$普通线
100
AcDbSpline
210
0.0
220
0.0
230
1.0
 70
     8
 71
     3
 72
     8
 73
     4
 74
     0
 42
0.000000001
 43
0.0000000001
 12
1.0
 22
0.0
 32
0.0
 13
1.0
 23
0.0
 33
0.0
 40
0.0
 40
0.0
 40
0.0
 40
0.0
 40
1.0
 40
1.0
 40
1.0
 40
1.0
 10
396.1493466088673
 20
4319.554814998974
 30
0.0000000000004547
 10
395.6636484857377
 20
4319.023805799534
 30
0.0000000000004547
 10
395.682406106931
 20
4317.966562522974
 30
0.0000000000004547
 10
396.1210891088681
 20
4317.396097221204
 30
0.0000000000004547
  0
ARC
  5
1E7
330
1F
100
AcDbEntity
  8
Make2D$可见线$普通线
100
AcDbCircle
 10
396.925413075166
 20
4318.946069719967
 30
0.0000000000002362
 40
0.9863315744852268
100
AcDbArc
 50
97.27755200320382
 51
141.8894202076703
  0
SPLINE
  5
1E8
330
1F
100
AcDbEntity
  8
Make2D$可见线$普通线
100
AcDbSpline
210
0.0
220
0.0
230
1.0
 70
     8
 71
     3
 72
     9
 73
     5
 74
     0
 42
0.000000001
 43
0.0000000001
 12
1.0
 22
0.0
 32
0.0
 13
1.0
 23
0.0
 33
0.0
 40
0.0
 40
0.0
 40
0.0
 40
0.0
 40
0.6875256794825
 40
1.0
 40
1.0
 40
1.0
 40
1.0
 10
400.2231538310912
 20
4320.285841110091
 30
0.0000000000004547
 10
400.0336429808267
 20
4320.092144277181
 30
0.0000000000004547
 10
400.0541653341043
 20
4319.636426775072
 30
0.0000000000004547
 10
399.8837119500586
 20
4319.280729748763
 30
0.0000000000004547
 10
399.8170007755343
 20
4319.177201665643
 30
0.0000000000004547
  0
ARC
  5
1E9
330
1F
100
AcDbEntity
  8
Make2D$可见线$普通线
100
AcDbCircle
 10
397.8164348661646
 20
4328.29019705192
 30
0.0000000000002277
 40
8.358349730635648
100
AcDbArc
 50
286.7347796410975
 51
295.713763593193
  0
SPLINE
  5
1EA
330
1F
100
AcDbEntity
  8
Make2D$可见线$普通线
100
AcDbSpline
210
0.0
220
0.0
230
1.0
 70
     8
 71
     3
 72
     9
 73
     5
 74
     0
 42
0.000000001
 43
0.0000000001
 12
1.0
 22
0.0
 32
0.0
 13
1.0
 23
0.0
 33
0.0
 40
0.0
 40
0.0
 40
0.0
 40
0.0
 40
0.7913839935738
 40
1.0
 40
1.0
 40
1.0
 40
1.0
 10
402.0189338310897
 20
4321.461331943423
 30
0.0000000000004547
 10
402.1221525646943
 20
4321.241610727584
 30
0.0000000000004547
 10
401.7368624746687
 20
4320.951444449682
 30
0.0000000000004547
 10
401.5000944629019
 20
4320.788291673602
 30
0.0000000000004547
 10
401.4429182755362
 20
4320.759551110092
 30
0.0000000000004547
  0
ARC
  5
1EB
330
1F
100
AcDbEntity
  8
Make2D$可见线$普通线
100
AcDbCircle
 10
400.4116033702253
 20
4314.691233011464
 30
0.0000000000004547
 40
6.683916733437532
100
AcDbArc
 50
115.2305684107475
 51
125.5277838588275
  0
SPLINE
  5
1EC
330
1F
100
AcDbEntity
  8
Make2D$可见线$普通线
100
AcDbSpline
210
0.0
220
0.0
230
1.0
 70
     8
 71
     3
 72
     8
 73
     4
 74
     0
 42
0.000000001
 43
0.0000000001
 12
1.0
 22
0.0
 32
0.0
 13
1.0
 23
0.0
 33
0.0
 40
0.0
 40
0.0
 40
0.0
 40
0.0
 40
1.0
 40
1.0
 40
1.0
 40
1.0
 10
397.3323868866455
 20
4320.899780276755
 30
0.0000000000004547
 10
397.2716984226045
 20
4320.856863383415
 30
0.0000000000004547
 10
397.1018530332467
 20
4320.803556483434
 30
0.0000000000004547
 10
397.1105249422017
 20
4320.877378887864
 30
0.0000000000004547
  0
SPLINE
  5
1ED
330
1F
100
AcDbEntity
  8
Make2D$可见线$普通线
100
AcDbSpline
210
0.0
220
0.0
230
1.0
 70
     8
 71
     3
 72
     8
 73
     4
 74
     0
 42
0.000000001
 43
0.0000000001
 12
1.0
 22
0.0
 32
0.0
 13
1.0
 23
0.0
 33
0.0
 40
0.0
 40
0.0
 40
0.0
 40
0.0
 40
1.0
 40
1.0
 40
1.0
 40
1.0
 10
397.1628771644246
 20
4321.320397221201
 30
0.0000000000004547
 10
397.3033918267929
 20
4321.368172206403
 30
0.0000000000004547
 10
397.6328726462229
 20
4321.377138861093
 30
0.0000000000004547
 10
397.5993691088684
 20
4321.232555554534
 30
0.0000000000004547
  0
ARC
  5
1EE
330
1F
100
AcDbEntity
  8
Make2D$可见线$普通线
100
AcDbCircle
 10
394.2242842808066
 20
4315.302379366512
 30
0.0000000000004547
 40
6.101815079674489
100
AcDbArc
 50
68.3522181306844
 51
72.03878918319595
  0
SPLINE
  5
1EF
330
1F
100
AcDbEntity
  8
Make2D$可见线$普通线
100
AcDbSpline
210
0.0
220
0.0
230
1.0
 70
     8
 71
     3
 72
     9
 73
     5
 74
     0
 42
0.000000001
 43
0.0000000001
 12
1.0
 22
0.0
 32
0.0
 13
1.0
 23
0.0
 33
0.0
 40
0.0
 40
0.0
 40
0.0
 40
0.0
 40
0.556630445596
 40
1.0
 40
1.0
 40
1.0
 40
1.0
 10
393.4518313310905
 20
4320.856000554535
 30
0.0000000000004547
 10
393.5689281603045
 20
4320.814549481724
 30
0.0000000000004547
 10
393.7970244651024
 20
4320.933264551582
 30
0.0000000000004547
 10
394.0178387719161
 20
4320.93231340294
 30
0.0000000000004547
 10
394.1167468866461
 20
4320.929731110091
 30
0.0000000000004547
  0
SPLINE
  5
1F0
330
1F
100
AcDbEntity
  8
Make2D$可见线$普通线
100
AcDbSpline
210
0.0
220
0.0
230
1.0
 70
     8
 71
     3
 72
     9
 73
     5
 74
     0
 42
0.000000001
 43
0.0000000001
 12
1.0
 22
0.0
 32
0.0
 13
1.0
 23
0.0
 33
0.0
 40
0.0
 40
0.0
 40
0.0
 40
0.0
 40
0.6890138700582
 40
1.0
 40
1.0
 40
1.0
 40
1.0
 10
392.8758157755337
 20
4320.611772498976
 30
0.0000000000004547
 10
393.0090901704839
 20
4320.689973016535
 30
0.0000000000004547
 10
393.1427139176817
 20
4320.948383114495
 30
0.0000000000004547
 10
393.3866646721735
 20
4320.880850561745
 30
0.0000000000004547
 10
393.4518313310905
 20
4320.856000554535
 30
0.0000000000004547
  0
SPLINE
  5
1F1
330
1F
100
AcDbEntity
  8
Make2D$可见线$普通线
100
AcDbSpline
210
0.0
220
0.0
230
1.0
 70
     8
 71
     3
 72
     9
 73
     5
 74
     0
 42
0.000000001
 43
0.0000000001
 12
1.0
 22
0.0
 32
0.0
 13
1.0
 23
0.0
 33
0.0
 40
0.0
 40
0.0
 40
0.0
 40
0.0
 40
0.299635662061
 40
1.0
 40
1.0
 40
1.0
 40
1.0
 10
390.19999633109
 20
4319.509659443425
 30
0.0000000000004547
 10
390.3734659904867
 20
4319.470337145365
 30
0.0000000000004547
 10
390.842884528432
 20
4320.051675855526
 30
0.0000000000004547
 10
391.3117173961891
 20
4320.300722284246
 30
0.0000000000004547
 10
391.663142164422
 20
4320.522872498977
 30
0.0000000000004547
  0
SPLINE
  5
1F2
330
1F
100
AcDbEntity
  8
Make2D$可见线$普通线
100
AcDbSpline
210
0.0
220
0.0
230
1.0
 70
     8
 71
     3
 72
     9
 73
     5
 74
     0
 42
0.000000001
 43
0.0000000001
 12
1.0
 22
0.0
 32
0.0
 13
1.0
 23
0.0
 33
0.0
 40
0.0
 40
0.0
 40
0.0
 40
0.0
 40
0.6628907829305
 40
1.0
 40
1.0
 40
1.0
 40
1.0
 10
390.6874999422025
 20
4320.338228610091
 30
0.0000000000004547
 10
390.5809040591603
 20
4320.153566918583
 30
0.0000000000004547
 10
390.4979661817242
 20
4319.991773707572
 30
0.0000000000004547
 10
390.0938023491713
 20
4319.531574080524
 30
0.0000000000004547
 10
390.19999633109
 20
4319.509659443425
 30
0.0000000000004547
  0
SPLINE
  5
1F3
330
1F
100
AcDbEntity
  8
Make2D$可见线$普通线
100
AcDbSpline
210
0.0
220
0.0
230
1.0
 70
     8
 71
     3
 72
     9
 73
     5
 74
     0
 42
0.000000001
 43
0.0000000001
 12
1.0
 22
0.0
 32
0.0
 13
1.0
 23
0.0
 33
0.0
 40
0.0
 40
0.0
 40
0.0
 40
0.0
 40
0.442287458334
 40
1.0
 40
1.0
 40
1.0
 40
1.0
 10
392.6167357755353
 20
4325.496898054533
 30
0.0000000000004547
 10
392.7232194666462
 20
4325.582957334573
 30
0.0000000000004547
 10
393.1544419791953
 20
4325.641918988773
 30
0.0000000000004547
 10
393.1789929977567
 20
4325.218937704174
 30
0.0000000000004547
 10
393.1789929977567
 20
4325.046294998974
 30
0.0000000000004547
  0
ARC
  5
1F4
330
1F
100
AcDbEntity
  8
Make2D$可见线$普通线
100
AcDbCircle
 10
395.1804052991348
 20
4322.2895139726
 30
0.0000000000002281
 40
4.106058216254489
100
AcDbArc
 50
128.6354253392526
 51
142.0045104302548
  0
SPLINE
  5
1F5
330
1F
100
AcDbEntity
  8
Make2D$可见线$普通线
100
AcDbSpline
210
0.0
220
0.0
230
1.0
 70
     8
 71
     3
 72
     9
 73
     5
 74
     0
 42
0.000000001
 43
0.0000000001
 12
1.0
 22
0.0
 32
0.0
 13
1.0
 23
0.0
 33
0.0
 40
0.0
 40
0.0
 40
0.0
 40
0.0
 40
0.2735402655954
 40
1.0
 40
1.0
 40
1.0
 40
1.0
 10
390.598952719979
 20
4321.017925554534
 30
0.0000000000004547
 10
390.5865919111384
 20
4321.390015634553
 30
0.0000000000004547
 10
390.6938841930373
 20
4322.757649066694
 30
0.0000000000004547
 10
391.3401990020175
 20
4324.034704227133
 30
0.0000000000004547
 10
391.9445882755354
 20
4324.817201110094
 30
0.0000000000004547
  0
ARC
  5
1F6
330
1F
100
AcDbEntity
  8
Make2D$可见线$普通线
100
AcDbCircle
 10
390.3440026450713
 20
4320.986361408934
 30
0.0000000000002409
 40
0.2568965472379918
100
AcDbArc
 50
312.3210899443619
 51
7.057602783594486
  0
SPLINE
  5
1F7
330
1F
100
AcDbEntity
  8
Make2D$可见线$普通线
100
AcDbSpline
210
0.0
220
0.0
230
1.0
 70
     8
 71
     3
 72
     8
 73
     4
 74
     0
 42
0.000000001
 43
0.0000000001
 12
1.0
 22
0.0
 32
0.0
 13
1.0
 23
0.0
 33
0.0
 40
0.0
 40
0.0
 40
0.0
 40
0.0
 40
1.0
 40
1.0
 40
1.0
 40
1.0
 10
389.2009296644246
 20
4320.581433610092
 30
0.0000000000004547
 10
389.6299071843268
 20
4320.697850906863
 30
0.0000000000004547
 10
390.0882531000561
 20
4320.913800162663
 30
0.0000000000004547
 10
390.5169671644226
 20
4320.796416387866
 30
0.0000000000004547
  0
SPLINE
  5
1F8
330
1F
100
AcDbEntity
  8
Make2D$可见线$普通线
100
AcDbSpline
210
0.0
220
0.0
230
1.0
 70
     8
 71
     3
 72
     8
 73
     4
 74
     0
 42
0.000000001
 43
0.0000000001
 12
1.0
 22
0.0
 32
0.0
 13
1.0
 23
0.0
 33
0.0
 40
0.0
 40
0.0
 40
0.0
 40
0.0
 40
1.0
 40
1.0
 40
1.0
 40
1.0
 10
388.9432254977573
 20
4320.604187776753
 30
0.0000000000004547
 10
388.953953141614
 20
4320.518622045993
 30
0.0000000000004547
 10
389.1191715436025
 20
4320.554007594992
 30
0.0000000000004547
 10
389.2009296644246
 20
4320.581433610092
 30
0.0000000000004547
  0
SPLINE
  5
1F9
330
1F
100
AcDbEntity
  8
Make2D$可见线$普通线
100
AcDbSpline
210
0.0
220
0.0
230
1.0
 70
     8
 71
     3
 72
     8
 73
     4
 74
     0
 42
0.000000001
 43
0.0000000001
 12
1.0
 22
0.0
 32
0.0
 13
1.0
 23
0.0
 33
0.0
 40
0.0
 40
0.0
 40
0.0
 40
0.0
 40
1.0
 40
1.0
 40
1.0
 40
1.0
 10
388.2483591088676
 20
4320.922499165645
 30
0.0000000000004547
 10
388.49730583468
 20
4320.976650381974
 30
0.0000000000004547
 10
388.8952761839842
 20
4320.854403063724
 30
0.0000000000004547
 10
388.9432254977573
 20
4320.604187776753
 30
0.0000000000004547
  0
SPLINE
  5
1FA
330
1F
100
AcDbEntity
  8
Make2D$可见线$普通线
100
AcDbSpline
210
0.0
220
0.0
230
1.0
 70
     8
 71
     3
 72
     9
 73
     5
 74
     0
 42
0.000000001
 43
0.0000000001
 12
1.0
 22
0.0
 32
0.0
 13
1.0
 23
0.0
 33
0.0
 40
0.0
 40
0.0
 40
0.0
 40
0.0
 40
0.459888834856
 40
1.0
 40
1.0
 40
1.0
 40
1.0
 10
387.4866413310911
 20
4320.382325832314
 30
0.0000000000004547
 10
387.4819449346605
 20
4320.538607455124
 30
0.0000000000004547
 10
387.6970456618083
 20
4320.903516940414
 30
0.0000000000004547
 10
388.0685296700108
 20
4320.885352346435
 30
0.0000000000004547
 10
388.2483591088676
 20
4320.922499165645
 30
0.0000000000004547
  0
SPLINE
  5
1FB
330
1F
100
AcDbEntity
  8
Make2D$可见线$普通线
100
AcDbSpline
210
0.0
220
0.0
230
1.0
 70
     8
 71
     3
 72
     8
 73
     4
 74
     0
 42
0.000000001
 43
0.0000000001
 12
1.0
 22
0.0
 32
0.0
 13
1.0
 23
0.0
 33
0.0
 40
0.0
 40
0.0
 40
0.0
 40
0.0
 40
1.0
 40
1.0
 40
1.0
 40
1.0
 10
387.4728829977562
 20
4320.241743887864
 30
0.0000000000004547
 10
387.518528358436
 20
4320.230191666953
 30
0.0000000000004547
 10
387.4866413310892
 20
4320.335241304494
 30
0.0000000000004547
 10
387.4866413310911
 20
4320.382325832314
 30
0.0000000000004547
  0
ARC
  5
1FC
330
1F
100
AcDbEntity
  8
Make2D$可见线$普通线
100
AcDbCircle
 10
387.3225485578423
 20
4320.61742003471
 30
0.0000000000004547
 40
0.2761830008511418
100
AcDbArc
 50
150.9294340454435
 51
238.3452876094856
  0
SPLINE
  5
1FD
330
1F
100
AcDbEntity
  8
Make2D$可见线$普通线
100
AcDbSpline
210
0.0
220
0.0
230
1.0
 70
     8
 71
     3
 72
     8
 73
     4
 74
     0
 42
0.000000001
 43
0.0000000001
 12
1.0
 22
0.0
 32
0.0
 13
1.0
 23
0.0
 33
0.0
 40
0.0
 40
0.0
 40
0.0
 40
0.0
 40
1.0
 40
1.0
 40
1.0
 40
1.0
 10
386.7549096644238
 20
4320.856000554535
 30
0.0000000000004547
 10
386.8223554809142
 20
4320.948132421505
 30
0.0000000000004547
 10
387.1218449645862
 20
4320.858299293344
 30
0.0000000000004547
 10
387.0811585533161
 20
4320.751613610093
 30
0.0000000000004547
  0
ARC
  5
1FE
330
1F
100
AcDbEntity
  8
Make2D$可见线$普通线
100
AcDbCircle
 10
385.6040300926775
 20
4321.841079513111
 30
0.0000000000002282
 40
1.514894169007334
100
AcDbArc
 50
305.7591706188829
 51
319.4385993966008
  0
SPLINE
  5
1FF
330
1F
100
AcDbEntity
  8
Make2D$可见线$普通线
100
AcDbSpline
210
0.0
220
0.0
230
1.0
 70
     8
 71
     3
 72
     9
 73
     5
 74
     0
 42
0.000000001
 43
0.0000000001
 12
1.0
 22
0.0
 32
0.0
 13
1.0
 23
0.0
 33
0.0
 40
0.0
 40
0.0
 40
0.0
 40
0.0
 40
0.5355532931619
 40
1.0
 40
1.0
 40
1.0
 40
1.0
 10
385.7651210533168
 20
4320.537336387868
 30
0.0000000000004547
 10
385.9042638873361
 20
4320.511626102727
 30
0.0000000000004547
 10
386.161334190916
 20
4320.321353887606
 30
0.0000000000004547
 10
386.3978307816251
 20
4320.529975067735
 30
0.0000000000004547
 10
386.4893032755349
 20
4320.611772498974
 30
0.0000000000004547
  0
ARC
  5
200
330
1F
100
AcDbEntity
  8
Make2D$可见线$普通线
100
AcDbCircle
 10
383.939418338509
 20
4309.526547303772
 30
0.0000000000004547
 40
11.16112300162094
100
AcDbArc
 50
80.58542209567264
 51
95.63051420857983
  0
SPLINE
  5
201
330
1F
100
AcDbEntity
  8
Make2D$可见线$普通线
100
AcDbSpline
210
0.0
220
0.0
230
1.0
 70
     8
 71
     3
 72
     8
 73
     4
 74
     0
 42
0.000000001
 43
0.0000000001
 12
1.0
 22
0.0
 32
0.0
 13
1.0
 23
0.0
 33
0.0
 40
0.0
 40
0.0
 40
0.0
 40
0.0
 40
1.0
 40
1.0
 40
1.0
 40
1.0
 10
382.261826053315
 20
4320.560090554534
 30
0.0000000000004547
 10
382.4153086293354
 20
4320.681553489694
 30
0.0000000000004547
 10
382.648938385516
 20
4320.622985408812
 30
0.0000000000004547
 10
382.8443679977563
 20
4320.63382111009
 30
0.0000000000004547
  0
SPLINE
  5
202
330
1F
100
AcDbEntity
  8
Make2D$可见线$普通线
100
AcDbSpline
210
0.0
220
0.0
230
1.0
 70
     8
 71
     3
 72
     9
 73
     5
 74
     0
 42
0.000000001
 43
0.0000000001
 12
1.0
 22
0.0
 32
0.0
 13
1.0
 23
0.0
 33
0.0
 40
0.0
 40
0.0
 40
0.0
 40
0.0
 40
0.4299989572971
 40
1.0
 40
1.0
 40
1.0
 40
1.0
 10
385.9863127199751
 20
4320.042636110093
 30
0.0000000000004547
 10
385.7218253666156
 20
4320.310951215963
 30
0.0000000000004547
 10
384.7498525807159
 20
4320.430282128193
 30
0.0000000000004547
 10
383.9113986281559
 20
4320.420074126423
 30
0.0000000000004547
 10
383.4145274422062
 20
4320.470520276755
 30
0.0000000000004547
  0
ARC
  5
203
330
1F
100
AcDbEntity
  8
Make2D$可见线$普通线
100
AcDbCircle
 10
388.5679369699878
 20
4322.222962354791
 30
0.0000000000002277
 40
2.59855483054085
100
AcDbArc
 50
228.1987093774291
 51
236.4586487951112
  0
LINE
  5
204
330
1F
100
AcDbEntity
  8
Make2D$可见线$普通线
100
AcDbLine
 10
412.2500018866458
 20
4361.375303054534
 30
0.0000000000004547
 11
383.7500018866458
 21
4361.375303054534
 31
0.0000000000004547
  0
LINE
  5
205
330
1F
100
AcDbEntity
  8
Make2D$可见线$普通线
100
AcDbLine
 10
413.0000018866458
 20
4370.125303054534
 30
0.0000000000004547
 11
413.0000018866458
 21
4362.125303054534
 31
0.0000000000004547
  0
LINE
  5
206
330
1F
100
AcDbEntity
  8
Make2D$可见线$普通线
100
AcDbLine
 10
410.5000018866463
 20
4370.875303054534
 30
0.0000000000004547
 11
412.2500018866458
 21
4370.875303054534
 31
0.0000000000004547
  0
LINE
  5
207
330
1F
100
AcDbEntity
  8
Make2D$可见线$普通线
100
AcDbLine
 10
383.7500018866458
 20
4370.875303054534
 30
0.0000000000004547
 11
385.5000018866458
 21
4370.875303054534
 31
0.0000000000004547
  0
LINE
  5
208
330
1F
100
AcDbEntity
  8
Make2D$可见线$普通线
100
AcDbLine
 10
383.0000018866458
 20
4362.125303054534
 30
0.0000000000004547
 11
383.0000018866458
 21
4370.125303054534
 31
0.0000000000004547
  0
LINE
  5
209
330
1F
100
AcDbEntity
  8
Make2D$可见线$普通线
100
AcDbLine
 10
378.0000018866458
 20
4370.875303054534
 30
0.0000000000004547
 11
378.0000018866458
 21
4281.777058785143
 31
0.0000000000004547
  0
LINE
  5
20A
330
1F
100
AcDbEntity
  8
Make2D$可见线$普通线
100
AcDbLine
 10
385.5000018866454
 20
4375.875303054534
 30
0.0000000000004547
 11
383.0000018866458
 21
4375.875303054534
 31
0.0000000000004547
  0
LINE
  5
20B
330
1F
100
AcDbEntity
  8
Make2D$可见线$普通线
100
AcDbLine
 10
413.0000018866458
 20
4375.875303054534
 30
0.0000000000004547
 11
410.5000018866454
 21
4375.875303054534
 31
0.0000000000004547
  0
LINE
  5
20C
330
1F
100
AcDbEntity
  8
Make2D$可见线$普通线
100
AcDbLine
 10
418.0000018866458
 20
4281.777058785143
 30
0.0000000000004547
 11
418.0000018866458
 21
4370.875303054534
 31
0.0000000000004547
  0
LINE
  5
20D
330
1F
100
AcDbEntity
  8
Make2D$可见线$普通线
100
AcDbLine
 10
263.0000018866458
 20
4272.908033170945
 30
0.0000000000004547
 11
263.0000018866458
 21
4258.875303054534
 31
0.0000000000004547
  0
LINE
  5
20E
330
1F
100
AcDbEntity
  8
Make2D$可见线$普通线
100
AcDbLine
 10
533.0000018866463
 20
4272.908033170948
 30
0.0000000000004547
 11
424.3582051339258
 21
4275.27860560913
 31
0.0000000000004547
  0
LINE
  5
20F
330
1F
100
AcDbEntity
  8
Make2D$可见线$普通线
100
AcDbLine
 10
533.0000018866458
 20
4258.875303054534
 30
0.0000000000004547
 11
533.0000018866463
 21
4272.908033170948
 31
0.0000000000004547
  0
LINE
  5
210
330
1F
100
AcDbEntity
  8
Make2D$可见线$普通线
100
AcDbLine
 10
534.4457850191557
 20
4250.875303054536
 30
0.0000000000004547
 11
533.0000018866458
 21
4258.875303054534
 31
0.0000000000004547
  0
LINE
  5
211
330
1F
100
AcDbEntity
  8
Make2D$可见线$普通线
100
AcDbLine
 10
534.499703783008
 20
4250.576952561367
 30
0.0000000000004547
 11
534.4457850191557
 21
4250.875303054536
 31
0.0000000000004547
  0
LINE
  5
212
330
1F
100
AcDbEntity
  8
Make2D$可见线$普通线
100
AcDbLine
 10
263.0000018866458
 20
4258.875303054534
 30
0.0000000000004547
 11
533.0000018866458
 21
4258.875303054534
 31
0.0000000000004547
  0
LINE
  5
213
330
1F
100
AcDbEntity
  8
Make2D$可见线$普通线
100
AcDbLine
 10
261.5542187541364
 20
4250.875303054536
 30
0.0000000000004547
 11
261.5005713101446
 21
4250.578453864568
 31
0.0000000000004547
  0
LINE
  5
214
330
1F
100
AcDbEntity
  8
Make2D$可见线$普通线
100
AcDbLine
 10
263.0000018866458
 20
4258.875303054534
 30
0.0000000000004547
 11
261.5542187541364
 21
4250.875303054536
 31
0.0000000000004547
  0
LINE
  5
215
330
1F
100
AcDbEntity
  8
Make2D$可见线$普通线
100
AcDbLine
 10
410.5000018866458
 20
4364.375301667369
 30
0.0000000000004547
 11
410.5000018866458
 21
4373.375301667369
 31
0.0000000000004547
  0
LINE
  5
216
330
1F
100
AcDbEntity
  8
Make2D$可见线$普通线
100
AcDbLine
 10
385.5000018866458
 20
4373.375301667369
 30
0.0000000000004547
 11
385.5000018866458
 21
4364.375301667369
 31
0.0000000000004547
  0
LINE
  5
217
330
1F
100
AcDbEntity
  8
Make2D$可见线$普通线
100
AcDbLine
 10
410.5000018866458
 20
4364.375301667369
 30
0.0000000000004547
 11
385.5000018866458
 21
4364.375301667369
 31
0.0000000000004547
  0
LINE
  5
218
330
1F
100
AcDbEntity
  8
Make2D$可见线$普通线
100
AcDbLine
 10
410.5000018866458
 20
4486.375301667369
 30
0.0000000000004547
 11
385.5000018866458
 21
4486.375301667369
 31
0.0000000000004547
  0
LINE
  5
219
330
1F
100
AcDbEntity
  8
Make2D$可见线$普通线
100
AcDbLine
 10
410.5000018866458
 20
4392.375301667369
 30
0.0000000000004547
 11
410.5000018866458
 21
4486.375301667369
 31
0.0000000000004547
  0
LINE
  5
21A
330
1F
100
AcDbEntity
  8
Make2D$可见线$普通线
100
AcDbLine
 10
410.5000018866458
 20
4389.375301667369
 30
0.0000000000004547
 11
410.5000018866458
 21
4392.375301667369
 31
0.0000000000004547
  0
LINE
  5
21B
330
1F
100
AcDbEntity
  8
Make2D$可见线$普通线
100
AcDbLine
 10
385.5000018866458
 20
4392.375301667369
 30
0.0000000000004547
 11
385.5000018866458
 21
4389.375301667369
 31
0.0000000000004547
  0
LINE
  5
21C
330
1F
100
AcDbEntity
  8
Make2D$可见线$普通线
100
AcDbLine
 10
410.5000018866458
 20
4373.375301667369
 30
0.0000000000004547
 11
410.5000018866458
 21
4389.375301667369
 31
0.0000000000004547
  0
LINE
  5
21D
330
1F
100
AcDbEntity
  8
Make2D$可见线$普通线
100
AcDbLine
 10
385.5000018866458
 20
4486.375301667369
 30
0.0000000000004547
 11
385.5000018866458
 21
4392.375301667369
 31
0.0000000000004547
  0
LINE
  5
21E
330
1F
100
AcDbEntity
  8
Make2D$可见线$普通线
100
AcDbLine
 10
385.5000018866458
 20
4389.375301667369
 30
0.0000000000004547
 11
385.5000018866458
 21
4373.375301667369
 31
0.0000000000004547
  0
ENDSEC
  0
SECTION
  2
OBJECTS
  0
DICTIONARY
  5
C
330
0
100
AcDbDictionary
281
     1
  3
ACAD_GROUP
350
D
  3
ACAD_LAYOUT
350
1A
  3
ACAD_MATERIAL
350
3B
  3
ACAD_MLEADERSTYLE
350
249
  3
ACAD_MLINESTYLE
350
17
  3
ACAD_PLOTSETTINGS
350
19
  3
ACAD_PLOTSTYLENAME
350
E
  3
ACAD_SCALELIST
350
3F
  3
ACAD_TABLESTYLE
350
248
  3
ACAD_VISUALSTYLE
350
2A
  3
AcDbVariableDictionary
350
21F
  0
DICTIONARY
  5
D
102
{ACAD_REACTORS
330
C
102
}
330
C
100
AcDbDictionary
281
     1
  0
DICTIONARY
  5
1A
102
{ACAD_REACTORS
330
C
102
}
330
C
100
AcDbDictionary
281
     1
  3
Layout1
350
1E
  3
Layout2
350
26
  3
Model
350
22
  0
DICTIONARY
  5
3B
102
{ACAD_REACTORS
330
C
102
}
330
C
100
AcDbDictionary
281
     1
  3
ByBlock
350
3D
  3
ByLayer
350
3C
  3
Global
350
3E
  0
DICTIONARY
  5
249
102
{ACAD_REACTORS
330
C
102
}
330
C
100
AcDbDictionary
281
     1
  0
DICTIONARY
  5
17
102
{ACAD_REACTORS
330
C
102
}
330
C
100
AcDbDictionary
281
     1
  3
Standard
350
18
  0
DICTIONARY
  5
19
102
{ACAD_REACTORS
330
C
102
}
330
C
100
AcDbDictionary
281
     1
  0
ACDBDICTIONARYWDFLT
  5
E
102
{ACAD_REACTORS
330
C
102
}
330
C
100
AcDbDictionary
281
     1
  3
Normal
350
F
100
AcDbDictionaryWithDefault
340
F
  0
DICTIONARY
  5
3F
102
{ACAD_REACTORS
330
C
102
}
330
C
100
AcDbDictionary
281
     1
  3
A0
350
40
  3
A1
350
41
  3
A2
350
42
  3
A3
350
43
  3
A4
350
44
  3
A5
350
45
  3
A6
350
46
  3
A7
350
47
  3
A8
350
48
  3
A9
350
49
  3
B0
350
4A
  3
B1
350
4B
  3
B2
350
4C
  3
B3
350
4D
  3
B4
350
4E
  3
B5
350
4F
  3
B6
350
50
  3
B7
350
51
  3
B8
350
52
  3
B9
350
53
  3
C0
350
54
  3
C1
350
55
  3
C2
350
56
  3
C3
350
57
  3
C4
350
58
  3
C5
350
59
  3
C6
350
5A
  3
C7
350
5B
  3
C8
350
5C
  3
C9
350
5D
  3
D0
350
5E
  3
D1
350
5F
  3
D2
350
60
  0
DICTIONARY
  5
248
102
{ACAD_REACTORS
330
C
102
}
330
C
100
AcDbDictionary
281
     1
  0
DICTIONARY
  5
2A
102
{ACAD_REACTORS
330
C
102
}
330
C
100
AcDbDictionary
281
     1
  3
2dWireframe
350
2F
  3
3D Hidden
350
31
  3
3dWireframe
350
30
  3
Basic
350
32
  3
Brighten
350
36
  3
ColorChange
350
3A
  3
Conceptual
350
34
  3
Dim
350
35
  3
Facepattern
350
39
  3
Flat
350
2B
  3
FlatWithEdges
350
2C
  3
Gouraud
350
2D
  3
GouraudWithEdges
350
2E
  3
Linepattern
350
38
  3
Realistic
350
33
  3
Thicken
350
37
  0
DICTIONARY
  5
21F
102
{ACAD_REACTORS
330
C
102
}
330
C
100
AcDbDictionary
281
     1
  3
CANNOSCALE
350
220
  3
MSLTSCALE
350
221
  0
LAYOUT
  5
1E
102
{ACAD_REACTORS
330
1A
102
}
330
1A
100
AcDbPlotSettings
  1

  2
none_device
  4

  6

 40
0.0
 41
0.0
 42
0.0
 43
0.0
 44
0.0
 45
0.0
 46
0.0
 47
0.0
 48
0.0
 49
0.0
140
0.0
141
0.0
142
1.0
143
1.0
 70
   688
 72
     0
 73
     0
 74
     5
  7

 75
    16
 76
     0
 77
     2
 78
   300
147
1.0
148
0.0
149
0.0
100
AcDbLayout
  1
Layout1
 70
     1
 71
     1
 10
0.0
 20
0.0
 11
12.0
 21
9.0
 12
0.0
 22
0.0
 32
0.0
 14
1.000000000000000E+20
 24
1.000000000000000E+20
 34
1.000000000000000E+20
 15
-1.000000000000000E+20
 25
-1.000000000000000E+20
 35
-1.000000000000000E+20
146
0.0
 13
0.0
 23
0.0
 33
0.0
 16
1.0
 26
0.0
 36
0.0
 17
0.0
 27
1.0
 37
0.0
 76
     0
330
1B
  0
LAYOUT
  5
26
102
{ACAD_REACTORS
330
1A
102
}
330
1A
100
AcDbPlotSettings
  1

  2
none_device
  4

  6

 40
0.0
 41
0.0
 42
0.0
 43
0.0
 44
0.0
 45
0.0
 46
0.0
 47
0.0
 48
0.0
 49
0.0
140
0.0
141
0.0
142
1.0
143
1.0
 70
   688
 72
     0
 73
     0
 74
     5
  7

 75
    16
 76
     0
 77
     2
 78
   300
147
1.0
148
0.0
149
0.0
100
AcDbLayout
  1
Layout2
 70
     1
 71
     2
 10
0.0
 20
0.0
 11
0.0
 21
0.0
 12
0.0
 22
0.0
 32
0.0
 14
0.0
 24
0.0
 34
0.0
 15
0.0
 25
0.0
 35
0.0
146
0.0
 13
0.0
 23
0.0
 33
0.0
 16
1.0
 26
0.0
 36
0.0
 17
0.0
 27
1.0
 37
0.0
 76
     0
330
23
  0
LAYOUT
  5
22
102
{ACAD_REACTORS
330
1A
102
}
330
1A
100
AcDbPlotSettings
  1

  2
none_device
  4
Letter_(8.50_x_11.00_Inches)
  6

 40
6.35
 41
6.35
 42
6.35000508
 43
6.35000508
 44
215.9
 45
279.4
 46
0.0
 47
0.0
 48
0.0
 49
0.0
140
0.0
141
0.0
142
1.0
143
1.0
 70
  1712
 72
     0
 73
     0
 74
     0
  7

 75
     0
 76
     0
 77
     2
 78
   300
147
1.0
148
0.0
149
0.0
100
AcDbLayout
  1
Model
 70
     1
 71
     0
 10
0.0
 20
0.0
 11
12.0
 21
9.0
 12
0.0
 22
0.0
 32
0.0
 14
-379.5
 24
3292.375301667367
 34
0.0000000000003753
 15
534.4997037830085
 25
5304.375301667367
 35
0.0000000000005229
146
0.0
 13
0.0
 23
0.0
 33
0.0
 16
1.0
 26
0.0
 36
0.0
 17
0.0
 27
1.0
 37
0.0
 76
     0
330
1F
331
29
  0
MATERIAL
  5
3D
102
{ACAD_REACTORS
330
3B
102
}
102
{ACAD_XDICTIONARY
360
244
102
}
330
3B
100
AcDbMaterial
  1
ByBlock
  0
MATERIAL
  5
3C
102
{ACAD_REACTORS
330
3B
102
}
102
{ACAD_XDICTIONARY
360
242
102
}
330
3B
100
AcDbMaterial
  1
ByLayer
  0
MATERIAL
  5
3E
102
{ACAD_REACTORS
330
3B
102
}
102
{ACAD_XDICTIONARY
360
246
102
}
330
3B
100
AcDbMaterial
  1
Global
  0
MLINESTYLE
  5
18
102
{ACAD_REACTORS
330
17
102
}
330
17
100
AcDbMlineStyle
  2
Standard
 70
     0
  3

 62
   256
 51
90.0
 52
90.0
 71
     2
 49
0.5
 62
   256
  6
BYLAYER
 49
-0.5
 62
   256
  6
BYLAYER
  0
ACDBPLACEHOLDER
  5
F
102
{ACAD_REACTORS
330
E
102
}
330
E
  0
SCALE
  5
40
102
{ACAD_REACTORS
330
3F
102
}
330
3F
100
AcDbScale
 70
     0
300
1:1
140
1.0
141
1.0
290
     1
  0
SCALE
  5
41
102
{ACAD_REACTORS
330
3F
102
}
330
3F
100
AcDbScale
 70
     0
300
1:2
140
1.0
141
2.0
290
     0
  0
SCALE
  5
42
102
{ACAD_REACTORS
330
3F
102
}
330
3F
100
AcDbScale
 70
     0
300
1:4
140
1.0
141
4.0
290
     0
  0
SCALE
  5
43
102
{ACAD_REACTORS
330
3F
102
}
330
3F
100
AcDbScale
 70
     0
300
1:5
140
1.0
141
5.0
290
     0
  0
SCALE
  5
44
102
{ACAD_REACTORS
330
3F
102
}
330
3F
100
AcDbScale
 70
     0
300
1:8
140
1.0
141
8.0
290
     0
  0
SCALE
  5
45
102
{ACAD_REACTORS
330
3F
102
}
330
3F
100
AcDbScale
 70
     0
300
1:10
140
1.0
141
10.0
290
     0
  0
SCALE
  5
46
102
{ACAD_REACTORS
330
3F
102
}
330
3F
100
AcDbScale
 70
     0
300
1:16
140
1.0
141
16.0
290
     0
  0
SCALE
  5
47
102
{ACAD_REACTORS
330
3F
102
}
330
3F
100
AcDbScale
 70
     0
300
1:20
140
1.0
141
20.0
290
     0
  0
SCALE
  5
48
102
{ACAD_REACTORS
330
3F
102
}
330
3F
100
AcDbScale
 70
     0
300
1:30
140
1.0
141
30.0
290
     0
  0
SCALE
  5
49
102
{ACAD_REACTORS
330
3F
102
}
330
3F
100
AcDbScale
 70
     0
300
1:40
140
1.0
141
40.0
290
     0
  0
SCALE
  5
4A
102
{ACAD_REACTORS
330
3F
102
}
330
3F
100
AcDbScale
 70
     0
300
1:50
140
1.0
141
50.0
290
     0
  0
SCALE
  5
4B
102
{ACAD_REACTORS
330
3F
102
}
330
3F
100
AcDbScale
 70
     0
300
1:100
140
1.0
141
100.0
290
     0
  0
SCALE
  5
4C
102
{ACAD_REACTORS
330
3F
102
}
330
3F
100
AcDbScale
 70
     0
300
2:1
140
2.0
141
1.0
290
     0
  0
SCALE
  5
4D
102
{ACAD_REACTORS
330
3F
102
}
330
3F
100
AcDbScale
 70
     0
300
4:1
140
4.0
141
1.0
290
     0
  0
SCALE
  5
4E
102
{ACAD_REACTORS
330
3F
102
}
330
3F
100
AcDbScale
 70
     0
300
8:1
140
8.0
141
1.0
290
     0
  0
SCALE
  5
4F
102
{ACAD_REACTORS
330
3F
102
}
330
3F
100
AcDbScale
 70
     0
300
10:1
140
10.0
141
1.0
290
     0
  0
SCALE
  5
50
102
{ACAD_REACTORS
330
3F
102
}
330
3F
100
AcDbScale
 70
     0
300
100:1
140
100.0
141
1.0
290
     0
  0
SCALE
  5
51
102
{ACAD_REACTORS
330
3F
102
}
330
3F
100
AcDbScale
 70
     0
300
1/128" = 1'-0"
140
0.0078125
141
12.0
290
     0
  0
SCALE
  5
52
102
{ACAD_REACTORS
330
3F
102
}
330
3F
100
AcDbScale
 70
     0
300
1/64" = 1'-0"
140
0.015625
141
12.0
290
     0
  0
SCALE
  5
53
102
{ACAD_REACTORS
330
3F
102
}
330
3F
100
AcDbScale
 70
     0
300
1/32" = 1'-0"
140
0.03125
141
12.0
290
     0
  0
SCALE
  5
54
102
{ACAD_REACTORS
330
3F
102
}
330
3F
100
AcDbScale
 70
     0
300
1/16" = 1'-0"
140
0.0625
141
12.0
290
     0
  0
SCALE
  5
55
102
{ACAD_REACTORS
330
3F
102
}
330
3F
100
AcDbScale
 70
     0
300
3/32" = 1'-0"
140
0.09375
141
12.0
290
     0
  0
SCALE
  5
56
102
{ACAD_REACTORS
330
3F
102
}
330
3F
100
AcDbScale
 70
     0
300
1/8" = 1'-0"
140
0.125
141
12.0
290
     0
  0
SCALE
  5
57
102
{ACAD_REACTORS
330
3F
102
}
330
3F
100
AcDbScale
 70
     0
300
3/16" = 1'-0"
140
0.1875
141
12.0
290
     0
  0
SCALE
  5
58
102
{ACAD_REACTORS
330
3F
102
}
330
3F
100
AcDbScale
 70
     0
300
1/4" = 1'-0"
140
0.25
141
12.0
290
     0
  0
SCALE
  5
59
102
{ACAD_REACTORS
330
3F
102
}
330
3F
100
AcDbScale
 70
     0
300
3/8" = 1'-0"
140
0.375
141
12.0
290
     0
  0
SCALE
  5
5A
102
{ACAD_REACTORS
330
3F
102
}
330
3F
100
AcDbScale
 70
     0
300
1/2" = 1'-0"
140
0.5
141
12.0
290
     0
  0
SCALE
  5
5B
102
{ACAD_REACTORS
330
3F
102
}
330
3F
100
AcDbScale
 70
     0
300
3/4" = 1'-0"
140
0.75
141
12.0
290
     0
  0
SCALE
  5
5C
102
{ACAD_REACTORS
330
3F
102
}
330
3F
100
AcDbScale
 70
     0
300
1" = 1'-0"
140
1.0
141
12.0
290
     0
  0
SCALE
  5
5D
102
{ACAD_REACTORS
330
3F
102
}
330
3F
100
AcDbScale
 70
     0
300
1-1/2" = 1'-0"
140
1.5
141
12.0
290
     0
  0
SCALE
  5
5E
102
{ACAD_REACTORS
330
3F
102
}
330
3F
100
AcDbScale
 70
     0
300
3" = 1'-0"
140
3.0
141
12.0
290
     0
  0
SCALE
  5
5F
102
{ACAD_REACTORS
330
3F
102
}
330
3F
100
AcDbScale
 70
     0
300
6" = 1'-0"
140
6.0
141
12.0
290
     0
  0
SCALE
  5
60
102
{ACAD_REACTORS
330
3F
102
}
330
3F
100
AcDbScale
 70
     0
300
1'-0" = 1'-0"
140
12.0
141
12.0
290
     0
  0
VISUALSTYLE
  5
2F
102
{ACAD_REACTORS
330
2A
102
}
102
{ACAD_XDICTIONARY
360
22A
102
}
330
2A
100
AcDbVisualStyle
  2
2dWireframe
 70
     4
 71
     0
 72
     2
 73
     0
 90
        0
 40
0.6
 41
30.0
 62
     5
 63
     7
421
 16777215
 74
     1
 91
        4
 64
     7
 65
   257
 75
     1
175
     1
 42
1.0
 92
        0
 66
   257
 43
1.0
 76
     1
 77
     6
 78
     2
 67
     7
 79
     5
170
     0
171
     0
290
     0
174
     0
 93
        1
 44
0.0
173
     0
291
     0
 45
0.0
1001
ACAD
1000
AcDbSavedByObjectVersion
1070
     0
  0
VISUALSTYLE
  5
31
102
{ACAD_REACTORS
330
2A
102
}
102
{ACAD_XDICTIONARY
360
22E
102
}
330
2A
100
AcDbVisualStyle
  2
3D Hidden
 70
     6
 71
     1
 72
     2
 73
     2
 90
        0
 40
0.6
 41
30.0
 62
     5
 63
     7
421
 16777215
 74
     2
 91
        2
 64
     7
 65
   257
 75
     2
175
     1
 42
40.0
 92
        0
 66
   257
 43
1.0
 76
     1
 77
     6
 78
     2
 67
     7
 79
     3
170
     0
171
     0
290
     0
174
     0
 93
        1
 44
0.0
173
     0
291
     0
 45
0.0
1001
ACAD
1000
AcDbSavedByObjectVersion
1070
     0
  0
VISUALSTYLE
  5
30
102
{ACAD_REACTORS
330
2A
102
}
102
{ACAD_XDICTIONARY
360
22C
102
}
330
2A
100
AcDbVisualStyle
  2
3dWireframe
 70
     5
 71
     0
 72
     2
 73
     0
 90
        0
 40
0.6
 41
30.0
 62
     5
 63
     7
421
 16777215
 74
     1
 91
        4
 64
     7
 65
   257
 75
     1
175
     1
 42
1.0
 92
        0
 66
   257
 43
1.0
 76
     1
 77
     6
 78
     2
 67
     7
 79
     5
170
     0
171
     0
290
     0
174
     0
 93
        1
 44
0.0
173
     0
291
     0
 45
0.0
1001
ACAD
1000
AcDbSavedByObjectVersion
1070
     0
  0
VISUALSTYLE
  5
32
102
{ACAD_REACTORS
330
2A
102
}
102
{ACAD_XDICTIONARY
360
230
102
}
330
2A
100
AcDbVisualStyle
  2
Basic
 70
     7
 71
     1
 72
     0
 73
     1
 90
        0
 40
0.6
 41
30.0
 62
     5
 63
     7
421
 16777215
 74
     0
 91
        4
 64
     7
 65
   257
 75
     1
175
     1
 42
1.0
 92
        8
 66
     7
 43
1.0
 76
     1
 77
     6
 78
     2
 67
     7
 79
     5
170
     0
171
     0
290
     0
174
     0
 93
        1
 44
0.0
173
     0
291
     1
 45
0.0
1001
ACAD
1000
AcDbSavedByObjectVersion
1070
     0
  0
VISUALSTYLE
  5
36
102
{ACAD_REACTORS
330
2A
102
}
102
{ACAD_XDICTIONARY
360
238
102
}
330
2A
100
AcDbVisualStyle
  2
Brighten
 70
    12
 71
     2
 72
     2
 73
     0
 90
        0
 40
0.6
 41
30.0
 62
     5
 63
     7
421
 16777215
 74
     1
 91
        4
 64
     7
 65
   257
 75
     1
175
     1
 42
1.0
 92
        8
 66
     7
 43
1.0
 76
     1
 77
     6
 78
     2
 67
     7
 79
     5
170
     0
171
     0
290
     0
174
     0
 93
        1
 44
50.0
173
     0
291
     1
 45
0.0
1001
ACAD
1000
AcDbSavedByObjectVersion
1070
     0
  0
VISUALSTYLE
  5
3A
102
{ACAD_REACTORS
330
2A
102
}
102
{ACAD_XDICTIONARY
360
240
102
}
330
2A
100
AcDbVisualStyle
  2
ColorChange
 70
    16
 71
     2
 72
     2
 73
     3
 90
        0
 40
0.6
 41
30.0
 62
     5
 63
     8
421
  8421504
 74
     1
 91
        4
 64
     7
 65
   257
 75
     1
175
     1
 42
1.0
 92
        8
 66
     8
424
  8421504
 43
1.0
 76
     1
 77
     6
 78
     2
 67
     7
 79
     5
170
     0
171
     0
290
     0
174
     0
 93
        1
 44
0.0
173
     0
291
     1
 45
0.0
1001
ACAD
1000
AcDbSavedByObjectVersion
1070
     0
  0
VISUALSTYLE
  5
34
102
{ACAD_REACTORS
330
2A
102
}
102
{ACAD_XDICTIONARY
360
234
102
}
330
2A
100
AcDbVisualStyle
  2
Conceptual
 70
     9
 71
     3
 72
     2
 73
     0
 90
        0
 40
0.6
 41
30.0
 62
     5
 63
     7
421
 16777215
 74
     2
 91
        2
 64
     7
 65
   257
 75
     1
175
     1
 42
40.0
 92
        8
 66
     7
 43
1.0
 76
     1
 77
     6
 78
     2
 67
     7
 79
     3
170
     0
171
     0
290
     0
174
     0
 93
        1
 44
0.0
173
     0
291
     0
 45
0.0
1001
ACAD
1000
AcDbSavedByObjectVersion
1070
     0
  0
VISUALSTYLE
  5
35
102
{ACAD_REACTORS
330
2A
102
}
102
{ACAD_XDICTIONARY
360
236
102
}
330
2A
100
AcDbVisualStyle
  2
Dim
 70
    11
 71
     2
 72
     2
 73
     0
 90
        0
 40
0.6
 41
30.0
 62
     5
 63
     7
421
 16777215
 74
     1
 91
        4
 64
     7
 65
   257
 75
     1
175
     1
 42
1.0
 92
        8
 66
     7
 43
1.0
 76
     1
 77
     6
 78
     2
 67
     7
 79
     5
170
     0
171
     0
290
     0
174
     0
 93
        1
 44
-50.0
173
     0
291
     1
 45
0.0
1001
ACAD
1000
AcDbSavedByObjectVersion
1070
     0
  0
VISUALSTYLE
  5
39
102
{ACAD_REACTORS
330
2A
102
}
102
{ACAD_XDICTIONARY
360
23E
102
}
330
2A
100
AcDbVisualStyle
  2
Facepattern
 70
    15
 71
     2
 72
     2
 73
     0
 90
        0
 40
0.6
 41
30.0
 62
     5
 63
     7
421
 16777215
 74
     1
 91
        4
 64
     7
 65
   257
 75
     1
175
     1
 42
1.0
 92
        8
 66
     7
 43
1.0
 76
     1
 77
     6
 78
     2
 67
     7
 79
     5
170
     0
171
     0
290
     0
174
     0
 93
        1
 44
0.0
173
     0
291
     1
 45
0.0
1001
ACAD
1000
AcDbSavedByObjectVersion
1070
     0
  0
VISUALSTYLE
  5
2B
102
{ACAD_REACTORS
330
2A
102
}
102
{ACAD_XDICTIONARY
360
222
102
}
330
2A
100
AcDbVisualStyle
  2
Flat
 70
     0
 71
     2
 72
     1
 73
     1
 90
        2
 40
0.6
 41
30.0
 62
     5
 63
     7
421
 16777215
 74
     0
 91
        4
 64
     7
 65
   257
 75
     1
175
     1
 42
1.0
 92
        8
 66
     7
 43
1.0
 76
     1
 77
     6
 78
     2
 67
     7
 79
     5
170
     0
171
     0
290
     0
174
     0
 93
       13
 44
0.0
173
     0
291
     1
 45
0.0
1001
ACAD
1000
AcDbSavedByObjectVersion
1070
     0
  0
VISUALSTYLE
  5
2C
102
{ACAD_REACTORS
330
2A
102
}
102
{ACAD_XDICTIONARY
360
224
102
}
330
2A
100
AcDbVisualStyle
  2
FlatWithEdges
 70
     1
 71
     2
 72
     1
 73
     1
 90
        2
 40
0.6
 41
30.0
 62
     5
 63
     7
421
 16777215
 74
     1
 91
        4
 64
     7
 65
   257
 75
     1
175
     1
 42
1.0
 92
        0
 66
   257
 43
1.0
 76
     1
 77
     6
 78
     2
 67
     7
 79
     5
170
     0
171
     0
290
     0
174
     0
 93
       13
 44
0.0
173
     0
291
     1
 45
0.0
1001
ACAD
1000
AcDbSavedByObjectVersion
1070
     0
  0
VISUALSTYLE
  5
2D
102
{ACAD_REACTORS
330
2A
102
}
102
{ACAD_XDICTIONARY
360
226
102
}
330
2A
100
AcDbVisualStyle
  2
Gouraud
 70
     2
 71
     2
 72
     2
 73
     1
 90
        2
 40
0.6
 41
30.0
 62
     5
 63
     7
421
 16777215
 74
     0
 91
        4
 64
     7
 65
   257
 75
     1
175
     1
 42
1.0
 92
        0
 66
     7
 43
1.0
 76
     1
 77
     6
 78
     2
 67
     7
 79
     5
170
     0
171
     0
290
     0
174
     0
 93
       13
 44
0.0
173
     0
291
     1
 45
0.0
1001
ACAD
1000
AcDbSavedByObjectVersion
1070
     0
  0
VISUALSTYLE
  5
2E
102
{ACAD_REACTORS
330
2A
102
}
102
{ACAD_XDICTIONARY
360
228
102
}
330
2A
100
AcDbVisualStyle
  2
GouraudWithEdges
 70
     3
 71
     2
 72
     2
 73
     1
 90
        2
 40
0.6
 41
30.0
 62
     5
 63
     7
421
 16777215
 74
     1
 91
        4
 64
     7
 65
   257
 75
     1
175
     1
 42
1.0
 92
        0
 66
   257
 43
1.0
 76
     1
 77
     6
 78
     2
 67
     7
 79
     5
170
     0
171
     0
290
     0
174
     0
 93
       13
 44
0.0
173
     0
291
     1
 45
0.0
1001
ACAD
1000
AcDbSavedByObjectVersion
1070
     0
  0
VISUALSTYLE
  5
38
102
{ACAD_REACTORS
330
2A
102
}
102
{ACAD_XDICTIONARY
360
23C
102
}
330
2A
100
AcDbVisualStyle
  2
Linepattern
 70
    14
 71
     2
 72
     2
 73
     0
 90
        0
 40
0.6
 41
30.0
 62
     5
 63
     7
421
 16777215
 74
     1
 91
        4
 64
     7
 65
   257
 75
     7
175
     7
 42
1.0
 92
        8
 66
     7
 43
1.0
 76
     1
 77
     6
 78
     2
 67
     7
 79
     5
170
     0
171
     0
290
     0
174
     0
 93
        1
 44
0.0
173
     0
291
     1
 45
0.0
1001
ACAD
1000
AcDbSavedByObjectVersion
1070
     0
  0
VISUALSTYLE
  5
33
102
{ACAD_REACTORS
330
2A
102
}
102
{ACAD_XDICTIONARY
360
232
102
}
330
2A
100
AcDbVisualStyle
  2
Realistic
 70
     8
 71
     2
 72
     3
 73
     0
 90
        2
 40
0.6
 41
30.0
 62
     5
 63
     7
421
 16777215
 74
     0
 91
        0
 64
     7
 65
   257
 75
     1
175
     1
 42
1.0
 92
        8
 66
   257
 43
1.0
 76
     1
 77
     6
 78
     2
 67
     7
 79
     3
170
     0
171
     0
290
     0
174
     0
 93
       13
 44
0.0
173
     0
291
     0
 45
0.0
1001
ACAD
1000
AcDbSavedByObjectVersion
1070
     0
  0
VISUALSTYLE
  5
37
102
{ACAD_REACTORS
330
2A
102
}
102
{ACAD_XDICTIONARY
360
23A
102
}
330
2A
100
AcDbVisualStyle
  2
Thicken
 70
    13
 71
     2
 72
     2
 73
     0
 90
        0
 40
0.6
 41
30.0
 62
     5
 63
     7
421
 16777215
 74
     1
 91
        4
 64
     7
 65
   257
 75
     1
175
     1
 42
1.0
 92
       12
 66
     7
 43
1.0
 76
     1
 77
     6
 78
     2
 67
     7
 79
     5
170
     0
171
     0
290
     0
174
     0
 93
        1
 44
0.0
173
     0
291
     1
 45
0.0
1001
ACAD
1000
AcDbSavedByObjectVersion
1070
     0
  0
DICTIONARYVAR
  5
220
102
{ACAD_REACTORS
330
21F
102
}
330
21F
100
DictionaryVariables
280
     0
  1
1:1
  0
DICTIONARYVAR
  5
221
102
{ACAD_REACTORS
330
21F
102
}
330
21F
100
DictionaryVariables
280
     0
  1
1
  0
DICTIONARY
  5
244
330
3D
100
AcDbDictionary
280
     1
281
     1
  3
ACAD_XREC_ROUNDTRIP
360
245
  0
DICTIONARY
  5
242
330
3C
100
AcDbDictionary
280
     1
281
     1
  3
ACAD_XREC_ROUNDTRIP
360
243
  0
DICTIONARY
  5
246
330
3E
100
AcDbDictionary
280
     1
281
     1
  3
ACAD_XREC_ROUNDTRIP
360
247
  0
DICTIONARY
  5
22A
330
2F
100
AcDbDictionary
280
     1
281
     1
  3
ACAD_XREC_ROUNDTRIP
360
22B
  0
DICTIONARY
  5
22E
330
31
100
AcDbDictionary
280
     1
281
     1
  3
ACAD_XREC_ROUNDTRIP
360
22F
  0
DICTIONARY
  5
22C
330
30
100
AcDbDictionary
280
     1
281
     1
  3
ACAD_XREC_ROUNDTRIP
360
22D
  0
DICTIONARY
  5
230
330
32
100
AcDbDictionary
280
     1
281
     1
  3
ACAD_XREC_ROUNDTRIP
360
231
  0
DICTIONARY
  5
238
330
36
100
AcDbDictionary
280
     1
281
     1
  3
ACAD_XREC_ROUNDTRIP
360
239
  0
DICTIONARY
  5
240
330
3A
100
AcDbDictionary
280
     1
281
     1
  3
ACAD_XREC_ROUNDTRIP
360
241
  0
DICTIONARY
  5
234
330
34
100
AcDbDictionary
280
     1
281
     1
  3
ACAD_XREC_ROUNDTRIP
360
235
  0
DICTIONARY
  5
236
330
35
100
AcDbDictionary
280
     1
281
     1
  3
ACAD_XREC_ROUNDTRIP
360
237
  0
DICTIONARY
  5
23E
330
39
100
AcDbDictionary
280
     1
281
     1
  3
ACAD_XREC_ROUNDTRIP
360
23F
  0
DICTIONARY
  5
222
330
2B
100
AcDbDictionary
280
     1
281
     1
  3
ACAD_XREC_ROUNDTRIP
360
223
  0
DICTIONARY
  5
224
330
2C
100
AcDbDictionary
280
     1
281
     1
  3
ACAD_XREC_ROUNDTRIP
360
225
  0
DICTIONARY
  5
226
330
2D
100
AcDbDictionary
280
     1
281
     1
  3
ACAD_XREC_ROUNDTRIP
360
227
  0
DICTIONARY
  5
228
330
2E
100
AcDbDictionary
280
     1
281
     1
  3
ACAD_XREC_ROUNDTRIP
360
229
  0
DICTIONARY
  5
23C
330
38
100
AcDbDictionary
280
     1
281
     1
  3
ACAD_XREC_ROUNDTRIP
360
23D
  0
DICTIONARY
  5
232
330
33
100
AcDbDictionary
280
     1
281
     1
  3
ACAD_XREC_ROUNDTRIP
360
233
  0
DICTIONARY
  5
23A
330
37
100
AcDbDictionary
280
     1
281
     1
  3
ACAD_XREC_ROUNDTRIP
360
23B
  0
XRECORD
  5
245
102
{ACAD_REACTORS
330
244
102
}
330
244
100
AcDbXrecord
280
     1
102
MATERIAL
148
0.0
149
0.0
149
0.0
 93
        0
 94
      127
282
     0
 72
     1
 77
     1
171
     1
175
     1
179
     1
273
     0
  0
XRECORD
  5
243
102
{ACAD_REACTORS
330
242
102
}
330
242
100
AcDbXrecord
280
     1
102
MATERIAL
148
0.0
149
0.0
149
0.0
 93
        0
 94
      127
282
     0
 72
     1
 77
     1
171
     1
175
     1
179
     1
273
     0
  0
XRECORD
  5
247
102
{ACAD_REACTORS
330
246
102
}
330
246
100
AcDbXrecord
280
     1
102
MATERIAL
148
0.0
149
0.0
149
0.0
 93
        0
 94
      127
282
     0
 72
     1
 77
     1
171
     1
175
     1
179
     1
273
     0
  0
XRECORD
  5
22B
102
{ACAD_REACTORS
330
22A
102
}
330
22A
100
AcDbXrecord
280
     1
102
RTVSPropertyOp0
 70
     1
102
RTVSPropertyOp1
 70
     1
102
RTVSPropertyOp2
 70
     1
102
RTVSPropertyOp3
 70
     1
102
RTVSPropertyOp4
 70
     1
102
RTVSPropertyOp5
 70
     1
102
RTVSPropertyOp6
 70
     1
102
RTVSPropertyOp7
 70
     1
102
RTVSPropertyOp8
 70
     1
102
RTVSPropertyOp9
 70
     1
102
RTVSPropertyOp10
 70
     1
102
RTVSPropertyOp11
 70
     1
102
RTVSPropertyOp12
 70
     1
102
RTVSPropertyOp13
 70
     1
102
RTVSPropertyOp14
 70
     1
102
RTVSPropertyOp15
 70
     1
102
RTVSPropertyOp16
 70
     1
102
RTVSPropertyOp17
 70
     1
102
RTVSPropertyOp18
 70
     1
102
RTVSPropertyOp19
 70
     1
102
RTVSPropertyOp20
 70
     1
102
RTVSPropertyOp21
 70
     1
102
RTVSPropertyOp22
 70
     1
102
RTVSPropertyOp23
 70
     1
102
RTVSPropertyOp24
 70
     1
102
RTVSPropertyOp25
 70
     1
102
RTVSPropertyOp26
 70
     1
102
RTVSPropertyOp27
 70
     1
102
RTVSPropertyOp28
 70
     1
102
RTVSPropertyOp29
 70
     1
102
RTVSPropertyOp30
 70
     1
102
RTVSPropertyOp31
 70
     1
102
RTVSPropertyOp32
 70
     1
102
RTVSPropertyOp33
 70
     1
102
RTVSPropertyOp34
 70
     1
102
RTVSPropertyOp35
 70
     1
102
RTVSPropertyOp36
 70
     1
102
RTVSPropertyOp37
 70
     1
102
RTVSPropertyOp38
 70
     1
102
RTVSPropertyOp39
 70
     1
102
RTVSPropertyOp40
 70
     1
102
RTVSPropertyOp41
 70
     1
102
RTVSPropertyOp42
 70
     1
102
RTVSPropertyOp43
 70
     1
102
RTVSPropertyOp44
 70
     1
102
RTVSPropertyOp45
 70
     1
102
RTVSPropertyOp46
 70
     1
102
RTVSPropertyOp47
 70
     1
102
RTVSPropertyOp48
 70
     1
102
RTVSPropertyOp49
 70
     1
102
RTVSPropertyOp50
 70
     1
102
RTVSPropertyOp51
 70
     0
102
RTVSPropertyOp52
 70
     0
102
RTVSPropertyOp53
 70
     1
102
RTVSPropertyOp54
 70
     1
102
RTVSPropertyOp55
 70
     1
102
RTVSPropertyOp56
 70
     1
102
RTVSPropertyOp57
 70
     1
102
RTVSPost2010Prop28
280
     1
102
RTVSPost2010PropOp28
 70
     1
102
RTVSPost2010Prop29
280
     1
102
RTVSPost2010PropOp29
 70
     1
102
RTVSPost2010Prop30
280
     0
102
RTVSPost2010PropOp30
 70
     1
102
RTVSPost2010Prop31
280
     0
102
RTVSPost2010PropOp31
 70
     1
102
RTVSPost2010Prop32
280
     0
102
RTVSPost2010PropOp32
 70
     1
102
RTVSPost2010Prop33
280
     0
102
RTVSPost2010PropOp33
 70
     1
102
RTVSPost2010Prop34
280
     0
102
RTVSPost2010PropOp34
 70
     1
102
RTVSPost2010Prop35
280
     0
102
RTVSPost2010PropOp35
 70
     1
102
RTVSPost2010Prop36
280
     0
102
RTVSPost2010PropOp36
 70
     1
102
RTVSPost2010Prop37
 90
       50
102
RTVSPost2010PropOp37
 70
     1
102
RTVSPost2010Prop38
140
0.0
102
RTVSPost2010PropOp38
 70
     1
102
RTVSPost2010Prop39
140
1.0
102
RTVSPost2010PropOp39
 70
     1
102
RTVSPost2010Prop40
 90
        0
102
RTVSPost2010PropOp40
 70
     1
102
RTVSPost2010Prop41ColorIndex
 90
       18
102
RTVSPost2010Prop41ColorRGB
 90
        0
102
RTVSPost2010PropOp41
 70
     1
102
RTVSPost2010Prop42
 90
       50
102
RTVSPost2010PropOp42
 70
     1
102
RTVSPost2010Prop43
 90
        3
102
RTVSPost2010PropOp43
 70
     1
102
RTVSPost2010Prop44ColorIndex
 90
        5
102
RTVSPost2010Prop44ColorRGB
 90
      255
102
RTVSPost2010PropOp44
 70
     1
102
RTVSPost2010Prop45
280
     0
102
RTVSPost2010PropOp45
 70
     1
102
RTVSPost2010Prop46
 90
       50
102
RTVSPost2010PropOp46
 70
     1
102
RTVSPost2010Prop47
 90
       50
102
RTVSPost2010PropOp47
 70
     1
102
RTVSPost2010Prop48
 90
       50
102
RTVSPost2010PropOp48
 70
     1
102
RTVSPost2010Prop49
280
     0
102
RTVSPost2010PropOp49
 70
     1
102
RTVSPost2010Prop50
 90
       50
102
RTVSPost2010PropOp50
 70
     1
102
RTVSPost2010Prop51ColorIndex
 90
      256
102
RTVSPost2010Prop51ColorRGB
 90
-16777216
102
RTVSPost2010PropOp51
 70
     0
102
RTVSPost2010Prop52
140
1.0
102
RTVSPost2010PropOp52
 70
     0
102
RTVSPost2010Prop53
 90
        2
102
RTVSPost2010PropOp53
 70
     1
102
RTVSPost2010Prop54
  1
strokes_ogs.tif
102
RTVSPost2010PropOp54
 70
     1
102
RTVSPost2010Prop55
280
     0
102
RTVSPost2010PropOp55
 70
     1
102
RTVSPost2010Prop56
140
1.0
102
RTVSPost2010PropOp56
 70
     1
102
RTVSPost2010Prop57
140
1.0
102
RTVSPost2010PropOp57
 70
     1
  0
XRECORD
  5
22F
102
{ACAD_REACTORS
330
22E
102
}
330
22E
100
AcDbXrecord
280
     1
102
RTVSPropertyOp0
 70
     1
102
RTVSPropertyOp1
 70
     1
102
RTVSPropertyOp2
 70
     1
102
RTVSPropertyOp3
 70
     1
102
RTVSPropertyOp4
 70
     1
102
RTVSPropertyOp5
 70
     1
102
RTVSPropertyOp6
 70
     1
102
RTVSPropertyOp7
 70
     1
102
RTVSPropertyOp8
 70
     1
102
RTVSPropertyOp9
 70
     1
102
RTVSPropertyOp10
 70
     1
102
RTVSPropertyOp11
 70
     1
102
RTVSPropertyOp12
 70
     1
102
RTVSPropertyOp13
 70
     1
102
RTVSPropertyOp14
 70
     1
102
RTVSPropertyOp15
 70
     1
102
RTVSPropertyOp16
 70
     1
102
RTVSPropertyOp17
 70
     1
102
RTVSPropertyOp18
 70
     1
102
RTVSPropertyOp19
 70
     1
102
RTVSPropertyOp20
 70
     1
102
RTVSPropertyOp21
 70
     1
102
RTVSPropertyOp22
 70
     1
102
RTVSPropertyOp23
 70
     1
102
RTVSPropertyOp24
 70
     1
102
RTVSPropertyOp25
 70
     1
102
RTVSPropertyOp26
 70
     1
102
RTVSPropertyOp27
 70
     1
102
RTVSPropertyOp28
 70
     1
102
RTVSPropertyOp29
 70
     1
102
RTVSPropertyOp30
 70
     1
102
RTVSPropertyOp31
 70
     1
102
RTVSPropertyOp32
 70
     1
102
RTVSPropertyOp33
 70
     1
102
RTVSPropertyOp34
 70
     1
102
RTVSPropertyOp35
 70
     1
102
RTVSPropertyOp36
 70
     1
102
RTVSPropertyOp37
 70
     1
102
RTVSPropertyOp38
 70
     1
102
RTVSPropertyOp39
 70
     1
102
RTVSPropertyOp40
 70
     1
102
RTVSPropertyOp41
 70
     1
102
RTVSPropertyOp42
 70
     1
102
RTVSPropertyOp43
 70
     1
102
RTVSPropertyOp44
 70
     1
102
RTVSPropertyOp45
 70
     1
102
RTVSPropertyOp46
 70
     1
102
RTVSPropertyOp47
 70
     1
102
RTVSPropertyOp48
 70
     1
102
RTVSPropertyOp49
 70
     1
102
RTVSPropertyOp50
 70
     1
102
RTVSPropertyOp51
 70
     0
102
RTVSPropertyOp52
 70
     0
102
RTVSPropertyOp53
 70
     1
102
RTVSPropertyOp54
 70
     1
102
RTVSPropertyOp55
 70
     1
102
RTVSPropertyOp56
 70
     1
102
RTVSPropertyOp57
 70
     1
102
RTVSPost2010Prop28
280
     0
102
RTVSPost2010PropOp28
 70
     1
102
RTVSPost2010Prop29
280
     1
102
RTVSPost2010PropOp29
 70
     1
102
RTVSPost2010Prop30
280
     1
102
RTVSPost2010PropOp30
 70
     1
102
RTVSPost2010Prop31
280
     0
102
RTVSPost2010PropOp31
 70
     1
102
RTVSPost2010Prop32
280
     0
102
RTVSPost2010PropOp32
 70
     1
102
RTVSPost2010Prop33
280
     0
102
RTVSPost2010PropOp33
 70
     1
102
RTVSPost2010Prop34
280
     0
102
RTVSPost2010PropOp34
 70
     1
102
RTVSPost2010Prop35
280
     0
102
RTVSPost2010PropOp35
 70
     1
102
RTVSPost2010Prop36
280
     0
102
RTVSPost2010PropOp36
 70
     1
102
RTVSPost2010Prop37
 90
       50
102
RTVSPost2010PropOp37
 70
     1
102
RTVSPost2010Prop38
140
0.0
102
RTVSPost2010PropOp38
 70
     1
102
RTVSPost2010Prop39
140
1.0
102
RTVSPost2010PropOp39
 70
     1
102
RTVSPost2010Prop40
 90
        0
102
RTVSPost2010PropOp40
 70
     1
102
RTVSPost2010Prop41ColorIndex
 90
       18
102
RTVSPost2010Prop41ColorRGB
 90
        0
102
RTVSPost2010PropOp41
 70
     1
102
RTVSPost2010Prop42
 90
       50
102
RTVSPost2010PropOp42
 70
     1
102
RTVSPost2010Prop43
 90
        3
102
RTVSPost2010PropOp43
 70
     1
102
RTVSPost2010Prop44ColorIndex
 90
        5
102
RTVSPost2010Prop44ColorRGB
 90
      255
102
RTVSPost2010PropOp44
 70
     1
102
RTVSPost2010Prop45
280
     0
102
RTVSPost2010PropOp45
 70
     1
102
RTVSPost2010Prop46
 90
       50
102
RTVSPost2010PropOp46
 70
     1
102
RTVSPost2010Prop47
 90
       50
102
RTVSPost2010PropOp47
 70
     1
102
RTVSPost2010Prop48
 90
       50
102
RTVSPost2010PropOp48
 70
     1
102
RTVSPost2010Prop49
280
     0
102
RTVSPost2010PropOp49
 70
     1
102
RTVSPost2010Prop50
 90
       50
102
RTVSPost2010PropOp50
 70
     1
102
RTVSPost2010Prop51ColorIndex
 90
      256
102
RTVSPost2010Prop51ColorRGB
 90
-16777216
102
RTVSPost2010PropOp51
 70
     0
102
RTVSPost2010Prop52
140
1.0
102
RTVSPost2010PropOp52
 70
     0
102
RTVSPost2010Prop53
 90
        2
102
RTVSPost2010PropOp53
 70
     1
102
RTVSPost2010Prop54
  1
strokes_ogs.tif
102
RTVSPost2010PropOp54
 70
     1
102
RTVSPost2010Prop55
280
     0
102
RTVSPost2010PropOp55
 70
     1
102
RTVSPost2010Prop56
140
1.0
102
RTVSPost2010PropOp56
 70
     1
102
RTVSPost2010Prop57
140
1.0
102
RTVSPost2010PropOp57
 70
     1
  0
XRECORD
  5
22D
102
{ACAD_REACTORS
330
22C
102
}
330
22C
100
AcDbXrecord
280
     1
102
RTVSPropertyOp0
 70
     1
102
RTVSPropertyOp1
 70
     1
102
RTVSPropertyOp2
 70
     1
102
RTVSPropertyOp3
 70
     1
102
RTVSPropertyOp4
 70
     1
102
RTVSPropertyOp5
 70
     1
102
RTVSPropertyOp6
 70
     1
102
RTVSPropertyOp7
 70
     1
102
RTVSPropertyOp8
 70
     1
102
RTVSPropertyOp9
 70
     1
102
RTVSPropertyOp10
 70
     1
102
RTVSPropertyOp11
 70
     1
102
RTVSPropertyOp12
 70
     1
102
RTVSPropertyOp13
 70
     1
102
RTVSPropertyOp14
 70
     1
102
RTVSPropertyOp15
 70
     1
102
RTVSPropertyOp16
 70
     1
102
RTVSPropertyOp17
 70
     1
102
RTVSPropertyOp18
 70
     1
102
RTVSPropertyOp19
 70
     1
102
RTVSPropertyOp20
 70
     1
102
RTVSPropertyOp21
 70
     1
102
RTVSPropertyOp22
 70
     1
102
RTVSPropertyOp23
 70
     1
102
RTVSPropertyOp24
 70
     1
102
RTVSPropertyOp25
 70
     1
102
RTVSPropertyOp26
 70
     1
102
RTVSPropertyOp27
 70
     1
102
RTVSPropertyOp28
 70
     1
102
RTVSPropertyOp29
 70
     1
102
RTVSPropertyOp30
 70
     1
102
RTVSPropertyOp31
 70
     1
102
RTVSPropertyOp32
 70
     1
102
RTVSPropertyOp33
 70
     1
102
RTVSPropertyOp34
 70
     1
102
RTVSPropertyOp35
 70
     1
102
RTVSPropertyOp36
 70
     1
102
RTVSPropertyOp37
 70
     1
102
RTVSPropertyOp38
 70
     1
102
RTVSPropertyOp39
 70
     1
102
RTVSPropertyOp40
 70
     1
102
RTVSPropertyOp41
 70
     1
102
RTVSPropertyOp42
 70
     1
102
RTVSPropertyOp43
 70
     1
102
RTVSPropertyOp44
 70
     1
102
RTVSPropertyOp45
 70
     1
102
RTVSPropertyOp46
 70
     1
102
RTVSPropertyOp47
 70
     1
102
RTVSPropertyOp48
 70
     1
102
RTVSPropertyOp49
 70
     1
102
RTVSPropertyOp50
 70
     1
102
RTVSPropertyOp51
 70
     0
102
RTVSPropertyOp52
 70
     0
102
RTVSPropertyOp53
 70
     1
102
RTVSPropertyOp54
 70
     1
102
RTVSPropertyOp55
 70
     1
102
RTVSPropertyOp56
 70
     1
102
RTVSPropertyOp57
 70
     1
102
RTVSPost2010Prop28
280
     0
102
RTVSPost2010PropOp28
 70
     1
102
RTVSPost2010Prop29
280
     1
102
RTVSPost2010PropOp29
 70
     1
102
RTVSPost2010Prop30
280
     1
102
RTVSPost2010PropOp30
 70
     1
102
RTVSPost2010Prop31
280
     0
102
RTVSPost2010PropOp31
 70
     1
102
RTVSPost2010Prop32
280
     0
102
RTVSPost2010PropOp32
 70
     1
102
RTVSPost2010Prop33
280
     0
102
RTVSPost2010PropOp33
 70
     1
102
RTVSPost2010Prop34
280
     0
102
RTVSPost2010PropOp34
 70
     1
102
RTVSPost2010Prop35
280
     0
102
RTVSPost2010PropOp35
 70
     1
102
RTVSPost2010Prop36
280
     0
102
RTVSPost2010PropOp36
 70
     1
102
RTVSPost2010Prop37
 90
       50
102
RTVSPost2010PropOp37
 70
     1
102
RTVSPost2010Prop38
140
0.0
102
RTVSPost2010PropOp38
 70
     1
102
RTVSPost2010Prop39
140
1.0
102
RTVSPost2010PropOp39
 70
     1
102
RTVSPost2010Prop40
 90
        0
102
RTVSPost2010PropOp40
 70
     1
102
RTVSPost2010Prop41ColorIndex
 90
       18
102
RTVSPost2010Prop41ColorRGB
 90
        0
102
RTVSPost2010PropOp41
 70
     1
102
RTVSPost2010Prop42
 90
       50
102
RTVSPost2010PropOp42
 70
     1
102
RTVSPost2010Prop43
 90
        3
102
RTVSPost2010PropOp43
 70
     1
102
RTVSPost2010Prop44ColorIndex
 90
        5
102
RTVSPost2010Prop44ColorRGB
 90
      255
102
RTVSPost2010PropOp44
 70
     1
102
RTVSPost2010Prop45
280
     0
102
RTVSPost2010PropOp45
 70
     1
102
RTVSPost2010Prop46
 90
       50
102
RTVSPost2010PropOp46
 70
     1
102
RTVSPost2010Prop47
 90
       50
102
RTVSPost2010PropOp47
 70
     1
102
RTVSPost2010Prop48
 90
       50
102
RTVSPost2010PropOp48
 70
     1
102
RTVSPost2010Prop49
280
     0
102
RTVSPost2010PropOp49
 70
     1
102
RTVSPost2010Prop50
 90
       50
102
RTVSPost2010PropOp50
 70
     1
102
RTVSPost2010Prop51ColorIndex
 90
      256
102
RTVSPost2010Prop51ColorRGB
 90
-16777216
102
RTVSPost2010PropOp51
 70
     0
102
RTVSPost2010Prop52
140
1.0
102
RTVSPost2010PropOp52
 70
     0
102
RTVSPost2010Prop53
 90
        2
102
RTVSPost2010PropOp53
 70
     1
102
RTVSPost2010Prop54
  1
strokes_ogs.tif
102
RTVSPost2010PropOp54
 70
     1
102
RTVSPost2010Prop55
280
     0
102
RTVSPost2010PropOp55
 70
     1
102
RTVSPost2010Prop56
140
1.0
102
RTVSPost2010PropOp56
 70
     1
102
RTVSPost2010Prop57
140
1.0
102
RTVSPost2010PropOp57
 70
     1
  0
XRECORD
  5
231
102
{ACAD_REACTORS
330
230
102
}
330
230
100
AcDbXrecord
280
     1
102
RTVSPropertyOp0
 70
     1
102
RTVSPropertyOp1
 70
     1
102
RTVSPropertyOp2
 70
     1
102
RTVSPropertyOp3
 70
     1
102
RTVSPropertyOp4
 70
     1
102
RTVSPropertyOp5
 70
     1
102
RTVSPropertyOp6
 70
     1
102
RTVSPropertyOp7
 70
     1
102
RTVSPropertyOp8
 70
     1
102
RTVSPropertyOp9
 70
     1
102
RTVSPropertyOp10
 70
     1
102
RTVSPropertyOp11
 70
     1
102
RTVSPropertyOp12
 70
     1
102
RTVSPropertyOp13
 70
     1
102
RTVSPropertyOp14
 70
     1
102
RTVSPropertyOp15
 70
     1
102
RTVSPropertyOp16
 70
     1
102
RTVSPropertyOp17
 70
     1
102
RTVSPropertyOp18
 70
     1
102
RTVSPropertyOp19
 70
     1
102
RTVSPropertyOp20
 70
     1
102
RTVSPropertyOp21
 70
     1
102
RTVSPropertyOp22
 70
     1
102
RTVSPropertyOp23
 70
     1
102
RTVSPropertyOp24
 70
     1
102
RTVSPropertyOp25
 70
     1
102
RTVSPropertyOp26
 70
     1
102
RTVSPropertyOp27
 70
     1
102
RTVSPropertyOp28
 70
     1
102
RTVSPropertyOp29
 70
     1
102
RTVSPropertyOp30
 70
     1
102
RTVSPropertyOp31
 70
     1
102
RTVSPropertyOp32
 70
     1
102
RTVSPropertyOp33
 70
     1
102
RTVSPropertyOp34
 70
     1
102
RTVSPropertyOp35
 70
     1
102
RTVSPropertyOp36
 70
     1
102
RTVSPropertyOp37
 70
     1
102
RTVSPropertyOp38
 70
     1
102
RTVSPropertyOp39
 70
     1
102
RTVSPropertyOp40
 70
     1
102
RTVSPropertyOp41
 70
     1
102
RTVSPropertyOp42
 70
     1
102
RTVSPropertyOp43
 70
     1
102
RTVSPropertyOp44
 70
     1
102
RTVSPropertyOp45
 70
     1
102
RTVSPropertyOp46
 70
     1
102
RTVSPropertyOp47
 70
     1
102
RTVSPropertyOp48
 70
     1
102
RTVSPropertyOp49
 70
     1
102
RTVSPropertyOp50
 70
     1
102
RTVSPropertyOp51
 70
     0
102
RTVSPropertyOp52
 70
     0
102
RTVSPropertyOp53
 70
     1
102
RTVSPropertyOp54
 70
     1
102
RTVSPropertyOp55
 70
     1
102
RTVSPropertyOp56
 70
     1
102
RTVSPropertyOp57
 70
     1
102
RTVSPost2010Prop28
280
     0
102
RTVSPost2010PropOp28
 70
     1
102
RTVSPost2010Prop29
280
     1
102
RTVSPost2010PropOp29
 70
     1
102
RTVSPost2010Prop30
280
     1
102
RTVSPost2010PropOp30
 70
     1
102
RTVSPost2010Prop31
280
     0
102
RTVSPost2010PropOp31
 70
     1
102
RTVSPost2010Prop32
280
     0
102
RTVSPost2010PropOp32
 70
     1
102
RTVSPost2010Prop33
280
     0
102
RTVSPost2010PropOp33
 70
     1
102
RTVSPost2010Prop34
280
     0
102
RTVSPost2010PropOp34
 70
     1
102
RTVSPost2010Prop35
280
     0
102
RTVSPost2010PropOp35
 70
     1
102
RTVSPost2010Prop36
280
     0
102
RTVSPost2010PropOp36
 70
     1
102
RTVSPost2010Prop37
 90
       50
102
RTVSPost2010PropOp37
 70
     1
102
RTVSPost2010Prop38
140
0.0
102
RTVSPost2010PropOp38
 70
     1
102
RTVSPost2010Prop39
140
1.0
102
RTVSPost2010PropOp39
 70
     1
102
RTVSPost2010Prop40
 90
        0
102
RTVSPost2010PropOp40
 70
     1
102
RTVSPost2010Prop41ColorIndex
 90
       18
102
RTVSPost2010Prop41ColorRGB
 90
        0
102
RTVSPost2010PropOp41
 70
     1
102
RTVSPost2010Prop42
 90
       50
102
RTVSPost2010PropOp42
 70
     1
102
RTVSPost2010Prop43
 90
        3
102
RTVSPost2010PropOp43
 70
     1
102
RTVSPost2010Prop44ColorIndex
 90
        5
102
RTVSPost2010Prop44ColorRGB
 90
      255
102
RTVSPost2010PropOp44
 70
     1
102
RTVSPost2010Prop45
280
     0
102
RTVSPost2010PropOp45
 70
     1
102
RTVSPost2010Prop46
 90
       50
102
RTVSPost2010PropOp46
 70
     1
102
RTVSPost2010Prop47
 90
       50
102
RTVSPost2010PropOp47
 70
     1
102
RTVSPost2010Prop48
 90
       50
102
RTVSPost2010PropOp48
 70
     1
102
RTVSPost2010Prop49
280
     0
102
RTVSPost2010PropOp49
 70
     1
102
RTVSPost2010Prop50
 90
       50
102
RTVSPost2010PropOp50
 70
     1
102
RTVSPost2010Prop51ColorIndex
 90
      256
102
RTVSPost2010Prop51ColorRGB
 90
-16777216
102
RTVSPost2010PropOp51
 70
     0
102
RTVSPost2010Prop52
140
1.0
102
RTVSPost2010PropOp52
 70
     0
102
RTVSPost2010Prop53
 90
        2
102
RTVSPost2010PropOp53
 70
     1
102
RTVSPost2010Prop54
  1
strokes_ogs.tif
102
RTVSPost2010PropOp54
 70
     1
102
RTVSPost2010Prop55
280
     0
102
RTVSPost2010PropOp55
 70
     1
102
RTVSPost2010Prop56
140
1.0
102
RTVSPost2010PropOp56
 70
     1
102
RTVSPost2010Prop57
140
1.0
102
RTVSPost2010PropOp57
 70
     1
  0
XRECORD
  5
239
102
{ACAD_REACTORS
330
238
102
}
330
238
100
AcDbXrecord
280
     1
102
RTVSPropertyOp0
 70
     1
102
RTVSPropertyOp1
 70
     1
102
RTVSPropertyOp2
 70
     1
102
RTVSPropertyOp3
 70
     1
102
RTVSPropertyOp4
 70
     1
102
RTVSPropertyOp5
 70
     1
102
RTVSPropertyOp6
 70
     1
102
RTVSPropertyOp7
 70
     1
102
RTVSPropertyOp8
 70
     1
102
RTVSPropertyOp9
 70
     1
102
RTVSPropertyOp10
 70
     1
102
RTVSPropertyOp11
 70
     1
102
RTVSPropertyOp12
 70
     1
102
RTVSPropertyOp13
 70
     1
102
RTVSPropertyOp14
 70
     1
102
RTVSPropertyOp15
 70
     1
102
RTVSPropertyOp16
 70
     1
102
RTVSPropertyOp17
 70
     1
102
RTVSPropertyOp18
 70
     1
102
RTVSPropertyOp19
 70
     1
102
RTVSPropertyOp20
 70
     1
102
RTVSPropertyOp21
 70
     1
102
RTVSPropertyOp22
 70
     1
102
RTVSPropertyOp23
 70
     1
102
RTVSPropertyOp24
 70
     1
102
RTVSPropertyOp25
 70
     1
102
RTVSPropertyOp26
 70
     1
102
RTVSPropertyOp27
 70
     1
102
RTVSPropertyOp28
 70
     1
102
RTVSPropertyOp29
 70
     1
102
RTVSPropertyOp30
 70
     1
102
RTVSPropertyOp31
 70
     1
102
RTVSPropertyOp32
 70
     1
102
RTVSPropertyOp33
 70
     1
102
RTVSPropertyOp34
 70
     1
102
RTVSPropertyOp35
 70
     1
102
RTVSPropertyOp36
 70
     1
102
RTVSPropertyOp37
 70
     1
102
RTVSPropertyOp38
 70
     1
102
RTVSPropertyOp39
 70
     1
102
RTVSPropertyOp40
 70
     1
102
RTVSPropertyOp41
 70
     1
102
RTVSPropertyOp42
 70
     1
102
RTVSPropertyOp43
 70
     1
102
RTVSPropertyOp44
 70
     1
102
RTVSPropertyOp45
 70
     1
102
RTVSPropertyOp46
 70
     1
102
RTVSPropertyOp47
 70
     1
102
RTVSPropertyOp48
 70
     1
102
RTVSPropertyOp49
 70
     1
102
RTVSPropertyOp50
 70
     1
102
RTVSPropertyOp51
 70
     0
102
RTVSPropertyOp52
 70
     0
102
RTVSPropertyOp53
 70
     1
102
RTVSPropertyOp54
 70
     1
102
RTVSPropertyOp55
 70
     1
102
RTVSPropertyOp56
 70
     1
102
RTVSPropertyOp57
 70
     1
102
RTVSPost2010Prop28
280
     0
102
RTVSPost2010PropOp28
 70
     1
102
RTVSPost2010Prop29
280
     1
102
RTVSPost2010PropOp29
 70
     1
102
RTVSPost2010Prop30
280
     1
102
RTVSPost2010PropOp30
 70
     1
102
RTVSPost2010Prop31
280
     0
102
RTVSPost2010PropOp31
 70
     1
102
RTVSPost2010Prop32
280
     0
102
RTVSPost2010PropOp32
 70
     1
102
RTVSPost2010Prop33
280
     0
102
RTVSPost2010PropOp33
 70
     1
102
RTVSPost2010Prop34
280
     0
102
RTVSPost2010PropOp34
 70
     1
102
RTVSPost2010Prop35
280
     0
102
RTVSPost2010PropOp35
 70
     1
102
RTVSPost2010Prop36
280
     0
102
RTVSPost2010PropOp36
 70
     1
102
RTVSPost2010Prop37
 90
       50
102
RTVSPost2010PropOp37
 70
     1
102
RTVSPost2010Prop38
140
0.0
102
RTVSPost2010PropOp38
 70
     1
102
RTVSPost2010Prop39
140
1.0
102
RTVSPost2010PropOp39
 70
     1
102
RTVSPost2010Prop40
 90
        0
102
RTVSPost2010PropOp40
 70
     1
102
RTVSPost2010Prop41ColorIndex
 90
       18
102
RTVSPost2010Prop41ColorRGB
 90
        0
102
RTVSPost2010PropOp41
 70
     1
102
RTVSPost2010Prop42
 90
       50
102
RTVSPost2010PropOp42
 70
     1
102
RTVSPost2010Prop43
 90
        3
102
RTVSPost2010PropOp43
 70
     1
102
RTVSPost2010Prop44ColorIndex
 90
        5
102
RTVSPost2010Prop44ColorRGB
 90
      255
102
RTVSPost2010PropOp44
 70
     1
102
RTVSPost2010Prop45
280
     0
102
RTVSPost2010PropOp45
 70
     1
102
RTVSPost2010Prop46
 90
       50
102
RTVSPost2010PropOp46
 70
     1
102
RTVSPost2010Prop47
 90
       50
102
RTVSPost2010PropOp47
 70
     1
102
RTVSPost2010Prop48
 90
       50
102
RTVSPost2010PropOp48
 70
     1
102
RTVSPost2010Prop49
280
     0
102
RTVSPost2010PropOp49
 70
     1
102
RTVSPost2010Prop50
 90
       50
102
RTVSPost2010PropOp50
 70
     1
102
RTVSPost2010Prop51ColorIndex
 90
      256
102
RTVSPost2010Prop51ColorRGB
 90
-16777216
102
RTVSPost2010PropOp51
 70
     0
102
RTVSPost2010Prop52
140
1.0
102
RTVSPost2010PropOp52
 70
     0
102
RTVSPost2010Prop53
 90
        2
102
RTVSPost2010PropOp53
 70
     1
102
RTVSPost2010Prop54
  1
strokes_ogs.tif
102
RTVSPost2010PropOp54
 70
     1
102
RTVSPost2010Prop55
280
     0
102
RTVSPost2010PropOp55
 70
     1
102
RTVSPost2010Prop56
140
1.0
102
RTVSPost2010PropOp56
 70
     1
102
RTVSPost2010Prop57
140
1.0
102
RTVSPost2010PropOp57
 70
     1
  0
XRECORD
  5
241
102
{ACAD_REACTORS
330
240
102
}
330
240
100
AcDbXrecord
280
     1
102
RTVSPropertyOp0
 70
     1
102
RTVSPropertyOp1
 70
     1
102
RTVSPropertyOp2
 70
     1
102
RTVSPropertyOp3
 70
     1
102
RTVSPropertyOp4
 70
     1
102
RTVSPropertyOp5
 70
     1
102
RTVSPropertyOp6
 70
     1
102
RTVSPropertyOp7
 70
     1
102
RTVSPropertyOp8
 70
     1
102
RTVSPropertyOp9
 70
     1
102
RTVSPropertyOp10
 70
     1
102
RTVSPropertyOp11
 70
     1
102
RTVSPropertyOp12
 70
     1
102
RTVSPropertyOp13
 70
     1
102
RTVSPropertyOp14
 70
     1
102
RTVSPropertyOp15
 70
     1
102
RTVSPropertyOp16
 70
     1
102
RTVSPropertyOp17
 70
     1
102
RTVSPropertyOp18
 70
     1
102
RTVSPropertyOp19
 70
     1
102
RTVSPropertyOp20
 70
     1
102
RTVSPropertyOp21
 70
     1
102
RTVSPropertyOp22
 70
     1
102
RTVSPropertyOp23
 70
     1
102
RTVSPropertyOp24
 70
     1
102
RTVSPropertyOp25
 70
     1
102
RTVSPropertyOp26
 70
     1
102
RTVSPropertyOp27
 70
     1
102
RTVSPropertyOp28
 70
     1
102
RTVSPropertyOp29
 70
     1
102
RTVSPropertyOp30
 70
     1
102
RTVSPropertyOp31
 70
     1
102
RTVSPropertyOp32
 70
     1
102
RTVSPropertyOp33
 70
     1
102
RTVSPropertyOp34
 70
     1
102
RTVSPropertyOp35
 70
     1
102
RTVSPropertyOp36
 70
     1
102
RTVSPropertyOp37
 70
     1
102
RTVSPropertyOp38
 70
     1
102
RTVSPropertyOp39
 70
     1
102
RTVSPropertyOp40
 70
     1
102
RTVSPropertyOp41
 70
     1
102
RTVSPropertyOp42
 70
     1
102
RTVSPropertyOp43
 70
     1
102
RTVSPropertyOp44
 70
     1
102
RTVSPropertyOp45
 70
     1
102
RTVSPropertyOp46
 70
     1
102
RTVSPropertyOp47
 70
     1
102
RTVSPropertyOp48
 70
     1
102
RTVSPropertyOp49
 70
     1
102
RTVSPropertyOp50
 70
     1
102
RTVSPropertyOp51
 70
     0
102
RTVSPropertyOp52
 70
     0
102
RTVSPropertyOp53
 70
     1
102
RTVSPropertyOp54
 70
     1
102
RTVSPropertyOp55
 70
     1
102
RTVSPropertyOp56
 70
     1
102
RTVSPropertyOp57
 70
     1
102
RTVSPost2010Prop28
280
     0
102
RTVSPost2010PropOp28
 70
     1
102
RTVSPost2010Prop29
280
     1
102
RTVSPost2010PropOp29
 70
     1
102
RTVSPost2010Prop30
280
     1
102
RTVSPost2010PropOp30
 70
     1
102
RTVSPost2010Prop31
280
     0
102
RTVSPost2010PropOp31
 70
     1
102
RTVSPost2010Prop32
280
     0
102
RTVSPost2010PropOp32
 70
     1
102
RTVSPost2010Prop33
280
     0
102
RTVSPost2010PropOp33
 70
     1
102
RTVSPost2010Prop34
280
     0
102
RTVSPost2010PropOp34
 70
     1
102
RTVSPost2010Prop35
280
     0
102
RTVSPost2010PropOp35
 70
     1
102
RTVSPost2010Prop36
280
     0
102
RTVSPost2010PropOp36
 70
     1
102
RTVSPost2010Prop37
 90
       50
102
RTVSPost2010PropOp37
 70
     1
102
RTVSPost2010Prop38
140
0.0
102
RTVSPost2010PropOp38
 70
     1
102
RTVSPost2010Prop39
140
1.0
102
RTVSPost2010PropOp39
 70
     1
102
RTVSPost2010Prop40
 90
        0
102
RTVSPost2010PropOp40
 70
     1
102
RTVSPost2010Prop41ColorIndex
 90
       18
102
RTVSPost2010Prop41ColorRGB
 90
        0
102
RTVSPost2010PropOp41
 70
     1
102
RTVSPost2010Prop42
 90
       50
102
RTVSPost2010PropOp42
 70
     1
102
RTVSPost2010Prop43
 90
        3
102
RTVSPost2010PropOp43
 70
     1
102
RTVSPost2010Prop44ColorIndex
 90
        5
102
RTVSPost2010Prop44ColorRGB
 90
      255
102
RTVSPost2010PropOp44
 70
     1
102
RTVSPost2010Prop45
280
     0
102
RTVSPost2010PropOp45
 70
     1
102
RTVSPost2010Prop46
 90
       50
102
RTVSPost2010PropOp46
 70
     1
102
RTVSPost2010Prop47
 90
       50
102
RTVSPost2010PropOp47
 70
     1
102
RTVSPost2010Prop48
 90
       50
102
RTVSPost2010PropOp48
 70
     1
102
RTVSPost2010Prop49
280
     0
102
RTVSPost2010PropOp49
 70
     1
102
RTVSPost2010Prop50
 90
       50
102
RTVSPost2010PropOp50
 70
     1
102
RTVSPost2010Prop51ColorIndex
 90
      256
102
RTVSPost2010Prop51ColorRGB
 90
-16777216
102
RTVSPost2010PropOp51
 70
     0
102
RTVSPost2010Prop52
140
1.0
102
RTVSPost2010PropOp52
 70
     0
102
RTVSPost2010Prop53
 90
        2
102
RTVSPost2010PropOp53
 70
     1
102
RTVSPost2010Prop54
  1
strokes_ogs.tif
102
RTVSPost2010PropOp54
 70
     1
102
RTVSPost2010Prop55
280
     0
102
RTVSPost2010PropOp55
 70
     1
102
RTVSPost2010Prop56
140
1.0
102
RTVSPost2010PropOp56
 70
     1
102
RTVSPost2010Prop57
140
1.0
102
RTVSPost2010PropOp57
 70
     1
  0
XRECORD
  5
235
102
{ACAD_REACTORS
330
234
102
}
330
234
100
AcDbXrecord
280
     1
102
RTVSPropertyOp0
 70
     1
102
RTVSPropertyOp1
 70
     1
102
RTVSPropertyOp2
 70
     1
102
RTVSPropertyOp3
 70
     1
102
RTVSPropertyOp4
 70
     1
102
RTVSPropertyOp5
 70
     1
102
RTVSPropertyOp6
 70
     1
102
RTVSPropertyOp7
 70
     1
102
RTVSPropertyOp8
 70
     1
102
RTVSPropertyOp9
 70
     1
102
RTVSPropertyOp10
 70
     1
102
RTVSPropertyOp11
 70
     1
102
RTVSPropertyOp12
 70
     1
102
RTVSPropertyOp13
 70
     1
102
RTVSPropertyOp14
 70
     1
102
RTVSPropertyOp15
 70
     1
102
RTVSPropertyOp16
 70
     1
102
RTVSPropertyOp17
 70
     1
102
RTVSPropertyOp18
 70
     1
102
RTVSPropertyOp19
 70
     1
102
RTVSPropertyOp20
 70
     1
102
RTVSPropertyOp21
 70
     1
102
RTVSPropertyOp22
 70
     1
102
RTVSPropertyOp23
 70
     1
102
RTVSPropertyOp24
 70
     1
102
RTVSPropertyOp25
 70
     1
102
RTVSPropertyOp26
 70
     1
102
RTVSPropertyOp27
 70
     1
102
RTVSPropertyOp28
 70
     1
102
RTVSPropertyOp29
 70
     1
102
RTVSPropertyOp30
 70
     1
102
RTVSPropertyOp31
 70
     1
102
RTVSPropertyOp32
 70
     1
102
RTVSPropertyOp33
 70
     1
102
RTVSPropertyOp34
 70
     1
102
RTVSPropertyOp35
 70
     1
102
RTVSPropertyOp36
 70
     1
102
RTVSPropertyOp37
 70
     1
102
RTVSPropertyOp38
 70
     1
102
RTVSPropertyOp39
 70
     1
102
RTVSPropertyOp40
 70
     1
102
RTVSPropertyOp41
 70
     1
102
RTVSPropertyOp42
 70
     1
102
RTVSPropertyOp43
 70
     1
102
RTVSPropertyOp44
 70
     1
102
RTVSPropertyOp45
 70
     1
102
RTVSPropertyOp46
 70
     1
102
RTVSPropertyOp47
 70
     1
102
RTVSPropertyOp48
 70
     1
102
RTVSPropertyOp49
 70
     1
102
RTVSPropertyOp50
 70
     1
102
RTVSPropertyOp51
 70
     0
102
RTVSPropertyOp52
 70
     0
102
RTVSPropertyOp53
 70
     1
102
RTVSPropertyOp54
 70
     1
102
RTVSPropertyOp55
 70
     1
102
RTVSPropertyOp56
 70
     1
102
RTVSPropertyOp57
 70
     1
102
RTVSPost2010Prop28
280
     0
102
RTVSPost2010PropOp28
 70
     1
102
RTVSPost2010Prop29
280
     1
102
RTVSPost2010PropOp29
 70
     1
102
RTVSPost2010Prop30
280
     1
102
RTVSPost2010PropOp30
 70
     1
102
RTVSPost2010Prop31
280
     0
102
RTVSPost2010PropOp31
 70
     1
102
RTVSPost2010Prop32
280
     0
102
RTVSPost2010PropOp32
 70
     1
102
RTVSPost2010Prop33
280
     0
102
RTVSPost2010PropOp33
 70
     1
102
RTVSPost2010Prop34
280
     0
102
RTVSPost2010PropOp34
 70
     1
102
RTVSPost2010Prop35
280
     0
102
RTVSPost2010PropOp35
 70
     1
102
RTVSPost2010Prop36
280
     0
102
RTVSPost2010PropOp36
 70
     1
102
RTVSPost2010Prop37
 90
       50
102
RTVSPost2010PropOp37
 70
     1
102
RTVSPost2010Prop38
140
0.0
102
RTVSPost2010PropOp38
 70
     1
102
RTVSPost2010Prop39
140
1.0
102
RTVSPost2010PropOp39
 70
     1
102
RTVSPost2010Prop40
 90
        0
102
RTVSPost2010PropOp40
 70
     1
102
RTVSPost2010Prop41ColorIndex
 90
       18
102
RTVSPost2010Prop41ColorRGB
 90
        0
102
RTVSPost2010PropOp41
 70
     1
102
RTVSPost2010Prop42
 90
       50
102
RTVSPost2010PropOp42
 70
     1
102
RTVSPost2010Prop43
 90
        3
102
RTVSPost2010PropOp43
 70
     1
102
RTVSPost2010Prop44ColorIndex
 90
        5
102
RTVSPost2010Prop44ColorRGB
 90
      255
102
RTVSPost2010PropOp44
 70
     1
102
RTVSPost2010Prop45
280
     0
102
RTVSPost2010PropOp45
 70
     1
102
RTVSPost2010Prop46
 90
       50
102
RTVSPost2010PropOp46
 70
     1
102
RTVSPost2010Prop47
 90
       50
102
RTVSPost2010PropOp47
 70
     1
102
RTVSPost2010Prop48
 90
       50
102
RTVSPost2010PropOp48
 70
     1
102
RTVSPost2010Prop49
280
     0
102
RTVSPost2010PropOp49
 70
     1
102
RTVSPost2010Prop50
 90
       50
102
RTVSPost2010PropOp50
 70
     1
102
RTVSPost2010Prop51ColorIndex
 90
      256
102
RTVSPost2010Prop51ColorRGB
 90
-16777216
102
RTVSPost2010PropOp51
 70
     0
102
RTVSPost2010Prop52
140
1.0
102
RTVSPost2010PropOp52
 70
     0
102
RTVSPost2010Prop53
 90
        2
102
RTVSPost2010PropOp53
 70
     1
102
RTVSPost2010Prop54
  1
strokes_ogs.tif
102
RTVSPost2010PropOp54
 70
     1
102
RTVSPost2010Prop55
280
     0
102
RTVSPost2010PropOp55
 70
     1
102
RTVSPost2010Prop56
140
1.0
102
RTVSPost2010PropOp56
 70
     1
102
RTVSPost2010Prop57
140
1.0
102
RTVSPost2010PropOp57
 70
     1
  0
XRECORD
  5
237
102
{ACAD_REACTORS
330
236
102
}
330
236
100
AcDbXrecord
280
     1
102
RTVSPropertyOp0
 70
     1
102
RTVSPropertyOp1
 70
     1
102
RTVSPropertyOp2
 70
     1
102
RTVSPropertyOp3
 70
     1
102
RTVSPropertyOp4
 70
     1
102
RTVSPropertyOp5
 70
     1
102
RTVSPropertyOp6
 70
     1
102
RTVSPropertyOp7
 70
     1
102
RTVSPropertyOp8
 70
     1
102
RTVSPropertyOp9
 70
     1
102
RTVSPropertyOp10
 70
     1
102
RTVSPropertyOp11
 70
     1
102
RTVSPropertyOp12
 70
     1
102
RTVSPropertyOp13
 70
     1
102
RTVSPropertyOp14
 70
     1
102
RTVSPropertyOp15
 70
     1
102
RTVSPropertyOp16
 70
     1
102
RTVSPropertyOp17
 70
     1
102
RTVSPropertyOp18
 70
     1
102
RTVSPropertyOp19
 70
     1
102
RTVSPropertyOp20
 70
     1
102
RTVSPropertyOp21
 70
     1
102
RTVSPropertyOp22
 70
     1
102
RTVSPropertyOp23
 70
     1
102
RTVSPropertyOp24
 70
     1
102
RTVSPropertyOp25
 70
     1
102
RTVSPropertyOp26
 70
     1
102
RTVSPropertyOp27
 70
     1
102
RTVSPropertyOp28
 70
     1
102
RTVSPropertyOp29
 70
     1
102
RTVSPropertyOp30
 70
     1
102
RTVSPropertyOp31
 70
     1
102
RTVSPropertyOp32
 70
     1
102
RTVSPropertyOp33
 70
     1
102
RTVSPropertyOp34
 70
     1
102
RTVSPropertyOp35
 70
     1
102
RTVSPropertyOp36
 70
     1
102
RTVSPropertyOp37
 70
     1
102
RTVSPropertyOp38
 70
     1
102
RTVSPropertyOp39
 70
     1
102
RTVSPropertyOp40
 70
     1
102
RTVSPropertyOp41
 70
     1
102
RTVSPropertyOp42
 70
     1
102
RTVSPropertyOp43
 70
     1
102
RTVSPropertyOp44
 70
     1
102
RTVSPropertyOp45
 70
     1
102
RTVSPropertyOp46
 70
     1
102
RTVSPropertyOp47
 70
     1
102
RTVSPropertyOp48
 70
     1
102
RTVSPropertyOp49
 70
     1
102
RTVSPropertyOp50
 70
     1
102
RTVSPropertyOp51
 70
     0
102
RTVSPropertyOp52
 70
     0
102
RTVSPropertyOp53
 70
     1
102
RTVSPropertyOp54
 70
     1
102
RTVSPropertyOp55
 70
     1
102
RTVSPropertyOp56
 70
     1
102
RTVSPropertyOp57
 70
     1
102
RTVSPost2010Prop28
280
     0
102
RTVSPost2010PropOp28
 70
     1
102
RTVSPost2010Prop29
280
     1
102
RTVSPost2010PropOp29
 70
     1
102
RTVSPost2010Prop30
280
     1
102
RTVSPost2010PropOp30
 70
     1
102
RTVSPost2010Prop31
280
     0
102
RTVSPost2010PropOp31
 70
     1
102
RTVSPost2010Prop32
280
     0
102
RTVSPost2010PropOp32
 70
     1
102
RTVSPost2010Prop33
280
     0
102
RTVSPost2010PropOp33
 70
     1
102
RTVSPost2010Prop34
280
     0
102
RTVSPost2010PropOp34
 70
     1
102
RTVSPost2010Prop35
280
     0
102
RTVSPost2010PropOp35
 70
     1
102
RTVSPost2010Prop36
280
     0
102
RTVSPost2010PropOp36
 70
     1
102
RTVSPost2010Prop37
 90
       50
102
RTVSPost2010PropOp37
 70
     1
102
RTVSPost2010Prop38
140
0.0
102
RTVSPost2010PropOp38
 70
     1
102
RTVSPost2010Prop39
140
1.0
102
RTVSPost2010PropOp39
 70
     1
102
RTVSPost2010Prop40
 90
        0
102
RTVSPost2010PropOp40
 70
     1
102
RTVSPost2010Prop41ColorIndex
 90
       18
102
RTVSPost2010Prop41ColorRGB
 90
        0
102
RTVSPost2010PropOp41
 70
     1
102
RTVSPost2010Prop42
 90
       50
102
RTVSPost2010PropOp42
 70
     1
102
RTVSPost2010Prop43
 90
        3
102
RTVSPost2010PropOp43
 70
     1
102
RTVSPost2010Prop44ColorIndex
 90
        5
102
RTVSPost2010Prop44ColorRGB
 90
      255
102
RTVSPost2010PropOp44
 70
     1
102
RTVSPost2010Prop45
280
     0
102
RTVSPost2010PropOp45
 70
     1
102
RTVSPost2010Prop46
 90
       50
102
RTVSPost2010PropOp46
 70
     1
102
RTVSPost2010Prop47
 90
       50
102
RTVSPost2010PropOp47
 70
     1
102
RTVSPost2010Prop48
 90
       50
102
RTVSPost2010PropOp48
 70
     1
102
RTVSPost2010Prop49
280
     0
102
RTVSPost2010PropOp49
 70
     1
102
RTVSPost2010Prop50
 90
       50
102
RTVSPost2010PropOp50
 70
     1
102
RTVSPost2010Prop51ColorIndex
 90
      256
102
RTVSPost2010Prop51ColorRGB
 90
-16777216
102
RTVSPost2010PropOp51
 70
     0
102
RTVSPost2010Prop52
140
1.0
102
RTVSPost2010PropOp52
 70
     0
102
RTVSPost2010Prop53
 90
        2
102
RTVSPost2010PropOp53
 70
     1
102
RTVSPost2010Prop54
  1
strokes_ogs.tif
102
RTVSPost2010PropOp54
 70
     1
102
RTVSPost2010Prop55
280
     0
102
RTVSPost2010PropOp55
 70
     1
102
RTVSPost2010Prop56
140
1.0
102
RTVSPost2010PropOp56
 70
     1
102
RTVSPost2010Prop57
140
1.0
102
RTVSPost2010PropOp57
 70
     1
  0
XRECORD
  5
23F
102
{ACAD_REACTORS
330
23E
102
}
330
23E
100
AcDbXrecord
280
     1
102
RTVSPropertyOp0
 70
     1
102
RTVSPropertyOp1
 70
     1
102
RTVSPropertyOp2
 70
     1
102
RTVSPropertyOp3
 70
     1
102
RTVSPropertyOp4
 70
     1
102
RTVSPropertyOp5
 70
     1
102
RTVSPropertyOp6
 70
     1
102
RTVSPropertyOp7
 70
     1
102
RTVSPropertyOp8
 70
     1
102
RTVSPropertyOp9
 70
     1
102
RTVSPropertyOp10
 70
     1
102
RTVSPropertyOp11
 70
     1
102
RTVSPropertyOp12
 70
     1
102
RTVSPropertyOp13
 70
     1
102
RTVSPropertyOp14
 70
     1
102
RTVSPropertyOp15
 70
     1
102
RTVSPropertyOp16
 70
     1
102
RTVSPropertyOp17
 70
     1
102
RTVSPropertyOp18
 70
     1
102
RTVSPropertyOp19
 70
     1
102
RTVSPropertyOp20
 70
     1
102
RTVSPropertyOp21
 70
     1
102
RTVSPropertyOp22
 70
     1
102
RTVSPropertyOp23
 70
     1
102
RTVSPropertyOp24
 70
     1
102
RTVSPropertyOp25
 70
     1
102
RTVSPropertyOp26
 70
     1
102
RTVSPropertyOp27
 70
     1
102
RTVSPropertyOp28
 70
     1
102
RTVSPropertyOp29
 70
     1
102
RTVSPropertyOp30
 70
     1
102
RTVSPropertyOp31
 70
     1
102
RTVSPropertyOp32
 70
     1
102
RTVSPropertyOp33
 70
     1
102
RTVSPropertyOp34
 70
     1
102
RTVSPropertyOp35
 70
     1
102
RTVSPropertyOp36
 70
     1
102
RTVSPropertyOp37
 70
     1
102
RTVSPropertyOp38
 70
     1
102
RTVSPropertyOp39
 70
     1
102
RTVSPropertyOp40
 70
     1
102
RTVSPropertyOp41
 70
     1
102
RTVSPropertyOp42
 70
     1
102
RTVSPropertyOp43
 70
     1
102
RTVSPropertyOp44
 70
     1
102
RTVSPropertyOp45
 70
     1
102
RTVSPropertyOp46
 70
     1
102
RTVSPropertyOp47
 70
     1
102
RTVSPropertyOp48
 70
     1
102
RTVSPropertyOp49
 70
     1
102
RTVSPropertyOp50
 70
     1
102
RTVSPropertyOp51
 70
     0
102
RTVSPropertyOp52
 70
     0
102
RTVSPropertyOp53
 70
     1
102
RTVSPropertyOp54
 70
     1
102
RTVSPropertyOp55
 70
     1
102
RTVSPropertyOp56
 70
     1
102
RTVSPropertyOp57
 70
     1
102
RTVSPost2010Prop28
280
     0
102
RTVSPost2010PropOp28
 70
     1
102
RTVSPost2010Prop29
280
     1
102
RTVSPost2010PropOp29
 70
     1
102
RTVSPost2010Prop30
280
     1
102
RTVSPost2010PropOp30
 70
     1
102
RTVSPost2010Prop31
280
     0
102
RTVSPost2010PropOp31
 70
     1
102
RTVSPost2010Prop32
280
     0
102
RTVSPost2010PropOp32
 70
     1
102
RTVSPost2010Prop33
280
     0
102
RTVSPost2010PropOp33
 70
     1
102
RTVSPost2010Prop34
280
     0
102
RTVSPost2010PropOp34
 70
     1
102
RTVSPost2010Prop35
280
     0
102
RTVSPost2010PropOp35
 70
     1
102
RTVSPost2010Prop36
280
     0
102
RTVSPost2010PropOp36
 70
     1
102
RTVSPost2010Prop37
 90
       50
102
RTVSPost2010PropOp37
 70
     1
102
RTVSPost2010Prop38
140
0.0
102
RTVSPost2010PropOp38
 70
     1
102
RTVSPost2010Prop39
140
1.0
102
RTVSPost2010PropOp39
 70
     1
102
RTVSPost2010Prop40
 90
        0
102
RTVSPost2010PropOp40
 70
     1
102
RTVSPost2010Prop41ColorIndex
 90
       18
102
RTVSPost2010Prop41ColorRGB
 90
        0
102
RTVSPost2010PropOp41
 70
     1
102
RTVSPost2010Prop42
 90
       50
102
RTVSPost2010PropOp42
 70
     1
102
RTVSPost2010Prop43
 90
        3
102
RTVSPost2010PropOp43
 70
     1
102
RTVSPost2010Prop44ColorIndex
 90
        5
102
RTVSPost2010Prop44ColorRGB
 90
      255
102
RTVSPost2010PropOp44
 70
     1
102
RTVSPost2010Prop45
280
     0
102
RTVSPost2010PropOp45
 70
     1
102
RTVSPost2010Prop46
 90
       50
102
RTVSPost2010PropOp46
 70
     1
102
RTVSPost2010Prop47
 90
       50
102
RTVSPost2010PropOp47
 70
     1
102
RTVSPost2010Prop48
 90
       50
102
RTVSPost2010PropOp48
 70
     1
102
RTVSPost2010Prop49
280
     0
102
RTVSPost2010PropOp49
 70
     1
102
RTVSPost2010Prop50
 90
       50
102
RTVSPost2010PropOp50
 70
     1
102
RTVSPost2010Prop51ColorIndex
 90
      256
102
RTVSPost2010Prop51ColorRGB
 90
-16777216
102
RTVSPost2010PropOp51
 70
     0
102
RTVSPost2010Prop52
140
1.0
102
RTVSPost2010PropOp52
 70
     0
102
RTVSPost2010Prop53
 90
        2
102
RTVSPost2010PropOp53
 70
     1
102
RTVSPost2010Prop54
  1
strokes_ogs.tif
102
RTVSPost2010PropOp54
 70
     1
102
RTVSPost2010Prop55
280
     0
102
RTVSPost2010PropOp55
 70
     1
102
RTVSPost2010Prop56
140
1.0
102
RTVSPost2010PropOp56
 70
     1
102
RTVSPost2010Prop57
140
1.0
102
RTVSPost2010PropOp57
 70
     1
  0
XRECORD
  5
223
102
{ACAD_REACTORS
330
222
102
}
330
222
100
AcDbXrecord
280
     1
102
RTVSPropertyOp0
 70
     1
102
RTVSPropertyOp1
 70
     1
102
RTVSPropertyOp2
 70
     1
102
RTVSPropertyOp3
 70
     1
102
RTVSPropertyOp4
 70
     1
102
RTVSPropertyOp5
 70
     1
102
RTVSPropertyOp6
 70
     1
102
RTVSPropertyOp7
 70
     1
102
RTVSPropertyOp8
 70
     1
102
RTVSPropertyOp9
 70
     1
102
RTVSPropertyOp10
 70
     1
102
RTVSPropertyOp11
 70
     1
102
RTVSPropertyOp12
 70
     1
102
RTVSPropertyOp13
 70
     1
102
RTVSPropertyOp14
 70
     1
102
RTVSPropertyOp15
 70
     1
102
RTVSPropertyOp16
 70
     1
102
RTVSPropertyOp17
 70
     1
102
RTVSPropertyOp18
 70
     1
102
RTVSPropertyOp19
 70
     1
102
RTVSPropertyOp20
 70
     1
102
RTVSPropertyOp21
 70
     1
102
RTVSPropertyOp22
 70
     1
102
RTVSPropertyOp23
 70
     1
102
RTVSPropertyOp24
 70
     1
102
RTVSPropertyOp25
 70
     1
102
RTVSPropertyOp26
 70
     1
102
RTVSPropertyOp27
 70
     1
102
RTVSPropertyOp28
 70
     1
102
RTVSPropertyOp29
 70
     1
102
RTVSPropertyOp30
 70
     1
102
RTVSPropertyOp31
 70
     1
102
RTVSPropertyOp32
 70
     1
102
RTVSPropertyOp33
 70
     1
102
RTVSPropertyOp34
 70
     1
102
RTVSPropertyOp35
 70
     1
102
RTVSPropertyOp36
 70
     1
102
RTVSPropertyOp37
 70
     1
102
RTVSPropertyOp38
 70
     1
102
RTVSPropertyOp39
 70
     1
102
RTVSPropertyOp40
 70
     1
102
RTVSPropertyOp41
 70
     1
102
RTVSPropertyOp42
 70
     1
102
RTVSPropertyOp43
 70
     1
102
RTVSPropertyOp44
 70
     1
102
RTVSPropertyOp45
 70
     1
102
RTVSPropertyOp46
 70
     1
102
RTVSPropertyOp47
 70
     1
102
RTVSPropertyOp48
 70
     1
102
RTVSPropertyOp49
 70
     1
102
RTVSPropertyOp50
 70
     1
102
RTVSPropertyOp51
 70
     0
102
RTVSPropertyOp52
 70
     0
102
RTVSPropertyOp53
 70
     1
102
RTVSPropertyOp54
 70
     1
102
RTVSPropertyOp55
 70
     1
102
RTVSPropertyOp56
 70
     1
102
RTVSPropertyOp57
 70
     1
102
RTVSPost2010Prop28
280
     0
102
RTVSPost2010PropOp28
 70
     1
102
RTVSPost2010Prop29
280
     1
102
RTVSPost2010PropOp29
 70
     1
102
RTVSPost2010Prop30
280
     1
102
RTVSPost2010PropOp30
 70
     1
102
RTVSPost2010Prop31
280
     0
102
RTVSPost2010PropOp31
 70
     1
102
RTVSPost2010Prop32
280
     0
102
RTVSPost2010PropOp32
 70
     1
102
RTVSPost2010Prop33
280
     0
102
RTVSPost2010PropOp33
 70
     1
102
RTVSPost2010Prop34
280
     0
102
RTVSPost2010PropOp34
 70
     1
102
RTVSPost2010Prop35
280
     0
102
RTVSPost2010PropOp35
 70
     1
102
RTVSPost2010Prop36
280
     0
102
RTVSPost2010PropOp36
 70
     1
102
RTVSPost2010Prop37
 90
       50
102
RTVSPost2010PropOp37
 70
     1
102
RTVSPost2010Prop38
140
0.0
102
RTVSPost2010PropOp38
 70
     1
102
RTVSPost2010Prop39
140
1.0
102
RTVSPost2010PropOp39
 70
     1
102
RTVSPost2010Prop40
 90
        0
102
RTVSPost2010PropOp40
 70
     1
102
RTVSPost2010Prop41ColorIndex
 90
       18
102
RTVSPost2010Prop41ColorRGB
 90
        0
102
RTVSPost2010PropOp41
 70
     1
102
RTVSPost2010Prop42
 90
       50
102
RTVSPost2010PropOp42
 70
     1
102
RTVSPost2010Prop43
 90
        3
102
RTVSPost2010PropOp43
 70
     1
102
RTVSPost2010Prop44ColorIndex
 90
        5
102
RTVSPost2010Prop44ColorRGB
 90
      255
102
RTVSPost2010PropOp44
 70
     1
102
RTVSPost2010Prop45
280
     0
102
RTVSPost2010PropOp45
 70
     1
102
RTVSPost2010Prop46
 90
       50
102
RTVSPost2010PropOp46
 70
     1
102
RTVSPost2010Prop47
 90
       50
102
RTVSPost2010PropOp47
 70
     1
102
RTVSPost2010Prop48
 90
       50
102
RTVSPost2010PropOp48
 70
     1
102
RTVSPost2010Prop49
280
     0
102
RTVSPost2010PropOp49
 70
     1
102
RTVSPost2010Prop50
 90
       50
102
RTVSPost2010PropOp50
 70
     1
102
RTVSPost2010Prop51ColorIndex
 90
      256
102
RTVSPost2010Prop51ColorRGB
 90
-16777216
102
RTVSPost2010PropOp51
 70
     0
102
RTVSPost2010Prop52
140
1.0
102
RTVSPost2010PropOp52
 70
     0
102
RTVSPost2010Prop53
 90
        2
102
RTVSPost2010PropOp53
 70
     1
102
RTVSPost2010Prop54
  1
strokes_ogs.tif
102
RTVSPost2010PropOp54
 70
     1
102
RTVSPost2010Prop55
280
     0
102
RTVSPost2010PropOp55
 70
     1
102
RTVSPost2010Prop56
140
1.0
102
RTVSPost2010PropOp56
 70
     1
102
RTVSPost2010Prop57
140
1.0
102
RTVSPost2010PropOp57
 70
     1
  0
XRECORD
  5
225
102
{ACAD_REACTORS
330
224
102
}
330
224
100
AcDbXrecord
280
     1
102
RTVSPropertyOp0
 70
     1
102
RTVSPropertyOp1
 70
     1
102
RTVSPropertyOp2
 70
     1
102
RTVSPropertyOp3
 70
     1
102
RTVSPropertyOp4
 70
     1
102
RTVSPropertyOp5
 70
     1
102
RTVSPropertyOp6
 70
     1
102
RTVSPropertyOp7
 70
     1
102
RTVSPropertyOp8
 70
     1
102
RTVSPropertyOp9
 70
     1
102
RTVSPropertyOp10
 70
     1
102
RTVSPropertyOp11
 70
     1
102
RTVSPropertyOp12
 70
     1
102
RTVSPropertyOp13
 70
     1
102
RTVSPropertyOp14
 70
     1
102
RTVSPropertyOp15
 70
     1
102
RTVSPropertyOp16
 70
     1
102
RTVSPropertyOp17
 70
     1
102
RTVSPropertyOp18
 70
     1
102
RTVSPropertyOp19
 70
     1
102
RTVSPropertyOp20
 70
     1
102
RTVSPropertyOp21
 70
     1
102
RTVSPropertyOp22
 70
     1
102
RTVSPropertyOp23
 70
     1
102
RTVSPropertyOp24
 70
     1
102
RTVSPropertyOp25
 70
     1
102
RTVSPropertyOp26
 70
     1
102
RTVSPropertyOp27
 70
     1
102
RTVSPropertyOp28
 70
     1
102
RTVSPropertyOp29
 70
     1
102
RTVSPropertyOp30
 70
     1
102
RTVSPropertyOp31
 70
     1
102
RTVSPropertyOp32
 70
     1
102
RTVSPropertyOp33
 70
     1
102
RTVSPropertyOp34
 70
     1
102
RTVSPropertyOp35
 70
     1
102
RTVSPropertyOp36
 70
     1
102
RTVSPropertyOp37
 70
     1
102
RTVSPropertyOp38
 70
     1
102
RTVSPropertyOp39
 70
     1
102
RTVSPropertyOp40
 70
     1
102
RTVSPropertyOp41
 70
     1
102
RTVSPropertyOp42
 70
     1
102
RTVSPropertyOp43
 70
     1
102
RTVSPropertyOp44
 70
     1
102
RTVSPropertyOp45
 70
     1
102
RTVSPropertyOp46
 70
     1
102
RTVSPropertyOp47
 70
     1
102
RTVSPropertyOp48
 70
     1
102
RTVSPropertyOp49
 70
     1
102
RTVSPropertyOp50
 70
     1
102
RTVSPropertyOp51
 70
     0
102
RTVSPropertyOp52
 70
     0
102
RTVSPropertyOp53
 70
     1
102
RTVSPropertyOp54
 70
     1
102
RTVSPropertyOp55
 70
     1
102
RTVSPropertyOp56
 70
     1
102
RTVSPropertyOp57
 70
     1
102
RTVSPost2010Prop28
280
     0
102
RTVSPost2010PropOp28
 70
     1
102
RTVSPost2010Prop29
280
     1
102
RTVSPost2010PropOp29
 70
     1
102
RTVSPost2010Prop30
280
     1
102
RTVSPost2010PropOp30
 70
     1
102
RTVSPost2010Prop31
280
     0
102
RTVSPost2010PropOp31
 70
     1
102
RTVSPost2010Prop32
280
     0
102
RTVSPost2010PropOp32
 70
     1
102
RTVSPost2010Prop33
280
     0
102
RTVSPost2010PropOp33
 70
     1
102
RTVSPost2010Prop34
280
     0
102
RTVSPost2010PropOp34
 70
     1
102
RTVSPost2010Prop35
280
     0
102
RTVSPost2010PropOp35
 70
     1
102
RTVSPost2010Prop36
280
     0
102
RTVSPost2010PropOp36
 70
     1
102
RTVSPost2010Prop37
 90
       50
102
RTVSPost2010PropOp37
 70
     1
102
RTVSPost2010Prop38
140
0.0
102
RTVSPost2010PropOp38
 70
     1
102
RTVSPost2010Prop39
140
1.0
102
RTVSPost2010PropOp39
 70
     1
102
RTVSPost2010Prop40
 90
        0
102
RTVSPost2010PropOp40
 70
     1
102
RTVSPost2010Prop41ColorIndex
 90
       18
102
RTVSPost2010Prop41ColorRGB
 90
        0
102
RTVSPost2010PropOp41
 70
     1
102
RTVSPost2010Prop42
 90
       50
102
RTVSPost2010PropOp42
 70
     1
102
RTVSPost2010Prop43
 90
        3
102
RTVSPost2010PropOp43
 70
     1
102
RTVSPost2010Prop44ColorIndex
 90
        5
102
RTVSPost2010Prop44ColorRGB
 90
      255
102
RTVSPost2010PropOp44
 70
     1
102
RTVSPost2010Prop45
280
     0
102
RTVSPost2010PropOp45
 70
     1
102
RTVSPost2010Prop46
 90
       50
102
RTVSPost2010PropOp46
 70
     1
102
RTVSPost2010Prop47
 90
       50
102
RTVSPost2010PropOp47
 70
     1
102
RTVSPost2010Prop48
 90
       50
102
RTVSPost2010PropOp48
 70
     1
102
RTVSPost2010Prop49
280
     0
102
RTVSPost2010PropOp49
 70
     1
102
RTVSPost2010Prop50
 90
       50
102
RTVSPost2010PropOp50
 70
     1
102
RTVSPost2010Prop51ColorIndex
 90
      256
102
RTVSPost2010Prop51ColorRGB
 90
-16777216
102
RTVSPost2010PropOp51
 70
     0
102
RTVSPost2010Prop52
140
1.0
102
RTVSPost2010PropOp52
 70
     0
102
RTVSPost2010Prop53
 90
        2
102
RTVSPost2010PropOp53
 70
     1
102
RTVSPost2010Prop54
  1
strokes_ogs.tif
102
RTVSPost2010PropOp54
 70
     1
102
RTVSPost2010Prop55
280
     0
102
RTVSPost2010PropOp55
 70
     1
102
RTVSPost2010Prop56
140
1.0
102
RTVSPost2010PropOp56
 70
     1
102
RTVSPost2010Prop57
140
1.0
102
RTVSPost2010PropOp57
 70
     1
  0
XRECORD
  5
227
102
{ACAD_REACTORS
330
226
102
}
330
226
100
AcDbXrecord
280
     1
102
RTVSPropertyOp0
 70
     1
102
RTVSPropertyOp1
 70
     1
102
RTVSPropertyOp2
 70
     1
102
RTVSPropertyOp3
 70
     1
102
RTVSPropertyOp4
 70
     1
102
RTVSPropertyOp5
 70
     1
102
RTVSPropertyOp6
 70
     1
102
RTVSPropertyOp7
 70
     1
102
RTVSPropertyOp8
 70
     1
102
RTVSPropertyOp9
 70
     1
102
RTVSPropertyOp10
 70
     1
102
RTVSPropertyOp11
 70
     1
102
RTVSPropertyOp12
 70
     1
102
RTVSPropertyOp13
 70
     1
102
RTVSPropertyOp14
 70
     1
102
RTVSPropertyOp15
 70
     1
102
RTVSPropertyOp16
 70
     1
102
RTVSPropertyOp17
 70
     1
102
RTVSPropertyOp18
 70
     1
102
RTVSPropertyOp19
 70
     1
102
RTVSPropertyOp20
 70
     1
102
RTVSPropertyOp21
 70
     1
102
RTVSPropertyOp22
 70
     1
102
RTVSPropertyOp23
 70
     1
102
RTVSPropertyOp24
 70
     1
102
RTVSPropertyOp25
 70
     1
102
RTVSPropertyOp26
 70
     1
102
RTVSPropertyOp27
 70
     1
102
RTVSPropertyOp28
 70
     1
102
RTVSPropertyOp29
 70
     1
102
RTVSPropertyOp30
 70
     1
102
RTVSPropertyOp31
 70
     1
102
RTVSPropertyOp32
 70
     1
102
RTVSPropertyOp33
 70
     1
102
RTVSPropertyOp34
 70
     1
102
RTVSPropertyOp35
 70
     1
102
RTVSPropertyOp36
 70
     1
102
RTVSPropertyOp37
 70
     1
102
RTVSPropertyOp38
 70
     1
102
RTVSPropertyOp39
 70
     1
102
RTVSPropertyOp40
 70
     1
102
RTVSPropertyOp41
 70
     1
102
RTVSPropertyOp42
 70
     1
102
RTVSPropertyOp43
 70
     1
102
RTVSPropertyOp44
 70
     1
102
RTVSPropertyOp45
 70
     1
102
RTVSPropertyOp46
 70
     1
102
RTVSPropertyOp47
 70
     1
102
RTVSPropertyOp48
 70
     1
102
RTVSPropertyOp49
 70
     1
102
RTVSPropertyOp50
 70
     1
102
RTVSPropertyOp51
 70
     0
102
RTVSPropertyOp52
 70
     0
102
RTVSPropertyOp53
 70
     1
102
RTVSPropertyOp54
 70
     1
102
RTVSPropertyOp55
 70
     1
102
RTVSPropertyOp56
 70
     1
102
RTVSPropertyOp57
 70
     1
102
RTVSPost2010Prop28
280
     0
102
RTVSPost2010PropOp28
 70
     1
102
RTVSPost2010Prop29
280
     1
102
RTVSPost2010PropOp29
 70
     1
102
RTVSPost2010Prop30
280
     1
102
RTVSPost2010PropOp30
 70
     1
102
RTVSPost2010Prop31
280
     0
102
RTVSPost2010PropOp31
 70
     1
102
RTVSPost2010Prop32
280
     0
102
RTVSPost2010PropOp32
 70
     1
102
RTVSPost2010Prop33
280
     0
102
RTVSPost2010PropOp33
 70
     1
102
RTVSPost2010Prop34
280
     0
102
RTVSPost2010PropOp34
 70
     1
102
RTVSPost2010Prop35
280
     0
102
RTVSPost2010PropOp35
 70
     1
102
RTVSPost2010Prop36
280
     0
102
RTVSPost2010PropOp36
 70
     1
102
RTVSPost2010Prop37
 90
       50
102
RTVSPost2010PropOp37
 70
     1
102
RTVSPost2010Prop38
140
0.0
102
RTVSPost2010PropOp38
 70
     1
102
RTVSPost2010Prop39
140
1.0
102
RTVSPost2010PropOp39
 70
     1
102
RTVSPost2010Prop40
 90
        0
102
RTVSPost2010PropOp40
 70
     1
102
RTVSPost2010Prop41ColorIndex
 90
       18
102
RTVSPost2010Prop41ColorRGB
 90
        0
102
RTVSPost2010PropOp41
 70
     1
102
RTVSPost2010Prop42
 90
       50
102
RTVSPost2010PropOp42
 70
     1
102
RTVSPost2010Prop43
 90
        3
102
RTVSPost2010PropOp43
 70
     1
102
RTVSPost2010Prop44ColorIndex
 90
        5
102
RTVSPost2010Prop44ColorRGB
 90
      255
102
RTVSPost2010PropOp44
 70
     1
102
RTVSPost2010Prop45
280
     0
102
RTVSPost2010PropOp45
 70
     1
102
RTVSPost2010Prop46
 90
       50
102
RTVSPost2010PropOp46
 70
     1
102
RTVSPost2010Prop47
 90
       50
102
RTVSPost2010PropOp47
 70
     1
102
RTVSPost2010Prop48
 90
       50
102
RTVSPost2010PropOp48
 70
     1
102
RTVSPost2010Prop49
280
     0
102
RTVSPost2010PropOp49
 70
     1
102
RTVSPost2010Prop50
 90
       50
102
RTVSPost2010PropOp50
 70
     1
102
RTVSPost2010Prop51ColorIndex
 90
      256
102
RTVSPost2010Prop51ColorRGB
 90
-16777216
102
RTVSPost2010PropOp51
 70
     0
102
RTVSPost2010Prop52
140
1.0
102
RTVSPost2010PropOp52
 70
     0
102
RTVSPost2010Prop53
 90
        2
102
RTVSPost2010PropOp53
 70
     1
102
RTVSPost2010Prop54
  1
strokes_ogs.tif
102
RTVSPost2010PropOp54
 70
     1
102
RTVSPost2010Prop55
280
     0
102
RTVSPost2010PropOp55
 70
     1
102
RTVSPost2010Prop56
140
1.0
102
RTVSPost2010PropOp56
 70
     1
102
RTVSPost2010Prop57
140
1.0
102
RTVSPost2010PropOp57
 70
     1
  0
XRECORD
  5
229
102
{ACAD_REACTORS
330
228
102
}
330
228
100
AcDbXrecord
280
     1
102
RTVSPropertyOp0
 70
     1
102
RTVSPropertyOp1
 70
     1
102
RTVSPropertyOp2
 70
     1
102
RTVSPropertyOp3
 70
     1
102
RTVSPropertyOp4
 70
     1
102
RTVSPropertyOp5
 70
     1
102
RTVSPropertyOp6
 70
     1
102
RTVSPropertyOp7
 70
     1
102
RTVSPropertyOp8
 70
     1
102
RTVSPropertyOp9
 70
     1
102
RTVSPropertyOp10
 70
     1
102
RTVSPropertyOp11
 70
     1
102
RTVSPropertyOp12
 70
     1
102
RTVSPropertyOp13
 70
     1
102
RTVSPropertyOp14
 70
     1
102
RTVSPropertyOp15
 70
     1
102
RTVSPropertyOp16
 70
     1
102
RTVSPropertyOp17
 70
     1
102
RTVSPropertyOp18
 70
     1
102
RTVSPropertyOp19
 70
     1
102
RTVSPropertyOp20
 70
     1
102
RTVSPropertyOp21
 70
     1
102
RTVSPropertyOp22
 70
     1
102
RTVSPropertyOp23
 70
     1
102
RTVSPropertyOp24
 70
     1
102
RTVSPropertyOp25
 70
     1
102
RTVSPropertyOp26
 70
     1
102
RTVSPropertyOp27
 70
     1
102
RTVSPropertyOp28
 70
     1
102
RTVSPropertyOp29
 70
     1
102
RTVSPropertyOp30
 70
     1
102
RTVSPropertyOp31
 70
     1
102
RTVSPropertyOp32
 70
     1
102
RTVSPropertyOp33
 70
     1
102
RTVSPropertyOp34
 70
     1
102
RTVSPropertyOp35
 70
     1
102
RTVSPropertyOp36
 70
     1
102
RTVSPropertyOp37
 70
     1
102
RTVSPropertyOp38
 70
     1
102
RTVSPropertyOp39
 70
     1
102
RTVSPropertyOp40
 70
     1
102
RTVSPropertyOp41
 70
     1
102
RTVSPropertyOp42
 70
     1
102
RTVSPropertyOp43
 70
     1
102
RTVSPropertyOp44
 70
     1
102
RTVSPropertyOp45
 70
     1
102
RTVSPropertyOp46
 70
     1
102
RTVSPropertyOp47
 70
     1
102
RTVSPropertyOp48
 70
     1
102
RTVSPropertyOp49
 70
     1
102
RTVSPropertyOp50
 70
     1
102
RTVSPropertyOp51
 70
     0
102
RTVSPropertyOp52
 70
     0
102
RTVSPropertyOp53
 70
     1
102
RTVSPropertyOp54
 70
     1
102
RTVSPropertyOp55
 70
     1
102
RTVSPropertyOp56
 70
     1
102
RTVSPropertyOp57
 70
     1
102
RTVSPost2010Prop28
280
     0
102
RTVSPost2010PropOp28
 70
     1
102
RTVSPost2010Prop29
280
     1
102
RTVSPost2010PropOp29
 70
     1
102
RTVSPost2010Prop30
280
     1
102
RTVSPost2010PropOp30
 70
     1
102
RTVSPost2010Prop31
280
     0
102
RTVSPost2010PropOp31
 70
     1
102
RTVSPost2010Prop32
280
     0
102
RTVSPost2010PropOp32
 70
     1
102
RTVSPost2010Prop33
280
     0
102
RTVSPost2010PropOp33
 70
     1
102
RTVSPost2010Prop34
280
     0
102
RTVSPost2010PropOp34
 70
     1
102
RTVSPost2010Prop35
280
     0
102
RTVSPost2010PropOp35
 70
     1
102
RTVSPost2010Prop36
280
     0
102
RTVSPost2010PropOp36
 70
     1
102
RTVSPost2010Prop37
 90
       50
102
RTVSPost2010PropOp37
 70
     1
102
RTVSPost2010Prop38
140
0.0
102
RTVSPost2010PropOp38
 70
     1
102
RTVSPost2010Prop39
140
1.0
102
RTVSPost2010PropOp39
 70
     1
102
RTVSPost2010Prop40
 90
        0
102
RTVSPost2010PropOp40
 70
     1
102
RTVSPost2010Prop41ColorIndex
 90
       18
102
RTVSPost2010Prop41ColorRGB
 90
        0
102
RTVSPost2010PropOp41
 70
     1
102
RTVSPost2010Prop42
 90
       50
102
RTVSPost2010PropOp42
 70
     1
102
RTVSPost2010Prop43
 90
        3
102
RTVSPost2010PropOp43
 70
     1
102
RTVSPost2010Prop44ColorIndex
 90
        5
102
RTVSPost2010Prop44ColorRGB
 90
      255
102
RTVSPost2010PropOp44
 70
     1
102
RTVSPost2010Prop45
280
     0
102
RTVSPost2010PropOp45
 70
     1
102
RTVSPost2010Prop46
 90
       50
102
RTVSPost2010PropOp46
 70
     1
102
RTVSPost2010Prop47
 90
       50
102
RTVSPost2010PropOp47
 70
     1
102
RTVSPost2010Prop48
 90
       50
102
RTVSPost2010PropOp48
 70
     1
102
RTVSPost2010Prop49
280
     0
102
RTVSPost2010PropOp49
 70
     1
102
RTVSPost2010Prop50
 90
       50
102
RTVSPost2010PropOp50
 70
     1
102
RTVSPost2010Prop51ColorIndex
 90
      256
102
RTVSPost2010Prop51ColorRGB
 90
-16777216
102
RTVSPost2010PropOp51
 70
     0
102
RTVSPost2010Prop52
140
1.0
102
RTVSPost2010PropOp52
 70
     0
102
RTVSPost2010Prop53
 90
        2
102
RTVSPost2010PropOp53
 70
     1
102
RTVSPost2010Prop54
  1
strokes_ogs.tif
102
RTVSPost2010PropOp54
 70
     1
102
RTVSPost2010Prop55
280
     0
102
RTVSPost2010PropOp55
 70
     1
102
RTVSPost2010Prop56
140
1.0
102
RTVSPost2010PropOp56
 70
     1
102
RTVSPost2010Prop57
140
1.0
102
RTVSPost2010PropOp57
 70
     1
  0
XRECORD
  5
23D
102
{ACAD_REACTORS
330
23C
102
}
330
23C
100
AcDbXrecord
280
     1
102
RTVSPropertyOp0
 70
     1
102
RTVSPropertyOp1
 70
     1
102
RTVSPropertyOp2
 70
     1
102
RTVSPropertyOp3
 70
     1
102
RTVSPropertyOp4
 70
     1
102
RTVSPropertyOp5
 70
     1
102
RTVSPropertyOp6
 70
     1
102
RTVSPropertyOp7
 70
     1
102
RTVSPropertyOp8
 70
     1
102
RTVSPropertyOp9
 70
     1
102
RTVSPropertyOp10
 70
     1
102
RTVSPropertyOp11
 70
     1
102
RTVSPropertyOp12
 70
     1
102
RTVSPropertyOp13
 70
     1
102
RTVSPropertyOp14
 70
     1
102
RTVSPropertyOp15
 70
     1
102
RTVSPropertyOp16
 70
     1
102
RTVSPropertyOp17
 70
     1
102
RTVSPropertyOp18
 70
     1
102
RTVSPropertyOp19
 70
     1
102
RTVSPropertyOp20
 70
     1
102
RTVSPropertyOp21
 70
     1
102
RTVSPropertyOp22
 70
     1
102
RTVSPropertyOp23
 70
     1
102
RTVSPropertyOp24
 70
     1
102
RTVSPropertyOp25
 70
     1
102
RTVSPropertyOp26
 70
     1
102
RTVSPropertyOp27
 70
     1
102
RTVSPropertyOp28
 70
     1
102
RTVSPropertyOp29
 70
     1
102
RTVSPropertyOp30
 70
     1
102
RTVSPropertyOp31
 70
     1
102
RTVSPropertyOp32
 70
     1
102
RTVSPropertyOp33
 70
     1
102
RTVSPropertyOp34
 70
     1
102
RTVSPropertyOp35
 70
     1
102
RTVSPropertyOp36
 70
     1
102
RTVSPropertyOp37
 70
     1
102
RTVSPropertyOp38
 70
     1
102
RTVSPropertyOp39
 70
     1
102
RTVSPropertyOp40
 70
     1
102
RTVSPropertyOp41
 70
     1
102
RTVSPropertyOp42
 70
     1
102
RTVSPropertyOp43
 70
     1
102
RTVSPropertyOp44
 70
     1
102
RTVSPropertyOp45
 70
     1
102
RTVSPropertyOp46
 70
     1
102
RTVSPropertyOp47
 70
     1
102
RTVSPropertyOp48
 70
     1
102
RTVSPropertyOp49
 70
     1
102
RTVSPropertyOp50
 70
     1
102
RTVSPropertyOp51
 70
     0
102
RTVSPropertyOp52
 70
     0
102
RTVSPropertyOp53
 70
     1
102
RTVSPropertyOp54
 70
     1
102
RTVSPropertyOp55
 70
     1
102
RTVSPropertyOp56
 70
     1
102
RTVSPropertyOp57
 70
     1
102
RTVSPost2010Prop28
280
     0
102
RTVSPost2010PropOp28
 70
     1
102
RTVSPost2010Prop29
280
     1
102
RTVSPost2010PropOp29
 70
     1
102
RTVSPost2010Prop30
280
     1
102
RTVSPost2010PropOp30
 70
     1
102
RTVSPost2010Prop31
280
     0
102
RTVSPost2010PropOp31
 70
     1
102
RTVSPost2010Prop32
280
     0
102
RTVSPost2010PropOp32
 70
     1
102
RTVSPost2010Prop33
280
     0
102
RTVSPost2010PropOp33
 70
     1
102
RTVSPost2010Prop34
280
     0
102
RTVSPost2010PropOp34
 70
     1
102
RTVSPost2010Prop35
280
     0
102
RTVSPost2010PropOp35
 70
     1
102
RTVSPost2010Prop36
280
     0
102
RTVSPost2010PropOp36
 70
     1
102
RTVSPost2010Prop37
 90
       50
102
RTVSPost2010PropOp37
 70
     1
102
RTVSPost2010Prop38
140
0.0
102
RTVSPost2010PropOp38
 70
     1
102
RTVSPost2010Prop39
140
1.0
102
RTVSPost2010PropOp39
 70
     1
102
RTVSPost2010Prop40
 90
        0
102
RTVSPost2010PropOp40
 70
     1
102
RTVSPost2010Prop41ColorIndex
 90
       18
102
RTVSPost2010Prop41ColorRGB
 90
        0
102
RTVSPost2010PropOp41
 70
     1
102
RTVSPost2010Prop42
 90
       50
102
RTVSPost2010PropOp42
 70
     1
102
RTVSPost2010Prop43
 90
        3
102
RTVSPost2010PropOp43
 70
     1
102
RTVSPost2010Prop44ColorIndex
 90
        5
102
RTVSPost2010Prop44ColorRGB
 90
      255
102
RTVSPost2010PropOp44
 70
     1
102
RTVSPost2010Prop45
280
     0
102
RTVSPost2010PropOp45
 70
     1
102
RTVSPost2010Prop46
 90
       50
102
RTVSPost2010PropOp46
 70
     1
102
RTVSPost2010Prop47
 90
       50
102
RTVSPost2010PropOp47
 70
     1
102
RTVSPost2010Prop48
 90
       50
102
RTVSPost2010PropOp48
 70
     1
102
RTVSPost2010Prop49
280
     0
102
RTVSPost2010PropOp49
 70
     1
102
RTVSPost2010Prop50
 90
       50
102
RTVSPost2010PropOp50
 70
     1
102
RTVSPost2010Prop51ColorIndex
 90
      256
102
RTVSPost2010Prop51ColorRGB
 90
-16777216
102
RTVSPost2010PropOp51
 70
     0
102
RTVSPost2010Prop52
140
1.0
102
RTVSPost2010PropOp52
 70
     0
102
RTVSPost2010Prop53
 90
        2
102
RTVSPost2010PropOp53
 70
     1
102
RTVSPost2010Prop54
  1
strokes_ogs.tif
102
RTVSPost2010PropOp54
 70
     1
102
RTVSPost2010Prop55
280
     0
102
RTVSPost2010PropOp55
 70
     1
102
RTVSPost2010Prop56
140
1.0
102
RTVSPost2010PropOp56
 70
     1
102
RTVSPost2010Prop57
140
1.0
102
RTVSPost2010PropOp57
 70
     1
  0
XRECORD
  5
233
102
{ACAD_REACTORS
330
232
102
}
330
232
100
AcDbXrecord
280
     1
102
RTVSPropertyOp0
 70
     1
102
RTVSPropertyOp1
 70
     1
102
RTVSPropertyOp2
 70
     1
102
RTVSPropertyOp3
 70
     1
102
RTVSPropertyOp4
 70
     1
102
RTVSPropertyOp5
 70
     1
102
RTVSPropertyOp6
 70
     1
102
RTVSPropertyOp7
 70
     1
102
RTVSPropertyOp8
 70
     1
102
RTVSPropertyOp9
 70
     1
102
RTVSPropertyOp10
 70
     1
102
RTVSPropertyOp11
 70
     1
102
RTVSPropertyOp12
 70
     1
102
RTVSPropertyOp13
 70
     1
102
RTVSPropertyOp14
 70
     1
102
RTVSPropertyOp15
 70
     1
102
RTVSPropertyOp16
 70
     1
102
RTVSPropertyOp17
 70
     1
102
RTVSPropertyOp18
 70
     1
102
RTVSPropertyOp19
 70
     1
102
RTVSPropertyOp20
 70
     1
102
RTVSPropertyOp21
 70
     1
102
RTVSPropertyOp22
 70
     1
102
RTVSPropertyOp23
 70
     1
102
RTVSPropertyOp24
 70
     1
102
RTVSPropertyOp25
 70
     1
102
RTVSPropertyOp26
 70
     1
102
RTVSPropertyOp27
 70
     1
102
RTVSPropertyOp28
 70
     1
102
RTVSPropertyOp29
 70
     1
102
RTVSPropertyOp30
 70
     1
102
RTVSPropertyOp31
 70
     1
102
RTVSPropertyOp32
 70
     1
102
RTVSPropertyOp33
 70
     1
102
RTVSPropertyOp34
 70
     1
102
RTVSPropertyOp35
 70
     1
102
RTVSPropertyOp36
 70
     1
102
RTVSPropertyOp37
 70
     1
102
RTVSPropertyOp38
 70
     1
102
RTVSPropertyOp39
 70
     1
102
RTVSPropertyOp40
 70
     1
102
RTVSPropertyOp41
 70
     1
102
RTVSPropertyOp42
 70
     1
102
RTVSPropertyOp43
 70
     1
102
RTVSPropertyOp44
 70
     1
102
RTVSPropertyOp45
 70
     1
102
RTVSPropertyOp46
 70
     1
102
RTVSPropertyOp47
 70
     1
102
RTVSPropertyOp48
 70
     1
102
RTVSPropertyOp49
 70
     1
102
RTVSPropertyOp50
 70
     1
102
RTVSPropertyOp51
 70
     0
102
RTVSPropertyOp52
 70
     0
102
RTVSPropertyOp53
 70
     1
102
RTVSPropertyOp54
 70
     1
102
RTVSPropertyOp55
 70
     1
102
RTVSPropertyOp56
 70
     1
102
RTVSPropertyOp57
 70
     1
102
RTVSPost2010Prop28
280
     0
102
RTVSPost2010PropOp28
 70
     1
102
RTVSPost2010Prop29
280
     1
102
RTVSPost2010PropOp29
 70
     1
102
RTVSPost2010Prop30
280
     1
102
RTVSPost2010PropOp30
 70
     1
102
RTVSPost2010Prop31
280
     0
102
RTVSPost2010PropOp31
 70
     1
102
RTVSPost2010Prop32
280
     0
102
RTVSPost2010PropOp32
 70
     1
102
RTVSPost2010Prop33
280
     0
102
RTVSPost2010PropOp33
 70
     1
102
RTVSPost2010Prop34
280
     0
102
RTVSPost2010PropOp34
 70
     1
102
RTVSPost2010Prop35
280
     0
102
RTVSPost2010PropOp35
 70
     1
102
RTVSPost2010Prop36
280
     0
102
RTVSPost2010PropOp36
 70
     1
102
RTVSPost2010Prop37
 90
       50
102
RTVSPost2010PropOp37
 70
     1
102
RTVSPost2010Prop38
140
0.0
102
RTVSPost2010PropOp38
 70
     1
102
RTVSPost2010Prop39
140
1.0
102
RTVSPost2010PropOp39
 70
     1
102
RTVSPost2010Prop40
 90
        0
102
RTVSPost2010PropOp40
 70
     1
102
RTVSPost2010Prop41ColorIndex
 90
       18
102
RTVSPost2010Prop41ColorRGB
 90
        0
102
RTVSPost2010PropOp41
 70
     1
102
RTVSPost2010Prop42
 90
       50
102
RTVSPost2010PropOp42
 70
     1
102
RTVSPost2010Prop43
 90
        3
102
RTVSPost2010PropOp43
 70
     1
102
RTVSPost2010Prop44ColorIndex
 90
        5
102
RTVSPost2010Prop44ColorRGB
 90
      255
102
RTVSPost2010PropOp44
 70
     1
102
RTVSPost2010Prop45
280
     0
102
RTVSPost2010PropOp45
 70
     1
102
RTVSPost2010Prop46
 90
       50
102
RTVSPost2010PropOp46
 70
     1
102
RTVSPost2010Prop47
 90
       50
102
RTVSPost2010PropOp47
 70
     1
102
RTVSPost2010Prop48
 90
       50
102
RTVSPost2010PropOp48
 70
     1
102
RTVSPost2010Prop49
280
     0
102
RTVSPost2010PropOp49
 70
     1
102
RTVSPost2010Prop50
 90
       50
102
RTVSPost2010PropOp50
 70
     1
102
RTVSPost2010Prop51ColorIndex
 90
      256
102
RTVSPost2010Prop51ColorRGB
 90
-16777216
102
RTVSPost2010PropOp51
 70
     0
102
RTVSPost2010Prop52
140
1.0
102
RTVSPost2010PropOp52
 70
     0
102
RTVSPost2010Prop53
 90
        2
102
RTVSPost2010PropOp53
 70
     1
102
RTVSPost2010Prop54
  1
strokes_ogs.tif
102
RTVSPost2010PropOp54
 70
     1
102
RTVSPost2010Prop55
280
     0
102
RTVSPost2010PropOp55
 70
     1
102
RTVSPost2010Prop56
140
1.0
102
RTVSPost2010PropOp56
 70
     1
102
RTVSPost2010Prop57
140
1.0
102
RTVSPost2010PropOp57
 70
     1
  0
XRECORD
  5
23B
102
{ACAD_REACTORS
330
23A
102
}
330
23A
100
AcDbXrecord
280
     1
102
RTVSPropertyOp0
 70
     1
102
RTVSPropertyOp1
 70
     1
102
RTVSPropertyOp2
 70
     1
102
RTVSPropertyOp3
 70
     1
102
RTVSPropertyOp4
 70
     1
102
RTVSPropertyOp5
 70
     1
102
RTVSPropertyOp6
 70
     1
102
RTVSPropertyOp7
 70
     1
102
RTVSPropertyOp8
 70
     1
102
RTVSPropertyOp9
 70
     1
102
RTVSPropertyOp10
 70
     1
102
RTVSPropertyOp11
 70
     1
102
RTVSPropertyOp12
 70
     1
102
RTVSPropertyOp13
 70
     1
102
RTVSPropertyOp14
 70
     1
102
RTVSPropertyOp15
 70
     1
102
RTVSPropertyOp16
 70
     1
102
RTVSPropertyOp17
 70
     1
102
RTVSPropertyOp18
 70
     1
102
RTVSPropertyOp19
 70
     1
102
RTVSPropertyOp20
 70
     1
102
RTVSPropertyOp21
 70
     1
102
RTVSPropertyOp22
 70
     1
102
RTVSPropertyOp23
 70
     1
102
RTVSPropertyOp24
 70
     1
102
RTVSPropertyOp25
 70
     1
102
RTVSPropertyOp26
 70
     1
102
RTVSPropertyOp27
 70
     1
102
RTVSPropertyOp28
 70
     1
102
RTVSPropertyOp29
 70
     1
102
RTVSPropertyOp30
 70
     1
102
RTVSPropertyOp31
 70
     1
102
RTVSPropertyOp32
 70
     1
102
RTVSPropertyOp33
 70
     1
102
RTVSPropertyOp34
 70
     1
102
RTVSPropertyOp35
 70
     1
102
RTVSPropertyOp36
 70
     1
102
RTVSPropertyOp37
 70
     1
102
RTVSPropertyOp38
 70
     1
102
RTVSPropertyOp39
 70
     1
102
RTVSPropertyOp40
 70
     1
102
RTVSPropertyOp41
 70
     1
102
RTVSPropertyOp42
 70
     1
102
RTVSPropertyOp43
 70
     1
102
RTVSPropertyOp44
 70
     1
102
RTVSPropertyOp45
 70
     1
102
RTVSPropertyOp46
 70
     1
102
RTVSPropertyOp47
 70
     1
102
RTVSPropertyOp48
 70
     1
102
RTVSPropertyOp49
 70
     1
102
RTVSPropertyOp50
 70
     1
102
RTVSPropertyOp51
 70
     0
102
RTVSPropertyOp52
 70
     0
102
RTVSPropertyOp53
 70
     1
102
RTVSPropertyOp54
 70
     1
102
RTVSPropertyOp55
 70
     1
102
RTVSPropertyOp56
 70
     1
102
RTVSPropertyOp57
 70
     1
102
RTVSPost2010Prop28
280
     0
102
RTVSPost2010PropOp28
 70
     1
102
RTVSPost2010Prop29
280
     1
102
RTVSPost2010PropOp29
 70
     1
102
RTVSPost2010Prop30
280
     1
102
RTVSPost2010PropOp30
 70
     1
102
RTVSPost2010Prop31
280
     0
102
RTVSPost2010PropOp31
 70
     1
102
RTVSPost2010Prop32
280
     0
102
RTVSPost2010PropOp32
 70
     1
102
RTVSPost2010Prop33
280
     0
102
RTVSPost2010PropOp33
 70
     1
102
RTVSPost2010Prop34
280
     0
102
RTVSPost2010PropOp34
 70
     1
102
RTVSPost2010Prop35
280
     0
102
RTVSPost2010PropOp35
 70
     1
102
RTVSPost2010Prop36
280
     0
102
RTVSPost2010PropOp36
 70
     1
102
RTVSPost2010Prop37
 90
       50
102
RTVSPost2010PropOp37
 70
     1
102
RTVSPost2010Prop38
140
0.0
102
RTVSPost2010PropOp38
 70
     1
102
RTVSPost2010Prop39
140
1.0
102
RTVSPost2010PropOp39
 70
     1
102
RTVSPost2010Prop40
 90
        0
102
RTVSPost2010PropOp40
 70
     1
102
RTVSPost2010Prop41ColorIndex
 90
       18
102
RTVSPost2010Prop41ColorRGB
 90
        0
102
RTVSPost2010PropOp41
 70
     1
102
RTVSPost2010Prop42
 90
       50
102
RTVSPost2010PropOp42
 70
     1
102
RTVSPost2010Prop43
 90
        3
102
RTVSPost2010PropOp43
 70
     1
102
RTVSPost2010Prop44ColorIndex
 90
        5
102
RTVSPost2010Prop44ColorRGB
 90
      255
102
RTVSPost2010PropOp44
 70
     1
102
RTVSPost2010Prop45
280
     0
102
RTVSPost2010PropOp45
 70
     1
102
RTVSPost2010Prop46
 90
       50
102
RTVSPost2010PropOp46
 70
     1
102
RTVSPost2010Prop47
 90
       50
102
RTVSPost2010PropOp47
 70
     1
102
RTVSPost2010Prop48
 90
       50
102
RTVSPost2010PropOp48
 70
     1
102
RTVSPost2010Prop49
280
     0
102
RTVSPost2010PropOp49
 70
     1
102
RTVSPost2010Prop50
 90
       50
102
RTVSPost2010PropOp50
 70
     1
102
RTVSPost2010Prop51ColorIndex
 90
      256
102
RTVSPost2010Prop51ColorRGB
 90
-16777216
102
RTVSPost2010PropOp51
 70
     0
102
RTVSPost2010Prop52
140
1.0
102
RTVSPost2010PropOp52
 70
     0
102
RTVSPost2010Prop53
 90
        2
102
RTVSPost2010PropOp53
 70
     1
102
RTVSPost2010Prop54
  1
strokes_ogs.tif
102
RTVSPost2010PropOp54
 70
     1
102
RTVSPost2010Prop55
280
     0
102
RTVSPost2010PropOp55
 70
     1
102
RTVSPost2010Prop56
140
1.0
102
RTVSPost2010PropOp56
 70
     1
102
RTVSPost2010Prop57
140
1.0
102
RTVSPost2010PropOp57
 70
     1
  0
ENDSEC
  0
EOF
