  0
SECTION
  2
HEADER
  9
$ACADVER
  1
AC1009
  9
$INSBASE
 10
66.6192989792662047
 20
34.8085145961405402
 30
0.0
  9
$EXTMIN
 10
48.895208782416212
 20
17.0844145961405403
 30
0.0
  9
$EXTMAX
 10
84.3433891761162187
 20
52.5326145961405473
 30
0.0
  9
$LIMMIN
 10
0.0
 20
0.0
  9
$LIMMAX
 10
11.6929133858000007
 20
8.2677165353999982
  9
$ORTHOMODE
 70
     1
  9
$REGENMODE
 70
     1
  9
$FILLMODE
 70
     1
  9
$QTEXTMODE
 70
     0
  9
$MIRRTEXT
 70
     0
  9
$DRAGMODE
 70
     2
  9
$LTSCALE
 40
0.6431102362
  9
$OSMODE
 70
  4095
  9
$ATTMODE
 70
     1
  9
$TEXTSIZE
 40
0.2
  9
$TRACEWID
 40
0.05
  9
$TEXTSTYLE
  7
STANDARD
  9
$CLAYER
  8
0
  9
$CELTYPE
  6
BYLAYER
  9
$CECOLOR
 62
   256
  9
$DIMSCALE
 40
1.0
  9
$DIMASZ
 40
0.1875
  9
$DIMEXO
 40
0.0625
  9
$DIMDLI
 40
0.4443307087
  9
$DIMRND
 40
0.0
  9
$DIMDLE
 40
0.0
  9
$DIMEXE
 40
0.125
  9
$DIMTP
 40
0.01
  9
$DIMTM
 40
0.01
  9
$DIMTXT
 40
1.0
  9
$DIMCEN
 40
0.1052362205
  9
$DIMTSZ
 40
0.0
  9
$DIMTOL
 70
     1
  9
$DIMLIM
 70
     0
  9
$DIMTIH
 70
     1
  9
$DIMTOH
 70
     1
  9
$DIMSE1
 70
     0
  9
$DIMSE2
 70
     0
  9
$DIMTAD
 70
     0
  9
$DIMZIN
 70
     0
  9
$DIMBLK
  1
_FILLED
  9
$DIMASO
 70
     1
  9
$DIMSHO
 70
     1
  9
$DIMPOST
  1

  9
$DIMAPOST
  1

  9
$DIMALT
 70
     1
  9
$DIMALTD
 70
     2
  9
$DIMALTF
 40
25.3999999999999986
  9
$DIMLFAC
 40
1.0
  9
$DIMTOFL
 70
     0
  9
$DIMTVP
 40
0.0
  9
$DIMTIX
 70
     0
  9
$DIMSOXD
 70
     0
  9
$DIMSAH
 70
     0
  9
$DIMBLK1
  1

  9
$DIMBLK2
  1

  9
$DIMSTYLE
  2
STANDARD
  9
$DIMCLRD
 70
     0
  9
$DIMCLRE
 70
     0
  9
$DIMCLRT
 70
     0
  9
$DIMTFAC
 40
1.0
  9
$DIMGAP
 40
0.09
  9
$LUNITS
 70
     2
  9
$LUPREC
 70
     4
  9
$SKETCHINC
 40
0.1
  9
$FILLETRAD
 40
0.0
  9
$AUNITS
 70
     0
  9
$AUPREC
 70
     0
  9
$MENU
  1
.
  9
$ELEVATION
 40
0.0
  9
$PELEVATION
 40
0.0
  9
$THICKNESS
 40
0.0
  9
$LIMCHECK
 70
     0
  9
$BLIPMODE
 70
     0
  9
$CHAMFERA
 40
0.0
  9
$CHAMFERB
 40
0.0
  9
$SKPOLY
 70
     0
  9
$TDCREATE
 40
2458872.4019907410256565
  9
$TDUPDATE
 40
2458873.3541319449432194
  9
$TDINDWG
 40
0.0241203704
  9
$TDUSRTIMER
 40
0.0241203704
  9
$USRTIMER
 70
     1
  9
$ANGBASE
 50
0.0
  9
$ANGDIR
 70
     0
  9
$PDMODE
 70
     0
  9
$PDSIZE
 40
0.3125
  9
$PLINEWID
 40
0.0
  9
$COORDS
 70
     1
  9
$SPLFRAME
 70
     0
  9
$SPLINETYPE
 70
     6
  9
$SPLINESEGS
 70
     8
  9
$ATTDIA
 70
     1
  9
$ATTREQ
 70
     1
  9
$HANDLING
 70
     1
  9
$HANDSEED
  5
7F8
  9
$SURFTAB1
 70
     6
  9
$SURFTAB2
 70
     6
  9
$SURFTYPE
 70
     6
  9
$SURFU
 70
     6
  9
$SURFV
 70
     6
  9
$UCSNAME
  2

  9
$UCSORG
 10
0.0
 20
0.0
 30
0.0
  9
$UCSXDIR
 10
1.0
 20
0.0
 30
0.0
  9
$UCSYDIR
 10
0.0
 20
1.0
 30
0.0
  9
$PUCSNAME
  2

  9
$PUCSORG
 10
0.0
 20
0.0
 30
0.0
  9
$PUCSXDIR
 10
1.0
 20
0.0
 30
0.0
  9
$PUCSYDIR
 10
0.0
 20
1.0
 30
0.0
  9
$USERI1
 70
     0
  9
$USERI2
 70
     0
  9
$USERI3
 70
     0
  9
$USERI4
 70
     0
  9
$USERI5
 70
     0
  9
$USERR1
 40
0.0
  9
$USERR2
 40
0.0
  9
$USERR3
 40
0.0
  9
$USERR4
 40
0.0
  9
$USERR5
 40
0.0
  9
$WORLDVIEW
 70
     1
  9
$SHADEDGE
 70
     3
  9
$SHADEDIF
 70
    70
  9
$TILEMODE
 70
     1
  9
$MAXACTVP
 70
    64
  9
$PLIMCHECK
 70
     0
  9
$PEXTMIN
 10
1.0000000000000000E+20
 20
1.0000000000000000E+20
 30
1.0000000000000000E+20
  9
$PEXTMAX
 10
-1.0000000000000000E+20
 20
-1.0000000000000000E+20
 30
-1.0000000000000000E+20
  9
$PLIMMIN
 10
0.0
 20
0.0
  9
$PLIMMAX
 10
12.0
 20
9.0
  9
$UNITMODE
 70
     0
  9
$VISRETAIN
 70
     1
  9
$PLINEGEN
 70
     0
  9
$PSLTSCALE
 70
     1
  0
ENDSEC
  0
SECTION
  2
TABLES
  0
TABLE
  2
VPORT
 70
     1
  0
VPORT
  2
*ACTIVE
 70
     0
 10
0.0
 20
0.0
 11
1.0
 21
1.0
 12
0.708069379012656
 22
0.0
 13
0.0
 23
0.0
 14
1.0
 24
1.0
 15
0.0
 25
0.0
 16
-0.0000000000000284
 26
0.0
 36
142.16696662051001
 17
66.6193008422851563
 27
34.8085155487060618
 37
0.0
 40
50.1313120340961973
 41
2.1491525423728808
 42
50.0
 43
0.0
 44
0.0
 50
0.0
 51
0.0
 71
     0
 72
   100
 73
     1
 74
     1
 75
     0
 76
     0
 77
     0
 78
     0
  0
ENDTAB
  0
TABLE
  2
LTYPE
 70
     1
  0
LTYPE
  2
CONTINUOUS
 70
     0
  3
Solid line
 72
    65
 73
     0
 40
0.0
  0
ENDTAB
  0
TABLE
  2
LAYER
 70
     3
  0
LAYER
  2
0
 70
     0
 62
     7
  6
CONTINUOUS
  0
LAYER
  2
DEFPOINTS
 70
     0
 62
     7
  6
CONTINUOUS
  0
ENDTAB
  0
TABLE
  2
STYLE
 70
     1
  0
STYLE
  2
STANDARD
 70
     0
 40
0.0
 41
0.8
 50
0.0
 71
     0
 42
0.2
  3
txt
  4

  0
ENDTAB
  0
TABLE
  2
VIEW
 70
     0
  0
ENDTAB
  0
TABLE
  2
UCS
 70
     0
  0
ENDTAB
  0
TABLE
  2
APPID
 70
     6
  0
APPID
  2
ACAD
 70
     0
  0
APPID
  2
ACAD_NAV_VCDISPLAY
 70
     0
  0
APPID
  2
ACAD_EXEMPT_FROM_CAD_STANDARDS
 70
     0
  0
APPID
  2
ACAD_DSTYLE_DIMJAG
 70
     0
  0
APPID
  2
ACAD_DSTYLE_DIMTALN
 70
     0
  0
APPID
  2
ACAD_MLEADERVER
 70
     0
  0
ENDTAB
  0
TABLE
  2
DIMSTYLE
 70
     1
  0
DIMSTYLE
  2
STANDARD
 70
     0
  3

  4

  5
_FILLED
  6
_FILLED
  7
_FILLED
 40
1.0
 41
0.1875
 42
0.0625
 43
0.38
 44
0.125
 45
0.0
 46
0.0
 47
0.01
 48
0.01
140
0.15625
141
0.09
142
0.0
143
25.3999999999999986
144
1.0
145
0.0
146
1.0
147
0.09
 71
     1
 72
     0
 73
     1
 74
     1
 75
     0
 76
     0
 77
     0
 78
     4
170
     1
171
     2
172
     0
173
     0
174
     0
175
     0
176
     0
177
     0
178
     0
  0
ENDTAB
  0
ENDSEC
  0
SECTION
  2
BLOCKS
  0
BLOCK
  8
0
  2
$MODEL_SPACE
 70
     0
 10
0.0
 20
0.0
 30
0.0
  3
$MODEL_SPACE
  1

  0
ENDBLK
  5
21
  8
0
  0
BLOCK
 67
     1
  8
0
  2
$PAPER_SPACE
 70
     0
 10
0.0
 20
0.0
 30
0.0
  3
$PAPER_SPACE
  1

  0
ENDBLK
  5
1D
 67
     1
  8
0
  0
BLOCK
  8
0
  2
_FILLED
 70
     0
 10
0.0
 20
0.0
 30
0.0
  3
_FILLED
  1

  0
SOLID
  5
206
  8
0
  6
BYBLOCK
 62
     0
 10
0.0
 20
0.0
 30
0.0
 11
-1.0
 21
0.1666666667
 31
0.0
 12
-1.0
 22
-0.1666666667
 32
0.0
 13
-1.0
 23
-0.1666666667
 33
0.0
  0
ENDBLK
  5
207
  8
0
  6
BYBLOCK
 62
     0
  0
ENDSEC
  0
SECTION
  2
ENTITIES
  0
LINE
  5
68C
  8
0
 10
49.2857865509198518
 20
52.5326145961405473
 30
0.0
 11
83.9415117892173157
 21
52.5326145961405402
 31
0.0
  0
LINE
  5
68D
  8
0
 10
48.8952087824162192
 20
52.1621253618405518
 30
0.0
 11
48.895208782416212
 21
17.3993272450405492
 31
0.0
  0
LINE
  5
68E
  8
0
 10
49.2101214346162124
 20
17.0844145961405509
 30
0.0
 11
84.0284765272162133
 21
17.0844145961405403
 31
0.0
  0
LINE
  5
68F
  8
0
 10
84.3433891761162045
 20
17.3993272484405388
 30
0.0
 11
84.3433891761162187
 21
52.1621253658405521
 31
0.0
  0
ARC
  5
690
  8
0
 10
49.3243549755389665
 20
52.1008325431062076
 30
0.0
 40
0.4335011703561521
 50
95.1043315683807151
 51
171.8717006782758858
  0
ARC
  5
691
  8
0
 10
83.9155263041087665
 20
52.1012205967581679
 30
0.0
 40
0.4321759226743847
 50
8.1014260434828902
 51
86.5528917423299475
  0
ARC
  5
692
  8
0
 10
49.210142501177323
 20
17.3993483149018786
 30
0.0
 40
0.3149337194659245
 50
180.0038332323765076
 51
269.9961673680307968
  0
ARC
  5
693
  8
0
 10
84.0284554580265848
 20
17.3993483142299397
 30
0.0
 40
0.3149337187941644
 50
270.0038331101814038
 51
359.9961675084209105
  0
CIRCLE
  5
694
  8
0
 10
66.6192989792162109
 20
46.2172434644405499
 30
0.0
 40
1.7716535433
  0
CIRCLE
  5
695
  8
0
 10
66.6192989792162109
 20
46.2172434644405499
 30
0.0
 40
2.633852574432733
  0
LINE
  5
696
  8
0
 10
51.8386790477749599
 20
19.4910498640866798
 30
0.0
 11
81.3314973481698757
 21
19.4899206521499586
 31
0.0
  0
ARC
  5
697
  8
0
 10
81.3315887764618992
 20
21.8778497171147812
 30
0.0
 40
2.3879290667151039
 50
269.997806276854817
 51
277.31529113217141
  0
ARC
  5
698
  8
0
 10
81.5857565056424789
 20
19.8979528081425912
 30
0.0
 40
0.3917845316890383
 50
277.3152911321710121
 51
334.171291134389719
  0
LINE
  5
699
  8
0
 10
81.9384019897162119
 20
19.7272592762405417
 30
0.0
 11
81.9257437298162188
 21
49.8030015036405516
 31
0.0
  0
ARC
  5
69A
  8
0
 10
81.640349526968663
 20
49.7924448970325528
 30
0.0
 40
0.2855893782374828
 50
2.1183800083191962
 51
91.8097859449059257
  0
LINE
  5
69B
  8
0
 10
81.6313301942162042
 20
50.0778918178405519
 30
0.0
 11
51.6072683240162107
 21
50.0778936396405498
 31
0.0
  0
ARC
  5
69C
  8
0
 10
51.5984010301202929
 20
49.7920474742020502
 30
0.0
 40
0.285983669458484
 50
88.223185403459766
 51
177.8067256540211076
  0
LINE
  5
69D
  8
0
 10
51.3126268678162205
 20
49.8029922152379498
 30
0.0
 11
51.3001311909162112
 21
19.7281238102405503
 31
0.0
  0
ARC
  5
69E
  8
0
 10
51.5475320045234895
 20
19.7770049466635705
 30
0.0
 40
0.2521835206185119
 50
191.1764772614949095
 51
258.3206015337772783
  0
ARC
  5
69F
  8
0
 10
51.8882361649646526
 20
21.4470043534937105
 30
0.0
 40
1.956582191602394
 50
258.4499337982060752
 51
268.5486337585269894
  0
ENDSEC
  0
EOF
