  0
SECTION
  2
HEADER
  9
$ACADVER
  1
AC1009
  9
$INSBASE
 10
4.9327402190000011
 20
30.3391544891213307
 30
0.0
  9
$EXTMIN
 10
-14.7598539148000008
 20
14.6113220250426501
 30
0.0
  9
$EXTMAX
 10
24.6253343527999995
 20
46.0669869679537598
 30
0.0
  9
$LIMMIN
 10
0.0
 20
0.0
  9
$LIMMAX
 10
11.6929133858000007
 20
8.2677165353999982
  9
$ORTHOMODE
 70
     0
  9
$REGENMODE
 70
     1
  9
$FILLMODE
 70
     1
  9
$QTEXTMODE
 70
     0
  9
$MIRRTEXT
 70
     0
  9
$DRAGMODE
 70
     2
  9
$LTSCALE
 40
0.6431102362
  9
$OSMODE
 70
  4095
  9
$ATTMODE
 70
     1
  9
$TEXTSIZE
 40
0.2
  9
$TRACEWID
 40
0.05
  9
$TEXTSTYLE
  7
STANDARD
  9
$CLAYER
  8
0
  9
$CELTYPE
  6
BYLAYER
  9
$CECOLOR
 62
   256
  9
$DIMSCALE
 40
1.0
  9
$DIMASZ
 40
0.1875
  9
$DIMEXO
 40
0.0625
  9
$DIMDLI
 40
0.4443307087
  9
$DIMRND
 40
0.0
  9
$DIMDLE
 40
0.0
  9
$DIMEXE
 40
0.125
  9
$DIMTP
 40
0.01
  9
$DIMTM
 40
0.01
  9
$DIMTXT
 40
1.0
  9
$DIMCEN
 40
0.1052362205
  9
$DIMTSZ
 40
0.0
  9
$DIMTOL
 70
     1
  9
$DIMLIM
 70
     0
  9
$DIMTIH
 70
     1
  9
$DIMTOH
 70
     1
  9
$DIMSE1
 70
     0
  9
$DIMSE2
 70
     0
  9
$DIMTAD
 70
     0
  9
$DIMZIN
 70
     0
  9
$DIMBLK
  1
_FILLED
  9
$DIMASO
 70
     1
  9
$DIMSHO
 70
     1
  9
$DIMPOST
  1

  9
$DIMAPOST
  1

  9
$DIMALT
 70
     1
  9
$DIMALTD
 70
     2
  9
$DIMALTF
 40
25.3999999999999986
  9
$DIMLFAC
 40
1.0
  9
$DIMTOFL
 70
     0
  9
$DIMTVP
 40
0.0
  9
$DIMTIX
 70
     0
  9
$DIMSOXD
 70
     0
  9
$DIMSAH
 70
     0
  9
$DIMBLK1
  1

  9
$DIMBLK2
  1

  9
$DIMSTYLE
  2
STANDARD
  9
$DIMCLRD
 70
     0
  9
$DIMCLRE
 70
     0
  9
$DIMCLRT
 70
     0
  9
$DIMTFAC
 40
1.0
  9
$DIMGAP
 40
0.09
  9
$LUNITS
 70
     2
  9
$LUPREC
 70
     4
  9
$SKETCHINC
 40
0.1
  9
$FILLETRAD
 40
0.0
  9
$AUNITS
 70
     0
  9
$AUPREC
 70
     0
  9
$MENU
  1
.
  9
$ELEVATION
 40
0.0
  9
$PELEVATION
 40
0.0
  9
$THICKNESS
 40
0.0
  9
$LIMCHECK
 70
     0
  9
$BLIPMODE
 70
     0
  9
$CHAMFERA
 40
0.0
  9
$CHAMFERB
 40
0.0
  9
$SKPOLY
 70
     0
  9
$TDCREATE
 40
2458872.5735763888806105
  9
$TDUPDATE
 40
2458872.6487731481902301
  9
$TDINDWG
 40
0.074849537
  9
$TDUSRTIMER
 40
0.074849537
  9
$USRTIMER
 70
     1
  9
$ANGBASE
 50
0.0
  9
$ANGDIR
 70
     0
  9
$PDMODE
 70
     0
  9
$PDSIZE
 40
0.3125
  9
$PLINEWID
 40
0.0
  9
$COORDS
 70
     1
  9
$SPLFRAME
 70
     0
  9
$SPLINETYPE
 70
     6
  9
$SPLINESEGS
 70
     8
  9
$ATTDIA
 70
     1
  9
$ATTREQ
 70
     1
  9
$HANDLING
 70
     1
  9
$HANDSEED
  5
77F
  9
$SURFTAB1
 70
     6
  9
$SURFTAB2
 70
     6
  9
$SURFTYPE
 70
     6
  9
$SURFU
 70
     6
  9
$SURFV
 70
     6
  9
$UCSNAME
  2

  9
$UCSORG
 10
0.0
 20
0.0
 30
0.0
  9
$UCSXDIR
 10
1.0
 20
0.0
 30
0.0
  9
$UCSYDIR
 10
0.0
 20
1.0
 30
0.0
  9
$PUCSNAME
  2

  9
$PUCSORG
 10
0.0
 20
0.0
 30
0.0
  9
$PUCSXDIR
 10
1.0
 20
0.0
 30
0.0
  9
$PUCSYDIR
 10
0.0
 20
1.0
 30
0.0
  9
$USERI1
 70
     0
  9
$USERI2
 70
     0
  9
$USERI3
 70
     0
  9
$USERI4
 70
     0
  9
$USERI5
 70
     0
  9
$USERR1
 40
0.0
  9
$USERR2
 40
0.0
  9
$USERR3
 40
0.0
  9
$USERR4
 40
0.0
  9
$USERR5
 40
0.0
  9
$WORLDVIEW
 70
     1
  9
$SHADEDGE
 70
     3
  9
$SHADEDIF
 70
    70
  9
$TILEMODE
 70
     1
  9
$MAXACTVP
 70
    64
  9
$PLIMCHECK
 70
     0
  9
$PEXTMIN
 10
1.0000000000000000E+20
 20
1.0000000000000000E+20
 30
1.0000000000000000E+20
  9
$PEXTMAX
 10
-1.0000000000000000E+20
 20
-1.0000000000000000E+20
 30
-1.0000000000000000E+20
  9
$PLIMMIN
 10
0.0
 20
0.0
  9
$PLIMMAX
 10
12.0
 20
9.0
  9
$UNITMODE
 70
     0
  9
$VISRETAIN
 70
     1
  9
$PLINEGEN
 70
     0
  9
$PSLTSCALE
 70
     1
  0
ENDSEC
  0
SECTION
  2
TABLES
  0
TABLE
  2
VPORT
 70
     1
  0
VPORT
  2
*ACTIVE
 70
     0
 10
0.0
 20
0.0
 11
1.0
 21
1.0
 12
0.0
 22
0.0
 13
0.0
 23
0.0
 14
1.0
 24
1.0
 15
0.0
 25
0.0
 16
-0.000000000000032
 26
0.0
 36
144.4540181828268999
 17
4.9327397346496582
 27
30.3391542434692383
 37
0.0
 40
50.4048789255652707
 41
2.1491525423728808
 42
50.0
 43
0.0
 44
0.0
 50
0.0
 51
0.0
 71
     0
 72
   100
 73
     1
 74
     1
 75
     0
 76
     0
 77
     0
 78
     0
  0
ENDTAB
  0
TABLE
  2
LTYPE
 70
     1
  0
LTYPE
  2
CONTINUOUS
 70
     0
  3
Solid line
 72
    65
 73
     0
 40
0.0
  0
ENDTAB
  0
TABLE
  2
LAYER
 70
     2
  0
LAYER
  2
0
 70
     0
 62
     7
  6
CONTINUOUS
  0
LAYER
  2
DEFPOINTS
 70
     0
 62
     7
  6
CONTINUOUS
  0
ENDTAB
  0
TABLE
  2
STYLE
 70
     1
  0
STYLE
  2
STANDARD
 70
     0
 40
0.0
 41
0.8
 50
0.0
 71
     0
 42
0.2
  3
txt
  4

  0
ENDTAB
  0
TABLE
  2
VIEW
 70
     0
  0
ENDTAB
  0
TABLE
  2
UCS
 70
     0
  0
ENDTAB
  0
TABLE
  2
APPID
 70
     6
  0
APPID
  2
ACAD
 70
     0
  0
APPID
  2
ACAD_NAV_VCDISPLAY
 70
     0
  0
APPID
  2
ACAD_EXEMPT_FROM_CAD_STANDARDS
 70
     0
  0
APPID
  2
ACAD_DSTYLE_DIMJAG
 70
     0
  0
APPID
  2
ACAD_DSTYLE_DIMTALN
 70
     0
  0
APPID
  2
ACAD_MLEADERVER
 70
     0
  0
ENDTAB
  0
TABLE
  2
DIMSTYLE
 70
     1
  0
DIMSTYLE
  2
STANDARD
 70
     0
  3

  4

  5
_FILLED
  6
_FILLED
  7
_FILLED
 40
1.0
 41
0.1875
 42
0.0625
 43
0.38
 44
0.125
 45
0.0
 46
0.0
 47
0.01
 48
0.01
140
0.15625
141
0.09
142
0.0
143
25.3999999999999986
144
1.0
145
0.0
146
1.0
147
0.09
 71
     1
 72
     0
 73
     1
 74
     1
 75
     0
 76
     0
 77
     0
 78
     4
170
     1
171
     2
172
     0
173
     0
174
     0
175
     0
176
     0
177
     0
178
     0
  0
ENDTAB
  0
ENDSEC
  0
SECTION
  2
BLOCKS
  0
BLOCK
  8
0
  2
$MODEL_SPACE
 70
     0
 10
0.0
 20
0.0
 30
0.0
  3
$MODEL_SPACE
  1

  0
ENDBLK
  5
21
  8
0
  0
BLOCK
 67
     1
  8
0
  2
$PAPER_SPACE
 70
     0
 10
0.0
 20
0.0
 30
0.0
  3
$PAPER_SPACE
  1

  0
ENDBLK
  5
1D
 67
     1
  8
0
  0
BLOCK
  8
0
  2
_FILLED
 70
     0
 10
0.0
 20
0.0
 30
0.0
  3
_FILLED
  1

  0
SOLID
  5
206
  8
0
  6
BYBLOCK
 62
     0
 10
0.0
 20
0.0
 30
0.0
 11
-1.0
 21
0.1666666667
 31
0.0
 12
-1.0
 22
-0.1666666667
 32
0.0
 13
-1.0
 23
-0.1666666667
 33
0.0
  0
ENDBLK
  5
207
  8
0
  6
BYBLOCK
 62
     0
  0
ENDSEC
  0
SECTION
  2
ENTITIES
  0
LINE
  5
3BA
  8
0
 10
24.2885633024655192
 20
46.0669869531999865
 30
0.0
 11
-14.4231825166673406
 21
46.0669869531999865
 31
0.0
  0
ARC
  5
3BB
  8
0
 10
-14.4231826789047695
 20
45.7295674509918371
 30
0.0
 40
0.3374195022081885
 50
89.9999724511481389
 51
176.1835381305010912
  0
LINE
  5
3BC
  8
0
 10
-14.7598539148000008
 20
45.7520262887000015
 30
0.0
 11
-14.7598539148000008
 21
14.9262294580310897
 31
0.0
  0
ARC
  5
3BD
  8
0
 10
-14.4449178636818694
 20
14.9262580765942001
 30
0.0
 40
0.3149360524184234
 50
180.0052065264412136
 51
269.9957488544197872
  0
LINE
  5
3C5
  8
0
 10
-14.4449412308306808
 20
14.6113220250426501
 30
0.0
 11
24.3104216930179113
 21
14.6113220250426501
 31
0.0
  0
CIRCLE
  5
3C6
  8
0
 10
4.9327402189999994
 20
39.8071444334999995
 30
0.0
 40
1.771653543300002
  0
CIRCLE
  5
3C7
  8
0
 10
4.9327402189999994
 20
39.8071444334999995
 30
0.0
 40
2.6164251725448771
  0
ARC
  5
3C8
  8
0
 10
14.3678763983420108
 20
1680.6953977515820498
 30
0.0
 40
1637.2637236991809004
 50
269.0896648682294199
 51
269.6698171060992877
  0
ARC
  5
3C9
  8
0
 10
-12.1425220208075206
 20
12.2921092414693103
 30
0.0
 40
31.3501724240945805
 50
89.0896648682293488
 51
89.769237819730435
  0
ARC
  5
3CA
  8
0
 10
-12.0174782932624105
 20
43.3389605738948731
 30
0.0
 40
0.3030692807813046
 50
89.7692378197298808
 51
171.156889368772795
  0
LINE
  5
3CB
  8
0
 10
-12.3169449869999994
 20
43.3855512198999875
 30
0.0
 11
-12.3427863768999995
 21
17.2511892740000015
 31
0.0
  0
ARC
  5
3CC
  8
0
 10
-12.0600927030770197
 20
17.3142540547494086
 30
0.0
 40
0.2896426760518991
 50
192.5759184067204899
 51
275.3216035283541032
  0
LINE
  5
3CD
  8
0
 10
-12.0332294972000007
 20
17.0258597969000007
 30
0.0
 11
21.8993830667309908
 21
17.0169250671029388
 31
0.0
  0
ARC
  5
3DF
  8
0
 10
24.2886630843450213
 20
45.7295674319934875
 30
0.0
 40
0.3374195359602716
 50
3.8164647203716759
 51
90.0169435377670339
  0
LINE
  5
3E0
  8
0
 10
24.6253343527999995
 20
45.7520262887000015
 30
0.0
 11
24.6253343527999995
 21
14.9262294580310897
 31
0.0
  0
ARC
  5
3E1
  8
0
 10
24.2894800064139389
 20
14.9471767190595504
 30
0.0
 40
0.3365069534660464
 50
273.5679681896755255
 51
356.4310808301316911
  0
ARC
  5
3E2
  8
0
 10
-4.5023959603420147
 20
1680.6953977515820498
 30
0.0
 40
1637.2637236991809004
 50
270.3301828939005986
 51
270.9103351317705801
  0
ARC
  5
3E3
  8
0
 10
22.0080024588075212
 20
12.2921092414693103
 30
0.0
 40
31.3501724240945805
 50
90.2307621802695223
 51
90.910335131770708
  0
ARC
  5
3E4
  8
0
 10
21.8829587312624092
 20
43.3389605738948731
 30
0.0
 40
0.3030692807813046
 50
8.8431106312272316
 51
90.2307621802701192
  0
LINE
  5
3E5
  8
0
 10
22.1824254250000017
 20
43.3855512198999875
 30
0.0
 11
22.2082668149
 21
17.2511892740000015
 31
0.0
  0
ARC
  5
3E6
  8
0
 10
21.8688501646090714
 20
17.3779514596029401
 30
0.0
 40
0.3623152138588015
 50
274.8341434094392071
 51
339.5208113245034269
  0
ENDSEC
  0
EOF
