  0
SECTION
  2
HEADER
  9
$ACADVER
  1
AC1009
  9
$INSBASE
 10
4.8049943804999939
 20
28.965695312150011
 30
0.0
  9
$EXTMIN
 10
-13.00996624961371
 20
11.15073468203631
 30
0.0
  9
$EXTMAX
 10
22.619955010595731
 20
46.780655942245723
 30
0.0
  9
$LIMMIN
 10
0.0
 20
0.0
  9
$LIMMAX
 10
11.692913385800001
 20
8.2677165353999982
  9
$ORTHOMODE
 70
     1
  9
$REGENMODE
 70
     1
  9
$FILLMODE
 70
     1
  9
$QTEXTMODE
 70
     0
  9
$MIRRTEXT
 70
     0
  9
$DRAGMODE
 70
     2
  9
$LTSCALE
 40
0.6431102362
  9
$OSMODE
 70
  3071
  9
$ATTMODE
 70
     1
  9
$TEXTSIZE
 40
0.2
  9
$TRACEWID
 40
0.05
  9
$TEXTSTYLE
  7
STANDARD
  9
$CLAYER
  8
0
  9
$CELTYPE
  6
BYLAYER
  9
$CECOLOR
 62
   256
  9
$DIMSCALE
 40
1.0
  9
$DIMASZ
 40
0.1875
  9
$DIMEXO
 40
0.0625
  9
$DIMDLI
 40
0.4443307087
  9
$DIMRND
 40
0.0
  9
$DIMDLE
 40
0.0
  9
$DIMEXE
 40
0.125
  9
$DIMTP
 40
0.0
  9
$DIMTM
 40
0.0
  9
$DIMTXT
 40
1.0
  9
$DIMCEN
 40
0.1052362205
  9
$DIMTSZ
 40
0.0
  9
$DIMTOL
 70
     0
  9
$DIMLIM
 70
     0
  9
$DIMTIH
 70
     1
  9
$DIMTOH
 70
     1
  9
$DIMSE1
 70
     0
  9
$DIMSE2
 70
     0
  9
$DIMTAD
 70
     0
  9
$DIMZIN
 70
     0
  9
$DIMBLK
  1

  9
$DIMASO
 70
     1
  9
$DIMSHO
 70
     1
  9
$DIMPOST
  1
\X
  9
$DIMAPOST
  1

  9
$DIMALT
 70
     1
  9
$DIMALTD
 70
     2
  9
$DIMALTF
 40
25.399999999999999
  9
$DIMLFAC
 40
1.0
  9
$DIMTOFL
 70
     0
  9
$DIMTVP
 40
0.0
  9
$DIMTIX
 70
     0
  9
$DIMSOXD
 70
     0
  9
$DIMSAH
 70
     0
  9
$DIMBLK1
  1

  9
$DIMBLK2
  1

  9
$DIMSTYLE
  2
STANDARD
  9
$DIMCLRD
 70
     0
  9
$DIMCLRE
 70
     0
  9
$DIMCLRT
 70
     0
  9
$DIMTFAC
 40
1.0
  9
$DIMGAP
 40
0.09
  9
$LUNITS
 70
     4
  9
$LUPREC
 70
     4
  9
$SKETCHINC
 40
0.1
  9
$FILLETRAD
 40
0.0
  9
$AUNITS
 70
     0
  9
$AUPREC
 70
     2
  9
$MENU
  1
.
  9
$ELEVATION
 40
0.0
  9
$PELEVATION
 40
0.0
  9
$THICKNESS
 40
0.0
  9
$LIMCHECK
 70
     0
  9
$BLIPMODE
 70
     0
  9
$CHAMFERA
 40
0.0
  9
$CHAMFERB
 40
0.0
  9
$SKPOLY
 70
     0
  9
$TDCREATE
 40
2458501.686519607
  9
$TDUPDATE
 40
2458505.6793221761
  9
$TDINDWG
 40
0.0149601042
  9
$TDUSRTIMER
 40
0.0149601042
  9
$USRTIMER
 70
     1
  9
$ANGBASE
 50
0.0
  9
$ANGDIR
 70
     0
  9
$PDMODE
 70
     0
  9
$PDSIZE
 40
0.3125
  9
$PLINEWID
 40
0.0
  9
$COORDS
 70
     1
  9
$SPLFRAME
 70
     0
  9
$SPLINETYPE
 70
     6
  9
$SPLINESEGS
 70
     8
  9
$ATTDIA
 70
     1
  9
$ATTREQ
 70
     1
  9
$HANDLING
 70
     1
  9
$HANDSEED
  5
CB1
  9
$SURFTAB1
 70
     6
  9
$SURFTAB2
 70
     6
  9
$SURFTYPE
 70
     6
  9
$SURFU
 70
     6
  9
$SURFV
 70
     6
  9
$UCSNAME
  2

  9
$UCSORG
 10
0.0
 20
0.0
 30
0.0
  9
$UCSXDIR
 10
1.0
 20
0.0
 30
0.0
  9
$UCSYDIR
 10
0.0
 20
1.0
 30
0.0
  9
$PUCSNAME
  2

  9
$PUCSORG
 10
0.0
 20
0.0
 30
0.0
  9
$PUCSXDIR
 10
1.0
 20
0.0
 30
0.0
  9
$PUCSYDIR
 10
0.0
 20
1.0
 30
0.0
  9
$USERI1
 70
     0
  9
$USERI2
 70
     0
  9
$USERI3
 70
     0
  9
$USERI4
 70
     0
  9
$USERI5
 70
     0
  9
$USERR1
 40
0.0
  9
$USERR2
 40
0.0
  9
$USERR3
 40
0.0
  9
$USERR4
 40
0.0
  9
$USERR5
 40
0.0
  9
$WORLDVIEW
 70
     1
  9
$SHADEDGE
 70
     3
  9
$SHADEDIF
 70
    70
  9
$TILEMODE
 70
     1
  9
$MAXACTVP
 70
    48
  9
$PLIMCHECK
 70
     0
  9
$PEXTMIN
 10
1.0000000000000000E+020
 20
1.0000000000000000E+020
 30
1.0000000000000000E+020
  9
$PEXTMAX
 10
-1.0000000000000000E+020
 20
-1.0000000000000000E+020
 30
-1.0000000000000000E+020
  9
$PLIMMIN
 10
0.0
 20
0.0
  9
$PLIMMAX
 10
12.0
 20
9.0
  9
$UNITMODE
 70
     0
  9
$VISRETAIN
 70
     1
  9
$PLINEGEN
 70
     0
  9
$PSLTSCALE
 70
     1
  0
ENDSEC
  0
SECTION
  2
TABLES
  0
TABLE
  2
VPORT
 70
     1
  0
VPORT
  2
*ACTIVE
 70
     0
 10
0.0
 20
0.0
 11
1.0
 21
1.0
 12
0.0
 22
0.0
 13
0.0
 23
0.0
 14
1.0
 24
1.0
 15
0.0
 25
0.0
 16
-0.000000000000032
 26
0.0
 36
145.19374591075331
 17
4.8049945831298819
 27
28.965694904327389
 37
0.0
 40
50.388316772818051
 41
2.1638418079096038
 42
50.0
 43
0.0
 44
0.0
 50
0.0
 51
0.0
 71
     0
 72
   100
 73
     1
 74
     1
 75
     0
 76
     0
 77
     0
 78
     0
  0
ENDTAB
  0
TABLE
  2
LTYPE
 70
     2
  0
LTYPE
  2
CONTINUOUS
 70
     0
  3
Solid line
 72
    65
 73
     0
 40
0.0
  0
LTYPE
  2
PHANTOM2
 70
     0
  3
___ _ _ ___ _ _ ___ _ _ ___ _ _
 72
    65
 73
     6
 40
1.25
 49
0.625
 49
-0.125
 49
0.125
 49
-0.125
 49
0.125
 49
-0.125
  0
ENDTAB
  0
TABLE
  2
LAYER
 70
     2
  0
LAYER
  2
0
 70
     0
 62
     7
  6
CONTINUOUS
  0
LAYER
  2
DEFPOINTS
 70
     0
 62
     7
  6
CONTINUOUS
  0
ENDTAB
  0
TABLE
  2
STYLE
 70
     1
  0
STYLE
  2
STANDARD
 70
     0
 40
0.0
 41
0.8
 50
0.0
 71
     0
 42
0.2
  3
txt
  4

  0
ENDTAB
  0
TABLE
  2
VIEW
 70
     0
  0
ENDTAB
  0
TABLE
  2
UCS
 70
     0
  0
ENDTAB
  0
TABLE
  2
APPID
 70
     6
  0
APPID
  2
ACAD
 70
     0
  0
APPID
  2
ACAD_MLEADERVER
 70
     0
  0
APPID
  2
ACAD_EXEMPT_FROM_CAD_STANDARDS
 70
     0
  0
APPID
  2
ACAD_NAV_VCDISPLAY
 70
     0
  0
APPID
  2
ACAD_DSTYLE_DIMJAG
 70
     0
  0
APPID
  2
ACAD_DSTYLE_DIMTALN
 70
     0
  0
ENDTAB
  0
TABLE
  2
DIMSTYLE
 70
     2
  0
DIMSTYLE
  2
STANDARD
 70
     0
  3

  4

  5

  6

  7

 40
1.0
 41
0.1875
 42
0.0625
 43
0.38
 44
0.125
 45
0.0
 46
0.0
 47
1.5
 48
1.5
140
0.15625
141
0.09
142
0.0
143
25.399999999999999
144
1.0
145
0.0
146
1.0
147
0.09
 71
     0
 72
     0
 73
     1
 74
     1
 75
     0
 76
     0
 77
     0
 78
     4
170
     0
171
     2
172
     0
173
     0
174
     0
175
     0
176
     0
177
     0
178
     0
  0
ENDTAB
  0
ENDSEC
  0
SECTION
  2
BLOCKS
  0
BLOCK
  8
0
  2
$MODEL_SPACE
 70
     0
 10
0.0
 20
0.0
 30
0.0
  3
$MODEL_SPACE
  1

  0
ENDBLK
  5
21
  8
0
  0
BLOCK
 67
     1
  8
0
  2
$PAPER_SPACE
 70
     0
 10
0.0
 20
0.0
 30
0.0
  3
$PAPER_SPACE
  1

  0
ENDBLK
  5
1D
 67
     1
  8
0
  0
ENDSEC
  0
SECTION
  2
ENTITIES
  0
LINE
  5
7B5
  8
0
 10
-13.0099662494
 20
11.249144755711271
 30
0.0
 11
-13.0099662494
 21
46.682245735804933
 31
0.0
  0
LINE
  5
7B6
  8
0
 10
22.52154480426098
 20
11.15073468225
 30
0.0
 11
-12.911556176152461
 21
11.150734682250009
 31
0.0
  0
LINE
  5
7B7
  8
0
 10
22.619955010399998
 20
46.682245735850003
 30
0.0
 11
22.61995501040002
 21
11.249144755547681
 31
0.0
  0
LINE
  5
7B8
  8
0
 10
-12.911556176102319
 20
46.780655942049997
 30
0.0
 11
22.521544804200001
 21
46.780655942049997
 31
0.0
  0
ARC
  5
7B9
  8
0
 10
-12.91156232563497
 20
46.682252018276579
 30
0.0
 40
0.0984039239655829
 50
89.996419428691866
 51
180.00365797516091
  0
ARC
  5
7BA
  8
0
 10
-12.91156266130038
 20
11.24913827034964
 30
0.0
 40
0.0984035883133294
 50
179.99622387906271
 51
270.00377599650812
  0
ARC
  5
7BB
  8
0
 10
22.521551110999951
 20
11.249138581641651
 30
0.0
 40
0.0984038995937526
 50
269.99632789425362
 51
0.0035947636222025
  0
ARC
  5
7BC
  8
0
 10
22.5215510106244
 20
46.682251942274398
 30
0.0
 40
0.0984039999713244
 50
359.99638630620262
 51
90.003613693794733
  0
LINE
  5
7BD
  8
0
 10
19.218888374928842
 20
43.496313031215983
 30
0.0
 11
-9.6039766774000004
 21
43.496518993899997
 31
0.0
  0
LINE
  5
7BE
  8
0
 10
-9.7398366176431157
 20
43.460267311976352
 30
0.0
 11
-9.7585557487888508
 21
14.398960519799999
 31
0.0
  0
LINE
  5
7D8
  8
0
 10
9.2289744087999992
 20
43.291250147950009
 30
0.0
 11
0.3810143522000118
 21
43.291250147950009
 31
0.0
  0
ARC
  5
7D9
  8
0
 10
0.3810143522000118
 20
43.094408181281423
 30
0.0
 40
0.1968419666685719
 50
90.0
 51
179.9999982137056
  0
LINE
  5
7DA
  8
0
 10
0.1841723855314257
 20
43.094408187418317
 30
0.0
 11
0.1841723711228411
 21
42.632249595873091
 31
0.0
  0
ARC
  5
7DB
  8
0
 10
0.3810058941910341
 20
42.632249589736467
 30
0.0
 40
0.1968335230681853
 50
179.99999821370341
 51
270.0024620207468
  0
LINE
  5
7DC
  8
0
 10
0.3810143522000118
 20
42.43541606685001
 30
0.0
 11
9.2289744006313441
 21
42.43541606685001
 31
0.0
  0
ARC
  5
7DD
  8
0
 10
9.2289753530152581
 20
42.632265521276643
 30
0.0
 40
0.1968494544289516
 50
269.99972279537258
 51
359.99536471153527
  0
LINE
  5
7DE
  8
0
 10
9.4258248068000086
 20
42.63224959595
 30
0.0
 11
9.4258248068000086
 21
43.094416618849998
 31
0.0
  0
ARC
  5
7DF
  8
0
 10
9.2290636166859485
 20
43.09448896475832
 30
0.0
 40
0.1967612034142682
 50
359.9789332691924
 51
90.025976846299415
  0
ARC
  5
7E0
  8
0
 10
-0.059512197720295
 20
43.416730311006283
 30
0.0
 40
0.0898631942591145
 50
117.4846006116895
 51
180.42678294372391
  0
LINE
  5
7E1
  8
0
 10
-0.1493728989999994
 20
43.416060947149987
 30
0.0
 11
-0.1407659783730537
 21
42.260599808744679
 31
0.0
  0
ARC
  5
7E2
  8
0
 10
-0.0789018073288332
 20
42.263133729360703
 30
0.0
 40
0.0619160432575996
 50
182.34549087459609
 51
245.74299976633591
  0
ARC
  5
7E3
  8
0
 10
-0.0518152794878972
 20
42.278446264529151
 30
0.0
 40
0.088929870881396
 50
233.79918134291771
 51
270.21840606157832
  0
LINE
  5
7E4
  8
0
 10
-0.0514762880999911
 20
42.189517039750001
 30
0.0
 11
9.661465049100002
 21
42.189517039049981
 31
0.0
  0
ARC
  5
7E5
  8
0
 10
1.121265431474247
 20
488.50311110979243
 30
0.0
 40
446.2981098245196
 50
269.47308246000512
 51
269.84265665483588
  0
ARC
  5
7E6
  8
0
 10
-3.3811528575978991
 20
63.367889545889767
 30
0.0
 40
21.147763404013219
 50
261.7675728891611
 51
271.07869212225631
  0
ARC
  5
7E7
  8
0
 10
-4.8777706750973753
 20
53.145581687442608
 30
0.0
 40
10.81650762634618
 50
243.3630984330108
 51
261.86012750070682
  0
ARC
  5
7E8
  8
0
 10
-9.5927152466895222
 20
43.168410184869231
 30
0.0
 40
0.3283020109369411
 50
91.965748091341482
 51
98.938641239941404
  0
ARC
  5
7E9
  8
0
 10
-9.7219468803491953
 20
43.459969572784068
 30
0.0
 40
0.0178922147615109
 50
107.034322336446
 51
179.046513427317
  0
ARC
  5
7EA
  8
0
 10
-9.4906015078478223
 20
42.445604172550553
 30
0.0
 40
1.058257619680848
 50
98.319596843732256
 51
102.91836680627689
  0
LINE
  5
7EB
  8
0
 10
19.368544509788862
 20
14.398960519799999
 30
0.0
 11
-9.7585557487888526
 21
14.398960519799999
 31
0.0
  0
ARC
  5
7ED
  8
0
 10
9.669500958720306
 20
43.416730311006283
 30
0.0
 40
0.0898631942591145
 50
359.57321705627612
 51
62.418689969529531
  0
LINE
  5
7EE
  8
0
 10
9.7593616600000104
 20
43.416060947149987
 30
0.0
 11
9.7507547393730647
 21
42.260599808744679
 31
0.0
  0
ARC
  5
7EF
  8
0
 10
9.6888905683288442
 20
42.263133729360703
 30
0.0
 40
0.0619160432575996
 50
294.25700023366409
 51
357.65450912540359
  0
ARC
  5
7F0
  8
0
 10
9.6618040404879082
 20
42.278446264529151
 30
0.0
 40
0.088929870881396
 50
269.78159393842083
 51
306.20081865708221
  0
LINE
  5
9CB
  8
0
 10
19.349825378643121
 20
43.460267311976352
 30
0.0
 11
19.368544509788862
 21
14.398960519799999
 31
0.0
  0
ARC
  5
9CC
  8
0
 10
8.4887233295257634
 20
488.50311110979243
 30
0.0
 40
446.2981098245196
 50
270.15734334516412
 51
270.526917539995
  0
ARC
  5
9CD
  8
0
 10
12.99114161859791
 20
63.367889545889767
 30
0.0
 40
21.147763404013219
 50
268.92130787774369
 51
278.2324271108389
  0
ARC
  5
9CE
  8
0
 10
14.487759436097379
 20
53.145581687442608
 30
0.0
 40
10.81650762634618
 50
278.13987249929318
 51
296.6369015669892
  0
ARC
  5
9CF
  8
0
 10
19.202704007689629
 20
43.168410184870048
 30
0.0
 40
0.3283020109361115
 50
81.061358760053366
 51
87.174333677148084
  0
ARC
  5
9D0
  8
0
 10
19.331935641349201
 20
43.459969572784068
 30
0.0
 40
0.0178922147615109
 50
0.9534865726829324
 51
72.965677663553933
  0
ARC
  5
9D1
  8
0
 10
19.100590268847832
 20
42.445604172550553
 30
0.0
 40
1.058257619680848
 50
77.081633193723093
 51
81.680403156267744
  0
ENDSEC
  0
EOF
